  0
SECTION
  2
HEADER
  9
$ACADVER
  1
AC1009
  9
$INSBASE
 10
0.0
 20
0.0
 30
0.0
  9
$EXTMIN
 10
170.58288488559251
 20
-64.625851304408201
 30
0.0
  9
$EXTMAX
 10
551.79944887682063
 20
181.49445043749671
 30
0.0
  9
$LIMMIN
 10
0.0
 20
0.0
  9
$LIMMAX
 10
410.0
 20
287.0
  9
$ORTHOMODE
 70
     1
  9
$REGENMODE
 70
     1
  9
$FILLMODE
 70
     1
  9
$QTEXTMODE
 70
     0
  9
$MIRRTEXT
 70
     1
  9
$DRAGMODE
 70
     2
  9
$LTSCALE
 40
1.0
  9
$OSMODE
 70
   549
  9
$ATTMODE
 70
     1
  9
$TEXTSIZE
 40
3.5
  9
$TRACEWID
 40
0.05
  9
$TEXTSTYLE
  7
STANDARD
  9
$CLAYER
  8
ZYL_50_ISO6431-0
  9
$CELTYPE
  6
BYLAYER
  9
$CECOLOR
 62
   256
  9
$DIMSCALE
 40
1.0
  9
$DIMASZ
 40
2.5
  9
$DIMEXO
 40
1.0
  9
$DIMDLI
 40
7.0
  9
$DIMRND
 40
0.0
  9
$DIMDLE
 40
0.0
  9
$DIMEXE
 40
1.0
  9
$DIMTP
 40
0.1
  9
$DIMTM
 40
0.1
  9
$DIMTXT
 40
3.5
  9
$DIMCEN
 40
0.0
  9
$DIMTSZ
 40
0.0
  9
$DIMTOL
 70
     0
  9
$DIMLIM
 70
     0
  9
$DIMTIH
 70
     0
  9
$DIMTOH
 70
     0
  9
$DIMSE1
 70
     0
  9
$DIMSE2
 70
     0
  9
$DIMTAD
 70
     1
  9
$DIMZIN
 70
     0
  9
$DIMBLK
  1

  9
$DIMASO
 70
     1
  9
$DIMSHO
 70
     1
  9
$DIMPOST
  1
<>
  9
$DIMAPOST
  1

  9
$DIMALT
 70
     0
  9
$DIMALTD
 70
     2
  9
$DIMALTF
 40
0.0393701
  9
$DIMLFAC
 40
1.0
  9
$DIMTOFL
 70
     1
  9
$DIMTVP
 40
0.0
  9
$DIMTIX
 70
     0
  9
$DIMSOXD
 70
     0
  9
$DIMSAH
 70
     0
  9
$DIMBLK1
  1

  9
$DIMBLK2
  1

  9
$DIMSTYLE
  2
GEN-ISO
  9
$DIMCLRD
 70
   256
  9
$DIMCLRE
 70
   256
  9
$DIMCLRT
 70
     2
  9
$DIMTFAC
 40
0.71
  9
$DIMGAP
 40
0.6
  9
$LUNITS
 70
     2
  9
$LUPREC
 70
     2
  9
$SKETCHINC
 40
0.1
  9
$FILLETRAD
 40
12.5
  9
$AUNITS
 70
     0
  9
$AUPREC
 70
     0
  9
$MENU
  1
acad
  9
$ELEVATION
 40
0.0
  9
$PELEVATION
 40
0.0
  9
$THICKNESS
 40
0.0
  9
$LIMCHECK
 70
     0
  9
$BLIPMODE
 70
     0
  9
$CHAMFERA
 40
12.5
  9
$CHAMFERB
 40
12.5
  9
$SKPOLY
 70
     0
  9
$TDCREATE
 40
2450823.6694155792
  9
$TDUPDATE
 40
2455100.661208217
  9
$TDINDWG
 40
0.0484481019
  9
$TDUSRTIMER
 40
0.0484481019
  9
$USRTIMER
 70
     1
  9
$ANGBASE
 50
0.0
  9
$ANGDIR
 70
     0
  9
$PDMODE
 70
     0
  9
$PDSIZE
 40
0.0
  9
$PLINEWID
 40
0.0
  9
$COORDS
 70
     0
  9
$SPLFRAME
 70
     0
  9
$SPLINETYPE
 70
     6
  9
$SPLINESEGS
 70
     8
  9
$ATTDIA
 70
     1
  9
$ATTREQ
 70
     1
  9
$HANDLING
 70
-16383
  9
$HANDSEED
  5
E51
  9
$SURFTAB1
 70
     6
  9
$SURFTAB2
 70
     6
  9
$SURFTYPE
 70
     6
  9
$SURFU
 70
     6
  9
$SURFV
 70
     6
  9
$UCSNAME
  2

  9
$UCSORG
 10
0.0
 20
0.0
 30
0.0
  9
$UCSXDIR
 10
1.0
 20
0.0
 30
0.0
  9
$UCSYDIR
 10
0.0
 20
1.0
 30
0.0
  9
$PUCSNAME
  2

  9
$PUCSORG
 10
0.0
 20
0.0
 30
0.0
  9
$PUCSXDIR
 10
1.0
 20
0.0
 30
0.0
  9
$PUCSYDIR
 10
0.0
 20
1.0
 30
0.0
  9
$USERI1
 70
     0
  9
$USERI2
 70
     0
  9
$USERI3
 70
     0
  9
$USERI4
 70
     0
  9
$USERI5
 70
     0
  9
$USERR1
 40
0.0
  9
$USERR2
 40
0.0
  9
$USERR3
 40
0.0
  9
$USERR4
 40
0.0
  9
$USERR5
 40
0.0
  9
$WORLDVIEW
 70
     1
  9
$SHADEDGE
 70
     3
  9
$SHADEDIF
 70
    70
  9
$TILEMODE
 70
     1
  9
$MAXACTVP
 70
    16
  9
$PLIMCHECK
 70
     0
  9
$PEXTMIN
 10
1.0000000000000000E+020
 20
1.0000000000000000E+020
 30
1.0000000000000000E+020
  9
$PEXTMAX
 10
-1.0000000000000000E+020
 20
-1.0000000000000000E+020
 30
-1.0000000000000000E+020
  9
$PLIMMIN
 10
0.0
 20
0.0
  9
$PLIMMAX
 10
12.0
 20
9.0
  9
$UNITMODE
 70
     0
  9
$VISRETAIN
 70
     0
  9
$PLINEGEN
 70
     0
  9
$PSLTSCALE
 70
     1
  0
ENDSEC
  0
SECTION
  2
TABLES
  0
TABLE
  2
VPORT
 70
     3
  0
VPORT
  2
*ACTIVE
 70
     0
 10
0.0
 20
0.0
 11
1.0
 21
1.0
 12
412.49452946771078
 22
58.434299566544247
 13
0.0
 23
0.0
 14
5.0
 24
5.0
 15
50.0
 25
50.0
 16
0.0
 26
0.0
 36
1.0
 17
0.0
 27
0.0
 37
0.0
 40
307.65037717738107
 41
1.8999999999999999
 42
50.0
 43
0.0
 44
0.0
 50
0.0
 51
0.0
 71
     0
 72
   100
 73
     1
 74
     0
 75
     0
 76
     0
 77
     0
 78
     0
  0
ENDTAB
  0
TABLE
  2
LTYPE
 70
    18
  0
LTYPE
  2
CONTINUOUS
 70
     0
  3
Solid line
 72
    65
 73
     0
 40
0.0
  0
LTYPE
  2
GEN7
 70
     0
  3
____ . ____ . ____ . ____ . ____ . ____ . ____
 72
    65
 73
     4
 40
13.75
 49
10.0
 49
-1.25
 49
1.25
 49
-1.25
  0
LTYPE
  2
GEN3
 70
     0
  3
-- -- -- -- -- -- -- -- -- -- -- -- -- -- --
 72
    65
 73
     2
 40
6.25
 49
5.0
 49
-1.25
  0
LTYPE
  2
GEN3A
 70
     0
  3
 - - - - -
 72
    65
 73
     2
 40
3.125
 49
2.5
 49
-0.625
  0
LTYPE
  2
GEN7A
 70
     0
  3
__ . __ . __
 72
    65
 73
     4
 40
6.875
 49
5.0
 49
-0.625
 49
0.625
 49
-0.625
  0
LTYPE
  2
GEN4A
 70
     0
  3
_____ . . _____ . . _____ . . ____ .. ____
 72
    65
 73
     6
 40
16.25
 49
10.0
 49
-1.25
 49
1.25
 49
-1.25
 49
1.25
 49
-1.25
  0
LTYPE
  2
ACISOWELD
 70
     0
  3
_ _ _ _ _
 72
    65
 73
     2
 40
2.0
 49
2.0
 49
-1.0
  0
LTYPE
  2
ACISOTGB
 70
     0
  3
__ . . __ . .
 72
    65
 73
     6
 40
9.0
 49
4.0
 49
-1.0
 49
1.0
 49
-1.0
 49
1.0
 49
-1.0
  0
LTYPE
  2
ACISOTGL
 70
     0
  3
_ _ _ _ _
 72
    65
 73
     2
 40
3.0
 49
2.0
 49
-1.0
  0
LTYPE
  2
AM_ISO02W050
 70
     0
  3
__ __ __ __ __ __ __ __ __ __ __ __ __ __ __
 72
    65
 73
     2
 40
7.5
 49
6.0
 49
-1.5
  0
LTYPE
  2
AM_ISO08W050
 70
     0
  3
____ . ____ . ____ . ____ . ____ . ____ . ____
 72
    65
 73
     4
 40
18.0
 49
12.0
 49
-1.5
 49
3.0
 49
-1.5
  0
LTYPE
  2
AM_ISO09W050
 70
     0
  3
_____ . . _____ . . _____ . . ____ .. ____
 72
    65
 73
     6
 40
22.5
 49
12.0
 49
-1.5
 49
3.0
 49
-1.5
 49
3.0
 49
-1.5
  0
LTYPE
  2
AMCONSTR
 70
     0
  3
_______________________
 72
    65
 73
     2
 40
9999.0
 49
9999.0
 49
0.0
  0
LTYPE
  2
AM_ISO02W050X2
 70
     0
  3
 _ _ _ _ _ _ _ _ _ _ _ _
 72
    65
 73
     2
 40
3.75
 49
3.0
 49
-0.75
  0
LTYPE
  2
AM_ISO08W050X2
 70
     0
  3
__ . __ . __ . __ . __ . __
 72
    65
 73
     4
 40
9.0
 49
6.0
 49
-0.75
 49
1.5
 49
-0.75
  0
LTYPE
  2
AMZIGZAG
 70
     0
  3
/\/-/\/-/\/-/\/-/\/-/\/
 72
    65
 73
     2
 40
11.000099999999991
 49
0.0001
 49
-11.0
  0
LTYPE
  2
CENTER
 70
     0
  3
__ . __
 72
    65
 73
     4
 40
7.0
 49
4.0
 49
-1.0
 49
1.0
 49
-1.0
  0
LTYPE
  2
GENZIGZAG
 70
     0
  3
/\/-/\/-/\/-/\/-/\/-/\/
 72
    65
 73
     2
 40
12.0001
 49
0.0001
 49
-12.0
  0
ENDTAB
  0
TABLE
  2
LAYER
 70
    44
  0
LAYER
  2
0
 70
     0
 62
     7
  6
CONTINUOUS
  0
LAYER
  2
MSL_F20_50-0
 70
     0
 62
     7
  6
CONTINUOUS
  0
LAYER
  2
KLIN
 70
     0
 62
     1
  6
CONTINUOUS
  0
LAYER
  2
MSL_F20_50-7
 70
     0
 62
     4
  6
GEN7
  0
LAYER
  2
MSL_F20_50-5
 70
     0
 62
     3
  6
CONTINUOUS
  0
LAYER
  2
MSL_F20_50-3
 70
     0
 62
     6
  6
GEN3
  0
LAYER
  2
KPKT
 70
     0
 62
   162
  6
CONTINUOUS
  0
LAYER
  2
VCCNULL
 70
     0
 62
    -5
  6
CONTINUOUS
  0
LAYER
  2
GEV_FROZEN
 70
     1
 62
     7
  6
CONTINUOUS
  0
LAYER
  2
-BHMU
 70
     0
 62
     7
  6
CONTINUOUS
  0
LAYER
  2
BHMM
 70
     0
 62
     7
  6
CONTINUOUS
  0
LAYER
  2
THLI
 70
     0
 62
     7
  6
CONTINUOUS
  0
LAYER
  2
CENN
 70
     0
 62
     7
  6
CONTINUOUS
  0
LAYER
  2
MSL_F20_50-3A
 70
     0
 62
     6
  6
GEN3A
  0
LAYER
  2
MSL_F20_50-7A
 70
     0
 62
     4
  6
GEN7A
  0
LAYER
  2
MSL_F20_50-7AN
 70
     0
 62
     4
  6
GEN7A
  0
LAYER
  2
MSL_F20_50-4
 70
     0
 62
     3
  6
CONTINUOUS
  0
LAYER
  2
ZYL_50_ISO6431-0
 70
     0
 62
     7
  6
CONTINUOUS
  0
LAYER
  2
ZYL_50_ISO6431-7
 70
     0
 62
     4
  6
GEN7
  0
LAYER
  2
ZYL_50_ISO6431-4
 70
     0
 62
     3
  6
CONTINUOUS
  0
LAYER
  2
ZYL_50_ISO6431-3
 70
     0
 62
     6
  6
GEN3
  0
LAYER
  2
BHII
 70
     0
 62
     7
  6
CONTINUOUS
  0
LAYER
  2
HIDN
 70
     0
 62
     7
  6
CONTINUOUS
  0
LAYER
  2
CON1
 70
     0
 62
     7
  6
CONTINUOUS
  0
LAYER
  2
-BHHH
 70
     0
 62
     7
  6
CONTINUOUS
  0
LAYER
  2
-BHHU
 70
     0
 62
     7
  6
CONTINUOUS
  0
LAYER
  2
MSL_F20_50-0N
 70
     0
 62
     7
  6
CONTINUOUS
  0
LAYER
  2
MSL_F20_50-4N
 70
     0
 62
     3
  6
CONTINUOUS
  0
LAYER
  2
MSL_F20_50-3AN
 70
     0
 62
     6
  6
GEN3A
  0
LAYER
  2
MSL_F20_50-3N
 70
     0
 62
     6
  6
GEN3
  0
LAYER
  2
MSF20-0
 70
     0
 62
     7
  6
CONTINUOUS
  0
LAYER
  2
MSF20-8
 70
     0
 62
     1
  6
CONTINUOUS
  0
LAYER
  2
MSF20-4
 70
     0
 62
     3
  6
CONTINUOUS
  0
LAYER
  2
MSF20-6
 70
     0
 62
     2
  6
CONTINUOUS
  0
LAYER
  2
MSF20-7
 70
     0
 62
     4
  6
GEN7
  0
LAYER
  2
MSF20-3
 70
     0
 62
     6
  6
GEN3
  0
LAYER
  2
MSF20-4A
 70
     0
 62
     3
  6
GEN4A
  0
LAYER
  2
INFO
 70
     0
 62
     4
  6
CONTINUOUS
  0
LAYER
  2
MSF20-0N
 70
     0
 62
     7
  6
CONTINUOUS
  0
LAYER
  2
MSF20-9
 70
     0
 62
  -253
  6
CONTINUOUS
  0
LAYER
  2
ZYL_50_ISO6431-6
 70
     0
 62
     2
  6
CONTINUOUS
  0
LAYER
  2
ZYL_50_ISO6431-4A
 70
     0
 62
     3
  6
GEN4A
  0
LAYER
  2
DEFPOINTS
 70
     0
 62
     7
  6
CONTINUOUS
  0
LAYER
  2
AM_BOR
 70
     0
 62
     7
  6
CONTINUOUS
  0
ENDTAB
  0
TABLE
  2
STYLE
 70
     5
  0
STYLE
  2
STANDARD
 70
     0
 40
0.0
 41
1.0
 50
0.0
 71
     0
 42
3.5
  3
ISOCP.SHX
  4

  0
STYLE
  2
ACISOTS
 70
     0
 40
1.0
 41
1.0
 50
0.0
 71
     0
 42
2.5
  3
isocp.shx
  4

  0
STYLE
  2
ACISOGDT
 70
     0
 40
0.0
 41
1.0
 50
0.0
 71
     0
 42
2.5
  3
amgdt.shx
  4

  0
STYLE
  2

 70
     1
 40
0.0
 41
1.0
 50
0.0
 71
     0
 42
2.5
  3
ltypeshp.shx
  4

  0
STYLE
  2

 70
     1
 40
0.0
 41
1.0
 50
0.0
 71
     0
 42
3.5
  3
genltshp.shx
  4

  0
ENDTAB
  0
TABLE
  2
VIEW
 70
     0
  0
ENDTAB
  0
TABLE
  2
UCS
 70
     0
  0
ENDTAB
  0
TABLE
  2
APPID
 70
    77
  0
APPID
  2
ACAD
 70
     0
  0
APPID
  2
GENIUS_GENCFG_13
 70
     0
  0
APPID
  2
GENIUS_GENCFG0_13
 70
     0
  0
APPID
  2
GENIUS_GENCFG1_13
 70
     0
  0
APPID
  2
GENIUS_GENCFG2_13
 70
     0
  0
APPID
  2
GENIUS_GENCFG3_13
 70
     0
  0
APPID
  2
GENIUS_GENCFG4_13
 70
     0
  0
APPID
  2
GENIUS_GEVCFG0_13
 70
     0
  0
APPID
  2
GENIUS_GEFCFG0_13
 70
     0
  0
APPID
  2
GENIUS_GENOENT_13
 70
     0
  0
APPID
  2
GENIUS_GENFIL_13
 70
     0
  0
APPID
  2
GENIUS_GENODEF_13
 70
     0
  0
APPID
  2
GENIUS_GENOBJ-N-CHA_13
 70
     0
  0
APPID
  2
GENIUS_GENOBJ-N-CEN_13
 70
     0
  0
APPID
  2
GENIUS_GENREC_13
 70
     0
  0
APPID
  2
GENIUS_GENOBJ-N-REC_13
 70
     0
  0
APPID
  2
GENIUS_GENOBJ_13
 70
     0
  0
APPID
  2
GENIUS_GENOLIS_13
 70
     0
  0
APPID
  2
GENIUS_GENOREF_13
 70
     0
  0
APPID
  2
GENIUS_GENOBJ-N-CRS_13
 70
     0
  0
APPID
  2
GENIUS_GENHINW_13
 70
     0
  0
APPID
  2
GENIUS_GENOBJ-N-LEADER_13
 70
     0
  0
APPID
  2
GEV_VCCNULL_SWITCH_OFF
 70
     0
  0
APPID
  2
GEVID884349218
 70
     0
  0
APPID
  2
GEVDC
 70
     0
  0
APPID
  2
GEVPT
 70
     0
  0
APPID
  2
GEVIT
 70
     0
  0
APPID
  2
VCC
 70
     0
  0
APPID
  2
GENBH
 70
     0
  0
APPID
  2
GEVMK
 70
     0
  0
APPID
  2
GENIUS_GENOBJ-F-PART_13
 70
     0
  0
APPID
  2
GENIUS_GEFSTDP_13
 70
     0
  0
APPID
  2
GENIUS_GEFPARTINS_13
 70
     0
  0
APPID
  2
GEVID884349219
 70
     0
  0
APPID
  2
GEVID884349220
 70
     0
  0
APPID
  2
GEVID884349221
 70
     0
  0
APPID
  2
GEVID884349222
 70
     0
  0
APPID
  2
GEVRADREF
 70
     0
  0
APPID
  2
GENIUS_GENBH_13
 70
     0
  0
APPID
  2
GENIUS_GENOBJ-NBEHI-BHF_13
 70
     0
  0
APPID
  2
GENIUS_GENOBJ-NBEHI-BHB_13
 70
     0
  0
APPID
  2
GEVID884349223
 70
     0
  0
APPID
  2
GEVID884349224
 70
     0
  0
APPID
  2
GEVID884349225
 70
     0
  0
APPID
  2
GEVID884349226
 70
     0
  0
APPID
  2
GEVID884349227
 70
     0
  0
APPID
  2
GEVCON
 70
     0
  0
APPID
  2
GENIUS_GENINF13_13
 70
     0
  0
APPID
  2
GENIUS_GENOBJ-N-INFOPT_13
 70
     0
  0
APPID
  2
GENIUS_GENOBJ-N-RSSYM_13
 70
     0
  0
APPID
  2
GENIUS_GENSYMENT_13
 70
     0
  0
APPID
  2
GENIUS_GENSCSYM_13
 70
     0
  0
APPID
  2
GENIUS_GEFINFNAM_13
 70
     0
  0
APPID
  2
GEVID884360803
 70
     0
  0
APPID
  2
GEVID884360915
 70
     0
  0
APPID
  2
GEVID884360916
 70
     0
  0
APPID
  2
GENIUS_GENOBJ-N-HTC_13
 70
     0
  0
APPID
  2
GENIUS_GENHATCH_13
 70
     0
  0
APPID
  2
GEVID881589412
 70
     0
  0
APPID
  2
GEVID881589413
 70
     0
  0
APPID
  2
GEVID884361706
 70
     0
  0
APPID
  2
GEVID884361707
 70
     0
  0
APPID
  2
GEVID884361781
 70
     0
  0
APPID
  2
MCAD_NO_VIS
 70
     0
  0
APPID
  2
ACAD_TEMP_GRAPHIC
 70
     0
  0
APPID
  2
ACATTRIBSERVICES
 70
     0
  0
APPID
  2
GENIUS_GENOBJ-N-TIT_13
 70
     0
  0
APPID
  2
GENIUS_GENTITLE_13
 70
     0
  0
APPID
  2
GENIUS_GENZVEED_13
 70
     0
  0
APPID
  2
GENIUS_GENSCREG_15
 70
     0
  0
APPID
  2
GENIUS_GENOBJ-N-SDF_13
 70
     0
  0
APPID
  2
GENIUS_GENREC_14
 70
     0
  0
APPID
  2
GENIUS_GENBLLY_14
 70
     0
  0
APPID
  2
GENIUS_GENDTOL_13
 70
     0
  0
APPID
  2
GENIUS_GENDIMSH_14
 70
     0
  0
APPID
  2
DCO15
 70
     0
  0
APPID
  2
CONTENTBLOCKICON
 70
     0
  0
ENDTAB
  0
TABLE
  2
DIMSTYLE
 70
    15
  0
DIMSTYLE
  2
STANDARD
 70
     0
  3

  4

  5

  6

  7

 40
1.0
 41
0.18
 42
0.0625
 43
0.38
 44
0.18
 45
0.0
 46
0.0
 47
0.0
 48
0.0
140
0.18
141
0.09
142
0.0
143
25.399999999999999
144
1.0
145
0.0
146
1.0
147
0.09
 71
     0
 72
     0
 73
     1
 74
     1
 75
     0
 76
     0
 77
     0
 78
     0
170
     0
171
     2
172
     0
173
     0
174
     0
175
     0
176
     0
177
     0
178
     0
  0
DIMSTYLE
  2
GEN-ISO
 70
     0
  3
<>
  4

  5

  6

  7

 40
1.0
 41
2.5
 42
1.0
 43
7.0
 44
1.0
 45
0.0
 46
0.0
 47
0.1
 48
0.1
140
3.5
141
0.0
142
0.0
143
0.0393701
144
1.0
145
0.0
146
0.71
147
0.6
 71
     0
 72
     0
 73
     0
 74
     0
 75
     0
 76
     0
 77
     1
 78
     8
170
     0
171
     2
172
     1
173
     0
174
     0
175
     0
176
   256
177
   256
178
     2
  0
DIMSTYLE
  2
AM_ISO
 70
     0
  3

  4
"
  5

  6

  7

 40
1.0
 41
2.5
 42
1.0
 43
10.0
 44
1.0
 45
0.0
 46
0.0
 47
0.1
 48
0.1
140
3.5
141
0.0
142
0.0
143
0.0393701
144
1.0
145
0.0
146
0.71
147
1.5
 71
     0
 72
     0
 73
     0
 74
     0
 75
     0
 76
     0
 77
     1
 78
     8
170
     0
171
     2
172
     1
173
     0
174
     0
175
     0
176
   256
177
   256
178
     2
  0
DIMSTYLE
  2
AM_ISO$3
 70
     0
  3

  4
"
  5

  6

  7

 40
1.0
 41
2.5
 42
1.0
 43
10.0
 44
1.0
 45
0.0
 46
0.0
 47
0.1
 48
0.1
140
3.5
141
0.0
142
0.0
143
0.0393701
144
1.0
145
0.0
146
0.71
147
1.5
 71
     0
 72
     0
 73
     0
 74
     1
 75
     0
 76
     0
 77
     1
 78
     8
170
     0
171
     2
172
     0
173
     0
174
     0
175
     0
176
   256
177
   256
178
     2
  0
DIMSTYLE
  2
AM_ISO$4
 70
     0
  3

  4
"
  5

  6

  7

 40
1.0
 41
2.5
 42
1.0
 43
10.0
 44
1.0
 45
0.0
 46
0.0
 47
0.1
 48
0.1
140
3.5
141
0.0
142
0.0
143
0.0393701
144
1.0
145
0.0
146
0.71
147
1.5
 71
     0
 72
     0
 73
     0
 74
     1
 75
     0
 76
     0
 77
     1
 78
     8
170
     0
171
     2
172
     0
173
     0
174
     0
175
     0
176
   256
177
   256
178
     2
  0
DIMSTYLE
  2
AM_ISO$6
 70
     0
  3

  4
"
  5

  6

  7

 40
1.0
 41
2.5
 42
1.0
 43
10.0
 44
1.0
 45
0.0
 46
0.0
 47
0.1
 48
0.1
140
3.5
141
0.0
142
0.0
143
0.0393701
144
1.0
145
0.0
146
0.71
147
1.5
 71
     0
 72
     0
 73
     0
 74
     0
 75
     0
 76
     0
 77
     0
 78
     8
170
     0
171
     2
172
     1
173
     0
174
     0
175
     0
176
   256
177
   256
178
     2
  0
DIMSTYLE
  2
AM_ISO$7
 70
     0
  3

  4
"
  5

  6

  7

 40
1.0
 41
2.5
 42
1.0
 43
10.0
 44
1.0
 45
0.0
 46
0.0
 47
0.1
 48
0.1
140
5.0
141
0.0
142
0.0
143
0.0393701
144
1.0
145
0.0
146
0.71
147
1.5
 71
     0
 72
     0
 73
     0
 74
     0
 75
     0
 76
     0
 77
     1
 78
     8
170
     0
171
     2
172
     1
173
     0
174
     0
175
     0
176
   256
177
   256
178
     2
  0
DIMSTYLE
  2
AM_ISO$SF
 70
     0
  3

  4
"
  5

  6

  7

 40
1.0
 41
2.5
 42
1.0
 43
10.0
 44
1.0
 45
0.0
 46
0.0
 47
0.1
 48
0.1
140
3.5
141
0.0
142
0.0
143
0.0393701
144
1.0
145
0.0
146
0.71
147
1.5
 71
     0
 72
     0
 73
     0
 74
     0
 75
     1
 76
     1
 77
     1
 78
     8
170
     0
171
     2
172
     1
173
     0
174
     0
175
     0
176
   256
177
   256
178
     2
  0
DIMSTYLE
  2
AM_ISO$SH
 70
     0
  3

  4
"
  5

  6
GENAXEH
  7

 40
1.0
 41
2.5
 42
1.0
 43
10.0
 44
1.0
 45
0.0
 46
0.0
 47
0.1
 48
0.1
140
3.5
141
0.0
142
0.0
143
0.0393701
144
2.0
145
0.0
146
0.71
147
1.5
 71
     0
 72
     0
 73
     0
 74
     0
 75
     1
 76
     1
 77
     1
 78
     8
170
     0
171
     2
172
     1
173
     1
174
     0
175
     0
176
   256
177
   256
178
     2
  0
DIMSTYLE
  2
GEN-ISO$3
 70
     0
  3
<>
  4

  5

  6

  7

 40
1.0
 41
2.5
 42
1.0
 43
7.0
 44
1.0
 45
0.0
 46
0.0
 47
0.1
 48
0.1
140
3.5
141
0.0
142
0.0
143
0.0393701
144
1.0
145
0.0
146
0.71
147
0.6
 71
     0
 72
     0
 73
     0
 74
     1
 75
     0
 76
     0
 77
     1
 78
     8
170
     0
171
     2
172
     0
173
     0
174
     0
175
     0
176
     0
177
     0
178
     0
  0
DIMSTYLE
  2
GEN-ISO$4
 70
     0
  3
<>
  4

  5

  6

  7

 40
1.0
 41
2.5
 42
1.0
 43
7.0
 44
1.0
 45
0.0
 46
0.0
 47
0.1
 48
0.1
140
3.5
141
0.0
142
0.0
143
0.0393701
144
1.0
145
0.0
146
0.71
147
0.6
 71
     0
 72
     0
 73
     0
 74
     1
 75
     0
 76
     0
 77
     1
 78
     8
170
     0
171
     2
172
     0
173
     0
174
     0
175
     0
176
     0
177
     0
178
     0
  0
DIMSTYLE
  2
GEN-ISO$6
 70
     0
  3
<>
  4

  5

  6

  7

 40
1.0
 41
2.5
 42
1.0
 43
7.0
 44
1.0
 45
0.0
 46
0.0
 47
0.1
 48
0.1
140
3.5
141
0.0
142
0.0
143
0.0393701
144
1.0
145
0.0
146
0.71
147
0.6
 71
     0
 72
     0
 73
     0
 74
     0
 75
     0
 76
     0
 77
     0
 78
     8
170
     0
171
     2
172
     0
173
     0
174
     0
175
     0
176
     0
177
     0
178
     0
  0
DIMSTYLE
  2
GEN-ISO-POS
 70
     0
  3
<>
  4

  5

  6

  7

 40
1.0
 41
2.5
 42
1.0
 43
7.0
 44
1.0
 45
0.0
 46
0.0
 47
0.1
 48
0.1
140
5.0
141
0.0
142
0.0
143
0.0393701
144
1.0
145
0.0
146
0.71
147
1.5
 71
     0
 72
     0
 73
     0
 74
     0
 75
     0
 76
     0
 77
     0
 78
     8
170
     0
171
     2
172
     0
173
     0
174
     0
175
     0
176
     0
177
     0
178
     0
  0
DIMSTYLE
  2
GEN-ISO-AXE-F
 70
     0
  3
<>
  4

  5

  6

  7

 40
1.0
 41
2.5
 42
1.0
 43
7.0
 44
1.0
 45
0.0
 46
0.0
 47
0.1
 48
0.1
140
3.5
141
0.0
142
0.0
143
0.0393701
144
1.0
145
0.0
146
0.71
147
0.6
 71
     0
 72
     0
 73
     0
 74
     0
 75
     1
 76
     1
 77
     1
 78
     8
170
     0
171
     2
172
     1
173
     0
174
     0
175
     0
176
     0
177
     0
178
     0
  0
DIMSTYLE
  2
GEN-ISO-AXE-H
 70
     0
  3
<>
  4

  5

  6
GENAXEH
  7

 40
1.0
 41
2.5
 42
1.0
 43
7.0
 44
1.0
 45
0.0
 46
0.0
 47
0.1
 48
0.1
140
3.5
141
0.0
142
0.0
143
0.0393701
144
2.0
145
0.0
146
0.71
147
0.6
 71
     0
 72
     0
 73
     0
 74
     0
 75
     1
 76
     1
 77
     1
 78
     8
170
     0
171
     2
172
     1
173
     1
174
     0
175
     0
176
     0
177
     0
178
     0
  0
ENDTAB
  0
ENDSEC
  0
SECTION
  2
BLOCKS
  0
BLOCK
  8
0
  2
$MODEL_SPACE
 70
     0
 10
0.0
 20
0.0
 30
0.0
  3
$MODEL_SPACE
  1

  0
ENDBLK
  5
1C
  8
0
  0
BLOCK
 67
     1
  8
0
  2
$PAPER_SPACE
 70
     0
 10
0.0
 20
0.0
 30
0.0
  3
$PAPER_SPACE
  1

  0
ENDBLK
  5
19
 67
     1
  8
0
  0
BLOCK
  8
0
  2
VCCIKPKT
 70
     0
 10
0.0
 20
0.0
 30
0.0
  3
VCCIKPKT
  1

  0
LINE
  5
196
  8
KPKT
 62
     4
 10
1.0
 20
1.0
 30
0.0
 11
-1.0
 21
1.0
 31
0.0
  0
LINE
  5
197
  8
KPKT
 62
     4
 10
-1.0
 20
-1.0
 30
0.0
 11
1.0
 21
1.0
 31
0.0
  0
LINE
  5
198
  8
KPKT
 62
     4
 10
-1.0
 20
-1.0
 30
0.0
 11
1.0
 21
-1.0
 31
0.0
  0
LINE
  5
199
  8
KPKT
 62
     4
 10
-1.0
 20
1.0
 30
0.0
 11
1.0
 21
-1.0
 31
0.0
  0
CIRCLE
  5
19A
  8
KPKT
 62
     4
 10
0.0
 20
0.0
 30
0.0
 40
1.4142135623730949
  0
LINE
  5
19B
  8
KPKT
 62
     4
 10
-1.0
 20
1.0
 30
0.0
 11
-1.0
 21
-1.0
 31
0.0
  0
LINE
  5
19C
  8
KPKT
 62
     4
 10
1.0
 20
-1.0
 30
0.0
 11
1.0
 21
1.0
 31
0.0
  0
ENDBLK
  5
19E
  8
0
  0
BLOCK
  8
0
  2
VCCISYMB
 70
     0
 10
0.0
 20
0.0
 30
0.0
  3
VCCISYMB
  1

  0
LINE
  5
1A2
  8
VCCNULL
 10
4.0
 20
0.0
 30
0.0
 11
3.1999999999998181
 21
-0.1999999999998181
 31
0.0
  0
LINE
  5
1A3
  8
VCCNULL
 10
4.0
 20
0.0
 30
0.0
 11
3.1999999999998181
 21
0.1999999999998181
 31
0.0
  0
LINE
  5
1A4
  8
VCCNULL
 10
0.0
 20
2.0
 30
0.0
 11
0.1999999999998181
 21
1.1999999999998181
 31
0.0
  0
LINE
  5
1A5
  8
VCCNULL
 10
0.0
 20
2.0
 30
0.0
 11
-0.1999999999998181
 21
1.1999999999998181
 31
0.0
  0
LINE
  5
1A6
  8
VCCNULL
 10
0.0
 20
2.0
 30
0.0
 11
0.0
 21
0.0
 31
0.0
  0
LINE
  5
1A7
  8
VCCNULL
 10
0.0
 20
0.0
 30
0.0
 11
4.0
 21
0.0
 31
0.0
  0
ENDBLK
  5
1A9
  8
0
  0
BLOCK
  8
0
  2
*U2
 70
     1
 10
0.0
 20
0.0
 30
0.0
  3
*U2
  1
*U
  0
LINE
  5
1CB
  8
-BHMU
 10
15.999999999996399
 20
3.3235000000000001
 30
0.0
 11
15.999999999996399
 21
-3.3235000000000001
 31
0.0
  0
LINE
  5
1CC
  8
-BHMU
 10
0.0
 20
3.3235000000000001
 30
0.0
 11
0.0
 21
-3.3235000000000001
 31
0.0
  0
LINE
  5
1CD
  8
BHMM
 10
0.0
 20
-3.3235000000000001
 30
0.0
 11
15.999999999996399
 21
-3.3235000000000001
 31
0.0
  0
LINE
  5
1CE
  8
THLI
 10
0.0
 20
-4.0
 30
0.0
 11
15.99999999999639
 21
-4.0
 31
0.0
  0
LINE
  5
1CF
  8
CENN
 10
-3.0
 20
0.0
 30
0.0
 11
18.99999999999639
 21
0.0
 31
0.0
  0
LINE
  5
1D0
  8
BHMM
 10
0.0
 20
3.3235000000000001
 30
0.0
 11
15.999999999996399
 21
3.3235000000000001
 31
0.0
  0
LINE
  5
1D1
  8
THLI
 10
0.0
 20
4.0
 30
0.0
 11
15.99999999999639
 21
4.0
 31
0.0
  0
ENDBLK
  5
1D2
  8
0
  0
BLOCK
  8
0
  2
*U3
 70
     1
 10
0.0
 20
0.0
 30
0.0
  3
*U3
  1
*U
  0
INSERT
  5
1DD
  8
GEV_FROZEN
  2
*U2
 10
0.0
 20
0.0
 30
0.0
 41
0.1
 42
0.1
 43
0.1
1001
GENBH
1002
{
1000
-NOBRK
1002
}
  0
LINE
  5
1DE
  8
MSL_F20_50-3A
 10
0.0
 20
-3.3235000000000001
 30
0.0
 11
15.999999999996399
 21
-3.3235000000000001
 31
0.0
  0
LINE
  5
1DF
  8
MSL_F20_50-3A
 10
0.0
 20
-4.0
 30
0.0
 11
15.99999999999639
 21
-4.0
 31
0.0
  0
LINE
  5
1E0
  8
MSL_F20_50-7A
 10
-3.0
 20
0.0
 30
0.0
 11
18.99999999999639
 21
0.0
 31
0.0
  0
LINE
  5
1E1
  8
MSL_F20_50-3A
 10
0.0
 20
3.3235000000000001
 30
0.0
 11
15.999999999996399
 21
3.3235000000000001
 31
0.0
  0
LINE
  5
1E2
  8
MSL_F20_50-3A
 10
0.0
 20
4.0
 30
0.0
 11
15.99999999999639
 21
4.0
 31
0.0
  0
ENDBLK
  5
1E3
  8
0
  0
BLOCK
  8
0
  2
*U4
 70
     1
 10
0.0
 20
0.0
 30
0.0
  3
*U4
  1
*U
  0
LINE
  5
1F0
  8
-BHMU
 10
15.999999999996399
 20
3.3235000000000001
 30
0.0
 11
15.999999999996399
 21
-3.3235000000000001
 31
0.0
  0
LINE
  5
1F1
  8
-BHMU
 10
0.0
 20
3.3235000000000001
 30
0.0
 11
0.0
 21
-3.3235000000000001
 31
0.0
  0
LINE
  5
1F2
  8
BHMM
 10
0.0
 20
-3.3235000000000001
 30
0.0
 11
15.999999999996399
 21
-3.3235000000000001
 31
0.0
  0
LINE
  5
1F3
  8
THLI
 10
0.0
 20
-4.0
 30
0.0
 11
15.99999999999639
 21
-4.0
 31
0.0
  0
LINE
  5
1F4
  8
CENN
 10
-3.0
 20
0.0
 30
0.0
 11
18.99999999999639
 21
0.0
 31
0.0
  0
LINE
  5
1F5
  8
BHMM
 10
0.0
 20
3.3235000000000001
 30
0.0
 11
15.999999999996399
 21
3.3235000000000001
 31
0.0
  0
LINE
  5
1F6
  8
THLI
 10
0.0
 20
4.0
 30
0.0
 11
15.99999999999639
 21
4.0
 31
0.0
  0
ENDBLK
  5
1F7
  8
0
  0
BLOCK
  8
0
  2
*U5
 70
     1
 10
0.0
 20
0.0
 30
0.0
  3
*U5
  1
*U
  0
INSERT
  5
1FA
  8
GEV_FROZEN
  2
*U4
 10
0.0
 20
0.0
 30
0.0
 41
0.1
 42
0.1
 43
0.1
1001
GENBH
1002
{
1000
-NOBRK
1002
}
  0
LINE
  5
1FB
  8
MSL_F20_50-3A
 10
0.0
 20
-3.3235000000000001
 30
0.0
 11
15.999999999996399
 21
-3.3235000000000001
 31
0.0
  0
LINE
  5
1FC
  8
MSL_F20_50-3A
 10
0.0
 20
-4.0
 30
0.0
 11
15.99999999999639
 21
-4.0
 31
0.0
  0
LINE
  5
1FD
  8
MSL_F20_50-7A
 10
-3.0
 20
0.0
 30
0.0
 11
18.99999999999639
 21
0.0
 31
0.0
  0
LINE
  5
1FE
  8
MSL_F20_50-3A
 10
0.0
 20
3.3235000000000001
 30
0.0
 11
15.999999999996399
 21
3.3235000000000001
 31
0.0
  0
LINE
  5
1FF
  8
MSL_F20_50-3A
 10
0.0
 20
4.0
 30
0.0
 11
15.99999999999639
 21
4.0
 31
0.0
  0
ENDBLK
  5
200
  8
0
  0
BLOCK
  8
0
  2
*U6
 70
     1
 10
0.0
 20
0.0
 30
0.0
  3
*U6
  1
*U
  0
LINE
  5
20B
  8
-BHMU
 10
15.999999999996399
 20
3.3235000000000001
 30
0.0
 11
15.999999999996399
 21
-3.3235000000000001
 31
0.0
  0
LINE
  5
20C
  8
-BHMU
 10
0.0
 20
3.3235000000000001
 30
0.0
 11
0.0
 21
-3.3235000000000001
 31
0.0
  0
LINE
  5
20D
  8
BHMM
 10
0.0
 20
-3.3235000000000001
 30
0.0
 11
15.999999999996399
 21
-3.3235000000000001
 31
0.0
  0
LINE
  5
20E
  8
THLI
 10
0.0
 20
-4.0
 30
0.0
 11
15.99999999999639
 21
-4.0
 31
0.0
  0
LINE
  5
20F
  8
CENN
 10
-3.0
 20
0.0
 30
0.0
 11
18.99999999999639
 21
0.0
 31
0.0
  0
LINE
  5
210
  8
BHMM
 10
0.0
 20
3.3235000000000001
 30
0.0
 11
15.999999999996399
 21
3.3235000000000001
 31
0.0
  0
LINE
  5
211
  8
THLI
 10
0.0
 20
4.0
 30
0.0
 11
15.99999999999639
 21
4.0
 31
0.0
  0
ENDBLK
  5
212
  8
0
  0
BLOCK
  8
0
  2
*U7
 70
     1
 10
0.0
 20
0.0
 30
0.0
  3
*U7
  1
*U
  0
INSERT
  5
215
  8
GEV_FROZEN
  2
*U6
 10
0.0
 20
0.0
 30
0.0
 41
0.1
 42
0.1
 43
0.1
1001
GENBH
1002
{
1000
-NOBRK
1002
}
  0
LINE
  5
216
  8
MSL_F20_50-3A
 10
0.0
 20
-3.3235000000000001
 30
0.0
 11
15.999999999996399
 21
-3.3235000000000001
 31
0.0
  0
LINE
  5
217
  8
MSL_F20_50-3A
 10
0.0
 20
-4.0
 30
0.0
 11
15.99999999999639
 21
-4.0
 31
0.0
  0
LINE
  5
218
  8
MSL_F20_50-7A
 10
-3.0
 20
0.0
 30
0.0
 11
18.99999999999639
 21
0.0
 31
0.0
  0
LINE
  5
219
  8
MSL_F20_50-3A
 10
0.0
 20
3.3235000000000001
 30
0.0
 11
15.999999999996399
 21
3.3235000000000001
 31
0.0
  0
LINE
  5
21A
  8
MSL_F20_50-3A
 10
0.0
 20
4.0
 30
0.0
 11
15.99999999999639
 21
4.0
 31
0.0
  0
ENDBLK
  5
21B
  8
0
  0
BLOCK
  8
0
  2
*U8
 70
     1
 10
0.0
 20
0.0
 30
0.0
  3
*U8
  1
*U
  0
LINE
  5
223
  8
-BHMU
 10
15.99999999999649
 20
3.3235000000000001
 30
0.0
 11
15.99999999999649
 21
-3.3235000000000001
 31
0.0
  0
LINE
  5
224
  8
-BHMU
 10
0.0
 20
3.3235000000000001
 30
0.0
 11
0.0
 21
-3.3235000000000001
 31
0.0
  0
LINE
  5
225
  8
BHMM
 10
0.0
 20
-3.3235000000000001
 30
0.0
 11
15.99999999999649
 21
-3.3235000000000001
 31
0.0
  0
LINE
  5
226
  8
THLI
 10
0.0
 20
-4.0
 30
0.0
 11
15.99999999999649
 21
-4.0
 31
0.0
  0
LINE
  5
227
  8
CENN
 10
-3.0
 20
0.0
 30
0.0
 11
18.999999999996501
 21
0.0
 31
0.0
  0
LINE
  5
228
  8
BHMM
 10
0.0
 20
3.3235000000000001
 30
0.0
 11
15.99999999999649
 21
3.3235000000000001
 31
0.0
  0
LINE
  5
229
  8
THLI
 10
0.0
 20
4.0
 30
0.0
 11
15.99999999999649
 21
4.0
 31
0.0
  0
ENDBLK
  5
22A
  8
0
  0
BLOCK
  8
0
  2
*U9
 70
     1
 10
0.0
 20
0.0
 30
0.0
  3
*U9
  1
*U
  0
INSERT
  5
22D
  8
GEV_FROZEN
  2
*U8
 10
0.0
 20
0.0
 30
0.0
 41
0.1
 42
0.1
 43
0.1
1001
GENBH
1002
{
1000
-NOBRK
1002
}
  0
LINE
  5
22E
  8
MSL_F20_50-3A
 10
0.0
 20
-3.3235000000000001
 30
0.0
 11
15.99999999999649
 21
-3.3235000000000001
 31
0.0
  0
LINE
  5
22F
  8
MSL_F20_50-3A
 10
0.0
 20
-4.0
 30
0.0
 11
15.99999999999649
 21
-4.0
 31
0.0
  0
LINE
  5
230
  8
MSL_F20_50-7A
 10
-3.0
 20
0.0
 30
0.0
 11
18.999999999996501
 21
0.0
 31
0.0
  0
LINE
  5
231
  8
MSL_F20_50-3A
 10
0.0
 20
3.3235000000000001
 30
0.0
 11
15.99999999999649
 21
3.3235000000000001
 31
0.0
  0
LINE
  5
232
  8
MSL_F20_50-3A
 10
0.0
 20
4.0
 30
0.0
 11
15.99999999999649
 21
4.0
 31
0.0
  0
ENDBLK
  5
233
  8
0
  0
BLOCK
  8
0
  2
*U10
 70
     1
 10
0.0
 20
0.0
 30
0.0
  3
*U10
  1
*U
  0
LINE
  5
240
  8
CENN
 10
0.0
 20
-7.0
 30
0.0
 11
0.0
 21
7.0
 31
0.0
  0
CIRCLE
  5
241
  8
BHMM
 10
0.0
 20
0.0
 30
0.0
 40
3.3235000000000001
  0
ARC
  5
242
  8
THLI
 10
0.0
 20
0.0
 30
0.0
 40
4.0
 50
280.0
 51
209.99999999999989
  0
LINE
  5
243
  8
CENN
 10
-7.0
 20
0.0
 30
0.0
 11
7.0
 21
0.0
 31
0.0
  0
ENDBLK
  5
244
  8
0
  0
BLOCK
  8
0
  2
*U11
 70
     1
 10
0.0
 20
0.0
 30
0.0
  3
*U11
  1
*U
  0
INSERT
  5
248
  8
GEV_FROZEN
  2
*U10
 10
0.0
 20
0.0
 30
0.0
 41
0.1
 42
0.1
 43
0.1
1001
GENBH
1002
{
1000
-NOBRK
1002
}
  0
LINE
  5
249
  8
MSL_F20_50-7A
 10
0.0
 20
-7.0
 30
0.0
 11
0.0
 21
7.0
 31
0.0
  0
CIRCLE
  5
24A
  8
MSL_F20_50-0
 10
0.0
 20
0.0
 30
0.0
 40
3.3235000000000001
  0
ARC
  5
24B
  8
MSL_F20_50-4
 10
0.0
 20
0.0
 30
0.0
 40
4.0
 50
280.0
 51
209.99999999999989
  0
LINE
  5
24C
  8
MSL_F20_50-7A
 10
-7.0
 20
0.0
 30
0.0
 11
7.0
 21
0.0
 31
0.0
  0
ENDBLK
  5
24D
  8
0
  0
BLOCK
  8
0
  2
*U12
 70
     1
 10
0.0
 20
0.0
 30
0.0
  3
*U12
  1
*U
  0
LINE
  5
259
  8
CENN
 10
0.0
 20
-7.0
 30
0.0
 11
0.0
 21
7.0
 31
0.0
  0
CIRCLE
  5
25A
  8
BHMM
 10
0.0
 20
0.0
 30
0.0
 40
3.3235000000000001
  0
ARC
  5
25B
  8
THLI
 10
0.0
 20
0.0
 30
0.0
 40
4.0
 50
280.0
 51
209.99999999999989
  0
LINE
  5
25C
  8
CENN
 10
-7.0
 20
0.0
 30
0.0
 11
7.0
 21
0.0
 31
0.0
  0
ENDBLK
  5
25D
  8
0
  0
BLOCK
  8
0
  2
*U13
 70
     1
 10
0.0
 20
0.0
 30
0.0
  3
*U13
  1
*U
  0
INSERT
  5
260
  8
GEV_FROZEN
  2
*U12
 10
0.0
 20
0.0
 30
0.0
 41
0.1
 42
0.1
 43
0.1
1001
GENBH
1002
{
1000
-NOBRK
1002
}
  0
LINE
  5
261
  8
MSL_F20_50-7A
 10
0.0
 20
-7.0
 30
0.0
 11
0.0
 21
7.0
 31
0.0
  0
CIRCLE
  5
262
  8
MSL_F20_50-0
 10
0.0
 20
0.0
 30
0.0
 40
3.3235000000000001
  0
ARC
  5
263
  8
MSL_F20_50-4
 10
0.0
 20
0.0
 30
0.0
 40
4.0
 50
280.0
 51
209.99999999999989
  0
LINE
  5
264
  8
MSL_F20_50-7A
 10
-7.0
 20
0.0
 30
0.0
 11
7.0
 21
0.0
 31
0.0
  0
ENDBLK
  5
265
  8
0
  0
BLOCK
  8
0
  2
*U14
 70
     1
 10
0.0
 20
0.0
 30
0.0
  3
*U14
  1
*U
  0
LINE
  5
26E
  8
CENN
 10
0.0
 20
-7.0
 30
0.0
 11
0.0
 21
7.0
 31
0.0
  0
CIRCLE
  5
26F
  8
BHMM
 10
0.0
 20
0.0
 30
0.0
 40
3.3235000000000001
  0
ARC
  5
270
  8
THLI
 10
0.0
 20
0.0
 30
0.0
 40
4.0
 50
280.0
 51
209.99999999999989
  0
LINE
  5
271
  8
CENN
 10
-7.0
 20
0.0
 30
0.0
 11
7.0
 21
0.0
 31
0.0
  0
ENDBLK
  5
272
  8
0
  0
BLOCK
  8
0
  2
*U15
 70
     1
 10
0.0
 20
0.0
 30
0.0
  3
*U15
  1
*U
  0
INSERT
  5
275
  8
GEV_FROZEN
  2
*U14
 10
0.0
 20
0.0
 30
0.0
 41
0.1
 42
0.1
 43
0.1
1001
GENBH
1002
{
1000
-NOBRK
1002
}
  0
LINE
  5
276
  8
MSL_F20_50-7A
 10
0.0
 20
-7.0
 30
0.0
 11
0.0
 21
7.0
 31
0.0
  0
CIRCLE
  5
277
  8
MSL_F20_50-0
 10
0.0
 20
0.0
 30
0.0
 40
3.3235000000000001
  0
ARC
  5
278
  8
MSL_F20_50-4
 10
0.0
 20
0.0
 30
0.0
 40
4.0
 50
280.0
 51
209.99999999999989
  0
LINE
  5
279
  8
MSL_F20_50-7A
 10
-7.0
 20
0.0
 30
0.0
 11
7.0
 21
0.0
 31
0.0
  0
ENDBLK
  5
27A
  8
0
  0
BLOCK
  8
0
  2
*U16
 70
     1
 10
0.0
 20
0.0
 30
0.0
  3
*U16
  1
*U
  0
LINE
  5
283
  8
CENN
 10
0.0
 20
-7.0
 30
0.0
 11
0.0
 21
7.0
 31
0.0
  0
CIRCLE
  5
284
  8
BHMM
 10
0.0
 20
0.0
 30
0.0
 40
3.3235000000000001
  0
ARC
  5
285
  8
THLI
 10
0.0
 20
0.0
 30
0.0
 40
4.0
 50
280.0
 51
209.99999999999989
  0
LINE
  5
286
  8
CENN
 10
-7.0
 20
0.0
 30
0.0
 11
7.0
 21
0.0
 31
0.0
  0
ENDBLK
  5
287
  8
0
  0
BLOCK
  8
0
  2
*U17
 70
     1
 10
0.0
 20
0.0
 30
0.0
  3
*U17
  1
*U
  0
INSERT
  5
28A
  8
GEV_FROZEN
  2
*U16
 10
0.0
 20
0.0
 30
0.0
 41
0.1
 42
0.1
 43
0.1
1001
GENBH
1002
{
1000
-NOBRK
1002
}
  0
LINE
  5
28B
  8
MSL_F20_50-7A
 10
0.0
 20
-7.0
 30
0.0
 11
0.0
 21
7.0
 31
0.0
  0
CIRCLE
  5
28C
  8
MSL_F20_50-0
 10
0.0
 20
0.0
 30
0.0
 40
3.3235000000000001
  0
ARC
  5
28D
  8
MSL_F20_50-4
 10
0.0
 20
0.0
 30
0.0
 40
4.0
 50
280.0
 51
209.99999999999989
  0
LINE
  5
28E
  8
MSL_F20_50-7A
 10
-7.0
 20
0.0
 30
0.0
 11
7.0
 21
0.0
 31
0.0
  0
ENDBLK
  5
28F
  8
0
  0
BLOCK
  8
0
  2
*U18
 70
     1
 10
0.0
 20
0.0
 30
0.0
  3
*U18
  1
*U
  0
LINE
  5
2A2
  8
CENN
 10
0.0
 20
-7.863999999999999
 30
0.0
 11
0.0
 21
7.863999999999999
 31
0.0
  0
CIRCLE
  5
2A3
  8
BHMM
 10
0.0
 20
0.0
 30
0.0
 40
4.2832249999999989
  0
ARC
  5
2A4
  8
THLI
 10
0.0
 20
0.0
 30
0.0
 40
4.863999999999999
 50
280.0
 51
209.99999999999989
  0
LINE
  5
2A5
  8
CENN
 10
-7.863999999999999
 20
0.0
 30
0.0
 11
7.863999999999999
 21
0.0
 31
0.0
  0
ENDBLK
  5
2A6
  8
0
  0
BLOCK
  8
0
  2
*U19
 70
     1
 10
251.08288488559279
 20
-32.125851304408201
 30
0.0
  3
*U19
  1
*U
  0
INSERT
  5
2DE
  8
GEV_FROZEN
  2
*U18
 10
251.08288488559279
 20
-32.125851304408201
 30
0.0
 41
0.1
 42
0.1
 43
0.1
1001
GENBH
1002
{
1000
-NOBRK
1002
}
  0
LINE
  5
2DF
  8
MSL_F20_50-7A
 10
251.08288488559279
 20
-49.989851304408198
 30
0.0
 11
251.08288488559279
 21
-14.2618513044082
 31
0.0
  0
CIRCLE
  5
2E0
  8
MSL_F20_50-0
 10
251.08288488559279
 20
-32.125851304408201
 30
0.0
 40
4.2832249999999989
  0
ARC
  5
2E1
  8
MSL_F20_50-4
 10
251.08288488559279
 20
-32.125851304408201
 30
0.0
 40
4.863999999999999
 50
280.0
 51
209.99999999999989
  0
ENDBLK
  5
2E2
  8
0
  0
BLOCK
  8
0
  2
*U20
 70
     1
 10
0.0
 20
0.0
 30
0.0
  3
*U20
  1
*U
  0
LINE
  5
4B8
  8
-BHMU
 10
14.99999999999639
 20
-4.4999999999999991
 30
0.0
 11
14.99999999999639
 21
4.5000000000000018
 31
0.0
  0
LINE
  5
4B9
  8
-BHMU
 10
-0.0000000000000011
 20
4.5
 30
0.0
 11
0.0
 21
-4.5
 31
0.0
  0
LINE
  5
4BA
  8
BHMM
 10
0.0
 20
-4.5
 30
0.0
 11
14.99999999999639
 21
-4.4999999999999991
 31
0.0
  0
LINE
  5
4BB
  8
CENN
 10
17.99999999999639
 20
0.0
 30
0.0
 11
-3.0
 21
0.0
 31
0.0
  0
LINE
  5
4BC
  8
BHMM
 10
-0.0000000000000011
 20
4.5
 30
0.0
 11
14.99999999999639
 21
4.5000000000000018
 31
0.0
  0
ENDBLK
  5
4BD
  8
0
  0
BLOCK
  8
0
  2
*U21
 70
     1
 10
0.0
 20
0.0
 30
0.0
  3
*U21
  1
*U
  0
LINE
  5
4C3
  8
CENN
 10
-11.0
 20
0.0
 30
0.0
 11
33.0
 21
0.0
 31
0.0
  0
LINE
  5
4C4
  8
BHII
 10
0.0
 20
-4.0
 30
0.0
 11
29.233204999999991
 21
-3.9999999999999991
 31
0.0
  0
LINE
  5
4C5
  8
BHII
 10
0.0
 20
4.0
 30
0.0
 11
29.233204999999991
 21
3.9999999999999991
 31
0.0
  0
LINE
  5
4C6
  8
THLI
 10
3.125
 20
3.233204999999999
 30
0.0
 11
30.0
 21
3.2332049999999999
 31
0.0
  0
LINE
  5
4C7
  8
THLI
 10
3.125
 20
-3.233204999999999
 30
0.0
 11
30.0
 21
-3.2332049999999999
 31
0.0
  0
ARC
  5
4C8
  8
HIDN
 10
-8.9002499936227757
 20
0.0000000000000001
 30
0.0
 40
5.1974999999999998
 50
340.52877936550931
 51
19.471220634490681
  0
ARC
  5
4C9
  8
HIDN
 10
-5.1135937460142351
 20
-2.598749999999999
 30
0.0
 40
1.4108437523914601
 50
322.12112050828108
 51
37.878879491718813
  0
ARC
  5
4CA
  8
HIDN
 10
-5.1135937460142351
 20
2.598749999999999
 30
0.0
 40
1.4108437523914601
 50
322.12112050828108
 51
37.878879491718813
  0
LINE
  5
4CB
  8
BHII
 10
-7.9999999999999991
 20
-5.7000000000000011
 30
0.0
 11
-7.1999999999999993
 21
-6.5
 31
0.0
  0
LINE
  5
4CC
  8
BHII
 10
0.0
 20
4.0
 30
0.0
 11
0.0
 21
6.5
 31
0.0
  0
LINE
  5
4CD
  8
BHII
 10
-7.1999999999999993
 20
6.5
 30
0.0
 11
0.0
 21
6.5
 31
0.0
  0
LINE
  5
4CE
  8
BHII
 10
-7.9999999999999991
 20
5.7000000000000011
 30
0.0
 11
-7.1999999999999993
 21
6.5
 31
0.0
  0
LINE
  5
4CF
  8
BHII
 10
-7.1999999999999993
 20
-6.5
 30
0.0
 11
0.0
 21
-6.5
 31
0.0
  0
LINE
  5
4D0
  8
BHII
 10
0.0
 20
-6.5
 30
0.0
 11
0.0
 21
-4.0
 31
0.0
  0
LINE
  5
4D1
  8
BHII
 10
-7.9999999999999991
 20
-5.7000000000000011
 30
0.0
 11
-7.9999999999999991
 21
5.7000000000000011
 31
0.0
  0
LINE
  5
4D2
  8
CON1
 10
-7.1999999999999993
 20
6.5
 30
0.0
 11
-7.1999999999999993
 21
-6.5
 31
0.0
  0
LINE
  5
4D3
  8
HIDN
 10
-4.0
 20
3.464999999999999
 30
0.0
 11
-1.999481317257948
 21
0.0
 31
0.0
  0
LINE
  5
4D4
  8
HIDN
 10
-4.0
 20
-3.464999999999999
 30
0.0
 11
-1.999481317257948
 21
0.0
 31
0.0
  0
LINE
  5
4D5
  8
HIDN
 10
-8.0
 20
3.464999999999999
 30
0.0
 11
-4.0
 21
3.464999999999999
 31
0.0
  0
LINE
  5
4D6
  8
HIDN
 10
-8.0
 20
1.732499999999999
 30
0.0
 11
-4.0
 21
1.732499999999999
 31
0.0
  0
LINE
  5
4D7
  8
HIDN
 10
-8.0
 20
-1.732499999999999
 30
0.0
 11
-4.0
 21
-1.732499999999999
 31
0.0
  0
LINE
  5
4D8
  8
HIDN
 10
-8.0
 20
-3.464999999999999
 30
0.0
 11
-4.0
 21
-3.464999999999999
 31
0.0
  0
LINE
  5
4D9
  8
CON1
 10
0.0
 20
-4.0
 30
0.0
 11
0.0
 21
4.0
 31
0.0
  0
LINE
  5
4DA
  8
THLI
 10
-0.0000000000000004
 20
4.0
 30
0.0
 11
3.125
 21
3.233204999999999
 31
0.0
  0
LINE
  5
4DB
  8
THLI
 10
-0.0000000000000004
 20
-4.0
 30
0.0
 11
3.125
 21
-3.233204999999999
 31
0.0
  0
LINE
  5
4DC
  8
CON1
 10
3.125
 20
-4.0
 30
0.0
 11
3.125
 21
4.0
 31
0.0
  0
LINE
  5
4DD
  8
BHII
 10
30.0
 20
3.2332049999999999
 30
0.0
 11
29.233204999999991
 21
3.9999999999999991
 31
0.0
  0
LINE
  5
4DE
  8
BHII
 10
30.0
 20
-3.2332049999999999
 30
0.0
 11
29.233204999999991
 21
-3.9999999999999991
 31
0.0
  0
LINE
  5
4DF
  8
BHII
 10
30.0
 20
-3.2332049999999999
 30
0.0
 11
30.0
 21
3.2332049999999999
 31
0.0
  0
LINE
  5
4E0
  8
CON1
 10
29.233204999999991
 20
-3.9999999999999991
 30
0.0
 11
29.233204999999991
 21
3.9999999999999991
 31
0.0
  0
ENDBLK
  5
4E1
  8
0
  0
BLOCK
  8
0
  2
*U22
 70
     1
 10
0.0
 20
0.0
 30
0.0
  3
*U22
  1
*U
  0
LINE
  5
4E6
  8
-BHHH
 10
0.0
 20
4.5
 30
0.0
 11
14.99999999999639
 21
4.5000000000000071
 31
0.0
  0
LINE
  5
4E7
  8
-BHHH
 10
0.0
 20
-4.5
 30
0.0
 11
14.99999999999639
 21
-4.5
 31
0.0
  0
LINE
  5
4E8
  8
-BHHU
 10
0.0
 20
4.5
 30
0.0
 11
0.0
 21
-4.5
 31
0.0
  0
LINE
  5
4E9
  8
-BHHU
 10
14.99999999999639
 20
4.5000000000000071
 30
0.0
 11
14.99999999999639
 21
-4.5
 31
0.0
  0
ENDBLK
  5
4EA
  8
0
  0
BLOCK
  8
0
  2
*U23
 70
     1
 10
0.0
 20
0.0
 30
0.0
  3
*U23
  1
*U
  0
INSERT
  5
4ED
  8
CON1
  2
VCCIKPKT
 10
22.587499999996378
 20
6.4999999999999991
 30
0.0
1001
GENIUS_GENOREF_13
1005
0
1001
VCC
1002
{
1000
-KP1
1000
-ID36
1002
}
1001
GEVCON
1002
{
1000
-DIS
1070
     3
1000
-ANG
1070
     3
1002
}
  0
INSERT
  5
4EE
  8
CON1
  2
VCCIKPKT
 10
22.587499999996378
 20
6.4999999999999991
 30
0.0
1001
GENIUS_GENOREF_13
1005
0
1001
VCC
1002
{
1000
-KP0
1000
-ID37
1002
}
1001
GEVCON
1002
{
1000
-DIS
1070
     0
1000
-ANG
1070
     0
1002
}
  0
ENDBLK
  5
4EF
  8
0
  0
BLOCK
  8
0
  2
*U24
 70
     1
 10
0.0
 20
0.0
 30
0.0
  3
*U24
  1
*U
  0
INSERT
  5
4F2
  8
GEV_FROZEN
  2
*U20
 10
0.0
 20
0.0
 30
0.0
 41
0.1
 42
0.1
 43
0.1
1001
GENBH
1002
{
1000
-NOBRK
1002
}
  0
LINE
  5
4F3
  8
MSL_F20_50-0
 10
0.0
 20
-4.5
 30
0.0
 11
14.99999999999639
 21
-4.4999999999999991
 31
0.0
  0
LINE
  5
4F4
  8
MSL_F20_50-7A
 10
17.99999999999639
 20
0.0
 30
0.0
 11
-3.0
 21
0.0
 31
0.0
  0
LINE
  5
4F5
  8
MSL_F20_50-0
 10
-0.0000000000000011
 20
4.5
 30
0.0
 11
14.99999999999639
 21
4.5000000000000018
 31
0.0
  0
ENDBLK
  5
4F6
  8
0
  0
BLOCK
  8
0
  2
*U25
 70
     1
 10
0.0
 20
0.0
 30
0.0
  3
*U25
  1
*U
  0
INSERT
  5
4FD
  8
GEV_FROZEN
  2
*U21
 10
0.0
 20
0.0
 30
0.0
 41
0.1
 42
0.1
 43
0.1
1001
GENBH
1002
{
1000
-NOBRK
1002
}
  0
LINE
  5
4FE
  8
MSL_F20_50-7AN
 10
-11.0
 20
0.0
 30
0.0
 11
33.0
 21
0.0
 31
0.0
  0
LINE
  5
4FF
  8
MSL_F20_50-0N
 10
0.0
 20
-4.0
 30
0.0
 11
29.233204999999991
 21
-3.9999999999999991
 31
0.0
  0
LINE
  5
500
  8
MSL_F20_50-0N
 10
0.0
 20
4.0
 30
0.0
 11
29.233204999999991
 21
3.9999999999999991
 31
0.0
  0
LINE
  5
501
  8
MSL_F20_50-4N
 10
3.125
 20
3.233204999999999
 30
0.0
 11
30.0
 21
3.2332049999999999
 31
0.0
  0
LINE
  5
502
  8
MSL_F20_50-4N
 10
3.125
 20
-3.233204999999999
 30
0.0
 11
30.0
 21
-3.2332049999999999
 31
0.0
  0
ARC
  5
503
  8
MSL_F20_50-3AN
 10
-8.9002499936227757
 20
0.0000000000000001
 30
0.0
 40
5.1974999999999998
 50
340.52877936550931
 51
19.471220634490681
  0
ARC
  5
504
  8
MSL_F20_50-3AN
 10
-5.1135937460142351
 20
-2.598749999999999
 30
0.0
 40
1.4108437523914601
 50
322.12112050828108
 51
37.878879491718813
  0
ARC
  5
505
  8
MSL_F20_50-3AN
 10
-5.1135937460142351
 20
2.598749999999999
 30
0.0
 40
1.4108437523914601
 50
322.12112050828108
 51
37.878879491718813
  0
LINE
  5
506
  8
MSL_F20_50-0N
 10
-7.9999999999999991
 20
-5.7000000000000011
 30
0.0
 11
-7.1999999999999993
 21
-6.5
 31
0.0
  0
LINE
  5
507
  8
MSL_F20_50-0N
 10
0.0
 20
4.0
 30
0.0
 11
0.0
 21
6.5
 31
0.0
  0
LINE
  5
508
  8
MSL_F20_50-0N
 10
-7.1999999999999993
 20
6.5
 30
0.0
 11
0.0
 21
6.5
 31
0.0
  0
LINE
  5
509
  8
MSL_F20_50-0N
 10
-7.9999999999999991
 20
5.7000000000000011
 30
0.0
 11
-7.1999999999999993
 21
6.5
 31
0.0
  0
LINE
  5
50A
  8
MSL_F20_50-0N
 10
-7.1999999999999993
 20
-6.5
 30
0.0
 11
0.0
 21
-6.5
 31
0.0
  0
LINE
  5
50B
  8
MSL_F20_50-0N
 10
0.0
 20
-6.5
 30
0.0
 11
0.0
 21
-4.0
 31
0.0
  0
LINE
  5
50C
  8
MSL_F20_50-0N
 10
-7.9999999999999991
 20
-5.7000000000000011
 30
0.0
 11
-7.9999999999999991
 21
5.7000000000000011
 31
0.0
  0
LINE
  5
50D
  8
MSL_F20_50-0N
 10
-7.1999999999999993
 20
6.5
 30
0.0
 11
-7.1999999999999993
 21
-6.5
 31
0.0
  0
LINE
  5
50E
  8
MSL_F20_50-3AN
 10
-4.0
 20
3.464999999999999
 30
0.0
 11
-1.999481317257948
 21
0.0
 31
0.0
  0
LINE
  5
50F
  8
MSL_F20_50-3AN
 10
-4.0
 20
-3.464999999999999
 30
0.0
 11
-1.999481317257948
 21
0.0
 31
0.0
  0
LINE
  5
510
  8
MSL_F20_50-3AN
 10
-8.0
 20
3.464999999999999
 30
0.0
 11
-4.0
 21
3.464999999999999
 31
0.0
  0
LINE
  5
511
  8
MSL_F20_50-3AN
 10
-8.0
 20
1.732499999999999
 30
0.0
 11
-4.0
 21
1.732499999999999
 31
0.0
  0
LINE
  5
512
  8
MSL_F20_50-3AN
 10
-8.0
 20
-1.732499999999999
 30
0.0
 11
-4.0
 21
-1.732499999999999
 31
0.0
  0
LINE
  5
513
  8
MSL_F20_50-3AN
 10
-8.0
 20
-3.464999999999999
 30
0.0
 11
-4.0
 21
-3.464999999999999
 31
0.0
  0
LINE
  5
514
  8
MSL_F20_50-0N
 10
0.0
 20
-4.0
 30
0.0
 11
0.0
 21
4.0
 31
0.0
  0
LINE
  5
515
  8
MSL_F20_50-4N
 10
-0.0000000000000004
 20
4.0
 30
0.0
 11
3.125
 21
3.233204999999999
 31
0.0
  0
LINE
  5
516
  8
MSL_F20_50-4N
 10
-0.0000000000000004
 20
-4.0
 30
0.0
 11
3.125
 21
-3.233204999999999
 31
0.0
  0
LINE
  5
517
  8
MSL_F20_50-0N
 10
3.125
 20
-4.0
 30
0.0
 11
3.125
 21
4.0
 31
0.0
  0
LINE
  5
518
  8
MSL_F20_50-0N
 10
30.0
 20
3.2332049999999999
 30
0.0
 11
29.233204999999991
 21
3.9999999999999991
 31
0.0
  0
LINE
  5
519
  8
MSL_F20_50-0N
 10
30.0
 20
-3.2332049999999999
 30
0.0
 11
29.233204999999991
 21
-3.9999999999999991
 31
0.0
  0
LINE
  5
51A
  8
MSL_F20_50-0N
 10
30.0
 20
-3.2332049999999999
 30
0.0
 11
30.0
 21
3.2332049999999999
 31
0.0
  0
LINE
  5
51B
  8
MSL_F20_50-0N
 10
29.233204999999991
 20
-3.9999999999999991
 30
0.0
 11
29.233204999999991
 21
3.9999999999999991
 31
0.0
  0
ENDBLK
  5
51C
  8
0
  0
BLOCK
  8
0
  2
*U26
 70
     1
 10
0.0
 20
0.0
 30
0.0
  3
*U26
  1
*U
  0
INSERT
  5
520
  8
GEV_FROZEN
  2
*U22
 10
0.0
 20
0.0
 30
0.0
 41
0.1
 42
0.1
 43
0.1
1001
GENBH
1002
{
1000
-NOBRK
1002
}
  0
INSERT
  5
521
  8
MSL_F20_50-0
  2
VCCISYMB
 10
0.0
 20
0.0
 30
0.0
1001
GENBH
1002
{
1000
-NOBRK
1002
}
  0
ENDBLK
  5
522
  8
0
  0
BLOCK
  8
0
  2
*U27
 70
     1
 10
0.0
 20
0.0
 30
0.0
  3
*U27
  1
*U
  0
INSERT
  5
526
  8
GEV_FROZEN
  2
*U23
 10
0.0
 20
0.0
 30
0.0
 41
0.1
 42
0.1
 43
0.1
1001
GENBH
1002
{
1000
-NOBRK
1002
}
  0
INSERT
  5
527
  8
MSL_F20_50-0N
  2
VCCISYMB
 10
0.0
 20
0.0
 30
0.0
1001
GENBH
1002
{
1000
-NOBRK
1002
}
  0
ENDBLK
  5
528
  8
0
  0
BLOCK
  8
0
  2
*U28
 70
     1
 10
0.0
 20
0.0
 30
0.0
  3
*U28
  1
*U
1001
GENIUS_GENBH_13
1002
{
1000
BMBH
1070
     1
1002
}
  0
INSERT
  5
530
  8
GEV_FROZEN
  2
*U20
 10
0.0
 20
0.0
 30
0.0
 41
0.1
 42
0.1
 43
0.1
1001
GENBH
1002
{
1000
-NOBRK
1002
}
  0
LINE
  5
531
  8
MSL_F20_50-3
 10
0.0
 20
-4.5
 30
0.0
 11
14.999999999996421
 21
-4.5
 31
0.0
1001
GENIUS_GENBH_13
1002
{
1000
OE
1000
CON1
1002
}
  0
LINE
  5
532
  8
MSL_F20_50-7A
 10
17.99999999999639
 20
0.0
 30
0.0
 11
-3.0
 21
0.0
 31
0.0
  0
LINE
  5
533
  8
MSL_F20_50-3
 10
0.0
 20
4.5
 30
0.0
 11
14.999999999996421
 21
4.5000000000000018
 31
0.0
1001
GENIUS_GENBH_13
1002
{
1000
OE
1000
CON1
1002
}
  0
INSERT
  5
534
  8
0
  2
*U24
 10
0.0
 20
0.0
 30
0.0
1001
GENIUS_GENOLIS_13
1002
{
1000
ENT
1002
}
1001
GENIUS_GENOENT_13
1002
{
1000
MYREF
1005
0
1002
}
  0
ENDBLK
  5
535
  8
0
  0
BLOCK
  8
0
  2
*U29
 70
     1
 10
281.58288488559629
 20
-8.8758513044082008
 30
0.0
  3
*U29
  1
*U
  0
INSERT
  5
5E1
  8
GEV_FROZEN
  2
*U21
 10
281.58288488559629
 20
-8.8758513044082008
 30
0.0
 41
0.1
 42
0.1
 43
0.1
1001
GENBH
1002
{
1000
-NOBRK
1002
}
  0
LINE
  5
5E2
  8
MSL_F20_50-7AN
 10
270.58288488559617
 20
-8.8758513044082008
 30
0.0
 11
314.58288488559629
 21
-8.8758513044082008
 31
0.0
  0
LINE
  5
5E3
  8
MSL_F20_50-3N
 10
281.58288488559629
 20
-12.875851304408201
 30
0.0
 11
296.58288488559259
 21
-12.875851304408201
 31
0.0
1001
GENIUS_GENBH_13
1002
{
1000
OE
1000
N_CON1
1002
}
  0
LINE
  5
5E4
  8
MSL_F20_50-3
 10
296.58288488559259
 20
-12.875851304408201
 30
0.0
 11
310.81608988559623
 21
-12.875851304408201
 31
0.0
  0
LINE
  5
5E5
  8
MSL_F20_50-3N
 10
281.58288488559629
 20
-4.8758513044081999
 30
0.0
 11
296.58288488559259
 21
-4.8758513044081999
 31
0.0
1001
GENIUS_GENBH_13
1002
{
1000
OE
1000
N_CON1
1002
}
  0
LINE
  5
5E6
  8
MSL_F20_50-3
 10
296.58288488559259
 20
-4.8758513044081999
 30
0.0
 11
310.81608988559623
 21
-4.8758513044081999
 31
0.0
  0
LINE
  5
5E7
  8
MSL_F20_50-3N
 10
284.70788488559629
 20
-5.6426463044082
 30
0.0
 11
296.58288488559259
 21
-5.6426463044082
 31
0.0
1001
GENIUS_GENBH_13
1002
{
1000
OE
1000
N_THLI
1002
}
  0
LINE
  5
5E8
  8
MSL_F20_50-3
 10
296.58288488559259
 20
-5.6426463044082
 30
0.0
 11
311.58288488559617
 21
-5.6426463044082
 31
0.0
  0
LINE
  5
5E9
  8
MSL_F20_50-3N
 10
284.70788488559629
 20
-12.109056304408201
 30
0.0
 11
296.58288488559259
 21
-12.109056304408201
 31
0.0
1001
GENIUS_GENBH_13
1002
{
1000
OE
1000
N_THLI
1002
}
  0
LINE
  5
5EA
  8
MSL_F20_50-3
 10
296.58288488559259
 20
-12.109056304408201
 30
0.0
 11
311.58288488559617
 21
-12.109056304408201
 31
0.0
  0
ARC
  5
5EB
  8
MSL_F20_50-3AN
 10
272.68263489197352
 20
-8.8758513044082008
 30
0.0
 40
5.19749999999999
 50
340.52877936550919
 51
19.471220634490692
  0
ARC
  5
5EC
  8
MSL_F20_50-3AN
 10
276.46929113958203
 20
-11.4746013044082
 30
0.0
 40
1.410843752391479
 50
322.12112050828171
 51
37.878879491718159
  0
ARC
  5
5ED
  8
MSL_F20_50-3AN
 10
276.46929113958203
 20
-6.2771013044082
 30
0.0
 40
1.4108437523914801
 50
322.12112050828182
 51
37.87887949171818
  0
LINE
  5
5EE
  8
MSL_F20_50-0N
 10
273.58288488559629
 20
-14.5758513044082
 30
0.0
 11
274.3828848855963
 21
-15.375851304408201
 31
0.0
  0
LINE
  5
5EF
  8
MSL_F20_50-0N
 10
281.58288488559629
 20
-4.8758513044081999
 30
0.0
 11
281.58288488559629
 21
-2.3758513044081999
 31
0.0
  0
LINE
  5
5F0
  8
MSL_F20_50-0N
 10
274.3828848855963
 20
-2.3758513044081999
 30
0.0
 11
281.58288488559629
 21
-2.3758513044081999
 31
0.0
  0
LINE
  5
5F1
  8
MSL_F20_50-0N
 10
273.58288488559629
 20
-3.1758513044081988
 30
0.0
 11
274.3828848855963
 21
-2.3758513044081999
 31
0.0
  0
LINE
  5
5F2
  8
MSL_F20_50-0N
 10
274.3828848855963
 20
-15.375851304408201
 30
0.0
 11
281.58288488559629
 21
-15.375851304408201
 31
0.0
  0
LINE
  5
5F3
  8
MSL_F20_50-0N
 10
281.58288488559629
 20
-15.375851304408201
 30
0.0
 11
281.58288488559629
 21
-12.875851304408201
 31
0.0
  0
LINE
  5
5F4
  8
MSL_F20_50-0N
 10
273.58288488559629
 20
-14.5758513044082
 30
0.0
 11
273.58288488559629
 21
-3.1758513044081988
 31
0.0
  0
LINE
  5
5F5
  8
MSL_F20_50-0N
 10
274.3828848855963
 20
-2.3758513044081999
 30
0.0
 11
274.3828848855963
 21
-15.375851304408201
 31
0.0
  0
LINE
  5
5F6
  8
MSL_F20_50-3AN
 10
277.58288488559629
 20
-5.4108513044082001
 30
0.0
 11
279.58340356833833
 21
-8.8758513044082008
 31
0.0
  0
LINE
  5
5F7
  8
MSL_F20_50-3AN
 10
277.58288488559629
 20
-12.340851304408201
 30
0.0
 11
279.58340356833833
 21
-8.8758513044082008
 31
0.0
  0
LINE
  5
5F8
  8
MSL_F20_50-3AN
 10
273.58288488559629
 20
-5.4108513044082001
 30
0.0
 11
277.58288488559629
 21
-5.4108513044082001
 31
0.0
  0
LINE
  5
5F9
  8
MSL_F20_50-3AN
 10
273.58288488559629
 20
-7.1433513044082
 30
0.0
 11
277.58288488559629
 21
-7.1433513044082
 31
0.0
  0
LINE
  5
5FA
  8
MSL_F20_50-3AN
 10
273.58288488559629
 20
-10.608351304408201
 30
0.0
 11
277.58288488559629
 21
-10.608351304408201
 31
0.0
  0
LINE
  5
5FB
  8
MSL_F20_50-3AN
 10
273.58288488559629
 20
-12.340851304408201
 30
0.0
 11
277.58288488559629
 21
-12.340851304408201
 31
0.0
  0
LINE
  5
5FC
  8
MSL_F20_50-0N
 10
281.58288488559629
 20
-12.875851304408201
 30
0.0
 11
281.58288488559629
 21
-4.8758513044081999
 31
0.0
  0
LINE
  5
5FD
  8
MSL_F20_50-3N
 10
281.58288488559629
 20
-4.8758513044081999
 30
0.0
 11
284.70788488559629
 21
-5.6426463044082
 31
0.0
1001
GENIUS_GENBH_13
1002
{
1000
OE
1000
N_THLI
1002
}
  0
LINE
  5
5FE
  8
MSL_F20_50-3N
 10
281.58288488559629
 20
-12.875851304408201
 30
0.0
 11
284.70788488559629
 21
-12.109056304408201
 31
0.0
1001
GENIUS_GENBH_13
1002
{
1000
OE
1000
N_THLI
1002
}
  0
LINE
  5
5FF
  8
MSL_F20_50-3N
 10
284.70788488559629
 20
-12.875851304408201
 30
0.0
 11
284.70788488559629
 21
-4.8758513044081999
 31
0.0
1001
GENIUS_GENBH_13
1002
{
1000
OE
1000
N_CON1
1002
}
  0
LINE
  5
600
  8
MSL_F20_50-3
 10
311.58288488559617
 20
-5.6426463044082
 30
0.0
 11
310.81608988559623
 21
-4.8758513044081999
 31
0.0
  0
LINE
  5
601
  8
MSL_F20_50-3
 10
311.58288488559617
 20
-12.109056304408201
 30
0.0
 11
310.81608988559623
 21
-12.875851304408201
 31
0.0
  0
LINE
  5
602
  8
MSL_F20_50-3
 10
311.58288488559617
 20
-12.109056304408201
 30
0.0
 11
311.58288488559617
 21
-5.6426463044082
 31
0.0
  0
LINE
  5
603
  8
MSL_F20_50-3
 10
310.81608988559623
 20
-12.875851304408201
 30
0.0
 11
310.81608988559623
 21
-4.8758513044081999
 31
0.0
  0
INSERT
  5
604
  8
0
  2
*U25
 10
281.58288488559629
 20
-8.8758513044082008
 30
0.0
1001
GENIUS_GENOLIS_13
1002
{
1000
ENT
1002
}
1001
GENIUS_GENOENT_13
1002
{
1000
MYREF
1005
0
1002
}
  0
ENDBLK
  5
605
  8
0
  0
BLOCK
  8
0
  2
*U30
 70
     1
 10
0.0
 20
0.0
 30
0.0
  3
*U30
  1
*U
  0
LINE
  5
61A
  8
-BHHH
 10
0.0
 20
4.5
 30
0.0
 11
14.99999999999639
 21
4.5000000000000071
 31
0.0
  0
LINE
  5
61B
  8
-BHHH
 10
0.0
 20
-4.5
 30
0.0
 11
14.99999999999639
 21
-4.5
 31
0.0
  0
LINE
  5
61C
  8
-BHHU
 10
0.0
 20
4.5
 30
0.0
 11
0.0
 21
-4.5
 31
0.0
  0
LINE
  5
61D
  8
-BHHU
 10
14.99999999999639
 20
4.5000000000000071
 30
0.0
 11
14.99999999999639
 21
-4.5
 31
0.0
  0
ENDBLK
  5
61E
  8
0
  0
BLOCK
  8
0
  2
*U31
 70
     1
 10
0.0
 20
0.0
 30
0.0
  3
*U31
  1
*U
  0
INSERT
  5
621
  8
GEV_FROZEN
  2
*U30
 10
0.0
 20
0.0
 30
0.0
 41
0.1
 42
0.1
 43
0.1
1001
GENBH
1002
{
1000
-NOBRK
1002
}
  0
INSERT
  5
622
  8
MSL_F20_50-0
  2
VCCISYMB
 10
0.0
 20
0.0
 30
0.0
1001
GENBH
1002
{
1000
-NOBRK
1002
}
  0
ENDBLK
  5
623
  8
0
  0
BLOCK
  8
0
  2
*U32
 70
     1
 10
0.0
 20
0.0
 30
0.0
  3
*U32
  1
*U
  0
INSERT
  5
626
  8
CON1
  2
VCCIKPKT
 10
22.587499999996378
 20
6.4999999999999991
 30
0.0
1001
GENIUS_GENOREF_13
1005
0
1001
VCC
1002
{
1000
-KP1
1000
-ID36
1002
}
1001
GEVCON
1002
{
1000
-DIS
1070
     3
1000
-ANG
1070
     3
1002
}
  0
INSERT
  5
627
  8
CON1
  2
VCCIKPKT
 10
22.587499999996378
 20
6.4999999999999991
 30
0.0
1001
GENIUS_GENOREF_13
1005
0
1001
VCC
1002
{
1000
-KP0
1000
-ID37
1002
}
1001
GEVCON
1002
{
1000
-DIS
1070
     0
1000
-ANG
1070
     0
1002
}
  0
ENDBLK
  5
628
  8
0
  0
BLOCK
  8
0
  2
*U33
 70
     1
 10
0.0
 20
0.0
 30
0.0
  3
*U33
  1
*U
  0
INSERT
  5
62B
  8
GEV_FROZEN
  2
*U32
 10
0.0
 20
0.0
 30
0.0
 41
0.1
 42
0.1
 43
0.1
1001
GENBH
1002
{
1000
-NOBRK
1002
}
  0
INSERT
  5
62C
  8
MSL_F20_50-0N
  2
VCCISYMB
 10
0.0
 20
0.0
 30
0.0
1001
GENBH
1002
{
1000
-NOBRK
1002
}
  0
ENDBLK
  5
62D
  8
0
  0
BLOCK
  8
0
  2
*U34
 70
     1
 10
0.0
 20
0.0
 30
0.0
  3
*U34
  1
*U
  0
LINE
  5
630
  8
-BHMU
 10
14.99999999999639
 20
-4.4999999999999991
 30
0.0
 11
14.99999999999639
 21
4.5000000000000018
 31
0.0
  0
LINE
  5
631
  8
-BHMU
 10
-0.0000000000000011
 20
4.5
 30
0.0
 11
0.0
 21
-4.5
 31
0.0
  0
LINE
  5
632
  8
BHMM
 10
0.0
 20
-4.5
 30
0.0
 11
14.99999999999639
 21
-4.4999999999999991
 31
0.0
  0
LINE
  5
633
  8
CENN
 10
17.99999999999639
 20
0.0
 30
0.0
 11
-3.0
 21
0.0
 31
0.0
  0
LINE
  5
634
  8
BHMM
 10
-0.0000000000000011
 20
4.5
 30
0.0
 11
14.99999999999639
 21
4.5000000000000018
 31
0.0
  0
ENDBLK
  5
635
  8
0
  0
BLOCK
  8
0
  2
*U35
 70
     1
 10
0.0
 20
0.0
 30
0.0
  3
*U35
  1
*U
  0
INSERT
  5
638
  8
GEV_FROZEN
  2
*U34
 10
0.0
 20
0.0
 30
0.0
 41
0.1
 42
0.1
 43
0.1
1001
GENBH
1002
{
1000
-NOBRK
1002
}
  0
LINE
  5
639
  8
MSL_F20_50-3
 10
0.0
 20
-4.5
 30
0.0
 11
14.999999999996421
 21
-4.5
 31
0.0
1001
GENIUS_GENBH_13
1002
{
1000
OE
1000
CON1
1002
}
  0
LINE
  5
63A
  8
MSL_F20_50-7A
 10
17.99999999999639
 20
0.0
 30
0.0
 11
-3.0
 21
0.0
 31
0.0
  0
LINE
  5
63B
  8
MSL_F20_50-3
 10
0.0
 20
4.5
 30
0.0
 11
14.999999999996421
 21
4.5000000000000018
 31
0.0
1001
GENIUS_GENBH_13
1002
{
1000
OE
1000
CON1
1002
}
  0
INSERT
  5
63C
  8
0
  2
*U24
 10
0.0
 20
0.0
 30
0.0
1001
GENIUS_GENOLIS_13
1002
{
1000
ENT
1002
}
1001
GENIUS_GENOENT_13
1002
{
1000
MYREF
1005
0
1002
}
  0
ENDBLK
  5
63D
  8
0
  0
BLOCK
  8
0
  2
*U36
 70
     1
 10
0.0
 20
0.0
 30
0.0
  3
*U36
  1
*U
  0
LINE
  5
640
  8
CENN
 10
-11.0
 20
0.0
 30
0.0
 11
33.0
 21
0.0
 31
0.0
  0
LINE
  5
641
  8
BHII
 10
0.0
 20
-4.0
 30
0.0
 11
29.233204999999991
 21
-3.9999999999999991
 31
0.0
  0
LINE
  5
642
  8
BHII
 10
0.0
 20
4.0
 30
0.0
 11
29.233204999999991
 21
3.9999999999999991
 31
0.0
  0
LINE
  5
643
  8
THLI
 10
3.125
 20
3.233204999999999
 30
0.0
 11
30.0
 21
3.2332049999999999
 31
0.0
  0
LINE
  5
644
  8
THLI
 10
3.125
 20
-3.233204999999999
 30
0.0
 11
30.0
 21
-3.2332049999999999
 31
0.0
  0
ARC
  5
645
  8
HIDN
 10
-8.9002499936227757
 20
0.0000000000000001
 30
0.0
 40
5.1974999999999998
 50
340.52877936550931
 51
19.471220634490681
  0
ARC
  5
646
  8
HIDN
 10
-5.1135937460142351
 20
-2.598749999999999
 30
0.0
 40
1.4108437523914601
 50
322.12112050828108
 51
37.878879491718813
  0
ARC
  5
647
  8
HIDN
 10
-5.1135937460142351
 20
2.598749999999999
 30
0.0
 40
1.4108437523914601
 50
322.12112050828108
 51
37.878879491718813
  0
LINE
  5
648
  8
BHII
 10
-7.9999999999999991
 20
-5.7000000000000011
 30
0.0
 11
-7.1999999999999993
 21
-6.5
 31
0.0
  0
LINE
  5
649
  8
BHII
 10
0.0
 20
4.0
 30
0.0
 11
0.0
 21
6.5
 31
0.0
  0
LINE
  5
64A
  8
BHII
 10
-7.1999999999999993
 20
6.5
 30
0.0
 11
0.0
 21
6.5
 31
0.0
  0
LINE
  5
64B
  8
BHII
 10
-7.9999999999999991
 20
5.7000000000000011
 30
0.0
 11
-7.1999999999999993
 21
6.5
 31
0.0
  0
LINE
  5
64C
  8
BHII
 10
-7.1999999999999993
 20
-6.5
 30
0.0
 11
0.0
 21
-6.5
 31
0.0
  0
LINE
  5
64D
  8
BHII
 10
0.0
 20
-6.5
 30
0.0
 11
0.0
 21
-4.0
 31
0.0
  0
LINE
  5
64E
  8
BHII
 10
-7.9999999999999991
 20
-5.7000000000000011
 30
0.0
 11
-7.9999999999999991
 21
5.7000000000000011
 31
0.0
  0
LINE
  5
64F
  8
CON1
 10
-7.1999999999999993
 20
6.5
 30
0.0
 11
-7.1999999999999993
 21
-6.5
 31
0.0
  0
LINE
  5
650
  8
HIDN
 10
-4.0
 20
3.464999999999999
 30
0.0
 11
-1.999481317257948
 21
0.0
 31
0.0
  0
LINE
  5
651
  8
HIDN
 10
-4.0
 20
-3.464999999999999
 30
0.0
 11
-1.999481317257948
 21
0.0
 31
0.0
  0
LINE
  5
652
  8
HIDN
 10
-8.0
 20
3.464999999999999
 30
0.0
 11
-4.0
 21
3.464999999999999
 31
0.0
  0
LINE
  5
653
  8
HIDN
 10
-8.0
 20
1.732499999999999
 30
0.0
 11
-4.0
 21
1.732499999999999
 31
0.0
  0
LINE
  5
654
  8
HIDN
 10
-8.0
 20
-1.732499999999999
 30
0.0
 11
-4.0
 21
-1.732499999999999
 31
0.0
  0
LINE
  5
655
  8
HIDN
 10
-8.0
 20
-3.464999999999999
 30
0.0
 11
-4.0
 21
-3.464999999999999
 31
0.0
  0
LINE
  5
656
  8
CON1
 10
0.0
 20
-4.0
 30
0.0
 11
0.0
 21
4.0
 31
0.0
  0
LINE
  5
657
  8
THLI
 10
-0.0000000000000004
 20
4.0
 30
0.0
 11
3.125
 21
3.233204999999999
 31
0.0
  0
LINE
  5
658
  8
THLI
 10
-0.0000000000000004
 20
-4.0
 30
0.0
 11
3.125
 21
-3.233204999999999
 31
0.0
  0
LINE
  5
659
  8
CON1
 10
3.125
 20
-4.0
 30
0.0
 11
3.125
 21
4.0
 31
0.0
  0
LINE
  5
65A
  8
BHII
 10
30.0
 20
3.2332049999999999
 30
0.0
 11
29.233204999999991
 21
3.9999999999999991
 31
0.0
  0
LINE
  5
65B
  8
BHII
 10
30.0
 20
-3.2332049999999999
 30
0.0
 11
29.233204999999991
 21
-3.9999999999999991
 31
0.0
  0
LINE
  5
65C
  8
BHII
 10
30.0
 20
-3.2332049999999999
 30
0.0
 11
30.0
 21
3.2332049999999999
 31
0.0
  0
LINE
  5
65D
  8
CON1
 10
29.233204999999991
 20
-3.9999999999999991
 30
0.0
 11
29.233204999999991
 21
3.9999999999999991
 31
0.0
  0
ENDBLK
  5
65E
  8
0
  0
BLOCK
  8
0
  2
*U37
 70
     1
 10
281.58288488559629
 20
-8.8758513044082008
 30
0.0
  3
*U37
  1
*U
  0
INSERT
  5
661
  8
GEV_FROZEN
  2
*U36
 10
281.58288488559629
 20
-8.8758513044082008
 30
0.0
 41
0.1
 42
0.1
 43
0.1
1001
GENBH
1002
{
1000
-NOBRK
1002
}
  0
LINE
  5
662
  8
MSL_F20_50-7AN
 10
270.58288488559617
 20
-8.8758513044082008
 30
0.0
 11
314.58288488559629
 21
-8.8758513044082008
 31
0.0
  0
LINE
  5
663
  8
MSL_F20_50-3N
 10
281.58288488559629
 20
-12.875851304408201
 30
0.0
 11
296.58288488559259
 21
-12.875851304408201
 31
0.0
1001
GENIUS_GENBH_13
1002
{
1000
OE
1000
N_CON1
1002
}
  0
LINE
  5
664
  8
MSL_F20_50-3
 10
296.58288488559259
 20
-12.875851304408201
 30
0.0
 11
310.81608988559623
 21
-12.875851304408201
 31
0.0
  0
LINE
  5
665
  8
MSL_F20_50-3N
 10
281.58288488559629
 20
-4.8758513044081999
 30
0.0
 11
296.58288488559259
 21
-4.8758513044081999
 31
0.0
1001
GENIUS_GENBH_13
1002
{
1000
OE
1000
N_CON1
1002
}
  0
LINE
  5
666
  8
MSL_F20_50-3
 10
296.58288488559259
 20
-4.8758513044081999
 30
0.0
 11
310.81608988559623
 21
-4.8758513044081999
 31
0.0
  0
LINE
  5
667
  8
MSL_F20_50-3N
 10
284.70788488559629
 20
-5.6426463044082
 30
0.0
 11
296.58288488559259
 21
-5.6426463044082
 31
0.0
1001
GENIUS_GENBH_13
1002
{
1000
OE
1000
N_THLI
1002
}
  0
LINE
  5
668
  8
MSL_F20_50-3
 10
296.58288488559259
 20
-5.6426463044082
 30
0.0
 11
311.58288488559617
 21
-5.6426463044082
 31
0.0
  0
LINE
  5
669
  8
MSL_F20_50-3N
 10
284.70788488559629
 20
-12.109056304408201
 30
0.0
 11
296.58288488559259
 21
-12.109056304408201
 31
0.0
1001
GENIUS_GENBH_13
1002
{
1000
OE
1000
N_THLI
1002
}
  0
LINE
  5
66A
  8
MSL_F20_50-3
 10
296.58288488559259
 20
-12.109056304408201
 30
0.0
 11
311.58288488559617
 21
-12.109056304408201
 31
0.0
  0
ARC
  5
66B
  8
MSL_F20_50-3AN
 10
272.68263489197352
 20
-8.8758513044082008
 30
0.0
 40
5.19749999999999
 50
340.52877936550919
 51
19.471220634490692
  0
ARC
  5
66C
  8
MSL_F20_50-3AN
 10
276.46929113958203
 20
-11.4746013044082
 30
0.0
 40
1.410843752391479
 50
322.12112050828171
 51
37.878879491718159
  0
ARC
  5
66D
  8
MSL_F20_50-3AN
 10
276.46929113958203
 20
-6.2771013044082
 30
0.0
 40
1.4108437523914801
 50
322.12112050828182
 51
37.87887949171818
  0
LINE
  5
66E
  8
MSL_F20_50-0N
 10
273.58288488559629
 20
-14.5758513044082
 30
0.0
 11
274.3828848855963
 21
-15.375851304408201
 31
0.0
  0
LINE
  5
66F
  8
MSL_F20_50-0N
 10
281.58288488559629
 20
-4.8758513044081999
 30
0.0
 11
281.58288488559629
 21
-2.3758513044081999
 31
0.0
  0
LINE
  5
670
  8
MSL_F20_50-0N
 10
274.3828848855963
 20
-2.3758513044081999
 30
0.0
 11
281.58288488559629
 21
-2.3758513044081999
 31
0.0
  0
LINE
  5
671
  8
MSL_F20_50-0N
 10
273.58288488559629
 20
-3.1758513044081988
 30
0.0
 11
274.3828848855963
 21
-2.3758513044081999
 31
0.0
  0
LINE
  5
672
  8
MSL_F20_50-0N
 10
274.3828848855963
 20
-15.375851304408201
 30
0.0
 11
281.58288488559629
 21
-15.375851304408201
 31
0.0
  0
LINE
  5
673
  8
MSL_F20_50-0N
 10
281.58288488559629
 20
-15.375851304408201
 30
0.0
 11
281.58288488559629
 21
-12.875851304408201
 31
0.0
  0
LINE
  5
674
  8
MSL_F20_50-0N
 10
273.58288488559629
 20
-14.5758513044082
 30
0.0
 11
273.58288488559629
 21
-3.1758513044081988
 31
0.0
  0
LINE
  5
675
  8
MSL_F20_50-0N
 10
274.3828848855963
 20
-2.3758513044081999
 30
0.0
 11
274.3828848855963
 21
-15.375851304408201
 31
0.0
  0
LINE
  5
676
  8
MSL_F20_50-3AN
 10
277.58288488559629
 20
-5.4108513044082001
 30
0.0
 11
279.58340356833833
 21
-8.8758513044082008
 31
0.0
  0
LINE
  5
677
  8
MSL_F20_50-3AN
 10
277.58288488559629
 20
-12.340851304408201
 30
0.0
 11
279.58340356833833
 21
-8.8758513044082008
 31
0.0
  0
LINE
  5
678
  8
MSL_F20_50-3AN
 10
273.58288488559629
 20
-5.4108513044082001
 30
0.0
 11
277.58288488559629
 21
-5.4108513044082001
 31
0.0
  0
LINE
  5
679
  8
MSL_F20_50-3AN
 10
273.58288488559629
 20
-7.1433513044082
 30
0.0
 11
277.58288488559629
 21
-7.1433513044082
 31
0.0
  0
LINE
  5
67A
  8
MSL_F20_50-3AN
 10
273.58288488559629
 20
-10.608351304408201
 30
0.0
 11
277.58288488559629
 21
-10.608351304408201
 31
0.0
  0
LINE
  5
67B
  8
MSL_F20_50-3AN
 10
273.58288488559629
 20
-12.340851304408201
 30
0.0
 11
277.58288488559629
 21
-12.340851304408201
 31
0.0
  0
LINE
  5
67C
  8
MSL_F20_50-0N
 10
281.58288488559629
 20
-12.875851304408201
 30
0.0
 11
281.58288488559629
 21
-4.8758513044081999
 31
0.0
  0
LINE
  5
67D
  8
MSL_F20_50-3N
 10
281.58288488559629
 20
-4.8758513044081999
 30
0.0
 11
284.70788488559629
 21
-5.6426463044082
 31
0.0
1001
GENIUS_GENBH_13
1002
{
1000
OE
1000
N_THLI
1002
}
  0
LINE
  5
67E
  8
MSL_F20_50-3N
 10
281.58288488559629
 20
-12.875851304408201
 30
0.0
 11
284.70788488559629
 21
-12.109056304408201
 31
0.0
1001
GENIUS_GENBH_13
1002
{
1000
OE
1000
N_THLI
1002
}
  0
LINE
  5
67F
  8
MSL_F20_50-3N
 10
284.70788488559629
 20
-12.875851304408201
 30
0.0
 11
284.70788488559629
 21
-4.8758513044081999
 31
0.0
1001
GENIUS_GENBH_13
1002
{
1000
OE
1000
N_CON1
1002
}
  0
LINE
  5
680
  8
MSL_F20_50-3
 10
311.58288488559617
 20
-5.6426463044082
 30
0.0
 11
310.81608988559623
 21
-4.8758513044081999
 31
0.0
  0
LINE
  5
681
  8
MSL_F20_50-3
 10
311.58288488559617
 20
-12.109056304408201
 30
0.0
 11
310.81608988559623
 21
-12.875851304408201
 31
0.0
  0
LINE
  5
682
  8
MSL_F20_50-3
 10
311.58288488559617
 20
-12.109056304408201
 30
0.0
 11
311.58288488559617
 21
-5.6426463044082
 31
0.0
  0
LINE
  5
683
  8
MSL_F20_50-3
 10
310.81608988559623
 20
-12.875851304408201
 30
0.0
 11
310.81608988559623
 21
-4.8758513044081999
 31
0.0
  0
INSERT
  5
684
  8
0
  2
*U25
 10
281.58288488559629
 20
-8.8758513044082008
 30
0.0
1001
GENIUS_GENOLIS_13
1002
{
1000
ENT
1002
}
1001
GENIUS_GENOENT_13
1002
{
1000
MYREF
1005
0
1002
}
  0
ENDBLK
  5
685
  8
0
  0
BLOCK
  8
0
  2
*U38
 70
     1
 10
0.0
 20
0.0
 30
0.0
  3
*U38
  1
*U
  0
LINE
  5
6B9
  8
-BHHH
 10
0.0
 20
4.5
 30
0.0
 11
14.99999999999639
 21
4.5000000000000071
 31
0.0
  0
LINE
  5
6BA
  8
-BHHH
 10
0.0
 20
-4.5
 30
0.0
 11
14.99999999999639
 21
-4.5
 31
0.0
  0
LINE
  5
6BB
  8
-BHHU
 10
0.0
 20
4.5
 30
0.0
 11
0.0
 21
-4.5
 31
0.0
  0
LINE
  5
6BC
  8
-BHHU
 10
14.99999999999639
 20
4.5000000000000071
 30
0.0
 11
14.99999999999639
 21
-4.5
 31
0.0
  0
ENDBLK
  5
6BD
  8
0
  0
BLOCK
  8
0
  2
*U39
 70
     1
 10
0.0
 20
0.0
 30
0.0
  3
*U39
  1
*U
  0
INSERT
  5
6C0
  8
GEV_FROZEN
  2
*U38
 10
0.0
 20
0.0
 30
0.0
 41
0.1
 42
0.1
 43
0.1
1001
GENBH
1002
{
1000
-NOBRK
1002
}
  0
INSERT
  5
6C1
  8
MSL_F20_50-0
  2
VCCISYMB
 10
0.0
 20
0.0
 30
0.0
1001
GENBH
1002
{
1000
-NOBRK
1002
}
  0
ENDBLK
  5
6C2
  8
0
  0
BLOCK
  8
0
  2
*U40
 70
     1
 10
0.0
 20
0.0
 30
0.0
  3
*U40
  1
*U
  0
INSERT
  5
6C5
  8
CON1
  2
VCCIKPKT
 10
22.587499999996378
 20
6.4999999999999991
 30
0.0
1001
GENIUS_GENOREF_13
1005
0
1001
VCC
1002
{
1000
-KP1
1000
-ID36
1002
}
1001
GEVCON
1002
{
1000
-DIS
1070
     3
1000
-ANG
1070
     3
1002
}
  0
INSERT
  5
6C6
  8
CON1
  2
VCCIKPKT
 10
22.587499999996378
 20
6.4999999999999991
 30
0.0
1001
GENIUS_GENOREF_13
1005
0
1001
VCC
1002
{
1000
-KP0
1000
-ID37
1002
}
1001
GEVCON
1002
{
1000
-DIS
1070
     0
1000
-ANG
1070
     0
1002
}
  0
ENDBLK
  5
6C7
  8
0
  0
BLOCK
  8
0
  2
*U41
 70
     1
 10
0.0
 20
0.0
 30
0.0
  3
*U41
  1
*U
  0
INSERT
  5
6CA
  8
GEV_FROZEN
  2
*U40
 10
0.0
 20
0.0
 30
0.0
 41
0.1
 42
0.1
 43
0.1
1001
GENBH
1002
{
1000
-NOBRK
1002
}
  0
INSERT
  5
6CB
  8
MSL_F20_50-0N
  2
VCCISYMB
 10
0.0
 20
0.0
 30
0.0
1001
GENBH
1002
{
1000
-NOBRK
1002
}
  0
ENDBLK
  5
6CC
  8
0
  0
BLOCK
  8
0
  2
*U42
 70
     1
 10
0.0
 20
0.0
 30
0.0
  3
*U42
  1
*U
  0
LINE
  5
6CF
  8
-BHMU
 10
14.99999999999639
 20
-4.4999999999999991
 30
0.0
 11
14.99999999999639
 21
4.5000000000000018
 31
0.0
  0
LINE
  5
6D0
  8
-BHMU
 10
-0.0000000000000011
 20
4.5
 30
0.0
 11
0.0
 21
-4.5
 31
0.0
  0
LINE
  5
6D1
  8
BHMM
 10
0.0
 20
-4.5
 30
0.0
 11
14.99999999999639
 21
-4.4999999999999991
 31
0.0
  0
LINE
  5
6D2
  8
CENN
 10
17.99999999999639
 20
0.0
 30
0.0
 11
-3.0
 21
0.0
 31
0.0
  0
LINE
  5
6D3
  8
BHMM
 10
-0.0000000000000011
 20
4.5
 30
0.0
 11
14.99999999999639
 21
4.5000000000000018
 31
0.0
  0
ENDBLK
  5
6D4
  8
0
  0
BLOCK
  8
0
  2
*U43
 70
     1
 10
0.0
 20
0.0
 30
0.0
  3
*U43
  1
*U
  0
INSERT
  5
6D7
  8
GEV_FROZEN
  2
*U42
 10
0.0
 20
0.0
 30
0.0
 41
0.1
 42
0.1
 43
0.1
1001
GENBH
1002
{
1000
-NOBRK
1002
}
  0
LINE
  5
6D8
  8
MSL_F20_50-3
 10
0.0
 20
-4.5
 30
0.0
 11
14.999999999996421
 21
-4.5
 31
0.0
1001
GENIUS_GENBH_13
1002
{
1000
OE
1000
CON1
1002
}
  0
LINE
  5
6D9
  8
MSL_F20_50-7A
 10
17.99999999999639
 20
0.0
 30
0.0
 11
-3.0
 21
0.0
 31
0.0
  0
LINE
  5
6DA
  8
MSL_F20_50-3
 10
0.0
 20
4.5
 30
0.0
 11
14.999999999996421
 21
4.5000000000000018
 31
0.0
1001
GENIUS_GENBH_13
1002
{
1000
OE
1000
CON1
1002
}
  0
INSERT
  5
6DB
  8
0
  2
*U24
 10
0.0
 20
0.0
 30
0.0
1001
GENIUS_GENOLIS_13
1002
{
1000
ENT
1002
}
1001
GENIUS_GENOENT_13
1002
{
1000
MYREF
1005
0
1002
}
  0
ENDBLK
  5
6DC
  8
0
  0
BLOCK
  8
0
  2
*U44
 70
     1
 10
0.0
 20
0.0
 30
0.0
  3
*U44
  1
*U
  0
LINE
  5
6DF
  8
CENN
 10
-11.0
 20
0.0
 30
0.0
 11
33.0
 21
0.0
 31
0.0
  0
LINE
  5
6E0
  8
BHII
 10
0.0
 20
-4.0
 30
0.0
 11
29.233204999999991
 21
-3.9999999999999991
 31
0.0
  0
LINE
  5
6E1
  8
BHII
 10
0.0
 20
4.0
 30
0.0
 11
29.233204999999991
 21
3.9999999999999991
 31
0.0
  0
LINE
  5
6E2
  8
THLI
 10
3.125
 20
3.233204999999999
 30
0.0
 11
30.0
 21
3.2332049999999999
 31
0.0
  0
LINE
  5
6E3
  8
THLI
 10
3.125
 20
-3.233204999999999
 30
0.0
 11
30.0
 21
-3.2332049999999999
 31
0.0
  0
ARC
  5
6E4
  8
HIDN
 10
-8.9002499936227757
 20
0.0000000000000001
 30
0.0
 40
5.1974999999999998
 50
340.52877936550931
 51
19.471220634490681
  0
ARC
  5
6E5
  8
HIDN
 10
-5.1135937460142351
 20
-2.598749999999999
 30
0.0
 40
1.4108437523914601
 50
322.12112050828108
 51
37.878879491718813
  0
ARC
  5
6E6
  8
HIDN
 10
-5.1135937460142351
 20
2.598749999999999
 30
0.0
 40
1.4108437523914601
 50
322.12112050828108
 51
37.878879491718813
  0
LINE
  5
6E7
  8
BHII
 10
-7.9999999999999991
 20
-5.7000000000000011
 30
0.0
 11
-7.1999999999999993
 21
-6.5
 31
0.0
  0
LINE
  5
6E8
  8
BHII
 10
0.0
 20
4.0
 30
0.0
 11
0.0
 21
6.5
 31
0.0
  0
LINE
  5
6E9
  8
BHII
 10
-7.1999999999999993
 20
6.5
 30
0.0
 11
0.0
 21
6.5
 31
0.0
  0
LINE
  5
6EA
  8
BHII
 10
-7.9999999999999991
 20
5.7000000000000011
 30
0.0
 11
-7.1999999999999993
 21
6.5
 31
0.0
  0
LINE
  5
6EB
  8
BHII
 10
-7.1999999999999993
 20
-6.5
 30
0.0
 11
0.0
 21
-6.5
 31
0.0
  0
LINE
  5
6EC
  8
BHII
 10
0.0
 20
-6.5
 30
0.0
 11
0.0
 21
-4.0
 31
0.0
  0
LINE
  5
6ED
  8
BHII
 10
-7.9999999999999991
 20
-5.7000000000000011
 30
0.0
 11
-7.9999999999999991
 21
5.7000000000000011
 31
0.0
  0
LINE
  5
6EE
  8
CON1
 10
-7.1999999999999993
 20
6.5
 30
0.0
 11
-7.1999999999999993
 21
-6.5
 31
0.0
  0
LINE
  5
6EF
  8
HIDN
 10
-4.0
 20
3.464999999999999
 30
0.0
 11
-1.999481317257948
 21
0.0
 31
0.0
  0
LINE
  5
6F0
  8
HIDN
 10
-4.0
 20
-3.464999999999999
 30
0.0
 11
-1.999481317257948
 21
0.0
 31
0.0
  0
LINE
  5
6F1
  8
HIDN
 10
-8.0
 20
3.464999999999999
 30
0.0
 11
-4.0
 21
3.464999999999999
 31
0.0
  0
LINE
  5
6F2
  8
HIDN
 10
-8.0
 20
1.732499999999999
 30
0.0
 11
-4.0
 21
1.732499999999999
 31
0.0
  0
LINE
  5
6F3
  8
HIDN
 10
-8.0
 20
-1.732499999999999
 30
0.0
 11
-4.0
 21
-1.732499999999999
 31
0.0
  0
LINE
  5
6F4
  8
HIDN
 10
-8.0
 20
-3.464999999999999
 30
0.0
 11
-4.0
 21
-3.464999999999999
 31
0.0
  0
LINE
  5
6F5
  8
CON1
 10
0.0
 20
-4.0
 30
0.0
 11
0.0
 21
4.0
 31
0.0
  0
LINE
  5
6F6
  8
THLI
 10
-0.0000000000000004
 20
4.0
 30
0.0
 11
3.125
 21
3.233204999999999
 31
0.0
  0
LINE
  5
6F7
  8
THLI
 10
-0.0000000000000004
 20
-4.0
 30
0.0
 11
3.125
 21
-3.233204999999999
 31
0.0
  0
LINE
  5
6F8
  8
CON1
 10
3.125
 20
-4.0
 30
0.0
 11
3.125
 21
4.0
 31
0.0
  0
LINE
  5
6F9
  8
BHII
 10
30.0
 20
3.2332049999999999
 30
0.0
 11
29.233204999999991
 21
3.9999999999999991
 31
0.0
  0
LINE
  5
6FA
  8
BHII
 10
30.0
 20
-3.2332049999999999
 30
0.0
 11
29.233204999999991
 21
-3.9999999999999991
 31
0.0
  0
LINE
  5
6FB
  8
BHII
 10
30.0
 20
-3.2332049999999999
 30
0.0
 11
30.0
 21
3.2332049999999999
 31
0.0
  0
LINE
  5
6FC
  8
CON1
 10
29.233204999999991
 20
-3.9999999999999991
 30
0.0
 11
29.233204999999991
 21
3.9999999999999991
 31
0.0
  0
ENDBLK
  5
6FD
  8
0
  0
BLOCK
  8
0
  2
*U45
 70
     1
 10
281.58288488559629
 20
-8.8758513044082008
 30
0.0
  3
*U45
  1
*U
  0
INSERT
  5
700
  8
GEV_FROZEN
  2
*U44
 10
281.58288488559629
 20
-8.8758513044082008
 30
0.0
 41
0.1
 42
0.1
 43
0.1
1001
GENBH
1002
{
1000
-NOBRK
1002
}
  0
LINE
  5
701
  8
MSL_F20_50-7AN
 10
270.58288488559617
 20
-8.8758513044082008
 30
0.0
 11
314.58288488559629
 21
-8.8758513044082008
 31
0.0
  0
LINE
  5
702
  8
MSL_F20_50-3N
 10
281.58288488559629
 20
-12.875851304408201
 30
0.0
 11
296.58288488559259
 21
-12.875851304408201
 31
0.0
1001
GENIUS_GENBH_13
1002
{
1000
OE
1000
N_CON1
1002
}
  0
LINE
  5
703
  8
MSL_F20_50-3
 10
296.58288488559259
 20
-12.875851304408201
 30
0.0
 11
310.81608988559623
 21
-12.875851304408201
 31
0.0
  0
LINE
  5
704
  8
MSL_F20_50-3N
 10
281.58288488559629
 20
-4.8758513044081999
 30
0.0
 11
296.58288488559259
 21
-4.8758513044081999
 31
0.0
1001
GENIUS_GENBH_13
1002
{
1000
OE
1000
N_CON1
1002
}
  0
LINE
  5
705
  8
MSL_F20_50-3
 10
296.58288488559259
 20
-4.8758513044081999
 30
0.0
 11
310.81608988559623
 21
-4.8758513044081999
 31
0.0
  0
LINE
  5
706
  8
MSL_F20_50-3N
 10
284.70788488559629
 20
-5.6426463044082
 30
0.0
 11
296.58288488559259
 21
-5.6426463044082
 31
0.0
1001
GENIUS_GENBH_13
1002
{
1000
OE
1000
N_THLI
1002
}
  0
LINE
  5
707
  8
MSL_F20_50-3
 10
296.58288488559259
 20
-5.6426463044082
 30
0.0
 11
311.58288488559617
 21
-5.6426463044082
 31
0.0
  0
LINE
  5
708
  8
MSL_F20_50-3N
 10
284.70788488559629
 20
-12.109056304408201
 30
0.0
 11
296.58288488559259
 21
-12.109056304408201
 31
0.0
1001
GENIUS_GENBH_13
1002
{
1000
OE
1000
N_THLI
1002
}
  0
LINE
  5
709
  8
MSL_F20_50-3
 10
296.58288488559259
 20
-12.109056304408201
 30
0.0
 11
311.58288488559617
 21
-12.109056304408201
 31
0.0
  0
ARC
  5
70A
  8
MSL_F20_50-3AN
 10
272.68263489197352
 20
-8.8758513044082008
 30
0.0
 40
5.19749999999999
 50
340.52877936550919
 51
19.471220634490692
  0
ARC
  5
70B
  8
MSL_F20_50-3AN
 10
276.46929113958203
 20
-11.4746013044082
 30
0.0
 40
1.410843752391479
 50
322.12112050828171
 51
37.878879491718159
  0
ARC
  5
70C
  8
MSL_F20_50-3AN
 10
276.46929113958203
 20
-6.2771013044082
 30
0.0
 40
1.4108437523914801
 50
322.12112050828182
 51
37.87887949171818
  0
LINE
  5
70D
  8
MSL_F20_50-0N
 10
273.58288488559629
 20
-14.5758513044082
 30
0.0
 11
274.3828848855963
 21
-15.375851304408201
 31
0.0
  0
LINE
  5
70E
  8
MSL_F20_50-0N
 10
281.58288488559629
 20
-4.8758513044081999
 30
0.0
 11
281.58288488559629
 21
-2.3758513044081999
 31
0.0
  0
LINE
  5
70F
  8
MSL_F20_50-0N
 10
274.3828848855963
 20
-2.3758513044081999
 30
0.0
 11
281.58288488559629
 21
-2.3758513044081999
 31
0.0
  0
LINE
  5
710
  8
MSL_F20_50-0N
 10
273.58288488559629
 20
-3.1758513044081988
 30
0.0
 11
274.3828848855963
 21
-2.3758513044081999
 31
0.0
  0
LINE
  5
711
  8
MSL_F20_50-0N
 10
274.3828848855963
 20
-15.375851304408201
 30
0.0
 11
281.58288488559629
 21
-15.375851304408201
 31
0.0
  0
LINE
  5
712
  8
MSL_F20_50-0N
 10
281.58288488559629
 20
-15.375851304408201
 30
0.0
 11
281.58288488559629
 21
-12.875851304408201
 31
0.0
  0
LINE
  5
713
  8
MSL_F20_50-0N
 10
273.58288488559629
 20
-14.5758513044082
 30
0.0
 11
273.58288488559629
 21
-3.1758513044081988
 31
0.0
  0
LINE
  5
714
  8
MSL_F20_50-0N
 10
274.3828848855963
 20
-2.3758513044081999
 30
0.0
 11
274.3828848855963
 21
-15.375851304408201
 31
0.0
  0
LINE
  5
715
  8
MSL_F20_50-3AN
 10
277.58288488559629
 20
-5.4108513044082001
 30
0.0
 11
279.58340356833833
 21
-8.8758513044082008
 31
0.0
  0
LINE
  5
716
  8
MSL_F20_50-3AN
 10
277.58288488559629
 20
-12.340851304408201
 30
0.0
 11
279.58340356833833
 21
-8.8758513044082008
 31
0.0
  0
LINE
  5
717
  8
MSL_F20_50-3AN
 10
273.58288488559629
 20
-5.4108513044082001
 30
0.0
 11
277.58288488559629
 21
-5.4108513044082001
 31
0.0
  0
LINE
  5
718
  8
MSL_F20_50-3AN
 10
273.58288488559629
 20
-7.1433513044082
 30
0.0
 11
277.58288488559629
 21
-7.1433513044082
 31
0.0
  0
LINE
  5
719
  8
MSL_F20_50-3AN
 10
273.58288488559629
 20
-10.608351304408201
 30
0.0
 11
277.58288488559629
 21
-10.608351304408201
 31
0.0
  0
LINE
  5
71A
  8
MSL_F20_50-3AN
 10
273.58288488559629
 20
-12.340851304408201
 30
0.0
 11
277.58288488559629
 21
-12.340851304408201
 31
0.0
  0
LINE
  5
71B
  8
MSL_F20_50-0N
 10
281.58288488559629
 20
-12.875851304408201
 30
0.0
 11
281.58288488559629
 21
-4.8758513044081999
 31
0.0
  0
LINE
  5
71C
  8
MSL_F20_50-3N
 10
281.58288488559629
 20
-4.8758513044081999
 30
0.0
 11
284.70788488559629
 21
-5.6426463044082
 31
0.0
1001
GENIUS_GENBH_13
1002
{
1000
OE
1000
N_THLI
1002
}
  0
LINE
  5
71D
  8
MSL_F20_50-3N
 10
281.58288488559629
 20
-12.875851304408201
 30
0.0
 11
284.70788488559629
 21
-12.109056304408201
 31
0.0
1001
GENIUS_GENBH_13
1002
{
1000
OE
1000
N_THLI
1002
}
  0
LINE
  5
71E
  8
MSL_F20_50-3N
 10
284.70788488559629
 20
-12.875851304408201
 30
0.0
 11
284.70788488559629
 21
-4.8758513044081999
 31
0.0
1001
GENIUS_GENBH_13
1002
{
1000
OE
1000
N_CON1
1002
}
  0
LINE
  5
71F
  8
MSL_F20_50-3
 10
311.58288488559617
 20
-5.6426463044082
 30
0.0
 11
310.81608988559623
 21
-4.8758513044081999
 31
0.0
  0
LINE
  5
720
  8
MSL_F20_50-3
 10
311.58288488559617
 20
-12.109056304408201
 30
0.0
 11
310.81608988559623
 21
-12.875851304408201
 31
0.0
  0
LINE
  5
721
  8
MSL_F20_50-3
 10
311.58288488559617
 20
-12.109056304408201
 30
0.0
 11
311.58288488559617
 21
-5.6426463044082
 31
0.0
  0
LINE
  5
722
  8
MSL_F20_50-3
 10
310.81608988559623
 20
-12.875851304408201
 30
0.0
 11
310.81608988559623
 21
-4.8758513044081999
 31
0.0
  0
INSERT
  5
723
  8
0
  2
*U25
 10
281.58288488559629
 20
-8.8758513044082008
 30
0.0
1001
GENIUS_GENOLIS_13
1002
{
1000
ENT
1002
}
1001
GENIUS_GENOENT_13
1002
{
1000
MYREF
1005
0
1002
}
  0
ENDBLK
  5
724
  8
0
  0
BLOCK
  8
0
  2
*U46
 70
     1
 10
0.0
 20
0.0
 30
0.0
  3
*U46
  1
*U
  0
LINE
  5
728
  8
-BHHH
 10
0.0
 20
4.5
 30
0.0
 11
14.99999999999639
 21
4.5000000000000071
 31
0.0
  0
LINE
  5
729
  8
-BHHH
 10
0.0
 20
-4.5
 30
0.0
 11
14.99999999999639
 21
-4.5
 31
0.0
  0
LINE
  5
72A
  8
-BHHU
 10
0.0
 20
4.5
 30
0.0
 11
0.0
 21
-4.5
 31
0.0
  0
LINE
  5
72B
  8
-BHHU
 10
14.99999999999639
 20
4.5000000000000071
 30
0.0
 11
14.99999999999639
 21
-4.5
 31
0.0
  0
ENDBLK
  5
72C
  8
0
  0
BLOCK
  8
0
  2
*U47
 70
     1
 10
0.0
 20
0.0
 30
0.0
  3
*U47
  1
*U
  0
INSERT
  5
72F
  8
GEV_FROZEN
  2
*U46
 10
0.0
 20
0.0
 30
0.0
 41
0.1
 42
0.1
 43
0.1
1001
GENBH
1002
{
1000
-NOBRK
1002
}
  0
INSERT
  5
730
  8
MSL_F20_50-0
  2
VCCISYMB
 10
0.0
 20
0.0
 30
0.0
1001
GENBH
1002
{
1000
-NOBRK
1002
}
  0
ENDBLK
  5
731
  8
0
  0
BLOCK
  8
0
  2
*U48
 70
     1
 10
0.0
 20
0.0
 30
0.0
  3
*U48
  1
*U
  0
INSERT
  5
734
  8
CON1
  2
VCCIKPKT
 10
22.587499999996378
 20
6.4999999999999991
 30
0.0
1001
GENIUS_GENOREF_13
1005
0
1001
VCC
1002
{
1000
-KP1
1000
-ID36
1002
}
1001
GEVCON
1002
{
1000
-DIS
1070
     3
1000
-ANG
1070
     3
1002
}
  0
INSERT
  5
735
  8
CON1
  2
VCCIKPKT
 10
22.587499999996378
 20
6.4999999999999991
 30
0.0
1001
GENIUS_GENOREF_13
1005
0
1001
VCC
1002
{
1000
-KP0
1000
-ID37
1002
}
1001
GEVCON
1002
{
1000
-DIS
1070
     0
1000
-ANG
1070
     0
1002
}
  0
ENDBLK
  5
736
  8
0
  0
BLOCK
  8
0
  2
*U49
 70
     1
 10
0.0
 20
0.0
 30
0.0
  3
*U49
  1
*U
  0
INSERT
  5
739
  8
GEV_FROZEN
  2
*U48
 10
0.0
 20
0.0
 30
0.0
 41
0.1
 42
0.1
 43
0.1
1001
GENBH
1002
{
1000
-NOBRK
1002
}
  0
INSERT
  5
73A
  8
MSL_F20_50-0N
  2
VCCISYMB
 10
0.0
 20
0.0
 30
0.0
1001
GENBH
1002
{
1000
-NOBRK
1002
}
  0
ENDBLK
  5
73B
  8
0
  0
BLOCK
  8
0
  2
*U50
 70
     1
 10
0.0
 20
0.0
 30
0.0
  3
*U50
  1
*U
  0
LINE
  5
73E
  8
CENN
 10
-11.0
 20
0.0
 30
0.0
 11
33.0
 21
0.0
 31
0.0
  0
LINE
  5
73F
  8
BHII
 10
0.0
 20
-4.0
 30
0.0
 11
29.233204999999991
 21
-3.9999999999999991
 31
0.0
  0
LINE
  5
740
  8
BHII
 10
0.0
 20
4.0
 30
0.0
 11
29.233204999999991
 21
3.9999999999999991
 31
0.0
  0
LINE
  5
741
  8
THLI
 10
3.125
 20
3.233204999999999
 30
0.0
 11
30.0
 21
3.2332049999999999
 31
0.0
  0
LINE
  5
742
  8
THLI
 10
3.125
 20
-3.233204999999999
 30
0.0
 11
30.0
 21
-3.2332049999999999
 31
0.0
  0
ARC
  5
743
  8
HIDN
 10
-8.9002499936227757
 20
0.0000000000000001
 30
0.0
 40
5.1974999999999998
 50
340.52877936550931
 51
19.471220634490681
  0
ARC
  5
744
  8
HIDN
 10
-5.1135937460142351
 20
-2.598749999999999
 30
0.0
 40
1.4108437523914601
 50
322.12112050828108
 51
37.878879491718813
  0
ARC
  5
745
  8
HIDN
 10
-5.1135937460142351
 20
2.598749999999999
 30
0.0
 40
1.4108437523914601
 50
322.12112050828108
 51
37.878879491718813
  0
LINE
  5
746
  8
BHII
 10
-7.9999999999999991
 20
-5.7000000000000011
 30
0.0
 11
-7.1999999999999993
 21
-6.5
 31
0.0
  0
LINE
  5
747
  8
BHII
 10
0.0
 20
4.0
 30
0.0
 11
0.0
 21
6.5
 31
0.0
  0
LINE
  5
748
  8
BHII
 10
-7.1999999999999993
 20
6.5
 30
0.0
 11
0.0
 21
6.5
 31
0.0
  0
LINE
  5
749
  8
BHII
 10
-7.9999999999999991
 20
5.7000000000000011
 30
0.0
 11
-7.1999999999999993
 21
6.5
 31
0.0
  0
LINE
  5
74A
  8
BHII
 10
-7.1999999999999993
 20
-6.5
 30
0.0
 11
0.0
 21
-6.5
 31
0.0
  0
LINE
  5
74B
  8
BHII
 10
0.0
 20
-6.5
 30
0.0
 11
0.0
 21
-4.0
 31
0.0
  0
LINE
  5
74C
  8
BHII
 10
-7.9999999999999991
 20
-5.7000000000000011
 30
0.0
 11
-7.9999999999999991
 21
5.7000000000000011
 31
0.0
  0
LINE
  5
74D
  8
CON1
 10
-7.1999999999999993
 20
6.5
 30
0.0
 11
-7.1999999999999993
 21
-6.5
 31
0.0
  0
LINE
  5
74E
  8
HIDN
 10
-4.0
 20
3.464999999999999
 30
0.0
 11
-1.999481317257948
 21
0.0
 31
0.0
  0
LINE
  5
74F
  8
HIDN
 10
-4.0
 20
-3.464999999999999
 30
0.0
 11
-1.999481317257948
 21
0.0
 31
0.0
  0
LINE
  5
750
  8
HIDN
 10
-8.0
 20
3.464999999999999
 30
0.0
 11
-4.0
 21
3.464999999999999
 31
0.0
  0
LINE
  5
751
  8
HIDN
 10
-8.0
 20
1.732499999999999
 30
0.0
 11
-4.0
 21
1.732499999999999
 31
0.0
  0
LINE
  5
752
  8
HIDN
 10
-8.0
 20
-1.732499999999999
 30
0.0
 11
-4.0
 21
-1.732499999999999
 31
0.0
  0
LINE
  5
753
  8
HIDN
 10
-8.0
 20
-3.464999999999999
 30
0.0
 11
-4.0
 21
-3.464999999999999
 31
0.0
  0
LINE
  5
754
  8
CON1
 10
0.0
 20
-4.0
 30
0.0
 11
0.0
 21
4.0
 31
0.0
  0
LINE
  5
755
  8
THLI
 10
-0.0000000000000004
 20
4.0
 30
0.0
 11
3.125
 21
3.233204999999999
 31
0.0
  0
LINE
  5
756
  8
THLI
 10
-0.0000000000000004
 20
-4.0
 30
0.0
 11
3.125
 21
-3.233204999999999
 31
0.0
  0
LINE
  5
757
  8
CON1
 10
3.125
 20
-4.0
 30
0.0
 11
3.125
 21
4.0
 31
0.0
  0
LINE
  5
758
  8
BHII
 10
30.0
 20
3.2332049999999999
 30
0.0
 11
29.233204999999991
 21
3.9999999999999991
 31
0.0
  0
LINE
  5
759
  8
BHII
 10
30.0
 20
-3.2332049999999999
 30
0.0
 11
29.233204999999991
 21
-3.9999999999999991
 31
0.0
  0
LINE
  5
75A
  8
BHII
 10
30.0
 20
-3.2332049999999999
 30
0.0
 11
30.0
 21
3.2332049999999999
 31
0.0
  0
LINE
  5
75B
  8
CON1
 10
29.233204999999991
 20
-3.9999999999999991
 30
0.0
 11
29.233204999999991
 21
3.9999999999999991
 31
0.0
  0
ENDBLK
  5
75C
  8
0
  0
BLOCK
  8
0
  2
*U51
 70
     1
 10
281.58288488559629
 20
-8.8758513044082008
 30
0.0
  3
*U51
  1
*U
  0
INSERT
  5
75F
  8
GEV_FROZEN
  2
*U50
 10
281.58288488559629
 20
-8.8758513044082008
 30
0.0
 41
0.1
 42
0.1
 43
0.1
1001
GENBH
1002
{
1000
-NOBRK
1002
}
  0
LINE
  5
760
  8
MSL_F20_50-7AN
 10
270.58288488559617
 20
-8.8758513044082008
 30
0.0
 11
314.58288488559629
 21
-8.8758513044082008
 31
0.0
  0
LINE
  5
761
  8
MSL_F20_50-3N
 10
281.58288488559629
 20
-12.875851304408201
 30
0.0
 11
296.58288488559259
 21
-12.875851304408201
 31
0.0
1001
GENIUS_GENBH_13
1002
{
1000
OE
1000
N_CON1
1002
}
  0
LINE
  5
762
  8
MSL_F20_50-3
 10
296.58288488559259
 20
-12.875851304408201
 30
0.0
 11
310.81608988559623
 21
-12.875851304408201
 31
0.0
  0
LINE
  5
763
  8
MSL_F20_50-3N
 10
281.58288488559629
 20
-4.8758513044081999
 30
0.0
 11
296.58288488559259
 21
-4.8758513044081999
 31
0.0
1001
GENIUS_GENBH_13
1002
{
1000
OE
1000
N_CON1
1002
}
  0
LINE
  5
764
  8
MSL_F20_50-3
 10
296.58288488559259
 20
-4.8758513044081999
 30
0.0
 11
310.81608988559623
 21
-4.8758513044081999
 31
0.0
  0
LINE
  5
765
  8
MSL_F20_50-3N
 10
284.70788488559629
 20
-5.6426463044082
 30
0.0
 11
296.58288488559259
 21
-5.6426463044082
 31
0.0
1001
GENIUS_GENBH_13
1002
{
1000
OE
1000
N_THLI
1002
}
  0
LINE
  5
766
  8
MSL_F20_50-3
 10
296.58288488559259
 20
-5.6426463044082
 30
0.0
 11
311.58288488559617
 21
-5.6426463044082
 31
0.0
  0
LINE
  5
767
  8
MSL_F20_50-3N
 10
284.70788488559629
 20
-12.109056304408201
 30
0.0
 11
296.58288488559259
 21
-12.109056304408201
 31
0.0
1001
GENIUS_GENBH_13
1002
{
1000
OE
1000
N_THLI
1002
}
  0
LINE
  5
768
  8
MSL_F20_50-3
 10
296.58288488559259
 20
-12.109056304408201
 30
0.0
 11
311.58288488559617
 21
-12.109056304408201
 31
0.0
  0
ARC
  5
769
  8
MSL_F20_50-3AN
 10
272.68263489197352
 20
-8.8758513044082008
 30
0.0
 40
5.19749999999999
 50
340.52877936550919
 51
19.471220634490692
  0
ARC
  5
76A
  8
MSL_F20_50-3AN
 10
276.46929113958203
 20
-11.4746013044082
 30
0.0
 40
1.410843752391479
 50
322.12112050828171
 51
37.878879491718159
  0
ARC
  5
76B
  8
MSL_F20_50-3AN
 10
276.46929113958203
 20
-6.2771013044082
 30
0.0
 40
1.4108437523914801
 50
322.12112050828182
 51
37.87887949171818
  0
LINE
  5
76C
  8
MSL_F20_50-0N
 10
273.58288488559629
 20
-14.5758513044082
 30
0.0
 11
274.3828848855963
 21
-15.375851304408201
 31
0.0
  0
LINE
  5
76D
  8
MSL_F20_50-0N
 10
281.58288488559629
 20
-4.8758513044081999
 30
0.0
 11
281.58288488559629
 21
-2.3758513044081999
 31
0.0
  0
LINE
  5
76E
  8
MSL_F20_50-0N
 10
274.3828848855963
 20
-2.3758513044081999
 30
0.0
 11
281.58288488559629
 21
-2.3758513044081999
 31
0.0
  0
LINE
  5
76F
  8
MSL_F20_50-0N
 10
273.58288488559629
 20
-3.1758513044081988
 30
0.0
 11
274.3828848855963
 21
-2.3758513044081999
 31
0.0
  0
LINE
  5
770
  8
MSL_F20_50-0N
 10
274.3828848855963
 20
-15.375851304408201
 30
0.0
 11
281.58288488559629
 21
-15.375851304408201
 31
0.0
  0
LINE
  5
771
  8
MSL_F20_50-0N
 10
281.58288488559629
 20
-15.375851304408201
 30
0.0
 11
281.58288488559629
 21
-12.875851304408201
 31
0.0
  0
LINE
  5
772
  8
MSL_F20_50-0N
 10
273.58288488559629
 20
-14.5758513044082
 30
0.0
 11
273.58288488559629
 21
-3.1758513044081988
 31
0.0
  0
LINE
  5
773
  8
MSL_F20_50-0N
 10
274.3828848855963
 20
-2.3758513044081999
 30
0.0
 11
274.3828848855963
 21
-15.375851304408201
 31
0.0
  0
LINE
  5
774
  8
MSL_F20_50-3AN
 10
277.58288488559629
 20
-5.4108513044082001
 30
0.0
 11
279.58340356833833
 21
-8.8758513044082008
 31
0.0
  0
LINE
  5
775
  8
MSL_F20_50-3AN
 10
277.58288488559629
 20
-12.340851304408201
 30
0.0
 11
279.58340356833833
 21
-8.8758513044082008
 31
0.0
  0
LINE
  5
776
  8
MSL_F20_50-3AN
 10
273.58288488559629
 20
-5.4108513044082001
 30
0.0
 11
277.58288488559629
 21
-5.4108513044082001
 31
0.0
  0
LINE
  5
777
  8
MSL_F20_50-3AN
 10
273.58288488559629
 20
-7.1433513044082
 30
0.0
 11
277.58288488559629
 21
-7.1433513044082
 31
0.0
  0
LINE
  5
778
  8
MSL_F20_50-3AN
 10
273.58288488559629
 20
-10.608351304408201
 30
0.0
 11
277.58288488559629
 21
-10.608351304408201
 31
0.0
  0
LINE
  5
779
  8
MSL_F20_50-3AN
 10
273.58288488559629
 20
-12.340851304408201
 30
0.0
 11
277.58288488559629
 21
-12.340851304408201
 31
0.0
  0
LINE
  5
77A
  8
MSL_F20_50-0N
 10
281.58288488559629
 20
-12.875851304408201
 30
0.0
 11
281.58288488559629
 21
-4.8758513044081999
 31
0.0
  0
LINE
  5
77B
  8
MSL_F20_50-3N
 10
281.58288488559629
 20
-4.8758513044081999
 30
0.0
 11
284.70788488559629
 21
-5.6426463044082
 31
0.0
1001
GENIUS_GENBH_13
1002
{
1000
OE
1000
N_THLI
1002
}
  0
LINE
  5
77C
  8
MSL_F20_50-3N
 10
281.58288488559629
 20
-12.875851304408201
 30
0.0
 11
284.70788488559629
 21
-12.109056304408201
 31
0.0
1001
GENIUS_GENBH_13
1002
{
1000
OE
1000
N_THLI
1002
}
  0
LINE
  5
77D
  8
MSL_F20_50-3N
 10
284.70788488559629
 20
-12.875851304408201
 30
0.0
 11
284.70788488559629
 21
-4.8758513044081999
 31
0.0
1001
GENIUS_GENBH_13
1002
{
1000
OE
1000
N_CON1
1002
}
  0
LINE
  5
77E
  8
MSL_F20_50-3
 10
311.58288488559617
 20
-5.6426463044082
 30
0.0
 11
310.81608988559623
 21
-4.8758513044081999
 31
0.0
  0
LINE
  5
77F
  8
MSL_F20_50-3
 10
311.58288488559617
 20
-12.109056304408201
 30
0.0
 11
310.81608988559623
 21
-12.875851304408201
 31
0.0
  0
LINE
  5
780
  8
MSL_F20_50-3
 10
311.58288488559617
 20
-12.109056304408201
 30
0.0
 11
311.58288488559617
 21
-5.6426463044082
 31
0.0
  0
LINE
  5
781
  8
MSL_F20_50-3
 10
310.81608988559623
 20
-12.875851304408201
 30
0.0
 11
310.81608988559623
 21
-4.8758513044081999
 31
0.0
  0
INSERT
  5
782
  8
0
  2
*U25
 10
281.58288488559629
 20
-8.8758513044082008
 30
0.0
1001
GENIUS_GENOLIS_13
1002
{
1000
ENT
1002
}
1001
GENIUS_GENOENT_13
1002
{
1000
MYREF
1005
0
1002
}
  0
ENDBLK
  5
783
  8
0
  0
BLOCK
  8
0
  2
*U52
 70
     1
 10
0.0
 20
0.0
 30
0.0
  3
*U52
  1
*U
  0
LINE
  5
786
  8
-BHMU
 10
14.99999999999639
 20
-4.4999999999999991
 30
0.0
 11
14.99999999999639
 21
4.5000000000000018
 31
0.0
  0
LINE
  5
787
  8
-BHMU
 10
-0.0000000000000011
 20
4.5
 30
0.0
 11
0.0
 21
-4.5
 31
0.0
  0
LINE
  5
788
  8
BHMM
 10
0.0
 20
-4.5
 30
0.0
 11
14.99999999999639
 21
-4.4999999999999991
 31
0.0
  0
LINE
  5
789
  8
CENN
 10
17.99999999999639
 20
0.0
 30
0.0
 11
-3.0
 21
0.0
 31
0.0
  0
LINE
  5
78A
  8
BHMM
 10
-0.0000000000000011
 20
4.5
 30
0.0
 11
14.99999999999639
 21
4.5000000000000018
 31
0.0
  0
ENDBLK
  5
78B
  8
0
  0
BLOCK
  8
0
  2
*U53
 70
     1
 10
0.0
 20
0.0
 30
0.0
  3
*U53
  1
*U
  0
INSERT
  5
78E
  8
GEV_FROZEN
  2
*U52
 10
0.0
 20
0.0
 30
0.0
 41
0.1
 42
0.1
 43
0.1
1001
GENBH
1002
{
1000
-NOBRK
1002
}
  0
LINE
  5
78F
  8
MSL_F20_50-3
 10
0.0
 20
-4.5
 30
0.0
 11
14.999999999996421
 21
-4.5
 31
0.0
1001
GENIUS_GENBH_13
1002
{
1000
OE
1000
CON1
1002
}
  0
LINE
  5
790
  8
MSL_F20_50-7A
 10
17.99999999999639
 20
0.0
 30
0.0
 11
-3.0
 21
0.0
 31
0.0
  0
LINE
  5
791
  8
MSL_F20_50-3
 10
0.0
 20
4.5
 30
0.0
 11
14.999999999996421
 21
4.5000000000000018
 31
0.0
1001
GENIUS_GENBH_13
1002
{
1000
OE
1000
CON1
1002
}
  0
INSERT
  5
792
  8
0
  2
*U24
 10
0.0
 20
0.0
 30
0.0
1001
GENIUS_GENOLIS_13
1002
{
1000
ENT
1002
}
1001
GENIUS_GENOENT_13
1002
{
1000
MYREF
1005
0
1002
}
  0
ENDBLK
  5
793
  8
0
  0
BLOCK
  8
0
  2
GENINF13
 70
     2
 10
0.0
 20
0.0
 30
0.0
  3
GENINF13
  1
GENINF13
  0
CIRCLE
  5
890
  8
INFO
 10
-0.1079460011883957
 20
1.312243585777231
 30
0.0
 40
0.3390668951753026
  0
CIRCLE
  5
891
  8
INFO
 10
0.0
 20
0.0
 30
0.0
 40
1.9201944099631441
  0
LINE
  5
892
  8
INFO
 10
0.4113437479737743
 20
0.7068303850037037
 30
0.0
 11
-0.7000060094186789
 21
0.7068303850037035
 31
0.0
  0
LINE
  5
893
  8
INFO
 10
0.8299040409314978
 20
-1.3415352054823859
 30
0.0
 11
0.8299040409314978
 21
-0.5553667224477729
 31
0.0
  0
LINE
  5
894
  8
INFO
 10
0.8299040409314978
 20
-0.5553667224477729
 30
0.0
 11
0.4113437479737743
 21
-0.5553667224477729
 31
0.0
  0
LINE
  5
895
  8
INFO
 10
0.4113437479737743
 20
-0.5553667224477729
 30
0.0
 11
0.4113437479737743
 21
0.7068303850037037
 31
0.0
  0
LINE
  5
896
  8
INFO
 10
-0.7000060094186789
 20
0.7068303850037035
 30
0.0
 11
-0.7000060094186789
 21
0.1226134319150372
 31
0.0
  0
LINE
  5
897
  8
INFO
 10
-0.7000060094186789
 20
0.1226134319150372
 30
0.0
 11
-0.3752609491200999
 21
0.1226134319150372
 31
0.0
  0
LINE
  5
898
  8
INFO
 10
-0.3752609491200999
 20
0.1226134319150372
 30
0.0
 11
-0.3752609491200999
 21
-0.5553667224477729
 31
0.0
  0
LINE
  5
899
  8
INFO
 10
-0.3752609491200999
 20
-0.5553667224477729
 30
0.0
 11
-0.8010378055452676
 21
-0.5553667224477729
 31
0.0
  0
LINE
  5
89A
  8
INFO
 10
-0.8010378055452676
 20
-0.5553667224477729
 30
0.0
 11
-0.8010378055452676
 21
-1.3415352054823859
 31
0.0
  0
LINE
  5
89B
  8
INFO
 10
-0.8010378055452676
 20
-1.3415352054823859
 30
0.0
 11
0.8299040409314978
 21
-1.3415352054823859
 31
0.0
  0
ATTDEF
  5
89C
  8
INFO
 10
0.0
 20
0.0
 30
0.0
 40
1.0
  1
1
  3
Menge
  2
2GENINF
 70
     1
  0
ATTDEF
  5
89D
  8
INFO
 10
0.0
 20
-1.5
 30
0.0
 40
1.0
  1

  3
Stücklisten-Name
  2
3GENINF
 70
     1
  0
ATTDEF
  5
89E
  8
INFO
 10
0.0
 20
-3.0
 30
0.0
 40
1.0
  1

  3
Stücklisten-Pfad
  2
4GENINF
 70
     1
  0
ATTDEF
  5
89F
  8
INFO
 10
0.0
 20
-4.5
 30
0.0
 40
1.0
  1

  3
Beschreibung 1
  2
5GENINF
 70
     1
  0
ATTDEF
  5
8A0
  8
INFO
 10
0.0
 20
-6.0
 30
0.0
 40
1.0
  1

  3
Beschreibung 2
  2
6GENINF
 70
     1
  0
ATTDEF
  5
8A1
  8
INFO
 10
0.0
 20
-7.5
 30
0.0
 40
1.0
  1

  3
Norm/Lieferant 1
  2
7GENINF
 70
     1
  0
ATTDEF
  5
8A2
  8
INFO
 10
0.0
 20
-9.0
 30
0.0
 40
1.0
  1

  3
Norm/Lieferant 2
  2
8GENINF
 70
     1
  0
ATTDEF
  5
8A3
  8
INFO
 10
0.0
 20
-10.5
 30
0.0
 40
1.0
  1

  3
Material 1
  2
9GENINF
 70
     1
  0
ATTDEF
  5
8A4
  8
INFO
 10
0.0
 20
-12.0
 30
0.0
 40
1.0
  1

  3
Material 2
  2
10GENINF
 70
     1
  0
ATTDEF
  5
8A5
  8
INFO
 10
0.0
 20
-13.5
 30
0.0
 40
1.0
  1

  3
Identnummer
  2
11GENINF
 70
     1
  0
ATTDEF
  5
8A6
  8
INFO
 10
0.0
 20
-15.0
 30
0.0
 40
1.0
  1

  3
Gewicht
  2
12GENINF
 70
     1
  0
ATTDEF
  5
8A7
  8
INFO
 10
0.0
 20
-16.5
 30
0.0
 40
1.0
  1

  3
Preis
  2
13GENINF
 70
     1
  0
ATTDEF
  5
8A8
  8
INFO
 10
0.0
 20
-18.0
 30
0.0
 40
1.0
  1

  3
Abmessungen
  2
14GENINF
 70
     1
  0
ATTDEF
  5
8A9
  8
INFO
 10
0.0
 20
-19.5
 30
0.0
 40
1.0
  1

  3
User 1
  2
15GENINF
 70
     1
  0
ATTDEF
  5
8AA
  8
INFO
 10
0.0
 20
-21.0
 30
0.0
 40
1.0
  1

  3
User 2
  2
16GENINF
 70
     1
  0
ATTDEF
  5
8AB
  8
INFO
 10
0.0
 20
-22.5
 30
0.0
 40
1.0
  1

  3
User 3
  2
17GENINF
 70
     1
  0
ATTDEF
  5
8AC
  8
INFO
 10
0.0
 20
-24.0
 30
0.0
 40
1.0
  1

  3
User 4
  2
18GENINF
 70
     1
  0
ATTDEF
  5
8AD
  8
INFO
 10
0.0
 20
-25.5
 30
0.0
 40
1.0
  1

  3
User 5
  2
19GENINF
 70
     1
  0
ATTDEF
  5
8AE
  8
INFO
 10
0.0
 20
-27.0
 30
0.0
 40
1.0
  1

  3
User 6
  2
20GENINF
 70
     1
  0
ATTDEF
  5
8AF
  8
INFO
 10
0.0
 20
-28.5
 30
0.0
 40
1.0
  1

  3
User 7
  2
21GENINF
 70
     1
  0
ATTDEF
  5
8B0
  8
INFO
 10
0.0
 20
-30.0
 30
0.0
 40
1.0
  1

  3
User 8
  2
22GENINF
 70
     1
  0
ATTDEF
  5
8B1
  8
INFO
 10
0.0
 20
-31.5
 30
0.0
 40
1.0
  1

  3
Filter
  2
23GENINF
 70
     1
  0
ATTDEF
  5
8B2
  8
INFO
 10
0.0
 20
-33.0
 30
0.0
 40
1.0
  1

  3
Bemerkung
  2
24GENINF
 70
     1
  0
ATTDEF
  5
8B3
  8
INFO
 10
0.0
 20
-34.5
 30
0.0
 40
1.0
  1

  3
Genius Normteile ID
  2
0GENINF
 70
     1
  0
ENDBLK
  5
8B5
  8
0
  0
BLOCK
  8
0
  2
*X55
 70
     1
 10
0.0
 20
0.0
 30
0.0
  3
*X55
  1
*U
  0
LINE
  5
8B7
  8
0
 62
     0
 10
-6.9551457413695914
 20
77.897668001016086
 30
0.0
 11
-4.2832250000036396
 21
80.569588742382052
 31
0.0
  0
LINE
  5
8B8
  8
0
 62
     0
 10
-8.3961152630355791
 20
79.992232385282847
 30
0.0
 11
-4.2832250000036396
 21
84.105122648314804
 31
0.0
  0
LINE
  5
8B9
  8
0
 62
     0
 10
-8.6748153605261589
 20
83.249066193725014
 30
0.0
 11
-6.9596850854872416
 21
84.96419646876393
 31
0.0
  0
LINE
  5
8BA
  8
0
 62
     0
 10
-4.542930058385191
 20
76.774349778067744
 30
0.0
 11
-4.2832250000036396
 21
77.034054836449329
 31
0.0
  0
ENDBLK
  5
8BC
  8
0
  0
BLOCK
  8
0
  2
*X56
 70
     1
 10
0.0
 20
0.0
 30
0.0
  3
*X56
  1
*U
  0
LINE
  5
8BE
  8
0
 62
     0
 10
4.2832249999963627
 20
78.529437024583842
 30
0.0
 11
9.6093053924008824
 21
83.855517416988363
 31
0.0
  0
LINE
  5
8BF
  8
0
 62
     0
 10
4.2832249999963627
 20
82.064970930516566
 30
0.0
 11
7.1824505382438346
 21
84.964196468764044
 31
0.0
  0
ENDBLK
  5
8C1
  8
0
  0
BLOCK
  8
0
  2
*U57
 70
     1
 10
0.0
 20
0.0
 30
0.0
  3
*U57
  1
*U
  0
LINE
  5
AF5
  8
-BHMU
 10
8.0
 20
4.2832249999999989
 30
0.0
 11
8.0
 21
-4.2832249999999989
 31
0.0
  0
LINE
  5
AF6
  8
-BHMU
 10
0.0
 20
4.2832249999999989
 30
0.0
 11
0.0
 21
-4.2832249999999989
 31
0.0
  0
LINE
  5
AF7
  8
BHMM
 10
0.0
 20
-4.2832249999999989
 30
0.0
 11
8.0
 21
-4.2832249999999989
 31
0.0
  0
LINE
  5
AF8
  8
THLI
 10
0.0
 20
-4.863999999999999
 30
0.0
 11
7.9999999999999982
 21
-4.863999999999999
 31
0.0
  0
LINE
  5
AF9
  8
CENN
 10
-3.0
 20
0.0
 30
0.0
 11
11.0
 21
0.0
 31
0.0
  0
LINE
  5
AFA
  8
BHMM
 10
0.0
 20
4.2832249999999989
 30
0.0
 11
8.0
 21
4.2832249999999989
 31
0.0
  0
LINE
  5
AFB
  8
THLI
 10
0.0
 20
4.863999999999999
 30
0.0
 11
7.9999999999999982
 21
4.863999999999999
 31
0.0
  0
ENDBLK
  5
AFC
  8
0
  0
BLOCK
  8
0
  2
*U58
 70
     1
 10
-0.000000000003638
 20
84.964196468764797
 30
0.0
  3
*U58
  1
*U
  0
INSERT
  5
AFF
  8
GEV_FROZEN
  2
*U57
 10
-0.000000000003638
 20
84.964196468764797
 30
0.0
 41
0.1
 42
0.1
 43
0.1
1001
GENBH
1002
{
1000
-NOBRK
1002
}
  0
LINE
  5
B00
  8
MSF20-0
 10
-0.000000000003638
 20
80.680971468764795
 30
0.0
 11
8.3015671754750286
 21
80.680971468764795
 31
0.0
  0
LINE
  5
B01
  8
MSF20-4
 10
-0.000000000003638
 20
80.100196468764807
 30
0.0
 11
8.0669832660323237
 21
80.100196468764807
 31
0.0
  0
LINE
  5
B02
  8
MSF20-0
 10
-0.000000000003638
 20
89.247421468764799
 30
0.0
 11
8.4423378826265747
 21
89.247421468764799
 31
0.0
  0
LINE
  5
B03
  8
MSF20-4
 10
-0.000000000003638
 20
89.828196468764816
 30
0.0
 11
8.1046801316451536
 21
89.828196468764816
 31
0.0
  0
ENDBLK
  5
B04
  8
0
  0
BLOCK
  8
0
  2
*U59
 70
     1
 10
0.0
 20
0.0
 30
0.0
  3
*U59
  1
*U
  0
LINE
  5
BF7
  8
-BHMU
 10
8.0
 20
4.2832249999999989
 30
0.0
 11
8.0
 21
-4.2832249999999989
 31
0.0
  0
LINE
  5
BF8
  8
-BHMU
 10
0.0
 20
4.2832249999999989
 30
0.0
 11
0.0
 21
-4.2832249999999989
 31
0.0
  0
LINE
  5
BF9
  8
BHMM
 10
0.0
 20
-4.2832249999999989
 30
0.0
 11
8.0
 21
-4.2832249999999989
 31
0.0
  0
LINE
  5
BFA
  8
THLI
 10
0.0
 20
-4.863999999999999
 30
0.0
 11
7.9999999999999982
 21
-4.863999999999999
 31
0.0
  0
LINE
  5
BFB
  8
CENN
 10
-3.0
 20
0.0
 30
0.0
 11
11.0
 21
0.0
 31
0.0
  0
LINE
  5
BFC
  8
BHMM
 10
0.0
 20
4.2832249999999989
 30
0.0
 11
8.0
 21
4.2832249999999989
 31
0.0
  0
LINE
  5
BFD
  8
THLI
 10
0.0
 20
4.863999999999999
 30
0.0
 11
7.9999999999999982
 21
4.863999999999999
 31
0.0
  0
ENDBLK
  5
BFE
  8
0
  0
BLOCK
  8
0
  2
*U60
 70
     1
 10
-0.000000000003638
 20
84.964196468764797
 30
0.0
  3
*U60
  1
*U
  0
INSERT
  5
C01
  8
GEV_FROZEN
  2
*U59
 10
-0.000000000003638
 20
84.964196468764797
 30
0.0
 41
0.1
 42
0.1
 43
0.1
1001
GENBH
1002
{
1000
-NOBRK
1002
}
  0
LINE
  5
C02
  8
MSF20-0
 10
-0.000000000003638
 20
80.680971468764795
 30
0.0
 11
8.3015671754750286
 21
80.680971468764795
 31
0.0
  0
LINE
  5
C03
  8
MSF20-4
 10
-0.000000000003638
 20
80.100196468764807
 30
0.0
 11
8.0669832660323237
 21
80.100196468764807
 31
0.0
  0
LINE
  5
C04
  8
MSF20-0
 10
-0.000000000003638
 20
89.247421468764799
 30
0.0
 11
8.4423378826265747
 21
89.247421468764799
 31
0.0
  0
LINE
  5
C05
  8
MSF20-4
 10
-0.000000000003638
 20
89.828196468764816
 30
0.0
 11
8.1046801316451536
 21
89.828196468764816
 31
0.0
  0
ENDBLK
  5
C06
  8
0
  0
BLOCK
  8
0
  2
GENTPOS0
 70
     0
 10
0.0
 20
0.0
 30
0.0
  3
GENTPOS0
  1

  0
LINE
  5
C9B
  8
0
 10
-182.88486883698579
 20
0.0000000000000178
 30
0.0
 11
-0.0000000000000015
 21
0.0
 31
0.0
  0
LINE
  5
C9C
  8
AM_BOR
 62
     1
 10
-159.88486883698579
 20
4.5000000000000258
 30
0.0
 11
0.0
 21
4.5
 31
0.0
1001
GENIUS_GENBLLY_14
1000
BOR2
  0
LINE
  5
C9E
  8
AM_BOR
 62
     1
 10
-182.88486883698579
 20
9.0000000000000178
 30
0.0
 11
0.0000000000000015
 21
8.9999999999999716
 31
0.0
1001
GENIUS_GENBLLY_14
1000
BOR2
  0
LINE
  5
C9F
  8
0
 10
-182.88486883698579
 20
4.5000000000000178
 30
0.0
 11
-182.88486883698579
 21
9.0000000000000178
 31
0.0
  0
LINE
  5
CA0
  8
0
 10
-182.88486883698579
 20
0.0000000000000178
 30
0.0
 11
-182.88486883698579
 21
4.5000000000000178
 31
0.0
  0
LINE
  5
CA1
  8
AM_BOR
 62
     1
 10
-159.88486883698579
 20
4.5000000000000284
 30
0.0
 11
-159.88486883698579
 21
0.0862588319893405
 31
0.0
1001
GENIUS_GENBLLY_14
1000
BOR2
  0
LINE
  5
CA2
  8
AM_BOR
 62
     1
 10
-171.88486883698579
 20
4.5000000000000488
 30
0.0
 11
-171.88486883698579
 21
0.0862588319893618
 31
0.0
1001
GENIUS_GENBLLY_14
1000
BOR2
  0
LINE
  5
CA3
  8
AM_BOR
 62
     1
 10
-171.88486883698579
 20
9.0000000000000782
 30
0.0
 11
-171.88486883698579
 21
4.5000000000000782
 31
0.0
1001
GENIUS_GENBLLY_14
1000
BOR2
  0
LINE
  5
CA4
  8
AM_BOR
 62
     1
 10
-159.88486883698579
 20
9.0000000000000568
 30
0.0
 11
-159.88486883698579
 21
4.500000000000056
 31
0.0
1001
GENIUS_GENBLLY_14
1000
BOR2
  0
LINE
  5
CA5
  8
AM_BOR
 62
     1
 10
-99.164153522206277
 20
4.5000000000000284
 30
0.0
 11
-99.164153522206277
 21
0.0000000000000284
 31
0.0
1001
GENIUS_GENBLLY_14
1000
BOR2
  0
LINE
  5
CA6
  8
AM_BOR
 62
     1
 10
-99.164153522206277
 20
9.0000000000000284
 30
0.0
 11
-99.164153522206277
 21
4.5000000000000284
 31
0.0
1001
GENIUS_GENBLLY_14
1000
BOR2
  0
TEXT
  5
CA7
  8
AM_BOR
 62
     1
 10
-40.533941491700602
 20
5.7632297189300914
 30
0.0
 40
2.0
  1
(genmsg "gendwg" 39){20.2}
1001
GENIUS_GENBLLY_14
1000
BOR3
  0
TEXT
  5
CA8
  8
AM_BOR
 62
     1
 10
-40.533941491700602
 20
0.9821435911503897
 30
0.0
 40
2.0
  1
(genmsg "gendwg" 40){20.2}
1001
GENIUS_GENBLLY_14
1000
BOR3
  0
LINE
  5
CA9
  8
AM_BOR
 62
     1
 10
-42.513122670274811
 20
4.500000000000056
 30
0.0
 11
-42.513122670274811
 21
0.0000000000000568
 31
0.0
1001
GENIUS_GENBLLY_14
1000
BOR2
  0
LINE
  5
CAA
  8
AM_BOR
 62
     1
 10
-42.513122670274811
 20
9.0000000000000284
 30
0.0
 11
-42.513122670274811
 21
4.5000000000000284
 31
0.0
1001
GENIUS_GENBLLY_14
1000
BOR2
  0
LINE
  5
CAB
  8
0
 10
0.0
 20
4.5
 30
0.0
 11
0.0000000000000015
 21
9.0
 31
0.0
  0
LINE
  5
CAC
  8
0
 10
-0.0000000000000015
 20
0.0
 30
0.0
 11
0.0
 21
4.5
 31
0.0
  0
TEXT
  5
CAD
  8
AM_BOR
 62
     1
 10
-98.203639361584706
 20
5.608505873506747
 30
0.0
 40
2.0
  1
(genmsg "gendwg" 37){27.5}
1001
GENIUS_GENBLLY_14
1000
BOR3
  0
TEXT
  5
CAE
  8
AM_BOR
 62
     1
 10
-98.138699945075587
 20
1.1000500179945081
 30
0.0
 40
2.0
  1
(genmsg "gendwg" 38){27.5}
1001
GENIUS_GENBLLY_14
1000
BOR3
  0
TEXT
  5
CAF
  8
AM_BOR
 62
     1
 10
-159.1934076074175
 20
5.5341521628883221
 30
0.0
 40
2.0
  1
(genmsg "gendwg" 35){22.7}
1001
GENIUS_GENBLLY_14
1000
BOR3
  0
TEXT
  5
CB0
  8
AM_BOR
 62
     1
 10
-159.06352877439929
 20
1.1867960137159941
 30
0.0
 40
2.0
  1
(genmsg "gendwg" 36){22.7}
1001
GENIUS_GENBLLY_14
1000
BOR3
  0
TEXT
  5
CB1
  8
AM_BOR
 62
     1
 10
-182.06352877439929
 20
5.8640344583101331
 30
0.0
 40
2.0
  1
(genmsg "gendwg" 29){7.6}
1001
GENIUS_GENBLLY_14
1000
BOR3
  0
TEXT
  5
CB2
  8
AM_BOR
 62
     1
 10
-171.06352877439929
 20
5.6509601097971291
 30
0.0
 40
2.0
  1
(genmsg "gendwg" 32){5.3}
1001
GENIUS_GENBLLY_14
1000
BOR3
  0
TEXT
  5
CB3
  8
AM_BOR
 62
     1
 10
-8.7000000000000028
 20
5.7632297189300914
 30
0.0
 40
2.0
  1
Länge
 72
     2
 11
-2.0
 21
5.7632297189300914
 31
0.0
1001
GENIUS_GENBLLY_14
1000
BOR3
  0
ENDBLK
  5
CB5
  8
0
  0
BLOCK
  8
0
  2
GENTPOS1
 70
     2
 10
0.0
 20
0.0
 30
0.0
  3
GENTPOS1
  1

  0
LINE
  5
CB7
  8
0
 10
-182.8848688369859
 20
0.0000000000000853
 30
0.0
 11
-182.8848688369859
 21
4.5000000000000853
 31
0.0
  0
ATTDEF
  5
CB8
  8
AM_BOR
 62
     2
 10
-158.9507488793445
 20
1.462817121073982
 30
0.0
 40
2.0
  1

  3
(GENMSG "GENDWG" 35)
  2
6GENST{22.7}
 70
     0
1001
GENIUS_GENBLLY_14
1000
BOR3
  0
LINE
  5
CB9
  8
AM_BOR
 62
     1
 10
-171.88486883698579
 20
4.5000000000000284
 30
0.0
 11
-171.88486883698579
 21
0.0000000000000284
 31
0.0
1001
GENIUS_GENBLLY_14
1000
BOR2
  0
LINE
  5
CBA
  8
AM_BOR
 62
     1
 10
-159.88486883698579
 20
4.5
 30
0.0
 11
-159.88486883698579
 21
0.0
 31
0.0
1001
GENIUS_GENBLLY_14
1000
BOR2
  0
ATTDEF
  5
CBB
  8
AM_BOR
 62
     2
 10
-98.306544560848366
 20
1.4628467178702631
 30
0.0
 40
2.0
  1

  3
(GENMSG "GENDWG" 37)
  2
8GENST{27.5}
 70
     0
1001
GENIUS_GENBLLY_14
1000
BOR3
  0
LINE
  5
CBC
  8
AM_BOR
 62
     1
 10
-99.164153522206334
 20
4.4999999999999849
 30
0.0
 11
-99.164153522206334
 21
0.0
 31
0.0
1001
GENIUS_GENBLLY_14
1000
BOR2
  0
ATTDEF
  5
CBD
  8
AM_BOR
 62
     2
 10
-41.188800557918512
 20
1.4535630554862271
 30
0.0
 40
2.0
  1

  3
(GENMSG "GENDWG" 39)
  2
10GENST{20.2}
 70
     0
1001
GENIUS_GENBLLY_14
1000
BOR3
  0
LINE
  5
CBE
  8
AM_BOR
 62
     1
 10
-42.513122670274811
 20
4.4999999999999707
 30
0.0
 11
-42.513122670274811
 21
0.0
 31
0.0
1001
GENIUS_GENBLLY_14
1000
BOR2
  0
LINE
  5
CBF
  8
0
 10
0.0
 20
4.4999999999999574
 30
0.0
 11
0.0
 21
0.0
 31
0.0
  0
LINE
  5
CC0
  8
AM_BOR
 62
     1
 10
-159.88486883698579
 20
4.5
 30
0.0
 11
0.0
 21
4.5000000000001696
 31
0.0
1001
GENIUS_GENBLLY_14
1000
BOR2
  0
ENDBLK
  5
CC2
  8
0
  0
BLOCK
  8
0
  2
GENTPOS2
 70
     2
 10
0.0
 20
0.0
 30
0.0
  3
GENTPOS2
  1

  0
ATTDEF
  5
CC4
  8
AM_BOR
 62
     2
 10
-181.98804960497549
 20
-25.67901407093678
 30
0.0
 40
2.0
  1

  3

  2
ITEM
 70
     0
1001
GENIUS_GENBLLY_14
1000
BOR3
  0
ATTDEF
  5
CC5
  8
AM_BOR
 62
     2
 10
-170.98804960497549
 20
-25.679014070936759
 30
0.0
 40
2.0
  1

  3

  2
QTY
 70
     0
1001
GENIUS_GENBLLY_14
1000
BOR3
  0
ATTDEF
  5
CC6
  8
AM_BOR
 62
     2
 10
-158.98804960497549
 20
-25.67901407093678
 30
0.0
 40
2.0
  1

  3
(GENMSG "GENDWG" 36)
  2
5GENST{22.7}
 70
     0
1001
GENIUS_GENBLLY_14
1000
BOR3
  0
ATTDEF
  5
CC7
  8
AM_BOR
 62
     2
 10
-98.127090248452362
 20
-25.678984474140499
 30
0.0
 40
2.0
  1

  3
(GENMSG "GENDWG" 38)
  2
7GENST{27.5}
 70
     0
1001
GENIUS_GENBLLY_14
1000
BOR3
  0
ATTDEF
  5
CC8
  8
AM_BOR
 62
     2
 10
-41.355436705145102
 20
-25.484027564075731
 30
0.0
 40
2.0
  1

  3
(GENMSG "GENDWG" 40)
  2
9GENST{20.2}
 70
     0
1001
GENIUS_GENBLLY_14
1000
BOR3
  0
ATTDEF
  5
CC9
  8
AM_BOR
 62
     2
 10
-2.0000000000001128
 20
-25.546436944513609
 30
0.0
 40
2.0
  1

 72
     2
 11
-2.0000000000001128
 21
-25.546436944513609
 31
0.0
  3

  2
DIM
 70
     0
1001
GENIUS_GENBLLY_14
1000
BOR3
  0
LINE
  5
CCA
  8
AM_BOR
 62
     1
 10
-182.8848688369859
 20
-22.49999999999984
 30
0.0
 11
-0.0000000000001137
 21
-22.49999999999984
 31
0.0
1001
GENIUS_GENBLLY_14
1000
BOR2
  0
LINE
  5
CCB
  8
0
 10
-182.8848688369859
 20
-26.99999999999984
 30
0.0
 11
-182.8848688369859
 21
-22.49999999999984
 31
0.0
  0
LINE
  5
CCC
  8
AM_BOR
 62
     1
 10
-171.8848688369859
 20
-22.499999999999801
 30
0.0
 11
-171.8848688369859
 21
-26.999999999999801
 31
0.0
1001
GENIUS_GENBLLY_14
1000
BOR2
  0
LINE
  5
CCD
  8
AM_BOR
 62
     1
 10
-159.8848688369859
 20
-22.49999999999984
 30
0.0
 11
-159.8848688369859
 21
-26.99999999999984
 31
0.0
1001
GENIUS_GENBLLY_14
1000
BOR2
  0
LINE
  5
CCE
  8
AM_BOR
 62
     1
 10
-99.164153522206391
 20
-22.499999999999851
 30
0.0
 11
-99.164153522206391
 21
-26.99999999999984
 31
0.0
1001
GENIUS_GENBLLY_14
1000
BOR2
  0
LINE
  5
CCF
  8
AM_BOR
 62
     1
 10
-42.513122670274861
 20
-22.499999999999869
 30
0.0
 11
-42.513122670274861
 21
-26.99999999999984
 31
0.0
1001
GENIUS_GENBLLY_14
1000
BOR2
  0
LINE
  5
CD0
  8
0
 10
-0.0000000000000568
 20
-22.499999999999879
 30
0.0
 11
-0.0000000000000568
 21
-26.99999999999984
 31
0.0
  0
ENDBLK
  5
CD2
  8
0
  0
BLOCK
  8
0
  2
GENTPOS
 70
     2
 10
0.0
 20
0.0
 30
0.0
  3
GENTPOS
  1

  0
ATTDEF
  5
CD4
  8
0
 10
0.0
 20
9.0
 30
0.0
 40
2.5
  1
4
  3

  2
_ALWAYS
 70
     3
  0
INSERT
  5
CD5
  8
0
  2
GENTPOS0
 10
0.0
 20
0.0
 30
0.0
  0
INSERT
  5
CD6
  8
0
 66
     1
  2
GENTPOS1
 10
0.0000000000000015
 20
9.0
 30
0.0
  0
ATTRIB
  5
CD7
  8
AM_BOR
 62
     2
 10
-42.513122670274811
 20
9.0
 30
0.0
 40
2.0
  1

  2
3GENST{6.3}
 70
     0
1001
GENIUS_GENBLLY_14
1000
BOR3
  0
ATTRIB
  5
CD8
  8
AM_BOR
 62
     2
 10
-99.164153522206334
 20
9.0000000000000284
 30
0.0
 40
2.0
  1

  2
1GENST{7.6}
 70
     0
1001
GENIUS_GENBLLY_14
1000
BOR3
  0
ATTRIB
  5
CD9
  8
AM_BOR
 62
     2
 10
-145.5207488793445
 20
10.46281712107398
 30
0.0
 40
2.0
  1

  2
5GENST{22.7}
 70
     0
1001
GENIUS_GENBLLY_14
1000
BOR3
  0
ATTRIB
  5
CDA
  8
AM_BOR
 62
     2
 10
-146.45486883698581
 20
9.0
 30
0.0
 40
2.0
  1

  2
2GENST{5.3}
 70
     0
1001
GENIUS_GENBLLY_14
1000
BOR3
  0
ATTRIB
  5
CDB
  8
AM_BOR
 62
     2
 10
-98.306544560848366
 20
10.46284671787026
 30
0.0
 40
2.0
  1

  2
7GENST{27.5}
 70
     0
1001
GENIUS_GENBLLY_14
1000
BOR3
  0
ATTRIB
  5
CDC
  8
AM_BOR
 62
     2
 10
-41.188800557918512
 20
10.453563055486219
 30
0.0
 40
2.0
  1

  2
9GENST{20.2}
 70
     0
1001
GENIUS_GENBLLY_14
1000
BOR3
  0
SEQEND
  5
CDD
  8
0
  0
INSERT
  5
CDE
  8
0
 66
     1
  2
GENTPOS2
 10
0.0000000000000583
 20
40.500000000000007
 30
0.0
  0
ATTRIB
  5
CDF
  8
AM_BOR
 62
     2
 10
-181.9880496049754
 20
14.82098592906322
 30
0.0
 40
2.0
  1

  2
ITEM
 70
     0
  0
ATTRIB
  5
CE0
  8
AM_BOR
 62
     2
 10
-170.9880496049754
 20
14.82098592906326
 30
0.0
 40
2.0
  1

  2
QTY
 70
     0
  0
ATTRIB
  5
CE1
  8
AM_BOR
 62
     2
 10
-158.9880496049754
 20
14.82098592906322
 30
0.0
 40
2.0
  1

  2
5GENST{22.7}
 70
     0
  0
ATTRIB
  5
CE2
  8
AM_BOR
 62
     2
 10
-98.127090248452305
 20
14.821015525859501
 30
0.0
 40
2.0
  1

  2
7GENST{27.5}
 70
     0
  0
ATTRIB
  5
CE3
  8
AM_BOR
 62
     2
 10
-41.355436705145053
 20
15.015972435924279
 30
0.0
 40
2.0
  1

  2
9GENST{20.2}
 70
     0
  0
ATTRIB
  5
CE4
  8
AM_BOR
 62
     2
 10
-2.0000000000000551
 20
14.95356305548639
 30
0.0
 40
2.0
  1

 72
     2
 11
-2.0000000000000551
 21
14.95356305548639
 31
0.0
  2
DIM
 70
     0
  0
SEQEND
  5
CE5
  8
0
  0
ENDBLK
  5
CE7
  8
0
  0
BLOCK
  8
0
  2
GENAXEH
 70
     0
 10
0.0
 20
0.0
 30
0.0
  3
GENAXEH
  1

  0
LINE
  5
CFC
  8
0
 10
-1.0
 20
0.0
 30
0.0
 11
1.0
 21
0.0
 31
0.0
  0
ENDBLK
  5
CFE
  8
0
  0
BLOCK
  8
0
  2
*U66
 70
     1
 10
0.0
 20
0.0
 30
0.0
  3
*U66
  1

  0
TEXT
  5
D46
  8
ZYL_50_ISO6431-0
 10
327.12071847886722
 20
69.049482148300697
 30
0.0
 40
1.75
  1
Zylinder 
  0
TEXT
  5
D47
  8
ZYL_50_ISO6431-0
 10
336.3957184788672
 20
69.049482148300697
 30
0.0
 40
1.75
  1
\U+2205
  0
TEXT
  5
D48
  8
ZYL_50_ISO6431-0
 10
337.97071847886713
 20
69.049482148300697
 30
0.0
 40
1.75
  1
50 DIN/ISO 6431
  0
TEXT
  5
D49
  8
ZYL_50_ISO6431-0
 10
327.12071847886722
 20
66.132815481634026
 30
0.0
 40
1.75
  1
Kolbenstange um 54mm verlängert
  0
ENDBLK
  5
D4B
  8
0
  0
ENDSEC
  0
SECTION
  2
ENTITIES
  0
LINE
  5
72
  8
MSL_F20_50-0
 10
242.58288488559259
 20
116.87939258397471
 30
0.0
 11
242.5828848855927
 21
56.87939258397477
 31
0.0
  0
LINE
  5
76
  8
MSL_F20_50-0
 10
242.5828848855927
 20
56.87939258397477
 30
0.0
 11
226.5828848855927
 21
56.87939258397477
 31
0.0
  0
LINE
  5
77
  8
MSL_F20_50-0
 10
242.58288488559259
 20
116.87939258397471
 30
0.0
 11
226.58288488559259
 21
116.87939258397471
 31
0.0
  0
LINE
  5
7B
  8
MSL_F20_50-0
 10
226.5828848855927
 20
56.87939258397477
 30
0.0
 11
226.58288488559259
 21
116.87939258397471
 31
0.0
  0
LINE
  5
80
  8
MSL_F20_50-0
 10
226.5828848855927
 20
66.879392583974763
 30
0.0
 11
216.58288488559299
 21
66.879392583974763
 31
0.0
  0
LINE
  5
81
  8
MSL_F20_50-0
 10
226.58288488559259
 20
106.87939258397471
 30
0.0
 11
216.5828848855929
 21
106.87939258397471
 31
0.0
  0
LINE
  5
83
  8
MSL_F20_50-0
 10
214.58288488559231
 20
68.879392583974763
 30
0.0
 11
214.5828848855891
 21
86.879392583974763
 31
0.0
  0
LINE
  5
84
  8
MSL_F20_50-0
 10
214.58288488559219
 20
104.87939258397471
 30
0.0
 11
214.58288488558901
 21
86.879392583974763
 31
0.0
  0
LINE
  5
C3
  8
MSL_F20_50-0
 10
214.58288488559219
 20
104.87939258397471
 30
0.0
 11
216.5828848855929
 21
106.87939258397471
 31
0.0
1001
GENIUS_GENODEF_13
1002
{
1000
HIER
1070
     0
1002
}
1002
{
1000
MANEDIT
1070
     0
1002
}
1002
{
1000
NOSEL
1070
     0
1002
}
1002
{
1000
BEHIND
1070
     0
1002
}
1002
{
1000
REACTOR
1002
}
1001
GENIUS_GENOBJ-N-CHA_13
1002
{
1000
OWNER
1000
GEN
1002
}
1001
GENIUS_GENFIL_13
1070
     1
1040
12.5
1040
12.5
1040
2.0
1040
0.7853981633974483
1002
{
1002
}
  0
LINE
  5
C7
  8
MSL_F20_50-0
 10
214.58288488559231
 20
68.879392583974763
 30
0.0
 11
216.58288488559299
 21
66.879392583974763
 31
0.0
1001
GENIUS_GENODEF_13
1002
{
1000
HIER
1070
     0
1002
}
1002
{
1000
MANEDIT
1070
     0
1002
}
1002
{
1000
NOSEL
1070
     0
1002
}
1002
{
1000
BEHIND
1070
     0
1002
}
1002
{
1000
REACTOR
1002
}
1001
GENIUS_GENOBJ-N-CHA_13
1002
{
1000
OWNER
1000
GEN
1002
}
1001
GENIUS_GENFIL_13
1070
     1
1040
12.5
1040
12.5
1040
2.0
1040
0.7853981633974483
1002
{
1002
}
  0
LINE
  5
CA
  8
MSL_F20_50-7
 10
211.58288488558901
 20
86.879392583974763
 30
0.0
 11
299.5828848855927
 21
86.879392583974763
 31
0.0
1001
GENIUS_GENODEF_13
1002
{
1000
HIER
1070
     0
1002
}
1002
{
1000
MANEDIT
1070
     0
1002
}
1002
{
1000
NOSEL
1070
     0
1002
}
1002
{
1000
BEHIND
1070
     0
1002
}
1002
{
1000
REACTOR
1002
}
1001
GENIUS_GENOBJ-N-CEN_13
1002
{
1000
OWNER
1000
GEN
1002
}
  0
LINE
  5
D5
  8
MSL_F20_50-0
 10
216.58288488559299
 20
66.879392583974763
 30
0.0
 11
216.58288488559259
 21
106.87939258397471
 31
0.0
  0
ARC
  5
E9
  8
MSL_F20_50-0
 10
517.3837111508451
 20
86.879392583974763
 30
0.0
 40
40.0
 50
41.409622109270842
 51
48.590377890729158
1001
GENIUS_GENOREF_13
1005
C43
  0
POLYLINE
  5
F9
  8
MSL_F20_50-0
 66
     1
 10
0.0
 20
0.0
 30
0.0
1001
GENIUS_GENODEF_13
1002
{
1000
HIER
1070
     0
1002
}
1002
{
1000
MANEDIT
1070
     0
1002
}
1002
{
1000
NOSEL
1070
     0
1002
}
1002
{
1000
BEHIND
1070
     0
1002
}
1002
{
1000
REACTOR
1002
}
1001
GENIUS_GENOBJ-N-REC_13
1002
{
1000
OWNER
1000
GEN
1002
}
1001
GENIUS_GENREC_13
1070
     4
1070
     2
1070
     4
1001
GENIUS_GENOREF_13
1005
C43
  0
VERTEX
  5
FA
  8
MSL_F20_50-0
 10
543.84122426149088
 20
116.87939258397471
 30
0.0
  0
VERTEX
  5
FB
  8
MSL_F20_50-0
 10
490.92619804019921
 20
116.87939258397481
 30
0.0
  0
SEQEND
  5
FC
  8
MSL_F20_50-0
  0
POLYLINE
  5
101
  8
MSL_F20_50-0
 66
     1
 10
0.0
 20
0.0
 30
0.0
1001
GENIUS_GENODEF_13
1002
{
1000
HIER
1070
     0
1002
}
1002
{
1000
MANEDIT
1070
     0
1002
}
1002
{
1000
NOSEL
1070
     0
1002
}
1002
{
1000
BEHIND
1070
     0
1002
}
1002
{
1000
REACTOR
1002
}
1001
GENIUS_GENOBJ-N-REC_13
1002
{
1000
OWNER
1000
GEN
1002
}
1001
GENIUS_GENREC_13
1070
     4
1070
     2
1070
     4
1001
GENIUS_GENOREF_13
1005
C43
  0
VERTEX
  5
102
  8
MSL_F20_50-0
 10
547.38371115084499
 20
60.4218794733289
 30
0.0
  0
VERTEX
  5
103
  8
MSL_F20_50-0
 10
547.38371115084499
 20
113.3369056946206
 30
0.0
  0
SEQEND
  5
104
  8
MSL_F20_50-0
  0
POLYLINE
  5
105
  8
MSL_F20_50-0
 66
     1
 10
0.0
 20
0.0
 30
0.0
1001
GENIUS_GENODEF_13
1002
{
1000
HIER
1070
     0
1002
}
1002
{
1000
MANEDIT
1070
     0
1002
}
1002
{
1000
NOSEL
1070
     0
1002
}
1002
{
1000
BEHIND
1070
     0
1002
}
1002
{
1000
REACTOR
1002
}
1001
GENIUS_GENOBJ-N-REC_13
1002
{
1000
OWNER
1000
GEN
1002
}
1001
GENIUS_GENREC_13
1070
     4
1070
     2
1070
     4
1001
GENIUS_GENOREF_13
1005
C43
  0
VERTEX
  5
106
  8
MSL_F20_50-0
 10
490.92619804019921
 20
56.87939258397477
 30
0.0
  0
VERTEX
  5
107
  8
MSL_F20_50-0
 10
543.84122426149088
 20
56.87939258397477
 30
0.0
  0
SEQEND
  5
108
  8
MSL_F20_50-0
  0
POLYLINE
  5
109
  8
MSL_F20_50-0
 66
     1
 10
0.0
 20
0.0
 30
0.0
1001
GENIUS_GENODEF_13
1002
{
1000
HIER
1070
     0
1002
}
1002
{
1000
MANEDIT
1070
     0
1002
}
1002
{
1000
NOSEL
1070
     0
1002
}
1002
{
1000
BEHIND
1070
     0
1002
}
1002
{
1000
REACTOR
1002
}
1001
GENIUS_GENOBJ-N-REC_13
1002
{
1000
OWNER
1000
GEN
1002
}
1001
GENIUS_GENREC_13
1070
     4
1070
     2
1070
     4
1001
GENIUS_GENOREF_13
1005
C43
  0
VERTEX
  5
10A
  8
MSL_F20_50-0
 10
487.38371115084499
 20
113.3369056946206
 30
0.0
  0
VERTEX
  5
10B
  8
MSL_F20_50-0
 10
487.3837111508451
 20
60.421879473328829
 30
0.0
  0
SEQEND
  5
10C
  8
MSL_F20_50-0
  0
ARC
  5
10D
  8
MSL_F20_50-0
 10
517.3837111508451
 20
86.879392583974763
 30
0.0
 40
40.0
 50
131.4096221092708
 51
138.5903778907292
1001
GENIUS_GENOREF_13
1005
C43
  0
ARC
  5
10E
  8
MSL_F20_50-0
 10
517.3837111508451
 20
86.879392583974763
 30
0.0
 40
40.0
 50
221.40962210927091
 51
228.59037789072909
1001
GENIUS_GENOREF_13
1005
C43
  0
ARC
  5
10F
  8
MSL_F20_50-0
 10
517.3837111508451
 20
86.879392583974763
 30
0.0
 40
40.0
 50
311.4096221092708
 51
318.59037789072909
1001
GENIUS_GENOREF_13
1005
C43
  0
CIRCLE
  5
113
  8
MSL_F20_50-0
 10
517.3837111508451
 20
86.879392583974536
 30
0.0
 40
20.00000000000022
  0
CIRCLE
  5
118
  8
MSL_F20_50-3
 10
517.3837111508451
 20
86.879392583974536
 30
0.0
 40
25.000000000000231
  0
LINE
  5
11B
  8
MSL_F20_50-7
 10
517.3837111508451
 20
86.879392583974763
 30
0.0
 11
550.3837111508451
 21
86.879392583974763
 31
0.0
1001
GENIUS_GENOREF_13
1005
123
  0
LINE
  5
11C
  8
MSL_F20_50-7
 10
517.3837111508451
 20
86.879392583974763
 30
0.0
 11
517.3837111508451
 21
119.87939258397471
 31
0.0
1001
GENIUS_GENOREF_13
1005
123
  0
LINE
  5
11D
  8
MSL_F20_50-7
 10
517.3837111508451
 20
86.879392583974763
 30
0.0
 11
484.3837111508451
 21
86.879392583974763
 31
0.0
1001
GENIUS_GENOREF_13
1005
123
  0
LINE
  5
11E
  8
MSL_F20_50-7
 10
517.3837111508451
 20
86.879392583974763
 30
0.0
 11
517.3837111508451
 21
53.87939258397477
 31
0.0
1001
GENIUS_GENOREF_13
1005
123
  0
POINT
  5
123
  8
0
 10
0.0
 20
0.0
 30
0.0
1001
GENIUS_GENODEF_13
1002
{
1000
HIER
1070
    10
1002
}
1002
{
1000
MANEDIT
1070
     0
1002
}
1002
{
1000
NOSEL
1070
     0
1002
}
1002
{
1000
BEHIND
1070
     0
1002
}
1002
{
1000
REACTOR
1002
}
1001
GENIUS_GENOBJ-N-CRS_13
1002
{
1000
OWNER
1000
GEN
1002
}
1001
GENIUS_GENOENT_13
1002
{
1000
MYREF
1005
123
1002
}
1002
{
1000
GRP
1005
0
1002
}
1001
GENIUS_GENOLIS_13
1002
{
1000
ENT
1005
11E
1005
11D
1005
11C
1005
11B
1002
}
  0
LINE
  5
13D
  8
MSL_F20_50-3
 10
234.08288488559259
 20
73.879392583974763
 30
0.0
 11
234.08288488559259
 21
99.879392583974777
 31
0.0
  0
LINE
  5
140
  8
MSL_F20_50-3
 10
234.08288488559259
 20
73.879392583974763
 30
0.0
 11
214.58288488559131
 21
73.879392583971267
 31
0.0
  0
LINE
  5
141
  8
MSL_F20_50-3
 10
234.08288488559259
 20
99.879392583974777
 30
0.0
 11
214.58288488559131
 21
99.879392583978301
 31
0.0
  0
LINE
  5
14C
  8
MSL_F20_50-3
 10
219.08288488559259
 20
73.879392583972077
 30
0.0
 11
219.08288488558901
 21
76.879392583974763
 31
0.0
  0
LINE
  5
14D
  8
MSL_F20_50-3
 10
219.08288488559259
 20
99.879392583977477
 30
0.0
 11
219.08288488558901
 21
96.879392583974763
 31
0.0
  0
POLYLINE
  5
152
  8
MSL_F20_50-5
 66
     1
 10
0.0
 20
0.0
 30
0.0
 41
0.8367130454073091
1001
GENIUS_GENHINW_13
1000
UCSORG
1010
0.0
1020
0.0
1030
0.0
1000
UCSXDIR
1010
1.0
1020
0.0
1030
0.0
1000
UCSYDIR
1010
0.0
1020
1.0
1030
0.0
1000
HEADTYPE
1070
     8
1000
ENDTYPE
1070
   100
1000
PSTA
1011
214.5828848855908
1021
0.0
1031
0.0
1021
96.879392583974763
1031
0.0
1000
PVERTEX
1011
219.08288488559259
1021
0.0
1031
0.0
1021
99.879392583977477
1031
0.0
1000
TEXTVERHOR
1070
     0
1000
TYPE
1070
     2
1000
GENZICIR
1040
1.5
1000
OBJ_USEPSTA
1070
     0
1000
ENDLAYER
1000
POSL
1000
TEXTLAYER
1000
POSN
1001
GENIUS_GENOREF_13
1005
15A
  0
VERTEX
  5
153
  8
MSL_F20_50-5
 10
214.5828848855908
 20
96.879392583974763
 30
0.0
  0
VERTEX
  5
154
  8
MSL_F20_50-5
 10
216.66301062143509
 20
98.26614307453832
 30
0.0
 41
0.0
  0
VERTEX
  5
155
  8
MSL_F20_50-5
 10
219.08288488559259
 20
99.879392583977477
 30
0.0
 41
0.0
  0
SEQEND
  5
156
  8
MSL_F20_50-5
  0
POINT
  5
15A
  8
0
 62
     7
 10
0.0
 20
0.0
 30
0.0
1001
GENIUS_GENODEF_13
1002
{
1000
HIER
1070
   100
1002
}
1002
{
1000
MANEDIT
1070
     0
1002
}
1002
{
1000
NOSEL
1070
     0
1002
}
1002
{
1000
BEHIND
1070
     0
1002
}
1002
{
1000
REACTOR
1002
}
1001
GENIUS_GENOBJ-N-LEADER_13
1002
{
1000
OWNER
1000
GEN
1002
}
1001
GENIUS_GENOENT_13
1002
{
1000
MYREF
1005
15A
1002
}
1002
{
1000
GRP
1005
0
1002
}
1001
GENIUS_GENOLIS_13
1002
{
1000
ENT
1005
152
1002
}
  0
POLYLINE
  5
15D
  8
MSL_F20_50-5
 66
     1
 10
0.0
 20
0.0
 30
0.0
 41
0.8367130454073091
1001
GENIUS_GENHINW_13
1000
UCSORG
1010
0.0
1020
0.0
1030
0.0
1000
UCSXDIR
1010
1.0
1020
0.0
1030
0.0
1000
UCSYDIR
1010
0.0
1020
1.0
1030
0.0
1000
HEADTYPE
1070
     8
1000
ENDTYPE
1070
   100
1000
PSTA
1011
214.58288488560589
1021
0.0
1031
0.0
1021
76.879392583974791
1031
0.0
1000
PVERTEX
1011
219.08288488561229
1021
0.0
1031
0.0
1021
73.879392583978913
1031
0.0
1000
TEXTVERHOR
1070
     0
1000
TYPE
1070
     2
1000
GENZICIR
1040
1.5
1000
OBJ_USEPSTA
1070
     0
1000
ENDLAYER
1000
POSL
1000
TEXTLAYER
1000
POSN
1001
GENIUS_GENOREF_13
1005
162
  0
VERTEX
  5
15E
  8
MSL_F20_50-5
 10
214.58288488560589
 20
76.879392583974791
 30
0.0
  0
VERTEX
  5
15F
  8
MSL_F20_50-5
 10
216.66301062145229
 20
75.492642093414403
 30
0.0
 41
0.0
  0
VERTEX
  5
160
  8
MSL_F20_50-5
 10
219.08288488561229
 20
73.879392583978913
 30
0.0
 41
0.0
  0
SEQEND
  5
161
  8
MSL_F20_50-5
  0
POINT
  5
162
  8
0
 62
     7
 10
0.0
 20
0.0
 30
0.0
1001
GENIUS_GENODEF_13
1002
{
1000
HIER
1070
   100
1002
}
1002
{
1000
MANEDIT
1070
     0
1002
}
1002
{
1000
NOSEL
1070
     0
1002
}
1002
{
1000
BEHIND
1070
     0
1002
}
1002
{
1000
REACTOR
1002
}
1001
GENIUS_GENOBJ-N-LEADER_13
1002
{
1000
OWNER
1000
GEN
1002
}
1001
GENIUS_GENOENT_13
1002
{
1000
MYREF
1005
162
1002
}
1002
{
1000
GRP
1005
0
1002
}
1001
GENIUS_GENOLIS_13
1002
{
1000
ENT
1005
15D
1002
}
  0
LINE
  5
164
  8
MSL_F20_50-7
 10
211.58288488558901
 20
-32.125851304408201
 30
0.0
 11
299.58288488559282
 21
-32.125851304408201
 31
0.0
1001
GENIUS_GENODEF_13
1002
{
1000
HIER
1070
     0
1002
}
1002
{
1000
MANEDIT
1070
     0
1002
}
1002
{
1000
NOSEL
1070
     0
1002
}
1002
{
1000
BEHIND
1070
     0
1002
}
1002
{
1000
REACTOR
1002
}
1001
GENIUS_GENOBJ-N-CEN_13
1002
{
1000
OWNER
1000
GEN
1002
}
1001
GENIUS_GENOREF_13
1005
2B1
  0
LINE
  5
165
  8
MSL_F20_50-3
 10
296.5828848855927
 20
-12.125851304408201
 30
0.0
 11
267.0828848855927
 21
-12.125851304408201
 31
0.0
  0
LINE
  5
166
  8
MSL_F20_50-3
 10
296.5828848855927
 20
-52.125851304408201
 30
0.0
 11
267.0828848855927
 21
-52.125851304408201
 31
0.0
  0
LINE
  5
167
  8
MSL_F20_50-0
 10
273.58288488559629
 20
-7.125851304408199
 30
0.0
 11
242.58288488559259
 21
-7.1258513044081999
 31
0.0
  0
LINE
  5
168
  8
MSL_F20_50-0
 10
273.58288488559629
 20
-57.125851304408201
 30
0.0
 11
242.58288488559279
 21
-57.125851304408201
 31
0.0
  0
POLYLINE
  5
169
  8
MSL_F20_50-5
 66
     1
 10
0.0
 20
0.0
 30
0.0
 41
0.8367130454073091
1001
GENIUS_GENHINW_13
1000
UCSORG
1010
0.0
1020
0.0
1030
0.0
1000
UCSXDIR
1010
1.0
1020
0.0
1030
0.0
1000
UCSYDIR
1010
0.0
1020
1.0
1030
0.0
1000
HEADTYPE
1070
     8
1000
ENDTYPE
1070
   100
1000
PSTA
1011
214.5828848855908
1021
0.0
1031
0.0
1021
-22.125851304408201
1031
0.0
1000
PVERTEX
1011
219.0828848855927
1021
0.0
1031
0.0
1021
-19.125851304405501
1031
0.0
1000
TEXTVERHOR
1070
     0
1000
TYPE
1070
     2
1000
GENZICIR
1040
1.5
1000
OBJ_USEPSTA
1070
     0
1000
ENDLAYER
1000
POSL
1000
TEXTLAYER
1000
POSN
1001
GENIUS_GENOREF_13
1005
18C
  0
VERTEX
  5
16A
  8
MSL_F20_50-5
 10
214.5828848855908
 20
-22.125851304408201
 30
0.0
  0
VERTEX
  5
16B
  8
MSL_F20_50-5
 10
216.66301062143509
 20
-20.739100813844651
 30
0.0
 41
0.0
  0
VERTEX
  5
16C
  8
MSL_F20_50-5
 10
219.0828848855927
 20
-19.125851304405501
 30
0.0
 41
0.0
  0
SEQEND
  5
16D
  8
MSL_F20_50-5
  0
LINE
  5
16E
  8
MSL_F20_50-3
 10
219.0828848855927
 20
-19.125851304405501
 30
0.0
 11
219.08288488558901
 21
-22.125851304408201
 31
0.0
  0
LINE
  5
16F
  8
MSL_F20_50-3
 10
267.0828848855927
 20
-12.125851304408201
 30
0.0
 11
267.0828848855927
 21
-52.125851304408201
 31
0.0
  0
LINE
  5
170
  8
MSL_F20_50-3
 10
234.0828848855927
 20
-45.125851304408201
 30
0.0
 11
234.0828848855927
 21
-19.125851304408201
 31
0.0
  0
LINE
  5
171
  8
MSL_F20_50-0
 10
216.5828848855931
 20
-52.125851304408201
 30
0.0
 11
216.5828848855927
 21
-12.125851304408201
 31
0.0
  0
LINE
  5
172
  8
MSL_F20_50-0
 10
214.58288488559231
 20
-14.125851304408201
 30
0.0
 11
214.58288488558901
 21
-32.125851304408201
 31
0.0
  0
LINE
  5
173
  8
MSL_F20_50-0
 10
242.58288488559259
 20
-2.1258513044081999
 30
0.0
 11
242.5828848855927
 21
-19.76664421009998
 31
0.0
  0
LINE
  5
174
  8
MSL_F20_50-0
 10
226.5828848855927
 20
-62.125851304408201
 30
0.0
 11
226.5828848855927
 21
-2.1258513044081999
 31
0.0
  0
LINE
  5
175
  8
MSL_F20_50-3
 10
267.0828848855927
 20
-21.125851304408201
 30
0.0
 11
261.28092391277841
 21
-21.125851304408201
 31
0.0
  0
LINE
  5
176
  8
MSL_F20_50-3
 10
267.0828848855927
 20
-43.125851304408201
 30
0.0
 11
261.28092391277841
 21
-43.125851304408201
 31
0.0
  0
POLYLINE
  5
177
  8
MSL_F20_50-5
 66
     1
 10
0.0
 20
0.0
 30
0.0
 41
0.8367130454073091
1001
GENIUS_GENHINW_13
1000
UCSORG
1010
0.0
1020
0.0
1030
0.0
1000
UCSXDIR
1010
1.0
1020
0.0
1030
0.0
1000
UCSYDIR
1010
0.0
1020
1.0
1030
0.0
1000
HEADTYPE
1070
     8
1000
ENDTYPE
1070
   100
1000
PSTA
1011
214.58288488560589
1021
0.0
1031
0.0
1021
-42.125851304408179
1031
0.0
1000
PVERTEX
1011
219.0828848856124
1021
0.0
1031
0.0
1021
-45.125851304404058
1031
0.0
1000
TEXTVERHOR
1070
     0
1000
TYPE
1070
     2
1000
GENZICIR
1040
1.5
1000
OBJ_USEPSTA
1070
     0
1000
ENDLAYER
1000
POSL
1000
TEXTLAYER
1000
POSN
1001
GENIUS_GENOREF_13
1005
18B
  0
VERTEX
  5
178
  8
MSL_F20_50-5
 10
214.58288488560589
 20
-42.125851304408179
 30
0.0
  0
VERTEX
  5
179
  8
MSL_F20_50-5
 10
216.66301062145229
 20
-43.512601794968568
 30
0.0
 41
0.0
  0
VERTEX
  5
17A
  8
MSL_F20_50-5
 10
219.0828848856124
 20
-45.125851304404058
 30
0.0
 41
0.0
  0
SEQEND
  5
17B
  8
MSL_F20_50-5
  0
LINE
  5
17C
  8
MSL_F20_50-3
 10
219.0828848855927
 20
-45.125851304410901
 30
0.0
 11
219.08288488558901
 21
-42.125851304408201
 31
0.0
  0
LINE
  5
17D
  8
MSL_F20_50-0
 10
214.58288488559231
 20
-50.125851304408201
 30
0.0
 11
214.5828848855891
 21
-32.125851304408201
 31
0.0
  0
LINE
  5
17E
  8
MSL_F20_50-3
 10
234.0828848855927
 20
-45.125851304408201
 30
0.0
 11
214.58288488559131
 21
-45.125851304411711
 31
0.0
  0
LINE
  5
17F
  8
MSL_F20_50-0
 10
242.58288488559279
 20
-62.125851304408201
 30
0.0
 11
226.5828848855927
 21
-62.125851304408201
 31
0.0
  0
LINE
  5
180
  8
MSL_F20_50-0
 10
226.5828848855927
 20
-52.125851304408201
 30
0.0
 11
216.5828848855931
 21
-52.125851304408201
 31
0.0
  0
LINE
  5
181
  8
MSL_F20_50-0
 10
214.58288488559231
 20
-50.125851304408201
 30
0.0
 11
216.5828848855931
 21
-52.125851304408201
 31
0.0
1001
GENIUS_GENODEF_13
1002
{
1000
HIER
1070
     0
1002
}
1002
{
1000
MANEDIT
1070
     0
1002
}
1002
{
1000
NOSEL
1070
     0
1002
}
1002
{
1000
BEHIND
1070
     0
1002
}
1002
{
1000
REACTOR
1002
}
1001
GENIUS_GENOBJ-N-CHA_13
1002
{
1000
OWNER
1000
GEN
1002
}
1001
GENIUS_GENFIL_13
1070
     1
1040
12.5
1040
12.5
1040
2.0
1040
0.7853981633974483
1002
{
1002
}
  0
LINE
  5
182
  8
MSL_F20_50-3
 10
234.0828848855927
 20
-19.125851304408201
 30
0.0
 11
214.58288488559131
 21
-19.125851304404691
 31
0.0
  0
LINE
  5
183
  8
MSL_F20_50-0
 10
242.58288488559259
 20
-2.1258513044081999
 30
0.0
 11
226.5828848855927
 21
-2.1258513044081999
 31
0.0
  0
LINE
  5
184
  8
MSL_F20_50-0
 10
226.5828848855927
 20
-12.125851304408201
 30
0.0
 11
216.58288488559299
 21
-12.125851304408201
 31
0.0
  0
LINE
  5
185
  8
MSL_F20_50-0
 10
214.58288488559231
 20
-14.125851304408201
 30
0.0
 11
216.58288488559299
 21
-12.125851304408201
 31
0.0
1001
GENIUS_GENODEF_13
1002
{
1000
HIER
1070
     0
1002
}
1002
{
1000
MANEDIT
1070
     0
1002
}
1002
{
1000
NOSEL
1070
     0
1002
}
1002
{
1000
BEHIND
1070
     0
1002
}
1002
{
1000
REACTOR
1002
}
1001
GENIUS_GENOBJ-N-CHA_13
1002
{
1000
OWNER
1000
GEN
1002
}
1001
GENIUS_GENFIL_13
1070
     1
1040
12.5
1040
12.5
1040
2.0
1040
0.7853981633974483
1002
{
1002
}
  0
LINE
  5
186
  8
MSL_F20_50-0
 10
281.5828848855927
 20
-2.1258513044081999
 30
0.0
 11
281.5828848855927
 21
-62.125851304408201
 31
0.0
  0
LINE
  5
187
  8
MSL_F20_50-0
 10
296.5828848855927
 20
-32.125851304408201
 30
0.0
 11
296.5828848855927
 21
-2.1258513044081999
 31
0.0
  0
LINE
  5
188
  8
MSL_F20_50-0
 10
296.58288488559282
 20
-32.125851304408201
 30
0.0
 11
296.58288488559282
 21
-62.125851304408201
 31
0.0
  0
LINE
  5
189
  8
MSL_F20_50-0
 10
296.58288488559282
 20
-62.125851304408201
 30
0.0
 11
281.5828848855927
 21
-62.125851304408201
 31
0.0
  0
LINE
  5
18A
  8
MSL_F20_50-0
 10
296.5828848855927
 20
-2.1258513044081999
 30
0.0
 11
281.5828848855927
 21
-2.1258513044081999
 31
0.0
  0
POINT
  5
18B
  8
0
 62
     7
 10
0.0
 20
0.0
 30
0.0
1001
GENIUS_GENODEF_13
1002
{
1000
HIER
1070
   100
1002
}
1002
{
1000
MANEDIT
1070
     0
1002
}
1002
{
1000
NOSEL
1070
     0
1002
}
1002
{
1000
BEHIND
1070
     0
1002
}
1002
{
1000
REACTOR
1002
}
1001
GENIUS_GENOBJ-N-LEADER_13
1002
{
1000
OWNER
1000
GEN
1002
}
1001
GENIUS_GENOENT_13
1002
{
1000
MYREF
1005
18B
1002
}
1002
{
1000
GRP
1005
0
1002
}
1001
GENIUS_GENOLIS_13
1002
{
1000
ENT
1005
177
1002
}
  0
POINT
  5
18C
  8
0
 62
     7
 10
0.0
 20
0.0
 30
0.0
1001
GENIUS_GENODEF_13
1002
{
1000
HIER
1070
   100
1002
}
1002
{
1000
MANEDIT
1070
     0
1002
}
1002
{
1000
NOSEL
1070
     0
1002
}
1002
{
1000
BEHIND
1070
     0
1002
}
1002
{
1000
REACTOR
1002
}
1001
GENIUS_GENOBJ-N-LEADER_13
1002
{
1000
OWNER
1000
GEN
1002
}
1001
GENIUS_GENOENT_13
1002
{
1000
MYREF
1005
18C
1002
}
1002
{
1000
GRP
1005
0
1002
}
1001
GENIUS_GENOLIS_13
1002
{
1000
ENT
1005
169
1002
}
  0
INSERT
  5
1E4
  8
MSL_F20_50-0
  2
*U3
 10
226.5828848855962
 20
-8.8758513044082008
 30
0.0
 50
0.0000000000001018
1001
GENIUS_GEFPARTINS_13
1002
{
1011
226.5828848855962
1021
0.0
1031
0.0
1021
-8.8758513044082008
1031
0.0
1013
1.0
1023
0.0
1033
0.0
1023
0.0000000000000018
1033
0.0
1002
}
1001
VCC
1002
{
1000
-ID1
1000
-IE1
1000
-IK1
1000
-V$PV_GENSYSTEM"GEF\VAL\DI\0401\DI1616_V.DXF"
1002
}
1001
GEVIT
1002
{
1000
-BEHI1.00000001
1000
-BVCCT0
1000
-T2
1000
-GRP0MSL_F20_50-0
1000
-BAML2
1000
-BASK1
1000
-NT0
1000
-DOC
1005
1CA
1000
-MYREF
1005
1E4
1002
}
1001
GEVPT
1002
{
1000
-V$PV_GENSYSTEM"GEF\VAL\DI\0401\DI1616_V.DXF"
1000
-FIXPLOTI=1.599999999999642E+01
1000
-GPGEVBHOP=2
1000
-GPGEF_PROCALC=1
1000
-GPGEF_FLIPY=1
1000
-GPGEF_FLIPX=1
1000
-GPGEF_SNK_ADD=0
1000
-GPGEVPROMPTX=Länge:
1000
-GPGEF_OANG=70
1000
-GPGEF_STANG=210
1000
-GPGEF_DRAG=1
1000
-GPGEF_CDIST=3
1000
-GPVCC_TABLE=C:\GENIUS\gef\val\di\0401\di1616.val
1000
-GPNND=8
1000
-GPPRE=M
1002
}
1001
GEVID884349218
1002
{
1002
}
1001
GENIUS_GENOREF_13
1005
1E9
  0
POINT
  5
1E9
  8
0
 10
0.0
 20
0.0
 30
0.0
1001
GENIUS_GENODEF_13
1002
{
1000
HIER
1070
   200
1002
}
1002
{
1000
MANEDIT
1070
     0
1002
}
1002
{
1000
NOSEL
1070
     0
1002
}
1002
{
1000
BEHIND
1070
     0
1002
}
1002
{
1000
REACTOR
1002
}
1001
GENIUS_GENOBJ-F-PART_13
1002
{
1000
OWNER
1000
GEF
1002
}
1001
GENIUS_GEFSTDP_13
1002
{
1000
DSC
1000
DSC
1002
{
1000
~DESCR
1000
 
1000
~STDRT
1000
(gefmsg "gefcall" 409)
1000
~LOTI
1002
}
1002
}
1002
{
1000
SUG
1000
M
1040
8.0
1002
}
1002
{
1000
KEY
1000
THRF
1002
}
1002
{
1000
INS
1002
{
1040
226.5828848855962
1040
-8.8758513044082008
1040
0.0
1002
}
1002
}
1002
{
1000
ANG
1040
0.0000000000000018
1002
}
1002
{
1000
VCC
1002
{
1000
-LPLOTI=1.599999999999642E+01
1000
$PRE=M
1000
$NND=8.000000000000000E+00
1000
-GRPNAME0MSL_F20_50-0
1000
-RBDESCR
1000
-RBSTDRT
1000
-RBLOTI
1000
-RBGD1
1000
-V$PV_GENSYSTEM"gef\val\di\0401\di1616_v.dxf"
1000
$VCC_TABLE=$PV_GENSYSTEM"gef\val\di\0401\di1616.val"
1000
$GEF_CDIST=3.000000000000000E+00
1000
$GEF_DRAG=1
1000
$GEF_STANG=2.100000000000000E+02
1000
$GEF_OANG=7.000000000000000E+01
1000
$GEVPROMPTX= Länge: 
1000
$GEF_SNK_ADD=0.000000000000000E+00
1000
$GEF_FLIPX=1
1000
$GEF_FLIPY=1
1000
-GRPNAME1?
1000
-BAML2
1000
$GEF_PROCALC=1
1000
$GEVBHOP=2
1002
}
1002
}
1002
{
1000
LST
1002
{
1002
{
1000
GROUP
1000
0401
1002
}
1002
{
1000
VIEW
1000
V
1002
}
1002
{
1000
SFILE
1000
$PV_GENSYSTEM"gef\val\di\0401\di1616_v.dxf"
1002
}
1002
{
1000
ST1
1000
$PV_GENSYSTEM"gef\val\di\0401\di1616.val"
1002
}
1002
{
1000
GENASSO
1000
 
1002
}
1002
}
1002
}
1002
{
1000
RET
1002
{
1002
{
1000
GD1
1000
6.647
1002
}
1002
{
1000
LOTI
1000
1.599999999999642E+01
1002
}
1002
{
1000
STDRT
1000
DIN 13 - M8
1002
}
1002
{
1000
DESCR
1000
Metrisches ISO-Gewinde
1002
}
1002
}
1002
}
1002
{
1000
SYSTEM
1040
1.0
1002
}
1002
{
1000
INFEL
1002
{
1002
}
1002
}
1001
GENIUS_GENOENT_13
1002
{
1000
MYREF
1005
1E9
1002
}
1002
{
1000
GRP
1005
0
1002
}
1001
GENIUS_GENOLIS_13
1002
{
1000
ENT
1005
1E4
1002
}
  0
INSERT
  5
201
  8
MSL_F20_50-0
  2
*U5
 10
226.5828848855962
 20
-55.375851304408201
 30
0.0
1001
GENIUS_GEFPARTINS_13
1002
{
1011
226.5828848855962
1021
0.0
1031
0.0
1021
-55.375851304408201
1031
0.0
1013
1.0
1023
0.0
1033
0.0
1023
0.0
1033
0.0
1002
}
1001
VCC
1002
{
1000
-ID2
1000
-IE2
1000
-IK2
1000
-V$PV_GENSYSTEM"GEF\VAL\DI\0401\DI1616_V.DXF"
1002
}
1001
GEVIT
1002
{
1000
-BEHI2.00000001
1000
-BVCCT0
1000
-T2
1000
-GRP0MSL_F20_50-0
1000
-BAML2
1000
-BASK1
1000
-NT0
1000
-DOC
1005
1EF
1000
-MYREF
1005
201
1002
}
1001
GEVPT
1002
{
1000
-V$PV_GENSYSTEM"GEF\VAL\DI\0401\DI1616_V.DXF"
1000
-FIXPLOTI=1.599999999999636E+01
1000
-GPGEVBHOP=2
1000
-GPGEF_PROCALC=1
1000
-GPGEF_FLIPY=1
1000
-GPGEF_FLIPX=1
1000
-GPGEF_SNK_ADD=0
1000
-GPGEVPROMPTX=Länge:
1000
-GPGEF_OANG=70
1000
-GPGEF_STANG=210
1000
-GPGEF_DRAG=1
1000
-GPGEF_CDIST=3
1000
-GPVCC_TABLE=C:\GENIUS\gef\val\di\0401\di1616.val
1000
-GPNND=8
1000
-GPPRE=M
1002
}
1001
GEVID884349219
1002
{
1002
}
1001
GENIUS_GENOREF_13
1005
202
  0
POINT
  5
202
  8
0
 10
0.0
 20
0.0
 30
0.0
1001
GENIUS_GENODEF_13
1002
{
1000
HIER
1070
   200
1002
}
1002
{
1000
MANEDIT
1070
     0
1002
}
1002
{
1000
NOSEL
1070
     0
1002
}
1002
{
1000
BEHIND
1070
     0
1002
}
1002
{
1000
REACTOR
1002
}
1001
GENIUS_GENOBJ-F-PART_13
1002
{
1000
OWNER
1000
GEF
1002
}
1001
GENIUS_GEFSTDP_13
1002
{
1000
SUG
1000
M
1040
8.0
1002
}
1002
{
1000
DSC
1000
DSC
1002
{
1000
~DESCR
1000
 
1000
~STDRT
1000
(gefmsg "gefcall" 409)
1000
~LOTI
1002
}
1002
}
1002
{
1000
KEY
1000
THRF
1002
}
1002
{
1000
INS
1002
{
1040
226.5828848855962
1040
-55.375851304408201
1040
0.0
1002
}
1002
}
1002
{
1000
ANG
1040
0.0
1002
}
1002
{
1000
VCC
1002
{
1000
-LPLOTI=1.599999999999636E+01
1000
$PRE=M
1000
$NND=8.000000000000000E+00
1000
-GRPNAME0MSL_F20_50-0
1000
-RBDESCR
1000
-RBSTDRT
1000
-RBLOTI
1000
-RBGD1
1000
-V$PV_GENSYSTEM"gef\val\di\0401\di1616_v.dxf"
1000
$VCC_TABLE=$PV_GENSYSTEM"gef\val\di\0401\di1616.val"
1000
$GEF_CDIST=3.000000000000000E+00
1000
$GEF_DRAG=1
1000
$GEF_STANG=2.100000000000000E+02
1000
$GEF_OANG=7.000000000000000E+01
1000
$GEVPROMPTX= Länge: 
1000
$GEF_SNK_ADD=0.000000000000000E+00
1000
$GEF_FLIPX=1
1000
$GEF_FLIPY=1
1000
-GRPNAME1?
1000
-BAML2
1000
$GEF_PROCALC=1
1000
$GEVBHOP=2
1002
}
1002
}
1002
{
1000
LST
1002
{
1002
{
1000
GROUP
1000
0401
1002
}
1002
{
1000
VIEW
1000
V
1002
}
1002
{
1000
SFILE
1000
$PV_GENSYSTEM"gef\val\di\0401\di1616_v.dxf"
1002
}
1002
{
1000
ST1
1000
$PV_GENSYSTEM"gef\val\di\0401\di1616.val"
1002
}
1002
{
1000
GENASSO
1000
 
1002
}
1002
}
1002
}
1002
{
1000
RET
1002
{
1002
{
1000
GD1
1000
6.647
1002
}
1002
{
1000
LOTI
1000
1.599999999999636E+01
1002
}
1002
{
1000
STDRT
1000
DIN 13 - M8
1002
}
1002
{
1000
DESCR
1000
Metrisches ISO-Gewinde
1002
}
1002
}
1002
}
1002
{
1000
SYSTEM
1040
1.0
1002
}
1002
{
1000
INFEL
1002
{
1002
}
1002
}
1001
GENIUS_GENOENT_13
1002
{
1000
MYREF
1005
202
1002
}
1002
{
1000
GRP
1005
0
1002
}
1001
GENIUS_GENOLIS_13
1002
{
1000
ENT
1005
201
1002
}
  0
INSERT
  5
21C
  8
MSL_F20_50-0
  2
*U7
 10
226.5828848855962
 20
110.12939258397471
 30
0.0
 50
0.0000000000001018
1001
GENIUS_GEFPARTINS_13
1002
{
1011
226.5828848855962
1021
0.0
1031
0.0
1021
110.12939258397471
1031
0.0
1013
1.0
1023
0.0
1033
0.0
1023
0.0000000000000018
1033
0.0
1002
}
1001
VCC
1002
{
1000
-ID3
1000
-IE3
1000
-IK3
1000
-V$PV_GENSYSTEM"GEF\VAL\DI\0401\DI1616_V.DXF"
1002
}
1001
GEVIT
1002
{
1000
-BEHI3.00000001
1000
-BVCCT0
1000
-T2
1000
-GRP0MSL_F20_50-0
1000
-BAML2
1000
-BASK1
1000
-NT0
1000
-DOC
1005
20A
1000
-MYREF
1005
21C
1002
}
1001
GEVPT
1002
{
1000
-V$PV_GENSYSTEM"GEF\VAL\DI\0401\DI1616_V.DXF"
1000
-FIXPLOTI=1.599999999999636E+01
1000
-GPGEVBHOP=2
1000
-GPGEF_PROCALC=1
1000
-GPGEF_FLIPY=1
1000
-GPGEF_FLIPX=1
1000
-GPGEF_SNK_ADD=0
1000
-GPGEVPROMPTX=Länge:
1000
-GPGEF_OANG=70
1000
-GPGEF_STANG=210
1000
-GPGEF_DRAG=1
1000
-GPGEF_CDIST=3
1000
-GPVCC_TABLE=C:\GENIUS\gef\val\di\0401\di1616.val
1000
-GPNND=8
1000
-GPPRE=M
1002
}
1001
GEVID884349220
1002
{
1002
}
1001
GENIUS_GENOREF_13
1005
21D
  0
POINT
  5
21D
  8
0
 10
0.0
 20
0.0
 30
0.0
1001
GENIUS_GENODEF_13
1002
{
1000
HIER
1070
   200
1002
}
1002
{
1000
MANEDIT
1070
     0
1002
}
1002
{
1000
NOSEL
1070
     0
1002
}
1002
{
1000
BEHIND
1070
     0
1002
}
1002
{
1000
REACTOR
1002
}
1001
GENIUS_GENOBJ-F-PART_13
1002
{
1000
OWNER
1000
GEF
1002
}
1001
GENIUS_GEFSTDP_13
1002
{
1000
SUG
1000
M
1040
8.0
1002
}
1002
{
1000
DSC
1000
DSC
1002
{
1000
~DESCR
1000
 
1000
~STDRT
1000
(gefmsg "gefcall" 409)
1000
~LOTI
1002
}
1002
}
1002
{
1000
KEY
1000
THRF
1002
}
1002
{
1000
INS
1002
{
1040
226.5828848855962
1040
110.12939258397471
1040
0.0
1002
}
1002
}
1002
{
1000
ANG
1040
0.0000000000000018
1002
}
1002
{
1000
VCC
1002
{
1000
-LPLOTI=1.599999999999636E+01
1000
$PRE=M
1000
$NND=8.000000000000000E+00
1000
-GRPNAME0MSL_F20_50-0
1000
-RBDESCR
1000
-RBSTDRT
1000
-RBLOTI
1000
-RBGD1
1000
-V$PV_GENSYSTEM"gef\val\di\0401\di1616_v.dxf"
1000
$VCC_TABLE=$PV_GENSYSTEM"gef\val\di\0401\di1616.val"
1000
$GEF_CDIST=3.000000000000000E+00
1000
$GEF_DRAG=1
1000
$GEF_STANG=2.100000000000000E+02
1000
$GEF_OANG=7.000000000000000E+01
1000
$GEVPROMPTX= Länge: 
1000
$GEF_SNK_ADD=0.000000000000000E+00
1000
$GEF_FLIPX=1
1000
$GEF_FLIPY=1
1000
-GRPNAME1?
1000
-BAML2
1000
$GEF_PROCALC=1
1000
$GEVBHOP=2
1002
}
1002
}
1002
{
1000
LST
1002
{
1002
{
1000
GROUP
1000
0401
1002
}
1002
{
1000
VIEW
1000
V
1002
}
1002
{
1000
SFILE
1000
$PV_GENSYSTEM"gef\val\di\0401\di1616_v.dxf"
1002
}
1002
{
1000
ST1
1000
$PV_GENSYSTEM"gef\val\di\0401\di1616.val"
1002
}
1002
{
1000
GENASSO
1000
 
1002
}
1002
}
1002
}
1002
{
1000
RET
1002
{
1002
{
1000
GD1
1000
6.647
1002
}
1002
{
1000
LOTI
1000
1.599999999999636E+01
1002
}
1002
{
1000
STDRT
1000
DIN 13 - M8
1002
}
1002
{
1000
DESCR
1000
Metrisches ISO-Gewinde
1002
}
1002
}
1002
}
1002
{
1000
SYSTEM
1040
1.0
1002
}
1002
{
1000
INFEL
1002
{
1002
}
1002
}
1001
GENIUS_GENOENT_13
1002
{
1000
MYREF
1005
21D
1002
}
1002
{
1000
GRP
1005
0
1002
}
1001
GENIUS_GENOLIS_13
1002
{
1000
ENT
1005
21C
1002
}
  0
INSERT
  5
234
  8
MSL_F20_50-0
  2
*U9
 10
226.5828848855962
 20
63.629392583974777
 30
0.0
 50
0.0000000000000763
1001
GENIUS_GEFPARTINS_13
1002
{
1011
226.5828848855962
1021
0.0
1031
0.0
1021
63.629392583974777
1031
0.0
1013
1.0
1023
0.0
1033
0.0
1023
0.0000000000000013
1033
0.0
1002
}
1001
VCC
1002
{
1000
-ID4
1000
-IE4
1000
-IK4
1000
-V$PV_GENSYSTEM"GEF\VAL\DI\0401\DI1616_V.DXF"
1002
}
1001
GEVIT
1002
{
1000
-BEHI4.00000001
1000
-BVCCT0
1000
-T2
1000
-GRP0MSL_F20_50-0
1000
-BAML2
1000
-BASK1
1000
-NT0
1000
-DOC
1005
222
1000
-MYREF
1005
234
1002
}
1001
GEVPT
1002
{
1000
-V$PV_GENSYSTEM"GEF\VAL\DI\0401\DI1616_V.DXF"
1000
-FIXPLOTI=1.599999999999648E+01
1000
-GPGEVBHOP=2
1000
-GPGEF_PROCALC=1
1000
-GPGEF_FLIPY=1
1000
-GPGEF_FLIPX=1
1000
-GPGEF_SNK_ADD=0
1000
-GPGEVPROMPTX=Länge:
1000
-GPGEF_OANG=70
1000
-GPGEF_STANG=210
1000
-GPGEF_DRAG=1
1000
-GPGEF_CDIST=3
1000
-GPVCC_TABLE=C:\GENIUS\gef\val\di\0401\di1616.val
1000
-GPNND=8
1000
-GPPRE=M
1002
}
1001
GEVID884349221
1002
{
1002
}
1001
GENIUS_GENOREF_13
1005
235
  0
POINT
  5
235
  8
0
 10
0.0
 20
0.0
 30
0.0
1001
GENIUS_GENODEF_13
1002
{
1000
HIER
1070
   200
1002
}
1002
{
1000
MANEDIT
1070
     0
1002
}
1002
{
1000
NOSEL
1070
     0
1002
}
1002
{
1000
BEHIND
1070
     0
1002
}
1002
{
1000
REACTOR
1002
}
1001
GENIUS_GENOBJ-F-PART_13
1002
{
1000
OWNER
1000
GEF
1002
}
1001
GENIUS_GEFSTDP_13
1002
{
1000
SUG
1000
M
1040
8.0
1002
}
1002
{
1000
DSC
1000
DSC
1002
{
1000
~DESCR
1000
 
1000
~STDRT
1000
(gefmsg "gefcall" 409)
1000
~LOTI
1002
}
1002
}
1002
{
1000
KEY
1000
THRF
1002
}
1002
{
1000
INS
1002
{
1040
226.5828848855962
1040
63.629392583974777
1040
0.0
1002
}
1002
}
1002
{
1000
ANG
1040
0.0000000000000013
1002
}
1002
{
1000
VCC
1002
{
1000
-LPLOTI=1.599999999999648E+01
1000
$PRE=M
1000
$NND=8.000000000000000E+00
1000
-GRPNAME0MSL_F20_50-0
1000
-RBDESCR
1000
-RBSTDRT
1000
-RBLOTI
1000
-RBGD1
1000
-V$PV_GENSYSTEM"gef\val\di\0401\di1616_v.dxf"
1000
$VCC_TABLE=$PV_GENSYSTEM"gef\val\di\0401\di1616.val"
1000
$GEF_CDIST=3.000000000000000E+00
1000
$GEF_DRAG=1
1000
$GEF_STANG=2.100000000000000E+02
1000
$GEF_OANG=7.000000000000000E+01
1000
$GEVPROMPTX= Länge: 
1000
$GEF_SNK_ADD=0.000000000000000E+00
1000
$GEF_FLIPX=1
1000
$GEF_FLIPY=1
1000
-GRPNAME1?
1000
-BAML2
1000
$GEF_PROCALC=1
1000
$GEVBHOP=2
1002
}
1002
}
1002
{
1000
LST
1002
{
1002
{
1000
GROUP
1000
0401
1002
}
1002
{
1000
VIEW
1000
V
1002
}
1002
{
1000
SFILE
1000
$PV_GENSYSTEM"gef\val\di\0401\di1616_v.dxf"
1002
}
1002
{
1000
ST1
1000
$PV_GENSYSTEM"gef\val\di\0401\di1616.val"
1002
}
1002
{
1000
GENASSO
1000
 
1002
}
1002
}
1002
}
1002
{
1000
RET
1002
{
1002
{
1000
GD1
1000
6.647
1002
}
1002
{
1000
LOTI
1000
1.599999999999648E+01
1002
}
1002
{
1000
STDRT
1000
DIN 13 - M8
1002
}
1002
{
1000
DESCR
1000
Metrisches ISO-Gewinde
1002
}
1002
}
1002
}
1002
{
1000
SYSTEM
1040
1.0
1002
}
1002
{
1000
INFEL
1002
{
1002
}
1002
}
1001
GENIUS_GENOENT_13
1002
{
1000
MYREF
1005
235
1002
}
1002
{
1000
GRP
1005
0
1002
}
1001
GENIUS_GENOLIS_13
1002
{
1000
ENT
1005
234
1002
}
  0
INSERT
  5
24E
  8
MSL_F20_50-0
  2
*U11
 10
494.1337111508451
 20
110.12939258397449
 30
0.0
1001
GENIUS_GEFPARTINS_13
1002
{
1011
494.1337111508451
1021
0.0
1031
0.0
1021
110.12939258397449
1031
0.0
1013
1.0
1023
0.0
1033
0.0
1023
0.0
1033
0.0
1002
}
1001
VCC
1002
{
1000
-ID5
1000
-IE5
1000
-IK5
1000
-V$PV_GENSYSTEM"GEF\VAL\DI\0401\DI1616_D.DXF"
1002
}
1001
GEVIT
1002
{
1000
-BEHI5.00000001
1000
-BVCCT0
1000
-GRP0?
1000
-BAML2
1000
-BASK1
1000
-NT0
1000
-DOC
1005
23F
1000
-MYREF
1005
24E
1002
}
1001
GEVPT
1002
{
1000
-V$PV_GENSYSTEM"GEF\VAL\DI\0401\DI1616_D.DXF"
1000
-GPGEF_PROCALC=1
1000
-GPGEF_FLIPY=1
1000
-GPGEF_FLIPX=1
1000
-GPGEF_SNK_ADD=0
1000
-GPGEVPROMPTX=Länge:
1000
-GPGEF_OANG=70
1000
-GPGEF_STANG=210
1000
-GPGEF_DRAG=1
1000
-GPGEF_CDIST=3
1000
-GPVCC_TABLE=C:\GENIUS\gef\val\di\0401\di1616.val
1000
-GPNND=8
1000
-GPPRE=M
1002
}
1001
GEVID884349222
1002
{
1002
}
1001
GENIUS_GENOREF_13
1005
251
1005
254
  0
POINT
  5
251
  8
0
 10
0.0
 20
0.0
 30
0.0
1001
GENIUS_GENBH_13
1002
{
1000
BGO
1005
253
1002
}
1002
{
1000
FGLEVEL
1040
5.0000000099999991
1002
}
1002
{
1000
FLAGS
1070
    36
1002
}
1002
{
1000
OIUMAP
1000
OIU
1002
}
1002
{
1000
MODIFY
1070
     0
1002
}
1001
GENIUS_GENODEF_13
1002
{
1000
HIER
1070
     1
1002
}
1002
{
1000
MANEDIT
1070
     0
1002
}
1002
{
1000
NOSEL
1070
     1
1002
}
1002
{
1000
BEHIND
1070
     0
1002
}
1002
{
1000
REACTOR
1002
}
1001
GENIUS_GENOBJ-NBEHI-BHF_13
1002
{
1000
OWNER
1000
GENBEHI
1002
}
1001
GENIUS_GENOENT_13
1002
{
1000
MYREF
1005
251
1002
}
1002
{
1000
GRP
1005
0
1002
}
1001
GENIUS_GENOLIS_13
1002
{
1000
ENT
1005
24E
1002
}
  0
POINT
  5
253
  8
0
 10
0.0
 20
0.0
 30
0.0
1001
GENIUS_GENBH_13
1002
{
1000
FGO
1005
251
1002
}
1001
GENIUS_GENODEF_13
1002
{
1000
HIER
1070
     1
1002
}
1002
{
1000
MANEDIT
1070
     0
1002
}
1002
{
1000
NOSEL
1070
     1
1002
}
1002
{
1000
BEHIND
1070
     0
1002
}
1002
{
1000
REACTOR
1002
}
1001
GENIUS_GENOBJ-NBEHI-BHB_13
1002
{
1000
OWNER
1000
GENBEHI
1002
}
1001
GENIUS_GENOENT_13
1002
{
1000
MYREF
1005
253
1002
}
1002
{
1000
GRP
1005
0
1002
}
1001
GENIUS_GENOLIS_13
1002
{
1000
ENT
1005
204
1005
239
1002
}
  0
POINT
  5
254
  8
0
 10
0.0
 20
0.0
 30
0.0
1001
GENIUS_GENODEF_13
1002
{
1000
HIER
1070
   200
1002
}
1002
{
1000
MANEDIT
1070
     0
1002
}
1002
{
1000
NOSEL
1070
     0
1002
}
1002
{
1000
BEHIND
1070
     0
1002
}
1002
{
1000
REACTOR
1002
}
1001
GENIUS_GENOBJ-F-PART_13
1002
{
1000
OWNER
1000
GEF
1002
}
1001
GENIUS_GEFSTDP_13
1002
{
1000
DSC
1000
DSC
1002
{
1000
~DESCR
1000
 
1000
~STDRT
1002
}
1002
}
1002
{
1000
SUG
1000
M
1040
8.0
1002
}
1002
{
1000
KEY
1000
THRT
1002
}
1002
{
1000
INS
1002
{
1040
364.81341342528322
1040
110.12939258397449
1040
0.0
1002
}
1002
}
1002
{
1000
ANG
1040
0.0
1002
}
1002
{
1000
VCC
1002
{
1000
$PRE=M
1000
$NND=8.000000000000000E+00
1000
-RBDESCR
1000
-RBSTDRT
1000
-RBGD1
1000
-RBLOTI
1000
-V$PV_GENSYSTEM"gef\val\di\0401\di1616_d.dxf"
1000
$VCC_TABLE=$PV_GENSYSTEM"gef\val\di\0401\di1616.val"
1000
$GEF_CDIST=3.000000000000000E+00
1000
$GEF_DRAG=1
1000
$GEF_STANG=2.100000000000000E+02
1000
$GEF_OANG=7.000000000000000E+01
1000
$GEVPROMPTX= Länge: 
1000
$GEF_SNK_ADD=0.000000000000000E+00
1000
$GEF_FLIPX=1
1000
$GEF_FLIPY=1
1000
-GRPNAME0?
1000
-GRPNAME1?
1000
-BAML2
1000
$GEF_PROCALC=1
1002
}
1002
}
1002
{
1000
LST
1002
{
1002
{
1000
GROUP
1000
0401
1002
}
1002
{
1000
VIEW
1000
D
1002
}
1002
{
1000
SFILE
1000
$PV_GENSYSTEM"gef\val\di\0401\di1616_d.dxf"
1002
}
1002
{
1000
ST1
1000
$PV_GENSYSTEM"gef\val\di\0401\di1616.val"
1002
}
1002
{
1000
GENASSO
1000
 
1002
}
1002
}
1002
}
1002
{
1000
RET
1002
{
1002
{
1000
LOTI
1002
}
1002
{
1000
GD1
1000
6.647
1002
}
1002
{
1000
STDRT
1000
DIN 13 - M8
1002
}
1002
{
1000
DESCR
1000
Metrisches ISO-Gewinde
1002
}
1002
}
1002
}
1002
{
1000
SYSTEM
1040
1.0
1002
}
1002
{
1000
INFEL
1002
{
1002
}
1002
}
1001
GENIUS_GENOENT_13
1002
{
1000
MYREF
1005
254
1002
}
1002
{
1000
GRP
1005
0
1002
}
1001
GENIUS_GENOLIS_13
1002
{
1000
ENT
1005
24E
1002
}
  0
INSERT
  5
266
  8
MSL_F20_50-0
  2
*U13
 10
540.6337111508451
 20
110.12939258397449
 30
0.0
1001
GENIUS_GEFPARTINS_13
1002
{
1011
540.6337111508451
1021
0.0
1031
0.0
1021
110.12939258397449
1031
0.0
1013
1.0
1023
0.0
1033
0.0
1023
0.0
1033
0.0
1002
}
1001
VCC
1002
{
1000
-ID6
1000
-IE6
1000
-IK6
1000
-V$PV_GENSYSTEM"GEF\VAL\DI\0401\DI1616_D.DXF"
1002
}
1001
GEVIT
1002
{
1000
-BEHI6.00000001
1000
-BVCCT0
1000
-GRP0?
1000
-BAML2
1000
-BASK1
1000
-NT0
1000
-DOC
1005
258
1000
-MYREF
1005
266
1002
}
1001
GEVPT
1002
{
1000
-V$PV_GENSYSTEM"GEF\VAL\DI\0401\DI1616_D.DXF"
1000
-GPGEF_PROCALC=1
1000
-GPGEF_FLIPY=1
1000
-GPGEF_FLIPX=1
1000
-GPGEF_SNK_ADD=0
1000
-GPGEVPROMPTX=Länge:
1000
-GPGEF_OANG=70
1000
-GPGEF_STANG=210
1000
-GPGEF_DRAG=1
1000
-GPGEF_CDIST=3
1000
-GPVCC_TABLE=C:\GENIUS\gef\val\di\0401\di1616.val
1000
-GPNND=8
1000
-GPPRE=M
1002
}
1001
GEVID884349223
1002
{
1002
}
1001
GENIUS_GENOREF_13
1005
267
1005
269
  0
POINT
  5
267
  8
0
 10
0.0
 20
0.0
 30
0.0
1001
GENIUS_GENBH_13
1002
{
1000
BGO
1005
268
1002
}
1002
{
1000
FGLEVEL
1040
6.0000000099999991
1002
}
1002
{
1000
FLAGS
1070
    36
1002
}
1002
{
1000
OIUMAP
1000
OIU
1002
}
1002
{
1000
MODIFY
1070
     0
1002
}
1001
GENIUS_GENODEF_13
1002
{
1000
HIER
1070
     1
1002
}
1002
{
1000
MANEDIT
1070
     0
1002
}
1002
{
1000
NOSEL
1070
     1
1002
}
1002
{
1000
BEHIND
1070
     0
1002
}
1002
{
1000
REACTOR
1002
}
1001
GENIUS_GENOBJ-NBEHI-BHF_13
1002
{
1000
OWNER
1000
GENBEHI
1002
}
1001
GENIUS_GENOENT_13
1002
{
1000
MYREF
1005
267
1002
}
1002
{
1000
GRP
1005
0
1002
}
1001
GENIUS_GENOLIS_13
1002
{
1000
ENT
1005
266
1002
}
  0
POINT
  5
268
  8
0
 10
0.0
 20
0.0
 30
0.0
1001
GENIUS_GENBH_13
1002
{
1000
FGO
1005
267
1002
}
1001
GENIUS_GENODEF_13
1002
{
1000
HIER
1070
     1
1002
}
1002
{
1000
MANEDIT
1070
     0
1002
}
1002
{
1000
NOSEL
1070
     1
1002
}
1002
{
1000
BEHIND
1070
     0
1002
}
1002
{
1000
REACTOR
1002
}
1001
GENIUS_GENOBJ-NBEHI-BHB_13
1002
{
1000
OWNER
1000
GENBEHI
1002
}
1001
GENIUS_GENOENT_13
1002
{
1000
MYREF
1005
268
1002
}
1002
{
1000
GRP
1005
0
1002
}
1001
GENIUS_GENOLIS_13
1002
{
1000
ENT
1005
237
1005
204
1002
}
  0
POINT
  5
269
  8
0
 10
0.0
 20
0.0
 30
0.0
1001
GENIUS_GENODEF_13
1002
{
1000
HIER
1070
   200
1002
}
1002
{
1000
MANEDIT
1070
     0
1002
}
1002
{
1000
NOSEL
1070
     0
1002
}
1002
{
1000
BEHIND
1070
     0
1002
}
1002
{
1000
REACTOR
1002
}
1001
GENIUS_GENOBJ-F-PART_13
1002
{
1000
OWNER
1000
GEF
1002
}
1001
GENIUS_GEFSTDP_13
1002
{
1000
SUG
1000
M
1040
8.0
1002
}
1002
{
1000
DSC
1000
DSC
1002
{
1000
~DESCR
1000
 
1000
~STDRT
1002
}
1002
}
1002
{
1000
KEY
1000
THRT
1002
}
1002
{
1000
INS
1002
{
1040
411.31341342528322
1040
110.12939258397449
1040
0.0
1002
}
1002
}
1002
{
1000
ANG
1040
0.0
1002
}
1002
{
1000
VCC
1002
{
1000
$PRE=M
1000
$NND=8.000000000000000E+00
1000
-RBDESCR
1000
-RBSTDRT
1000
-RBGD1
1000
-RBLOTI
1000
-V$PV_GENSYSTEM"gef\val\di\0401\di1616_d.dxf"
1000
$VCC_TABLE=$PV_GENSYSTEM"gef\val\di\0401\di1616.val"
1000
$GEF_CDIST=3.000000000000000E+00
1000
$GEF_DRAG=1
1000
$GEF_STANG=2.100000000000000E+02
1000
$GEF_OANG=7.000000000000000E+01
1000
$GEVPROMPTX= Länge: 
1000
$GEF_SNK_ADD=0.000000000000000E+00
1000
$GEF_FLIPX=1
1000
$GEF_FLIPY=1
1000
-GRPNAME0?
1000
-GRPNAME1?
1000
-BAML2
1000
$GEF_PROCALC=1
1002
}
1002
}
1002
{
1000
LST
1002
{
1002
{
1000
GROUP
1000
0401
1002
}
1002
{
1000
VIEW
1000
D
1002
}
1002
{
1000
SFILE
1000
$PV_GENSYSTEM"gef\val\di\0401\di1616_d.dxf"
1002
}
1002
{
1000
ST1
1000
$PV_GENSYSTEM"gef\val\di\0401\di1616.val"
1002
}
1002
{
1000
GENASSO
1000
 
1002
}
1002
}
1002
}
1002
{
1000
RET
1002
{
1002
{
1000
LOTI
1002
}
1002
{
1000
GD1
1000
6.647
1002
}
1002
{
1000
STDRT
1000
DIN 13 - M8
1002
}
1002
{
1000
DESCR
1000
Metrisches ISO-Gewinde
1002
}
1002
}
1002
}
1002
{
1000
SYSTEM
1040
1.0
1002
}
1002
{
1000
INFEL
1002
{
1002
}
1002
}
1001
GENIUS_GENOENT_13
1002
{
1000
MYREF
1005
269
1002
}
1002
{
1000
GRP
1005
0
1002
}
1001
GENIUS_GENOLIS_13
1002
{
1000
ENT
1005
266
1002
}
  0
INSERT
  5
27B
  8
MSL_F20_50-0
  2
*U15
 10
540.6337111508451
 20
63.629392583974777
 30
0.0
1001
GENIUS_GEFPARTINS_13
1002
{
1011
540.6337111508451
1021
0.0
1031
0.0
1021
63.629392583974777
1031
0.0
1013
1.0
1023
0.0
1033
0.0
1023
0.0
1033
0.0
1002
}
1001
VCC
1002
{
1000
-ID7
1000
-IE7
1000
-IK7
1000
-V$PV_GENSYSTEM"GEF\VAL\DI\0401\DI1616_D.DXF"
1002
}
1001
GEVIT
1002
{
1000
-BEHI7.00000001
1000
-BVCCT0
1000
-GRP0?
1000
-BAML2
1000
-BASK1
1000
-NT0
1000
-DOC
1005
26D
1000
-MYREF
1005
27B
1002
}
1001
GEVPT
1002
{
1000
-V$PV_GENSYSTEM"GEF\VAL\DI\0401\DI1616_D.DXF"
1000
-GPGEF_PROCALC=1
1000
-GPGEF_FLIPY=1
1000
-GPGEF_FLIPX=1
1000
-GPGEF_SNK_ADD=0
1000
-GPGEVPROMPTX=Länge:
1000
-GPGEF_OANG=70
1000
-GPGEF_STANG=210
1000
-GPGEF_DRAG=1
1000
-GPGEF_CDIST=3
1000
-GPVCC_TABLE=C:\GENIUS\gef\val\di\0401\di1616.val
1000
-GPNND=8
1000
-GPPRE=M
1002
}
1001
GEVID884349224
1002
{
1002
}
1001
GENIUS_GENOREF_13
1005
27C
1005
27E
  0
POINT
  5
27C
  8
0
 10
0.0
 20
0.0
 30
0.0
1001
GENIUS_GENBH_13
1002
{
1000
BGO
1005
27D
1002
}
1002
{
1000
FGLEVEL
1040
7.0000000099999991
1002
}
1002
{
1000
FLAGS
1070
    36
1002
}
1002
{
1000
OIUMAP
1000
OIU
1002
}
1002
{
1000
MODIFY
1070
     0
1002
}
1001
GENIUS_GENODEF_13
1002
{
1000
HIER
1070
     1
1002
}
1002
{
1000
MANEDIT
1070
     0
1002
}
1002
{
1000
NOSEL
1070
     1
1002
}
1002
{
1000
BEHIND
1070
     0
1002
}
1002
{
1000
REACTOR
1002
}
1001
GENIUS_GENOBJ-NBEHI-BHF_13
1002
{
1000
OWNER
1000
GENBEHI
1002
}
1001
GENIUS_GENOENT_13
1002
{
1000
MYREF
1005
27C
1002
}
1002
{
1000
GRP
1005
0
1002
}
1001
GENIUS_GENOLIS_13
1002
{
1000
ENT
1005
27B
1002
}
  0
POINT
  5
27D
  8
0
 10
0.0
 20
0.0
 30
0.0
1001
GENIUS_GENBH_13
1002
{
1000
FGO
1005
27C
1002
}
1001
GENIUS_GENODEF_13
1002
{
1000
HIER
1070
     1
1002
}
1002
{
1000
MANEDIT
1070
     0
1002
}
1002
{
1000
NOSEL
1070
     1
1002
}
1002
{
1000
BEHIND
1070
     0
1002
}
1002
{
1000
REACTOR
1002
}
1001
GENIUS_GENOBJ-NBEHI-BHB_13
1002
{
1000
OWNER
1000
GENBEHI
1002
}
1001
GENIUS_GENOENT_13
1002
{
1000
MYREF
1005
27D
1002
}
1002
{
1000
GRP
1005
0
1002
}
1001
GENIUS_GENOLIS_13
1002
{
1000
ENT
1005
205
1005
237
1002
}
  0
POINT
  5
27E
  8
0
 10
0.0
 20
0.0
 30
0.0
1001
GENIUS_GENODEF_13
1002
{
1000
HIER
1070
   200
1002
}
1002
{
1000
MANEDIT
1070
     0
1002
}
1002
{
1000
NOSEL
1070
     0
1002
}
1002
{
1000
BEHIND
1070
     0
1002
}
1002
{
1000
REACTOR
1002
}
1001
GENIUS_GENOBJ-F-PART_13
1002
{
1000
OWNER
1000
GEF
1002
}
1001
GENIUS_GEFSTDP_13
1002
{
1000
SUG
1000
M
1040
8.0
1002
}
1002
{
1000
DSC
1000
DSC
1002
{
1000
~DESCR
1000
 
1000
~STDRT
1002
}
1002
}
1002
{
1000
KEY
1000
THRT
1002
}
1002
{
1000
INS
1002
{
1040
411.31341342528322
1040
63.629392583974777
1040
0.0
1002
}
1002
}
1002
{
1000
ANG
1040
0.0
1002
}
1002
{
1000
VCC
1002
{
1000
$PRE=M
1000
$NND=8.000000000000000E+00
1000
-RBDESCR
1000
-RBSTDRT
1000
-RBGD1
1000
-RBLOTI
1000
-V$PV_GENSYSTEM"gef\val\di\0401\di1616_d.dxf"
1000
$VCC_TABLE=$PV_GENSYSTEM"gef\val\di\0401\di1616.val"
1000
$GEF_CDIST=3.000000000000000E+00
1000
$GEF_DRAG=1
1000
$GEF_STANG=2.100000000000000E+02
1000
$GEF_OANG=7.000000000000000E+01
1000
$GEVPROMPTX= Länge: 
1000
$GEF_SNK_ADD=0.000000000000000E+00
1000
$GEF_FLIPX=1
1000
$GEF_FLIPY=1
1000
-GRPNAME0?
1000
-GRPNAME1?
1000
-BAML2
1000
$GEF_PROCALC=1
1002
}
1002
}
1002
{
1000
LST
1002
{
1002
{
1000
GROUP
1000
0401
1002
}
1002
{
1000
VIEW
1000
D
1002
}
1002
{
1000
SFILE
1000
$PV_GENSYSTEM"gef\val\di\0401\di1616_d.dxf"
1002
}
1002
{
1000
ST1
1000
$PV_GENSYSTEM"gef\val\di\0401\di1616.val"
1002
}
1002
{
1000
GENASSO
1000
 
1002
}
1002
}
1002
}
1002
{
1000
RET
1002
{
1002
{
1000
LOTI
1002
}
1002
{
1000
GD1
1000
6.647
1002
}
1002
{
1000
STDRT
1000
DIN 13 - M8
1002
}
1002
{
1000
DESCR
1000
Metrisches ISO-Gewinde
1002
}
1002
}
1002
}
1002
{
1000
SYSTEM
1040
1.0
1002
}
1002
{
1000
INFEL
1002
{
1002
}
1002
}
1001
GENIUS_GENOENT_13
1002
{
1000
MYREF
1005
27E
1002
}
1002
{
1000
GRP
1005
0
1002
}
1001
GENIUS_GENOLIS_13
1002
{
1000
ENT
1005
27B
1002
}
  0
INSERT
  5
290
  8
MSL_F20_50-0
  2
*U17
 10
494.13371115084141
 20
63.629392583974777
 30
0.0
1001
GENIUS_GEFPARTINS_13
1002
{
1011
494.13371115084141
1021
0.0
1031
0.0
1021
63.629392583974777
1031
0.0
1013
1.0
1023
0.0
1033
0.0
1023
0.0
1033
0.0
1002
}
1001
VCC
1002
{
1000
-ID8
1000
-IE8
1000
-IK8
1000
-V$PV_GENSYSTEM"GEF\VAL\DI\0401\DI1616_D.DXF"
1002
}
1001
GEVIT
1002
{
1000
-BEHI8.00000001
1000
-BVCCT0
1000
-GRP0?
1000
-BAML2
1000
-BASK1
1000
-NT0
1000
-DOC
1005
282
1000
-MYREF
1005
290
1002
}
1001
GEVPT
1002
{
1000
-V$PV_GENSYSTEM"GEF\VAL\DI\0401\DI1616_D.DXF"
1000
-GPGEF_PROCALC=1
1000
-GPGEF_FLIPY=1
1000
-GPGEF_FLIPX=1
1000
-GPGEF_SNK_ADD=0
1000
-GPGEVPROMPTX=Länge:
1000
-GPGEF_OANG=70
1000
-GPGEF_STANG=210
1000
-GPGEF_DRAG=1
1000
-GPGEF_CDIST=3
1000
-GPVCC_TABLE=C:\GENIUS\gef\val\di\0401\di1616.val
1000
-GPNND=8
1000
-GPPRE=M
1002
}
1001
GEVID884349225
1002
{
1002
}
1001
GENIUS_GENOREF_13
1005
291
1005
293
  0
POINT
  5
291
  8
0
 10
0.0
 20
0.0
 30
0.0
1001
GENIUS_GENBH_13
1002
{
1000
BGO
1005
292
1002
}
1002
{
1000
FGLEVEL
1040
8.0000000100000008
1002
}
1002
{
1000
FLAGS
1070
    36
1002
}
1002
{
1000
OIUMAP
1000
OIU
1002
}
1002
{
1000
MODIFY
1070
     0
1002
}
1001
GENIUS_GENODEF_13
1002
{
1000
HIER
1070
     1
1002
}
1002
{
1000
MANEDIT
1070
     0
1002
}
1002
{
1000
NOSEL
1070
     1
1002
}
1002
{
1000
BEHIND
1070
     0
1002
}
1002
{
1000
REACTOR
1002
}
1001
GENIUS_GENOBJ-NBEHI-BHF_13
1002
{
1000
OWNER
1000
GENBEHI
1002
}
1001
GENIUS_GENOENT_13
1002
{
1000
MYREF
1005
291
1002
}
1002
{
1000
GRP
1005
0
1002
}
1001
GENIUS_GENOLIS_13
1002
{
1000
ENT
1005
290
1002
}
  0
POINT
  5
292
  8
0
 10
0.0
 20
0.0
 30
0.0
1001
GENIUS_GENBH_13
1002
{
1000
FGO
1005
291
1002
}
1001
GENIUS_GENODEF_13
1002
{
1000
HIER
1070
     1
1002
}
1002
{
1000
MANEDIT
1070
     0
1002
}
1002
{
1000
NOSEL
1070
     1
1002
}
1002
{
1000
BEHIND
1070
     0
1002
}
1002
{
1000
REACTOR
1002
}
1001
GENIUS_GENOBJ-NBEHI-BHB_13
1002
{
1000
OWNER
1000
GENBEHI
1002
}
1001
GENIUS_GENOENT_13
1002
{
1000
MYREF
1005
292
1002
}
1002
{
1000
GRP
1005
0
1002
}
1001
GENIUS_GENOLIS_13
1002
{
1000
ENT
1005
239
1005
205
1002
}
  0
POINT
  5
293
  8
0
 10
0.0
 20
0.0
 30
0.0
1001
GENIUS_GENODEF_13
1002
{
1000
HIER
1070
   200
1002
}
1002
{
1000
MANEDIT
1070
     0
1002
}
1002
{
1000
NOSEL
1070
     0
1002
}
1002
{
1000
BEHIND
1070
     0
1002
}
1002
{
1000
REACTOR
1002
}
1001
GENIUS_GENOBJ-F-PART_13
1002
{
1000
OWNER
1000
GEF
1002
}
1001
GENIUS_GEFSTDP_13
1002
{
1000
SUG
1000
M
1040
8.0
1002
}
1002
{
1000
DSC
1000
DSC
1002
{
1000
~DESCR
1000
 
1000
~STDRT
1002
}
1002
}
1002
{
1000
KEY
1000
THRT
1002
}
1002
{
1000
INS
1002
{
1040
364.81341342527952
1040
63.629392583974777
1040
0.0
1002
}
1002
}
1002
{
1000
ANG
1040
0.0
1002
}
1002
{
1000
VCC
1002
{
1000
$PRE=M
1000
$NND=8.000000000000000E+00
1000
-RBDESCR
1000
-RBSTDRT
1000
-RBGD1
1000
-RBLOTI
1000
-V$PV_GENSYSTEM"gef\val\di\0401\di1616_d.dxf"
1000
$VCC_TABLE=$PV_GENSYSTEM"gef\val\di\0401\di1616.val"
1000
$GEF_CDIST=3.000000000000000E+00
1000
$GEF_DRAG=1
1000
$GEF_STANG=2.100000000000000E+02
1000
$GEF_OANG=7.000000000000000E+01
1000
$GEVPROMPTX= Länge: 
1000
$GEF_SNK_ADD=0.000000000000000E+00
1000
$GEF_FLIPX=1
1000
$GEF_FLIPY=1
1000
-GRPNAME0?
1000
-GRPNAME1?
1000
-BAML2
1000
$GEF_PROCALC=1
1002
}
1002
}
1002
{
1000
LST
1002
{
1002
{
1000
GROUP
1000
0401
1002
}
1002
{
1000
VIEW
1000
D
1002
}
1002
{
1000
SFILE
1000
$PV_GENSYSTEM"gef\val\di\0401\di1616_d.dxf"
1002
}
1002
{
1000
ST1
1000
$PV_GENSYSTEM"gef\val\di\0401\di1616.val"
1002
}
1002
{
1000
GENASSO
1000
 
1002
}
1002
}
1002
}
1002
{
1000
RET
1002
{
1002
{
1000
LOTI
1002
}
1002
{
1000
GD1
1000
6.647
1002
}
1002
{
1000
STDRT
1000
DIN 13 - M8
1002
}
1002
{
1000
DESCR
1000
Metrisches ISO-Gewinde
1002
}
1002
}
1002
}
1002
{
1000
SYSTEM
1040
1.0
1002
}
1002
{
1000
INFEL
1002
{
1002
}
1002
}
1001
GENIUS_GENOENT_13
1002
{
1000
MYREF
1005
293
1002
}
1002
{
1000
GRP
1005
0
1002
}
1001
GENIUS_GENOLIS_13
1002
{
1000
ENT
1005
290
1002
}
  0
CIRCLE
  5
29A
  8
MSL_F20_50-0
 10
251.08288488559279
 20
-32.125851304408201
 30
0.0
 40
15.0
  0
LINE
  5
29B
  8
MSL_F20_50-0
 10
242.5828848855927
 20
-44.485058398716447
 30
0.0
 11
242.58288488559279
 21
-62.125851304408201
 31
0.0
  0
LINE
  5
29C
  8
MSL_F20_50-3
 10
240.8848458584072
 20
-21.125851304408201
 30
0.0
 11
234.0828848855927
 21
-21.125851304408201
 31
0.0
  0
LINE
  5
29D
  8
MSL_F20_50-3
 10
240.8848458584072
 20
-43.125851304408201
 30
0.0
 11
234.0828848855927
 21
-43.125851304408201
 31
0.0
  0
POINT
  5
2B0
  8
0
 10
0.0
 20
0.0
 30
0.0
1001
GENIUS_GENBH_13
1002
{
1000
BGO
1005
2B1
1002
}
1002
{
1000
FGLEVEL
1040
9.0000000100000008
1002
}
1002
{
1000
FLAGS
1070
    36
1002
}
1002
{
1000
OIUMAP
1000
OIU
1002
}
1002
{
1000
MODIFY
1070
     0
1002
}
1001
GENIUS_GENODEF_13
1002
{
1000
HIER
1070
     1
1002
}
1002
{
1000
MANEDIT
1070
     0
1002
}
1002
{
1000
NOSEL
1070
     1
1002
}
1002
{
1000
BEHIND
1070
     0
1002
}
1002
{
1000
REACTOR
1002
}
1001
GENIUS_GENOBJ-NBEHI-BHF_13
1002
{
1000
OWNER
1000
GENBEHI
1002
}
1001
GENIUS_GENOENT_13
1002
{
1000
MYREF
1005
2B0
1002
}
1002
{
1000
GRP
1005
0
1002
}
1001
GENIUS_GENOLIS_13
1002
{
1000
ENT
1005
2E3
1002
}
  0
POINT
  5
2B1
  8
0
 10
0.0
 20
0.0
 30
0.0
1001
GENIUS_GENBH_13
1002
{
1000
FGO
1005
2B0
1002
}
1001
GENIUS_GENODEF_13
1002
{
1000
HIER
1070
     1
1002
}
1002
{
1000
MANEDIT
1070
     0
1002
}
1002
{
1000
NOSEL
1070
     1
1002
}
1002
{
1000
BEHIND
1070
     0
1002
}
1002
{
1000
REACTOR
1002
}
1001
GENIUS_GENOBJ-NBEHI-BHB_13
1002
{
1000
OWNER
1000
GENBEHI
1002
}
1001
GENIUS_GENOENT_13
1002
{
1000
MYREF
1005
2B1
1002
}
1002
{
1000
GRP
1005
0
1002
}
1001
GENIUS_GENOLIS_13
1002
{
1000
ENT
1005
164
1005
295
1002
}
  0
POINT
  5
2B2
  8
0
 10
0.0
 20
0.0
 30
0.0
1001
GENIUS_GENODEF_13
1002
{
1000
HIER
1070
   200
1002
}
1002
{
1000
MANEDIT
1070
     0
1002
}
1002
{
1000
NOSEL
1070
     0
1002
}
1002
{
1000
BEHIND
1070
     0
1002
}
1002
{
1000
REACTOR
1002
}
1001
GENIUS_GENOBJ-F-PART_13
1002
{
1000
OWNER
1000
GEF
1002
}
1001
GENIUS_GEFSTDP_13
1002
{
1000
DSC
1000
DSC
1002
{
1000
~DESCR
1000
 
1000
~STDRT
1002
}
1002
}
1002
{
1000
SUG
1000
G
1000
1/8
1002
}
1002
{
1000
KEY
1000
THPT
1002
}
1002
{
1000
INS
1002
{
1040
251.08288488559279
1040
-32.125851304408201
1040
0.0
1002
}
1002
}
1002
{
1000
ANG
1040
0.0
1002
}
1002
{
1000
VCC
1002
{
1000
$PRE=G
1000
$NM1=1/8
1000
-RBDESCR
1000
-RBSTDRT
1000
-RBGD1
1000
-RBLOTI
1000
-V$PV_GENSYSTEM"gef\val\di\0405\di1627_d.dxf"
1000
$VCC_TABLE=$PV_GENSYSTEM"gef\val\di\0405\di1627.val"
1000
$GEF_CDIST=3.000000000000000E+00
1000
$GEF_DRAG=1
1000
$GEF_STANG=2.100000000000000E+02
1000
$GEF_OANG=7.000000000000000E+01
1000
$GEVPROMPTX= Länge: 
1000
$GEF_SNK_ADD=0.000000000000000E+00
1000
$GEF_FLIPX=1
1000
$GEF_FLIPY=1
1000
-GRPNAME0?
1000
-GRPNAME1?
1000
-BAML2
1000
$GEF_PROCALC=1
1002
}
1002
}
1002
{
1000
LST
1002
{
1002
{
1000
GROUP
1000
0405
1002
}
1002
{
1000
VIEW
1000
D
1002
}
1002
{
1000
SFILE
1000
$PV_GENSYSTEM"gef\val\di\0405\di1627_d.dxf"
1002
}
1002
{
1000
ST1
1000
$PV_GENSYSTEM"gef\val\di\0405\di1627.val"
1002
}
1002
{
1000
GENASSO
1000
 
1002
}
1002
}
1002
}
1002
{
1000
RET
1002
{
1002
{
1000
LOTI
1002
}
1002
{
1000
GD1
1000
8.56645
1002
}
1002
{
1000
STDRT
1000
ISO 228 - G 1/8
1002
}
1002
{
1000
DESCR
1000
Rohrgewinde
1002
}
1002
}
1002
}
1002
{
1000
SYSTEM
1040
1.0
1002
}
1002
{
1000
INFEL
1002
{
1002
}
1002
}
1001
GENIUS_GENOENT_13
1002
{
1000
MYREF
1005
2B2
1002
}
1002
{
1000
GRP
1005
0
1002
}
1001
GENIUS_GENOLIS_13
1002
{
1000
ENT
1005
2E3
1002
}
  0
INSERT
  5
2E3
  8
MSL_F20_50-0
  2
*U19
 10
251.08288488559279
 20
-32.125851304408201
 30
0.0
1001
GENIUS_GEFPARTINS_13
1002
{
1011
251.08288488559279
1021
0.0
1031
0.0
1021
-32.125851304408201
1031
0.0
1013
1.0
1023
0.0
1033
0.0
1023
0.0
1033
0.0
1002
}
1001
VCC
1002
{
1000
-ID9
1000
-IE9
1000
-IK9
1000
-V$PV_GENSYSTEM"GEF\VAL\DI\0405\DI1627_D.DXF"
1002
}
1001
GEVIT
1002
{
1000
-BEHI9.00000001
1000
-BVCCT0
1000
-GRP0?
1000
-BAML2
1000
-BASK1
1000
-NT0
1000
-DOC
1005
2A1
1000
-MYREF
1005
2E3
1002
}
1001
GEVPT
1002
{
1000
-V$PV_GENSYSTEM"GEF\VAL\DI\0405\DI1627_D.DXF"
1000
-GPGEF_PROCALC=1
1000
-GPGEF_FLIPY=1
1000
-GPGEF_FLIPX=1
1000
-GPGEF_SNK_ADD=0
1000
-GPGEVPROMPTX=Länge:
1000
-GPGEF_OANG=70
1000
-GPGEF_STANG=210
1000
-GPGEF_DRAG=1
1000
-GPGEF_CDIST=3
1000
-GPVCC_TABLE=C:\GENIUS\gef\val\di\0405\di1627.val
1000
-GPNM1=1/8
1000
-GPPRE=G
1002
}
1001
GEVID884349226
1002
{
1002
}
1001
GENIUS_GENOREF_13
1005
2B0
1005
2B2
  0
LINE
  5
2EB
  8
ZYL_50_ISO6431-4A
 10
406.5828848855927
 20
-32.125851304408201
 30
0.0
 11
406.5828848855927
 21
-12.125851304408201
 31
0.0
  0
LINE
  5
2EC
  8
ZYL_50_ISO6431-4A
 10
406.5828848855927
 20
-12.125851304408201
 30
0.0
 11
402.5828848855927
 21
-12.125851304408201
 31
0.0
  0
LINE
  5
2ED
  8
ZYL_50_ISO6431-4A
 10
402.5828848855927
 20
-12.125851304408201
 30
0.0
 11
402.5828848855927
 21
0.3741486955917992
 31
0.0
  0
LINE
  5
2EE
  8
ZYL_50_ISO6431-4A
 10
402.5828848855927
 20
0.3741486955917992
 30
0.0
 11
373.5828848855927
 21
0.3741486955917992
 31
0.0
  0
LINE
  5
2EF
  8
ZYL_50_ISO6431-4A
 10
373.5828848855927
 20
0.3741486955917992
 30
0.0
 11
373.5828848855927
 21
-2.6258513044081999
 31
0.0
  0
LINE
  5
2F0
  8
ZYL_50_ISO6431-4A
 10
373.5828848855927
 20
-2.6258513044081999
 30
0.0
 11
325.5828848855927
 21
-2.6258513044081999
 31
0.0
  0
LINE
  5
2F1
  8
ZYL_50_ISO6431-4A
 10
325.5828848855927
 20
-2.6258513044081999
 30
0.0
 11
325.5828848855927
 21
0.3741486955917992
 31
0.0
  0
LINE
  5
2F2
  8
ZYL_50_ISO6431-4A
 10
325.5828848855927
 20
0.3741486955917992
 30
0.0
 11
296.5828848855927
 21
0.3741486955917992
 31
0.0
  0
LINE
  5
2F3
  8
ZYL_50_ISO6431-4A
 10
296.5828848855927
 20
0.3741486955917992
 30
0.0
 11
296.5828848855927
 21
-2.1258513044081999
 31
0.0
  0
LINE
  5
2F5
  8
ZYL_50_ISO6431-3
 10
284.58288488559259
 20
-12.125851304408201
 30
0.0
 11
268.0828848855927
 21
-13.1208513044082
 31
0.0
1001
GENIUS_GENBH_13
1002
{
1000
OE
1000
CON1
1002
}
1001
GENIUS_GENOREF_13
1005
4AB
  0
LINE
  5
2F6
  8
ZYL_50_ISO6431-3
 10
268.0828848855927
 20
-13.1208513044082
 30
0.0
 11
268.0828848855927
 21
-51.130851304408189
 31
0.0
1001
GENIUS_GENBH_13
1002
{
1000
OE
1000
CON1
1002
}
1001
GENIUS_GENOREF_13
1005
4AB
  0
LINE
  5
2F7
  8
ZYL_50_ISO6431-3
 10
268.0828848855927
 20
-51.130851304408189
 30
0.0
 11
284.58288488559259
 21
-52.125851304408201
 31
0.0
1001
GENIUS_GENBH_13
1002
{
1000
OE
1000
CON1
1002
}
1001
GENIUS_GENOREF_13
1005
4AB
  0
LINE
  5
2F9
  8
ZYL_50_ISO6431-4A
 10
296.5828848855927
 20
-62.125851304408201
 30
0.0
 11
296.5828848855927
 21
-64.625851304408201
 31
0.0
  0
LINE
  5
2FA
  8
ZYL_50_ISO6431-4A
 10
296.5828848855927
 20
-64.625851304408201
 30
0.0
 11
325.5828848855927
 21
-64.625851304408201
 31
0.0
  0
LINE
  5
2FB
  8
ZYL_50_ISO6431-4A
 10
325.5828848855927
 20
-64.625851304408201
 30
0.0
 11
325.5828848855927
 21
-61.625851304408201
 31
0.0
  0
LINE
  5
2FC
  8
ZYL_50_ISO6431-4A
 10
325.5828848855927
 20
-61.625851304408201
 30
0.0
 11
373.5828848855927
 21
-61.625851304408201
 31
0.0
  0
LINE
  5
2FD
  8
ZYL_50_ISO6431-4A
 10
373.5828848855927
 20
-61.625851304408201
 30
0.0
 11
373.5828848855927
 21
-64.625851304408201
 31
0.0
  0
LINE
  5
2FE
  8
ZYL_50_ISO6431-4A
 10
373.5828848855927
 20
-64.625851304408201
 30
0.0
 11
402.5828848855927
 21
-64.625851304408201
 31
0.0
  0
LINE
  5
2FF
  8
ZYL_50_ISO6431-4A
 10
402.5828848855927
 20
-64.625851304408201
 30
0.0
 11
402.5828848855927
 21
-52.125851304408201
 31
0.0
  0
LINE
  5
300
  8
ZYL_50_ISO6431-4A
 10
402.5828848855927
 20
-52.125851304408201
 30
0.0
 11
406.5828848855927
 21
-52.125851304408201
 31
0.0
  0
LINE
  5
301
  8
ZYL_50_ISO6431-4A
 10
406.5828848855927
 20
-52.125851304408201
 30
0.0
 11
406.5828848855927
 21
-32.125851304408201
 31
0.0
  0
LINE
  5
302
  8
ZYL_50_ISO6431-4A
 10
402.5828848855927
 20
-12.125851304408201
 30
0.0
 11
402.5828848855927
 21
-52.125851304408201
 31
0.0
  0
LINE
  5
303
  8
ZYL_50_ISO6431-4A
 10
373.5828848855927
 20
-2.6258513044081999
 30
0.0
 11
373.5828848855927
 21
-61.625851304408201
 31
0.0
  0
LINE
  5
304
  8
ZYL_50_ISO6431-4A
 10
325.5828848855927
 20
-2.6258513044081999
 30
0.0
 11
325.5828848855927
 21
-61.625851304408201
 31
0.0
  0
LINE
  5
306
  8
ZYL_50_ISO6431-3
 10
284.58288488559259
 20
-12.125851304408201
 30
0.0
 11
284.58288488559259
 21
-52.125851304408201
 31
0.0
1001
GENIUS_GENBH_13
1002
{
1000
OE
1000
CON1
1002
}
1001
GENIUS_GENOREF_13
1005
4AB
  0
LINE
  5
307
  8
ZYL_50_ISO6431-4A
 10
373.5828848855927
 20
-55.844751304408192
 30
0.0
 11
325.5828848855927
 21
-55.844751304408192
 31
0.0
  0
LINE
  5
308
  8
ZYL_50_ISO6431-4A
 10
373.5828848855927
 20
-8.40695130440821
 30
0.0
 11
325.5828848855927
 21
-8.40695130440821
 31
0.0
  0
LINE
  5
309
  8
ZYL_50_ISO6431-4A
 10
205.58288488559259
 20
-24.125851304408201
 30
0.0
 11
193.57788488559271
 21
-24.125851304408201
 31
0.0
1001
GENIUS_GENOREF_13
1005
88B
  0
LINE
  5
30A
  8
ZYL_50_ISO6431-4A
 10
205.58288488559259
 20
-40.125851304408201
 30
0.0
 11
193.57788488559271
 21
-40.125851304408201
 31
0.0
1001
GENIUS_GENOREF_13
1005
88B
  0
LINE
  5
30B
  8
ZYL_50_ISO6431-4A
 10
173.5828848855927
 20
-25.045991304408201
 30
0.0
 11
174.5029848855927
 21
-24.125851304408201
 31
0.0
  0
LINE
  5
30C
  8
ZYL_50_ISO6431-4A
 10
173.5828848855927
 20
-39.20571130440819
 30
0.0
 11
174.5029848855927
 21
-40.125851304408201
 31
0.0
  0
LINE
  5
30D
  8
ZYL_50_ISO6431-4A
 10
173.5828848855927
 20
-25.045991304408201
 30
0.0
 11
173.5828848855927
 21
-39.20571130440819
 31
0.0
  0
LINE
  5
30E
  8
ZYL_50_ISO6431-4
 10
173.5828848855927
 20
-25.045991304408201
 30
0.0
 11
185.6022248855927
 21
-25.045991304408201
 31
0.0
1001
GENIUS_GENOREF_13
1005
88B
  0
LINE
  5
30F
  8
ZYL_50_ISO6431-4
 10
173.5828848855927
 20
-39.20571130440819
 30
0.0
 11
185.6022248855927
 21
-39.20571130440819
 31
0.0
1001
GENIUS_GENOREF_13
1005
88B
  0
LINE
  5
310
  8
ZYL_50_ISO6431-4
 10
174.5029848855927
 20
-24.125851304408201
 30
0.0
 11
174.5029848855927
 21
-40.125851304408201
 31
0.0
  0
LINE
  5
311
  8
ZYL_50_ISO6431-3
 10
268.0828848855927
 20
-22.125851304408201
 30
0.0
 11
214.58288488559231
 21
-22.125851304408201
 31
0.0
1001
GENIUS_GENBH_13
1002
{
1000
OE
1000
CON1
1002
}
1001
GENIUS_GENOREF_13
1005
4AB
  0
LINE
  5
312
  8
ZYL_50_ISO6431-4A
 10
205.58288488559259
 20
-22.125851304408201
 30
0.0
 11
205.58288488559259
 21
-42.125851304408201
 31
0.0
  0
LINE
  5
313
  8
ZYL_50_ISO6431-4A
 10
205.58288488559259
 20
-42.125851304408201
 30
0.0
 11
214.58288488559231
 21
-42.125851304408201
 31
0.0
1001
GENIUS_GENOREF_13
1005
4AB
  0
LINE
  5
314
  8
ZYL_50_ISO6431-4A
 10
205.58288488559259
 20
-26.85802130440819
 30
0.0
 11
212.24955488559269
 21
-26.85802130440819
 31
0.0
  0
LINE
  5
315
  8
ZYL_50_ISO6431-4A
 10
205.58288488559259
 20
-37.393681304408197
 30
0.0
 11
212.24955488559269
 21
-37.393681304408197
 31
0.0
  0
LINE
  5
316
  8
ZYL_50_ISO6431-4A
 10
212.24955488559269
 20
-26.85802130440819
 30
0.0
 11
212.24955488559269
 21
-37.393681304408197
 31
0.0
  0
LINE
  5
317
  8
ZYL_50_ISO6431-4
 10
205.58288488559259
 20
-26.85802130440819
 30
0.0
 11
212.24955488559269
 21
-37.393681304408197
 31
0.0
  0
LINE
  5
318
  8
ZYL_50_ISO6431-4
 10
212.24955488559269
 20
-26.85802130440819
 30
0.0
 11
205.58288488559259
 21
-37.393681304408197
 31
0.0
  0
LINE
  5
319
  8
ZYL_50_ISO6431-7
 10
170.5828848855927
 20
-32.125851304408201
 30
0.0
 11
211.58288488558901
 21
-32.125851304408201
 31
0.0
  0
LINE
  5
31A
  8
ZYL_50_ISO6431-4A
 10
306.5828848855927
 20
0.3741486955917992
 30
0.0
 11
306.5828848855927
 21
-17.875851304408201
 31
0.0
  0
LINE
  5
31B
  8
ZYL_50_ISO6431-4A
 10
392.58288488559259
 20
0.3741486955917992
 30
0.0
 11
392.58288488559259
 21
-17.875851304408201
 31
0.0
  0
LINE
  5
31C
  8
ZYL_50_ISO6431-4A
 10
392.58288488559259
 20
-64.625851304408201
 30
0.0
 11
392.58288488559259
 21
-46.375851304408201
 31
0.0
  0
LINE
  5
31D
  8
ZYL_50_ISO6431-4A
 10
306.5828848855927
 20
-64.625851304408201
 30
0.0
 11
306.5828848855927
 21
-46.375851304408201
 31
0.0
  0
LINE
  5
31E
  8
ZYL_50_ISO6431-4A
 10
306.5828848855927
 20
-17.875851304408201
 30
0.0
 11
296.5828848855927
 21
-17.875851304408201
 31
0.0
  0
LINE
  5
31F
  8
ZYL_50_ISO6431-4A
 10
392.58288488559259
 20
-17.875851304408201
 30
0.0
 11
402.5828848855927
 21
-17.875851304408201
 31
0.0
  0
LINE
  5
320
  8
ZYL_50_ISO6431-4A
 10
392.58288488559259
 20
-46.375851304408201
 30
0.0
 11
402.5828848855927
 21
-46.375851304408201
 31
0.0
  0
LINE
  5
321
  8
ZYL_50_ISO6431-4A
 10
306.5828848855927
 20
-46.375851304408201
 30
0.0
 11
296.5828848855927
 21
-46.375851304408201
 31
0.0
  0
LINE
  5
322
  8
ZYL_50_ISO6431-7
 10
293.5828848855927
 20
-8.8758513044082008
 30
0.0
 11
313.58288488559259
 21
-8.8758513044082008
 31
0.0
  0
LINE
  5
323
  8
ZYL_50_ISO6431-7
 10
405.58288488559259
 20
-8.8758513044082008
 30
0.0
 11
385.5828848855927
 21
-8.8758513044082008
 31
0.0
  0
LINE
  5
324
  8
ZYL_50_ISO6431-7
 10
405.58288488559259
 20
-55.375851304408201
 30
0.0
 11
385.5828848855927
 21
-55.375851304408201
 31
0.0
  0
LINE
  5
326
  8
MSL_F20_50-3
 10
296.5828848855927
 20
-4.8758513044081999
 30
0.0
 11
313.58288488559259
 21
-4.8758513044081999
 31
0.0
  0
LINE
  5
327
  8
ZYL_50_ISO6431-3
 10
402.5828848855927
 20
-4.8758513044081999
 30
0.0
 11
385.5828848855927
 21
-4.8758513044081999
 31
0.0
  0
LINE
  5
328
  8
ZYL_50_ISO6431-3
 10
402.5828848855927
 20
-59.375851304408201
 30
0.0
 11
385.5828848855927
 21
-59.375851304408201
 31
0.0
  0
LINE
  5
32A
  8
MSL_F20_50-3
 10
296.5828848855927
 20
-5.6428513044081958
 30
0.0
 11
313.58288488559259
 21
-5.6428513044081958
 31
0.0
  0
LINE
  5
32B
  8
ZYL_50_ISO6431-3
 10
402.5828848855927
 20
-5.6428513044081958
 30
0.0
 11
385.5828848855927
 21
-5.6428513044081958
 31
0.0
  0
LINE
  5
32C
  8
ZYL_50_ISO6431-3
 10
402.5828848855927
 20
-58.608851304408198
 30
0.0
 11
385.5828848855927
 21
-58.608851304408198
 31
0.0
  0
LINE
  5
32E
  8
MSL_F20_50-3
 10
296.5828848855927
 20
-12.875851304408201
 30
0.0
 11
313.58288488559259
 21
-12.875851304408201
 31
0.0
  0
LINE
  5
32F
  8
ZYL_50_ISO6431-3
 10
402.5828848855927
 20
-12.875851304408201
 30
0.0
 11
385.5828848855927
 21
-12.875851304408201
 31
0.0
  0
LINE
  5
330
  8
ZYL_50_ISO6431-3
 10
402.5828848855927
 20
-51.375851304408201
 30
0.0
 11
385.5828848855927
 21
-51.375851304408201
 31
0.0
  0
LINE
  5
332
  8
MSL_F20_50-3
 10
296.5828848855927
 20
-12.1088513044082
 30
0.0
 11
313.58288488559259
 21
-12.1088513044082
 31
0.0
  0
LINE
  5
333
  8
ZYL_50_ISO6431-3
 10
402.5828848855927
 20
-12.1088513044082
 30
0.0
 11
385.5828848855927
 21
-12.1088513044082
 31
0.0
  0
LINE
  5
334
  8
ZYL_50_ISO6431-3
 10
402.5828848855927
 20
-52.142851304408197
 30
0.0
 11
385.5828848855927
 21
-52.142851304408197
 31
0.0
  0
LINE
  5
336
  8
ZYL_50_ISO6431-4A
 10
296.5828848855927
 20
-17.375851304408201
 30
0.0
 11
306.5828848855927
 21
-17.375851304408201
 31
0.0
  0
LINE
  5
337
  8
ZYL_50_ISO6431-4A
 10
402.5828848855927
 20
-17.375851304408201
 30
0.0
 11
392.58288488559259
 21
-17.375851304408201
 31
0.0
  0
LINE
  5
338
  8
ZYL_50_ISO6431-4A
 10
402.5828848855927
 20
-46.875851304408201
 30
0.0
 11
392.58288488559259
 21
-46.875851304408201
 31
0.0
  0
LINE
  5
339
  8
ZYL_50_ISO6431-4A
 10
296.5828848855927
 20
-46.875851304408201
 30
0.0
 11
306.5828848855927
 21
-46.875851304408201
 31
0.0
  0
LINE
  5
33A
  8
ZYL_50_ISO6431-4A
 10
296.5828848855927
 20
-0.3758513044082008
 30
0.0
 11
306.5828848855927
 21
-0.3758513044082008
 31
0.0
  0
LINE
  5
33B
  8
ZYL_50_ISO6431-4A
 10
402.5828848855927
 20
-0.3758513044082008
 30
0.0
 11
392.58288488559259
 21
-0.3758513044082008
 31
0.0
  0
LINE
  5
33C
  8
ZYL_50_ISO6431-4A
 10
402.5828848855927
 20
-63.875851304408201
 30
0.0
 11
392.58288488559259
 21
-63.875851304408201
 31
0.0
  0
LINE
  5
33D
  8
ZYL_50_ISO6431-4A
 10
296.5828848855927
 20
-63.875851304408201
 30
0.0
 11
306.5828848855927
 21
-63.875851304408201
 31
0.0
  0
CIRCLE
  5
33E
  8
ZYL_50_ISO6431-4A
 10
314.0828848855927
 20
-37.625851304408201
 30
0.0
 40
5.7225000000000001
  0
CIRCLE
  5
33F
  8
ZYL_50_ISO6431-4A
 10
385.0828848855927
 20
-37.625851304408201
 30
0.0
 40
5.7225000000000001
  0
ARC
  5
340
  8
ZYL_50_ISO6431-4
 10
314.0828848855927
 20
-37.625851304408201
 30
0.0
 40
6.5785
 50
110.0
 51
20.0
  0
ARC
  5
341
  8
ZYL_50_ISO6431-4
 10
385.0828848855927
 20
-37.625851304408201
 30
0.0
 40
6.5785
 50
160.0
 51
70.0
  0
LINE
  5
342
  8
ZYL_50_ISO6431-7
 10
314.0828848855927
 20
-29.614351304408181
 30
0.0
 11
314.0828848855927
 21
-45.637351304408213
 31
0.0
  0
LINE
  5
343
  8
ZYL_50_ISO6431-7
 10
385.0828848855927
 20
-29.614351304408181
 30
0.0
 11
385.0828848855927
 21
-45.637351304408213
 31
0.0
  0
LINE
  5
344
  8
ZYL_50_ISO6431-7
 10
306.07138488559269
 20
-37.625851304408201
 30
0.0
 11
322.09438488559272
 21
-37.625851304408201
 31
0.0
  0
LINE
  5
345
  8
ZYL_50_ISO6431-7
 10
393.09488488559271
 20
-37.625851304408201
 30
0.0
 11
377.07188488559262
 21
-37.625851304408201
 31
0.0
  0
LINE
  5
346
  8
ZYL_50_ISO6431-4A
 10
320.82258488559268
 20
-16.446851304408192
 30
0.0
 11
312.40388488559262
 21
-24.86554130440819
 31
0.0
  0
LINE
  5
347
  8
ZYL_50_ISO6431-4A
 10
378.3428848855927
 20
-16.446851304408192
 30
0.0
 11
386.76188488559268
 21
-24.86554130440819
 31
0.0
  0
LINE
  5
348
  8
ZYL_50_ISO6431-4A
 10
319.76188488559268
 20
-15.3861513044082
 30
0.0
 11
311.34318488559262
 21
-23.80489130440818
 31
0.0
  0
LINE
  5
349
  8
ZYL_50_ISO6431-4A
 10
379.40388488559262
 20
-15.3861513044082
 30
0.0
 11
387.82288488559271
 21
-23.80489130440818
 31
0.0
  0
CIRCLE
  5
34A
  8
ZYL_50_ISO6431-4A
 10
316.0828848855927
 20
-20.12585130440819
 30
0.0
 40
6.0
  0
CIRCLE
  5
34B
  8
ZYL_50_ISO6431-4A
 10
383.0828848855927
 20
-20.12585130440819
 30
0.0
 40
6.0
  0
LINE
  5
34C
  8
ZYL_50_ISO6431-4A
 10
193.08538488559259
 20
-18.269051304408201
 30
0.0
 11
189.5828848855927
 21
-18.269051304408201
 31
0.0
  0
LINE
  5
34D
  8
ZYL_50_ISO6431-4A
 10
186.08038488559271
 20
-18.269051304408201
 30
0.0
 11
189.5828848855927
 21
-18.269051304408201
 31
0.0
  0
LINE
  5
34E
  8
ZYL_50_ISO6431-4A
 10
186.08038488559271
 20
-45.982651304408193
 30
0.0
 11
189.5828848855927
 21
-45.982651304408193
 31
0.0
  0
LINE
  5
34F
  8
ZYL_50_ISO6431-4A
 10
193.08538488559259
 20
-45.982651304408193
 30
0.0
 11
189.5828848855927
 21
-45.982651304408193
 31
0.0
  0
LINE
  5
350
  8
ZYL_50_ISO6431-4A
 10
193.08538488559259
 20
-25.19744130440818
 30
0.0
 11
189.5828848855927
 21
-25.19744130440818
 31
0.0
  0
LINE
  5
351
  8
ZYL_50_ISO6431-4A
 10
186.08038488559271
 20
-25.19744130440818
 30
0.0
 11
189.5828848855927
 21
-25.19744130440818
 31
0.0
  0
LINE
  5
352
  8
ZYL_50_ISO6431-4A
 10
186.08038488559271
 20
-39.054261304408207
 30
0.0
 11
189.5828848855927
 21
-39.054261304408207
 31
0.0
  0
LINE
  5
353
  8
ZYL_50_ISO6431-4A
 10
193.08538488559259
 20
-39.054261304408207
 30
0.0
 11
189.5828848855927
 21
-39.054261304408207
 31
0.0
  0
ARC
  5
354
  8
ZYL_50_ISO6431-4A
 10
144.59558488559259
 20
-32.125851304408201
 30
0.0
 40
48.982199999999999
 50
0.8594370000000001
 51
8.1316100000000002
  0
ARC
  5
355
  8
ZYL_50_ISO6431-4A
 10
234.57018488559271
 20
-32.125851304408201
 30
0.0
 40
48.982199999999999
 50
171.86799999999991
 51
179.14099999999991
  0
ARC
  5
356
  8
ZYL_50_ISO6431-4A
 10
234.57018488559271
 20
-32.125851304408201
 30
0.0
 40
48.982199999999999
 50
180.85900000000001
 51
188.13200000000001
  0
ARC
  5
357
  8
ZYL_50_ISO6431-4A
 10
144.59558488559259
 20
-32.125851304408201
 30
0.0
 40
48.982199999999999
 50
351.86838999999992
 51
359.14056299999999
  0
LINE
  5
358
  8
ZYL_50_ISO6431-4A
 10
193.57228488559269
 20
-31.391145304408209
 30
0.0
 11
193.57778488559271
 21
-32.125851304408201
 31
0.0
  0
LINE
  5
359
  8
ZYL_50_ISO6431-4A
 10
185.59348488559269
 20
-31.391145304408209
 30
0.0
 11
185.5879848855927
 21
-32.125851304408201
 31
0.0
  0
LINE
  5
35A
  8
ZYL_50_ISO6431-4A
 10
185.59348488559269
 20
-32.860557304408189
 30
0.0
 11
185.5879848855927
 21
-32.125851304408201
 31
0.0
  0
LINE
  5
35B
  8
ZYL_50_ISO6431-4A
 10
193.57228488559269
 20
-32.860557304408189
 30
0.0
 11
193.57778488559271
 21
-32.125851304408201
 31
0.0
  0
ARC
  5
35C
  8
ZYL_50_ISO6431-4A
 10
180.77638488559271
 20
-21.73325130440821
 30
0.0
 40
12.801500000000001
 50
344.28149999999988
 51
0.0
  0
ARC
  5
35D
  8
ZYL_50_ISO6431-4A
 10
198.38942488559269
 20
-21.73325130440821
 30
0.0
 40
12.7872
 50
180.0
 51
195.71899999999999
  0
ARC
  5
35E
  8
ZYL_50_ISO6431-4A
 10
198.38942488559269
 20
-42.518451304408188
 30
0.0
 40
12.801500000000001
 50
164.28099999999989
 51
180.0
  0
ARC
  5
35F
  8
ZYL_50_ISO6431-4A
 10
180.77638488559271
 20
-42.518451304408188
 30
0.0
 40
12.7872
 50
0.0
 51
15.71849999999999
  0
ARC
  5
360
  8
ZYL_50_ISO6431-4A
 10
180.77638488559271
 20
-21.73325130440821
 30
0.0
 40
12.7872
 50
0.0
 51
15.71849999999999
  0
ARC
  5
361
  8
ZYL_50_ISO6431-4A
 10
198.38942488559269
 20
-21.73325130440821
 30
0.0
 40
12.801500000000001
 50
164.28099999999989
 51
180.0
  0
ARC
  5
362
  8
ZYL_50_ISO6431-4A
 10
198.38942488559269
 20
-42.518451304408188
 30
0.0
 40
12.7872
 50
180.0
 51
195.71899999999999
  0
ARC
  5
363
  8
ZYL_50_ISO6431-4A
 10
180.77638488559271
 20
-42.518451304408188
 30
0.0
 40
12.801500000000001
 50
344.28149999999988
 51
0.0
  0
LINE
  5
364
  8
ZYL_50_ISO6431-4A
 10
193.57778488559271
 20
-21.73325130440821
 30
0.0
 11
193.57778488559271
 21
-32.125851304408201
 31
0.0
  0
LINE
  5
365
  8
ZYL_50_ISO6431-4A
 10
185.5879848855927
 20
-21.73325130440821
 30
0.0
 11
185.5879848855927
 21
-32.125851304408201
 31
0.0
  0
LINE
  5
366
  8
ZYL_50_ISO6431-4A
 10
185.5879848855927
 20
-42.518451304408188
 30
0.0
 11
185.5879848855927
 21
-32.125851304408201
 31
0.0
  0
LINE
  5
367
  8
ZYL_50_ISO6431-4A
 10
193.57778488559271
 20
-42.518451304408188
 30
0.0
 11
193.57778488559271
 21
-32.125851304408201
 31
0.0
  0
LINE
  5
36A
  8
ZYL_50_ISO6431-3
 10
517.3837111508451
 20
119.37939258397471
 30
0.0
 11
532.3837111508451
 21
119.37939258397471
 31
0.0
1001
GENIUS_GENBH_13
1002
{
1000
OE
1000
CON1
1002
}
1001
GENIUS_GENOREF_13
1005
C48
  0
LINE
  5
36B
  8
ZYL_50_ISO6431-4A
 10
549.8837111508451
 20
86.879392583974763
 30
0.0
 11
549.8837111508451
 21
110.12939258397471
 31
0.0
  0
ARC
  5
36C
  8
ZYL_50_ISO6431-4A
 10
540.6337111508451
 20
110.12939258397471
 30
0.0
 40
9.25
 50
0.0
 51
90.0
  0
LINE
  5
36D
  8
ZYL_50_ISO6431-4A
 10
549.8837111508451
 20
86.879392583974763
 30
0.0
 11
549.8837111508451
 21
63.629392583974777
 31
0.0
  0
LINE
  5
36E
  8
ZYL_50_ISO6431-4A
 10
517.3837111508451
 20
54.37939258397477
 30
0.0
 11
540.6337111508451
 21
54.37939258397477
 31
0.0
  0
ARC
  5
36F
  8
ZYL_50_ISO6431-4A
 10
540.6337111508451
 20
63.629392583974777
 30
0.0
 40
9.25
 50
270.0
 51
0.0
  0
LINE
  5
370
  8
ZYL_50_ISO6431-4A
 10
517.3837111508451
 20
54.37939258397477
 30
0.0
 11
494.1337111508451
 21
54.37939258397477
 31
0.0
  0
LINE
  5
371
  8
ZYL_50_ISO6431-4A
 10
484.88371115084499
 20
86.879392583974763
 30
0.0
 11
484.88371115084499
 21
63.629392583974777
 31
0.0
  0
ARC
  5
372
  8
ZYL_50_ISO6431-4A
 10
494.1337111508451
 20
63.629392583974777
 30
0.0
 40
9.25
 50
180.0
 51
270.0
  0
LINE
  5
373
  8
ZYL_50_ISO6431-4A
 10
484.88371115084499
 20
86.879392583974763
 30
0.0
 11
484.88371115084499
 21
110.12939258397471
 31
0.0
  0
LINE
  5
374
  8
ZYL_50_ISO6431-3
 10
517.3837111508451
 20
119.37939258397471
 30
0.0
 11
502.38371115084499
 21
119.37939258397471
 31
0.0
1001
GENIUS_GENBH_13
1002
{
1000
OE
1000
CON1
1002
}
1001
GENIUS_GENOREF_13
1005
C48
  0
ARC
  5
375
  8
ZYL_50_ISO6431-4A
 10
494.1337111508451
 20
110.12939258397471
 30
0.0
 40
9.25
 50
90.0
 51
180.0
  0
CIRCLE
  5
376
  8
ZYL_50_ISO6431-4A
 10
517.3837111508451
 20
86.879392583974763
 30
0.0
 40
10.0
  0
CIRCLE
  5
377
  8
ZYL_50_ISO6431-4A
 10
517.3837111508451
 20
86.879392583974763
 30
0.0
 40
8.0
  0
ARC
  5
378
  8
ZYL_50_ISO6431-4
 10
517.3837111508451
 20
86.879392583974763
 30
0.0
 40
7.07986
 50
200.0
 51
110.0
  0
LINE
  5
379
  8
ZYL_50_ISO6431-4A
 10
512.11588115084498
 20
95.379392583974763
 30
0.0
 11
522.65154115084511
 21
95.379392583974763
 31
0.0
  0
LINE
  5
37A
  8
ZYL_50_ISO6431-4A
 10
512.11588115084498
 20
78.379392583974777
 30
0.0
 11
522.65154115084511
 21
78.379392583974777
 31
0.0
  0
LINE
  5
39F
  8
ZYL_50_ISO6431-7
 10
522.88371115084499
 20
122.37939258397471
 30
0.0
 11
522.88371115084499
 21
112.8008925839748
 31
0.0
  0
LINE
  5
3A0
  8
ZYL_50_ISO6431-3
 10
516.30521115084514
 20
119.37939258397471
 30
0.0
 11
516.30521115084514
 21
112.8008925839748
 31
0.0
  0
LINE
  5
3A1
  8
ZYL_50_ISO6431-3
 10
517.16121115084513
 20
119.37939258397471
 30
0.0
 11
517.16121115084513
 21
112.8008925839748
 31
0.0
  0
LINE
  5
3A2
  8
ZYL_50_ISO6431-3
 10
529.46221115084495
 20
119.37939258397471
 30
0.0
 11
529.46221115084495
 21
112.8008925839748
 31
0.0
  0
LINE
  5
3A3
  8
ZYL_50_ISO6431-3
 10
528.60621115084496
 20
119.37939258397471
 30
0.0
 11
528.60621115084496
 21
112.8008925839748
 31
0.0
  0
LINE
  5
3A4
  8
ZYL_50_ISO6431-4A
 10
510.45551115084498
 20
98.879392583974777
 30
0.0
 11
503.52731115084509
 21
86.879391978291778
 31
0.0
  0
LINE
  5
3A5
  8
ZYL_50_ISO6431-4A
 10
503.52731115084509
 20
86.879391978291778
 30
0.0
 11
510.45551115084498
 21
74.879392583974777
 31
0.0
  0
LINE
  5
3A6
  8
ZYL_50_ISO6431-4A
 10
510.45551115084498
 20
74.879392583974777
 30
0.0
 11
524.31192115084514
 21
74.879392583974777
 31
0.0
  0
LINE
  5
3A7
  8
ZYL_50_ISO6431-4A
 10
524.31192115084514
 20
74.879392583974777
 30
0.0
 11
531.240111150845
 21
86.879392749210766
 31
0.0
  0
LINE
  5
3A8
  8
ZYL_50_ISO6431-4A
 10
531.240111150845
 20
86.879392749210766
 30
0.0
 11
524.31191115084505
 21
98.879392583974777
 31
0.0
  0
LINE
  5
3A9
  8
ZYL_50_ISO6431-4A
 10
510.45551115084498
 20
98.879392583974777
 30
0.0
 11
524.31191115084505
 21
98.879392583974777
 31
0.0
  0
CIRCLE
  5
3AA
  8
ZYL_50_ISO6431-4A
 10
517.3837111508451
 20
86.879392583974763
 30
0.0
 40
12.0
  0
CIRCLE
  5
3AB
  8
ZYL_50_ISO6431-4A
 10
517.3837111508451
 20
86.879392583974763
 30
0.0
 40
8.0749999999999993
  0
LINE
  5
4A8
  8
ZYL_50_ISO6431-4A
 10
214.58288488559231
 20
-22.125851304408201
 30
0.0
 11
205.58288488559259
 21
-22.125851304408201
 31
0.0
1001
GENIUS_GENOREF_13
1005
4AB
  0
LINE
  5
4A9
  8
ZYL_50_ISO6431-3
 10
214.58288488559231
 20
-42.125851304408201
 30
0.0
 11
268.0828848855927
 21
-42.125851304408201
 31
0.0
1001
GENIUS_GENBH_13
1002
{
1000
OE
1000
CON1
1002
}
1001
GENIUS_GENOREF_13
1005
4AB
  0
POINT
  5
4AB
  8
0
 10
0.0
 20
0.0
 30
0.0
1001
GENIUS_GENBH_13
1002
{
1000
FGO
1005
4AA
1002
}
1001
GENIUS_GENODEF_13
1002
{
1000
HIER
1070
     1
1002
}
1002
{
1000
MANEDIT
1070
     0
1002
}
1002
{
1000
NOSEL
1070
     1
1002
}
1002
{
1000
BEHIND
1070
     0
1002
}
1002
{
1000
REACTOR
1002
}
1001
GENIUS_GENOBJ-NBEHI-BHB_13
1002
{
1000
OWNER
1000
GENBEHI
1002
}
1001
GENIUS_GENOENT_13
1002
{
1000
MYREF
1005
4AB
1002
}
1002
{
1000
GRP
1005
0
1002
}
1001
GENIUS_GENOLIS_13
1002
{
1000
ENT
1005
4A9
1005
4A8
1005
306
1005
2F5
1005
2F7
1005
2F6
1005
313
1005
311
1002
}
  0
INSERT
  5
4F7
  8
MSL_F20_50-0
  2
*U28
 10
281.58288488559629
 20
-8.8758513044082008
 30
0.0
1001
GENIUS_GEFPARTINS_13
1002
{
1011
281.58288488559629
1021
0.0
1031
0.0
1021
-8.8758513044082008
1031
0.0
1013
1.0
1023
0.0
1033
0.0
1023
0.0
1033
0.0
1002
}
1001
GENIUS_GENBH_13
1002
{
1000
REFI
1005
534
1002
}
1001
VCC
1002
{
1002
}
1001
GEVIT
1002
{
1000
-BEHI10.00000002
1000
-BVCCT0
1000
-GRP0MSL_F20_50-0
1000
-BAML2
1000
-BASK1
1000
-NT0
1000
-DOC
1005
4B7
1000
-MYREF
1005
4F7
1002
}
1001
GEVPT
1002
{
1000
-V$PV_GENSYSTEM"GEF\VAL\DI\0301\DI1602_V.DXF"
1000
-FIXP$VCC_TABLE=C:\GENIUS\gef\val\di\0301\di1602.val
1000
-FIXP$TABLE=C:\GENIUS\gef\val\di\0301\di1602.val
1000
-FIXPLOTI=14.9999999999964
1000
-GPGEF_PROCALC=1
1000
-GPGEF_SNK_ADD=0
1000
-GPGEVPROMPTX=Länge:
1000
-GPGEF_OANG=70
1000
-GPGEF_STANG=210
1000
-GPGEF_DRAG=1
1000
-GPGEF_CDIST=3
1000
-GPGL2=0
1000
-GPGL1=0
1000
-GPGEF_FLIPY=2
1000
-GPGEF_FLIPX=2
1000
-GPHIDE=0
1000
-GPGEVBHOP=2
1000
-GPSELMODE=1
1000
-GPPTC=1.25
1000
-GPPRE=M
1000
-GPEGR=1
1000
-GPTPU=1.25
1000
-GPNND=8
1002
}
1001
GEVID884349227
1002
{
1000
-ID31
1002
}
1001
GENIUS_GENOREF_13
1005
52A
1005
52D
1005
55F
1005
561
  0
INSERT
  5
523
  8
MSL_F20_50-0
  2
*U26
 10
281.58288488559629
 20
-8.8758513044082008
 30
0.0
1001
GENIUS_GEFPARTINS_13
1002
{
1011
281.58288488559629
1021
0.0
1031
0.0
1021
-8.8758513044082008
1031
0.0
1013
1.0
1023
0.0
1033
0.0
1023
0.0
1033
0.0
1002
}
1001
VCC
1002
{
1002
}
1001
GEVIT
1002
{
1000
-BEHI10.00000004
1000
-BVCCT0
1000
-GRP0MSL_F20_50-0
1000
-BAML2
1000
-BASK1
1000
-NT0
1000
-DOC
1005
4E5
1000
-MYREF
1005
523
1002
}
1001
GEVPT
1002
{
1000
-V$PV_GENSYSTEM"GEF\VAL\SYS\SPOCK2_S.DXF"
1000
-FIXPL=14.9999999999964
1000
-FIXPH=4.5
1000
-GPGEF_PROCALC=1
1000
-GPGEF_SNK_ADD=0
1000
-GPGEVPROMPTX=Länge:
1000
-GPGEF_OANG=70
1000
-GPGEF_STANG=210
1000
-GPGEF_DRAG=1
1000
-GPGEF_CDIST=3
1000
-GPGL2=0
1000
-GPGL1=0
1000
-GPGEF_FLIPY=2
1000
-GPGEF_FLIPX=2
1000
-GPHIDE=0
1000
-GPGEVBHOP=2
1000
-GPSELMODE=1
1000
-GPPTC=1.25
1000
-GPPRE=M
1000
-GPEGR=1
1000
-GPTPU=1.25
1000
-GPNND=8
1002
}
1001
GEVID884349227
1002
{
1000
-ID54
1002
}
1001
GENIUS_GENOREF_13
1005
55E
1005
561
  0
INSERT
  5
529
  8
MSL_F20_50-0N
  2
*U27
 10
281.58288488559629
 20
-8.8758513044082008
 30
0.0
1001
GENIUS_GEFPARTINS_13
1002
{
1011
281.58288488559629
1021
0.0
1031
0.0
1021
-8.8758513044082008
1031
0.0
1013
1.0
1023
0.0
1033
0.0
1023
0.0
1033
0.0
1002
}
1001
VCC
1002
{
1000
-ID10
1000
-IE10
1000
-IK10
1000
-V$PV_GENSYSTEM"GEF\VAL\SYS\DUDUS_S.DXF"
1002
}
1001
GEVIT
1002
{
1000
-BEHI10.00000001
1000
-BVCCT0
1000
-GRP0?
1000
-BAML2
1000
-BASK1
1000
-DOC
1005
4EC
1000
-MYREF
1005
529
1002
}
1001
GEVPT
1002
{
1000
-V$PV_GENSYSTEM"GEF\VAL\SYS\DUDUS_S.DXF"
1000
-FIXPGL2=0
1000
-FIXPPART10=0
1000
-FIXPPART9=0
1000
-FIXPPART8=0
1000
-FIXPPART7=0
1000
-FIXPPART6=0
1000
-FIXPPART5=0
1000
-FIXPDXF4=C:\GENIUS\gef\val\di\0301\di1602_v.dxf
1000
-FIXPTABLE4=C:\GENIUS\gef\val\di\0301\di1602.val
1000
-FIXPPART4=1
1000
-FIXPTABLE3=C:\GENIUS\gef\val\sys\mrbean.val
1000
-FIXPPART3=0
1000
-FIXPTABLE2=C:\GENIUS\gef\val\sys\mrbean.val
1000
-FIXPPART2=0
1000
-FIXPSCRID=2
1000
-FIXPDXF1=C:\GENIUS\gef\val\di\0101\di2401_v.dxf
1000
-FIXPTABLE1=C:\GENIUS\gef\val\di\0101\di2401.val
1000
-FIXPPART1=1
1000
-FIXPSPOCK1=C:\GENIUS\GEF\VAL\SYS\SPOCK2_S.DXF
1000
-FIXPHIDE=1
1000
-FIXPGL1=14.9999999999964
1000
-GPGEF_PROCALC=1
1000
-GPGEF_SNK_ADD=0
1000
-GPGEVPROMPTX=Länge:
1000
-GPGEF_OANG=70
1000
-GPGEF_STANG=210
1000
-GPGEF_DRAG=1
1000
-GPGEF_CDIST=3
1000
-GPGL2=0
1000
-GPGL1=0
1000
-GPGEF_FLIPY=2
1000
-GPGEF_FLIPX=2
1000
-GPHIDE=0
1000
-GPGEVBHOP=2
1000
-GPSELMODE=1
1000
-GPPTC=1.25
1000
-GPPRE=M
1000
-GPEGR=1
1000
-GPTPU=1.25
1000
-GPNND=8
1002
}
1001
GEVID884349227
1002
{
1002
}
1001
GENIUS_GENOREF_13
1005
52B
1005
52D
1005
55F
1005
561
  0
POINT
  5
52A
  8
0
 10
0.0
 20
0.0
 30
0.0
1001
GENIUS_GENBH_13
1002
{
1000
BGO
1005
52B
1002
}
1002
{
1000
FGLEVEL
1040
10.000000019999989
1002
}
1002
{
1000
FLAGS
1070
    36
1002
}
1002
{
1000
OIUMAP
1000
OIU
1002
}
1002
{
1000
MODIFY
1070
     0
1002
}
1001
GENIUS_GENODEF_13
1002
{
1000
HIER
1070
     1
1002
}
1002
{
1000
MANEDIT
1070
     0
1002
}
1002
{
1000
NOSEL
1070
     1
1002
}
1002
{
1000
BEHIND
1070
     1
1002
}
1002
{
1000
REACTOR
1002
}
1001
GENIUS_GENOBJ-NBEHI-BHF_13
1002
{
1000
OWNER
1000
GENBEHI
1002
}
1001
GENIUS_GENOENT_13
1002
{
1000
MYREF
1005
52A
1002
}
1002
{
1000
GRP
1005
0
1002
}
1001
GENIUS_GENOLIS_13
1002
{
1000
ENT
1005
4F7
1002
}
  0
POINT
  5
52B
  8
0
 10
0.0
 20
0.0
 30
0.0
1001
GENIUS_GENBH_13
1002
{
1000
FGO
1005
52A
1002
}
1001
GENIUS_GENODEF_13
1002
{
1000
HIER
1070
     1
1002
}
1002
{
1000
MANEDIT
1070
     0
1002
}
1002
{
1000
NOSEL
1070
     1
1002
}
1002
{
1000
BEHIND
1070
     0
1002
}
1002
{
1000
REACTOR
1002
}
1001
GENIUS_GENOBJ-NBEHI-BHB_13
1002
{
1000
OWNER
1000
GENBEHI
1002
}
1001
GENIUS_GENOENT_13
1002
{
1000
MYREF
1005
52B
1002
}
1002
{
1000
GRP
1005
0
1002
}
1001
GENIUS_GENOLIS_13
1002
{
1000
ENT
1005
529
1002
}
  0
POINT
  5
52C
  8
0
 10
0.0
 20
0.0
 30
0.0
1001
GENIUS_GENBH_13
1002
{
1000
BGO
1005
52D
1002
}
1002
{
1000
FGLEVEL
1040
10.000000030000001
1002
}
1002
{
1000
FLAGS
1070
    36
1002
}
1002
{
1000
OIUMAP
1000
OIU
1002
}
1002
{
1000
MODIFY
1070
     0
1002
}
1001
GENIUS_GENODEF_13
1002
{
1000
HIER
1070
     1
1002
}
1002
{
1000
MANEDIT
1070
     0
1002
}
1002
{
1000
NOSEL
1070
     1
1002
}
1002
{
1000
BEHIND
1070
     1
1002
}
1002
{
1000
REACTOR
1002
}
1001
GENIUS_GENOBJ-NBEHI-BHF_13
1002
{
1000
OWNER
1000
GENBEHI
1002
}
1001
GENIUS_GENOENT_13
1002
{
1000
MYREF
1005
52C
1002
}
1002
{
1000
GRP
1005
0
1002
}
1001
GENIUS_GENOLIS_13
1002
{
1000
ENT
1005
606
1002
}
  0
POINT
  5
52D
  8
0
 10
0.0
 20
0.0
 30
0.0
1001
GENIUS_GENBH_13
1002
{
1000
FGO
1005
52C
1002
}
1001
GENIUS_GENODEF_13
1002
{
1000
HIER
1070
     1
1002
}
1002
{
1000
MANEDIT
1070
     0
1002
}
1002
{
1000
NOSEL
1070
     1
1002
}
1002
{
1000
BEHIND
1070
     1
1002
}
1002
{
1000
REACTOR
1002
}
1001
GENIUS_GENOBJ-NBEHI-BHB_13
1002
{
1000
OWNER
1000
GENBEHI
1002
}
1001
GENIUS_GENOENT_13
1002
{
1000
MYREF
1005
52D
1002
}
1002
{
1000
GRP
1005
0
1002
}
1001
GENIUS_GENOLIS_13
1002
{
1000
ENT
1005
4F7
1005
529
1002
}
  0
POINT
  5
55E
  8
0
 10
0.0
 20
0.0
 30
0.0
1001
GENIUS_GENBH_13
1002
{
1000
BGO
1005
55F
1002
}
1002
{
1000
FGLEVEL
1040
10.00000004
1002
}
1002
{
1000
FLAGS
1070
    36
1002
}
1002
{
1000
OIUMAP
1000
OIU
1002
}
1002
{
1000
MODIFY
1070
     0
1002
}
1001
GENIUS_GENODEF_13
1002
{
1000
HIER
1070
     1
1002
}
1002
{
1000
MANEDIT
1070
     0
1002
}
1002
{
1000
NOSEL
1070
     1
1002
}
1002
{
1000
BEHIND
1070
     0
1002
}
1002
{
1000
REACTOR
1002
}
1001
GENIUS_GENOBJ-NBEHI-BHF_13
1002
{
1000
OWNER
1000
GENBEHI
1002
}
1001
GENIUS_GENOENT_13
1002
{
1000
MYREF
1005
55E
1002
}
1002
{
1000
GRP
1005
0
1002
}
1001
GENIUS_GENOLIS_13
1002
{
1000
ENT
1005
523
1002
}
  0
POINT
  5
55F
  8
0
 10
0.0
 20
0.0
 30
0.0
1001
GENIUS_GENBH_13
1002
{
1000
FGO
1005
55E
1002
}
1001
GENIUS_GENODEF_13
1002
{
1000
HIER
1070
     1
1002
}
1002
{
1000
MANEDIT
1070
     0
1002
}
1002
{
1000
NOSEL
1070
     1
1002
}
1002
{
1000
BEHIND
1070
     0
1002
}
1002
{
1000
REACTOR
1002
}
1001
GENIUS_GENOBJ-NBEHI-BHB_13
1002
{
1000
OWNER
1000
GENBEHI
1002
}
1001
GENIUS_GENOENT_13
1002
{
1000
MYREF
1005
55F
1002
}
1002
{
1000
GRP
1005
0
1002
}
1001
GENIUS_GENOLIS_13
1002
{
1000
ENT
1005
606
1005
4F7
1005
529
1002
}
  0
LINE
  5
560
  8
MSL_F20_50-7AN
 10
314.58288488559629
 20
-8.8758513044082008
 30
0.0
 11
270.58288488559617
 21
-8.8758513044082008
 31
0.0
1001
GENIUS_GEFPARTINS_13
1002
{
1011
281.58288488559629
1021
0.0
1031
0.0
1021
-8.8758513044082008
1031
0.0
1013
1.0
1023
0.0
1033
0.0
1023
0.0
1033
0.0
1002
}
1001
GENIUS_GENOREF_13
1005
561
  0
POINT
  5
561
  8
0
 10
0.0
 20
0.0
 30
0.0
1001
GENIUS_GENODEF_13
1002
{
1000
HIER
1070
   200
1002
}
1002
{
1000
MANEDIT
1070
     0
1002
}
1002
{
1000
NOSEL
1070
     0
1002
}
1002
{
1000
BEHIND
1070
     0
1002
}
1002
{
1000
REACTOR
1002
}
1001
GENIUS_GEFSTDP_13
1002
{
1000
DSC
1002
{
1002
{
1002
}
1002
}
1002
}
1002
{
1000
SCP
1002
{
1000
TYPE
1000
SCP
1002
}
1002
{
1000
GMODE
1070
     1
1002
}
1002
{
1000
DMODE
1070
     0
1002
}
1002
{
1000
SSIZE
1002
{
1002
{
1000
NND
1000
TPU
1000
PTC
1000
CON
1000
EGR
1000
PRE
1002
}
1002
{
1040
8.0
1040
1.25
1040
1.25
1000
x
1000
1
1000
M
1002
}
1002
}
1002
}
1002
{
1000
ASIZE
1002
{
1002
{
1000
NND
1000
TPU
1000
EGR
1000
PRE
1000
PTC
1002
}
1002
{
1040
8.0
1040
1.25
1000
1
1000
M
1040
1.25
1002
}
1002
}
1002
}
1002
{
1000
VIEW
1070
     2
1002
}
1002
{
1000
1
1002
{
1002
{
1000
SFILE
1000
$PV_GENSYSTEM"gef\val\di\0101\di2401_v.dxf"
1002
}
1002
{
1000
ST1
1000
$PV_GENSYSTEM"gef\val\di\0101\di2401.val"
1002
}
1002
{
1000
ASSO
1000
DIN_912
1002
}
1002
{
1000
VIEW
1000
V
1002
}
1002
{
1000
SSTATUS
1000
~T
1002
}
1002
{
1000
GROUP
1000
0101
1002
}
1002
}
1002
}
1002
{
1000
4
1002
{
1002
{
1000
SFILE
1000
$PV_GENSYSTEM"gef\val\di\0301\di1602_v.dxf"
1002
}
1002
{
1000
ST1
1000
$PV_GENSYSTEM"gef\val\di\0301\di1602.val"
1002
}
1002
{
1000
ASSO
1000
 
1002
}
1002
{
1000
VIEW
1000
V
1002
}
1002
{
1000
SSTATUS
1000
~T
1002
}
1002
{
1000
GROUP
1000
0301
1002
}
1002
}
1002
}
1002
}
1002
{
1000
DSC1
1000
DSC1
1002
{
1000
~DESCR1
1000
 
1000
~BORE1
1000
 x 
1000
~GL1
1002
}
1002
}
1002
{
1000
DSC2
1000
DSC2
1002
{
1000
~DESCR2
1000
 
1000
~BORE2
1000
 x 
1000
~GL2
1002
}
1002
}
1002
{
1000
KEY
1000
SCP
1002
}
1002
{
1000
INS
1002
{
1040
281.58288488559629
1040
-8.8758513044082008
1040
0.0
1002
}
1002
}
1002
{
1000
ANG
1040
0.0
1002
}
1002
{
1000
VCC
1002
{
1000
$NND=8.000000000000000E+00
1000
$TPU=1.250000000000000E+00
1000
$EGR=1
1000
$PRE=M
1000
$PTC=1.250000000000000E+00
1000
$SELMODE=1
1000
-V$PV_GENSYSTEM"gef\val\sys\dudus_s.dxf
1000
-LPHIDE=1
1000
$GEVBHOP=2
1000
-LPSPOCK1=C:\GENIUS\GEF\VAL\SYS\SPOCK2_S.DXF
1000
$HIDE=0
1000
-LPPART1=1
1000
-LPTABLE1=$PV_GENSYSTEM"gef\val\di\0101\di2401.val"
1000
-LPDXF1=$PV_GENSYSTEM"gef\val\di\0101\di2401_v.dxf"
1000
-LPSCRID=2
1000
-LPPART2=0
1000
-LPTABLE2=$PV_GENSYSTEM"gef\val\sys\mrbean.val
1000
-LPPART3=0
1000
-LPTABLE3=$PV_GENSYSTEM"gef\val\sys\mrbean.val
1000
-LPPART4=1
1000
-LPTABLE4=$PV_GENSYSTEM"gef\val\di\0301\di1602.val"
1000
-LPDXF4=$PV_GENSYSTEM"gef\val\di\0301\di1602_v.dxf"
1000
-LPPART5=0
1000
-LPPART6=0
1000
-LPPART7=0
1000
-LPPART8=0
1000
-LPPART9=0
1000
-LPPART10=0
1000
$GEF_FLIPX=2
1000
$GEF_FLIPY=2
1000
$GL1=0
1000
$GL2=0
1000
-GRPNAME1MSL_F20_50-0
1000
-LPGL1=1.499999999999642E+01
1000
-LPGL2=0
1000
-GRPNAME2MSL_F20_50-0
1000
-RBSTDRD
1000
-RBDESCR1
1000
-RBDESCR2
1000
-RBBORE1
1000
-RBBORE2
1000
-RBGL1
1000
-RBGL2
1000
-RBBORED
1000
-RBHEADD
1000
-RBCDEP
1000
-RBCANG
1000
$GEF_CDIST=3.000000000000000E+00
1000
$GEF_DRAG=1
1000
$GEF_STANG=2.100000000000000E+02
1000
$GEF_OANG=7.000000000000000E+01
1000
$GEVPROMPTX= Länge: 
1000
$GEF_SNK_ADD=0.000000000000000E+00
1000
-GRPNAME0?
1000
-BAML2
1000
$GEF_PROCALC=1
1002
}
1002
}
1002
{
1000
LST
1002
{
1002
{
1002
}
1002
}
1002
}
1002
{
1000
RET
1002
{
1002
{
1000
CANG
1002
}
1002
{
1000
CDEP
1002
}
1002
{
1000
HEADD
1002
}
1002
{
1000
BORED
1002
}
1002
{
1000
GL2
1000
0
1002
}
1002
{
1000
GL1
1000
14.9999999999964
1002
}
1002
{
1000
BORE2
1002
}
1002
{
1000
BORE1
1000
DIN EN 20273 - M8 - H13
1002
}
1002
{
1000
DESCR2
1002
}
1002
{
1000
DESCR1
1000
Durchgangsloch
1002
}
1002
{
1000
STDRD
1002
}
1002
}
1002
}
1002
{
1000
SYSTEM
1040
1.0
1002
}
1002
{
1000
INFEL
1002
{
1005
59A
1002
}
1002
}
1001
GENIUS_GENOBJ-F-PART_13
1002
{
1000
OWNER
1000
GEF
1002
}
1001
GENIUS_GENOENT_13
1002
{
1000
MYREF
1005
561
1002
}
1002
{
1000
GRP
1005
0
1002
}
1001
GENIUS_GENOLIS_13
1002
{
1000
ENT
1005
560
1005
529
1005
523
1005
606
1005
4F7
1002
}
  0
INSERT
  5
606
  8
MSL_F20_50-0N
  2
*U29
 10
281.58288488559629
 20
-8.8758513044082008
 30
0.0
1001
GENIUS_GEFPARTINS_13
1002
{
1011
281.58288488559629
1021
0.0
1031
0.0
1021
-8.8758513044082008
1031
0.0
1013
1.0
1023
0.0
1033
0.0
1023
0.0
1033
0.0
1002
}
1001
GENIUS_GENBH_13
1002
{
1000
REFI
1005
55C
1002
}
1001
VCC
1002
{
1002
}
1001
GEVIT
1002
{
1000
-BEHI10.00000003
1000
-BVCCT0
1000
-GRP0?
1000
-BAML2
1000
-BASK1
1000
-NT1
1000
-DOC
1005
4C2
1000
-MYREF
1005
606
1002
}
1001
GEVPT
1002
{
1000
-V$PV_GENSYSTEM"GEF\VAL\DI\0101\DI2401_V.DXF"
1000
-FIXP$VCC_TABLE=C:\GENIUS\gef\val\di\0101\di2401.val
1000
-FIXP$TABLE=C:\GENIUS\gef\val\di\0101\di2401.val
1000
-FIXPNLGMIN=22.9999999999964
1000
-FIXPSHLMAX=14.9999999999964
1000
-FIXPKFDYN=0
1000
-INPPVCCTAB_DYN1=31.934901,0.870845,0,0
1000
-GPGEF_PROCALC=1
1000
-GPGEF_SNK_ADD=0
1000
-GPGEVPROMPTX=Länge:
1000
-GPGEF_OANG=70
1000
-GPGEF_STANG=210
1000
-GPGEF_DRAG=1
1000
-GPGEF_CDIST=3
1000
-GPGL2=0
1000
-GPGL1=0
1000
-GPGEF_FLIPY=2
1000
-GPGEF_FLIPX=2
1000
-GPHIDE=0
1000
-GPGEVBHOP=2
1000
-GPSELMODE=1
1000
-GPPTC=1.25
1000
-GPPRE=M
1000
-GPEGR=1
1000
-GPTPU=1.25
1000
-GPNND=8
1002
}
1001
GEVID884349227
1002
{
1000
-ID26
1002
}
1001
GENIUS_GENOREF_13
1005
52C
1005
55F
1005
561
  0
INSERT
  5
608
  8
MSL_F20_50-0N
  2
*U37
 10
281.58288488559629
 20
-55.375851304408201
 30
0.0
 41
-1.0
 50
180.0
1001
GENIUS_GEFPARTINS_13
1002
{
1011
281.58288488559629
1021
0.0
1031
0.0
1021
-55.375851304408201
1031
0.0
1013
1.0
1023
0.0
1033
0.0
1023
0.0
1033
0.0
1002
}
1001
GENIUS_GENBH_13
1002
{
1000
REFI
1005
55C
1002
}
1001
GEVPT
1002
{
1000
-V$PV_GENSYSTEM"GEF\VAL\DI\0101\DI2401_V.DXF"
1000
-FIXP$VCC_TABLE=C:\GENIUS\gef\val\di\0101\di2401.val
1000
-FIXP$TABLE=C:\GENIUS\gef\val\di\0101\di2401.val
1000
-FIXPNLGMIN=22.9999999999964
1000
-FIXPSHLMAX=14.9999999999964
1000
-FIXPKFDYN=0
1000
-INPPVCCTAB_DYN1=31.934901,0.870845,0,0
1000
-GPGEF_PROCALC=1
1000
-GPGEF_SNK_ADD=0
1000
-GPGEVPROMPTX=Länge:
1000
-GPGEF_OANG=70
1000
-GPGEF_STANG=210
1000
-GPGEF_DRAG=1
1000
-GPGEF_CDIST=3
1000
-GPGL2=0
1000
-GPGL1=0
1000
-GPGEF_FLIPY=2
1000
-GPGEF_FLIPX=2
1000
-GPHIDE=0
1000
-GPGEVBHOP=2
1000
-GPSELMODE=1
1000
-GPPTC=1.25
1000
-GPPRE=M
1000
-GPEGR=1
1000
-GPTPU=1.25
1000
-GPNND=8
1002
}
1001
GENIUS_GENOREF_13
1005
617
1005
616
1005
615
1001
VCC
1002
{
1002
}
1001
GEVIT
1002
{
1000
-BEHI10.00000003
1000
-BVCCT0
1000
-GRP0?
1000
-BAML2
1000
-BASK1
1000
-NT1
1000
-DOC
1005
63F
1000
-MYREF
1005
608
1002
}
1001
GEVMK
1002
{
1000
-CO
1000
-MYREF
1005
608
1002
}
1001
GEVID884360803
1002
{
1000
-ID26
1002
}
  0
LINE
  5
609
  8
MSL_F20_50-7AN
 10
314.58288488559629
 20
-55.375851304408201
 30
0.0
 11
270.58288488559617
 21
-55.375851304408201
 31
0.0
1001
GENIUS_GEFPARTINS_13
1002
{
1011
281.58288488559629
1021
0.0
1031
0.0
1021
-55.375851304408201
1031
0.0
1013
1.0
1023
0.0
1033
0.0
1023
0.0
1033
0.0
1002
}
1001
GENIUS_GENOREF_13
1005
615
  0
LINE
  5
60A
  8
MSL_F20_50-3
 10
296.5828848855927
 20
-59.375851304408201
 30
0.0
 11
313.58288488559259
 21
-59.375851304408201
 31
0.0
  0
LINE
  5
60B
  8
MSL_F20_50-3
 10
296.5828848855927
 20
-58.608851304408198
 30
0.0
 11
313.58288488559259
 21
-58.608851304408198
 31
0.0
  0
LINE
  5
60C
  8
MSL_F20_50-3
 10
296.5828848855927
 20
-51.375851304408201
 30
0.0
 11
313.58288488559259
 21
-51.375851304408201
 31
0.0
  0
LINE
  5
60D
  8
MSL_F20_50-3
 10
296.5828848855927
 20
-52.142851304408197
 30
0.0
 11
313.58288488559259
 21
-52.142851304408197
 31
0.0
  0
INSERT
  5
60E
  8
MSL_F20_50-0
  2
*U35
 10
281.58288488559629
 20
-55.375851304408201
 30
0.0
 41
-1.0
 50
180.0
1001
GENIUS_GEFPARTINS_13
1002
{
1011
281.58288488559629
1021
0.0
1031
0.0
1021
-55.375851304408201
1031
0.0
1013
1.0
1023
0.0
1033
0.0
1023
0.0
1033
0.0
1002
}
1001
GENIUS_GENBH_13
1002
{
1000
REFI
1005
534
1002
}
1001
GEVPT
1002
{
1000
-V$PV_GENSYSTEM"GEF\VAL\DI\0301\DI1602_V.DXF"
1000
-FIXP$VCC_TABLE=C:\GENIUS\gef\val\di\0301\di1602.val
1000
-FIXP$TABLE=C:\GENIUS\gef\val\di\0301\di1602.val
1000
-FIXPLOTI=14.9999999999964
1000
-GPGEF_PROCALC=1
1000
-GPGEF_SNK_ADD=0
1000
-GPGEVPROMPTX=Länge:
1000
-GPGEF_OANG=70
1000
-GPGEF_STANG=210
1000
-GPGEF_DRAG=1
1000
-GPGEF_CDIST=3
1000
-GPGL2=0
1000
-GPGL1=0
1000
-GPGEF_FLIPY=2
1000
-GPGEF_FLIPX=2
1000
-GPHIDE=0
1000
-GPGEVBHOP=2
1000
-GPSELMODE=1
1000
-GPPTC=1.25
1000
-GPPRE=M
1000
-GPEGR=1
1000
-GPTPU=1.25
1000
-GPNND=8
1002
}
1001
GENIUS_GENOREF_13
1005
614
1005
613
1005
616
1005
615
1001
VCC
1002
{
1002
}
1001
GEVIT
1002
{
1000
-BEHI10.00000002
1000
-BVCCT0
1000
-GRP0MSL_F20_50-0
1000
-BAML2
1000
-BASK1
1000
-NT0
1000
-DOC
1005
62F
1000
-MYREF
1005
60E
1002
}
1001
GEVMK
1002
{
1000
-CO
1000
-MYREF
1005
60E
1002
}
1001
GEVID884360803
1002
{
1000
-ID31
1002
}
  0
INSERT
  5
60F
  8
MSL_F20_50-0N
  2
*U33
 10
281.58288488559629
 20
-55.375851304408201
 30
0.0
 41
-1.0
 50
180.0
1001
GENIUS_GEFPARTINS_13
1002
{
1011
281.58288488559629
1021
0.0
1031
0.0
1021
-55.375851304408201
1031
0.0
1013
1.0
1023
0.0
1033
0.0
1023
0.0
1033
0.0
1002
}
1001
GEVPT
1002
{
1000
-V$PV_GENSYSTEM"GEF\VAL\SYS\DUDUS_S.DXF"
1000
-FIXPGL2=0
1000
-FIXPPART10=0
1000
-FIXPPART9=0
1000
-FIXPPART8=0
1000
-FIXPPART7=0
1000
-FIXPPART6=0
1000
-FIXPPART5=0
1000
-FIXPDXF4=C:\GENIUS\gef\val\di\0301\di1602_v.dxf
1000
-FIXPTABLE4=C:\GENIUS\gef\val\di\0301\di1602.val
1000
-FIXPPART4=1
1000
-FIXPTABLE3=C:\GENIUS\gef\val\sys\mrbean.val
1000
-FIXPPART3=0
1000
-FIXPTABLE2=C:\GENIUS\gef\val\sys\mrbean.val
1000
-FIXPPART2=0
1000
-FIXPSCRID=2
1000
-FIXPDXF1=C:\GENIUS\gef\val\di\0101\di2401_v.dxf
1000
-FIXPTABLE1=C:\GENIUS\gef\val\di\0101\di2401.val
1000
-FIXPPART1=1
1000
-FIXPSPOCK1=C:\GENIUS\GEF\VAL\SYS\SPOCK2_S.DXF
1000
-FIXPHIDE=1
1000
-FIXPGL1=14.9999999999964
1000
-GPGEF_PROCALC=1
1000
-GPGEF_SNK_ADD=0
1000
-GPGEVPROMPTX=Länge:
1000
-GPGEF_OANG=70
1000
-GPGEF_STANG=210
1000
-GPGEF_DRAG=1
1000
-GPGEF_CDIST=3
1000
-GPGL2=0
1000
-GPGL1=0
1000
-GPGEF_FLIPY=2
1000
-GPGEF_FLIPX=2
1000
-GPHIDE=0
1000
-GPGEVBHOP=2
1000
-GPSELMODE=1
1000
-GPPTC=1.25
1000
-GPPRE=M
1000
-GPEGR=1
1000
-GPTPU=1.25
1000
-GPNND=8
1002
}
1001
GENIUS_GENOREF_13
1005
612
1005
613
1005
616
1005
615
1001
VCC
1002
{
1000
-ID11
1000
-IE10
1000
-IK11
1000
-V$PV_GENSYSTEM"GEF\VAL\SYS\DUDUS_S.DXF"
1002
}
1001
GEVIT
1002
{
1000
-BEHI10.00000001
1000
-BVCCT0
1000
-GRP0?
1000
-BAML2
1000
-BASK1
1000
-DOC
1005
625
1000
-MYREF
1005
60F
1002
}
1001
GEVMK
1002
{
1000
-CO
1000
-MYREF
1005
60F
1002
}
1001
GEVID884360803
1002
{
1002
}
  0
INSERT
  5
610
  8
MSL_F20_50-0
  2
*U31
 10
281.58288488559629
 20
-55.375851304408201
 30
0.0
 41
-1.0
 50
180.0
1001
GENIUS_GEFPARTINS_13
1002
{
1011
281.58288488559629
1021
0.0
1031
0.0
1021
-55.375851304408201
1031
0.0
1013
1.0
1023
0.0
1033
0.0
1023
0.0
1033
0.0
1002
}
1001
GEVPT
1002
{
1000
-V$PV_GENSYSTEM"GEF\VAL\SYS\SPOCK2_S.DXF"
1000
-FIXPL=14.9999999999964
1000
-FIXPH=4.5
1000
-GPGEF_PROCALC=1
1000
-GPGEF_SNK_ADD=0
1000
-GPGEVPROMPTX=Länge:
1000
-GPGEF_OANG=70
1000
-GPGEF_STANG=210
1000
-GPGEF_DRAG=1
1000
-GPGEF_CDIST=3
1000
-GPGL2=0
1000
-GPGL1=0
1000
-GPGEF_FLIPY=2
1000
-GPGEF_FLIPX=2
1000
-GPHIDE=0
1000
-GPGEVBHOP=2
1000
-GPSELMODE=1
1000
-GPPTC=1.25
1000
-GPPRE=M
1000
-GPEGR=1
1000
-GPTPU=1.25
1000
-GPNND=8
1002
}
1001
GENIUS_GENOREF_13
1005
611
1005
615
1001
VCC
1002
{
1002
}
1001
GEVIT
1002
{
1000
-BEHI10.00000004
1000
-BVCCT0
1000
-GRP0MSL_F20_50-0
1000
-BAML2
1000
-BASK1
1000
-NT0
1000
-DOC
1005
619
1000
-MYREF
1005
610
1002
}
1001
GEVMK
1002
{
1000
-CO
1000
-MYREF
1005
610
1002
}
1001
GEVID884360803
1002
{
1000
-ID54
1002
}
  0
POINT
  5
611
  8
0
 10
0.0
 20
0.0
 30
0.0
1001
GENIUS_GENBH_13
1002
{
1000
BGO
1005
616
1002
}
1002
{
1000
FGLEVEL
1040
10.00000004
1002
}
1002
{
1000
FLAGS
1070
    36
1002
}
1002
{
1000
OIUMAP
1000
OIU
1002
}
1002
{
1000
MODIFY
1070
     0
1002
}
1001
GENIUS_GENODEF_13
1002
{
1000
HIER
1070
     1
1002
}
1002
{
1000
MANEDIT
1070
     0
1002
}
1002
{
1000
NOSEL
1070
     1
1002
}
1002
{
1000
BEHIND
1070
     0
1002
}
1002
{
1000
REACTOR
1002
}
1001
GENIUS_GENOBJ-NBEHI-BHF_13
1002
{
1000
OWNER
1000
GENBEHI
1002
}
1001
GENIUS_GENOENT_13
1002
{
1000
MYREF
1005
611
1002
}
1002
{
1000
GRP
1005
0
1002
}
1001
GENIUS_GENOLIS_13
1002
{
1000
ENT
1005
610
1002
}
  0
POINT
  5
612
  8
0
 10
0.0
 20
0.0
 30
0.0
1001
GENIUS_GENBH_13
1002
{
1000
FGO
1005
614
1002
}
1001
GENIUS_GENODEF_13
1002
{
1000
HIER
1070
     1
1002
}
1002
{
1000
MANEDIT
1070
     0
1002
}
1002
{
1000
NOSEL
1070
     1
1002
}
1002
{
1000
BEHIND
1070
     0
1002
}
1002
{
1000
REACTOR
1002
}
1001
GENIUS_GENOBJ-NBEHI-BHB_13
1002
{
1000
OWNER
1000
GENBEHI
1002
}
1001
GENIUS_GENOENT_13
1002
{
1000
MYREF
1005
612
1002
}
1002
{
1000
GRP
1005
0
1002
}
1001
GENIUS_GENOLIS_13
1002
{
1000
ENT
1005
60F
1002
}
  0
POINT
  5
613
  8
0
 10
0.0
 20
0.0
 30
0.0
1001
GENIUS_GENBH_13
1002
{
1000
FGO
1005
617
1002
}
1001
GENIUS_GENODEF_13
1002
{
1000
HIER
1070
     1
1002
}
1002
{
1000
MANEDIT
1070
     0
1002
}
1002
{
1000
NOSEL
1070
     1
1002
}
1002
{
1000
BEHIND
1070
     1
1002
}
1002
{
1000
REACTOR
1002
}
1001
GENIUS_GENOBJ-NBEHI-BHB_13
1002
{
1000
OWNER
1000
GENBEHI
1002
}
1001
GENIUS_GENOENT_13
1002
{
1000
MYREF
1005
613
1002
}
1002
{
1000
GRP
1005
0
1002
}
1001
GENIUS_GENOLIS_13
1002
{
1000
ENT
1005
60E
1005
60F
1002
}
  0
POINT
  5
614
  8
0
 10
0.0
 20
0.0
 30
0.0
1001
GENIUS_GENBH_13
1002
{
1000
BGO
1005
612
1002
}
1002
{
1000
FGLEVEL
1040
10.000000019999989
1002
}
1002
{
1000
FLAGS
1070
    36
1002
}
1002
{
1000
OIUMAP
1000
OIU
1002
}
1002
{
1000
MODIFY
1070
     0
1002
}
1001
GENIUS_GENODEF_13
1002
{
1000
HIER
1070
     1
1002
}
1002
{
1000
MANEDIT
1070
     0
1002
}
1002
{
1000
NOSEL
1070
     1
1002
}
1002
{
1000
BEHIND
1070
     1
1002
}
1002
{
1000
REACTOR
1002
}
1001
GENIUS_GENOBJ-NBEHI-BHF_13
1002
{
1000
OWNER
1000
GENBEHI
1002
}
1001
GENIUS_GENOENT_13
1002
{
1000
MYREF
1005
614
1002
}
1002
{
1000
GRP
1005
0
1002
}
1001
GENIUS_GENOLIS_13
1002
{
1000
ENT
1005
60E
1002
}
  0
POINT
  5
615
  8
0
 10
0.0
 20
0.0
 30
0.0
1001
GENIUS_GENODEF_13
1002
{
1000
HIER
1070
   200
1002
}
1002
{
1000
MANEDIT
1070
     0
1002
}
1002
{
1000
NOSEL
1070
     0
1002
}
1002
{
1000
BEHIND
1070
     0
1002
}
1002
{
1000
REACTOR
1002
}
1001
GENIUS_GEFSTDP_13
1002
{
1000
DSC
1002
{
1002
{
1002
}
1002
}
1002
}
1002
{
1000
SCP
1002
{
1000
TYPE
1000
SCP
1002
}
1002
{
1000
GMODE
1070
     1
1002
}
1002
{
1000
DMODE
1070
     0
1002
}
1002
{
1000
SSIZE
1002
{
1002
{
1000
NND
1000
TPU
1000
PTC
1000
CON
1000
EGR
1000
PRE
1002
}
1002
{
1040
8.0
1040
1.25
1040
1.25
1000
x
1000
1
1000
M
1002
}
1002
}
1002
}
1002
{
1000
ASIZE
1002
{
1002
{
1000
NND
1000
TPU
1000
EGR
1000
PRE
1000
PTC
1002
}
1002
{
1040
8.0
1040
1.25
1000
1
1000
M
1040
1.25
1002
}
1002
}
1002
}
1002
{
1000
VIEW
1070
     2
1002
}
1002
{
1000
1
1002
{
1002
{
1000
SFILE
1000
$PV_GENSYSTEM"gef\val\di\0101\di2401_v.dxf"
1002
}
1002
{
1000
ST1
1000
$PV_GENSYSTEM"gef\val\di\0101\di2401.val"
1002
}
1002
{
1000
ASSO
1000
DIN_912
1002
}
1002
{
1000
VIEW
1000
V
1002
}
1002
{
1000
SSTATUS
1000
~T
1002
}
1002
{
1000
GROUP
1000
0101
1002
}
1002
}
1002
}
1002
{
1000
4
1002
{
1002
{
1000
SFILE
1000
$PV_GENSYSTEM"gef\val\di\0301\di1602_v.dxf"
1002
}
1002
{
1000
ST1
1000
$PV_GENSYSTEM"gef\val\di\0301\di1602.val"
1002
}
1002
{
1000
ASSO
1000
 
1002
}
1002
{
1000
VIEW
1000
V
1002
}
1002
{
1000
SSTATUS
1000
~T
1002
}
1002
{
1000
GROUP
1000
0301
1002
}
1002
}
1002
}
1002
}
1002
{
1000
DSC1
1000
DSC1
1002
{
1000
~DESCR1
1000
 
1000
~BORE1
1000
 x 
1000
~GL1
1002
}
1002
}
1002
{
1000
DSC2
1000
DSC2
1002
{
1000
~DESCR2
1000
 
1000
~BORE2
1000
 x 
1000
~GL2
1002
}
1002
}
1002
{
1000
KEY
1000
SCP
1002
}
1002
{
1000
INS
1002
{
1040
281.58288488559629
1040
-8.8758513044082008
1040
0.0
1002
}
1002
}
1002
{
1000
ANG
1040
0.0
1002
}
1002
{
1000
VCC
1002
{
1000
$NND=8.000000000000000E+00
1000
$TPU=1.250000000000000E+00
1000
$EGR=1
1000
$PRE=M
1000
$PTC=1.250000000000000E+00
1000
$SELMODE=1
1000
-V$PV_GENSYSTEM"gef\val\sys\dudus_s.dxf
1000
-LPHIDE=1
1000
$GEVBHOP=2
1000
-LPSPOCK1=C:\GENIUS\GEF\VAL\SYS\SPOCK2_S.DXF
1000
$HIDE=0
1000
-LPPART1=1
1000
-LPTABLE1=$PV_GENSYSTEM"gef\val\di\0101\di2401.val"
1000
-LPDXF1=$PV_GENSYSTEM"gef\val\di\0101\di2401_v.dxf"
1000
-LPSCRID=2
1000
-LPPART2=0
1000
-LPTABLE2=$PV_GENSYSTEM"gef\val\sys\mrbean.val
1000
-LPPART3=0
1000
-LPTABLE3=$PV_GENSYSTEM"gef\val\sys\mrbean.val
1000
-LPPART4=1
1000
-LPTABLE4=$PV_GENSYSTEM"gef\val\di\0301\di1602.val"
1000
-LPDXF4=$PV_GENSYSTEM"gef\val\di\0301\di1602_v.dxf"
1000
-LPPART5=0
1000
-LPPART6=0
1000
-LPPART7=0
1000
-LPPART8=0
1000
-LPPART9=0
1000
-LPPART10=0
1000
$GEF_FLIPX=2
1000
$GEF_FLIPY=2
1000
$GL1=0
1000
$GL2=0
1000
-GRPNAME1MSL_F20_50-0
1000
-LPGL1=1.499999999999642E+01
1000
-LPGL2=0
1000
-GRPNAME2MSL_F20_50-0
1000
-RBSTDRD
1000
-RBDESCR1
1000
-RBDESCR2
1000
-RBBORE1
1000
-RBBORE2
1000
-RBGL1
1000
-RBGL2
1000
-RBBORED
1000
-RBHEADD
1000
-RBCDEP
1000
-RBCANG
1000
$GEF_CDIST=3.000000000000000E+00
1000
$GEF_DRAG=1
1000
$GEF_STANG=2.100000000000000E+02
1000
$GEF_OANG=7.000000000000000E+01
1000
$GEVPROMPTX= Länge: 
1000
$GEF_SNK_ADD=0.000000000000000E+00
1000
-GRPNAME0?
1000
-BAML2
1000
$GEF_PROCALC=1
1002
}
1002
}
1002
{
1000
LST
1002
{
1002
{
1002
}
1002
}
1002
}
1002
{
1000
RET
1002
{
1002
{
1000
CANG
1002
}
1002
{
1000
CDEP
1002
}
1002
{
1000
HEADD
1002
}
1002
{
1000
BORED
1002
}
1002
{
1000
GL2
1000
0
1002
}
1002
{
1000
GL1
1000
14.9999999999964
1002
}
1002
{
1000
BORE2
1002
}
1002
{
1000
BORE1
1000
DIN EN 20273 - M8 - H13
1002
}
1002
{
1000
DESCR2
1002
}
1002
{
1000
DESCR1
1000
Durchgangsloch
1002
}
1002
{
1000
STDRD
1002
}
1002
}
1002
}
1002
{
1000
SYSTEM
1040
1.0
1002
}
1002
{
1000
INFEL
1002
{
1005
59A
1002
}
1002
}
1001
GENIUS_GENOBJ-F-PART_13
1002
{
1000
OWNER
1000
GEF
1002
}
1001
GENIUS_GENOENT_13
1002
{
1000
MYREF
1005
615
1002
}
1002
{
1000
GRP
1005
0
1002
}
1001
GENIUS_GENOLIS_13
1002
{
1000
ENT
1005
609
1005
60F
1005
610
1005
608
1005
60E
1002
}
  0
POINT
  5
616
  8
0
 10
0.0
 20
0.0
 30
0.0
1001
GENIUS_GENBH_13
1002
{
1000
FGO
1005
611
1002
}
1001
GENIUS_GENODEF_13
1002
{
1000
HIER
1070
     1
1002
}
1002
{
1000
MANEDIT
1070
     0
1002
}
1002
{
1000
NOSEL
1070
     1
1002
}
1002
{
1000
BEHIND
1070
     0
1002
}
1002
{
1000
REACTOR
1002
}
1001
GENIUS_GENOBJ-NBEHI-BHB_13
1002
{
1000
OWNER
1000
GENBEHI
1002
}
1001
GENIUS_GENOENT_13
1002
{
1000
MYREF
1005
616
1002
}
1002
{
1000
GRP
1005
0
1002
}
1001
GENIUS_GENOLIS_13
1002
{
1000
ENT
1005
608
1005
60E
1005
60F
1002
}
  0
POINT
  5
617
  8
0
 10
0.0
 20
0.0
 30
0.0
1001
GENIUS_GENBH_13
1002
{
1000
BGO
1005
613
1002
}
1002
{
1000
FGLEVEL
1040
10.000000030000001
1002
}
1002
{
1000
FLAGS
1070
    36
1002
}
1002
{
1000
OIUMAP
1000
OIU
1002
}
1002
{
1000
MODIFY
1070
     0
1002
}
1001
GENIUS_GENODEF_13
1002
{
1000
HIER
1070
     1
1002
}
1002
{
1000
MANEDIT
1070
     0
1002
}
1002
{
1000
NOSEL
1070
     1
1002
}
1002
{
1000
BEHIND
1070
     1
1002
}
1002
{
1000
REACTOR
1002
}
1001
GENIUS_GENOBJ-NBEHI-BHF_13
1002
{
1000
OWNER
1000
GENBEHI
1002
}
1001
GENIUS_GENOENT_13
1002
{
1000
MYREF
1005
617
1002
}
1002
{
1000
GRP
1005
0
1002
}
1001
GENIUS_GENOLIS_13
1002
{
1000
ENT
1005
608
1002
}
  0
LINE
  5
68B
  8
MSL_F20_50-0
 10
281.5828848855927
 20
116.87939258397471
 30
0.0
 11
281.5828848855927
 21
56.87939258397477
 31
0.0
  0
INSERT
  5
68C
  8
MSL_F20_50-0N
  2
*U45
 10
281.58288488559629
 20
110.12939258397471
 30
0.0
1001
GENIUS_GEFPARTINS_13
1002
{
1011
281.58288488559629
1021
0.0
1031
0.0
1021
110.12939258397471
1031
0.0
1013
1.0
1023
0.0
1033
0.0
1023
0.0
1033
0.0
1002
}
1001
GENIUS_GENBH_13
1002
{
1000
REFI
1005
55C
1002
}
1001
GEVPT
1002
{
1000
-V$PV_GENSYSTEM"GEF\VAL\DI\0101\DI2401_V.DXF"
1000
-FIXP$VCC_TABLE=C:\GENIUS\gef\val\di\0101\di2401.val
1000
-FIXP$TABLE=C:\GENIUS\gef\val\di\0101\di2401.val
1000
-FIXPNLGMIN=22.9999999999964
1000
-FIXPSHLMAX=14.9999999999964
1000
-FIXPKFDYN=0
1000
-INPPVCCTAB_DYN1=31.934901,0.870845,0,0
1000
-GPGEF_PROCALC=1
1000
-GPGEF_SNK_ADD=0
1000
-GPGEVPROMPTX=Länge:
1000
-GPGEF_OANG=70
1000
-GPGEF_STANG=210
1000
-GPGEF_DRAG=1
1000
-GPGEF_CDIST=3
1000
-GPGL2=0
1000
-GPGL1=0
1000
-GPGEF_FLIPY=2
1000
-GPGEF_FLIPX=2
1000
-GPHIDE=0
1000
-GPGEVBHOP=2
1000
-GPSELMODE=1
1000
-GPPTC=1.25
1000
-GPPRE=M
1000
-GPEGR=1
1000
-GPTPU=1.25
1000
-GPNND=8
1002
}
1001
GENIUS_GENOREF_13
1005
6B6
1005
6B5
1005
6B4
1001
VCC
1002
{
1002
}
1001
GEVIT
1002
{
1000
-BEHI10.00000003
1000
-BVCCT0
1000
-GRP0?
1000
-BAML2
1000
-BASK1
1000
-NT1
1000
-DOC
1005
6DE
1000
-MYREF
1005
68C
1002
}
1001
GEVMK
1002
{
1000
-CO
1000
-MYREF
1005
68C
1002
}
1001
GEVID884360915
1002
{
1000
-ID26
1002
}
  0
LINE
  5
68D
  8
MSL_F20_50-7AN
 10
314.58288488559629
 20
110.12939258397471
 30
0.0
 11
270.58288488559629
 21
110.12939258397471
 31
0.0
1001
GENIUS_GEFPARTINS_13
1002
{
1011
281.58288488559629
1021
0.0
1031
0.0
1021
110.12939258397471
1031
0.0
1013
1.0
1023
0.0
1033
0.0
1023
0.0
1033
0.0
1002
}
1001
GENIUS_GENOREF_13
1005
6B4
  0
LINE
  5
68E
  8
MSL_F20_50-3
 10
296.5828848855927
 20
106.87939258397471
 30
0.0
 11
267.0828848855927
 21
106.87939258397471
 31
0.0
  0
LINE
  5
68F
  8
MSL_F20_50-3
 10
267.0828848855927
 20
106.87939258397471
 30
0.0
 11
267.0828848855927
 21
66.879392583974763
 31
0.0
  0
LINE
  5
690
  8
MSL_F20_50-0
 10
273.58288488559629
 20
111.87939258397471
 30
0.0
 11
242.5828848855927
 21
111.87939258397471
 31
0.0
  0
LINE
  5
691
  8
MSL_F20_50-3
 10
267.0828848855927
 20
97.879392583974791
 30
0.0
 11
234.08288488559259
 21
97.879392583974791
 31
0.0
  0
LINE
  5
692
  8
MSL_F20_50-0
 10
296.5828848855927
 20
86.879392583974763
 30
0.0
 11
296.5828848855927
 21
116.87939258397471
 31
0.0
  0
LINE
  5
693
  8
MSL_F20_50-3
 10
296.5828848855927
 20
114.12939258397471
 30
0.0
 11
313.5828848855927
 21
114.12939258397471
 31
0.0
  0
LINE
  5
694
  8
MSL_F20_50-3
 10
296.5828848855927
 20
113.3623925839747
 30
0.0
 11
313.5828848855927
 21
113.3623925839747
 31
0.0
  0
LINE
  5
695
  8
MSL_F20_50-3
 10
296.5828848855927
 20
106.12939258397471
 30
0.0
 11
313.5828848855927
 21
106.12939258397471
 31
0.0
  0
LINE
  5
696
  8
MSL_F20_50-3
 10
296.5828848855927
 20
106.8963925839747
 30
0.0
 11
313.5828848855927
 21
106.8963925839747
 31
0.0
  0
INSERT
  5
697
  8
MSL_F20_50-0
  2
*U43
 10
281.58288488559629
 20
110.12939258397471
 30
0.0
1001
GENIUS_GEFPARTINS_13
1002
{
1011
281.58288488559629
1021
0.0
1031
0.0
1021
110.12939258397471
1031
0.0
1013
1.0
1023
0.0
1033
0.0
1023
0.0
1033
0.0
1002
}
1001
GENIUS_GENBH_13
1002
{
1000
REFI
1005
534
1002
}
1001
GEVPT
1002
{
1000
-V$PV_GENSYSTEM"GEF\VAL\DI\0301\DI1602_V.DXF"
1000
-FIXP$VCC_TABLE=C:\GENIUS\gef\val\di\0301\di1602.val
1000
-FIXP$TABLE=C:\GENIUS\gef\val\di\0301\di1602.val
1000
-FIXPLOTI=14.9999999999964
1000
-GPGEF_PROCALC=1
1000
-GPGEF_SNK_ADD=0
1000
-GPGEVPROMPTX=Länge:
1000
-GPGEF_OANG=70
1000
-GPGEF_STANG=210
1000
-GPGEF_DRAG=1
1000
-GPGEF_CDIST=3
1000
-GPGL2=0
1000
-GPGL1=0
1000
-GPGEF_FLIPY=2
1000
-GPGEF_FLIPX=2
1000
-GPHIDE=0
1000
-GPGEVBHOP=2
1000
-GPSELMODE=1
1000
-GPPTC=1.25
1000
-GPPRE=M
1000
-GPEGR=1
1000
-GPTPU=1.25
1000
-GPNND=8
1002
}
1001
GENIUS_GENOREF_13
1005
6B3
1005
6B2
1005
6B5
1005
6B4
1001
VCC
1002
{
1002
}
1001
GEVIT
1002
{
1000
-BEHI10.00000002
1000
-BVCCT0
1000
-GRP0MSL_F20_50-0
1000
-BAML2
1000
-BASK1
1000
-NT0
1000
-DOC
1005
6CE
1000
-MYREF
1005
697
1002
}
1001
GEVMK
1002
{
1000
-CO
1000
-MYREF
1005
697
1002
}
1001
GEVID884360915
1002
{
1000
-ID31
1002
}
  0
LINE
  5
698
  8
MSL_F20_50-0
 10
296.5828848855927
 20
116.87939258397471
 30
0.0
 11
281.5828848855927
 21
116.87939258397471
 31
0.0
  0
INSERT
  5
699
  8
MSL_F20_50-0
  2
*U53
 10
281.58288488559629
 20
63.629392583974777
 30
0.0
 41
-1.0
 50
180.0
1001
GENIUS_GEFPARTINS_13
1002
{
1011
281.58288488559629
1021
0.0
1031
0.0
1021
63.629392583974777
1031
0.0
1013
1.0
1023
0.0
1033
0.0
1023
0.0
1033
0.0
1002
}
1001
GENIUS_GENBH_13
1002
{
1000
REFI
1005
534
1002
}
1001
GEVPT
1002
{
1000
-V$PV_GENSYSTEM"GEF\VAL\DI\0301\DI1602_V.DXF"
1000
-FIXP$VCC_TABLE=C:\GENIUS\gef\val\di\0301\di1602.val
1000
-FIXP$TABLE=C:\GENIUS\gef\val\di\0301\di1602.val
1000
-FIXPLOTI=14.9999999999964
1000
-GPGEF_PROCALC=1
1000
-GPGEF_SNK_ADD=0
1000
-GPGEVPROMPTX=Länge:
1000
-GPGEF_OANG=70
1000
-GPGEF_STANG=210
1000
-GPGEF_DRAG=1
1000
-GPGEF_CDIST=3
1000
-GPGL2=0
1000
-GPGL1=0
1000
-GPGEF_FLIPY=2
1000
-GPGEF_FLIPX=2
1000
-GPHIDE=0
1000
-GPGEVBHOP=2
1000
-GPSELMODE=1
1000
-GPPTC=1.25
1000
-GPPRE=M
1000
-GPEGR=1
1000
-GPTPU=1.25
1000
-GPNND=8
1002
}
1001
GENIUS_GENOREF_13
1005
6B1
1005
6B0
1005
6AF
1005
6AE
1001
VCC
1002
{
1002
}
1001
GEVIT
1002
{
1000
-BEHI10.00000002
1000
-BVCCT0
1000
-GRP0MSL_F20_50-0
1000
-BAML2
1000
-BASK1
1000
-NT0
1000
-DOC
1005
785
1000
-MYREF
1005
699
1002
}
1001
GEVMK
1002
{
1000
-CO
1000
-MYREF
1005
699
1002
}
1001
GEVID884360916
1002
{
1000
-ID31
1002
}
  0
INSERT
  5
69A
  8
MSL_F20_50-0N
  2
*U51
 10
281.58288488559629
 20
63.629392583974777
 30
0.0
 41
-1.0
 50
180.0
1001
GENIUS_GEFPARTINS_13
1002
{
1011
281.58288488559629
1021
0.0
1031
0.0
1021
63.629392583974777
1031
0.0
1013
1.0
1023
0.0
1033
0.0
1023
0.0
1033
0.0
1002
}
1001
GENIUS_GENBH_13
1002
{
1000
REFI
1005
55C
1002
}
1001
GEVPT
1002
{
1000
-V$PV_GENSYSTEM"GEF\VAL\DI\0101\DI2401_V.DXF"
1000
-FIXP$VCC_TABLE=C:\GENIUS\gef\val\di\0101\di2401.val
1000
-FIXP$TABLE=C:\GENIUS\gef\val\di\0101\di2401.val
1000
-FIXPNLGMIN=22.9999999999964
1000
-FIXPSHLMAX=14.9999999999964
1000
-FIXPKFDYN=0
1000
-INPPVCCTAB_DYN1=31.934901,0.870845,0,0
1000
-GPGEF_PROCALC=1
1000
-GPGEF_SNK_ADD=0
1000
-GPGEVPROMPTX=Länge:
1000
-GPGEF_OANG=70
1000
-GPGEF_STANG=210
1000
-GPGEF_DRAG=1
1000
-GPGEF_CDIST=3
1000
-GPGL2=0
1000
-GPGL1=0
1000
-GPGEF_FLIPY=2
1000
-GPGEF_FLIPX=2
1000
-GPHIDE=0
1000
-GPGEVBHOP=2
1000
-GPSELMODE=1
1000
-GPPTC=1.25
1000
-GPPRE=M
1000
-GPEGR=1
1000
-GPTPU=1.25
1000
-GPNND=8
1002
}
1001
GENIUS_GENOREF_13
1005
6AD
1005
6AF
1005
6AE
1001
VCC
1002
{
1002
}
1001
GEVIT
1002
{
1000
-BEHI10.00000003
1000
-BVCCT0
1000
-GRP0?
1000
-BAML2
1000
-BASK1
1000
-NT1
1000
-DOC
1005
73D
1000
-MYREF
1005
69A
1002
}
1001
GEVMK
1002
{
1000
-CO
1000
-MYREF
1005
69A
1002
}
1001
GEVID884360916
1002
{
1000
-ID26
1002
}
  0
LINE
  5
69B
  8
MSL_F20_50-0
 10
296.58288488559282
 20
86.879392583974763
 30
0.0
 11
296.58288488559282
 21
56.87939258397477
 31
0.0
  0
LINE
  5
69C
  8
MSL_F20_50-7AN
 10
314.58288488559629
 20
63.629392583974777
 30
0.0
 11
270.58288488559629
 21
63.629392583974777
 31
0.0
1001
GENIUS_GEFPARTINS_13
1002
{
1011
281.58288488559629
1021
0.0
1031
0.0
1021
63.629392583974777
1031
0.0
1013
1.0
1023
0.0
1033
0.0
1023
0.0
1033
0.0
1002
}
1001
GENIUS_GENOREF_13
1005
6AE
  0
LINE
  5
69D
  8
MSL_F20_50-0
 10
273.58288488559629
 20
61.87939258397477
 30
0.0
 11
242.58288488559279
 21
61.87939258397477
 31
0.0
  0
LINE
  5
69E
  8
MSL_F20_50-3
 10
296.5828848855927
 20
60.396392583974773
 30
0.0
 11
313.5828848855927
 21
60.396392583974773
 31
0.0
  0
LINE
  5
69F
  8
MSL_F20_50-3
 10
296.5828848855927
 20
59.629392583974777
 30
0.0
 11
313.5828848855927
 21
59.629392583974777
 31
0.0
  0
LINE
  5
6A0
  8
MSL_F20_50-0
 10
296.58288488559282
 20
56.87939258397477
 30
0.0
 11
281.5828848855927
 21
56.87939258397477
 31
0.0
  0
LINE
  5
6A1
  8
MSL_F20_50-3
 10
296.5828848855927
 20
66.879392583974763
 30
0.0
 11
267.0828848855927
 21
66.879392583974763
 31
0.0
  0
LINE
  5
6A2
  8
MSL_F20_50-3
 10
267.0828848855927
 20
75.879392583974777
 30
0.0
 11
234.08288488559259
 21
75.879392583974763
 31
0.0
  0
LINE
  5
6A3
  8
MSL_F20_50-3
 10
296.5828848855927
 20
66.862392583974781
 30
0.0
 11
313.5828848855927
 21
66.862392583974781
 31
0.0
  0
LINE
  5
6A4
  8
MSL_F20_50-3
 10
296.5828848855927
 20
67.629392583974763
 30
0.0
 11
313.5828848855927
 21
67.629392583974763
 31
0.0
  0
INSERT
  5
6A5
  8
MSL_F20_50-0N
  2
*U41
 10
281.58288488559629
 20
110.12939258397471
 30
0.0
1001
GENIUS_GEFPARTINS_13
1002
{
1011
281.58288488559629
1021
0.0
1031
0.0
1021
110.12939258397471
1031
0.0
1013
1.0
1023
0.0
1033
0.0
1023
0.0
1033
0.0
1002
}
1001
GEVPT
1002
{
1000
-V$PV_GENSYSTEM"GEF\VAL\SYS\DUDUS_S.DXF"
1000
-FIXPGL2=0
1000
-FIXPPART10=0
1000
-FIXPPART9=0
1000
-FIXPPART8=0
1000
-FIXPPART7=0
1000
-FIXPPART6=0
1000
-FIXPPART5=0
1000
-FIXPDXF4=C:\GENIUS\gef\val\di\0301\di1602_v.dxf
1000
-FIXPTABLE4=C:\GENIUS\gef\val\di\0301\di1602.val
1000
-FIXPPART4=1
1000
-FIXPTABLE3=C:\GENIUS\gef\val\sys\mrbean.val
1000
-FIXPPART3=0
1000
-FIXPTABLE2=C:\GENIUS\gef\val\sys\mrbean.val
1000
-FIXPPART2=0
1000
-FIXPSCRID=2
1000
-FIXPDXF1=C:\GENIUS\gef\val\di\0101\di2401_v.dxf
1000
-FIXPTABLE1=C:\GENIUS\gef\val\di\0101\di2401.val
1000
-FIXPPART1=1
1000
-FIXPSPOCK1=C:\GENIUS\GEF\VAL\SYS\SPOCK2_S.DXF
1000
-FIXPHIDE=1
1000
-FIXPGL1=14.9999999999964
1000
-GPGEF_PROCALC=1
1000
-GPGEF_SNK_ADD=0
1000
-GPGEVPROMPTX=Länge:
1000
-GPGEF_OANG=70
1000
-GPGEF_STANG=210
1000
-GPGEF_DRAG=1
1000
-GPGEF_CDIST=3
1000
-GPGL2=0
1000
-GPGL1=0
1000
-GPGEF_FLIPY=2
1000
-GPGEF_FLIPX=2
1000
-GPHIDE=0
1000
-GPGEVBHOP=2
1000
-GPSELMODE=1
1000
-GPPTC=1.25
1000
-GPPRE=M
1000
-GPEGR=1
1000
-GPTPU=1.25
1000
-GPNND=8
1002
}
1001
GENIUS_GENOREF_13
1005
6AC
1005
6B2
1005
6B5
1005
6B4
1001
VCC
1002
{
1000
-ID12
1000
-IE10
1000
-IK12
1000
-V$PV_GENSYSTEM"GEF\VAL\SYS\DUDUS_S.DXF"
1002
}
1001
GEVIT
1002
{
1000
-BEHI10.00000001
1000
-BVCCT0
1000
-GRP0?
1000
-BAML2
1000
-BASK1
1000
-DOC
1005
6C4
1000
-MYREF
1005
6A5
1002
}
1001
GEVMK
1002
{
1000
-CO
1000
-MYREF
1005
6A5
1002
}
1001
GEVID884360915
1002
{
1002
}
  0
INSERT
  5
6A6
  8
MSL_F20_50-0
  2
*U39
 10
281.58288488559629
 20
110.12939258397471
 30
0.0
1001
GENIUS_GEFPARTINS_13
1002
{
1011
281.58288488559629
1021
0.0
1031
0.0
1021
110.12939258397471
1031
0.0
1013
1.0
1023
0.0
1033
0.0
1023
0.0
1033
0.0
1002
}
1001
GEVPT
1002
{
1000
-V$PV_GENSYSTEM"GEF\VAL\SYS\SPOCK2_S.DXF"
1000
-FIXPL=14.9999999999964
1000
-FIXPH=4.5
1000
-GPGEF_PROCALC=1
1000
-GPGEF_SNK_ADD=0
1000
-GPGEVPROMPTX=Länge:
1000
-GPGEF_OANG=70
1000
-GPGEF_STANG=210
1000
-GPGEF_DRAG=1
1000
-GPGEF_CDIST=3
1000
-GPGL2=0
1000
-GPGL1=0
1000
-GPGEF_FLIPY=2
1000
-GPGEF_FLIPX=2
1000
-GPHIDE=0
1000
-GPGEVBHOP=2
1000
-GPSELMODE=1
1000
-GPPTC=1.25
1000
-GPPRE=M
1000
-GPEGR=1
1000
-GPTPU=1.25
1000
-GPNND=8
1002
}
1001
GENIUS_GENOREF_13
1005
6AB
1005
6B4
1001
VCC
1002
{
1002
}
1001
GEVIT
1002
{
1000
-BEHI10.00000004
1000
-BVCCT0
1000
-GRP0MSL_F20_50-0
1000
-BAML2
1000
-BASK1
1000
-NT0
1000
-DOC
1005
6B8
1000
-MYREF
1005
6A6
1002
}
1001
GEVMK
1002
{
1000
-CO
1000
-MYREF
1005
6A6
1002
}
1001
GEVID884360915
1002
{
1000
-ID54
1002
}
  0
INSERT
  5
6A7
  8
MSL_F20_50-0N
  2
*U49
 10
281.58288488559629
 20
63.629392583974777
 30
0.0
 41
-1.0
 50
180.0
1001
GENIUS_GEFPARTINS_13
1002
{
1011
281.58288488559629
1021
0.0
1031
0.0
1021
63.629392583974777
1031
0.0
1013
1.0
1023
0.0
1033
0.0
1023
0.0
1033
0.0
1002
}
1001
GEVPT
1002
{
1000
-V$PV_GENSYSTEM"GEF\VAL\SYS\DUDUS_S.DXF"
1000
-FIXPGL2=0
1000
-FIXPPART10=0
1000
-FIXPPART9=0
1000
-FIXPPART8=0
1000
-FIXPPART7=0
1000
-FIXPPART6=0
1000
-FIXPPART5=0
1000
-FIXPDXF4=C:\GENIUS\gef\val\di\0301\di1602_v.dxf
1000
-FIXPTABLE4=C:\GENIUS\gef\val\di\0301\di1602.val
1000
-FIXPPART4=1
1000
-FIXPTABLE3=C:\GENIUS\gef\val\sys\mrbean.val
1000
-FIXPPART3=0
1000
-FIXPTABLE2=C:\GENIUS\gef\val\sys\mrbean.val
1000
-FIXPPART2=0
1000
-FIXPSCRID=2
1000
-FIXPDXF1=C:\GENIUS\gef\val\di\0101\di2401_v.dxf
1000
-FIXPTABLE1=C:\GENIUS\gef\val\di\0101\di2401.val
1000
-FIXPPART1=1
1000
-FIXPSPOCK1=C:\GENIUS\GEF\VAL\SYS\SPOCK2_S.DXF
1000
-FIXPHIDE=1
1000
-FIXPGL1=14.9999999999964
1000
-GPGEF_PROCALC=1
1000
-GPGEF_SNK_ADD=0
1000
-GPGEVPROMPTX=Länge:
1000
-GPGEF_OANG=70
1000
-GPGEF_STANG=210
1000
-GPGEF_DRAG=1
1000
-GPGEF_CDIST=3
1000
-GPGL2=0
1000
-GPGL1=0
1000
-GPGEF_FLIPY=2
1000
-GPGEF_FLIPX=2
1000
-GPHIDE=0
1000
-GPGEVBHOP=2
1000
-GPSELMODE=1
1000
-GPPTC=1.25
1000
-GPPRE=M
1000
-GPEGR=1
1000
-GPTPU=1.25
1000
-GPNND=8
1002
}
1001
GENIUS_GENOREF_13
1005
6AA
1005
6B0
1005
6AF
1005
6AE
1001
VCC
1002
{
1000
-ID13
1000
-IE10
1000
-IK13
1000
-V$PV_GENSYSTEM"GEF\VAL\SYS\DUDUS_S.DXF"
1002
}
1001
GEVIT
1002
{
1000
-BEHI10.00000001
1000
-BVCCT0
1000
-GRP0?
1000
-BAML2
1000
-BASK1
1000
-DOC
1005
733
1000
-MYREF
1005
6A7
1002
}
1001
GEVMK
1002
{
1000
-CO
1000
-MYREF
1005
6A7
1002
}
1001
GEVID884360916
1002
{
1002
}
  0
INSERT
  5
6A8
  8
MSL_F20_50-0
  2
*U47
 10
281.58288488559629
 20
63.629392583974777
 30
0.0
 41
-1.0
 50
180.0
1001
GENIUS_GEFPARTINS_13
1002
{
1011
281.58288488559629
1021
0.0
1031
0.0
1021
63.629392583974777
1031
0.0
1013
1.0
1023
0.0
1033
0.0
1023
0.0
1033
0.0
1002
}
1001
GEVPT
1002
{
1000
-V$PV_GENSYSTEM"GEF\VAL\SYS\SPOCK2_S.DXF"
1000
-FIXPL=14.9999999999964
1000
-FIXPH=4.5
1000
-GPGEF_PROCALC=1
1000
-GPGEF_SNK_ADD=0
1000
-GPGEVPROMPTX=Länge:
1000
-GPGEF_OANG=70
1000
-GPGEF_STANG=210
1000
-GPGEF_DRAG=1
1000
-GPGEF_CDIST=3
1000
-GPGL2=0
1000
-GPGL1=0
1000
-GPGEF_FLIPY=2
1000
-GPGEF_FLIPX=2
1000
-GPHIDE=0
1000
-GPGEVBHOP=2
1000
-GPSELMODE=1
1000
-GPPTC=1.25
1000
-GPPRE=M
1000
-GPEGR=1
1000
-GPTPU=1.25
1000
-GPNND=8
1002
}
1001
GENIUS_GENOREF_13
1005
6A9
1005
6AE
1001
VCC
1002
{
1002
}
1001
GEVIT
1002
{
1000
-BEHI10.00000004
1000
-BVCCT0
1000
-GRP0MSL_F20_50-0
1000
-BAML2
1000
-BASK1
1000
-NT0
1000
-DOC
1005
727
1000
-MYREF
1005
6A8
1002
}
1001
GEVMK
1002
{
1000
-CO
1000
-MYREF
1005
6A8
1002
}
1001
GEVID884360916
1002
{
1000
-ID54
1002
}
  0
POINT
  5
6A9
  8
0
 10
0.0
 20
0.0
 30
0.0
1001
GENIUS_GENBH_13
1002
{
1000
BGO
1005
6AF
1002
}
1002
{
1000
FGLEVEL
1040
10.00000004
1002
}
1002
{
1000
FLAGS
1070
    36
1002
}
1002
{
1000
OIUMAP
1000
OIU
1002
}
1002
{
1000
MODIFY
1070
     0
1002
}
1001
GENIUS_GENODEF_13
1002
{
1000
HIER
1070
     1
1002
}
1002
{
1000
MANEDIT
1070
     0
1002
}
1002
{
1000
NOSEL
1070
     1
1002
}
1002
{
1000
BEHIND
1070
     0
1002
}
1002
{
1000
REACTOR
1002
}
1001
GENIUS_GENOBJ-NBEHI-BHF_13
1002
{
1000
OWNER
1000
GENBEHI
1002
}
1001
GENIUS_GENOENT_13
1002
{
1000
MYREF
1005
6A9
1002
}
1002
{
1000
GRP
1005
0
1002
}
1001
GENIUS_GENOLIS_13
1002
{
1000
ENT
1005
6A8
1002
}
  0
POINT
  5
6AA
  8
0
 10
0.0
 20
0.0
 30
0.0
1001
GENIUS_GENBH_13
1002
{
1000
FGO
1005
6B1
1002
}
1001
GENIUS_GENODEF_13
1002
{
1000
HIER
1070
     1
1002
}
1002
{
1000
MANEDIT
1070
     0
1002
}
1002
{
1000
NOSEL
1070
     1
1002
}
1002
{
1000
BEHIND
1070
     0
1002
}
1002
{
1000
REACTOR
1002
}
1001
GENIUS_GENOBJ-NBEHI-BHB_13
1002
{
1000
OWNER
1000
GENBEHI
1002
}
1001
GENIUS_GENOENT_13
1002
{
1000
MYREF
1005
6AA
1002
}
1002
{
1000
GRP
1005
0
1002
}
1001
GENIUS_GENOLIS_13
1002
{
1000
ENT
1005
6A7
1002
}
  0
POINT
  5
6AB
  8
0
 10
0.0
 20
0.0
 30
0.0
1001
GENIUS_GENBH_13
1002
{
1000
BGO
1005
6B5
1002
}
1002
{
1000
FGLEVEL
1040
10.00000004
1002
}
1002
{
1000
FLAGS
1070
    36
1002
}
1002
{
1000
OIUMAP
1000
OIU
1002
}
1002
{
1000
MODIFY
1070
     0
1002
}
1001
GENIUS_GENODEF_13
1002
{
1000
HIER
1070
     1
1002
}
1002
{
1000
MANEDIT
1070
     0
1002
}
1002
{
1000
NOSEL
1070
     1
1002
}
1002
{
1000
BEHIND
1070
     0
1002
}
1002
{
1000
REACTOR
1002
}
1001
GENIUS_GENOBJ-NBEHI-BHF_13
1002
{
1000
OWNER
1000
GENBEHI
1002
}
1001
GENIUS_GENOENT_13
1002
{
1000
MYREF
1005
6AB
1002
}
1002
{
1000
GRP
1005
0
1002
}
1001
GENIUS_GENOLIS_13
1002
{
1000
ENT
1005
6A6
1002
}
  0
POINT
  5
6AC
  8
0
 10
0.0
 20
0.0
 30
0.0
1001
GENIUS_GENBH_13
1002
{
1000
FGO
1005
6B3
1002
}
1001
GENIUS_GENODEF_13
1002
{
1000
HIER
1070
     1
1002
}
1002
{
1000
MANEDIT
1070
     0
1002
}
1002
{
1000
NOSEL
1070
     1
1002
}
1002
{
1000
BEHIND
1070
     0
1002
}
1002
{
1000
REACTOR
1002
}
1001
GENIUS_GENOBJ-NBEHI-BHB_13
1002
{
1000
OWNER
1000
GENBEHI
1002
}
1001
GENIUS_GENOENT_13
1002
{
1000
MYREF
1005
6AC
1002
}
1002
{
1000
GRP
1005
0
1002
}
1001
GENIUS_GENOLIS_13
1002
{
1000
ENT
1005
6A5
1002
}
  0
POINT
  5
6AD
  8
0
 10
0.0
 20
0.0
 30
0.0
1001
GENIUS_GENBH_13
1002
{
1000
BGO
1005
6B0
1002
}
1002
{
1000
FGLEVEL
1040
10.000000030000001
1002
}
1002
{
1000
FLAGS
1070
    36
1002
}
1002
{
1000
OIUMAP
1000
OIU
1002
}
1002
{
1000
MODIFY
1070
     0
1002
}
1001
GENIUS_GENODEF_13
1002
{
1000
HIER
1070
     1
1002
}
1002
{
1000
MANEDIT
1070
     0
1002
}
1002
{
1000
NOSEL
1070
     1
1002
}
1002
{
1000
BEHIND
1070
     1
1002
}
1002
{
1000
REACTOR
1002
}
1001
GENIUS_GENOBJ-NBEHI-BHF_13
1002
{
1000
OWNER
1000
GENBEHI
1002
}
1001
GENIUS_GENOENT_13
1002
{
1000
MYREF
1005
6AD
1002
}
1002
{
1000
GRP
1005
0
1002
}
1001
GENIUS_GENOLIS_13
1002
{
1000
ENT
1005
69A
1002
}
  0
POINT
  5
6AE
  8
0
 10
0.0
 20
0.0
 30
0.0
1001
GENIUS_GENODEF_13
1002
{
1000
HIER
1070
   200
1002
}
1002
{
1000
MANEDIT
1070
     0
1002
}
1002
{
1000
NOSEL
1070
     0
1002
}
1002
{
1000
BEHIND
1070
     0
1002
}
1002
{
1000
REACTOR
1002
}
1001
GENIUS_GEFSTDP_13
1002
{
1000
DSC
1002
{
1002
{
1002
}
1002
}
1002
}
1002
{
1000
SCP
1002
{
1000
TYPE
1000
SCP
1002
}
1002
{
1000
GMODE
1070
     1
1002
}
1002
{
1000
DMODE
1070
     0
1002
}
1002
{
1000
SSIZE
1002
{
1002
{
1000
NND
1000
TPU
1000
PTC
1000
CON
1000
EGR
1000
PRE
1002
}
1002
{
1040
8.0
1040
1.25
1040
1.25
1000
x
1000
1
1000
M
1002
}
1002
}
1002
}
1002
{
1000
ASIZE
1002
{
1002
{
1000
NND
1000
TPU
1000
EGR
1000
PRE
1000
PTC
1002
}
1002
{
1040
8.0
1040
1.25
1000
1
1000
M
1040
1.25
1002
}
1002
}
1002
}
1002
{
1000
VIEW
1070
     2
1002
}
1002
{
1000
1
1002
{
1002
{
1000
SFILE
1000
$PV_GENSYSTEM"gef\val\di\0101\di2401_v.dxf"
1002
}
1002
{
1000
ST1
1000
$PV_GENSYSTEM"gef\val\di\0101\di2401.val"
1002
}
1002
{
1000
ASSO
1000
DIN_912
1002
}
1002
{
1000
VIEW
1000
V
1002
}
1002
{
1000
SSTATUS
1000
~T
1002
}
1002
{
1000
GROUP
1000
0101
1002
}
1002
}
1002
}
1002
{
1000
4
1002
{
1002
{
1000
SFILE
1000
$PV_GENSYSTEM"gef\val\di\0301\di1602_v.dxf"
1002
}
1002
{
1000
ST1
1000
$PV_GENSYSTEM"gef\val\di\0301\di1602.val"
1002
}
1002
{
1000
ASSO
1000
 
1002
}
1002
{
1000
VIEW
1000
V
1002
}
1002
{
1000
SSTATUS
1000
~T
1002
}
1002
{
1000
GROUP
1000
0301
1002
}
1002
}
1002
}
1002
}
1002
{
1000
DSC1
1000
DSC1
1002
{
1000
~DESCR1
1000
 
1000
~BORE1
1000
 x 
1000
~GL1
1002
}
1002
}
1002
{
1000
DSC2
1000
DSC2
1002
{
1000
~DESCR2
1000
 
1000
~BORE2
1000
 x 
1000
~GL2
1002
}
1002
}
1002
{
1000
KEY
1000
SCP
1002
}
1002
{
1000
INS
1002
{
1040
281.58288488559629
1040
-8.8758513044082008
1040
0.0
1002
}
1002
}
1002
{
1000
ANG
1040
0.0
1002
}
1002
{
1000
VCC
1002
{
1000
$NND=8.000000000000000E+00
1000
$TPU=1.250000000000000E+00
1000
$EGR=1
1000
$PRE=M
1000
$PTC=1.250000000000000E+00
1000
$SELMODE=1
1000
-V$PV_GENSYSTEM"gef\val\sys\dudus_s.dxf
1000
-LPHIDE=1
1000
$GEVBHOP=2
1000
-LPSPOCK1=C:\GENIUS\GEF\VAL\SYS\SPOCK2_S.DXF
1000
$HIDE=0
1000
-LPPART1=1
1000
-LPTABLE1=$PV_GENSYSTEM"gef\val\di\0101\di2401.val"
1000
-LPDXF1=$PV_GENSYSTEM"gef\val\di\0101\di2401_v.dxf"
1000
-LPSCRID=2
1000
-LPPART2=0
1000
-LPTABLE2=$PV_GENSYSTEM"gef\val\sys\mrbean.val
1000
-LPPART3=0
1000
-LPTABLE3=$PV_GENSYSTEM"gef\val\sys\mrbean.val
1000
-LPPART4=1
1000
-LPTABLE4=$PV_GENSYSTEM"gef\val\di\0301\di1602.val"
1000
-LPDXF4=$PV_GENSYSTEM"gef\val\di\0301\di1602_v.dxf"
1000
-LPPART5=0
1000
-LPPART6=0
1000
-LPPART7=0
1000
-LPPART8=0
1000
-LPPART9=0
1000
-LPPART10=0
1000
$GEF_FLIPX=2
1000
$GEF_FLIPY=2
1000
$GL1=0
1000
$GL2=0
1000
-GRPNAME1MSL_F20_50-0
1000
-LPGL1=1.499999999999642E+01
1000
-LPGL2=0
1000
-GRPNAME2MSL_F20_50-0
1000
-RBSTDRD
1000
-RBDESCR1
1000
-RBDESCR2
1000
-RBBORE1
1000
-RBBORE2
1000
-RBGL1
1000
-RBGL2
1000
-RBBORED
1000
-RBHEADD
1000
-RBCDEP
1000
-RBCANG
1000
$GEF_CDIST=3.000000000000000E+00
1000
$GEF_DRAG=1
1000
$GEF_STANG=2.100000000000000E+02
1000
$GEF_OANG=7.000000000000000E+01
1000
$GEVPROMPTX= Länge: 
1000
$GEF_SNK_ADD=0.000000000000000E+00
1000
-GRPNAME0?
1000
-BAML2
1000
$GEF_PROCALC=1
1002
}
1002
}
1002
{
1000
LST
1002
{
1002
{
1002
}
1002
}
1002
}
1002
{
1000
RET
1002
{
1002
{
1000
CANG
1002
}
1002
{
1000
CDEP
1002
}
1002
{
1000
HEADD
1002
}
1002
{
1000
BORED
1002
}
1002
{
1000
GL2
1000
0
1002
}
1002
{
1000
GL1
1000
14.9999999999964
1002
}
1002
{
1000
BORE2
1002
}
1002
{
1000
BORE1
1000
DIN EN 20273 - M8 - H13
1002
}
1002
{
1000
DESCR2
1002
}
1002
{
1000
DESCR1
1000
Durchgangsloch
1002
}
1002
{
1000
STDRD
1002
}
1002
}
1002
}
1002
{
1000
SYSTEM
1040
1.0
1002
}
1002
{
1000
INFEL
1002
{
1005
59A
1002
}
1002
}
1001
GENIUS_GENOBJ-F-PART_13
1002
{
1000
OWNER
1000
GEF
1002
}
1001
GENIUS_GENOENT_13
1002
{
1000
MYREF
1005
6AE
1002
}
1002
{
1000
GRP
1005
0
1002
}
1001
GENIUS_GENOLIS_13
1002
{
1000
ENT
1005
69C
1005
6A7
1005
6A8
1005
69A
1005
699
1002
}
  0
POINT
  5
6AF
  8
0
 10
0.0
 20
0.0
 30
0.0
1001
GENIUS_GENBH_13
1002
{
1000
FGO
1005
6A9
1002
}
1001
GENIUS_GENODEF_13
1002
{
1000
HIER
1070
     1
1002
}
1002
{
1000
MANEDIT
1070
     0
1002
}
1002
{
1000
NOSEL
1070
     1
1002
}
1002
{
1000
BEHIND
1070
     0
1002
}
1002
{
1000
REACTOR
1002
}
1001
GENIUS_GENOBJ-NBEHI-BHB_13
1002
{
1000
OWNER
1000
GENBEHI
1002
}
1001
GENIUS_GENOENT_13
1002
{
1000
MYREF
1005
6AF
1002
}
1002
{
1000
GRP
1005
0
1002
}
1001
GENIUS_GENOLIS_13
1002
{
1000
ENT
1005
69A
1005
699
1005
6A7
1002
}
  0
POINT
  5
6B0
  8
0
 10
0.0
 20
0.0
 30
0.0
1001
GENIUS_GENBH_13
1002
{
1000
FGO
1005
6AD
1002
}
1001
GENIUS_GENODEF_13
1002
{
1000
HIER
1070
     1
1002
}
1002
{
1000
MANEDIT
1070
     0
1002
}
1002
{
1000
NOSEL
1070
     1
1002
}
1002
{
1000
BEHIND
1070
     1
1002
}
1002
{
1000
REACTOR
1002
}
1001
GENIUS_GENOBJ-NBEHI-BHB_13
1002
{
1000
OWNER
1000
GENBEHI
1002
}
1001
GENIUS_GENOENT_13
1002
{
1000
MYREF
1005
6B0
1002
}
1002
{
1000
GRP
1005
0
1002
}
1001
GENIUS_GENOLIS_13
1002
{
1000
ENT
1005
699
1005
6A7
1002
}
  0
POINT
  5
6B1
  8
0
 10
0.0
 20
0.0
 30
0.0
1001
GENIUS_GENBH_13
1002
{
1000
BGO
1005
6AA
1002
}
1002
{
1000
FGLEVEL
1040
10.000000019999989
1002
}
1002
{
1000
FLAGS
1070
    36
1002
}
1002
{
1000
OIUMAP
1000
OIU
1002
}
1002
{
1000
MODIFY
1070
     0
1002
}
1001
GENIUS_GENODEF_13
1002
{
1000
HIER
1070
     1
1002
}
1002
{
1000
MANEDIT
1070
     0
1002
}
1002
{
1000
NOSEL
1070
     1
1002
}
1002
{
1000
BEHIND
1070
     1
1002
}
1002
{
1000
REACTOR
1002
}
1001
GENIUS_GENOBJ-NBEHI-BHF_13
1002
{
1000
OWNER
1000
GENBEHI
1002
}
1001
GENIUS_GENOENT_13
1002
{
1000
MYREF
1005
6B1
1002
}
1002
{
1000
GRP
1005
0
1002
}
1001
GENIUS_GENOLIS_13
1002
{
1000
ENT
1005
699
1002
}
  0
POINT
  5
6B2
  8
0
 10
0.0
 20
0.0
 30
0.0
1001
GENIUS_GENBH_13
1002
{
1000
FGO
1005
6B6
1002
}
1001
GENIUS_GENODEF_13
1002
{
1000
HIER
1070
     1
1002
}
1002
{
1000
MANEDIT
1070
     0
1002
}
1002
{
1000
NOSEL
1070
     1
1002
}
1002
{
1000
BEHIND
1070
     1
1002
}
1002
{
1000
REACTOR
1002
}
1001
GENIUS_GENOBJ-NBEHI-BHB_13
1002
{
1000
OWNER
1000
GENBEHI
1002
}
1001
GENIUS_GENOENT_13
1002
{
1000
MYREF
1005
6B2
1002
}
1002
{
1000
GRP
1005
0
1002
}
1001
GENIUS_GENOLIS_13
1002
{
1000
ENT
1005
697
1005
6A5
1002
}
  0
POINT
  5
6B3
  8
0
 10
0.0
 20
0.0
 30
0.0
1001
GENIUS_GENBH_13
1002
{
1000
BGO
1005
6AC
1002
}
1002
{
1000
FGLEVEL
1040
10.000000019999989
1002
}
1002
{
1000
FLAGS
1070
    36
1002
}
1002
{
1000
OIUMAP
1000
OIU
1002
}
1002
{
1000
MODIFY
1070
     0
1002
}
1001
GENIUS_GENODEF_13
1002
{
1000
HIER
1070
     1
1002
}
1002
{
1000
MANEDIT
1070
     0
1002
}
1002
{
1000
NOSEL
1070
     1
1002
}
1002
{
1000
BEHIND
1070
     1
1002
}
1002
{
1000
REACTOR
1002
}
1001
GENIUS_GENOBJ-NBEHI-BHF_13
1002
{
1000
OWNER
1000
GENBEHI
1002
}
1001
GENIUS_GENOENT_13
1002
{
1000
MYREF
1005
6B3
1002
}
1002
{
1000
GRP
1005
0
1002
}
1001
GENIUS_GENOLIS_13
1002
{
1000
ENT
1005
697
1002
}
  0
POINT
  5
6B4
  8
0
 10
0.0
 20
0.0
 30
0.0
1001
GENIUS_GENODEF_13
1002
{
1000
HIER
1070
   200
1002
}
1002
{
1000
MANEDIT
1070
     0
1002
}
1002
{
1000
NOSEL
1070
     0
1002
}
1002
{
1000
BEHIND
1070
     0
1002
}
1002
{
1000
REACTOR
1002
}
1001
GENIUS_GEFSTDP_13
1002
{
1000
DSC
1002
{
1002
{
1002
}
1002
}
1002
}
1002
{
1000
SCP
1002
{
1000
TYPE
1000
SCP
1002
}
1002
{
1000
GMODE
1070
     1
1002
}
1002
{
1000
DMODE
1070
     0
1002
}
1002
{
1000
SSIZE
1002
{
1002
{
1000
NND
1000
TPU
1000
PTC
1000
CON
1000
EGR
1000
PRE
1002
}
1002
{
1040
8.0
1040
1.25
1040
1.25
1000
x
1000
1
1000
M
1002
}
1002
}
1002
}
1002
{
1000
ASIZE
1002
{
1002
{
1000
NND
1000
TPU
1000
EGR
1000
PRE
1000
PTC
1002
}
1002
{
1040
8.0
1040
1.25
1000
1
1000
M
1040
1.25
1002
}
1002
}
1002
}
1002
{
1000
VIEW
1070
     2
1002
}
1002
{
1000
1
1002
{
1002
{
1000
SFILE
1000
$PV_GENSYSTEM"gef\val\di\0101\di2401_v.dxf"
1002
}
1002
{
1000
ST1
1000
$PV_GENSYSTEM"gef\val\di\0101\di2401.val"
1002
}
1002
{
1000
ASSO
1000
DIN_912
1002
}
1002
{
1000
VIEW
1000
V
1002
}
1002
{
1000
SSTATUS
1000
~T
1002
}
1002
{
1000
GROUP
1000
0101
1002
}
1002
}
1002
}
1002
{
1000
4
1002
{
1002
{
1000
SFILE
1000
$PV_GENSYSTEM"gef\val\di\0301\di1602_v.dxf"
1002
}
1002
{
1000
ST1
1000
$PV_GENSYSTEM"gef\val\di\0301\di1602.val"
1002
}
1002
{
1000
ASSO
1000
 
1002
}
1002
{
1000
VIEW
1000
V
1002
}
1002
{
1000
SSTATUS
1000
~T
1002
}
1002
{
1000
GROUP
1000
0301
1002
}
1002
}
1002
}
1002
}
1002
{
1000
DSC1
1000
DSC1
1002
{
1000
~DESCR1
1000
 
1000
~BORE1
1000
 x 
1000
~GL1
1002
}
1002
}
1002
{
1000
DSC2
1000
DSC2
1002
{
1000
~DESCR2
1000
 
1000
~BORE2
1000
 x 
1000
~GL2
1002
}
1002
}
1002
{
1000
KEY
1000
SCP
1002
}
1002
{
1000
INS
1002
{
1040
281.58288488559629
1040
-8.8758513044082008
1040
0.0
1002
}
1002
}
1002
{
1000
ANG
1040
0.0
1002
}
1002
{
1000
VCC
1002
{
1000
$NND=8.000000000000000E+00
1000
$TPU=1.250000000000000E+00
1000
$EGR=1
1000
$PRE=M
1000
$PTC=1.250000000000000E+00
1000
$SELMODE=1
1000
-V$PV_GENSYSTEM"gef\val\sys\dudus_s.dxf
1000
-LPHIDE=1
1000
$GEVBHOP=2
1000
-LPSPOCK1=C:\GENIUS\GEF\VAL\SYS\SPOCK2_S.DXF
1000
$HIDE=0
1000
-LPPART1=1
1000
-LPTABLE1=$PV_GENSYSTEM"gef\val\di\0101\di2401.val"
1000
-LPDXF1=$PV_GENSYSTEM"gef\val\di\0101\di2401_v.dxf"
1000
-LPSCRID=2
1000
-LPPART2=0
1000
-LPTABLE2=$PV_GENSYSTEM"gef\val\sys\mrbean.val
1000
-LPPART3=0
1000
-LPTABLE3=$PV_GENSYSTEM"gef\val\sys\mrbean.val
1000
-LPPART4=1
1000
-LPTABLE4=$PV_GENSYSTEM"gef\val\di\0301\di1602.val"
1000
-LPDXF4=$PV_GENSYSTEM"gef\val\di\0301\di1602_v.dxf"
1000
-LPPART5=0
1000
-LPPART6=0
1000
-LPPART7=0
1000
-LPPART8=0
1000
-LPPART9=0
1000
-LPPART10=0
1000
$GEF_FLIPX=2
1000
$GEF_FLIPY=2
1000
$GL1=0
1000
$GL2=0
1000
-GRPNAME1MSL_F20_50-0
1000
-LPGL1=1.499999999999642E+01
1000
-LPGL2=0
1000
-GRPNAME2MSL_F20_50-0
1000
-RBSTDRD
1000
-RBDESCR1
1000
-RBDESCR2
1000
-RBBORE1
1000
-RBBORE2
1000
-RBGL1
1000
-RBGL2
1000
-RBBORED
1000
-RBHEADD
1000
-RBCDEP
1000
-RBCANG
1000
$GEF_CDIST=3.000000000000000E+00
1000
$GEF_DRAG=1
1000
$GEF_STANG=2.100000000000000E+02
1000
$GEF_OANG=7.000000000000000E+01
1000
$GEVPROMPTX= Länge: 
1000
$GEF_SNK_ADD=0.000000000000000E+00
1000
-GRPNAME0?
1000
-BAML2
1000
$GEF_PROCALC=1
1002
}
1002
}
1002
{
1000
LST
1002
{
1002
{
1002
}
1002
}
1002
}
1002
{
1000
RET
1002
{
1002
{
1000
CANG
1002
}
1002
{
1000
CDEP
1002
}
1002
{
1000
HEADD
1002
}
1002
{
1000
BORED
1002
}
1002
{
1000
GL2
1000
0
1002
}
1002
{
1000
GL1
1000
14.9999999999964
1002
}
1002
{
1000
BORE2
1002
}
1002
{
1000
BORE1
1000
DIN EN 20273 - M8 - H13
1002
}
1002
{
1000
DESCR2
1002
}
1002
{
1000
DESCR1
1000
Durchgangsloch
1002
}
1002
{
1000
STDRD
1002
}
1002
}
1002
}
1002
{
1000
SYSTEM
1040
1.0
1002
}
1002
{
1000
INFEL
1002
{
1005
59A
1002
}
1002
}
1001
GENIUS_GENOBJ-F-PART_13
1002
{
1000
OWNER
1000
GEF
1002
}
1001
GENIUS_GENOENT_13
1002
{
1000
MYREF
1005
6B4
1002
}
1002
{
1000
GRP
1005
0
1002
}
1001
GENIUS_GENOLIS_13
1002
{
1000
ENT
1005
68D
1005
6A5
1005
6A6
1005
68C
1005
697
1002
}
  0
POINT
  5
6B5
  8
0
 10
0.0
 20
0.0
 30
0.0
1001
GENIUS_GENBH_13
1002
{
1000
FGO
1005
6AB
1002
}
1001
GENIUS_GENODEF_13
1002
{
1000
HIER
1070
     1
1002
}
1002
{
1000
MANEDIT
1070
     0
1002
}
1002
{
1000
NOSEL
1070
     1
1002
}
1002
{
1000
BEHIND
1070
     0
1002
}
1002
{
1000
REACTOR
1002
}
1001
GENIUS_GENOBJ-NBEHI-BHB_13
1002
{
1000
OWNER
1000
GENBEHI
1002
}
1001
GENIUS_GENOENT_13
1002
{
1000
MYREF
1005
6B5
1002
}
1002
{
1000
GRP
1005
0
1002
}
1001
GENIUS_GENOLIS_13
1002
{
1000
ENT
1005
68C
1005
697
1005
6A5
1002
}
  0
POINT
  5
6B6
  8
0
 10
0.0
 20
0.0
 30
0.0
1001
GENIUS_GENBH_13
1002
{
1000
BGO
1005
6B2
1002
}
1002
{
1000
FGLEVEL
1040
10.000000030000001
1002
}
1002
{
1000
FLAGS
1070
    36
1002
}
1002
{
1000
OIUMAP
1000
OIU
1002
}
1002
{
1000
MODIFY
1070
     0
1002
}
1001
GENIUS_GENODEF_13
1002
{
1000
HIER
1070
     1
1002
}
1002
{
1000
MANEDIT
1070
     0
1002
}
1002
{
1000
NOSEL
1070
     1
1002
}
1002
{
1000
BEHIND
1070
     1
1002
}
1002
{
1000
REACTOR
1002
}
1001
GENIUS_GENOBJ-NBEHI-BHF_13
1002
{
1000
OWNER
1000
GENBEHI
1002
}
1001
GENIUS_GENOENT_13
1002
{
1000
MYREF
1005
6B6
1002
}
1002
{
1000
GRP
1005
0
1002
}
1001
GENIUS_GENOLIS_13
1002
{
1000
ENT
1005
68C
1002
}
  0
LINE
  5
79E
  8
ZYL_50_ISO6431-7
 10
299.5828848855927
 20
-32.125851304408201
 30
0.0
 11
409.58288488559259
 21
-32.125851304408201
 31
0.0
  0
LINE
  5
7A9
  8
ZYL_50_ISO6431-3
 10
268.08288488559248
 20
67.874392583975151
 30
0.0
 11
284.58288488559259
 21
66.879392583975147
 31
0.0
1001
GENIUS_GENBH_13
1002
{
1000
OE
1000
CON1
1002
}
1001
GENIUS_GENOREF_13
1005
81D
  0
LINE
  5
7AA
  8
ZYL_50_ISO6431-3
 10
284.58288488559259
 20
106.8793925839751
 30
0.0
 11
268.08288488559248
 21
105.8843925839751
 31
0.0
1001
GENIUS_GENBH_13
1002
{
1000
OE
1000
CON1
1002
}
1001
GENIUS_GENOREF_13
1005
81D
  0
LINE
  5
7AC
  8
ZYL_50_ISO6431-4A
 10
205.58288488559251
 20
94.879392583975147
 30
0.0
 11
193.57778488559259
 21
94.879392583975147
 31
0.0
1001
GENIUS_GENOREF_13
1005
879
  0
LINE
  5
7B0
  8
ZYL_50_ISO6431-7
 10
170.58288488559251
 20
86.879392583975147
 30
0.0
 11
211.5828848855889
 21
86.879392583975147
 31
0.0
  0
LINE
  5
7B1
  8
ZYL_50_ISO6431-4A
 10
205.58288488559251
 20
78.879392583975147
 30
0.0
 11
193.57778488559259
 21
78.879392583975147
 31
0.0
1001
GENIUS_GENOREF_13
1005
879
  0
LINE
  5
7B2
  8
ZYL_50_ISO6431-4
 10
173.58288488559251
 20
79.79953258397515
 30
0.0
 11
185.5879848901277
 21
79.79953258397515
 31
0.0
1001
GENIUS_GENOREF_13
1005
879
  0
LINE
  5
7B3
  8
ZYL_50_ISO6431-4
 10
173.58288488559251
 20
93.959252583975143
 30
0.0
 11
185.5879848901277
 21
93.959252583975143
 31
0.0
1001
GENIUS_GENOREF_13
1005
879
  0
LINE
  5
7B5
  8
ZYL_50_ISO6431-4A
 10
173.58288488559251
 20
93.959252583975143
 30
0.0
 11
173.58288488559251
 21
79.79953258397515
 31
0.0
  0
LINE
  5
7B6
  8
ZYL_50_ISO6431-4
 10
174.5029848855925
 20
94.879392583975147
 30
0.0
 11
174.5029848855925
 21
78.879392583975147
 31
0.0
  0
LINE
  5
7B9
  8
ZYL_50_ISO6431-4A
 10
173.58288488559251
 20
79.79953258397515
 30
0.0
 11
174.5029848855925
 21
78.879392583975147
 31
0.0
  0
LINE
  5
7BF
  8
ZYL_50_ISO6431-4A
 10
173.58288488559251
 20
93.959252583975143
 30
0.0
 11
174.5029848855925
 21
94.879392583975147
 31
0.0
  0
LINE
  5
7C2
  8
ZYL_50_ISO6431-3
 10
214.58288488559219
 20
76.879392583975147
 30
0.0
 11
268.08288488559248
 21
76.879392583975147
 31
0.0
1001
GENIUS_GENBH_13
1002
{
1000
OE
1000
CON1
1002
}
1001
GENIUS_GENOREF_13
1005
81D
  0
LINE
  5
7C3
  8
ZYL_50_ISO6431-3
 10
268.08288488559248
 20
96.879392583975147
 30
0.0
 11
214.58288488559211
 21
96.879392583975147
 31
0.0
1001
GENIUS_GENBH_13
1002
{
1000
OE
1000
CON1
1002
}
1001
GENIUS_GENOREF_13
1005
81D
  0
LINE
  5
7C5
  8
ZYL_50_ISO6431-4A
 10
205.58288488559251
 20
96.879392583975147
 30
0.0
 11
205.58288488559251
 21
76.879392583975147
 31
0.0
  0
LINE
  5
7C7
  8
ZYL_50_ISO6431-4A
 10
205.58288488559251
 20
92.14722258397515
 30
0.0
 11
212.24955488559249
 21
92.14722258397515
 31
0.0
  0
LINE
  5
7C8
  8
ZYL_50_ISO6431-4A
 10
205.58288488559251
 20
81.611562583975143
 30
0.0
 11
212.24955488559249
 21
81.611562583975143
 31
0.0
  0
LINE
  5
7C9
  8
ZYL_50_ISO6431-4
 10
212.24955488559249
 20
92.14722258397515
 30
0.0
 11
205.58288488559251
 21
81.611562583975143
 31
0.0
  0
LINE
  5
7CA
  8
ZYL_50_ISO6431-4
 10
205.58288488559251
 20
92.14722258397515
 30
0.0
 11
212.24955488559249
 21
81.611562583975143
 31
0.0
  0
LINE
  5
7CB
  8
ZYL_50_ISO6431-4A
 10
205.58288488559251
 20
76.879392583975147
 30
0.0
 11
214.58288488559219
 21
76.879392583975147
 31
0.0
1001
GENIUS_GENOREF_13
1005
81D
  0
LINE
  5
7D4
  8
ZYL_50_ISO6431-4A
 10
212.24955488559249
 20
92.14722258397515
 30
0.0
 11
212.24955488559249
 21
81.611562583975143
 31
0.0
  0
LINE
  5
7D5
  8
ZYL_50_ISO6431-4A
 10
214.58288488559211
 20
96.879392583975147
 30
0.0
 11
205.58288488559251
 21
96.879392583975147
 31
0.0
1001
GENIUS_GENOREF_13
1005
81D
  0
LINE
  5
7DA
  8
ZYL_50_ISO6431-3
 10
268.08288488559248
 20
105.8843925839751
 30
0.0
 11
268.08288488559248
 21
67.874392583975151
 31
0.0
1001
GENIUS_GENBH_13
1002
{
1000
OE
1000
CON1
1002
}
1001
GENIUS_GENOREF_13
1005
81D
  0
LINE
  5
7DB
  8
ZYL_50_ISO6431-4A
 10
373.58288488559259
 20
110.59829258397509
 30
0.0
 11
325.58288488559259
 21
110.59829258397509
 31
0.0
  0
LINE
  5
7DC
  8
ZYL_50_ISO6431-4A
 10
373.58288488559259
 20
116.3793925839751
 30
0.0
 11
325.58288488559259
 21
116.3793925839751
 31
0.0
  0
LINE
  5
7DD
  8
ZYL_50_ISO6431-4A
 10
373.58288488559259
 20
63.160492583975163
 30
0.0
 11
325.58288488559259
 21
63.160492583975163
 31
0.0
  0
LINE
  5
7DE
  8
ZYL_50_ISO6431-4A
 10
325.58288488559259
 20
57.37939258397514
 30
0.0
 11
373.58288488559259
 21
57.37939258397514
 31
0.0
  0
LINE
  5
7DF
  8
ZYL_50_ISO6431-7
 10
299.58288488559259
 20
86.879392583975147
 30
0.0
 11
409.58288488559259
 21
86.879392583975147
 31
0.0
  0
LINE
  5
7E0
  8
ZYL_50_ISO6431-4A
 10
325.58288488559259
 20
116.3793925839751
 30
0.0
 11
325.58288488559259
 21
57.37939258397514
 31
0.0
  0
LINE
  5
7E1
  8
ZYL_50_ISO6431-4A
 10
306.58288488559248
 20
54.379392583975147
 30
0.0
 11
306.58288488559248
 21
72.629392583975147
 31
0.0
  0
LINE
  5
7E2
  8
ZYL_50_ISO6431-4A
 10
296.58288488559259
 20
54.379392583975147
 30
0.0
 11
325.58288488559259
 21
54.379392583975147
 31
0.0
  0
LINE
  5
7E3
  8
ZYL_50_ISO6431-4A
 10
296.58288488559259
 20
55.129392583975147
 30
0.0
 11
306.58288488559248
 21
55.129392583975147
 31
0.0
  0
LINE
  5
7E4
  8
ZYL_50_ISO6431-4A
 10
296.58288488559259
 20
56.879392583975147
 30
0.0
 11
296.58288488559259
 21
54.379392583975147
 31
0.0
  0
LINE
  5
7E5
  8
ZYL_50_ISO6431-4A
 10
325.58288488559259
 20
54.379392583975147
 30
0.0
 11
325.58288488559259
 21
57.37939258397514
 31
0.0
  0
LINE
  5
7EC
  8
ZYL_50_ISO6431-4A
 10
325.58288488559259
 20
119.3793925839751
 30
0.0
 11
296.58288488559259
 21
119.3793925839751
 31
0.0
  0
LINE
  5
7ED
  8
ZYL_50_ISO6431-3
 10
284.58288488559259
 20
106.8793925839751
 30
0.0
 11
284.58288488559259
 21
66.879392583975147
 31
0.0
1001
GENIUS_GENBH_13
1002
{
1000
OE
1000
CON1
1002
}
1001
GENIUS_GENOREF_13
1005
81D
  0
LINE
  5
7EE
  8
ZYL_50_ISO6431-4A
 10
306.58288488559248
 20
72.629392583975147
 30
0.0
 11
296.58288488559259
 21
72.629392583975147
 31
0.0
  0
LINE
  5
7EF
  8
ZYL_50_ISO6431-4A
 10
296.58288488559259
 20
72.129392583975147
 30
0.0
 11
306.58288488559248
 21
72.129392583975147
 31
0.0
  0
LINE
  5
7F1
  8
ZYL_50_ISO6431-4A
 10
296.58288488559259
 20
118.6293925839751
 30
0.0
 11
306.58288488559248
 21
118.6293925839751
 31
0.0
  0
LINE
  5
7F2
  8
ZYL_50_ISO6431-4A
 10
306.58288488559248
 20
101.1293925839751
 30
0.0
 11
296.58288488559259
 21
101.1293925839751
 31
0.0
  0
LINE
  5
7F3
  8
ZYL_50_ISO6431-4A
 10
296.58288488559259
 20
101.6293925839751
 30
0.0
 11
306.58288488559248
 21
101.6293925839751
 31
0.0
  0
LINE
  5
7F4
  8
ZYL_50_ISO6431-7
 10
293.58288488559248
 20
110.1293925839751
 30
0.0
 11
313.58288488559259
 21
110.1293925839751
 31
0.0
  0
LINE
  5
7F5
  8
ZYL_50_ISO6431-4A
 10
296.58288488559259
 20
119.3793925839751
 30
0.0
 11
296.58288488559259
 21
116.8793925839751
 31
0.0
  0
LINE
  5
7F6
  8
ZYL_50_ISO6431-4A
 10
306.58288488559248
 20
119.3793925839751
 30
0.0
 11
306.58288488559248
 21
101.1293925839751
 31
0.0
  0
LINE
  5
7F7
  8
ZYL_50_ISO6431-4A
 10
325.58288488559259
 20
116.3793925839751
 30
0.0
 11
325.58288488559259
 21
119.3793925839751
 31
0.0
  0
LINE
  5
7F8
  8
ZYL_50_ISO6431-4A
 10
402.58288488559248
 20
54.379392583975147
 30
0.0
 11
402.58288488559248
 21
66.879392583975147
 31
0.0
  0
LINE
  5
7F9
  8
ZYL_50_ISO6431-4A
 10
392.58288488559259
 20
54.379392583975147
 30
0.0
 11
392.58288488559259
 21
72.629392583975147
 31
0.0
  0
LINE
  5
7FA
  8
ZYL_50_ISO6431-4A
 10
373.58288488559259
 20
116.3793925839751
 30
0.0
 11
373.58288488559259
 21
57.37939258397514
 31
0.0
  0
LINE
  5
7FB
  8
ZYL_50_ISO6431-7
 10
405.58288488559248
 20
63.62939258397514
 30
0.0
 11
385.58288488559248
 21
63.62939258397514
 31
0.0
  0
LINE
  5
7FC
  8
ZYL_50_ISO6431-4A
 10
373.58288488559259
 20
54.379392583975147
 30
0.0
 11
402.58288488559248
 21
54.379392583975147
 31
0.0
  0
LINE
  5
7FD
  8
ZYL_50_ISO6431-4A
 10
373.58288488559259
 20
57.37939258397514
 30
0.0
 11
373.58288488559259
 21
54.379392583975147
 31
0.0
  0
LINE
  5
7FE
  8
ZYL_50_ISO6431-4A
 10
402.58288488559248
 20
55.129392583975147
 30
0.0
 11
392.58288488559259
 21
55.129392583975147
 31
0.0
  0
LINE
  5
7FF
  8
ZYL_50_ISO6431-3
 10
402.58288488559248
 20
60.396392583975143
 30
0.0
 11
385.58288488559248
 21
60.396392583975143
 31
0.0
  0
LINE
  5
800
  8
ZYL_50_ISO6431-3
 10
402.58288488559248
 20
59.629392583975147
 30
0.0
 11
385.58288488559248
 21
59.629392583975147
 31
0.0
  0
LINE
  5
801
  8
ZYL_50_ISO6431-4A
 10
406.58288488559248
 20
106.8793925839751
 30
0.0
 11
402.58288488559248
 21
106.8793925839751
 31
0.0
  0
LINE
  5
802
  8
ZYL_50_ISO6431-7
 10
405.58288488559248
 20
110.1293925839751
 30
0.0
 11
385.58288488559248
 21
110.1293925839751
 31
0.0
  0
LINE
  5
803
  8
ZYL_50_ISO6431-4A
 10
402.58288488559248
 20
66.879392583975147
 30
0.0
 11
406.58288488559248
 21
66.879392583975147
 31
0.0
  0
LINE
  5
804
  8
ZYL_50_ISO6431-4A
 10
402.58288488559248
 20
106.8793925839751
 30
0.0
 11
402.58288488559248
 21
66.879392583975147
 31
0.0
  0
LINE
  5
809
  8
ZYL_50_ISO6431-4A
 10
402.58288488559248
 20
72.129392583975147
 30
0.0
 11
392.58288488559259
 21
72.129392583975147
 31
0.0
  0
LINE
  5
80A
  8
ZYL_50_ISO6431-4A
 10
392.58288488559259
 20
72.629392583975147
 30
0.0
 11
402.58288488559248
 21
72.629392583975147
 31
0.0
  0
LINE
  5
80B
  8
ZYL_50_ISO6431-3
 10
402.58288488559248
 20
66.862392583975151
 30
0.0
 11
385.58288488559248
 21
66.862392583975151
 31
0.0
  0
LINE
  5
80C
  8
ZYL_50_ISO6431-3
 10
402.58288488559248
 20
67.629392583975147
 30
0.0
 11
385.58288488559248
 21
67.629392583975147
 31
0.0
  0
LINE
  5
810
  8
ZYL_50_ISO6431-4A
 10
402.58288488559248
 20
119.3793925839751
 30
0.0
 11
373.58288488559259
 21
119.3793925839751
 31
0.0
  0
LINE
  5
811
  8
ZYL_50_ISO6431-4A
 10
373.58288488559259
 20
119.3793925839751
 30
0.0
 11
373.58288488559259
 21
116.3793925839751
 31
0.0
  0
LINE
  5
812
  8
ZYL_50_ISO6431-4A
 10
392.58288488559259
 20
119.3793925839751
 30
0.0
 11
392.58288488559259
 21
101.1293925839751
 31
0.0
  0
LINE
  5
813
  8
ZYL_50_ISO6431-4A
 10
402.58288488559248
 20
101.6293925839751
 30
0.0
 11
392.58288488559259
 21
101.6293925839751
 31
0.0
  0
LINE
  5
814
  8
ZYL_50_ISO6431-4A
 10
392.58288488559259
 20
101.1293925839751
 30
0.0
 11
402.58288488559248
 21
101.1293925839751
 31
0.0
  0
LINE
  5
815
  8
ZYL_50_ISO6431-3
 10
402.58288488559248
 20
106.1293925839751
 30
0.0
 11
385.58288488559248
 21
106.1293925839751
 31
0.0
  0
LINE
  5
816
  8
ZYL_50_ISO6431-4A
 10
402.58288488559248
 20
118.6293925839751
 30
0.0
 11
392.58288488559259
 21
118.6293925839751
 31
0.0
  0
LINE
  5
817
  8
ZYL_50_ISO6431-3
 10
402.58288488559248
 20
113.36239258397509
 30
0.0
 11
385.58288488559248
 21
113.36239258397509
 31
0.0
  0
LINE
  5
818
  8
ZYL_50_ISO6431-3
 10
402.58288488559248
 20
114.1293925839751
 30
0.0
 11
385.58288488559248
 21
114.1293925839751
 31
0.0
  0
LINE
  5
819
  8
ZYL_50_ISO6431-3
 10
402.58288488559248
 20
106.8963925839751
 30
0.0
 11
385.58288488559248
 21
106.8963925839751
 31
0.0
  0
LINE
  5
81A
  8
ZYL_50_ISO6431-4A
 10
402.58288488559248
 20
106.8793925839751
 30
0.0
 11
402.58288488559248
 21
119.3793925839751
 31
0.0
  0
LINE
  5
81B
  8
ZYL_50_ISO6431-4A
 10
406.58288488559248
 20
86.879392583975147
 30
0.0
 11
406.58288488559248
 21
106.8793925839751
 31
0.0
  0
LINE
  5
81C
  8
ZYL_50_ISO6431-4A
 10
406.58288488559248
 20
66.879392583975147
 30
0.0
 11
406.58288488559248
 21
86.879392583975147
 31
0.0
  0
POINT
  5
81D
  8
0
 10
0.0
 20
0.0
 30
0.0
1001
GENIUS_GENBH_13
1002
{
1000
FGO
1005
4AA
1002
}
1001
GENIUS_GENODEF_13
1002
{
1000
HIER
1070
     1
1002
}
1002
{
1000
MANEDIT
1070
     0
1002
}
1002
{
1000
NOSEL
1070
     1
1002
}
1002
{
1000
BEHIND
1070
     0
1002
}
1002
{
1000
REACTOR
1002
}
1001
GENIUS_GENOBJ-NBEHI-BHB_13
1002
{
1000
OWNER
1000
GENBEHI
1002
}
1001
GENIUS_GENOENT_13
1002
{
1000
MYREF
1005
81D
1002
}
1002
{
1000
GRP
1005
0
1002
}
1001
GENIUS_GENOLIS_13
1002
{
1000
ENT
1005
7C2
1005
7D5
1005
7ED
1005
7AA
1005
7A9
1005
7DA
1005
7CB
1005
7C3
1002
}
  0
LINE
  5
825
  8
ZYL_50_ISO6431-3
 10
379.36038488559268
 20
119.3793925839751
 30
0.0
 11
379.36038488559268
 21
112.8008925839751
 31
0.0
  0
LINE
  5
826
  8
ZYL_50_ISO6431-3
 10
378.50438488559269
 20
119.3793925839751
 30
0.0
 11
378.50438488559269
 21
112.8008925839751
 31
0.0
  0
LINE
  5
827
  8
ZYL_50_ISO6431-3
 10
391.66138488559261
 20
119.3793925839751
 30
0.0
 11
391.66138488559261
 21
112.8008925839751
 31
0.0
  0
LINE
  5
828
  8
ZYL_50_ISO6431-3
 10
390.80538488559262
 20
119.3793925839751
 30
0.0
 11
390.80538488559262
 21
112.8008925839751
 31
0.0
  0
LINE
  5
829
  8
ZYL_50_ISO6431-7
 10
385.0828848855927
 20
122.3793925839751
 30
0.0
 11
385.0828848855927
 21
112.8008925839751
 31
0.0
  0
LINE
  5
82B
  8
ZYL_50_ISO6431-3
 10
308.36038488559268
 20
119.3793925839751
 30
0.0
 11
308.36038488559268
 21
112.8008925839751
 31
0.0
  0
LINE
  5
82C
  8
ZYL_50_ISO6431-3
 10
307.50438488559269
 20
119.3793925839751
 30
0.0
 11
307.50438488559269
 21
112.8008925839751
 31
0.0
  0
LINE
  5
82D
  8
ZYL_50_ISO6431-3
 10
320.66138488559261
 20
119.3793925839751
 30
0.0
 11
320.66138488559261
 21
112.8008925839751
 31
0.0
  0
LINE
  5
82E
  8
ZYL_50_ISO6431-3
 10
319.80538488559262
 20
119.3793925839751
 30
0.0
 11
319.80538488559262
 21
112.8008925839751
 31
0.0
  0
LINE
  5
82F
  8
ZYL_50_ISO6431-7
 10
314.0828848855927
 20
122.3793925839751
 30
0.0
 11
314.0828848855927
 21
112.8008925839751
 31
0.0
  0
POLYLINE
  5
855
  8
ZYL_50_ISO6431-4A
 66
     1
 10
0.0
 20
0.0
 30
0.0
 70
     1
1001
GENIUS_GENODEF_13
1002
{
1000
HIER
1070
     0
1002
}
1002
{
1000
MANEDIT
1070
     0
1002
}
1002
{
1000
NOSEL
1070
     0
1002
}
1002
{
1000
BEHIND
1070
     0
1002
}
1002
{
1000
REACTOR
1002
}
1001
GENIUS_GENOBJ-N-REC_13
1002
{
1000
OWNER
1000
GEN
1002
}
1001
GENIUS_GENOREF_13
1005
878
  0
VERTEX
  5
856
  8
ZYL_50_ISO6431-4A
 10
185.5879848901277
 20
74.87939258397455
 30
0.0
  0
VERTEX
  5
857
  8
ZYL_50_ISO6431-4A
 10
193.57778488559259
 20
74.87939258397455
 30
0.0
  0
VERTEX
  5
858
  8
ZYL_50_ISO6431-4A
 10
193.57778488559259
 20
98.87939258397455
 30
0.0
  0
VERTEX
  5
859
  8
ZYL_50_ISO6431-4A
 10
185.5879848901277
 20
98.87939258397455
 30
0.0
  0
SEQEND
  5
85A
  8
ZYL_50_ISO6431-4A
  0
LINE
  5
85E
  8
ZYL_50_ISO6431-4A
 10
186.0804411155961
 20
86.879392583970926
 30
0.0
 11
193.08530668100499
 21
86.879391978291778
 31
0.0
  0
ARC
  5
863
  8
ZYL_50_ISO6431-4A
 10
222.38560575584049
 20
92.879392583972731
 30
0.0
 40
36.797621927989759
 50
170.61579313818831
 51
189.38420686181169
  0
ARC
  5
867
  8
ZYL_50_ISO6431-4A
 10
156.7817843052984
 20
92.879392583974564
 30
0.0
 40
36.79600164261791
 50
350.61537617605887
 51
9.3846238239410731
  0
ARC
  5
86B
  8
ZYL_50_ISO6431-4A
 10
156.78177891932461
 20
80.879392583979794
 30
0.0
 40
36.796006956504861
 50
350.61537754358062
 51
9.3846224564040828
  0
ARC
  5
86F
  8
ZYL_50_ISO6431-4A
 10
222.38561114219351
 20
80.879392583967672
 30
0.0
 40
36.79762724225764
 50
170.61579450569729
 51
189.38420549429199
  0
LINE
  5
870
  8
ZYL_50_ISO6431-3
 10
185.5879848901277
 20
93.959252583975143
 30
0.0
 11
193.57778488559259
 21
93.959252583975143
 31
0.0
1001
GENIUS_GENBH_13
1002
{
1000
OE
1000
BELI
1002
}
1001
GENIUS_GENOREF_13
1005
879
  0
LINE
  5
871
  8
ZYL_50_ISO6431-4
 10
193.57778488559259
 20
93.959252583975143
 30
0.0
 11
205.58288488559251
 21
93.959252583975143
 31
0.0
1001
GENIUS_GENOREF_13
1005
879
  0
LINE
  5
872
  8
ZYL_50_ISO6431-3
 10
193.57778488559259
 20
94.879392583975147
 30
0.0
 11
185.5879848901277
 21
94.879392583975147
 31
0.0
1001
GENIUS_GENBH_13
1002
{
1000
OE
1000
CON1
1002
}
1001
GENIUS_GENOREF_13
1005
879
  0
LINE
  5
873
  8
ZYL_50_ISO6431-4A
 10
185.5879848901277
 20
94.879392583975147
 30
0.0
 11
174.5029848855925
 21
94.879392583975147
 31
0.0
1001
GENIUS_GENOREF_13
1005
879
  0
LINE
  5
874
  8
ZYL_50_ISO6431-3
 10
185.5879848901277
 20
79.79953258397515
 30
0.0
 11
193.57778488559259
 21
79.79953258397515
 31
0.0
1001
GENIUS_GENBH_13
1002
{
1000
OE
1000
BELI
1002
}
1001
GENIUS_GENOREF_13
1005
879
  0
LINE
  5
875
  8
ZYL_50_ISO6431-4
 10
193.57778488559259
 20
79.79953258397515
 30
0.0
 11
205.58288488559251
 21
79.79953258397515
 31
0.0
1001
GENIUS_GENOREF_13
1005
879
  0
LINE
  5
876
  8
ZYL_50_ISO6431-3
 10
193.57778488559259
 20
78.879392583975147
 30
0.0
 11
185.5879848901277
 21
78.879392583975147
 31
0.0
1001
GENIUS_GENBH_13
1002
{
1000
OE
1000
CON1
1002
}
1001
GENIUS_GENOREF_13
1005
879
  0
LINE
  5
877
  8
ZYL_50_ISO6431-4A
 10
185.5879848901277
 20
78.879392583975147
 30
0.0
 11
174.5029848855925
 21
78.879392583975147
 31
0.0
1001
GENIUS_GENOREF_13
1005
879
  0
POINT
  5
878
  8
0
 10
0.0
 20
0.0
 30
0.0
1001
GENIUS_GENBH_13
1002
{
1000
BGO
1005
879
1002
}
1002
{
1000
FLAGS
1070
   164
1002
}
1002
{
1000
MODIFY
1002
{
1000
I
1000
H
1002
}
1002
}
1001
GENIUS_GENODEF_13
1002
{
1000
HIER
1070
     1
1002
}
1002
{
1000
MANEDIT
1070
     0
1002
}
1002
{
1000
NOSEL
1070
     1
1002
}
1002
{
1000
BEHIND
1070
     0
1002
}
1002
{
1000
REACTOR
1002
}
1001
GENIUS_GENOBJ-NBEHI-BHF_13
1002
{
1000
OWNER
1000
GENBEHI
1002
}
1001
GENIUS_GENOENT_13
1002
{
1000
MYREF
1005
878
1002
}
1002
{
1000
GRP
1005
0
1002
}
1001
GENIUS_GENOLIS_13
1002
{
1000
ENT
1005
855
1002
}
  0
POINT
  5
879
  8
0
 10
0.0
 20
0.0
 30
0.0
1001
GENIUS_GENBH_13
1002
{
1000
FGO
1005
878
1002
}
1001
GENIUS_GENODEF_13
1002
{
1000
HIER
1070
     1
1002
}
1002
{
1000
MANEDIT
1070
     0
1002
}
1002
{
1000
NOSEL
1070
     1
1002
}
1002
{
1000
BEHIND
1070
     0
1002
}
1002
{
1000
REACTOR
1002
}
1001
GENIUS_GENOBJ-NBEHI-BHB_13
1002
{
1000
OWNER
1000
GENBEHI
1002
}
1001
GENIUS_GENOENT_13
1002
{
1000
MYREF
1005
879
1002
}
1002
{
1000
GRP
1005
0
1002
}
1001
GENIUS_GENOLIS_13
1002
{
1000
ENT
1005
877
1005
876
1005
875
1005
874
1005
873
1005
872
1005
871
1005
870
1005
7B1
1005
7B2
1005
7AC
1005
7B3
1002
}
  0
LINE
  5
882
  8
ZYL_50_ISO6431-3
 10
193.57788488559271
 20
-24.125851304408201
 30
0.0
 11
185.6022248855927
 21
-24.125851304408201
 31
0.0
1001
GENIUS_GENBH_13
1002
{
1000
OE
1000
CON1
1002
}
1001
GENIUS_GENOREF_13
1005
88B
  0
LINE
  5
883
  8
ZYL_50_ISO6431-4A
 10
185.6022248855927
 20
-24.125851304408201
 30
0.0
 11
174.5029848855927
 21
-24.125851304408201
 31
0.0
1001
GENIUS_GENOREF_13
1005
88B
  0
LINE
  5
884
  8
ZYL_50_ISO6431-3
 10
185.6022248855927
 20
-25.045991304408201
 30
0.0
 11
193.57788488559271
 21
-25.045991304408201
 31
0.0
1001
GENIUS_GENBH_13
1002
{
1000
OE
1000
BELI
1002
}
1001
GENIUS_GENOREF_13
1005
88B
  0
LINE
  5
885
  8
ZYL_50_ISO6431-4
 10
193.57788488559271
 20
-25.045991304408201
 30
0.0
 11
205.58288488559259
 21
-25.045991304408201
 31
0.0
1001
GENIUS_GENOREF_13
1005
88B
  0
LINE
  5
886
  8
ZYL_50_ISO6431-3
 10
193.57788488559271
 20
-40.125851304408201
 30
0.0
 11
185.6022248855927
 21
-40.125851304408201
 31
0.0
1001
GENIUS_GENBH_13
1002
{
1000
OE
1000
CON1
1002
}
1001
GENIUS_GENOREF_13
1005
88B
  0
LINE
  5
887
  8
ZYL_50_ISO6431-4A
 10
185.6022248855927
 20
-40.125851304408201
 30
0.0
 11
174.5029848855927
 21
-40.125851304408201
 31
0.0
1001
GENIUS_GENOREF_13
1005
88B
  0
LINE
  5
888
  8
ZYL_50_ISO6431-3
 10
185.6022248855927
 20
-39.20571130440819
 30
0.0
 11
193.57788488559271
 21
-39.20571130440819
 31
0.0
1001
GENIUS_GENBH_13
1002
{
1000
OE
1000
BELI
1002
}
1001
GENIUS_GENOREF_13
1005
88B
  0
LINE
  5
889
  8
ZYL_50_ISO6431-4
 10
193.57788488559271
 20
-39.20571130440819
 30
0.0
 11
205.58288488559259
 21
-39.20571130440819
 31
0.0
1001
GENIUS_GENOREF_13
1005
88B
  0
POINT
  5
88B
  8
0
 10
0.0
 20
0.0
 30
0.0
1001
GENIUS_GENBH_13
1002
{
1000
FGO
1005
88A
1002
}
1001
GENIUS_GENODEF_13
1002
{
1000
HIER
1070
     1
1002
}
1002
{
1000
MANEDIT
1070
     0
1002
}
1002
{
1000
NOSEL
1070
     1
1002
}
1002
{
1000
BEHIND
1070
     0
1002
}
1002
{
1000
REACTOR
1002
}
1001
GENIUS_GENOBJ-NBEHI-BHB_13
1002
{
1000
OWNER
1000
GENBEHI
1002
}
1001
GENIUS_GENOENT_13
1002
{
1000
MYREF
1005
88B
1002
}
1002
{
1000
GRP
1005
0
1002
}
1001
GENIUS_GENOLIS_13
1002
{
1000
ENT
1005
889
1005
888
1005
887
1005
886
1005
885
1005
884
1005
883
1005
882
1005
30F
1005
30A
1005
30E
1005
309
1002
}
  0
LINE
  5
9F2
  8
MSF20-3
 10
532.3837111508451
 20
61.879392583976482
 30
0.0
 11
502.38371115084499
 21
61.879392583976482
 31
0.0
1001
GENIUS_GENBH_13
1002
{
1000
OE
1000
CON1
1002
}
1001
GENIUS_GENOREF_13
1005
C44
  0
LINE
  5
9F6
  8
MSF20-0
 10
502.38371115084499
 20
161.8793925839764
 30
0.0
 11
532.3837111508451
 21
161.87939258397651
 31
0.0
1001
GENIUS_GENOREF_13
1005
AE0
1005
C47
  0
INSERT
  5
9F7
  8
MSF20-0
  2
*U58
 10
517.38371115084135
 20
161.8793925839779
 30
0.0
 50
270.0
1001
GENIUS_GEFPARTINS_13
1002
{
1011
517.38371115084135
1021
0.0
1031
0.0
1021
161.8793925839779
1031
0.0
1013
-0.0000000000000002
1023
0.0
1033
0.0
1023
-1.0
1033
0.0
1002
}
1001
VCC
1002
{
1000
-ID15
1000
-IE2
1000
-IK15
1000
-V$PV_GENSYSTEM"GEF\VAL\DI\0405\DI1627_V.DXF"
1002
}
1001
GEVIT
1002
{
1000
-BEHI2.00000001
1000
-BVCCT0
1000
-GRP0MSF16-0
1000
-BAML2
1000
-BASK1
1000
-NT0
1000
-DOC
1005
AF4
1000
-MYREF
1005
9F7
1002
}
1001
GEVPT
1002
{
1000
-V$PV_GENSYSTEM"GEF\VAL\DI\0405\DI1627_V.DXF"
1000
-FIXPLOTI=8.000000000000000E+00
1000
-GPGEF_PROCALC=1
1000
-GPGEF_FLIPY=1
1000
-GPGEF_FLIPX=1
1000
-GPGEF_SNK_ADD=0
1000
-GPGEVPROMPTX=Länge:
1000
-GPGEF_OANG=70
1000
-GPGEF_STANG=210
1000
-GPGEF_DRAG=1
1000
-GPGEF_CDIST=3
1000
-GPVCC_TABLE=C:\GENIUS\gef\val\di\0405\di1627.val
1000
-GPNM1=1/8
1000
-GPPRE=G
1002
}
1001
GENIUS_GENOREF_13
1005
ADF
1005
ADE
1001
GEVMK
1002
{
1000
-CO
1000
-MYREF
1005
9F7
1002
}
1001
GEVID884361707
1002
{
1002
}
  0
POLYLINE
  5
9F8
  8
MSF20-0
 66
     1
 10
0.0
 20
0.0
 30
0.0
 70
     4
 75
     6
  0
VERTEX
  5
9F9
  8
MSF20-0
 10
508.75634769970401
 20
161.8793925839764
 30
0.0
 70
    16
  0
VERTEX
  5
9FA
  8
MSF20-0
 10
508.75634769970401
 20
161.8793925839764
 30
0.0
 70
     8
  0
VERTEX
  5
9FB
  8
MSF20-0
 10
508.71080038336328
 20
160.5225995213664
 30
0.0
 70
     8
  0
VERTEX
  5
9FC
  8
MSF20-0
 10
508.70499855501907
 20
159.4310219783668
 30
0.0
 70
     8
  0
VERTEX
  5
9FD
  8
MSF20-0
 10
508.73215640141399
 20
158.57079820092841
 30
0.0
 70
     8
  0
VERTEX
  5
9FE
  8
MSF20-0
 10
508.78548810929118
 20
157.90806643500241
 30
0.0
 70
     8
  0
VERTEX
  5
9FF
  8
MSF20-0
 10
508.85820786539352
 20
157.40896492653951
 30
0.0
 70
     8
  0
VERTEX
  5
A00
  8
MSF20-0
 10
508.94352985646378
 20
157.03963192149041
 30
0.0
 70
     8
  0
VERTEX
  5
A01
  8
MSF20-0
 10
509.03466826924517
 20
156.7662056658063
 30
0.0
 70
     8
  0
VERTEX
  5
A02
  8
MSF20-0
 10
509.1248372904804
 20
156.55482440543781
 30
0.0
 70
     8
  0
VERTEX
  5
A03
  8
MSF20-0
 10
509.20871989725561
 20
156.3765360733976
 30
0.0
 70
     8
  0
VERTEX
  5
A04
  8
MSF20-0
 10
509.28687422803011
 20
156.22202735094561
 30
0.0
 70
     8
  0
VERTEX
  5
A05
  8
MSF20-0
 10
509.36132721160652
 20
156.08689460640329
 30
0.0
 70
     8
  0
VERTEX
  5
A06
  8
MSF20-0
 10
509.43410577678702
 20
155.9667342080925
 30
0.0
 70
     8
  0
VERTEX
  5
A07
  8
MSF20-0
 10
509.50723685237432
 20
155.85714252433459
 30
0.0
 70
     8
  0
VERTEX
  5
A08
  8
MSF20-0
 10
509.58274736717073
 20
155.75371592345141
 30
0.0
 70
     8
  0
VERTEX
  5
A09
  8
MSF20-0
 10
509.66266424997889
 20
155.65205077376439
 30
0.0
 70
     8
  0
VERTEX
  5
A0A
  8
MSF20-0
 10
509.74901442960117
 20
155.54774344359529
 30
0.0
 70
     8
  0
VERTEX
  5
A0B
  8
MSF20-0
 10
509.84322263132259
 20
155.4374765303638
 30
0.0
 70
     8
  0
VERTEX
  5
A0C
  8
MSF20-0
 10
509.94430476635762
 20
155.32227754788241
 30
0.0
 70
     8
  0
VERTEX
  5
A0D
  8
MSF20-0
 10
510.05067454240282
 20
155.2042602390616
 30
0.0
 70
     8
  0
VERTEX
  5
A0E
  8
MSF20-0
 10
510.16074566715542
 20
155.0855383468122
 30
0.0
 70
     8
  0
VERTEX
  5
A0F
  8
MSF20-0
 10
510.27293184831223
 20
154.96822561404451
 30
0.0
 70
     8
  0
VERTEX
  5
A10
  8
MSF20-0
 10
510.38564679357
 20
154.85443578366929
 30
0.0
 70
     8
  0
VERTEX
  5
A11
  8
MSF20-0
 10
510.49730421062571
 20
154.7462825985973
 30
0.0
 70
     8
  0
VERTEX
  5
A12
  8
MSF20-0
 10
510.6063178071762
 20
154.6458798017388
 30
0.0
 70
     8
  0
VERTEX
  5
A13
  8
MSF20-0
 10
510.71159194895353
 20
154.55486166119201
 30
0.0
 70
     8
  0
VERTEX
  5
A14
  8
MSF20-0
 10
510.81399363383002
 20
154.4729445458035
 30
0.0
 70
     8
  0
VERTEX
  5
A15
  8
MSF20-0
 10
510.91488051771341
 20
154.39936534960771
 30
0.0
 70
     8
  0
VERTEX
  5
A16
  8
MSF20-0
 10
511.01561025651142
 20
154.33336096663859
 30
0.0
 70
     8
  0
VERTEX
  5
A17
  8
MSF20-0
 10
511.11754050613149
 20
154.2741682909305
 30
0.0
 70
     8
  0
VERTEX
  5
A18
  8
MSF20-0
 10
511.22202892248117
 20
154.22102421651741
 30
0.0
 70
     8
  0
VERTEX
  5
A19
  8
MSF20-0
 10
511.33043316146819
 20
154.1731656374337
 30
0.0
 70
     8
  0
VERTEX
  5
A1A
  8
MSF20-0
 10
511.44411087900011
 20
154.1298294477134
 30
0.0
 70
     8
  0
VERTEX
  5
A1B
  8
MSF20-0
 10
511.56413151849722
 20
154.09014477065961
 30
0.0
 70
     8
  0
VERTEX
  5
A1C
  8
MSF20-0
 10
511.69041167343141
 20
154.0528096466513
 30
0.0
 70
     8
  0
VERTEX
  5
A1D
  8
MSF20-0
 10
511.82257972478698
 20
154.0164143453363
 30
0.0
 70
     8
  0
VERTEX
  5
A1E
  8
MSF20-0
 10
511.9602640535486
 20
153.97954913636241
 30
0.0
 70
     8
  0
VERTEX
  5
A1F
  8
MSF20-0
 10
512.1030930407004
 20
153.9408042893775
 30
0.0
 70
     8
  0
VERTEX
  5
A20
  8
MSF20-0
 10
512.25069506722718
 20
153.8987700740295
 30
0.0
 70
     8
  0
VERTEX
  5
A21
  8
MSF20-0
 10
512.40269851411335
 20
153.85203675996621
 30
0.0
 70
     8
  0
VERTEX
  5
A22
  8
MSF20-0
 10
512.55873176234343
 20
153.79919461683539
 30
0.0
 70
     8
  0
VERTEX
  5
A23
  8
MSF20-0
 10
512.71834143533943
 20
153.73930382424871
 30
0.0
 70
     8
  0
VERTEX
  5
A24
  8
MSF20-0
 10
512.88074712627372
 20
153.67330420167261
 30
0.0
 70
     8
  0
VERTEX
  5
A25
  8
MSF20-0
 10
513.0450866707564
 20
153.6026054785373
 30
0.0
 70
     8
  0
VERTEX
  5
A26
  8
MSF20-0
 10
513.21049790439781
 20
153.5286173842731
 30
0.0
 70
     8
  0
VERTEX
  5
A27
  8
MSF20-0
 10
513.3761186628077
 20
153.45274964830989
 30
0.0
 70
     8
  0
VERTEX
  5
A28
  8
MSF20-0
 10
513.54108678159639
 20
153.37641200007829
 30
0.0
 70
     8
  0
VERTEX
  5
A29
  8
MSF20-0
 10
513.70454009637388
 20
153.3010141690082
 30
0.0
 70
     8
  0
VERTEX
  5
A2A
  8
MSF20-0
 10
513.86561644275014
 20
153.22796588452991
 30
0.0
 70
     8
  0
VERTEX
  5
A2B
  8
MSF20-0
 10
514.02403502792993
 20
153.15842231805021
 30
0.0
 70
     8
  0
VERTEX
  5
A2C
  8
MSF20-0
 10
514.18184054549613
 20
153.09252040888211
 30
0.0
 70
     8
  0
VERTEX
  5
A2D
  8
MSF20-0
 10
514.34165906062606
 20
153.0301425383154
 30
0.0
 70
     8
  0
VERTEX
  5
A2E
  8
MSF20-0
 10
514.50611663849725
 20
152.97117108763979
 30
0.0
 70
     8
  0
VERTEX
  5
A2F
  8
MSF20-0
 10
514.67783934428735
 20
152.91548843814479
 30
0.0
 70
     8
  0
VERTEX
  5
A30
  8
MSF20-0
 10
514.85945324317333
 20
152.8629769711201
 30
0.0
 70
     8
  0
VERTEX
  5
A31
  8
MSF20-0
 10
515.05358440033285
 20
152.8135190678554
 30
0.0
 70
     8
  0
VERTEX
  5
A32
  8
MSF20-0
 10
515.26285888094355
 20
152.76699710964041
 30
0.0
 70
     8
  0
VERTEX
  5
A33
  8
MSF20-0
 10
515.48897137781785
 20
152.7235479411041
 30
0.0
 70
     8
  0
VERTEX
  5
A34
  8
MSF20-0
 10
515.72989109431035
 20
152.68432626023281
 30
0.0
 70
     8
  0
VERTEX
  5
A35
  8
MSF20-0
 10
515.98265586141076
 20
152.6507412283525
 30
0.0
 70
     8
  0
VERTEX
  5
A36
  8
MSF20-0
 10
516.24430351010869
 20
152.62420200678881
 30
0.0
 70
     8
  0
VERTEX
  5
A37
  8
MSF20-0
 10
516.51187187139396
 20
152.60611775686741
 30
0.0
 70
     8
  0
VERTEX
  5
A38
  8
MSF20-0
 10
516.7823987762564
 20
152.59789763991429
 30
0.0
 70
     8
  0
VERTEX
  5
A39
  8
MSF20-0
 10
517.05292205568537
 20
152.6009508172551
 30
0.0
 70
     8
  0
VERTEX
  5
A3A
  8
MSF20-0
 10
517.32047954067093
 20
152.61668645021561
 30
0.0
 70
     8
  0
VERTEX
  5
A3B
  8
MSF20-0
 10
517.58236205695255
 20
152.6458678344371
 30
0.0
 70
     8
  0
VERTEX
  5
A3C
  8
MSF20-0
 10
517.83687240926974
 20
152.68667480282309
 30
0.0
 70
     8
  0
VERTEX
  5
A3D
  8
MSF20-0
 10
518.08256639711237
 20
152.73664132259231
 30
0.0
 70
     8
  0
VERTEX
  5
A3E
  8
MSF20-0
 10
518.31799981996971
 20
152.7933013609638
 30
0.0
 70
     8
  0
VERTEX
  5
A3F
  8
MSF20-0
 10
518.54172847733162
 20
152.8541888851565
 30
0.0
 70
     8
  0
VERTEX
  5
A40
  8
MSF20-0
 10
518.75230816868725
 20
152.9168378623894
 30
0.0
 70
     8
  0
VERTEX
  5
A41
  8
MSF20-0
 10
518.94829469352635
 20
152.97878225988131
 30
0.0
 70
     8
  0
VERTEX
  5
A42
  8
MSF20-0
 10
519.12824385133865
 20
153.0375560448513
 30
0.0
 70
     8
  0
VERTEX
  5
A43
  8
MSF20-0
 10
519.29131634077055
 20
153.09116290511369
 30
0.0
 70
     8
  0
VERTEX
  5
A44
  8
MSF20-0
 10
519.43909245709835
 20
153.13948541086549
 30
0.0
 70
     8
  0
VERTEX
  5
A45
  8
MSF20-0
 10
519.57375739475492
 20
153.182875852899
 30
0.0
 70
     8
  0
VERTEX
  5
A46
  8
MSF20-0
 10
519.69749634817333
 20
153.22168652200679
 30
0.0
 70
     8
  0
VERTEX
  5
A47
  8
MSF20-0
 10
519.81249451178689
 20
153.25626970898111
 30
0.0
 70
     8
  0
VERTEX
  5
A48
  8
MSF20-0
 10
519.92093708002869
 20
153.2869777046144
 30
0.0
 70
     8
  0
VERTEX
  5
A49
  8
MSF20-0
 10
520.02500924733181
 20
153.3141627996992
 30
0.0
 70
     8
  0
VERTEX
  5
A4A
  8
MSF20-0
 10
520.12689620812944
 20
153.3381772850278
 30
0.0
 70
     8
  0
VERTEX
  5
A4B
  8
MSF20-0
 10
520.22847770976853
 20
153.35931473595321
 30
0.0
 70
     8
  0
VERTEX
  5
A4C
  8
MSF20-0
 10
520.33041171125092
 20
153.37763386607111
 30
0.0
 70
     8
  0
VERTEX
  5
A4D
  8
MSF20-0
 10
520.43305072449255
 20
153.39313467353739
 30
0.0
 70
     8
  0
VERTEX
  5
A4E
  8
MSF20-0
 10
520.53674726140912
 20
153.40581715650831
 30
0.0
 70
     8
  0
VERTEX
  5
A4F
  8
MSF20-0
 10
520.64185383391634
 20
153.4156813131398
 30
0.0
 70
     8
  0
VERTEX
  5
A50
  8
MSF20-0
 10
520.74872295393004
 20
153.42272714158821
 30
0.0
 70
     8
  0
VERTEX
  5
A51
  8
MSF20-0
 10
520.85770713336603
 20
153.42695464000931
 30
0.0
 70
     8
  0
VERTEX
  5
A52
  8
MSF20-0
 10
520.96915888414003
 20
153.4283638065595
 30
0.0
 70
     8
  0
VERTEX
  5
A53
  8
MSF20-0
 10
521.08309293423258
 20
153.427209103656
 30
0.0
 70
     8
  0
VERTEX
  5
A54
  8
MSF20-0
 10
521.19817287588285
 20
153.42476285076151
 30
0.0
 70
     8
  0
VERTEX
  5
A55
  8
MSF20-0
 10
521.31272451739483
 20
153.42255183159989
 30
0.0
 70
     8
  0
VERTEX
  5
A56
  8
MSF20-0
 10
521.4250736670723
 20
153.42210282989501
 30
0.0
 70
     8
  0
VERTEX
  5
A57
  8
MSF20-0
 10
521.53354613321937
 20
153.4249426293708
 30
0.0
 70
     8
  0
VERTEX
  5
A58
  8
MSF20-0
 10
521.63646772413995
 20
153.43259801375109
 30
0.0
 70
     8
  0
VERTEX
  5
A59
  8
MSF20-0
 10
521.73216424813802
 20
153.44659576676
 30
0.0
 70
     8
  0
VERTEX
  5
A5A
  8
MSF20-0
 10
521.81896151351725
 20
153.46846267212121
 30
0.0
 70
     8
  0
VERTEX
  5
A5B
  8
MSF20-0
 10
521.89633083174363
 20
153.49961774236661
 30
0.0
 70
     8
  0
VERTEX
  5
A5C
  8
MSF20-0
 10
521.96832552692865
 20
153.54104890526011
 30
0.0
 70
     8
  0
VERTEX
  5
A5D
  8
MSF20-0
 10
522.04014442634593
 20
153.5936363173733
 30
0.0
 70
     8
  0
VERTEX
  5
A5E
  8
MSF20-0
 10
522.11698635726884
 20
153.658260135278
 30
0.0
 70
     8
  0
VERTEX
  5
A5F
  8
MSF20-0
 10
522.20405014697087
 20
153.7358005155458
 30
0.0
 70
     8
  0
VERTEX
  5
A60
  8
MSF20-0
 10
522.30653462272539
 20
153.82713761474869
 30
0.0
 70
     8
  0
VERTEX
  5
A61
  8
MSF20-0
 10
522.42963861180601
 20
153.93315158945811
 30
0.0
 70
     8
  0
VERTEX
  5
A62
  8
MSF20-0
 10
522.57856094148599
 20
154.05472259624599
 30
0.0
 70
     8
  0
VERTEX
  5
A63
  8
MSF20-0
 10
522.75662061778155
 20
154.19208511552139
 30
0.0
 70
     8
  0
VERTEX
  5
A64
  8
MSF20-0
 10
522.95961736167783
 20
154.3428909230426
 30
0.0
 70
     8
  0
VERTEX
  5
A65
  8
MSF20-0
 10
523.18147107290247
 20
154.50414611840529
 30
0.0
 70
     8
  0
VERTEX
  5
A66
  8
MSF20-0
 10
523.41610165118391
 20
154.67285680120551
 30
0.0
 70
     8
  0
VERTEX
  5
A67
  8
MSF20-0
 10
523.65742899624934
 20
154.84602907103849
 30
0.0
 70
     8
  0
VERTEX
  5
A68
  8
MSF20-0
 10
523.89937300782685
 20
155.0206690275003
 30
0.0
 70
     8
  0
VERTEX
  5
A69
  8
MSF20-0
 10
524.13585358564433
 20
155.19378277018649
 30
0.0
 70
     8
  0
VERTEX
  5
A6A
  8
MSF20-0
 10
524.36079062942952
 20
155.3623763986929
 30
0.0
 70
     8
  0
VERTEX
  5
A6B
  8
MSF20-0
 10
524.56927891718453
 20
155.5243757558502
 30
0.0
 70
     8
  0
VERTEX
  5
A6C
  8
MSF20-0
 10
524.76111274000857
 20
155.6813856574293
 30
0.0
 70
     8
  0
VERTEX
  5
A6D
  8
MSF20-0
 10
524.93726126727563
 20
155.8359306624362
 30
0.0
 70
     8
  0
VERTEX
  5
A6E
  8
MSF20-0
 10
525.09869366835858
 20
155.99053532987691
 30
0.0
 70
     8
  0
VERTEX
  5
A6F
  8
MSF20-0
 10
525.24637911263164
 20
156.1477242187573
 30
0.0
 70
     8
  0
VERTEX
  5
A70
  8
MSF20-0
 10
525.38128676946792
 20
156.31002188808341
 30
0.0
 70
     8
  0
VERTEX
  5
A71
  8
MSF20-0
 10
525.50438580824107
 20
156.47995289686119
 30
0.0
 70
     8
  0
VERTEX
  5
A72
  8
MSF20-0
 10
525.61664539832475
 20
156.66004180409661
 30
0.0
 70
     8
  0
VERTEX
  5
A73
  8
MSF20-0
 10
525.71910818754998
 20
156.8520401184762
 30
0.0
 70
     8
  0
VERTEX
  5
A74
  8
MSF20-0
 10
525.81311073757718
 20
157.05460714740889
 30
0.0
 70
     8
  0
VERTEX
  5
A75
  8
MSF20-0
 10
525.90006308852412
 20
157.2656291479839
 30
0.0
 70
     8
  0
VERTEX
  5
A76
  8
MSF20-0
 10
525.9813752805087
 20
157.48299237729071
 30
0.0
 70
     8
  0
VERTEX
  5
A77
  8
MSF20-0
 10
526.05845735364881
 20
157.70458309241869
 30
0.0
 70
     8
  0
VERTEX
  5
A78
  8
MSF20-0
 10
526.1327193480621
 20
157.92828755045741
 30
0.0
 70
     8
  0
VERTEX
  5
A79
  8
MSF20-0
 10
526.20557130386669
 20
158.15199200849599
 30
0.0
 70
     8
  0
VERTEX
  5
A7A
  8
MSF20-0
 10
526.27842326118025
 20
158.373582723624
 30
0.0
 70
     8
  0
VERTEX
  5
A7B
  8
MSF20-0
 10
526.35230337422422
 20
158.5913422798034
 30
0.0
 70
     8
  0
VERTEX
  5
A7C
  8
MSF20-0
 10
526.42671225363267
 20
158.8051385684864
 30
0.0
 70
     8
  0
VERTEX
  5
A7D
  8
MSF20-0
 10
526.50076862414346
 20
159.01523580799781
 30
0.0
 70
     8
  0
VERTEX
  5
A7E
  8
MSF20-0
 10
526.57359121049421
 20
159.2218982166624
 30
0.0
 70
     8
  0
VERTEX
  5
A7F
  8
MSF20-0
 10
526.64429873742279
 20
159.425390012805
 30
0.0
 70
     8
  0
VERTEX
  5
A80
  8
MSF20-0
 10
526.71200992966681
 20
159.62597541475029
 30
0.0
 70
     8
  0
VERTEX
  5
A81
  8
MSF20-0
 10
526.77584351196379
 20
159.82391864082331
 30
0.0
 70
     8
  0
VERTEX
  5
A82
  8
MSF20-0
 10
526.83491820905203
 20
160.01948390934871
 30
0.0
 70
     8
  0
VERTEX
  5
A83
  8
MSF20-0
 10
526.88826462007898
 20
160.21361763943091
 30
0.0
 70
     8
  0
VERTEX
  5
A84
  8
MSF20-0
 10
526.93456084183458
 20
160.4099950532927
 30
0.0
 70
     8
  0
VERTEX
  5
A85
  8
MSF20-0
 10
526.97239684551869
 20
160.61297357393681
 30
0.0
 70
     8
  0
VERTEX
  5
A86
  8
MSF20-0
 10
527.00036260233162
 20
160.8269106243655
 30
0.0
 70
     8
  0
VERTEX
  5
A87
  8
MSF20-0
 10
527.01704808347279
 20
161.0561636275813
 30
0.0
 70
     8
  0
VERTEX
  5
A88
  8
MSF20-0
 10
527.02104326014285
 20
161.30509000658679
 30
0.0
 70
     8
  0
VERTEX
  5
A89
  8
MSF20-0
 10
527.01093810354143
 20
161.5780471843843
 30
0.0
 70
     8
  0
VERTEX
  5
A8A
  8
MSF20-0
 10
526.98532258486864
 20
161.87939258397651
 30
0.0
 70
     8
  0
VERTEX
  5
A8B
  8
MSF20-0
 10
508.57586237146091
 20
157.87755772060299
 30
0.0
 70
    16
  0
VERTEX
  5
A8C
  8
MSF20-0
 10
509.20755947504767
 20
156.2542031652612
 30
0.0
 70
    16
  0
VERTEX
  5
A8D
  8
MSF20-0
 10
509.65877202302369
 20
155.6228987733077
 30
0.0
 70
    16
  0
VERTEX
  5
A8E
  8
MSF20-0
 10
510.65143901046491
 20
154.54066240307989
 30
0.0
 70
    16
  0
VERTEX
  5
A8F
  8
MSF20-0
 10
511.3733787781735
 20
154.08973042480559
 30
0.0
 70
    16
  0
VERTEX
  5
A90
  8
MSF20-0
 10
512.51971115084143
 20
153.8793925839779
 30
0.0
 70
    16
  0
VERTEX
  5
A91
  8
MSF20-0
 10
513.90016719252128
 20
153.18786694029509
 30
0.0
 70
    16
  0
VERTEX
  5
A92
  8
MSF20-0
 10
515.07331873557359
 20
152.7369349620208
 30
0.0
 70
    16
  0
VERTEX
  5
A93
  8
MSF20-0
 10
517.3837111508451
 20
152.46637586946389
 30
0.0
 70
    16
  0
VERTEX
  5
A94
  8
MSF20-0
 10
519.31471390507124
 20
153.09768026141731
 30
0.0
 70
    16
  0
VERTEX
  5
A95
  8
MSF20-0
 10
520.1268963369015
 20
153.3682393539743
 30
0.0
 70
    16
  0
VERTEX
  5
A96
  8
MSF20-0
 10
520.93907799609951
 20
153.45842603285209
 30
0.0
 70
    16
  0
VERTEX
  5
A97
  8
MSF20-0
 10
521.93174498354085
 20
153.3682393539743
 30
0.0
 70
    16
  0
VERTEX
  5
A98
  8
MSF20-0
 10
522.2477111508415
 20
153.8793925839779
 30
0.0
 70
    16
  0
VERTEX
  5
A99
  8
MSF20-0
 10
524.54877606201023
 20
155.44252588759031
 30
0.0
 70
    16
  0
VERTEX
  5
A9A
  8
MSF20-0
 10
525.72192837769467
 20
156.5247622578182
 30
0.0
 70
    16
  0
VERTEX
  5
A9B
  8
MSF20-0
 10
526.26338281716005
 20
158.41867590571681
 30
0.0
 70
    16
  0
VERTEX
  5
A9C
  8
MSF20-0
 10
526.89507992074709
 20
160.0420304610586
 30
0.0
 70
    16
  0
VERTEX
  5
A9D
  8
MSF20-0
 10
527.07556447635795
 20
161.03408062444689
 30
0.0
 70
    16
  0
VERTEX
  5
A9E
  8
MSF20-0
 10
526.98532258486864
 20
161.87939258397651
 30
0.0
 70
    16
  0
SEQEND
  5
A9F
  8
MSF20-0
  0
LINE
  5
AA0
  8
MSF20-4A
 10
517.3837111508451
 20
157.87939258397651
 30
0.0
 11
521.49771115084275
 21
157.8793925839766
 31
0.0
  0
LINE
  5
AA1
  8
MSF20-4A
 10
522.24771115084275
 20
158.62939258397651
 30
0.0
 11
517.3837111508451
 21
158.62939258397651
 31
0.0
  0
LINE
  5
AA2
  8
MSF20-4A
 10
517.3837111508451
 20
178.87939258397651
 30
0.0
 11
522.1337111508451
 21
178.87939258397839
 31
0.0
  0
LINE
  5
AA3
  8
MSF20-4A
 10
512.63371115084499
 20
176.87939258397651
 30
0.0
 11
522.1337111508451
 21
176.87939258397651
 31
0.0
  0
LINE
  5
AA4
  8
MSF20-4A
 10
522.1337111508451
 20
175.87939258397839
 30
0.0
 11
512.63371115084499
 21
175.87939258397839
 31
0.0
  0
LINE
  5
AA5
  8
MSF20-4A
 10
522.1337111508451
 20
165.87939258397651
 30
0.0
 11
517.3837111508451
 21
165.87939258397651
 31
0.0
  0
LINE
  5
AA7
  8
MSF20-7
 10
517.3837111508451
 20
181.49445043749671
 30
0.0
 11
517.3837111508451
 21
120.3596440107365
 31
0.0
1001
GENIUS_GENOREF_13
1005
AE0
  0
LINE
  5
AA9
  8
MSF20-3
 10
502.38371115084499
 20
61.879392583976482
 30
0.0
 11
502.38371115084499
 21
116.87939258397481
 31
0.0
1001
GENIUS_GENBH_13
1002
{
1000
OE
1000
CON1
1002
}
1001
GENIUS_GENOREF_13
1005
C44
  0
LINE
  5
AC5
  8
MSF20-4A
 10
512.51971115084859
 20
161.879392583982
 30
0.0
 11
512.5197111508437
 21
165.87939258397839
 31
0.0
  0
LINE
  5
AC6
  8
MSF20-4A
 10
513.10048615084872
 20
161.879392583982
 30
0.0
 11
513.10048615084872
 21
165.87939258397651
 31
0.0
  0
INSERT
  5
AC7
  8
MSF20-8
  2
*X55
 10
517.3837111508451
 20
76.915196115213121
 30
0.0
1001
GENIUS_GENODEF_13
1002
{
1000
HIER
1070
     0
1002
}
1002
{
1000
MANEDIT
1070
     0
1002
}
1002
{
1000
NOSEL
1070
     0
1002
}
1002
{
1000
BEHIND
1070
     0
1002
}
1002
{
1000
REACTOR
1002
}
1001
GENIUS_GENOBJ-N-HTC_13
1002
{
1000
OWNER
1000
GEN
1002
}
1001
GENIUS_GENHATCH_13
1002
{
1000
DATA
1040
45.0
1042
2.5
1000
_U
1070
     0
1011
510.69151389554662
1021
0.0
1031
0.0
1021
157.73982876798351
1031
0.0
1002
}
1002
{
1000
UCS
1010
0.0
1020
0.0
1030
0.0
1010
1.0
1020
0.0
1030
0.0
1010
0.0
1020
1.0
1030
0.0
1002
}
1001
ACAD
1000
HATCH
1002
{
1070
    19
1000
_U
1040
2.5
1040
0.7853981633974483
1070
     0
1002
}
  0
LINE
  5
AC8
  8
MSF20-4A
 10
517.3837111508451
 20
157.87939258397651
 30
0.0
 11
513.26971115084734
 21
157.8793925839766
 31
0.0
  0
LINE
  5
AC9
  8
MSF20-4A
 10
512.51971115084734
 20
158.62939258397651
 30
0.0
 11
517.3837111508451
 21
158.62939258397651
 31
0.0
  0
LINE
  5
ACA
  8
MSF20-4A
 10
513.26971115084734
 20
157.8793925839766
 30
0.0
 11
512.51971115084734
 21
158.62939258397651
 31
0.0
  0
LINE
  5
ACB
  8
MSF20-4A
 10
513.6337111508451
 20
176.87939258397839
 30
0.0
 11
513.63371115084146
 21
175.87939258397651
 31
0.0
  0
LINE
  5
ACC
  8
MSF20-4A
 10
512.63371115084499
 20
175.87939258397839
 30
0.0
 11
512.63371115084499
 21
165.87939258397651
 31
0.0
  0
LINE
  5
ACD
  8
MSF20-4A
 10
512.63371115084499
 20
165.87939258397651
 30
0.0
 11
517.3837111508451
 21
165.87939258397651
 31
0.0
  0
LINE
  5
ACE
  8
MSF20-4A
 10
512.5197111508437
 20
165.87939258397839
 30
0.0
 11
512.63371115084499
 21
165.879392583982
 31
0.0
  0
LINE
  5
ACF
  8
MSF20-4A
 10
517.3837111508451
 20
178.87939258397651
 30
0.0
 11
512.63371115084499
 21
178.87939258397839
 31
0.0
  0
LINE
  5
AD0
  8
MSF20-4A
 10
512.63371115084499
 20
178.87939258397839
 30
0.0
 11
512.63371115084499
 21
176.87939258397651
 31
0.0
  0
LINE
  5
AD4
  8
MSF20-0
 10
532.3837111508451
 20
161.8793925839764
 30
0.0
 11
532.3837111508451
 21
116.87939258397471
 31
0.0
1001
GENIUS_GENOREF_13
1005
C44
1005
C47
  0
LINE
  5
AD5
  8
MSF20-4A
 10
522.2477111508415
 20
161.879392583982
 30
0.0
 11
522.2477111508465
 21
165.87939258397839
 31
0.0
  0
LINE
  5
AD6
  8
MSF20-4A
 10
521.66693615084137
 20
161.879392583982
 30
0.0
 11
521.66693615084137
 21
165.87939258397651
 31
0.0
  0
INSERT
  5
AD7
  8
MSF20-8
  2
*X56
 10
517.3837111508451
 20
76.915196115213121
 30
0.0
1001
GENIUS_GENODEF_13
1002
{
1000
HIER
1070
     0
1002
}
1002
{
1000
MANEDIT
1070
     0
1002
}
1002
{
1000
NOSEL
1070
     0
1002
}
1002
{
1000
BEHIND
1070
     0
1002
}
1002
{
1000
REACTOR
1002
}
1001
GENIUS_GENOBJ-N-HTC_13
1002
{
1000
OWNER
1000
GEN
1002
}
1001
GENIUS_GENHATCH_13
1002
{
1000
DATA
1040
45.0
1042
2.5
1000
_U
1070
     0
1011
523.98396727012403
1021
0.0
1031
0.0
1021
159.07216703824449
1031
0.0
1002
}
1002
{
1000
UCS
1010
0.0
1020
0.0
1030
0.0
1010
1.0
1020
0.0
1030
0.0
1010
0.0
1020
1.0
1030
0.0
1002
}
1001
ACAD
1000
HATCH
1002
{
1070
    19
1000
_U
1040
2.5
1040
0.7853981633974483
1070
     0
1002
}
  0
LINE
  5
AD8
  8
MSF20-4A
 10
521.49771115084275
 20
157.8793925839766
 30
0.0
 11
522.24771115084275
 21
158.62939258397651
 31
0.0
  0
LINE
  5
AD9
  8
MSF20-4A
 10
521.13371115084499
 20
176.87939258397839
 30
0.0
 11
521.13371115084874
 21
175.87939258397651
 31
0.0
  0
LINE
  5
ADA
  8
MSF20-4A
 10
522.1337111508451
 20
175.87939258397839
 30
0.0
 11
522.1337111508451
 21
165.87939258397651
 31
0.0
  0
LINE
  5
ADB
  8
MSF20-4A
 10
522.2477111508465
 20
165.87939258397839
 30
0.0
 11
522.1337111508451
 21
165.879392583982
 31
0.0
  0
LINE
  5
ADC
  8
MSF20-4A
 10
522.1337111508451
 20
178.87939258397839
 30
0.0
 11
522.1337111508451
 21
176.87939258397651
 31
0.0
  0
POINT
  5
ADE
  8
0
 10
27.706266126819969
 20
229.18393131758231
 30
0.0
1001
GENIUS_GENODEF_13
1002
{
1000
HIER
1070
   200
1002
}
1002
{
1000
MANEDIT
1070
     0
1002
}
1002
{
1000
NOSEL
1070
     0
1002
}
1002
{
1000
BEHIND
1070
     0
1002
}
1002
{
1000
REACTOR
1002
}
1001
GENIUS_GENOBJ-F-PART_13
1002
{
1000
OWNER
1000
GEF
1002
}
1001
GENIUS_GEFSTDP_13
1002
{
1000
DSC
1000
DSC
1002
{
1000
~DESCR
1000
 
1000
~STDRT
1000
(gefmsg "gefcall" 409)
1000
~LOTI
1002
}
1002
}
1002
{
1000
SUG
1000
G
1000
1/8
1002
}
1002
{
1000
KEY
1000
THPF
1002
}
1002
{
1000
INS
1002
{
1040
-0.000000000003638
1040
84.964196468764797
1040
0.0
1002
}
1002
}
1002
{
1000
ANG
1040
4.7123889803846888
1002
}
1002
{
1000
VCC
1002
{
1000
-LPLOTI=8.000000000000000E+00
1000
$PRE=G
1000
$NM1=1/8
1000
-GRPNAME0MSF16-0
1000
-RBDESCR
1000
-RBSTDRT
1000
-RBLOTI
1000
-RBGD1
1000
-V$PV_GENSYSTEM"gef\val\di\0405\di1627_v.dxf"
1000
$VCC_TABLE=$PV_GENSYSTEM"gef\val\di\0405\di1627.val"
1000
$GEF_CDIST=3.000000000000000E+00
1000
$GEF_DRAG=1
1000
$GEF_STANG=2.100000000000000E+02
1000
$GEF_OANG=7.000000000000000E+01
1000
$GEVPROMPTX= Länge: 
1000
$GEF_SNK_ADD=0.000000000000000E+00
1000
$GEF_FLIPX=1
1000
$GEF_FLIPY=1
1000
-GRPNAME1?
1000
-BAML2
1000
$GEF_PROCALC=1
1002
}
1002
}
1002
{
1000
LST
1002
{
1002
{
1000
GROUP
1000
0405
1002
}
1002
{
1000
VIEW
1000
V
1002
}
1002
{
1000
SFILE
1000
$PV_GENSYSTEM"gef\val\di\0405\di1627_v.dxf"
1002
}
1002
{
1000
ST1
1000
$PV_GENSYSTEM"gef\val\di\0405\di1627.val"
1002
}
1002
{
1000
GENASSO
1000
 
1002
}
1002
}
1002
}
1002
{
1000
RET
1002
{
1002
{
1000
GD1
1000
8.56645
1002
}
1002
{
1000
LOTI
1000
8.000000000000000E+00
1002
}
1002
{
1000
STDRT
1000
ISO 228 - G 1/8
1002
}
1002
{
1000
DESCR
1000
Rohrgewinde
1002
}
1002
}
1002
}
1002
{
1000
SYSTEM
1040
1.0
1002
}
1002
{
1000
INFEL
1002
{
1002
}
1002
}
1001
GENIUS_GENOENT_13
1002
{
1000
MYREF
1005
ADE
1002
}
1002
{
1000
GRP
1005
0
1002
}
1001
GENIUS_GENOLIS_13
1002
{
1000
ENT
1005
9F7
1002
}
  0
POINT
  5
ADF
  8
0
 10
27.706266126819969
 20
229.18393131758231
 30
0.0
1001
GENIUS_GENBH_13
1002
{
1000
BGO
1005
AE0
1002
}
1002
{
1000
FGLEVEL
1040
2.0000000099999991
1002
}
1002
{
1000
FLAGS
1070
    36
1002
}
1002
{
1000
OIUMAP
1000
OIU
1002
}
1002
{
1000
MODIFY
1070
     0
1002
}
1001
GENIUS_GENODEF_13
1002
{
1000
HIER
1070
     1
1002
}
1002
{
1000
MANEDIT
1070
     0
1002
}
1002
{
1000
NOSEL
1070
     1
1002
}
1002
{
1000
BEHIND
1070
     0
1002
}
1002
{
1000
REACTOR
1002
}
1001
GENIUS_GENOBJ-NBEHI-BHF_13
1002
{
1000
OWNER
1000
GENBEHI
1002
}
1001
GENIUS_GENOENT_13
1002
{
1000
MYREF
1005
ADF
1002
}
1002
{
1000
GRP
1005
0
1002
}
1001
GENIUS_GENOLIS_13
1002
{
1000
ENT
1005
9F7
1002
}
  0
POINT
  5
AE0
  8
0
 10
27.706266126819969
 20
229.18393131758231
 30
0.0
1001
GENIUS_GENBH_13
1002
{
1000
FGO
1005
ADF
1002
}
1001
GENIUS_GENODEF_13
1002
{
1000
HIER
1070
     1
1002
}
1002
{
1000
MANEDIT
1070
     0
1002
}
1002
{
1000
NOSEL
1070
     1
1002
}
1002
{
1000
BEHIND
1070
     0
1002
}
1002
{
1000
REACTOR
1002
}
1001
GENIUS_GENOBJ-NBEHI-BHB_13
1002
{
1000
OWNER
1000
GENBEHI
1002
}
1001
GENIUS_GENOENT_13
1002
{
1000
MYREF
1005
AE0
1002
}
1002
{
1000
GRP
1005
0
1002
}
1001
GENIUS_GENOLIS_13
1002
{
1000
ENT
1005
AA7
1005
9F6
1002
}
  0
LINE
  5
B07
  8
KLIN
 10
45.706266126819969
 20
239.14812778634399
 30
0.0
 11
45.706266126819969
 21
239.14812778634399
 31
0.0
  0
INSERT
  5
B0B
  8
MSF20-0
  2
*U60
 10
251.0828848855891
 20
161.8793925839779
 30
0.0
 50
270.0
1001
GENIUS_GEFPARTINS_13
1002
{
1011
251.0828848855891
1021
0.0
1031
0.0
1021
161.8793925839779
1031
0.0
1013
-0.0000000000000002
1023
0.0
1033
0.0
1023
-1.0
1033
0.0
1002
}
1001
GEVPT
1002
{
1000
-V$PV_GENSYSTEM"GEF\VAL\DI\0405\DI1627_V.DXF"
1000
-FIXPLOTI=8.000000000000000E+00
1000
-GPGEF_PROCALC=1
1000
-GPGEF_FLIPY=1
1000
-GPGEF_FLIPX=1
1000
-GPGEF_SNK_ADD=0
1000
-GPGEVPROMPTX=Länge:
1000
-GPGEF_OANG=70
1000
-GPGEF_STANG=210
1000
-GPGEF_DRAG=1
1000
-GPGEF_CDIST=3
1000
-GPVCC_TABLE=C:\GENIUS\gef\val\di\0405\di1627.val
1000
-GPNM1=1/8
1000
-GPPRE=G
1002
}
1001
GENIUS_GENOREF_13
1005
BF4
1005
BF3
1001
VCC
1002
{
1000
-ID16
1000
-IE2
1000
-IK16
1000
-V$PV_GENSYSTEM"GEF\VAL\DI\0405\DI1627_V.DXF"
1002
}
1001
GEVIT
1002
{
1000
-BEHI2.00000001
1000
-BVCCT0
1000
-GRP0MSF16-0
1000
-BAML2
1000
-BASK1
1000
-NT0
1000
-DOC
1005
BF6
1000
-MYREF
1005
B0B
1002
}
1001
GEVMK
1002
{
1000
-CO
1000
-MYREF
1005
B0B
1002
}
1001
GEVID884361781
1002
{
1002
}
  0
LINE
  5
B0C
  8
MSF20-0
 10
266.08288488559282
 20
161.8793925839764
 30
0.0
 11
266.08288488559282
 21
111.87939258397471
 31
0.0
1001
GENIUS_GENOREF_13
1005
C3D
  0
INSERT
  5
B0D
  8
MSF20-8
  2
*X55
 10
251.08288488559279
 20
76.915196115213121
 30
0.0
1001
GENIUS_GENODEF_13
1002
{
1000
HIER
1070
     0
1002
}
1002
{
1000
MANEDIT
1070
     0
1002
}
1002
{
1000
NOSEL
1070
     0
1002
}
1002
{
1000
BEHIND
1070
     0
1002
}
1002
{
1000
REACTOR
1002
}
1001
GENIUS_GENOBJ-N-HTC_13
1002
{
1000
OWNER
1000
GEN
1002
}
1001
GENIUS_GENHATCH_13
1002
{
1000
DATA
1040
45.0
1042
2.5
1000
_U
1070
     0
1011
244.39068763029439
1021
0.0
1031
0.0
1021
157.73982876798351
1031
0.0
1002
}
1002
{
1000
UCS
1010
0.0
1020
0.0
1030
0.0
1010
1.0
1020
0.0
1030
0.0
1010
0.0
1020
1.0
1030
0.0
1002
}
1001
ACAD
1000
HATCH
1002
{
1070
    19
1000
_U
1040
2.5
1040
0.7853981633974483
1070
     0
1002
}
  0
LINE
  5
B0E
  8
MSF20-3
 10
236.08288488559279
 20
96.879392583976482
 30
0.0
 11
236.08288488559279
 21
116.87939258397471
 31
0.0
1001
GENIUS_GENBH_13
1002
{
1000
OE
1000
CON1
1002
}
1001
GENIUS_GENOREF_13
1005
C3D
  0
LINE
  5
B0F
  8
MSF20-7
 10
251.08288488559279
 20
181.49445043749671
 30
0.0
 11
251.08288488559279
 21
59.224837583976502
 31
0.0
1001
GENIUS_GENOREF_13
1005
BF2
  0
POLYLINE
  5
B10
  8
MSF20-0
 66
     1
 10
0.0
 20
0.0
 30
0.0
 70
     4
 75
     6
  0
VERTEX
  5
B11
  8
MSF20-0
 10
242.4555214344517
 20
161.8793925839764
 30
0.0
 70
    16
  0
VERTEX
  5
B12
  8
MSF20-0
 10
242.4555214344517
 20
161.8793925839764
 30
0.0
 70
     8
  0
VERTEX
  5
B13
  8
MSF20-0
 10
242.40997411811111
 20
160.5225995213664
 30
0.0
 70
     8
  0
VERTEX
  5
B14
  8
MSF20-0
 10
242.40417228976679
 20
159.4310219783668
 30
0.0
 70
     8
  0
VERTEX
  5
B15
  8
MSF20-0
 10
242.43133013616179
 20
158.57079820092841
 30
0.0
 70
     8
  0
VERTEX
  5
B16
  8
MSF20-0
 10
242.4846618440389
 20
157.90806643500241
 30
0.0
 70
     8
  0
VERTEX
  5
B17
  8
MSF20-0
 10
242.55738160014121
 20
157.40896492653951
 30
0.0
 70
     8
  0
VERTEX
  5
B18
  8
MSF20-0
 10
242.64270359121161
 20
157.03963192149041
 30
0.0
 70
     8
  0
VERTEX
  5
B19
  8
MSF20-0
 10
242.73384200399289
 20
156.7662056658063
 30
0.0
 70
     8
  0
VERTEX
  5
B1A
  8
MSF20-0
 10
242.824011025228
 20
156.55482440543781
 30
0.0
 70
     8
  0
VERTEX
  5
B1B
  8
MSF20-0
 10
242.90789363200329
 20
156.3765360733976
 30
0.0
 70
     8
  0
VERTEX
  5
B1C
  8
MSF20-0
 10
242.9860479627778
 20
156.22202735094561
 30
0.0
 70
     8
  0
VERTEX
  5
B1D
  8
MSF20-0
 10
243.0605009463541
 20
156.08689460640329
 30
0.0
 70
     8
  0
VERTEX
  5
B1E
  8
MSF20-0
 10
243.13327951153471
 20
155.9667342080925
 30
0.0
 70
     8
  0
VERTEX
  5
B1F
  8
MSF20-0
 10
243.20641058712201
 20
155.85714252433459
 30
0.0
 70
     8
  0
VERTEX
  5
B20
  8
MSF20-0
 10
243.2819211019185
 20
155.75371592345141
 30
0.0
 70
     8
  0
VERTEX
  5
B21
  8
MSF20-0
 10
243.36183798472661
 20
155.65205077376439
 30
0.0
 70
     8
  0
VERTEX
  5
B22
  8
MSF20-0
 10
243.44818816434901
 20
155.54774344359529
 30
0.0
 70
     8
  0
VERTEX
  5
B23
  8
MSF20-0
 10
243.54239636607031
 20
155.4374765303638
 30
0.0
 70
     8
  0
VERTEX
  5
B24
  8
MSF20-0
 10
243.64347850110519
 20
155.32227754788241
 30
0.0
 70
     8
  0
VERTEX
  5
B25
  8
MSF20-0
 10
243.74984827715059
 20
155.2042602390616
 30
0.0
 70
     8
  0
VERTEX
  5
B26
  8
MSF20-0
 10
243.85991940190311
 20
155.0855383468122
 30
0.0
 70
     8
  0
VERTEX
  5
B27
  8
MSF20-0
 10
243.97210558305991
 20
154.96822561404451
 30
0.0
 70
     8
  0
VERTEX
  5
B28
  8
MSF20-0
 10
244.08482052831769
 20
154.85443578366929
 30
0.0
 70
     8
  0
VERTEX
  5
B29
  8
MSF20-0
 10
244.1964779453734
 20
154.7462825985973
 30
0.0
 70
     8
  0
VERTEX
  5
B2A
  8
MSF20-0
 10
244.30549154192391
 20
154.6458798017388
 30
0.0
 70
     8
  0
VERTEX
  5
B2B
  8
MSF20-0
 10
244.41076568370119
 20
154.55486166119201
 30
0.0
 70
     8
  0
VERTEX
  5
B2C
  8
MSF20-0
 10
244.5131673685778
 20
154.4729445458035
 30
0.0
 70
     8
  0
VERTEX
  5
B2D
  8
MSF20-0
 10
244.61405425246119
 20
154.39936534960771
 30
0.0
 70
     8
  0
VERTEX
  5
B2E
  8
MSF20-0
 10
244.7147839912592
 20
154.33336096663859
 30
0.0
 70
     8
  0
VERTEX
  5
B2F
  8
MSF20-0
 10
244.81671424087921
 20
154.2741682909305
 30
0.0
 70
     8
  0
VERTEX
  5
B30
  8
MSF20-0
 10
244.92120265722889
 20
154.22102421651741
 30
0.0
 70
     8
  0
VERTEX
  5
B31
  8
MSF20-0
 10
245.02960689621591
 20
154.1731656374337
 30
0.0
 70
     8
  0
VERTEX
  5
B32
  8
MSF20-0
 10
245.1432846137478
 20
154.1298294477134
 30
0.0
 70
     8
  0
VERTEX
  5
B33
  8
MSF20-0
 10
245.26330525324499
 20
154.09014477065961
 30
0.0
 70
     8
  0
VERTEX
  5
B34
  8
MSF20-0
 10
245.38958540817919
 20
154.0528096466513
 30
0.0
 70
     8
  0
VERTEX
  5
B35
  8
MSF20-0
 10
245.52175345953469
 20
154.0164143453363
 30
0.0
 70
     8
  0
VERTEX
  5
B36
  8
MSF20-0
 10
245.65943778829629
 20
153.97954913636241
 30
0.0
 70
     8
  0
VERTEX
  5
B37
  8
MSF20-0
 10
245.8022667754482
 20
153.9408042893775
 30
0.0
 70
     8
  0
VERTEX
  5
B38
  8
MSF20-0
 10
245.94986880197499
 20
153.8987700740295
 30
0.0
 70
     8
  0
VERTEX
  5
B39
  8
MSF20-0
 10
246.1018722488611
 20
153.85203675996621
 30
0.0
 70
     8
  0
VERTEX
  5
B3A
  8
MSF20-0
 10
246.25790549709109
 20
153.79919461683539
 30
0.0
 70
     8
  0
VERTEX
  5
B3B
  8
MSF20-0
 10
246.417515170087
 20
153.73930382424871
 30
0.0
 70
     8
  0
VERTEX
  5
B3C
  8
MSF20-0
 10
246.57992086102129
 20
153.67330420167261
 30
0.0
 70
     8
  0
VERTEX
  5
B3D
  8
MSF20-0
 10
246.74426040550409
 20
153.6026054785373
 30
0.0
 70
     8
  0
VERTEX
  5
B3E
  8
MSF20-0
 10
246.90967163914539
 20
153.5286173842731
 30
0.0
 70
     8
  0
VERTEX
  5
B3F
  8
MSF20-0
 10
247.07529239755539
 20
153.45274964830989
 30
0.0
 70
     8
  0
VERTEX
  5
B40
  8
MSF20-0
 10
247.24026051634399
 20
153.37641200007829
 30
0.0
 70
     8
  0
VERTEX
  5
B41
  8
MSF20-0
 10
247.40371383112151
 20
153.3010141690082
 30
0.0
 70
     8
  0
VERTEX
  5
B42
  8
MSF20-0
 10
247.5647901774978
 20
153.22796588452991
 30
0.0
 70
     8
  0
VERTEX
  5
B43
  8
MSF20-0
 10
247.72320876267759
 20
153.15842231805021
 30
0.0
 70
     8
  0
VERTEX
  5
B44
  8
MSF20-0
 10
247.88101428024379
 20
153.09252040888211
 30
0.0
 70
     8
  0
VERTEX
  5
B45
  8
MSF20-0
 10
248.0408327953738
 20
153.0301425383154
 30
0.0
 70
     8
  0
VERTEX
  5
B46
  8
MSF20-0
 10
248.20529037324511
 20
152.97117108763979
 30
0.0
 70
     8
  0
VERTEX
  5
B47
  8
MSF20-0
 10
248.37701307903501
 20
152.91548843814479
 30
0.0
 70
     8
  0
VERTEX
  5
B48
  8
MSF20-0
 10
248.55862697792111
 20
152.8629769711201
 30
0.0
 70
     8
  0
VERTEX
  5
B49
  8
MSF20-0
 10
248.75275813508071
 20
152.8135190678554
 30
0.0
 70
     8
  0
VERTEX
  5
B4A
  8
MSF20-0
 10
248.96203261569119
 20
152.76699710964041
 30
0.0
 70
     8
  0
VERTEX
  5
B4B
  8
MSF20-0
 10
249.18814511256559
 20
152.7235479411041
 30
0.0
 70
     8
  0
VERTEX
  5
B4C
  8
MSF20-0
 10
249.42906482905821
 20
152.68432626023281
 30
0.0
 70
     8
  0
VERTEX
  5
B4D
  8
MSF20-0
 10
249.68182959615859
 20
152.6507412283525
 30
0.0
 70
     8
  0
VERTEX
  5
B4E
  8
MSF20-0
 10
249.9434772448565
 20
152.62420200678881
 30
0.0
 70
     8
  0
VERTEX
  5
B4F
  8
MSF20-0
 10
250.21104560614179
 20
152.60611775686741
 30
0.0
 70
     8
  0
VERTEX
  5
B50
  8
MSF20-0
 10
250.48157251100409
 20
152.59789763991429
 30
0.0
 70
     8
  0
VERTEX
  5
B51
  8
MSF20-0
 10
250.75209579043309
 20
152.6009508172551
 30
0.0
 70
     8
  0
VERTEX
  5
B52
  8
MSF20-0
 10
251.01965327541859
 20
152.61668645021561
 30
0.0
 70
     8
  0
VERTEX
  5
B53
  8
MSF20-0
 10
251.28153579170021
 20
152.6458678344371
 30
0.0
 70
     8
  0
VERTEX
  5
B54
  8
MSF20-0
 10
251.53604614401749
 20
152.68667480282309
 30
0.0
 70
     8
  0
VERTEX
  5
B55
  8
MSF20-0
 10
251.78174013186009
 20
152.73664132259231
 30
0.0
 70
     8
  0
VERTEX
  5
B56
  8
MSF20-0
 10
252.01717355471749
 20
152.7933013609638
 30
0.0
 70
     8
  0
VERTEX
  5
B57
  8
MSF20-0
 10
252.24090221207931
 20
152.8541888851565
 30
0.0
 70
     8
  0
VERTEX
  5
B58
  8
MSF20-0
 10
252.451481903435
 20
152.9168378623894
 30
0.0
 70
     8
  0
VERTEX
  5
B59
  8
MSF20-0
 10
252.64746842827421
 20
152.97878225988131
 30
0.0
 70
     8
  0
VERTEX
  5
B5A
  8
MSF20-0
 10
252.8274175860864
 20
153.0375560448513
 30
0.0
 70
     8
  0
VERTEX
  5
B5B
  8
MSF20-0
 10
252.9904900755183
 20
153.09116290511369
 30
0.0
 70
     8
  0
VERTEX
  5
B5C
  8
MSF20-0
 10
253.13826619184599
 20
153.13948541086549
 30
0.0
 70
     8
  0
VERTEX
  5
B5D
  8
MSF20-0
 10
253.2729311295025
 20
153.182875852899
 30
0.0
 70
     8
  0
VERTEX
  5
B5E
  8
MSF20-0
 10
253.39667008292099
 20
153.22168652200679
 30
0.0
 70
     8
  0
VERTEX
  5
B5F
  8
MSF20-0
 10
253.51166824653461
 20
153.25626970898111
 30
0.0
 70
     8
  0
VERTEX
  5
B60
  8
MSF20-0
 10
253.62011081477641
 20
153.2869777046144
 30
0.0
 70
     8
  0
VERTEX
  5
B61
  8
MSF20-0
 10
253.7241829820795
 20
153.3141627996992
 30
0.0
 70
     8
  0
VERTEX
  5
B62
  8
MSF20-0
 10
253.8260699428771
 20
153.3381772850278
 30
0.0
 70
     8
  0
VERTEX
  5
B63
  8
MSF20-0
 10
253.92765144451619
 20
153.35931473595321
 30
0.0
 70
     8
  0
VERTEX
  5
B64
  8
MSF20-0
 10
254.02958544599861
 20
153.37763386607111
 30
0.0
 70
     8
  0
VERTEX
  5
B65
  8
MSF20-0
 10
254.13222445924021
 20
153.39313467353739
 30
0.0
 70
     8
  0
VERTEX
  5
B66
  8
MSF20-0
 10
254.23592099615669
 20
153.40581715650831
 30
0.0
 70
     8
  0
VERTEX
  5
B67
  8
MSF20-0
 10
254.341027568664
 20
153.4156813131398
 30
0.0
 70
     8
  0
VERTEX
  5
B68
  8
MSF20-0
 10
254.4478966886777
 20
153.42272714158821
 30
0.0
 70
     8
  0
VERTEX
  5
B69
  8
MSF20-0
 10
254.55688086811369
 20
153.42695464000931
 30
0.0
 70
     8
  0
VERTEX
  5
B6A
  8
MSF20-0
 10
254.66833261888769
 20
153.4283638065595
 30
0.0
 70
     8
  0
VERTEX
  5
B6B
  8
MSF20-0
 10
254.78226666898021
 20
153.427209103656
 30
0.0
 70
     8
  0
VERTEX
  5
B6C
  8
MSF20-0
 10
254.89734661063051
 20
153.42476285076151
 30
0.0
 70
     8
  0
VERTEX
  5
B6D
  8
MSF20-0
 10
255.0118982521424
 20
153.42255183159989
 30
0.0
 70
     8
  0
VERTEX
  5
B6E
  8
MSF20-0
 10
255.12424740182001
 20
153.42210282989501
 30
0.0
 70
     8
  0
VERTEX
  5
B6F
  8
MSF20-0
 10
255.23271986796709
 20
153.4249426293708
 30
0.0
 70
     8
  0
VERTEX
  5
B70
  8
MSF20-0
 10
255.33564145888769
 20
153.43259801375109
 30
0.0
 70
     8
  0
VERTEX
  5
B71
  8
MSF20-0
 10
255.43133798288571
 20
153.44659576676
 30
0.0
 70
     8
  0
VERTEX
  5
B72
  8
MSF20-0
 10
255.51813524826511
 20
153.46846267212121
 30
0.0
 70
     8
  0
VERTEX
  5
B73
  8
MSF20-0
 10
255.59550456649129
 20
153.49961774236661
 30
0.0
 70
     8
  0
VERTEX
  5
B74
  8
MSF20-0
 10
255.6674992616764
 20
153.54104890526011
 30
0.0
 70
     8
  0
VERTEX
  5
B75
  8
MSF20-0
 10
255.73931816109359
 20
153.5936363173733
 30
0.0
 70
     8
  0
VERTEX
  5
B76
  8
MSF20-0
 10
255.8161600920165
 20
153.658260135278
 30
0.0
 70
     8
  0
VERTEX
  5
B77
  8
MSF20-0
 10
255.9032238817185
 20
153.7358005155458
 30
0.0
 70
     8
  0
VERTEX
  5
B78
  8
MSF20-0
 10
256.00570835747311
 20
153.82713761474869
 30
0.0
 70
     8
  0
VERTEX
  5
B79
  8
MSF20-0
 10
256.12881234655379
 20
153.93315158945811
 30
0.0
 70
     8
  0
VERTEX
  5
B7A
  8
MSF20-0
 10
256.27773467623382
 20
154.05472259624599
 30
0.0
 70
     8
  0
VERTEX
  5
B7B
  8
MSF20-0
 10
256.45579435252932
 20
154.19208511552139
 30
0.0
 70
     8
  0
VERTEX
  5
B7C
  8
MSF20-0
 10
256.65879109642549
 20
154.3428909230426
 30
0.0
 70
     8
  0
VERTEX
  5
B7D
  8
MSF20-0
 10
256.8806448076503
 20
154.50414611840529
 30
0.0
 70
     8
  0
VERTEX
  5
B7E
  8
MSF20-0
 10
257.11527538593151
 20
154.67285680120551
 30
0.0
 70
     8
  0
VERTEX
  5
B7F
  8
MSF20-0
 10
257.356602730997
 20
154.84602907103849
 30
0.0
 70
     8
  0
VERTEX
  5
B80
  8
MSF20-0
 10
257.59854674257463
 20
155.0206690275003
 30
0.0
 70
     8
  0
VERTEX
  5
B81
  8
MSF20-0
 10
257.83502732039199
 20
155.19378277018649
 30
0.0
 70
     8
  0
VERTEX
  5
B82
  8
MSF20-0
 10
258.05996436417718
 20
155.3623763986929
 30
0.0
 70
     8
  0
VERTEX
  5
B83
  8
MSF20-0
 10
258.26845265193231
 20
155.5243757558502
 30
0.0
 70
     8
  0
VERTEX
  5
B84
  8
MSF20-0
 10
258.4602864747564
 20
155.6813856574293
 30
0.0
 70
     8
  0
VERTEX
  5
B85
  8
MSF20-0
 10
258.63643500202318
 20
155.8359306624362
 30
0.0
 70
     8
  0
VERTEX
  5
B86
  8
MSF20-0
 10
258.7978674031063
 20
155.99053532987691
 30
0.0
 70
     8
  0
VERTEX
  5
B87
  8
MSF20-0
 10
258.9455528473793
 20
156.1477242187573
 30
0.0
 70
     8
  0
VERTEX
  5
B88
  8
MSF20-0
 10
259.08046050421558
 20
156.31002188808341
 30
0.0
 70
     8
  0
VERTEX
  5
B89
  8
MSF20-0
 10
259.20355954298878
 20
156.47995289686119
 30
0.0
 70
     8
  0
VERTEX
  5
B8A
  8
MSF20-0
 10
259.31581913307258
 20
156.66004180409661
 30
0.0
 70
     8
  0
VERTEX
  5
B8B
  8
MSF20-0
 10
259.41828192229781
 20
156.8520401184762
 30
0.0
 70
     8
  0
VERTEX
  5
B8C
  8
MSF20-0
 10
259.51228447232489
 20
157.05460714740889
 30
0.0
 70
     8
  0
VERTEX
  5
B8D
  8
MSF20-0
 10
259.59923682327178
 20
157.2656291479839
 30
0.0
 70
     8
  0
VERTEX
  5
B8E
  8
MSF20-0
 10
259.68054901525642
 20
157.48299237729071
 30
0.0
 70
     8
  0
VERTEX
  5
B8F
  8
MSF20-0
 10
259.75763108839641
 20
157.70458309241869
 30
0.0
 70
     8
  0
VERTEX
  5
B90
  8
MSF20-0
 10
259.83189308280981
 20
157.92828755045741
 30
0.0
 70
     8
  0
VERTEX
  5
B91
  8
MSF20-0
 10
259.90474503861441
 20
158.15199200849599
 30
0.0
 70
     8
  0
VERTEX
  5
B92
  8
MSF20-0
 10
259.97759699592808
 20
158.373582723624
 30
0.0
 70
     8
  0
VERTEX
  5
B93
  8
MSF20-0
 10
260.05147710897182
 20
158.5913422798034
 30
0.0
 70
     8
  0
VERTEX
  5
B94
  8
MSF20-0
 10
260.12588598838028
 20
158.8051385684864
 30
0.0
 70
     8
  0
VERTEX
  5
B95
  8
MSF20-0
 10
260.19994235889112
 20
159.01523580799781
 30
0.0
 70
     8
  0
VERTEX
  5
B96
  8
MSF20-0
 10
260.27276494524187
 20
159.2218982166624
 30
0.0
 70
     8
  0
VERTEX
  5
B97
  8
MSF20-0
 10
260.34347247217039
 20
159.425390012805
 30
0.0
 70
     8
  0
VERTEX
  5
B98
  8
MSF20-0
 10
260.41118366441441
 20
159.62597541475029
 30
0.0
 70
     8
  0
VERTEX
  5
B99
  8
MSF20-0
 10
260.47501724671162
 20
159.82391864082331
 30
0.0
 70
     8
  0
VERTEX
  5
B9A
  8
MSF20-0
 10
260.53409194379958
 20
160.01948390934871
 30
0.0
 70
     8
  0
VERTEX
  5
B9B
  8
MSF20-0
 10
260.58743835482659
 20
160.21361763943091
 30
0.0
 70
     8
  0
VERTEX
  5
B9C
  8
MSF20-0
 10
260.6337345765823
 20
160.4099950532927
 30
0.0
 70
     8
  0
VERTEX
  5
B9D
  8
MSF20-0
 10
260.67157058026652
 20
160.61297357393681
 30
0.0
 70
     8
  0
VERTEX
  5
B9E
  8
MSF20-0
 10
260.69953633707922
 20
160.8269106243655
 30
0.0
 70
     8
  0
VERTEX
  5
B9F
  8
MSF20-0
 10
260.71622181822062
 20
161.0561636275813
 30
0.0
 70
     8
  0
VERTEX
  5
BA0
  8
MSF20-0
 10
260.72021699489062
 20
161.30509000658679
 30
0.0
 70
     8
  0
VERTEX
  5
BA1
  8
MSF20-0
 10
260.71011183828921
 20
161.5780471843843
 30
0.0
 70
     8
  0
VERTEX
  5
BA2
  8
MSF20-0
 10
260.6844963196163
 20
161.87939258397651
 30
0.0
 70
     8
  0
VERTEX
  5
BA3
  8
MSF20-0
 10
242.27503610620849
 20
157.87755772060299
 30
0.0
 70
    16
  0
VERTEX
  5
BA4
  8
MSF20-0
 10
242.9067332097955
 20
156.2542031652612
 30
0.0
 70
    16
  0
VERTEX
  5
BA5
  8
MSF20-0
 10
243.3579457577714
 20
155.6228987733077
 30
0.0
 70
    16
  0
VERTEX
  5
BA6
  8
MSF20-0
 10
244.3506127452126
 20
154.54066240307989
 30
0.0
 70
    16
  0
VERTEX
  5
BA7
  8
MSF20-0
 10
245.07255251292119
 20
154.08973042480559
 30
0.0
 70
    16
  0
VERTEX
  5
BA8
  8
MSF20-0
 10
246.21888488558909
 20
153.8793925839779
 30
0.0
 70
    16
  0
VERTEX
  5
BA9
  8
MSF20-0
 10
247.59934092726911
 20
153.18786694029509
 30
0.0
 70
    16
  0
VERTEX
  5
BAA
  8
MSF20-0
 10
248.7724924703214
 20
152.7369349620208
 30
0.0
 70
    16
  0
VERTEX
  5
BAB
  8
MSF20-0
 10
251.08288488559279
 20
152.46637586946389
 30
0.0
 70
    16
  0
VERTEX
  5
BAC
  8
MSF20-0
 10
253.01388763981899
 20
153.09768026141731
 30
0.0
 70
    16
  0
VERTEX
  5
BAD
  8
MSF20-0
 10
253.82607007164921
 20
153.3682393539743
 30
0.0
 70
    16
  0
VERTEX
  5
BAE
  8
MSF20-0
 10
254.6382517308472
 20
153.45842603285209
 30
0.0
 70
    16
  0
VERTEX
  5
BAF
  8
MSF20-0
 10
255.63091871828851
 20
153.3682393539743
 30
0.0
 70
    16
  0
VERTEX
  5
BB0
  8
MSF20-0
 10
255.94688488558921
 20
153.8793925839779
 30
0.0
 70
    16
  0
VERTEX
  5
BB1
  8
MSF20-0
 10
258.24794979675789
 20
155.44252588759031
 30
0.0
 70
    16
  0
VERTEX
  5
BB2
  8
MSF20-0
 10
259.42110211244238
 20
156.5247622578182
 30
0.0
 70
    16
  0
VERTEX
  5
BB3
  8
MSF20-0
 10
259.96255655190771
 20
158.41867590571681
 30
0.0
 70
    16
  0
VERTEX
  5
BB4
  8
MSF20-0
 10
260.59425365549481
 20
160.0420304610586
 30
0.0
 70
    16
  0
VERTEX
  5
BB5
  8
MSF20-0
 10
260.77473821110573
 20
161.03408062444689
 30
0.0
 70
    16
  0
VERTEX
  5
BB6
  8
MSF20-0
 10
260.6844963196163
 20
161.87939258397651
 30
0.0
 70
    16
  0
SEQEND
  5
BB7
  8
MSF20-0
  0
POLYLINE
  5
BB8
  8
MSF20-3
 10
266.08288488559259
 20
76.879392583976482
 30
0.0
 66
     1
 70
     8
  0
VERTEX
  8
0
  5
D4D
 10
266.083
 20
76.8794
 30
0.000000
  70
    32
  0
VERTEX
  8
0
  5
D4E
 10
265.989
 20
76.8824
 30
0.000000
  70
    32
  0
VERTEX
  8
0
  5
D4F
 10
265.895
 20
76.8914
 30
0.000000
  70
    32
  0
VERTEX
  8
0
  5
D50
 10
265.802
 20
76.9065
 30
0.000000
  70
    32
  0
VERTEX
  8
0
  5
D51
 10
265.708
 20
76.9275
 30
0.000000
  70
    32
  0
VERTEX
  8
0
  5
D52
 10
265.615
 20
76.9546
 30
0.000000
  70
    32
  0
VERTEX
  8
0
  5
D53
 10
265.522
 20
76.9876
 30
0.000000
  70
    32
  0
VERTEX
  8
0
  5
D54
 10
265.430
 20
77.0266
 30
0.000000
  70
    32
  0
VERTEX
  8
0
  5
D55
 10
265.338
 20
77.0715
 30
0.000000
  70
    32
  0
VERTEX
  8
0
  5
D56
 10
265.246
 20
77.1224
 30
0.000000
  70
    32
  0
VERTEX
  8
0
  5
D57
 10
265.155
 20
77.1791
 30
0.000000
  70
    32
  0
VERTEX
  8
0
  5
D58
 10
265.064
 20
77.2416
 30
0.000000
  70
    32
  0
VERTEX
  8
0
  5
D59
 10
264.974
 20
77.3100
 30
0.000000
  70
    32
  0
VERTEX
  8
0
  5
D5A
 10
264.885
 20
77.3841
 30
0.000000
  70
    32
  0
VERTEX
  8
0
  5
D5B
 10
264.796
 20
77.4640
 30
0.000000
  70
    32
  0
VERTEX
  8
0
  5
D5C
 10
264.708
 20
77.5495
 30
0.000000
  70
    32
  0
VERTEX
  8
0
  5
D5D
 10
264.621
 20
77.6406
 30
0.000000
  70
    32
  0
VERTEX
  8
0
  5
D5E
 10
264.535
 20
77.7373
 30
0.000000
  70
    32
  0
VERTEX
  8
0
  5
D5F
 10
264.450
 20
77.8395
 30
0.000000
  70
    32
  0
VERTEX
  8
0
  5
D60
 10
264.366
 20
77.9471
 30
0.000000
  70
    32
  0
VERTEX
  8
0
  5
D61
 10
264.282
 20
78.0602
 30
0.000000
  70
    32
  0
VERTEX
  8
0
  5
D62
 10
264.200
 20
78.1785
 30
0.000000
  70
    32
  0
VERTEX
  8
0
  5
D63
 10
264.119
 20
78.3021
 30
0.000000
  70
    32
  0
VERTEX
  8
0
  5
D64
 10
264.039
 20
78.4309
 30
0.000000
  70
    32
  0
VERTEX
  8
0
  5
D65
 10
263.961
 20
78.5647
 30
0.000000
  70
    32
  0
VERTEX
  8
0
  5
D66
 10
263.883
 20
78.7035
 30
0.000000
  70
    32
  0
VERTEX
  8
0
  5
D67
 10
263.808
 20
78.8473
 30
0.000000
  70
    32
  0
VERTEX
  8
0
  5
D68
 10
263.733
 20
78.9959
 30
0.000000
  70
    32
  0
VERTEX
  8
0
  5
D69
 10
263.660
 20
79.1493
 30
0.000000
  70
    32
  0
VERTEX
  8
0
  5
D6A
 10
263.588
 20
79.3073
 30
0.000000
  70
    32
  0
VERTEX
  8
0
  5
D6B
 10
263.518
 20
79.4699
 30
0.000000
  70
    32
  0
VERTEX
  8
0
  5
D6C
 10
263.449
 20
79.6369
 30
0.000000
  70
    32
  0
VERTEX
  8
0
  5
D6D
 10
263.382
 20
79.8083
 30
0.000000
  70
    32
  0
VERTEX
  8
0
  5
D6E
 10
263.317
 20
79.9840
 30
0.000000
  70
    32
  0
VERTEX
  8
0
  5
D6F
 10
263.253
 20
80.1638
 30
0.000000
  70
    32
  0
VERTEX
  8
0
  5
D70
 10
263.191
 20
80.3477
 30
0.000000
  70
    32
  0
VERTEX
  8
0
  5
D71
 10
263.130
 20
80.5355
 30
0.000000
  70
    32
  0
VERTEX
  8
0
  5
D72
 10
263.072
 20
80.7271
 30
0.000000
  70
    32
  0
VERTEX
  8
0
  5
D73
 10
263.015
 20
80.9224
 30
0.000000
  70
    32
  0
VERTEX
  8
0
  5
D74
 10
262.960
 20
81.1213
 30
0.000000
  70
    32
  0
VERTEX
  8
0
  5
D75
 10
262.907
 20
81.3237
 30
0.000000
  70
    32
  0
VERTEX
  8
0
  5
D76
 10
262.856
 20
81.5294
 30
0.000000
  70
    32
  0
VERTEX
  8
0
  5
D77
 10
262.807
 20
81.7384
 30
0.000000
  70
    32
  0
VERTEX
  8
0
  5
D78
 10
262.759
 20
81.9504
 30
0.000000
  70
    32
  0
VERTEX
  8
0
  5
D79
 10
262.714
 20
82.1654
 30
0.000000
  70
    32
  0
VERTEX
  8
0
  5
D7A
 10
262.671
 20
82.3833
 30
0.000000
  70
    32
  0
VERTEX
  8
0
  5
D7B
 10
262.630
 20
82.6038
 30
0.000000
  70
    32
  0
VERTEX
  8
0
  5
D7C
 10
262.591
 20
82.8270
 30
0.000000
  70
    32
  0
VERTEX
  8
0
  5
D7D
 10
262.554
 20
83.0526
 30
0.000000
  70
    32
  0
VERTEX
  8
0
  5
D7E
 10
262.519
 20
83.2804
 30
0.000000
  70
    32
  0
VERTEX
  8
0
  5
D7F
 10
262.487
 20
83.5105
 30
0.000000
  70
    32
  0
VERTEX
  8
0
  5
D80
 10
262.456
 20
83.7426
 30
0.000000
  70
    32
  0
VERTEX
  8
0
  5
D81
 10
262.428
 20
83.9765
 30
0.000000
  70
    32
  0
VERTEX
  8
0
  5
D82
 10
262.402
 20
84.2123
 30
0.000000
  70
    32
  0
VERTEX
  8
0
  5
D83
 10
262.378
 20
84.4496
 30
0.000000
  70
    32
  0
VERTEX
  8
0
  5
D84
 10
262.356
 20
84.6884
 30
0.000000
  70
    32
  0
VERTEX
  8
0
  5
D85
 10
262.337
 20
84.9285
 30
0.000000
  70
    32
  0
VERTEX
  8
0
  5
D86
 10
262.319
 20
85.1698
 30
0.000000
  70
    32
  0
VERTEX
  8
0
  5
D87
 10
262.305
 20
85.4121
 30
0.000000
  70
    32
  0
VERTEX
  8
0
  5
D88
 10
262.292
 20
85.6553
 30
0.000000
  70
    32
  0
VERTEX
  8
0
  5
D89
 10
262.282
 20
85.8992
 30
0.000000
  70
    32
  0
VERTEX
  8
0
  5
D8A
 10
262.274
 20
86.1437
 30
0.000000
  70
    32
  0
VERTEX
  8
0
  5
D8B
 10
262.268
 20
86.3887
 30
0.000000
  70
    32
  0
VERTEX
  8
0
  5
D8C
 10
262.264
 20
86.6340
 30
0.000000
  70
    32
  0
VERTEX
  8
0
  5
D8D
 10
262.263
 20
86.8794
 30
0.000000
  70
    32
  0
VERTEX
  8
0
  5
D8E
 10
262.264
 20
87.1248
 30
0.000000
  70
    32
  0
VERTEX
  8
0
  5
D8F
 10
262.268
 20
87.3701
 30
0.000000
  70
    32
  0
VERTEX
  8
0
  5
D90
 10
262.274
 20
87.6150
 30
0.000000
  70
    32
  0
VERTEX
  8
0
  5
D91
 10
262.282
 20
87.8596
 30
0.000000
  70
    32
  0
VERTEX
  8
0
  5
D92
 10
262.292
 20
88.1035
 30
0.000000
  70
    32
  0
VERTEX
  8
0
  5
D93
 10
262.305
 20
88.3467
 30
0.000000
  70
    32
  0
VERTEX
  8
0
  5
D94
 10
262.319
 20
88.5890
 30
0.000000
  70
    32
  0
VERTEX
  8
0
  5
D95
 10
262.337
 20
88.8303
 30
0.000000
  70
    32
  0
VERTEX
  8
0
  5
D96
 10
262.356
 20
89.0704
 30
0.000000
  70
    32
  0
VERTEX
  8
0
  5
D97
 10
262.378
 20
89.3092
 30
0.000000
  70
    32
  0
VERTEX
  8
0
  5
D98
 10
262.402
 20
89.5465
 30
0.000000
  70
    32
  0
VERTEX
  8
0
  5
D99
 10
262.428
 20
89.7822
 30
0.000000
  70
    32
  0
VERTEX
  8
0
  5
D9A
 10
262.456
 20
90.0162
 30
0.000000
  70
    32
  0
VERTEX
  8
0
  5
D9B
 10
262.487
 20
90.2483
 30
0.000000
  70
    32
  0
VERTEX
  8
0
  5
D9C
 10
262.519
 20
90.4783
 30
0.000000
  70
    32
  0
VERTEX
  8
0
  5
D9D
 10
262.554
 20
90.7062
 30
0.000000
  70
    32
  0
VERTEX
  8
0
  5
D9E
 10
262.591
 20
90.9318
 30
0.000000
  70
    32
  0
VERTEX
  8
0
  5
D9F
 10
262.630
 20
91.1549
 30
0.000000
  70
    32
  0
VERTEX
  8
0
  5
DA0
 10
262.671
 20
91.3755
 30
0.000000
  70
    32
  0
VERTEX
  8
0
  5
DA1
 10
262.714
 20
91.5934
 30
0.000000
  70
    32
  0
VERTEX
  8
0
  5
DA2
 10
262.759
 20
91.8084
 30
0.000000
  70
    32
  0
VERTEX
  8
0
  5
DA3
 10
262.807
 20
92.0204
 30
0.000000
  70
    32
  0
VERTEX
  8
0
  5
DA4
 10
262.856
 20
92.2294
 30
0.000000
  70
    32
  0
VERTEX
  8
0
  5
DA5
 10
262.907
 20
92.4351
 30
0.000000
  70
    32
  0
VERTEX
  8
0
  5
DA6
 10
262.960
 20
92.6375
 30
0.000000
  70
    32
  0
VERTEX
  8
0
  5
DA7
 10
263.015
 20
92.8364
 30
0.000000
  70
    32
  0
VERTEX
  8
0
  5
DA8
 10
263.072
 20
93.0317
 30
0.000000
  70
    32
  0
VERTEX
  8
0
  5
DA9
 10
263.130
 20
93.2233
 30
0.000000
  70
    32
  0
VERTEX
  8
0
  5
DAA
 10
263.191
 20
93.4111
 30
0.000000
  70
    32
  0
VERTEX
  8
0
  5
DAB
 10
263.253
 20
93.5950
 30
0.000000
  70
    32
  0
VERTEX
  8
0
  5
DAC
 10
263.317
 20
93.7748
 30
0.000000
  70
    32
  0
VERTEX
  8
0
  5
DAD
 10
263.382
 20
93.9505
 30
0.000000
  70
    32
  0
VERTEX
  8
0
  5
DAE
 10
263.449
 20
94.1219
 30
0.000000
  70
    32
  0
VERTEX
  8
0
  5
DAF
 10
263.518
 20
94.2889
 30
0.000000
  70
    32
  0
VERTEX
  8
0
  5
DB0
 10
263.588
 20
94.4515
 30
0.000000
  70
    32
  0
VERTEX
  8
0
  5
DB1
 10
263.660
 20
94.6095
 30
0.000000
  70
    32
  0
VERTEX
  8
0
  5
DB2
 10
263.733
 20
94.7629
 30
0.000000
  70
    32
  0
VERTEX
  8
0
  5
DB3
 10
263.808
 20
94.9115
 30
0.000000
  70
    32
  0
VERTEX
  8
0
  5
DB4
 10
263.883
 20
95.0552
 30
0.000000
  70
    32
  0
VERTEX
  8
0
  5
DB5
 10
263.961
 20
95.1941
 30
0.000000
  70
    32
  0
VERTEX
  8
0
  5
DB6
 10
264.039
 20
95.3279
 30
0.000000
  70
    32
  0
VERTEX
  8
0
  5
DB7
 10
264.119
 20
95.4567
 30
0.000000
  70
    32
  0
VERTEX
  8
0
  5
DB8
 10
264.200
 20
95.5803
 30
0.000000
  70
    32
  0
VERTEX
  8
0
  5
DB9
 10
264.282
 20
95.6986
 30
0.000000
  70
    32
  0
VERTEX
  8
0
  5
DBA
 10
264.366
 20
95.8116
 30
0.000000
  70
    32
  0
VERTEX
  8
0
  5
DBB
 10
264.450
 20
95.9193
 30
0.000000
  70
    32
  0
VERTEX
  8
0
  5
DBC
 10
264.535
 20
96.0215
 30
0.000000
  70
    32
  0
VERTEX
  8
0
  5
DBD
 10
264.621
 20
96.1182
 30
0.000000
  70
    32
  0
VERTEX
  8
0
  5
DBE
 10
264.708
 20
96.2093
 30
0.000000
  70
    32
  0
VERTEX
  8
0
  5
DBF
 10
264.796
 20
96.2948
 30
0.000000
  70
    32
  0
VERTEX
  8
0
  5
DC0
 10
264.885
 20
96.3747
 30
0.000000
  70
    32
  0
VERTEX
  8
0
  5
DC1
 10
264.974
 20
96.4488
 30
0.000000
  70
    32
  0
VERTEX
  8
0
  5
DC2
 10
265.064
 20
96.5172
 30
0.000000
  70
    32
  0
VERTEX
  8
0
  5
DC3
 10
265.155
 20
96.5797
 30
0.000000
  70
    32
  0
VERTEX
  8
0
  5
DC4
 10
265.246
 20
96.6364
 30
0.000000
  70
    32
  0
VERTEX
  8
0
  5
DC5
 10
265.338
 20
96.6872
 30
0.000000
  70
    32
  0
VERTEX
  8
0
  5
DC6
 10
265.430
 20
96.7322
 30
0.000000
  70
    32
  0
VERTEX
  8
0
  5
DC7
 10
265.522
 20
96.7712
 30
0.000000
  70
    32
  0
VERTEX
  8
0
  5
DC8
 10
265.615
 20
96.8042
 30
0.000000
  70
    32
  0
VERTEX
  8
0
  5
DC9
 10
265.708
 20
96.8312
 30
0.000000
  70
    32
  0
VERTEX
  8
0
  5
DCA
 10
265.802
 20
96.8523
 30
0.000000
  70
    32
  0
VERTEX
  8
0
  5
DCB
 10
265.895
 20
96.8673
 30
0.000000
  70
    32
  0
VERTEX
  8
0
  5
DCC
 10
265.989
 20
96.8764
 30
0.000000
  70
    32
  0
VERTEX
  8
0
  5
DCD
 10
266.083
 20
96.8794
 30
0.000000
  70
    32
  0
SEQEND
  8
0
  5
DCE
  0
POLYLINE
  5
BB9
  8
MSF20-3
 10
236.0828848855929
 20
76.879392583976482
 30
0.0
 66
     1
 70
     8
  0
VERTEX
  8
0
  5
DCF
 10
236.083
 20
76.8794
 30
0.000000
  70
    32
  0
VERTEX
  8
0
  5
DD0
 10
236.177
 20
76.8824
 30
0.000000
  70
    32
  0
VERTEX
  8
0
  5
DD1
 10
236.270
 20
76.8914
 30
0.000000
  70
    32
  0
VERTEX
  8
0
  5
DD2
 10
236.364
 20
76.9065
 30
0.000000
  70
    32
  0
VERTEX
  8
0
  5
DD3
 10
236.457
 20
76.9275
 30
0.000000
  70
    32
  0
VERTEX
  8
0
  5
DD4
 10
236.550
 20
76.9546
 30
0.000000
  70
    32
  0
VERTEX
  8
0
  5
DD5
 10
236.643
 20
76.9876
 30
0.000000
  70
    32
  0
VERTEX
  8
0
  5
DD6
 10
236.736
 20
77.0266
 30
0.000000
  70
    32
  0
VERTEX
  8
0
  5
DD7
 10
236.828
 20
77.0715
 30
0.000000
  70
    32
  0
VERTEX
  8
0
  5
DD8
 10
236.920
 20
77.1224
 30
0.000000
  70
    32
  0
VERTEX
  8
0
  5
DD9
 10
237.011
 20
77.1791
 30
0.000000
  70
    32
  0
VERTEX
  8
0
  5
DDA
 10
237.102
 20
77.2416
 30
0.000000
  70
    32
  0
VERTEX
  8
0
  5
DDB
 10
237.192
 20
77.3100
 30
0.000000
  70
    32
  0
VERTEX
  8
0
  5
DDC
 10
237.281
 20
77.3841
 30
0.000000
  70
    32
  0
VERTEX
  8
0
  5
DDD
 10
237.370
 20
77.4640
 30
0.000000
  70
    32
  0
VERTEX
  8
0
  5
DDE
 10
237.458
 20
77.5495
 30
0.000000
  70
    32
  0
VERTEX
  8
0
  5
DDF
 10
237.545
 20
77.6406
 30
0.000000
  70
    32
  0
VERTEX
  8
0
  5
DE0
 10
237.631
 20
77.7373
 30
0.000000
  70
    32
  0
VERTEX
  8
0
  5
DE1
 10
237.716
 20
77.8395
 30
0.000000
  70
    32
  0
VERTEX
  8
0
  5
DE2
 10
237.800
 20
77.9471
 30
0.000000
  70
    32
  0
VERTEX
  8
0
  5
DE3
 10
237.883
 20
78.0602
 30
0.000000
  70
    32
  0
VERTEX
  8
0
  5
DE4
 10
237.966
 20
78.1785
 30
0.000000
  70
    32
  0
VERTEX
  8
0
  5
DE5
 10
238.047
 20
78.3021
 30
0.000000
  70
    32
  0
VERTEX
  8
0
  5
DE6
 10
238.126
 20
78.4309
 30
0.000000
  70
    32
  0
VERTEX
  8
0
  5
DE7
 10
238.205
 20
78.5647
 30
0.000000
  70
    32
  0
VERTEX
  8
0
  5
DE8
 10
238.282
 20
78.7035
 30
0.000000
  70
    32
  0
VERTEX
  8
0
  5
DE9
 10
238.358
 20
78.8473
 30
0.000000
  70
    32
  0
VERTEX
  8
0
  5
DEA
 10
238.433
 20
78.9959
 30
0.000000
  70
    32
  0
VERTEX
  8
0
  5
DEB
 10
238.506
 20
79.1493
 30
0.000000
  70
    32
  0
VERTEX
  8
0
  5
DEC
 10
238.578
 20
79.3073
 30
0.000000
  70
    32
  0
VERTEX
  8
0
  5
DED
 10
238.648
 20
79.4699
 30
0.000000
  70
    32
  0
VERTEX
  8
0
  5
DEE
 10
238.717
 20
79.6369
 30
0.000000
  70
    32
  0
VERTEX
  8
0
  5
DEF
 10
238.784
 20
79.8083
 30
0.000000
  70
    32
  0
VERTEX
  8
0
  5
DF0
 10
238.849
 20
79.9840
 30
0.000000
  70
    32
  0
VERTEX
  8
0
  5
DF1
 10
238.913
 20
80.1638
 30
0.000000
  70
    32
  0
VERTEX
  8
0
  5
DF2
 10
238.975
 20
80.3477
 30
0.000000
  70
    32
  0
VERTEX
  8
0
  5
DF3
 10
239.036
 20
80.5355
 30
0.000000
  70
    32
  0
VERTEX
  8
0
  5
DF4
 10
239.094
 20
80.7271
 30
0.000000
  70
    32
  0
VERTEX
  8
0
  5
DF5
 10
239.151
 20
80.9224
 30
0.000000
  70
    32
  0
VERTEX
  8
0
  5
DF6
 10
239.206
 20
81.1213
 30
0.000000
  70
    32
  0
VERTEX
  8
0
  5
DF7
 10
239.259
 20
81.3237
 30
0.000000
  70
    32
  0
VERTEX
  8
0
  5
DF8
 10
239.310
 20
81.5294
 30
0.000000
  70
    32
  0
VERTEX
  8
0
  5
DF9
 10
239.359
 20
81.7384
 30
0.000000
  70
    32
  0
VERTEX
  8
0
  5
DFA
 10
239.406
 20
81.9504
 30
0.000000
  70
    32
  0
VERTEX
  8
0
  5
DFB
 10
239.452
 20
82.1654
 30
0.000000
  70
    32
  0
VERTEX
  8
0
  5
DFC
 10
239.495
 20
82.3833
 30
0.000000
  70
    32
  0
VERTEX
  8
0
  5
DFD
 10
239.536
 20
82.6038
 30
0.000000
  70
    32
  0
VERTEX
  8
0
  5
DFE
 10
239.575
 20
82.8270
 30
0.000000
  70
    32
  0
VERTEX
  8
0
  5
DFF
 10
239.612
 20
83.0526
 30
0.000000
  70
    32
  0
VERTEX
  8
0
  5
E00
 10
239.647
 20
83.2804
 30
0.000000
  70
    32
  0
VERTEX
  8
0
  5
E01
 10
239.679
 20
83.5105
 30
0.000000
  70
    32
  0
VERTEX
  8
0
  5
E02
 10
239.710
 20
83.7426
 30
0.000000
  70
    32
  0
VERTEX
  8
0
  5
E03
 10
239.738
 20
83.9765
 30
0.000000
  70
    32
  0
VERTEX
  8
0
  5
E04
 10
239.764
 20
84.2123
 30
0.000000
  70
    32
  0
VERTEX
  8
0
  5
E05
 10
239.788
 20
84.4496
 30
0.000000
  70
    32
  0
VERTEX
  8
0
  5
E06
 10
239.810
 20
84.6884
 30
0.000000
  70
    32
  0
VERTEX
  8
0
  5
E07
 10
239.829
 20
84.9285
 30
0.000000
  70
    32
  0
VERTEX
  8
0
  5
E08
 10
239.846
 20
85.1698
 30
0.000000
  70
    32
  0
VERTEX
  8
0
  5
E09
 10
239.861
 20
85.4121
 30
0.000000
  70
    32
  0
VERTEX
  8
0
  5
E0A
 10
239.874
 20
85.6553
 30
0.000000
  70
    32
  0
VERTEX
  8
0
  5
E0B
 10
239.884
 20
85.8992
 30
0.000000
  70
    32
  0
VERTEX
  8
0
  5
E0C
 10
239.892
 20
86.1437
 30
0.000000
  70
    32
  0
VERTEX
  8
0
  5
E0D
 10
239.898
 20
86.3887
 30
0.000000
  70
    32
  0
VERTEX
  8
0
  5
E0E
 10
239.901
 20
86.6340
 30
0.000000
  70
    32
  0
VERTEX
  8
0
  5
E0F
 10
239.903
 20
86.8794
 30
0.000000
  70
    32
  0
VERTEX
  8
0
  5
E10
 10
239.901
 20
87.1248
 30
0.000000
  70
    32
  0
VERTEX
  8
0
  5
E11
 10
239.898
 20
87.3701
 30
0.000000
  70
    32
  0
VERTEX
  8
0
  5
E12
 10
239.892
 20
87.6150
 30
0.000000
  70
    32
  0
VERTEX
  8
0
  5
E13
 10
239.884
 20
87.8596
 30
0.000000
  70
    32
  0
VERTEX
  8
0
  5
E14
 10
239.874
 20
88.1035
 30
0.000000
  70
    32
  0
VERTEX
  8
0
  5
E15
 10
239.861
 20
88.3467
 30
0.000000
  70
    32
  0
VERTEX
  8
0
  5
E16
 10
239.846
 20
88.5890
 30
0.000000
  70
    32
  0
VERTEX
  8
0
  5
E17
 10
239.829
 20
88.8303
 30
0.000000
  70
    32
  0
VERTEX
  8
0
  5
E18
 10
239.810
 20
89.0704
 30
0.000000
  70
    32
  0
VERTEX
  8
0
  5
E19
 10
239.788
 20
89.3092
 30
0.000000
  70
    32
  0
VERTEX
  8
0
  5
E1A
 10
239.764
 20
89.5465
 30
0.000000
  70
    32
  0
VERTEX
  8
0
  5
E1B
 10
239.738
 20
89.7822
 30
0.000000
  70
    32
  0
VERTEX
  8
0
  5
E1C
 10
239.710
 20
90.0162
 30
0.000000
  70
    32
  0
VERTEX
  8
0
  5
E1D
 10
239.679
 20
90.2483
 30
0.000000
  70
    32
  0
VERTEX
  8
0
  5
E1E
 10
239.647
 20
90.4783
 30
0.000000
  70
    32
  0
VERTEX
  8
0
  5
E1F
 10
239.612
 20
90.7062
 30
0.000000
  70
    32
  0
VERTEX
  8
0
  5
E20
 10
239.575
 20
90.9318
 30
0.000000
  70
    32
  0
VERTEX
  8
0
  5
E21
 10
239.536
 20
91.1549
 30
0.000000
  70
    32
  0
VERTEX
  8
0
  5
E22
 10
239.495
 20
91.3755
 30
0.000000
  70
    32
  0
VERTEX
  8
0
  5
E23
 10
239.452
 20
91.5934
 30
0.000000
  70
    32
  0
VERTEX
  8
0
  5
E24
 10
239.406
 20
91.8084
 30
0.000000
  70
    32
  0
VERTEX
  8
0
  5
E25
 10
239.359
 20
92.0204
 30
0.000000
  70
    32
  0
VERTEX
  8
0
  5
E26
 10
239.310
 20
92.2294
 30
0.000000
  70
    32
  0
VERTEX
  8
0
  5
E27
 10
239.259
 20
92.4351
 30
0.000000
  70
    32
  0
VERTEX
  8
0
  5
E28
 10
239.206
 20
92.6375
 30
0.000000
  70
    32
  0
VERTEX
  8
0
  5
E29
 10
239.151
 20
92.8364
 30
0.000000
  70
    32
  0
VERTEX
  8
0
  5
E2A
 10
239.094
 20
93.0317
 30
0.000000
  70
    32
  0
VERTEX
  8
0
  5
E2B
 10
239.036
 20
93.2233
 30
0.000000
  70
    32
  0
VERTEX
  8
0
  5
E2C
 10
238.975
 20
93.4111
 30
0.000000
  70
    32
  0
VERTEX
  8
0
  5
E2D
 10
238.913
 20
93.5950
 30
0.000000
  70
    32
  0
VERTEX
  8
0
  5
E2E
 10
238.849
 20
93.7748
 30
0.000000
  70
    32
  0
VERTEX
  8
0
  5
E2F
 10
238.784
 20
93.9505
 30
0.000000
  70
    32
  0
VERTEX
  8
0
  5
E30
 10
238.717
 20
94.1219
 30
0.000000
  70
    32
  0
VERTEX
  8
0
  5
E31
 10
238.648
 20
94.2889
 30
0.000000
  70
    32
  0
VERTEX
  8
0
  5
E32
 10
238.578
 20
94.4515
 30
0.000000
  70
    32
  0
VERTEX
  8
0
  5
E33
 10
238.506
 20
94.6095
 30
0.000000
  70
    32
  0
VERTEX
  8
0
  5
E34
 10
238.433
 20
94.7629
 30
0.000000
  70
    32
  0
VERTEX
  8
0
  5
E35
 10
238.358
 20
94.9115
 30
0.000000
  70
    32
  0
VERTEX
  8
0
  5
E36
 10
238.282
 20
95.0552
 30
0.000000
  70
    32
  0
VERTEX
  8
0
  5
E37
 10
238.205
 20
95.1941
 30
0.000000
  70
    32
  0
VERTEX
  8
0
  5
E38
 10
238.126
 20
95.3279
 30
0.000000
  70
    32
  0
VERTEX
  8
0
  5
E39
 10
238.047
 20
95.4567
 30
0.000000
  70
    32
  0
VERTEX
  8
0
  5
E3A
 10
237.966
 20
95.5803
 30
0.000000
  70
    32
  0
VERTEX
  8
0
  5
E3B
 10
237.883
 20
95.6986
 30
0.000000
  70
    32
  0
VERTEX
  8
0
  5
E3C
 10
237.800
 20
95.8116
 30
0.000000
  70
    32
  0
VERTEX
  8
0
  5
E3D
 10
237.716
 20
95.9193
 30
0.000000
  70
    32
  0
VERTEX
  8
0
  5
E3E
 10
237.631
 20
96.0215
 30
0.000000
  70
    32
  0
VERTEX
  8
0
  5
E3F
 10
237.545
 20
96.1182
 30
0.000000
  70
    32
  0
VERTEX
  8
0
  5
E40
 10
237.458
 20
96.2093
 30
0.000000
  70
    32
  0
VERTEX
  8
0
  5
E41
 10
237.370
 20
96.2948
 30
0.000000
  70
    32
  0
VERTEX
  8
0
  5
E42
 10
237.281
 20
96.3747
 30
0.000000
  70
    32
  0
VERTEX
  8
0
  5
E43
 10
237.192
 20
96.4488
 30
0.000000
  70
    32
  0
VERTEX
  8
0
  5
E44
 10
237.102
 20
96.5172
 30
0.000000
  70
    32
  0
VERTEX
  8
0
  5
E45
 10
237.011
 20
96.5797
 30
0.000000
  70
    32
  0
VERTEX
  8
0
  5
E46
 10
236.920
 20
96.6364
 30
0.000000
  70
    32
  0
VERTEX
  8
0
  5
E47
 10
236.828
 20
96.6872
 30
0.000000
  70
    32
  0
VERTEX
  8
0
  5
E48
 10
236.736
 20
96.7322
 30
0.000000
  70
    32
  0
VERTEX
  8
0
  5
E49
 10
236.643
 20
96.7712
 30
0.000000
  70
    32
  0
VERTEX
  8
0
  5
E4A
 10
236.550
 20
96.8042
 30
0.000000
  70
    32
  0
VERTEX
  8
0
  5
E4B
 10
236.457
 20
96.8312
 30
0.000000
  70
    32
  0
VERTEX
  8
0
  5
E4C
 10
236.364
 20
96.8523
 30
0.000000
  70
    32
  0
VERTEX
  8
0
  5
E4D
 10
236.270
 20
96.8673
 30
0.000000
  70
    32
  0
VERTEX
  8
0
  5
E4E
 10
236.177
 20
96.8764
 30
0.000000
  70
    32
  0
VERTEX
  8
0
  5
E4F
 10
236.083
 20
96.8794
 30
0.000000
  70
    32
  0
SEQEND
  8
0
  5
E50
  0
LINE
  5
BBA
  8
MSF20-9
 10
266.08288488559282
 20
61.879392583976482
 30
0.0
 11
242.58288488559279
 21
61.87939258397477
 31
0.0
1001
GENIUS_GENBH_13
1002
{
1000
OE
1000
CON1
1002
}
1001
GENIUS_GENOREF_13
1005
C3D
  0
LINE
  5
BBB
  8
MSF20-3
 10
236.08288488559279
 20
61.879392583976482
 30
0.0
 11
236.08288488559279
 21
76.879392583976482
 31
0.0
1001
GENIUS_GENBH_13
1002
{
1000
OE
1000
CON1
1002
}
1001
GENIUS_GENOREF_13
1005
C3D
  0
LINE
  5
BBC
  8
MSF20-3
 10
266.08288488559282
 20
76.879392583976482
 30
0.0
 11
266.08288488559282
 21
61.879392583976482
 31
0.0
1001
GENIUS_GENBH_13
1002
{
1000
OE
1000
CON1
1002
}
1001
GENIUS_GENOREF_13
1005
C3D
  0
INSERT
  5
BBD
  8
MSF20-0N
 66
     1
  2
GENINF13
 10
259.96929398638508
 20
124.3161736066411
 30
0.0
1001
GENIUS_GENSCSYM_13
1002
{
1000
INSPT
1011
259.96929398638508
1021
0.0
1031
0.0
1021
124.3161736066411
1031
0.0
1002
}
1002
{
1000
SCALE
1042
1.0
1002
}
1002
{
1000
USEOLDBPT
1070
     0
1002
}
1001
GENIUS_GENOBJ-N-INFOPT_13
1002
{
1000
OWNER
1000
GEN
1002
}
1001
GENIUS_GENSYMENT_13
1002
{
1000
ENT
1005
BBD
1002
}
1001
GENIUS_GENODEF_13
1002
{
1000
HIER
1070
     0
1002
}
1002
{
1000
MANEDIT
1070
     0
1002
}
1002
{
1000
NOSEL
1070
     0
1002
}
1002
{
1000
BEHIND
1070
     0
1002
}
1002
{
1000
REACTOR
1002
}
1001
GENIUS_GENOBJ-N-RSSYM_13
1002
{
1000
OWNER
1000
GEN
1002
}
1001
GENIUS_GENINF13_13
1070
     1
  0
ATTRIB
  5
BBE
  8
INFO
 10
259.96929398638508
 20
124.3161736066411
 30
0.0
 40
1.0
  1
1
  2
2GENINF
 70
     1
  0
ATTRIB
  5
BBF
  8
INFO
 10
259.96929398638508
 20
122.8161736066411
 30
0.0
 40
1.0
  1
<***aktuell***>
  2
3GENINF
 70
     1
  0
ATTRIB
  5
BC0
  8
INFO
 10
259.96929398638508
 20
121.3161736066411
 30
0.0
 40
1.0
  1

  2
4GENINF
 70
     1
  0
ATTRIB
  5
BC1
  8
INFO
 10
259.96929398638508
 20
119.8161736066411
 30
0.0
 40
1.0
  1
MSL-F20/50#
  2
5GENINF
 70
     1
  0
ATTRIB
  5
BC2
  8
INFO
 10
259.96929398638508
 20
118.3161736066411
 30
0.0
 40
1.0
  1

  2
6GENINF
 70
     1
  0
ATTRIB
  5
BC3
  8
INFO
 10
259.96929398638508
 20
116.8161736066411
 30
0.0
 40
1.0
  1
Fa. Mayer
  2
7GENINF
 70
     1
  0
ATTRIB
  5
BC4
  8
INFO
 10
259.96929398638508
 20
115.3161736066411
 30
0.0
 40
1.0
  1

  2
8GENINF
 70
     1
  0
ATTRIB
  5
BC5
  8
INFO
 10
259.96929398638508
 20
113.8161736066411
 30
0.0
 40
1.0
  1

  2
9GENINF
 70
     1
  0
ATTRIB
  5
BC6
  8
INFO
 10
259.96929398638508
 20
112.3161736066411
 30
0.0
 40
1.0
  1

  2
10GENINF
 70
     1
  0
ATTRIB
  5
BC7
  8
INFO
 10
259.96929398638508
 20
110.8161736066411
 30
0.0
 40
1.0
  1

  2
11GENINF
 70
     1
  0
ATTRIB
  5
BC8
  8
INFO
 10
259.96929398638508
 20
109.3161736066411
 30
0.0
 40
1.0
  1

  2
12GENINF
 70
     1
  0
ATTRIB
  5
BC9
  8
INFO
 10
259.96929398638508
 20
107.8161736066411
 30
0.0
 40
1.0
  1

  2
13GENINF
 70
     1
  0
ATTRIB
  5
BCA
  8
INFO
 10
259.96929398638508
 20
106.3161736066411
 30
0.0
 40
1.0
  1

  2
14GENINF
 70
     1
  0
ATTRIB
  5
BCB
  8
INFO
 10
259.96929398638508
 20
104.8161736066411
 30
0.0
 40
1.0
  1

  2
15GENINF
 70
     1
  0
ATTRIB
  5
BCC
  8
INFO
 10
259.96929398638508
 20
103.3161736066411
 30
0.0
 40
1.0
  1

  2
16GENINF
 70
     1
  0
ATTRIB
  5
BCD
  8
INFO
 10
259.96929398638508
 20
101.8161736066411
 30
0.0
 40
1.0
  1

  2
17GENINF
 70
     1
  0
ATTRIB
  5
BCE
  8
INFO
 10
259.96929398638508
 20
100.3161736066411
 30
0.0
 40
1.0
  1

  2
18GENINF
 70
     1
  0
ATTRIB
  5
BCF
  8
INFO
 10
259.96929398638508
 20
98.816173606641144
 30
0.0
 40
1.0
  1

  2
19GENINF
 70
     1
  0
ATTRIB
  5
BD0
  8
INFO
 10
259.96929398638508
 20
97.316173606641144
 30
0.0
 40
1.0
  1

  2
20GENINF
 70
     1
  0
ATTRIB
  5
BD1
  8
INFO
 10
259.96929398638508
 20
95.816173606641144
 30
0.0
 40
1.0
  1

  2
21GENINF
 70
     1
  0
ATTRIB
  5
BD2
  8
INFO
 10
259.96929398638508
 20
94.316173606641144
 30
0.0
 40
1.0
  1

  2
22GENINF
 70
     1
  0
ATTRIB
  5
BD3
  8
INFO
 10
259.96929398638508
 20
92.816173606641144
 30
0.0
 40
1.0
  1

  2
23GENINF
 70
     1
  0
ATTRIB
  5
BD4
  8
INFO
 10
259.96929398638508
 20
91.316173606641144
 30
0.0
 40
1.0
  1

  2
24GENINF
 70
     1
  0
ATTRIB
  5
BD5
  8
INFO
 10
259.96929398638508
 20
89.816173606641144
 30
0.0
 40
1.0
  1

  2
0GENINF
 70
     1
  0
SEQEND
  5
BD6
  8
MSF20-0N
  0
TEXT
  5
BD7
  8
MSF20-6
 10
238.71143803283459
 20
140.5529708157363
 30
0.0
 40
1.75
  1
MSL-F20/50
 41
0.825
  0
LINE
  5
BD8
  8
MSF20-4A
 10
251.08288488559279
 20
178.87939258397651
 30
0.0
 11
246.33288488559279
 21
178.87939258397839
 31
0.0
  0
LINE
  5
BD9
  8
MSF20-4A
 10
246.33288488559279
 20
165.87939258397651
 30
0.0
 11
251.08288488559279
 21
165.87939258397651
 31
0.0
  0
LINE
  5
BDA
  8
MSF20-4A
 10
246.218884885595
 20
158.62939258397651
 30
0.0
 11
251.08288488559279
 21
158.62939258397651
 31
0.0
  0
LINE
  5
BDB
  8
MSF20-4A
 10
251.08288488559279
 20
157.87939258397651
 30
0.0
 11
246.968884885595
 21
157.8793925839766
 31
0.0
  0
LINE
  5
BDC
  8
MSF20-4A
 10
255.83288488559279
 20
175.87939258397839
 30
0.0
 11
246.33288488559279
 21
175.87939258397839
 31
0.0
  0
LINE
  5
BDD
  8
MSF20-4A
 10
246.33288488559279
 20
176.87939258397651
 30
0.0
 11
255.83288488559279
 21
176.87939258397651
 31
0.0
  0
LINE
  5
BDE
  8
MSF20-0
 10
236.08288488559279
 20
161.8793925839764
 30
0.0
 11
266.08288488559282
 21
161.87939258397651
 31
0.0
1001
GENIUS_GENOREF_13
1005
BF2
  0
LINE
  5
BDF
  8
MSF20-4A
 10
246.33288488559279
 20
175.87939258397839
 30
0.0
 11
246.33288488559279
 21
165.87939258397651
 31
0.0
  0
LINE
  5
BE0
  8
MSF20-4A
 10
246.79965988559641
 20
161.879392583982
 30
0.0
 11
246.79965988559641
 21
165.87939258397651
 31
0.0
  0
LINE
  5
BE1
  8
MSF20-4A
 10
246.2188848855964
 20
161.879392583982
 30
0.0
 11
246.21888488559139
 21
165.87939258397839
 31
0.0
  0
LINE
  5
BE2
  8
MSF20-4A
 10
246.968884885595
 20
157.8793925839766
 30
0.0
 11
246.218884885595
 21
158.62939258397651
 31
0.0
  0
LINE
  5
BE3
  8
MSF20-4A
 10
246.21888488559139
 20
165.87939258397839
 30
0.0
 11
246.33288488559279
 21
165.879392583982
 31
0.0
  0
LINE
  5
BE4
  8
MSF20-4A
 10
246.33288488559279
 20
178.87939258397839
 30
0.0
 11
246.33288488559279
 21
176.87939258397651
 31
0.0
  0
LINE
  5
BE5
  8
MSF20-4A
 10
247.33288488559279
 20
176.87939258397839
 30
0.0
 11
247.3328848855891
 21
175.87939258397651
 31
0.0
  0
LINE
  5
BE6
  8
MSF20-4A
 10
255.83288488559279
 20
175.87939258397839
 30
0.0
 11
255.83288488559279
 21
165.87939258397651
 31
0.0
  0
LINE
  5
BE7
  8
MSF20-4A
 10
255.36610988558911
 20
161.879392583982
 30
0.0
 11
255.36610988558911
 21
165.87939258397651
 31
0.0
  0
LINE
  5
BE8
  8
MSF20-4A
 10
255.94688488558921
 20
161.879392583982
 30
0.0
 11
255.94688488559419
 21
165.87939258397839
 31
0.0
  0
INSERT
  5
BE9
  8
MSF20-8
  2
*X56
 10
251.08288488559279
 20
76.915196115213121
 30
0.0
1001
GENIUS_GENODEF_13
1002
{
1000
HIER
1070
     0
1002
}
1002
{
1000
MANEDIT
1070
     0
1002
}
1002
{
1000
NOSEL
1070
     0
1002
}
1002
{
1000
BEHIND
1070
     0
1002
}
1002
{
1000
REACTOR
1002
}
1001
GENIUS_GENOBJ-N-HTC_13
1002
{
1000
OWNER
1000
GEN
1002
}
1001
GENIUS_GENHATCH_13
1002
{
1000
DATA
1040
45.0
1042
2.5
1000
_U
1070
     0
1011
257.68314100487169
1021
0.0
1031
0.0
1021
159.07216703824449
1031
0.0
1002
}
1002
{
1000
UCS
1010
0.0
1020
0.0
1030
0.0
1010
1.0
1020
0.0
1030
0.0
1010
0.0
1020
1.0
1030
0.0
1002
}
1001
ACAD
1000
HATCH
1002
{
1070
    19
1000
_U
1040
2.5
1040
0.7853981633974483
1070
     0
1002
}
  0
LINE
  5
BEA
  8
MSF20-4A
 10
255.19688488559061
 20
157.8793925839766
 30
0.0
 11
255.94688488559049
 21
158.62939258397651
 31
0.0
  0
LINE
  5
BEB
  8
MSF20-4A
 10
255.94688488559049
 20
158.62939258397651
 30
0.0
 11
251.08288488559279
 21
158.62939258397651
 31
0.0
  0
LINE
  5
BEC
  8
MSF20-4A
 10
251.08288488559279
 20
157.87939258397651
 30
0.0
 11
255.19688488559061
 21
157.8793925839766
 31
0.0
  0
LINE
  5
BED
  8
MSF20-4A
 10
255.94688488559419
 20
165.87939258397839
 30
0.0
 11
255.83288488559279
 21
165.879392583982
 31
0.0
  0
LINE
  5
BEE
  8
MSF20-4A
 10
255.83288488559279
 20
165.87939258397651
 30
0.0
 11
251.08288488559279
 21
165.87939258397651
 31
0.0
  0
LINE
  5
BEF
  8
MSF20-4A
 10
255.83288488559279
 20
178.87939258397839
 30
0.0
 11
255.83288488559279
 21
176.87939258397651
 31
0.0
  0
LINE
  5
BF0
  8
MSF20-4A
 10
254.83288488559279
 20
176.87939258397839
 30
0.0
 11
254.8328848855964
 21
175.87939258397651
 31
0.0
  0
LINE
  5
BF1
  8
MSF20-4A
 10
251.08288488559279
 20
178.87939258397651
 30
0.0
 11
255.83288488559279
 21
178.87939258397839
 31
0.0
  0
POINT
  5
BF2
  8
0
 10
27.706266126819969
 20
229.18393131758231
 30
0.0
1001
GENIUS_GENBH_13
1002
{
1000
FGO
1005
BF4
1002
}
1001
GENIUS_GENODEF_13
1002
{
1000
HIER
1070
     1
1002
}
1002
{
1000
MANEDIT
1070
     0
1002
}
1002
{
1000
NOSEL
1070
     1
1002
}
1002
{
1000
BEHIND
1070
     0
1002
}
1002
{
1000
REACTOR
1002
}
1001
GENIUS_GENOBJ-NBEHI-BHB_13
1002
{
1000
OWNER
1000
GENBEHI
1002
}
1001
GENIUS_GENOENT_13
1002
{
1000
MYREF
1005
BF2
1002
}
1002
{
1000
GRP
1005
0
1002
}
1001
GENIUS_GENOLIS_13
1002
{
1000
ENT
1005
B0F
1005
BDE
1002
}
  0
POINT
  5
BF3
  8
0
 10
27.706266126819969
 20
229.18393131758231
 30
0.0
1001
GENIUS_GENODEF_13
1002
{
1000
HIER
1070
   200
1002
}
1002
{
1000
MANEDIT
1070
     0
1002
}
1002
{
1000
NOSEL
1070
     0
1002
}
1002
{
1000
BEHIND
1070
     0
1002
}
1002
{
1000
REACTOR
1002
}
1001
GENIUS_GENOBJ-F-PART_13
1002
{
1000
OWNER
1000
GEF
1002
}
1001
GENIUS_GEFSTDP_13
1002
{
1000
DSC
1000
DSC
1002
{
1000
~DESCR
1000
 
1000
~STDRT
1000
(gefmsg "gefcall" 409)
1000
~LOTI
1002
}
1002
}
1002
{
1000
SUG
1000
G
1000
1/8
1002
}
1002
{
1000
KEY
1000
THPF
1002
}
1002
{
1000
INS
1002
{
1040
-0.000000000003638
1040
84.964196468764797
1040
0.0
1002
}
1002
}
1002
{
1000
ANG
1040
4.7123889803846888
1002
}
1002
{
1000
VCC
1002
{
1000
-LPLOTI=8.000000000000000E+00
1000
$PRE=G
1000
$NM1=1/8
1000
-GRPNAME0MSF16-0
1000
-RBDESCR
1000
-RBSTDRT
1000
-RBLOTI
1000
-RBGD1
1000
-V$PV_GENSYSTEM"gef\val\di\0405\di1627_v.dxf"
1000
$VCC_TABLE=$PV_GENSYSTEM"gef\val\di\0405\di1627.val"
1000
$GEF_CDIST=3.000000000000000E+00
1000
$GEF_DRAG=1
1000
$GEF_STANG=2.100000000000000E+02
1000
$GEF_OANG=7.000000000000000E+01
1000
$GEVPROMPTX= Länge: 
1000
$GEF_SNK_ADD=0.000000000000000E+00
1000
$GEF_FLIPX=1
1000
$GEF_FLIPY=1
1000
-GRPNAME1?
1000
-BAML2
1000
$GEF_PROCALC=1
1002
}
1002
}
1002
{
1000
LST
1002
{
1002
{
1000
GROUP
1000
0405
1002
}
1002
{
1000
VIEW
1000
V
1002
}
1002
{
1000
SFILE
1000
$PV_GENSYSTEM"gef\val\di\0405\di1627_v.dxf"
1002
}
1002
{
1000
ST1
1000
$PV_GENSYSTEM"gef\val\di\0405\di1627.val"
1002
}
1002
{
1000
GENASSO
1000
 
1002
}
1002
}
1002
}
1002
{
1000
RET
1002
{
1002
{
1000
GD1
1000
8.56645
1002
}
1002
{
1000
LOTI
1000
8.000000000000000E+00
1002
}
1002
{
1000
STDRT
1000
ISO 228 - G 1/8
1002
}
1002
{
1000
DESCR
1000
Rohrgewinde
1002
}
1002
}
1002
}
1002
{
1000
SYSTEM
1040
1.0
1002
}
1002
{
1000
INFEL
1002
{
1002
}
1002
}
1001
GENIUS_GENOENT_13
1002
{
1000
MYREF
1005
BF3
1002
}
1002
{
1000
GRP
1005
0
1002
}
1001
GENIUS_GENOLIS_13
1002
{
1000
ENT
1005
B0B
1002
}
  0
POINT
  5
BF4
  8
0
 10
27.706266126819969
 20
229.18393131758231
 30
0.0
1001
GENIUS_GENBH_13
1002
{
1000
BGO
1005
BF2
1002
}
1002
{
1000
FGLEVEL
1040
2.0000000099999991
1002
}
1002
{
1000
FLAGS
1070
    36
1002
}
1002
{
1000
OIUMAP
1000
OIU
1002
}
1002
{
1000
MODIFY
1070
     0
1002
}
1001
GENIUS_GENODEF_13
1002
{
1000
HIER
1070
     1
1002
}
1002
{
1000
MANEDIT
1070
     0
1002
}
1002
{
1000
NOSEL
1070
     1
1002
}
1002
{
1000
BEHIND
1070
     0
1002
}
1002
{
1000
REACTOR
1002
}
1001
GENIUS_GENOBJ-NBEHI-BHF_13
1002
{
1000
OWNER
1000
GENBEHI
1002
}
1001
GENIUS_GENOENT_13
1002
{
1000
MYREF
1005
BF4
1002
}
1002
{
1000
GRP
1005
0
1002
}
1001
GENIUS_GENOLIS_13
1002
{
1000
ENT
1005
B0B
1002
}
  0
LINE
  5
C39
  8
MSF20-3
 10
242.58288488559279
 20
61.87939258397477
 30
0.0
 11
236.08288488559279
 21
61.879392583976482
 31
0.0
1001
GENIUS_GENBH_13
1002
{
1000
OE
1000
CON1
1002
}
1001
GENIUS_GENOREF_13
1005
C3D
  0
LINE
  5
C3A
  8
MSF20-0
 10
236.08288488559279
 20
116.87939258397471
 30
0.0
 11
236.08288488559279
 21
161.8793925839764
 31
0.0
1001
GENIUS_GENOREF_13
1005
C3D
  0
LINE
  5
C3B
  8
MSF20-3
 10
266.08288488559282
 20
111.87939258397471
 30
0.0
 11
266.08288488559282
 21
96.879392583976482
 31
0.0
1001
GENIUS_GENBH_13
1002
{
1000
OE
1000
CON1
1002
}
1001
GENIUS_GENOREF_13
1005
C3D
  0
POINT
  5
C3D
  8
0
 10
0.0
 20
0.0
 30
0.0
1001
GENIUS_GENBH_13
1002
{
1000
FGO
1005
C3C
1002
}
1001
GENIUS_GENODEF_13
1002
{
1000
HIER
1070
     1
1002
}
1002
{
1000
MANEDIT
1070
     0
1002
}
1002
{
1000
NOSEL
1070
     1
1002
}
1002
{
1000
BEHIND
1070
     0
1002
}
1002
{
1000
REACTOR
1002
}
1001
GENIUS_GENOBJ-NBEHI-BHB_13
1002
{
1000
OWNER
1000
GENBEHI
1002
}
1001
GENIUS_GENOENT_13
1002
{
1000
MYREF
1005
C3D
1002
}
1002
{
1000
GRP
1005
0
1002
}
1001
GENIUS_GENOLIS_13
1002
{
1000
ENT
1005
C3B
1005
C3A
1005
C39
1005
BBC
1005
BB8
1005
B0C
1005
B0E
1005
BB9
1005
BBB
1005
BBA
1002
}
  0
LINE
  5
C41
  8
MSF20-3
 10
532.3837111508451
 20
116.87939258397471
 30
0.0
 11
532.3837111508451
 21
61.879392583976482
 31
0.0
1001
GENIUS_GENBH_13
1002
{
1000
OE
1000
CON1
1002
}
1001
GENIUS_GENOREF_13
1005
C44
  0
LINE
  5
C42
  8
MSF20-0
 10
502.38371115084499
 20
116.87939258397481
 30
0.0
 11
502.38371115084499
 21
161.8793925839764
 31
0.0
1001
GENIUS_GENOREF_13
1005
C44
1005
C47
  0
POINT
  5
C43
  8
0
 10
0.0
 20
0.0
 30
0.0
1001
GENIUS_GENBH_13
1002
{
1000
BGO
1005
C44
1002
}
1002
{
1000
FLAGS
1070
   164
1002
}
1002
{
1000
MODIFY
1002
{
1000
I
1000
H
1002
}
1002
}
1001
GENIUS_GENODEF_13
1002
{
1000
HIER
1070
     1
1002
}
1002
{
1000
MANEDIT
1070
     0
1002
}
1002
{
1000
NOSEL
1070
     1
1002
}
1002
{
1000
BEHIND
1070
     0
1002
}
1002
{
1000
REACTOR
1002
}
1001
GENIUS_GENOBJ-NBEHI-BHF_13
1002
{
1000
OWNER
1000
GENBEHI
1002
}
1001
GENIUS_GENOENT_13
1002
{
1000
MYREF
1005
C43
1002
}
1002
{
1000
GRP
1005
0
1002
}
1001
GENIUS_GENOLIS_13
1002
{
1000
ENT
1005
E9
1005
101
1005
10F
1005
105
1005
10E
1005
109
1005
10D
1005
F9
1002
}
  0
POINT
  5
C44
  8
0
 10
0.0
 20
0.0
 30
0.0
1001
GENIUS_GENBH_13
1002
{
1000
FGO
1005
C43
1002
}
1001
GENIUS_GENODEF_13
1002
{
1000
HIER
1070
     1
1002
}
1002
{
1000
MANEDIT
1070
     0
1002
}
1002
{
1000
NOSEL
1070
     1
1002
}
1002
{
1000
BEHIND
1070
     0
1002
}
1002
{
1000
REACTOR
1002
}
1001
GENIUS_GENOBJ-NBEHI-BHB_13
1002
{
1000
OWNER
1000
GENBEHI
1002
}
1001
GENIUS_GENOENT_13
1002
{
1000
MYREF
1005
C44
1002
}
1002
{
1000
GRP
1005
0
1002
}
1001
GENIUS_GENOLIS_13
1002
{
1000
ENT
1005
C42
1005
C41
1005
9F2
1005
AA9
1005
AD4
1002
}
  0
LINE
  5
C45
  8
ZYL_50_ISO6431-4A
 10
532.3837111508451
 20
119.37939258397471
 30
0.0
 11
540.6337111508451
 21
119.37939258397471
 31
0.0
1001
GENIUS_GENOREF_13
1005
C48
  0
LINE
  5
C46
  8
ZYL_50_ISO6431-4A
 10
502.38371115084499
 20
119.37939258397471
 30
0.0
 11
494.1337111508451
 21
119.37939258397471
 31
0.0
1001
GENIUS_GENOREF_13
1005
C48
  0
POINT
  5
C47
  8
0
 10
0.0
 20
0.0
 30
0.0
1001
GENIUS_GENBH_13
1002
{
1000
BGO
1005
C48
1002
}
1002
{
1000
FLAGS
1070
   164
1002
}
1002
{
1000
MODIFY
1002
{
1000
I
1000
H
1002
}
1002
}
1001
GENIUS_GENODEF_13
1002
{
1000
HIER
1070
     1
1002
}
1002
{
1000
MANEDIT
1070
     0
1002
}
1002
{
1000
NOSEL
1070
     1
1002
}
1002
{
1000
BEHIND
1070
     0
1002
}
1002
{
1000
REACTOR
1002
}
1001
GENIUS_GENOBJ-NBEHI-BHF_13
1002
{
1000
OWNER
1000
GENBEHI
1002
}
1001
GENIUS_GENOENT_13
1002
{
1000
MYREF
1005
C47
1002
}
1002
{
1000
GRP
1005
0
1002
}
1001
GENIUS_GENOLIS_13
1002
{
1000
ENT
1005
9F6
1005
AD4
1005
C42
1002
}
  0
POINT
  5
C48
  8
0
 10
0.0
 20
0.0
 30
0.0
1001
GENIUS_GENBH_13
1002
{
1000
FGO
1005
C47
1002
}
1001
GENIUS_GENODEF_13
1002
{
1000
HIER
1070
     1
1002
}
1002
{
1000
MANEDIT
1070
     0
1002
}
1002
{
1000
NOSEL
1070
     1
1002
}
1002
{
1000
BEHIND
1070
     0
1002
}
1002
{
1000
REACTOR
1002
}
1001
GENIUS_GENOBJ-NBEHI-BHB_13
1002
{
1000
OWNER
1000
GENBEHI
1002
}
1001
GENIUS_GENOENT_13
1002
{
1000
MYREF
1005
C48
1002
}
1002
{
1000
GRP
1005
0
1002
}
1001
GENIUS_GENOLIS_13
1002
{
1000
ENT
1005
C46
1005
C45
1005
374
1005
36A
1002
}
  0
INSERT
  5
C4C
  8
ZYL_50_ISO6431-0
  2
*U66
 10
0.0
 20
0.0
 30
0.0
  0
ENDSEC
  0
EOF
