  0
SECTION
  2
HEADER
  9
$ACADVER
  1
AC1014
  9
$ACADMAINTVER
 70
     0
  9
$DWGCODEPAGE
  3
ANSI_1252
  9
$INSBASE
 10
0.0
 20
0.0
 30
0.0
  9
$EXTMIN
 10
1199.017195
 20
-46.464693
 30
0.0
  9
$EXTMAX
 10
1906.446829
 20
251.734015
 30
0.0
  9
$LIMMIN
 10
0.0
 20
0.0
  9
$LIMMAX
 10
420.0
 20
297.0
  9
$ORTHOMODE
 70
     0
  9
$REGENMODE
 70
     1
  9
$FILLMODE
 70
     1
  9
$QTEXTMODE
 70
     0
  9
$MIRRTEXT
 70
     1
  9
$DRAGMODE
 70
     2
  9
$LTSCALE
 40
1.0
  9
$OSMODE
 70
   109
  9
$ATTMODE
 70
     1
  9
$TEXTSIZE
 40
3.5
  9
$TRACEWID
 40
1.0
  9
$TEXTSTYLE
  7
STANDARD
  9
$CLAYER
  8
MSL-115-P40-R-6
  9
$CELTYPE
  6
BYLAYER
  9
$CECOLOR
 62
   256
  9
$CELTSCALE
 40
1.0
  9
$DELOBJ
 70
     1
  9
$DISPSILH
 70
     0
  9
$DIMSCALE
 40
1.0
  9
$DIMASZ
 40
7.0
  9
$DIMEXO
 40
1.0
  9
$DIMDLI
 40
10.0
  9
$DIMRND
 40
0.0
  9
$DIMDLE
 40
0.0
  9
$DIMEXE
 40
2.0
  9
$DIMTP
 40
0.1
  9
$DIMTM
 40
0.1
  9
$DIMTXT
 40
9.0
  9
$DIMCEN
 40
-2.0
  9
$DIMTSZ
 40
0.0
  9
$DIMTOL
 70
     0
  9
$DIMLIM
 70
     0
  9
$DIMTIH
 70
     0
  9
$DIMTOH
 70
     0
  9
$DIMSE1
 70
     0
  9
$DIMSE2
 70
     0
  9
$DIMTAD
 70
     1
  9
$DIMZIN
 70
     8
  9
$DIMBLK
  1

  9
$DIMASO
 70
     1
  9
$DIMSHO
 70
     1
  9
$DIMPOST
  1

  9
$DIMAPOST
  1

  9
$DIMALT
 70
     0
  9
$DIMALTD
 70
     2
  9
$DIMALTF
 40
25.4
  9
$DIMLFAC
 40
1.0
  9
$DIMTOFL
 70
     1
  9
$DIMTVP
 40
0.0
  9
$DIMTIX
 70
     0
  9
$DIMSOXD
 70
     0
  9
$DIMSAH
 70
     0
  9
$DIMBLK1
  1

  9
$DIMBLK2
  1

  9
$DIMSTYLE
  2
GEN-ISO
  9
$DIMCLRD
 70
     0
  9
$DIMCLRE
 70
     0
  9
$DIMCLRT
 70
     5
  9
$DIMTFAC
 40
1.0
  9
$DIMGAP
 40
1.5
  9
$DIMJUST
 70
     0
  9
$DIMSD1
 70
     0
  9
$DIMSD2
 70
     0
  9
$DIMTOLJ
 70
     0
  9
$DIMTZIN
 70
     8
  9
$DIMALTZ
 70
     8
  9
$DIMALTTZ
 70
     8
  9
$DIMFIT
 70
     3
  9
$DIMUPT
 70
     0
  9
$DIMUNIT
 70
     2
  9
$DIMDEC
 70
     2
  9
$DIMTDEC
 70
     5
  9
$DIMALTU
 70
     2
  9
$DIMALTTD
 70
     2
  9
$DIMTXSTY
  7
STANDARD
  9
$DIMAUNIT
 70
     0
  9
$LUNITS
 70
     2
  9
$LUPREC
 70
     4
  9
$SKETCHINC
 40
1.0
  9
$FILLETRAD
 40
0.0
  9
$AUNITS
 70
     0
  9
$AUPREC
 70
     0
  9
$MENU
  1
acad
  9
$ELEVATION
 40
0.0
  9
$PELEVATION
 40
0.0
  9
$THICKNESS
 40
0.0
  9
$LIMCHECK
 70
     0
  9
$BLIPMODE
 70
     0
  9
$CHAMFERA
 40
10.0
  9
$CHAMFERB
 40
10.0
  9
$CHAMFERC
 40
0.0
  9
$CHAMFERD
 40
0.0
  9
$SKPOLY
 70
     0
  9
$TDCREATE
 40
2452398.513436342
  9
$TDUPDATE
 40
2452912.321717396
  9
$TDINDWG
 40
0.3335429398
  9
$TDUSRTIMER
 40
0.3335429398
  9
$USRTIMER
 70
     1
  9
$ANGBASE
 50
0.0
  9
$ANGDIR
 70
     0
  9
$PDMODE
 70
     0
  9
$PDSIZE
 40
0.0
  9
$PLINEWID
 40
0.0
  9
$COORDS
 70
     1
  9
$SPLFRAME
 70
     0
  9
$SPLINETYPE
 70
     6
  9
$SPLINESEGS
 70
     8
  9
$ATTDIA
 70
     1
  9
$ATTREQ
 70
     1
  9
$HANDLING
 70
     1
  9
$HANDSEED
  5
6056
  9
$SURFTAB1
 70
     6
  9
$SURFTAB2
 70
     6
  9
$SURFTYPE
 70
     6
  9
$SURFU
 70
     6
  9
$SURFV
 70
     6
  9
$UCSNAME
  2

  9
$UCSORG
 10
0.0
 20
0.0
 30
0.0
  9
$UCSXDIR
 10
1.0
 20
0.0
 30
0.0
  9
$UCSYDIR
 10
0.0
 20
1.0
 30
0.0
  9
$PUCSNAME
  2

  9
$PUCSORG
 10
0.0
 20
0.0
 30
0.0
  9
$PUCSXDIR
 10
1.0
 20
0.0
 30
0.0
  9
$PUCSYDIR
 10
0.0
 20
1.0
 30
0.0
  9
$USERI1
 70
     0
  9
$USERI2
 70
     0
  9
$USERI3
 70
     0
  9
$USERI4
 70
     0
  9
$USERI5
 70
     0
  9
$USERR1
 40
0.0
  9
$USERR2
 40
0.0
  9
$USERR3
 40
0.0
  9
$USERR4
 40
0.0
  9
$USERR5
 40
0.0
  9
$WORLDVIEW
 70
     1
  9
$SHADEDGE
 70
     3
  9
$SHADEDIF
 70
    70
  9
$TILEMODE
 70
     1
  9
$MAXACTVP
 70
    16
  9
$PINSBASE
 10
0.0
 20
0.0
 30
0.0
  9
$PLIMCHECK
 70
     0
  9
$PEXTMIN
 10
1.000000E+20
 20
1.000000E+20
 30
1.000000E+20
  9
$PEXTMAX
 10
-1.000000E+20
 20
-1.000000E+20
 30
-1.000000E+20
  9
$PLIMMIN
 10
0.0
 20
0.0
  9
$PLIMMAX
 10
420.0
 20
297.0
  9
$UNITMODE
 70
     0
  9
$VISRETAIN
 70
     0
  9
$PLINEGEN
 70
     0
  9
$PSLTSCALE
 70
     1
  9
$TREEDEPTH
 70
  3020
  9
$PICKSTYLE
 70
     0
  9
$CMLSTYLE
  2
STANDARD
  9
$CMLJUST
 70
     0
  9
$CMLSCALE
 40
1.0
  9
$PROXYGRAPHICS
 70
     1
  9
$MEASUREMENT
 70
     1
  0
ENDSEC
  0
SECTION
  2
CLASSES
  0
CLASS
  1
LWPOLYLINE
  2
AcDbPolyline
  3
"AutoCAD"
 90
        0
280
     0
281
     1
  0
CLASS
  1
XRECORD
  2
AcDbXrecord
  3
"<Built In>"
 90
        0
280
     0
281
     0
  0
CLASS
  1
OLE2FRAME
  2
AcDbOle2Frame
  3
""
 90
        0
280
     0
281
     1
  0
CLASS
  1
ACDBDICTIONARYWDFLT
  2
AcDbDictionaryWithDefault
  3
AutoCAD 2000
 90
        0
280
     0
281
     0
  0
CLASS
  1
ACDBPLACEHOLDER
  2
AcDbPlaceHolder
  3
AutoCAD 2000
 90
        0
280
     0
281
     0
  0
CLASS
  1
LAYOUT
  2
AcDbLayout
  3
AutoCAD 2000
 90
        0
280
     0
281
     0
  0
CLASS
  1
ACME_DOCUMENT
  2
AcMeDbDoc
  3
AcMeServices
 90
        0
280
     0
281
     0
  0
CLASS
  1
AMGSETTINGSOBJ
  2
AmgSettingsObj
  3
"AcadM|Product Description: AutoCAD Mechanical 2000|Company: Autodesk"
 90
        0
280
     0
281
     0
  0
CLASS
  1
AMGOBJPROPCFG
  2
AmgObjPropCfg
  3
"AmgLay|Product Description: AutoCAD Mechanical 2000|Company: Autodesk"
 90
        1
280
     0
281
     0
  0
CLASS
  1
ACMESCOPE
  2
AcMeScope
  3
AcMeServices
 90
        0
280
     0
281
     0
  0
CLASS
  1
ACMECOMMANDHISTORY
  2
AcMeCommandHistory
  3
AcMeServices
 90
        0
280
     0
281
     0
  0
CLASS
  1
DICTIONARYVAR
  2
AcDbDictionaryVar
  3
"AutoCAD"
 90
        0
280
     0
281
     0
  0
CLASS
  1
ACIMSYSVARMAN
  2
AcImSysVarManager
  3
AcMeServices
 90
        0
280
     0
281
     0
  0
CLASS
  1
ACIMREALSYSVAR
  2
AcImRealSysVar
  3
AcMeServices
 90
        0
280
     0
281
     0
  0
CLASS
  1
ACIMINTSYSVAR
  2
AcImIntSysVar
  3
AcMeServices
 90
        0
280
     0
281
     0
  0
CLASS
  1
ACMEDRAWINGMAN
  2
AcMeDrawingMan
  3
AcMeServices
 90
        0
280
     0
281
     0
  0
CLASS
  1
ACMEVIEW
  2
AcMeView
  3
AcMeServices
 90
        0
280
     0
281
     0
  0
CLASS
  1
ACDBENTITYCACHE
  2
AcMeEntityCache
  3
AcMeServices
 90
        0
280
     0
281
     0
  0
CLASS
  1
GSMANAGER
  2
AcMeGSManager
  3
AcMeServices
 90
        0
280
     0
281
     0
  0
CLASS
  1
AMDTINTERNALREACTOR
  2
AmdtInternalReactor
  3
AcMeServices
 90
        0
280
     0
281
     0
  0
CLASS
  1
ACMESTATEMGR
  2
AcMeStateMgr
  3
AcMeServices
 90
        0
280
     0
281
     0
  0
CLASS
  1
ACGREFMASTER
  2
AcGrefMaster
  3
AcAttribServices
 90
        0
280
     0
281
     0
  0
CLASS
  1
ACME_DATABASE
  2
AcMeDbDatabase
  3
AcMeServices
 90
        0
280
     0
281
     0
  0
CLASS
  1
ACRFINSADJUSTERMGR
  2
AcRfInsAdjusterMgr
  3
AcMeServices
 90
        0
280
     0
281
     0
  0
CLASS
  1
ACGREFMASTER
  2
AcGrefacadMaster
  3
AcGrefServices
 90
        0
280
     0
281
     0
  0
CLASS
  1
AMIMASTER
  2
AmiMaster
  3
AmiServices
 90
        0
280
     0
281
     0
  0
CLASS
  1
ACMDATADICTIONARY
  2
AcmDataDictionary
  3
"AcmSymBB|Product Description: AutoCAD Mechanical 2000|Company: Autodesk"
 90
        0
280
     0
281
     0
  0
CLASS
  1
ACMDATAENTRYBLOCK
  2
AcmDataEntryBlock
  3
"AcmSymBB|Product Description: AutoCAD Mechanical 2000|Company: Autodesk"
 90
        0
280
     0
281
     0
  0
CLASS
  1
ACMSTANDARDISO
  2
AcmStandardISO
  3
"Amdt_StdImp|Product Description: AutoCAD Mechanical 2000|Company: Autodesk"
 90
        0
280
     0
281
     0
  0
CLASS
  1
AMDTEDGESTANDARDISO
  2
AmdtEdgeStdISO
  3
"Amdt_StdImp|Product Description: AutoCAD Mechanical 2000|Company: Autodesk"
 90
        0
280
     0
281
     0
  0
CLASS
  1
ACMSURFSTANDARDISO
  2
AcmSurfTextStdISO
  3
"Amdt_StdImp|Product Description: AutoCAD Mechanical 2000|Company: Autodesk"
 90
        0
280
     0
281
     0
  0
CLASS
  1
ACMFCFSTANDARDISO
  2
AcmFCFStdISO
  3
"Amdt_StdImp|Product Description: AutoCAD Mechanical 2000|Company: Autodesk"
 90
        0
280
     0
281
     0
  0
CLASS
  1
ACMWELDSTANDARDISO
  2
AcmWeldingStdISO
  3
"Amdt_StdImp|Product Description: AutoCAD Mechanical 2000|Company: Autodesk"
 90
        0
280
     0
281
     0
  0
CLASS
  1
ACMIDSTANDARDISO
  2
AcmIdStdISO
  3
"Amdt_StdImp|Product Description: AutoCAD Mechanical 2000|Company: Autodesk"
 90
        0
280
     0
281
     0
  0
CLASS
  1
ACMDATUMSTANDARDISO
  2
AcmDatumStdISO
  3
"Amdt_StdImp|Product Description: AutoCAD Mechanical 2000|Company: Autodesk"
 90
        0
280
     0
281
     0
  0
CLASS
  1
ACMBOMSTANDARDISO
  2
AcmBOMStdISO
  3
"Amdt_StdImp|Product Description: AutoCAD Mechanical 2000|Company: Autodesk"
 90
        0
280
     0
281
     0
  0
CLASS
  1
"AcAmgLayStd"
  2
AcAmgLayStd
  3
"AcAmgLayStd|Product Description: AutoCAD Mechanical 2000|Company: Autodesk"
 90
        0
280
     0
281
     0
  0
CLASS
  1
"AcAmgDimStd"
  2
AcAmgDimStd
  3
"AcAmgDimStd|Product Description: AutoCAD Mechanical 2000|Company: Autodesk"
 90
        0
280
     0
281
     0
  0
CLASS
  1
AcAmgTitleStd
  2
AcAmgTitleStd
  3
"TITLEAPP"
 90
        0
280
     0
281
     0
  0
CLASS
  1
ACMDETAILSTANDARDISO
  2
AmdtDetailSymStdISO
  3
"Amdt_StdImp|Product Description: AutoCAD Mechanical 2000|Company: Autodesk"
 90
        0
280
     0
281
     0
  0
CLASS
  1
ACMSECTIONSTANDARDISO
  2
AmdtSectionSymStdISO
  3
"Amdt_StdImp|Product Description: AutoCAD Mechanical 2000|Company: Autodesk"
 90
        0
280
     0
281
     0
  0
CLASS
  1
ACMCENTERLINESTANDARDISO
  2
AmdtCenterLineStdISO
  3
"Amdt_StdImp|Product Description: AutoCAD Mechanical 2000|Company: Autodesk"
 90
        0
280
     0
281
     0
  0
CLASS
  1
ACMTHREADLINESTANDARDISO
  2
AmdtThreadLineStdISO
  3
"Amdt_StdImp|Product Description: AutoCAD Mechanical 2000|Company: Autodesk"
 90
        0
280
     0
281
     0
  0
CLASS
  1
ACIMSTRSYSVAR
  2
AcImStrSysVar
  3
AcMeServices
 90
        0
280
     0
281
     0
  0
CLASS
  1
ACAMGFILTERDAT
  2
AcAmgFilterDat
  3
"AcadM|Product Description: AutoCAD Mechanical 2000|Company: Autodesk"
 90
        0
280
     0
281
     0
  0
CLASS
  1
LAYER_INDEX
  2
AcDbLayerIndex
  3
"Acad"
 90
        0
280
     0
281
     0
  0
CLASS
  1
IDBUFFER
  2
AcDbIdBuffer
  3
"Acad"
 90
        0
280
     0
281
     0
  0
CLASS
  1
LONG_TRANSACTION
  2
AcDbLongTransaction
  3
AutoCAD 2000
 90
        0
280
     0
281
     0
  0
CLASS
  1
LWPOLYLINE
  2
AcDbPolyline
  3
"AutoCAD"
 90
        0
280
     0
281
     1
  0
CLASS
  1
HATCH
  2
AcDbHatch
  3
"ACAD_SEDONA"
 90
        0
280
     0
281
     1
  0
CLASS
  1
XRECORD
  2
AcDbXrecord
  3
"<Built In>"
 90
        0
280
     0
281
     0
  0
ENDSEC
  0
SECTION
  2
TABLES
  0
TABLE
  2
VPORT
  5
8
100
AcDbSymbolTable
 70
     1
  0
VPORT
  5
6001
102
{ACAD_XDICTIONARY
360
600C
102
}
100
AcDbSymbolTableRecord
100
AcDbViewportTableRecord
  2
*ACTIVE
 70
     0
 10
0.0
 20
0.0
 11
1.0
 21
1.0
 12
1553.041972
 22
96.270789
 13
0.0
 23
0.0
 14
1.0
 24
1.0
 15
10.0
 25
10.0
 16
0.0
 26
0.0
 36
1.0
 17
0.0
 27
0.0
 37
0.0
 40
538.738134
 41
1.482168
 42
50.0
 43
0.0
 44
0.0
 50
0.0
 51
0.0
 71
     0
 72
   100
 73
     1
 74
     0
 75
     0
 76
     0
 77
     0
 78
     0
  0
ENDTAB
  0
TABLE
  2
LTYPE
  5
5
100
AcDbSymbolTable
 70
    14
  0
LTYPE
  5
12
100
AcDbSymbolTableRecord
100
AcDbLinetypeTableRecord
  2
BYBLOCK
 70
     0
  3

 72
    65
 73
     0
 40
0.0
  0
LTYPE
  5
13
100
AcDbSymbolTableRecord
100
AcDbLinetypeTableRecord
  2
BYLAYER
 70
     0
  3

 72
    65
 73
     0
 40
0.0
  0
LTYPE
  5
14
100
AcDbSymbolTableRecord
100
AcDbLinetypeTableRecord
  2
CONTINUOUS
 70
     0
  3
Solid line
 72
    65
 73
     0
 40
0.0
  0
LTYPE
  5
1E
100
AcDbSymbolTableRecord
100
AcDbLinetypeTableRecord
  2
GEN3A
 70
     0
  3
 - - - - -
 72
    65
 73
     2
 40
3.1
 49
2.5
 74
     0
 49
-0.6
 74
     0
  0
LTYPE
  5
20
100
AcDbSymbolTableRecord
100
AcDbLinetypeTableRecord
  2
GEN7A
 70
     0
  3
__ . __ . __
 72
    65
 73
     4
 40
7.5
 49
5.0
 74
     0
 49
-1.25
 74
     0
 49
0.0
 74
     0
 49
-1.25
 74
     0
  0
LTYPE
  5
5E1E
100
AcDbSymbolTableRecord
100
AcDbLinetypeTableRecord
  2
AM_ISO02W050
 70
     0
  3
__ __ __ __ __ __ __ __ __ __ __ __ __ __ __
 72
    65
 73
     2
 40
7.5
 49
6.0
 74
     0
 49
-1.5
 74
     0
  0
LTYPE
  5
5E1F
100
AcDbSymbolTableRecord
100
AcDbLinetypeTableRecord
  2
AM_ISO08W050
 70
     0
  3
____ . ____ . ____ . ____ . ____ . ____ . ____
 72
    65
 73
     4
 40
18.0
 49
12.0
 74
     0
 49
-1.5
 74
     0
 49
3.0
 74
     0
 49
-1.5
 74
     0
  0
LTYPE
  5
5E20
100
AcDbSymbolTableRecord
100
AcDbLinetypeTableRecord
  2
AM_ISO09W050
 70
     0
  3
_____ . . _____ . . _____ . . ____ .. ____
 72
    65
 73
     6
 40
22.5
 49
12.0
 74
     0
 49
-1.5
 74
     0
 49
3.0
 74
     0
 49
-1.5
 74
     0
 49
3.0
 74
     0
 49
-1.5
 74
     0
  0
LTYPE
  5
5E21
102
{ACAD_XDICTIONARY
360
6004
102
}
100
AcDbSymbolTableRecord
100
AcDbLinetypeTableRecord
  2
AMCONSTR
 70
     0
  3
_______________________
 72
    65
 73
     2
 40
9999.0
 49
9999.0
 74
     0
 49
0.0
 74
     0
  0
LTYPE
  5
5E22
102
{ACAD_XDICTIONARY
360
6006
102
}
100
AcDbSymbolTableRecord
100
AcDbLinetypeTableRecord
  2
AM_ISO02W050X2
 70
     0
  3
 _ _ _ _ _ _ _ _ _ _ _ _
 72
    65
 73
     2
 40
3.75
 49
3.0
 74
     0
 49
-0.75
 74
     0
  0
LTYPE
  5
5E23
102
{ACAD_XDICTIONARY
360
6008
102
}
100
AcDbSymbolTableRecord
100
AcDbLinetypeTableRecord
  2
AM_ISO08W050X2
 70
     0
  3
__ . __ . __ . __ . __ . __
 72
    65
 73
     4
 40
9.0
 49
6.0
 74
     0
 49
-0.75
 74
     0
 49
1.5
 74
     0
 49
-0.75
 74
     0
  0
LTYPE
  5
5E24
102
{ACAD_XDICTIONARY
360
600A
102
}
100
AcDbSymbolTableRecord
100
AcDbLinetypeTableRecord
  2
AMZIGZAG
 70
     0
  3
/\/-/\/-/\/-/\/-/\/-/\/
 72
    65
 73
     2
 40
11.0001
 49
0.0001
 74
     4
 75
   135
340
5E25
 46
0.04
 50
0.0
 44
0.0
 45
0.0
 49
-11.0
 74
     0
  0
LTYPE
  5
5E4D
100
AcDbSymbolTableRecord
100
AcDbLinetypeTableRecord
  2
ACISOWELD
 70
     0
  3
_ _ _ _ _
 72
    65
 73
     2
 40
2.0
 49
2.0
 74
     0
 49
-1.0
 74
     0
  0
LTYPE
  5
5E50
100
AcDbSymbolTableRecord
100
AcDbLinetypeTableRecord
  2
ACISOTGB
 70
     0
  3
__ . . __ . .
 72
    65
 73
     6
 40
9.0
 49
4.0
 74
     0
 49
-1.0
 74
     0
 49
1.0
 74
     0
 49
-1.0
 74
     0
 49
1.0
 74
     0
 49
-1.0
 74
     0
  0
LTYPE
  5
5E51
100
AcDbSymbolTableRecord
100
AcDbLinetypeTableRecord
  2
ACISOTGL
 70
     0
  3
_ _ _ _ _
 72
    65
 73
     2
 40
3.0
 49
2.0
 74
     0
 49
-1.0
 74
     0
  0
LTYPE
  5
5EBA
100
AcDbSymbolTableRecord
100
AcDbLinetypeTableRecord
  2
CENTER
 70
     0
  3
__ . __
 72
    65
 73
     4
 40
7.0
 49
4.0
 74
     0
 49
-1.0
 74
     0
 49
1.0
 74
     0
 49
-1.0
 74
     0
  0
ENDTAB
  0
TABLE
  2
LAYER
  5
2
100
AcDbSymbolTable
 70
     8
  0
LAYER
  5
F
100
AcDbSymbolTableRecord
100
AcDbLayerTableRecord
  2
0
 70
     0
 62
     7
  6
CONTINUOUS
  0
LAYER
  5
3994
100
AcDbSymbolTableRecord
100
AcDbLayerTableRecord
  2
MSL-115-P40-R-0
 70
     0
 62
     7
  6
CONTINUOUS
  0
LAYER
  5
3996
100
AcDbSymbolTableRecord
100
AcDbLayerTableRecord
  2
MSL-115-P40-R-3A
 70
     0
 62
     6
  6
GEN3A
  0
LAYER
  5
3997
100
AcDbSymbolTableRecord
100
AcDbLayerTableRecord
  2
MSL-115-P40-R-7A
 70
     0
 62
     4
  6
GEN7A
  0
LAYER
  5
39BA
100
AcDbSymbolTableRecord
100
AcDbLayerTableRecord
  2
MSL-115-P40-R-5
 70
     0
 62
     3
  6
CONTINUOUS
  0
LAYER
  5
5DED
100
AcDbSymbolTableRecord
100
AcDbLayerTableRecord
  2
MSL-115-P40-R-6
 70
     0
 62
     2
  6
CONTINUOUS
  0
LAYER
  5
5E01
102
{ACAD_XDICTIONARY
360
6002
102
}
100
AcDbSymbolTableRecord
100
AcDbLayerTableRecord
  2
DEFPOINTS
 70
     0
 62
     7
  6
CONTINUOUS
  0
LAYER
  5
5E56
102
{ACAD_XDICTIONARY
360
603F
102
}
100
AcDbSymbolTableRecord
100
AcDbLayerTableRecord
  2
AM_BOR
 70
     0
 62
     7
  6
CONTINUOUS
  0
ENDTAB
  0
TABLE
  2
STYLE
  5
3
100
AcDbSymbolTable
 70
     5
  0
STYLE
  5
10
100
AcDbSymbolTableRecord
100
AcDbTextStyleTableRecord
  2
STANDARD
 70
     0
 40
0.0
 41
1.0
 50
0.0
 71
     0
 42
3.5
  3
ISOCP.SHX
  4

  0
STYLE
  5
45B4
100
AcDbSymbolTableRecord
100
AcDbTextStyleTableRecord
  2
ACISOTS
 70
     0
 40
1.0
 41
1.0
 50
0.0
 71
     0
 42
2.5
  3
isocp.shx
  4

  0
STYLE
  5
45B5
100
AcDbSymbolTableRecord
100
AcDbTextStyleTableRecord
  2
ACDINTS
 70
     0
 40
1.0
 41
1.0
 50
0.0
 71
     0
 42
3.5
  3
isocp.shx
  4

  0
STYLE
  5
5E25
100
AcDbSymbolTableRecord
100
AcDbTextStyleTableRecord
  2

 70
     1
 40
0.0
 41
1.0
 50
0.0
 71
     0
 42
2.5
  3
ltypeshp.shx
  4

  0
STYLE
  5
5E4B
100
AcDbSymbolTableRecord
100
AcDbTextStyleTableRecord
  2
ACISOGDT
 70
     0
 40
0.0
 41
1.0
 50
0.0
 71
     0
 42
2.5
  3
amgdt.shx
  4

  0
ENDTAB
  0
TABLE
  2
VIEW
  5
6
100
AcDbSymbolTable
 70
     0
  0
ENDTAB
  0
TABLE
  2
UCS
  5
7
100
AcDbSymbolTable
 70
     0
  0
ENDTAB
  0
TABLE
  2
APPID
  5
9
100
AcDbSymbolTable
 70
    30
  0
APPID
  5
11
100
AcDbSymbolTableRecord
100
AcDbRegAppTableRecord
  2
ACAD
 70
     0
  0
APPID
  5
16DE
100
AcDbSymbolTableRecord
100
AcDbRegAppTableRecord
  2
CONTENTBLOCKICON
 70
     0
  0
APPID
  5
2EF4
100
AcDbSymbolTableRecord
100
AcDbRegAppTableRecord
  2
CONTENTBLOCKDESCRIPTION
 70
     0
  0
APPID
  5
45B9
100
AcDbSymbolTableRecord
100
AcDbRegAppTableRecord
  2
GENIUS_GENODEF_13
 70
     0
  0
APPID
  5
45BA
100
AcDbSymbolTableRecord
100
AcDbRegAppTableRecord
  2
GENIUS_GENOREF_13
 70
     0
  0
APPID
  5
45BB
100
AcDbSymbolTableRecord
100
AcDbRegAppTableRecord
  2
GENIUS_GENOBJ-N-CEN_13
 70
     0
  0
APPID
  5
45BC
100
AcDbSymbolTableRecord
100
AcDbRegAppTableRecord
  2
GENIUS_GENDTOL_13
 70
     0
  0
APPID
  5
5E02
100
AcDbSymbolTableRecord
100
AcDbRegAppTableRecord
  2
GENIUS_GENOENT_13
 70
     0
  0
APPID
  5
5E03
100
AcDbSymbolTableRecord
100
AcDbRegAppTableRecord
  2
GENIUS_GENCFG_13
 70
     0
  0
APPID
  5
5E04
100
AcDbSymbolTableRecord
100
AcDbRegAppTableRecord
  2
GENIUS_GEVCFG0_13
 70
     0
  0
APPID
  5
5E05
100
AcDbSymbolTableRecord
100
AcDbRegAppTableRecord
  2
GENIUS_GENCFG0_13
 70
     0
  0
APPID
  5
5E06
100
AcDbSymbolTableRecord
100
AcDbRegAppTableRecord
  2
GENIUS_GENCFG1_13
 70
     0
  0
APPID
  5
5E07
100
AcDbSymbolTableRecord
100
AcDbRegAppTableRecord
  2
GENIUS_GENCFG2_13
 70
     0
  0
APPID
  5
5E08
100
AcDbSymbolTableRecord
100
AcDbRegAppTableRecord
  2
GENIUS_GENCFG3_13
 70
     0
  0
APPID
  5
5E09
100
AcDbSymbolTableRecord
100
AcDbRegAppTableRecord
  2
GENIUS_GENCFG4_13
 70
     0
  0
APPID
  5
5E0A
100
AcDbSymbolTableRecord
100
AcDbRegAppTableRecord
  2
GENIUS_GEFCFG0_13
 70
     0
  0
APPID
  5
5E0B
100
AcDbSymbolTableRecord
100
AcDbRegAppTableRecord
  2
MCAD_NO_VIS
 70
     0
  0
APPID
  5
5E0C
100
AcDbSymbolTableRecord
100
AcDbRegAppTableRecord
  2
ACAD_TEMP_GRAPHIC
 70
     0
  0
APPID
  5
5E0D
100
AcDbSymbolTableRecord
100
AcDbRegAppTableRecord
  2
GENIUS_GENOBJ-N-TIT_13
 70
     0
  0
APPID
  5
5E0E
100
AcDbSymbolTableRecord
100
AcDbRegAppTableRecord
  2
GENIUS_GENTITLE_13
 70
     0
  0
APPID
  5
5E0F
100
AcDbSymbolTableRecord
100
AcDbRegAppTableRecord
  2
GENIUS_GENOLIS_13
 70
     0
  0
APPID
  5
5E10
100
AcDbSymbolTableRecord
100
AcDbRegAppTableRecord
  2
GENIUS_GENZVEED_13
 70
     0
  0
APPID
  5
5E11
100
AcDbSymbolTableRecord
100
AcDbRegAppTableRecord
  2
GENIUS_GENSCREG_15
 70
     0
  0
APPID
  5
5E12
100
AcDbSymbolTableRecord
100
AcDbRegAppTableRecord
  2
GENIUS_GENOBJ-N-SDF_13
 70
     0
  0
APPID
  5
5E13
100
AcDbSymbolTableRecord
100
AcDbRegAppTableRecord
  2
GENIUS_GENREC_14
 70
     0
  0
APPID
  5
5E14
100
AcDbSymbolTableRecord
100
AcDbRegAppTableRecord
  2
GENIUS_GENOBJ-N-REC_13
 70
     0
  0
APPID
  5
5E15
100
AcDbSymbolTableRecord
100
AcDbRegAppTableRecord
  2
GENIUS_GENBLLY_14
 70
     0
  0
APPID
  5
5E16
100
AcDbSymbolTableRecord
100
AcDbRegAppTableRecord
  2
GENIUS_GENDIMSH_14
 70
     0
  0
APPID
  5
5E17
100
AcDbSymbolTableRecord
100
AcDbRegAppTableRecord
  2
ACATTRIBSERVICES
 70
     0
  0
APPID
  5
5E18
100
AcDbSymbolTableRecord
100
AcDbRegAppTableRecord
  2
DCO15
 70
     0
  0
ENDTAB
  0
TABLE
  2
DIMSTYLE
  5
A
100
AcDbSymbolTable
 70
     8
  0
DIMSTYLE
105
24
100
AcDbSymbolTableRecord
100
AcDbDimStyleTableRecord
  2
GEN-ISO
 70
     0
  3

  4

  5

  6

  7

 40
0.0
 41
7.0
 42
1.0
 43
10.0
 44
2.0
 45
0.0
 46
0.0
 47
0.1
 48
0.1
140
9.0
141
-2.0
142
0.0
143
25.4
144
1.0
145
0.0
146
1.0
147
1.5
 71
     0
 72
     0
 73
     0
 74
     0
 75
     0
 76
     0
 77
     1
 78
     8
170
     0
171
     2
172
     1
173
     0
174
     0
175
     0
176
     0
177
     0
178
     5
270
     2
271
     2
272
     5
273
     2
274
     2
340
10
275
     0
280
     0
281
     0
282
     0
283
     0
284
     8
285
     8
286
     8
287
     3
288
     0
  0
DIMSTYLE
105
5EAC
102
{ACAD_XDICTIONARY
360
6042
102
}
100
AcDbSymbolTableRecord
100
AcDbDimStyleTableRecord
  2
AM_ISO
 70
     0
  3

  4
"
  5

  6

  7

 40
1.0
 41
2.5
 42
1.0
 43
10.0
 44
1.0
 45
0.0
 46
0.0
 47
0.1
 48
0.1
140
3.5
141
0.0
142
0.0
143
0.03937
144
1.0
145
0.0
146
0.71
147
1.5
 71
     0
 72
     0
 73
     0
 74
     0
 75
     0
 76
     0
 77
     1
 78
     8
170
     0
171
     2
172
     1
173
     0
174
     0
175
     0
176
   256
177
   256
178
     2
270
     2
271
     2
272
     2
273
     2
274
     2
340
10
275
     0
280
     0
281
     0
282
     0
283
     0
284
     8
285
     0
286
     0
287
     3
288
     0
  0
DIMSTYLE
105
5EAD
102
{ACAD_XDICTIONARY
360
6044
102
}
100
AcDbSymbolTableRecord
100
AcDbDimStyleTableRecord
  2
AM_ISO$3
 70
     0
  3

  4
"
  5

  6

  7

 40
1.0
 41
2.5
 42
1.0
 43
10.0
 44
1.0
 45
0.0
 46
0.0
 47
0.1
 48
0.1
140
3.5
141
0.0
142
0.0
143
0.03937
144
1.0
145
0.0
146
0.71
147
1.5
 71
     0
 72
     0
 73
     0
 74
     1
 75
     0
 76
     0
 77
     1
 78
     8
170
     0
171
     2
172
     0
173
     0
174
     0
175
     0
176
   256
177
   256
178
     2
270
     2
271
     2
272
     3
273
     2
274
     4
340
10
275
     0
280
     0
281
     0
282
     0
283
     0
284
     0
285
     0
286
     0
287
     0
288
     1
  0
DIMSTYLE
105
5EAE
102
{ACAD_XDICTIONARY
360
6046
102
}
100
AcDbSymbolTableRecord
100
AcDbDimStyleTableRecord
  2
AM_ISO$4
 70
     0
  3

  4
"
  5

  6

  7

 40
1.0
 41
2.5
 42
1.0
 43
10.0
 44
1.0
 45
0.0
 46
0.0
 47
0.1
 48
0.1
140
3.5
141
0.0
142
0.0
143
0.03937
144
1.0
145
0.0
146
0.71
147
1.5
 71
     0
 72
     0
 73
     0
 74
     1
 75
     0
 76
     0
 77
     1
 78
     8
170
     0
171
     2
172
     0
173
     0
174
     0
175
     0
176
   256
177
   256
178
     2
270
     2
271
     2
272
     2
273
     2
274
     2
340
10
275
     0
280
     0
281
     0
282
     0
283
     0
284
     0
285
     0
286
     0
287
     3
288
     1
  0
DIMSTYLE
105
5EAF
102
{ACAD_XDICTIONARY
360
6048
102
}
100
AcDbSymbolTableRecord
100
AcDbDimStyleTableRecord
  2
AM_ISO$6
 70
     0
  3

  4
"
  5

  6

  7

 40
1.0
 41
2.5
 42
1.0
 43
10.0
 44
1.0
 45
0.0
 46
0.0
 47
0.1
 48
0.1
140
3.5
141
0.0
142
0.0
143
0.03937
144
1.0
145
0.0
146
0.71
147
1.5
 71
     0
 72
     0
 73
     0
 74
     0
 75
     0
 76
     0
 77
     0
 78
     8
170
     0
171
     2
172
     1
173
     0
174
     0
175
     0
176
   256
177
   256
178
     2
270
     2
271
     2
272
     3
273
     2
274
     4
340
10
275
     0
280
     0
281
     0
282
     0
283
     0
284
     0
285
     0
286
     0
287
     3
288
     0
  0
DIMSTYLE
105
5EB0
102
{ACAD_XDICTIONARY
360
604A
102
}
100
AcDbSymbolTableRecord
100
AcDbDimStyleTableRecord
  2
AM_ISO$7
 70
     0
  3

  4
"
  5

  6

  7

 40
1.0
 41
2.5
 42
1.0
 43
10.0
 44
1.0
 45
0.0
 46
0.0
 47
0.1
 48
0.1
140
5.0
141
0.0
142
0.0
143
0.03937
144
1.0
145
0.0
146
0.71
147
1.5
 71
     0
 72
     0
 73
     0
 74
     0
 75
     0
 76
     0
 77
     1
 78
     8
170
     0
171
     2
172
     1
173
     0
174
     0
175
     0
176
   256
177
   256
178
     2
270
     2
271
     2
272
     3
273
     2
274
     4
340
10
275
     0
280
     0
281
     0
282
     0
283
     0
284
     0
285
     0
286
     0
287
     3
288
     0
  0
DIMSTYLE
105
5EB1
102
{ACAD_XDICTIONARY
360
604C
102
}
100
AcDbSymbolTableRecord
100
AcDbDimStyleTableRecord
  2
AM_ISO$SF
 70
     0
  3

  4
"
  5

  6

  7

 40
1.0
 41
2.5
 42
1.0
 43
10.0
 44
1.0
 45
0.0
 46
0.0
 47
0.1
 48
0.1
140
3.5
141
0.0
142
0.0
143
0.03937
144
1.0
145
0.0
146
0.71
147
1.5
 71
     0
 72
     0
 73
     0
 74
     0
 75
     1
 76
     1
 77
     1
 78
     8
170
     0
171
     2
172
     1
173
     0
174
     0
175
     0
176
   256
177
   256
178
     2
270
     2
271
     2
272
     3
273
     2
274
     4
340
10
275
     0
280
     0
281
     0
282
     0
283
     0
284
     0
285
     0
286
     0
287
     3
288
     0
  0
DIMSTYLE
105
5EB2
102
{ACAD_XDICTIONARY
360
604E
102
}
100
AcDbSymbolTableRecord
100
AcDbDimStyleTableRecord
  2
AM_ISO$SH
 70
     0
  3

  4
"
  5

  6
GENAXEH
  7

 40
1.0
 41
2.5
 42
1.0
 43
10.0
 44
1.0
 45
0.0
 46
0.0
 47
0.1
 48
0.1
140
3.5
141
0.0
142
0.0
143
0.03937
144
2.0
145
0.0
146
0.71
147
1.5
 71
     0
 72
     0
 73
     0
 74
     0
 75
     1
 76
     1
 77
     1
 78
     8
170
     0
171
     2
172
     1
173
     1
174
     0
175
     0
176
   256
177
   256
178
     2
270
     2
271
     2
272
     3
273
     2
274
     4
340
10
275
     0
280
     0
281
     0
282
     0
283
     0
284
     0
285
     0
286
     0
287
     3
288
     0
  0
ENDTAB
  0
TABLE
  2
BLOCK_RECORD
  5
1
100
AcDbSymbolTable
 70
     5
  0
BLOCK_RECORD
  5
18
102
{ACAD_XDICTIONARY
360
5FF6
102
}
100
AcDbSymbolTableRecord
100
AcDbBlockTableRecord
  2
*MODEL_SPACE
  0
BLOCK_RECORD
  5
15
102
{ACAD_XDICTIONARY
360
6030
102
}
100
AcDbSymbolTableRecord
100
AcDbBlockTableRecord
  2
*PAPER_SPACE
  0
BLOCK_RECORD
  5
5E53
100
AcDbSymbolTableRecord
100
AcDbBlockTableRecord
  2
GENTPOS0
  0
BLOCK_RECORD
  5
5E6F
100
AcDbSymbolTableRecord
100
AcDbBlockTableRecord
  2
GENTPOS1
  0
BLOCK_RECORD
  5
5E7C
100
AcDbSymbolTableRecord
100
AcDbBlockTableRecord
  2
GENTPOS2
1001
CONTENTBLOCKICON
1071
        0
1004
2800000020000000200000000100080000000000000400000000000000000000000000000000000000000000000080000080000000808000800000008000800080800000C0C0C000C0DCC000F0CAA6000020400000206000002080000020A0000020C0000020E00000400000004020000040400000406000004080000040A0
1004
000040C0000040E00000600000006020000060400000606000006080000060A0000060C0000060E00000800000008020000080400000806000008080000080A0000080C0000080E00000A0000000A0200000A0400000A0600000A0800000A0A00000A0C00000A0E00000C0000000C0200000C0400000C0600000C0800000C0
1004
A00000C0C00000C0E00000E0000000E0200000E0400000E0600000E0800000E0A00000E0C00000E0E00040000000400020004000400040006000400080004000A0004000C0004000E00040200000402020004020400040206000402080004020A0004020C0004020E000404000004040200040404000404060004040800040
1004
40A0004040C0004040E00040600000406020004060400040606000406080004060A0004060C0004060E00040800000408020004080400040806000408080004080A0004080C0004080E00040A0000040A0200040A0400040A0600040A0800040A0A00040A0C00040A0E00040C0000040C0200040C0400040C0600040C08000
1004
40C0A00040C0C00040C0E00040E0000040E0200040E0400040E0600040E0800040E0A00040E0C00040E0E00080000000800020008000400080006000800080008000A0008000C0008000E00080200000802020008020400080206000802080008020A0008020C0008020E00080400000804020008040400080406000804080
1004
008040A0008040C0008040E00080600000806020008060400080606000806080008060A0008060C0008060E00080800000808020008080400080806000808080008080A0008080C0008080E00080A0000080A0200080A0400080A0600080A0800080A0A00080A0C00080A0E00080C0000080C0200080C0400080C0600080C0
1004
800080C0A00080C0C00080C0E00080E0000080E0200080E0400080E0600080E0800080E0A00080E0C00080E0E000C0000000C0002000C0004000C0006000C0008000C000A000C000C000C000E000C0200000C0202000C0204000C0206000C0208000C020A000C020C000C020E000C0400000C0402000C0404000C0406000C0
1004
408000C040A000C040C000C040E000C0600000C0602000C0604000C0606000C0608000C060A000C060C000C060E000C0800000C0802000C0804000C0806000C0808000C080A000C080C000C080E000C0A00000C0A02000C0A04000C0A06000C0A08000C0A0A000C0A0C000C0A0E000C0C00000C0C02000C0C04000C0C06000
1004
C0C08000C0C0A000F0FBFF00A4A0A000808080000000FF0000FF000000FFFF00FF000000FF00FF00FFFF0000FFFFFF0000000000000000000000000000000000000000000000000000000000000000000000000000000000000000000000000000000000000000000000000000000000000000000000000000000000000000
1004
00000000000000000000000000000000000000000000000000000000000000000000000000000000000000000000000000000000000000000000000000000000000000000000000000000000000000000000000000000000000000000000000000000000000000000000000000000000000000000000000000000000000000
1004
00000000000000000000000000000000000000000000000000000000000000000000000000000000000000000000000000000000000000000000000000000000000000000000000000000000000000000000000000000000000000000000000000000000000000000000000000000000000000000000000000000000000000
1004
00000000000000000000000000000000000000000000000000000000000000000000000000000000000000000000000000000000000000000000000000000000000000000000000000000000000000000000000000000000000000000000000000000000000000000000000000000000000000000000000000000000000000
1004
000000000000000000000000000000000000000000FFFBF9FBF9F9F9F9F9F9F9F9F9F9F9F9F9F9F9F9F9F9F9F9F9F9F9F9F9FF0000FFFBF9FBF9FBFBFB0000000000F9FBFBFB0000000000F9FBFBFB0000FBFF0000000000000000000000000000000000000000000000000000000000000000000000000000000000000000
1004
00000000000000000000000000000000000000000000000000000000000000000000000000000000000000000000000000000000000000000000000000000000000000000000000000000000000000000000000000000000000000000000000000000000000000000000000000000000000000000000000000000000000000
1004
00000000000000000000000000000000000000000000000000000000000000000000000000000000000000000000000000000000000000000000000000000000000000000000000000000000000000000000000000000000000000000000000000000000000000000000000000000000000000000000000000000000000000
1004
00000000000000000000000000000000000000000000000000000000000000000000000000000000000000000000000000000000000000000000000000000000000000000000000000000000000000000000000000000000000000000000000000000000000000000000000000000000000000000000000000000000000000
1004
0000000000000000000000000000000000000000000000000000000000000000000000000000000000000000000000000000000000000000
  0
BLOCK_RECORD
  5
5E8C
100
AcDbSymbolTableRecord
100
AcDbBlockTableRecord
  2
GENTPOS
  0
BLOCK_RECORD
  5
5EB3
100
AcDbSymbolTableRecord
100
AcDbBlockTableRecord
  2
GENAXEH
  0
ENDTAB
  0
ENDSEC
  0
SECTION
  2
BLOCKS
  0
BLOCK
  5
44
100
AcDbEntity
  8
0
100
AcDbBlockBegin
  2
*MODEL_SPACE
 70
     0
 10
0.0
 20
0.0
 30
0.0
  3
*MODEL_SPACE
  1

  0
ENDBLK
  5
45
100
AcDbEntity
  8
0
100
AcDbBlockEnd
  0
BLOCK
  5
42
100
AcDbEntity
 67
     1
  8
0
100
AcDbBlockBegin
  2
*PAPER_SPACE
 70
     0
 10
0.0
 20
0.0
 30
0.0
  3
*PAPER_SPACE
  1

  0
ENDBLK
  5
43
100
AcDbEntity
 67
     1
  8
0
100
AcDbBlockEnd
  0
BLOCK
  5
5E6D
100
AcDbEntity
  8
0
100
AcDbBlockBegin
  2
GENTPOS0
 70
     0
 10
0.0
 20
0.0
 30
0.0
  3
GENTPOS0
  1

  0
LINE
  5
5E54
100
AcDbEntity
  8
0
100
AcDbLine
 10
-182.884869
 20
0.0
 30
0.0
 11
0.0
 21
0.0
 31
0.0
  0
LINE
  5
5E55
100
AcDbEntity
  8
AM_BOR
 62
     1
100
AcDbLine
 10
-159.884869
 20
4.5
 30
0.0
 11
0.0
 21
4.5
 31
0.0
1001
GENIUS_GENBLLY_14
1000
BOR2
1001
ACAD
1000
RTLwPs
1070
   135
  0
LINE
  5
5E57
100
AcDbEntity
  8
AM_BOR
 62
     1
100
AcDbLine
 10
-182.884869
 20
9.0
 30
0.0
 11
0.0
 21
9.0
 31
0.0
1001
GENIUS_GENBLLY_14
1000
BOR2
1001
ACAD
1000
RTLwPs
1070
   135
  0
LINE
  5
5E58
100
AcDbEntity
  8
0
100
AcDbLine
 10
-182.884869
 20
4.5
 30
0.0
 11
-182.884869
 21
9.0
 31
0.0
  0
LINE
  5
5E59
100
AcDbEntity
  8
0
100
AcDbLine
 10
-182.884869
 20
0.0
 30
0.0
 11
-182.884869
 21
4.5
 31
0.0
  0
LINE
  5
5E5A
100
AcDbEntity
  8
AM_BOR
 62
     1
100
AcDbLine
 10
-159.884869
 20
4.5
 30
0.0
 11
-159.884869
 21
0.086259
 31
0.0
1001
GENIUS_GENBLLY_14
1000
BOR2
1001
ACAD
1000
RTLwPs
1070
   135
  0
LINE
  5
5E5B
100
AcDbEntity
  8
AM_BOR
 62
     1
100
AcDbLine
 10
-171.884869
 20
4.5
 30
0.0
 11
-171.884869
 21
0.086259
 31
0.0
1001
GENIUS_GENBLLY_14
1000
BOR2
1001
ACAD
1000
RTLwPs
1070
   135
  0
LINE
  5
5E5C
100
AcDbEntity
  8
AM_BOR
 62
     1
100
AcDbLine
 10
-171.884869
 20
9.0
 30
0.0
 11
-171.884869
 21
4.5
 31
0.0
1001
GENIUS_GENBLLY_14
1000
BOR2
1001
ACAD
1000
RTLwPs
1070
   135
  0
LINE
  5
5E5D
100
AcDbEntity
  8
AM_BOR
 62
     1
100
AcDbLine
 10
-159.884869
 20
9.0
 30
0.0
 11
-159.884869
 21
4.5
 31
0.0
1001
GENIUS_GENBLLY_14
1000
BOR2
1001
ACAD
1000
RTLwPs
1070
   135
  0
LINE
  5
5E5E
100
AcDbEntity
  8
AM_BOR
 62
     1
100
AcDbLine
 10
-99.164154
 20
4.5
 30
0.0
 11
-99.164154
 21
0.0
 31
0.0
1001
GENIUS_GENBLLY_14
1000
BOR2
1001
ACAD
1000
RTLwPs
1070
   135
  0
LINE
  5
5E5F
100
AcDbEntity
  8
AM_BOR
 62
     1
100
AcDbLine
 10
-99.164154
 20
9.0
 30
0.0
 11
-99.164154
 21
4.5
 31
0.0
1001
GENIUS_GENBLLY_14
1000
BOR2
1001
ACAD
1000
RTLwPs
1070
   135
  0
TEXT
  5
5E60
100
AcDbEntity
  8
AM_BOR
 62
     1
100
AcDbText
 10
-40.533941
 20
5.76323
 30
0.0
 40
2.0
  1
(genmsg "gendwg" 39){20.2}
100
AcDbText
1001
GENIUS_GENBLLY_14
1000
BOR3
1001
ACAD
1000
RTLwPs
1070
   137
  0
TEXT
  5
5E61
100
AcDbEntity
  8
AM_BOR
 62
     1
100
AcDbText
 10
-40.533941
 20
0.982144
 30
0.0
 40
2.0
  1
(genmsg "gendwg" 40){20.2}
100
AcDbText
1001
GENIUS_GENBLLY_14
1000
BOR3
1001
ACAD
1000
RTLwPs
1070
   137
  0
LINE
  5
5E62
100
AcDbEntity
  8
AM_BOR
 62
     1
100
AcDbLine
 10
-42.513123
 20
4.5
 30
0.0
 11
-42.513123
 21
0.0
 31
0.0
1001
GENIUS_GENBLLY_14
1000
BOR2
1001
ACAD
1000
RTLwPs
1070
   135
  0
LINE
  5
5E63
100
AcDbEntity
  8
AM_BOR
 62
     1
100
AcDbLine
 10
-42.513123
 20
9.0
 30
0.0
 11
-42.513123
 21
4.5
 31
0.0
1001
GENIUS_GENBLLY_14
1000
BOR2
1001
ACAD
1000
RTLwPs
1070
   135
  0
LINE
  5
5E64
100
AcDbEntity
  8
0
100
AcDbLine
 10
0.0
 20
4.5
 30
0.0
 11
0.0
 21
9.0
 31
0.0
  0
LINE
  5
5E65
100
AcDbEntity
  8
0
100
AcDbLine
 10
0.0
 20
0.0
 30
0.0
 11
0.0
 21
4.5
 31
0.0
  0
TEXT
  5
5E66
100
AcDbEntity
  8
AM_BOR
 62
     1
100
AcDbText
 10
-98.203639
 20
5.608506
 30
0.0
 40
2.0
  1
(genmsg "gendwg" 37){27.5}
100
AcDbText
1001
GENIUS_GENBLLY_14
1000
BOR3
1001
ACAD
1000
RTLwPs
1070
   137
  0
TEXT
  5
5E67
100
AcDbEntity
  8
AM_BOR
 62
     1
100
AcDbText
 10
-98.1387
 20
1.10005
 30
0.0
 40
2.0
  1
(genmsg "gendwg" 38){27.5}
100
AcDbText
1001
GENIUS_GENBLLY_14
1000
BOR3
1001
ACAD
1000
RTLwPs
1070
   137
  0
TEXT
  5
5E68
100
AcDbEntity
  8
AM_BOR
 62
     1
100
AcDbText
 10
-159.193408
 20
5.534152
 30
0.0
 40
2.0
  1
(genmsg "gendwg" 35){22.7}
100
AcDbText
1001
GENIUS_GENBLLY_14
1000
BOR3
1001
ACAD
1000
RTLwPs
1070
   137
  0
TEXT
  5
5E69
100
AcDbEntity
  8
AM_BOR
 62
     1
100
AcDbText
 10
-159.063529
 20
1.186796
 30
0.0
 40
2.0
  1
(genmsg "gendwg" 36){22.7}
100
AcDbText
1001
GENIUS_GENBLLY_14
1000
BOR3
1001
ACAD
1000
RTLwPs
1070
   137
  0
TEXT
  5
5E6A
100
AcDbEntity
  8
AM_BOR
 62
     1
100
AcDbText
 10
-182.063529
 20
5.864034
 30
0.0
 40
2.0
  1
(genmsg "gendwg" 29){7.6}
100
AcDbText
1001
GENIUS_GENBLLY_14
1000
BOR3
1001
ACAD
1000
RTLwPs
1070
   137
  0
TEXT
  5
5E6B
100
AcDbEntity
  8
AM_BOR
 62
     1
100
AcDbText
 10
-171.063529
 20
5.65096
 30
0.0
 40
2.0
  1
(genmsg "gendwg" 32){5.3}
100
AcDbText
1001
GENIUS_GENBLLY_14
1000
BOR3
1001
ACAD
1000
RTLwPs
1070
   137
  0
TEXT
  5
5E6C
100
AcDbEntity
  8
AM_BOR
 62
     1
100
AcDbText
 10
-8.7
 20
5.76323
 30
0.0
 40
2.0
  1
Länge
 72
     2
 11
-2.0
 21
5.76323
 31
0.0
100
AcDbText
1001
GENIUS_GENBLLY_14
1000
BOR3
1001
ACAD
1000
RTLwPs
1070
   137
  0
ENDBLK
  5
5E6E
100
AcDbEntity
  8
0
100
AcDbBlockEnd
  0
BLOCK
  5
5E7A
100
AcDbEntity
  8
0
100
AcDbBlockBegin
  2
GENTPOS1
 70
     2
 10
0.0
 20
0.0
 30
0.0
  3
GENTPOS1
  1

  0
LINE
  5
5E70
100
AcDbEntity
  8
0
100
AcDbLine
 10
-182.884869
 20
0.0
 30
0.0
 11
-182.884869
 21
4.5
 31
0.0
  0
ATTDEF
  5
5E71
100
AcDbEntity
  8
AM_BOR
 62
     2
100
AcDbText
 10
-158.950749
 20
1.462817
 30
0.0
 40
2.0
  1

100
AcDbAttributeDefinition
  3
(GENMSG "GENDWG" 35)
  2
6GENST{22.7}
 70
     0
1001
GENIUS_GENBLLY_14
1000
BOR3
1001
ACAD
1000
RTLwPs
1070
   137
  0
LINE
  5
5E72
100
AcDbEntity
  8
AM_BOR
 62
     1
100
AcDbLine
 10
-171.884869
 20
4.5
 30
0.0
 11
-171.884869
 21
0.0
 31
0.0
1001
GENIUS_GENBLLY_14
1000
BOR2
1001
ACAD
1000
RTLwPs
1070
   135
  0
LINE
  5
5E73
100
AcDbEntity
  8
AM_BOR
 62
     1
100
AcDbLine
 10
-159.884869
 20
4.5
 30
0.0
 11
-159.884869
 21
0.0
 31
0.0
1001
GENIUS_GENBLLY_14
1000
BOR2
1001
ACAD
1000
RTLwPs
1070
   135
  0
ATTDEF
  5
5E74
100
AcDbEntity
  8
AM_BOR
 62
     2
100
AcDbText
 10
-98.306545
 20
1.462847
 30
0.0
 40
2.0
  1

100
AcDbAttributeDefinition
  3
(GENMSG "GENDWG" 37)
  2
8GENST{27.5}
 70
     0
1001
GENIUS_GENBLLY_14
1000
BOR3
1001
ACAD
1000
RTLwPs
1070
   137
  0
LINE
  5
5E75
100
AcDbEntity
  8
AM_BOR
 62
     1
100
AcDbLine
 10
-99.164154
 20
4.5
 30
0.0
 11
-99.164154
 21
0.0
 31
0.0
1001
GENIUS_GENBLLY_14
1000
BOR2
1001
ACAD
1000
RTLwPs
1070
   135
  0
ATTDEF
  5
5E76
100
AcDbEntity
  8
AM_BOR
 62
     2
100
AcDbText
 10
-41.188801
 20
1.453563
 30
0.0
 40
2.0
  1

100
AcDbAttributeDefinition
  3
(GENMSG "GENDWG" 39)
  2
10GENST{20.2}
 70
     0
1001
GENIUS_GENBLLY_14
1000
BOR3
1001
ACAD
1000
RTLwPs
1070
   137
  0
LINE
  5
5E77
100
AcDbEntity
  8
AM_BOR
 62
     1
100
AcDbLine
 10
-42.513123
 20
4.5
 30
0.0
 11
-42.513123
 21
0.0
 31
0.0
1001
GENIUS_GENBLLY_14
1000
BOR2
1001
ACAD
1000
RTLwPs
1070
   135
  0
LINE
  5
5E78
100
AcDbEntity
  8
0
100
AcDbLine
 10
0.0
 20
4.5
 30
0.0
 11
0.0
 21
0.0
 31
0.0
  0
LINE
  5
5E79
100
AcDbEntity
  8
AM_BOR
 62
     1
100
AcDbLine
 10
-159.884869
 20
4.5
 30
0.0
 11
0.0
 21
4.5
 31
0.0
1001
GENIUS_GENBLLY_14
1000
BOR2
1001
ACAD
1000
RTLwPs
1070
   135
  0
ENDBLK
  5
5E7B
100
AcDbEntity
  8
0
100
AcDbBlockEnd
  0
BLOCK
  5
5E8A
100
AcDbEntity
  8
0
100
AcDbBlockBegin
  2
GENTPOS2
 70
     2
 10
0.0
 20
0.0
 30
0.0
  3
GENTPOS2
  1

  0
ATTDEF
  5
5E7D
100
AcDbEntity
  8
AM_BOR
 62
     2
100
AcDbText
 10
-181.98805
 20
-25.679014
 30
0.0
 40
2.0
  1

100
AcDbAttributeDefinition
  3

  2
ITEM
 70
     0
1001
GENIUS_GENBLLY_14
1000
BOR3
1001
ACAD
1000
RTLwPs
1070
   137
  0
ATTDEF
  5
5E7E
100
AcDbEntity
  8
AM_BOR
 62
     2
100
AcDbText
 10
-170.98805
 20
-25.679014
 30
0.0
 40
2.0
  1

100
AcDbAttributeDefinition
  3

  2
QTY
 70
     0
1001
GENIUS_GENBLLY_14
1000
BOR3
1001
ACAD
1000
RTLwPs
1070
   137
  0
ATTDEF
  5
5E7F
100
AcDbEntity
  8
AM_BOR
 62
     2
100
AcDbText
 10
-158.98805
 20
-25.679014
 30
0.0
 40
2.0
  1

100
AcDbAttributeDefinition
  3
(GENMSG "GENDWG" 36)
  2
5GENST{22.7}
 70
     0
1001
GENIUS_GENBLLY_14
1000
BOR3
1001
ACAD
1000
RTLwPs
1070
   137
  0
ATTDEF
  5
5E80
100
AcDbEntity
  8
AM_BOR
 62
     2
100
AcDbText
 10
-98.12709
 20
-25.678984
 30
0.0
 40
2.0
  1

100
AcDbAttributeDefinition
  3
(GENMSG "GENDWG" 38)
  2
7GENST{27.5}
 70
     0
1001
GENIUS_GENBLLY_14
1000
BOR3
1001
ACAD
1000
RTLwPs
1070
   137
  0
ATTDEF
  5
5E81
100
AcDbEntity
  8
AM_BOR
 62
     2
100
AcDbText
 10
-41.355437
 20
-25.484028
 30
0.0
 40
2.0
  1

100
AcDbAttributeDefinition
  3
(GENMSG "GENDWG" 40)
  2
9GENST{20.2}
 70
     0
1001
GENIUS_GENBLLY_14
1000
BOR3
1001
ACAD
1000
RTLwPs
1070
   137
  0
ATTDEF
  5
5E82
100
AcDbEntity
  8
AM_BOR
 62
     2
100
AcDbText
 10
-2.0
 20
-25.546437
 30
0.0
 40
2.0
  1

 72
     2
 11
-2.0
 21
-25.546437
 31
0.0
100
AcDbAttributeDefinition
  3

  2
DIM
 70
     0
1001
GENIUS_GENBLLY_14
1000
BOR3
1001
ACAD
1000
RTLwPs
1070
   137
  0
LINE
  5
5E83
100
AcDbEntity
  8
AM_BOR
 62
     1
100
AcDbLine
 10
-182.884869
 20
-22.5
 30
0.0
 11
0.0
 21
-22.5
 31
0.0
1001
GENIUS_GENBLLY_14
1000
BOR2
1001
ACAD
1000
RTLwPs
1070
   135
  0
LINE
  5
5E84
100
AcDbEntity
  8
0
100
AcDbLine
 10
-182.884869
 20
-27.0
 30
0.0
 11
-182.884869
 21
-22.5
 31
0.0
  0
LINE
  5
5E85
100
AcDbEntity
  8
AM_BOR
 62
     1
100
AcDbLine
 10
-171.884869
 20
-22.5
 30
0.0
 11
-171.884869
 21
-27.0
 31
0.0
1001
GENIUS_GENBLLY_14
1000
BOR2
1001
ACAD
1000
RTLwPs
1070
   135
  0
LINE
  5
5E86
100
AcDbEntity
  8
AM_BOR
 62
     1
100
AcDbLine
 10
-159.884869
 20
-22.5
 30
0.0
 11
-159.884869
 21
-27.0
 31
0.0
1001
GENIUS_GENBLLY_14
1000
BOR2
1001
ACAD
1000
RTLwPs
1070
   135
  0
LINE
  5
5E87
100
AcDbEntity
  8
AM_BOR
 62
     1
100
AcDbLine
 10
-99.164154
 20
-22.5
 30
0.0
 11
-99.164154
 21
-27.0
 31
0.0
1001
GENIUS_GENBLLY_14
1000
BOR2
1001
ACAD
1000
RTLwPs
1070
   135
  0
LINE
  5
5E88
100
AcDbEntity
  8
AM_BOR
 62
     1
100
AcDbLine
 10
-42.513123
 20
-22.5
 30
0.0
 11
-42.513123
 21
-27.0
 31
0.0
1001
GENIUS_GENBLLY_14
1000
BOR2
1001
ACAD
1000
RTLwPs
1070
   135
  0
LINE
  5
5E89
100
AcDbEntity
  8
0
100
AcDbLine
 10
0.0
 20
-22.5
 30
0.0
 11
0.0
 21
-27.0
 31
0.0
  0
ENDBLK
  5
5E8B
100
AcDbEntity
  8
0
100
AcDbBlockEnd
  0
BLOCK
  5
5E9F
100
AcDbEntity
  8
0
100
AcDbBlockBegin
  2
GENTPOS
 70
     2
 10
0.0
 20
0.0
 30
0.0
  3
GENTPOS
  1

  0
ATTDEF
  5
5E8D
100
AcDbEntity
  8
0
100
AcDbText
 10
0.0
 20
9.0
 30
0.0
 40
2.5
  1
4
100
AcDbAttributeDefinition
  3

  2
_ALWAYS
 70
     3
  0
INSERT
  5
5E8E
100
AcDbEntity
  8
0
100
AcDbBlockReference
  2
GENTPOS0
 10
0.0
 20
0.0
 30
0.0
  0
INSERT
  5
5E8F
100
AcDbEntity
  8
0
100
AcDbBlockReference
 66
     1
  2
GENTPOS1
 10
0.0
 20
9.0
 30
0.0
  0
ATTRIB
  5
5E90
100
AcDbEntity
  8
AM_BOR
 62
     2
100
AcDbText
 10
-42.513123
 20
9.0
 30
0.0
 40
2.0
  1

100
AcDbAttribute
  2
3GENST{6.3}
 70
     0
1001
GENIUS_GENBLLY_14
1000
BOR3
1001
ACAD
1000
RTLwPs
1070
   137
  0
ATTRIB
  5
5E91
100
AcDbEntity
  8
AM_BOR
 62
     2
100
AcDbText
 10
-99.164154
 20
9.0
 30
0.0
 40
2.0
  1

100
AcDbAttribute
  2
1GENST{7.6}
 70
     0
1001
GENIUS_GENBLLY_14
1000
BOR3
1001
ACAD
1000
RTLwPs
1070
   137
  0
ATTRIB
  5
5E92
100
AcDbEntity
  8
AM_BOR
 62
     2
100
AcDbText
 10
-145.520749
 20
10.462817
 30
0.0
 40
2.0
  1

100
AcDbAttribute
  2
5GENST{22.7}
 70
     0
1001
GENIUS_GENBLLY_14
1000
BOR3
1001
ACAD
1000
RTLwPs
1070
   137
  0
ATTRIB
  5
5E93
100
AcDbEntity
  8
AM_BOR
 62
     2
100
AcDbText
 10
-146.454869
 20
9.0
 30
0.0
 40
2.0
  1

100
AcDbAttribute
  2
2GENST{5.3}
 70
     0
1001
GENIUS_GENBLLY_14
1000
BOR3
1001
ACAD
1000
RTLwPs
1070
   137
  0
ATTRIB
  5
5E94
100
AcDbEntity
  8
AM_BOR
 62
     2
100
AcDbText
 10
-98.306545
 20
10.462847
 30
0.0
 40
2.0
  1

100
AcDbAttribute
  2
7GENST{27.5}
 70
     0
1001
GENIUS_GENBLLY_14
1000
BOR3
1001
ACAD
1000
RTLwPs
1070
   137
  0
ATTRIB
  5
5E95
100
AcDbEntity
  8
AM_BOR
 62
     2
100
AcDbText
 10
-41.188801
 20
10.453563
 30
0.0
 40
2.0
  1

100
AcDbAttribute
  2
9GENST{20.2}
 70
     0
1001
GENIUS_GENBLLY_14
1000
BOR3
1001
ACAD
1000
RTLwPs
1070
   137
  0
SEQEND
  5
5E96
100
AcDbEntity
  8
0
  0
INSERT
  5
5E97
100
AcDbEntity
  8
0
100
AcDbBlockReference
 66
     1
  2
GENTPOS2
 10
0.0
 20
40.5
 30
0.0
  0
ATTRIB
  5
5E98
100
AcDbEntity
  8
AM_BOR
 62
     2
100
AcDbText
 10
-181.98805
 20
14.820986
 30
0.0
 40
2.0
  1

100
AcDbAttribute
  2
ITEM
 70
     0
1001
ACAD
1000
RTLwPs
1070
   137
  0
ATTRIB
  5
5E99
100
AcDbEntity
  8
AM_BOR
 62
     2
100
AcDbText
 10
-170.98805
 20
14.820986
 30
0.0
 40
2.0
  1

100
AcDbAttribute
  2
QTY
 70
     0
1001
ACAD
1000
RTLwPs
1070
   137
  0
ATTRIB
  5
5E9A
100
AcDbEntity
  8
AM_BOR
 62
     2
100
AcDbText
 10
-158.98805
 20
14.820986
 30
0.0
 40
2.0
  1

100
AcDbAttribute
  2
5GENST{22.7}
 70
     0
1001
ACAD
1000
RTLwPs
1070
   137
  0
ATTRIB
  5
5E9B
100
AcDbEntity
  8
AM_BOR
 62
     2
100
AcDbText
 10
-98.12709
 20
14.821016
 30
0.0
 40
2.0
  1

100
AcDbAttribute
  2
7GENST{27.5}
 70
     0
1001
ACAD
1000
RTLwPs
1070
   137
  0
ATTRIB
  5
5E9C
100
AcDbEntity
  8
AM_BOR
 62
     2
100
AcDbText
 10
-41.355437
 20
15.015972
 30
0.0
 40
2.0
  1

100
AcDbAttribute
  2
9GENST{20.2}
 70
     0
1001
ACAD
1000
RTLwPs
1070
   137
  0
ATTRIB
  5
5E9D
100
AcDbEntity
  8
AM_BOR
 62
     2
100
AcDbText
 10
-2.0
 20
14.953563
 30
0.0
 40
2.0
  1

 72
     2
 11
-2.0
 21
14.953563
 31
0.0
100
AcDbAttribute
  2
DIM
 70
     0
1001
ACAD
1000
RTLwPs
1070
   137
  0
SEQEND
  5
5E9E
100
AcDbEntity
  8
0
  0
ENDBLK
  5
5EA0
100
AcDbEntity
  8
0
100
AcDbBlockEnd
  0
BLOCK
  5
5EB5
100
AcDbEntity
  8
0
100
AcDbBlockBegin
  2
GENAXEH
 70
     0
 10
0.0
 20
0.0
 30
0.0
  3
GENAXEH
  1

  0
LINE
  5
5EB4
100
AcDbEntity
  8
0
100
AcDbLine
 10
-1.0
 20
0.0
 30
0.0
 11
1.0
 21
0.0
 31
0.0
  0
ENDBLK
  5
5EB6
100
AcDbEntity
  8
0
100
AcDbBlockEnd
  0
ENDSEC
  0
SECTION
  2
ENTITIES
  0
POLYLINE
  5
3ED5
100
AcDbEntity
  8
MSL-115-P40-R-0
 48
2.0
100
AcDb2dPolyline
 66
     1
 10
0.0
 20
0.0
 30
0.0
  0
VERTEX
  5
3ED6
100
AcDbEntity
  8
MSL-115-P40-R-0
 48
2.0
100
AcDbVertex
100
AcDb2dVertex
 10
1620.408508
 20
224.734015
 30
0.0
  0
VERTEX
  5
3ED7
100
AcDbEntity
  8
MSL-115-P40-R-0
 48
2.0
100
AcDbVertex
100
AcDb2dVertex
 10
1624.408508
 20
224.734015
 30
0.0
  0
VERTEX
  5
3ED8
100
AcDbEntity
  8
MSL-115-P40-R-0
 48
2.0
100
AcDbVertex
100
AcDb2dVertex
 10
1624.408508
 20
226.484015
 30
0.0
 42
-0.414214
  0
VERTEX
  5
3ED9
100
AcDbEntity
  8
MSL-115-P40-R-0
 48
2.0
100
AcDbVertex
100
AcDb2dVertex
 10
1624.908508
 20
226.984015
 30
0.0
  0
VERTEX
  5
3EDA
100
AcDbEntity
  8
MSL-115-P40-R-0
 48
2.0
100
AcDbVertex
100
AcDb2dVertex
 10
1627.408508
 20
226.984015
 30
0.0
  0
VERTEX
  5
3EDB
100
AcDbEntity
  8
MSL-115-P40-R-0
 48
2.0
100
AcDbVertex
100
AcDb2dVertex
 10
1627.908508
 20
227.484015
 30
0.0
  0
VERTEX
  5
3EDC
100
AcDbEntity
  8
MSL-115-P40-R-0
 48
2.0
100
AcDbVertex
100
AcDb2dVertex
 10
1627.908508
 20
233.234015
 30
0.0
  0
SEQEND
  5
3EDD
100
AcDbEntity
  8
MSL-115-P40-R-0
 48
2.0
  0
LINE
  5
3EDE
100
AcDbEntity
  8
MSL-115-P40-R-0
 48
2.0
100
AcDbLine
 10
1212.908508
 20
223.234015
 30
0.0
 11
1211.908508
 21
224.234015
 31
0.0
  0
LINE
  5
3EDF
100
AcDbEntity
  8
MSL-115-P40-R-0
 48
2.0
100
AcDbLine
 10
1229.208508
 20
223.234015
 30
0.0
 11
1212.908508
 21
223.234015
 31
0.0
  0
LINE
  5
3EE0
100
AcDbEntity
  8
MSL-115-P40-R-0
 48
2.0
100
AcDbLine
 10
1212.908508
 20
243.234015
 30
0.0
 11
1211.908508
 21
242.234015
 31
0.0
  0
LINE
  5
3EE1
100
AcDbEntity
  8
MSL-115-P40-R-0
 48
2.0
100
AcDbLine
 10
1261.408508
 20
243.234015
 30
0.0
 11
1212.908508
 21
243.234015
 31
0.0
  0
LINE
  5
3EE2
100
AcDbEntity
  8
MSL-115-P40-R-0
 48
2.0
100
AcDbLine
 10
1212.908508
 20
36.035307
 30
0.0
 11
1211.908508
 21
37.035307
 31
0.0
  0
LINE
  5
3EE3
100
AcDbEntity
  8
MSL-115-P40-R-0
 48
2.0
100
AcDbLine
 10
1261.408508
 20
36.035307
 30
0.0
 11
1212.908508
 21
36.035307
 31
0.0
  0
LINE
  5
3EE4
100
AcDbEntity
  8
MSL-115-P40-R-0
 48
2.0
100
AcDbLine
 10
1212.908508
 20
56.035307
 30
0.0
 11
1211.908508
 21
55.035307
 31
0.0
  0
LINE
  5
3EE5
100
AcDbEntity
  8
MSL-115-P40-R-0
 48
2.0
100
AcDbLine
 10
1261.408508
 20
56.035307
 30
0.0
 11
1212.908508
 21
56.035307
 31
0.0
  0
LINE
  5
3EED
100
AcDbEntity
  8
MSL-115-P40-R-7A
 48
2.0
100
AcDbLine
 10
1883.946829
 20
251.734015
 30
0.0
 11
1883.946829
 21
233.234015
 31
0.0
  0
LINE
  5
3EF4
100
AcDbEntity
  8
MSL-115-P40-R-7A
 48
2.0
100
AcDbLine
 10
1793.946829
 20
251.734015
 30
0.0
 11
1793.946829
 21
233.234015
 31
0.0
  0
LINE
  5
3EF5
100
AcDbEntity
  8
MSL-115-P40-R-0
 48
2.0
100
AcDbLine
 10
1443.408508
 20
249.234015
 30
0.0
 11
1456.408508
 21
249.234015
 31
0.0
  0
LINE
  5
3EF7
100
AcDbEntity
  8
MSL-115-P40-R-0
 48
2.0
100
AcDbLine
 10
1456.408508
 20
249.234015
 30
0.0
 11
1455.908508
 21
249.734015
 31
0.0
  0
LINE
  5
3EF8
100
AcDbEntity
  8
MSL-115-P40-R-0
 48
2.0
100
AcDbLine
 10
1443.408508
 20
249.234015
 30
0.0
 11
1443.908508
 21
249.734015
 31
0.0
  0
LINE
  5
3EFB
100
AcDbEntity
  8
MSL-115-P40-R-0
 48
2.0
100
AcDbLine
 10
1456.408508
 20
249.234015
 30
0.0
 11
1456.408508
 21
247.734015
 31
0.0
  0
LINE
  5
3EFC
100
AcDbEntity
  8
MSL-115-P40-R-0
 48
2.0
100
AcDbLine
 10
1443.908508
 20
249.734015
 30
0.0
 11
1455.908508
 21
249.734015
 31
0.0
  0
LINE
  5
3EFD
100
AcDbEntity
  8
MSL-115-P40-R-0
 48
2.0
100
AcDbLine
 10
1443.408508
 20
247.734015
 30
0.0
 11
1443.408508
 21
249.234015
 31
0.0
  0
LINE
  5
3F01
100
AcDbEntity
  8
MSL-115-P40-R-7A
 48
2.0
100
AcDbLine
 10
1509.908508
 20
249.734015
 30
0.0
 11
1509.908508
 21
233.234015
 31
0.0
  0
LINE
  5
3F02
100
AcDbEntity
  8
MSL-115-P40-R-7A
 48
2.0
100
AcDbLine
 10
1480.408508
 20
249.734015
 30
0.0
 11
1480.408508
 21
233.234015
 31
0.0
  0
LINE
  5
3F03
100
AcDbEntity
  8
MSL-115-P40-R-7A
 48
2.0
100
AcDbLine
 10
1449.908508
 20
251.734015
 30
0.0
 11
1449.908508
 21
233.234015
 31
0.0
  0
LINE
  5
3F04
100
AcDbEntity
  8
MSL-115-P40-R-7A
 48
2.0
100
AcDbLine
 10
1419.908508
 20
249.734015
 30
0.0
 11
1419.908508
 21
233.234015
 31
0.0
  0
LINE
  5
3F05
100
AcDbEntity
  8
MSL-115-P40-R-7A
 48
2.0
100
AcDbLine
 10
1389.93681
 20
251.733814
 30
0.0
 11
1389.908508
 21
233.234015
 31
0.0
  0
LINE
  5
3F06
100
AcDbEntity
  8
MSL-115-P40-R-7A
 48
2.0
100
AcDbLine
 10
1359.908508
 20
249.734015
 30
0.0
 11
1359.908508
 21
233.234015
 31
0.0
  0
LINE
  5
3F07
100
AcDbEntity
  8
MSL-115-P40-R-7A
 48
2.0
100
AcDbLine
 10
1329.908508
 20
249.734015
 30
0.0
 11
1329.908508
 21
233.234015
 31
0.0
  0
LINE
  5
3F08
100
AcDbEntity
  8
MSL-115-P40-R-0
 48
2.0
100
AcDbLine
 10
1288.908508
 20
55.035307
 30
0.0
 11
1298.908508
 21
55.035307
 31
0.0
1001
ACAD
1000
RTLwPs
1070
   128
  0
LINE
  5
3F09
100
AcDbEntity
  8
MSL-115-P40-R-0
 48
2.0
100
AcDbLine
 10
1650.408508
 20
55.035307
 30
0.0
 11
1640.408508
 21
55.035307
 31
0.0
1001
ACAD
1000
RTLwPs
1070
   128
  0
LINE
  5
3F0B
100
AcDbEntity
  8
MSL-115-P40-R-7A
 48
2.0
100
AcDbLine
 10
1614.367787
 20
234.229767
 30
0.0
 11
1713.39397
 21
234.229767
 31
0.0
  0
LINE
  5
3F0C
100
AcDbEntity
  8
MSL-115-P40-R-7A
 48
2.0
100
AcDbLine
 10
1225.410398
 20
234.229767
 30
0.0
 11
1306.046004
 21
234.229767
 31
0.0
  0
LINE
  5
3F0D
100
AcDbEntity
  8
MSL-115-P40-R-7A
 48
2.0
100
AcDbLine
 10
1535.481849
 20
234.229767
 30
0.0
 11
1560.424347
 21
234.229767
 31
0.0
  0
LINE
  5
3F0E
100
AcDbEntity
  8
MSL-115-P40-R-5
 48
2.0
100
AcDbLine
 10
1544.408508
 20
230.979767
 30
0.0
 11
1551.408508
 21
230.979767
 31
0.0
  0
LINE
  5
3F0F
100
AcDbEntity
  8
MSL-115-P40-R-5
 48
2.0
100
AcDbLine
 10
1544.408508
 20
237.479767
 30
0.0
 11
1551.408508
 21
237.479767
 31
0.0
  0
LINE
  5
3F10
100
AcDbEntity
  8
MSL-115-P40-R-0
 48
2.0
100
AcDbLine
 10
1656.608507
 20
229.326538
 30
0.0
 11
1658.408507
 21
229.326538
 31
0.0
  0
ARC
  5
3F11
100
AcDbEntity
  8
MSL-115-P40-R-0
 48
2.0
100
AcDbCircle
 10
1658.517188
 20
226.872799
 30
0.0
 40
3.108681
100
AcDbArc
 50
127.878142
 51
201.489078
  0
LINE
  5
3F12
100
AcDbEntity
  8
MSL-115-P40-R-0
 48
2.0
100
AcDbLine
 10
1656.608507
 20
239.141492
 30
0.0
 11
1658.408507
 21
239.141492
 31
0.0
  0
LINE
  5
3F13
100
AcDbEntity
  8
MSL-115-P40-R-0
 48
2.0
100
AcDbLine
 10
1656.608507
 20
244.04897
 30
0.0
 11
1658.408507
 21
244.04897
 31
0.0
  0
ARC
  5
3F14
100
AcDbEntity
  8
MSL-115-P40-R-0
 48
2.0
100
AcDbCircle
 10
1658.517188
 20
241.595231
 30
0.0
 40
3.108681
100
AcDbArc
 50
127.878142
 51
232.121858
  0
LINE
  5
3F15
100
AcDbEntity
  8
MSL-115-P40-R-0
 48
2.0
100
AcDbLine
 10
1655.408508
 20
241.595231
 30
0.0
 11
1655.408508
 21
226.872799
 31
0.0
  0
ARC
  5
3F16
100
AcDbEntity
  8
MSL-115-P40-R-0
 48
2.0
100
AcDbCircle
 10
1666.04323
 20
234.234015
 30
0.0
 40
10.634722
100
AcDbArc
 50
152.518771
 51
207.481229
  0
LINE
  5
3F17
100
AcDbEntity
  8
MSL-115-P40-R-5
 48
2.0
100
AcDbLine
 10
1288.408508
 20
230.984015
 30
0.0
 11
1295.408508
 21
230.984015
 31
0.0
  0
LINE
  5
3F18
100
AcDbEntity
  8
MSL-115-P40-R-5
 48
2.0
100
AcDbLine
 10
1288.408508
 20
237.484015
 30
0.0
 11
1295.408508
 21
237.484015
 31
0.0
  0
LINE
  5
3F19
100
AcDbEntity
  8
MSL-115-P40-R-0
 48
2.0
100
AcDbLine
 10
1283.208509
 20
229.326538
 30
0.0
 11
1281.408509
 21
229.326538
 31
0.0
  0
ARC
  5
3F1A
100
AcDbEntity
  8
MSL-115-P40-R-0
 48
2.0
100
AcDbCircle
 10
1281.299828
 20
226.872799
 30
0.0
 40
3.108681
100
AcDbArc
 50
338.510922
 51
52.121858
  0
LINE
  5
3F1B
100
AcDbEntity
  8
MSL-115-P40-R-0
 48
2.0
100
AcDbLine
 10
1283.208509
 20
239.141492
 30
0.0
 11
1281.408509
 21
239.141492
 31
0.0
  0
LINE
  5
3F1C
100
AcDbEntity
  8
MSL-115-P40-R-0
 48
2.0
100
AcDbLine
 10
1283.208509
 20
244.04897
 30
0.0
 11
1281.408509
 21
244.04897
 31
0.0
  0
ARC
  5
3F1D
100
AcDbEntity
  8
MSL-115-P40-R-0
 48
2.0
100
AcDbCircle
 10
1281.299828
 20
241.595231
 30
0.0
 40
3.108681
100
AcDbArc
 50
307.878142
 51
52.121858
  0
LINE
  5
3F1E
100
AcDbEntity
  8
MSL-115-P40-R-0
 48
2.0
100
AcDbLine
 10
1284.408509
 20
241.595231
 30
0.0
 11
1284.408509
 21
226.872799
 31
0.0
  0
ARC
  5
3F1F
100
AcDbEntity
  8
MSL-115-P40-R-0
 48
2.0
100
AcDbCircle
 10
1273.773786
 20
234.234015
 30
0.0
 40
10.634722
100
AcDbArc
 50
332.518771
 51
27.481229
  0
LINE
  5
3F20
100
AcDbEntity
  8
MSL-115-P40-R-0
 48
2.0
100
AcDbLine
 10
1285.226008
 20
241.735321
 30
0.0
 11
1288.408508
 21
241.735321
 31
0.0
  0
LINE
  5
3F21
100
AcDbEntity
  8
MSL-115-P40-R-0
 48
2.0
100
AcDbLine
 10
1296.383508
 20
241.739569
 30
0.0
 11
1300.933508
 21
241.739569
 31
0.0
  0
LINE
  5
3F22
100
AcDbEntity
  8
MSL-115-P40-R-0
 48
2.0
100
AcDbLine
 10
1285.226008
 20
237.982544
 30
0.0
 11
1288.408508
 21
237.982544
 31
0.0
  0
LINE
  5
3F23
100
AcDbEntity
  8
MSL-115-P40-R-0
 48
2.0
100
AcDbLine
 10
1285.226008
 20
230.47699
 30
0.0
 11
1288.408508
 21
230.47699
 31
0.0
  0
ARC
  5
3F24
100
AcDbEntity
  8
MSL-115-P40-R-0
 48
2.0
100
AcDbCircle
 10
1293.430917
 20
234.229767
 30
0.0
 40
9.02241
100
AcDbArc
 50
155.421502
 51
204.578498
  0
ARC
  5
3F25
100
AcDbEntity
  8
MSL-115-P40-R-0
 48
2.0
100
AcDbCircle
 10
1303.11823
 20
234.234015
 30
0.0
 40
7.709722
100
AcDbArc
 50
150.872216
 51
209.127784
  0
ARC
  5
3F26
100
AcDbEntity
  8
MSL-115-P40-R-0
 48
2.0
100
AcDbCircle
 10
1294.198785
 20
234.234015
 30
0.0
 40
7.709722
100
AcDbArc
 50
330.872218
 51
29.127782
  0
LINE
  5
3F27
100
AcDbEntity
  8
MSL-115-P40-R-0
 48
2.0
100
AcDbLine
 10
1301.908508
 20
238.234015
 30
0.0
 11
1301.908508
 21
230.234015
 31
0.0
  0
LINE
  5
3F28
100
AcDbEntity
  8
MSL-115-P40-R-0
 48
2.0
100
AcDbLine
 10
1296.383508
 20
230.481238
 30
0.0
 11
1300.933508
 21
230.481238
 31
0.0
  0
LINE
  5
3F29
100
AcDbEntity
  8
MSL-115-P40-R-0
 48
2.0
100
AcDbLine
 10
1296.383508
 20
237.986792
 30
0.0
 11
1300.933508
 21
237.986792
 31
0.0
  0
LINE
  5
3F2A
100
AcDbEntity
  8
MSL-115-P40-R-0
 48
2.0
100
AcDbLine
 10
1295.408508
 20
230.234015
 30
0.0
 11
1288.408508
 21
230.234015
 31
0.0
  0
LINE
  5
3F2B
100
AcDbEntity
  8
MSL-115-P40-R-0
 48
2.0
100
AcDbLine
 10
1288.408508
 20
238.234015
 30
0.0
 11
1295.408508
 21
238.234015
 31
0.0
  0
ARC
  5
3F2C
100
AcDbEntity
  8
MSL-115-P40-R-0
 48
2.0
100
AcDbCircle
 10
1286.970673
 20
239.858932
 30
0.0
 40
2.562165
100
AcDbArc
 50
132.916662
 51
227.083338
  0
ARC
  5
3F2D
100
AcDbEntity
  8
MSL-115-P40-R-0
 48
2.0
100
AcDbCircle
 10
1297.701563
 20
239.86318
 30
0.0
 40
2.293056
100
AcDbArc
 50
125.085847
 51
234.914153
  0
ARC
  5
3F2E
100
AcDbEntity
  8
MSL-115-P40-R-0
 48
2.0
100
AcDbCircle
 10
1299.615452
 20
239.86318
 30
0.0
 40
2.293056
100
AcDbArc
 50
305.085848
 51
54.914152
  0
LINE
  5
3F2F
100
AcDbEntity
  8
MSL-115-P40-R-0
 48
2.0
100
AcDbLine
 10
1288.408508
 20
226.724214
 30
0.0
 11
1285.226008
 21
226.724214
 31
0.0
  0
LINE
  5
3F30
100
AcDbEntity
  8
MSL-115-P40-R-0
 48
2.0
100
AcDbLine
 10
1296.383508
 20
226.728462
 30
0.0
 11
1300.933508
 21
226.728462
 31
0.0
  0
LINE
  5
3F31
100
AcDbEntity
  8
MSL-115-P40-R-0
 48
2.0
100
AcDbLine
 10
1288.408508
 20
241.735321
 30
0.0
 11
1288.408508
 21
226.724214
 31
0.0
  0
ARC
  5
3F32
100
AcDbEntity
  8
MSL-115-P40-R-0
 48
2.0
100
AcDbCircle
 10
1286.970673
 20
228.600602
 30
0.0
 40
2.562165
100
AcDbArc
 50
132.916662
 51
227.083338
  0
LINE
  5
3F33
100
AcDbEntity
  8
MSL-115-P40-R-0
 48
2.0
100
AcDbLine
 10
1284.408508
 20
239.858932
 30
0.0
 11
1284.408508
 21
228.600602
 31
0.0
  0
ARC
  5
3F34
100
AcDbEntity
  8
MSL-115-P40-R-0
 48
2.0
100
AcDbCircle
 10
1297.701563
 20
228.60485
 30
0.0
 40
2.293056
100
AcDbArc
 50
125.085847
 51
234.914153
  0
LINE
  5
3F35
100
AcDbEntity
  8
MSL-115-P40-R-0
 48
2.0
100
AcDbLine
 10
1295.408508
 20
228.60485
 30
0.0
 11
1295.408508
 21
239.86318
 31
0.0
  0
ARC
  5
3F36
100
AcDbEntity
  8
MSL-115-P40-R-0
 48
2.0
100
AcDbCircle
 10
1299.615452
 20
228.60485
 30
0.0
 40
2.293056
100
AcDbArc
 50
305.085848
 51
54.914152
  0
LINE
  5
3F37
100
AcDbEntity
  8
MSL-115-P40-R-0
 48
2.0
100
AcDbLine
 10
1301.908508
 20
228.60485
 30
0.0
 11
1301.908508
 21
239.86318
 31
0.0
  0
LINE
  5
3F38
100
AcDbEntity
  8
MSL-115-P40-R-0
 48
2.0
100
AcDbLine
 10
1288.408508
 20
28.540861
 30
0.0
 11
1284.908508
 21
28.540861
 31
0.0
1001
ACAD
1000
RTLwPs
1070
   128
  0
ARC
  5
3F39
100
AcDbEntity
  8
MSL-115-P40-R-0
 48
2.0
100
AcDbCircle
 10
1299.569518
 20
21.035307
 30
0.0
 40
15.133689
100
AcDbArc
 50
165.642284
 51
194.357716
1001
ACAD
1000
RTLwPs
1070
   128
  0
LINE
  5
3F3A
100
AcDbEntity
  8
MSL-115-P40-R-0
 48
2.0
100
AcDbLine
 10
1288.408508
 20
24.788084
 30
0.0
 11
1284.908508
 21
24.788084
 31
0.0
1001
ACAD
1000
RTLwPs
1070
   128
  0
LINE
  5
3F3B
100
AcDbEntity
  8
MSL-115-P40-R-0
 48
2.0
100
AcDbLine
 10
1288.408508
 20
17.28253
 30
0.0
 11
1284.908508
 21
17.28253
 31
0.0
1001
ACAD
1000
RTLwPs
1070
   128
  0
LINE
  5
3F3C
100
AcDbEntity
  8
MSL-115-P40-R-0
 48
2.0
100
AcDbLine
 10
1296.124062
 20
21.035307
 30
0.0
 11
1300.892955
 21
21.035307
 31
0.0
1001
ACAD
1000
RTLwPs
1070
   128
  0
SPLINE
  5
3F3D
100
AcDbEntity
  8
MSL-115-P40-R-0
 48
2.0
100
AcDbSpline
210
0.0
220
0.0
230
1.0
 70
    12
 71
     3
 72
     8
 73
     4
 74
     0
 42
0.0000001
 43
0.0000001
 40
0.0072887795577645
 40
0.0072887795577645
 40
0.0072887795577645
 40
0.0072887795577645
 40
0.0195796554543459
 40
0.0195796554543459
 40
0.0195796554543459
 40
0.0195796554543459
 10
1300.892954668314
 20
21.03530716804539
 30
0.0
 41
1.413010917473256
 10
1302.202355745072
 20
23.30325636047632
 30
0.0
 41
1.558739950585838
 10
1302.202355745073
 20
25.26735797561423
 30
0.0
 41
1.558739950585838
 10
1300.892954668314
 20
27.53530716804517
 30
0.0
 41
1.413010917473256
1001
ACAD
1000
RTLwPs
1070
   128
  0
SPLINE
  5
3F3E
100
AcDbEntity
  8
MSL-115-P40-R-0
 48
2.0
100
AcDbSpline
210
0.0
220
0.0
230
-1.0
 70
    12
 71
     3
 72
     8
 73
     4
 74
     0
 42
0.0000001
 43
0.0000001
 40
0.0082372096853778
 40
0.0082372096853778
 40
0.0082372096853778
 40
0.0082372096853778
 40
0.0211928023405478
 40
0.0211928023405478
 40
0.0211928023405478
 40
0.0211928023405478
 10
1296.424061667244
 20
27.53530716804514
 30
0.0
 41
1.47447474147952
 10
1295.114660590485
 20
25.26735797561377
 30
0.0
 41
1.626542765701846
 10
1295.114660590485
 20
23.30325636047609
 30
0.0
 41
1.626542765701846
 10
1296.424061667244
 20
21.03530716804493
 30
0.0
 41
1.47447474147952
1001
ACAD
1000
RTLwPs
1070
   128
  0
LINE
  5
3F3F
100
AcDbEntity
  8
MSL-115-P40-R-0
 48
2.0
100
AcDbLine
 10
1301.898508
 20
27.535307
 30
0.0
 11
1295.408508
 21
27.535307
 31
0.0
1001
ACAD
1000
RTLwPs
1070
   128
  0
LINE
  5
3F40
100
AcDbEntity
  8
MSL-115-P40-R-0
 48
2.0
100
AcDbLine
 10
1295.408508
 20
25.035307
 30
0.0
 11
1288.408508
 21
25.035307
 31
0.0
1001
ACAD
1000
RTLwPs
1070
   128
  0
LINE
  5
3F41
100
AcDbEntity
  8
MSL-115-P40-R-5
 48
2.0
100
AcDbLine
 10
1288.408508
 20
24.285307
 30
0.0
 11
1295.408508
 21
24.285307
 31
0.0
  0
LINE
  5
3F42
100
AcDbEntity
  8
MSL-115-P40-R-5
 48
2.0
100
AcDbLine
 10
1288.408508
 20
17.785307
 30
0.0
 11
1295.408508
 21
17.785307
 31
0.0
  0
LINE
  5
3F43
100
AcDbEntity
  8
MSL-115-P40-R-0
 48
2.0
100
AcDbLine
 10
1288.408508
 20
17.035307
 30
0.0
 11
1295.408508
 21
17.035307
 31
0.0
1001
ACAD
1000
RTLwPs
1070
   128
  0
LINE
  5
3F44
100
AcDbEntity
  8
MSL-115-P40-R-0
 48
2.0
100
AcDbLine
 10
1284.908508
 20
28.540861
 30
0.0
 11
1284.408508
 21
27.490861
 31
0.0
1001
ACAD
1000
RTLwPs
1070
   128
  0
ARC
  5
3F45
100
AcDbEntity
  8
MSL-115-P40-R-0
 48
2.0
100
AcDbCircle
 10
1288.421175
 20
26.664472
 30
0.0
 40
3.982419
100
AcDbArc
 50
151.889858
 51
208.110142
1001
ACAD
1000
RTLwPs
1070
   128
  0
LINE
  5
3F46
100
AcDbEntity
  8
MSL-115-P40-R-0
 48
2.0
100
AcDbLine
 10
1284.908508
 20
13.529754
 30
0.0
 11
1284.408508
 21
14.579754
 31
0.0
1001
ACAD
1000
RTLwPs
1070
   128
  0
LINE
  5
3F47
100
AcDbEntity
  8
MSL-115-P40-R-0
 48
2.0
100
AcDbLine
 10
1288.408508
 20
13.529754
 30
0.0
 11
1284.908508
 21
13.529754
 31
0.0
1001
ACAD
1000
RTLwPs
1070
   128
  0
LINE
  5
3F48
100
AcDbEntity
  8
MSL-115-P40-R-0
 48
2.0
100
AcDbLine
 10
1295.408508
 20
14.535307
 30
0.0
 11
1301.898508
 21
14.535307
 31
0.0
1001
ACAD
1000
RTLwPs
1070
   128
  0
ARC
  5
3F49
100
AcDbEntity
  8
MSL-115-P40-R-0
 48
2.0
100
AcDbCircle
 10
1288.421175
 20
15.406142
 30
0.0
 40
3.982419
100
AcDbArc
 50
151.889858
 51
208.110142
1001
ACAD
1000
RTLwPs
1070
   128
  0
SPLINE
  5
3F4A
100
AcDbEntity
  8
MSL-115-P40-R-0
 48
2.0
100
AcDbSpline
210
0.0
220
0.0
230
1.0
 70
    12
 71
     3
 72
     8
 73
     4
 74
     0
 42
0.0000001
 43
0.0000001
 40
0.0072887795577645
 40
0.0072887795577645
 40
0.0072887795577645
 40
0.0072887795577645
 40
0.0195796554543459
 40
0.0195796554543459
 40
0.0195796554543459
 40
0.0195796554543459
 10
1300.892954668314
 20
14.53530716804516
 30
0.0
 41
1.413010917473258
 10
1302.202355745073
 20
16.80325636047608
 30
0.0
 41
1.558739950585839
 10
1302.202355745073
 20
18.76735797561446
 30
0.0
 41
1.558739950585839
 10
1300.892954668314
 20
21.03530716804493
 30
0.0
 41
1.413010917473258
1001
ACAD
1000
RTLwPs
1070
   128
  0
LINE
  5
3F4B
100
AcDbEntity
  8
MSL-115-P40-R-0
 48
2.0
100
AcDbLine
 10
1284.435848
 20
27.490014
 30
0.0
 11
1284.435848
 21
14.578907
 31
0.0
  0
SPLINE
  5
3F4C
100
AcDbEntity
  8
MSL-115-P40-R-0
 48
2.0
100
AcDbSpline
210
0.0
220
0.0
230
-1.0
 70
    12
 71
     3
 72
     8
 73
     4
 74
     0
 42
0.0000001
 43
0.0000001
 40
0.0082372096853778
 40
0.0082372096853778
 40
0.0082372096853778
 40
0.0082372096853778
 40
0.0211928023405478
 40
0.0211928023405478
 40
0.0211928023405478
 40
0.0211928023405478
 10
1296.424061667244
 20
21.03530716804518
 30
0.0
 41
1.474474741479519
 10
1295.114660590485
 20
18.76735797561377
 30
0.0
 41
1.626542765701846
 10
1295.114660590485
 20
16.80325636047609
 30
0.0
 41
1.626542765701846
 10
1296.424061667244
 20
14.53530716804563
 30
0.0
 41
1.47447474147952
1001
ACAD
1000
RTLwPs
1070
   128
  0
LINE
  5
3F4D
100
AcDbEntity
  8
MSL-115-P40-R-0
 48
2.0
100
AcDbLine
 10
1295.408508
 20
27.525307
 30
0.0
 11
1295.408508
 21
14.545307
 31
0.0
1001
ACAD
1000
RTLwPs
1070
   128
  0
LINE
  5
3F4E
100
AcDbEntity
  8
MSL-115-P40-R-0
 48
2.0
100
AcDbLine
 10
1288.408508
 20
13.529754
 30
0.0
 11
1288.408508
 21
28.540861
 31
0.0
1001
ACAD
1000
RTLwPs
1070
   128
  0
LINE
  5
3F4F
100
AcDbEntity
  8
MSL-115-P40-R-0
 48
2.0
100
AcDbLine
 10
1551.408508
 20
241.735321
 30
0.0
 11
1551.408508
 21
226.724214
 31
0.0
  0
ARC
  5
3F50
100
AcDbEntity
  8
MSL-115-P40-R-0
 48
2.0
100
AcDbCircle
 10
1552.846343
 20
228.600602
 30
0.0
 40
2.562165
100
AcDbArc
 50
312.916662
 51
47.083338
  0
LINE
  5
3F51
100
AcDbEntity
  8
MSL-115-P40-R-0
 48
2.0
100
AcDbLine
 10
1551.408508
 20
226.724214
 30
0.0
 11
1554.591008
 21
226.724214
 31
0.0
  0
LINE
  5
3F52
100
AcDbEntity
  8
MSL-115-P40-R-0
 48
2.0
100
AcDbLine
 10
1554.591008
 20
241.735321
 30
0.0
 11
1551.408508
 21
241.735321
 31
0.0
  0
LINE
  5
3F53
100
AcDbEntity
  8
MSL-115-P40-R-0
 48
2.0
100
AcDbLine
 10
1554.591008
 20
237.982544
 30
0.0
 11
1551.408508
 21
237.982544
 31
0.0
  0
LINE
  5
3F54
100
AcDbEntity
  8
MSL-115-P40-R-0
 48
2.0
100
AcDbLine
 10
1554.591008
 20
230.47699
 30
0.0
 11
1551.408508
 21
230.47699
 31
0.0
  0
LINE
  5
3F55
100
AcDbEntity
  8
MSL-115-P40-R-0
 48
2.0
100
AcDbLine
 10
1555.408508
 20
239.858932
 30
0.0
 11
1555.408508
 21
228.600602
 31
0.0
  0
ARC
  5
3F56
100
AcDbEntity
  8
MSL-115-P40-R-0
 48
2.0
100
AcDbCircle
 10
1546.386099
 20
234.229767
 30
0.0
 40
9.02241
100
AcDbArc
 50
335.421502
 51
24.578498
  0
ARC
  5
3F57
100
AcDbEntity
  8
MSL-115-P40-R-0
 48
2.0
100
AcDbCircle
 10
1552.846343
 20
239.858932
 30
0.0
 40
2.562165
100
AcDbArc
 50
312.916662
 51
47.083338
  0
ARC
  5
3F58
100
AcDbEntity
  8
MSL-115-P40-R-0
 48
2.0
100
AcDbCircle
 10
1542.115453
 20
228.60485
 30
0.0
 40
2.293056
100
AcDbArc
 50
305.085847
 51
54.914153
  0
ARC
  5
3F59
100
AcDbEntity
  8
MSL-115-P40-R-0
 48
2.0
100
AcDbCircle
 10
1536.698786
 20
234.234015
 30
0.0
 40
7.709722
100
AcDbArc
 50
330.872216
 51
29.127784
  0
LINE
  5
3F5A
100
AcDbEntity
  8
MSL-115-P40-R-0
 48
2.0
100
AcDbLine
 10
1544.408508
 20
228.60485
 30
0.0
 11
1544.408508
 21
239.86318
 31
0.0
  0
ARC
  5
3F5B
100
AcDbEntity
  8
MSL-115-P40-R-0
 48
2.0
100
AcDbCircle
 10
1542.115453
 20
239.86318
 30
0.0
 40
2.293056
100
AcDbArc
 50
305.085847
 51
54.914153
  0
ARC
  5
3F5C
100
AcDbEntity
  8
MSL-115-P40-R-0
 48
2.0
100
AcDbCircle
 10
1540.201564
 20
228.60485
 30
0.0
 40
2.293056
100
AcDbArc
 50
125.085848
 51
234.914152
  0
ARC
  5
3F5D
100
AcDbEntity
  8
MSL-115-P40-R-0
 48
2.0
100
AcDbCircle
 10
1545.618231
 20
234.234015
 30
0.0
 40
7.709722
100
AcDbArc
 50
150.872218
 51
209.127782
  0
ARC
  5
3F5E
100
AcDbEntity
  8
MSL-115-P40-R-0
 48
2.0
100
AcDbCircle
 10
1540.201564
 20
239.86318
 30
0.0
 40
2.293056
100
AcDbArc
 50
125.085848
 51
234.914152
  0
LINE
  5
3F5F
100
AcDbEntity
  8
MSL-115-P40-R-0
 48
2.0
100
AcDbLine
 10
1537.908508
 20
238.234015
 30
0.0
 11
1537.908508
 21
230.234015
 31
0.0
  0
LINE
  5
3F60
100
AcDbEntity
  8
MSL-115-P40-R-0
 48
2.0
100
AcDbLine
 10
1537.908508
 20
228.60485
 30
0.0
 11
1537.908508
 21
239.86318
 31
0.0
  0
LINE
  5
3F61
100
AcDbEntity
  8
MSL-115-P40-R-0
 48
2.0
100
AcDbLine
 10
1543.433508
 20
226.728462
 30
0.0
 11
1538.883508
 21
226.728462
 31
0.0
  0
LINE
  5
3F62
100
AcDbEntity
  8
MSL-115-P40-R-0
 48
2.0
100
AcDbLine
 10
1543.433508
 20
230.481238
 30
0.0
 11
1538.883508
 21
230.481238
 31
0.0
  0
LINE
  5
3F63
100
AcDbEntity
  8
MSL-115-P40-R-0
 48
2.0
100
AcDbLine
 10
1543.433508
 20
237.986792
 30
0.0
 11
1538.883508
 21
237.986792
 31
0.0
  0
LINE
  5
3F64
100
AcDbEntity
  8
MSL-115-P40-R-0
 48
2.0
100
AcDbLine
 10
1543.433508
 20
241.739569
 30
0.0
 11
1538.883508
 21
241.739569
 31
0.0
  0
LINE
  5
3F65
100
AcDbEntity
  8
MSL-115-P40-R-0
 48
2.0
100
AcDbLine
 10
1544.408508
 20
230.234015
 30
0.0
 11
1551.408508
 21
230.234015
 31
0.0
  0
LINE
  5
3F66
100
AcDbEntity
  8
MSL-115-P40-R-0
 48
2.0
100
AcDbLine
 10
1551.408508
 20
238.234015
 30
0.0
 11
1544.408508
 21
238.234015
 31
0.0
  0
LINE
  5
3F67
100
AcDbEntity
  8
MSL-115-P40-R-7A
 48
2.0
100
AcDbLine
 10
1618.408508
 20
46.035307
 30
0.0
 11
1740.408508
 21
46.035307
 31
0.0
  0
LINE
  5
3F68
100
AcDbEntity
  8
MSL-115-P40-R-5
 48
2.0
100
AcDbLine
 10
1727.408508
 20
55.535307
 30
0.0
 11
1678.408508
 21
55.535307
 31
0.0
  0
LINE
  5
3F69
100
AcDbEntity
  8
MSL-115-P40-R-0
 48
2.0
100
AcDbLine
 10
1678.408508
 20
56.035307
 30
0.0
 11
1726.908508
 21
56.035307
 31
0.0
  0
LINE
  5
3F6A
100
AcDbEntity
  8
MSL-115-P40-R-0
 48
2.0
100
AcDbLine
 10
1678.408508
 20
36.035307
 30
0.0
 11
1726.908508
 21
36.035307
 31
0.0
  0
LINE
  5
3F6B
100
AcDbEntity
  8
MSL-115-P40-R-5
 48
2.0
100
AcDbLine
 10
1727.408508
 20
36.535307
 30
0.0
 11
1678.408508
 21
36.535307
 31
0.0
  0
LINE
  5
3F6C
100
AcDbEntity
  8
MSL-115-P40-R-0
 48
2.0
100
AcDbLine
 10
1726.908508
 20
56.035307
 30
0.0
 11
1727.908508
 21
55.035307
 31
0.0
  0
LINE
  5
3F6D
100
AcDbEntity
  8
MSL-115-P40-R-0
 48
2.0
100
AcDbLine
 10
1727.908508
 20
55.035307
 30
0.0
 11
1727.908508
 21
46.035307
 31
0.0
  0
POLYLINE
  5
3F6E
100
AcDbEntity
  8
MSL-115-P40-R-0
 48
2.0
100
AcDb2dPolyline
 66
     1
 10
0.0
 20
0.0
 30
0.0
  0
VERTEX
  5
3F6F
100
AcDbEntity
  8
MSL-115-P40-R-0
 48
2.0
100
AcDbVertex
100
AcDb2dVertex
 10
1727.908508
 20
54.535307
 30
0.0
  0
VERTEX
  5
3F70
100
AcDbEntity
  8
MSL-115-P40-R-0
 48
2.0
100
AcDbVertex
100
AcDb2dVertex
 10
1733.908508
 20
54.535307
 30
0.0
  0
VERTEX
  5
3F71
100
AcDbEntity
  8
MSL-115-P40-R-0
 48
2.0
100
AcDbVertex
100
AcDb2dVertex
 10
1734.908508
 20
53.535307
 30
0.0
  0
VERTEX
  5
3F72
100
AcDbEntity
  8
MSL-115-P40-R-0
 48
2.0
100
AcDbVertex
100
AcDb2dVertex
 10
1734.908508
 20
46.035307
 30
0.0
  0
SEQEND
  5
3F73
100
AcDbEntity
  8
MSL-115-P40-R-0
 48
2.0
  0
LINE
  5
3F74
100
AcDbEntity
  8
MSL-115-P40-R-0
 48
2.0
100
AcDbLine
 10
1733.908508
 20
54.535307
 30
0.0
 11
1733.908508
 21
46.035307
 31
0.0
  0
LINE
  5
3F75
100
AcDbEntity
  8
MSL-115-P40-R-0
 48
2.0
100
AcDbLine
 10
1726.908508
 20
36.035307
 30
0.0
 11
1727.908508
 21
37.035307
 31
0.0
  0
LINE
  5
3F76
100
AcDbEntity
  8
MSL-115-P40-R-0
 48
2.0
100
AcDbLine
 10
1733.908508
 20
37.535307
 30
0.0
 11
1733.908508
 21
46.035307
 31
0.0
  0
POLYLINE
  5
3F77
100
AcDbEntity
  8
MSL-115-P40-R-0
 48
2.0
100
AcDb2dPolyline
 66
     1
 10
0.0
 20
0.0
 30
0.0
  0
VERTEX
  5
3F78
100
AcDbEntity
  8
MSL-115-P40-R-0
 48
2.0
100
AcDbVertex
100
AcDb2dVertex
 10
1727.908508
 20
37.535307
 30
0.0
  0
VERTEX
  5
3F79
100
AcDbEntity
  8
MSL-115-P40-R-0
 48
2.0
100
AcDbVertex
100
AcDb2dVertex
 10
1733.908508
 20
37.535307
 30
0.0
  0
VERTEX
  5
3F7A
100
AcDbEntity
  8
MSL-115-P40-R-0
 48
2.0
100
AcDbVertex
100
AcDb2dVertex
 10
1734.908508
 20
38.535307
 30
0.0
  0
VERTEX
  5
3F7B
100
AcDbEntity
  8
MSL-115-P40-R-0
 48
2.0
100
AcDbVertex
100
AcDb2dVertex
 10
1734.908508
 20
46.035307
 30
0.0
  0
SEQEND
  5
3F7C
100
AcDbEntity
  8
MSL-115-P40-R-0
 48
2.0
  0
LINE
  5
3F7D
100
AcDbEntity
  8
MSL-115-P40-R-0
 48
2.0
100
AcDbLine
 10
1727.908508
 20
37.035307
 30
0.0
 11
1727.908508
 21
46.035307
 31
0.0
  0
LINE
  5
3F7E
100
AcDbEntity
  8
MSL-115-P40-R-0
 48
2.0
100
AcDbLine
 10
1726.908508
 20
36.035307
 30
0.0
 11
1726.908508
 21
56.035307
 31
0.0
  0
LINE
  5
3F7F
100
AcDbEntity
  8
MSL-115-P40-R-7A
 48
2.0
100
AcDbLine
 10
1614.408508
 20
233.234015
 30
0.0
 11
1736.408508
 21
233.234015
 31
0.0
  0
LINE
  5
3F80
100
AcDbEntity
  8
MSL-115-P40-R-0
 48
2.0
100
AcDbLine
 10
1555.408508
 20
27.490861
 30
0.0
 11
1555.408508
 21
14.579754
 31
0.0
  0
LINE
  5
3F81
100
AcDbEntity
  8
MSL-115-P40-R-0
 48
2.0
100
AcDbLine
 10
1554.908508
 20
13.529754
 30
0.0
 11
1555.408508
 21
14.579754
 31
0.0
1001
ACAD
1000
RTLwPs
1070
   128
  0
LINE
  5
3F82
100
AcDbEntity
  8
MSL-115-P40-R-0
 48
2.0
100
AcDbLine
 10
1544.408508
 20
14.535307
 30
0.0
 11
1537.918508
 21
14.535307
 31
0.0
1001
ACAD
1000
RTLwPs
1070
   128
  0
LINE
  5
3F83
100
AcDbEntity
  8
MSL-115-P40-R-0
 48
2.0
100
AcDbLine
 10
1537.918508
 20
27.535307
 30
0.0
 11
1544.408508
 21
27.535307
 31
0.0
1001
ACAD
1000
RTLwPs
1070
   128
  0
SPLINE
  5
3F84
100
AcDbEntity
  8
MSL-115-P40-R-0
 48
2.0
100
AcDbSpline
210
0.0
220
0.0
230
1.0
 70
    12
 71
     3
 72
     8
 73
     4
 74
     0
 42
0.0000001
 43
0.0000001
 40
0.0082372096853778
 40
0.0082372096853778
 40
0.0082372096853778
 40
0.0082372096853778
 40
0.0211928023405478
 40
0.0211928023405478
 40
0.0211928023405478
 40
0.0211928023405478
 10
1543.392954668314
 20
27.53530716804243
 30
0.0
 41
1.47447474147952
 10
1544.702355745072
 20
25.26735797561127
 30
0.0
 41
1.626542765701846
 10
1544.702355745072
 20
23.30325636047312
 30
0.0
 41
1.626542765701846
 10
1543.392954668314
 20
21.03530716804219
 30
0.0
 41
1.47447474147952
1001
ACAD
1000
RTLwPs
1070
   128
  0
SPLINE
  5
3F85
100
AcDbEntity
  8
MSL-115-P40-R-0
 48
2.0
100
AcDbSpline
210
0.0
220
0.0
230
-1.0
 70
    12
 71
     3
 72
     8
 73
     4
 74
     0
 42
0.0000001
 43
0.0000001
 40
0.0072887795577645
 40
0.0072887795577645
 40
0.0072887795577645
 40
0.0072887795577645
 40
0.0195796554543459
 40
0.0195796554543459
 40
0.0195796554543459
 40
0.0195796554543459
 10
1538.924061667244
 20
21.03530716804243
 30
0.0
 41
1.413010917473256
 10
1537.614660590485
 20
23.30325636047382
 30
0.0
 41
1.558739950585838
 10
1537.614660590485
 20
25.26735797561151
 30
0.0
 41
1.558739950585838
 10
1538.924061667244
 20
27.53530716804243
 30
0.0
 41
1.413010917473256
1001
ACAD
1000
RTLwPs
1070
   128
  0
SPLINE
  5
3F86
100
AcDbEntity
  8
MSL-115-P40-R-0
 48
2.0
100
AcDbSpline
210
0.0
220
0.0
230
-1.0
 70
    12
 71
     3
 72
     8
 73
     4
 74
     0
 42
0.0000001
 43
0.0000001
 40
0.0072887795577645
 40
0.0072887795577645
 40
0.0072887795577645
 40
0.0072887795577645
 40
0.0195796554543459
 40
0.0195796554543459
 40
0.0195796554543459
 40
0.0195796554543459
 10
1538.924061667243
 20
14.53530716804221
 30
0.0
 41
1.413010917473258
 10
1537.614660590485
 20
16.80325636047359
 30
0.0
 41
1.558739950585839
 10
1537.614660590485
 20
18.7673579756115
 30
0.0
 41
1.558739950585839
 10
1538.924061667244
 20
21.03530716804244
 30
0.0
 41
1.413010917473258
1001
ACAD
1000
RTLwPs
1070
   128
  0
LINE
  5
3F87
100
AcDbEntity
  8
MSL-115-P40-R-0
 48
2.0
100
AcDbLine
 10
1543.692955
 20
21.035307
 30
0.0
 11
1538.924062
 21
21.035307
 31
0.0
1001
ACAD
1000
RTLwPs
1070
   128
  0
SPLINE
  5
3F88
100
AcDbEntity
  8
MSL-115-P40-R-0
 48
2.0
100
AcDbSpline
210
0.0
220
0.0
230
1.0
 70
    12
 71
     3
 72
     8
 73
     4
 74
     0
 42
0.0000001
 43
0.0000001
 40
0.0082372096853778
 40
0.0082372096853778
 40
0.0082372096853778
 40
0.0082372096853778
 40
0.0211928023405478
 40
0.0211928023405478
 40
0.0211928023405478
 40
0.0211928023405478
 10
1543.392954668314
 20
21.03530716804266
 30
0.0
 41
1.474474741479519
 10
1544.702355745072
 20
18.76735797561059
 30
0.0
 41
1.626542765701846
 10
1544.702355745072
 20
16.80325636047291
 30
0.0
 41
1.626542765701846
 10
1543.392954668314
 20
14.53530716804221
 30
0.0
 41
1.47447474147952
1001
ACAD
1000
RTLwPs
1070
   128
  0
LINE
  5
3F89
100
AcDbEntity
  8
MSL-115-P40-R-0
 48
2.0
100
AcDbLine
 10
1544.408508
 20
27.525307
 30
0.0
 11
1544.408508
 21
14.545307
 31
0.0
1001
ACAD
1000
RTLwPs
1070
   128
  0
LINE
  5
3F8A
100
AcDbEntity
  8
MSL-115-P40-R-0
 48
2.0
100
AcDbLine
 10
1551.408508
 20
28.540861
 30
0.0
 11
1554.908508
 21
28.540861
 31
0.0
1001
ACAD
1000
RTLwPs
1070
   128
  0
LINE
  5
3F8B
100
AcDbEntity
  8
MSL-115-P40-R-0
 48
2.0
100
AcDbLine
 10
1551.408508
 20
24.788084
 30
0.0
 11
1554.908508
 21
24.788084
 31
0.0
1001
ACAD
1000
RTLwPs
1070
   128
  0
LINE
  5
3F8C
100
AcDbEntity
  8
MSL-115-P40-R-0
 48
2.0
100
AcDbLine
 10
1544.408508
 20
25.035307
 30
0.0
 11
1551.408508
 21
25.035307
 31
0.0
1001
ACAD
1000
RTLwPs
1070
   128
  0
LINE
  5
3F8D
100
AcDbEntity
  8
MSL-115-P40-R-5
 48
2.0
100
AcDbLine
 10
1551.408508
 20
24.285307
 30
0.0
 11
1544.408508
 21
24.285307
 31
0.0
  0
LINE
  5
3F8E
100
AcDbEntity
  8
MSL-115-P40-R-0
 48
2.0
100
AcDbLine
 10
1551.408508
 20
13.529754
 30
0.0
 11
1551.408508
 21
28.540861
 31
0.0
1001
ACAD
1000
RTLwPs
1070
   128
  0
LINE
  5
3F8F
100
AcDbEntity
  8
MSL-115-P40-R-0
 48
2.0
100
AcDbLine
 10
1551.408508
 20
17.28253
 30
0.0
 11
1554.908508
 21
17.28253
 31
0.0
1001
ACAD
1000
RTLwPs
1070
   128
  0
LINE
  5
3F90
100
AcDbEntity
  8
MSL-115-P40-R-0
 48
2.0
100
AcDbLine
 10
1551.408508
 20
17.035307
 30
0.0
 11
1544.408508
 21
17.035307
 31
0.0
1001
ACAD
1000
RTLwPs
1070
   128
  0
LINE
  5
3F91
100
AcDbEntity
  8
MSL-115-P40-R-5
 48
2.0
100
AcDbLine
 10
1551.408508
 20
17.785307
 30
0.0
 11
1544.408508
 21
17.785307
 31
0.0
  0
LINE
  5
3F92
100
AcDbEntity
  8
MSL-115-P40-R-0
 48
2.0
100
AcDbLine
 10
1551.408508
 20
13.529754
 30
0.0
 11
1554.908508
 21
13.529754
 31
0.0
1001
ACAD
1000
RTLwPs
1070
   128
  0
ARC
  5
3F93
100
AcDbEntity
  8
MSL-115-P40-R-0
 48
2.0
100
AcDbCircle
 10
1551.395842
 20
15.406142
 30
0.0
 40
3.982419
100
AcDbArc
 50
331.889858
 51
28.110142
1001
ACAD
1000
RTLwPs
1070
   128
  0
ARC
  5
3F94
100
AcDbEntity
  8
MSL-115-P40-R-0
 48
2.0
100
AcDbCircle
 10
1540.247498
 20
21.035307
 30
0.0
 40
15.133689
100
AcDbArc
 50
345.642284
 51
14.357716
1001
ACAD
1000
RTLwPs
1070
   128
  0
ARC
  5
3F95
100
AcDbEntity
  8
MSL-115-P40-R-0
 48
2.0
100
AcDbCircle
 10
1551.395842
 20
26.664472
 30
0.0
 40
3.982419
100
AcDbArc
 50
331.889858
 51
28.110142
1001
ACAD
1000
RTLwPs
1070
   128
  0
LINE
  5
3F96
100
AcDbEntity
  8
MSL-115-P40-R-0
 48
2.0
100
AcDbLine
 10
1554.908508
 20
28.540861
 30
0.0
 11
1555.408508
 21
27.490861
 31
0.0
1001
ACAD
1000
RTLwPs
1070
   128
  0
LINE
  5
3F97
100
AcDbEntity
  8
MSL-115-P40-R-0
 48
2.0
100
AcDbLine
 10
1299.408508
 20
14.535307
 30
0.0
 11
1299.408508
 21
-41.464693
 31
0.0
  0
LINE
  5
3FC8
100
AcDbEntity
  8
MSL-115-P40-R-7A
 48
2.0
100
AcDbLine
 10
1329.908508
 20
-29.964693
 30
0.0
 11
1329.908508
 21
-17.964693
 31
0.0
  0
LINE
  5
3FCA
100
AcDbEntity
  8
MSL-115-P40-R-7A
 48
2.0
100
AcDbLine
 10
1359.908508
 20
-29.964693
 30
0.0
 11
1359.908508
 21
-17.964693
 31
0.0
  0
LINE
  5
3FCC
100
AcDbEntity
  8
MSL-115-P40-R-7A
 48
2.0
100
AcDbLine
 10
1389.908508
 20
-32.964693
 30
0.0
 11
1389.908508
 21
-16.964693
 31
0.0
  0
LINE
  5
3FCE
100
AcDbEntity
  8
MSL-115-P40-R-7A
 48
2.0
100
AcDbLine
 10
1419.908508
 20
-29.964693
 30
0.0
 11
1419.908508
 21
-17.964693
 31
0.0
  0
LINE
  5
3FD0
100
AcDbEntity
  8
MSL-115-P40-R-7A
 48
2.0
100
AcDbLine
 10
1449.908508
 20
-29.964693
 30
0.0
 11
1449.908508
 21
-17.964693
 31
0.0
  0
LINE
  5
3FD2
100
AcDbEntity
  8
MSL-115-P40-R-7A
 48
2.0
100
AcDbLine
 10
1479.908508
 20
-29.964693
 30
0.0
 11
1479.908508
 21
-17.964693
 31
0.0
  0
LINE
  5
3FD4
100
AcDbEntity
  8
MSL-115-P40-R-7A
 48
2.0
100
AcDbLine
 10
1509.908508
 20
-29.964693
 30
0.0
 11
1509.908508
 21
-17.964693
 31
0.0
  0
LINE
  5
3FD5
100
AcDbEntity
  8
MSL-115-P40-R-7A
 48
2.0
100
AcDbLine
 10
1323.908508
 20
-23.964693
 30
0.0
 11
1515.908508
 21
-23.964693
 31
0.0
  0
LINE
  5
3FD6
100
AcDbEntity
  8
MSL-115-P40-R-7A
 48
2.0
100
AcDbLine
 10
1509.908508
 20
60.035307
 30
0.0
 11
1509.908508
 21
72.035307
 31
0.0
  0
LINE
  5
3FD7
100
AcDbEntity
  8
MSL-115-P40-R-7A
 48
2.0
100
AcDbLine
 10
1323.908508
 20
66.035307
 30
0.0
 11
1515.908508
 21
66.035307
 31
0.0
  0
LINE
  5
3FD8
100
AcDbEntity
  8
MSL-115-P40-R-7A
 48
2.0
100
AcDbLine
 10
1479.908508
 20
60.035307
 30
0.0
 11
1479.908508
 21
72.035307
 31
0.0
  0
LINE
  5
3FDA
100
AcDbEntity
  8
MSL-115-P40-R-7A
 48
2.0
100
AcDbLine
 10
1449.908508
 20
58.035307
 30
0.0
 11
1449.908508
 21
74.035307
 31
0.0
  0
LINE
  5
3FDC
100
AcDbEntity
  8
MSL-115-P40-R-7A
 48
2.0
100
AcDbLine
 10
1419.908508
 20
60.035307
 30
0.0
 11
1419.908508
 21
72.035307
 31
0.0
  0
LINE
  5
3FDE
100
AcDbEntity
  8
MSL-115-P40-R-7A
 48
2.0
100
AcDbLine
 10
1389.908508
 20
60.035307
 30
0.0
 11
1389.908508
 21
72.035307
 31
0.0
  0
LINE
  5
3FE0
100
AcDbEntity
  8
MSL-115-P40-R-7A
 48
2.0
100
AcDbLine
 10
1359.908508
 20
60.035307
 30
0.0
 11
1359.908508
 21
72.035307
 31
0.0
  0
LINE
  5
3FE2
100
AcDbEntity
  8
MSL-115-P40-R-7A
 48
2.0
100
AcDbLine
 10
1329.908508
 20
60.035307
 30
0.0
 11
1329.908508
 21
72.035307
 31
0.0
  0
CIRCLE
  5
3FE4
100
AcDbEntity
  8
MSL-115-P40-R-0
 48
2.0
100
AcDbCircle
 10
1813.946829
 20
233.234015
 30
0.0
 40
9.0
1001
ACAD
1000
RTLwPs
1070
   128
  0
ARC
  5
3FE5
100
AcDbEntity
  8
MSL-115-P40-R-5
 48
2.0
100
AcDbCircle
 10
1813.946829
 20
233.234015
 30
0.0
 40
9.4
100
AcDbArc
 50
10.04188
 51
270.660774
1001
ACAD
1000
RTLwPs
1070
   128
  0
CIRCLE
  5
3FE6
100
AcDbEntity
  8
MSL-115-P40-R-0
 48
2.0
100
AcDbCircle
 10
1813.946829
 20
233.234015
 30
0.0
 40
10.0
1001
ACAD
1000
RTLwPs
1070
   128
  0
ARC
  5
3FE7
100
AcDbEntity
  8
MSL-115-P40-R-0
 48
2.0
100
AcDbCircle
 10
1813.946829
 20
233.234015
 30
0.0
 40
12.0
100
AcDbArc
 50
0.0
 51
60.0
1001
ACAD
1000
RTLwPs
1070
   128
  0
LINE
  5
3FE8
100
AcDbEntity
  8
MSL-115-P40-R-0
 48
2.0
100
AcDbLine
 10
1813.946829
 20
247.090421
 30
0.0
 11
1819.946829
 21
243.62632
 31
0.0
1001
ACAD
1000
RTLwPs
1070
   128
  0
ARC
  5
3FE9
100
AcDbEntity
  8
MSL-115-P40-R-0
 48
2.0
100
AcDbCircle
 10
1813.946829
 20
233.234015
 30
0.0
 40
12.0
100
AcDbArc
 50
60.0
 51
120.0
1001
ACAD
1000
RTLwPs
1070
   128
  0
LINE
  5
3FEA
100
AcDbEntity
  8
MSL-115-P40-R-0
 48
2.0
100
AcDbLine
 10
1807.946829
 20
243.62632
 30
0.0
 11
1813.946829
 21
247.090421
 31
0.0
1001
ACAD
1000
RTLwPs
1070
   128
  0
LINE
  5
3FEB
100
AcDbEntity
  8
MSL-115-P40-R-0
 48
2.0
100
AcDbLine
 10
1801.946829
 20
233.234015
 30
0.0
 11
1801.946829
 21
240.162218
 31
0.0
1001
ACAD
1000
RTLwPs
1070
   128
  0
LINE
  5
3FEC
100
AcDbEntity
  8
MSL-115-P40-R-0
 48
2.0
100
AcDbLine
 10
1801.946829
 20
240.162218
 30
0.0
 11
1807.946829
 21
243.62632
 31
0.0
1001
ACAD
1000
RTLwPs
1070
   128
  0
ARC
  5
3FED
100
AcDbEntity
  8
MSL-115-P40-R-0
 48
2.0
100
AcDbCircle
 10
1813.946829
 20
233.234015
 30
0.0
 40
12.0
100
AcDbArc
 50
300.0
 51
0.0
1001
ACAD
1000
RTLwPs
1070
   128
  0
ARC
  5
3FEE
100
AcDbEntity
  8
MSL-115-P40-R-0
 48
2.0
100
AcDbCircle
 10
1813.946829
 20
233.234015
 30
0.0
 40
12.0
100
AcDbArc
 50
240.0
 51
300.0
1001
ACAD
1000
RTLwPs
1070
   128
  0
ARC
  5
3FEF
100
AcDbEntity
  8
MSL-115-P40-R-0
 48
2.0
100
AcDbCircle
 10
1813.946829
 20
233.234015
 30
0.0
 40
12.0
100
AcDbArc
 50
120.0
 51
180.0
1001
ACAD
1000
RTLwPs
1070
   128
  0
ARC
  5
3FF0
100
AcDbEntity
  8
MSL-115-P40-R-0
 48
2.0
100
AcDbCircle
 10
1813.946829
 20
233.234015
 30
0.0
 40
12.0
100
AcDbArc
 50
180.0
 51
240.0
1001
ACAD
1000
RTLwPs
1070
   128
  0
LINE
  5
3FF1
100
AcDbEntity
  8
MSL-115-P40-R-0
 48
2.0
100
AcDbLine
 10
1825.946829
 20
226.305811
 30
0.0
 11
1819.946829
 21
222.84171
 31
0.0
1001
ACAD
1000
RTLwPs
1070
   128
  0
LINE
  5
3FF2
100
AcDbEntity
  8
MSL-115-P40-R-0
 48
2.0
100
AcDbLine
 10
1813.946829
 20
219.377608
 30
0.0
 11
1807.946829
 21
222.84171
 31
0.0
1001
ACAD
1000
RTLwPs
1070
   128
  0
LINE
  5
3FF3
100
AcDbEntity
  8
MSL-115-P40-R-0
 48
2.0
100
AcDbLine
 10
1819.946829
 20
222.84171
 30
0.0
 11
1813.946829
 21
219.377608
 31
0.0
1001
ACAD
1000
RTLwPs
1070
   128
  0
LINE
  5
3FF4
100
AcDbEntity
  8
MSL-115-P40-R-0
 48
2.0
100
AcDbLine
 10
1825.946829
 20
233.234015
 30
0.0
 11
1825.946829
 21
226.305811
 31
0.0
1001
ACAD
1000
RTLwPs
1070
   128
  0
LINE
  5
3FF5
100
AcDbEntity
  8
MSL-115-P40-R-0
 48
2.0
100
AcDbLine
 10
1825.946829
 20
240.162218
 30
0.0
 11
1825.946829
 21
233.234015
 31
0.0
1001
ACAD
1000
RTLwPs
1070
   128
  0
LINE
  5
3FF6
100
AcDbEntity
  8
MSL-115-P40-R-0
 48
2.0
100
AcDbLine
 10
1819.946829
 20
243.62632
 30
0.0
 11
1825.946829
 21
240.162218
 31
0.0
1001
ACAD
1000
RTLwPs
1070
   128
  0
LINE
  5
3FF7
100
AcDbEntity
  8
MSL-115-P40-R-0
 48
2.0
100
AcDbLine
 10
1807.946829
 20
222.84171
 30
0.0
 11
1801.946829
 21
226.305811
 31
0.0
1001
ACAD
1000
RTLwPs
1070
   128
  0
LINE
  5
3FF8
100
AcDbEntity
  8
MSL-115-P40-R-0
 48
2.0
100
AcDbLine
 10
1801.946829
 20
226.305811
 30
0.0
 11
1801.946829
 21
233.234015
 31
0.0
1001
ACAD
1000
RTLwPs
1070
   128
  0
LINE
  5
3FF9
100
AcDbEntity
  8
MSL-115-P40-R-0
 48
2.0
100
AcDbLine
 10
1815.446829
 20
157.347263
 30
0.0
 11
1812.946829
 21
158.790639
 31
0.0
1001
ACAD
1000
RTLwPs
1070
   128
  0
LINE
  5
3FFA
100
AcDbEntity
  8
MSL-115-P40-R-0
 48
2.0
100
AcDbLine
 10
1817.946829
 20
158.790639
 30
0.0
 11
1815.446829
 21
157.347263
 31
0.0
1001
ACAD
1000
RTLwPs
1070
   128
  0
LINE
  5
3FFB
100
AcDbEntity
  8
MSL-115-P40-R-0
 48
2.0
100
AcDbLine
 10
1812.946829
 20
158.790639
 30
0.0
 11
1812.946829
 21
161.67739
 31
0.0
1001
ACAD
1000
RTLwPs
1070
   128
  0
LINE
  5
3FFC
100
AcDbEntity
  8
MSL-115-P40-R-0
 48
2.0
100
AcDbLine
 10
1817.946829
 20
161.67739
 30
0.0
 11
1817.946829
 21
158.790639
 31
0.0
1001
ACAD
1000
RTLwPs
1070
   128
  0
LINE
  5
3FFD
100
AcDbEntity
  8
MSL-115-P40-R-0
 48
2.0
100
AcDbLine
 10
1815.446829
 20
163.120766
 30
0.0
 11
1817.946829
 21
161.67739
 31
0.0
1001
ACAD
1000
RTLwPs
1070
   128
  0
LINE
  5
3FFE
100
AcDbEntity
  8
MSL-115-P40-R-0
 48
2.0
100
AcDbLine
 10
1812.946829
 20
161.67739
 30
0.0
 11
1815.446829
 21
163.120766
 31
0.0
1001
ACAD
1000
RTLwPs
1070
   128
  0
CIRCLE
  5
3FFF
100
AcDbEntity
  8
MSL-115-P40-R-0
 48
2.0
100
AcDbCircle
 10
1815.446829
 20
160.234015
 30
0.0
 40
5.0
1001
ACAD
1000
RTLwPs
1070
   128
  0
LINE
  5
4000
100
AcDbEntity
  8
MSL-115-P40-R-0
 48
2.0
100
AcDbLine
 10
1859.946829
 20
161.67739
 30
0.0
 11
1862.446829
 21
163.120766
 31
0.0
1001
ACAD
1000
RTLwPs
1070
   128
  0
CIRCLE
  5
4001
100
AcDbEntity
  8
MSL-115-P40-R-0
 48
2.0
100
AcDbCircle
 10
1862.446829
 20
160.234015
 30
0.0
 40
5.0
1001
ACAD
1000
RTLwPs
1070
   128
  0
LINE
  5
4002
100
AcDbEntity
  8
MSL-115-P40-R-0
 48
2.0
100
AcDbLine
 10
1862.446829
 20
157.347263
 30
0.0
 11
1859.946829
 21
158.790639
 31
0.0
1001
ACAD
1000
RTLwPs
1070
   128
  0
LINE
  5
4003
100
AcDbEntity
  8
MSL-115-P40-R-0
 48
2.0
100
AcDbLine
 10
1864.946829
 20
158.790639
 30
0.0
 11
1862.446829
 21
157.347263
 31
0.0
1001
ACAD
1000
RTLwPs
1070
   128
  0
LINE
  5
4004
100
AcDbEntity
  8
MSL-115-P40-R-0
 48
2.0
100
AcDbLine
 10
1859.946829
 20
158.790639
 30
0.0
 11
1859.946829
 21
161.67739
 31
0.0
1001
ACAD
1000
RTLwPs
1070
   128
  0
LINE
  5
4005
100
AcDbEntity
  8
MSL-115-P40-R-0
 48
2.0
100
AcDbLine
 10
1864.946829
 20
161.67739
 30
0.0
 11
1864.946829
 21
158.790639
 31
0.0
1001
ACAD
1000
RTLwPs
1070
   128
  0
LINE
  5
4006
100
AcDbEntity
  8
MSL-115-P40-R-0
 48
2.0
100
AcDbLine
 10
1862.446829
 20
163.120766
 30
0.0
 11
1864.946829
 21
161.67739
 31
0.0
1001
ACAD
1000
RTLwPs
1070
   128
  0
LINE
  5
4007
100
AcDbEntity
  8
MSL-115-P40-R-0
 48
2.0
100
AcDbLine
 10
1862.446829
 20
204.347263
 30
0.0
 11
1859.946829
 21
205.790639
 31
0.0
1001
ACAD
1000
RTLwPs
1070
   128
  0
LINE
  5
4008
100
AcDbEntity
  8
MSL-115-P40-R-0
 48
2.0
100
AcDbLine
 10
1864.946829
 20
205.790639
 30
0.0
 11
1862.446829
 21
204.347263
 31
0.0
1001
ACAD
1000
RTLwPs
1070
   128
  0
LINE
  5
4009
100
AcDbEntity
  8
MSL-115-P40-R-0
 48
2.0
100
AcDbLine
 10
1864.946829
 20
208.67739
 30
0.0
 11
1864.946829
 21
205.790639
 31
0.0
1001
ACAD
1000
RTLwPs
1070
   128
  0
LINE
  5
400A
100
AcDbEntity
  8
MSL-115-P40-R-0
 48
2.0
100
AcDbLine
 10
1859.946829
 20
205.790639
 30
0.0
 11
1859.946829
 21
208.67739
 31
0.0
1001
ACAD
1000
RTLwPs
1070
   128
  0
LINE
  5
400B
100
AcDbEntity
  8
MSL-115-P40-R-0
 48
2.0
100
AcDbLine
 10
1862.446829
 20
210.120766
 30
0.0
 11
1864.946829
 21
208.67739
 31
0.0
1001
ACAD
1000
RTLwPs
1070
   128
  0
LINE
  5
400C
100
AcDbEntity
  8
MSL-115-P40-R-0
 48
2.0
100
AcDbLine
 10
1859.946829
 20
208.67739
 30
0.0
 11
1862.446829
 21
210.120766
 31
0.0
1001
ACAD
1000
RTLwPs
1070
   128
  0
CIRCLE
  5
400D
100
AcDbEntity
  8
MSL-115-P40-R-0
 48
2.0
100
AcDbCircle
 10
1862.446829
 20
207.234015
 30
0.0
 40
5.0
1001
ACAD
1000
RTLwPs
1070
   128
  0
LINE
  5
400E
100
AcDbEntity
  8
MSL-115-P40-R-0
 48
2.0
100
AcDbLine
 10
1817.946829
 20
205.790639
 30
0.0
 11
1815.446829
 21
204.347263
 31
0.0
1001
ACAD
1000
RTLwPs
1070
   128
  0
LINE
  5
400F
100
AcDbEntity
  8
MSL-115-P40-R-0
 48
2.0
100
AcDbLine
 10
1815.446829
 20
204.347263
 30
0.0
 11
1812.946829
 21
205.790639
 31
0.0
1001
ACAD
1000
RTLwPs
1070
   128
  0
LINE
  5
4010
100
AcDbEntity
  8
MSL-115-P40-R-0
 48
2.0
100
AcDbLine
 10
1812.946829
 20
205.790639
 30
0.0
 11
1812.946829
 21
208.67739
 31
0.0
1001
ACAD
1000
RTLwPs
1070
   128
  0
LINE
  5
4011
100
AcDbEntity
  8
MSL-115-P40-R-0
 48
2.0
100
AcDbLine
 10
1815.446829
 20
210.120766
 30
0.0
 11
1817.946829
 21
208.67739
 31
0.0
1001
ACAD
1000
RTLwPs
1070
   128
  0
LINE
  5
4012
100
AcDbEntity
  8
MSL-115-P40-R-0
 48
2.0
100
AcDbLine
 10
1817.946829
 20
208.67739
 30
0.0
 11
1817.946829
 21
205.790639
 31
0.0
1001
ACAD
1000
RTLwPs
1070
   128
  0
LINE
  5
4013
100
AcDbEntity
  8
MSL-115-P40-R-0
 48
2.0
100
AcDbLine
 10
1812.946829
 20
208.67739
 30
0.0
 11
1815.446829
 21
210.120766
 31
0.0
1001
ACAD
1000
RTLwPs
1070
   128
  0
CIRCLE
  5
4014
100
AcDbEntity
  8
MSL-115-P40-R-0
 48
2.0
100
AcDbCircle
 10
1815.446829
 20
207.234015
 30
0.0
 40
5.0
1001
ACAD
1000
RTLwPs
1070
   128
  0
LINE
  5
4015
100
AcDbEntity
  8
MSL-115-P40-R-0
 48
2.0
100
AcDbLine
 10
1887.371862
 20
211.347287
 30
0.0
 11
1884.871862
 21
212.790663
 31
0.0
1001
ACAD
1000
RTLwPs
1070
   128
  0
LINE
  5
4016
100
AcDbEntity
  8
MSL-115-P40-R-0
 48
2.0
100
AcDbLine
 10
1889.871862
 20
212.790663
 30
0.0
 11
1887.371862
 21
211.347287
 31
0.0
1001
ACAD
1000
RTLwPs
1070
   128
  0
LINE
  5
4017
100
AcDbEntity
  8
MSL-115-P40-R-0
 48
2.0
100
AcDbLine
 10
1884.871862
 20
212.790663
 30
0.0
 11
1884.871862
 21
215.677414
 31
0.0
1001
ACAD
1000
RTLwPs
1070
   128
  0
LINE
  5
4018
100
AcDbEntity
  8
MSL-115-P40-R-0
 48
2.0
100
AcDbLine
 10
1889.871862
 20
215.677414
 30
0.0
 11
1889.871862
 21
212.790663
 31
0.0
1001
ACAD
1000
RTLwPs
1070
   128
  0
LINE
  5
4019
100
AcDbEntity
  8
MSL-115-P40-R-0
 48
2.0
100
AcDbLine
 10
1887.371862
 20
217.12079
 30
0.0
 11
1889.871862
 21
215.677414
 31
0.0
1001
ACAD
1000
RTLwPs
1070
   128
  0
LINE
  5
401A
100
AcDbEntity
  8
MSL-115-P40-R-0
 48
2.0
100
AcDbLine
 10
1884.871862
 20
215.677414
 30
0.0
 11
1887.371862
 21
217.12079
 31
0.0
1001
ACAD
1000
RTLwPs
1070
   128
  0
CIRCLE
  5
401B
100
AcDbEntity
  8
MSL-115-P40-R-0
 48
2.0
100
AcDbCircle
 10
1887.371862
 20
214.234038
 30
0.0
 40
5.0
1001
ACAD
1000
RTLwPs
1070
   128
  0
LINE
  5
401C
100
AcDbEntity
  8
MSL-115-P40-R-0
 48
2.0
100
AcDbLine
 10
1793.021862
 20
212.790663
 30
0.0
 11
1790.521862
 21
211.347287
 31
0.0
1001
ACAD
1000
RTLwPs
1070
   128
  0
LINE
  5
401D
100
AcDbEntity
  8
MSL-115-P40-R-0
 48
2.0
100
AcDbLine
 10
1790.521862
 20
211.347287
 30
0.0
 11
1788.021862
 21
212.790663
 31
0.0
1001
ACAD
1000
RTLwPs
1070
   128
  0
LINE
  5
401E
100
AcDbEntity
  8
MSL-115-P40-R-0
 48
2.0
100
AcDbLine
 10
1793.021862
 20
215.677414
 30
0.0
 11
1793.021862
 21
212.790663
 31
0.0
1001
ACAD
1000
RTLwPs
1070
   128
  0
LINE
  5
401F
100
AcDbEntity
  8
MSL-115-P40-R-0
 48
2.0
100
AcDbLine
 10
1788.021862
 20
212.790663
 30
0.0
 11
1788.021862
 21
215.677414
 31
0.0
1001
ACAD
1000
RTLwPs
1070
   128
  0
LINE
  5
4020
100
AcDbEntity
  8
MSL-115-P40-R-0
 48
2.0
100
AcDbLine
 10
1790.521862
 20
217.12079
 30
0.0
 11
1793.021862
 21
215.677414
 31
0.0
1001
ACAD
1000
RTLwPs
1070
   128
  0
LINE
  5
4021
100
AcDbEntity
  8
MSL-115-P40-R-0
 48
2.0
100
AcDbLine
 10
1788.021862
 20
215.677414
 30
0.0
 11
1790.521862
 21
217.12079
 31
0.0
1001
ACAD
1000
RTLwPs
1070
   128
  0
CIRCLE
  5
4022
100
AcDbEntity
  8
MSL-115-P40-R-0
 48
2.0
100
AcDbCircle
 10
1790.521862
 20
214.234038
 30
0.0
 40
5.0
1001
ACAD
1000
RTLwPs
1070
   128
  0
LINE
  5
4023
100
AcDbEntity
  8
MSL-115-P40-R-0
 48
2.0
100
AcDbLine
 10
1867.871829
 20
140.447263
 30
0.0
 11
1865.371829
 21
141.890639
 31
0.0
1001
ACAD
1000
RTLwPs
1070
   128
  0
LINE
  5
4024
100
AcDbEntity
  8
MSL-115-P40-R-0
 48
2.0
100
AcDbLine
 10
1870.371829
 20
141.890639
 30
0.0
 11
1867.871829
 21
140.447263
 31
0.0
1001
ACAD
1000
RTLwPs
1070
   128
  0
LINE
  5
4025
100
AcDbEntity
  8
MSL-115-P40-R-0
 48
2.0
100
AcDbLine
 10
1865.371829
 20
141.890639
 30
0.0
 11
1865.371829
 21
144.77739
 31
0.0
1001
ACAD
1000
RTLwPs
1070
   128
  0
LINE
  5
4026
100
AcDbEntity
  8
MSL-115-P40-R-0
 48
2.0
100
AcDbLine
 10
1870.371829
 20
144.77739
 30
0.0
 11
1870.371829
 21
141.890639
 31
0.0
1001
ACAD
1000
RTLwPs
1070
   128
  0
LINE
  5
4027
100
AcDbEntity
  8
MSL-115-P40-R-0
 48
2.0
100
AcDbLine
 10
1867.871829
 20
146.220766
 30
0.0
 11
1870.371829
 21
144.77739
 31
0.0
1001
ACAD
1000
RTLwPs
1070
   128
  0
CIRCLE
  5
4028
100
AcDbEntity
  8
MSL-115-P40-R-0
 48
2.0
100
AcDbCircle
 10
1867.871829
 20
143.334015
 30
0.0
 40
5.0
1001
ACAD
1000
RTLwPs
1070
   128
  0
LINE
  5
4029
100
AcDbEntity
  8
MSL-115-P40-R-0
 48
2.0
100
AcDbLine
 10
1865.371829
 20
144.77739
 30
0.0
 11
1867.871829
 21
146.220766
 31
0.0
1001
ACAD
1000
RTLwPs
1070
   128
  0
LINE
  5
402A
100
AcDbEntity
  8
MSL-115-P40-R-0
 48
2.0
100
AcDbLine
 10
1810.021829
 20
140.447263
 30
0.0
 11
1807.521829
 21
141.890639
 31
0.0
1001
ACAD
1000
RTLwPs
1070
   128
  0
LINE
  5
402B
100
AcDbEntity
  8
MSL-115-P40-R-0
 48
2.0
100
AcDbLine
 10
1812.521829
 20
141.890639
 30
0.0
 11
1810.021829
 21
140.447263
 31
0.0
1001
ACAD
1000
RTLwPs
1070
   128
  0
LINE
  5
402C
100
AcDbEntity
  8
MSL-115-P40-R-0
 48
2.0
100
AcDbLine
 10
1807.521829
 20
141.890639
 30
0.0
 11
1807.521829
 21
144.77739
 31
0.0
1001
ACAD
1000
RTLwPs
1070
   128
  0
LINE
  5
402D
100
AcDbEntity
  8
MSL-115-P40-R-0
 48
2.0
100
AcDbLine
 10
1812.521829
 20
144.77739
 30
0.0
 11
1812.521829
 21
141.890639
 31
0.0
1001
ACAD
1000
RTLwPs
1070
   128
  0
LINE
  5
402E
100
AcDbEntity
  8
MSL-115-P40-R-0
 48
2.0
100
AcDbLine
 10
1810.021829
 20
146.220766
 30
0.0
 11
1812.521829
 21
144.77739
 31
0.0
1001
ACAD
1000
RTLwPs
1070
   128
  0
CIRCLE
  5
402F
100
AcDbEntity
  8
MSL-115-P40-R-0
 48
2.0
100
AcDbCircle
 10
1810.021829
 20
143.334015
 30
0.0
 40
5.0
1001
ACAD
1000
RTLwPs
1070
   128
  0
LINE
  5
4030
100
AcDbEntity
  8
MSL-115-P40-R-0
 48
2.0
100
AcDbLine
 10
1807.521829
 20
144.77739
 30
0.0
 11
1810.021829
 21
146.220766
 31
0.0
1001
ACAD
1000
RTLwPs
1070
   128
  0
LINE
  5
4031
100
AcDbEntity
  8
MSL-115-P40-R-0
 48
2.0
100
AcDbLine
 10
1842.896829
 20
214.734015
 30
0.0
 11
1842.896829
 21
229.734015
 31
0.0
1001
ACAD
1000
RTLwPs
1070
   128
  0
LINE
  5
4032
100
AcDbEntity
  8
MSL-115-P40-R-0
 48
2.0
100
AcDbLine
 10
1834.996829
 20
229.734015
 30
0.0
 11
1834.996829
 21
214.734015
 31
0.0
1001
ACAD
1000
RTLwPs
1070
   128
  0
LINE
  5
4033
100
AcDbEntity
  8
MSL-115-P40-R-0
 48
2.0
100
AcDbLine
 10
1837.446829
 20
214.734015
 30
0.0
 11
1837.446829
 21
202.734015
 31
0.0
1001
ACAD
1000
RTLwPs
1070
   128
  0
LINE
  5
4034
100
AcDbEntity
  8
MSL-115-P40-R-0
 48
2.0
100
AcDbLine
 10
1840.446829
 20
202.734015
 30
0.0
 11
1840.446829
 21
214.734015
 31
0.0
1001
ACAD
1000
RTLwPs
1070
   128
  0
LINE
  5
4035
100
AcDbEntity
  8
MSL-115-P40-R-0
 48
2.0
100
AcDbLine
 10
1834.996829
 20
214.734015
 30
0.0
 11
1842.896829
 21
214.734015
 31
0.0
1001
ACAD
1000
RTLwPs
1070
   128
  0
LINE
  5
4036
100
AcDbEntity
  8
MSL-115-P40-R-0
 48
2.0
100
AcDbLine
 10
1840.446829
 20
202.734015
 30
0.0
 11
1837.446829
 21
202.734015
 31
0.0
1001
ACAD
1000
RTLwPs
1070
   128
  0
ARC
  5
4037
100
AcDbEntity
  8
MSL-115-P40-R-0
 48
2.0
100
AcDbCircle
 10
1840.946829
 20
238.734015
 30
0.0
 40
2.0
100
AcDbArc
 50
0.0
 51
90.0
1001
ACAD
1000
RTLwPs
1070
   128
  0
LINE
  5
4038
100
AcDbEntity
  8
MSL-115-P40-R-0
 48
2.0
100
AcDbLine
 10
1836.946829
 20
240.734015
 30
0.0
 11
1840.946829
 21
240.734015
 31
0.0
1001
ACAD
1000
RTLwPs
1070
   128
  0
LINE
  5
4039
100
AcDbEntity
  8
MSL-115-P40-R-0
 48
2.0
100
AcDbLine
 10
1842.946829
 20
238.734015
 30
0.0
 11
1842.946829
 21
229.734015
 31
0.0
1001
ACAD
1000
RTLwPs
1070
   128
  0
ARC
  5
403A
100
AcDbEntity
  8
MSL-115-P40-R-0
 48
2.0
100
AcDbCircle
 10
1836.946829
 20
238.734015
 30
0.0
 40
2.0
100
AcDbArc
 50
90.0
 51
180.0
1001
ACAD
1000
RTLwPs
1070
   128
  0
LINE
  5
403B
100
AcDbEntity
  8
MSL-115-P40-R-0
 48
2.0
100
AcDbLine
 10
1834.946829
 20
229.734015
 30
0.0
 11
1834.946829
 21
238.734015
 31
0.0
1001
ACAD
1000
RTLwPs
1070
   128
  0
LINE
  5
403C
100
AcDbEntity
  8
MSL-115-P40-R-0
 48
2.0
100
AcDbLine
 10
1834.946829
 20
229.734015
 30
0.0
 11
1842.946829
 21
229.734015
 31
0.0
1001
ACAD
1000
RTLwPs
1070
   128
  0
ARC
  5
403D
100
AcDbEntity
  8
MSL-115-P40-R-0
 48
2.0
100
AcDbCircle
 10
1838.946829
 20
234.234015
 30
0.0
 40
7.5
100
AcDbArc
 50
301.78051
 51
0.0
1001
ACAD
1000
RTLwPs
1070
   128
  0
ARC
  5
403E
100
AcDbEntity
  8
MSL-115-P40-R-0
 48
2.0
100
AcDbCircle
 10
1838.946829
 20
234.234015
 30
0.0
 40
7.5
100
AcDbArc
 50
0.0
 51
238.21949
1001
ACAD
1000
RTLwPs
1070
   128
  0
ARC
  5
403F
100
AcDbEntity
  8
MSL-115-P40-R-0
 48
2.0
100
AcDbCircle
 10
1838.946829
 20
234.234015
 30
0.0
 40
7.232051
100
AcDbArc
 50
303.105323
 51
0.0
1001
ACAD
1000
RTLwPs
1070
   128
  0
ARC
  5
4040
100
AcDbEntity
  8
MSL-115-P40-R-0
 48
2.0
100
AcDbCircle
 10
1838.946829
 20
234.234015
 30
0.0
 40
7.232051
100
AcDbArc
 50
0.0
 51
236.894677
1001
ACAD
1000
RTLwPs
1070
   128
  0
LINE
  5
4041
100
AcDbEntity
  8
MSL-115-P40-R-0
 48
2.0
100
AcDbLine
 10
1776.446829
 20
244.234015
 30
0.0
 11
1779.446829
 21
247.234015
 31
0.0
1001
ACAD
1000
RTLwPs
1070
   128
  0
LINE
  5
4042
100
AcDbEntity
  8
MSL-115-P40-R-0
 48
2.0
100
AcDbLine
 10
1898.446829
 20
247.234015
 30
0.0
 11
1901.446829
 21
244.234015
 31
0.0
1001
ACAD
1000
RTLwPs
1070
   128
  0
LINE
  5
4043
100
AcDbEntity
  8
MSL-115-P40-R-0
 48
2.0
100
AcDbLine
 10
1779.446829
 20
247.234015
 30
0.0
 11
1898.446829
 21
247.234015
 31
0.0
1001
ACAD
1000
RTLwPs
1070
   128
  0
LINE
  5
4044
100
AcDbEntity
  8
MSL-115-P40-R-0
 48
2.0
100
AcDbLine
 10
1901.446829
 20
133.234015
 30
0.0
 11
1776.446829
 21
133.234015
 31
0.0
1001
ACAD
1000
RTLwPs
1070
   128
  0
LINE
  5
4045
100
AcDbEntity
  8
MSL-115-P40-R-0
 48
2.0
100
AcDbLine
 10
1776.446829
 20
133.234015
 30
0.0
 11
1776.446829
 21
244.234015
 31
0.0
1001
ACAD
1000
RTLwPs
1070
   128
  0
LINE
  5
4046
100
AcDbEntity
  8
MSL-115-P40-R-0
 48
2.0
100
AcDbLine
 10
1901.446829
 20
244.234015
 30
0.0
 11
1901.446829
 21
133.234015
 31
0.0
1001
ACAD
1000
RTLwPs
1070
   128
  0
CIRCLE
  5
4047
100
AcDbEntity
  8
MSL-115-P40-R-0
 48
2.0
100
AcDbCircle
 10
1867.871829
 20
143.334015
 30
0.0
 40
5.5
1001
ACAD
1000
RTLwPs
1070
   128
  0
CIRCLE
  5
4048
100
AcDbEntity
  8
MSL-115-P40-R-0
 48
2.0
100
AcDbCircle
 10
1887.371862
 20
214.234038
 30
0.0
 40
5.5
1001
ACAD
1000
RTLwPs
1070
   128
  0
CIRCLE
  5
4049
100
AcDbEntity
  8
MSL-115-P40-R-0
 48
2.0
100
AcDbCircle
 10
1790.521862
 20
214.234038
 30
0.0
 40
5.5
1001
ACAD
1000
RTLwPs
1070
   128
  0
CIRCLE
  5
404A
100
AcDbEntity
  8
MSL-115-P40-R-0
 48
2.0
100
AcDbCircle
 10
1810.021829
 20
143.334015
 30
0.0
 40
5.5
1001
ACAD
1000
RTLwPs
1070
   128
  0
CIRCLE
  5
404B
100
AcDbEntity
  8
MSL-115-P40-R-0
 48
2.0
100
AcDbCircle
 10
1815.446829
 20
160.234015
 30
0.0
 40
5.5
1001
ACAD
1000
RTLwPs
1070
   128
  0
CIRCLE
  5
404C
100
AcDbEntity
  8
MSL-115-P40-R-0
 48
2.0
100
AcDbCircle
 10
1815.446829
 20
207.234015
 30
0.0
 40
5.5
1001
ACAD
1000
RTLwPs
1070
   128
  0
CIRCLE
  5
404D
100
AcDbEntity
  8
MSL-115-P40-R-0
 48
2.0
100
AcDbCircle
 10
1862.446829
 20
207.234015
 30
0.0
 40
5.5
1001
ACAD
1000
RTLwPs
1070
   128
  0
CIRCLE
  5
404E
100
AcDbEntity
  8
MSL-115-P40-R-0
 48
2.0
100
AcDbCircle
 10
1862.446829
 20
160.234015
 30
0.0
 40
5.5
1001
ACAD
1000
RTLwPs
1070
   128
  0
ARC
  5
404F
100
AcDbEntity
  8
MSL-115-P40-R-0
 48
2.0
100
AcDbCircle
 10
1838.946829
 20
234.234015
 30
0.0
 40
7.5
100
AcDbArc
 50
301.78051
 51
0.0
1001
ACAD
1000
RTLwPs
1070
   128
  0
ARC
  5
4050
100
AcDbEntity
  8
MSL-115-P40-R-0
 48
2.0
100
AcDbCircle
 10
1838.946829
 20
234.234015
 30
0.0
 40
7.5
100
AcDbArc
 50
0.0
 51
238.21949
1001
ACAD
1000
RTLwPs
1070
   128
  0
ARC
  5
4051
100
AcDbEntity
  8
MSL-115-P40-R-0
 48
2.0
100
AcDbCircle
 10
1838.946829
 20
211.934015
 30
0.0
 40
4.0
100
AcDbArc
 50
292.024313
 51
0.0
1001
ACAD
1000
RTLwPs
1070
   128
  0
ARC
  5
4052
100
AcDbEntity
  8
MSL-115-P40-R-0
 48
2.0
100
AcDbCircle
 10
1838.946829
 20
211.934015
 30
0.0
 40
4.0
100
AcDbArc
 50
135.572996
 51
247.975687
1001
ACAD
1000
RTLwPs
1070
   128
  0
ARC
  5
4053
100
AcDbEntity
  8
MSL-115-P40-R-0
 48
2.0
100
AcDbCircle
 10
1838.946829
 20
211.934015
 30
0.0
 40
4.0
100
AcDbArc
 50
0.0
 51
44.427004
1001
ACAD
1000
RTLwPs
1070
   128
  0
LINE
  5
4054
100
AcDbEntity
  8
MSL-115-P40-R-0
 48
2.0
100
AcDbLine
 10
1772.946829
 20
247.234015
 30
0.0
 11
1771.946829
 21
246.234015
 31
0.0
1001
ACAD
1000
RTLwPs
1070
   128
  0
LINE
  5
4055
100
AcDbEntity
  8
MSL-115-P40-R-0
 48
2.0
100
AcDbLine
 10
1771.946829
 20
226.234015
 30
0.0
 11
1772.946829
 21
225.234015
 31
0.0
1001
ACAD
1000
RTLwPs
1070
   128
  0
LINE
  5
4056
100
AcDbEntity
  8
MSL-115-P40-R-0
 48
2.0
100
AcDbLine
 10
1898.446829
 20
247.234015
 30
0.0
 11
1904.946829
 21
247.234015
 31
0.0
1001
ACAD
1000
RTLwPs
1070
   128
  0
LINE
  5
4057
100
AcDbEntity
  8
MSL-115-P40-R-0
 48
2.0
100
AcDbLine
 10
1772.946829
 20
247.234015
 30
0.0
 11
1779.446829
 21
247.234015
 31
0.0
1001
ACAD
1000
RTLwPs
1070
   128
  0
LINE
  5
4058
100
AcDbEntity
  8
MSL-115-P40-R-0
 48
2.0
100
AcDbLine
 10
1776.446829
 20
225.234015
 30
0.0
 11
1772.946829
 21
225.234015
 31
0.0
1001
ACAD
1000
RTLwPs
1070
   128
  0
LINE
  5
4059
100
AcDbEntity
  8
MSL-115-P40-R-0
 48
2.0
100
AcDbLine
 10
1904.946829
 20
225.234015
 30
0.0
 11
1901.446829
 21
225.234015
 31
0.0
1001
ACAD
1000
RTLwPs
1070
   128
  0
LINE
  5
405A
100
AcDbEntity
  8
MSL-115-P40-R-0
 48
2.0
100
AcDbLine
 10
1905.946829
 20
246.234015
 30
0.0
 11
1905.946829
 21
226.234015
 31
0.0
1001
ACAD
1000
RTLwPs
1070
   128
  0
LINE
  5
405B
100
AcDbEntity
  8
MSL-115-P40-R-0
 48
2.0
100
AcDbLine
 10
1904.946829
 20
225.234015
 30
0.0
 11
1905.946829
 21
226.234015
 31
0.0
1001
ACAD
1000
RTLwPs
1070
   128
  0
LINE
  5
405C
100
AcDbEntity
  8
MSL-115-P40-R-0
 48
2.0
100
AcDbLine
 10
1771.946829
 20
226.234015
 30
0.0
 11
1771.946829
 21
246.234015
 31
0.0
1001
ACAD
1000
RTLwPs
1070
   128
  0
LINE
  5
405D
100
AcDbEntity
  8
MSL-115-P40-R-0
 48
2.0
100
AcDbLine
 10
1905.946829
 20
246.234015
 30
0.0
 11
1904.946829
 21
247.234015
 31
0.0
1001
ACAD
1000
RTLwPs
1070
   128
  0
LINE
  5
405E
100
AcDbEntity
  8
MSL-115-P40-R-0
 48
2.0
100
AcDbLine
 10
1901.446829
 20
201.234015
 30
0.0
 11
1906.371829
 21
201.234015
 31
0.0
1001
ACAD
1000
RTLwPs
1070
   128
  0
LINE
  5
405F
100
AcDbEntity
  8
MSL-115-P40-R-0
 48
2.0
100
AcDbLine
 10
1905.946829
 20
235.234015
 30
0.0
 11
1906.371829
 21
235.234015
 31
0.0
1001
ACAD
1000
RTLwPs
1070
   128
  0
LINE
  5
4060
100
AcDbEntity
  8
MSL-115-P40-R-0
 48
2.0
100
AcDbLine
 10
1906.371829
 20
201.234015
 30
0.0
 11
1906.371829
 21
235.234015
 31
0.0
1001
ACAD
1000
RTLwPs
1070
   128
  0
LINE
  5
4061
100
AcDbEntity
  8
MSL-115-P40-R-0
 48
2.0
100
AcDbLine
 10
1771.521829
 20
201.234015
 30
0.0
 11
1776.446829
 21
201.234015
 31
0.0
1001
ACAD
1000
RTLwPs
1070
   128
  0
LINE
  5
4062
100
AcDbEntity
  8
MSL-115-P40-R-0
 48
2.0
100
AcDbLine
 10
1771.521829
 20
201.234015
 30
0.0
 11
1771.521829
 21
235.234015
 31
0.0
1001
ACAD
1000
RTLwPs
1070
   128
  0
LINE
  5
4063
100
AcDbEntity
  8
MSL-115-P40-R-0
 48
2.0
100
AcDbLine
 10
1771.521829
 20
235.234015
 30
0.0
 11
1771.946829
 21
235.234015
 31
0.0
1001
ACAD
1000
RTLwPs
1070
   128
  0
LINE
  5
4064
100
AcDbEntity
  8
MSL-115-P40-R-0
 48
2.0
100
AcDbLine
 10
1906.446829
 20
235.234015
 30
0.0
 11
1905.946829
 21
235.234015
 31
0.0
1001
ACAD
1000
RTLwPs
1070
   128
  0
LINE
  5
4065
100
AcDbEntity
  8
MSL-115-P40-R-0
 48
2.0
100
AcDbLine
 10
1826.446829
 20
247.234015
 30
0.0
 11
1826.446829
 21
247.734015
 31
0.0
1001
ACAD
1000
RTLwPs
1070
   128
  0
LINE
  5
4066
100
AcDbEntity
  8
MSL-115-P40-R-0
 48
2.0
100
AcDbLine
 10
1851.446829
 20
247.734015
 30
0.0
 11
1851.446829
 21
247.234015
 31
0.0
1001
ACAD
1000
RTLwPs
1070
   128
  0
LINE
  5
4067
100
AcDbEntity
  8
MSL-115-P40-R-0
 48
2.0
100
AcDbLine
 10
1771.946829
 20
247.734015
 30
0.0
 11
1771.446829
 21
247.234015
 31
0.0
1001
ACAD
1000
RTLwPs
1070
   128
  0
LINE
  5
4068
100
AcDbEntity
  8
MSL-115-P40-R-0
 48
2.0
100
AcDbLine
 10
1906.446829
 20
247.234015
 30
0.0
 11
1906.446829
 21
235.234015
 31
0.0
1001
ACAD
1000
RTLwPs
1070
   128
  0
LINE
  5
4069
100
AcDbEntity
  8
MSL-115-P40-R-0
 48
2.0
100
AcDbLine
 10
1771.446829
 20
247.234015
 30
0.0
 11
1771.446829
 21
235.234015
 31
0.0
1001
ACAD
1000
RTLwPs
1070
   128
  0
LINE
  5
406A
100
AcDbEntity
  8
MSL-115-P40-R-0
 48
2.0
100
AcDbLine
 10
1905.946829
 20
247.734015
 30
0.0
 11
1851.446829
 21
247.734015
 31
0.0
1001
ACAD
1000
RTLwPs
1070
   128
  0
LINE
  5
406B
100
AcDbEntity
  8
MSL-115-P40-R-0
 48
2.0
100
AcDbLine
 10
1771.946829
 20
235.234015
 30
0.0
 11
1771.446829
 21
235.234015
 31
0.0
1001
ACAD
1000
RTLwPs
1070
   128
  0
LINE
  5
406C
100
AcDbEntity
  8
MSL-115-P40-R-0
 48
2.0
100
AcDbLine
 10
1906.446829
 20
247.234015
 30
0.0
 11
1905.946829
 21
247.734015
 31
0.0
1001
ACAD
1000
RTLwPs
1070
   128
  0
LINE
  5
406D
100
AcDbEntity
  8
MSL-115-P40-R-0
 48
2.0
100
AcDbLine
 10
1826.446829
 20
247.734015
 30
0.0
 11
1771.946829
 21
247.734015
 31
0.0
1001
ACAD
1000
RTLwPs
1070
   128
  0
ARC
  5
406E
100
AcDbEntity
  8
MSL-115-P40-R-0
 48
2.0
100
AcDbCircle
 10
1795.645691
 20
132.934015
 30
0.0
 40
0.2
100
AcDbArc
 50
180.0
 51
270.0
1001
ACAD
1000
RTLwPs
1070
   128
  0
ARC
  5
406F
100
AcDbEntity
  8
MSL-115-P40-R-0
 48
2.0
100
AcDbCircle
 10
1785.247967
 20
132.934015
 30
0.0
 40
0.2
100
AcDbArc
 50
270.0
 51
0.0
1001
ACAD
1000
RTLwPs
1070
   128
  0
ARC
  5
4070
100
AcDbEntity
  8
MSL-115-P40-R-0
 48
2.0
100
AcDbCircle
 10
1892.645691
 20
132.934015
 30
0.0
 40
0.2
100
AcDbArc
 50
180.0
 51
270.0
1001
ACAD
1000
RTLwPs
1070
   128
  0
ARC
  5
4071
100
AcDbEntity
  8
MSL-115-P40-R-0
 48
2.0
100
AcDbCircle
 10
1882.247967
 20
132.934015
 30
0.0
 40
0.2
100
AcDbArc
 50
270.0
 51
0.0
1001
ACAD
1000
RTLwPs
1070
   128
  0
LINE
  5
4072
100
AcDbEntity
  8
MSL-115-P40-R-0
 48
2.0
100
AcDbLine
 10
1795.445691
 20
132.934015
 30
0.0
 11
1795.445691
 21
133.234015
 31
0.0
1001
ACAD
1000
RTLwPs
1070
   128
  0
LINE
  5
4073
100
AcDbEntity
  8
MSL-115-P40-R-0
 48
2.0
100
AcDbLine
 10
1818.946829
 20
132.734015
 30
0.0
 11
1795.645691
 21
132.734015
 31
0.0
1001
ACAD
1000
RTLwPs
1070
   128
  0
LINE
  5
4074
100
AcDbEntity
  8
MSL-115-P40-R-0
 48
2.0
100
AcDbLine
 10
1818.946829
 20
133.234015
 30
0.0
 11
1818.946829
 21
132.734015
 31
0.0
1001
ACAD
1000
RTLwPs
1070
   128
  0
LINE
  5
4075
100
AcDbEntity
  8
MSL-115-P40-R-0
 48
2.0
100
AcDbLine
 10
1785.447967
 20
133.234015
 30
0.0
 11
1785.447967
 21
132.934015
 31
0.0
1001
ACAD
1000
RTLwPs
1070
   128
  0
LINE
  5
4076
100
AcDbEntity
  8
MSL-115-P40-R-0
 48
2.0
100
AcDbLine
 10
1776.446829
 20
132.734015
 30
0.0
 11
1776.446829
 21
133.234015
 31
0.0
1001
ACAD
1000
RTLwPs
1070
   128
  0
LINE
  5
4077
100
AcDbEntity
  8
MSL-115-P40-R-0
 48
2.0
100
AcDbLine
 10
1882.447967
 20
132.934015
 30
0.0
 11
1882.447967
 21
133.234015
 31
0.0
1001
ACAD
1000
RTLwPs
1070
   128
  0
LINE
  5
4078
100
AcDbEntity
  8
MSL-115-P40-R-0
 48
2.0
100
AcDbLine
 10
1858.946829
 20
132.734015
 30
0.0
 11
1882.247967
 21
132.734015
 31
0.0
1001
ACAD
1000
RTLwPs
1070
   128
  0
LINE
  5
4079
100
AcDbEntity
  8
MSL-115-P40-R-0
 48
2.0
100
AcDbLine
 10
1858.946829
 20
133.234015
 30
0.0
 11
1858.946829
 21
132.734015
 31
0.0
1001
ACAD
1000
RTLwPs
1070
   128
  0
LINE
  5
407A
100
AcDbEntity
  8
MSL-115-P40-R-0
 48
2.0
100
AcDbLine
 10
1892.645691
 20
132.734015
 30
0.0
 11
1901.446829
 21
132.734015
 31
0.0
1001
ACAD
1000
RTLwPs
1070
   128
  0
LINE
  5
407B
100
AcDbEntity
  8
MSL-115-P40-R-0
 48
2.0
100
AcDbLine
 10
1892.445691
 20
133.234015
 30
0.0
 11
1892.445691
 21
132.934015
 31
0.0
1001
ACAD
1000
RTLwPs
1070
   128
  0
LINE
  5
407C
100
AcDbEntity
  8
MSL-115-P40-R-0
 48
2.0
100
AcDbLine
 10
1901.446829
 20
132.734015
 30
0.0
 11
1901.446829
 21
133.234015
 31
0.0
1001
ACAD
1000
RTLwPs
1070
   128
  0
LINE
  5
407D
100
AcDbEntity
  8
MSL-115-P40-R-0
 48
2.0
100
AcDbLine
 10
1785.247967
 20
132.734015
 30
0.0
 11
1776.446829
 21
132.734015
 31
0.0
1001
ACAD
1000
RTLwPs
1070
   128
  0
LINE
  5
407E
100
AcDbEntity
  8
MSL-115-P40-R-7A
 48
2.0
100
AcDbLine
 10
1294.748007
 20
-27.464693
 30
0.0
 11
1306.759503
 21
-27.464693
 31
0.0
  0
LINE
  5
407F
100
AcDbEntity
  8
MSL-115-P40-R-7A
 48
2.0
100
AcDbLine
 10
1292.98161
 20
69.535307
 30
0.0
 11
1306.759503
 21
69.535307
 31
0.0
  0
LINE
  5
4080
100
AcDbEntity
  8
MSL-115-P40-R-0
 48
2.0
100
AcDbLine
 10
1726.908508
 20
223.234015
 30
0.0
 11
1727.908508
 21
224.234015
 31
0.0
  0
LINE
  5
4081
100
AcDbEntity
  8
MSL-115-P40-R-0
 48
2.0
100
AcDbLine
 10
1710.608508
 20
223.234015
 30
0.0
 11
1726.908508
 21
223.234015
 31
0.0
  0
LINE
  5
4082
100
AcDbEntity
  8
MSL-115-P40-R-0
 48
2.0
100
AcDbLine
 10
1726.908508
 20
243.234015
 30
0.0
 11
1727.908508
 21
242.234015
 31
0.0
  0
LINE
  5
4083
100
AcDbEntity
  8
MSL-115-P40-R-0
 48
2.0
100
AcDbLine
 10
1678.408508
 20
243.234015
 30
0.0
 11
1726.908508
 21
243.234015
 31
0.0
  0
POLYLINE
  5
4084
100
AcDbEntity
  8
MSL-115-P40-R-0
 48
2.0
100
AcDb2dPolyline
 66
     1
 10
0.0
 20
0.0
 30
0.0
  0
VERTEX
  5
4085
100
AcDbEntity
  8
MSL-115-P40-R-0
 48
2.0
100
AcDbVertex
100
AcDb2dVertex
 10
1678.408508
 20
223.234015
 30
0.0
  0
VERTEX
  5
4086
100
AcDbEntity
  8
MSL-115-P40-R-0
 48
2.0
100
AcDbVertex
100
AcDb2dVertex
 10
1702.708508
 20
223.234015
 30
0.0
  0
SEQEND
  5
4087
100
AcDbEntity
  8
MSL-115-P40-R-0
 48
2.0
  0
LINE
  5
4088
100
AcDbEntity
  8
MSL-115-P40-R-5
 48
2.0
100
AcDbLine
 10
1702.708508
 20
223.734015
 30
0.0
 11
1678.408508
 21
223.734015
 31
0.0
  0
LINE
  5
4089
100
AcDbEntity
  8
MSL-115-P40-R-0
 48
2.0
100
AcDbLine
 10
1288.908508
 20
230.234015
 30
0.0
 11
1288.908508
 21
225.734015
 31
0.0
  0
LINE
  5
408A
100
AcDbEntity
  8
MSL-115-P40-R-0
 48
2.0
100
AcDbLine
 10
1290.908508
 20
230.234015
 30
0.0
 11
1290.908508
 21
225.734015
 31
0.0
  0
LINE
  5
408B
100
AcDbEntity
  8
MSL-115-P40-R-0
 48
2.0
100
AcDbLine
 10
1290.408508
 20
230.234015
 30
0.0
 11
1290.408508
 21
225.734015
 31
0.0
  0
LINE
  5
408C
100
AcDbEntity
  8
MSL-115-P40-R-0
 48
2.0
100
AcDbLine
 10
1291.408508
 20
226.984015
 30
0.0
 11
1290.908508
 21
227.484015
 31
0.0
  0
LINE
  5
408D
100
AcDbEntity
  8
MSL-115-P40-R-0
 48
2.0
100
AcDbLine
 10
1293.908508
 20
226.984015
 30
0.0
 11
1291.408508
 21
226.984015
 31
0.0
  0
ARC
  5
408E
100
AcDbEntity
  8
MSL-115-P40-R-0
 48
2.0
100
AcDbCircle
 10
1293.908508
 20
226.484015
 30
0.0
 40
0.5
100
AcDbArc
 50
0.0
 51
90.0
  0
LINE
  5
408F
100
AcDbEntity
  8
MSL-115-P40-R-0
 48
2.0
100
AcDbLine
 10
1294.408508
 20
225.734015
 30
0.0
 11
1294.408508
 21
226.484015
 31
0.0
  0
POLYLINE
  5
4090
100
AcDbEntity
  8
MSL-115-P40-R-0
 48
2.0
100
AcDb2dPolyline
 66
     1
 10
0.0
 20
0.0
 30
0.0
  0
VERTEX
  5
4091
100
AcDbEntity
  8
MSL-115-P40-R-0
 48
2.0
100
AcDbVertex
100
AcDb2dVertex
 10
1261.408508
 20
223.234015
 30
0.0
  0
VERTEX
  5
4092
100
AcDbEntity
  8
MSL-115-P40-R-0
 48
2.0
100
AcDbVertex
100
AcDb2dVertex
 10
1237.108508
 20
223.234015
 30
0.0
  0
SEQEND
  5
4093
100
AcDbEntity
  8
MSL-115-P40-R-0
 48
2.0
  0
LINE
  5
4094
100
AcDbEntity
  8
MSL-115-P40-R-5
 48
2.0
100
AcDbLine
 10
1237.108508
 20
223.734015
 30
0.0
 11
1261.408508
 21
223.734015
 31
0.0
  0
POLYLINE
  5
4095
100
AcDbEntity
  8
MSL-115-P40-R-0
 48
2.0
100
AcDb2dPolyline
 66
     1
 10
0.0
 20
0.0
 30
0.0
  0
VERTEX
  5
4096
100
AcDbEntity
  8
MSL-115-P40-R-0
 48
2.0
100
AcDbVertex
100
AcDb2dVertex
 10
1288.908508
 20
238.234015
 30
0.0
  0
VERTEX
  5
4097
100
AcDbEntity
  8
MSL-115-P40-R-0
 48
2.0
100
AcDbVertex
100
AcDb2dVertex
 10
1288.908508
 20
242.234015
 30
0.0
  0
VERTEX
  5
4098
100
AcDbEntity
  8
MSL-115-P40-R-0
 48
2.0
100
AcDbVertex
100
AcDb2dVertex
 10
1287.908508
 20
243.234015
 30
0.0
  0
VERTEX
  5
4099
100
AcDbEntity
  8
MSL-115-P40-R-0
 48
2.0
100
AcDbVertex
100
AcDb2dVertex
 10
1283.941472
 20
243.234015
 30
0.0
  0
SEQEND
  5
409A
100
AcDbEntity
  8
MSL-115-P40-R-0
 48
2.0
  0
LINE
  5
409C
100
AcDbEntity
  8
MSL-115-P40-R-5
 48
2.0
100
AcDbLine
 10
1212.408508
 20
242.734015
 30
0.0
 11
1261.408508
 21
242.734015
 31
0.0
  0
LINE
  5
409D
100
AcDbEntity
  8
MSL-115-P40-R-5
 48
2.0
100
AcDbLine
 10
1212.408508
 20
223.734015
 30
0.0
 11
1229.208508
 21
223.734015
 31
0.0
  0
LINE
  5
409E
100
AcDbEntity
  8
MSL-115-P40-R-0
 48
2.0
100
AcDbLine
 10
1211.908508
 20
242.234015
 30
0.0
 11
1211.908508
 21
233.234015
 31
0.0
  0
POLYLINE
  5
409F
100
AcDbEntity
  8
MSL-115-P40-R-0
 48
2.0
100
AcDb2dPolyline
 66
     1
 10
0.0
 20
0.0
 30
0.0
  0
VERTEX
  5
40A0
100
AcDbEntity
  8
MSL-115-P40-R-0
 48
2.0
100
AcDbVertex
100
AcDb2dVertex
 10
1211.908508
 20
241.734015
 30
0.0
  0
VERTEX
  5
40A1
100
AcDbEntity
  8
MSL-115-P40-R-0
 48
2.0
100
AcDbVertex
100
AcDb2dVertex
 10
1205.908508
 20
241.734015
 30
0.0
  0
VERTEX
  5
40A2
100
AcDbEntity
  8
MSL-115-P40-R-0
 48
2.0
100
AcDbVertex
100
AcDb2dVertex
 10
1204.908508
 20
240.734015
 30
0.0
  0
VERTEX
  5
40A3
100
AcDbEntity
  8
MSL-115-P40-R-0
 48
2.0
100
AcDbVertex
100
AcDb2dVertex
 10
1204.908508
 20
233.234015
 30
0.0
  0
SEQEND
  5
40A4
100
AcDbEntity
  8
MSL-115-P40-R-0
 48
2.0
  0
LINE
  5
40A6
100
AcDbEntity
  8
MSL-115-P40-R-0
 48
2.0
100
AcDbLine
 10
1212.908508
 20
243.234015
 30
0.0
 11
1212.908508
 21
223.234015
 31
0.0
  0
POLYLINE
  5
40A7
100
AcDbEntity
  8
MSL-115-P40-R-0
 48
2.0
100
AcDb2dPolyline
 66
     1
 10
0.0
 20
0.0
 30
0.0
  0
VERTEX
  5
40A8
100
AcDbEntity
  8
MSL-115-P40-R-0
 48
2.0
100
AcDbVertex
100
AcDb2dVertex
 10
1211.908508
 20
224.734015
 30
0.0
  0
VERTEX
  5
40A9
100
AcDbEntity
  8
MSL-115-P40-R-0
 48
2.0
100
AcDbVertex
100
AcDb2dVertex
 10
1205.908508
 20
224.734015
 30
0.0
  0
VERTEX
  5
40AA
100
AcDbEntity
  8
MSL-115-P40-R-0
 48
2.0
100
AcDbVertex
100
AcDb2dVertex
 10
1204.908508
 20
225.734015
 30
0.0
  0
VERTEX
  5
40AB
100
AcDbEntity
  8
MSL-115-P40-R-0
 48
2.0
100
AcDbVertex
100
AcDb2dVertex
 10
1204.908508
 20
233.234015
 30
0.0
  0
SEQEND
  5
40AC
100
AcDbEntity
  8
MSL-115-P40-R-0
 48
2.0
  0
LINE
  5
40AE
100
AcDbEntity
  8
MSL-115-P40-R-0
 48
2.0
100
AcDbLine
 10
1211.908508
 20
224.234015
 30
0.0
 11
1211.908508
 21
233.234015
 31
0.0
  0
POLYLINE
  5
40AF
100
AcDbEntity
  8
MSL-115-P40-R-0
 48
2.0
100
AcDb2dPolyline
 66
     1
 10
0.0
 20
0.0
 30
0.0
  0
VERTEX
  5
40B0
100
AcDbEntity
  8
MSL-115-P40-R-0
 48
2.0
100
AcDbVertex
100
AcDb2dVertex
 10
1290.908508
 20
238.234015
 30
0.0
  0
VERTEX
  5
40B1
100
AcDbEntity
  8
MSL-115-P40-R-0
 48
2.0
100
AcDbVertex
100
AcDb2dVertex
 10
1290.908508
 20
241.234015
 30
0.0
  0
VERTEX
  5
40B2
100
AcDbEntity
  8
MSL-115-P40-R-0
 48
2.0
100
AcDbVertex
100
AcDb2dVertex
 10
1290.408508
 20
241.734015
 30
0.0
  0
VERTEX
  5
40B3
100
AcDbEntity
  8
MSL-115-P40-R-0
 48
2.0
100
AcDbVertex
100
AcDb2dVertex
 10
1288.908508
 20
241.734015
 30
0.0
  0
SEQEND
  5
40B4
100
AcDbEntity
  8
MSL-115-P40-R-0
 48
2.0
  0
LINE
  5
40B5
100
AcDbEntity
  8
MSL-115-P40-R-0
 48
2.0
100
AcDbLine
 10
1287.908508
 20
243.234015
 30
0.0
 11
1287.908508
 21
241.735321
 31
0.0
  0
LINE
  5
40B6
100
AcDbEntity
  8
MSL-115-P40-R-0
 48
2.0
100
AcDbLine
 10
1287.908508
 20
225.734015
 30
0.0
 11
1287.908508
 21
226.724214
 31
0.0
  0
LINE
  5
40B7
100
AcDbEntity
  8
MSL-115-P40-R-5
 48
2.0
100
AcDbLine
 10
1284.192417
 20
242.734015
 30
0.0
 11
1288.408508
 21
242.734015
 31
0.0
  0
POLYLINE
  5
40B8
100
AcDbEntity
  8
MSL-115-P40-R-0
 48
2.0
100
AcDb2dPolyline
 66
     1
 10
0.0
 20
0.0
 30
0.0
  0
VERTEX
  5
40B9
100
AcDbEntity
  8
MSL-115-P40-R-0
 48
2.0
100
AcDbVertex
100
AcDb2dVertex
 10
1298.408508
 20
241.734015
 30
0.0
  0
VERTEX
  5
40BA
100
AcDbEntity
  8
MSL-115-P40-R-0
 48
2.0
100
AcDbVertex
100
AcDb2dVertex
 10
1294.408508
 20
241.734015
 30
0.0
  0
VERTEX
  5
40BB
100
AcDbEntity
  8
MSL-115-P40-R-0
 48
2.0
100
AcDbVertex
100
AcDb2dVertex
 10
1294.408508
 20
239.984015
 30
0.0
 42
-0.414214
  0
VERTEX
  5
40BC
100
AcDbEntity
  8
MSL-115-P40-R-0
 48
2.0
100
AcDbVertex
100
AcDb2dVertex
 10
1293.908508
 20
239.484015
 30
0.0
  0
VERTEX
  5
40BD
100
AcDbEntity
  8
MSL-115-P40-R-0
 48
2.0
100
AcDbVertex
100
AcDb2dVertex
 10
1291.408508
 20
239.484015
 30
0.0
  0
VERTEX
  5
40BE
100
AcDbEntity
  8
MSL-115-P40-R-0
 48
2.0
100
AcDbVertex
100
AcDb2dVertex
 10
1290.908508
 20
238.984015
 30
0.0
  0
VERTEX
  5
40BF
100
AcDbEntity
  8
MSL-115-P40-R-0
 48
2.0
100
AcDbVertex
100
AcDb2dVertex
 10
1290.908508
 20
238.234015
 30
0.0
  0
SEQEND
  5
40C0
100
AcDbEntity
  8
MSL-115-P40-R-0
 48
2.0
  0
POLYLINE
  5
40C1
100
AcDbEntity
  8
MSL-115-P40-R-0
 48
2.0
100
AcDb2dPolyline
 66
     1
 10
0.0
 20
0.0
 30
0.0
  0
VERTEX
  5
40C2
100
AcDbEntity
  8
MSL-115-P40-R-0
 48
2.0
100
AcDbVertex
100
AcDb2dVertex
 10
1290.408508
 20
238.234015
 30
0.0
  0
VERTEX
  5
40C3
100
AcDbEntity
  8
MSL-115-P40-R-0
 48
2.0
100
AcDbVertex
100
AcDb2dVertex
 10
1290.408508
 20
241.734015
 30
0.0
  0
SEQEND
  5
40C4
100
AcDbEntity
  8
MSL-115-P40-R-0
 48
2.0
  0
POLYLINE
  5
40C5
100
AcDbEntity
  8
MSL-115-P40-R-0
 48
2.0
100
AcDb2dPolyline
 66
     1
 10
0.0
 20
0.0
 30
0.0
  0
VERTEX
  5
40C6
100
AcDbEntity
  8
MSL-115-P40-R-0
 48
2.0
100
AcDbVertex
100
AcDb2dVertex
 10
1298.408508
 20
226.728462
 30
0.0
  0
VERTEX
  5
40C7
100
AcDbEntity
  8
MSL-115-P40-R-0
 48
2.0
100
AcDbVertex
100
AcDb2dVertex
 10
1298.408508
 20
225.734015
 30
0.0
  0
SEQEND
  5
40C8
100
AcDbEntity
  8
MSL-115-P40-R-0
 48
2.0
  0
POLYLINE
  5
40C9
100
AcDbEntity
  8
MSL-115-P40-R-0
 48
2.0
100
AcDb2dPolyline
 66
     1
 10
0.0
 20
0.0
 30
0.0
  0
VERTEX
  5
40CA
100
AcDbEntity
  8
MSL-115-P40-R-0
 48
2.0
100
AcDbVertex
100
AcDb2dVertex
 10
1291.408508
 20
230.234015
 30
0.0
  0
VERTEX
  5
40CB
100
AcDbEntity
  8
MSL-115-P40-R-0
 48
2.0
100
AcDbVertex
100
AcDb2dVertex
 10
1291.408508
 20
226.984015
 30
0.0
  0
SEQEND
  5
40CC
100
AcDbEntity
  8
MSL-115-P40-R-0
 48
2.0
  0
POLYLINE
  5
40CD
100
AcDbEntity
  8
MSL-115-P40-R-0
 48
2.0
100
AcDb2dPolyline
 66
     1
 10
0.0
 20
0.0
 30
0.0
  0
VERTEX
  5
40CE
100
AcDbEntity
  8
MSL-115-P40-R-0
 48
2.0
100
AcDbVertex
100
AcDb2dVertex
 10
1301.408508
 20
227.234015
 30
0.0
  0
VERTEX
  5
40CF
100
AcDbEntity
  8
MSL-115-P40-R-0
 48
2.0
100
AcDbVertex
100
AcDb2dVertex
 10
1299.408508
 20
225.567348
 30
0.0
  0
SEQEND
  5
40D0
100
AcDbEntity
  8
MSL-115-P40-R-0
 48
2.0
  0
POLYLINE
  5
40D1
100
AcDbEntity
  8
MSL-115-P40-R-0
 48
2.0
100
AcDb2dPolyline
 66
     1
 10
0.0
 20
0.0
 30
0.0
  0
VERTEX
  5
40D2
100
AcDbEntity
  8
MSL-115-P40-R-0
 48
2.0
100
AcDbVertex
100
AcDb2dVertex
 10
1291.408508
 20
238.234015
 30
0.0
  0
VERTEX
  5
40D3
100
AcDbEntity
  8
MSL-115-P40-R-0
 48
2.0
100
AcDbVertex
100
AcDb2dVertex
 10
1291.408508
 20
239.484015
 30
0.0
  0
SEQEND
  5
40D4
100
AcDbEntity
  8
MSL-115-P40-R-0
 48
2.0
  0
POLYLINE
  5
40D5
100
AcDbEntity
  8
MSL-115-P40-R-0
 48
2.0
100
AcDb2dPolyline
 66
     1
 10
0.0
 20
0.0
 30
0.0
  0
VERTEX
  5
40D6
100
AcDbEntity
  8
MSL-115-P40-R-0
 48
2.0
100
AcDbVertex
100
AcDb2dVertex
 10
1301.908508
 20
233.234015
 30
0.0
  0
VERTEX
  5
40D7
100
AcDbEntity
  8
MSL-115-P40-R-0
 48
2.0
100
AcDbVertex
100
AcDb2dVertex
 10
1301.908508
 20
235.984015
 30
0.0
  0
SEQEND
  5
40D8
100
AcDbEntity
  8
MSL-115-P40-R-0
 48
2.0
  0
POLYLINE
  5
40D9
100
AcDbEntity
  8
MSL-115-P40-R-0
 48
2.0
100
AcDb2dPolyline
 66
     1
 10
0.0
 20
0.0
 30
0.0
  0
VERTEX
  5
40DA
100
AcDbEntity
  8
MSL-115-P40-R-0
 48
2.0
100
AcDbVertex
100
AcDb2dVertex
 10
1301.908508
 20
233.234015
 30
0.0
  0
VERTEX
  5
40DB
100
AcDbEntity
  8
MSL-115-P40-R-0
 48
2.0
100
AcDbVertex
100
AcDb2dVertex
 10
1301.908508
 20
230.484015
 30
0.0
  0
SEQEND
  5
40DC
100
AcDbEntity
  8
MSL-115-P40-R-0
 48
2.0
  0
LINE
  5
40DD
100
AcDbEntity
  8
MSL-115-P40-R-0
 48
2.0
100
AcDbLine
 10
1299.408508
 20
37.951974
 30
0.0
 11
1299.408508
 21
27.535307
 31
0.0
  0
POLYLINE
  5
40DE
100
AcDbEntity
  8
MSL-115-P40-R-0
 48
2.0
100
AcDb2dPolyline
 66
     1
 10
0.0
 20
0.0
 30
0.0
  0
VERTEX
  5
40DF
100
AcDbEntity
  8
MSL-115-P40-R-0
 48
2.0
100
AcDbVertex
100
AcDb2dVertex
 10
1288.908508
 20
46.035307
 30
0.0
  0
VERTEX
  5
40E0
100
AcDbEntity
  8
MSL-115-P40-R-0
 48
2.0
100
AcDbVertex
100
AcDb2dVertex
 10
1288.908508
 20
37.035307
 30
0.0
  0
VERTEX
  5
40E1
100
AcDbEntity
  8
MSL-115-P40-R-0
 48
2.0
100
AcDbVertex
100
AcDb2dVertex
 10
1287.908508
 20
36.035307
 30
0.0
  0
VERTEX
  5
40E2
100
AcDbEntity
  8
MSL-115-P40-R-0
 48
2.0
100
AcDbVertex
100
AcDb2dVertex
 10
1281.408508
 20
36.035307
 30
0.0
  0
SEQEND
  5
40E3
100
AcDbEntity
  8
MSL-115-P40-R-0
 48
2.0
  0
POLYLINE
  5
40E4
100
AcDbEntity
  8
MSL-115-P40-R-0
 48
2.0
100
AcDb2dPolyline
 66
     1
 10
0.0
 20
0.0
 30
0.0
  0
VERTEX
  5
40E5
100
AcDbEntity
  8
MSL-115-P40-R-0
 48
2.0
100
AcDbVertex
100
AcDb2dVertex
 10
1288.908508
 20
46.035307
 30
0.0
  0
VERTEX
  5
40E6
100
AcDbEntity
  8
MSL-115-P40-R-0
 48
2.0
100
AcDbVertex
100
AcDb2dVertex
 10
1288.908508
 20
55.035307
 30
0.0
  0
VERTEX
  5
40E7
100
AcDbEntity
  8
MSL-115-P40-R-0
 48
2.0
100
AcDbVertex
100
AcDb2dVertex
 10
1287.908508
 20
56.035307
 30
0.0
  0
VERTEX
  5
40E8
100
AcDbEntity
  8
MSL-115-P40-R-0
 48
2.0
100
AcDbVertex
100
AcDb2dVertex
 10
1281.408508
 20
56.035307
 30
0.0
  0
SEQEND
  5
40E9
100
AcDbEntity
  8
MSL-115-P40-R-0
 48
2.0
  0
ARC
  5
40EA
100
AcDbEntity
  8
MSL-115-P40-R-0
 48
2.0
100
AcDbCircle
 10
1276.955787
 20
35.643002
 30
0.0
 40
15.547279
100
AcDbArc
 50
167.125821
 51
192.874179
  0
ARC
  5
40EB
100
AcDbEntity
  8
MSL-115-P40-R-0
 48
2.0
100
AcDbCircle
 10
1323.011375
 20
46.035307
 30
0.0
 40
61.602867
100
AcDbArc
 50
173.542534
 51
186.457466
  0
ARC
  5
40EC
100
AcDbEntity
  8
MSL-115-P40-R-0
 48
2.0
100
AcDbCircle
 10
1276.955787
 20
56.427612
 30
0.0
 40
15.547279
100
AcDbArc
 50
167.125821
 51
192.874179
  0
LINE
  5
40ED
100
AcDbEntity
  8
MSL-115-P40-R-5
 48
2.0
100
AcDbLine
 10
1212.408508
 20
55.535307
 30
0.0
 11
1261.408508
 21
55.535307
 31
0.0
  0
LINE
  5
40EE
100
AcDbEntity
  8
MSL-115-P40-R-5
 48
2.0
100
AcDbLine
 10
1212.408508
 20
36.535307
 30
0.0
 11
1261.408508
 21
36.535307
 31
0.0
  0
LINE
  5
40EF
100
AcDbEntity
  8
MSL-115-P40-R-0
 48
2.0
100
AcDbLine
 10
1211.908508
 20
55.035307
 30
0.0
 11
1211.908508
 21
46.035307
 31
0.0
  0
POLYLINE
  5
40F0
100
AcDbEntity
  8
MSL-115-P40-R-0
 48
2.0
100
AcDb2dPolyline
 66
     1
 10
0.0
 20
0.0
 30
0.0
  0
VERTEX
  5
40F1
100
AcDbEntity
  8
MSL-115-P40-R-0
 48
2.0
100
AcDbVertex
100
AcDb2dVertex
 10
1211.908508
 20
54.535307
 30
0.0
  0
VERTEX
  5
40F2
100
AcDbEntity
  8
MSL-115-P40-R-0
 48
2.0
100
AcDbVertex
100
AcDb2dVertex
 10
1205.908508
 20
54.535307
 30
0.0
  0
VERTEX
  5
40F3
100
AcDbEntity
  8
MSL-115-P40-R-0
 48
2.0
100
AcDbVertex
100
AcDb2dVertex
 10
1204.908508
 20
53.535307
 30
0.0
  0
VERTEX
  5
40F4
100
AcDbEntity
  8
MSL-115-P40-R-0
 48
2.0
100
AcDbVertex
100
AcDb2dVertex
 10
1204.908508
 20
46.035307
 30
0.0
  0
SEQEND
  5
40F5
100
AcDbEntity
  8
MSL-115-P40-R-0
 48
2.0
  0
LINE
  5
40F6
100
AcDbEntity
  8
MSL-115-P40-R-0
 48
2.0
100
AcDbLine
 10
1205.908508
 20
54.535307
 30
0.0
 11
1205.908508
 21
46.035307
 31
0.0
  0
LINE
  5
40F7
100
AcDbEntity
  8
MSL-115-P40-R-0
 48
2.0
100
AcDbLine
 10
1212.908508
 20
56.035307
 30
0.0
 11
1212.908508
 21
36.035307
 31
0.0
  0
POLYLINE
  5
40F8
100
AcDbEntity
  8
MSL-115-P40-R-0
 48
2.0
100
AcDb2dPolyline
 66
     1
 10
0.0
 20
0.0
 30
0.0
  0
VERTEX
  5
40F9
100
AcDbEntity
  8
MSL-115-P40-R-0
 48
2.0
100
AcDbVertex
100
AcDb2dVertex
 10
1211.908508
 20
37.535307
 30
0.0
  0
VERTEX
  5
40FA
100
AcDbEntity
  8
MSL-115-P40-R-0
 48
2.0
100
AcDbVertex
100
AcDb2dVertex
 10
1205.908508
 20
37.535307
 30
0.0
  0
VERTEX
  5
40FB
100
AcDbEntity
  8
MSL-115-P40-R-0
 48
2.0
100
AcDbVertex
100
AcDb2dVertex
 10
1204.908508
 20
38.535307
 30
0.0
  0
VERTEX
  5
40FC
100
AcDbEntity
  8
MSL-115-P40-R-0
 48
2.0
100
AcDbVertex
100
AcDb2dVertex
 10
1204.908508
 20
46.035307
 30
0.0
  0
SEQEND
  5
40FD
100
AcDbEntity
  8
MSL-115-P40-R-0
 48
2.0
  0
LINE
  5
40FE
100
AcDbEntity
  8
MSL-115-P40-R-0
 48
2.0
100
AcDbLine
 10
1205.908508
 20
37.535307
 30
0.0
 11
1205.908508
 21
46.035307
 31
0.0
  0
LINE
  5
40FF
100
AcDbEntity
  8
MSL-115-P40-R-0
 48
2.0
100
AcDbLine
 10
1211.908508
 20
37.035307
 30
0.0
 11
1211.908508
 21
46.035307
 31
0.0
  0
LINE
  5
4100
100
AcDbEntity
  8
MSL-115-P40-R-0
 48
2.0
100
AcDbLine
 10
1261.408508
 20
56.427612
 30
0.0
 11
1261.408508
 21
35.643002
 31
0.0
  0
POLYLINE
  5
4101
100
AcDbEntity
  8
MSL-115-P40-R-0
 48
2.0
100
AcDb2dPolyline
 66
     1
 10
0.0
 20
0.0
 30
0.0
  0
VERTEX
  5
4102
100
AcDbEntity
  8
MSL-115-P40-R-0
 48
2.0
100
AcDbVertex
100
AcDb2dVertex
 10
1290.908508
 20
46.035307
 30
0.0
  0
VERTEX
  5
4103
100
AcDbEntity
  8
MSL-115-P40-R-0
 48
2.0
100
AcDbVertex
100
AcDb2dVertex
 10
1290.908508
 20
38.035307
 30
0.0
  0
VERTEX
  5
4104
100
AcDbEntity
  8
MSL-115-P40-R-0
 48
2.0
100
AcDbVertex
100
AcDb2dVertex
 10
1290.408508
 20
37.535307
 30
0.0
  0
VERTEX
  5
4105
100
AcDbEntity
  8
MSL-115-P40-R-0
 48
2.0
100
AcDbVertex
100
AcDb2dVertex
 10
1288.908508
 20
37.535307
 30
0.0
  0
SEQEND
  5
4106
100
AcDbEntity
  8
MSL-115-P40-R-0
 48
2.0
  0
POLYLINE
  5
4107
100
AcDbEntity
  8
MSL-115-P40-R-0
 48
2.0
100
AcDb2dPolyline
 66
     1
 10
0.0
 20
0.0
 30
0.0
  0
VERTEX
  5
4108
100
AcDbEntity
  8
MSL-115-P40-R-0
 48
2.0
100
AcDbVertex
100
AcDb2dVertex
 10
1290.908508
 20
46.035307
 30
0.0
  0
VERTEX
  5
4109
100
AcDbEntity
  8
MSL-115-P40-R-0
 48
2.0
100
AcDbVertex
100
AcDb2dVertex
 10
1290.908508
 20
54.035307
 30
0.0
  0
VERTEX
  5
410A
100
AcDbEntity
  8
MSL-115-P40-R-0
 48
2.0
100
AcDbVertex
100
AcDb2dVertex
 10
1290.408508
 20
54.535307
 30
0.0
  0
VERTEX
  5
410B
100
AcDbEntity
  8
MSL-115-P40-R-0
 48
2.0
100
AcDbVertex
100
AcDb2dVertex
 10
1288.908508
 20
54.535307
 30
0.0
  0
SEQEND
  5
410C
100
AcDbEntity
  8
MSL-115-P40-R-0
 48
2.0
  0
LINE
  5
410D
100
AcDbEntity
  8
MSL-115-P40-R-0
 48
2.0
100
AcDbLine
 10
1287.908508
 20
56.035307
 30
0.0
 11
1287.908508
 21
46.035307
 31
0.0
  0
LINE
  5
410E
100
AcDbEntity
  8
MSL-115-P40-R-0
 48
2.0
100
AcDbLine
 10
1267.408508
 20
56.427612
 30
0.0
 11
1267.408508
 21
35.643002
 31
0.0
  0
ARC
  5
410F
100
AcDbEntity
  8
MSL-115-P40-R-0
 48
2.0
100
AcDbCircle
 10
1251.861229
 20
56.427612
 30
0.0
 40
15.547279
100
AcDbArc
 50
347.125821
 51
12.874179
  0
LINE
  5
4110
100
AcDbEntity
  8
MSL-115-P40-R-5
 48
2.0
100
AcDbLine
 10
1281.408508
 20
36.535307
 30
0.0
 11
1288.408508
 21
36.535307
 31
0.0
  0
ARC
  5
4111
100
AcDbEntity
  8
MSL-115-P40-R-0
 48
2.0
100
AcDbCircle
 10
1205.805641
 20
46.035307
 30
0.0
 40
61.602867
100
AcDbArc
 50
353.542534
 51
6.457466
  0
ARC
  5
4112
100
AcDbEntity
  8
MSL-115-P40-R-0
 48
2.0
100
AcDbCircle
 10
1251.861229
 20
35.643002
 30
0.0
 40
15.547279
100
AcDbArc
 50
347.125821
 51
12.874179
  0
LINE
  5
4113
100
AcDbEntity
  8
MSL-115-P40-R-0
 48
2.0
100
AcDbLine
 10
1267.017676
 20
32.178901
 30
0.0
 11
1264.408508
 21
32.178901
 31
0.0
  0
LINE
  5
4114
100
AcDbEntity
  8
MSL-115-P40-R-0
 48
2.0
100
AcDbLine
 10
1261.79934
 20
32.178901
 30
0.0
 11
1264.408508
 21
32.178901
 31
0.0
  0
LINE
  5
4115
100
AcDbEntity
  8
MSL-115-P40-R-0
 48
2.0
100
AcDbLine
 10
1267.017676
 20
39.107104
 30
0.0
 11
1264.408508
 21
39.107104
 31
0.0
  0
LINE
  5
4116
100
AcDbEntity
  8
MSL-115-P40-R-0
 48
2.0
100
AcDbLine
 10
1261.79934
 20
39.107104
 30
0.0
 11
1264.408508
 21
39.107104
 31
0.0
  0
LINE
  5
4117
100
AcDbEntity
  8
MSL-115-P40-R-0
 48
2.0
100
AcDbLine
 10
1267.017676
 20
52.96351
 30
0.0
 11
1264.408508
 21
52.96351
 31
0.0
  0
LINE
  5
4118
100
AcDbEntity
  8
MSL-115-P40-R-0
 48
2.0
100
AcDbLine
 10
1261.79934
 20
52.96351
 30
0.0
 11
1264.408508
 21
52.96351
 31
0.0
  0
LINE
  5
4119
100
AcDbEntity
  8
MSL-115-P40-R-0
 48
2.0
100
AcDbLine
 10
1287.908508
 20
36.035307
 30
0.0
 11
1287.908508
 21
46.035307
 31
0.0
  0
LINE
  5
411A
100
AcDbEntity
  8
MSL-115-P40-R-5
 48
2.0
100
AcDbLine
 10
1281.408508
 20
55.535307
 30
0.0
 11
1288.408508
 21
55.535307
 31
0.0
  0
LINE
  5
411B
100
AcDbEntity
  8
MSL-115-P40-R-0
 48
2.0
100
AcDbLine
 10
1267.017676
 20
59.891714
 30
0.0
 11
1264.408508
 21
59.891714
 31
0.0
  0
LINE
  5
411C
100
AcDbEntity
  8
MSL-115-P40-R-0
 48
2.0
100
AcDbLine
 10
1261.79934
 20
59.891714
 30
0.0
 11
1264.408508
 21
59.891714
 31
0.0
  0
POLYLINE
  5
411D
100
AcDbEntity
  8
MSL-115-P40-R-0
 48
2.0
100
AcDb2dPolyline
 66
     1
 10
0.0
 20
0.0
 30
0.0
  0
VERTEX
  5
411E
100
AcDbEntity
  8
MSL-115-P40-R-0
 48
2.0
100
AcDbVertex
100
AcDb2dVertex
 10
1301.408508
 20
52.035307
 30
0.0
  0
VERTEX
  5
411F
100
AcDbEntity
  8
MSL-115-P40-R-0
 48
2.0
100
AcDbVertex
100
AcDb2dVertex
 10
1298.408508
 20
54.535307
 30
0.0
  0
SEQEND
  5
4120
100
AcDbEntity
  8
MSL-115-P40-R-0
 48
2.0
  0
POLYLINE
  5
4121
100
AcDbEntity
  8
MSL-115-P40-R-0
 48
2.0
100
AcDb2dPolyline
 66
     1
 10
0.0
 20
0.0
 30
0.0
  0
VERTEX
  5
4122
100
AcDbEntity
  8
MSL-115-P40-R-0
 48
2.0
100
AcDbVertex
100
AcDb2dVertex
 10
1298.408508
 20
46.035307
 30
0.0
  0
VERTEX
  5
4123
100
AcDbEntity
  8
MSL-115-P40-R-0
 48
2.0
100
AcDbVertex
100
AcDb2dVertex
 10
1298.408508
 20
54.535307
 30
0.0
  0
SEQEND
  5
4124
100
AcDbEntity
  8
MSL-115-P40-R-0
 48
2.0
  0
POLYLINE
  5
4125
100
AcDbEntity
  8
MSL-115-P40-R-0
 48
2.0
100
AcDb2dPolyline
 66
     1
 10
0.0
 20
0.0
 30
0.0
  0
VERTEX
  5
4126
100
AcDbEntity
  8
MSL-115-P40-R-0
 48
2.0
100
AcDbVertex
100
AcDb2dVertex
 10
1298.408508
 20
54.535307
 30
0.0
  0
VERTEX
  5
4127
100
AcDbEntity
  8
MSL-115-P40-R-0
 48
2.0
100
AcDbVertex
100
AcDb2dVertex
 10
1294.408508
 20
54.535307
 30
0.0
  0
VERTEX
  5
4128
100
AcDbEntity
  8
MSL-115-P40-R-0
 48
2.0
100
AcDbVertex
100
AcDb2dVertex
 10
1294.408508
 20
52.785307
 30
0.0
 42
-0.414214
  0
VERTEX
  5
4129
100
AcDbEntity
  8
MSL-115-P40-R-0
 48
2.0
100
AcDbVertex
100
AcDb2dVertex
 10
1293.908508
 20
52.285307
 30
0.0
  0
VERTEX
  5
412A
100
AcDbEntity
  8
MSL-115-P40-R-0
 48
2.0
100
AcDbVertex
100
AcDb2dVertex
 10
1291.408508
 20
52.285307
 30
0.0
  0
VERTEX
  5
412B
100
AcDbEntity
  8
MSL-115-P40-R-0
 48
2.0
100
AcDbVertex
100
AcDb2dVertex
 10
1290.908508
 20
51.785307
 30
0.0
  0
VERTEX
  5
412C
100
AcDbEntity
  8
MSL-115-P40-R-0
 48
2.0
100
AcDbVertex
100
AcDb2dVertex
 10
1290.908508
 20
46.035307
 30
0.0
  0
SEQEND
  5
412D
100
AcDbEntity
  8
MSL-115-P40-R-0
 48
2.0
  0
POLYLINE
  5
412E
100
AcDbEntity
  8
MSL-115-P40-R-0
 48
2.0
100
AcDb2dPolyline
 66
     1
 10
0.0
 20
0.0
 30
0.0
  0
VERTEX
  5
412F
100
AcDbEntity
  8
MSL-115-P40-R-0
 48
2.0
100
AcDbVertex
100
AcDb2dVertex
 10
1290.408508
 20
46.035307
 30
0.0
  0
VERTEX
  5
4130
100
AcDbEntity
  8
MSL-115-P40-R-0
 48
2.0
100
AcDbVertex
100
AcDb2dVertex
 10
1290.408508
 20
54.535307
 30
0.0
  0
SEQEND
  5
4131
100
AcDbEntity
  8
MSL-115-P40-R-0
 48
2.0
  0
LINE
  5
4132
100
AcDbEntity
  8
MSL-115-P40-R-5
 48
2.0
100
AcDbLine
 10
1294.408508
 20
51.708707
 30
0.0
 11
1294.408508
 21
40.322876
 31
0.0
  0
POLYLINE
  5
4133
100
AcDbEntity
  8
MSL-115-P40-R-0
 48
2.0
100
AcDb2dPolyline
 66
     1
 10
0.0
 20
0.0
 30
0.0
  0
VERTEX
  5
4134
100
AcDbEntity
  8
MSL-115-P40-R-0
 48
2.0
100
AcDbVertex
100
AcDb2dVertex
 10
1298.408508
 20
46.035307
 30
0.0
  0
VERTEX
  5
4135
100
AcDbEntity
  8
MSL-115-P40-R-0
 48
2.0
100
AcDbVertex
100
AcDb2dVertex
 10
1298.408508
 20
37.535307
 30
0.0
  0
SEQEND
  5
4136
100
AcDbEntity
  8
MSL-115-P40-R-0
 48
2.0
  0
POLYLINE
  5
4137
100
AcDbEntity
  8
MSL-115-P40-R-0
 48
2.0
100
AcDb2dPolyline
 66
     1
 10
0.0
 20
0.0
 30
0.0
  0
VERTEX
  5
4138
100
AcDbEntity
  8
MSL-115-P40-R-0
 48
2.0
100
AcDbVertex
100
AcDb2dVertex
 10
1291.408508
 20
46.035307
 30
0.0
  0
VERTEX
  5
4139
100
AcDbEntity
  8
MSL-115-P40-R-0
 48
2.0
100
AcDbVertex
100
AcDb2dVertex
 10
1291.408508
 20
39.785307
 30
0.0
  0
SEQEND
  5
413A
100
AcDbEntity
  8
MSL-115-P40-R-0
 48
2.0
  0
POLYLINE
  5
413B
100
AcDbEntity
  8
MSL-115-P40-R-0
 48
2.0
100
AcDb2dPolyline
 66
     1
 10
0.0
 20
0.0
 30
0.0
  0
VERTEX
  5
413C
100
AcDbEntity
  8
MSL-115-P40-R-0
 48
2.0
100
AcDbVertex
100
AcDb2dVertex
 10
1301.408508
 20
46.035307
 30
0.0
  0
VERTEX
  5
413D
100
AcDbEntity
  8
MSL-115-P40-R-0
 48
2.0
100
AcDbVertex
100
AcDb2dVertex
 10
1301.408508
 20
40.035307
 30
0.0
  0
SEQEND
  5
413E
100
AcDbEntity
  8
MSL-115-P40-R-0
 48
2.0
  0
POLYLINE
  5
413F
100
AcDbEntity
  8
MSL-115-P40-R-0
 48
2.0
100
AcDb2dPolyline
 66
     1
 10
0.0
 20
0.0
 30
0.0
  0
VERTEX
  5
4140
100
AcDbEntity
  8
MSL-115-P40-R-0
 48
2.0
100
AcDbVertex
100
AcDb2dVertex
 10
1298.408508
 20
37.535307
 30
0.0
  0
VERTEX
  5
4141
100
AcDbEntity
  8
MSL-115-P40-R-0
 48
2.0
100
AcDbVertex
100
AcDb2dVertex
 10
1294.408508
 20
37.535307
 30
0.0
  0
VERTEX
  5
4142
100
AcDbEntity
  8
MSL-115-P40-R-0
 48
2.0
100
AcDbVertex
100
AcDb2dVertex
 10
1294.408508
 20
39.285307
 30
0.0
 42
0.414214
  0
VERTEX
  5
4143
100
AcDbEntity
  8
MSL-115-P40-R-0
 48
2.0
100
AcDbVertex
100
AcDb2dVertex
 10
1293.908508
 20
39.785307
 30
0.0
  0
VERTEX
  5
4144
100
AcDbEntity
  8
MSL-115-P40-R-0
 48
2.0
100
AcDbVertex
100
AcDb2dVertex
 10
1291.408508
 20
39.785307
 30
0.0
  0
VERTEX
  5
4145
100
AcDbEntity
  8
MSL-115-P40-R-0
 48
2.0
100
AcDbVertex
100
AcDb2dVertex
 10
1290.908508
 20
40.285307
 30
0.0
  0
VERTEX
  5
4146
100
AcDbEntity
  8
MSL-115-P40-R-0
 48
2.0
100
AcDbVertex
100
AcDb2dVertex
 10
1290.908508
 20
46.035307
 30
0.0
  0
SEQEND
  5
4147
100
AcDbEntity
  8
MSL-115-P40-R-0
 48
2.0
  0
POLYLINE
  5
4148
100
AcDbEntity
  8
MSL-115-P40-R-0
 48
2.0
100
AcDb2dPolyline
 66
     1
 10
0.0
 20
0.0
 30
0.0
  0
VERTEX
  5
4149
100
AcDbEntity
  8
MSL-115-P40-R-0
 48
2.0
100
AcDbVertex
100
AcDb2dVertex
 10
1290.408508
 20
46.035307
 30
0.0
  0
VERTEX
  5
414A
100
AcDbEntity
  8
MSL-115-P40-R-0
 48
2.0
100
AcDbVertex
100
AcDb2dVertex
 10
1290.408508
 20
37.535307
 30
0.0
  0
SEQEND
  5
414B
100
AcDbEntity
  8
MSL-115-P40-R-0
 48
2.0
  0
POLYLINE
  5
414C
100
AcDbEntity
  8
MSL-115-P40-R-0
 48
2.0
100
AcDb2dPolyline
 66
     1
 10
0.0
 20
0.0
 30
0.0
  0
VERTEX
  5
414D
100
AcDbEntity
  8
MSL-115-P40-R-0
 48
2.0
100
AcDbVertex
100
AcDb2dVertex
 10
1301.408508
 20
40.035307
 30
0.0
  0
VERTEX
  5
414E
100
AcDbEntity
  8
MSL-115-P40-R-0
 48
2.0
100
AcDbVertex
100
AcDb2dVertex
 10
1298.408508
 20
37.535307
 30
0.0
  0
SEQEND
  5
414F
100
AcDbEntity
  8
MSL-115-P40-R-0
 48
2.0
  0
POLYLINE
  5
4150
100
AcDbEntity
  8
MSL-115-P40-R-0
 48
2.0
100
AcDb2dPolyline
 66
     1
 10
0.0
 20
0.0
 30
0.0
  0
VERTEX
  5
4151
100
AcDbEntity
  8
MSL-115-P40-R-0
 48
2.0
100
AcDbVertex
100
AcDb2dVertex
 10
1291.408508
 20
46.035307
 30
0.0
  0
VERTEX
  5
4152
100
AcDbEntity
  8
MSL-115-P40-R-0
 48
2.0
100
AcDbVertex
100
AcDb2dVertex
 10
1291.408508
 20
52.285307
 30
0.0
  0
SEQEND
  5
4153
100
AcDbEntity
  8
MSL-115-P40-R-0
 48
2.0
  0
POLYLINE
  5
4154
100
AcDbEntity
  8
MSL-115-P40-R-0
 48
2.0
100
AcDb2dPolyline
 66
     1
 10
0.0
 20
0.0
 30
0.0
  0
VERTEX
  5
4155
100
AcDbEntity
  8
MSL-115-P40-R-0
 48
2.0
100
AcDbVertex
100
AcDb2dVertex
 10
1301.408508
 20
46.035307
 30
0.0
  0
VERTEX
  5
4156
100
AcDbEntity
  8
MSL-115-P40-R-0
 48
2.0
100
AcDbVertex
100
AcDb2dVertex
 10
1301.408508
 20
52.035307
 30
0.0
  0
SEQEND
  5
4157
100
AcDbEntity
  8
MSL-115-P40-R-0
 48
2.0
  0
POLYLINE
  5
4158
100
AcDbEntity
  8
MSL-115-P40-R-0
 48
2.0
100
AcDb2dPolyline
 66
     1
 10
0.0
 20
0.0
 30
0.0
  0
VERTEX
  5
4159
100
AcDbEntity
  8
MSL-115-P40-R-0
 48
2.0
100
AcDbVertex
100
AcDb2dVertex
 10
1301.908508
 20
46.035307
 30
0.0
  0
VERTEX
  5
415A
100
AcDbEntity
  8
MSL-115-P40-R-0
 48
2.0
100
AcDbVertex
100
AcDb2dVertex
 10
1301.908508
 20
48.785307
 30
0.0
  0
SEQEND
  5
415B
100
AcDbEntity
  8
MSL-115-P40-R-0
 48
2.0
  0
LINE
  5
415C
100
AcDbEntity
  8
MSL-115-P40-R-0
 48
2.0
100
AcDbLine
 10
1301.408508
 20
42.785307
 30
0.0
 11
1301.908508
 21
43.285307
 31
0.0
  0
POLYLINE
  5
415D
100
AcDbEntity
  8
MSL-115-P40-R-0
 48
2.0
100
AcDb2dPolyline
 66
     1
 10
0.0
 20
0.0
 30
0.0
  0
VERTEX
  5
415E
100
AcDbEntity
  8
MSL-115-P40-R-0
 48
2.0
100
AcDbVertex
100
AcDb2dVertex
 10
1301.908508
 20
46.035307
 30
0.0
  0
VERTEX
  5
415F
100
AcDbEntity
  8
MSL-115-P40-R-0
 48
2.0
100
AcDbVertex
100
AcDb2dVertex
 10
1301.908508
 20
43.285307
 30
0.0
  0
SEQEND
  5
4160
100
AcDbEntity
  8
MSL-115-P40-R-0
 48
2.0
  0
LINE
  5
4161
100
AcDbEntity
  8
MSL-115-P40-R-0
 48
2.0
100
AcDbLine
 10
1301.408508
 20
49.285307
 30
0.0
 11
1301.908508
 21
48.785307
 31
0.0
  0
LINE
  5
4162
100
AcDbEntity
  8
MSL-115-P40-R-0
 48
2.0
100
AcDbLine
 10
1641.408508
 20
37.035307
 30
0.0
 11
1650.908508
 21
37.035307
 31
0.0
1001
ACAD
1000
RTLwPs
1070
   128
  0
LINE
  5
4163
100
AcDbEntity
  8
MSL-115-P40-R-0
 48
2.0
100
AcDbLine
 10
1649.308508
 20
37.635307
 30
0.0
 11
1641.408508
 21
37.635307
 31
0.0
1001
ACAD
1000
RTLwPs
1070
   128
  0
LINE
  5
4164
100
AcDbEntity
  8
MSL-115-P40-R-0
 48
2.0
100
AcDbLine
 10
1299.408508
 20
-35.389693
 30
0.0
 11
1301.908508
 21
-35.389693
 31
0.0
  0
LINE
  5
4165
100
AcDbEntity
  8
MSL-115-P40-R-0
 48
2.0
100
AcDbLine
 10
1299.408508
 20
-19.389693
 30
0.0
 11
1301.908508
 21
-19.389693
 31
0.0
  0
LINE
  5
4166
100
AcDbEntity
  8
MSL-115-P40-R-0
 48
2.0
100
AcDbLine
 10
1299.408508
 20
61.460307
 30
0.0
 11
1301.908508
 21
61.460307
 31
0.0
  0
LINE
  5
4167
100
AcDbEntity
  8
MSL-115-P40-R-0
 48
2.0
100
AcDbLine
 10
1299.408508
 20
77.460307
 30
0.0
 11
1301.908508
 21
77.460307
 31
0.0
  0
LINE
  5
4168
100
AcDbEntity
  8
MSL-115-P40-R-0
 48
2.0
100
AcDbLine
 10
1299.408508
 20
83.535307
 30
0.0
 11
1299.408508
 21
54.118641
 31
0.0
  0
POLYLINE
  5
4169
100
AcDbEntity
  8
MSL-115-P40-R-0
 48
2.0
100
AcDb2dPolyline
 66
     1
 10
0.0
 20
0.0
 30
0.0
  0
VERTEX
  5
416A
100
AcDbEntity
  8
MSL-115-P40-R-0
 48
2.0
100
AcDbVertex
100
AcDb2dVertex
 10
1649.408508
 20
233.234015
 30
0.0
  0
VERTEX
  5
416B
100
AcDbEntity
  8
MSL-115-P40-R-0
 48
2.0
100
AcDbVertex
100
AcDb2dVertex
 10
1649.408508
 20
225.734015
 30
0.0
  0
SEQEND
  5
416C
100
AcDbEntity
  8
MSL-115-P40-R-0
 48
2.0
  0
LINE
  5
416D
100
AcDbEntity
  8
MSL-115-P40-R-0
 48
2.0
100
AcDbLine
 10
1648.908508
 20
233.234015
 30
0.0
 11
1648.908508
 21
225.734015
 31
0.0
  0
LINE
  5
416E
100
AcDbEntity
  8
MSL-115-P40-R-0
 48
2.0
100
AcDbLine
 10
1650.908508
 20
233.234015
 30
0.0
 11
1650.908508
 21
225.734015
 31
0.0
  0
LINE
  5
416F
100
AcDbEntity
  8
MSL-115-P40-R-5
 48
2.0
100
AcDbLine
 10
1655.6246
 20
242.734015
 30
0.0
 11
1651.408508
 21
242.734015
 31
0.0
  0
POLYLINE
  5
4170
100
AcDbEntity
  8
MSL-115-P40-R-0
 48
2.0
100
AcDb2dPolyline
 66
     1
 10
0.0
 20
0.0
 30
0.0
  0
VERTEX
  5
4171
100
AcDbEntity
  8
MSL-115-P40-R-0
 48
2.0
100
AcDbVertex
100
AcDb2dVertex
 10
1650.908508
 20
233.234015
 30
0.0
  0
VERTEX
  5
4172
100
AcDbEntity
  8
MSL-115-P40-R-0
 48
2.0
100
AcDbVertex
100
AcDb2dVertex
 10
1650.908508
 20
242.234015
 30
0.0
  0
VERTEX
  5
4173
100
AcDbEntity
  8
MSL-115-P40-R-0
 48
2.0
100
AcDbVertex
100
AcDb2dVertex
 10
1651.908508
 20
243.234015
 30
0.0
  0
VERTEX
  5
4174
100
AcDbEntity
  8
MSL-115-P40-R-0
 48
2.0
100
AcDbVertex
100
AcDb2dVertex
 10
1655.875544
 20
243.234015
 30
0.0
  0
SEQEND
  5
4175
100
AcDbEntity
  8
MSL-115-P40-R-0
 48
2.0
  0
ARC
  5
4176
100
AcDbEntity
  8
MSL-115-P40-R-0
 48
2.0
100
AcDbCircle
 10
1257.529778
 20
222.7128
 30
0.0
 40
9.879572
100
AcDbArc
 50
0.747626
 51
21.326429
1001
ACAD
1000
RTLwPs
1070
   128
  0
LINE
  5
4177
100
AcDbEntity
  8
MSL-115-P40-R-0
 48
2.0
100
AcDbLine
 10
1262.084185
 20
226.305811
 30
0.0
 11
1266.732831
 21
226.305811
 31
0.0
1001
ACAD
1000
RTLwPs
1070
   128
  0
LINE
  5
4178
100
AcDbEntity
  8
MSL-115-P40-R-0
 48
2.0
100
AcDbLine
 10
1262.084185
 20
240.162218
 30
0.0
 11
1266.408508
 21
240.162218
 31
0.0
1001
ACAD
1000
RTLwPs
1070
   128
  0
ARC
  5
4179
100
AcDbEntity
  8
MSL-115-P40-R-0
 48
2.0
100
AcDbCircle
 10
1257.524328
 20
222.971683
 30
0.0
 40
9.885035
100
AcDbArc
 50
338.67932
 51
359.246625
1001
ACAD
1000
RTLwPs
1070
   128
  0
LINE
  5
417A
100
AcDbEntity
  8
MSL-115-P40-R-0
 48
2.0
100
AcDbLine
 10
1262.084185
 20
219.377608
 30
0.0
 11
1266.732831
 21
219.377608
 31
0.0
1001
ACAD
1000
RTLwPs
1070
   128
  0
LINE
  5
417B
100
AcDbEntity
  8
MSL-115-P40-R-0
 48
2.0
100
AcDbLine
 10
1262.084185
 20
247.090421
 30
0.0
 11
1266.732831
 21
247.090421
 31
0.0
1001
ACAD
1000
RTLwPs
1070
   128
  0
LINE
  5
417C
100
AcDbEntity
  8
MSL-115-P40-R-0
 48
2.0
100
AcDbLine
 10
1261.408508
 20
238.234015
 30
0.0
 11
1261.408508
 21
243.62632
 31
0.0
1001
ACAD
1000
RTLwPs
1070
   128
  0
ARC
  5
417D
100
AcDbEntity
  8
MSL-115-P40-R-0
 48
2.0
100
AcDbCircle
 10
1271.292689
 20
243.496346
 30
0.0
 40
9.885035
100
AcDbArc
 50
158.67932
 51
179.246625
1001
ACAD
1000
RTLwPs
1070
   128
  0
LINE
  5
417E
100
AcDbEntity
  8
MSL-115-P40-R-0
 48
2.0
100
AcDbLine
 10
1261.408508
 20
243.62632
 30
0.0
 11
1261.408508
 21
245.234015
 31
0.0
1001
ACAD
1000
RTLwPs
1070
   128
  0
LINE
  5
417F
100
AcDbEntity
  8
MSL-115-P40-R-0
 48
2.0
100
AcDbLine
 10
1266.732831
 20
219.377608
 30
0.0
 11
1267.408508
 21
221.234015
 31
0.0
1001
ACAD
1000
RTLwPs
1070
   128
  0
LINE
  5
4180
100
AcDbEntity
  8
MSL-115-P40-R-0
 48
2.0
100
AcDbLine
 10
1262.084185
 20
247.090421
 30
0.0
 11
1261.408508
 21
245.234015
 31
0.0
1001
ACAD
1000
RTLwPs
1070
   128
  0
LINE
  5
4181
100
AcDbEntity
  8
MSL-115-P40-R-0
 48
2.0
100
AcDbLine
 10
1261.408508
 20
222.84171
 30
0.0
 11
1261.408508
 21
230.234015
 31
0.0
1001
ACAD
1000
RTLwPs
1070
   128
  0
LINE
  5
4182
100
AcDbEntity
  8
MSL-115-P40-R-0
 48
2.0
100
AcDbLine
 10
1261.408508
 20
222.84171
 30
0.0
 11
1261.408508
 21
221.234015
 31
0.0
1001
ACAD
1000
RTLwPs
1070
   128
  0
ARC
  5
4183
100
AcDbEntity
  8
MSL-115-P40-R-0
 48
2.0
100
AcDbCircle
 10
1271.292689
 20
222.711736
 30
0.0
 40
9.885035
100
AcDbArc
 50
158.67932
 51
179.246625
1001
ACAD
1000
RTLwPs
1070
   128
  0
ARC
  5
4184
100
AcDbEntity
  8
MSL-115-P40-R-0
 48
2.0
100
AcDbCircle
 10
1271.287239
 20
222.97062
 30
0.0
 40
9.879572
100
AcDbArc
 50
180.747626
 51
201.326429
1001
ACAD
1000
RTLwPs
1070
   128
  0
ARC
  5
4185
100
AcDbEntity
  8
MSL-115-P40-R-0
 48
2.0
100
AcDbCircle
 10
1299.634774
 20
233.465002
 30
0.0
 40
38.226964
100
AcDbArc
 50
184.849687
 51
190.794159
1001
ACAD
1000
RTLwPs
1070
   128
  0
ARC
  5
4186
100
AcDbEntity
  8
MSL-115-P40-R-0
 48
2.0
100
AcDbCircle
 10
1299.466737
 20
233.019415
 30
0.0
 40
38.058834
100
AcDbArc
 50
169.182699
 51
172.116948
1001
ACAD
1000
RTLwPs
1070
   128
  0
ARC
  5
4187
100
AcDbEntity
  8
MSL-115-P40-R-0
 48
2.0
100
AcDbCircle
 10
1271.287239
 20
243.75523
 30
0.0
 40
9.879572
100
AcDbArc
 50
180.747626
 51
201.326429
1001
ACAD
1000
RTLwPs
1070
   128
  0
LINE
  5
4188
100
AcDbEntity
  8
MSL-115-P40-R-0
 48
2.0
100
AcDbLine
 10
1261.408508
 20
221.234015
 30
0.0
 11
1262.084185
 21
219.377608
 31
0.0
1001
ACAD
1000
RTLwPs
1070
   128
  0
ARC
  5
4189
100
AcDbEntity
  8
MSL-115-P40-R-0
 48
2.0
100
AcDbCircle
 10
1257.524328
 20
243.756293
 30
0.0
 40
9.885035
100
AcDbArc
 50
347.786561
 51
359.246625
1001
ACAD
1000
RTLwPs
1070
   128
  0
ARC
  5
418A
100
AcDbEntity
  8
MSL-115-P40-R-0
 48
2.0
100
AcDbCircle
 10
1229.176938
 20
233.465519
 30
0.0
 40
38.232271
100
AcDbArc
 50
349.206568
 51
350.092801
1001
ACAD
1000
RTLwPs
1070
   128
  0
LINE
  5
418B
100
AcDbEntity
  8
MSL-115-P40-R-0
 48
2.0
100
AcDbLine
 10
1267.408508
 20
245.234015
 30
0.0
 11
1266.732831
 21
247.090421
 31
0.0
1001
ACAD
1000
RTLwPs
1070
   128
  0
ARC
  5
418C
100
AcDbEntity
  8
MSL-115-P40-R-0
 48
2.0
100
AcDbCircle
 10
1257.529778
 20
243.497409
 30
0.0
 40
9.879572
100
AcDbArc
 50
0.747626
 51
21.326429
1001
ACAD
1000
RTLwPs
1070
   128
  0
LINE
  5
418D
100
AcDbEntity
  8
MSL-115-P40-R-0
 48
2.0
100
AcDbLine
 10
1237.108508
 20
214.734015
 30
0.0
 11
1237.108508
 21
229.734015
 31
0.0
1001
ACAD
1000
RTLwPs
1070
   128
  0
LINE
  5
418E
100
AcDbEntity
  8
MSL-115-P40-R-0
 48
2.0
100
AcDbLine
 10
1229.208508
 20
229.734015
 30
0.0
 11
1229.208508
 21
214.734015
 31
0.0
1001
ACAD
1000
RTLwPs
1070
   128
  0
LINE
  5
418F
100
AcDbEntity
  8
MSL-115-P40-R-0
 48
2.0
100
AcDbLine
 10
1231.658508
 20
214.734015
 30
0.0
 11
1231.658508
 21
202.734015
 31
0.0
1001
ACAD
1000
RTLwPs
1070
   128
  0
LINE
  5
4190
100
AcDbEntity
  8
MSL-115-P40-R-0
 48
2.0
100
AcDbLine
 10
1234.658508
 20
202.734015
 30
0.0
 11
1234.658508
 21
214.734015
 31
0.0
1001
ACAD
1000
RTLwPs
1070
   128
  0
LINE
  5
4191
100
AcDbEntity
  8
MSL-115-P40-R-0
 48
2.0
100
AcDbLine
 10
1229.208508
 20
214.734015
 30
0.0
 11
1237.108508
 21
214.734015
 31
0.0
1001
ACAD
1000
RTLwPs
1070
   128
  0
LINE
  5
4192
100
AcDbEntity
  8
MSL-115-P40-R-0
 48
2.0
100
AcDbLine
 10
1234.658508
 20
202.734015
 30
0.0
 11
1231.658508
 21
202.734015
 31
0.0
1001
ACAD
1000
RTLwPs
1070
   128
  0
LINE
  5
4193
100
AcDbEntity
  8
MSL-115-P40-R-0
 48
2.0
100
AcDbLine
 10
1228.908508
 20
240.734015
 30
0.0
 11
1237.408508
 21
240.734015
 31
0.0
1001
ACAD
1000
RTLwPs
1070
   128
  0
LINE
  5
4194
100
AcDbEntity
  8
MSL-115-P40-R-0
 48
2.0
100
AcDbLine
 10
1228.908508
 20
238.734015
 30
0.0
 11
1228.908508
 21
240.734015
 31
0.0
1001
ACAD
1000
RTLwPs
1070
   128
  0
LINE
  5
4195
100
AcDbEntity
  8
MSL-115-P40-R-0
 48
2.0
100
AcDbLine
 10
1237.408508
 20
240.734015
 30
0.0
 11
1237.408508
 21
238.734015
 31
0.0
1001
ACAD
1000
RTLwPs
1070
   128
  0
LINE
  5
4196
100
AcDbEntity
  8
MSL-115-P40-R-0
 48
2.0
100
AcDbLine
 10
1245.908508
 20
238.234015
 30
0.0
 11
1245.908508
 21
230.234015
 31
0.0
1001
ACAD
1000
RTLwPs
1070
   128
  0
LINE
  5
4197
100
AcDbEntity
  8
MSL-115-P40-R-0
 48
2.0
100
AcDbLine
 10
1228.908508
 20
238.734015
 30
0.0
 11
1228.908508
 21
229.734015
 31
0.0
1001
ACAD
1000
RTLwPs
1070
   128
  0
LINE
  5
4198
100
AcDbEntity
  8
MSL-115-P40-R-0
 48
2.0
100
AcDbLine
 10
1237.408508
 20
234.234015
 30
0.0
 11
1237.408508
 21
229.734015
 31
0.0
1001
ACAD
1000
RTLwPs
1070
   128
  0
LINE
  5
4199
100
AcDbEntity
  8
MSL-115-P40-R-0
 48
2.0
100
AcDbLine
 10
1237.408508
 20
238.734015
 30
0.0
 11
1237.408508
 21
234.234015
 31
0.0
1001
ACAD
1000
RTLwPs
1070
   128
  0
LINE
  5
419A
100
AcDbEntity
  8
MSL-115-P40-R-0
 48
2.0
100
AcDbLine
 10
1237.408508
 20
229.734015
 30
0.0
 11
1228.908508
 21
229.734015
 31
0.0
1001
ACAD
1000
RTLwPs
1070
   128
  0
LINE
  5
419B
100
AcDbEntity
  8
MSL-115-P40-R-0
 48
2.0
100
AcDbLine
 10
1245.908508
 20
238.234015
 30
0.0
 11
1237.408508
 21
238.234015
 31
0.0
1001
ACAD
1000
RTLwPs
1070
   128
  0
LINE
  5
419C
100
AcDbEntity
  8
MSL-115-P40-R-0
 48
2.0
100
AcDbLine
 10
1237.408508
 20
230.234015
 30
0.0
 11
1245.908508
 21
230.234015
 31
0.0
1001
ACAD
1000
RTLwPs
1070
   128
  0
LINE
  5
419D
100
AcDbEntity
  8
MSL-115-P40-R-5
 48
2.0
100
AcDbLine
 10
1266.408508
 20
237.469015
 30
0.0
 11
1253.908508
 21
237.469015
 31
0.0
1001
ACAD
1000
RTLwPs
1070
   128
  0
LINE
  5
419E
100
AcDbEntity
  8
MSL-115-P40-R-5
 48
2.0
100
AcDbLine
 10
1266.408508
 20
230.999015
 30
0.0
 11
1253.908508
 21
230.999015
 31
0.0
1001
ACAD
1000
RTLwPs
1070
   128
  0
LINE
  5
419F
100
AcDbEntity
  8
MSL-115-P40-R-0
 48
2.0
100
AcDbLine
 10
1253.908508
 20
230.234015
 30
0.0
 11
1253.908508
 21
238.234015
 31
0.0
1001
ACAD
1000
RTLwPs
1070
   128
  0
LINE
  5
41A0
100
AcDbEntity
  8
MSL-115-P40-R-0
 48
2.0
100
AcDbLine
 10
1253.908508
 20
237.734015
 30
0.0
 11
1245.908508
 21
237.734015
 31
0.0
1001
ACAD
1000
RTLwPs
1070
   128
  0
LINE
  5
41A1
100
AcDbEntity
  8
MSL-115-P40-R-0
 48
2.0
100
AcDbLine
 10
1245.908508
 20
230.734015
 30
0.0
 11
1253.908508
 21
230.734015
 31
0.0
1001
ACAD
1000
RTLwPs
1070
   128
  0
LINE
  5
41A2
100
AcDbEntity
  8
MSL-115-P40-R-0
 48
2.0
100
AcDbLine
 10
1266.408508
 20
238.234015
 30
0.0
 11
1253.908508
 21
238.234015
 31
0.0
1001
ACAD
1000
RTLwPs
1070
   128
  0
LINE
  5
41A3
100
AcDbEntity
  8
MSL-115-P40-R-0
 48
2.0
100
AcDbLine
 10
1253.908508
 20
230.234015
 30
0.0
 11
1266.408508
 21
230.234015
 31
0.0
1001
ACAD
1000
RTLwPs
1070
   128
  0
LINE
  5
41A4
100
AcDbEntity
  8
MSL-115-P40-R-0
 48
2.0
100
AcDbLine
 10
1267.408508
 20
241.734015
 30
0.0
 11
1266.408508
 21
241.466065
 31
0.0
1001
ACAD
1000
RTLwPs
1070
   128
  0
LINE
  5
41A5
100
AcDbEntity
  8
MSL-115-P40-R-0
 48
2.0
100
AcDbLine
 10
1266.408508
 20
227.001964
 30
0.0
 11
1266.408508
 21
241.466065
 31
0.0
1001
ACAD
1000
RTLwPs
1070
   128
  0
LINE
  5
41A6
100
AcDbEntity
  8
MSL-115-P40-R-0
 48
2.0
100
AcDbLine
 10
1266.408508
 20
227.001964
 30
0.0
 11
1267.408508
 21
226.734015
 31
0.0
1001
ACAD
1000
RTLwPs
1070
   128
  0
LINE
  5
41A7
100
AcDbEntity
  8
MSL-115-P40-R-0
 48
2.0
100
AcDbLine
 10
1281.408508
 20
247.234015
 30
0.0
 11
1267.408508
 21
247.234015
 31
0.0
1001
ACAD
1000
RTLwPs
1070
   128
  0
LINE
  5
41A8
100
AcDbEntity
  8
MSL-115-P40-R-0
 48
2.0
100
AcDbLine
 10
1281.408508
 20
244.234015
 30
0.0
 11
1281.408508
 21
247.234015
 31
0.0
1001
ACAD
1000
RTLwPs
1070
   128
  0
LINE
  5
41A9
100
AcDbEntity
  8
MSL-115-P40-R-0
 48
2.0
100
AcDbLine
 10
1281.408508
 20
244.234015
 30
0.0
 11
1281.408508
 21
225.734015
 31
0.0
1001
ACAD
1000
RTLwPs
1070
   128
  0
LINE
  5
41AA
100
AcDbEntity
  8
MSL-115-P40-R-0
 48
2.0
100
AcDbLine
 10
1267.408508
 20
247.234015
 30
0.0
 11
1267.408508
 21
244.234015
 31
0.0
1001
ACAD
1000
RTLwPs
1070
   128
  0
LINE
  5
41AB
100
AcDbEntity
  8
MSL-115-P40-R-0
 48
2.0
100
AcDbLine
 10
1267.408508
 20
244.234015
 30
0.0
 11
1281.408508
 21
244.234015
 31
0.0
1001
ACAD
1000
RTLwPs
1070
   128
  0
LINE
  5
41AC
100
AcDbEntity
  8
MSL-115-P40-R-0
 48
2.0
100
AcDbLine
 10
1267.408508
 20
133.234015
 30
0.0
 11
1299.408508
 21
133.234015
 31
0.0
1001
ACAD
1000
RTLwPs
1070
   128
  0
LINE
  5
41AD
100
AcDbEntity
  8
MSL-115-P40-R-0
 48
2.0
100
AcDbLine
 10
1267.408508
 20
244.234015
 30
0.0
 11
1267.408508
 21
133.234015
 31
0.0
1001
ACAD
1000
RTLwPs
1070
   128
  0
LINE
  5
41AE
100
AcDbEntity
  8
MSL-115-P40-R-0
 48
2.0
100
AcDbLine
 10
1299.408508
 20
225.734015
 30
0.0
 11
1299.408508
 21
132.734015
 31
0.0
1001
ACAD
1000
RTLwPs
1070
   128
  0
LINE
  5
41AF
100
AcDbEntity
  8
MSL-115-P40-R-0
 48
2.0
100
AcDbLine
 10
1281.408508
 20
225.734015
 30
0.0
 11
1299.408508
 21
225.734015
 31
0.0
1001
ACAD
1000
RTLwPs
1070
   128
  0
ARC
  5
41B0
100
AcDbEntity
  8
MSL-115-P40-R-0
 48
2.0
100
AcDbCircle
 10
1668.524328
 20
222.971683
 30
0.0
 40
9.885035
100
AcDbArc
 50
338.67932
 51
359.246625
1001
ACAD
1000
RTLwPs
1070
   128
  0
LINE
  5
41B1
100
AcDbEntity
  8
MSL-115-P40-R-0
 48
2.0
100
AcDbLine
 10
1677.732831
 20
219.377608
 30
0.0
 11
1678.408508
 21
221.234015
 31
0.0
1001
ACAD
1000
RTLwPs
1070
   128
  0
ARC
  5
41B2
100
AcDbEntity
  8
MSL-115-P40-R-0
 48
2.0
100
AcDbCircle
 10
1682.292689
 20
243.496346
 30
0.0
 40
9.885035
100
AcDbArc
 50
158.67932
 51
179.246625
1001
ACAD
1000
RTLwPs
1070
   128
  0
ARC
  5
41B3
100
AcDbEntity
  8
MSL-115-P40-R-0
 48
2.0
100
AcDbCircle
 10
1640.176938
 20
233.465519
 30
0.0
 40
38.232271
100
AcDbArc
 50
349.206568
 51
355.150266
1001
ACAD
1000
RTLwPs
1070
   128
  0
ARC
  5
41B4
100
AcDbEntity
  8
MSL-115-P40-R-0
 48
2.0
100
AcDbCircle
 10
1668.529778
 20
222.7128
 30
0.0
 40
9.879572
100
AcDbArc
 50
0.747626
 51
21.326429
1001
ACAD
1000
RTLwPs
1070
   128
  0
LINE
  5
41B5
100
AcDbEntity
  8
MSL-115-P40-R-0
 48
2.0
100
AcDbLine
 10
1673.084185
 20
247.090421
 30
0.0
 11
1672.408508
 21
245.234015
 31
0.0
1001
ACAD
1000
RTLwPs
1070
   128
  0
ARC
  5
41B6
100
AcDbEntity
  8
MSL-115-P40-R-0
 48
2.0
100
AcDbCircle
 10
1710.634774
 20
233.465002
 30
0.0
 40
38.226964
100
AcDbArc
 50
189.907803
 51
190.794159
1001
ACAD
1000
RTLwPs
1070
   128
  0
ARC
  5
41B7
100
AcDbEntity
  8
MSL-115-P40-R-0
 48
2.0
100
AcDbCircle
 10
1682.292689
 20
222.711736
 30
0.0
 40
9.885035
100
AcDbArc
 50
158.67932
 51
179.246625
1001
ACAD
1000
RTLwPs
1070
   128
  0
ARC
  5
41B8
100
AcDbEntity
  8
MSL-115-P40-R-0
 48
2.0
100
AcDbCircle
 10
1682.287239
 20
243.75523
 30
0.0
 40
9.879572
100
AcDbArc
 50
180.747626
 51
192.217249
1001
ACAD
1000
RTLwPs
1070
   128
  0
LINE
  5
41B9
100
AcDbEntity
  8
MSL-115-P40-R-0
 48
2.0
100
AcDbLine
 10
1677.732831
 20
226.305811
 30
0.0
 11
1673.084185
 21
226.305811
 31
0.0
1001
ACAD
1000
RTLwPs
1070
   128
  0
ARC
  5
41BA
100
AcDbEntity
  8
MSL-115-P40-R-0
 48
2.0
100
AcDbCircle
 10
1682.287239
 20
222.97062
 30
0.0
 40
9.879572
100
AcDbArc
 50
180.747626
 51
201.326429
1001
ACAD
1000
RTLwPs
1070
   128
  0
LINE
  5
41BB
100
AcDbEntity
  8
MSL-115-P40-R-0
 48
2.0
100
AcDbLine
 10
1677.732831
 20
219.377608
 30
0.0
 11
1673.084185
 21
219.377608
 31
0.0
1001
ACAD
1000
RTLwPs
1070
   128
  0
LINE
  5
41BC
100
AcDbEntity
  8
MSL-115-P40-R-0
 48
2.0
100
AcDbLine
 10
1677.732831
 20
247.090421
 30
0.0
 11
1673.084185
 21
247.090421
 31
0.0
1001
ACAD
1000
RTLwPs
1070
   128
  0
LINE
  5
41BD
100
AcDbEntity
  8
MSL-115-P40-R-0
 48
2.0
100
AcDbLine
 10
1677.732831
 20
240.162218
 30
0.0
 11
1673.408508
 21
240.162218
 31
0.0
1001
ACAD
1000
RTLwPs
1070
   128
  0
ARC
  5
41BE
100
AcDbEntity
  8
MSL-115-P40-R-0
 48
2.0
100
AcDbCircle
 10
1668.529778
 20
243.497409
 30
0.0
 40
9.879572
100
AcDbArc
 50
0.747626
 51
21.326429
1001
ACAD
1000
RTLwPs
1070
   128
  0
LINE
  5
41BF
100
AcDbEntity
  8
MSL-115-P40-R-0
 48
2.0
100
AcDbLine
 10
1678.408508
 20
243.62632
 30
0.0
 11
1678.408508
 21
245.234015
 31
0.0
1001
ACAD
1000
RTLwPs
1070
   128
  0
ARC
  5
41C0
100
AcDbEntity
  8
MSL-115-P40-R-0
 48
2.0
100
AcDbCircle
 10
1640.374571
 20
233.021784
 30
0.0
 40
38.034529
100
AcDbArc
 50
7.884652
 51
10.820663
1001
ACAD
1000
RTLwPs
1070
   128
  0
ARC
  5
41C1
100
AcDbEntity
  8
MSL-115-P40-R-0
 48
2.0
100
AcDbCircle
 10
1668.524328
 20
243.756293
 30
0.0
 40
9.885035
100
AcDbArc
 50
338.67932
 51
359.246625
1001
ACAD
1000
RTLwPs
1070
   128
  0
LINE
  5
41C2
100
AcDbEntity
  8
MSL-115-P40-R-0
 48
2.0
100
AcDbLine
 10
1672.408508
 20
221.234015
 30
0.0
 11
1673.084185
 21
219.377608
 31
0.0
1001
ACAD
1000
RTLwPs
1070
   128
  0
LINE
  5
41C3
100
AcDbEntity
  8
MSL-115-P40-R-0
 48
2.0
100
AcDbLine
 10
1678.408508
 20
245.234015
 30
0.0
 11
1677.732831
 21
247.090421
 31
0.0
1001
ACAD
1000
RTLwPs
1070
   128
  0
LINE
  5
41C4
100
AcDbEntity
  8
MSL-115-P40-R-0
 48
2.0
100
AcDbLine
 10
1678.408508
 20
243.62632
 30
0.0
 11
1678.408508
 21
238.234015
 31
0.0
1001
ACAD
1000
RTLwPs
1070
   128
  0
LINE
  5
41C5
100
AcDbEntity
  8
MSL-115-P40-R-0
 48
2.0
100
AcDbLine
 10
1678.408508
 20
222.84171
 30
0.0
 11
1678.408508
 21
221.234015
 31
0.0
1001
ACAD
1000
RTLwPs
1070
   128
  0
LINE
  5
41C6
100
AcDbEntity
  8
MSL-115-P40-R-0
 48
2.0
100
AcDbLine
 10
1678.408508
 20
230.234015
 30
0.0
 11
1678.408508
 21
222.84171
 31
0.0
1001
ACAD
1000
RTLwPs
1070
   128
  0
LINE
  5
41C7
100
AcDbEntity
  8
MSL-115-P40-R-0
 48
2.0
100
AcDbLine
 10
1702.708508
 20
214.734015
 30
0.0
 11
1710.608508
 21
214.734015
 31
0.0
1001
ACAD
1000
RTLwPs
1070
   128
  0
LINE
  5
41C8
100
AcDbEntity
  8
MSL-115-P40-R-0
 48
2.0
100
AcDbLine
 10
1705.158508
 20
214.734015
 30
0.0
 11
1705.158508
 21
202.734015
 31
0.0
1001
ACAD
1000
RTLwPs
1070
   128
  0
LINE
  5
41C9
100
AcDbEntity
  8
MSL-115-P40-R-0
 48
2.0
100
AcDbLine
 10
1708.158508
 20
202.734015
 30
0.0
 11
1708.158508
 21
214.734015
 31
0.0
1001
ACAD
1000
RTLwPs
1070
   128
  0
LINE
  5
41CA
100
AcDbEntity
  8
MSL-115-P40-R-0
 48
2.0
100
AcDbLine
 10
1708.158508
 20
202.734015
 30
0.0
 11
1705.158508
 21
202.734015
 31
0.0
1001
ACAD
1000
RTLwPs
1070
   128
  0
LINE
  5
41CB
100
AcDbEntity
  8
MSL-115-P40-R-0
 48
2.0
100
AcDbLine
 10
1702.408508
 20
234.234015
 30
0.0
 11
1702.408508
 21
238.734015
 31
0.0
1001
ACAD
1000
RTLwPs
1070
   128
  0
LINE
  5
41CC
100
AcDbEntity
  8
MSL-115-P40-R-0
 48
2.0
100
AcDbLine
 10
1702.408508
 20
238.734015
 30
0.0
 11
1702.408508
 21
240.734015
 31
0.0
1001
ACAD
1000
RTLwPs
1070
   128
  0
LINE
  5
41CD
100
AcDbEntity
  8
MSL-115-P40-R-0
 48
2.0
100
AcDbLine
 10
1693.908508
 20
230.234015
 30
0.0
 11
1693.908508
 21
238.234015
 31
0.0
1001
ACAD
1000
RTLwPs
1070
   128
  0
LINE
  5
41CE
100
AcDbEntity
  8
MSL-115-P40-R-0
 48
2.0
100
AcDbLine
 10
1702.408508
 20
229.734015
 30
0.0
 11
1702.408508
 21
234.234015
 31
0.0
1001
ACAD
1000
RTLwPs
1070
   128
  0
LINE
  5
41CF
100
AcDbEntity
  8
MSL-115-P40-R-0
 48
2.0
100
AcDbLine
 10
1710.908508
 20
229.734015
 30
0.0
 11
1710.908508
 21
238.734015
 31
0.0
1001
ACAD
1000
RTLwPs
1070
   128
  0
LINE
  5
41D0
100
AcDbEntity
  8
MSL-115-P40-R-0
 48
2.0
100
AcDbLine
 10
1710.908508
 20
240.734015
 30
0.0
 11
1710.908508
 21
238.734015
 31
0.0
1001
ACAD
1000
RTLwPs
1070
   128
  0
LINE
  5
41D1
100
AcDbEntity
  8
MSL-115-P40-R-0
 48
2.0
100
AcDbLine
 10
1710.908508
 20
229.734015
 30
0.0
 11
1702.408508
 21
229.734015
 31
0.0
1001
ACAD
1000
RTLwPs
1070
   128
  0
LINE
  5
41D2
100
AcDbEntity
  8
MSL-115-P40-R-0
 48
2.0
100
AcDbLine
 10
1702.408508
 20
240.734015
 30
0.0
 11
1710.908508
 21
240.734015
 31
0.0
1001
ACAD
1000
RTLwPs
1070
   128
  0
LINE
  5
41D3
100
AcDbEntity
  8
MSL-115-P40-R-0
 48
2.0
100
AcDbLine
 10
1693.908508
 20
230.234015
 30
0.0
 11
1702.408508
 21
230.234015
 31
0.0
1001
ACAD
1000
RTLwPs
1070
   128
  0
LINE
  5
41D4
100
AcDbEntity
  8
MSL-115-P40-R-0
 48
2.0
100
AcDbLine
 10
1702.408508
 20
238.234015
 30
0.0
 11
1693.908508
 21
238.234015
 31
0.0
1001
ACAD
1000
RTLwPs
1070
   128
  0
LINE
  5
41D5
100
AcDbEntity
  8
MSL-115-P40-R-0
 48
2.0
100
AcDbLine
 10
1710.608508
 20
214.734015
 30
0.0
 11
1710.608508
 21
229.734015
 31
0.0
1001
ACAD
1000
RTLwPs
1070
   128
  0
LINE
  5
41D6
100
AcDbEntity
  8
MSL-115-P40-R-0
 48
2.0
100
AcDbLine
 10
1702.708508
 20
229.734015
 30
0.0
 11
1702.708508
 21
214.734015
 31
0.0
1001
ACAD
1000
RTLwPs
1070
   128
  0
LINE
  5
41D7
100
AcDbEntity
  8
MSL-115-P40-R-5
 48
2.0
100
AcDbLine
 10
1673.408508
 20
230.999015
 30
0.0
 11
1685.908508
 21
230.999015
 31
0.0
1001
ACAD
1000
RTLwPs
1070
   128
  0
LINE
  5
41D8
100
AcDbEntity
  8
MSL-115-P40-R-5
 48
2.0
100
AcDbLine
 10
1673.408508
 20
237.469015
 30
0.0
 11
1685.908508
 21
237.469015
 31
0.0
1001
ACAD
1000
RTLwPs
1070
   128
  0
LINE
  5
41D9
100
AcDbEntity
  8
MSL-115-P40-R-0
 48
2.0
100
AcDbLine
 10
1685.908508
 20
230.234015
 30
0.0
 11
1685.908508
 21
238.234015
 31
0.0
1001
ACAD
1000
RTLwPs
1070
   128
  0
LINE
  5
41DA
100
AcDbEntity
  8
MSL-115-P40-R-0
 48
2.0
100
AcDbLine
 10
1685.908508
 20
230.734015
 30
0.0
 11
1693.908508
 21
230.734015
 31
0.0
1001
ACAD
1000
RTLwPs
1070
   128
  0
LINE
  5
41DB
100
AcDbEntity
  8
MSL-115-P40-R-0
 48
2.0
100
AcDbLine
 10
1693.908508
 20
237.734015
 30
0.0
 11
1685.908508
 21
237.734015
 31
0.0
1001
ACAD
1000
RTLwPs
1070
   128
  0
LINE
  5
41DC
100
AcDbEntity
  8
MSL-115-P40-R-0
 48
2.0
100
AcDbLine
 10
1673.408508
 20
230.234015
 30
0.0
 11
1685.908508
 21
230.234015
 31
0.0
1001
ACAD
1000
RTLwPs
1070
   128
  0
LINE
  5
41DD
100
AcDbEntity
  8
MSL-115-P40-R-0
 48
2.0
100
AcDbLine
 10
1685.908508
 20
238.234015
 30
0.0
 11
1673.408508
 21
238.234015
 31
0.0
1001
ACAD
1000
RTLwPs
1070
   128
  0
LINE
  5
41DE
100
AcDbEntity
  8
MSL-115-P40-R-0
 48
2.0
100
AcDbLine
 10
1673.408508
 20
241.466065
 30
0.0
 11
1672.408508
 21
241.734015
 31
0.0
1001
ACAD
1000
RTLwPs
1070
   128
  0
LINE
  5
41DF
100
AcDbEntity
  8
MSL-115-P40-R-0
 48
2.0
100
AcDbLine
 10
1672.408508
 20
226.734015
 30
0.0
 11
1673.408508
 21
227.001964
 31
0.0
1001
ACAD
1000
RTLwPs
1070
   128
  0
LINE
  5
41E0
100
AcDbEntity
  8
MSL-115-P40-R-0
 48
2.0
100
AcDbLine
 10
1673.408508
 20
241.466065
 30
0.0
 11
1673.408508
 21
227.001964
 31
0.0
1001
ACAD
1000
RTLwPs
1070
   128
  0
ARC
  5
41E1
100
AcDbEntity
  8
MSL-115-P40-R-5
 48
2.0
100
AcDbCircle
 10
1652.908508
 20
193.234015
 30
0.0
 40
6.58
100
AcDbArc
 50
255.0
 51
195.0
1001
ACAD
1000
RTLwPs
1070
   128
  0
ARC
  5
41E2
100
AcDbEntity
  8
MSL-115-P40-R-5
 48
2.0
100
AcDbCircle
 10
1656.908508
 20
173.734015
 30
0.0
 40
6.58
100
AcDbArc
 50
255.0
 51
195.0
1001
ACAD
1000
RTLwPs
1070
   128
  0
LINE
  5
41E4
100
AcDbEntity
  8
MSL-115-P40-R-0
 48
2.0
100
AcDbLine
 10
1658.408508
 20
244.234015
 30
0.0
 11
1658.408508
 21
225.734015
 31
0.0
1001
ACAD
1000
RTLwPs
1070
   128
  0
LINE
  5
41E5
100
AcDbEntity
  8
MSL-115-P40-R-0
 48
2.0
100
AcDbLine
 10
1658.408508
 20
225.734015
 30
0.0
 11
1640.408508
 21
225.734015
 31
0.0
1001
ACAD
1000
RTLwPs
1070
   128
  0
LINE
  5
41E6
100
AcDbEntity
  8
MSL-115-P40-R-0
 48
2.0
100
AcDbLine
 10
1672.408508
 20
247.234015
 30
0.0
 11
1672.408508
 21
244.234015
 31
0.0
1001
ACAD
1000
RTLwPs
1070
   128
  0
LINE
  5
41E7
100
AcDbEntity
  8
MSL-115-P40-R-0
 48
2.0
100
AcDbLine
 10
1672.408508
 20
244.234015
 30
0.0
 11
1658.408508
 21
244.234015
 31
0.0
1001
ACAD
1000
RTLwPs
1070
   128
  0
CIRCLE
  5
41E8
100
AcDbEntity
  8
MSL-115-P40-R-0
 48
2.0
100
AcDbCircle
 10
1652.908508
 20
193.234015
 30
0.0
 40
9.25
1001
ACAD
1000
RTLwPs
1070
   128
  0
CIRCLE
  5
41E9
100
AcDbEntity
  8
MSL-115-P40-R-0
 48
2.0
100
AcDbCircle
 10
1656.908508
 20
173.734015
 30
0.0
 40
9.25
1001
ACAD
1000
RTLwPs
1070
   128
  0
CIRCLE
  5
41EA
100
AcDbEntity
  8
MSL-115-P40-R-0
 48
2.0
100
AcDbCircle
 10
1656.908508
 20
173.734015
 30
0.0
 40
6.8
1001
ACAD
1000
RTLwPs
1070
   128
  0
CIRCLE
  5
41EB
100
AcDbEntity
  8
MSL-115-P40-R-0
 48
2.0
100
AcDbCircle
 10
1652.908508
 20
193.234015
 30
0.0
 40
6.8
1001
ACAD
1000
RTLwPs
1070
   128
  0
CIRCLE
  5
41EC
100
AcDbEntity
  8
MSL-115-P40-R-0
 48
2.0
100
AcDbCircle
 10
1656.908508
 20
173.734015
 30
0.0
 40
4.0
1001
ACAD
1000
RTLwPs
1070
   128
  0
LINE
  5
41ED
100
AcDbEntity
  8
MSL-115-P40-R-0
 48
2.0
100
AcDbLine
 10
1672.408508
 20
133.234015
 30
0.0
 11
1640.408508
 21
133.234015
 31
0.0
1001
ACAD
1000
RTLwPs
1070
   128
  0
CIRCLE
  5
41EE
100
AcDbEntity
  8
MSL-115-P40-R-0
 48
2.0
100
AcDbCircle
 10
1652.908508
 20
193.234015
 30
0.0
 40
4.0
1001
ACAD
1000
RTLwPs
1070
   128
  0
LINE
  5
41EF
100
AcDbEntity
  8
MSL-115-P40-R-0
 48
2.0
100
AcDbLine
 10
1672.408508
 20
244.234015
 30
0.0
 11
1672.408508
 21
133.234015
 31
0.0
1001
ACAD
1000
RTLwPs
1070
   128
  0
LINE
  5
41F0
100
AcDbEntity
  8
MSL-115-P40-R-0
 48
2.0
100
AcDbLine
 10
1640.408508
 20
225.734015
 30
0.0
 11
1640.408508
 21
132.734015
 31
0.0
1001
ACAD
1000
RTLwPs
1070
   128
  0
LINE
  5
41F1
100
AcDbEntity
  8
MSL-115-P40-R-0
 48
2.0
100
AcDbLine
 10
1658.408508
 20
244.234015
 30
0.0
 11
1658.408508
 21
247.234015
 31
0.0
1001
ACAD
1000
RTLwPs
1070
   128
  0
LINE
  5
41F2
100
AcDbEntity
  8
MSL-115-P40-R-0
 48
2.0
100
AcDbLine
 10
1658.408508
 20
247.234015
 30
0.0
 11
1672.408508
 21
247.234015
 31
0.0
1001
ACAD
1000
RTLwPs
1070
   128
  0
CIRCLE
  5
41F3
100
AcDbEntity
  8
MSL-115-P40-R-0
 48
2.0
100
AcDbCircle
 10
1652.908508
 20
193.234015
 30
0.0
 40
5.725
1001
ACAD
1000
RTLwPs
1070
   128
  0
CIRCLE
  5
41F4
100
AcDbEntity
  8
MSL-115-P40-R-0
 48
2.0
100
AcDbCircle
 10
1656.908508
 20
173.734015
 30
0.0
 40
5.725
1001
ACAD
1000
RTLwPs
1070
   128
  0
LINE
  5
41F5
100
AcDbEntity
  8
MSL-115-P40-R-0
 48
2.0
100
AcDbLine
 10
1484.908508
 20
231.234015
 30
0.0
 11
1354.908508
 21
231.234015
 31
0.0
1001
ACAD
1000
RTLwPs
1070
   128
  0
LINE
  5
41F6
100
AcDbEntity
  8
MSL-115-P40-R-0
 48
2.0
100
AcDbLine
 10
1537.908508
 20
246.234015
 30
0.0
 11
1529.908508
 21
246.234015
 31
0.0
1001
ACAD
1000
RTLwPs
1070
   128
  0
LINE
  5
41F7
100
AcDbEntity
  8
MSL-115-P40-R-0
 48
2.0
100
AcDbLine
 10
1529.908508
 20
226.234015
 30
0.0
 11
1537.908508
 21
226.234015
 31
0.0
1001
ACAD
1000
RTLwPs
1070
   128
  0
LINE
  5
41F8
100
AcDbEntity
  8
MSL-115-P40-R-0
 48
2.0
100
AcDbLine
 10
1537.908508
 20
247.234015
 30
0.0
 11
1537.908508
 21
246.234015
 31
0.0
1001
ACAD
1000
RTLwPs
1070
   128
  0
LINE
  5
41F9
100
AcDbEntity
  8
MSL-115-P40-R-0
 48
2.0
100
AcDbLine
 10
1537.908508
 20
225.234015
 30
0.0
 11
1537.908508
 21
246.234015
 31
0.0
1001
ACAD
1000
RTLwPs
1070
   128
  0
LINE
  5
41FA
100
AcDbEntity
  8
MSL-115-P40-R-0
 48
2.0
100
AcDbLine
 10
1537.908508
 20
225.234015
 30
0.0
 11
1529.908508
 21
225.234015
 31
0.0
1001
ACAD
1000
RTLwPs
1070
   128
  0
LINE
  5
41FB
100
AcDbEntity
  8
MSL-115-P40-R-0
 48
2.0
100
AcDbLine
 10
1529.908508
 20
247.234015
 30
0.0
 11
1537.908508
 21
247.234015
 31
0.0
1001
ACAD
1000
RTLwPs
1070
   128
  0
LINE
  5
41FC
100
AcDbEntity
  8
MSL-115-P40-R-0
 48
2.0
100
AcDbLine
 10
1301.908508
 20
247.234015
 30
0.0
 11
1309.908508
 21
247.234015
 31
0.0
1001
ACAD
1000
RTLwPs
1070
   128
  0
LINE
  5
41FD
100
AcDbEntity
  8
MSL-115-P40-R-0
 48
2.0
100
AcDbLine
 10
1301.908508
 20
247.234015
 30
0.0
 11
1301.908508
 21
225.234015
 31
0.0
1001
ACAD
1000
RTLwPs
1070
   128
  0
LINE
  5
41FE
100
AcDbEntity
  8
MSL-115-P40-R-0
 48
2.0
100
AcDbLine
 10
1309.908508
 20
225.234015
 30
0.0
 11
1301.908508
 21
225.234015
 31
0.0
1001
ACAD
1000
RTLwPs
1070
   128
  0
LINE
  5
41FF
100
AcDbEntity
  8
MSL-115-P40-R-0
 48
2.0
100
AcDbLine
 10
1301.908508
 20
226.234015
 30
0.0
 11
1309.908508
 21
226.234015
 31
0.0
1001
ACAD
1000
RTLwPs
1070
   128
  0
LINE
  5
4200
100
AcDbEntity
  8
MSL-115-P40-R-0
 48
2.0
100
AcDbLine
 10
1309.908508
 20
246.234015
 30
0.0
 11
1301.908508
 21
246.234015
 31
0.0
1001
ACAD
1000
RTLwPs
1070
   128
  0
CIRCLE
  5
4201
100
AcDbEntity
  8
MSL-115-P40-R-0
 48
2.0
100
AcDbCircle
 10
1332.408508
 20
226.234015
 30
0.0
 40
1.604327
1001
ACAD
1000
RTLwPs
1070
   128
  0
CIRCLE
  5
4202
100
AcDbEntity
  8
MSL-115-P40-R-0
 48
2.0
100
AcDbCircle
 10
1332.408508
 20
226.234015
 30
0.0
 40
4.0
1001
ACAD
1000
RTLwPs
1070
   128
  0
CIRCLE
  5
4203
100
AcDbEntity
  8
MSL-115-P40-R-0
 48
2.0
100
AcDbCircle
 10
1332.408508
 20
226.234015
 30
0.0
 40
3.0
1001
ACAD
1000
RTLwPs
1070
   128
  0
CIRCLE
  5
4204
100
AcDbEntity
  8
MSL-115-P40-R-0
 48
2.0
100
AcDbCircle
 10
1332.408508
 20
226.234015
 30
0.0
 40
3.75
1001
ACAD
1000
RTLwPs
1070
   128
  0
LINE
  5
4205
100
AcDbEntity
  8
MSL-115-P40-R-0
 48
2.0
100
AcDbLine
 10
1309.908508
 20
201.234015
 30
0.0
 11
1354.908508
 21
201.234015
 31
0.0
1001
ACAD
1000
RTLwPs
1070
   128
  0
CIRCLE
  5
4206
100
AcDbEntity
  8
MSL-115-P40-R-0
 48
2.0
100
AcDbCircle
 10
1332.408508
 20
214.234015
 30
0.0
 40
1.5
1001
ACAD
1000
RTLwPs
1070
   128
  0
CIRCLE
  5
4207
100
AcDbEntity
  8
MSL-115-P40-R-0
 48
2.0
100
AcDbCircle
 10
1332.408508
 20
226.234015
 30
0.0
 40
4.1
1001
ACAD
1000
RTLwPs
1070
   128
  0
LINE
  5
4208
100
AcDbEntity
  8
MSL-115-P40-R-0
 48
2.0
100
AcDbLine
 10
1354.908508
 20
201.234015
 30
0.0
 11
1354.908508
 21
235.234015
 31
0.0
1001
ACAD
1000
RTLwPs
1070
   128
  0
LINE
  5
4209
100
AcDbEntity
  8
MSL-115-P40-R-0
 48
2.0
100
AcDbLine
 10
1309.908508
 20
201.234015
 30
0.0
 11
1309.908508
 21
235.234015
 31
0.0
1001
ACAD
1000
RTLwPs
1070
   128
  0
CIRCLE
  5
420A
100
AcDbEntity
  8
MSL-115-P40-R-0
 48
2.0
100
AcDbCircle
 10
1507.408508
 20
226.234015
 30
0.0
 40
1.604327
1001
ACAD
1000
RTLwPs
1070
   128
  0
CIRCLE
  5
420B
100
AcDbEntity
  8
MSL-115-P40-R-0
 48
2.0
100
AcDbCircle
 10
1507.408508
 20
226.234015
 30
0.0
 40
4.0
1001
ACAD
1000
RTLwPs
1070
   128
  0
CIRCLE
  5
420C
100
AcDbEntity
  8
MSL-115-P40-R-0
 48
2.0
100
AcDbCircle
 10
1507.408508
 20
226.234015
 30
0.0
 40
3.0
1001
ACAD
1000
RTLwPs
1070
   128
  0
CIRCLE
  5
420D
100
AcDbEntity
  8
MSL-115-P40-R-0
 48
2.0
100
AcDbCircle
 10
1507.408508
 20
226.234015
 30
0.0
 40
3.75
1001
ACAD
1000
RTLwPs
1070
   128
  0
LINE
  5
420E
100
AcDbEntity
  8
MSL-115-P40-R-0
 48
2.0
100
AcDbLine
 10
1484.908508
 20
201.234015
 30
0.0
 11
1529.908508
 21
201.234015
 31
0.0
1001
ACAD
1000
RTLwPs
1070
   128
  0
CIRCLE
  5
420F
100
AcDbEntity
  8
MSL-115-P40-R-0
 48
2.0
100
AcDbCircle
 10
1507.408508
 20
214.234015
 30
0.0
 40
1.5
1001
ACAD
1000
RTLwPs
1070
   128
  0
CIRCLE
  5
4210
100
AcDbEntity
  8
MSL-115-P40-R-0
 48
2.0
100
AcDbCircle
 10
1507.408508
 20
226.234015
 30
0.0
 40
4.1
1001
ACAD
1000
RTLwPs
1070
   128
  0
LINE
  5
4211
100
AcDbEntity
  8
MSL-115-P40-R-0
 48
2.0
100
AcDbLine
 10
1529.908508
 20
201.234015
 30
0.0
 11
1529.908508
 21
235.234015
 31
0.0
1001
ACAD
1000
RTLwPs
1070
   128
  0
LINE
  5
4212
100
AcDbEntity
  8
MSL-115-P40-R-0
 48
2.0
100
AcDbLine
 10
1484.908508
 20
201.234015
 30
0.0
 11
1484.908508
 21
235.234015
 31
0.0
1001
ACAD
1000
RTLwPs
1070
   128
  0
LINE
  5
4213
100
AcDbEntity
  8
MSL-115-P40-R-0
 48
2.0
100
AcDbLine
 10
1529.908508
 20
247.234015
 30
0.0
 11
1309.908508
 21
247.234015
 31
0.0
1001
ACAD
1000
RTLwPs
1070
   128
  0
LINE
  5
4214
100
AcDbEntity
  8
MSL-115-P40-R-0
 48
2.0
100
AcDbLine
 10
1309.908508
 20
247.734015
 30
0.0
 11
1309.908508
 21
235.234015
 31
0.0
1001
ACAD
1000
RTLwPs
1070
   128
  0
LINE
  5
4215
100
AcDbEntity
  8
MSL-115-P40-R-0
 48
2.0
100
AcDbLine
 10
1529.908508
 20
247.234015
 30
0.0
 11
1529.908508
 21
235.234015
 31
0.0
1001
ACAD
1000
RTLwPs
1070
   128
  0
LINE
  5
4216
100
AcDbEntity
  8
MSL-115-P40-R-0
 48
2.0
100
AcDbLine
 10
1529.908508
 20
247.734015
 30
0.0
 11
1529.908508
 21
247.234015
 31
0.0
1001
ACAD
1000
RTLwPs
1070
   128
  0
LINE
  5
4217
100
AcDbEntity
  8
MSL-115-P40-R-0
 48
2.0
100
AcDbLine
 10
1529.908508
 20
235.234015
 30
0.0
 11
1309.908508
 21
235.234015
 31
0.0
1001
ACAD
1000
RTLwPs
1070
   128
  0
LINE
  5
4218
100
AcDbEntity
  8
MSL-115-P40-R-0
 48
2.0
100
AcDbLine
 10
1309.908508
 20
247.734015
 30
0.0
 11
1529.908508
 21
247.734015
 31
0.0
1001
ACAD
1000
RTLwPs
1070
   128
  0
LINE
  5
4219
100
AcDbEntity
  8
MSL-115-P40-R-0
 48
2.0
100
AcDbLine
 10
1309.908508
 20
222.234015
 30
0.0
 11
1299.408508
 21
222.234015
 31
0.0
1001
ACAD
1000
RTLwPs
1070
   128
  0
LINE
  5
421A
100
AcDbEntity
  8
MSL-115-P40-R-0
 48
2.0
100
AcDbLine
 10
1484.908508
 20
222.234015
 30
0.0
 11
1354.908508
 21
222.234015
 31
0.0
1001
ACAD
1000
RTLwPs
1070
   128
  0
LINE
  5
421B
100
AcDbEntity
  8
MSL-115-P40-R-0
 48
2.0
100
AcDbLine
 10
1640.408508
 20
222.234015
 30
0.0
 11
1529.908508
 21
222.234015
 31
0.0
1001
ACAD
1000
RTLwPs
1070
   128
  0
LINE
  5
421C
100
AcDbEntity
  8
MSL-115-P40-R-0
 48
2.0
100
AcDbLine
 10
1299.408508
 20
199.234015
 30
0.0
 11
1640.408508
 21
199.234015
 31
0.0
1001
ACAD
1000
RTLwPs
1070
   128
  0
LINE
  5
421D
100
AcDbEntity
  8
MSL-115-P40-R-0
 48
2.0
100
AcDbLine
 10
1299.408508
 20
149.22955
 30
0.0
 11
1640.408508
 21
149.22955
 31
0.0
1001
ACAD
1000
RTLwPs
1070
   128
  0
LINE
  5
421E
100
AcDbEntity
  8
MSL-115-P40-R-0
 48
2.0
100
AcDbLine
 10
1640.408508
 20
194.734015
 30
0.0
 11
1299.408508
 21
194.734015
 31
0.0
1001
ACAD
1000
RTLwPs
1070
   128
  0
LINE
  5
421F
100
AcDbEntity
  8
MSL-115-P40-R-0
 48
2.0
100
AcDbLine
 10
1309.908508
 20
206.960984
 30
0.0
 11
1299.408508
 21
206.960984
 31
0.0
1001
ACAD
1000
RTLwPs
1070
   128
  0
LINE
  5
4220
100
AcDbEntity
  8
MSL-115-P40-R-0
 48
2.0
100
AcDbLine
 10
1484.908508
 20
206.960984
 30
0.0
 11
1354.908508
 21
206.960984
 31
0.0
1001
ACAD
1000
RTLwPs
1070
   128
  0
LINE
  5
4221
100
AcDbEntity
  8
MSL-115-P40-R-0
 48
2.0
100
AcDbLine
 10
1640.408508
 20
206.960984
 30
0.0
 11
1529.908508
 21
206.960984
 31
0.0
1001
ACAD
1000
RTLwPs
1070
   128
  0
LINE
  5
4222
100
AcDbEntity
  8
MSL-115-P40-R-0
 48
2.0
100
AcDbLine
 10
1640.408508
 20
132.734015
 30
0.0
 11
1299.408508
 21
132.734015
 31
0.0
1001
ACAD
1000
RTLwPs
1070
   128
  0
POLYLINE
  5
4223
100
AcDbEntity
  8
MSL-115-P40-R-0
 48
2.0
100
AcDb2dPolyline
 66
     1
 10
0.0
 20
0.0
 30
0.0
  0
VERTEX
  5
4224
100
AcDbEntity
  8
MSL-115-P40-R-0
 48
2.0
100
AcDbVertex
100
AcDb2dVertex
 10
1616.908508
 20
233.234015
 30
0.0
  0
VERTEX
  5
4225
100
AcDbEntity
  8
MSL-115-P40-R-0
 48
2.0
100
AcDbVertex
100
AcDb2dVertex
 10
1616.908508
 20
235.984015
 30
0.0
  0
SEQEND
  5
4226
100
AcDbEntity
  8
MSL-115-P40-R-0
 48
2.0
  0
POLYLINE
  5
4227
100
AcDbEntity
  8
MSL-115-P40-R-0
 48
2.0
100
AcDb2dPolyline
 66
     1
 10
0.0
 20
0.0
 30
0.0
  0
VERTEX
  5
4228
100
AcDbEntity
  8
MSL-115-P40-R-0
 48
2.0
100
AcDbVertex
100
AcDb2dVertex
 10
1617.408508
 20
233.234015
 30
0.0
  0
VERTEX
  5
4229
100
AcDbEntity
  8
MSL-115-P40-R-0
 48
2.0
100
AcDbVertex
100
AcDb2dVertex
 10
1617.408508
 20
239.234015
 30
0.0
  0
SEQEND
  5
422A
100
AcDbEntity
  8
MSL-115-P40-R-0
 48
2.0
  0
LINE
  5
422B
100
AcDbEntity
  8
MSL-115-P40-R-0
 48
2.0
100
AcDbLine
 10
1617.408508
 20
236.484015
 30
0.0
 11
1616.908508
 21
235.984015
 31
0.0
  0
LINE
  5
422C
100
AcDbEntity
  8
MSL-115-P40-R-0
 48
2.0
100
AcDbLine
 10
1617.408508
 20
229.984015
 30
0.0
 11
1616.908508
 21
230.484015
 31
0.0
  0
POLYLINE
  5
422D
100
AcDbEntity
  8
MSL-115-P40-R-0
 48
2.0
100
AcDb2dPolyline
 66
     1
 10
0.0
 20
0.0
 30
0.0
  0
VERTEX
  5
422E
100
AcDbEntity
  8
MSL-115-P40-R-0
 48
2.0
100
AcDbVertex
100
AcDb2dVertex
 10
1617.408508
 20
233.234015
 30
0.0
  0
VERTEX
  5
422F
100
AcDbEntity
  8
MSL-115-P40-R-0
 48
2.0
100
AcDbVertex
100
AcDb2dVertex
 10
1617.408508
 20
227.234015
 30
0.0
  0
SEQEND
  5
4230
100
AcDbEntity
  8
MSL-115-P40-R-0
 48
2.0
  0
POLYLINE
  5
4231
100
AcDbEntity
  8
MSL-115-P40-R-0
 48
2.0
100
AcDb2dPolyline
 66
     1
 10
0.0
 20
0.0
 30
0.0
  0
VERTEX
  5
4232
100
AcDbEntity
  8
MSL-115-P40-R-0
 48
2.0
100
AcDbVertex
100
AcDb2dVertex
 10
1616.908508
 20
233.234015
 30
0.0
  0
VERTEX
  5
4233
100
AcDbEntity
  8
MSL-115-P40-R-0
 48
2.0
100
AcDbVertex
100
AcDb2dVertex
 10
1616.908508
 20
230.484015
 30
0.0
  0
SEQEND
  5
4234
100
AcDbEntity
  8
MSL-115-P40-R-0
 48
2.0
  0
POLYLINE
  5
4235
100
AcDbEntity
  8
MSL-115-P40-R-0
 48
2.0
100
AcDb2dPolyline
 66
     1
 10
0.0
 20
0.0
 30
0.0
  0
VERTEX
  5
4236
100
AcDbEntity
  8
MSL-115-P40-R-0
 48
2.0
100
AcDbVertex
100
AcDb2dVertex
 10
1620.408508
 20
241.734015
 30
0.0
  0
VERTEX
  5
4237
100
AcDbEntity
  8
MSL-115-P40-R-0
 48
2.0
100
AcDbVertex
100
AcDb2dVertex
 10
1624.408508
 20
241.734015
 30
0.0
  0
VERTEX
  5
4238
100
AcDbEntity
  8
MSL-115-P40-R-0
 48
2.0
100
AcDbVertex
100
AcDb2dVertex
 10
1624.408508
 20
239.984015
 30
0.0
 42
0.414214
  0
VERTEX
  5
4239
100
AcDbEntity
  8
MSL-115-P40-R-0
 48
2.0
100
AcDbVertex
100
AcDb2dVertex
 10
1624.908508
 20
239.484015
 30
0.0
  0
VERTEX
  5
423A
100
AcDbEntity
  8
MSL-115-P40-R-0
 48
2.0
100
AcDbVertex
100
AcDb2dVertex
 10
1627.408508
 20
239.484015
 30
0.0
  0
VERTEX
  5
423B
100
AcDbEntity
  8
MSL-115-P40-R-0
 48
2.0
100
AcDbVertex
100
AcDb2dVertex
 10
1627.908508
 20
238.984015
 30
0.0
  0
VERTEX
  5
423C
100
AcDbEntity
  8
MSL-115-P40-R-0
 48
2.0
100
AcDbVertex
100
AcDb2dVertex
 10
1627.908508
 20
233.234015
 30
0.0
  0
SEQEND
  5
423D
100
AcDbEntity
  8
MSL-115-P40-R-0
 48
2.0
  0
POLYLINE
  5
423E
100
AcDbEntity
  8
MSL-115-P40-R-0
 48
2.0
100
AcDb2dPolyline
 66
     1
 10
0.0
 20
0.0
 30
0.0
  0
VERTEX
  5
423F
100
AcDbEntity
  8
MSL-115-P40-R-0
 48
2.0
100
AcDbVertex
100
AcDb2dVertex
 10
1627.408508
 20
233.234015
 30
0.0
  0
VERTEX
  5
4240
100
AcDbEntity
  8
MSL-115-P40-R-0
 48
2.0
100
AcDbVertex
100
AcDb2dVertex
 10
1627.408508
 20
239.484015
 30
0.0
  0
SEQEND
  5
4241
100
AcDbEntity
  8
MSL-115-P40-R-0
 48
2.0
  0
POLYLINE
  5
4242
100
AcDbEntity
  8
MSL-115-P40-R-0
 48
2.0
100
AcDb2dPolyline
 66
     1
 10
0.0
 20
0.0
 30
0.0
  0
VERTEX
  5
4243
100
AcDbEntity
  8
MSL-115-P40-R-0
 48
2.0
100
AcDbVertex
100
AcDb2dVertex
 10
1620.408508
 20
233.234015
 30
0.0
  0
VERTEX
  5
4244
100
AcDbEntity
  8
MSL-115-P40-R-0
 48
2.0
100
AcDbVertex
100
AcDb2dVertex
 10
1620.408508
 20
241.734015
 30
0.0
  0
SEQEND
  5
4245
100
AcDbEntity
  8
MSL-115-P40-R-0
 48
2.0
  0
LINE
  5
4246
100
AcDbEntity
  8
MSL-115-P40-R-5
 48
2.0
100
AcDbLine
 10
1624.408508
 20
238.907415
 30
0.0
 11
1624.408508
 21
227.521583
 31
0.0
  0
POLYLINE
  5
4247
100
AcDbEntity
  8
MSL-115-P40-R-0
 48
2.0
100
AcDb2dPolyline
 66
     1
 10
0.0
 20
0.0
 30
0.0
  0
VERTEX
  5
4248
100
AcDbEntity
  8
MSL-115-P40-R-0
 48
2.0
100
AcDbVertex
100
AcDb2dVertex
 10
1627.408508
 20
233.234015
 30
0.0
  0
VERTEX
  5
4249
100
AcDbEntity
  8
MSL-115-P40-R-0
 48
2.0
100
AcDbVertex
100
AcDb2dVertex
 10
1627.408508
 20
226.984015
 30
0.0
  0
SEQEND
  5
424A
100
AcDbEntity
  8
MSL-115-P40-R-0
 48
2.0
  0
POLYLINE
  5
424B
100
AcDbEntity
  8
MSL-115-P40-R-0
 48
2.0
100
AcDb2dPolyline
 66
     1
 10
0.0
 20
0.0
 30
0.0
  0
VERTEX
  5
424C
100
AcDbEntity
  8
MSL-115-P40-R-0
 48
2.0
100
AcDbVertex
100
AcDb2dVertex
 10
1620.408508
 20
233.234015
 30
0.0
  0
VERTEX
  5
424D
100
AcDbEntity
  8
MSL-115-P40-R-0
 48
2.0
100
AcDbVertex
100
AcDb2dVertex
 10
1620.408508
 20
224.734015
 30
0.0
  0
SEQEND
  5
424E
100
AcDbEntity
  8
MSL-115-P40-R-0
 48
2.0
  0
POLYLINE
  5
424F
100
AcDbEntity
  8
MSL-115-P40-R-0
 48
2.0
100
AcDb2dPolyline
 66
     1
 10
0.0
 20
0.0
 30
0.0
  0
VERTEX
  5
4250
100
AcDbEntity
  8
MSL-115-P40-R-0
 48
2.0
100
AcDbVertex
100
AcDb2dVertex
 10
1649.408508
 20
233.234015
 30
0.0
  0
VERTEX
  5
4251
100
AcDbEntity
  8
MSL-115-P40-R-0
 48
2.0
100
AcDbVertex
100
AcDb2dVertex
 10
1649.408508
 20
241.734015
 30
0.0
  0
SEQEND
  5
4252
100
AcDbEntity
  8
MSL-115-P40-R-0
 48
2.0
  0
LINE
  5
4253
100
AcDbEntity
  8
MSL-115-P40-R-0
 48
2.0
100
AcDbLine
 10
1651.908508
 20
243.234015
 30
0.0
 11
1651.908508
 21
233.234015
 31
0.0
  0
POLYLINE
  5
4254
100
AcDbEntity
  8
MSL-115-P40-R-0
 48
2.0
100
AcDb2dPolyline
 66
     1
 10
0.0
 20
0.0
 30
0.0
  0
VERTEX
  5
4255
100
AcDbEntity
  8
MSL-115-P40-R-0
 48
2.0
100
AcDbVertex
100
AcDb2dVertex
 10
1648.908508
 20
233.234015
 30
0.0
  0
VERTEX
  5
4256
100
AcDbEntity
  8
MSL-115-P40-R-0
 48
2.0
100
AcDbVertex
100
AcDb2dVertex
 10
1648.908508
 20
241.234015
 30
0.0
  0
VERTEX
  5
4257
100
AcDbEntity
  8
MSL-115-P40-R-0
 48
2.0
100
AcDbVertex
100
AcDb2dVertex
 10
1649.408508
 20
241.734015
 30
0.0
  0
VERTEX
  5
4258
100
AcDbEntity
  8
MSL-115-P40-R-0
 48
2.0
100
AcDbVertex
100
AcDb2dVertex
 10
1650.908508
 20
241.734015
 30
0.0
  0
SEQEND
  5
4259
100
AcDbEntity
  8
MSL-115-P40-R-0
 48
2.0
  0
LINE
  5
425A
100
AcDbEntity
  8
MSL-115-P40-R-0
 48
2.0
100
AcDbLine
 10
1651.908508
 20
225.734015
 30
0.0
 11
1651.908508
 21
233.234015
 31
0.0
  0
LINE
  5
425B
100
AcDbEntity
  8
MSL-115-P40-R-0
 48
2.0
100
AcDbLine
 10
1648.908508
 20
230.834015
 30
0.0
 11
1627.908508
 21
230.834015
 31
0.0
  0
LINE
  5
425C
100
AcDbEntity
  8
MSL-115-P40-R-0
 48
2.0
100
AcDbLine
 10
1648.908508
 20
235.634015
 30
0.0
 11
1627.908508
 21
235.634015
 31
0.0
  0
POLYLINE
  5
425D
100
AcDbEntity
  8
MSL-115-P40-R-0
 48
2.0
100
AcDb2dPolyline
 66
     1
 10
0.0
 20
0.0
 30
0.0
  0
VERTEX
  5
425E
100
AcDbEntity
  8
MSL-115-P40-R-0
 48
2.0
100
AcDbVertex
100
AcDb2dVertex
 10
1617.408508
 20
227.234015
 30
0.0
  0
VERTEX
  5
425F
100
AcDbEntity
  8
MSL-115-P40-R-0
 48
2.0
100
AcDbVertex
100
AcDb2dVertex
 10
1620.408508
 20
224.734015
 30
0.0
  0
SEQEND
  5
4260
100
AcDbEntity
  8
MSL-115-P40-R-0
 48
2.0
  0
POLYLINE
  5
4261
100
AcDbEntity
  8
MSL-115-P40-R-0
 48
2.0
100
AcDb2dPolyline
 66
     1
 10
0.0
 20
0.0
 30
0.0
  0
VERTEX
  5
4262
100
AcDbEntity
  8
MSL-115-P40-R-0
 48
2.0
100
AcDbVertex
100
AcDb2dVertex
 10
1617.408508
 20
239.234015
 30
0.0
  0
VERTEX
  5
4263
100
AcDbEntity
  8
MSL-115-P40-R-0
 48
2.0
100
AcDbVertex
100
AcDb2dVertex
 10
1620.408508
 20
241.734015
 30
0.0
  0
SEQEND
  5
4264
100
AcDbEntity
  8
MSL-115-P40-R-0
 48
2.0
  0
LINE
  5
4265
100
AcDbEntity
  8
MSL-115-P40-R-0
 48
2.0
100
AcDbLine
 10
1733.908508
 20
241.734015
 30
0.0
 11
1733.908508
 21
233.234015
 31
0.0
  0
POLYLINE
  5
4266
100
AcDbEntity
  8
MSL-115-P40-R-0
 48
2.0
100
AcDb2dPolyline
 66
     1
 10
0.0
 20
0.0
 30
0.0
  0
VERTEX
  5
4267
100
AcDbEntity
  8
MSL-115-P40-R-0
 48
2.0
100
AcDbVertex
100
AcDb2dVertex
 10
1727.908508
 20
241.734015
 30
0.0
  0
VERTEX
  5
4268
100
AcDbEntity
  8
MSL-115-P40-R-0
 48
2.0
100
AcDbVertex
100
AcDb2dVertex
 10
1733.908508
 20
241.734015
 30
0.0
  0
VERTEX
  5
4269
100
AcDbEntity
  8
MSL-115-P40-R-0
 48
2.0
100
AcDbVertex
100
AcDb2dVertex
 10
1734.908508
 20
240.734015
 30
0.0
  0
VERTEX
  5
426A
100
AcDbEntity
  8
MSL-115-P40-R-0
 48
2.0
100
AcDbVertex
100
AcDb2dVertex
 10
1734.908508
 20
233.234015
 30
0.0
  0
SEQEND
  5
426B
100
AcDbEntity
  8
MSL-115-P40-R-0
 48
2.0
  0
LINE
  5
426C
100
AcDbEntity
  8
MSL-115-P40-R-0
 48
2.0
100
AcDbLine
 10
1727.908508
 20
242.234015
 30
0.0
 11
1727.908508
 21
233.234015
 31
0.0
  0
LINE
  5
426D
100
AcDbEntity
  8
MSL-115-P40-R-0
 48
2.0
100
AcDbLine
 10
1726.908508
 20
223.234015
 30
0.0
 11
1726.908508
 21
243.234015
 31
0.0
  0
LINE
  5
426E
100
AcDbEntity
  8
MSL-115-P40-R-0
 48
2.0
100
AcDbLine
 10
1727.908508
 20
224.234015
 30
0.0
 11
1727.908508
 21
233.234015
 31
0.0
  0
POLYLINE
  5
426F
100
AcDbEntity
  8
MSL-115-P40-R-0
 48
2.0
100
AcDb2dPolyline
 66
     1
 10
0.0
 20
0.0
 30
0.0
  0
VERTEX
  5
4270
100
AcDbEntity
  8
MSL-115-P40-R-0
 48
2.0
100
AcDbVertex
100
AcDb2dVertex
 10
1727.908508
 20
224.734015
 30
0.0
  0
VERTEX
  5
4271
100
AcDbEntity
  8
MSL-115-P40-R-0
 48
2.0
100
AcDbVertex
100
AcDb2dVertex
 10
1733.908508
 20
224.734015
 30
0.0
  0
VERTEX
  5
4272
100
AcDbEntity
  8
MSL-115-P40-R-0
 48
2.0
100
AcDbVertex
100
AcDb2dVertex
 10
1734.908508
 20
225.734015
 30
0.0
  0
VERTEX
  5
4273
100
AcDbEntity
  8
MSL-115-P40-R-0
 48
2.0
100
AcDbVertex
100
AcDb2dVertex
 10
1734.908508
 20
233.234015
 30
0.0
  0
SEQEND
  5
4274
100
AcDbEntity
  8
MSL-115-P40-R-0
 48
2.0
  0
LINE
  5
4275
100
AcDbEntity
  8
MSL-115-P40-R-0
 48
2.0
100
AcDbLine
 10
1733.908508
 20
224.734015
 30
0.0
 11
1733.908508
 21
233.234015
 31
0.0
  0
LINE
  5
4276
100
AcDbEntity
  8
MSL-115-P40-R-5
 48
2.0
100
AcDbLine
 10
1727.408508
 20
223.734015
 30
0.0
 11
1710.608508
 21
223.734015
 31
0.0
  0
LINE
  5
4277
100
AcDbEntity
  8
MSL-115-P40-R-5
 48
2.0
100
AcDbLine
 10
1727.408508
 20
242.734015
 30
0.0
 11
1678.408508
 21
242.734015
 31
0.0
  0
LINE
  5
4278
100
AcDbEntity
  8
MSL-115-P40-R-7A
 48
2.0
100
AcDbLine
 10
1644.072943
 20
-27.464693
 30
0.0
 11
1524.326757
 21
-27.464693
 31
0.0
  0
LINE
  5
4279
100
AcDbEntity
  8
MSL-115-P40-R-7A
 48
2.0
100
AcDbLine
 10
1643.582181
 20
69.535307
 30
0.0
 11
1523.345231
 21
69.535307
 31
0.0
  0
LINE
  5
427A
100
AcDbEntity
  8
MSL-115-P40-R-0
 48
2.0
100
AcDbLine
 10
1640.908508
 20
-35.389693
 30
0.0
 11
1538.408508
 21
-35.389693
 31
0.0
  0
LINE
  5
427B
100
AcDbEntity
  8
MSL-115-P40-R-0
 48
2.0
100
AcDbLine
 10
1640.908508
 20
-19.389693
 30
0.0
 11
1538.408508
 21
-19.389693
 31
0.0
  0
LINE
  5
427C
100
AcDbEntity
  8
MSL-115-P40-R-0
 48
2.0
100
AcDbLine
 10
1640.408508
 20
61.460307
 30
0.0
 11
1538.408508
 21
61.460307
 31
0.0
  0
LINE
  5
427D
100
AcDbEntity
  8
MSL-115-P40-R-0
 48
2.0
100
AcDbLine
 10
1640.408508
 20
77.460307
 30
0.0
 11
1538.408508
 21
77.460307
 31
0.0
  0
LINE
  5
427E
100
AcDbEntity
  8
MSL-115-P40-R-0
 48
2.0
100
AcDbLine
 10
1640.908508
 20
43.635307
 30
0.0
 11
1640.908508
 21
-41.464693
 31
0.0
  0
POLYLINE
  5
427F
100
AcDbEntity
  8
MSL-115-P40-R-0
 48
2.0
100
AcDb2dPolyline
 66
     1
 10
0.0
 20
0.0
 30
0.0
  0
VERTEX
  5
4280
100
AcDbEntity
  8
MSL-115-P40-R-0
 48
2.0
100
AcDbVertex
100
AcDb2dVertex
 10
1650.908508
 20
46.035307
 30
0.0
  0
VERTEX
  5
4281
100
AcDbEntity
  8
MSL-115-P40-R-0
 48
2.0
100
AcDbVertex
100
AcDb2dVertex
 10
1650.908508
 20
55.035307
 30
0.0
  0
VERTEX
  5
4282
100
AcDbEntity
  8
MSL-115-P40-R-0
 48
2.0
100
AcDbVertex
100
AcDb2dVertex
 10
1651.908508
 20
56.035307
 30
0.0
  0
VERTEX
  5
4283
100
AcDbEntity
  8
MSL-115-P40-R-0
 48
2.0
100
AcDbVertex
100
AcDb2dVertex
 10
1658.408508
 20
56.035307
 30
0.0
  0
SEQEND
  5
4284
100
AcDbEntity
  8
MSL-115-P40-R-0
 48
2.0
  0
LINE
  5
4285
100
AcDbEntity
  8
MSL-115-P40-R-5
 48
2.0
100
AcDbLine
 10
1658.408508
 20
55.535307
 30
0.0
 11
1651.408508
 21
55.535307
 31
0.0
  0
LINE
  5
4286
100
AcDbEntity
  8
MSL-115-P40-R-5
 48
2.0
100
AcDbLine
 10
1658.408508
 20
36.535307
 30
0.0
 11
1651.408508
 21
36.535307
 31
0.0
  0
POLYLINE
  5
4287
100
AcDbEntity
  8
MSL-115-P40-R-0
 48
2.0
100
AcDb2dPolyline
 66
     1
 10
0.0
 20
0.0
 30
0.0
  0
VERTEX
  5
4288
100
AcDbEntity
  8
MSL-115-P40-R-0
 48
2.0
100
AcDbVertex
100
AcDb2dVertex
 10
1650.908508
 20
46.035307
 30
0.0
  0
VERTEX
  5
4289
100
AcDbEntity
  8
MSL-115-P40-R-0
 48
2.0
100
AcDbVertex
100
AcDb2dVertex
 10
1650.908508
 20
37.035307
 30
0.0
  0
VERTEX
  5
428A
100
AcDbEntity
  8
MSL-115-P40-R-0
 48
2.0
100
AcDbVertex
100
AcDb2dVertex
 10
1651.908508
 20
36.035307
 30
0.0
  0
VERTEX
  5
428B
100
AcDbEntity
  8
MSL-115-P40-R-0
 48
2.0
100
AcDbVertex
100
AcDb2dVertex
 10
1658.408508
 20
36.035307
 30
0.0
  0
SEQEND
  5
428C
100
AcDbEntity
  8
MSL-115-P40-R-0
 48
2.0
  0
LINE
  5
428D
100
AcDbEntity
  8
MSL-115-P40-R-0
 48
2.0
100
AcDbLine
 10
1648.908508
 20
48.435307
 30
0.0
 11
1627.908508
 21
48.435307
 31
0.0
  0
LINE
  5
428E
100
AcDbEntity
  8
MSL-115-P40-R-0
 48
2.0
100
AcDbLine
 10
1648.908508
 20
43.635307
 30
0.0
 11
1627.908508
 21
43.635307
 31
0.0
  0
POLYLINE
  5
428F
100
AcDbEntity
  8
MSL-115-P40-R-0
 48
2.0
100
AcDb2dPolyline
 66
     1
 10
0.0
 20
0.0
 30
0.0
  0
VERTEX
  5
4290
100
AcDbEntity
  8
MSL-115-P40-R-0
 48
2.0
100
AcDbVertex
100
AcDb2dVertex
 10
1649.408508
 20
46.035307
 30
0.0
  0
VERTEX
  5
4291
100
AcDbEntity
  8
MSL-115-P40-R-0
 48
2.0
100
AcDbVertex
100
AcDb2dVertex
 10
1649.408508
 20
37.535307
 30
0.0
  0
SEQEND
  5
4292
100
AcDbEntity
  8
MSL-115-P40-R-0
 48
2.0
  0
LINE
  5
4293
100
AcDbEntity
  8
MSL-115-P40-R-0
 48
2.0
100
AcDbLine
 10
1651.908508
 20
36.035307
 30
0.0
 11
1651.908508
 21
46.035307
 31
0.0
  0
POLYLINE
  5
4294
100
AcDbEntity
  8
MSL-115-P40-R-0
 48
2.0
100
AcDb2dPolyline
 66
     1
 10
0.0
 20
0.0
 30
0.0
  0
VERTEX
  5
4295
100
AcDbEntity
  8
MSL-115-P40-R-0
 48
2.0
100
AcDbVertex
100
AcDb2dVertex
 10
1648.908508
 20
46.035307
 30
0.0
  0
VERTEX
  5
4296
100
AcDbEntity
  8
MSL-115-P40-R-0
 48
2.0
100
AcDbVertex
100
AcDb2dVertex
 10
1648.908508
 20
38.035307
 30
0.0
  0
VERTEX
  5
4297
100
AcDbEntity
  8
MSL-115-P40-R-0
 48
2.0
100
AcDbVertex
100
AcDb2dVertex
 10
1649.408508
 20
37.535307
 30
0.0
  0
VERTEX
  5
4298
100
AcDbEntity
  8
MSL-115-P40-R-0
 48
2.0
100
AcDbVertex
100
AcDb2dVertex
 10
1650.908508
 20
37.535307
 30
0.0
  0
SEQEND
  5
4299
100
AcDbEntity
  8
MSL-115-P40-R-0
 48
2.0
  0
POLYLINE
  5
429A
100
AcDbEntity
  8
MSL-115-P40-R-0
 48
2.0
100
AcDb2dPolyline
 66
     1
 10
0.0
 20
0.0
 30
0.0
  0
VERTEX
  5
429B
100
AcDbEntity
  8
MSL-115-P40-R-0
 48
2.0
100
AcDbVertex
100
AcDb2dVertex
 10
1648.908508
 20
46.035307
 30
0.0
  0
VERTEX
  5
429C
100
AcDbEntity
  8
MSL-115-P40-R-0
 48
2.0
100
AcDbVertex
100
AcDb2dVertex
 10
1648.908508
 20
54.035307
 30
0.0
  0
VERTEX
  5
429D
100
AcDbEntity
  8
MSL-115-P40-R-0
 48
2.0
100
AcDbVertex
100
AcDb2dVertex
 10
1649.408508
 20
54.535307
 30
0.0
  0
VERTEX
  5
429E
100
AcDbEntity
  8
MSL-115-P40-R-0
 48
2.0
100
AcDbVertex
100
AcDb2dVertex
 10
1650.908508
 20
54.535307
 30
0.0
  0
SEQEND
  5
429F
100
AcDbEntity
  8
MSL-115-P40-R-0
 48
2.0
  0
LINE
  5
42A0
100
AcDbEntity
  8
MSL-115-P40-R-0
 48
2.0
100
AcDbLine
 10
1651.908508
 20
56.035307
 30
0.0
 11
1651.908508
 21
46.035307
 31
0.0
  0
POLYLINE
  5
42A1
100
AcDbEntity
  8
MSL-115-P40-R-0
 48
2.0
100
AcDb2dPolyline
 66
     1
 10
0.0
 20
0.0
 30
0.0
  0
VERTEX
  5
42A2
100
AcDbEntity
  8
MSL-115-P40-R-0
 48
2.0
100
AcDbVertex
100
AcDb2dVertex
 10
1649.408508
 20
46.035307
 30
0.0
  0
VERTEX
  5
42A3
100
AcDbEntity
  8
MSL-115-P40-R-0
 48
2.0
100
AcDbVertex
100
AcDb2dVertex
 10
1649.408508
 20
54.535307
 30
0.0
  0
SEQEND
  5
42A4
100
AcDbEntity
  8
MSL-115-P40-R-0
 48
2.0
  0
POLYLINE
  5
42A5
100
AcDbEntity
  8
MSL-115-P40-R-0
 48
2.0
100
AcDb2dPolyline
 66
     1
 10
0.0
 20
0.0
 30
0.0
  0
VERTEX
  5
42A6
100
AcDbEntity
  8
MSL-115-P40-R-0
 48
2.0
100
AcDbVertex
100
AcDb2dVertex
 10
1620.408508
 20
37.535307
 30
0.0
  0
VERTEX
  5
42A7
100
AcDbEntity
  8
MSL-115-P40-R-0
 48
2.0
100
AcDbVertex
100
AcDb2dVertex
 10
1624.408508
 20
37.535307
 30
0.0
  0
VERTEX
  5
42A8
100
AcDbEntity
  8
MSL-115-P40-R-0
 48
2.0
100
AcDbVertex
100
AcDb2dVertex
 10
1624.408508
 20
39.285307
 30
0.0
 42
-0.414214
  0
VERTEX
  5
42A9
100
AcDbEntity
  8
MSL-115-P40-R-0
 48
2.0
100
AcDbVertex
100
AcDb2dVertex
 10
1624.908508
 20
39.785307
 30
0.0
  0
VERTEX
  5
42AA
100
AcDbEntity
  8
MSL-115-P40-R-0
 48
2.0
100
AcDbVertex
100
AcDb2dVertex
 10
1627.408508
 20
39.785307
 30
0.0
  0
VERTEX
  5
42AB
100
AcDbEntity
  8
MSL-115-P40-R-0
 48
2.0
100
AcDbVertex
100
AcDb2dVertex
 10
1627.908508
 20
40.285307
 30
0.0
  0
VERTEX
  5
42AC
100
AcDbEntity
  8
MSL-115-P40-R-0
 48
2.0
100
AcDbVertex
100
AcDb2dVertex
 10
1627.908508
 20
46.035307
 30
0.0
  0
SEQEND
  5
42AD
100
AcDbEntity
  8
MSL-115-P40-R-0
 48
2.0
  0
POLYLINE
  5
42AE
100
AcDbEntity
  8
MSL-115-P40-R-0
 48
2.0
100
AcDb2dPolyline
 66
     1
 10
0.0
 20
0.0
 30
0.0
  0
VERTEX
  5
42AF
100
AcDbEntity
  8
MSL-115-P40-R-0
 48
2.0
100
AcDbVertex
100
AcDb2dVertex
 10
1620.408508
 20
46.035307
 30
0.0
  0
VERTEX
  5
42B0
100
AcDbEntity
  8
MSL-115-P40-R-0
 48
2.0
100
AcDbVertex
100
AcDb2dVertex
 10
1620.408508
 20
37.535307
 30
0.0
  0
SEQEND
  5
42B1
100
AcDbEntity
  8
MSL-115-P40-R-0
 48
2.0
  0
POLYLINE
  5
42B2
100
AcDbEntity
  8
MSL-115-P40-R-0
 48
2.0
100
AcDb2dPolyline
 66
     1
 10
0.0
 20
0.0
 30
0.0
  0
VERTEX
  5
42B3
100
AcDbEntity
  8
MSL-115-P40-R-0
 48
2.0
100
AcDbVertex
100
AcDb2dVertex
 10
1617.408508
 20
40.035307
 30
0.0
  0
VERTEX
  5
42B4
100
AcDbEntity
  8
MSL-115-P40-R-0
 48
2.0
100
AcDbVertex
100
AcDb2dVertex
 10
1620.408508
 20
37.535307
 30
0.0
  0
SEQEND
  5
42B5
100
AcDbEntity
  8
MSL-115-P40-R-0
 48
2.0
  0
POLYLINE
  5
42B6
100
AcDbEntity
  8
MSL-115-P40-R-0
 48
2.0
100
AcDb2dPolyline
 66
     1
 10
0.0
 20
0.0
 30
0.0
  0
VERTEX
  5
42B7
100
AcDbEntity
  8
MSL-115-P40-R-0
 48
2.0
100
AcDbVertex
100
AcDb2dVertex
 10
1620.408508
 20
54.535307
 30
0.0
  0
VERTEX
  5
42B8
100
AcDbEntity
  8
MSL-115-P40-R-0
 48
2.0
100
AcDbVertex
100
AcDb2dVertex
 10
1624.408508
 20
54.535307
 30
0.0
  0
VERTEX
  5
42B9
100
AcDbEntity
  8
MSL-115-P40-R-0
 48
2.0
100
AcDbVertex
100
AcDb2dVertex
 10
1624.408508
 20
52.785307
 30
0.0
 42
0.414214
  0
VERTEX
  5
42BA
100
AcDbEntity
  8
MSL-115-P40-R-0
 48
2.0
100
AcDbVertex
100
AcDb2dVertex
 10
1624.908508
 20
52.285307
 30
0.0
  0
VERTEX
  5
42BB
100
AcDbEntity
  8
MSL-115-P40-R-0
 48
2.0
100
AcDbVertex
100
AcDb2dVertex
 10
1627.408508
 20
52.285307
 30
0.0
  0
VERTEX
  5
42BC
100
AcDbEntity
  8
MSL-115-P40-R-0
 48
2.0
100
AcDbVertex
100
AcDb2dVertex
 10
1627.908508
 20
51.785307
 30
0.0
  0
VERTEX
  5
42BD
100
AcDbEntity
  8
MSL-115-P40-R-0
 48
2.0
100
AcDbVertex
100
AcDb2dVertex
 10
1627.908508
 20
46.035307
 30
0.0
  0
SEQEND
  5
42BE
100
AcDbEntity
  8
MSL-115-P40-R-0
 48
2.0
  0
LINE
  5
42BF
100
AcDbEntity
  8
MSL-115-P40-R-5
 48
2.0
100
AcDbLine
 10
1624.408508
 20
40.361907
 30
0.0
 11
1624.408508
 21
51.747739
 31
0.0
  0
POLYLINE
  5
42C0
100
AcDbEntity
  8
MSL-115-P40-R-0
 48
2.0
100
AcDb2dPolyline
 66
     1
 10
0.0
 20
0.0
 30
0.0
  0
VERTEX
  5
42C1
100
AcDbEntity
  8
MSL-115-P40-R-0
 48
2.0
100
AcDbVertex
100
AcDb2dVertex
 10
1617.408508
 20
46.035307
 30
0.0
  0
VERTEX
  5
42C2
100
AcDbEntity
  8
MSL-115-P40-R-0
 48
2.0
100
AcDbVertex
100
AcDb2dVertex
 10
1617.408508
 20
52.035307
 30
0.0
  0
SEQEND
  5
42C3
100
AcDbEntity
  8
MSL-115-P40-R-0
 48
2.0
  0
POLYLINE
  5
42C4
100
AcDbEntity
  8
MSL-115-P40-R-0
 48
2.0
100
AcDb2dPolyline
 66
     1
 10
0.0
 20
0.0
 30
0.0
  0
VERTEX
  5
42C5
100
AcDbEntity
  8
MSL-115-P40-R-0
 48
2.0
100
AcDbVertex
100
AcDb2dVertex
 10
1627.408508
 20
46.035307
 30
0.0
  0
VERTEX
  5
42C6
100
AcDbEntity
  8
MSL-115-P40-R-0
 48
2.0
100
AcDbVertex
100
AcDb2dVertex
 10
1627.408508
 20
52.285307
 30
0.0
  0
SEQEND
  5
42C7
100
AcDbEntity
  8
MSL-115-P40-R-0
 48
2.0
  0
POLYLINE
  5
42C8
100
AcDbEntity
  8
MSL-115-P40-R-0
 48
2.0
100
AcDb2dPolyline
 66
     1
 10
0.0
 20
0.0
 30
0.0
  0
VERTEX
  5
42C9
100
AcDbEntity
  8
MSL-115-P40-R-0
 48
2.0
100
AcDbVertex
100
AcDb2dVertex
 10
1620.408508
 20
46.035307
 30
0.0
  0
VERTEX
  5
42CA
100
AcDbEntity
  8
MSL-115-P40-R-0
 48
2.0
100
AcDbVertex
100
AcDb2dVertex
 10
1620.408508
 20
54.535307
 30
0.0
  0
SEQEND
  5
42CB
100
AcDbEntity
  8
MSL-115-P40-R-0
 48
2.0
  0
POLYLINE
  5
42CC
100
AcDbEntity
  8
MSL-115-P40-R-0
 48
2.0
100
AcDb2dPolyline
 66
     1
 10
0.0
 20
0.0
 30
0.0
  0
VERTEX
  5
42CD
100
AcDbEntity
  8
MSL-115-P40-R-0
 48
2.0
100
AcDbVertex
100
AcDb2dVertex
 10
1617.408508
 20
52.035307
 30
0.0
  0
VERTEX
  5
42CE
100
AcDbEntity
  8
MSL-115-P40-R-0
 48
2.0
100
AcDbVertex
100
AcDb2dVertex
 10
1620.408508
 20
54.535307
 30
0.0
  0
SEQEND
  5
42CF
100
AcDbEntity
  8
MSL-115-P40-R-0
 48
2.0
  0
POLYLINE
  5
42D0
100
AcDbEntity
  8
MSL-115-P40-R-0
 48
2.0
100
AcDb2dPolyline
 66
     1
 10
0.0
 20
0.0
 30
0.0
  0
VERTEX
  5
42D1
100
AcDbEntity
  8
MSL-115-P40-R-0
 48
2.0
100
AcDbVertex
100
AcDb2dVertex
 10
1627.408508
 20
46.035307
 30
0.0
  0
VERTEX
  5
42D2
100
AcDbEntity
  8
MSL-115-P40-R-0
 48
2.0
100
AcDbVertex
100
AcDb2dVertex
 10
1627.408508
 20
39.785307
 30
0.0
  0
SEQEND
  5
42D3
100
AcDbEntity
  8
MSL-115-P40-R-0
 48
2.0
  0
POLYLINE
  5
42D4
100
AcDbEntity
  8
MSL-115-P40-R-0
 48
2.0
100
AcDb2dPolyline
 66
     1
 10
0.0
 20
0.0
 30
0.0
  0
VERTEX
  5
42D5
100
AcDbEntity
  8
MSL-115-P40-R-0
 48
2.0
100
AcDbVertex
100
AcDb2dVertex
 10
1616.908508
 20
46.035307
 30
0.0
  0
VERTEX
  5
42D6
100
AcDbEntity
  8
MSL-115-P40-R-0
 48
2.0
100
AcDbVertex
100
AcDb2dVertex
 10
1616.908508
 20
43.285307
 30
0.0
  0
SEQEND
  5
42D7
100
AcDbEntity
  8
MSL-115-P40-R-0
 48
2.0
  0
POLYLINE
  5
42D8
100
AcDbEntity
  8
MSL-115-P40-R-0
 48
2.0
100
AcDb2dPolyline
 66
     1
 10
0.0
 20
0.0
 30
0.0
  0
VERTEX
  5
42D9
100
AcDbEntity
  8
MSL-115-P40-R-0
 48
2.0
100
AcDbVertex
100
AcDb2dVertex
 10
1617.408508
 20
46.035307
 30
0.0
  0
VERTEX
  5
42DA
100
AcDbEntity
  8
MSL-115-P40-R-0
 48
2.0
100
AcDbVertex
100
AcDb2dVertex
 10
1617.408508
 20
40.035307
 30
0.0
  0
SEQEND
  5
42DB
100
AcDbEntity
  8
MSL-115-P40-R-0
 48
2.0
  0
LINE
  5
42DC
100
AcDbEntity
  8
MSL-115-P40-R-0
 48
2.0
100
AcDbLine
 10
1617.408508
 20
49.285307
 30
0.0
 11
1616.908508
 21
48.785307
 31
0.0
  0
POLYLINE
  5
42DD
100
AcDbEntity
  8
MSL-115-P40-R-0
 48
2.0
100
AcDb2dPolyline
 66
     1
 10
0.0
 20
0.0
 30
0.0
  0
VERTEX
  5
42DE
100
AcDbEntity
  8
MSL-115-P40-R-0
 48
2.0
100
AcDbVertex
100
AcDb2dVertex
 10
1616.908508
 20
46.035307
 30
0.0
  0
VERTEX
  5
42DF
100
AcDbEntity
  8
MSL-115-P40-R-0
 48
2.0
100
AcDbVertex
100
AcDb2dVertex
 10
1616.908508
 20
48.785307
 30
0.0
  0
SEQEND
  5
42E0
100
AcDbEntity
  8
MSL-115-P40-R-0
 48
2.0
  0
LINE
  5
42E1
100
AcDbEntity
  8
MSL-115-P40-R-0
 48
2.0
100
AcDbLine
 10
1617.408508
 20
42.785307
 30
0.0
 11
1616.908508
 21
43.285307
 31
0.0
  0
LINE
  5
42E2
100
AcDbEntity
  8
MSL-115-P40-R-0
 48
2.0
100
AcDbLine
 10
1640.908508
 20
-41.464693
 30
0.0
 11
1538.408508
 21
-41.464693
 31
0.0
  0
LINE
  5
42E3
100
AcDbEntity
  8
MSL-115-P40-R-0
 48
2.0
100
AcDbLine
 10
1640.408508
 20
83.535307
 30
0.0
 11
1640.408508
 21
48.435307
 31
0.0
  0
LINE
  5
42E4
100
AcDbEntity
  8
MSL-115-P40-R-7A
 48
2.0
100
AcDbLine
 10
1228.479422
 20
21.035307
 30
0.0
 11
1714.976003
 21
21.035307
 31
0.0
  0
LINE
  5
42E5
100
AcDbEntity
  8
MSL-115-P40-R-7A
 48
2.0
100
AcDbLine
 10
1313.267032
 20
46.035307
 30
0.0
 11
1199.017195
 21
46.035307
 31
0.0
  0
LINE
  5
42E6
100
AcDbEntity
  8
MSL-115-P40-R-0
 48
2.0
100
AcDbLine
 10
1292.965132
 20
33.035307
 30
0.0
 11
1293.68682
 21
34.285307
 31
0.0
1001
ACAD
1000
RTLwPs
1070
   128
  0
LINE
  5
42E7
100
AcDbEntity
  8
MSL-115-P40-R-0
 48
2.0
100
AcDbLine
 10
1293.68682
 20
31.785307
 30
0.0
 11
1292.965132
 21
33.035307
 31
0.0
1001
ACAD
1000
RTLwPs
1070
   128
  0
LINE
  5
42E8
100
AcDbEntity
  8
MSL-115-P40-R-0
 48
2.0
100
AcDbLine
 10
1295.851884
 20
33.035307
 30
0.0
 11
1295.130196
 21
31.785307
 31
0.0
1001
ACAD
1000
RTLwPs
1070
   128
  0
LINE
  5
42E9
100
AcDbEntity
  8
MSL-115-P40-R-0
 48
2.0
100
AcDbLine
 10
1295.130196
 20
31.785307
 30
0.0
 11
1293.68682
 21
31.785307
 31
0.0
1001
ACAD
1000
RTLwPs
1070
   128
  0
LINE
  5
42EA
100
AcDbEntity
  8
MSL-115-P40-R-0
 48
2.0
100
AcDbLine
 10
1293.68682
 20
34.285307
 30
0.0
 11
1295.130196
 21
34.285307
 31
0.0
1001
ACAD
1000
RTLwPs
1070
   128
  0
LINE
  5
42EB
100
AcDbEntity
  8
MSL-115-P40-R-0
 48
2.0
100
AcDbLine
 10
1295.130196
 20
34.285307
 30
0.0
 11
1295.851884
 21
33.035307
 31
0.0
1001
ACAD
1000
RTLwPs
1070
   128
  0
CIRCLE
  5
42EC
100
AcDbEntity
  8
MSL-115-P40-R-0
 48
2.0
100
AcDbCircle
 10
1294.408508
 20
33.035307
 30
0.0
 40
2.75
1001
ACAD
1000
RTLwPs
1070
   128
  0
LINE
  5
42ED
100
AcDbEntity
  8
MSL-115-P40-R-0
 48
2.0
100
AcDbLine
 10
1289.851884
 20
9.035307
 30
0.0
 11
1289.130196
 21
7.785307
 31
0.0
1001
ACAD
1000
RTLwPs
1070
   128
  0
LINE
  5
42EE
100
AcDbEntity
  8
MSL-115-P40-R-0
 48
2.0
100
AcDbLine
 10
1289.130196
 20
7.785307
 30
0.0
 11
1287.68682
 21
7.785307
 31
0.0
1001
ACAD
1000
RTLwPs
1070
   128
  0
LINE
  5
42EF
100
AcDbEntity
  8
MSL-115-P40-R-0
 48
2.0
100
AcDbLine
 10
1287.68682
 20
10.285307
 30
0.0
 11
1289.130196
 21
10.285307
 31
0.0
1001
ACAD
1000
RTLwPs
1070
   128
  0
LINE
  5
42F0
100
AcDbEntity
  8
MSL-115-P40-R-0
 48
2.0
100
AcDbLine
 10
1289.130196
 20
10.285307
 30
0.0
 11
1289.851884
 21
9.035307
 31
0.0
1001
ACAD
1000
RTLwPs
1070
   128
  0
CIRCLE
  5
42F1
100
AcDbEntity
  8
MSL-115-P40-R-0
 48
2.0
100
AcDbCircle
 10
1288.408508
 20
9.035307
 30
0.0
 40
2.75
1001
ACAD
1000
RTLwPs
1070
   128
  0
LINE
  5
42F2
100
AcDbEntity
  8
MSL-115-P40-R-0
 48
2.0
100
AcDbLine
 10
1286.965132
 20
9.035307
 30
0.0
 11
1287.68682
 21
10.285307
 31
0.0
1001
ACAD
1000
RTLwPs
1070
   128
  0
LINE
  5
42F3
100
AcDbEntity
  8
MSL-115-P40-R-0
 48
2.0
100
AcDbLine
 10
1287.68682
 20
7.785307
 30
0.0
 11
1286.965132
 21
9.035307
 31
0.0
1001
ACAD
1000
RTLwPs
1070
   128
  0
LINE
  5
42F4
100
AcDbEntity
  8
MSL-115-P40-R-0
 48
2.0
100
AcDbLine
 10
1299.408508
 20
4.435307
 30
0.0
 11
1283.408508
 21
4.435307
 31
0.0
1001
ACAD
1000
RTLwPs
1070
   128
  0
LINE
  5
42F5
100
AcDbEntity
  8
MSL-115-P40-R-0
 48
2.0
100
AcDbLine
 10
1284.008508
 20
12.535307
 30
0.0
 11
1284.008508
 21
5.035307
 31
0.0
1001
ACAD
1000
RTLwPs
1070
   128
  0
LINE
  5
42F6
100
AcDbEntity
  8
MSL-115-P40-R-0
 48
2.0
100
AcDbLine
 10
1284.008508
 20
36.035307
 30
0.0
 11
1284.008508
 21
29.535307
 31
0.0
1001
ACAD
1000
RTLwPs
1070
   128
  0
LINE
  5
42F7
100
AcDbEntity
  8
MSL-115-P40-R-0
 48
2.0
100
AcDbLine
 10
1283.408508
 20
29.535307
 30
0.0
 11
1283.408508
 21
36.035307
 31
0.0
1001
ACAD
1000
RTLwPs
1070
   128
  0
LINE
  5
42F8
100
AcDbEntity
  8
MSL-115-P40-R-0
 48
2.0
100
AcDbLine
 10
1283.408508
 20
4.435307
 30
0.0
 11
1283.408508
 21
12.535307
 31
0.0
1001
ACAD
1000
RTLwPs
1070
   128
  0
LINE
  5
42F9
100
AcDbEntity
  8
MSL-115-P40-R-0
 48
2.0
100
AcDbLine
 10
1284.008508
 20
5.035307
 30
0.0
 11
1299.408508
 21
5.035307
 31
0.0
1001
ACAD
1000
RTLwPs
1070
   128
  0
LINE
  5
42FA
100
AcDbEntity
  8
MSL-115-P40-R-0
 48
2.0
100
AcDbLine
 10
1284.008508
 20
5.035307
 30
0.0
 11
1283.408508
 21
4.435307
 31
0.0
1001
ACAD
1000
RTLwPs
1070
   128
  0
CIRCLE
  5
42FB
100
AcDbEntity
  8
MSL-115-P40-R-0
 48
2.0
100
AcDbCircle
 10
1288.408508
 20
9.035307
 30
0.0
 40
3.0
1001
ACAD
1000
RTLwPs
1070
   128
  0
CIRCLE
  5
42FC
100
AcDbEntity
  8
MSL-115-P40-R-0
 48
2.0
100
AcDbCircle
 10
1294.408508
 20
33.035307
 30
0.0
 40
3.0
1001
ACAD
1000
RTLwPs
1070
   128
  0
LINE
  5
42FD
100
AcDbEntity
  8
MSL-115-P40-R-0
 48
2.0
100
AcDbLine
 10
1237.408508
 20
25.035307
 30
0.0
 11
1237.408508
 21
23.035307
 31
0.0
1001
ACAD
1000
RTLwPs
1070
   128
  0
LINE
  5
42FE
100
AcDbEntity
  8
MSL-115-P40-R-0
 48
2.0
100
AcDbLine
 10
1237.408508
 20
23.035307
 30
0.0
 11
1237.408508
 21
19.035307
 31
0.0
1001
ACAD
1000
RTLwPs
1070
   128
  0
LINE
  5
42FF
100
AcDbEntity
  8
MSL-115-P40-R-0
 48
2.0
100
AcDbLine
 10
1237.408508
 20
17.035307
 30
0.0
 11
1228.908508
 21
17.035307
 31
0.0
1001
ACAD
1000
RTLwPs
1070
   128
  0
LINE
  5
4300
100
AcDbEntity
  8
MSL-115-P40-R-0
 48
2.0
100
AcDbLine
 10
1228.908508
 20
17.035307
 30
0.0
 11
1228.908508
 21
19.035307
 31
0.0
1001
ACAD
1000
RTLwPs
1070
   128
  0
LINE
  5
4301
100
AcDbEntity
  8
MSL-115-P40-R-0
 48
2.0
100
AcDbLine
 10
1237.408508
 20
19.035307
 30
0.0
 11
1237.408508
 21
17.035307
 31
0.0
1001
ACAD
1000
RTLwPs
1070
   128
  0
LINE
  5
4302
100
AcDbEntity
  8
MSL-115-P40-R-0
 48
2.0
100
AcDbLine
 10
1228.908508
 20
25.035307
 30
0.0
 11
1237.408508
 21
25.035307
 31
0.0
1001
ACAD
1000
RTLwPs
1070
   128
  0
LINE
  5
4303
100
AcDbEntity
  8
MSL-115-P40-R-0
 48
2.0
100
AcDbLine
 10
1228.908508
 20
23.035307
 30
0.0
 11
1228.908508
 21
19.035307
 31
0.0
1001
ACAD
1000
RTLwPs
1070
   128
  0
LINE
  5
4304
100
AcDbEntity
  8
MSL-115-P40-R-0
 48
2.0
100
AcDbLine
 10
1245.908508
 20
25.035307
 30
0.0
 11
1245.908508
 21
17.035307
 31
0.0
1001
ACAD
1000
RTLwPs
1070
   128
  0
LINE
  5
4305
100
AcDbEntity
  8
MSL-115-P40-R-0
 48
2.0
100
AcDbLine
 10
1228.908508
 20
23.035307
 30
0.0
 11
1228.908508
 21
25.035307
 31
0.0
1001
ACAD
1000
RTLwPs
1070
   128
  0
LINE
  5
4306
100
AcDbEntity
  8
MSL-115-P40-R-0
 48
2.0
100
AcDbLine
 10
1245.908508
 20
25.035307
 30
0.0
 11
1237.408508
 21
25.035307
 31
0.0
1001
ACAD
1000
RTLwPs
1070
   128
  0
LINE
  5
4307
100
AcDbEntity
  8
MSL-115-P40-R-0
 48
2.0
100
AcDbLine
 10
1237.408508
 20
17.035307
 30
0.0
 11
1245.908508
 21
17.035307
 31
0.0
1001
ACAD
1000
RTLwPs
1070
   128
  0
LINE
  5
4308
100
AcDbEntity
  8
MSL-115-P40-R-5
 48
2.0
100
AcDbLine
 10
1266.408508
 20
24.270307
 30
0.0
 11
1253.908508
 21
24.270307
 31
0.0
1001
ACAD
1000
RTLwPs
1070
   128
  0
LINE
  5
4309
100
AcDbEntity
  8
MSL-115-P40-R-5
 48
2.0
100
AcDbLine
 10
1266.408508
 20
17.800307
 30
0.0
 11
1253.908508
 21
17.800307
 31
0.0
1001
ACAD
1000
RTLwPs
1070
   128
  0
LINE
  5
430A
100
AcDbEntity
  8
MSL-115-P40-R-0
 48
2.0
100
AcDbLine
 10
1253.908508
 20
25.035307
 30
0.0
 11
1253.908508
 21
17.035307
 31
0.0
1001
ACAD
1000
RTLwPs
1070
   128
  0
LINE
  5
430B
100
AcDbEntity
  8
MSL-115-P40-R-0
 48
2.0
100
AcDbLine
 10
1253.908508
 20
24.535307
 30
0.0
 11
1245.908508
 21
24.535307
 31
0.0
1001
ACAD
1000
RTLwPs
1070
   128
  0
LINE
  5
430C
100
AcDbEntity
  8
MSL-115-P40-R-0
 48
2.0
100
AcDbLine
 10
1245.908508
 20
17.535307
 30
0.0
 11
1253.908508
 21
17.535307
 31
0.0
1001
ACAD
1000
RTLwPs
1070
   128
  0
LINE
  5
430D
100
AcDbEntity
  8
MSL-115-P40-R-0
 48
2.0
100
AcDbLine
 10
1266.408508
 20
25.035307
 30
0.0
 11
1253.908508
 21
25.035307
 31
0.0
1001
ACAD
1000
RTLwPs
1070
   128
  0
LINE
  5
430E
100
AcDbEntity
  8
MSL-115-P40-R-0
 48
2.0
100
AcDbLine
 10
1253.908508
 20
17.035307
 30
0.0
 11
1266.408508
 21
17.035307
 31
0.0
1001
ACAD
1000
RTLwPs
1070
   128
  0
LINE
  5
430F
100
AcDbEntity
  8
MSL-115-P40-R-0
 48
2.0
100
AcDbLine
 10
1275.158508
 20
20.313619
 30
0.0
 11
1273.908508
 21
19.591931
 31
0.0
1001
ACAD
1000
RTLwPs
1070
   128
  0
LINE
  5
4310
100
AcDbEntity
  8
MSL-115-P40-R-0
 48
2.0
100
AcDbLine
 10
1272.658508
 20
21.756995
 30
0.0
 11
1273.908508
 21
22.478683
 31
0.0
1001
ACAD
1000
RTLwPs
1070
   128
  0
LINE
  5
4311
100
AcDbEntity
  8
MSL-115-P40-R-0
 48
2.0
100
AcDbLine
 10
1273.908508
 20
22.478683
 30
0.0
 11
1275.158508
 21
21.756995
 31
0.0
1001
ACAD
1000
RTLwPs
1070
   128
  0
LINE
  5
4312
100
AcDbEntity
  8
MSL-115-P40-R-0
 48
2.0
100
AcDbLine
 10
1275.158508
 20
21.756995
 30
0.0
 11
1275.158508
 21
20.313619
 31
0.0
1001
ACAD
1000
RTLwPs
1070
   128
  0
LINE
  5
4313
100
AcDbEntity
  8
MSL-115-P40-R-0
 48
2.0
100
AcDbLine
 10
1272.658508
 20
20.313619
 30
0.0
 11
1272.658508
 21
21.756995
 31
0.0
1001
ACAD
1000
RTLwPs
1070
   128
  0
LINE
  5
4314
100
AcDbEntity
  8
MSL-115-P40-R-0
 48
2.0
100
AcDbLine
 10
1273.908508
 20
19.591931
 30
0.0
 11
1272.658508
 21
20.313619
 31
0.0
1001
ACAD
1000
RTLwPs
1070
   128
  0
LINE
  5
4315
100
AcDbEntity
  8
MSL-115-P40-R-0
 48
2.0
100
AcDbLine
 10
1267.408508
 20
28.535307
 30
0.0
 11
1266.408508
 21
28.267358
 31
0.0
1001
ACAD
1000
RTLwPs
1070
   128
  0
LINE
  5
4316
100
AcDbEntity
  8
MSL-115-P40-R-0
 48
2.0
100
AcDbLine
 10
1284.408508
 20
12.535307
 30
0.0
 11
1284.056167
 21
12.535307
 31
0.0
1001
ACAD
1000
RTLwPs
1070
   128
  0
ARC
  5
4317
100
AcDbEntity
  8
MSL-115-P40-R-0
 48
2.0
100
AcDbCircle
 10
1256.93062
 20
25.423722
 30
0.0
 40
27.478237
100
AcDbArc
 50
350.810219
 51
359.711385
1001
ACAD
1000
RTLwPs
1070
   128
  0
LINE
  5
4318
100
AcDbEntity
  8
MSL-115-P40-R-0
 48
2.0
100
AcDbLine
 10
1266.408508
 20
13.803256
 30
0.0
 11
1266.408508
 21
28.267358
 31
0.0
1001
ACAD
1000
RTLwPs
1070
   128
  0
ARC
  5
4319
100
AcDbEntity
  8
MSL-115-P40-R-0
 48
2.0
100
AcDbCircle
 10
1256.93062
 20
16.923722
 30
0.0
 40
27.478237
100
AcDbArc
 50
350.810219
 51
359.711385
1001
ACAD
1000
RTLwPs
1070
   128
  0
ARC
  5
431A
100
AcDbEntity
  8
MSL-115-P40-R-0
 48
2.0
100
AcDbCircle
 10
1256.94057
 20
25.147717
 30
0.0
 40
27.468283
100
AcDbArc
 50
0.286999
 51
9.191397
1001
ACAD
1000
RTLwPs
1070
   128
  0
LINE
  5
431B
100
AcDbEntity
  8
MSL-115-P40-R-0
 48
2.0
100
AcDbLine
 10
1284.056167
 20
29.535307
 30
0.0
 11
1284.408508
 21
29.535307
 31
0.0
1001
ACAD
1000
RTLwPs
1070
   128
  0
LINE
  5
431C
100
AcDbEntity
  8
MSL-115-P40-R-0
 48
2.0
100
AcDbLine
 10
1284.408508
 20
25.285307
 30
0.0
 11
1284.408508
 21
29.535307
 31
0.0
1001
ACAD
1000
RTLwPs
1070
   128
  0
ARC
  5
431D
100
AcDbEntity
  8
MSL-115-P40-R-0
 48
2.0
100
AcDbCircle
 10
1256.94057
 20
16.647717
 30
0.0
 40
27.468283
100
AcDbArc
 50
0.286999
 51
9.191397
1001
ACAD
1000
RTLwPs
1070
   128
  0
LINE
  5
431E
100
AcDbEntity
  8
MSL-115-P40-R-0
 48
2.0
100
AcDbLine
 10
1281.408508
 20
12.535307
 30
0.0
 11
1284.056167
 21
12.535307
 31
0.0
1001
ACAD
1000
RTLwPs
1070
   128
  0
LINE
  5
431F
100
AcDbEntity
  8
MSL-115-P40-R-0
 48
2.0
100
AcDbLine
 10
1281.408508
 20
29.535307
 30
0.0
 11
1284.056167
 21
29.535307
 31
0.0
1001
ACAD
1000
RTLwPs
1070
   128
  0
LINE
  5
4320
100
AcDbEntity
  8
MSL-115-P40-R-0
 48
2.0
100
AcDbLine
 10
1281.408508
 20
21.035307
 30
0.0
 11
1284.056167
 21
21.035307
 31
0.0
1001
ACAD
1000
RTLwPs
1070
   128
  0
LINE
  5
4321
100
AcDbEntity
  8
MSL-115-P40-R-0
 48
2.0
100
AcDbLine
 10
1284.408508
 20
12.535307
 30
0.0
 11
1284.408508
 21
16.785307
 31
0.0
1001
ACAD
1000
RTLwPs
1070
   128
  0
LINE
  5
4322
100
AcDbEntity
  8
MSL-115-P40-R-0
 48
2.0
100
AcDbLine
 10
1266.408508
 20
13.803256
 30
0.0
 11
1267.408508
 21
13.535307
 31
0.0
1001
ACAD
1000
RTLwPs
1070
   128
  0
ARC
  5
4323
100
AcDbEntity
  8
MSL-115-P40-R-5
 48
2.0
100
AcDbCircle
 10
1273.908508
 20
21.035307
 30
0.0
 40
2.5
100
AcDbArc
 50
165.0
 51
105.0
1001
ACAD
1000
RTLwPs
1070
   128
  0
LINE
  5
4324
100
AcDbEntity
  8
MSL-115-P40-R-0
 48
2.0
100
AcDbLine
 10
1281.408508
 20
80.535307
 30
0.0
 11
1281.408508
 21
-38.464693
 31
0.0
1001
ACAD
1000
RTLwPs
1070
   128
  0
LINE
  5
4325
100
AcDbEntity
  8
MSL-115-P40-R-0
 48
2.0
100
AcDbLine
 10
1267.408508
 20
80.535307
 30
0.0
 11
1281.408508
 21
80.535307
 31
0.0
1001
ACAD
1000
RTLwPs
1070
   128
  0
LINE
  5
4326
100
AcDbEntity
  8
MSL-115-P40-R-0
 48
2.0
100
AcDbLine
 10
1281.408508
 20
-38.464693
 30
0.0
 11
1267.408508
 21
-38.464693
 31
0.0
1001
ACAD
1000
RTLwPs
1070
   128
  0
LINE
  5
4327
100
AcDbEntity
  8
MSL-115-P40-R-0
 48
2.0
100
AcDbLine
 10
1301.908508
 20
83.535307
 30
0.0
 11
1267.408508
 21
83.535307
 31
0.0
1001
ACAD
1000
RTLwPs
1070
   128
  0
LINE
  5
4328
100
AcDbEntity
  8
MSL-115-P40-R-0
 48
2.0
100
AcDbLine
 10
1281.408508
 20
80.535307
 30
0.0
 11
1281.408508
 21
83.535307
 31
0.0
1001
ACAD
1000
RTLwPs
1070
   128
  0
LINE
  5
4329
100
AcDbEntity
  8
MSL-115-P40-R-0
 48
2.0
100
AcDbLine
 10
1281.408508
 20
-41.464693
 30
0.0
 11
1281.408508
 21
-38.464693
 31
0.0
1001
ACAD
1000
RTLwPs
1070
   128
  0
LINE
  5
432A
100
AcDbEntity
  8
MSL-115-P40-R-0
 48
2.0
100
AcDbLine
 10
1267.408508
 20
83.535307
 30
0.0
 11
1267.408508
 21
80.535307
 31
0.0
1001
ACAD
1000
RTLwPs
1070
   128
  0
LINE
  5
432B
100
AcDbEntity
  8
MSL-115-P40-R-0
 48
2.0
100
AcDbLine
 10
1267.408508
 20
-38.464693
 30
0.0
 11
1267.408508
 21
-41.464693
 31
0.0
1001
ACAD
1000
RTLwPs
1070
   128
  0
LINE
  5
432C
100
AcDbEntity
  8
MSL-115-P40-R-0
 48
2.0
100
AcDbLine
 10
1267.408508
 20
-41.464693
 30
0.0
 11
1301.908508
 21
-41.464693
 31
0.0
1001
ACAD
1000
RTLwPs
1070
   128
  0
LINE
  5
432D
100
AcDbEntity
  8
MSL-115-P40-R-0
 48
2.0
100
AcDbLine
 10
1267.408508
 20
80.535307
 30
0.0
 11
1267.408508
 21
-38.464693
 31
0.0
1001
ACAD
1000
RTLwPs
1070
   128
  0
LINE
  5
432E
100
AcDbEntity
  8
MSL-115-P40-R-0
 48
2.0
100
AcDbLine
 10
1287.408508
 20
-12.964693
 30
0.0
 11
1299.408508
 21
-12.964693
 31
0.0
1001
ACAD
1000
RTLwPs
1070
   128
  0
ARC
  5
432F
100
AcDbEntity
  8
MSL-115-P40-R-0
 48
2.0
100
AcDbCircle
 10
1287.408508
 20
-6.964693
 30
0.0
 40
6.0
100
AcDbArc
 50
180.0
 51
270.0
1001
ACAD
1000
RTLwPs
1070
   128
  0
CIRCLE
  5
4330
100
AcDbEntity
  8
MSL-115-P40-R-0
 48
2.0
100
AcDbCircle
 10
1273.908508
 20
21.035307
 30
0.0
 40
2.1
1001
ACAD
1000
RTLwPs
1070
   128
  0
ARC
  5
4331
100
AcDbEntity
  8
MSL-115-P40-R-0
 48
2.0
100
AcDbCircle
 10
1701.258896
 20
39.82443
 30
0.0
 40
28.851159
100
AcDbArc
 50
167.568452
 51
179.581213
1001
ACAD
1000
RTLwPs
1070
   128
  0
ARC
  5
4332
100
AcDbEntity
  8
MSL-115-P40-R-0
 48
2.0
100
AcDbCircle
 10
1701.258896
 20
51.82443
 30
0.0
 40
28.851159
100
AcDbArc
 50
167.568452
 51
179.581213
1001
ACAD
1000
RTLwPs
1070
   128
  0
ARC
  5
4333
100
AcDbEntity
  8
MSL-115-P40-R-0
 48
2.0
100
AcDbCircle
 10
1649.578457
 20
51.82672
 30
0.0
 40
28.830806
100
AcDbArc
 50
0.414532
 51
12.435804
1001
ACAD
1000
RTLwPs
1070
   128
  0
LINE
  5
4334
100
AcDbEntity
  8
MSL-115-P40-R-0
 48
2.0
100
AcDbLine
 10
1677.732831
 20
58.035307
 30
0.0
 11
1678.408508
 21
58.035307
 31
0.0
1001
ACAD
1000
RTLwPs
1070
   128
  0
ARC
  5
4335
100
AcDbEntity
  8
MSL-115-P40-R-0
 48
2.0
100
AcDbCircle
 10
1701.23856
 20
52.243895
 30
0.0
 40
28.830806
100
AcDbArc
 50
180.414532
 51
192.435804
1001
ACAD
1000
RTLwPs
1070
   128
  0
LINE
  5
4336
100
AcDbEntity
  8
MSL-115-P40-R-0
 48
2.0
100
AcDbLine
 10
1673.084185
 20
34.035307
 30
0.0
 11
1672.408508
 21
34.035307
 31
0.0
1001
ACAD
1000
RTLwPs
1070
   128
  0
ARC
  5
4337
100
AcDbEntity
  8
MSL-115-P40-R-0
 48
2.0
100
AcDbCircle
 10
1701.23856
 20
40.243895
 30
0.0
 40
28.830806
100
AcDbArc
 50
180.414532
 51
192.435804
1001
ACAD
1000
RTLwPs
1070
   128
  0
LINE
  5
4338
100
AcDbEntity
  8
MSL-115-P40-R-0
 48
2.0
100
AcDbLine
 10
1677.732831
 20
46.035307
 30
0.0
 11
1673.084185
 21
46.035307
 31
0.0
1001
ACAD
1000
RTLwPs
1070
   128
  0
LINE
  5
4339
100
AcDbEntity
  8
MSL-115-P40-R-0
 48
2.0
100
AcDbLine
 10
1672.408508
 20
58.035307
 30
0.0
 11
1673.084185
 21
58.035307
 31
0.0
1001
ACAD
1000
RTLwPs
1070
   128
  0
LINE
  5
433A
100
AcDbEntity
  8
MSL-115-P40-R-0
 48
2.0
100
AcDbLine
 10
1677.732831
 20
34.035307
 30
0.0
 11
1673.084185
 21
34.035307
 31
0.0
1001
ACAD
1000
RTLwPs
1070
   128
  0
LINE
  5
433B
100
AcDbEntity
  8
MSL-115-P40-R-0
 48
2.0
100
AcDbLine
 10
1677.732831
 20
58.035307
 30
0.0
 11
1673.084185
 21
58.035307
 31
0.0
1001
ACAD
1000
RTLwPs
1070
   128
  0
LINE
  5
433C
100
AcDbEntity
  8
MSL-115-P40-R-0
 48
2.0
100
AcDbLine
 10
1678.408508
 20
58.035307
 30
0.0
 11
1678.408508
 21
52.035307
 31
0.0
1001
ACAD
1000
RTLwPs
1070
   128
  0
ARC
  5
433D
100
AcDbEntity
  8
MSL-115-P40-R-0
 48
2.0
100
AcDbCircle
 10
1649.55812
 20
52.246185
 30
0.0
 40
28.851159
100
AcDbArc
 50
347.568452
 51
359.581213
1001
ACAD
1000
RTLwPs
1070
   128
  0
LINE
  5
433E
100
AcDbEntity
  8
MSL-115-P40-R-0
 48
2.0
100
AcDbLine
 10
1678.408508
 20
52.035307
 30
0.0
 11
1678.408508
 21
40.035307
 31
0.0
1001
ACAD
1000
RTLwPs
1070
   128
  0
ARC
  5
433F
100
AcDbEntity
  8
MSL-115-P40-R-0
 48
2.0
100
AcDbCircle
 10
1649.578457
 20
39.82672
 30
0.0
 40
28.830806
100
AcDbArc
 50
0.414532
 51
12.435804
1001
ACAD
1000
RTLwPs
1070
   128
  0
ARC
  5
4340
100
AcDbEntity
  8
MSL-115-P40-R-0
 48
2.0
100
AcDbCircle
 10
1649.55812
 20
40.246185
 30
0.0
 40
28.851159
100
AcDbArc
 50
347.568452
 51
359.581213
1001
ACAD
1000
RTLwPs
1070
   128
  0
LINE
  5
4341
100
AcDbEntity
  8
MSL-115-P40-R-0
 48
2.0
100
AcDbLine
 10
1678.408508
 20
34.035307
 30
0.0
 11
1677.732831
 21
34.035307
 31
0.0
1001
ACAD
1000
RTLwPs
1070
   128
  0
LINE
  5
4342
100
AcDbEntity
  8
MSL-115-P40-R-0
 48
2.0
100
AcDbLine
 10
1678.408508
 20
40.035307
 30
0.0
 11
1678.408508
 21
34.035307
 31
0.0
1001
ACAD
1000
RTLwPs
1070
   128
  0
LINE
  5
4343
100
AcDbEntity
  8
MSL-115-P40-R-0
 48
2.0
100
AcDbLine
 10
1646.851884
 20
9.035307
 30
0.0
 11
1646.130196
 21
7.785307
 31
0.0
1001
ACAD
1000
RTLwPs
1070
   128
  0
LINE
  5
4344
100
AcDbEntity
  8
MSL-115-P40-R-0
 48
2.0
100
AcDbLine
 10
1646.130196
 20
10.285307
 30
0.0
 11
1646.851884
 21
9.035307
 31
0.0
1001
ACAD
1000
RTLwPs
1070
   128
  0
LINE
  5
4345
100
AcDbEntity
  8
MSL-115-P40-R-0
 48
2.0
100
AcDbLine
 10
1646.130196
 20
7.785307
 30
0.0
 11
1644.68682
 21
7.785307
 31
0.0
1001
ACAD
1000
RTLwPs
1070
   128
  0
LINE
  5
4346
100
AcDbEntity
  8
MSL-115-P40-R-0
 48
2.0
100
AcDbLine
 10
1644.68682
 20
10.285307
 30
0.0
 11
1646.130196
 21
10.285307
 31
0.0
1001
ACAD
1000
RTLwPs
1070
   128
  0
LINE
  5
4347
100
AcDbEntity
  8
MSL-115-P40-R-0
 48
2.0
100
AcDbLine
 10
1643.965132
 20
9.035307
 30
0.0
 11
1644.68682
 21
10.285307
 31
0.0
1001
ACAD
1000
RTLwPs
1070
   128
  0
LINE
  5
4348
100
AcDbEntity
  8
MSL-115-P40-R-0
 48
2.0
100
AcDbLine
 10
1644.68682
 20
7.785307
 30
0.0
 11
1643.965132
 21
9.035307
 31
0.0
1001
ACAD
1000
RTLwPs
1070
   128
  0
CIRCLE
  5
4349
100
AcDbEntity
  8
MSL-115-P40-R-0
 48
2.0
100
AcDbCircle
 10
1645.408508
 20
9.035307
 30
0.0
 40
2.75
1001
ACAD
1000
RTLwPs
1070
   128
  0
LINE
  5
434A
100
AcDbEntity
  8
MSL-115-P40-R-0
 48
2.0
100
AcDbLine
 10
1652.130196
 20
31.785307
 30
0.0
 11
1650.68682
 21
31.785307
 31
0.0
1001
ACAD
1000
RTLwPs
1070
   128
  0
LINE
  5
434B
100
AcDbEntity
  8
MSL-115-P40-R-0
 48
2.0
100
AcDbLine
 10
1650.68682
 20
34.285307
 30
0.0
 11
1652.130196
 21
34.285307
 31
0.0
1001
ACAD
1000
RTLwPs
1070
   128
  0
LINE
  5
434C
100
AcDbEntity
  8
MSL-115-P40-R-0
 48
2.0
100
AcDbLine
 10
1649.965132
 20
33.035307
 30
0.0
 11
1650.68682
 21
34.285307
 31
0.0
1001
ACAD
1000
RTLwPs
1070
   128
  0
LINE
  5
434D
100
AcDbEntity
  8
MSL-115-P40-R-0
 48
2.0
100
AcDbLine
 10
1650.68682
 20
31.785307
 30
0.0
 11
1649.965132
 21
33.035307
 31
0.0
1001
ACAD
1000
RTLwPs
1070
   128
  0
CIRCLE
  5
434E
100
AcDbEntity
  8
MSL-115-P40-R-0
 48
2.0
100
AcDbCircle
 10
1651.408508
 20
33.035307
 30
0.0
 40
2.75
1001
ACAD
1000
RTLwPs
1070
   128
  0
LINE
  5
434F
100
AcDbEntity
  8
MSL-115-P40-R-0
 48
2.0
100
AcDbLine
 10
1652.130196
 20
34.285307
 30
0.0
 11
1652.851884
 21
33.035307
 31
0.0
1001
ACAD
1000
RTLwPs
1070
   128
  0
LINE
  5
4350
100
AcDbEntity
  8
MSL-115-P40-R-0
 48
2.0
100
AcDbLine
 10
1652.851884
 20
33.035307
 30
0.0
 11
1652.130196
 21
31.785307
 31
0.0
1001
ACAD
1000
RTLwPs
1070
   128
  0
LINE
  5
4351
100
AcDbEntity
  8
MSL-115-P40-R-0
 48
2.0
100
AcDbLine
 10
1655.808508
 20
29.535307
 30
0.0
 11
1655.808508
 21
36.035307
 31
0.0
1001
ACAD
1000
RTLwPs
1070
   128
  0
LINE
  5
4352
100
AcDbEntity
  8
MSL-115-P40-R-0
 48
2.0
100
AcDbLine
 10
1655.808508
 20
5.035307
 30
0.0
 11
1655.808508
 21
12.535307
 31
0.0
1001
ACAD
1000
RTLwPs
1070
   128
  0
LINE
  5
4353
100
AcDbEntity
  8
MSL-115-P40-R-0
 48
2.0
100
AcDbLine
 10
1640.908508
 20
5.035307
 30
0.0
 11
1655.808508
 21
5.035307
 31
0.0
1001
ACAD
1000
RTLwPs
1070
   128
  0
LINE
  5
4354
100
AcDbEntity
  8
MSL-115-P40-R-0
 48
2.0
100
AcDbLine
 10
1656.408508
 20
12.535307
 30
0.0
 11
1656.408508
 21
4.435307
 31
0.0
1001
ACAD
1000
RTLwPs
1070
   128
  0
LINE
  5
4355
100
AcDbEntity
  8
MSL-115-P40-R-0
 48
2.0
100
AcDbLine
 10
1656.408508
 20
36.035307
 30
0.0
 11
1656.408508
 21
29.535307
 31
0.0
1001
ACAD
1000
RTLwPs
1070
   128
  0
LINE
  5
4356
100
AcDbEntity
  8
MSL-115-P40-R-0
 48
2.0
100
AcDbLine
 10
1656.408508
 20
4.435307
 30
0.0
 11
1640.908508
 21
4.435307
 31
0.0
1001
ACAD
1000
RTLwPs
1070
   128
  0
LINE
  5
4357
100
AcDbEntity
  8
MSL-115-P40-R-0
 48
2.0
100
AcDbLine
 10
1655.808508
 20
5.035307
 30
0.0
 11
1656.408508
 21
4.435307
 31
0.0
1001
ACAD
1000
RTLwPs
1070
   128
  0
CIRCLE
  5
4358
100
AcDbEntity
  8
MSL-115-P40-R-0
 48
2.0
100
AcDbCircle
 10
1651.408508
 20
33.035307
 30
0.0
 40
3.0
1001
ACAD
1000
RTLwPs
1070
   128
  0
CIRCLE
  5
4359
100
AcDbEntity
  8
MSL-115-P40-R-0
 48
2.0
100
AcDbCircle
 10
1645.408508
 20
9.035307
 30
0.0
 40
3.0
1001
ACAD
1000
RTLwPs
1070
   128
  0
LINE
  5
435A
100
AcDbEntity
  8
MSL-115-P40-R-0
 48
2.0
100
AcDbLine
 10
1710.908508
 20
17.035307
 30
0.0
 11
1702.408508
 21
17.035307
 31
0.0
1001
ACAD
1000
RTLwPs
1070
   128
  0
LINE
  5
435B
100
AcDbEntity
  8
MSL-115-P40-R-0
 48
2.0
100
AcDbLine
 10
1702.408508
 20
17.035307
 30
0.0
 11
1702.408508
 21
19.035307
 31
0.0
1001
ACAD
1000
RTLwPs
1070
   128
  0
LINE
  5
435C
100
AcDbEntity
  8
MSL-115-P40-R-0
 48
2.0
100
AcDbLine
 10
1702.408508
 20
25.035307
 30
0.0
 11
1710.908508
 21
25.035307
 31
0.0
1001
ACAD
1000
RTLwPs
1070
   128
  0
LINE
  5
435D
100
AcDbEntity
  8
MSL-115-P40-R-0
 48
2.0
100
AcDbLine
 10
1710.908508
 20
25.035307
 30
0.0
 11
1710.908508
 21
23.035307
 31
0.0
1001
ACAD
1000
RTLwPs
1070
   128
  0
LINE
  5
435E
100
AcDbEntity
  8
MSL-115-P40-R-0
 48
2.0
100
AcDbLine
 10
1702.408508
 20
23.035307
 30
0.0
 11
1702.408508
 21
25.035307
 31
0.0
1001
ACAD
1000
RTLwPs
1070
   128
  0
LINE
  5
435F
100
AcDbEntity
  8
MSL-115-P40-R-0
 48
2.0
100
AcDbLine
 10
1702.408508
 20
19.035307
 30
0.0
 11
1702.408508
 21
23.035307
 31
0.0
1001
ACAD
1000
RTLwPs
1070
   128
  0
LINE
  5
4360
100
AcDbEntity
  8
MSL-115-P40-R-0
 48
2.0
100
AcDbLine
 10
1693.908508
 20
17.035307
 30
0.0
 11
1693.908508
 21
25.035307
 31
0.0
1001
ACAD
1000
RTLwPs
1070
   128
  0
LINE
  5
4361
100
AcDbEntity
  8
MSL-115-P40-R-0
 48
2.0
100
AcDbLine
 10
1710.908508
 20
19.035307
 30
0.0
 11
1710.908508
 21
23.035307
 31
0.0
1001
ACAD
1000
RTLwPs
1070
   128
  0
LINE
  5
4362
100
AcDbEntity
  8
MSL-115-P40-R-0
 48
2.0
100
AcDbLine
 10
1710.908508
 20
19.035307
 30
0.0
 11
1710.908508
 21
17.035307
 31
0.0
1001
ACAD
1000
RTLwPs
1070
   128
  0
LINE
  5
4363
100
AcDbEntity
  8
MSL-115-P40-R-0
 48
2.0
100
AcDbLine
 10
1693.908508
 20
17.035307
 30
0.0
 11
1702.408508
 21
17.035307
 31
0.0
1001
ACAD
1000
RTLwPs
1070
   128
  0
LINE
  5
4364
100
AcDbEntity
  8
MSL-115-P40-R-0
 48
2.0
100
AcDbLine
 10
1702.408508
 20
25.035307
 30
0.0
 11
1693.908508
 21
25.035307
 31
0.0
1001
ACAD
1000
RTLwPs
1070
   128
  0
LINE
  5
4365
100
AcDbEntity
  8
MSL-115-P40-R-5
 48
2.0
100
AcDbLine
 10
1673.408508
 20
17.800307
 30
0.0
 11
1685.908508
 21
17.800307
 31
0.0
1001
ACAD
1000
RTLwPs
1070
   128
  0
LINE
  5
4366
100
AcDbEntity
  8
MSL-115-P40-R-5
 48
2.0
100
AcDbLine
 10
1673.408508
 20
24.270307
 30
0.0
 11
1685.908508
 21
24.270307
 31
0.0
1001
ACAD
1000
RTLwPs
1070
   128
  0
LINE
  5
4367
100
AcDbEntity
  8
MSL-115-P40-R-0
 48
2.0
100
AcDbLine
 10
1685.908508
 20
17.035307
 30
0.0
 11
1685.908508
 21
25.035307
 31
0.0
1001
ACAD
1000
RTLwPs
1070
   128
  0
LINE
  5
4368
100
AcDbEntity
  8
MSL-115-P40-R-0
 48
2.0
100
AcDbLine
 10
1685.908508
 20
17.535307
 30
0.0
 11
1693.908508
 21
17.535307
 31
0.0
1001
ACAD
1000
RTLwPs
1070
   128
  0
LINE
  5
4369
100
AcDbEntity
  8
MSL-115-P40-R-0
 48
2.0
100
AcDbLine
 10
1693.908508
 20
24.535307
 30
0.0
 11
1685.908508
 21
24.535307
 31
0.0
1001
ACAD
1000
RTLwPs
1070
   128
  0
LINE
  5
436A
100
AcDbEntity
  8
MSL-115-P40-R-0
 48
2.0
100
AcDbLine
 10
1673.408508
 20
17.035307
 30
0.0
 11
1685.908508
 21
17.035307
 31
0.0
1001
ACAD
1000
RTLwPs
1070
   128
  0
LINE
  5
436B
100
AcDbEntity
  8
MSL-115-P40-R-0
 48
2.0
100
AcDbLine
 10
1685.908508
 20
25.035307
 30
0.0
 11
1673.408508
 21
25.035307
 31
0.0
1001
ACAD
1000
RTLwPs
1070
   128
  0
LINE
  5
436C
100
AcDbEntity
  8
MSL-115-P40-R-0
 48
2.0
100
AcDbLine
 10
1664.658508
 20
21.756995
 30
0.0
 11
1665.908508
 21
22.478683
 31
0.0
1001
ACAD
1000
RTLwPs
1070
   128
  0
LINE
  5
436D
100
AcDbEntity
  8
MSL-115-P40-R-0
 48
2.0
100
AcDbLine
 10
1664.658508
 20
20.313619
 30
0.0
 11
1664.658508
 21
21.756995
 31
0.0
1001
ACAD
1000
RTLwPs
1070
   128
  0
LINE
  5
436E
100
AcDbEntity
  8
MSL-115-P40-R-0
 48
2.0
100
AcDbLine
 10
1665.908508
 20
19.591931
 30
0.0
 11
1664.658508
 21
20.313619
 31
0.0
1001
ACAD
1000
RTLwPs
1070
   128
  0
LINE
  5
436F
100
AcDbEntity
  8
MSL-115-P40-R-0
 48
2.0
100
AcDbLine
 10
1667.158508
 20
20.313619
 30
0.0
 11
1665.908508
 21
19.591931
 31
0.0
1001
ACAD
1000
RTLwPs
1070
   128
  0
LINE
  5
4370
100
AcDbEntity
  8
MSL-115-P40-R-0
 48
2.0
100
AcDbLine
 10
1667.158508
 20
21.756995
 30
0.0
 11
1667.158508
 21
20.313619
 31
0.0
1001
ACAD
1000
RTLwPs
1070
   128
  0
LINE
  5
4371
100
AcDbEntity
  8
MSL-115-P40-R-0
 48
2.0
100
AcDbLine
 10
1665.908508
 20
22.478683
 30
0.0
 11
1667.158508
 21
21.756995
 31
0.0
1001
ACAD
1000
RTLwPs
1070
   128
  0
ARC
  5
4372
100
AcDbEntity
  8
MSL-115-P40-R-0
 48
2.0
100
AcDbCircle
 10
1682.876446
 20
16.922898
 30
0.0
 40
27.468283
100
AcDbArc
 50
180.286999
 51
189.191397
1001
ACAD
1000
RTLwPs
1070
   128
  0
LINE
  5
4373
100
AcDbEntity
  8
MSL-115-P40-R-0
 48
2.0
100
AcDbLine
 10
1655.760849
 20
12.535307
 30
0.0
 11
1655.408508
 21
12.535307
 31
0.0
1001
ACAD
1000
RTLwPs
1070
   128
  0
LINE
  5
4374
100
AcDbEntity
  8
MSL-115-P40-R-0
 48
2.0
100
AcDbLine
 10
1655.408508
 20
25.285307
 30
0.0
 11
1655.408508
 21
16.785307
 31
0.0
1001
ACAD
1000
RTLwPs
1070
   128
  0
LINE
  5
4375
100
AcDbEntity
  8
MSL-115-P40-R-0
 48
2.0
100
AcDbLine
 10
1655.408508
 20
16.785307
 30
0.0
 11
1655.408508
 21
12.535307
 31
0.0
1001
ACAD
1000
RTLwPs
1070
   128
  0
ARC
  5
4376
100
AcDbEntity
  8
MSL-115-P40-R-0
 48
2.0
100
AcDbCircle
 10
1682.876446
 20
25.422898
 30
0.0
 40
27.468283
100
AcDbArc
 50
180.286999
 51
189.191397
1001
ACAD
1000
RTLwPs
1070
   128
  0
LINE
  5
4377
100
AcDbEntity
  8
MSL-115-P40-R-0
 48
2.0
100
AcDbLine
 10
1658.408508
 20
29.535307
 30
0.0
 11
1655.760849
 21
29.535307
 31
0.0
1001
ACAD
1000
RTLwPs
1070
   128
  0
LINE
  5
4378
100
AcDbEntity
  8
MSL-115-P40-R-0
 48
2.0
100
AcDbLine
 10
1658.408508
 20
21.035307
 30
0.0
 11
1655.760849
 21
21.035307
 31
0.0
1001
ACAD
1000
RTLwPs
1070
   128
  0
LINE
  5
4379
100
AcDbEntity
  8
MSL-115-P40-R-0
 48
2.0
100
AcDbLine
 10
1658.408508
 20
12.535307
 30
0.0
 11
1655.760849
 21
12.535307
 31
0.0
1001
ACAD
1000
RTLwPs
1070
   128
  0
LINE
  5
437A
100
AcDbEntity
  8
MSL-115-P40-R-0
 48
2.0
100
AcDbLine
 10
1655.408508
 20
29.535307
 30
0.0
 11
1655.408508
 21
25.285307
 31
0.0
1001
ACAD
1000
RTLwPs
1070
   128
  0
LINE
  5
437B
100
AcDbEntity
  8
MSL-115-P40-R-0
 48
2.0
100
AcDbLine
 10
1673.408508
 20
28.267358
 30
0.0
 11
1672.408508
 21
28.535307
 31
0.0
1001
ACAD
1000
RTLwPs
1070
   128
  0
LINE
  5
437C
100
AcDbEntity
  8
MSL-115-P40-R-0
 48
2.0
100
AcDbLine
 10
1672.408508
 20
13.535307
 30
0.0
 11
1673.408508
 21
13.803256
 31
0.0
1001
ACAD
1000
RTLwPs
1070
   128
  0
LINE
  5
437D
100
AcDbEntity
  8
MSL-115-P40-R-0
 48
2.0
100
AcDbLine
 10
1655.408508
 20
29.535307
 30
0.0
 11
1655.760849
 21
29.535307
 31
0.0
1001
ACAD
1000
RTLwPs
1070
   128
  0
ARC
  5
437E
100
AcDbEntity
  8
MSL-115-P40-R-0
 48
2.0
100
AcDbCircle
 10
1682.886396
 20
16.646892
 30
0.0
 40
27.478237
100
AcDbArc
 50
170.810219
 51
179.711385
1001
ACAD
1000
RTLwPs
1070
   128
  0
LINE
  5
437F
100
AcDbEntity
  8
MSL-115-P40-R-0
 48
2.0
100
AcDbLine
 10
1673.408508
 20
28.267358
 30
0.0
 11
1673.408508
 21
13.803256
 31
0.0
1001
ACAD
1000
RTLwPs
1070
   128
  0
ARC
  5
4380
100
AcDbEntity
  8
MSL-115-P40-R-0
 48
2.0
100
AcDbCircle
 10
1682.886396
 20
25.146892
 30
0.0
 40
27.478237
100
AcDbArc
 50
170.810219
 51
179.711385
1001
ACAD
1000
RTLwPs
1070
   128
  0
ARC
  5
4381
100
AcDbEntity
  8
MSL-115-P40-R-5
 48
2.0
100
AcDbCircle
 10
1665.908508
 20
21.035307
 30
0.0
 40
2.5
100
AcDbArc
 50
165.0
 51
105.0
1001
ACAD
1000
RTLwPs
1070
   128
  0
LINE
  5
4382
100
AcDbEntity
  8
MSL-115-P40-R-0
 48
2.0
100
AcDbLine
 10
1658.408508
 20
80.535307
 30
0.0
 11
1658.408508
 21
-38.464693
 31
0.0
1001
ACAD
1000
RTLwPs
1070
   128
  0
LINE
  5
4383
100
AcDbEntity
  8
MSL-115-P40-R-0
 48
2.0
100
AcDbLine
 10
1658.408508
 20
83.535307
 30
0.0
 11
1538.408508
 21
83.535307
 31
0.0
1001
ACAD
1000
RTLwPs
1070
   128
  0
ARC
  5
4384
100
AcDbEntity
  8
MSL-115-P40-R-0
 48
2.0
100
AcDbCircle
 10
1652.408508
 20
-6.964693
 30
0.0
 40
6.0
100
AcDbArc
 50
270.0
 51
0.0
1001
ACAD
1000
RTLwPs
1070
   128
  0
LINE
  5
4385
100
AcDbEntity
  8
MSL-115-P40-R-0
 48
2.0
100
AcDbLine
 10
1652.408508
 20
-12.964693
 30
0.0
 11
1640.908508
 21
-12.964693
 31
0.0
1001
ACAD
1000
RTLwPs
1070
   128
  0
LINE
  5
4386
100
AcDbEntity
  8
MSL-115-P40-R-0
 48
2.0
100
AcDbLine
 10
1658.408508
 20
-41.464693
 30
0.0
 11
1640.908508
 21
-41.464693
 31
0.0
1001
ACAD
1000
RTLwPs
1070
   128
  0
LINE
  5
4387
100
AcDbEntity
  8
MSL-115-P40-R-0
 48
2.0
100
AcDbLine
 10
1658.408508
 20
83.535307
 30
0.0
 11
1672.408508
 21
83.535307
 31
0.0
1001
ACAD
1000
RTLwPs
1070
   128
  0
LINE
  5
4388
100
AcDbEntity
  8
MSL-115-P40-R-0
 48
2.0
100
AcDbLine
 10
1672.408508
 20
-38.464693
 30
0.0
 11
1672.408508
 21
-41.464693
 31
0.0
1001
ACAD
1000
RTLwPs
1070
   128
  0
LINE
  5
4389
100
AcDbEntity
  8
MSL-115-P40-R-0
 48
2.0
100
AcDbLine
 10
1672.408508
 20
83.535307
 30
0.0
 11
1672.408508
 21
80.535307
 31
0.0
1001
ACAD
1000
RTLwPs
1070
   128
  0
LINE
  5
438A
100
AcDbEntity
  8
MSL-115-P40-R-0
 48
2.0
100
AcDbLine
 10
1672.408508
 20
-41.464693
 30
0.0
 11
1658.408508
 21
-41.464693
 31
0.0
1001
ACAD
1000
RTLwPs
1070
   128
  0
LINE
  5
438B
100
AcDbEntity
  8
MSL-115-P40-R-0
 48
2.0
100
AcDbLine
 10
1672.408508
 20
80.535307
 30
0.0
 11
1658.408508
 21
80.535307
 31
0.0
1001
ACAD
1000
RTLwPs
1070
   128
  0
LINE
  5
438C
100
AcDbEntity
  8
MSL-115-P40-R-0
 48
2.0
100
AcDbLine
 10
1672.408508
 20
80.535307
 30
0.0
 11
1672.408508
 21
-38.464693
 31
0.0
1001
ACAD
1000
RTLwPs
1070
   128
  0
LINE
  5
438D
100
AcDbEntity
  8
MSL-115-P40-R-0
 48
2.0
100
AcDbLine
 10
1658.408508
 20
-41.464693
 30
0.0
 11
1658.408508
 21
-38.464693
 31
0.0
1001
ACAD
1000
RTLwPs
1070
   128
  0
LINE
  5
438E
100
AcDbEntity
  8
MSL-115-P40-R-0
 48
2.0
100
AcDbLine
 10
1658.408508
 20
80.535307
 30
0.0
 11
1658.408508
 21
83.535307
 31
0.0
1001
ACAD
1000
RTLwPs
1070
   128
  0
LINE
  5
438F
100
AcDbEntity
  8
MSL-115-P40-R-0
 48
2.0
100
AcDbLine
 10
1658.408508
 20
-38.464693
 30
0.0
 11
1672.408508
 21
-38.464693
 31
0.0
1001
ACAD
1000
RTLwPs
1070
   128
  0
CIRCLE
  5
4390
100
AcDbEntity
  8
MSL-115-P40-R-0
 48
2.0
100
AcDbCircle
 10
1665.908508
 20
21.035307
 30
0.0
 40
2.1
1001
ACAD
1000
RTLwPs
1070
   128
  0
LINE
  5
4391
100
AcDbEntity
  8
MSL-115-P40-R-0
 48
2.0
100
AcDbLine
 10
1537.908508
 20
-45.964693
 30
0.0
 11
1537.908508
 21
88.035307
 31
0.0
1001
ACAD
1000
RTLwPs
1070
   128
  0
LINE
  5
4392
100
AcDbEntity
  8
MSL-115-P40-R-0
 48
2.0
100
AcDbLine
 10
1529.908508
 20
11.035307
 30
0.0
 11
1529.908508
 21
31.035307
 31
0.0
1001
ACAD
1000
RTLwPs
1070
   128
  0
LINE
  5
4393
100
AcDbEntity
  8
MSL-115-P40-R-0
 48
2.0
100
AcDbLine
 10
1537.908508
 20
87.035307
 30
0.0
 11
1529.908508
 21
87.035307
 31
0.0
1001
ACAD
1000
RTLwPs
1070
   128
  0
LINE
  5
4394
100
AcDbEntity
  8
MSL-115-P40-R-0
 48
2.0
100
AcDbLine
 10
1537.908508
 20
-45.964693
 30
0.0
 11
1529.908508
 21
-45.964693
 31
0.0
1001
ACAD
1000
RTLwPs
1070
   128
  0
LINE
  5
4395
100
AcDbEntity
  8
MSL-115-P40-R-0
 48
2.0
100
AcDbLine
 10
1529.908508
 20
-44.964693
 30
0.0
 11
1537.908508
 21
-44.964693
 31
0.0
1001
ACAD
1000
RTLwPs
1070
   128
  0
LINE
  5
4396
100
AcDbEntity
  8
MSL-115-P40-R-0
 48
2.0
100
AcDbLine
 10
1529.908508
 20
88.035307
 30
0.0
 11
1537.908508
 21
88.035307
 31
0.0
1001
ACAD
1000
RTLwPs
1070
   128
  0
LINE
  5
4397
100
AcDbEntity
  8
MSL-115-P40-R-0
 48
2.0
100
AcDbLine
 10
1309.908508
 20
31.035307
 30
0.0
 11
1309.908508
 21
11.035307
 31
0.0
1001
ACAD
1000
RTLwPs
1070
   128
  0
LINE
  5
4398
100
AcDbEntity
  8
MSL-115-P40-R-0
 48
2.0
100
AcDbLine
 10
1301.908508
 20
-44.964693
 30
0.0
 11
1309.908508
 21
-44.964693
 31
0.0
1001
ACAD
1000
RTLwPs
1070
   128
  0
LINE
  5
4399
100
AcDbEntity
  8
MSL-115-P40-R-0
 48
2.0
100
AcDbLine
 10
1301.908508
 20
87.035307
 30
0.0
 11
1301.908508
 21
-44.964693
 31
0.0
1001
ACAD
1000
RTLwPs
1070
   128
  0
LINE
  5
439A
100
AcDbEntity
  8
MSL-115-P40-R-0
 48
2.0
100
AcDbLine
 10
1302.408508
 20
87.035307
 30
0.0
 11
1302.408508
 21
88.035307
 31
0.0
1001
ACAD
1000
RTLwPs
1070
   128
  0
LINE
  5
439B
100
AcDbEntity
  8
MSL-115-P40-R-0
 48
2.0
100
AcDbLine
 10
1301.908508
 20
88.035307
 30
0.0
 11
1309.908508
 21
88.035307
 31
0.0
1001
ACAD
1000
RTLwPs
1070
   128
  0
LINE
  5
439C
100
AcDbEntity
  8
MSL-115-P40-R-0
 48
2.0
100
AcDbLine
 10
1309.908508
 20
87.035307
 30
0.0
 11
1301.908508
 21
87.035307
 31
0.0
1001
ACAD
1000
RTLwPs
1070
   128
  0
LINE
  5
439D
100
AcDbEntity
  8
MSL-115-P40-R-0
 48
2.0
100
AcDbLine
 10
1302.408508
 20
-45.964693
 30
0.0
 11
1302.408508
 21
-44.964693
 31
0.0
1001
ACAD
1000
RTLwPs
1070
   128
  0
LINE
  5
439E
100
AcDbEntity
  8
MSL-115-P40-R-0
 48
2.0
100
AcDbLine
 10
1309.908508
 20
-45.964693
 30
0.0
 11
1301.908508
 21
-45.964693
 31
0.0
1001
ACAD
1000
RTLwPs
1070
   128
  0
ARC
  5
439F
100
AcDbEntity
  8
MSL-115-P40-R-5
 48
2.0
100
AcDbCircle
 10
1449.908508
 20
66.035307
 30
0.0
 40
4.0
100
AcDbArc
 50
165.0
 51
105.0
1001
ACAD
1000
RTLwPs
1070
   128
  0
ARC
  5
43A0
100
AcDbEntity
  8
MSL-115-P40-R-5
 48
2.0
100
AcDbCircle
 10
1479.908508
 20
66.035307
 30
0.0
 40
4.0
100
AcDbArc
 50
165.0
 51
105.0
1001
ACAD
1000
RTLwPs
1070
   128
  0
ARC
  5
43A1
100
AcDbEntity
  8
MSL-115-P40-R-5
 48
2.0
100
AcDbCircle
 10
1389.908508
 20
66.035307
 30
0.0
 40
4.0
100
AcDbArc
 50
165.0
 51
105.0
1001
ACAD
1000
RTLwPs
1070
   128
  0
ARC
  5
43A2
100
AcDbEntity
  8
MSL-115-P40-R-5
 48
2.0
100
AcDbCircle
 10
1359.908508
 20
66.035307
 30
0.0
 40
4.0
100
AcDbArc
 50
165.0
 51
105.0
1001
ACAD
1000
RTLwPs
1070
   128
  0
ARC
  5
43A3
100
AcDbEntity
  8
MSL-115-P40-R-5
 48
2.0
100
AcDbCircle
 10
1419.908508
 20
66.035307
 30
0.0
 40
4.0
100
AcDbArc
 50
165.0
 51
105.0
1001
ACAD
1000
RTLwPs
1070
   128
  0
ARC
  5
43A4
100
AcDbEntity
  8
MSL-115-P40-R-5
 48
2.0
100
AcDbCircle
 10
1449.908508
 20
-23.964693
 30
0.0
 40
4.0
100
AcDbArc
 50
165.0
 51
105.0
1001
ACAD
1000
RTLwPs
1070
   128
  0
ARC
  5
43A5
100
AcDbEntity
  8
MSL-115-P40-R-5
 48
2.0
100
AcDbCircle
 10
1479.908508
 20
-23.964693
 30
0.0
 40
4.0
100
AcDbArc
 50
165.0
 51
105.0
1001
ACAD
1000
RTLwPs
1070
   128
  0
ARC
  5
43A6
100
AcDbEntity
  8
MSL-115-P40-R-5
 48
2.0
100
AcDbCircle
 10
1389.908508
 20
-23.964693
 30
0.0
 40
4.0
100
AcDbArc
 50
165.0
 51
105.0
1001
ACAD
1000
RTLwPs
1070
   128
  0
ARC
  5
43A7
100
AcDbEntity
  8
MSL-115-P40-R-5
 48
2.0
100
AcDbCircle
 10
1359.908508
 20
-23.964693
 30
0.0
 40
4.0
100
AcDbArc
 50
165.0
 51
105.0
1001
ACAD
1000
RTLwPs
1070
   128
  0
ARC
  5
43A8
100
AcDbEntity
  8
MSL-115-P40-R-5
 48
2.0
100
AcDbCircle
 10
1419.908508
 20
-23.964693
 30
0.0
 40
4.0
100
AcDbArc
 50
165.0
 51
105.0
1001
ACAD
1000
RTLwPs
1070
   128
  0
ARC
  5
43A9
100
AcDbEntity
  8
MSL-115-P40-R-5
 48
2.0
100
AcDbCircle
 10
1509.908508
 20
66.035307
 30
0.0
 40
4.0
100
AcDbArc
 50
165.0
 51
105.0
1001
ACAD
1000
RTLwPs
1070
   128
  0
ARC
  5
43AA
100
AcDbEntity
  8
MSL-115-P40-R-5
 48
2.0
100
AcDbCircle
 10
1329.908508
 20
66.035307
 30
0.0
 40
4.0
100
AcDbArc
 50
165.0
 51
105.0
1001
ACAD
1000
RTLwPs
1070
   128
  0
ARC
  5
43AB
100
AcDbEntity
  8
MSL-115-P40-R-5
 48
2.0
100
AcDbCircle
 10
1509.908508
 20
-23.964693
 30
0.0
 40
4.0
100
AcDbArc
 50
165.0
 51
105.0
1001
ACAD
1000
RTLwPs
1070
   128
  0
ARC
  5
43AC
100
AcDbEntity
  8
MSL-115-P40-R-5
 48
2.0
100
AcDbCircle
 10
1329.908508
 20
-23.964693
 30
0.0
 40
4.0
100
AcDbArc
 50
165.0
 51
105.0
1001
ACAD
1000
RTLwPs
1070
   128
  0
LINE
  5
43AD
100
AcDbEntity
  8
MSL-115-P40-R-0
 48
2.0
100
AcDbLine
 10
1529.908508
 20
31.035307
 30
0.0
 11
1529.908508
 21
11.035307
 31
0.0
1001
ACAD
1000
RTLwPs
1070
   128
  0
LINE
  5
43AE
100
AcDbEntity
  8
MSL-115-P40-R-0
 48
2.0
100
AcDbLine
 10
1309.908508
 20
11.035307
 30
0.0
 11
1309.908508
 21
31.035307
 31
0.0
1001
ACAD
1000
RTLwPs
1070
   128
  0
CIRCLE
  5
43AF
100
AcDbEntity
  8
MSL-115-P40-R-0
 48
2.0
100
AcDbCircle
 10
1389.908508
 20
-23.964693
 30
0.0
 40
6.5
1001
ACAD
1000
RTLwPs
1070
   128
  0
CIRCLE
  5
43B0
100
AcDbEntity
  8
MSL-115-P40-R-0
 48
2.0
100
AcDbCircle
 10
1449.908508
 20
66.035307
 30
0.0
 40
6.5
1001
ACAD
1000
RTLwPs
1070
   128
  0
LINE
  5
43B1
100
AcDbEntity
  8
MSL-115-P40-R-0
 48
2.0
100
AcDbLine
 10
1529.908508
 20
-46.464693
 30
0.0
 11
1309.908508
 21
-46.464693
 31
0.0
1001
ACAD
1000
RTLwPs
1070
   128
  0
LINE
  5
43B2
100
AcDbEntity
  8
MSL-115-P40-R-0
 48
2.0
100
AcDbLine
 10
1529.908508
 20
88.035307
 30
0.0
 11
1309.908508
 21
88.035307
 31
0.0
1001
ACAD
1000
RTLwPs
1070
   128
  0
LINE
  5
43B3
100
AcDbEntity
  8
MSL-115-P40-R-0
 48
2.0
100
AcDbLine
 10
1309.908508
 20
88.035307
 30
0.0
 11
1309.908508
 21
88.535307
 31
0.0
1001
ACAD
1000
RTLwPs
1070
   128
  0
LINE
  5
43B4
100
AcDbEntity
  8
MSL-115-P40-R-0
 48
2.0
100
AcDbLine
 10
1309.908508
 20
8.535307
 30
0.0
 11
1529.908508
 21
8.535307
 31
0.0
1001
ACAD
1000
RTLwPs
1070
   128
  0
LINE
  5
43B5
100
AcDbEntity
  8
MSL-115-P40-R-0
 48
2.0
100
AcDbLine
 10
1529.908508
 20
-45.964693
 30
0.0
 11
1529.908508
 21
-46.464693
 31
0.0
1001
ACAD
1000
RTLwPs
1070
   128
  0
LINE
  5
43B6
100
AcDbEntity
  8
MSL-115-P40-R-0
 48
2.0
100
AcDbLine
 10
1529.908508
 20
33.535307
 30
0.0
 11
1309.908508
 21
33.535307
 31
0.0
1001
ACAD
1000
RTLwPs
1070
   128
  0
LINE
  5
43B7
100
AcDbEntity
  8
MSL-115-P40-R-0
 48
2.0
100
AcDbLine
 10
1529.908508
 20
88.535307
 30
0.0
 11
1529.908508
 21
88.035307
 31
0.0
1001
ACAD
1000
RTLwPs
1070
   128
  0
LINE
  5
43B8
100
AcDbEntity
  8
MSL-115-P40-R-0
 48
2.0
100
AcDbLine
 10
1529.908508
 20
11.035307
 30
0.0
 11
1529.908508
 21
-45.964693
 31
0.0
1001
ACAD
1000
RTLwPs
1070
   128
  0
LINE
  5
43B9
100
AcDbEntity
  8
MSL-115-P40-R-0
 48
2.0
100
AcDbLine
 10
1309.908508
 20
-45.964693
 30
0.0
 11
1309.908508
 21
11.035307
 31
0.0
1001
ACAD
1000
RTLwPs
1070
   128
  0
LINE
  5
43BA
100
AcDbEntity
  8
MSL-115-P40-R-0
 48
2.0
100
AcDbLine
 10
1309.908508
 20
31.035307
 30
0.0
 11
1309.908508
 21
88.035307
 31
0.0
1001
ACAD
1000
RTLwPs
1070
   128
  0
LINE
  5
43BB
100
AcDbEntity
  8
MSL-115-P40-R-0
 48
2.0
100
AcDbLine
 10
1529.908508
 20
88.035307
 30
0.0
 11
1529.908508
 21
31.035307
 31
0.0
1001
ACAD
1000
RTLwPs
1070
   128
  0
LINE
  5
43BC
100
AcDbEntity
  8
MSL-115-P40-R-0
 48
2.0
100
AcDbLine
 10
1309.908508
 20
-46.464693
 30
0.0
 11
1309.908508
 21
-45.964693
 31
0.0
1001
ACAD
1000
RTLwPs
1070
   128
  0
LINE
  5
43BD
100
AcDbEntity
  8
MSL-115-P40-R-0
 48
2.0
100
AcDbLine
 10
1309.908508
 20
-45.964693
 30
0.0
 11
1529.908508
 21
-45.964693
 31
0.0
1001
ACAD
1000
RTLwPs
1070
   128
  0
LINE
  5
43BE
100
AcDbEntity
  8
MSL-115-P40-R-0
 48
2.0
100
AcDbLine
 10
1309.908508
 20
88.535307
 30
0.0
 11
1529.908508
 21
88.535307
 31
0.0
1001
ACAD
1000
RTLwPs
1070
   128
  0
CIRCLE
  5
43BF
100
AcDbEntity
  8
MSL-115-P40-R-0
 48
2.0
100
AcDbCircle
 10
1479.908508
 20
66.035307
 30
0.0
 40
3.4
1001
ACAD
1000
RTLwPs
1070
   128
  0
CIRCLE
  5
43C0
100
AcDbEntity
  8
MSL-115-P40-R-0
 48
2.0
100
AcDbCircle
 10
1389.908508
 20
66.035307
 30
0.0
 40
3.4
1001
ACAD
1000
RTLwPs
1070
   128
  0
CIRCLE
  5
43C1
100
AcDbEntity
  8
MSL-115-P40-R-0
 48
2.0
100
AcDbCircle
 10
1509.908508
 20
66.035307
 30
0.0
 40
3.4
1001
ACAD
1000
RTLwPs
1070
   128
  0
CIRCLE
  5
43C2
100
AcDbEntity
  8
MSL-115-P40-R-0
 48
2.0
100
AcDbCircle
 10
1329.908508
 20
66.035307
 30
0.0
 40
3.4
1001
ACAD
1000
RTLwPs
1070
   128
  0
CIRCLE
  5
43C3
100
AcDbEntity
  8
MSL-115-P40-R-0
 48
2.0
100
AcDbCircle
 10
1359.908508
 20
66.035307
 30
0.0
 40
3.4
1001
ACAD
1000
RTLwPs
1070
   128
  0
CIRCLE
  5
43C4
100
AcDbEntity
  8
MSL-115-P40-R-0
 48
2.0
100
AcDbCircle
 10
1479.908508
 20
-23.964693
 30
0.0
 40
3.4
1001
ACAD
1000
RTLwPs
1070
   128
  0
CIRCLE
  5
43C5
100
AcDbEntity
  8
MSL-115-P40-R-0
 48
2.0
100
AcDbCircle
 10
1449.908508
 20
-23.964693
 30
0.0
 40
3.4
1001
ACAD
1000
RTLwPs
1070
   128
  0
CIRCLE
  5
43C6
100
AcDbEntity
  8
MSL-115-P40-R-0
 48
2.0
100
AcDbCircle
 10
1419.908508
 20
66.035307
 30
0.0
 40
3.4
1001
ACAD
1000
RTLwPs
1070
   128
  0
CIRCLE
  5
43C7
100
AcDbEntity
  8
MSL-115-P40-R-0
 48
2.0
100
AcDbCircle
 10
1359.908508
 20
-23.964693
 30
0.0
 40
3.4
1001
ACAD
1000
RTLwPs
1070
   128
  0
CIRCLE
  5
43C8
100
AcDbEntity
  8
MSL-115-P40-R-0
 48
2.0
100
AcDbCircle
 10
1509.908508
 20
-23.964693
 30
0.0
 40
3.4
1001
ACAD
1000
RTLwPs
1070
   128
  0
CIRCLE
  5
43C9
100
AcDbEntity
  8
MSL-115-P40-R-0
 48
2.0
100
AcDbCircle
 10
1329.908508
 20
-23.964693
 30
0.0
 40
3.4
1001
ACAD
1000
RTLwPs
1070
   128
  0
CIRCLE
  5
43CA
100
AcDbEntity
  8
MSL-115-P40-R-0
 48
2.0
100
AcDbCircle
 10
1419.908508
 20
-23.964693
 30
0.0
 40
3.4
1001
ACAD
1000
RTLwPs
1070
   128
  0
CIRCLE
  5
43CB
100
AcDbEntity
  8
MSL-115-P40-R-0
 48
2.0
100
AcDbCircle
 10
1389.908508
 20
-23.964693
 30
0.0
 40
3.4
1001
ACAD
1000
RTLwPs
1070
   128
  0
CIRCLE
  5
43CC
100
AcDbEntity
  8
MSL-115-P40-R-0
 48
2.0
100
AcDbCircle
 10
1449.908508
 20
66.035307
 30
0.0
 40
3.4
1001
ACAD
1000
RTLwPs
1070
   128
  0
MTEXT
  5
4B2F
100
AcDbEntity
  8
MSL-115-P40-R-5
 48
2.0
100
AcDbMText
 10
1525.194026
 20
285.088141
 30
0.0
 40
3.5
 41
0.0
 71
     7
 72
     5
  1

  7
ACISOTS
1001
ACAD
1000
MTEXTBEGIN
1070
    73
1070
     1
1070
    44
1040
1.0
1070
    74
1070
     0
1000
MTEXTEND
1000
MTEXTBEGIN
1070
    73
1070
     1
1070
    44
1040
1.0
1070
    74
1070
     0
1000
MTEXTEND
1000
MTEXTBEGIN
1070
    73
1070
     1
1070
    44
1040
1.0
1070
    74
1070
     0
1000
MTEXTEND
  0
LINE
  5
4B50
100
AcDbEntity
  8
MSL-115-P40-R-7A
 48
2.0
100
AcDbLine
 10
1652.908508
 20
193.234015
 30
0.0
 11
1640.658508
 21
193.234015
 31
0.0
1001
GENIUS_GENOREF_13
1005
0
  0
LINE
  5
4B51
100
AcDbEntity
  8
MSL-115-P40-R-7A
 48
2.0
100
AcDbLine
 10
1652.908508
 20
193.234015
 30
0.0
 11
1652.908508
 21
205.484015
 31
0.0
1001
GENIUS_GENOREF_13
1005
0
  0
LINE
  5
4B52
100
AcDbEntity
  8
MSL-115-P40-R-7A
 48
2.0
100
AcDbLine
 10
1652.908508
 20
193.234015
 30
0.0
 11
1665.158508
 21
193.234015
 31
0.0
1001
GENIUS_GENOREF_13
1005
0
  0
LINE
  5
4B53
100
AcDbEntity
  8
MSL-115-P40-R-7A
 48
2.0
100
AcDbLine
 10
1652.908508
 20
193.234015
 30
0.0
 11
1652.908508
 21
180.984015
 31
0.0
1001
GENIUS_GENOREF_13
1005
0
  0
LINE
  5
4B54
100
AcDbEntity
  8
MSL-115-P40-R-7A
 48
2.0
100
AcDbLine
 10
1656.908508
 20
173.234015
 30
0.0
 11
1644.658508
 21
173.234015
 31
0.0
1001
GENIUS_GENOREF_13
1005
0
  0
LINE
  5
4B55
100
AcDbEntity
  8
MSL-115-P40-R-7A
 48
2.0
100
AcDbLine
 10
1656.908508
 20
173.234015
 30
0.0
 11
1656.908508
 21
185.484015
 31
0.0
1001
GENIUS_GENOREF_13
1005
0
  0
LINE
  5
4B56
100
AcDbEntity
  8
MSL-115-P40-R-7A
 48
2.0
100
AcDbLine
 10
1656.908508
 20
173.234015
 30
0.0
 11
1669.158508
 21
173.234015
 31
0.0
1001
GENIUS_GENOREF_13
1005
0
  0
LINE
  5
4B57
100
AcDbEntity
  8
MSL-115-P40-R-7A
 48
2.0
100
AcDbLine
 10
1656.908508
 20
173.234015
 30
0.0
 11
1656.908508
 21
160.984015
 31
0.0
1001
GENIUS_GENOREF_13
1005
0
  0
LINE
  5
4B5C
100
AcDbEntity
  8
MSL-115-P40-R-7A
 48
2.0
100
AcDbLine
 10
1790.446967
 20
148.802227
 30
0.0
 11
1790.446967
 21
127.819434
 31
0.0
1001
GENIUS_GENODEF_13
1002
{
1000
HIER
1070
     0
1002
}
1002
{
1000
MANEDIT
1070
     0
1002
}
1002
{
1000
NOSEL
1070
     0
1002
}
1002
{
1000
BEHIND
1070
     0
1002
}
1002
{
1000
OTHER
1070
     0
1002
}
1002
{
1000
REACTOR
1002
}
1001
GENIUS_GENOBJ-N-CEN_13
1002
{
1000
OWNER
1000
GEN
1002
}
  0
LINE
  5
4B5D
100
AcDbEntity
  8
MSL-115-P40-R-7A
 48
2.0
100
AcDbLine
 10
1887.446691
 20
148.802227
 30
0.0
 11
1887.446691
 21
127.819434
 31
0.0
1001
GENIUS_GENODEF_13
1002
{
1000
HIER
1070
     0
1002
}
1002
{
1000
MANEDIT
1070
     0
1002
}
1002
{
1000
NOSEL
1070
     0
1002
}
1002
{
1000
BEHIND
1070
     0
1002
}
1002
{
1000
OTHER
1070
     0
1002
}
1002
{
1000
REACTOR
1002
}
1001
GENIUS_GENOBJ-N-CEN_13
1002
{
1000
OWNER
1000
GEN
1002
}
  0
MTEXT
  5
5392
100
AcDbEntity
  8
MSL-115-P40-R-5
 48
2.0
100
AcDbMText
 10
1597.020074
 20
15.613177
 30
0.0
 40
3.5
 41
0.0
 71
     9
 72
     5
  1

  7
ACDINTS
1001
ACAD
1000
MTEXTBEGIN
1070
    73
1070
     1
1070
    44
1040
1.0
1070
    74
1070
     0
1000
MTEXTEND
  0
CIRCLE
  5
5904
100
AcDbEntity
  8
MSL-115-P40-R-0
 48
2.0
100
AcDbCircle
 10
1449.908508
 20
-23.964693
 30
0.0
 40
6.5
1001
ACAD
1000
RTLwPs
1070
   128
  0
CIRCLE
  5
5905
100
AcDbEntity
  8
MSL-115-P40-R-0
 48
2.0
100
AcDbCircle
 10
1389.908508
 20
66.035307
 30
0.0
 40
6.5
1001
ACAD
1000
RTLwPs
1070
   128
  0
LINE
  5
59A5
100
AcDbEntity
  8
MSL-115-P40-R-0
 48
2.0
100
AcDbLine
 10
1383.930691
 20
249.734015
 30
0.0
 11
1395.930691
 21
249.734015
 31
0.0
  0
LINE
  5
59A6
100
AcDbEntity
  8
MSL-115-P40-R-0
 48
2.0
100
AcDbLine
 10
1383.430691
 20
249.234015
 30
0.0
 11
1396.430691
 21
249.234015
 31
0.0
  0
LINE
  5
59A7
100
AcDbEntity
  8
MSL-115-P40-R-0
 48
2.0
100
AcDbLine
 10
1396.430691
 20
249.234015
 30
0.0
 11
1395.930691
 21
249.734015
 31
0.0
  0
LINE
  5
59A8
100
AcDbEntity
  8
MSL-115-P40-R-0
 48
2.0
100
AcDbLine
 10
1396.430691
 20
249.234015
 30
0.0
 11
1396.430691
 21
247.734015
 31
0.0
  0
LINE
  5
59A9
100
AcDbEntity
  8
MSL-115-P40-R-0
 48
2.0
100
AcDbLine
 10
1383.430691
 20
247.734015
 30
0.0
 11
1383.430691
 21
249.234015
 31
0.0
  0
LINE
  5
59AA
100
AcDbEntity
  8
MSL-115-P40-R-0
 48
2.0
100
AcDbLine
 10
1383.430691
 20
249.234015
 30
0.0
 11
1383.930691
 21
249.734015
 31
0.0
  0
LINE
  5
59C5
100
AcDbEntity
  8
MSL-115-P40-R-0
 48
2.0
100
AcDbLine
 10
1787.446829
 20
249.234015
 30
0.0
 11
1787.946829
 21
249.734015
 31
0.0
  0
LINE
  5
59C6
100
AcDbEntity
  8
MSL-115-P40-R-0
 48
2.0
100
AcDbLine
 10
1787.446829
 20
247.734015
 30
0.0
 11
1787.446829
 21
249.234015
 31
0.0
  0
LINE
  5
59C7
100
AcDbEntity
  8
MSL-115-P40-R-0
 48
2.0
100
AcDbLine
 10
1800.446829
 20
249.234015
 30
0.0
 11
1800.446829
 21
247.734015
 31
0.0
  0
LINE
  5
59C8
100
AcDbEntity
  8
MSL-115-P40-R-0
 48
2.0
100
AcDbLine
 10
1800.446829
 20
249.234015
 30
0.0
 11
1799.946829
 21
249.734015
 31
0.0
  0
LINE
  5
59C9
100
AcDbEntity
  8
MSL-115-P40-R-0
 48
2.0
100
AcDbLine
 10
1787.446829
 20
249.234015
 30
0.0
 11
1800.446829
 21
249.234015
 31
0.0
  0
LINE
  5
59CA
100
AcDbEntity
  8
MSL-115-P40-R-0
 48
2.0
100
AcDbLine
 10
1787.946829
 20
249.734015
 30
0.0
 11
1799.946829
 21
249.734015
 31
0.0
  0
LINE
  5
59CB
100
AcDbEntity
  8
MSL-115-P40-R-0
 48
2.0
100
AcDbLine
 10
1877.446829
 20
249.234015
 30
0.0
 11
1877.946829
 21
249.734015
 31
0.0
  0
LINE
  5
59CC
100
AcDbEntity
  8
MSL-115-P40-R-0
 48
2.0
100
AcDbLine
 10
1877.446829
 20
247.734015
 30
0.0
 11
1877.446829
 21
249.234015
 31
0.0
  0
LINE
  5
59CD
100
AcDbEntity
  8
MSL-115-P40-R-0
 48
2.0
100
AcDbLine
 10
1890.446829
 20
249.234015
 30
0.0
 11
1890.446829
 21
247.734015
 31
0.0
  0
LINE
  5
59CE
100
AcDbEntity
  8
MSL-115-P40-R-0
 48
2.0
100
AcDbLine
 10
1890.446829
 20
249.234015
 30
0.0
 11
1889.946829
 21
249.734015
 31
0.0
  0
LINE
  5
59CF
100
AcDbEntity
  8
MSL-115-P40-R-0
 48
2.0
100
AcDbLine
 10
1877.446829
 20
249.234015
 30
0.0
 11
1890.446829
 21
249.234015
 31
0.0
  0
LINE
  5
59D0
100
AcDbEntity
  8
MSL-115-P40-R-0
 48
2.0
100
AcDbLine
 10
1877.946829
 20
249.734015
 30
0.0
 11
1889.946829
 21
249.734015
 31
0.0
  0
LINE
  5
5D7F
100
AcDbEntity
  8
MSL-115-P40-R-3A
 48
2.0
100
AcDbLine
 10
1795.521862
 20
145.279369
 30
0.0
 11
1791.287579
 21
145.279369
 31
0.0
1001
ACAD
1000
RTLwPs
1070
   128
  0
LINE
  5
5D83
100
AcDbEntity
  8
MSL-115-P40-R-3A
 48
2.0
100
AcDbLine
 10
1783.889421
 20
145.220791
 30
0.0
 11
1780.456578
 21
141.787948
 31
0.0
1001
ACAD
1000
RTLwPs
1070
   128
  0
LINE
  5
5D84
100
AcDbEntity
  8
MSL-115-P40-R-3A
 48
2.0
100
AcDbLine
 10
1785.521862
 20
145.279369
 30
0.0
 11
1784.030843
 21
145.279369
 31
0.0
1001
ACAD
1000
RTLwPs
1070
   128
  0
LINE
  5
5D85
100
AcDbEntity
  8
MSL-115-P40-R-3A
 48
2.0
100
AcDbLine
 10
1789.607369
 20
145.279369
 30
0.0
 11
1785.521862
 21
145.279369
 31
0.0
1001
ACAD
1000
RTLwPs
1070
   128
  0
LINE
  5
5D86
100
AcDbEntity
  8
MSL-115-P40-R-3A
 48
2.0
100
AcDbLine
 10
1789.707369
 20
145.306164
 30
0.0
 11
1790.347
 21
145.675455
 31
0.0
1001
ACAD
1000
RTLwPs
1070
   128
  0
ARC
  5
5D87
100
AcDbEntity
  8
MSL-115-P40-R-3A
 48
2.0
100
AcDbCircle
 10
1789.607369
 20
145.479369
 30
0.0
 40
0.2
100
AcDbArc
 50
270.0
 51
299.999998
1001
ACAD
1000
RTLwPs
1070
   128
  0
LINE
  5
5D88
100
AcDbEntity
  8
MSL-115-P40-R-3A
 48
2.0
100
AcDbLine
 10
1790.546889
 20
145.675519
 30
0.0
 11
1791.18769
 21
145.3061
 31
0.0
1001
ACAD
1000
RTLwPs
1070
   128
  0
ARC
  5
5D89
100
AcDbEntity
  8
MSL-115-P40-R-3A
 48
2.0
100
AcDbCircle
 10
1790.447
 20
145.50225
 30
0.0
 40
0.2
100
AcDbArc
 50
60.036737
 51
119.999999
1001
ACAD
1000
RTLwPs
1070
   128
  0
ARC
  5
5D8A
100
AcDbEntity
  8
MSL-115-P40-R-3A
 48
2.0
100
AcDbCircle
 10
1791.287579
 20
145.479369
 30
0.0
 40
0.2
100
AcDbArc
 50
240.036737
 51
270.0
1001
ACAD
1000
RTLwPs
1070
   128
  0
ARC
  5
5D8B
100
AcDbEntity
  8
MSL-115-P40-R-3A
 48
2.0
100
AcDbCircle
 10
1785.248
 20
136.533759
 30
0.0
 40
0.2
100
AcDbArc
 50
0.0
 51
90.0
1001
ACAD
1000
RTLwPs
1070
   128
  0
LINE
  5
5D8C
100
AcDbEntity
  8
MSL-115-P40-R-3A
 48
2.0
100
AcDbLine
 10
1780.598
 20
136.733759
 30
0.0
 11
1785.248
 21
136.733759
 31
0.0
1001
ACAD
1000
RTLwPs
1070
   128
  0
ARC
  5
5D8D
100
AcDbEntity
  8
MSL-115-P40-R-3A
 48
2.0
100
AcDbCircle
 10
1780.598
 20
136.933759
 30
0.0
 40
0.2
100
AcDbArc
 50
180.0
 51
270.0
1001
ACAD
1000
RTLwPs
1070
   128
  0
LINE
  5
5D8E
100
AcDbEntity
  8
MSL-115-P40-R-3A
 48
2.0
100
AcDbLine
 10
1780.398
 20
141.646527
 30
0.0
 11
1780.398
 21
136.933759
 31
0.0
1001
ACAD
1000
RTLwPs
1070
   128
  0
ARC
  5
5D8F
100
AcDbEntity
  8
MSL-115-P40-R-3A
 48
2.0
100
AcDbCircle
 10
1780.598
 20
141.646527
 30
0.0
 40
0.2
100
AcDbArc
 50
135.0
 51
180.0
1001
ACAD
1000
RTLwPs
1070
   128
  0
ARC
  5
5D90
100
AcDbEntity
  8
MSL-115-P40-R-3A
 48
2.0
100
AcDbCircle
 10
1784.030843
 20
145.079369
 30
0.0
 40
0.2
100
AcDbArc
 50
90.0
 51
135.0
1001
ACAD
1000
RTLwPs
1070
   128
  0
LINE
  5
5D91
100
AcDbEntity
  8
MSL-115-P40-R-3A
 48
2.0
100
AcDbLine
 10
1785.448
 20
136.533759
 30
0.0
 11
1785.448
 21
132.934038
 31
0.0
1001
ACAD
1000
RTLwPs
1070
   128
  0
LINE
  5
5D99
100
AcDbEntity
  8
MSL-115-P40-R-3A
 48
2.0
100
AcDbLine
 10
1796.862881
 20
145.279369
 30
0.0
 11
1795.521862
 21
145.279369
 31
0.0
1001
ACAD
1000
RTLwPs
1070
   128
  0
LINE
  5
5D9A
100
AcDbEntity
  8
MSL-115-P40-R-3A
 48
2.0
100
AcDbLine
 10
1800.437145
 20
141.787948
 30
0.0
 11
1797.004302
 21
145.220791
 31
0.0
1001
ACAD
1000
RTLwPs
1070
   128
  0
LINE
  5
5D9B
100
AcDbEntity
  8
MSL-115-P40-R-3A
 48
2.0
100
AcDbLine
 10
1800.495724
 20
136.934317
 30
0.0
 11
1800.495724
 21
141.646527
 31
0.0
1001
ACAD
1000
RTLwPs
1070
   128
  0
ARC
  5
5D9C
100
AcDbEntity
  8
MSL-115-P40-R-3A
 48
2.0
100
AcDbCircle
 10
1800.295724
 20
136.934317
 30
0.0
 40
0.2
100
AcDbArc
 50
270.0
 51
0.0
1001
ACAD
1000
RTLwPs
1070
   128
  0
LINE
  5
5D9D
100
AcDbEntity
  8
MSL-115-P40-R-3A
 48
2.0
100
AcDbLine
 10
1795.645724
 20
136.734317
 30
0.0
 11
1800.295724
 21
136.734317
 31
0.0
1001
ACAD
1000
RTLwPs
1070
   128
  0
ARC
  5
5D9E
100
AcDbEntity
  8
MSL-115-P40-R-3A
 48
2.0
100
AcDbCircle
 10
1795.645724
 20
136.534317
 30
0.0
 40
0.2
100
AcDbArc
 50
90.0
 51
180.0
1001
ACAD
1000
RTLwPs
1070
   128
  0
ARC
  5
5D9F
100
AcDbEntity
  8
MSL-115-P40-R-3A
 48
2.0
100
AcDbCircle
 10
1796.862881
 20
145.079369
 30
0.0
 40
0.2
100
AcDbArc
 50
45.0
 51
90.0
1001
ACAD
1000
RTLwPs
1070
   128
  0
LINE
  5
5DA0
100
AcDbEntity
  8
MSL-115-P40-R-3A
 48
2.0
100
AcDbLine
 10
1795.445724
 20
132.934038
 30
0.0
 11
1795.445724
 21
136.534317
 31
0.0
1001
ACAD
1000
RTLwPs
1070
   128
  0
LINE
  5
5DB1
100
AcDbEntity
  8
MSL-115-P40-R-3A
 48
2.0
100
AcDbLine
 10
1897.437145
 20
141.787948
 30
0.0
 11
1894.004302
 21
145.220791
 31
0.0
1001
ACAD
1000
RTLwPs
1070
   128
  0
LINE
  5
5DB2
100
AcDbEntity
  8
MSL-115-P40-R-3A
 48
2.0
100
AcDbLine
 10
1892.645724
 20
136.733759
 30
0.0
 11
1897.295724
 21
136.733759
 31
0.0
1001
ACAD
1000
RTLwPs
1070
   128
  0
LINE
  5
5DD0
100
AcDbEntity
  8
MSL-115-P40-R-3A
 48
2.0
100
AcDbLine
 10
1880.889421
 20
145.220791
 30
0.0
 11
1877.456578
 21
141.787948
 31
0.0
1001
ACAD
1000
RTLwPs
1070
   128
  0
ARC
  5
5DD1
100
AcDbEntity
  8
MSL-115-P40-R-3A
 48
2.0
100
AcDbCircle
 10
1877.598
 20
141.646527
 30
0.0
 40
0.2
100
AcDbArc
 50
135.0
 51
180.0
1001
ACAD
1000
RTLwPs
1070
   128
  0
ARC
  5
5DD2
100
AcDbEntity
  8
MSL-115-P40-R-3A
 48
2.0
100
AcDbCircle
 10
1881.030843
 20
145.079369
 30
0.0
 40
0.2
100
AcDbArc
 50
90.0
 51
135.0
1001
ACAD
1000
RTLwPs
1070
   128
  0
LINE
  5
5DD3
100
AcDbEntity
  8
MSL-115-P40-R-3A
 48
2.0
100
AcDbLine
 10
1886.606145
 20
145.279369
 30
0.0
 11
1881.030843
 21
145.279369
 31
0.0
1001
ACAD
1000
RTLwPs
1070
   128
  0
LINE
  5
5DD4
100
AcDbEntity
  8
MSL-115-P40-R-3A
 48
2.0
100
AcDbLine
 10
1886.706034
 20
145.3061
 30
0.0
 11
1887.346835
 21
145.675519
 31
0.0
1001
ACAD
1000
RTLwPs
1070
   128
  0
ARC
  5
5DD5
100
AcDbEntity
  8
MSL-115-P40-R-3A
 48
2.0
100
AcDbCircle
 10
1886.606145
 20
145.479369
 30
0.0
 40
0.2
100
AcDbArc
 50
270.0
 51
299.963263
1001
ACAD
1000
RTLwPs
1070
   128
  0
ARC
  5
5DD6
100
AcDbEntity
  8
MSL-115-P40-R-3A
 48
2.0
100
AcDbCircle
 10
1887.446724
 20
145.50225
 30
0.0
 40
0.2
100
AcDbArc
 50
60.000001
 51
119.963263
1001
ACAD
1000
RTLwPs
1070
   128
  0
ARC
  5
5DD7
100
AcDbEntity
  8
MSL-115-P40-R-3A
 48
2.0
100
AcDbCircle
 10
1888.286355
 20
145.479369
 30
0.0
 40
0.2
100
AcDbArc
 50
240.000001
 51
270.0
1001
ACAD
1000
RTLwPs
1070
   128
  0
LINE
  5
5DD8
100
AcDbEntity
  8
MSL-115-P40-R-3A
 48
2.0
100
AcDbLine
 10
1887.546724
 20
145.675455
 30
0.0
 11
1888.186355
 21
145.306164
 31
0.0
1001
ACAD
1000
RTLwPs
1070
   128
  0
LINE
  5
5DD9
100
AcDbEntity
  8
MSL-115-P40-R-3A
 48
2.0
100
AcDbLine
 10
1892.371862
 20
145.279369
 30
0.0
 11
1888.286355
 21
145.279369
 31
0.0
1001
ACAD
1000
RTLwPs
1070
   128
  0
LINE
  5
5DDA
100
AcDbEntity
  8
MSL-115-P40-R-3A
 48
2.0
100
AcDbLine
 10
1893.862881
 20
145.279369
 30
0.0
 11
1892.371862
 21
145.279369
 31
0.0
1001
ACAD
1000
RTLwPs
1070
   128
  0
ARC
  5
5DDB
100
AcDbEntity
  8
MSL-115-P40-R-3A
 48
2.0
100
AcDbCircle
 10
1893.862881
 20
145.079369
 30
0.0
 40
0.2
100
AcDbArc
 50
45.0
 51
90.0
1001
ACAD
1000
RTLwPs
1070
   128
  0
ARC
  5
5DDC
100
AcDbEntity
  8
MSL-115-P40-R-3A
 48
2.0
100
AcDbCircle
 10
1892.645724
 20
136.533759
 30
0.0
 40
0.2
100
AcDbArc
 50
90.0
 51
180.0
1001
ACAD
1000
RTLwPs
1070
   128
  0
LINE
  5
5DDD
100
AcDbEntity
  8
MSL-115-P40-R-3A
 48
2.0
100
AcDbLine
 10
1892.445724
 20
132.934038
 30
0.0
 11
1892.445724
 21
136.533759
 31
0.0
1001
ACAD
1000
RTLwPs
1070
   128
  0
ARC
  5
5DDE
100
AcDbEntity
  8
MSL-115-P40-R-3A
 48
2.0
100
AcDbCircle
 10
1882.248
 20
136.534317
 30
0.0
 40
0.2
100
AcDbArc
 50
0.0
 51
90.0
1001
ACAD
1000
RTLwPs
1070
   128
  0
LINE
  5
5DDF
100
AcDbEntity
  8
MSL-115-P40-R-3A
 48
2.0
100
AcDbLine
 10
1882.448
 20
136.534317
 30
0.0
 11
1882.448
 21
132.934038
 31
0.0
1001
ACAD
1000
RTLwPs
1070
   128
  0
LINE
  5
5DE0
100
AcDbEntity
  8
MSL-115-P40-R-3A
 48
2.0
100
AcDbLine
 10
1877.598
 20
136.734317
 30
0.0
 11
1882.248
 21
136.734317
 31
0.0
1001
ACAD
1000
RTLwPs
1070
   128
  0
ARC
  5
5DE1
100
AcDbEntity
  8
MSL-115-P40-R-3A
 48
2.0
100
AcDbCircle
 10
1877.598
 20
136.934317
 30
0.0
 40
0.2
100
AcDbArc
 50
180.0
 51
270.0
1001
ACAD
1000
RTLwPs
1070
   128
  0
LINE
  5
5DE2
100
AcDbEntity
  8
MSL-115-P40-R-3A
 48
2.0
100
AcDbLine
 10
1877.398
 20
141.646527
 30
0.0
 11
1877.398
 21
136.934317
 31
0.0
1001
ACAD
1000
RTLwPs
1070
   128
  0
ARC
  5
5DE6
100
AcDbEntity
  8
MSL-115-P40-R-3A
 48
2.0
100
AcDbCircle
 10
1897.295724
 20
141.646527
 30
0.0
 40
0.2
100
AcDbArc
 50
0.0
 51
45.0
1001
ACAD
1000
RTLwPs
1070
   128
  0
LINE
  5
5DE7
100
AcDbEntity
  8
MSL-115-P40-R-3A
 48
2.0
100
AcDbLine
 10
1897.495724
 20
136.933759
 30
0.0
 11
1897.495724
 21
141.646527
 31
0.0
1001
ACAD
1000
RTLwPs
1070
   128
  0
ARC
  5
5DE8
100
AcDbEntity
  8
MSL-115-P40-R-3A
 48
2.0
100
AcDbCircle
 10
1897.295724
 20
136.933759
 30
0.0
 40
0.2
100
AcDbArc
 50
270.0
 51
0.0
1001
ACAD
1000
RTLwPs
1070
   128
  0
MTEXT
  5
5DEE
100
AcDbEntity
  8
MSL-115-P40-R-6
100
AcDbMText
 10
1301.746283
 20
158.654446
 30
0.0
 40
7.0
 41
318.7337
 71
     1
 72
     5
  1
MSL 115-P40-R-100
1001
ACAD
1000
MTEXTBEGIN
1070
    73
1070
     1
1070
    44
1040
1.0
1070
    74
1070
     0
1000
MTEXTEND
  0
ENDSEC
  0
SECTION
  2
OBJECTS
  0
DICTIONARY
  5
C
102
{ACAD_XDICTIONARY
360
602E
102
}
100
AcDbDictionary
  3
ACAD_GROUP
350
D
  3
ACAD_LAYOUT
350
5DF8
  3
ACAD_MLINESTYLE
350
E
  3
ACAD_PLOTSETTINGS
350
5DF9
  3
ACAD_PLOTSTYLENAME
350
5DF6
  3
ACDBHEADERROUNDTRIPXREC
350
600E
  3
ACDBVARIABLEDICTIONARY
350
5E2C
  3
ACGREF_MASTER
350
5E39
  3
ACGREFACAD_MASTER
350
5E3C
  3
ACMDICTIONARY
350
5E3E
  3
AMG
350
5DFF
  3
AMGSNAPSETTINGS
350
5EC4
  3
AMI_MASTER
350
5E3D
  3
DWGPROPS
350
5E41
  0
DICTIONARY
  5
600C
100
AcDbDictionary
280
     1
  3
ACAD_XREC_ROUNDTRIP
360
600D
  0
DICTIONARY
  5
6004
100
AcDbDictionary
280
     1
  3
ACAD_XREC_ROUNDTRIP
360
6005
  0
DICTIONARY
  5
6006
100
AcDbDictionary
280
     1
  3
ACAD_XREC_ROUNDTRIP
360
6007
  0
DICTIONARY
  5
6008
100
AcDbDictionary
280
     1
  3
ACAD_XREC_ROUNDTRIP
360
6009
  0
DICTIONARY
  5
600A
100
AcDbDictionary
280
     1
  3
ACAD_XREC_ROUNDTRIP
360
600B
  0
DICTIONARY
  5
6002
100
AcDbDictionary
280
     1
  3
ACAD_XREC_ROUNDTRIP
360
6003
  0
DICTIONARY
  5
603F
100
AcDbDictionary
280
     1
  3
ACAD_XREC_ROUNDTRIP
360
6040
  0
DICTIONARY
  5
6042
100
AcDbDictionary
280
     1
  3
ACAD_XREC_ROUNDTRIP
360
6043
  0
DICTIONARY
  5
6044
100
AcDbDictionary
280
     1
  3
ACAD_XREC_ROUNDTRIP
360
6045
  0
DICTIONARY
  5
6046
100
AcDbDictionary
280
     1
  3
ACAD_XREC_ROUNDTRIP
360
6047
  0
DICTIONARY
  5
6048
100
AcDbDictionary
280
     1
  3
ACAD_XREC_ROUNDTRIP
360
6049
  0
DICTIONARY
  5
604A
100
AcDbDictionary
280
     1
  3
ACAD_XREC_ROUNDTRIP
360
604B
  0
DICTIONARY
  5
604C
100
AcDbDictionary
280
     1
  3
ACAD_XREC_ROUNDTRIP
360
604D
  0
DICTIONARY
  5
604E
100
AcDbDictionary
280
     1
  3
ACAD_XREC_ROUNDTRIP
360
604F
  0
DICTIONARY
  5
5FF6
100
AcDbDictionary
280
     1
  3
ACAD_INDEX
360
5FF7
  3
ACAD_LAYOUTSELFREF
360
6032
  0
DICTIONARY
  5
6030
100
AcDbDictionary
280
     1
  3
ACAD_LAYOUTSELFREF
360
6031
  0
DICTIONARY
  5
602E
100
AcDbDictionary
280
     1
  3
ACAD_XREC_ROUNDTRIP
360
602F
  0
DICTIONARY
  5
D
102
{ACAD_REACTORS
330
C
102
}
100
AcDbDictionary
  0
DICTIONARY
  5
5DF8
102
{ACAD_XDICTIONARY
360
6033
102
}
102
{ACAD_REACTORS
330
C
102
}
100
AcDbDictionary
  3
LAYOUT1
350
5DFB
  3
MODEL
350
5DFA
  0
DICTIONARY
  5
E
102
{ACAD_REACTORS
330
C
102
}
100
AcDbDictionary
  3
STANDARD
350
1B
  0
DICTIONARY
  5
5DF9
102
{ACAD_REACTORS
330
C
102
}
100
AcDbDictionary
  0
ACAD_PROXY_OBJECT
  5
5DF6
102
{ACAD_REACTORS
330
C
102
}
100
AcDbProxyObject
 90
      499
 91
      503
 93
       86
310
405010041939BDC9B585B0
350
5DF7
340
5DF7
 94
        0
  0
DICTIONARY
  5
600E
102
{ACAD_REACTORS
330
C
102
}
100
AcDbDictionary
  3
CEPSNTYPE
350
6018
  3
FINGERPRINTGUID
350
6019
  3
HYPERLINKBASE
350
6011
  3
INSUNITS
350
6017
  3
LAYOUTDICT
350
6013
  3
LWETCUNION
350
6016
  3
PLOTSETDICT
350
6014
  3
PLOTSTYLNAMDICT
350
6015
  3
PSVPSCALE
350
601B
  3
PUCSBASE
350
601E
  3
PUCSORGBACK
350
6024
  3
PUCSORGBOTTOM
350
6020
  3
PUCSORGFRONT
350
6023
  3
PUCSORGLEFT
350
6021
  3
PUCSORGRIGHT
350
6022
  3
PUCSORGTOP
350
601F
  3
PUCSORTHOREF
350
601C
  3
PUCSORTHOVIEW
350
601D
  3
STYLESHEET
350
6012
  3
TSTACKALIGN
350
600F
  3
TSTACKSIZE
350
6010
  3
UCSBASE
350
6027
  3
UCSORGBACK
350
602D
  3
UCSORGBOTTOM
350
6029
  3
UCSORGFRONT
350
602C
  3
UCSORGLEFT
350
602A
  3
UCSORGRIGHT
350
602B
  3
UCSORGTOP
350
6028
  3
UCSORTHOREF
350
6025
  3
UCSORTHOVIEW
350
6026
  3
VERSIONGUID
350
601A
  0
DICTIONARY
  5
5E2C
102
{ACAD_REACTORS
330
C
102
}
100
AcDbDictionary
  3
INDEXCTL
350
5E2D
  0
ACAD_PROXY_OBJECT
  5
5E39
102
{ACAD_REACTORS
330
C
102
}
100
AcDbProxyObject
 90
      499
 91
      521
 93
       34
310
040000429B
 94
        0
  0
ACAD_PROXY_OBJECT
  5
5E3C
102
{ACAD_REACTORS
330
C
102
}
100
AcDbProxyObject
 90
      499
 91
      524
 93
      114
310
04000041C000000000000000000000
 94
        0
  0
DICTIONARY
  5
5E3E
102
{ACAD_XDICTIONARY
360
603B
102
}
102
{ACAD_REACTORS
330
C
102
}
100
AcDbDictionary
  3
ACMSTDDICTIONARY
350
5E43
  0
DICTIONARY
  5
5DFF
102
{ACAD_XDICTIONARY
360
6035
102
}
102
{ACAD_REACTORS
330
C
102
}
100
AcDbDictionary
  3
ACMGSETTINGS
350
5E00
  0
DICTIONARY
  5
5EC4
102
{ACAD_XDICTIONARY
360
6050
102
}
102
{ACAD_REACTORS
330
C
102
}
100
AcDbDictionary
  0
ACAD_PROXY_OBJECT
  5
5E3D
102
{ACAD_REACTORS
330
C
102
}
100
AcDbProxyObject
 90
      499
 91
      525
 93
       34
310
0500004280
 94
        0
  0
XRECORD
  5
5E41
102
{ACAD_REACTORS
330
C
102
}
100
AcDbXrecord
  1
DWGPROPS COOKIE
  2

  3

  4

  6

  7

  8

  9

300
AmdtFileType=84
301
=
302
=
303
=
304
=
305
=
306
=
307
=
308
=
309
=
 40
0.33202
 41
2452398.513436
 42
2452452.421509
  1

 90
        1
  0
XRECORD
  5
600D
102
{ACAD_REACTORS
330
600C
102
}
100
AcDbXrecord
102
EXTNAMES
  1
*ACTIVE
  2
*Active
102
UCS
 74
     0
 71
     1
 10
0.0
 20
0.0
 30
0.0
 10
1.0
 20
0.0
 30
0.0
 10
0.0
 20
1.0
 30
0.0
146
0.0
 79
     0
102
VIEW
281
     0
  0
XRECORD
  5
6005
102
{ACAD_REACTORS
330
6004
102
}
100
AcDbXrecord
102
EXTNAMES
  1
AMCONSTR
  2
Amconstr
  0
XRECORD
  5
6007
102
{ACAD_REACTORS
330
6006
102
}
100
AcDbXrecord
102
EXTNAMES
  1
AM_ISO02W050X2
  2
AM_ISO02W050x2
  0
XRECORD
  5
6009
102
{ACAD_REACTORS
330
6008
102
}
100
AcDbXrecord
102
EXTNAMES
  1
AM_ISO08W050X2
  2
AM_ISO08W050x2
  0
XRECORD
  5
600B
102
{ACAD_REACTORS
330
600A
102
}
100
AcDbXrecord
102
EXTNAMES
  1
AMZIGZAG
  2
Amzigzag
  0
XRECORD
  5
6003
102
{ACAD_REACTORS
330
6002
102
}
100
AcDbXrecord
102
EXTNAMES
  1
DEFPOINTS
  2
Defpoints
102
PLOTBIT
280
     0
  0
XRECORD
  5
6040
102
{ACAD_REACTORS
330
603F
102
}
100
AcDbXrecord
102
LINEWEIGHT
280
    11
  0
XRECORD
  5
6043
102
{ACAD_REACTORS
330
6042
102
}
100
AcDbXrecord
102
ACADR14ROUNDTRIP
1000
DSTYLE
1002
{
1070
    79
 70
     2
1070
   371
 70
    -1
1070
   372
 70
    -1
1002
}
  0
XRECORD
  5
6045
102
{ACAD_REACTORS
330
6044
102
}
100
AcDbXrecord
102
ACADR14ROUNDTRIP
1000
DSTYLE
1002
{
1070
    79
 70
     2
1070
   289
 70
     0
1070
   371
 70
    -1
1070
   372
 70
    -1
1002
}
  0
XRECORD
  5
6047
102
{ACAD_REACTORS
330
6046
102
}
100
AcDbXrecord
102
ACADR14ROUNDTRIP
1000
DSTYLE
1002
{
1070
    79
 70
     2
1070
   371
 70
    -1
1070
   372
 70
    -1
1002
}
  0
XRECORD
  5
6049
102
{ACAD_REACTORS
330
6048
102
}
100
AcDbXrecord
102
ACADR14ROUNDTRIP
1000
DSTYLE
1002
{
1070
    79
 70
     2
1070
   371
 70
    -1
1070
   372
 70
    -1
1002
}
  0
XRECORD
  5
604B
102
{ACAD_REACTORS
330
604A
102
}
100
AcDbXrecord
102
ACADR14ROUNDTRIP
1000
DSTYLE
1002
{
1070
    79
 70
     2
1070
   371
 70
    -1
1070
   372
 70
    -1
1002
}
  0
XRECORD
  5
604D
102
{ACAD_REACTORS
330
604C
102
}
100
AcDbXrecord
102
ACADR14ROUNDTRIP
1000
DSTYLE
1002
{
1070
    79
 70
     2
1070
   371
 70
    -1
1070
   372
 70
    -1
1002
}
  0
XRECORD
  5
604F
102
{ACAD_REACTORS
330
604E
102
}
100
AcDbXrecord
102
ACADR14ROUNDTRIP
1000
DSTYLE
1002
{
1070
    79
 70
     2
1070
   343
340
5EB3
1070
   371
 70
    -1
1070
   372
 70
    -1
1002
}
  0
DICTIONARY
  5
5FF7
102
{ACAD_REACTORS
330
5FF6
102
}
100
AcDbDictionary
  3
*A1
350
5FF8
  0
XRECORD
  5
6032
102
{ACAD_REACTORS
330
5FF6
102
}
100
AcDbXrecord
340
18
  0
XRECORD
  5
6031
102
{ACAD_REACTORS
330
6030
102
}
100
AcDbXrecord
340
15
  0
XRECORD
  5
602F
102
{ACAD_REACTORS
330
602E
102
}
100
AcDbXrecord
102
EXTNAMES
  1
ACDBVARIABLEDICTIONARY
  2
AcDbVariableDictionary
  1
ACMDICTIONARY
  2
AcmDictionary
  1
ACMESYSVARMANAGER
  2
AcmeSysVarManager
  1
ACMSYSTEMVARIABLEMANAGER
  2
AcmSystemVariableManager
  0
DICTIONARY
  5
6033
100
AcDbDictionary
280
     1
  3
ACAD_XREC_ROUNDTRIP
360
6034
  0
ACAD_PROXY_OBJECT
  5
5DFB
102
{ACAD_REACTORS
330
5DF8
102
}
100
AcDbProxyObject
 90
      499
 91
      505
 93
     1068
310
90F4850204C617365724A657420344D562C00AAAAAA416AA5429B1D5D1E97CC4B98DD1891069074C61796F75743140501A800000000000000000000000000000000000000000101E900000000000241C902A6A6A10232D5E076BC5510408CB5781DAF154410232D5E076BC5510408CB5781DAF15C410232D5E076BC5710408
310
CB5781DAF15C40
330
15
330
0
340
0
340
0
 94
        0
  0
ACAD_PROXY_OBJECT
  5
5DFA
102
{ACAD_REACTORS
330
5DF8
102
}
100
AcDbProxyObject
 90
      499
 91
      505
 93
      644
310
90F4850204C617365724A657420344D562C01AAAAAAAAA5429B1D5D1E97CC4B98DD18A69054D6F64656C901A800000000000000000000000000000000000000000000A1000000000000008902A6A6AAAA0
330
18
330
0
340
0
340
0
 94
        0
  0
MLINESTYLE
  5
1B
102
{ACAD_REACTORS
330
E
102
}
100
AcDbMlineStyle
  2
STANDARD
 70
     0
  3

 62
     0
 51
90.0
 52
90.0
 71
     2
 49
0.5
 62
   256
  6
BYLAYER
 49
-0.5
 62
   256
  6
BYLAYER
  0
ACAD_PROXY_OBJECT
  5
5DF7
102
{ACAD_REACTORS
330
5DF6
102
}
100
AcDbProxyObject
 90
      499
 91
      504
 93
        0
 94
        0
  0
XRECORD
  5
6018
102
{ACAD_REACTORS
330
600E
102
}
100
AcDbXrecord
 90
        0
  0
XRECORD
  5
6019
102
{ACAD_REACTORS
330
600E
102
}
100
AcDbXrecord
  1
{CAE4DA6E-BDE5-4805-97CE-168A5F2BCD3E}
  0
XRECORD
  5
6011
102
{ACAD_REACTORS
330
600E
102
}
100
AcDbXrecord
  1

  0
XRECORD
  5
6017
102
{ACAD_REACTORS
330
600E
102
}
100
AcDbXrecord
 90
        0
  0
XRECORD
  5
6013
102
{ACAD_REACTORS
330
600E
102
}
100
AcDbXrecord
340
5DF8
  0
XRECORD
  5
6016
102
{ACAD_REACTORS
330
600E
102
}
100
AcDbXrecord
 90
    14877
  0
XRECORD
  5
6014
102
{ACAD_REACTORS
330
600E
102
}
100
AcDbXrecord
340
5DF9
  0
XRECORD
  5
6015
102
{ACAD_REACTORS
330
600E
102
}
100
AcDbXrecord
340
5DF6
  0
XRECORD
  5
601B
102
{ACAD_REACTORS
330
600E
102
}
100
AcDbXrecord
 40
0.0
  0
XRECORD
  5
601E
102
{ACAD_REACTORS
330
600E
102
}
100
AcDbXrecord
340
0
  0
XRECORD
  5
6024
102
{ACAD_REACTORS
330
600E
102
}
100
AcDbXrecord
 10
0.0
 20
0.0
 30
0.0
  0
XRECORD
  5
6020
102
{ACAD_REACTORS
330
600E
102
}
100
AcDbXrecord
 10
0.0
 20
0.0
 30
0.0
  0
XRECORD
  5
6023
102
{ACAD_REACTORS
330
600E
102
}
100
AcDbXrecord
 10
0.0
 20
0.0
 30
0.0
  0
XRECORD
  5
6021
102
{ACAD_REACTORS
330
600E
102
}
100
AcDbXrecord
 10
0.0
 20
0.0
 30
0.0
  0
XRECORD
  5
6022
102
{ACAD_REACTORS
330
600E
102
}
100
AcDbXrecord
 10
0.0
 20
0.0
 30
0.0
  0
XRECORD
  5
601F
102
{ACAD_REACTORS
330
600E
102
}
100
AcDbXrecord
 10
0.0
 20
0.0
 30
0.0
  0
XRECORD
  5
601C
102
{ACAD_REACTORS
330
600E
102
}
100
AcDbXrecord
340
0
  0
XRECORD
  5
601D
102
{ACAD_REACTORS
330
600E
102
}
100
AcDbXrecord
 70
     0
  0
XRECORD
  5
6012
102
{ACAD_REACTORS
330
600E
102
}
100
AcDbXrecord
  1

  0
XRECORD
  5
600F
102
{ACAD_REACTORS
330
600E
102
}
100
AcDbXrecord
 90
        1
  0
XRECORD
  5
6010
102
{ACAD_REACTORS
330
600E
102
}
100
AcDbXrecord
 90
       70
  0
XRECORD
  5
6027
102
{ACAD_REACTORS
330
600E
102
}
100
AcDbXrecord
340
0
  0
XRECORD
  5
602D
102
{ACAD_REACTORS
330
600E
102
}
100
AcDbXrecord
 10
0.0
 20
0.0
 30
0.0
  0
XRECORD
  5
6029
102
{ACAD_REACTORS
330
600E
102
}
100
AcDbXrecord
 10
0.0
 20
0.0
 30
0.0
  0
XRECORD
  5
602C
102
{ACAD_REACTORS
330
600E
102
}
100
AcDbXrecord
 10
0.0
 20
0.0
 30
0.0
  0
XRECORD
  5
602A
102
{ACAD_REACTORS
330
600E
102
}
100
AcDbXrecord
 10
0.0
 20
0.0
 30
0.0
  0
XRECORD
  5
602B
102
{ACAD_REACTORS
330
600E
102
}
100
AcDbXrecord
 10
0.0
 20
0.0
 30
0.0
  0
XRECORD
  5
6028
102
{ACAD_REACTORS
330
600E
102
}
100
AcDbXrecord
 10
0.0
 20
0.0
 30
0.0
  0
XRECORD
  5
6025
102
{ACAD_REACTORS
330
600E
102
}
100
AcDbXrecord
340
0
  0
XRECORD
  5
6026
102
{ACAD_REACTORS
330
600E
102
}
100
AcDbXrecord
 70
     0
  0
XRECORD
  5
601A
102
{ACAD_REACTORS
330
600E
102
}
100
AcDbXrecord
  1
{E75A7DEA-D410-4432-ABB3-131F0BF7DCEF}
  0
DICTIONARYVAR
  5
5E2D
102
{ACAD_REACTORS
330
5E2C
102
}
100
DictionaryVariables
280
     0
  1
1
  0
DICTIONARY
  5
603B
100
AcDbDictionary
280
     1
  3
ACAD_XREC_ROUNDTRIP
360
603C
  0
DICTIONARY
  5
5E43
102
{ACAD_REACTORS
330
5E3E
102
}
100
AcDbDictionary
  0
DICTIONARY
  5
6035
100
AcDbDictionary
280
     1
  3
ACAD_XREC_ROUNDTRIP
360
6036
  0
DICTIONARY
  5
5E00
102
{ACAD_REACTORS
330
5DFF
102
}
100
AcDbDictionary
  3
DWGSETTINGS
350
5E19
  0
DICTIONARY
  5
6050
100
AcDbDictionary
280
     1
  3
ACAD_XREC_ROUNDTRIP
360
6051
  0
LAYER_INDEX
  5
5FF8
102
{ACAD_REACTORS
330
5FF7
102
}
100
AcDbIndex
 40
2452912.321717396
100
AcDbLayerIndex
  8
0
360
5FF9
 90
     0
  8
MSL-115-P40-R-0
360
5FFA
 90
   827
  8
MSL-115-P40-R-3A
360
5FFB
 90
    48
  8
MSL-115-P40-R-7A
360
5FFC
 90
    46
  8
MSL-115-P40-R-5
360
5FFD
 90
    56
  8
MSL-115-P40-R-6
360
5FFE
 90
     1
  8
Defpoints
360
5FFF
 90
     0
  8
AM_BOR
360
6000
 90
     0
  0
XRECORD
  5
6034
102
{ACAD_REACTORS
330
6033
102
}
100
AcDbXrecord
102
EXTNAMES
  1
LAYOUT1
  2
Layout1
  1
MODEL
  2
Model
  0
XRECORD
  5
603C
102
{ACAD_REACTORS
330
603B
102
}
100
AcDbXrecord
102
EXTNAMES
  1
ACMBOMDATA
  2
AcmBOMDATA
  1
ACMSTDDICTIONARY
  2
AcmStdDictionary
  0
XRECORD
  5
6036
102
{ACAD_REACTORS
330
6035
102
}
100
AcDbXrecord
102
EXTNAMES
  1
ACMGSETTINGS
  2
AcMgSettings
  0
XRECORD
  5
5E19
102
{ACAD_REACTORS
330
5E00
102
}
100
AcDbXrecord
  1
VERSION
140
15.0
  1
PRODUCT
  2
AutoCAD Mechanical 2000
  0
XRECORD
  5
6051
102
{ACAD_REACTORS
330
6050
102
}
100
AcDbXrecord
102
EXTNAMES
  1
HATCH__1_
  2
HATCH (1)
  1
HATCH__2_
  2
HATCH (2)
  0
IDBUFFER
  5
5FF9
100
AcDbIdBuffer
  0
IDBUFFER
  5
5FFA
100
AcDbIdBuffer
330
41F8
330
41F9
330
41FA
330
41FB
330
41FC
330
41FD
330
41FE
330
41FF
330
4200
330
4201
330
4202
330
4203
330
4204
330
4205
330
4206
330
4207
330
4208
330
4209
330
420A
330
420B
330
420C
330
420D
330
420E
330
420F
330
4210
330
4211
330
4212
330
4213
330
4214
330
4215
330
4216
330
4217
330
4218
330
4219
330
421A
330
421B
330
421C
330
421D
330
421E
330
421F
330
4220
330
4221
330
4222
330
4223
330
4227
330
422B
330
422C
330
422D
330
4231
330
4235
330
423E
330
4242
330
4247
330
424B
330
424F
330
4253
330
4254
330
425A
330
425B
330
425C
330
425D
330
4261
330
4265
330
4266
330
426C
330
426D
330
426E
330
426F
330
4275
330
427A
330
427B
330
427C
330
427D
330
427E
330
427F
330
4287
330
428D
330
428E
330
428F
330
4293
330
4294
330
429A
330
42A0
330
42A1
330
42A5
330
42AE
330
42B2
330
42B6
330
42C0
330
42C4
330
42C8
330
42CC
330
42D0
330
42D4
330
42D8
330
42DC
330
42DD
330
42E1
330
42E2
330
42E3
330
42E6
330
42E7
330
42E8
330
42E9
330
42EA
330
42EB
330
42EC
330
42ED
330
42EE
330
42EF
330
42F0
330
42F1
330
42F2
330
42F3
330
42F4
330
42F5
330
42F6
330
42F7
330
42F8
330
42F9
330
42FA
330
42FB
330
42FC
330
42FD
330
42FE
330
42FF
330
4300
330
4301
330
4302
330
4303
330
4304
330
4305
330
4306
330
4307
330
430A
330
430B
330
430C
330
430D
330
430E
330
430F
330
4310
330
4311
330
4312
330
4313
330
4314
330
4315
330
4316
330
4317
330
4318
330
4319
330
431A
330
431B
330
431C
330
431D
330
431E
330
431F
330
4320
330
4321
330
4322
330
4324
330
4325
330
4326
330
4327
330
4328
330
4329
330
432A
330
432B
330
432C
330
432D
330
432E
330
432F
330
4330
330
4331
330
4332
330
4333
330
4334
330
4335
330
4336
330
4337
330
4338
330
4339
330
433A
330
433B
330
433C
330
433D
330
433E
330
433F
330
4340
330
4341
330
4342
330
4343
330
4344
330
4345
330
4346
330
4347
330
4348
330
4349
330
434A
330
434B
330
434C
330
434D
330
434E
330
434F
330
4350
330
4351
330
4352
330
4353
330
4354
330
4355
330
4356
330
4357
330
4358
330
4359
330
435A
330
435B
330
435C
330
435D
330
435E
330
435F
330
4360
330
4361
330
4362
330
4363
330
4364
330
4367
330
4368
330
4369
330
436A
330
436B
330
436C
330
436D
330
436E
330
436F
330
4370
330
4371
330
4372
330
4373
330
4374
330
4375
330
4376
330
4377
330
4378
330
4379
330
437A
330
437B
330
437C
330
437D
330
437E
330
437F
330
4380
330
4382
330
4383
330
4384
330
4385
330
4386
330
4387
330
4388
330
4389
330
438A
330
438B
330
438C
330
438D
330
438E
330
438F
330
4390
330
4391
330
4392
330
4393
330
4394
330
4395
330
4396
330
4397
330
4398
330
4399
330
439A
330
439B
330
439C
330
439D
330
439E
330
43AD
330
43AE
330
43AF
330
43B0
330
43B1
330
43B2
330
43B3
330
43B4
330
43B5
330
43B6
330
43B7
330
43B8
330
43B9
330
43BA
330
43BB
330
43BC
330
43BD
330
43BE
330
43BF
330
43C0
330
43C1
330
43C2
330
43C3
330
43C4
330
43C5
330
43C6
330
43C7
330
43C8
330
43C9
330
43CA
330
43CB
330
43CC
330
5904
330
5905
330
59A5
330
59A6
330
59A7
330
59A8
330
59A9
330
59AA
330
59C5
330
59C6
330
59C7
330
59C8
330
59C9
330
59CA
330
59CB
330
59CC
330
59CD
330
59CE
330
59CF
330
59D0
330
3ED5
330
3EDE
330
3EDF
330
3EE0
330
3EE1
330
3EE2
330
3EE3
330
3EE4
330
3EE5
330
3EF5
330
3EF7
330
3EF8
330
3EFB
330
3EFC
330
3EFD
330
3F08
330
3F09
330
3F10
330
3F11
330
3F12
330
3F13
330
3F14
330
3F15
330
3F16
330
3F19
330
3F1A
330
3F1B
330
3F1C
330
3F1D
330
3F1E
330
3F1F
330
3F20
330
3F21
330
3F22
330
3F23
330
3F24
330
3F25
330
3F26
330
3F27
330
3F28
330
3F29
330
3F2A
330
3F2B
330
3F2C
330
3F2D
330
3F2E
330
3F2F
330
3F30
330
3F31
330
3F32
330
3F33
330
3F34
330
3F35
330
3F36
330
3F37
330
3F38
330
3F39
330
3F3A
330
3F3B
330
3F3C
330
3F3D
330
3F3E
330
3F3F
330
3F40
330
3F43
330
3F44
330
3F45
330
3F46
330
3F47
330
3F48
330
3F49
330
3F4A
330
3F4B
330
3F4C
330
3F4D
330
3F4E
330
3F4F
330
3F50
330
3F51
330
3F52
330
3F53
330
3F54
330
3F55
330
3F56
330
3F57
330
3F58
330
3F59
330
3F5A
330
3F5B
330
3F5C
330
3F5D
330
3F5E
330
3F5F
330
3F60
330
3F61
330
3F62
330
3F63
330
3F64
330
3F65
330
3F66
330
3F69
330
3F6A
330
3F6C
330
3F6D
330
3F6E
330
3F74
330
3F75
330
3F76
330
3F77
330
3F7D
330
3F7E
330
3F80
330
3F81
330
3F82
330
3F83
330
3F84
330
3F85
330
3F86
330
3F87
330
3F88
330
3F89
330
3F8A
330
3F8B
330
3F8C
330
3F8E
330
3F8F
330
3F90
330
3F92
330
3F93
330
3F94
330
3F95
330
3F96
330
3F97
330
3FE4
330
3FE6
330
3FE7
330
3FE8
330
3FE9
330
3FEA
330
3FEB
330
3FEC
330
3FED
330
3FEE
330
3FEF
330
3FF0
330
3FF1
330
3FF2
330
3FF3
330
3FF4
330
3FF5
330
3FF6
330
3FF7
330
3FF8
330
3FF9
330
3FFA
330
3FFB
330
3FFC
330
3FFD
330
3FFE
330
3FFF
330
4000
330
4001
330
4002
330
4003
330
4004
330
4005
330
4006
330
4007
330
4008
330
4009
330
400A
330
400B
330
400C
330
400D
330
400E
330
400F
330
4010
330
4011
330
4012
330
4013
330
4014
330
4015
330
4016
330
4017
330
4018
330
4019
330
401A
330
401B
330
401C
330
401D
330
401E
330
401F
330
4020
330
4021
330
4022
330
4023
330
4024
330
4025
330
4026
330
4027
330
4028
330
4029
330
402A
330
402B
330
402C
330
402D
330
402E
330
402F
330
4030
330
4031
330
4032
330
4033
330
4034
330
4035
330
4036
330
4037
330
4038
330
4039
330
403A
330
403B
330
403C
330
403D
330
403E
330
403F
330
4040
330
4041
330
4042
330
4043
330
4044
330
4045
330
4046
330
4047
330
4048
330
4049
330
404A
330
404B
330
404C
330
404D
330
404E
330
404F
330
4050
330
4051
330
4052
330
4053
330
4054
330
4055
330
4056
330
4057
330
4058
330
4059
330
405A
330
405B
330
405C
330
405D
330
405E
330
405F
330
4060
330
4061
330
4062
330
4063
330
4064
330
4065
330
4066
330
4067
330
4068
330
4069
330
406A
330
406B
330
406C
330
406D
330
406E
330
406F
330
4070
330
4071
330
4072
330
4073
330
4074
330
4075
330
4076
330
4077
330
4078
330
4079
330
407A
330
407B
330
407C
330
407D
330
4080
330
4081
330
4082
330
4083
330
4084
330
4089
330
408A
330
408B
330
408C
330
408D
330
408E
330
408F
330
4090
330
4095
330
409E
330
409F
330
40A6
330
40A7
330
40AE
330
40AF
330
40B5
330
40B6
330
40B8
330
40C1
330
40C5
330
40C9
330
40CD
330
40D1
330
40D5
330
40D9
330
40DD
330
40DE
330
40E4
330
40EA
330
40EB
330
40EC
330
40EF
330
40F0
330
40F6
330
40F7
330
40F8
330
40FE
330
40FF
330
4100
330
4101
330
4107
330
410D
330
410E
330
410F
330
4111
330
4112
330
4113
330
4114
330
4115
330
4116
330
4117
330
4118
330
4119
330
411B
330
411C
330
411D
330
4121
330
4125
330
412E
330
4133
330
4137
330
413B
330
413F
330
4148
330
414C
330
4150
330
4154
330
4158
330
415C
330
415D
330
4161
330
4162
330
4163
330
4164
330
4165
330
4166
330
4167
330
4168
330
4169
330
416D
330
416E
330
4170
330
4176
330
4177
330
4178
330
4179
330
417A
330
417B
330
417C
330
417D
330
417E
330
417F
330
4180
330
4181
330
4182
330
4183
330
4184
330
4185
330
4186
330
4187
330
4188
330
4189
330
418A
330
418B
330
418C
330
418D
330
418E
330
418F
330
4190
330
4191
330
4192
330
4193
330
4194
330
4195
330
4196
330
4197
330
4198
330
4199
330
419A
330
419B
330
419C
330
419F
330
41A0
330
41A1
330
41A2
330
41A3
330
41A4
330
41A5
330
41A6
330
41A7
330
41A8
330
41A9
330
41AA
330
41AB
330
41AC
330
41AD
330
41AE
330
41AF
330
41B0
330
41B1
330
41B2
330
41B3
330
41B4
330
41B5
330
41B6
330
41B7
330
41B8
330
41B9
330
41BA
330
41BB
330
41BC
330
41BD
330
41BE
330
41BF
330
41C0
330
41C1
330
41C2
330
41C3
330
41C4
330
41C5
330
41C6
330
41C7
330
41C8
330
41C9
330
41CA
330
41CB
330
41CC
330
41CD
330
41CE
330
41CF
330
41D0
330
41D1
330
41D2
330
41D3
330
41D4
330
41D5
330
41D6
330
41D9
330
41DA
330
41DB
330
41DC
330
41DD
330
41DE
330
41DF
330
41E0
330
41E4
330
41E5
330
41E6
330
41E7
330
41E8
330
41E9
330
41EA
330
41EB
330
41EC
330
41ED
330
41EE
330
41EF
330
41F0
330
41F1
330
41F2
330
41F3
330
41F4
330
41F5
330
41F6
330
41F7
  0
IDBUFFER
  5
5FFB
100
AcDbIdBuffer
330
5D99
330
5D9A
330
5D9B
330
5D9C
330
5D9D
330
5D9E
330
5D9F
330
5DA0
330
5DB1
330
5DB2
330
5DD0
330
5DD1
330
5DD2
330
5DD3
330
5DD4
330
5DD5
330
5DD6
330
5DD7
330
5DD8
330
5DD9
330
5DDA
330
5DDB
330
5DDC
330
5DDD
330
5DDE
330
5DDF
330
5DE0
330
5DE1
330
5DE2
330
5DE6
330
5DE7
330
5DE8
330
5D7F
330
5D83
330
5D84
330
5D85
330
5D86
330
5D87
330
5D88
330
5D89
330
5D8A
330
5D8B
330
5D8C
330
5D8D
330
5D8E
330
5D8F
330
5D90
330
5D91
  0
IDBUFFER
  5
5FFC
100
AcDbIdBuffer
330
3FCC
330
3FCE
330
3FD0
330
3FD2
330
3FD4
330
3FD5
330
3FD6
330
3FD7
330
3FD8
330
3FDA
330
3FDC
330
3FDE
330
3FE0
330
3FE2
330
407E
330
407F
330
4278
330
4279
330
42E4
330
42E5
330
4B50
330
4B51
330
4B52
330
4B53
330
4B54
330
4B55
330
4B56
330
4B57
330
4B5C
330
4B5D
330
3EED
330
3EF4
330
3F01
330
3F02
330
3F03
330
3F04
330
3F05
330
3F06
330
3F07
330
3F0B
330
3F0C
330
3F0D
330
3F67
330
3F7F
330
3FC8
330
3FCA
  0
IDBUFFER
  5
5FFD
100
AcDbIdBuffer
330
43A7
330
43A8
330
43A9
330
43AA
330
43AB
330
43AC
330
4B2F
330
5392
330
3F0E
330
3F0F
330
3F17
330
3F18
330
3F41
330
3F42
330
3F68
330
3F6B
330
3F8D
330
3F91
330
3FE5
330
4088
330
4094
330
409C
330
409D
330
40B7
330
40ED
330
40EE
330
4110
330
411A
330
4132
330
416F
330
419D
330
419E
330
41D7
330
41D8
330
41E1
330
41E2
330
4246
330
4276
330
4277
330
4285
330
4286
330
42BF
330
4308
330
4309
330
4323
330
4365
330
4366
330
4381
330
439F
330
43A0
330
43A1
330
43A2
330
43A3
330
43A4
330
43A5
330
43A6
  0
IDBUFFER
  5
5FFE
100
AcDbIdBuffer
330
5DEE
  0
IDBUFFER
  5
5FFF
100
AcDbIdBuffer
  0
IDBUFFER
  5
6000
100
AcDbIdBuffer
  0
ENDSEC
  0
EOF
