  0
SECTION
  2
HEADER
  9
$ACADVER
  1
AC1012
  9
$DWGCODEPAGE
  3
ansi_1252
  9
$INSBASE
 10
0.0
 20
0.001062
 30
0.0
  9
$EXTMIN
 10
-57.288763
 20
-203.498969
 30
0.0
  9
$EXTMAX
 10
396.015759
 20
247.01317
 30
0.0
  9
$LIMMIN
 10
0.0
 20
0.0
  9
$LIMMAX
 10
410.0
 20
287.0
  9
$ORTHOMODE
 70
     0
  9
$REGENMODE
 70
     1
  9
$FILLMODE
 70
     1
  9
$QTEXTMODE
 70
     0
  9
$MIRRTEXT
 70
     1
  9
$DRAGMODE
 70
     2
  9
$LTSCALE
 40
1.0
  9
$OSMODE
 70
    33
  9
$ATTMODE
 70
     1
  9
$TEXTSIZE
 40
3.5
  9
$TRACEWID
 40
0.05
  9
$TEXTSTYLE
  7
STANDARD
  9
$CLAYER
  8
MSL3_40_3F-0
  9
$CELTYPE
  6
BYLAYER
  9
$CECOLOR
 62
   256
  9
$CELTSCALE
 40
1.0
  9
$DELOBJ
 70
     1
  9
$DISPSILH
 70
     0
  9
$DIMSCALE
 40
1.0
  9
$DIMASZ
 40
2.5
  9
$DIMEXO
 40
1.0
  9
$DIMDLI
 40
10.0
  9
$DIMRND
 40
0.0
  9
$DIMDLE
 40
0.0
  9
$DIMEXE
 40
2.0
  9
$DIMTP
 40
0.1
  9
$DIMTM
 40
0.1
  9
$DIMTXT
 40
3.5
  9
$DIMCEN
 40
-2.0
  9
$DIMTSZ
 40
0.0
  9
$DIMTOL
 70
     0
  9
$DIMLIM
 70
     0
  9
$DIMTIH
 70
     0
  9
$DIMTOH
 70
     0
  9
$DIMSE1
 70
     0
  9
$DIMSE2
 70
     0
  9
$DIMTAD
 70
     1
  9
$DIMZIN
 70
     0
  9
$DIMBLK
  1

  9
$DIMASO
 70
     1
  9
$DIMSHO
 70
     1
  9
$DIMPOST
  1

  9
$DIMAPOST
  1

  9
$DIMALT
 70
     0
  9
$DIMALTD
 70
     2
  9
$DIMALTF
 40
25.4
  9
$DIMLFAC
 40
1.0
  9
$DIMTOFL
 70
     1
  9
$DIMTVP
 40
0.0
  9
$DIMTIX
 70
     0
  9
$DIMSOXD
 70
     0
  9
$DIMSAH
 70
     0
  9
$DIMBLK1
  1

  9
$DIMBLK2
  1

  9
$DIMSTYLE
  2
GEN-ISO
  9
$DIMCLRD
 70
     0
  9
$DIMCLRE
 70
     0
  9
$DIMCLRT
 70
     2
  9
$DIMTFAC
 40
1.0
  9
$DIMGAP
 40
1.5
  9
$DIMJUST
 70
     0
  9
$DIMSD1
 70
     0
  9
$DIMSD2
 70
     0
  9
$DIMTOLJ
 70
     0
  9
$DIMTZIN
 70
     8
  9
$DIMALTZ
 70
     8
  9
$DIMALTTZ
 70
     8
  9
$DIMFIT
 70
     3
  9
$DIMUPT
 70
     0
  9
$DIMUNIT
 70
     2
  9
$DIMDEC
 70
     2
  9
$DIMTDEC
 70
     5
  9
$DIMALTU
 70
     2
  9
$DIMALTTD
 70
     2
  9
$DIMTXSTY
  7
STANDARD
  9
$DIMAUNIT
 70
     0
  9
$LUNITS
 70
     2
  9
$LUPREC
 70
     2
  9
$SKETCHINC
 40
0.1
  9
$FILLETRAD
 40
12.5
  9
$AUNITS
 70
     0
  9
$AUPREC
 70
     0
  9
$MENU
  1
acad
  9
$ELEVATION
 40
0.0
  9
$PELEVATION
 40
0.0
  9
$THICKNESS
 40
0.0
  9
$LIMCHECK
 70
     0
  9
$BLIPMODE
 70
     0
  9
$CHAMFERA
 40
12.5
  9
$CHAMFERB
 40
12.5
  9
$CHAMFERC
 40
0.0
  9
$CHAMFERD
 40
0.0
  9
$SKPOLY
 70
     0
  9
$TDCREATE
 40
2450924.638941006
  9
$TDUPDATE
 40
2450925.693090115
  9
$TDINDWG
 40
0.3746878472
  9
$TDUSRTIMER
 40
0.3746878472
  9
$USRTIMER
 70
     1
  9
$ANGBASE
 50
0.0
  9
$ANGDIR
 70
     0
  9
$PDMODE
 70
     0
  9
$PDSIZE
 40
31.170602
  9
$PLINEWID
 40
0.0
  9
$COORDS
 70
     1
  9
$SPLFRAME
 70
     0
  9
$SPLINETYPE
 70
     6
  9
$SPLINESEGS
 70
     8
  9
$ATTDIA
 70
     1
  9
$ATTREQ
 70
     1
  9
$HANDLING
 70
     1
  9
$HANDSEED
  5
4918
  9
$SURFTAB1
 70
     6
  9
$SURFTAB2
 70
     6
  9
$SURFTYPE
 70
     6
  9
$SURFU
 70
     6
  9
$SURFV
 70
     6
  9
$UCSNAME
  2

  9
$UCSORG
 10
0.0
 20
0.0
 30
0.0
  9
$UCSXDIR
 10
1.0
 20
0.0
 30
0.0
  9
$UCSYDIR
 10
0.0
 20
1.0
 30
0.0
  9
$PUCSNAME
  2

  9
$PUCSORG
 10
0.0
 20
0.0
 30
0.0
  9
$PUCSXDIR
 10
1.0
 20
0.0
 30
0.0
  9
$PUCSYDIR
 10
0.0
 20
1.0
 30
0.0
  9
$USERI1
 70
     0
  9
$USERI2
 70
     0
  9
$USERI3
 70
     0
  9
$USERI4
 70
     0
  9
$USERI5
 70
     0
  9
$USERR1
 40
0.0
  9
$USERR2
 40
0.0
  9
$USERR3
 40
0.0
  9
$USERR4
 40
0.0
  9
$USERR5
 40
0.0
  9
$WORLDVIEW
 70
     1
  9
$SHADEDGE
 70
     3
  9
$SHADEDIF
 70
    70
  9
$TILEMODE
 70
     1
  9
$MAXACTVP
 70
    16
  9
$PINSBASE
 10
0.0
 20
0.0
 30
0.0
  9
$PLIMCHECK
 70
     0
  9
$PEXTMIN
 10
1.000000E+20
 20
1.000000E+20
 30
1.000000E+20
  9
$PEXTMAX
 10
-1.000000E+20
 20
-1.000000E+20
 30
-1.000000E+20
  9
$PLIMMIN
 10
0.0
 20
0.0
  9
$PLIMMAX
 10
12.0
 20
9.0
  9
$UNITMODE
 70
     0
  9
$VISRETAIN
 70
     0
  9
$PLINEGEN
 70
     0
  9
$PSLTSCALE
 70
     1
  9
$TREEDEPTH
 70
  3020
  9
$PICKSTYLE
 70
     1
  9
$CMLSTYLE
  2
STANDARD
  9
$CMLJUST
 70
     0
  9
$CMLSCALE
 40
1.0
  9
$SAVEIMAGES
 70
     0
  0
ENDSEC
  0
SECTION
  2
CLASSES
  0
ENDSEC
  0
SECTION
  2
TABLES
  0
TABLE
  2
VPORT
  5
12
100
AcDbSymbolTable
 70
    11
  0
VPORT
  5
4917
100
AcDbSymbolTableRecord
100
AcDbViewportTableRecord
  2
*ACTIVE
 70
     0
 10
0.0
 20
0.0
 11
1.0
 21
1.0
 12
311.410371
 22
21.757101
 13
0.0
 23
0.0
 14
5.0
 24
5.0
 15
50.0
 25
50.0
 16
0.0
 26
0.0
 36
1.0
 17
0.0
 27
0.0
 37
0.0
 40
563.140174
 41
1.6368
 42
50.0
 43
0.0
 44
0.0
 50
0.0
 51
0.0
 71
     0
 72
 10000
 73
     1
 74
     0
 75
     0
 76
     0
 77
     0
 78
     0
  0
ENDTAB
  0
TABLE
  2
LTYPE
  5
E
100
AcDbSymbolTable
 70
     6
  0
LTYPE
  5
F
100
AcDbSymbolTableRecord
100
AcDbLinetypeTableRecord
  2
BYBLOCK
 70
     0
  3

 72
    65
 73
     0
 40
0.0
  0
LTYPE
  5
6
100
AcDbSymbolTableRecord
100
AcDbLinetypeTableRecord
  2
BYLAYER
 70
     0
  3

 72
    65
 73
     0
 40
0.0
  0
LTYPE
  5
5
100
AcDbSymbolTableRecord
100
AcDbLinetypeTableRecord
  2
CONTINUOUS
 70
    64
  3
Solid line
 72
    65
 73
     0
 40
0.0
  0
LTYPE
  5
37
100
AcDbSymbolTableRecord
100
AcDbLinetypeTableRecord
  2
GEN3
 70
    64
  3
-- -- -- -- -- -- -- -- -- -- -- -- -- -- --
 72
    65
 73
     2
 40
6.25
 49
5.0
 74
     0
 49
-1.25
 74
     0
  0
LTYPE
  5
2E
100
AcDbSymbolTableRecord
100
AcDbLinetypeTableRecord
  2
GEN7A
 70
    64
  3
__ . __ . __
 72
    65
 73
     4
 40
7.5
 49
5.0
 74
     0
 49
-1.25
 74
     0
 49
0.0
 74
     0
 49
-1.25
 74
     0
  0
ENDTAB
  0
TABLE
  2
LAYER
  5
B
100
AcDbSymbolTable
 70
    34
  0
LAYER
  5
4
100
AcDbSymbolTableRecord
100
AcDbLayerTableRecord
  2
0
 70
    64
 62
     7
  6
CONTINUOUS
  0
LAYER
  5
1B
100
AcDbSymbolTableRecord
100
AcDbLayerTableRecord
  2
MSL3_40_3F-0
 70
    64
 62
     7
  6
CONTINUOUS
  0
LAYER
  5
36
100
AcDbSymbolTableRecord
100
AcDbLayerTableRecord
  2
MSL3_40_3F-3
 70
    64
 62
     6
  6
GEN3
  0
LAYER
  5
32
100
AcDbSymbolTableRecord
100
AcDbLayerTableRecord
  2
MSL3_40_3F-4
 70
    64
 62
     3
  6
CONTINUOUS
  0
LAYER
  5
2D
100
AcDbSymbolTableRecord
100
AcDbLayerTableRecord
  2
MSL3_40_3F-7
 70
    64
 62
     4
  6
GEN7A
  0
LAYER
  5
29
100
AcDbSymbolTableRecord
100
AcDbLayerTableRecord
  2
MSL3_40_3F-6
 70
    64
 62
     2
  6
CONTINUOUS
  0
LAYER
  5
323
100
AcDbSymbolTableRecord
100
AcDbLayerTableRecord
  2
INFO
 70
    64
 62
     4
  6
CONTINUOUS
  0
ENDTAB
  0
TABLE
  2
STYLE
  5
C
100
AcDbSymbolTable
 70
     2
  0
STYLE
  5
D
100
AcDbSymbolTableRecord
100
AcDbTextStyleTableRecord
  2
STANDARD
 70
    64
 40
0.0
 41
1.0
 50
0.0
 71
     0
 42
3.5
  3
geniso.shx
  4

  0
ENDTAB
  0
TABLE
  2
VIEW
  5
10
100
AcDbSymbolTable
 70
     0
  0
ENDTAB
  0
TABLE
  2
UCS
  5
11
100
AcDbSymbolTable
 70
     0
  0
ENDTAB
  0
TABLE
  2
APPID
  5
14
100
AcDbSymbolTable
 70
    45
  0
APPID
  5
15
100
AcDbSymbolTableRecord
100
AcDbRegAppTableRecord
  2
ACAD
 70
     0
  0
APPID
  5
369
100
AcDbSymbolTableRecord
100
AcDbRegAppTableRecord
  2
GENIUS_GENOENT_13
 70
     0
  0
APPID
  5
373
100
AcDbSymbolTableRecord
100
AcDbRegAppTableRecord
  2
GENIUS_GENINF13_13
 70
     0
  0
APPID
  5
368
100
AcDbSymbolTableRecord
100
AcDbRegAppTableRecord
  2
GENIUS_GENODEF_13
 70
     0
1001
GENIUS_GENOBJ_13
1070
     1
  0
APPID
  5
365
100
AcDbSymbolTableRecord
100
AcDbRegAppTableRecord
  2
GENIUS_GENOBJ-N-INFOPT_13
 70
     0
  0
APPID
  5
367
100
AcDbSymbolTableRecord
100
AcDbRegAppTableRecord
  2
GENIUS_GENOBJ_13
 70
     0
1001
GENIUS_GENODEF_13
1070
     1
1001
GENIUS_GENOENT_13
1070
     1
1001
GENIUS_GENOLIS_13
1070
     1
1001
GENIUS_GENOREF_13
1070
     1
1001
GENIUS_GENOBJ-N-RSSYM_13
1070
     1
1001
GENIUS_GENSYMENT_13
1070
     1
1001
GENIUS_GENOBJ-N-CRS_13
1070
     0
1001
GENIUS_GENOBJ-NBEHI-BHF_13
1070
     0
1001
GENIUS_GENOBJ-NBEHI-BHB_13
1070
     0
1001
GENIUS_GENBH_13
1070
     1
1001
GENIUS_GENOBJ-F-PART_13
1070
     0
1001
GENIUS_GEFSTDP_13
1070
     0
  0
APPID
  5
36A
100
AcDbSymbolTableRecord
100
AcDbRegAppTableRecord
  2
GENIUS_GENOLIS_13
 70
     0
1001
GENIUS_GENOBJ_13
1070
     1
  0
APPID
  5
36B
100
AcDbSymbolTableRecord
100
AcDbRegAppTableRecord
  2
GENIUS_GENOREF_13
 70
     0
1001
GENIUS_GENOBJ_13
1070
     1
  0
APPID
  5
36C
100
AcDbSymbolTableRecord
100
AcDbRegAppTableRecord
  2
GENIUS_GENOBJ-N-RSSYM_13
 70
     0
1001
GENIUS_GENOBJ_13
1070
     1
  0
APPID
  5
366
100
AcDbSymbolTableRecord
100
AcDbRegAppTableRecord
  2
GENIUS_GENSYMENT_13
 70
     0
1001
GENIUS_GENOBJ_13
1070
     1
  0
APPID
  5
364
100
AcDbSymbolTableRecord
100
AcDbRegAppTableRecord
  2
GENIUS_GENSCSYM_13
 70
     0
  0
APPID
  5
36D
100
AcDbSymbolTableRecord
100
AcDbRegAppTableRecord
  2
GENIUS_GENOBJ-N-CRS_13
 70
     0
1001
GENIUS_GENOBJ_13
1070
     0
  0
APPID
  5
370
100
AcDbSymbolTableRecord
100
AcDbRegAppTableRecord
  2
GENIUS_GENBH_13
 70
     0
1001
GENIUS_GENOBJ_13
1070
     1
  0
APPID
  5
36E
100
AcDbSymbolTableRecord
100
AcDbRegAppTableRecord
  2
GENIUS_GENOBJ-NBEHI-BHF_13
 70
     0
1001
GENIUS_GENOBJ_13
1070
     0
  0
APPID
  5
36F
100
AcDbSymbolTableRecord
100
AcDbRegAppTableRecord
  2
GENIUS_GENOBJ-NBEHI-BHB_13
 70
     0
1001
GENIUS_GENOBJ_13
1070
     0
  0
APPID
  5
371
100
AcDbSymbolTableRecord
100
AcDbRegAppTableRecord
  2
GENIUS_GENOBJ-F-PART_13
 70
     0
1001
GENIUS_GENOBJ_13
1070
     0
  0
APPID
  5
372
100
AcDbSymbolTableRecord
100
AcDbRegAppTableRecord
  2
GENIUS_GEFSTDP_13
 70
     0
1001
GENIUS_GENOBJ_13
1070
     0
  0
APPID
  5
3D4
100
AcDbSymbolTableRecord
100
AcDbRegAppTableRecord
  2
GENIUS_GENCFG_13
 70
     0
1001
GENIUS_GEFCFG0_13
1000
GEF
1001
GENIUS_GENCFG0_13
1000
GEN@INFO_POS@XLATE
1001
GENIUS_GENCFG1_13
1000
GEN@LAYER@DEFS
1001
GENIUS_GENCFG2_13
1000
GEN@LAYER@ENTSORT
1001
GENIUS_GENCFG3_13
1000
GEN@OSWIZ
1001
GENIUS_GENCFG4_13
1000
GEN
1001
GENIUS_GEVCFG0_13
1000
GEV
  0
APPID
  5
3D5
100
AcDbSymbolTableRecord
100
AcDbRegAppTableRecord
  2
GENIUS_GEFCFG0_13
 70
     0
1001
GENIUS_GENCFG_13
1071
893083894
1000
3D5
1000
GEF
1070
     5
1000
GenCfgObject
1000
GenCfgString
1000
GenCfgReal
1000
GenCfgShort
1000
GenCfgBool
1000
System
1070
     0
1002
{
1002
}
1000
Prese
1070
     0
1002
{
1000
Funk
1070
     1
1000

1002
{
1002
}
1000
FunkDef
1070
     1
1000

1002
{
1002
}
1000
GefIso
1070
     1
1000
DIN
1002
{
1002
}
1002
}
1000
FEM
1070
     0
1002
{
1000
LayGroup
1070
     1
1000
FEM
1002
{
1002
}
1000
IncrCoef
1070
     2
1040
0.0
1002
{
1002
}
1002
}
1000
Shaft
1070
     0
1002
{
1000
Interrupt
1070
     3
1070
     0
1002
{
1002
}
1002
}
1000
PartDb
1070
     0
1002
{
1000
PartCreate
1070
     0
1002
{
1002
}
1002
}
1000
Symbol
1070
     0
1002
{
1000
WeldStyle
1070
     1
1000
ISO
1002
{
1002
}
1000
WeldSize
1070
     2
1040
1.0
1002
{
1002
}
1000
WeldFlag
1070
     4
1070
     1
1002
{
1002
}
1000
WeldOffset
1070
     4
1070
     1
1002
{
1002
}
1000
TolCType
1070
     1
1000
ISO
1002
{
1002
}
1000
TolCSize
1070
     2
1040
1.0
1002
{
1002
}
1000
STextureSize
1070
     2
1040
1.0
1002
{
1002
}
1000
SurfaceType
1070
     1
1000

1002
{
1002
}
1000
M
1070
     0
1002
{
1000
WeldWidth
1070
     2
1040
3.0
1002
{
1002
}
1002
}
1000
I
1070
     0
1002
{
1000
WeldWidth
1070
     2
1040
0.125
1002
{
1002
}
1002
}
1002
}
  0
APPID
  5
3D6
100
AcDbSymbolTableRecord
100
AcDbRegAppTableRecord
  2
GENIUS_GENCFG0_13
 70
     0
1001
GENIUS_GENCFG_13
1071
893083894
1000
3D6
1000
GEN@INFO_POS@XLATE
1070
     7
1000
GenCfgObject
1000
GenCfgShort
1000
GenCfgReal
1000
GenCfgBool
1000
GenCfgString
1000
GenCfgDim
1000
GenCfgAttrInf
1000
INFOPOINTS
1070
     0
1002
{
1000
GENINF13
1070
     0
1002
{
1000
2GENINF
1070
     4
1000
2
1002
{
1002
}
1000
3GENINF
1070
     4
1000
3
1002
{
1002
}
1000
4GENINF
1070
     4
1000
4
1002
{
1002
}
1000
5GENINF
1070
     4
1000
5
1002
{
1002
}
1000
6GENINF
1070
     4
1000
6
1002
{
1002
}
1000
7GENINF
1070
     4
1000
7
1002
{
1002
}
1000
8GENINF
1070
     4
1000
8
1002
{
1002
}
1000
9GENINF
1070
     4
1000
9
1002
{
1002
}
1000
10GENINF
1070
     4
1000
10
1002
{
1002
}
1000
11GENINF
1070
     4
1000
11
1002
{
1002
}
1000
12GENINF
1070
     4
1000
12
1002
{
1002
}
1000
13GENINF
1070
     4
1000
13
1002
{
1002
}
1000
14GENINF
1070
     4
1000
14
1002
{
1002
}
1000
15GENINF
1070
     4
1000
15
1002
{
1002
}
1000
16GENINF
1070
     4
1000
16
1002
{
1002
}
1000
17GENINF
1070
     4
1000
17
1002
{
1002
}
1000
18GENINF
1070
     4
1000
18
1002
{
1002
}
1000
19GENINF
1070
     4
1000
19
1002
{
1002
}
1000
20GENINF
1070
     4
1000
20
1002
{
1002
}
1000
21GENINF
1070
     4
1000
21
1002
{
1002
}
1000
22GENINF
1070
     4
1000
22
1002
{
1002
}
1000
23GENINF
1070
     4
1000
23
1002
{
1002
}
1000
24GENINF
1070
     4
1000
24
1002
{
1002
}
1000
0GENINF
1070
     4
1000
0
1002
{
1002
}
1002
}
1000
GENINFO
1070
     0
1002
{
1000
3GENINF
1070
     4
1000
3
1002
{
1002
}
1000
4GENINF
1070
     4
1000
4
1002
{
1002
}
1000
5GENINF
1070
     4
1000
5
1002
{
1002
}
1000
6GENINF
1070
     4
1000
6
1002
{
1002
}
1000
7GENINF
1070
     4
1000
7
1002
{
1002
}
1000
8GENINF
1070
     4
1000
8
1002
{
1002
}
1000
9GENINF
1070
     4
1000
9
1002
{
1002
}
1000
10GENINF
1070
     4
1000
10
1002
{
1002
}
1000
11GENINF
1070
     4
1000
11
1002
{
1002
}
1000
12GENINF
1070
     4
1000
12
1002
{
1002
}
1000
13GENINF
1070
     4
1000
13
1002
{
1002
}
1000
14GENINF
1070
     4
1000
14
1002
{
1002
}
1000
15GENINF
1070
     4
1000
15
1002
{
1002
}
1000
16GENINF
1070
     4
1000
16
1002
{
1002
}
1000
17GENINF
1070
     4
1000
17
1002
{
1002
}
1000
18GENINF
1070
     4
1000
18
1002
{
1002
}
1000
19GENINF
1070
     4
1000
19
1002
{
1002
}
1000
20GENINF
1070
     4
1000
20
1002
{
1002
}
1000
21GENINF
1070
     4
1000
21
1002
{
1002
}
1000
22GENINF
1070
     4
1000
22
1002
{
1002
}
1002
}
1000
DININFO
1070
     0
1002
{
1000
ST-NAME1
1070
     4
1000
5
1002
{
1002
}
1000
ST-NAME2
1070
     4
1000
6
1002
{
1002
}
1000
ST-NORM1
1070
     4
1000
7
1002
{
1002
}
1000
ST-NORM2
1070
     4
1000
8
1002
{
1002
}
1000
ST-MAT1
1070
     4
1000
9
1002
{
1002
}
1000
ST-MAT2
1070
     4
1000
10
1002
{
1002
}
1002
}
1002
}
1000
POS_NUMBERS
1070
     0
1002
{
1000
GENPOS13
1070
     0
1002
{
1000
1GENPOS
1070
     4
1000
1
1002
{
1002
}
1000
2GENPOS
1070
     4
1000
2
1002
{
1002
}
1000
3GENPOS
1070
     4
1000
3
1002
{
1002
}
1000
4GENPOS
1070
     4
1000
4
1002
{
1002
}
1000
5GENPOS
1070
     4
1000
5
1002
{
1002
}
1000
6GENPOS
1070
     4
1000
6
1002
{
1002
}
1000
7GENPOS
1070
     4
1000
7
1002
{
1002
}
1000
8GENPOS
1070
     4
1000
8
1002
{
1002
}
1000
9GENPOS
1070
     4
1000
9
1002
{
1002
}
1000
10GENPOS
1070
     4
1000
10
1002
{
1002
}
1000
11GENPOS
1070
     4
1000
11
1002
{
1002
}
1000
12GENPOS
1070
     4
1000
12
1002
{
1002
}
1000
13GENPOS
1070
     4
1000
13
1002
{
1002
}
1000
14GENPOS
1070
     4
1000
14
1002
{
1002
}
1000
15GENPOS
1070
     4
1000
15
1002
{
1002
}
1000
16GENPOS
1070
     4
1000
16
1002
{
1002
}
1000
17GENPOS
1070
     4
1000
17
1002
{
1002
}
1000
18GENPOS
1070
     4
1000
18
1002
{
1002
}
1000
19GENPOS
1070
     4
1000
19
1002
{
1002
}
1000
20GENPOS
1070
     4
1000
20
1002
{
1002
}
1000
21GENPOS
1070
     4
1000
21
1002
{
1002
}
1000
22GENPOS
1070
     4
1000
22
1002
{
1002
}
1000
23GENPOS
1070
     4
1000
23
1002
{
1002
}
1000
24GENPOS
1070
     4
1000
24
1002
{
1002
}
1000
0GENPOS
1070
     4
1000
0
1002
{
1002
}
1002
}
1000
GENPOS
1070
     0
1002
{
1000
1GENPOS
1070
     4
1000
1
1002
{
1002
}
1000
2GENPOS
1070
     4
1000
2
1002
{
1002
}
1000
3GENPOS
1070
     4
1000
3
1002
{
1002
}
1000
4GENPOS
1070
     4
1000
4
1002
{
1002
}
1000
5GENPOS
1070
     4
1000
5
1002
{
1002
}
1000
6GENPOS
1070
     4
1000
6
1002
{
1002
}
1000
7GENPOS
1070
     4
1000
7
1002
{
1002
}
1000
8GENPOS
1070
     4
1000
8
1002
{
1002
}
1000
9GENPOS
1070
     4
1000
9
1002
{
1002
}
1000
10GENPOS
1070
     4
1000
10
1002
{
1002
}
1000
11GENPOS
1070
     4
1000
11
1002
{
1002
}
1000
12GENPOS
1070
     4
1000
12
1002
{
1002
}
1000
13GENPOS
1070
     4
1000
13
1002
{
1002
}
1000
14GENPOS
1070
     4
1000
14
1002
{
1002
}
1000
15GENPOS
1070
     4
1000
15
1002
{
1002
}
1000
16GENPOS
1070
     4
1000
16
1002
{
1002
}
1000
17GENPOS
1070
     4
1000
17
1002
{
1002
}
1000
18GENPOS
1070
     4
1000
18
1002
{
1002
}
1000
19GENPOS
1070
     4
1000
19
1002
{
1002
}
1000
20GENPOS
1070
     4
1000
20
1002
{
1002
}
1000
21GENPOS
1070
     4
1000
21
1002
{
1002
}
1000
22GENPOS
1070
     4
1000
22
1002
{
1002
}
1000
23GENPOS
1070
     4
1000
23
1002
{
1002
}
1002
}
1000
DIN985
1070
     0
1002
{
1000
POSITION
1070
     4
1000
1
1002
{
1002
}
1000
MENGE
1070
     4
1000
2
1002
{
1002
}
1000
BLATT
1070
     4
1000
3
1002
{
1002
}
1000
BENENN
1070
     4
1000
5
1002
{
1002
}
1000
BENENN2
1070
     4
1000
6
1002
{
1002
}
1000
NORM
1070
     4
1000
7
1002
{
1002
}
1000
NORM2
1070
     4
1000
8
1002
{
1002
}
1000
WERKSTOFF
1070
     4
1000
9
1002
{
1002
}
1000
WERKSTOFF2
1070
     4
1000
10
1002
{
1002
}
1002
}
1000
DIN986
1070
     0
1002
{
1000
POSITION
1070
     4
1000
1
1002
{
1002
}
1000
MENGE
1070
     4
1000
2
1002
{
1002
}
1000
BLATT
1070
     4
1000
3
1002
{
1002
}
1000
BENENN
1070
     4
1000
5
1002
{
1002
}
1000
BENENN2
1070
     4
1000
6
1002
{
1002
}
1000
NORM
1070
     4
1000
7
1002
{
1002
}
1000
NORM2
1070
     4
1000
8
1002
{
1002
}
1000
WERKSTOFF
1070
     4
1000
9
1002
{
1002
}
1000
WERKSTOFF2
1070
     4
1000
10
1002
{
1002
}
1002
}
1000
DIN987
1070
     0
1002
{
1000
POSITION
1070
     4
1000
1
1002
{
1002
}
1000
MENGE
1070
     4
1000
2
1002
{
1002
}
1000
BLATT
1070
     4
1000
3
1002
{
1002
}
1000
BENENN
1070
     4
1000
5
1002
{
1002
}
1000
BENENN2
1070
     4
1000
6
1002
{
1002
}
1000
NORM
1070
     4
1000
7
1002
{
1002
}
1000
NORM2
1070
     4
1000
8
1002
{
1002
}
1000
WERKSTOFF
1070
     4
1000
9
1002
{
1002
}
1000
WERKSTOFF2
1070
     4
1000
10
1002
{
1002
}
1002
}
1002
}
  0
APPID
  5
3D7
100
AcDbSymbolTableRecord
100
AcDbRegAppTableRecord
  2
GENIUS_GENCFG1_13
 70
     0
1001
GENIUS_GENCFG_13
1071
893083894
1000
3D7
1000
GEN@LAYER@DEFS
1070
     9
1000
GenCfgObject
1000
GenCfgShort
1000
GenCfgReal
1000
GenCfgBool
1000
GenCfgString
1000
GenCfgDim
1000
GenCfgAttrInf
1000
GenCfgLaySection
1000
GenCfgLayer
1000
Basic
1070
     0
1002
{
1000
0
1070
     8
1000
0
1002
{
1000
Color
1070
     1
1070
     7
1002
{
1002
}
1000
LType
1070
     4
1000
CONTINUOUS
1002
{
1002
}
1000
Base
1070
     3
1070
     0
1002
{
1002
}
1002
}
1000
1
1070
     8
1000
1
1002
{
1000
Color
1070
     1
1070
    14
1002
{
1002
}
1000
LType
1070
     4
1000
CONTINUOUS
1002
{
1002
}
1000
Base
1070
     3
1070
     0
1002
{
1002
}
1002
}
1000
2
1070
     8
1000
2
1002
{
1000
Color
1070
     1
1070
     5
1002
{
1002
}
1000
LType
1070
     4
1000
CONTINUOUS
1002
{
1002
}
1000
Base
1070
     3
1070
     0
1002
{
1002
}
1002
}
1000
3
1070
     8
1000
3
1002
{
1000
Color
1070
     1
1070
     6
1002
{
1002
}
1000
LType
1070
     4
1000
GEN3
1002
{
1002
}
1000
Base
1070
     3
1070
     0
1002
{
1002
}
1002
}
1000
4
1070
     8
1000
4
1002
{
1000
Color
1070
     1
1070
     3
1002
{
1002
}
1000
LType
1070
     4
1000
CONTINUOUS
1002
{
1002
}
1000
Base
1070
     3
1070
     0
1002
{
1002
}
1002
}
1000
5
1070
     8
1000
5
1002
{
1000
Color
1070
     1
1070
     3
1002
{
1002
}
1000
LType
1070
     4
1000
CONTINUOUS
1002
{
1002
}
1000
Base
1070
     3
1070
     0
1002
{
1002
}
1002
}
1000
6
1070
     8
1000
6
1002
{
1000
Color
1070
     1
1070
     2
1002
{
1002
}
1000
LType
1070
     4
1000
CONTINUOUS
1002
{
1002
}
1000
Base
1070
     3
1070
     0
1002
{
1002
}
1002
}
1000
7
1070
     8
1000
7
1002
{
1000
Color
1070
     1
1070
     4
1002
{
1002
}
1000
LType
1070
     4
1000
GEN7
1002
{
1002
}
1000
Base
1070
     3
1070
     0
1002
{
1002
}
1002
}
1000
8
1070
     8
1000
8
1002
{
1000
Color
1070
     1
1070
     1
1002
{
1002
}
1000
LType
1070
     4
1000
CONTINUOUS
1002
{
1002
}
1000
Base
1070
     3
1070
     0
1002
{
1002
}
1002
}
1000
3A
1070
     8
1000
3A
1002
{
1000
Color
1070
     1
1070
     6
1002
{
1002
}
1000
LType
1070
     4
1000
GEN3A
1002
{
1002
}
1000
Base
1070
     3
1070
     0
1002
{
1002
}
1002
}
1000
7A
1070
     8
1000
7A
1002
{
1000
Color
1070
     1
1070
     4
1002
{
1002
}
1000
LType
1070
     4
1000
GEN7A
1002
{
1002
}
1000
Base
1070
     3
1070
     0
1002
{
1002
}
1002
}
1000
2A
1070
     8
1000
2A
1002
{
1000
Color
1070
     1
1070
     7
1002
{
1002
}
1000
LType
1070
     4
1000
GEN7
1002
{
1002
}
1000
Base
1070
     3
1070
     0
1002
{
1002
}
1002
}
1000
4A
1070
     8
1000
4A
1002
{
1000
Color
1070
     1
1070
     3
1002
{
1002
}
1000
LType
1070
     4
1000
GEN4A
1002
{
1002
}
1000
Base
1070
     3
1070
     0
1002
{
1002
}
1002
}
1000
9
1070
     8
1000
9
1002
{
1000
Color
1070
     1
1070
   253
1002
{
1002
}
1000
LType
1070
     4
1000
CONTINUOUS
1002
{
1002
}
1000
Base
1070
     3
1070
     0
1002
{
1002
}
1002
}
1002
}
1000
Standard
1070
     0
1002
{
1000
0N
1070
     8
1000
0N
1002
{
1000
Color
1070
     1
1070
     7
1002
{
1002
}
1000
LType
1070
     4
1000
CONTINUOUS
1002
{
1002
}
1000
Base
1070
     3
1070
     0
1002
{
1002
}
1002
}
1000
1N
1070
     8
1000
1N
1002
{
1000
Color
1070
     1
1070
    14
1002
{
1002
}
1000
LType
1070
     4
1000
CONTINUOUS
1002
{
1002
}
1000
Base
1070
     3
1070
     0
1002
{
1002
}
1002
}
1000
2N
1070
     8
1000
2N
1002
{
1000
Color
1070
     1
1070
     5
1002
{
1002
}
1000
LType
1070
     4
1000
CONTINUOUS
1002
{
1002
}
1000
Base
1070
     3
1070
     0
1002
{
1002
}
1002
}
1000
3N
1070
     8
1000
3N
1002
{
1000
Color
1070
     1
1070
     6
1002
{
1002
}
1000
LType
1070
     4
1000
GEN3
1002
{
1002
}
1000
Base
1070
     3
1070
     0
1002
{
1002
}
1002
}
1000
4N
1070
     8
1000
4N
1002
{
1000
Color
1070
     1
1070
     3
1002
{
1002
}
1000
LType
1070
     4
1000
CONTINUOUS
1002
{
1002
}
1000
Base
1070
     3
1070
     0
1002
{
1002
}
1002
}
1000
5N
1070
     8
1000
5N
1002
{
1000
Color
1070
     1
1070
     3
1002
{
1002
}
1000
LType
1070
     4
1000
CONTINUOUS
1002
{
1002
}
1000
Base
1070
     3
1070
     0
1002
{
1002
}
1002
}
1000
6N
1070
     8
1000
6N
1002
{
1000
Color
1070
     1
1070
     2
1002
{
1002
}
1000
LType
1070
     4
1000
CONTINUOUS
1002
{
1002
}
1000
Base
1070
     3
1070
     0
1002
{
1002
}
1002
}
1000
7N
1070
     8
1000
7N
1002
{
1000
Color
1070
     1
1070
     4
1002
{
1002
}
1000
LType
1070
     4
1000
GEN7
1002
{
1002
}
1000
Base
1070
     3
1070
     0
1002
{
1002
}
1002
}
1000
8N
1070
     8
1000
8N
1002
{
1000
Color
1070
     1
1070
     1
1002
{
1002
}
1000
LType
1070
     4
1000
CONTINUOUS
1002
{
1002
}
1000
Base
1070
     3
1070
     0
1002
{
1002
}
1002
}
1000
3AN
1070
     8
1000
3AN
1002
{
1000
Color
1070
     1
1070
     6
1002
{
1002
}
1000
LType
1070
     4
1000
GEN3A
1002
{
1002
}
1000
Base
1070
     3
1070
     0
1002
{
1002
}
1002
}
1000
7AN
1070
     8
1000
7AN
1002
{
1000
Color
1070
     1
1070
     4
1002
{
1002
}
1000
LType
1070
     4
1000
GEN7A
1002
{
1002
}
1000
Base
1070
     3
1070
     0
1002
{
1002
}
1002
}
1000
2AN
1070
     8
1000
2AN
1002
{
1000
Color
1070
     1
1070
     7
1002
{
1002
}
1000
LType
1070
     4
1000
GEN7
1002
{
1002
}
1000
Base
1070
     3
1070
     0
1002
{
1002
}
1002
}
1000
4AN
1070
     8
1000
4AN
1002
{
1000
Color
1070
     1
1070
     3
1002
{
1002
}
1000
LType
1070
     4
1000
GEN4A
1002
{
1002
}
1000
Base
1070
     3
1070
     0
1002
{
1002
}
1002
}
1000
9N
1070
     8
1000
9N
1002
{
1000
Color
1070
     1
1070
   253
1002
{
1002
}
1000
LType
1070
     4
1000
CONTINUOUS
1002
{
1002
}
1000
Base
1070
     3
1070
     0
1002
{
1002
}
1002
}
1002
}
1000
Extra
1070
     0
1002
{
1000
Klin
1070
     8
1000
KLIN
1002
{
1000
Color
1070
     1
1070
     1
1002
{
1002
}
1000
LType
1070
     4
1000
CONTINUOUS
1002
{
1002
}
1000
Base
1070
     3
1070
     1
1002
{
1002
}
1002
}
1000
Info
1070
     8
1000
INFO
1002
{
1000
Color
1070
     1
1070
     4
1002
{
1002
}
1000
LType
1070
     4
1000
CONTINUOUS
1002
{
1002
}
1000
Base
1070
     3
1070
     1
1002
{
1002
}
1002
}
1000
Rahm2
1070
     8
1000
RAHM2
1002
{
1000
Color
1070
     1
1070
     1
1002
{
1002
}
1000
LType
1070
     4
1000
CONTINUOUS
1002
{
1002
}
1000
Base
1070
     3
1070
     1
1002
{
1002
}
1002
}
1000
Rahm3
1070
     8
1000
RAHM3
1002
{
1000
Color
1070
     1
1070
     2
1002
{
1002
}
1000
LType
1070
     4
1000
CONTINUOUS
1002
{
1002
}
1000
Base
1070
     3
1070
     1
1002
{
1002
}
1002
}
1000
Rahm5
1070
     8
1000
RAHM5
1002
{
1000
Color
1070
     1
1070
     7
1002
{
1002
}
1000
LType
1070
     4
1000
CONTINUOUS
1002
{
1002
}
1000
Base
1070
     3
1070
     1
1002
{
1002
}
1002
}
1000
View
1070
     8
1000
VIEW
1002
{
1000
Color
1070
     1
1070
     1
1002
{
1002
}
1000
LType
1070
     4
1000
CONTINUOUS
1002
{
1002
}
1000
Base
1070
     3
1070
     1
1002
{
1002
}
1002
}
1000
Behind
1070
     8
1000
BEHIND
1002
{
1000
Color
1070
     1
1070
   253
1002
{
1002
}
1000
LType
1070
     4
1000
CONTINUOUS
1002
{
1002
}
1000
Base
1070
     3
1070
     1
1002
{
1002
}
1002
}
1002
}
  0
APPID
  5
3D8
100
AcDbSymbolTableRecord
100
AcDbRegAppTableRecord
  2
GENIUS_GENCFG2_13
 70
     0
1001
GENIUS_GENCFG_13
1071
893083894
1000
3D8
1000
GEN@LAYER@ENTSORT
1070
    10
1000
GenCfgObject
1000
GenCfgShort
1000
GenCfgReal
1000
GenCfgBool
1000
GenCfgString
1000
GenCfgDim
1000
GenCfgAttrInf
1000
GenCfgLaySection
1000
GenCfgLayer
1000
GenCfgEntSort
1000
ALTR
1070
     9
1000
4
1002
{
1000
Class
1070
     4
1000

1002
{
1002
}
1000
Color
1070
     1
1070
     7
1002
{
1002
}
1000
LType
1070
     4
1000
GEN3A
1002
{
1002
}
1002
}
1000
BELI
1070
     9
1000
4
1002
{
1000
Class
1070
     4
1000

1002
{
1002
}
1000
Color
1070
     1
1070
   256
1002
{
1002
}
1000
LType
1070
     4
1000
BYLAYER
1002
{
1002
}
1002
}
1000
BHNV
1070
     9
1000
9
1002
{
1000
Class
1070
     4
1000
INV
1002
{
1002
}
1000
Color
1070
     1
1070
   256
1002
{
1002
}
1000
LType
1070
     4
1000
BYLAYER
1002
{
1002
}
1002
}
1000
BHNVS
1070
     9
1000
BEHIND
1002
{
1000
Class
1070
     4
1000
INV
1002
{
1002
}
1000
Color
1070
     1
1070
   256
1002
{
1002
}
1000
LType
1070
     4
1000
BYLAYER
1002
{
1002
}
1002
}
1000
BLID
1070
     9
1000
4A
1002
{
1000
Class
1070
     4
1000

1002
{
1002
}
1000
Color
1070
     1
1070
   256
1002
{
1002
}
1000
LType
1070
     4
1000
BYLAYER
1002
{
1002
}
1002
}
1000
BOAP
1070
     9
1000
4A
1002
{
1000
Class
1070
     4
1000

1002
{
1002
}
1000
Color
1070
     1
1070
   256
1002
{
1002
}
1000
LType
1070
     4
1000
BYLAYER
1002
{
1002
}
1002
}
1000
BOR2
1070
     9
1000
RAHM2
1002
{
1000
Class
1070
     4
1000
SPZ,SYM
1002
{
1002
}
1000
Color
1070
     1
1070
   256
1002
{
1002
}
1000
LType
1070
     4
1000
BYLAYER
1002
{
1002
}
1002
}
1000
BOR3
1070
     9
1000
RAHM3
1002
{
1000
Class
1070
     4
1000
SPZ,SYM
1002
{
1002
}
1000
Color
1070
     1
1070
   256
1002
{
1002
}
1000
LType
1070
     4
1000
BYLAYER
1002
{
1002
}
1002
}
1000
BOR5
1070
     9
1000
RAHM5
1002
{
1000
Class
1070
     4
1000
SPZ,SYM
1002
{
1002
}
1000
Color
1070
     1
1070
   256
1002
{
1002
}
1000
LType
1070
     4
1000
BYLAYER
1002
{
1002
}
1002
}
1000
BOR7
1070
     9
1000
RAHM5
1002
{
1000
Class
1070
     4
1000
SPZ,SYM
1002
{
1002
}
1000
Color
1070
     1
1070
     7
1002
{
1002
}
1000
LType
1070
     4
1000
CONTINUOUS
1002
{
1002
}
1002
}
1000
BPAP
1070
     9
1000
4A
1002
{
1000
Class
1070
     4
1000

1002
{
1002
}
1000
Color
1070
     1
1070
   256
1002
{
1002
}
1000
LType
1070
     4
1000
BYLAYER
1002
{
1002
}
1002
}
1000
BPEX
1070
     9
1000
4A
1002
{
1000
Class
1070
     4
1000

1002
{
1002
}
1000
Color
1070
     1
1070
   256
1002
{
1002
}
1000
LType
1070
     4
1000
BYLAYER
1002
{
1002
}
1002
}
1000
BTDI
1070
     9
1000
5
1002
{
1000
Class
1070
     4
1000
DIM,SYM
1002
{
1002
}
1000
Color
1070
     1
1070
   256
1002
{
1002
}
1000
LType
1070
     4
1000
BYLAYER
1002
{
1002
}
1002
}
1000
CAL2
1070
     9
1000
4
1002
{
1000
Class
1070
     4
1000
SYM
1002
{
1002
}
1000
Color
1070
     1
1070
   256
1002
{
1002
}
1000
LType
1070
     4
1000
BYLAYER
1002
{
1002
}
1002
}
1000
CAL3
1070
     9
1000
4
1002
{
1000
Class
1070
     4
1000
SYM
1002
{
1002
}
1000
Color
1070
     1
1070
     2
1002
{
1002
}
1000
LType
1070
     4
1000
BYLAYER
1002
{
1002
}
1002
}
1000
CAL5
1070
     9
1000
4
1002
{
1000
Class
1070
     4
1000
SYM
1002
{
1002
}
1000
Color
1070
     1
1070
     7
1002
{
1002
}
1000
LType
1070
     4
1000
BYLAYER
1002
{
1002
}
1002
}
1000
CAL7
1070
     9
1000
4
1002
{
1000
Class
1070
     4
1000
SYM
1002
{
1002
}
1000
Color
1070
     1
1070
     5
1002
{
1002
}
1000
LType
1070
     4
1000
BYLAYER
1002
{
1002
}
1002
}
1000
CENN
1070
     9
1000
7A
1002
{
1000
Class
1070
     4
1000
CEN
1002
{
1002
}
1000
Color
1070
     1
1070
   256
1002
{
1002
}
1000
LType
1070
     4
1000
BYLAYER
1002
{
1002
}
1002
}
1000
CENW
1070
     9
1000
7
1002
{
1000
Class
1070
     4
1000
CEN
1002
{
1002
}
1000
Color
1070
     1
1070
   256
1002
{
1002
}
1000
LType
1070
     4
1000
BYLAYER
1002
{
1002
}
1002
}
1000
CLIN
1070
     9
1000
KLIN
1002
{
1000
Class
1070
     4
1000
SPZ
1002
{
1002
}
1000
Color
1070
     1
1070
   256
1002
{
1002
}
1000
LType
1070
     4
1000
BYLAYER
1002
{
1002
}
1002
}
1000
CON1
1070
     9
1000
0
1002
{
1000
Class
1070
     4
1000
CON,BGD
1002
{
1002
}
1000
Color
1070
     1
1070
   256
1002
{
1002
}
1000
LType
1070
     4
1000
BYLAYER
1002
{
1002
}
1002
}
1000
CON2
1070
     9
1000
1
1002
{
1000
Class
1070
     4
1000
CON,BGD
1002
{
1002
}
1000
Color
1070
     1
1070
   256
1002
{
1002
}
1000
LType
1070
     4
1000
BYLAYER
1002
{
1002
}
1002
}
1000
CON3
1070
     9
1000
2
1002
{
1000
Class
1070
     4
1000
CON,BGD
1002
{
1002
}
1000
Color
1070
     1
1070
   256
1002
{
1002
}
1000
LType
1070
     4
1000
BYLAYER
1002
{
1002
}
1002
}
1000
CON4
1070
     9
1000
2
1002
{
1000
Class
1070
     4
1000
CON,BGD
1002
{
1002
}
1000
Color
1070
     1
1070
   256
1002
{
1002
}
1000
LType
1070
     4
1000
BYLAYER
1002
{
1002
}
1002
}
1000
DERP
1070
     9
1000
4
1002
{
1000
Class
1070
     4
1000

1002
{
1002
}
1000
Color
1070
     1
1070
   256
1002
{
1002
}
1000
LType
1070
     4
1000
BYLAYER
1002
{
1002
}
1002
}
1000
DETA
1070
     9
1000
4
1002
{
1000
Class
1070
     4
1000

1002
{
1002
}
1000
Color
1070
     1
1070
   256
1002
{
1002
}
1000
LType
1070
     4
1000
BYLAYER
1002
{
1002
}
1002
}
1000
DIAG
1070
     9
1000
5
1002
{
1000
Class
1070
     4
1000
SYM
1002
{
1002
}
1000
Color
1070
     1
1070
   256
1002
{
1002
}
1000
LType
1070
     4
1000
BYLAYER
1002
{
1002
}
1002
}
1000
DILI
1070
     9
1000
5
1002
{
1000
Class
1070
     4
1000
DIM,SYM
1002
{
1002
}
1000
Color
1070
     1
1070
   256
1002
{
1002
}
1000
LType
1070
     4
1000
BYLAYER
1002
{
1002
}
1002
}
1000
DITX
1070
     9
1000
5
1002
{
1000
Class
1070
     4
1000
DIM,SYM
1002
{
1002
}
1000
Color
1070
     1
1070
     2
1002
{
1002
}
1000
LType
1070
     4
1000
CONTINUOUS
1002
{
1002
}
1002
}
1000
DITO2
1070
     9
1000
5
1002
{
1000
Class
1070
     4
1000
DIM,SYM
1002
{
1002
}
1000
Color
1070
     1
1070
     3
1002
{
1002
}
1000
LType
1070
     4
1000
BYLAYER
1002
{
1002
}
1002
}
1000
DITO3
1070
     9
1000
5
1002
{
1000
Class
1070
     4
1000
DIM,SYM
1002
{
1002
}
1000
Color
1070
     1
1070
     2
1002
{
1002
}
1000
LType
1070
     4
1000
BYLAYER
1002
{
1002
}
1002
}
1000
DIXL
1070
     9
1000
5
1002
{
1000
Class
1070
     4
1000
DIM,SYM
1002
{
1002
}
1000
Color
1070
     1
1070
   256
1002
{
1002
}
1000
LType
1070
     4
1000
BYLAYER
1002
{
1002
}
1002
}
1000
EXMP
1070
     9
1000
4A
1002
{
1000
Class
1070
     4
1000

1002
{
1002
}
1000
Color
1070
     1
1070
   256
1002
{
1002
}
1000
LType
1070
     4
1000
BYLAYER
1002
{
1002
}
1002
}
1000
FEMN
1070
     9
1000
8
1002
{
1000
Class
1070
     4
1000

1002
{
1002
}
1000
Color
1070
     1
1070
   256
1002
{
1002
}
1000
LType
1070
     4
1000
BYLAYER
1002
{
1002
}
1002
}
1000
FEMPN
1070
     9
1000
8
1002
{
1000
Class
1070
     4
1000
SYM
1002
{
1002
}
1000
Color
1070
     1
1070
     3
1002
{
1002
}
1000
LType
1070
     4
1000
BYLAYER
1002
{
1002
}
1002
}
1000
FEMSP
1070
     9
1000
4A
1002
{
1000
Class
1070
     4
1000

1002
{
1002
}
1000
Color
1070
     1
1070
   256
1002
{
1002
}
1000
LType
1070
     4
1000
CONTINUOUS
1002
{
1002
}
1002
}
1000
FEMST
1070
     9
1000
4A
1002
{
1000
Class
1070
     4
1000
SYM
1002
{
1002
}
1000
Color
1070
     1
1070
     3
1002
{
1002
}
1000
LType
1070
     4
1000
BYLAYER
1002
{
1002
}
1002
}
1000
FEMVN
1070
     9
1000
2
1002
{
1000
Class
1070
     4
1000
CON
1002
{
1002
}
1000
Color
1070
     1
1070
   256
1002
{
1002
}
1000
LType
1070
     4
1000
BYLAYER
1002
{
1002
}
1002
}
1000
FEMVT
1070
     9
1000
2
1002
{
1000
Class
1070
     4
1000
SYM
1002
{
1002
}
1000
Color
1070
     1
1070
     3
1002
{
1002
}
1000
LType
1070
     4
1000
BYLAYER
1002
{
1002
}
1002
}
1000
FLAT
1070
     9
1000
0
1002
{
1000
Class
1070
     4
1000

1002
{
1002
}
1000
Color
1070
     1
1070
   256
1002
{
1002
}
1000
LType
1070
     4
1000
BYLAYER
1002
{
1002
}
1002
}
1000
FRAR
1070
     9
1000
4A
1002
{
1000
Class
1070
     4
1000

1002
{
1002
}
1000
Color
1070
     1
1070
   256
1002
{
1002
}
1000
LType
1070
     4
1000
BYLAYER
1002
{
1002
}
1002
}
1000
GRLI
1070
     9
1000
5
1002
{
1000
Class
1070
     4
1000
SYM
1002
{
1002
}
1000
Color
1070
     1
1070
   256
1002
{
1002
}
1000
LType
1070
     4
1000
BYLAYER
1002
{
1002
}
1002
}
1000
GVLI
1070
     9
1000
4A
1002
{
1000
Class
1070
     4
1000

1002
{
1002
}
1000
Color
1070
     1
1070
   256
1002
{
1002
}
1000
LType
1070
     4
1000
BYLAYER
1002
{
1002
}
1002
}
1000
HATC
1070
     9
1000
8
1002
{
1000
Class
1070
     4
1000
HTC,BGD
1002
{
1002
}
1000
Color
1070
     1
1070
   256
1002
{
1002
}
1000
LType
1070
     4
1000
BYLAYER
1002
{
1002
}
1002
}
1000
HIDN
1070
     9
1000
3A
1002
{
1000
Class
1070
     4
1000
HID,BGD
1002
{
1002
}
1000
Color
1070
     1
1070
   256
1002
{
1002
}
1000
LType
1070
     4
1000
BYLAYER
1002
{
1002
}
1002
}
1000
HIDW
1070
     9
1000
3
1002
{
1000
Class
1070
     4
1000
HID,BGD
1002
{
1002
}
1000
Color
1070
     1
1070
   256
1002
{
1002
}
1000
LType
1070
     4
1000
BYLAYER
1002
{
1002
}
1002
}
1000
HLIN
1070
     9
1000
4
1002
{
1000
Class
1070
     4
1000
BGD
1002
{
1002
}
1000
Color
1070
     1
1070
   256
1002
{
1002
}
1000
LType
1070
     4
1000
BYLAYER
1002
{
1002
}
1002
}
1000
HOCN
1070
     9
1000
7A
1002
{
1000
Class
1070
     4
1000
CEN
1002
{
1002
}
1000
Color
1070
     1
1070
   256
1002
{
1002
}
1000
LType
1070
     4
1000
BYLAYER
1002
{
1002
}
1002
}
1000
HOCW
1070
     9
1000
7
1002
{
1000
Class
1070
     4
1000
CEN
1002
{
1002
}
1000
Color
1070
     1
1070
   256
1002
{
1002
}
1000
LType
1070
     4
1000
BYLAYER
1002
{
1002
}
1002
}
1000
INFO
1070
     9
1000
INFO
1002
{
1000
Class
1070
     4
1000
SPZ,SYM
1002
{
1002
}
1000
Color
1070
     1
1070
   256
1002
{
1002
}
1000
LType
1070
     4
1000
BYLAYER
1002
{
1002
}
1002
}
1000
LADI
1070
     9
1000
4
1002
{
1000
Class
1070
     4
1000
BGD
1002
{
1002
}
1000
Color
1070
     1
1070
   256
1002
{
1002
}
1000
LType
1070
     4
1000
BYLAYER
1002
{
1002
}
1002
}
1000
LEAD
1070
     9
1000
5
1002
{
1000
Class
1070
     4
1000
SYM
1002
{
1002
}
1000
Color
1070
     1
1070
   256
1002
{
1002
}
1000
LType
1070
     4
1000
BYLAYER
1002
{
1002
}
1002
}
1000
N_BHNV
1070
     9
1000
9N
1002
{
1000
Class
1070
     4
1000
INV
1002
{
1002
}
1000
Color
1070
     1
1070
   256
1002
{
1002
}
1000
LType
1070
     4
1000
BYLAYER
1002
{
1002
}
1002
}
1000
N_CON1
1070
     9
1000
0N
1002
{
1000
Class
1070
     4
1000
CON,BGD
1002
{
1002
}
1000
Color
1070
     1
1070
   256
1002
{
1002
}
1000
LType
1070
     4
1000
BYLAYER
1002
{
1002
}
1002
}
1000
N_CON2
1070
     9
1000
1N
1002
{
1000
Class
1070
     4
1000
CON,BGD
1002
{
1002
}
1000
Color
1070
     1
1070
   256
1002
{
1002
}
1000
LType
1070
     4
1000
BYLAYER
1002
{
1002
}
1002
}
1000
N_CON3
1070
     9
1000
2N
1002
{
1000
Class
1070
     4
1000
CON,BGD
1002
{
1002
}
1000
Color
1070
     1
1070
   256
1002
{
1002
}
1000
LType
1070
     4
1000
BYLAYER
1002
{
1002
}
1002
}
1000
N_CON4
1070
     9
1000
2N
1002
{
1000
Class
1070
     4
1000
CON,BGD
1002
{
1002
}
1000
Color
1070
     1
1070
   256
1002
{
1002
}
1000
LType
1070
     4
1000
BYLAYER
1002
{
1002
}
1002
}
1000
N_CENN
1070
     9
1000
7AN
1002
{
1000
Class
1070
     4
1000
CEN
1002
{
1002
}
1000
Color
1070
     1
1070
   256
1002
{
1002
}
1000
LType
1070
     4
1000
BYLAYER
1002
{
1002
}
1002
}
1000
N_CENW
1070
     9
1000
7N
1002
{
1000
Class
1070
     4
1000
CEN
1002
{
1002
}
1000
Color
1070
     1
1070
   256
1002
{
1002
}
1000
LType
1070
     4
1000
BYLAYER
1002
{
1002
}
1002
}
1000
N_DILI
1070
     9
1000
5N
1002
{
1000
Class
1070
     4
1000
DIM,SYM
1002
{
1002
}
1000
Color
1070
     1
1070
   256
1002
{
1002
}
1000
LType
1070
     4
1000
BYLAYER
1002
{
1002
}
1002
}
1000
N_DITX
1070
     9
1000
5N
1002
{
1000
Class
1070
     4
1000
DIM,SYM
1002
{
1002
}
1000
Color
1070
     1
1070
     2
1002
{
1002
}
1000
LType
1070
     4
1000
CONTINUOUS
1002
{
1002
}
1002
}
1000
N_DIXL
1070
     9
1000
5N
1002
{
1000
Class
1070
     4
1000
DIM,SYM
1002
{
1002
}
1000
Color
1070
     1
1070
   256
1002
{
1002
}
1000
LType
1070
     4
1000
BYLAYER
1002
{
1002
}
1002
}
1000
N_HATC
1070
     9
1000
8N
1002
{
1000
Class
1070
     4
1000
HTC,BGD
1002
{
1002
}
1000
Color
1070
     1
1070
   256
1002
{
1002
}
1000
LType
1070
     4
1000
BYLAYER
1002
{
1002
}
1002
}
1000
N_HIDN
1070
     9
1000
3AN
1002
{
1000
Class
1070
     4
1000
HID,BGD
1002
{
1002
}
1000
Color
1070
     1
1070
   256
1002
{
1002
}
1000
LType
1070
     4
1000
BYLAYER
1002
{
1002
}
1002
}
1000
N_HIDW
1070
     9
1000
3N
1002
{
1000
Class
1070
     4
1000
HID,BGD
1002
{
1002
}
1000
Color
1070
     1
1070
   256
1002
{
1002
}
1000
LType
1070
     4
1000
BYLAYER
1002
{
1002
}
1002
}
1000
N_PHAN
1070
     9
1000
4AN
1002
{
1000
Class
1070
     4
1000

1002
{
1002
}
1000
Color
1070
     1
1070
   256
1002
{
1002
}
1000
LType
1070
     4
1000
BYLAYER
1002
{
1002
}
1002
}
1000
N_POSL
1070
     9
1000
5N
1002
{
1000
Class
1070
     4
1000
SYM
1002
{
1002
}
1000
Color
1070
     1
1070
   256
1002
{
1002
}
1000
LType
1070
     4
1000
BYLAYER
1002
{
1002
}
1002
}
1000
N_TCON
1070
     9
1000
0N
1002
{
1000
Class
1070
     4
1000
CON,BGD
1002
{
1002
}
1000
Color
1070
     1
1070
   256
1002
{
1002
}
1000
LType
1070
     4
1000
BYLAYER
1002
{
1002
}
1002
}
1000
N_THLI
1070
     9
1000
4N
1002
{
1000
Class
1070
     4
1000
BGD
1002
{
1002
}
1000
Color
1070
     1
1070
   256
1002
{
1002
}
1000
LType
1070
     4
1000
BYLAYER
1002
{
1002
}
1002
}
1000
N_TLEN
1070
     9
1000
0N
1002
{
1000
Class
1070
     4
1000
CON,BGD
1002
{
1002
}
1000
Color
1070
     1
1070
   256
1002
{
1002
}
1000
LType
1070
     4
1000
BYLAYER
1002
{
1002
}
1002
}
1000
N_TXT3
1070
     9
1000
6N
1002
{
1000
Class
1070
     4
1000
SYM
1002
{
1002
}
1000
Color
1070
     1
1070
   256
1002
{
1002
}
1000
LType
1070
     4
1000
BYLAYER
1002
{
1002
}
1002
}
1000
N_VPLI
1070
     9
1000
2AN
1002
{
1000
Class
1070
     4
1000

1002
{
1002
}
1000
Color
1070
     1
1070
   256
1002
{
1002
}
1000
LType
1070
     4
1000
BYLAYER
1002
{
1002
}
1002
}
1000
PAL2
1070
     9
1000
RAHM2
1002
{
1000
Class
1070
     4
1000
SPZ,SYM
1002
{
1002
}
1000
Color
1070
     1
1070
   256
1002
{
1002
}
1000
LType
1070
     4
1000
BYLAYER
1002
{
1002
}
1002
}
1000
PAL3
1070
     9
1000
RAHM3
1002
{
1000
Class
1070
     4
1000
SPZ,SYM
1002
{
1002
}
1000
Color
1070
     1
1070
   256
1002
{
1002
}
1000
LType
1070
     4
1000
BYLAYER
1002
{
1002
}
1002
}
1000
PAL5
1070
     9
1000
RAHM5
1002
{
1000
Class
1070
     4
1000
SPZ,SYM
1002
{
1002
}
1000
Color
1070
     1
1070
   256
1002
{
1002
}
1000
LType
1070
     4
1000
BYLAYER
1002
{
1002
}
1002
}
1000
PAL7
1070
     9
1000
RAHM5
1002
{
1000
Class
1070
     4
1000
SPZ,SYM
1002
{
1002
}
1000
Color
1070
     1
1070
     7
1002
{
1002
}
1000
LType
1070
     4
1000
CONTINUOUS
1002
{
1002
}
1002
}
1000
PHAN
1070
     9
1000
4A
1002
{
1000
Class
1070
     4
1000

1002
{
1002
}
1000
Color
1070
     1
1070
   256
1002
{
1002
}
1000
LType
1070
     4
1000
BYLAYER
1002
{
1002
}
1002
}
1000
POSL
1070
     9
1000
5
1002
{
1000
Class
1070
     4
1000
SYM
1002
{
1002
}
1000
Color
1070
     1
1070
   256
1002
{
1002
}
1000
LType
1070
     4
1000
BYLAYER
1002
{
1002
}
1002
}
1000
POSN
1070
     9
1000
6
1002
{
1000
Class
1070
     4
1000
SYM
1002
{
1002
}
1000
Color
1070
     1
1070
     7
1002
{
1002
}
1000
LType
1070
     4
1000
BYLAYER
1002
{
1002
}
1002
}
1000
POSREF
1070
     9
1000
6
1002
{
1000
Class
1070
     4
1000
SYM
1002
{
1002
}
1000
Color
1070
     1
1070
     5
1002
{
1002
}
1000
LType
1070
     4
1000
BYLAYER
1002
{
1002
}
1002
}
1000
POSX
1070
     9
1000
5
1002
{
1000
Class
1070
     4
1000
SYM
1002
{
1002
}
1000
Color
1070
     1
1070
     2
1002
{
1002
}
1000
LType
1070
     4
1000
CONTINUOUS
1002
{
1002
}
1002
}
1000
PSEC
1070
     9
1000
4A
1002
{
1000
Class
1070
     4
1000

1002
{
1002
}
1000
Color
1070
     1
1070
   256
1002
{
1002
}
1000
LType
1070
     4
1000
BYLAYER
1002
{
1002
}
1002
}
1000
RCGN
1070
     9
1000
7A
1002
{
1000
Class
1070
     4
1000
CEN
1002
{
1002
}
1000
Color
1070
     1
1070
   256
1002
{
1002
}
1000
LType
1070
     4
1000
BYLAYER
1002
{
1002
}
1002
}
1000
RCGW
1070
     9
1000
7
1002
{
1000
Class
1070
     4
1000
CEN
1002
{
1002
}
1000
Color
1070
     1
1070
   256
1002
{
1002
}
1000
LType
1070
     4
1000
BYLAYER
1002
{
1002
}
1002
}
1000
RFDI
1070
     9
1000
4
1002
{
1000
Class
1070
     4
1000
BGD
1002
{
1002
}
1000
Color
1070
     1
1070
   256
1002
{
1002
}
1000
LType
1070
     4
1000
BYLAYER
1002
{
1002
}
1002
}
1000
RQTR
1070
     9
1000
4
1002
{
1000
Class
1070
     4
1000

1002
{
1002
}
1000
Color
1070
     1
1070
     7
1002
{
1002
}
1000
LType
1070
     4
1000
GEN7A
1002
{
1002
}
1002
}
1000
RSBO
1070
     9
1000
4
1002
{
1000
Class
1070
     4
1000
BGD
1002
{
1002
}
1000
Color
1070
     1
1070
   256
1002
{
1002
}
1000
LType
1070
     4
1000
BYLAYER
1002
{
1002
}
1002
}
1000
SBRK
1070
     9
1000
4
1002
{
1000
Class
1070
     4
1000
BGD
1002
{
1002
}
1000
Color
1070
     1
1070
   256
1002
{
1002
}
1000
LType
1070
     4
1000
BYLAYER
1002
{
1002
}
1002
}
1000
SCEN
1070
     9
1000
7
1002
{
1000
Class
1070
     4
1000

1002
{
1002
}
1000
Color
1070
     1
1070
   256
1002
{
1002
}
1000
LType
1070
     4
1000
CONTINUOUS
1002
{
1002
}
1002
}
1000
SECT
1070
     9
1000
4
1002
{
1000
Class
1070
     4
1000
BGD
1002
{
1002
}
1000
Color
1070
     1
1070
   256
1002
{
1002
}
1000
LType
1070
     4
1000
BYLAYER
1002
{
1002
}
1002
}
1000
SELN
1070
     9
1000
7A
1002
{
1000
Class
1070
     4
1000

1002
{
1002
}
1000
Color
1070
     1
1070
   256
1002
{
1002
}
1000
LType
1070
     4
1000
BYLAYER
1002
{
1002
}
1002
}
1000
SELW
1070
     9
1000
7
1002
{
1000
Class
1070
     4
1000

1002
{
1002
}
1000
Color
1070
     1
1070
   256
1002
{
1002
}
1000
LType
1070
     4
1000
BYLAYER
1002
{
1002
}
1002
}
1000
SSYS
1070
     9
1000
0
1002
{
1000
Class
1070
     4
1000

1002
{
1002
}
1000
Color
1070
     1
1070
   256
1002
{
1002
}
1000
LType
1070
     4
1000
BYLAYER
1002
{
1002
}
1002
}
1000
STLI
1070
     9
1000
4
1002
{
1000
Class
1070
     4
1000

1002
{
1002
}
1000
Color
1070
     1
1070
     7
1002
{
1002
}
1000
LType
1070
     4
1000
GEN3A
1002
{
1002
}
1002
}
1000
SYB1
1070
     9
1000
5
1002
{
1000
Class
1070
     4
1000
SYM
1002
{
1002
}
1000
Color
1070
     1
1070
   256
1002
{
1002
}
1000
LType
1070
     4
1000
BYLAYER
1002
{
1002
}
1002
}
1000
SYB2
1070
     9
1000
5
1002
{
1000
Class
1070
     4
1000
SYM
1002
{
1002
}
1000
Color
1070
     1
1070
   256
1002
{
1002
}
1000
LType
1070
     4
1000
BYLAYER
1002
{
1002
}
1002
}
1000
SYB3
1070
     9
1000
6
1002
{
1000
Class
1070
     4
1000
SYM
1002
{
1002
}
1000
Color
1070
     1
1070
   256
1002
{
1002
}
1000
LType
1070
     4
1000
CONTINUOUS
1002
{
1002
}
1002
}
1000
SYB5
1070
     9
1000
5
1002
{
1000
Class
1070
     4
1000
SYM
1002
{
1002
}
1000
Color
1070
     1
1070
     7
1002
{
1002
}
1000
LType
1070
     4
1000
BYLAYER
1002
{
1002
}
1002
}
1000
SYMN
1070
     9
1000
7A
1002
{
1000
Class
1070
     4
1000
CEN
1002
{
1002
}
1000
Color
1070
     1
1070
   256
1002
{
1002
}
1000
LType
1070
     4
1000
BYLAYER
1002
{
1002
}
1002
}
1000
SYMW
1070
     9
1000
7
1002
{
1000
Class
1070
     4
1000
CEN
1002
{
1002
}
1000
Color
1070
     1
1070
   256
1002
{
1002
}
1000
LType
1070
     4
1000
BYLAYER
1002
{
1002
}
1002
}
1000
TCON
1070
     9
1000
0
1002
{
1000
Class
1070
     4
1000
CON,BGD
1002
{
1002
}
1000
Color
1070
     1
1070
   256
1002
{
1002
}
1000
LType
1070
     4
1000
BYLAYER
1002
{
1002
}
1002
}
1000
THLI
1070
     9
1000
4
1002
{
1000
Class
1070
     4
1000
BGD
1002
{
1002
}
1000
Color
1070
     1
1070
   256
1002
{
1002
}
1000
LType
1070
     4
1000
BYLAYER
1002
{
1002
}
1002
}
1000
TIT2
1070
     9
1000
RAHM2
1002
{
1000
Class
1070
     4
1000
SPZ,SYM
1002
{
1002
}
1000
Color
1070
     1
1070
   256
1002
{
1002
}
1000
LType
1070
     4
1000
BYLAYER
1002
{
1002
}
1002
}
1000
TIT3
1070
     9
1000
RAHM3
1002
{
1000
Class
1070
     4
1000
SPZ,SYM
1002
{
1002
}
1000
Color
1070
     1
1070
   256
1002
{
1002
}
1000
LType
1070
     4
1000
BYLAYER
1002
{
1002
}
1002
}
1000
TIT5
1070
     9
1000
RAHM5
1002
{
1000
Class
1070
     4
1000
SPZ,SYM
1002
{
1002
}
1000
Color
1070
     1
1070
   256
1002
{
1002
}
1000
LType
1070
     4
1000
BYLAYER
1002
{
1002
}
1002
}
1000
TIT7
1070
     9
1000
RAHM5
1002
{
1000
Class
1070
     4
1000
SPZ,SYM
1002
{
1002
}
1000
Color
1070
     1
1070
     7
1002
{
1002
}
1000
LType
1070
     4
1000
CONTINUOUS
1002
{
1002
}
1002
}
1000
TLEN
1070
     9
1000
0
1002
{
1000
Class
1070
     4
1000
CON,BGD
1002
{
1002
}
1000
Color
1070
     1
1070
   256
1002
{
1002
}
1000
LType
1070
     4
1000
BYLAYER
1002
{
1002
}
1002
}
1000
TRKN
1070
     9
1000
7A
1002
{
1000
Class
1070
     4
1000

1002
{
1002
}
1000
Color
1070
     1
1070
   256
1002
{
1002
}
1000
LType
1070
     4
1000
BYLAYER
1002
{
1002
}
1002
}
1000
TRKW
1070
     9
1000
7
1002
{
1000
Class
1070
     4
1000

1002
{
1002
}
1000
Color
1070
     1
1070
   256
1002
{
1002
}
1000
LType
1070
     4
1000
BYLAYER
1002
{
1002
}
1002
}
1000
TRLI
1070
     9
1000
4
1002
{
1000
Class
1070
     4
1000
BGD
1002
{
1002
}
1000
Color
1070
     1
1070
   256
1002
{
1002
}
1000
LType
1070
     4
1000
BYLAYER
1002
{
1002
}
1002
}
1000
TXT1
1070
     9
1000
6
1002
{
1000
Class
1070
     4
1000
SYM
1002
{
1002
}
1000
Color
1070
     1
1070
     2
1002
{
1002
}
1000
LType
1070
     4
1000
BYLAYER
1002
{
1002
}
1002
}
1000
TXT2
1070
     9
1000
6
1002
{
1000
Class
1070
     4
1000
SYM
1002
{
1002
}
1000
Color
1070
     1
1070
     2
1002
{
1002
}
1000
LType
1070
     4
1000
BYLAYER
1002
{
1002
}
1002
}
1000
TXT3
1070
     9
1000
6
1002
{
1000
Class
1070
     4
1000
SYM
1002
{
1002
}
1000
Color
1070
     1
1070
   256
1002
{
1002
}
1000
LType
1070
     4
1000
BYLAYER
1002
{
1002
}
1002
}
1000
TXT5
1070
     9
1000
6
1002
{
1000
Class
1070
     4
1000
SYM
1002
{
1002
}
1000
Color
1070
     1
1070
     7
1002
{
1002
}
1000
LType
1070
     4
1000
BYLAYER
1002
{
1002
}
1002
}
1000
TXT7
1070
     9
1000
6
1002
{
1000
Class
1070
     4
1000
SYM
1002
{
1002
}
1000
Color
1070
     1
1070
     7
1002
{
1002
}
1000
LType
1070
     4
1000
BYLAYER
1002
{
1002
}
1002
}
1000
VIEW
1070
     9
1000
VIEW
1002
{
1000
Class
1070
     4
1000
SPZ
1002
{
1002
}
1000
Color
1070
     1
1070
   256
1002
{
1002
}
1000
LType
1070
     4
1000
BYLAYER
1002
{
1002
}
1002
}
1000
VPLI
1070
     9
1000
2A
1002
{
1000
Class
1070
     4
1000

1002
{
1002
}
1000
Color
1070
     1
1070
   256
1002
{
1002
}
1000
LType
1070
     4
1000
BYLAYER
1002
{
1002
}
1002
}
1000
ZIZA
1070
     9
1000
4
1002
{
1000
Class
1070
     4
1000
BGD
1002
{
1002
}
1000
Color
1070
     1
1070
   256
1002
{
1002
}
1000
LType
1070
     4
1000
GENZIGZAG
1002
{
1002
}
1002
}
  0
APPID
  5
3D9
100
AcDbSymbolTableRecord
100
AcDbRegAppTableRecord
  2
GENIUS_GENCFG3_13
 70
     0
1001
GENIUS_GENCFG_13
1071
893083894
1000
3D9
1000
GEN@OSWIZ
1070
    12
1000
GenCfgObject
1000
GenCfgShort
1000
GenCfgReal
1000
GenCfgBool
1000
GenCfgString
1000
GenCfgDim
1000
GenCfgAttrInf
1000
GenCfgLaySection
1000
GenCfgLayer
1000
GenCfgEntSort
1000
GenCfgLType
1000
GenCfgFilter
1000
AngleStep
1070
     0
1002
{
1000
M
1070
     2
1040
10.0
1002
{
1002
}
1000
I
1070
     2
1040
0.4
1002
{
1002
}
1002
}
1000
AngleIncr
1070
     2
1040
45.0
1002
{
1002
}
1000
Filter
1070
     0
1002
{
1000
HATCH
1070
    11
1002
{
1000
EntityType
1070
     4
1000
LINE
1002
{
1002
}
1000
Layer
1070
     4
1000
8,8N,*-8,*-8N
1002
{
1002
}
1000
Linetype
1070
     4
1000
*
1002
{
1002
}
1000
Color
1070
     4
1000
*
1002
{
1002
}
1002
}
1000
SYMBOLS
1070
    11
1002
{
1000
EntityType
1070
     4
1000
*
1002
{
1002
}
1000
Layer
1070
     4
1000
[5-6],[5-6]N,*-[5-6],*-[5-6]N
1002
{
1002
}
1000
Linetype
1070
     4
1000
*
1002
{
1002
}
1000
Color
1070
     4
1000
*
1002
{
1002
}
1002
}
1000
FEM
1070
    11
1002
{
1000
EntityType
1070
     4
1000
*
1002
{
1002
}
1000
Layer
1070
     4
1000
4A,4AN,*-4A,*-4AN
1002
{
1002
}
1000
Linetype
1070
     4
1000
*
1002
{
1002
}
1000
Color
1070
     4
1000
*
1002
{
1002
}
1002
}
1002
}
1000
IconSize
1070
     2
1040
1.0
1002
{
1002
}
1000
SnapColor
1070
     1
1070
     3
1002
{
1002
}
  0
APPID
  5
3DA
100
AcDbSymbolTableRecord
100
AcDbRegAppTableRecord
  2
GENIUS_GENCFG4_13
 70
     0
1001
GENIUS_GENCFG_13
1071
893169482
1000
3DA
1000
GEN
1070
     9
1000
GenCfgObject
1000
GenCfgShort
1000
GenCfgReal
1000
GenCfgBool
1000
GenCfgString
1000
GenCfgDim
1000
GenCfgAttrInf
1000
GenCfgLaySection
1000
GenCfgLType
1000
Balloon
1070
     0
1002
{
1000
GenIF
1070
     1
1070
     0
1002
{
1002
}
1000
GenPosInc
1070
     1
1070
    10
1002
{
1002
}
1000
GenPosBlk
1070
     1
1070
     8
1002
{
1002
}
1000
GenPosVar
1070
     1
1070
     2
1002
{
1002
}
1000
GenZiCir
1070
     2
1040
1.5
1002
{
1002
}
1000
MaxCharForCenteredText
1070
     1
1070
    30
1002
{
1002
}
1000
Snap
1070
     0
1002
{
1000
ActivationRadius
1070
     2
1040
1.0
1002
{
1002
}
1000
M
1070
     0
1002
{
1000
SnapStepX
1070
     2
1040
20.0
1002
{
1002
}
1000
SnapStepY
1070
     2
1040
10.0
1002
{
1002
}
1002
}
1000
I
1070
     0
1002
{
1000
SnapStepX
1070
     2
1040
1.0
1002
{
1002
}
1000
SnapStepY
1070
     2
1040
0.5
1002
{
1002
}
1002
}
1002
}
1002
}
1000
Centerline
1070
     0
1002
{
1000
ScaleNot
1070
     3
1070
     1
1002
{
1002
}
1000
M
1070
     0
1002
{
1000
GenCenAng
1070
     4
1000
45|90|135
1002
{
1002
}
1000
GenCenDia
1070
     2
1040
10.0
1002
{
1002
}
1000
GenCenDias
1070
     4
1000
10|20|30
1002
{
1002
}
1000
GenCenDist
1070
     2
1040
3.0
1002
{
1002
}
1000
GenCenLen
1070
     2
1040
10.0
1002
{
1002
}
1000
GenCenOff
1070
     2
1040
10.0
1002
{
1002
}
1002
}
1000
I
1070
     0
1002
{
1000
GenCenAng
1070
     4
1000
45|90|135
1002
{
1002
}
1000
GenCenDia
1070
     2
1040
0.5
1002
{
1002
}
1000
GenCenDias
1070
     4
1000
0.5|1.0|1.5
1002
{
1002
}
1000
GenCenDist
1070
     2
1040
0.125
1002
{
1002
}
1000
GenCenLen
1070
     2
1040
0.5
1002
{
1002
}
1000
GenCenOff
1070
     2
1040
0.5
1002
{
1002
}
1002
}
1002
}
1000
CLine
1070
     0
1002
{
1000
CAngArray
1070
     4
1000
30|45|60
1002
{
1002
}
1000
Typ
1070
     4
1000
XLINE
1002
{
1002
}
1000
M
1070
     0
1002
{
1000
CLinArray
1070
     4
1000
9.5
1002
{
1002
}
1002
}
1000
I
1070
     0
1002
{
1000
CLinArray
1070
     4
1000
0.125|0.25|0.5
1002
{
1002
}
1002
}
1002
}
1000
Constraints
1070
     0
1002
{
1000
Color
1070
     0
1002
{
1000
Active_Frame
1070
     1
1070
     2
1002
{
1002
}
1000
Inactive_Frame
1070
     1
1070
     8
1002
{
1002
}
1002
}
1000
Debug
1070
     0
1002
{
1002
}
1000
Editor
1070
     0
1002
{
1002
}
1000
Frame
1070
     0
1002
{
1002
}
1000
Sys
1070
     0
1002
{
1002
}
1002
}
1000
Detail
1070
     0
1002
{
1002
}
1000
Dimension
1070
     5
1002
{
1000
DIMALT
1070
     1
1070
     0
1002
{
1002
}
1000
DIMALTD
1070
     1
1070
     2
1002
{
1002
}
1000
DIMALTTD
1070
     1
1070
     4
1002
{
1002
}
1000
DIMALTTZ
1070
     1
1070
     0
1002
{
1002
}
1000
DIMALTU
1070
     1
1070
     2
1002
{
1002
}
1000
DIMALTZ
1070
     1
1070
     0
1002
{
1002
}
1000
DIMAPOST
1070
     4
1000

1002
{
1002
}
1000
DIMAUNIT
1070
     1
1070
     0
1002
{
1002
}
1000
DIMBLK
1070
     4
1000

1002
{
1002
}
1000
DIMBLK1
1070
     4
1000

1002
{
1002
}
1000
DIMBLK2
1070
     4
1000

1002
{
1002
}
1000
DIMDLE
1070
     2
1040
0.0
1002
{
1002
}
1000
DIMFIT
1070
     1
1070
     3
1002
{
1002
}
1000
DIMJUST
1070
     1
1070
     0
1002
{
1002
}
1000
DIMLFAC
1070
     2
1040
1.0
1002
{
1002
}
1000
DIMLIM
1070
     1
1070
     0
1002
{
1002
}
1000
DIMPOST
1070
     4
1000
<>
1002
{
1002
}
1000
DIMRND
1070
     2
1040
0.0
1002
{
1002
}
1000
DIMSAH
1070
     1
1070
     0
1002
{
1002
}
1000
DIMSCALE
1070
     2
1040
1.0
1002
{
1002
}
1000
DIMSD1
1070
     1
1070
     0
1002
{
1002
}
1000
DIMSD2
1070
     1
1070
     0
1002
{
1002
}
1000
DIMSE1
1070
     1
1070
     0
1002
{
1002
}
1000
DIMSE2
1070
     1
1070
     0
1002
{
1002
}
1000
DIMSOXD
1070
     1
1070
     0
1002
{
1002
}
1000
DIMTAD
1070
     1
1070
     0
1002
{
1002
}
1000
DIMTFAC
1070
     2
1040
0.71
1002
{
1002
}
1000
DIMTIH
1070
     1
1070
     0
1002
{
1002
}
1000
DIMTIX
1070
     1
1070
     0
1002
{
1002
}
1000
DIMTM
1070
     2
1040
0.1
1002
{
1002
}
1000
DIMTOFL
1070
     1
1070
     0
1002
{
1002
}
1000
DIMTOH
1070
     1
1070
     0
1002
{
1002
}
1000
DIMTOL
1070
     1
1070
     0
1002
{
1002
}
1000
DIMTOLJ
1070
     1
1070
     1
1002
{
1002
}
1000
DIMTP
1070
     2
1040
0.1
1002
{
1002
}
1000
DIMTSZ
1070
     2
1040
0.0
1002
{
1002
}
1000
DIMTVP
1070
     2
1040
0.0
1002
{
1002
}
1000
DIMTXSTY
1070
     4
1000
STANDARD
1002
{
1002
}
1000
DIMTZIN
1070
     1
1070
     0
1002
{
1002
}
1000
DIMUNIT
1070
     1
1070
     2
1002
{
1002
}
1000
DIMUPT
1070
     1
1070
     0
1002
{
1002
}
1000
M
1070
     0
1002
{
1000
DIMALTF
1070
     2
1040
0.03937
1002
{
1002
}
1000
DIMASZ
1070
     2
1040
2.5
1002
{
1002
}
1000
DIMCEN
1070
     2
1040
0.0
1002
{
1002
}
1000
DIMDEC
1070
     1
1070
     2
1002
{
1002
}
1000
DIMDLI
1070
     2
1040
7.0
1002
{
1002
}
1000
DIMEXE
1070
     2
1040
1.0
1002
{
1002
}
1000
DIMEXO
1070
     2
1040
1.0
1002
{
1002
}
1000
DIMGAP
1070
     2
1040
0.6
1002
{
1002
}
1000
DIMTDEC
1070
     1
1070
     3
1002
{
1002
}
1000
DIMTXT
1070
     2
1040
3.5
1002
{
1002
}
1000
DIMZIN
1070
     1
1070
     8
1002
{
1002
}
1002
}
1000
I
1070
     0
1002
{
1000
DIMALTF
1070
     2
1040
25.4
1002
{
1002
}
1000
DIMASZ
1070
     2
1040
0.1
1002
{
1002
}
1000
DIMCEN
1070
     2
1040
0.0
1002
{
1002
}
1000
DIMDEC
1070
     1
1070
     4
1002
{
1002
}
1000
DIMDLI
1070
     2
1040
0.5
1002
{
1002
}
1000
DIMEXE
1070
     2
1040
0.1
1002
{
1002
}
1000
DIMEXO
1070
     2
1040
0.05
1002
{
1002
}
1000
DIMGAP
1070
     2
1040
0.06
1002
{
1002
}
1000
DIMTDEC
1070
     1
1070
     4
1002
{
1002
}
1000
DIMTXT
1070
     2
1040
0.12
1002
{
1002
}
1000
DIMZIN
1070
     1
1070
     7
1002
{
1002
}
1002
}
1000
GEN-ISO
1070
     5
1002
{
1000
NAME
1070
     4
1000
GEN-ISO
1002
{
1002
}
1000
DIMTAD
1070
     1
1070
     1
1002
{
1002
}
1000
DIMTOLJ
1070
     1
1070
     0
1002
{
1002
}
1000
DIMTOFL
1070
     1
1070
     1
1002
{
1002
}
1000
M
1070
     0
1002
{
1002
}
1000
I
1070
     0
1002
{
1002
}
1002
}
1000
GEN-ISO-POS
1070
     5
1002
{
1000
NAME
1070
     4
1000
GEN-ISO-POS
1002
{
1002
}
1000
DIMTOLJ
1070
     1
1070
     0
1002
{
1002
}
1000
M
1070
     0
1002
{
1000
DIMGAP
1070
     2
1040
1.5
1002
{
1002
}
1000
DIMTXT
1070
     2
1040
5.0
1002
{
1002
}
1002
}
1000
I
1070
     0
1002
{
1000
DIMASZ
1070
     2
1040
0.1
1002
{
1002
}
1000
DIMGAP
1070
     2
1040
0.06
1002
{
1002
}
1000
DIMTXT
1070
     2
1040
0.2
1002
{
1002
}
1002
}
1000
DIMSCALE
1070
     2
1040
1.0
1002
{
1002
}
1000
DIMPOST
1070
     4
1000
<>
1002
{
1002
}
1002
}
1000
GEN-ISO-CIR
1070
     5
1002
{
1000
NAME
1070
     4
1000
GEN-ISO$3
1002
{
1002
}
1000
DIMFIT
1070
     1
1070
     0
1002
{
1002
}
1000
DIMTAD
1070
     1
1070
     1
1002
{
1002
}
1000
DIMTIH
1070
     1
1070
     0
1002
{
1002
}
1000
DIMTIX
1070
     1
1070
     0
1002
{
1002
}
1000
DIMTOH
1070
     1
1070
     1
1002
{
1002
}
1000
DIMTOLJ
1070
     1
1070
     0
1002
{
1002
}
1000
DIMTOFL
1070
     1
1070
     0
1002
{
1002
}
1000
DIMUPT
1070
     1
1070
     1
1002
{
1002
}
1000
M
1070
     0
1002
{
1002
}
1000
I
1070
     0
1002
{
1002
}
1000
DIMPOST
1070
     4
1000
<>
1002
{
1002
}
1002
}
1000
GEN-ISO-RAD
1070
     5
1002
{
1000
NAME
1070
     4
1000
GEN-ISO$4
1002
{
1002
}
1000
DIMFIT
1070
     1
1070
     0
1002
{
1002
}
1000
DIMTAD
1070
     1
1070
     1
1002
{
1002
}
1000
DIMTIH
1070
     1
1070
     0
1002
{
1002
}
1000
DIMTIX
1070
     1
1070
     0
1002
{
1002
}
1000
DIMTOH
1070
     1
1070
     1
1002
{
1002
}
1000
DIMTOLJ
1070
     1
1070
     0
1002
{
1002
}
1000
DIMTOFL
1070
     1
1070
     0
1002
{
1002
}
1000
DIMUPT
1070
     1
1070
     1
1002
{
1002
}
1000
M
1070
     0
1002
{
1002
}
1000
I
1070
     0
1002
{
1002
}
1002
}
1000
GEN-ISO-ORD
1070
     5
1002
{
1000
NAME
1070
     4
1000
GEN-ISO$6
1002
{
1002
}
1000
DIMTOLJ
1070
     1
1070
     0
1002
{
1002
}
1000
M
1070
     0
1002
{
1002
}
1000
I
1070
     0
1002
{
1002
}
1002
}
1000
GEN-ISO-AXE-F
1070
     5
1002
{
1000
NAME
1070
     4
1000
GEN-ISO-AXE-F
1002
{
1002
}
1000
DIMSE1
1070
     1
1070
     1
1002
{
1002
}
1000
DIMSE2
1070
     1
1070
     1
1002
{
1002
}
1000
DIMTAD
1070
     1
1070
     1
1002
{
1002
}
1000
DIMTOLJ
1070
     1
1070
     0
1002
{
1002
}
1000
DIMTOFL
1070
     1
1070
     1
1002
{
1002
}
1000
M
1070
     0
1002
{
1002
}
1000
I
1070
     0
1002
{
1002
}
1002
}
1000
GEN-ISO-AXE-H
1070
     5
1002
{
1000
DIMBLK1
1070
     4
1000
GENAXEH
1002
{
1002
}
1000
DIMLFAC
1070
     2
1040
2.0
1002
{
1002
}
1000
DIMSAH
1070
     1
1070
     1
1002
{
1002
}
1000
DIMSE1
1070
     1
1070
     1
1002
{
1002
}
1000
DIMSE2
1070
     1
1070
     1
1002
{
1002
}
1000
DIMTAD
1070
     1
1070
     1
1002
{
1002
}
1000
DIMTOLJ
1070
     1
1070
     0
1002
{
1002
}
1000
DIMTOFL
1070
     1
1070
     1
1002
{
1002
}
1000
M
1070
     0
1002
{
1002
}
1000
I
1070
     0
1002
{
1002
}
1002
}
1000
GEN-ANSI
1070
     5
1002
{
1000
NAME
1070
     4
1000
GEN-ANSI
1002
{
1002
}
1000
DIMTIH
1070
     1
1070
     1
1002
{
1002
}
1000
DIMTOH
1070
     1
1070
     1
1002
{
1002
}
1000
DIMTAD
1070
     1
1070
     0
1002
{
1002
}
1000
DIMTOLJ
1070
     1
1070
     1
1002
{
1002
}
1000
M
1070
     0
1002
{
1002
}
1000
I
1070
     0
1002
{
1002
}
1002
}
1000
GEN-ANSI-POS
1070
     5
1002
{
1000
NAME
1070
     4
1000
GEN-ANSI-POS
1002
{
1002
}
1000
DIMTOLJ
1070
     1
1070
     1
1002
{
1002
}
1000
M
1070
     0
1002
{
1000
DIMASZ
1070
     2
1040
2.5
1002
{
1002
}
1000
DIMGAP
1070
     2
1040
1.5
1002
{
1002
}
1000
DIMTXT
1070
     2
1040
5.0
1002
{
1002
}
1002
}
1000
I
1070
     0
1002
{
1000
DIMASZ
1070
     2
1040
0.1
1002
{
1002
}
1000
DIMGAP
1070
     2
1040
0.06
1002
{
1002
}
1000
DIMTXT
1070
     2
1040
0.2
1002
{
1002
}
1002
}
1002
}
1000
GEN-ANSI-CIR
1070
     5
1002
{
1000
NAME
1070
     4
1000
GEN-ANSI$3
1002
{
1002
}
1000
DIMFIT
1070
     1
1070
     0
1002
{
1002
}
1000
DIMTAD
1070
     1
1070
     0
1002
{
1002
}
1000
DIMTIH
1070
     1
1070
     1
1002
{
1002
}
1000
DIMTIX
1070
     1
1070
     0
1002
{
1002
}
1000
DIMTOFL
1070
     1
1070
     0
1002
{
1002
}
1000
DIMTOH
1070
     1
1070
     1
1002
{
1002
}
1000
DIMTOLJ
1070
     1
1070
     1
1002
{
1002
}
1000
DIMUPT
1070
     1
1070
     1
1002
{
1002
}
1000
M
1070
     0
1002
{
1002
}
1000
I
1070
     0
1002
{
1002
}
1002
}
1000
GEN-ANSI-RAD
1070
     5
1002
{
1000
NAME
1070
     4
1000
GEN-ANSI$4
1002
{
1002
}
1000
DIMFIT
1070
     1
1070
     0
1002
{
1002
}
1000
DIMTAD
1070
     1
1070
     0
1002
{
1002
}
1000
DIMTIH
1070
     1
1070
     1
1002
{
1002
}
1000
DIMTIX
1070
     1
1070
     0
1002
{
1002
}
1000
DIMTOFL
1070
     1
1070
     0
1002
{
1002
}
1000
DIMTOH
1070
     1
1070
     1
1002
{
1002
}
1000
DIMTOLJ
1070
     1
1070
     1
1002
{
1002
}
1000
DIMUPT
1070
     1
1070
     1
1002
{
1002
}
1000
M
1070
     0
1002
{
1002
}
1000
I
1070
     0
1002
{
1002
}
1002
}
1000
GEN-ANSI-ORD
1070
     5
1002
{
1000
NAME
1070
     4
1000
GEN-ANSI$6
1002
{
1002
}
1000
DIMTAD
1070
     1
1070
     0
1002
{
1002
}
1000
DIMTIH
1070
     1
1070
     1
1002
{
1002
}
1000
DIMTOH
1070
     1
1070
     1
1002
{
1002
}
1000
DIMTOLJ
1070
     1
1070
     1
1002
{
1002
}
1000
M
1070
     0
1002
{
1002
}
1000
I
1070
     0
1002
{
1002
}
1002
}
1000
GEN-ANSI-AXE-F
1070
     5
1002
{
1000
NAME
1070
     4
1000
GEN-ANSI-AXE-F
1002
{
1002
}
1000
DIMBLK1
1070
     4
1000
GENAXEH
1002
{
1002
}
1000
DIMSAH
1070
     1
1070
     1
1002
{
1002
}
1000
DIMSE1
1070
     1
1070
     1
1002
{
1002
}
1000
DIMSE2
1070
     1
1070
     1
1002
{
1002
}
1000
DIMTAD
1070
     1
1070
     0
1002
{
1002
}
1000
DIMTIH
1070
     1
1070
     1
1002
{
1002
}
1000
DIMTOH
1070
     1
1070
     1
1002
{
1002
}
1000
DIMTOLJ
1070
     1
1070
     1
1002
{
1002
}
1000
M
1070
     0
1002
{
1002
}
1000
I
1070
     0
1002
{
1002
}
1002
}
1000
GEN-ANSI-AXE-H
1070
     5
1002
{
1000
NAME
1070
     4
1000
GEN-ANSI-AXE-H
1002
{
1002
}
1000
DIMBLK1
1070
     4
1000
GENAXEH
1002
{
1002
}
1000
DIMLFAC
1070
     2
1040
2.0
1002
{
1002
}
1000
DIMSAH
1070
     1
1070
     1
1002
{
1002
}
1000
DIMSE1
1070
     1
1070
     1
1002
{
1002
}
1000
DIMSE2
1070
     1
1070
     1
1002
{
1002
}
1000
DIMTAD
1070
     1
1070
     0
1002
{
1002
}
1000
DIMTOFL
1070
     1
1070
     1
1002
{
1002
}
1000
DIMTOLJ
1070
     1
1070
     1
1002
{
1002
}
1000
M
1070
     0
1002
{
1002
}
1000
I
1070
     0
1002
{
1002
}
1002
}
1000
DIMZIN
1070
     1
1070
     8
1002
{
1002
}
1002
}
1000
DimSet
1070
     0
1002
{
1000
ChainSum
1070
     3
1070
     0
1002
{
1002
}
1000
DimDclTyp0
1070
     4
1000
dim23
1002
{
1002
}
1000
HorBra
1070
     3
1070
     0
1002
{
1002
}
1000
StrDia
1070
     4
1000
%%c<>
1002
{
1002
}
1000
StrRad
1070
     4
1000
R<>
1002
{
1002
}
1000
TextMinus
1070
     4
1000
<>
1002
{
1002
}
1000
TextPlus
1070
     4
1000
<>
1002
{
1002
}
1000
M
1070
     0
1002
{
1000
DimdliFirst
1070
     2
1040
10.0
1002
{
1002
}
1000
PointMakeDist
1070
     2
1040
10.0
1002
{
1002
}
1002
}
1000
I
1070
     0
1002
{
1000
DimdliFirst
1070
     2
1040
0.5
1002
{
1002
}
1000
PointMakeDist
1070
     2
1040
0.5
1002
{
1002
}
1002
}
1002
}
1000
Drawing
1070
     0
1002
{
1000
ChamferDimMode
1070
     1
1070
     2
1002
{
1002
}
1000
Gen_Fiso
1070
    -3
1040
1.0
1002
{
1002
}
1000
GenDimStil
1070
     4
1000
ISO
1002
{
1002
}
1000
GenDwgUScale
1070
     2
1040
1.0
1002
{
1002
}
1000
GenInch
1070
     4
1000
M
1002
{
1002
}
1000
GenPlotScale
1070
     4
1000
1:1
1002
{
1002
}
1000
Revisi
1070
     4
1000
0
1002
{
1002
}
1000
Version
1070
    -5
1000
13.1/May  9 1996
1002
{
1002
}
1000
Platform
1070
    -5
1000
WINNT
1002
{
1002
}
1002
}
1000
DwgVar
1070
     0
1002
{
1000
M
1070
     0
1002
{
1002
}
1000
I
1070
     0
1002
{
1002
}
1002
}
1000
Hatch
1070
     0
1002
{
1000
GenHtcFlag
1070
     3
1070
     0
1002
{
1002
}
1002
}
1000
Info_Pos
1070
     0
1002
{
1000
DescrText
1070
     4
1000
5,6,7,8
1002
{
1002
}
1000
Attrib
1070
     0
1002
{
1000
0
1070
     6
1002
{
1000
Prompt
1070
     4
1000
(genmsg gendwg 103)
1002
{
1002
}
1000
Value
1070
     4
1000

1002
{
1002
}
1000
EditFlag
1070
     1
1070
     0
1002
{
1002
}
1002
}
1000
1
1070
     6
1002
{
1000
Prompt
1070
     4
1000
(genmsg gendwg 31)
1002
{
1002
}
1000
Value
1070
     4
1000
1
1002
{
1002
}
1000
EditFlag
1070
     1
1070
     1
1002
{
1002
}
1002
}
1000
2
1070
     6
1002
{
1000
Prompt
1070
     4
1000
(genmsg gendwg 32)
1002
{
1002
}
1000
Value
1070
     4
1000
1
1002
{
1002
}
1000
EditFlag
1070
     1
1070
     1
1002
{
1002
}
1002
}
1000
3
1070
     6
1002
{
1000
Prompt
1070
     4
1000
(genmsg gendwg 33)
1002
{
1002
}
1000
Value
1070
     4
1000

1002
{
1002
}
1000
EditFlag
1070
     1
1070
     1
1002
{
1002
}
1002
}
1000
4
1070
     6
1002
{
1000
Prompt
1070
     4
1000
(genmsg gendwg 34)
1002
{
1002
}
1000
Value
1070
     4
1000

1002
{
1002
}
1000
EditFlag
1070
     1
1070
     1
1002
{
1002
}
1002
}
1000
5
1070
     6
1002
{
1000
Prompt
1070
     4
1000
(genmsg gendwg 35)
1002
{
1002
}
1000
Value
1070
     4
1000

1002
{
1002
}
1000
EditFlag
1070
     1
1070
     1
1002
{
1002
}
1002
}
1000
6
1070
     6
1002
{
1000
Prompt
1070
     4
1000
(genmsg gendwg 36)
1002
{
1002
}
1000
Value
1070
     4
1000

1002
{
1002
}
1000
EditFlag
1070
     1
1070
     1
1002
{
1002
}
1002
}
1000
7
1070
     6
1002
{
1000
Prompt
1070
     4
1000
(genmsg gendwg 37)
1002
{
1002
}
1000
Value
1070
     4
1000

1002
{
1002
}
1000
EditFlag
1070
     1
1070
     1
1002
{
1002
}
1002
}
1000
8
1070
     6
1002
{
1000
Prompt
1070
     4
1000
(genmsg gendwg 38)
1002
{
1002
}
1000
Value
1070
     4
1000

1002
{
1002
}
1000
EditFlag
1070
     1
1070
     1
1002
{
1002
}
1002
}
1000
9
1070
     6
1002
{
1000
Prompt
1070
     4
1000
(genmsg gendwg 39)
1002
{
1002
}
1000
Value
1070
     4
1000

1002
{
1002
}
1000
EditFlag
1070
     1
1070
     1
1002
{
1002
}
1002
}
1000
10
1070
     6
1002
{
1000
Prompt
1070
     4
1000
(genmsg gendwg 40)
1002
{
1002
}
1000
Value
1070
     4
1000

1002
{
1002
}
1000
EditFlag
1070
     1
1070
     1
1002
{
1002
}
1002
}
1000
11
1070
     6
1002
{
1000
Prompt
1070
     4
1000
(genmsg gendwg 41)
1002
{
1002
}
1000
Value
1070
     4
1000

1002
{
1002
}
1000
EditFlag
1070
     1
1070
     1
1002
{
1002
}
1002
}
1000
12
1070
     6
1002
{
1000
Prompt
1070
     4
1000
(genmsg gendwg 42)
1002
{
1002
}
1000
Value
1070
     4
1000

1002
{
1002
}
1000
EditFlag
1070
     1
1070
     1
1002
{
1002
}
1002
}
1000
13
1070
     6
1002
{
1000
Prompt
1070
     4
1000
(genmsg gendwg 43)
1002
{
1002
}
1000
Value
1070
     4
1000

1002
{
1002
}
1000
EditFlag
1070
     1
1070
     1
1002
{
1002
}
1002
}
1000
14
1070
     6
1002
{
1000
Prompt
1070
     4
1000
(genmsg gendwg 44)
1002
{
1002
}
1000
Value
1070
     4
1000

1002
{
1002
}
1000
EditFlag
1070
     1
1070
     1
1002
{
1002
}
1002
}
1000
15
1070
     6
1002
{
1000
Prompt
1070
     4
1000
(genmsg gendwg 45)
1002
{
1002
}
1000
Value
1070
     4
1000

1002
{
1002
}
1000
EditFlag
1070
     1
1070
     1
1002
{
1002
}
1002
}
1000
16
1070
     6
1002
{
1000
Prompt
1070
     4
1000
(genmsg gendwg 46)
1002
{
1002
}
1000
Value
1070
     4
1000

1002
{
1002
}
1000
EditFlag
1070
     1
1070
     1
1002
{
1002
}
1002
}
1000
17
1070
     6
1002
{
1000
Prompt
1070
     4
1000
(genmsg gendwg 47)
1002
{
1002
}
1000
Value
1070
     4
1000

1002
{
1002
}
1000
EditFlag
1070
     1
1070
     1
1002
{
1002
}
1002
}
1000
18
1070
     6
1002
{
1000
Prompt
1070
     4
1000
(genmsg gendwg 48)
1002
{
1002
}
1000
Value
1070
     4
1000

1002
{
1002
}
1000
EditFlag
1070
     1
1070
     1
1002
{
1002
}
1002
}
1000
19
1070
     6
1002
{
1000
Prompt
1070
     4
1000
(genmsg gendwg 99)
1002
{
1002
}
1000
Value
1070
     4
1000

1002
{
1002
}
1000
EditFlag
1070
     1
1070
     1
1002
{
1002
}
1002
}
1000
20
1070
     6
1002
{
1000
Prompt
1070
     4
1000
(genmsg gendwg 100)
1002
{
1002
}
1000
Value
1070
     4
1000

1002
{
1002
}
1000
EditFlag
1070
     1
1070
     1
1002
{
1002
}
1002
}
1000
21
1070
     6
1002
{
1000
Prompt
1070
     4
1000
(genmsg gendwg 101)
1002
{
1002
}
1000
Value
1070
     4
1000

1002
{
1002
}
1000
EditFlag
1070
     1
1070
     1
1002
{
1002
}
1002
}
1000
22
1070
     6
1002
{
1000
Prompt
1070
     4
1000
(genmsg gendwg 102)
1002
{
1002
}
1000
Value
1070
     4
1000

1002
{
1002
}
1000
EditFlag
1070
     1
1070
     1
1002
{
1002
}
1002
}
1000
23
1070
     6
1002
{
1000
Prompt
1070
     4
1000
(genmsg gendwg 30)
1002
{
1002
}
1000
Value
1070
     4
1000

1002
{
1002
}
1000
EditFlag
1070
     1
1070
     1
1002
{
1002
}
1002
}
1000
24
1070
     6
1002
{
1000
Prompt
1070
     4
1000
(genmsg gendwg 104)
1002
{
1002
}
1000
Value
1070
     4
1000

1002
{
1002
}
1000
EditFlag
1070
     1
1070
     1
1002
{
1002
}
1002
}
1002
}
1000
Xlate
1070
     0
1002
{
1000
>
1002
}
1002
}
1000
Layer
1070
     7
1002
{
1000
Defs
1070
     0
1002
{
1000
>
1002
}
1000
EntSort
1070
     0
1002
{
1000
>
1002
}
1000
Match
1070
     0
1002
{
1002
}
1000
Settings
1070
     0
1002
{
1000
FocGrNC
1070
     3
1070
     0
1002
{
1002
}
1000
FocGrLo
1070
     3
1070
     0
1002
{
1002
}
1000
FocLoNC
1070
     3
1070
     0
1002
{
1002
}
1000
FocusCol
1070
     1
1070
   253
1002
{
1002
}
1000
GenStdLG
1070
     4
1000

1002
{
1002
}
1000
LayMatch
1070
     3
1070
     0
1002
{
1002
}
1000
LgOff
1070
     3
1070
     0
1002
{
1002
}
1000
CurLG
1070
    -5
1000
MSL3_40_3F
1002
{
1002
}
1002
}
1002
}
1000
LType
1070
     0
1002
{
1000
GEN3
1070
     8
1000
genius.lin
1002
{
1002
}
1000
GEN7
1070
     8
1000
genius.lin
1002
{
1002
}
1000
GEN4A
1070
     8
1000
genius.lin
1002
{
1002
}
1000
GEN3A
1070
     8
1000
genius.lin
1002
{
1002
}
1000
GEN7A
1070
     8
1000
genius.lin
1002
{
1002
}
1000
GENZIGZAG
1070
     8
1000
genius.lin
1002
{
1002
}
1002
}
1000
Objecter
1070
     0
1002
{
1000
CreateGroups
1070
     3
1070
     0
1002
{
1002
}
1000
LaySwitch
1070
     3
1070
     1
1002
{
1002
}
1000
LastObj
1070
    -5
1000
4915
1002
{
1002
}
1002
}
1000
OSWiz
1070
     0
1002
{
1000
>
1002
}
1000
PaList
1070
     0
1002
{
1000
AutoUpdatePartList
1070
     3
1070
     0
1002
{
1002
}
1000
ReadInfoPoint
1070
     3
1070
     0
1002
{
1002
}
1000
ReadPosNr
1070
     3
1070
     1
1002
{
1002
}
1000
RevStr
1070
     4
1000
0
1002
{
1002
}
1000
rebuildpending
1070
    -4
1070
     1
1002
{
1002
}
1000
rebuildpendingtime
1070
    -5
1000
893137590
1002
{
1002
}
1002
}
1000
Paper
1070
     0
1002
{
1000
Layer
1070
    -5
1000
MSL3_40_3F-7A,MSL3_40_3F-5,MSL3_40_3F-5,KLIN,MSL3_40_3F-7A,MSL3_40_3F-5
1002
{
1002
}
1002
}
1000
PartDB
1070
     0
1002
{
1000
GenDbOwner
1070
     4
1000

1002
{
1002
}
1002
}
1000
System
1070
     0
1002
{
1000
Menu
1070
     4
1000
GEV
1002
{
1002
}
1002
}
1000
Title
1070
     0
1002
{
1000
MakeView
1070
     1
1070
     2
1002
{
1002
}
1002
}
  0
APPID
  5
3DB
100
AcDbSymbolTableRecord
100
AcDbRegAppTableRecord
  2
GENIUS_GEVCFG0_13
 70
     0
1001
GENIUS_GENCFG_13
1071
893083894
1000
3DB
1000
GEV
1070
     1
1000
GenCfgObject
1000
System
1070
     0
1002
{
1002
}
1000
VED
1070
     0
1002
{
1002
}
  0
APPID
  5
410
100
AcDbSymbolTableRecord
100
AcDbRegAppTableRecord
  2
GEV_VCCNULL_SWITCH_OFF
 70
     0
  0
APPID
  5
411
100
AcDbSymbolTableRecord
100
AcDbRegAppTableRecord
  2
GENIUS_GENDTOL_13
 70
     0
  0
APPID
  5
442
100
AcDbSymbolTableRecord
100
AcDbRegAppTableRecord
  2
GENIUS_GENDREL_13
 70
     0
  0
APPID
  5
2C46
100
AcDbSymbolTableRecord
100
AcDbRegAppTableRecord
  2
GENIUS_GENOBJ-N-CEN_13
 70
     0
  0
APPID
  5
2C47
100
AcDbSymbolTableRecord
100
AcDbRegAppTableRecord
  2
GENIUS_GENOBJ-N-TIT_13
 70
     0
1001
GENIUS_GENOBJ_13
1070
     0
  0
APPID
  5
2C48
100
AcDbSymbolTableRecord
100
AcDbRegAppTableRecord
  2
GENIUS_GENTITLE_13
 70
     0
1001
GENIUS_GENOBJ_13
1070
     0
  0
APPID
  5
2C49
100
AcDbSymbolTableRecord
100
AcDbRegAppTableRecord
  2
GENIUS_GENZVEED_13
 70
     0
1001
GENIUS_GENOBJ_13
1070
     1
  0
APPID
  5
2C4A
100
AcDbSymbolTableRecord
100
AcDbRegAppTableRecord
  2
GENIUS_GENOBJ-N-SDF_13
 70
     0
  0
APPID
  5
2C4B
100
AcDbSymbolTableRecord
100
AcDbRegAppTableRecord
  2
GENIUS_GENSCREG_13
 70
     0
  0
APPID
  5
2C4C
100
AcDbSymbolTableRecord
100
AcDbRegAppTableRecord
  2
GENIUS_GENDIM_13
 70
     0
  0
APPID
  5
2C4D
100
AcDbSymbolTableRecord
100
AcDbRegAppTableRecord
  2
GENIUS_GENOBJ-N-DIM_13
 70
     0
  0
APPID
  5
2C4E
100
AcDbSymbolTableRecord
100
AcDbRegAppTableRecord
  2
GENIUS_GENOBJ-N-FIL_13
 70
     0
  0
APPID
  5
2C4F
100
AcDbSymbolTableRecord
100
AcDbRegAppTableRecord
  2
GENIUS_GENOBJ-N-HTC_13
 70
     0
  0
APPID
  5
2C50
100
AcDbSymbolTableRecord
100
AcDbRegAppTableRecord
  2
GENIUS_GENHATCH_13
 70
     0
  0
APPID
  5
2C51
100
AcDbSymbolTableRecord
100
AcDbRegAppTableRecord
  2
GENIUS_GENOBJ-F-SUF_13
 70
     0
  0
APPID
  5
401D
100
AcDbSymbolTableRecord
100
AcDbRegAppTableRecord
  2
GENIUS_GENREC_13
 70
     0
  0
APPID
  5
401E
100
AcDbSymbolTableRecord
100
AcDbRegAppTableRecord
  2
GENIUS_GENOBJ-N-REC_13
 70
     0
  0
APPID
  5
452D
100
AcDbSymbolTableRecord
100
AcDbRegAppTableRecord
  2
GENIUS_GENOBJ-N-RSBK_13
 70
     0
  0
APPID
  5
452E
100
AcDbSymbolTableRecord
100
AcDbRegAppTableRecord
  2
GENIUS_GENOBJ-N-LIB_13
 70
     0
  0
APPID
  5
452F
100
AcDbSymbolTableRecord
100
AcDbRegAppTableRecord
  2
GENIUS_GENSCALE_13
 70
     0
  0
ENDTAB
  0
TABLE
  2
DIMSTYLE
  5
16
100
AcDbSymbolTable
 70
    17
  0
DIMSTYLE
105
1D
100
AcDbSymbolTableRecord
100
AcDbDimStyleTableRecord
  2
GEN-ISO
 70
     0
  3

  4

  5

  6

  7

 40
1.0
 41
2.5
 42
1.0
 43
10.0
 44
2.0
 45
0.0
 46
0.0
 47
0.1
 48
0.1
140
3.5
141
-2.0
142
0.0
143
25.4
144
1.0
145
0.0
146
1.0
147
1.5
 71
     0
 72
     0
 73
     0
 74
     0
 75
     0
 76
     0
 77
     1
 78
     8
170
     0
171
     2
172
     1
173
     0
174
     0
175
     0
176
     0
177
     0
178
     2
270
     2
271
     2
272
     5
273
     2
274
     2
340
D
275
     0
280
     0
281
     0
282
     0
283
     0
284
     8
285
     8
286
     8
287
     3
288
     0
  0
ENDTAB
  0
TABLE
  2
BLOCK_RECORD
  5
1
100
AcDbSymbolTable
 70
   365
  0
BLOCK_RECORD
  5
2
100
AcDbSymbolTableRecord
100
AcDbBlockTableRecord
  2
*MODEL_SPACE
  0
BLOCK_RECORD
  5
8
100
AcDbSymbolTableRecord
100
AcDbBlockTableRecord
  2
*PAPER_SPACE
  0
BLOCK_RECORD
  5
33C
100
AcDbSymbolTableRecord
100
AcDbBlockTableRecord
  2
GENINF13
  0
ENDTAB
  0
ENDSEC
  0
SECTION
  2
BLOCKS
  0
BLOCK
  5
3
100
AcDbEntity
  8
0
100
AcDbBlockBegin
  2
*MODEL_SPACE
 70
     0
 10
0.0
 20
0.0
 30
0.0
  3
*MODEL_SPACE
  1

  0
ENDBLK
  5
7
100
AcDbEntity
  8
0
100
AcDbBlockEnd
  0
BLOCK
  5
9
100
AcDbEntity
 67
     1
  8
0
100
AcDbBlockBegin
  2
*PAPER_SPACE
 70
     0
 10
0.0
 20
0.0
 30
0.0
  3
*PAPER_SPACE
  1

  0
ENDBLK
  5
A
100
AcDbEntity
 67
     1
  8
0
100
AcDbBlockEnd
  0
BLOCK
  5
361
100
AcDbEntity
  8
0
100
AcDbBlockBegin
  2
GENINF13
 70
    66
 10
0.0
 20
0.0
 30
0.0
  3
GENINF13
  1
GENINF13
  0
CIRCLE
  5
33D
100
AcDbEntity
  8
INFO
100
AcDbCircle
 10
-0.107946
 20
1.312244
 30
0.0
 40
0.339067
  0
CIRCLE
  5
33E
100
AcDbEntity
  8
INFO
100
AcDbCircle
 10
0.0
 20
0.0
 30
0.0
 40
1.920194
  0
LINE
  5
33F
100
AcDbEntity
  8
INFO
100
AcDbLine
 10
0.411344
 20
0.70683
 30
0.0
 11
-0.700006
 21
0.70683
 31
0.0
  0
LINE
  5
340
100
AcDbEntity
  8
INFO
100
AcDbLine
 10
0.829904
 20
-1.341535
 30
0.0
 11
0.829904
 21
-0.555367
 31
0.0
  0
LINE
  5
341
100
AcDbEntity
  8
INFO
100
AcDbLine
 10
0.829904
 20
-0.555367
 30
0.0
 11
0.411344
 21
-0.555367
 31
0.0
  0
LINE
  5
342
100
AcDbEntity
  8
INFO
100
AcDbLine
 10
0.411344
 20
-0.555367
 30
0.0
 11
0.411344
 21
0.70683
 31
0.0
  0
LINE
  5
343
100
AcDbEntity
  8
INFO
100
AcDbLine
 10
-0.700006
 20
0.70683
 30
0.0
 11
-0.700006
 21
0.122613
 31
0.0
  0
LINE
  5
344
100
AcDbEntity
  8
INFO
100
AcDbLine
 10
-0.700006
 20
0.122613
 30
0.0
 11
-0.375261
 21
0.122613
 31
0.0
  0
LINE
  5
345
100
AcDbEntity
  8
INFO
100
AcDbLine
 10
-0.375261
 20
0.122613
 30
0.0
 11
-0.375261
 21
-0.555367
 31
0.0
  0
LINE
  5
346
100
AcDbEntity
  8
INFO
100
AcDbLine
 10
-0.375261
 20
-0.555367
 30
0.0
 11
-0.801038
 21
-0.555367
 31
0.0
  0
LINE
  5
347
100
AcDbEntity
  8
INFO
100
AcDbLine
 10
-0.801038
 20
-0.555367
 30
0.0
 11
-0.801038
 21
-1.341535
 31
0.0
  0
LINE
  5
348
100
AcDbEntity
  8
INFO
100
AcDbLine
 10
-0.801038
 20
-1.341535
 30
0.0
 11
0.829904
 21
-1.341535
 31
0.0
  0
ATTDEF
  5
349
100
AcDbEntity
  8
INFO
100
AcDbText
 10
0.0
 20
0.0
 30
0.0
 40
1.0
  1
1
100
AcDbAttributeDefinition
  3
Menge
  2
2GENINF
 70
     1
  0
ATTDEF
  5
34A
100
AcDbEntity
  8
INFO
100
AcDbText
 10
0.0
 20
-1.5
 30
0.0
 40
1.0
  1

100
AcDbAttributeDefinition
  3
Stücklisten-Name
  2
3GENINF
 70
     1
  0
ATTDEF
  5
34B
100
AcDbEntity
  8
INFO
100
AcDbText
 10
0.0
 20
-3.0
 30
0.0
 40
1.0
  1

100
AcDbAttributeDefinition
  3
Stücklisten-Pfad
  2
4GENINF
 70
     1
  0
ATTDEF
  5
34C
100
AcDbEntity
  8
INFO
100
AcDbText
 10
0.0
 20
-4.5
 30
0.0
 40
1.0
  1

100
AcDbAttributeDefinition
  3
Beschreibung 1
  2
5GENINF
 70
     1
  0
ATTDEF
  5
34D
100
AcDbEntity
  8
INFO
100
AcDbText
 10
0.0
 20
-6.0
 30
0.0
 40
1.0
  1

100
AcDbAttributeDefinition
  3
Beschreibung 2
  2
6GENINF
 70
     1
  0
ATTDEF
  5
34E
100
AcDbEntity
  8
INFO
100
AcDbText
 10
0.0
 20
-7.5
 30
0.0
 40
1.0
  1

100
AcDbAttributeDefinition
  3
Norm/Lieferant 1
  2
7GENINF
 70
     1
  0
ATTDEF
  5
34F
100
AcDbEntity
  8
INFO
100
AcDbText
 10
0.0
 20
-9.0
 30
0.0
 40
1.0
  1

100
AcDbAttributeDefinition
  3
Norm/Lieferant 2
  2
8GENINF
 70
     1
  0
ATTDEF
  5
350
100
AcDbEntity
  8
INFO
100
AcDbText
 10
0.0
 20
-10.5
 30
0.0
 40
1.0
  1

100
AcDbAttributeDefinition
  3
Material 1
  2
9GENINF
 70
     1
  0
ATTDEF
  5
351
100
AcDbEntity
  8
INFO
100
AcDbText
 10
0.0
 20
-12.0
 30
0.0
 40
1.0
  1

100
AcDbAttributeDefinition
  3
Material 2
  2
10GENINF
 70
     1
  0
ATTDEF
  5
352
100
AcDbEntity
  8
INFO
100
AcDbText
 10
0.0
 20
-13.5
 30
0.0
 40
1.0
  1

100
AcDbAttributeDefinition
  3
Identnummer
  2
11GENINF
 70
     1
  0
ATTDEF
  5
353
100
AcDbEntity
  8
INFO
100
AcDbText
 10
0.0
 20
-15.0
 30
0.0
 40
1.0
  1

100
AcDbAttributeDefinition
  3
Gewicht
  2
12GENINF
 70
     1
  0
ATTDEF
  5
354
100
AcDbEntity
  8
INFO
100
AcDbText
 10
0.0
 20
-16.5
 30
0.0
 40
1.0
  1

100
AcDbAttributeDefinition
  3
Preis
  2
13GENINF
 70
     1
  0
ATTDEF
  5
355
100
AcDbEntity
  8
INFO
100
AcDbText
 10
0.0
 20
-18.0
 30
0.0
 40
1.0
  1

100
AcDbAttributeDefinition
  3
Abmessungen
  2
14GENINF
 70
     1
  0
ATTDEF
  5
356
100
AcDbEntity
  8
INFO
100
AcDbText
 10
0.0
 20
-19.5
 30
0.0
 40
1.0
  1

100
AcDbAttributeDefinition
  3
User 1
  2
15GENINF
 70
     1
  0
ATTDEF
  5
357
100
AcDbEntity
  8
INFO
100
AcDbText
 10
0.0
 20
-21.0
 30
0.0
 40
1.0
  1

100
AcDbAttributeDefinition
  3
User 2
  2
16GENINF
 70
     1
  0
ATTDEF
  5
358
100
AcDbEntity
  8
INFO
100
AcDbText
 10
0.0
 20
-22.5
 30
0.0
 40
1.0
  1

100
AcDbAttributeDefinition
  3
User 3
  2
17GENINF
 70
     1
  0
ATTDEF
  5
359
100
AcDbEntity
  8
INFO
100
AcDbText
 10
0.0
 20
-24.0
 30
0.0
 40
1.0
  1

100
AcDbAttributeDefinition
  3
User 4
  2
18GENINF
 70
     1
  0
ATTDEF
  5
35A
100
AcDbEntity
  8
INFO
100
AcDbText
 10
0.0
 20
-25.5
 30
0.0
 40
1.0
  1

100
AcDbAttributeDefinition
  3
User 5
  2
19GENINF
 70
     1
  0
ATTDEF
  5
35B
100
AcDbEntity
  8
INFO
100
AcDbText
 10
0.0
 20
-27.0
 30
0.0
 40
1.0
  1

100
AcDbAttributeDefinition
  3
User 6
  2
20GENINF
 70
     1
  0
ATTDEF
  5
35C
100
AcDbEntity
  8
INFO
100
AcDbText
 10
0.0
 20
-28.5
 30
0.0
 40
1.0
  1

100
AcDbAttributeDefinition
  3
User 7
  2
21GENINF
 70
     1
  0
ATTDEF
  5
35D
100
AcDbEntity
  8
INFO
100
AcDbText
 10
0.0
 20
-30.0
 30
0.0
 40
1.0
  1

100
AcDbAttributeDefinition
  3
User 8
  2
22GENINF
 70
     1
  0
ATTDEF
  5
35E
100
AcDbEntity
  8
INFO
100
AcDbText
 10
0.0
 20
-31.5
 30
0.0
 40
1.0
  1

100
AcDbAttributeDefinition
  3
Filter
  2
23GENINF
 70
     1
  0
ATTDEF
  5
35F
100
AcDbEntity
  8
INFO
100
AcDbText
 10
0.0
 20
-33.0
 30
0.0
 40
1.0
  1

100
AcDbAttributeDefinition
  3
Bemerkung
  2
24GENINF
 70
     1
  0
ATTDEF
  5
360
100
AcDbEntity
  8
INFO
100
AcDbText
 10
0.0
 20
-34.5
 30
0.0
 40
1.0
  1

100
AcDbAttributeDefinition
  3
Genius Normteile ID
  2
0GENINF
 70
     1
  0
ENDBLK
  5
362
100
AcDbEntity
  8
0
100
AcDbBlockEnd
  0
ENDSEC
  0
SECTION
  2
ENTITIES
  0
LINE
  5
4530
100
AcDbEntity
  8
MSL3_40_3F-7
100
AcDbLine
 10
310.015759
 20
62.001062
 30
0.0
 11
376.015759
 21
62.001062
 31
0.0
1001
GENIUS_GENODEF_13
1002
{
1000
HIER
1070
     0
1002
}
1002
{
1000
MANEDIT
1070
     0
1002
}
1002
{
1000
NOSEL
1070
     0
1002
}
1002
{
1000
BEHIND
1070
     0
1002
}
1002
{
1000
REACTOR
1002
}
1001
GENIUS_GENOBJ-N-CEN_13
1002
{
1000
OWNER
1000
GEN
1002
}
  0
LINE
  5
4531
100
AcDbEntity
  8
MSL3_40_3F-7
100
AcDbLine
 10
308.376556
 20
224.724429
 30
0.0
 11
396.015759
 21
224.724429
 31
0.0
  0
LINE
  5
4532
100
AcDbEntity
  8
MSL3_40_3F-7
100
AcDbLine
 10
308.376556
 20
189.724429
 30
0.0
 11
396.015759
 21
189.724429
 31
0.0
  0
LINE
  5
4533
100
AcDbEntity
  8
MSL3_40_3F-7
100
AcDbLine
 10
308.376556
 20
154.724429
 30
0.0
 11
396.015759
 21
154.724429
 31
0.0
  0
LINE
  5
4534
100
AcDbEntity
  8
MSL3_40_3F-7
100
AcDbLine
 10
305.230713
 20
36.001062
 30
0.0
 11
349.324094
 21
36.001062
 31
0.0
  0
LINE
  5
4535
100
AcDbEntity
  8
MSL3_40_3F-7
100
AcDbLine
 10
130.015759
 20
0.001062
 30
0.0
 11
396.015759
 21
0.001062
 31
0.0
  0
LINE
  5
4536
100
AcDbEntity
  8
MSL3_40_3F-7
100
AcDbLine
 10
318.514049
 20
-114.710227
 30
0.0
 11
306.504902
 21
-114.710227
 31
0.0
  0
LINE
  5
4537
100
AcDbEntity
  8
MSL3_40_3F-7
100
AcDbLine
 10
305.230713
 20
-177.710227
 30
0.0
 11
349.324094
 21
-177.710227
 31
0.0
  0
LINE
  5
4538
100
AcDbEntity
  8
MSL3_40_3F-7
100
AcDbLine
 10
308.376556
 20
-146.210227
 30
0.0
 11
396.015759
 21
-146.210227
 31
0.0
1001
GENIUS_GENOREF_13
1005
4915
  0
LINE
  5
4539
100
AcDbEntity
  8
MSL3_40_3F-7
100
AcDbLine
 10
308.376556
 20
-111.210227
 30
0.0
 11
396.015759
 21
-111.210227
 31
0.0
  0
LINE
  5
453A
100
AcDbEntity
  8
MSL3_40_3F-7
100
AcDbLine
 10
308.376556
 20
-181.210227
 30
0.0
 11
396.015759
 21
-181.210227
 31
0.0
  0
LINE
  5
453B
100
AcDbEntity
  8
MSL3_40_3F-3
100
AcDbLine
 10
313.015759
 20
181.724429
 30
0.0
 11
332.015759
 21
181.724429
 31
0.0
1001
GENIUS_GENBH_13
1002
{
1000
OE
1000
CON1
1002
}
1001
GENIUS_GENOREF_13
1005
4914
  0
LINE
  5
453C
100
AcDbEntity
  8
MSL3_40_3F-3
100
AcDbLine
 10
313.015759
 20
197.724429
 30
0.0
 11
332.015759
 21
197.724429
 31
0.0
1001
GENIUS_GENBH_13
1002
{
1000
OE
1000
CON1
1002
}
1001
GENIUS_GENOREF_13
1005
4914
  0
LINE
  5
453D
100
AcDbEntity
  8
MSL3_40_3F-0
100
AcDbLine
 10
313.015759
 20
54.001062
 30
0.0
 11
373.015759
 21
54.001062
 31
0.0
  0
LINE
  5
453E
100
AcDbEntity
  8
MSL3_40_3F-0
100
AcDbLine
 10
313.015759
 20
70.001062
 30
0.0
 11
373.015759
 21
70.001062
 31
0.0
  0
LINE
  5
453F
100
AcDbEntity
  8
MSL3_40_3F-0
100
AcDbLine
 10
313.015759
 20
201.224429
 30
0.0
 11
331.015759
 21
201.224429
 31
0.0
  0
LINE
  5
4540
100
AcDbEntity
  8
MSL3_40_3F-0
100
AcDbLine
 10
373.015759
 20
232.724429
 30
0.0
 11
313.015759
 21
232.724429
 31
0.0
  0
LINE
  5
4541
100
AcDbEntity
  8
MSL3_40_3F-0
100
AcDbLine
 10
313.015759
 20
216.724429
 30
0.0
 11
373.015759
 21
216.724429
 31
0.0
  0
LINE
  5
4542
100
AcDbEntity
  8
MSL3_40_3F-0
100
AcDbLine
 10
331.015759
 20
178.224429
 30
0.0
 11
313.015759
 21
178.224429
 31
0.0
  0
LINE
  5
4543
100
AcDbEntity
  8
MSL3_40_3F-0
100
AcDbLine
 10
313.015759
 20
162.724429
 30
0.0
 11
373.015759
 21
162.724429
 31
0.0
  0
LINE
  5
4544
100
AcDbEntity
  8
MSL3_40_3F-0
100
AcDbLine
 10
313.015759
 20
162.724429
 30
0.0
 11
373.015759
 21
162.724429
 31
0.0
  0
LINE
  5
4545
100
AcDbEntity
  8
MSL3_40_3F-0
100
AcDbLine
 10
313.015759
 20
146.724429
 30
0.0
 11
373.015759
 21
146.724429
 31
0.0
  0
ARC
  5
4546
100
AcDbEntity
  8
MSL3_40_3F-0
100
AcDbCircle
 10
313.963836
 20
46.393367
 30
0.0
 40
4.051923
100
AcDbArc
 50
301.248243
 51
58.751757
  0
ARC
  5
4547
100
AcDbEntity
  8
MSL3_40_3F-0
100
AcDbCircle
 10
304.733066
 20
36.001062
 30
0.0
 40
13.282692
100
AcDbArc
 50
328.560611
 51
31.439389
  0
LINE
  5
4548
100
AcDbEntity
  8
MSL3_40_3F-0
100
AcDbLine
 10
331.015759
 20
11.501039
 30
0.0
 11
313.015759
 21
11.501039
 31
0.0
  0
ARC
  5
4549
100
AcDbEntity
  8
MSL3_40_3F-0
100
AcDbCircle
 10
313.963836
 20
25.608757
 30
0.0
 40
4.051923
100
AcDbArc
 50
301.248243
 51
58.751757
  0
LINE
  5
454A
100
AcDbEntity
  8
MSL3_40_3F-0
100
AcDbLine
 10
313.015759
 20
8.000153
 30
0.0
 11
373.015759
 21
8.000153
 31
0.0
  0
LINE
  5
454B
100
AcDbEntity
  8
MSL3_40_3F-0
100
AcDbLine
 10
313.015759
 20
-11.498961
 30
0.0
 11
331.015759
 21
-11.498961
 31
0.0
  0
LINE
  5
454C
100
AcDbEntity
  8
MSL3_40_3F-0
100
AcDbLine
 10
313.015759
 20
-7.999847
 30
0.0
 11
373.015759
 21
-7.999847
 31
0.0
  0
LINE
  5
454D
100
AcDbEntity
  8
MSL3_40_3F-0
100
AcDbLine
 10
313.015759
 20
-134.710227
 30
0.0
 11
331.015759
 21
-134.710227
 31
0.0
  0
LINE
  5
454E
100
AcDbEntity
  8
MSL3_40_3F-0
100
AcDbLine
 10
373.015759
 20
-103.210227
 30
0.0
 11
313.015759
 21
-103.210227
 31
0.0
  0
LINE
  5
454F
100
AcDbEntity
  8
MSL3_40_3F-0
100
AcDbLine
 10
313.015759
 20
-119.210227
 30
0.0
 11
356.015759
 21
-119.210227
 31
0.0
  0
LINE
  5
4550
100
AcDbEntity
  8
MSL3_40_3F-0
100
AcDbLine
 10
331.015759
 20
-157.710227
 30
0.0
 11
313.015759
 21
-157.710227
 31
0.0
  0
ARC
  5
4551
100
AcDbEntity
  8
MSL3_40_3F-0
100
AcDbCircle
 10
313.963836
 20
-167.317922
 30
0.0
 40
4.051923
100
AcDbArc
 50
301.248243
 51
58.751757
  0
LINE
  5
4552
100
AcDbEntity
  8
MSL3_40_3F-0
100
AcDbLine
 10
313.015759
 20
-154.210227
 30
0.0
 11
373.015759
 21
-154.210227
 31
0.0
  0
LINE
  5
4553
100
AcDbEntity
  8
MSL3_40_3F-0
100
AcDbLine
 10
313.015759
 20
-138.210227
 30
0.0
 11
373.015759
 21
-138.210227
 31
0.0
  0
ARC
  5
4554
100
AcDbEntity
  8
MSL3_40_3F-0
100
AcDbCircle
 10
313.963836
 20
-188.102532
 30
0.0
 40
4.051923
100
AcDbArc
 50
301.248243
 51
58.751757
  0
ARC
  5
4555
100
AcDbEntity
  8
MSL3_40_3F-0
100
AcDbCircle
 10
304.733066
 20
-177.710227
 30
0.0
 40
13.282692
100
AcDbArc
 50
328.560611
 51
31.439389
  0
LINE
  5
4557
100
AcDbEntity
  8
MSL3_40_3F-7
100
AcDbLine
 10
29.580296
 20
20.001062
 30
0.0
 11
53.0
 21
20.001062
 31
0.0
  0
LINE
  5
4558
100
AcDbEntity
  8
MSL3_40_3F-7
100
AcDbLine
 10
35.0
 20
0.001062
 30
0.0
 11
43.580296
 21
0.001062
 31
0.0
  0
LINE
  5
4559
100
AcDbEntity
  8
MSL3_40_3F-7
100
AcDbLine
 10
29.580296
 20
-19.998938
 30
0.0
 11
53.0
 21
-19.998938
 31
0.0
  0
LINE
  5
455A
100
AcDbEntity
  8
MSL3_40_3F-3
100
AcDbLine
 10
39.04239
 20
53.390642
 30
0.0
 11
39.685178
 21
54.156686
 31
0.0
  0
LINE
  5
455B
100
AcDbEntity
  8
MSL3_40_3F-3
100
AcDbLine
 10
50.0
 20
23.001062
 30
0.0
 11
38.0
 21
23.001062
 31
0.0
  0
LINE
  5
455C
100
AcDbEntity
  8
MSL3_40_3F-3
100
AcDbLine
 10
50.0
 20
22.460062
 30
0.0
 11
34.0
 21
22.460062
 31
0.0
  0
LINE
  5
455D
100
AcDbEntity
  8
MSL3_40_3F-3
100
AcDbLine
 10
50.0
 20
17.001062
 30
0.0
 11
38.0
 21
17.001062
 31
0.0
  0
LINE
  5
455E
100
AcDbEntity
  8
MSL3_40_3F-3
100
AcDbLine
 10
50.0
 20
17.542062
 30
0.0
 11
34.0
 21
17.542062
 31
0.0
  0
LINE
  5
455F
100
AcDbEntity
  8
MSL3_40_3F-0
100
AcDbLine
 10
48.285575
 20
46.940096
 30
0.0
 11
8.250931
 21
80.533151
 31
0.0
  0
LINE
  5
4560
100
AcDbEntity
  8
MSL3_40_3F-0
100
AcDbLine
 10
7.335221
 20
80.001062
 30
0.0
 11
50.0
 21
44.201062
 31
0.0
  0
LINE
  5
4561
100
AcDbEntity
  8
MSL3_40_3F-3
100
AcDbLine
 10
-50.0
 20
25.001062
 30
0.0
 11
50.0
 21
25.001062
 31
0.0
  0
LINE
  5
4562
100
AcDbEntity
  8
MSL3_40_3F-3
100
AcDbLine
 10
50.0
 20
-16.998938
 30
0.0
 11
38.0
 21
-16.998938
 31
0.0
  0
LINE
  5
4563
100
AcDbEntity
  8
MSL3_40_3F-3
100
AcDbLine
 10
50.0
 20
-17.539938
 30
0.0
 11
34.0
 21
-17.539938
 31
0.0
  0
LINE
  5
4564
100
AcDbEntity
  8
MSL3_40_3F-3
100
AcDbLine
 10
50.0
 20
-22.998938
 30
0.0
 11
38.0
 21
-22.998938
 31
0.0
  0
LINE
  5
4565
100
AcDbEntity
  8
MSL3_40_3F-3
100
AcDbLine
 10
50.0
 20
-22.457938
 30
0.0
 11
34.0
 21
-22.457938
 31
0.0
  0
LINE
  5
4566
100
AcDbEntity
  8
MSL3_40_3F-3
100
AcDbLine
 10
-50.0
 20
-24.998938
 30
0.0
 11
50.0
 21
-24.998938
 31
0.0
  0
LINE
  5
4567
100
AcDbEntity
  8
MSL3_40_3F-0
100
AcDbLine
 10
50.0
 20
-25.998938
 30
0.0
 11
-50.0
 21
-25.998938
 31
0.0
  0
LINE
  5
4568
100
AcDbEntity
  8
MSL3_40_3F-7
100
AcDbLine
 10
35.0
 20
0.001062
 30
0.0
 11
35.0
 21
8.581358
 31
0.0
  0
LINE
  5
4569
100
AcDbEntity
  8
MSL3_40_3F-7
100
AcDbLine
 10
20.0
 20
6.001062
 30
0.0
 11
20.0
 21
-5.998938
 31
0.0
  0
LINE
  5
456A
100
AcDbEntity
  8
MSL3_40_3F-7
100
AcDbLine
 10
0.0
 20
0.001062
 30
0.0
 11
0.0
 21
8.001062
 31
0.0
  0
LINE
  5
456B
100
AcDbEntity
  8
MSL3_40_3F-7
100
AcDbLine
 10
-20.0
 20
6.001062
 30
0.0
 11
-20.0
 21
-5.998938
 31
0.0
  0
LINE
  5
456C
100
AcDbEntity
  8
MSL3_40_3F-7
100
AcDbLine
 10
-35.0
 20
0.001062
 30
0.0
 11
-35.0
 21
8.581358
 31
0.0
  0
LINE
  5
456D
100
AcDbEntity
  8
MSL3_40_3F-0
100
AcDbLine
 10
-50.0
 20
-25.998938
 30
0.0
 11
-50.0
 21
44.201062
 31
0.0
  0
LINE
  5
456E
100
AcDbEntity
  8
MSL3_40_3F-7
100
AcDbLine
 10
-35.0
 20
0.001062
 30
0.0
 11
-26.419704
 21
0.001062
 31
0.0
  0
LINE
  5
456F
100
AcDbEntity
  8
MSL3_40_3F-7
100
AcDbLine
 10
-29.580296
 20
-19.998938
 30
0.0
 11
-53.0
 21
-19.998938
 31
0.0
  0
LINE
  5
4570
100
AcDbEntity
  8
MSL3_40_3F-7
100
AcDbLine
 10
-35.0
 20
-5.579234
 30
0.0
 11
-35.0
 21
-28.998938
 31
0.0
  0
LINE
  5
4571
100
AcDbEntity
  8
MSL3_40_3F-3
100
AcDbLine
 10
-32.580296
 20
-19.998938
 30
0.0
 11
-34.0
 21
-17.539938
 31
0.0
  0
LINE
  5
4572
100
AcDbEntity
  8
MSL3_40_3F-3
100
AcDbLine
 10
-34.0
 20
-22.457938
 30
0.0
 11
-34.0
 21
-17.539938
 31
0.0
  0
LINE
  5
4573
100
AcDbEntity
  8
MSL3_40_3F-3
100
AcDbLine
 10
-32.0
 20
-25.998938
 30
0.0
 11
-32.0
 21
-13.998938
 31
0.0
  0
LINE
  5
4574
100
AcDbEntity
  8
MSL3_40_3F-3
100
AcDbLine
 10
-32.541
 20
-25.998938
 30
0.0
 11
-32.541
 21
-9.998938
 31
0.0
  0
LINE
  5
4575
100
AcDbEntity
  8
MSL3_40_3F-3
100
AcDbLine
 10
-38.0
 20
-22.998938
 30
0.0
 11
-38.0
 21
-16.998938
 31
0.0
  0
LINE
  5
4576
100
AcDbEntity
  8
MSL3_40_3F-3
100
AcDbLine
 10
-38.0
 20
-25.998938
 30
0.0
 11
-38.0
 21
-13.998938
 31
0.0
  0
LINE
  5
4577
100
AcDbEntity
  8
MSL3_40_3F-3
100
AcDbLine
 10
-37.459
 20
-25.998938
 30
0.0
 11
-37.459
 21
-9.998938
 31
0.0
  0
LINE
  5
4578
100
AcDbEntity
  8
MSL3_40_3F-3
100
AcDbLine
 10
-50.0
 20
-22.998938
 30
0.0
 11
-38.0
 21
-22.998938
 31
0.0
  0
LINE
  5
4579
100
AcDbEntity
  8
MSL3_40_3F-3
100
AcDbLine
 10
-50.0
 20
-22.457938
 30
0.0
 11
-34.0
 21
-22.457938
 31
0.0
  0
LINE
  5
457A
100
AcDbEntity
  8
MSL3_40_3F-3
100
AcDbLine
 10
-32.580296
 20
-19.998938
 30
0.0
 11
-34.0
 21
-22.457938
 31
0.0
  0
LINE
  5
457B
100
AcDbEntity
  8
MSL3_40_3F-3
100
AcDbLine
 10
-50.0
 20
-16.998938
 30
0.0
 11
-38.0
 21
-16.998938
 31
0.0
  0
LINE
  5
457C
100
AcDbEntity
  8
MSL3_40_3F-3
100
AcDbLine
 10
-50.0
 20
-17.539938
 30
0.0
 11
-34.0
 21
-17.539938
 31
0.0
  0
LINE
  5
457D
100
AcDbEntity
  8
MSL3_40_3F-7
100
AcDbLine
 10
-35.0
 20
0.001062
 30
0.0
 11
-35.0
 21
-8.579234
 31
0.0
  0
LINE
  5
457E
100
AcDbEntity
  8
MSL3_40_3F-3
100
AcDbLine
 10
-35.0
 20
-8.579234
 30
0.0
 11
-37.459
 21
-9.998938
 31
0.0
  0
LINE
  5
457F
100
AcDbEntity
  8
MSL3_40_3F-3
100
AcDbLine
 10
-35.0
 20
-8.579234
 30
0.0
 11
-32.541
 21
-9.998938
 31
0.0
  0
LINE
  5
4580
100
AcDbEntity
  8
MSL3_40_3F-3
100
AcDbLine
 10
-32.541
 20
-9.998938
 30
0.0
 11
-37.459
 21
-9.998938
 31
0.0
  0
LINE
  5
4581
100
AcDbEntity
  8
MSL3_40_3F-3
100
AcDbLine
 10
-32.0
 20
-13.998938
 30
0.0
 11
-38.0
 21
-13.998938
 31
0.0
  0
LINE
  5
4582
100
AcDbEntity
  8
MSL3_40_3F-7
100
AcDbLine
 10
-35.0
 20
0.001062
 30
0.0
 11
-43.580296
 21
0.001062
 31
0.0
  0
LINE
  5
4583
100
AcDbEntity
  8
MSL3_40_3F-7
100
AcDbLine
 10
-6.0
 20
-19.998938
 30
0.0
 11
6.0
 21
-19.998938
 31
0.0
  0
LINE
  5
4584
100
AcDbEntity
  8
MSL3_40_3F-7
100
AcDbLine
 10
0.0
 20
0.001062
 30
0.0
 11
8.0
 21
0.001062
 31
0.0
  0
LINE
  5
4585
100
AcDbEntity
  8
MSL3_40_3F-7
100
AcDbLine
 10
0.0
 20
-13.998938
 30
0.0
 11
0.0
 21
-25.998938
 31
0.0
  0
LINE
  5
4586
100
AcDbEntity
  8
MSL3_40_3F-7
100
AcDbLine
 10
-20.0
 20
-28.498938
 30
0.0
 11
-20.0
 21
-11.498938
 31
0.0
  0
CIRCLE
  5
4587
100
AcDbEntity
  8
MSL3_40_3F-0
100
AcDbCircle
 10
0.0
 20
-19.998938
 30
0.0
 40
3.0
  0
CIRCLE
  5
4588
100
AcDbEntity
  8
MSL3_40_3F-0
100
AcDbCircle
 10
-20.0
 20
-19.998938
 30
0.0
 40
3.3
  0
CIRCLE
  5
4589
100
AcDbEntity
  8
MSL3_40_3F-3
100
AcDbCircle
 10
-20.0
 20
-19.998938
 30
0.0
 40
5.5
  0
LINE
  5
458A
100
AcDbEntity
  8
MSL3_40_3F-7
100
AcDbLine
 10
-28.5
 20
-19.998938
 30
0.0
 11
-11.5
 21
-19.998938
 31
0.0
  0
LINE
  5
458B
100
AcDbEntity
  8
MSL3_40_3F-7
100
AcDbLine
 10
-26.0
 20
0.001062
 30
0.0
 11
-14.0
 21
0.001062
 31
0.0
  0
CIRCLE
  5
458C
100
AcDbEntity
  8
MSL3_40_3F-0
100
AcDbCircle
 10
-20.0
 20
0.001062
 30
0.0
 40
3.0
  0
LINE
  5
458D
100
AcDbEntity
  8
MSL3_40_3F-7
100
AcDbLine
 10
0.0
 20
0.001062
 30
0.0
 11
0.0
 21
-7.998938
 31
0.0
  0
LINE
  5
458E
100
AcDbEntity
  8
MSL3_40_3F-7
100
AcDbLine
 10
0.0
 20
0.001062
 30
0.0
 11
-8.0
 21
0.001062
 31
0.0
  0
LINE
  5
458F
100
AcDbEntity
  8
MSL3_40_3F-7
100
AcDbLine
 10
20.0
 20
-28.498938
 30
0.0
 11
20.0
 21
-11.498938
 31
0.0
  0
LINE
  5
4590
100
AcDbEntity
  8
MSL3_40_3F-7
100
AcDbLine
 10
35.0
 20
-5.579234
 30
0.0
 11
35.0
 21
-28.998938
 31
0.0
  0
LINE
  5
4591
100
AcDbEntity
  8
MSL3_40_3F-3
100
AcDbLine
 10
34.0
 20
-17.539938
 30
0.0
 11
34.0
 21
-22.457938
 31
0.0
  0
LINE
  5
4592
100
AcDbEntity
  8
MSL3_40_3F-3
100
AcDbLine
 10
38.0
 20
-16.998938
 30
0.0
 11
38.0
 21
-22.998938
 31
0.0
  0
LINE
  5
4593
100
AcDbEntity
  8
MSL3_40_3F-3
100
AcDbLine
 10
32.580296
 20
-19.998938
 30
0.0
 11
34.0
 21
-17.539938
 31
0.0
  0
CIRCLE
  5
4594
100
AcDbEntity
  8
MSL3_40_3F-0
100
AcDbCircle
 10
20.0
 20
-19.998938
 30
0.0
 40
3.3
  0
LINE
  5
4595
100
AcDbEntity
  8
MSL3_40_3F-3
100
AcDbLine
 10
38.0
 20
-25.998938
 30
0.0
 11
38.0
 21
-13.998938
 31
0.0
  0
LINE
  5
4596
100
AcDbEntity
  8
MSL3_40_3F-3
100
AcDbLine
 10
32.0
 20
-25.998938
 30
0.0
 11
32.0
 21
-13.998938
 31
0.0
  0
LINE
  5
4597
100
AcDbEntity
  8
MSL3_40_3F-3
100
AcDbLine
 10
37.459
 20
-25.998938
 30
0.0
 11
37.459
 21
-9.998938
 31
0.0
  0
LINE
  5
4598
100
AcDbEntity
  8
MSL3_40_3F-3
100
AcDbLine
 10
32.541
 20
-25.998938
 30
0.0
 11
32.541
 21
-9.998938
 31
0.0
  0
CIRCLE
  5
4599
100
AcDbEntity
  8
MSL3_40_3F-3
100
AcDbCircle
 10
20.0
 20
-19.998938
 30
0.0
 40
5.5
  0
LINE
  5
459A
100
AcDbEntity
  8
MSL3_40_3F-7
100
AcDbLine
 10
11.5
 20
-19.998938
 30
0.0
 11
28.5
 21
-19.998938
 31
0.0
  0
LINE
  5
459B
100
AcDbEntity
  8
MSL3_40_3F-3
100
AcDbLine
 10
32.580296
 20
-19.998938
 30
0.0
 11
34.0
 21
-22.457938
 31
0.0
  0
LINE
  5
459C
100
AcDbEntity
  8
MSL3_40_3F-7
100
AcDbLine
 10
14.0
 20
0.001062
 30
0.0
 11
26.0
 21
0.001062
 31
0.0
  0
CIRCLE
  5
459D
100
AcDbEntity
  8
MSL3_40_3F-0
100
AcDbCircle
 10
20.0
 20
0.001062
 30
0.0
 40
3.0
  0
LINE
  5
459E
100
AcDbEntity
  8
MSL3_40_3F-7
100
AcDbLine
 10
35.0
 20
0.001062
 30
0.0
 11
35.0
 21
-8.579234
 31
0.0
  0
LINE
  5
459F
100
AcDbEntity
  8
MSL3_40_3F-3
100
AcDbLine
 10
35.0
 20
-8.579234
 30
0.0
 11
37.459
 21
-9.998938
 31
0.0
  0
LINE
  5
45A0
100
AcDbEntity
  8
MSL3_40_3F-3
100
AcDbLine
 10
35.0
 20
-8.579234
 30
0.0
 11
32.541
 21
-9.998938
 31
0.0
  0
LINE
  5
45A1
100
AcDbEntity
  8
MSL3_40_3F-3
100
AcDbLine
 10
37.459
 20
-9.998938
 30
0.0
 11
32.541
 21
-9.998938
 31
0.0
  0
LINE
  5
45A2
100
AcDbEntity
  8
MSL3_40_3F-3
100
AcDbLine
 10
38.0
 20
-13.998938
 30
0.0
 11
32.0
 21
-13.998938
 31
0.0
  0
LINE
  5
45A3
100
AcDbEntity
  8
MSL3_40_3F-7
100
AcDbLine
 10
35.0
 20
0.001062
 30
0.0
 11
26.419704
 21
0.001062
 31
0.0
  0
LINE
  5
45A4
100
AcDbEntity
  8
MSL3_40_3F-7
100
AcDbLine
 10
-31.5
 20
36.001062
 30
0.0
 11
-24.5
 21
36.001062
 31
0.0
  0
LINE
  5
45A5
100
AcDbEntity
  8
MSL3_40_3F-7
100
AcDbLine
 10
-29.580296
 20
20.001062
 30
0.0
 11
-53.0
 21
20.001062
 31
0.0
  0
LINE
  5
45A6
100
AcDbEntity
  8
MSL3_40_3F-7
100
AcDbLine
 10
-30.47305
 20
65.802801
 30
0.0
 11
-16.967606
 21
49.70764
 31
0.0
  0
LINE
  5
45A7
100
AcDbEntity
  8
MSL3_40_3F-3
100
AcDbLine
 10
-31.825828
 20
60.751464
 30
0.0
 11
-24.112377
 21
51.55893
 31
0.0
  0
LINE
  5
45A8
100
AcDbEntity
  8
MSL3_40_3F-3
100
AcDbLine
 10
-32.270727
 20
60.378149
 30
0.0
 11
-24.557276
 21
51.185615
 31
0.0
  0
LINE
  5
45A9
100
AcDbEntity
  8
MSL3_40_3F-0
100
AcDbLine
 10
-48.285575
 20
46.940096
 30
0.0
 11
-8.250931
 21
80.533151
 31
0.0
  0
LINE
  5
45AA
100
AcDbEntity
  8
MSL3_40_3F-0
100
AcDbLine
 10
-50.0
 20
44.201062
 30
0.0
 11
-7.335221
 21
80.001062
 31
0.0
  0
LINE
  5
45AB
100
AcDbEntity
  8
MSL3_40_3F-7
100
AcDbLine
 10
-47.779292
 20
55.401967
 30
0.0
 11
-42.809267
 21
49.478921
 31
0.0
  0
LINE
  5
45AC
100
AcDbEntity
  8
MSL3_40_3F-0
100
AcDbLine
 10
-46.84292
 20
54.286042
 30
0.0
 11
-46.639482
 21
50.932147
 31
0.0
  0
LINE
  5
45AD
100
AcDbEntity
  8
MSL3_40_3F-0
100
AcDbLine
 10
-49.320638
 20
48.68239
 30
0.0
 11
-40.894149
 21
55.753054
 31
0.0
  0
LINE
  5
45AE
100
AcDbEntity
  8
MSL3_40_3F-0
100
AcDbLine
 10
-54.499998
 20
36.001059
 30
0.0
 11
-54.499993
 21
28.001059
 31
0.0
  0
LINE
  5
45AF
100
AcDbEntity
  8
MSL3_40_3F-3
100
AcDbLine
 10
-49.0
 20
25.001062
 30
0.0
 11
-49.0
 21
45.040162
 31
0.0
  0
LINE
  5
45B0
100
AcDbEntity
  8
MSL3_40_3F-3
100
AcDbLine
 10
-50.0
 20
23.001062
 30
0.0
 11
-38.0
 21
23.001062
 31
0.0
  0
LINE
  5
45B1
100
AcDbEntity
  8
MSL3_40_3F-3
100
AcDbLine
 10
-50.0
 20
17.001062
 30
0.0
 11
-38.0
 21
17.001062
 31
0.0
  0
LINE
  5
45B2
100
AcDbEntity
  8
MSL3_40_3F-3
100
AcDbLine
 10
-50.0
 20
22.460062
 30
0.0
 11
-34.0
 21
22.460062
 31
0.0
  0
LINE
  5
45B3
100
AcDbEntity
  8
MSL3_40_3F-3
100
AcDbLine
 10
-50.0
 20
17.542062
 30
0.0
 11
-34.0
 21
17.542062
 31
0.0
  0
LINE
  5
45B4
100
AcDbEntity
  8
MSL3_40_3F-0
100
AcDbLine
 10
-52.999992
 20
26.50106
 30
0.0
 11
-50.0
 21
26.501062
 31
0.0
  0
ARC
  5
45B5
100
AcDbEntity
  8
MSL3_40_3F-0
100
AcDbCircle
 10
-52.999993
 20
28.00106
 30
0.0
 40
1.5
100
AcDbArc
 50
180.000039
 51
270.000042
  0
LINE
  5
45B6
100
AcDbEntity
  8
MSL3_40_3F-3
100
AcDbLine
 10
-32.580296
 20
20.001062
 30
0.0
 11
-34.0
 21
17.542062
 31
0.0
  0
LINE
  5
45B7
100
AcDbEntity
  8
MSL3_40_3F-3
100
AcDbLine
 10
-32.580296
 20
20.001062
 30
0.0
 11
-34.0
 21
22.460062
 31
0.0
  0
LINE
  5
45B8
100
AcDbEntity
  8
MSL3_40_3F-3
100
AcDbLine
 10
-34.0
 20
17.542062
 30
0.0
 11
-34.0
 21
22.460062
 31
0.0
  0
LINE
  5
45B9
100
AcDbEntity
  8
MSL3_40_3F-3
100
AcDbLine
 10
-38.0
 20
17.001062
 30
0.0
 11
-38.0
 21
23.001062
 31
0.0
  0
LINE
  5
45BA
100
AcDbEntity
  8
MSL3_40_3F-7
100
AcDbLine
 10
-57.288763
 20
38.999717
 30
0.0
 11
-46.096036
 21
38.999725
 31
0.0
  0
LINE
  5
45BB
100
AcDbEntity
  8
MSL3_40_3F-7
100
AcDbLine
 10
-57.28874
 20
31.999717
 30
0.0
 11
-46.096013
 21
31.999725
 31
0.0
  0
LINE
  5
45BC
100
AcDbEntity
  8
MSL3_40_3F-3
100
AcDbLine
 10
-47.31567
 20
46.448535
 30
0.0
 11
-47.958458
 21
47.21458
 31
0.0
  0
LINE
  5
45BD
100
AcDbEntity
  8
MSL3_40_3F-0
100
AcDbLine
 10
-54.500021
 20
43.001059
 30
0.0
 11
-54.499998
 21
36.001059
 31
0.0
  0
LINE
  5
45BE
100
AcDbEntity
  8
MSL3_40_3F-0
100
AcDbLine
 10
-50.000015
 20
37.501062
 30
0.0
 11
-52.999999
 21
37.50106
 31
0.0
  0
ARC
  5
45BF
100
AcDbEntity
  8
MSL3_40_3F-0
100
AcDbCircle
 10
-52.999998
 20
36.00106
 30
0.0
 40
1.5
100
AcDbArc
 50
90.00004
 51
180.000039
  0
LINE
  5
45C0
100
AcDbEntity
  8
MSL3_40_3F-0
100
AcDbLine
 10
-54.499998
 20
36.001059
 30
0.0
 11
-54.499998
 21
36.001059
 31
0.0
  0
LINE
  5
45C1
100
AcDbEntity
  8
MSL3_40_3F-7
100
AcDbLine
 10
-47.9
 20
45.958225
 30
0.0
 11
-47.64279
 21
46.174049
 31
0.0
  0
LINE
  5
45C2
100
AcDbEntity
  8
MSL3_40_3F-0
100
AcDbLine
 10
-49.642474
 20
44.501062
 30
0.0
 11
-53.000022
 21
44.50106
 31
0.0
  0
ARC
  5
45C3
100
AcDbEntity
  8
MSL3_40_3F-0
100
AcDbCircle
 10
-53.000021
 20
43.00106
 30
0.0
 40
1.5
100
AcDbArc
 50
90.00004
 51
180.000039
  0
LINE
  5
45C4
100
AcDbEntity
  8
MSL3_40_3F-0
100
AcDbLine
 10
-48.035062
 20
47.150301
 30
0.0
 11
-49.320638
 21
48.68239
 31
0.0
  0
LINE
  5
45C5
100
AcDbEntity
  8
MSL3_40_3F-0
100
AcDbLine
 10
-49.0
 20
45.040162
 30
0.0
 11
-49.0
 21
45.408007
 31
0.0
  0
ARC
  5
45C6
100
AcDbEntity
  8
MSL3_40_3F-0
100
AcDbCircle
 10
-47.0
 20
45.408007
 30
0.0
 40
2.0
100
AcDbArc
 50
130.0
 51
180.0
1001
GENIUS_GENODEF_13
1002
{
1000
HIER
1070
     0
1002
}
1002
{
1000
MANEDIT
1070
     0
1002
}
1002
{
1000
NOSEL
1070
     0
1002
}
1002
{
1000
BEHIND
1070
     0
1002
}
1002
{
1000
REACTOR
1002
}
1001
GENIUS_GENOBJ-N-FIL_13
1002
{
1000
OWNER
1000
GEN
1002
}
  0
LINE
  5
45C7
100
AcDbEntity
  8
MSL3_40_3F-7
100
AcDbLine
 10
-31.5
 20
36.001062
 30
0.0
 11
-31.5
 21
43.001062
 31
0.0
  0
LINE
  5
45C8
100
AcDbEntity
  8
MSL3_40_3F-7
100
AcDbLine
 10
-31.5
 20
36.001062
 30
0.0
 11
-31.5
 21
29.001062
 31
0.0
  0
LINE
  5
45C9
100
AcDbEntity
  8
MSL3_40_3F-7
100
AcDbLine
 10
-31.5
 20
36.001062
 30
0.0
 11
-38.5
 21
36.001062
 31
0.0
  0
LINE
  5
45CA
100
AcDbEntity
  8
MSL3_40_3F-3
100
AcDbLine
 10
-39.04239
 20
53.390642
 30
0.0
 11
-39.685178
 21
54.156686
 31
0.0
  0
LINE
  5
45CB
100
AcDbEntity
  8
MSL3_40_3F-0
100
AcDbLine
 10
-43.575304
 20
53.503297
 30
0.0
 11
-46.84292
 21
54.286042
 31
0.0
  0
LINE
  5
45CC
100
AcDbEntity
  8
MSL3_40_3F-0
100
AcDbLine
 10
-40.894149
 20
55.753054
 30
0.0
 11
-39.608574
 21
54.220965
 31
0.0
  0
LINE
  5
45CD
100
AcDbEntity
  8
MSL3_40_3F-0
100
AcDbLine
 10
-36.328389
 20
55.667959
 30
0.0
 11
-36.971176
 21
56.434004
 31
0.0
  0
LINE
  5
45CE
100
AcDbEntity
  8
MSL3_40_3F-7
100
AcDbLine
 10
30.47305
 20
65.802801
 30
0.0
 11
16.967606
 21
49.70764
 31
0.0
  0
LINE
  5
45CF
100
AcDbEntity
  8
MSL3_40_3F-3
100
AcDbLine
 10
31.825828
 20
60.751464
 30
0.0
 11
24.112377
 21
51.55893
 31
0.0
  0
LINE
  5
45D0
100
AcDbEntity
  8
MSL3_40_3F-3
100
AcDbLine
 10
32.270727
 20
60.378149
 30
0.0
 11
24.557276
 21
51.185615
 31
0.0
  0
LINE
  5
45D1
100
AcDbEntity
  8
MSL3_40_3F-7
100
AcDbLine
 10
-6.0
 20
20.001062
 30
0.0
 11
6.0
 21
20.001062
 31
0.0
  0
LINE
  5
45D2
100
AcDbEntity
  8
MSL3_40_3F-7
100
AcDbLine
 10
-28.5
 20
20.001062
 30
0.0
 11
-11.5
 21
20.001062
 31
0.0
  0
LINE
  5
45D3
100
AcDbEntity
  8
MSL3_40_3F-7
100
AcDbLine
 10
-20.0
 20
11.501062
 30
0.0
 11
-20.0
 21
28.501062
 31
0.0
  0
CIRCLE
  5
45D4
100
AcDbEntity
  8
MSL3_40_3F-0
100
AcDbCircle
 10
-20.0
 20
20.001062
 30
0.0
 40
3.3
  0
CIRCLE
  5
45D5
100
AcDbEntity
  8
MSL3_40_3F-3
100
AcDbCircle
 10
-20.0
 20
20.001062
 30
0.0
 40
5.5
  0
LINE
  5
45D6
100
AcDbEntity
  8
MSL3_40_3F-7
100
AcDbLine
 10
0.0
 20
26.001062
 30
0.0
 11
0.0
 21
14.001062
 31
0.0
  0
CIRCLE
  5
45D7
100
AcDbEntity
  8
MSL3_40_3F-0
100
AcDbCircle
 10
0.0
 20
20.001062
 30
0.0
 40
3.0
  0
LINE
  5
45D8
100
AcDbEntity
  8
MSL3_40_3F-7
100
AcDbLine
 10
11.5
 20
20.001062
 30
0.0
 11
28.5
 21
20.001062
 31
0.0
  0
CIRCLE
  5
45D9
100
AcDbEntity
  8
MSL3_40_3F-0
100
AcDbCircle
 10
20.0
 20
20.001062
 30
0.0
 40
3.3
  0
CIRCLE
  5
45DA
100
AcDbEntity
  8
MSL3_40_3F-3
100
AcDbCircle
 10
20.0
 20
20.001062
 30
0.0
 40
5.5
  0
LINE
  5
45DB
100
AcDbEntity
  8
MSL3_40_3F-7
100
AcDbLine
 10
20.0
 20
11.501062
 30
0.0
 11
20.0
 21
28.501062
 31
0.0
  0
LINE
  5
45DC
100
AcDbEntity
  8
MSL3_40_3F-3
100
AcDbLine
 10
32.580296
 20
20.001062
 30
0.0
 11
34.0
 21
17.542062
 31
0.0
  0
LINE
  5
45DD
100
AcDbEntity
  8
MSL3_40_3F-3
100
AcDbLine
 10
38.0
 20
17.001062
 30
0.0
 11
38.0
 21
23.001062
 31
0.0
  0
LINE
  5
45DE
100
AcDbEntity
  8
MSL3_40_3F-3
100
AcDbLine
 10
34.0
 20
17.542062
 30
0.0
 11
34.0
 21
22.460062
 31
0.0
  0
LINE
  5
45DF
100
AcDbEntity
  8
MSL3_40_3F-3
100
AcDbLine
 10
32.580296
 20
20.001062
 30
0.0
 11
34.0
 21
22.460062
 31
0.0
  0
LINE
  5
45E0
100
AcDbEntity
  8
MSL3_40_3F-7
100
AcDbLine
 10
31.5
 20
36.001062
 30
0.0
 11
31.5
 21
43.001062
 31
0.0
  0
LINE
  5
45E1
100
AcDbEntity
  8
MSL3_40_3F-7
100
AcDbLine
 10
31.5
 20
36.001062
 30
0.0
 11
24.5
 21
36.001062
 31
0.0
  0
LINE
  5
45E2
100
AcDbEntity
  8
MSL3_40_3F-7
100
AcDbLine
 10
31.5
 20
36.001062
 30
0.0
 11
38.5
 21
36.001062
 31
0.0
  0
LINE
  5
45E3
100
AcDbEntity
  8
MSL3_40_3F-7
100
AcDbLine
 10
31.5
 20
36.001062
 30
0.0
 11
31.5
 21
29.001062
 31
0.0
  0
LINE
  5
45E4
100
AcDbEntity
  8
MSL3_40_3F-7
100
AcDbLine
 10
0.0
 20
62.001062
 30
0.0
 11
8.580296
 21
62.001062
 31
0.0
  0
LINE
  5
45E5
100
AcDbEntity
  8
MSL3_40_3F-0
100
AcDbLine
 10
6.965356
 20
81.001062
 30
0.0
 11
0.0
 21
81.001062
 31
0.0
  0
LINE
  5
45E6
100
AcDbEntity
  8
MSL3_40_3F-0
100
AcDbLine
 10
6.965356
 20
80.001062
 30
0.0
 11
0.0
 21
80.001062
 31
0.0
  0
LINE
  5
45E7
100
AcDbEntity
  8
MSL3_40_3F-0
100
AcDbLine
 10
-7.335221
 20
80.001062
 30
0.0
 11
7.335221
 21
80.001062
 31
0.0
  0
LINE
  5
45E8
100
AcDbEntity
  8
MSL3_40_3F-3
100
AcDbLine
 10
-24.818647
 20
66.631187
 30
0.0
 11
-17.105196
 21
57.438653
 31
0.0
  0
LINE
  5
45E9
100
AcDbEntity
  8
MSL3_40_3F-3
100
AcDbLine
 10
-25.263547
 20
66.257872
 30
0.0
 11
-17.550095
 21
57.065338
 31
0.0
  0
LINE
  5
45EA
100
AcDbEntity
  8
MSL3_40_3F-0
100
AcDbLine
 10
-19.475411
 20
69.809287
 30
0.0
 11
-20.118198
 21
70.575331
 31
0.0
  0
LINE
  5
45EB
100
AcDbEntity
  8
MSL3_40_3F-7
100
AcDbLine
 10
0.0
 20
62.001062
 30
0.0
 11
0.0
 21
70.581358
 31
0.0
  0
LINE
  5
45EC
100
AcDbEntity
  8
MSL3_40_3F-7
100
AcDbLine
 10
0.0
 20
62.001062
 30
0.0
 11
-8.580296
 21
62.001062
 31
0.0
  0
LINE
  5
45ED
100
AcDbEntity
  8
MSL3_40_3F-7
100
AcDbLine
 10
0.0
 20
62.001062
 30
0.0
 11
0.0
 21
53.420766
 31
0.0
  0
LINE
  5
45EE
100
AcDbEntity
  8
MSL3_40_3F-0
100
AcDbLine
 10
-6.965356
 20
81.001062
 30
0.0
 11
0.0
 21
81.001062
 31
0.0
  0
LINE
  5
45EF
100
AcDbEntity
  8
MSL3_40_3F-0
100
AcDbLine
 10
-6.965356
 20
80.001062
 30
0.0
 11
0.0
 21
80.001062
 31
0.0
  0
ARC
  5
45F0
100
AcDbEntity
  8
MSL3_40_3F-0
100
AcDbCircle
 10
-6.965356
 20
79.001062
 30
0.0
 40
2.0
100
AcDbArc
 50
90.0
 51
130.0
1001
GENIUS_GENODEF_13
1002
{
1000
HIER
1070
     0
1002
}
1002
{
1000
MANEDIT
1070
     0
1002
}
1002
{
1000
NOSEL
1070
     0
1002
}
1002
{
1000
BEHIND
1070
     0
1002
}
1002
{
1000
REACTOR
1002
}
1001
GENIUS_GENOBJ-N-FIL_13
1002
{
1000
OWNER
1000
GEN
1002
}
  0
LINE
  5
45F1
100
AcDbEntity
  8
MSL3_40_3F-3
100
AcDbLine
 10
25.263547
 20
66.257872
 30
0.0
 11
17.550095
 21
57.065338
 31
0.0
  0
LINE
  5
45F2
100
AcDbEntity
  8
MSL3_40_3F-3
100
AcDbLine
 10
24.818647
 20
66.631187
 30
0.0
 11
17.105196
 21
57.438653
 31
0.0
  0
LINE
  5
45F3
100
AcDbEntity
  8
MSL3_40_3F-3
100
AcDbLine
 10
19.475411
 20
69.809287
 30
0.0
 11
20.118198
 21
70.575331
 31
0.0
  0
LINE
  5
45F4
100
AcDbEntity
  8
MSL3_40_3F-3
100
AcDbLine
 10
36.328389
 20
55.667959
 30
0.0
 11
36.971176
 21
56.434004
 31
0.0
  0
ARC
  5
45F5
100
AcDbEntity
  8
MSL3_40_3F-0
100
AcDbCircle
 10
6.965356
 20
79.001062
 30
0.0
 40
2.0
100
AcDbArc
 50
50.0
 51
90.0
1001
GENIUS_GENODEF_13
1002
{
1000
HIER
1070
     0
1002
}
1002
{
1000
MANEDIT
1070
     0
1002
}
1002
{
1000
NOSEL
1070
     0
1002
}
1002
{
1000
BEHIND
1070
     0
1002
}
1002
{
1000
REACTOR
1002
}
1001
GENIUS_GENOBJ-N-FIL_13
1002
{
1000
OWNER
1000
GEN
1002
}
  0
LINE
  5
45F6
100
AcDbEntity
  8
MSL3_40_3F-7
100
AcDbLine
 10
174.651759
 20
-117.66554
 30
0.0
 11
190.379759
 21
-117.66554
 31
0.0
1001
GENIUS_GENODEF_13
1002
{
1000
HIER
1070
     0
1002
}
1002
{
1000
MANEDIT
1070
     0
1002
}
1002
{
1000
NOSEL
1070
     0
1002
}
1002
{
1000
BEHIND
1070
     0
1002
}
1002
{
1000
REACTOR
1002
}
1001
GENIUS_GENOBJ-N-CEN_13
1002
{
1000
OWNER
1000
GEN
1002
}
  0
LINE
  5
45F7
100
AcDbEntity
  8
MSL3_40_3F-7
100
AcDbLine
 10
180.800805
 20
-114.710227
 30
0.0
 11
151.052239
 21
-114.710227
 31
0.0
  0
LINE
  5
45F8
100
AcDbEntity
  8
MSL3_40_3F-7
100
AcDbLine
 10
130.015759
 20
-111.210227
 30
0.0
 11
180.239527
 21
-111.210227
 31
0.0
  0
LINE
  5
45F9
100
AcDbEntity
  8
MSL3_40_3F-7
100
AcDbLine
 10
175.015759
 20
-146.210227
 30
0.0
 11
190.015759
 21
-146.210227
 31
0.0
  0
LINE
  5
45FA
100
AcDbEntity
  8
MSL3_40_3F-7
100
AcDbLine
 10
130.015759
 20
-146.210227
 30
0.0
 11
180.239527
 21
-146.210227
 31
0.0
1001
GENIUS_GENOREF_13
1005
4913
  0
LINE
  5
45FB
100
AcDbEntity
  8
MSL3_40_3F-7
100
AcDbLine
 10
146.921809
 20
-177.710227
 30
0.0
 11
179.526616
 21
-177.710227
 31
0.0
  0
LINE
  5
45FC
100
AcDbEntity
  8
MSL3_40_3F-7
100
AcDbLine
 10
130.015759
 20
-181.210227
 30
0.0
 11
180.239527
 21
-181.210227
 31
0.0
  0
LINE
  5
45FD
100
AcDbEntity
  8
MSL3_40_3F-0
100
AcDbLine
 10
173.515759
 20
-109.239051
 30
0.0
 11
192.215759
 21
-109.239051
 31
0.0
  0
ELLIPSE
  5
45FE
100
AcDbEntity
  8
MSL3_40_3F-4
100
AcDbEllipse
 10
182.515759
 20
-117.66554
 30
0.0
 11
4.863999999999975
 21
0.0
 31
0.0
210
0.0
220
0.0
230
1.0
 40
0.766044
 41
-1.637716455833842
 42
3.255308282467196
  0
LINE
  5
45FF
100
AcDbEntity
  8
MSL3_40_3F-0
100
AcDbLine
 10
173.515759
 20
-126.092029
 30
0.0
 11
192.215759
 21
-126.092029
 31
0.0
  0
TEXT
  5
4600
100
AcDbEntity
  8
MSL3_40_3F-6
100
AcDbText
 10
174.748145
 20
-151.219866
 30
0.0
 40
3.5
  1
MSL3-40-3F
100
AcDbText
  0
LINE
  5
4601
100
AcDbEntity
  8
MSL3_40_3F-0
100
AcDbLine
 10
173.515759
 20
-97.210227
 30
0.0
 11
266.911241
 21
-97.210227
 31
0.0
  0
LINE
  5
4602
100
AcDbEntity
  8
MSL3_40_3F-0
100
AcDbLine
 10
173.515759
 20
-195.210227
 30
0.0
 11
214.911241
 21
-195.210227
 31
0.0
  0
LINE
  5
4603
100
AcDbEntity
  8
MSL3_40_3F-4
100
AcDbLine
 10
173.515759
 20
-139.244872
 30
0.0
 11
312.515759
 21
-139.244872
 31
0.0
  0
LINE
  5
4604
100
AcDbEntity
  8
MSL3_40_3F-4
100
AcDbLine
 10
173.515759
 20
-153.175583
 30
0.0
 11
312.515759
 21
-153.175583
 31
0.0
  0
LINE
  5
4605
100
AcDbEntity
  8
MSL3_40_3F-0
100
AcDbLine
 10
173.015759
 20
-96.210227
 30
0.0
 11
313.015759
 21
-96.210227
 31
0.0
  0
LINE
  5
4606
100
AcDbEntity
  8
MSL3_40_3F-0
100
AcDbLine
 10
313.015759
 20
-196.210227
 30
0.0
 11
173.015759
 21
-196.210227
 31
0.0
  0
LINE
  5
4607
100
AcDbEntity
  8
MSL3_40_3F-7
100
AcDbLine
 10
147.015759
 20
-176.291408
 30
0.0
 11
147.015759
 21
-186.321522
 31
0.0
  0
LINE
  5
4608
100
AcDbEntity
  8
MSL3_40_3F-7
100
AcDbLine
 10
139.015759
 20
-175.790812
 30
0.0
 11
139.015759
 21
-199.210227
 31
0.0
  0
LINE
  5
4609
100
AcDbEntity
  8
MSL3_40_3F-3
100
AcDbLine
 10
142.015759
 20
-196.210227
 30
0.0
 11
142.015759
 21
-184.210227
 31
0.0
  0
LINE
  5
460A
100
AcDbEntity
  8
MSL3_40_3F-3
100
AcDbLine
 10
136.015759
 20
-196.210227
 30
0.0
 11
136.015759
 21
-184.210227
 31
0.0
  0
ARC
  5
460B
100
AcDbEntity
  8
MSL3_40_3F-0
100
AcDbCircle
 10
167.453594
 20
-183.339392
 30
0.0
 40
2.562165
100
AcDbArc
 50
312.916664
 51
47.083336
  0
ARC
  5
460C
100
AcDbEntity
  8
MSL3_40_3F-0
100
AcDbCircle
 10
173.124439
 20
-185.071443
 30
0.0
 40
3.108681
100
AcDbArc
 50
127.878142
 51
232.121858
  0
ARC
  5
460D
100
AcDbEntity
  8
MSL3_40_3F-0
100
AcDbCircle
 10
157.222703
 20
-183.339392
 30
0.0
 40
2.293056
100
AcDbArc
 50
305.085848
 51
54.914152
  0
ARC
  5
460E
100
AcDbEntity
  8
MSL3_40_3F-0
100
AcDbCircle
 10
155.308814
 20
-183.339392
 30
0.0
 40
2.293056
100
AcDbArc
 50
125.085847
 51
234.914153
  0
LINE
  5
460F
100
AcDbEntity
  8
MSL3_40_3F-3
100
AcDbLine
 10
141.474259
 20
-196.210227
 30
0.0
 11
141.474259
 21
-180.210227
 31
0.0
  0
LINE
  5
4610
100
AcDbEntity
  8
MSL3_40_3F-3
100
AcDbLine
 10
136.557259
 20
-196.210227
 30
0.0
 11
136.557259
 21
-180.210227
 31
0.0
  0
LINE
  5
4611
100
AcDbEntity
  8
MSL3_40_3F-0
100
AcDbLine
 10
173.015759
 20
-167.910227
 30
0.0
 11
173.015759
 21
-187.510227
 31
0.0
  0
LINE
  5
4612
100
AcDbEntity
  8
MSL3_40_3F-0
100
AcDbLine
 10
170.015759
 20
-170.349011
 30
0.0
 11
170.015759
 21
-185.071443
 31
0.0
  0
LINE
  5
4613
100
AcDbEntity
  8
MSL3_40_3F-0
100
AcDbLine
 10
166.015759
 20
-170.204674
 30
0.0
 11
166.015759
 21
-185.215781
 31
0.0
  0
LINE
  5
4614
100
AcDbEntity
  8
MSL3_40_3F-0
100
AcDbLine
 10
173.515759
 20
-195.210227
 30
0.0
 11
173.515759
 21
-126.092029
 31
0.0
  0
LINE
  5
4615
100
AcDbEntity
  8
MSL3_40_3F-0
100
AcDbLine
 10
173.015759
 20
-196.210227
 30
0.0
 11
173.015759
 21
-96.210227
 31
0.0
  0
LINE
  5
4616
100
AcDbEntity
  8
MSL3_40_3F-0
100
AcDbLine
 10
153.015759
 20
-196.210227
 30
0.0
 11
153.015759
 21
-96.210227
 31
0.0
  0
LINE
  5
4617
100
AcDbEntity
  8
MSL3_40_3F-0
100
AcDbLine
 10
133.015759
 20
-96.210227
 30
0.0
 11
133.015759
 21
-196.210227
 31
0.0
  0
LINE
  5
4618
100
AcDbEntity
  8
MSL3_40_3F-0
100
AcDbLine
 10
133.015759
 20
-196.210227
 30
0.0
 11
153.015759
 21
-196.210227
 31
0.0
  0
LINE
  5
4619
100
AcDbEntity
  8
MSL3_40_3F-0
100
AcDbLine
 10
153.015759
 20
-189.210227
 30
0.0
 11
173.015759
 21
-189.210227
 31
0.0
  0
LINE
  5
461A
100
AcDbEntity
  8
MSL3_40_3F-0
100
AcDbLine
 10
158.540759
 20
-185.215781
 30
0.0
 11
153.990759
 21
-185.215781
 31
0.0
  0
LINE
  5
461B
100
AcDbEntity
  8
MSL3_40_3F-0
100
AcDbLine
 10
166.015759
 20
-185.215781
 30
0.0
 11
169.198259
 21
-185.215781
 31
0.0
  0
LINE
  5
461C
100
AcDbEntity
  8
MSL3_40_3F-0
100
AcDbLine
 10
173.015759
 20
-187.510227
 30
0.0
 11
171.196687
 21
-187.510227
 31
0.0
  0
LINE
  5
461D
100
AcDbEntity
  8
MSL3_40_3F-0
100
AcDbLine
 10
154.015759
 20
-138.210227
 30
0.0
 11
154.015759
 21
-135.710227
 31
0.0
1001
GENIUS_GENOREF_13
1005
4913
  0
LINE
  5
461E
100
AcDbEntity
  8
MSL3_40_3F-0
100
AcDbLine
 10
155.015759
 20
-134.710227
 30
0.0
 11
155.015759
 21
-138.210227
 31
0.0
1001
GENIUS_GENOREF_13
1005
4913
  0
LINE
  5
461F
100
AcDbEntity
  8
MSL3_40_3F-7
100
AcDbLine
 10
130.015759
 20
-166.210227
 30
0.0
 11
156.015759
 21
-166.210227
 31
0.0
  0
LINE
  5
4620
100
AcDbEntity
  8
MSL3_40_3F-0
100
AcDbLine
 10
133.015759
 20
-153.545449
 30
0.0
 11
153.015759
 21
-153.545449
 31
0.0
  0
LINE
  5
4621
100
AcDbEntity
  8
MSL3_40_3F-0
100
AcDbLine
 10
133.015759
 20
-138.875006
 30
0.0
 11
153.015759
 21
-138.875006
 31
0.0
  0
LINE
  5
4622
100
AcDbEntity
  8
MSL3_40_3F-3
100
AcDbLine
 10
133.015759
 20
-163.210227
 30
0.0
 11
153.015759
 21
-163.210227
 31
0.0
  0
LINE
  5
4623
100
AcDbEntity
  8
MSL3_40_3F-3
100
AcDbLine
 10
133.015759
 20
-169.210227
 30
0.0
 11
153.015759
 21
-169.210227
 31
0.0
  0
LINE
  5
4624
100
AcDbEntity
  8
MSL3_40_3F-3
100
AcDbLine
 10
139.015759
 20
-178.790812
 30
0.0
 11
136.557259
 21
-180.210227
 31
0.0
  0
LINE
  5
4625
100
AcDbEntity
  8
MSL3_40_3F-3
100
AcDbLine
 10
139.015759
 20
-178.790812
 30
0.0
 11
141.474259
 21
-180.210227
 31
0.0
  0
LINE
  5
4626
100
AcDbEntity
  8
MSL3_40_3F-3
100
AcDbLine
 10
141.474259
 20
-180.210227
 30
0.0
 11
136.557259
 21
-180.210227
 31
0.0
  0
LINE
  5
4627
100
AcDbEntity
  8
MSL3_40_3F-3
100
AcDbLine
 10
142.015759
 20
-184.210227
 30
0.0
 11
136.015759
 21
-184.210227
 31
0.0
  0
LINE
  5
4628
100
AcDbEntity
  8
MSL3_40_3F-0
100
AcDbLine
 10
159.515759
 20
-173.210227
 30
0.0
 11
166.015759
 21
-173.210227
 31
0.0
  0
LINE
  5
4629
100
AcDbEntity
  8
MSL3_40_3F-0
100
AcDbLine
 10
159.515759
 20
-173.710227
 30
0.0
 11
166.015759
 21
-173.710227
 31
0.0
  0
LINE
  5
462A
100
AcDbEntity
  8
MSL3_40_3F-0
100
AcDbLine
 10
159.515759
 20
-181.710227
 30
0.0
 11
166.015759
 21
-181.710227
 31
0.0
  0
LINE
  5
462B
100
AcDbEntity
  8
MSL3_40_3F-0
100
AcDbLine
 10
159.515759
 20
-183.339392
 30
0.0
 11
159.515759
 21
-172.081062
 31
0.0
  0
LINE
  5
462C
100
AcDbEntity
  8
MSL3_40_3F-0
100
AcDbLine
 10
153.015759
 20
-183.339392
 30
0.0
 11
153.015759
 21
-172.081062
 31
0.0
  0
ARC
  5
462D
100
AcDbEntity
  8
MSL3_40_3F-0
100
AcDbCircle
 10
157.222703
 20
-172.081062
 30
0.0
 40
2.293056
100
AcDbArc
 50
305.085848
 51
54.914152
  0
ARC
  5
462E
100
AcDbEntity
  8
MSL3_40_3F-0
100
AcDbCircle
 10
155.308814
 20
-172.081062
 30
0.0
 40
2.293056
100
AcDbArc
 50
125.085847
 51
234.914153
  0
CIRCLE
  5
462F
100
AcDbEntity
  8
MSL3_40_3F-3
100
AcDbCircle
 10
147.015759
 20
-181.210227
 30
0.0
 40
2.5
  0
ARC
  5
4630
100
AcDbEntity
  8
MSL3_40_3F-3
100
AcDbCircle
 10
147.015759
 20
-181.210227
 30
0.0
 40
3.0
100
AcDbArc
 50
251.265343
 51
200.571702
  0
ARC
  5
4631
100
AcDbEntity
  8
MSL3_40_3F-0
100
AcDbCircle
 10
151.806036
 20
-177.710227
 30
0.0
 40
7.709722
100
AcDbArc
 50
330.872218
 51
29.127782
  0
ARC
  5
4632
100
AcDbEntity
  8
MSL3_40_3F-0
100
AcDbCircle
 10
160.725481
 20
-177.710227
 30
0.0
 40
7.709722
100
AcDbArc
 50
150.872216
 51
209.127784
  0
LINE
  5
4633
100
AcDbEntity
  8
MSL3_40_3F-0
100
AcDbLine
 10
158.540759
 20
-173.95745
 30
0.0
 11
153.990759
 21
-173.95745
 31
0.0
  0
LINE
  5
4634
100
AcDbEntity
  8
MSL3_40_3F-0
100
AcDbLine
 10
158.540759
 20
-181.463004
 30
0.0
 11
153.990759
 21
-181.463004
 31
0.0
  0
LINE
  5
4635
100
AcDbEntity
  8
MSL3_40_3F-0
100
AcDbLine
 10
158.540759
 20
-170.204674
 30
0.0
 11
153.990759
 21
-170.204674
 31
0.0
  0
LINE
  5
4636
100
AcDbEntity
  8
MSL3_40_3F-0
100
AcDbLine
 10
170.015759
 20
-172.081062
 30
0.0
 11
170.015759
 21
-183.339392
 31
0.0
  0
ARC
  5
4637
100
AcDbEntity
  8
MSL3_40_3F-0
100
AcDbCircle
 10
167.453594
 20
-172.081062
 30
0.0
 40
2.562165
100
AcDbArc
 50
312.916664
 51
47.083336
  0
ARC
  5
4638
100
AcDbEntity
  8
MSL3_40_3F-0
100
AcDbCircle
 10
173.124439
 20
-170.349011
 30
0.0
 40
3.108681
100
AcDbArc
 50
127.878142
 51
232.121858
  0
ARC
  5
4639
100
AcDbEntity
  8
MSL3_40_3F-0
100
AcDbCircle
 10
160.993349
 20
-177.710227
 30
0.0
 40
9.02241
100
AcDbArc
 50
335.421503
 51
24.578497
  0
LINE
  5
463A
100
AcDbEntity
  8
MSL3_40_3F-0
100
AcDbLine
 10
169.198259
 20
-173.95745
 30
0.0
 11
166.015759
 21
-173.95745
 31
0.0
  0
LINE
  5
463B
100
AcDbEntity
  8
MSL3_40_3F-0
100
AcDbLine
 10
169.198259
 20
-181.463004
 30
0.0
 11
166.015759
 21
-181.463004
 31
0.0
  0
LINE
  5
463C
100
AcDbEntity
  8
MSL3_40_3F-0
100
AcDbLine
 10
171.215759
 20
-172.80275
 30
0.0
 11
173.015759
 21
-172.80275
 31
0.0
  0
LINE
  5
463D
100
AcDbEntity
  8
MSL3_40_3F-0
100
AcDbLine
 10
171.215759
 20
-182.617704
 30
0.0
 11
173.015759
 21
-182.617704
 31
0.0
  0
ARC
  5
463E
100
AcDbEntity
  8
MSL3_40_3F-0
100
AcDbCircle
 10
180.650481
 20
-177.710227
 30
0.0
 40
10.634722
100
AcDbArc
 50
152.518771
 51
207.481229
  0
LINE
  5
463F
100
AcDbEntity
  8
MSL3_40_3F-0
100
AcDbLine
 10
169.198259
 20
-170.204674
 30
0.0
 11
166.015759
 21
-170.204674
 31
0.0
  0
LINE
  5
4640
100
AcDbEntity
  8
MSL3_40_3F-0
100
AcDbLine
 10
171.196687
 20
-167.910227
 30
0.0
 11
173.015759
 21
-167.910227
 31
0.0
  0
LINE
  5
4641
100
AcDbEntity
  8
MSL3_40_3F-0
100
AcDbLine
 10
153.015759
 20
-138.210227
 30
0.0
 11
173.015759
 21
-138.210227
 31
0.0
  0
LINE
  5
4642
100
AcDbEntity
  8
MSL3_40_3F-0
100
AcDbLine
 10
153.015759
 20
-154.210227
 30
0.0
 11
173.015759
 21
-154.210227
 31
0.0
  0
LINE
  5
4643
100
AcDbEntity
  8
MSL3_40_3F-0
100
AcDbLine
 10
173.015759
 20
-157.710227
 30
0.0
 11
155.015759
 21
-157.710227
 31
0.0
  0
LINE
  5
4644
100
AcDbEntity
  8
MSL3_40_3F-3
100
AcDbLine
 10
154.015759
 20
-154.210227
 30
0.0
 11
154.015759
 21
-138.210227
 31
0.0
1001
GENIUS_GENBH_13
1002
{
1000
OE
1000
CON1
1002
}
1001
GENIUS_GENOREF_13
1005
4913
  0
LINE
  5
4645
100
AcDbEntity
  8
MSL3_40_3F-3
100
AcDbLine
 10
155.015759
 20
-138.210227
 30
0.0
 11
155.015759
 21
-154.210227
 31
0.0
1001
GENIUS_GENBH_13
1002
{
1000
OE
1000
CON1
1002
}
1001
GENIUS_GENOREF_13
1005
4913
  0
LINE
  5
4646
100
AcDbEntity
  8
MSL3_40_3F-0
100
AcDbLine
 10
155.015759
 20
-154.210227
 30
0.0
 11
155.015759
 21
-157.710227
 31
0.0
1001
GENIUS_GENOREF_13
1005
4913
  0
LINE
  5
4647
100
AcDbEntity
  8
MSL3_40_3F-3
100
AcDbLine
 10
154.015759
 20
-150.210227
 30
0.0
 11
153.015759
 21
-150.210227
 31
0.0
1001
GENIUS_GENBH_13
1002
{
1000
OE
1000
CON1
1002
}
1001
GENIUS_GENOREF_13
1005
4913
  0
LINE
  5
4648
100
AcDbEntity
  8
MSL3_40_3F-0
100
AcDbLine
 10
154.015759
 20
-156.710227
 30
0.0
 11
154.015759
 21
-154.210227
 31
0.0
1001
GENIUS_GENOREF_13
1005
4913
  0
LINE
  5
4649
100
AcDbEntity
  8
MSL3_40_3F-0
100
AcDbLine
 10
155.015759
 20
-157.710227
 30
0.0
 11
154.015759
 21
-156.710227
 31
0.0
  0
LINE
  5
464A
100
AcDbEntity
  8
MSL3_40_3F-3
100
AcDbLine
 10
153.015759
 20
-142.210227
 30
0.0
 11
154.015759
 21
-142.210227
 31
0.0
1001
GENIUS_GENBH_13
1002
{
1000
OE
1000
CON1
1002
}
1001
GENIUS_GENOREF_13
1005
4913
  0
LINE
  5
464B
100
AcDbEntity
  8
MSL3_40_3F-7
100
AcDbLine
 10
130.015759
 20
-126.210227
 30
0.0
 11
156.015759
 21
-126.210227
 31
0.0
  0
LINE
  5
464C
100
AcDbEntity
  8
MSL3_40_3F-3
100
AcDbLine
 10
148.015759
 20
-122.910227
 30
0.0
 11
133.015759
 21
-122.910227
 31
0.0
  0
LINE
  5
464D
100
AcDbEntity
  8
MSL3_40_3F-3
100
AcDbLine
 10
133.015759
 20
-129.510227
 30
0.0
 11
148.015759
 21
-129.510227
 31
0.0
  0
LINE
  5
464E
100
AcDbEntity
  8
MSL3_40_3F-0
100
AcDbLine
 10
153.015759
 20
-96.210227
 30
0.0
 11
133.015759
 21
-96.210227
 31
0.0
  0
LINE
  5
464F
100
AcDbEntity
  8
MSL3_40_3F-7
100
AcDbLine
 10
139.015759
 20
-116.629643
 30
0.0
 11
139.015759
 21
-93.210227
 31
0.0
  0
LINE
  5
4650
100
AcDbEntity
  8
MSL3_40_3F-3
100
AcDbLine
 10
139.015759
 20
-113.629643
 30
0.0
 11
141.474259
 21
-112.210227
 31
0.0
  0
LINE
  5
4651
100
AcDbEntity
  8
MSL3_40_3F-3
100
AcDbLine
 10
139.015759
 20
-113.629643
 30
0.0
 11
136.557259
 21
-112.210227
 31
0.0
  0
LINE
  5
4652
100
AcDbEntity
  8
MSL3_40_3F-3
100
AcDbLine
 10
142.015759
 20
-96.210227
 30
0.0
 11
142.015759
 21
-108.210227
 31
0.0
  0
LINE
  5
4653
100
AcDbEntity
  8
MSL3_40_3F-3
100
AcDbLine
 10
136.015759
 20
-96.210227
 30
0.0
 11
136.015759
 21
-108.210227
 31
0.0
  0
LINE
  5
4654
100
AcDbEntity
  8
MSL3_40_3F-3
100
AcDbLine
 10
141.474259
 20
-96.210227
 30
0.0
 11
141.474259
 21
-112.210227
 31
0.0
  0
LINE
  5
4655
100
AcDbEntity
  8
MSL3_40_3F-3
100
AcDbLine
 10
136.557259
 20
-96.210227
 30
0.0
 11
136.557259
 21
-112.210227
 31
0.0
  0
LINE
  5
4656
100
AcDbEntity
  8
MSL3_40_3F-3
100
AcDbLine
 10
136.015759
 20
-108.210227
 30
0.0
 11
142.015759
 21
-108.210227
 31
0.0
  0
LINE
  5
4657
100
AcDbEntity
  8
MSL3_40_3F-3
100
AcDbLine
 10
136.557259
 20
-112.210227
 30
0.0
 11
141.474259
 21
-112.210227
 31
0.0
  0
LINE
  5
4658
100
AcDbEntity
  8
MSL3_40_3F-7
100
AcDbLine
 10
147.015759
 20
-106.291408
 30
0.0
 11
147.015759
 21
-116.321522
 31
0.0
  0
LINE
  5
4659
100
AcDbEntity
  8
MSL3_40_3F-0
100
AcDbLine
 10
173.015759
 20
-125.102532
 30
0.0
 11
173.015759
 21
-104.317922
 31
0.0
  0
ARC
  5
465A
100
AcDbEntity
  8
MSL3_40_3F-0
100
AcDbCircle
 10
159.733067
 20
-114.710227
 30
0.0
 40
13.282692
100
AcDbArc
 50
328.560609
 51
31.439391
  0
ARC
  5
465B
100
AcDbEntity
  8
MSL3_40_3F-0
100
AcDbCircle
 10
181.298452
 20
-114.710227
 30
0.0
 40
13.282692
100
AcDbArc
 50
148.560611
 51
211.439389
  0
LINE
  5
465C
100
AcDbEntity
  8
MSL3_40_3F-0
100
AcDbLine
 10
166.015759
 20
-124.710227
 30
0.0
 11
166.015759
 21
-104.710227
 31
0.0
  0
LINE
  5
465D
100
AcDbEntity
  8
MSL3_40_3F-0
100
AcDbLine
 10
165.015759
 20
-123.710227
 30
0.0
 11
165.015759
 21
-105.710227
 31
0.0
  0
LINE
  5
465E
100
AcDbEntity
  8
MSL3_40_3F-0
100
AcDbLine
 10
168.015759
 20
-125.102532
 30
0.0
 11
168.015759
 21
-104.317922
 31
0.0
  0
LINE
  5
465F
100
AcDbEntity
  8
MSL3_40_3F-0
100
AcDbLine
 10
164.015759
 20
-106.210227
 30
0.0
 11
164.015759
 21
-123.210227
 31
0.0
  0
LINE
  5
4660
100
AcDbEntity
  8
MSL3_40_3F-0
100
AcDbLine
 10
154.015759
 20
-123.210227
 30
0.0
 11
154.015759
 21
-106.210227
 31
0.0
  0
LINE
  5
4661
100
AcDbEntity
  8
MSL3_40_3F-0
100
AcDbLine
 10
153.015759
 20
-122.210227
 30
0.0
 11
153.015759
 21
-107.210227
 31
0.0
  0
CIRCLE
  5
4662
100
AcDbEntity
  8
MSL3_40_3F-3
100
AcDbCircle
 10
147.015759
 20
-111.210227
 30
0.0
 40
2.5
  0
ARC
  5
4663
100
AcDbEntity
  8
MSL3_40_3F-3
100
AcDbCircle
 10
147.015759
 20
-111.210227
 30
0.0
 40
3.0
100
AcDbArc
 50
251.265343
 51
200.571702
  0
LINE
  5
4664
100
AcDbEntity
  8
MSL3_40_3F-0
100
AcDbLine
 10
164.015759
 20
-123.210227
 30
0.0
 11
154.015759
 21
-123.210227
 31
0.0
  0
LINE
  5
4665
100
AcDbEntity
  8
MSL3_40_3F-0
100
AcDbLine
 10
155.015759
 20
-134.710227
 30
0.0
 11
173.015759
 21
-134.710227
 31
0.0
  0
LINE
  5
4666
100
AcDbEntity
  8
MSL3_40_3F-3
100
AcDbLine
 10
148.015759
 20
-129.510227
 30
0.0
 11
148.015759
 21
-122.910227
 31
0.0
  0
LINE
  5
4667
100
AcDbEntity
  8
MSL3_40_3F-3
100
AcDbLine
 10
148.015759
 20
-131.710227
 30
0.0
 11
153.015759
 21
-131.710227
 31
0.0
  0
LINE
  5
4668
100
AcDbEntity
  8
MSL3_40_3F-3
100
AcDbLine
 10
148.015759
 20
-129.510227
 30
0.0
 11
148.015759
 21
-131.710227
 31
0.0
  0
LINE
  5
4669
100
AcDbEntity
  8
MSL3_40_3F-0
100
AcDbLine
 10
154.015759
 20
-135.710227
 30
0.0
 11
155.015759
 21
-134.710227
 31
0.0
  0
LINE
  5
466A
100
AcDbEntity
  8
MSL3_40_3F-3
100
AcDbLine
 10
153.015759
 20
-120.710227
 30
0.0
 11
148.015759
 21
-120.710227
 31
0.0
  0
LINE
  5
466B
100
AcDbEntity
  8
MSL3_40_3F-3
100
AcDbLine
 10
148.015759
 20
-120.710227
 30
0.0
 11
148.015759
 21
-122.910227
 31
0.0
  0
LINE
  5
466C
100
AcDbEntity
  8
MSL3_40_3F-0
100
AcDbLine
 10
154.015759
 20
-123.210227
 30
0.0
 11
153.015759
 21
-122.210227
 31
0.0
  0
ARC
  5
466D
100
AcDbEntity
  8
MSL3_40_3F-0
100
AcDbCircle
 10
168.963836
 20
-125.102532
 30
0.0
 40
4.051923
100
AcDbArc
 50
301.248241
 51
58.751759
  0
ARC
  5
466E
100
AcDbEntity
  8
MSL3_40_3F-0
100
AcDbCircle
 10
172.067682
 20
-125.102532
 30
0.0
 40
4.051923
100
AcDbArc
 50
121.248243
 51
238.751757
  0
LINE
  5
466F
100
AcDbEntity
  8
MSL3_40_3F-0
100
AcDbLine
 10
171.065759
 20
-128.566633
 30
0.0
 11
169.965759
 21
-128.566633
 31
0.0
  0
LINE
  5
4670
100
AcDbEntity
  8
MSL3_40_3F-0
100
AcDbLine
 10
164.015759
 20
-119.210227
 30
0.0
 11
165.015759
 21
-119.210227
 31
0.0
  0
LINE
  5
4671
100
AcDbEntity
  8
MSL3_40_3F-0
100
AcDbLine
 10
165.015759
 20
-117.860227
 30
0.0
 11
164.015759
 21
-117.860227
 31
0.0
  0
LINE
  5
4672
100
AcDbEntity
  8
MSL3_40_3F-0
100
AcDbLine
 10
166.015759
 20
-124.710227
 30
0.0
 11
165.015759
 21
-123.710227
 31
0.0
  0
LINE
  5
4673
100
AcDbEntity
  8
MSL3_40_3F-0
100
AcDbLine
 10
168.015759
 20
-124.710227
 30
0.0
 11
166.015759
 21
-124.710227
 31
0.0
  0
LINE
  5
4674
100
AcDbEntity
  8
MSL3_40_3F-0
100
AcDbLine
 10
171.065759
 20
-121.63843
 30
0.0
 11
169.965759
 21
-121.63843
 31
0.0
  0
LINE
  5
4675
100
AcDbEntity
  8
MSL3_40_3F-0
100
AcDbLine
 10
154.015759
 20
-106.210227
 30
0.0
 11
164.015759
 21
-106.210227
 31
0.0
  0
LINE
  5
4676
100
AcDbEntity
  8
MSL3_40_3F-0
100
AcDbLine
 10
168.170107
 20
-103.210227
 30
0.0
 11
153.015759
 21
-103.210227
 31
0.0
  0
LINE
  5
4677
100
AcDbEntity
  8
MSL3_40_3F-0
100
AcDbLine
 10
153.015759
 20
-107.210227
 30
0.0
 11
154.015759
 21
-106.210227
 31
0.0
  0
ARC
  5
4678
100
AcDbEntity
  8
MSL3_40_3F-0
100
AcDbCircle
 10
168.963836
 20
-104.317922
 30
0.0
 40
4.051923
100
AcDbArc
 50
301.248241
 51
58.751759
  0
LINE
  5
4679
100
AcDbEntity
  8
MSL3_40_3F-0
100
AcDbLine
 10
173.515759
 20
-109.239051
 30
0.0
 11
173.515759
 21
-97.210227
 31
0.0
  0
ARC
  5
467A
100
AcDbEntity
  8
MSL3_40_3F-0
100
AcDbCircle
 10
172.067682
 20
-104.317922
 30
0.0
 40
4.051923
100
AcDbArc
 50
121.248243
 51
238.751757
  0
LINE
  5
467B
100
AcDbEntity
  8
MSL3_40_3F-0
100
AcDbLine
 10
165.015759
 20
-105.710227
 30
0.0
 11
166.015759
 21
-104.710227
 31
0.0
  0
LINE
  5
467C
100
AcDbEntity
  8
MSL3_40_3F-0
100
AcDbLine
 10
166.015759
 20
-104.710227
 30
0.0
 11
168.015759
 21
-104.710227
 31
0.0
  0
LINE
  5
467D
100
AcDbEntity
  8
MSL3_40_3F-0
100
AcDbLine
 10
165.015759
 20
-111.560227
 30
0.0
 11
164.015759
 21
-111.560227
 31
0.0
  0
LINE
  5
467E
100
AcDbEntity
  8
MSL3_40_3F-0
100
AcDbLine
 10
171.065759
 20
-107.782024
 30
0.0
 11
169.965759
 21
-107.782024
 31
0.0
  0
LINE
  5
467F
100
AcDbEntity
  8
MSL3_40_3F-0
100
AcDbLine
 10
171.065759
 20
-100.85382
 30
0.0
 11
169.965759
 21
-100.85382
 31
0.0
  0
LINE
  5
4680
100
AcDbEntity
  8
MSL3_40_3F-7
100
AcDbLine
 10
217.015759
 20
-184.104376
 30
0.0
 11
217.015759
 21
-198.530865
 31
0.0
1001
GENIUS_GENODEF_13
1002
{
1000
HIER
1070
     0
1002
}
1002
{
1000
MANEDIT
1070
     0
1002
}
1002
{
1000
NOSEL
1070
     0
1002
}
1002
{
1000
BEHIND
1070
     0
1002
}
1002
{
1000
REACTOR
1002
}
1001
GENIUS_GENOBJ-N-CEN_13
1002
{
1000
OWNER
1000
GEN
1002
}
  0
LINE
  5
4681
100
AcDbEntity
  8
MSL3_40_3F-7
100
AcDbLine
 10
243.015759
 20
-199.210227
 30
0.0
 11
243.015759
 21
-181.478177
 31
0.0
  0
LINE
  5
4682
100
AcDbEntity
  8
MSL3_40_3F-7
100
AcDbLine
 10
263.015759
 20
-175.790812
 30
0.0
 11
263.015759
 21
-199.210227
 31
0.0
  0
LINE
  5
4683
100
AcDbEntity
  8
MSL3_40_3F-7
100
AcDbLine
 10
223.015759
 20
-175.790812
 30
0.0
 11
223.015759
 21
-199.210227
 31
0.0
  0
LINE
  5
4684
100
AcDbEntity
  8
MSL3_40_3F-0
100
AcDbLine
 10
312.515759
 20
-195.210227
 30
0.0
 11
312.515759
 21
-183.181404
 31
0.0
  0
ARC
  5
4685
100
AcDbEntity
  8
MSL3_40_3F-0
100
AcDbCircle
 10
326.298451
 20
-177.710227
 30
0.0
 40
13.282692
100
AcDbArc
 50
148.560609
 51
211.439391
  0
LINE
  5
4686
100
AcDbEntity
  8
MSL3_40_3F-0
100
AcDbLine
 10
313.015759
 20
-96.210227
 30
0.0
 11
313.015759
 21
-196.210227
 31
0.0
  0
LINE
  5
4687
100
AcDbEntity
  8
MSL3_40_3F-0
100
AcDbLine
 10
219.120277
 20
-195.210227
 30
0.0
 11
312.515759
 21
-195.210227
 31
0.0
  0
LINE
  5
4688
100
AcDbEntity
  8
MSL3_40_3F-7
100
AcDbLine
 10
208.515759
 20
-191.317632
 30
0.0
 11
225.515759
 21
-191.317618
 31
0.0
1001
GENIUS_GENODEF_13
1002
{
1000
HIER
1070
     0
1002
}
1002
{
1000
MANEDIT
1070
     0
1002
}
1002
{
1000
NOSEL
1070
     0
1002
}
1002
{
1000
BEHIND
1070
     0
1002
}
1002
{
1000
REACTOR
1002
}
1001
GENIUS_GENOBJ-N-CEN_13
1002
{
1000
OWNER
1000
GEN
1002
}
  0
ELLIPSE
  5
4689
100
AcDbEntity
  8
MSL3_40_3F-0
100
AcDbEllipse
 10
217.015756
 20
-189.582103
 30
0.0
 11
5.499999999998895
 21
0.0000090659728525
 31
0.0
210
0.0
220
0.0
230
-1.0
 40
0.766044
 41
3.141592653589787
 42
6.28318530717975
  0
ELLIPSE
  5
468A
100
AcDbEntity
  8
MSL3_40_3F-0
100
AcDbEllipse
 10
217.015759
 20
-191.317621
 30
0.0
 11
5.500000000006366
 21
0.0
 31
0.0
210
0.0
220
0.0
230
1.0
 40
0.766044
 41
0.0
 42
6.2831853071796
  0
LINE
  5
468B
100
AcDbEntity
  8
MSL3_40_3F-0
100
AcDbLine
 10
211.515756
 20
-189.582103
 30
0.0
 11
211.515759
 21
-191.317648
 31
0.0
  0
LINE
  5
468C
100
AcDbEntity
  8
MSL3_40_3F-0
100
AcDbLine
 10
234.017102
 20
-200.710221
 30
0.0
 11
226.017102
 21
-200.710226
 31
0.0
  0
LINE
  5
468D
100
AcDbEntity
  8
MSL3_40_3F-7
100
AcDbLine
 10
219.515764
 20
-203.49896
 30
0.0
 11
219.515756
 21
-192.306233
 31
0.0
  0
LINE
  5
468E
100
AcDbEntity
  8
MSL3_40_3F-0
100
AcDbLine
 10
225.017099
 20
-196.210227
 30
0.0
 11
225.017101
 21
-199.210211
 31
0.0
  0
LINE
  5
468F
100
AcDbEntity
  8
MSL3_40_3F-0
100
AcDbLine
 10
214.017101
 20
-199.210219
 30
0.0
 11
214.017099
 21
-196.210227
 31
0.0
  0
LINE
  5
4690
100
AcDbEntity
  8
MSL3_40_3F-0
100
AcDbLine
 10
223.517102
 20
-200.710212
 30
0.0
 11
215.517102
 21
-200.710218
 31
0.0
  0
ARC
  5
4691
100
AcDbEntity
  8
MSL3_40_3F-0
100
AcDbCircle
 10
215.517101
 20
-199.210218
 30
0.0
 40
1.5
100
AcDbArc
 50
180.000038
 51
270.000041
  0
LINE
  5
4692
100
AcDbEntity
  8
MSL3_40_3F-0
100
AcDbLine
 10
223.517102
 20
-200.710212
 30
0.0
 11
223.517102
 21
-200.710212
 31
0.0
  0
ARC
  5
4693
100
AcDbEntity
  8
MSL3_40_3F-0
100
AcDbCircle
 10
226.017101
 20
-199.210226
 30
0.0
 40
1.5
100
AcDbArc
 50
213.556991
 51
270.000041
  0
ARC
  5
4694
100
AcDbEntity
  8
MSL3_40_3F-0
100
AcDbCircle
 10
223.517101
 20
-199.210212
 30
0.0
 40
1.5
100
AcDbArc
 50
270.000041
 51
0.00004
  0
ELLIPSE
  5
4695
100
AcDbEntity
  8
MSL3_40_3F-0
100
AcDbEllipse
 10
217.015759
 20
-191.317621
 30
0.0
 11
2.000000000006366
 21
0.0
 31
0.0
210
0.0
220
0.0
230
1.0
 40
0.766044
 41
0.0
 42
6.2831853071796
  0
LINE
  5
4696
100
AcDbEntity
  8
MSL3_40_3F-0
100
AcDbLine
 10
217.015761
 20
-192.603205
 30
0.0
 11
219.015759
 21
-191.317626
 31
0.0
  0
LINE
  5
4697
100
AcDbEntity
  8
MSL3_40_3F-0
100
AcDbLine
 10
215.015759
 20
-191.317638
 30
0.0
 11
217.015761
 21
-192.603205
 31
0.0
  0
LINE
  5
4698
100
AcDbEntity
  8
MSL3_40_3F-0
100
AcDbLine
 10
222.515756
 20
-189.582094
 30
0.0
 11
222.515759
 21
-191.317621
 31
0.0
  0
LINE
  5
4699
100
AcDbEntity
  8
MSL3_40_3F-7
100
AcDbLine
 10
230.015764
 20
-203.498969
 30
0.0
 11
230.015756
 21
-192.306242
 31
0.0
  0
LINE
  5
469A
100
AcDbEntity
  8
MSL3_40_3F-0
100
AcDbLine
 10
235.517099
 20
-196.210227
 30
0.0
 11
235.517101
 21
-199.21022
 31
0.0
  0
ARC
  5
469B
100
AcDbEntity
  8
MSL3_40_3F-0
100
AcDbCircle
 10
234.017101
 20
-199.210221
 30
0.0
 40
1.5
100
AcDbArc
 50
270.000041
 51
0.00004
  0
LINE
  5
469C
100
AcDbEntity
  8
MSL3_40_3F-0
100
AcDbLine
 10
314.965759
 20
-184.63843
 30
0.0
 11
316.065759
 21
-184.63843
 31
0.0
  0
LINE
  5
469D
100
AcDbEntity
  8
MSL3_40_3F-0
100
AcDbLine
 10
314.965759
 20
-191.566634
 30
0.0
 11
316.065759
 21
-191.566634
 31
0.0
  0
ARC
  5
469E
100
AcDbEntity
  8
MSL3_40_3F-0
100
AcDbCircle
 10
317.067682
 20
-188.102532
 30
0.0
 40
4.051923
100
AcDbArc
 50
121.248241
 51
238.751759
  0
LINE
  5
469F
100
AcDbEntity
  8
MSL3_40_3F-7
100
AcDbLine
 10
243.015759
 20
-126.210227
 30
0.0
 11
249.015759
 21
-126.210227
 31
0.0
  0
LINE
  5
46A0
100
AcDbEntity
  8
MSL3_40_3F-7
100
AcDbLine
 10
243.015759
 20
-166.210227
 30
0.0
 11
249.015759
 21
-166.210227
 31
0.0
  0
LINE
  5
46A1
100
AcDbEntity
  8
MSL3_40_3F-7
100
AcDbLine
 10
210.992415
 20
-146.210227
 30
0.0
 11
273.523285
 21
-146.210227
 31
0.0
  0
LINE
  5
46A2
100
AcDbEntity
  8
MSL3_40_3F-7
100
AcDbLine
 10
243.015759
 20
-132.210227
 30
0.0
 11
243.015759
 21
-160.210227
 31
0.0
  0
LINE
  5
46A3
100
AcDbEntity
  8
MSL3_40_3F-7
100
AcDbLine
 10
243.015759
 20
-166.210227
 30
0.0
 11
243.015759
 21
-160.210227
 31
0.0
  0
LINE
  5
46A4
100
AcDbEntity
  8
MSL3_40_3F-7
100
AcDbLine
 10
223.015759
 20
-166.210227
 30
0.0
 11
223.015759
 21
-160.210227
 31
0.0
  0
LINE
  5
46A5
100
AcDbEntity
  8
MSL3_40_3F-7
100
AcDbLine
 10
223.015759
 20
-166.210227
 30
0.0
 11
217.015759
 21
-166.210227
 31
0.0
  0
CIRCLE
  5
46A6
100
AcDbEntity
  8
MSL3_40_3F-3
100
AcDbCircle
 10
223.015759
 20
-166.210227
 30
0.0
 40
2.5
  0
ARC
  5
46A7
100
AcDbEntity
  8
MSL3_40_3F-3
100
AcDbCircle
 10
223.015759
 20
-166.210227
 30
0.0
 40
3.0
100
AcDbArc
 50
353.599193
 51
276.865645
  0
LINE
  5
46A8
100
AcDbEntity
  8
MSL3_40_3F-7
100
AcDbLine
 10
223.015759
 20
-166.210227
 30
0.0
 11
223.015759
 21
-172.210227
 31
0.0
  0
LINE
  5
46A9
100
AcDbEntity
  8
MSL3_40_3F-7
100
AcDbLine
 10
223.015759
 20
-166.210227
 30
0.0
 11
229.015759
 21
-166.210227
 31
0.0
  0
LINE
  5
46AA
100
AcDbEntity
  8
MSL3_40_3F-7
100
AcDbLine
 10
243.015759
 20
-166.210227
 30
0.0
 11
237.015759
 21
-166.210227
 31
0.0
  0
LINE
  5
46AB
100
AcDbEntity
  8
MSL3_40_3F-7
100
AcDbLine
 10
243.015759
 20
-166.210227
 30
0.0
 11
243.015759
 21
-172.210227
 31
0.0
  0
CIRCLE
  5
46AC
100
AcDbEntity
  8
MSL3_40_3F-3
100
AcDbCircle
 10
243.015759
 20
-166.210227
 30
0.0
 40
3.0
  0
LINE
  5
46AD
100
AcDbEntity
  8
MSL3_40_3F-7
100
AcDbLine
 10
182.515759
 20
-110.9395
 30
0.0
 11
182.515759
 21
-124.492582
 31
0.0
1001
GENIUS_GENODEF_13
1002
{
1000
HIER
1070
     0
1002
}
1002
{
1000
MANEDIT
1070
     0
1002
}
1002
{
1000
NOSEL
1070
     0
1002
}
1002
{
1000
BEHIND
1070
     0
1002
}
1002
{
1000
REACTOR
1002
}
1001
GENIUS_GENOBJ-N-CEN_13
1002
{
1000
OWNER
1000
GEN
1002
}
  0
LINE
  5
46AE
100
AcDbEntity
  8
MSL3_40_3F-0
100
AcDbLine
 10
192.215759
 20
-126.092029
 30
0.0
 11
192.215759
 21
-109.881839
 31
0.0
  0
ELLIPSE
  5
46AF
100
AcDbEntity
  8
MSL3_40_3F-0
100
AcDbEllipse
 10
182.515759
 20
-117.66554
 30
0.0
 11
4.283225000000015
 21
0.0
 31
0.0
210
0.0
220
0.0
230
1.0
 40
0.766044
 41
0.0
 42
6.2831853071796
  0
LINE
  5
46B0
100
AcDbEntity
  8
MSL3_40_3F-0
100
AcDbLine
 10
192.215759
 20
-109.239051
 30
0.0
 11
192.215759
 21
-109.881839
 31
0.0
  0
LINE
  5
46B1
100
AcDbEntity
  8
MSL3_40_3F-7
100
AcDbLine
 10
223.015759
 20
-116.629643
 30
0.0
 11
223.015759
 21
-93.210227
 31
0.0
  0
LINE
  5
46B2
100
AcDbEntity
  8
MSL3_40_3F-7
100
AcDbLine
 10
223.015759
 20
-126.210227
 30
0.0
 11
223.015759
 21
-120.210227
 31
0.0
  0
ARC
  5
46B3
100
AcDbEntity
  8
MSL3_40_3F-3
100
AcDbCircle
 10
223.015759
 20
-126.210227
 30
0.0
 40
3.0
100
AcDbArc
 50
353.599193
 51
276.865645
  0
CIRCLE
  5
46B4
100
AcDbEntity
  8
MSL3_40_3F-3
100
AcDbCircle
 10
223.015759
 20
-126.210227
 30
0.0
 40
2.5
  0
LINE
  5
46B5
100
AcDbEntity
  8
MSL3_40_3F-7
100
AcDbLine
 10
223.015759
 20
-126.210227
 30
0.0
 11
217.015759
 21
-126.210227
 31
0.0
  0
LINE
  5
46B6
100
AcDbEntity
  8
MSL3_40_3F-7
100
AcDbLine
 10
223.015759
 20
-126.210227
 30
0.0
 11
223.015759
 21
-132.210227
 31
0.0
  0
LINE
  5
46B7
100
AcDbEntity
  8
MSL3_40_3F-7
100
AcDbLine
 10
223.015759
 20
-126.210227
 30
0.0
 11
229.015759
 21
-126.210227
 31
0.0
  0
LINE
  5
46B8
100
AcDbEntity
  8
MSL3_40_3F-7
100
AcDbLine
 10
243.015759
 20
-126.210227
 30
0.0
 11
243.015759
 21
-120.210227
 31
0.0
  0
CIRCLE
  5
46B9
100
AcDbEntity
  8
MSL3_40_3F-3
100
AcDbCircle
 10
243.015759
 20
-126.210227
 30
0.0
 40
3.0
  0
LINE
  5
46BA
100
AcDbEntity
  8
MSL3_40_3F-7
100
AcDbLine
 10
243.015759
 20
-126.210227
 30
0.0
 11
237.015759
 21
-126.210227
 31
0.0
  0
LINE
  5
46BB
100
AcDbEntity
  8
MSL3_40_3F-7
100
AcDbLine
 10
243.015759
 20
-126.210227
 30
0.0
 11
243.015759
 21
-132.210227
 31
0.0
  0
LINE
  5
46BC
100
AcDbEntity
  8
MSL3_40_3F-7
100
AcDbLine
 10
243.015759
 20
-93.210227
 30
0.0
 11
243.015759
 21
-110.942278
 31
0.0
  0
LINE
  5
46BD
100
AcDbEntity
  8
MSL3_40_3F-0
100
AcDbLine
 10
312.515759
 20
-166.328426
 30
0.0
 11
312.515759
 21
-97.210227
 31
0.0
  0
LINE
  5
46BE
100
AcDbEntity
  8
MSL3_40_3F-7
100
AcDbLine
 10
263.015759
 20
-166.210227
 30
0.0
 11
263.015759
 21
-160.210227
 31
0.0
  0
LINE
  5
46BF
100
AcDbEntity
  8
MSL3_40_3F-7
100
AcDbLine
 10
263.015759
 20
-166.210227
 30
0.0
 11
269.015759
 21
-166.210227
 31
0.0
  0
CIRCLE
  5
46C0
100
AcDbEntity
  8
MSL3_40_3F-3
100
AcDbCircle
 10
263.015759
 20
-166.210227
 30
0.0
 40
2.5
  0
ARC
  5
46C1
100
AcDbEntity
  8
MSL3_40_3F-3
100
AcDbCircle
 10
263.015759
 20
-166.210227
 30
0.0
 40
3.0
100
AcDbArc
 50
353.599193
 51
276.865645
  0
LINE
  5
46C2
100
AcDbEntity
  8
MSL3_40_3F-7
100
AcDbLine
 10
263.015759
 20
-166.210227
 30
0.0
 11
263.015759
 21
-172.210227
 31
0.0
  0
LINE
  5
46C3
100
AcDbEntity
  8
MSL3_40_3F-7
100
AcDbLine
 10
263.015759
 20
-166.210227
 30
0.0
 11
257.015759
 21
-166.210227
 31
0.0
  0
LINE
  5
46C4
100
AcDbEntity
  8
MSL3_40_3F-7
100
AcDbLine
 10
295.651759
 20
-174.754915
 30
0.0
 11
311.379759
 21
-174.754915
 31
0.0
1001
GENIUS_GENODEF_13
1002
{
1000
HIER
1070
     0
1002
}
1002
{
1000
MANEDIT
1070
     0
1002
}
1002
{
1000
NOSEL
1070
     0
1002
}
1002
{
1000
BEHIND
1070
     0
1002
}
1002
{
1000
REACTOR
1002
}
1001
GENIUS_GENOBJ-N-CEN_13
1002
{
1000
OWNER
1000
GEN
1002
}
  0
ELLIPSE
  5
46C5
100
AcDbEntity
  8
MSL3_40_3F-4
100
AcDbEllipse
 10
303.515759
 20
-174.754915
 30
0.0
 11
4.863999999999975
 21
0.0
 31
0.0
210
0.0
220
0.0
230
1.0
 40
0.766044
 41
-1.637716455833795
 42
3.25530828246718
  0
ELLIPSE
  5
46C6
100
AcDbEntity
  8
MSL3_40_3F-0
100
AcDbEllipse
 10
303.515759
 20
-174.754915
 30
0.0
 11
4.283225000000015
 21
0.0
 31
0.0
210
0.0
220
0.0
230
1.0
 40
0.766044
 41
0.0
 42
6.2831853071796
  0
LINE
  5
46C7
100
AcDbEntity
  8
MSL3_40_3F-0
100
AcDbLine
 10
293.815759
 20
-166.328426
 30
0.0
 11
312.515759
 21
-166.328426
 31
0.0
  0
LINE
  5
46C8
100
AcDbEntity
  8
MSL3_40_3F-0
100
AcDbLine
 10
312.515759
 20
-183.181404
 30
0.0
 11
293.815759
 21
-183.181404
 31
0.0
  0
LINE
  5
46C9
100
AcDbEntity
  8
MSL3_40_3F-0
100
AcDbLine
 10
293.815759
 20
-182.538616
 30
0.0
 11
293.815759
 21
-166.328426
 31
0.0
  0
LINE
  5
46CA
100
AcDbEntity
  8
MSL3_40_3F-0
100
AcDbLine
 10
293.815759
 20
-183.181404
 30
0.0
 11
293.815759
 21
-182.538616
 31
0.0
  0
LINE
  5
46CB
100
AcDbEntity
  8
MSL3_40_3F-7
100
AcDbLine
 10
303.515759
 20
-168.028875
 30
0.0
 11
303.515759
 21
-181.581956
 31
0.0
1001
GENIUS_GENODEF_13
1002
{
1000
HIER
1070
     0
1002
}
1002
{
1000
MANEDIT
1070
     0
1002
}
1002
{
1000
NOSEL
1070
     0
1002
}
1002
{
1000
BEHIND
1070
     0
1002
}
1002
{
1000
REACTOR
1002
}
1001
GENIUS_GENOBJ-N-CEN_13
1002
{
1000
OWNER
1000
GEN
1002
}
  0
LINE
  5
46CC
100
AcDbEntity
  8
MSL3_40_3F-0
100
AcDbLine
 10
314.965759
 20
-163.853821
 30
0.0
 11
316.065759
 21
-163.853821
 31
0.0
  0
LINE
  5
46CD
100
AcDbEntity
  8
MSL3_40_3F-0
100
AcDbLine
 10
314.965759
 20
-170.782024
 30
0.0
 11
316.065759
 21
-170.782024
 31
0.0
  0
ARC
  5
46CE
100
AcDbEntity
  8
MSL3_40_3F-0
100
AcDbCircle
 10
317.067682
 20
-167.317922
 30
0.0
 40
4.051923
100
AcDbArc
 50
121.248241
 51
238.751759
  0
LINE
  5
46CF
100
AcDbEntity
  8
MSL3_40_3F-7
100
AcDbLine
 10
296.015759
 20
-146.210227
 30
0.0
 11
311.015759
 21
-146.210227
 31
0.0
  0
LINE
  5
46D0
100
AcDbEntity
  8
MSL3_40_3F-0
100
AcDbLine
 10
271.120277
 20
-97.210227
 30
0.0
 11
312.515759
 21
-97.210227
 31
0.0
  0
LINE
  5
46D1
100
AcDbEntity
  8
MSL3_40_3F-7
100
AcDbLine
 10
263.015759
 20
-116.629643
 30
0.0
 11
263.015759
 21
-93.210227
 31
0.0
  0
LINE
  5
46D2
100
AcDbEntity
  8
MSL3_40_3F-7
100
AcDbLine
 10
263.015759
 20
-126.210227
 30
0.0
 11
269.015759
 21
-126.210227
 31
0.0
  0
CIRCLE
  5
46D3
100
AcDbEntity
  8
MSL3_40_3F-3
100
AcDbCircle
 10
263.015759
 20
-126.210227
 30
0.0
 40
2.5
  0
ARC
  5
46D4
100
AcDbEntity
  8
MSL3_40_3F-3
100
AcDbCircle
 10
263.015759
 20
-126.210227
 30
0.0
 40
3.0
100
AcDbArc
 50
353.599193
 51
276.865645
  0
LINE
  5
46D5
100
AcDbEntity
  8
MSL3_40_3F-7
100
AcDbLine
 10
263.015759
 20
-126.210227
 30
0.0
 11
263.015759
 21
-120.210227
 31
0.0
  0
LINE
  5
46D6
100
AcDbEntity
  8
MSL3_40_3F-7
100
AcDbLine
 10
263.015759
 20
-126.210227
 30
0.0
 11
263.015759
 21
-132.210227
 31
0.0
  0
LINE
  5
46D7
100
AcDbEntity
  8
MSL3_40_3F-7
100
AcDbLine
 10
263.015759
 20
-126.210227
 30
0.0
 11
257.015759
 21
-126.210227
 31
0.0
  0
LINE
  5
46D8
100
AcDbEntity
  8
MSL3_40_3F-7
100
AcDbLine
 10
277.515759
 20
-101.102823
 30
0.0
 11
260.515759
 21
-101.102837
 31
0.0
1001
GENIUS_GENODEF_13
1002
{
1000
HIER
1070
     0
1002
}
1002
{
1000
MANEDIT
1070
     0
1002
}
1002
{
1000
NOSEL
1070
     0
1002
}
1002
{
1000
BEHIND
1070
     0
1002
}
1002
{
1000
REACTOR
1002
}
1001
GENIUS_GENOBJ-N-CEN_13
1002
{
1000
OWNER
1000
GEN
1002
}
  0
ELLIPSE
  5
46D9
100
AcDbEntity
  8
MSL3_40_3F-0
100
AcDbEllipse
 10
269.015762
 20
-102.838352
 30
0.0
 11
-5.499999999998895
 21
-0.0000090659728525
 31
0.0
210
0.0
220
0.0
230
-1.0
 40
0.766044
 41
-3.141592653589791
 42
0.0000000000001092
  0
ELLIPSE
  5
46DA
100
AcDbEntity
  8
MSL3_40_3F-0
100
AcDbEllipse
 10
269.015759
 20
-101.102834
 30
0.0
 11
-5.500000000006366
 21
0.0
 31
0.0
210
0.0
220
0.0
230
1.0
 40
0.766044
 41
0.0
 42
6.2831853071796
  0
LINE
  5
46DB
100
AcDbEntity
  8
MSL3_40_3F-0
100
AcDbLine
 10
263.515762
 20
-102.838361
 30
0.0
 11
263.515759
 21
-101.102834
 31
0.0
  0
LINE
  5
46DC
100
AcDbEntity
  8
MSL3_40_3F-7
100
AcDbLine
 10
269.015759
 20
-108.316079
 30
0.0
 11
269.015759
 21
-93.88959
 31
0.0
1001
GENIUS_GENODEF_13
1002
{
1000
HIER
1070
     0
1002
}
1002
{
1000
MANEDIT
1070
     0
1002
}
1002
{
1000
NOSEL
1070
     0
1002
}
1002
{
1000
BEHIND
1070
     0
1002
}
1002
{
1000
REACTOR
1002
}
1001
GENIUS_GENOBJ-N-CEN_13
1002
{
1000
OWNER
1000
GEN
1002
}
  0
LINE
  5
46DD
100
AcDbEntity
  8
MSL3_40_3F-0
100
AcDbLine
 10
274.515762
 20
-102.838352
 30
0.0
 11
274.515759
 21
-101.102807
 31
0.0
  0
ELLIPSE
  5
46DE
100
AcDbEntity
  8
MSL3_40_3F-0
100
AcDbEllipse
 10
269.015759
 20
-101.102834
 30
0.0
 11
-2.000000000006366
 21
0.0
 31
0.0
210
0.0
220
0.0
230
1.0
 40
0.766044
 41
0.0
 42
6.2831853071796
  0
LINE
  5
46DF
100
AcDbEntity
  8
MSL3_40_3F-0
100
AcDbLine
 10
269.015757
 20
-99.81725
 30
0.0
 11
267.015759
 21
-101.102828
 31
0.0
  0
LINE
  5
46E0
100
AcDbEntity
  8
MSL3_40_3F-0
100
AcDbLine
 10
271.015759
 20
-101.102816
 30
0.0
 11
269.015757
 21
-99.81725
 31
0.0
  0
LINE
  5
46E1
100
AcDbEntity
  8
MSL3_40_3F-0
100
AcDbLine
 10
316.015759
 20
-120.339392
 30
0.0
 11
316.015759
 21
-109.081062
 31
0.0
  0
ARC
  5
46E2
100
AcDbEntity
  8
MSL3_40_3F-0
100
AcDbCircle
 10
305.381037
 20
-114.710227
 30
0.0
 40
10.634722
100
AcDbArc
 50
332.518771
 51
27.481229
  0
LINE
  5
46E3
100
AcDbEntity
  8
MSL3_40_3F-0
100
AcDbLine
 10
316.015759
 20
-122.071443
 30
0.0
 11
316.015759
 21
-107.349011
 31
0.0
  0
LINE
  5
46E4
100
AcDbEntity
  8
MSL3_40_3F-0
100
AcDbLine
 10
313.015759
 20
-124.510227
 30
0.0
 11
313.015759
 21
-104.910227
 31
0.0
  0
LINE
  5
46E5
100
AcDbEntity
  8
MSL3_40_3F-0
100
AcDbLine
 10
314.815759
 20
-119.617704
 30
0.0
 11
313.015759
 21
-119.617704
 31
0.0
  0
LINE
  5
46E6
100
AcDbEntity
  8
MSL3_40_3F-0
100
AcDbLine
 10
314.834831
 20
-124.510227
 30
0.0
 11
313.015759
 21
-124.510227
 31
0.0
  0
ARC
  5
46E7
100
AcDbEntity
  8
MSL3_40_3F-0
100
AcDbCircle
 10
312.907079
 20
-122.071443
 30
0.0
 40
3.108681
100
AcDbArc
 50
307.878142
 51
52.121858
  0
LINE
  5
46E8
100
AcDbEntity
  8
MSL3_40_3F-0
100
AcDbLine
 10
313.015759
 20
-104.910227
 30
0.0
 11
314.834831
 21
-104.910227
 31
0.0
  0
LINE
  5
46E9
100
AcDbEntity
  8
MSL3_40_3F-0
100
AcDbLine
 10
314.815759
 20
-109.80275
 30
0.0
 11
313.015759
 21
-109.80275
 31
0.0
  0
ARC
  5
46EA
100
AcDbEntity
  8
MSL3_40_3F-0
100
AcDbCircle
 10
312.907079
 20
-107.349011
 30
0.0
 40
3.108681
100
AcDbArc
 50
307.878142
 51
52.121858
  0
LINE
  5
46EB
100
AcDbEntity
  8
MSL3_40_3F-7
100
AcDbLine
 10
174.651759
 20
63.504668
 30
0.0
 11
190.379759
 21
63.504668
 31
0.0
1001
GENIUS_GENODEF_13
1002
{
1000
HIER
1070
     0
1002
}
1002
{
1000
MANEDIT
1070
     0
1002
}
1002
{
1000
NOSEL
1070
     0
1002
}
1002
{
1000
BEHIND
1070
     0
1002
}
1002
{
1000
REACTOR
1002
}
1001
GENIUS_GENOBJ-N-CEN_13
1002
{
1000
OWNER
1000
GEN
1002
}
  0
LINE
  5
46EC
100
AcDbEntity
  8
MSL3_40_3F-7
100
AcDbLine
 10
146.921809
 20
36.001062
 30
0.0
 11
179.526616
 21
36.001062
 31
0.0
  0
ELLIPSE
  5
46ED
100
AcDbEntity
  8
MSL3_40_3F-3
100
AcDbEllipse
 10
182.515759
 20
63.504668
 30
0.0
 11
4.863999999999919
 21
0.0
 31
0.0
210
0.0
220
0.0
230
1.0
 40
0.642788
 41
-1.626973784062189
 42
3.276869584235833
  0
LINE
  5
46EE
100
AcDbEntity
  8
MSL3_40_3F-3
100
AcDbLine
 10
173.515759
 20
70.575331
 30
0.0
 11
192.215759
 21
70.575331
 31
0.0
  0
LINE
  5
46EF
100
AcDbEntity
  8
MSL3_40_3F-3
100
AcDbLine
 10
173.515759
 20
56.434004
 30
0.0
 11
192.215759
 21
56.434004
 31
0.0
  0
LINE
  5
46F0
100
AcDbEntity
  8
MSL3_40_3F-4
100
AcDbLine
 10
203.515759
 20
27.001062
 30
0.0
 11
173.515759
 21
27.001062
 31
0.0
  0
LINE
  5
46F1
100
AcDbEntity
  8
MSL3_40_3F-0
100
AcDbLine
 10
203.515759
 20
25.001062
 30
0.0
 11
173.515759
 21
25.001062
 31
0.0
  0
TEXT
  5
46F2
100
AcDbEntity
  8
MSL3_40_3F-6
100
AcDbText
 10
174.748145
 20
-23.304577
 30
0.0
 40
3.5
  1
MSL3-40-3F
100
AcDbText
  0
LINE
  5
46F3
100
AcDbEntity
  8
MSL3_40_3F-0
100
AcDbLine
 10
312.515759
 20
81.001062
 30
0.0
 11
173.515759
 21
81.001062
 31
0.0
  0
LINE
  5
46F4
100
AcDbEntity
  8
MSL3_40_3F-4
100
AcDbLine
 10
312.515759
 20
45.408007
 30
0.0
 11
173.515759
 21
45.408007
 31
0.0
  0
LINE
  5
46F5
100
AcDbEntity
  8
MSL3_40_3F-0
100
AcDbLine
 10
313.015759
 20
25.001062
 30
0.0
 11
173.015759
 21
25.001062
 31
0.0
  0
LINE
  5
46F6
100
AcDbEntity
  8
MSL3_40_3F-0
100
AcDbLine
 10
173.015759
 20
-24.998938
 30
0.0
 11
313.015759
 21
-24.998938
 31
0.0
  0
LINE
  5
46F7
100
AcDbEntity
  8
MSL3_40_3F-0
100
AcDbLine
 10
173.015759
 20
25.001062
 30
0.0
 11
173.015759
 21
-24.998938
 31
0.0
  0
LINE
  5
46F8
100
AcDbEntity
  8
MSL3_40_3F-0
100
AcDbLine
 10
153.015759
 20
80.001062
 30
0.0
 11
153.015759
 21
4.000348
 31
0.0
  0
LINE
  5
46F9
100
AcDbEntity
  8
MSL3_40_3F-0
100
AcDbLine
 10
133.015759
 20
-25.998938
 30
0.0
 11
133.015759
 21
80.001062
 31
0.0
  0
LINE
  5
46FA
100
AcDbEntity
  8
MSL3_40_3F-0
100
AcDbLine
 10
50.0
 20
44.201062
 30
0.0
 11
50.0
 21
-25.998938
 31
0.0
  0
LINE
  5
46FB
100
AcDbEntity
  8
MSL3_40_3F-7
100
AcDbLine
 10
139.015759
 20
-19.998938
 30
0.0
 11
145.015759
 21
-19.998938
 31
0.0
  0
LINE
  5
46FC
100
AcDbEntity
  8
MSL3_40_3F-0
100
AcDbLine
 10
153.015759
 20
-25.998938
 30
0.0
 11
133.015759
 21
-25.998938
 31
0.0
  0
LINE
  5
46FD
100
AcDbEntity
  8
MSL3_40_3F-7
100
AcDbLine
 10
139.015759
 20
-19.998938
 30
0.0
 11
139.015759
 21
-13.998938
 31
0.0
  0
CIRCLE
  5
46FE
100
AcDbEntity
  8
MSL3_40_3F-0
100
AcDbCircle
 10
139.015759
 20
-19.998938
 30
0.0
 40
2.5
  0
ARC
  5
46FF
100
AcDbEntity
  8
MSL3_40_3F-4
100
AcDbCircle
 10
139.015759
 20
-19.998938
 30
0.0
 40
3.0
100
AcDbArc
 50
251.265343
 51
200.571702
  0
LINE
  5
4700
100
AcDbEntity
  8
MSL3_40_3F-7
100
AcDbLine
 10
139.015759
 20
-19.998938
 30
0.0
 11
133.015759
 21
-19.998938
 31
0.0
  0
LINE
  5
4701
100
AcDbEntity
  8
MSL3_40_3F-7
100
AcDbLine
 10
139.015759
 20
-19.998938
 30
0.0
 11
139.015759
 21
-25.998938
 31
0.0
  0
LINE
  5
4702
100
AcDbEntity
  8
MSL3_40_3F-7
100
AcDbLine
 10
147.015759
 20
-5.579522
 30
0.0
 11
147.015759
 21
-28.998938
 31
0.0
  0
LINE
  5
4703
100
AcDbEntity
  8
MSL3_40_3F-0
100
AcDbLine
 10
153.015759
 20
-3.999652
 30
0.0
 11
153.015759
 21
-25.998938
 31
0.0
  0
LINE
  5
4704
100
AcDbEntity
  8
MSL3_40_3F-3
100
AcDbLine
 10
150.015759
 20
-25.998938
 30
0.0
 11
150.015759
 21
-13.998938
 31
0.0
  0
LINE
  5
4705
100
AcDbEntity
  8
MSL3_40_3F-3
100
AcDbLine
 10
144.015759
 20
-25.998938
 30
0.0
 11
144.015759
 21
-13.998938
 31
0.0
  0
LINE
  5
4706
100
AcDbEntity
  8
MSL3_40_3F-3
100
AcDbLine
 10
149.474259
 20
-25.998938
 30
0.0
 11
149.474259
 21
-9.998938
 31
0.0
  0
LINE
  5
4707
100
AcDbEntity
  8
MSL3_40_3F-3
100
AcDbLine
 10
144.557259
 20
-25.998938
 30
0.0
 11
144.557259
 21
-9.998938
 31
0.0
  0
LINE
  5
4708
100
AcDbEntity
  8
MSL3_40_3F-0
100
AcDbLine
 10
155.015759
 20
-11.499652
 30
0.0
 11
173.015759
 21
-11.499652
 31
0.0
  0
LINE
  5
4709
100
AcDbEntity
  8
MSL3_40_3F-0
100
AcDbLine
 10
153.015759
 20
-7.999847
 30
0.0
 11
173.015759
 21
-7.999847
 31
0.0
  0
LINE
  5
470A
100
AcDbEntity
  8
MSL3_40_3F-3
100
AcDbLine
 10
147.015759
 20
-8.579522
 30
0.0
 11
149.474259
 21
-9.998938
 31
0.0
  0
LINE
  5
470B
100
AcDbEntity
  8
MSL3_40_3F-3
100
AcDbLine
 10
147.015759
 20
-8.579522
 30
0.0
 11
144.557259
 21
-9.998938
 31
0.0
  0
LINE
  5
470C
100
AcDbEntity
  8
MSL3_40_3F-3
100
AcDbLine
 10
149.474259
 20
-9.998938
 30
0.0
 11
144.557259
 21
-9.998938
 31
0.0
  0
LINE
  5
470D
100
AcDbEntity
  8
MSL3_40_3F-3
100
AcDbLine
 10
150.015759
 20
-13.998938
 30
0.0
 11
144.015759
 21
-13.998938
 31
0.0
  0
LINE
  5
470E
100
AcDbEntity
  8
MSL3_40_3F-0
100
AcDbLine
 10
155.015759
 20
-11.499652
 30
0.0
 11
155.015759
 21
-7.999847
 31
0.0
  0
LINE
  5
470F
100
AcDbEntity
  8
MSL3_40_3F-0
100
AcDbLine
 10
154.015759
 20
-7.999847
 30
0.0
 11
154.015759
 21
-10.499652
 31
0.0
  0
LINE
  5
4710
100
AcDbEntity
  8
MSL3_40_3F-0
100
AcDbLine
 10
154.015759
 20
-10.499652
 30
0.0
 11
155.015759
 21
-11.499652
 31
0.0
  0
LINE
  5
4711
100
AcDbEntity
  8
MSL3_40_3F-0
100
AcDbLine
 10
153.015759
 20
4.000348
 30
0.0
 11
153.015759
 21
-3.999652
 31
0.0
  0
LINE
  5
4712
100
AcDbEntity
  8
MSL3_40_3F-7
100
AcDbLine
 10
47.779292
 20
55.401967
 30
0.0
 11
42.809267
 21
49.478921
 31
0.0
  0
LINE
  5
4713
100
AcDbEntity
  8
MSL3_40_3F-0
100
AcDbLine
 10
46.84292
 20
54.286042
 30
0.0
 11
46.639482
 21
50.932147
 31
0.0
  0
LINE
  5
4714
100
AcDbEntity
  8
MSL3_40_3F-0
100
AcDbLine
 10
49.320638
 20
48.68239
 30
0.0
 11
40.894149
 21
55.753054
 31
0.0
  0
LINE
  5
4715
100
AcDbEntity
  8
MSL3_40_3F-3
100
AcDbLine
 10
49.0
 20
25.001062
 30
0.0
 11
49.0
 21
45.040162
 31
0.0
  0
LINE
  5
4716
100
AcDbEntity
  8
MSL3_40_3F-3
100
AcDbLine
 10
47.31567
 20
46.448535
 30
0.0
 11
47.958458
 21
47.21458
 31
0.0
  0
LINE
  5
4717
100
AcDbEntity
  8
MSL3_40_3F-0
100
AcDbLine
 10
48.035062
 20
47.150301
 30
0.0
 11
49.320638
 21
48.68239
 31
0.0
  0
LINE
  5
4718
100
AcDbEntity
  8
MSL3_40_3F-0
100
AcDbLine
 10
49.0
 20
45.040162
 30
0.0
 11
49.0
 21
45.408007
 31
0.0
  0
ARC
  5
4719
100
AcDbEntity
  8
MSL3_40_3F-0
100
AcDbCircle
 10
47.0
 20
45.408007
 30
0.0
 40
2.0
100
AcDbArc
 50
0.0
 51
50.0
1001
GENIUS_GENODEF_13
1002
{
1000
HIER
1070
     0
1002
}
1002
{
1000
MANEDIT
1070
     0
1002
}
1002
{
1000
NOSEL
1070
     0
1002
}
1002
{
1000
BEHIND
1070
     0
1002
}
1002
{
1000
REACTOR
1002
}
1001
GENIUS_GENOBJ-N-FIL_13
1002
{
1000
OWNER
1000
GEN
1002
}
  0
LINE
  5
471A
100
AcDbEntity
  8
MSL3_40_3F-0
100
AcDbLine
 10
43.575304
 20
53.503297
 30
0.0
 11
46.84292
 21
54.286042
 31
0.0
  0
LINE
  5
471B
100
AcDbEntity
  8
MSL3_40_3F-0
100
AcDbLine
 10
40.894149
 20
55.753054
 30
0.0
 11
39.608574
 21
54.220965
 31
0.0
  0
LINE
  5
471C
100
AcDbEntity
  8
MSL3_40_3F-0
100
AcDbLine
 10
173.015759
 20
80.001062
 30
0.0
 11
173.015759
 21
25.001062
 31
0.0
  0
LINE
  5
471D
100
AcDbEntity
  8
MSL3_40_3F-0
100
AcDbLine
 10
173.515759
 20
81.001062
 30
0.0
 11
173.515759
 21
25.001062
 31
0.0
  0
LINE
  5
471E
100
AcDbEntity
  8
MSL3_40_3F-7
100
AcDbLine
 10
139.015759
 20
20.001062
 30
0.0
 11
145.015759
 21
20.001062
 31
0.0
  0
LINE
  5
471F
100
AcDbEntity
  8
MSL3_40_3F-0
100
AcDbLine
 10
133.015759
 20
44.201062
 30
0.0
 11
153.015759
 21
44.201062
 31
0.0
  0
LINE
  5
4720
100
AcDbEntity
  8
MSL3_40_3F-7
100
AcDbLine
 10
139.015759
 20
20.001062
 30
0.0
 11
139.015759
 21
14.001062
 31
0.0
  0
LINE
  5
4721
100
AcDbEntity
  8
MSL3_40_3F-7
100
AcDbLine
 10
139.015759
 20
20.001062
 30
0.0
 11
133.015759
 21
20.001062
 31
0.0
  0
LINE
  5
4722
100
AcDbEntity
  8
MSL3_40_3F-7
100
AcDbLine
 10
139.015759
 20
20.001062
 30
0.0
 11
139.015759
 21
26.001062
 31
0.0
  0
CIRCLE
  5
4723
100
AcDbEntity
  8
MSL3_40_3F-0
100
AcDbCircle
 10
139.015759
 20
20.001062
 30
0.0
 40
2.5
  0
ARC
  5
4724
100
AcDbEntity
  8
MSL3_40_3F-4
100
AcDbCircle
 10
139.015759
 20
20.001062
 30
0.0
 40
3.0
100
AcDbArc
 50
251.265343
 51
200.571702
  0
ARC
  5
4725
100
AcDbEntity
  8
MSL3_40_3F-0
100
AcDbCircle
 10
167.453594
 20
30.371897
 30
0.0
 40
2.562165
100
AcDbArc
 50
312.916664
 51
47.083336
  0
ARC
  5
4726
100
AcDbEntity
  8
MSL3_40_3F-0
100
AcDbCircle
 10
157.222703
 20
30.371897
 30
0.0
 40
2.293056
100
AcDbArc
 50
305.085848
 51
54.914152
  0
ARC
  5
4727
100
AcDbEntity
  8
MSL3_40_3F-0
100
AcDbCircle
 10
155.308814
 20
30.371897
 30
0.0
 40
2.293056
100
AcDbArc
 50
125.085847
 51
234.914153
  0
LINE
  5
4728
100
AcDbEntity
  8
MSL3_40_3F-0
100
AcDbLine
 10
166.015759
 20
43.506615
 30
0.0
 11
166.015759
 21
28.495508
 31
0.0
  0
ARC
  5
4729
100
AcDbEntity
  8
MSL3_40_3F-0
100
AcDbCircle
 10
173.124439
 20
28.639846
 30
0.0
 40
3.108681
100
AcDbArc
 50
127.878142
 51
232.121858
  0
LINE
  5
472A
100
AcDbEntity
  8
MSL3_40_3F-0
100
AcDbLine
 10
173.015759
 20
11.500348
 30
0.0
 11
155.015759
 21
11.500348
 31
0.0
  0
LINE
  5
472B
100
AcDbEntity
  8
MSL3_40_3F-0
100
AcDbLine
 10
153.015759
 20
8.000153
 30
0.0
 11
173.015759
 21
8.000153
 31
0.0
  0
LINE
  5
472C
100
AcDbEntity
  8
MSL3_40_3F-0
100
AcDbLine
 10
155.015759
 20
11.500348
 30
0.0
 11
154.015759
 21
10.500348
 31
0.0
  0
LINE
  5
472D
100
AcDbEntity
  8
MSL3_40_3F-0
100
AcDbLine
 10
155.015759
 20
8.000153
 30
0.0
 11
155.015759
 21
11.500348
 31
0.0
  0
LINE
  5
472E
100
AcDbEntity
  8
MSL3_40_3F-0
100
AcDbLine
 10
154.015759
 20
10.500348
 30
0.0
 11
154.015759
 21
8.000153
 31
0.0
  0
LINE
  5
472F
100
AcDbEntity
  8
MSL3_40_3F-0
100
AcDbLine
 10
158.540759
 20
28.495508
 30
0.0
 11
153.990759
 21
28.495508
 31
0.0
  0
LINE
  5
4730
100
AcDbEntity
  8
MSL3_40_3F-0
100
AcDbLine
 10
166.015759
 20
28.495508
 30
0.0
 11
169.198259
 21
28.495508
 31
0.0
  0
LINE
  5
4731
100
AcDbEntity
  8
MSL3_40_3F-0
100
AcDbLine
 10
173.015759
 20
26.201062
 30
0.0
 11
171.196687
 21
26.201062
 31
0.0
  0
LINE
  5
4732
100
AcDbEntity
  8
MSL3_40_3F-0
100
AcDbLine
 10
159.515759
 20
40.001062
 30
0.0
 11
166.015759
 21
40.001062
 31
0.0
  0
LINE
  5
4733
100
AcDbEntity
  8
MSL3_40_3F-0
100
AcDbLine
 10
159.515759
 20
32.001062
 30
0.0
 11
166.015759
 21
32.001062
 31
0.0
  0
ARC
  5
4734
100
AcDbEntity
  8
MSL3_40_3F-0
100
AcDbCircle
 10
157.222703
 20
41.630227
 30
0.0
 40
2.293056
100
AcDbArc
 50
305.085848
 51
54.914152
  0
ARC
  5
4735
100
AcDbEntity
  8
MSL3_40_3F-0
100
AcDbCircle
 10
155.308814
 20
41.630227
 30
0.0
 40
2.293056
100
AcDbArc
 50
125.085847
 51
234.914153
  0
LINE
  5
4736
100
AcDbEntity
  8
MSL3_40_3F-0
100
AcDbLine
 10
159.515759
 20
30.371897
 30
0.0
 11
159.515759
 21
41.630227
 31
0.0
  0
LINE
  5
4737
100
AcDbEntity
  8
MSL3_40_3F-0
100
AcDbLine
 10
153.015759
 20
30.371897
 30
0.0
 11
153.015759
 21
41.630227
 31
0.0
  0
LINE
  5
4738
100
AcDbEntity
  8
MSL3_40_3F-0
100
AcDbLine
 10
158.540759
 20
39.753839
 30
0.0
 11
153.990759
 21
39.753839
 31
0.0
  0
LINE
  5
4739
100
AcDbEntity
  8
MSL3_40_3F-0
100
AcDbLine
 10
158.540759
 20
32.248285
 30
0.0
 11
153.990759
 21
32.248285
 31
0.0
  0
ARC
  5
473A
100
AcDbEntity
  8
MSL3_40_3F-0
100
AcDbCircle
 10
151.806036
 20
36.001062
 30
0.0
 40
7.709722
100
AcDbArc
 50
330.872218
 51
29.127782
  0
ARC
  5
473B
100
AcDbEntity
  8
MSL3_40_3F-0
100
AcDbCircle
 10
160.725481
 20
36.001062
 30
0.0
 40
7.709722
100
AcDbArc
 50
150.872216
 51
209.127784
  0
LINE
  5
473C
100
AcDbEntity
  8
MSL3_40_3F-0
100
AcDbLine
 10
158.540759
 20
43.506615
 30
0.0
 11
153.990759
 21
43.506615
 31
0.0
  0
ARC
  5
473D
100
AcDbEntity
  8
MSL3_40_3F-0
100
AcDbCircle
 10
167.453594
 20
41.630227
 30
0.0
 40
2.562165
100
AcDbArc
 50
312.916664
 51
47.083336
  0
LINE
  5
473E
100
AcDbEntity
  8
MSL3_40_3F-0
100
AcDbLine
 10
170.015759
 20
41.630227
 30
0.0
 11
170.015759
 21
30.371897
 31
0.0
  0
LINE
  5
473F
100
AcDbEntity
  8
MSL3_40_3F-0
100
AcDbLine
 10
170.015759
 20
43.362278
 30
0.0
 11
170.015759
 21
28.639846
 31
0.0
  0
ARC
  5
4740
100
AcDbEntity
  8
MSL3_40_3F-0
100
AcDbCircle
 10
180.650481
 20
36.001062
 30
0.0
 40
10.634722
100
AcDbArc
 50
152.518771
 51
207.481229
  0
ARC
  5
4741
100
AcDbEntity
  8
MSL3_40_3F-0
100
AcDbCircle
 10
160.993349
 20
36.001062
 30
0.0
 40
9.02241
100
AcDbArc
 50
335.421503
 51
24.578497
  0
LINE
  5
4742
100
AcDbEntity
  8
MSL3_40_3F-0
100
AcDbLine
 10
169.198259
 20
39.753839
 30
0.0
 11
166.015759
 21
39.753839
 31
0.0
  0
LINE
  5
4743
100
AcDbEntity
  8
MSL3_40_3F-0
100
AcDbLine
 10
169.198259
 20
32.248285
 30
0.0
 11
166.015759
 21
32.248285
 31
0.0
  0
LINE
  5
4744
100
AcDbEntity
  8
MSL3_40_3F-0
100
AcDbLine
 10
171.215759
 20
31.093585
 30
0.0
 11
173.015759
 21
31.093585
 31
0.0
  0
LINE
  5
4745
100
AcDbEntity
  8
MSL3_40_3F-0
100
AcDbLine
 10
169.198259
 20
43.506615
 30
0.0
 11
166.015759
 21
43.506615
 31
0.0
  0
LINE
  5
4746
100
AcDbEntity
  8
MSL3_40_3F-0
100
AcDbLine
 10
171.196687
 20
45.801062
 30
0.0
 11
173.015759
 21
45.801062
 31
0.0
  0
LINE
  5
4747
100
AcDbEntity
  8
MSL3_40_3F-0
100
AcDbLine
 10
171.215759
 20
40.908539
 30
0.0
 11
173.015759
 21
40.908539
 31
0.0
  0
ARC
  5
4748
100
AcDbEntity
  8
MSL3_40_3F-0
100
AcDbCircle
 10
173.124439
 20
43.362278
 30
0.0
 40
3.108681
100
AcDbArc
 50
127.878142
 51
232.121858
  0
LINE
  5
4749
100
AcDbEntity
  8
MSL3_40_3F-0
100
AcDbLine
 10
133.015759
 20
80.001062
 30
0.0
 11
153.015759
 21
80.001062
 31
0.0
  0
LINE
  5
474A
100
AcDbEntity
  8
MSL3_40_3F-7
100
AcDbLine
 10
150.015759
 20
62.001062
 30
0.0
 11
176.015759
 21
62.001062
 31
0.0
1001
GENIUS_GENODEF_13
1002
{
1000
HIER
1070
     0
1002
}
1002
{
1000
MANEDIT
1070
     0
1002
}
1002
{
1000
NOSEL
1070
     0
1002
}
1002
{
1000
BEHIND
1070
     0
1002
}
1002
{
1000
REACTOR
1002
}
1001
GENIUS_GENOBJ-N-CEN_13
1002
{
1000
OWNER
1000
GEN
1002
}
  0
LINE
  5
474B
100
AcDbEntity
  8
MSL3_40_3F-0
100
AcDbLine
 10
153.015759
 20
54.001062
 30
0.0
 11
173.015759
 21
54.001062
 31
0.0
  0
LINE
  5
474C
100
AcDbEntity
  8
MSL3_40_3F-0
100
AcDbLine
 10
153.015759
 20
70.001062
 30
0.0
 11
173.015759
 21
70.001062
 31
0.0
  0
LINE
  5
474D
100
AcDbEntity
  8
MSL3_40_3F-0
100
AcDbLine
 10
173.015759
 20
80.001062
 30
0.0
 11
173.515759
 21
80.001062
 31
0.0
  0
LINE
  5
474E
100
AcDbEntity
  8
MSL3_40_3F-7
100
AcDbLine
 10
243.015759
 20
14.001062
 30
0.0
 11
243.015759
 21
-13.998938
 31
0.0
  0
LINE
  5
474F
100
AcDbEntity
  8
MSL3_40_3F-0
100
AcDbLine
 10
313.015759
 20
-24.998938
 30
0.0
 11
313.015759
 21
25.001062
 31
0.0
  0
LINE
  5
4750
100
AcDbEntity
  8
MSL3_40_3F-7
100
AcDbLine
 10
243.015759
 20
-19.998938
 30
0.0
 11
249.015759
 21
-19.998938
 31
0.0
  0
LINE
  5
4751
100
AcDbEntity
  8
MSL3_40_3F-7
100
AcDbLine
 10
243.015759
 20
-19.998938
 30
0.0
 11
243.015759
 21
-13.998938
 31
0.0
  0
LINE
  5
4752
100
AcDbEntity
  8
MSL3_40_3F-7
100
AcDbLine
 10
223.015759
 20
-19.998938
 30
0.0
 11
223.015759
 21
-13.998938
 31
0.0
  0
CIRCLE
  5
4753
100
AcDbEntity
  8
MSL3_40_3F-0
100
AcDbCircle
 10
243.015759
 20
-19.998938
 30
0.0
 40
3.0
  0
CIRCLE
  5
4754
100
AcDbEntity
  8
MSL3_40_3F-0
100
AcDbCircle
 10
223.015759
 20
-19.998938
 30
0.0
 40
2.5
  0
ARC
  5
4755
100
AcDbEntity
  8
MSL3_40_3F-4
100
AcDbCircle
 10
223.015759
 20
-19.998938
 30
0.0
 40
3.0
100
AcDbArc
 50
83.134355
 51
6.400807
  0
LINE
  5
4756
100
AcDbEntity
  8
MSL3_40_3F-7
100
AcDbLine
 10
223.015759
 20
-19.998938
 30
0.0
 11
217.015759
 21
-19.998938
 31
0.0
  0
LINE
  5
4757
100
AcDbEntity
  8
MSL3_40_3F-7
100
AcDbLine
 10
223.015759
 20
-19.998938
 30
0.0
 11
223.015759
 21
-25.998938
 31
0.0
  0
LINE
  5
4758
100
AcDbEntity
  8
MSL3_40_3F-7
100
AcDbLine
 10
223.015759
 20
-19.998938
 30
0.0
 11
229.015759
 21
-19.998938
 31
0.0
  0
LINE
  5
4759
100
AcDbEntity
  8
MSL3_40_3F-7
100
AcDbLine
 10
243.015759
 20
-19.998938
 30
0.0
 11
237.015759
 21
-19.998938
 31
0.0
  0
LINE
  5
475A
100
AcDbEntity
  8
MSL3_40_3F-7
100
AcDbLine
 10
243.015759
 20
-19.998938
 30
0.0
 11
243.015759
 21
-25.998938
 31
0.0
  0
LINE
  5
475B
100
AcDbEntity
  8
MSL3_40_3F-7
100
AcDbLine
 10
263.015759
 20
-19.998938
 30
0.0
 11
263.015759
 21
-13.998938
 31
0.0
  0
CIRCLE
  5
475C
100
AcDbEntity
  8
MSL3_40_3F-0
100
AcDbCircle
 10
263.015759
 20
-19.998938
 30
0.0
 40
2.5
  0
ARC
  5
475D
100
AcDbEntity
  8
MSL3_40_3F-4
100
AcDbCircle
 10
263.015759
 20
-19.998938
 30
0.0
 40
3.0
100
AcDbArc
 50
83.134355
 51
6.400807
  0
LINE
  5
475E
100
AcDbEntity
  8
MSL3_40_3F-7
100
AcDbLine
 10
263.015759
 20
-19.998938
 30
0.0
 11
269.015759
 21
-19.998938
 31
0.0
  0
LINE
  5
475F
100
AcDbEntity
  8
MSL3_40_3F-7
100
AcDbLine
 10
263.015759
 20
-19.998938
 30
0.0
 11
263.015759
 21
-25.998938
 31
0.0
  0
LINE
  5
4760
100
AcDbEntity
  8
MSL3_40_3F-7
100
AcDbLine
 10
263.015759
 20
-19.998938
 30
0.0
 11
257.015759
 21
-19.998938
 31
0.0
  0
LINE
  5
4761
100
AcDbEntity
  8
MSL3_40_3F-7
100
AcDbLine
 10
243.015759
 20
20.001062
 30
0.0
 11
249.015759
 21
20.001062
 31
0.0
  0
LINE
  5
4762
100
AcDbEntity
  8
MSL3_40_3F-0
100
AcDbLine
 10
277.515759
 20
25.001062
 30
0.0
 11
231.665759
 21
25.001062
 31
0.0
  0
LINE
  5
4763
100
AcDbEntity
  8
MSL3_40_3F-7
100
AcDbLine
 10
217.015759
 20
56.390642
 30
0.0
 11
217.015759
 21
42.812562
 31
0.0
1001
GENIUS_GENODEF_13
1002
{
1000
HIER
1070
     0
1002
}
1002
{
1000
MANEDIT
1070
     0
1002
}
1002
{
1000
NOSEL
1070
     0
1002
}
1002
{
1000
BEHIND
1070
     0
1002
}
1002
{
1000
REACTOR
1002
}
1001
GENIUS_GENOBJ-N-CEN_13
1002
{
1000
OWNER
1000
GEN
1002
}
  0
ELLIPSE
  5
4764
100
AcDbEntity
  8
MSL3_40_3F-0
100
AcDbEllipse
 10
217.015759
 20
52.217722
 30
0.0
 11
-2.0
 21
0.0
 31
0.0
210
0.0
220
0.0
230
1.0
 40
0.642788
 41
-1.112236758281637
 42
4.253829411871619
  0
LINE
  5
4765
100
AcDbEntity
  8
MSL3_40_3F-0
100
AcDbLine
 10
215.015759
 20
52.217722
 30
0.0
 11
217.015759
 21
54.286042
 31
0.0
  0
LINE
  5
4766
100
AcDbEntity
  8
MSL3_40_3F-0
100
AcDbLine
 10
217.015759
 20
54.286042
 30
0.0
 11
219.015759
 21
52.217722
 31
0.0
  0
ELLIPSE
  5
4767
100
AcDbEntity
  8
MSL3_40_3F-0
100
AcDbEllipse
 10
217.015759
 20
52.217722
 30
0.0
 11
5.5
 21
0.0
 31
0.0
210
0.0
220
0.0
230
1.0
 40
0.642788
 41
0.0
 42
6.2831853071796
  0
LINE
  5
4768
100
AcDbEntity
  8
MSL3_40_3F-7
100
AcDbLine
 10
227.265759
 20
39.001062
 30
0.0
 11
211.765759
 21
39.001062
 31
0.0
1001
GENIUS_GENODEF_13
1002
{
1000
HIER
1070
     0
1002
}
1002
{
1000
MANEDIT
1070
     0
1002
}
1002
{
1000
NOSEL
1070
     0
1002
}
1002
{
1000
BEHIND
1070
     0
1002
}
1002
{
1000
REACTOR
1002
}
1001
GENIUS_GENOBJ-N-CEN_13
1002
{
1000
OWNER
1000
GEN
1002
}
  0
LINE
  5
4769
100
AcDbEntity
  8
MSL3_40_3F-7
100
AcDbLine
 10
225.415759
 20
50.685633
 30
0.0
 11
208.615759
 21
50.685633
 31
0.0
1001
GENIUS_GENODEF_13
1002
{
1000
HIER
1070
     0
1002
}
1002
{
1000
MANEDIT
1070
     0
1002
}
1002
{
1000
NOSEL
1070
     0
1002
}
1002
{
1000
BEHIND
1070
     0
1002
}
1002
{
1000
REACTOR
1002
}
1001
GENIUS_GENOBJ-N-CEN_13
1002
{
1000
OWNER
1000
GEN
1002
}
  0
ELLIPSE
  5
476A
100
AcDbEntity
  8
MSL3_40_3F-0
100
AcDbEllipse
 10
217.015759
 20
50.685633
 30
0.0
 11
5.5
 21
0.0
 31
0.0
210
0.0
220
0.0
230
1.0
 40
0.642788
 41
3.141592653589793
 42
6.283185307179786
  0
LINE
  5
476B
100
AcDbEntity
  8
MSL3_40_3F-0
100
AcDbLine
 10
217.865759
 20
25.001062
 30
0.0
 11
208.515759
 21
25.001062
 31
0.0
  0
LINE
  5
476C
100
AcDbEntity
  8
MSL3_40_3F-0
100
AcDbLine
 10
208.515759
 20
27.001062
 30
0.0
 11
203.515759
 21
27.001062
 31
0.0
  0
LINE
  5
476D
100
AcDbEntity
  8
MSL3_40_3F-0
100
AcDbLine
 10
203.515759
 20
27.001062
 30
0.0
 11
203.515759
 21
25.001062
 31
0.0
  0
LINE
  5
476E
100
AcDbEntity
  8
MSL3_40_3F-0
100
AcDbLine
 10
208.515759
 20
25.001062
 30
0.0
 11
208.515759
 21
27.001062
 31
0.0
  0
LINE
  5
476F
100
AcDbEntity
  8
MSL3_40_3F-0
100
AcDbLine
 10
211.515759
 20
50.685633
 30
0.0
 11
211.515759
 21
52.217722
 31
0.0
  0
LINE
  5
4770
100
AcDbEntity
  8
MSL3_40_3F-7
100
AcDbLine
 10
230.015759
 20
39.751062
 30
0.0
 11
230.015759
 21
22.001062
 31
0.0
1001
GENIUS_GENODEF_13
1002
{
1000
HIER
1070
     0
1002
}
1002
{
1000
MANEDIT
1070
     0
1002
}
1002
{
1000
NOSEL
1070
     0
1002
}
1002
{
1000
BEHIND
1070
     0
1002
}
1002
{
1000
REACTOR
1002
}
1001
GENIUS_GENOBJ-N-CEN_13
1002
{
1000
OWNER
1000
GEN
1002
}
  0
LINE
  5
4771
100
AcDbEntity
  8
MSL3_40_3F-7
100
AcDbLine
 10
219.515759
 20
46.751062
 30
0.0
 11
219.515759
 21
22.001062
 31
0.0
1001
GENIUS_GENODEF_13
1002
{
1000
HIER
1070
     0
1002
}
1002
{
1000
MANEDIT
1070
     0
1002
}
1002
{
1000
NOSEL
1070
     0
1002
}
1002
{
1000
BEHIND
1070
     0
1002
}
1002
{
1000
REACTOR
1002
}
1001
GENIUS_GENOBJ-N-CEN_13
1002
{
1000
OWNER
1000
GEN
1002
}
  0
CIRCLE
  5
4772
100
AcDbEntity
  8
MSL3_40_3F-0
100
AcDbCircle
 10
230.015759
 20
32.001062
 30
0.0
 40
5.5
  0
LINE
  5
4773
100
AcDbEntity
  8
MSL3_40_3F-0
100
AcDbLine
 10
221.165759
 20
25.001062
 30
0.0
 11
221.165759
 21
33.754396
 31
0.0
  0
LINE
  5
4774
100
AcDbEntity
  8
MSL3_40_3F-0
100
AcDbLine
 10
217.865759
 20
33.754396
 30
0.0
 11
217.865759
 21
25.001062
 31
0.0
  0
LINE
  5
4775
100
AcDbEntity
  8
MSL3_40_3F-7
100
AcDbLine
 10
223.015759
 20
20.001062
 30
0.0
 11
223.015759
 21
14.001062
 31
0.0
  0
LINE
  5
4776
100
AcDbEntity
  8
MSL3_40_3F-7
100
AcDbLine
 10
223.015759
 20
20.001062
 30
0.0
 11
217.015759
 21
20.001062
 31
0.0
  0
LINE
  5
4777
100
AcDbEntity
  8
MSL3_40_3F-0
100
AcDbLine
 10
228.365759
 20
25.001062
 30
0.0
 11
221.165759
 21
25.001062
 31
0.0
  0
ARC
  5
4778
100
AcDbEntity
  8
MSL3_40_3F-4
100
AcDbCircle
 10
223.015759
 20
20.001062
 30
0.0
 40
3.0
100
AcDbArc
 50
83.134355
 51
6.400807
  0
CIRCLE
  5
4779
100
AcDbEntity
  8
MSL3_40_3F-0
100
AcDbCircle
 10
223.015759
 20
20.001062
 30
0.0
 40
2.5
  0
LINE
  5
477A
100
AcDbEntity
  8
MSL3_40_3F-7
100
AcDbLine
 10
223.015759
 20
20.001062
 30
0.0
 11
223.015759
 21
26.001062
 31
0.0
  0
LINE
  5
477B
100
AcDbEntity
  8
MSL3_40_3F-7
100
AcDbLine
 10
223.015759
 20
20.001062
 30
0.0
 11
229.015759
 21
20.001062
 31
0.0
  0
LINE
  5
477C
100
AcDbEntity
  8
MSL3_40_3F-0
100
AcDbLine
 10
228.365759
 20
25.001062
 30
0.0
 11
228.365759
 21
26.754396
 31
0.0
  0
LINE
  5
477D
100
AcDbEntity
  8
MSL3_40_3F-7
100
AcDbLine
 10
243.015759
 20
20.001062
 30
0.0
 11
243.015759
 21
14.001062
 31
0.0
  0
LINE
  5
477E
100
AcDbEntity
  8
MSL3_40_3F-7
100
AcDbLine
 10
243.015759
 20
20.001062
 30
0.0
 11
237.015759
 21
20.001062
 31
0.0
  0
LINE
  5
477F
100
AcDbEntity
  8
MSL3_40_3F-0
100
AcDbLine
 10
231.665759
 20
25.001062
 30
0.0
 11
231.665759
 21
26.754396
 31
0.0
  0
LINE
  5
4780
100
AcDbEntity
  8
MSL3_40_3F-7
100
AcDbLine
 10
243.015759
 20
20.001062
 30
0.0
 11
243.015759
 21
26.001062
 31
0.0
  0
CIRCLE
  5
4781
100
AcDbEntity
  8
MSL3_40_3F-0
100
AcDbCircle
 10
243.015759
 20
20.001062
 30
0.0
 40
3.0
  0
LINE
  5
4782
100
AcDbEntity
  8
MSL3_40_3F-7
100
AcDbLine
 10
237.765759
 20
32.001062
 30
0.0
 11
222.265759
 21
32.001062
 31
0.0
1001
GENIUS_GENODEF_13
1002
{
1000
HIER
1070
     0
1002
}
1002
{
1000
MANEDIT
1070
     0
1002
}
1002
{
1000
NOSEL
1070
     0
1002
}
1002
{
1000
BEHIND
1070
     0
1002
}
1002
{
1000
REACTOR
1002
}
1001
GENIUS_GENOBJ-N-CEN_13
1002
{
1000
OWNER
1000
GEN
1002
}
  0
CIRCLE
  5
4783
100
AcDbEntity
  8
MSL3_40_3F-0
100
AcDbCircle
 10
219.515759
 20
39.001062
 30
0.0
 40
5.5
  0
LINE
  5
4784
100
AcDbEntity
  8
MSL3_40_3F-0
100
AcDbLine
 10
222.515759
 20
50.685633
 30
0.0
 11
222.515759
 21
52.217722
 31
0.0
  0
LINE
  5
4785
100
AcDbEntity
  8
MSL3_40_3F-7
100
AcDbLine
 10
182.515759
 20
57.378149
 30
0.0
 11
182.515759
 21
69.631187
 31
0.0
1001
GENIUS_GENODEF_13
1002
{
1000
HIER
1070
     0
1002
}
1002
{
1000
MANEDIT
1070
     0
1002
}
1002
{
1000
NOSEL
1070
     0
1002
}
1002
{
1000
BEHIND
1070
     0
1002
}
1002
{
1000
REACTOR
1002
}
1001
GENIUS_GENOBJ-N-CEN_13
1002
{
1000
OWNER
1000
GEN
1002
}
  0
ELLIPSE
  5
4786
100
AcDbEntity
  8
MSL3_40_3F-3
100
AcDbEllipse
 10
182.515759
 20
63.504668
 30
0.0
 11
4.283225000000015
 21
0.0
 31
0.0
210
0.0
220
0.0
230
1.0
 40
0.642788
 41
0.0
 42
6.2831853071796
  0
LINE
  5
4787
100
AcDbEntity
  8
MSL3_40_3F-3
100
AcDbLine
 10
192.215759
 20
70.575331
 30
0.0
 11
192.215759
 21
56.434004
 31
0.0
  0
LINE
  5
4788
100
AcDbEntity
  8
MSL3_40_3F-0
100
AcDbLine
 10
312.515759
 20
56.434004
 30
0.0
 11
312.515759
 21
25.001062
 31
0.0
  0
LINE
  5
4789
100
AcDbEntity
  8
MSL3_40_3F-0
100
AcDbLine
 10
313.015759
 20
80.001062
 30
0.0
 11
313.015759
 21
25.001062
 31
0.0
  0
LINE
  5
478A
100
AcDbEntity
  8
MSL3_40_3F-0
100
AcDbLine
 10
282.515759
 20
27.001062
 30
0.0
 11
277.515759
 21
27.001062
 31
0.0
  0
LINE
  5
478B
100
AcDbEntity
  8
MSL3_40_3F-7
100
AcDbLine
 10
263.015759
 20
20.001062
 30
0.0
 11
269.015759
 21
20.001062
 31
0.0
  0
ARC
  5
478C
100
AcDbEntity
  8
MSL3_40_3F-4
100
AcDbCircle
 10
263.015759
 20
20.001062
 30
0.0
 40
3.0
100
AcDbArc
 50
83.134355
 51
6.400807
  0
CIRCLE
  5
478D
100
AcDbEntity
  8
MSL3_40_3F-0
100
AcDbCircle
 10
263.015759
 20
20.001062
 30
0.0
 40
2.5
  0
LINE
  5
478E
100
AcDbEntity
  8
MSL3_40_3F-7
100
AcDbLine
 10
263.015759
 20
20.001062
 30
0.0
 11
263.015759
 21
14.001062
 31
0.0
  0
LINE
  5
478F
100
AcDbEntity
  8
MSL3_40_3F-7
100
AcDbLine
 10
263.015759
 20
20.001062
 30
0.0
 11
263.015759
 21
26.001062
 31
0.0
  0
LINE
  5
4790
100
AcDbEntity
  8
MSL3_40_3F-7
100
AcDbLine
 10
263.015759
 20
20.001062
 30
0.0
 11
257.015759
 21
20.001062
 31
0.0
  0
LINE
  5
4791
100
AcDbEntity
  8
MSL3_40_3F-0
100
AcDbLine
 10
277.515759
 20
27.001062
 30
0.0
 11
277.515759
 21
25.001062
 31
0.0
  0
ARC
  5
4792
100
AcDbEntity
  8
MSL3_40_3F-0
100
AcDbCircle
 10
317.067682
 20
25.608757
 30
0.0
 40
4.051923
100
AcDbArc
 50
121.248241
 51
238.751759
  0
LINE
  5
4793
100
AcDbEntity
  8
MSL3_40_3F-4
100
AcDbLine
 10
312.515759
 20
27.001062
 30
0.0
 11
282.515759
 21
27.001062
 31
0.0
  0
LINE
  5
4794
100
AcDbEntity
  8
MSL3_40_3F-0
100
AcDbLine
 10
312.515759
 20
25.001062
 30
0.0
 11
282.515759
 21
25.001062
 31
0.0
  0
LINE
  5
4795
100
AcDbEntity
  8
MSL3_40_3F-0
100
AcDbLine
 10
282.515759
 20
25.001062
 30
0.0
 11
282.515759
 21
27.001062
 31
0.0
  0
LINE
  5
4796
100
AcDbEntity
  8
MSL3_40_3F-0
100
AcDbLine
 10
314.965759
 20
22.144655
 30
0.0
 11
316.065759
 21
22.144655
 31
0.0
  0
ARC
  5
4797
100
AcDbEntity
  8
MSL3_40_3F-0
100
AcDbCircle
 10
326.298451
 20
36.001062
 30
0.0
 40
13.282692
100
AcDbArc
 50
148.560609
 51
211.439391
  0
LINE
  5
4798
100
AcDbEntity
  8
MSL3_40_3F-0
100
AcDbLine
 10
314.965759
 20
29.072859
 30
0.0
 11
316.065759
 21
29.072859
 31
0.0
  0
LINE
  5
4799
100
AcDbEntity
  8
MSL3_40_3F-0
100
AcDbLine
 10
314.965759
 20
49.857468
 30
0.0
 11
316.065759
 21
49.857468
 31
0.0
  0
LINE
  5
479A
100
AcDbEntity
  8
MSL3_40_3F-0
100
AcDbLine
 10
314.965759
 20
42.929265
 30
0.0
 11
316.065759
 21
42.929265
 31
0.0
  0
ARC
  5
479B
100
AcDbEntity
  8
MSL3_40_3F-0
100
AcDbCircle
 10
317.067682
 20
46.393367
 30
0.0
 40
4.051923
100
AcDbArc
 50
121.248241
 51
238.751759
  0
LINE
  5
479C
100
AcDbEntity
  8
MSL3_40_3F-0
100
AcDbLine
 10
312.515759
 20
81.001062
 30
0.0
 11
312.515759
 21
70.575331
 31
0.0
  0
LINE
  5
479D
100
AcDbEntity
  8
MSL3_40_3F-7
100
AcDbLine
 10
295.651759
 20
63.504668
 30
0.0
 11
311.379759
 21
63.504668
 31
0.0
1001
GENIUS_GENODEF_13
1002
{
1000
HIER
1070
     0
1002
}
1002
{
1000
MANEDIT
1070
     0
1002
}
1002
{
1000
NOSEL
1070
     0
1002
}
1002
{
1000
BEHIND
1070
     0
1002
}
1002
{
1000
REACTOR
1002
}
1001
GENIUS_GENOBJ-N-CEN_13
1002
{
1000
OWNER
1000
GEN
1002
}
  0
ELLIPSE
  5
479E
100
AcDbEntity
  8
MSL3_40_3F-0
100
AcDbEllipse
 10
303.515759
 20
63.504668
 30
0.0
 11
4.283225000000015
 21
0.0
 31
0.0
210
0.0
220
0.0
230
1.0
 40
0.642788
 41
0.0
 42
6.2831853071796
  0
ELLIPSE
  5
479F
100
AcDbEntity
  8
MSL3_40_3F-4
100
AcDbEllipse
 10
303.515759
 20
63.504668
 30
0.0
 11
4.863999999999919
 21
0.0
 31
0.0
210
0.0
220
0.0
230
1.0
 40
0.642788
 41
-1.626973784062189
 42
3.276869584235791
  0
LINE
  5
47A0
100
AcDbEntity
  8
MSL3_40_3F-0
100
AcDbLine
 10
312.515759
 20
70.575331
 30
0.0
 11
293.815759
 21
70.575331
 31
0.0
  0
LINE
  5
47A1
100
AcDbEntity
  8
MSL3_40_3F-0
100
AcDbLine
 10
312.515759
 20
56.434004
 30
0.0
 11
293.815759
 21
56.434004
 31
0.0
  0
LINE
  5
47A2
100
AcDbEntity
  8
MSL3_40_3F-0
100
AcDbLine
 10
293.815759
 20
70.575331
 30
0.0
 11
293.815759
 21
57.200048
 31
0.0
  0
LINE
  5
47A3
100
AcDbEntity
  8
MSL3_40_3F-0
100
AcDbLine
 10
293.815759
 20
56.434004
 30
0.0
 11
293.815759
 21
57.200048
 31
0.0
  0
LINE
  5
47A4
100
AcDbEntity
  8
MSL3_40_3F-7
100
AcDbLine
 10
303.515759
 20
57.378149
 30
0.0
 11
303.515759
 21
69.631187
 31
0.0
1001
GENIUS_GENODEF_13
1002
{
1000
HIER
1070
     0
1002
}
1002
{
1000
MANEDIT
1070
     0
1002
}
1002
{
1000
NOSEL
1070
     0
1002
}
1002
{
1000
BEHIND
1070
     0
1002
}
1002
{
1000
REACTOR
1002
}
1001
GENIUS_GENOBJ-N-CEN_13
1002
{
1000
OWNER
1000
GEN
1002
}
  0
LINE
  5
47A5
100
AcDbEntity
  8
MSL3_40_3F-0
100
AcDbLine
 10
313.015759
 20
80.001062
 30
0.0
 11
312.515759
 21
80.001062
 31
0.0
  0
LINE
  5
47A6
100
AcDbEntity
  8
MSL3_40_3F-7
100
AcDbLine
 10
130.015759
 20
224.724429
 30
0.0
 11
180.239527
 21
224.724429
 31
0.0
  0
LINE
  5
47A7
100
AcDbEntity
  8
MSL3_40_3F-7
100
AcDbLine
 10
130.015759
 20
189.724429
 30
0.0
 11
180.239527
 21
189.724429
 31
0.0
  0
LINE
  5
47A8
100
AcDbEntity
  8
MSL3_40_3F-7
100
AcDbLine
 10
130.015759
 20
154.724429
 30
0.0
 11
180.239527
 21
154.724429
 31
0.0
  0
TEXT
  5
47A9
100
AcDbEntity
  8
MSL3_40_3F-6
100
AcDbText
 10
174.748145
 20
141.41879
 30
0.0
 40
3.5
  1
MSL3-40-3F
100
AcDbText
  0
LINE
  5
47AA
100
AcDbEntity
  8
MSL3_40_3F-0
100
AcDbLine
 10
173.015759
 20
239.724429
 30
0.0
 11
313.015759
 21
239.724429
 31
0.0
  0
LINE
  5
47AB
100
AcDbEntity
  8
MSL3_40_3F-0
100
AcDbLine
 10
313.015759
 20
139.724429
 30
0.0
 11
173.015759
 21
139.724429
 31
0.0
  0
LINE
  5
47AC
100
AcDbEntity
  8
MSL3_40_3F-0
100
AcDbLine
 10
154.015759
 20
179.224429
 30
0.0
 11
154.015759
 21
200.224429
 31
0.0
  0
LINE
  5
47AD
100
AcDbEntity
  8
MSL3_40_3F-0
100
AcDbLine
 10
155.015759
 20
201.224429
 30
0.0
 11
155.015759
 21
178.224429
 31
0.0
  0
LINE
  5
47AE
100
AcDbEntity
  8
MSL3_40_3F-0
100
AcDbLine
 10
173.015759
 20
139.724429
 30
0.0
 11
173.015759
 21
239.724429
 31
0.0
  0
LINE
  5
47AF
100
AcDbEntity
  8
MSL3_40_3F-0
100
AcDbLine
 10
153.015759
 20
139.724429
 30
0.0
 11
153.015759
 21
239.724429
 31
0.0
  0
LINE
  5
47B0
100
AcDbEntity
  8
MSL3_40_3F-0
100
AcDbLine
 10
133.015759
 20
239.724429
 30
0.0
 11
133.015759
 21
139.724429
 31
0.0
  0
LINE
  5
47B1
100
AcDbEntity
  8
MSL3_40_3F-7
100
AcDbLine
 10
139.015759
 20
160.143845
 30
0.0
 11
139.015759
 21
136.724429
 31
0.0
  0
LINE
  5
47B2
100
AcDbEntity
  8
MSL3_40_3F-3
100
AcDbLine
 10
142.015759
 20
139.724429
 30
0.0
 11
142.015759
 21
151.724429
 31
0.0
  0
LINE
  5
47B3
100
AcDbEntity
  8
MSL3_40_3F-3
100
AcDbLine
 10
136.015759
 20
139.724429
 30
0.0
 11
136.015759
 21
151.724429
 31
0.0
  0
LINE
  5
47B4
100
AcDbEntity
  8
MSL3_40_3F-3
100
AcDbLine
 10
141.474259
 20
139.724429
 30
0.0
 11
141.474259
 21
155.724429
 31
0.0
  0
LINE
  5
47B5
100
AcDbEntity
  8
MSL3_40_3F-3
100
AcDbLine
 10
136.557259
 20
139.724429
 30
0.0
 11
136.557259
 21
155.724429
 31
0.0
  0
LINE
  5
47B6
100
AcDbEntity
  8
MSL3_40_3F-0
100
AcDbLine
 10
133.015759
 20
139.724429
 30
0.0
 11
153.015759
 21
139.724429
 31
0.0
  0
LINE
  5
47B7
100
AcDbEntity
  8
MSL3_40_3F-0
100
AcDbLine
 10
153.015759
 20
146.724429
 30
0.0
 11
173.015759
 21
146.724429
 31
0.0
  0
LINE
  5
47B8
100
AcDbEntity
  8
MSL3_40_3F-7
100
AcDbLine
 10
130.015759
 20
169.724429
 30
0.0
 11
156.015759
 21
169.724429
 31
0.0
  0
LINE
  5
47B9
100
AcDbEntity
  8
MSL3_40_3F-3
100
AcDbLine
 10
133.015759
 20
172.724429
 30
0.0
 11
153.015759
 21
172.724429
 31
0.0
  0
LINE
  5
47BA
100
AcDbEntity
  8
MSL3_40_3F-3
100
AcDbLine
 10
133.015759
 20
166.724429
 30
0.0
 11
153.015759
 21
166.724429
 31
0.0
  0
LINE
  5
47BB
100
AcDbEntity
  8
MSL3_40_3F-3
100
AcDbLine
 10
139.015759
 20
157.143845
 30
0.0
 11
136.557259
 21
155.724429
 31
0.0
  0
LINE
  5
47BC
100
AcDbEntity
  8
MSL3_40_3F-3
100
AcDbLine
 10
139.015759
 20
157.143845
 30
0.0
 11
141.474259
 21
155.724429
 31
0.0
  0
LINE
  5
47BD
100
AcDbEntity
  8
MSL3_40_3F-3
100
AcDbLine
 10
141.474259
 20
155.724429
 30
0.0
 11
136.557259
 21
155.724429
 31
0.0
  0
LINE
  5
47BE
100
AcDbEntity
  8
MSL3_40_3F-3
100
AcDbLine
 10
142.015759
 20
151.724429
 30
0.0
 11
136.015759
 21
151.724429
 31
0.0
  0
LINE
  5
47BF
100
AcDbEntity
  8
MSL3_40_3F-0
100
AcDbLine
 10
153.015759
 20
162.724429
 30
0.0
 11
173.015759
 21
162.724429
 31
0.0
  0
LINE
  5
47C0
100
AcDbEntity
  8
MSL3_40_3F-7
100
AcDbLine
 10
147.015759
 20
159.643248
 30
0.0
 11
147.015759
 21
149.613134
 31
0.0
  0
CIRCLE
  5
47C1
100
AcDbEntity
  8
MSL3_40_3F-0
100
AcDbCircle
 10
147.015759
 20
154.724429
 30
0.0
 40
2.5
  0
ARC
  5
47C2
100
AcDbEntity
  8
MSL3_40_3F-4
100
AcDbCircle
 10
147.015759
 20
154.724429
 30
0.0
 40
3.0
100
AcDbArc
 50
251.265343
 51
200.571702
  0
LINE
  5
47C3
100
AcDbEntity
  8
MSL3_40_3F-3
100
AcDbLine
 10
154.015759
 20
181.724429
 30
0.0
 11
173.015759
 21
181.724429
 31
0.0
1001
GENIUS_GENBH_13
1002
{
1000
OE
1000
CON1
1002
}
1001
GENIUS_GENOREF_13
1005
4912
  0
LINE
  5
47C4
100
AcDbEntity
  8
MSL3_40_3F-0
100
AcDbLine
 10
173.015759
 20
178.224429
 30
0.0
 11
155.015759
 21
178.224429
 31
0.0
  0
LINE
  5
47C5
100
AcDbEntity
  8
MSL3_40_3F-0
100
AcDbLine
 10
153.015759
 20
181.724429
 30
0.0
 11
154.015759
 21
181.724429
 31
0.0
1001
GENIUS_GENOREF_13
1005
4912
  0
LINE
  5
47C6
100
AcDbEntity
  8
MSL3_40_3F-0
100
AcDbLine
 10
155.015759
 20
178.224429
 30
0.0
 11
154.015759
 21
179.224429
 31
0.0
  0
LINE
  5
47C7
100
AcDbEntity
  8
MSL3_40_3F-0
100
AcDbLine
 10
153.015759
 20
193.724429
 30
0.0
 11
154.015759
 21
193.724429
 31
0.0
  0
LINE
  5
47C8
100
AcDbEntity
  8
MSL3_40_3F-0
100
AcDbLine
 10
154.015759
 20
185.724429
 30
0.0
 11
153.015759
 21
185.724429
 31
0.0
  0
LINE
  5
47C9
100
AcDbEntity
  8
MSL3_40_3F-7
100
AcDbLine
 10
139.015759
 20
219.305013
 30
0.0
 11
139.015759
 21
242.724429
 31
0.0
  0
LINE
  5
47CA
100
AcDbEntity
  8
MSL3_40_3F-7
100
AcDbLine
 10
130.015759
 20
209.724429
 30
0.0
 11
156.015759
 21
209.724429
 31
0.0
  0
LINE
  5
47CB
100
AcDbEntity
  8
MSL3_40_3F-3
100
AcDbLine
 10
148.015759
 20
213.024429
 30
0.0
 11
133.015759
 21
213.024429
 31
0.0
  0
LINE
  5
47CC
100
AcDbEntity
  8
MSL3_40_3F-3
100
AcDbLine
 10
133.015759
 20
206.424429
 30
0.0
 11
148.015759
 21
206.424429
 31
0.0
  0
LINE
  5
47CD
100
AcDbEntity
  8
MSL3_40_3F-0
100
AcDbLine
 10
153.015759
 20
239.724429
 30
0.0
 11
133.015759
 21
239.724429
 31
0.0
  0
LINE
  5
47CE
100
AcDbEntity
  8
MSL3_40_3F-3
100
AcDbLine
 10
142.015759
 20
239.724429
 30
0.0
 11
142.015759
 21
227.724429
 31
0.0
  0
LINE
  5
47CF
100
AcDbEntity
  8
MSL3_40_3F-3
100
AcDbLine
 10
136.015759
 20
239.724429
 30
0.0
 11
136.015759
 21
227.724429
 31
0.0
  0
LINE
  5
47D0
100
AcDbEntity
  8
MSL3_40_3F-3
100
AcDbLine
 10
141.474259
 20
239.724429
 30
0.0
 11
141.474259
 21
223.724429
 31
0.0
  0
LINE
  5
47D1
100
AcDbEntity
  8
MSL3_40_3F-3
100
AcDbLine
 10
136.557259
 20
239.724429
 30
0.0
 11
136.557259
 21
223.724429
 31
0.0
  0
LINE
  5
47D2
100
AcDbEntity
  8
MSL3_40_3F-3
100
AcDbLine
 10
139.015759
 20
222.305013
 30
0.0
 11
136.557259
 21
223.724429
 31
0.0
  0
LINE
  5
47D3
100
AcDbEntity
  8
MSL3_40_3F-3
100
AcDbLine
 10
136.015759
 20
227.724429
 30
0.0
 11
142.015759
 21
227.724429
 31
0.0
  0
LINE
  5
47D4
100
AcDbEntity
  8
MSL3_40_3F-3
100
AcDbLine
 10
139.015759
 20
222.305013
 30
0.0
 11
141.474259
 21
223.724429
 31
0.0
  0
LINE
  5
47D5
100
AcDbEntity
  8
MSL3_40_3F-3
100
AcDbLine
 10
136.557259
 20
223.724429
 30
0.0
 11
141.474259
 21
223.724429
 31
0.0
  0
LINE
  5
47D6
100
AcDbEntity
  8
MSL3_40_3F-3
100
AcDbLine
 10
154.015759
 20
197.724429
 30
0.0
 11
173.015759
 21
197.724429
 31
0.0
1001
GENIUS_GENBH_13
1002
{
1000
OE
1000
CON1
1002
}
1001
GENIUS_GENOREF_13
1005
4912
  0
LINE
  5
47D7
100
AcDbEntity
  8
MSL3_40_3F-0
100
AcDbLine
 10
153.015759
 20
216.724429
 30
0.0
 11
173.015759
 21
216.724429
 31
0.0
  0
LINE
  5
47D8
100
AcDbEntity
  8
MSL3_40_3F-0
100
AcDbLine
 10
155.015759
 20
201.224429
 30
0.0
 11
173.015759
 21
201.224429
 31
0.0
  0
LINE
  5
47D9
100
AcDbEntity
  8
MSL3_40_3F-3
100
AcDbLine
 10
148.015759
 20
206.424429
 30
0.0
 11
148.015759
 21
204.224429
 31
0.0
  0
LINE
  5
47DA
100
AcDbEntity
  8
MSL3_40_3F-3
100
AcDbLine
 10
148.015759
 20
204.224429
 30
0.0
 11
153.015759
 21
204.224429
 31
0.0
  0
LINE
  5
47DB
100
AcDbEntity
  8
MSL3_40_3F-0
100
AcDbLine
 10
153.015759
 20
197.724429
 30
0.0
 11
154.015759
 21
197.724429
 31
0.0
1001
GENIUS_GENOREF_13
1005
4912
  0
LINE
  5
47DC
100
AcDbEntity
  8
MSL3_40_3F-0
100
AcDbLine
 10
154.015759
 20
200.224429
 30
0.0
 11
155.015759
 21
201.224429
 31
0.0
  0
LINE
  5
47DD
100
AcDbEntity
  8
MSL3_40_3F-3
100
AcDbLine
 10
153.015759
 20
215.224429
 30
0.0
 11
148.015759
 21
215.224429
 31
0.0
  0
LINE
  5
47DE
100
AcDbEntity
  8
MSL3_40_3F-3
100
AcDbLine
 10
148.015759
 20
206.424429
 30
0.0
 11
148.015759
 21
213.024429
 31
0.0
  0
LINE
  5
47DF
100
AcDbEntity
  8
MSL3_40_3F-3
100
AcDbLine
 10
148.015759
 20
215.224429
 30
0.0
 11
148.015759
 21
213.024429
 31
0.0
  0
LINE
  5
47E0
100
AcDbEntity
  8
MSL3_40_3F-0
100
AcDbLine
 10
173.015759
 20
232.724429
 30
0.0
 11
153.015759
 21
232.724429
 31
0.0
  0
LINE
  5
47E1
100
AcDbEntity
  8
MSL3_40_3F-7
100
AcDbLine
 10
147.015759
 20
229.643248
 30
0.0
 11
147.015759
 21
219.613134
 31
0.0
  0
CIRCLE
  5
47E2
100
AcDbEntity
  8
MSL3_40_3F-0
100
AcDbCircle
 10
147.015759
 20
224.724429
 30
0.0
 40
2.5
  0
ARC
  5
47E3
100
AcDbEntity
  8
MSL3_40_3F-4
100
AcDbCircle
 10
147.015759
 20
224.724429
 30
0.0
 40
3.0
100
AcDbArc
 50
251.265343
 51
200.571702
  0
LINE
  5
47E4
100
AcDbEntity
  8
MSL3_40_3F-7
100
AcDbLine
 10
243.015759
 20
203.724429
 30
0.0
 11
243.015759
 21
175.724429
 31
0.0
  0
LINE
  5
47E5
100
AcDbEntity
  8
MSL3_40_3F-0
100
AcDbLine
 10
313.015759
 20
239.724429
 30
0.0
 11
313.015759
 21
139.724429
 31
0.0
  0
LINE
  5
47E6
100
AcDbEntity
  8
MSL3_40_3F-7
100
AcDbLine
 10
243.015759
 20
169.724429
 30
0.0
 11
249.015759
 21
169.724429
 31
0.0
  0
LINE
  5
47E7
100
AcDbEntity
  8
MSL3_40_3F-7
100
AcDbLine
 10
210.992415
 20
189.724429
 30
0.0
 11
273.523285
 21
189.724429
 31
0.0
  0
LINE
  5
47E8
100
AcDbEntity
  8
MSL3_40_3F-7
100
AcDbLine
 10
243.015759
 20
136.724429
 30
0.0
 11
243.015759
 21
154.45648
 31
0.0
  0
LINE
  5
47E9
100
AcDbEntity
  8
MSL3_40_3F-7
100
AcDbLine
 10
223.015759
 20
160.143845
 30
0.0
 11
223.015759
 21
136.724429
 31
0.0
  0
INSERT
  5
47EA
100
AcDbEntity
  8
MSL3_40_3F-0
100
AcDbBlockReference
 66
     1
  2
GENINF13
 10
191.926697
 20
164.14655
 30
0.0
1001
GENIUS_GENSCSYM_13
1002
{
1000
INSPT
1011
191.926697
1021
164.14655
1031
0.0
1002
}
1002
{
1000
SCALE
1042
1.0
1002
}
1002
{
1000
USEOLDBPT
1070
     0
1002
}
1001
GENIUS_GENOBJ-N-INFOPT_13
1002
{
1000
OWNER
1000
GEN
1002
}
1001
GENIUS_GENSYMENT_13
1002
{
1000
ENT
1005
47EA
1002
}
1001
GENIUS_GENODEF_13
1002
{
1000
HIER
1070
     0
1002
}
1002
{
1000
MANEDIT
1070
     0
1002
}
1002
{
1000
NOSEL
1070
     0
1002
}
1002
{
1000
BEHIND
1070
     0
1002
}
1002
{
1000
REACTOR
1002
}
1001
GENIUS_GENOBJ-N-RSSYM_13
1002
{
1000
OWNER
1000
GEN
1002
}
1001
GENIUS_GENINF13_13
1070
     1
  0
ATTRIB
  5
47EB
100
AcDbEntity
  8
INFO
100
AcDbText
 10
191.926697
 20
164.14655
 30
0.0
 40
1.0
  1
1
100
AcDbAttribute
  2
2GENINF
 70
     1
  0
ATTRIB
  5
47EC
100
AcDbEntity
  8
INFO
100
AcDbText
 10
191.926697
 20
162.64655
 30
0.0
 40
1.0
  1
<***aktuell***>
100
AcDbAttribute
  2
3GENINF
 70
     1
  0
ATTRIB
  5
47ED
100
AcDbEntity
  8
INFO
100
AcDbText
 10
191.926697
 20
161.14655
 30
0.0
 40
1.0
  1

100
AcDbAttribute
  2
4GENINF
 70
     1
  0
ATTRIB
  5
47EE
100
AcDbEntity
  8
INFO
100
AcDbText
 10
191.926697
 20
159.64655
 30
0.0
 40
1.0
  1
MSL3-40-3F
100
AcDbAttribute
  2
5GENINF
 70
     1
  0
ATTRIB
  5
47EF
100
AcDbEntity
  8
INFO
100
AcDbText
 10
191.926697
 20
158.14655
 30
0.0
 40
1.0
  1

100
AcDbAttribute
  2
6GENINF
 70
     1
  0
ATTRIB
  5
47F0
100
AcDbEntity
  8
INFO
100
AcDbText
 10
191.926697
 20
156.64655
 30
0.0
 40
1.0
  1
Fa. Mayer
100
AcDbAttribute
  2
7GENINF
 70
     1
  0
ATTRIB
  5
47F1
100
AcDbEntity
  8
INFO
100
AcDbText
 10
191.926697
 20
155.14655
 30
0.0
 40
1.0
  1

100
AcDbAttribute
  2
8GENINF
 70
     1
  0
ATTRIB
  5
47F2
100
AcDbEntity
  8
INFO
100
AcDbText
 10
191.926697
 20
153.64655
 30
0.0
 40
1.0
  1

100
AcDbAttribute
  2
9GENINF
 70
     1
  0
ATTRIB
  5
47F3
100
AcDbEntity
  8
INFO
100
AcDbText
 10
191.926697
 20
152.14655
 30
0.0
 40
1.0
  1

100
AcDbAttribute
  2
10GENINF
 70
     1
  0
ATTRIB
  5
47F4
100
AcDbEntity
  8
INFO
100
AcDbText
 10
191.926697
 20
150.64655
 30
0.0
 40
1.0
  1

100
AcDbAttribute
  2
11GENINF
 70
     1
  0
ATTRIB
  5
47F5
100
AcDbEntity
  8
INFO
100
AcDbText
 10
191.926697
 20
149.14655
 30
0.0
 40
1.0
  1

100
AcDbAttribute
  2
12GENINF
 70
     1
  0
ATTRIB
  5
47F6
100
AcDbEntity
  8
INFO
100
AcDbText
 10
191.926697
 20
147.64655
 30
0.0
 40
1.0
  1

100
AcDbAttribute
  2
13GENINF
 70
     1
  0
ATTRIB
  5
47F7
100
AcDbEntity
  8
INFO
100
AcDbText
 10
191.926697
 20
146.14655
 30
0.0
 40
1.0
  1

100
AcDbAttribute
  2
14GENINF
 70
     1
  0
ATTRIB
  5
47F8
100
AcDbEntity
  8
INFO
100
AcDbText
 10
191.926697
 20
144.64655
 30
0.0
 40
1.0
  1

100
AcDbAttribute
  2
15GENINF
 70
     1
  0
ATTRIB
  5
47F9
100
AcDbEntity
  8
INFO
100
AcDbText
 10
191.926697
 20
143.14655
 30
0.0
 40
1.0
  1

100
AcDbAttribute
  2
16GENINF
 70
     1
  0
ATTRIB
  5
47FA
100
AcDbEntity
  8
INFO
100
AcDbText
 10
191.926697
 20
141.64655
 30
0.0
 40
1.0
  1

100
AcDbAttribute
  2
17GENINF
 70
     1
  0
ATTRIB
  5
47FB
100
AcDbEntity
  8
INFO
100
AcDbText
 10
191.926697
 20
140.14655
 30
0.0
 40
1.0
  1

100
AcDbAttribute
  2
18GENINF
 70
     1
  0
ATTRIB
  5
47FC
100
AcDbEntity
  8
INFO
100
AcDbText
 10
191.926697
 20
138.64655
 30
0.0
 40
1.0
  1

100
AcDbAttribute
  2
19GENINF
 70
     1
  0
ATTRIB
  5
47FD
100
AcDbEntity
  8
INFO
100
AcDbText
 10
191.926697
 20
137.14655
 30
0.0
 40
1.0
  1

100
AcDbAttribute
  2
20GENINF
 70
     1
  0
ATTRIB
  5
47FE
100
AcDbEntity
  8
INFO
100
AcDbText
 10
191.926697
 20
135.64655
 30
0.0
 40
1.0
  1

100
AcDbAttribute
  2
21GENINF
 70
     1
  0
ATTRIB
  5
47FF
100
AcDbEntity
  8
INFO
100
AcDbText
 10
191.926697
 20
134.14655
 30
0.0
 40
1.0
  1

100
AcDbAttribute
  2
22GENINF
 70
     1
  0
ATTRIB
  5
4800
100
AcDbEntity
  8
INFO
100
AcDbText
 10
191.926697
 20
132.64655
 30
0.0
 40
1.0
  1

100
AcDbAttribute
  2
23GENINF
 70
     1
  0
ATTRIB
  5
4801
100
AcDbEntity
  8
INFO
100
AcDbText
 10
191.926697
 20
131.14655
 30
0.0
 40
1.0
  1

100
AcDbAttribute
  2
24GENINF
 70
     1
  0
ATTRIB
  5
4802
100
AcDbEntity
  8
INFO
100
AcDbText
 10
191.926697
 20
129.64655
 30
0.0
 40
1.0
  1

100
AcDbAttribute
  2
0GENINF
 70
     1
  0
SEQEND
  5
4803
100
AcDbEntity
  8
MSL3_40_3F-0
  0
LINE
  5
4804
100
AcDbEntity
  8
MSL3_40_3F-7
100
AcDbLine
 10
243.015759
 20
169.724429
 30
0.0
 11
243.015759
 21
175.724429
 31
0.0
  0
LINE
  5
4805
100
AcDbEntity
  8
MSL3_40_3F-7
100
AcDbLine
 10
223.015759
 20
169.724429
 30
0.0
 11
223.015759
 21
175.724429
 31
0.0
  0
CIRCLE
  5
4806
100
AcDbEntity
  8
MSL3_40_3F-0
100
AcDbCircle
 10
243.015759
 20
169.724429
 30
0.0
 40
3.0
  0
ARC
  5
4807
100
AcDbEntity
  8
MSL3_40_3F-4
100
AcDbCircle
 10
223.015759
 20
169.724429
 30
0.0
 40
3.0
100
AcDbArc
 50
353.599193
 51
276.865645
  0
CIRCLE
  5
4808
100
AcDbEntity
  8
MSL3_40_3F-0
100
AcDbCircle
 10
223.015759
 20
169.724429
 30
0.0
 40
2.5
  0
LINE
  5
4809
100
AcDbEntity
  8
MSL3_40_3F-7
100
AcDbLine
 10
223.015759
 20
169.724429
 30
0.0
 11
217.015759
 21
169.724429
 31
0.0
  0
LINE
  5
480A
100
AcDbEntity
  8
MSL3_40_3F-7
100
AcDbLine
 10
223.015759
 20
169.724429
 30
0.0
 11
223.015759
 21
163.724429
 31
0.0
  0
LINE
  5
480B
100
AcDbEntity
  8
MSL3_40_3F-7
100
AcDbLine
 10
223.015759
 20
169.724429
 30
0.0
 11
229.015759
 21
169.724429
 31
0.0
  0
LINE
  5
480C
100
AcDbEntity
  8
MSL3_40_3F-7
100
AcDbLine
 10
243.015759
 20
169.724429
 30
0.0
 11
237.015759
 21
169.724429
 31
0.0
  0
LINE
  5
480D
100
AcDbEntity
  8
MSL3_40_3F-7
100
AcDbLine
 10
243.015759
 20
169.724429
 30
0.0
 11
243.015759
 21
163.724429
 31
0.0
  0
LINE
  5
480E
100
AcDbEntity
  8
MSL3_40_3F-7
100
AcDbLine
 10
263.015759
 20
160.143845
 30
0.0
 11
263.015759
 21
136.724429
 31
0.0
  0
LINE
  5
480F
100
AcDbEntity
  8
MSL3_40_3F-7
100
AcDbLine
 10
263.015759
 20
169.724429
 30
0.0
 11
263.015759
 21
175.724429
 31
0.0
  0
CIRCLE
  5
4810
100
AcDbEntity
  8
MSL3_40_3F-0
100
AcDbCircle
 10
263.015759
 20
169.724429
 30
0.0
 40
2.5
  0
ARC
  5
4811
100
AcDbEntity
  8
MSL3_40_3F-4
100
AcDbCircle
 10
263.015759
 20
169.724429
 30
0.0
 40
3.0
100
AcDbArc
 50
353.599193
 51
276.865645
  0
LINE
  5
4812
100
AcDbEntity
  8
MSL3_40_3F-7
100
AcDbLine
 10
263.015759
 20
169.724429
 30
0.0
 11
269.015759
 21
169.724429
 31
0.0
  0
LINE
  5
4813
100
AcDbEntity
  8
MSL3_40_3F-7
100
AcDbLine
 10
263.015759
 20
169.724429
 30
0.0
 11
263.015759
 21
163.724429
 31
0.0
  0
LINE
  5
4814
100
AcDbEntity
  8
MSL3_40_3F-7
100
AcDbLine
 10
263.015759
 20
169.724429
 30
0.0
 11
257.015759
 21
169.724429
 31
0.0
  0
LINE
  5
4815
100
AcDbEntity
  8
MSL3_40_3F-7
100
AcDbLine
 10
243.015759
 20
209.724429
 30
0.0
 11
249.015759
 21
209.724429
 31
0.0
  0
LINE
  5
4816
100
AcDbEntity
  8
MSL3_40_3F-7
100
AcDbLine
 10
219.515754
 20
247.01317
 30
0.0
 11
219.515762
 21
235.820443
 31
0.0
  0
LINE
  5
4817
100
AcDbEntity
  8
MSL3_40_3F-7
100
AcDbLine
 10
230.015754
 20
247.013162
 30
0.0
 11
230.015762
 21
235.820435
 31
0.0
  0
LINE
  5
4818
100
AcDbEntity
  8
MSL3_40_3F-7
100
AcDbLine
 10
243.015759
 20
242.724429
 30
0.0
 11
243.015759
 21
224.992378
 31
0.0
  0
LINE
  5
4819
100
AcDbEntity
  8
MSL3_40_3F-7
100
AcDbLine
 10
223.015759
 20
219.305013
 30
0.0
 11
223.015759
 21
242.724429
 31
0.0
  0
LINE
  5
481A
100
AcDbEntity
  8
MSL3_40_3F-0
100
AcDbLine
 10
214.014419
 20
239.724429
 30
0.0
 11
214.014417
 21
242.724421
 31
0.0
  0
LINE
  5
481B
100
AcDbEntity
  8
MSL3_40_3F-0
100
AcDbLine
 10
224.514419
 20
239.724429
 30
0.0
 11
224.514417
 21
242.724413
 31
0.0
  0
LINE
  5
481C
100
AcDbEntity
  8
MSL3_40_3F-0
100
AcDbLine
 10
235.514417
 20
242.724421
 30
0.0
 11
235.514419
 21
239.724429
 31
0.0
  0
LINE
  5
481D
100
AcDbEntity
  8
MSL3_40_3F-7
100
AcDbLine
 10
223.015759
 20
209.724429
 30
0.0
 11
223.015759
 21
203.724429
 31
0.0
  0
LINE
  5
481E
100
AcDbEntity
  8
MSL3_40_3F-7
100
AcDbLine
 10
223.015759
 20
209.724429
 30
0.0
 11
217.015759
 21
209.724429
 31
0.0
  0
ARC
  5
481F
100
AcDbEntity
  8
MSL3_40_3F-4
100
AcDbCircle
 10
223.015759
 20
209.724429
 30
0.0
 40
3.0
100
AcDbArc
 50
353.599193
 51
276.865645
  0
CIRCLE
  5
4820
100
AcDbEntity
  8
MSL3_40_3F-0
100
AcDbCircle
 10
223.015759
 20
209.724429
 30
0.0
 40
2.5
  0
LINE
  5
4821
100
AcDbEntity
  8
MSL3_40_3F-7
100
AcDbLine
 10
223.015759
 20
209.724429
 30
0.0
 11
223.015759
 21
215.724429
 31
0.0
  0
LINE
  5
4822
100
AcDbEntity
  8
MSL3_40_3F-7
100
AcDbLine
 10
223.015759
 20
209.724429
 30
0.0
 11
229.015759
 21
209.724429
 31
0.0
  0
LINE
  5
4823
100
AcDbEntity
  8
MSL3_40_3F-7
100
AcDbLine
 10
243.015759
 20
209.724429
 30
0.0
 11
243.015759
 21
203.724429
 31
0.0
  0
LINE
  5
4824
100
AcDbEntity
  8
MSL3_40_3F-7
100
AcDbLine
 10
243.015759
 20
209.724429
 30
0.0
 11
237.015759
 21
209.724429
 31
0.0
  0
LINE
  5
4825
100
AcDbEntity
  8
MSL3_40_3F-7
100
AcDbLine
 10
243.015759
 20
209.724429
 30
0.0
 11
243.015759
 21
215.724429
 31
0.0
  0
CIRCLE
  5
4826
100
AcDbEntity
  8
MSL3_40_3F-0
100
AcDbCircle
 10
243.015759
 20
209.724429
 30
0.0
 40
3.0
  0
LINE
  5
4827
100
AcDbEntity
  8
MSL3_40_3F-0
100
AcDbLine
 10
226.014416
 20
244.224414
 30
0.0
 11
234.014416
 21
244.22442
 31
0.0
  0
LINE
  5
4828
100
AcDbEntity
  8
MSL3_40_3F-0
100
AcDbLine
 10
215.514416
 20
244.224422
 30
0.0
 11
223.514416
 21
244.224428
 31
0.0
  0
ARC
  5
4829
100
AcDbEntity
  8
MSL3_40_3F-0
100
AcDbCircle
 10
215.514417
 20
242.724422
 30
0.0
 40
1.5
100
AcDbArc
 50
90.000041
 51
180.00004
  0
ARC
  5
482A
100
AcDbEntity
  8
MSL3_40_3F-0
100
AcDbCircle
 10
226.014417
 20
242.724414
 30
0.0
 40
1.5
100
AcDbArc
 50
90.000041
 51
180.00004
  0
ARC
  5
482B
100
AcDbEntity
  8
MSL3_40_3F-0
100
AcDbCircle
 10
223.514417
 20
242.724428
 30
0.0
 40
1.5
100
AcDbArc
 50
33.556991
 51
90.000041
  0
LINE
  5
482C
100
AcDbEntity
  8
MSL3_40_3F-0
100
AcDbLine
 10
226.014416
 20
244.224414
 30
0.0
 11
226.014416
 21
244.224414
 31
0.0
  0
ARC
  5
482D
100
AcDbEntity
  8
MSL3_40_3F-0
100
AcDbCircle
 10
234.014417
 20
242.72442
 30
0.0
 40
1.5
100
AcDbArc
 50
0.000038
 51
90.000041
  0
LINE
  5
482E
100
AcDbEntity
  8
MSL3_40_3F-7
100
AcDbLine
 10
263.015759
 20
219.305013
 30
0.0
 11
263.015759
 21
242.724429
 31
0.0
  0
LINE
  5
482F
100
AcDbEntity
  8
MSL3_40_3F-7
100
AcDbLine
 10
263.015759
 20
209.724429
 30
0.0
 11
269.015759
 21
209.724429
 31
0.0
  0
CIRCLE
  5
4830
100
AcDbEntity
  8
MSL3_40_3F-0
100
AcDbCircle
 10
263.015759
 20
209.724429
 30
0.0
 40
2.5
  0
ARC
  5
4831
100
AcDbEntity
  8
MSL3_40_3F-4
100
AcDbCircle
 10
263.015759
 20
209.724429
 30
0.0
 40
3.0
100
AcDbArc
 50
353.599193
 51
276.865645
  0
LINE
  5
4832
100
AcDbEntity
  8
MSL3_40_3F-7
100
AcDbLine
 10
263.015759
 20
209.724429
 30
0.0
 11
263.015759
 21
203.724429
 31
0.0
  0
LINE
  5
4833
100
AcDbEntity
  8
MSL3_40_3F-7
100
AcDbLine
 10
263.015759
 20
209.724429
 30
0.0
 11
263.015759
 21
215.724429
 31
0.0
  0
LINE
  5
4834
100
AcDbEntity
  8
MSL3_40_3F-7
100
AcDbLine
 10
263.015759
 20
209.724429
 30
0.0
 11
257.015759
 21
209.724429
 31
0.0
  0
LINE
  5
4835
100
AcDbEntity
  8
MSL3_40_3F-7
100
AcDbLine
 10
387.015759
 20
-175.790812
 30
0.0
 11
387.015759
 21
-199.210227
 31
0.0
  0
LINE
  5
4836
100
AcDbEntity
  8
MSL3_40_3F-7
100
AcDbLine
 10
379.015759
 20
-176.291408
 30
0.0
 11
379.015759
 21
-186.321522
 31
0.0
  0
LINE
  5
4837
100
AcDbEntity
  8
MSL3_40_3F-3
100
AcDbLine
 10
390.015759
 20
-196.210227
 30
0.0
 11
390.015759
 21
-184.210227
 31
0.0
  0
LINE
  5
4838
100
AcDbEntity
  8
MSL3_40_3F-3
100
AcDbLine
 10
384.015759
 20
-196.210227
 30
0.0
 11
384.015759
 21
-184.210227
 31
0.0
  0
LINE
  5
4839
100
AcDbEntity
  8
MSL3_40_3F-3
100
AcDbLine
 10
389.474259
 20
-196.210227
 30
0.0
 11
389.474259
 21
-180.210227
 31
0.0
  0
LINE
  5
483A
100
AcDbEntity
  8
MSL3_40_3F-3
100
AcDbLine
 10
384.557259
 20
-196.210227
 30
0.0
 11
384.557259
 21
-180.210227
 31
0.0
  0
LINE
  5
483B
100
AcDbEntity
  8
MSL3_40_3F-0
100
AcDbLine
 10
347.015759
 20
-169.210227
 30
0.0
 11
347.015759
 21
-186.210227
 31
0.0
  0
LINE
  5
483C
100
AcDbEntity
  8
MSL3_40_3F-0
100
AcDbLine
 10
348.015759
 20
-170.210227
 30
0.0
 11
348.015759
 21
-185.210227
 31
0.0
  0
LINE
  5
483D
100
AcDbEntity
  8
MSL3_40_3F-0
100
AcDbLine
 10
337.015759
 20
-186.210227
 30
0.0
 11
337.015759
 21
-169.210227
 31
0.0
  0
LINE
  5
483E
100
AcDbEntity
  8
MSL3_40_3F-0
100
AcDbLine
 10
393.015759
 20
-196.210227
 30
0.0
 11
393.015759
 21
-96.210227
 31
0.0
  0
LINE
  5
483F
100
AcDbEntity
  8
MSL3_40_3F-0
100
AcDbLine
 10
373.015759
 20
-96.210227
 30
0.0
 11
373.015759
 21
-196.210227
 31
0.0
  0
LINE
  5
4840
100
AcDbEntity
  8
MSL3_40_3F-0
100
AcDbLine
 10
321.015759
 20
-168.710227
 30
0.0
 11
321.015759
 21
-186.710227
 31
0.0
  0
LINE
  5
4841
100
AcDbEntity
  8
MSL3_40_3F-0
100
AcDbLine
 10
318.015759
 20
-167.317922
 30
0.0
 11
318.015759
 21
-188.102532
 31
0.0
  0
LINE
  5
4842
100
AcDbEntity
  8
MSL3_40_3F-0
100
AcDbLine
 10
320.015759
 20
-167.710227
 30
0.0
 11
320.015759
 21
-187.710227
 31
0.0
  0
LINE
  5
4843
100
AcDbEntity
  8
MSL3_40_3F-0
100
AcDbLine
 10
373.015759
 20
-196.210227
 30
0.0
 11
393.015759
 21
-196.210227
 31
0.0
  0
LINE
  5
4844
100
AcDbEntity
  8
MSL3_40_3F-0
100
AcDbLine
 10
317.861411
 20
-189.210227
 30
0.0
 11
373.015759
 21
-189.210227
 31
0.0
  0
LINE
  5
4845
100
AcDbEntity
  8
MSL3_40_3F-0
100
AcDbLine
 10
321.015759
 20
-186.710227
 30
0.0
 11
320.015759
 21
-187.710227
 31
0.0
  0
LINE
  5
4846
100
AcDbEntity
  8
MSL3_40_3F-0
100
AcDbLine
 10
320.015759
 20
-187.710227
 30
0.0
 11
318.015759
 21
-187.710227
 31
0.0
  0
LINE
  5
4847
100
AcDbEntity
  8
MSL3_40_3F-0
100
AcDbLine
 10
347.015759
 20
-186.210227
 30
0.0
 11
337.015759
 21
-186.210227
 31
0.0
  0
LINE
  5
4848
100
AcDbEntity
  8
MSL3_40_3F-0
100
AcDbLine
 10
348.015759
 20
-185.210227
 30
0.0
 11
347.015759
 21
-186.210227
 31
0.0
  0
LINE
  5
4849
100
AcDbEntity
  8
MSL3_40_3F-7
100
AcDbLine
 10
396.015759
 20
-126.210227
 30
0.0
 11
370.015759
 21
-126.210227
 31
0.0
  0
LINE
  5
484A
100
AcDbEntity
  8
MSL3_40_3F-7
100
AcDbLine
 10
396.015759
 20
-166.210227
 30
0.0
 11
370.015759
 21
-166.210227
 31
0.0
  0
LINE
  5
484B
100
AcDbEntity
  8
MSL3_40_3F-3
100
AcDbLine
 10
390.015759
 20
-108.210227
 30
0.0
 11
384.015759
 21
-108.210227
 31
0.0
  0
LINE
  5
484C
100
AcDbEntity
  8
MSL3_40_3F-3
100
AcDbLine
 10
389.474259
 20
-112.210227
 30
0.0
 11
384.557259
 21
-112.210227
 31
0.0
  0
LINE
  5
484D
100
AcDbEntity
  8
MSL3_40_3F-3
100
AcDbLine
 10
387.015759
 20
-113.629643
 30
0.0
 11
384.557259
 21
-112.210227
 31
0.0
  0
LINE
  5
484E
100
AcDbEntity
  8
MSL3_40_3F-3
100
AcDbLine
 10
387.015759
 20
-178.790812
 30
0.0
 11
384.557259
 21
-180.210227
 31
0.0
  0
LINE
  5
484F
100
AcDbEntity
  8
MSL3_40_3F-3
100
AcDbLine
 10
384.557259
 20
-180.210227
 30
0.0
 11
389.474259
 21
-180.210227
 31
0.0
  0
LINE
  5
4850
100
AcDbEntity
  8
MSL3_40_3F-3
100
AcDbLine
 10
384.015759
 20
-184.210227
 30
0.0
 11
390.015759
 21
-184.210227
 31
0.0
  0
LINE
  5
4851
100
AcDbEntity
  8
MSL3_40_3F-0
100
AcDbLine
 10
373.015759
 20
-153.545449
 30
0.0
 11
393.015759
 21
-153.545449
 31
0.0
  0
LINE
  5
4852
100
AcDbEntity
  8
MSL3_40_3F-0
100
AcDbLine
 10
373.015759
 20
-138.875006
 30
0.0
 11
393.015759
 21
-138.875006
 31
0.0
  0
LINE
  5
4853
100
AcDbEntity
  8
MSL3_40_3F-0
100
AcDbLine
 10
393.015759
 20
-96.210227
 30
0.0
 11
373.015759
 21
-96.210227
 31
0.0
  0
LINE
  5
4854
100
AcDbEntity
  8
MSL3_40_3F-3
100
AcDbLine
 10
393.015759
 20
-123.210227
 30
0.0
 11
373.015759
 21
-123.210227
 31
0.0
  0
LINE
  5
4855
100
AcDbEntity
  8
MSL3_40_3F-3
100
AcDbLine
 10
393.015759
 20
-129.210227
 30
0.0
 11
373.015759
 21
-129.210227
 31
0.0
  0
LINE
  5
4856
100
AcDbEntity
  8
MSL3_40_3F-3
100
AcDbLine
 10
393.015759
 20
-162.910227
 30
0.0
 11
378.015759
 21
-162.910227
 31
0.0
  0
LINE
  5
4857
100
AcDbEntity
  8
MSL3_40_3F-3
100
AcDbLine
 10
378.015759
 20
-169.510227
 30
0.0
 11
393.015759
 21
-169.510227
 31
0.0
  0
LINE
  5
4858
100
AcDbEntity
  8
MSL3_40_3F-0
100
AcDbLine
 10
331.015759
 20
-138.210227
 30
0.0
 11
331.015759
 21
-134.710227
 31
0.0
1001
GENIUS_GENOREF_13
1005
4915
  0
LINE
  5
4859
100
AcDbEntity
  8
MSL3_40_3F-0
100
AcDbLine
 10
332.015759
 20
-135.710227
 30
0.0
 11
332.015759
 21
-138.210227
 31
0.0
1001
GENIUS_GENOREF_13
1005
4915
  0
LINE
  5
485A
100
AcDbEntity
  8
MSL3_40_3F-0
100
AcDbLine
 10
348.015759
 20
-173.210227
 30
0.0
 11
373.015759
 21
-173.210227
 31
0.0
  0
LINE
  5
485B
100
AcDbEntity
  8
MSL3_40_3F-0
100
AcDbLine
 10
348.015759
 20
-173.210227
 30
0.0
 11
373.015759
 21
-173.210227
 31
0.0
  0
LINE
  5
485C
100
AcDbEntity
  8
MSL3_40_3F-3
100
AcDbLine
 10
332.015759
 20
-142.210227
 30
0.0
 11
373.015759
 21
-142.210227
 31
0.0
1001
GENIUS_GENBH_13
1002
{
1000
OE
1000
CON1
1002
}
1001
GENIUS_GENOREF_13
1005
4915
  0
LINE
  5
485D
100
AcDbEntity
  8
MSL3_40_3F-3
100
AcDbLine
 10
373.015759
 20
-150.210227
 30
0.0
 11
332.015759
 21
-150.210227
 31
0.0
1001
GENIUS_GENBH_13
1002
{
1000
OE
1000
CON1
1002
}
1001
GENIUS_GENOREF_13
1005
4915
  0
LINE
  5
485E
100
AcDbEntity
  8
MSL3_40_3F-0
100
AcDbLine
 10
321.015759
 20
-173.210227
 30
0.0
 11
337.015759
 21
-173.210227
 31
0.0
  0
LINE
  5
485F
100
AcDbEntity
  8
MSL3_40_3F-0
100
AcDbLine
 10
321.015759
 20
-173.210227
 30
0.0
 11
337.015759
 21
-173.210227
 31
0.0
  0
LINE
  5
4860
100
AcDbEntity
  8
MSL3_40_3F-0
100
AcDbLine
 10
321.015759
 20
-174.560227
 30
0.0
 11
337.015759
 21
-174.560227
 31
0.0
  0
LINE
  5
4861
100
AcDbEntity
  8
MSL3_40_3F-0
100
AcDbLine
 10
321.015759
 20
-180.860227
 30
0.0
 11
337.015759
 21
-180.860227
 31
0.0
  0
LINE
  5
4862
100
AcDbEntity
  8
MSL3_40_3F-0
100
AcDbLine
 10
320.015759
 20
-167.710227
 30
0.0
 11
321.015759
 21
-168.710227
 31
0.0
  0
LINE
  5
4863
100
AcDbEntity
  8
MSL3_40_3F-0
100
AcDbLine
 10
318.015759
 20
-167.710227
 30
0.0
 11
320.015759
 21
-167.710227
 31
0.0
  0
LINE
  5
4864
100
AcDbEntity
  8
MSL3_40_3F-0
100
AcDbLine
 10
337.015759
 20
-169.210227
 30
0.0
 11
347.015759
 21
-169.210227
 31
0.0
  0
LINE
  5
4865
100
AcDbEntity
  8
MSL3_40_3F-0
100
AcDbLine
 10
347.015759
 20
-169.210227
 30
0.0
 11
348.015759
 21
-170.210227
 31
0.0
  0
LINE
  5
4866
100
AcDbEntity
  8
MSL3_40_3F-3
100
AcDbLine
 10
331.015759
 20
-154.210227
 30
0.0
 11
331.015759
 21
-138.210227
 31
0.0
1001
GENIUS_GENBH_13
1002
{
1000
OE
1000
CON1
1002
}
1001
GENIUS_GENOREF_13
1005
4915
  0
LINE
  5
4867
100
AcDbEntity
  8
MSL3_40_3F-3
100
AcDbLine
 10
332.015759
 20
-138.210227
 30
0.0
 11
332.015759
 21
-154.210227
 31
0.0
1001
GENIUS_GENBH_13
1002
{
1000
OE
1000
CON1
1002
}
1001
GENIUS_GENOREF_13
1005
4915
  0
LINE
  5
4868
100
AcDbEntity
  8
MSL3_40_3F-0
100
AcDbLine
 10
332.015759
 20
-154.210227
 30
0.0
 11
332.015759
 21
-156.710227
 31
0.0
1001
GENIUS_GENOREF_13
1005
4915
  0
LINE
  5
4869
100
AcDbEntity
  8
MSL3_40_3F-0
100
AcDbLine
 10
331.015759
 20
-157.710227
 30
0.0
 11
331.015759
 21
-154.210227
 31
0.0
1001
GENIUS_GENOREF_13
1005
4915
  0
LINE
  5
486A
100
AcDbEntity
  8
MSL3_40_3F-0
100
AcDbLine
 10
332.015759
 20
-156.710227
 30
0.0
 11
331.015759
 21
-157.710227
 31
0.0
  0
LINE
  5
486B
100
AcDbEntity
  8
MSL3_40_3F-3
100
AcDbLine
 10
378.015759
 20
-162.910227
 30
0.0
 11
378.015759
 21
-160.710227
 31
0.0
  0
CIRCLE
  5
486C
100
AcDbEntity
  8
MSL3_40_3F-3
100
AcDbCircle
 10
379.015759
 20
-181.210227
 30
0.0
 40
2.5
  0
ARC
  5
486D
100
AcDbEntity
  8
MSL3_40_3F-3
100
AcDbCircle
 10
379.015759
 20
-181.210227
 30
0.0
 40
3.0
100
AcDbArc
 50
339.4283
 51
288.734659
  0
LINE
  5
486E
100
AcDbEntity
  8
MSL3_40_3F-3
100
AcDbLine
 10
373.015759
 20
-171.710227
 30
0.0
 11
378.015759
 21
-171.710227
 31
0.0
  0
LINE
  5
486F
100
AcDbEntity
  8
MSL3_40_3F-3
100
AcDbLine
 10
378.015759
 20
-171.710227
 30
0.0
 11
378.015759
 21
-169.510227
 31
0.0
  0
LINE
  5
4870
100
AcDbEntity
  8
MSL3_40_3F-3
100
AcDbLine
 10
378.015759
 20
-162.910227
 30
0.0
 11
378.015759
 21
-169.510227
 31
0.0
  0
LINE
  5
4871
100
AcDbEntity
  8
MSL3_40_3F-0
100
AcDbLine
 10
373.015759
 20
-142.210227
 30
0.0
 11
373.015759
 21
-150.210227
 31
0.0
  0
LINE
  5
4872
100
AcDbEntity
  8
MSL3_40_3F-3
100
AcDbLine
 10
378.015759
 20
-160.710227
 30
0.0
 11
373.015759
 21
-160.710227
 31
0.0
  0
LINE
  5
4873
100
AcDbEntity
  8
MSL3_40_3F-0
100
AcDbLine
 10
331.015759
 20
-134.710227
 30
0.0
 11
332.015759
 21
-135.710227
 31
0.0
  0
LINE
  5
4874
100
AcDbEntity
  8
MSL3_40_3F-7
100
AcDbLine
 10
379.015759
 20
-106.291408
 30
0.0
 11
379.015759
 21
-116.321522
 31
0.0
  0
CIRCLE
  5
4875
100
AcDbEntity
  8
MSL3_40_3F-3
100
AcDbCircle
 10
379.015759
 20
-111.210227
 30
0.0
 40
2.5
  0
ARC
  5
4876
100
AcDbEntity
  8
MSL3_40_3F-3
100
AcDbCircle
 10
379.015759
 20
-111.210227
 30
0.0
 40
3.0
100
AcDbArc
 50
339.4283
 51
288.734659
  0
ARC
  5
4877
100
AcDbEntity
  8
MSL3_40_3F-0
100
AcDbCircle
 10
365.306036
 20
-114.710227
 30
0.0
 40
7.709722
100
AcDbArc
 50
330.872218
 51
29.127782
  0
ARC
  5
4878
100
AcDbEntity
  8
MSL3_40_3F-0
100
AcDbCircle
 10
374.225481
 20
-114.710227
 30
0.0
 40
7.709722
100
AcDbArc
 50
150.872216
 51
209.127784
  0
ARC
  5
4879
100
AcDbEntity
  8
MSL3_40_3F-0
100
AcDbCircle
 10
365.038168
 20
-114.710227
 30
0.0
 40
9.02241
100
AcDbArc
 50
155.421502
 51
204.578498
  0
LINE
  5
487A
100
AcDbEntity
  8
MSL3_40_3F-0
100
AcDbLine
 10
373.015759
 20
-118.710227
 30
0.0
 11
373.015759
 21
-110.710227
 31
0.0
  0
LINE
  5
487B
100
AcDbEntity
  8
MSL3_40_3F-0
100
AcDbLine
 10
373.015759
 20
-109.081062
 30
0.0
 11
373.015759
 21
-120.339392
 31
0.0
  0
LINE
  5
487C
100
AcDbEntity
  8
MSL3_40_3F-0
100
AcDbLine
 10
366.515759
 20
-109.081062
 30
0.0
 11
366.515759
 21
-120.339392
 31
0.0
  0
LINE
  5
487D
100
AcDbEntity
  8
MSL3_40_3F-0
100
AcDbLine
 10
356.015759
 20
-120.339392
 30
0.0
 11
356.015759
 21
-109.081062
 31
0.0
  0
LINE
  5
487E
100
AcDbEntity
  8
MSL3_40_3F-0
100
AcDbLine
 10
360.015759
 20
-122.215781
 30
0.0
 11
360.015759
 21
-107.204674
 31
0.0
  0
LINE
  5
487F
100
AcDbEntity
  8
MSL3_40_3F-7
100
AcDbLine
 10
354.184884
 20
-114.710227
 30
0.0
 11
379.503603
 21
-114.710227
 31
0.0
  0
LINE
  5
4880
100
AcDbEntity
  8
MSL3_40_3F-0
100
AcDbLine
 10
367.490759
 20
-118.463004
 30
0.0
 11
372.040759
 21
-118.463004
 31
0.0
  0
LINE
  5
4881
100
AcDbEntity
  8
MSL3_40_3F-0
100
AcDbLine
 10
367.490759
 20
-122.215781
 30
0.0
 11
372.040759
 21
-122.215781
 31
0.0
  0
LINE
  5
4882
100
AcDbEntity
  8
MSL3_40_3F-0
100
AcDbLine
 10
356.833259
 20
-118.463004
 30
0.0
 11
360.015759
 21
-118.463004
 31
0.0
  0
LINE
  5
4883
100
AcDbEntity
  8
MSL3_40_3F-0
100
AcDbLine
 10
356.833259
 20
-122.215781
 30
0.0
 11
360.015759
 21
-122.215781
 31
0.0
  0
ARC
  5
4884
100
AcDbEntity
  8
MSL3_40_3F-0
100
AcDbCircle
 10
358.577924
 20
-120.339392
 30
0.0
 40
2.562165
100
AcDbArc
 50
132.916662
 51
227.083338
  0
ARC
  5
4885
100
AcDbEntity
  8
MSL3_40_3F-0
100
AcDbCircle
 10
368.808814
 20
-120.339392
 30
0.0
 40
2.293056
100
AcDbArc
 50
125.085847
 51
234.914153
  0
LINE
  5
4886
100
AcDbEntity
  8
MSL3_40_3F-0
100
AcDbLine
 10
360.015759
 20
-118.710227
 30
0.0
 11
366.515759
 21
-118.710227
 31
0.0
  0
LINE
  5
4887
100
AcDbEntity
  8
MSL3_40_3F-0
100
AcDbLine
 10
360.015759
 20
-119.210227
 30
0.0
 11
366.515759
 21
-119.210227
 31
0.0
  0
ARC
  5
4888
100
AcDbEntity
  8
MSL3_40_3F-0
100
AcDbCircle
 10
370.722703
 20
-120.339392
 30
0.0
 40
2.293056
100
AcDbArc
 50
305.085848
 51
54.914152
  0
LINE
  5
4889
100
AcDbEntity
  8
MSL3_40_3F-0
100
AcDbLine
 10
367.490759
 20
-107.204674
 30
0.0
 11
372.040759
 21
-107.204674
 31
0.0
  0
LINE
  5
488A
100
AcDbEntity
  8
MSL3_40_3F-0
100
AcDbLine
 10
367.490759
 20
-110.95745
 30
0.0
 11
372.040759
 21
-110.95745
 31
0.0
  0
LINE
  5
488B
100
AcDbEntity
  8
MSL3_40_3F-0
100
AcDbLine
 10
360.015759
 20
-107.204674
 30
0.0
 11
356.833259
 21
-107.204674
 31
0.0
  0
LINE
  5
488C
100
AcDbEntity
  8
MSL3_40_3F-0
100
AcDbLine
 10
356.833259
 20
-110.95745
 30
0.0
 11
360.015759
 21
-110.95745
 31
0.0
  0
ARC
  5
488D
100
AcDbEntity
  8
MSL3_40_3F-0
100
AcDbCircle
 10
358.577924
 20
-109.081062
 30
0.0
 40
2.562165
100
AcDbArc
 50
132.916662
 51
227.083338
  0
ARC
  5
488E
100
AcDbEntity
  8
MSL3_40_3F-0
100
AcDbCircle
 10
368.808814
 20
-109.081062
 30
0.0
 40
2.293056
100
AcDbArc
 50
125.085847
 51
234.914153
  0
LINE
  5
488F
100
AcDbEntity
  8
MSL3_40_3F-0
100
AcDbLine
 10
366.515759
 20
-110.710227
 30
0.0
 11
360.015759
 21
-110.710227
 31
0.0
  0
LINE
  5
4890
100
AcDbEntity
  8
MSL3_40_3F-3
100
AcDbLine
 10
384.015759
 20
-96.210227
 30
0.0
 11
384.015759
 21
-108.210227
 31
0.0
  0
LINE
  5
4891
100
AcDbEntity
  8
MSL3_40_3F-3
100
AcDbLine
 10
384.557259
 20
-96.210227
 30
0.0
 11
384.557259
 21
-112.210227
 31
0.0
  0
ARC
  5
4892
100
AcDbEntity
  8
MSL3_40_3F-0
100
AcDbCircle
 10
370.722703
 20
-109.081062
 30
0.0
 40
2.293056
100
AcDbArc
 50
305.085848
 51
54.914152
  0
LINE
  5
4893
100
AcDbEntity
  8
MSL3_40_3F-3
100
AcDbLine
 10
387.015759
 20
-178.790812
 30
0.0
 11
389.474259
 21
-180.210227
 31
0.0
  0
LINE
  5
4894
100
AcDbEntity
  8
MSL3_40_3F-7
100
AcDbLine
 10
387.015759
 20
-116.629643
 30
0.0
 11
387.015759
 21
-93.210227
 31
0.0
  0
LINE
  5
4895
100
AcDbEntity
  8
MSL3_40_3F-3
100
AcDbLine
 10
387.015759
 20
-113.629643
 30
0.0
 11
389.474259
 21
-112.210227
 31
0.0
  0
LINE
  5
4896
100
AcDbEntity
  8
MSL3_40_3F-3
100
AcDbLine
 10
390.015759
 20
-96.210227
 30
0.0
 11
390.015759
 21
-108.210227
 31
0.0
  0
LINE
  5
4897
100
AcDbEntity
  8
MSL3_40_3F-3
100
AcDbLine
 10
389.474259
 20
-96.210227
 30
0.0
 11
389.474259
 21
-112.210227
 31
0.0
  0
LINE
  5
4898
100
AcDbEntity
  8
MSL3_40_3F-0
100
AcDbLine
 10
393.015759
 20
-25.998938
 30
0.0
 11
393.015759
 21
80.001062
 31
0.0
  0
LINE
  5
4899
100
AcDbEntity
  8
MSL3_40_3F-0
100
AcDbLine
 10
373.015759
 20
80.001062
 30
0.0
 11
373.015759
 21
-25.998938
 31
0.0
  0
LINE
  5
489A
100
AcDbEntity
  8
MSL3_40_3F-7
100
AcDbLine
 10
387.015759
 20
-19.998938
 30
0.0
 11
381.015759
 21
-19.998938
 31
0.0
  0
CIRCLE
  5
489B
100
AcDbEntity
  8
MSL3_40_3F-0
100
AcDbCircle
 10
387.015759
 20
-19.998938
 30
0.0
 40
2.5
  0
ARC
  5
489C
100
AcDbEntity
  8
MSL3_40_3F-4
100
AcDbCircle
 10
387.015759
 20
-19.998938
 30
0.0
 40
3.0
100
AcDbArc
 50
339.4283
 51
288.734659
  0
LINE
  5
489D
100
AcDbEntity
  8
MSL3_40_3F-0
100
AcDbLine
 10
373.015759
 20
-25.998938
 30
0.0
 11
393.015759
 21
-25.998938
 31
0.0
  0
LINE
  5
489E
100
AcDbEntity
  8
MSL3_40_3F-0
100
AcDbLine
 10
332.015759
 20
-10.498961
 30
0.0
 11
332.015759
 21
-7.999847
 31
0.0
  0
LINE
  5
489F
100
AcDbEntity
  8
MSL3_40_3F-0
100
AcDbLine
 10
331.015759
 20
-7.999847
 30
0.0
 11
331.015759
 21
-11.498961
 31
0.0
  0
LINE
  5
48A0
100
AcDbEntity
  8
MSL3_40_3F-0
100
AcDbLine
 10
331.015759
 20
-11.498961
 30
0.0
 11
332.015759
 21
-10.498961
 31
0.0
  0
LINE
  5
48A1
100
AcDbEntity
  8
MSL3_40_3F-7
100
AcDbLine
 10
379.015759
 20
-5.579522
 30
0.0
 11
379.015759
 21
-28.998938
 31
0.0
  0
LINE
  5
48A2
100
AcDbEntity
  8
MSL3_40_3F-3
100
AcDbLine
 10
382.015759
 20
-25.998938
 30
0.0
 11
382.015759
 21
-13.998938
 31
0.0
  0
LINE
  5
48A3
100
AcDbEntity
  8
MSL3_40_3F-3
100
AcDbLine
 10
381.474259
 20
-25.998938
 30
0.0
 11
381.474259
 21
-9.998938
 31
0.0
  0
LINE
  5
48A4
100
AcDbEntity
  8
MSL3_40_3F-3
100
AcDbLine
 10
376.015759
 20
-25.998938
 30
0.0
 11
376.015759
 21
-13.998938
 31
0.0
  0
LINE
  5
48A5
100
AcDbEntity
  8
MSL3_40_3F-3
100
AcDbLine
 10
376.557259
 20
-25.998938
 30
0.0
 11
376.557259
 21
-9.998938
 31
0.0
  0
LINE
  5
48A6
100
AcDbEntity
  8
MSL3_40_3F-3
100
AcDbLine
 10
379.015759
 20
-8.579522
 30
0.0
 11
376.557259
 21
-9.998938
 31
0.0
  0
LINE
  5
48A7
100
AcDbEntity
  8
MSL3_40_3F-3
100
AcDbLine
 10
376.557259
 20
-9.998938
 30
0.0
 11
381.474259
 21
-9.998938
 31
0.0
  0
LINE
  5
48A8
100
AcDbEntity
  8
MSL3_40_3F-3
100
AcDbLine
 10
376.015759
 20
-13.998938
 30
0.0
 11
382.015759
 21
-13.998938
 31
0.0
  0
LINE
  5
48A9
100
AcDbEntity
  8
MSL3_40_3F-3
100
AcDbLine
 10
379.015759
 20
-8.579522
 30
0.0
 11
381.474259
 21
-9.998938
 31
0.0
  0
LINE
  5
48AA
100
AcDbEntity
  8
MSL3_40_3F-7
100
AcDbLine
 10
387.015759
 20
-19.998938
 30
0.0
 11
387.015759
 21
-13.998938
 31
0.0
  0
LINE
  5
48AB
100
AcDbEntity
  8
MSL3_40_3F-7
100
AcDbLine
 10
387.015759
 20
-19.998938
 30
0.0
 11
387.015759
 21
-25.998938
 31
0.0
  0
LINE
  5
48AC
100
AcDbEntity
  8
MSL3_40_3F-7
100
AcDbLine
 10
387.015759
 20
-19.998938
 30
0.0
 11
393.015759
 21
-19.998938
 31
0.0
  0
LINE
  5
48AD
100
AcDbEntity
  8
MSL3_40_3F-7
100
AcDbLine
 10
387.015759
 20
20.001062
 30
0.0
 11
381.015759
 21
20.001062
 31
0.0
  0
CIRCLE
  5
48AE
100
AcDbEntity
  8
MSL3_40_3F-0
100
AcDbCircle
 10
387.015759
 20
20.001062
 30
0.0
 40
2.5
  0
ARC
  5
48AF
100
AcDbEntity
  8
MSL3_40_3F-4
100
AcDbCircle
 10
387.015759
 20
20.001062
 30
0.0
 40
3.0
100
AcDbArc
 50
339.4283
 51
288.734659
  0
LINE
  5
48B0
100
AcDbEntity
  8
MSL3_40_3F-0
100
AcDbLine
 10
393.015759
 20
80.001062
 30
0.0
 11
373.015759
 21
80.001062
 31
0.0
  0
LINE
  5
48B1
100
AcDbEntity
  8
MSL3_40_3F-0
100
AcDbLine
 10
373.015759
 20
44.201062
 30
0.0
 11
393.015759
 21
44.201062
 31
0.0
  0
LINE
  5
48B2
100
AcDbEntity
  8
MSL3_40_3F-0
100
AcDbLine
 10
348.015759
 20
43.501062
 30
0.0
 11
348.015759
 21
28.501062
 31
0.0
  0
LINE
  5
48B3
100
AcDbEntity
  8
MSL3_40_3F-0
100
AcDbLine
 10
347.015759
 20
44.501062
 30
0.0
 11
347.015759
 21
27.501062
 31
0.0
  0
LINE
  5
48B4
100
AcDbEntity
  8
MSL3_40_3F-0
100
AcDbLine
 10
337.015759
 20
27.501062
 30
0.0
 11
337.015759
 21
44.501062
 31
0.0
  0
LINE
  5
48B5
100
AcDbEntity
  8
MSL3_40_3F-0
100
AcDbLine
 10
321.015759
 20
45.001062
 30
0.0
 11
321.015759
 21
27.001062
 31
0.0
  0
LINE
  5
48B6
100
AcDbEntity
  8
MSL3_40_3F-0
100
AcDbLine
 10
320.015759
 20
46.001062
 30
0.0
 11
320.015759
 21
26.001062
 31
0.0
  0
LINE
  5
48B7
100
AcDbEntity
  8
MSL3_40_3F-0
100
AcDbLine
 10
318.015759
 20
46.393367
 30
0.0
 11
318.015759
 21
25.608757
 31
0.0
  0
LINE
  5
48B8
100
AcDbEntity
  8
MSL3_40_3F-0
100
AcDbLine
 10
332.015759
 20
8.000153
 30
0.0
 11
332.015759
 21
10.501039
 31
0.0
  0
LINE
  5
48B9
100
AcDbEntity
  8
MSL3_40_3F-0
100
AcDbLine
 10
331.015759
 20
11.501039
 30
0.0
 11
331.015759
 21
8.000153
 31
0.0
  0
LINE
  5
48BA
100
AcDbEntity
  8
MSL3_40_3F-0
100
AcDbLine
 10
332.015759
 20
10.501039
 30
0.0
 11
331.015759
 21
11.501039
 31
0.0
  0
LINE
  5
48BB
100
AcDbEntity
  8
MSL3_40_3F-0
100
AcDbLine
 10
321.015759
 20
27.001062
 30
0.0
 11
320.015759
 21
26.001062
 31
0.0
  0
LINE
  5
48BC
100
AcDbEntity
  8
MSL3_40_3F-0
100
AcDbLine
 10
320.015759
 20
26.001062
 30
0.0
 11
318.015759
 21
26.001062
 31
0.0
  0
LINE
  5
48BD
100
AcDbEntity
  8
MSL3_40_3F-0
100
AcDbLine
 10
347.015759
 20
27.501062
 30
0.0
 11
337.015759
 21
27.501062
 31
0.0
  0
LINE
  5
48BE
100
AcDbEntity
  8
MSL3_40_3F-0
100
AcDbLine
 10
348.015759
 20
28.501062
 30
0.0
 11
347.015759
 21
27.501062
 31
0.0
  0
LINE
  5
48BF
100
AcDbEntity
  8
MSL3_40_3F-0
100
AcDbLine
 10
321.015759
 20
39.151062
 30
0.0
 11
337.015759
 21
39.151062
 31
0.0
  0
LINE
  5
48C0
100
AcDbEntity
  8
MSL3_40_3F-0
100
AcDbLine
 10
321.015759
 20
32.851062
 30
0.0
 11
337.015759
 21
32.851062
 31
0.0
  0
LINE
  5
48C1
100
AcDbEntity
  8
MSL3_40_3F-0
100
AcDbLine
 10
320.015759
 20
46.001062
 30
0.0
 11
321.015759
 21
45.001062
 31
0.0
  0
LINE
  5
48C2
100
AcDbEntity
  8
MSL3_40_3F-0
100
AcDbLine
 10
318.015759
 20
46.001062
 30
0.0
 11
320.015759
 21
46.001062
 31
0.0
  0
LINE
  5
48C3
100
AcDbEntity
  8
MSL3_40_3F-0
100
AcDbLine
 10
337.015759
 20
44.501062
 30
0.0
 11
347.015759
 21
44.501062
 31
0.0
  0
LINE
  5
48C4
100
AcDbEntity
  8
MSL3_40_3F-0
100
AcDbLine
 10
347.015759
 20
44.501062
 30
0.0
 11
348.015759
 21
43.501062
 31
0.0
  0
ARC
  5
48C5
100
AcDbEntity
  8
MSL3_40_3F-0
100
AcDbCircle
 10
370.722703
 20
30.371897
 30
0.0
 40
2.293056
100
AcDbArc
 50
305.085848
 51
54.914152
  0
ARC
  5
48C6
100
AcDbEntity
  8
MSL3_40_3F-0
100
AcDbCircle
 10
368.808814
 20
30.371897
 30
0.0
 40
2.293056
100
AcDbArc
 50
125.085847
 51
234.914153
  0
ARC
  5
48C7
100
AcDbEntity
  8
MSL3_40_3F-0
100
AcDbCircle
 10
358.577924
 20
30.371897
 30
0.0
 40
2.562165
100
AcDbArc
 50
132.916662
 51
227.083338
  0
LINE
  5
48C8
100
AcDbEntity
  8
MSL3_40_3F-0
100
AcDbLine
 10
360.015759
 20
28.495508
 30
0.0
 11
360.015759
 21
43.506615
 31
0.0
  0
LINE
  5
48C9
100
AcDbEntity
  8
MSL3_40_3F-0
100
AcDbLine
 10
367.490759
 20
28.495508
 30
0.0
 11
372.040759
 21
28.495508
 31
0.0
  0
LINE
  5
48CA
100
AcDbEntity
  8
MSL3_40_3F-0
100
AcDbLine
 10
356.833259
 20
28.495508
 30
0.0
 11
360.015759
 21
28.495508
 31
0.0
  0
LINE
  5
48CB
100
AcDbEntity
  8
MSL3_40_3F-7
100
AcDbLine
 10
354.184884
 20
36.001062
 30
0.0
 11
379.503603
 21
36.001062
 31
0.0
  0
LINE
  5
48CC
100
AcDbEntity
  8
MSL3_40_3F-0
100
AcDbLine
 10
367.490759
 20
43.506615
 30
0.0
 11
372.040759
 21
43.506615
 31
0.0
  0
LINE
  5
48CD
100
AcDbEntity
  8
MSL3_40_3F-0
100
AcDbLine
 10
367.490759
 20
39.753839
 30
0.0
 11
372.040759
 21
39.753839
 31
0.0
  0
LINE
  5
48CE
100
AcDbEntity
  8
MSL3_40_3F-0
100
AcDbLine
 10
367.490759
 20
32.248285
 30
0.0
 11
372.040759
 21
32.248285
 31
0.0
  0
ARC
  5
48CF
100
AcDbEntity
  8
MSL3_40_3F-0
100
AcDbCircle
 10
368.808814
 20
41.630227
 30
0.0
 40
2.293056
100
AcDbArc
 50
125.085847
 51
234.914153
  0
ARC
  5
48D0
100
AcDbEntity
  8
MSL3_40_3F-0
100
AcDbCircle
 10
358.577924
 20
41.630227
 30
0.0
 40
2.562165
100
AcDbArc
 50
132.916662
 51
227.083338
  0
LINE
  5
48D1
100
AcDbEntity
  8
MSL3_40_3F-0
100
AcDbLine
 10
366.515759
 20
41.630227
 30
0.0
 11
366.515759
 21
30.371897
 31
0.0
  0
LINE
  5
48D2
100
AcDbEntity
  8
MSL3_40_3F-0
100
AcDbLine
 10
356.015759
 20
30.371897
 30
0.0
 11
356.015759
 21
41.630227
 31
0.0
  0
LINE
  5
48D3
100
AcDbEntity
  8
MSL3_40_3F-0
100
AcDbLine
 10
356.833259
 20
39.753839
 30
0.0
 11
360.015759
 21
39.753839
 31
0.0
  0
LINE
  5
48D4
100
AcDbEntity
  8
MSL3_40_3F-0
100
AcDbLine
 10
356.833259
 20
32.248285
 30
0.0
 11
360.015759
 21
32.248285
 31
0.0
  0
ARC
  5
48D5
100
AcDbEntity
  8
MSL3_40_3F-0
100
AcDbCircle
 10
365.038168
 20
36.001062
 30
0.0
 40
9.02241
100
AcDbArc
 50
155.421502
 51
204.578498
  0
LINE
  5
48D6
100
AcDbEntity
  8
MSL3_40_3F-0
100
AcDbLine
 10
366.515759
 20
40.001062
 30
0.0
 11
360.015759
 21
40.001062
 31
0.0
  0
LINE
  5
48D7
100
AcDbEntity
  8
MSL3_40_3F-0
100
AcDbLine
 10
360.015759
 20
32.001062
 30
0.0
 11
366.515759
 21
32.001062
 31
0.0
  0
ARC
  5
48D8
100
AcDbEntity
  8
MSL3_40_3F-0
100
AcDbCircle
 10
374.225481
 20
36.001062
 30
0.0
 40
7.709722
100
AcDbArc
 50
150.872216
 51
209.127784
  0
LINE
  5
48D9
100
AcDbEntity
  8
MSL3_40_3F-0
100
AcDbLine
 10
360.015759
 20
43.506615
 30
0.0
 11
356.833259
 21
43.506615
 31
0.0
  0
ARC
  5
48DA
100
AcDbEntity
  8
MSL3_40_3F-0
100
AcDbCircle
 10
370.722703
 20
41.630227
 30
0.0
 40
2.293056
100
AcDbArc
 50
305.085848
 51
54.914152
  0
LINE
  5
48DB
100
AcDbEntity
  8
MSL3_40_3F-0
100
AcDbLine
 10
373.015759
 20
41.630227
 30
0.0
 11
373.015759
 21
30.371897
 31
0.0
  0
ARC
  5
48DC
100
AcDbEntity
  8
MSL3_40_3F-0
100
AcDbCircle
 10
365.306036
 20
36.001062
 30
0.0
 40
7.709722
100
AcDbArc
 50
330.872218
 51
29.127782
  0
LINE
  5
48DD
100
AcDbEntity
  8
MSL3_40_3F-0
100
AcDbLine
 10
373.015759
 20
32.001062
 30
0.0
 11
373.015759
 21
40.001062
 31
0.0
  0
LINE
  5
48DE
100
AcDbEntity
  8
MSL3_40_3F-7
100
AcDbLine
 10
387.015759
 20
20.001062
 30
0.0
 11
387.015759
 21
14.001062
 31
0.0
  0
LINE
  5
48DF
100
AcDbEntity
  8
MSL3_40_3F-7
100
AcDbLine
 10
387.015759
 20
20.001062
 30
0.0
 11
387.015759
 21
26.001062
 31
0.0
  0
LINE
  5
48E0
100
AcDbEntity
  8
MSL3_40_3F-7
100
AcDbLine
 10
387.015759
 20
20.001062
 30
0.0
 11
393.015759
 21
20.001062
 31
0.0
  0
LINE
  5
48E1
100
AcDbEntity
  8
MSL3_40_3F-0
100
AcDbLine
 10
332.015759
 20
200.224429
 30
0.0
 11
332.015759
 21
179.224429
 31
0.0
  0
LINE
  5
48E2
100
AcDbEntity
  8
MSL3_40_3F-0
100
AcDbLine
 10
331.015759
 20
178.224429
 30
0.0
 11
331.015759
 21
201.224429
 31
0.0
  0
LINE
  5
48E3
100
AcDbEntity
  8
MSL3_40_3F-0
100
AcDbLine
 10
393.015759
 20
139.724429
 30
0.0
 11
393.015759
 21
239.724429
 31
0.0
  0
LINE
  5
48E4
100
AcDbEntity
  8
MSL3_40_3F-0
100
AcDbLine
 10
373.015759
 20
239.724429
 30
0.0
 11
373.015759
 21
139.724429
 31
0.0
  0
LINE
  5
48E5
100
AcDbEntity
  8
MSL3_40_3F-7
100
AcDbLine
 10
393.854593
 20
169.724429
 30
0.0
 11
372.118055
 21
169.724429
 31
0.0
  0
LINE
  5
48E6
100
AcDbEntity
  8
MSL3_40_3F-7
100
AcDbLine
 10
396.015759
 20
169.724429
 30
0.0
 11
370.015759
 21
169.724429
 31
0.0
  0
LINE
  5
48E7
100
AcDbEntity
  8
MSL3_40_3F-3
100
AcDbLine
 10
387.015759
 20
157.143845
 30
0.0
 11
384.557259
 21
155.724429
 31
0.0
  0
LINE
  5
48E8
100
AcDbEntity
  8
MSL3_40_3F-3
100
AcDbLine
 10
384.557259
 20
155.724429
 30
0.0
 11
389.474259
 21
155.724429
 31
0.0
  0
LINE
  5
48E9
100
AcDbEntity
  8
MSL3_40_3F-3
100
AcDbLine
 10
384.015759
 20
151.724429
 30
0.0
 11
390.015759
 21
151.724429
 31
0.0
  0
LINE
  5
48EA
100
AcDbEntity
  8
MSL3_40_3F-3
100
AcDbLine
 10
393.015759
 20
173.024429
 30
0.0
 11
378.015759
 21
173.024429
 31
0.0
  0
LINE
  5
48EB
100
AcDbEntity
  8
MSL3_40_3F-3
100
AcDbLine
 10
378.015759
 20
166.424429
 30
0.0
 11
393.015759
 21
166.424429
 31
0.0
  0
LINE
  5
48EC
100
AcDbEntity
  8
MSL3_40_3F-0
100
AcDbLine
 10
373.015759
 20
139.724429
 30
0.0
 11
393.015759
 21
139.724429
 31
0.0
  0
LINE
  5
48ED
100
AcDbEntity
  8
MSL3_40_3F-3
100
AcDbLine
 10
384.015759
 20
139.724429
 30
0.0
 11
384.015759
 21
151.724429
 31
0.0
  0
LINE
  5
48EE
100
AcDbEntity
  8
MSL3_40_3F-3
100
AcDbLine
 10
384.557259
 20
139.724429
 30
0.0
 11
384.557259
 21
155.724429
 31
0.0
  0
LINE
  5
48EF
100
AcDbEntity
  8
MSL3_40_3F-0
100
AcDbLine
 10
332.015759
 20
181.724429
 30
0.0
 11
373.015759
 21
181.724429
 31
0.0
1001
GENIUS_GENOREF_13
1005
4914
  0
LINE
  5
48F0
100
AcDbEntity
  8
MSL3_40_3F-0
100
AcDbLine
 10
332.015759
 20
193.724429
 30
0.0
 11
373.015759
 21
193.724429
 31
0.0
  0
LINE
  5
48F1
100
AcDbEntity
  8
MSL3_40_3F-0
100
AcDbLine
 10
373.015759
 20
185.724429
 30
0.0
 11
332.015759
 21
185.724429
 31
0.0
  0
LINE
  5
48F2
100
AcDbEntity
  8
MSL3_40_3F-0
100
AcDbLine
 10
332.015759
 20
179.224429
 30
0.0
 11
331.015759
 21
178.224429
 31
0.0
  0
LINE
  5
48F3
100
AcDbEntity
  8
MSL3_40_3F-3
100
AcDbLine
 10
378.015759
 20
173.024429
 30
0.0
 11
378.015759
 21
166.424429
 31
0.0
  0
LINE
  5
48F4
100
AcDbEntity
  8
MSL3_40_3F-7
100
AcDbLine
 10
379.015759
 20
159.643248
 30
0.0
 11
379.015759
 21
149.613134
 31
0.0
  0
ARC
  5
48F5
100
AcDbEntity
  8
MSL3_40_3F-4
100
AcDbCircle
 10
379.015759
 20
154.724429
 30
0.0
 40
3.0
100
AcDbArc
 50
339.4283
 51
288.734659
  0
CIRCLE
  5
48F6
100
AcDbEntity
  8
MSL3_40_3F-0
100
AcDbCircle
 10
379.015759
 20
154.724429
 30
0.0
 40
2.5
  0
LINE
  5
48F7
100
AcDbEntity
  8
MSL3_40_3F-3
100
AcDbLine
 10
373.015759
 20
164.224429
 30
0.0
 11
378.015759
 21
164.224429
 31
0.0
  0
LINE
  5
48F8
100
AcDbEntity
  8
MSL3_40_3F-3
100
AcDbLine
 10
378.015759
 20
164.224429
 30
0.0
 11
378.015759
 21
166.424429
 31
0.0
  0
LINE
  5
48F9
100
AcDbEntity
  8
MSL3_40_3F-3
100
AcDbLine
 10
378.015759
 20
175.224429
 30
0.0
 11
373.015759
 21
175.224429
 31
0.0
  0
LINE
  5
48FA
100
AcDbEntity
  8
MSL3_40_3F-3
100
AcDbLine
 10
378.015759
 20
173.024429
 30
0.0
 11
378.015759
 21
175.224429
 31
0.0
  0
LINE
  5
48FB
100
AcDbEntity
  8
MSL3_40_3F-0
100
AcDbLine
 10
373.015759
 20
193.724429
 30
0.0
 11
373.015759
 21
185.724429
 31
0.0
  0
LINE
  5
48FC
100
AcDbEntity
  8
MSL3_40_3F-7
100
AcDbLine
 10
387.015759
 20
160.143845
 30
0.0
 11
387.015759
 21
136.724429
 31
0.0
  0
LINE
  5
48FD
100
AcDbEntity
  8
MSL3_40_3F-3
100
AcDbLine
 10
390.015759
 20
139.724429
 30
0.0
 11
390.015759
 21
151.724429
 31
0.0
  0
LINE
  5
48FE
100
AcDbEntity
  8
MSL3_40_3F-3
100
AcDbLine
 10
389.474259
 20
139.724429
 30
0.0
 11
389.474259
 21
155.724429
 31
0.0
  0
LINE
  5
48FF
100
AcDbEntity
  8
MSL3_40_3F-3
100
AcDbLine
 10
387.015759
 20
157.143845
 30
0.0
 11
389.474259
 21
155.724429
 31
0.0
  0
LINE
  5
4900
100
AcDbEntity
  8
MSL3_40_3F-7
100
AcDbLine
 10
396.015759
 20
209.724429
 30
0.0
 11
370.015759
 21
209.724429
 31
0.0
  0
LINE
  5
4901
100
AcDbEntity
  8
MSL3_40_3F-3
100
AcDbLine
 10
390.015759
 20
227.724429
 30
0.0
 11
384.015759
 21
227.724429
 31
0.0
  0
LINE
  5
4902
100
AcDbEntity
  8
MSL3_40_3F-3
100
AcDbLine
 10
387.015759
 20
222.305013
 30
0.0
 11
384.557259
 21
223.724429
 31
0.0
  0
LINE
  5
4903
100
AcDbEntity
  8
MSL3_40_3F-3
100
AcDbLine
 10
389.474259
 20
223.724429
 30
0.0
 11
384.557259
 21
223.724429
 31
0.0
  0
LINE
  5
4904
100
AcDbEntity
  8
MSL3_40_3F-0
100
AcDbLine
 10
393.015759
 20
239.724429
 30
0.0
 11
373.015759
 21
239.724429
 31
0.0
  0
LINE
  5
4905
100
AcDbEntity
  8
MSL3_40_3F-3
100
AcDbLine
 10
393.015759
 20
206.724429
 30
0.0
 11
373.015759
 21
206.724429
 31
0.0
  0
LINE
  5
4906
100
AcDbEntity
  8
MSL3_40_3F-3
100
AcDbLine
 10
393.015759
 20
212.724429
 30
0.0
 11
373.015759
 21
212.724429
 31
0.0
  0
LINE
  5
4907
100
AcDbEntity
  8
MSL3_40_3F-0
100
AcDbLine
 10
332.015759
 20
197.724429
 30
0.0
 11
373.015759
 21
197.724429
 31
0.0
1001
GENIUS_GENOREF_13
1005
4914
  0
LINE
  5
4908
100
AcDbEntity
  8
MSL3_40_3F-0
100
AcDbLine
 10
331.015759
 20
201.224429
 30
0.0
 11
332.015759
 21
200.224429
 31
0.0
  0
LINE
  5
4909
100
AcDbEntity
  8
MSL3_40_3F-3
100
AcDbLine
 10
384.015759
 20
239.724429
 30
0.0
 11
384.015759
 21
227.724429
 31
0.0
  0
LINE
  5
490A
100
AcDbEntity
  8
MSL3_40_3F-3
100
AcDbLine
 10
384.557259
 20
239.724429
 30
0.0
 11
384.557259
 21
223.724429
 31
0.0
  0
ARC
  5
490B
100
AcDbEntity
  8
MSL3_40_3F-4
100
AcDbCircle
 10
379.015759
 20
224.724429
 30
0.0
 40
3.0
100
AcDbArc
 50
339.4283
 51
288.734659
  0
CIRCLE
  5
490C
100
AcDbEntity
  8
MSL3_40_3F-0
100
AcDbCircle
 10
379.015759
 20
224.724429
 30
0.0
 40
2.5
  0
LINE
  5
490D
100
AcDbEntity
  8
MSL3_40_3F-7
100
AcDbLine
 10
379.015759
 20
229.643248
 30
0.0
 11
379.015759
 21
219.613134
 31
0.0
  0
LINE
  5
490E
100
AcDbEntity
  8
MSL3_40_3F-7
100
AcDbLine
 10
387.015759
 20
219.305013
 30
0.0
 11
387.015759
 21
242.724429
 31
0.0
  0
LINE
  5
490F
100
AcDbEntity
  8
MSL3_40_3F-3
100
AcDbLine
 10
390.015759
 20
239.724429
 30
0.0
 11
390.015759
 21
227.724429
 31
0.0
  0
LINE
  5
4910
100
AcDbEntity
  8
MSL3_40_3F-3
100
AcDbLine
 10
389.474259
 20
239.724429
 30
0.0
 11
389.474259
 21
223.724429
 31
0.0
  0
LINE
  5
4911
100
AcDbEntity
  8
MSL3_40_3F-3
100
AcDbLine
 10
387.015759
 20
222.305013
 30
0.0
 11
389.474259
 21
223.724429
 31
0.0
  0
POINT
  5
4912
100
AcDbEntity
  8
0
 60
     1
100
AcDbPoint
 10
0.0
 20
0.0
 30
0.0
1001
GENIUS_GENBH_13
1002
{
1000
FGO
1005
0
1002
}
1001
GENIUS_GENODEF_13
1002
{
1000
HIER
1070
     1
1002
}
1002
{
1000
MANEDIT
1070
     0
1002
}
1002
{
1000
NOSEL
1070
     1
1002
}
1002
{
1000
BEHIND
1070
     0
1002
}
1002
{
1000
REACTOR
1002
}
1001
GENIUS_GENOBJ-NBEHI-BHB_13
1002
{
1000
OWNER
1000
GENBEHI
1002
}
1001
GENIUS_GENOENT_13
1002
{
1000
MYREF
1005
4912
1002
}
1002
{
1000
GRP
1005
0
1002
}
1001
GENIUS_GENOLIS_13
1002
{
1000
ENT
1005
47C3
1005
47D6
1005
47C5
1005
47DB
1002
}
  0
POINT
  5
4913
100
AcDbEntity
  8
0
 60
     1
100
AcDbPoint
 10
0.0
 20
0.0
 30
0.0
1001
GENIUS_GENBH_13
1002
{
1000
FGO
1005
0
1002
}
1001
GENIUS_GENODEF_13
1002
{
1000
HIER
1070
     1
1002
}
1002
{
1000
MANEDIT
1070
     0
1002
}
1002
{
1000
NOSEL
1070
     1
1002
}
1002
{
1000
BEHIND
1070
     0
1002
}
1002
{
1000
REACTOR
1002
}
1001
GENIUS_GENOBJ-NBEHI-BHB_13
1002
{
1000
OWNER
1000
GENBEHI
1002
}
1001
GENIUS_GENOENT_13
1002
{
1000
MYREF
1005
4913
1002
}
1002
{
1000
GRP
1005
0
1002
}
1001
GENIUS_GENOLIS_13
1002
{
1000
ENT
1005
461D
1005
4644
1005
4646
1005
4645
1005
464A
1005
4647
1005
45FA
1005
4648
1005
461E
1002
}
  0
POINT
  5
4914
100
AcDbEntity
  8
0
 60
     1
100
AcDbPoint
 10
0.0
 20
0.0
 30
0.0
1001
GENIUS_GENBH_13
1002
{
1000
FGO
1005
0
1002
}
1001
GENIUS_GENODEF_13
1002
{
1000
HIER
1070
     1
1002
}
1002
{
1000
MANEDIT
1070
     0
1002
}
1002
{
1000
NOSEL
1070
     1
1002
}
1002
{
1000
BEHIND
1070
     0
1002
}
1002
{
1000
REACTOR
1002
}
1001
GENIUS_GENOBJ-NBEHI-BHB_13
1002
{
1000
OWNER
1000
GENBEHI
1002
}
1001
GENIUS_GENOENT_13
1002
{
1000
MYREF
1005
4914
1002
}
1002
{
1000
GRP
1005
0
1002
}
1001
GENIUS_GENOLIS_13
1002
{
1000
ENT
1005
48EF
1005
4907
1005
453B
1005
453C
1002
}
  0
POINT
  5
4915
100
AcDbEntity
  8
0
 60
     1
100
AcDbPoint
 10
0.0
 20
0.0
 30
0.0
1001
GENIUS_GENBH_13
1002
{
1000
FGO
1005
0
1002
}
1001
GENIUS_GENODEF_13
1002
{
1000
HIER
1070
     1
1002
}
1002
{
1000
MANEDIT
1070
     0
1002
}
1002
{
1000
NOSEL
1070
     1
1002
}
1002
{
1000
BEHIND
1070
     0
1002
}
1002
{
1000
REACTOR
1002
}
1001
GENIUS_GENOBJ-NBEHI-BHB_13
1002
{
1000
OWNER
1000
GENBEHI
1002
}
1001
GENIUS_GENOENT_13
1002
{
1000
MYREF
1005
4915
1002
}
1002
{
1000
GRP
1005
0
1002
}
1001
GENIUS_GENOLIS_13
1002
{
1000
ENT
1005
4858
1005
4866
1005
4868
1005
4867
1005
485D
1005
485C
1005
4869
1005
4859
1005
4538
1002
}
  0
ENDSEC
  0
SECTION
  2
OBJECTS
  0
DICTIONARY
  5
1A
100
AcDbDictionary
  3
ACAD_GROUP
350
18
  3
ACAD_MLINESTYLE
350
19
  0
DICTIONARY
  5
18
102
{ACAD_REACTORS
330
1A
102
}
100
AcDbDictionary
  0
DICTIONARY
  5
19
102
{ACAD_REACTORS
330
1A
102
}
100
AcDbDictionary
  3
STANDARD
350
1C
  0
MLINESTYLE
  5
1C
102
{ACAD_REACTORS
330
19
102
}
100
AcDbMlineStyle
  2
STANDARD
 70
     0
  3

 62
     0
 51
90.0
 52
90.0
 71
     2
 49
0.5
 62
   256
  6
BYLAYER
 49
-0.5
 62
   256
  6
BYLAYER
  0
ENDSEC
  0
EOF
