ISO-10303-21;
HEADER;
/****************************************************************
 * Generated by software with PDElib inside                    *
 * PDElib Version v51a, created Wed 07/06/2011                  *
 * ITI Transcendata (http://www.transcendata.com/)              *
 ****************************************************************/
FILE_DESCRIPTION((''),'2;1');
FILE_NAME('M:\\Module\\Internet-Daten\\MSL-F + MSF\\STEP\\MSL-F8-20.stp','2012-10-10T08:23:44',('hartung_david'),(''),'Autodesk Inventor 2012','Autodesk Inventor 2012','');
FILE_SCHEMA(('AUTOMOTIVE_DESIGN { 1 0 10303 214 1 1 1 1 }'));
ENDSEC;
DATA;
#5=APPLICATION_CONTEXT('automotive design');
#6=APPLICATION_PROTOCOL_DEFINITION('International Standard','automotive_design',2001,#5);
#7=PRODUCT_CONTEXT('',#5,'mechanical');
#8=PRODUCT('MSL-F8-20','MSL-F8-20',$,(#7));
#9=PRODUCT_RELATED_PRODUCT_CATEGORY('part',$,(#8));
#10=PRODUCT_DEFINITION_FORMATION('',$,#8);
#11=PRODUCT_DEFINITION_CONTEXT('part definition',#5,'design');
#12=PRODUCT_DEFINITION('',$,#10,#11);
#18=(NAMED_UNIT(*)PLANE_ANGLE_UNIT()SI_UNIT($,.RADIAN.));
#19=DIMENSIONAL_EXPONENTS(0.0,0.0,0.0,0.0,0.0,0.0,0.0);
#20=PLANE_ANGLE_MEASURE_WITH_UNIT(PLANE_ANGLE_MEASURE(0.0174532925),#18);
#24=(CONVERSION_BASED_UNIT('DEGREE',#20)NAMED_UNIT(#19)PLANE_ANGLE_UNIT());
#28=(NAMED_UNIT(*)SI_UNIT($,.STERADIAN.)SOLID_ANGLE_UNIT());
#32=(LENGTH_UNIT()NAMED_UNIT(*)SI_UNIT(.MILLI.,.METRE.));
#34=UNCERTAINTY_MEASURE_WITH_UNIT(LENGTH_MEASURE(0.01),#32,'DISTANCE_ACCURACY_VALUE','');
#36=(GEOMETRIC_REPRESENTATION_CONTEXT(3)GLOBAL_UNCERTAINTY_ASSIGNED_CONTEXT((#34))GLOBAL_UNIT_ASSIGNED_CONTEXT((#24,#28,#32))REPRESENTATION_CONTEXT('None','None'));
#37=AXIS2_PLACEMENT_3D('',#38,#39,#40);
#38=CARTESIAN_POINT('',(0.0,0.0,0.0));
#39=DIRECTION('',(0.0,0.0,1.0));
#40=DIRECTION('',(1.0,0.0,0.0));
#41=SHAPE_REPRESENTATION('',(#37),#36);
#42=PRODUCT_DEFINITION_SHAPE('','',#12);
#43=SHAPE_DEFINITION_REPRESENTATION(#42,#41);
#49=(NAMED_UNIT(*)PLANE_ANGLE_UNIT()SI_UNIT($,.RADIAN.));
#50=DIMENSIONAL_EXPONENTS(0.0,0.0,0.0,0.0,0.0,0.0,0.0);
#51=PLANE_ANGLE_MEASURE_WITH_UNIT(PLANE_ANGLE_MEASURE(0.0174532925),#49);
#55=(CONVERSION_BASED_UNIT('DEGREE',#51)NAMED_UNIT(#50)PLANE_ANGLE_UNIT());
#59=(NAMED_UNIT(*)SI_UNIT($,.STERADIAN.)SOLID_ANGLE_UNIT());
#63=(LENGTH_UNIT()NAMED_UNIT(*)SI_UNIT(.MILLI.,.METRE.));
#65=UNCERTAINTY_MEASURE_WITH_UNIT(LENGTH_MEASURE(0.000001),#63,'DISTANCE_ACCURACY_VALUE','');
#67=(GEOMETRIC_REPRESENTATION_CONTEXT(3)GLOBAL_UNCERTAINTY_ASSIGNED_CONTEXT((#65))GLOBAL_UNIT_ASSIGNED_CONTEXT((#55,#59,#63))REPRESENTATION_CONTEXT('','3D'));
#68=CARTESIAN_POINT('',(-4.440892E-015,-57.500000000000007,3.520860E-015));
#69=DIRECTION('',(0.0,1.0,-6.123234E-017));
#70=DIRECTION('',(-1.0,0.0,0.0));
#71=AXIS2_PLACEMENT_3D('',#68,#69,#70);
#72=CONICAL_SURFACE('',#71,10.500000000000007,45.000000000000135);
#73=CARTESIAN_POINT('',(10.000000000000002,-58.000000000000007,-9.627208E-016));
#74=VERTEX_POINT('',#73);
#75=CARTESIAN_POINT('',(-4.440892E-015,-58.000000000000007,3.551476E-015));
#76=DIRECTION('',(0.0,1.0,0.0));
#77=DIRECTION('',(-1.0,0.0,0.0));
#78=AXIS2_PLACEMENT_3D('',#75,#76,#77);
#79=CIRCLE('',#78,10.000000000000007);
#80=EDGE_CURVE('',#74,#74,#79,.T.);
#81=ORIENTED_EDGE('',*,*,#80,.T.);
#82=EDGE_LOOP('',(#81));
#83=FACE_OUTER_BOUND('',#82,.T.);
#84=CARTESIAN_POINT('',(11.000000000000004,-57.000000000000014,1.218850E-015));
#85=VERTEX_POINT('',#84);
#86=CARTESIAN_POINT('',(-4.440892E-015,-57.000000000000014,3.490243E-015));
#87=DIRECTION('',(0.0,-1.0,0.0));
#88=DIRECTION('',(-1.0,0.0,0.0));
#89=AXIS2_PLACEMENT_3D('',#86,#87,#88);
#90=CIRCLE('',#89,11.000000000000007);
#91=EDGE_CURVE('',#85,#85,#90,.T.);
#92=ORIENTED_EDGE('',*,*,#91,.T.);
#93=EDGE_LOOP('',(#92));
#94=FACE_BOUND('',#93,.T.);
#95=ADVANCED_FACE('',(#83,#94),#72,.T.);
#96=CARTESIAN_POINT('',(-4.440892E-015,-35.000000000000007,2.143132E-015));
#97=DIRECTION('',(0.0,-1.0,6.123234E-017));
#98=DIRECTION('',(-1.0,0.0,0.0));
#99=AXIS2_PLACEMENT_3D('',#96,#97,#98);
#100=CYLINDRICAL_SURFACE('',#99,11.000000000000007);
#101=CARTESIAN_POINT('',(11.000000000000004,-35.000000000000007,-1.282613E-016));
#102=VERTEX_POINT('',#101);
#103=CARTESIAN_POINT('',(-4.440892E-015,-35.000000000000007,2.143132E-015));
#104=DIRECTION('',(0.0,1.0,0.0));
#105=DIRECTION('',(-1.0,0.0,0.0));
#106=AXIS2_PLACEMENT_3D('',#103,#104,#105);
#107=CIRCLE('',#106,11.000000000000007);
#108=EDGE_CURVE('',#102,#102,#107,.T.);
#109=ORIENTED_EDGE('',*,*,#108,.F.);
#110=EDGE_LOOP('',(#109));
#111=FACE_OUTER_BOUND('',#110,.T.);
#112=ORIENTED_EDGE('',*,*,#91,.F.);
#113=EDGE_LOOP('',(#112));
#114=FACE_BOUND('',#113,.T.);
#115=ADVANCED_FACE('',(#111,#114),#100,.T.);
#116=CARTESIAN_POINT('',(-4.440892E-015,-58.000000000000007,3.628790E-015));
#117=DIRECTION('',(0.0,-1.0,0.0));
#118=DIRECTION('',(0.0,0.0,-1.0));
#119=AXIS2_PLACEMENT_3D('',#116,#117,#118);
#120=PLANE('',#119);
#121=ORIENTED_EDGE('',*,*,#80,.F.);
#122=EDGE_LOOP('',(#121));
#123=FACE_OUTER_BOUND('',#122,.T.);
#124=CARTESIAN_POINT('',(4.000000000000004,-58.000000000000007,-8.894164E-016));
#125=VERTEX_POINT('',#124);
#126=CARTESIAN_POINT('',(4.440892E-015,-58.000000000000007,-8.894164E-016));
#127=DIRECTION('',(0.0,1.0,0.0));
#128=DIRECTION('',(1.0,0.0,0.0));
#129=AXIS2_PLACEMENT_3D('',#126,#127,#128);
#130=CIRCLE('',#129,4.0);
#131=EDGE_CURVE('',#125,#125,#130,.T.);
#132=ORIENTED_EDGE('',*,*,#131,.T.);
#133=EDGE_LOOP('',(#132));
#134=FACE_BOUND('',#133,.T.);
#135=ADVANCED_FACE('',(#123,#134),#120,.T.);
#136=CARTESIAN_POINT('',(4.440892E-015,32.14016862642314,-6.408910E-015));
#137=DIRECTION('',(0.0,-1.0,6.123234E-017));
#138=DIRECTION('',(1.0,0.0,0.0));
#139=AXIS2_PLACEMENT_3D('',#136,#137,#138);
#140=CYLINDRICAL_SURFACE('',#139,4.0);
#141=CARTESIAN_POINT('',(-3.999999999999996,-12.200000000000006,-4.183716E-015));
#142=VERTEX_POINT('',#141);
#143=CARTESIAN_POINT('',(4.440892E-015,-12.200000000000006,-3.693858E-015));
#144=DIRECTION('',(0.0,-1.0,0.0));
#145=DIRECTION('',(1.0,0.0,0.0));
#146=AXIS2_PLACEMENT_3D('',#143,#144,#145);
#147=CIRCLE('',#146,4.0);
#148=EDGE_CURVE('',#142,#142,#147,.T.);
#149=ORIENTED_EDGE('',*,*,#148,.F.);
#150=EDGE_LOOP('',(#149));
#151=FACE_OUTER_BOUND('',#150,.T.);
#152=CARTESIAN_POINT('',(-2.067,-24.000000000000004,3.424545371286525));
#153=VERTEX_POINT('',#152);
#154=CARTESIAN_POINT('',(-2.067,-24.000000000000004,3.424545371286525));
#155=CARTESIAN_POINT('',(-2.067,-23.734311902029603,3.424545371286525));
#156=CARTESIAN_POINT('',(-2.01285292870242,-23.455507417697937,3.458756963871415));
#157=CARTESIAN_POINT('',(-1.800590077209313,-22.948369641963357,3.573856521932115));
#158=CARTESIAN_POINT('',(-1.6426154579373,-22.71943602451212,3.652346410701287));
#159=CARTESIAN_POINT('',(-1.281138118447108,-22.357958685021927,3.794241089960551));
#160=CARTESIAN_POINT('',(-1.052015958793672,-22.199565822330143,3.867873861656375));
#161=CARTESIAN_POINT('',(-0.544033155353863,-21.986960272523923,3.971298749354864));
#162=CARTESIAN_POINT('',(-0.264845439076886,-21.933000000000007,3.999999999999997));
#163=CARTESIAN_POINT('',(0.264845439076887,-21.933000000000007,3.999999999999997));
#164=CARTESIAN_POINT('',(0.544033155353864,-21.986960272523923,3.971298749354864));
#165=CARTESIAN_POINT('',(1.052015958793672,-22.199565822330143,3.867873861656376));
#166=CARTESIAN_POINT('',(1.281138118447108,-22.357958685021927,3.794241089960554));
#167=CARTESIAN_POINT('',(1.6426154579373,-22.71943602451212,3.65234641070129));
#168=CARTESIAN_POINT('',(1.800590077209309,-22.948369641963353,3.573856521932123));
#169=CARTESIAN_POINT('',(2.012852928702416,-23.45550741769793,3.458756963871423));
#170=CARTESIAN_POINT('',(2.067,-23.734311902029603,3.424545371286531));
#171=CARTESIAN_POINT('',(2.067,-24.265688097970404,3.424545371286531));
#172=CARTESIAN_POINT('',(2.01285292870242,-24.54449258230207,3.458756963871421));
#173=CARTESIAN_POINT('',(1.800590077209313,-25.05163035803665,3.57385652193212));
#174=CARTESIAN_POINT('',(1.6426154579373,-25.280563975487887,3.65234641070129));
#175=CARTESIAN_POINT('',(1.281138118447108,-25.64204131497808,3.794241089960554));
#176=CARTESIAN_POINT('',(1.052015958793672,-25.800434177669864,3.867873861656377));
#177=CARTESIAN_POINT('',(0.544033155353863,-26.013039727476084,3.971298749354866));
#178=CARTESIAN_POINT('',(0.264845439076887,-26.067,3.999999999999997));
#179=CARTESIAN_POINT('',(-0.264845439076887,-26.067,3.999999999999997));
#180=CARTESIAN_POINT('',(-0.544033155353863,-26.013039727476084,3.971298749354864));
#181=CARTESIAN_POINT('',(-1.052015958793672,-25.800434177669864,3.867873861656375));
#182=CARTESIAN_POINT('',(-1.281138118447108,-25.64204131497808,3.794241089960551));
#183=CARTESIAN_POINT('',(-1.6426154579373,-25.280563975487887,3.652346410701287));
#184=CARTESIAN_POINT('',(-1.800590077209313,-25.05163035803665,3.573856521932115));
#185=CARTESIAN_POINT('',(-2.01285292870242,-24.54449258230207,3.458756963871414));
#186=CARTESIAN_POINT('',(-2.067,-24.265688097970397,3.424545371286525));
#187=CARTESIAN_POINT('',(-2.067,-24.0,3.424545371286525));
#188=B_SPLINE_CURVE_WITH_KNOTS('',3,(#154,#155,#156,#157,#158,#159,#160,#161,#162,#163,#164,#165,#166,#167,#168,#169,#170,#171,#172,#173,#174,#175,#176,#177,#178,#179,#180,#181,#182,#183,#184,#185,#186,#187),.UNSPECIFIED.,.T.,.U.,(4,2,2,2,2,2,2,2,2,2,2,2,2,2,2,2,4),(0.0,0.07970642939112,0.15941285878224,0.238866490505306,0.318320122228373,0.397773753951439,0.477227385674505,0.556933815065625,0.636640244456745,0.716346673847865,0.796053103238985,0.875506734962051,0.954960366685117,1.034413998408184,1.11386763013125,1.19357405952237,1.27328048891349),.UNSPECIFIED.);
#189=EDGE_CURVE('',#153,#153,#188,.T.);
#190=ORIENTED_EDGE('',*,*,#189,.F.);
#191=EDGE_LOOP('',(#190));
#192=FACE_BOUND('',#191,.T.);
#193=ORIENTED_EDGE('',*,*,#131,.F.);
#194=EDGE_LOOP('',(#193));
#195=FACE_BOUND('',#194,.T.);
#196=ADVANCED_FACE('',(#151,#192,#195),#140,.F.);
#197=CARTESIAN_POINT('',(0.0,-24.000000000000004,22.25));
#198=DIRECTION('',(0.0,0.0,1.0));
#199=DIRECTION('',(1.0,0.0,0.0));
#200=AXIS2_PLACEMENT_3D('',#197,#198,#199);
#201=CYLINDRICAL_SURFACE('',#200,2.067);
#202=ORIENTED_EDGE('',*,*,#189,.T.);
#203=EDGE_LOOP('',(#202));
#204=FACE_OUTER_BOUND('',#203,.T.);
#205=CARTESIAN_POINT('',(2.067,-24.000000000000004,44.5));
#206=VERTEX_POINT('',#205);
#207=CARTESIAN_POINT('',(0.0,-24.000000000000004,44.5));
#208=DIRECTION('',(0.0,0.0,-1.0));
#209=DIRECTION('',(1.0,0.0,0.0));
#210=AXIS2_PLACEMENT_3D('',#207,#208,#209);
#211=CIRCLE('',#210,2.067);
#212=EDGE_CURVE('',#206,#206,#211,.T.);
#213=ORIENTED_EDGE('',*,*,#212,.F.);
#214=EDGE_LOOP('',(#213));
#215=FACE_BOUND('',#214,.T.);
#216=ADVANCED_FACE('',(#204,#215),#201,.F.);
#217=CARTESIAN_POINT('',(-3.071759E-032,-6.100000000000001,-3.735173E-016));
#218=DIRECTION('',(5.035671E-033,1.0,6.123234E-017));
#219=DIRECTION('',(1.0,0.0,0.0));
#220=AXIS2_PLACEMENT_3D('',#217,#218,#219);
#221=CYLINDRICAL_SURFACE('',#220,10.188000000000002);
#222=CARTESIAN_POINT('',(10.188000000000002,-1.163414E-015,5.402306E-048));
#223=VERTEX_POINT('',#222);
#224=CARTESIAN_POINT('',(0.0,-1.110223E-015,0.0));
#225=DIRECTION('',(0.0,-1.0,0.0));
#226=DIRECTION('',(1.0,0.0,0.0));
#227=AXIS2_PLACEMENT_3D('',#224,#225,#226);
#228=CIRCLE('',#227,10.188000000000002);
#229=EDGE_CURVE('',#223,#223,#228,.T.);
#230=ORIENTED_EDGE('',*,*,#229,.F.);
#231=EDGE_LOOP('',(#230));
#232=FACE_OUTER_BOUND('',#231,.T.);
#233=CARTESIAN_POINT('',(10.188000000000002,-12.200000000000003,-7.470345E-016));
#234=VERTEX_POINT('',#233);
#235=CARTESIAN_POINT('',(-6.143518E-032,-12.200000000000003,-7.470345E-016));
#236=DIRECTION('',(0.0,1.0,0.0));
#237=DIRECTION('',(1.0,0.0,0.0));
#238=AXIS2_PLACEMENT_3D('',#235,#236,#237);
#239=CIRCLE('',#238,10.188000000000002);
#240=EDGE_CURVE('',#234,#234,#239,.T.);
#241=ORIENTED_EDGE('',*,*,#240,.F.);
#242=EDGE_LOOP('',(#241));
#243=FACE_BOUND('',#242,.T.);
#244=ADVANCED_FACE('',(#232,#243),#221,.F.);
#245=CARTESIAN_POINT('',(-6.143518E-032,-12.200000000000003,-7.470345E-016));
#246=DIRECTION('',(0.0,1.0,0.0));
#247=DIRECTION('',(1.0,0.0,0.0));
#248=AXIS2_PLACEMENT_3D('',#245,#246,#247);
#249=PLANE('',#248);
#250=ORIENTED_EDGE('',*,*,#240,.T.);
#251=EDGE_LOOP('',(#250));
#252=FACE_OUTER_BOUND('',#251,.T.);
#253=ORIENTED_EDGE('',*,*,#148,.T.);
#254=EDGE_LOOP('',(#253));
#255=FACE_BOUND('',#254,.T.);
#256=ADVANCED_FACE('',(#252,#255),#249,.T.);
#257=CARTESIAN_POINT('',(0.0,-24.000000000000004,0.0));
#258=DIRECTION('',(0.0,0.0,1.0));
#259=DIRECTION('',(-1.0,0.0,0.0));
#260=AXIS2_PLACEMENT_3D('',#257,#258,#259);
#261=CYLINDRICAL_SURFACE('',#260,10.0);
#262=CARTESIAN_POINT('',(10.0,-24.000000000000004,44.5));
#263=VERTEX_POINT('',#262);
#264=CARTESIAN_POINT('',(0.0,-24.000000000000004,44.5));
#265=DIRECTION('',(0.0,0.0,-1.0));
#266=DIRECTION('',(-1.0,0.0,0.0));
#267=AXIS2_PLACEMENT_3D('',#264,#265,#266);
#268=CIRCLE('',#267,10.0);
#269=EDGE_CURVE('',#263,#263,#268,.T.);
#270=ORIENTED_EDGE('',*,*,#269,.T.);
#271=EDGE_LOOP('',(#270));
#272=FACE_OUTER_BOUND('',#271,.T.);
#273=CARTESIAN_POINT('',(-10.0,-24.000000000000004,16.155494421403514));
#274=VERTEX_POINT('',#273);
#275=CARTESIAN_POINT('',(-10.0,-24.000000000000004,16.155494421403514));
#276=CARTESIAN_POINT('',(-10.0,-22.713219823702726,16.155494421403514));
#277=CARTESIAN_POINT('',(-9.737554381653057,-21.364102602667568,16.32559699540132));
#278=CARTESIAN_POINT('',(-8.710446848853895,-18.911180535237623,16.895950990812128));
#279=CARTESIAN_POINT('',(-7.946454462897263,-17.804318839166314,17.284194019462035));
#280=CARTESIAN_POINT('',(-6.198703812554158,-16.056568188823213,17.984978184712681));
#281=CARTESIAN_POINT('',(-5.090865285928171,-15.290383433743678,18.348237597817242));
#282=CARTESIAN_POINT('',(-2.633496578691511,-14.261466691962353,18.8584047363737));
#283=CARTESIAN_POINT('',(-1.282337010172725,-14.000000000000004,19.000000000000004));
#284=CARTESIAN_POINT('',(1.282337010172723,-14.000000000000004,19.000000000000004));
#285=CARTESIAN_POINT('',(2.633496578691508,-14.261466691962355,18.858404736373707));
#286=CARTESIAN_POINT('',(5.090865285928167,-15.290383433743674,18.348237597817246));
#287=CARTESIAN_POINT('',(6.198703812554156,-16.05656818882321,17.984978184712681));
#288=CARTESIAN_POINT('',(7.946454462897262,-17.804318839166314,17.284194019462042));
#289=CARTESIAN_POINT('',(8.710446848853895,-18.911180535237623,16.895950990812132));
#290=CARTESIAN_POINT('',(9.737554381653057,-21.364102602667568,16.32559699540132));
#291=CARTESIAN_POINT('',(10.0,-22.713219823702726,16.155494421403517));
#292=CARTESIAN_POINT('',(10.0,-25.286780176297281,16.155494421403517));
#293=CARTESIAN_POINT('',(9.737554381653059,-26.635897397332435,16.325596995401316));
#294=CARTESIAN_POINT('',(8.710446848853895,-29.088819464762384,16.895950990812128));
#295=CARTESIAN_POINT('',(7.946454462897263,-30.195681160833693,17.284194019462035));
#296=CARTESIAN_POINT('',(6.198703812554158,-31.943431811176794,17.984978184712674));
#297=CARTESIAN_POINT('',(5.090865285928171,-32.709616566256329,18.348237597817242));
#298=CARTESIAN_POINT('',(2.633496578691512,-33.73853330803766,18.8584047363737));
#299=CARTESIAN_POINT('',(1.282337010172727,-34.0,19.0));
#300=CARTESIAN_POINT('',(-1.282337010172724,-34.0,19.0));
#301=CARTESIAN_POINT('',(-2.633496578691512,-33.73853330803766,18.858404736373704));
#302=CARTESIAN_POINT('',(-5.09086528592817,-32.709616566256329,18.348237597817246));
#303=CARTESIAN_POINT('',(-6.198703812554156,-31.943431811176801,17.984978184712677));
#304=CARTESIAN_POINT('',(-7.946454462897263,-30.195681160833693,17.284194019462035));
#305=CARTESIAN_POINT('',(-8.710446848853895,-29.088819464762384,16.895950990812128));
#306=CARTESIAN_POINT('',(-9.737554381653055,-26.635897397332442,16.325596995401316));
#307=CARTESIAN_POINT('',(-10.0,-25.286780176297281,16.155494421403514));
#308=CARTESIAN_POINT('',(-10.0,-24.000000000000004,16.155494421403514));
#309=B_SPLINE_CURVE_WITH_KNOTS('',3,(#275,#276,#277,#278,#279,#280,#281,#282,#283,#284,#285,#286,#287,#288,#289,#290,#291,#292,#293,#294,#295,#296,#297,#298,#299,#300,#301,#302,#303,#304,#305,#306,#307,#308),.UNSPECIFIED.,.T.,.U.,(4,2,2,2,2,2,2,2,2,2,2,2,2,2,2,2,4),(0.0,0.386034052889183,0.772068105778366,1.156769208830184,1.541470311882001,1.926171414933818,2.310872517985636,2.696906570874819,3.082940623764002,3.468974676653185,3.855008729542368,4.239709832594185,4.624410935646003,5.00911203869782,5.393813141749637,5.779847194638821,6.165881247528004),.UNSPECIFIED.);
#310=EDGE_CURVE('',#274,#274,#309,.T.);
#311=ORIENTED_EDGE('',*,*,#310,.F.);
#312=EDGE_LOOP('',(#311));
#313=FACE_BOUND('',#312,.T.);
#314=ADVANCED_FACE('',(#272,#313),#261,.T.);
#315=CARTESIAN_POINT('',(0.0,-24.000000000000004,44.5));
#316=DIRECTION('',(0.0,0.0,1.0));
#317=DIRECTION('',(1.0,0.0,0.0));
#318=AXIS2_PLACEMENT_3D('',#315,#316,#317);
#319=PLANE('',#318);
#320=ORIENTED_EDGE('',*,*,#269,.F.);
#321=EDGE_LOOP('',(#320));
#322=FACE_OUTER_BOUND('',#321,.T.);
#323=ORIENTED_EDGE('',*,*,#212,.T.);
#324=EDGE_LOOP('',(#323));
#325=FACE_BOUND('',#324,.T.);
#326=ADVANCED_FACE('',(#322,#325),#319,.T.);
#327=CARTESIAN_POINT('',(-13.499999999999993,-3.447539E-016,-13.369741957120944));
#328=DIRECTION('',(-1.0,0.0,0.0));
#329=DIRECTION('',(0.0,0.0,1.0));
#330=AXIS2_PLACEMENT_3D('',#327,#328,#329);
#331=PLANE('',#330);
#332=CARTESIAN_POINT('',(-13.499999999999988,-1.982075E-015,13.369741957120951));
#333=VERTEX_POINT('',#332);
#334=CARTESIAN_POINT('',(-13.499999999999993,-3.447539E-016,-13.369741957120944));
#335=VERTEX_POINT('',#334);
#336=CARTESIAN_POINT('',(-13.499999999999991,-1.982075E-015,13.369741957120951));
#337=DIRECTION('',(0.0,0.0,-1.0));
#338=VECTOR('',#337,26.739483914241895);
#339=LINE('',#336,#338);
#340=EDGE_CURVE('',#333,#335,#339,.T.);
#341=ORIENTED_EDGE('',*,*,#340,.T.);
#342=CARTESIAN_POINT('',(-13.499999999999993,-35.000000000000007,-13.369741957120947));
#343=VERTEX_POINT('',#342);
#344=CARTESIAN_POINT('',(-13.499999999999993,-35.000000000000007,-13.369741957120945));
#345=DIRECTION('',(0.0,1.0,0.0));
#346=VECTOR('',#345,35.000000000000007);
#347=LINE('',#344,#346);
#348=EDGE_CURVE('',#343,#335,#347,.T.);
#349=ORIENTED_EDGE('',*,*,#348,.F.);
#350=CARTESIAN_POINT('',(-13.499999999999988,-35.000000000000007,13.369741957120949));
#351=VERTEX_POINT('',#350);
#352=CARTESIAN_POINT('',(-13.499999999999993,-35.000000000000007,-13.369741957120947));
#353=DIRECTION('',(0.0,0.0,1.0));
#354=VECTOR('',#353,26.739483914241895);
#355=LINE('',#352,#354);
#356=EDGE_CURVE('',#343,#351,#355,.T.);
#357=ORIENTED_EDGE('',*,*,#356,.T.);
#358=CARTESIAN_POINT('',(-13.499999999999988,-1.982075E-015,13.369741957120951));
#359=DIRECTION('',(0.0,-1.0,0.0));
#360=VECTOR('',#359,35.000000000000007);
#361=LINE('',#358,#360);
#362=EDGE_CURVE('',#333,#351,#361,.T.);
#363=ORIENTED_EDGE('',*,*,#362,.F.);
#364=EDGE_LOOP('',(#341,#349,#357,#363));
#365=FACE_OUTER_BOUND('',#364,.T.);
#366=ADVANCED_FACE('',(#365),#331,.T.);
#367=CARTESIAN_POINT('',(2.220446E-015,-1.163414E-015,-6.661338E-015));
#368=DIRECTION('',(0.0,-1.0,-4.229421E-017));
#369=DIRECTION('',(0.710526315789473,2.976119E-017,-0.703670629322155));
#370=AXIS2_PLACEMENT_3D('',#367,#368,#369);
#371=CYLINDRICAL_SURFACE('',#370,18.999999999999996);
#372=CARTESIAN_POINT('',(13.499999999999995,-3.447539E-016,-13.369741957120944));
#373=VERTEX_POINT('',#372);
#374=CARTESIAN_POINT('',(2.220446E-015,-1.163414E-015,-6.661338E-015));
#375=DIRECTION('',(2.114611E-017,-1.0,-2.094208E-017));
#376=DIRECTION('',(0.710526315789473,2.976119E-017,-0.703670629322155));
#377=AXIS2_PLACEMENT_3D('',#374,#375,#376);
#378=CIRCLE('',#377,18.999999999999996);
#379=EDGE_CURVE('',#335,#373,#378,.T.);
#380=ORIENTED_EDGE('',*,*,#379,.T.);
#381=CARTESIAN_POINT('',(13.499999999999995,-35.000000000000007,-13.369741957120947));
#382=VERTEX_POINT('',#381);
#383=CARTESIAN_POINT('',(13.499999999999995,-35.000000000000007,-13.369741957120945));
#384=DIRECTION('',(0.0,1.0,0.0));
#385=VECTOR('',#384,35.000000000000007);
#386=LINE('',#383,#385);
#387=EDGE_CURVE('',#382,#373,#386,.T.);
#388=ORIENTED_EDGE('',*,*,#387,.F.);
#389=CARTESIAN_POINT('',(2.220446E-015,-35.000000000000007,-8.141636E-015));
#390=DIRECTION('',(-2.114611E-017,1.0,2.094208E-017));
#391=DIRECTION('',(0.710526315789473,2.976119E-017,-0.703670629322155));
#392=AXIS2_PLACEMENT_3D('',#389,#390,#391);
#393=CIRCLE('',#392,18.999999999999996);
#394=EDGE_CURVE('',#382,#343,#393,.T.);
#395=ORIENTED_EDGE('',*,*,#394,.T.);
#396=ORIENTED_EDGE('',*,*,#348,.T.);
#397=EDGE_LOOP('',(#380,#388,#395,#396));
#398=FACE_OUTER_BOUND('',#397,.T.);
#399=ADVANCED_FACE('',(#398),#371,.T.);
#400=CARTESIAN_POINT('',(13.5,-1.982075E-015,13.369741957120942));
#401=DIRECTION('',(1.0,0.0,0.0));
#402=DIRECTION('',(0.0,0.0,-1.0));
#403=AXIS2_PLACEMENT_3D('',#400,#401,#402);
#404=PLANE('',#403);
#405=CARTESIAN_POINT('',(13.5,-1.982075E-015,13.369741957120942));
#406=VERTEX_POINT('',#405);
#407=CARTESIAN_POINT('',(13.499999999999995,-3.447539E-016,-13.369741957120944));
#408=DIRECTION('',(0.0,0.0,1.0));
#409=VECTOR('',#408,26.739483914241887);
#410=LINE('',#407,#409);
#411=EDGE_CURVE('',#373,#406,#410,.T.);
#412=ORIENTED_EDGE('',*,*,#411,.T.);
#413=CARTESIAN_POINT('',(13.5,-35.000000000000007,13.36974195712094));
#414=VERTEX_POINT('',#413);
#415=CARTESIAN_POINT('',(13.5,-35.000000000000007,13.36974195712094));
#416=DIRECTION('',(0.0,1.0,0.0));
#417=VECTOR('',#416,35.000000000000007);
#418=LINE('',#415,#417);
#419=EDGE_CURVE('',#414,#406,#418,.T.);
#420=ORIENTED_EDGE('',*,*,#419,.F.);
#421=CARTESIAN_POINT('',(13.500000000000002,-35.000000000000007,13.36974195712094));
#422=DIRECTION('',(0.0,0.0,-1.0));
#423=VECTOR('',#422,26.739483914241891);
#424=LINE('',#421,#423);
#425=EDGE_CURVE('',#414,#382,#424,.T.);
#426=ORIENTED_EDGE('',*,*,#425,.T.);
#427=ORIENTED_EDGE('',*,*,#387,.T.);
#428=EDGE_LOOP('',(#412,#420,#426,#427));
#429=FACE_OUTER_BOUND('',#428,.T.);
#430=ADVANCED_FACE('',(#429),#404,.T.);
#431=CARTESIAN_POINT('',(2.220446E-015,-1.163414E-015,2.220446E-015));
#432=DIRECTION('',(0.0,-1.0,-4.229421E-017));
#433=DIRECTION('',(-0.710526315789473,-2.976119E-017,0.703670629322155));
#434=AXIS2_PLACEMENT_3D('',#431,#432,#433);
#435=CYLINDRICAL_SURFACE('',#434,19.0);
#436=CARTESIAN_POINT('',(2.220446E-015,-1.163414E-015,2.220446E-015));
#437=DIRECTION('',(2.114611E-017,-1.0,-2.094208E-017));
#438=DIRECTION('',(-0.710526315789473,-2.976119E-017,0.703670629322155));
#439=AXIS2_PLACEMENT_3D('',#436,#437,#438);
#440=CIRCLE('',#439,19.0);
#441=EDGE_CURVE('',#406,#333,#440,.T.);
#442=ORIENTED_EDGE('',*,*,#441,.T.);
#443=ORIENTED_EDGE('',*,*,#362,.T.);
#444=CARTESIAN_POINT('',(2.220446E-015,-35.000000000000007,7.401487E-016));
#445=DIRECTION('',(-2.114611E-017,1.0,2.094208E-017));
#446=DIRECTION('',(-0.710526315789473,-2.976119E-017,0.703670629322155));
#447=AXIS2_PLACEMENT_3D('',#444,#445,#446);
#448=CIRCLE('',#447,19.0);
#449=EDGE_CURVE('',#351,#414,#448,.T.);
#450=ORIENTED_EDGE('',*,*,#449,.T.);
#451=ORIENTED_EDGE('',*,*,#419,.T.);
#452=EDGE_LOOP('',(#442,#443,#450,#451));
#453=FACE_OUTER_BOUND('',#452,.T.);
#454=ORIENTED_EDGE('',*,*,#310,.T.);
#455=EDGE_LOOP('',(#454));
#456=FACE_BOUND('',#455,.T.);
#457=ADVANCED_FACE('',(#453,#456),#435,.T.);
#458=CARTESIAN_POINT('',(4.440892E-015,-35.000000000000007,-2.143132E-015));
#459=DIRECTION('',(0.0,-1.0,0.0));
#460=DIRECTION('',(0.0,0.0,-1.0));
#461=AXIS2_PLACEMENT_3D('',#458,#459,#460);
#462=PLANE('',#461);
#463=ORIENTED_EDGE('',*,*,#425,.F.);
#464=ORIENTED_EDGE('',*,*,#449,.F.);
#465=ORIENTED_EDGE('',*,*,#356,.F.);
#466=ORIENTED_EDGE('',*,*,#394,.F.);
#467=EDGE_LOOP('',(#463,#464,#465,#466));
#468=FACE_OUTER_BOUND('',#467,.T.);
#469=ORIENTED_EDGE('',*,*,#108,.T.);
#470=EDGE_LOOP('',(#469));
#471=FACE_BOUND('',#470,.T.);
#472=ADVANCED_FACE('',(#468,#471),#462,.T.);
#473=CARTESIAN_POINT('',(4.440892E-015,-1.163414E-015,1.509494E-047));
#474=DIRECTION('',(0.0,1.0,0.0));
#475=DIRECTION('',(0.0,0.0,1.0));
#476=AXIS2_PLACEMENT_3D('',#473,#474,#475);
#477=PLANE('',#476);
#478=ORIENTED_EDGE('',*,*,#411,.F.);
#479=ORIENTED_EDGE('',*,*,#379,.F.);
#480=ORIENTED_EDGE('',*,*,#340,.F.);
#481=ORIENTED_EDGE('',*,*,#441,.F.);
#482=EDGE_LOOP('',(#478,#479,#480,#481));
#483=FACE_OUTER_BOUND('',#482,.T.);
#484=ORIENTED_EDGE('',*,*,#229,.T.);
#485=EDGE_LOOP('',(#484));
#486=FACE_BOUND('',#485,.T.);
#487=ADVANCED_FACE('',(#483,#486),#477,.T.);
#488=CLOSED_SHELL('',(#95,#115,#135,#196,#216,#244,#256,#314,#326,#366,#399,#430,#457,#472,#487));
#489=MANIFOLD_SOLID_BREP('Volumenk\S\vrper1',#488);
#490=COLOUR_RGB('',0.0,0.0,0.0);
#491=FILL_AREA_STYLE_COLOUR('',#490);
#492=FILL_AREA_STYLE('',(#491));
#493=SURFACE_STYLE_FILL_AREA(#492);
#494=SURFACE_SIDE_STYLE('',(#493));
#495=SURFACE_STYLE_USAGE(.BOTH.,#494);
#496=PRESENTATION_STYLE_ASSIGNMENT((#495));
#497=STYLED_ITEM('',(#496),#95);
#498=STYLED_ITEM('',(#496),#115);
#499=STYLED_ITEM('',(#496),#135);
#500=STYLED_ITEM('',(#496),#196);
#501=COLOUR_RGB('',0.800000011920929,0.800000011920929,0.800000011920929);
#502=FILL_AREA_STYLE_COLOUR('',#501);
#503=FILL_AREA_STYLE('',(#502));
#504=SURFACE_STYLE_FILL_AREA(#503);
#505=SURFACE_SIDE_STYLE('',(#504));
#506=SURFACE_STYLE_USAGE(.BOTH.,#505);
#507=PRESENTATION_STYLE_ASSIGNMENT((#506));
#508=STYLED_ITEM('',(#507),#216);
#509=STYLED_ITEM('',(#496),#244);
#510=STYLED_ITEM('',(#496),#256);
#511=STYLED_ITEM('',(#507),#314);
#512=STYLED_ITEM('',(#507),#326);
#513=STYLED_ITEM('',(#496),#366);
#514=STYLED_ITEM('',(#496),#399);
#515=STYLED_ITEM('',(#496),#430);
#516=STYLED_ITEM('',(#496),#457);
#517=STYLED_ITEM('',(#496),#472);
#518=STYLED_ITEM('',(#496),#487);
#519=MECHANICAL_DESIGN_GEOMETRIC_PRESENTATION_REPRESENTATION('',(#497,#498,#499,#500,#508,#509,#510,#511,#512,#513,#514,#515,#516,#517,#518,#527),#67);
#520=COLOUR_RGB('Metall - Stahl',0.639216005802155,0.639216005802155,0.686275005340576);
#521=FILL_AREA_STYLE_COLOUR('Metall - Stahl',#520);
#522=FILL_AREA_STYLE('Metall - Stahl',(#521));
#523=SURFACE_STYLE_FILL_AREA(#522);
#524=SURFACE_SIDE_STYLE('Metall - Stahl',(#523));
#525=SURFACE_STYLE_USAGE(.BOTH.,#524);
#526=PRESENTATION_STYLE_ASSIGNMENT((#525));
#527=STYLED_ITEM('',(#526),#489);
#528=ADVANCED_BREP_SHAPE_REPRESENTATION('ABSR',(#489),#36);
#529=SHAPE_REPRESENTATION_RELATIONSHIP('SRR','None',#528,#41);
ENDSEC;
END-ISO-10303-21;
