ISO-10303-21;
HEADER;
/****************************************************************
 * Generated by software with PDElib inside                    *
 * PDElib Version v51a, created Wed 07/06/2011                  *
 * ITI Transcendata (http://www.transcendata.com/)              *
 ****************************************************************/
FILE_DESCRIPTION((''),'2;1');
FILE_NAME('M:\\Module\\Internet-Daten\\MSL-F + MSF\\STEP\\MSF-32.stp','2012-10-05T14:19:51',('hartung_david'),(''),'Autodesk Inventor 2012','Autodesk Inventor 2012','');
FILE_SCHEMA(('AUTOMOTIVE_DESIGN { 1 0 10303 214 1 1 1 1 }'));
ENDSEC;
DATA;
#5=APPLICATION_CONTEXT('automotive design');
#6=APPLICATION_PROTOCOL_DEFINITION('International Standard','automotive_design',2001,#5);
#7=PRODUCT_CONTEXT('',#5,'mechanical');
#8=PRODUCT('MSF-32','MSF-32',$,(#7));
#9=PRODUCT_RELATED_PRODUCT_CATEGORY('part',$,(#8));
#10=PRODUCT_DEFINITION_FORMATION('',$,#8);
#11=PRODUCT_DEFINITION_CONTEXT('part definition',#5,'design');
#12=PRODUCT_DEFINITION('',$,#10,#11);
#18=(NAMED_UNIT(*)PLANE_ANGLE_UNIT()SI_UNIT($,.RADIAN.));
#19=DIMENSIONAL_EXPONENTS(0.0,0.0,0.0,0.0,0.0,0.0,0.0);
#20=PLANE_ANGLE_MEASURE_WITH_UNIT(PLANE_ANGLE_MEASURE(0.0174532925),#18);
#24=(CONVERSION_BASED_UNIT('DEGREE',#20)NAMED_UNIT(#19)PLANE_ANGLE_UNIT());
#28=(NAMED_UNIT(*)SI_UNIT($,.STERADIAN.)SOLID_ANGLE_UNIT());
#32=(LENGTH_UNIT()NAMED_UNIT(*)SI_UNIT(.MILLI.,.METRE.));
#34=UNCERTAINTY_MEASURE_WITH_UNIT(LENGTH_MEASURE(0.01),#32,'DISTANCE_ACCURACY_VALUE','');
#36=(GEOMETRIC_REPRESENTATION_CONTEXT(3)GLOBAL_UNCERTAINTY_ASSIGNED_CONTEXT((#34))GLOBAL_UNIT_ASSIGNED_CONTEXT((#24,#28,#32))REPRESENTATION_CONTEXT('None','None'));
#37=AXIS2_PLACEMENT_3D('',#38,#39,#40);
#38=CARTESIAN_POINT('',(0.0,0.0,0.0));
#39=DIRECTION('',(0.0,0.0,1.0));
#40=DIRECTION('',(1.0,0.0,0.0));
#41=SHAPE_REPRESENTATION('',(#37),#36);
#42=PRODUCT_DEFINITION_SHAPE('','',#12);
#43=SHAPE_DEFINITION_REPRESENTATION(#42,#41);
#49=(NAMED_UNIT(*)PLANE_ANGLE_UNIT()SI_UNIT($,.RADIAN.));
#50=DIMENSIONAL_EXPONENTS(0.0,0.0,0.0,0.0,0.0,0.0,0.0);
#51=PLANE_ANGLE_MEASURE_WITH_UNIT(PLANE_ANGLE_MEASURE(0.0174532925),#49);
#55=(CONVERSION_BASED_UNIT('DEGREE',#51)NAMED_UNIT(#50)PLANE_ANGLE_UNIT());
#59=(NAMED_UNIT(*)SI_UNIT($,.STERADIAN.)SOLID_ANGLE_UNIT());
#63=(LENGTH_UNIT()NAMED_UNIT(*)SI_UNIT(.MILLI.,.METRE.));
#65=UNCERTAINTY_MEASURE_WITH_UNIT(LENGTH_MEASURE(0.000001),#63,'DISTANCE_ACCURACY_VALUE','');
#67=(GEOMETRIC_REPRESENTATION_CONTEXT(3)GLOBAL_UNCERTAINTY_ASSIGNED_CONTEXT((#65))GLOBAL_UNIT_ASSIGNED_CONTEXT((#55,#59,#63))REPRESENTATION_CONTEXT('','3D'));
#68=CARTESIAN_POINT('',(0.0,55.0,0.0));
#69=DIRECTION('',(0.0,0.0,-1.0));
#70=DIRECTION('',(0.0,1.0,0.0));
#71=AXIS2_PLACEMENT_3D('',#68,#69,#70);
#72=CYLINDRICAL_SURFACE('',#71,16.25);
#73=CARTESIAN_POINT('',(0.0,71.25,-32.5));
#74=VERTEX_POINT('',#73);
#75=CARTESIAN_POINT('',(0.0,38.75,-32.5));
#76=VERTEX_POINT('',#75);
#77=CARTESIAN_POINT('',(5.551115E-016,71.25,-32.5));
#78=CARTESIAN_POINT('',(-1.039636821508097,71.25,-32.5));
#79=CARTESIAN_POINT('',(-2.109053917313524,71.148616018647573,-32.448911223777664));
#80=CARTESIAN_POINT('',(-4.224916320241142,70.728190926681378,-32.241743596140267));
#81=CARTESIAN_POINT('',(-5.271402437360075,70.409293239973607,-32.085790530996476));
#82=CARTESIAN_POINT('',(-7.268492358692419,69.574052779174153,-31.693132621593172));
#83=CARTESIAN_POINT('',(-8.221000141004172,69.057042680625514,-31.456342378316613));
#84=CARTESIAN_POINT('',(-9.976866986292835,67.870408591584479,-30.944279670003098));
#85=CARTESIAN_POINT('',(-10.780278039316586,67.200692349246211,-30.66939934059193));
#86=CARTESIAN_POINT('',(-12.914782207129306,65.066188181433489,-29.862632597668597));
#87=CARTESIAN_POINT('',(-14.157466533213674,63.264463342002095,-29.269435202486044));
#88=CARTESIAN_POINT('',(-15.40859719411392,60.273117538396825,-28.618981301297914));
#89=CARTESIAN_POINT('',(-15.727319796122943,59.228094160708793,-28.442216742555839));
#90=CARTESIAN_POINT('',(-16.148107768862069,57.112814098317955,-28.205440910249131));
#91=CARTESIAN_POINT('',(-16.25,56.042478669053992,-28.145825622994252));
#92=CARTESIAN_POINT('',(-16.25,53.957521330946008,-28.145825622994252));
#93=CARTESIAN_POINT('',(-16.148107768862069,52.887185901682031,-28.205440910249134));
#94=CARTESIAN_POINT('',(-15.727319796122943,50.771905839291222,-28.442216742555843));
#95=CARTESIAN_POINT('',(-15.408597194113923,49.726882461603196,-28.618981301297914));
#96=CARTESIAN_POINT('',(-14.157466533213675,46.735536657997905,-29.269435202486044));
#97=CARTESIAN_POINT('',(-12.914782207129306,44.933811818566511,-29.862632597668597));
#98=CARTESIAN_POINT('',(-10.780278039316581,42.799307650753782,-30.669399340591927));
#99=CARTESIAN_POINT('',(-9.97686698629283,42.129591408415514,-30.944279670003102));
#100=CARTESIAN_POINT('',(-8.221000141004165,40.942957319374493,-31.456342378316613));
#101=CARTESIAN_POINT('',(-7.268492358692418,40.42594722082584,-31.693132621593172));
#102=CARTESIAN_POINT('',(-5.271402437360071,39.5907067600264,-32.085790530996476));
#103=CARTESIAN_POINT('',(-4.224916320241135,39.271809073318636,-32.241743596140267));
#104=CARTESIAN_POINT('',(-2.109053917313515,38.851383981352427,-32.448911223777664));
#105=CARTESIAN_POINT('',(-1.039636821508096,38.75,-32.5));
#106=CARTESIAN_POINT('',(0.0,38.75,-32.5));
#107=B_SPLINE_CURVE_WITH_KNOTS('',3,(#77,#78,#79,#80,#81,#82,#83,#84,#85,#86,#87,#88,#89,#90,#91,#92,#93,#94,#95,#96,#97,#98,#99,#100,#101,#102,#103,#104,#105,#106),.UNSPECIFIED.,.F.,.U.,(4,2,2,2,2,2,2,2,2,2,2,2,2,2,4),(2.498538588674505,2.810429635126934,3.122320681579363,3.434211728031793,3.746102774484222,4.371589975916615,4.684333576632812,4.997077177349009,5.309820778065206,5.622564378781403,6.248051580213797,6.559942626666226,6.871833673118656,7.183724719571085,7.495615766023514),.UNSPECIFIED.);
#108=EDGE_CURVE('',#74,#76,#107,.T.);
#109=ORIENTED_EDGE('',*,*,#108,.F.);
#110=CARTESIAN_POINT('',(0.0,38.750000000000007,-32.5));
#111=CARTESIAN_POINT('',(1.039636821508099,38.750000000000007,-32.5));
#112=CARTESIAN_POINT('',(2.109053917313525,38.851383981352427,-32.448911223777664));
#113=CARTESIAN_POINT('',(4.224916320241145,39.271809073318636,-32.241743596140267));
#114=CARTESIAN_POINT('',(5.271402437360077,39.590706760026407,-32.085790530996476));
#115=CARTESIAN_POINT('',(7.268492358692422,40.425947220825847,-31.693132621593172));
#116=CARTESIAN_POINT('',(8.221000141004172,40.942957319374493,-31.456342378316613));
#117=CARTESIAN_POINT('',(9.976866986292835,42.129591408415521,-30.944279670003098));
#118=CARTESIAN_POINT('',(10.780278039316586,42.799307650753789,-30.66939934059193));
#119=CARTESIAN_POINT('',(12.914782207129306,44.933811818566511,-29.862632597668597));
#120=CARTESIAN_POINT('',(14.157466533213675,46.735536657997905,-29.269435202486044));
#121=CARTESIAN_POINT('',(15.408597194113923,49.726882461603196,-28.618981301297911));
#122=CARTESIAN_POINT('',(15.727319796122945,50.771905839291229,-28.442216742555839));
#123=CARTESIAN_POINT('',(16.148107768862072,52.887185901682059,-28.205440910249131));
#124=CARTESIAN_POINT('',(16.25,53.957521330946022,-28.145825622994252));
#125=CARTESIAN_POINT('',(16.25,55.0,-28.145825622994252));
#126=CARTESIAN_POINT('',(16.25,56.042478669053992,-28.145825622994252));
#127=CARTESIAN_POINT('',(16.148107768862069,57.112814098317969,-28.205440910249134));
#128=CARTESIAN_POINT('',(15.727319796122943,59.228094160708778,-28.442216742555843));
#129=CARTESIAN_POINT('',(15.408597194113923,60.273117538396804,-28.618981301297914));
#130=CARTESIAN_POINT('',(14.157466533213675,63.264463342002095,-29.269435202486044));
#131=CARTESIAN_POINT('',(12.914782207129305,65.066188181433489,-29.862632597668597));
#132=CARTESIAN_POINT('',(10.780278039316581,67.200692349246211,-30.66939934059193));
#133=CARTESIAN_POINT('',(9.976866986292828,67.870408591584493,-30.944279670003098));
#134=CARTESIAN_POINT('',(8.221000141004168,69.057042680625514,-31.456342378316609));
#135=CARTESIAN_POINT('',(7.268492358692416,69.574052779174153,-31.693132621593172));
#136=CARTESIAN_POINT('',(5.271402437360072,70.409293239973607,-32.085790530996476));
#137=CARTESIAN_POINT('',(4.224916320241137,70.728190926681378,-32.241743596140267));
#138=CARTESIAN_POINT('',(2.109053917313517,71.148616018647573,-32.448911223777664));
#139=CARTESIAN_POINT('',(1.039636821508098,71.25,-32.5));
#140=CARTESIAN_POINT('',(5.551115E-016,71.25,-32.5));
#141=B_SPLINE_CURVE_WITH_KNOTS('',3,(#110,#111,#112,#113,#114,#115,#116,#117,#118,#119,#120,#121,#122,#123,#124,#125,#126,#127,#128,#129,#130,#131,#132,#133,#134,#135,#136,#137,#138,#139,#140),.UNSPECIFIED.,.F.,.U.,(4,2,2,2,2,2,2,3,2,2,2,2,2,2,4),(7.495615766023514,7.807506812475944,8.119397858928373,8.431288905380802,8.743179951833231,9.368667153265625,9.681410753981822,9.994154354698019,10.306897955414215,10.619641556130412,11.245128757562806,11.557019804015235,11.868910850467664,12.180801896920094,12.492692943372523),.UNSPECIFIED.);
#142=EDGE_CURVE('',#76,#74,#141,.T.);
#143=ORIENTED_EDGE('',*,*,#142,.F.);
#144=EDGE_LOOP('',(#109,#143));
#145=FACE_OUTER_BOUND('',#144,.T.);
#146=CARTESIAN_POINT('',(0.0,38.75,32.5));
#147=VERTEX_POINT('',#146);
#148=CARTESIAN_POINT('',(0.0,71.25,32.5));
#149=VERTEX_POINT('',#148);
#150=CARTESIAN_POINT('',(2.775558E-016,38.75,32.5));
#151=CARTESIAN_POINT('',(-1.039636821508097,38.75,32.5));
#152=CARTESIAN_POINT('',(-2.109053917313518,38.851383981352427,32.448911223777664));
#153=CARTESIAN_POINT('',(-4.224916320241138,39.271809073318636,32.241743596140267));
#154=CARTESIAN_POINT('',(-5.271402437360074,39.5907067600264,32.085790530996476));
#155=CARTESIAN_POINT('',(-7.268492358692418,40.425947220825847,31.693132621593172));
#156=CARTESIAN_POINT('',(-8.221000141004168,40.942957319374493,31.456342378316609));
#157=CARTESIAN_POINT('',(-9.97686698629283,42.129591408415514,30.944279670003098));
#158=CARTESIAN_POINT('',(-10.780278039316581,42.799307650753782,30.66939934059193));
#159=CARTESIAN_POINT('',(-12.914782207129306,44.933811818566511,29.862632597668597));
#160=CARTESIAN_POINT('',(-14.157466533213675,46.735536657997905,29.269435202486044));
#161=CARTESIAN_POINT('',(-15.408597194113923,49.726882461603196,28.618981301297914));
#162=CARTESIAN_POINT('',(-15.727319796122943,50.771905839291222,28.442216742555843));
#163=CARTESIAN_POINT('',(-16.148107768862069,52.887185901682031,28.205440910249134));
#164=CARTESIAN_POINT('',(-16.25,53.957521330946008,28.145825622994252));
#165=CARTESIAN_POINT('',(-16.25,56.042478669053992,28.145825622994252));
#166=CARTESIAN_POINT('',(-16.148107768862069,57.112814098317969,28.205440910249134));
#167=CARTESIAN_POINT('',(-15.727319796122943,59.228094160708778,28.442216742555843));
#168=CARTESIAN_POINT('',(-15.408597194113923,60.273117538396804,28.618981301297914));
#169=CARTESIAN_POINT('',(-14.157466533213675,63.264463342002095,29.269435202486044));
#170=CARTESIAN_POINT('',(-12.914782207129306,65.066188181433489,29.862632597668597));
#171=CARTESIAN_POINT('',(-10.780278039316586,67.200692349246196,30.669399340591927));
#172=CARTESIAN_POINT('',(-9.976866986292839,67.870408591584464,30.944279670003091));
#173=CARTESIAN_POINT('',(-8.221000141004177,69.0570426806255,31.456342378316609));
#174=CARTESIAN_POINT('',(-7.26849235869242,69.574052779174139,31.693132621593172));
#175=CARTESIAN_POINT('',(-5.271402437360074,70.409293239973593,32.085790530996476));
#176=CARTESIAN_POINT('',(-4.224916320241141,70.728190926681378,32.241743596140267));
#177=CARTESIAN_POINT('',(-2.109053917313524,71.148616018647573,32.448911223777664));
#178=CARTESIAN_POINT('',(-1.039636821508096,71.25,32.5));
#179=CARTESIAN_POINT('',(2.775558E-016,71.25,32.5));
#180=B_SPLINE_CURVE_WITH_KNOTS('',3,(#150,#151,#152,#153,#154,#155,#156,#157,#158,#159,#160,#161,#162,#163,#164,#165,#166,#167,#168,#169,#170,#171,#172,#173,#174,#175,#176,#177,#178,#179),.UNSPECIFIED.,.F.,.U.,(4,2,2,2,2,2,2,2,2,2,2,2,2,2,4),(2.498538588674504,2.810429635126933,3.122320681579363,3.434211728031792,3.746102774484221,4.371589975916615,4.684333576632812,4.997077177349009,5.309820778065206,5.622564378781403,6.248051580213797,6.559942626666226,6.871833673118656,7.183724719571085,7.495615766023514),.UNSPECIFIED.);
#181=EDGE_CURVE('',#147,#149,#180,.T.);
#182=ORIENTED_EDGE('',*,*,#181,.F.);
#183=CARTESIAN_POINT('',(0.0,71.25,32.5));
#184=CARTESIAN_POINT('',(1.039636821508099,71.25,32.5));
#185=CARTESIAN_POINT('',(2.109053917313521,71.148616018647573,32.448911223777664));
#186=CARTESIAN_POINT('',(4.224916320241145,70.728190926681378,32.241743596140267));
#187=CARTESIAN_POINT('',(5.27140243736008,70.409293239973593,32.085790530996476));
#188=CARTESIAN_POINT('',(7.268492358692424,69.574052779174153,31.693132621593172));
#189=CARTESIAN_POINT('',(8.221000141004172,69.0570426806255,31.456342378316613));
#190=CARTESIAN_POINT('',(9.976866986292833,67.870408591584479,30.944279670003098));
#191=CARTESIAN_POINT('',(10.780278039316581,67.200692349246211,30.66939934059193));
#192=CARTESIAN_POINT('',(12.914782207129305,65.066188181433489,29.862632597668597));
#193=CARTESIAN_POINT('',(14.157466533213675,63.264463342002095,29.269435202486044));
#194=CARTESIAN_POINT('',(15.408597194113923,60.273117538396797,28.618981301297911));
#195=CARTESIAN_POINT('',(15.727319796122945,59.228094160708771,28.442216742555839));
#196=CARTESIAN_POINT('',(16.148107768862072,57.112814098317941,28.205440910249131));
#197=CARTESIAN_POINT('',(16.25,56.042478669053978,28.145825622994252));
#198=CARTESIAN_POINT('',(16.25,55.0,28.145825622994252));
#199=CARTESIAN_POINT('',(16.25,53.957521330946008,28.145825622994252));
#200=CARTESIAN_POINT('',(16.148107768862069,52.887185901682031,28.205440910249134));
#201=CARTESIAN_POINT('',(15.727319796122943,50.771905839291222,28.442216742555843));
#202=CARTESIAN_POINT('',(15.408597194113923,49.726882461603196,28.618981301297914));
#203=CARTESIAN_POINT('',(14.157466533213675,46.735536657997905,29.269435202486044));
#204=CARTESIAN_POINT('',(12.914782207129306,44.933811818566511,29.862632597668597));
#205=CARTESIAN_POINT('',(10.780278039316586,42.799307650753782,30.66939934059193));
#206=CARTESIAN_POINT('',(9.97686698629283,42.129591408415514,30.944279670003102));
#207=CARTESIAN_POINT('',(8.221000141004168,40.942957319374493,31.456342378316613));
#208=CARTESIAN_POINT('',(7.268492358692418,40.425947220825847,31.693132621593168));
#209=CARTESIAN_POINT('',(5.271402437360074,39.5907067600264,32.085790530996469));
#210=CARTESIAN_POINT('',(4.22491632024114,39.271809073318636,32.241743596140267));
#211=CARTESIAN_POINT('',(2.109053917313522,38.851383981352427,32.448911223777664));
#212=CARTESIAN_POINT('',(1.039636821508097,38.75,32.5));
#213=CARTESIAN_POINT('',(-2.775558E-016,38.75,32.5));
#214=B_SPLINE_CURVE_WITH_KNOTS('',3,(#183,#184,#185,#186,#187,#188,#189,#190,#191,#192,#193,#194,#195,#196,#197,#198,#199,#200,#201,#202,#203,#204,#205,#206,#207,#208,#209,#210,#211,#212,#213),.UNSPECIFIED.,.F.,.U.,(4,2,2,2,2,2,2,3,2,2,2,2,2,2,4),(7.495615766023514,7.807506812475944,8.119397858928373,8.431288905380802,8.743179951833231,9.368667153265625,9.681410753981822,9.994154354698019,10.306897955414215,10.619641556130412,11.245128757562806,11.557019804015235,11.868910850467664,12.180801896920094,12.492692943372523),.UNSPECIFIED.);
#215=EDGE_CURVE('',#149,#147,#214,.T.);
#216=ORIENTED_EDGE('',*,*,#215,.F.);
#217=EDGE_LOOP('',(#182,#216));
#218=FACE_BOUND('',#217,.T.);
#219=ADVANCED_FACE('',(#145,#218),#72,.F.);
#220=CARTESIAN_POINT('',(4.289368E-016,160.0,0.0));
#221=DIRECTION('',(1.225534E-017,-1.0,0.0));
#222=DIRECTION('',(1.0,0.0,0.0));
#223=AXIS2_PLACEMENT_3D('',#220,#221,#222);
#224=CYLINDRICAL_SURFACE('',#223,4.283);
#225=CARTESIAN_POINT('',(4.283,125.0,0.0));
#226=VERTEX_POINT('',#225);
#227=CARTESIAN_POINT('',(8.578735E-016,125.0,0.0));
#228=DIRECTION('',(0.0,-1.0,0.0));
#229=DIRECTION('',(1.0,0.0,0.0));
#230=AXIS2_PLACEMENT_3D('',#227,#228,#229);
#231=CIRCLE('',#230,4.283);
#232=EDGE_CURVE('',#226,#226,#231,.T.);
#233=ORIENTED_EDGE('',*,*,#232,.T.);
#234=EDGE_LOOP('',(#233));
#235=FACE_OUTER_BOUND('',#234,.T.);
#236=CARTESIAN_POINT('',(4.283,195.0,0.0));
#237=VERTEX_POINT('',#236);
#238=CARTESIAN_POINT('',(0.0,195.0,0.0));
#239=DIRECTION('',(0.0,-1.0,0.0));
#240=DIRECTION('',(1.0,0.0,0.0));
#241=AXIS2_PLACEMENT_3D('',#238,#239,#240);
#242=CIRCLE('',#241,4.283);
#243=EDGE_CURVE('',#237,#237,#242,.T.);
#244=ORIENTED_EDGE('',*,*,#243,.F.);
#245=EDGE_LOOP('',(#244));
#246=FACE_BOUND('',#245,.T.);
#247=ADVANCED_FACE('',(#235,#246),#224,.F.);
#248=CARTESIAN_POINT('',(8.730260E-016,123.76360439853001,0.0));
#249=DIRECTION('',(-1.225534E-017,1.0,0.0));
#250=DIRECTION('',(1.0,0.0,0.0));
#251=AXIS2_PLACEMENT_3D('',#248,#249,#250);
#252=CONICAL_SURFACE('',#251,2.1415,59.999999999991701);
#253=ORIENTED_EDGE('',*,*,#232,.F.);
#254=EDGE_LOOP('',(#253));
#255=FACE_OUTER_BOUND('',#254,.T.);
#256=ADVANCED_FACE('',(#255),#252,.F.);
#257=CARTESIAN_POINT('',(0.0,189.921875,0.0));
#258=DIRECTION('',(0.0,-1.0,0.0));
#259=DIRECTION('',(1.0,0.0,0.0));
#260=AXIS2_PLACEMENT_3D('',#257,#258,#259);
#261=CYLINDRICAL_SURFACE('',#260,32.5);
#262=CARTESIAN_POINT('',(32.5,184.84375,0.0));
#263=VERTEX_POINT('',#262);
#264=CARTESIAN_POINT('',(0.0,184.84375,0.0));
#265=DIRECTION('',(0.0,-1.0,0.0));
#266=DIRECTION('',(1.0,0.0,0.0));
#267=AXIS2_PLACEMENT_3D('',#264,#265,#266);
#268=CIRCLE('',#267,32.5);
#269=EDGE_CURVE('',#263,#263,#268,.T.);
#270=ORIENTED_EDGE('',*,*,#269,.F.);
#271=EDGE_LOOP('',(#270));
#272=FACE_OUTER_BOUND('',#271,.T.);
#273=CARTESIAN_POINT('',(32.5,195.0,0.0));
#274=VERTEX_POINT('',#273);
#275=CARTESIAN_POINT('',(0.0,195.0,0.0));
#276=DIRECTION('',(0.0,-1.0,0.0));
#277=DIRECTION('',(1.0,0.0,0.0));
#278=AXIS2_PLACEMENT_3D('',#275,#276,#277);
#279=CIRCLE('',#278,32.5);
#280=EDGE_CURVE('',#274,#274,#279,.T.);
#281=ORIENTED_EDGE('',*,*,#280,.T.);
#282=EDGE_LOOP('',(#281));
#283=FACE_BOUND('',#282,.T.);
#284=ADVANCED_FACE('',(#272,#283),#261,.T.);
#285=CARTESIAN_POINT('',(31.958333333333499,184.84375,0.0));
#286=DIRECTION('',(0.0,-1.0,0.0));
#287=DIRECTION('',(0.0,0.0,-1.0));
#288=AXIS2_PLACEMENT_3D('',#285,#286,#287);
#289=PLANE('',#288);
#290=ORIENTED_EDGE('',*,*,#269,.T.);
#291=EDGE_LOOP('',(#290));
#292=FACE_OUTER_BOUND('',#291,.T.);
#293=CARTESIAN_POINT('',(31.416666666666998,184.84375,0.0));
#294=VERTEX_POINT('',#293);
#295=CARTESIAN_POINT('',(0.0,184.84375,0.0));
#296=DIRECTION('',(0.0,-1.0,0.0));
#297=DIRECTION('',(1.0,0.0,0.0));
#298=AXIS2_PLACEMENT_3D('',#295,#296,#297);
#299=CIRCLE('',#298,31.416666666666998);
#300=EDGE_CURVE('',#294,#294,#299,.T.);
#301=ORIENTED_EDGE('',*,*,#300,.F.);
#302=EDGE_LOOP('',(#301));
#303=FACE_BOUND('',#302,.T.);
#304=ADVANCED_FACE('',(#292,#303),#289,.T.);
#305=CARTESIAN_POINT('',(0.0,168.0859375,0.0));
#306=DIRECTION('',(0.0,-1.0,0.0));
#307=DIRECTION('',(1.0,0.0,0.0));
#308=AXIS2_PLACEMENT_3D('',#305,#306,#307);
#309=CYLINDRICAL_SURFACE('',#308,31.416666666666998);
#310=CARTESIAN_POINT('',(31.416666666666998,151.328125,0.0));
#311=VERTEX_POINT('',#310);
#312=CARTESIAN_POINT('',(0.0,151.328125,0.0));
#313=DIRECTION('',(0.0,-1.0,0.0));
#314=DIRECTION('',(1.0,0.0,0.0));
#315=AXIS2_PLACEMENT_3D('',#312,#313,#314);
#316=CIRCLE('',#315,31.416666666666998);
#317=EDGE_CURVE('',#311,#311,#316,.T.);
#318=ORIENTED_EDGE('',*,*,#317,.F.);
#319=EDGE_LOOP('',(#318));
#320=FACE_OUTER_BOUND('',#319,.T.);
#321=ORIENTED_EDGE('',*,*,#300,.T.);
#322=EDGE_LOOP('',(#321));
#323=FACE_BOUND('',#322,.T.);
#324=ADVANCED_FACE('',(#320,#323),#309,.T.);
#325=CARTESIAN_POINT('',(31.958333333333499,151.328125,0.0));
#326=DIRECTION('',(0.0,1.0,0.0));
#327=DIRECTION('',(0.0,0.0,1.0));
#328=AXIS2_PLACEMENT_3D('',#325,#326,#327);
#329=PLANE('',#328);
#330=CARTESIAN_POINT('',(32.5,151.328125,0.0));
#331=VERTEX_POINT('',#330);
#332=CARTESIAN_POINT('',(0.0,151.328125,0.0));
#333=DIRECTION('',(0.0,-1.0,0.0));
#334=DIRECTION('',(1.0,0.0,0.0));
#335=AXIS2_PLACEMENT_3D('',#332,#333,#334);
#336=CIRCLE('',#335,32.5);
#337=EDGE_CURVE('',#331,#331,#336,.T.);
#338=ORIENTED_EDGE('',*,*,#337,.F.);
#339=EDGE_LOOP('',(#338));
#340=FACE_OUTER_BOUND('',#339,.T.);
#341=ORIENTED_EDGE('',*,*,#317,.T.);
#342=EDGE_LOOP('',(#341));
#343=FACE_BOUND('',#342,.T.);
#344=ADVANCED_FACE('',(#340,#343),#329,.T.);
#345=CARTESIAN_POINT('',(0.0,75.6640625,0.0));
#346=DIRECTION('',(0.0,-1.0,0.0));
#347=DIRECTION('',(1.0,0.0,0.0));
#348=AXIS2_PLACEMENT_3D('',#345,#346,#347);
#349=CYLINDRICAL_SURFACE('',#348,32.5);
#350=CARTESIAN_POINT('',(32.5,0.0,0.0));
#351=VERTEX_POINT('',#350);
#352=CARTESIAN_POINT('',(0.0,0.0,0.0));
#353=DIRECTION('',(0.0,-1.0,0.0));
#354=DIRECTION('',(1.0,0.0,0.0));
#355=AXIS2_PLACEMENT_3D('',#352,#353,#354);
#356=CIRCLE('',#355,32.5);
#357=EDGE_CURVE('',#351,#351,#356,.T.);
#358=ORIENTED_EDGE('',*,*,#357,.F.);
#359=EDGE_LOOP('',(#358));
#360=FACE_OUTER_BOUND('',#359,.T.);
#361=ORIENTED_EDGE('',*,*,#108,.T.);
#362=ORIENTED_EDGE('',*,*,#142,.T.);
#363=EDGE_LOOP('',(#361,#362));
#364=FACE_BOUND('',#363,.T.);
#365=ORIENTED_EDGE('',*,*,#181,.T.);
#366=ORIENTED_EDGE('',*,*,#215,.T.);
#367=EDGE_LOOP('',(#365,#366));
#368=FACE_BOUND('',#367,.T.);
#369=ORIENTED_EDGE('',*,*,#337,.T.);
#370=EDGE_LOOP('',(#369));
#371=FACE_BOUND('',#370,.T.);
#372=ADVANCED_FACE('',(#360,#364,#368,#371),#349,.T.);
#373=CARTESIAN_POINT('',(16.25,0.0,0.0));
#374=DIRECTION('',(0.0,-1.0,0.0));
#375=DIRECTION('',(0.0,0.0,-1.0));
#376=AXIS2_PLACEMENT_3D('',#373,#374,#375);
#377=PLANE('',#376);
#378=ORIENTED_EDGE('',*,*,#357,.T.);
#379=EDGE_LOOP('',(#378));
#380=FACE_OUTER_BOUND('',#379,.T.);
#381=ADVANCED_FACE('',(#380),#377,.T.);
#382=CARTESIAN_POINT('',(16.25,195.0,0.0));
#383=DIRECTION('',(0.0,1.0,0.0));
#384=DIRECTION('',(0.0,0.0,1.0));
#385=AXIS2_PLACEMENT_3D('',#382,#383,#384);
#386=PLANE('',#385);
#387=ORIENTED_EDGE('',*,*,#280,.F.);
#388=EDGE_LOOP('',(#387));
#389=FACE_OUTER_BOUND('',#388,.T.);
#390=ORIENTED_EDGE('',*,*,#243,.T.);
#391=EDGE_LOOP('',(#390));
#392=FACE_BOUND('',#391,.T.);
#393=ADVANCED_FACE('',(#389,#392),#386,.T.);
#394=CLOSED_SHELL('',(#219,#247,#256,#284,#304,#324,#344,#372,#381,#393));
#395=MANIFOLD_SOLID_BREP('Volumenk\S\vrper1',#394);
#396=COLOUR_RGB('RGB(237,119,81)',0.800000011920929,0.800000011920929,0.800000011920929);
#397=FILL_AREA_STYLE_COLOUR('RGB(237,119,81)',#396);
#398=FILL_AREA_STYLE('RGB(237,119,81)',(#397));
#399=SURFACE_STYLE_FILL_AREA(#398);
#400=SURFACE_SIDE_STYLE('RGB(237,119,81)',(#399));
#401=SURFACE_STYLE_USAGE(.BOTH.,#400);
#402=PRESENTATION_STYLE_ASSIGNMENT((#401));
#403=STYLED_ITEM('',(#402),#395);
#404=MECHANICAL_DESIGN_GEOMETRIC_PRESENTATION_REPRESENTATION('',(#403),#36);
#405=ADVANCED_BREP_SHAPE_REPRESENTATION('ABSR',(#395),#36);
#406=SHAPE_REPRESENTATION_RELATIONSHIP('SRR','None',#405,#41);
ENDSEC;
END-ISO-10303-21;
