  0
SECTION
  2
HEADER
  9
$ACADVER
  1
AC1014
  9
$ACADMAINTVER
 70
     0
  9
$DWGCODEPAGE
  3
ANSI_1252
  9
$INSBASE
 10
0.0
 20
0.0
 30
0.0
  9
$EXTMIN
 10
63.297063
 20
74.20015
 30
-0.001526
  9
$EXTMAX
 10
522.266507
 20
263.926484
 30
0.0
  9
$LIMMIN
 10
0.0
 20
0.0
  9
$LIMMAX
 10
420.0
 20
297.0
  9
$ORTHOMODE
 70
     0
  9
$REGENMODE
 70
     1
  9
$FILLMODE
 70
     1
  9
$QTEXTMODE
 70
     0
  9
$MIRRTEXT
 70
     1
  9
$DRAGMODE
 70
     2
  9
$LTSCALE
 40
1.0
  9
$OSMODE
 70
   679
  9
$ATTMODE
 70
     1
  9
$TEXTSIZE
 40
3.5
  9
$TRACEWID
 40
1.0
  9
$TEXTSTYLE
  7
STANDARD
  9
$CLAYER
  8
6
  9
$CELTYPE
  6
BYLAYER
  9
$CECOLOR
 62
   256
  9
$CELTSCALE
 40
1.0
  9
$DELOBJ
 70
     1
  9
$DISPSILH
 70
     0
  9
$DIMSCALE
 40
1.0
  9
$DIMASZ
 40
2.5
  9
$DIMEXO
 40
1.0
  9
$DIMDLI
 40
10.0
  9
$DIMRND
 40
0.0
  9
$DIMDLE
 40
0.0
  9
$DIMEXE
 40
2.0
  9
$DIMTP
 40
0.1
  9
$DIMTM
 40
0.1
  9
$DIMTXT
 40
3.5
  9
$DIMCEN
 40
-2.0
  9
$DIMTSZ
 40
0.0
  9
$DIMTOL
 70
     0
  9
$DIMLIM
 70
     0
  9
$DIMTIH
 70
     0
  9
$DIMTOH
 70
     0
  9
$DIMSE1
 70
     0
  9
$DIMSE2
 70
     0
  9
$DIMTAD
 70
     1
  9
$DIMZIN
 70
     8
  9
$DIMBLK
  1

  9
$DIMASO
 70
     1
  9
$DIMSHO
 70
     1
  9
$DIMPOST
  1

  9
$DIMAPOST
  1

  9
$DIMALT
 70
     0
  9
$DIMALTD
 70
     2
  9
$DIMALTF
 40
25.4
  9
$DIMLFAC
 40
1.0
  9
$DIMTOFL
 70
     1
  9
$DIMTVP
 40
0.0
  9
$DIMTIX
 70
     0
  9
$DIMSOXD
 70
     0
  9
$DIMSAH
 70
     0
  9
$DIMBLK1
  1

  9
$DIMBLK2
  1

  9
$DIMSTYLE
  2
GEN-ISO
  9
$DIMCLRD
 70
     0
  9
$DIMCLRE
 70
     0
  9
$DIMCLRT
 70
   256
  9
$DIMTFAC
 40
1.0
  9
$DIMGAP
 40
1.5
  9
$DIMJUST
 70
     0
  9
$DIMSD1
 70
     0
  9
$DIMSD2
 70
     0
  9
$DIMTOLJ
 70
     0
  9
$DIMTZIN
 70
     8
  9
$DIMALTZ
 70
     8
  9
$DIMALTTZ
 70
     8
  9
$DIMFIT
 70
     3
  9
$DIMUPT
 70
     0
  9
$DIMUNIT
 70
     2
  9
$DIMDEC
 70
     2
  9
$DIMTDEC
 70
     5
  9
$DIMALTU
 70
     2
  9
$DIMALTTD
 70
     2
  9
$DIMTXSTY
  7
STANDARD
  9
$DIMAUNIT
 70
     0
  9
$LUNITS
 70
     2
  9
$LUPREC
 70
     4
  9
$SKETCHINC
 40
1.0
  9
$FILLETRAD
 40
0.0
  9
$AUNITS
 70
     0
  9
$AUPREC
 70
     0
  9
$MENU
  1
acad
  9
$ELEVATION
 40
0.0
  9
$PELEVATION
 40
0.0
  9
$THICKNESS
 40
0.0
  9
$LIMCHECK
 70
     0
  9
$BLIPMODE
 70
     0
  9
$CHAMFERA
 40
10.0
  9
$CHAMFERB
 40
10.0
  9
$CHAMFERC
 40
0.0
  9
$CHAMFERD
 40
0.0
  9
$SKPOLY
 70
     0
  9
$TDCREATE
 40
2452437.889535417
  9
$TDUPDATE
 40
2452451.994978471
  9
$TDINDWG
 40
0.1169673611
  9
$TDUSRTIMER
 40
0.1169673611
  9
$USRTIMER
 70
     1
  9
$ANGBASE
 50
0.0
  9
$ANGDIR
 70
     0
  9
$PDMODE
 70
     0
  9
$PDSIZE
 40
0.0
  9
$PLINEWID
 40
0.0
  9
$COORDS
 70
     2
  9
$SPLFRAME
 70
     0
  9
$SPLINETYPE
 70
     6
  9
$SPLINESEGS
 70
     8
  9
$ATTDIA
 70
     0
  9
$ATTREQ
 70
     1
  9
$HANDLING
 70
     1
  9
$HANDSEED
  5
2226
  9
$SURFTAB1
 70
     6
  9
$SURFTAB2
 70
     6
  9
$SURFTYPE
 70
     6
  9
$SURFU
 70
     6
  9
$SURFV
 70
     6
  9
$UCSNAME
  2

  9
$UCSORG
 10
0.0
 20
0.0
 30
0.0
  9
$UCSXDIR
 10
1.0
 20
0.0
 30
0.0
  9
$UCSYDIR
 10
0.0
 20
1.0
 30
0.0
  9
$PUCSNAME
  2

  9
$PUCSORG
 10
0.0
 20
0.0
 30
0.0
  9
$PUCSXDIR
 10
1.0
 20
0.0
 30
0.0
  9
$PUCSYDIR
 10
0.0
 20
1.0
 30
0.0
  9
$USERI1
 70
     0
  9
$USERI2
 70
     0
  9
$USERI3
 70
     0
  9
$USERI4
 70
     0
  9
$USERI5
 70
     0
  9
$USERR1
 40
0.0
  9
$USERR2
 40
0.0
  9
$USERR3
 40
0.0
  9
$USERR4
 40
0.0
  9
$USERR5
 40
0.0
  9
$WORLDVIEW
 70
     1
  9
$SHADEDGE
 70
     3
  9
$SHADEDIF
 70
    70
  9
$TILEMODE
 70
     1
  9
$MAXACTVP
 70
    16
  9
$PINSBASE
 10
0.0
 20
0.0
 30
0.0
  9
$PLIMCHECK
 70
     0
  9
$PEXTMIN
 10
1.000000E+20
 20
1.000000E+20
 30
1.000000E+20
  9
$PEXTMAX
 10
-1.000000E+20
 20
-1.000000E+20
 30
-1.000000E+20
  9
$PLIMMIN
 10
0.0
 20
0.0
  9
$PLIMMAX
 10
420.0
 20
297.0
  9
$UNITMODE
 70
     0
  9
$VISRETAIN
 70
     0
  9
$PLINEGEN
 70
     0
  9
$PSLTSCALE
 70
     1
  9
$TREEDEPTH
 70
  3020
  9
$PICKSTYLE
 70
     1
  9
$CMLSTYLE
  2
STANDARD
  9
$CMLJUST
 70
     0
  9
$CMLSCALE
 40
1.0
  9
$PROXYGRAPHICS
 70
     1
  9
$MEASUREMENT
 70
     1
  0
ENDSEC
  0
SECTION
  2
CLASSES
  0
CLASS
  1
XRECORD
  2
AcDbXrecord
  3
"<Built In>"
 90
        0
280
     0
281
     0
  0
ENDSEC
  0
SECTION
  2
TABLES
  0
TABLE
  2
VPORT
  5
8
100
AcDbSymbolTable
 70
     2
  0
VPORT
  5
2225
100
AcDbSymbolTableRecord
100
AcDbViewportTableRecord
  2
*ACTIVE
 70
     0
 10
0.0
 20
0.0
 11
1.0
 21
1.0
 12
292.781785
 22
169.063317
 13
0.0
 23
0.0
 14
1.0
 24
1.0
 15
10.0
 25
10.0
 16
0.0
 26
0.0
 36
1.0
 17
0.0
 27
0.0
 37
0.0
 40
269.174286
 41
1.716141
 42
50.0
 43
0.0
 44
0.0
 50
0.0
 51
0.0
 71
     0
 72
   100
 73
     1
 74
     0
 75
     0
 76
     0
 77
     0
 78
     0
  0
ENDTAB
  0
TABLE
  2
LTYPE
  5
5
100
AcDbSymbolTable
 70
     4
  0
LTYPE
  5
12
100
AcDbSymbolTableRecord
100
AcDbLinetypeTableRecord
  2
BYBLOCK
 70
     0
  3

 72
    65
 73
     0
 40
0.0
  0
LTYPE
  5
13
100
AcDbSymbolTableRecord
100
AcDbLinetypeTableRecord
  2
BYLAYER
 70
     0
  3

 72
    65
 73
     0
 40
0.0
  0
LTYPE
  5
14
100
AcDbSymbolTableRecord
100
AcDbLinetypeTableRecord
  2
CONTINUOUS
 70
     0
  3
Solid line
 72
    65
 73
     0
 40
0.0
  0
LTYPE
  5
20
100
AcDbSymbolTableRecord
100
AcDbLinetypeTableRecord
  2
GEN7A
 70
     0
  3
__ . __ . __
 72
    65
 73
     4
 40
7.5
 49
5.0
 74
     0
 49
-1.25
 74
     0
 49
0.0
 74
     0
 49
-1.25
 74
     0
  0
LTYPE
  5
19B8
100
AcDbSymbolTableRecord
100
AcDbLinetypeTableRecord
  2
CENTER2
 70
     0
  3
___ _ ___ _ ___ _ ___ _ ___ _ ___ _ ___ _ ___ _
 72
    65
 73
     4
 40
1.125
 49
0.75
 74
     0
 49
-0.125
 74
     0
 49
0.125
 74
     0
 49
-0.125
 74
     0
  0
LTYPE
  5
2087
100
AcDbSymbolTableRecord
100
AcDbLinetypeTableRecord
  2
STRICHLINIE
 70
     0
  3
Strichlinie __ __ __ __ __ __ __ __ __ __ __ __
 72
    65
 73
     2
 40
19.05
 49
12.7
 74
     0
 49
-6.35
 74
     0
  0
ENDTAB
  0
TABLE
  2
LAYER
  5
2
100
AcDbSymbolTable
 70
     7
  0
LAYER
  5
F
100
AcDbSymbolTableRecord
100
AcDbLayerTableRecord
  2
0
 70
     0
 62
     7
  6
CONTINUOUS
  0
LAYER
  5
2B
100
AcDbSymbolTableRecord
100
AcDbLayerTableRecord
  2
5
 70
     0
 62
     3
  6
CONTINUOUS
  0
LAYER
  5
2F
100
AcDbSymbolTableRecord
100
AcDbLayerTableRecord
  2
7A
 70
     0
 62
     4
  6
GEN7A
  0
LAYER
  5
19B9
100
AcDbSymbolTableRecord
100
AcDbLayerTableRecord
  2
GEO1
 70
     0
 62
     7
  6
CONTINUOUS
  0
LAYER
  5
2088
100
AcDbSymbolTableRecord
100
AcDbLayerTableRecord
  2
3A
 70
     0
 62
     6
  6
STRICHLINIE
  0
LAYER
  5
220A
100
AcDbSymbolTableRecord
100
AcDbLayerTableRecord
  2
CLIN
 70
     0
 62
     1
  6
CONTINUOUS
  0
LAYER
  5
2223
100
AcDbSymbolTableRecord
100
AcDbLayerTableRecord
  2
6
 70
     0
 62
     2
  6
CONTINUOUS
  0
ENDTAB
  0
TABLE
  2
STYLE
  5
3
100
AcDbSymbolTable
 70
     1
  0
STYLE
  5
10
100
AcDbSymbolTableRecord
100
AcDbTextStyleTableRecord
  2
STANDARD
 70
     0
 40
0.0
 41
1.0
 50
0.0
 71
     0
 42
3.5
  3
ISOCP.SHX
  4

  0
ENDTAB
  0
TABLE
  2
VIEW
  5
6
100
AcDbSymbolTable
 70
     0
  0
ENDTAB
  0
TABLE
  2
UCS
  5
7
100
AcDbSymbolTable
 70
     0
  0
ENDTAB
  0
TABLE
  2
APPID
  5
9
100
AcDbSymbolTable
 70
     1
  0
APPID
  5
11
100
AcDbSymbolTableRecord
100
AcDbRegAppTableRecord
  2
ACAD
 70
     0
  0
ENDTAB
  0
TABLE
  2
DIMSTYLE
  5
A
100
AcDbSymbolTable
 70
     1
  0
DIMSTYLE
105
24
100
AcDbSymbolTableRecord
100
AcDbDimStyleTableRecord
  2
GEN-ISO
 70
     0
  3

  4

  5

  6

  7

 40
1.0
 41
2.5
 42
1.0
 43
10.0
 44
2.0
 45
0.0
 46
0.0
 47
0.1
 48
0.1
140
3.5
141
-2.0
142
0.0
143
25.4
144
1.0
145
0.0
146
1.0
147
1.5
 71
     0
 72
     0
 73
     0
 74
     0
 75
     0
 76
     0
 77
     1
 78
     8
170
     0
171
     2
172
     1
173
     0
174
     0
175
     0
176
     0
177
     0
178
   256
270
     2
271
     2
272
     5
273
     2
274
     2
340
10
275
     0
280
     0
281
     0
282
     0
283
     0
284
     8
285
     8
286
     8
287
     3
288
     0
  0
ENDTAB
  0
TABLE
  2
BLOCK_RECORD
  5
1
100
AcDbSymbolTable
 70
     0
  0
BLOCK_RECORD
  5
18
100
AcDbSymbolTableRecord
100
AcDbBlockTableRecord
  2
*MODEL_SPACE
  0
BLOCK_RECORD
  5
15
100
AcDbSymbolTableRecord
100
AcDbBlockTableRecord
  2
*PAPER_SPACE
  0
ENDTAB
  0
ENDSEC
  0
SECTION
  2
BLOCKS
  0
BLOCK
  5
44
100
AcDbEntity
  8
0
100
AcDbBlockBegin
  2
*MODEL_SPACE
 70
     0
 10
0.0
 20
0.0
 30
0.0
  3
*MODEL_SPACE
  1

  0
ENDBLK
  5
45
100
AcDbEntity
  8
0
100
AcDbBlockEnd
  0
BLOCK
  5
42
100
AcDbEntity
 67
     1
  8
0
100
AcDbBlockBegin
  2
*PAPER_SPACE
 70
     0
 10
0.0
 20
0.0
 30
0.0
  3
*PAPER_SPACE
  1

  0
ENDBLK
  5
43
100
AcDbEntity
 67
     1
  8
0
100
AcDbBlockEnd
  0
ENDSEC
  0
SECTION
  2
ENTITIES
  0
LINE
  5
882
100
AcDbEntity
  8
0
100
AcDbLine
 10
247.317347
 20
252.404762
 30
0.0
 11
137.317347
 21
252.404762
 31
0.0
1001
ACAD
1000
RTLwPs
1070
   128
  0
LINE
  5
883
100
AcDbEntity
  8
0
100
AcDbLine
 10
247.317347
 20
263.604762
 30
0.0
 11
137.317347
 21
263.604762
 31
0.0
1001
ACAD
1000
RTLwPs
1070
   128
  0
LINE
  5
884
100
AcDbEntity
  8
0
100
AcDbLine
 10
137.317347
 20
263.904762
 30
0.0
 11
247.317347
 21
263.904762
 31
0.0
1001
ACAD
1000
RTLwPs
1070
   128
  0
LINE
  5
885
100
AcDbEntity
  8
0
100
AcDbLine
 10
209.817347
 20
242.424847
 30
0.0
 11
174.817347
 21
242.424847
 31
0.0
1001
ACAD
1000
RTLwPs
1070
   128
  0
LINE
  5
886
100
AcDbEntity
  8
0
100
AcDbLine
 10
209.817347
 20
243.456553
 30
0.0
 11
174.817347
 21
243.456553
 31
0.0
1001
ACAD
1000
RTLwPs
1070
   128
  0
LINE
  5
887
100
AcDbEntity
  8
0
100
AcDbLine
 10
352.817347
 20
239.904823
 30
0.0
 11
131.817347
 21
239.904823
 31
0.0
1001
ACAD
1000
RTLwPs
1070
   128
  0
LINE
  5
888
100
AcDbEntity
  8
0
100
AcDbLine
 10
209.817347
 20
245.900925
 30
0.0
 11
174.817347
 21
245.900925
 31
0.0
1001
ACAD
1000
RTLwPs
1070
   128
  0
LINE
  5
889
100
AcDbEntity
  8
0
100
AcDbLine
 10
209.817347
 20
246.90477
 30
0.0
 11
174.817347
 21
246.90477
 31
0.0
1001
ACAD
1000
RTLwPs
1070
   128
  0
LINE
  5
88A
100
AcDbEntity
  8
0
100
AcDbLine
 10
352.817347
 20
193.904769
 30
0.0
 11
131.817347
 21
193.904769
 31
0.0
1001
ACAD
1000
RTLwPs
1070
   128
  0
LINE
  5
88B
100
AcDbEntity
  8
0
100
AcDbLine
 10
131.817347
 20
205.904769
 30
0.0
 11
352.817347
 21
205.904769
 31
0.0
1001
ACAD
1000
RTLwPs
1070
   128
  0
LINE
  5
88C
100
AcDbEntity
  8
0
100
AcDbLine
 10
352.817347
 20
230.904769
 30
0.0
 11
131.817347
 21
230.904769
 31
0.0
1001
ACAD
1000
RTLwPs
1070
   128
  0
LINE
  5
88D
100
AcDbEntity
  8
0
100
AcDbLine
 10
131.817347
 20
239.404762
 30
0.0
 11
352.817347
 21
239.404762
 31
0.0
1001
ACAD
1000
RTLwPs
1070
   128
  0
LINE
  5
88E
100
AcDbEntity
  8
0
100
AcDbLine
 10
247.317347
 20
148.912011
 30
0.0
 11
137.317347
 21
148.912011
 31
0.0
1001
ACAD
1000
RTLwPs
1070
   128
  0
LINE
  5
88F
100
AcDbEntity
  8
0
100
AcDbLine
 10
247.317347
 20
74.212011
 30
0.0
 11
137.317347
 21
74.212011
 31
0.0
1001
ACAD
1000
RTLwPs
1070
   128
  0
LINE
  5
890
100
AcDbEntity
  8
0
100
AcDbLine
 10
137.317347
 20
74.512011
 30
0.0
 11
247.317347
 21
74.512011
 31
0.0
1001
ACAD
1000
RTLwPs
1070
   128
  0
LINE
  5
891
100
AcDbEntity
  8
0
100
AcDbLine
 10
137.317347
 20
149.212011
 30
0.0
 11
247.317347
 21
149.212011
 31
0.0
1001
ACAD
1000
RTLwPs
1070
   128
  0
LINE
  5
892
100
AcDbEntity
  8
0
100
AcDbLine
 10
247.317347
 20
119.712011
 30
0.0
 11
137.317347
 21
119.712011
 31
0.0
1001
ACAD
1000
RTLwPs
1070
   128
  0
LINE
  5
893
100
AcDbEntity
  8
0
100
AcDbLine
 10
137.317347
 20
103.712011
 30
0.0
 11
247.317347
 21
103.712011
 31
0.0
1001
ACAD
1000
RTLwPs
1070
   128
  0
ARC
  5
894
100
AcDbEntity
  8
0
100
AcDbCircle
 10
130.602623
 20
111.82523
 30
0.0
 40
10.285899
100
AcDbArc
 50
180.630678
 51
196.957276
1001
ACAD
1000
RTLwPs
1070
   128
  0
LINE
  5
895
100
AcDbEntity
  8
0
100
AcDbLine
 10
124.317347
 20
107.272011
 30
0.0
 11
124.317347
 21
116.152011
 31
0.0
1001
ACAD
1000
RTLwPs
1070
   128
  0
LINE
  5
896
100
AcDbEntity
  8
0
100
AcDbLine
 10
123.992347
 20
114.598762
 30
0.0
 11
123.992347
 21
108.82526
 31
0.0
1001
ACAD
1000
RTLwPs
1070
   128
  0
ARC
  5
897
100
AcDbEntity
  8
0
100
AcDbCircle
 10
137.727003
 20
109.212011
 30
0.0
 40
11.378144
100
AcDbArc
 50
167.307442
 51
192.692558
1001
ACAD
1000
RTLwPs
1070
   128
  0
ARC
  5
898
100
AcDbEntity
  8
0
100
AcDbCircle
 10
117.707692
 20
109.212011
 30
0.0
 40
11.378144
100
AcDbArc
 50
347.307442
 51
12.692558
1001
ACAD
1000
RTLwPs
1070
   128
  0
LINE
  5
899
100
AcDbEntity
  8
0
100
AcDbLine
 10
126.117347
 20
116.085514
 30
0.0
 11
126.117347
 21
107.338508
 31
0.0
1001
ACAD
1000
RTLwPs
1070
   128
  0
LINE
  5
89A
100
AcDbEntity
  8
0
100
AcDbLine
 10
73.317347
 20
113.712011
 30
0.0
 11
73.317347
 21
109.712011
 31
0.0
1001
ACAD
1000
RTLwPs
1070
   128
  0
LINE
  5
89B
100
AcDbEntity
  8
0
100
AcDbLine
 10
64.817347
 20
113.712011
 30
0.0
 11
64.817347
 21
109.712011
 31
0.0
1001
ACAD
1000
RTLwPs
1070
   128
  0
LINE
  5
89C
100
AcDbEntity
  8
0
100
AcDbLine
 10
81.817347
 20
115.712011
 30
0.0
 11
81.817347
 21
107.712011
 31
0.0
1001
ACAD
1000
RTLwPs
1070
   128
  0
LINE
  5
89D
100
AcDbEntity
  8
0
100
AcDbLine
 10
89.817347
 20
115.712011
 30
0.0
 11
89.817347
 21
107.712011
 31
0.0
1001
ACAD
1000
RTLwPs
1070
   128
  0
LINE
  5
89E
100
AcDbEntity
  8
0
100
AcDbLine
 10
120.317347
 20
105.649833
 30
0.0
 11
120.317347
 21
111.712011
 31
0.0
1001
ACAD
1000
RTLwPs
1070
   128
  0
ARC
  5
89F
100
AcDbEntity
  8
0
100
AcDbCircle
 10
90.233951
 20
111.840759
 30
0.0
 40
30.083672
100
AcDbArc
 50
352.031997
 51
359.754792
1001
ACAD
1000
RTLwPs
1070
   128
  0
LINE
  5
8A0
100
AcDbEntity
  8
0
100
AcDbLine
 10
129.317347
 20
149.212011
 30
0.0
 11
129.317347
 21
74.212011
 31
0.0
1001
ACAD
1000
RTLwPs
1070
   128
  0
LINE
  5
8A1
100
AcDbEntity
  8
0
100
AcDbLine
 10
137.317347
 20
119.712011
 30
0.0
 11
137.317347
 21
103.712011
 31
0.0
1001
ACAD
1000
RTLwPs
1070
   128
  0
LINE
  5
8A2
100
AcDbEntity
  8
0
100
AcDbLine
 10
104.817347
 20
82.212011
 30
0.0
 11
104.817347
 21
141.212011
 31
0.0
1001
ACAD
1000
RTLwPs
1070
   128
  0
LINE
  5
8A3
100
AcDbEntity
  8
0
100
AcDbLine
 10
114.817347
 20
141.212011
 30
0.0
 11
114.817347
 21
82.212011
 31
0.0
1001
ACAD
1000
RTLwPs
1070
   128
  0
LINE
  5
8A4
100
AcDbEntity
  8
0
100
AcDbLine
 10
137.317347
 20
103.712011
 30
0.0
 11
137.317347
 21
119.712011
 31
0.0
1001
ACAD
1000
RTLwPs
1070
   128
  0
LINE
  5
8A7
100
AcDbEntity
  8
0
100
AcDbLine
 10
73.317347
 20
107.712011
 30
0.0
 11
64.817347
 21
107.712011
 31
0.0
1001
ACAD
1000
RTLwPs
1070
   128
  0
LINE
  5
8AB
100
AcDbEntity
  8
0
100
AcDbLine
 10
64.817347
 20
107.712011
 30
0.0
 11
64.817347
 21
109.712011
 31
0.0
1001
ACAD
1000
RTLwPs
1070
   128
  0
LINE
  5
8AE
100
AcDbEntity
  8
0
100
AcDbLine
 10
120.763929
 20
108.82526
 30
0.0
 11
123.992347
 21
108.82526
 31
0.0
1001
ACAD
1000
RTLwPs
1070
   128
  0
LINE
  5
8AF
100
AcDbEntity
  8
0
100
AcDbLine
 10
120.763929
 20
105.938508
 30
0.0
 11
123.992347
 21
105.938508
 31
0.0
1001
ACAD
1000
RTLwPs
1070
   128
  0
LINE
  5
8B0
100
AcDbEntity
  8
0
100
AcDbLine
 10
129.317347
 20
79.212011
 30
0.0
 11
114.817347
 21
79.212011
 31
0.0
1001
ACAD
1000
RTLwPs
1070
   128
  0
LINE
  5
8B1
100
AcDbEntity
  8
0
100
AcDbLine
 10
104.817347
 20
82.212011
 30
0.0
 11
114.817347
 21
82.212011
 31
0.0
1001
ACAD
1000
RTLwPs
1070
   128
  0
LINE
  5
8B2
100
AcDbEntity
  8
0
100
AcDbLine
 10
114.817347
 20
79.212011
 30
0.0
 11
104.817347
 21
79.212011
 31
0.0
1001
ACAD
1000
RTLwPs
1070
   128
  0
LINE
  5
8B3
100
AcDbEntity
  8
0
100
AcDbLine
 10
104.817347
 20
79.212011
 30
0.0
 11
104.817347
 21
82.212011
 31
0.0
1001
ACAD
1000
RTLwPs
1070
   128
  0
LINE
  5
8B4
100
AcDbEntity
  8
0
100
AcDbLine
 10
114.817347
 20
82.212011
 30
0.0
 11
114.817347
 21
79.212011
 31
0.0
1001
ACAD
1000
RTLwPs
1070
   128
  0
LINE
  5
8B9
100
AcDbEntity
  8
5
100
AcDbLine
 10
104.817347
 20
108.477011
 30
0.0
 11
89.817347
 21
108.477011
 31
0.0
1001
ACAD
1000
RTLwPs
1070
   128
  0
LINE
  5
8BA
100
AcDbEntity
  8
0
100
AcDbLine
 10
89.817347
 20
107.712011
 30
0.0
 11
104.817347
 21
107.712011
 31
0.0
1001
ACAD
1000
RTLwPs
1070
   128
  0
LINE
  5
8BE
100
AcDbEntity
  8
0
100
AcDbLine
 10
73.317347
 20
107.712011
 30
0.0
 11
81.817347
 21
107.712011
 31
0.0
1001
ACAD
1000
RTLwPs
1070
   128
  0
LINE
  5
8C0
100
AcDbEntity
  8
0
100
AcDbLine
 10
73.317347
 20
109.712011
 30
0.0
 11
73.317347
 21
107.712011
 31
0.0
1001
ACAD
1000
RTLwPs
1070
   128
  0
LINE
  5
8C1
100
AcDbEntity
  8
0
100
AcDbLine
 10
81.817347
 20
108.212011
 30
0.0
 11
89.817347
 21
108.212011
 31
0.0
1001
ACAD
1000
RTLwPs
1070
   128
  0
LINE
  5
8E0
100
AcDbEntity
  8
0
100
AcDbLine
 10
120.317347
 20
106.712011
 30
0.0
 11
120.763929
 21
105.938508
 31
0.0
1001
ACAD
1000
RTLwPs
1070
   128
  0
ARC
  5
8E1
100
AcDbEntity
  8
0
100
AcDbCircle
 10
123.231672
 20
107.492805
 30
0.0
 40
2.916434
100
AcDbArc
 50
182.179656
 51
212.204591
1001
ACAD
1000
RTLwPs
1070
   128
  0
ARC
  5
8E2
100
AcDbEntity
  8
0
100
AcDbCircle
 10
123.143024
 20
107.298391
 30
0.0
 40
2.82691
100
AcDbArc
 50
147.308234
 51
178.307518
1001
ACAD
1000
RTLwPs
1070
   128
  0
ARC
  5
8E4
100
AcDbEntity
  8
0
100
AcDbCircle
 10
112.597594
 20
105.727144
 30
0.0
 40
7.72014
100
AcDbArc
 50
344.230887
 51
359.42622
1001
ACAD
1000
RTLwPs
1070
   128
  0
LINE
  5
8E5
100
AcDbEntity
  8
0
100
AcDbLine
 10
120.027184
 20
103.629107
 30
0.0
 11
120.317347
 21
104.712011
 31
0.0
1001
ACAD
1000
RTLwPs
1070
   128
  0
LINE
  5
8E6
100
AcDbEntity
  8
0
100
AcDbLine
 10
114.817347
 20
103.629107
 30
0.0
 11
120.027184
 21
103.629107
 31
0.0
1001
ACAD
1000
RTLwPs
1070
   128
  0
ARC
  5
8E7
100
AcDbEntity
  8
0
100
AcDbCircle
 10
112.600803
 20
105.572983
 30
0.0
 40
7.716927
100
AcDbArc
 50
0.570598
 51
15.772295
1001
ACAD
1000
RTLwPs
1070
   128
  0
LINE
  5
8E8
100
AcDbEntity
  8
0
100
AcDbLine
 10
114.817347
 20
107.670559
 30
0.0
 11
120.027184
 21
107.670559
 31
0.0
1001
ACAD
1000
RTLwPs
1070
   128
  0
LINE
  5
8E9
100
AcDbEntity
  8
0
100
AcDbLine
 10
120.317347
 20
105.649833
 30
0.0
 11
120.317347
 21
104.712011
 31
0.0
1001
ACAD
1000
RTLwPs
1070
   128
  0
LINE
  5
8EA
100
AcDbEntity
  8
0
100
AcDbLine
 10
137.317347
 20
74.512011
 30
0.0
 11
137.317347
 21
103.712011
 31
0.0
1001
ACAD
1000
RTLwPs
1070
   128
  0
LINE
  5
8F0
100
AcDbEntity
  8
0
100
AcDbLine
 10
129.317347
 20
74.712011
 30
0.0
 11
137.317347
 21
74.712011
 31
0.0
1001
ACAD
1000
RTLwPs
1070
   128
  0
LINE
  5
8F1
100
AcDbEntity
  8
0
100
AcDbLine
 10
137.317347
 20
74.212011
 30
0.0
 11
129.317347
 21
74.212011
 31
0.0
1001
ACAD
1000
RTLwPs
1070
   128
  0
LINE
  5
8F5
100
AcDbEntity
  8
0
100
AcDbLine
 10
137.317347
 20
74.212011
 30
0.0
 11
137.317347
 21
74.512011
 31
0.0
1001
ACAD
1000
RTLwPs
1070
   128
  0
ARC
  5
904
100
AcDbEntity
  8
5
100
AcDbCircle
 10
152.317347
 20
86.712011
 30
0.0
 40
2.5
100
AcDbArc
 50
255.0
 51
195.0
1001
ACAD
1000
RTLwPs
1070
   128
  0
ARC
  5
911
100
AcDbEntity
  8
0
100
AcDbCircle
 10
124.567347
 20
108.462011
 30
0.0
 40
0.25
100
AcDbArc
 50
90.0
 51
180.0
1001
ACAD
1000
RTLwPs
1070
   128
  0
LINE
  5
912
100
AcDbEntity
  8
0
100
AcDbLine
 10
123.992347
 20
108.82526
 30
0.0
 11
123.992347
 21
105.938508
 31
0.0
1001
ACAD
1000
RTLwPs
1070
   128
  0
LINE
  5
913
100
AcDbEntity
  8
0
100
AcDbLine
 10
123.992347
 20
107.272011
 30
0.0
 11
124.317347
 21
107.272011
 31
0.0
1001
ACAD
1000
RTLwPs
1070
   128
  0
LINE
  5
914
100
AcDbEntity
  8
0
100
AcDbLine
 10
124.567347
 20
108.712011
 30
0.0
 11
126.117347
 21
108.712011
 31
0.0
1001
ACAD
1000
RTLwPs
1070
   128
  0
LINE
  5
915
100
AcDbEntity
  8
0
100
AcDbLine
 10
126.117347
 20
107.338508
 30
0.0
 11
126.345374
 21
106.712011
 31
0.0
1001
ACAD
1000
RTLwPs
1070
   128
  0
LINE
  5
916
100
AcDbEntity
  8
0
100
AcDbLine
 10
129.089321
 20
106.712011
 30
0.0
 11
129.317347
 21
107.338508
 31
0.0
1001
ACAD
1000
RTLwPs
1070
   128
  0
LINE
  5
917
100
AcDbEntity
  8
0
100
AcDbLine
 10
126.626906
 20
106.712011
 30
0.0
 11
128.807789
 21
106.712011
 31
0.0
1001
ACAD
1000
RTLwPs
1070
   128
  0
LINE
  5
918
100
AcDbEntity
  8
0
100
AcDbLine
 10
128.807789
 20
106.712011
 30
0.0
 11
129.089321
 21
106.712011
 31
0.0
1001
ACAD
1000
RTLwPs
1070
   128
  0
LINE
  5
919
100
AcDbEntity
  8
0
100
AcDbLine
 10
126.345374
 20
106.712011
 30
0.0
 11
126.626906
 21
106.712011
 31
0.0
1001
ACAD
1000
RTLwPs
1070
   128
  0
CIRCLE
  5
922
100
AcDbEntity
  8
0
100
AcDbCircle
 10
152.317347
 20
86.712011
 30
0.0
 40
2.1
1001
ACAD
1000
RTLwPs
1070
   128
  0
ARC
  5
926
100
AcDbEntity
  8
5
100
AcDbCircle
 10
172.317347
 20
86.712011
 30
0.0
 40
2.5
100
AcDbArc
 50
255.0
 51
195.0
1001
ACAD
1000
RTLwPs
1070
   128
  0
CIRCLE
  5
927
100
AcDbEntity
  8
0
100
AcDbCircle
 10
172.317347
 20
86.712011
 30
0.0
 40
2.1
1001
ACAD
1000
RTLwPs
1070
   128
  0
LINE
  5
92E
100
AcDbEntity
  8
0
100
AcDbLine
 10
64.817347
 20
115.712011
 30
0.0
 11
73.317347
 21
115.712011
 31
0.0
1001
ACAD
1000
RTLwPs
1070
   128
  0
LINE
  5
92F
100
AcDbEntity
  8
0
100
AcDbLine
 10
64.817347
 20
113.712011
 30
0.0
 11
64.817347
 21
115.712011
 31
0.0
1001
ACAD
1000
RTLwPs
1070
   128
  0
LINE
  5
933
100
AcDbEntity
  8
0
100
AcDbLine
 10
120.763929
 20
114.598762
 30
0.0
 11
123.992347
 21
114.598762
 31
0.0
1001
ACAD
1000
RTLwPs
1070
   128
  0
LINE
  5
934
100
AcDbEntity
  8
0
100
AcDbLine
 10
120.763929
 20
117.485514
 30
0.0
 11
123.992347
 21
117.485514
 31
0.0
1001
ACAD
1000
RTLwPs
1070
   128
  0
LINE
  5
937
100
AcDbEntity
  8
0
100
AcDbLine
 10
114.817347
 20
144.212011
 30
0.0
 11
129.317347
 21
144.212011
 31
0.0
1001
ACAD
1000
RTLwPs
1070
   128
  0
LINE
  5
940
100
AcDbEntity
  8
0
100
AcDbLine
 10
104.817347
 20
115.712011
 30
0.0
 11
89.817347
 21
115.712011
 31
0.0
1001
ACAD
1000
RTLwPs
1070
   128
  0
LINE
  5
941
100
AcDbEntity
  8
0
100
AcDbLine
 10
81.817347
 20
115.712011
 30
0.0
 11
73.317347
 21
115.712011
 31
0.0
1001
ACAD
1000
RTLwPs
1070
   128
  0
LINE
  5
942
100
AcDbEntity
  8
0
100
AcDbLine
 10
73.317347
 20
115.712011
 30
0.0
 11
73.317347
 21
113.712011
 31
0.0
1001
ACAD
1000
RTLwPs
1070
   128
  0
LINE
  5
943
100
AcDbEntity
  8
0
100
AcDbLine
 10
89.817347
 20
115.212011
 30
0.0
 11
81.817347
 21
115.212011
 31
0.0
1001
ACAD
1000
RTLwPs
1070
   128
  0
LINE
  5
94E
100
AcDbEntity
  8
0
100
AcDbLine
 10
120.763929
 20
117.485514
 30
0.0
 11
120.317347
 21
116.712011
 31
0.0
1001
ACAD
1000
RTLwPs
1070
   128
  0
ARC
  5
94F
100
AcDbEntity
  8
0
100
AcDbCircle
 10
123.143024
 20
115.958645
 30
0.0
 40
2.82691
100
AcDbArc
 50
147.308234
 51
178.307518
1001
ACAD
1000
RTLwPs
1070
   128
  0
ARC
  5
950
100
AcDbEntity
  8
0
100
AcDbCircle
 10
130.611323
 20
111.597446
 30
0.0
 40
10.294614
100
AcDbArc
 50
163.049682
 51
179.362365
1001
ACAD
1000
RTLwPs
1070
   128
  0
ARC
  5
951
100
AcDbEntity
  8
0
100
AcDbCircle
 10
123.231672
 20
116.153059
 30
0.0
 40
2.916434
100
AcDbArc
 50
182.179656
 51
212.204591
1001
ACAD
1000
RTLwPs
1070
   128
  0
LINE
  5
953
100
AcDbEntity
  8
0
100
AcDbLine
 10
114.817347
 20
119.794915
 30
0.0
 11
120.027184
 21
119.794915
 31
0.0
1001
ACAD
1000
RTLwPs
1070
   128
  0
ARC
  5
954
100
AcDbEntity
  8
0
100
AcDbCircle
 10
112.597594
 20
117.8515
 30
0.0
 40
7.72014
100
AcDbArc
 50
344.230887
 51
359.42622
1001
ACAD
1000
RTLwPs
1070
   128
  0
LINE
  5
955
100
AcDbEntity
  8
0
100
AcDbLine
 10
114.817347
 20
115.753463
 30
0.0
 11
120.027184
 21
115.753463
 31
0.0
1001
ACAD
1000
RTLwPs
1070
   128
  0
ARC
  5
956
100
AcDbEntity
  8
0
100
AcDbCircle
 10
112.600803
 20
117.697339
 30
0.0
 40
7.716927
100
AcDbArc
 50
0.570598
 51
15.772295
1001
ACAD
1000
RTLwPs
1070
   128
  0
LINE
  5
957
100
AcDbEntity
  8
0
100
AcDbLine
 10
120.317347
 20
117.774189
 30
0.0
 11
120.317347
 21
118.712011
 31
0.0
1001
ACAD
1000
RTLwPs
1070
   128
  0
ARC
  5
958
100
AcDbEntity
  8
0
100
AcDbCircle
 10
90.241744
 20
111.583822
 30
0.0
 40
30.075877
100
AcDbArc
 50
0.244206
 51
7.969005
1001
ACAD
1000
RTLwPs
1070
   128
  0
LINE
  5
959
100
AcDbEntity
  8
0
100
AcDbLine
 10
120.317347
 20
118.712011
 30
0.0
 11
120.027184
 21
119.794915
 31
0.0
1001
ACAD
1000
RTLwPs
1070
   128
  0
LINE
  5
95A
100
AcDbEntity
  8
0
100
AcDbLine
 10
120.317347
 20
111.712011
 30
0.0
 11
120.317347
 21
117.774189
 31
0.0
1001
ACAD
1000
RTLwPs
1070
   128
  0
LINE
  5
96D
100
AcDbEntity
  8
0
100
AcDbLine
 10
114.817347
 20
141.212011
 30
0.0
 11
104.817347
 21
141.212011
 31
0.0
1001
ACAD
1000
RTLwPs
1070
   128
  0
LINE
  5
96E
100
AcDbEntity
  8
0
100
AcDbLine
 10
104.817347
 20
144.212011
 30
0.0
 11
114.817347
 21
144.212011
 31
0.0
1001
ACAD
1000
RTLwPs
1070
   128
  0
LINE
  5
972
100
AcDbEntity
  8
0
100
AcDbLine
 10
104.817347
 20
141.212011
 30
0.0
 11
104.817347
 21
144.212011
 31
0.0
1001
ACAD
1000
RTLwPs
1070
   128
  0
LINE
  5
973
100
AcDbEntity
  8
0
100
AcDbLine
 10
114.817347
 20
144.212011
 30
0.0
 11
114.817347
 21
141.212011
 31
0.0
1001
ACAD
1000
RTLwPs
1070
   128
  0
ARC
  5
975
100
AcDbEntity
  8
5
100
AcDbCircle
 10
172.317347
 20
136.712011
 30
0.0
 40
2.5
100
AcDbArc
 50
255.0
 51
195.0
1001
ACAD
1000
RTLwPs
1070
   128
  0
ARC
  5
976
100
AcDbEntity
  8
5
100
AcDbCircle
 10
152.317347
 20
136.712011
 30
0.0
 40
2.5
100
AcDbArc
 50
255.0
 51
195.0
1001
ACAD
1000
RTLwPs
1070
   128
  0
CIRCLE
  5
977
100
AcDbEntity
  8
0
100
AcDbCircle
 10
172.317347
 20
136.712011
 30
0.0
 40
5.0
1001
ACAD
1000
RTLwPs
1070
   128
  0
LINE
  5
978
100
AcDbEntity
  8
0
100
AcDbLine
 10
137.317347
 20
119.712011
 30
0.0
 11
137.317347
 21
148.912011
 31
0.0
1001
ACAD
1000
RTLwPs
1070
   128
  0
CIRCLE
  5
979
100
AcDbEntity
  8
0
100
AcDbCircle
 10
152.317347
 20
136.712011
 30
0.0
 40
2.1
1001
ACAD
1000
RTLwPs
1070
   128
  0
CIRCLE
  5
97A
100
AcDbEntity
  8
0
100
AcDbCircle
 10
172.317347
 20
136.712011
 30
0.0
 40
2.1
1001
ACAD
1000
RTLwPs
1070
   128
  0
LINE
  5
981
100
AcDbEntity
  8
0
100
AcDbLine
 10
124.317347
 20
116.152011
 30
0.0
 11
123.992347
 21
116.152011
 31
0.0
1001
ACAD
1000
RTLwPs
1070
   128
  0
ARC
  5
982
100
AcDbEntity
  8
0
100
AcDbCircle
 10
124.567347
 20
114.962011
 30
0.0
 40
0.25
100
AcDbArc
 50
180.0
 51
270.0
1001
ACAD
1000
RTLwPs
1070
   128
  0
LINE
  5
983
100
AcDbEntity
  8
0
100
AcDbLine
 10
123.992347
 20
117.485514
 30
0.0
 11
123.992347
 21
114.598762
 31
0.0
1001
ACAD
1000
RTLwPs
1070
   128
  0
LINE
  5
984
100
AcDbEntity
  8
0
100
AcDbLine
 10
126.117347
 20
114.712011
 30
0.0
 11
124.567347
 21
114.712011
 31
0.0
1001
ACAD
1000
RTLwPs
1070
   128
  0
LINE
  5
985
100
AcDbEntity
  8
0
100
AcDbLine
 10
129.317347
 20
116.085514
 30
0.0
 11
129.089321
 21
116.712011
 31
0.0
1001
ACAD
1000
RTLwPs
1070
   128
  0
ARC
  5
986
100
AcDbEntity
  8
0
100
AcDbCircle
 10
137.727003
 20
114.212011
 30
0.0
 40
11.378144
100
AcDbArc
 50
167.307442
 51
192.692558
1001
ACAD
1000
RTLwPs
1070
   128
  0
LINE
  5
987
100
AcDbEntity
  8
0
100
AcDbLine
 10
126.345374
 20
116.712011
 30
0.0
 11
126.117347
 21
116.085514
 31
0.0
1001
ACAD
1000
RTLwPs
1070
   128
  0
LINE
  5
988
100
AcDbEntity
  8
0
100
AcDbLine
 10
126.626906
 20
116.712011
 30
0.0
 11
126.345374
 21
116.712011
 31
0.0
1001
ACAD
1000
RTLwPs
1070
   128
  0
LINE
  5
989
100
AcDbEntity
  8
0
100
AcDbLine
 10
126.626906
 20
111.712011
 30
0.0
 11
128.807789
 21
111.712011
 31
0.0
1001
ACAD
1000
RTLwPs
1070
   128
  0
ARC
  5
98A
100
AcDbEntity
  8
0
100
AcDbCircle
 10
117.707692
 20
114.212011
 30
0.0
 40
11.378144
100
AcDbArc
 50
347.307442
 51
12.692558
1001
ACAD
1000
RTLwPs
1070
   128
  0
LINE
  5
98B
100
AcDbEntity
  8
0
100
AcDbLine
 10
128.807789
 20
116.712011
 30
0.0
 11
129.089321
 21
116.712011
 31
0.0
1001
ACAD
1000
RTLwPs
1070
   128
  0
LINE
  5
98C
100
AcDbEntity
  8
0
100
AcDbLine
 10
126.626906
 20
116.712011
 30
0.0
 11
128.807789
 21
116.712011
 31
0.0
1001
ACAD
1000
RTLwPs
1070
   128
  0
LINE
  5
9AA
100
AcDbEntity
  8
0
100
AcDbLine
 10
137.317347
 20
148.712011
 30
0.0
 11
129.317347
 21
148.712011
 31
0.0
1001
ACAD
1000
RTLwPs
1070
   128
  0
LINE
  5
9AB
100
AcDbEntity
  8
0
100
AcDbLine
 10
129.317347
 20
149.212011
 30
0.0
 11
137.317347
 21
149.212011
 31
0.0
1001
ACAD
1000
RTLwPs
1070
   128
  0
LINE
  5
9AF
100
AcDbEntity
  8
0
100
AcDbLine
 10
137.317347
 20
148.912011
 30
0.0
 11
137.317347
 21
149.212011
 31
0.0
1001
ACAD
1000
RTLwPs
1070
   128
  0
CIRCLE
  5
9BB
100
AcDbEntity
  8
0
100
AcDbCircle
 10
459.750568
 20
208.904769
 30
0.0
 40
3.5
1001
ACAD
1000
RTLwPs
1070
   128
  0
LINE
  5
9BC
100
AcDbEntity
  8
0
100
AcDbLine
 10
447.750568
 20
263.604762
 30
0.0
 11
521.750568
 21
263.604762
 31
0.0
1001
ACAD
1000
RTLwPs
1070
   128
  0
CIRCLE
  5
9BD
100
AcDbEntity
  8
0
100
AcDbCircle
 10
459.750568
 20
208.904769
 30
0.0
 40
4.0
1001
ACAD
1000
RTLwPs
1070
   128
  0
CIRCLE
  5
9BE
100
AcDbEntity
  8
0
100
AcDbCircle
 10
461.250568
 20
234.404769
 30
0.0
 40
4.0
1001
ACAD
1000
RTLwPs
1070
   128
  0
LINE
  5
9BF
100
AcDbEntity
  8
0
100
AcDbLine
 10
455.250568
 20
263.404769
 30
0.0
 11
514.250568
 21
263.404769
 31
0.0
1001
ACAD
1000
RTLwPs
1070
   128
  0
LINE
  5
9C0
100
AcDbEntity
  8
0
100
AcDbLine
 10
517.250568
 20
194.404769
 30
0.0
 11
452.250568
 21
194.404769
 31
0.0
1001
ACAD
1000
RTLwPs
1070
   128
  0
LINE
  5
9C1
100
AcDbEntity
  8
0
100
AcDbLine
 10
476.750568
 20
263.904762
 30
0.0
 11
447.550568
 21
263.904762
 31
0.0
1001
ACAD
1000
RTLwPs
1070
   128
  0
LINE
  5
9C2
100
AcDbEntity
  8
0
100
AcDbLine
 10
458.000568
 20
193.904769
 30
0.0
 11
455.000568
 21
193.904769
 31
0.0
1001
ACAD
1000
RTLwPs
1070
   128
  0
LINE
  5
9C3
100
AcDbEntity
  8
0
100
AcDbLine
 10
452.250568
 20
194.404769
 30
0.0
 11
452.250568
 21
260.404769
 31
0.0
1001
ACAD
1000
RTLwPs
1070
   128
  0
LINE
  5
9C4
100
AcDbEntity
  8
0
100
AcDbLine
 10
455.000568
 20
194.404769
 30
0.0
 11
455.000568
 21
193.904769
 31
0.0
1001
ACAD
1000
RTLwPs
1070
   128
  0
LINE
  5
9C5
100
AcDbEntity
  8
0
100
AcDbLine
 10
455.000568
 20
193.904769
 30
0.0
 11
452.450568
 21
193.904769
 31
0.0
1001
ACAD
1000
RTLwPs
1070
   128
  0
LINE
  5
9C6
100
AcDbEntity
  8
0
100
AcDbLine
 10
452.250568
 20
194.104769
 30
0.0
 11
452.250568
 21
194.404769
 31
0.0
1001
ACAD
1000
RTLwPs
1070
   128
  0
ARC
  5
9C7
100
AcDbEntity
  8
0
100
AcDbCircle
 10
452.450568
 20
194.104769
 30
0.0
 40
0.2
100
AcDbArc
 50
180.0
 51
270.0
1001
ACAD
1000
RTLwPs
1070
   128
  0
LINE
  5
9C8
100
AcDbEntity
  8
0
100
AcDbLine
 10
447.250568
 20
249.104762
 30
0.0
 11
447.250568
 21
263.104762
 31
0.0
1001
ACAD
1000
RTLwPs
1070
   128
  0
LINE
  5
9C9
100
AcDbEntity
  8
0
100
AcDbLine
 10
447.250568
 20
249.104762
 30
0.0
 11
447.750568
 21
248.604762
 31
0.0
1001
ACAD
1000
RTLwPs
1070
   128
  0
LINE
  5
9CA
100
AcDbEntity
  8
0
100
AcDbLine
 10
452.250568
 20
248.604762
 30
0.0
 11
447.750568
 21
248.604762
 31
0.0
1001
ACAD
1000
RTLwPs
1070
   128
  0
LINE
  5
9CB
100
AcDbEntity
  8
0
100
AcDbLine
 10
448.350597
 20
242.404772
 30
0.0
 11
447.950573
 21
242.804794
 31
0.0
1001
ACAD
1000
RTLwPs
1070
   128
  0
LINE
  5
9CC
100
AcDbEntity
  8
0
100
AcDbLine
 10
447.950573
 20
242.804794
 30
0.0
 11
447.950577
 21
248.604762
 31
0.0
1001
ACAD
1000
RTLwPs
1070
   128
  0
LINE
  5
9CD
100
AcDbEntity
  8
0
100
AcDbLine
 10
447.750619
 20
248.604762
 30
0.0
 11
447.750616
 21
243.00475
 31
0.0
1001
ACAD
1000
RTLwPs
1070
   128
  0
LINE
  5
9CE
100
AcDbEntity
  8
0
100
AcDbLine
 10
447.750616
 20
243.00475
 30
0.0
 11
447.950573
 21
242.804794
 31
0.0
1001
ACAD
1000
RTLwPs
1070
   128
  0
ARC
  5
9CF
100
AcDbEntity
  8
0
100
AcDbCircle
 10
450.250622
 20
249.404541
 30
0.0
 40
1.599999
100
AcDbArc
 50
209.990883
 51
330.009117
1001
ACAD
1000
RTLwPs
1070
   128
  0
LINE
  5
9D0
100
AcDbEntity
  8
0
100
AcDbLine
 10
448.350597
 20
247.654537
 30
0.0
 11
450.244437
 21
247.654537
 31
0.0
1001
ACAD
1000
RTLwPs
1070
   128
  0
ARC
  5
9D1
100
AcDbEntity
  8
0
100
AcDbCircle
 10
450.2505
 20
249.404525
 30
0.0
 40
1.749999
100
AcDbArc
 50
269.801521
 51
332.80578
1001
ACAD
1000
RTLwPs
1070
   128
  0
LINE
  5
9D2
100
AcDbEntity
  8
0
100
AcDbLine
 10
448.350597
 20
242.404541
 30
0.0
 11
452.250568
 21
242.404541
 31
0.0
1001
ACAD
1000
RTLwPs
1070
   128
  0
LINE
  5
9D3
100
AcDbEntity
  8
0
100
AcDbLine
 10
448.350597
 20
242.404541
 30
0.0
 11
448.350597
 21
247.654537
 31
0.0
1001
ACAD
1000
RTLwPs
1070
   128
  0
LINE
  5
9D4
100
AcDbEntity
  8
0
100
AcDbLine
 10
447.750568
 20
263.604762
 30
0.0
 11
447.250568
 21
263.104762
 31
0.0
1001
ACAD
1000
RTLwPs
1070
   128
  0
LINE
  5
9D5
100
AcDbEntity
  8
0
100
AcDbLine
 10
452.250568
 20
260.404769
 30
0.0
 11
455.250568
 21
263.404769
 31
0.0
1001
ACAD
1000
RTLwPs
1070
   128
  0
LINE
  5
9D6
100
AcDbEntity
  8
0
100
AcDbLine
 10
447.550568
 20
263.904762
 30
0.0
 11
447.250568
 21
263.604762
 31
0.0
1001
ACAD
1000
RTLwPs
1070
   128
  0
LINE
  5
9D7
100
AcDbEntity
  8
0
100
AcDbLine
 10
447.250568
 20
263.604762
 30
0.0
 11
447.250568
 21
263.104762
 31
0.0
1001
ACAD
1000
RTLwPs
1070
   128
  0
CIRCLE
  5
9DC
100
AcDbEntity
  8
0
100
AcDbCircle
 10
508.250568
 20
234.404769
 30
0.0
 40
3.5
1001
ACAD
1000
RTLwPs
1070
   128
  0
CIRCLE
  5
9DD
100
AcDbEntity
  8
0
100
AcDbCircle
 10
461.250568
 20
234.404769
 30
0.0
 40
3.5
1001
ACAD
1000
RTLwPs
1070
   128
  0
LINE
  5
9DE
100
AcDbEntity
  8
0
100
AcDbLine
 10
488.700568
 20
235.904769
 30
0.0
 11
488.700568
 21
250.904769
 31
0.0
1001
ACAD
1000
RTLwPs
1070
   128
  0
LINE
  5
9DF
100
AcDbEntity
  8
0
100
AcDbLine
 10
480.800568
 20
250.904769
 30
0.0
 11
480.800568
 21
235.904769
 31
0.0
1001
ACAD
1000
RTLwPs
1070
   128
  0
LINE
  5
9E0
100
AcDbEntity
  8
0
100
AcDbLine
 10
517.250568
 20
260.404769
 30
0.0
 11
517.250568
 21
194.404769
 31
0.0
1001
ACAD
1000
RTLwPs
1070
   128
  0
CIRCLE
  5
9E1
100
AcDbEntity
  8
0
100
AcDbCircle
 10
508.250568
 20
234.404769
 30
0.0
 40
4.0
1001
ACAD
1000
RTLwPs
1070
   128
  0
CIRCLE
  5
9E3
100
AcDbEntity
  8
0
100
AcDbCircle
 10
509.750568
 20
208.904769
 30
0.0
 40
3.5
1001
ACAD
1000
RTLwPs
1070
   128
  0
CIRCLE
  5
9E4
100
AcDbEntity
  8
0
100
AcDbCircle
 10
509.750568
 20
208.904769
 30
0.0
 40
4.0
1001
ACAD
1000
RTLwPs
1070
   128
  0
LINE
  5
9E5
100
AcDbEntity
  8
0
100
AcDbLine
 10
514.500568
 20
193.904769
 30
0.0
 11
511.500568
 21
193.904769
 31
0.0
1001
ACAD
1000
RTLwPs
1070
   128
  0
LINE
  5
9E6
100
AcDbEntity
  8
0
100
AcDbLine
 10
472.500568
 20
193.904769
 30
0.0
 11
497.000568
 21
193.904769
 31
0.0
1001
ACAD
1000
RTLwPs
1070
   128
  0
LINE
  5
9E7
100
AcDbEntity
  8
0
100
AcDbLine
 10
472.500568
 20
193.904769
 30
0.0
 11
469.500568
 21
193.904769
 31
0.0
1001
ACAD
1000
RTLwPs
1070
   128
  0
LINE
  5
9E8
100
AcDbEntity
  8
0
100
AcDbLine
 10
459.700568
 20
194.104769
 30
0.0
 11
459.700568
 21
194.404769
 31
0.0
1001
ACAD
1000
RTLwPs
1070
   128
  0
ARC
  5
9E9
100
AcDbEntity
  8
0
100
AcDbCircle
 10
459.500568
 20
194.104769
 30
0.0
 40
0.2
100
AcDbArc
 50
270.0
 51
0.0
1001
ACAD
1000
RTLwPs
1070
   128
  0
LINE
  5
9EA
100
AcDbEntity
  8
0
100
AcDbLine
 10
459.500568
 20
193.904769
 30
0.0
 11
458.000568
 21
193.904769
 31
0.0
1001
ACAD
1000
RTLwPs
1070
   128
  0
LINE
  5
9EB
100
AcDbEntity
  8
0
100
AcDbLine
 10
469.500568
 20
193.904769
 30
0.0
 11
468.000568
 21
193.904769
 31
0.0
1001
ACAD
1000
RTLwPs
1070
   128
  0
ARC
  5
9EC
100
AcDbEntity
  8
0
100
AcDbCircle
 10
468.000568
 20
194.104769
 30
0.0
 40
0.2
100
AcDbArc
 50
180.0
 51
270.0
1001
ACAD
1000
RTLwPs
1070
   128
  0
LINE
  5
9ED
100
AcDbEntity
  8
0
100
AcDbLine
 10
467.800568
 20
194.404769
 30
0.0
 11
467.800568
 21
194.104769
 31
0.0
1001
ACAD
1000
RTLwPs
1070
   128
  0
LINE
  5
9EE
100
AcDbEntity
  8
0
100
AcDbLine
 10
472.500568
 20
193.904769
 30
0.0
 11
472.500568
 21
194.404769
 31
0.0
1001
ACAD
1000
RTLwPs
1070
   128
  0
LINE
  5
9EF
100
AcDbEntity
  8
0
100
AcDbLine
 10
459.750568
 20
210.63682
 30
0.0
 11
461.250568
 21
209.770795
 31
0.0
1001
ACAD
1000
RTLwPs
1070
   128
  0
LINE
  5
9F0
100
AcDbEntity
  8
0
100
AcDbLine
 10
458.250568
 20
209.770795
 30
0.0
 11
459.750568
 21
210.63682
 31
0.0
1001
ACAD
1000
RTLwPs
1070
   128
  0
LINE
  5
9F1
100
AcDbEntity
  8
0
100
AcDbLine
 10
461.250568
 20
209.770795
 30
0.0
 11
461.250568
 21
208.038744
 31
0.0
1001
ACAD
1000
RTLwPs
1070
   128
  0
LINE
  5
9F2
100
AcDbEntity
  8
0
100
AcDbLine
 10
458.250568
 20
208.038744
 30
0.0
 11
458.250568
 21
209.770795
 31
0.0
1001
ACAD
1000
RTLwPs
1070
   128
  0
LINE
  5
9F3
100
AcDbEntity
  8
0
100
AcDbLine
 10
459.750568
 20
207.172718
 30
0.0
 11
458.250568
 21
208.038744
 31
0.0
1001
ACAD
1000
RTLwPs
1070
   128
  0
LINE
  5
9F4
100
AcDbEntity
  8
0
100
AcDbLine
 10
461.250568
 20
208.038744
 30
0.0
 11
459.750568
 21
207.172718
 31
0.0
1001
ACAD
1000
RTLwPs
1070
   128
  0
LINE
  5
9F5
100
AcDbEntity
  8
0
100
AcDbLine
 10
500.000568
 20
193.904769
 30
0.0
 11
497.000568
 21
193.904769
 31
0.0
1001
ACAD
1000
RTLwPs
1070
   128
  0
LINE
  5
9F6
100
AcDbEntity
  8
0
100
AcDbLine
 10
497.000568
 20
193.904769
 30
0.0
 11
497.000568
 21
194.404769
 31
0.0
1001
ACAD
1000
RTLwPs
1070
   128
  0
ARC
  5
9F7
100
AcDbEntity
  8
0
100
AcDbCircle
 10
510.000568
 20
194.104769
 30
0.0
 40
0.2
100
AcDbArc
 50
180.0
 51
270.0
1001
ACAD
1000
RTLwPs
1070
   128
  0
ARC
  5
9F8
100
AcDbEntity
  8
0
100
AcDbCircle
 10
501.500568
 20
194.104769
 30
0.0
 40
0.2
100
AcDbArc
 50
270.0
 51
0.0
1001
ACAD
1000
RTLwPs
1070
   128
  0
LINE
  5
9F9
100
AcDbEntity
  8
0
100
AcDbLine
 10
501.700568
 20
194.104769
 30
0.0
 11
501.700568
 21
194.404769
 31
0.0
1001
ACAD
1000
RTLwPs
1070
   128
  0
LINE
  5
9FA
100
AcDbEntity
  8
0
100
AcDbLine
 10
509.800568
 20
194.404769
 30
0.0
 11
509.800568
 21
194.104769
 31
0.0
1001
ACAD
1000
RTLwPs
1070
   128
  0
LINE
  5
9FB
100
AcDbEntity
  8
0
100
AcDbLine
 10
501.500568
 20
193.904769
 30
0.0
 11
500.000568
 21
193.904769
 31
0.0
1001
ACAD
1000
RTLwPs
1070
   128
  0
LINE
  5
9FC
100
AcDbEntity
  8
0
100
AcDbLine
 10
511.500568
 20
193.904769
 30
0.0
 11
510.000568
 21
193.904769
 31
0.0
1001
ACAD
1000
RTLwPs
1070
   128
  0
LINE
  5
9FD
100
AcDbEntity
  8
0
100
AcDbLine
 10
511.250568
 20
208.038744
 30
0.0
 11
509.750568
 21
207.172718
 31
0.0
1001
ACAD
1000
RTLwPs
1070
   128
  0
LINE
  5
9FE
100
AcDbEntity
  8
0
100
AcDbLine
 10
509.750568
 20
210.63682
 30
0.0
 11
511.250568
 21
209.770795
 31
0.0
1001
ACAD
1000
RTLwPs
1070
   128
  0
LINE
  5
9FF
100
AcDbEntity
  8
0
100
AcDbLine
 10
508.250568
 20
209.770795
 30
0.0
 11
509.750568
 21
210.63682
 31
0.0
1001
ACAD
1000
RTLwPs
1070
   128
  0
LINE
  5
A00
100
AcDbEntity
  8
0
100
AcDbLine
 10
511.250568
 20
209.770795
 30
0.0
 11
511.250568
 21
208.038744
 31
0.0
1001
ACAD
1000
RTLwPs
1070
   128
  0
LINE
  5
A01
100
AcDbEntity
  8
0
100
AcDbLine
 10
508.250568
 20
208.038744
 30
0.0
 11
508.250568
 21
209.770795
 31
0.0
1001
ACAD
1000
RTLwPs
1070
   128
  0
LINE
  5
A02
100
AcDbEntity
  8
0
100
AcDbLine
 10
509.750568
 20
207.172718
 30
0.0
 11
508.250568
 21
208.038744
 31
0.0
1001
ACAD
1000
RTLwPs
1070
   128
  0
LINE
  5
A03
100
AcDbEntity
  8
0
100
AcDbLine
 10
486.250568
 20
223.904769
 30
0.0
 11
483.250568
 21
223.904769
 31
0.0
1001
ACAD
1000
RTLwPs
1070
   128
  0
LINE
  5
A04
100
AcDbEntity
  8
0
100
AcDbLine
 10
480.800568
 20
235.904769
 30
0.0
 11
488.700568
 21
235.904769
 31
0.0
1001
ACAD
1000
RTLwPs
1070
   128
  0
LINE
  5
A05
100
AcDbEntity
  8
0
100
AcDbLine
 10
483.250568
 20
235.904769
 30
0.0
 11
483.250568
 21
223.904769
 31
0.0
1001
ACAD
1000
RTLwPs
1070
   128
  0
LINE
  5
A06
100
AcDbEntity
  8
0
100
AcDbLine
 10
461.250568
 20
236.13682
 30
0.0
 11
462.750568
 21
235.270795
 31
0.0
1001
ACAD
1000
RTLwPs
1070
   128
  0
LINE
  5
A07
100
AcDbEntity
  8
0
100
AcDbLine
 10
459.750568
 20
235.270795
 30
0.0
 11
461.250568
 21
236.13682
 31
0.0
1001
ACAD
1000
RTLwPs
1070
   128
  0
LINE
  5
A08
100
AcDbEntity
  8
0
100
AcDbLine
 10
462.750568
 20
235.270795
 30
0.0
 11
462.750568
 21
233.538744
 31
0.0
1001
ACAD
1000
RTLwPs
1070
   128
  0
LINE
  5
A09
100
AcDbEntity
  8
0
100
AcDbLine
 10
459.750568
 20
233.538744
 30
0.0
 11
459.750568
 21
235.270795
 31
0.0
1001
ACAD
1000
RTLwPs
1070
   128
  0
LINE
  5
A0A
100
AcDbEntity
  8
0
100
AcDbLine
 10
461.250568
 20
232.672718
 30
0.0
 11
459.750568
 21
233.538744
 31
0.0
1001
ACAD
1000
RTLwPs
1070
   128
  0
LINE
  5
A0B
100
AcDbEntity
  8
0
100
AcDbLine
 10
462.750568
 20
233.538744
 30
0.0
 11
461.250568
 21
232.672718
 31
0.0
1001
ACAD
1000
RTLwPs
1070
   128
  0
LINE
  5
A0C
100
AcDbEntity
  8
0
100
AcDbLine
 10
486.250568
 20
223.904769
 30
0.0
 11
486.250568
 21
235.904769
 31
0.0
1001
ACAD
1000
RTLwPs
1070
   128
  0
LINE
  5
A0D
100
AcDbEntity
  8
0
100
AcDbLine
 10
508.250568
 20
236.13682
 30
0.0
 11
509.750568
 21
235.270795
 31
0.0
1001
ACAD
1000
RTLwPs
1070
   128
  0
LINE
  5
A0E
100
AcDbEntity
  8
0
100
AcDbLine
 10
506.750568
 20
235.270795
 30
0.0
 11
508.250568
 21
236.13682
 31
0.0
1001
ACAD
1000
RTLwPs
1070
   128
  0
LINE
  5
A0F
100
AcDbEntity
  8
0
100
AcDbLine
 10
509.750568
 20
235.270795
 30
0.0
 11
509.750568
 21
233.538744
 31
0.0
1001
ACAD
1000
RTLwPs
1070
   128
  0
LINE
  5
A10
100
AcDbEntity
  8
0
100
AcDbLine
 10
506.750568
 20
233.538744
 30
0.0
 11
506.750568
 21
235.270795
 31
0.0
1001
ACAD
1000
RTLwPs
1070
   128
  0
LINE
  5
A11
100
AcDbEntity
  8
0
100
AcDbLine
 10
508.250568
 20
232.672718
 30
0.0
 11
506.750568
 21
233.538744
 31
0.0
1001
ACAD
1000
RTLwPs
1070
   128
  0
LINE
  5
A12
100
AcDbEntity
  8
0
100
AcDbLine
 10
509.750568
 20
233.538744
 30
0.0
 11
508.250568
 21
232.672718
 31
0.0
1001
ACAD
1000
RTLwPs
1070
   128
  0
ARC
  5
A13
100
AcDbEntity
  8
0
100
AcDbCircle
 10
517.050568
 20
194.104769
 30
0.0
 40
0.2
100
AcDbArc
 50
270.0
 51
0.0
1001
ACAD
1000
RTLwPs
1070
   128
  0
LINE
  5
A14
100
AcDbEntity
  8
0
100
AcDbLine
 10
517.250568
 20
194.104769
 30
0.0
 11
517.250568
 21
194.404769
 31
0.0
1001
ACAD
1000
RTLwPs
1070
   128
  0
LINE
  5
A15
100
AcDbEntity
  8
0
100
AcDbLine
 10
514.500568
 20
193.904769
 30
0.0
 11
517.050568
 21
193.904769
 31
0.0
1001
ACAD
1000
RTLwPs
1070
   128
  0
LINE
  5
A16
100
AcDbEntity
  8
0
100
AcDbLine
 10
514.500568
 20
194.404769
 30
0.0
 11
514.500568
 21
193.904769
 31
0.0
1001
ACAD
1000
RTLwPs
1070
   128
  0
LINE
  5
A17
100
AcDbEntity
  8
0
100
AcDbLine
 10
521.950568
 20
263.904762
 30
0.0
 11
492.750568
 21
263.904762
 31
0.0
1001
ACAD
1000
RTLwPs
1070
   128
  0
LINE
  5
A18
100
AcDbEntity
  8
0
100
AcDbLine
 10
482.750568
 20
261.904769
 30
0.0
 11
486.750568
 21
261.904769
 31
0.0
1001
ACAD
1000
RTLwPs
1070
   128
  0
LINE
  5
A19
100
AcDbEntity
  8
0
100
AcDbLine
 10
480.750568
 20
250.904769
 30
0.0
 11
488.750568
 21
250.904769
 31
0.0
1001
ACAD
1000
RTLwPs
1070
   128
  0
ARC
  5
A1B
100
AcDbEntity
  8
5
100
AcDbCircle
 10
466.250568
 20
255.404769
 30
0.0
 40
5.4585
100
AcDbArc
 50
255.0
 51
195.0
1001
ACAD
1000
RTLwPs
1070
   128
  0
CIRCLE
  5
A1C
100
AcDbEntity
  8
0
100
AcDbCircle
 10
466.250568
 20
255.404769
 30
0.0
 40
5.25
1001
ACAD
1000
RTLwPs
1070
   128
  0
CIRCLE
  5
A1D
100
AcDbEntity
  8
0
100
AcDbCircle
 10
466.250568
 20
255.404769
 30
0.0
 40
5.4
1001
ACAD
1000
RTLwPs
1070
   128
  0
CIRCLE
  5
A1E
100
AcDbEntity
  8
0
100
AcDbCircle
 10
466.250568
 20
255.404769
 30
0.0
 40
6.0
1001
ACAD
1000
RTLwPs
1070
   128
  0
LINE
  5
A1F
100
AcDbEntity
  8
0
100
AcDbLine
 10
470.29202
 20
248.404769
 30
0.0
 11
472.312746
 21
251.904769
 31
0.0
1001
ACAD
1000
RTLwPs
1070
   128
  0
LINE
  5
A20
100
AcDbEntity
  8
0
100
AcDbLine
 10
460.18839
 20
251.904769
 30
0.0
 11
462.209116
 21
248.404769
 31
0.0
1001
ACAD
1000
RTLwPs
1070
   128
  0
ARC
  5
A21
100
AcDbEntity
  8
0
100
AcDbCircle
 10
466.250568
 20
255.404769
 30
0.0
 40
7.0
100
AcDbArc
 50
210.0
 51
270.0
1001
ACAD
1000
RTLwPs
1070
   128
  0
ARC
  5
A22
100
AcDbEntity
  8
0
100
AcDbCircle
 10
466.250568
 20
255.404769
 30
0.0
 40
7.0
100
AcDbArc
 50
270.0
 51
330.0
1001
ACAD
1000
RTLwPs
1070
   128
  0
LINE
  5
A23
100
AcDbEntity
  8
0
100
AcDbLine
 10
466.250568
 20
248.404769
 30
0.0
 11
470.29202
 21
248.404769
 31
0.0
1001
ACAD
1000
RTLwPs
1070
   128
  0
LINE
  5
A24
100
AcDbEntity
  8
0
100
AcDbLine
 10
462.209116
 20
248.404769
 30
0.0
 11
466.250568
 21
248.404769
 31
0.0
1001
ACAD
1000
RTLwPs
1070
   128
  0
LINE
  5
A25
100
AcDbEntity
  8
0
100
AcDbLine
 10
472.312746
 20
258.904769
 30
0.0
 11
470.29202
 21
262.404769
 31
0.0
1001
ACAD
1000
RTLwPs
1070
   128
  0
ARC
  5
A26
100
AcDbEntity
  8
0
100
AcDbCircle
 10
466.250568
 20
255.404769
 30
0.0
 40
7.0
100
AcDbArc
 50
30.0
 51
90.0
1001
ACAD
1000
RTLwPs
1070
   128
  0
LINE
  5
A27
100
AcDbEntity
  8
0
100
AcDbLine
 10
470.29202
 20
262.404769
 30
0.0
 11
466.250568
 21
262.404769
 31
0.0
1001
ACAD
1000
RTLwPs
1070
   128
  0
LINE
  5
A28
100
AcDbEntity
  8
0
100
AcDbLine
 10
466.250568
 20
262.404769
 30
0.0
 11
462.209116
 21
262.404769
 31
0.0
1001
ACAD
1000
RTLwPs
1070
   128
  0
LINE
  5
A29
100
AcDbEntity
  8
0
100
AcDbLine
 10
462.209116
 20
262.404769
 30
0.0
 11
460.18839
 21
258.904769
 31
0.0
1001
ACAD
1000
RTLwPs
1070
   128
  0
ARC
  5
A2A
100
AcDbEntity
  8
0
100
AcDbCircle
 10
466.250568
 20
255.404769
 30
0.0
 40
7.0
100
AcDbArc
 50
90.0
 51
150.0
1001
ACAD
1000
RTLwPs
1070
   128
  0
LINE
  5
A2B
100
AcDbEntity
  8
0
100
AcDbLine
 10
458.167664
 20
255.404769
 30
0.0
 11
460.18839
 21
251.904769
 31
0.0
1001
ACAD
1000
RTLwPs
1070
   128
  0
LINE
  5
A2C
100
AcDbEntity
  8
0
100
AcDbLine
 10
460.18839
 20
258.904769
 30
0.0
 11
458.167664
 21
255.404769
 31
0.0
1001
ACAD
1000
RTLwPs
1070
   128
  0
ARC
  5
A2D
100
AcDbEntity
  8
0
100
AcDbCircle
 10
466.250568
 20
255.404769
 30
0.0
 40
7.0
100
AcDbArc
 50
150.0
 51
210.0
1001
ACAD
1000
RTLwPs
1070
   128
  0
LINE
  5
A2E
100
AcDbEntity
  8
0
100
AcDbLine
 10
472.312746
 20
251.904769
 30
0.0
 11
474.333472
 21
255.404769
 31
0.0
1001
ACAD
1000
RTLwPs
1070
   128
  0
LINE
  5
A2F
100
AcDbEntity
  8
0
100
AcDbLine
 10
474.333472
 20
255.404769
 30
0.0
 11
472.312746
 21
258.904769
 31
0.0
1001
ACAD
1000
RTLwPs
1070
   128
  0
ARC
  5
A30
100
AcDbEntity
  8
0
100
AcDbCircle
 10
466.250568
 20
255.404769
 30
0.0
 40
7.0
100
AcDbArc
 50
330.0
 51
30.0
1001
ACAD
1000
RTLwPs
1070
   128
  0
ARC
  5
A31
100
AcDbEntity
  8
0
100
AcDbCircle
 10
482.750568
 20
259.904769
 30
0.0
 40
2.0
100
AcDbArc
 50
90.0
 51
180.0
1001
ACAD
1000
RTLwPs
1070
   128
  0
LINE
  5
A32
100
AcDbEntity
  8
0
100
AcDbLine
 10
480.750568
 20
250.904769
 30
0.0
 11
480.750568
 21
259.904769
 31
0.0
1001
ACAD
1000
RTLwPs
1070
   128
  0
ARC
  5
A33
100
AcDbEntity
  8
0
100
AcDbCircle
 10
484.750568
 20
255.404769
 30
0.0
 40
5.5
100
AcDbArc
 50
136.658242
 51
223.341758
1001
ACAD
1000
RTLwPs
1070
   128
  0
ARC
  5
A34
100
AcDbEntity
  8
0
100
AcDbCircle
 10
484.750568
 20
255.404769
 30
0.0
 40
5.4585
100
AcDbArc
 50
137.121817
 51
222.878183
1001
ACAD
1000
RTLwPs
1070
   128
  0
LINE
  5
A35
100
AcDbEntity
  8
0
100
AcDbLine
 10
476.750568
 20
263.604762
 30
0.0
 11
476.750568
 21
263.904762
 31
0.0
1001
ACAD
1000
RTLwPs
1070
   128
  0
ARC
  5
A36
100
AcDbEntity
  8
5
100
AcDbCircle
 10
503.250568
 20
255.404769
 30
0.0
 40
5.4585
100
AcDbArc
 50
255.0
 51
195.0
1001
ACAD
1000
RTLwPs
1070
   128
  0
CIRCLE
  5
A37
100
AcDbEntity
  8
0
100
AcDbCircle
 10
503.250568
 20
255.404769
 30
0.0
 40
5.25
1001
ACAD
1000
RTLwPs
1070
   128
  0
CIRCLE
  5
A38
100
AcDbEntity
  8
0
100
AcDbCircle
 10
503.250568
 20
255.404769
 30
0.0
 40
5.4
1001
ACAD
1000
RTLwPs
1070
   128
  0
CIRCLE
  5
A39
100
AcDbEntity
  8
0
100
AcDbCircle
 10
503.250568
 20
255.404769
 30
0.0
 40
6.0
1001
ACAD
1000
RTLwPs
1070
   128
  0
LINE
  5
A3A
100
AcDbEntity
  8
0
100
AcDbLine
 10
507.29202
 20
248.404769
 30
0.0
 11
509.312746
 21
251.904769
 31
0.0
1001
ACAD
1000
RTLwPs
1070
   128
  0
LINE
  5
A3B
100
AcDbEntity
  8
0
100
AcDbLine
 10
497.18839
 20
251.904769
 30
0.0
 11
499.209116
 21
248.404769
 31
0.0
1001
ACAD
1000
RTLwPs
1070
   128
  0
ARC
  5
A3C
100
AcDbEntity
  8
0
100
AcDbCircle
 10
503.250568
 20
255.404769
 30
0.0
 40
7.0
100
AcDbArc
 50
270.0
 51
330.0
1001
ACAD
1000
RTLwPs
1070
   128
  0
ARC
  5
A3D
100
AcDbEntity
  8
0
100
AcDbCircle
 10
503.250568
 20
255.404769
 30
0.0
 40
7.0
100
AcDbArc
 50
210.0
 51
270.0
1001
ACAD
1000
RTLwPs
1070
   128
  0
LINE
  5
A3E
100
AcDbEntity
  8
0
100
AcDbLine
 10
503.250568
 20
248.404769
 30
0.0
 11
507.29202
 21
248.404769
 31
0.0
1001
ACAD
1000
RTLwPs
1070
   128
  0
LINE
  5
A3F
100
AcDbEntity
  8
0
100
AcDbLine
 10
499.209116
 20
248.404769
 30
0.0
 11
503.250568
 21
248.404769
 31
0.0
1001
ACAD
1000
RTLwPs
1070
   128
  0
LINE
  5
A40
100
AcDbEntity
  8
0
100
AcDbLine
 10
499.209116
 20
262.404769
 30
0.0
 11
497.18839
 21
258.904769
 31
0.0
1001
ACAD
1000
RTLwPs
1070
   128
  0
ARC
  5
A41
100
AcDbEntity
  8
0
100
AcDbCircle
 10
503.250568
 20
255.404769
 30
0.0
 40
7.0
100
AcDbArc
 50
90.0
 51
150.0
1001
ACAD
1000
RTLwPs
1070
   128
  0
LINE
  5
A42
100
AcDbEntity
  8
0
100
AcDbLine
 10
497.18839
 20
258.904769
 30
0.0
 11
495.167664
 21
255.404769
 31
0.0
1001
ACAD
1000
RTLwPs
1070
   128
  0
LINE
  5
A43
100
AcDbEntity
  8
0
100
AcDbLine
 10
495.167664
 20
255.404769
 30
0.0
 11
497.18839
 21
251.904769
 31
0.0
1001
ACAD
1000
RTLwPs
1070
   128
  0
ARC
  5
A44
100
AcDbEntity
  8
0
100
AcDbCircle
 10
503.250568
 20
255.404769
 30
0.0
 40
7.0
100
AcDbArc
 50
150.0
 51
210.0
1001
ACAD
1000
RTLwPs
1070
   128
  0
ARC
  5
A45
100
AcDbEntity
  8
0
100
AcDbCircle
 10
486.750568
 20
259.904769
 30
0.0
 40
2.0
100
AcDbArc
 50
0.0
 51
90.0
1001
ACAD
1000
RTLwPs
1070
   128
  0
LINE
  5
A46
100
AcDbEntity
  8
0
100
AcDbLine
 10
488.750568
 20
259.904769
 30
0.0
 11
488.750568
 21
250.904769
 31
0.0
1001
ACAD
1000
RTLwPs
1070
   128
  0
ARC
  5
A47
100
AcDbEntity
  8
0
100
AcDbCircle
 10
484.750568
 20
255.404769
 30
0.0
 40
5.5
100
AcDbArc
 50
316.658242
 51
0.0
1001
ACAD
1000
RTLwPs
1070
   128
  0
ARC
  5
A48
100
AcDbEntity
  8
0
100
AcDbCircle
 10
484.750568
 20
255.404769
 30
0.0
 40
5.5
100
AcDbArc
 50
0.0
 51
43.341758
1001
ACAD
1000
RTLwPs
1070
   128
  0
ARC
  5
A49
100
AcDbEntity
  8
0
100
AcDbCircle
 10
484.750568
 20
255.404769
 30
0.0
 40
5.4585
100
AcDbArc
 50
317.121817
 51
0.0
1001
ACAD
1000
RTLwPs
1070
   128
  0
ARC
  5
A4A
100
AcDbEntity
  8
0
100
AcDbCircle
 10
484.750568
 20
255.404769
 30
0.0
 40
5.4585
100
AcDbArc
 50
0.0
 51
42.878183
1001
ACAD
1000
RTLwPs
1070
   128
  0
LINE
  5
A4B
100
AcDbEntity
  8
0
100
AcDbLine
 10
492.750568
 20
263.904762
 30
0.0
 11
492.750568
 21
263.604762
 31
0.0
1001
ACAD
1000
RTLwPs
1070
   128
  0
LINE
  5
A4C
100
AcDbEntity
  8
0
100
AcDbLine
 10
507.29202
 20
262.404769
 30
0.0
 11
503.250568
 21
262.404769
 31
0.0
1001
ACAD
1000
RTLwPs
1070
   128
  0
LINE
  5
A4D
100
AcDbEntity
  8
0
100
AcDbLine
 10
509.312746
 20
258.904769
 30
0.0
 11
507.29202
 21
262.404769
 31
0.0
1001
ACAD
1000
RTLwPs
1070
   128
  0
LINE
  5
A4E
100
AcDbEntity
  8
0
100
AcDbLine
 10
511.333472
 20
255.404769
 30
0.0
 11
509.312746
 21
258.904769
 31
0.0
1001
ACAD
1000
RTLwPs
1070
   128
  0
LINE
  5
A4F
100
AcDbEntity
  8
0
100
AcDbLine
 10
509.312746
 20
251.904769
 30
0.0
 11
511.333472
 21
255.404769
 31
0.0
1001
ACAD
1000
RTLwPs
1070
   128
  0
LINE
  5
A50
100
AcDbEntity
  8
0
100
AcDbLine
 10
503.250568
 20
262.404769
 30
0.0
 11
499.209116
 21
262.404769
 31
0.0
1001
ACAD
1000
RTLwPs
1070
   128
  0
ARC
  5
A51
100
AcDbEntity
  8
0
100
AcDbCircle
 10
503.250568
 20
255.404769
 30
0.0
 40
7.0
100
AcDbArc
 50
30.0
 51
90.0
1001
ACAD
1000
RTLwPs
1070
   128
  0
ARC
  5
A52
100
AcDbEntity
  8
0
100
AcDbCircle
 10
503.250568
 20
255.404769
 30
0.0
 40
7.0
100
AcDbArc
 50
330.0
 51
30.0
1001
ACAD
1000
RTLwPs
1070
   128
  0
LINE
  5
A53
100
AcDbEntity
  8
0
100
AcDbLine
 10
522.250568
 20
263.104762
 30
0.0
 11
522.250568
 21
249.104762
 31
0.0
1001
ACAD
1000
RTLwPs
1070
   128
  0
LINE
  5
A54
100
AcDbEntity
  8
0
100
AcDbLine
 10
521.750568
 20
248.604762
 30
0.0
 11
522.250568
 21
249.104762
 31
0.0
1001
ACAD
1000
RTLwPs
1070
   128
  0
LINE
  5
A55
100
AcDbEntity
  8
0
100
AcDbLine
 10
521.750568
 20
248.604762
 30
0.0
 11
517.250568
 21
248.604762
 31
0.0
1001
ACAD
1000
RTLwPs
1070
   128
  0
LINE
  5
A56
100
AcDbEntity
  8
0
100
AcDbLine
 10
521.550686
 20
242.805207
 30
0.0
 11
521.150661
 21
242.405182
 31
0.0
1001
ACAD
1000
RTLwPs
1070
   128
  0
LINE
  5
A57
100
AcDbEntity
  8
0
100
AcDbLine
 10
521.550687
 20
248.604762
 30
0.0
 11
521.550686
 21
242.805207
 31
0.0
1001
ACAD
1000
RTLwPs
1070
   128
  0
LINE
  5
A58
100
AcDbEntity
  8
0
100
AcDbLine
 10
521.550685
 20
242.805207
 30
0.0
 11
521.750271
 21
243.004793
 31
0.0
1001
ACAD
1000
RTLwPs
1070
   128
  0
LINE
  5
A59
100
AcDbEntity
  8
0
100
AcDbLine
 10
521.750271
 20
243.004793
 30
0.0
 11
521.750271
 21
248.604762
 31
0.0
1001
ACAD
1000
RTLwPs
1070
   128
  0
ARC
  5
A5A
100
AcDbEntity
  8
0
100
AcDbCircle
 10
519.250637
 20
249.404541
 30
0.0
 40
1.599999
100
AcDbArc
 50
209.990883
 51
330.009117
1001
ACAD
1000
RTLwPs
1070
   128
  0
ARC
  5
A5B
100
AcDbEntity
  8
0
100
AcDbCircle
 10
519.250759
 20
249.404525
 30
0.0
 40
1.749999
100
AcDbArc
 50
207.19422
 51
269.801521
1001
ACAD
1000
RTLwPs
1070
   128
  0
LINE
  5
A5C
100
AcDbEntity
  8
0
100
AcDbLine
 10
519.244696
 20
247.654537
 30
0.0
 11
521.150661
 21
247.654537
 31
0.0
1001
ACAD
1000
RTLwPs
1070
   128
  0
LINE
  5
A5D
100
AcDbEntity
  8
0
100
AcDbLine
 10
521.150661
 20
247.654537
 30
0.0
 11
521.150661
 21
242.404541
 31
0.0
1001
ACAD
1000
RTLwPs
1070
   128
  0
LINE
  5
A5E
100
AcDbEntity
  8
0
100
AcDbLine
 10
517.250568
 20
242.404541
 30
0.0
 11
521.150661
 21
242.404541
 31
0.0
1001
ACAD
1000
RTLwPs
1070
   128
  0
LINE
  5
A5F
100
AcDbEntity
  8
0
100
AcDbLine
 10
522.250568
 20
263.104762
 30
0.0
 11
521.750568
 21
263.604762
 31
0.0
1001
ACAD
1000
RTLwPs
1070
   128
  0
LINE
  5
A60
100
AcDbEntity
  8
0
100
AcDbLine
 10
514.250568
 20
263.404769
 30
0.0
 11
517.250568
 21
260.404769
 31
0.0
1001
ACAD
1000
RTLwPs
1070
   128
  0
LINE
  5
A61
100
AcDbEntity
  8
0
100
AcDbLine
 10
522.250568
 20
263.604762
 30
0.0
 11
521.950568
 21
263.904762
 31
0.0
1001
ACAD
1000
RTLwPs
1070
   128
  0
LINE
  5
A62
100
AcDbEntity
  8
0
100
AcDbLine
 10
522.250568
 20
263.604762
 30
0.0
 11
522.250568
 21
263.104762
 31
0.0
1001
ACAD
1000
RTLwPs
1070
   128
  0
LINE
  5
A68
100
AcDbEntity
  8
0
100
AcDbLine
 10
104.817347
 20
194.404769
 30
0.0
 11
104.817347
 21
260.404769
 31
0.0
1001
ACAD
1000
RTLwPs
1070
   128
  0
LINE
  5
A69
100
AcDbEntity
  8
0
100
AcDbLine
 10
131.817347
 20
193.904769
 30
0.0
 11
131.817347
 21
246.904769
 31
0.0
1001
ACAD
1000
RTLwPs
1070
   128
  0
LINE
  5
A6B
100
AcDbEntity
  8
0
100
AcDbLine
 10
131.817347
 20
194.404769
 30
0.0
 11
104.817347
 21
194.404769
 31
0.0
1001
ACAD
1000
RTLwPs
1070
   128
  0
ARC
  5
A6C
100
AcDbEntity
  8
5
100
AcDbCircle
 10
113.317347
 20
202.904769
 30
0.0
 40
2.784979
100
AcDbArc
 50
286.939926
 51
215.12142
1001
ACAD
1000
RTLwPs
1070
   128
  0
CIRCLE
  5
A6D
100
AcDbEntity
  8
0
100
AcDbCircle
 10
113.317347
 20
202.904769
 30
0.0
 40
2.1
1001
ACAD
1000
RTLwPs
1070
   128
  0
ARC
  5
A71
100
AcDbEntity
  8
5
100
AcDbCircle
 10
113.317347
 20
228.704769
 30
0.0
 40
2.5
100
AcDbArc
 50
255.0
 51
195.0
1001
ACAD
1000
RTLwPs
1070
   128
  0
CIRCLE
  5
A72
100
AcDbEntity
  8
0
100
AcDbCircle
 10
113.317347
 20
228.704769
 30
0.0
 40
2.1
1001
ACAD
1000
RTLwPs
1070
   128
  0
LINE
  5
A79
100
AcDbEntity
  8
0
100
AcDbLine
 10
131.817347
 20
246.904769
 30
0.0
 11
114.817347
 21
246.904769
 31
0.0
1001
ACAD
1000
RTLwPs
1070
   128
  0
LINE
  5
A84
100
AcDbEntity
  8
0
100
AcDbLine
 10
120.317347
 20
250.004769
 30
0.0
 11
120.317347
 21
260.804769
 31
0.0
1001
ACAD
1000
RTLwPs
1070
   128
  0
LINE
  5
A89
100
AcDbEntity
  8
0
100
AcDbLine
 10
114.817347
 20
246.904769
 30
0.0
 11
114.817347
 21
263.404769
 31
0.0
1001
ACAD
1000
RTLwPs
1070
   128
  0
ARC
  5
A90
100
AcDbEntity
  8
0
100
AcDbCircle
 10
109.428508
 20
250.319073
 30
0.0
 40
10.770167
100
AcDbArc
 50
349.761772
 51
359.125891
1001
ACAD
1000
RTLwPs
1070
   128
  0
LINE
  5
A91
100
AcDbEntity
  8
0
100
AcDbLine
 10
120.317347
 20
248.404769
 30
0.0
 11
120.027184
 21
248.404769
 31
0.0
1001
ACAD
1000
RTLwPs
1070
   128
  0
LINE
  5
A92
100
AcDbEntity
  8
0
100
AcDbLine
 10
114.817347
 20
248.404769
 30
0.0
 11
120.027184
 21
248.404769
 31
0.0
1001
ACAD
1000
RTLwPs
1070
   128
  0
LINE
  5
A93
100
AcDbEntity
  8
0
100
AcDbLine
 10
120.317347
 20
248.404769
 30
0.0
 11
120.317347
 21
250.004769
 31
0.0
1001
ACAD
1000
RTLwPs
1070
   128
  0
LINE
  5
A94
100
AcDbEntity
  8
0
100
AcDbLine
 10
104.817347
 20
263.404769
 30
0.0
 11
114.817347
 21
263.404769
 31
0.0
1001
ACAD
1000
RTLwPs
1070
   128
  0
LINE
  5
A95
100
AcDbEntity
  8
0
100
AcDbLine
 10
114.817347
 20
260.404769
 30
0.0
 11
104.817347
 21
260.404769
 31
0.0
1001
ACAD
1000
RTLwPs
1070
   128
  0
LINE
  5
AA2
100
AcDbEntity
  8
0
100
AcDbLine
 10
104.817347
 20
260.404769
 30
0.0
 11
104.817347
 21
263.404769
 31
0.0
1001
ACAD
1000
RTLwPs
1070
   128
  0
LINE
  5
AA7
100
AcDbEntity
  8
0
100
AcDbLine
 10
120.317347
 20
260.804769
 30
0.0
 11
120.317347
 21
262.404769
 31
0.0
1001
ACAD
1000
RTLwPs
1070
   128
  0
ARC
  5
AA8
100
AcDbEntity
  8
0
100
AcDbCircle
 10
101.483602
 20
259.401351
 30
0.0
 40
18.785233
100
AcDbArc
 50
3.825823
 51
9.200041
1001
ACAD
1000
RTLwPs
1070
   128
  0
LINE
  5
AA9
100
AcDbEntity
  8
0
100
AcDbLine
 10
120.027184
 20
262.404769
 30
0.0
 11
120.317347
 21
262.404769
 31
0.0
1001
ACAD
1000
RTLwPs
1070
   128
  0
LINE
  5
AAA
100
AcDbEntity
  8
0
100
AcDbLine
 10
114.817347
 20
262.404769
 30
0.0
 11
120.027184
 21
262.404769
 31
0.0
1001
ACAD
1000
RTLwPs
1070
   128
  0
LINE
  5
AAC
100
AcDbEntity
  8
0
100
AcDbLine
 10
167.617347
 20
243.00475
 30
0.0
 11
147.017347
 21
243.00475
 31
0.0
1001
ACAD
1000
RTLwPs
1070
   128
  0
LINE
  5
AAD
100
AcDbEntity
  8
0
100
AcDbLine
 10
173.317347
 20
242.404541
 30
0.0
 11
141.317347
 21
242.404541
 31
0.0
1001
ACAD
1000
RTLwPs
1070
   128
  0
LINE
  5
AAE
100
AcDbEntity
  8
0
100
AcDbLine
 10
167.617347
 20
251.904762
 30
0.0
 11
147.017347
 21
251.904762
 31
0.0
1001
ACAD
1000
RTLwPs
1070
   128
  0
LINE
  5
AB0
100
AcDbEntity
  8
0
100
AcDbLine
 10
126.117347
 20
251.231267
 30
0.0
 11
126.626906
 21
249.831267
 31
0.0
1001
ACAD
1000
RTLwPs
1070
   128
  0
LINE
  5
AB1
100
AcDbEntity
  8
0
100
AcDbLine
 10
128.807789
 20
249.831267
 30
0.0
 11
129.317347
 21
251.231267
 31
0.0
1001
ACAD
1000
RTLwPs
1070
   128
  0
ARC
  5
AB2
100
AcDbEntity
  8
0
100
AcDbCircle
 10
130.247193
 20
251.274642
 30
0.0
 40
3.897411
100
AcDbArc
 50
175.138841
 51
201.736721
1001
ACAD
1000
RTLwPs
1070
   128
  0
ARC
  5
AB3
100
AcDbEntity
  8
0
100
AcDbCircle
 10
125.224273
 20
251.265492
 30
0.0
 40
3.859869
100
AcDbArc
 50
338.187303
 51
21.427615
1001
ACAD
1000
RTLwPs
1070
   128
  0
LINE
  5
AB4
100
AcDbEntity
  8
0
100
AcDbLine
 10
129.317347
 20
263.104762
 30
0.0
 11
129.317347
 21
249.104762
 31
0.0
1001
ACAD
1000
RTLwPs
1070
   128
  0
LINE
  5
AB5
100
AcDbEntity
  8
0
100
AcDbLine
 10
137.317347
 20
263.104762
 30
0.0
 11
137.317347
 21
249.104762
 31
0.0
1001
ACAD
1000
RTLwPs
1070
   128
  0
LINE
  5
AB6
100
AcDbEntity
  8
0
100
AcDbLine
 10
141.317347
 20
251.204477
 30
0.0
 11
141.317347
 21
242.804794
 31
0.0
1001
ACAD
1000
RTLwPs
1070
   128
  0
LINE
  5
AB7
100
AcDbEntity
  8
0
100
AcDbLine
 10
147.017347
 20
251.904762
 30
0.0
 11
147.017347
 21
243.00475
 31
0.0
1001
ACAD
1000
RTLwPs
1070
   128
  0
LINE
  5
AB8
100
AcDbEntity
  8
0
100
AcDbLine
 10
140.317347
 20
250.80454
 30
0.0
 11
140.317347
 21
248.004541
 31
0.0
1001
ACAD
1000
RTLwPs
1070
   128
  0
LINE
  5
AB9
100
AcDbEntity
  8
0
100
AcDbLine
 10
137.317347
 20
248.604762
 30
0.0
 11
129.317347
 21
248.604762
 31
0.0
1001
ACAD
1000
RTLwPs
1070
   128
  0
LINE
  5
ABA
100
AcDbEntity
  8
0
100
AcDbLine
 10
129.317347
 20
249.104762
 30
0.0
 11
137.317347
 21
249.104762
 31
0.0
1001
ACAD
1000
RTLwPs
1070
   128
  0
LINE
  5
ABB
100
AcDbEntity
  8
0
100
AcDbLine
 10
139.817347
 20
242.424847
 30
0.0
 11
131.817347
 21
242.424847
 31
0.0
1001
ACAD
1000
RTLwPs
1070
   128
  0
LINE
  5
ABC
100
AcDbEntity
  8
0
100
AcDbLine
 10
139.817347
 20
243.456553
 30
0.0
 11
131.817347
 21
243.456553
 31
0.0
1001
ACAD
1000
RTLwPs
1070
   128
  0
LINE
  5
ABD
100
AcDbEntity
  8
0
100
AcDbLine
 10
139.817347
 20
245.900925
 30
0.0
 11
131.817347
 21
245.900925
 31
0.0
1001
ACAD
1000
RTLwPs
1070
   128
  0
LINE
  5
ABE
100
AcDbEntity
  8
0
100
AcDbLine
 10
139.817347
 20
246.90477
 30
0.0
 11
131.817347
 21
246.90477
 31
0.0
1001
ACAD
1000
RTLwPs
1070
   128
  0
LINE
  5
ABF
100
AcDbEntity
  8
0
100
AcDbLine
 10
126.626906
 20
249.831267
 30
0.0
 11
128.807789
 21
249.831267
 31
0.0
1001
ACAD
1000
RTLwPs
1070
   128
  0
LINE
  5
AC0
100
AcDbEntity
  8
0
100
AcDbLine
 10
129.317347
 20
248.604762
 30
0.0
 11
129.317347
 21
249.104762
 31
0.0
1001
ACAD
1000
RTLwPs
1070
   128
  0
LINE
  5
AC1
100
AcDbEntity
  8
0
100
AcDbLine
 10
137.317347
 20
249.104762
 30
0.0
 11
137.317347
 21
248.604762
 31
0.0
1001
ACAD
1000
RTLwPs
1070
   128
  0
LINE
  5
AC2
100
AcDbEntity
  8
0
100
AcDbLine
 10
140.317347
 20
248.904544
 30
0.0
 11
139.817347
 21
248.404544
 31
0.0
1001
ACAD
1000
RTLwPs
1070
   128
  0
LINE
  5
AC3
100
AcDbEntity
  8
0
100
AcDbLine
 10
140.817347
 20
247.654537
 30
0.0
 11
140.817347
 21
242.404541
 31
0.0
1001
ACAD
1000
RTLwPs
1070
   128
  0
LINE
  5
AC4
100
AcDbEntity
  8
0
100
AcDbLine
 10
140.817347
 20
247.804541
 30
0.0
 11
140.817347
 21
247.654526
 31
0.0
1001
ACAD
1000
RTLwPs
1070
   128
  0
LINE
  5
AC5
100
AcDbEntity
  8
0
100
AcDbLine
 10
141.317347
 20
242.404541
 30
0.0
 11
141.317347
 21
242.404772
 31
0.0
1001
ACAD
1000
RTLwPs
1070
   128
  0
LINE
  5
AC6
100
AcDbEntity
  8
0
100
AcDbLine
 10
141.317347
 20
247.654537
 30
0.0
 11
140.817347
 21
247.654537
 31
0.0
1001
ACAD
1000
RTLwPs
1070
   128
  0
LINE
  5
AC7
100
AcDbEntity
  8
0
100
AcDbLine
 10
141.317347
 20
242.404541
 30
0.0
 11
140.817347
 21
242.404541
 31
0.0
1001
ACAD
1000
RTLwPs
1070
   128
  0
LINE
  5
AC8
100
AcDbEntity
  8
0
100
AcDbLine
 10
141.317347
 20
242.804794
 30
0.0
 11
141.317347
 21
242.404772
 31
0.0
1001
ACAD
1000
RTLwPs
1070
   128
  0
LINE
  5
AC9
100
AcDbEntity
  8
0
100
AcDbLine
 10
147.017347
 20
242.804794
 30
0.0
 11
141.317347
 21
242.804794
 31
0.0
1001
ACAD
1000
RTLwPs
1070
   128
  0
LINE
  5
ACA
100
AcDbEntity
  8
0
100
AcDbLine
 10
147.017347
 20
243.00475
 30
0.0
 11
147.017347
 21
242.804794
 31
0.0
1001
ACAD
1000
RTLwPs
1070
   128
  0
LINE
  5
ACB
100
AcDbEntity
  8
0
100
AcDbLine
 10
139.817347
 20
242.404541
 30
0.0
 11
139.817347
 21
248.404544
 31
0.0
1001
ACAD
1000
RTLwPs
1070
   128
  0
LINE
  5
ACC
100
AcDbEntity
  8
0
100
AcDbLine
 10
140.817347
 20
242.404541
 30
0.0
 11
139.817347
 21
242.404541
 31
0.0
1001
ACAD
1000
RTLwPs
1070
   128
  0
LINE
  5
ACD
100
AcDbEntity
  8
0
100
AcDbLine
 10
140.517347
 20
247.804541
 30
0.0
 11
141.317347
 21
247.804541
 31
0.0
1001
ACAD
1000
RTLwPs
1070
   128
  0
ARC
  5
ACE
100
AcDbEntity
  8
0
100
AcDbCircle
 10
140.517347
 20
248.004541
 30
0.0
 40
0.2
100
AcDbArc
 50
180.0
 51
270.0
1001
ACAD
1000
RTLwPs
1070
   128
  0
LINE
  5
ACF
100
AcDbEntity
  8
0
100
AcDbLine
 10
129.317347
 20
263.604762
 30
0.0
 11
137.317347
 21
263.604762
 31
0.0
1001
ACAD
1000
RTLwPs
1070
   128
  0
LINE
  5
AD0
100
AcDbEntity
  8
0
100
AcDbLine
 10
137.317347
 20
263.104762
 30
0.0
 11
129.317347
 21
263.104762
 31
0.0
1001
ACAD
1000
RTLwPs
1070
   128
  0
ARC
  5
ADF
100
AcDbEntity
  8
0
100
AcDbCircle
 10
130.247193
 20
259.934896
 30
0.0
 40
3.897411
100
AcDbArc
 50
158.263279
 51
190.819613
1001
ACAD
1000
RTLwPs
1070
   128
  0
LINE
  5
AE0
100
AcDbEntity
  8
0
100
AcDbLine
 10
129.317347
 20
259.978272
 30
0.0
 11
128.807789
 21
261.378272
 31
0.0
1001
ACAD
1000
RTLwPs
1070
   128
  0
LINE
  5
AE1
100
AcDbEntity
  8
0
100
AcDbLine
 10
126.117347
 20
251.604769
 30
0.0
 11
126.117347
 21
251.231267
 31
0.0
1001
ACAD
1000
RTLwPs
1070
   128
  0
LINE
  5
AE2
100
AcDbEntity
  8
0
100
AcDbLine
 10
126.117347
 20
259.978272
 30
0.0
 11
126.117347
 21
259.204769
 31
0.0
1001
ACAD
1000
RTLwPs
1070
   128
  0
ARC
  5
AE3
100
AcDbEntity
  8
0
100
AcDbCircle
 10
124.723121
 20
259.846114
 30
0.0
 40
4.36257
100
AcDbArc
 50
339.79941
 51
20.561054
1001
ACAD
1000
RTLwPs
1070
   128
  0
LINE
  5
AE4
100
AcDbEntity
  8
0
100
AcDbLine
 10
126.626906
 20
261.378272
 30
0.0
 11
126.117347
 21
259.978272
 31
0.0
1001
ACAD
1000
RTLwPs
1070
   128
  0
LINE
  5
AE5
100
AcDbEntity
  8
0
100
AcDbLine
 10
126.626906
 20
261.378272
 30
0.0
 11
128.807789
 21
261.378272
 31
0.0
1001
ACAD
1000
RTLwPs
1070
   128
  0
LINE
  5
AE6
100
AcDbEntity
  8
0
100
AcDbLine
 10
129.317347
 20
263.104762
 30
0.0
 11
129.317347
 21
263.604762
 31
0.0
1001
ACAD
1000
RTLwPs
1070
   128
  0
LINE
  5
AE7
100
AcDbEntity
  8
0
100
AcDbLine
 10
147.017347
 20
251.204477
 30
0.0
 11
141.317347
 21
251.204477
 31
0.0
1001
ACAD
1000
RTLwPs
1070
   128
  0
LINE
  5
AE8
100
AcDbEntity
  8
0
100
AcDbLine
 10
147.017347
 20
251.704537
 30
0.0
 11
141.317347
 21
251.704537
 31
0.0
1001
ACAD
1000
RTLwPs
1070
   128
  0
LINE
  5
AE9
100
AcDbEntity
  8
0
100
AcDbLine
 10
140.817347
 20
251.704537
 30
0.0
 11
140.817347
 21
251.00454
 31
0.0
1001
ACAD
1000
RTLwPs
1070
   128
  0
LINE
  5
AEA
100
AcDbEntity
  8
0
100
AcDbLine
 10
141.317347
 20
251.704537
 30
0.0
 11
140.817347
 21
251.704537
 31
0.0
1001
ACAD
1000
RTLwPs
1070
   128
  0
LINE
  5
AEB
100
AcDbEntity
  8
0
100
AcDbLine
 10
141.317347
 20
251.00454
 30
0.0
 11
140.517347
 21
251.00454
 31
0.0
1001
ACAD
1000
RTLwPs
1070
   128
  0
LINE
  5
AEC
100
AcDbEntity
  8
0
100
AcDbLine
 10
141.317347
 20
251.704537
 30
0.0
 11
141.317347
 21
251.204477
 31
0.0
1001
ACAD
1000
RTLwPs
1070
   128
  0
ARC
  5
AED
100
AcDbEntity
  8
0
100
AcDbCircle
 10
140.517347
 20
250.80454
 30
0.0
 40
0.2
100
AcDbArc
 50
90.0
 51
180.0
1001
ACAD
1000
RTLwPs
1070
   128
  0
LINE
  5
AEE
100
AcDbEntity
  8
0
100
AcDbLine
 10
147.017347
 20
252.404762
 30
0.0
 11
147.017347
 21
251.904762
 31
0.0
1001
ACAD
1000
RTLwPs
1070
   128
  0
LINE
  5
AEF
100
AcDbEntity
  8
0
100
AcDbLine
 10
137.317347
 20
263.604762
 30
0.0
 11
137.317347
 21
263.904762
 31
0.0
1001
ACAD
1000
RTLwPs
1070
   128
  0
LINE
  5
AF0
100
AcDbEntity
  8
0
100
AcDbLine
 10
137.317347
 20
263.604762
 30
0.0
 11
137.317347
 21
252.404762
 31
0.0
1001
ACAD
1000
RTLwPs
1070
   128
  0
LINE
  5
AF1
100
AcDbEntity
  8
0
100
AcDbLine
 10
173.317347
 20
242.804794
 30
0.0
 11
173.317347
 21
251.204477
 31
0.0
1001
ACAD
1000
RTLwPs
1070
   128
  0
LINE
  5
AF2
100
AcDbEntity
  8
0
100
AcDbLine
 10
167.617347
 20
251.904762
 30
0.0
 11
167.617347
 21
243.00475
 31
0.0
1001
ACAD
1000
RTLwPs
1070
   128
  0
LINE
  5
AF3
100
AcDbEntity
  8
0
100
AcDbLine
 10
174.317347
 20
248.004541
 30
0.0
 11
174.317347
 21
250.80454
 31
0.0
1001
ACAD
1000
RTLwPs
1070
   128
  0
LINE
  5
AF4
100
AcDbEntity
  8
0
100
AcDbLine
 10
177.317347
 20
252.204762
 30
0.0
 11
177.317347
 21
246.90477
 31
0.0
1001
ACAD
1000
RTLwPs
1070
   128
  0
ARC
  5
AF5
100
AcDbEntity
  8
0
100
AcDbCircle
 10
177.317347
 20
250.704769
 30
0.0
 40
2.6
100
AcDbArc
 50
139.168004
 51
270.0
1001
ACAD
1000
RTLwPs
1070
   128
  0
ARC
  5
AF6
100
AcDbEntity
  8
0
100
AcDbCircle
 10
174.117347
 20
248.004541
 30
0.0
 40
0.2
100
AcDbArc
 50
270.0
 51
0.0
1001
ACAD
1000
RTLwPs
1070
   128
  0
LINE
  5
AF7
100
AcDbEntity
  8
0
100
AcDbLine
 10
173.317347
 20
242.404772
 30
0.0
 11
173.317347
 21
242.804794
 31
0.0
1001
ACAD
1000
RTLwPs
1070
   128
  0
LINE
  5
AF8
100
AcDbEntity
  8
0
100
AcDbLine
 10
173.317347
 20
247.654537
 30
0.0
 11
173.817347
 21
247.654537
 31
0.0
1001
ACAD
1000
RTLwPs
1070
   128
  0
LINE
  5
AF9
100
AcDbEntity
  8
0
100
AcDbLine
 10
173.317347
 20
242.404772
 30
0.0
 11
173.317347
 21
242.404541
 31
0.0
1001
ACAD
1000
RTLwPs
1070
   128
  0
LINE
  5
AFA
100
AcDbEntity
  8
0
100
AcDbLine
 10
173.317347
 20
242.404541
 30
0.0
 11
173.817347
 21
242.404541
 31
0.0
1001
ACAD
1000
RTLwPs
1070
   128
  0
LINE
  5
AFB
100
AcDbEntity
  8
0
100
AcDbLine
 10
174.317347
 20
248.904544
 30
0.0
 11
174.817347
 21
248.404544
 31
0.0
1001
ACAD
1000
RTLwPs
1070
   128
  0
LINE
  5
AFC
100
AcDbEntity
  8
0
100
AcDbLine
 10
167.617347
 20
242.804794
 30
0.0
 11
173.317347
 21
242.804794
 31
0.0
1001
ACAD
1000
RTLwPs
1070
   128
  0
LINE
  5
AFD
100
AcDbEntity
  8
0
100
AcDbLine
 10
167.617347
 20
243.00475
 30
0.0
 11
167.617347
 21
242.804794
 31
0.0
1001
ACAD
1000
RTLwPs
1070
   128
  0
LINE
  5
AFE
100
AcDbEntity
  8
0
100
AcDbLine
 10
174.817347
 20
242.404541
 30
0.0
 11
173.817347
 21
242.404541
 31
0.0
1001
ACAD
1000
RTLwPs
1070
   128
  0
LINE
  5
AFF
100
AcDbEntity
  8
0
100
AcDbLine
 10
174.817347
 20
248.404544
 30
0.0
 11
174.817347
 21
242.404541
 31
0.0
1001
ACAD
1000
RTLwPs
1070
   128
  0
LINE
  5
B00
100
AcDbEntity
  8
0
100
AcDbLine
 10
173.817347
 20
247.654526
 30
0.0
 11
173.817347
 21
247.804541
 31
0.0
1001
ACAD
1000
RTLwPs
1070
   128
  0
LINE
  5
B01
100
AcDbEntity
  8
0
100
AcDbLine
 10
173.817347
 20
242.404541
 30
0.0
 11
173.817347
 21
247.654537
 31
0.0
1001
ACAD
1000
RTLwPs
1070
   128
  0
LINE
  5
B02
100
AcDbEntity
  8
0
100
AcDbLine
 10
173.317347
 20
247.804541
 30
0.0
 11
174.117347
 21
247.804541
 31
0.0
1001
ACAD
1000
RTLwPs
1070
   128
  0
LINE
  5
B03
100
AcDbEntity
  8
0
100
AcDbLine
 10
173.317347
 20
251.704537
 30
0.0
 11
173.817347
 21
251.704537
 31
0.0
1001
ACAD
1000
RTLwPs
1070
   128
  0
LINE
  5
B04
100
AcDbEntity
  8
0
100
AcDbLine
 10
167.617347
 20
251.204477
 30
0.0
 11
173.317347
 21
251.204477
 31
0.0
1001
ACAD
1000
RTLwPs
1070
   128
  0
LINE
  5
B05
100
AcDbEntity
  8
0
100
AcDbLine
 10
167.617347
 20
251.704537
 30
0.0
 11
173.317347
 21
251.704537
 31
0.0
1001
ACAD
1000
RTLwPs
1070
   128
  0
LINE
  5
B06
100
AcDbEntity
  8
0
100
AcDbLine
 10
173.317347
 20
251.204477
 30
0.0
 11
173.317347
 21
251.704537
 31
0.0
1001
ACAD
1000
RTLwPs
1070
   128
  0
LINE
  5
B07
100
AcDbEntity
  8
0
100
AcDbLine
 10
167.617347
 20
252.404762
 30
0.0
 11
167.617347
 21
251.904762
 31
0.0
1001
ACAD
1000
RTLwPs
1070
   128
  0
LINE
  5
B08
100
AcDbEntity
  8
0
100
AcDbLine
 10
173.817347
 20
251.00454
 30
0.0
 11
173.817347
 21
251.704537
 31
0.0
1001
ACAD
1000
RTLwPs
1070
   128
  0
LINE
  5
B09
100
AcDbEntity
  8
0
100
AcDbLine
 10
174.117347
 20
251.00454
 30
0.0
 11
173.317347
 21
251.00454
 31
0.0
1001
ACAD
1000
RTLwPs
1070
   128
  0
ARC
  5
B0A
100
AcDbEntity
  8
0
100
AcDbCircle
 10
174.117347
 20
250.80454
 30
0.0
 40
0.2
100
AcDbArc
 50
0.0
 51
90.0
1001
ACAD
1000
RTLwPs
1070
   128
  0
ARC
  5
B0B
100
AcDbEntity
  8
0
100
AcDbCircle
 10
177.117347
 20
252.204762
 30
0.0
 40
0.2
100
AcDbArc
 50
0.0
 51
90.0
1001
ACAD
1000
RTLwPs
1070
   128
  0
LINE
  5
B12
100
AcDbEntity
  8
0
100
AcDbLine
 10
411.317347
 20
109.712011
 30
0.0
 11
411.317347
 21
113.712011
 31
0.0
1001
ACAD
1000
RTLwPs
1070
   128
  0
LINE
  5
B13
100
AcDbEntity
  8
0
100
AcDbLine
 10
419.817347
 20
109.712011
 30
0.0
 11
419.817347
 21
113.712011
 31
0.0
1001
ACAD
1000
RTLwPs
1070
   128
  0
LINE
  5
B14
100
AcDbEntity
  8
0
100
AcDbLine
 10
402.817347
 20
107.712011
 30
0.0
 11
402.817347
 21
115.712011
 31
0.0
1001
ACAD
1000
RTLwPs
1070
   128
  0
LINE
  5
B15
100
AcDbEntity
  8
0
100
AcDbLine
 10
394.817347
 20
107.712011
 30
0.0
 11
394.817347
 21
115.712011
 31
0.0
1001
ACAD
1000
RTLwPs
1070
   128
  0
ARC
  5
B16
100
AcDbEntity
  8
0
100
AcDbCircle
 10
394.390057
 20
111.839992
 30
0.0
 40
30.072982
100
AcDbArc
 50
180.243833
 51
187.969377
1001
ACAD
1000
RTLwPs
1070
   128
  0
LINE
  5
B18
100
AcDbEntity
  8
0
100
AcDbLine
 10
255.317347
 20
74.712011
 30
0.0
 11
255.317347
 21
148.712011
 31
0.0
1001
ACAD
1000
RTLwPs
1070
   128
  0
LINE
  5
B19
100
AcDbEntity
  8
0
100
AcDbLine
 10
247.317347
 20
103.712011
 30
0.0
 11
247.317347
 21
119.712011
 31
0.0
1001
ACAD
1000
RTLwPs
1070
   128
  0
LINE
  5
B1A
100
AcDbEntity
  8
0
100
AcDbLine
 10
369.817347
 20
141.212011
 30
0.0
 11
369.817347
 21
82.212011
 31
0.0
1001
ACAD
1000
RTLwPs
1070
   128
  0
LINE
  5
B1B
100
AcDbEntity
  8
0
100
AcDbLine
 10
379.817347
 20
82.212011
 30
0.0
 11
379.817347
 21
141.212011
 31
0.0
1001
ACAD
1000
RTLwPs
1070
   128
  0
LINE
  5
B1C
100
AcDbEntity
  8
0
100
AcDbLine
 10
247.317347
 20
119.712011
 30
0.0
 11
247.317347
 21
103.712011
 31
0.0
1001
ACAD
1000
RTLwPs
1070
   128
  0
LINE
  5
B21
100
AcDbEntity
  8
5
100
AcDbLine
 10
379.917347
 20
108.477011
 30
0.0
 11
394.817347
 21
108.477011
 31
0.0
1001
ACAD
1000
RTLwPs
1070
   128
  0
LINE
  5
B22
100
AcDbEntity
  8
0
100
AcDbLine
 10
379.817347
 20
107.712011
 30
0.0
 11
394.817347
 21
107.712011
 31
0.0
1001
ACAD
1000
RTLwPs
1070
   128
  0
ARC
  5
B27
100
AcDbEntity
  8
5
100
AcDbCircle
 10
232.317347
 20
86.712011
 30
0.0
 40
2.5
100
AcDbArc
 50
255.0
 51
195.0
1001
ACAD
1000
RTLwPs
1070
   128
  0
CIRCLE
  5
B2A
100
AcDbEntity
  8
0
100
AcDbCircle
 10
232.317347
 20
86.712011
 30
0.0
 40
2.1
1001
ACAD
1000
RTLwPs
1070
   128
  0
CIRCLE
  5
B2B
100
AcDbEntity
  8
0
100
AcDbCircle
 10
212.317347
 20
86.712011
 30
0.0
 40
5.0
1001
ACAD
1000
RTLwPs
1070
   128
  0
ARC
  5
B35
100
AcDbEntity
  8
5
100
AcDbCircle
 10
192.317347
 20
86.712011
 30
0.0
 40
2.5
100
AcDbArc
 50
255.0
 51
195.0
1001
ACAD
1000
RTLwPs
1070
   128
  0
CIRCLE
  5
B36
100
AcDbEntity
  8
0
100
AcDbCircle
 10
192.317347
 20
86.712011
 30
0.0
 40
2.1
1001
ACAD
1000
RTLwPs
1070
   128
  0
ARC
  5
B43
100
AcDbEntity
  8
5
100
AcDbCircle
 10
212.317347
 20
86.712011
 30
0.0
 40
2.5
100
AcDbArc
 50
255.0
 51
195.0
1001
ACAD
1000
RTLwPs
1070
   128
  0
CIRCLE
  5
B44
100
AcDbEntity
  8
0
100
AcDbCircle
 10
212.317347
 20
86.712011
 30
0.0
 40
2.1
1001
ACAD
1000
RTLwPs
1070
   128
  0
LINE
  5
B49
100
AcDbEntity
  8
0
100
AcDbLine
 10
247.317347
 20
103.712011
 30
0.0
 11
247.317347
 21
74.512011
 31
0.0
1001
ACAD
1000
RTLwPs
1070
   128
  0
LINE
  5
B4A
100
AcDbEntity
  8
0
100
AcDbLine
 10
255.317347
 20
79.212011
 30
0.0
 11
371.817347
 21
79.212011
 31
0.0
1001
ACAD
1000
RTLwPs
1070
   128
  0
LINE
  5
B51
100
AcDbEntity
  8
0
100
AcDbLine
 10
255.317347
 20
74.712011
 30
0.0
 11
255.317347
 21
74.212011
 31
0.0
1001
ACAD
1000
RTLwPs
1070
   128
  0
LINE
  5
B52
100
AcDbEntity
  8
0
100
AcDbLine
 10
247.317347
 20
74.712011
 30
0.0
 11
255.317347
 21
74.712011
 31
0.0
1001
ACAD
1000
RTLwPs
1070
   128
  0
LINE
  5
B53
100
AcDbEntity
  8
0
100
AcDbLine
 10
255.317347
 20
74.212011
 30
0.0
 11
247.317347
 21
74.212011
 31
0.0
1001
ACAD
1000
RTLwPs
1070
   128
  0
LINE
  5
B54
100
AcDbEntity
  8
0
100
AcDbLine
 10
247.317347
 20
74.512011
 30
0.0
 11
247.317347
 21
74.212011
 31
0.0
1001
ACAD
1000
RTLwPs
1070
   128
  0
LINE
  5
B55
100
AcDbEntity
  8
0
100
AcDbLine
 10
379.817347
 20
82.212011
 30
0.0
 11
369.817347
 21
82.212011
 31
0.0
1001
ACAD
1000
RTLwPs
1070
   128
  0
LINE
  5
B56
100
AcDbEntity
  8
0
100
AcDbLine
 10
369.817347
 20
79.212011
 30
0.0
 11
379.817347
 21
79.212011
 31
0.0
1001
ACAD
1000
RTLwPs
1070
   128
  0
LINE
  5
B57
100
AcDbEntity
  8
0
100
AcDbLine
 10
369.817347
 20
82.212011
 30
0.0
 11
369.817347
 21
79.212011
 31
0.0
1001
ACAD
1000
RTLwPs
1070
   128
  0
LINE
  5
B58
100
AcDbEntity
  8
0
100
AcDbLine
 10
379.817347
 20
79.212011
 30
0.0
 11
379.817347
 21
82.212011
 31
0.0
1001
ACAD
1000
RTLwPs
1070
   128
  0
ARC
  5
B6F
100
AcDbEntity
  8
0
100
AcDbCircle
 10
260.067347
 20
252.154769
 30
0.0
 40
0.25
100
AcDbArc
 50
0.0
 51
90.0
1001
ACAD
1000
RTLwPs
1070
   128
  0
LINE
  5
B71
100
AcDbEntity
  8
0
100
AcDbLine
 10
258.517347
 20
252.404769
 30
0.0
 11
260.067347
 21
252.404769
 31
0.0
1001
ACAD
1000
RTLwPs
1070
   128
  0
LINE
  5
B93
100
AcDbEntity
  8
0
100
AcDbLine
 10
364.317347
 20
104.712011
 30
0.0
 11
364.607511
 21
103.629107
 31
0.0
1001
ACAD
1000
RTLwPs
1070
   128
  0
ARC
  5
B94
100
AcDbEntity
  8
0
100
AcDbCircle
 10
372.037101
 20
105.572522
 30
0.0
 40
7.72014
100
AcDbArc
 50
164.230887
 51
179.42622
1001
ACAD
1000
RTLwPs
1070
   128
  0
LINE
  5
B95
100
AcDbEntity
  8
0
100
AcDbLine
 10
369.817347
 20
103.629107
 30
0.0
 11
364.607511
 21
103.629107
 31
0.0
1001
ACAD
1000
RTLwPs
1070
   128
  0
LINE
  5
B96
100
AcDbEntity
  8
0
100
AcDbLine
 10
364.317347
 20
105.649833
 30
0.0
 11
364.317347
 21
104.712011
 31
0.0
1001
ACAD
1000
RTLwPs
1070
   128
  0
LINE
  5
B97
100
AcDbEntity
  8
0
100
AcDbLine
 10
369.817347
 20
107.670559
 30
0.0
 11
364.607511
 21
107.670559
 31
0.0
1001
ACAD
1000
RTLwPs
1070
   128
  0
ARC
  5
B98
100
AcDbEntity
  8
0
100
AcDbCircle
 10
372.033892
 20
105.726683
 30
0.0
 40
7.716927
100
AcDbArc
 50
180.570598
 51
195.772295
1001
ACAD
1000
RTLwPs
1070
   128
  0
LINE
  5
BA1
100
AcDbEntity
  8
0
100
AcDbLine
 10
419.817347
 20
107.712011
 30
0.0
 11
411.317347
 21
107.712011
 31
0.0
1001
ACAD
1000
RTLwPs
1070
   128
  0
LINE
  5
BA3
100
AcDbEntity
  8
0
100
AcDbLine
 10
394.817347
 20
108.212011
 30
0.0
 11
402.817347
 21
108.212011
 31
0.0
1001
ACAD
1000
RTLwPs
1070
   128
  0
LINE
  5
BA4
100
AcDbEntity
  8
0
100
AcDbLine
 10
411.317347
 20
107.712011
 30
0.0
 11
411.317347
 21
109.712011
 31
0.0
1001
ACAD
1000
RTLwPs
1070
   128
  0
LINE
  5
BA5
100
AcDbEntity
  8
0
100
AcDbLine
 10
402.817347
 20
107.712011
 30
0.0
 11
411.317347
 21
107.712011
 31
0.0
1001
ACAD
1000
RTLwPs
1070
   128
  0
LINE
  5
BAC
100
AcDbEntity
  8
0
100
AcDbLine
 10
419.817347
 20
109.712011
 30
0.0
 11
419.817347
 21
107.712011
 31
0.0
1001
ACAD
1000
RTLwPs
1070
   128
  0
LINE
  5
BB1
100
AcDbEntity
  8
5
100
AcDbLine
 10
379.817347
 20
114.947011
 30
0.0
 11
394.817347
 21
114.947011
 31
0.0
1001
ACAD
1000
RTLwPs
1070
   128
  0
LINE
  5
BB2
100
AcDbEntity
  8
0
100
AcDbLine
 10
394.817347
 20
115.712011
 30
0.0
 11
379.817347
 21
115.712011
 31
0.0
1001
ACAD
1000
RTLwPs
1070
   128
  0
ARC
  5
BB7
100
AcDbEntity
  8
5
100
AcDbCircle
 10
232.317347
 20
136.712011
 30
0.0
 40
2.5
100
AcDbArc
 50
255.0
 51
195.0
1001
ACAD
1000
RTLwPs
1070
   128
  0
CIRCLE
  5
BBA
100
AcDbEntity
  8
0
100
AcDbCircle
 10
232.317347
 20
136.712011
 30
0.0
 40
2.1
1001
ACAD
1000
RTLwPs
1070
   128
  0
ARC
  5
BBC
100
AcDbEntity
  8
5
100
AcDbCircle
 10
192.317347
 20
136.712011
 30
0.0
 40
2.5
100
AcDbArc
 50
255.0
 51
195.0
1001
ACAD
1000
RTLwPs
1070
   128
  0
ARC
  5
BBD
100
AcDbEntity
  8
5
100
AcDbCircle
 10
212.317347
 20
136.712011
 30
0.0
 40
2.5
100
AcDbArc
 50
255.0
 51
195.0
1001
ACAD
1000
RTLwPs
1070
   128
  0
CIRCLE
  5
BBE
100
AcDbEntity
  8
0
100
AcDbCircle
 10
212.317347
 20
136.712011
 30
0.0
 40
2.1
1001
ACAD
1000
RTLwPs
1070
   128
  0
CIRCLE
  5
BBF
100
AcDbEntity
  8
0
100
AcDbCircle
 10
192.317347
 20
136.712011
 30
0.0
 40
2.1
1001
ACAD
1000
RTLwPs
1070
   128
  0
LINE
  5
BDC
100
AcDbEntity
  8
0
100
AcDbLine
 10
247.317347
 20
148.912011
 30
0.0
 11
247.317347
 21
119.712011
 31
0.0
1001
ACAD
1000
RTLwPs
1070
   128
  0
ARC
  5
BE5
100
AcDbEntity
  8
0
100
AcDbCircle
 10
260.067347
 20
258.654769
 30
0.0
 40
0.25
100
AcDbArc
 50
270.0
 51
0.0
1001
ACAD
1000
RTLwPs
1070
   128
  0
LINE
  5
BE6
100
AcDbEntity
  8
0
100
AcDbLine
 10
260.067347
 20
258.404769
 30
0.0
 11
258.517347
 21
258.404769
 31
0.0
1001
ACAD
1000
RTLwPs
1070
   128
  0
LINE
  5
C07
100
AcDbEntity
  8
0
100
AcDbLine
 10
364.607511
 20
119.794915
 30
0.0
 11
364.317347
 21
118.712011
 31
0.0
1001
ACAD
1000
RTLwPs
1070
   128
  0
ARC
  5
C08
100
AcDbEntity
  8
0
100
AcDbCircle
 10
394.394847
 20
111.583686
 30
0.0
 40
30.077773
100
AcDbArc
 50
172.031239
 51
179.75555
1001
ACAD
1000
RTLwPs
1070
   128
  0
LINE
  5
C09
100
AcDbEntity
  8
0
100
AcDbLine
 10
369.817347
 20
115.753463
 30
0.0
 11
364.607511
 21
115.753463
 31
0.0
1001
ACAD
1000
RTLwPs
1070
   128
  0
LINE
  5
C0A
100
AcDbEntity
  8
0
100
AcDbLine
 10
369.817347
 20
119.794915
 30
0.0
 11
364.607511
 21
119.794915
 31
0.0
1001
ACAD
1000
RTLwPs
1070
   128
  0
ARC
  5
C0B
100
AcDbEntity
  8
0
100
AcDbCircle
 10
372.033892
 20
117.851039
 30
0.0
 40
7.716927
100
AcDbArc
 50
180.570598
 51
195.772295
1001
ACAD
1000
RTLwPs
1070
   128
  0
LINE
  5
C0C
100
AcDbEntity
  8
0
100
AcDbLine
 10
364.317347
 20
117.774189
 30
0.0
 11
364.317347
 21
118.712011
 31
0.0
1001
ACAD
1000
RTLwPs
1070
   128
  0
ARC
  5
C0D
100
AcDbEntity
  8
0
100
AcDbCircle
 10
372.037101
 20
117.696878
 30
0.0
 40
7.72014
100
AcDbArc
 50
164.230887
 51
179.42622
1001
ACAD
1000
RTLwPs
1070
   128
  0
LINE
  5
C23
100
AcDbEntity
  8
0
100
AcDbLine
 10
371.817347
 20
144.212011
 30
0.0
 11
255.317347
 21
144.212011
 31
0.0
1001
ACAD
1000
RTLwPs
1070
   128
  0
LINE
  5
C2A
100
AcDbEntity
  8
0
100
AcDbLine
 10
255.317347
 20
148.712011
 30
0.0
 11
247.317347
 21
148.712011
 31
0.0
1001
ACAD
1000
RTLwPs
1070
   128
  0
LINE
  5
C2B
100
AcDbEntity
  8
0
100
AcDbLine
 10
247.317347
 20
149.212011
 30
0.0
 11
255.317347
 21
149.212011
 31
0.0
1001
ACAD
1000
RTLwPs
1070
   128
  0
LINE
  5
C2C
100
AcDbEntity
  8
0
100
AcDbLine
 10
255.317347
 20
149.212011
 30
0.0
 11
255.317347
 21
148.712011
 31
0.0
1001
ACAD
1000
RTLwPs
1070
   128
  0
LINE
  5
C2D
100
AcDbEntity
  8
0
100
AcDbLine
 10
247.317347
 20
149.212011
 30
0.0
 11
247.317347
 21
148.912011
 31
0.0
1001
ACAD
1000
RTLwPs
1070
   128
  0
LINE
  5
C2E
100
AcDbEntity
  8
0
100
AcDbLine
 10
369.817347
 20
141.212011
 30
0.0
 11
379.817347
 21
141.212011
 31
0.0
1001
ACAD
1000
RTLwPs
1070
   128
  0
LINE
  5
C2F
100
AcDbEntity
  8
0
100
AcDbLine
 10
379.817347
 20
144.212011
 30
0.0
 11
369.817347
 21
144.212011
 31
0.0
1001
ACAD
1000
RTLwPs
1070
   128
  0
LINE
  5
C30
100
AcDbEntity
  8
0
100
AcDbLine
 10
369.817347
 20
144.212011
 30
0.0
 11
369.817347
 21
141.212011
 31
0.0
1001
ACAD
1000
RTLwPs
1070
   128
  0
LINE
  5
C34
100
AcDbEntity
  8
0
100
AcDbLine
 10
379.817347
 20
141.212011
 30
0.0
 11
379.817347
 21
144.212011
 31
0.0
1001
ACAD
1000
RTLwPs
1070
   128
  0
LINE
  5
C37
100
AcDbEntity
  8
0
100
AcDbLine
 10
411.317347
 20
115.712011
 30
0.0
 11
419.817347
 21
115.712011
 31
0.0
1001
ACAD
1000
RTLwPs
1070
   128
  0
LINE
  5
C38
100
AcDbEntity
  8
0
100
AcDbLine
 10
402.817347
 20
115.212011
 30
0.0
 11
394.817347
 21
115.212011
 31
0.0
1001
ACAD
1000
RTLwPs
1070
   128
  0
LINE
  5
C39
100
AcDbEntity
  8
0
100
AcDbLine
 10
411.317347
 20
113.712011
 30
0.0
 11
411.317347
 21
115.712011
 31
0.0
1001
ACAD
1000
RTLwPs
1070
   128
  0
LINE
  5
C3A
100
AcDbEntity
  8
0
100
AcDbLine
 10
411.317347
 20
115.712011
 30
0.0
 11
402.817347
 21
115.712011
 31
0.0
1001
ACAD
1000
RTLwPs
1070
   128
  0
LINE
  5
C3C
100
AcDbEntity
  8
0
100
AcDbLine
 10
419.817347
 20
115.712011
 30
0.0
 11
419.817347
 21
113.712011
 31
0.0
1001
ACAD
1000
RTLwPs
1070
   128
  0
LINE
  5
C47
100
AcDbEntity
  8
0
100
AcDbLine
 10
352.817347
 20
193.904769
 30
0.0
 11
352.817347
 21
246.904769
 31
0.0
1001
ACAD
1000
RTLwPs
1070
   128
  0
LINE
  5
C48
100
AcDbEntity
  8
0
100
AcDbLine
 10
379.817347
 20
194.404769
 30
0.0
 11
379.817347
 21
260.404769
 31
0.0
1001
ACAD
1000
RTLwPs
1070
   128
  0
LINE
  5
C4A
100
AcDbEntity
  8
0
100
AcDbLine
 10
352.817347
 20
194.404769
 30
0.0
 11
379.817347
 21
194.404769
 31
0.0
1001
ACAD
1000
RTLwPs
1070
   128
  0
LINE
  5
C4D
100
AcDbEntity
  8
0
100
AcDbLine
 10
237.617347
 20
251.904762
 30
0.0
 11
217.017347
 21
251.904762
 31
0.0
1001
ACAD
1000
RTLwPs
1070
   128
  0
LINE
  5
C4E
100
AcDbEntity
  8
0
100
AcDbLine
 10
237.617347
 20
243.00475
 30
0.0
 11
217.017347
 21
243.00475
 31
0.0
1001
ACAD
1000
RTLwPs
1070
   128
  0
LINE
  5
C4F
100
AcDbEntity
  8
0
100
AcDbLine
 10
243.317347
 20
242.404541
 30
0.0
 11
211.317347
 21
242.404541
 31
0.0
1001
ACAD
1000
RTLwPs
1070
   128
  0
ARC
  5
C50
100
AcDbEntity
  8
0
100
AcDbCircle
 10
192.317347
 20
250.894769
 30
0.0
 40
3.95
100
AcDbArc
 50
157.525231
 51
238.903333
1001
ACAD
1000
RTLwPs
1070
   128
  0
ARC
  5
C51
100
AcDbEntity
  8
0
100
AcDbCircle
 10
192.317347
 20
250.894769
 30
0.0
 40
3.95
100
AcDbArc
 50
301.096667
 51
22.474769
1001
ACAD
1000
RTLwPs
1070
   128
  0
ARC
  5
C52
100
AcDbEntity
  8
0
100
AcDbCircle
 10
192.317347
 20
250.694769
 30
0.0
 40
3.0
100
AcDbArc
 50
145.249951
 51
0.0
1001
ACAD
1000
RTLwPs
1070
   128
  0
ARC
  5
C53
100
AcDbEntity
  8
0
100
AcDbCircle
 10
192.317347
 20
250.694769
 30
0.0
 40
3.0
100
AcDbArc
 50
0.0
 51
34.750049
1001
ACAD
1000
RTLwPs
1070
   128
  0
ARC
  5
C54
100
AcDbEntity
  8
0
100
AcDbCircle
 10
192.317347
 20
250.694769
 30
0.0
 40
2.5
100
AcDbArc
 50
136.843225
 51
0.0
1001
ACAD
1000
RTLwPs
1070
   128
  0
ARC
  5
C55
100
AcDbEntity
  8
0
100
AcDbCircle
 10
192.317347
 20
250.694769
 30
0.0
 40
2.5
100
AcDbArc
 50
0.0
 51
43.156775
1001
ACAD
1000
RTLwPs
1070
   128
  0
LINE
  5
C56
100
AcDbEntity
  8
0
100
AcDbLine
 10
187.317347
 20
246.90477
 30
0.0
 11
187.317347
 21
252.204762
 31
0.0
1001
ACAD
1000
RTLwPs
1070
   128
  0
LINE
  5
C57
100
AcDbEntity
  8
0
100
AcDbLine
 10
197.317347
 20
252.204762
 30
0.0
 11
197.317347
 21
246.90477
 31
0.0
1001
ACAD
1000
RTLwPs
1070
   128
  0
LINE
  5
C58
100
AcDbEntity
  8
0
100
AcDbLine
 10
190.567347
 20
246.998617
 30
0.0
 11
190.567347
 21
246.904769
 31
0.0
1001
ACAD
1000
RTLwPs
1070
   128
  0
ARC
  5
C59
100
AcDbEntity
  8
0
100
AcDbCircle
 10
189.967347
 20
246.998617
 30
0.0
 40
0.6
100
AcDbArc
 50
0.0
 51
58.903333
1001
ACAD
1000
RTLwPs
1070
   128
  0
ARC
  5
C5A
100
AcDbEntity
  8
0
100
AcDbCircle
 10
194.667347
 20
246.998617
 30
0.0
 40
0.6
100
AcDbArc
 50
121.096667
 51
180.0
1001
ACAD
1000
RTLwPs
1070
   128
  0
LINE
  5
C5B
100
AcDbEntity
  8
0
100
AcDbLine
 10
194.067347
 20
246.904769
 30
0.0
 11
194.067347
 21
246.998617
 31
0.0
1001
ACAD
1000
RTLwPs
1070
   128
  0
LINE
  5
C5C
100
AcDbEntity
  8
0
100
AcDbLine
 10
191.717347
 20
246.989413
 30
0.0
 11
191.717347
 21
247.755382
 31
0.0
1001
ACAD
1000
RTLwPs
1070
   128
  0
LINE
  5
C5D
100
AcDbEntity
  8
0
100
AcDbLine
 10
192.917347
 20
247.755382
 30
0.0
 11
192.917347
 21
246.989413
 31
0.0
1001
ACAD
1000
RTLwPs
1070
   128
  0
ARC
  5
C5E
100
AcDbEntity
  8
0
100
AcDbCircle
 10
192.917347
 20
246.389413
 30
0.0
 40
0.6
100
AcDbArc
 50
59.196505
 51
90.0
1001
ACAD
1000
RTLwPs
1070
   128
  0
ARC
  5
C5F
100
AcDbEntity
  8
0
100
AcDbCircle
 10
191.717347
 20
246.389413
 30
0.0
 40
0.6
100
AcDbArc
 50
90.0
 51
120.803542
1001
ACAD
1000
RTLwPs
1070
   128
  0
LINE
  5
C60
100
AcDbEntity
  8
0
100
AcDbLine
 10
187.317347
 20
252.404762
 30
0.0
 11
187.317347
 21
252.204762
 31
0.0
1001
ACAD
1000
RTLwPs
1070
   128
  0
LINE
  5
C61
100
AcDbEntity
  8
0
100
AcDbLine
 10
197.317347
 20
252.204762
 30
0.0
 11
197.317347
 21
252.404762
 31
0.0
1001
ACAD
1000
RTLwPs
1070
   128
  0
LINE
  5
C62
100
AcDbEntity
  8
0
100
AcDbLine
 10
211.317347
 20
251.204477
 30
0.0
 11
211.317347
 21
242.804794
 31
0.0
1001
ACAD
1000
RTLwPs
1070
   128
  0
LINE
  5
C63
100
AcDbEntity
  8
0
100
AcDbLine
 10
217.017347
 20
251.904762
 30
0.0
 11
217.017347
 21
243.00475
 31
0.0
1001
ACAD
1000
RTLwPs
1070
   128
  0
LINE
  5
C64
100
AcDbEntity
  8
0
100
AcDbLine
 10
210.317347
 20
250.80454
 30
0.0
 11
210.317347
 21
248.004541
 31
0.0
1001
ACAD
1000
RTLwPs
1070
   128
  0
LINE
  5
C65
100
AcDbEntity
  8
0
100
AcDbLine
 10
207.317347
 20
246.90477
 30
0.0
 11
207.317347
 21
252.204762
 31
0.0
1001
ACAD
1000
RTLwPs
1070
   128
  0
ARC
  5
C66
100
AcDbEntity
  8
0
100
AcDbCircle
 10
207.317347
 20
250.704769
 30
0.0
 40
2.6
100
AcDbArc
 50
0.0
 51
40.831996
1001
ACAD
1000
RTLwPs
1070
   128
  0
LINE
  5
C67
100
AcDbEntity
  8
0
100
AcDbLine
 10
210.517347
 20
247.804541
 30
0.0
 11
211.317347
 21
247.804541
 31
0.0
1001
ACAD
1000
RTLwPs
1070
   128
  0
ARC
  5
C68
100
AcDbEntity
  8
0
100
AcDbCircle
 10
210.517347
 20
248.004541
 30
0.0
 40
0.2
100
AcDbArc
 50
180.0
 51
270.0
1001
ACAD
1000
RTLwPs
1070
   128
  0
LINE
  5
C69
100
AcDbEntity
  8
0
100
AcDbLine
 10
210.317347
 20
248.904544
 30
0.0
 11
209.817347
 21
248.404544
 31
0.0
1001
ACAD
1000
RTLwPs
1070
   128
  0
LINE
  5
C6A
100
AcDbEntity
  8
0
100
AcDbLine
 10
210.817347
 20
247.654537
 30
0.0
 11
210.817347
 21
242.404541
 31
0.0
1001
ACAD
1000
RTLwPs
1070
   128
  0
LINE
  5
C6B
100
AcDbEntity
  8
0
100
AcDbLine
 10
210.817347
 20
247.804541
 30
0.0
 11
210.817347
 21
247.654526
 31
0.0
1001
ACAD
1000
RTLwPs
1070
   128
  0
LINE
  5
C6C
100
AcDbEntity
  8
0
100
AcDbLine
 10
211.317347
 20
242.404541
 30
0.0
 11
211.317347
 21
242.404772
 31
0.0
1001
ACAD
1000
RTLwPs
1070
   128
  0
LINE
  5
C6D
100
AcDbEntity
  8
0
100
AcDbLine
 10
211.317347
 20
247.654537
 30
0.0
 11
210.817347
 21
247.654537
 31
0.0
1001
ACAD
1000
RTLwPs
1070
   128
  0
LINE
  5
C6E
100
AcDbEntity
  8
0
100
AcDbLine
 10
211.317347
 20
242.404541
 30
0.0
 11
210.817347
 21
242.404541
 31
0.0
1001
ACAD
1000
RTLwPs
1070
   128
  0
LINE
  5
C6F
100
AcDbEntity
  8
0
100
AcDbLine
 10
211.317347
 20
242.804794
 30
0.0
 11
211.317347
 21
242.404772
 31
0.0
1001
ACAD
1000
RTLwPs
1070
   128
  0
LINE
  5
C70
100
AcDbEntity
  8
0
100
AcDbLine
 10
217.017347
 20
242.804794
 30
0.0
 11
211.317347
 21
242.804794
 31
0.0
1001
ACAD
1000
RTLwPs
1070
   128
  0
LINE
  5
C71
100
AcDbEntity
  8
0
100
AcDbLine
 10
217.017347
 20
243.00475
 30
0.0
 11
217.017347
 21
242.804794
 31
0.0
1001
ACAD
1000
RTLwPs
1070
   128
  0
LINE
  5
C72
100
AcDbEntity
  8
0
100
AcDbLine
 10
209.817347
 20
242.404541
 30
0.0
 11
209.817347
 21
248.404544
 31
0.0
1001
ACAD
1000
RTLwPs
1070
   128
  0
LINE
  5
C73
100
AcDbEntity
  8
0
100
AcDbLine
 10
210.817347
 20
242.404541
 30
0.0
 11
209.817347
 21
242.404541
 31
0.0
1001
ACAD
1000
RTLwPs
1070
   128
  0
ARC
  5
C74
100
AcDbEntity
  8
0
100
AcDbCircle
 10
207.317347
 20
250.704769
 30
0.0
 40
2.6
100
AcDbArc
 50
270.0
 51
0.0
1001
ACAD
1000
RTLwPs
1070
   128
  0
LINE
  5
C75
100
AcDbEntity
  8
0
100
AcDbLine
 10
217.017347
 20
251.204477
 30
0.0
 11
211.317347
 21
251.204477
 31
0.0
1001
ACAD
1000
RTLwPs
1070
   128
  0
LINE
  5
C76
100
AcDbEntity
  8
0
100
AcDbLine
 10
217.017347
 20
251.704537
 30
0.0
 11
211.317347
 21
251.704537
 31
0.0
1001
ACAD
1000
RTLwPs
1070
   128
  0
LINE
  5
C77
100
AcDbEntity
  8
0
100
AcDbLine
 10
210.817347
 20
251.704537
 30
0.0
 11
210.817347
 21
251.00454
 31
0.0
1001
ACAD
1000
RTLwPs
1070
   128
  0
LINE
  5
C78
100
AcDbEntity
  8
0
100
AcDbLine
 10
211.317347
 20
251.704537
 30
0.0
 11
210.817347
 21
251.704537
 31
0.0
1001
ACAD
1000
RTLwPs
1070
   128
  0
LINE
  5
C79
100
AcDbEntity
  8
0
100
AcDbLine
 10
211.317347
 20
251.00454
 30
0.0
 11
210.517347
 21
251.00454
 31
0.0
1001
ACAD
1000
RTLwPs
1070
   128
  0
LINE
  5
C7A
100
AcDbEntity
  8
0
100
AcDbLine
 10
211.317347
 20
251.704537
 30
0.0
 11
211.317347
 21
251.204477
 31
0.0
1001
ACAD
1000
RTLwPs
1070
   128
  0
ARC
  5
C7B
100
AcDbEntity
  8
0
100
AcDbCircle
 10
210.517347
 20
250.80454
 30
0.0
 40
0.2
100
AcDbArc
 50
90.0
 51
180.0
1001
ACAD
1000
RTLwPs
1070
   128
  0
LINE
  5
C7C
100
AcDbEntity
  8
0
100
AcDbLine
 10
217.017347
 20
252.404762
 30
0.0
 11
217.017347
 21
251.904762
 31
0.0
1001
ACAD
1000
RTLwPs
1070
   128
  0
ARC
  5
C7D
100
AcDbEntity
  8
0
100
AcDbCircle
 10
207.517347
 20
252.204762
 30
0.0
 40
0.2
100
AcDbArc
 50
90.0
 51
180.0
1001
ACAD
1000
RTLwPs
1070
   128
  0
LINE
  5
C80
100
AcDbEntity
  8
0
100
AcDbLine
 10
263.870765
 20
260.604769
 30
0.0
 11
260.642347
 21
260.604769
 31
0.0
1001
ACAD
1000
RTLwPs
1070
   128
  0
LINE
  5
C81
100
AcDbEntity
  8
0
100
AcDbLine
 10
263.870765
 20
250.604769
 30
0.0
 11
260.642347
 21
250.604769
 31
0.0
1001
ACAD
1000
RTLwPs
1070
   128
  0
LINE
  5
C82
100
AcDbEntity
  8
0
100
AcDbLine
 10
352.817347
 20
246.904769
 30
0.0
 11
369.817347
 21
246.904769
 31
0.0
1001
ACAD
1000
RTLwPs
1070
   128
  0
LINE
  5
C83
100
AcDbEntity
  8
0
100
AcDbLine
 10
260.642347
 20
250.604769
 30
0.0
 11
260.642347
 21
260.604769
 31
0.0
1001
ACAD
1000
RTLwPs
1070
   128
  0
LINE
  5
C88
100
AcDbEntity
  8
0
100
AcDbLine
 10
247.317347
 20
249.104762
 30
0.0
 11
247.317347
 21
263.104762
 31
0.0
1001
ACAD
1000
RTLwPs
1070
   128
  0
LINE
  5
C89
100
AcDbEntity
  8
0
100
AcDbLine
 10
255.317347
 20
249.104762
 30
0.0
 11
255.317347
 21
263.104762
 31
0.0
1001
ACAD
1000
RTLwPs
1070
   128
  0
LINE
  5
C8A
100
AcDbEntity
  8
0
100
AcDbLine
 10
243.317347
 20
242.804794
 30
0.0
 11
243.317347
 21
251.204477
 31
0.0
1001
ACAD
1000
RTLwPs
1070
   128
  0
LINE
  5
C8B
100
AcDbEntity
  8
0
100
AcDbLine
 10
237.617347
 20
251.904762
 30
0.0
 11
237.617347
 21
243.00475
 31
0.0
1001
ACAD
1000
RTLwPs
1070
   128
  0
LINE
  5
C8C
100
AcDbEntity
  8
0
100
AcDbLine
 10
244.317347
 20
248.004541
 30
0.0
 11
244.317347
 21
250.80454
 31
0.0
1001
ACAD
1000
RTLwPs
1070
   128
  0
LINE
  5
C8D
100
AcDbEntity
  8
0
100
AcDbLine
 10
352.817347
 20
242.424847
 30
0.0
 11
244.817347
 21
242.424847
 31
0.0
1001
ACAD
1000
RTLwPs
1070
   128
  0
LINE
  5
C8E
100
AcDbEntity
  8
0
100
AcDbLine
 10
352.817347
 20
243.456553
 30
0.0
 11
244.817347
 21
243.456553
 31
0.0
1001
ACAD
1000
RTLwPs
1070
   128
  0
LINE
  5
C8F
100
AcDbEntity
  8
0
100
AcDbLine
 10
352.817347
 20
245.900925
 30
0.0
 11
244.817347
 21
245.900925
 31
0.0
1001
ACAD
1000
RTLwPs
1070
   128
  0
LINE
  5
C90
100
AcDbEntity
  8
0
100
AcDbLine
 10
352.817347
 20
246.90477
 30
0.0
 11
244.817347
 21
246.90477
 31
0.0
1001
ACAD
1000
RTLwPs
1070
   128
  0
LINE
  5
C91
100
AcDbEntity
  8
0
100
AcDbLine
 10
243.317347
 20
247.804541
 30
0.0
 11
244.117347
 21
247.804541
 31
0.0
1001
ACAD
1000
RTLwPs
1070
   128
  0
ARC
  5
C92
100
AcDbEntity
  8
0
100
AcDbCircle
 10
244.117347
 20
248.004541
 30
0.0
 40
0.2
100
AcDbArc
 50
270.0
 51
0.0
1001
ACAD
1000
RTLwPs
1070
   128
  0
LINE
  5
C93
100
AcDbEntity
  8
0
100
AcDbLine
 10
243.317347
 20
242.404772
 30
0.0
 11
243.317347
 21
242.804794
 31
0.0
1001
ACAD
1000
RTLwPs
1070
   128
  0
LINE
  5
C94
100
AcDbEntity
  8
0
100
AcDbLine
 10
243.317347
 20
247.654537
 30
0.0
 11
243.817347
 21
247.654537
 31
0.0
1001
ACAD
1000
RTLwPs
1070
   128
  0
LINE
  5
C95
100
AcDbEntity
  8
0
100
AcDbLine
 10
243.317347
 20
242.404541
 30
0.0
 11
243.817347
 21
242.404541
 31
0.0
1001
ACAD
1000
RTLwPs
1070
   128
  0
LINE
  5
C96
100
AcDbEntity
  8
0
100
AcDbLine
 10
243.317347
 20
242.404772
 30
0.0
 11
243.317347
 21
242.404541
 31
0.0
1001
ACAD
1000
RTLwPs
1070
   128
  0
LINE
  5
C97
100
AcDbEntity
  8
0
100
AcDbLine
 10
244.317347
 20
248.904544
 30
0.0
 11
244.817347
 21
248.404544
 31
0.0
1001
ACAD
1000
RTLwPs
1070
   128
  0
LINE
  5
C98
100
AcDbEntity
  8
0
100
AcDbLine
 10
237.617347
 20
242.804794
 30
0.0
 11
243.317347
 21
242.804794
 31
0.0
1001
ACAD
1000
RTLwPs
1070
   128
  0
LINE
  5
C99
100
AcDbEntity
  8
0
100
AcDbLine
 10
237.617347
 20
243.00475
 30
0.0
 11
237.617347
 21
242.804794
 31
0.0
1001
ACAD
1000
RTLwPs
1070
   128
  0
LINE
  5
C9A
100
AcDbEntity
  8
0
100
AcDbLine
 10
244.817347
 20
248.404544
 30
0.0
 11
244.817347
 21
242.404541
 31
0.0
1001
ACAD
1000
RTLwPs
1070
   128
  0
LINE
  5
C9B
100
AcDbEntity
  8
0
100
AcDbLine
 10
244.817347
 20
242.404541
 30
0.0
 11
243.817347
 21
242.404541
 31
0.0
1001
ACAD
1000
RTLwPs
1070
   128
  0
LINE
  5
C9C
100
AcDbEntity
  8
0
100
AcDbLine
 10
243.817347
 20
247.654526
 30
0.0
 11
243.817347
 21
247.804541
 31
0.0
1001
ACAD
1000
RTLwPs
1070
   128
  0
LINE
  5
C9D
100
AcDbEntity
  8
0
100
AcDbLine
 10
243.817347
 20
242.404541
 30
0.0
 11
243.817347
 21
247.654537
 31
0.0
1001
ACAD
1000
RTLwPs
1070
   128
  0
LINE
  5
C9F
100
AcDbEntity
  8
0
100
AcDbLine
 10
255.317347
 20
248.604762
 30
0.0
 11
247.317347
 21
248.604762
 31
0.0
1001
ACAD
1000
RTLwPs
1070
   128
  0
LINE
  5
CA0
100
AcDbEntity
  8
0
100
AcDbLine
 10
255.317347
 20
249.104762
 30
0.0
 11
255.317347
 21
248.604762
 31
0.0
1001
ACAD
1000
RTLwPs
1070
   128
  0
LINE
  5
CA1
100
AcDbEntity
  8
0
100
AcDbLine
 10
247.317347
 20
248.604762
 30
0.0
 11
247.317347
 21
249.104762
 31
0.0
1001
ACAD
1000
RTLwPs
1070
   128
  0
LINE
  5
CA2
100
AcDbEntity
  8
0
100
AcDbLine
 10
247.317347
 20
249.104762
 30
0.0
 11
255.317347
 21
249.104762
 31
0.0
1001
ACAD
1000
RTLwPs
1070
   128
  0
LINE
  5
CA3
100
AcDbEntity
  8
0
100
AcDbLine
 10
243.317347
 20
251.704537
 30
0.0
 11
243.817347
 21
251.704537
 31
0.0
1001
ACAD
1000
RTLwPs
1070
   128
  0
LINE
  5
CA4
100
AcDbEntity
  8
0
100
AcDbLine
 10
237.617347
 20
251.204477
 30
0.0
 11
243.317347
 21
251.204477
 31
0.0
1001
ACAD
1000
RTLwPs
1070
   128
  0
LINE
  5
CA5
100
AcDbEntity
  8
0
100
AcDbLine
 10
237.617347
 20
251.704537
 30
0.0
 11
243.317347
 21
251.704537
 31
0.0
1001
ACAD
1000
RTLwPs
1070
   128
  0
LINE
  5
CA6
100
AcDbEntity
  8
0
100
AcDbLine
 10
243.317347
 20
251.204477
 30
0.0
 11
243.317347
 21
251.704537
 31
0.0
1001
ACAD
1000
RTLwPs
1070
   128
  0
LINE
  5
CA7
100
AcDbEntity
  8
0
100
AcDbLine
 10
237.617347
 20
252.404762
 30
0.0
 11
237.617347
 21
251.904762
 31
0.0
1001
ACAD
1000
RTLwPs
1070
   128
  0
LINE
  5
CA8
100
AcDbEntity
  8
0
100
AcDbLine
 10
243.817347
 20
251.00454
 30
0.0
 11
243.817347
 21
251.704537
 31
0.0
1001
ACAD
1000
RTLwPs
1070
   128
  0
LINE
  5
CA9
100
AcDbEntity
  8
0
100
AcDbLine
 10
244.117347
 20
251.00454
 30
0.0
 11
243.317347
 21
251.00454
 31
0.0
1001
ACAD
1000
RTLwPs
1070
   128
  0
ARC
  5
CAA
100
AcDbEntity
  8
0
100
AcDbCircle
 10
244.117347
 20
250.80454
 30
0.0
 40
0.2
100
AcDbArc
 50
0.0
 51
90.0
1001
ACAD
1000
RTLwPs
1070
   128
  0
LINE
  5
CB5
100
AcDbEntity
  8
0
100
AcDbLine
 10
260.642347
 20
260.044769
 30
0.0
 11
260.317347
 21
260.044769
 31
0.0
1001
ACAD
1000
RTLwPs
1070
   128
  0
LINE
  5
CB6
100
AcDbEntity
  8
0
100
AcDbLine
 10
260.317347
 20
251.164769
 30
0.0
 11
260.317347
 21
260.044769
 31
0.0
1001
ACAD
1000
RTLwPs
1070
   128
  0
LINE
  5
CB8
100
AcDbEntity
  8
0
100
AcDbLine
 10
260.317347
 20
251.164769
 30
0.0
 11
260.642347
 21
251.164769
 31
0.0
1001
ACAD
1000
RTLwPs
1070
   128
  0
LINE
  5
CC0
100
AcDbEntity
  8
0
100
AcDbLine
 10
255.317347
 20
263.604762
 30
0.0
 11
255.317347
 21
263.104762
 31
0.0
1001
ACAD
1000
RTLwPs
1070
   128
  0
LINE
  5
CC1
100
AcDbEntity
  8
0
100
AcDbLine
 10
247.317347
 20
263.604762
 30
0.0
 11
255.317347
 21
263.604762
 31
0.0
1001
ACAD
1000
RTLwPs
1070
   128
  0
LINE
  5
CC2
100
AcDbEntity
  8
0
100
AcDbLine
 10
255.317347
 20
263.104762
 30
0.0
 11
247.317347
 21
263.104762
 31
0.0
1001
ACAD
1000
RTLwPs
1070
   128
  0
LINE
  5
CC3
100
AcDbEntity
  8
0
100
AcDbLine
 10
247.317347
 20
263.904762
 30
0.0
 11
247.317347
 21
263.604762
 31
0.0
1001
ACAD
1000
RTLwPs
1070
   128
  0
LINE
  5
CC4
100
AcDbEntity
  8
0
100
AcDbLine
 10
247.317347
 20
263.604762
 30
0.0
 11
247.317347
 21
252.404762
 31
0.0
1001
ACAD
1000
RTLwPs
1070
   128
  0
LINE
  5
CCB
100
AcDbEntity
  8
0
100
AcDbLine
 10
369.817347
 20
246.904769
 30
0.0
 11
369.817347
 21
260.404769
 31
0.0
1001
ACAD
1000
RTLwPs
1070
   128
  0
LINE
  5
CCE
100
AcDbEntity
  8
0
100
AcDbLine
 10
264.317347
 20
250.604769
 30
0.0
 11
263.870765
 21
250.604769
 31
0.0
1001
ACAD
1000
RTLwPs
1070
   128
  0
LINE
  5
CCF
100
AcDbEntity
  8
0
100
AcDbLine
 10
364.317347
 20
250.154769
 30
0.0
 11
364.317347
 21
248.404769
 31
0.0
1001
ACAD
1000
RTLwPs
1070
   128
  0
ARC
  5
CD0
100
AcDbEntity
  8
0
100
AcDbCircle
 10
379.658004
 20
250.963912
 30
0.0
 40
15.266518
100
AcDbArc
 50
183.038165
 51
189.650113
1001
ACAD
1000
RTLwPs
1070
   128
  0
LINE
  5
CD1
100
AcDbEntity
  8
0
100
AcDbLine
 10
364.607511
 20
248.404769
 30
0.0
 11
364.317347
 21
248.404769
 31
0.0
1001
ACAD
1000
RTLwPs
1070
   128
  0
LINE
  5
CD2
100
AcDbEntity
  8
0
100
AcDbLine
 10
369.817347
 20
248.404769
 30
0.0
 11
364.607511
 21
248.404769
 31
0.0
1001
ACAD
1000
RTLwPs
1070
   128
  0
LINE
  5
CD6
100
AcDbEntity
  8
0
100
AcDbLine
 10
379.817347
 20
263.404769
 30
0.0
 11
369.817347
 21
263.404769
 31
0.0
1001
ACAD
1000
RTLwPs
1070
   128
  0
LINE
  5
CD7
100
AcDbEntity
  8
0
100
AcDbLine
 10
369.817347
 20
260.404769
 30
0.0
 11
379.817347
 21
260.404769
 31
0.0
1001
ACAD
1000
RTLwPs
1070
   128
  0
LINE
  5
CDB
100
AcDbEntity
  8
0
100
AcDbLine
 10
263.870765
 20
260.604769
 30
0.0
 11
264.317347
 21
260.604769
 31
0.0
1001
ACAD
1000
RTLwPs
1070
   128
  0
ARC
  5
CDC
100
AcDbEntity
  8
0
100
AcDbCircle
 10
379.690467
 20
259.841244
 30
0.0
 40
15.299256
100
AcDbArc
 50
170.354086
 51
176.951906
1001
ACAD
1000
RTLwPs
1070
   128
  0
LINE
  5
CDD
100
AcDbEntity
  8
0
100
AcDbLine
 10
364.317347
 20
262.404769
 30
0.0
 11
364.607511
 21
262.404769
 31
0.0
1001
ACAD
1000
RTLwPs
1070
   128
  0
LINE
  5
CDE
100
AcDbEntity
  8
0
100
AcDbLine
 10
364.317347
 20
262.404769
 30
0.0
 11
364.317347
 21
260.654769
 31
0.0
1001
ACAD
1000
RTLwPs
1070
   128
  0
LINE
  5
CDF
100
AcDbEntity
  8
0
100
AcDbLine
 10
369.817347
 20
262.404769
 30
0.0
 11
364.607511
 21
262.404769
 31
0.0
1001
ACAD
1000
RTLwPs
1070
   128
  0
LINE
  5
CE0
100
AcDbEntity
  8
0
100
AcDbLine
 10
369.817347
 20
263.404769
 30
0.0
 11
369.817347
 21
260.404769
 31
0.0
1001
ACAD
1000
RTLwPs
1070
   128
  0
LINE
  5
CED
100
AcDbEntity
  8
0
100
AcDbLine
 10
379.817347
 20
260.404769
 30
0.0
 11
379.817347
 21
263.404769
 31
0.0
1001
ACAD
1000
RTLwPs
1070
   128
  0
LINE
  5
CEE
100
AcDbEntity
  8
0
100
AcDbLine
 10
419.517347
 20
235.904769
 30
0.0
 11
419.517347
 21
250.904769
 31
0.0
1001
ACAD
1000
RTLwPs
1070
   128
  0
LINE
  5
CEF
100
AcDbEntity
  8
0
100
AcDbLine
 10
411.617347
 20
250.904769
 30
0.0
 11
411.617347
 21
235.904769
 31
0.0
1001
ACAD
1000
RTLwPs
1070
   128
  0
LINE
  5
CF0
100
AcDbEntity
  8
0
100
AcDbLine
 10
417.067347
 20
223.904769
 30
0.0
 11
414.067347
 21
223.904769
 31
0.0
1001
ACAD
1000
RTLwPs
1070
   128
  0
LINE
  5
CF1
100
AcDbEntity
  8
0
100
AcDbLine
 10
411.617347
 20
235.904769
 30
0.0
 11
419.517347
 21
235.904769
 31
0.0
1001
ACAD
1000
RTLwPs
1070
   128
  0
LINE
  5
CF2
100
AcDbEntity
  8
0
100
AcDbLine
 10
414.067347
 20
235.904769
 30
0.0
 11
414.067347
 21
223.904769
 31
0.0
1001
ACAD
1000
RTLwPs
1070
   128
  0
LINE
  5
CF3
100
AcDbEntity
  8
0
100
AcDbLine
 10
417.067347
 20
223.904769
 30
0.0
 11
417.067347
 21
235.904769
 31
0.0
1001
ACAD
1000
RTLwPs
1070
   128
  0
LINE
  5
D03
100
AcDbEntity
  8
5
100
AcDbLine
 10
104.817347
 20
114.947011
 30
0.0
 11
89.817347
 21
114.947011
 31
0.0
1001
ACAD
1000
RTLwPs
1070
   128
  0
LINE
  5
D0B
100
AcDbEntity
  8
0
100
AcDbLine
 10
364.317347
 20
117.774189
 30
0.0
 11
364.317347
 21
105.649833
 31
0.0
  0
LINE
  5
D12
100
AcDbEntity
  8
0
100
AcDbLine
 10
255.317347
 20
259.978272
 30
0.0
 11
255.317347
 21
251.231267
 31
0.0
  0
POLYLINE
  5
E9E
100
AcDbEntity
  8
0
100
AcDb2dPolyline
 66
     1
 10
0.0
 20
0.0
 30
0.0
  0
VERTEX
  5
E9F
100
AcDbEntity
  8
0
100
AcDbVertex
100
AcDb2dVertex
 10
346.317347
 20
93.212011
 30
0.0
  0
VERTEX
  5
EA0
100
AcDbEntity
  8
0
100
AcDbVertex
100
AcDb2dVertex
 10
346.317347
 20
89.912011
 30
0.0
  0
VERTEX
  5
EA1
100
AcDbEntity
  8
0
100
AcDbVertex
100
AcDb2dVertex
 10
346.817347
 20
89.412011
 30
0.0
  0
VERTEX
  5
EA2
100
AcDbEntity
  8
0
100
AcDbVertex
100
AcDb2dVertex
 10
353.817347
 20
89.412011
 30
0.0
  0
SEQEND
  5
EA3
100
AcDbEntity
  8
0
  0
POLYLINE
  5
EA4
100
AcDbEntity
  8
0
100
AcDb2dPolyline
 66
     1
 10
0.0
 20
0.0
 30
0.0
  0
VERTEX
  5
EA5
100
AcDbEntity
  8
0
100
AcDbVertex
100
AcDb2dVertex
 10
346.317347
 20
93.212011
 30
0.0
  0
VERTEX
  5
EA6
100
AcDbEntity
  8
0
100
AcDbVertex
100
AcDb2dVertex
 10
346.317347
 20
96.512011
 30
0.0
  0
VERTEX
  5
EA7
100
AcDbEntity
  8
0
100
AcDbVertex
100
AcDb2dVertex
 10
346.817347
 20
97.012011
 30
0.0
  0
VERTEX
  5
EA8
100
AcDbEntity
  8
0
100
AcDbVertex
100
AcDb2dVertex
 10
353.817347
 20
97.012011
 30
0.0
  0
SEQEND
  5
EA9
100
AcDbEntity
  8
0
  0
LINE
  5
EAA
100
AcDbEntity
  8
7A
100
AcDbLine
 10
415.817347
 20
93.212011
 30
0.0
 11
345.817347
 21
93.212011
 31
0.0
  0
POLYLINE
  5
EAB
100
AcDbEntity
  8
0
100
AcDb2dPolyline
 66
     1
 10
0.0
 20
0.0
 30
0.0
  0
VERTEX
  5
EAC
100
AcDbEntity
  8
0
100
AcDbVertex
100
AcDb2dVertex
 10
346.817347
 20
97.012011
 30
0.0
  0
VERTEX
  5
EAD
100
AcDbEntity
  8
0
100
AcDbVertex
100
AcDb2dVertex
 10
346.817347
 20
93.212011
 30
0.0
  0
SEQEND
  5
EAE
100
AcDbEntity
  8
0
  0
POLYLINE
  5
EAF
100
AcDbEntity
  8
0
100
AcDb2dPolyline
 66
     1
 10
0.0
 20
0.0
 30
0.0
  0
VERTEX
  5
EB0
100
AcDbEntity
  8
0
100
AcDbVertex
100
AcDb2dVertex
 10
345.817347
 20
93.212011
 30
0.0
  0
VERTEX
  5
EB1
100
AcDbEntity
  8
0
100
AcDbVertex
100
AcDb2dVertex
 10
345.817347
 20
95.212011
 30
0.0
  0
SEQEND
  5
EB2
100
AcDbEntity
  8
0
  0
POLYLINE
  5
EB3
100
AcDbEntity
  8
0
100
AcDb2dPolyline
 66
     1
 10
0.0
 20
0.0
 30
0.0
  0
VERTEX
  5
EB4
100
AcDbEntity
  8
0
100
AcDbVertex
100
AcDb2dVertex
 10
346.817347
 20
89.412011
 30
0.0
  0
VERTEX
  5
EB5
100
AcDbEntity
  8
0
100
AcDbVertex
100
AcDb2dVertex
 10
346.817347
 20
93.212011
 30
0.0
  0
SEQEND
  5
EB6
100
AcDbEntity
  8
0
  0
POLYLINE
  5
EB7
100
AcDbEntity
  8
0
100
AcDb2dPolyline
 66
     1
 10
0.0
 20
0.0
 30
0.0
  0
VERTEX
  5
EB8
100
AcDbEntity
  8
0
100
AcDbVertex
100
AcDb2dVertex
 10
345.817347
 20
93.212011
 30
0.0
  0
VERTEX
  5
EB9
100
AcDbEntity
  8
0
100
AcDbVertex
100
AcDb2dVertex
 10
345.817347
 20
91.212011
 30
0.0
  0
SEQEND
  5
EBA
100
AcDbEntity
  8
0
  0
POLYLINE
  5
EBB
100
AcDbEntity
  8
0
100
AcDb2dPolyline
 66
     1
 10
0.0
 20
0.0
 30
0.0
  0
VERTEX
  5
EBC
100
AcDbEntity
  8
0
100
AcDbVertex
100
AcDb2dVertex
 10
346.317347
 20
90.712011
 30
0.0
  0
VERTEX
  5
EBD
100
AcDbEntity
  8
0
100
AcDbVertex
100
AcDb2dVertex
 10
345.817347
 20
91.212011
 30
0.0
  0
SEQEND
  5
EBE
100
AcDbEntity
  8
0
  0
POLYLINE
  5
EBF
100
AcDbEntity
  8
0
100
AcDb2dPolyline
 66
     1
 10
0.0
 20
0.0
 30
0.0
  0
VERTEX
  5
EC0
100
AcDbEntity
  8
0
100
AcDbVertex
100
AcDb2dVertex
 10
346.317347
 20
95.712011
 30
0.0
  0
VERTEX
  5
EC1
100
AcDbEntity
  8
0
100
AcDbVertex
100
AcDb2dVertex
 10
345.817347
 20
95.212011
 30
0.0
  0
SEQEND
  5
EC2
100
AcDbEntity
  8
0
  0
POLYLINE
  5
EC3
100
AcDbEntity
  8
0
100
AcDb2dPolyline
 66
     1
 10
0.0
 20
0.0
 30
0.0
  0
VERTEX
  5
EC4
100
AcDbEntity
  8
0
100
AcDbVertex
100
AcDb2dVertex
 10
415.817347
 20
93.212011
 30
0.0
  0
VERTEX
  5
EC5
100
AcDbEntity
  8
0
100
AcDbVertex
100
AcDb2dVertex
 10
415.817347
 20
97.462011
 30
0.0
  0
SEQEND
  5
EC6
100
AcDbEntity
  8
0
  0
POLYLINE
  5
EC7
100
AcDbEntity
  8
0
100
AcDb2dPolyline
 66
     1
 10
0.0
 20
0.0
 30
0.0
  0
VERTEX
  5
EC8
100
AcDbEntity
  8
0
100
AcDbVertex
100
AcDb2dVertex
 10
410.817347
 20
93.212011
 30
0.0
  0
VERTEX
  5
EC9
100
AcDbEntity
  8
0
100
AcDbVertex
100
AcDb2dVertex
 10
410.817347
 20
97.462011
 30
0.0
  0
SEQEND
  5
ECA
100
AcDbEntity
  8
0
  0
LINE
  5
ECB
100
AcDbEntity
  8
0
100
AcDbLine
 10
410.817347
 20
97.462011
 30
0.0
 11
410.817347
 21
93.212011
 31
0.0
  0
POLYLINE
  5
ECC
100
AcDbEntity
  8
0
100
AcDb2dPolyline
 66
     1
 10
0.0
 20
0.0
 30
0.0
  0
VERTEX
  5
ECD
100
AcDbEntity
  8
0
100
AcDbVertex
100
AcDb2dVertex
 10
408.817347
 20
93.212011
 30
0.0
  0
VERTEX
  5
ECE
100
AcDbEntity
  8
0
100
AcDbVertex
100
AcDb2dVertex
 10
408.817347
 20
99.212011
 30
0.0
  0
SEQEND
  5
ECF
100
AcDbEntity
  8
0
  0
ARC
  5
ED0
100
AcDbEntity
  8
0
100
AcDbCircle
 10
415.752353
 20
93.212011
 30
0.0
 40
35.935006
100
AcDbArc
 50
173.542534
 51
186.457466
  0
ARC
  5
ED1
100
AcDbEntity
  8
0
100
AcDbCircle
 10
347.882342
 20
93.212011
 30
0.0
 40
35.935006
100
AcDbArc
 50
353.542534
 51
6.457466
  0
LINE
  5
ED2
100
AcDbEntity
  8
0
100
AcDbLine
 10
383.817347
 20
87.149833
 30
0.0
 11
383.817347
 21
99.274189
 31
0.0
  0
LINE
  5
ED3
100
AcDbEntity
  8
0
100
AcDbLine
 10
379.817347
 20
85.812011
 30
0.0
 11
379.817347
 21
100.612011
 31
0.0
  0
POLYLINE
  5
ED4
100
AcDbEntity
  8
0
100
AcDb2dPolyline
 66
     1
 10
0.0
 20
0.0
 30
0.0
  0
VERTEX
  5
ED5
100
AcDbEntity
  8
0
100
AcDbVertex
100
AcDb2dVertex
 10
367.567347
 20
99.212011
 30
0.0
  0
VERTEX
  5
ED6
100
AcDbEntity
  8
0
100
AcDbVertex
100
AcDb2dVertex
 10
367.567347
 20
93.212011
 30
0.0
  0
SEQEND
  5
ED7
100
AcDbEntity
  8
0
  0
POLYLINE
  5
ED8
100
AcDbEntity
  8
0
100
AcDb2dPolyline
 66
     1
 10
0.0
 20
0.0
 30
0.0
  0
VERTEX
  5
ED9
100
AcDbEntity
  8
0
100
AcDbVertex
100
AcDb2dVertex
 10
364.317347
 20
98.462011
 30
0.0
  0
VERTEX
  5
EDA
100
AcDbEntity
  8
0
100
AcDbVertex
100
AcDb2dVertex
 10
364.317347
 20
93.212011
 30
0.0
  0
SEQEND
  5
EDB
100
AcDbEntity
  8
0
  0
POLYLINE
  5
EDC
100
AcDbEntity
  8
0
100
AcDb2dPolyline
 66
     1
 10
0.0
 20
0.0
 30
0.0
  0
VERTEX
  5
EDD
100
AcDbEntity
  8
0
100
AcDbVertex
100
AcDb2dVertex
 10
366.817347
 20
98.462011
 30
0.0
  0
VERTEX
  5
EDE
100
AcDbEntity
  8
0
100
AcDbVertex
100
AcDb2dVertex
 10
366.817347
 20
93.212011
 30
0.0
  0
SEQEND
  5
EDF
100
AcDbEntity
  8
0
  0
POLYLINE
  5
EE0
100
AcDbEntity
  8
0
100
AcDb2dPolyline
 66
     1
 10
0.0
 20
0.0
 30
0.0
  0
VERTEX
  5
EE1
100
AcDbEntity
  8
0
100
AcDbVertex
100
AcDb2dVertex
 10
363.817347
 20
93.212011
 30
0.0
  0
VERTEX
  5
EE2
100
AcDbEntity
  8
0
100
AcDbVertex
100
AcDb2dVertex
 10
363.817347
 20
97.962011
 30
0.0
  0
VERTEX
  5
EE3
100
AcDbEntity
  8
0
100
AcDbVertex
100
AcDb2dVertex
 10
364.317347
 20
98.462011
 30
0.0
  0
VERTEX
  5
EE4
100
AcDbEntity
  8
0
100
AcDbVertex
100
AcDb2dVertex
 10
366.817347
 20
98.462011
 30
0.0
  0
SEQEND
  5
EE5
100
AcDbEntity
  8
0
  0
POLYLINE
  5
EE6
100
AcDbEntity
  8
0
100
AcDb2dPolyline
 66
     1
 10
0.0
 20
0.0
 30
0.0
  0
VERTEX
  5
EE7
100
AcDbEntity
  8
0
100
AcDbVertex
100
AcDb2dVertex
 10
365.817347
 20
93.212011
 30
0.0
  0
VERTEX
  5
EE8
100
AcDbEntity
  8
0
100
AcDbVertex
100
AcDb2dVertex
 10
365.817347
 20
98.462011
 30
0.0
  0
SEQEND
  5
EE9
100
AcDbEntity
  8
0
  0
POLYLINE
  5
EEA
100
AcDbEntity
  8
0
100
AcDb2dPolyline
 66
     1
 10
0.0
 20
0.0
 30
0.0
  0
VERTEX
  5
EEB
100
AcDbEntity
  8
0
100
AcDbVertex
100
AcDb2dVertex
 10
353.817347
 20
93.212011
 30
0.0
  0
VERTEX
  5
EEC
100
AcDbEntity
  8
0
100
AcDbVertex
100
AcDb2dVertex
 10
353.817347
 20
97.012011
 30
0.0
  0
SEQEND
  5
EED
100
AcDbEntity
  8
0
  0
LINE
  5
EEE
100
AcDbEntity
  8
0
100
AcDbLine
 10
408.817347
 20
87.212011
 30
0.0
 11
383.817347
 21
87.212011
 31
0.0
  0
LINE
  5
EEF
100
AcDbEntity
  8
5
100
AcDbLine
 10
409.503062
 20
87.812011
 30
0.0
 11
383.817347
 21
87.812011
 31
0.0
  0
POLYLINE
  5
EF0
100
AcDbEntity
  8
0
100
AcDb2dPolyline
 66
     1
 10
0.0
 20
0.0
 30
0.0
  0
VERTEX
  5
EF1
100
AcDbEntity
  8
0
100
AcDbVertex
100
AcDb2dVertex
 10
363.817347
 20
93.212011
 30
0.0
  0
VERTEX
  5
EF2
100
AcDbEntity
  8
0
100
AcDbVertex
100
AcDb2dVertex
 10
363.817347
 20
88.462011
 30
0.0
  0
VERTEX
  5
EF3
100
AcDbEntity
  8
0
100
AcDbVertex
100
AcDb2dVertex
 10
364.317347
 20
87.962011
 30
0.0
  0
VERTEX
  5
EF4
100
AcDbEntity
  8
0
100
AcDbVertex
100
AcDb2dVertex
 10
366.817347
 20
87.962011
 30
0.0
  0
SEQEND
  5
EF5
100
AcDbEntity
  8
0
  0
LINE
  5
EF6
100
AcDbEntity
  8
0
100
AcDbLine
 10
363.817347
 20
91.562011
 30
0.0
 11
353.817347
 21
91.562011
 31
0.0
  0
POLYLINE
  5
EF7
100
AcDbEntity
  8
0
100
AcDb2dPolyline
 66
     1
 10
0.0
 20
0.0
 30
0.0
  0
VERTEX
  5
EF8
100
AcDbEntity
  8
0
100
AcDbVertex
100
AcDb2dVertex
 10
353.817347
 20
93.212011
 30
0.0
  0
VERTEX
  5
EF9
100
AcDbEntity
  8
0
100
AcDbVertex
100
AcDb2dVertex
 10
353.817347
 20
89.412011
 30
0.0
  0
SEQEND
  5
EFA
100
AcDbEntity
  8
0
  0
POLYLINE
  5
EFB
100
AcDbEntity
  8
0
100
AcDb2dPolyline
 66
     1
 10
0.0
 20
0.0
 30
0.0
  0
VERTEX
  5
EFC
100
AcDbEntity
  8
0
100
AcDbVertex
100
AcDb2dVertex
 10
365.817347
 20
93.212011
 30
0.0
  0
VERTEX
  5
EFD
100
AcDbEntity
  8
0
100
AcDbVertex
100
AcDb2dVertex
 10
365.817347
 20
87.962011
 30
0.0
  0
SEQEND
  5
EFE
100
AcDbEntity
  8
0
  0
POLYLINE
  5
EFF
100
AcDbEntity
  8
0
100
AcDb2dPolyline
 66
     1
 10
0.0
 20
0.0
 30
0.0
  0
VERTEX
  5
F00
100
AcDbEntity
  8
0
100
AcDbVertex
100
AcDb2dVertex
 10
364.317347
 20
87.962011
 30
0.0
  0
VERTEX
  5
F01
100
AcDbEntity
  8
0
100
AcDbVertex
100
AcDb2dVertex
 10
364.317347
 20
93.212011
 30
0.0
  0
SEQEND
  5
F02
100
AcDbEntity
  8
0
  0
LINE
  5
F03
100
AcDbEntity
  8
0
100
AcDbLine
 10
369.817347
 20
87.212011
 30
0.0
 11
367.567347
 21
87.212011
 31
0.0
  0
LINE
  5
F04
100
AcDbEntity
  8
5
100
AcDbLine
 10
369.817347
 20
87.812011
 30
0.0
 11
366.967347
 21
87.812011
 31
0.0
  0
POLYLINE
  5
F05
100
AcDbEntity
  8
0
100
AcDb2dPolyline
 66
     1
 10
0.0
 20
0.0
 30
0.0
  0
VERTEX
  5
F06
100
AcDbEntity
  8
0
100
AcDbVertex
100
AcDb2dVertex
 10
367.567347
 20
87.212011
 30
0.0
  0
VERTEX
  5
F07
100
AcDbEntity
  8
0
100
AcDbVertex
100
AcDb2dVertex
 10
367.567347
 20
93.212011
 30
0.0
  0
SEQEND
  5
F08
100
AcDbEntity
  8
0
  0
POLYLINE
  5
F09
100
AcDbEntity
  8
0
100
AcDb2dPolyline
 66
     1
 10
0.0
 20
0.0
 30
0.0
  0
VERTEX
  5
F0A
100
AcDbEntity
  8
0
100
AcDbVertex
100
AcDb2dVertex
 10
366.817347
 20
87.962011
 30
0.0
  0
VERTEX
  5
F0B
100
AcDbEntity
  8
0
100
AcDbVertex
100
AcDb2dVertex
 10
366.817347
 20
93.212011
 30
0.0
  0
SEQEND
  5
F0C
100
AcDbEntity
  8
0
  0
POLYLINE
  5
F0D
100
AcDbEntity
  8
0
100
AcDb2dPolyline
 66
     1
 10
0.0
 20
0.0
 30
0.0
  0
VERTEX
  5
F0E
100
AcDbEntity
  8
0
100
AcDbVertex
100
AcDb2dVertex
 10
367.567347
 20
87.212011
 30
0.0
  0
VERTEX
  5
F0F
100
AcDbEntity
  8
0
100
AcDbVertex
100
AcDb2dVertex
 10
366.817347
 20
87.962011
 30
0.0
  0
SEQEND
  5
F10
100
AcDbEntity
  8
0
  0
ARC
  5
F11
100
AcDbEntity
  8
0
100
AcDbCircle
 10
374.748101
 20
87.149833
 30
0.0
 40
9.069246
100
AcDbArc
 50
347.125821
 51
12.874179
  0
ARC
  5
F12
100
AcDbEntity
  8
0
100
AcDbCircle
 10
388.886593
 20
87.149833
 30
0.0
 40
9.069246
100
AcDbArc
 50
167.125821
 51
192.874179
  0
LINE
  5
F13
100
AcDbEntity
  8
0
100
AcDbLine
 10
383.589362
 20
85.129107
 30
0.0
 11
380.045333
 21
85.129107
 31
0.0
  0
LINE
  5
F14
100
AcDbEntity
  8
0
100
AcDbLine
 10
383.589362
 20
89.170559
 30
0.0
 11
380.045333
 21
89.170559
 31
0.0
  0
LINE
  5
F15
100
AcDbEntity
  8
0
100
AcDbLine
 10
415.817347
 20
88.962011
 30
0.0
 11
410.817347
 21
88.962011
 31
0.0
  0
POLYLINE
  5
F16
100
AcDbEntity
  8
0
100
AcDb2dPolyline
 66
     1
 10
0.0
 20
0.0
 30
0.0
  0
VERTEX
  5
F17
100
AcDbEntity
  8
0
100
AcDbVertex
100
AcDb2dVertex
 10
408.817347
 20
87.212011
 30
0.0
  0
VERTEX
  5
F18
100
AcDbEntity
  8
0
100
AcDbVertex
100
AcDb2dVertex
 10
410.817347
 20
88.962011
 30
0.0
  0
SEQEND
  5
F19
100
AcDbEntity
  8
0
  0
POLYLINE
  5
F1A
100
AcDbEntity
  8
0
100
AcDb2dPolyline
 66
     1
 10
0.0
 20
0.0
 30
0.0
  0
VERTEX
  5
F1B
100
AcDbEntity
  8
0
100
AcDbVertex
100
AcDb2dVertex
 10
408.817347
 20
93.212011
 30
0.0
  0
VERTEX
  5
F1C
100
AcDbEntity
  8
0
100
AcDbVertex
100
AcDb2dVertex
 10
408.817347
 20
87.212011
 30
0.0
  0
SEQEND
  5
F1D
100
AcDbEntity
  8
0
  0
LINE
  5
F1E
100
AcDbEntity
  8
0
100
AcDbLine
 10
410.817347
 20
88.962011
 30
0.0
 11
410.817347
 21
93.212011
 31
0.0
  0
POLYLINE
  5
F1F
100
AcDbEntity
  8
0
100
AcDb2dPolyline
 66
     1
 10
0.0
 20
0.0
 30
0.0
  0
VERTEX
  5
F20
100
AcDbEntity
  8
0
100
AcDbVertex
100
AcDb2dVertex
 10
410.817347
 20
93.212011
 30
0.0
  0
VERTEX
  5
F21
100
AcDbEntity
  8
0
100
AcDbVertex
100
AcDb2dVertex
 10
410.817347
 20
88.962011
 30
0.0
  0
SEQEND
  5
F22
100
AcDbEntity
  8
0
  0
POLYLINE
  5
F23
100
AcDbEntity
  8
0
100
AcDb2dPolyline
 66
     1
 10
0.0
 20
0.0
 30
0.0
  0
VERTEX
  5
F24
100
AcDbEntity
  8
0
100
AcDbVertex
100
AcDb2dVertex
 10
415.817347
 20
93.212011
 30
0.0
  0
VERTEX
  5
F25
100
AcDbEntity
  8
0
100
AcDbVertex
100
AcDb2dVertex
 10
415.817347
 20
88.962011
 30
0.0
  0
SEQEND
  5
F26
100
AcDbEntity
  8
0
  0
LINE
  5
F27
100
AcDbEntity
  8
0
100
AcDbLine
 10
408.817347
 20
99.212011
 30
0.0
 11
383.817347
 21
99.212011
 31
0.0
  0
LINE
  5
F28
100
AcDbEntity
  8
5
100
AcDbLine
 10
409.503062
 20
98.612011
 30
0.0
 11
383.817347
 21
98.612011
 31
0.0
  0
LINE
  5
F29
100
AcDbEntity
  8
0
100
AcDbLine
 10
363.817347
 20
94.862011
 30
0.0
 11
353.817347
 21
94.862011
 31
0.0
  0
LINE
  5
F2A
100
AcDbEntity
  8
0
100
AcDbLine
 10
369.817347
 20
99.212011
 30
0.0
 11
367.567347
 21
99.212011
 31
0.0
  0
LINE
  5
F2B
100
AcDbEntity
  8
5
100
AcDbLine
 10
369.817347
 20
98.612011
 30
0.0
 11
366.967347
 21
98.612011
 31
0.0
  0
POLYLINE
  5
F2C
100
AcDbEntity
  8
0
100
AcDb2dPolyline
 66
     1
 10
0.0
 20
0.0
 30
0.0
  0
VERTEX
  5
F2D
100
AcDbEntity
  8
0
100
AcDbVertex
100
AcDb2dVertex
 10
367.567347
 20
99.212011
 30
0.0
  0
VERTEX
  5
F2E
100
AcDbEntity
  8
0
100
AcDbVertex
100
AcDb2dVertex
 10
366.817347
 20
98.462011
 30
0.0
  0
SEQEND
  5
F2F
100
AcDbEntity
  8
0
  0
ARC
  5
F30
100
AcDbEntity
  8
0
100
AcDbCircle
 10
374.748101
 20
99.274189
 30
0.0
 40
9.069246
100
AcDbArc
 50
347.125821
 51
12.874179
  0
ARC
  5
F31
100
AcDbEntity
  8
0
100
AcDbCircle
 10
388.886593
 20
99.274189
 30
0.0
 40
9.069246
100
AcDbArc
 50
167.125821
 51
192.874179
  0
LINE
  5
F32
100
AcDbEntity
  8
0
100
AcDbLine
 10
383.589362
 20
97.253463
 30
0.0
 11
380.045333
 21
97.253463
 31
0.0
  0
LINE
  5
F33
100
AcDbEntity
  8
0
100
AcDbLine
 10
379.817347
 20
99.272142
 30
0.0
 11
379.757217
 21
99.212011
 31
0.0
  0
LINE
  5
F34
100
AcDbEntity
  8
0
100
AcDbLine
 10
383.589362
 20
101.294915
 30
0.0
 11
380.045333
 21
101.294915
 31
0.0
  0
LINE
  5
F35
100
AcDbEntity
  8
0
100
AcDbLine
 10
415.817347
 20
97.462011
 30
0.0
 11
410.817347
 21
97.462011
 31
0.0
  0
POLYLINE
  5
F36
100
AcDbEntity
  8
0
100
AcDb2dPolyline
 66
     1
 10
0.0
 20
0.0
 30
0.0
  0
VERTEX
  5
F37
100
AcDbEntity
  8
0
100
AcDbVertex
100
AcDb2dVertex
 10
408.817347
 20
99.212011
 30
0.0
  0
VERTEX
  5
F38
100
AcDbEntity
  8
0
100
AcDbVertex
100
AcDb2dVertex
 10
410.817347
 20
97.462011
 30
0.0
  0
SEQEND
  5
F39
100
AcDbEntity
  8
0
  0
POLYLINE
  5
F3A
100
AcDbEntity
  8
0
100
AcDb2dPolyline
 66
     1
 10
0.0
 20
0.0
 30
0.0
  0
VERTEX
  5
F3B
100
AcDbEntity
  8
0
100
AcDbVertex
100
AcDb2dVertex
 10
346.317347
 20
130.212011
 30
0.0
  0
VERTEX
  5
F3C
100
AcDbEntity
  8
0
100
AcDbVertex
100
AcDb2dVertex
 10
346.317347
 20
126.912011
 30
0.0
  0
VERTEX
  5
F3D
100
AcDbEntity
  8
0
100
AcDbVertex
100
AcDb2dVertex
 10
346.817347
 20
126.412011
 30
0.0
  0
VERTEX
  5
F3E
100
AcDbEntity
  8
0
100
AcDbVertex
100
AcDb2dVertex
 10
353.817347
 20
126.412011
 30
0.0
  0
SEQEND
  5
F3F
100
AcDbEntity
  8
0
  0
POLYLINE
  5
F40
100
AcDbEntity
  8
0
100
AcDb2dPolyline
 66
     1
 10
0.0
 20
0.0
 30
0.0
  0
VERTEX
  5
F41
100
AcDbEntity
  8
0
100
AcDbVertex
100
AcDb2dVertex
 10
346.317347
 20
130.212011
 30
0.0
  0
VERTEX
  5
F42
100
AcDbEntity
  8
0
100
AcDbVertex
100
AcDb2dVertex
 10
346.317347
 20
133.512011
 30
0.0
  0
VERTEX
  5
F43
100
AcDbEntity
  8
0
100
AcDbVertex
100
AcDb2dVertex
 10
346.817347
 20
134.012011
 30
0.0
  0
VERTEX
  5
F44
100
AcDbEntity
  8
0
100
AcDbVertex
100
AcDb2dVertex
 10
353.817347
 20
134.012011
 30
0.0
  0
SEQEND
  5
F45
100
AcDbEntity
  8
0
  0
LINE
  5
F46
100
AcDbEntity
  8
7A
100
AcDbLine
 10
415.817347
 20
130.212011
 30
0.0
 11
345.817347
 21
130.212011
 31
0.0
  0
POLYLINE
  5
F47
100
AcDbEntity
  8
0
100
AcDb2dPolyline
 66
     1
 10
0.0
 20
0.0
 30
0.0
  0
VERTEX
  5
F48
100
AcDbEntity
  8
0
100
AcDbVertex
100
AcDb2dVertex
 10
346.817347
 20
134.012011
 30
0.0
  0
VERTEX
  5
F49
100
AcDbEntity
  8
0
100
AcDbVertex
100
AcDb2dVertex
 10
346.817347
 20
130.212011
 30
0.0
  0
SEQEND
  5
F4A
100
AcDbEntity
  8
0
  0
POLYLINE
  5
F4B
100
AcDbEntity
  8
0
100
AcDb2dPolyline
 66
     1
 10
0.0
 20
0.0
 30
0.0
  0
VERTEX
  5
F4C
100
AcDbEntity
  8
0
100
AcDbVertex
100
AcDb2dVertex
 10
345.817347
 20
130.212011
 30
0.0
  0
VERTEX
  5
F4D
100
AcDbEntity
  8
0
100
AcDbVertex
100
AcDb2dVertex
 10
345.817347
 20
132.212011
 30
0.0
  0
SEQEND
  5
F4E
100
AcDbEntity
  8
0
  0
POLYLINE
  5
F4F
100
AcDbEntity
  8
0
100
AcDb2dPolyline
 66
     1
 10
0.0
 20
0.0
 30
0.0
  0
VERTEX
  5
F50
100
AcDbEntity
  8
0
100
AcDbVertex
100
AcDb2dVertex
 10
346.817347
 20
126.412011
 30
0.0
  0
VERTEX
  5
F51
100
AcDbEntity
  8
0
100
AcDbVertex
100
AcDb2dVertex
 10
346.817347
 20
130.212011
 30
0.0
  0
SEQEND
  5
F52
100
AcDbEntity
  8
0
  0
POLYLINE
  5
F53
100
AcDbEntity
  8
0
100
AcDb2dPolyline
 66
     1
 10
0.0
 20
0.0
 30
0.0
  0
VERTEX
  5
F54
100
AcDbEntity
  8
0
100
AcDbVertex
100
AcDb2dVertex
 10
345.817347
 20
130.212011
 30
0.0
  0
VERTEX
  5
F55
100
AcDbEntity
  8
0
100
AcDbVertex
100
AcDb2dVertex
 10
345.817347
 20
128.212011
 30
0.0
  0
SEQEND
  5
F56
100
AcDbEntity
  8
0
  0
POLYLINE
  5
F57
100
AcDbEntity
  8
0
100
AcDb2dPolyline
 66
     1
 10
0.0
 20
0.0
 30
0.0
  0
VERTEX
  5
F58
100
AcDbEntity
  8
0
100
AcDbVertex
100
AcDb2dVertex
 10
346.317347
 20
127.712011
 30
0.0
  0
VERTEX
  5
F59
100
AcDbEntity
  8
0
100
AcDbVertex
100
AcDb2dVertex
 10
345.817347
 20
128.212011
 30
0.0
  0
SEQEND
  5
F5A
100
AcDbEntity
  8
0
  0
POLYLINE
  5
F5B
100
AcDbEntity
  8
0
100
AcDb2dPolyline
 66
     1
 10
0.0
 20
0.0
 30
0.0
  0
VERTEX
  5
F5C
100
AcDbEntity
  8
0
100
AcDbVertex
100
AcDb2dVertex
 10
346.317347
 20
132.712011
 30
0.0
  0
VERTEX
  5
F5D
100
AcDbEntity
  8
0
100
AcDbVertex
100
AcDb2dVertex
 10
345.817347
 20
132.212011
 30
0.0
  0
SEQEND
  5
F5E
100
AcDbEntity
  8
0
  0
POLYLINE
  5
F5F
100
AcDbEntity
  8
0
100
AcDb2dPolyline
 66
     1
 10
0.0
 20
0.0
 30
0.0
  0
VERTEX
  5
F60
100
AcDbEntity
  8
0
100
AcDbVertex
100
AcDb2dVertex
 10
415.817347
 20
130.212011
 30
0.0
  0
VERTEX
  5
F61
100
AcDbEntity
  8
0
100
AcDbVertex
100
AcDb2dVertex
 10
415.817347
 20
134.462011
 30
0.0
  0
SEQEND
  5
F62
100
AcDbEntity
  8
0
  0
POLYLINE
  5
F63
100
AcDbEntity
  8
0
100
AcDb2dPolyline
 66
     1
 10
0.0
 20
0.0
 30
0.0
  0
VERTEX
  5
F64
100
AcDbEntity
  8
0
100
AcDbVertex
100
AcDb2dVertex
 10
410.817347
 20
130.212011
 30
0.0
  0
VERTEX
  5
F65
100
AcDbEntity
  8
0
100
AcDbVertex
100
AcDb2dVertex
 10
410.817347
 20
134.462011
 30
0.0
  0
SEQEND
  5
F66
100
AcDbEntity
  8
0
  0
LINE
  5
F67
100
AcDbEntity
  8
0
100
AcDbLine
 10
410.817347
 20
134.462011
 30
0.0
 11
410.817347
 21
130.212011
 31
0.0
  0
POLYLINE
  5
F68
100
AcDbEntity
  8
0
100
AcDb2dPolyline
 66
     1
 10
0.0
 20
0.0
 30
0.0
  0
VERTEX
  5
F69
100
AcDbEntity
  8
0
100
AcDbVertex
100
AcDb2dVertex
 10
408.817347
 20
130.212011
 30
0.0
  0
VERTEX
  5
F6A
100
AcDbEntity
  8
0
100
AcDbVertex
100
AcDb2dVertex
 10
408.817347
 20
136.212011
 30
0.0
  0
SEQEND
  5
F6B
100
AcDbEntity
  8
0
  0
ARC
  5
F6C
100
AcDbEntity
  8
0
100
AcDbCircle
 10
415.752353
 20
130.212011
 30
0.0
 40
35.935006
100
AcDbArc
 50
173.542534
 51
186.457466
  0
ARC
  5
F6D
100
AcDbEntity
  8
0
100
AcDbCircle
 10
347.882342
 20
130.212011
 30
0.0
 40
35.935006
100
AcDbArc
 50
353.542534
 51
6.457466
  0
LINE
  5
F6E
100
AcDbEntity
  8
0
100
AcDbLine
 10
383.817347
 20
124.149833
 30
0.0
 11
383.817347
 21
136.274189
 31
0.0
  0
LINE
  5
F6F
100
AcDbEntity
  8
0
100
AcDbLine
 10
379.817347
 20
122.812011
 30
0.0
 11
379.817347
 21
137.612011
 31
0.0
  0
POLYLINE
  5
F70
100
AcDbEntity
  8
0
100
AcDb2dPolyline
 66
     1
 10
0.0
 20
0.0
 30
0.0
  0
VERTEX
  5
F71
100
AcDbEntity
  8
0
100
AcDbVertex
100
AcDb2dVertex
 10
367.567347
 20
136.212011
 30
0.0
  0
VERTEX
  5
F72
100
AcDbEntity
  8
0
100
AcDbVertex
100
AcDb2dVertex
 10
367.567347
 20
130.212011
 30
0.0
  0
SEQEND
  5
F73
100
AcDbEntity
  8
0
  0
POLYLINE
  5
F74
100
AcDbEntity
  8
0
100
AcDb2dPolyline
 66
     1
 10
0.0
 20
0.0
 30
0.0
  0
VERTEX
  5
F75
100
AcDbEntity
  8
0
100
AcDbVertex
100
AcDb2dVertex
 10
364.317347
 20
135.462011
 30
0.0
  0
VERTEX
  5
F76
100
AcDbEntity
  8
0
100
AcDbVertex
100
AcDb2dVertex
 10
364.317347
 20
130.212011
 30
0.0
  0
SEQEND
  5
F77
100
AcDbEntity
  8
0
  0
POLYLINE
  5
F78
100
AcDbEntity
  8
0
100
AcDb2dPolyline
 66
     1
 10
0.0
 20
0.0
 30
0.0
  0
VERTEX
  5
F79
100
AcDbEntity
  8
0
100
AcDbVertex
100
AcDb2dVertex
 10
366.817347
 20
135.462011
 30
0.0
  0
VERTEX
  5
F7A
100
AcDbEntity
  8
0
100
AcDbVertex
100
AcDb2dVertex
 10
366.817347
 20
130.212011
 30
0.0
  0
SEQEND
  5
F7B
100
AcDbEntity
  8
0
  0
POLYLINE
  5
F7C
100
AcDbEntity
  8
0
100
AcDb2dPolyline
 66
     1
 10
0.0
 20
0.0
 30
0.0
  0
VERTEX
  5
F7D
100
AcDbEntity
  8
0
100
AcDbVertex
100
AcDb2dVertex
 10
363.817347
 20
130.212011
 30
0.0
  0
VERTEX
  5
F7E
100
AcDbEntity
  8
0
100
AcDbVertex
100
AcDb2dVertex
 10
363.817347
 20
134.962011
 30
0.0
  0
VERTEX
  5
F7F
100
AcDbEntity
  8
0
100
AcDbVertex
100
AcDb2dVertex
 10
364.317347
 20
135.462011
 30
0.0
  0
VERTEX
  5
F80
100
AcDbEntity
  8
0
100
AcDbVertex
100
AcDb2dVertex
 10
366.817347
 20
135.462011
 30
0.0
  0
SEQEND
  5
F81
100
AcDbEntity
  8
0
  0
POLYLINE
  5
F82
100
AcDbEntity
  8
0
100
AcDb2dPolyline
 66
     1
 10
0.0
 20
0.0
 30
0.0
  0
VERTEX
  5
F83
100
AcDbEntity
  8
0
100
AcDbVertex
100
AcDb2dVertex
 10
365.817347
 20
130.212011
 30
0.0
  0
VERTEX
  5
F84
100
AcDbEntity
  8
0
100
AcDbVertex
100
AcDb2dVertex
 10
365.817347
 20
135.462011
 30
0.0
  0
SEQEND
  5
F85
100
AcDbEntity
  8
0
  0
POLYLINE
  5
F86
100
AcDbEntity
  8
0
100
AcDb2dPolyline
 66
     1
 10
0.0
 20
0.0
 30
0.0
  0
VERTEX
  5
F87
100
AcDbEntity
  8
0
100
AcDbVertex
100
AcDb2dVertex
 10
353.817347
 20
130.212011
 30
0.0
  0
VERTEX
  5
F88
100
AcDbEntity
  8
0
100
AcDbVertex
100
AcDb2dVertex
 10
353.817347
 20
134.012011
 30
0.0
  0
SEQEND
  5
F89
100
AcDbEntity
  8
0
  0
LINE
  5
F8A
100
AcDbEntity
  8
0
100
AcDbLine
 10
408.817347
 20
124.212011
 30
0.0
 11
383.817347
 21
124.212011
 31
0.0
  0
LINE
  5
F8B
100
AcDbEntity
  8
5
100
AcDbLine
 10
409.503062
 20
124.812011
 30
0.0
 11
383.817347
 21
124.812011
 31
0.0
  0
POLYLINE
  5
F8C
100
AcDbEntity
  8
0
100
AcDb2dPolyline
 66
     1
 10
0.0
 20
0.0
 30
0.0
  0
VERTEX
  5
F8D
100
AcDbEntity
  8
0
100
AcDbVertex
100
AcDb2dVertex
 10
363.817347
 20
130.212011
 30
0.0
  0
VERTEX
  5
F8E
100
AcDbEntity
  8
0
100
AcDbVertex
100
AcDb2dVertex
 10
363.817347
 20
125.462011
 30
0.0
  0
VERTEX
  5
F8F
100
AcDbEntity
  8
0
100
AcDbVertex
100
AcDb2dVertex
 10
364.317347
 20
124.962011
 30
0.0
  0
VERTEX
  5
F90
100
AcDbEntity
  8
0
100
AcDbVertex
100
AcDb2dVertex
 10
366.817347
 20
124.962011
 30
0.0
  0
SEQEND
  5
F91
100
AcDbEntity
  8
0
  0
LINE
  5
F92
100
AcDbEntity
  8
0
100
AcDbLine
 10
363.817347
 20
128.562011
 30
0.0
 11
353.817347
 21
128.562011
 31
0.0
  0
POLYLINE
  5
F93
100
AcDbEntity
  8
0
100
AcDb2dPolyline
 66
     1
 10
0.0
 20
0.0
 30
0.0
  0
VERTEX
  5
F94
100
AcDbEntity
  8
0
100
AcDbVertex
100
AcDb2dVertex
 10
353.817347
 20
130.212011
 30
0.0
  0
VERTEX
  5
F95
100
AcDbEntity
  8
0
100
AcDbVertex
100
AcDb2dVertex
 10
353.817347
 20
126.412011
 30
0.0
  0
SEQEND
  5
F96
100
AcDbEntity
  8
0
  0
POLYLINE
  5
F97
100
AcDbEntity
  8
0
100
AcDb2dPolyline
 66
     1
 10
0.0
 20
0.0
 30
0.0
  0
VERTEX
  5
F98
100
AcDbEntity
  8
0
100
AcDbVertex
100
AcDb2dVertex
 10
365.817347
 20
130.212011
 30
0.0
  0
VERTEX
  5
F99
100
AcDbEntity
  8
0
100
AcDbVertex
100
AcDb2dVertex
 10
365.817347
 20
124.962011
 30
0.0
  0
SEQEND
  5
F9A
100
AcDbEntity
  8
0
  0
POLYLINE
  5
F9B
100
AcDbEntity
  8
0
100
AcDb2dPolyline
 66
     1
 10
0.0
 20
0.0
 30
0.0
  0
VERTEX
  5
F9C
100
AcDbEntity
  8
0
100
AcDbVertex
100
AcDb2dVertex
 10
364.317347
 20
124.962011
 30
0.0
  0
VERTEX
  5
F9D
100
AcDbEntity
  8
0
100
AcDbVertex
100
AcDb2dVertex
 10
364.317347
 20
130.212011
 30
0.0
  0
SEQEND
  5
F9E
100
AcDbEntity
  8
0
  0
LINE
  5
F9F
100
AcDbEntity
  8
0
100
AcDbLine
 10
369.817347
 20
124.212011
 30
0.0
 11
367.567347
 21
124.212011
 31
0.0
  0
LINE
  5
FA0
100
AcDbEntity
  8
5
100
AcDbLine
 10
369.817347
 20
124.812011
 30
0.0
 11
366.967347
 21
124.812011
 31
0.0
  0
POLYLINE
  5
FA1
100
AcDbEntity
  8
0
100
AcDb2dPolyline
 66
     1
 10
0.0
 20
0.0
 30
0.0
  0
VERTEX
  5
FA2
100
AcDbEntity
  8
0
100
AcDbVertex
100
AcDb2dVertex
 10
367.567347
 20
124.212011
 30
0.0
  0
VERTEX
  5
FA3
100
AcDbEntity
  8
0
100
AcDbVertex
100
AcDb2dVertex
 10
367.567347
 20
130.212011
 30
0.0
  0
SEQEND
  5
FA4
100
AcDbEntity
  8
0
  0
POLYLINE
  5
FA5
100
AcDbEntity
  8
0
100
AcDb2dPolyline
 66
     1
 10
0.0
 20
0.0
 30
0.0
  0
VERTEX
  5
FA6
100
AcDbEntity
  8
0
100
AcDbVertex
100
AcDb2dVertex
 10
366.817347
 20
124.962011
 30
0.0
  0
VERTEX
  5
FA7
100
AcDbEntity
  8
0
100
AcDbVertex
100
AcDb2dVertex
 10
366.817347
 20
130.212011
 30
0.0
  0
SEQEND
  5
FA8
100
AcDbEntity
  8
0
  0
POLYLINE
  5
FA9
100
AcDbEntity
  8
0
100
AcDb2dPolyline
 66
     1
 10
0.0
 20
0.0
 30
0.0
  0
VERTEX
  5
FAA
100
AcDbEntity
  8
0
100
AcDbVertex
100
AcDb2dVertex
 10
367.567347
 20
124.212011
 30
0.0
  0
VERTEX
  5
FAB
100
AcDbEntity
  8
0
100
AcDbVertex
100
AcDb2dVertex
 10
366.817347
 20
124.962011
 30
0.0
  0
SEQEND
  5
FAC
100
AcDbEntity
  8
0
  0
ARC
  5
FAD
100
AcDbEntity
  8
0
100
AcDbCircle
 10
374.748101
 20
124.149833
 30
0.0
 40
9.069246
100
AcDbArc
 50
347.125821
 51
12.874179
  0
ARC
  5
FAE
100
AcDbEntity
  8
0
100
AcDbCircle
 10
388.886593
 20
124.149833
 30
0.0
 40
9.069246
100
AcDbArc
 50
167.125821
 51
192.874179
  0
LINE
  5
FAF
100
AcDbEntity
  8
0
100
AcDbLine
 10
383.589362
 20
122.129107
 30
0.0
 11
380.045333
 21
122.129107
 31
0.0
  0
LINE
  5
FB0
100
AcDbEntity
  8
0
100
AcDbLine
 10
383.589362
 20
126.170559
 30
0.0
 11
380.045333
 21
126.170559
 31
0.0
  0
LINE
  5
FB1
100
AcDbEntity
  8
0
100
AcDbLine
 10
415.817347
 20
125.962011
 30
0.0
 11
410.817347
 21
125.962011
 31
0.0
  0
POLYLINE
  5
FB2
100
AcDbEntity
  8
0
100
AcDb2dPolyline
 66
     1
 10
0.0
 20
0.0
 30
0.0
  0
VERTEX
  5
FB3
100
AcDbEntity
  8
0
100
AcDbVertex
100
AcDb2dVertex
 10
408.817347
 20
124.212011
 30
0.0
  0
VERTEX
  5
FB4
100
AcDbEntity
  8
0
100
AcDbVertex
100
AcDb2dVertex
 10
410.817347
 20
125.962011
 30
0.0
  0
SEQEND
  5
FB5
100
AcDbEntity
  8
0
  0
POLYLINE
  5
FB6
100
AcDbEntity
  8
0
100
AcDb2dPolyline
 66
     1
 10
0.0
 20
0.0
 30
0.0
  0
VERTEX
  5
FB7
100
AcDbEntity
  8
0
100
AcDbVertex
100
AcDb2dVertex
 10
408.817347
 20
130.212011
 30
0.0
  0
VERTEX
  5
FB8
100
AcDbEntity
  8
0
100
AcDbVertex
100
AcDb2dVertex
 10
408.817347
 20
124.212011
 30
0.0
  0
SEQEND
  5
FB9
100
AcDbEntity
  8
0
  0
LINE
  5
FBA
100
AcDbEntity
  8
0
100
AcDbLine
 10
410.817347
 20
125.962011
 30
0.0
 11
410.817347
 21
130.212011
 31
0.0
  0
POLYLINE
  5
FBB
100
AcDbEntity
  8
0
100
AcDb2dPolyline
 66
     1
 10
0.0
 20
0.0
 30
0.0
  0
VERTEX
  5
FBC
100
AcDbEntity
  8
0
100
AcDbVertex
100
AcDb2dVertex
 10
410.817347
 20
130.212011
 30
0.0
  0
VERTEX
  5
FBD
100
AcDbEntity
  8
0
100
AcDbVertex
100
AcDb2dVertex
 10
410.817347
 20
125.962011
 30
0.0
  0
SEQEND
  5
FBE
100
AcDbEntity
  8
0
  0
POLYLINE
  5
FBF
100
AcDbEntity
  8
0
100
AcDb2dPolyline
 66
     1
 10
0.0
 20
0.0
 30
0.0
  0
VERTEX
  5
FC0
100
AcDbEntity
  8
0
100
AcDbVertex
100
AcDb2dVertex
 10
415.817347
 20
130.212011
 30
0.0
  0
VERTEX
  5
FC1
100
AcDbEntity
  8
0
100
AcDbVertex
100
AcDb2dVertex
 10
415.817347
 20
125.962011
 30
0.0
  0
SEQEND
  5
FC2
100
AcDbEntity
  8
0
  0
LINE
  5
FC3
100
AcDbEntity
  8
0
100
AcDbLine
 10
408.817347
 20
136.212011
 30
0.0
 11
383.817347
 21
136.212011
 31
0.0
  0
LINE
  5
FC4
100
AcDbEntity
  8
5
100
AcDbLine
 10
409.503062
 20
135.612011
 30
0.0
 11
383.817347
 21
135.612011
 31
0.0
  0
LINE
  5
FC5
100
AcDbEntity
  8
0
100
AcDbLine
 10
363.817347
 20
131.862011
 30
0.0
 11
353.817347
 21
131.862011
 31
0.0
  0
LINE
  5
FC6
100
AcDbEntity
  8
0
100
AcDbLine
 10
369.817347
 20
136.212011
 30
0.0
 11
367.567347
 21
136.212011
 31
0.0
  0
LINE
  5
FC7
100
AcDbEntity
  8
5
100
AcDbLine
 10
369.817347
 20
135.612011
 30
0.0
 11
366.967347
 21
135.612011
 31
0.0
  0
POLYLINE
  5
FC8
100
AcDbEntity
  8
0
100
AcDb2dPolyline
 66
     1
 10
0.0
 20
0.0
 30
0.0
  0
VERTEX
  5
FC9
100
AcDbEntity
  8
0
100
AcDbVertex
100
AcDb2dVertex
 10
367.567347
 20
136.212011
 30
0.0
  0
VERTEX
  5
FCA
100
AcDbEntity
  8
0
100
AcDbVertex
100
AcDb2dVertex
 10
366.817347
 20
135.462011
 30
0.0
  0
SEQEND
  5
FCB
100
AcDbEntity
  8
0
  0
ARC
  5
FCC
100
AcDbEntity
  8
0
100
AcDbCircle
 10
374.748101
 20
136.274189
 30
0.0
 40
9.069246
100
AcDbArc
 50
347.125821
 51
12.874179
  0
ARC
  5
FCD
100
AcDbEntity
  8
0
100
AcDbCircle
 10
388.886593
 20
136.274189
 30
0.0
 40
9.069246
100
AcDbArc
 50
167.125821
 51
192.874179
  0
LINE
  5
FCE
100
AcDbEntity
  8
0
100
AcDbLine
 10
383.589362
 20
134.253463
 30
0.0
 11
380.045333
 21
134.253463
 31
0.0
  0
LINE
  5
FCF
100
AcDbEntity
  8
0
100
AcDbLine
 10
379.817347
 20
136.272142
 30
0.0
 11
379.757217
 21
136.212011
 31
0.0
  0
LINE
  5
FD0
100
AcDbEntity
  8
0
100
AcDbLine
 10
383.589362
 20
138.294915
 30
0.0
 11
380.045333
 21
138.294915
 31
0.0
  0
LINE
  5
FD1
100
AcDbEntity
  8
0
100
AcDbLine
 10
415.817347
 20
134.462011
 30
0.0
 11
410.817347
 21
134.462011
 31
0.0
  0
POLYLINE
  5
FD2
100
AcDbEntity
  8
0
100
AcDb2dPolyline
 66
     1
 10
0.0
 20
0.0
 30
0.0
  0
VERTEX
  5
FD3
100
AcDbEntity
  8
0
100
AcDbVertex
100
AcDb2dVertex
 10
408.817347
 20
136.212011
 30
0.0
  0
VERTEX
  5
FD4
100
AcDbEntity
  8
0
100
AcDbVertex
100
AcDb2dVertex
 10
410.817347
 20
134.462011
 30
0.0
  0
SEQEND
  5
FD5
100
AcDbEntity
  8
0
  0
POLYLINE
  5
FD7
100
AcDbEntity
  8
0
100
AcDb2dPolyline
 66
     1
 10
0.0
 20
0.0
 30
0.0
  0
VERTEX
  5
FD8
100
AcDbEntity
  8
0
100
AcDbVertex
100
AcDb2dVertex
 10
346.317347
 20
255.404769
 30
0.0
  0
VERTEX
  5
FD9
100
AcDbEntity
  8
0
100
AcDbVertex
100
AcDb2dVertex
 10
346.317347
 20
258.704769
 30
0.0
  0
VERTEX
  5
FDA
100
AcDbEntity
  8
0
100
AcDbVertex
100
AcDb2dVertex
 10
346.817347
 20
259.204769
 30
0.0
  0
VERTEX
  5
FDB
100
AcDbEntity
  8
0
100
AcDbVertex
100
AcDb2dVertex
 10
353.817347
 20
259.204769
 30
0.0
  0
SEQEND
  5
FDC
100
AcDbEntity
  8
0
  0
POLYLINE
  5
FDD
100
AcDbEntity
  8
0
100
AcDb2dPolyline
 66
     1
 10
0.0
 20
0.0
 30
0.0
  0
VERTEX
  5
FDE
100
AcDbEntity
  8
0
100
AcDbVertex
100
AcDb2dVertex
 10
346.317347
 20
255.404769
 30
0.0
  0
VERTEX
  5
FDF
100
AcDbEntity
  8
0
100
AcDbVertex
100
AcDb2dVertex
 10
346.317347
 20
252.104769
 30
0.0
  0
VERTEX
  5
FE0
100
AcDbEntity
  8
0
100
AcDbVertex
100
AcDb2dVertex
 10
346.817347
 20
251.604769
 30
0.0
  0
VERTEX
  5
FE1
100
AcDbEntity
  8
0
100
AcDbVertex
100
AcDb2dVertex
 10
353.817347
 20
251.604769
 30
0.0
  0
SEQEND
  5
FE2
100
AcDbEntity
  8
0
  0
POLYLINE
  5
FE3
100
AcDbEntity
  8
0
100
AcDb2dPolyline
 66
     1
 10
0.0
 20
0.0
 30
0.0
  0
VERTEX
  5
FE4
100
AcDbEntity
  8
0
100
AcDbVertex
100
AcDb2dVertex
 10
345.817347
 20
255.404769
 30
0.0
  0
VERTEX
  5
FE5
100
AcDbEntity
  8
0
100
AcDbVertex
100
AcDb2dVertex
 10
345.817347
 20
253.404769
 30
0.0
  0
SEQEND
  5
FE6
100
AcDbEntity
  8
0
  0
POLYLINE
  5
FE7
100
AcDbEntity
  8
0
100
AcDb2dPolyline
 66
     1
 10
0.0
 20
0.0
 30
0.0
  0
VERTEX
  5
FE8
100
AcDbEntity
  8
0
100
AcDbVertex
100
AcDb2dVertex
 10
346.817347
 20
251.604769
 30
0.0
  0
VERTEX
  5
FE9
100
AcDbEntity
  8
0
100
AcDbVertex
100
AcDb2dVertex
 10
346.817347
 20
255.404769
 30
0.0
  0
SEQEND
  5
FEA
100
AcDbEntity
  8
0
  0
POLYLINE
  5
FEB
100
AcDbEntity
  8
0
100
AcDb2dPolyline
 66
     1
 10
0.0
 20
0.0
 30
0.0
  0
VERTEX
  5
FEC
100
AcDbEntity
  8
0
100
AcDbVertex
100
AcDb2dVertex
 10
346.317347
 20
252.904769
 30
0.0
  0
VERTEX
  5
FED
100
AcDbEntity
  8
0
100
AcDbVertex
100
AcDb2dVertex
 10
345.817347
 20
253.404769
 30
0.0
  0
SEQEND
  5
FEE
100
AcDbEntity
  8
0
  0
POLYLINE
  5
FEF
100
AcDbEntity
  8
0
100
AcDb2dPolyline
 66
     1
 10
0.0
 20
0.0
 30
0.0
  0
VERTEX
  5
FF0
100
AcDbEntity
  8
0
100
AcDbVertex
100
AcDb2dVertex
 10
346.317347
 20
257.904769
 30
0.0
  0
VERTEX
  5
FF1
100
AcDbEntity
  8
0
100
AcDbVertex
100
AcDb2dVertex
 10
345.817347
 20
257.404769
 30
0.0
  0
SEQEND
  5
FF2
100
AcDbEntity
  8
0
  0
POLYLINE
  5
FF3
100
AcDbEntity
  8
0
100
AcDb2dPolyline
 66
     1
 10
0.0
 20
0.0
 30
0.0
  0
VERTEX
  5
FF4
100
AcDbEntity
  8
0
100
AcDbVertex
100
AcDb2dVertex
 10
345.817347
 20
255.404769
 30
0.0
  0
VERTEX
  5
FF5
100
AcDbEntity
  8
0
100
AcDbVertex
100
AcDb2dVertex
 10
345.817347
 20
257.404769
 30
0.0
  0
SEQEND
  5
FF6
100
AcDbEntity
  8
0
  0
POLYLINE
  5
FF7
100
AcDbEntity
  8
0
100
AcDb2dPolyline
 66
     1
 10
0.0
 20
0.0
 30
0.0
  0
VERTEX
  5
FF8
100
AcDbEntity
  8
0
100
AcDbVertex
100
AcDb2dVertex
 10
346.817347
 20
259.204769
 30
0.0
  0
VERTEX
  5
FF9
100
AcDbEntity
  8
0
100
AcDbVertex
100
AcDb2dVertex
 10
346.817347
 20
255.404769
 30
0.0
  0
SEQEND
  5
FFA
100
AcDbEntity
  8
0
  0
POLYLINE
  5
FFB
100
AcDbEntity
  8
0
100
AcDb2dPolyline
 66
     1
 10
0.0
 20
0.0
 30
0.0
  0
VERTEX
  5
FFC
100
AcDbEntity
  8
0
100
AcDbVertex
100
AcDb2dVertex
 10
366.817347
 20
250.154769
 30
0.0
  0
VERTEX
  5
FFD
100
AcDbEntity
  8
0
100
AcDbVertex
100
AcDb2dVertex
 10
366.817347
 20
255.404769
 30
0.0
  0
SEQEND
  5
FFE
100
AcDbEntity
  8
0
  0
POLYLINE
  5
FFF
100
AcDbEntity
  8
0
100
AcDb2dPolyline
 66
     1
 10
0.0
 20
0.0
 30
0.0
  0
VERTEX
  5
1000
100
AcDbEntity
  8
0
100
AcDbVertex
100
AcDb2dVertex
 10
367.567347
 20
249.404769
 30
0.0
  0
VERTEX
  5
1001
100
AcDbEntity
  8
0
100
AcDbVertex
100
AcDb2dVertex
 10
367.567347
 20
255.404769
 30
0.0
  0
SEQEND
  5
1002
100
AcDbEntity
  8
0
  0
POLYLINE
  5
1003
100
AcDbEntity
  8
0
100
AcDb2dPolyline
 66
     1
 10
0.0
 20
0.0
 30
0.0
  0
VERTEX
  5
1004
100
AcDbEntity
  8
0
100
AcDbVertex
100
AcDb2dVertex
 10
364.317347
 20
250.154769
 30
0.0
  0
VERTEX
  5
1005
100
AcDbEntity
  8
0
100
AcDbVertex
100
AcDb2dVertex
 10
364.317347
 20
255.404769
 30
0.0
  0
SEQEND
  5
1006
100
AcDbEntity
  8
0
  0
POLYLINE
  5
1007
100
AcDbEntity
  8
0
100
AcDb2dPolyline
 66
     1
 10
0.0
 20
0.0
 30
0.0
  0
VERTEX
  5
1008
100
AcDbEntity
  8
0
100
AcDbVertex
100
AcDb2dVertex
 10
365.817347
 20
255.404769
 30
0.0
  0
VERTEX
  5
1009
100
AcDbEntity
  8
0
100
AcDbVertex
100
AcDb2dVertex
 10
365.817347
 20
250.154769
 30
0.0
  0
SEQEND
  5
100A
100
AcDbEntity
  8
0
  0
POLYLINE
  5
100B
100
AcDbEntity
  8
0
100
AcDb2dPolyline
 66
     1
 10
0.0
 20
0.0
 30
0.0
  0
VERTEX
  5
100C
100
AcDbEntity
  8
0
100
AcDbVertex
100
AcDb2dVertex
 10
353.817347
 20
255.404769
 30
0.0
  0
VERTEX
  5
100D
100
AcDbEntity
  8
0
100
AcDbVertex
100
AcDb2dVertex
 10
353.817347
 20
251.604769
 30
0.0
  0
SEQEND
  5
100E
100
AcDbEntity
  8
0
  0
POLYLINE
  5
100F
100
AcDbEntity
  8
0
100
AcDb2dPolyline
 66
     1
 10
0.0
 20
0.0
 30
0.0
  0
VERTEX
  5
1010
100
AcDbEntity
  8
0
100
AcDbVertex
100
AcDb2dVertex
 10
363.817347
 20
255.404769
 30
0.0
  0
VERTEX
  5
1011
100
AcDbEntity
  8
0
100
AcDbVertex
100
AcDb2dVertex
 10
363.817347
 20
250.654769
 30
0.0
  0
VERTEX
  5
1012
100
AcDbEntity
  8
0
100
AcDbVertex
100
AcDb2dVertex
 10
364.317347
 20
250.154769
 30
0.0
  0
VERTEX
  5
1013
100
AcDbEntity
  8
0
100
AcDbVertex
100
AcDb2dVertex
 10
366.817347
 20
250.154769
 30
0.0
  0
SEQEND
  5
1014
100
AcDbEntity
  8
0
  0
LINE
  5
1015
100
AcDbEntity
  8
0
100
AcDbLine
 10
363.817347
 20
253.754769
 30
0.0
 11
353.817347
 21
253.754769
 31
0.0
  0
LINE
  5
1016
100
AcDbEntity
  8
0
100
AcDbLine
 10
369.817347
 20
249.404769
 30
0.0
 11
367.567347
 21
249.404769
 31
0.0
  0
LINE
  5
1017
100
AcDbEntity
  8
5
100
AcDbLine
 10
369.817347
 20
250.004769
 30
0.0
 11
366.967347
 21
250.004769
 31
0.0
  0
POLYLINE
  5
1018
100
AcDbEntity
  8
0
100
AcDb2dPolyline
 66
     1
 10
0.0
 20
0.0
 30
0.0
  0
VERTEX
  5
1019
100
AcDbEntity
  8
0
100
AcDbVertex
100
AcDb2dVertex
 10
367.567347
 20
249.404769
 30
0.0
  0
VERTEX
  5
101A
100
AcDbEntity
  8
0
100
AcDbVertex
100
AcDb2dVertex
 10
366.817347
 20
250.154769
 30
0.0
  0
SEQEND
  5
101B
100
AcDbEntity
  8
0
  0
POLYLINE
  5
101C
100
AcDbEntity
  8
0
100
AcDb2dPolyline
 66
     1
 10
0.0
 20
0.0
 30
0.0
  0
VERTEX
  5
101D
100
AcDbEntity
  8
0
100
AcDbVertex
100
AcDb2dVertex
 10
363.817347
 20
255.404769
 30
0.0
  0
VERTEX
  5
101E
100
AcDbEntity
  8
0
100
AcDbVertex
100
AcDb2dVertex
 10
363.817347
 20
260.154769
 30
0.0
  0
VERTEX
  5
101F
100
AcDbEntity
  8
0
100
AcDbVertex
100
AcDb2dVertex
 10
364.317347
 20
260.654769
 30
0.0
  0
VERTEX
  5
1020
100
AcDbEntity
  8
0
100
AcDbVertex
100
AcDb2dVertex
 10
366.817347
 20
260.654769
 30
0.0
  0
SEQEND
  5
1021
100
AcDbEntity
  8
0
  0
LINE
  5
1022
100
AcDbEntity
  8
0
100
AcDbLine
 10
363.817347
 20
257.054769
 30
0.0
 11
353.817347
 21
257.054769
 31
0.0
  0
POLYLINE
  5
1023
100
AcDbEntity
  8
0
100
AcDb2dPolyline
 66
     1
 10
0.0
 20
0.0
 30
0.0
  0
VERTEX
  5
1024
100
AcDbEntity
  8
0
100
AcDbVertex
100
AcDb2dVertex
 10
353.817347
 20
255.404769
 30
0.0
  0
VERTEX
  5
1025
100
AcDbEntity
  8
0
100
AcDbVertex
100
AcDb2dVertex
 10
353.817347
 20
259.204769
 30
0.0
  0
SEQEND
  5
1026
100
AcDbEntity
  8
0
  0
POLYLINE
  5
1027
100
AcDbEntity
  8
0
100
AcDb2dPolyline
 66
     1
 10
0.0
 20
0.0
 30
0.0
  0
VERTEX
  5
1028
100
AcDbEntity
  8
0
100
AcDbVertex
100
AcDb2dVertex
 10
365.817347
 20
255.404769
 30
0.0
  0
VERTEX
  5
1029
100
AcDbEntity
  8
0
100
AcDbVertex
100
AcDb2dVertex
 10
365.817347
 20
260.654769
 30
0.0
  0
SEQEND
  5
102A
100
AcDbEntity
  8
0
  0
POLYLINE
  5
102B
100
AcDbEntity
  8
0
100
AcDb2dPolyline
 66
     1
 10
0.0
 20
0.0
 30
0.0
  0
VERTEX
  5
102C
100
AcDbEntity
  8
0
100
AcDbVertex
100
AcDb2dVertex
 10
364.317347
 20
260.654769
 30
0.0
  0
VERTEX
  5
102D
100
AcDbEntity
  8
0
100
AcDbVertex
100
AcDb2dVertex
 10
364.317347
 20
255.404769
 30
0.0
  0
SEQEND
  5
102E
100
AcDbEntity
  8
0
  0
POLYLINE
  5
102F
100
AcDbEntity
  8
0
100
AcDb2dPolyline
 66
     1
 10
0.0
 20
0.0
 30
0.0
  0
VERTEX
  5
1030
100
AcDbEntity
  8
0
100
AcDbVertex
100
AcDb2dVertex
 10
366.817347
 20
260.654769
 30
0.0
  0
VERTEX
  5
1031
100
AcDbEntity
  8
0
100
AcDbVertex
100
AcDb2dVertex
 10
366.817347
 20
255.404769
 30
0.0
  0
SEQEND
  5
1032
100
AcDbEntity
  8
0
  0
POLYLINE
  5
1033
100
AcDbEntity
  8
0
100
AcDb2dPolyline
 66
     1
 10
0.0
 20
0.0
 30
0.0
  0
VERTEX
  5
1034
100
AcDbEntity
  8
0
100
AcDbVertex
100
AcDb2dVertex
 10
367.567347
 20
261.404769
 30
0.0
  0
VERTEX
  5
1035
100
AcDbEntity
  8
0
100
AcDbVertex
100
AcDb2dVertex
 10
367.567347
 20
255.404769
 30
0.0
  0
SEQEND
  5
1036
100
AcDbEntity
  8
0
  0
LINE
  5
1037
100
AcDbEntity
  8
5
100
AcDbLine
 10
369.817347
 20
260.804769
 30
0.0
 11
366.967347
 21
260.804769
 31
0.0
  0
LINE
  5
1038
100
AcDbEntity
  8
0
100
AcDbLine
 10
369.817347
 20
261.404769
 30
0.0
 11
367.567347
 21
261.404769
 31
0.0
  0
POLYLINE
  5
1039
100
AcDbEntity
  8
0
100
AcDb2dPolyline
 66
     1
 10
0.0
 20
0.0
 30
0.0
  0
VERTEX
  5
103A
100
AcDbEntity
  8
0
100
AcDbVertex
100
AcDb2dVertex
 10
367.567347
 20
261.404769
 30
0.0
  0
VERTEX
  5
103B
100
AcDbEntity
  8
0
100
AcDbVertex
100
AcDb2dVertex
 10
366.817347
 20
260.654769
 30
0.0
  0
SEQEND
  5
103C
100
AcDbEntity
  8
0
  0
POLYLINE
  5
1046
100
AcDbEntity
  8
0
100
AcDb2dPolyline
 66
     1
 10
0.0
 20
0.0
 30
0.0
  0
VERTEX
  5
1047
100
AcDbEntity
  8
0
100
AcDbVertex
100
AcDb2dVertex
 10
408.817347
 20
255.404769
 30
0.0
  0
VERTEX
  5
1048
100
AcDbEntity
  8
0
100
AcDbVertex
100
AcDb2dVertex
 10
408.817347
 20
249.404769
 30
0.0
  0
SEQEND
  5
1049
100
AcDbEntity
  8
0
  0
LINE
  5
104A
100
AcDbEntity
  8
0
100
AcDbLine
 10
379.817347
 20
248.004769
 30
0.0
 11
379.817347
 21
262.804769
 31
0.0
  0
LINE
  5
104B
100
AcDbEntity
  8
0
100
AcDbLine
 10
383.817347
 20
249.342591
 30
0.0
 11
383.817347
 21
261.466947
 31
0.0
  0
ARC
  5
104C
100
AcDbEntity
  8
0
100
AcDbCircle
 10
347.882342
 20
255.404769
 30
0.0
 40
35.935006
100
AcDbArc
 50
353.542534
 51
6.457466
  0
ARC
  5
104D
100
AcDbEntity
  8
0
100
AcDbCircle
 10
415.752353
 20
255.404769
 30
0.0
 40
35.935006
100
AcDbArc
 50
173.542534
 51
186.457466
  0
LINE
  5
104E
100
AcDbEntity
  8
5
100
AcDbLine
 10
409.503062
 20
250.004769
 30
0.0
 11
383.817347
 21
250.004769
 31
0.0
  0
LINE
  5
104F
100
AcDbEntity
  8
0
100
AcDbLine
 10
408.817347
 20
249.404769
 30
0.0
 11
383.817347
 21
249.404769
 31
0.0
  0
ARC
  5
1050
100
AcDbEntity
  8
0
100
AcDbCircle
 10
388.886593
 20
249.342591
 30
0.0
 40
9.069246
100
AcDbArc
 50
167.125821
 51
192.874179
  0
ARC
  5
1051
100
AcDbEntity
  8
0
100
AcDbCircle
 10
374.748101
 20
249.342591
 30
0.0
 40
9.069246
100
AcDbArc
 50
347.125821
 51
12.874179
  0
LINE
  5
1052
100
AcDbEntity
  8
0
100
AcDbLine
 10
383.589362
 20
247.321865
 30
0.0
 11
380.045333
 21
247.321865
 31
0.0
  0
LINE
  5
1053
100
AcDbEntity
  8
0
100
AcDbLine
 10
383.589362
 20
251.363317
 30
0.0
 11
380.045333
 21
251.363317
 31
0.0
  0
LINE
  5
1054
100
AcDbEntity
  8
0
100
AcDbLine
 10
415.817347
 20
251.154769
 30
0.0
 11
410.817347
 21
251.154769
 31
0.0
  0
POLYLINE
  5
1055
100
AcDbEntity
  8
0
100
AcDb2dPolyline
 66
     1
 10
0.0
 20
0.0
 30
0.0
  0
VERTEX
  5
1056
100
AcDbEntity
  8
0
100
AcDbVertex
100
AcDb2dVertex
 10
408.817347
 20
249.404769
 30
0.0
  0
VERTEX
  5
1057
100
AcDbEntity
  8
0
100
AcDbVertex
100
AcDb2dVertex
 10
410.817347
 20
251.154769
 30
0.0
  0
SEQEND
  5
1058
100
AcDbEntity
  8
0
  0
LINE
  5
1059
100
AcDbEntity
  8
5
100
AcDbLine
 10
409.503062
 20
260.804769
 30
0.0
 11
383.817347
 21
260.804769
 31
0.0
  0
LINE
  5
105A
100
AcDbEntity
  8
0
100
AcDbLine
 10
408.817347
 20
261.404769
 30
0.0
 11
383.817347
 21
261.404769
 31
0.0
  0
ARC
  5
105B
100
AcDbEntity
  8
0
100
AcDbCircle
 10
388.886593
 20
261.466947
 30
0.0
 40
9.069246
100
AcDbArc
 50
167.125821
 51
192.874179
  0
ARC
  5
105C
100
AcDbEntity
  8
0
100
AcDbCircle
 10
374.748101
 20
261.466947
 30
0.0
 40
9.069246
100
AcDbArc
 50
347.125821
 51
12.874179
  0
LINE
  5
105D
100
AcDbEntity
  8
0
100
AcDbLine
 10
383.589362
 20
259.446221
 30
0.0
 11
380.045333
 21
259.446221
 31
0.0
  0
LINE
  5
105E
100
AcDbEntity
  8
0
100
AcDbLine
 10
383.589362
 20
263.487673
 30
0.0
 11
380.045333
 21
263.487673
 31
0.0
  0
LINE
  5
1060
100
AcDbEntity
  8
0
100
AcDbLine
 10
415.817347
 20
259.654769
 30
0.0
 11
410.817347
 21
259.654769
 31
0.0
  0
POLYLINE
  5
1061
100
AcDbEntity
  8
0
100
AcDb2dPolyline
 66
     1
 10
0.0
 20
0.0
 30
0.0
  0
VERTEX
  5
1062
100
AcDbEntity
  8
0
100
AcDbVertex
100
AcDb2dVertex
 10
408.817347
 20
261.404769
 30
0.0
  0
VERTEX
  5
1063
100
AcDbEntity
  8
0
100
AcDbVertex
100
AcDb2dVertex
 10
410.817347
 20
259.654769
 30
0.0
  0
SEQEND
  5
1064
100
AcDbEntity
  8
0
  0
POLYLINE
  5
1065
100
AcDbEntity
  8
0
100
AcDb2dPolyline
 66
     1
 10
0.0
 20
0.0
 30
0.0
  0
VERTEX
  5
1066
100
AcDbEntity
  8
0
100
AcDbVertex
100
AcDb2dVertex
 10
408.817347
 20
255.404769
 30
0.0
  0
VERTEX
  5
1067
100
AcDbEntity
  8
0
100
AcDbVertex
100
AcDb2dVertex
 10
408.817347
 20
261.404769
 30
0.0
  0
SEQEND
  5
1068
100
AcDbEntity
  8
0
  0
POLYLINE
  5
106E
100
AcDbEntity
  8
0
100
AcDb2dPolyline
 66
     1
 10
0.0
 20
0.0
 30
0.0
  0
VERTEX
  5
106F
100
AcDbEntity
  8
0
100
AcDbVertex
100
AcDb2dVertex
 10
415.817347
 20
251.154769
 30
0.0
  0
VERTEX
  5
1070
100
AcDbEntity
  8
0
100
AcDbVertex
100
AcDb2dVertex
 10
415.817347
 20
259.654769
 30
0.0
  0
SEQEND
  5
1071
100
AcDbEntity
  8
0
  0
LINE
  5
1083
100
AcDbEntity
  8
0
100
AcDbLine
 10
258.197347
 20
249.631269
 30
0.0
 11
255.637347
 21
249.631269
 31
0.0
  0
LINE
  5
1084
100
AcDbEntity
  8
0
100
AcDbLine
 10
255.637347
 20
252.518019
 30
0.0
 11
258.197347
 21
252.518019
 31
0.0
  0
LINE
  5
1085
100
AcDbEntity
  8
0
100
AcDbLine
 10
258.197347
 20
258.291519
 30
0.0
 11
255.637347
 21
258.291519
 31
0.0
  0
LINE
  5
1086
100
AcDbEntity
  8
0
100
AcDbLine
 10
255.637347
 20
261.178269
 30
0.0
 11
258.197347
 21
261.178269
 31
0.0
  0
LINE
  5
1087
100
AcDbEntity
  8
0
100
AcDbLine
 10
258.517347
 20
259.734894
 30
0.0
 11
258.517347
 21
251.074644
 31
0.0
  0
ARC
  5
1088
100
AcDbEntity
  8
0
100
AcDbCircle
 10
255.102142
 20
259.734894
 30
0.0
 40
3.415205
100
AcDbArc
 50
334.999132
 51
25.000868
  0
ARC
  5
1089
100
AcDbEntity
  8
0
100
AcDbCircle
 10
255.102142
 20
251.074644
 30
0.0
 40
3.415205
100
AcDbArc
 50
334.999132
 51
25.000868
  0
ARC
  5
108A
100
AcDbEntity
  8
0
100
AcDbCircle
 10
245.336526
 20
255.404769
 30
0.0
 40
13.180821
100
AcDbArc
 50
347.349026
 51
12.650974
  0
ARC
  5
108B
100
AcDbEntity
  8
0
100
AcDbCircle
 10
268.498168
 20
255.404769
 30
0.0
 40
13.180821
100
AcDbArc
 50
167.349026
 51
192.650974
  0
ARC
  5
108C
100
AcDbEntity
  8
0
100
AcDbCircle
 10
258.732552
 20
251.074644
 30
0.0
 40
3.415205
100
AcDbArc
 50
154.999132
 51
205.000868
  0
ARC
  5
108D
100
AcDbEntity
  8
0
100
AcDbCircle
 10
258.732552
 20
259.734894
 30
0.0
 40
3.415205
100
AcDbArc
 50
154.999132
 51
205.000868
  0
LINE
  5
108E
100
AcDbEntity
  8
0
100
AcDbLine
 10
255.317347
 20
259.734894
 30
0.0
 11
255.317347
 21
251.074644
 31
0.0
  0
LINE
  5
1093
100
AcDbEntity
  8
0
100
AcDbLine
 10
260.642347
 20
255.404769
 30
0.0
 11
263.870765
 21
255.404769
 31
0.0
  0
LINE
  5
1094
100
AcDbEntity
  8
0
100
AcDbLine
 10
264.317347
 20
260.604769
 30
0.0
 11
264.317347
 21
255.404769
 31
0.0
  0
LINE
  5
1095
100
AcDbEntity
  8
0
100
AcDbLine
 10
264.317347
 20
255.404769
 30
0.0
 11
264.317347
 21
250.604769
 31
0.0
  0
SPLINE
  5
1096
100
AcDbEntity
  8
0
100
AcDbSpline
210
0.0
220
0.0
230
1.0
 70
     8
 71
     3
 72
     9
 73
     5
 74
     3
 42
0.0000001
 43
0.0000001
 44
0.0000000001
 40
0.0
 40
0.0
 40
0.0
 40
0.0
 40
2.638074197488855
 40
5.27614839497772
 40
5.27614839497772
 40
5.27614839497772
 40
5.27614839497772
 10
263.8707654093185
 20
260.6047691995247
 30
0.0
 10
264.0940564030111
 20
259.7381025328581
 30
0.0
 10
264.5406383903964
 20
258.0047691995248
 30
0.0
 10
264.0940564030111
 20
256.2714358661916
 30
0.0
 10
263.8707654093184
 20
255.4047691995249
 30
0.0
 11
263.8707654093185
 21
260.6047691995247
 31
0.0
 11
264.3173473967037
 21
258.0047691995248
 31
0.0
 11
263.8707654093184
 21
255.4047691995249
 31
0.0
  0
SPLINE
  5
1097
100
AcDbEntity
  8
0
100
AcDbSpline
210
0.0
220
0.0
230
1.0
 70
     8
 71
     3
 72
     9
 73
     5
 74
     3
 42
0.0000001
 43
0.0000001
 44
0.0000000001
 40
0.0
 40
0.0
 40
0.0
 40
0.0
 40
2.441195500458185
 40
4.882391000916399
 40
4.882391000916399
 40
4.882391000916399
 40
4.882391000916399
 10
263.8707654093184
 20
255.4047691995249
 30
0.0
 10
264.0940564030111
 20
254.6047691995248
 30
0.0
 10
264.5406383903964
 20
253.0047691995248
 30
0.0
 10
264.0940564030111
 20
251.4047691995248
 30
0.0
 10
263.8707654093184
 20
250.6047691995247
 30
0.0
 11
263.8707654093184
 21
255.4047691995249
 31
0.0
 11
264.3173473967037
 21
253.0047691995248
 31
0.0
 11
263.8707654093184
 21
250.6047691995247
 31
0.0
  0
LINE
  5
1126
100
AcDbEntity
  8
0
 48
2.0
100
AcDbLine
 10
411.317347
 20
261.904769
 30
0.0
 11
419.817347
 21
261.904769
 31
0.0
1001
ACAD
1000
RTLwPs
1070
   128
  0
LINE
  5
1127
100
AcDbEntity
  8
0
 48
2.0
100
AcDbLine
 10
419.817347
 20
250.904769
 30
0.0
 11
411.317347
 21
250.904769
 31
0.0
1001
ACAD
1000
RTLwPs
1070
   128
  0
LINE
  5
1129
100
AcDbEntity
  8
0
 48
2.0
100
AcDbLine
 10
419.817347
 20
250.904769
 30
0.0
 11
419.817347
 21
261.904769
 31
0.0
1001
ACAD
1000
RTLwPs
1070
   128
  0
LINE
  5
112B
100
AcDbEntity
  8
0
 48
2.0
100
AcDbLine
 10
411.317347
 20
259.654769
 30
0.0
 11
411.317347
 21
261.904769
 31
0.0
1001
ACAD
1000
RTLwPs
1070
   128
  0
LINE
  5
112C
100
AcDbEntity
  8
0
 48
2.0
100
AcDbLine
 10
410.817347
 20
251.154769
 30
0.0
 11
410.817347
 21
259.654769
 31
0.0
1001
ACAD
1000
RTLwPs
1070
   128
  0
LINE
  5
1137
100
AcDbEntity
  8
0
100
AcDbLine
 10
258.007789
 20
116.712011
 30
0.0
 11
255.826906
 21
116.712011
 31
0.0
1001
ACAD
1000
RTLwPs
1070
   128
  0
LINE
  5
1138
100
AcDbEntity
  8
0
100
AcDbLine
 10
258.007789
 20
111.712011
 30
0.0
 11
255.826906
 21
111.712011
 31
0.0
1001
ACAD
1000
RTLwPs
1070
   128
  0
LINE
  5
1139
100
AcDbEntity
  8
0
100
AcDbLine
 10
258.007789
 20
106.712011
 30
0.0
 11
255.826906
 21
106.712011
 31
0.0
1001
ACAD
1000
RTLwPs
1070
   128
  0
ARC
  5
113A
100
AcDbEntity
  8
0
100
AcDbCircle
 10
246.907692
 20
114.212011
 30
0.0
 40
11.378144
100
AcDbArc
 50
347.307442
 51
12.692558
1001
ACAD
1000
RTLwPs
1070
   128
  0
ARC
  5
113B
100
AcDbEntity
  8
0
100
AcDbCircle
 10
254.023371
 20
111.597446
 30
0.0
 40
10.294614
100
AcDbArc
 50
0.637635
 51
16.950318
1001
ACAD
1000
RTLwPs
1070
   128
  0
LINE
  5
113C
100
AcDbEntity
  8
0
100
AcDbLine
 10
258.517347
 20
116.085514
 30
0.0
 11
258.517347
 21
107.338508
 31
0.0
1001
ACAD
1000
RTLwPs
1070
   128
  0
LINE
  5
113D
100
AcDbEntity
  8
0
100
AcDbLine
 10
260.642347
 20
114.598762
 30
0.0
 11
260.642347
 21
108.82526
 31
0.0
1001
ACAD
1000
RTLwPs
1070
   128
  0
LINE
  5
113E
100
AcDbEntity
  8
0
100
AcDbLine
 10
260.317347
 20
107.272011
 30
0.0
 11
260.317347
 21
116.152011
 31
0.0
1001
ACAD
1000
RTLwPs
1070
   128
  0
LINE
  5
113F
100
AcDbEntity
  8
0
100
AcDbLine
 10
263.870765
 20
105.938508
 30
0.0
 11
260.642347
 21
105.938508
 31
0.0
1001
ACAD
1000
RTLwPs
1070
   128
  0
LINE
  5
1140
100
AcDbEntity
  8
0
100
AcDbLine
 10
263.870765
 20
108.82526
 30
0.0
 11
260.642347
 21
108.82526
 31
0.0
1001
ACAD
1000
RTLwPs
1070
   128
  0
ARC
  5
1141
100
AcDbEntity
  8
0
100
AcDbCircle
 10
261.491671
 20
107.298391
 30
0.0
 40
2.82691
100
AcDbArc
 50
1.692482
 51
32.691766
1001
ACAD
1000
RTLwPs
1070
   128
  0
ARC
  5
1142
100
AcDbEntity
  8
0
100
AcDbCircle
 10
261.403023
 20
107.492805
 30
0.0
 40
2.916434
100
AcDbArc
 50
327.795409
 51
357.820344
1001
ACAD
1000
RTLwPs
1070
   128
  0
LINE
  5
1143
100
AcDbEntity
  8
0
100
AcDbLine
 10
264.317347
 20
106.712011
 30
0.0
 11
263.870765
 21
105.938508
 31
0.0
1001
ACAD
1000
RTLwPs
1070
   128
  0
ARC
  5
1144
100
AcDbEntity
  8
0
100
AcDbCircle
 10
254.032072
 20
111.82523
 30
0.0
 40
10.285899
100
AcDbArc
 50
343.042724
 51
359.369322
1001
ACAD
1000
RTLwPs
1070
   128
  0
LINE
  5
1145
100
AcDbEntity
  8
0
100
AcDbLine
 10
258.289321
 20
106.712011
 30
0.0
 11
258.007789
 21
106.712011
 31
0.0
1001
ACAD
1000
RTLwPs
1070
   128
  0
LINE
  5
1146
100
AcDbEntity
  8
0
100
AcDbLine
 10
258.517347
 20
107.338508
 30
0.0
 11
258.289321
 21
106.712011
 31
0.0
1001
ACAD
1000
RTLwPs
1070
   128
  0
LINE
  5
1147
100
AcDbEntity
  8
0
100
AcDbLine
 10
260.067347
 20
108.712011
 30
0.0
 11
258.517347
 21
108.712011
 31
0.0
1001
ACAD
1000
RTLwPs
1070
   128
  0
LINE
  5
1148
100
AcDbEntity
  8
0
100
AcDbLine
 10
260.642347
 20
107.272011
 30
0.0
 11
260.317347
 21
107.272011
 31
0.0
1001
ACAD
1000
RTLwPs
1070
   128
  0
LINE
  5
1149
100
AcDbEntity
  8
0
100
AcDbLine
 10
260.642347
 20
108.82526
 30
0.0
 11
260.642347
 21
105.938508
 31
0.0
1001
ACAD
1000
RTLwPs
1070
   128
  0
ARC
  5
114A
100
AcDbEntity
  8
0
100
AcDbCircle
 10
260.067347
 20
108.462011
 30
0.0
 40
0.25
100
AcDbArc
 50
360.0
 51
90.0
1001
ACAD
1000
RTLwPs
1070
   128
  0
ARC
  5
114B
100
AcDbEntity
  8
0
100
AcDbCircle
 10
246.907692
 20
109.212011
 30
0.0
 40
11.378144
100
AcDbArc
 50
347.307442
 51
12.692558
1001
ACAD
1000
RTLwPs
1070
   128
  0
LINE
  5
114C
100
AcDbEntity
  8
0
100
AcDbLine
 10
263.870765
 20
117.485514
 30
0.0
 11
260.642347
 21
117.485514
 31
0.0
1001
ACAD
1000
RTLwPs
1070
   128
  0
LINE
  5
114D
100
AcDbEntity
  8
0
100
AcDbLine
 10
263.870765
 20
114.598762
 30
0.0
 11
260.642347
 21
114.598762
 31
0.0
1001
ACAD
1000
RTLwPs
1070
   128
  0
ARC
  5
114E
100
AcDbEntity
  8
0
100
AcDbCircle
 10
261.403023
 20
116.153059
 30
0.0
 40
2.916434
100
AcDbArc
 50
327.795409
 51
357.820344
1001
ACAD
1000
RTLwPs
1070
   128
  0
ARC
  5
114F
100
AcDbEntity
  8
0
100
AcDbCircle
 10
261.491671
 20
115.958645
 30
0.0
 40
2.82691
100
AcDbArc
 50
1.692482
 51
32.691766
1001
ACAD
1000
RTLwPs
1070
   128
  0
LINE
  5
1150
100
AcDbEntity
  8
0
100
AcDbLine
 10
263.870765
 20
117.485514
 30
0.0
 11
264.317347
 21
116.712011
 31
0.0
1001
ACAD
1000
RTLwPs
1070
   128
  0
LINE
  5
1151
100
AcDbEntity
  8
0
100
AcDbLine
 10
258.007789
 20
116.712011
 30
0.0
 11
258.289321
 21
116.712011
 31
0.0
1001
ACAD
1000
RTLwPs
1070
   128
  0
LINE
  5
1152
100
AcDbEntity
  8
0
100
AcDbLine
 10
258.289321
 20
116.712011
 30
0.0
 11
258.517347
 21
116.085514
 31
0.0
1001
ACAD
1000
RTLwPs
1070
   128
  0
LINE
  5
1153
100
AcDbEntity
  8
0
100
AcDbLine
 10
258.517347
 20
114.712011
 30
0.0
 11
260.067347
 21
114.712011
 31
0.0
1001
ACAD
1000
RTLwPs
1070
   128
  0
LINE
  5
1154
100
AcDbEntity
  8
0
100
AcDbLine
 10
260.642347
 20
117.485514
 30
0.0
 11
260.642347
 21
114.598762
 31
0.0
1001
ACAD
1000
RTLwPs
1070
   128
  0
ARC
  5
1155
100
AcDbEntity
  8
0
100
AcDbCircle
 10
260.067347
 20
114.962011
 30
0.0
 40
0.25
100
AcDbArc
 50
270.0
 51
360.0
1001
ACAD
1000
RTLwPs
1070
   128
  0
LINE
  5
1156
100
AcDbEntity
  8
0
100
AcDbLine
 10
260.317347
 20
116.152011
 30
0.0
 11
260.642347
 21
116.152011
 31
0.0
1001
ACAD
1000
RTLwPs
1070
   128
  0
ARC
  5
1157
100
AcDbEntity
  8
0
100
AcDbCircle
 10
266.927003
 20
114.212011
 30
0.0
 40
11.378144
100
AcDbArc
 50
167.307442
 51
192.692558
1001
ACAD
1000
RTLwPs
1070
   128
  0
LINE
  5
1158
100
AcDbEntity
  8
0
100
AcDbLine
 10
255.826906
 20
106.712011
 30
0.0
 11
255.545374
 21
106.712011
 31
0.0
1001
ACAD
1000
RTLwPs
1070
   128
  0
LINE
  5
1159
100
AcDbEntity
  8
0
100
AcDbLine
 10
255.545374
 20
106.712011
 30
0.0
 11
255.317347
 21
107.338508
 31
0.0
1001
ACAD
1000
RTLwPs
1070
   128
  0
ARC
  5
115A
100
AcDbEntity
  8
0
100
AcDbCircle
 10
266.927003
 20
109.212011
 30
0.0
 40
11.378144
100
AcDbArc
 50
167.307442
 51
192.692558
1001
ACAD
1000
RTLwPs
1070
   128
  0
LINE
  5
115B
100
AcDbEntity
  8
0
100
AcDbLine
 10
255.826906
 20
116.712011
 30
0.0
 11
255.545374
 21
116.712011
 31
0.0
1001
ACAD
1000
RTLwPs
1070
   128
  0
LINE
  5
115C
100
AcDbEntity
  8
0
100
AcDbLine
 10
255.317347
 20
116.085514
 30
0.0
 11
255.545374
 21
116.712011
 31
0.0
1001
ACAD
1000
RTLwPs
1070
   128
  0
LINE
  5
115D
100
AcDbEntity
  8
0
100
AcDbLine
 10
264.317347
 20
116.712011
 30
0.0
 11
264.317347
 21
106.712011
 31
0.0
  0
POLYLINE
  5
1224
100
AcDbEntity
  8
0
100
AcDb2dPolyline
 66
     1
 10
0.0
 20
0.0
 30
0.0
  0
VERTEX
  5
1225
100
AcDbEntity
  8
0
100
AcDbVertex
100
AcDb2dVertex
 10
128.817347
 20
255.404769
 30
0.0
  0
VERTEX
  5
1226
100
AcDbEntity
  8
0
100
AcDbVertex
100
AcDb2dVertex
 10
128.817347
 20
252.104769
 30
0.0
  0
VERTEX
  5
1227
100
AcDbEntity
  8
0
100
AcDbVertex
100
AcDb2dVertex
 10
128.317347
 20
251.604769
 30
0.0
  0
VERTEX
  5
1228
100
AcDbEntity
  8
0
100
AcDbVertex
100
AcDb2dVertex
 10
121.317347
 20
251.604769
 30
0.0
  0
SEQEND
  5
1229
100
AcDbEntity
  8
0
  0
POLYLINE
  5
122A
100
AcDbEntity
  8
0
100
AcDb2dPolyline
 66
     1
 10
0.0
 20
0.0
 30
0.0
  0
VERTEX
  5
122B
100
AcDbEntity
  8
0
100
AcDbVertex
100
AcDb2dVertex
 10
121.317347
 20
255.404769
 30
0.0
  0
VERTEX
  5
122C
100
AcDbEntity
  8
0
100
AcDbVertex
100
AcDb2dVertex
 10
121.317347
 20
251.604769
 30
0.0
  0
SEQEND
  5
122D
100
AcDbEntity
  8
0
  0
POLYLINE
  5
122E
100
AcDbEntity
  8
0
100
AcDb2dPolyline
 66
     1
 10
0.0
 20
0.0
 30
0.0
  0
VERTEX
  5
122F
100
AcDbEntity
  8
0
100
AcDbVertex
100
AcDb2dVertex
 10
118.817347
 20
255.404769
 30
0.0
  0
VERTEX
  5
1230
100
AcDbEntity
  8
0
100
AcDbVertex
100
AcDb2dVertex
 10
118.817347
 20
250.154769
 30
0.0
  0
SEQEND
  5
1231
100
AcDbEntity
  8
0
  0
POLYLINE
  5
1232
100
AcDbEntity
  8
0
100
AcDb2dPolyline
 66
     1
 10
0.0
 20
0.0
 30
0.0
  0
VERTEX
  5
1233
100
AcDbEntity
  8
0
100
AcDbVertex
100
AcDb2dVertex
 10
120.817347
 20
255.404769
 30
0.0
  0
VERTEX
  5
1234
100
AcDbEntity
  8
0
100
AcDbVertex
100
AcDb2dVertex
 10
120.817347
 20
250.654769
 30
0.0
  0
VERTEX
  5
1235
100
AcDbEntity
  8
0
100
AcDbVertex
100
AcDb2dVertex
 10
120.317347
 20
250.154769
 30
0.0
  0
VERTEX
  5
1236
100
AcDbEntity
  8
0
100
AcDbVertex
100
AcDb2dVertex
 10
117.817347
 20
250.154769
 30
0.0
  0
SEQEND
  5
1237
100
AcDbEntity
  8
0
  0
POLYLINE
  5
1238
100
AcDbEntity
  8
0
100
AcDb2dPolyline
 66
     1
 10
0.0
 20
0.0
 30
0.0
  0
VERTEX
  5
1239
100
AcDbEntity
  8
0
100
AcDbVertex
100
AcDb2dVertex
 10
117.817347
 20
250.154769
 30
0.0
  0
VERTEX
  5
123A
100
AcDbEntity
  8
0
100
AcDbVertex
100
AcDb2dVertex
 10
117.817347
 20
255.404769
 30
0.0
  0
SEQEND
  5
123B
100
AcDbEntity
  8
0
  0
POLYLINE
  5
123C
100
AcDbEntity
  8
0
100
AcDb2dPolyline
 66
     1
 10
0.0
 20
0.0
 30
0.0
  0
VERTEX
  5
123D
100
AcDbEntity
  8
0
100
AcDbVertex
100
AcDb2dVertex
 10
120.317347
 20
250.154769
 30
0.0
  0
VERTEX
  5
123E
100
AcDbEntity
  8
0
100
AcDbVertex
100
AcDb2dVertex
 10
120.317347
 20
255.404769
 30
0.0
  0
SEQEND
  5
123F
100
AcDbEntity
  8
0
  0
POLYLINE
  5
1240
100
AcDbEntity
  8
0
100
AcDb2dPolyline
 66
     1
 10
0.0
 20
0.0
 30
0.0
  0
VERTEX
  5
1241
100
AcDbEntity
  8
0
100
AcDbVertex
100
AcDb2dVertex
 10
117.067347
 20
249.404769
 30
0.0
  0
VERTEX
  5
1242
100
AcDbEntity
  8
0
100
AcDbVertex
100
AcDb2dVertex
 10
117.067347
 20
255.404769
 30
0.0
  0
SEQEND
  5
1243
100
AcDbEntity
  8
0
  0
POLYLINE
  5
1244
100
AcDbEntity
  8
0
100
AcDb2dPolyline
 66
     1
 10
0.0
 20
0.0
 30
0.0
  0
VERTEX
  5
1245
100
AcDbEntity
  8
0
100
AcDbVertex
100
AcDb2dVertex
 10
68.817347
 20
255.404769
 30
0.0
  0
VERTEX
  5
1246
100
AcDbEntity
  8
0
100
AcDbVertex
100
AcDb2dVertex
 10
68.817347
 20
251.154769
 30
0.0
  0
SEQEND
  5
1247
100
AcDbEntity
  8
0
  0
POLYLINE
  5
1248
100
AcDbEntity
  8
0
100
AcDb2dPolyline
 66
     1
 10
0.0
 20
0.0
 30
0.0
  0
VERTEX
  5
1249
100
AcDbEntity
  8
0
100
AcDbVertex
100
AcDb2dVertex
 10
75.817347
 20
255.404769
 30
0.0
  0
VERTEX
  5
124A
100
AcDbEntity
  8
0
100
AcDbVertex
100
AcDb2dVertex
 10
75.817347
 20
249.404769
 30
0.0
  0
SEQEND
  5
124B
100
AcDbEntity
  8
0
  0
LINE
  5
124C
100
AcDbEntity
  8
0
100
AcDbLine
 10
73.817347
 20
251.154769
 30
0.0
 11
73.817347
 21
255.404769
 31
0.0
  0
POLYLINE
  5
124D
100
AcDbEntity
  8
0
100
AcDb2dPolyline
 66
     1
 10
0.0
 20
0.0
 30
0.0
  0
VERTEX
  5
124E
100
AcDbEntity
  8
0
100
AcDbVertex
100
AcDb2dVertex
 10
73.817347
 20
255.404769
 30
0.0
  0
VERTEX
  5
124F
100
AcDbEntity
  8
0
100
AcDbVertex
100
AcDb2dVertex
 10
73.817347
 20
251.154769
 30
0.0
  0
SEQEND
  5
1250
100
AcDbEntity
  8
0
  0
POLYLINE
  5
1259
100
AcDbEntity
  8
0
100
AcDb2dPolyline
 66
     1
 10
0.0
 20
0.0
 30
0.0
  0
VERTEX
  5
125A
100
AcDbEntity
  8
0
100
AcDbVertex
100
AcDb2dVertex
 10
128.817347
 20
252.904769
 30
0.0
  0
VERTEX
  5
125B
100
AcDbEntity
  8
0
100
AcDbVertex
100
AcDb2dVertex
 10
129.317347
 20
253.404769
 30
0.0
  0
SEQEND
  5
125C
100
AcDbEntity
  8
0
  0
POLYLINE
  5
125D
100
AcDbEntity
  8
0
100
AcDb2dPolyline
 66
     1
 10
0.0
 20
0.0
 30
0.0
  0
VERTEX
  5
125E
100
AcDbEntity
  8
0
100
AcDbVertex
100
AcDb2dVertex
 10
128.317347
 20
251.604769
 30
0.0
  0
VERTEX
  5
125F
100
AcDbEntity
  8
0
100
AcDbVertex
100
AcDb2dVertex
 10
128.317347
 20
255.404769
 30
0.0
  0
SEQEND
  5
1260
100
AcDbEntity
  8
0
  0
LINE
  5
1261
100
AcDbEntity
  8
0
100
AcDbLine
 10
104.817347
 20
261.404769
 30
0.0
 11
104.817347
 21
249.404769
 31
0.0
  0
ARC
  5
1262
100
AcDbEntity
  8
0
100
AcDbCircle
 10
68.882342
 20
255.404769
 30
0.0
 40
35.935006
100
AcDbArc
 50
353.542534
 51
6.457466
  0
ARC
  5
1263
100
AcDbEntity
  8
0
100
AcDbCircle
 10
136.752353
 20
255.404769
 30
0.0
 40
35.935006
100
AcDbArc
 50
173.542534
 51
186.457466
  0
LINE
  5
1264
100
AcDbEntity
  8
0
100
AcDbLine
 10
100.817347
 20
261.466947
 30
0.0
 11
100.817347
 21
249.342591
 31
0.0
  0
LINE
  5
1265
100
AcDbEntity
  8
0
100
AcDbLine
 10
75.817347
 20
249.404769
 30
0.0
 11
100.817347
 21
249.404769
 31
0.0
  0
LINE
  5
1266
100
AcDbEntity
  8
5
100
AcDbLine
 10
75.131633
 20
250.004769
 30
0.0
 11
100.817347
 21
250.004769
 31
0.0
  0
LINE
  5
1267
100
AcDbEntity
  8
0
100
AcDbLine
 10
68.817347
 20
251.154769
 30
0.0
 11
73.817347
 21
251.154769
 31
0.0
  0
POLYLINE
  5
126C
100
AcDbEntity
  8
0
100
AcDb2dPolyline
 66
     1
 10
0.0
 20
0.0
 30
0.0
  0
VERTEX
  5
126D
100
AcDbEntity
  8
0
100
AcDbVertex
100
AcDb2dVertex
 10
75.817347
 20
249.404769
 30
0.0
  0
VERTEX
  5
126E
100
AcDbEntity
  8
0
100
AcDbVertex
100
AcDb2dVertex
 10
73.817347
 20
251.154769
 30
0.0
  0
SEQEND
  5
126F
100
AcDbEntity
  8
0
  0
POLYLINE
  5
1270
100
AcDbEntity
  8
0
100
AcDb2dPolyline
 66
     1
 10
0.0
 20
0.0
 30
0.0
  0
VERTEX
  5
1271
100
AcDbEntity
  8
0
100
AcDbVertex
100
AcDb2dVertex
 10
117.067347
 20
249.404769
 30
0.0
  0
VERTEX
  5
1272
100
AcDbEntity
  8
0
100
AcDbVertex
100
AcDb2dVertex
 10
117.817347
 20
250.154769
 30
0.0
  0
SEQEND
  5
1273
100
AcDbEntity
  8
0
  0
LINE
  5
1274
100
AcDbEntity
  8
5
100
AcDbLine
 10
114.817347
 20
250.004769
 30
0.0
 11
117.667347
 21
250.004769
 31
0.0
  0
LINE
  5
1275
100
AcDbEntity
  8
0
100
AcDbLine
 10
101.045333
 20
247.321865
 30
0.0
 11
104.589362
 21
247.321865
 31
0.0
  0
LINE
  5
1276
100
AcDbEntity
  8
0
100
AcDbLine
 10
101.045333
 20
251.363317
 30
0.0
 11
104.589362
 21
251.363317
 31
0.0
  0
ARC
  5
1277
100
AcDbEntity
  8
0
100
AcDbCircle
 10
109.886593
 20
249.342591
 30
0.0
 40
9.069246
100
AcDbArc
 50
167.125821
 51
192.874179
  0
LINE
  5
1278
100
AcDbEntity
  8
0
100
AcDbLine
 10
114.817347
 20
249.404769
 30
0.0
 11
117.067347
 21
249.404769
 31
0.0
  0
ARC
  5
1279
100
AcDbEntity
  8
0
100
AcDbCircle
 10
95.748101
 20
249.342591
 30
0.0
 40
9.069246
100
AcDbArc
 50
347.125821
 51
12.874179
  0
LINE
  5
127A
100
AcDbEntity
  8
0
100
AcDbLine
 10
104.817347
 20
249.344638
 30
0.0
 11
104.877478
 21
249.404769
 31
0.0
  0
LINE
  5
127C
100
AcDbEntity
  8
5
100
AcDbLine
 10
75.131633
 20
260.804769
 30
0.0
 11
100.817347
 21
260.804769
 31
0.0
  0
LINE
  5
127D
100
AcDbEntity
  8
0
100
AcDbLine
 10
75.817347
 20
261.404769
 30
0.0
 11
100.817347
 21
261.404769
 31
0.0
  0
LINE
  5
128A
100
AcDbEntity
  8
0
100
AcDbLine
 10
68.817347
 20
259.654769
 30
0.0
 11
73.817347
 21
259.654769
 31
0.0
  0
POLYLINE
  5
128B
100
AcDbEntity
  8
0
100
AcDb2dPolyline
 66
     1
 10
0.0
 20
0.0
 30
0.0
  0
VERTEX
  5
128C
100
AcDbEntity
  8
0
100
AcDbVertex
100
AcDb2dVertex
 10
68.817347
 20
255.404769
 30
0.0
  0
VERTEX
  5
128D
100
AcDbEntity
  8
0
100
AcDbVertex
100
AcDb2dVertex
 10
68.817347
 20
259.654769
 30
0.0
  0
SEQEND
  5
128E
100
AcDbEntity
  8
0
  0
POLYLINE
  5
128F
100
AcDbEntity
  8
0
100
AcDb2dPolyline
 66
     1
 10
0.0
 20
0.0
 30
0.0
  0
VERTEX
  5
1290
100
AcDbEntity
  8
0
100
AcDbVertex
100
AcDb2dVertex
 10
75.817347
 20
261.404769
 30
0.0
  0
VERTEX
  5
1291
100
AcDbEntity
  8
0
100
AcDbVertex
100
AcDb2dVertex
 10
73.817347
 20
259.654769
 30
0.0
  0
SEQEND
  5
1292
100
AcDbEntity
  8
0
  0
POLYLINE
  5
1293
100
AcDbEntity
  8
0
100
AcDb2dPolyline
 66
     1
 10
0.0
 20
0.0
 30
0.0
  0
VERTEX
  5
1294
100
AcDbEntity
  8
0
100
AcDbVertex
100
AcDb2dVertex
 10
75.817347
 20
255.404769
 30
0.0
  0
VERTEX
  5
1295
100
AcDbEntity
  8
0
100
AcDbVertex
100
AcDb2dVertex
 10
75.817347
 20
261.404769
 30
0.0
  0
SEQEND
  5
1296
100
AcDbEntity
  8
0
  0
POLYLINE
  5
129F
100
AcDbEntity
  8
0
100
AcDb2dPolyline
 66
     1
 10
0.0
 20
0.0
 30
0.0
  0
VERTEX
  5
12A0
100
AcDbEntity
  8
0
100
AcDbVertex
100
AcDb2dVertex
 10
73.817347
 20
255.404769
 30
0.0
  0
VERTEX
  5
12A1
100
AcDbEntity
  8
0
100
AcDbVertex
100
AcDb2dVertex
 10
73.817347
 20
259.654769
 30
0.0
  0
SEQEND
  5
12A2
100
AcDbEntity
  8
0
  0
LINE
  5
12A3
100
AcDbEntity
  8
0
100
AcDbLine
 10
73.817347
 20
259.654769
 30
0.0
 11
73.817347
 21
255.404769
 31
0.0
  0
POLYLINE
  5
12A4
100
AcDbEntity
  8
0
100
AcDb2dPolyline
 66
     1
 10
0.0
 20
0.0
 30
0.0
  0
VERTEX
  5
12A5
100
AcDbEntity
  8
0
100
AcDbVertex
100
AcDb2dVertex
 10
117.067347
 20
261.404769
 30
0.0
  0
VERTEX
  5
12A6
100
AcDbEntity
  8
0
100
AcDbVertex
100
AcDb2dVertex
 10
117.817347
 20
260.654769
 30
0.0
  0
SEQEND
  5
12A7
100
AcDbEntity
  8
0
  0
LINE
  5
12A8
100
AcDbEntity
  8
5
100
AcDbLine
 10
114.817347
 20
260.804769
 30
0.0
 11
117.667347
 21
260.804769
 31
0.0
  0
LINE
  5
12A9
100
AcDbEntity
  8
0
100
AcDbLine
 10
101.045333
 20
259.446221
 30
0.0
 11
104.589362
 21
259.446221
 31
0.0
  0
LINE
  5
12AA
100
AcDbEntity
  8
0
100
AcDbLine
 10
101.045333
 20
263.487673
 30
0.0
 11
104.589362
 21
263.487673
 31
0.0
  0
ARC
  5
12AB
100
AcDbEntity
  8
0
100
AcDbCircle
 10
109.886593
 20
261.466947
 30
0.0
 40
9.069246
100
AcDbArc
 50
167.125821
 51
192.874179
  0
POLYLINE
  5
12AC
100
AcDbEntity
  8
0
100
AcDb2dPolyline
 66
     1
 10
0.0
 20
0.0
 30
0.0
  0
VERTEX
  5
12AD
100
AcDbEntity
  8
0
100
AcDbVertex
100
AcDb2dVertex
 10
117.067347
 20
261.404769
 30
0.0
  0
VERTEX
  5
12AE
100
AcDbEntity
  8
0
100
AcDbVertex
100
AcDb2dVertex
 10
117.067347
 20
255.404769
 30
0.0
  0
SEQEND
  5
12AF
100
AcDbEntity
  8
0
  0
ARC
  5
12B0
100
AcDbEntity
  8
0
100
AcDbCircle
 10
95.748101
 20
261.466947
 30
0.0
 40
9.069246
100
AcDbArc
 50
347.125821
 51
12.874179
  0
LINE
  5
12B1
100
AcDbEntity
  8
0
100
AcDbLine
 10
114.817347
 20
261.404769
 30
0.0
 11
117.067347
 21
261.404769
 31
0.0
  0
POLYLINE
  5
12B2
100
AcDbEntity
  8
0
100
AcDb2dPolyline
 66
     1
 10
0.0
 20
0.0
 30
0.0
  0
VERTEX
  5
12B3
100
AcDbEntity
  8
0
100
AcDbVertex
100
AcDb2dVertex
 10
128.817347
 20
255.404769
 30
0.0
  0
VERTEX
  5
12B4
100
AcDbEntity
  8
0
100
AcDbVertex
100
AcDb2dVertex
 10
128.817347
 20
258.704769
 30
0.0
  0
VERTEX
  5
12B5
100
AcDbEntity
  8
0
100
AcDbVertex
100
AcDb2dVertex
 10
128.317347
 20
259.204769
 30
0.0
  0
VERTEX
  5
12B6
100
AcDbEntity
  8
0
100
AcDbVertex
100
AcDb2dVertex
 10
121.317347
 20
259.204769
 30
0.0
  0
SEQEND
  5
12B7
100
AcDbEntity
  8
0
  0
POLYLINE
  5
12B8
100
AcDbEntity
  8
0
100
AcDb2dPolyline
 66
     1
 10
0.0
 20
0.0
 30
0.0
  0
VERTEX
  5
12B9
100
AcDbEntity
  8
0
100
AcDbVertex
100
AcDb2dVertex
 10
120.317347
 20
260.654769
 30
0.0
  0
VERTEX
  5
12BA
100
AcDbEntity
  8
0
100
AcDbVertex
100
AcDb2dVertex
 10
120.317347
 20
255.404769
 30
0.0
  0
SEQEND
  5
12BB
100
AcDbEntity
  8
0
  0
POLYLINE
  5
12BC
100
AcDbEntity
  8
0
100
AcDb2dPolyline
 66
     1
 10
0.0
 20
0.0
 30
0.0
  0
VERTEX
  5
12BD
100
AcDbEntity
  8
0
100
AcDbVertex
100
AcDb2dVertex
 10
117.817347
 20
260.654769
 30
0.0
  0
VERTEX
  5
12BE
100
AcDbEntity
  8
0
100
AcDbVertex
100
AcDb2dVertex
 10
117.817347
 20
255.404769
 30
0.0
  0
SEQEND
  5
12BF
100
AcDbEntity
  8
0
  0
POLYLINE
  5
12C0
100
AcDbEntity
  8
0
100
AcDb2dPolyline
 66
     1
 10
0.0
 20
0.0
 30
0.0
  0
VERTEX
  5
12C1
100
AcDbEntity
  8
0
100
AcDbVertex
100
AcDb2dVertex
 10
120.817347
 20
255.404769
 30
0.0
  0
VERTEX
  5
12C2
100
AcDbEntity
  8
0
100
AcDbVertex
100
AcDb2dVertex
 10
120.817347
 20
260.154769
 30
0.0
  0
VERTEX
  5
12C3
100
AcDbEntity
  8
0
100
AcDbVertex
100
AcDb2dVertex
 10
120.317347
 20
260.654769
 30
0.0
  0
VERTEX
  5
12C4
100
AcDbEntity
  8
0
100
AcDbVertex
100
AcDb2dVertex
 10
117.817347
 20
260.654769
 30
0.0
  0
SEQEND
  5
12C5
100
AcDbEntity
  8
0
  0
POLYLINE
  5
12C6
100
AcDbEntity
  8
0
100
AcDb2dPolyline
 66
     1
 10
0.0
 20
0.0
 30
0.0
  0
VERTEX
  5
12C7
100
AcDbEntity
  8
0
100
AcDbVertex
100
AcDb2dVertex
 10
118.817347
 20
255.404769
 30
0.0
  0
VERTEX
  5
12C8
100
AcDbEntity
  8
0
100
AcDbVertex
100
AcDb2dVertex
 10
118.817347
 20
260.654769
 30
0.0
  0
SEQEND
  5
12C9
100
AcDbEntity
  8
0
  0
POLYLINE
  5
12CA
100
AcDbEntity
  8
0
100
AcDb2dPolyline
 66
     1
 10
0.0
 20
0.0
 30
0.0
  0
VERTEX
  5
12CB
100
AcDbEntity
  8
0
100
AcDbVertex
100
AcDb2dVertex
 10
121.317347
 20
255.404769
 30
0.0
  0
VERTEX
  5
12CC
100
AcDbEntity
  8
0
100
AcDbVertex
100
AcDb2dVertex
 10
121.317347
 20
259.204769
 30
0.0
  0
SEQEND
  5
12CD
100
AcDbEntity
  8
0
  0
POLYLINE
  5
12CE
100
AcDbEntity
  8
0
100
AcDb2dPolyline
 66
     1
 10
0.0
 20
0.0
 30
0.0
  0
VERTEX
  5
12CF
100
AcDbEntity
  8
0
100
AcDbVertex
100
AcDb2dVertex
 10
128.317347
 20
259.204769
 30
0.0
  0
VERTEX
  5
12D0
100
AcDbEntity
  8
0
100
AcDbVertex
100
AcDb2dVertex
 10
128.317347
 20
255.404769
 30
0.0
  0
SEQEND
  5
12D1
100
AcDbEntity
  8
0
  0
POLYLINE
  5
12D2
100
AcDbEntity
  8
0
100
AcDb2dPolyline
 66
     1
 10
0.0
 20
0.0
 30
0.0
  0
VERTEX
  5
12D3
100
AcDbEntity
  8
0
100
AcDbVertex
100
AcDb2dVertex
 10
129.317347
 20
255.404769
 30
0.0
  0
VERTEX
  5
12D4
100
AcDbEntity
  8
0
100
AcDbVertex
100
AcDb2dVertex
 10
129.317347
 20
257.404769
 30
0.0
  0
SEQEND
  5
12D5
100
AcDbEntity
  8
0
  0
POLYLINE
  5
12D6
100
AcDbEntity
  8
0
100
AcDb2dPolyline
 66
     1
 10
0.0
 20
0.0
 30
0.0
  0
VERTEX
  5
12D7
100
AcDbEntity
  8
0
100
AcDbVertex
100
AcDb2dVertex
 10
129.317347
 20
255.404769
 30
0.0
  0
VERTEX
  5
12D8
100
AcDbEntity
  8
0
100
AcDbVertex
100
AcDb2dVertex
 10
129.317347
 20
253.404769
 30
0.0
  0
SEQEND
  5
12D9
100
AcDbEntity
  8
0
  0
POLYLINE
  5
12DA
100
AcDbEntity
  8
0
100
AcDb2dPolyline
 66
     1
 10
0.0
 20
0.0
 30
0.0
  0
VERTEX
  5
12DB
100
AcDbEntity
  8
0
100
AcDbVertex
100
AcDb2dVertex
 10
128.817347
 20
257.904769
 30
0.0
  0
VERTEX
  5
12DC
100
AcDbEntity
  8
0
100
AcDbVertex
100
AcDb2dVertex
 10
129.317347
 20
257.404769
 30
0.0
  0
SEQEND
  5
12DD
100
AcDbEntity
  8
0
  0
LINE
  5
12E2
100
AcDbEntity
  8
7A
100
AcDbLine
 10
68.317347
 20
93.212011
 30
0.0
 11
128.317347
 21
93.212011
 31
0.0
  0
POLYLINE
  5
12E3
100
AcDbEntity
  8
0
100
AcDb2dPolyline
 66
     1
 10
0.0
 20
0.0
 30
0.0
  0
VERTEX
  5
12E4
100
AcDbEntity
  8
0
100
AcDbVertex
100
AcDb2dVertex
 10
120.817347
 20
93.212011
 30
0.0
  0
VERTEX
  5
12E5
100
AcDbEntity
  8
0
100
AcDbVertex
100
AcDb2dVertex
 10
120.817347
 20
97.962011
 30
0.0
  0
VERTEX
  5
12E6
100
AcDbEntity
  8
0
100
AcDbVertex
100
AcDb2dVertex
 10
120.317347
 20
98.462011
 30
0.0
  0
VERTEX
  5
12E7
100
AcDbEntity
  8
0
100
AcDbVertex
100
AcDb2dVertex
 10
117.817347
 20
98.462011
 30
0.0
  0
SEQEND
  5
12E8
100
AcDbEntity
  8
0
  0
POLYLINE
  5
12E9
100
AcDbEntity
  8
0
100
AcDb2dPolyline
 66
     1
 10
0.0
 20
0.0
 30
0.0
  0
VERTEX
  5
12EA
100
AcDbEntity
  8
0
100
AcDbVertex
100
AcDb2dVertex
 10
120.817347
 20
93.212011
 30
0.0
  0
VERTEX
  5
12EB
100
AcDbEntity
  8
0
100
AcDbVertex
100
AcDb2dVertex
 10
120.817347
 20
88.462011
 30
0.0
  0
VERTEX
  5
12EC
100
AcDbEntity
  8
0
100
AcDbVertex
100
AcDb2dVertex
 10
120.317347
 20
87.962011
 30
0.0
  0
VERTEX
  5
12ED
100
AcDbEntity
  8
0
100
AcDbVertex
100
AcDb2dVertex
 10
117.817347
 20
87.962011
 30
0.0
  0
SEQEND
  5
12EE
100
AcDbEntity
  8
0
  0
LINE
  5
12EF
100
AcDbEntity
  8
0
100
AcDbLine
 10
75.817347
 20
87.212011
 30
0.0
 11
100.817347
 21
87.212011
 31
0.0
  0
LINE
  5
12F0
100
AcDbEntity
  8
5
100
AcDbLine
 10
75.131633
 20
87.812011
 30
0.0
 11
100.817347
 21
87.812011
 31
0.0
  0
LINE
  5
12F1
100
AcDbEntity
  8
5
100
AcDbLine
 10
75.131633
 20
98.612011
 30
0.0
 11
100.817347
 21
98.612011
 31
0.0
  0
LINE
  5
12F2
100
AcDbEntity
  8
0
100
AcDbLine
 10
75.817347
 20
99.212011
 30
0.0
 11
100.817347
 21
99.212011
 31
0.0
  0
POLYLINE
  5
12F3
100
AcDbEntity
  8
0
100
AcDb2dPolyline
 66
     1
 10
0.0
 20
0.0
 30
0.0
  0
VERTEX
  5
12F4
100
AcDbEntity
  8
0
100
AcDbVertex
100
AcDb2dVertex
 10
73.817347
 20
93.212011
 30
0.0
  0
VERTEX
  5
12F5
100
AcDbEntity
  8
0
100
AcDbVertex
100
AcDb2dVertex
 10
73.817347
 20
88.962011
 30
0.0
  0
SEQEND
  5
12F6
100
AcDbEntity
  8
0
  0
LINE
  5
12F7
100
AcDbEntity
  8
0
100
AcDbLine
 10
73.817347
 20
88.962011
 30
0.0
 11
73.817347
 21
93.212011
 31
0.0
  0
POLYLINE
  5
12F8
100
AcDbEntity
  8
0
100
AcDb2dPolyline
 66
     1
 10
0.0
 20
0.0
 30
0.0
  0
VERTEX
  5
12F9
100
AcDbEntity
  8
0
100
AcDbVertex
100
AcDb2dVertex
 10
75.817347
 20
93.212011
 30
0.0
  0
VERTEX
  5
12FA
100
AcDbEntity
  8
0
100
AcDbVertex
100
AcDb2dVertex
 10
75.817347
 20
87.212011
 30
0.0
  0
SEQEND
  5
12FB
100
AcDbEntity
  8
0
  0
POLYLINE
  5
12FC
100
AcDbEntity
  8
0
100
AcDb2dPolyline
 66
     1
 10
0.0
 20
0.0
 30
0.0
  0
VERTEX
  5
12FD
100
AcDbEntity
  8
0
100
AcDbVertex
100
AcDb2dVertex
 10
68.817347
 20
93.212011
 30
0.0
  0
VERTEX
  5
12FE
100
AcDbEntity
  8
0
100
AcDbVertex
100
AcDb2dVertex
 10
68.817347
 20
88.962011
 30
0.0
  0
SEQEND
  5
12FF
100
AcDbEntity
  8
0
  0
LINE
  5
1300
100
AcDbEntity
  8
0
100
AcDbLine
 10
68.817347
 20
88.962011
 30
0.0
 11
73.817347
 21
88.962011
 31
0.0
  0
POLYLINE
  5
1301
100
AcDbEntity
  8
0
100
AcDb2dPolyline
 66
     1
 10
0.0
 20
0.0
 30
0.0
  0
VERTEX
  5
1302
100
AcDbEntity
  8
0
100
AcDbVertex
100
AcDb2dVertex
 10
75.817347
 20
87.212011
 30
0.0
  0
VERTEX
  5
1303
100
AcDbEntity
  8
0
100
AcDbVertex
100
AcDb2dVertex
 10
73.817347
 20
88.962011
 30
0.0
  0
SEQEND
  5
1304
100
AcDbEntity
  8
0
  0
LINE
  5
1305
100
AcDbEntity
  8
0
100
AcDbLine
 10
68.817347
 20
97.462011
 30
0.0
 11
73.817347
 21
97.462011
 31
0.0
  0
POLYLINE
  5
1306
100
AcDbEntity
  8
0
100
AcDb2dPolyline
 66
     1
 10
0.0
 20
0.0
 30
0.0
  0
VERTEX
  5
1307
100
AcDbEntity
  8
0
100
AcDbVertex
100
AcDb2dVertex
 10
68.817347
 20
93.212011
 30
0.0
  0
VERTEX
  5
1308
100
AcDbEntity
  8
0
100
AcDbVertex
100
AcDb2dVertex
 10
68.817347
 20
97.462011
 30
0.0
  0
SEQEND
  5
1309
100
AcDbEntity
  8
0
  0
POLYLINE
  5
130A
100
AcDbEntity
  8
0
100
AcDb2dPolyline
 66
     1
 10
0.0
 20
0.0
 30
0.0
  0
VERTEX
  5
130B
100
AcDbEntity
  8
0
100
AcDbVertex
100
AcDb2dVertex
 10
75.817347
 20
99.212011
 30
0.0
  0
VERTEX
  5
130C
100
AcDbEntity
  8
0
100
AcDbVertex
100
AcDb2dVertex
 10
73.817347
 20
97.462011
 30
0.0
  0
SEQEND
  5
130D
100
AcDbEntity
  8
0
  0
LINE
  5
130E
100
AcDbEntity
  8
0
100
AcDbLine
 10
73.817347
 20
97.462011
 30
0.0
 11
73.817347
 21
93.212011
 31
0.0
  0
POLYLINE
  5
130F
100
AcDbEntity
  8
0
100
AcDb2dPolyline
 66
     1
 10
0.0
 20
0.0
 30
0.0
  0
VERTEX
  5
1310
100
AcDbEntity
  8
0
100
AcDbVertex
100
AcDb2dVertex
 10
73.817347
 20
93.212011
 30
0.0
  0
VERTEX
  5
1311
100
AcDbEntity
  8
0
100
AcDbVertex
100
AcDb2dVertex
 10
73.817347
 20
97.462011
 30
0.0
  0
SEQEND
  5
1312
100
AcDbEntity
  8
0
  0
POLYLINE
  5
1313
100
AcDbEntity
  8
0
100
AcDb2dPolyline
 66
     1
 10
0.0
 20
0.0
 30
0.0
  0
VERTEX
  5
1314
100
AcDbEntity
  8
0
100
AcDbVertex
100
AcDb2dVertex
 10
75.817347
 20
93.212011
 30
0.0
  0
VERTEX
  5
1315
100
AcDbEntity
  8
0
100
AcDbVertex
100
AcDb2dVertex
 10
75.817347
 20
99.212011
 30
0.0
  0
SEQEND
  5
1316
100
AcDbEntity
  8
0
  0
LINE
  5
1317
100
AcDbEntity
  8
0
100
AcDbLine
 10
104.817347
 20
99.212011
 30
0.0
 11
104.817347
 21
87.212011
 31
0.0
  0
ARC
  5
1318
100
AcDbEntity
  8
0
100
AcDbCircle
 10
68.882342
 20
93.212011
 30
0.0
 40
35.935006
100
AcDbArc
 50
353.542534
 51
6.457466
  0
ARC
  5
1319
100
AcDbEntity
  8
0
100
AcDbCircle
 10
136.752353
 20
93.212011
 30
0.0
 40
35.935006
100
AcDbArc
 50
173.542534
 51
186.457466
  0
LINE
  5
131A
100
AcDbEntity
  8
0
100
AcDbLine
 10
100.817347
 20
99.274189
 30
0.0
 11
100.817347
 21
87.149833
 31
0.0
  0
POLYLINE
  5
131B
100
AcDbEntity
  8
0
100
AcDb2dPolyline
 66
     1
 10
0.0
 20
0.0
 30
0.0
  0
VERTEX
  5
131C
100
AcDbEntity
  8
0
100
AcDbVertex
100
AcDb2dVertex
 10
117.067347
 20
87.212011
 30
0.0
  0
VERTEX
  5
131D
100
AcDbEntity
  8
0
100
AcDbVertex
100
AcDb2dVertex
 10
117.067347
 20
93.212011
 30
0.0
  0
SEQEND
  5
131E
100
AcDbEntity
  8
0
  0
POLYLINE
  5
131F
100
AcDbEntity
  8
0
100
AcDb2dPolyline
 66
     1
 10
0.0
 20
0.0
 30
0.0
  0
VERTEX
  5
1320
100
AcDbEntity
  8
0
100
AcDbVertex
100
AcDb2dVertex
 10
117.817347
 20
87.962011
 30
0.0
  0
VERTEX
  5
1321
100
AcDbEntity
  8
0
100
AcDbVertex
100
AcDb2dVertex
 10
117.817347
 20
93.212011
 30
0.0
  0
SEQEND
  5
1322
100
AcDbEntity
  8
0
  0
POLYLINE
  5
1323
100
AcDbEntity
  8
0
100
AcDb2dPolyline
 66
     1
 10
0.0
 20
0.0
 30
0.0
  0
VERTEX
  5
1324
100
AcDbEntity
  8
0
100
AcDbVertex
100
AcDb2dVertex
 10
118.817347
 20
93.212011
 30
0.0
  0
VERTEX
  5
1325
100
AcDbEntity
  8
0
100
AcDbVertex
100
AcDb2dVertex
 10
118.817347
 20
87.962011
 30
0.0
  0
SEQEND
  5
1326
100
AcDbEntity
  8
0
  0
LINE
  5
1327
100
AcDbEntity
  8
0
100
AcDbLine
 10
101.045333
 20
85.129107
 30
0.0
 11
104.589362
 21
85.129107
 31
0.0
  0
LINE
  5
1328
100
AcDbEntity
  8
0
100
AcDbLine
 10
101.045333
 20
89.170559
 30
0.0
 11
104.589362
 21
89.170559
 31
0.0
  0
ARC
  5
1329
100
AcDbEntity
  8
0
100
AcDbCircle
 10
109.886593
 20
87.149833
 30
0.0
 40
9.069246
100
AcDbArc
 50
167.125821
 51
192.874179
  0
LINE
  5
132A
100
AcDbEntity
  8
0
100
AcDbLine
 10
104.817347
 20
87.15188
 30
0.0
 11
104.877478
 21
87.212011
 31
0.0
  0
ARC
  5
132B
100
AcDbEntity
  8
0
100
AcDbCircle
 10
95.748101
 20
87.149833
 30
0.0
 40
9.069246
100
AcDbArc
 50
347.125821
 51
12.874179
  0
LINE
  5
132C
100
AcDbEntity
  8
0
100
AcDbLine
 10
114.817347
 20
87.212011
 30
0.0
 11
117.067347
 21
87.212011
 31
0.0
  0
LINE
  5
132D
100
AcDbEntity
  8
5
100
AcDbLine
 10
114.817347
 20
87.812011
 30
0.0
 11
117.667347
 21
87.812011
 31
0.0
  0
POLYLINE
  5
132E
100
AcDbEntity
  8
0
100
AcDb2dPolyline
 66
     1
 10
0.0
 20
0.0
 30
0.0
  0
VERTEX
  5
132F
100
AcDbEntity
  8
0
100
AcDbVertex
100
AcDb2dVertex
 10
117.067347
 20
87.212011
 30
0.0
  0
VERTEX
  5
1330
100
AcDbEntity
  8
0
100
AcDbVertex
100
AcDb2dVertex
 10
117.817347
 20
87.962011
 30
0.0
  0
SEQEND
  5
1331
100
AcDbEntity
  8
0
  0
LINE
  5
1332
100
AcDbEntity
  8
0
100
AcDbLine
 10
101.045333
 20
97.253463
 30
0.0
 11
104.589362
 21
97.253463
 31
0.0
  0
LINE
  5
1333
100
AcDbEntity
  8
0
100
AcDbLine
 10
101.045333
 20
101.294915
 30
0.0
 11
104.589362
 21
101.294915
 31
0.0
  0
ARC
  5
1334
100
AcDbEntity
  8
0
100
AcDbCircle
 10
109.886593
 20
99.274189
 30
0.0
 40
9.069246
100
AcDbArc
 50
167.125821
 51
192.874179
  0
ARC
  5
1335
100
AcDbEntity
  8
0
100
AcDbCircle
 10
95.748101
 20
99.274189
 30
0.0
 40
9.069246
100
AcDbArc
 50
347.125821
 51
12.874179
  0
LINE
  5
1336
100
AcDbEntity
  8
0
100
AcDbLine
 10
114.817347
 20
99.212011
 30
0.0
 11
117.067347
 21
99.212011
 31
0.0
  0
LINE
  5
1337
100
AcDbEntity
  8
5
100
AcDbLine
 10
114.817347
 20
98.612011
 30
0.0
 11
117.667347
 21
98.612011
 31
0.0
  0
POLYLINE
  5
1338
100
AcDbEntity
  8
0
100
AcDb2dPolyline
 66
     1
 10
0.0
 20
0.0
 30
0.0
  0
VERTEX
  5
1339
100
AcDbEntity
  8
0
100
AcDbVertex
100
AcDb2dVertex
 10
118.817347
 20
93.212011
 30
0.0
  0
VERTEX
  5
133A
100
AcDbEntity
  8
0
100
AcDbVertex
100
AcDb2dVertex
 10
118.817347
 20
98.462011
 30
0.0
  0
SEQEND
  5
133B
100
AcDbEntity
  8
0
  0
POLYLINE
  5
133C
100
AcDbEntity
  8
0
100
AcDb2dPolyline
 66
     1
 10
0.0
 20
0.0
 30
0.0
  0
VERTEX
  5
133D
100
AcDbEntity
  8
0
100
AcDbVertex
100
AcDb2dVertex
 10
117.817347
 20
98.462011
 30
0.0
  0
VERTEX
  5
133E
100
AcDbEntity
  8
0
100
AcDbVertex
100
AcDb2dVertex
 10
117.817347
 20
93.212011
 30
0.0
  0
SEQEND
  5
133F
100
AcDbEntity
  8
0
  0
POLYLINE
  5
1340
100
AcDbEntity
  8
0
100
AcDb2dPolyline
 66
     1
 10
0.0
 20
0.0
 30
0.0
  0
VERTEX
  5
1341
100
AcDbEntity
  8
0
100
AcDbVertex
100
AcDb2dVertex
 10
117.067347
 20
99.212011
 30
0.0
  0
VERTEX
  5
1342
100
AcDbEntity
  8
0
100
AcDbVertex
100
AcDb2dVertex
 10
117.067347
 20
93.212011
 30
0.0
  0
SEQEND
  5
1343
100
AcDbEntity
  8
0
  0
POLYLINE
  5
1344
100
AcDbEntity
  8
0
100
AcDb2dPolyline
 66
     1
 10
0.0
 20
0.0
 30
0.0
  0
VERTEX
  5
1345
100
AcDbEntity
  8
0
100
AcDbVertex
100
AcDb2dVertex
 10
117.067347
 20
99.212011
 30
0.0
  0
VERTEX
  5
1346
100
AcDbEntity
  8
0
100
AcDbVertex
100
AcDb2dVertex
 10
117.817347
 20
98.462011
 30
0.0
  0
SEQEND
  5
1347
100
AcDbEntity
  8
0
  0
POLYLINE
  5
1348
100
AcDbEntity
  8
0
100
AcDb2dPolyline
 66
     1
 10
0.0
 20
0.0
 30
0.0
  0
VERTEX
  5
1349
100
AcDbEntity
  8
0
100
AcDbVertex
100
AcDb2dVertex
 10
129.317347
 20
93.212011
 30
0.0
  0
VERTEX
  5
134A
100
AcDbEntity
  8
0
100
AcDbVertex
100
AcDb2dVertex
 10
129.317347
 20
91.212011
 30
0.0
  0
SEQEND
  5
134B
100
AcDbEntity
  8
0
  0
POLYLINE
  5
134C
100
AcDbEntity
  8
0
100
AcDb2dPolyline
 66
     1
 10
0.0
 20
0.0
 30
0.0
  0
VERTEX
  5
134D
100
AcDbEntity
  8
0
100
AcDbVertex
100
AcDb2dVertex
 10
128.317347
 20
89.412011
 30
0.0
  0
VERTEX
  5
134E
100
AcDbEntity
  8
0
100
AcDbVertex
100
AcDb2dVertex
 10
128.317347
 20
93.212011
 30
0.0
  0
SEQEND
  5
134F
100
AcDbEntity
  8
0
  0
POLYLINE
  5
1350
100
AcDbEntity
  8
0
100
AcDb2dPolyline
 66
     1
 10
0.0
 20
0.0
 30
0.0
  0
VERTEX
  5
1351
100
AcDbEntity
  8
0
100
AcDbVertex
100
AcDb2dVertex
 10
120.317347
 20
87.962011
 30
0.0
  0
VERTEX
  5
1352
100
AcDbEntity
  8
0
100
AcDbVertex
100
AcDb2dVertex
 10
120.317347
 20
93.212011
 30
0.0
  0
SEQEND
  5
1353
100
AcDbEntity
  8
0
  0
POLYLINE
  5
1354
100
AcDbEntity
  8
0
100
AcDb2dPolyline
 66
     1
 10
0.0
 20
0.0
 30
0.0
  0
VERTEX
  5
1355
100
AcDbEntity
  8
0
100
AcDbVertex
100
AcDb2dVertex
 10
120.817347
 20
93.212011
 30
0.0
  0
VERTEX
  5
1356
100
AcDbEntity
  8
0
100
AcDbVertex
100
AcDb2dVertex
 10
120.817347
 20
89.412011
 30
0.0
  0
SEQEND
  5
1357
100
AcDbEntity
  8
0
  0
POLYLINE
  5
1358
100
AcDbEntity
  8
0
100
AcDb2dPolyline
 66
     1
 10
0.0
 20
0.0
 30
0.0
  0
VERTEX
  5
1359
100
AcDbEntity
  8
0
100
AcDbVertex
100
AcDb2dVertex
 10
128.817347
 20
93.212011
 30
0.0
  0
VERTEX
  5
135A
100
AcDbEntity
  8
0
100
AcDbVertex
100
AcDb2dVertex
 10
128.817347
 20
89.912011
 30
0.0
  0
VERTEX
  5
135B
100
AcDbEntity
  8
0
100
AcDbVertex
100
AcDb2dVertex
 10
128.317347
 20
89.412011
 30
0.0
  0
VERTEX
  5
135C
100
AcDbEntity
  8
0
100
AcDbVertex
100
AcDb2dVertex
 10
121.317347
 20
89.412011
 30
0.0
  0
SEQEND
  5
135D
100
AcDbEntity
  8
0
  0
POLYLINE
  5
135E
100
AcDbEntity
  8
0
100
AcDb2dPolyline
 66
     1
 10
0.0
 20
0.0
 30
0.0
  0
VERTEX
  5
135F
100
AcDbEntity
  8
0
100
AcDbVertex
100
AcDb2dVertex
 10
128.817347
 20
90.712011
 30
0.0
  0
VERTEX
  5
1360
100
AcDbEntity
  8
0
100
AcDbVertex
100
AcDb2dVertex
 10
129.317347
 20
91.212011
 30
0.0
  0
SEQEND
  5
1361
100
AcDbEntity
  8
0
  0
POLYLINE
  5
1362
100
AcDbEntity
  8
0
100
AcDb2dPolyline
 66
     1
 10
0.0
 20
0.0
 30
0.0
  0
VERTEX
  5
1363
100
AcDbEntity
  8
0
100
AcDbVertex
100
AcDb2dVertex
 10
128.817347
 20
93.212011
 30
0.0
  0
VERTEX
  5
1364
100
AcDbEntity
  8
0
100
AcDbVertex
100
AcDb2dVertex
 10
128.817347
 20
96.512011
 30
0.0
  0
VERTEX
  5
1365
100
AcDbEntity
  8
0
100
AcDbVertex
100
AcDb2dVertex
 10
128.317347
 20
97.012011
 30
0.0
  0
VERTEX
  5
1366
100
AcDbEntity
  8
0
100
AcDbVertex
100
AcDb2dVertex
 10
121.317347
 20
97.012011
 30
0.0
  0
SEQEND
  5
1367
100
AcDbEntity
  8
0
  0
POLYLINE
  5
1368
100
AcDbEntity
  8
0
100
AcDb2dPolyline
 66
     1
 10
0.0
 20
0.0
 30
0.0
  0
VERTEX
  5
1369
100
AcDbEntity
  8
0
100
AcDbVertex
100
AcDb2dVertex
 10
120.817347
 20
93.212011
 30
0.0
  0
VERTEX
  5
136A
100
AcDbEntity
  8
0
100
AcDbVertex
100
AcDb2dVertex
 10
120.817347
 20
97.012011
 30
0.0
  0
SEQEND
  5
136B
100
AcDbEntity
  8
0
  0
POLYLINE
  5
136C
100
AcDbEntity
  8
0
100
AcDb2dPolyline
 66
     1
 10
0.0
 20
0.0
 30
0.0
  0
VERTEX
  5
136D
100
AcDbEntity
  8
0
100
AcDbVertex
100
AcDb2dVertex
 10
120.317347
 20
98.462011
 30
0.0
  0
VERTEX
  5
136E
100
AcDbEntity
  8
0
100
AcDbVertex
100
AcDb2dVertex
 10
120.317347
 20
93.212011
 30
0.0
  0
SEQEND
  5
136F
100
AcDbEntity
  8
0
  0
POLYLINE
  5
1370
100
AcDbEntity
  8
0
100
AcDb2dPolyline
 66
     1
 10
0.0
 20
0.0
 30
0.0
  0
VERTEX
  5
1371
100
AcDbEntity
  8
0
100
AcDbVertex
100
AcDb2dVertex
 10
128.817347
 20
95.712011
 30
0.0
  0
VERTEX
  5
1372
100
AcDbEntity
  8
0
100
AcDbVertex
100
AcDb2dVertex
 10
129.317347
 20
95.212011
 30
0.0
  0
SEQEND
  5
1373
100
AcDbEntity
  8
0
  0
POLYLINE
  5
1374
100
AcDbEntity
  8
0
100
AcDb2dPolyline
 66
     1
 10
0.0
 20
0.0
 30
0.0
  0
VERTEX
  5
1375
100
AcDbEntity
  8
0
100
AcDbVertex
100
AcDb2dVertex
 10
129.317347
 20
93.212011
 30
0.0
  0
VERTEX
  5
1376
100
AcDbEntity
  8
0
100
AcDbVertex
100
AcDb2dVertex
 10
129.317347
 20
95.212011
 30
0.0
  0
SEQEND
  5
1377
100
AcDbEntity
  8
0
  0
POLYLINE
  5
1378
100
AcDbEntity
  8
0
100
AcDb2dPolyline
 66
     1
 10
0.0
 20
0.0
 30
0.0
  0
VERTEX
  5
1379
100
AcDbEntity
  8
0
100
AcDbVertex
100
AcDb2dVertex
 10
128.317347
 20
97.012011
 30
0.0
  0
VERTEX
  5
137A
100
AcDbEntity
  8
0
100
AcDbVertex
100
AcDb2dVertex
 10
128.317347
 20
93.212011
 30
0.0
  0
SEQEND
  5
137B
100
AcDbEntity
  8
0
  0
LINE
  5
137C
100
AcDbEntity
  8
7A
100
AcDbLine
 10
68.317347
 20
130.212011
 30
0.0
 11
128.317347
 21
130.212011
 31
0.0
  0
POLYLINE
  5
137D
100
AcDbEntity
  8
0
100
AcDb2dPolyline
 66
     1
 10
0.0
 20
0.0
 30
0.0
  0
VERTEX
  5
137E
100
AcDbEntity
  8
0
100
AcDbVertex
100
AcDb2dVertex
 10
120.817347
 20
130.212011
 30
0.0
  0
VERTEX
  5
137F
100
AcDbEntity
  8
0
100
AcDbVertex
100
AcDb2dVertex
 10
120.817347
 20
134.962011
 30
0.0
  0
VERTEX
  5
1380
100
AcDbEntity
  8
0
100
AcDbVertex
100
AcDb2dVertex
 10
120.317347
 20
135.462011
 30
0.0
  0
VERTEX
  5
1381
100
AcDbEntity
  8
0
100
AcDbVertex
100
AcDb2dVertex
 10
117.817347
 20
135.462011
 30
0.0
  0
SEQEND
  5
1382
100
AcDbEntity
  8
0
  0
POLYLINE
  5
1383
100
AcDbEntity
  8
0
100
AcDb2dPolyline
 66
     1
 10
0.0
 20
0.0
 30
0.0
  0
VERTEX
  5
1384
100
AcDbEntity
  8
0
100
AcDbVertex
100
AcDb2dVertex
 10
120.817347
 20
130.212011
 30
0.0
  0
VERTEX
  5
1385
100
AcDbEntity
  8
0
100
AcDbVertex
100
AcDb2dVertex
 10
120.817347
 20
125.462011
 30
0.0
  0
VERTEX
  5
1386
100
AcDbEntity
  8
0
100
AcDbVertex
100
AcDb2dVertex
 10
120.317347
 20
124.962011
 30
0.0
  0
VERTEX
  5
1387
100
AcDbEntity
  8
0
100
AcDbVertex
100
AcDb2dVertex
 10
117.817347
 20
124.962011
 30
0.0
  0
SEQEND
  5
1388
100
AcDbEntity
  8
0
  0
LINE
  5
1389
100
AcDbEntity
  8
0
100
AcDbLine
 10
75.817347
 20
124.212011
 30
0.0
 11
100.817347
 21
124.212011
 31
0.0
  0
LINE
  5
138A
100
AcDbEntity
  8
5
100
AcDbLine
 10
75.131633
 20
124.812011
 30
0.0
 11
100.817347
 21
124.812011
 31
0.0
  0
LINE
  5
138B
100
AcDbEntity
  8
5
100
AcDbLine
 10
75.131633
 20
135.612011
 30
0.0
 11
100.817347
 21
135.612011
 31
0.0
  0
LINE
  5
138C
100
AcDbEntity
  8
0
100
AcDbLine
 10
75.817347
 20
136.212011
 30
0.0
 11
100.817347
 21
136.212011
 31
0.0
  0
POLYLINE
  5
138D
100
AcDbEntity
  8
0
100
AcDb2dPolyline
 66
     1
 10
0.0
 20
0.0
 30
0.0
  0
VERTEX
  5
138E
100
AcDbEntity
  8
0
100
AcDbVertex
100
AcDb2dVertex
 10
73.817347
 20
130.212011
 30
0.0
  0
VERTEX
  5
138F
100
AcDbEntity
  8
0
100
AcDbVertex
100
AcDb2dVertex
 10
73.817347
 20
125.962011
 30
0.0
  0
SEQEND
  5
1390
100
AcDbEntity
  8
0
  0
LINE
  5
1391
100
AcDbEntity
  8
0
100
AcDbLine
 10
73.817347
 20
125.962011
 30
0.0
 11
73.817347
 21
130.212011
 31
0.0
  0
POLYLINE
  5
1392
100
AcDbEntity
  8
0
100
AcDb2dPolyline
 66
     1
 10
0.0
 20
0.0
 30
0.0
  0
VERTEX
  5
1393
100
AcDbEntity
  8
0
100
AcDbVertex
100
AcDb2dVertex
 10
75.817347
 20
130.212011
 30
0.0
  0
VERTEX
  5
1394
100
AcDbEntity
  8
0
100
AcDbVertex
100
AcDb2dVertex
 10
75.817347
 20
124.212011
 30
0.0
  0
SEQEND
  5
1395
100
AcDbEntity
  8
0
  0
POLYLINE
  5
1396
100
AcDbEntity
  8
0
100
AcDb2dPolyline
 66
     1
 10
0.0
 20
0.0
 30
0.0
  0
VERTEX
  5
1397
100
AcDbEntity
  8
0
100
AcDbVertex
100
AcDb2dVertex
 10
68.817347
 20
130.212011
 30
0.0
  0
VERTEX
  5
1398
100
AcDbEntity
  8
0
100
AcDbVertex
100
AcDb2dVertex
 10
68.817347
 20
125.962011
 30
0.0
  0
SEQEND
  5
1399
100
AcDbEntity
  8
0
  0
LINE
  5
139A
100
AcDbEntity
  8
0
100
AcDbLine
 10
68.817347
 20
125.962011
 30
0.0
 11
73.817347
 21
125.962011
 31
0.0
  0
POLYLINE
  5
139B
100
AcDbEntity
  8
0
100
AcDb2dPolyline
 66
     1
 10
0.0
 20
0.0
 30
0.0
  0
VERTEX
  5
139C
100
AcDbEntity
  8
0
100
AcDbVertex
100
AcDb2dVertex
 10
75.817347
 20
124.212011
 30
0.0
  0
VERTEX
  5
139D
100
AcDbEntity
  8
0
100
AcDbVertex
100
AcDb2dVertex
 10
73.817347
 20
125.962011
 30
0.0
  0
SEQEND
  5
139E
100
AcDbEntity
  8
0
  0
LINE
  5
139F
100
AcDbEntity
  8
0
100
AcDbLine
 10
68.817347
 20
134.462011
 30
0.0
 11
73.817347
 21
134.462011
 31
0.0
  0
POLYLINE
  5
13A0
100
AcDbEntity
  8
0
100
AcDb2dPolyline
 66
     1
 10
0.0
 20
0.0
 30
0.0
  0
VERTEX
  5
13A1
100
AcDbEntity
  8
0
100
AcDbVertex
100
AcDb2dVertex
 10
68.817347
 20
130.212011
 30
0.0
  0
VERTEX
  5
13A2
100
AcDbEntity
  8
0
100
AcDbVertex
100
AcDb2dVertex
 10
68.817347
 20
134.462011
 30
0.0
  0
SEQEND
  5
13A3
100
AcDbEntity
  8
0
  0
POLYLINE
  5
13A4
100
AcDbEntity
  8
0
100
AcDb2dPolyline
 66
     1
 10
0.0
 20
0.0
 30
0.0
  0
VERTEX
  5
13A5
100
AcDbEntity
  8
0
100
AcDbVertex
100
AcDb2dVertex
 10
75.817347
 20
136.212011
 30
0.0
  0
VERTEX
  5
13A6
100
AcDbEntity
  8
0
100
AcDbVertex
100
AcDb2dVertex
 10
73.817347
 20
134.462011
 30
0.0
  0
SEQEND
  5
13A7
100
AcDbEntity
  8
0
  0
LINE
  5
13A8
100
AcDbEntity
  8
0
100
AcDbLine
 10
73.817347
 20
134.462011
 30
0.0
 11
73.817347
 21
130.212011
 31
0.0
  0
POLYLINE
  5
13A9
100
AcDbEntity
  8
0
100
AcDb2dPolyline
 66
     1
 10
0.0
 20
0.0
 30
0.0
  0
VERTEX
  5
13AA
100
AcDbEntity
  8
0
100
AcDbVertex
100
AcDb2dVertex
 10
73.817347
 20
130.212011
 30
0.0
  0
VERTEX
  5
13AB
100
AcDbEntity
  8
0
100
AcDbVertex
100
AcDb2dVertex
 10
73.817347
 20
134.462011
 30
0.0
  0
SEQEND
  5
13AC
100
AcDbEntity
  8
0
  0
POLYLINE
  5
13AD
100
AcDbEntity
  8
0
100
AcDb2dPolyline
 66
     1
 10
0.0
 20
0.0
 30
0.0
  0
VERTEX
  5
13AE
100
AcDbEntity
  8
0
100
AcDbVertex
100
AcDb2dVertex
 10
75.817347
 20
130.212011
 30
0.0
  0
VERTEX
  5
13AF
100
AcDbEntity
  8
0
100
AcDbVertex
100
AcDb2dVertex
 10
75.817347
 20
136.212011
 30
0.0
  0
SEQEND
  5
13B0
100
AcDbEntity
  8
0
  0
LINE
  5
13B1
100
AcDbEntity
  8
0
100
AcDbLine
 10
104.817347
 20
136.212011
 30
0.0
 11
104.817347
 21
124.212011
 31
0.0
  0
ARC
  5
13B2
100
AcDbEntity
  8
0
100
AcDbCircle
 10
68.882342
 20
130.212011
 30
0.0
 40
35.935006
100
AcDbArc
 50
353.542534
 51
6.457466
  0
ARC
  5
13B3
100
AcDbEntity
  8
0
100
AcDbCircle
 10
136.752353
 20
130.212011
 30
0.0
 40
35.935006
100
AcDbArc
 50
173.542534
 51
186.457466
  0
LINE
  5
13B4
100
AcDbEntity
  8
0
100
AcDbLine
 10
100.817347
 20
136.274189
 30
0.0
 11
100.817347
 21
124.149833
 31
0.0
  0
POLYLINE
  5
13B5
100
AcDbEntity
  8
0
100
AcDb2dPolyline
 66
     1
 10
0.0
 20
0.0
 30
0.0
  0
VERTEX
  5
13B6
100
AcDbEntity
  8
0
100
AcDbVertex
100
AcDb2dVertex
 10
117.067347
 20
124.212011
 30
0.0
  0
VERTEX
  5
13B7
100
AcDbEntity
  8
0
100
AcDbVertex
100
AcDb2dVertex
 10
117.067347
 20
130.212011
 30
0.0
  0
SEQEND
  5
13B8
100
AcDbEntity
  8
0
  0
POLYLINE
  5
13B9
100
AcDbEntity
  8
0
100
AcDb2dPolyline
 66
     1
 10
0.0
 20
0.0
 30
0.0
  0
VERTEX
  5
13BA
100
AcDbEntity
  8
0
100
AcDbVertex
100
AcDb2dVertex
 10
117.817347
 20
124.962011
 30
0.0
  0
VERTEX
  5
13BB
100
AcDbEntity
  8
0
100
AcDbVertex
100
AcDb2dVertex
 10
117.817347
 20
130.212011
 30
0.0
  0
SEQEND
  5
13BC
100
AcDbEntity
  8
0
  0
POLYLINE
  5
13BD
100
AcDbEntity
  8
0
100
AcDb2dPolyline
 66
     1
 10
0.0
 20
0.0
 30
0.0
  0
VERTEX
  5
13BE
100
AcDbEntity
  8
0
100
AcDbVertex
100
AcDb2dVertex
 10
118.817347
 20
130.212011
 30
0.0
  0
VERTEX
  5
13BF
100
AcDbEntity
  8
0
100
AcDbVertex
100
AcDb2dVertex
 10
118.817347
 20
124.962011
 30
0.0
  0
SEQEND
  5
13C0
100
AcDbEntity
  8
0
  0
LINE
  5
13C1
100
AcDbEntity
  8
0
100
AcDbLine
 10
101.045333
 20
122.129107
 30
0.0
 11
104.589362
 21
122.129107
 31
0.0
  0
LINE
  5
13C2
100
AcDbEntity
  8
0
100
AcDbLine
 10
101.045333
 20
126.170559
 30
0.0
 11
104.589362
 21
126.170559
 31
0.0
  0
ARC
  5
13C3
100
AcDbEntity
  8
0
100
AcDbCircle
 10
109.886593
 20
124.149833
 30
0.0
 40
9.069246
100
AcDbArc
 50
167.125821
 51
192.874179
  0
LINE
  5
13C4
100
AcDbEntity
  8
0
100
AcDbLine
 10
104.817347
 20
124.15188
 30
0.0
 11
104.877478
 21
124.212011
 31
0.0
  0
ARC
  5
13C5
100
AcDbEntity
  8
0
100
AcDbCircle
 10
95.748101
 20
124.149833
 30
0.0
 40
9.069246
100
AcDbArc
 50
347.125821
 51
12.874179
  0
LINE
  5
13C6
100
AcDbEntity
  8
0
100
AcDbLine
 10
114.817347
 20
124.212011
 30
0.0
 11
117.067347
 21
124.212011
 31
0.0
  0
LINE
  5
13C7
100
AcDbEntity
  8
5
100
AcDbLine
 10
114.817347
 20
124.812011
 30
0.0
 11
117.667347
 21
124.812011
 31
0.0
  0
POLYLINE
  5
13C8
100
AcDbEntity
  8
0
100
AcDb2dPolyline
 66
     1
 10
0.0
 20
0.0
 30
0.0
  0
VERTEX
  5
13C9
100
AcDbEntity
  8
0
100
AcDbVertex
100
AcDb2dVertex
 10
117.067347
 20
124.212011
 30
0.0
  0
VERTEX
  5
13CA
100
AcDbEntity
  8
0
100
AcDbVertex
100
AcDb2dVertex
 10
117.817347
 20
124.962011
 30
0.0
  0
SEQEND
  5
13CB
100
AcDbEntity
  8
0
  0
LINE
  5
13CC
100
AcDbEntity
  8
0
100
AcDbLine
 10
101.045333
 20
134.253463
 30
0.0
 11
104.589362
 21
134.253463
 31
0.0
  0
LINE
  5
13CD
100
AcDbEntity
  8
0
100
AcDbLine
 10
101.045333
 20
138.294915
 30
0.0
 11
104.589362
 21
138.294915
 31
0.0
  0
ARC
  5
13CE
100
AcDbEntity
  8
0
100
AcDbCircle
 10
109.886593
 20
136.274189
 30
0.0
 40
9.069246
100
AcDbArc
 50
167.125821
 51
192.874179
  0
ARC
  5
13CF
100
AcDbEntity
  8
0
100
AcDbCircle
 10
95.748101
 20
136.274189
 30
0.0
 40
9.069246
100
AcDbArc
 50
347.125821
 51
12.874179
  0
LINE
  5
13D0
100
AcDbEntity
  8
0
100
AcDbLine
 10
114.817347
 20
136.212011
 30
0.0
 11
117.067347
 21
136.212011
 31
0.0
  0
LINE
  5
13D1
100
AcDbEntity
  8
5
100
AcDbLine
 10
114.817347
 20
135.612011
 30
0.0
 11
117.667347
 21
135.612011
 31
0.0
  0
POLYLINE
  5
13D2
100
AcDbEntity
  8
0
100
AcDb2dPolyline
 66
     1
 10
0.0
 20
0.0
 30
0.0
  0
VERTEX
  5
13D3
100
AcDbEntity
  8
0
100
AcDbVertex
100
AcDb2dVertex
 10
118.817347
 20
130.212011
 30
0.0
  0
VERTEX
  5
13D4
100
AcDbEntity
  8
0
100
AcDbVertex
100
AcDb2dVertex
 10
118.817347
 20
135.462011
 30
0.0
  0
SEQEND
  5
13D5
100
AcDbEntity
  8
0
  0
POLYLINE
  5
13D6
100
AcDbEntity
  8
0
100
AcDb2dPolyline
 66
     1
 10
0.0
 20
0.0
 30
0.0
  0
VERTEX
  5
13D7
100
AcDbEntity
  8
0
100
AcDbVertex
100
AcDb2dVertex
 10
117.817347
 20
135.462011
 30
0.0
  0
VERTEX
  5
13D8
100
AcDbEntity
  8
0
100
AcDbVertex
100
AcDb2dVertex
 10
117.817347
 20
130.212011
 30
0.0
  0
SEQEND
  5
13D9
100
AcDbEntity
  8
0
  0
POLYLINE
  5
13DA
100
AcDbEntity
  8
0
100
AcDb2dPolyline
 66
     1
 10
0.0
 20
0.0
 30
0.0
  0
VERTEX
  5
13DB
100
AcDbEntity
  8
0
100
AcDbVertex
100
AcDb2dVertex
 10
117.067347
 20
136.212011
 30
0.0
  0
VERTEX
  5
13DC
100
AcDbEntity
  8
0
100
AcDbVertex
100
AcDb2dVertex
 10
117.067347
 20
130.212011
 30
0.0
  0
SEQEND
  5
13DD
100
AcDbEntity
  8
0
  0
POLYLINE
  5
13DE
100
AcDbEntity
  8
0
100
AcDb2dPolyline
 66
     1
 10
0.0
 20
0.0
 30
0.0
  0
VERTEX
  5
13DF
100
AcDbEntity
  8
0
100
AcDbVertex
100
AcDb2dVertex
 10
117.067347
 20
136.212011
 30
0.0
  0
VERTEX
  5
13E0
100
AcDbEntity
  8
0
100
AcDbVertex
100
AcDb2dVertex
 10
117.817347
 20
135.462011
 30
0.0
  0
SEQEND
  5
13E1
100
AcDbEntity
  8
0
  0
POLYLINE
  5
13E2
100
AcDbEntity
  8
0
100
AcDb2dPolyline
 66
     1
 10
0.0
 20
0.0
 30
0.0
  0
VERTEX
  5
13E3
100
AcDbEntity
  8
0
100
AcDbVertex
100
AcDb2dVertex
 10
129.317347
 20
130.212011
 30
0.0
  0
VERTEX
  5
13E4
100
AcDbEntity
  8
0
100
AcDbVertex
100
AcDb2dVertex
 10
129.317347
 20
128.212011
 30
0.0
  0
SEQEND
  5
13E5
100
AcDbEntity
  8
0
  0
POLYLINE
  5
13E6
100
AcDbEntity
  8
0
100
AcDb2dPolyline
 66
     1
 10
0.0
 20
0.0
 30
0.0
  0
VERTEX
  5
13E7
100
AcDbEntity
  8
0
100
AcDbVertex
100
AcDb2dVertex
 10
128.317347
 20
126.412011
 30
0.0
  0
VERTEX
  5
13E8
100
AcDbEntity
  8
0
100
AcDbVertex
100
AcDb2dVertex
 10
128.317347
 20
130.212011
 30
0.0
  0
SEQEND
  5
13E9
100
AcDbEntity
  8
0
  0
POLYLINE
  5
13EA
100
AcDbEntity
  8
0
100
AcDb2dPolyline
 66
     1
 10
0.0
 20
0.0
 30
0.0
  0
VERTEX
  5
13EB
100
AcDbEntity
  8
0
100
AcDbVertex
100
AcDb2dVertex
 10
120.317347
 20
124.962011
 30
0.0
  0
VERTEX
  5
13EC
100
AcDbEntity
  8
0
100
AcDbVertex
100
AcDb2dVertex
 10
120.317347
 20
130.212011
 30
0.0
  0
SEQEND
  5
13ED
100
AcDbEntity
  8
0
  0
POLYLINE
  5
13EE
100
AcDbEntity
  8
0
100
AcDb2dPolyline
 66
     1
 10
0.0
 20
0.0
 30
0.0
  0
VERTEX
  5
13EF
100
AcDbEntity
  8
0
100
AcDbVertex
100
AcDb2dVertex
 10
120.817347
 20
130.212011
 30
0.0
  0
VERTEX
  5
13F0
100
AcDbEntity
  8
0
100
AcDbVertex
100
AcDb2dVertex
 10
120.817347
 20
126.412011
 30
0.0
  0
SEQEND
  5
13F1
100
AcDbEntity
  8
0
  0
POLYLINE
  5
13F2
100
AcDbEntity
  8
0
100
AcDb2dPolyline
 66
     1
 10
0.0
 20
0.0
 30
0.0
  0
VERTEX
  5
13F3
100
AcDbEntity
  8
0
100
AcDbVertex
100
AcDb2dVertex
 10
128.817347
 20
130.212011
 30
0.0
  0
VERTEX
  5
13F4
100
AcDbEntity
  8
0
100
AcDbVertex
100
AcDb2dVertex
 10
128.817347
 20
126.912011
 30
0.0
  0
VERTEX
  5
13F5
100
AcDbEntity
  8
0
100
AcDbVertex
100
AcDb2dVertex
 10
128.317347
 20
126.412011
 30
0.0
  0
VERTEX
  5
13F6
100
AcDbEntity
  8
0
100
AcDbVertex
100
AcDb2dVertex
 10
121.317347
 20
126.412011
 30
0.0
  0
SEQEND
  5
13F7
100
AcDbEntity
  8
0
  0
POLYLINE
  5
13F8
100
AcDbEntity
  8
0
100
AcDb2dPolyline
 66
     1
 10
0.0
 20
0.0
 30
0.0
  0
VERTEX
  5
13F9
100
AcDbEntity
  8
0
100
AcDbVertex
100
AcDb2dVertex
 10
128.817347
 20
127.712011
 30
0.0
  0
VERTEX
  5
13FA
100
AcDbEntity
  8
0
100
AcDbVertex
100
AcDb2dVertex
 10
129.317347
 20
128.212011
 30
0.0
  0
SEQEND
  5
13FB
100
AcDbEntity
  8
0
  0
POLYLINE
  5
13FC
100
AcDbEntity
  8
0
100
AcDb2dPolyline
 66
     1
 10
0.0
 20
0.0
 30
0.0
  0
VERTEX
  5
13FD
100
AcDbEntity
  8
0
100
AcDbVertex
100
AcDb2dVertex
 10
128.817347
 20
130.212011
 30
0.0
  0
VERTEX
  5
13FE
100
AcDbEntity
  8
0
100
AcDbVertex
100
AcDb2dVertex
 10
128.817347
 20
133.512011
 30
0.0
  0
VERTEX
  5
13FF
100
AcDbEntity
  8
0
100
AcDbVertex
100
AcDb2dVertex
 10
128.317347
 20
134.012011
 30
0.0
  0
VERTEX
  5
1400
100
AcDbEntity
  8
0
100
AcDbVertex
100
AcDb2dVertex
 10
121.317347
 20
134.012011
 30
0.0
  0
SEQEND
  5
1401
100
AcDbEntity
  8
0
  0
POLYLINE
  5
1402
100
AcDbEntity
  8
0
100
AcDb2dPolyline
 66
     1
 10
0.0
 20
0.0
 30
0.0
  0
VERTEX
  5
1403
100
AcDbEntity
  8
0
100
AcDbVertex
100
AcDb2dVertex
 10
120.817347
 20
130.212011
 30
0.0
  0
VERTEX
  5
1404
100
AcDbEntity
  8
0
100
AcDbVertex
100
AcDb2dVertex
 10
120.817347
 20
134.012011
 30
0.0
  0
SEQEND
  5
1405
100
AcDbEntity
  8
0
  0
POLYLINE
  5
1406
100
AcDbEntity
  8
0
100
AcDb2dPolyline
 66
     1
 10
0.0
 20
0.0
 30
0.0
  0
VERTEX
  5
1407
100
AcDbEntity
  8
0
100
AcDbVertex
100
AcDb2dVertex
 10
120.317347
 20
135.462011
 30
0.0
  0
VERTEX
  5
1408
100
AcDbEntity
  8
0
100
AcDbVertex
100
AcDb2dVertex
 10
120.317347
 20
130.212011
 30
0.0
  0
SEQEND
  5
1409
100
AcDbEntity
  8
0
  0
POLYLINE
  5
140A
100
AcDbEntity
  8
0
100
AcDb2dPolyline
 66
     1
 10
0.0
 20
0.0
 30
0.0
  0
VERTEX
  5
140B
100
AcDbEntity
  8
0
100
AcDbVertex
100
AcDb2dVertex
 10
128.817347
 20
132.712011
 30
0.0
  0
VERTEX
  5
140C
100
AcDbEntity
  8
0
100
AcDbVertex
100
AcDb2dVertex
 10
129.317347
 20
132.212011
 30
0.0
  0
SEQEND
  5
140D
100
AcDbEntity
  8
0
  0
POLYLINE
  5
140E
100
AcDbEntity
  8
0
100
AcDb2dPolyline
 66
     1
 10
0.0
 20
0.0
 30
0.0
  0
VERTEX
  5
140F
100
AcDbEntity
  8
0
100
AcDbVertex
100
AcDb2dVertex
 10
129.317347
 20
130.212011
 30
0.0
  0
VERTEX
  5
1410
100
AcDbEntity
  8
0
100
AcDbVertex
100
AcDb2dVertex
 10
129.317347
 20
132.212011
 30
0.0
  0
SEQEND
  5
1411
100
AcDbEntity
  8
0
  0
POLYLINE
  5
1412
100
AcDbEntity
  8
0
100
AcDb2dPolyline
 66
     1
 10
0.0
 20
0.0
 30
0.0
  0
VERTEX
  5
1413
100
AcDbEntity
  8
0
100
AcDbVertex
100
AcDb2dVertex
 10
128.317347
 20
134.012011
 30
0.0
  0
VERTEX
  5
1414
100
AcDbEntity
  8
0
100
AcDbVertex
100
AcDb2dVertex
 10
128.317347
 20
130.212011
 30
0.0
  0
SEQEND
  5
1415
100
AcDbEntity
  8
0
  0
LINE
  5
1419
100
AcDbEntity
  8
0
 48
2.0
100
AcDbLine
 10
73.317347
 20
250.904769
 30
0.0
 11
73.317347
 21
251.154769
 31
0.0
1001
ACAD
1000
RTLwPs
1070
   128
  0
LINE
  5
141A
100
AcDbEntity
  8
0
 48
2.0
100
AcDbLine
 10
73.317347
 20
261.904769
 30
0.0
 11
64.817347
 21
261.904769
 31
0.0
1001
ACAD
1000
RTLwPs
1070
   128
  0
LINE
  5
141B
100
AcDbEntity
  8
0
 48
2.0
100
AcDbLine
 10
64.817347
 20
250.904769
 30
0.0
 11
64.817347
 21
261.904769
 31
0.0
1001
ACAD
1000
RTLwPs
1070
   128
  0
LINE
  5
141C
100
AcDbEntity
  8
0
 48
2.0
100
AcDbLine
 10
64.817347
 20
250.904769
 30
0.0
 11
73.317347
 21
250.904769
 31
0.0
1001
ACAD
1000
RTLwPs
1070
   128
  0
LINE
  5
141D
100
AcDbEntity
  8
0
100
AcDbLine
 10
73.017347
 20
235.904769
 30
0.0
 11
65.117347
 21
235.904769
 31
0.0
1001
ACAD
1000
RTLwPs
1070
   128
  0
LINE
  5
141E
100
AcDbEntity
  8
0
100
AcDbLine
 10
67.567347
 20
223.904769
 30
0.0
 11
70.567347
 21
223.904769
 31
0.0
1001
ACAD
1000
RTLwPs
1070
   128
  0
LINE
  5
141F
100
AcDbEntity
  8
0
100
AcDbLine
 10
73.017347
 20
250.904769
 30
0.0
 11
73.017347
 21
235.904769
 31
0.0
1001
ACAD
1000
RTLwPs
1070
   128
  0
LINE
  5
1420
100
AcDbEntity
  8
0
100
AcDbLine
 10
70.567347
 20
235.904769
 30
0.0
 11
70.567347
 21
223.904769
 31
0.0
1001
ACAD
1000
RTLwPs
1070
   128
  0
LINE
  5
1421
100
AcDbEntity
  8
0
100
AcDbLine
 10
65.117347
 20
235.904769
 30
0.0
 11
65.117347
 21
250.904769
 31
0.0
1001
ACAD
1000
RTLwPs
1070
   128
  0
LINE
  5
1422
100
AcDbEntity
  8
0
100
AcDbLine
 10
67.567347
 20
223.904769
 30
0.0
 11
67.567347
 21
235.904769
 31
0.0
1001
ACAD
1000
RTLwPs
1070
   128
  0
LINE
  5
1452
100
AcDbEntity
  8
0
 48
2.0
100
AcDbLine
 10
73.317347
 20
259.654769
 30
0.0
 11
73.317347
 21
261.904769
 31
0.0
1001
ACAD
1000
RTLwPs
1070
   128
  0
LINE
  5
14B0
100
AcDbEntity
  8
0
100
AcDbLine
 10
411.317347
 20
251.154769
 30
0.0
 11
411.317347
 21
250.904769
 31
0.0
  0
LINE
  5
1563
100
AcDbEntity
  8
0
100
AcDbLine
 10
352.817347
 20
144.212011
 30
0.0
 11
352.817347
 21
134.012011
 31
0.0
  0
LINE
  5
1564
100
AcDbEntity
  8
0
100
AcDbLine
 10
352.817347
 20
126.412011
 30
0.0
 11
352.817347
 21
97.012011
 31
0.0
  0
LINE
  5
1565
100
AcDbEntity
  8
0
100
AcDbLine
 10
352.817347
 20
89.412011
 30
0.0
 11
352.817347
 21
79.212011
 31
0.0
  0
CIRCLE
  5
156D
100
AcDbEntity
  8
0
100
AcDbCircle
 10
212.317347
 20
136.712011
 30
0.0
 40
5.0
1001
ACAD
1000
RTLwPs
1070
   128
  0
CIRCLE
  5
156E
100
AcDbEntity
  8
0
100
AcDbCircle
 10
172.317347
 20
86.712011
 30
0.0
 40
5.0
1001
ACAD
1000
RTLwPs
1070
   128
  0
LINE
  5
156F
100
AcDbEntity
  8
0
100
AcDbLine
 10
121.317347
 20
97.012011
 30
0.0
 11
121.317347
 21
89.412011
 31
0.0
  0
LINE
  5
1570
100
AcDbEntity
  8
0
100
AcDbLine
 10
121.317347
 20
134.012011
 30
0.0
 11
121.317347
 21
126.412011
 31
0.0
  0
LINE
  5
1576
100
AcDbEntity
  8
0
100
AcDbLine
 10
120.817347
 20
131.862011
 30
0.0
 11
121.317347
 21
131.862011
 31
0.0
  0
LINE
  5
1577
100
AcDbEntity
  8
0
100
AcDbLine
 10
120.817347
 20
128.562011
 30
0.0
 11
121.317347
 21
128.562011
 31
0.0
  0
LINE
  5
1578
100
AcDbEntity
  8
0
100
AcDbLine
 10
120.817347
 20
94.862011
 30
0.0
 11
121.317347
 21
94.862011
 31
0.0
  0
LINE
  5
1579
100
AcDbEntity
  8
0
100
AcDbLine
 10
120.817347
 20
91.562011
 30
0.0
 11
121.317347
 21
91.562011
 31
0.0
  0
LINE
  5
15AF
100
AcDbEntity
  8
0
100
AcDbLine
 10
123.992347
 20
250.604769
 30
0.0
 11
123.992347
 21
251.604769
 31
0.0
1001
ACAD
1000
RTLwPs
1070
   128
  0
LINE
  5
15B0
100
AcDbEntity
  8
0
100
AcDbLine
 10
124.317347
 20
251.164769
 30
0.0
 11
124.317347
 21
251.604769
 31
0.0
1001
ACAD
1000
RTLwPs
1070
   128
  0
LINE
  5
15B1
100
AcDbEntity
  8
0
100
AcDbLine
 10
120.317347
 20
260.604769
 30
0.0
 11
120.317347
 21
255.404769
 31
0.0
  0
SPLINE
  5
15B2
100
AcDbEntity
  8
0
100
AcDbSpline
210
0.0
220
0.0
230
-1.0
 70
     8
 71
     3
 72
     8
 73
     4
 74
     0
 42
0.0000001
 43
0.0000001
 40
0.0
 40
0.0
 40
0.0
 40
0.0
 40
0.3202775157904286
 40
0.3202775157904286
 40
0.3202775157904286
 40
0.3202775157904286
 10
120.7639293840889
 20
260.6047691995247
 30
0.0
 10
120.7368205617418
 20
260.4995508370986
 30
0.0
 10
120.7097117393947
 20
260.3943324746725
 30
0.0
 10
120.683002483982
 20
260.2891141122464
 30
0.0
  0
LINE
  5
15B3
100
AcDbEntity
  8
0
100
AcDbLine
 10
120.763929
 20
250.604769
 30
0.0
 11
123.992347
 21
250.604769
 31
0.0
1001
ACAD
1000
RTLwPs
1070
   128
  0
LINE
  5
15B6
100
AcDbEntity
  8
0
100
AcDbLine
 10
124.317347
 20
251.164769
 30
0.0
 11
123.992347
 21
251.164769
 31
0.0
1001
ACAD
1000
RTLwPs
1070
   128
  0
LINE
  5
15B8
100
AcDbEntity
  8
0
100
AcDbLine
 10
120.317347
 20
255.404769
 30
0.0
 11
120.317347
 21
250.604769
 31
0.0
  0
LINE
  5
15BA
100
AcDbEntity
  8
0
100
AcDbLine
 10
120.763929
 20
260.604769
 30
0.0
 11
123.992347
 21
260.604769
 31
0.0
1001
ACAD
1000
RTLwPs
1070
   128
  0
LINE
  5
15BC
100
AcDbEntity
  8
0
100
AcDbLine
 10
123.992347
 20
260.044769
 30
0.0
 11
124.317347
 21
260.044769
 31
0.0
1001
ACAD
1000
RTLwPs
1070
   128
  0
LINE
  5
15BD
100
AcDbEntity
  8
0
100
AcDbLine
 10
120.763929
 20
260.604769
 30
0.0
 11
120.317347
 21
260.604769
 31
0.0
1001
ACAD
1000
RTLwPs
1070
   128
  0
LINE
  5
15BE
100
AcDbEntity
  8
0
100
AcDbLine
 10
124.317347
 20
259.204769
 30
0.0
 11
124.317347
 21
260.044769
 31
0.0
1001
ACAD
1000
RTLwPs
1070
   128
  0
LINE
  5
15BF
100
AcDbEntity
  8
0
100
AcDbLine
 10
123.992347
 20
259.204769
 30
0.0
 11
123.992347
 21
260.604769
 31
0.0
1001
ACAD
1000
RTLwPs
1070
   128
  0
LINE
  5
15C2
100
AcDbEntity
  8
0
100
AcDbLine
 10
120.817347
 20
257.054769
 30
0.0
 11
121.317347
 21
257.054769
 31
0.0
  0
LINE
  5
15C3
100
AcDbEntity
  8
0
100
AcDbLine
 10
120.817347
 20
253.754769
 30
0.0
 11
121.317347
 21
253.754769
 31
0.0
  0
LINE
  5
15D4
100
AcDbEntity
  8
7A
100
AcDbLine
 10
148.317347
 20
136.712011
 30
0.0
 11
236.317347
 21
136.712011
 31
0.0
  0
LINE
  5
15D7
100
AcDbEntity
  8
7A
100
AcDbLine
 10
152.317347
 20
140.712011
 30
0.0
 11
152.317347
 21
132.712011
 31
0.0
  0
LINE
  5
15D8
100
AcDbEntity
  8
7A
100
AcDbLine
 10
172.317347
 20
143.212011
 30
0.0
 11
172.317347
 21
130.212011
 31
0.0
  0
LINE
  5
15D9
100
AcDbEntity
  8
7A
100
AcDbLine
 10
192.317347
 20
140.712011
 30
0.0
 11
192.317347
 21
132.712011
 31
0.0
  0
LINE
  5
15DA
100
AcDbEntity
  8
7A
100
AcDbLine
 10
232.317347
 20
140.712011
 30
0.0
 11
232.317347
 21
132.712011
 31
0.0
  0
LINE
  5
15DB
100
AcDbEntity
  8
7A
100
AcDbLine
 10
212.317347
 20
143.212011
 30
0.0
 11
212.317347
 21
130.212011
 31
0.0
  0
LINE
  5
15DC
100
AcDbEntity
  8
7A
100
AcDbLine
 10
148.317347
 20
86.712011
 30
0.0
 11
236.317347
 21
86.712011
 31
0.0
  0
LINE
  5
15DD
100
AcDbEntity
  8
7A
100
AcDbLine
 10
232.317347
 20
90.712011
 30
0.0
 11
232.317347
 21
82.712011
 31
0.0
  0
LINE
  5
15DE
100
AcDbEntity
  8
7A
100
AcDbLine
 10
212.317347
 20
93.212011
 30
0.0
 11
212.317347
 21
80.212011
 31
0.0
  0
LINE
  5
15DF
100
AcDbEntity
  8
7A
100
AcDbLine
 10
192.317347
 20
90.712011
 30
0.0
 11
192.317347
 21
82.712011
 31
0.0
  0
LINE
  5
15E0
100
AcDbEntity
  8
7A
100
AcDbLine
 10
172.317347
 20
93.212011
 30
0.0
 11
172.317347
 21
80.212011
 31
0.0
  0
LINE
  5
15E1
100
AcDbEntity
  8
7A
100
AcDbLine
 10
152.317347
 20
90.712011
 30
0.0
 11
152.317347
 21
82.712011
 31
0.0
  0
LINE
  5
15E2
100
AcDbEntity
  8
7A
100
AcDbLine
 10
63.317347
 20
111.712011
 30
0.0
 11
421.317347
 21
111.712011
 31
0.0
  0
LINE
  5
15E3
100
AcDbEntity
  8
7A
100
AcDbLine
 10
344.317347
 20
255.404769
 30
0.0
 11
417.317347
 21
255.404769
 31
0.0
  0
LINE
  5
15E4
100
AcDbEntity
  8
7A
100
AcDbLine
 10
67.317347
 20
255.404769
 30
0.0
 11
130.817347
 21
255.404769
 31
0.0
  0
LINE
  5
15E6
100
AcDbEntity
  8
7A
100
AcDbLine
 10
113.317347
 20
232.704769
 30
0.0
 11
113.317347
 21
224.704769
 31
0.0
  0
LINE
  5
15E8
100
AcDbEntity
  8
7A
100
AcDbLine
 10
109.317347
 20
228.704769
 30
0.0
 11
117.317347
 21
228.704769
 31
0.0
  0
LINE
  5
15E9
100
AcDbEntity
  8
7A
100
AcDbLine
 10
109.317347
 20
202.904769
 30
0.0
 11
117.317347
 21
202.904769
 31
0.0
  0
LINE
  5
15EA
100
AcDbEntity
  8
7A
100
AcDbLine
 10
113.317347
 20
206.904769
 30
0.0
 11
113.317347
 21
198.904769
 31
0.0
  0
LINE
  5
15EB
100
AcDbEntity
  8
7A
100
AcDbLine
 10
456.667664
 20
255.404769
 30
0.0
 11
512.833472
 21
255.404769
 31
0.0
  0
LINE
  5
15EC
100
AcDbEntity
  8
7A
100
AcDbLine
 10
466.250568
 20
263.904769
 30
0.0
 11
466.250568
 21
246.904769
 31
0.0
  0
LINE
  5
15ED
100
AcDbEntity
  8
7A
100
AcDbLine
 10
503.250568
 20
263.904769
 30
0.0
 11
503.250568
 21
246.904769
 31
0.0
  0
LINE
  5
1D8B
100
AcDbEntity
  8
3A
 48
0.5
100
AcDbLine
 10
511.500568
 20
196.10477
 30
0.0
 11
514.300568
 21
196.10477
 31
0.0
1001
ACAD
1000
RTLwPs
1070
   128
  0
SPLINE
  5
1D8C
100
AcDbEntity
  8
3A
 48
0.5
100
AcDbSpline
210
0.0
220
0.0
230
1.0
 70
     8
 71
     3
 72
    14
 73
    10
 74
     0
 42
0.0000001
 43
0.0000001
 40
0.0
 40
0.0
 40
0.0
 40
0.0
 40
0.3596254697183705
 40
0.3596254697183705
 40
0.3596254697183705
 40
0.9902193287425562
 40
0.9902193287425562
 40
0.9902193287425562
 40
1.0
 40
1.0
 40
1.0
 40
1.0
 10
514.3005678671395
 20
196.1047701995248
 30
0.0
 10
514.348665786493
 20
196.1155425959548
 30
0.0
 10
514.3883666000881
 20
196.1241606009796
 30
0.0
 10
514.419171761496
 20
196.1437325758354
 30
0.0
 10
514.4731878066477
 20
196.1780515220512
 30
0.0
 10
514.4998526518807
 20
196.2460503168539
 30
0.0
 10
514.5005491170297
 20
196.3020316429018
 30
0.0
 10
514.5005599193814
 20
196.3028999275176
 30
0.0
 10
514.5005644745721
 20
196.303765321115
 30
0.0
 10
514.5005678671395
 20
196.3047701995247
 30
0.0
1001
ACAD
1000
RTLwPs
1070
   128
  0
SPLINE
  5
1D8D
100
AcDbEntity
  8
3A
 48
0.5
100
AcDbSpline
210
0.0
220
0.0
230
-1.0
 70
     8
 71
     3
 72
    14
 73
    10
 74
     0
 42
0.0000001
 43
0.0000001
 40
0.0
 40
0.0
 40
0.0
 40
0.0
 40
0.0097806712570603
 40
0.0097806712570603
 40
0.0097806712570603
 40
0.6403745302814891
 40
0.6403745302814891
 40
0.6403745302814891
 40
1.0
 40
1.0
 40
1.0
 40
1.0
 10
455.0005678671397
 20
196.3047701995247
 30
0.0
 10
455.000571259707
 20
196.303765321115
 30
0.0
 10
455.0005758148977
 20
196.3028999275175
 30
0.0
 10
455.0005866172496
 20
196.3020316429016
 30
0.0
 10
455.0012830823985
 20
196.2460503168491
 30
0.0
 10
455.0279479276316
 20
196.1780515220504
 30
0.0
 10
455.0819639727833
 20
196.1437325758354
 30
0.0
 10
455.112769134191
 20
196.12416060098
 30
0.0
 10
455.1524699477862
 20
196.1155425959548
 30
0.0
 10
455.2005678671395
 20
196.1047701995248
 30
0.0
1001
ACAD
1000
RTLwPs
1070
   128
  0
SPLINE
  5
1D8E
100
AcDbEntity
  8
3A
 48
0.5
100
AcDbSpline
210
0.0
220
0.0
230
1.0
 70
     8
 71
     3
 72
    14
 73
    10
 74
     0
 42
0.0000001
 43
0.0000001
 40
0.0
 40
0.0
 40
0.0
 40
0.0
 40
0.0097806712570338
 40
0.0097806712570338
 40
0.0097806712570338
 40
0.6403745302815592
 40
0.6403745302815592
 40
0.6403745302815592
 40
1.0
 40
1.0
 40
1.0
 40
1.0
 10
497.0005678519976
 20
196.3047701995247
 30
0.0
 10
497.0005712445653
 20
196.3037653211149
 30
0.0
 10
497.0005757997558
 20
196.3028999275175
 30
0.0
 10
497.0005866021075
 20
196.3020316429015
 30
0.0
 10
497.0012830672566
 20
196.2460503168463
 30
0.0
 10
497.0279479124896
 20
196.17805152205
 30
0.0
 10
497.0819639576411
 20
196.1437325758354
 30
0.0
 10
497.1127691190491
 20
196.1241606009804
 30
0.0
 10
497.1524699326443
 20
196.1155425959548
 30
0.0
 10
497.2005678519977
 20
196.1047701995248
 30
0.0
1001
ACAD
1000
RTLwPs
1070
   128
  0
LINE
  5
1D8F
100
AcDbEntity
  8
3A
 48
0.5
100
AcDbLine
 10
497.200568
 20
196.10477
 30
0.0
 11
500.000568
 21
196.10477
 31
0.0
1001
ACAD
1000
RTLwPs
1070
   128
  0
LINE
  5
1D93
100
AcDbEntity
  8
3A
 48
0.5
100
AcDbLine
 10
455.200568
 20
196.10477
 30
0.0
 11
458.000568
 21
196.10477
 31
0.0
1001
ACAD
1000
RTLwPs
1070
   128
  0
LINE
  5
1D95
100
AcDbEntity
  8
3A
 48
0.5
100
AcDbLine
 10
469.500568
 20
196.10477
 30
0.0
 11
472.300568
 21
196.10477
 31
0.0
1001
ACAD
1000
RTLwPs
1070
   128
  0
SPLINE
  5
1D96
100
AcDbEntity
  8
3A
 48
0.5
100
AcDbSpline
210
0.0
220
0.0
230
1.0
 70
     8
 71
     3
 72
    14
 73
    10
 74
     0
 42
0.0000001
 43
0.0000001
 40
0.0
 40
0.0
 40
0.0
 40
0.0
 40
0.3596254697182943
 40
0.3596254697182943
 40
0.3596254697182943
 40
0.9902193287425616
 40
0.9902193287425616
 40
0.9902193287425616
 40
1.0
 40
1.0
 40
1.0
 40
1.0
 10
472.3005678822815
 20
196.1047701995248
 30
0.0
 10
472.3486658016349
 20
196.1155425959548
 30
0.0
 10
472.3883666152302
 20
196.1241606009803
 30
0.0
 10
472.4191717766379
 20
196.1437325758354
 30
0.0
 10
472.4731878217897
 20
196.17805152205
 30
0.0
 10
472.4998526670226
 20
196.2460503168468
 30
0.0
 10
472.5005491321717
 20
196.3020316429015
 30
0.0
 10
472.5005599345234
 20
196.3028999275175
 30
0.0
 10
472.5005644897141
 20
196.303765321115
 30
0.0
 10
472.5005678822816
 20
196.3047701995249
 30
0.0
1001
ACAD
1000
RTLwPs
1070
   128
  0
LINE
  5
1D99
100
AcDbEntity
  8
3A
 48
0.5
100
AcDbLine
 10
469.500568
 20
196.10477
 30
0.0
 11
468.400568
 21
196.10477
 31
0.0
1001
ACAD
1000
RTLwPs
1070
   128
  0
ARC
  5
1D9B
100
AcDbEntity
  8
3A
 48
0.5
100
AcDbCircle
 10
468.400568
 20
195.50477
 30
0.0
 40
0.6
100
AcDbArc
 50
90.0
 51
180.0
1001
ACAD
1000
RTLwPs
1070
   128
  0
LINE
  5
1D9C
100
AcDbEntity
  8
3A
 48
0.5
100
AcDbLine
 10
467.800568
 20
195.50477
 30
0.0
 11
467.800568
 21
194.404769
 31
0.0
1001
ACAD
1000
RTLwPs
1070
   128
  0
LINE
  5
1D9E
100
AcDbEntity
  8
3A
 48
0.5
100
AcDbLine
 10
459.100568
 20
196.10477
 30
0.0
 11
458.000568
 21
196.10477
 31
0.0
1001
ACAD
1000
RTLwPs
1070
   128
  0
ARC
  5
1D9F
100
AcDbEntity
  8
3A
 48
0.5
100
AcDbCircle
 10
459.100568
 20
195.50477
 30
0.0
 40
0.6
100
AcDbArc
 50
0.0
 51
90.0
1001
ACAD
1000
RTLwPs
1070
   128
  0
ARC
  5
1DA1
100
AcDbEntity
  8
3A
 48
0.5
100
AcDbCircle
 10
510.400568
 20
195.50477
 30
0.0
 40
0.6
100
AcDbArc
 50
90.0
 51
180.0
1001
ACAD
1000
RTLwPs
1070
   128
  0
LINE
  5
1DA2
100
AcDbEntity
  8
3A
 48
0.5
100
AcDbLine
 10
509.800568
 20
195.50477
 30
0.0
 11
509.800568
 21
194.404769
 31
0.0
1001
ACAD
1000
RTLwPs
1070
   128
  0
LINE
  5
1DA6
100
AcDbEntity
  8
3A
 48
0.5
100
AcDbLine
 10
511.500568
 20
196.10477
 30
0.0
 11
510.400568
 21
196.10477
 31
0.0
1001
ACAD
1000
RTLwPs
1070
   128
  0
LINE
  5
1DA7
100
AcDbEntity
  8
3A
 48
0.5
100
AcDbLine
 10
501.100568
 20
196.10477
 30
0.0
 11
500.000568
 21
196.10477
 31
0.0
1001
ACAD
1000
RTLwPs
1070
   128
  0
LINE
  5
1DAA
100
AcDbEntity
  8
3A
 48
0.5
100
AcDbLine
 10
501.700568
 20
194.404769
 30
0.0
 11
501.700568
 21
195.50477
 31
0.0
1001
ACAD
1000
RTLwPs
1070
   128
  0
ARC
  5
1DAB
100
AcDbEntity
  8
3A
 48
0.5
100
AcDbCircle
 10
501.100568
 20
195.50477
 30
0.0
 40
0.6
100
AcDbArc
 50
0.0
 51
90.0
1001
ACAD
1000
RTLwPs
1070
   128
  0
LINE
  5
1DCC
100
AcDbEntity
  8
3A
 48
0.5
100
AcDbLine
 10
497.000568
 20
196.30477
 30
0.0
 11
497.000568
 21
198.521927
 31
0.0
1001
ACAD
1000
RTLwPs
1070
   128
  0
ARC
  5
1DCD
100
AcDbEntity
  8
3A
 48
0.5
100
AcDbCircle
 10
497.200568
 20
198.521927
 30
0.0
 40
0.2
100
AcDbArc
 50
135.0
 51
180.0
1001
ACAD
1000
RTLwPs
1070
   128
  0
LINE
  5
1DCE
100
AcDbEntity
  8
3A
 48
0.5
100
AcDbLine
 10
497.059146
 20
198.663349
 30
0.0
 11
501.237523
 21
202.841726
 31
0.0
1001
ACAD
1000
RTLwPs
1070
   128
  0
ARC
  5
1DCF
100
AcDbEntity
  8
3A
 48
0.5
100
AcDbCircle
 10
501.378945
 20
202.700304
 30
0.0
 40
0.2
100
AcDbArc
 50
89.999994
 51
135.0
1001
ACAD
1000
RTLwPs
1070
   128
  0
LINE
  5
1DD0
100
AcDbEntity
  8
3A
 48
0.5
100
AcDbLine
 10
501.378945
 20
202.900304
 30
0.0
 11
504.796978
 21
202.900304
 31
0.0
1001
ACAD
1000
RTLwPs
1070
   128
  0
ARC
  5
1DD1
100
AcDbEntity
  8
3A
 48
0.5
100
AcDbCircle
 10
504.796978
 20
203.100304
 30
0.0
 40
0.2
100
AcDbArc
 50
270.000001
 51
299.999988
1001
ACAD
1000
RTLwPs
1070
   128
  0
LINE
  5
1DD2
100
AcDbEntity
  8
3A
 48
0.5
100
AcDbLine
 10
504.896978
 20
202.927099
 30
0.0
 11
505.650568
 21
203.362184
 31
0.0
1001
ACAD
1000
RTLwPs
1070
   128
  0
ARC
  5
1DD3
100
AcDbEntity
  8
3A
 48
0.5
100
AcDbCircle
 10
505.750568
 20
203.188979
 30
0.0
 40
0.2
100
AcDbArc
 50
60.000012
 51
119.999988
1001
ACAD
1000
RTLwPs
1070
   128
  0
LINE
  5
1DD4
100
AcDbEntity
  8
3A
 48
0.5
100
AcDbLine
 10
505.850568
 20
203.362184
 30
0.0
 11
506.604158
 21
202.927099
 31
0.0
1001
ACAD
1000
RTLwPs
1070
   128
  0
ARC
  5
1DD5
100
AcDbEntity
  8
3A
 48
0.5
100
AcDbCircle
 10
506.704158
 20
203.100304
 30
0.0
 40
0.2
100
AcDbArc
 50
240.000012
 51
270.000001
1001
ACAD
1000
RTLwPs
1070
   128
  0
LINE
  5
1DD6
100
AcDbEntity
  8
3A
 48
0.5
100
AcDbLine
 10
506.704158
 20
202.900304
 30
0.0
 11
510.122191
 21
202.900304
 31
0.0
1001
ACAD
1000
RTLwPs
1070
   128
  0
ARC
  5
1DD7
100
AcDbEntity
  8
3A
 48
0.5
100
AcDbCircle
 10
510.122191
 20
202.700304
 30
0.0
 40
0.2
100
AcDbArc
 50
45.0
 51
89.999996
1001
ACAD
1000
RTLwPs
1070
   128
  0
LINE
  5
1DD8
100
AcDbEntity
  8
3A
 48
0.5
100
AcDbLine
 10
510.263613
 20
202.841726
 30
0.0
 11
514.441989
 21
198.663349
 31
0.0
1001
ACAD
1000
RTLwPs
1070
   128
  0
ARC
  5
1DD9
100
AcDbEntity
  8
3A
 48
0.5
100
AcDbCircle
 10
514.300568
 20
198.521927
 30
0.0
 40
0.2
100
AcDbArc
 50
0.0
 51
45.0
1001
ACAD
1000
RTLwPs
1070
   128
  0
LINE
  5
1DDA
100
AcDbEntity
  8
3A
 48
0.5
100
AcDbLine
 10
514.500568
 20
198.521927
 30
0.0
 11
514.500568
 21
196.30477
 31
0.0
1001
ACAD
1000
RTLwPs
1070
   128
  0
LINE
  5
1DFD
100
AcDbEntity
  8
3A
 48
0.5
100
AcDbLine
 10
472.500568
 20
196.30477
 30
0.0
 11
472.500568
 21
198.521927
 31
0.0
1001
ACAD
1000
RTLwPs
1070
   128
  0
ARC
  5
1DFF
100
AcDbEntity
  8
3A
 48
0.5
100
AcDbCircle
 10
464.704158
 20
203.100304
 30
0.0
 40
0.2
100
AcDbArc
 50
240.000012
 51
269.999999
1001
ACAD
1000
RTLwPs
1070
   128
  0
LINE
  5
1E00
100
AcDbEntity
  8
3A
 48
0.5
100
AcDbLine
 10
468.122191
 20
202.900304
 30
0.0
 11
464.704158
 21
202.900304
 31
0.0
1001
ACAD
1000
RTLwPs
1070
   128
  0
ARC
  5
1E01
100
AcDbEntity
  8
3A
 48
0.5
100
AcDbCircle
 10
468.122191
 20
202.700304
 30
0.0
 40
0.2
100
AcDbArc
 50
45.0
 51
90.000006
1001
ACAD
1000
RTLwPs
1070
   128
  0
LINE
  5
1E02
100
AcDbEntity
  8
3A
 48
0.5
100
AcDbLine
 10
472.441989
 20
198.663349
 30
0.0
 11
468.263612
 21
202.841726
 31
0.0
1001
ACAD
1000
RTLwPs
1070
   128
  0
ARC
  5
1E03
100
AcDbEntity
  8
3A
 48
0.5
100
AcDbCircle
 10
472.300568
 20
198.521927
 30
0.0
 40
0.2
100
AcDbArc
 50
0.0
 51
45.0
1001
ACAD
1000
RTLwPs
1070
   128
  0
LINE
  5
1E04
100
AcDbEntity
  8
3A
 48
0.5
100
AcDbLine
 10
462.796978
 20
202.900304
 30
0.0
 11
459.378945
 21
202.900304
 31
0.0
1001
ACAD
1000
RTLwPs
1070
   128
  0
ARC
  5
1E05
100
AcDbEntity
  8
3A
 48
0.5
100
AcDbCircle
 10
462.796978
 20
203.100304
 30
0.0
 40
0.2
100
AcDbArc
 50
269.999999
 51
299.999988
1001
ACAD
1000
RTLwPs
1070
   128
  0
LINE
  5
1E06
100
AcDbEntity
  8
3A
 48
0.5
100
AcDbLine
 10
463.650568
 20
203.362184
 30
0.0
 11
462.896978
 21
202.927099
 31
0.0
1001
ACAD
1000
RTLwPs
1070
   128
  0
ARC
  5
1E07
100
AcDbEntity
  8
3A
 48
0.5
100
AcDbCircle
 10
463.750568
 20
203.188979
 30
0.0
 40
0.2
100
AcDbArc
 50
60.000012
 51
119.999988
1001
ACAD
1000
RTLwPs
1070
   128
  0
LINE
  5
1E08
100
AcDbEntity
  8
3A
 48
0.5
100
AcDbLine
 10
464.604158
 20
202.927099
 30
0.0
 11
463.850568
 21
203.362184
 31
0.0
1001
ACAD
1000
RTLwPs
1070
   128
  0
LINE
  5
1E0A
100
AcDbEntity
  8
3A
 48
0.5
100
AcDbLine
 10
455.000568
 20
198.521927
 30
0.0
 11
455.000568
 21
196.30477
 31
0.0
1001
ACAD
1000
RTLwPs
1070
   128
  0
ARC
  5
1E0C
100
AcDbEntity
  8
3A
 48
0.5
100
AcDbCircle
 10
455.200568
 20
198.521927
 30
0.0
 40
0.2
100
AcDbArc
 50
135.0
 51
180.0
1001
ACAD
1000
RTLwPs
1070
   128
  0
LINE
  5
1E0D
100
AcDbEntity
  8
3A
 48
0.5
100
AcDbLine
 10
459.237523
 20
202.841726
 30
0.0
 11
455.059147
 21
198.663349
 31
0.0
1001
ACAD
1000
RTLwPs
1070
   128
  0
ARC
  5
1E0E
100
AcDbEntity
  8
3A
 48
0.5
100
AcDbCircle
 10
459.378945
 20
202.700304
 30
0.0
 40
0.2
100
AcDbArc
 50
90.000004
 51
135.0
1001
ACAD
1000
RTLwPs
1070
   128
  0
LINE
  5
1E10
100
AcDbEntity
  8
3A
 48
0.5
100
AcDbLine
 10
459.700568
 20
194.404769
 30
0.0
 11
459.700568
 21
195.50477
 31
0.0
1001
ACAD
1000
RTLwPs
1070
   128
  0
LINE
  5
2213
100
AcDbEntity
  8
0
100
AcDbLine
 10
255.317347
 20
141.211835
 30
0.0
 11
352.817347
 21
141.211835
 31
0.0
  0
LINE
  5
2214
100
AcDbEntity
  8
0
100
AcDbLine
 10
255.317347
 20
140.421753
 30
0.0
 11
352.817347
 21
140.421753
 31
0.0
  0
LINE
  5
2215
100
AcDbEntity
  8
0
100
AcDbLine
 10
255.317347
 20
130.001896
 30
0.0
 11
345.817347
 21
130.001896
 31
0.0
  0
LINE
  5
2216
100
AcDbEntity
  8
0
100
AcDbLine
 10
255.317347
 20
129.212064
 30
0.0
 11
345.817347
 21
129.212011
 31
0.0
  0
LINE
  5
2217
100
AcDbEntity
  8
0
100
AcDbLine
 10
255.317347
 20
94.211957
 30
0.0
 11
345.817347
 21
94.212011
 31
0.0
  0
LINE
  5
2218
100
AcDbEntity
  8
0
100
AcDbLine
 10
255.317347
 20
93.415393
 30
0.0
 11
345.817347
 21
93.415393
 31
0.0
  0
LINE
  5
2219
100
AcDbEntity
  8
0
100
AcDbLine
 10
255.317347
 20
83.002205
 30
0.0
 11
352.817347
 21
83.002205
 31
0.0
  0
LINE
  5
221A
100
AcDbEntity
  8
0
100
AcDbLine
 10
255.317347
 20
82.212186
 30
0.0
 11
352.817347
 21
82.212186
 31
0.0
  0
MTEXT
  5
2224
100
AcDbEntity
  8
6
100
AcDbMText
 10
133.317433
 20
212.303245
 30
0.0
 40
5.0
 41
79.817
 71
     1
 72
     5
  1
MSL 65-P18-S-100
  0
ENDSEC
  0
SECTION
  2
OBJECTS
  0
DICTIONARY
  5
C
100
AcDbDictionary
  3
ACAD_GROUP
350
D
  3
ACAD_MLINESTYLE
350
E
  0
DICTIONARY
  5
D
102
{ACAD_REACTORS
330
C
102
}
100
AcDbDictionary
  0
DICTIONARY
  5
E
102
{ACAD_REACTORS
330
C
102
}
100
AcDbDictionary
  3
STANDARD
350
1B
  0
MLINESTYLE
  5
1B
102
{ACAD_REACTORS
330
E
102
}
100
AcDbMlineStyle
  2
STANDARD
 70
     0
  3

 62
     0
 51
90.0
 52
90.0
 71
     2
 49
0.5
 62
   256
  6
BYLAYER
 49
-0.5
 62
   256
  6
BYLAYER
  0
ENDSEC
  0
EOF
