ISO-10303-21;
HEADER;
/****************************************************************
 * Generated by software with PDElib inside                    *
 * PDElib Version v51a, created Wed 07/06/2011                  *
 * ITI Transcendata (http://www.transcendata.com/)              *
 ****************************************************************/
FILE_DESCRIPTION((''),'2;1');
FILE_NAME('M:\\Module\\Internet-Daten\\MSL-F + MSF\\STEP\\MSF-08.stp','2012-10-05T13:57:33',('hartung_david'),(''),'Autodesk Inventor 2012','Autodesk Inventor 2012','');
FILE_SCHEMA(('AUTOMOTIVE_DESIGN { 1 0 10303 214 1 1 1 1 }'));
ENDSEC;
DATA;
#5=APPLICATION_CONTEXT('automotive design');
#6=APPLICATION_PROTOCOL_DEFINITION('International Standard','automotive_design',2001,#5);
#7=PRODUCT_CONTEXT('',#5,'mechanical');
#8=PRODUCT('MSF-08','MSF-08',$,(#7));
#9=PRODUCT_RELATED_PRODUCT_CATEGORY('part',$,(#8));
#10=PRODUCT_DEFINITION_FORMATION('',$,#8);
#11=PRODUCT_DEFINITION_CONTEXT('part definition',#5,'design');
#12=PRODUCT_DEFINITION('',$,#10,#11);
#18=(NAMED_UNIT(*)PLANE_ANGLE_UNIT()SI_UNIT($,.RADIAN.));
#19=DIMENSIONAL_EXPONENTS(0.0,0.0,0.0,0.0,0.0,0.0,0.0);
#20=PLANE_ANGLE_MEASURE_WITH_UNIT(PLANE_ANGLE_MEASURE(0.0174532925),#18);
#24=(CONVERSION_BASED_UNIT('DEGREE',#20)NAMED_UNIT(#19)PLANE_ANGLE_UNIT());
#28=(NAMED_UNIT(*)SI_UNIT($,.STERADIAN.)SOLID_ANGLE_UNIT());
#32=(LENGTH_UNIT()NAMED_UNIT(*)SI_UNIT(.MILLI.,.METRE.));
#34=UNCERTAINTY_MEASURE_WITH_UNIT(LENGTH_MEASURE(0.01),#32,'DISTANCE_ACCURACY_VALUE','');
#36=(GEOMETRIC_REPRESENTATION_CONTEXT(3)GLOBAL_UNCERTAINTY_ASSIGNED_CONTEXT((#34))GLOBAL_UNIT_ASSIGNED_CONTEXT((#24,#28,#32))REPRESENTATION_CONTEXT('None','None'));
#37=AXIS2_PLACEMENT_3D('',#38,#39,#40);
#38=CARTESIAN_POINT('',(0.0,0.0,0.0));
#39=DIRECTION('',(0.0,0.0,1.0));
#40=DIRECTION('',(1.0,0.0,0.0));
#41=SHAPE_REPRESENTATION('',(#37),#36);
#42=PRODUCT_DEFINITION_SHAPE('','',#12);
#43=SHAPE_DEFINITION_REPRESENTATION(#42,#41);
#49=(NAMED_UNIT(*)PLANE_ANGLE_UNIT()SI_UNIT($,.RADIAN.));
#50=DIMENSIONAL_EXPONENTS(0.0,0.0,0.0,0.0,0.0,0.0,0.0);
#51=PLANE_ANGLE_MEASURE_WITH_UNIT(PLANE_ANGLE_MEASURE(0.0174532925),#49);
#55=(CONVERSION_BASED_UNIT('DEGREE',#51)NAMED_UNIT(#50)PLANE_ANGLE_UNIT());
#59=(NAMED_UNIT(*)SI_UNIT($,.STERADIAN.)SOLID_ANGLE_UNIT());
#63=(LENGTH_UNIT()NAMED_UNIT(*)SI_UNIT(.MILLI.,.METRE.));
#65=UNCERTAINTY_MEASURE_WITH_UNIT(LENGTH_MEASURE(0.000001),#63,'DISTANCE_ACCURACY_VALUE','');
#67=(GEOMETRIC_REPRESENTATION_CONTEXT(3)GLOBAL_UNCERTAINTY_ASSIGNED_CONTEXT((#65))GLOBAL_UNIT_ASSIGNED_CONTEXT((#55,#59,#63))REPRESENTATION_CONTEXT('','3D'));
#68=CARTESIAN_POINT('',(0.0,0.0,0.499999999999998));
#69=DIRECTION('',(0.0,0.0,-1.0));
#70=DIRECTION('',(-1.0,0.0,0.0));
#71=AXIS2_PLACEMENT_3D('',#68,#69,#70);
#72=TOROIDAL_SURFACE('',#71,9.500000000000002,0.5);
#73=CARTESIAN_POINT('',(10.000000000000002,-2.465190E-031,0.499999999999998));
#74=VERTEX_POINT('',#73);
#75=CARTESIAN_POINT('',(0.0,0.0,0.499999999999998));
#76=DIRECTION('',(0.0,0.0,-1.0));
#77=DIRECTION('',(-1.0,0.0,0.0));
#78=AXIS2_PLACEMENT_3D('',#75,#76,#77);
#79=CIRCLE('',#78,10.000000000000002);
#80=EDGE_CURVE('',#74,#74,#79,.T.);
#81=ORIENTED_EDGE('',*,*,#80,.T.);
#82=EDGE_LOOP('',(#81));
#83=FACE_OUTER_BOUND('',#82,.T.);
#84=CARTESIAN_POINT('',(9.500000000000002,2.326752E-015,-1.387779E-015));
#85=VERTEX_POINT('',#84);
#86=CARTESIAN_POINT('',(0.0,0.0,-1.387779E-015));
#87=DIRECTION('',(0.0,0.0,1.0));
#88=DIRECTION('',(-1.0,0.0,0.0));
#89=AXIS2_PLACEMENT_3D('',#86,#87,#88);
#90=CIRCLE('',#89,9.500000000000002);
#91=EDGE_CURVE('',#85,#85,#90,.T.);
#92=ORIENTED_EDGE('',*,*,#91,.T.);
#93=EDGE_LOOP('',(#92));
#94=FACE_BOUND('',#93,.T.);
#95=ADVANCED_FACE('',(#83,#94),#72,.T.);
#96=CARTESIAN_POINT('',(0.0,0.0,31.0));
#97=DIRECTION('',(0.0,0.0,-1.0));
#98=DIRECTION('',(1.0,0.0,0.0));
#99=AXIS2_PLACEMENT_3D('',#96,#97,#98);
#100=CYLINDRICAL_SURFACE('',#99,10.000000000000002);
#101=CARTESIAN_POINT('',(10.000000000000002,2.449213E-015,61.500000000000014));
#102=VERTEX_POINT('',#101);
#103=CARTESIAN_POINT('',(0.0,0.0,61.500000000000014));
#104=DIRECTION('',(0.0,0.0,1.0));
#105=DIRECTION('',(-1.0,0.0,0.0));
#106=AXIS2_PLACEMENT_3D('',#103,#104,#105);
#107=CIRCLE('',#106,10.000000000000002);
#108=EDGE_CURVE('',#102,#102,#107,.T.);
#109=ORIENTED_EDGE('',*,*,#108,.F.);
#110=EDGE_LOOP('',(#109));
#111=FACE_OUTER_BOUND('',#110,.T.);
#112=CARTESIAN_POINT('',(9.165151389911681,-4.0,17.0));
#113=VERTEX_POINT('',#112);
#114=CARTESIAN_POINT('',(9.165151389911681,-4.0,17.0));
#115=CARTESIAN_POINT('',(9.165151389911681,-4.0,17.5087435536702));
#116=CARTESIAN_POINT('',(9.211991667570906,-3.897156401441308,18.046881196223715));
#117=CARTESIAN_POINT('',(9.374813697358654,-3.487331822280453,19.030347049085631));
#118=CARTESIAN_POINT('',(9.487816203590256,-3.180588903331412,19.476265346160972));
#119=CARTESIAN_POINT('',(9.695404835140733,-2.47662160337104,20.180232646121343));
#120=CARTESIAN_POINT('',(9.804321531183277,-2.030568461370232,20.487245745457308));
#121=CARTESIAN_POINT('',(9.957540177081496,-1.04657661538819,20.897277135310386));
#122=CARTESIAN_POINT('',(10.000000000000002,-0.508228893732379,21.0));
#123=CARTESIAN_POINT('',(10.000000000000002,0.50822889373238,21.0));
#124=CARTESIAN_POINT('',(9.957540177081496,1.04657661538819,20.897277135310386));
#125=CARTESIAN_POINT('',(9.804321531183277,2.030568461370232,20.487245745457308));
#126=CARTESIAN_POINT('',(9.695404835140733,2.476621603371039,20.180232646121343));
#127=CARTESIAN_POINT('',(9.487816203590256,3.180588903331412,19.476265346160972));
#128=CARTESIAN_POINT('',(9.374813697358654,3.487331822280453,19.030347049085631));
#129=CARTESIAN_POINT('',(9.211991667570906,3.897156401441308,18.046881196223715));
#130=CARTESIAN_POINT('',(9.165151389911681,4.0,17.508743553670204));
#131=CARTESIAN_POINT('',(9.165151389911681,4.0,16.4912564463298));
#132=CARTESIAN_POINT('',(9.211991667570906,3.897156401441308,15.95311880377629));
#133=CARTESIAN_POINT('',(9.374813697358654,3.487331822280453,14.969652950914373));
#134=CARTESIAN_POINT('',(9.487816203590256,3.180588903331409,14.523734653839032));
#135=CARTESIAN_POINT('',(9.695404835140733,2.476621603371037,13.819767353878659));
#136=CARTESIAN_POINT('',(9.804321531183277,2.03056846137023,13.512754254542692));
#137=CARTESIAN_POINT('',(9.957540177081496,1.04657661538819,13.102722864689619));
#138=CARTESIAN_POINT('',(10.000000000000002,0.508228893732379,13.000000000000004));
#139=CARTESIAN_POINT('',(10.000000000000002,-0.508228893732379,13.000000000000004));
#140=CARTESIAN_POINT('',(9.957540177081496,-1.046576615388191,13.102722864689619));
#141=CARTESIAN_POINT('',(9.804321531183277,-2.030568461370232,13.512754254542692));
#142=CARTESIAN_POINT('',(9.695404835140733,-2.476621603371038,13.81976735387866));
#143=CARTESIAN_POINT('',(9.487816203590256,-3.180588903331411,14.523734653839032));
#144=CARTESIAN_POINT('',(9.374813697358654,-3.487331822280453,14.969652950914373));
#145=CARTESIAN_POINT('',(9.211991667570906,-3.897156401441308,15.953118803776288));
#146=CARTESIAN_POINT('',(9.165151389911681,-4.000000000000001,16.491256446329803));
#147=CARTESIAN_POINT('',(9.165151389911681,-4.000000000000001,17.000000000000004));
#148=B_SPLINE_CURVE_WITH_KNOTS('',3,(#114,#115,#116,#117,#118,#119,#120,#121,#122,#123,#124,#125,#126,#127,#128,#129,#130,#131,#132,#133,#134,#135,#136,#137,#138,#139,#140,#141,#142,#143,#144,#145,#146,#147),.UNSPECIFIED.,.T.,.U.,(4,2,2,2,2,2,2,2,2,2,2,2,2,2,2,2,4),(0.0,0.15262306610106,0.305246132202121,0.457714800321835,0.610183468441548,0.762652136561262,0.915120804680976,1.067743870782036,1.220366936883097,1.372990002984157,1.525613069085217,1.678081737204931,1.830550405324645,1.983019073444358,2.135487741564072,2.288110807665132,2.440733873766193),.UNSPECIFIED.);
#149=EDGE_CURVE('',#113,#113,#148,.T.);
#150=ORIENTED_EDGE('',*,*,#149,.T.);
#151=EDGE_LOOP('',(#150));
#152=FACE_BOUND('',#151,.T.);
#153=CARTESIAN_POINT('',(-9.165151389911681,-4.0,17.0));
#154=VERTEX_POINT('',#153);
#155=CARTESIAN_POINT('',(-9.165151389911681,-4.000000000000001,17.0));
#156=CARTESIAN_POINT('',(-9.165151389911681,-4.000000000000001,16.4912564463298));
#157=CARTESIAN_POINT('',(-9.211991667570906,-3.897156401441308,15.953118803776288));
#158=CARTESIAN_POINT('',(-9.374813697358654,-3.487331822280453,14.969652950914373));
#159=CARTESIAN_POINT('',(-9.487816203590256,-3.180588903331411,14.523734653839032));
#160=CARTESIAN_POINT('',(-9.695404835140733,-2.476621603371038,13.81976735387866));
#161=CARTESIAN_POINT('',(-9.804321531183277,-2.030568461370232,13.512754254542692));
#162=CARTESIAN_POINT('',(-9.957540177081496,-1.046576615388191,13.102722864689619));
#163=CARTESIAN_POINT('',(-10.000000000000002,-0.508228893732379,13.000000000000004));
#164=CARTESIAN_POINT('',(-10.000000000000002,0.508228893732379,13.000000000000004));
#165=CARTESIAN_POINT('',(-9.957540177081496,1.046576615388192,13.102722864689619));
#166=CARTESIAN_POINT('',(-9.804321531183277,2.030568461370232,13.512754254542692));
#167=CARTESIAN_POINT('',(-9.695404835140733,2.476621603371037,13.819767353878659));
#168=CARTESIAN_POINT('',(-9.487816203590256,3.180588903331411,14.523734653839032));
#169=CARTESIAN_POINT('',(-9.374813697358654,3.487331822280453,14.969652950914371));
#170=CARTESIAN_POINT('',(-9.211991667570906,3.897156401441307,15.953118803776285));
#171=CARTESIAN_POINT('',(-9.165151389911681,4.0,16.4912564463298));
#172=CARTESIAN_POINT('',(-9.165151389911681,4.0,17.508743553670204));
#173=CARTESIAN_POINT('',(-9.211991667570906,3.897156401441308,18.046881196223715));
#174=CARTESIAN_POINT('',(-9.374813697358654,3.487331822280453,19.030347049085631));
#175=CARTESIAN_POINT('',(-9.487816203590256,3.180588903331412,19.476265346160972));
#176=CARTESIAN_POINT('',(-9.695404835140733,2.47662160337104,20.180232646121343));
#177=CARTESIAN_POINT('',(-9.804321531183277,2.030568461370232,20.487245745457308));
#178=CARTESIAN_POINT('',(-9.957540177081496,1.046576615388191,20.897277135310386));
#179=CARTESIAN_POINT('',(-10.000000000000002,0.50822889373238,21.0));
#180=CARTESIAN_POINT('',(-10.000000000000002,-0.508228893732379,21.0));
#181=CARTESIAN_POINT('',(-9.957540177081496,-1.046576615388191,20.897277135310386));
#182=CARTESIAN_POINT('',(-9.804321531183277,-2.030568461370232,20.487245745457308));
#183=CARTESIAN_POINT('',(-9.695404835140733,-2.47662160337104,20.180232646121343));
#184=CARTESIAN_POINT('',(-9.487816203590256,-3.180588903331412,19.476265346160972));
#185=CARTESIAN_POINT('',(-9.374813697358654,-3.487331822280453,19.030347049085631));
#186=CARTESIAN_POINT('',(-9.211991667570906,-3.897156401441308,18.046881196223715));
#187=CARTESIAN_POINT('',(-9.165151389911681,-4.000000000000001,17.508743553670204));
#188=CARTESIAN_POINT('',(-9.165151389911681,-4.000000000000001,17.0));
#189=B_SPLINE_CURVE_WITH_KNOTS('',3,(#155,#156,#157,#158,#159,#160,#161,#162,#163,#164,#165,#166,#167,#168,#169,#170,#171,#172,#173,#174,#175,#176,#177,#178,#179,#180,#181,#182,#183,#184,#185,#186,#187,#188),.UNSPECIFIED.,.T.,.U.,(4,2,2,2,2,2,2,2,2,2,2,2,2,2,2,2,4),(0.0,0.15262306610106,0.305246132202121,0.457714800321834,0.610183468441548,0.762652136561262,0.915120804680975,1.067743870782036,1.220366936883096,1.372990002984157,1.525613069085217,1.678081737204931,1.830550405324644,1.983019073444358,2.135487741564072,2.288110807665132,2.440733873766193),.UNSPECIFIED.);
#190=EDGE_CURVE('',#154,#154,#189,.T.);
#191=ORIENTED_EDGE('',*,*,#190,.T.);
#192=EDGE_LOOP('',(#191));
#193=FACE_BOUND('',#192,.T.);
#194=ORIENTED_EDGE('',*,*,#80,.F.);
#195=EDGE_LOOP('',(#194));
#196=FACE_BOUND('',#195,.T.);
#197=ADVANCED_FACE('',(#111,#152,#193,#196),#100,.T.);
#198=CARTESIAN_POINT('',(5.000000000000001,0.0,-1.387779E-015));
#199=DIRECTION('',(0.0,0.0,-1.0));
#200=DIRECTION('',(-1.0,0.0,0.0));
#201=AXIS2_PLACEMENT_3D('',#198,#199,#200);
#202=PLANE('',#201);
#203=ORIENTED_EDGE('',*,*,#91,.F.);
#204=EDGE_LOOP('',(#203));
#205=FACE_OUTER_BOUND('',#204,.T.);
#206=ADVANCED_FACE('',(#205),#202,.T.);
#207=CARTESIAN_POINT('',(0.0,0.0,61.500000000000014));
#208=DIRECTION('',(0.0,0.0,-1.0));
#209=DIRECTION('',(-1.0,0.0,0.0));
#210=AXIS2_PLACEMENT_3D('',#207,#208,#209);
#211=TOROIDAL_SURFACE('',#210,9.500000000000002,0.5);
#212=CARTESIAN_POINT('',(9.500000000000002,0.0,62.000000000000014));
#213=VERTEX_POINT('',#212);
#214=CARTESIAN_POINT('',(0.0,0.0,62.000000000000014));
#215=DIRECTION('',(0.0,0.0,-1.0));
#216=DIRECTION('',(-1.0,0.0,0.0));
#217=AXIS2_PLACEMENT_3D('',#214,#215,#216);
#218=CIRCLE('',#217,9.500000000000002);
#219=EDGE_CURVE('',#213,#213,#218,.T.);
#220=ORIENTED_EDGE('',*,*,#219,.T.);
#221=EDGE_LOOP('',(#220));
#222=FACE_OUTER_BOUND('',#221,.T.);
#223=ORIENTED_EDGE('',*,*,#108,.T.);
#224=EDGE_LOOP('',(#223));
#225=FACE_BOUND('',#224,.T.);
#226=ADVANCED_FACE('',(#222,#225),#211,.T.);
#227=CARTESIAN_POINT('',(5.000000000000002,0.0,62.000000000000014));
#228=DIRECTION('',(0.0,0.0,1.0));
#229=DIRECTION('',(1.0,0.0,0.0));
#230=AXIS2_PLACEMENT_3D('',#227,#228,#229);
#231=PLANE('',#230);
#232=ORIENTED_EDGE('',*,*,#219,.F.);
#233=EDGE_LOOP('',(#232));
#234=FACE_OUTER_BOUND('',#233,.T.);
#235=CARTESIAN_POINT('',(2.067,0.0,62.000000000000014));
#236=VERTEX_POINT('',#235);
#237=CARTESIAN_POINT('',(0.0,0.0,62.000000000000014));
#238=DIRECTION('',(0.0,0.0,-1.0));
#239=DIRECTION('',(1.0,0.0,0.0));
#240=AXIS2_PLACEMENT_3D('',#237,#238,#239);
#241=CIRCLE('',#240,2.067);
#242=EDGE_CURVE('',#236,#236,#241,.T.);
#243=ORIENTED_EDGE('',*,*,#242,.T.);
#244=EDGE_LOOP('',(#243));
#245=FACE_BOUND('',#244,.T.);
#246=ADVANCED_FACE('',(#234,#245),#231,.T.);
#247=CARTESIAN_POINT('',(0.0,0.0,58.000000000000007));
#248=DIRECTION('',(0.0,0.0,1.0));
#249=DIRECTION('',(1.0,0.0,0.0));
#250=AXIS2_PLACEMENT_3D('',#247,#248,#249);
#251=CYLINDRICAL_SURFACE('',#250,2.067);
#252=ORIENTED_EDGE('',*,*,#242,.F.);
#253=EDGE_LOOP('',(#252));
#254=FACE_OUTER_BOUND('',#253,.T.);
#255=CARTESIAN_POINT('',(2.067,0.0,54.000000000000014));
#256=VERTEX_POINT('',#255);
#257=CARTESIAN_POINT('',(0.0,0.0,54.000000000000014));
#258=DIRECTION('',(0.0,0.0,1.0));
#259=DIRECTION('',(1.0,0.0,0.0));
#260=AXIS2_PLACEMENT_3D('',#257,#258,#259);
#261=CIRCLE('',#260,2.067);
#262=EDGE_CURVE('',#256,#256,#261,.T.);
#263=ORIENTED_EDGE('',*,*,#262,.F.);
#264=EDGE_LOOP('',(#263));
#265=FACE_BOUND('',#264,.T.);
#266=ADVANCED_FACE('',(#254,#265),#251,.F.);
#267=CARTESIAN_POINT('',(0.0,0.0,54.000000000000014));
#268=DIRECTION('',(0.0,0.0,1.0));
#269=DIRECTION('',(1.0,0.0,0.0));
#270=AXIS2_PLACEMENT_3D('',#267,#268,#269);
#271=PLANE('',#270);
#272=ORIENTED_EDGE('',*,*,#262,.T.);
#273=EDGE_LOOP('',(#272));
#274=FACE_OUTER_BOUND('',#273,.T.);
#275=ADVANCED_FACE('',(#274),#271,.T.);
#276=CARTESIAN_POINT('',(0.0,0.0,17.0));
#277=DIRECTION('',(1.0,0.0,0.0));
#278=DIRECTION('',(0.0,-1.0,0.0));
#279=AXIS2_PLACEMENT_3D('',#276,#277,#278);
#280=CYLINDRICAL_SURFACE('',#279,4.0);
#281=ORIENTED_EDGE('',*,*,#149,.F.);
#282=EDGE_LOOP('',(#281));
#283=FACE_OUTER_BOUND('',#282,.T.);
#284=ORIENTED_EDGE('',*,*,#190,.F.);
#285=EDGE_LOOP('',(#284));
#286=FACE_BOUND('',#285,.T.);
#287=ADVANCED_FACE('',(#283,#286),#280,.F.);
#288=CLOSED_SHELL('',(#95,#197,#206,#226,#246,#266,#275,#287));
#289=MANIFOLD_SOLID_BREP('Volumenk\S\vrper1',#288);
#290=COLOUR_RGB('Rot (Chili)',0.831372976303101,0.0,0.0);
#291=FILL_AREA_STYLE_COLOUR('Rot (Chili)',#290);
#292=FILL_AREA_STYLE('Rot (Chili)',(#291));
#293=SURFACE_STYLE_FILL_AREA(#292);
#294=SURFACE_SIDE_STYLE('Rot (Chili)',(#293));
#295=SURFACE_STYLE_USAGE(.BOTH.,#294);
#296=PRESENTATION_STYLE_ASSIGNMENT((#295));
#297=STYLED_ITEM('',(#296),#289);
#298=MECHANICAL_DESIGN_GEOMETRIC_PRESENTATION_REPRESENTATION('',(#297),#36);
#299=ADVANCED_BREP_SHAPE_REPRESENTATION('ABSR',(#289),#36);
#300=SHAPE_REPRESENTATION_RELATIONSHIP('SRR','None',#299,#41);
ENDSEC;
END-ISO-10303-21;
