  0
SECTION
  2
HEADER
  9
$ACADVER
  1
AC1015
  9
$ACADMAINTVER
 70
    20
  9
$DWGCODEPAGE
  3
ANSI_1252
  9
$INSBASE
 10
0.0
 20
0.0
 30
0.0
  9
$EXTMIN
 10
492.1929617944389
 20
590.6035396123663
 30
-0.00000001
  9
$EXTMAX
 10
1127.848183976489
 20
2084.936369801212
 30
0.00000001
  9
$LIMMIN
 10
0.0
 20
0.0
  9
$LIMMAX
 10
1575.0
 20
2227.5
  9
$ORTHOMODE
 70
     0
  9
$REGENMODE
 70
     1
  9
$FILLMODE
 70
     1
  9
$QTEXTMODE
 70
     0
  9
$MIRRTEXT
 70
     0
  9
$LTSCALE
 40
7.5
  9
$ATTMODE
 70
     1
  9
$TEXTSIZE
 40
0.2
  9
$TRACEWID
 40
0.05
  9
$TEXTSTYLE
  7
Standard
  9
$CLAYER
  8
0
  9
$CELTYPE
  6
ByLayer
  9
$CECOLOR
 62
   256
  9
$CELTSCALE
 40
1.0
  9
$DISPSILH
 70
     0
  9
$DIMSCALE
 40
1.0
  9
$DIMASZ
 40
1.799999999999999
  9
$DIMEXO
 40
0.0625
  9
$DIMDLI
 40
0.38
  9
$DIMRND
 40
0.0
  9
$DIMDLE
 40
0.0
  9
$DIMEXE
 40
0.18
  9
$DIMTP
 40
0.0
  9
$DIMTM
 40
0.0
  9
$DIMTXT
 40
0.3499999940395355
  9
$DIMCEN
 40
0.09
  9
$DIMTSZ
 40
0.0
  9
$DIMTOL
 70
     0
  9
$DIMLIM
 70
     0
  9
$DIMTIH
 70
     1
  9
$DIMTOH
 70
     1
  9
$DIMSE1
 70
     0
  9
$DIMSE2
 70
     0
  9
$DIMTAD
 70
     0
  9
$DIMZIN
 70
     0
  9
$DIMBLK
  1

  9
$DIMASO
 70
     1
  9
$DIMSHO
 70
     1
  9
$DIMPOST
  1

  9
$DIMAPOST
  1

  9
$DIMALT
 70
     0
  9
$DIMALTD
 70
     2
  9
$DIMALTF
 40
25.4
  9
$DIMLFAC
 40
1.0
  9
$DIMTOFL
 70
     0
  9
$DIMTVP
 40
0.0
  9
$DIMTIX
 70
     0
  9
$DIMSOXD
 70
     0
  9
$DIMSAH
 70
     0
  9
$DIMBLK1
  1

  9
$DIMBLK2
  1

  9
$DIMSTYLE
  2
Standard
  9
$DIMCLRD
 70
     0
  9
$DIMCLRE
 70
     0
  9
$DIMCLRT
 70
     0
  9
$DIMTFAC
 40
1.0
  9
$DIMGAP
 40
0.09
  9
$DIMJUST
 70
     0
  9
$DIMSD1
 70
     0
  9
$DIMSD2
 70
     0
  9
$DIMTOLJ
 70
     1
  9
$DIMTZIN
 70
     0
  9
$DIMALTZ
 70
     0
  9
$DIMALTTZ
 70
     0
  9
$DIMUPT
 70
     0
  9
$DIMDEC
 70
     4
  9
$DIMTDEC
 70
     4
  9
$DIMALTU
 70
     2
  9
$DIMALTTD
 70
     2
  9
$DIMTXSTY
  7
Standard
  9
$DIMAUNIT
 70
     0
  9
$DIMADEC
 70
     0
  9
$DIMALTRND
 40
0.0
  9
$DIMAZIN
 70
     0
  9
$DIMDSEP
 70
    46
  9
$DIMATFIT
 70
     3
  9
$DIMFRAC
 70
     0
  9
$DIMLDRBLK
  1

  9
$DIMLUNIT
 70
     2
  9
$DIMLWD
 70
    -2
  9
$DIMLWE
 70
    -2
  9
$DIMTMOVE
 70
     0
  9
$LUNITS
 70
     2
  9
$LUPREC
 70
     4
  9
$SKETCHINC
 40
0.1
  9
$FILLETRAD
 40
0.0
  9
$AUNITS
 70
     0
  9
$AUPREC
 70
     0
  9
$MENU
  1
.
  9
$ELEVATION
 40
0.0
  9
$PELEVATION
 40
0.0
  9
$THICKNESS
 40
0.0
  9
$LIMCHECK
 70
     0
  9
$CHAMFERA
 40
0.0
  9
$CHAMFERB
 40
0.0
  9
$CHAMFERC
 40
0.0
  9
$CHAMFERD
 40
0.0
  9
$SKPOLY
 70
     0
  9
$TDCREATE
 40
2456219.356686783
  9
$TDUCREATE
 40
2456219.273353449
  9
$TDUPDATE
 40
2456219.407653716
  9
$TDUUPDATE
 40
2456219.324320382
  9
$TDINDWG
 40
0.0002213657
  9
$TDUSRTIMER
 40
0.0002213657
  9
$USRTIMER
 70
     1
  9
$ANGBASE
 50
0.0
  9
$ANGDIR
 70
     0
  9
$PDMODE
 70
     0
  9
$PDSIZE
 40
0.0
  9
$PLINEWID
 40
0.0
  9
$SPLFRAME
 70
     0
  9
$SPLINETYPE
 70
     6
  9
$SPLINESEGS
 70
     8
  9
$HANDSEED
  5
426
  9
$SURFTAB1
 70
     6
  9
$SURFTAB2
 70
     6
  9
$SURFTYPE
 70
     6
  9
$SURFU
 70
     6
  9
$SURFV
 70
     6
  9
$UCSBASE
  2

  9
$UCSNAME
  2

  9
$UCSORG
 10
0.0
 20
0.0
 30
0.0
  9
$UCSXDIR
 10
1.0
 20
0.0
 30
0.0
  9
$UCSYDIR
 10
0.0
 20
1.0
 30
0.0
  9
$UCSORTHOREF
  2

  9
$UCSORTHOVIEW
 70
     0
  9
$UCSORGTOP
 10
0.0
 20
0.0
 30
0.0
  9
$UCSORGBOTTOM
 10
0.0
 20
0.0
 30
0.0
  9
$UCSORGLEFT
 10
0.0
 20
0.0
 30
0.0
  9
$UCSORGRIGHT
 10
0.0
 20
0.0
 30
0.0
  9
$UCSORGFRONT
 10
0.0
 20
0.0
 30
0.0
  9
$UCSORGBACK
 10
0.0
 20
0.0
 30
0.0
  9
$PUCSBASE
  2

  9
$PUCSNAME
  2

  9
$PUCSORG
 10
0.0
 20
0.0
 30
0.0
  9
$PUCSXDIR
 10
1.0
 20
0.0
 30
0.0
  9
$PUCSYDIR
 10
0.0
 20
1.0
 30
0.0
  9
$PUCSORTHOREF
  2

  9
$PUCSORTHOVIEW
 70
     0
  9
$PUCSORGTOP
 10
0.0
 20
0.0
 30
0.0
  9
$PUCSORGBOTTOM
 10
0.0
 20
0.0
 30
0.0
  9
$PUCSORGLEFT
 10
0.0
 20
0.0
 30
0.0
  9
$PUCSORGRIGHT
 10
0.0
 20
0.0
 30
0.0
  9
$PUCSORGFRONT
 10
0.0
 20
0.0
 30
0.0
  9
$PUCSORGBACK
 10
0.0
 20
0.0
 30
0.0
  9
$USERI1
 70
     0
  9
$USERI2
 70
     0
  9
$USERI3
 70
     0
  9
$USERI4
 70
     0
  9
$USERI5
 70
     0
  9
$USERR1
 40
0.0
  9
$USERR2
 40
0.0
  9
$USERR3
 40
0.0
  9
$USERR4
 40
0.0
  9
$USERR5
 40
0.0
  9
$WORLDVIEW
 70
     1
  9
$SHADEDGE
 70
     3
  9
$SHADEDIF
 70
    70
  9
$TILEMODE
 70
     1
  9
$MAXACTVP
 70
    64
  9
$PINSBASE
 10
0.0
 20
0.0
 30
0.0
  9
$PLIMCHECK
 70
     0
  9
$PEXTMIN
 10
0.0
 20
0.0
 30
0.0
  9
$PEXTMAX
 10
1575.0
 20
2227.5
 30
0.0
  9
$PLIMMIN
 10
0.0
 20
0.0
  9
$PLIMMAX
 10
1575.0
 20
2227.5
  9
$UNITMODE
 70
     0
  9
$VISRETAIN
 70
     1
  9
$PLINEGEN
 70
     0
  9
$PSLTSCALE
 70
     1
  9
$TREEDEPTH
 70
  3020
  9
$CMLSTYLE
  2
Standard
  9
$CMLJUST
 70
     0
  9
$CMLSCALE
 40
1.0
  9
$PROXYGRAPHICS
 70
     1
  9
$MEASUREMENT
 70
     1
  9
$CELWEIGHT
370
    -1
  9
$ENDCAPS
280
     0
  9
$JOINSTYLE
280
     0
  9
$LWDISPLAY
290
     0
  9
$INSUNITS
 70
     4
  9
$HYPERLINKBASE
  1

  9
$STYLESHEET
  1

  9
$XEDIT
290
     1
  9
$CEPSNTYPE
380
     0
  9
$PSTYLEMODE
290
     1
  9
$FINGERPRINTGUID
  2
{BB15842B-B6C8-4E43-B4A5-BC6A3C68DEA9}
  9
$VERSIONGUID
  2
{9EB5032E-78D8-4106-9400-B7DF6AD1159B}
  9
$EXTNAMES
290
     1
  9
$PSVPSCALE
 40
0.0
  9
$OLESTARTUP
290
     0
  0
ENDSEC
  0
SECTION
  2
CLASSES
  0
CLASS
  1
ACDBDICTIONARYWDFLT
  2
AcDbDictionaryWithDefault
  3
ObjectDBX Classes
 90
        0
280
     0
281
     0
  0
CLASS
  1
MATERIAL
  2
AcDbMaterial
  3
ObjectDBX Classes
 90
     1153
280
     0
281
     0
  0
CLASS
  1
VISUALSTYLE
  2
AcDbVisualStyle
  3
ObjectDBX Classes
 90
     4095
280
     0
281
     0
  0
CLASS
  1
SCALE
  2
AcDbScale
  3
ObjectDBX Classes
 90
     1153
280
     0
281
     0
  0
CLASS
  1
TABLESTYLE
  2
AcDbTableStyle
  3
ObjectDBX Classes
 90
     4095
280
     0
281
     0
  0
CLASS
  1
MLEADERSTYLE
  2
AcDbMLeaderStyle
  3
ACDB_MLEADERSTYLE_CLASS
 90
     4095
280
     0
281
     0
  0
CLASS
  1
CELLSTYLEMAP
  2
AcDbCellStyleMap
  3
ObjectDBX Classes
 90
     1152
280
     0
281
     0
  0
CLASS
  1
DICTIONARYVAR
  2
AcDbDictionaryVar
  3
ObjectDBX Classes
 90
        0
280
     0
281
     0
  0
CLASS
  1
ACDBPLACEHOLDER
  2
AcDbPlaceHolder
  3
ObjectDBX Classes
 90
        0
280
     0
281
     0
  0
CLASS
  1
LAYOUT
  2
AcDbLayout
  3
ObjectDBX Classes
 90
        0
280
     0
281
     0
  0
CLASS
  1
ACME_DOCUMENT
  2
AcMeDbDoc
  3
AcMeServices
 90
     1024
280
     0
281
     0
  0
CLASS
  1
AMGSETTINGSOBJ
  2
AmgSettingsObj
  3
"AcadM|Product Description: AutoCAD Mechanical|Company: Autodesk, Inc."
 90
     1024
280
     0
281
     0
  0
CLASS
  1
ACMESCOPE
  2
AcMeScope
  3
AcMeServices
 90
     1024
280
     0
281
     0
  0
CLASS
  1
ACMECOMMANDHISTORY
  2
AcMeCommandHistory
  3
AcMeServices
 90
     1024
280
     0
281
     0
  0
CLASS
  1
ACIMSYSVARMAN
  2
AcImSysVarManager
  3
AcMeServices
 90
     1024
280
     0
281
     0
  0
CLASS
  1
ACIMINTSYSVAR
  2
AcImIntSysVar
  3
AcMeServices
 90
     1024
280
     0
281
     0
  0
CLASS
  1
ACMEDRAWINGMAN
  2
AcMeDrawingMan
  3
AcMeServices
 90
     1024
280
     0
281
     0
  0
CLASS
  1
ACMEVIEW
  2
AcMeView
  3
AcMeServices
 90
     1024
280
     0
281
     0
  0
CLASS
  1
ACDBENTITYCACHE
  2
AcMeEntityCache
  3
AcMeServices
 90
     1024
280
     0
281
     0
  0
CLASS
  1
GSMANAGER
  2
AcMeGSManager
  3
AcMeServices
 90
     1024
280
     0
281
     0
  0
CLASS
  1
AMDTINTERNALREACTOR
  2
AmdtInternalReactor
  3
AcMeServices
 90
     1024
280
     0
281
     0
  0
CLASS
  1
ACMESTATEMGR
  2
AcMeStateMgr
  3
AcMeServices
 90
     1024
280
     0
281
     0
  0
CLASS
  1
ACGREFMASTER
  2
AcGrefMaster
  3
AcAttribServices
 90
     1024
280
     0
281
     0
  0
CLASS
  1
AM_DRAWING_MGR
  2
AcDmDwgMgr
  3
AcMechDwgViewMgmt
 90
     1024
280
     0
281
     0
  0
CLASS
  1
AM_DWG_DOCUMENT
  2
AcDmDwgDocument
  3
AcMechDwgViewMgmt
 90
     1024
280
     0
281
     0
  0
CLASS
  1
AM_DWG_SHEET
  2
AcDmSheet
  3
AcMechDwgViewMgmt
 90
     1024
280
     0
281
     0
  0
CLASS
  1
AM_VIEWDIMPARMAP
  2
AcDmViewDimParMap
  3
AcMechDwgViewMgmt
 90
     1024
280
     0
281
     0
  0
CLASS
  1
ACIMREALSYSVAR
  2
AcImRealSysVar
  3
AcMeServices
 90
     1024
280
     0
281
     0
  0
CLASS
  1
AM_DWGMGR_NAME
  2
AcDmDwgMgrName
  3
AcMechDwgViewMgmt
 90
     1024
280
     0
281
     0
  0
CLASS
  1
ACME_DATABASE
  2
AcMeDbDatabase
  3
AcMeServices
 90
     1024
280
     0
281
     0
  0
CLASS
  1
ACRFINSADJUSTERMGR
  2
AcRfInsAdjusterMgr
  3
AcMeServices
 90
     1024
280
     0
281
     0
  0
CLASS
  1
ACGREFACADMASTER
  2
AcGrefacadMaster
  3
AcGrefServices
 90
     1024
280
     0
281
     0
  0
CLASS
  1
AMDTMENUSTATEMGR
  2
AmdtMenuStateMgr
  3
McadcomServices
 90
     1024
280
     0
281
     0
  0
CLASS
  1
AMDTMCOMMENUSTATE
  2
AmdtMcomMenuState
  3
McadcomServices
 90
     1024
280
     0
281
     0
  0
CLASS
  1
AMIMASTER
  2
AmiMaster
  3
AmiServices
 90
     1024
280
     0
281
     0
  0
CLASS
  1
MAPIAMMOUDLE
  2
MApiAmModule
  3
MApiAmServices
 90
     1024
280
     0
281
     0
  0
CLASS
  1
ACIMSTRSYSVAR
  2
AcImStrSysVar
  3
AcMeServices
 90
     1024
280
     0
281
     0
  0
CLASS
  1
AMDTADMENUSTATE
  2
AmdtAdMenuState
  3
DesignerServices
 90
     1024
280
     0
281
     0
  0
CLASS
  1
ADAPPL
  2
AcAdAppl
  3
DesignerServices
 90
     1024
280
     0
281
     0
  0
CLASS
  1
DEPMGR
  2
AcAdDepMgr
  3
DesignerServices
 90
     1024
280
     0
281
     0
  0
CLASS
  1
PARAMMGR
  2
AcAdParamMgr
  3
DesignerServices
 90
     1024
280
     0
281
     0
  0
CLASS
  1
PARAMSCOPE
  2
AcAdParamScope
  3
DesignerServices
 90
     1024
280
     0
281
     0
  0
CLASS
  1
NAMEDAPPL
  2
AcAdNamedAppl
  3
DesignerServices
 90
     1024
280
     0
281
     0
  0
CLASS
  1
AMDTDMMENUSTATE
  2
AmdtDmMenuState
  3
AcMechDwgViewMgmt
 90
     1024
280
     0
281
     0
  0
CLASS
  1
AMDTAMMENUSTATE
  2
AmdtAmMenuState
  3
DesignerAssemblies
 90
     1024
280
     0
281
     0
  0
CLASS
  1
ACAMPROJECT
  2
AcAmProject
  3
DesignerAssemblies
 90
     1024
280
     0
281
     0
  0
CLASS
  1
ACAMGRCOMPDEF
  2
AcAmGrCompDef
  3
DesignerAssemblies
 90
     1024
280
     0
281
     0
  0
CLASS
  1
ACCMCONTEXT
  2
AcCmContext
  3
DesignerAssemblies
 90
     1024
280
     0
281
     0
  0
CLASS
  1
ACAMCOMPDEF
  2
AcAmCompDef
  3
DesignerAssemblies
 90
     1024
280
     0
281
     0
  0
CLASS
  1
ACAMCOMPDEFMGR
  2
AcAmCompDefMgr
  3
DesignerAssemblies
 90
     1024
280
     0
281
     0
  0
CLASS
  1
AMCONTEXTMGR
  2
AcAmContextMgr
  3
DesignerAssemblies
 90
     1024
280
     0
281
     0
  0
CLASS
  1
ACAMCONTEXTMODELER
  2
AcAmContextModeler
  3
DesignerAssemblies
 90
     1024
280
     0
281
     0
  0
CLASS
  1
ACMDATADICTIONARY
  2
AcmDataDictionary
  3
"AcmSymBB|Product Description: AutoCAD Mechanical|Company: Autodesk, Inc."
 90
     1024
280
     0
281
     0
  0
CLASS
  1
CATALOGSTATE
  2
AcAmCatalogState
  3
DesignerAssemblies
 90
     1024
280
     0
281
     0
  0
CLASS
  1
ACAMGRCOMPDEFSET
  2
AcAmGrCompDefSet
  3
DesignerAssemblies
 90
     1024
280
     0
281
     0
  0
CLASS
  1
AMDTBROWSERDBTAB
  2
AmdtBrowserDbTab
  3
McadcomServices
 90
     1024
280
     0
281
     0
  0
CLASS
  1
CBROWSERAPPOBJECT
  2
CBrowserAppObject
  3
McadcomServices
 90
     1024
280
     0
281
     0
  0
CLASS
  1
DM_PLACEHOLDER
  2
AcDmSelsetPlaceholder
  3
AcMechDwgViewMgmt
 90
     1024
280
     0
281
     0
  0
CLASS
  1
ACMSTANDARDDIN
  2
AcmStandardDIN
  3
"Amdt_StdImp|Product Description: AutoCAD Mechanical|Company: Autodesk, Inc."
 90
     1024
280
     0
281
     0
  0
CLASS
  1
AMDTEDGESTANDARDDIN13715
  2
AmdtEdgeStdDIN13715
  3
"Amdt_StdImp|Product Description: AutoCAD Mechanical|Company: Autodesk, Inc."
 90
     1024
280
     0
281
     0
  0
CLASS
  1
ACMSURFSTANDARDDIN2002
  2
AcmSurfTextStdDIN2002
  3
"Amdt_StdImp|Product Description: AutoCAD Mechanical|Company: Autodesk, Inc."
 90
     1024
280
     0
281
     0
  0
CLASS
  1
ACMFCFSTANDARDDIN
  2
AcmFCFStdDIN
  3
"Amdt_StdImp|Product Description: AutoCAD Mechanical|Company: Autodesk, Inc."
 90
     1024
280
     0
281
     0
  0
CLASS
  1
ACMWELDSTANDARDDIN
  2
AcmWeldingStdDIN
  3
"Amdt_StdImp|Product Description: AutoCAD Mechanical|Company: Autodesk, Inc."
 90
     1024
280
     0
281
     0
  0
CLASS
  1
ACMIDSTANDARDDIN
  2
AcmIdStdDIN
  3
"Amdt_StdImp|Product Description: AutoCAD Mechanical|Company: Autodesk, Inc."
 90
     1024
280
     0
281
     0
  0
CLASS
  1
ACMDATUMSTANDARDDIN
  2
AcmDatumStdDIN
  3
"Amdt_StdImp|Product Description: AutoCAD Mechanical|Company: Autodesk, Inc."
 90
     1024
280
     0
281
     0
  0
CLASS
  1
ACMBOMSTANDARDDIN
  2
AcmBOMStdDIN
  3
"Amdt_StdImp|Product Description: AutoCAD Mechanical|Company: Autodesk, Inc."
 90
     1024
280
     0
281
     0
  0
CLASS
  1
ACMDETAILSTANDARDDIN
  2
AmdtDetailSymStdDIN
  3
"Amdt_StdImp|Product Description: AutoCAD Mechanical|Company: Autodesk, Inc."
 90
     1024
280
     0
281
     0
  0
CLASS
  1
ACMSECTIONSTANDARDDIN
  2
AmdtSectionSymStdDIN
  3
"Amdt_StdImp|Product Description: AutoCAD Mechanical|Company: Autodesk, Inc."
 90
     1024
280
     0
281
     0
  0
CLASS
  1
ACMCENTERLINESTANDARDDIN
  2
AmdtCenterLineStdDIN
  3
"Amdt_StdImp|Product Description: AutoCAD Mechanical|Company: Autodesk, Inc."
 90
     1024
280
     0
281
     0
  0
CLASS
  1
ACMTHREADLINESTANDARDDIN
  2
AmdtThreadLineStdDIN
  3
"Amdt_StdImp|Product Description: AutoCAD Mechanical|Company: Autodesk, Inc."
 90
     1024
280
     0
281
     0
  0
CLASS
  1
ACMNOTESTANDARDDIN
  2
AmdtNoteStdDIN
  3
"Amdt_StdImp|Product Description: AutoCAD Mechanical|Company: Autodesk, Inc."
 90
     1024
280
     0
281
     0
  0
CLASS
  1
ACMTAPERSTANDARDDIN
  2
AcmTaperStdDIN
  3
"Amdt_StdImp|Product Description: AutoCAD Mechanical|Company: Autodesk, Inc."
 90
     1024
280
     0
281
     0
  0
CLASS
  1
ACMANOOTATIONVIEWSTANDARDDIN
  2
AmdtAnViewStdDIN
  3
"Amdt_StdImp|Product Description: AutoCAD Mechanical|Company: Autodesk, Inc."
 90
     1024
280
     0
281
     0
  0
CLASS
  1
ACAMGLAYSTD
  2
AcAmgLayStd
  3
"AmgLay|Product Description: AutoCAD Mechanical|Company: Autodesk, Inc."
 90
     1024
280
     0
281
     0
  0
CLASS
  1
ACAMGDIMSTD
  2
AcAmgDimStd
  3
"AmgDim|Product Description: AutoCAD Mechanical|Company: Autodesk, Inc."
 90
     1024
280
     0
281
     0
  0
CLASS
  1
AMGOBJPROPCFG
  2
AmgObjPropCfg
  3
"AmgLay|Product Description: AutoCAD Mechanical|Company: Autodesk, Inc."
 90
     1025
280
     0
281
     0
  0
CLASS
  1
ACAMGHOLECHARTSTDDIN
  2
AcAmgHoleChartStdDIN
  3
AmgDim|Product Description: AutoCAD Mechanical|Company: Autodesk, Inc.
 90
     1024
280
     0
281
     0
  0
CLASS
  1
ACAMGTITLESTD
  2
AcAmgTitleStd
  3
"AmgTitle|Product Description: AutoCAD Mechanical|Company: Autodesk, Inc."
 90
     4095
280
     0
281
     0
  0
CLASS
  1
AMDTNOTETEMPLATEDB
  2
AmdtNoteTemplateDB
  3
AcmSymBB|Product Description: AutoCAD Mechanical|Company: Autodesk, Inc.
 90
     1024
280
     0
281
     0
  0
CLASS
  1
ACAMGFILTERDAT
  2
AcAmgFilterDat
  3
"AcadM|Product Description: AutoCAD Mechanical|Company: Autodesk, Inc."
 90
     1024
280
     0
281
     0
  0
ENDSEC
  0
SECTION
  2
TABLES
  0
TABLE
  2
VPORT
  5
8
102
{ACAD_XDICTIONARY
360
310
102
}
330
0
100
AcDbSymbolTable
 70
     1
  0
VPORT
  5
57
330
8
100
AcDbSymbolTableRecord
100
AcDbViewportTableRecord
  2
*Active
 70
     0
 10
0.0
 20
0.0
 11
1.0
 21
1.0
 12
1724.292746113989
 22
1113.75
 13
0.0
 23
0.0
 14
1.0
 24
1.0
 15
0.0
 25
0.0
 16
0.0
 26
0.0
 36
1.0
 17
0.0
 27
0.0
 37
0.0
 40
2227.5
 41
1.548186528497409
 42
50.0
 43
0.0
 44
0.0
 50
0.0
 51
0.0
 71
     0
 72
   100
 73
     1
 74
     1
 75
     0
 76
     0
 77
     0
 78
     0
281
     0
 65
     1
110
0.0
120
0.0
130
0.0
111
1.0
121
0.0
131
0.0
112
0.0
122
1.0
132
0.0
 79
     0
146
0.0
  0
ENDTAB
  0
TABLE
  2
LTYPE
  5
5
330
0
100
AcDbSymbolTable
 70
    75
  0
LTYPE
  5
5B
330
5
100
AcDbSymbolTableRecord
100
AcDbLinetypeTableRecord
  2
ByBlock
 70
     0
  3

 72
    65
 73
     0
 40
0.0
  0
LTYPE
  5
5C
330
5
100
AcDbSymbolTableRecord
100
AcDbLinetypeTableRecord
  2
ByLayer
 70
     0
  3

 72
    65
 73
     0
 40
0.0
  0
LTYPE
  5
5D
330
5
100
AcDbSymbolTableRecord
100
AcDbLinetypeTableRecord
  2
Continuous
 70
     0
  3
Solid line
 72
    65
 73
     0
 40
0.0
  0
LTYPE
  5
74
330
5
100
AcDbSymbolTableRecord
100
AcDbLinetypeTableRecord
  2
Section_View_Lines
 70
     0
  3
Section View Lines
 72
    65
 73
     4
 40
0.8406
 49
0.6614
 74
     0
 49
-0.0827
 74
     0
 49
0.0138
 74
     0
 49
-0.0827
 74
     0
  0
LTYPE
  5
75
330
5
100
AcDbSymbolTableRecord
100
AcDbLinetypeTableRecord
  2
CHAIN
 70
     0
  3
Chain ____ _ ____ _ ____ _ ____ _ ____ _ ____
 72
    65
 73
     4
 40
0.3543
 49
0.2362
 74
     0
 49
-0.0295
 74
     0
 49
0.0591
 74
     0
 49
-0.0295
 74
     0
  0
LTYPE
  5
76
330
5
100
AcDbSymbolTableRecord
100
AcDbLinetypeTableRecord
  2
DASH_DOT
 70
     0
  3
Dash dot _._._._._._._._._._._._._._._.
 72
    65
 73
     4
 40
0.182
 49
0.1181
 74
     0
 49
-0.0295
 74
     0
 49
0.0049
 74
     0
 49
-0.0295
 74
     0
  0
LTYPE
  5
77
330
5
100
AcDbSymbolTableRecord
100
AcDbLinetypeTableRecord
  2
DASH_DOUBLE_DOT
 70
     0
  3
Dash Double Dot __ __ . __ __ . __ __ . __ _
 72
    65
 73
     6
 40
0.2164
 49
0.1181
 74
     0
 49
-0.0295
 74
     0
 49
0.0049
 74
     0
 49
-0.0295
 74
     0
 49
0.0049
 74
     0
 49
-0.0295
 74
     0
  0
LTYPE
  5
78
330
5
100
AcDbSymbolTableRecord
100
AcDbLinetypeTableRecord
  2
DASH_TRIPLE_DOT
 70
     0
  3
Dash Triple-Dot _ . . . _ . . . _ . . . _
 72
    65
 73
     8
 40
0.2508
 49
0.1181
 74
     0
 49
-0.0295
 74
     0
 49
0.0049
 74
     0
 49
-0.0295
 74
     0
 49
0.0049
 74
     0
 49
-0.0295
 74
     0
 49
0.0049
 74
     0
 49
-0.0295
 74
     0
  0
LTYPE
  5
79
330
5
100
AcDbSymbolTableRecord
100
AcDbLinetypeTableRecord
  2
DASHED
 70
     0
  3
Dashed __ __ __ __ __ __ __ __ __ __ __ __ __ _
 72
    65
 73
     2
 40
0.2068
 49
0.1655
 74
     0
 49
-0.0413
 74
     0
  0
LTYPE
  5
7A
330
5
100
AcDbSymbolTableRecord
100
AcDbLinetypeTableRecord
  2
DASHED_SPACE
 70
     0
  3
Dashed Space __ __ __ __ __ __ __ __ __ __ __ _
 72
    65
 73
     2
 40
0.2067
 49
0.1654
 74
     0
 49
-0.0413
 74
     0
  0
LTYPE
  5
7B
330
5
100
AcDbSymbolTableRecord
100
AcDbLinetypeTableRecord
  2
DOTTED
 70
     0
  3
Dotted . . . . . . . . . . . . . . . . . . . . 
 72
    65
 73
     2
 40
0.0481
 49
0.0068
 74
     0
 49
-0.0413
 74
     0
  0
LTYPE
  5
7C
330
5
100
AcDbSymbolTableRecord
100
AcDbLinetypeTableRecord
  2
DOUBLE_DASH_CHAIN
 70
     0
  3
Double Dash Chain ___ _ _ ___ _ _ ___ _ _ ___ _
 72
    65
 73
     6
 40
1.240299999999999
 49
0.6614
 74
     0
 49
-0.0827
 74
     0
 49
0.1654
 74
     0
 49
-0.0827
 74
     0
 49
0.1654
 74
     0
 49
-0.0827
 74
     0
  0
LTYPE
  5
7D
330
5
100
AcDbSymbolTableRecord
100
AcDbLinetypeTableRecord
  2
DOUBLE_DASH_DOT
 70
     0
  3
Double Dash Dot __ __ . __ __ . __ __ . __ _
 72
    65
 73
     6
 40
0.3296
 49
0.1181
 74
     0
 49
-0.0295
 74
     0
 49
0.1181
 74
     0
 49
-0.0295
 74
     0
 49
0.0049
 74
     0
 49
-0.0295
 74
     0
  0
LTYPE
  5
7E
330
5
100
AcDbSymbolTableRecord
100
AcDbLinetypeTableRecord
  2
DOUBLE_DASH_DOUBLE_DOT
 70
     0
  3
Double Dash Double Dot _ _ . . _ _ . . _ _
 72
    65
 73
     8
 40
0.364
 49
0.1181
 74
     0
 49
-0.0295
 74
     0
 49
0.1181
 74
     0
 49
-0.0295
 74
     0
 49
0.0049
 74
     0
 49
-0.0295
 74
     0
 49
0.0049
 74
     0
 49
-0.0295
 74
     0
  0
LTYPE
  5
7F
330
5
100
AcDbSymbolTableRecord
100
AcDbLinetypeTableRecord
  2
DOUBLE_DASH_TRIPLE_DOT
 70
     0
  3
Double Dash Triple Dot __ __ . . . __ __ . . .
 72
    65
 73
    10
 40
0.3984
 49
0.1181
 74
     0
 49
-0.0295
 74
     0
 49
0.1181
 74
     0
 49
-0.0295
 74
     0
 49
0.0049
 74
     0
 49
-0.0295
 74
     0
 49
0.0049
 74
     0
 49
-0.0295
 74
     0
 49
0.0049
 74
     0
 49
-0.0295
 74
     0
  0
LTYPE
  5
80
330
5
100
AcDbSymbolTableRecord
100
AcDbLinetypeTableRecord
  2
LONG_DASH_DOTTED
 70
     0
  3
Long Dash Dotted ____ . ____ . ____ . ____ . _
 72
    65
 73
     4
 40
0.3001
 49
0.2362
 74
     0
 49
-0.0295
 74
     0
 49
0.0049
 74
     0
 49
-0.0295
 74
     0
  0
LTYPE
  5
81
330
5
100
AcDbSymbolTableRecord
100
AcDbLinetypeTableRecord
  2
LONG_DASH_DOUBLE_DOT
 70
     0
  3
Long Dash Double Dot ____ . . ____ . . ____ . .
 72
    65
 73
     6
 40
0.3345
 49
0.2362
 74
     0
 49
-0.0295
 74
     0
 49
0.0049
 74
     0
 49
-0.0295
 74
     0
 49
0.0049
 74
     0
 49
-0.0295
 74
     0
  0
LTYPE
  5
82
330
5
100
AcDbSymbolTableRecord
100
AcDbLinetypeTableRecord
  2
LONG_DASH_TRIPLE_DOT
 70
     0
  3
Long Dash Triple Dot ____ ... ____ ... ____
 72
    65
 73
     8
 40
0.3689
 49
0.2362
 74
     0
 49
-0.0295
 74
     0
 49
0.0049
 74
     0
 49
-0.0295
 74
     0
 49
0.0049
 74
     0
 49
-0.0295
 74
     0
 49
0.0049
 74
     0
 49
-0.0295
 74
     0
  0
LTYPE
  5
83
330
5
100
AcDbSymbolTableRecord
100
AcDbLinetypeTableRecord
  2
BORDER
 70
     0
  3
Border __ __ . __ __ . __ __ . __ __ . __ __ .
 72
    65
 73
     6
 40
44.45
 49
12.7
 74
     0
 49
-6.349999999999999
 74
     0
 49
12.7
 74
     0
 49
-6.349999999999999
 74
     0
 49
0.0
 74
     0
 49
-6.349999999999999
 74
     0
  0
LTYPE
  5
84
330
5
100
AcDbSymbolTableRecord
100
AcDbLinetypeTableRecord
  2
BORDER2
 70
     0
  3
Border (.5x) __.__.__.__.__.__.__.__.__.__.__.
 72
    65
 73
     6
 40
22.225
 49
6.349999999999999
 74
     0
 49
-3.174999999999999
 74
     0
 49
6.349999999999999
 74
     0
 49
-3.174999999999999
 74
     0
 49
0.0
 74
     0
 49
-3.174999999999999
 74
     0
  0
LTYPE
  5
85
330
5
100
AcDbSymbolTableRecord
100
AcDbLinetypeTableRecord
  2
BORDERX2
 70
     0
  3
Border (2x) ____  ____  .  ____  ____  .  ___
 72
    65
 73
     6
 40
88.9
 49
25.4
 74
     0
 49
-12.7
 74
     0
 49
25.4
 74
     0
 49
-12.7
 74
     0
 49
0.0
 74
     0
 49
-12.7
 74
     0
  0
LTYPE
  5
86
330
5
100
AcDbSymbolTableRecord
100
AcDbLinetypeTableRecord
  2
CENTER
 70
     0
  3
Center ____ _ ____ _ ____ _ ____ _ ____ _ ____
 72
    65
 73
     4
 40
50.8
 49
31.75
 74
     0
 49
-6.349999999999999
 74
     0
 49
6.349999999999999
 74
     0
 49
-6.349999999999999
 74
     0
  0
LTYPE
  5
87
330
5
100
AcDbSymbolTableRecord
100
AcDbLinetypeTableRecord
  2
CENTER2
 70
     0
  3
Center (.5x) ___ _ ___ _ ___ _ ___ _ ___ _ ___
 72
    65
 73
     4
 40
28.575
 49
19.05
 74
     0
 49
-3.174999999999999
 74
     0
 49
3.174999999999999
 74
     0
 49
-3.174999999999999
 74
     0
  0
LTYPE
  5
88
330
5
100
AcDbSymbolTableRecord
100
AcDbLinetypeTableRecord
  2
CENTERX2
 70
     0
  3
Center (2x) ________  __  ________  __  _____
 72
    65
 73
     4
 40
101.6
 49
63.5
 74
     0
 49
-12.7
 74
     0
 49
12.7
 74
     0
 49
-12.7
 74
     0
  0
LTYPE
  5
89
330
5
100
AcDbSymbolTableRecord
100
AcDbLinetypeTableRecord
  2
DASHDOT2
 70
     0
  3
Dash dot (.5x) _._._._._._._._._._._._._._._.
 72
    65
 73
     4
 40
12.7
 49
6.349999999999999
 74
     0
 49
-3.174999999999999
 74
     0
 49
0.0
 74
     0
 49
-3.174999999999999
 74
     0
  0
LTYPE
  5
8A
330
5
100
AcDbSymbolTableRecord
100
AcDbLinetypeTableRecord
  2
DASHDOTX2
 70
     0
  3
Dash dot (2x) ____  .  ____  .  ____  .  ___
 72
    65
 73
     4
 40
50.8
 49
25.4
 74
     0
 49
-12.7
 74
     0
 49
0.0
 74
     0
 49
-12.7
 74
     0
  0
LTYPE
  5
8B
330
5
100
AcDbSymbolTableRecord
100
AcDbLinetypeTableRecord
  2
DASHED2
 70
     0
  3
Dashed (.5x) _ _ _ _ _ _ _ _ _ _ _ _ _ _ _ _ _
 72
    65
 73
     2
 40
9.524999999999998
 49
6.349999999999999
 74
     0
 49
-3.174999999999999
 74
     0
  0
LTYPE
  5
8C
330
5
100
AcDbSymbolTableRecord
100
AcDbLinetypeTableRecord
  2
DASHEDX2
 70
     0
  3
Dashed (2x) ____  ____  ____  ____  ____  ___
 72
    65
 73
     2
 40
38.1
 49
25.4
 74
     0
 49
-12.7
 74
     0
  0
LTYPE
  5
8D
330
5
100
AcDbSymbolTableRecord
100
AcDbLinetypeTableRecord
  2
DIVIDE
 70
     0
  3
Divide ____ . . ____ . . ____ . . ____ . . ____
 72
    65
 73
     6
 40
31.75
 49
12.7
 74
     0
 49
-6.349999999999999
 74
     0
 49
0.0
 74
     0
 49
-6.349999999999999
 74
     0
 49
0.0
 74
     0
 49
-6.349999999999999
 74
     0
  0
LTYPE
  5
8E
330
5
100
AcDbSymbolTableRecord
100
AcDbLinetypeTableRecord
  2
DIVIDE2
 70
     0
  3
Divide (.5x) __..__..__..__..__..__..__..__.._
 72
    65
 73
     6
 40
15.875
 49
6.349999999999999
 74
     0
 49
-3.174999999999999
 74
     0
 49
0.0
 74
     0
 49
-3.174999999999999
 74
     0
 49
0.0
 74
     0
 49
-3.174999999999999
 74
     0
  0
LTYPE
  5
8F
330
5
100
AcDbSymbolTableRecord
100
AcDbLinetypeTableRecord
  2
DIVIDEX2
 70
     0
  3
Divide (2x) ________  .  .  ________  .  .  _
 72
    65
 73
     6
 40
63.49999999999999
 49
25.4
 74
     0
 49
-12.7
 74
     0
 49
0.0
 74
     0
 49
-12.7
 74
     0
 49
0.0
 74
     0
 49
-12.7
 74
     0
  0
LTYPE
  5
90
330
5
100
AcDbSymbolTableRecord
100
AcDbLinetypeTableRecord
  2
DOT
 70
     0
  3
Dot . . . . . . . . . . . . . . . . . . . . . .
 72
    65
 73
     2
 40
6.349999999999999
 49
0.0
 74
     0
 49
-6.349999999999999
 74
     0
  0
LTYPE
  5
91
330
5
100
AcDbSymbolTableRecord
100
AcDbLinetypeTableRecord
  2
DOT2
 70
     0
  3
Dot (.5x) .....................................
 72
    65
 73
     2
 40
3.174999999999999
 49
0.0
 74
     0
 49
-3.174999999999999
 74
     0
  0
LTYPE
  5
92
330
5
100
AcDbSymbolTableRecord
100
AcDbLinetypeTableRecord
  2
DOTX2
 70
     0
  3
Dot (2x) .  .  .  .  .  .  .  .  .  .  .  .  . 
 72
    65
 73
     2
 40
12.7
 49
0.0
 74
     0
 49
-12.7
 74
     0
  0
LTYPE
  5
93
330
5
100
AcDbSymbolTableRecord
100
AcDbLinetypeTableRecord
  2
HIDDEN
 70
     0
  3
Hidden __ __ __ __ __ __ __ __ __ __ __ __ __ _
 72
    65
 73
     2
 40
9.524999999999998
 49
6.349999999999999
 74
     0
 49
-3.174999999999999
 74
     0
  0
LTYPE
  5
94
330
5
100
AcDbSymbolTableRecord
100
AcDbLinetypeTableRecord
  2
HIDDEN2
 70
     0
  3
Hidden (.5x) _ _ _ _ _ _ _ _ _ _ _ _ _ _ _ _ _
 72
    65
 73
     2
 40
4.762499999999999
 49
3.174999999999999
 74
     0
 49
-1.587499999999999
 74
     0
  0
LTYPE
  5
95
330
5
100
AcDbSymbolTableRecord
100
AcDbLinetypeTableRecord
  2
HIDDENX2
 70
     0
  3
Hidden (2x) ____ ____ ____ ____ ____ ____ ____
 72
    65
 73
     2
 40
19.05
 49
12.7
 74
     0
 49
-6.349999999999999
 74
     0
  0
LTYPE
  5
96
330
5
100
AcDbSymbolTableRecord
100
AcDbLinetypeTableRecord
  2
PHANTOM
 70
     0
  3
Phantom ______  __  __  ______  __  __  ______
 72
    65
 73
     6
 40
63.5
 49
31.75
 74
     0
 49
-6.349999999999999
 74
     0
 49
6.349999999999999
 74
     0
 49
-6.349999999999999
 74
     0
 49
6.349999999999999
 74
     0
 49
-6.349999999999999
 74
     0
  0
LTYPE
  5
97
330
5
100
AcDbSymbolTableRecord
100
AcDbLinetypeTableRecord
  2
PHANTOM2
 70
     0
  3
Phantom (.5x) ___ _ _ ___ _ _ ___ _ _ ___ _ _
 72
    65
 73
     6
 40
31.75
 49
15.875
 74
     0
 49
-3.174999999999999
 74
     0
 49
3.174999999999999
 74
     0
 49
-3.174999999999999
 74
     0
 49
3.174999999999999
 74
     0
 49
-3.174999999999999
 74
     0
  0
LTYPE
  5
98
330
5
100
AcDbSymbolTableRecord
100
AcDbLinetypeTableRecord
  2
PHANTOMX2
 70
     0
  3
Phantom (2x) ____________    ____    ____   _
 72
    65
 73
     6
 40
127.0
 49
63.5
 74
     0
 49
-12.7
 74
     0
 49
12.7
 74
     0
 49
-12.7
 74
     0
 49
12.7
 74
     0
 49
-12.7
 74
     0
  0
LTYPE
  5
99
330
5
100
AcDbSymbolTableRecord
100
AcDbLinetypeTableRecord
  2
ACAD_ISO02W100
 70
     0
  3
ISO dash __ __ __ __ __ __ __ __ __ __ __ __ __
 72
    65
 73
     2
 40
15.0
 49
12.0
 74
     0
 49
-3.0
 74
     0
  0
LTYPE
  5
9A
330
5
100
AcDbSymbolTableRecord
100
AcDbLinetypeTableRecord
  2
ACAD_ISO03W100
 70
     0
  3
ISO dash space __    __    __    __    __    __
 72
    65
 73
     2
 40
30.0
 49
12.0
 74
     0
 49
-18.0
 74
     0
  0
LTYPE
  5
9B
330
5
100
AcDbSymbolTableRecord
100
AcDbLinetypeTableRecord
  2
ACAD_ISO04W100
 70
     0
  3
ISO long-dash dot ____ . ____ . ____ . ____ . _
 72
    65
 73
     4
 40
30.0
 49
24.0
 74
     0
 49
-3.0
 74
     0
 49
0.0
 74
     0
 49
-3.0
 74
     0
  0
LTYPE
  5
9C
330
5
100
AcDbSymbolTableRecord
100
AcDbLinetypeTableRecord
  2
ACAD_ISO05W100
 70
     0
  3
ISO long-dash double-dot ____ .. ____ .. ____ .
 72
    65
 73
     6
 40
33.0
 49
24.0
 74
     0
 49
-3.0
 74
     0
 49
0.0
 74
     0
 49
-3.0
 74
     0
 49
0.0
 74
     0
 49
-3.0
 74
     0
  0
LTYPE
  5
9D
330
5
100
AcDbSymbolTableRecord
100
AcDbLinetypeTableRecord
  2
ACAD_ISO06W100
 70
     0
  3
ISO long-dash triple-dot ____ ... ____ ... ____
 72
    65
 73
     8
 40
36.0
 49
24.0
 74
     0
 49
-3.0
 74
     0
 49
0.0
 74
     0
 49
-3.0
 74
     0
 49
0.0
 74
     0
 49
-3.0
 74
     0
 49
0.0
 74
     0
 49
-3.0
 74
     0
  0
LTYPE
  5
9E
330
5
100
AcDbSymbolTableRecord
100
AcDbLinetypeTableRecord
  2
ACAD_ISO07W100
 70
     0
  3
ISO dot . . . . . . . . . . . . . . . . . . . .
 72
    65
 73
     2
 40
3.0
 49
0.0
 74
     0
 49
-3.0
 74
     0
  0
LTYPE
  5
9F
330
5
100
AcDbSymbolTableRecord
100
AcDbLinetypeTableRecord
  2
ACAD_ISO08W100
 70
     0
  3
ISO long-dash short-dash ____ __ ____ __ ____ _
 72
    65
 73
     4
 40
36.0
 49
24.0
 74
     0
 49
-3.0
 74
     0
 49
6.0
 74
     0
 49
-3.0
 74
     0
  0
LTYPE
  5
A0
330
5
100
AcDbSymbolTableRecord
100
AcDbLinetypeTableRecord
  2
ACAD_ISO09W100
 70
     0
  3
ISO long-dash double-short-dash ____ __ __ ____
 72
    65
 73
     6
 40
45.0
 49
24.0
 74
     0
 49
-3.0
 74
     0
 49
6.0
 74
     0
 49
-3.0
 74
     0
 49
6.0
 74
     0
 49
-3.0
 74
     0
  0
LTYPE
  5
A1
330
5
100
AcDbSymbolTableRecord
100
AcDbLinetypeTableRecord
  2
ACAD_ISO10W100
 70
     0
  3
ISO dash dot __ . __ . __ . __ . __ . __ . __ .
 72
    65
 73
     4
 40
18.0
 49
12.0
 74
     0
 49
-3.0
 74
     0
 49
0.0
 74
     0
 49
-3.0
 74
     0
  0
LTYPE
  5
A2
330
5
100
AcDbSymbolTableRecord
100
AcDbLinetypeTableRecord
  2
ACAD_ISO11W100
 70
     0
  3
ISO double-dash dot __ __ . __ __ . __ __ . __ 
 72
    65
 73
     6
 40
33.0
 49
12.0
 74
     0
 49
-3.0
 74
     0
 49
12.0
 74
     0
 49
-3.0
 74
     0
 49
0.0
 74
     0
 49
-3.0
 74
     0
  0
LTYPE
  5
A3
330
5
100
AcDbSymbolTableRecord
100
AcDbLinetypeTableRecord
  2
ACAD_ISO12W100
 70
     0
  3
ISO dash double-dot __ . . __ . . __ . . __ . .
 72
    65
 73
     6
 40
21.0
 49
12.0
 74
     0
 49
-3.0
 74
     0
 49
0.0
 74
     0
 49
-3.0
 74
     0
 49
0.0
 74
     0
 49
-3.0
 74
     0
  0
LTYPE
  5
A4
330
5
100
AcDbSymbolTableRecord
100
AcDbLinetypeTableRecord
  2
ACAD_ISO13W100
 70
     0
  3
ISO double-dash double-dot __ __ . . __ __ . . 
 72
    65
 73
     8
 40
36.0
 49
12.0
 74
     0
 49
-3.0
 74
     0
 49
12.0
 74
     0
 49
-3.0
 74
     0
 49
0.0
 74
     0
 49
-3.0
 74
     0
 49
0.0
 74
     0
 49
-3.0
 74
     0
  0
LTYPE
  5
A5
330
5
100
AcDbSymbolTableRecord
100
AcDbLinetypeTableRecord
  2
ACAD_ISO14W100
 70
     0
  3
ISO dash triple-dot __ . . . __ . . . __ . . . 
 72
    65
 73
     8
 40
24.0
 49
12.0
 74
     0
 49
-3.0
 74
     0
 49
0.0
 74
     0
 49
-3.0
 74
     0
 49
0.0
 74
     0
 49
-3.0
 74
     0
 49
0.0
 74
     0
 49
-3.0
 74
     0
  0
LTYPE
  5
A6
330
5
100
AcDbSymbolTableRecord
100
AcDbLinetypeTableRecord
  2
ACAD_ISO15W100
 70
     0
  3
ISO double-dash triple-dot __ __ . . . __ __ . 
 72
    65
 73
    10
 40
39.0
 49
12.0
 74
     0
 49
-3.0
 74
     0
 49
12.0
 74
     0
 49
-3.0
 74
     0
 49
0.0
 74
     0
 49
-3.0
 74
     0
 49
0.0
 74
     0
 49
-3.0
 74
     0
 49
0.0
 74
     0
 49
-3.0
 74
     0
  0
LTYPE
  5
A9
330
5
100
AcDbSymbolTableRecord
100
AcDbLinetypeTableRecord
  2
FENCELINE1
 70
     0
  3
Fenceline circle ----0-----0----0-----0----0---
 72
    65
 73
     4
 40
36.83
 49
6.349999999999999
 74
     0
 49
-2.54
 74
     4
 75
   133
340
A8
 46
2.54
 50
0.0
 44
-2.54
 45
0.0
 49
-2.54
 74
     0
 49
25.4
 74
     0
  0
LTYPE
  5
AA
330
5
100
AcDbSymbolTableRecord
100
AcDbLinetypeTableRecord
  2
FENCELINE2
 70
     0
  3
Fenceline square ----[]-----[]----[]-----[]----
 72
    65
 73
     4
 40
36.83
 49
6.349999999999999
 74
     0
 49
-2.54
 74
     4
 75
   132
340
A8
 46
2.54
 50
0.0
 44
-2.54
 45
0.0
 49
-2.54
 74
     0
 49
25.4
 74
     0
  0
LTYPE
  5
AB
330
5
100
AcDbSymbolTableRecord
100
AcDbLinetypeTableRecord
  2
TRACKS
 70
     0
  3
Tracks -|-|-|-|-|-|-|-|-|-|-|-|-|-|-|-|-|-|-|-|
 72
    65
 73
     2
 40
7.62
 49
3.81
 74
     4
 75
   130
340
A8
 46
6.349999999999999
 50
0.0
 44
0.0
 45
0.0
 49
3.81
 74
     0
  0
LTYPE
  5
AC
330
5
100
AcDbSymbolTableRecord
100
AcDbLinetypeTableRecord
  2
BATTING
 70
     0
  3
Batting SSSSSSSSSSSSSSSSSSSSSSSSSSSSSSSSSSSSSSS
 72
    65
 73
     4
 40
10.16254
 49
0.00254
 74
     0
 49
-2.54
 74
     4
 75
   134
340
A8
 46
2.54
 50
0.0
 44
-2.54
 45
0.0
 49
-5.08
 74
     4
 75
   134
340
A8
 46
2.54
 50
180.0
 44
2.54
 45
0.0
 49
-2.54
 74
     0
  0
LTYPE
  5
AD
330
5
100
AcDbSymbolTableRecord
100
AcDbLinetypeTableRecord
  2
HOT_WATER_SUPPLY
 70
     0
  3
Hot water supply ---- HW ---- HW ---- HW ----
 72
    65
 73
     3
 40
22.86
 49
12.7
 74
     0
 49
-5.08
 74
     2
 75
     0
340
55
 46
2.54
 50
0.0
 44
-2.54
 45
-1.27
  9
HW
 49
-5.08
 74
     0
  0
LTYPE
  5
AE
330
5
100
AcDbSymbolTableRecord
100
AcDbLinetypeTableRecord
  2
GAS_LINE
 70
     0
  3
Gas line ----GAS----GAS----GAS----GAS----GAS---
 72
    65
 73
     3
 40
24.13
 49
12.7
 74
     0
 49
-5.08
 74
     2
 75
     0
340
55
 46
2.54
 50
0.0
 44
-2.54
 45
-1.27
  9
GAS
 49
-6.349999999999999
 74
     0
  0
LTYPE
  5
AF
330
5
100
AcDbSymbolTableRecord
100
AcDbLinetypeTableRecord
  2
ZIGZAG
 70
     0
  3
Zig zag /\/\/\/\/\/\/\/\/\/\/\/\/\/\/\/\/\/\/\/
 72
    65
 73
     4
 40
20.32254
 49
0.00254
 74
     0
 49
-5.08
 74
     4
 75
   131
340
A8
 46
5.08
 50
0.0
 44
-5.08
 45
0.0
 49
-10.16
 74
     4
 75
   131
340
A8
 46
5.08
 50
180.0
 44
5.08
 45
0.0
 49
-5.08
 74
     0
  0
LTYPE
  5
FB
330
5
100
AcDbSymbolTableRecord
100
AcDbLinetypeTableRecord
  2
CONTINUOUS_ACAD
 70
     0
  3

 72
    65
 73
     0
 40
0.0
  0
LTYPE
  5
3E0
330
5
100
AcDbSymbolTableRecord
100
AcDbLinetypeTableRecord
  2
AM_ISO02W050
 70
     0
  3
__ __ __ __ __ __ __ __ __ __ __ __ __ __ __
 72
    65
 73
     2
 40
7.5
 49
6.0
 74
     0
 49
-1.5
 74
     0
  0
LTYPE
  5
3E1
330
5
100
AcDbSymbolTableRecord
100
AcDbLinetypeTableRecord
  2
AM_ISO08W050
 70
     0
  3
____ . ____ . ____ . ____ . ____ . ____ . ____
 72
    65
 73
     4
 40
18.0
 49
12.0
 74
     0
 49
-1.5
 74
     0
 49
3.0
 74
     0
 49
-1.5
 74
     0
  0
LTYPE
  5
3E2
330
5
100
AcDbSymbolTableRecord
100
AcDbLinetypeTableRecord
  2
AM_ISO09W050
 70
     0
  3
_____ . . _____ . . _____ . . ____ .. ____
 72
    65
 73
     6
 40
22.5
 49
12.0
 74
     0
 49
-1.5
 74
     0
 49
3.0
 74
     0
 49
-1.5
 74
     0
 49
3.0
 74
     0
 49
-1.5
 74
     0
  0
LTYPE
  5
3E3
330
5
100
AcDbSymbolTableRecord
100
AcDbLinetypeTableRecord
  2
Amconstr
 70
     0
  3
_______________________
 72
    65
 73
     2
 40
9999.0
 49
9999.0
 74
     0
 49
0.0
 74
     0
  0
LTYPE
  5
3E4
330
5
100
AcDbSymbolTableRecord
100
AcDbLinetypeTableRecord
  2
AM_ISO08W050x2
 70
     0
  3
__ . __ . __ . __ . __ . __
 72
    65
 73
     4
 40
9.0
 49
6.0
 74
     0
 49
-0.75
 74
     0
 49
1.5
 74
     0
 49
-0.75
 74
     0
  0
LTYPE
  5
3E5
330
5
100
AcDbSymbolTableRecord
100
AcDbLinetypeTableRecord
  2
AM_ISO02W050x2
 70
     0
  3
 _ _ _ _ _ _ _ _ _ _ _ _
 72
    65
 73
     2
 40
3.75
 49
3.0
 74
     0
 49
-0.75
 74
     0
  0
LTYPE
  5
3E8
330
5
100
AcDbSymbolTableRecord
100
AcDbLinetypeTableRecord
  2
Amzigzag
 70
     0
  3
/\/-/\/-/\/-/\/-/\/-/\/
 72
    65
 73
     2
 40
11.0001
 49
0.0001
 74
     4
 75
   136
340
3E7
 46
0.04
 50
0.0
 44
0.0
 45
0.0
 49
-11.0
 74
     0
  0
LTYPE
  5
3E9
330
5
100
AcDbSymbolTableRecord
100
AcDbLinetypeTableRecord
  2
AM_DIN_F_W050
 70
     0
  3
__ __ __ __ __ __ __ __ __ __ __ __ __ __ __
 72
    65
 73
     2
 40
6.25
 49
4.75
 74
     0
 49
-1.5
 74
     0
  0
LTYPE
  5
3EA
330
5
100
AcDbSymbolTableRecord
100
AcDbLinetypeTableRecord
  2
AM_DIN_G_W050
 70
     0
  3
____ . ____ . ____ . ____ . ____ . ____ . ____
 72
    65
 73
     4
 40
13.75
 49
9.75
 74
     0
 49
-1.5
 74
     0
 49
1.0
 74
     0
 49
-1.5
 74
     0
  0
LTYPE
  5
3EB
330
5
100
AcDbSymbolTableRecord
100
AcDbLinetypeTableRecord
  2
AM_DIN_K_W050
 70
     0
  3
_____ . . _____ . . _____ . . ____ .. ____
 72
    65
 73
     6
 40
16.25
 49
9.75
 74
     0
 49
-1.5
 74
     0
 49
1.0
 74
     0
 49
-1.5
 74
     0
 49
1.0
 74
     0
 49
-1.5
 74
     0
  0
LTYPE
  5
3EC
330
5
100
AcDbSymbolTableRecord
100
AcDbLinetypeTableRecord
  2
AM_DIN_G_W050x2
 70
     0
  3
__ . __ . __ . __ . __ . __
 72
    65
 73
     4
 40
6.875
 49
4.75
 74
     0
 49
-0.875
 74
     0
 49
0.375
 74
     0
 49
-0.875
 74
     0
  0
LTYPE
  5
3ED
330
5
100
AcDbSymbolTableRecord
100
AcDbLinetypeTableRecord
  2
AM_DIN_F_W050x2
 70
     0
  3
 _ _ _ _ _ _ _ _ _ _ _ _
 72
    65
 73
     2
 40
3.125
 49
2.25
 74
     0
 49
-0.875
 74
     0
  0
LTYPE
  5
3FC
330
5
100
AcDbSymbolTableRecord
100
AcDbLinetypeTableRecord
  2
ACDINWELD
 70
     0
  3
_ _ _ _ _
 72
    65
 73
     2
 40
2.0
 49
2.0
 74
     0
 49
-1.0
 74
     0
  0
LTYPE
  5
3FD
330
5
100
AcDbSymbolTableRecord
100
AcDbLinetypeTableRecord
  2
ACDINTGB
 70
     0
  3
__ . . __ . .
 72
    65
 73
     6
 40
9.0
 49
4.0
 74
     0
 49
-1.0
 74
     0
 49
1.0
 74
     0
 49
-1.0
 74
     0
 49
1.0
 74
     0
 49
-1.0
 74
     0
  0
LTYPE
  5
3FE
330
5
100
AcDbSymbolTableRecord
100
AcDbLinetypeTableRecord
  2
ACDINTGL
 70
     0
  3
_ _ _ _ _
 72
    65
 73
     2
 40
3.0
 49
2.0
 74
     0
 49
-1.0
 74
     0
  0
ENDTAB
  0
TABLE
  2
LAYER
  5
2
330
0
100
AcDbSymbolTable
 70
     6
  0
LAYER
  5
54
330
2
100
AcDbSymbolTableRecord
100
AcDbLayerTableRecord
  2
0
 70
     0
 62
     7
  6
Continuous
370
    -3
390
F
  0
LAYER
  5
BF
330
2
100
AcDbSymbolTableRecord
100
AcDbLayerTableRecord
  2
Bemaßungen(ISO)
 70
     0
 62
     7
  6
Continuous
370
    18
390
F
  0
LAYER
  5
D5
330
2
100
AcDbSymbolTableRecord
100
AcDbLayerTableRecord
  2
Mittelpunktmarkierung(ISO)
 70
     0
 62
     7
  6
Continuous
370
    18
390
F
  0
LAYER
  5
E0
330
2
100
AcDbSymbolTableRecord
100
AcDbLayerTableRecord
  2
Sichtbare Kanten(ISO)
 70
     0
 62
     7
  6
Continuous
370
    35
390
F
  0
LAYER
  5
E5
330
2
100
AcDbSymbolTableRecord
100
AcDbLayerTableRecord
  2
Skizziergeometrie(ISO)
 70
     0
 62
     7
  6
Continuous
370
    35
390
F
  0
LAYER
  5
EC
330
2
100
AcDbSymbolTableRecord
100
AcDbLayerTableRecord
  2
Symbole(ISO)
 70
     0
 62
     7
  6
Continuous
370
    25
390
F
  0
ENDTAB
  0
TABLE
  2
STYLE
  5
3
330
0
100
AcDbSymbolTable
 70
    25
  0
STYLE
  5
55
330
3
100
AcDbSymbolTableRecord
100
AcDbTextStyleTableRecord
  2
Standard
 70
     0
 40
0.0
 41
1.0
 50
0.0
 71
     0
 42
0.2
  3
arial.ttf
  4

1001
ACAD
1000
Arial
1071
      256
  0
STYLE
  5
5A
330
3
100
AcDbSymbolTableRecord
100
AcDbTextStyleTableRecord
  2
Annotative
 70
     0
 40
0.0
 41
1.0
 50
0.0
 71
     0
 42
0.2
  3
txt
  4

1001
AcadAnnotative
1000
AnnotativeData
1002
{
1070
     1
1070
     1
1002
}
  0
STYLE
  5
A8
330
3
100
AcDbSymbolTableRecord
100
AcDbTextStyleTableRecord
  2

 70
     1
 40
0.0
 41
1.0
 50
0.0
 71
     0
 42
0.2
  3
ltypeshp.shx
  4

  0
STYLE
  5
FC
330
3
100
AcDbSymbolTableRecord
100
AcDbTextStyleTableRecord
  2
Aktuell-BSI
 70
     0
 40
0.0
 41
1.0
 50
0.0
 71
     0
 42
0.2
  3
arial.ttf
  4

1001
ACAD
1000
Arial
1071
      256
  0
STYLE
  5
FD
330
3
100
AcDbSymbolTableRecord
100
AcDbTextStyleTableRecord
  2
Aktuell-ISO
 70
     0
 40
0.0
 41
1.0
 50
0.0
 71
     0
 42
0.2
  3
arial.ttf
  4

1001
ACAD
1000
Arial
1071
      256
  0
STYLE
  5
FE
330
3
100
AcDbSymbolTableRecord
100
AcDbTextStyleTableRecord
  2
CUSTOM-BOM Inv
 70
     0
 40
0.0
 41
1.0
 50
0.0
 71
     0
 42
0.2
  3
isocpeur.ttf
  4

1001
ACAD
1000
ISOCPEUR
1071
      256
  0
STYLE
  5
FF
330
3
100
AcDbSymbolTableRecord
100
AcDbTextStyleTableRecord
  2
CUSTOM-Datum Inv
 70
     0
 40
0.0
 41
1.0
 50
0.0
 71
     0
 42
0.2
  3
isocpeur.ttf
  4

1001
ACAD
1000
ISOCPEUR
1071
      256
  0
STYLE
  5
100
330
3
100
AcDbSymbolTableRecord
100
AcDbTextStyleTableRecord
  2
CUSTOM-ENGBigText Inv
 70
     0
 40
0.0
 41
1.0
 50
0.0
 71
     0
 42
0.2
  3
isocpeur.ttf
  4

1001
ACAD
1000
ISOCPEUR
1071
      256
  0
STYLE
  5
101
330
3
100
AcDbSymbolTableRecord
100
AcDbTextStyleTableRecord
  2
CUSTOM-ENGByLayer Inv
 70
     0
 40
0.0
 41
1.0
 50
0.0
 71
     0
 42
0.2
  3
ISOCP.shx
  4

  0
STYLE
  5
102
330
3
100
AcDbSymbolTableRecord
100
AcDbTextStyleTableRecord
  2
CUSTOM-TITLE Inv
 70
     0
 40
0.0
 41
1.0
 50
0.0
 71
     0
 42
0.2
  3
ISOCP.shx
  4

  0
STYLE
  5
103
330
3
100
AcDbSymbolTableRecord
100
AcDbTextStyleTableRecord
  2
CUSTOM-TOL Inv
 70
     0
 40
0.0
 41
1.0
 50
0.0
 71
     0
 42
0.2
  3
isocpeur.ttf
  4

1001
ACAD
1000
ISOCPEUR
1071
      256
  0
STYLE
  5
104
330
3
100
AcDbSymbolTableRecord
100
AcDbTextStyleTableRecord
  2
CUSTOM BALLOON Inv
 70
     0
 40
0.0
 41
1.0
 50
0.0
 71
     0
 42
0.2
  3
isocpeur.ttf
  4

1001
ACAD
1000
ISOCPEUR
1071
      256
  0
STYLE
  5
105
330
3
100
AcDbSymbolTableRecord
100
AcDbTextStyleTableRecord
  2
CUSTOM Inv
 70
     0
 40
0.0
 41
1.0
 50
0.0
 71
     0
 42
0.2
  3
isocpeur.ttf
  4

1001
ACAD
1000
ISOCPEUR
1071
      256
  0
STYLE
  5
106
330
3
100
AcDbSymbolTableRecord
100
AcDbTextStyleTableRecord
  2
STANDARD-4
 70
     0
 40
0.0
 41
1.0
 50
0.0
 71
     0
 42
0.2
  3
arial.ttf
  4

1001
ACAD
1000
Arial
1071
      256
  0
STYLE
  5
107
330
3
100
AcDbSymbolTableRecord
100
AcDbTextStyleTableRecord
  2
STANDARD-6
 70
     0
 40
0.0
 41
1.0
 50
0.0
 71
     0
 42
0.2
  3
arial.ttf
  4

1001
ACAD
1000
Arial
1071
      256
  0
STYLE
  5
108
330
3
100
AcDbSymbolTableRecord
100
AcDbTextStyleTableRecord
  2
STANDARD-ISO
 70
     0
 40
0.0
 41
1.0
 50
0.0
 71
     0
 42
0.2
  3
arial.ttf
  4

1001
ACAD
1000
Arial
1071
      256
  0
STYLE
  5
109
330
3
100
AcDbSymbolTableRecord
100
AcDbTextStyleTableRecord
  2
STANDARD-ISO-2
 70
     0
 40
0.0
 41
1.0
 50
0.0
 71
     0
 42
0.2
  3
arial.ttf
  4

1001
ACAD
1000
Arial
1071
      256
  0
STYLE
  5
10A
330
3
100
AcDbSymbolTableRecord
100
AcDbTextStyleTableRecord
  2
STANDARD-ISONach Layer
 70
     0
 40
0.0
 41
1.0
 50
0.0
 71
     0
 42
0.2
  3
arial.ttf
  4

1001
ACAD
1000
Arial
1071
      256
  0
STYLE
  5
10B
330
3
100
AcDbSymbolTableRecord
100
AcDbTextStyleTableRecord
  2
STANDARD-Stueckliste
 70
     0
 40
0.0
 41
1.0
 50
0.0
 71
     0
 42
0.2
  3
arial.ttf
  4

1001
ACAD
1000
Arial
1071
      256
  0
STYLE
  5
10C
330
3
100
AcDbSymbolTableRecord
100
AcDbTextStyleTableRecord
  2
STANDARD-StuecklisteNach Layer
 70
     0
 40
0.0
 41
1.0
 50
0.0
 71
     0
 42
0.2
  3
arial.ttf
  4

1001
ACAD
1000
Arial
1071
      256
  0
STYLE
  5
10D
330
3
100
AcDbSymbolTableRecord
100
AcDbTextStyleTableRecord
  2
STANDARDGroßer Text
 70
     0
 40
0.0
 41
1.0
 50
0.0
 71
     0
 42
0.2
  3
arial.ttf
  4

1001
ACAD
1000
Arial
1071
      256
  0
STYLE
  5
10E
330
3
100
AcDbSymbolTableRecord
100
AcDbTextStyleTableRecord
  2
STANDARDNach Layer
 70
     0
 40
0.0
 41
1.0
 50
0.0
 71
     0
 42
0.2
  3
arial.ttf
  4

1001
ACAD
1000
Arial
1071
      256
  0
STYLE
  5
3E7
330
3
100
AcDbSymbolTableRecord
100
AcDbTextStyleTableRecord
  2

 70
     1
 40
0.0
 41
1.0
 50
0.0
 71
     0
 42
0.2
  3
genltshp.shx
  4

  0
STYLE
  5
3FA
330
3
100
AcDbSymbolTableRecord
100
AcDbTextStyleTableRecord
  2
ACDINTS
 70
     0
 40
1.0
 41
1.0
 50
0.0
 71
     0
 42
0.2
  3
isocp.shx
  4

  0
STYLE
  5
3FB
330
3
100
AcDbSymbolTableRecord
100
AcDbTextStyleTableRecord
  2
ACDINGDT
 70
     0
 40
0.0
 41
1.0
 50
0.0
 71
     0
 42
0.2
  3
amgdt.shx
  4

  0
ENDTAB
  0
TABLE
  2
VIEW
  5
6
330
0
100
AcDbSymbolTable
 70
     0
  0
ENDTAB
  0
TABLE
  2
UCS
  5
7
330
0
100
AcDbSymbolTable
 70
     0
  0
ENDTAB
  0
TABLE
  2
APPID
  5
9
330
0
100
AcDbSymbolTable
 70
    15
  0
APPID
  5
56
330
9
100
AcDbSymbolTableRecord
100
AcDbRegAppTableRecord
  2
ACAD
 70
     0
  0
APPID
  5
5E
330
9
100
AcDbSymbolTableRecord
100
AcDbRegAppTableRecord
  2
AcadAnnotative
 70
     0
  0
APPID
  5
15A
330
9
100
AcDbSymbolTableRecord
100
AcDbRegAppTableRecord
  2
AcadAnnoPO
 70
     0
  0
APPID
  5
346
330
9
100
AcDbSymbolTableRecord
100
AcDbRegAppTableRecord
  2
ACAD_MLEADERVER
 70
     0
  0
APPID
  5
36C
330
9
100
AcDbSymbolTableRecord
100
AcDbRegAppTableRecord
  2
MCAD_NO_VIS
 70
     0
  0
APPID
  5
36D
330
9
100
AcDbSymbolTableRecord
100
AcDbRegAppTableRecord
  2
ACAD_TEMP_GRAPHIC
 70
     0
  0
APPID
  5
39C
330
9
100
AcDbSymbolTableRecord
100
AcDbRegAppTableRecord
  2
AD_DRAW
 70
     0
  0
APPID
  5
39F
330
9
100
AcDbSymbolTableRecord
100
AcDbRegAppTableRecord
  2
ACATTRIBSERVICES
 70
     0
  0
APPID
  5
3C0
330
9
100
AcDbSymbolTableRecord
100
AcDbRegAppTableRecord
  2
DESIGNERASSEMBLIES
 70
     0
  0
APPID
  5
3C6
330
9
100
AcDbSymbolTableRecord
100
AcDbRegAppTableRecord
  2
ACADM_DIM_EDIT
 70
     0
  0
APPID
  5
3C7
330
9
100
AcDbSymbolTableRecord
100
AcDbRegAppTableRecord
  2
AMDT_DM_ADJ
 70
     0
  0
APPID
  5
420
330
9
100
AcDbSymbolTableRecord
100
AcDbRegAppTableRecord
  2
ACAD_DSTYLE_DIMJOGGED_JOGANGLE_SYMBOL
 70
     0
  0
APPID
  5
421
330
9
100
AcDbSymbolTableRecord
100
AcDbRegAppTableRecord
  2
ACAD_DSTYLE_DIM_LINETYPE
 70
     0
  0
APPID
  5
422
330
9
100
AcDbSymbolTableRecord
100
AcDbRegAppTableRecord
  2
ACAD_DSTYLE_DIM_EXT1_LINETYPE
 70
     0
  0
APPID
  5
423
330
9
100
AcDbSymbolTableRecord
100
AcDbRegAppTableRecord
  2
ACAD_DSTYLE_DIM_EXT2_LINETYPE
 70
     0
  0
ENDTAB
  0
TABLE
  2
DIMSTYLE
  5
A
330
0
100
AcDbSymbolTable
 70
    33
100
AcDbDimStyleTable
 71
     0
  0
DIMSTYLE
105
58
330
A
100
AcDbSymbolTableRecord
100
AcDbDimStyleTableRecord
  2
Standard
 70
     0
340
55
  0
DIMSTYLE
105
59
330
A
100
AcDbSymbolTableRecord
100
AcDbDimStyleTableRecord
  2
Annotative
 70
     0
340
55
1001
AcadAnnotative
1000
AnnotativeData
1002
{
1070
     1
1070
     1
1002
}
  0
DIMSTYLE
105
10F
330
A
100
AcDbSymbolTableRecord
100
AcDbDimStyleTableRecord
  2
01-Mayer
 70
     0
 40
7.5
 41
2.5
 42
0.0
 43
10.0
 44
1.0
 45
0.00000001
 46
10.0
 73
     0
 74
     0
 77
     1
 78
     8
 79
     2
140
2.200000047683715
143
0.03937
146
0.9090908765792846
147
0.762
171
     3
172
     1
176
     7
177
     7
178
     7
179
     2
271
     2
272
     2
274
     3
278
    44
284
     8
286
     8
340
FC
371
     9
372
     9
  0
DIMSTYLE
105
110
330
A
100
AcDbSymbolTableRecord
100
AcDbDimStyleTableRecord
  2
01-Mayer$7
 70
     0
 40
7.5
 41
2.5
 42
0.0
 43
10.0
 44
1.0
 45
0.00000001
 46
10.0
 73
     0
 74
     0
 77
     1
 78
     8
 79
     2
140
2.200000047683715
143
0.03937
146
0.9090908765792846
147
0.762
171
     3
172
     1
176
     7
177
     7
178
     7
179
     2
271
     2
272
     2
274
     3
278
    44
284
     8
286
     8
340
FC
371
    15
372
     9
  0
DIMSTYLE
105
111
330
A
100
AcDbSymbolTableRecord
100
AcDbDimStyleTableRecord
  2
01-Mayer_STANDARD-Stueckliste
 70
     0
 40
7.5
 41
2.5
 42
0.0
 43
10.0
 44
1.0
 45
0.00000001
 46
10.0
 73
     0
 74
     0
 77
     1
 78
     8
 79
     2
140
2.200000047683715
143
0.03937
146
0.9090908765792846
147
0.762
171
     3
172
     1
176
     7
177
     7
178
     7
179
     2
271
     2
272
     2
274
     3
278
    44
284
     8
286
     8
340
10B
371
     9
372
     9
  0
DIMSTYLE
105
112
330
A
100
AcDbSymbolTableRecord
100
AcDbDimStyleTableRecord
  2
01-Mayer_STANDARD-Stueckliste$7
 70
     0
 40
7.5
 41
2.5
 42
0.0
 43
10.0
 44
1.0
 45
0.00000001
 46
10.0
 73
     0
 74
     0
 77
     1
 78
     8
 79
     2
140
2.200000047683715
143
0.03937
146
0.9090908765792846
147
0.762
171
     3
172
     1
176
     7
177
     7
178
     7
179
     2
271
     2
272
     2
274
     3
278
    44
284
     8
286
     8
340
10B
371
    15
372
     9
  0
DIMSTYLE
105
113
330
A
100
AcDbSymbolTableRecord
100
AcDbDimStyleTableRecord
  2
01-MayerGroßer Text
 70
     0
 40
7.5
 41
5.0
 42
0.0
 43
10.0
 44
1.0
 45
0.00000001
 46
10.0
 73
     0
 74
     0
 77
     1
 78
     8
 79
     2
140
5.25
143
0.03937
146
0.380952388048172
147
0.762
171
     3
172
     1
176
     7
177
     7
178
     7
179
     2
271
     2
272
     2
274
     3
278
    44
284
     8
286
     8
340
10D
371
     9
372
     9
  0
DIMSTYLE
105
114
330
A
100
AcDbSymbolTableRecord
100
AcDbDimStyleTableRecord
  2
01-MayerGroßer Text$7
 70
     0
 40
7.5
 41
5.0
 42
0.0
 43
10.0
 44
1.0
 45
0.00000001
 46
10.0
 73
     0
 74
     0
 77
     1
 78
     8
 79
     2
140
5.25
143
0.03937
146
0.380952388048172
147
0.762
171
     3
172
     1
176
     7
177
     7
178
     7
179
     2
271
     2
272
     2
274
     3
278
    44
284
     8
286
     8
340
10D
371
    15
372
     9
  0
DIMSTYLE
105
115
330
A
100
AcDbSymbolTableRecord
100
AcDbDimStyleTableRecord
  2
bemaßung Internet
 70
     0
 40
7.5
 41
2.5
 42
0.0
 43
10.0
 44
1.0
 45
0.00000001
 46
10.0
 73
     0
 74
     0
 77
     1
 78
     8
 79
     2
140
2.200000047683715
143
0.03937
146
0.9090908765792846
147
0.762
171
     3
172
     1
176
     7
177
     7
178
     7
179
     2
271
     2
272
     2
274
     3
278
    44
284
     8
286
     8
340
FC
371
     9
372
     9
  0
DIMSTYLE
105
116
330
A
100
AcDbSymbolTableRecord
100
AcDbDimStyleTableRecord
  2
bemaßung Internet$7
 70
     0
 40
7.5
 41
2.5
 42
0.0
 43
10.0
 44
1.0
 45
0.00000001
 46
10.0
 73
     0
 74
     0
 77
     1
 78
     8
 79
     2
140
2.200000047683715
143
0.03937
146
0.9090908765792846
147
0.762
171
     3
172
     1
176
     7
177
     7
178
     7
179
     2
271
     2
272
     2
274
     3
278
    44
284
     8
286
     8
340
FC
371
    15
372
     9
  0
DIMSTYLE
105
126
330
A
100
AcDbSymbolTableRecord
100
AcDbDimStyleTableRecord
  2
CUSTOM-BigText Inv
 70
     0
 40
7.5
 41
6.0
 42
1.0
 43
6.999999999999999
 44
2.0
 45
0.00000001
 46
10.0
 73
     0
 74
     0
 77
     1
 78
     8
 79
     2
140
5.0
143
0.03937
147
0.762
171
     4
172
     1
176
     7
177
     7
178
     7
179
     1
271
     1
272
     3
273
     6
274
     4
278
    44
284
     8
286
     8
340
100
341
117
342
117
371
    25
372
    25
  0
DIMSTYLE
105
127
330
A
100
AcDbSymbolTableRecord
100
AcDbDimStyleTableRecord
  2
CUSTOM-BigText Inv$7
 70
     0
 40
7.5
 41
6.0
 42
1.0
 43
6.999999999999999
 44
2.0
 45
0.00000001
 46
10.0
 73
     0
 74
     0
 77
     1
 78
     8
 79
     2
140
5.0
143
0.03937
147
0.762
171
     4
172
     1
176
   100
177
     7
178
     7
179
     1
271
     1
272
     3
273
     6
274
     4
278
    44
284
     8
286
     8
340
100
341
117
342
117
371
    25
372
    25
  0
DIMSTYLE
105
128
330
A
100
AcDbSymbolTableRecord
100
AcDbDimStyleTableRecord
  2
CUSTOM-MACHINING Inv
 70
     0
  4
 in
 40
7.5
 41
3.0
 42
1.0
 43
6.999999999999999
 44
2.0
 45
0.00000001
 46
10.0
 73
     0
 74
     0
 77
     1
 78
     8
 79
     2
140
3.5
143
0.03937
146
0.8571428656578063
147
0.762
171
     4
172
     1
176
     7
177
     7
178
     7
179
     1
271
     3
272
     3
274
     4
278
    44
284
     8
285
    12
286
     8
340
105
341
117
342
117
371
    25
372
    25
  0
DIMSTYLE
105
129
330
A
100
AcDbSymbolTableRecord
100
AcDbDimStyleTableRecord
  2
CUSTOM-MACHINING Inv$7
 70
     0
  4
 in
 40
7.5
 41
3.0
 42
1.0
 43
6.999999999999999
 44
2.0
 45
0.00000001
 46
10.0
 73
     0
 74
     0
 77
     1
 78
     8
 79
     2
140
3.5
143
0.03937
146
0.8571428656578063
147
0.762
171
     4
172
     1
176
     7
177
     7
178
     7
179
     1
271
     3
272
     3
274
     4
278
    44
284
     8
285
    12
286
     8
340
105
341
117
342
117
371
    25
372
    25
  0
DIMSTYLE
105
12A
330
A
100
AcDbSymbolTableRecord
100
AcDbDimStyleTableRecord
  2
CUSTOM Inv
 70
     0
 40
7.5
 41
3.0
 42
0.0
 43
8.0
 44
2.0
 45
0.00000001
 46
10.0
 73
     0
 77
     1
 78
     8
 79
     2
140
3.5
143
0.03937
146
0.7142857313156128
147
0.762
171
     4
172
     1
176
     7
177
     7
178
     7
179
     1
271
     2
272
     3
273
     6
274
     4
278
    44
284
     8
286
     8
340
105
341
117
342
117
371
    25
372
    25
  0
DIMSTYLE
105
12B
330
A
100
AcDbSymbolTableRecord
100
AcDbDimStyleTableRecord
  2
CUSTOM Inv$7
 70
     0
 40
7.5
 41
3.0
 42
0.0
 43
8.0
 44
2.0
 45
0.00000001
 46
10.0
 73
     0
 77
     1
 78
     8
 79
     2
140
3.5
143
0.03937
146
0.7142857313156128
147
0.762
171
     4
172
     1
176
     7
177
     7
178
     7
179
     1
271
     2
272
     3
273
     6
274
     4
278
    44
284
     8
286
     8
340
105
341
117
342
117
371
    25
372
    25
  0
DIMSTYLE
105
12C
330
A
100
AcDbSymbolTableRecord
100
AcDbDimStyleTableRecord
  2
02-Mayer-Basis
 70
     0
 40
7.5
 41
2.5
340
55
342
12D
  0
DIMSTYLE
105
134
330
A
100
AcDbSymbolTableRecord
100
AcDbDimStyleTableRecord
  2
03-Mayer-Durchmesser
 70
     0
 40
7.5
 41
2.5
340
55
342
12D
  0
DIMSTYLE
105
135
330
A
100
AcDbSymbolTableRecord
100
AcDbDimStyleTableRecord
  2
04-Mayer-Gewinde
 70
     0
 40
7.5
 41
2.5
340
55
342
12D
  0
DIMSTYLE
105
136
330
A
100
AcDbSymbolTableRecord
100
AcDbDimStyleTableRecord
  2
Führungslinie-Ursprungsindikator(ISO)
 70
     0
 40
7.5
 41
2.5
340
55
342
12D
  0
DIMSTYLE
105
141
330
A
100
AcDbSymbolTableRecord
100
AcDbDimStyleTableRecord
  2
Führungslinie - Bezugsstelle(ISO)
 70
     0
 40
7.5
 41
2.5
340
55
342
12D
  0
DIMSTYLE
105
142
330
A
100
AcDbSymbolTableRecord
100
AcDbDimStyleTableRecord
  2
Führungslinie - Punkt(ISO)
 70
     0
 40
7.5
 41
2.5
340
55
342
12D
  0
DIMSTYLE
105
143
330
A
100
AcDbSymbolTableRecord
100
AcDbDimStyleTableRecord
  2
Führungslinie(ISO)
 70
     0
 40
7.5
 41
2.5
340
55
342
12D
  0
DIMSTYLE
105
144
330
A
100
AcDbSymbolTableRecord
100
AcDbDimStyleTableRecord
  2
Leader-Datum Inv
 70
     0
 40
7.5
 41
3.0
340
55
342
12D
  0
DIMSTYLE
105
145
330
A
100
AcDbSymbolTableRecord
100
AcDbDimStyleTableRecord
  2
Leader-Dot Inv
 70
     0
 40
7.5
 41
3.0
340
55
342
12D
  0
DIMSTYLE
105
146
330
A
100
AcDbSymbolTableRecord
100
AcDbDimStyleTableRecord
  2
Leader-OriginIndicator
 70
     0
 40
7.5
 41
3.0
340
55
342
12D
  0
DIMSTYLE
105
3DE
102
{ACAD_REACTORS
330
3CD
102
}
330
A
100
AcDbSymbolTableRecord
100
AcDbDimStyleTableRecord
  2
AM_DIN
 70
     0
  4
"
 41
3.5
 42
1.0
 43
10.0
 44
1.0
 47
0.1
 48
0.1
 73
     0
 74
     0
 77
     1
 78
     8
 79
     2
140
3.5
141
0.0
143
0.0393701
146
0.71
147
1.5
172
     1
176
   256
177
   256
178
     2
271
     2
272
     3
274
     4
283
     0
284
     8
340
55
371
    -1
372
    -1
1001
ACAD_DSTYLE_DIMJOGGED_JOGANGLE_SYMBOL
1070
   384
1040
1.570796326794896
1001
ACAD_DSTYLE_DIM_LINETYPE
1070
   380
1005
5B
1001
ACAD_DSTYLE_DIM_EXT1_LINETYPE
1070
   381
1005
5B
1001
ACAD_DSTYLE_DIM_EXT2_LINETYPE
1070
   382
1005
5B
  0
DIMSTYLE
105
3EE
330
A
100
AcDbSymbolTableRecord
100
AcDbDimStyleTableRecord
  2
AM_DIN$3
 70
     0
  4
"
 41
3.5
 42
1.0
 43
10.0
 44
1.0
 47
0.1
 48
0.1
 73
     0
 77
     1
 78
     8
 79
     2
140
3.5
141
0.0
143
0.0393701
146
0.71
147
1.5
176
   256
177
   256
178
     2
271
     2
272
     3
274
     4
283
     0
284
     8
288
     1
289
     0
340
55
371
    -1
372
    -1
1001
ACAD_DSTYLE_DIMJOGGED_JOGANGLE_SYMBOL
1070
   384
1040
1.570796326794896
1001
ACAD_DSTYLE_DIM_LINETYPE
1070
   380
1005
5B
1001
ACAD_DSTYLE_DIM_EXT1_LINETYPE
1070
   381
1005
5B
1001
ACAD_DSTYLE_DIM_EXT2_LINETYPE
1070
   382
1005
5B
  0
DIMSTYLE
105
3EF
330
A
100
AcDbSymbolTableRecord
100
AcDbDimStyleTableRecord
  2
AM_DIN$4
 70
     0
  4
"
 41
3.5
 42
1.0
 43
10.0
 44
1.0
 47
0.1
 48
0.1
 73
     0
 77
     1
 78
     8
 79
     2
140
3.5
141
0.0
143
0.0393701
146
0.71
147
1.5
176
   256
177
   256
178
     2
271
     2
272
     3
274
     4
283
     0
284
     8
288
     1
289
     0
340
55
371
    -1
372
    -1
1001
ACAD_DSTYLE_DIMJOGGED_JOGANGLE_SYMBOL
1070
   384
1040
1.570796326794896
1001
ACAD_DSTYLE_DIM_LINETYPE
1070
   380
1005
5B
1001
ACAD_DSTYLE_DIM_EXT1_LINETYPE
1070
   381
1005
5B
1001
ACAD_DSTYLE_DIM_EXT2_LINETYPE
1070
   382
1005
5B
  0
DIMSTYLE
105
3F0
330
A
100
AcDbSymbolTableRecord
100
AcDbDimStyleTableRecord
  2
AM_DIN$6
 70
     0
  4
"
 41
3.5
 42
1.0
 43
10.0
 44
1.0
 47
0.1
 48
0.1
 73
     0
 74
     0
 78
     8
 79
     2
140
3.5
141
0.0
143
0.0393701
146
0.71
147
1.5
172
     1
176
   256
177
   256
178
     2
271
     2
272
     3
274
     4
283
     0
284
     8
340
55
371
    -1
372
    -1
1001
ACAD_DSTYLE_DIMJOGGED_JOGANGLE_SYMBOL
1070
   384
1040
1.570796326794896
1001
ACAD_DSTYLE_DIM_LINETYPE
1070
   380
1005
5B
1001
ACAD_DSTYLE_DIM_EXT1_LINETYPE
1070
   381
1005
5B
1001
ACAD_DSTYLE_DIM_EXT2_LINETYPE
1070
   382
1005
5B
  0
DIMSTYLE
105
3F1
330
A
100
AcDbSymbolTableRecord
100
AcDbDimStyleTableRecord
  2
AM_DIN$7
 70
     0
  4
"
 41
3.5
 42
1.0
 43
10.0
 44
1.0
 47
0.1
 48
0.1
 73
     0
 74
     0
 77
     1
 78
     8
 79
     2
140
3.5
141
0.0
143
0.0393701
146
0.71
147
1.5
172
     1
176
   256
177
   256
178
     2
271
     2
272
     3
274
     4
283
     0
284
     8
340
55
371
    -1
372
    -1
1001
ACAD_DSTYLE_DIMJOGGED_JOGANGLE_SYMBOL
1070
   384
1040
1.570796326794896
1001
ACAD_DSTYLE_DIM_LINETYPE
1070
   380
1005
5B
1001
ACAD_DSTYLE_DIM_EXT1_LINETYPE
1070
   381
1005
5B
1001
ACAD_DSTYLE_DIM_EXT2_LINETYPE
1070
   382
1005
5B
  0
DIMSTYLE
105
3F2
330
A
100
AcDbSymbolTableRecord
100
AcDbDimStyleTableRecord
  2
AM_DIN$SF
 70
     0
  4
"
 41
3.5
 42
1.0
 43
10.0
 44
1.0
 47
0.1
 48
0.1
 73
     0
 74
     0
 75
     1
 76
     1
 77
     1
 78
     8
 79
     2
140
3.5
141
0.0
143
0.0393701
146
0.71
147
1.5
172
     1
176
   256
177
   256
178
     2
271
     2
272
     3
274
     4
283
     0
284
     8
340
55
371
    -1
372
    -1
1001
ACAD_DSTYLE_DIMJOGGED_JOGANGLE_SYMBOL
1070
   384
1040
1.570796326794896
1001
ACAD_DSTYLE_DIM_LINETYPE
1070
   380
1005
5B
1001
ACAD_DSTYLE_DIM_EXT1_LINETYPE
1070
   381
1005
5B
1001
ACAD_DSTYLE_DIM_EXT2_LINETYPE
1070
   382
1005
5B
  0
DIMSTYLE
105
3F7
330
A
100
AcDbSymbolTableRecord
100
AcDbDimStyleTableRecord
  2
AM_DIN$SH
 70
     0
  4
"
 41
3.5
 42
1.0
 43
10.0
 44
1.0
 47
0.1
 48
0.1
 73
     0
 74
     0
 75
     1
 76
     1
 77
     1
 78
     8
 79
     2
140
3.5
141
0.0
143
0.0393701
144
2.0
146
0.71
147
1.5
172
     1
173
     1
176
   256
177
   256
178
     2
271
     2
272
     3
274
     4
283
     0
284
     8
340
55
343
3F3
371
    -1
372
    -1
1001
ACAD_DSTYLE_DIMJOGGED_JOGANGLE_SYMBOL
1070
   384
1040
1.570796326794896
1001
ACAD_DSTYLE_DIM_LINETYPE
1070
   380
1005
5B
1001
ACAD_DSTYLE_DIM_EXT1_LINETYPE
1070
   381
1005
5B
1001
ACAD_DSTYLE_DIM_EXT2_LINETYPE
1070
   382
1005
5B
  0
ENDTAB
  0
TABLE
  2
BLOCK_RECORD
  5
1
330
0
100
AcDbSymbolTable
 70
    20
  0
BLOCK_RECORD
  5
6C
330
1
100
AcDbSymbolTableRecord
100
AcDbBlockTableRecord
  2
*Model_Space
340
6F
  0
BLOCK_RECORD
  5
68
330
1
100
AcDbSymbolTableRecord
100
AcDbBlockTableRecord
  2
*Paper_Space
340
6B
  0
BLOCK_RECORD
  5
70
330
1
100
AcDbSymbolTableRecord
100
AcDbBlockTableRecord
  2
*Paper_Space0
340
73
  0
BLOCK_RECORD
  5
117
330
1
100
AcDbSymbolTableRecord
100
AcDbBlockTableRecord
  2
Filled-1
340
0
  0
BLOCK_RECORD
  5
12D
330
1
100
AcDbSymbolTableRecord
100
AcDbBlockTableRecord
  2
_Closed
340
0
  0
BLOCK_RECORD
  5
137
330
1
100
AcDbSymbolTableRecord
100
AcDbBlockTableRecord
  2
DatumFilled45
340
0
  0
BLOCK_RECORD
  5
147
330
1
100
AcDbSymbolTableRecord
100
AcDbBlockTableRecord
  2
Darstellung
340
0
  0
BLOCK_RECORD
  5
153
330
1
100
AcDbSymbolTableRecord
100
AcDbBlockTableRecord
  2
Eckfase links oben
340
0
  0
BLOCK_RECORD
  5
15B
330
1
100
AcDbSymbolTableRecord
100
AcDbBlockTableRecord
  2
Eckfase links unten
340
0
  0
BLOCK_RECORD
  5
161
330
1
100
AcDbSymbolTableRecord
100
AcDbBlockTableRecord
  2
Eckfase rechts oben
340
0
  0
BLOCK_RECORD
  5
167
330
1
100
AcDbSymbolTableRecord
100
AcDbBlockTableRecord
  2
Eckfase rechts unten
340
0
  0
BLOCK_RECORD
  5
16D
330
1
100
AcDbSymbolTableRecord
100
AcDbBlockTableRecord
  2
Kanten gebrochen
340
0
  0
BLOCK_RECORD
  5
172
330
1
100
AcDbSymbolTableRecord
100
AcDbBlockTableRecord
  2
Kanten gebrochen - lackiert RAL
340
0
  0
BLOCK_RECORD
  5
176
330
1
100
AcDbSymbolTableRecord
100
AcDbBlockTableRecord
  2
Kanten gebrochen - eloxiert natur
340
0
  0
BLOCK_RECORD
  5
17A
330
1
100
AcDbSymbolTableRecord
100
AcDbBlockTableRecord
  2
Kanten gebrochen - eloxiert schwarz
340
0
  0
BLOCK_RECORD
  5
17E
330
1
100
AcDbSymbolTableRecord
100
AcDbBlockTableRecord
  2
Kanten gebrochen - schwarz verzinkt
340
0
  0
BLOCK_RECORD
  5
182
330
1
100
AcDbSymbolTableRecord
100
AcDbBlockTableRecord
  2
Kanten gebrochen - brüniert
340
0
  0
BLOCK_RECORD
  5
186
330
1
100
AcDbSymbolTableRecord
100
AcDbBlockTableRecord
  2
Kegelverhältnis
340
0
  0
BLOCK_RECORD
  5
18F
330
1
100
AcDbSymbolTableRecord
100
AcDbBlockTableRecord
  2
Laserkontur
340
0
  0
BLOCK_RECORD
  5
193
330
1
100
AcDbSymbolTableRecord
100
AcDbBlockTableRecord
  2
Brennkontur
340
0
  0
BLOCK_RECORD
  5
3F3
330
1
100
AcDbSymbolTableRecord
100
AcDbBlockTableRecord
  2
GENAXEH
340
0
  0
ENDTAB
  0
ENDSEC
  0
SECTION
  2
BLOCKS
  0
BLOCK
  5
6D
330
6C
100
AcDbEntity
  8
0
100
AcDbBlockBegin
  2
*Model_Space
 70
     0
 10
0.0
 20
0.0
 30
0.0
  3
*Model_Space
  1

  0
ENDBLK
  5
6E
330
6C
100
AcDbEntity
  8
0
100
AcDbBlockEnd
  0
BLOCK
  5
69
330
68
100
AcDbEntity
 67
     1
  8
0
100
AcDbBlockBegin
  2
*Paper_Space
 70
     0
 10
0.0
 20
0.0
 30
0.0
  3
*Paper_Space
  1

  0
ENDBLK
  5
6A
330
68
100
AcDbEntity
 67
     1
  8
0
100
AcDbBlockEnd
  0
BLOCK
  5
71
330
70
100
AcDbEntity
 67
     1
  8
0
100
AcDbBlockBegin
  2
*Paper_Space0
 70
     0
 10
0.0
 20
0.0
 30
0.0
  3
*Paper_Space0
  1

  0
ENDBLK
  5
72
330
70
100
AcDbEntity
 67
     1
  8
0
100
AcDbBlockEnd
  0
BLOCK
  5
118
330
117
100
AcDbEntity
  8
0
100
AcDbBlockBegin
  2
Filled-1
 70
     0
 10
0.0
 20
0.0
 30
0.0
  3
Filled-1
  1

  0
LINE
  5
11A
330
117
100
AcDbEntity
  8
0
 62
     0
100
AcDbLine
 10
-1.0
 20
0.0
 30
0.0
 11
0.0
 21
0.0
 31
0.0
  0
POLYLINE
  5
11C
330
117
100
AcDbEntity
  8
0
 62
     0
100
AcDb2dPolyline
 66
     1
 10
0.0
 20
0.0
 30
0.0
 70
   128
  0
VERTEX
  5
11D
330
11C
100
AcDbEntity
  8
0
 62
     0
100
AcDbVertex
100
AcDb2dVertex
 10
-1.0
 20
-0.1666666666666667
 30
0.0
  0
VERTEX
  5
11E
330
11C
100
AcDbEntity
  8
0
 62
     0
100
AcDbVertex
100
AcDb2dVertex
 10
0.0
 20
0.0
 30
0.0
  0
VERTEX
  5
120
330
11C
100
AcDbEntity
  8
0
 62
     0
100
AcDbVertex
100
AcDb2dVertex
 10
-1.0
 20
0.1666666666666667
 30
0.0
  0
VERTEX
  5
121
330
11C
100
AcDbEntity
  8
0
 62
     0
100
AcDbVertex
100
AcDb2dVertex
 10
-1.0
 20
-0.1666666666666667
 30
0.0
  0
SEQEND
  5
11F
330
11C
100
AcDbEntity
  8
0
 62
     0
  0
SOLID
  5
122
330
117
100
AcDbEntity
  8
0
 62
     0
100
AcDbTrace
 10
-1.0
 20
-0.1666666666666667
 30
0.0
 11
0.0
 21
0.0
 31
0.0
 12
-1.0
 22
0.1666666666666667
 32
0.0
 13
-1.0
 23
-0.1666666666666667
 33
0.0
  0
LINE
  5
123
330
117
100
AcDbEntity
  8
0
 62
     0
100
AcDbLine
 10
-1.0
 20
-0.1666666666666667
 30
0.0
 11
0.0
 21
0.0
 31
0.0
  0
LINE
  5
124
330
117
100
AcDbEntity
  8
0
 62
     0
100
AcDbLine
 10
0.0
 20
0.0
 30
0.0
 11
-1.0
 21
0.1666666666666667
 31
0.0
  0
LINE
  5
125
330
117
100
AcDbEntity
  8
0
 62
     0
100
AcDbLine
 10
-1.0
 20
0.1666666666666667
 30
0.0
 11
-1.0
 21
-0.1666666666666667
 31
0.0
  0
ENDBLK
  5
119
330
117
100
AcDbEntity
  8
0
100
AcDbBlockEnd
  0
BLOCK
  5
132
330
12D
100
AcDbEntity
  8
0
100
AcDbBlockBegin
  2
_Closed
 70
     0
 10
0.0
 20
0.0
 30
0.0
  3
_Closed
  1

  0
LINE
  5
12E
330
12D
100
AcDbEntity
  8
0
  6
ByBlock
 62
     0
370
    -2
100
AcDbLine
 10
-1.0
 20
0.1666666666666666
 30
0.0
 11
0.0
 21
0.0
 31
0.0
  0
LINE
  5
12F
330
12D
100
AcDbEntity
  8
0
  6
ByBlock
 62
     0
370
    -2
100
AcDbLine
 10
0.0
 20
0.0
 30
0.0
 11
-1.0
 21
-0.1666666666666666
 31
0.0
  0
LINE
  5
130
330
12D
100
AcDbEntity
  8
0
  6
ByBlock
 62
     0
370
    -2
100
AcDbLine
 10
-1.0
 20
0.1666666666666666
 30
0.0
 11
-1.0
 21
-0.1666666666666666
 31
0.0
  0
LINE
  5
131
330
12D
100
AcDbEntity
  8
0
  6
ByBlock
 62
     0
370
    -2
100
AcDbLine
 10
0.0
 20
0.0
 30
0.0
 11
-1.0
 21
0.0
 31
0.0
  0
ENDBLK
  5
133
330
12D
100
AcDbEntity
  8
0
100
AcDbBlockEnd
  0
BLOCK
  5
138
330
137
100
AcDbEntity
  8
0
100
AcDbBlockBegin
  2
DatumFilled45
 70
     0
 10
0.0
 20
0.0
 30
0.0
  3
DatumFilled45
  1

  0
POLYLINE
  5
13A
330
137
100
AcDbEntity
  8
0
 62
     0
100
AcDb2dPolyline
 66
     1
 10
0.0
 20
0.0
 30
0.0
 70
   128
  0
VERTEX
  5
13B
330
13A
100
AcDbEntity
  8
0
 62
     0
100
AcDbVertex
100
AcDb2dVertex
 10
0.0
 20
1.0
 30
0.0
  0
VERTEX
  5
13C
330
13A
100
AcDbEntity
  8
0
 62
     0
100
AcDbVertex
100
AcDb2dVertex
 10
0.0
 20
-1.0
 30
0.0
  0
VERTEX
  5
13E
330
13A
100
AcDbEntity
  8
0
 62
     0
100
AcDbVertex
100
AcDb2dVertex
 10
-1.0
 20
0.0
 30
0.0
  0
VERTEX
  5
13F
330
13A
100
AcDbEntity
  8
0
 62
     0
100
AcDbVertex
100
AcDb2dVertex
 10
0.0
 20
1.0
 30
0.0
  0
SEQEND
  5
13D
330
13A
100
AcDbEntity
  8
0
 62
     0
  0
SOLID
  5
140
330
137
100
AcDbEntity
  8
0
 62
     0
100
AcDbTrace
 10
0.0
 20
1.0
 30
0.0
 11
0.0
 21
-1.0
 31
0.0
 12
-1.0
 22
0.0
 32
0.0
 13
0.0
 23
1.0
 33
0.0
  0
ENDBLK
  5
139
330
137
100
AcDbEntity
  8
0
100
AcDbBlockEnd
  0
BLOCK
  5
148
330
147
100
AcDbEntity
  8
0
100
AcDbBlockBegin
  2
Darstellung
 70
     0
 10
0.0
 20
0.0
 30
0.0
  3
Darstellung
  1

  0
CIRCLE
  5
14A
330
147
100
AcDbEntity
  8
Skizziergeometrie(ISO)
100
AcDbCircle
 10
7.67419947530552
 20
0.0
 30
0.0
 40
5.000000000000012
  0
CIRCLE
  5
14B
330
147
100
AcDbEntity
  8
Skizziergeometrie(ISO)
100
AcDbCircle
 10
7.67419947530552
 20
0.0
 30
0.0
 40
2.000000000000001
  0
LINE
  5
14C
330
147
100
AcDbEntity
  8
Skizziergeometrie(ISO)
100
AcDbLine
 10
-0.9362943917628641
 20
5.0
 30
0.0
 11
-12.67419947530548
 21
1.999999999999992
 31
0.0
  0
LINE
  5
14D
330
147
100
AcDbEntity
  8
Skizziergeometrie(ISO)
100
AcDbLine
 10
-12.67419947530548
 20
1.999999999999992
 30
0.0
 11
-12.67419947530548
 21
-1.999999999999992
 31
0.0
  0
LINE
  5
14E
330
147
100
AcDbEntity
  8
Skizziergeometrie(ISO)
100
AcDbLine
 10
-12.67419947530548
 20
-1.999999999999992
 30
0.0
 11
-0.9362943917628641
 21
-5.0
 31
0.0
  0
LINE
  5
14F
330
147
100
AcDbEntity
  8
Skizziergeometrie(ISO)
100
AcDbLine
 10
-0.9362943917628641
 20
-5.0
 30
0.0
 11
-0.9362943917628641
 21
5.0
 31
0.0
  0
LINE
  5
150
330
147
100
AcDbEntity
  8
Skizziergeometrie(ISO)
  6
CHAIN
 48
11.0432825088501
100
AcDbLine
 10
-12.67419947530548
 20
0.0
 30
0.0
 11
-0.9362943917628641
 21
0.0
 31
0.0
  0
LINE
  5
151
330
147
100
AcDbEntity
  8
Skizziergeometrie(ISO)
  6
CHAIN
 48
9.408223152160644
100
AcDbLine
 10
2.67419947530552
 20
0.0
 30
0.0
 11
12.67419947530552
 21
0.0
 31
0.0
  0
LINE
  5
152
330
147
100
AcDbEntity
  8
Skizziergeometrie(ISO)
  6
CHAIN
 48
9.408223152160644
100
AcDbLine
 10
7.67419947530552
 20
5.0
 30
0.0
 11
7.67419947530552
 21
-5.0
 31
0.0
  0
ENDBLK
  5
149
330
147
100
AcDbEntity
  8
0
100
AcDbBlockEnd
  0
BLOCK
  5
154
330
153
100
AcDbEntity
  8
0
100
AcDbBlockBegin
  2
Eckfase links oben
 70
     2
 10
0.0
 20
0.0
 30
0.0
  3
Eckfase links oben
  1

  0
LINE
  5
156
330
153
100
AcDbEntity
  8
Bemaßungen(ISO)
100
AcDbLine
 10
0.0
 20
6.0
 30
0.0
 11
0.0
 21
0.0
 31
0.0
  0
LINE
  5
157
330
153
100
AcDbEntity
  8
Bemaßungen(ISO)
100
AcDbLine
 10
0.0
 20
0.0
 30
0.0
 11
6.0
 21
0.0
 31
0.0
  0
ATTDEF
  5
158
102
{ACAD_XDICTIONARY
360
2FE
102
}
330
153
100
AcDbEntity
  8
Symbole(ISO)
 62
     7
100
AcDbText
 10
0.6889495169699435
 20
1.483628880501932
 30
0.0
 40
2.000000029802322
  1
+0,2
  7
STANDARD-ISO-2
100
AcDbAttributeDefinition
  3
Wert
  2
Wert_001
 70
     0
  0
ENDBLK
  5
155
330
153
100
AcDbEntity
  8
0
100
AcDbBlockEnd
  0
BLOCK
  5
15C
330
15B
100
AcDbEntity
  8
0
100
AcDbBlockBegin
  2
Eckfase links unten
 70
     2
 10
0.0
 20
0.0
 30
0.0
  3
Eckfase links unten
  1

  0
LINE
  5
15E
330
15B
100
AcDbEntity
  8
Bemaßungen(ISO)
100
AcDbLine
 10
0.0
 20
0.0
 30
0.0
 11
0.0
 21
-6.0
 31
0.0
  0
LINE
  5
15F
330
15B
100
AcDbEntity
  8
Bemaßungen(ISO)
100
AcDbLine
 10
0.0
 20
0.0
 30
0.0
 11
6.0
 21
0.0
 31
0.0
  0
ATTDEF
  5
160
102
{ACAD_XDICTIONARY
360
301
102
}
330
15B
100
AcDbEntity
  8
Symbole(ISO)
 62
     7
100
AcDbText
 10
0.6889495169699432
 20
-3.516371119498068
 30
0.0
 40
2.000000029802322
  1
+0,2
  7
STANDARD-ISO-2
100
AcDbAttributeDefinition
  3
Wert
  2
Wert_001
 70
     0
  0
ENDBLK
  5
15D
330
15B
100
AcDbEntity
  8
0
100
AcDbBlockEnd
  0
BLOCK
  5
162
330
161
100
AcDbEntity
  8
0
100
AcDbBlockBegin
  2
Eckfase rechts oben
 70
     2
 10
0.0
 20
0.0
 30
0.0
  3
Eckfase rechts oben
  1

  0
LINE
  5
164
330
161
100
AcDbEntity
  8
Bemaßungen(ISO)
100
AcDbLine
 10
0.0
 20
6.0
 30
0.0
 11
0.0
 21
0.0
 31
0.0
  0
LINE
  5
165
330
161
100
AcDbEntity
  8
Bemaßungen(ISO)
100
AcDbLine
 10
0.0
 20
0.0
 30
0.0
 11
-6.0
 21
0.0
 31
0.0
  0
ATTDEF
  5
166
102
{ACAD_XDICTIONARY
360
304
102
}
330
161
100
AcDbEntity
  8
Symbole(ISO)
 62
     7
100
AcDbText
 10
-6.221009658842373
 20
1.483628880501932
 30
0.0
 40
2.000000029802322
  1
+0,2
  7
STANDARD-ISO-2
100
AcDbAttributeDefinition
  3
Wert
  2
Wert_001
 70
     0
  0
ENDBLK
  5
163
330
161
100
AcDbEntity
  8
0
100
AcDbBlockEnd
  0
BLOCK
  5
168
330
167
100
AcDbEntity
  8
0
100
AcDbBlockBegin
  2
Eckfase rechts unten
 70
     2
 10
0.0
 20
0.0
 30
0.0
  3
Eckfase rechts unten
  1

  0
LINE
  5
16A
330
167
100
AcDbEntity
  8
Bemaßungen(ISO)
100
AcDbLine
 10
0.0
 20
-6.0
 30
0.0
 11
0.0
 21
0.0
 31
0.0
  0
LINE
  5
16B
330
167
100
AcDbEntity
  8
Bemaßungen(ISO)
100
AcDbLine
 10
0.0
 20
0.0
 30
0.0
 11
-6.0
 21
0.0
 31
0.0
  0
ATTDEF
  5
16C
102
{ACAD_XDICTIONARY
360
307
102
}
330
167
100
AcDbEntity
  8
Symbole(ISO)
 62
     7
100
AcDbText
 10
-6.221009658842373
 20
-3.516371119498067
 30
0.0
 40
2.000000029802322
  1
+0,2
  7
STANDARD-ISO-2
100
AcDbAttributeDefinition
  3
Wert
  2
Wert_001
 70
     0
  0
ENDBLK
  5
169
330
167
100
AcDbEntity
  8
0
100
AcDbBlockEnd
  0
BLOCK
  5
16E
330
16D
100
AcDbEntity
  8
0
100
AcDbBlockBegin
  2
Kanten gebrochen
 70
     0
 10
0.0
 20
0.0
 30
0.0
  3
Kanten gebrochen
  1

  0
MTEXT
  5
170
330
16D
100
AcDbEntity
  8
Symbole(ISO)
 62
     7
100
AcDbMText
 10
3.663000196180057
 20
-3.653242581630564
 30
0.0
 40
3.499999940395355
 41
0.0
 71
     1
 72
     1
  1
Kanten gebrochen
  7
STANDARD-ISO
 73
     1
 44
1.0
1001
ACAD
1000
MTEXTBEGIN
1070
    73
1070
     1
1070
    44
1040
1.0
1070
    74
1070
     0
1000
MTEXTEND
  0
ENDBLK
  5
16F
330
16D
100
AcDbEntity
  8
0
100
AcDbBlockEnd
  0
BLOCK
  5
173
330
172
100
AcDbEntity
  8
0
100
AcDbBlockBegin
  2
Kanten gebrochen - lackiert RAL
 70
     0
 10
0.0
 20
0.0
 30
0.0
  3
Kanten gebrochen - lackiert RAL
  1

  0
MTEXT
  5
175
330
172
100
AcDbEntity
  8
Symbole(ISO)
 62
     7
100
AcDbMText
 10
-19.97694373130798
 20
4.531989758834242
 30
0.0
 40
3.499999940395355
 41
0.0
 71
     1
 72
     1
  1
Kanten gebrochen\Plackiert RAL
  7
STANDARD-ISO
 73
     2
 44
0.9442214965820312
1001
ACAD
1000
MTEXTBEGIN
1070
    73
1070
     2
1070
    44
1040
0.9442214965820312
1070
    74
1070
     0
1000
MTEXTEND
  0
ENDBLK
  5
174
330
172
100
AcDbEntity
  8
0
100
AcDbBlockEnd
  0
BLOCK
  5
177
330
176
100
AcDbEntity
  8
0
100
AcDbBlockBegin
  2
Kanten gebrochen - eloxiert natur
 70
     0
 10
0.0
 20
0.0
 30
0.0
  3
Kanten gebrochen - eloxiert natur
  1

  0
MTEXT
  5
179
330
176
100
AcDbEntity
  8
Symbole(ISO)
 62
     7
100
AcDbMText
 10
-19.97694373130798
 20
4.531989758834242
 30
0.0
 40
3.499999940395355
 41
0.0
 71
     1
 72
     1
  1
Kanten gebrochen\Peloxiert natur
  7
STANDARD-ISO
 73
     2
 44
0.9442214965820312
1001
ACAD
1000
MTEXTBEGIN
1070
    73
1070
     2
1070
    44
1040
0.9442214965820312
1070
    74
1070
     0
1000
MTEXTEND
  0
ENDBLK
  5
178
330
176
100
AcDbEntity
  8
0
100
AcDbBlockEnd
  0
BLOCK
  5
17B
330
17A
100
AcDbEntity
  8
0
100
AcDbBlockBegin
  2
Kanten gebrochen - eloxiert schwarz
 70
     0
 10
0.0
 20
0.0
 30
0.0
  3
Kanten gebrochen - eloxiert schwarz
  1

  0
MTEXT
  5
17D
330
17A
100
AcDbEntity
  8
Symbole(ISO)
 62
     7
100
AcDbMText
 10
-19.97694373130798
 20
4.531989758834242
 30
0.0
 40
3.499999940395355
 41
0.0
 71
     1
 72
     1
  1
Kanten gebrochen\Pschwarz eloxiert
  7
STANDARD-ISO
 73
     2
 44
0.9442214965820312
1001
ACAD
1000
MTEXTBEGIN
1070
    73
1070
     2
1070
    44
1040
0.9442214965820312
1070
    74
1070
     0
1000
MTEXTEND
  0
ENDBLK
  5
17C
330
17A
100
AcDbEntity
  8
0
100
AcDbBlockEnd
  0
BLOCK
  5
17F
330
17E
100
AcDbEntity
  8
0
100
AcDbBlockBegin
  2
Kanten gebrochen - schwarz verzinkt
 70
     0
 10
0.0
 20
0.0
 30
0.0
  3
Kanten gebrochen - schwarz verzinkt
  1

  0
MTEXT
  5
181
330
17E
100
AcDbEntity
  8
Symbole(ISO)
 62
     7
100
AcDbMText
 10
-19.97694373130798
 20
4.531989758834242
 30
0.0
 40
3.499999940395355
 41
0.0
 71
     1
 72
     1
  1
Kanten gebrochen\Pschwarz verzinkt
  7
STANDARD-ISO
 73
     2
 44
0.9442214965820312
1001
ACAD
1000
MTEXTBEGIN
1070
    73
1070
     2
1070
    44
1040
0.9442214965820312
1070
    74
1070
     0
1000
MTEXTEND
  0
ENDBLK
  5
180
330
17E
100
AcDbEntity
  8
0
100
AcDbBlockEnd
  0
BLOCK
  5
183
330
182
100
AcDbEntity
  8
0
100
AcDbBlockBegin
  2
Kanten gebrochen - brüniert
 70
     0
 10
0.0
 20
0.0
 30
0.0
  3
Kanten gebrochen - brüniert
  1

  0
MTEXT
  5
185
102
{ACAD_XDICTIONARY
360
41E
102
}
330
182
100
AcDbEntity
  8
Symbole(ISO)
 62
     7
100
AcDbMText
 10
-19.97694373130798
 20
4.531989758834242
 30
0.0
 40
3.499999940395355
 41
0.0
 71
     1
 72
     1
  1
Kanten gebrochen\Pbr\U+00FCniert
  7
STANDARD-ISO
 73
     2
 44
0.9442214965820312
1001
ACAD
1000
MTEXTBEGIN
1070
    73
1070
     2
1070
    44
1040
0.9442214965820312
1070
    74
1070
     0
1000
MTEXTEND
  0
ENDBLK
  5
184
330
182
100
AcDbEntity
  8
0
100
AcDbBlockEnd
  0
BLOCK
  5
187
330
186
100
AcDbEntity
  8
0
100
AcDbBlockBegin
  2
Kegelverhältnis
 70
     2
 10
0.0
 20
0.0
 30
0.0
  3
Kegelverhältnis
  1

  0
LINE
  5
189
330
186
100
AcDbEntity
  8
Skizziergeometrie(ISO)
100
AcDbLine
 10
-30.00000000000003
 20
0.0
 30
0.0
 11
-7.5
 21
0.0
 31
0.0
  0
LINE
  5
18A
330
186
100
AcDbEntity
  8
Skizziergeometrie(ISO)
100
AcDbLine
 10
-13.99519052838332
 20
0.0
 30
0.0
 11
-7.5
 21
3.75
 31
0.0
  0
LINE
  5
18B
330
186
100
AcDbEntity
  8
Skizziergeometrie(ISO)
100
AcDbLine
 10
-7.5
 20
3.75
 30
0.0
 11
-7.5
 21
-3.75
 31
0.0
  0
LINE
  5
18C
330
186
100
AcDbEntity
  8
Skizziergeometrie(ISO)
100
AcDbLine
 10
-7.5
 20
-3.75
 30
0.0
 11
-13.99519052838332
 21
0.0
 31
0.0
  0
LINE
  5
18D
330
186
100
AcDbEntity
  8
Skizziergeometrie(ISO)
100
AcDbLine
 10
-7.5
 20
0.0
 30
0.0
 11
0.0
 21
0.0
 31
0.0
  0
ATTDEF
  5
18E
102
{ACAD_XDICTIONARY
360
30A
102
}
330
186
100
AcDbEntity
  8
Symbole(ISO)
 62
     7
100
AcDbText
 10
-54.59785039738775
 20
2.457025960711857
 30
0.0
 40
3.499999940395355
  1
<Kegelverhältnis>
  7
STANDARD-ISO
100
AcDbAttributeDefinition
  3
<Kegelverhältnis>
  2
<Kegelverhältnis>_001
 70
     0
  0
ENDBLK
  5
188
330
186
100
AcDbEntity
  8
0
100
AcDbBlockEnd
  0
BLOCK
  5
190
330
18F
100
AcDbEntity
  8
0
100
AcDbBlockBegin
  2
Laserkontur
 70
     0
 10
0.0
 20
0.0
 30
0.0
  3
Laserkontur
  1

  0
MTEXT
  5
192
330
18F
100
AcDbEntity
  8
Symbole(ISO)
 62
     7
100
AcDbMText
 10
-14.12804961204528
 20
1.778010791167616
 30
0.0
 40
3.499999940395355
 41
0.0
 71
     1
 72
     1
  1
\fArial|b1|i0;\H3.5000;\LLaserkontur
  7
STANDARD-ISO
 73
     1
 44
1.0
1001
ACAD
1000
MTEXTBEGIN
1070
    73
1070
     1
1070
    44
1040
1.0
1070
    74
1070
     0
1000
MTEXTEND
  0
ENDBLK
  5
191
330
18F
100
AcDbEntity
  8
0
100
AcDbBlockEnd
  0
BLOCK
  5
194
330
193
100
AcDbEntity
  8
0
100
AcDbBlockBegin
  2
Brennkontur
 70
     0
 10
0.0
 20
0.0
 30
0.0
  3
Brennkontur
  1

  0
MTEXT
  5
196
330
193
100
AcDbEntity
  8
Symbole(ISO)
 62
     7
100
AcDbMText
 10
-14.66958880424499
 20
1.778010791167616
 30
0.0
 40
3.499999940395355
 41
0.0
 71
     1
 72
     1
  1
\fArial|b1|i0;\H3.5000;\LBrennkontur
  7
STANDARD-ISO
 73
     1
 44
1.0
1001
ACAD
1000
MTEXTBEGIN
1070
    73
1070
     1
1070
    44
1040
1.0
1070
    74
1070
     0
1000
MTEXTEND
  0
ENDBLK
  5
195
330
193
100
AcDbEntity
  8
0
100
AcDbBlockEnd
  0
BLOCK
  5
3F5
330
3F3
100
AcDbEntity
  8
0
100
AcDbBlockBegin
  2
GENAXEH
 70
     0
 10
0.0
 20
0.0
 30
0.0
  3
GENAXEH
  1

  0
LINE
  5
3F4
330
3F3
100
AcDbEntity
  8
0
100
AcDbLine
 10
-1.0
 20
0.0
 30
0.0
 11
1.0
 21
0.0
 31
0.0
  0
ENDBLK
  5
3F6
330
3F3
100
AcDbEntity
  8
0
100
AcDbBlockEnd
  0
ENDSEC
  0
SECTION
  2
ENTITIES
  0
SPLINE
  5
197
330
6C
100
AcDbEntity
  8
Sichtbare Kanten(ISO)
100
AcDbSpline
210
0.0
220
0.0
230
1.0
 70
     8
 71
     3
 72
    16
 73
    12
 74
     0
 42
0.0000000001
 43
0.0000000001
 40
0.0
 40
0.0
 40
0.0
 40
0.0
 40
0.181144175271399
 40
0.181144175271399
 40
0.3042922905254699
 40
0.3042922905254699
 40
0.3751342849930292
 40
0.3751342849930292
 40
0.4091166734838272
 40
0.4091166734838272
 40
0.4422990958118011
 40
0.4422990958118011
 40
0.4422990958118011
 40
0.4422990958118011
 10
1084.743979386374
 20
1572.103539264728
 30
0.0
 10
1084.202095101375
 20
1572.1035400526
 30
0.0
 10
1083.706259158758
 20
1572.177030039289
 30
0.0
 10
1083.033127842416
 20
1572.404425119332
 30
0.0
 10
1082.803705599059
 20
1572.52523646879
 30
0.0
 10
1082.533994668331
 20
1572.758286584634
 30
0.0
 10
1082.446537211069
 20
1572.859554917172
 30
0.0
 10
1082.356276320149
 20
1573.036403783178
 30
0.0
 10
1082.33370207903
 20
1573.096778951064
 30
0.0
 10
1082.303962193574
 20
1573.222165907545
 30
0.0
 10
1082.296868130407
 20
1573.285256140893
 30
0.0
 10
1082.296868130406
 20
1573.349212050991
 30
0.0
  0
SPLINE
  5
198
330
6C
100
AcDbEntity
  8
Sichtbare Kanten(ISO)
100
AcDbSpline
210
0.0
220
0.0
230
1.0
 70
     8
 71
     3
 72
    16
 73
    12
 74
     0
 42
0.0000000001
 43
0.0000000001
 40
0.0
 40
0.0
 40
0.0
 40
0.0
 40
0.0192023683698048
 40
0.0192023683698048
 40
0.038868795847481
 40
0.038868795847481
 40
0.0798497436881808
 40
0.0798497436881808
 40
0.1511239983150637
 40
0.1511239983150637
 40
0.2558203575512254
 40
0.2558203575512254
 40
0.2558203575512254
 40
0.2558203575512254
 10
1104.09818397618
 20
1573.34921205149
 30
0.0
 10
1104.09818397618
 20
1573.285204156924
 30
0.0
 10
1104.095267795686
 20
1573.222064136457
 30
0.0
 10
1104.083010722167
 20
1573.096578295291
 30
0.0
 10
1104.073697916298
 20
1573.036158676036
 30
0.0
 10
1104.036318921254
 20
1572.859243940268
 30
0.0
 10
1103.999917946324
 20
1572.757963872776
 30
0.0
 10
1103.886128040153
 20
1572.52484394493
 30
0.0
 10
1103.787952020162
 20
1572.404017182745
 30
0.0
 10
1103.489578956895
 20
1572.176896207074
 30
0.0
 10
1103.261746411939
 20
1572.103540050012
 30
0.0
 10
1102.99561994878
 20
1572.103539263907
 30
0.0
  0
SPLINE
  5
199
330
6C
100
AcDbEntity
  8
Sichtbare Kanten(ISO)
100
AcDbSpline
210
0.0
220
0.0
230
1.0
 70
    24
 71
     3
 72
    50
 73
    46
 74
     0
 42
0.0000000001
 43
0.0000000001
 40
0.0
 40
0.0
 40
0.0
 40
0.0
 40
0.125
 40
0.125
 40
0.125
 40
0.1263011860470314
 40
0.1263011860470314
 40
0.1263011860470314
 40
0.25
 40
0.25
 40
0.25
 40
0.2525134843147336
 40
0.2525134843147336
 40
0.2525134843147336
 40
0.375
 40
0.375
 40
0.375
 40
0.3786258387035178
 40
0.3786258387035178
 40
0.3786258387035178
 40
0.5
 40
0.5
 40
0.5
 40
0.5046257446456793
 40
0.5046257446456793
 40
0.5046257446456793
 40
0.625
 40
0.625
 40
0.625
 40
0.6304991332555663
 40
0.6304991332555663
 40
0.6304991332555663
 40
0.75
 40
0.75
 40
0.75
 40
0.7562302921446868
 40
0.7562302921446868
 40
0.7562302921446868
 40
0.875
 40
0.875
 40
0.875
 40
0.8818018510282653
 40
0.8818018510282653
 40
0.8818018510282653
 40
1.0
 40
1.0
 40
1.0
 40
1.0
 10
1104.09818397618
 20
1579.896310254026
 30
0.0
 10
1104.09818397618
 20
1579.567098265392
 30
0.0
 10
1104.09818397618
 20
1579.242891677922
 30
0.0
 10
1104.09818397618
 20
1578.924312058325
 30
0.0
 10
1104.09818397618
 20
1578.920995807478
 30
0.0
 10
1104.09818397618
 20
1578.917680166411
 30
0.0
 10
1104.09818397618
 20
1578.914365135825
 30
0.0
 10
1104.09818397618
 20
1578.59921777271
 30
0.0
 10
1104.09818397618
 20
1578.289586568237
 30
0.0
 10
1104.09818397618
 20
1577.98615844934
 30
0.0
 10
1104.09818397618
 20
1577.97999297537
 30
0.0
 10
1104.09818397618
 20
1577.973830062783
 30
0.0
 10
1104.09818397618
 20
1577.967669717345
 30
0.0
 10
1104.09818397618
 20
1577.667465238766
 30
0.0
 10
1104.09818397618
 20
1577.373356135164
 30
0.0
 10
1104.09818397618
 20
1577.086100675961
 30
0.0
 10
1104.09818397618
 20
1577.077597356588
 30
0.0
 10
1104.09818397618
 20
1577.069100043932
 30
0.0
 10
1104.09818397618
 20
1577.060608757686
 30
0.0
 10
1104.09818397618
 20
1576.776364799057
 30
0.0
 10
1104.09818397618
 20
1576.498872744057
 30
0.0
 10
1104.09818397618
 20
1576.228967623382
 30
0.0
 10
1104.09818397618
 20
1576.218681149281
 30
0.0
 10
1104.09818397618
 20
1576.208405697815
 30
0.0
 10
1104.09818397618
 20
1576.198141315301
 30
0.0
 10
1104.09818397618
 20
1575.93103461218
 30
0.0
 10
1104.09818397618
 20
1575.671422582785
 30
0.0
 10
1104.09818397618
 20
1575.420221337757
 30
0.0
 10
1104.09818397618
 20
1575.408745552371
 30
0.0
 10
1104.09818397618
 20
1575.397287325851
 30
0.0
 10
1104.09818397618
 20
1575.385846745802
 30
0.0
 10
1104.09818397618
 20
1575.137233161019
 30
0.0
 10
1104.09818397618
 20
1574.896951931425
 30
0.0
 10
1104.09818397618
 20
1574.666002329751
 30
0.0
 10
1104.09818397618
 20
1574.653961551066
 30
0.0
 10
1104.09818397618
 20
1574.641946145201
 30
0.0
 10
1104.09818397618
 20
1574.629956254443
 30
0.0
 10
1104.09818397618
 20
1574.401389794059
 30
0.0
 10
1104.09818397618
 20
1574.182095172607
 30
0.0
 10
1104.09818397618
 20
1573.973153619527
 30
0.0
 10
1104.09818397618
 20
1573.961187695358
 30
0.0
 10
1104.09818397618
 20
1573.949255736695
 30
0.0
 10
1104.09818397618
 20
1573.937357947835
 30
0.0
 10
1104.09818397618
 20
1573.73060590133
 30
0.0
 10
1104.09818397618
 20
1573.534172043774
 30
0.0
 10
1104.09818397618
 20
1573.34921205432
 30
0.0
  0
SPLINE
  5
19A
330
6C
100
AcDbEntity
  8
Sichtbare Kanten(ISO)
100
AcDbSpline
210
0.0
220
0.0
230
1.0
 70
     8
 71
     3
 72
    16
 73
    12
 74
     0
 42
0.0000000001
 43
0.0000000001
 40
0.0
 40
0.0
 40
0.0
 40
0.0
 40
0.0192023683696836
 40
0.0192023683696836
 40
0.0388687958471962
 40
0.0388687958471962
 40
0.079849743687449
 40
0.079849743687449
 40
0.1511239983163803
 40
0.1511239983163803
 40
0.2558203575473776
 40
0.2558203575473776
 40
0.2558203575473776
 40
0.2558203575473776
 10
1051.899499821959
 20
1573.349212051492
 30
0.0
 10
1051.899499821959
 20
1573.285204156927
 30
0.0
 10
1051.892394220349
 20
1573.22206413646
 30
0.0
 10
1051.862605345764
 20
1573.096578295294
 30
0.0
 10
1051.839993562327
 20
1573.03615867604
 30
0.0
 10
1051.749615496513
 20
1572.859243940273
 30
0.0
 10
1051.662074645729
 20
1572.757963872783
 30
0.0
 10
1051.392077537615
 20
1572.524843944934
 30
0.0
 10
1051.162379328767
 20
1572.404017182749
 30
0.0
 10
1050.489201486813
 20
1572.176896207089
 30
0.0
 10
1049.993778592673
 20
1572.103540050012
 30
0.0
 10
1049.452388566007
 20
1572.103539263907
 30
0.0
  0
SPLINE
  5
19B
330
6C
100
AcDbEntity
  8
Sichtbare Kanten(ISO)
100
AcDbSpline
210
0.0
220
0.0
230
1.0
 70
    24
 71
     3
 72
    50
 73
    46
 74
     0
 42
0.0000000001
 43
0.0000000001
 40
0.0
 40
0.0
 40
0.0
 40
0.0
 40
0.1181698404709391
 40
0.1181698404709391
 40
0.1181698404709391
 40
0.125
 40
0.125
 40
0.125
 40
0.2437454111236748
 40
0.2437454111236748
 40
0.2437454111236748
 40
0.25
 40
0.25
 40
0.25
 40
0.3694805948361703
 40
0.3694805948361703
 40
0.3694805948361703
 40
0.375
 40
0.375
 40
0.375
 40
0.4953580206874979
 40
0.4953580206874979
 40
0.4953580206874979
 40
0.5
 40
0.5
 40
0.5
 40
0.6213619743648512
 40
0.6213619743648512
 40
0.6213619743648512
 40
0.625
 40
0.625
 40
0.625
 40
0.7474783850839343
 40
0.7474783850839343
 40
0.7474783850839343
 40
0.75
 40
0.75
 40
0.75
 40
0.8736947463479022
 40
0.8736947463479022
 40
0.8736947463479022
 40
0.875
 40
0.875
 40
0.875
 40
1.0
 40
1.0
 40
1.0
 40
1.0
 10
1030.09818397618
 20
1573.349212053845
 30
0.0
 10
1030.09818397618
 20
1573.5341277432
 30
0.0
 10
1030.09818397618
 20
1573.730511811707
 30
0.0
 10
1030.09818397618
 20
1573.937209396854
 30
0.0
 10
1030.09818397618
 20
1573.949156417136
 30
0.0
 10
1030.09818397618
 20
1573.961137893133
 30
0.0
 10
1030.09818397618
 20
1573.97315361798
 30
0.0
 10
1030.09818397618
 20
1574.182052426393
 30
0.0
 10
1030.09818397618
 20
1574.401300223561
 30
0.0
 10
1030.09818397618
 20
1574.629816073771
 30
0.0
 10
1030.09818397618
 20
1574.641852519486
 30
0.0
 10
1030.09818397618
 20
1574.653914679717
 30
0.0
 10
1030.09818397618
 20
1574.666002410454
 30
0.0
 10
1030.09818397618
 20
1574.896912752816
 30
0.0
 10
1030.09818397618
 20
1575.13715166095
 30
0.0
 10
1030.09818397618
 20
1575.385720235034
 30
0.0
 10
1030.09818397618
 20
1575.397202858411
 30
0.0
 10
1030.09818397618
 20
1575.408703258895
 30
0.0
 10
1030.09818397618
 20
1575.420221347893
 30
0.0
 10
1030.09818397618
 20
1575.671388702494
 30
0.0
 10
1030.09818397618
 20
1575.930964283116
 30
0.0
 10
1030.09818397618
 20
1576.198033061368
 30
0.0
 10
1030.09818397618
 20
1576.208333394795
 30
0.0
 10
1030.09818397618
 20
1576.218644875818
 30
0.0
 10
1030.09818397618
 20
1576.228967457674
 30
0.0
 10
1030.09818397618
 20
1576.498845634696
 30
0.0
 10
1030.09818397618
 20
1576.776308572974
 30
0.0
 10
1030.09818397618
 20
1577.060522845645
 30
0.0
 10
1030.09818397618
 20
1577.069042637905
 30
0.0
 10
1030.09818397618
 20
1577.077568497862
 30
0.0
 10
1030.09818397618
 20
1577.086100405663
 30
0.0
 10
1030.09818397618
 20
1577.373337053751
 30
0.0
 10
1030.09818397618
 20
1577.667425585471
 30
0.0
 10
1030.09818397618
 20
1577.967609594706
 30
0.0
 10
1030.09818397618
 20
1577.973789856429
 30
0.0
 10
1030.09818397618
 20
1577.979972702325
 30
0.0
 10
1030.09818397618
 20
1577.986158126584
 30
0.0
 10
1030.09818397618
 20
1578.289576574795
 30
0.0
 10
1030.09818397618
 20
1578.599196844014
 30
0.0
 10
1030.09818397618
 20
1578.914333745052
 30
0.0
 10
1030.09818397618
 20
1578.917659137626
 30
0.0
 10
1030.09818397618
 20
1578.920985144598
 30
0.0
 10
1030.09818397618
 20
1578.924311765262
 30
0.0
 10
1030.09818397618
 20
1579.24289166909
 30
0.0
 10
1030.09818397618
 20
1579.567098265386
 30
0.0
 10
1030.09818397618
 20
1579.896310254026
 30
0.0
  0
SPLINE
  5
19C
330
6C
100
AcDbEntity
  8
Sichtbare Kanten(ISO)
100
AcDbSpline
210
0.0
220
0.0
230
1.0
 70
     8
 71
     3
 72
    16
 73
    12
 74
     0
 42
0.0000000001
 43
0.0000000001
 40
0.0
 40
0.0
 40
0.0
 40
0.0
 40
0.1811441752636955
 40
0.1811441752636955
 40
0.3042922905096794
 40
0.3042922905096794
 40
0.3751342849735491
 40
0.3751342849735491
 40
0.4091166734629834
 40
0.4091166734629834
 40
0.4422990957896602
 40
0.4422990957896602
 40
0.4422990957896602
 40
0.4422990957896602
 10
1031.200748003754
 20
1572.103539264728
 30
0.0
 10
1030.934378582242
 20
1572.103540052601
 30
0.0
 10
1030.706372410674
 20
1572.177030039286
 30
0.0
 10
1030.408044256861
 20
1572.404425119333
 30
0.0
 10
1030.309991407895
 20
1572.52523646879
 30
0.0
 10
1030.196325319221
 20
1572.758286584632
 30
0.0
 10
1030.159959730637
 20
1572.859554917169
 30
0.0
 10
1030.122629609929
 20
1573.036403783176
 30
0.0
 10
1030.113332308452
 20
1573.096778951062
 30
0.0
 10
1030.101095425434
 20
1573.222165907544
 30
0.0
 10
1030.09818397618
 20
1573.285256140893
 30
0.0
 10
1030.09818397618
 20
1573.349212050991
 30
0.0
  0
ARC
  5
19D
330
6C
100
AcDbEntity
  8
Sichtbare Kanten(ISO)
100
AcDbCircle
 10
1102.09818397618
 20
1738.103539612383
 30
0.0
 40
1.999999999999992
100
AcDbArc
 50
0.0
 51
90.0
  0
ARC
  5
19E
330
6C
100
AcDbEntity
  8
Sichtbare Kanten(ISO)
100
AcDbCircle
 10
1032.09818397618
 20
1738.103539612383
 30
0.0
 40
1.999999999999957
100
AcDbArc
 50
90.0
 51
180.0
  0
LINE
  5
19F
330
6C
100
AcDbEntity
  8
Sichtbare Kanten(ISO)
100
AcDbLine
 10
1032.09818397618
 20
1740.103539612382
 30
0.0
 11
1040.59818397618
 21
1740.103539612382
 31
0.0
  0
LINE
  5
1A0
330
6C
100
AcDbEntity
  8
Sichtbare Kanten(ISO)
100
AcDbLine
 10
1066.59818397618
 20
1740.103539612382
 30
0.0
 11
1067.59818397618
 21
1740.103539612382
 31
0.0
  0
LINE
  5
1A1
330
6C
100
AcDbEntity
  8
Sichtbare Kanten(ISO)
100
AcDbLine
 10
1093.59818397618
 20
1740.103539612382
 30
0.0
 11
1102.09818397618
 21
1740.103539612382
 31
0.0
  0
LINE
  5
1A2
330
6C
100
AcDbEntity
  8
Sichtbare Kanten(ISO)
100
AcDbLine
 10
1104.09818397618
 20
1738.103539612383
 30
0.0
 11
1104.09818397618
 21
1579.896310254026
 31
0.0
  0
LINE
  5
1A3
330
6C
100
AcDbEntity
  8
Sichtbare Kanten(ISO)
100
AcDbLine
 10
1030.09818397618
 20
1579.896310254026
 30
0.0
 11
1030.09818397618
 21
1738.103539612383
 31
0.0
  0
ARC
  5
1A4
330
6C
100
AcDbEntity
  8
Sichtbare Kanten(ISO)
100
AcDbCircle
 10
1053.59818397618
 20
1722.603539612382
 30
0.0
 40
13.00000000000002
100
AcDbArc
 50
180.0
 51
0.0
  0
LINE
  5
1A5
330
6C
100
AcDbEntity
  8
Sichtbare Kanten(ISO)
100
AcDbLine
 10
1060.598183976179
 20
1814.603539612383
 30
0.0
 11
1046.59818397618
 21
1814.603539612383
 31
0.0
  0
LINE
  5
1A6
330
6C
100
AcDbEntity
  8
Sichtbare Kanten(ISO)
100
AcDbLine
 10
1040.59818397618
 20
1802.603539612382
 30
0.0
 11
1066.59818397618
 21
1802.603539612382
 31
0.0
  0
ARC
  5
1A7
330
6C
100
AcDbEntity
  8
Sichtbare Kanten(ISO)
100
AcDbCircle
 10
1080.59818397618
 20
1722.603539612382
 30
0.0
 40
13.00000000000002
100
AcDbArc
 50
180.0
 51
0.0
  0
LINE
  5
1A8
330
6C
100
AcDbEntity
  8
Sichtbare Kanten(ISO)
100
AcDbLine
 10
1029.59818397618
 20
1547.103539612383
 30
0.0
 11
1029.59818397618
 21
1537.103539612382
 31
0.0
  0
LINE
  5
1A9
330
6C
100
AcDbEntity
  8
Sichtbare Kanten(ISO)
100
AcDbLine
 10
1034.026292587872
 20
1537.103539612382
 30
0.0
 11
1034.026292587872
 21
1547.103539612382
 31
0.0
  0
LINE
  5
1AA
330
6C
100
AcDbEntity
  8
Sichtbare Kanten(ISO)
100
AcDbLine
 10
1029.59818397618
 20
1547.103539612383
 30
0.0
 11
1034.026292587872
 21
1547.103539612383
 31
0.0
  0
LINE
  5
1AB
330
6C
100
AcDbEntity
  8
Sichtbare Kanten(ISO)
100
AcDbLine
 10
1104.59818397618
 20
1537.103539612383
 30
0.0
 11
1104.59818397618
 21
1547.103539612383
 31
0.0
  0
LINE
  5
1AC
330
6C
100
AcDbEntity
  8
Sichtbare Kanten(ISO)
100
AcDbLine
 10
1100.170075364487
 20
1547.103539612383
 30
0.0
 11
1104.59818397618
 21
1547.103539612383
 31
0.0
  0
LINE
  5
1AD
330
6C
100
AcDbEntity
  8
Sichtbare Kanten(ISO)
100
AcDbLine
 10
1100.170075364487
 20
1547.103539612383
 30
0.0
 11
1100.170075364487
 21
1537.103539612383
 31
0.0
  0
LINE
  5
1AE
330
6C
100
AcDbEntity
  8
Sichtbare Kanten(ISO)
100
AcDbLine
 10
1031.200748078743
 20
1572.103539612382
 30
0.0
 11
1049.452388556606
 21
1572.103539612382
 31
0.0
  0
LINE
  5
1AF
330
6C
100
AcDbEntity
  8
Sichtbare Kanten(ISO)
100
AcDbLine
 10
1030.09818397618
 20
1573.349212053633
 30
0.0
 11
1030.09818397618
 21
1547.103539612383
 31
0.0
  0
LINE
  5
1B0
330
6C
100
AcDbEntity
  8
Sichtbare Kanten(ISO)
100
AcDbLine
 10
1051.899499822609
 20
1547.103539612383
 30
0.0
 11
1051.899499818291
 21
1573.349212054112
 31
0.0
  0
LINE
  5
1B1
330
6C
100
AcDbEntity
  8
Sichtbare Kanten(ISO)
100
AcDbLine
 10
1084.743979395754
 20
1572.103539612382
 30
0.0
 11
1102.995619873616
 21
1572.103539612382
 31
0.0
  0
LINE
  5
1B2
330
6C
100
AcDbEntity
  8
Sichtbare Kanten(ISO)
100
AcDbLine
 10
1104.09818397618
 20
1547.103539612383
 30
0.0
 11
1104.09818397618
 21
1573.34921205411
 31
0.0
  0
LINE
  5
1B3
330
6C
100
AcDbEntity
  8
Sichtbare Kanten(ISO)
100
AcDbLine
 10
1082.296868134105
 20
1573.349212053632
 30
0.0
 11
1082.29686812975
 21
1547.103539612383
 31
0.0
  0
LINE
  5
1B4
330
6C
100
AcDbEntity
  8
Sichtbare Kanten(ISO)
100
AcDbLine
 10
1100.170075364487
 20
1547.103539612383
 30
0.0
 11
1034.026292587872
 21
1547.103539612382
 31
0.0
  0
LINE
  5
1B5
330
6C
100
AcDbEntity
  8
Sichtbare Kanten(ISO)
100
AcDbLine
 10
1087.59818397618
 20
1814.603539612383
 30
0.0
 11
1073.59818397618
 21
1814.603539612383
 31
0.0
  0
LINE
  5
1B6
330
6C
100
AcDbEntity
  8
Sichtbare Kanten(ISO)
100
AcDbLine
 10
1093.59818397618
 20
1802.603539612382
 30
0.0
 11
1067.59818397618
 21
1802.603539612382
 31
0.0
  0
ARC
  5
1B7
330
6C
100
AcDbEntity
  8
Sichtbare Kanten(ISO)
100
AcDbCircle
 10
1046.59818397618
 20
1811.603539612383
 30
0.0
 40
3.0
100
AcDbArc
 50
90.0
 51
180.0
  0
ARC
  5
1B8
330
6C
100
AcDbEntity
  8
Sichtbare Kanten(ISO)
100
AcDbCircle
 10
1060.598183976179
 20
1811.603539612383
 30
0.0
 40
3.0
100
AcDbArc
 50
0.0
 51
90.0
  0
LINE
  5
1B9
330
6C
100
AcDbEntity
  8
Sichtbare Kanten(ISO)
100
AcDbLine
 10
1063.59818397618
 20
1811.603539612383
 30
0.0
 11
1063.59818397618
 21
1802.603539612382
 31
0.0
  0
LINE
  5
1BA
330
6C
100
AcDbEntity
  8
Sichtbare Kanten(ISO)
100
AcDbLine
 10
1043.59818397618
 20
1811.603539612383
 30
0.0
 11
1043.59818397618
 21
1802.603539612382
 31
0.0
  0
ARC
  5
1BB
330
6C
100
AcDbEntity
  8
Sichtbare Kanten(ISO)
100
AcDbCircle
 10
1073.59818397618
 20
1811.603539612383
 30
0.0
 40
3.0
100
AcDbArc
 50
90.0
 51
180.0
  0
ARC
  5
1BC
330
6C
100
AcDbEntity
  8
Sichtbare Kanten(ISO)
100
AcDbCircle
 10
1087.59818397618
 20
1811.603539612383
 30
0.0
 40
3.0
100
AcDbArc
 50
0.0
 51
90.0
  0
LINE
  5
1BD
330
6C
100
AcDbEntity
  8
Sichtbare Kanten(ISO)
100
AcDbLine
 10
1070.59818397618
 20
1802.603539612382
 30
0.0
 11
1070.59818397618
 21
1811.603539612383
 31
0.0
  0
LINE
  5
1BE
330
6C
100
AcDbEntity
  8
Sichtbare Kanten(ISO)
100
AcDbLine
 10
1090.59818397618
 20
1802.603539612382
 30
0.0
 11
1090.59818397618
 21
1811.603539612383
 31
0.0
  0
LINE
  5
1BF
330
6C
100
AcDbEntity
  8
Sichtbare Kanten(ISO)
100
AcDbLine
 10
1093.59818397618
 20
1802.603539612382
 30
0.0
 11
1093.59818397618
 21
1722.603539612382
 31
0.0
  0
LINE
  5
1C0
330
6C
100
AcDbEntity
  8
Sichtbare Kanten(ISO)
100
AcDbLine
 10
1067.59818397618
 20
1802.603539612382
 30
0.0
 11
1067.59818397618
 21
1722.603539612382
 31
0.0
  0
LINE
  5
1C1
330
6C
100
AcDbEntity
  8
Sichtbare Kanten(ISO)
100
AcDbLine
 10
1066.59818397618
 20
1802.603539612382
 30
0.0
 11
1066.59818397618
 21
1722.603539612382
 31
0.0
  0
LINE
  5
1C2
330
6C
100
AcDbEntity
  8
Sichtbare Kanten(ISO)
100
AcDbLine
 10
1040.59818397618
 20
1802.603539612382
 30
0.0
 11
1040.59818397618
 21
1722.603539612382
 31
0.0
  0
LINE
  5
1C3
330
6C
100
AcDbEntity
  8
Sichtbare Kanten(ISO)
100
AcDbLine
 10
1017.4544488726
 20
1537.103539612383
 30
0.0
 11
1017.463689667156
 21
1537.103539612383
 31
0.0
  0
LINE
  5
1C4
330
6C
100
AcDbEntity
  8
Sichtbare Kanten(ISO)
100
AcDbLine
 10
1017.463689667156
 20
1466.103539612383
 30
0.0
 11
1017.4544488726
 21
1466.103539612383
 31
0.0
  0
LINE
  5
1C5
330
6C
100
AcDbEntity
  8
Sichtbare Kanten(ISO)
100
AcDbLine
 10
1017.463689667156
 20
1466.103539612383
 30
0.0
 11
1022.205400253358
 21
1466.103539612382
 31
0.0
  0
LINE
  5
1C6
330
6C
100
AcDbEntity
  8
Sichtbare Kanten(ISO)
100
AcDbLine
 10
1022.205400253358
 20
1466.103539612382
 30
0.0
 11
1022.205400253358
 21
1537.103539612383
 31
0.0
  0
LINE
  5
1C7
330
6C
100
AcDbEntity
  8
Sichtbare Kanten(ISO)
100
AcDbLine
 10
1022.205400253358
 20
1537.103539612383
 30
0.0
 11
1017.463689667156
 21
1537.103539612383
 31
0.0
  0
ELLIPSE
  5
1C8
330
6C
100
AcDbEntity
  8
Sichtbare Kanten(ISO)
100
AcDbEllipse
 10
1021.752903079412
 20
1501.603539612383
 30
0.0
 11
0.0000000000000116
 21
4.1
 31
0.0
210
0.0
220
0.0
230
1.0
 40
0.0784285768840508
 41
0.0
 42
6.283185307179582
  0
LINE
  5
1C9
330
6C
100
AcDbEntity
  8
Sichtbare Kanten(ISO)
100
AcDbLine
 10
1022.205400253358
 20
1537.103539612383
 30
0.0
 11
1022.221085968735
 21
1537.103539612383
 31
0.0
  0
LINE
  5
1CA
330
6C
100
AcDbEntity
  8
Sichtbare Kanten(ISO)
100
AcDbLine
 10
1022.205400253358
 20
1466.103539612382
 30
0.0
 11
1022.221085968735
 21
1466.103539612382
 31
0.0
  0
LINE
  5
1CB
330
6C
100
AcDbEntity
  8
Sichtbare Kanten(ISO)
100
AcDbLine
 10
1017.4544488726
 20
1537.103539612383
 30
0.0
 11
1017.4544488726
 21
1466.103539612383
 31
0.0
  0
LINE
  5
1CC
330
6C
100
AcDbEntity
  8
Sichtbare Kanten(ISO)
100
AcDbLine
 10
1022.416931833545
 20
1537.103539612381
 30
0.0
 11
1022.221085968735
 21
1537.103539612381
 31
0.0
  0
LINE
  5
1CD
330
6C
100
AcDbEntity
  8
Sichtbare Kanten(ISO)
100
AcDbLine
 10
1022.416931833545
 20
1537.103539612381
 30
0.0
 11
1024.909231171416
 21
1537.103539612381
 31
0.0
  0
LINE
  5
1CE
330
6C
100
AcDbEntity
  8
Sichtbare Kanten(ISO)
100
AcDbLine
 10
1109.287136780943
 20
1537.103539612381
 30
0.0
 11
1024.909231171416
 21
1537.103539612381
 31
0.0
  0
LINE
  5
1CF
330
6C
100
AcDbEntity
  8
Sichtbare Kanten(ISO)
100
AcDbLine
 10
1109.287136780943
 20
1537.103539612381
 30
0.0
 11
1111.779436118814
 21
1537.103539612381
 31
0.0
  0
LINE
  5
1D0
330
6C
100
AcDbEntity
  8
Sichtbare Kanten(ISO)
100
AcDbLine
 10
1111.975281983624
 20
1537.103539612381
 30
0.0
 11
1111.779436118814
 21
1537.103539612381
 31
0.0
  0
LINE
  5
1D1
330
6C
100
AcDbEntity
  8
Sichtbare Kanten(ISO)
100
AcDbLine
 10
1111.975281983624
 20
1465.603539612381
 30
0.0
 11
1111.975281983624
 21
1537.103539612381
 31
0.0
  0
LINE
  5
1D2
330
6C
100
AcDbEntity
  8
Sichtbare Kanten(ISO)
100
AcDbLine
 10
1022.221085968735
 20
1537.103539612381
 30
0.0
 11
1022.221085968735
 21
1465.603539612381
 31
0.0
  0
LINE
  5
1D3
330
6C
100
AcDbEntity
  8
Sichtbare Kanten(ISO)
100
AcDbLine
 10
1018.949874430612
 20
1466.103539612383
 30
0.0
 11
1018.949874430612
 21
1465.603539612381
 31
0.0
  0
LINE
  5
1D4
330
6C
100
AcDbEntity
  8
Sichtbare Kanten(ISO)
100
AcDbLine
 10
1115.246493521747
 20
1466.103539612382
 30
0.0
 11
1115.246493521747
 21
1465.603539612381
 31
0.0
  0
LINE
  5
1D5
330
6C
100
AcDbEntity
  8
Sichtbare Kanten(ISO)
100
AcDbLine
 10
1111.990967699001
 20
1537.103539612383
 30
0.0
 11
1111.975281983624
 21
1537.103539612383
 31
0.0
  0
LINE
  5
1D6
330
6C
100
AcDbEntity
  8
Sichtbare Kanten(ISO)
100
AcDbLine
 10
1116.732678285204
 20
1537.103539612383
 30
0.0
 11
1111.990967699001
 21
1537.103539612383
 31
0.0
  0
LINE
  5
1D7
330
6C
100
AcDbEntity
  8
Sichtbare Kanten(ISO)
100
AcDbLine
 10
1116.732678285204
 20
1537.103539612383
 30
0.0
 11
1116.741919079759
 21
1537.103539612383
 31
0.0
  0
LINE
  5
1D8
330
6C
100
AcDbEntity
  8
Sichtbare Kanten(ISO)
100
AcDbLine
 10
1116.741919079759
 20
1466.103539612382
 30
0.0
 11
1116.732678285204
 21
1466.103539612382
 31
0.0
  0
LINE
  5
1D9
330
6C
100
AcDbEntity
  8
Sichtbare Kanten(ISO)
100
AcDbLine
 10
1111.990967699001
 20
1537.103539612383
 30
0.0
 11
1111.990967699002
 21
1466.103539612382
 31
0.0
  0
LINE
  5
1DA
330
6C
100
AcDbEntity
  8
Sichtbare Kanten(ISO)
100
AcDbLine
 10
1111.990967699002
 20
1466.103539612382
 30
0.0
 11
1116.732678285204
 21
1466.103539612382
 31
0.0
  0
ELLIPSE
  5
1DB
330
6C
100
AcDbEntity
  8
Sichtbare Kanten(ISO)
100
AcDbEllipse
 10
1112.443464872947
 20
1501.603539612383
 30
0.0
 11
0.0000000000000015
 21
-4.1
 31
0.0
210
0.0
220
0.0
230
1.0
 40
0.0784285768840553
 41
0.0
 42
6.283185307179582
  0
LINE
  5
1DC
330
6C
100
AcDbEntity
  8
Sichtbare Kanten(ISO)
100
AcDbLine
 10
1111.990967699002
 20
1466.103539612382
 30
0.0
 11
1111.975281983624
 21
1466.103539612382
 31
0.0
  0
LINE
  5
1DD
330
6C
100
AcDbEntity
  8
Sichtbare Kanten(ISO)
100
AcDbLine
 10
1116.741919079759
 20
1466.103539612382
 30
0.0
 11
1116.741919079759
 21
1537.103539612383
 31
0.0
  0
LINE
  5
1DE
330
6C
100
AcDbEntity
  8
Sichtbare Kanten(ISO)
100
AcDbLine
 10
1017.750657086344
 20
1465.603539612381
 30
0.0
 11
1022.221085968735
 21
1465.603539612381
 31
0.0
  0
LINE
  5
1DF
330
6C
100
AcDbEntity
  8
Sichtbare Kanten(ISO)
100
AcDbLine
 10
1111.975281983624
 20
1465.603539612381
 30
0.0
 11
1116.445710866015
 21
1465.603539612381
 31
0.0
  0
LINE
  5
1E0
330
6C
100
AcDbEntity
  8
Sichtbare Kanten(ISO)
100
AcDbLine
 10
1116.598183976179
 20
1465.603539612381
 30
0.0
 11
1116.445710866015
 21
1465.603539612381
 31
0.0
  0
LINE
  5
1E1
330
6C
100
AcDbEntity
  8
Sichtbare Kanten(ISO)
100
AcDbLine
 10
1017.750657086344
 20
1465.603539612381
 30
0.0
 11
1017.59818397618
 21
1465.603539612381
 31
0.0
  0
LINE
  5
1E2
330
6C
100
AcDbEntity
  8
Sichtbare Kanten(ISO)
100
AcDbLine
 10
1116.59818397618
 20
1455.603539612381
 30
0.0
 11
1116.59818397618
 21
1465.603539612381
 31
0.0
  0
LINE
  5
1E3
330
6C
100
AcDbEntity
  8
Sichtbare Kanten(ISO)
100
AcDbLine
 10
1017.59818397618
 20
1455.603539612381
 30
0.0
 11
1017.59818397618
 21
1465.603539612381
 31
0.0
  0
LINE
  5
1E4
330
6C
100
AcDbEntity
  8
Sichtbare Kanten(ISO)
100
AcDbLine
 10
1091.710027296442
 20
649.6035396123811
 30
0.0
 11
1091.410027296443
 21
649.6035396123811
 31
0.0
  0
LINE
  5
1E5
330
6C
100
AcDbEntity
  8
Sichtbare Kanten(ISO)
100
AcDbLine
 10
1091.410027296443
 20
649.6035396123811
 30
0.0
 11
1042.858555433866
 21
649.6035396123811
 31
0.0
  0
LINE
  5
1E6
330
6C
100
AcDbEntity
  8
Sichtbare Kanten(ISO)
100
AcDbLine
 10
1042.858555433866
 20
649.6035396123811
 30
0.0
 11
1042.558555433866
 21
649.6035396123811
 31
0.0
  0
LINE
  5
1E7
330
6C
100
AcDbEntity
  8
Sichtbare Kanten(ISO)
100
AcDbLine
 10
1024.909231171413
 20
649.6035396123811
 30
0.0
 11
1042.558555433866
 21
649.6035396123811
 31
0.0
  0
LINE
  5
1E8
330
6C
100
AcDbEntity
  8
Sichtbare Kanten(ISO)
100
AcDbLine
 10
1024.909231171413
 20
649.6035396123813
 30
0.0
 11
1021.91833019089
 21
649.6035396123813
 31
0.0
  0
LINE
  5
1E9
330
6C
100
AcDbEntity
  8
Sichtbare Kanten(ISO)
100
AcDbLine
 10
1017.285941689762
 20
649.6035396123815
 30
0.0
 11
1021.91833019089
 21
649.6035396123813
 31
0.0
  0
LINE
  5
1EA
330
6C
100
AcDbEntity
  8
Sichtbare Kanten(ISO)
100
AcDbLine
 10
1017.285941689762
 20
649.6035396123815
 30
0.0
 11
1017.134291365154
 21
649.6035396123815
 31
0.0
  0
LINE
  5
1EB
330
6C
100
AcDbEntity
  8
Sichtbare Kanten(ISO)
100
AcDbLine
 10
1117.134291365154
 20
649.6035396123815
 30
0.0
 11
1116.982641040547
 21
649.6035396123815
 31
0.0
  0
LINE
  5
1EC
330
6C
100
AcDbEntity
  8
Sichtbare Kanten(ISO)
100
AcDbLine
 10
1112.350252539418
 20
649.6035396123813
 30
0.0
 11
1116.982641040547
 21
649.6035396123815
 31
0.0
  0
LINE
  5
1ED
330
6C
100
AcDbEntity
  8
Sichtbare Kanten(ISO)
100
AcDbLine
 10
1112.350252539418
 20
649.6035396123813
 30
0.0
 11
1109.359351558895
 21
649.6035396123813
 31
0.0
  0
LINE
  5
1EE
330
6C
100
AcDbEntity
  8
Sichtbare Kanten(ISO)
100
AcDbLine
 10
1091.710027296442
 20
649.6035396123811
 30
0.0
 11
1109.359351558895
 21
649.6035396123811
 31
0.0
  0
LINE
  5
1EF
330
6C
100
AcDbEntity
  8
Sichtbare Kanten(ISO)
100
AcDbLine
 10
1021.91833019089
 20
1455.603539612381
 30
0.0
 11
1024.909231171413
 21
1455.603539612381
 31
0.0
  0
LINE
  5
1F0
330
6C
100
AcDbEntity
  8
Sichtbare Kanten(ISO)
100
AcDbLine
 10
1109.359351558895
 20
1455.603539612381
 30
0.0
 11
1112.350252539418
 21
1455.603539612381
 31
0.0
  0
LINE
  5
1F1
330
6C
100
AcDbEntity
  8
Sichtbare Kanten(ISO)
100
AcDbLine
 10
1091.410027296442
 20
1455.603539612381
 30
0.0
 11
1091.710027296442
 21
1455.603539612381
 31
0.0
  0
LINE
  5
1F2
330
6C
100
AcDbEntity
  8
Sichtbare Kanten(ISO)
100
AcDbLine
 10
1042.558555433866
 20
1455.603539612381
 30
0.0
 11
1042.858555433866
 21
1455.603539612381
 31
0.0
  0
LINE
  5
1F3
330
6C
100
AcDbEntity
  8
Sichtbare Kanten(ISO)
100
AcDbLine
 10
1017.134291365154
 20
1455.603539612381
 30
0.0
 11
1017.285941689761
 21
1455.603539612381
 31
0.0
  0
LINE
  5
1F4
330
6C
100
AcDbEntity
  8
Sichtbare Kanten(ISO)
100
AcDbLine
 10
1021.91833019089
 20
1455.603539612381
 30
0.0
 11
1017.285941689761
 21
1455.603539612381
 31
0.0
  0
LINE
  5
1F5
330
6C
100
AcDbEntity
  8
Sichtbare Kanten(ISO)
100
AcDbLine
 10
1042.558555433866
 20
1455.603539612381
 30
0.0
 11
1024.909231171413
 21
1455.603539612381
 31
0.0
  0
LINE
  5
1F6
330
6C
100
AcDbEntity
  8
Sichtbare Kanten(ISO)
100
AcDbLine
 10
1091.410027296442
 20
1455.603539612381
 30
0.0
 11
1042.858555433866
 21
1455.603539612381
 31
0.0
  0
LINE
  5
1F7
330
6C
100
AcDbEntity
  8
Sichtbare Kanten(ISO)
100
AcDbLine
 10
1109.359351558895
 20
1455.603539612381
 30
0.0
 11
1091.710027296442
 21
1455.603539612381
 31
0.0
  0
LINE
  5
1F8
330
6C
100
AcDbEntity
  8
Sichtbare Kanten(ISO)
100
AcDbLine
 10
1116.982641040546
 20
1455.603539612381
 30
0.0
 11
1112.350252539418
 21
1455.603539612381
 31
0.0
  0
LINE
  5
1F9
330
6C
100
AcDbEntity
  8
Sichtbare Kanten(ISO)
100
AcDbLine
 10
1116.982641040546
 20
1455.603539612381
 30
0.0
 11
1117.134291365154
 21
1455.603539612381
 31
0.0
  0
LINE
  5
1FA
330
6C
100
AcDbEntity
  8
Sichtbare Kanten(ISO)
100
AcDbLine
 10
1091.710027296442
 20
649.6035396123809
 30
0.0
 11
1091.710027296442
 21
1455.603539612381
 31
0.0
  0
LINE
  5
1FB
330
6C
100
AcDbEntity
  8
Sichtbare Kanten(ISO)
100
AcDbLine
 10
1042.558555433866
 20
649.6035396123809
 30
0.0
 11
1042.558555433866
 21
1455.603539612381
 31
0.0
  0
LINE
  5
1FC
330
6C
100
AcDbEntity
  8
Sichtbare Kanten(ISO)
100
AcDbLine
 10
1017.134291365154
 20
649.6035396123813
 30
0.0
 11
1017.134291365154
 21
1455.603539612381
 31
0.0
  0
LINE
  5
1FD
330
6C
100
AcDbEntity
  8
Sichtbare Kanten(ISO)
100
AcDbLine
 10
1117.134291365154
 20
649.6035396123813
 30
0.0
 11
1117.134291365154
 21
1455.603539612381
 31
0.0
  0
LINE
  5
1FE
330
6C
100
AcDbEntity
  8
Sichtbare Kanten(ISO)
100
AcDbLine
 10
1092.098183976184
 20
626.2035396123675
 30
0.0
 11
1042.098183976184
 21
626.2035396123659
 31
0.0
  0
LINE
  5
1FF
330
6C
100
AcDbEntity
  8
Sichtbare Kanten(ISO)
100
AcDbLine
 10
1042.398183976184
 20
625.9035396123656
 30
0.0
 11
1091.798183976184
 21
625.9035396123675
 31
0.0
  0
LINE
  5
200
330
6C
100
AcDbEntity
  8
Sichtbare Kanten(ISO)
100
AcDbLine
 10
1092.098183976183
 20
637.6035396123665
 30
0.0
 11
1092.098183976184
 21
626.2035396123677
 31
0.0
  0
LINE
  5
201
330
6C
100
AcDbEntity
  8
Sichtbare Kanten(ISO)
100
AcDbLine
 10
1042.098183976183
 20
637.6035396123667
 30
0.0
 11
1042.098183976184
 21
626.2035396123658
 31
0.0
  0
LINE
  5
202
330
6C
100
AcDbEntity
  8
Sichtbare Kanten(ISO)
100
AcDbLine
 10
1042.398183976184
 20
625.9035396123659
 30
0.0
 11
1042.098183976184
 21
626.2035396123658
 31
0.0
  0
LINE
  5
203
330
6C
100
AcDbEntity
  8
Sichtbare Kanten(ISO)
100
AcDbLine
 10
1091.798183976184
 20
625.9035396123675
 30
0.0
 11
1092.098183976184
 21
626.2035396123676
 31
0.0
  0
ARC
  5
204
330
6C
100
AcDbEntity
  8
Sichtbare Kanten(ISO)
100
AcDbCircle
 10
1087.398183976184
 20
625.6035396123674
 30
0.0
 40
0.3
100
AcDbArc
 50
89.99999999997454
 51
180.0
  0
ARC
  5
205
330
6C
100
AcDbEntity
  8
Sichtbare Kanten(ISO)
100
AcDbCircle
 10
1046.798183976183
 20
625.603539612366
 30
0.0
 40
0.3
100
AcDbArc
 50
0.0
 51
90.0
  0
LINE
  5
206
330
6C
100
AcDbEntity
  8
Sichtbare Kanten(ISO)
100
AcDbLine
 10
1104.598183976157
 20
590.6035396123666
 30
0.0
 11
1099.598183976157
 21
590.6035396123666
 31
0.0
  0
LINE
  5
207
330
6C
100
AcDbEntity
  8
Sichtbare Kanten(ISO)
100
AcDbLine
 10
1034.598183976157
 20
590.6035396123663
 30
0.0
 11
1099.598183976157
 21
590.6035396123663
 31
0.0
  0
LINE
  5
208
330
6C
100
AcDbEntity
  8
Sichtbare Kanten(ISO)
100
AcDbLine
 10
1034.598183976157
 20
590.6035396123663
 30
0.0
 11
1029.598183976157
 21
590.6035396123663
 31
0.0
  0
LINE
  5
209
330
6C
100
AcDbEntity
  8
Sichtbare Kanten(ISO)
100
AcDbLine
 10
1099.598183976157
 20
603.6035396123666
 30
0.0
 11
1102.598183976157
 21
603.6035396123666
 31
0.0
  0
LINE
  5
20A
330
6C
100
AcDbEntity
  8
Sichtbare Kanten(ISO)
100
AcDbLine
 10
1031.598183976157
 20
603.6035396123666
 30
0.0
 11
1034.598183976157
 21
603.6035396123666
 31
0.0
  0
LINE
  5
20B
330
6C
100
AcDbEntity
  8
Sichtbare Kanten(ISO)
100
AcDbLine
 10
1034.598183976157
 20
603.6035396123663
 30
0.0
 11
1099.598183976157
 21
603.6035396123666
 31
0.0
  0
LINE
  5
20C
330
6C
100
AcDbEntity
  8
Sichtbare Kanten(ISO)
100
AcDbLine
 10
1102.598183976157
 20
625.6035396123668
 30
0.0
 11
1031.598183976157
 21
625.6035396123668
 31
0.0
  0
SPLINE
  5
20D
330
6C
100
AcDbEntity
  8
Sichtbare Kanten(ISO)
100
AcDbSpline
210
0.0
220
0.0
230
1.0
 70
    24
 71
     3
 72
    20
 73
    16
 74
     0
 42
0.0000000001
 43
0.0000000001
 40
0.0
 40
0.0
 40
0.0
 40
0.0
 40
0.2500000000000007
 40
0.2500000000000007
 40
0.2500000000000007
 40
0.4999999999999998
 40
0.4999999999999998
 40
0.4999999999999998
 40
0.749999999999999
 40
0.749999999999999
 40
0.749999999999999
 40
0.8749999999999992
 40
0.8749999999999992
 40
0.8749999999999992
 40
1.0
 40
1.0
 40
1.0
 40
1.0
 10
1104.598183976157
 20
602.094171585691
 30
0.0
 10
1104.598183976157
 20
602.0192045604065
 30
0.0
 10
1104.598183976157
 20
601.9513580652369
 30
0.0
 10
1104.598183976157
 20
601.8915721314542
 30
0.0
 10
1104.598183976157
 20
601.8317861976713
 30
0.0
 10
1104.598183976157
 20
601.7800563063423
 30
0.0
 10
1104.598183976157
 20
601.7374990347946
 30
0.0
 10
1104.598183976157
 20
601.6949417632471
 30
0.0
 10
1104.598183976157
 20
601.661549953037
 30
0.0
 10
1104.598183976157
 20
601.6387024706569
 30
0.0
 10
1104.598183976157
 20
601.6272787294667
 30
0.0
 10
1104.598183976157
 20
601.6184957672848
 30
0.0
 10
1104.598183976157
 20
601.6125611144331
 30
0.0
 10
1104.598183976157
 20
601.6066264615814
 30
0.0
 10
1104.598183976157
 20
601.6035396127968
 30
0.0
 10
1104.598183976157
 20
601.6035396123665
 30
0.0
  0
LINE
  5
20E
330
6C
100
AcDbEntity
  8
Sichtbare Kanten(ISO)
100
AcDbLine
 10
1104.598183976157
 20
601.6035396123665
 30
0.0
 11
1104.598183976157
 21
590.6035396123666
 31
0.0
  0
SPLINE
  5
20F
330
6C
100
AcDbEntity
  8
Sichtbare Kanten(ISO)
100
AcDbSpline
210
0.0
220
0.0
230
1.0
 70
    24
 71
     3
 72
    71
 73
    67
 74
     0
 42
0.0000000001
 43
0.0000000001
 40
0.0
 40
0.0
 40
0.0
 40
0.0
 40
0.0312374462359926
 40
0.0312374462359926
 40
0.0312374462359926
 40
0.0624795649620248
 40
0.0624795649620248
 40
0.0624795649620248
 40
0.1249751107432288
 40
0.1249751107432288
 40
0.1249751107432288
 40
0.125
 40
0.125
 40
0.125
 40
0.187482623104929
 40
0.187482623104929
 40
0.187482623104929
 40
0.1875
 40
0.1875
 40
0.1875
 40
0.2499994053573221
 40
0.2499994053573221
 40
0.2499994053573221
 40
0.3125
 40
0.3125
 40
0.3125
 40
0.3125235267358844
 40
0.3125235267358844
 40
0.3125235267358844
 40
0.375
 40
0.375
 40
0.375
 40
0.3750429901010952
 40
0.3750429901010952
 40
0.3750429901010952
 40
0.4375496692063662
 40
0.4375496692063662
 40
0.4375496692063662
 40
0.5
 40
0.5
 40
0.5
 40
0.5000464725300155
 40
0.5000464725300155
 40
0.5000464725300155
 40
0.625
 40
0.625
 40
0.625
 40
0.6250329127261534
 40
0.6250329127261534
 40
0.6250329127261534
 40
0.75
 40
0.75
 40
0.75
 40
0.7500200474623947
 40
0.7500200474623947
 40
0.7500200474623947
 40
0.875
 40
0.875
 40
0.875
 40
0.8750087705903265
 40
0.8750087705903265
 40
0.8750087705903265
 40
0.9375
 40
0.9375
 40
0.9375
 40
1.0
 40
1.0
 40
1.0
 40
1.0
 10
1104.598183976157
 20
602.094171585698
 30
0.0
 10
1104.598183976157
 20
602.1212023383729
 30
0.0
 10
1104.598183976157
 20
602.1472339349958
 30
0.0
 10
1104.598183976157
 20
602.1724279201557
 30
0.0
 10
1104.598183976157
 20
602.1976256738263
 30
0.0
 10
1104.598183976157
 20
602.2219846474621
 30
0.0
 10
1104.598183976157
 20
602.2456294520448
 30
0.0
 10
1104.598183976157
 20
602.2929276196322
 30
0.0
 10
1104.598183976157
 20
602.3373849462971
 30
0.0
 10
1104.598183976157
 20
602.3797128651763
 30
0.0
 10
1104.598183976157
 20
602.3797297225447
 30
0.0
 10
1104.598183976157
 20
602.3797465795742
 30
0.0
 10
1104.598183976157
 20
602.3797634362645
 30
0.0
 10
1104.598183976157
 20
602.4220809001668
 30
0.0
 10
1104.598183976157
 20
602.4622615260871
 30
0.0
 10
1104.598183976157
 20
602.5007861400687
 30
0.0
 10
1104.598183976157
 20
602.5007968540583
 30
0.0
 10
1104.598183976157
 20
602.5008075679195
 30
0.0
 10
1104.598183976157
 20
602.5008182816524
 30
0.0
 10
1104.598183976157
 20
602.5393523192313
 30
0.0
 10
1104.598183976157
 20
602.576225211216
 30
0.0
 10
1104.598183976157
 20
602.6117811355296
 30
0.0
 10
1104.598183976157
 20
602.6473377364278
 30
0.0
 10
1104.598183976157
 20
602.6815748766676
 30
0.0
 10
1104.598183976157
 20
602.7147493453156
 30
0.0
 10
1104.598183976157
 20
602.7147618329881
 30
0.0
 10
1104.598183976157
 20
602.7147743205108
 30
0.0
 10
1104.598183976157
 20
602.7147868078838
 30
0.0
 10
1104.598183976157
 20
602.7479476772428
 30
0.0
 10
1104.598183976157
 20
602.780045302212
 30
0.0
 10
1104.598183976157
 20
602.8112776438949
 30
0.0
 10
1104.598183976157
 20
602.8112991348892
 30
0.0
 10
1104.598183976157
 20
602.8113206254736
 30
0.0
 10
1104.598183976157
 20
602.8113421156489
 30
0.0
 10
1104.598183976157
 20
602.8425883664041
 30
0.0
 10
1104.598183976157
 20
602.872967856611
 30
0.0
 10
1104.598183976157
 20
602.9026377231552
 30
0.0
 10
1104.598183976157
 20
602.9322808430075
 30
0.0
 10
1104.598183976157
 20
602.9612149898923
 30
0.0
 10
1104.598183976157
 20
602.9895676850738
 30
0.0
 10
1104.598183976157
 20
602.9895887837847
 30
0.0
 10
1104.598183976157
 20
602.9896098821729
 30
0.0
 10
1104.598183976157
 20
602.9896309802381
 30
0.0
 10
1104.598183976157
 20
603.0463586360476
 30
0.0
 10
1104.598183976157
 20
603.100767315478
 30
0.0
 10
1104.598183976157
 20
603.153649007917
 30
0.0
 10
1104.598183976157
 20
603.1536629369408
 30
0.0
 10
1104.598183976157
 20
603.1536768658587
 30
0.0
 10
1104.598183976157
 20
603.1536907946708
 30
0.0
 10
1104.598183976157
 20
603.2065774213216
 30
0.0
 10
1104.598183976157
 20
603.2579293556215
 30
0.0
 10
1104.598183976157
 20
603.3083456629298
 30
0.0
 10
1104.598183976157
 20
603.3083537508115
 30
0.0
 10
1104.598183976157
 20
603.3083618386692
 30
0.0
 10
1104.598183976157
 20
603.3083699265026
 30
0.0
 10
1104.598183976157
 20
603.3587911237757
 30
0.0
 10
1104.598183976157
 20
603.4082715430646
 30
0.0
 10
1104.598183976157
 20
603.4573068894078
 30
0.0
 10
1104.598183976157
 20
603.4573103305112
 30
0.0
 10
1104.598183976157
 20
603.4573137716124
 30
0.0
 10
1104.598183976157
 20
603.4573172127115
 30
0.0
 10
1104.598183976157
 20
603.4818353463069
 30
0.0
 10
1104.598183976157
 20
603.5062413770993
 30
0.0
 10
1104.598183976157
 20
603.5305915495353
 30
0.0
 10
1104.598183976157
 20
603.554945139497
 30
0.0
 10
1104.598183976157
 20
603.5792519398587
 30
0.0
 10
1104.598183976157
 20
603.6035396123667
 30
0.0
  0
LINE
  5
210
330
6C
100
AcDbEntity
  8
Sichtbare Kanten(ISO)
100
AcDbLine
 10
1029.598183976157
 20
590.6035396123663
 30
0.0
 11
1029.598183976157
 21
601.6035396123665
 31
0.0
  0
SPLINE
  5
211
330
6C
100
AcDbEntity
  8
Sichtbare Kanten(ISO)
100
AcDbSpline
210
0.0
220
0.0
230
1.0
 70
    24
 71
     3
 72
    20
 73
    16
 74
     0
 42
0.0000000001
 43
0.0000000001
 40
0.0
 40
0.0
 40
0.0
 40
0.0
 40
0.1250000000000001
 40
0.1250000000000001
 40
0.1250000000000001
 40
0.2500000000000006
 40
0.2500000000000006
 40
0.2500000000000006
 40
0.5000000000000013
 40
0.5000000000000013
 40
0.5000000000000013
 40
0.75
 40
0.75
 40
0.75
 40
1.0
 40
1.0
 40
1.0
 40
1.0
 10
1029.598183976157
 20
601.6035396123665
 30
0.0
 10
1029.598183976157
 20
601.6035396127968
 30
0.0
 10
1029.598183976157
 20
601.6066264615809
 30
0.0
 10
1029.598183976157
 20
601.612561114433
 30
0.0
 10
1029.598183976157
 20
601.618495767285
 30
0.0
 10
1029.598183976157
 20
601.6272787294667
 30
0.0
 10
1029.598183976157
 20
601.6387024706567
 30
0.0
 10
1029.598183976157
 20
601.661549953037
 30
0.0
 10
1029.598183976157
 20
601.6949417632466
 30
0.0
 10
1029.598183976157
 20
601.7374990347948
 30
0.0
 10
1029.598183976157
 20
601.7800563063431
 30
0.0
 10
1029.598183976157
 20
601.8317861976708
 30
0.0
 10
1029.598183976157
 20
601.8915721314544
 30
0.0
 10
1029.598183976157
 20
601.9513580652381
 30
0.0
 10
1029.598183976157
 20
602.0192045604103
 30
0.0
 10
1029.598183976157
 20
602.0941715856914
 30
0.0
  0
SPLINE
  5
212
330
6C
100
AcDbEntity
  8
Sichtbare Kanten(ISO)
100
AcDbSpline
210
0.0
220
0.0
230
1.0
 70
    24
 71
     3
 72
    71
 73
    67
 74
     0
 42
0.0000000001
 43
0.0000000001
 40
0.0
 40
0.0
 40
0.0
 40
0.0
 40
0.0312503070777706
 40
0.0312503070777706
 40
0.0312503070777706
 40
0.0625
 40
0.0625
 40
0.0625
 40
0.125
 40
0.125
 40
0.125
 40
0.1250012444135079
 40
0.1250012444135079
 40
0.1250012444135079
 40
0.1875
 40
0.1875
 40
0.1875
 40
0.1875018666202643
 40
0.1875018666202643
 40
0.1875018666202643
 40
0.25
 40
0.25
 40
0.25
 40
0.2500024888270164
 40
0.2500024888270164
 40
0.2500024888270164
 40
0.3125
 40
0.3125
 40
0.3125
 40
0.312503111033772
 40
0.312503111033772
 40
0.312503111033772
 40
0.375
 40
0.375
 40
0.375
 40
0.3750037332405264
 40
0.3750037332405264
 40
0.3750037332405264
 40
0.4375043717417661
 40
0.4375043717417661
 40
0.4375043717417661
 40
0.5
 40
0.5
 40
0.5
 40
0.5000049738303013
 40
0.5000049738303013
 40
0.5000049738303013
 40
0.625
 40
0.625
 40
0.625
 40
0.6250048784717453
 40
0.6250048784717453
 40
0.6250048784717453
 40
0.75
 40
0.75
 40
0.75
 40
0.7500029675087689
 40
0.7500029675087689
 40
0.7500029675087689
 40
0.875
 40
0.875
 40
0.875
 40
0.8750011111618572
 40
0.8750011111618572
 40
0.8750011111618572
 40
1.0
 40
1.0
 40
1.0
 40
1.0
 10
1029.598183976157
 20
602.0941715856914
 30
0.0
 10
1029.598183976157
 20
602.1212134672611
 30
0.0
 10
1029.598183976157
 20
602.1472553498789
 30
0.0
 10
1029.598183976157
 20
602.1724590116092
 30
0.0
 10
1029.598183976157
 20
602.1976621780173
 30
0.0
 10
1029.598183976157
 20
602.2220262359153
 30
0.0
 10
1029.598183976157
 20
602.2456758395883
 30
0.0
 10
1029.598183976157
 20
602.2929755117238
 30
0.0
 10
1029.598183976157
 20
602.3374342041204
 30
0.0
 10
1029.598183976157
 20
602.3797634305001
 30
0.0
 10
1029.598183976157
 20
602.3797642733011
 30
0.0
 10
1029.598183976157
 20
602.3797651161012
 30
0.0
 10
1029.598183976157
 20
602.3797659589005
 30
0.0
 10
1029.598183976157
 20
602.4220942576833
 30
0.0
 10
1029.598183976157
 20
602.4622846452835
 30
0.0
 10
1029.598183976157
 20
602.5008182793103
 30
0.0
 10
1029.598183976157
 20
602.5008194301758
 30
0.0
 10
1029.598183976157
 20
602.5008205810398
 30
0.0
 10
1029.598183976157
 20
602.5008217319024
 30
0.0
 10
1029.598183976157
 20
602.5393548833455
 30
0.0
 10
1029.598183976157
 20
602.5762269753896
 30
0.0
 10
1029.598183976157
 20
602.6117821505716
 30
0.0
 10
1029.598183976157
 20
602.6117835664647
 30
0.0
 10
1029.598183976157
 20
602.6117849823558
 30
0.0
 10
1029.598183976157
 20
602.6117863982448
 30
0.0
 10
1029.598183976157
 20
602.6473411145692
 30
0.0
 10
1029.598183976157
 20
602.6815765096094
 30
0.0
 10
1029.598183976157
 20
602.7147493434836
 30
0.0
 10
1029.598183976157
 20
602.7147509947783
 30
0.0
 10
1029.598183976157
 20
602.7147526460703
 30
0.0
 10
1029.598183976157
 20
602.7147542973597
 30
0.0
 10
1029.598183976157
 20
602.7479266951911
 30
0.0
 10
1029.598183976157
 20
602.7800350912364
 30
0.0
 10
1029.598183976157
 20
602.8112776406029
 30
0.0
 10
1029.598183976157
 20
602.8112795068712
 30
0.0
 10
1029.598183976157
 20
602.811281373136
 30
0.0
 10
1029.598183976157
 20
602.8112832393979
 30
0.0
 10
1029.598183976157
 20
602.8425275597283
 30
0.0
 10
1029.598183976157
 20
602.8729049846113
 30
0.0
 10
1029.598183976157
 20
602.9025729223723
 30
0.0
 10
1029.598183976157
 20
602.9322384818604
 30
0.0
 10
1029.598183976157
 20
602.961194420525
 30
0.0
 10
1029.598183976157
 20
602.9895676823894
 30
0.0
 10
1029.598183976157
 20
602.989569940528
 30
0.0
 10
1029.598183976157
 20
602.9895721986629
 30
0.0
 10
1029.598183976157
 20
602.9895744567941
 30
0.0
 10
1029.598183976157
 20
603.0463225065005
 30
0.0
 10
1029.598183976157
 20
603.1007497432718
 30
0.0
 10
1029.598183976157
 20
603.1536490034175
 30
0.0
 10
1029.598183976157
 20
603.1536510680401
 30
0.0
 10
1029.598183976157
 20
603.1536531326601
 30
0.0
 10
1029.598183976157
 20
603.153655197278
 30
0.0
 10
1029.598183976157
 20
603.2065543785136
 30
0.0
 10
1029.598183976157
 20
603.257918042318
 30
0.0
 10
1029.598183976157
 20
603.3083456614279
 30
0.0
 10
1029.598183976157
 20
603.3083468586298
 30
0.0
 10
1029.598183976157
 20
603.3083480558311
 30
0.0
 10
1029.598183976157
 20
603.308349253032
 30
0.0
 10
1029.598183976157
 20
603.3587775986282
 30
0.0
 10
1029.598183976157
 20
603.4082648410796
 30
0.0
 10
1029.598183976157
 20
603.4573068891876
 30
0.0
 10
1029.598183976157
 20
603.4573073251472
 30
0.0
 10
1029.598183976157
 20
603.4573077611066
 30
0.0
 10
1029.598183976157
 20
603.4573081970663
 30
0.0
 10
1029.598183976157
 20
603.5063509655701
 30
0.0
 10
1029.598183976157
 20
603.5549646812063
 30
0.0
 10
1029.598183976157
 20
603.6035396123667
 30
0.0
  0
ARC
  5
213
330
6C
100
AcDbEntity
  8
Sichtbare Kanten(ISO)
100
AcDbCircle
 10
1031.598183976157
 20
601.6035396123665
 30
0.0
 40
1.999999999999886
100
AcDbArc
 50
89.99999999999618
 51
180.0
  0
ARC
  5
214
330
6C
100
AcDbEntity
  8
Sichtbare Kanten(ISO)
100
AcDbCircle
 10
1102.598183976157
 20
601.6035396123665
 30
0.0
 40
1.999999999999886
100
AcDbArc
 50
0.0
 51
90.00000000000383
  0
LINE
  5
215
330
6C
100
AcDbEntity
  8
Sichtbare Kanten(ISO)
100
AcDbLine
 10
1029.598183976157
 20
603.6035396123667
 30
0.0
 11
1029.598183976157
 21
623.6035396123666
 31
0.0
  0
LINE
  5
216
330
6C
100
AcDbEntity
  8
Sichtbare Kanten(ISO)
100
AcDbLine
 10
1104.598183976157
 20
603.6035396707618
 30
0.0
 11
1104.598183976157
 21
623.6035396123666
 31
0.0
  0
ARC
  5
217
330
6C
100
AcDbEntity
  8
Sichtbare Kanten(ISO)
100
AcDbCircle
 10
1102.598183976157
 20
623.6035396123667
 30
0.0
 40
2.0
100
AcDbArc
 50
0.0
 51
90.0
  0
ARC
  5
218
330
6C
100
AcDbEntity
  8
Sichtbare Kanten(ISO)
100
AcDbCircle
 10
1031.598183976157
 20
623.6035396123667
 30
0.0
 40
2.0
100
AcDbArc
 50
90.0
 51
180.0
  0
LINE
  5
219
330
6C
100
AcDbEntity
  8
Sichtbare Kanten(ISO)
100
AcDbLine
 10
1024.909231171414
 20
637.6035396123665
 30
0.0
 11
1023.413851568692
 21
637.6035396123665
 31
0.0
  0
LINE
  5
21A
330
6C
100
AcDbEntity
  8
Sichtbare Kanten(ISO)
100
AcDbLine
 10
1023.413851568692
 20
637.6035396123665
 30
0.0
 11
1018.74757682149
 21
637.6035396123667
 31
0.0
  0
LINE
  5
21B
330
6C
100
AcDbEntity
  8
Sichtbare Kanten(ISO)
100
AcDbLine
 10
1018.74757682149
 20
637.6035396123668
 30
0.0
 11
1018.598183976178
 21
637.6035396123668
 31
0.0
  0
LINE
  5
21C
330
6C
100
AcDbEntity
  8
Sichtbare Kanten(ISO)
100
AcDbLine
 10
1115.598183976177
 20
637.6035396123668
 30
0.0
 11
1115.448791130865
 21
637.6035396123668
 31
0.0
  0
LINE
  5
21D
330
6C
100
AcDbEntity
  8
Sichtbare Kanten(ISO)
100
AcDbLine
 10
1115.448791130865
 20
637.6035396123668
 30
0.0
 11
1110.782516383664
 21
637.6035396123665
 31
0.0
  0
LINE
  5
21E
330
6C
100
AcDbEntity
  8
Sichtbare Kanten(ISO)
100
AcDbLine
 10
1110.782516383664
 20
637.6035396123665
 30
0.0
 11
1109.287136780942
 21
637.6035396123665
 31
0.0
  0
LINE
  5
21F
330
6C
100
AcDbEntity
  8
Sichtbare Kanten(ISO)
100
AcDbLine
 10
1109.287136780942
 20
637.6035396123665
 30
0.0
 11
1024.909231171414
 21
637.6035396123665
 31
0.0
  0
LINE
  5
220
330
6C
100
AcDbEntity
  8
Sichtbare Kanten(ISO)
100
AcDbLine
 10
1116.598183976178
 20
649.6035396123667
 30
0.0
 11
1116.598183976178
 21
638.6035396123666
 31
0.0
  0
LINE
  5
221
330
6C
100
AcDbEntity
  8
Sichtbare Kanten(ISO)
100
AcDbLine
 10
1017.598183976178
 20
649.6035396123667
 30
0.0
 11
1017.598183976178
 21
638.6035396123666
 31
0.0
  0
ARC
  5
222
330
6C
100
AcDbEntity
  8
Sichtbare Kanten(ISO)
100
AcDbCircle
 10
1115.598183976178
 20
638.6035396123666
 30
0.0
 40
1.0
100
AcDbArc
 50
270.0
 51
0.0
  0
ARC
  5
223
330
6C
100
AcDbEntity
  8
Sichtbare Kanten(ISO)
100
AcDbCircle
 10
1018.598183976178
 20
638.6035396123666
 30
0.0
 40
1.0
100
AcDbArc
 50
180.0
 51
270.0
  0
SPLINE
  5
224
330
6C
100
AcDbEntity
  8
Sichtbare Kanten(ISO)
100
AcDbSpline
210
0.0
220
0.0
230
1.0
 70
    24
 71
     3
 72
    50
 73
    46
 74
     0
 42
0.0000000001
 43
0.0000000001
 40
0.0
 40
0.0
 40
0.0
 40
0.0
 40
0.1181698404709378
 40
0.1181698404709378
 40
0.1181698404709378
 40
0.125
 40
0.125
 40
0.125
 40
0.2437454111236761
 40
0.2437454111236761
 40
0.2437454111236761
 40
0.25
 40
0.25
 40
0.25
 40
0.3694805948361688
 40
0.3694805948361688
 40
0.3694805948361688
 40
0.375
 40
0.375
 40
0.375
 40
0.4953580206875014
 40
0.4953580206875014
 40
0.4953580206875014
 40
0.5
 40
0.5
 40
0.5
 40
0.6213619743648512
 40
0.6213619743648512
 40
0.6213619743648512
 40
0.6249999999999991
 40
0.6249999999999991
 40
0.6249999999999991
 40
0.7474783850839363
 40
0.7474783850839363
 40
0.7474783850839363
 40
0.7499999999999991
 40
0.7499999999999991
 40
0.7499999999999991
 40
0.8736947463479015
 40
0.8736947463479015
 40
0.8736947463479015
 40
0.875
 40
0.875
 40
0.875
 40
1.0
 40
1.0
 40
1.0
 40
1.0
 10
542.1929617944347
 20
1573.349212053845
 30
0.0
 10
542.1929617944349
 20
1573.534127743197
 30
0.0
 10
542.1929617944352
 20
1573.730511811706
 30
0.0
 10
542.1929617944353
 20
1573.937209396855
 30
0.0
 10
542.1929617944353
 20
1573.949156417137
 30
0.0
 10
542.1929617944355
 20
1573.961137893134
 30
0.0
 10
542.1929617944355
 20
1573.973153617981
 30
0.0
 10
542.1929617944356
 20
1574.182052426395
 30
0.0
 10
542.1929617944358
 20
1574.40130022356
 30
0.0
 10
542.1929617944361
 20
1574.629816073773
 30
0.0
 10
542.1929617944361
 20
1574.641852519487
 30
0.0
 10
542.1929617944361
 20
1574.653914679718
 30
0.0
 10
542.1929617944361
 20
1574.666002410456
 30
0.0
 10
542.1929617944364
 20
1574.896912752819
 30
0.0
 10
542.1929617944368
 20
1575.13715166095
 30
0.0
 10
542.1929617944369
 20
1575.385720235034
 30
0.0
 10
542.1929617944369
 20
1575.397202858411
 30
0.0
 10
542.1929617944369
 20
1575.408703258895
 30
0.0
 10
542.1929617944369
 20
1575.420221347894
 30
0.0
 10
542.192961794437
 20
1575.671388702494
 30
0.0
 10
542.1929617944374
 20
1575.930964283116
 30
0.0
 10
542.1929617944376
 20
1576.198033061368
 30
0.0
 10
542.1929617944376
 20
1576.208333394795
 30
0.0
 10
542.1929617944377
 20
1576.218644875818
 30
0.0
 10
542.1929617944377
 20
1576.228967457674
 30
0.0
 10
542.1929617944377
 20
1576.498845634695
 30
0.0
 10
542.1929617944382
 20
1576.776308572974
 30
0.0
 10
542.1929617944384
 20
1577.060522845645
 30
0.0
 10
542.1929617944384
 20
1577.069042637905
 30
0.0
 10
542.1929617944384
 20
1577.077568497862
 30
0.0
 10
542.1929617944384
 20
1577.086100405663
 30
0.0
 10
542.1929617944385
 20
1577.373337053751
 30
0.0
 10
542.1929617944389
 20
1577.667425585471
 30
0.0
 10
542.192961794439
 20
1577.967609594705
 30
0.0
 10
542.192961794439
 20
1577.973789856429
 30
0.0
 10
542.192961794439
 20
1577.979972702324
 30
0.0
 10
542.1929617944392
 20
1577.986158126584
 30
0.0
 10
542.1929617944393
 20
1578.289576574795
 30
0.0
 10
542.1929617944396
 20
1578.599196844014
 30
0.0
 10
542.1929617944398
 20
1578.914333745053
 30
0.0
 10
542.1929617944398
 20
1578.917659137627
 30
0.0
 10
542.1929617944398
 20
1578.920985144599
 30
0.0
 10
542.1929617944398
 20
1578.924311765263
 30
0.0
 10
542.1929617944399
 20
1579.242891669093
 30
0.0
 10
542.1929617944402
 20
1579.567098265384
 30
0.0
 10
542.1929617944405
 20
1579.896310254026
 30
0.0
  0
SPLINE
  5
225
330
6C
100
AcDbEntity
  8
Sichtbare Kanten(ISO)
100
AcDbSpline
210
0.0
220
0.0
230
1.0
 70
     8
 71
     3
 72
    16
 73
    12
 74
     0
 42
0.0000000001
 43
0.0000000001
 40
0.0
 40
0.0
 40
0.0
 40
0.0
 40
0.181144175271399
 40
0.181144175271399
 40
0.3042922905254699
 40
0.3042922905254699
 40
0.3751342849930292
 40
0.3751342849930292
 40
0.4091166734838272
 40
0.4091166734838272
 40
0.4422990958118011
 40
0.4422990958118011
 40
0.4422990958118011
 40
0.4422990958118011
 10
543.2955258220099
 20
1572.103539264728
 30
0.0
 10
543.029156400486
 20
1572.1035400526
 30
0.0
 10
542.8011502289225
 20
1572.177030039289
 30
0.0
 10
542.5028220751181
 20
1572.404425119332
 30
0.0
 10
542.4047692261503
 20
1572.52523646879
 30
0.0
 10
542.2911031374748
 20
1572.758286584634
 30
0.0
 10
542.2547375488915
 20
1572.859554917172
 30
0.0
 10
542.2174074281834
 20
1573.036403783178
 30
0.0
 10
542.2081101267065
 20
1573.096778951064
 30
0.0
 10
542.1958732436892
 20
1573.222165907545
 30
0.0
 10
542.1929617944347
 20
1573.285256140893
 30
0.0
 10
542.1929617944347
 20
1573.349212050991
 30
0.0
  0
SPLINE
  5
226
330
6C
100
AcDbEntity
  8
Sichtbare Kanten(ISO)
100
AcDbSpline
210
0.0
220
0.0
230
1.0
 70
     8
 71
     3
 72
    16
 73
    12
 74
     0
 42
0.0000000001
 43
0.0000000001
 40
0.0
 40
0.0
 40
0.0
 40
0.0
 40
0.0192023683698048
 40
0.0192023683698048
 40
0.038868795847481
 40
0.038868795847481
 40
0.0798497436881808
 40
0.0798497436881808
 40
0.1511239983150637
 40
0.1511239983150637
 40
0.2558203575512254
 40
0.2558203575512254
 40
0.2558203575512254
 40
0.2558203575512254
 10
563.9942776402201
 20
1573.34921205149
 30
0.0
 10
563.9942776402201
 20
1573.285204156924
 30
0.0
 10
563.9871720386097
 20
1573.222064136457
 30
0.0
 10
563.9573831640253
 20
1573.096578295291
 30
0.0
 10
563.9347713805872
 20
1573.036158676036
 30
0.0
 10
563.8443933147719
 20
1572.859243940268
 30
0.0
 10
563.7568524639863
 20
1572.757963872776
 30
0.0
 10
563.4868553558752
 20
1572.52484394493
 30
0.0
 10
563.2571571470322
 20
1572.404017182745
 30
0.0
 10
562.5839793050399
 20
1572.176896207074
 30
0.0
 10
562.0885564108862
 20
1572.103540050012
 30
0.0
 10
561.5471663842685
 20
1572.103539263907
 30
0.0
  0
SPLINE
  5
227
330
6C
100
AcDbEntity
  8
Sichtbare Kanten(ISO)
100
AcDbSpline
210
0.0
220
0.0
230
1.0
 70
     8
 71
     3
 72
    16
 73
    12
 74
     0
 42
0.0000000001
 43
0.0000000001
 40
0.0
 40
0.0
 40
0.0
 40
0.0
 40
0.0192023683697209
 40
0.0192023683697209
 40
0.0388687958472587
 40
0.0388687958472587
 40
0.0798497436876324
 40
0.0798497436876324
 40
0.1511239983145557
 40
0.1511239983145557
 40
0.2558203575470561
 40
0.2558203575470561
 40
0.2558203575470561
 40
0.2558203575470561
 10
616.1929617944346
 20
1573.349212051492
 30
0.0
 10
616.1929617944346
 20
1573.285204156926
 30
0.0
 10
616.1900456139409
 20
1573.222064136459
 30
0.0
 10
616.1777885404224
 20
1573.096578295293
 30
0.0
 10
616.1684757345531
 20
1573.036158676039
 30
0.0
 10
616.1310967395089
 20
1572.859243940272
 30
0.0
 10
616.0946957645797
 20
1572.757963872781
 30
0.0
 10
615.9809058584089
 20
1572.524843944935
 30
0.0
 10
615.882729838418
 20
1572.404017182748
 30
0.0
 10
615.5843567751552
 20
1572.17689620708
 30
0.0
 10
615.3565242302017
 20
1572.103540050012
 30
0.0
 10
615.0903977670349
 20
1572.103539263907
 30
0.0
  0
SPLINE
  5
228
330
6C
100
AcDbEntity
  8
Sichtbare Kanten(ISO)
100
AcDbSpline
210
0.0
220
0.0
230
1.0
 70
    24
 71
     3
 72
    50
 73
    46
 74
     0
 42
0.0000000001
 43
0.0000000001
 40
0.0
 40
0.0
 40
0.0
 40
0.0
 40
0.125
 40
0.125
 40
0.125
 40
0.1263011860470309
 40
0.1263011860470309
 40
0.1263011860470309
 40
0.25
 40
0.25
 40
0.25
 40
0.2525134843147346
 40
0.2525134843147346
 40
0.2525134843147346
 40
0.375
 40
0.375
 40
0.375
 40
0.3786258387035168
 40
0.3786258387035168
 40
0.3786258387035168
 40
0.5
 40
0.5
 40
0.5
 40
0.50462574464568
 40
0.50462574464568
 40
0.50462574464568
 40
0.625
 40
0.625
 40
0.625
 40
0.6304991332555697
 40
0.6304991332555697
 40
0.6304991332555697
 40
0.75
 40
0.75
 40
0.75
 40
0.7562302921446819
 40
0.7562302921446819
 40
0.7562302921446819
 40
0.875
 40
0.875
 40
0.875
 40
0.8818018510282714
 40
0.8818018510282714
 40
0.8818018510282714
 40
1.0
 40
1.0
 40
1.0
 40
1.0
 10
616.1929617944405
 20
1579.896310254027
 30
0.0
 10
616.1929617944402
 20
1579.567098265395
 30
0.0
 10
616.1929617944399
 20
1579.24289167792
 30
0.0
 10
616.1929617944398
 20
1578.924312058326
 30
0.0
 10
616.1929617944398
 20
1578.920995807479
 30
0.0
 10
616.1929617944398
 20
1578.917680166411
 30
0.0
 10
616.1929617944398
 20
1578.914365135826
 30
0.0
 10
616.1929617944395
 20
1578.599217772713
 30
0.0
 10
616.1929617944393
 20
1578.289586568235
 30
0.0
 10
616.192961794439
 20
1577.986158449339
 30
0.0
 10
616.192961794439
 20
1577.97999297537
 30
0.0
 10
616.192961794439
 20
1577.973830062782
 30
0.0
 10
616.192961794439
 20
1577.967669717344
 30
0.0
 10
616.1929617944387
 20
1577.667465238766
 30
0.0
 10
616.1929617944385
 20
1577.373356135165
 30
0.0
 10
616.1929617944383
 20
1577.086100675962
 30
0.0
 10
616.1929617944383
 20
1577.077597356588
 30
0.0
 10
616.1929617944382
 20
1577.069100043932
 30
0.0
 10
616.1929617944382
 20
1577.060608757687
 30
0.0
 10
616.1929617944381
 20
1576.776364799058
 30
0.0
 10
616.1929617944378
 20
1576.498872744054
 30
0.0
 10
616.1929617944375
 20
1576.228967623382
 30
0.0
 10
616.1929617944375
 20
1576.21868114928
 30
0.0
 10
616.1929617944375
 20
1576.208405697814
 30
0.0
 10
616.1929617944375
 20
1576.1981413153
 30
0.0
 10
616.1929617944373
 20
1575.931034612181
 30
0.0
 10
616.1929617944372
 20
1575.671422582786
 30
0.0
 10
616.1929617944369
 20
1575.420221337757
 30
0.0
 10
616.1929617944367
 20
1575.408745552372
 30
0.0
 10
616.1929617944367
 20
1575.397287325851
 30
0.0
 10
616.1929617944367
 20
1575.385846745803
 30
0.0
 10
616.1929617944365
 20
1575.13723316102
 30
0.0
 10
616.1929617944364
 20
1574.896951931426
 30
0.0
 10
616.1929617944361
 20
1574.666002329751
 30
0.0
 10
616.1929617944361
 20
1574.653961551066
 30
0.0
 10
616.1929617944361
 20
1574.641946145202
 30
0.0
 10
616.1929617944361
 20
1574.629956254443
 30
0.0
 10
616.1929617944358
 20
1574.401389794059
 30
0.0
 10
616.1929617944356
 20
1574.182095172611
 30
0.0
 10
616.1929617944353
 20
1573.973153619528
 30
0.0
 10
616.1929617944353
 20
1573.96118769536
 30
0.0
 10
616.1929617944353
 20
1573.949255736696
 30
0.0
 10
616.1929617944353
 20
1573.937357947836
 30
0.0
 10
616.192961794435
 20
1573.730605901329
 30
0.0
 10
616.1929617944349
 20
1573.534172043781
 30
0.0
 10
616.1929617944346
 20
1573.349212054322
 30
0.0
  0
SPLINE
  5
229
330
6C
100
AcDbEntity
  8
Sichtbare Kanten(ISO)
100
AcDbSpline
210
0.0
220
0.0
230
1.0
 70
     8
 71
     3
 72
    16
 73
    12
 74
     0
 42
0.0000000001
 43
0.0000000001
 40
0.0
 40
0.0
 40
0.0
 40
0.0
 40
0.1811441752590921
 40
0.1811441752590921
 40
0.3042922904987264
 40
0.3042922904987264
 40
0.3751342849598326
 40
0.3751342849598326
 40
0.4091166734476157
 40
0.4091166734476157
 40
0.4422990957726398
 40
0.4422990957726398
 40
0.4422990957726398
 40
0.4422990957726398
 10
596.8387572046349
 20
1572.103539264728
 30
0.0
 10
596.2968729196724
 20
1572.103540052601
 30
0.0
 10
595.8010369770443
 20
1572.177030039281
 30
0.0
 10
595.1279056606721
 20
1572.404425119333
 30
0.0
 10
594.8984834173191
 20
1572.525236468791
 30
0.0
 10
594.6287724865944
 20
1572.758286584632
 30
0.0
 10
594.5413150293311
 20
1572.85955491717
 30
0.0
 10
594.4510541384103
 20
1573.036403783177
 30
0.0
 10
594.4284798972915
 20
1573.096778951063
 30
0.0
 10
594.3987400118349
 20
1573.222165907545
 30
0.0
 10
594.3916459486678
 20
1573.285256140893
 30
0.0
 10
594.3916459486675
 20
1573.349212050991
 30
0.0
  0
LINE
  5
22A
330
6C
100
AcDbEntity
  8
Sichtbare Kanten(ISO)
100
AcDbLine
 10
616.1929617944399
 20
1738.103539612383
 30
0.0
 11
616.1929617944405
 21
1579.896310254027
 31
0.0
  0
ARC
  5
22B
330
6C
100
AcDbEntity
  8
Sichtbare Kanten(ISO)
100
AcDbCircle
 10
614.1929617944399
 20
1738.103539612383
 30
0.0
 40
1.999999999999992
100
AcDbArc
 50
0.0
 51
90.0
  0
LINE
  5
22C
330
6C
100
AcDbEntity
  8
Sichtbare Kanten(ISO)
100
AcDbLine
 10
544.1929617944399
 20
1740.103539612382
 30
0.0
 11
614.1929617944399
 21
1740.103539612382
 31
0.0
  0
ARC
  5
22D
330
6C
100
AcDbEntity
  8
Sichtbare Kanten(ISO)
100
AcDbCircle
 10
544.1929617944399
 20
1738.103539612383
 30
0.0
 40
1.999999999999957
100
AcDbArc
 50
90.0
 51
180.0
  0
LINE
  5
22E
330
6C
100
AcDbEntity
  8
Sichtbare Kanten(ISO)
100
AcDbLine
 10
542.1929617944405
 20
1579.896310254026
 30
0.0
 11
542.1929617944399
 21
1738.103539612383
 31
0.0
  0
LINE
  5
22F
330
6C
100
AcDbEntity
  8
Sichtbare Kanten(ISO)
100
AcDbLine
 10
522.6929617944374
 20
1722.603539612382
 30
0.0
 11
535.6929617944337
 21
1709.603539612382
 31
0.0
  0
LINE
  5
230
330
6C
100
AcDbEntity
  8
Sichtbare Kanten(ISO)
100
AcDbLine
 10
509.6929617944337
 20
1709.603539612382
 30
0.0
 11
522.6929617944374
 21
1722.603539612382
 31
0.0
  0
LINE
  5
231
330
6C
100
AcDbEntity
  8
Sichtbare Kanten(ISO)
100
AcDbLine
 10
546.121070406134
 20
1537.103539612383
 30
0.0
 11
546.121070406134
 21
1547.103539612383
 31
0.0
  0
LINE
  5
232
330
6C
100
AcDbEntity
  8
Sichtbare Kanten(ISO)
100
AcDbLine
 10
541.6929617944401
 20
1547.103539612383
 30
0.0
 11
546.121070406134
 21
1547.103539612383
 31
0.0
  0
LINE
  5
233
330
6C
100
AcDbEntity
  8
Sichtbare Kanten(ISO)
100
AcDbLine
 10
541.6929617944401
 20
1547.103539612383
 30
0.0
 11
541.6929617944401
 21
1537.103539612383
 31
0.0
  0
LINE
  5
234
330
6C
100
AcDbEntity
  8
Sichtbare Kanten(ISO)
100
AcDbLine
 10
616.6929617944401
 20
1537.103539612383
 30
0.0
 11
616.6929617944401
 21
1547.103539612383
 31
0.0
  0
LINE
  5
235
330
6C
100
AcDbEntity
  8
Sichtbare Kanten(ISO)
100
AcDbLine
 10
612.2648531827488
 20
1547.103539612383
 30
0.0
 11
616.6929617944401
 21
1547.103539612383
 31
0.0
  0
LINE
  5
236
330
6C
100
AcDbEntity
  8
Sichtbare Kanten(ISO)
100
AcDbLine
 10
612.2648531827487
 20
1547.103539612383
 30
0.0
 11
612.2648531827488
 21
1537.103539612383
 31
0.0
  0
LINE
  5
237
330
6C
100
AcDbEntity
  8
Sichtbare Kanten(ISO)
100
AcDbLine
 10
596.8387572140147
 20
1572.103539612382
 30
0.0
 11
615.0903976918715
 21
1572.103539612382
 31
0.0
  0
LINE
  5
238
330
6C
100
AcDbEntity
  8
Sichtbare Kanten(ISO)
100
AcDbLine
 10
616.1929617944348
 20
1547.103539612383
 30
0.0
 11
616.1929617944346
 21
1573.349212054112
 31
0.0
  0
LINE
  5
239
330
6C
100
AcDbEntity
  8
Sichtbare Kanten(ISO)
100
AcDbLine
 10
594.3916459523668
 20
1573.349212053633
 30
0.0
 11
594.3916459480119
 21
1547.103539612383
 31
0.0
  0
LINE
  5
23A
330
6C
100
AcDbEntity
  8
Sichtbare Kanten(ISO)
100
AcDbLine
 10
543.2955258969992
 20
1572.103539612382
 30
0.0
 11
561.5471663748667
 21
1572.103539612382
 31
0.0
  0
LINE
  5
23B
330
6C
100
AcDbEntity
  8
Sichtbare Kanten(ISO)
100
AcDbLine
 10
563.9942776408706
 20
1547.103539612383
 30
0.0
 11
563.9942776365519
 21
1573.34921205411
 31
0.0
  0
LINE
  5
23C
330
6C
100
AcDbEntity
  8
Sichtbare Kanten(ISO)
100
AcDbLine
 10
542.1929617944347
 20
1573.349212053632
 30
0.0
 11
542.1929617944348
 21
1547.103539612383
 31
0.0
  0
LINE
  5
23D
330
6C
100
AcDbEntity
  8
Sichtbare Kanten(ISO)
100
AcDbLine
 10
612.2648531827487
 20
1547.103539612383
 30
0.0
 11
546.121070406134
 21
1547.103539612383
 31
0.0
  0
SPLINE
  5
23E
330
6C
100
AcDbEntity
  8
Sichtbare Kanten(ISO)
100
AcDbSpline
210
0.0
220
0.0
230
1.0
 70
     8
 71
     3
 72
    39
 73
    35
 74
     0
 42
0.0000000001
 43
0.0000000001
 40
6.637612353357836
 40
6.637612353357836
 40
6.63761235335784
 40
6.63761235335784
 40
6.893844424436581
 40
6.893844424436581
 40
7.150076495515325
 40
7.150076495515325
 40
7.662540637672815
 40
7.662540637672815
 40
7.959442929373889
 40
7.959442929373889
 40
8.256345221074964
 40
8.256345221074964
 40
8.553247512776039
 40
8.553247512776039
 40
8.701698658626575
 40
8.701698658626575
 40
8.850149804477112
 40
8.850149804477112
 40
8.850149804477112
 40
8.998600950327649
 40
8.998600950327649
 40
9.147052096178187
 40
9.147052096178187
 40
9.443954387879262
 40
9.443954387879262
 40
9.740856679580335
 40
9.740856679580335
 40
10.03775897128141
 40
10.03775897128141
 40
10.5502231134389
 40
10.5502231134389
 40
10.80645518451764
 40
10.80645518451764
 40
11.06268725559639
 40
11.06268725559639
 40
11.06268725559639
 40
11.06268725559639
 10
535.6929617944335
 20
1735.103539612383
 30
0.0
 10
535.6929617944338
 20
1735.103539612383
 30
0.0
 10
535.6074266609184
 20
1735.014656339868
 30
0.0
 10
535.2705906443012
 20
1734.663770253671
 30
0.0
 10
535.0194359083076
 20
1734.401916629991
 30
0.0
 10
534.0688420724196
 20
1733.406298415216
 30
0.0
 10
533.1624015850675
 20
1732.452515818802
 30
0.0
 10
531.6831682045102
 20
1730.857136729782
 30
0.0
 10
531.0935804633218
 20
1730.21387343217
 30
0.0
 10
529.8858175692185
 20
1728.855256334463
 30
0.0
 10
529.2670285893056
 20
1728.140601291424
 30
0.0
 10
528.0917647562457
 20
1726.676348390863
 30
0.0
 10
527.5375483957012
 20
1725.937710506048
 30
0.0
 10
526.8606947484469
 20
1724.775848129101
 30
0.0
 10
526.6621228930675
 20
1724.380604691356
 30
0.0
 10
526.3639892129475
 20
1723.541705753275
 30
0.0
 10
526.2636760087088
 20
1723.098376765218
 30
0.0
 10
526.2636760087088
 20
1722.603539612382
 30
0.0
 10
526.2636760087088
 20
1722.108702459547
 30
0.0
 10
526.3639892129475
 20
1721.665373471489
 30
0.0
 10
526.6621228930675
 20
1720.826474533408
 30
0.0
 10
526.8606947484469
 20
1720.431231095664
 30
0.0
 10
527.5375483957013
 20
1719.269368718717
 30
0.0
 10
528.0917647562459
 20
1718.530730833902
 30
0.0
 10
529.2670285893056
 20
1717.066477933341
 30
0.0
 10
529.8858175692185
 20
1716.351822890302
 30
0.0
 10
531.0935804633219
 20
1714.993205792595
 30
0.0
 10
531.6831682045103
 20
1714.349942494983
 30
0.0
 10
533.1624015850676
 20
1712.754563405963
 30
0.0
 10
534.0688420724196
 20
1711.800780809549
 30
0.0
 10
535.0194359083078
 20
1710.805162594773
 30
0.0
 10
535.2705906443013
 20
1710.543308971094
 30
0.0
 10
535.6074266609185
 20
1710.192422884897
 30
0.0
 10
535.6929617944339
 20
1710.103539612382
 30
0.0
 10
535.6929617944337
 20
1710.103539612382
 30
0.0
  0
LINE
  5
23F
330
6C
100
AcDbEntity
  8
Sichtbare Kanten(ISO)
100
AcDbLine
 10
529.6929617944332
 20
1814.603539612383
 30
0.0
 11
515.6929617944333
 21
1814.603539612383
 31
0.0
  0
LINE
  5
240
330
6C
100
AcDbEntity
  8
Sichtbare Kanten(ISO)
100
AcDbLine
 10
535.6929617944333
 20
1802.603539612382
 30
0.0
 11
509.6929617944333
 21
1802.603539612382
 31
0.0
  0
LINE
  5
241
330
6C
100
AcDbEntity
  8
Sichtbare Kanten(ISO)
100
AcDbLine
 10
509.6929617944337
 20
1709.603539612382
 30
0.0
 11
535.6929617944337
 21
1709.603539612382
 31
0.0
  0
LINE
  5
242
330
6C
100
AcDbEntity
  8
Sichtbare Kanten(ISO)
100
AcDbLine
 10
535.6929617944335
 20
1735.103539612383
 30
0.0
 11
542.1929617944336
 21
1735.103539612383
 31
0.0
  0
LINE
  5
243
330
6C
100
AcDbEntity
  8
Sichtbare Kanten(ISO)
100
AcDbLine
 10
535.6929617944337
 20
1710.103539612382
 30
0.0
 11
542.1929617944337
 21
1710.103539612382
 31
0.0
  0
ARC
  5
244
330
6C
100
AcDbEntity
  8
Sichtbare Kanten(ISO)
100
AcDbCircle
 10
515.6929617944333
 20
1811.603539612383
 30
0.0
 40
3.0
100
AcDbArc
 50
90.00000000000127
 51
180.0
  0
ARC
  5
245
330
6C
100
AcDbEntity
  8
Sichtbare Kanten(ISO)
100
AcDbCircle
 10
529.6929617944333
 20
1811.603539612383
 30
0.0
 40
3.0
100
AcDbArc
 50
0.0
 51
90.00000000000127
  0
LINE
  5
246
330
6C
100
AcDbEntity
  8
Sichtbare Kanten(ISO)
100
AcDbLine
 10
512.6929617944333
 20
1802.603539612382
 30
0.0
 11
512.6929617944333
 21
1811.603539612383
 31
0.0
  0
LINE
  5
247
330
6C
100
AcDbEntity
  8
Sichtbare Kanten(ISO)
100
AcDbLine
 10
532.6929617944333
 20
1802.603539612382
 30
0.0
 11
532.6929617944333
 21
1811.603539612383
 31
0.0
  0
LINE
  5
248
330
6C
100
AcDbEntity
  8
Sichtbare Kanten(ISO)
100
AcDbLine
 10
535.6929617944333
 20
1802.603539612382
 30
0.0
 11
535.6929617944335
 21
1735.103539612383
 31
0.0
  0
LINE
  5
249
330
6C
100
AcDbEntity
  8
Sichtbare Kanten(ISO)
100
AcDbLine
 10
535.6929617944337
 20
1710.103539612382
 30
0.0
 11
535.6929617944337
 21
1709.603539612382
 31
0.0
  0
LINE
  5
24A
330
6C
100
AcDbEntity
  8
Sichtbare Kanten(ISO)
100
AcDbLine
 10
509.6929617944333
 20
1802.603539612382
 30
0.0
 11
509.6929617944335
 21
1709.603539612382
 31
0.0
  0
LINE
  5
24B
330
6C
100
AcDbEntity
  8
Sichtbare Kanten(ISO)
100
AcDbLine
 10
496.6929617944428
 20
1537.103539612381
 30
0.0
 11
498.9968903522333
 21
1537.103539612381
 31
0.0
  0
LINE
  5
24C
330
6C
100
AcDbEntity
  8
Sichtbare Kanten(ISO)
100
AcDbLine
 10
501.4863223352358
 20
1537.103539612381
 30
0.0
 11
498.9968903522332
 21
1537.103539612381
 31
0.0
  0
LINE
  5
24D
330
6C
100
AcDbEntity
  8
Sichtbare Kanten(ISO)
100
AcDbLine
 10
501.4863223352358
 20
1537.103539612381
 30
0.0
 11
501.6039652005615
 21
1537.103539612381
 31
0.0
  0
LINE
  5
24E
330
6C
100
AcDbEntity
  8
Sichtbare Kanten(ISO)
100
AcDbLine
 10
501.6039652005615
 20
1537.103539612381
 30
0.0
 11
501.6857062822645
 21
1537.103539612381
 31
0.0
  0
LINE
  5
24F
330
6C
100
AcDbEntity
  8
Sichtbare Kanten(ISO)
100
AcDbLine
 10
622.6047148057233
 20
1537.103539612381
 30
0.0
 11
622.7819583883245
 21
1537.103539612381
 31
0.0
  0
LINE
  5
250
330
6C
100
AcDbEntity
  8
Sichtbare Kanten(ISO)
100
AcDbLine
 10
622.7819583883245
 20
1537.103539612381
 30
0.0
 11
622.899601253651
 21
1537.103539612381
 31
0.0
  0
LINE
  5
251
330
6C
100
AcDbEntity
  8
Sichtbare Kanten(ISO)
100
AcDbLine
 10
625.3890332366535
 20
1537.103539612381
 30
0.0
 11
622.899601253651
 21
1537.103539612381
 31
0.0
  0
LINE
  5
252
330
6C
100
AcDbEntity
  8
Sichtbare Kanten(ISO)
100
AcDbLine
 10
625.3890332366535
 20
1537.103539612381
 30
0.0
 11
627.6929617944425
 21
1537.103539612381
 31
0.0
  0
ELLIPSE
  5
253
330
6C
100
AcDbEntity
  8
Sichtbare Kanten(ISO)
100
AcDbEllipse
 10
507.5551220437471
 20
1501.603539612383
 30
0.0
 11
0.0
 21
-2.599999999999989
 31
0.0
210
0.0
220
0.0
230
1.0
 40
0.9969197351482158
 41
0.0
 42
6.283185307179586
  0
LINE
  5
254
330
6C
100
AcDbEntity
  8
Sichtbare Kanten(ISO)
100
AcDbLine
 10
501.6039652005617
 20
1465.603539612381
 30
0.0
 11
501.6039652005615
 21
1537.103539612381
 31
0.0
  0
LINE
  5
255
330
6C
100
AcDbEntity
  8
Sichtbare Kanten(ISO)
100
AcDbLine
 10
501.486322335236
 20
1465.603539612381
 30
0.0
 11
501.4863223352358
 21
1537.103539612381
 31
0.0
  0
LINE
  5
256
330
6C
100
AcDbEntity
  8
Sichtbare Kanten(ISO)
100
AcDbLine
 10
622.899601253651
 20
1537.103539612381
 30
0.0
 11
622.8996012536513
 21
1465.603539612381
 31
0.0
  0
LINE
  5
257
330
6C
100
AcDbEntity
  8
Sichtbare Kanten(ISO)
100
AcDbLine
 10
622.7819583883246
 20
1465.603539612381
 30
0.0
 11
622.7819583883245
 21
1537.103539612381
 31
0.0
  0
LINE
  5
258
330
6C
100
AcDbEntity
  8
Sichtbare Kanten(ISO)
100
AcDbLine
 10
627.6929617944427
 20
1537.103539612381
 30
0.0
 11
627.6929617944431
 21
1455.603539612381
 31
0.0
  0
LINE
  5
259
330
6C
100
AcDbEntity
  8
Sichtbare Kanten(ISO)
100
AcDbLine
 10
496.6929617944431
 20
1455.603539612381
 30
0.0
 11
496.6929617944427
 21
1537.103539612381
 31
0.0
  0
LINE
  5
25A
330
6C
100
AcDbEntity
  8
Sichtbare Kanten(ISO)
100
AcDbLine
 10
562.1929617944426
 20
1466.103539612382
 30
0.0
 11
562.1929617944426
 21
1465.603539612381
 31
0.0
  0
LINE
  5
25B
330
6C
100
AcDbEntity
  8
Sichtbare Kanten(ISO)
100
AcDbLine
 10
561.9584416748076
 20
1537.103539612383
 30
0.0
 11
501.685706282265
 21
1537.103539612383
 31
0.0
  0
LINE
  5
25C
330
6C
100
AcDbEntity
  8
Sichtbare Kanten(ISO)
100
AcDbLine
 10
561.9584416748076
 20
1537.103539612383
 30
0.0
 11
562.4255421900676
 21
1537.103539612383
 31
0.0
  0
LINE
  5
25D
330
6C
100
AcDbEntity
  8
Sichtbare Kanten(ISO)
100
AcDbLine
 10
562.4255421900676
 20
1537.103539612383
 30
0.0
 11
622.6047148057239
 21
1537.103539612383
 31
0.0
  0
LINE
  5
25E
330
6C
100
AcDbEntity
  8
Sichtbare Kanten(ISO)
100
AcDbLine
 10
562.4255421900678
 20
1466.103539612382
 30
0.0
 11
561.9584416748077
 21
1466.103539612382
 31
0.0
  0
LINE
  5
25F
330
6C
100
AcDbEntity
  8
Sichtbare Kanten(ISO)
100
AcDbLine
 10
501.685706282265
 20
1537.103539612383
 30
0.0
 11
501.685706282265
 21
1466.103539612382
 31
0.0
  0
LINE
  5
260
330
6C
100
AcDbEntity
  8
Sichtbare Kanten(ISO)
100
AcDbLine
 10
501.685706282265
 20
1466.103539612382
 30
0.0
 11
561.9584416748079
 21
1466.103539612382
 31
0.0
  0
ELLIPSE
  5
261
330
6C
100
AcDbEntity
  8
Sichtbare Kanten(ISO)
100
AcDbEllipse
 10
507.4374791784213
 20
1501.603539612383
 30
0.0
 11
0.0
 21
-4.1
 31
0.0
210
0.0
220
0.0
230
1.0
 40
0.9969197351482158
 41
0.0
 42
6.283185307179586
  0
ELLIPSE
  5
262
330
6C
100
AcDbEntity
  8
Sichtbare Kanten(ISO)
100
AcDbEllipse
 10
616.7559994505223
 20
1501.603539612383
 30
0.0
 11
0.0
 21
-2.6
 31
0.0
210
0.0
220
0.0
230
1.0
 40
0.9970100805038605
 41
0.0
 42
6.283185307179586
  0
ELLIPSE
  5
263
330
6C
100
AcDbEntity
  8
Sichtbare Kanten(ISO)
100
AcDbEllipse
 10
616.8719068428267
 20
1501.603539612383
 30
0.0
 11
0.0
 21
-4.099999999999998
 31
0.0
210
0.0
220
0.0
230
1.0
 40
0.9970100805038606
 41
0.0
 42
6.283185307179586
  0
LINE
  5
264
330
6C
100
AcDbEntity
  8
Sichtbare Kanten(ISO)
100
AcDbLine
 10
622.604714805724
 20
1466.103539612382
 30
0.0
 11
562.4255421900678
 21
1466.103539612382
 31
0.0
  0
LINE
  5
265
330
6C
100
AcDbEntity
  8
Sichtbare Kanten(ISO)
100
AcDbLine
 10
622.6047148057239
 20
1537.103539612383
 30
0.0
 11
622.604714805724
 21
1466.103539612382
 31
0.0
  0
LINE
  5
266
330
6C
100
AcDbEntity
  8
Sichtbare Kanten(ISO)
100
AcDbLine
 10
566.0751763502057
 20
1465.603539612381
 30
0.0
 11
622.8996012536513
 21
1465.603539612381
 31
0.0
  0
LINE
  5
267
330
6C
100
AcDbEntity
  8
Sichtbare Kanten(ISO)
100
AcDbLine
 10
501.486322335236
 20
1465.603539612381
 30
0.0
 11
558.3107472386847
 21
1465.603539612381
 31
0.0
  0
LINE
  5
268
330
6C
100
AcDbEntity
  8
Sichtbare Kanten(ISO)
100
AcDbLine
 10
566.0751763502056
 20
1465.603539612381
 30
0.0
 11
558.3107472386846
 21
1465.603539612381
 31
0.0
  0
LINE
  5
269
330
6C
100
AcDbEntity
  8
Sichtbare Kanten(ISO)
100
AcDbLine
 10
492.7050938287976
 20
649.6035396123811
 30
0.0
 11
492.1929617944416
 21
649.6035396123811
 31
0.0
  0
LINE
  5
26A
330
6C
100
AcDbEntity
  8
Sichtbare Kanten(ISO)
100
AcDbLine
 10
632.1929617944415
 20
649.6035396123817
 30
0.0
 11
631.6808297600856
 21
649.6035396123817
 31
0.0
  0
LINE
  5
26B
330
6C
100
AcDbEntity
  8
Sichtbare Kanten(ISO)
100
AcDbLine
 10
628.7050938287968
 20
649.6035396123817
 30
0.0
 11
631.6808297600857
 21
649.6035396123817
 31
0.0
  0
LINE
  5
26C
330
6C
100
AcDbEntity
  8
Sichtbare Kanten(ISO)
100
AcDbLine
 10
628.7050938287968
 20
649.6035396123817
 30
0.0
 11
628.192961794441
 21
649.6035396123817
 31
0.0
  0
LINE
  5
26D
330
6C
100
AcDbEntity
  8
Sichtbare Kanten(ISO)
100
AcDbLine
 10
628.192961794447
 20
649.6035396123816
 30
0.0
 11
625.4264383986365
 21
649.6035396123816
 31
0.0
  0
LINE
  5
26E
330
6C
100
AcDbEntity
  8
Sichtbare Kanten(ISO)
100
AcDbLine
 10
566.0842385309242
 20
649.6035396123815
 30
0.0
 11
625.4264383986363
 21
649.6035396123816
 31
0.0
  0
LINE
  5
26F
330
6C
100
AcDbEntity
  8
Sichtbare Kanten(ISO)
100
AcDbLine
 10
566.0842385309242
 20
649.6035396123815
 30
0.0
 11
558.3016850579741
 21
649.6035396123815
 31
0.0
  0
LINE
  5
270
330
6C
100
AcDbEntity
  8
Sichtbare Kanten(ISO)
100
AcDbLine
 10
498.9594851902594
 20
649.6035396123813
 30
0.0
 11
558.3016850579741
 21
649.6035396123815
 31
0.0
  0
LINE
  5
271
330
6C
100
AcDbEntity
  8
Sichtbare Kanten(ISO)
100
AcDbLine
 10
498.9594851902594
 20
649.6035396123813
 30
0.0
 11
496.192961794447
 21
649.6035396123813
 31
0.0
  0
LINE
  5
272
330
6C
100
AcDbEntity
  8
Sichtbare Kanten(ISO)
100
AcDbLine
 10
496.1929617944409
 20
649.6035396123811
 30
0.0
 11
495.6808297600848
 21
649.6035396123811
 31
0.0
  0
LINE
  5
273
330
6C
100
AcDbEntity
  8
Sichtbare Kanten(ISO)
100
AcDbLine
 10
492.7050938287976
 20
649.6035396123811
 30
0.0
 11
495.6808297600848
 21
649.6035396123811
 31
0.0
  0
LINE
  5
274
330
6C
100
AcDbEntity
  8
Sichtbare Kanten(ISO)
100
AcDbLine
 10
628.1929617944443
 20
1455.603539612381
 30
0.0
 11
628.1929617944468
 21
649.6035396123817
 31
0.0
  0
LINE
  5
275
330
6C
100
AcDbEntity
  8
Sichtbare Kanten(ISO)
100
AcDbLine
 10
625.4264383986336
 20
1455.603539612381
 30
0.0
 11
628.1929617944443
 21
1455.603539612381
 31
0.0
  0
LINE
  5
276
330
6C
100
AcDbEntity
  8
Sichtbare Kanten(ISO)
100
AcDbLine
 10
496.1929617944443
 20
1455.603539612381
 30
0.0
 11
498.9594851902567
 21
1455.603539612381
 31
0.0
  0
LINE
  5
277
330
6C
100
AcDbEntity
  8
Sichtbare Kanten(ISO)
100
AcDbLine
 10
496.192961794447
 20
649.6035396123811
 30
0.0
 11
496.1929617944443
 21
1455.603539612381
 31
0.0
  0
LINE
  5
278
330
6C
100
AcDbEntity
  8
Sichtbare Kanten(ISO)
100
AcDbLine
 10
628.1929617944382
 20
1455.603539612381
 30
0.0
 11
628.7050938287942
 21
1455.603539612381
 31
0.0
  0
LINE
  5
279
330
6C
100
AcDbEntity
  8
Sichtbare Kanten(ISO)
100
AcDbLine
 10
632.1929617944389
 20
1455.603539612381
 30
0.0
 11
632.1929617944415
 21
649.6035396123817
 31
0.0
  0
LINE
  5
27A
330
6C
100
AcDbEntity
  8
Sichtbare Kanten(ISO)
100
AcDbLine
 10
631.680829760083
 20
1455.603539612381
 30
0.0
 11
632.1929617944389
 21
1455.603539612381
 31
0.0
  0
LINE
  5
27B
330
6C
100
AcDbEntity
  8
Sichtbare Kanten(ISO)
100
AcDbLine
 10
495.6808297600822
 20
1455.603539612381
 30
0.0
 11
496.1929617944384
 21
1455.603539612381
 31
0.0
  0
LINE
  5
27C
330
6C
100
AcDbEntity
  8
Sichtbare Kanten(ISO)
100
AcDbLine
 10
492.1929617944389
 20
1455.603539612381
 30
0.0
 11
492.7050938287949
 21
1455.603539612381
 31
0.0
  0
LINE
  5
27D
330
6C
100
AcDbEntity
  8
Sichtbare Kanten(ISO)
100
AcDbLine
 10
492.1929617944416
 20
649.6035396123811
 30
0.0
 11
492.192961794439
 21
1455.603539612381
 31
0.0
  0
LINE
  5
27E
330
6C
100
AcDbEntity
  8
Sichtbare Kanten(ISO)
100
AcDbLine
 10
495.6808297600821
 20
1455.603539612381
 30
0.0
 11
492.7050938287949
 21
1455.603539612381
 31
0.0
  0
LINE
  5
27F
330
6C
100
AcDbEntity
  8
Sichtbare Kanten(ISO)
100
AcDbLine
 10
558.3016850579714
 20
1455.603539612381
 30
0.0
 11
498.9594851902567
 21
1455.603539612381
 31
0.0
  0
LINE
  5
280
330
6C
100
AcDbEntity
  8
Sichtbare Kanten(ISO)
100
AcDbLine
 10
558.3016850579715
 20
1455.603539612381
 30
0.0
 11
566.0842385309215
 21
1455.603539612381
 31
0.0
  0
LINE
  5
281
330
6C
100
AcDbEntity
  8
Sichtbare Kanten(ISO)
100
AcDbLine
 10
625.4264383986336
 20
1455.603539612381
 30
0.0
 11
566.0842385309215
 21
1455.603539612381
 31
0.0
  0
LINE
  5
282
330
6C
100
AcDbEntity
  8
Sichtbare Kanten(ISO)
100
AcDbLine
 10
631.6808297600831
 20
1455.603539612381
 30
0.0
 11
628.7050938287941
 21
1455.603539612381
 31
0.0
  0
LINE
  5
283
330
6C
100
AcDbEntity
  8
Sichtbare Kanten(ISO)
100
AcDbLine
 10
604.1929617944334
 20
626.2035396123668
 30
0.0
 11
554.1929617944334
 21
626.2035396123666
 31
0.0
  0
LINE
  5
284
330
6C
100
AcDbEntity
  8
Sichtbare Kanten(ISO)
100
AcDbLine
 10
554.4929617944334
 20
625.9035396123663
 30
0.0
 11
603.8929617944334
 21
625.9035396123668
 31
0.0
  0
LINE
  5
285
330
6C
100
AcDbEntity
  8
Sichtbare Kanten(ISO)
100
AcDbLine
 10
604.1929617944333
 20
637.6035396123669
 30
0.0
 11
604.1929617944334
 21
626.2035396123668
 31
0.0
  0
LINE
  5
286
330
6C
100
AcDbEntity
  8
Sichtbare Kanten(ISO)
100
AcDbLine
 10
554.1929617944333
 20
637.6035396123668
 30
0.0
 11
554.1929617944333
 21
626.2035396123666
 31
0.0
  0
LINE
  5
287
330
6C
100
AcDbEntity
  8
Sichtbare Kanten(ISO)
100
AcDbLine
 10
554.4929617944332
 20
625.9035396123667
 30
0.0
 11
554.1929617944333
 21
626.2035396123666
 31
0.0
  0
LINE
  5
288
330
6C
100
AcDbEntity
  8
Sichtbare Kanten(ISO)
100
AcDbLine
 10
603.8929617944334
 20
625.9035396123668
 30
0.0
 11
604.1929617944334
 21
626.2035396123668
 31
0.0
  0
ARC
  5
289
330
6C
100
AcDbEntity
  8
Sichtbare Kanten(ISO)
100
AcDbCircle
 10
599.4929617944332
 20
625.6035396123668
 30
0.0
 40
0.3
100
AcDbArc
 50
90.0
 51
180.0
  0
ARC
  5
28A
330
6C
100
AcDbEntity
  8
Sichtbare Kanten(ISO)
100
AcDbCircle
 10
558.8929617944334
 20
625.6035396123668
 30
0.0
 40
0.3
100
AcDbArc
 50
0.0
 51
90.0
  0
LINE
  5
28B
330
6C
100
AcDbEntity
  8
Sichtbare Kanten(ISO)
100
AcDbLine
 10
514.1929617944446
 20
590.6035396123666
 30
0.0
 11
644.1929617944444
 21
590.603539612367
 31
0.0
  0
LINE
  5
28C
330
6C
100
AcDbEntity
  8
Sichtbare Kanten(ISO)
100
AcDbLine
 10
514.1929617944446
 20
590.6035396123666
 30
0.0
 11
509.192961794443
 21
590.6035396123666
 31
0.0
  0
LINE
  5
28D
330
6C
100
AcDbEntity
  8
Sichtbare Kanten(ISO)
100
AcDbLine
 10
649.192961794443
 20
590.603539612367
 30
0.0
 11
644.1929617944444
 21
590.603539612367
 31
0.0
  0
LINE
  5
28E
330
6C
100
AcDbEntity
  8
Sichtbare Kanten(ISO)
100
AcDbLine
 10
511.192961794443
 20
603.6035396123666
 30
0.0
 11
514.1929617944439
 21
603.6035396123666
 31
0.0
  0
LINE
  5
28F
330
6C
100
AcDbEntity
  8
Sichtbare Kanten(ISO)
100
AcDbLine
 10
514.1929617944439
 20
603.6035396123666
 30
0.0
 11
559.699373104826
 21
603.6035396123667
 31
0.0
  0
LINE
  5
290
330
6C
100
AcDbEntity
  8
Sichtbare Kanten(ISO)
100
AcDbLine
 10
598.6865504840618
 20
603.6035396123668
 30
0.0
 11
644.1929617944439
 21
603.6035396123669
 31
0.0
  0
LINE
  5
291
330
6C
100
AcDbEntity
  8
Sichtbare Kanten(ISO)
100
AcDbLine
 10
644.1929617944439
 20
603.6035396123669
 30
0.0
 11
647.1929617944431
 21
603.6035396123669
 31
0.0
  0
LINE
  5
292
330
6C
100
AcDbEntity
  8
Sichtbare Kanten(ISO)
100
AcDbLine
 10
614.6929617944334
 20
625.6035396123669
 30
0.0
 11
543.6929617944334
 21
625.6035396123666
 31
0.0
  0
LINE
  5
293
330
6C
100
AcDbEntity
  8
Sichtbare Kanten(ISO)
100
AcDbLine
 10
509.1929617944431
 20
590.6035396123663
 30
0.0
 11
509.1929617944431
 21
601.6035396123665
 31
0.0
  0
LINE
  5
294
330
6C
100
AcDbEntity
  8
Sichtbare Kanten(ISO)
100
AcDbLine
 10
649.1929617944431
 20
601.6035396123669
 30
0.0
 11
649.1929617944431
 21
590.603539612367
 31
0.0
  0
ARC
  5
295
330
6C
100
AcDbEntity
  8
Sichtbare Kanten(ISO)
100
AcDbCircle
 10
511.1929617944429
 20
601.6035396123665
 30
0.0
 40
1.999999999999886
100
AcDbArc
 50
89.99999999999618
 51
180.0
  0
ARC
  5
296
330
6C
100
AcDbEntity
  8
Sichtbare Kanten(ISO)
100
AcDbCircle
 10
647.1929617944431
 20
601.603539612367
 30
0.0
 40
1.999999999999957
100
AcDbArc
 50
0.0
 51
90.0
  0
LINE
  5
297
330
6C
100
AcDbEntity
  8
Sichtbare Kanten(ISO)
100
AcDbLine
 10
541.6929617944333
 20
606.6035396123664
 30
0.0
 11
541.6929617944333
 21
623.6035396123666
 31
0.0
  0
LINE
  5
298
330
6C
100
AcDbEntity
  8
Sichtbare Kanten(ISO)
100
AcDbLine
 10
616.6929617944333
 20
606.6035396123667
 30
0.0
 11
616.6929617944332
 21
623.6035396123667
 31
0.0
  0
ARC
  5
299
330
6C
100
AcDbEntity
  8
Sichtbare Kanten(ISO)
100
AcDbCircle
 10
619.6929617944334
 20
606.6035396123667
 30
0.0
 40
3.0
100
AcDbArc
 50
180.0
 51
270.0
  0
ARC
  5
29A
330
6C
100
AcDbEntity
  8
Sichtbare Kanten(ISO)
100
AcDbCircle
 10
538.6929617944333
 20
606.6035396123664
 30
0.0
 40
3.0
100
AcDbArc
 50
270.0
 51
0.0
  0
ARC
  5
29B
330
6C
100
AcDbEntity
  8
Sichtbare Kanten(ISO)
100
AcDbCircle
 10
614.6929617944334
 20
623.6035396123668
 30
0.0
 40
2.0
100
AcDbArc
 50
0.0
 51
90.0
  0
ARC
  5
29C
330
6C
100
AcDbEntity
  8
Sichtbare Kanten(ISO)
100
AcDbCircle
 10
543.6929617944334
 20
623.6035396123666
 30
0.0
 40
2.0
100
AcDbArc
 50
90.0
 51
180.0
  0
LINE
  5
29D
330
6C
100
AcDbEntity
  8
Sichtbare Kanten(ISO)
100
AcDbLine
 10
626.6929617944457
 20
637.6035396123669
 30
0.0
 11
625.3106046597723
 21
637.6035396123669
 31
0.0
  0
LINE
  5
29E
330
6C
100
AcDbEntity
  8
Sichtbare Kanten(ISO)
100
AcDbLine
 10
625.3106046597724
 20
637.6035396123669
 30
0.0
 11
565.9967477733241
 21
637.6035396123668
 31
0.0
  0
LINE
  5
29F
330
6C
100
AcDbEntity
  8
Sichtbare Kanten(ISO)
100
AcDbLine
 10
565.9967477733241
 20
637.6035396123668
 30
0.0
 11
558.3891758155711
 21
637.6035396123668
 31
0.0
  0
LINE
  5
2A0
330
6C
100
AcDbEntity
  8
Sichtbare Kanten(ISO)
100
AcDbLine
 10
558.3891758155711
 20
637.6035396123668
 30
0.0
 11
499.0753189291202
 21
637.6035396123665
 31
0.0
  0
LINE
  5
2A1
330
6C
100
AcDbEntity
  8
Sichtbare Kanten(ISO)
100
AcDbLine
 10
499.0753189291202
 20
637.6035396123665
 30
0.0
 11
497.6929617944458
 21
637.6035396123665
 31
0.0
  0
LINE
  5
2A2
330
6C
100
AcDbEntity
  8
Sichtbare Kanten(ISO)
100
AcDbLine
 10
627.6929617944457
 20
649.6035396123669
 30
0.0
 11
627.6929617944459
 21
638.6035396123669
 31
0.0
  0
LINE
  5
2A3
330
6C
100
AcDbEntity
  8
Sichtbare Kanten(ISO)
100
AcDbLine
 10
496.6929617944457
 20
638.6035396123664
 30
0.0
 11
496.6929617944457
 21
649.6035396123665
 31
0.0
  0
ARC
  5
2A4
330
6C
100
AcDbEntity
  8
Sichtbare Kanten(ISO)
100
AcDbCircle
 10
626.692961794446
 20
638.6035396123668
 30
0.0
 40
0.9999999999997655
100
AcDbArc
 50
269.9999999999847
 51
0.0
  0
ARC
  5
2A5
330
6C
100
AcDbEntity
  8
Sichtbare Kanten(ISO)
100
AcDbCircle
 10
497.6929617944457
 20
638.6035396123665
 30
0.0
 40
0.9999999999999429
100
AcDbArc
 50
180.0
 51
270.0000000000038
  0
ARC
  5
2A6
330
6C
100
AcDbEntity
  8
Sichtbare Kanten(ISO)
100
AcDbCircle
 10
1091.410027296754
 20
2072.886369801215
 30
0.0
 40
0.3000000000000114
100
AcDbArc
 50
315.0
 51
90.0
  0
LINE
  5
2A7
330
6C
100
AcDbEntity
  8
Sichtbare Kanten(ISO)
100
AcDbLine
 10
1091.410027296754
 20
2073.186369801215
 30
0.0
 11
1042.858555434178
 21
2073.186369801215
 31
0.0
  0
ARC
  5
2A8
330
6C
100
AcDbEntity
  8
Sichtbare Kanten(ISO)
100
AcDbCircle
 10
1042.858555434178
 20
2072.886369801215
 30
0.0
 40
0.3000000000000296
100
AcDbArc
 50
90.00000000002543
 51
225.000000000018
  0
LINE
  5
2A9
330
6C
100
AcDbEntity
  8
Sichtbare Kanten(ISO)
100
AcDbLine
 10
1045.62215933111
 20
2069.698501835571
 30
0.0
 11
1042.646423399822
 21
2072.674237766858
 31
0.0
  0
ARC
  5
2AA
330
6C
100
AcDbEntity
  8
Sichtbare Kanten(ISO)
100
AcDbCircle
 10
1045.410027296754
 20
2069.486369801214
 30
0.0
 40
0.2999999999999919
100
AcDbArc
 50
270.0000000000255
 51
45.00000000003596
  0
LINE
  5
2AB
330
6C
100
AcDbEntity
  8
Sichtbare Kanten(ISO)
100
AcDbLine
 10
1024.909231171725
 20
2069.186369801215
 30
0.0
 11
1045.410027296754
 21
2069.186369801215
 31
0.0
  0
ARC
  5
2AC
330
6C
100
AcDbEntity
  8
Sichtbare Kanten(ISO)
100
AcDbCircle
 10
1024.909231171725
 20
2066.186369801215
 30
0.0
 40
3.000000000000004
100
AcDbArc
 50
90.0
 51
175.5364117111035
  0
LINE
  5
2AD
330
6C
100
AcDbEntity
  8
Sichtbare Kanten(ISO)
100
AcDbLine
 10
1017.285941690073
 20
2007.07764653769
 30
0.0
 11
1021.918330191201
 21
2066.419846405403
 31
0.0
  0
ARC
  5
2AE
330
6C
100
AcDbEntity
  8
Sichtbare Kanten(ISO)
100
AcDbCircle
 10
1067.134291365466
 20
2003.186369801214
 30
0.0
 40
50.00000000000007
100
AcDbArc
 50
175.5364117111023
 51
184.4635882888977
  0
LINE
  5
2AF
330
6C
100
AcDbEntity
  8
Sichtbare Kanten(ISO)
100
AcDbLine
 10
1021.918330191201
 20
1939.952893197026
 30
0.0
 11
1017.285941690073
 21
1999.295093064739
 31
0.0
  0
ARC
  5
2B0
330
6C
100
AcDbEntity
  8
Sichtbare Kanten(ISO)
100
AcDbCircle
 10
1024.909231171725
 20
1940.186369801214
 30
0.0
 40
2.999999999999971
100
AcDbArc
 50
184.4635882888965
 51
270.0
  0
LINE
  5
2B1
330
6C
100
AcDbEntity
  8
Sichtbare Kanten(ISO)
100
AcDbLine
 10
1029.598183976469
 20
1937.186369801214
 30
0.0
 11
1024.909231171725
 21
1937.186369801214
 31
0.0
  0
LINE
  5
2B2
330
6C
100
AcDbEntity
  8
Sichtbare Kanten(ISO)
100
AcDbLine
 10
1109.359351559206
 20
1937.186369801214
 30
0.0
 11
1104.598183976468
 21
1937.186369801214
 31
0.0
  0
ARC
  5
2B3
330
6C
100
AcDbEntity
  8
Sichtbare Kanten(ISO)
100
AcDbCircle
 10
1109.359351559206
 20
1940.186369801214
 30
0.0
 40
3.000000000000012
100
AcDbArc
 50
269.9999999999974
 51
355.5364117110984
  0
LINE
  5
2B4
330
6C
100
AcDbEntity
  8
Sichtbare Kanten(ISO)
100
AcDbLine
 10
1116.982641040858
 20
1999.295093064739
 30
0.0
 11
1112.35025253973
 21
1939.952893197026
 31
0.0
  0
ARC
  5
2B5
330
6C
100
AcDbEntity
  8
Sichtbare Kanten(ISO)
100
AcDbCircle
 10
1067.134291365467
 20
2003.186369801214
 30
0.0
 40
49.99999999999872
100
AcDbArc
 50
355.5364117111022
 51
4.463588288897818
  0
LINE
  5
2B6
330
6C
100
AcDbEntity
  8
Sichtbare Kanten(ISO)
100
AcDbLine
 10
1112.35025253973
 20
2066.419846405403
 30
0.0
 11
1116.982641040858
 21
2007.077646537689
 31
0.0
  0
ARC
  5
2B7
330
6C
100
AcDbEntity
  8
Sichtbare Kanten(ISO)
100
AcDbCircle
 10
1109.359351559206
 20
2066.186369801215
 30
0.0
 40
2.999999999999971
100
AcDbArc
 50
4.463588288896496
 51
90.0
  0
LINE
  5
2B8
330
6C
100
AcDbEntity
  8
Sichtbare Kanten(ISO)
100
AcDbLine
 10
1088.858555434178
 20
2069.186369801215
 30
0.0
 11
1109.359351559206
 21
2069.186369801215
 31
0.0
  0
ARC
  5
2B9
330
6C
100
AcDbEntity
  8
Sichtbare Kanten(ISO)
100
AcDbCircle
 10
1088.858555434178
 20
2069.486369801214
 30
0.0
 40
0.3000000000000114
100
AcDbArc
 50
135.0
 51
270.0
  0
LINE
  5
2BA
330
6C
100
AcDbEntity
  8
Sichtbare Kanten(ISO)
100
AcDbLine
 10
1091.62215933111
 20
2072.674237766858
 30
0.0
 11
1088.646423399822
 21
2069.698501835571
 31
0.0
  0
CIRCLE
  5
2BB
330
6C
100
AcDbEntity
  8
Sichtbare Kanten(ISO)
100
AcDbCircle
 10
1067.098183976496
 20
1986.186369801199
 30
0.0
 40
19.7
  0
CIRCLE
  5
2BC
330
6C
100
AcDbEntity
  8
Sichtbare Kanten(ISO)
100
AcDbCircle
 10
1067.098183976469
 20
1986.186369801198
 30
0.0
 40
20.0
  0
LINE
  5
2BD
330
6C
100
AcDbEntity
  8
Sichtbare Kanten(ISO)
100
AcDbLine
 10
1104.598183976469
 20
2051.186369801198
 30
0.0
 11
1104.598183976468
 21
1921.186369801198
 31
0.0
  0
ARC
  5
2BE
330
6C
100
AcDbEntity
  8
Sichtbare Kanten(ISO)
100
AcDbCircle
 10
1099.598183976469
 20
2051.186369801198
 30
0.0
 40
5.000000000000035
100
AcDbArc
 50
0.0
 51
90.0
  0
LINE
  5
2BF
330
6C
100
AcDbEntity
  8
Sichtbare Kanten(ISO)
100
AcDbLine
 10
1034.598183976469
 20
2056.186369801198
 30
0.0
 11
1099.598183976469
 21
2056.186369801198
 31
0.0
  0
ARC
  5
2C0
330
6C
100
AcDbEntity
  8
Sichtbare Kanten(ISO)
100
AcDbCircle
 10
1034.598183976469
 20
2051.186369801198
 30
0.0
 40
5.000000000000035
100
AcDbArc
 50
90.0000000000015
 51
180.0
  0
LINE
  5
2C1
330
6C
100
AcDbEntity
  8
Sichtbare Kanten(ISO)
100
AcDbLine
 10
1029.598183976469
 20
1921.186369801198
 30
0.0
 11
1029.598183976469
 21
2051.186369801198
 31
0.0
  0
ARC
  5
2C2
330
6C
100
AcDbEntity
  8
Sichtbare Kanten(ISO)
100
AcDbCircle
 10
1034.598183976469
 20
1921.186369801198
 30
0.0
 40
5.000000000000035
100
AcDbArc
 50
180.0
 51
270.0
  0
LINE
  5
2C3
330
6C
100
AcDbEntity
  8
Sichtbare Kanten(ISO)
100
AcDbLine
 10
1099.598183976469
 20
1916.186369801198
 30
0.0
 11
1034.598183976469
 21
1916.186369801198
 31
0.0
  0
ARC
  5
2C4
330
6C
100
AcDbEntity
  8
Sichtbare Kanten(ISO)
100
AcDbCircle
 10
1099.598183976469
 20
1921.186369801198
 30
0.0
 40
5.0
100
AcDbArc
 50
270.0000000000015
 51
0.0
  0
CIRCLE
  5
2C5
330
6C
100
AcDbEntity
  8
Sichtbare Kanten(ISO)
100
AcDbCircle
 10
1047.098183976468
 20
1946.186369801198
 30
0.0
 40
3.0
  0
CIRCLE
  5
2C6
330
6C
100
AcDbEntity
  8
Sichtbare Kanten(ISO)
100
AcDbCircle
 10
1047.098183976468
 20
2026.186369801198
 30
0.0
 40
3.0
  0
CIRCLE
  5
2C7
330
6C
100
AcDbEntity
  8
Sichtbare Kanten(ISO)
100
AcDbCircle
 10
1047.098183976468
 20
1926.186369801198
 30
0.0
 40
3.25
  0
CIRCLE
  5
2C8
330
6C
100
AcDbEntity
  8
Sichtbare Kanten(ISO)
100
AcDbCircle
 10
1087.098183976468
 20
1926.186369801198
 30
0.0
 40
3.25
  0
CIRCLE
  5
2C9
330
6C
100
AcDbEntity
  8
Sichtbare Kanten(ISO)
100
AcDbCircle
 10
1087.098183976469
 20
2046.186369801198
 30
0.0
 40
3.25
  0
CIRCLE
  5
2CA
330
6C
100
AcDbEntity
  8
Sichtbare Kanten(ISO)
100
AcDbCircle
 10
1047.098183976468
 20
2046.186369801198
 30
0.0
 40
3.25
  0
CIRCLE
  5
2CB
330
6C
100
AcDbEntity
  8
Sichtbare Kanten(ISO)
100
AcDbCircle
 10
1087.098183976468
 20
1946.186369801198
 30
0.0
 40
3.0
  0
CIRCLE
  5
2CC
330
6C
100
AcDbEntity
  8
Sichtbare Kanten(ISO)
100
AcDbCircle
 10
1087.098183976469
 20
2026.186369801198
 30
0.0
 40
3.0
  0
CIRCLE
  5
2CD
330
6C
100
AcDbEntity
  8
Sichtbare Kanten(ISO)
100
AcDbCircle
 10
1067.098183976481
 20
1986.186369801199
 30
0.0
 40
18.0
  0
ARC
  5
2CE
330
6C
100
AcDbEntity
  8
Sichtbare Kanten(ISO)
100
AcDbCircle
 10
1103.598183976489
 20
1945.686369801212
 30
0.0
 40
5.499999999999971
100
AcDbArc
 50
280.4756816961743
 51
79.5243183038271
  0
ARC
  5
2CF
330
6C
100
AcDbEntity
  8
Sichtbare Kanten(ISO)
100
AcDbCircle
 10
1103.598183976489
 20
2060.686369801212
 30
0.0
 40
5.500000000000018
100
AcDbArc
 50
257.6295569072412
 51
236.7031347367152
  0
ARC
  5
2D0
330
6C
100
AcDbEntity
  8
Sichtbare Kanten(ISO)
100
AcDbCircle
 10
1030.598183976489
 20
2060.686369801212
 30
0.0
 40
5.499999999999988
100
AcDbArc
 50
303.2968652635073
 51
282.3704430921196
  0
ARC
  5
2D1
330
6C
100
AcDbEntity
  8
Sichtbare Kanten(ISO)
100
AcDbCircle
 10
1030.598183976489
 20
1945.686369801212
 30
0.0
 40
5.499999999999988
100
AcDbArc
 50
100.4756816966046
 51
259.5243183033939
  0
LINE
  5
2D2
330
6C
100
AcDbEntity
  8
Sichtbare Kanten(ISO)
100
AcDbLine
 10
1109.287136781253
 20
1937.686369801212
 30
0.0
 11
1104.598183976468
 21
1937.686369801212
 31
0.0
  0
LINE
  5
2D3
330
6C
100
AcDbEntity
  8
Sichtbare Kanten(ISO)
100
AcDbLine
 10
1029.598183976469
 20
1937.686369801212
 30
0.0
 11
1024.909231171725
 21
1937.686369801212
 31
0.0
  0
LINE
  5
2D4
330
6C
100
AcDbEntity
  8
Sichtbare Kanten(ISO)
100
AcDbLine
 10
1024.909231171725
 20
2068.686369801213
 30
0.0
 11
1109.287136781253
 21
2068.686369801213
 31
0.0
  0
LINE
  5
2D5
330
6C
100
AcDbEntity
  8
Sichtbare Kanten(ISO)
100
AcDbLine
 10
1111.779436119123
 20
2066.382441243423
 30
0.0
 11
1116.445710866324
 21
2007.068584356973
 31
0.0
  0
ARC
  5
2D6
330
6C
100
AcDbEntity
  8
Sichtbare Kanten(ISO)
100
AcDbCircle
 10
1067.098183976484
 20
2003.186369801213
 30
0.0
 40
49.50000000000507
100
AcDbArc
 50
355.5017540058537
 51
4.498245994145904
  0
LINE
  5
2D7
330
6C
100
AcDbEntity
  8
Sichtbare Kanten(ISO)
100
AcDbLine
 10
1116.445710866324
 20
1999.304155245452
 30
0.0
 11
1111.779436119123
 21
1939.990298359002
 31
0.0
  0
ARC
  5
2D8
330
6C
100
AcDbEntity
  8
Sichtbare Kanten(ISO)
100
AcDbCircle
 10
1067.098183976483
 20
2003.186369801213
 30
0.0
 40
49.49999999999402
100
AcDbArc
 50
175.5017540058536
 51
184.4982459941476
  0
LINE
  5
2D9
330
6C
100
AcDbEntity
  8
Sichtbare Kanten(ISO)
100
AcDbLine
 10
1017.750657086653
 20
2007.068584356973
 30
0.0
 11
1022.416931833855
 21
2066.382441243423
 31
0.0
  0
LINE
  5
2DA
330
6C
100
AcDbEntity
  8
Sichtbare Kanten(ISO)
100
AcDbLine
 10
1022.416931833855
 20
1939.990298359002
 30
0.0
 11
1017.750657086653
 21
1999.304155245452
 31
0.0
  0
ARC
  5
2DB
330
6C
100
AcDbEntity
  8
Sichtbare Kanten(ISO)
100
AcDbCircle
 10
1109.287136781253
 20
1940.186369801212
 30
0.0
 40
2.500000000000007
100
AcDbArc
 50
270.0000000000031
 51
355.5017540058571
  0
ARC
  5
2DC
330
6C
100
AcDbEntity
  8
Sichtbare Kanten(ISO)
100
AcDbCircle
 10
1109.287136781253
 20
2066.186369801212
 30
0.0
 40
2.500000000000035
100
AcDbArc
 50
4.498245994148654
 51
90.0
  0
ARC
  5
2DD
330
6C
100
AcDbEntity
  8
Sichtbare Kanten(ISO)
100
AcDbCircle
 10
1024.909231171725
 20
2066.186369801212
 30
0.0
 40
2.500000000000055
100
AcDbArc
 50
90.00000000000303
 51
175.5017540058513
  0
ARC
  5
2DE
330
6C
100
AcDbEntity
  8
Sichtbare Kanten(ISO)
100
AcDbCircle
 10
1024.909231171725
 20
1940.186369801212
 30
0.0
 40
2.5
100
AcDbArc
 50
184.4982459941428
 51
270.0
  0
ARC
  5
2DF
330
6C
100
AcDbEntity
  8
Sichtbare Kanten(ISO)
100
AcDbCircle
 10
1030.598183976489
 20
1945.686369801214
 30
0.0
 40
3.300000000000032
100
AcDbArc
 50
107.6397013946097
 51
252.3602986053902
  0
CIRCLE
  5
2E0
330
6C
100
AcDbEntity
  8
Sichtbare Kanten(ISO)
100
AcDbCircle
 10
1030.598183976489
 20
2060.686369801214
 30
0.0
 40
3.3
  0
CIRCLE
  5
2E1
330
6C
100
AcDbEntity
  8
Sichtbare Kanten(ISO)
100
AcDbCircle
 10
1103.598183976489
 20
2060.686369801214
 30
0.0
 40
3.3
  0
ARC
  5
2E2
330
6C
100
AcDbEntity
  8
Sichtbare Kanten(ISO)
100
AcDbCircle
 10
1103.598183976489
 20
1945.686369801214
 30
0.0
 40
3.299999999999996
100
AcDbArc
 50
287.6397013938658
 51
72.36029860613425
  0
LINE
  5
2E3
330
6C
100
AcDbEntity
  8
Mittelpunktmarkierung(ISO)
  6
CHAIN
 48
7.185708045959472
100
AcDbLine
 10
1054.848183976489
 20
2060.686369801212
 30
0.0
 11
1006.348183976489
 21
2060.686369801212
 31
0.0
  0
LINE
  5
2E4
330
6C
100
AcDbEntity
  8
Mittelpunktmarkierung(ISO)
  6
CHAIN
 48
7.185708045959472
100
AcDbLine
 10
1030.598183976489
 20
2084.936369801212
 30
0.0
 11
1030.598183976489
 21
2036.436369801212
 31
0.0
  0
LINE
  5
2E5
330
6C
100
AcDbEntity
  8
Mittelpunktmarkierung(ISO)
  6
CHAIN
 48
7.185708045959472
100
AcDbLine
 10
1127.848183976489
 20
2060.686369801212
 30
0.0
 11
1079.348183976489
 21
2060.686369801212
 31
0.0
  0
LINE
  5
2E6
330
6C
100
AcDbEntity
  8
Mittelpunktmarkierung(ISO)
  6
CHAIN
 48
7.185708045959472
100
AcDbLine
 10
1103.598183976489
 20
2084.936369801212
 30
0.0
 11
1103.598183976489
 21
2036.436369801212
 31
0.0
  0
LINE
  5
2E7
330
6C
100
AcDbEntity
  8
Mittelpunktmarkierung(ISO)
  6
CHAIN
 48
6.518983364105224
100
AcDbLine
 10
1109.098183976468
 20
2046.186369801198
 30
0.0
 11
1065.098183976468
 21
2046.186369801198
 31
0.0
  0
LINE
  5
2E8
330
6C
100
AcDbEntity
  8
Mittelpunktmarkierung(ISO)
  6
CHAIN
 48
6.518983364105224
100
AcDbLine
 10
1087.098183976468
 20
2068.186369801198
 30
0.0
 11
1087.098183976468
 21
2024.186369801198
 31
0.0
  0
LINE
  5
2E9
330
6C
100
AcDbEntity
  8
Mittelpunktmarkierung(ISO)
  6
CHAIN
 48
6.518983364105224
100
AcDbLine
 10
1069.098183976468
 20
2046.186369801198
 30
0.0
 11
1025.098183976468
 21
2046.186369801198
 31
0.0
  0
LINE
  5
2EA
330
6C
100
AcDbEntity
  8
Mittelpunktmarkierung(ISO)
  6
CHAIN
 48
6.518983364105224
100
AcDbLine
 10
1047.098183976468
 20
2068.186369801198
 30
0.0
 11
1047.098183976468
 21
2024.186369801198
 31
0.0
  0
LINE
  5
2EB
330
6C
100
AcDbEntity
  8
Mittelpunktmarkierung(ISO)
  6
CHAIN
 48
6.444902896881103
100
AcDbLine
 10
1068.848183976468
 20
2026.186369801198
 30
0.0
 11
1025.348183976468
 21
2026.186369801198
 31
0.0
  0
LINE
  5
2EC
330
6C
100
AcDbEntity
  8
Mittelpunktmarkierung(ISO)
  6
CHAIN
 48
6.444902896881103
100
AcDbLine
 10
1047.098183976468
 20
2047.936369801198
 30
0.0
 11
1047.098183976468
 21
2004.436369801198
 31
0.0
  0
LINE
  5
2ED
330
6C
100
AcDbEntity
  8
Mittelpunktmarkierung(ISO)
  6
CHAIN
 48
6.444902896881103
100
AcDbLine
 10
1108.848183976468
 20
2026.186369801198
 30
0.0
 11
1065.348183976468
 21
2026.186369801198
 31
0.0
  0
LINE
  5
2EE
330
6C
100
AcDbEntity
  8
Mittelpunktmarkierung(ISO)
  6
CHAIN
 48
6.444902896881103
100
AcDbLine
 10
1087.098183976468
 20
2047.936369801198
 30
0.0
 11
1087.098183976468
 21
2004.436369801198
 31
0.0
  0
LINE
  5
2EF
330
6C
100
AcDbEntity
  8
Mittelpunktmarkierung(ISO)
  6
CHAIN
 48
11.48237705230713
100
AcDbLine
 10
1105.848183976469
 20
1986.186369801198
 30
0.0
 11
1028.348183976468
 21
1986.186369801198
 31
0.0
  0
LINE
  5
2F0
330
6C
100
AcDbEntity
  8
Mittelpunktmarkierung(ISO)
  6
CHAIN
 48
11.48237705230713
100
AcDbLine
 10
1067.098183976468
 20
2024.936369801198
 30
0.0
 11
1067.098183976468
 21
1947.436369801198
 31
0.0
  0
LINE
  5
2F1
330
6C
100
AcDbEntity
  8
Mittelpunktmarkierung(ISO)
  6
CHAIN
 48
6.444902896881103
100
AcDbLine
 10
1068.848183976468
 20
1946.186369801198
 30
0.0
 11
1025.348183976468
 21
1946.186369801198
 31
0.0
  0
LINE
  5
2F2
330
6C
100
AcDbEntity
  8
Mittelpunktmarkierung(ISO)
  6
CHAIN
 48
6.444902896881103
100
AcDbLine
 10
1047.098183976468
 20
1967.936369801198
 30
0.0
 11
1047.098183976468
 21
1924.436369801198
 31
0.0
  0
LINE
  5
2F3
330
6C
100
AcDbEntity
  8
Mittelpunktmarkierung(ISO)
  6
CHAIN
 48
6.444902896881103
100
AcDbLine
 10
1108.848183976468
 20
1946.186369801198
 30
0.0
 11
1065.348183976468
 21
1946.186369801198
 31
0.0
  0
LINE
  5
2F4
330
6C
100
AcDbEntity
  8
Mittelpunktmarkierung(ISO)
  6
CHAIN
 48
6.444902896881103
100
AcDbLine
 10
1087.098183976468
 20
1967.936369801198
 30
0.0
 11
1087.098183976468
 21
1924.436369801198
 31
0.0
  0
LINE
  5
2F5
330
6C
100
AcDbEntity
  8
Mittelpunktmarkierung(ISO)
  6
CHAIN
 48
6.518983364105224
100
AcDbLine
 10
1109.098183976468
 20
1926.186369801198
 30
0.0
 11
1065.098183976468
 21
1926.186369801198
 31
0.0
  0
LINE
  5
2F6
330
6C
100
AcDbEntity
  8
Mittelpunktmarkierung(ISO)
  6
CHAIN
 48
6.518983364105224
100
AcDbLine
 10
1087.098183976468
 20
1948.186369801198
 30
0.0
 11
1087.098183976468
 21
1904.186369801198
 31
0.0
  0
LINE
  5
2F7
330
6C
100
AcDbEntity
  8
Mittelpunktmarkierung(ISO)
  6
CHAIN
 48
6.518983364105224
100
AcDbLine
 10
1069.098183976468
 20
1926.186369801198
 30
0.0
 11
1025.098183976468
 21
1926.186369801198
 31
0.0
  0
LINE
  5
2F8
330
6C
100
AcDbEntity
  8
Mittelpunktmarkierung(ISO)
  6
CHAIN
 48
6.518983364105224
100
AcDbLine
 10
1047.098183976468
 20
1948.186369801198
 30
0.0
 11
1047.098183976468
 21
1904.186369801198
 31
0.0
  0
ENDSEC
  0
SECTION
  2
OBJECTS
  0
DICTIONARY
  5
C
330
0
100
AcDbDictionary
281
     1
  3
ACAD_CIP_PREVIOUS_PRODUCT_INFO
350
2F9
  3
ACAD_COLOR
350
63
  3
ACAD_GROUP
350
D
  3
ACAD_LAYOUT
350
62
  3
ACAD_MATERIAL
350
10
  3
ACAD_MLEADERSTYLE
350
66
  3
ACAD_MLINESTYLE
350
5F
  3
ACAD_PLOTSETTINGS
350
61
  3
ACAD_PLOTSTYLENAME
350
E
  3
ACAD_SCALELIST
350
42
  3
ACAD_TABLESTYLE
350
64
  3
ACAD_VISUALSTYLE
350
29
  3
ACDB_RECOMPOSE_DATA
350
30E
  3
AcDbVariableDictionary
350
34F
  3
AcmDictionary
350
3C1
  3
AcmSystemVariableManager
350
424
  3
AMG
350
367
  3
AMGSNAPSETTINGS
350
405
  3
DWGPROPS
350
413
  0
DICTIONARY
  5
310
330
8
100
AcDbDictionary
280
     1
281
     1
  0
DICTIONARY
  5
2FE
330
158
100
AcDbDictionary
280
     1
281
     1
  3
ACAD_MLATT
360
40D
  3
ACAD_XREC_ROUNDTRIP
360
2FF
  0
DICTIONARY
  5
301
330
160
100
AcDbDictionary
280
     1
281
     1
  3
ACAD_MLATT
360
40E
  3
ACAD_XREC_ROUNDTRIP
360
302
  0
DICTIONARY
  5
304
330
166
100
AcDbDictionary
280
     1
281
     1
  3
ACAD_MLATT
360
40F
  3
ACAD_XREC_ROUNDTRIP
360
305
  0
DICTIONARY
  5
307
330
16C
100
AcDbDictionary
280
     1
281
     1
  3
ACAD_MLATT
360
410
  3
ACAD_XREC_ROUNDTRIP
360
308
  0
DICTIONARY
  5
41E
330
185
100
AcDbDictionary
280
     1
281
     1
  3
ACAD_MTEXT_RT
360
41F
  0
DICTIONARY
  5
30A
330
18E
100
AcDbDictionary
280
     1
281
     1
  3
ACAD_MLATT
360
411
  3
ACAD_XREC_ROUNDTRIP
360
30B
  0
XRECORD
  5
2F9
102
{ACAD_REACTORS
330
C
102
}
330
C
100
AcDbXrecord
280
     1
300
INVPROSA
300
2012
300
PDSU_F_S
  0
DICTIONARY
  5
63
102
{ACAD_REACTORS
330
C
102
}
330
C
100
AcDbDictionary
281
     1
  0
DICTIONARY
  5
D
102
{ACAD_REACTORS
330
C
102
}
330
C
100
AcDbDictionary
281
     1
  0
DICTIONARY
  5
62
102
{ACAD_REACTORS
330
C
102
}
330
C
100
AcDbDictionary
281
     1
  3
Layout1
350
6B
  3
Layout2
350
73
  3
Model
350
6F
  0
DICTIONARY
  5
10
102
{ACAD_REACTORS
330
C
102
}
330
C
100
AcDbDictionary
281
     1
  3
ByBlock
350
19
  3
ByLayer
350
11
  3
Global
350
21
  0
DICTIONARY
  5
66
102
{ACAD_REACTORS
330
C
102
}
330
C
100
AcDbDictionary
281
     1
  3
Standard
350
67
  0
DICTIONARY
  5
5F
102
{ACAD_REACTORS
330
C
102
}
330
C
100
AcDbDictionary
281
     1
  3
Standard
350
60
  0
DICTIONARY
  5
61
102
{ACAD_REACTORS
330
C
102
}
330
C
100
AcDbDictionary
281
     1
  0
ACDBDICTIONARYWDFLT
  5
E
102
{ACAD_REACTORS
330
C
102
}
330
C
100
AcDbDictionary
281
     1
  3
Normal
350
F
100
AcDbDictionaryWithDefault
340
F
  0
DICTIONARY
  5
42
102
{ACAD_REACTORS
330
C
102
}
330
C
100
AcDbDictionary
281
     1
  3
A0
350
43
  3
A1
350
44
  3
A2
350
45
  3
A3
350
46
  3
A4
350
47
  3
A5
350
48
  3
A6
350
49
  3
A7
350
4A
  3
A8
350
4B
  3
A9
350
4C
  3
B0
350
4D
  3
B1
350
4E
  3
B2
350
4F
  3
B3
350
50
  3
B4
350
51
  3
B5
350
52
  3
B6
350
53
  0
DICTIONARY
  5
64
102
{ACAD_REACTORS
330
C
102
}
330
C
100
AcDbDictionary
281
     1
  3
Standard
350
65
  0
DICTIONARY
  5
29
102
{ACAD_REACTORS
330
C
102
}
330
C
100
AcDbDictionary
281
     1
  3
2dWireframe
350
2F
  3
3D Hidden
350
35E
  3
3dWireframe
350
35D
  3
Basic
350
2E
  3
Brighten
350
35
  3
ColorChange
350
39
  3
Conceptual
350
32
  3
Dim
350
34
  3
EdgeColorOff
350
41
  3
Facepattern
350
38
  3
Flat
350
2A
  3
FlatWithEdges
350
2B
  3
Gouraud
350
2C
  3
GouraudWithEdges
350
2D
  3
Hidden
350
31
  3
JitterOff
350
3F
  3
Linepattern
350
37
  3
OverhangOff
350
40
  3
Realistic
350
33
  3
Shaded
350
3E
  3
Shaded with edges
350
3D
  3
Shades of Gray
350
3A
  3
Sketchy
350
3B
  3
Thicken
350
36
  3
Wireframe
350
30
  3
X-Ray
350
3C
  0
XRECORD
  5
30E
102
{ACAD_REACTORS
330
C
102
}
330
C
100
AcDbXrecord
280
     1
 90
        1
330
65
330
158
330
160
330
166
330
16C
330
18E
  0
DICTIONARY
  5
34F
102
{ACAD_REACTORS
330
C
102
}
330
C
100
AcDbDictionary
281
     1
  3
CANNOSCALE
350
353
  3
CMLEADERSTYLE
350
351
  3
CTABLESTYLE
350
350
  3
DIMASSOC
350
35A
  3
HIDETEXT
350
359
  3
INDEXCTL
350
358
  3
LAYEREVAL
350
355
  3
LAYERNOTIFY
350
356
  3
LIGHTINGUNITS
350
354
  3
MSLTSCALE
350
352
  3
SORTENTS
350
357
  3
XCLIPFRAME
350
35B
  0
DICTIONARY
  5
3C1
102
{ACAD_REACTORS
330
C
102
}
330
C
100
AcDbDictionary
281
     1
  3
AcmStdDictionary
350
3CC
  0
DICTIONARY
  5
367
102
{ACAD_REACTORS
330
C
102
}
330
C
100
AcDbDictionary
281
     1
  0
DICTIONARY
  5
405
102
{ACAD_REACTORS
330
C
102
}
330
C
100
AcDbDictionary
281
     1
  0
XRECORD
  5
413
102
{ACAD_REACTORS
330
C
102
}
330
C
100
AcDbXrecord
280
     1
  1
DWGPROPS COOKIE
  2

  3

  4
D.Hartung
  6

  7

  8
bauer_sven
  9

300
Manager=
301
Firma=
302
Kategorie=
303
Bauteilnummer=MSL 50-E-Hub-DWG
304
Bezeichnung=Platte
305
Projekt=
306
Konstrukteur=D.Hartung
307
Ingenieur=
308
Bevollmächtigter=
309
Kostenstelle=
 40
0.0002213310185185
 41
2456219.356686783
 42
2456219.407653716
  1

 90
       19
300
Zulieferer=
300
Benutzerstatus=
300
Konstruktionsstatus=InBearbeitung
300
Kontrolliert von=
300
Konstruktion genehmigt von=
300
Fertigung genehmigt von=
300
1-Beschreibung=
300
2-Sachnr-Norm-Lieferant=
300
3-Material=
  0
XRECORD
  5
40D
102
{ACAD_REACTORS
330
2FE
102
}
330
2FE
100
AcDbXrecord
280
     1
 70
     4
 70
     0
 70
     0
 40
1.0
  2
Wert
  1
Embedded Object
 10
0.844474758032334
 20
3.491814449307538
 30
0.0
 40
2.000000029802322
 41
0.0
 46
0.0
 71
     1
 72
     5
  1
+0,2
  7
STANDARD-ISO-2
 73
     1
 44
1.0
  0
XRECORD
  5
2FF
102
{ACAD_REACTORS
330
2FE
102
}
330
2FE
100
AcDbXrecord
280
     1
102
ACAD_MATT_HEIGHT
140
2.000000029802322
  0
XRECORD
  5
40E
102
{ACAD_REACTORS
330
301
102
}
330
301
100
AcDbXrecord
280
     1
 70
     4
 70
     0
 70
     0
 40
1.0
  2
Wert
  1
Embedded Object
 10
0.8444747580323337
 20
-1.508185550692462
 30
0.0
 40
2.000000029802322
 41
0.0
 46
0.0
 71
     1
 72
     5
  1
+0,2
  7
STANDARD-ISO-2
 73
     1
 44
1.0
  0
XRECORD
  5
302
102
{ACAD_REACTORS
330
301
102
}
330
301
100
AcDbXrecord
280
     1
102
ACAD_MATT_HEIGHT
140
2.000000029802322
  0
XRECORD
  5
40F
102
{ACAD_REACTORS
330
304
102
}
330
304
100
AcDbXrecord
280
     1
 70
     4
 70
     0
 70
     0
 40
1.0
  2
Wert
  1
Embedded Object
 10
-0.8526603291887999
 20
3.491814449307538
 30
0.0
 40
2.000000029802322
 41
0.0
 46
0.0
 71
     3
 72
     5
  1
+0,2
  7
STANDARD-ISO-2
 73
     1
 44
1.0
  0
XRECORD
  5
305
102
{ACAD_REACTORS
330
304
102
}
330
304
100
AcDbXrecord
280
     1
102
ACAD_MATT_HEIGHT
140
2.000000029802322
  0
XRECORD
  5
410
102
{ACAD_REACTORS
330
307
102
}
330
307
100
AcDbXrecord
280
     1
 70
     4
 70
     0
 70
     0
 40
1.0
  2
Wert
  1
Embedded Object
 10
-0.8526603291887999
 20
-1.508185550692461
 30
0.0
 40
2.000000029802322
 41
0.0
 46
0.0
 71
     3
 72
     5
  1
+0,2
  7
STANDARD-ISO-2
 73
     1
 44
1.0
  0
XRECORD
  5
308
102
{ACAD_REACTORS
330
307
102
}
330
307
100
AcDbXrecord
280
     1
102
ACAD_MATT_HEIGHT
140
2.000000029802322
  0
XRECORD
  5
41F
102
{ACAD_REACTORS
330
41E
102
}
330
41E
100
AcDbXrecord
280
     1
 40
48088.0
  1
Kanten gebrochen\Pbrüniert
  0
XRECORD
  5
411
102
{ACAD_REACTORS
330
30A
102
}
330
30A
100
AcDbXrecord
280
     1
 70
     4
 70
     0
 70
     0
 40
1.0
  2
<Kegelverhältnis>
  1
Embedded Object
 10
-15.72540904028189
 20
5.978512940304728
 30
0.0
 40
3.499999940395355
 41
0.0
 46
0.0
 71
     3
 72
     5
  1
<Kegelverhältnis>
  7
STANDARD-ISO
 73
     1
 44
1.0
  0
XRECORD
  5
30B
102
{ACAD_REACTORS
330
30A
102
}
330
30A
100
AcDbXrecord
280
     1
102
ACAD_MATT_HEIGHT
140
3.499999940395355
  0
LAYOUT
  5
6B
102
{ACAD_XDICTIONARY
360
418
102
}
102
{ACAD_REACTORS
330
62
102
}
330
62
100
AcDbPlotSettings
  1

  2

  4

  6

 40
0.0
 41
0.0
 42
0.0
 43
0.0
 44
0.0
 45
0.0
 46
0.0
 47
0.0
 48
0.0
 49
0.0
140
0.0
141
0.0
142
1.0
143
1.0
 70
   688
 72
     0
 73
     0
 74
     5
  7

 75
    16
147
1.0
148
0.0
149
0.0
100
AcDbLayout
  1
Layout1
 70
     1
 71
     1
 10
0.0
 20
0.0
 11
1575.0
 21
2227.5
 12
0.0
 22
0.0
 32
0.0
 14
0.0
 24
0.0
 34
0.0
 15
1575.0
 25
2227.5
 35
0.0
146
0.0
 13
0.0
 23
0.0
 33
0.0
 16
1.0
 26
0.0
 36
0.0
 17
0.0
 27
1.0
 37
0.0
 76
     0
330
68
  0
LAYOUT
  5
73
102
{ACAD_XDICTIONARY
360
41C
102
}
102
{ACAD_REACTORS
330
62
102
}
330
62
100
AcDbPlotSettings
  1

  2

  4

  6

 40
0.0
 41
0.0
 42
0.0
 43
0.0
 44
0.0
 45
0.0
 46
0.0
 47
0.0
 48
0.0
 49
0.0
140
0.0
141
0.0
142
1.0
143
1.0
 70
   688
 72
     0
 73
     0
 74
     5
  7

 75
    16
147
1.0
148
0.0
149
0.0
100
AcDbLayout
  1
Layout2
 70
     1
 71
     2
 10
0.0
 20
0.0
 11
12.0
 21
9.0
 12
0.0
 22
0.0
 32
0.0
 14
0.0
 24
0.0
 34
0.0
 15
0.0
 25
0.0
 35
0.0
146
0.0
 13
0.0
 23
0.0
 33
0.0
 16
1.0
 26
0.0
 36
0.0
 17
0.0
 27
1.0
 37
0.0
 76
     0
330
70
  0
LAYOUT
  5
6F
102
{ACAD_XDICTIONARY
360
41A
102
}
102
{ACAD_REACTORS
330
62
102
}
330
62
100
AcDbPlotSettings
  1

  2

  4

  6

 40
0.0
 41
0.0
 42
0.0
 43
0.0
 44
0.0
 45
0.0
 46
0.0
 47
0.0
 48
0.0
 49
0.0
140
0.0
141
0.0
142
1.0
143
1.0
 70
  1712
 72
     0
 73
     0
 74
     0
  7

 75
     0
147
1.0
148
0.0
149
0.0
100
AcDbLayout
  1
Model
 70
     1
 71
     0
 10
0.0
 20
0.0
 11
12.0
 21
9.0
 12
0.0
 22
0.0
 32
0.0
 14
0.0
 24
0.0
 34
0.0
 15
0.0
 25
0.0
 35
0.0
146
0.0
 13
0.0
 23
0.0
 33
0.0
 16
1.0
 26
0.0
 36
0.0
 17
0.0
 27
1.0
 37
0.0
 76
     0
330
6C
331
57
  0
MATERIAL
  5
19
102
{ACAD_XDICTIONARY
360
1A
102
}
102
{ACAD_REACTORS
330
10
102
}
330
10
100
AcDbMaterial
  1
ByBlock
 72
     0
 43
0.0208333333333333
 43
0.0
 43
0.0
 43
0.0
 43
0.0
 43
0.0208333333333333
 43
0.0
 43
0.0
 43
0.0
 43
0.0
 43
1.0
 43
0.0
 43
0.0
 43
0.0
 43
0.0
 43
1.0
 77
     0
 47
0.0208333333333333
 47
0.0
 47
0.0
 47
0.0
 47
0.0
 47
0.0208333333333333
 47
0.0
 47
0.0
 47
0.0
 47
0.0
 47
1.0
 47
0.0
 47
0.0
 47
0.0
 47
0.0
 47
1.0
171
     0
 49
0.0208333333333333
 49
0.0
 49
0.0
 49
0.0
 49
0.0
 49
0.0208333333333333
 49
0.0
 49
0.0
 49
0.0
 49
0.0
 49
1.0
 49
0.0
 49
0.0
 49
0.0
 49
0.0
 49
1.0
175
     0
142
0.0208333333333333
142
0.0
142
0.0
142
0.0
142
0.0
142
0.0208333333333333
142
0.0
142
0.0
142
0.0
142
0.0
142
1.0
142
0.0
142
0.0
142
0.0
142
0.0
142
1.0
179
     0
144
0.0208333333333333
144
0.0
144
0.0
144
0.0
144
0.0
144
0.0208333333333333
144
0.0
144
0.0
144
0.0
144
0.0
144
1.0
144
0.0
144
0.0
144
0.0
144
0.0
144
1.0
147
0.0208333333333333
147
0.0
147
0.0
147
0.0
147
0.0
147
0.0208333333333333
147
0.0
147
0.0
147
0.0
147
0.0
147
1.0
147
0.0
147
0.0
147
0.0
147
0.0
147
1.0
  0
MATERIAL
  5
11
102
{ACAD_XDICTIONARY
360
12
102
}
102
{ACAD_REACTORS
330
10
102
}
330
10
100
AcDbMaterial
  1
ByLayer
 72
     0
 43
0.0208333333333333
 43
0.0
 43
0.0
 43
0.0
 43
0.0
 43
0.0208333333333333
 43
0.0
 43
0.0
 43
0.0
 43
0.0
 43
1.0
 43
0.0
 43
0.0
 43
0.0
 43
0.0
 43
1.0
 77
     0
 47
0.0208333333333333
 47
0.0
 47
0.0
 47
0.0
 47
0.0
 47
0.0208333333333333
 47
0.0
 47
0.0
 47
0.0
 47
0.0
 47
1.0
 47
0.0
 47
0.0
 47
0.0
 47
0.0
 47
1.0
171
     0
 49
0.0208333333333333
 49
0.0
 49
0.0
 49
0.0
 49
0.0
 49
0.0208333333333333
 49
0.0
 49
0.0
 49
0.0
 49
0.0
 49
1.0
 49
0.0
 49
0.0
 49
0.0
 49
0.0
 49
1.0
175
     0
142
0.0208333333333333
142
0.0
142
0.0
142
0.0
142
0.0
142
0.0208333333333333
142
0.0
142
0.0
142
0.0
142
0.0
142
1.0
142
0.0
142
0.0
142
0.0
142
0.0
142
1.0
179
     0
144
0.0208333333333333
144
0.0
144
0.0
144
0.0
144
0.0
144
0.0208333333333333
144
0.0
144
0.0
144
0.0
144
0.0
144
1.0
144
0.0
144
0.0
144
0.0
144
0.0
144
1.0
147
0.0208333333333333
147
0.0
147
0.0
147
0.0
147
0.0
147
0.0208333333333333
147
0.0
147
0.0
147
0.0
147
0.0
147
1.0
147
0.0
147
0.0
147
0.0
147
0.0
147
1.0
  0
MATERIAL
  5
21
102
{ACAD_XDICTIONARY
360
22
102
}
102
{ACAD_REACTORS
330
10
102
}
330
10
100
AcDbMaterial
  1
Global
 72
     0
 43
0.0208333333333333
 43
0.0
 43
0.0
 43
0.0
 43
0.0
 43
0.0208333333333333
 43
0.0
 43
0.0
 43
0.0
 43
0.0
 43
1.0
 43
0.0
 43
0.0
 43
0.0
 43
0.0
 43
1.0
 77
     0
 47
0.0208333333333333
 47
0.0
 47
0.0
 47
0.0
 47
0.0
 47
0.0208333333333333
 47
0.0
 47
0.0
 47
0.0
 47
0.0
 47
1.0
 47
0.0
 47
0.0
 47
0.0
 47
0.0
 47
1.0
171
     0
 49
0.0208333333333333
 49
0.0
 49
0.0
 49
0.0
 49
0.0
 49
0.0208333333333333
 49
0.0
 49
0.0
 49
0.0
 49
0.0
 49
1.0
 49
0.0
 49
0.0
 49
0.0
 49
0.0
 49
1.0
175
     0
142
0.0208333333333333
142
0.0
142
0.0
142
0.0
142
0.0
142
0.0208333333333333
142
0.0
142
0.0
142
0.0
142
0.0
142
1.0
142
0.0
142
0.0
142
0.0
142
0.0
142
1.0
179
     0
144
0.0208333333333333
144
0.0
144
0.0
144
0.0
144
0.0
144
0.0208333333333333
144
0.0
144
0.0
144
0.0
144
0.0
144
1.0
144
0.0
144
0.0
144
0.0
144
0.0
144
1.0
147
0.0208333333333333
147
0.0
147
0.0
147
0.0
147
0.0
147
0.0208333333333333
147
0.0
147
0.0
147
0.0
147
0.0
147
1.0
147
0.0
147
0.0
147
0.0
147
0.0
147
1.0
  0
MLEADERSTYLE
  5
67
102
{ACAD_XDICTIONARY
360
2FC
102
}
102
{ACAD_REACTORS
330
66
102
}
330
66
100
AcDbMLeaderStyle
170
     2
171
     1
172
     0
 90
        2
 40
0.0
 41
0.0
173
     1
 91
-1056964608
340
5B
 92
       -2
290
     1
 42
0.09
291
     1
 43
0.36
  3
Standard
 44
0.18
300

342
55
174
     1
178
     6
175
     1
176
     0
 93
-1056964608
 45
0.18
292
     0
297
     0
 46
0.18
 94
-1056964608
 47
1.0
 49
1.0
140
1.0
293
     1
141
0.0
294
     1
177
     0
142
1.0
295
     0
296
     0
143
0.125
1001
ACAD_MLEADERVER
1070
     2
  0
MLINESTYLE
  5
60
102
{ACAD_REACTORS
330
5F
102
}
330
5F
100
AcDbMlineStyle
  2
STANDARD
 70
     0
  3

 62
   256
 51
90.0
 52
90.0
 71
     2
 49
0.5
 62
   256
  6
BYLAYER
 49
-0.5
 62
   256
  6
BYLAYER
  0
ACDBPLACEHOLDER
  5
F
102
{ACAD_REACTORS
330
E
102
}
330
E
  0
SCALE
  5
43
102
{ACAD_REACTORS
330
42
102
}
330
42
100
AcDbScale
 70
     0
300
1:1
140
1.0
141
1.0
290
     1
  0
SCALE
  5
44
102
{ACAD_REACTORS
330
42
102
}
330
42
100
AcDbScale
 70
     0
300
1/128" = 1'-0"
140
0.0078125
141
12.0
290
     0
  0
SCALE
  5
45
102
{ACAD_REACTORS
330
42
102
}
330
42
100
AcDbScale
 70
     0
300
1/64" = 1'-0"
140
0.015625
141
12.0
290
     0
  0
SCALE
  5
46
102
{ACAD_REACTORS
330
42
102
}
330
42
100
AcDbScale
 70
     0
300
1/32" = 1'-0"
140
0.03125
141
12.0
290
     0
  0
SCALE
  5
47
102
{ACAD_REACTORS
330
42
102
}
330
42
100
AcDbScale
 70
     0
300
1/16" = 1'-0"
140
0.0625
141
12.0
290
     0
  0
SCALE
  5
48
102
{ACAD_REACTORS
330
42
102
}
330
42
100
AcDbScale
 70
     0
300
3/32" = 1'-0"
140
0.09375
141
12.0
290
     0
  0
SCALE
  5
49
102
{ACAD_REACTORS
330
42
102
}
330
42
100
AcDbScale
 70
     0
300
1/8" = 1'-0"
140
0.125
141
12.0
290
     0
  0
SCALE
  5
4A
102
{ACAD_REACTORS
330
42
102
}
330
42
100
AcDbScale
 70
     0
300
3/16" = 1'-0"
140
0.1875
141
12.0
290
     0
  0
SCALE
  5
4B
102
{ACAD_REACTORS
330
42
102
}
330
42
100
AcDbScale
 70
     0
300
1/4" = 1'-0"
140
0.25
141
12.0
290
     0
  0
SCALE
  5
4C
102
{ACAD_REACTORS
330
42
102
}
330
42
100
AcDbScale
 70
     0
300
3/8" = 1'-0"
140
0.375
141
12.0
290
     0
  0
SCALE
  5
4D
102
{ACAD_REACTORS
330
42
102
}
330
42
100
AcDbScale
 70
     0
300
1/2" = 1'-0"
140
0.5
141
12.0
290
     0
  0
SCALE
  5
4E
102
{ACAD_REACTORS
330
42
102
}
330
42
100
AcDbScale
 70
     0
300
3/4" = 1'-0"
140
0.75
141
12.0
290
     0
  0
SCALE
  5
4F
102
{ACAD_REACTORS
330
42
102
}
330
42
100
AcDbScale
 70
     0
300
1" = 1'-0"
140
1.0
141
12.0
290
     0
  0
SCALE
  5
50
102
{ACAD_REACTORS
330
42
102
}
330
42
100
AcDbScale
 70
     0
300
1-1/2" = 1'-0"
140
1.5
141
12.0
290
     0
  0
SCALE
  5
51
102
{ACAD_REACTORS
330
42
102
}
330
42
100
AcDbScale
 70
     0
300
3" = 1'-0"
140
3.0
141
12.0
290
     0
  0
SCALE
  5
52
102
{ACAD_REACTORS
330
42
102
}
330
42
100
AcDbScale
 70
     0
300
6" = 1'-0"
140
6.0
141
12.0
290
     0
  0
SCALE
  5
53
102
{ACAD_REACTORS
330
42
102
}
330
42
100
AcDbScale
 70
     0
300
1'-0" = 1'-0"
140
12.0
141
12.0
290
     0
  0
TABLESTYLE
  5
65
102
{ACAD_XDICTIONARY
360
2FA
102
}
102
{ACAD_REACTORS
330
64
102
}
330
64
100
AcDbTableStyle
  3
Standard
 70
     0
 71
     0
 40
0.06
 41
0.06
280
     0
281
     0
  7
Standard
140
0.18
170
     2
 62
     0
 63
     7
283
     0
274
    -2
284
     1
 64
     0
275
    -2
285
     1
 65
     0
276
    -2
286
     1
 66
     0
277
    -2
287
     1
 67
     0
278
    -2
288
     1
 68
     0
279
    -2
289
     1
 69
     0
  7
Standard
140
0.25
170
     5
 62
     0
 63
     7
283
     0
274
    -2
284
     1
 64
     0
275
    -2
285
     1
 65
     0
276
    -2
286
     1
 66
     0
277
    -2
287
     1
 67
     0
278
    -2
288
     1
 68
     0
279
    -2
289
     1
 69
     0
  7
Standard
140
0.18
170
     5
 62
     0
 63
     7
283
     0
274
    -2
284
     1
 64
     0
275
    -2
285
     1
 65
     0
276
    -2
286
     1
 66
     0
277
    -2
287
     1
 67
     0
278
    -2
288
     1
 68
     0
279
    -2
289
     1
 69
     0
  0
VISUALSTYLE
  5
2F
102
{ACAD_XDICTIONARY
360
31F
102
}
102
{ACAD_REACTORS
330
29
102
}
330
29
100
AcDbVisualStyle
  2
2dWireframe
 70
     4
 71
     0
 72
     2
 73
     0
 90
        0
 40
-0.6
 41
-30.0
 62
     5
 63
     7
 74
     1
 91
        4
 64
     7
 65
   257
 75
     1
175
     1
 42
1.0
 92
        0
 66
   257
 43
1.0
 76
     1
 77
     6
 78
     2
 67
     7
 79
     5
170
     0
171
     0
290
     0
174
     0
 93
        1
 44
0.0
173
     0
291
     0
 45
0.0
1001
ACAD
1000
AcDbSavedByObjectVersion
1070
     0
  0
VISUALSTYLE
  5
35E
102
{ACAD_REACTORS
330
29
102
}
330
29
100
AcDbVisualStyle
  2
3D Hidden
 70
     6
 71
     1
 72
     2
 73
     2
 90
        0
 40
-0.6
 41
-30.0
 62
     5
 63
     7
 74
     2
 91
        2
 64
     7
 65
   257
 75
     2
175
     1
 42
40.0
 92
        0
 66
   257
 43
1.0
 76
     1
 77
     6
 78
     2
 67
     7
 79
     3
170
     0
171
     0
290
     0
174
     0
 93
        1
 44
0.0
173
     0
291
     0
 45
0.0
1001
ACAD
1000
AcDbSavedByObjectVersion
1070
     0
  0
VISUALSTYLE
  5
35D
102
{ACAD_REACTORS
330
29
102
}
330
29
100
AcDbVisualStyle
  2
3dWireframe
 70
     5
 71
     0
 72
     2
 73
     0
 90
        0
 40
-0.6
 41
-30.0
 62
     5
 63
     7
 74
     1
 91
        4
 64
     7
 65
   257
 75
     1
175
     1
 42
1.0
 92
        0
 66
   257
 43
1.0
 76
     1
 77
     6
 78
     2
 67
     7
 79
     5
170
     0
171
     0
290
     0
174
     0
 93
        1
 44
0.0
173
     0
291
     0
 45
0.0
1001
ACAD
1000
AcDbSavedByObjectVersion
1070
     0
  0
VISUALSTYLE
  5
2E
102
{ACAD_XDICTIONARY
360
31D
102
}
102
{ACAD_REACTORS
330
29
102
}
330
29
100
AcDbVisualStyle
  2
Basic
 70
     7
 71
     1
 72
     0
 73
     1
 90
        0
 40
-0.6
 41
-30.0
 62
     5
 63
     7
 74
     0
 91
        4
 64
     7
 65
   257
 75
     1
175
     1
 42
1.0
 92
        8
 66
     7
 43
1.0
 76
     1
 77
     6
 78
     2
 67
     7
 79
     5
170
     0
171
     0
290
     0
174
     0
 93
        1
 44
0.0
173
     0
291
     1
 45
0.0
1001
ACAD
1000
AcDbSavedByObjectVersion
1070
     0
  0
VISUALSTYLE
  5
35
102
{ACAD_XDICTIONARY
360
32B
102
}
102
{ACAD_REACTORS
330
29
102
}
330
29
100
AcDbVisualStyle
  2
Brighten
 70
    12
 71
     2
 72
     2
 73
     0
 90
        0
 40
-0.6
 41
-30.0
 62
     5
 63
     7
 74
     1
 91
        4
 64
     7
 65
   257
 75
     1
175
     1
 42
1.0
 92
        8
 66
     7
 43
1.0
 76
     1
 77
     6
 78
     2
 67
     7
 79
     5
170
     0
171
     0
290
     0
174
     0
 93
        1
 44
50.0
173
     0
291
     1
 45
0.0
1001
ACAD
1000
AcDbSavedByObjectVersion
1070
     0
  0
VISUALSTYLE
  5
39
102
{ACAD_XDICTIONARY
360
333
102
}
102
{ACAD_REACTORS
330
29
102
}
330
29
100
AcDbVisualStyle
  2
ColorChange
 70
    16
 71
     2
 72
     2
 73
     3
 90
        0
 40
-0.6
 41
-30.0
 62
     5
 63
     8
 74
     1
 91
        4
 64
     7
 65
   257
 75
     1
175
     1
 42
1.0
 92
        8
 66
     8
 43
1.0
 76
     1
 77
     6
 78
     2
 67
     7
 79
     5
170
     0
171
     0
290
     0
174
     0
 93
        1
 44
0.0
173
     0
291
     1
 45
0.0
1001
ACAD
1000
AcDbSavedByObjectVersion
1070
     0
  0
VISUALSTYLE
  5
32
102
{ACAD_XDICTIONARY
360
325
102
}
102
{ACAD_REACTORS
330
29
102
}
330
29
100
AcDbVisualStyle
  2
Conceptual
 70
     9
 71
     3
 72
     2
 73
     0
 90
        0
 40
-0.6
 41
-30.0
 62
     5
 63
     7
 74
     2
 91
        2
 64
     7
 65
   257
 75
     1
175
     1
 42
179.0
 92
        8
 66
     7
 43
1.0
 76
     1
 77
     6
 78
     2
 67
     7
 79
     3
170
     0
171
     0
290
     0
174
     0
 93
        1
 44
0.0
173
     0
291
     0
 45
0.0
1001
ACAD
1000
AcDbSavedByObjectVersion
1070
     0
  0
VISUALSTYLE
  5
34
102
{ACAD_XDICTIONARY
360
329
102
}
102
{ACAD_REACTORS
330
29
102
}
330
29
100
AcDbVisualStyle
  2
Dim
 70
    11
 71
     2
 72
     2
 73
     0
 90
        0
 40
-0.6
 41
-30.0
 62
     5
 63
     7
 74
     1
 91
        4
 64
     7
 65
   257
 75
     1
175
     1
 42
1.0
 92
        8
 66
     7
 43
1.0
 76
     1
 77
     6
 78
     2
 67
     7
 79
     5
170
     0
171
     0
290
     0
174
     0
 93
        1
 44
-50.0
173
     0
291
     1
 45
0.0
1001
ACAD
1000
AcDbSavedByObjectVersion
1070
     0
  0
VISUALSTYLE
  5
41
102
{ACAD_XDICTIONARY
360
343
102
}
102
{ACAD_REACTORS
330
29
102
}
330
29
100
AcDbVisualStyle
  2
EdgeColorOff
 70
    22
 71
     2
 72
     2
 73
     0
 90
        0
 40
-0.6
 41
-30.0
 62
     5
 63
     7
 74
     1
 91
        4
 64
     7
 65
   257
 75
     1
175
     1
 42
1.0
 92
        8
 66
     7
 43
1.0
 76
     1
 77
     6
 78
     2
 67
     7
 79
     5
170
     0
171
     0
290
     0
174
     0
 93
        1
 44
0.0
173
     0
291
     1
 45
0.0
1001
ACAD
1000
AcDbSavedByObjectVersion
1070
     0
  0
VISUALSTYLE
  5
38
102
{ACAD_XDICTIONARY
360
331
102
}
102
{ACAD_REACTORS
330
29
102
}
330
29
100
AcDbVisualStyle
  2
Facepattern
 70
    15
 71
     2
 72
     2
 73
     0
 90
        0
 40
-0.6
 41
-30.0
 62
     5
 63
     7
 74
     1
 91
        4
 64
     7
 65
   257
 75
     1
175
     1
 42
1.0
 92
        8
 66
     7
 43
1.0
 76
     1
 77
     6
 78
     2
 67
     7
 79
     5
170
     0
171
     0
290
     0
174
     0
 93
        1
 44
0.0
173
     0
291
     1
 45
0.0
1001
ACAD
1000
AcDbSavedByObjectVersion
1070
     0
  0
VISUALSTYLE
  5
2A
102
{ACAD_XDICTIONARY
360
315
102
}
102
{ACAD_REACTORS
330
29
102
}
330
29
100
AcDbVisualStyle
  2
Flat
 70
     0
 71
     2
 72
     1
 73
     1
 90
        2
 40
-0.6
 41
30.0
 62
     5
 63
     7
 74
     0
 91
        0
 64
     7
 65
   257
 75
     1
175
     1
 42
1.0
 92
        8
 66
     7
 43
1.0
 76
     1
 77
     6
 78
     2
 67
     7
 79
     5
170
     0
171
     0
290
     0
174
     0
 93
       13
 44
0.0
173
     0
291
     1
 45
0.0
1001
ACAD
1000
AcDbSavedByObjectVersion
1070
     0
  0
VISUALSTYLE
  5
2B
102
{ACAD_XDICTIONARY
360
317
102
}
102
{ACAD_REACTORS
330
29
102
}
330
29
100
AcDbVisualStyle
  2
FlatWithEdges
 70
     1
 71
     2
 72
     1
 73
     1
 90
        2
 40
-0.6
 41
30.0
 62
     5
 63
     7
 74
     1
 91
        0
 64
     7
 65
   257
 75
     1
175
     1
 42
1.0
 92
        0
 66
   257
 43
1.0
 76
     1
 77
     6
 78
     2
 67
     7
 79
     5
170
     0
171
     0
290
     0
174
     0
 93
       13
 44
0.0
173
     0
291
     1
 45
0.0
1001
ACAD
1000
AcDbSavedByObjectVersion
1070
     0
  0
VISUALSTYLE
  5
2C
102
{ACAD_XDICTIONARY
360
319
102
}
102
{ACAD_REACTORS
330
29
102
}
330
29
100
AcDbVisualStyle
  2
Gouraud
 70
     2
 71
     2
 72
     2
 73
     1
 90
        2
 40
-0.6
 41
30.0
 62
     5
 63
     7
 74
     0
 91
        0
 64
     7
 65
   257
 75
     1
175
     1
 42
1.0
 92
        0
 66
     7
 43
1.0
 76
     1
 77
     6
 78
     2
 67
     7
 79
     5
170
     0
171
     0
290
     0
174
     0
 93
       13
 44
0.0
173
     0
291
     1
 45
0.0
1001
ACAD
1000
AcDbSavedByObjectVersion
1070
     0
  0
VISUALSTYLE
  5
2D
102
{ACAD_XDICTIONARY
360
31B
102
}
102
{ACAD_REACTORS
330
29
102
}
330
29
100
AcDbVisualStyle
  2
GouraudWithEdges
 70
     3
 71
     2
 72
     2
 73
     1
 90
        2
 40
-0.6
 41
30.0
 62
     5
 63
     7
 74
     1
 91
        0
 64
     7
 65
   257
 75
     1
175
     1
 42
1.0
 92
        0
 66
   257
 43
1.0
 76
     1
 77
     6
 78
     2
 67
     7
 79
     5
170
     0
171
     0
290
     0
174
     0
 93
       13
 44
0.0
173
     0
291
     1
 45
0.0
1001
ACAD
1000
AcDbSavedByObjectVersion
1070
     0
  0
VISUALSTYLE
  5
31
102
{ACAD_XDICTIONARY
360
323
102
}
102
{ACAD_REACTORS
330
29
102
}
330
29
100
AcDbVisualStyle
  2
Hidden
 70
     6
 71
     1
 72
     2
 73
     2
 90
        0
 40
-0.6
 41
-30.0
 62
     5
 63
     7
 74
     2
 91
        2
 64
     7
 65
   257
 75
     2
175
     1
 42
40.0
 92
        0
 66
   257
 43
1.0
 76
     1
 77
     6
 78
     2
 67
     7
 79
     3
170
     0
171
     0
290
     0
174
     0
 93
        1
 44
0.0
173
     0
291
     0
 45
0.0
1001
ACAD
1000
AcDbSavedByObjectVersion
1070
     0
  0
VISUALSTYLE
  5
3F
102
{ACAD_XDICTIONARY
360
33F
102
}
102
{ACAD_REACTORS
330
29
102
}
330
29
100
AcDbVisualStyle
  2
JitterOff
 70
    20
 71
     2
 72
     2
 73
     0
 90
        0
 40
-0.6
 41
-30.0
 62
     5
 63
     7
 74
     1
 91
        4
 64
     7
 65
   257
 75
     1
175
     1
 42
1.0
 92
       10
 66
     7
 43
1.0
 76
     1
 77
     6
 78
     2
 67
     7
 79
     5
170
     0
171
     0
290
     0
174
     0
 93
        1
 44
0.0
173
     0
291
     1
 45
0.0
1001
ACAD
1000
AcDbSavedByObjectVersion
1070
     0
  0
VISUALSTYLE
  5
37
102
{ACAD_XDICTIONARY
360
32F
102
}
102
{ACAD_REACTORS
330
29
102
}
330
29
100
AcDbVisualStyle
  2
Linepattern
 70
    14
 71
     2
 72
     2
 73
     0
 90
        0
 40
-0.6
 41
-30.0
 62
     5
 63
     7
 74
     1
 91
        4
 64
     7
 65
   257
 75
     7
175
     7
 42
1.0
 92
        8
 66
     7
 43
1.0
 76
     1
 77
     6
 78
     2
 67
     7
 79
     5
170
     0
171
     0
290
     0
174
     0
 93
        1
 44
0.0
173
     0
291
     1
 45
0.0
1001
ACAD
1000
AcDbSavedByObjectVersion
1070
     0
  0
VISUALSTYLE
  5
40
102
{ACAD_XDICTIONARY
360
341
102
}
102
{ACAD_REACTORS
330
29
102
}
330
29
100
AcDbVisualStyle
  2
OverhangOff
 70
    21
 71
     2
 72
     2
 73
     0
 90
        0
 40
-0.6
 41
-30.0
 62
     5
 63
     7
 74
     1
 91
        4
 64
     7
 65
   257
 75
     1
175
     1
 42
1.0
 92
        9
 66
     7
 43
1.0
 76
     1
 77
     6
 78
     2
 67
     7
 79
     5
170
     0
171
     0
290
     0
174
     0
 93
        1
 44
0.0
173
     0
291
     1
 45
0.0
1001
ACAD
1000
AcDbSavedByObjectVersion
1070
     0
  0
VISUALSTYLE
  5
33
102
{ACAD_XDICTIONARY
360
327
102
}
102
{ACAD_REACTORS
330
29
102
}
330
29
100
AcDbVisualStyle
  2
Realistic
 70
     8
 71
     2
 72
     2
 73
     0
 90
        2
 40
-0.6
 41
30.0
 62
     5
 63
     7
 74
     0
 91
        0
 64
     7
 65
   257
 75
     1
175
     1
 42
1.0
 92
        8
 66
   257
 43
1.0
 76
     1
 77
     6
 78
     2
 67
     7
 79
     3
170
     0
171
     0
290
     0
174
     0
 93
       13
 44
0.0
173
     0
291
     0
 45
0.0
1001
ACAD
1000
AcDbSavedByObjectVersion
1070
     0
  0
VISUALSTYLE
  5
3E
102
{ACAD_XDICTIONARY
360
33D
102
}
102
{ACAD_REACTORS
330
29
102
}
330
29
100
AcDbVisualStyle
  2
Shaded
 70
    27
 71
     2
 72
     2
 73
     1
 90
        2
 40
-0.6
 41
30.0
 62
     5
 63
     7
 74
     0
 91
        4
 64
     7
 65
   257
 75
     1
175
     1
 42
1.0
 92
        8
 66
   257
 43
1.0
 76
     1
 77
     6
 78
     2
 67
     8
 79
     3
170
     0
171
     0
290
     0
174
     0
 93
        5
 44
0.0
173
     0
291
     0
 45
0.0
1001
ACAD
1000
AcDbSavedByObjectVersion
1070
     0
  0
VISUALSTYLE
  5
3D
102
{ACAD_XDICTIONARY
360
33B
102
}
102
{ACAD_REACTORS
330
29
102
}
330
29
100
AcDbVisualStyle
  2
Shaded with edges
 70
    26
 71
     2
 72
     2
 73
     1
 90
        2
 40
-0.6
 41
30.0
 62
     5
 63
     7
 74
     1
 91
       10
 64
     7
 65
   257
 75
     2
175
     1
 42
1.0
 92
        8
 66
   257
 43
1.0
 76
     1
 77
     6
 78
     2
 67
     7
 79
     3
170
     0
171
     0
290
     0
174
     0
 93
        5
 44
0.0
173
     0
291
     0
 45
0.0
1001
ACAD
1000
AcDbSavedByObjectVersion
1070
     0
  0
VISUALSTYLE
  5
3A
102
{ACAD_XDICTIONARY
360
335
102
}
102
{ACAD_REACTORS
330
29
102
}
330
29
100
AcDbVisualStyle
  2
Shades of Gray
 70
    23
 71
     2
 72
     2
 73
     3
 90
        0
 40
-0.6
 41
-30.0
 62
     5
 63
     7
 74
     2
 91
        2
 64
     7
 65
     7
 75
     1
175
     1
 42
40.0
 92
        8
 66
     7
 43
1.0
 76
     1
 77
     6
 78
     2
 67
     7
 79
     3
170
     0
171
     0
290
     0
174
     0
 93
        1
 44
0.0
173
     0
291
     0
 45
0.0
1001
ACAD
1000
AcDbSavedByObjectVersion
1070
     0
  0
VISUALSTYLE
  5
3B
102
{ACAD_XDICTIONARY
360
337
102
}
102
{ACAD_REACTORS
330
29
102
}
330
29
100
AcDbVisualStyle
  2
Sketchy
 70
    24
 71
     1
 72
     2
 73
     2
 90
        0
 40
-0.6
 41
-30.0
 62
     5
 63
     7
 74
     2
 91
        2
 64
     7
 65
     7
 75
     1
175
     1
 42
40.0
 92
       11
 66
     7
 43
1.0
 76
     1
 77
     6
 78
     2
 67
     7
 79
     6
170
     0
171
     0
290
     0
174
     0
 93
        1
 44
0.0
173
     0
291
     0
 45
0.0
1001
ACAD
1000
AcDbSavedByObjectVersion
1070
     0
  0
VISUALSTYLE
  5
36
102
{ACAD_XDICTIONARY
360
32D
102
}
102
{ACAD_REACTORS
330
29
102
}
330
29
100
AcDbVisualStyle
  2
Thicken
 70
    13
 71
     2
 72
     2
 73
     0
 90
        0
 40
-0.6
 41
-30.0
 62
     5
 63
     7
 74
     1
 91
        4
 64
     7
 65
   257
 75
     1
175
     1
 42
1.0
 92
       12
 66
     7
 43
1.0
 76
     1
 77
     6
 78
     2
 67
     7
 79
     5
170
     0
171
     0
290
     0
174
     0
 93
        1
 44
0.0
173
     0
291
     1
 45
0.0
1001
ACAD
1000
AcDbSavedByObjectVersion
1070
     0
  0
VISUALSTYLE
  5
30
102
{ACAD_XDICTIONARY
360
321
102
}
102
{ACAD_REACTORS
330
29
102
}
330
29
100
AcDbVisualStyle
  2
Wireframe
 70
     5
 71
     0
 72
     2
 73
     0
 90
        0
 40
-0.6
 41
-30.0
 62
     5
 63
     7
 74
     1
 91
        4
 64
     7
 65
   257
 75
     1
175
     1
 42
1.0
 92
        0
 66
   257
 43
1.0
 76
     1
 77
     6
 78
     2
 67
     7
 79
     3
170
     0
171
     0
290
     0
174
     0
 93
        1
 44
0.0
173
     0
291
     0
 45
0.0
1001
ACAD
1000
AcDbSavedByObjectVersion
1070
     0
  0
VISUALSTYLE
  5
3C
102
{ACAD_XDICTIONARY
360
339
102
}
102
{ACAD_REACTORS
330
29
102
}
330
29
100
AcDbVisualStyle
  2
X-Ray
 70
    25
 71
     2
 72
     2
 73
     1
 90
        1
 40
0.5
 41
-30.0
 62
     5
 63
     7
 74
     1
 91
        0
 64
     7
 65
   257
 75
     1
175
     1
 42
1.0
 92
        8
 66
     7
 43
1.0
 76
     1
 77
     6
 78
     2
 67
     7
 79
     3
170
     0
171
     0
290
     0
174
     0
 93
       13
 44
0.0
173
     0
291
     0
 45
0.0
1001
ACAD
1000
AcDbSavedByObjectVersion
1070
     0
  0
DICTIONARYVAR
  5
353
102
{ACAD_REACTORS
330
34F
102
}
330
34F
100
DictionaryVariables
280
     0
  1
1:1
  0
DICTIONARYVAR
  5
351
102
{ACAD_REACTORS
330
34F
102
}
330
34F
100
DictionaryVariables
280
     0
  1
STANDARD
  0
DICTIONARYVAR
  5
350
102
{ACAD_REACTORS
330
34F
102
}
330
34F
100
DictionaryVariables
280
     0
  1
STANDARD
  0
DICTIONARYVAR
  5
35A
102
{ACAD_REACTORS
330
34F
102
}
330
34F
100
DictionaryVariables
280
     0
  1
1
  0
DICTIONARYVAR
  5
359
102
{ACAD_REACTORS
330
34F
102
}
330
34F
100
DictionaryVariables
280
     0
  1
1
  0
DICTIONARYVAR
  5
358
102
{ACAD_REACTORS
330
34F
102
}
330
34F
100
DictionaryVariables
280
     0
  1
0
  0
DICTIONARYVAR
  5
355
102
{ACAD_REACTORS
330
34F
102
}
330
34F
100
DictionaryVariables
280
     0
  1
0
  0
DICTIONARYVAR
  5
356
102
{ACAD_REACTORS
330
34F
102
}
330
34F
100
DictionaryVariables
280
     0
  1
0
  0
DICTIONARYVAR
  5
354
102
{ACAD_REACTORS
330
34F
102
}
330
34F
100
DictionaryVariables
280
     0
  1
2
  0
DICTIONARYVAR
  5
352
102
{ACAD_REACTORS
330
34F
102
}
330
34F
100
DictionaryVariables
280
     0
  1
1
  0
DICTIONARYVAR
  5
357
102
{ACAD_REACTORS
330
34F
102
}
330
34F
100
DictionaryVariables
280
     0
  1
127
  0
DICTIONARYVAR
  5
35B
102
{ACAD_REACTORS
330
34F
102
}
330
34F
100
DictionaryVariables
280
     0
  1
0
  0
DICTIONARY
  5
3CC
102
{ACAD_REACTORS
330
3C1
102
}
330
3C1
100
AcDbDictionary
281
     1
  0
DICTIONARY
  5
418
330
6B
100
AcDbDictionary
280
     1
281
     1
  3
ACAD_XREC_ROUNDTRIP
360
419
  0
DICTIONARY
  5
41C
330
73
100
AcDbDictionary
280
     1
281
     1
  3
ACAD_XREC_ROUNDTRIP
360
41D
  0
DICTIONARY
  5
41A
330
6F
100
AcDbDictionary
280
     1
281
     1
  3
ACAD_XREC_ROUNDTRIP
360
41B
  0
DICTIONARY
  5
1A
330
19
100
AcDbDictionary
280
     1
281
     1
  3
ACAD_XREC_ROUNDTRIP
360
415
  3
BUMPTILE
360
1C
  3
DIFFUSETILE
360
1B
  3
OPACITYTILE
360
1F
  3
REFLECTIONTILE
360
1E
  3
REFRACTIONTILE
360
20
  3
SPECULARTILE
360
1D
  0
DICTIONARY
  5
12
330
11
100
AcDbDictionary
280
     1
281
     1
  3
ACAD_XREC_ROUNDTRIP
360
414
  3
BUMPTILE
360
14
  3
DIFFUSETILE
360
13
  3
FBXASSET
360
11B
  3
OPACITYTILE
360
17
  3
REFLECTIONTILE
360
16
  3
REFRACTIONTILE
360
18
  3
SPECULARTILE
360
15
  0
DICTIONARY
  5
22
330
21
100
AcDbDictionary
280
     1
281
     1
  3
ACAD_XREC_ROUNDTRIP
360
416
  3
BUMPTILE
360
24
  3
DIFFUSETILE
360
23
  3
OPACITYTILE
360
27
  3
REFLECTIONTILE
360
26
  3
REFRACTIONTILE
360
28
  3
SPECULARTILE
360
25
  0
DICTIONARY
  5
2FC
330
67
100
AcDbDictionary
280
     1
281
     1
  3
ACAD_XREC_ROUNDTRIP
360
2FD
  0
DICTIONARY
  5
2FA
330
65
100
AcDbDictionary
280
     1
281
     1
  3
ACAD_ROUNDTRIP_2008_TABLESTYLE_CELLSTYLEMAP
360
40C
  3
ACAD_XREC_ROUNDTRIP
360
417
  0
DICTIONARY
  5
31F
330
2F
100
AcDbDictionary
280
     1
281
     1
  3
ACAD_XREC_ROUNDTRIP
360
320
  0
DICTIONARY
  5
31D
330
2E
100
AcDbDictionary
280
     1
281
     1
  3
ACAD_XREC_ROUNDTRIP
360
31E
  0
DICTIONARY
  5
32B
330
35
100
AcDbDictionary
280
     1
281
     1
  3
ACAD_XREC_ROUNDTRIP
360
32C
  0
DICTIONARY
  5
333
330
39
100
AcDbDictionary
280
     1
281
     1
  3
ACAD_XREC_ROUNDTRIP
360
334
  0
DICTIONARY
  5
325
330
32
100
AcDbDictionary
280
     1
281
     1
  3
ACAD_XREC_ROUNDTRIP
360
326
  0
DICTIONARY
  5
329
330
34
100
AcDbDictionary
280
     1
281
     1
  3
ACAD_XREC_ROUNDTRIP
360
32A
  0
DICTIONARY
  5
343
330
41
100
AcDbDictionary
280
     1
281
     1
  3
ACAD_XREC_ROUNDTRIP
360
344
  0
DICTIONARY
  5
331
330
38
100
AcDbDictionary
280
     1
281
     1
  3
ACAD_XREC_ROUNDTRIP
360
332
  0
DICTIONARY
  5
315
330
2A
100
AcDbDictionary
280
     1
281
     1
  3
ACAD_XREC_ROUNDTRIP
360
316
  0
DICTIONARY
  5
317
330
2B
100
AcDbDictionary
280
     1
281
     1
  3
ACAD_XREC_ROUNDTRIP
360
318
  0
DICTIONARY
  5
319
330
2C
100
AcDbDictionary
280
     1
281
     1
  3
ACAD_XREC_ROUNDTRIP
360
31A
  0
DICTIONARY
  5
31B
330
2D
100
AcDbDictionary
280
     1
281
     1
  3
ACAD_XREC_ROUNDTRIP
360
31C
  0
DICTIONARY
  5
323
330
31
100
AcDbDictionary
280
     1
281
     1
  3
ACAD_XREC_ROUNDTRIP
360
324
  0
DICTIONARY
  5
33F
330
3F
100
AcDbDictionary
280
     1
281
     1
  3
ACAD_XREC_ROUNDTRIP
360
340
  0
DICTIONARY
  5
32F
330
37
100
AcDbDictionary
280
     1
281
     1
  3
ACAD_XREC_ROUNDTRIP
360
330
  0
DICTIONARY
  5
341
330
40
100
AcDbDictionary
280
     1
281
     1
  3
ACAD_XREC_ROUNDTRIP
360
342
  0
DICTIONARY
  5
327
330
33
100
AcDbDictionary
280
     1
281
     1
  3
ACAD_XREC_ROUNDTRIP
360
328
  0
DICTIONARY
  5
33D
330
3E
100
AcDbDictionary
280
     1
281
     1
  3
ACAD_XREC_ROUNDTRIP
360
33E
  0
DICTIONARY
  5
33B
330
3D
100
AcDbDictionary
280
     1
281
     1
  3
ACAD_XREC_ROUNDTRIP
360
33C
  0
DICTIONARY
  5
335
330
3A
100
AcDbDictionary
280
     1
281
     1
  3
ACAD_XREC_ROUNDTRIP
360
336
  0
DICTIONARY
  5
337
330
3B
100
AcDbDictionary
280
     1
281
     1
  3
ACAD_XREC_ROUNDTRIP
360
338
  0
DICTIONARY
  5
32D
330
36
100
AcDbDictionary
280
     1
281
     1
  3
ACAD_XREC_ROUNDTRIP
360
32E
  0
DICTIONARY
  5
321
330
30
100
AcDbDictionary
280
     1
281
     1
  3
ACAD_XREC_ROUNDTRIP
360
322
  0
DICTIONARY
  5
339
330
3C
100
AcDbDictionary
280
     1
281
     1
  3
ACAD_XREC_ROUNDTRIP
360
33A
  0
XRECORD
  5
419
102
{ACAD_REACTORS
330
418
102
}
330
418
100
AcDbXrecord
280
     1
102
SHADEPLOT
 70
     0
102
SHADEPLOTRESLEVEL
 70
     2
102
SHADEPLOTCUSTOMDPI
 70
   300
  0
XRECORD
  5
41D
102
{ACAD_REACTORS
330
41C
102
}
330
41C
100
AcDbXrecord
280
     1
102
SHADEPLOT
 70
     0
102
SHADEPLOTRESLEVEL
 70
     2
102
SHADEPLOTCUSTOMDPI
 70
   300
  0
XRECORD
  5
41B
102
{ACAD_REACTORS
330
41A
102
}
330
41A
100
AcDbXrecord
280
     1
102
SHADEPLOT
 70
     0
102
SHADEPLOTRESLEVEL
 70
     2
102
SHADEPLOTCUSTOMDPI
 70
   300
  0
XRECORD
  5
415
102
{ACAD_REACTORS
330
1A
102
}
330
1A
100
AcDbXrecord
280
     1
102
MATERIAL
148
0.0
149
0.0
149
0.0
 93
        0
 94
      127
282
     0
 72
     0
 77
     0
171
     0
175
     0
179
     0
273
     0
  0
XRECORD
  5
1C
102
{ACAD_REACTORS
330
1A
102
}
330
1A
100
AcDbXrecord
280
     1
270
     1
271
     1
  0
XRECORD
  5
1B
102
{ACAD_REACTORS
330
1A
102
}
330
1A
100
AcDbXrecord
280
     1
270
     1
271
     1
  0
XRECORD
  5
1F
102
{ACAD_REACTORS
330
1A
102
}
330
1A
100
AcDbXrecord
280
     1
270
     1
271
     1
  0
XRECORD
  5
1E
102
{ACAD_REACTORS
330
1A
102
}
330
1A
100
AcDbXrecord
280
     1
270
     1
271
     1
  0
XRECORD
  5
20
102
{ACAD_REACTORS
330
1A
102
}
330
1A
100
AcDbXrecord
280
     1
270
     1
271
     1
  0
XRECORD
  5
1D
102
{ACAD_REACTORS
330
1A
102
}
330
1A
100
AcDbXrecord
280
     1
270
     1
271
     1
  0
XRECORD
  5
414
102
{ACAD_REACTORS
330
12
102
}
330
12
100
AcDbXrecord
280
     1
102
MATERIAL
148
0.0
149
0.0
149
0.0
 93
        0
 94
      127
282
     0
 72
     0
 77
     0
171
     0
175
     0
179
     0
273
     0
  0
XRECORD
  5
14
102
{ACAD_REACTORS
330
12
102
}
330
12
100
AcDbXrecord
280
     1
270
     1
271
     1
  0
XRECORD
  5
13
102
{ACAD_REACTORS
330
12
102
}
330
12
100
AcDbXrecord
280
     1
270
     1
271
     1
  0
XRECORD
  5
11B
102
{ACAD_REACTORS
330
12
102
}
330
12
100
AcDbXrecord
280
     1
 70
     1
 90
1959938040
 71
     1
  1
5F750634-9830-462C-9EC6-501E6854FF1A
311
504B03040A0000080000354452413DEE336E79000000790000001B0000006175746F6465736B2D64657369676E2D7061636B6167652E786D6C3C3F786D6C2076657273696F6E3D22312E302220656E636F64696E673D227574662D3822203F3E3C666F726D6174733E3C666F726D61743E687474703A2F2F736368656D612E
311
6175746F6465736B2E636F6D2F64657369676E2D7061636B6167652F323030393C2F666F726D61743E3C2F666F726D6174733E504B030414000608080035445241D486FD9CA0000000F4000000130000005B436F6E74656E745F54797065735D2E786D6C7D8EC10E82300C865F65E91D8A1E8C310C0EEA1BF002731658846E
311
D98AC1B77784ABF1D8FE5FBFBF75BBCE937A534CCEB38643598122B6FEE978D0B0485F9C41B54DDD7D022595594E1A469170414C76A4D9A4D207E29CF43ECE46F218070CC6BECC4078ACAA135ACF422C856C0E68EA1BF5669944DDD7BCDE7B1F8E415D77AECB980613C2E4AC91FC167A2B244592486606FC29C8FD7F045B9A
311
EF7053A7E60B504B030414000608080035445241C8010930EA0000007C01000008000000636F72652E786D6C8D50D18EC22010FC15C2EB851668D5DA504CA3775F703F4060AD440B4D01E3E71FD59ADCBDDDD3EECECEEC4E461C1EE30DDD610ED6BB0EB38262044E7B63DDD0E114CFA4C1E820C5EC7DFC45C3C8A9113ABCC0
311
588A61F6695A21ED5D041733EABC8115542140C448DF72D3E1A02F30AA42A59819E15A4C4A5FD500057B77599C9235E8F5C49A7CCF9E2DCC58B2FAB3E7DB2327FB9E55240F7BD21F1B46FACD69B7ED4F7CB7F9AA45B988A588767CFFD733A808064B4E19278C12D67CD3A6ADAAB6E61F94B5948A72A1FF11A5C9FC5394AC8B
311
155FEDBE64217BCD469E0B29CA258B5C9E41E5BAE4267F00504B03041400060808003544524155019EA25F0000007C00000007000000636E782E786D6C4DCB3B0E80201045D1AD90E915ED2CF8AC45050C11660C8261F98AB1B07AC9C97D42D718D865D3E909258CFD00CCE24AC6E326A164D74DC0B4128928FF326038472B
311
A13128B1252AC747C6BAB984FC68F0B87FE8960A5C09FE86CFB69FBA01504B0304140006080800354452411A14200166010000020300000C0000006662782F636F72652E786D6C8D525B6E833010BC8AE5DFCA180379CA3842497B825EC00187A2808D8C8D72FC2E8F88A68AA20809CCCECECEEC003FDC9A1AF5CA7695D129
311
66418891D2B9292A5DA6D8BB0BD9627410DC1AE3FEB461A465A3523C94B1E0A535BE9D4BB9D14E6907556D0A351765D72987515EC321C55DFEA31A1948EFA0A3BB06ADCCAFB254010B00863EC13B67C1009A44863B1697F38DD3A92EB8F75531A355016AD5A552160B967C66D1FA18915DC662022F3B921DB78C64ABD3669D
311
9DA2CDEA2BE174200BEEAAE6EE2EB74A3A556011852C222C246CFB1D6EF771BC4FA28F90EDC390D3A1FD81E4DBE24D92AFB48BA3D9EE44EBC02B1819817FDB42440E75B2073F54703A84088F31E1C7A0211008D9C9737DDFE30AA55EE5CED80490C2F805EA65ED15A88668BC389D50983C0E80CD9ECE895ECC793D033EA0D4
311
2558930E8E67EF06753EA9CE51B4CA92DEDD9036B691F5626EB2B8DC17A1A7F4DCD4C6BEC3A6F3AA740E930E7FAFF805504B030414000608080035445241C7E38A3A7D0000009D0000000B0000006662782F636E782E786D6C4DCCD10A83201886E15B91FFDCA51569A08606DE472C8B98E9703A76F9ABD1C18E3E78F878C5
311
F0D93D7ABBF4DA6290406F04900BF7386F619550F28239A041891463FEBB010AD3EE249C0C4AAC2996E745B35BA6E2F3A17E0B8F0B5BA69B91F735EE1869704B29C1C668836BADBB9E8DB6B79643A544F52B1D7B86D517504B030414000608080035445241756264922C01000015020000310000006662782F343741334338
311
39322D363730332D343131302D424241422D3241413639374346394646382F636F72652E786D6C8D515B6EC32010BC0AE22B55651B6C6A3B11267222E504BD000192A2C460F1A872FC42ED48ED5F7E58343B333BDAA5FBC77407DFCA796DCD00718920504658A9CD7580315C8A1E823DA3CEDAF0870681E1931A608621A357
311
67E3BC42C29AA04C48A8B152AD20F75E0508C43D7D06E8C5979A78C963480C7F2B672E6EFCAA4A5CA676E231EA834B01C03224BF90916E6C8EFDB62EDA0E3505C1181587C37828EA716CB7DDF1B43D9D7A5A2D424663D472956B99E2E88B56EE55932C6634E8E9195F38C5839290D508D7459A8CFB4FD4EF9A6647EA778477
311
08D12AD3FF89E22C5F14456D4253AF711799870CD36A69302A6D3CDF9F61D463B62E803C6FE39578830C9508B598900EB5B45AB86903C9B425ABA90FD6A50D6F6EE744C71F8B734B18ADF29152F9BD60AAF9A0EC07504B03041400060808003544524182E812E34D01000033030000300000006662782F3437413343383932
311
2D363730332D343131302D424241422D3241413639374346394646382F636E782E786D6CD593CD6E022114855F85B06DE6079D1863184CBAE81374D12DC255A90C4CF869EADBF7A268DDB8E8B21B3239F770CECD17866FBF274BBE2044E3DD4859DB53024E796DDC61A439ED9B35255BC183F7E9C1468993138CB4C854F043
311
F079AE9286BDCC36A16A8D3B553140F439288828979BC47A252D06806B328A30ED406BD0E46EC4AF3D045C05C5DD99A42390B7D70FE2779FA052E45D4911BC2B1D8297B3363D98285156C638D2A88E30C956E6E435C453AB65922D6B6F5D4F76FA4D22E5C2AD3207434AF948CB4945DDA8458EBCC3A1E03105A4574DE93C03
311
15729EAD513221E4EE62BC7A04CFC6A5D550BD06C10774B3D5721830EC32133C9909AA4305900934158B9E2D1AD6376CFDDEAF37CBE56658BCF46CD3F7BC2B76C177DEDB7A096320F89928EF12B84405E35D193FC3577D449B80AC7D38FF012402A8AD573AF78CFFCCA7BBBC6FC415F02F103F504B03041400060808003544
311
52413237FCA8A405000081100000340000006662782F34374133433839322D363730332D343131302D424241422D3241413639374346394646382F6F626A656374732E786D6CAD57DB6EDB3810FD1541FBB2FB60CBF2254D168A8AC48E0BA34D5BD448B10F060C4AA2146EA80B482A75F6EBF750A264C9B153EFA22F924891
311
C39933672EF4DEEF526E3D5321599E5DDBEE70645B340BF38865C9B55DAA7870695BEF7D4FE4B9EA2CB3AD8CA4F4DAD6D3B6EF25222F0B3315D198945C1DCC2E6FFFB26448336A5B2127525EDB327CA429199252E511954FC38828324CE2DDD01DD60BFB6213418AC703A105113453D014F319A458B5526E7F38B21DDF73F4
311
7FDFD34FB36A727A9553D9D33F9F6552912C7C75D88198893B5DDC8D675783D9743A194C2FC6EEE07679BB18B8EF26A3F9C57C7E7573778583A5129064341134B6FD0FC046B0D073EA5FBE57B24C4DC66689719023E833D39EB2FDB1E57A4EBDA6B5CE18794CFD30CF321A5658018DCA3E233AA205CD22F89C5109CD3A088D
311
FA4357E3D8F93DD163736477FA3C04BA3B3A821ADD9B7757D33CF81B26C873182424D50CACB13486D65C1DED110EF29C9B7F4C5A29515430C22DCE0241C48BED63A95EE27B3D319AC9424783B6C0F6E185FA779F2E08A39FF3FC989671C9B9A6B1ED5751B045AC50252BCDD83F54ECB5EF22039DE02BCD864B63907A29A8ED
311
5FD514B93C60530DA4157392C0E53053EF9C8C0F0C9DEB385D2D6CFFE332D8AD75EC1E3FBC10794185D2F401B51AC7356F8D92D1C93DCB737A837DA0CA1E946F40FE33427DAF0AFC26D86EBA9B9A539420998C7391C237D6C81A8CF018596EF5D4DF9D2FCF6937F7BD770A4F385B43F50BF0ECDBD0F565074EDF7B06E17331
311
31A6AD43C29136EE59068034492C9E630A79380E76B6BF42964356C62EC27D172643DD677C7A8E118344519DD47967C0F2202D9E91A0015BC548A85193DF28B8F7D3AB74561D6C969D8277F64BE87AB3587F5C97222621BD3731BDA031CB984289DBF3A6AB500FF39E454FF4E5472E2218FA1AEF7517EFD41C2581B6C65C03
311
9F34395D0FF627F70E08B12FC975BAF17E72028CD085B523FF9EC990724E329A97CDB96FD60F948D1A621DEC9AC96D81D9171690A6FE73108328D2A1608506B1AD566DD21C9EB0EE61F5198CB4FDDB974FE4A59BBD827DEE0D739E8B6DF0B2ADD3D251A8BFF7B96D3070B414D0BD0A9226FE0DE8DB88C5712991048FE0FA7D
311
35EFFA4EA705A488466A1D2D53D88FE022C290B6918B6A2D082A699E6D19EA26E2EEE8015DF980D430A012784A634979BC659C97E936661CD5689B92E2041CFF5FFFA04C8B2D49F332532764F7544775E8EBDE63AFFC4154F868FBEBEA3DB845EE8D6874820CBA961CC1AAE7DAD9F2DD6C7431990EAE2E2723DD3FCD075777
311
F38BC16CE4DE5D5CCEA6CBA57BD3F8A9D6C4F79A52D38D687809A5CD2B0533EE7B58217E4C12B0FD7BA2E4E6431D9ECDFB6135442FEC39D8837AD96EBC899ED1F7D1E8E702F62B8F0A5AA505A729CD14D13174AF3FF837823EA3A74C3DBF4A4942CF90F2E5C3FAC018CC9CB1EFAB8E77FAE360AF999DEB803C2A443D966990
311
11C60F36263592C3224B0C7E8D4FDA775D689AA11E19C7A03395396711F2606425344FA942363CA30889944A50AFDBD347E6EE71C6EEE7BA435424E0B4D1E491A049E61261016A95A1EACF5BBFA1A9D37DD5B58D723B7CC2C3640ADB0267AE6D34E98A85540E031468DD0A55C2C1A56E278FC69F640947AF5D6F6AC7ED2E8D
311
4DAF24B74BCEE99F8C5D750A3706208D14E81BD010C13B9532BE57E966FE87FFC9F0461D8B287C06A56A6DD94FB4C654C720446BA3CC6D014DCC93397A87407DDB2C7758ADE92172D62DEB4D12D452078A88A4BA2968FD8C4A378BAF0E3A146BF5C52A7899C097E74B1A080A32973AC0C122B0C2C82C880255E77F6EBE8A1C
311
37D9D45A3250C0FA7D7779F1C7669EA7699ED5539B1B731FB6D68FB8DD461B2407AAAF2572331EB9E34D751D3037946D40241D92483E61029E15AC05BAE77EF0B2BE33BA5864DC6F3CE168571C3074B5B04C619BEED77773AB06078D47462DC490BE52EA88E92E28DEBC1138D552A82AD0CBFBFF02504B0304140006080000
311
35445241000000000000000000000000350000006662782F34374133433839322D363730332D343131302D424241422D3241413639374346394646382F76657274696365732E62696E504B030414000608080035445241F270F1330600000004000000360000006662782F34374133433839322D363730332D343131302D42
311
4241422D3241413639374346394646382F747269616E676C65732E62696E636660600000504B030414000608000035445241000000000000000000000000370000006662782F34374133433839322D363730332D343131302D424241422D3241413639374346394646382F617474726962757465732E62696E504B03041400
311
0608080035445241D5987DFC8F00000041010000360000006662782F34374133433839322D363730332D343131302D424241422D3241413639374346394646382F6469726563746F72792E786D6C858F410EC2201045AF4266AF15DDB800BA74E7C21B903225242D6328188F2FA5C4183471359997F9FF81E89FF3C41E1816
311
475E02DF1F80A11FC8386F25A438EECEC07A250251FC3803E6F58C12560C4AD840E95E91C151A72936F496F35732D860FE635F62C8F2DA16B505C545B74125BAA2FA9E05D7CC053D063734D5C7665FD55B6B8D15D5E9BFEAFD8490FFA45E504B030414000608080035445241A0EB5401FD000000A00100003B000000666278
311
2F34374133433839322D363730332D343131302D424241422D3241413639374346394646382F7265736F75726365732F636F72652E786D6C8D504B6EC32010BD0A625B61037612C7C24456D29EA0174078E2A2C460F1A97AFC42E24AEDAE1B86791FCDD313A7AFE58E3EC107E3EC8059453102ABDD64EC3CE014AFA4C3E824
311
85772EFE926164D502032E309662F62EAD1BA49D8D606346AD9B600355081031D2F7FC1970D01FB0A84AA59815E156AD4ADFD40C15AB329D755284E87300F43C525E2C3D0497BC8620EA272B454A66DA3466CA37CDD580C792B5AF23DF9F19398EAC21793992F1DC3132EE2E87FD78E187DD5B2BEA6296229AE527A3F6A022
311
4C5872CA386194B0EE9D767DD3F42D7FA1ACA754D445FEC794D6E99FA6646C6CF816F7690B396B0EF220A4A84B5F793CCACCB3742BBF01504B010214000A0000080000354452413DEE336E79000000790000001B00000000000000000000000000000000006175746F6465736B2D64657369676E2D7061636B6167652E786D
311
6C504B0102140014000608080035445241D486FD9CA0000000F40000001300000000000000000000000000B20000005B436F6E74656E745F54797065735D2E786D6C504B0102140014000608080035445241C8010930EA0000007C010000080000000000000000000000000083010000636F72652E786D6C504B0102140014
311
00060808003544524155019EA25F0000007C000000070000000000000000000000000093020000636E782E786D6C504B01021400140006080800354452411A14200166010000020300000C00000000000000000000000000170300006662782F636F72652E786D6C504B0102140014000608080035445241C7E38A3A7D0000
311
009D0000000B00000000000000000000000000A70400006662782F636E782E786D6C504B0102140014000608080035445241756264922C0100001502000031000000000000000000000000004D0500006662782F34374133433839322D363730332D343131302D424241422D3241413639374346394646382F636F72652E78
311
6D6C504B010214001400060808003544524182E812E34D010000330300003000000000000000000000000000C80600006662782F34374133433839322D363730332D343131302D424241422D3241413639374346394646382F636E782E786D6C504B01021400140006080800354452413237FCA8A405000081100000340000
311
0000000000000000000000630800006662782F34374133433839322D363730332D343131302D424241422D3241413639374346394646382F6F626A656374732E786D6C504B01021400140006080000354452410000000000000000000000003500000000000000000000000000590E00006662782F34374133433839322D36
311
3730332D343131302D424241422D3241413639374346394646382F76657274696365732E62696E504B0102140014000608080035445241F270F13306000000040000003600000000000000000000000000AC0E00006662782F34374133433839322D363730332D343131302D424241422D3241413639374346394646382F74
311
7269616E676C65732E62696E504B01021400140006080000354452410000000000000000000000003700000000000000000000000000060F00006662782F34374133433839322D363730332D343131302D424241422D3241413639374346394646382F617474726962757465732E62696E504B010214001400060808003544
311
5241D5987DFC8F0000004101000036000000000000000000000000005B0F00006662782F34374133433839322D363730332D343131302D424241422D3241413639374346394646382F6469726563746F72792E786D6C504B0102140014000608080035445241A0EB5401FD000000A00100003B000000000000000000000000
311
003E1000006662782F34374133433839322D363730332D343131302D424241422D3241413639374346394646382F7265736F75726365732F636F72652E786D6C504B0506000000000E000E0080040000941100000000
310
504B03040A0000080000354452413DEE336E79000000790000001B0000006175746F6465736B2D64657369676E2D7061636B6167652E786D6C3C3F786D6C2076657273696F6E3D22312E302220656E636F64696E673D227574662D3822203F3E3C666F726D6174733E3C666F726D61743E687474703A2F2F736368656D612E
310
6175746F6465736B2E636F6D2F64657369676E2D7061636B6167652F323030393C2F666F726D61743E3C2F666F726D6174733E504B030414000608080035445241D486FD9CA0000000F4000000130000005B436F6E74656E745F54797065735D2E786D6C7D8EC10E82300C865F65E91D8A1E8C310C0EEA1BF002731658846E
310
D98AC1B77784ABF1D8FE5FBFBF75BBCE937A534CCEB38643598122B6FEE978D0B0485F9C41B54DDD7D022595594E1A469170414C76A4D9A4D207E29CF43ECE46F218070CC6BECC4078ACAA135ACF422C856C0E68EA1BF5669944DDD7BCDE7B1F8E415D77AECB980613C2E4AC91FC167A2B244592486606FC29C8FD7F045B9A
310
EF7053A7E60B504B0304140006080800354452413938FD81E90000007C01000008000000636F72652E786D6C8D90416EC3201045AF82665B610346896361A2C8EE0D7A0104C44589C13250F5F8C58923B5BB6E98D1E7BF99D117E7EFF98EBEEC1A5DF03DD08A00B25E07E3FCD4434E57DC023A4BB186907ED9007935DB1E36
310
19A498D690975DD2C127EB53517D307617558C3601D2F7D2F410F5A79D55A5722A8E78AB16A56F6AB2157D7505CED919F45CE24C99E7AECEAE208F6C649CF113E664BC607E39307C1A9A037E2FEFD0B2E330F251D41B2C4572F36BBF5EAD4AD6806484324C09A6ED0769BBA6E9387B23B42344D49BFD0F9417F34F283B9F1A
310
B69FFBC422485A0E797C48516F5994F208AAD42D37F903504B03041400060808003544524155019EA25F0000007C00000007000000636E782E786D6C4DCB3B0E80201045D1AD90E915ED2CF8AC45050C11660C8261F98AB1B07AC9C97D42D718D865D3E909258CFD00CCE24AC6E326A164D74DC0B4128928FF326038472BA1
310
3128B1252AC747C6BAB984FC68F0B87FE8960A5C09FE86CFB69FBA01504B030414000608080035445241E27A748965010000020300000C0000006662782F636F72652E786D6C8D52ED8E8320107C15C2DF8B8268DA5E83344DBD37B817A04A3D52058360FAF8B77E345E2F4DD3982099D9D99D1DE5875BDBA041B95E5B93E3
310
24A6182953DA4A9B3AC7C15FA21D4607C19DB5FE4F194646B62AC7238C05AF9D0DDD0295D678653CA0C6566A0165DF2B8F51D9C025C77DF9A35A19CBE0A1A2BFC69D2CAFB2567112030D7582F7DE8101340F194F2C2EE71B27332E7808BA5A585DC1347DD1CA61B16505CB58F61965B43846D971C3A2CF53BA89BEE03CEDD8
310
F654640527A35870AFDBBBBBD229E9558505A3098B121A25BB6FBADBA7E93E631F34D953CAC958FE200A5DF5A62868E353B6D89D653D16091899887FDB42441EF572003F4470328608AF29E1C7A0211008D9CB7373DFE30AD0A04A6F5D064C65C34A0DB2090AA652343D9CCC2C749E1AC0664FFBB0177D5EF7800F284D0DD6
310
A487EB39F8713A9FA72E5174CA4583BF21635D2B9BD5DC6C713DD7414FE5A56DAC7B474D9655C9122619FF5EF10B504B03041400060808003544524100583DC47D0000009D0000000B0000006662782F636E782E786D6C4DCCD10AC2201886E15B91FFDCE67236057528D47D8CE686E4344CA3CB6F8B1D74F4C1C3C72B87CF
310
1AD0DBE5974F51417B22805CBCA7C9C745412D33E680062D734AE5EF06288EAB53B03368B9E4549F074D6E1E6B289B061F1F0712C1CE54D80EF74CB4B8E3178A0D23374CE99570DB1B6B998146CBE657DA760FEB2F504B0304140006080800354452413BB4701C2D01000015020000310000006662782F3039353233394234
310
2D373539312D343836332D413530462D3333453038423741424235412F636F72652E786D6C8D515B6EC32010BC8AC557AA0A1B8CED3811268AA5F604BD00B149821283C5A3CAF1BBD48ED4FEE58745B333B303CB0F8FE99E7D2BE7B5351DA239419932831DB5B9742886336E517610DC591BFED05066E4A43A946024F8C5D9
310
38AFD0604D5026006AECA856507AAF02CA863B5C3AE487AB9A642E630086BFE5B31C6EF2A2729A431B7882FBE02040B60C4927126457976CD757785BEF28AEDA86E1634D3E31631FA4EDB7C7BEAF8FBC588482C7A8C755AE4788A3CF5AB9574D9258F0A0A767FCC12919D4884449688929C1B4FD22ED9EB17D55BE13BA2784
310
1789FE4F14E7F14551D426B0728DBBC83C1294174B43F0D1C6D3FD19463D66EB4296E66DBC1ADEE0553921DBAA6655039A850B3F00A64DB59AFA601DFCF0E676023A0356726E2AC18BB42428BF1B849A162A7E00504B030414000608080035445241E44FDDF45501000033030000300000006662782F30393532333942342D
310
373539312D343836332D413530462D3333453038423741424235412F636E782E786D6CBD93CD6EC32010845F0571ADFC836D45568489D4439FA0875E316C521A1B2CC055F3F65D1292E69243A5AA1764CD0E33AB4F98EFBEE6897C820FC6D981B2B2A604AC72DAD8C340D7B82F7A4A76827BE7E29D8D122B67186892A9E007
310
EFD6254B1AF6729D22AA93B1C72C7A086EF50A02CAE926999C921306802D5614611E416BD0E466C4AF3D785C05C5F144E23B9097E737E2C60F5031F02AA5085EA50EC1D3999BEE4C94A8498630D0A0DE6196A55CA3D3108EA5965196ACBC763DD8E92789A40BD7CAD51B92CA079A4E2AF2462572E4150E050FD123BD6C8AA7
310
05A890CB3219252342AECEC68B47F0D5D8B8E9B2D720788FEEB6D9F43D869D678247334376280F3282A6A2A95953B0BA60FD6BDD6FDB76DB354F35DBD635AF925DF0D1B9295FC218F06E21CAD9083652C17895C68FF0651FD1C6236BE74FBF00890072EB85CE2DE32FF9B04DDB75FFC8A73ABF6FC4E5F12F10DF504B030414
310
0006080800354452413816C246630700009A1B0000340000006662782F30393532333942342D373539312D343836332D413530462D3333453038423741424235412F6F626A656374732E786D6CED59DD739B3810FF5718EEE5EEC1D8C4769ADC103A89D3743CBDB49DFADAB907CF3032C84417211849A4F1FDF5B7FA000331
310
09BEE6DEFA6003425AEDFEF6534BF0F631A3CE03E682E4ECC2F5BD89EB6016E70961E9855BCAEDE8CC75DE8601CF73D998E63A0C65F8C255C36E18A43C2F0B3B94E02D2AA9EC8CDE5CFDE5881833EC3A3145425CB822BEC319F25029F3048B7B2F411279E9F6D1F33D33B14D36E5A8B8EB102D10C74C02A730CE808A6398F2
310
DB8F13771C0663F53E0CD4BF9D351D346BD63F6BACA56E7349989088C54F58EA90990E6269EACFAEDF9DCCCF47F3D96C3A9A9D9EF8A3AB9BABEB91FF663A599C2E16E797EFCE81BD4D9E532B53820BCC12D0DFCE0DFD60ACDED4A25B040E711DE78CE15803095069B1BA040916B05503BE49FBD15712355E6B091BCF33F5DE
310
B2D0189EB6A9F4CD1A06448B2E0862B7AB24AEAE4DF9F2CDDF20B81862945C6009DC0AC941BB161E0E5EE18693606C46C360B3D705114E8624E6045187920D471C940253D59430300B2C19E51C1C48394A02AD39F3BA6D5BE0992FBBCE212EB725A5CA33DC503B5604EE87A5D09C917F30DF73DF44067802694BC2E499E552
310
EE0AEC86E7C1580F8681BA4C4FEC4B03A4B3A528151A11F3B623E842B9FEF2DA0D3FDC6C1E572A1C1CDEBCE07981B95446A7F4A8F90243B6578592DDD61FA439B5008431A0DA957B50BE00F21F217AEC5901BD71F2387B9CD9B9922326B639CF4037CEC4194DE06FE2F8FA5FDD37EE8271BDB8ADBD3E3CC14D1554673F8E67
310
5B068D95E5BF0167183C80C1E77C6A5FAD6244C19E6F09038094913834872108EDDBCDA31B2E217042A0875588863E880CEC3EC06D30B664F65AA9DCCB7A1D0344ED1ED3214A02D8B445021B3D7A7A0FD9839378AFA6A6887DF0CE5FC55C2FAF571F5625DFA218DF5A9FBEC65BC28884AC7998A116E62D89EEF1EE7BCE1310
310
F429DEAB26DE99DD4A00DA0A73057C5A81A01EF63BB73688615D9AAB7013BCB00308A1727583FE2D1131A614319C97D5BE757453865A7BBCAD19DCF0C4403C3DE99830C70F445515E034FB192D4621EFC79C140A44377C6F24AB83A6D723DDD7E547B0C87A7ECFAC2583D0CB10FD5307AD0338B42CBB42DA02510BBCD987F3
310
38A7398F36BBC8443A176A0960A3ED2DDF5A4421D61B25292AE041DAEFAA90921A69A3846CB7A580B87A80C56FCB45D31C26DED49F3BCDFF8E33CE20DA82EF226EFDAEB347443294E2688B92BEED9ABBD5B48526D9439AE32D05B9C80391BB08C96892E0F418688E227EFEAAD4539A0B41181690AF0E82DF4463E2412031DA
310
AC58565AED004D44946189E8310828323DE0EAB4A36BDC184A879779ACADF7398D3589FE4F16C111D492398B0894A290435E64DCF7E61043DAE81A943BF882B555B4B518B4841222DE45DF3149EFE431A81BF23DB8C77024296594172806B31E40F689AF28A57678DFA0F85EE58F282EE96B1988C0741B114ACB2C821F6170
310
F218E2DA75607A1685067113FB24CEA02843B2E44336399D4F9EEC636A866E086C6CB42514C27694A1A207F55640D4F58853836FA9F7287553664584B2BC64830CC59B76BDC992EFAA55911DC8AF2A15A16CAC085B82614098ACB36A15B3C1D475600537D2816A17099415D49CC25E483C7EED4D9A72EF06DCFAE9EB6E9041
310
E1D7A3BD66449D5530581E5B8581F88E647CE7862B7D1D5D41FD9DE0649FEAAB5AB3590102622A92979C58157D5D4279636B3437BC4552ACDF9BAC5B5DBF2E3DE87E04635803B54BBD70A980CE3093485526B7EA867E4110825B34CCF852E5D463A85C2689AE1A11BD217DEA6C9511AD4D33E2157798E519FCD89AB0989609
310
5EA344DC47B792462BA258B7527A19A9307E56C04FEF571D78606480489F558187BF77D6DAD1852A970E12917765B6618840106C89961ADD78054BAD462A2DD75775A680BA0B0CCCAA78F6F364D16C47FC3C59A4D6307EE86471B5FB03ED9A7D91463A8F955D1F750CA8F393A2F21AC700DD76A8A9D659C424732BBF75A608
310
826215E507576355D03004FB38FECF59BB2F0B9AED3AFC1F97B5FD2715C75159A5355975A90E54AECB660E9BDFBC994F4EA7B3D1F9D974A21AB48BD1F9BBC5E9683EF1DF9D9ECD673737FE658DA676D430A88399CE5DF06C825A35AC9E2C06D095153925099CE61327C510F3259CE907B4CF79860524CF66B33BB14DF901AB
310
1F4C9F53A20DC5152777081AC454405A078CCA58B6C79D5FA03529E1A07DE142D3C8BB873F6B95AE0399E7C2855681243116DE06DA4CAAA1A78943CAD5B9DF12037C104B554A348BEAE77A95C2A615FEEB2943D28095ABD5C380C2AD80EE57AB43A179B33CC547095EB1E32009B79B5242B56664D90FD4C2E86DF6EA37B251
310
C2EEEDD68FE0BACF8BE57B7A4E0B91419F0C9E3502437524114F75BF5B316659BABCFE3C863E9BB3FCE414B44C4197C3298D3806632E5541055604566169164882A92E7E5F7FE6397CE2C91C5D1539BF3E9E9DFEB65EE459963333B4BE845359021F8A9CD51D7CF649D6503C60D55C17EB93897FB2D64D6DDB678F3648604F
310
5545305015134A908EC9815D3E6950D9F6E558A9A2337D79EDD8200ACD0063474F7ABCE62397033EA43EA7288FD17E5E49FB6C5F7BACA7824D70E84887FF02504B030414000608000035445241000000000000000000000000350000006662782F30393532333942342D373539312D343836332D413530462D333345303842
310
3741424235412F76657274696365732E62696E504B030414000608080035445241F270F1330600000004000000360000006662782F30393532333942342D373539312D343836332D413530462D3333453038423741424235412F747269616E676C65732E62696E636660600000504B03041400060800003544524100000000
310
0000000000000000370000006662782F30393532333942342D373539312D343836332D413530462D3333453038423741424235412F617474726962757465732E62696E504B030414000608080035445241D5987DFC8F00000041010000360000006662782F30393532333942342D373539312D343836332D413530462D3333
310
453038423741424235412F6469726563746F72792E786D6C858F410EC2201045AF4266AF15DDB800BA74E7C21B903225242D6328188F2FA5C4183471359997F9FF81E89FF3C41E1816475E02DF1F80A11FC8386F25A438EECEC07A250251FC3803E6F58C12560C4AD840E95E91C151A72936F496F35732D860FE635F62C8F2
310
DA16B505C545B74125BAA2FA9E05D7CC053D063734D5C7665FD55B6B8D15D5E9BFEAFD8490FFA45E504B0304140006080800354452412A93D319FB000000A00100003B0000006662782F30393532333942342D373539312D343836332D413530462D3333453038423741424235412F7265736F75726365732F636F72652E78
310
6D6C8D504B6E833010BD0A9A6D65B00D4A28328E22E80D7A01CB4CA89560237FAA1EBF2650A9DD7533337A1FCDD31397AFE5517CA20FC6D91E5849A140ABDD64ECDC438A37D2427191C23B177FC9A0B06AC11E3618A498BD4BEB01696723DA9851EB263C4015024628F4231F3D04FD818B2A558A5911EEE5AAF45DCD58B232
310
D3592745883E0728F627DB04E931B8E4350651EDAC142999E9D09829FF3437831EE4998FBCE14D4B1A3A5E49733D71F23AD427F296E7D0F2F33036A3A836B314D12C3F19B547157102C929E38451C2DA77DA7675DD35FC85B28E52516DF23FA6B44EFF34256363CD8FB8BB2D806439C89390A2DAFACAEB5966DE5BB7F21B50
310
4B010214000A0000080000354452413DEE336E79000000790000001B00000000000000000000000000000000006175746F6465736B2D64657369676E2D7061636B6167652E786D6C504B0102140014000608080035445241D486FD9CA0000000F40000001300000000000000000000000000B20000005B436F6E74656E745F
310
54797065735D2E786D6C504B01021400140006080800354452413938FD81E90000007C010000080000000000000000000000000083010000636F72652E786D6C504B010214001400060808003544524155019EA25F0000007C000000070000000000000000000000000092020000636E782E786D6C504B0102140014000608
310
080035445241E27A748965010000020300000C00000000000000000000000000160300006662782F636F72652E786D6C504B010214001400060808003544524100583DC47D0000009D0000000B00000000000000000000000000A50400006662782F636E782E786D6C504B01021400140006080800354452413BB4701C2D01
310
00001502000031000000000000000000000000004B0500006662782F30393532333942342D373539312D343836332D413530462D3333453038423741424235412F636F72652E786D6C504B0102140014000608080035445241E44FDDF455010000330300003000000000000000000000000000C70600006662782F30393532
310
333942342D373539312D343836332D413530462D3333453038423741424235412F636E782E786D6C504B01021400140006080800354452413816C246630700009A1B000034000000000000000000000000006A0800006662782F30393532333942342D373539312D343836332D413530462D3333453038423741424235412F
310
6F626A656374732E786D6C504B010214001400060800003544524100000000000000000000000035000000000000000000000000001F1000006662782F30393532333942342D373539312D343836332D413530462D3333453038423741424235412F76657274696365732E62696E504B0102140014000608080035445241F2
310
70F13306000000040000003600000000000000000000000000721000006662782F30393532333942342D373539312D343836332D413530462D3333453038423741424235412F747269616E676C65732E62696E504B01021400140006080000354452410000000000000000000000003700000000000000000000000000CC10
310
00006662782F30393532333942342D373539312D343836332D413530462D3333453038423741424235412F617474726962757465732E62696E504B0102140014000608080035445241D5987DFC8F000000410100003600000000000000000000000000211100006662782F30393532333942342D373539312D343836332D41
310
3530462D3333453038423741424235412F6469726563746F72792E786D6C504B01021400140006080800354452412A93D319FB000000A00100003B00000000000000000000000000041200006662782F30393532333942342D373539312D343836332D413530462D3333453038423741424235412F7265736F75726365732F
310
636F72652E786D6C504B0506000000000E000E0080040000581300000000
  0
XRECORD
  5
17
102
{ACAD_REACTORS
330
12
102
}
330
12
100
AcDbXrecord
280
     1
270
     1
271
     1
  0
XRECORD
  5
16
102
{ACAD_REACTORS
330
12
102
}
330
12
100
AcDbXrecord
280
     1
270
     1
271
     1
  0
XRECORD
  5
18
102
{ACAD_REACTORS
330
12
102
}
330
12
100
AcDbXrecord
280
     1
270
     1
271
     1
  0
XRECORD
  5
15
102
{ACAD_REACTORS
330
12
102
}
330
12
100
AcDbXrecord
280
     1
270
     1
271
     1
  0
XRECORD
  5
416
102
{ACAD_REACTORS
330
22
102
}
330
22
100
AcDbXrecord
280
     1
102
MATERIAL
148
0.0
149
0.0
149
0.0
 93
        0
 94
      127
282
     0
 72
     0
 77
     0
171
     0
175
     0
179
     0
273
     0
  0
XRECORD
  5
24
102
{ACAD_REACTORS
330
22
102
}
330
22
100
AcDbXrecord
280
     1
270
     1
271
     1
  0
XRECORD
  5
23
102
{ACAD_REACTORS
330
22
102
}
330
22
100
AcDbXrecord
280
     1
270
     1
271
     1
  0
XRECORD
  5
27
102
{ACAD_REACTORS
330
22
102
}
330
22
100
AcDbXrecord
280
     1
270
     1
271
     1
  0
XRECORD
  5
26
102
{ACAD_REACTORS
330
22
102
}
330
22
100
AcDbXrecord
280
     1
270
     1
271
     1
  0
XRECORD
  5
28
102
{ACAD_REACTORS
330
22
102
}
330
22
100
AcDbXrecord
280
     1
270
     1
271
     1
  0
XRECORD
  5
25
102
{ACAD_REACTORS
330
22
102
}
330
22
100
AcDbXrecord
280
     1
270
     1
271
     1
  0
XRECORD
  5
2FD
102
{ACAD_REACTORS
330
2FC
102
}
330
2FC
100
AcDbXrecord
280
     1
102
ACAD_ROUNDTRIP_2012_MLEADER_STYLE
298
     1
  0
CELLSTYLEMAP
  5
40C
102
{ACAD_REACTORS
330
2FA
102
}
330
2FA
100
AcDbCellStyleMap
 90
        3
300
CELLSTYLE
  1
TABLEFORMAT_BEGIN
 90
        5
170
     1
 91
        0
 92
    32768
 62
   257
 93
        1
300
CONTENTFORMAT
  1
CONTENTFORMAT_BEGIN
 90
        0
 91
        0
 92
      512
 93
        0
300

 40
0.0
140
1.0
 94
        5
 62
     0
340
55
144
0.25
309
CONTENTFORMAT_END
171
     0
 94
        0
309
TABLEFORMAT_END
  1
CELLSTYLE_BEGIN
 90
        1
 91
        1
300
_TITLE
309
CELLSTYLE_END
300
CELLSTYLE
  1
TABLEFORMAT_BEGIN
 90
        5
170
     1
 91
        0
 92
        0
 62
   257
 93
        1
300
CONTENTFORMAT
  1
CONTENTFORMAT_BEGIN
 90
        0
 91
        0
 92
      512
 93
        0
300

 40
0.0
140
1.0
 94
        5
 62
     0
340
55
144
0.18
309
CONTENTFORMAT_END
171
     0
 94
        0
309
TABLEFORMAT_END
  1
CELLSTYLE_BEGIN
 90
        2
 91
        1
300
_HEADER
309
CELLSTYLE_END
300
CELLSTYLE
  1
TABLEFORMAT_BEGIN
 90
        5
170
     1
 91
        0
 92
        0
 62
   257
 93
        1
300
CONTENTFORMAT
  1
CONTENTFORMAT_BEGIN
 90
        0
 91
        0
 92
      512
 93
        0
300

 40
0.0
140
1.0
 94
        2
 62
     0
340
55
144
0.18
309
CONTENTFORMAT_END
171
     0
 94
        0
309
TABLEFORMAT_END
  1
CELLSTYLE_BEGIN
 90
        3
 91
        2
300
_DATA
309
CELLSTYLE_END
  0
XRECORD
  5
417
102
{ACAD_REACTORS
330
2FA
102
}
330
2FA
100
AcDbXrecord
280
     1
102
ACAD_ROUNDTRIP_PRE2007_TABLESTYLE
 90
      512
 91
        0
  1

 92
      512
 93
        0
  2

 94
      512
 95
        0
  3

  0
XRECORD
  5
320
102
{ACAD_REACTORS
330
31F
102
}
330
31F
100
AcDbXrecord
280
     1
102
RTVSPropertyOp0
 70
     1
102
RTVSPropertyOp1
 70
     1
102
RTVSPropertyOp2
 70
     1
102
RTVSPropertyOp3
 70
     1
102
RTVSPropertyOp4
 70
     1
102
RTVSPropertyOp5
 70
     1
102
RTVSPropertyOp6
 70
     1
102
RTVSPropertyOp7
 70
     1
102
RTVSPropertyOp8
 70
     1
102
RTVSPropertyOp9
 70
     1
102
RTVSPropertyOp10
 70
     1
102
RTVSPropertyOp11
 70
     1
102
RTVSPropertyOp12
 70
     1
102
RTVSPropertyOp13
 70
     1
102
RTVSPropertyOp14
 70
     1
102
RTVSPropertyOp15
 70
     1
102
RTVSPropertyOp16
 70
     1
102
RTVSPropertyOp17
 70
     1
102
RTVSPropertyOp18
 70
     1
102
RTVSPropertyOp19
 70
     1
102
RTVSPropertyOp20
 70
     1
102
RTVSPropertyOp21
 70
     1
102
RTVSPropertyOp22
 70
     1
102
RTVSPropertyOp23
 70
     1
102
RTVSPropertyOp24
 70
     1
102
RTVSPropertyOp25
 70
     1
102
RTVSPropertyOp26
 70
     1
102
RTVSPropertyOp27
 70
     1
102
RTVSPropertyOp28
 70
     1
102
RTVSPropertyOp29
 70
     1
102
RTVSPropertyOp30
 70
     1
102
RTVSPropertyOp31
 70
     1
102
RTVSPropertyOp32
 70
     1
  0
XRECORD
  5
31E
102
{ACAD_REACTORS
330
31D
102
}
330
31D
100
AcDbXrecord
280
     1
102
RTVSPropertyOp0
 70
     1
102
RTVSPropertyOp1
 70
     1
102
RTVSPropertyOp2
 70
     1
102
RTVSPropertyOp3
 70
     1
102
RTVSPropertyOp4
 70
     1
102
RTVSPropertyOp5
 70
     1
102
RTVSPropertyOp6
 70
     1
102
RTVSPropertyOp7
 70
     1
102
RTVSPropertyOp8
 70
     1
102
RTVSPropertyOp9
 70
     1
102
RTVSPropertyOp10
 70
     1
102
RTVSPropertyOp11
 70
     1
102
RTVSPropertyOp12
 70
     1
102
RTVSPropertyOp13
 70
     1
102
RTVSPropertyOp14
 70
     1
102
RTVSPropertyOp15
 70
     1
102
RTVSPropertyOp16
 70
     1
102
RTVSPropertyOp17
 70
     1
102
RTVSPropertyOp18
 70
     1
102
RTVSPropertyOp19
 70
     1
102
RTVSPropertyOp20
 70
     1
102
RTVSPropertyOp21
 70
     1
102
RTVSPropertyOp22
 70
     1
102
RTVSPropertyOp23
 70
     1
102
RTVSPropertyOp24
 70
     1
102
RTVSPropertyOp25
 70
     1
102
RTVSPropertyOp26
 70
     1
102
RTVSPropertyOp27
 70
     1
102
RTVSPropertyOp28
 70
     1
102
RTVSPropertyOp29
 70
     1
102
RTVSPropertyOp30
 70
     1
102
RTVSPropertyOp31
 70
     1
102
RTVSPropertyOp32
 70
     1
  0
XRECORD
  5
32C
102
{ACAD_REACTORS
330
32B
102
}
330
32B
100
AcDbXrecord
280
     1
102
RTVSPropertyOp0
 70
     1
102
RTVSPropertyOp1
 70
     1
102
RTVSPropertyOp2
 70
     1
102
RTVSPropertyOp3
 70
     1
102
RTVSPropertyOp4
 70
     1
102
RTVSPropertyOp5
 70
     1
102
RTVSPropertyOp6
 70
     1
102
RTVSPropertyOp7
 70
     1
102
RTVSPropertyOp8
 70
     1
102
RTVSPropertyOp9
 70
     1
102
RTVSPropertyOp10
 70
     1
102
RTVSPropertyOp11
 70
     1
102
RTVSPropertyOp12
 70
     1
102
RTVSPropertyOp13
 70
     1
102
RTVSPropertyOp14
 70
     1
102
RTVSPropertyOp15
 70
     1
102
RTVSPropertyOp16
 70
     1
102
RTVSPropertyOp17
 70
     1
102
RTVSPropertyOp18
 70
     1
102
RTVSPropertyOp19
 70
     1
102
RTVSPropertyOp20
 70
     1
102
RTVSPropertyOp21
 70
     1
102
RTVSPropertyOp22
 70
     1
102
RTVSPropertyOp23
 70
     1
102
RTVSPropertyOp24
 70
     1
102
RTVSPropertyOp25
 70
     1
102
RTVSPropertyOp26
 70
     1
102
RTVSPropertyOp27
 70
     1
102
RTVSPropertyOp28
 70
     1
102
RTVSPropertyOp29
 70
     1
102
RTVSPropertyOp30
 70
     1
102
RTVSPropertyOp31
 70
     1
102
RTVSPropertyOp32
 70
     1
  0
XRECORD
  5
334
102
{ACAD_REACTORS
330
333
102
}
330
333
100
AcDbXrecord
280
     1
102
RTVSPropertyOp0
 70
     1
102
RTVSPropertyOp1
 70
     1
102
RTVSPropertyOp2
 70
     1
102
RTVSPropertyOp3
 70
     1
102
RTVSPropertyOp4
 70
     1
102
RTVSPropertyOp5
 70
     1
102
RTVSPropertyOp6
 70
     1
102
RTVSPropertyOp7
 70
     1
102
RTVSPropertyOp8
 70
     1
102
RTVSPropertyOp9
 70
     1
102
RTVSPropertyOp10
 70
     1
102
RTVSPropertyOp11
 70
     1
102
RTVSPropertyOp12
 70
     1
102
RTVSPropertyOp13
 70
     1
102
RTVSPropertyOp14
 70
     1
102
RTVSPropertyOp15
 70
     1
102
RTVSPropertyOp16
 70
     1
102
RTVSPropertyOp17
 70
     1
102
RTVSPropertyOp18
 70
     1
102
RTVSPropertyOp19
 70
     1
102
RTVSPropertyOp20
 70
     1
102
RTVSPropertyOp21
 70
     1
102
RTVSPropertyOp22
 70
     1
102
RTVSPropertyOp23
 70
     1
102
RTVSPropertyOp24
 70
     1
102
RTVSPropertyOp25
 70
     1
102
RTVSPropertyOp26
 70
     1
102
RTVSPropertyOp27
 70
     1
102
RTVSPropertyOp28
 70
     1
102
RTVSPropertyOp29
 70
     1
102
RTVSPropertyOp30
 70
     1
102
RTVSPropertyOp31
 70
     1
102
RTVSPropertyOp32
 70
     1
  0
XRECORD
  5
326
102
{ACAD_REACTORS
330
325
102
}
330
325
100
AcDbXrecord
280
     1
102
RTVSPropertyOp0
 70
     1
102
RTVSPropertyOp1
 70
     1
102
RTVSPropertyOp2
 70
     1
102
RTVSPropertyOp3
 70
     1
102
RTVSPropertyOp4
 70
     1
102
RTVSPropertyOp5
 70
     1
102
RTVSPropertyOp6
 70
     1
102
RTVSPropertyOp7
 70
     1
102
RTVSPropertyOp8
 70
     1
102
RTVSPropertyOp9
 70
     1
102
RTVSPropertyOp10
 70
     1
102
RTVSPropertyOp11
 70
     1
102
RTVSPropertyOp12
 70
     1
102
RTVSPropertyOp13
 70
     1
102
RTVSPropertyOp14
 70
     1
102
RTVSPropertyOp15
 70
     1
102
RTVSPropertyOp16
 70
     1
102
RTVSPropertyOp17
 70
     1
102
RTVSPropertyOp18
 70
     1
102
RTVSPropertyOp19
 70
     1
102
RTVSPropertyOp20
 70
     1
102
RTVSPropertyOp21
 70
     1
102
RTVSPropertyOp22
 70
     1
102
RTVSPropertyOp23
 70
     1
102
RTVSPropertyOp24
 70
     1
102
RTVSPropertyOp25
 70
     1
102
RTVSPropertyOp26
 70
     1
102
RTVSPropertyOp27
 70
     1
102
RTVSPropertyOp28
 70
     1
102
RTVSPropertyOp29
 70
     1
102
RTVSPropertyOp30
 70
     1
102
RTVSPropertyOp31
 70
     1
102
RTVSPropertyOp32
 70
     1
  0
XRECORD
  5
32A
102
{ACAD_REACTORS
330
329
102
}
330
329
100
AcDbXrecord
280
     1
102
RTVSPropertyOp0
 70
     1
102
RTVSPropertyOp1
 70
     1
102
RTVSPropertyOp2
 70
     1
102
RTVSPropertyOp3
 70
     1
102
RTVSPropertyOp4
 70
     1
102
RTVSPropertyOp5
 70
     1
102
RTVSPropertyOp6
 70
     1
102
RTVSPropertyOp7
 70
     1
102
RTVSPropertyOp8
 70
     1
102
RTVSPropertyOp9
 70
     1
102
RTVSPropertyOp10
 70
     1
102
RTVSPropertyOp11
 70
     1
102
RTVSPropertyOp12
 70
     1
102
RTVSPropertyOp13
 70
     1
102
RTVSPropertyOp14
 70
     1
102
RTVSPropertyOp15
 70
     1
102
RTVSPropertyOp16
 70
     1
102
RTVSPropertyOp17
 70
     1
102
RTVSPropertyOp18
 70
     1
102
RTVSPropertyOp19
 70
     1
102
RTVSPropertyOp20
 70
     1
102
RTVSPropertyOp21
 70
     1
102
RTVSPropertyOp22
 70
     1
102
RTVSPropertyOp23
 70
     1
102
RTVSPropertyOp24
 70
     1
102
RTVSPropertyOp25
 70
     1
102
RTVSPropertyOp26
 70
     1
102
RTVSPropertyOp27
 70
     1
102
RTVSPropertyOp28
 70
     1
102
RTVSPropertyOp29
 70
     1
102
RTVSPropertyOp30
 70
     1
102
RTVSPropertyOp31
 70
     1
102
RTVSPropertyOp32
 70
     1
  0
XRECORD
  5
344
102
{ACAD_REACTORS
330
343
102
}
330
343
100
AcDbXrecord
280
     1
102
RTVSPropertyOp0
 70
     0
102
RTVSPropertyOp1
 70
     0
102
RTVSPropertyOp2
 70
     0
102
RTVSPropertyOp3
 70
     0
102
RTVSPropertyOp4
 70
     0
102
RTVSPropertyOp5
 70
     0
102
RTVSPropertyOp6
 70
     0
102
RTVSPropertyOp7
 70
     0
102
RTVSPropertyOp8
 70
     0
102
RTVSPropertyOp9
 70
     0
102
RTVSPropertyOp10
 70
     0
102
RTVSPropertyOp11
 70
     0
102
RTVSPropertyOp12
 70
     0
102
RTVSPropertyOp13
 70
     0
102
RTVSPropertyOp14
 70
     2
102
RTVSPropertyOp15
 70
     0
102
RTVSPropertyOp16
 70
     0
102
RTVSPropertyOp17
 70
     0
102
RTVSPropertyOp18
 70
     0
102
RTVSPropertyOp19
 70
     0
102
RTVSPropertyOp20
 70
     0
102
RTVSPropertyOp21
 70
     0
102
RTVSPropertyOp22
 70
     0
102
RTVSPropertyOp23
 70
     0
102
RTVSPropertyOp24
 70
     0
102
RTVSPropertyOp25
 70
     0
102
RTVSPropertyOp26
 70
     0
102
RTVSPropertyOp27
 70
     0
102
RTVSPropertyOp28
 70
     0
102
RTVSPropertyOp29
 70
     0
102
RTVSPropertyOp30
 70
     0
102
RTVSPropertyOp31
 70
     0
102
RTVSPropertyOp32
 70
     0
  0
XRECORD
  5
332
102
{ACAD_REACTORS
330
331
102
}
330
331
100
AcDbXrecord
280
     1
102
RTVSPropertyOp0
 70
     1
102
RTVSPropertyOp1
 70
     1
102
RTVSPropertyOp2
 70
     1
102
RTVSPropertyOp3
 70
     1
102
RTVSPropertyOp4
 70
     1
102
RTVSPropertyOp5
 70
     1
102
RTVSPropertyOp6
 70
     1
102
RTVSPropertyOp7
 70
     1
102
RTVSPropertyOp8
 70
     1
102
RTVSPropertyOp9
 70
     1
102
RTVSPropertyOp10
 70
     1
102
RTVSPropertyOp11
 70
     1
102
RTVSPropertyOp12
 70
     1
102
RTVSPropertyOp13
 70
     1
102
RTVSPropertyOp14
 70
     1
102
RTVSPropertyOp15
 70
     1
102
RTVSPropertyOp16
 70
     1
102
RTVSPropertyOp17
 70
     1
102
RTVSPropertyOp18
 70
     1
102
RTVSPropertyOp19
 70
     1
102
RTVSPropertyOp20
 70
     1
102
RTVSPropertyOp21
 70
     1
102
RTVSPropertyOp22
 70
     1
102
RTVSPropertyOp23
 70
     1
102
RTVSPropertyOp24
 70
     1
102
RTVSPropertyOp25
 70
     1
102
RTVSPropertyOp26
 70
     1
102
RTVSPropertyOp27
 70
     1
102
RTVSPropertyOp28
 70
     1
102
RTVSPropertyOp29
 70
     1
102
RTVSPropertyOp30
 70
     1
102
RTVSPropertyOp31
 70
     1
102
RTVSPropertyOp32
 70
     1
  0
XRECORD
  5
316
102
{ACAD_REACTORS
330
315
102
}
330
315
100
AcDbXrecord
280
     1
102
RTVSPropertyOp0
 70
     1
102
RTVSPropertyOp1
 70
     1
102
RTVSPropertyOp2
 70
     1
102
RTVSPropertyOp3
 70
     1
102
RTVSPropertyOp4
 70
     1
102
RTVSPropertyOp5
 70
     1
102
RTVSPropertyOp6
 70
     1
102
RTVSPropertyOp7
 70
     1
102
RTVSPropertyOp8
 70
     1
102
RTVSPropertyOp9
 70
     1
102
RTVSPropertyOp10
 70
     1
102
RTVSPropertyOp11
 70
     1
102
RTVSPropertyOp12
 70
     1
102
RTVSPropertyOp13
 70
     1
102
RTVSPropertyOp14
 70
     1
102
RTVSPropertyOp15
 70
     1
102
RTVSPropertyOp16
 70
     1
102
RTVSPropertyOp17
 70
     1
102
RTVSPropertyOp18
 70
     1
102
RTVSPropertyOp19
 70
     1
102
RTVSPropertyOp20
 70
     1
102
RTVSPropertyOp21
 70
     1
102
RTVSPropertyOp22
 70
     1
102
RTVSPropertyOp23
 70
     1
102
RTVSPropertyOp24
 70
     1
102
RTVSPropertyOp25
 70
     1
102
RTVSPropertyOp26
 70
     1
102
RTVSPropertyOp27
 70
     1
102
RTVSPropertyOp28
 70
     1
102
RTVSPropertyOp29
 70
     1
102
RTVSPropertyOp30
 70
     1
102
RTVSPropertyOp31
 70
     1
102
RTVSPropertyOp32
 70
     1
  0
XRECORD
  5
318
102
{ACAD_REACTORS
330
317
102
}
330
317
100
AcDbXrecord
280
     1
102
RTVSPropertyOp0
 70
     1
102
RTVSPropertyOp1
 70
     1
102
RTVSPropertyOp2
 70
     1
102
RTVSPropertyOp3
 70
     1
102
RTVSPropertyOp4
 70
     1
102
RTVSPropertyOp5
 70
     1
102
RTVSPropertyOp6
 70
     1
102
RTVSPropertyOp7
 70
     1
102
RTVSPropertyOp8
 70
     1
102
RTVSPropertyOp9
 70
     1
102
RTVSPropertyOp10
 70
     1
102
RTVSPropertyOp11
 70
     1
102
RTVSPropertyOp12
 70
     1
102
RTVSPropertyOp13
 70
     1
102
RTVSPropertyOp14
 70
     1
102
RTVSPropertyOp15
 70
     1
102
RTVSPropertyOp16
 70
     1
102
RTVSPropertyOp17
 70
     1
102
RTVSPropertyOp18
 70
     1
102
RTVSPropertyOp19
 70
     1
102
RTVSPropertyOp20
 70
     1
102
RTVSPropertyOp21
 70
     1
102
RTVSPropertyOp22
 70
     1
102
RTVSPropertyOp23
 70
     1
102
RTVSPropertyOp24
 70
     1
102
RTVSPropertyOp25
 70
     1
102
RTVSPropertyOp26
 70
     1
102
RTVSPropertyOp27
 70
     1
102
RTVSPropertyOp28
 70
     1
102
RTVSPropertyOp29
 70
     1
102
RTVSPropertyOp30
 70
     1
102
RTVSPropertyOp31
 70
     1
102
RTVSPropertyOp32
 70
     1
  0
XRECORD
  5
31A
102
{ACAD_REACTORS
330
319
102
}
330
319
100
AcDbXrecord
280
     1
102
RTVSPropertyOp0
 70
     1
102
RTVSPropertyOp1
 70
     1
102
RTVSPropertyOp2
 70
     1
102
RTVSPropertyOp3
 70
     1
102
RTVSPropertyOp4
 70
     1
102
RTVSPropertyOp5
 70
     1
102
RTVSPropertyOp6
 70
     1
102
RTVSPropertyOp7
 70
     1
102
RTVSPropertyOp8
 70
     1
102
RTVSPropertyOp9
 70
     1
102
RTVSPropertyOp10
 70
     1
102
RTVSPropertyOp11
 70
     1
102
RTVSPropertyOp12
 70
     1
102
RTVSPropertyOp13
 70
     1
102
RTVSPropertyOp14
 70
     1
102
RTVSPropertyOp15
 70
     1
102
RTVSPropertyOp16
 70
     1
102
RTVSPropertyOp17
 70
     1
102
RTVSPropertyOp18
 70
     1
102
RTVSPropertyOp19
 70
     1
102
RTVSPropertyOp20
 70
     1
102
RTVSPropertyOp21
 70
     1
102
RTVSPropertyOp22
 70
     1
102
RTVSPropertyOp23
 70
     1
102
RTVSPropertyOp24
 70
     1
102
RTVSPropertyOp25
 70
     1
102
RTVSPropertyOp26
 70
     1
102
RTVSPropertyOp27
 70
     1
102
RTVSPropertyOp28
 70
     1
102
RTVSPropertyOp29
 70
     1
102
RTVSPropertyOp30
 70
     1
102
RTVSPropertyOp31
 70
     1
102
RTVSPropertyOp32
 70
     1
  0
XRECORD
  5
31C
102
{ACAD_REACTORS
330
31B
102
}
330
31B
100
AcDbXrecord
280
     1
102
RTVSPropertyOp0
 70
     1
102
RTVSPropertyOp1
 70
     1
102
RTVSPropertyOp2
 70
     1
102
RTVSPropertyOp3
 70
     1
102
RTVSPropertyOp4
 70
     1
102
RTVSPropertyOp5
 70
     1
102
RTVSPropertyOp6
 70
     1
102
RTVSPropertyOp7
 70
     1
102
RTVSPropertyOp8
 70
     1
102
RTVSPropertyOp9
 70
     1
102
RTVSPropertyOp10
 70
     1
102
RTVSPropertyOp11
 70
     1
102
RTVSPropertyOp12
 70
     1
102
RTVSPropertyOp13
 70
     1
102
RTVSPropertyOp14
 70
     1
102
RTVSPropertyOp15
 70
     1
102
RTVSPropertyOp16
 70
     1
102
RTVSPropertyOp17
 70
     1
102
RTVSPropertyOp18
 70
     1
102
RTVSPropertyOp19
 70
     1
102
RTVSPropertyOp20
 70
     1
102
RTVSPropertyOp21
 70
     1
102
RTVSPropertyOp22
 70
     1
102
RTVSPropertyOp23
 70
     1
102
RTVSPropertyOp24
 70
     1
102
RTVSPropertyOp25
 70
     1
102
RTVSPropertyOp26
 70
     1
102
RTVSPropertyOp27
 70
     1
102
RTVSPropertyOp28
 70
     1
102
RTVSPropertyOp29
 70
     1
102
RTVSPropertyOp30
 70
     1
102
RTVSPropertyOp31
 70
     1
102
RTVSPropertyOp32
 70
     1
  0
XRECORD
  5
324
102
{ACAD_REACTORS
330
323
102
}
330
323
100
AcDbXrecord
280
     1
102
RTVSPropertyOp0
 70
     1
102
RTVSPropertyOp1
 70
     1
102
RTVSPropertyOp2
 70
     1
102
RTVSPropertyOp3
 70
     1
102
RTVSPropertyOp4
 70
     1
102
RTVSPropertyOp5
 70
     1
102
RTVSPropertyOp6
 70
     1
102
RTVSPropertyOp7
 70
     1
102
RTVSPropertyOp8
 70
     1
102
RTVSPropertyOp9
 70
     1
102
RTVSPropertyOp10
 70
     1
102
RTVSPropertyOp11
 70
     1
102
RTVSPropertyOp12
 70
     1
102
RTVSPropertyOp13
 70
     1
102
RTVSPropertyOp14
 70
     1
102
RTVSPropertyOp15
 70
     1
102
RTVSPropertyOp16
 70
     1
102
RTVSPropertyOp17
 70
     1
102
RTVSPropertyOp18
 70
     1
102
RTVSPropertyOp19
 70
     1
102
RTVSPropertyOp20
 70
     1
102
RTVSPropertyOp21
 70
     1
102
RTVSPropertyOp22
 70
     1
102
RTVSPropertyOp23
 70
     1
102
RTVSPropertyOp24
 70
     1
102
RTVSPropertyOp25
 70
     1
102
RTVSPropertyOp26
 70
     1
102
RTVSPropertyOp27
 70
     1
102
RTVSPropertyOp28
 70
     1
102
RTVSPropertyOp29
 70
     1
102
RTVSPropertyOp30
 70
     1
102
RTVSPropertyOp31
 70
     1
102
RTVSPropertyOp32
 70
     1
  0
XRECORD
  5
340
102
{ACAD_REACTORS
330
33F
102
}
330
33F
100
AcDbXrecord
280
     1
102
RTVSPropertyOp0
 70
     0
102
RTVSPropertyOp1
 70
     0
102
RTVSPropertyOp2
 70
     0
102
RTVSPropertyOp3
 70
     0
102
RTVSPropertyOp4
 70
     0
102
RTVSPropertyOp5
 70
     0
102
RTVSPropertyOp6
 70
     0
102
RTVSPropertyOp7
 70
     0
102
RTVSPropertyOp8
 70
     0
102
RTVSPropertyOp9
 70
     0
102
RTVSPropertyOp10
 70
     0
102
RTVSPropertyOp11
 70
     0
102
RTVSPropertyOp12
 70
     0
102
RTVSPropertyOp13
 70
     0
102
RTVSPropertyOp14
 70
     2
102
RTVSPropertyOp15
 70
     0
102
RTVSPropertyOp16
 70
     0
102
RTVSPropertyOp17
 70
     0
102
RTVSPropertyOp18
 70
     0
102
RTVSPropertyOp19
 70
     0
102
RTVSPropertyOp20
 70
     0
102
RTVSPropertyOp21
 70
     0
102
RTVSPropertyOp22
 70
     0
102
RTVSPropertyOp23
 70
     0
102
RTVSPropertyOp24
 70
     0
102
RTVSPropertyOp25
 70
     0
102
RTVSPropertyOp26
 70
     0
102
RTVSPropertyOp27
 70
     0
102
RTVSPropertyOp28
 70
     0
102
RTVSPropertyOp29
 70
     0
102
RTVSPropertyOp30
 70
     0
102
RTVSPropertyOp31
 70
     0
102
RTVSPropertyOp32
 70
     0
  0
XRECORD
  5
330
102
{ACAD_REACTORS
330
32F
102
}
330
32F
100
AcDbXrecord
280
     1
102
RTVSPropertyOp0
 70
     1
102
RTVSPropertyOp1
 70
     1
102
RTVSPropertyOp2
 70
     1
102
RTVSPropertyOp3
 70
     1
102
RTVSPropertyOp4
 70
     1
102
RTVSPropertyOp5
 70
     1
102
RTVSPropertyOp6
 70
     1
102
RTVSPropertyOp7
 70
     1
102
RTVSPropertyOp8
 70
     1
102
RTVSPropertyOp9
 70
     1
102
RTVSPropertyOp10
 70
     1
102
RTVSPropertyOp11
 70
     1
102
RTVSPropertyOp12
 70
     1
102
RTVSPropertyOp13
 70
     1
102
RTVSPropertyOp14
 70
     1
102
RTVSPropertyOp15
 70
     1
102
RTVSPropertyOp16
 70
     1
102
RTVSPropertyOp17
 70
     1
102
RTVSPropertyOp18
 70
     1
102
RTVSPropertyOp19
 70
     1
102
RTVSPropertyOp20
 70
     1
102
RTVSPropertyOp21
 70
     1
102
RTVSPropertyOp22
 70
     1
102
RTVSPropertyOp23
 70
     1
102
RTVSPropertyOp24
 70
     1
102
RTVSPropertyOp25
 70
     1
102
RTVSPropertyOp26
 70
     1
102
RTVSPropertyOp27
 70
     1
102
RTVSPropertyOp28
 70
     1
102
RTVSPropertyOp29
 70
     1
102
RTVSPropertyOp30
 70
     1
102
RTVSPropertyOp31
 70
     1
102
RTVSPropertyOp32
 70
     1
  0
XRECORD
  5
342
102
{ACAD_REACTORS
330
341
102
}
330
341
100
AcDbXrecord
280
     1
102
RTVSPropertyOp0
 70
     0
102
RTVSPropertyOp1
 70
     0
102
RTVSPropertyOp2
 70
     0
102
RTVSPropertyOp3
 70
     0
102
RTVSPropertyOp4
 70
     0
102
RTVSPropertyOp5
 70
     0
102
RTVSPropertyOp6
 70
     0
102
RTVSPropertyOp7
 70
     0
102
RTVSPropertyOp8
 70
     0
102
RTVSPropertyOp9
 70
     0
102
RTVSPropertyOp10
 70
     0
102
RTVSPropertyOp11
 70
     0
102
RTVSPropertyOp12
 70
     0
102
RTVSPropertyOp13
 70
     0
102
RTVSPropertyOp14
 70
     2
102
RTVSPropertyOp15
 70
     0
102
RTVSPropertyOp16
 70
     0
102
RTVSPropertyOp17
 70
     0
102
RTVSPropertyOp18
 70
     0
102
RTVSPropertyOp19
 70
     0
102
RTVSPropertyOp20
 70
     0
102
RTVSPropertyOp21
 70
     0
102
RTVSPropertyOp22
 70
     0
102
RTVSPropertyOp23
 70
     0
102
RTVSPropertyOp24
 70
     0
102
RTVSPropertyOp25
 70
     0
102
RTVSPropertyOp26
 70
     0
102
RTVSPropertyOp27
 70
     0
102
RTVSPropertyOp28
 70
     0
102
RTVSPropertyOp29
 70
     0
102
RTVSPropertyOp30
 70
     0
102
RTVSPropertyOp31
 70
     0
102
RTVSPropertyOp32
 70
     0
  0
XRECORD
  5
328
102
{ACAD_REACTORS
330
327
102
}
330
327
100
AcDbXrecord
280
     1
102
RTVSPropertyOp0
 70
     1
102
RTVSPropertyOp1
 70
     1
102
RTVSPropertyOp2
 70
     1
102
RTVSPropertyOp3
 70
     1
102
RTVSPropertyOp4
 70
     1
102
RTVSPropertyOp5
 70
     1
102
RTVSPropertyOp6
 70
     1
102
RTVSPropertyOp7
 70
     1
102
RTVSPropertyOp8
 70
     1
102
RTVSPropertyOp9
 70
     1
102
RTVSPropertyOp10
 70
     1
102
RTVSPropertyOp11
 70
     1
102
RTVSPropertyOp12
 70
     1
102
RTVSPropertyOp13
 70
     1
102
RTVSPropertyOp14
 70
     1
102
RTVSPropertyOp15
 70
     1
102
RTVSPropertyOp16
 70
     1
102
RTVSPropertyOp17
 70
     1
102
RTVSPropertyOp18
 70
     1
102
RTVSPropertyOp19
 70
     1
102
RTVSPropertyOp20
 70
     1
102
RTVSPropertyOp21
 70
     1
102
RTVSPropertyOp22
 70
     1
102
RTVSPropertyOp23
 70
     1
102
RTVSPropertyOp24
 70
     1
102
RTVSPropertyOp25
 70
     1
102
RTVSPropertyOp26
 70
     1
102
RTVSPropertyOp27
 70
     1
102
RTVSPropertyOp28
 70
     1
102
RTVSPropertyOp29
 70
     1
102
RTVSPropertyOp30
 70
     1
102
RTVSPropertyOp31
 70
     1
102
RTVSPropertyOp32
 70
     1
  0
XRECORD
  5
33E
102
{ACAD_REACTORS
330
33D
102
}
330
33D
100
AcDbXrecord
280
     1
102
RTVSPropertyOp0
 70
     1
102
RTVSPropertyOp1
 70
     1
102
RTVSPropertyOp2
 70
     1
102
RTVSPropertyOp3
 70
     1
102
RTVSPropertyOp4
 70
     1
102
RTVSPropertyOp5
 70
     1
102
RTVSPropertyOp6
 70
     1
102
RTVSPropertyOp7
 70
     1
102
RTVSPropertyOp8
 70
     1
102
RTVSPropertyOp9
 70
     1
102
RTVSPropertyOp10
 70
     1
102
RTVSPropertyOp11
 70
     1
102
RTVSPropertyOp12
 70
     1
102
RTVSPropertyOp13
 70
     1
102
RTVSPropertyOp14
 70
     1
102
RTVSPropertyOp15
 70
     1
102
RTVSPropertyOp16
 70
     1
102
RTVSPropertyOp17
 70
     1
102
RTVSPropertyOp18
 70
     1
102
RTVSPropertyOp19
 70
     1
102
RTVSPropertyOp20
 70
     1
102
RTVSPropertyOp21
 70
     1
102
RTVSPropertyOp22
 70
     1
102
RTVSPropertyOp23
 70
     1
102
RTVSPropertyOp24
 70
     1
102
RTVSPropertyOp25
 70
     1
102
RTVSPropertyOp26
 70
     1
102
RTVSPropertyOp27
 70
     1
102
RTVSPropertyOp28
 70
     1
102
RTVSPropertyOp29
 70
     1
102
RTVSPropertyOp30
 70
     1
102
RTVSPropertyOp31
 70
     1
102
RTVSPropertyOp32
 70
     1
  0
XRECORD
  5
33C
102
{ACAD_REACTORS
330
33B
102
}
330
33B
100
AcDbXrecord
280
     1
102
RTVSPropertyOp0
 70
     1
102
RTVSPropertyOp1
 70
     1
102
RTVSPropertyOp2
 70
     1
102
RTVSPropertyOp3
 70
     1
102
RTVSPropertyOp4
 70
     1
102
RTVSPropertyOp5
 70
     1
102
RTVSPropertyOp6
 70
     1
102
RTVSPropertyOp7
 70
     1
102
RTVSPropertyOp8
 70
     1
102
RTVSPropertyOp9
 70
     1
102
RTVSPropertyOp10
 70
     1
102
RTVSPropertyOp11
 70
     1
102
RTVSPropertyOp12
 70
     1
102
RTVSPropertyOp13
 70
     1
102
RTVSPropertyOp14
 70
     1
102
RTVSPropertyOp15
 70
     1
102
RTVSPropertyOp16
 70
     1
102
RTVSPropertyOp17
 70
     1
102
RTVSPropertyOp18
 70
     1
102
RTVSPropertyOp19
 70
     1
102
RTVSPropertyOp20
 70
     1
102
RTVSPropertyOp21
 70
     1
102
RTVSPropertyOp22
 70
     1
102
RTVSPropertyOp23
 70
     1
102
RTVSPropertyOp24
 70
     1
102
RTVSPropertyOp25
 70
     1
102
RTVSPropertyOp26
 70
     1
102
RTVSPropertyOp27
 70
     1
102
RTVSPropertyOp28
 70
     1
102
RTVSPropertyOp29
 70
     1
102
RTVSPropertyOp30
 70
     1
102
RTVSPropertyOp31
 70
     1
102
RTVSPropertyOp32
 70
     1
  0
XRECORD
  5
336
102
{ACAD_REACTORS
330
335
102
}
330
335
100
AcDbXrecord
280
     1
102
RTVSPropertyOp0
 70
     1
102
RTVSPropertyOp1
 70
     1
102
RTVSPropertyOp2
 70
     1
102
RTVSPropertyOp3
 70
     1
102
RTVSPropertyOp4
 70
     1
102
RTVSPropertyOp5
 70
     1
102
RTVSPropertyOp6
 70
     1
102
RTVSPropertyOp7
 70
     1
102
RTVSPropertyOp8
 70
     1
102
RTVSPropertyOp9
 70
     1
102
RTVSPropertyOp10
 70
     1
102
RTVSPropertyOp11
 70
     1
102
RTVSPropertyOp12
 70
     1
102
RTVSPropertyOp13
 70
     1
102
RTVSPropertyOp14
 70
     1
102
RTVSPropertyOp15
 70
     1
102
RTVSPropertyOp16
 70
     1
102
RTVSPropertyOp17
 70
     1
102
RTVSPropertyOp18
 70
     1
102
RTVSPropertyOp19
 70
     1
102
RTVSPropertyOp20
 70
     1
102
RTVSPropertyOp21
 70
     1
102
RTVSPropertyOp22
 70
     1
102
RTVSPropertyOp23
 70
     1
102
RTVSPropertyOp24
 70
     1
102
RTVSPropertyOp25
 70
     1
102
RTVSPropertyOp26
 70
     1
102
RTVSPropertyOp27
 70
     1
102
RTVSPropertyOp28
 70
     1
102
RTVSPropertyOp29
 70
     1
102
RTVSPropertyOp30
 70
     1
102
RTVSPropertyOp31
 70
     1
102
RTVSPropertyOp32
 70
     1
  0
XRECORD
  5
338
102
{ACAD_REACTORS
330
337
102
}
330
337
100
AcDbXrecord
280
     1
102
RTVSPropertyOp0
 70
     1
102
RTVSPropertyOp1
 70
     1
102
RTVSPropertyOp2
 70
     1
102
RTVSPropertyOp3
 70
     1
102
RTVSPropertyOp4
 70
     1
102
RTVSPropertyOp5
 70
     1
102
RTVSPropertyOp6
 70
     1
102
RTVSPropertyOp7
 70
     1
102
RTVSPropertyOp8
 70
     1
102
RTVSPropertyOp9
 70
     1
102
RTVSPropertyOp10
 70
     1
102
RTVSPropertyOp11
 70
     1
102
RTVSPropertyOp12
 70
     1
102
RTVSPropertyOp13
 70
     1
102
RTVSPropertyOp14
 70
     1
102
RTVSPropertyOp15
 70
     1
102
RTVSPropertyOp16
 70
     1
102
RTVSPropertyOp17
 70
     1
102
RTVSPropertyOp18
 70
     1
102
RTVSPropertyOp19
 70
     1
102
RTVSPropertyOp20
 70
     1
102
RTVSPropertyOp21
 70
     1
102
RTVSPropertyOp22
 70
     1
102
RTVSPropertyOp23
 70
     1
102
RTVSPropertyOp24
 70
     1
102
RTVSPropertyOp25
 70
     1
102
RTVSPropertyOp26
 70
     1
102
RTVSPropertyOp27
 70
     1
102
RTVSPropertyOp28
 70
     1
102
RTVSPropertyOp29
 70
     1
102
RTVSPropertyOp30
 70
     1
102
RTVSPropertyOp31
 70
     1
102
RTVSPropertyOp32
 70
     1
  0
XRECORD
  5
32E
102
{ACAD_REACTORS
330
32D
102
}
330
32D
100
AcDbXrecord
280
     1
102
RTVSPropertyOp0
 70
     1
102
RTVSPropertyOp1
 70
     1
102
RTVSPropertyOp2
 70
     1
102
RTVSPropertyOp3
 70
     1
102
RTVSPropertyOp4
 70
     1
102
RTVSPropertyOp5
 70
     1
102
RTVSPropertyOp6
 70
     1
102
RTVSPropertyOp7
 70
     1
102
RTVSPropertyOp8
 70
     1
102
RTVSPropertyOp9
 70
     1
102
RTVSPropertyOp10
 70
     1
102
RTVSPropertyOp11
 70
     1
102
RTVSPropertyOp12
 70
     1
102
RTVSPropertyOp13
 70
     1
102
RTVSPropertyOp14
 70
     1
102
RTVSPropertyOp15
 70
     1
102
RTVSPropertyOp16
 70
     1
102
RTVSPropertyOp17
 70
     1
102
RTVSPropertyOp18
 70
     1
102
RTVSPropertyOp19
 70
     1
102
RTVSPropertyOp20
 70
     1
102
RTVSPropertyOp21
 70
     1
102
RTVSPropertyOp22
 70
     1
102
RTVSPropertyOp23
 70
     1
102
RTVSPropertyOp24
 70
     1
102
RTVSPropertyOp25
 70
     1
102
RTVSPropertyOp26
 70
     1
102
RTVSPropertyOp27
 70
     1
102
RTVSPropertyOp28
 70
     1
102
RTVSPropertyOp29
 70
     1
102
RTVSPropertyOp30
 70
     1
102
RTVSPropertyOp31
 70
     1
102
RTVSPropertyOp32
 70
     1
  0
XRECORD
  5
322
102
{ACAD_REACTORS
330
321
102
}
330
321
100
AcDbXrecord
280
     1
102
RTVSPropertyOp0
 70
     1
102
RTVSPropertyOp1
 70
     1
102
RTVSPropertyOp2
 70
     1
102
RTVSPropertyOp3
 70
     1
102
RTVSPropertyOp4
 70
     1
102
RTVSPropertyOp5
 70
     1
102
RTVSPropertyOp6
 70
     1
102
RTVSPropertyOp7
 70
     1
102
RTVSPropertyOp8
 70
     1
102
RTVSPropertyOp9
 70
     1
102
RTVSPropertyOp10
 70
     1
102
RTVSPropertyOp11
 70
     1
102
RTVSPropertyOp12
 70
     1
102
RTVSPropertyOp13
 70
     1
102
RTVSPropertyOp14
 70
     1
102
RTVSPropertyOp15
 70
     1
102
RTVSPropertyOp16
 70
     1
102
RTVSPropertyOp17
 70
     1
102
RTVSPropertyOp18
 70
     1
102
RTVSPropertyOp19
 70
     1
102
RTVSPropertyOp20
 70
     1
102
RTVSPropertyOp21
 70
     1
102
RTVSPropertyOp22
 70
     1
102
RTVSPropertyOp23
 70
     1
102
RTVSPropertyOp24
 70
     1
102
RTVSPropertyOp25
 70
     1
102
RTVSPropertyOp26
 70
     1
102
RTVSPropertyOp27
 70
     1
102
RTVSPropertyOp28
 70
     1
102
RTVSPropertyOp29
 70
     1
102
RTVSPropertyOp30
 70
     1
102
RTVSPropertyOp31
 70
     1
102
RTVSPropertyOp32
 70
     1
  0
XRECORD
  5
33A
102
{ACAD_REACTORS
330
339
102
}
330
339
100
AcDbXrecord
280
     1
102
RTVSPropertyOp0
 70
     1
102
RTVSPropertyOp1
 70
     1
102
RTVSPropertyOp2
 70
     1
102
RTVSPropertyOp3
 70
     1
102
RTVSPropertyOp4
 70
     1
102
RTVSPropertyOp5
 70
     1
102
RTVSPropertyOp6
 70
     1
102
RTVSPropertyOp7
 70
     1
102
RTVSPropertyOp8
 70
     1
102
RTVSPropertyOp9
 70
     1
102
RTVSPropertyOp10
 70
     1
102
RTVSPropertyOp11
 70
     1
102
RTVSPropertyOp12
 70
     1
102
RTVSPropertyOp13
 70
     1
102
RTVSPropertyOp14
 70
     1
102
RTVSPropertyOp15
 70
     1
102
RTVSPropertyOp16
 70
     1
102
RTVSPropertyOp17
 70
     1
102
RTVSPropertyOp18
 70
     1
102
RTVSPropertyOp19
 70
     1
102
RTVSPropertyOp20
 70
     1
102
RTVSPropertyOp21
 70
     1
102
RTVSPropertyOp22
 70
     1
102
RTVSPropertyOp23
 70
     1
102
RTVSPropertyOp24
 70
     1
102
RTVSPropertyOp25
 70
     1
102
RTVSPropertyOp26
 70
     1
102
RTVSPropertyOp27
 70
     1
102
RTVSPropertyOp28
 70
     1
102
RTVSPropertyOp29
 70
     1
102
RTVSPropertyOp30
 70
     1
102
RTVSPropertyOp31
 70
     1
102
RTVSPropertyOp32
 70
     1
  0
ENDSEC
  0
EOF
