ISO-10303-21;
HEADER;
/****************************************************************
 * Generated by software with PDElib inside                    *
 * PDElib Version v51a, created Wed 07/06/2011                  *
 * ITI Transcendata (http://www.transcendata.com/)              *
 ****************************************************************/
FILE_DESCRIPTION((''),'2;1');
FILE_NAME('M:\\Module\\Internet-Daten\\MSL-F + MSF\\STEP\\MSF-50.stp','2012-10-11T15:08:52',('hartung_david'),(''),'Autodesk Inventor 2012','Autodesk Inventor 2012','');
FILE_SCHEMA(('AUTOMOTIVE_DESIGN { 1 0 10303 214 1 1 1 1 }'));
ENDSEC;
DATA;
#5=APPLICATION_CONTEXT('automotive design');
#6=APPLICATION_PROTOCOL_DEFINITION('International Standard','automotive_design',2001,#5);
#7=PRODUCT_CONTEXT('',#5,'mechanical');
#8=PRODUCT('MSF-50','MSF-50',$,(#7));
#9=PRODUCT_RELATED_PRODUCT_CATEGORY('part',$,(#8));
#10=PRODUCT_DEFINITION_FORMATION('',$,#8);
#11=PRODUCT_DEFINITION_CONTEXT('part definition',#5,'design');
#12=PRODUCT_DEFINITION('',$,#10,#11);
#18=(NAMED_UNIT(*)PLANE_ANGLE_UNIT()SI_UNIT($,.RADIAN.));
#19=DIMENSIONAL_EXPONENTS(0.0,0.0,0.0,0.0,0.0,0.0,0.0);
#20=PLANE_ANGLE_MEASURE_WITH_UNIT(PLANE_ANGLE_MEASURE(0.0174532925),#18);
#24=(CONVERSION_BASED_UNIT('DEGREE',#20)NAMED_UNIT(#19)PLANE_ANGLE_UNIT());
#28=(NAMED_UNIT(*)SI_UNIT($,.STERADIAN.)SOLID_ANGLE_UNIT());
#32=(LENGTH_UNIT()NAMED_UNIT(*)SI_UNIT(.MILLI.,.METRE.));
#34=UNCERTAINTY_MEASURE_WITH_UNIT(LENGTH_MEASURE(0.01),#32,'DISTANCE_ACCURACY_VALUE','');
#36=(GEOMETRIC_REPRESENTATION_CONTEXT(3)GLOBAL_UNCERTAINTY_ASSIGNED_CONTEXT((#34))GLOBAL_UNIT_ASSIGNED_CONTEXT((#24,#28,#32))REPRESENTATION_CONTEXT('None','None'));
#37=AXIS2_PLACEMENT_3D('',#38,#39,#40);
#38=CARTESIAN_POINT('',(0.0,0.0,0.0));
#39=DIRECTION('',(0.0,0.0,1.0));
#40=DIRECTION('',(1.0,0.0,0.0));
#41=SHAPE_REPRESENTATION('',(#37),#36);
#42=PRODUCT_DEFINITION_SHAPE('','',#12);
#43=SHAPE_DEFINITION_REPRESENTATION(#42,#41);
#49=(NAMED_UNIT(*)PLANE_ANGLE_UNIT()SI_UNIT($,.RADIAN.));
#50=DIMENSIONAL_EXPONENTS(0.0,0.0,0.0,0.0,0.0,0.0,0.0);
#51=PLANE_ANGLE_MEASURE_WITH_UNIT(PLANE_ANGLE_MEASURE(0.0174532925),#49);
#55=(CONVERSION_BASED_UNIT('DEGREE',#51)NAMED_UNIT(#50)PLANE_ANGLE_UNIT());
#59=(NAMED_UNIT(*)SI_UNIT($,.STERADIAN.)SOLID_ANGLE_UNIT());
#63=(LENGTH_UNIT()NAMED_UNIT(*)SI_UNIT(.MILLI.,.METRE.));
#65=UNCERTAINTY_MEASURE_WITH_UNIT(LENGTH_MEASURE(0.000001),#63,'DISTANCE_ACCURACY_VALUE','');
#67=(GEOMETRIC_REPRESENTATION_CONTEXT(3)GLOBAL_UNCERTAINTY_ASSIGNED_CONTEXT((#65))GLOBAL_UNIT_ASSIGNED_CONTEXT((#55,#59,#63))REPRESENTATION_CONTEXT('','3D'));
#68=CARTESIAN_POINT('',(0.0,0.0,283.28078755380739));
#69=DIRECTION('',(0.0,0.0,1.0));
#70=DIRECTION('',(1.0,0.0,0.0));
#71=AXIS2_PLACEMENT_3D('',#68,#69,#70);
#72=CONICAL_SURFACE('',#71,2.86125,59.000000000000007);
#73=CARTESIAN_POINT('',(5.7225,0.0,285.0));
#74=VERTEX_POINT('',#73);
#75=CARTESIAN_POINT('',(0.0,0.0,285.0));
#76=DIRECTION('',(0.0,0.0,1.0));
#77=DIRECTION('',(1.0,0.0,0.0));
#78=AXIS2_PLACEMENT_3D('',#75,#76,#77);
#79=CIRCLE('',#78,5.7225);
#80=EDGE_CURVE('',#74,#74,#79,.T.);
#81=ORIENTED_EDGE('',*,*,#80,.T.);
#82=EDGE_LOOP('',(#81));
#83=FACE_OUTER_BOUND('',#82,.T.);
#84=ADVANCED_FACE('',(#83),#72,.F.);
#85=CARTESIAN_POINT('',(0.0,0.0,292.5));
#86=DIRECTION('',(0.0,0.0,1.0));
#87=DIRECTION('',(1.0,0.0,0.0));
#88=AXIS2_PLACEMENT_3D('',#85,#86,#87);
#89=CYLINDRICAL_SURFACE('',#88,5.7225);
#90=CARTESIAN_POINT('',(5.7225,0.0,300.0));
#91=VERTEX_POINT('',#90);
#92=CARTESIAN_POINT('',(0.0,0.0,300.0));
#93=DIRECTION('',(0.0,0.0,-1.0));
#94=DIRECTION('',(1.0,0.0,0.0));
#95=AXIS2_PLACEMENT_3D('',#92,#93,#94);
#96=CIRCLE('',#95,5.7225);
#97=EDGE_CURVE('',#91,#91,#96,.T.);
#98=ORIENTED_EDGE('',*,*,#97,.F.);
#99=EDGE_LOOP('',(#98));
#100=FACE_OUTER_BOUND('',#99,.T.);
#101=ORIENTED_EDGE('',*,*,#80,.F.);
#102=EDGE_LOOP('',(#101));
#103=FACE_BOUND('',#102,.T.);
#104=ADVANCED_FACE('',(#100,#103),#89,.F.);
#105=CARTESIAN_POINT('',(0.0,0.0,89.999999999999972));
#106=DIRECTION('',(0.0,1.0,0.0));
#107=DIRECTION('',(1.0,0.0,0.0));
#108=AXIS2_PLACEMENT_3D('',#105,#106,#107);
#109=CYLINDRICAL_SURFACE('',#108,25.0);
#110=CARTESIAN_POINT('',(25.0,43.301270189221945,89.999999999999972));
#111=VERTEX_POINT('',#110);
#112=CARTESIAN_POINT('',(25.0,43.301270189221945,89.999999999999972));
#113=CARTESIAN_POINT('',(25.0,43.301270189221945,91.603813337006102));
#114=CARTESIAN_POINT('',(24.843242721326263,43.392986015767896,93.250483228181452));
#115=CARTESIAN_POINT('',(24.195876609419912,43.757256527008991,96.504760247244263));
#116=CARTESIAN_POINT('',(23.705534144790651,44.029202001996801,98.112488520610441));
#117=CARTESIAN_POINT('',(22.422323210533982,44.6963342083436,101.18053549866715));
#118=CARTESIAN_POINT('',(21.628432961406926,45.09119019866597,102.64383132767692));
#119=CARTESIAN_POINT('',(19.80404217889977,45.921720993910817,105.34455918960477));
#120=CARTESIAN_POINT('',(18.773282616469768,46.3566145116976,106.58205644285758));
#121=CARTESIAN_POINT('',(16.585043137410125,47.183691293218367,108.77029592191721));
#122=CARTESIAN_POINT('',(15.349026132758192,47.606584107697081,109.80062860243764));
#123=CARTESIAN_POINT('',(12.647692524621776,48.394372889717879,111.6262195086546));
#124=CARTESIAN_POINT('',(11.18229593644986,48.758665571681817,112.42161966026791));
#125=CARTESIAN_POINT('',(8.109849903630868,49.362754663071513,113.70660498457474));
#126=CARTESIAN_POINT('',(6.499871261909434,49.602682455600437,114.197216810279));
#127=CARTESIAN_POINT('',(3.244698334328487,49.921401882734877,114.84402464407316));
#128=CARTESIAN_POINT('',(1.599441263858606,50.000000000000007,114.99999999999997));
#129=CARTESIAN_POINT('',(-1.599441263858615,50.000000000000007,114.99999999999997));
#130=CARTESIAN_POINT('',(-3.244698334328493,49.921401882734877,114.84402464407316));
#131=CARTESIAN_POINT('',(-6.499871261909441,49.602682455600437,114.197216810279));
#132=CARTESIAN_POINT('',(-8.109849903630874,49.362754663071513,113.70660498457475));
#133=CARTESIAN_POINT('',(-11.182295936449867,48.758665571681817,112.42161966026788));
#134=CARTESIAN_POINT('',(-12.647692524621799,48.394372889717872,111.62621950865459));
#135=CARTESIAN_POINT('',(-15.349026132758205,47.606584107697074,109.80062860243764));
#136=CARTESIAN_POINT('',(-16.585043137410132,47.183691293218367,108.77029592191721));
#137=CARTESIAN_POINT('',(-18.773282616469778,46.3566145116976,106.58205644285758));
#138=CARTESIAN_POINT('',(-19.804042178899774,45.921720993910817,105.34455918960477));
#139=CARTESIAN_POINT('',(-21.628432961406926,45.09119019866597,102.64383132767692));
#140=CARTESIAN_POINT('',(-22.422323210533996,44.696334208343586,101.18053549866713));
#141=CARTESIAN_POINT('',(-23.705534144790658,44.029202001996794,98.112488520610412));
#142=CARTESIAN_POINT('',(-24.195876609419919,43.757256527008998,96.504760247244235));
#143=CARTESIAN_POINT('',(-24.843242721326263,43.392986015767903,93.250483228181423));
#144=CARTESIAN_POINT('',(-25.0,43.301270189221945,91.603813337006116));
#145=CARTESIAN_POINT('',(-25.0,43.301270189221945,88.396186662993841));
#146=CARTESIAN_POINT('',(-24.843242721326263,43.392986015767896,86.749516771818492));
#147=CARTESIAN_POINT('',(-24.195876609419912,43.757256527008991,83.495239752755666));
#148=CARTESIAN_POINT('',(-23.705534144790651,44.029202001996801,81.887511479389474));
#149=CARTESIAN_POINT('',(-22.422323210533985,44.696334208343593,78.819464501332774));
#150=CARTESIAN_POINT('',(-21.628432961406915,45.091190198665984,77.35616867232298));
#151=CARTESIAN_POINT('',(-19.804042178899767,45.921720993910824,74.655440810395149));
#152=CARTESIAN_POINT('',(-18.773282616469771,46.3566145116976,73.417943557142365));
#153=CARTESIAN_POINT('',(-16.585043137410128,47.183691293218367,71.229704078082705));
#154=CARTESIAN_POINT('',(-15.349026132758201,47.606584107697074,70.199371397562288));
#155=CARTESIAN_POINT('',(-12.647692524621789,48.394372889717872,68.373780491345329));
#156=CARTESIAN_POINT('',(-11.182295936449867,48.758665571681817,67.578380339732021));
#157=CARTESIAN_POINT('',(-8.109849903630874,49.362754663071513,66.29339501542519));
#158=CARTESIAN_POINT('',(-6.499871261909441,49.602682455600437,65.802783189720927));
#159=CARTESIAN_POINT('',(-3.244698334328492,49.921401882734877,65.15597535592677));
#160=CARTESIAN_POINT('',(-1.599441263858611,50.000000000000007,64.999999999999972));
#161=CARTESIAN_POINT('',(1.599441263858613,50.000000000000007,64.999999999999972));
#162=CARTESIAN_POINT('',(3.244698334328494,49.921401882734877,65.15597535592677));
#163=CARTESIAN_POINT('',(6.499871261909442,49.602682455600437,65.802783189720927));
#164=CARTESIAN_POINT('',(8.109849903630877,49.362754663071513,66.29339501542519));
#165=CARTESIAN_POINT('',(11.182295936449869,48.758665571681817,67.578380339732021));
#166=CARTESIAN_POINT('',(12.647692524621794,48.394372889717872,68.373780491345329));
#167=CARTESIAN_POINT('',(15.349026132758203,47.606584107697074,70.199371397562288));
#168=CARTESIAN_POINT('',(16.585043137410128,47.183691293218367,71.229704078082705));
#169=CARTESIAN_POINT('',(18.773282616469771,46.3566145116976,73.417943557142365));
#170=CARTESIAN_POINT('',(19.80404217889976,45.921720993910817,74.655440810395163));
#171=CARTESIAN_POINT('',(21.628432961406912,45.09119019866597,77.35616867232298));
#172=CARTESIAN_POINT('',(22.422323210533985,44.696334208343593,78.819464501332774));
#173=CARTESIAN_POINT('',(23.705534144790654,44.029202001996794,81.887511479389474));
#174=CARTESIAN_POINT('',(24.195876609419905,43.757256527008991,83.495239752755651));
#175=CARTESIAN_POINT('',(24.843242721326252,43.392986015767896,86.749516771818463));
#176=CARTESIAN_POINT('',(24.999999999999996,43.301270189221945,88.396186662993841));
#177=CARTESIAN_POINT('',(24.999999999999996,43.301270189221945,89.999999999999972));
#178=B_SPLINE_CURVE_WITH_KNOTS('',3,(#112,#113,#114,#115,#116,#117,#118,#119,#120,#121,#122,#123,#124,#125,#126,#127,#128,#129,#130,#131,#132,#133,#134,#135,#136,#137,#138,#139,#140,#141,#142,#143,#144,#145,#146,#147,#148,#149,#150,#151,#152,#153,#154,#155,#156,#157,#158,#159,#160,#161,#162,#163,#164,#165,#166,#167,#168,#169,#170,#171,#172,#173,#174,#175,#176,#177),.UNSPECIFIED.,.T.,.U.,(4,2,2,2,2,2,2,2,2,2,2,2,2,2,2,2,2,2,2,2,2,2,2,2,2,2,2,2,2,2,2,2,4),(0.0,0.481144001101842,0.962288002203683,1.443432003305525,1.924576004407366,2.40440838356495,2.884240762722533,3.364073141880117,3.8439055210377,4.323737900195283,4.803570279352867,5.28340265851045,5.763235037668034,6.244379038769876,6.725523039871717,7.206667040973558,7.6878110420754,8.168955043177242,8.650099044279083,9.131243045380924,9.612387046482766,10.09221942564035,10.572051804797933,11.051884183955517,11.5317165631131,12.011548942270684,12.491381321428268,12.971213700585851,13.451046079743435,13.932190080845276,14.413334081947117,14.894478083048959,15.3756220841508),.UNSPECIFIED.);
#179=EDGE_CURVE('',#111,#111,#178,.T.);
#180=ORIENTED_EDGE('',*,*,#179,.F.);
#181=EDGE_LOOP('',(#180));
#182=FACE_OUTER_BOUND('',#181,.T.);
#183=CARTESIAN_POINT('',(25.0,-43.301270189221945,89.999999999999972));
#184=VERTEX_POINT('',#183);
#185=CARTESIAN_POINT('',(25.0,-43.301270189221945,89.999999999999986));
#186=CARTESIAN_POINT('',(25.0,-43.301270189221945,88.396186662993856));
#187=CARTESIAN_POINT('',(24.843242721326263,-43.392986015767896,86.749516771818492));
#188=CARTESIAN_POINT('',(24.195876609419912,-43.757256527008991,83.495239752755666));
#189=CARTESIAN_POINT('',(23.705534144790651,-44.029202001996801,81.887511479389474));
#190=CARTESIAN_POINT('',(22.422323210533985,-44.6963342083436,78.819464501332774));
#191=CARTESIAN_POINT('',(21.628432961406912,-45.09119019866597,77.35616867232298));
#192=CARTESIAN_POINT('',(19.80404217889976,-45.921720993910817,74.655440810395163));
#193=CARTESIAN_POINT('',(18.773282616469771,-46.3566145116976,73.417943557142365));
#194=CARTESIAN_POINT('',(16.585043137410132,-47.183691293218367,71.229704078082705));
#195=CARTESIAN_POINT('',(15.349026132758201,-47.606584107697081,70.199371397562288));
#196=CARTESIAN_POINT('',(12.647692524621794,-48.394372889717872,68.373780491345329));
#197=CARTESIAN_POINT('',(11.182295936449872,-48.758665571681817,67.578380339732021));
#198=CARTESIAN_POINT('',(8.109849903630879,-49.362754663071513,66.29339501542519));
#199=CARTESIAN_POINT('',(6.499871261909443,-49.602682455600437,65.802783189720927));
#200=CARTESIAN_POINT('',(3.244698334328494,-49.921401882734877,65.15597535592677));
#201=CARTESIAN_POINT('',(1.599441263858613,-50.000000000000007,64.999999999999972));
#202=CARTESIAN_POINT('',(-1.599441263858611,-50.000000000000007,64.999999999999972));
#203=CARTESIAN_POINT('',(-3.244698334328492,-49.921401882734877,65.15597535592677));
#204=CARTESIAN_POINT('',(-6.499871261909441,-49.602682455600437,65.802783189720927));
#205=CARTESIAN_POINT('',(-8.109849903630874,-49.362754663071513,66.29339501542519));
#206=CARTESIAN_POINT('',(-11.182295936449867,-48.758665571681817,67.578380339732021));
#207=CARTESIAN_POINT('',(-12.647692524621789,-48.394372889717872,68.373780491345329));
#208=CARTESIAN_POINT('',(-15.349026132758201,-47.606584107697074,70.199371397562288));
#209=CARTESIAN_POINT('',(-16.585043137410128,-47.183691293218367,71.229704078082705));
#210=CARTESIAN_POINT('',(-18.773282616469771,-46.3566145116976,73.417943557142365));
#211=CARTESIAN_POINT('',(-19.80404217889976,-45.921720993910817,74.655440810395163));
#212=CARTESIAN_POINT('',(-21.628432961406912,-45.09119019866597,77.35616867232298));
#213=CARTESIAN_POINT('',(-22.422323210533985,-44.6963342083436,78.819464501332774));
#214=CARTESIAN_POINT('',(-23.705534144790651,-44.029202001996801,81.887511479389474));
#215=CARTESIAN_POINT('',(-24.195876609419912,-43.757256527008991,83.495239752755666));
#216=CARTESIAN_POINT('',(-24.843242721326263,-43.392986015767896,86.749516771818492));
#217=CARTESIAN_POINT('',(-25.0,-43.301270189221945,88.396186662993841));
#218=CARTESIAN_POINT('',(-25.0,-43.301270189221945,91.603813337006116));
#219=CARTESIAN_POINT('',(-24.843242721326263,-43.392986015767903,93.250483228181423));
#220=CARTESIAN_POINT('',(-24.195876609419919,-43.757256527008998,96.504760247244235));
#221=CARTESIAN_POINT('',(-23.705534144790658,-44.029202001996794,98.112488520610412));
#222=CARTESIAN_POINT('',(-22.422323210533996,-44.696334208343572,101.18053549866713));
#223=CARTESIAN_POINT('',(-21.628432961406936,-45.091190198665984,102.64383132767689));
#224=CARTESIAN_POINT('',(-19.804042178899778,-45.921720993910839,105.34455918960475));
#225=CARTESIAN_POINT('',(-18.773282616469778,-46.3566145116976,106.58205644285758));
#226=CARTESIAN_POINT('',(-16.585043137410132,-47.183691293218367,108.77029592191721));
#227=CARTESIAN_POINT('',(-15.349026132758205,-47.606584107697074,109.80062860243764));
#228=CARTESIAN_POINT('',(-12.647692524621799,-48.394372889717872,111.62621950865459));
#229=CARTESIAN_POINT('',(-11.182295936449869,-48.758665571681817,112.42161966026788));
#230=CARTESIAN_POINT('',(-8.109849903630877,-49.362754663071513,113.70660498457475));
#231=CARTESIAN_POINT('',(-6.499871261909442,-49.602682455600437,114.197216810279));
#232=CARTESIAN_POINT('',(-3.244698334328495,-49.921401882734877,114.84402464407316));
#233=CARTESIAN_POINT('',(-1.599441263858616,-50.000000000000007,114.99999999999997));
#234=CARTESIAN_POINT('',(1.599441263858607,-50.000000000000007,114.99999999999997));
#235=CARTESIAN_POINT('',(3.244698334328491,-49.921401882734877,114.84402464407316));
#236=CARTESIAN_POINT('',(6.499871261909437,-49.602682455600437,114.197216810279));
#237=CARTESIAN_POINT('',(8.10984990363087,-49.362754663071513,113.70660498457474));
#238=CARTESIAN_POINT('',(11.18229593644986,-48.758665571681817,112.42161966026791));
#239=CARTESIAN_POINT('',(12.647692524621776,-48.394372889717879,111.6262195086546));
#240=CARTESIAN_POINT('',(15.349026132758192,-47.606584107697081,109.80062860243764));
#241=CARTESIAN_POINT('',(16.585043137410125,-47.183691293218367,108.77029592191721));
#242=CARTESIAN_POINT('',(18.773282616469771,-46.3566145116976,106.58205644285758));
#243=CARTESIAN_POINT('',(19.80404217889977,-45.921720993910817,105.34455918960477));
#244=CARTESIAN_POINT('',(21.628432961406912,-45.09119019866597,102.64383132767693));
#245=CARTESIAN_POINT('',(22.422323210533982,-44.6963342083436,101.18053549866715));
#246=CARTESIAN_POINT('',(23.705534144790647,-44.029202001996801,98.112488520610441));
#247=CARTESIAN_POINT('',(24.195876609419912,-43.757256527008991,96.504760247244263));
#248=CARTESIAN_POINT('',(24.843242721326263,-43.392986015767896,93.250483228181452));
#249=CARTESIAN_POINT('',(24.999999999999996,-43.301270189221945,91.603813337006073));
#250=CARTESIAN_POINT('',(24.999999999999996,-43.301270189221945,89.999999999999943));
#251=B_SPLINE_CURVE_WITH_KNOTS('',3,(#185,#186,#187,#188,#189,#190,#191,#192,#193,#194,#195,#196,#197,#198,#199,#200,#201,#202,#203,#204,#205,#206,#207,#208,#209,#210,#211,#212,#213,#214,#215,#216,#217,#218,#219,#220,#221,#222,#223,#224,#225,#226,#227,#228,#229,#230,#231,#232,#233,#234,#235,#236,#237,#238,#239,#240,#241,#242,#243,#244,#245,#246,#247,#248,#249,#250),.UNSPECIFIED.,.T.,.U.,(4,2,2,2,2,2,2,2,2,2,2,2,2,2,2,2,2,2,2,2,2,2,2,2,2,2,2,2,2,2,2,2,4),(0.0,0.481144001101841,0.962288002203683,1.443432003305524,1.924576004407366,2.404408383564949,2.884240762722532,3.364073141880116,3.8439055210377,4.323737900195283,4.803570279352867,5.28340265851045,5.763235037668034,6.244379038769876,6.725523039871717,7.206667040973558,7.6878110420754,8.168955043177242,8.650099044279083,9.131243045380924,9.612387046482766,10.09221942564035,10.572051804797933,11.051884183955517,11.5317165631131,12.011548942270684,12.491381321428268,12.971213700585851,13.451046079743435,13.932190080845277,14.413334081947118,14.894478083048959,15.375622084150802),.UNSPECIFIED.);
#252=EDGE_CURVE('',#184,#184,#251,.T.);
#253=ORIENTED_EDGE('',*,*,#252,.F.);
#254=EDGE_LOOP('',(#253));
#255=FACE_BOUND('',#254,.T.);
#256=ADVANCED_FACE('',(#182,#255),#109,.F.);
#257=CARTESIAN_POINT('',(25.0,0.0,300.0));
#258=DIRECTION('',(0.0,0.0,1.0));
#259=DIRECTION('',(1.0,0.0,0.0));
#260=AXIS2_PLACEMENT_3D('',#257,#258,#259);
#261=PLANE('',#260);
#262=CARTESIAN_POINT('',(50.0,0.0,300.0));
#263=VERTEX_POINT('',#262);
#264=CARTESIAN_POINT('',(0.0,0.0,300.0));
#265=DIRECTION('',(0.0,0.0,-1.0));
#266=DIRECTION('',(1.0,0.0,0.0));
#267=AXIS2_PLACEMENT_3D('',#264,#265,#266);
#268=CIRCLE('',#267,50.0);
#269=EDGE_CURVE('',#263,#263,#268,.T.);
#270=ORIENTED_EDGE('',*,*,#269,.F.);
#271=EDGE_LOOP('',(#270));
#272=FACE_OUTER_BOUND('',#271,.T.);
#273=ORIENTED_EDGE('',*,*,#97,.T.);
#274=EDGE_LOOP('',(#273));
#275=FACE_BOUND('',#274,.T.);
#276=ADVANCED_FACE('',(#272,#275),#261,.T.);
#277=CARTESIAN_POINT('',(0.0,0.0,149.99999999999997));
#278=DIRECTION('',(0.0,0.0,-1.0));
#279=DIRECTION('',(1.0,0.0,0.0));
#280=AXIS2_PLACEMENT_3D('',#277,#278,#279);
#281=CYLINDRICAL_SURFACE('',#280,50.000000000000007);
#282=CARTESIAN_POINT('',(50.000000000000014,0.0,-2.095126E-014));
#283=VERTEX_POINT('',#282);
#284=CARTESIAN_POINT('',(0.0,0.0,-3.552714E-014));
#285=DIRECTION('',(0.0,0.0,-1.0));
#286=DIRECTION('',(1.0,0.0,0.0));
#287=AXIS2_PLACEMENT_3D('',#284,#285,#286);
#288=CIRCLE('',#287,50.000000000000014);
#289=EDGE_CURVE('',#283,#283,#288,.T.);
#290=ORIENTED_EDGE('',*,*,#289,.F.);
#291=EDGE_LOOP('',(#290));
#292=FACE_OUTER_BOUND('',#291,.T.);
#293=ORIENTED_EDGE('',*,*,#179,.T.);
#294=EDGE_LOOP('',(#293));
#295=FACE_BOUND('',#294,.T.);
#296=ORIENTED_EDGE('',*,*,#252,.T.);
#297=EDGE_LOOP('',(#296));
#298=FACE_BOUND('',#297,.T.);
#299=ORIENTED_EDGE('',*,*,#269,.T.);
#300=EDGE_LOOP('',(#299));
#301=FACE_BOUND('',#300,.T.);
#302=ADVANCED_FACE('',(#292,#295,#298,#301),#281,.T.);
#303=CARTESIAN_POINT('',(25.000000000000007,0.0,-1.075318E-014));
#304=DIRECTION('',(0.0,0.0,-1.0));
#305=DIRECTION('',(-1.0,0.0,0.0));
#306=AXIS2_PLACEMENT_3D('',#303,#304,#305);
#307=PLANE('',#306);
#308=ORIENTED_EDGE('',*,*,#289,.T.);
#309=EDGE_LOOP('',(#308));
#310=FACE_OUTER_BOUND('',#309,.T.);
#311=ADVANCED_FACE('',(#310),#307,.T.);
#312=CLOSED_SHELL('',(#84,#104,#256,#276,#302,#311));
#313=MANIFOLD_SOLID_BREP('Volumenk\S\vrper1',#312);
#314=COLOUR_RGB('',0.800000011920929,0.800000011920929,0.800000011920929);
#315=FILL_AREA_STYLE_COLOUR('',#314);
#316=FILL_AREA_STYLE('',(#315));
#317=SURFACE_STYLE_FILL_AREA(#316);
#318=SURFACE_SIDE_STYLE('',(#317));
#319=SURFACE_STYLE_USAGE(.BOTH.,#318);
#320=PRESENTATION_STYLE_ASSIGNMENT((#319));
#321=STYLED_ITEM('',(#320),#276);
#322=STYLED_ITEM('',(#320),#302);
#323=COLOUR_RGB('',0.831372559070587,0.0,0.0);
#324=FILL_AREA_STYLE_COLOUR('',#323);
#325=FILL_AREA_STYLE('',(#324));
#326=SURFACE_STYLE_FILL_AREA(#325);
#327=SURFACE_SIDE_STYLE('',(#326));
#328=SURFACE_STYLE_USAGE(.BOTH.,#327);
#329=PRESENTATION_STYLE_ASSIGNMENT((#328));
#330=STYLED_ITEM('',(#329),#311);
#331=MECHANICAL_DESIGN_GEOMETRIC_PRESENTATION_REPRESENTATION('',(#321,#322,#330,#339),#67);
#332=COLOUR_RGB('RGB(237,119,81)',0.800000011920929,0.800000011920929,0.800000011920929);
#333=FILL_AREA_STYLE_COLOUR('RGB(237,119,81)',#332);
#334=FILL_AREA_STYLE('RGB(237,119,81)',(#333));
#335=SURFACE_STYLE_FILL_AREA(#334);
#336=SURFACE_SIDE_STYLE('RGB(237,119,81)',(#335));
#337=SURFACE_STYLE_USAGE(.BOTH.,#336);
#338=PRESENTATION_STYLE_ASSIGNMENT((#337));
#339=STYLED_ITEM('',(#338),#313);
#340=ADVANCED_BREP_SHAPE_REPRESENTATION('ABSR',(#313),#36);
#341=SHAPE_REPRESENTATION_RELATIONSHIP('SRR','None',#340,#41);
ENDSEC;
END-ISO-10303-21;
