  0
SECTION
  2
HEADER
  9
$ACADVER
  1
AC1012
  9
$DWGCODEPAGE
  3
ansi_1252
  9
$INSBASE
 10
0.0
 20
0.0
 30
0.0
  9
$EXTMIN
 10
-81.788719
 20
-309.100933
 30
0.0
  9
$EXTMAX
 10
510.782286
 20
291.48363
 30
0.0
  9
$LIMMIN
 10
0.0
 20
0.0
  9
$LIMMAX
 10
410.0
 20
287.0
  9
$ORTHOMODE
 70
     0
  9
$REGENMODE
 70
     1
  9
$FILLMODE
 70
     1
  9
$QTEXTMODE
 70
     0
  9
$MIRRTEXT
 70
     1
  9
$DRAGMODE
 70
     2
  9
$LTSCALE
 40
1.0
  9
$OSMODE
 70
    33
  9
$ATTMODE
 70
     1
  9
$TEXTSIZE
 40
3.5
  9
$TRACEWID
 40
0.05
  9
$TEXTSTYLE
  7
STANDARD
  9
$CLAYER
  8
MSL5_60_3F-0
  9
$CELTYPE
  6
BYLAYER
  9
$CECOLOR
 62
   256
  9
$CELTSCALE
 40
1.0
  9
$DELOBJ
 70
     1
  9
$DISPSILH
 70
     0
  9
$DIMSCALE
 40
1.0
  9
$DIMASZ
 40
2.5
  9
$DIMEXO
 40
1.0
  9
$DIMDLI
 40
7.0
  9
$DIMRND
 40
0.0
  9
$DIMDLE
 40
0.0
  9
$DIMEXE
 40
1.0
  9
$DIMTP
 40
0.1
  9
$DIMTM
 40
0.1
  9
$DIMTXT
 40
3.5
  9
$DIMCEN
 40
0.0
  9
$DIMTSZ
 40
0.0
  9
$DIMTOL
 70
     0
  9
$DIMLIM
 70
     0
  9
$DIMTIH
 70
     0
  9
$DIMTOH
 70
     0
  9
$DIMSE1
 70
     0
  9
$DIMSE2
 70
     0
  9
$DIMTAD
 70
     1
  9
$DIMZIN
 70
     0
  9
$DIMBLK
  1

  9
$DIMASO
 70
     1
  9
$DIMSHO
 70
     1
  9
$DIMPOST
  1
<>
  9
$DIMAPOST
  1

  9
$DIMALT
 70
     0
  9
$DIMALTD
 70
     2
  9
$DIMALTF
 40
0.03937
  9
$DIMLFAC
 40
1.0
  9
$DIMTOFL
 70
     1
  9
$DIMTVP
 40
0.0
  9
$DIMTIX
 70
     0
  9
$DIMSOXD
 70
     0
  9
$DIMSAH
 70
     0
  9
$DIMBLK1
  1

  9
$DIMBLK2
  1

  9
$DIMSTYLE
  2
GEN-ISO
  9
$DIMCLRD
 70
   256
  9
$DIMCLRE
 70
   256
  9
$DIMCLRT
 70
     2
  9
$DIMTFAC
 40
0.71
  9
$DIMGAP
 40
0.6
  9
$DIMJUST
 70
     0
  9
$DIMSD1
 70
     0
  9
$DIMSD2
 70
     0
  9
$DIMTOLJ
 70
     0
  9
$DIMTZIN
 70
     0
  9
$DIMALTZ
 70
     0
  9
$DIMALTTZ
 70
     0
  9
$DIMFIT
 70
     3
  9
$DIMUPT
 70
     0
  9
$DIMUNIT
 70
     2
  9
$DIMDEC
 70
     2
  9
$DIMTDEC
 70
     3
  9
$DIMALTU
 70
     2
  9
$DIMALTTD
 70
     4
  9
$DIMTXSTY
  7
STANDARD
  9
$DIMAUNIT
 70
     0
  9
$LUNITS
 70
     2
  9
$LUPREC
 70
     2
  9
$SKETCHINC
 40
0.1
  9
$FILLETRAD
 40
12.5
  9
$AUNITS
 70
     0
  9
$AUPREC
 70
     0
  9
$MENU
  1
acad
  9
$ELEVATION
 40
0.0
  9
$PELEVATION
 40
0.0
  9
$THICKNESS
 40
0.0
  9
$LIMCHECK
 70
     0
  9
$BLIPMODE
 70
     0
  9
$CHAMFERA
 40
12.5
  9
$CHAMFERB
 40
12.5
  9
$CHAMFERC
 40
0.0
  9
$CHAMFERD
 40
0.0
  9
$SKPOLY
 70
     0
  9
$TDCREATE
 40
2450927.629110891
  9
$TDUPDATE
 40
2450928.363792395
  9
$TDINDWG
 40
0.0965719560
  9
$TDUSRTIMER
 40
0.0965719560
  9
$USRTIMER
 70
     1
  9
$ANGBASE
 50
0.0
  9
$ANGDIR
 70
     0
  9
$PDMODE
 70
     0
  9
$PDSIZE
 40
39.404077
  9
$PLINEWID
 40
0.0
  9
$COORDS
 70
     1
  9
$SPLFRAME
 70
     0
  9
$SPLINETYPE
 70
     6
  9
$SPLINESEGS
 70
     8
  9
$ATTDIA
 70
     1
  9
$ATTREQ
 70
     1
  9
$HANDLING
 70
     1
  9
$HANDSEED
  5
3EC7
  9
$SURFTAB1
 70
     6
  9
$SURFTAB2
 70
     6
  9
$SURFTYPE
 70
     6
  9
$SURFU
 70
     6
  9
$SURFV
 70
     6
  9
$UCSNAME
  2

  9
$UCSORG
 10
0.0
 20
0.0
 30
0.0
  9
$UCSXDIR
 10
1.0
 20
0.0
 30
0.0
  9
$UCSYDIR
 10
0.0
 20
1.0
 30
0.0
  9
$PUCSNAME
  2

  9
$PUCSORG
 10
0.0
 20
0.0
 30
0.0
  9
$PUCSXDIR
 10
1.0
 20
0.0
 30
0.0
  9
$PUCSYDIR
 10
0.0
 20
1.0
 30
0.0
  9
$USERI1
 70
     0
  9
$USERI2
 70
     0
  9
$USERI3
 70
     0
  9
$USERI4
 70
     0
  9
$USERI5
 70
     0
  9
$USERR1
 40
0.0
  9
$USERR2
 40
0.0
  9
$USERR3
 40
0.0
  9
$USERR4
 40
0.0
  9
$USERR5
 40
0.0
  9
$WORLDVIEW
 70
     1
  9
$SHADEDGE
 70
     3
  9
$SHADEDIF
 70
    70
  9
$TILEMODE
 70
     1
  9
$MAXACTVP
 70
    16
  9
$PINSBASE
 10
0.0
 20
0.0
 30
0.0
  9
$PLIMCHECK
 70
     0
  9
$PEXTMIN
 10
1.000000E+20
 20
1.000000E+20
 30
1.000000E+20
  9
$PEXTMAX
 10
-1.000000E+20
 20
-1.000000E+20
 30
-1.000000E+20
  9
$PLIMMIN
 10
0.0
 20
0.0
  9
$PLIMMAX
 10
12.0
 20
9.0
  9
$UNITMODE
 70
     0
  9
$VISRETAIN
 70
     0
  9
$PLINEGEN
 70
     0
  9
$PSLTSCALE
 70
     1
  9
$TREEDEPTH
 70
  3020
  9
$PICKSTYLE
 70
     1
  9
$CMLSTYLE
  2
STANDARD
  9
$CMLJUST
 70
     0
  9
$CMLSCALE
 40
1.0
  9
$SAVEIMAGES
 70
     0
  0
ENDSEC
  0
SECTION
  2
CLASSES
  0
ENDSEC
  0
SECTION
  2
TABLES
  0
TABLE
  2
VPORT
  5
8
100
AcDbSymbolTable
 70
     3
  0
VPORT
  5
3EC6
100
AcDbSymbolTableRecord
100
AcDbViewportTableRecord
  2
*ACTIVE
 70
     0
 10
0.0
 20
0.0
 11
1.0
 21
1.0
 12
409.729688
 22
-8.808652
 13
0.0
 23
0.0
 14
5.0
 24
5.0
 15
50.0
 25
50.0
 16
0.0
 26
0.0
 36
1.0
 17
0.0
 27
0.0
 37
0.0
 40
750.730704
 41
1.6368
 42
50.0
 43
0.0
 44
0.0
 50
0.0
 51
0.0
 71
     0
 72
 10000
 73
     1
 74
     0
 75
     0
 76
     0
 77
     0
 78
     0
  0
ENDTAB
  0
TABLE
  2
LTYPE
  5
5
100
AcDbSymbolTable
 70
     3
  0
LTYPE
  5
14
100
AcDbSymbolTableRecord
100
AcDbLinetypeTableRecord
  2
BYBLOCK
 70
     0
  3

 72
    65
 73
     0
 40
0.0
  0
LTYPE
  5
15
100
AcDbSymbolTableRecord
100
AcDbLinetypeTableRecord
  2
BYLAYER
 70
     0
  3

 72
    65
 73
     0
 40
0.0
  0
LTYPE
  5
16
100
AcDbSymbolTableRecord
100
AcDbLinetypeTableRecord
  2
CONTINUOUS
 70
    64
  3
Solid line
 72
    65
 73
     0
 40
0.0
  0
LTYPE
  5
6A
100
AcDbSymbolTableRecord
100
AcDbLinetypeTableRecord
  2
GEN3
 70
    64
  3
-- -- -- -- -- -- -- -- -- -- -- -- -- -- --
 72
    65
 73
     2
 40
6.25
 49
5.0
 74
     0
 49
-1.25
 74
     0
  0
LTYPE
  5
6B
100
AcDbSymbolTableRecord
100
AcDbLinetypeTableRecord
  2
GEN7A
 70
    64
  3
__ . __ . __
 72
    65
 73
     4
 40
7.5
 49
5.0
 74
     0
 49
-1.25
 74
     0
 49
0.0
 74
     0
 49
-1.25
 74
     0
  0
ENDTAB
  0
TABLE
  2
LAYER
  5
2
100
AcDbSymbolTable
 70
     7
  0
LAYER
  5
F
100
AcDbSymbolTableRecord
100
AcDbLayerTableRecord
  2
0
 70
    64
 62
     7
  6
CONTINUOUS
  0
LAYER
  5
6C
100
AcDbSymbolTableRecord
100
AcDbLayerTableRecord
  2
MSL5_60_3F-0
 70
    64
 62
     7
  6
CONTINUOUS
  0
LAYER
  5
6D
100
AcDbSymbolTableRecord
100
AcDbLayerTableRecord
  2
MSL5_60_3F-3
 70
    64
 62
     6
  6
GEN3
  0
LAYER
  5
6E
100
AcDbSymbolTableRecord
100
AcDbLayerTableRecord
  2
MSL5_60_3F-4
 70
    64
 62
     3
  6
CONTINUOUS
  0
LAYER
  5
6F
100
AcDbSymbolTableRecord
100
AcDbLayerTableRecord
  2
MSL5_60_3F-7
 70
    64
 62
     4
  6
GEN7A
  0
LAYER
  5
70
100
AcDbSymbolTableRecord
100
AcDbLayerTableRecord
  2
MSL5_60_3F-6
 70
    64
 62
     2
  6
CONTINUOUS
  0
LAYER
  5
71
100
AcDbSymbolTableRecord
100
AcDbLayerTableRecord
  2
INFO
 70
    64
 62
     4
  6
CONTINUOUS
  0
ENDTAB
  0
TABLE
  2
STYLE
  5
3
100
AcDbSymbolTable
 70
     1
  0
STYLE
  5
10
100
AcDbSymbolTableRecord
100
AcDbTextStyleTableRecord
  2
STANDARD
 70
    64
 40
0.0
 41
1.0
 50
0.0
 71
     0
 42
3.5
  3
geniso.shx
  4

  0
ENDTAB
  0
TABLE
  2
VIEW
  5
6
100
AcDbSymbolTable
 70
     0
  0
ENDTAB
  0
TABLE
  2
UCS
  5
7
100
AcDbSymbolTable
 70
     0
  0
ENDTAB
  0
TABLE
  2
APPID
  5
9
100
AcDbSymbolTable
 70
    54
  0
APPID
  5
11
100
AcDbSymbolTableRecord
100
AcDbRegAppTableRecord
  2
ACAD
 70
     0
  0
APPID
  5
29
100
AcDbSymbolTableRecord
100
AcDbRegAppTableRecord
  2
GENIUS_GENCFG_13
 70
     0
1001
GENIUS_GENCFG0_13
1000
GEN@INFO_POS@XLATE
1001
GENIUS_GENCFG1_13
1000
GEN@LAYER@DEFS
1001
GENIUS_GENCFG2_13
1000
GEN@LAYER@ENTSORT
1001
GENIUS_GENCFG3_13
1000
GEN@OSWIZ
1001
GENIUS_GENCFG4_13
1000
GEN
1001
GENIUS_GEVCFG0_13
1000
GEV
1001
GENIUS_GEFCFG0_13
1000
GEF
  0
APPID
  5
2A
100
AcDbSymbolTableRecord
100
AcDbRegAppTableRecord
  2
GENIUS_GENCFG0_13
 70
     0
1001
GENIUS_GENCFG_13
1071
862825278
1000
2A
1000
GEN@INFO_POS@XLATE
1070
     7
1000
GenCfgObject
1000
GenCfgShort
1000
GenCfgReal
1000
GenCfgBool
1000
GenCfgString
1000
GenCfgDim
1000
GenCfgAttrInf
1000
INFOPOINTS
1070
     0
1002
{
1000
GENINF13
1070
     0
1002
{
1000
2GENINF
1070
     4
1000
2
1002
{
1002
}
1000
3GENINF
1070
     4
1000
3
1002
{
1002
}
1000
4GENINF
1070
     4
1000
4
1002
{
1002
}
1000
5GENINF
1070
     4
1000
5
1002
{
1002
}
1000
6GENINF
1070
     4
1000
6
1002
{
1002
}
1000
7GENINF
1070
     4
1000
7
1002
{
1002
}
1000
8GENINF
1070
     4
1000
8
1002
{
1002
}
1000
9GENINF
1070
     4
1000
9
1002
{
1002
}
1000
10GENINF
1070
     4
1000
10
1002
{
1002
}
1000
11GENINF
1070
     4
1000
11
1002
{
1002
}
1000
12GENINF
1070
     4
1000
12
1002
{
1002
}
1000
13GENINF
1070
     4
1000
13
1002
{
1002
}
1000
14GENINF
1070
     4
1000
14
1002
{
1002
}
1000
15GENINF
1070
     4
1000
15
1002
{
1002
}
1000
16GENINF
1070
     4
1000
16
1002
{
1002
}
1000
17GENINF
1070
     4
1000
17
1002
{
1002
}
1000
18GENINF
1070
     4
1000
18
1002
{
1002
}
1000
19GENINF
1070
     4
1000
19
1002
{
1002
}
1000
20GENINF
1070
     4
1000
20
1002
{
1002
}
1000
21GENINF
1070
     4
1000
21
1002
{
1002
}
1000
22GENINF
1070
     4
1000
22
1002
{
1002
}
1000
23GENINF
1070
     4
1000
23
1002
{
1002
}
1000
24GENINF
1070
     4
1000
24
1002
{
1002
}
1000
0GENINF
1070
     4
1000
0
1002
{
1002
}
1002
}
1000
GENINFO
1070
     0
1002
{
1000
3GENINF
1070
     4
1000
3
1002
{
1002
}
1000
4GENINF
1070
     4
1000
4
1002
{
1002
}
1000
5GENINF
1070
     4
1000
5
1002
{
1002
}
1000
6GENINF
1070
     4
1000
6
1002
{
1002
}
1000
7GENINF
1070
     4
1000
7
1002
{
1002
}
1000
8GENINF
1070
     4
1000
8
1002
{
1002
}
1000
9GENINF
1070
     4
1000
9
1002
{
1002
}
1000
10GENINF
1070
     4
1000
10
1002
{
1002
}
1000
11GENINF
1070
     4
1000
11
1002
{
1002
}
1000
12GENINF
1070
     4
1000
12
1002
{
1002
}
1000
13GENINF
1070
     4
1000
13
1002
{
1002
}
1000
14GENINF
1070
     4
1000
14
1002
{
1002
}
1000
15GENINF
1070
     4
1000
15
1002
{
1002
}
1000
16GENINF
1070
     4
1000
16
1002
{
1002
}
1000
17GENINF
1070
     4
1000
17
1002
{
1002
}
1000
18GENINF
1070
     4
1000
18
1002
{
1002
}
1000
19GENINF
1070
     4
1000
19
1002
{
1002
}
1000
20GENINF
1070
     4
1000
20
1002
{
1002
}
1000
21GENINF
1070
     4
1000
21
1002
{
1002
}
1000
22GENINF
1070
     4
1000
22
1002
{
1002
}
1002
}
1000
DININFO
1070
     0
1002
{
1000
ST-NAME1
1070
     4
1000
5
1002
{
1002
}
1000
ST-NAME2
1070
     4
1000
6
1002
{
1002
}
1000
ST-NORM1
1070
     4
1000
7
1002
{
1002
}
1000
ST-NORM2
1070
     4
1000
8
1002
{
1002
}
1000
ST-MAT1
1070
     4
1000
9
1002
{
1002
}
1000
ST-MAT2
1070
     4
1000
10
1002
{
1002
}
1002
}
1002
}
1000
POS_NUMBERS
1070
     0
1002
{
1000
GENPOS13
1070
     0
1002
{
1000
1GENPOS
1070
     4
1000
1
1002
{
1002
}
1000
2GENPOS
1070
     4
1000
2
1002
{
1002
}
1000
3GENPOS
1070
     4
1000
3
1002
{
1002
}
1000
4GENPOS
1070
     4
1000
4
1002
{
1002
}
1000
5GENPOS
1070
     4
1000
5
1002
{
1002
}
1000
6GENPOS
1070
     4
1000
6
1002
{
1002
}
1000
7GENPOS
1070
     4
1000
7
1002
{
1002
}
1000
8GENPOS
1070
     4
1000
8
1002
{
1002
}
1000
9GENPOS
1070
     4
1000
9
1002
{
1002
}
1000
10GENPOS
1070
     4
1000
10
1002
{
1002
}
1000
11GENPOS
1070
     4
1000
11
1002
{
1002
}
1000
12GENPOS
1070
     4
1000
12
1002
{
1002
}
1000
13GENPOS
1070
     4
1000
13
1002
{
1002
}
1000
14GENPOS
1070
     4
1000
14
1002
{
1002
}
1000
15GENPOS
1070
     4
1000
15
1002
{
1002
}
1000
16GENPOS
1070
     4
1000
16
1002
{
1002
}
1000
17GENPOS
1070
     4
1000
17
1002
{
1002
}
1000
18GENPOS
1070
     4
1000
18
1002
{
1002
}
1000
19GENPOS
1070
     4
1000
19
1002
{
1002
}
1000
20GENPOS
1070
     4
1000
20
1002
{
1002
}
1000
21GENPOS
1070
     4
1000
21
1002
{
1002
}
1000
22GENPOS
1070
     4
1000
22
1002
{
1002
}
1000
23GENPOS
1070
     4
1000
23
1002
{
1002
}
1000
24GENPOS
1070
     4
1000
24
1002
{
1002
}
1000
0GENPOS
1070
     4
1000
0
1002
{
1002
}
1002
}
1000
GENPOS
1070
     0
1002
{
1000
1GENPOS
1070
     4
1000
1
1002
{
1002
}
1000
2GENPOS
1070
     4
1000
2
1002
{
1002
}
1000
3GENPOS
1070
     4
1000
3
1002
{
1002
}
1000
4GENPOS
1070
     4
1000
4
1002
{
1002
}
1000
5GENPOS
1070
     4
1000
5
1002
{
1002
}
1000
6GENPOS
1070
     4
1000
6
1002
{
1002
}
1000
7GENPOS
1070
     4
1000
7
1002
{
1002
}
1000
8GENPOS
1070
     4
1000
8
1002
{
1002
}
1000
9GENPOS
1070
     4
1000
9
1002
{
1002
}
1000
10GENPOS
1070
     4
1000
10
1002
{
1002
}
1000
11GENPOS
1070
     4
1000
11
1002
{
1002
}
1000
12GENPOS
1070
     4
1000
12
1002
{
1002
}
1000
13GENPOS
1070
     4
1000
13
1002
{
1002
}
1000
14GENPOS
1070
     4
1000
14
1002
{
1002
}
1000
15GENPOS
1070
     4
1000
15
1002
{
1002
}
1000
16GENPOS
1070
     4
1000
16
1002
{
1002
}
1000
17GENPOS
1070
     4
1000
17
1002
{
1002
}
1000
18GENPOS
1070
     4
1000
18
1002
{
1002
}
1000
19GENPOS
1070
     4
1000
19
1002
{
1002
}
1000
20GENPOS
1070
     4
1000
20
1002
{
1002
}
1000
21GENPOS
1070
     4
1000
21
1002
{
1002
}
1000
22GENPOS
1070
     4
1000
22
1002
{
1002
}
1000
23GENPOS
1070
     4
1000
23
1002
{
1002
}
1002
}
1000
DIN985
1070
     0
1002
{
1000
POSITION
1070
     4
1000
1
1002
{
1002
}
1000
MENGE
1070
     4
1000
2
1002
{
1002
}
1000
BLATT
1070
     4
1000
3
1002
{
1002
}
1000
BENENN
1070
     4
1000
5
1002
{
1002
}
1000
BENENN2
1070
     4
1000
6
1002
{
1002
}
1000
NORM
1070
     4
1000
7
1002
{
1002
}
1000
NORM2
1070
     4
1000
8
1002
{
1002
}
1000
WERKSTOFF
1070
     4
1000
9
1002
{
1002
}
1000
WERKSTOFF2
1070
     4
1000
10
1002
{
1002
}
1002
}
1000
DIN986
1070
     0
1002
{
1000
POSITION
1070
     4
1000
1
1002
{
1002
}
1000
MENGE
1070
     4
1000
2
1002
{
1002
}
1000
BLATT
1070
     4
1000
3
1002
{
1002
}
1000
BENENN
1070
     4
1000
5
1002
{
1002
}
1000
BENENN2
1070
     4
1000
6
1002
{
1002
}
1000
NORM
1070
     4
1000
7
1002
{
1002
}
1000
NORM2
1070
     4
1000
8
1002
{
1002
}
1000
WERKSTOFF
1070
     4
1000
9
1002
{
1002
}
1000
WERKSTOFF2
1070
     4
1000
10
1002
{
1002
}
1002
}
1000
DIN987
1070
     0
1002
{
1000
POSITION
1070
     4
1000
1
1002
{
1002
}
1000
MENGE
1070
     4
1000
2
1002
{
1002
}
1000
BLATT
1070
     4
1000
3
1002
{
1002
}
1000
BENENN
1070
     4
1000
5
1002
{
1002
}
1000
BENENN2
1070
     4
1000
6
1002
{
1002
}
1000
NORM
1070
     4
1000
7
1002
{
1002
}
1000
NORM2
1070
     4
1000
8
1002
{
1002
}
1000
WERKSTOFF
1070
     4
1000
9
1002
{
1002
}
1000
WERKSTOFF2
1070
     4
1000
10
1002
{
1002
}
1002
}
1002
}
  0
APPID
  5
2B
100
AcDbSymbolTableRecord
100
AcDbRegAppTableRecord
  2
GENIUS_GENCFG1_13
 70
     0
1001
GENIUS_GENCFG_13
1071
862825278
1000
2B
1000
GEN@LAYER@DEFS
1070
     9
1000
GenCfgObject
1000
GenCfgShort
1000
GenCfgReal
1000
GenCfgBool
1000
GenCfgString
1000
GenCfgDim
1000
GenCfgAttrInf
1000
GenCfgLaySection
1000
GenCfgLayer
1000
Basic
1070
     0
1002
{
1000
0
1070
     8
1000
0
1002
{
1000
Color
1070
     1
1070
     7
1002
{
1002
}
1000
LType
1070
     4
1000
CONTINUOUS
1002
{
1002
}
1000
Base
1070
     3
1070
     0
1002
{
1002
}
1002
}
1000
1
1070
     8
1000
1
1002
{
1000
Color
1070
     1
1070
    14
1002
{
1002
}
1000
LType
1070
     4
1000
CONTINUOUS
1002
{
1002
}
1000
Base
1070
     3
1070
     0
1002
{
1002
}
1002
}
1000
2
1070
     8
1000
2
1002
{
1000
Color
1070
     1
1070
     5
1002
{
1002
}
1000
LType
1070
     4
1000
CONTINUOUS
1002
{
1002
}
1000
Base
1070
     3
1070
     0
1002
{
1002
}
1002
}
1000
3
1070
     8
1000
3
1002
{
1000
Color
1070
     1
1070
     6
1002
{
1002
}
1000
LType
1070
     4
1000
GEN3
1002
{
1002
}
1000
Base
1070
     3
1070
     0
1002
{
1002
}
1002
}
1000
4
1070
     8
1000
4
1002
{
1000
Color
1070
     1
1070
     3
1002
{
1002
}
1000
LType
1070
     4
1000
CONTINUOUS
1002
{
1002
}
1000
Base
1070
     3
1070
     0
1002
{
1002
}
1002
}
1000
5
1070
     8
1000
5
1002
{
1000
Color
1070
     1
1070
     3
1002
{
1002
}
1000
LType
1070
     4
1000
CONTINUOUS
1002
{
1002
}
1000
Base
1070
     3
1070
     0
1002
{
1002
}
1002
}
1000
6
1070
     8
1000
6
1002
{
1000
Color
1070
     1
1070
     2
1002
{
1002
}
1000
LType
1070
     4
1000
CONTINUOUS
1002
{
1002
}
1000
Base
1070
     3
1070
     0
1002
{
1002
}
1002
}
1000
7
1070
     8
1000
7
1002
{
1000
Color
1070
     1
1070
     4
1002
{
1002
}
1000
LType
1070
     4
1000
GEN7
1002
{
1002
}
1000
Base
1070
     3
1070
     0
1002
{
1002
}
1002
}
1000
8
1070
     8
1000
8
1002
{
1000
Color
1070
     1
1070
     1
1002
{
1002
}
1000
LType
1070
     4
1000
CONTINUOUS
1002
{
1002
}
1000
Base
1070
     3
1070
     0
1002
{
1002
}
1002
}
1000
3A
1070
     8
1000
3A
1002
{
1000
Color
1070
     1
1070
     6
1002
{
1002
}
1000
LType
1070
     4
1000
GEN3A
1002
{
1002
}
1000
Base
1070
     3
1070
     0
1002
{
1002
}
1002
}
1000
7A
1070
     8
1000
7A
1002
{
1000
Color
1070
     1
1070
     4
1002
{
1002
}
1000
LType
1070
     4
1000
GEN7A
1002
{
1002
}
1000
Base
1070
     3
1070
     0
1002
{
1002
}
1002
}
1000
2A
1070
     8
1000
2A
1002
{
1000
Color
1070
     1
1070
     7
1002
{
1002
}
1000
LType
1070
     4
1000
GEN7
1002
{
1002
}
1000
Base
1070
     3
1070
     0
1002
{
1002
}
1002
}
1000
4A
1070
     8
1000
4A
1002
{
1000
Color
1070
     1
1070
     3
1002
{
1002
}
1000
LType
1070
     4
1000
GEN4A
1002
{
1002
}
1000
Base
1070
     3
1070
     0
1002
{
1002
}
1002
}
1000
9
1070
     8
1000
9
1002
{
1000
Color
1070
     1
1070
   253
1002
{
1002
}
1000
LType
1070
     4
1000
CONTINUOUS
1002
{
1002
}
1000
Base
1070
     3
1070
     0
1002
{
1002
}
1002
}
1002
}
1000
Standard
1070
     0
1002
{
1000
0N
1070
     8
1000
0N
1002
{
1000
Color
1070
     1
1070
     7
1002
{
1002
}
1000
LType
1070
     4
1000
CONTINUOUS
1002
{
1002
}
1000
Base
1070
     3
1070
     0
1002
{
1002
}
1002
}
1000
1N
1070
     8
1000
1N
1002
{
1000
Color
1070
     1
1070
    14
1002
{
1002
}
1000
LType
1070
     4
1000
CONTINUOUS
1002
{
1002
}
1000
Base
1070
     3
1070
     0
1002
{
1002
}
1002
}
1000
2N
1070
     8
1000
2N
1002
{
1000
Color
1070
     1
1070
     5
1002
{
1002
}
1000
LType
1070
     4
1000
CONTINUOUS
1002
{
1002
}
1000
Base
1070
     3
1070
     0
1002
{
1002
}
1002
}
1000
3N
1070
     8
1000
3N
1002
{
1000
Color
1070
     1
1070
     6
1002
{
1002
}
1000
LType
1070
     4
1000
GEN3
1002
{
1002
}
1000
Base
1070
     3
1070
     0
1002
{
1002
}
1002
}
1000
4N
1070
     8
1000
4N
1002
{
1000
Color
1070
     1
1070
     3
1002
{
1002
}
1000
LType
1070
     4
1000
CONTINUOUS
1002
{
1002
}
1000
Base
1070
     3
1070
     0
1002
{
1002
}
1002
}
1000
5N
1070
     8
1000
5N
1002
{
1000
Color
1070
     1
1070
     3
1002
{
1002
}
1000
LType
1070
     4
1000
CONTINUOUS
1002
{
1002
}
1000
Base
1070
     3
1070
     0
1002
{
1002
}
1002
}
1000
6N
1070
     8
1000
6N
1002
{
1000
Color
1070
     1
1070
     2
1002
{
1002
}
1000
LType
1070
     4
1000
CONTINUOUS
1002
{
1002
}
1000
Base
1070
     3
1070
     0
1002
{
1002
}
1002
}
1000
7N
1070
     8
1000
7N
1002
{
1000
Color
1070
     1
1070
     4
1002
{
1002
}
1000
LType
1070
     4
1000
GEN7
1002
{
1002
}
1000
Base
1070
     3
1070
     0
1002
{
1002
}
1002
}
1000
8N
1070
     8
1000
8N
1002
{
1000
Color
1070
     1
1070
     1
1002
{
1002
}
1000
LType
1070
     4
1000
CONTINUOUS
1002
{
1002
}
1000
Base
1070
     3
1070
     0
1002
{
1002
}
1002
}
1000
3AN
1070
     8
1000
3AN
1002
{
1000
Color
1070
     1
1070
     6
1002
{
1002
}
1000
LType
1070
     4
1000
GEN3A
1002
{
1002
}
1000
Base
1070
     3
1070
     0
1002
{
1002
}
1002
}
1000
7AN
1070
     8
1000
7AN
1002
{
1000
Color
1070
     1
1070
     4
1002
{
1002
}
1000
LType
1070
     4
1000
GEN7A
1002
{
1002
}
1000
Base
1070
     3
1070
     0
1002
{
1002
}
1002
}
1000
2AN
1070
     8
1000
2AN
1002
{
1000
Color
1070
     1
1070
     7
1002
{
1002
}
1000
LType
1070
     4
1000
GEN7
1002
{
1002
}
1000
Base
1070
     3
1070
     0
1002
{
1002
}
1002
}
1000
4AN
1070
     8
1000
4AN
1002
{
1000
Color
1070
     1
1070
     3
1002
{
1002
}
1000
LType
1070
     4
1000
GEN4A
1002
{
1002
}
1000
Base
1070
     3
1070
     0
1002
{
1002
}
1002
}
1000
9N
1070
     8
1000
9N
1002
{
1000
Color
1070
     1
1070
   253
1002
{
1002
}
1000
LType
1070
     4
1000
CONTINUOUS
1002
{
1002
}
1000
Base
1070
     3
1070
     0
1002
{
1002
}
1002
}
1002
}
1000
Extra
1070
     0
1002
{
1000
Klin
1070
     8
1000
KLIN
1002
{
1000
Color
1070
     1
1070
     1
1002
{
1002
}
1000
LType
1070
     4
1000
CONTINUOUS
1002
{
1002
}
1000
Base
1070
     3
1070
     1
1002
{
1002
}
1002
}
1000
Info
1070
     8
1000
INFO
1002
{
1000
Color
1070
     1
1070
     4
1002
{
1002
}
1000
LType
1070
     4
1000
CONTINUOUS
1002
{
1002
}
1000
Base
1070
     3
1070
     1
1002
{
1002
}
1002
}
1000
Rahm2
1070
     8
1000
RAHM2
1002
{
1000
Color
1070
     1
1070
     1
1002
{
1002
}
1000
LType
1070
     4
1000
CONTINUOUS
1002
{
1002
}
1000
Base
1070
     3
1070
     1
1002
{
1002
}
1002
}
1000
Rahm3
1070
     8
1000
RAHM3
1002
{
1000
Color
1070
     1
1070
     2
1002
{
1002
}
1000
LType
1070
     4
1000
CONTINUOUS
1002
{
1002
}
1000
Base
1070
     3
1070
     1
1002
{
1002
}
1002
}
1000
Rahm5
1070
     8
1000
RAHM5
1002
{
1000
Color
1070
     1
1070
     7
1002
{
1002
}
1000
LType
1070
     4
1000
CONTINUOUS
1002
{
1002
}
1000
Base
1070
     3
1070
     1
1002
{
1002
}
1002
}
1000
View
1070
     8
1000
VIEW
1002
{
1000
Color
1070
     1
1070
     1
1002
{
1002
}
1000
LType
1070
     4
1000
CONTINUOUS
1002
{
1002
}
1000
Base
1070
     3
1070
     1
1002
{
1002
}
1002
}
1000
Behind
1070
     8
1000
BEHIND
1002
{
1000
Color
1070
     1
1070
   253
1002
{
1002
}
1000
LType
1070
     4
1000
CONTINUOUS
1002
{
1002
}
1000
Base
1070
     3
1070
     1
1002
{
1002
}
1002
}
1002
}
  0
APPID
  5
2C
100
AcDbSymbolTableRecord
100
AcDbRegAppTableRecord
  2
GENIUS_GENCFG2_13
 70
     0
1001
GENIUS_GENCFG_13
1071
862825278
1000
2C
1000
GEN@LAYER@ENTSORT
1070
    10
1000
GenCfgObject
1000
GenCfgShort
1000
GenCfgReal
1000
GenCfgBool
1000
GenCfgString
1000
GenCfgDim
1000
GenCfgAttrInf
1000
GenCfgLaySection
1000
GenCfgLayer
1000
GenCfgEntSort
1000
ALTR
1070
     9
1000
4
1002
{
1000
Class
1070
     4
1000

1002
{
1002
}
1000
Color
1070
     1
1070
     7
1002
{
1002
}
1000
LType
1070
     4
1000
GEN3A
1002
{
1002
}
1002
}
1000
BELI
1070
     9
1000
4
1002
{
1000
Class
1070
     4
1000

1002
{
1002
}
1000
Color
1070
     1
1070
   256
1002
{
1002
}
1000
LType
1070
     4
1000
BYLAYER
1002
{
1002
}
1002
}
1000
BHNV
1070
     9
1000
9
1002
{
1000
Class
1070
     4
1000
INV
1002
{
1002
}
1000
Color
1070
     1
1070
   256
1002
{
1002
}
1000
LType
1070
     4
1000
BYLAYER
1002
{
1002
}
1002
}
1000
BHNVS
1070
     9
1000
BEHIND
1002
{
1000
Class
1070
     4
1000
INV
1002
{
1002
}
1000
Color
1070
     1
1070
   256
1002
{
1002
}
1000
LType
1070
     4
1000
BYLAYER
1002
{
1002
}
1002
}
1000
BLID
1070
     9
1000
4A
1002
{
1000
Class
1070
     4
1000

1002
{
1002
}
1000
Color
1070
     1
1070
   256
1002
{
1002
}
1000
LType
1070
     4
1000
BYLAYER
1002
{
1002
}
1002
}
1000
BOAP
1070
     9
1000
4A
1002
{
1000
Class
1070
     4
1000

1002
{
1002
}
1000
Color
1070
     1
1070
   256
1002
{
1002
}
1000
LType
1070
     4
1000
BYLAYER
1002
{
1002
}
1002
}
1000
BOR2
1070
     9
1000
RAHM2
1002
{
1000
Class
1070
     4
1000
SPZ,SYM
1002
{
1002
}
1000
Color
1070
     1
1070
   256
1002
{
1002
}
1000
LType
1070
     4
1000
BYLAYER
1002
{
1002
}
1002
}
1000
BOR3
1070
     9
1000
RAHM3
1002
{
1000
Class
1070
     4
1000
SPZ,SYM
1002
{
1002
}
1000
Color
1070
     1
1070
   256
1002
{
1002
}
1000
LType
1070
     4
1000
BYLAYER
1002
{
1002
}
1002
}
1000
BOR5
1070
     9
1000
RAHM5
1002
{
1000
Class
1070
     4
1000
SPZ,SYM
1002
{
1002
}
1000
Color
1070
     1
1070
   256
1002
{
1002
}
1000
LType
1070
     4
1000
BYLAYER
1002
{
1002
}
1002
}
1000
BOR7
1070
     9
1000
RAHM5
1002
{
1000
Class
1070
     4
1000
SPZ,SYM
1002
{
1002
}
1000
Color
1070
     1
1070
     7
1002
{
1002
}
1000
LType
1070
     4
1000
CONTINUOUS
1002
{
1002
}
1002
}
1000
BPAP
1070
     9
1000
4A
1002
{
1000
Class
1070
     4
1000

1002
{
1002
}
1000
Color
1070
     1
1070
   256
1002
{
1002
}
1000
LType
1070
     4
1000
BYLAYER
1002
{
1002
}
1002
}
1000
BPEX
1070
     9
1000
4A
1002
{
1000
Class
1070
     4
1000

1002
{
1002
}
1000
Color
1070
     1
1070
   256
1002
{
1002
}
1000
LType
1070
     4
1000
BYLAYER
1002
{
1002
}
1002
}
1000
BTDI
1070
     9
1000
5
1002
{
1000
Class
1070
     4
1000
DIM,SYM
1002
{
1002
}
1000
Color
1070
     1
1070
   256
1002
{
1002
}
1000
LType
1070
     4
1000
BYLAYER
1002
{
1002
}
1002
}
1000
CAL2
1070
     9
1000
4
1002
{
1000
Class
1070
     4
1000
SYM
1002
{
1002
}
1000
Color
1070
     1
1070
   256
1002
{
1002
}
1000
LType
1070
     4
1000
BYLAYER
1002
{
1002
}
1002
}
1000
CAL3
1070
     9
1000
4
1002
{
1000
Class
1070
     4
1000
SYM
1002
{
1002
}
1000
Color
1070
     1
1070
     2
1002
{
1002
}
1000
LType
1070
     4
1000
BYLAYER
1002
{
1002
}
1002
}
1000
CAL5
1070
     9
1000
4
1002
{
1000
Class
1070
     4
1000
SYM
1002
{
1002
}
1000
Color
1070
     1
1070
     7
1002
{
1002
}
1000
LType
1070
     4
1000
BYLAYER
1002
{
1002
}
1002
}
1000
CAL7
1070
     9
1000
4
1002
{
1000
Class
1070
     4
1000
SYM
1002
{
1002
}
1000
Color
1070
     1
1070
     5
1002
{
1002
}
1000
LType
1070
     4
1000
BYLAYER
1002
{
1002
}
1002
}
1000
CENN
1070
     9
1000
7A
1002
{
1000
Class
1070
     4
1000
CEN
1002
{
1002
}
1000
Color
1070
     1
1070
   256
1002
{
1002
}
1000
LType
1070
     4
1000
BYLAYER
1002
{
1002
}
1002
}
1000
CENW
1070
     9
1000
7
1002
{
1000
Class
1070
     4
1000
CEN
1002
{
1002
}
1000
Color
1070
     1
1070
   256
1002
{
1002
}
1000
LType
1070
     4
1000
BYLAYER
1002
{
1002
}
1002
}
1000
CLIN
1070
     9
1000
KLIN
1002
{
1000
Class
1070
     4
1000
SPZ
1002
{
1002
}
1000
Color
1070
     1
1070
   256
1002
{
1002
}
1000
LType
1070
     4
1000
BYLAYER
1002
{
1002
}
1002
}
1000
CON1
1070
     9
1000
0
1002
{
1000
Class
1070
     4
1000
CON,BGD
1002
{
1002
}
1000
Color
1070
     1
1070
   256
1002
{
1002
}
1000
LType
1070
     4
1000
BYLAYER
1002
{
1002
}
1002
}
1000
CON2
1070
     9
1000
1
1002
{
1000
Class
1070
     4
1000
CON,BGD
1002
{
1002
}
1000
Color
1070
     1
1070
   256
1002
{
1002
}
1000
LType
1070
     4
1000
BYLAYER
1002
{
1002
}
1002
}
1000
CON3
1070
     9
1000
2
1002
{
1000
Class
1070
     4
1000
CON,BGD
1002
{
1002
}
1000
Color
1070
     1
1070
   256
1002
{
1002
}
1000
LType
1070
     4
1000
BYLAYER
1002
{
1002
}
1002
}
1000
CON4
1070
     9
1000
2
1002
{
1000
Class
1070
     4
1000
CON,BGD
1002
{
1002
}
1000
Color
1070
     1
1070
   256
1002
{
1002
}
1000
LType
1070
     4
1000
BYLAYER
1002
{
1002
}
1002
}
1000
DERP
1070
     9
1000
4
1002
{
1000
Class
1070
     4
1000

1002
{
1002
}
1000
Color
1070
     1
1070
   256
1002
{
1002
}
1000
LType
1070
     4
1000
BYLAYER
1002
{
1002
}
1002
}
1000
DETA
1070
     9
1000
4
1002
{
1000
Class
1070
     4
1000

1002
{
1002
}
1000
Color
1070
     1
1070
   256
1002
{
1002
}
1000
LType
1070
     4
1000
BYLAYER
1002
{
1002
}
1002
}
1000
DIAG
1070
     9
1000
5
1002
{
1000
Class
1070
     4
1000
SYM
1002
{
1002
}
1000
Color
1070
     1
1070
   256
1002
{
1002
}
1000
LType
1070
     4
1000
BYLAYER
1002
{
1002
}
1002
}
1000
DILI
1070
     9
1000
5
1002
{
1000
Class
1070
     4
1000
DIM,SYM
1002
{
1002
}
1000
Color
1070
     1
1070
   256
1002
{
1002
}
1000
LType
1070
     4
1000
BYLAYER
1002
{
1002
}
1002
}
1000
DITX
1070
     9
1000
5
1002
{
1000
Class
1070
     4
1000
DIM,SYM
1002
{
1002
}
1000
Color
1070
     1
1070
     2
1002
{
1002
}
1000
LType
1070
     4
1000
CONTINUOUS
1002
{
1002
}
1002
}
1000
DITO2
1070
     9
1000
5
1002
{
1000
Class
1070
     4
1000
DIM,SYM
1002
{
1002
}
1000
Color
1070
     1
1070
     3
1002
{
1002
}
1000
LType
1070
     4
1000
BYLAYER
1002
{
1002
}
1002
}
1000
DITO3
1070
     9
1000
5
1002
{
1000
Class
1070
     4
1000
DIM,SYM
1002
{
1002
}
1000
Color
1070
     1
1070
     2
1002
{
1002
}
1000
LType
1070
     4
1000
BYLAYER
1002
{
1002
}
1002
}
1000
DIXL
1070
     9
1000
5
1002
{
1000
Class
1070
     4
1000
DIM,SYM
1002
{
1002
}
1000
Color
1070
     1
1070
   256
1002
{
1002
}
1000
LType
1070
     4
1000
BYLAYER
1002
{
1002
}
1002
}
1000
EXMP
1070
     9
1000
4A
1002
{
1000
Class
1070
     4
1000

1002
{
1002
}
1000
Color
1070
     1
1070
   256
1002
{
1002
}
1000
LType
1070
     4
1000
BYLAYER
1002
{
1002
}
1002
}
1000
FEMN
1070
     9
1000
8
1002
{
1000
Class
1070
     4
1000

1002
{
1002
}
1000
Color
1070
     1
1070
   256
1002
{
1002
}
1000
LType
1070
     4
1000
BYLAYER
1002
{
1002
}
1002
}
1000
FEMPN
1070
     9
1000
8
1002
{
1000
Class
1070
     4
1000
SYM
1002
{
1002
}
1000
Color
1070
     1
1070
     3
1002
{
1002
}
1000
LType
1070
     4
1000
BYLAYER
1002
{
1002
}
1002
}
1000
FEMSP
1070
     9
1000
4A
1002
{
1000
Class
1070
     4
1000

1002
{
1002
}
1000
Color
1070
     1
1070
   256
1002
{
1002
}
1000
LType
1070
     4
1000
CONTINUOUS
1002
{
1002
}
1002
}
1000
FEMST
1070
     9
1000
4A
1002
{
1000
Class
1070
     4
1000
SYM
1002
{
1002
}
1000
Color
1070
     1
1070
     3
1002
{
1002
}
1000
LType
1070
     4
1000
BYLAYER
1002
{
1002
}
1002
}
1000
FEMVN
1070
     9
1000
2
1002
{
1000
Class
1070
     4
1000
CON
1002
{
1002
}
1000
Color
1070
     1
1070
   256
1002
{
1002
}
1000
LType
1070
     4
1000
BYLAYER
1002
{
1002
}
1002
}
1000
FEMVT
1070
     9
1000
2
1002
{
1000
Class
1070
     4
1000
SYM
1002
{
1002
}
1000
Color
1070
     1
1070
     3
1002
{
1002
}
1000
LType
1070
     4
1000
BYLAYER
1002
{
1002
}
1002
}
1000
FLAT
1070
     9
1000
0
1002
{
1000
Class
1070
     4
1000

1002
{
1002
}
1000
Color
1070
     1
1070
   256
1002
{
1002
}
1000
LType
1070
     4
1000
BYLAYER
1002
{
1002
}
1002
}
1000
FRAR
1070
     9
1000
4A
1002
{
1000
Class
1070
     4
1000

1002
{
1002
}
1000
Color
1070
     1
1070
   256
1002
{
1002
}
1000
LType
1070
     4
1000
BYLAYER
1002
{
1002
}
1002
}
1000
GRLI
1070
     9
1000
5
1002
{
1000
Class
1070
     4
1000
SYM
1002
{
1002
}
1000
Color
1070
     1
1070
   256
1002
{
1002
}
1000
LType
1070
     4
1000
BYLAYER
1002
{
1002
}
1002
}
1000
GVLI
1070
     9
1000
4A
1002
{
1000
Class
1070
     4
1000

1002
{
1002
}
1000
Color
1070
     1
1070
   256
1002
{
1002
}
1000
LType
1070
     4
1000
BYLAYER
1002
{
1002
}
1002
}
1000
HATC
1070
     9
1000
8
1002
{
1000
Class
1070
     4
1000
HTC,BGD
1002
{
1002
}
1000
Color
1070
     1
1070
   256
1002
{
1002
}
1000
LType
1070
     4
1000
BYLAYER
1002
{
1002
}
1002
}
1000
HIDN
1070
     9
1000
3A
1002
{
1000
Class
1070
     4
1000
HID,BGD
1002
{
1002
}
1000
Color
1070
     1
1070
   256
1002
{
1002
}
1000
LType
1070
     4
1000
BYLAYER
1002
{
1002
}
1002
}
1000
HIDW
1070
     9
1000
3
1002
{
1000
Class
1070
     4
1000
HID,BGD
1002
{
1002
}
1000
Color
1070
     1
1070
   256
1002
{
1002
}
1000
LType
1070
     4
1000
BYLAYER
1002
{
1002
}
1002
}
1000
HLIN
1070
     9
1000
4
1002
{
1000
Class
1070
     4
1000
BGD
1002
{
1002
}
1000
Color
1070
     1
1070
   256
1002
{
1002
}
1000
LType
1070
     4
1000
BYLAYER
1002
{
1002
}
1002
}
1000
HOCN
1070
     9
1000
7A
1002
{
1000
Class
1070
     4
1000
CEN
1002
{
1002
}
1000
Color
1070
     1
1070
   256
1002
{
1002
}
1000
LType
1070
     4
1000
BYLAYER
1002
{
1002
}
1002
}
1000
HOCW
1070
     9
1000
7
1002
{
1000
Class
1070
     4
1000
CEN
1002
{
1002
}
1000
Color
1070
     1
1070
   256
1002
{
1002
}
1000
LType
1070
     4
1000
BYLAYER
1002
{
1002
}
1002
}
1000
INFO
1070
     9
1000
INFO
1002
{
1000
Class
1070
     4
1000
SPZ,SYM
1002
{
1002
}
1000
Color
1070
     1
1070
   256
1002
{
1002
}
1000
LType
1070
     4
1000
BYLAYER
1002
{
1002
}
1002
}
1000
LADI
1070
     9
1000
4
1002
{
1000
Class
1070
     4
1000
BGD
1002
{
1002
}
1000
Color
1070
     1
1070
   256
1002
{
1002
}
1000
LType
1070
     4
1000
BYLAYER
1002
{
1002
}
1002
}
1000
LEAD
1070
     9
1000
5
1002
{
1000
Class
1070
     4
1000
SYM
1002
{
1002
}
1000
Color
1070
     1
1070
   256
1002
{
1002
}
1000
LType
1070
     4
1000
BYLAYER
1002
{
1002
}
1002
}
1000
N_BHNV
1070
     9
1000
9N
1002
{
1000
Class
1070
     4
1000
INV
1002
{
1002
}
1000
Color
1070
     1
1070
   256
1002
{
1002
}
1000
LType
1070
     4
1000
BYLAYER
1002
{
1002
}
1002
}
1000
N_CON1
1070
     9
1000
0N
1002
{
1000
Class
1070
     4
1000
CON,BGD
1002
{
1002
}
1000
Color
1070
     1
1070
   256
1002
{
1002
}
1000
LType
1070
     4
1000
BYLAYER
1002
{
1002
}
1002
}
1000
N_CON2
1070
     9
1000
1N
1002
{
1000
Class
1070
     4
1000
CON,BGD
1002
{
1002
}
1000
Color
1070
     1
1070
   256
1002
{
1002
}
1000
LType
1070
     4
1000
BYLAYER
1002
{
1002
}
1002
}
1000
N_CON3
1070
     9
1000
2N
1002
{
1000
Class
1070
     4
1000
CON,BGD
1002
{
1002
}
1000
Color
1070
     1
1070
   256
1002
{
1002
}
1000
LType
1070
     4
1000
BYLAYER
1002
{
1002
}
1002
}
1000
N_CON4
1070
     9
1000
2N
1002
{
1000
Class
1070
     4
1000
CON,BGD
1002
{
1002
}
1000
Color
1070
     1
1070
   256
1002
{
1002
}
1000
LType
1070
     4
1000
BYLAYER
1002
{
1002
}
1002
}
1000
N_CENN
1070
     9
1000
7AN
1002
{
1000
Class
1070
     4
1000
CEN
1002
{
1002
}
1000
Color
1070
     1
1070
   256
1002
{
1002
}
1000
LType
1070
     4
1000
BYLAYER
1002
{
1002
}
1002
}
1000
N_CENW
1070
     9
1000
7N
1002
{
1000
Class
1070
     4
1000
CEN
1002
{
1002
}
1000
Color
1070
     1
1070
   256
1002
{
1002
}
1000
LType
1070
     4
1000
BYLAYER
1002
{
1002
}
1002
}
1000
N_DILI
1070
     9
1000
5N
1002
{
1000
Class
1070
     4
1000
DIM,SYM
1002
{
1002
}
1000
Color
1070
     1
1070
   256
1002
{
1002
}
1000
LType
1070
     4
1000
BYLAYER
1002
{
1002
}
1002
}
1000
N_DITX
1070
     9
1000
5N
1002
{
1000
Class
1070
     4
1000
DIM,SYM
1002
{
1002
}
1000
Color
1070
     1
1070
     2
1002
{
1002
}
1000
LType
1070
     4
1000
CONTINUOUS
1002
{
1002
}
1002
}
1000
N_DIXL
1070
     9
1000
5N
1002
{
1000
Class
1070
     4
1000
DIM,SYM
1002
{
1002
}
1000
Color
1070
     1
1070
   256
1002
{
1002
}
1000
LType
1070
     4
1000
BYLAYER
1002
{
1002
}
1002
}
1000
N_HATC
1070
     9
1000
8N
1002
{
1000
Class
1070
     4
1000
HTC,BGD
1002
{
1002
}
1000
Color
1070
     1
1070
   256
1002
{
1002
}
1000
LType
1070
     4
1000
BYLAYER
1002
{
1002
}
1002
}
1000
N_HIDN
1070
     9
1000
3AN
1002
{
1000
Class
1070
     4
1000
HID,BGD
1002
{
1002
}
1000
Color
1070
     1
1070
   256
1002
{
1002
}
1000
LType
1070
     4
1000
BYLAYER
1002
{
1002
}
1002
}
1000
N_HIDW
1070
     9
1000
3N
1002
{
1000
Class
1070
     4
1000
HID,BGD
1002
{
1002
}
1000
Color
1070
     1
1070
   256
1002
{
1002
}
1000
LType
1070
     4
1000
BYLAYER
1002
{
1002
}
1002
}
1000
N_PHAN
1070
     9
1000
4AN
1002
{
1000
Class
1070
     4
1000

1002
{
1002
}
1000
Color
1070
     1
1070
   256
1002
{
1002
}
1000
LType
1070
     4
1000
BYLAYER
1002
{
1002
}
1002
}
1000
N_POSL
1070
     9
1000
5N
1002
{
1000
Class
1070
     4
1000
SYM
1002
{
1002
}
1000
Color
1070
     1
1070
   256
1002
{
1002
}
1000
LType
1070
     4
1000
BYLAYER
1002
{
1002
}
1002
}
1000
N_TCON
1070
     9
1000
0N
1002
{
1000
Class
1070
     4
1000
CON,BGD
1002
{
1002
}
1000
Color
1070
     1
1070
   256
1002
{
1002
}
1000
LType
1070
     4
1000
BYLAYER
1002
{
1002
}
1002
}
1000
N_THLI
1070
     9
1000
4N
1002
{
1000
Class
1070
     4
1000
BGD
1002
{
1002
}
1000
Color
1070
     1
1070
   256
1002
{
1002
}
1000
LType
1070
     4
1000
BYLAYER
1002
{
1002
}
1002
}
1000
N_TLEN
1070
     9
1000
0N
1002
{
1000
Class
1070
     4
1000
CON,BGD
1002
{
1002
}
1000
Color
1070
     1
1070
   256
1002
{
1002
}
1000
LType
1070
     4
1000
BYLAYER
1002
{
1002
}
1002
}
1000
N_TXT3
1070
     9
1000
6N
1002
{
1000
Class
1070
     4
1000
SYM
1002
{
1002
}
1000
Color
1070
     1
1070
   256
1002
{
1002
}
1000
LType
1070
     4
1000
BYLAYER
1002
{
1002
}
1002
}
1000
N_VPLI
1070
     9
1000
2AN
1002
{
1000
Class
1070
     4
1000

1002
{
1002
}
1000
Color
1070
     1
1070
   256
1002
{
1002
}
1000
LType
1070
     4
1000
BYLAYER
1002
{
1002
}
1002
}
1000
PAL2
1070
     9
1000
RAHM2
1002
{
1000
Class
1070
     4
1000
SPZ,SYM
1002
{
1002
}
1000
Color
1070
     1
1070
   256
1002
{
1002
}
1000
LType
1070
     4
1000
BYLAYER
1002
{
1002
}
1002
}
1000
PAL3
1070
     9
1000
RAHM3
1002
{
1000
Class
1070
     4
1000
SPZ,SYM
1002
{
1002
}
1000
Color
1070
     1
1070
   256
1002
{
1002
}
1000
LType
1070
     4
1000
BYLAYER
1002
{
1002
}
1002
}
1000
PAL5
1070
     9
1000
RAHM5
1002
{
1000
Class
1070
     4
1000
SPZ,SYM
1002
{
1002
}
1000
Color
1070
     1
1070
   256
1002
{
1002
}
1000
LType
1070
     4
1000
BYLAYER
1002
{
1002
}
1002
}
1000
PAL7
1070
     9
1000
RAHM5
1002
{
1000
Class
1070
     4
1000
SPZ,SYM
1002
{
1002
}
1000
Color
1070
     1
1070
     7
1002
{
1002
}
1000
LType
1070
     4
1000
CONTINUOUS
1002
{
1002
}
1002
}
1000
PHAN
1070
     9
1000
4A
1002
{
1000
Class
1070
     4
1000

1002
{
1002
}
1000
Color
1070
     1
1070
   256
1002
{
1002
}
1000
LType
1070
     4
1000
BYLAYER
1002
{
1002
}
1002
}
1000
POSL
1070
     9
1000
5
1002
{
1000
Class
1070
     4
1000
SYM
1002
{
1002
}
1000
Color
1070
     1
1070
   256
1002
{
1002
}
1000
LType
1070
     4
1000
BYLAYER
1002
{
1002
}
1002
}
1000
POSN
1070
     9
1000
6
1002
{
1000
Class
1070
     4
1000
SYM
1002
{
1002
}
1000
Color
1070
     1
1070
     7
1002
{
1002
}
1000
LType
1070
     4
1000
BYLAYER
1002
{
1002
}
1002
}
1000
POSREF
1070
     9
1000
6
1002
{
1000
Class
1070
     4
1000
SYM
1002
{
1002
}
1000
Color
1070
     1
1070
     5
1002
{
1002
}
1000
LType
1070
     4
1000
BYLAYER
1002
{
1002
}
1002
}
1000
POSX
1070
     9
1000
5
1002
{
1000
Class
1070
     4
1000
SYM
1002
{
1002
}
1000
Color
1070
     1
1070
     2
1002
{
1002
}
1000
LType
1070
     4
1000
CONTINUOUS
1002
{
1002
}
1002
}
1000
PSEC
1070
     9
1000
4A
1002
{
1000
Class
1070
     4
1000

1002
{
1002
}
1000
Color
1070
     1
1070
   256
1002
{
1002
}
1000
LType
1070
     4
1000
BYLAYER
1002
{
1002
}
1002
}
1000
RCGN
1070
     9
1000
7A
1002
{
1000
Class
1070
     4
1000
CEN
1002
{
1002
}
1000
Color
1070
     1
1070
   256
1002
{
1002
}
1000
LType
1070
     4
1000
BYLAYER
1002
{
1002
}
1002
}
1000
RCGW
1070
     9
1000
7
1002
{
1000
Class
1070
     4
1000
CEN
1002
{
1002
}
1000
Color
1070
     1
1070
   256
1002
{
1002
}
1000
LType
1070
     4
1000
BYLAYER
1002
{
1002
}
1002
}
1000
RFDI
1070
     9
1000
4
1002
{
1000
Class
1070
     4
1000
BGD
1002
{
1002
}
1000
Color
1070
     1
1070
   256
1002
{
1002
}
1000
LType
1070
     4
1000
BYLAYER
1002
{
1002
}
1002
}
1000
RQTR
1070
     9
1000
4
1002
{
1000
Class
1070
     4
1000

1002
{
1002
}
1000
Color
1070
     1
1070
     7
1002
{
1002
}
1000
LType
1070
     4
1000
GEN7A
1002
{
1002
}
1002
}
1000
RSBO
1070
     9
1000
4
1002
{
1000
Class
1070
     4
1000
BGD
1002
{
1002
}
1000
Color
1070
     1
1070
   256
1002
{
1002
}
1000
LType
1070
     4
1000
BYLAYER
1002
{
1002
}
1002
}
1000
SBRK
1070
     9
1000
4
1002
{
1000
Class
1070
     4
1000
BGD
1002
{
1002
}
1000
Color
1070
     1
1070
   256
1002
{
1002
}
1000
LType
1070
     4
1000
BYLAYER
1002
{
1002
}
1002
}
1000
SCEN
1070
     9
1000
7
1002
{
1000
Class
1070
     4
1000

1002
{
1002
}
1000
Color
1070
     1
1070
   256
1002
{
1002
}
1000
LType
1070
     4
1000
CONTINUOUS
1002
{
1002
}
1002
}
1000
SECT
1070
     9
1000
4
1002
{
1000
Class
1070
     4
1000
BGD
1002
{
1002
}
1000
Color
1070
     1
1070
   256
1002
{
1002
}
1000
LType
1070
     4
1000
BYLAYER
1002
{
1002
}
1002
}
1000
SELN
1070
     9
1000
7A
1002
{
1000
Class
1070
     4
1000

1002
{
1002
}
1000
Color
1070
     1
1070
   256
1002
{
1002
}
1000
LType
1070
     4
1000
BYLAYER
1002
{
1002
}
1002
}
1000
SELW
1070
     9
1000
7
1002
{
1000
Class
1070
     4
1000

1002
{
1002
}
1000
Color
1070
     1
1070
   256
1002
{
1002
}
1000
LType
1070
     4
1000
BYLAYER
1002
{
1002
}
1002
}
1000
SSYS
1070
     9
1000
0
1002
{
1000
Class
1070
     4
1000

1002
{
1002
}
1000
Color
1070
     1
1070
   256
1002
{
1002
}
1000
LType
1070
     4
1000
BYLAYER
1002
{
1002
}
1002
}
1000
STLI
1070
     9
1000
4
1002
{
1000
Class
1070
     4
1000

1002
{
1002
}
1000
Color
1070
     1
1070
     7
1002
{
1002
}
1000
LType
1070
     4
1000
GEN3A
1002
{
1002
}
1002
}
1000
SYB1
1070
     9
1000
5
1002
{
1000
Class
1070
     4
1000
SYM
1002
{
1002
}
1000
Color
1070
     1
1070
   256
1002
{
1002
}
1000
LType
1070
     4
1000
BYLAYER
1002
{
1002
}
1002
}
1000
SYB2
1070
     9
1000
5
1002
{
1000
Class
1070
     4
1000
SYM
1002
{
1002
}
1000
Color
1070
     1
1070
   256
1002
{
1002
}
1000
LType
1070
     4
1000
BYLAYER
1002
{
1002
}
1002
}
1000
SYB3
1070
     9
1000
6
1002
{
1000
Class
1070
     4
1000
SYM
1002
{
1002
}
1000
Color
1070
     1
1070
   256
1002
{
1002
}
1000
LType
1070
     4
1000
CONTINUOUS
1002
{
1002
}
1002
}
1000
SYB5
1070
     9
1000
5
1002
{
1000
Class
1070
     4
1000
SYM
1002
{
1002
}
1000
Color
1070
     1
1070
     7
1002
{
1002
}
1000
LType
1070
     4
1000
BYLAYER
1002
{
1002
}
1002
}
1000
SYMN
1070
     9
1000
7A
1002
{
1000
Class
1070
     4
1000
CEN
1002
{
1002
}
1000
Color
1070
     1
1070
   256
1002
{
1002
}
1000
LType
1070
     4
1000
BYLAYER
1002
{
1002
}
1002
}
1000
SYMW
1070
     9
1000
7
1002
{
1000
Class
1070
     4
1000
CEN
1002
{
1002
}
1000
Color
1070
     1
1070
   256
1002
{
1002
}
1000
LType
1070
     4
1000
BYLAYER
1002
{
1002
}
1002
}
1000
TCON
1070
     9
1000
0
1002
{
1000
Class
1070
     4
1000
CON,BGD
1002
{
1002
}
1000
Color
1070
     1
1070
   256
1002
{
1002
}
1000
LType
1070
     4
1000
BYLAYER
1002
{
1002
}
1002
}
1000
THLI
1070
     9
1000
4
1002
{
1000
Class
1070
     4
1000
BGD
1002
{
1002
}
1000
Color
1070
     1
1070
   256
1002
{
1002
}
1000
LType
1070
     4
1000
BYLAYER
1002
{
1002
}
1002
}
1000
TIT2
1070
     9
1000
RAHM2
1002
{
1000
Class
1070
     4
1000
SPZ,SYM
1002
{
1002
}
1000
Color
1070
     1
1070
   256
1002
{
1002
}
1000
LType
1070
     4
1000
BYLAYER
1002
{
1002
}
1002
}
1000
TIT3
1070
     9
1000
RAHM3
1002
{
1000
Class
1070
     4
1000
SPZ,SYM
1002
{
1002
}
1000
Color
1070
     1
1070
   256
1002
{
1002
}
1000
LType
1070
     4
1000
BYLAYER
1002
{
1002
}
1002
}
1000
TIT5
1070
     9
1000
RAHM5
1002
{
1000
Class
1070
     4
1000
SPZ,SYM
1002
{
1002
}
1000
Color
1070
     1
1070
   256
1002
{
1002
}
1000
LType
1070
     4
1000
BYLAYER
1002
{
1002
}
1002
}
1000
TIT7
1070
     9
1000
RAHM5
1002
{
1000
Class
1070
     4
1000
SPZ,SYM
1002
{
1002
}
1000
Color
1070
     1
1070
     7
1002
{
1002
}
1000
LType
1070
     4
1000
CONTINUOUS
1002
{
1002
}
1002
}
1000
TLEN
1070
     9
1000
0
1002
{
1000
Class
1070
     4
1000
CON,BGD
1002
{
1002
}
1000
Color
1070
     1
1070
   256
1002
{
1002
}
1000
LType
1070
     4
1000
BYLAYER
1002
{
1002
}
1002
}
1000
TRKN
1070
     9
1000
7A
1002
{
1000
Class
1070
     4
1000

1002
{
1002
}
1000
Color
1070
     1
1070
   256
1002
{
1002
}
1000
LType
1070
     4
1000
BYLAYER
1002
{
1002
}
1002
}
1000
TRKW
1070
     9
1000
7
1002
{
1000
Class
1070
     4
1000

1002
{
1002
}
1000
Color
1070
     1
1070
   256
1002
{
1002
}
1000
LType
1070
     4
1000
BYLAYER
1002
{
1002
}
1002
}
1000
TRLI
1070
     9
1000
4
1002
{
1000
Class
1070
     4
1000
BGD
1002
{
1002
}
1000
Color
1070
     1
1070
   256
1002
{
1002
}
1000
LType
1070
     4
1000
BYLAYER
1002
{
1002
}
1002
}
1000
TXT1
1070
     9
1000
6
1002
{
1000
Class
1070
     4
1000
SYM
1002
{
1002
}
1000
Color
1070
     1
1070
     2
1002
{
1002
}
1000
LType
1070
     4
1000
BYLAYER
1002
{
1002
}
1002
}
1000
TXT2
1070
     9
1000
6
1002
{
1000
Class
1070
     4
1000
SYM
1002
{
1002
}
1000
Color
1070
     1
1070
     2
1002
{
1002
}
1000
LType
1070
     4
1000
BYLAYER
1002
{
1002
}
1002
}
1000
TXT3
1070
     9
1000
6
1002
{
1000
Class
1070
     4
1000
SYM
1002
{
1002
}
1000
Color
1070
     1
1070
   256
1002
{
1002
}
1000
LType
1070
     4
1000
BYLAYER
1002
{
1002
}
1002
}
1000
TXT5
1070
     9
1000
6
1002
{
1000
Class
1070
     4
1000
SYM
1002
{
1002
}
1000
Color
1070
     1
1070
     7
1002
{
1002
}
1000
LType
1070
     4
1000
BYLAYER
1002
{
1002
}
1002
}
1000
TXT7
1070
     9
1000
6
1002
{
1000
Class
1070
     4
1000
SYM
1002
{
1002
}
1000
Color
1070
     1
1070
     7
1002
{
1002
}
1000
LType
1070
     4
1000
BYLAYER
1002
{
1002
}
1002
}
1000
VIEW
1070
     9
1000
VIEW
1002
{
1000
Class
1070
     4
1000
SPZ
1002
{
1002
}
1000
Color
1070
     1
1070
   256
1002
{
1002
}
1000
LType
1070
     4
1000
BYLAYER
1002
{
1002
}
1002
}
1000
VPLI
1070
     9
1000
2A
1002
{
1000
Class
1070
     4
1000

1002
{
1002
}
1000
Color
1070
     1
1070
   256
1002
{
1002
}
1000
LType
1070
     4
1000
BYLAYER
1002
{
1002
}
1002
}
1000
ZIZA
1070
     9
1000
4
1002
{
1000
Class
1070
     4
1000
BGD
1002
{
1002
}
1000
Color
1070
     1
1070
   256
1002
{
1002
}
1000
LType
1070
     4
1000
GENZIGZAG
1002
{
1002
}
1002
}
  0
APPID
  5
2D
100
AcDbSymbolTableRecord
100
AcDbRegAppTableRecord
  2
GENIUS_GENCFG3_13
 70
     0
1001
GENIUS_GENCFG_13
1071
862825278
1000
2D
1000
GEN@OSWIZ
1070
    12
1000
GenCfgObject
1000
GenCfgShort
1000
GenCfgReal
1000
GenCfgBool
1000
GenCfgString
1000
GenCfgDim
1000
GenCfgAttrInf
1000
GenCfgLaySection
1000
GenCfgLayer
1000
GenCfgEntSort
1000
GenCfgLType
1000
GenCfgFilter
1000
AngleStep
1070
     0
1002
{
1000
M
1070
     2
1040
10.0
1002
{
1002
}
1000
I
1070
     2
1040
0.4
1002
{
1002
}
1002
}
1000
AngleIncr
1070
     2
1040
45.0
1002
{
1002
}
1000
Filter
1070
     0
1002
{
1000
HATCH
1070
    11
1002
{
1000
EntityType
1070
     4
1000
LINE
1002
{
1002
}
1000
Layer
1070
     4
1000
8,8N,*-8,*-8N
1002
{
1002
}
1000
Linetype
1070
     4
1000
*
1002
{
1002
}
1000
Color
1070
     4
1000
*
1002
{
1002
}
1002
}
1000
SYMBOLS
1070
    11
1002
{
1000
EntityType
1070
     4
1000
*
1002
{
1002
}
1000
Layer
1070
     4
1000
[5-6],[5-6]N,*-[5-6],*-[5-6]N
1002
{
1002
}
1000
Linetype
1070
     4
1000
*
1002
{
1002
}
1000
Color
1070
     4
1000
*
1002
{
1002
}
1002
}
1000
FEM
1070
    11
1002
{
1000
EntityType
1070
     4
1000
*
1002
{
1002
}
1000
Layer
1070
     4
1000
4A,4AN,*-4A,*-4AN
1002
{
1002
}
1000
Linetype
1070
     4
1000
*
1002
{
1002
}
1000
Color
1070
     4
1000
*
1002
{
1002
}
1002
}
1002
}
1000
IconSize
1070
     2
1040
1.0
1002
{
1002
}
1000
SnapColor
1070
     1
1070
     3
1002
{
1002
}
  0
APPID
  5
2E
100
AcDbSymbolTableRecord
100
AcDbRegAppTableRecord
  2
GENIUS_GENCFG4_13
 70
     0
1001
GENIUS_GENCFG_13
1071
893400223
1000
2E
1000
GEN
1070
     9
1000
GenCfgObject
1000
GenCfgShort
1000
GenCfgReal
1000
GenCfgBool
1000
GenCfgString
1000
GenCfgDim
1000
GenCfgAttrInf
1000
GenCfgLaySection
1000
GenCfgLType
1000
Balloon
1070
     0
1002
{
1000
GenIF
1070
     1
1070
     0
1002
{
1002
}
1000
GenPosInc
1070
     1
1070
    10
1002
{
1002
}
1000
GenPosBlk
1070
     1
1070
     8
1002
{
1002
}
1000
GenPosVar
1070
     1
1070
     2
1002
{
1002
}
1000
GenZiCir
1070
     2
1040
1.5
1002
{
1002
}
1000
MaxCharForCenteredText
1070
     1
1070
    30
1002
{
1002
}
1000
Snap
1070
     0
1002
{
1000
ActivationRadius
1070
     2
1040
1.0
1002
{
1002
}
1000
M
1070
     0
1002
{
1000
SnapStepX
1070
     2
1040
20.0
1002
{
1002
}
1000
SnapStepY
1070
     2
1040
10.0
1002
{
1002
}
1002
}
1000
I
1070
     0
1002
{
1000
SnapStepX
1070
     2
1040
1.0
1002
{
1002
}
1000
SnapStepY
1070
     2
1040
0.5
1002
{
1002
}
1002
}
1002
}
1002
}
1000
Centerline
1070
     0
1002
{
1000
ScaleNot
1070
     3
1070
     1
1002
{
1002
}
1000
M
1070
     0
1002
{
1000
GenCenAng
1070
     4
1000
45|90|135
1002
{
1002
}
1000
GenCenDia
1070
     2
1040
10.0
1002
{
1002
}
1000
GenCenDias
1070
     4
1000
10|20|30
1002
{
1002
}
1000
GenCenDist
1070
     2
1040
3.0
1002
{
1002
}
1000
GenCenLen
1070
     2
1040
10.0
1002
{
1002
}
1000
GenCenOff
1070
     2
1040
10.0
1002
{
1002
}
1002
}
1000
I
1070
     0
1002
{
1000
GenCenAng
1070
     4
1000
45|90|135
1002
{
1002
}
1000
GenCenDia
1070
     2
1040
0.5
1002
{
1002
}
1000
GenCenDias
1070
     4
1000
0.5|1.0|1.5
1002
{
1002
}
1000
GenCenDist
1070
     2
1040
0.125
1002
{
1002
}
1000
GenCenLen
1070
     2
1040
0.5
1002
{
1002
}
1000
GenCenOff
1070
     2
1040
0.5
1002
{
1002
}
1002
}
1002
}
1000
CLine
1070
     0
1002
{
1000
CAngArray
1070
     4
1000
-95
1002
{
1002
}
1000
Typ
1070
     4
1000
XLINE
1002
{
1002
}
1000
M
1070
     0
1002
{
1000
CLinArray
1070
     4
1000
14
1002
{
1002
}
1002
}
1000
I
1070
     0
1002
{
1000
CLinArray
1070
     4
1000
0.125|0.25|0.5
1002
{
1002
}
1002
}
1002
}
1000
Constraints
1070
     0
1002
{
1000
Color
1070
     0
1002
{
1000
Active_Frame
1070
     1
1070
     2
1002
{
1002
}
1000
Inactive_Frame
1070
     1
1070
     8
1002
{
1002
}
1002
}
1000
Debug
1070
     0
1002
{
1002
}
1000
Editor
1070
     0
1002
{
1002
}
1000
Frame
1070
     0
1002
{
1002
}
1000
Sys
1070
     0
1002
{
1002
}
1002
}
1000
Detail
1070
     0
1002
{
1002
}
1000
Dimension
1070
     5
1002
{
1000
DIMALT
1070
     1
1070
     0
1002
{
1002
}
1000
DIMALTD
1070
     1
1070
     2
1002
{
1002
}
1000
DIMALTTD
1070
     1
1070
     4
1002
{
1002
}
1000
DIMALTTZ
1070
     1
1070
     0
1002
{
1002
}
1000
DIMALTU
1070
     1
1070
     2
1002
{
1002
}
1000
DIMALTZ
1070
     1
1070
     0
1002
{
1002
}
1000
DIMAPOST
1070
     4
1000

1002
{
1002
}
1000
DIMAUNIT
1070
     1
1070
     0
1002
{
1002
}
1000
DIMBLK
1070
     4
1000

1002
{
1002
}
1000
DIMBLK1
1070
     4
1000

1002
{
1002
}
1000
DIMBLK2
1070
     4
1000

1002
{
1002
}
1000
DIMDLE
1070
     2
1040
0.0
1002
{
1002
}
1000
DIMFIT
1070
     1
1070
     3
1002
{
1002
}
1000
DIMJUST
1070
     1
1070
     0
1002
{
1002
}
1000
DIMLFAC
1070
     2
1040
1.0
1002
{
1002
}
1000
DIMLIM
1070
     1
1070
     0
1002
{
1002
}
1000
DIMPOST
1070
     4
1000
<>
1002
{
1002
}
1000
DIMRND
1070
     2
1040
0.0
1002
{
1002
}
1000
DIMSAH
1070
     1
1070
     0
1002
{
1002
}
1000
DIMSCALE
1070
     2
1040
1.0
1002
{
1002
}
1000
DIMSD1
1070
     1
1070
     0
1002
{
1002
}
1000
DIMSD2
1070
     1
1070
     0
1002
{
1002
}
1000
DIMSE1
1070
     1
1070
     0
1002
{
1002
}
1000
DIMSE2
1070
     1
1070
     0
1002
{
1002
}
1000
DIMSOXD
1070
     1
1070
     0
1002
{
1002
}
1000
DIMTAD
1070
     1
1070
     0
1002
{
1002
}
1000
DIMTFAC
1070
     2
1040
0.71
1002
{
1002
}
1000
DIMTIH
1070
     1
1070
     0
1002
{
1002
}
1000
DIMTIX
1070
     1
1070
     0
1002
{
1002
}
1000
DIMTM
1070
     2
1040
0.1
1002
{
1002
}
1000
DIMTOFL
1070
     1
1070
     0
1002
{
1002
}
1000
DIMTOH
1070
     1
1070
     0
1002
{
1002
}
1000
DIMTOL
1070
     1
1070
     0
1002
{
1002
}
1000
DIMTOLJ
1070
     1
1070
     1
1002
{
1002
}
1000
DIMTP
1070
     2
1040
0.1
1002
{
1002
}
1000
DIMTSZ
1070
     2
1040
0.0
1002
{
1002
}
1000
DIMTVP
1070
     2
1040
0.0
1002
{
1002
}
1000
DIMTXSTY
1070
     4
1000
STANDARD
1002
{
1002
}
1000
DIMTZIN
1070
     1
1070
     0
1002
{
1002
}
1000
DIMUNIT
1070
     1
1070
     2
1002
{
1002
}
1000
DIMUPT
1070
     1
1070
     0
1002
{
1002
}
1000
M
1070
     0
1002
{
1000
DIMALTF
1070
     2
1040
0.03937
1002
{
1002
}
1000
DIMASZ
1070
     2
1040
2.5
1002
{
1002
}
1000
DIMCEN
1070
     2
1040
0.0
1002
{
1002
}
1000
DIMDEC
1070
     1
1070
     2
1002
{
1002
}
1000
DIMDLI
1070
     2
1040
7.0
1002
{
1002
}
1000
DIMEXE
1070
     2
1040
1.0
1002
{
1002
}
1000
DIMEXO
1070
     2
1040
1.0
1002
{
1002
}
1000
DIMGAP
1070
     2
1040
0.6
1002
{
1002
}
1000
DIMTDEC
1070
     1
1070
     3
1002
{
1002
}
1000
DIMTXT
1070
     2
1040
3.5
1002
{
1002
}
1000
DIMZIN
1070
     1
1070
     8
1002
{
1002
}
1002
}
1000
I
1070
     0
1002
{
1000
DIMALTF
1070
     2
1040
25.4
1002
{
1002
}
1000
DIMASZ
1070
     2
1040
0.1
1002
{
1002
}
1000
DIMCEN
1070
     2
1040
0.0
1002
{
1002
}
1000
DIMDEC
1070
     1
1070
     4
1002
{
1002
}
1000
DIMDLI
1070
     2
1040
0.5
1002
{
1002
}
1000
DIMEXE
1070
     2
1040
0.1
1002
{
1002
}
1000
DIMEXO
1070
     2
1040
0.05
1002
{
1002
}
1000
DIMGAP
1070
     2
1040
0.06
1002
{
1002
}
1000
DIMTDEC
1070
     1
1070
     4
1002
{
1002
}
1000
DIMTXT
1070
     2
1040
0.12
1002
{
1002
}
1000
DIMZIN
1070
     1
1070
     7
1002
{
1002
}
1002
}
1000
GEN-ISO
1070
     5
1002
{
1000
NAME
1070
     4
1000
GEN-ISO
1002
{
1002
}
1000
DIMTAD
1070
     1
1070
     1
1002
{
1002
}
1000
DIMTOLJ
1070
     1
1070
     0
1002
{
1002
}
1000
DIMTOFL
1070
     1
1070
     1
1002
{
1002
}
1000
M
1070
     0
1002
{
1002
}
1000
I
1070
     0
1002
{
1002
}
1002
}
1000
GEN-ISO-POS
1070
     5
1002
{
1000
NAME
1070
     4
1000
GEN-ISO-POS
1002
{
1002
}
1000
DIMTOLJ
1070
     1
1070
     0
1002
{
1002
}
1000
M
1070
     0
1002
{
1000
DIMGAP
1070
     2
1040
1.5
1002
{
1002
}
1000
DIMTXT
1070
     2
1040
5.0
1002
{
1002
}
1000
DIMASZ
1070
     2
1040
2.5
1002
{
1002
}
1002
}
1000
I
1070
     0
1002
{
1000
DIMASZ
1070
     2
1040
0.1
1002
{
1002
}
1000
DIMGAP
1070
     2
1040
0.06
1002
{
1002
}
1000
DIMTXT
1070
     2
1040
0.2
1002
{
1002
}
1002
}
1000
DIMSCALE
1070
     2
1040
1.0
1002
{
1002
}
1000
DIMPOST
1070
     4
1000
<>
1002
{
1002
}
1002
}
1000
GEN-ISO-CIR
1070
     5
1002
{
1000
NAME
1070
     4
1000
GEN-ISO$3
1002
{
1002
}
1000
DIMFIT
1070
     1
1070
     0
1002
{
1002
}
1000
DIMTAD
1070
     1
1070
     1
1002
{
1002
}
1000
DIMTIH
1070
     1
1070
     0
1002
{
1002
}
1000
DIMTIX
1070
     1
1070
     0
1002
{
1002
}
1000
DIMTOH
1070
     1
1070
     1
1002
{
1002
}
1000
DIMTOLJ
1070
     1
1070
     0
1002
{
1002
}
1000
DIMTOFL
1070
     1
1070
     0
1002
{
1002
}
1000
DIMUPT
1070
     1
1070
     1
1002
{
1002
}
1000
M
1070
     0
1002
{
1002
}
1000
I
1070
     0
1002
{
1002
}
1000
DIMPOST
1070
     4
1000
<>
1002
{
1002
}
1002
}
1000
GEN-ISO-RAD
1070
     5
1002
{
1000
NAME
1070
     4
1000
GEN-ISO$4
1002
{
1002
}
1000
DIMFIT
1070
     1
1070
     0
1002
{
1002
}
1000
DIMTAD
1070
     1
1070
     1
1002
{
1002
}
1000
DIMTIH
1070
     1
1070
     0
1002
{
1002
}
1000
DIMTIX
1070
     1
1070
     0
1002
{
1002
}
1000
DIMTOH
1070
     1
1070
     1
1002
{
1002
}
1000
DIMTOLJ
1070
     1
1070
     0
1002
{
1002
}
1000
DIMTOFL
1070
     1
1070
     0
1002
{
1002
}
1000
DIMUPT
1070
     1
1070
     1
1002
{
1002
}
1000
M
1070
     0
1002
{
1002
}
1000
I
1070
     0
1002
{
1002
}
1002
}
1000
GEN-ISO-ORD
1070
     5
1002
{
1000
NAME
1070
     4
1000
GEN-ISO$6
1002
{
1002
}
1000
DIMTOLJ
1070
     1
1070
     0
1002
{
1002
}
1000
M
1070
     0
1002
{
1002
}
1000
I
1070
     0
1002
{
1002
}
1002
}
1000
GEN-ISO-AXE-F
1070
     5
1002
{
1000
NAME
1070
     4
1000
GEN-ISO-AXE-F
1002
{
1002
}
1000
DIMSE1
1070
     1
1070
     1
1002
{
1002
}
1000
DIMSE2
1070
     1
1070
     1
1002
{
1002
}
1000
DIMTAD
1070
     1
1070
     1
1002
{
1002
}
1000
DIMTOLJ
1070
     1
1070
     0
1002
{
1002
}
1000
DIMTOFL
1070
     1
1070
     1
1002
{
1002
}
1000
M
1070
     0
1002
{
1002
}
1000
I
1070
     0
1002
{
1002
}
1002
}
1000
GEN-ISO-AXE-H
1070
     5
1002
{
1000
DIMBLK1
1070
     4
1000
GENAXEH
1002
{
1002
}
1000
DIMLFAC
1070
     2
1040
2.0
1002
{
1002
}
1000
DIMSAH
1070
     1
1070
     1
1002
{
1002
}
1000
DIMSE1
1070
     1
1070
     1
1002
{
1002
}
1000
DIMSE2
1070
     1
1070
     1
1002
{
1002
}
1000
DIMTAD
1070
     1
1070
     1
1002
{
1002
}
1000
DIMTOLJ
1070
     1
1070
     0
1002
{
1002
}
1000
DIMTOFL
1070
     1
1070
     1
1002
{
1002
}
1000
M
1070
     0
1002
{
1002
}
1000
I
1070
     0
1002
{
1002
}
1002
}
1000
GEN-ANSI
1070
     5
1002
{
1000
NAME
1070
     4
1000
GEN-ANSI
1002
{
1002
}
1000
DIMTIH
1070
     1
1070
     1
1002
{
1002
}
1000
DIMTOH
1070
     1
1070
     1
1002
{
1002
}
1000
DIMTAD
1070
     1
1070
     0
1002
{
1002
}
1000
DIMTOLJ
1070
     1
1070
     1
1002
{
1002
}
1000
M
1070
     0
1002
{
1002
}
1000
I
1070
     0
1002
{
1002
}
1002
}
1000
GEN-ANSI-POS
1070
     5
1002
{
1000
NAME
1070
     4
1000
GEN-ANSI-POS
1002
{
1002
}
1000
DIMTOLJ
1070
     1
1070
     1
1002
{
1002
}
1000
M
1070
     0
1002
{
1000
DIMASZ
1070
     2
1040
2.5
1002
{
1002
}
1000
DIMGAP
1070
     2
1040
1.5
1002
{
1002
}
1000
DIMTXT
1070
     2
1040
5.0
1002
{
1002
}
1002
}
1000
I
1070
     0
1002
{
1000
DIMASZ
1070
     2
1040
0.1
1002
{
1002
}
1000
DIMGAP
1070
     2
1040
0.06
1002
{
1002
}
1000
DIMTXT
1070
     2
1040
0.2
1002
{
1002
}
1002
}
1002
}
1000
GEN-ANSI-CIR
1070
     5
1002
{
1000
NAME
1070
     4
1000
GEN-ANSI$3
1002
{
1002
}
1000
DIMFIT
1070
     1
1070
     0
1002
{
1002
}
1000
DIMTAD
1070
     1
1070
     0
1002
{
1002
}
1000
DIMTIH
1070
     1
1070
     1
1002
{
1002
}
1000
DIMTIX
1070
     1
1070
     0
1002
{
1002
}
1000
DIMTOFL
1070
     1
1070
     0
1002
{
1002
}
1000
DIMTOH
1070
     1
1070
     1
1002
{
1002
}
1000
DIMTOLJ
1070
     1
1070
     1
1002
{
1002
}
1000
DIMUPT
1070
     1
1070
     1
1002
{
1002
}
1000
M
1070
     0
1002
{
1002
}
1000
I
1070
     0
1002
{
1002
}
1002
}
1000
GEN-ANSI-RAD
1070
     5
1002
{
1000
NAME
1070
     4
1000
GEN-ANSI$4
1002
{
1002
}
1000
DIMFIT
1070
     1
1070
     0
1002
{
1002
}
1000
DIMTAD
1070
     1
1070
     0
1002
{
1002
}
1000
DIMTIH
1070
     1
1070
     1
1002
{
1002
}
1000
DIMTIX
1070
     1
1070
     0
1002
{
1002
}
1000
DIMTOFL
1070
     1
1070
     0
1002
{
1002
}
1000
DIMTOH
1070
     1
1070
     1
1002
{
1002
}
1000
DIMTOLJ
1070
     1
1070
     1
1002
{
1002
}
1000
DIMUPT
1070
     1
1070
     1
1002
{
1002
}
1000
M
1070
     0
1002
{
1002
}
1000
I
1070
     0
1002
{
1002
}
1002
}
1000
GEN-ANSI-ORD
1070
     5
1002
{
1000
NAME
1070
     4
1000
GEN-ANSI$6
1002
{
1002
}
1000
DIMTAD
1070
     1
1070
     0
1002
{
1002
}
1000
DIMTIH
1070
     1
1070
     1
1002
{
1002
}
1000
DIMTOH
1070
     1
1070
     1
1002
{
1002
}
1000
DIMTOLJ
1070
     1
1070
     1
1002
{
1002
}
1000
M
1070
     0
1002
{
1002
}
1000
I
1070
     0
1002
{
1002
}
1002
}
1000
GEN-ANSI-AXE-F
1070
     5
1002
{
1000
NAME
1070
     4
1000
GEN-ANSI-AXE-F
1002
{
1002
}
1000
DIMBLK1
1070
     4
1000
GENAXEH
1002
{
1002
}
1000
DIMSAH
1070
     1
1070
     1
1002
{
1002
}
1000
DIMSE1
1070
     1
1070
     1
1002
{
1002
}
1000
DIMSE2
1070
     1
1070
     1
1002
{
1002
}
1000
DIMTAD
1070
     1
1070
     0
1002
{
1002
}
1000
DIMTIH
1070
     1
1070
     1
1002
{
1002
}
1000
DIMTOH
1070
     1
1070
     1
1002
{
1002
}
1000
DIMTOLJ
1070
     1
1070
     1
1002
{
1002
}
1000
M
1070
     0
1002
{
1002
}
1000
I
1070
     0
1002
{
1002
}
1002
}
1000
GEN-ANSI-AXE-H
1070
     5
1002
{
1000
NAME
1070
     4
1000
GEN-ANSI-AXE-H
1002
{
1002
}
1000
DIMBLK1
1070
     4
1000
GENAXEH
1002
{
1002
}
1000
DIMLFAC
1070
     2
1040
2.0
1002
{
1002
}
1000
DIMSAH
1070
     1
1070
     1
1002
{
1002
}
1000
DIMSE1
1070
     1
1070
     1
1002
{
1002
}
1000
DIMSE2
1070
     1
1070
     1
1002
{
1002
}
1000
DIMTAD
1070
     1
1070
     0
1002
{
1002
}
1000
DIMTOFL
1070
     1
1070
     1
1002
{
1002
}
1000
DIMTOLJ
1070
     1
1070
     1
1002
{
1002
}
1000
M
1070
     0
1002
{
1002
}
1000
I
1070
     0
1002
{
1002
}
1002
}
1000
DIMZIN
1070
     1
1070
     8
1002
{
1002
}
1002
}
1000
DimSet
1070
     0
1002
{
1000
ChainSum
1070
     3
1070
     0
1002
{
1002
}
1000
DimDclTyp0
1070
     4
1000
dim23
1002
{
1002
}
1000
HorBra
1070
     3
1070
     0
1002
{
1002
}
1000
StrDia
1070
     4
1000
%%c<>
1002
{
1002
}
1000
StrRad
1070
     4
1000
R<>
1002
{
1002
}
1000
TextMinus
1070
     4
1000
<>
1002
{
1002
}
1000
TextPlus
1070
     4
1000
<>
1002
{
1002
}
1000
M
1070
     0
1002
{
1000
DimdliFirst
1070
     2
1040
10.0
1002
{
1002
}
1000
PointMakeDist
1070
     2
1040
10.0
1002
{
1002
}
1002
}
1000
I
1070
     0
1002
{
1000
DimdliFirst
1070
     2
1040
0.5
1002
{
1002
}
1000
PointMakeDist
1070
     2
1040
0.5
1002
{
1002
}
1002
}
1002
}
1000
Drawing
1070
     0
1002
{
1000
ChamferDimMode
1070
     1
1070
     2
1002
{
1002
}
1000
Gen_Fiso
1070
    -3
1040
1.0
1002
{
1002
}
1000
GenDimStil
1070
     4
1000
ISO
1002
{
1002
}
1000
GenDwgUScale
1070
     2
1040
1.0
1002
{
1002
}
1000
GenInch
1070
     4
1000
M
1002
{
1002
}
1000
GenPlotScale
1070
     4
1000
1:1
1002
{
1002
}
1000
Revisi
1070
     4
1000
0
1002
{
1002
}
1000
Version
1070
    -5
1000
13.1/May  9 1996
1002
{
1002
}
1000
Platform
1070
    -5
1000
WINNT
1002
{
1002
}
1002
}
1000
DwgVar
1070
     0
1002
{
1000
M
1070
     0
1002
{
1002
}
1000
I
1070
     0
1002
{
1002
}
1002
}
1000
Hatch
1070
     0
1002
{
1000
GenHtcFlag
1070
     3
1070
     0
1002
{
1002
}
1002
}
1000
Info_Pos
1070
     0
1002
{
1000
DescrText
1070
     4
1000
5,6,7,8
1002
{
1002
}
1000
Attrib
1070
     0
1002
{
1000
0
1070
     6
1002
{
1000
Prompt
1070
     4
1000
(genmsg gendwg 103)
1002
{
1002
}
1000
Value
1070
     4
1000

1002
{
1002
}
1000
EditFlag
1070
     1
1070
     0
1002
{
1002
}
1002
}
1000
1
1070
     6
1002
{
1000
Prompt
1070
     4
1000
(genmsg gendwg 31)
1002
{
1002
}
1000
Value
1070
     4
1000
1
1002
{
1002
}
1000
EditFlag
1070
     1
1070
     1
1002
{
1002
}
1002
}
1000
2
1070
     6
1002
{
1000
Prompt
1070
     4
1000
(genmsg gendwg 32)
1002
{
1002
}
1000
Value
1070
     4
1000
1
1002
{
1002
}
1000
EditFlag
1070
     1
1070
     1
1002
{
1002
}
1002
}
1000
3
1070
     6
1002
{
1000
Prompt
1070
     4
1000
(genmsg gendwg 33)
1002
{
1002
}
1000
Value
1070
     4
1000

1002
{
1002
}
1000
EditFlag
1070
     1
1070
     1
1002
{
1002
}
1002
}
1000
4
1070
     6
1002
{
1000
Prompt
1070
     4
1000
(genmsg gendwg 34)
1002
{
1002
}
1000
Value
1070
     4
1000

1002
{
1002
}
1000
EditFlag
1070
     1
1070
     1
1002
{
1002
}
1002
}
1000
5
1070
     6
1002
{
1000
Prompt
1070
     4
1000
(genmsg gendwg 35)
1002
{
1002
}
1000
Value
1070
     4
1000

1002
{
1002
}
1000
EditFlag
1070
     1
1070
     1
1002
{
1002
}
1002
}
1000
6
1070
     6
1002
{
1000
Prompt
1070
     4
1000
(genmsg gendwg 36)
1002
{
1002
}
1000
Value
1070
     4
1000

1002
{
1002
}
1000
EditFlag
1070
     1
1070
     1
1002
{
1002
}
1002
}
1000
7
1070
     6
1002
{
1000
Prompt
1070
     4
1000
(genmsg gendwg 37)
1002
{
1002
}
1000
Value
1070
     4
1000

1002
{
1002
}
1000
EditFlag
1070
     1
1070
     1
1002
{
1002
}
1002
}
1000
8
1070
     6
1002
{
1000
Prompt
1070
     4
1000
(genmsg gendwg 38)
1002
{
1002
}
1000
Value
1070
     4
1000

1002
{
1002
}
1000
EditFlag
1070
     1
1070
     1
1002
{
1002
}
1002
}
1000
9
1070
     6
1002
{
1000
Prompt
1070
     4
1000
(genmsg gendwg 39)
1002
{
1002
}
1000
Value
1070
     4
1000

1002
{
1002
}
1000
EditFlag
1070
     1
1070
     1
1002
{
1002
}
1002
}
1000
10
1070
     6
1002
{
1000
Prompt
1070
     4
1000
(genmsg gendwg 40)
1002
{
1002
}
1000
Value
1070
     4
1000

1002
{
1002
}
1000
EditFlag
1070
     1
1070
     1
1002
{
1002
}
1002
}
1000
11
1070
     6
1002
{
1000
Prompt
1070
     4
1000
(genmsg gendwg 41)
1002
{
1002
}
1000
Value
1070
     4
1000

1002
{
1002
}
1000
EditFlag
1070
     1
1070
     1
1002
{
1002
}
1002
}
1000
12
1070
     6
1002
{
1000
Prompt
1070
     4
1000
(genmsg gendwg 42)
1002
{
1002
}
1000
Value
1070
     4
1000

1002
{
1002
}
1000
EditFlag
1070
     1
1070
     1
1002
{
1002
}
1002
}
1000
13
1070
     6
1002
{
1000
Prompt
1070
     4
1000
(genmsg gendwg 43)
1002
{
1002
}
1000
Value
1070
     4
1000

1002
{
1002
}
1000
EditFlag
1070
     1
1070
     1
1002
{
1002
}
1002
}
1000
14
1070
     6
1002
{
1000
Prompt
1070
     4
1000
(genmsg gendwg 44)
1002
{
1002
}
1000
Value
1070
     4
1000

1002
{
1002
}
1000
EditFlag
1070
     1
1070
     1
1002
{
1002
}
1002
}
1000
15
1070
     6
1002
{
1000
Prompt
1070
     4
1000
(genmsg gendwg 45)
1002
{
1002
}
1000
Value
1070
     4
1000

1002
{
1002
}
1000
EditFlag
1070
     1
1070
     1
1002
{
1002
}
1002
}
1000
16
1070
     6
1002
{
1000
Prompt
1070
     4
1000
(genmsg gendwg 46)
1002
{
1002
}
1000
Value
1070
     4
1000

1002
{
1002
}
1000
EditFlag
1070
     1
1070
     1
1002
{
1002
}
1002
}
1000
17
1070
     6
1002
{
1000
Prompt
1070
     4
1000
(genmsg gendwg 47)
1002
{
1002
}
1000
Value
1070
     4
1000

1002
{
1002
}
1000
EditFlag
1070
     1
1070
     1
1002
{
1002
}
1002
}
1000
18
1070
     6
1002
{
1000
Prompt
1070
     4
1000
(genmsg gendwg 48)
1002
{
1002
}
1000
Value
1070
     4
1000

1002
{
1002
}
1000
EditFlag
1070
     1
1070
     1
1002
{
1002
}
1002
}
1000
19
1070
     6
1002
{
1000
Prompt
1070
     4
1000
(genmsg gendwg 99)
1002
{
1002
}
1000
Value
1070
     4
1000

1002
{
1002
}
1000
EditFlag
1070
     1
1070
     1
1002
{
1002
}
1002
}
1000
20
1070
     6
1002
{
1000
Prompt
1070
     4
1000
(genmsg gendwg 100)
1002
{
1002
}
1000
Value
1070
     4
1000

1002
{
1002
}
1000
EditFlag
1070
     1
1070
     1
1002
{
1002
}
1002
}
1000
21
1070
     6
1002
{
1000
Prompt
1070
     4
1000
(genmsg gendwg 101)
1002
{
1002
}
1000
Value
1070
     4
1000

1002
{
1002
}
1000
EditFlag
1070
     1
1070
     1
1002
{
1002
}
1002
}
1000
22
1070
     6
1002
{
1000
Prompt
1070
     4
1000
(genmsg gendwg 102)
1002
{
1002
}
1000
Value
1070
     4
1000

1002
{
1002
}
1000
EditFlag
1070
     1
1070
     1
1002
{
1002
}
1002
}
1000
23
1070
     6
1002
{
1000
Prompt
1070
     4
1000
(genmsg gendwg 30)
1002
{
1002
}
1000
Value
1070
     4
1000

1002
{
1002
}
1000
EditFlag
1070
     1
1070
     1
1002
{
1002
}
1002
}
1000
24
1070
     6
1002
{
1000
Prompt
1070
     4
1000
(genmsg gendwg 104)
1002
{
1002
}
1000
Value
1070
     4
1000

1002
{
1002
}
1000
EditFlag
1070
     1
1070
     1
1002
{
1002
}
1002
}
1002
}
1000
Xlate
1070
     0
1002
{
1000
>
1002
}
1002
}
1000
Layer
1070
     7
1002
{
1000
Defs
1070
     0
1002
{
1000
>
1002
}
1000
EntSort
1070
     0
1002
{
1000
>
1002
}
1000
Match
1070
     0
1002
{
1002
}
1000
Settings
1070
     0
1002
{
1000
FocGrNC
1070
     3
1070
     0
1002
{
1002
}
1000
FocGrLo
1070
     3
1070
     0
1002
{
1002
}
1000
FocLoNC
1070
     3
1070
     0
1002
{
1002
}
1000
FocusCol
1070
     1
1070
   253
1002
{
1002
}
1000
GenStdLG
1070
     4
1000

1002
{
1002
}
1000
LayMatch
1070
     3
1070
     0
1002
{
1002
}
1000
LgOff
1070
     3
1070
     0
1002
{
1002
}
1000
CurLG
1070
    -5
1000
MSL5_60_3F
1002
{
1002
}
1002
}
1002
}
1000
LType
1070
     0
1002
{
1000
GEN3
1070
     8
1000
genius.lin
1002
{
1002
}
1000
GEN7
1070
     8
1000
genius.lin
1002
{
1002
}
1000
GEN4A
1070
     8
1000
genius.lin
1002
{
1002
}
1000
GEN3A
1070
     8
1000
genius.lin
1002
{
1002
}
1000
GEN7A
1070
     8
1000
genius.lin
1002
{
1002
}
1000
GENZIGZAG
1070
     8
1000
genius.lin
1002
{
1002
}
1002
}
1000
Objecter
1070
     0
1002
{
1000
CreateGroups
1070
     3
1070
     0
1002
{
1002
}
1000
LaySwitch
1070
     3
1070
     1
1002
{
1002
}
1000
LastObj
1070
    -5
1000
3EC1
1002
{
1002
}
1002
}
1000
OSWiz
1070
     0
1002
{
1000
>
1002
}
1000
PaList
1070
     0
1002
{
1000
AutoUpdatePartList
1070
     3
1070
     0
1002
{
1002
}
1000
ReadInfoPoint
1070
     3
1070
     0
1002
{
1002
}
1000
ReadPosNr
1070
     3
1070
     1
1002
{
1002
}
1000
RevStr
1070
     4
1000
0
1002
{
1002
}
1000
rebuildpending
1070
    -4
1070
     1
1002
{
1002
}
1000
rebuildpendingtime
1070
    -5
1000
893400223
1002
{
1002
}
1002
}
1000
Paper
1070
     0
1002
{
1000
Layer
1070
    -5
1000
MSL5_60_3F-5,MSL5_60_3F-7AN,MSL5_60_3F-3A,MSL5_60_3F-7A,MSL5_60_3F-7AN,MSL5_60_3F-5,MSL5_60_3F-5,KLIN
1002
{
1002
}
1002
}
1000
PartDB
1070
     0
1002
{
1000
GenDbOwner
1070
     4
1000

1002
{
1002
}
1002
}
1000
System
1070
     0
1002
{
1000
Menu
1070
     4
1000
GEV
1002
{
1002
}
1002
}
1000
Title
1070
     0
1002
{
1000
MakeView
1070
     1
1070
     2
1002
{
1002
}
1002
}
  0
APPID
  5
2F
100
AcDbSymbolTableRecord
100
AcDbRegAppTableRecord
  2
GENIUS_GEVCFG0_13
 70
     0
1001
GENIUS_GENCFG_13
1071
862825278
1000
2F
1000
GEV
1070
     1
1000
GenCfgObject
1000
System
1070
     0
1002
{
1002
}
1000
VED
1070
     0
1002
{
1002
}
  0
APPID
  5
33
100
AcDbSymbolTableRecord
100
AcDbRegAppTableRecord
  2
GENIUS_GEFCFG0_13
 70
     0
1001
GENIUS_GENCFG_13
1071
893336797
1000
33
1000
GEF
1070
     5
1000
GenCfgObject
1000
GenCfgString
1000
GenCfgReal
1000
GenCfgShort
1000
GenCfgBool
1000
System
1070
     0
1002
{
1002
}
1000
Prese
1070
     0
1002
{
1000
Funk
1070
     1
1000

1002
{
1002
}
1000
FunkDef
1070
     1
1000

1002
{
1002
}
1000
GefIso
1070
     1
1000
DIN
1002
{
1002
}
1002
}
1000
FEM
1070
     0
1002
{
1000
LayGroup
1070
     1
1000
FEM
1002
{
1002
}
1000
IncrCoef
1070
     2
1040
0.0
1002
{
1002
}
1002
}
1000
Shaft
1070
     0
1002
{
1000
Interrupt
1070
     3
1070
     0
1002
{
1002
}
1002
}
1000
PartDb
1070
     0
1002
{
1000
PartCreate
1070
     0
1002
{
1002
}
1002
}
1000
Symbol
1070
     0
1002
{
1000
WeldStyle
1070
     1
1000
ISO
1002
{
1002
}
1000
WeldSize
1070
     2
1040
1.0
1002
{
1002
}
1000
WeldFlag
1070
     4
1070
     1
1002
{
1002
}
1000
WeldOffset
1070
     4
1070
     1
1002
{
1002
}
1000
TolCType
1070
     1
1000
ISO
1002
{
1002
}
1000
TolCSize
1070
     2
1040
1.0
1002
{
1002
}
1000
STextureSize
1070
     2
1040
1.0
1002
{
1002
}
1000
SurfaceType
1070
     1
1000

1002
{
1002
}
1000
M
1070
     0
1002
{
1000
WeldWidth
1070
     2
1040
3.0
1002
{
1002
}
1002
}
1000
I
1070
     0
1002
{
1000
WeldWidth
1070
     2
1040
0.125
1002
{
1002
}
1002
}
1002
}
  0
APPID
  5
3C
100
AcDbSymbolTableRecord
100
AcDbRegAppTableRecord
  2
GENIUS_GENOENT_13
 70
     0
  0
APPID
  5
73
100
AcDbSymbolTableRecord
100
AcDbRegAppTableRecord
  2
GENIUS_GENINF13_13
 70
     0
  0
APPID
  5
74
100
AcDbSymbolTableRecord
100
AcDbRegAppTableRecord
  2
GENIUS_GENODEF_13
 70
     0
1001
GENIUS_GENOBJ_13
1070
     1
  0
APPID
  5
75
100
AcDbSymbolTableRecord
100
AcDbRegAppTableRecord
  2
GENIUS_GENOBJ-N-INFOPT_13
 70
     0
  0
APPID
  5
76
100
AcDbSymbolTableRecord
100
AcDbRegAppTableRecord
  2
GENIUS_GENOBJ_13
 70
     0
1001
GENIUS_GENODEF_13
1070
     1
1001
GENIUS_GENOENT_13
1070
     1
1001
GENIUS_GENOLIS_13
1070
     1
1001
GENIUS_GENOREF_13
1070
     1
1001
GENIUS_GENOBJ-N-RSSYM_13
1070
     1
1001
GENIUS_GENSYMENT_13
1070
     1
1001
GENIUS_GENOBJ-NBEHI-BHF_13
1070
     0
1001
GENIUS_GENOBJ-NBEHI-BHB_13
1070
     0
1001
GENIUS_GENBH_13
1070
     1
1001
GENIUS_GENOBJ-F-PART_13
1070
     0
1001
GENIUS_GEFSTDP_13
1070
     0
  0
APPID
  5
77
100
AcDbSymbolTableRecord
100
AcDbRegAppTableRecord
  2
GENIUS_GENOLIS_13
 70
     0
1001
GENIUS_GENOBJ_13
1070
     1
  0
APPID
  5
78
100
AcDbSymbolTableRecord
100
AcDbRegAppTableRecord
  2
GENIUS_GENOREF_13
 70
     0
1001
GENIUS_GENOBJ_13
1070
     1
  0
APPID
  5
79
100
AcDbSymbolTableRecord
100
AcDbRegAppTableRecord
  2
GENIUS_GENOBJ-N-RSSYM_13
 70
     0
1001
GENIUS_GENOBJ_13
1070
     1
  0
APPID
  5
7A
100
AcDbSymbolTableRecord
100
AcDbRegAppTableRecord
  2
GENIUS_GENSYMENT_13
 70
     0
1001
GENIUS_GENOBJ_13
1070
     1
  0
APPID
  5
7B
100
AcDbSymbolTableRecord
100
AcDbRegAppTableRecord
  2
GENIUS_GENSCSYM_13
 70
     0
  0
APPID
  5
1AB9
100
AcDbSymbolTableRecord
100
AcDbRegAppTableRecord
  2
GENIUS_GENOBJ-N-CEN_13
 70
     0
  0
APPID
  5
1ABA
100
AcDbSymbolTableRecord
100
AcDbRegAppTableRecord
  2
GENIUS_GENOBJ-N-TIT_13
 70
     0
1001
GENIUS_GENOBJ_13
1070
     0
  0
APPID
  5
1ABB
100
AcDbSymbolTableRecord
100
AcDbRegAppTableRecord
  2
GENIUS_GENTITLE_13
 70
     0
1001
GENIUS_GENOBJ_13
1070
     0
  0
APPID
  5
1ABC
100
AcDbSymbolTableRecord
100
AcDbRegAppTableRecord
  2
GENIUS_GENZVEED_13
 70
     0
1001
GENIUS_GENOBJ_13
1070
     1
  0
APPID
  5
1ABD
100
AcDbSymbolTableRecord
100
AcDbRegAppTableRecord
  2
GENIUS_GENOBJ-N-SDF_13
 70
     0
  0
APPID
  5
1ABE
100
AcDbSymbolTableRecord
100
AcDbRegAppTableRecord
  2
GENIUS_GENSCREG_13
 70
     0
  0
APPID
  5
1ABF
100
AcDbSymbolTableRecord
100
AcDbRegAppTableRecord
  2
GEV_VCCNULL_SWITCH_OFF
 70
     0
  0
APPID
  5
1AC0
100
AcDbSymbolTableRecord
100
AcDbRegAppTableRecord
  2
GENIUS_GENDIM_13
 70
     0
  0
APPID
  5
1AC1
100
AcDbSymbolTableRecord
100
AcDbRegAppTableRecord
  2
GENIUS_GENOBJ-N-DIM_13
 70
     0
  0
APPID
  5
1AC2
100
AcDbSymbolTableRecord
100
AcDbRegAppTableRecord
  2
GENIUS_GENOBJ-N-FIL_13
 70
     0
  0
APPID
  5
1AC3
100
AcDbSymbolTableRecord
100
AcDbRegAppTableRecord
  2
GENIUS_GENDTOL_13
 70
     0
  0
APPID
  5
1AC4
100
AcDbSymbolTableRecord
100
AcDbRegAppTableRecord
  2
GENIUS_GENDREL_13
 70
     0
  0
APPID
  5
1AC5
100
AcDbSymbolTableRecord
100
AcDbRegAppTableRecord
  2
GENIUS_GENOBJ-N-CRS_13
 70
     0
1001
GENIUS_GENOBJ_13
1070
     0
  0
APPID
  5
1AC6
100
AcDbSymbolTableRecord
100
AcDbRegAppTableRecord
  2
GENIUS_GENOBJ-N-HTC_13
 70
     0
  0
APPID
  5
1AC7
100
AcDbSymbolTableRecord
100
AcDbRegAppTableRecord
  2
GENIUS_GENHATCH_13
 70
     0
  0
APPID
  5
25F5
100
AcDbSymbolTableRecord
100
AcDbRegAppTableRecord
  2
GENIUS_GENBH_13
 70
     0
1001
GENIUS_GENOBJ_13
1070
     1
  0
APPID
  5
25F8
100
AcDbSymbolTableRecord
100
AcDbRegAppTableRecord
  2
GENIUS_GENOBJ-NBEHI-BHF_13
 70
     0
1001
GENIUS_GENOBJ_13
1070
     0
  0
APPID
  5
25FA
100
AcDbSymbolTableRecord
100
AcDbRegAppTableRecord
  2
GENIUS_GENOBJ-NBEHI-BHB_13
 70
     0
1001
GENIUS_GENOBJ_13
1070
     0
  0
APPID
  5
2615
100
AcDbSymbolTableRecord
100
AcDbRegAppTableRecord
  2
GENIUS_GENREC_13
 70
     0
  0
APPID
  5
2616
100
AcDbSymbolTableRecord
100
AcDbRegAppTableRecord
  2
GENIUS_GENOBJ-N-REC_13
 70
     0
  0
APPID
  5
265C
100
AcDbSymbolTableRecord
100
AcDbRegAppTableRecord
  2
GENIUS_GENOBJ-F-PART_13
 70
     0
1001
GENIUS_GENOBJ_13
1070
     0
  0
APPID
  5
265D
100
AcDbSymbolTableRecord
100
AcDbRegAppTableRecord
  2
GENIUS_GEFSTDP_13
 70
     0
1001
GENIUS_GENOBJ_13
1070
     0
  0
APPID
  5
2EDD
100
AcDbSymbolTableRecord
100
AcDbRegAppTableRecord
  2
GEVID893325867
 70
     0
  0
APPID
  5
2EDE
100
AcDbSymbolTableRecord
100
AcDbRegAppTableRecord
  2
GEVDC
 70
     0
  0
APPID
  5
2EEE
100
AcDbSymbolTableRecord
100
AcDbRegAppTableRecord
  2
GEVPT
 70
     0
  0
APPID
  5
2EEF
100
AcDbSymbolTableRecord
100
AcDbRegAppTableRecord
  2
GEVIT
 70
     0
  0
APPID
  5
2EF0
100
AcDbSymbolTableRecord
100
AcDbRegAppTableRecord
  2
VCC
 70
     0
  0
APPID
  5
2EF1
100
AcDbSymbolTableRecord
100
AcDbRegAppTableRecord
  2
GENBH
 70
     0
  0
APPID
  5
2EFF
100
AcDbSymbolTableRecord
100
AcDbRegAppTableRecord
  2
GEVMK
 70
     0
  0
APPID
  5
2F02
100
AcDbSymbolTableRecord
100
AcDbRegAppTableRecord
  2
GENIUS_GEFPARTINS_13
 70
     0
  0
APPID
  5
2F51
100
AcDbSymbolTableRecord
100
AcDbRegAppTableRecord
  2
GEVID893325868
 70
     0
  0
APPID
  5
2F52
100
AcDbSymbolTableRecord
100
AcDbRegAppTableRecord
  2
GEVRADREF
 70
     0
  0
APPID
  5
3A95
100
AcDbSymbolTableRecord
100
AcDbRegAppTableRecord
  2
GENIUS_GENOBJ-N-RSBK_13
 70
     0
  0
APPID
  5
3A96
100
AcDbSymbolTableRecord
100
AcDbRegAppTableRecord
  2
GENIUS_GENOBJ-N-LIB_13
 70
     0
  0
APPID
  5
3A97
100
AcDbSymbolTableRecord
100
AcDbRegAppTableRecord
  2
GENIUS_GENSCALE_13
 70
     0
  0
ENDTAB
  0
TABLE
  2
DIMSTYLE
  5
A
100
AcDbSymbolTable
 70
     2
  0
DIMSTYLE
105
1D
100
AcDbSymbolTableRecord
100
AcDbDimStyleTableRecord
  2
STANDARD
 70
     0
  3

  4

  5

  6

  7

 40
1.0
 41
0.18
 42
0.0625
 43
0.38
 44
0.18
 45
0.0
 46
0.0
 47
0.0
 48
0.0
140
0.18
141
0.09
142
0.0
143
25.4
144
1.0
145
0.0
146
1.0
147
0.09
 71
     0
 72
     0
 73
     1
 74
     1
 75
     0
 76
     0
 77
     0
 78
     0
170
     0
171
     2
172
     0
173
     0
174
     0
175
     0
176
     0
177
     0
178
     0
270
     2
271
     4
272
     4
273
     2
274
     2
340
10
275
     0
280
     0
281
     0
282
     0
283
     1
284
     0
285
     0
286
     0
287
     3
288
     0
  0
DIMSTYLE
105
11F6
100
AcDbSymbolTableRecord
100
AcDbDimStyleTableRecord
  2
GEN-ISO
 70
     0
  3
<>
  4

  5

  6

  7

 40
1.0
 41
2.5
 42
1.0
 43
7.0
 44
1.0
 45
0.0
 46
0.0
 47
0.1
 48
0.1
140
3.5
141
0.0
142
0.0
143
0.03937
144
1.0
145
0.0
146
0.71
147
0.6
 71
     0
 72
     0
 73
     0
 74
     0
 75
     0
 76
     0
 77
     1
 78
     8
170
     0
171
     2
172
     1
173
     0
174
     0
175
     0
176
   256
177
   256
178
     2
270
     2
271
     2
272
     3
273
     2
274
     4
340
10
275
     0
280
     0
281
     0
282
     0
283
     0
284
     0
285
     0
286
     0
287
     3
288
     0
  0
ENDTAB
  0
TABLE
  2
BLOCK_RECORD
  5
1
100
AcDbSymbolTable
 70
     1
  0
BLOCK_RECORD
  5
1A
100
AcDbSymbolTableRecord
100
AcDbBlockTableRecord
  2
*MODEL_SPACE
  0
BLOCK_RECORD
  5
17
100
AcDbSymbolTableRecord
100
AcDbBlockTableRecord
  2
*PAPER_SPACE
  0
BLOCK_RECORD
  5
43
100
AcDbSymbolTableRecord
100
AcDbBlockTableRecord
  2
GENINF13
  0
ENDTAB
  0
ENDSEC
  0
SECTION
  2
BLOCKS
  0
BLOCK
  5
1B
100
AcDbEntity
  8
0
100
AcDbBlockBegin
  2
*MODEL_SPACE
 70
     0
 10
0.0
 20
0.0
 30
0.0
  3
*MODEL_SPACE
  1

  0
ENDBLK
  5
1C
100
AcDbEntity
  8
0
100
AcDbBlockEnd
  0
BLOCK
  5
18
100
AcDbEntity
 67
     1
  8
0
100
AcDbBlockBegin
  2
*PAPER_SPACE
 70
     0
 10
0.0
 20
0.0
 30
0.0
  3
*PAPER_SPACE
  1

  0
ENDBLK
  5
19
100
AcDbEntity
 67
     1
  8
0
100
AcDbBlockEnd
  0
BLOCK
  5
68
100
AcDbEntity
  8
0
100
AcDbBlockBegin
  2
GENINF13
 70
    66
 10
0.0
 20
0.0
 30
0.0
  3
GENINF13
  1
GENINF13
  0
CIRCLE
  5
44
100
AcDbEntity
  8
INFO
100
AcDbCircle
 10
-0.107946
 20
1.312244
 30
0.0
 40
0.339067
  0
CIRCLE
  5
45
100
AcDbEntity
  8
INFO
100
AcDbCircle
 10
0.0
 20
0.0
 30
0.0
 40
1.920194
  0
LINE
  5
46
100
AcDbEntity
  8
INFO
100
AcDbLine
 10
0.411344
 20
0.70683
 30
0.0
 11
-0.700006
 21
0.70683
 31
0.0
  0
LINE
  5
47
100
AcDbEntity
  8
INFO
100
AcDbLine
 10
0.829904
 20
-1.341535
 30
0.0
 11
0.829904
 21
-0.555367
 31
0.0
  0
LINE
  5
48
100
AcDbEntity
  8
INFO
100
AcDbLine
 10
0.829904
 20
-0.555367
 30
0.0
 11
0.411344
 21
-0.555367
 31
0.0
  0
LINE
  5
49
100
AcDbEntity
  8
INFO
100
AcDbLine
 10
0.411344
 20
-0.555367
 30
0.0
 11
0.411344
 21
0.70683
 31
0.0
  0
LINE
  5
4A
100
AcDbEntity
  8
INFO
100
AcDbLine
 10
-0.700006
 20
0.70683
 30
0.0
 11
-0.700006
 21
0.122613
 31
0.0
  0
LINE
  5
4B
100
AcDbEntity
  8
INFO
100
AcDbLine
 10
-0.700006
 20
0.122613
 30
0.0
 11
-0.375261
 21
0.122613
 31
0.0
  0
LINE
  5
4C
100
AcDbEntity
  8
INFO
100
AcDbLine
 10
-0.375261
 20
0.122613
 30
0.0
 11
-0.375261
 21
-0.555367
 31
0.0
  0
LINE
  5
4D
100
AcDbEntity
  8
INFO
100
AcDbLine
 10
-0.375261
 20
-0.555367
 30
0.0
 11
-0.801038
 21
-0.555367
 31
0.0
  0
LINE
  5
4E
100
AcDbEntity
  8
INFO
100
AcDbLine
 10
-0.801038
 20
-0.555367
 30
0.0
 11
-0.801038
 21
-1.341535
 31
0.0
  0
LINE
  5
4F
100
AcDbEntity
  8
INFO
100
AcDbLine
 10
-0.801038
 20
-1.341535
 30
0.0
 11
0.829904
 21
-1.341535
 31
0.0
  0
ATTDEF
  5
50
100
AcDbEntity
  8
INFO
100
AcDbText
 10
0.0
 20
0.0
 30
0.0
 40
1.0
  1
1
100
AcDbAttributeDefinition
  3
Menge
  2
2GENINF
 70
     1
  0
ATTDEF
  5
51
100
AcDbEntity
  8
INFO
100
AcDbText
 10
0.0
 20
-1.5
 30
0.0
 40
1.0
  1

100
AcDbAttributeDefinition
  3
Stücklisten-Name
  2
3GENINF
 70
     1
  0
ATTDEF
  5
52
100
AcDbEntity
  8
INFO
100
AcDbText
 10
0.0
 20
-3.0
 30
0.0
 40
1.0
  1

100
AcDbAttributeDefinition
  3
Stücklisten-Pfad
  2
4GENINF
 70
     1
  0
ATTDEF
  5
53
100
AcDbEntity
  8
INFO
100
AcDbText
 10
0.0
 20
-4.5
 30
0.0
 40
1.0
  1

100
AcDbAttributeDefinition
  3
Beschreibung 1
  2
5GENINF
 70
     1
  0
ATTDEF
  5
54
100
AcDbEntity
  8
INFO
100
AcDbText
 10
0.0
 20
-6.0
 30
0.0
 40
1.0
  1

100
AcDbAttributeDefinition
  3
Beschreibung 2
  2
6GENINF
 70
     1
  0
ATTDEF
  5
55
100
AcDbEntity
  8
INFO
100
AcDbText
 10
0.0
 20
-7.5
 30
0.0
 40
1.0
  1

100
AcDbAttributeDefinition
  3
Norm/Lieferant 1
  2
7GENINF
 70
     1
  0
ATTDEF
  5
56
100
AcDbEntity
  8
INFO
100
AcDbText
 10
0.0
 20
-9.0
 30
0.0
 40
1.0
  1

100
AcDbAttributeDefinition
  3
Norm/Lieferant 2
  2
8GENINF
 70
     1
  0
ATTDEF
  5
57
100
AcDbEntity
  8
INFO
100
AcDbText
 10
0.0
 20
-10.5
 30
0.0
 40
1.0
  1

100
AcDbAttributeDefinition
  3
Material 1
  2
9GENINF
 70
     1
  0
ATTDEF
  5
58
100
AcDbEntity
  8
INFO
100
AcDbText
 10
0.0
 20
-12.0
 30
0.0
 40
1.0
  1

100
AcDbAttributeDefinition
  3
Material 2
  2
10GENINF
 70
     1
  0
ATTDEF
  5
59
100
AcDbEntity
  8
INFO
100
AcDbText
 10
0.0
 20
-13.5
 30
0.0
 40
1.0
  1

100
AcDbAttributeDefinition
  3
Identnummer
  2
11GENINF
 70
     1
  0
ATTDEF
  5
5A
100
AcDbEntity
  8
INFO
100
AcDbText
 10
0.0
 20
-15.0
 30
0.0
 40
1.0
  1

100
AcDbAttributeDefinition
  3
Gewicht
  2
12GENINF
 70
     1
  0
ATTDEF
  5
5B
100
AcDbEntity
  8
INFO
100
AcDbText
 10
0.0
 20
-16.5
 30
0.0
 40
1.0
  1

100
AcDbAttributeDefinition
  3
Preis
  2
13GENINF
 70
     1
  0
ATTDEF
  5
5C
100
AcDbEntity
  8
INFO
100
AcDbText
 10
0.0
 20
-18.0
 30
0.0
 40
1.0
  1

100
AcDbAttributeDefinition
  3
Abmessungen
  2
14GENINF
 70
     1
  0
ATTDEF
  5
5D
100
AcDbEntity
  8
INFO
100
AcDbText
 10
0.0
 20
-19.5
 30
0.0
 40
1.0
  1

100
AcDbAttributeDefinition
  3
User 1
  2
15GENINF
 70
     1
  0
ATTDEF
  5
5E
100
AcDbEntity
  8
INFO
100
AcDbText
 10
0.0
 20
-21.0
 30
0.0
 40
1.0
  1

100
AcDbAttributeDefinition
  3
User 2
  2
16GENINF
 70
     1
  0
ATTDEF
  5
5F
100
AcDbEntity
  8
INFO
100
AcDbText
 10
0.0
 20
-22.5
 30
0.0
 40
1.0
  1

100
AcDbAttributeDefinition
  3
User 3
  2
17GENINF
 70
     1
  0
ATTDEF
  5
60
100
AcDbEntity
  8
INFO
100
AcDbText
 10
0.0
 20
-24.0
 30
0.0
 40
1.0
  1

100
AcDbAttributeDefinition
  3
User 4
  2
18GENINF
 70
     1
  0
ATTDEF
  5
61
100
AcDbEntity
  8
INFO
100
AcDbText
 10
0.0
 20
-25.5
 30
0.0
 40
1.0
  1

100
AcDbAttributeDefinition
  3
User 5
  2
19GENINF
 70
     1
  0
ATTDEF
  5
62
100
AcDbEntity
  8
INFO
100
AcDbText
 10
0.0
 20
-27.0
 30
0.0
 40
1.0
  1

100
AcDbAttributeDefinition
  3
User 6
  2
20GENINF
 70
     1
  0
ATTDEF
  5
63
100
AcDbEntity
  8
INFO
100
AcDbText
 10
0.0
 20
-28.5
 30
0.0
 40
1.0
  1

100
AcDbAttributeDefinition
  3
User 7
  2
21GENINF
 70
     1
  0
ATTDEF
  5
64
100
AcDbEntity
  8
INFO
100
AcDbText
 10
0.0
 20
-30.0
 30
0.0
 40
1.0
  1

100
AcDbAttributeDefinition
  3
User 8
  2
22GENINF
 70
     1
  0
ATTDEF
  5
65
100
AcDbEntity
  8
INFO
100
AcDbText
 10
0.0
 20
-31.5
 30
0.0
 40
1.0
  1

100
AcDbAttributeDefinition
  3
Filter
  2
23GENINF
 70
     1
  0
ATTDEF
  5
66
100
AcDbEntity
  8
INFO
100
AcDbText
 10
0.0
 20
-33.0
 30
0.0
 40
1.0
  1

100
AcDbAttributeDefinition
  3
Bemerkung
  2
24GENINF
 70
     1
  0
ATTDEF
  5
67
100
AcDbEntity
  8
INFO
100
AcDbText
 10
0.0
 20
-34.5
 30
0.0
 40
1.0
  1

100
AcDbAttributeDefinition
  3
Genius Normteile ID
  2
0GENINF
 70
     1
  0
ENDBLK
  5
69
100
AcDbEntity
  8
0
100
AcDbBlockEnd
  0
ENDSEC
  0
SECTION
  2
ENTITIES
  0
POINT
  5
2F01
100
AcDbEntity
  8
0
 60
     1
100
AcDbPoint
 10
0.0
 20
0.0
 30
0.0
1001
GENIUS_GENODEF_13
1002
{
1000
HIER
1070
   200
1002
}
1002
{
1000
MANEDIT
1070
     0
1002
}
1002
{
1000
NOSEL
1070
     0
1002
}
1002
{
1000
BEHIND
1070
     0
1002
}
1002
{
1000
REACTOR
1002
}
1001
GENIUS_GENOBJ-F-PART_13
1002
{
1000
OWNER
1000
GEF
1002
}
1001
GENIUS_GEFSTDP_13
1002
{
1000
DSC
1000
DSC
1002
{
1000
~DESCR
1000
 
1000
~STDRT
1000
(gefmsg "gefcall" 409)
1000
~LOTI
1002
}
1002
}
1002
{
1000
SUG
1000
G
1000
1/4
1002
}
1002
{
1000
KEY
1000
THPF
1002
}
1002
{
1000
INS
1002
{
1040
42.502153
1040
45.302686
1040
0.0
1002
}
1002
}
1002
{
1000
ANG
1040
4.014257
1002
}
1002
{
1000
VCC
1002
{
1000
-LPLOTI=9.999999999999998E+00
1000
$PRE=G
1000
$NM1=1/4
1000
-GRPNAME0MSL5_60_3F-0
1000
-RBDESCR
1000
-RBSTDRT
1000
-RBLOTI
1000
-RBGD1
1000
-V$PV_GENSYSTEM"gef\val\di\0405\di1627_v.dxf"
1000
$VCC_TABLE=$PV_GENSYSTEM"gef\val\di\0405\di1627.val"
1000
$GEF_CDIST=3.000000000000000E+00
1000
$GEF_DRAG=1
1000
$GEF_STANG=2.100000000000000E+02
1000
$GEF_OANG=7.000000000000000E+01
1000
$GEVPROMPTX= Länge: 
1000
$GEF_SNK_ADD=0.000000000000000E+00
1000
$GEF_FLIPX=1
1000
$GEF_FLIPY=1
1000
-GRPNAME1?
1000
-BAML2
1000
$GEF_PROCALC=1
1000
$GEVBHOP=2
1002
}
1002
}
1002
{
1000
LST
1002
{
1002
{
1000
GROUP
1000
0405
1002
}
1002
{
1000
VIEW
1000
V
1002
}
1002
{
1000
SFILE
1000
$PV_GENSYSTEM"gef\val\di\0405\di1627_v.dxf"
1002
}
1002
{
1000
ST1
1000
$PV_GENSYSTEM"gef\val\di\0405\di1627.val"
1002
}
1002
{
1000
GENASSO
1000
 
1002
}
1002
}
1002
}
1002
{
1000
RET
1002
{
1002
{
1000
GD1
1000
11.44477
1002
}
1002
{
1000
LOTI
1000
9.999999999999998E+00
1002
}
1002
{
1000
STDRT
1000
ISO 228 - G 1/4
1002
}
1002
{
1000
DESCR
1000
Rohrgewinde
1002
}
1002
}
1002
}
1002
{
1000
SYSTEM
1040
1.0
1002
}
1002
{
1000
INFEL
1002
{
1002
}
1002
}
1001
GENIUS_GENOENT_13
1002
{
1000
MYREF
1005
2F01
1002
}
1002
{
1000
GRP
1005
0
1002
}
1001
GENIUS_GENOLIS_13
1002
{
1000
ENT
1005
2EFE
1002
}
  0
POINT
  5
2F68
100
AcDbEntity
  8
0
 60
     1
100
AcDbPoint
 10
0.0
 20
0.0
 30
0.0
1001
GENIUS_GENODEF_13
1002
{
1000
HIER
1070
   200
1002
}
1002
{
1000
MANEDIT
1070
     0
1002
}
1002
{
1000
NOSEL
1070
     0
1002
}
1002
{
1000
BEHIND
1070
     0
1002
}
1002
{
1000
REACTOR
1002
}
1001
GENIUS_GENOBJ-F-PART_13
1002
{
1000
OWNER
1000
GEF
1002
}
1001
GENIUS_GEFSTDP_13
1002
{
1000
DSC
1000
DSC
1002
{
1000
~DESCR
1000
 
1000
~STDRT
1002
}
1002
}
1002
{
1000
SUG
1000
G
1000
1/4
1002
}
1002
{
1000
KEY
1000
THPT
1002
}
1002
{
1000
INS
1002
{
1040
209.782286
1040
-126.859649
1040
0.0
1002
}
1002
}
1002
{
1000
ANG
1040
0.0
1002
}
1002
{
1000
VCC
1002
{
1000
$PRE=G
1000
$NM1=1/4
1000
-RBDESCR
1000
-RBSTDRT
1000
-RBGD1
1000
-RBLOTI
1000
-V$PV_GENSYSTEM"gef\val\di\0405\di1627_d.dxf"
1000
$VCC_TABLE=$PV_GENSYSTEM"gef\val\di\0405\di1627.val"
1000
$GEF_CDIST=3.000000000000000E+00
1000
$GEF_DRAG=1
1000
$GEF_STANG=2.100000000000000E+02
1000
$GEF_OANG=7.000000000000000E+01
1000
$GEVPROMPTX= Länge: 
1000
$GEF_SNK_ADD=0.000000000000000E+00
1000
$GEF_FLIPX=1
1000
$GEF_FLIPY=1
1000
-GRPNAME0?
1000
-GRPNAME1?
1000
-BAML2
1000
$GEF_PROCALC=1
1000
$GEVBHOP=2
1002
}
1002
}
1002
{
1000
LST
1002
{
1002
{
1000
GROUP
1000
0405
1002
}
1002
{
1000
VIEW
1000
D
1002
}
1002
{
1000
SFILE
1000
$PV_GENSYSTEM"gef\val\di\0405\di1627_d.dxf"
1002
}
1002
{
1000
ST1
1000
$PV_GENSYSTEM"gef\val\di\0405\di1627.val"
1002
}
1002
{
1000
GENASSO
1000
 
1002
}
1002
}
1002
}
1002
{
1000
RET
1002
{
1002
{
1000
LOTI
1002
}
1002
{
1000
GD1
1000
11.44477
1002
}
1002
{
1000
STDRT
1000
ISO 228 - G 1/4
1002
}
1002
{
1000
DESCR
1000
Rohrgewinde
1002
}
1002
}
1002
}
1002
{
1000
SYSTEM
1040
1.0
1002
}
1002
{
1000
INFEL
1002
{
1002
}
1002
}
1001
GENIUS_GENOENT_13
1002
{
1000
MYREF
1005
2F68
1002
}
1002
{
1000
GRP
1005
0
1002
}
1001
GENIUS_GENOLIS_13
1002
{
1000
ENT
1005
2F66
1002
}
  0
LINE
  5
3A98
100
AcDbEntity
  8
MSL5_60_3F-3
100
AcDbLine
 10
302.782286
 20
269.194889
 30
0.0
 11
297.782286
 21
269.194889
 31
0.0
  0
LINE
  5
3A99
100
AcDbEntity
  8
MSL5_60_3F-7
100
AcDbLine
 10
297.782286
 20
239.194889
 30
0.0
 11
304.922035
 21
239.194889
 31
0.0
  0
CIRCLE
  5
3A9A
100
AcDbEntity
  8
MSL5_60_3F-0
100
AcDbCircle
 10
297.782286
 20
239.194889
 30
0.0
 40
5.0
  0
LINE
  5
3A9B
100
AcDbEntity
  8
MSL5_60_3F-3
100
AcDbLine
 10
297.782286
 20
265.861556
 30
0.0
 11
302.782286
 21
269.194889
 31
0.0
  0
LINE
  5
3A9C
100
AcDbEntity
  8
MSL5_60_3F-7
100
AcDbLine
 10
297.782286
 20
179.194889
 30
0.0
 11
304.871167
 21
179.194889
 31
0.0
  0
CIRCLE
  5
3A9D
100
AcDbEntity
  8
MSL5_60_3F-0
100
AcDbCircle
 10
297.782286
 20
179.194889
 30
0.0
 40
5.0
  0
LINE
  5
3A9E
100
AcDbEntity
  8
MSL5_60_3F-3
100
AcDbLine
 10
297.782286
 20
152.528222
 30
0.0
 11
302.782286
 21
149.194889
 31
0.0
  0
LINE
  5
3A9F
100
AcDbEntity
  8
MSL5_60_3F-3
100
AcDbLine
 10
302.782286
 20
149.194889
 30
0.0
 11
297.782286
 21
149.194889
 31
0.0
  0
LINE
  5
3AA0
100
AcDbEntity
  8
MSL5_60_3F-7
100
AcDbLine
 10
297.782286
 20
-18.566245
 30
0.0
 11
304.922035
 21
-18.566245
 31
0.0
  0
CIRCLE
  5
3AA1
100
AcDbEntity
  8
MSL5_60_3F-0
100
AcDbCircle
 10
297.782286
 20
-18.566245
 30
0.0
 40
5.0
  0
LINE
  5
3AA2
100
AcDbEntity
  8
MSL5_60_3F-7
100
AcDbLine
 10
297.782286
 20
-78.566245
 30
0.0
 11
304.871167
 21
-78.566245
 31
0.0
  0
CIRCLE
  5
3AA3
100
AcDbEntity
  8
MSL5_60_3F-0
100
AcDbCircle
 10
297.782286
 20
-78.566245
 30
0.0
 40
5.0
  0
LINE
  5
3AA4
100
AcDbEntity
  8
MSL5_60_3F-7
100
AcDbLine
 10
297.782286
 20
-196.812121
 30
0.0
 11
304.922035
 21
-196.812121
 31
0.0
  0
CIRCLE
  5
3AA5
100
AcDbEntity
  8
MSL5_60_3F-3
100
AcDbCircle
 10
297.782286
 20
-196.812121
 30
0.0
 40
5.0
  0
LINE
  5
3AA6
100
AcDbEntity
  8
MSL5_60_3F-7
100
AcDbLine
 10
297.782286
 20
-256.812121
 30
0.0
 11
304.871167
 21
-256.812121
 31
0.0
  0
CIRCLE
  5
3AA7
100
AcDbEntity
  8
MSL5_60_3F-3
100
AcDbCircle
 10
297.782286
 20
-256.812121
 30
0.0
 40
5.0
  0
LINE
  5
3AA9
100
AcDbEntity
  8
MSL5_60_3F-0
100
AcDbLine
 10
241.797534
 20
-301.812192
 30
0.0
 11
399.782286
 21
-301.812192
 31
0.0
  0
LINE
  5
3AAA
100
AcDbEntity
  8
MSL5_60_3F-0
100
AcDbLine
 10
243.746965
 20
-300.812121
 30
0.0
 11
399.282286
 21
-300.812121
 31
0.0
  0
LINE
  5
3AAB
100
AcDbEntity
  8
MSL5_60_3F-0
100
AcDbLine
 10
361.282286
 20
-10.566245
 30
0.0
 11
237.932286
 21
-10.566245
 31
0.0
  0
LINE
  5
3AAC
100
AcDbEntity
  8
MSL5_60_3F-4
100
AcDbLine
 10
399.282286
 20
19.264578
 30
0.0
 11
196.282286
 21
19.264578
 31
0.0
  0
LINE
  5
3AAD
100
AcDbEntity
  8
MSL5_60_3F-0
100
AcDbLine
 10
399.282286
 20
71.433755
 30
0.0
 11
196.282286
 21
71.433755
 31
0.0
  0
LINE
  5
3AAE
100
AcDbEntity
  8
MSL5_60_3F-4
100
AcDbLine
 10
196.282286
 20
-214.601418
 30
0.0
 11
399.282286
 21
-214.601418
 31
0.0
  0
LINE
  5
3AAF
100
AcDbEntity
  8
MSL5_60_3F-4
100
AcDbLine
 10
196.282286
 20
-239.022825
 30
0.0
 11
399.282286
 21
-239.022825
 31
0.0
  0
LINE
  5
3AB0
100
AcDbEntity
  8
MSL5_60_3F-0
100
AcDbLine
 10
196.282286
 20
-152.812121
 30
0.0
 11
351.817786
 21
-152.812121
 31
0.0
  0
LINE
  5
3AB1
100
AcDbEntity
  8
MSL5_60_3F-7
100
AcDbLine
 10
254.123046
 20
209.194889
 30
0.0
 11
340.21241
 21
209.194889
 31
0.0
  0
LINE
  5
3AB2
100
AcDbEntity
  8
MSL5_60_3F-0
100
AcDbLine
 10
195.782286
 20
134.194889
 30
0.0
 11
399.782286
 21
134.194889
 31
0.0
  0
LINE
  5
3AB3
100
AcDbEntity
  8
MSL5_60_3F-0
100
AcDbLine
 10
399.782286
 20
284.194889
 30
0.0
 11
195.782286
 21
284.194889
 31
0.0
  0
LINE
  5
3AB4
100
AcDbEntity
  8
MSL5_60_3F-7
100
AcDbLine
 10
254.123046
 20
-48.566245
 30
0.0
 11
340.21241
 21
-48.566245
 31
0.0
  0
LINE
  5
3AB5
100
AcDbEntity
  8
MSL5_60_3F-7
100
AcDbLine
 10
254.123046
 20
-226.812121
 30
0.0
 11
340.21241
 21
-226.812121
 31
0.0
  0
LINE
  5
3AB6
100
AcDbEntity
  8
MSL5_60_3F-0
100
AcDbLine
 10
399.782286
 20
-86.566245
 30
0.0
 11
195.782286
 21
-86.566245
 31
0.0
  0
LINE
  5
3AB7
100
AcDbEntity
  8
MSL5_60_3F-0
100
AcDbLine
 10
195.782286
 20
-151.812192
 30
0.0
 11
353.767038
 21
-151.812192
 31
0.0
  0
LINE
  5
3AB8
100
AcDbEntity
  8
MSL5_60_3F-0
100
AcDbLine
 10
195.782286
 20
-10.566245
 30
0.0
 11
399.782286
 21
-10.566245
 31
0.0
  0
LINE
  5
3AB9
100
AcDbEntity
  8
MSL5_60_3F-0
100
AcDbLine
 10
-13.496279
 20
70.965843
 30
0.0
 11
-73.285575
 21
20.796667
 31
0.0
  0
LINE
  5
3ABA
100
AcDbEntity
  8
MSL5_60_3F-0
100
AcDbLine
 10
-75.0
 20
18.033755
 30
0.0
 11
-12.552112
 21
70.433755
 31
0.0
1001
GENIUS_GENOREF_13
1005
3EC1
  0
LINE
  5
3ABB
100
AcDbEntity
  8
MSL5_60_3F-0
100
AcDbLine
 10
13.496279
 20
70.965843
 30
0.0
 11
73.285575
 21
20.796667
 31
0.0
  0
LINE
  5
3ABC
100
AcDbEntity
  8
MSL5_60_3F-0
100
AcDbLine
 10
12.552112
 20
70.433755
 30
0.0
 11
75.0
 21
18.033755
 31
0.0
1001
GENIUS_GENOREF_13
1005
3EC1
  0
LINE
  5
3ABD
100
AcDbEntity
  8
MSL5_60_3F-0
100
AcDbLine
 10
195.782286
 20
-86.566245
 30
0.0
 11
195.782286
 21
70.433755
 31
0.0
  0
LINE
  5
3ABE
100
AcDbEntity
  8
MSL5_60_3F-0
100
AcDbLine
 10
172.782286
 20
-87.566245
 30
0.0
 11
172.782286
 21
70.433755
 31
0.0
  0
LINE
  5
3ABF
100
AcDbEntity
  8
MSL5_60_3F-0
100
AcDbLine
 10
147.782286
 20
-87.566245
 30
0.0
 11
147.782286
 21
70.433755
 31
0.0
  0
LINE
  5
3AC0
100
AcDbEntity
  8
MSL5_60_3F-0
100
AcDbLine
 10
196.282286
 20
71.433755
 30
0.0
 11
196.282286
 21
-10.566245
 31
0.0
  0
CIRCLE
  5
3AC1
100
AcDbEntity
  8
MSL5_60_3F-0
100
AcDbCircle
 10
30.0
 20
-18.566245
 30
0.0
 40
5.5
  0
LINE
  5
3AC2
100
AcDbEntity
  8
MSL5_60_3F-7
100
AcDbLine
 10
30.0
 20
-18.566245
 30
0.0
 11
18.392047
 21
-18.566245
 31
0.0
  0
CIRCLE
  5
3AC3
100
AcDbEntity
  8
MSL5_60_3F-3
100
AcDbCircle
 10
30.0
 20
-18.566245
 30
0.0
 40
9.0
  0
LINE
  5
3AC4
100
AcDbEntity
  8
MSL5_60_3F-7
100
AcDbLine
 10
30.0
 20
-48.566245
 30
0.0
 11
22.525102
 21
-48.566245
 31
0.0
  0
CIRCLE
  5
3AC5
100
AcDbEntity
  8
MSL5_60_3F-0
100
AcDbCircle
 10
30.0
 20
-48.566245
 30
0.0
 40
5.0
  0
CIRCLE
  5
3AC6
100
AcDbEntity
  8
MSL5_60_3F-0
100
AcDbCircle
 10
30.0
 20
-78.566245
 30
0.0
 40
5.5
  0
LINE
  5
3AC7
100
AcDbEntity
  8
MSL5_60_3F-7
100
AcDbLine
 10
30.0
 20
-78.566245
 30
0.0
 11
18.367745
 21
-78.566245
 31
0.0
  0
ARC
  5
3AC8
100
AcDbEntity
  8
MSL5_60_3F-3
100
AcDbCircle
 10
30.0
 20
-78.566245
 30
0.0
 40
9.0
100
AcDbArc
 50
0.0
 51
179.999998
  0
LINE
  5
3AC9
100
AcDbEntity
  8
MSL5_60_3F-3
100
AcDbLine
 10
-75.0
 20
-10.566245
 30
0.0
 11
75.0
 21
-10.566245
 31
0.0
  0
LINE
  5
3ACA
100
AcDbEntity
  8
MSL5_60_3F-0
100
AcDbLine
 10
-75.0
 20
-87.566245
 30
0.0
 11
75.0
 21
-87.566245
 31
0.0
1001
GENIUS_GENOREF_13
1005
3EC1
  0
LINE
  5
3ACB
100
AcDbEntity
  8
MSL5_60_3F-3
100
AcDbLine
 10
-75.0
 20
-86.566245
 30
0.0
 11
75.0
 21
-86.566245
 31
0.0
  0
LINE
  5
3ACC
100
AcDbEntity
  8
MSL5_60_3F-7
100
AcDbLine
 10
0.0
 20
-48.566245
 30
0.0
 11
0.0
 21
-70.434923
 31
0.0
  0
LINE
  5
3ACD
100
AcDbEntity
  8
MSL5_60_3F-7
100
AcDbLine
 10
-30.0
 20
-48.566245
 30
0.0
 11
-30.0
 21
-56.454458
 31
0.0
  0
LINE
  5
3ACE
100
AcDbEntity
  8
MSL5_60_3F-7
100
AcDbLine
 10
-52.0
 20
-48.566245
 30
0.0
 11
-52.0
 21
-63.137878
 31
0.0
  0
CIRCLE
  5
3ACF
100
AcDbEntity
  8
MSL5_60_3F-0
100
AcDbCircle
 10
-30.0
 20
-48.566245
 30
0.0
 40
5.0
  0
LINE
  5
3AD0
100
AcDbEntity
  8
MSL5_60_3F-0
100
AcDbLine
 10
-75.0
 20
18.033755
 30
0.0
 11
-75.0
 21
-87.566245
 31
0.0
1001
GENIUS_GENOREF_13
1005
3EC1
  0
LINE
  5
3AD1
100
AcDbEntity
  8
MSL5_60_3F-7
100
AcDbLine
 10
-30.0
 20
-78.566245
 30
0.0
 11
-41.826761
 21
-78.566245
 31
0.0
  0
LINE
  5
3AD2
100
AcDbEntity
  8
MSL5_60_3F-3
100
AcDbLine
 10
-75.0
 20
-74.378245
 30
0.0
 11
-52.0
 21
-74.378245
 31
0.0
  0
LINE
  5
3AD3
100
AcDbEntity
  8
MSL5_60_3F-3
100
AcDbLine
 10
-75.0
 20
-82.754245
 30
0.0
 11
-52.0
 21
-82.754245
 31
0.0
  0
LINE
  5
3AD4
100
AcDbEntity
  8
MSL5_60_3F-7
100
AcDbLine
 10
-46.582057
 20
-78.566245
 30
0.0
 11
-78.0
 21
-78.566245
 31
0.0
  0
LINE
  5
3AD5
100
AcDbEntity
  8
MSL5_60_3F-3
100
AcDbLine
 10
-75.0
 20
-73.566245
 30
0.0
 11
-58.0
 21
-73.566245
 31
0.0
  0
LINE
  5
3AD6
100
AcDbEntity
  8
MSL5_60_3F-3
100
AcDbLine
 10
-75.0
 20
-83.566245
 30
0.0
 11
-58.0
 21
-83.566245
 31
0.0
  0
LINE
  5
3AD7
100
AcDbEntity
  8
MSL5_60_3F-3
100
AcDbLine
 10
-49.582057
 20
-78.566245
 30
0.0
 11
-52.0
 21
-82.754245
 31
0.0
  0
LINE
  5
3AD8
100
AcDbEntity
  8
MSL5_60_3F-3
100
AcDbLine
 10
-52.0
 20
-82.754245
 30
0.0
 11
-52.0
 21
-74.378245
 31
0.0
  0
LINE
  5
3AD9
100
AcDbEntity
  8
MSL5_60_3F-3
100
AcDbLine
 10
-58.0
 20
-83.566245
 30
0.0
 11
-58.0
 21
-73.566245
 31
0.0
  0
LINE
  5
3ADA
100
AcDbEntity
  8
MSL5_60_3F-7
100
AcDbLine
 10
-48.0
 20
-59.148303
 30
0.0
 11
-48.0
 21
-89.566245
 31
0.0
  0
LINE
  5
3ADB
100
AcDbEntity
  8
MSL5_60_3F-7
100
AcDbLine
 10
-48.0
 20
-59.148303
 30
0.0
 11
-48.0
 21
-90.566245
 31
0.0
  0
LINE
  5
3ADC
100
AcDbEntity
  8
MSL5_60_3F-3
100
AcDbLine
 10
-43.0
 20
-87.566245
 30
0.0
 11
-43.0
 21
-70.566245
 31
0.0
  0
LINE
  5
3ADD
100
AcDbEntity
  8
MSL5_60_3F-3
100
AcDbLine
 10
-43.0
 20
-87.566245
 30
0.0
 11
-43.0
 21
-70.566245
 31
0.0
  0
LINE
  5
3ADE
100
AcDbEntity
  8
MSL5_60_3F-3
100
AcDbLine
 10
-53.0
 20
-87.566245
 30
0.0
 11
-53.0
 21
-70.566245
 31
0.0
  0
LINE
  5
3ADF
100
AcDbEntity
  8
MSL5_60_3F-3
100
AcDbLine
 10
-53.0
 20
-87.566245
 30
0.0
 11
-53.0
 21
-70.566245
 31
0.0
  0
LINE
  5
3AE0
100
AcDbEntity
  8
MSL5_60_3F-3
100
AcDbLine
 10
-43.812
 20
-87.566245
 30
0.0
 11
-43.812
 21
-64.566245
 31
0.0
  0
LINE
  5
3AE1
100
AcDbEntity
  8
MSL5_60_3F-3
100
AcDbLine
 10
-52.188
 20
-87.566245
 30
0.0
 11
-52.188
 21
-64.566245
 31
0.0
  0
LINE
  5
3AE2
100
AcDbEntity
  8
MSL5_60_3F-3
100
AcDbLine
 10
-52.188
 20
-87.566245
 30
0.0
 11
-52.188
 21
-64.566245
 31
0.0
  0
LINE
  5
3AE3
100
AcDbEntity
  8
MSL5_60_3F-3
100
AcDbLine
 10
-48.0
 20
-62.148303
 30
0.0
 11
-52.188
 21
-64.566245
 31
0.0
  0
LINE
  5
3AE4
100
AcDbEntity
  8
MSL5_60_3F-3
100
AcDbLine
 10
-48.0
 20
-62.148303
 30
0.0
 11
-52.188
 21
-64.566245
 31
0.0
  0
LINE
  5
3AE5
100
AcDbEntity
  8
MSL5_60_3F-3
100
AcDbLine
 10
-48.0
 20
-62.148303
 30
0.0
 11
-43.812
 21
-64.566245
 31
0.0
  0
LINE
  5
3AE6
100
AcDbEntity
  8
MSL5_60_3F-3
100
AcDbLine
 10
-48.0
 20
-62.148303
 30
0.0
 11
-43.812
 21
-64.566245
 31
0.0
  0
LINE
  5
3AE7
100
AcDbEntity
  8
MSL5_60_3F-3
100
AcDbLine
 10
-52.188
 20
-64.566245
 30
0.0
 11
-43.812
 21
-64.566245
 31
0.0
  0
LINE
  5
3AE8
100
AcDbEntity
  8
MSL5_60_3F-3
100
AcDbLine
 10
-52.188
 20
-64.566245
 30
0.0
 11
-43.812
 21
-64.566245
 31
0.0
  0
LINE
  5
3AE9
100
AcDbEntity
  8
MSL5_60_3F-3
100
AcDbLine
 10
-53.0
 20
-70.566245
 30
0.0
 11
-43.0
 21
-70.566245
 31
0.0
  0
LINE
  5
3AEA
100
AcDbEntity
  8
MSL5_60_3F-3
100
AcDbLine
 10
-53.0
 20
-70.566245
 30
0.0
 11
-43.0
 21
-70.566245
 31
0.0
  0
LINE
  5
3AEB
100
AcDbEntity
  8
MSL5_60_3F-3
100
AcDbLine
 10
-49.582057
 20
-78.566245
 30
0.0
 11
-52.0
 21
-74.378245
 31
0.0
  0
LINE
  5
3AEC
100
AcDbEntity
  8
MSL5_60_3F-7
100
AcDbLine
 10
0.0
 20
-78.566245
 30
0.0
 11
-7.864948
 21
-78.566245
 31
0.0
  0
CIRCLE
  5
3AED
100
AcDbEntity
  8
MSL5_60_3F-0
100
AcDbCircle
 10
-30.0
 20
-78.566245
 30
0.0
 40
5.5
  0
LINE
  5
3AEE
100
AcDbEntity
  8
MSL5_60_3F-3
100
AcDbLine
 10
-21.0
 20
-87.566245
 30
0.0
 11
-21.0
 21
-78.566245
 31
0.0
  0
LINE
  5
3AEF
100
AcDbEntity
  8
MSL5_60_3F-7
100
AcDbLine
 10
-30.0
 20
-78.566245
 30
0.0
 11
-30.0
 21
-89.566245
 31
0.0
  0
LINE
  5
3AF0
100
AcDbEntity
  8
MSL5_60_3F-3
100
AcDbLine
 10
-39.0
 20
-78.566245
 30
0.0
 11
-39.0
 21
-87.566245
 31
0.0
  0
LINE
  5
3AF1
100
AcDbEntity
  8
MSL5_60_3F-7
100
AcDbLine
 10
-30.0
 20
-78.566245
 30
0.0
 11
-18.173239
 21
-78.566245
 31
0.0
  0
ARC
  5
3AF2
100
AcDbEntity
  8
MSL5_60_3F-3
100
AcDbCircle
 10
-30.0
 20
-78.566245
 30
0.0
 40
9.0
100
AcDbArc
 50
0.0
 51
179.999998
  0
LINE
  5
3AF3
100
AcDbEntity
  8
MSL5_60_3F-7
100
AcDbLine
 10
-30.0
 20
-78.566245
 30
0.0
 11
-30.0
 21
-66.739484
 31
0.0
  0
CIRCLE
  5
3AF4
100
AcDbEntity
  8
MSL5_60_3F-0
100
AcDbCircle
 10
0.0
 20
-78.566245
 30
0.0
 40
5.0
  0
LINE
  5
3AF5
100
AcDbEntity
  8
MSL5_60_3F-3
100
AcDbLine
 10
21.0
 20
-87.566245
 30
0.0
 11
21.0
 21
-78.566245
 31
0.0
  0
LINE
  5
3AF6
100
AcDbEntity
  8
MSL5_60_3F-7
100
AcDbLine
 10
0.0
 20
-78.566245
 30
0.0
 11
0.0
 21
-86.431194
 31
0.0
  0
LINE
  5
3AF7
100
AcDbEntity
  8
MSL5_60_3F-7
100
AcDbLine
 10
0.0
 20
-78.566245
 30
0.0
 11
7.864948
 21
-78.566245
 31
0.0
  0
LINE
  5
3AF8
100
AcDbEntity
  8
MSL5_60_3F-7
100
AcDbLine
 10
0.0
 20
-78.566245
 30
0.0
 11
0.0
 21
-70.701297
 31
0.0
  0
LINE
  5
3AF9
100
AcDbEntity
  8
MSL5_60_3F-7
100
AcDbLine
 10
-45.082626
 20
48.377973
 30
0.0
 11
-34.798024
 21
36.121262
 31
0.0
  0
LINE
  5
3AFA
100
AcDbEntity
  8
MSL5_60_3F-7
100
AcDbLine
 10
-30.0
 20
-18.566245
 30
0.0
 11
-41.607953
 21
-18.566245
 31
0.0
  0
LINE
  5
3AFB
100
AcDbEntity
  8
MSL5_60_3F-7
100
AcDbLine
 10
-52.0
 20
-48.566245
 30
0.0
 11
-37.428367
 21
-48.566245
 31
0.0
  0
LINE
  5
3AFC
100
AcDbEntity
  8
MSL5_60_3F-3
100
AcDbLine
 10
-74.0
 20
18.872854
 30
0.0
 11
-74.0
 21
-10.566245
 31
0.0
1001
GENIUS_GENBH_13
1002
{
1000
OE
1000
CON1
1002
}
1001
GENIUS_GENOREF_13
1005
3EC0
  0
LINE
  5
3AFD
100
AcDbEntity
  8
MSL5_60_3F-7
100
AcDbLine
 10
-81.788719
 20
1.433779
 30
0.0
 11
-70.595992
 21
1.433786
 31
0.0
  0
LINE
  5
3AFE
100
AcDbEntity
  8
MSL5_60_3F-3
100
AcDbLine
 10
-75.0
 20
-23.566245
 30
0.0
 11
-58.0
 21
-23.566245
 31
0.0
  0
LINE
  5
3AFF
100
AcDbEntity
  8
MSL5_60_3F-3
100
AcDbLine
 10
-75.0
 20
-13.566245
 30
0.0
 11
-58.0
 21
-13.566245
 31
0.0
  0
LINE
  5
3B00
100
AcDbEntity
  8
MSL5_60_3F-7
100
AcDbLine
 10
-46.582057
 20
-18.566245
 30
0.0
 11
-78.0
 21
-18.566245
 31
0.0
  0
LINE
  5
3B01
100
AcDbEntity
  8
MSL5_60_3F-3
100
AcDbLine
 10
-75.0
 20
-22.754245
 30
0.0
 11
-52.0
 21
-22.754245
 31
0.0
  0
LINE
  5
3B02
100
AcDbEntity
  8
MSL5_60_3F-3
100
AcDbLine
 10
-75.0
 20
-14.378245
 30
0.0
 11
-52.0
 21
-14.378245
 31
0.0
  0
LINE
  5
3B03
100
AcDbEntity
  8
MSL5_60_3F-0
100
AcDbLine
 10
-77.499978
 20
6.932442
 30
0.0
 11
-75.0
 21
6.932443
 31
0.0
  0
ARC
  5
3B04
100
AcDbEntity
  8
MSL5_60_3F-0
100
AcDbCircle
 10
-77.499977
 20
5.432442
 30
0.0
 40
1.5
100
AcDbArc
 50
90.000038
 51
180.000041
  0
LINE
  5
3B05
100
AcDbEntity
  8
MSL5_60_3F-0
100
AcDbLine
 10
-75.0
 20
-4.067557
 30
0.0
 11
-77.49997
 21
-4.067558
 31
0.0
  0
ARC
  5
3B06
100
AcDbEntity
  8
MSL5_60_3F-0
100
AcDbCircle
 10
-77.499971
 20
-2.567558
 30
0.0
 40
1.5
100
AcDbArc
 50
180.000041
 51
270.00004
  0
LINE
  5
3B07
100
AcDbEntity
  8
MSL5_60_3F-0
100
AcDbLine
 10
-78.999971
 20
-2.567559
 30
0.0
 11
-78.999977
 21
5.432441
 31
0.0
  0
LINE
  5
3B08
100
AcDbEntity
  8
MSL5_60_3F-3
100
AcDbLine
 10
-49.582057
 20
-18.566245
 30
0.0
 11
-52.0
 21
-22.754245
 31
0.0
  0
LINE
  5
3B09
100
AcDbEntity
  8
MSL5_60_3F-3
100
AcDbLine
 10
-52.0
 20
-22.754245
 30
0.0
 11
-52.0
 21
-14.378245
 31
0.0
  0
LINE
  5
3B0A
100
AcDbEntity
  8
MSL5_60_3F-3
100
AcDbLine
 10
-58.0
 20
-23.566245
 30
0.0
 11
-58.0
 21
-13.566245
 31
0.0
  0
LINE
  5
3B0B
100
AcDbEntity
  8
MSL5_60_3F-7
100
AcDbLine
 10
-52.0
 20
-48.566245
 30
0.0
 11
-66.571633
 21
-48.566245
 31
0.0
  0
LINE
  5
3B0C
100
AcDbEntity
  8
MSL5_60_3F-7
100
AcDbLine
 10
-52.0
 20
-48.566245
 30
0.0
 11
-52.0
 21
-33.994613
 31
0.0
  0
LINE
  5
3B0D
100
AcDbEntity
  8
MSL5_60_3F-3
100
AcDbLine
 10
-49.582057
 20
-18.566245
 30
0.0
 11
-52.0
 21
-14.378245
 31
0.0
  0
LINE
  5
3B0E
100
AcDbEntity
  8
MSL5_60_3F-3
100
AcDbLine
 10
-72.838105
 20
19.866732
 30
0.0
 11
-73.470403
 21
20.620275
 31
0.0
  0
LINE
  5
3B0F
100
AcDbEntity
  8
MSL5_60_3F-0
100
AcDbLine
 10
-74.843072
 20
22.100586
 30
0.0
 11
-66.416583
 21
29.17125
 31
0.0
  0
ARC
  5
3B10
100
AcDbEntity
  8
MSL5_60_3F-0
100
AcDbCircle
 10
-72.0
 20
19.264578
 30
0.0
 40
2.0
100
AcDbArc
 50
130.0
 51
180.0
1001
GENIUS_GENODEF_13
1002
{
1000
HIER
1070
     0
1002
}
1002
{
1000
MANEDIT
1070
     0
1002
}
1002
{
1000
NOSEL
1070
     0
1002
}
1002
{
1000
BEHIND
1070
     0
1002
}
1002
{
1000
REACTOR
1002
}
1001
GENIUS_GENOBJ-N-FIL_13
1002
{
1000
OWNER
1000
GEN
1002
}
  0
LINE
  5
3B11
100
AcDbEntity
  8
MSL5_60_3F-7
100
AcDbLine
 10
-81.788719
 20
15.433779
 30
0.0
 11
-70.595992
 21
15.433786
 31
0.0
  0
LINE
  5
3B12
100
AcDbEntity
  8
MSL5_60_3F-0
100
AcDbLine
 10
-74.0
 20
20.932444
 30
0.0
 11
-74.0
 21
19.264578
 31
0.0
  0
LINE
  5
3B13
100
AcDbEntity
  8
MSL5_60_3F-0
100
AcDbLine
 10
-74.0
 20
19.264578
 30
0.0
 11
-74.0
 21
18.872854
 31
0.0
1001
GENIUS_GENOREF_13
1005
3EC0
  0
ARC
  5
3B14
100
AcDbEntity
  8
MSL5_60_3F-0
100
AcDbCircle
 10
-77.499977
 20
19.432442
 30
0.0
 40
1.5
100
AcDbArc
 50
90.000038
 51
180.000041
  0
LINE
  5
3B15
100
AcDbEntity
  8
MSL5_60_3F-0
100
AcDbLine
 10
-77.499978
 20
20.932442
 30
0.0
 11
-74.0
 21
20.932444
 31
0.0
  0
LINE
  5
3B16
100
AcDbEntity
  8
MSL5_60_3F-0
100
AcDbLine
 10
-73.557497
 20
20.568498
 30
0.0
 11
-74.843072
 21
22.100586
 31
0.0
  0
ARC
  5
3B17
100
AcDbEntity
  8
MSL5_60_3F-0
100
AcDbCircle
 10
-77.499971
 20
11.432442
 30
0.0
 40
1.5
100
AcDbArc
 50
180.000041
 51
270.00004
  0
LINE
  5
3B18
100
AcDbEntity
  8
MSL5_60_3F-0
100
AcDbLine
 10
-75.0
 20
9.932443
 30
0.0
 11
-77.49997
 21
9.932442
 31
0.0
  0
LINE
  5
3B19
100
AcDbEntity
  8
MSL5_60_3F-0
100
AcDbLine
 10
-78.999971
 20
11.432441
 30
0.0
 11
-78.999977
 21
19.432441
 31
0.0
  0
LINE
  5
3B1A
100
AcDbEntity
  8
MSL5_60_3F-0
100
AcDbLine
 10
-50.937964
 20
38.243132
 30
0.0
 11
-51.580752
 21
39.009176
 31
0.0
  0
LINE
  5
3B1B
100
AcDbEntity
  8
MSL5_60_3F-3
100
AcDbLine
 10
-47.537864
 20
42.401562
 30
0.0
 11
-41.109988
 21
34.741117
 31
0.0
  0
LINE
  5
3B1C
100
AcDbEntity
  8
MSL5_60_3F-3
100
AcDbLine
 10
-48.193686
 20
41.851262
 30
0.0
 11
-41.76581
 21
34.190817
 31
0.0
  0
LINE
  5
3B1D
100
AcDbEntity
  8
MSL5_60_3F-7
100
AcDbLine
 10
-73.301727
 20
28.820164
 30
0.0
 11
-68.331701
 21
22.897118
 31
0.0
  0
LINE
  5
3B1E
100
AcDbEntity
  8
MSL5_60_3F-3
100
AcDbLine
 10
-64.564825
 20
26.808838
 30
0.0
 11
-65.207612
 21
27.574883
 31
0.0
  0
LINE
  5
3B1F
100
AcDbEntity
  8
MSL5_60_3F-0
100
AcDbLine
 10
-69.097739
 20
26.921494
 30
0.0
 11
-72.365354
 21
27.704238
 31
0.0
  0
LINE
  5
3B20
100
AcDbEntity
  8
MSL5_60_3F-0
100
AcDbLine
 10
-72.365354
 20
27.704238
 30
0.0
 11
-72.161916
 21
24.350343
 31
0.0
  0
LINE
  5
3B21
100
AcDbEntity
  8
MSL5_60_3F-0
100
AcDbLine
 10
-66.416583
 20
29.17125
 30
0.0
 11
-65.131008
 21
27.639161
 31
0.0
  0
LINE
  5
3B22
100
AcDbEntity
  8
MSL5_60_3F-7
100
AcDbLine
 10
0.0
 20
-18.566245
 30
0.0
 11
-7.864948
 21
-18.566245
 31
0.0
  0
LINE
  5
3B23
100
AcDbEntity
  8
MSL5_60_3F-7
100
AcDbLine
 10
0.0
 20
-48.566245
 30
0.0
 11
-21.868677
 21
-48.566245
 31
0.0
  0
LINE
  5
3B24
100
AcDbEntity
  8
MSL5_60_3F-7
100
AcDbLine
 10
-30.0
 20
-18.566245
 30
0.0
 11
-30.0
 21
-30.174198
 31
0.0
  0
CIRCLE
  5
3B25
100
AcDbEntity
  8
MSL5_60_3F-3
100
AcDbCircle
 10
-30.0
 20
-18.566245
 30
0.0
 40
9.0
  0
CIRCLE
  5
3B26
100
AcDbEntity
  8
MSL5_60_3F-0
100
AcDbCircle
 10
-30.0
 20
-18.566245
 30
0.0
 40
5.5
  0
LINE
  5
3B27
100
AcDbEntity
  8
MSL5_60_3F-7
100
AcDbLine
 10
-30.0
 20
-48.566245
 30
0.0
 11
-22.111787
 21
-48.566245
 31
0.0
  0
LINE
  5
3B28
100
AcDbEntity
  8
MSL5_60_3F-7
100
AcDbLine
 10
-30.0
 20
-48.566245
 30
0.0
 11
-37.888213
 21
-48.566245
 31
0.0
  0
LINE
  5
3B29
100
AcDbEntity
  8
MSL5_60_3F-7
100
AcDbLine
 10
-30.0
 20
-48.566245
 30
0.0
 11
-30.0
 21
-40.678033
 31
0.0
  0
LINE
  5
3B2A
100
AcDbEntity
  8
MSL5_60_3F-7
100
AcDbLine
 10
-30.0
 20
-18.566245
 30
0.0
 11
-18.392047
 21
-18.566245
 31
0.0
  0
LINE
  5
3B2B
100
AcDbEntity
  8
MSL5_60_3F-7
100
AcDbLine
 10
-30.0
 20
-18.566245
 30
0.0
 11
-30.0
 21
-6.958293
 31
0.0
  0
LINE
  5
3B2C
100
AcDbEntity
  8
MSL5_60_3F-7
100
AcDbLine
 10
0.0
 20
-18.566245
 30
0.0
 11
0.0
 21
-26.431194
 31
0.0
  0
CIRCLE
  5
3B2D
100
AcDbEntity
  8
MSL5_60_3F-0
100
AcDbCircle
 10
0.0
 20
-18.566245
 30
0.0
 40
5.0
  0
LINE
  5
3B2E
100
AcDbEntity
  8
MSL5_60_3F-7
100
AcDbLine
 10
0.0
 20
-48.566245
 30
0.0
 11
21.868677
 21
-48.566245
 31
0.0
  0
LINE
  5
3B2F
100
AcDbEntity
  8
MSL5_60_3F-7
100
AcDbLine
 10
0.0
 20
-48.566245
 30
0.0
 11
0.0
 21
-26.697568
 31
0.0
  0
LINE
  5
3B30
100
AcDbEntity
  8
MSL5_60_3F-7
100
AcDbLine
 10
0.0
 20
-18.566245
 30
0.0
 11
7.864948
 21
-18.566245
 31
0.0
  0
LINE
  5
3B31
100
AcDbEntity
  8
MSL5_60_3F-7
100
AcDbLine
 10
0.0
 20
-18.566245
 30
0.0
 11
0.0
 21
-10.701297
 31
0.0
  0
MTEXT
  5
3B32
100
AcDbEntity
  8
MSL5_60_3F-6
100
AcDbMText
 10
-10.082601
 20
19.828052
 30
0.0
 40
3.5
 41
22.192126
 71
     1
 72
     1
  1
{MSL5-60-3F}
  0
LINE
  5
3B33
100
AcDbEntity
  8
MSL5_60_3F-7
100
AcDbLine
 10
0.0
 20
44.433755
 30
0.0
 11
-14.571633
 21
44.433755
 31
0.0
  0
LINE
  5
3B34
100
AcDbEntity
  8
MSL5_60_3F-0
100
AcDbLine
 10
-34.084986
 20
52.384459
 30
0.0
 11
-34.727774
 21
53.150504
 31
0.0
  0
LINE
  5
3B35
100
AcDbEntity
  8
MSL5_60_3F-3
100
AcDbLine
 10
-38.770662
 20
49.758118
 30
0.0
 11
-32.342786
 21
42.097674
 31
0.0
  0
LINE
  5
3B36
100
AcDbEntity
  8
MSL5_60_3F-3
100
AcDbLine
 10
-38.114839
 20
50.308418
 30
0.0
 11
-31.686963
 21
42.647974
 31
0.0
  0
LINE
  5
3B37
100
AcDbEntity
  8
MSL5_60_3F-7
100
AcDbLine
 10
0.0
 20
44.433755
 30
0.0
 11
0.0
 21
29.862122
 31
0.0
  0
LINE
  5
3B38
100
AcDbEntity
  8
MSL5_60_3F-7
100
AcDbLine
 10
0.0
 20
44.433755
 30
0.0
 11
14.571633
 21
44.433755
 31
0.0
  0
LINE
  5
3B39
100
AcDbEntity
  8
MSL5_60_3F-7
100
AcDbLine
 10
0.0
 20
44.433755
 30
0.0
 11
0.0
 21
59.005387
 31
0.0
  0
LINE
  5
3B3A
100
AcDbEntity
  8
MSL5_60_3F-0
100
AcDbLine
 10
196.282286
 20
-175.231369
 30
0.0
 11
196.282286
 21
-152.812121
 31
0.0
  0
ARC
  5
3B3B
100
AcDbEntity
  8
MSL5_60_3F-0
100
AcDbCircle
 10
190.676036
 20
-165.821811
 30
0.0
 40
5.10625
100
AcDbArc
 50
302.004628
 51
57.995372
  0
ARC
  5
3B3C
100
AcDbEntity
  8
MSL5_60_3F-0
100
AcDbCircle
 10
192.888536
 20
-165.821811
 30
0.0
 40
5.10625
100
AcDbArc
 50
122.004627
 51
237.995373
  0
LINE
  5
3B3D
100
AcDbEntity
  8
MSL5_60_3F-0
100
AcDbLine
 10
173.782286
 20
-167.312192
 30
0.0
 11
172.782286
 21
-168.312192
 31
0.0
  0
LINE
  5
3B3E
100
AcDbEntity
  8
MSL5_60_3F-3
100
AcDbLine
 10
160.782286
 20
-151.812121
 30
0.0
 11
160.782286
 21
-168.812121
 31
0.0
  0
LINE
  5
3B3F
100
AcDbEntity
  8
MSL5_60_3F-3
100
AcDbLine
 10
159.970286
 20
-151.812121
 30
0.0
 11
159.970286
 21
-174.812121
 31
0.0
  0
LINE
  5
3B40
100
AcDbEntity
  8
MSL5_60_3F-3
100
AcDbLine
 10
150.782286
 20
-151.812121
 30
0.0
 11
150.782286
 21
-168.812121
 31
0.0
  0
LINE
  5
3B41
100
AcDbEntity
  8
MSL5_60_3F-3
100
AcDbLine
 10
151.594286
 20
-151.812121
 30
0.0
 11
151.594286
 21
-174.812121
 31
0.0
  0
LINE
  5
3B42
100
AcDbEntity
  8
MSL5_60_3F-7
100
AcDbLine
 10
155.782286
 20
-180.230064
 30
0.0
 11
155.782286
 21
-148.812121
 31
0.0
  0
LINE
  5
3B43
100
AcDbEntity
  8
MSL5_60_3F-0
100
AcDbLine
 10
186.282286
 20
-190.312192
 30
0.0
 11
186.282286
 21
-167.312192
 31
0.0
  0
LINE
  5
3B44
100
AcDbEntity
  8
MSL5_60_3F-0
100
AcDbLine
 10
187.282286
 20
-167.312192
 30
0.0
 11
187.282286
 21
-190.312192
 31
0.0
  0
LINE
  5
3B45
100
AcDbEntity
  8
MSL5_60_3F-0
100
AcDbLine
 10
173.782286
 20
-167.312192
 30
0.0
 11
173.782286
 21
-190.312192
 31
0.0
  0
LINE
  5
3B46
100
AcDbEntity
  8
MSL5_60_3F-0
100
AcDbLine
 10
195.782286
 20
-301.812192
 30
0.0
 11
195.782286
 21
-151.812192
 31
0.0
  0
LINE
  5
3B47
100
AcDbEntity
  8
MSL5_60_3F-0
100
AcDbLine
 10
195.782286
 20
-165.821811
 30
0.0
 11
195.782286
 21
-191.802574
 31
0.0
  0
LINE
  5
3B48
100
AcDbEntity
  8
MSL5_60_3F-0
100
AcDbLine
 10
187.782286
 20
-165.821811
 30
0.0
 11
187.782286
 21
-191.802574
 31
0.0
  0
LINE
  5
3B49
100
AcDbEntity
  8
MSL5_60_3F-0
100
AcDbLine
 10
172.782286
 20
-301.812192
 30
0.0
 11
172.782286
 21
-151.812192
 31
0.0
  0
LINE
  5
3B4A
100
AcDbEntity
  8
MSL5_60_3F-0
100
AcDbLine
 10
147.782286
 20
-151.812192
 30
0.0
 11
147.782286
 21
-301.812192
 31
0.0
  0
CIRCLE
  5
3B4B
100
AcDbEntity
  8
MSL5_60_3F-3
100
AcDbCircle
 10
164.782286
 20
-178.812121
 30
0.0
 40
4.188
  0
ARC
  5
3B4C
100
AcDbEntity
  8
MSL5_60_3F-3
100
AcDbCircle
 10
164.782286
 20
-178.812121
 30
0.0
 40
5.0
100
AcDbArc
 50
280.0
 51
210.0
  0
LINE
  5
3B4D
100
AcDbEntity
  8
MSL5_60_3F-7
100
AcDbLine
 10
204.787278
 20
-174.812192
 30
0.0
 11
164.612224
 21
-174.812192
 31
0.0
  0
LINE
  5
3B4E
100
AcDbEntity
  8
MSL5_60_3F-7
100
AcDbLine
 10
156.782286
 20
-178.812121
 30
0.0
 11
172.782286
 21
-178.812121
 31
0.0
  0
LINE
  5
3B4F
100
AcDbEntity
  8
MSL5_60_3F-3
100
AcDbLine
 10
172.782286
 20
-247.812121
 30
0.0
 11
165.782286
 21
-247.812121
 31
0.0
  0
CIRCLE
  5
3B50
100
AcDbEntity
  8
MSL5_60_3F-3
100
AcDbCircle
 10
164.782286
 20
-274.812121
 30
0.0
 40
4.188
  0
ARC
  5
3B51
100
AcDbEntity
  8
MSL5_60_3F-3
100
AcDbCircle
 10
164.782286
 20
-274.812121
 30
0.0
 40
5.0
100
AcDbArc
 50
280.0
 51
210.0
  0
LINE
  5
3B52
100
AcDbEntity
  8
MSL5_60_3F-3
100
AcDbLine
 10
165.782286
 20
-265.812121
 30
0.0
 11
172.782286
 21
-265.812121
 31
0.0
  0
LINE
  5
3B53
100
AcDbEntity
  8
MSL5_60_3F-7
100
AcDbLine
 10
204.787278
 20
-278.812192
 30
0.0
 11
164.612224
 21
-278.812192
 31
0.0
  0
LINE
  5
3B54
100
AcDbEntity
  8
MSL5_60_3F-0
100
AcDbLine
 10
147.782286
 20
-239.364304
 30
0.0
 11
172.782286
 21
-239.364304
 31
0.0
  0
LINE
  5
3B55
100
AcDbEntity
  8
MSL5_60_3F-0
100
AcDbLine
 10
147.782286
 20
-214.26008
 30
0.0
 11
172.782286
 21
-214.26008
 31
0.0
  0
LINE
  5
3B56
100
AcDbEntity
  8
MSL5_60_3F-7
100
AcDbLine
 10
174.782286
 20
-196.812121
 30
0.0
 11
145.782286
 21
-196.812121
 31
0.0
  0
LINE
  5
3B57
100
AcDbEntity
  8
MSL5_60_3F-3
100
AcDbLine
 10
172.782286
 20
-191.812121
 30
0.0
 11
147.782286
 21
-191.812121
 31
0.0
  0
LINE
  5
3B58
100
AcDbEntity
  8
MSL5_60_3F-3
100
AcDbLine
 10
172.782286
 20
-201.812121
 30
0.0
 11
147.782286
 21
-201.812121
 31
0.0
  0
LINE
  5
3B59
100
AcDbEntity
  8
MSL5_60_3F-7
100
AcDbLine
 10
156.782286
 20
-274.812121
 30
0.0
 11
172.782286
 21
-274.812121
 31
0.0
  0
LINE
  5
3B5A
100
AcDbEntity
  8
MSL5_60_3F-7
100
AcDbLine
 10
174.782286
 20
-256.812121
 30
0.0
 11
145.782286
 21
-256.812121
 31
0.0
  0
LINE
  5
3B5B
100
AcDbEntity
  8
MSL5_60_3F-0
100
AcDbLine
 10
147.782286
 20
-301.812192
 30
0.0
 11
172.782286
 21
-301.812192
 31
0.0
  0
LINE
  5
3B5C
100
AcDbEntity
  8
MSL5_60_3F-7
100
AcDbLine
 10
144.782286
 20
-226.812192
 30
0.0
 11
204.972948
 21
-226.812192
 31
0.0
1001
GENIUS_GENOREF_13
1005
3EBF
  0
LINE
  5
3B5D
100
AcDbEntity
  8
MSL5_60_3F-3
100
AcDbLine
 10
159.970286
 20
-301.812121
 30
0.0
 11
159.970286
 21
-278.812121
 31
0.0
  0
LINE
  5
3B5E
100
AcDbEntity
  8
MSL5_60_3F-3
100
AcDbLine
 10
160.782286
 20
-301.812121
 30
0.0
 11
160.782286
 21
-284.812121
 31
0.0
  0
LINE
  5
3B5F
100
AcDbEntity
  8
MSL5_60_3F-3
100
AcDbLine
 10
151.594286
 20
-301.812121
 30
0.0
 11
151.594286
 21
-278.812121
 31
0.0
  0
LINE
  5
3B60
100
AcDbEntity
  8
MSL5_60_3F-7
100
AcDbLine
 10
155.782286
 20
-273.394178
 30
0.0
 11
155.782286
 21
-304.812121
 31
0.0
  0
LINE
  5
3B61
100
AcDbEntity
  8
MSL5_60_3F-3
100
AcDbLine
 10
150.782286
 20
-301.812121
 30
0.0
 11
150.782286
 21
-284.812121
 31
0.0
  0
LINE
  5
3B62
100
AcDbEntity
  8
MSL5_60_3F-3
100
AcDbLine
 10
165.782286
 20
-247.812121
 30
0.0
 11
165.782286
 21
-265.812121
 31
0.0
  0
LINE
  5
3B63
100
AcDbEntity
  8
MSL5_60_3F-3
100
AcDbLine
 10
165.782286
 20
-262.312121
 30
0.0
 11
147.782286
 21
-262.312121
 31
0.0
  0
LINE
  5
3B64
100
AcDbEntity
  8
MSL5_60_3F-7
100
AcDbLine
 10
164.782286
 20
-282.812192
 30
0.0
 11
164.782286
 21
-266.812192
 31
0.0
  0
LINE
  5
3B65
100
AcDbEntity
  8
MSL5_60_3F-3
100
AcDbLine
 10
155.782286
 20
-276.394178
 30
0.0
 11
159.970286
 21
-278.812121
 31
0.0
  0
LINE
  5
3B66
100
AcDbEntity
  8
MSL5_60_3F-3
100
AcDbLine
 10
159.970286
 20
-278.812121
 30
0.0
 11
151.594286
 21
-278.812121
 31
0.0
  0
LINE
  5
3B67
100
AcDbEntity
  8
MSL5_60_3F-3
100
AcDbLine
 10
160.782286
 20
-284.812121
 30
0.0
 11
150.782286
 21
-284.812121
 31
0.0
  0
LINE
  5
3B68
100
AcDbEntity
  8
MSL5_60_3F-3
100
AcDbLine
 10
155.782286
 20
-276.394178
 30
0.0
 11
151.594286
 21
-278.812121
 31
0.0
  0
LINE
  5
3B69
100
AcDbEntity
  8
MSL5_60_3F-3
100
AcDbLine
 10
165.782286
 20
-251.312121
 30
0.0
 11
147.782286
 21
-251.312121
 31
0.0
  0
LINE
  5
3B6A
100
AcDbEntity
  8
MSL5_60_3F-7
100
AcDbLine
 10
164.782286
 20
-186.812121
 30
0.0
 11
164.782286
 21
-170.812121
 31
0.0
  0
LINE
  5
3B6B
100
AcDbEntity
  8
MSL5_60_3F-3
100
AcDbLine
 10
150.782286
 20
-168.812121
 30
0.0
 11
160.782286
 21
-168.812121
 31
0.0
  0
LINE
  5
3B6C
100
AcDbEntity
  8
MSL5_60_3F-3
100
AcDbLine
 10
155.782286
 20
-177.230064
 30
0.0
 11
159.970286
 21
-174.812121
 31
0.0
  0
LINE
  5
3B6D
100
AcDbEntity
  8
MSL5_60_3F-3
100
AcDbLine
 10
159.970286
 20
-174.812121
 30
0.0
 11
151.594286
 21
-174.812121
 31
0.0
  0
LINE
  5
3B6E
100
AcDbEntity
  8
MSL5_60_3F-3
100
AcDbLine
 10
155.782286
 20
-177.230064
 30
0.0
 11
151.594286
 21
-174.812121
 31
0.0
  0
ARC
  5
3B6F
100
AcDbEntity
  8
MSL5_60_3F-0
100
AcDbCircle
 10
190.220121
 20
-284.441358
 30
0.0
 40
2.562165
100
AcDbArc
 50
312.916664
 51
47.083336
  0
ARC
  5
3B70
100
AcDbEntity
  8
MSL5_60_3F-0
100
AcDbCircle
 10
195.890967
 20
-286.173408
 30
0.0
 40
3.108681
100
AcDbArc
 50
127.878142
 51
232.121858
  0
LINE
  5
3B71
100
AcDbEntity
  8
MSL5_60_3F-0
100
AcDbLine
 10
192.782286
 20
-286.173408
 30
0.0
 11
192.782286
 21
-271.450977
 31
0.0
  0
LINE
  5
3B72
100
AcDbEntity
  8
MSL5_60_3F-0
100
AcDbLine
 10
188.782286
 20
-271.306639
 30
0.0
 11
188.782286
 21
-286.317746
 31
0.0
  0
ARC
  5
3B73
100
AcDbEntity
  8
MSL5_60_3F-0
100
AcDbCircle
 10
175.075342
 20
-284.441358
 30
0.0
 40
2.293056
100
AcDbArc
 50
125.085847
 51
234.914153
  0
ARC
  5
3B74
100
AcDbEntity
  8
MSL5_60_3F-0
100
AcDbCircle
 10
174.48923
 20
-284.441358
 30
0.0
 40
2.293056
100
AcDbArc
 50
305.085848
 51
54.914152
  0
LINE
  5
3B75
100
AcDbEntity
  8
MSL5_60_3F-0
100
AcDbLine
 10
196.282286
 20
-300.812121
 30
0.0
 11
196.282286
 21
-192.084347
 31
0.0
  0
LINE
  5
3B76
100
AcDbEntity
  8
MSL5_60_3F-0
100
AcDbLine
 10
232.280946
 20
-306.312186
 30
0.0
 11
240.280946
 21
-306.312191
 31
0.0
  0
LINE
  5
3B77
100
AcDbEntity
  8
MSL5_60_3F-7
100
AcDbLine
 10
231.282286
 20
-297.891973
 30
0.0
 11
248.282286
 21
-297.891959
 31
0.0
1001
GENIUS_GENODEF_13
1002
{
1000
HIER
1070
     0
1002
}
1002
{
1000
MANEDIT
1070
     0
1002
}
1002
{
1000
NOSEL
1070
     0
1002
}
1002
{
1000
BEHIND
1070
     0
1002
}
1002
{
1000
REACTOR
1002
}
1001
GENIUS_GENOBJ-N-CEN_13
1002
{
1000
OWNER
1000
GEN
1002
}
  0
LINE
  5
3B78
100
AcDbEntity
  8
MSL5_60_3F-0
100
AcDbLine
 10
196.282286
 20
-300.812121
 30
0.0
 11
235.817607
 21
-300.812121
 31
0.0
  0
LINE
  5
3B79
100
AcDbEntity
  8
MSL5_60_3F-0
100
AcDbLine
 10
195.782286
 20
-301.812192
 30
0.0
 11
237.767038
 21
-301.812192
 31
0.0
  0
MTEXT
  5
3B7A
100
AcDbEntity
  8
MSL5_60_3F-6
100
AcDbMText
 10
199.331697
 20
-294.758663
 30
0.0
 40
3.5
 41
22.192126
 71
     1
 72
     1
  1
{MSL5-60-3F}
  0
LINE
  5
3B7B
100
AcDbEntity
  8
MSL5_60_3F-0
100
AcDbLine
 10
195.782286
 20
-291.312192
 30
0.0
 11
172.782286
 21
-291.312192
 31
0.0
  0
LINE
  5
3B7C
100
AcDbEntity
  8
MSL5_60_3F-0
100
AcDbLine
 10
173.757286
 20
-286.317746
 30
0.0
 11
175.807286
 21
-286.317746
 31
0.0
  0
LINE
  5
3B7D
100
AcDbEntity
  8
MSL5_60_3F-0
100
AcDbLine
 10
188.782286
 20
-286.317746
 30
0.0
 11
191.964786
 21
-286.317746
 31
0.0
  0
LINE
  5
3B7E
100
AcDbEntity
  8
MSL5_60_3F-0
100
AcDbLine
 10
193.963215
 20
-288.612192
 30
0.0
 11
195.782286
 21
-288.612192
 31
0.0
  0
ARC
  5
3B7F
100
AcDbEntity
  8
MSL5_60_3F-0
100
AcDbCircle
 10
232.280947
 20
-304.812186
 30
0.0
 40
1.5
100
AcDbArc
 50
179.99996
 51
269.999959
  0
LINE
  5
3B80
100
AcDbEntity
  8
MSL5_60_3F-0
100
AcDbLine
 10
230.780949
 20
-301.812192
 30
0.0
 11
230.780947
 21
-304.812185
 31
0.0
  0
LINE
  5
3B81
100
AcDbEntity
  8
MSL5_60_3F-7
100
AcDbLine
 10
239.782286
 20
-290.678717
 30
0.0
 11
239.782286
 21
-305.105206
 31
0.0
1001
GENIUS_GENODEF_13
1002
{
1000
HIER
1070
     0
1002
}
1002
{
1000
MANEDIT
1070
     0
1002
}
1002
{
1000
NOSEL
1070
     0
1002
}
1002
{
1000
BEHIND
1070
     0
1002
}
1002
{
1000
REACTOR
1002
}
1001
GENIUS_GENOBJ-N-CEN_13
1002
{
1000
OWNER
1000
GEN
1002
}
  0
LINE
  5
3B82
100
AcDbEntity
  8
MSL5_60_3F-7
100
AcDbLine
 10
236.282286
 20
-303.812121
 30
0.0
 11
236.282286
 21
-296.812121
 31
0.0
1001
GENIUS_GENODEF_13
1002
{
1000
HIER
1070
     0
1002
}
1002
{
1000
MANEDIT
1070
     0
1002
}
1002
{
1000
NOSEL
1070
     0
1002
}
1002
{
1000
BEHIND
1070
     0
1002
}
1002
{
1000
REACTOR
1002
}
1001
GENIUS_GENOBJ-N-CEN_13
1002
{
1000
OWNER
1000
GEN
1002
}
  0
LINE
  5
3B83
100
AcDbEntity
  8
MSL5_60_3F-7
100
AcDbLine
 10
236.282284
 20
-309.100933
 30
0.0
 11
236.282292
 21
-297.908206
 31
0.0
  0
ELLIPSE
  5
3B84
100
AcDbEntity
  8
MSL5_60_3F-0
100
AcDbEllipse
 10
239.782286
 20
-297.891962
 30
0.0
 11
5.500000000006366
 21
0.0
 31
0.0
210
0.0
220
0.0
230
1.0
 40
0.766044
 41
0.0
 42
6.2831853071796
  0
LINE
  5
3B85
100
AcDbEntity
  8
MSL5_60_3F-0
100
AcDbLine
 10
241.780947
 20
-304.812192
 30
0.0
 11
241.780949
 21
-301.812192
 31
0.0
  0
ARC
  5
3B86
100
AcDbEntity
  8
MSL5_60_3F-0
100
AcDbCircle
 10
240.280947
 20
-304.812191
 30
0.0
 40
1.5
100
AcDbArc
 50
269.999959
 51
359.999962
  0
ELLIPSE
  5
3B87
100
AcDbEntity
  8
MSL5_60_3F-0
100
AcDbEllipse
 10
239.782283
 20
-296.156444
 30
0.0
 11
5.499999999998895
 21
0.0000090659728525
 31
0.0
210
0.0
220
0.0
230
-1.0
 40
0.766044
 41
-3.141592653589791
 42
0.0000000000001632
  0
LINE
  5
3B88
100
AcDbEntity
  8
MSL5_60_3F-0
100
AcDbLine
 10
237.782286
 20
-297.89198
 30
0.0
 11
239.782288
 21
-299.177546
 31
0.0
  0
LINE
  5
3B89
100
AcDbEntity
  8
MSL5_60_3F-0
100
AcDbLine
 10
234.282283
 20
-296.156444
 30
0.0
 11
234.282286
 21
-297.891989
 31
0.0
  0
LINE
  5
3B8A
100
AcDbEntity
  8
MSL5_60_3F-0
100
AcDbLine
 10
239.782288
 20
-299.177546
 30
0.0
 11
241.782286
 21
-297.891968
 31
0.0
  0
ELLIPSE
  5
3B8B
100
AcDbEntity
  8
MSL5_60_3F-0
100
AcDbEllipse
 10
239.782286
 20
-297.891962
 30
0.0
 11
2.000000000006366
 21
0.0
 31
0.0
210
0.0
220
0.0
230
1.0
 40
0.766044
 41
0.0
 42
6.2831853071796
  0
LINE
  5
3B8C
100
AcDbEntity
  8
MSL5_60_3F-0
100
AcDbLine
 10
245.282283
 20
-296.156435
 30
0.0
 11
245.282286
 21
-297.891962
 31
0.0
  0
LINE
  5
3B8D
100
AcDbEntity
  8
MSL5_60_3F-3
100
AcDbLine
 10
177.782286
 20
-214.312192
 30
0.0
 11
177.782286
 21
-239.312192
 31
0.0
1001
GENIUS_GENBH_13
1002
{
1000
OE
1000
CON1
1002
}
1001
GENIUS_GENOREF_13
1005
3EBF
  0
LINE
  5
3B8E
100
AcDbEntity
  8
MSL5_60_3F-3
100
AcDbLine
 10
176.782286
 20
-214.312192
 30
0.0
 11
176.782286
 21
-239.312192
 31
0.0
1001
GENIUS_GENBH_13
1002
{
1000
OE
1000
CON1
1002
}
1001
GENIUS_GENOREF_13
1005
3EBF
  0
LINE
  5
3B8F
100
AcDbEntity
  8
MSL5_60_3F-0
100
AcDbLine
 10
195.782286
 20
-266.312192
 30
0.0
 11
172.782286
 21
-266.312192
 31
0.0
  0
LINE
  5
3B90
100
AcDbEntity
  8
MSL5_60_3F-0
100
AcDbLine
 10
188.782286
 20
-274.812192
 30
0.0
 11
176.782286
 21
-274.812192
 31
0.0
  0
LINE
  5
3B91
100
AcDbEntity
  8
MSL5_60_3F-0
100
AcDbLine
 10
176.782286
 20
-282.812192
 30
0.0
 11
188.782286
 21
-282.812192
 31
0.0
  0
LINE
  5
3B92
100
AcDbEntity
  8
MSL5_60_3F-0
100
AcDbLine
 10
173.757286
 20
-271.306639
 30
0.0
 11
175.807286
 21
-271.306639
 31
0.0
  0
LINE
  5
3B93
100
AcDbEntity
  8
MSL5_60_3F-0
100
AcDbLine
 10
173.757286
 20
-275.059416
 30
0.0
 11
175.807286
 21
-275.059416
 31
0.0
  0
LINE
  5
3B94
100
AcDbEntity
  8
MSL5_60_3F-0
100
AcDbLine
 10
173.757286
 20
-282.564969
 30
0.0
 11
175.807286
 21
-282.564969
 31
0.0
  0
ARC
  5
3B95
100
AcDbEntity
  8
MSL5_60_3F-0
100
AcDbCircle
 10
175.075342
 20
-273.183027
 30
0.0
 40
2.293056
100
AcDbArc
 50
125.085847
 51
234.914153
  0
LINE
  5
3B96
100
AcDbEntity
  8
MSL5_60_3F-0
100
AcDbLine
 10
172.782286
 20
-284.441358
 30
0.0
 11
172.782286
 21
-273.183027
 31
0.0
  0
ARC
  5
3B97
100
AcDbEntity
  8
MSL5_60_3F-0
100
AcDbCircle
 10
180.492008
 20
-278.812192
 30
0.0
 40
7.709722
100
AcDbArc
 50
150.872216
 51
209.127784
  0
ARC
  5
3B98
100
AcDbEntity
  8
MSL5_60_3F-0
100
AcDbCircle
 10
174.48923
 20
-273.183027
 30
0.0
 40
2.293056
100
AcDbArc
 50
305.085848
 51
54.914152
  0
LINE
  5
3B99
100
AcDbEntity
  8
MSL5_60_3F-0
100
AcDbLine
 10
176.782286
 20
-284.441358
 30
0.0
 11
176.782286
 21
-273.183027
 31
0.0
  0
ARC
  5
3B9A
100
AcDbEntity
  8
MSL5_60_3F-0
100
AcDbCircle
 10
169.072564
 20
-278.812192
 30
0.0
 40
7.709722
100
AcDbArc
 50
330.872218
 51
29.127782
  0
ARC
  5
3B9B
100
AcDbEntity
  8
MSL5_60_3F-0
100
AcDbCircle
 10
195.890967
 20
-271.450977
 30
0.0
 40
3.108681
100
AcDbArc
 50
127.878142
 51
232.121858
  0
LINE
  5
3B9C
100
AcDbEntity
  8
MSL5_60_3F-0
100
AcDbLine
 10
191.964786
 20
-271.306639
 30
0.0
 11
188.782286
 21
-271.306639
 31
0.0
  0
LINE
  5
3B9D
100
AcDbEntity
  8
MSL5_60_3F-0
100
AcDbLine
 10
191.964786
 20
-275.059416
 30
0.0
 11
188.782286
 21
-275.059416
 31
0.0
  0
LINE
  5
3B9E
100
AcDbEntity
  8
MSL5_60_3F-0
100
AcDbLine
 10
191.964786
 20
-282.564969
 30
0.0
 11
188.782286
 21
-282.564969
 31
0.0
  0
LINE
  5
3B9F
100
AcDbEntity
  8
MSL5_60_3F-0
100
AcDbLine
 10
193.982286
 20
-273.904715
 30
0.0
 11
195.782286
 21
-273.904715
 31
0.0
  0
ARC
  5
3BA0
100
AcDbEntity
  8
MSL5_60_3F-0
100
AcDbCircle
 10
190.220121
 20
-273.183027
 30
0.0
 40
2.562165
100
AcDbArc
 50
312.916664
 51
47.083336
  0
LINE
  5
3BA1
100
AcDbEntity
  8
MSL5_60_3F-0
100
AcDbLine
 10
193.982286
 20
-283.71967
 30
0.0
 11
195.782286
 21
-283.71967
 31
0.0
  0
LINE
  5
3BA2
100
AcDbEntity
  8
MSL5_60_3F-0
100
AcDbLine
 10
192.782286
 20
-273.183027
 30
0.0
 11
192.782286
 21
-284.441358
 31
0.0
  0
ARC
  5
3BA3
100
AcDbEntity
  8
MSL5_60_3F-0
100
AcDbCircle
 10
203.417008
 20
-278.812192
 30
0.0
 40
10.634722
100
AcDbArc
 50
152.518771
 51
207.481229
  0
ARC
  5
3BA4
100
AcDbEntity
  8
MSL5_60_3F-0
100
AcDbCircle
 10
183.759876
 20
-278.812192
 30
0.0
 40
9.02241
100
AcDbArc
 50
335.421503
 51
24.578497
  0
LINE
  5
3BA5
100
AcDbEntity
  8
MSL5_60_3F-0
100
AcDbLine
 10
195.782286
 20
-269.012192
 30
0.0
 11
193.963215
 21
-269.012192
 31
0.0
  0
LINE
  5
3BA6
100
AcDbEntity
  8
MSL5_60_3F-0
100
AcDbLine
 10
172.782286
 20
-239.312192
 30
0.0
 11
195.782286
 21
-239.312192
 31
0.0
  0
LINE
  5
3BA7
100
AcDbEntity
  8
MSL5_60_3F-0
100
AcDbLine
 10
177.782286
 20
-240.312192
 30
0.0
 11
195.782286
 21
-240.312192
 31
0.0
  0
LINE
  5
3BA8
100
AcDbEntity
  8
MSL5_60_3F-3
100
AcDbLine
 10
172.782286
 20
-232.812192
 30
0.0
 11
176.782286
 21
-232.812192
 31
0.0
1001
GENIUS_GENBH_13
1002
{
1000
OE
1000
CON1
1002
}
1001
GENIUS_GENOREF_13
1005
3EBF
  0
LINE
  5
3BA9
100
AcDbEntity
  8
MSL5_60_3F-0
100
AcDbLine
 10
177.782286
 20
-239.312192
 30
0.0
 11
177.782286
 21
-240.312192
 31
0.0
1001
GENIUS_GENOREF_13
1005
3EBF
  0
LINE
  5
3BAA
100
AcDbEntity
  8
MSL5_60_3F-0
100
AcDbLine
 10
176.782286
 20
-239.312192
 30
0.0
 11
177.782286
 21
-240.312192
 31
0.0
  0
LINE
  5
3BAB
100
AcDbEntity
  8
MSL5_60_3F-7
100
AcDbLine
 10
169.216084
 20
-178.812192
 30
0.0
 11
200.717072
 21
-178.812192
 31
0.0
  0
LINE
  5
3BAC
100
AcDbEntity
  8
MSL5_60_3F-0
100
AcDbLine
 10
219.982286
 20
-175.231369
 30
0.0
 11
196.282286
 21
-175.231369
 31
0.0
  0
LINE
  5
3BAD
100
AcDbEntity
  8
MSL5_60_3F-0
100
AcDbLine
 10
196.282286
 20
-192.084347
 30
0.0
 11
219.982286
 21
-192.084347
 31
0.0
  0
LINE
  5
3BAE
100
AcDbEntity
  8
MSL5_60_3F-0
100
AcDbLine
 10
172.782286
 20
-214.312192
 30
0.0
 11
195.782286
 21
-214.312192
 31
0.0
  0
LINE
  5
3BAF
100
AcDbEntity
  8
MSL5_60_3F-0
100
AcDbLine
 10
195.782286
 20
-213.312192
 30
0.0
 11
177.782286
 21
-213.312192
 31
0.0
  0
LINE
  5
3BB0
100
AcDbEntity
  8
MSL5_60_3F-3
100
AcDbLine
 10
176.782286
 20
-220.812192
 30
0.0
 11
172.782286
 21
-220.812192
 31
0.0
1001
GENIUS_GENBH_13
1002
{
1000
OE
1000
CON1
1002
}
1001
GENIUS_GENOREF_13
1005
3EBF
  0
LINE
  5
3BB1
100
AcDbEntity
  8
MSL5_60_3F-0
100
AcDbLine
 10
177.782286
 20
-213.312192
 30
0.0
 11
176.782286
 21
-214.312192
 31
0.0
  0
LINE
  5
3BB2
100
AcDbEntity
  8
MSL5_60_3F-0
100
AcDbLine
 10
177.782286
 20
-213.312192
 30
0.0
 11
177.782286
 21
-214.312192
 31
0.0
1001
GENIUS_GENOREF_13
1005
3EBF
  0
LINE
  5
3BB3
100
AcDbEntity
  8
MSL5_60_3F-0
100
AcDbLine
 10
173.782286
 20
-190.312192
 30
0.0
 11
186.282286
 21
-190.312192
 31
0.0
  0
LINE
  5
3BB4
100
AcDbEntity
  8
MSL5_60_3F-0
100
AcDbLine
 10
172.782286
 20
-168.312192
 30
0.0
 11
172.782286
 21
-189.312192
 31
0.0
  0
LINE
  5
3BB5
100
AcDbEntity
  8
MSL5_60_3F-0
100
AcDbLine
 10
172.782286
 20
-189.312192
 30
0.0
 11
173.782286
 21
-190.312192
 31
0.0
  0
ARC
  5
3BB6
100
AcDbEntity
  8
MSL5_60_3F-0
100
AcDbCircle
 10
204.607286
 20
-178.812192
 30
0.0
 40
16.825
100
AcDbArc
 50
149.0209
 51
210.9791
  0
ARC
  5
3BB7
100
AcDbEntity
  8
MSL5_60_3F-0
100
AcDbCircle
 10
178.957286
 20
-178.812192
 30
0.0
 40
16.825
100
AcDbArc
 50
329.020901
 51
30.979099
  0
LINE
  5
3BB8
100
AcDbEntity
  8
MSL5_60_3F-0
100
AcDbLine
 10
193.382286
 20
-196.132701
 30
0.0
 11
190.182286
 21
-196.132701
 31
0.0
  0
LINE
  5
3BB9
100
AcDbEntity
  8
MSL5_60_3F-0
100
AcDbLine
 10
193.382286
 20
-187.472446
 30
0.0
 11
190.182286
 21
-187.472446
 31
0.0
  0
LINE
  5
3BBA
100
AcDbEntity
  8
MSL5_60_3F-0
100
AcDbLine
 10
187.282286
 20
-182.812192
 30
0.0
 11
186.282286
 21
-182.812192
 31
0.0
  0
ARC
  5
3BBB
100
AcDbEntity
  8
MSL5_60_3F-0
100
AcDbCircle
 10
192.888536
 20
-191.802574
 30
0.0
 40
5.10625
100
AcDbArc
 50
122.004627
 51
237.995373
  0
LINE
  5
3BBC
100
AcDbEntity
  8
MSL5_60_3F-0
100
AcDbLine
 10
187.282286
 20
-190.312192
 30
0.0
 11
187.782286
 21
-190.812192
 31
0.0
  0
ARC
  5
3BBD
100
AcDbEntity
  8
MSL5_60_3F-0
100
AcDbCircle
 10
190.676036
 20
-191.802574
 30
0.0
 40
5.10625
100
AcDbArc
 50
302.004628
 51
57.995372
  0
LINE
  5
3BBE
100
AcDbEntity
  8
MSL5_60_3F-0
100
AcDbLine
 10
193.382286
 20
-170.151938
 30
0.0
 11
190.182286
 21
-170.151938
 31
0.0
  0
LINE
  5
3BBF
100
AcDbEntity
  8
MSL5_60_3F-0
100
AcDbLine
 10
187.282286
 20
-174.812192
 30
0.0
 11
186.282286
 21
-174.812192
 31
0.0
  0
LINE
  5
3BC0
100
AcDbEntity
  8
MSL5_60_3F-7
100
AcDbLine
 10
200.203786
 20
-183.657929
 30
0.0
 11
219.360786
 21
-183.657929
 31
0.0
1001
GENIUS_GENODEF_13
1002
{
1000
HIER
1070
     0
1002
}
1002
{
1000
MANEDIT
1070
     0
1002
}
1002
{
1000
NOSEL
1070
     0
1002
}
1002
{
1000
BEHIND
1070
     0
1002
}
1002
{
1000
REACTOR
1002
}
1001
GENIUS_GENOBJ-N-CEN_13
1002
{
1000
OWNER
1000
GEN
1002
}
  0
LINE
  5
3BC1
100
AcDbEntity
  8
MSL5_60_3F-7
100
AcDbLine
 10
209.782286
 20
-175.618506
 30
0.0
 11
209.782286
 21
-191.697353
 31
0.0
1001
GENIUS_GENODEF_13
1002
{
1000
HIER
1070
     0
1002
}
1002
{
1000
MANEDIT
1070
     0
1002
}
1002
{
1000
NOSEL
1070
     0
1002
}
1002
{
1000
BEHIND
1070
     0
1002
}
1002
{
1000
REACTOR
1002
}
1001
GENIUS_GENOBJ-N-CEN_13
1002
{
1000
OWNER
1000
GEN
1002
}
  0
ELLIPSE
  5
3BC2
100
AcDbEntity
  8
MSL5_60_3F-4
100
AcDbEllipse
 10
209.782286
 20
-183.657929
 30
0.0
 11
-6.578499999999991
 21
0.0
 31
0.0
210
0.0
220
0.0
230
1.0
 40
0.766044
 41
1.503876197756385
 42
6.396900936057432
  0
ELLIPSE
  5
3BC3
100
AcDbEntity
  8
MSL5_60_3F-0
100
AcDbEllipse
 10
209.782286
 20
-183.657929
 30
0.0
 11
-5.722385000000002
 21
0.0
 31
0.0
210
0.0
220
0.0
230
1.0
 40
0.766044
 41
0.0
 42
6.2831853071796
  0
LINE
  5
3BC4
100
AcDbEntity
  8
MSL5_60_3F-0
100
AcDbLine
 10
219.982286
 20
-192.084347
 30
0.0
 11
219.982286
 21
-175.231369
 31
0.0
  0
LINE
  5
3BC5
100
AcDbEntity
  8
MSL5_60_3F-7
100
AcDbLine
 10
297.782286
 20
-205.53571
 30
0.0
 11
297.782286
 21
-249.72324
 31
0.0
  0
LINE
  5
3BC6
100
AcDbEntity
  8
MSL5_60_3F-7
100
AcDbLine
 10
267.782286
 20
-256.812121
 30
0.0
 11
274.684184
 21
-256.812121
 31
0.0
  0
ARC
  5
3BC7
100
AcDbEntity
  8
MSL5_60_3F-3
100
AcDbCircle
 10
267.782286
 20
-256.812121
 30
0.0
 40
5.0
100
AcDbArc
 50
82.606248
 51
7.300134
  0
CIRCLE
  5
3BC8
100
AcDbEntity
  8
MSL5_60_3F-3
100
AcDbCircle
 10
267.782286
 20
-256.812121
 30
0.0
 40
4.25
  0
LINE
  5
3BC9
100
AcDbEntity
  8
MSL5_60_3F-7
100
AcDbLine
 10
267.782286
 20
-256.812121
 30
0.0
 11
267.782286
 21
-249.910223
 31
0.0
  0
LINE
  5
3BCA
100
AcDbEntity
  8
MSL5_60_3F-7
100
AcDbLine
 10
267.782286
 20
-256.812121
 30
0.0
 11
260.880388
 21
-256.812121
 31
0.0
  0
LINE
  5
3BCB
100
AcDbEntity
  8
MSL5_60_3F-7
100
AcDbLine
 10
267.782286
 20
-256.812121
 30
0.0
 11
267.782286
 21
-263.714019
 31
0.0
  0
LINE
  5
3BCC
100
AcDbEntity
  8
MSL5_60_3F-7
100
AcDbLine
 10
297.782286
 20
-256.812121
 30
0.0
 11
297.782286
 21
-249.72324
 31
0.0
  0
LINE
  5
3BCD
100
AcDbEntity
  8
MSL5_60_3F-7
100
AcDbLine
 10
297.782286
 20
-256.812121
 30
0.0
 11
290.693405
 21
-256.812121
 31
0.0
  0
LINE
  5
3BCE
100
AcDbEntity
  8
MSL5_60_3F-7
100
AcDbLine
 10
297.782286
 20
-256.812121
 30
0.0
 11
297.782286
 21
-263.901002
 31
0.0
  0
LINE
  5
3BCF
100
AcDbEntity
  8
MSL5_60_3F-7
100
AcDbLine
 10
267.782286
 20
-196.812121
 30
0.0
 11
274.599532
 21
-196.812121
 31
0.0
  0
ARC
  5
3BD0
100
AcDbEntity
  8
MSL5_60_3F-3
100
AcDbCircle
 10
267.782286
 20
-196.812121
 30
0.0
 40
5.0
100
AcDbArc
 50
82.606248
 51
7.300134
  0
CIRCLE
  5
3BD1
100
AcDbEntity
  8
MSL5_60_3F-3
100
AcDbCircle
 10
267.782286
 20
-196.812121
 30
0.0
 40
4.25
  0
LINE
  5
3BD2
100
AcDbEntity
  8
MSL5_60_3F-7
100
AcDbLine
 10
267.782286
 20
-196.812121
 30
0.0
 11
267.782286
 21
-203.629367
 31
0.0
  0
LINE
  5
3BD3
100
AcDbEntity
  8
MSL5_60_3F-7
100
AcDbLine
 10
267.782286
 20
-196.812121
 30
0.0
 11
267.782286
 21
-189.994875
 31
0.0
  0
LINE
  5
3BD4
100
AcDbEntity
  8
MSL5_60_3F-7
100
AcDbLine
 10
267.782286
 20
-196.812121
 30
0.0
 11
260.96504
 21
-196.812121
 31
0.0
  0
LINE
  5
3BD5
100
AcDbEntity
  8
MSL5_60_3F-7
100
AcDbLine
 10
297.782286
 20
-196.812121
 30
0.0
 11
297.782286
 21
-203.95187
 31
0.0
  0
LINE
  5
3BD6
100
AcDbEntity
  8
MSL5_60_3F-7
100
AcDbLine
 10
297.782286
 20
-196.812121
 30
0.0
 11
290.642537
 21
-196.812121
 31
0.0
  0
LINE
  5
3BD7
100
AcDbEntity
  8
MSL5_60_3F-7
100
AcDbLine
 10
297.782286
 20
-196.812121
 30
0.0
 11
297.782286
 21
-189.672373
 31
0.0
  0
LINE
  5
3BD8
100
AcDbEntity
  8
MSL5_60_3F-7
100
AcDbLine
 10
144.782286
 20
44.433755
 30
0.0
 11
204.787278
 21
44.433755
 31
0.0
  0
LINE
  5
3BD9
100
AcDbEntity
  8
MSL5_60_3F-0
100
AcDbLine
 10
147.782286
 20
18.033755
 30
0.0
 11
172.782286
 21
18.033755
 31
0.0
  0
LINE
  5
3BDA
100
AcDbEntity
  8
MSL5_60_3F-3
100
AcDbLine
 10
164.782286
 20
-62.148303
 30
0.0
 11
168.970286
 21
-64.566245
 31
0.0
  0
LINE
  5
3BDB
100
AcDbEntity
  8
MSL5_60_3F-3
100
AcDbLine
 10
164.782286
 20
-62.148303
 30
0.0
 11
168.970286
 21
-64.566245
 31
0.0
  0
LINE
  5
3BDC
100
AcDbEntity
  8
MSL5_60_3F-3
100
AcDbLine
 10
160.594286
 20
-64.566245
 30
0.0
 11
168.970286
 21
-64.566245
 31
0.0
  0
LINE
  5
3BDD
100
AcDbEntity
  8
MSL5_60_3F-3
100
AcDbLine
 10
160.594286
 20
-64.566245
 30
0.0
 11
168.970286
 21
-64.566245
 31
0.0
  0
LINE
  5
3BDE
100
AcDbEntity
  8
MSL5_60_3F-3
100
AcDbLine
 10
159.782286
 20
-70.566245
 30
0.0
 11
169.782286
 21
-70.566245
 31
0.0
  0
LINE
  5
3BDF
100
AcDbEntity
  8
MSL5_60_3F-3
100
AcDbLine
 10
159.782286
 20
-70.566245
 30
0.0
 11
169.782286
 21
-70.566245
 31
0.0
  0
LINE
  5
3BE0
100
AcDbEntity
  8
MSL5_60_3F-7
100
AcDbLine
 10
174.782286
 20
-18.566245
 30
0.0
 11
145.782286
 21
-18.566245
 31
0.0
  0
LINE
  5
3BE1
100
AcDbEntity
  8
MSL5_60_3F-7
100
AcDbLine
 10
174.782286
 20
-78.566245
 30
0.0
 11
145.782286
 21
-78.566245
 31
0.0
  0
LINE
  5
3BE2
100
AcDbEntity
  8
MSL5_60_3F-0
100
AcDbLine
 10
172.782286
 20
-87.566245
 30
0.0
 11
147.782286
 21
-87.566245
 31
0.0
  0
LINE
  5
3BE3
100
AcDbEntity
  8
MSL5_60_3F-0
100
AcDbLine
 10
172.782286
 20
-151.812192
 30
0.0
 11
147.782286
 21
-151.812192
 31
0.0
  0
LINE
  5
3BE4
100
AcDbEntity
  8
MSL5_60_3F-7
100
AcDbLine
 10
144.782286
 20
-48.566245
 30
0.0
 11
204.787278
 21
-48.566245
 31
0.0
  0
LINE
  5
3BE5
100
AcDbEntity
  8
MSL5_60_3F-7
100
AcDbLine
 10
52.0
 20
-48.566245
 30
0.0
 11
52.0
 21
-63.071813
 31
0.0
  0
LINE
  5
3BE6
100
AcDbEntity
  8
MSL5_60_3F-7
100
AcDbLine
 10
30.0
 20
-48.566245
 30
0.0
 11
30.0
 21
-56.041144
 31
0.0
  0
LINE
  5
3BE7
100
AcDbEntity
  8
MSL5_60_3F-0
100
AcDbLine
 10
75.0
 20
-87.566245
 30
0.0
 11
75.0
 21
18.033755
 31
0.0
1001
GENIUS_GENOREF_13
1005
3EC1
  0
LINE
  5
3BE8
100
AcDbEntity
  8
MSL5_60_3F-3
100
AcDbLine
 10
75.0
 20
-73.566245
 30
0.0
 11
58.0
 21
-73.566245
 31
0.0
  0
LINE
  5
3BE9
100
AcDbEntity
  8
MSL5_60_3F-3
100
AcDbLine
 10
75.0
 20
-74.378245
 30
0.0
 11
52.0
 21
-74.378245
 31
0.0
  0
LINE
  5
3BEA
100
AcDbEntity
  8
MSL5_60_3F-3
100
AcDbLine
 10
75.0
 20
-83.566245
 30
0.0
 11
58.0
 21
-83.566245
 31
0.0
  0
LINE
  5
3BEB
100
AcDbEntity
  8
MSL5_60_3F-3
100
AcDbLine
 10
75.0
 20
-82.754245
 30
0.0
 11
52.0
 21
-82.754245
 31
0.0
  0
LINE
  5
3BEC
100
AcDbEntity
  8
MSL5_60_3F-7
100
AcDbLine
 10
46.582057
 20
-78.566245
 30
0.0
 11
78.0
 21
-78.566245
 31
0.0
  0
LINE
  5
3BED
100
AcDbEntity
  8
MSL5_60_3F-3
100
AcDbLine
 10
58.0
 20
-83.566245
 30
0.0
 11
58.0
 21
-73.566245
 31
0.0
  0
LINE
  5
3BEE
100
AcDbEntity
  8
MSL5_60_3F-3
100
AcDbLine
 10
49.582057
 20
-78.566245
 30
0.0
 11
52.0
 21
-82.754245
 31
0.0
  0
LINE
  5
3BEF
100
AcDbEntity
  8
MSL5_60_3F-3
100
AcDbLine
 10
52.0
 20
-82.754245
 30
0.0
 11
52.0
 21
-74.378245
 31
0.0
  0
LINE
  5
3BF0
100
AcDbEntity
  8
MSL5_60_3F-3
100
AcDbLine
 10
53.0
 20
-87.566245
 30
0.0
 11
53.0
 21
-70.566245
 31
0.0
  0
LINE
  5
3BF1
100
AcDbEntity
  8
MSL5_60_3F-3
100
AcDbLine
 10
53.0
 20
-87.566245
 30
0.0
 11
53.0
 21
-70.566245
 31
0.0
  0
LINE
  5
3BF2
100
AcDbEntity
  8
MSL5_60_3F-3
100
AcDbLine
 10
52.188
 20
-87.566245
 30
0.0
 11
52.188
 21
-64.566245
 31
0.0
  0
LINE
  5
3BF3
100
AcDbEntity
  8
MSL5_60_3F-3
100
AcDbLine
 10
52.188
 20
-87.566245
 30
0.0
 11
52.188
 21
-64.566245
 31
0.0
  0
LINE
  5
3BF4
100
AcDbEntity
  8
MSL5_60_3F-3
100
AcDbLine
 10
39.0
 20
-78.566245
 30
0.0
 11
39.0
 21
-87.566245
 31
0.0
  0
LINE
  5
3BF5
100
AcDbEntity
  8
MSL5_60_3F-7
100
AcDbLine
 10
30.0
 20
-78.566245
 30
0.0
 11
30.0
 21
-89.566245
 31
0.0
  0
LINE
  5
3BF6
100
AcDbEntity
  8
MSL5_60_3F-7
100
AcDbLine
 10
48.0
 20
-59.148303
 30
0.0
 11
48.0
 21
-89.566245
 31
0.0
  0
LINE
  5
3BF7
100
AcDbEntity
  8
MSL5_60_3F-7
100
AcDbLine
 10
48.0
 20
-59.148303
 30
0.0
 11
48.0
 21
-90.566245
 31
0.0
  0
LINE
  5
3BF8
100
AcDbEntity
  8
MSL5_60_3F-3
100
AcDbLine
 10
43.0
 20
-87.566245
 30
0.0
 11
43.0
 21
-70.566245
 31
0.0
  0
LINE
  5
3BF9
100
AcDbEntity
  8
MSL5_60_3F-3
100
AcDbLine
 10
43.0
 20
-87.566245
 30
0.0
 11
43.0
 21
-70.566245
 31
0.0
  0
LINE
  5
3BFA
100
AcDbEntity
  8
MSL5_60_3F-3
100
AcDbLine
 10
43.812
 20
-87.566245
 30
0.0
 11
43.812
 21
-64.566245
 31
0.0
  0
LINE
  5
3BFB
100
AcDbEntity
  8
MSL5_60_3F-3
100
AcDbLine
 10
43.812
 20
-87.566245
 30
0.0
 11
43.812
 21
-64.566245
 31
0.0
  0
LINE
  5
3BFC
100
AcDbEntity
  8
MSL5_60_3F-3
100
AcDbLine
 10
48.0
 20
-62.148303
 30
0.0
 11
43.812
 21
-64.566245
 31
0.0
  0
LINE
  5
3BFD
100
AcDbEntity
  8
MSL5_60_3F-3
100
AcDbLine
 10
48.0
 20
-62.148303
 30
0.0
 11
43.812
 21
-64.566245
 31
0.0
  0
LINE
  5
3BFE
100
AcDbEntity
  8
MSL5_60_3F-3
100
AcDbLine
 10
43.812
 20
-64.566245
 30
0.0
 11
52.188
 21
-64.566245
 31
0.0
  0
LINE
  5
3BFF
100
AcDbEntity
  8
MSL5_60_3F-3
100
AcDbLine
 10
43.812
 20
-64.566245
 30
0.0
 11
52.188
 21
-64.566245
 31
0.0
  0
LINE
  5
3C00
100
AcDbEntity
  8
MSL5_60_3F-3
100
AcDbLine
 10
43.0
 20
-70.566245
 30
0.0
 11
53.0
 21
-70.566245
 31
0.0
  0
LINE
  5
3C01
100
AcDbEntity
  8
MSL5_60_3F-3
100
AcDbLine
 10
43.0
 20
-70.566245
 30
0.0
 11
53.0
 21
-70.566245
 31
0.0
  0
LINE
  5
3C02
100
AcDbEntity
  8
MSL5_60_3F-7
100
AcDbLine
 10
30.0
 20
-78.566245
 30
0.0
 11
41.632255
 21
-78.566245
 31
0.0
  0
LINE
  5
3C03
100
AcDbEntity
  8
MSL5_60_3F-7
100
AcDbLine
 10
30.0
 20
-78.566245
 30
0.0
 11
30.0
 21
-66.93399
 31
0.0
  0
LINE
  5
3C04
100
AcDbEntity
  8
MSL5_60_3F-3
100
AcDbLine
 10
48.0
 20
-62.148303
 30
0.0
 11
52.188
 21
-64.566245
 31
0.0
  0
LINE
  5
3C05
100
AcDbEntity
  8
MSL5_60_3F-3
100
AcDbLine
 10
48.0
 20
-62.148303
 30
0.0
 11
52.188
 21
-64.566245
 31
0.0
  0
LINE
  5
3C06
100
AcDbEntity
  8
MSL5_60_3F-3
100
AcDbLine
 10
49.582057
 20
-78.566245
 30
0.0
 11
52.0
 21
-74.378245
 31
0.0
  0
LINE
  5
3C07
100
AcDbEntity
  8
MSL5_60_3F-7
100
AcDbLine
 10
164.782286
 20
-59.148303
 30
0.0
 11
164.782286
 21
-90.566245
 31
0.0
  0
LINE
  5
3C08
100
AcDbEntity
  8
MSL5_60_3F-7
100
AcDbLine
 10
164.782286
 20
-59.148303
 30
0.0
 11
164.782286
 21
-90.566245
 31
0.0
  0
LINE
  5
3C09
100
AcDbEntity
  8
MSL5_60_3F-3
100
AcDbLine
 10
159.782286
 20
-87.566245
 30
0.0
 11
159.782286
 21
-70.566245
 31
0.0
  0
LINE
  5
3C0A
100
AcDbEntity
  8
MSL5_60_3F-3
100
AcDbLine
 10
159.782286
 20
-87.566245
 30
0.0
 11
159.782286
 21
-70.566245
 31
0.0
  0
LINE
  5
3C0B
100
AcDbEntity
  8
MSL5_60_3F-3
100
AcDbLine
 10
160.594286
 20
-87.566245
 30
0.0
 11
160.594286
 21
-64.566245
 31
0.0
  0
LINE
  5
3C0C
100
AcDbEntity
  8
MSL5_60_3F-3
100
AcDbLine
 10
160.594286
 20
-87.566245
 30
0.0
 11
160.594286
 21
-64.566245
 31
0.0
  0
LINE
  5
3C0D
100
AcDbEntity
  8
MSL5_60_3F-7
100
AcDbLine
 10
155.782286
 20
-86.566245
 30
0.0
 11
155.782286
 21
-70.566245
 31
0.0
  0
CIRCLE
  5
3C0E
100
AcDbEntity
  8
MSL5_60_3F-0
100
AcDbCircle
 10
155.782286
 20
-78.566245
 30
0.0
 40
4.188
  0
ARC
  5
3C0F
100
AcDbEntity
  8
MSL5_60_3F-4
100
AcDbCircle
 10
155.782286
 20
-78.566245
 30
0.0
 40
5.0
100
AcDbArc
 50
280.0
 51
210.0
  0
LINE
  5
3C10
100
AcDbEntity
  8
MSL5_60_3F-7
100
AcDbLine
 10
147.782286
 20
-78.566245
 30
0.0
 11
163.782286
 21
-78.566245
 31
0.0
  0
LINE
  5
3C11
100
AcDbEntity
  8
MSL5_60_3F-3
100
AcDbLine
 10
164.782286
 20
-62.148303
 30
0.0
 11
160.594286
 21
-64.566245
 31
0.0
  0
LINE
  5
3C12
100
AcDbEntity
  8
MSL5_60_3F-3
100
AcDbLine
 10
164.782286
 20
-62.148303
 30
0.0
 11
160.594286
 21
-64.566245
 31
0.0
  0
LINE
  5
3C13
100
AcDbEntity
  8
MSL5_60_3F-3
100
AcDbLine
 10
74.0
 20
18.872854
 30
0.0
 11
74.0
 21
-10.566245
 31
0.0
1001
GENIUS_GENBH_13
1002
{
1000
OE
1000
CON1
1002
}
1001
GENIUS_GENOREF_13
1005
3EC0
  0
LINE
  5
3C14
100
AcDbEntity
  8
MSL5_60_3F-3
100
AcDbLine
 10
75.0
 20
-13.566245
 30
0.0
 11
58.0
 21
-13.566245
 31
0.0
  0
LINE
  5
3C15
100
AcDbEntity
  8
MSL5_60_3F-3
100
AcDbLine
 10
75.0
 20
-22.754245
 30
0.0
 11
52.0
 21
-22.754245
 31
0.0
  0
LINE
  5
3C16
100
AcDbEntity
  8
MSL5_60_3F-3
100
AcDbLine
 10
75.0
 20
-22.754245
 30
0.0
 11
52.0
 21
-22.754245
 31
0.0
  0
LINE
  5
3C17
100
AcDbEntity
  8
MSL5_60_3F-3
100
AcDbLine
 10
75.0
 20
-23.566245
 30
0.0
 11
58.0
 21
-23.566245
 31
0.0
  0
LINE
  5
3C18
100
AcDbEntity
  8
MSL5_60_3F-3
100
AcDbLine
 10
75.0
 20
-23.566245
 30
0.0
 11
58.0
 21
-23.566245
 31
0.0
  0
LINE
  5
3C19
100
AcDbEntity
  8
MSL5_60_3F-3
100
AcDbLine
 10
75.0
 20
-14.378245
 30
0.0
 11
52.0
 21
-14.378245
 31
0.0
  0
LINE
  5
3C1A
100
AcDbEntity
  8
MSL5_60_3F-3
100
AcDbLine
 10
75.0
 20
-14.378245
 30
0.0
 11
52.0
 21
-14.378245
 31
0.0
  0
LINE
  5
3C1B
100
AcDbEntity
  8
MSL5_60_3F-3
100
AcDbLine
 10
75.0
 20
-13.566245
 30
0.0
 11
58.0
 21
-13.566245
 31
0.0
  0
LINE
  5
3C1C
100
AcDbEntity
  8
MSL5_60_3F-7
100
AcDbLine
 10
52.0
 20
-48.566245
 30
0.0
 11
66.505568
 21
-48.566245
 31
0.0
  0
LINE
  5
3C1D
100
AcDbEntity
  8
MSL5_60_3F-7
100
AcDbLine
 10
46.582057
 20
-18.566245
 30
0.0
 11
78.0
 21
-18.566245
 31
0.0
  0
LINE
  5
3C1E
100
AcDbEntity
  8
MSL5_60_3F-7
100
AcDbLine
 10
46.582057
 20
-18.566245
 30
0.0
 11
78.0
 21
-18.566245
 31
0.0
  0
LINE
  5
3C1F
100
AcDbEntity
  8
MSL5_60_3F-3
100
AcDbLine
 10
49.582057
 20
-18.566245
 30
0.0
 11
52.0
 21
-22.754245
 31
0.0
  0
LINE
  5
3C20
100
AcDbEntity
  8
MSL5_60_3F-3
100
AcDbLine
 10
49.582057
 20
-18.566245
 30
0.0
 11
52.0
 21
-22.754245
 31
0.0
  0
LINE
  5
3C21
100
AcDbEntity
  8
MSL5_60_3F-3
100
AcDbLine
 10
58.0
 20
-23.566245
 30
0.0
 11
58.0
 21
-13.566245
 31
0.0
  0
LINE
  5
3C22
100
AcDbEntity
  8
MSL5_60_3F-3
100
AcDbLine
 10
58.0
 20
-23.566245
 30
0.0
 11
58.0
 21
-13.566245
 31
0.0
  0
LINE
  5
3C23
100
AcDbEntity
  8
MSL5_60_3F-3
100
AcDbLine
 10
52.0
 20
-22.754245
 30
0.0
 11
52.0
 21
-14.378245
 31
0.0
  0
LINE
  5
3C24
100
AcDbEntity
  8
MSL5_60_3F-3
100
AcDbLine
 10
52.0
 20
-22.754245
 30
0.0
 11
52.0
 21
-14.378245
 31
0.0
  0
LINE
  5
3C25
100
AcDbEntity
  8
MSL5_60_3F-7
100
AcDbLine
 10
30.0
 20
-18.566245
 30
0.0
 11
30.0
 21
-30.174198
 31
0.0
  0
LINE
  5
3C26
100
AcDbEntity
  8
MSL5_60_3F-7
100
AcDbLine
 10
52.0
 20
-48.566245
 30
0.0
 11
37.494432
 21
-48.566245
 31
0.0
  0
LINE
  5
3C27
100
AcDbEntity
  8
MSL5_60_3F-7
100
AcDbLine
 10
30.0
 20
-48.566245
 30
0.0
 11
30.0
 21
-41.091347
 31
0.0
  0
LINE
  5
3C28
100
AcDbEntity
  8
MSL5_60_3F-7
100
AcDbLine
 10
30.0
 20
-48.566245
 30
0.0
 11
37.474898
 21
-48.566245
 31
0.0
  0
LINE
  5
3C29
100
AcDbEntity
  8
MSL5_60_3F-7
100
AcDbLine
 10
52.0
 20
-48.566245
 30
0.0
 11
52.0
 21
-34.060678
 31
0.0
  0
LINE
  5
3C2A
100
AcDbEntity
  8
MSL5_60_3F-7
100
AcDbLine
 10
30.0
 20
-18.566245
 30
0.0
 11
41.607953
 21
-18.566245
 31
0.0
  0
LINE
  5
3C2B
100
AcDbEntity
  8
MSL5_60_3F-7
100
AcDbLine
 10
30.0
 20
-18.566245
 30
0.0
 11
30.0
 21
-6.958293
 31
0.0
  0
LINE
  5
3C2C
100
AcDbEntity
  8
MSL5_60_3F-3
100
AcDbLine
 10
49.582057
 20
-18.566245
 30
0.0
 11
52.0
 21
-14.378245
 31
0.0
  0
LINE
  5
3C2D
100
AcDbEntity
  8
MSL5_60_3F-3
100
AcDbLine
 10
49.582057
 20
-18.566245
 30
0.0
 11
52.0
 21
-14.378245
 31
0.0
  0
LINE
  5
3C2E
100
AcDbEntity
  8
MSL5_60_3F-3
100
AcDbLine
 10
50.937964
 20
38.243132
 30
0.0
 11
51.580752
 21
39.009176
 31
0.0
  0
LINE
  5
3C2F
100
AcDbEntity
  8
MSL5_60_3F-3
100
AcDbLine
 10
48.193686
 20
41.851262
 30
0.0
 11
41.76581
 21
34.190817
 31
0.0
  0
LINE
  5
3C30
100
AcDbEntity
  8
MSL5_60_3F-3
100
AcDbLine
 10
47.537864
 20
42.401562
 30
0.0
 11
41.109988
 21
34.741117
 31
0.0
  0
LINE
  5
3C31
100
AcDbEntity
  8
MSL5_60_3F-7
100
AcDbLine
 10
45.082626
 20
48.377973
 30
0.0
 11
34.798024
 21
36.121262
 31
0.0
  0
LINE
  5
3C32
100
AcDbEntity
  8
MSL5_60_3F-3
100
AcDbLine
 10
38.114839
 20
50.308418
 30
0.0
 11
31.686963
 21
42.647974
 31
0.0
  0
LINE
  5
3C33
100
AcDbEntity
  8
MSL5_60_3F-3
100
AcDbLine
 10
38.770662
 20
49.758118
 30
0.0
 11
32.342786
 21
42.097674
 31
0.0
  0
LINE
  5
3C34
100
AcDbEntity
  8
MSL5_60_3F-3
100
AcDbLine
 10
34.084986
 20
52.384459
 30
0.0
 11
34.727774
 21
53.150504
 31
0.0
  0
LINE
  5
3C35
100
AcDbEntity
  8
MSL5_60_3F-0
100
AcDbLine
 10
74.843072
 20
22.100586
 30
0.0
 11
66.416583
 21
29.17125
 31
0.0
  0
LINE
  5
3C36
100
AcDbEntity
  8
MSL5_60_3F-7
100
AcDbLine
 10
73.301727
 20
28.820164
 30
0.0
 11
68.331701
 21
22.897118
 31
0.0
  0
LINE
  5
3C37
100
AcDbEntity
  8
MSL5_60_3F-0
100
AcDbLine
 10
73.557497
 20
20.568498
 30
0.0
 11
74.843072
 21
22.100586
 31
0.0
  0
ARC
  5
3C38
100
AcDbEntity
  8
MSL5_60_3F-0
100
AcDbCircle
 10
72.0
 20
19.264578
 30
0.0
 40
2.0
100
AcDbArc
 50
360.0
 51
50.0
1001
GENIUS_GENODEF_13
1002
{
1000
HIER
1070
     0
1002
}
1002
{
1000
MANEDIT
1070
     0
1002
}
1002
{
1000
NOSEL
1070
     0
1002
}
1002
{
1000
BEHIND
1070
     0
1002
}
1002
{
1000
REACTOR
1002
}
1001
GENIUS_GENOBJ-N-FIL_13
1002
{
1000
OWNER
1000
GEN
1002
}
  0
LINE
  5
3C39
100
AcDbEntity
  8
MSL5_60_3F-3
100
AcDbLine
 10
72.766044
 20
19.907366
 30
0.0
 11
73.532089
 21
20.550153
 31
0.0
  0
LINE
  5
3C3A
100
AcDbEntity
  8
MSL5_60_3F-0
100
AcDbLine
 10
74.0
 20
19.264578
 30
0.0
 11
74.0
 21
18.872854
 31
0.0
1001
GENIUS_GENOREF_13
1005
3EC0
  0
LINE
  5
3C3B
100
AcDbEntity
  8
MSL5_60_3F-0
100
AcDbLine
 10
69.097739
 20
26.921494
 30
0.0
 11
72.365354
 21
27.704238
 31
0.0
  0
LINE
  5
3C3C
100
AcDbEntity
  8
MSL5_60_3F-3
100
AcDbLine
 10
64.564825
 20
26.808838
 30
0.0
 11
65.207612
 21
27.574883
 31
0.0
  0
LINE
  5
3C3D
100
AcDbEntity
  8
MSL5_60_3F-0
100
AcDbLine
 10
66.416583
 20
29.17125
 30
0.0
 11
65.131008
 21
27.639161
 31
0.0
  0
LINE
  5
3C3E
100
AcDbEntity
  8
MSL5_60_3F-0
100
AcDbLine
 10
72.365354
 20
27.704238
 30
0.0
 11
72.161916
 21
24.350343
 31
0.0
  0
LINE
  5
3C3F
100
AcDbEntity
  8
MSL5_60_3F-7
100
AcDbLine
 10
155.782286
 20
-26.566245
 30
0.0
 11
155.782286
 21
-10.566245
 31
0.0
  0
CIRCLE
  5
3C40
100
AcDbEntity
  8
MSL5_60_3F-0
100
AcDbCircle
 10
155.782286
 20
-18.566245
 30
0.0
 40
4.188
  0
ARC
  5
3C41
100
AcDbEntity
  8
MSL5_60_3F-4
100
AcDbCircle
 10
155.782286
 20
-18.566245
 30
0.0
 40
5.0
100
AcDbArc
 50
280.0
 51
210.0
  0
LINE
  5
3C42
100
AcDbEntity
  8
MSL5_60_3F-7
100
AcDbLine
 10
147.782286
 20
-18.566245
 30
0.0
 11
163.782286
 21
-18.566245
 31
0.0
  0
LINE
  5
3C43
100
AcDbEntity
  8
MSL5_60_3F-7
100
AcDbLine
 10
297.782286
 20
-27.289834
 30
0.0
 11
297.782286
 21
-71.477365
 31
0.0
  0
LINE
  5
3C44
100
AcDbEntity
  8
MSL5_60_3F-0
100
AcDbLine
 10
189.179579
 20
-162.312192
 30
0.0
 11
172.782286
 21
-162.312192
 31
0.0
  0
LINE
  5
3C45
100
AcDbEntity
  8
MSL5_60_3F-0
100
AcDbLine
 10
186.282286
 20
-167.312192
 30
0.0
 11
173.782286
 21
-167.312192
 31
0.0
  0
LINE
  5
3C46
100
AcDbEntity
  8
MSL5_60_3F-0
100
AcDbLine
 10
193.382286
 20
-161.491684
 30
0.0
 11
190.182286
 21
-161.491684
 31
0.0
  0
LINE
  5
3C47
100
AcDbEntity
  8
MSL5_60_3F-0
100
AcDbLine
 10
187.782286
 20
-166.812192
 30
0.0
 11
187.282286
 21
-167.312192
 31
0.0
  0
LINE
  5
3C48
100
AcDbEntity
  8
MSL5_60_3F-0
100
AcDbLine
 10
195.782286
 20
-162.312192
 30
0.0
 11
194.384993
 21
-162.312192
 31
0.0
  0
MTEXT
  5
3C49
100
AcDbEntity
  8
MSL5_60_3F-6
100
AcDbMText
 10
199.61058
 20
-79.680323
 30
0.0
 40
3.5
 41
22.192126
 71
     1
 72
     1
  1
{MSL5-60-3F}
  0
LINE
  5
3C4A
100
AcDbEntity
  8
MSL5_60_3F-3
100
AcDbLine
 10
168.970286
 20
-87.566245
 30
0.0
 11
168.970286
 21
-64.566245
 31
0.0
  0
LINE
  5
3C4B
100
AcDbEntity
  8
MSL5_60_3F-3
100
AcDbLine
 10
168.970286
 20
-87.566245
 30
0.0
 11
168.970286
 21
-64.566245
 31
0.0
  0
LINE
  5
3C4C
100
AcDbEntity
  8
MSL5_60_3F-3
100
AcDbLine
 10
169.782286
 20
-87.566245
 30
0.0
 11
169.782286
 21
-70.566245
 31
0.0
  0
LINE
  5
3C4D
100
AcDbEntity
  8
MSL5_60_3F-3
100
AcDbLine
 10
169.782286
 20
-87.566245
 30
0.0
 11
169.782286
 21
-70.566245
 31
0.0
  0
LINE
  5
3C4E
100
AcDbEntity
  8
MSL5_60_3F-0
100
AcDbLine
 10
195.782286
 20
-61.066245
 30
0.0
 11
172.782286
 21
-61.066245
 31
0.0
  0
LINE
  5
3C4F
100
AcDbEntity
  8
MSL5_60_3F-0
100
AcDbLine
 10
177.782286
 20
-62.066245
 30
0.0
 11
195.782286
 21
-62.066245
 31
0.0
  0
LINE
  5
3C50
100
AcDbEntity
  8
MSL5_60_3F-0
100
AcDbLine
 10
177.782286
 20
-61.066245
 30
0.0
 11
177.782286
 21
-62.066245
 31
0.0
  0
LINE
  5
3C51
100
AcDbEntity
  8
MSL5_60_3F-0
100
AcDbLine
 10
176.782286
 20
-61.066245
 30
0.0
 11
177.782286
 21
-62.066245
 31
0.0
  0
ARC
  5
3C52
100
AcDbEntity
  8
MSL5_60_3F-4
100
AcDbCircle
 10
267.782286
 20
-78.566245
 30
0.0
 40
5.0
100
AcDbArc
 50
82.606248
 51
7.300134
  0
CIRCLE
  5
3C53
100
AcDbEntity
  8
MSL5_60_3F-0
100
AcDbCircle
 10
267.782286
 20
-78.566245
 30
0.0
 40
4.25
  0
LINE
  5
3C54
100
AcDbEntity
  8
MSL5_60_3F-7
100
AcDbLine
 10
267.782286
 20
-78.566245
 30
0.0
 11
274.684184
 21
-78.566245
 31
0.0
  0
LINE
  5
3C55
100
AcDbEntity
  8
MSL5_60_3F-7
100
AcDbLine
 10
267.782286
 20
-78.566245
 30
0.0
 11
267.782286
 21
-85.468143
 31
0.0
  0
LINE
  5
3C56
100
AcDbEntity
  8
MSL5_60_3F-7
100
AcDbLine
 10
267.782286
 20
-78.566245
 30
0.0
 11
260.880388
 21
-78.566245
 31
0.0
  0
LINE
  5
3C57
100
AcDbEntity
  8
MSL5_60_3F-7
100
AcDbLine
 10
267.782286
 20
-78.566245
 30
0.0
 11
267.782286
 21
-71.664348
 31
0.0
  0
LINE
  5
3C58
100
AcDbEntity
  8
MSL5_60_3F-7
100
AcDbLine
 10
297.782286
 20
-78.566245
 30
0.0
 11
297.782286
 21
-85.655126
 31
0.0
  0
LINE
  5
3C59
100
AcDbEntity
  8
MSL5_60_3F-7
100
AcDbLine
 10
297.782286
 20
-78.566245
 30
0.0
 11
290.693405
 21
-78.566245
 31
0.0
  0
LINE
  5
3C5A
100
AcDbEntity
  8
MSL5_60_3F-7
100
AcDbLine
 10
297.782286
 20
-78.566245
 30
0.0
 11
297.782286
 21
-71.477365
 31
0.0
  0
LINE
  5
3C5B
100
AcDbEntity
  8
MSL5_60_3F-7
100
AcDbLine
 10
248.182286
 20
24.103829
 30
0.0
 11
231.382286
 21
24.103829
 31
0.0
1001
GENIUS_GENODEF_13
1002
{
1000
HIER
1070
     0
1002
}
1002
{
1000
MANEDIT
1070
     0
1002
}
1002
{
1000
NOSEL
1070
     0
1002
}
1002
{
1000
BEHIND
1070
     0
1002
}
1002
{
1000
REACTOR
1002
}
1001
GENIUS_GENOBJ-N-CEN_13
1002
{
1000
OWNER
1000
GEN
1002
}
  0
LINE
  5
3C5C
100
AcDbEntity
  8
MSL5_60_3F-0
100
AcDbLine
 10
231.282286
 20
-10.566245
 30
0.0
 11
234.282286
 21
-10.566245
 31
0.0
  0
CIRCLE
  5
3C5D
100
AcDbEntity
  8
MSL5_60_3F-0
100
AcDbCircle
 10
236.282286
 20
0.433755
 30
0.0
 40
5.501337
  0
LINE
  5
3C5E
100
AcDbEntity
  8
MSL5_60_3F-7
100
AcDbLine
 10
244.032286
 20
13.433755
 30
0.0
 11
228.532286
 21
13.433755
 31
0.0
1001
GENIUS_GENODEF_13
1002
{
1000
HIER
1070
     0
1002
}
1002
{
1000
MANEDIT
1070
     0
1002
}
1002
{
1000
NOSEL
1070
     0
1002
}
1002
{
1000
BEHIND
1070
     0
1002
}
1002
{
1000
REACTOR
1002
}
1001
GENIUS_GENOBJ-N-CEN_13
1002
{
1000
OWNER
1000
GEN
1002
}
  0
LINE
  5
3C5F
100
AcDbEntity
  8
MSL5_60_3F-7
100
AcDbLine
 10
244.032286
 20
0.433755
 30
0.0
 11
228.532286
 21
0.433755
 31
0.0
1001
GENIUS_GENODEF_13
1002
{
1000
HIER
1070
     0
1002
}
1002
{
1000
MANEDIT
1070
     0
1002
}
1002
{
1000
NOSEL
1070
     0
1002
}
1002
{
1000
BEHIND
1070
     0
1002
}
1002
{
1000
REACTOR
1002
}
1001
GENIUS_GENOBJ-N-CEN_13
1002
{
1000
OWNER
1000
GEN
1002
}
  0
CIRCLE
  5
3C60
100
AcDbEntity
  8
MSL5_60_3F-0
100
AcDbCircle
 10
236.282286
 20
13.433755
 30
0.0
 40
5.501337
  0
LINE
  5
3C61
100
AcDbEntity
  8
MSL5_60_3F-0
100
AcDbLine
 10
186.282286
 20
-8.066245
 30
0.0
 11
186.282286
 21
14.933755
 31
0.0
  0
LINE
  5
3C62
100
AcDbEntity
  8
MSL5_60_3F-0
100
AcDbLine
 10
187.282286
 20
14.933755
 30
0.0
 11
187.282286
 21
-8.066245
 31
0.0
  0
ARC
  5
3C63
100
AcDbEntity
  8
MSL5_60_3F-0
100
AcDbCircle
 10
204.607286
 20
3.433755
 30
0.0
 40
16.825
100
AcDbArc
 50
149.0209
 51
210.9791
  0
ARC
  5
3C64
100
AcDbEntity
  8
MSL5_60_3F-0
100
AcDbCircle
 10
178.957286
 20
3.433755
 30
0.0
 40
16.825
100
AcDbArc
 50
329.020901
 51
30.979099
  0
LINE
  5
3C65
100
AcDbEntity
  8
MSL5_60_3F-0
100
AcDbLine
 10
172.782286
 20
13.933755
 30
0.0
 11
172.782286
 21
-7.066245
 31
0.0
  0
LINE
  5
3C66
100
AcDbEntity
  8
MSL5_60_3F-0
100
AcDbLine
 10
173.782286
 20
14.933755
 30
0.0
 11
173.782286
 21
-8.066245
 31
0.0
  0
LINE
  5
3C67
100
AcDbEntity
  8
MSL5_60_3F-0
100
AcDbLine
 10
187.782286
 20
16.424137
 30
0.0
 11
187.782286
 21
-9.556626
 31
0.0
  0
LINE
  5
3C68
100
AcDbEntity
  8
MSL5_60_3F-4
100
AcDbLine
 10
226.282286
 20
-8.566245
 30
0.0
 11
196.282286
 21
-8.566245
 31
0.0
  0
LINE
  5
3C69
100
AcDbEntity
  8
MSL5_60_3F-0
100
AcDbLine
 10
226.282286
 20
-10.566245
 30
0.0
 11
196.282286
 21
-10.566245
 31
0.0
  0
LINE
  5
3C6A
100
AcDbEntity
  8
MSL5_60_3F-0
100
AcDbLine
 10
195.782286
 20
-35.066245
 30
0.0
 11
177.782286
 21
-35.066245
 31
0.0
  0
LINE
  5
3C6B
100
AcDbEntity
  8
MSL5_60_3F-0
100
AcDbLine
 10
172.782286
 20
-36.066245
 30
0.0
 11
195.782286
 21
-36.066245
 31
0.0
  0
LINE
  5
3C6C
100
AcDbEntity
  8
MSL5_60_3F-0
100
AcDbLine
 10
177.782286
 20
-35.066245
 30
0.0
 11
176.782286
 21
-36.066245
 31
0.0
  0
LINE
  5
3C6D
100
AcDbEntity
  8
MSL5_60_3F-0
100
AcDbLine
 10
177.782286
 20
-35.066245
 30
0.0
 11
177.782286
 21
-36.066245
 31
0.0
  0
LINE
  5
3C6E
100
AcDbEntity
  8
MSL5_60_3F-7
100
AcDbLine
 10
169.538634
 20
3.433755
 30
0.0
 11
199.457847
 21
3.433755
 31
0.0
  0
LINE
  5
3C6F
100
AcDbEntity
  8
MSL5_60_3F-0
100
AcDbLine
 10
173.782286
 20
-8.066245
 30
0.0
 11
186.282286
 21
-8.066245
 31
0.0
  0
LINE
  5
3C70
100
AcDbEntity
  8
MSL5_60_3F-0
100
AcDbLine
 10
172.782286
 20
-7.066245
 30
0.0
 11
173.782286
 21
-8.066245
 31
0.0
  0
ARC
  5
3C71
100
AcDbEntity
  8
MSL5_60_3F-0
100
AcDbCircle
 10
190.676036
 20
-9.556626
 30
0.0
 40
5.10625
100
AcDbArc
 50
302.004628
 51
57.995372
  0
ARC
  5
3C72
100
AcDbEntity
  8
MSL5_60_3F-0
100
AcDbCircle
 10
192.888536
 20
-9.556626
 30
0.0
 40
5.10625
100
AcDbArc
 50
122.004627
 51
237.995373
  0
LINE
  5
3C73
100
AcDbEntity
  8
MSL5_60_3F-0
100
AcDbLine
 10
193.382286
 20
-13.886753
 30
0.0
 11
190.182286
 21
-13.886753
 31
0.0
  0
LINE
  5
3C74
100
AcDbEntity
  8
MSL5_60_3F-0
100
AcDbLine
 10
187.282286
 20
-8.066245
 30
0.0
 11
187.782286
 21
-8.566245
 31
0.0
  0
LINE
  5
3C75
100
AcDbEntity
  8
MSL5_60_3F-0
100
AcDbLine
 10
193.382286
 20
-5.226499
 30
0.0
 11
190.182286
 21
-5.226499
 31
0.0
  0
LINE
  5
3C76
100
AcDbEntity
  8
MSL5_60_3F-0
100
AcDbLine
 10
187.282286
 20
7.433755
 30
0.0
 11
186.282286
 21
7.433755
 31
0.0
  0
LINE
  5
3C77
100
AcDbEntity
  8
MSL5_60_3F-0
100
AcDbLine
 10
187.282286
 20
-0.566245
 30
0.0
 11
186.282286
 21
-0.566245
 31
0.0
  0
LINE
  5
3C78
100
AcDbEntity
  8
MSL5_60_3F-0
100
AcDbLine
 10
231.282286
 20
-8.566245
 30
0.0
 11
226.282286
 21
-8.566245
 31
0.0
  0
LINE
  5
3C79
100
AcDbEntity
  8
MSL5_60_3F-0
100
AcDbLine
 10
231.282286
 20
-8.566245
 30
0.0
 11
231.282286
 21
-10.566245
 31
0.0
  0
LINE
  5
3C7A
100
AcDbEntity
  8
MSL5_60_3F-0
100
AcDbLine
 10
226.282286
 20
-8.566245
 30
0.0
 11
226.282286
 21
-10.566245
 31
0.0
  0
LINE
  5
3C7B
100
AcDbEntity
  8
MSL5_60_3F-0
100
AcDbLine
 10
195.782286
 20
31.933755
 30
0.0
 11
172.782286
 21
31.933755
 31
0.0
  0
LINE
  5
3C7C
100
AcDbEntity
  8
MSL5_60_3F-0
100
AcDbLine
 10
186.282286
 20
14.933755
 30
0.0
 11
173.782286
 21
14.933755
 31
0.0
  0
LINE
  5
3C7D
100
AcDbEntity
  8
MSL5_60_3F-0
100
AcDbLine
 10
173.782286
 20
14.933755
 30
0.0
 11
172.782286
 21
13.933755
 31
0.0
  0
LINE
  5
3C7E
100
AcDbEntity
  8
MSL5_60_3F-0
100
AcDbLine
 10
193.382286
 20
20.754264
 30
0.0
 11
190.182286
 21
20.754264
 31
0.0
  0
LINE
  5
3C7F
100
AcDbEntity
  8
MSL5_60_3F-0
100
AcDbLine
 10
193.382286
 20
12.094009
 30
0.0
 11
190.182286
 21
12.094009
 31
0.0
  0
LINE
  5
3C80
100
AcDbEntity
  8
MSL5_60_3F-0
100
AcDbLine
 10
187.782286
 20
15.433755
 30
0.0
 11
187.282286
 21
14.933755
 31
0.0
  0
ARC
  5
3C81
100
AcDbEntity
  8
MSL5_60_3F-0
100
AcDbCircle
 10
192.888536
 20
16.424137
 30
0.0
 40
5.10625
100
AcDbArc
 50
122.004627
 51
237.995373
  0
ARC
  5
3C82
100
AcDbEntity
  8
MSL5_60_3F-0
100
AcDbCircle
 10
190.676036
 20
16.424137
 30
0.0
 40
5.10625
100
AcDbArc
 50
302.004628
 51
57.995372
  0
LINE
  5
3C83
100
AcDbEntity
  8
MSL5_60_3F-0
100
AcDbLine
 10
172.782286
 20
56.933755
 30
0.0
 11
195.782286
 21
56.933755
 31
0.0
  0
LINE
  5
3C84
100
AcDbEntity
  8
MSL5_60_3F-7
100
AcDbLine
 10
200.203786
 20
46.07984
 30
0.0
 11
219.360786
 21
46.07984
 31
0.0
1001
GENIUS_GENODEF_13
1002
{
1000
HIER
1070
     0
1002
}
1002
{
1000
MANEDIT
1070
     0
1002
}
1002
{
1000
NOSEL
1070
     0
1002
}
1002
{
1000
BEHIND
1070
     0
1002
}
1002
{
1000
REACTOR
1002
}
1001
GENIUS_GENOBJ-N-CEN_13
1002
{
1000
OWNER
1000
GEN
1002
}
  0
ELLIPSE
  5
3C85
100
AcDbEntity
  8
MSL5_60_3F-3
100
AcDbEllipse
 10
209.782286
 20
46.07984
 30
0.0
 11
-5.722384999999974
 21
0.0
 31
0.0
210
0.0
220
0.0
230
1.0
 40
0.642788
 41
0.0
 42
6.2831853071796
  0
ELLIPSE
  5
3C86
100
AcDbEntity
  8
MSL5_60_3F-3
100
AcDbEllipse
 10
209.782286
 20
46.07984
 30
0.0
 11
-6.578500000000019
 21
0.0
 31
0.0
210
0.0
220
0.0
230
1.0
 40
0.642788
 41
1.514618869528128
 42
6.41846223782678
  0
LINE
  5
3C87
100
AcDbEntity
  8
MSL5_60_3F-7
100
AcDbLine
 10
209.782286
 20
53.308418
 30
0.0
 11
209.782286
 21
38.851262
 31
0.0
1001
GENIUS_GENODEF_13
1002
{
1000
HIER
1070
     0
1002
}
1002
{
1000
MANEDIT
1070
     0
1002
}
1002
{
1000
NOSEL
1070
     0
1002
}
1002
{
1000
BEHIND
1070
     0
1002
}
1002
{
1000
REACTOR
1002
}
1001
GENIUS_GENOBJ-N-CEN_13
1002
{
1000
OWNER
1000
GEN
1002
}
  0
LINE
  5
3C88
100
AcDbEntity
  8
MSL5_60_3F-7
100
AcDbLine
 10
236.282286
 20
21.183755
 30
0.0
 11
236.282286
 21
-13.566245
 31
0.0
1001
GENIUS_GENODEF_13
1002
{
1000
HIER
1070
     0
1002
}
1002
{
1000
MANEDIT
1070
     0
1002
}
1002
{
1000
NOSEL
1070
     0
1002
}
1002
{
1000
BEHIND
1070
     0
1002
}
1002
{
1000
REACTOR
1002
}
1001
GENIUS_GENOBJ-N-CEN_13
1002
{
1000
OWNER
1000
GEN
1002
}
  0
ARC
  5
3C89
100
AcDbEntity
  8
MSL5_60_3F-4
100
AcDbCircle
 10
267.782286
 20
-18.566245
 30
0.0
 40
5.0
100
AcDbArc
 50
82.606248
 51
7.300134
  0
CIRCLE
  5
3C8A
100
AcDbEntity
  8
MSL5_60_3F-0
100
AcDbCircle
 10
267.782286
 20
-18.566245
 30
0.0
 40
4.25
  0
LINE
  5
3C8B
100
AcDbEntity
  8
MSL5_60_3F-7
100
AcDbLine
 10
267.782286
 20
-18.566245
 30
0.0
 11
274.599532
 21
-18.566245
 31
0.0
  0
LINE
  5
3C8C
100
AcDbEntity
  8
MSL5_60_3F-7
100
AcDbLine
 10
267.782286
 20
-18.566245
 30
0.0
 11
267.782286
 21
-25.383492
 31
0.0
  0
LINE
  5
3C8D
100
AcDbEntity
  8
MSL5_60_3F-0
100
AcDbLine
 10
234.632286
 20
-4.814312
 30
0.0
 11
234.632286
 21
-10.566245
 31
0.0
  0
LINE
  5
3C8E
100
AcDbEntity
  8
MSL5_60_3F-0
100
AcDbLine
 10
237.932286
 20
-4.814312
 30
0.0
 11
237.932286
 21
-10.566245
 31
0.0
  0
LINE
  5
3C8F
100
AcDbEntity
  8
MSL5_60_3F-0
100
AcDbLine
 10
234.632286
 20
-10.566245
 30
0.0
 11
234.282286
 21
-10.566245
 31
0.0
  0
LINE
  5
3C90
100
AcDbEntity
  8
MSL5_60_3F-0
100
AcDbLine
 10
234.632286
 20
8.185688
 30
0.0
 11
234.632286
 21
5.681822
 31
0.0
  0
LINE
  5
3C91
100
AcDbEntity
  8
MSL5_60_3F-0
100
AcDbLine
 10
237.932286
 20
8.185688
 30
0.0
 11
237.932286
 21
5.681822
 31
0.0
  0
LINE
  5
3C92
100
AcDbEntity
  8
MSL5_60_3F-7
100
AcDbLine
 10
267.782286
 20
-18.566245
 30
0.0
 11
267.782286
 21
-11.748999
 31
0.0
  0
LINE
  5
3C93
100
AcDbEntity
  8
MSL5_60_3F-7
100
AcDbLine
 10
267.782286
 20
-18.566245
 30
0.0
 11
260.96504
 21
-18.566245
 31
0.0
  0
LINE
  5
3C94
100
AcDbEntity
  8
MSL5_60_3F-7
100
AcDbLine
 10
297.782286
 20
-18.566245
 30
0.0
 11
297.782286
 21
-25.705994
 31
0.0
  0
LINE
  5
3C95
100
AcDbEntity
  8
MSL5_60_3F-7
100
AcDbLine
 10
297.782286
 20
-18.566245
 30
0.0
 11
290.642537
 21
-18.566245
 31
0.0
  0
LINE
  5
3C96
100
AcDbEntity
  8
MSL5_60_3F-7
100
AcDbLine
 10
297.782286
 20
-18.566245
 30
0.0
 11
297.782286
 21
-11.426497
 31
0.0
  0
LINE
  5
3C97
100
AcDbEntity
  8
MSL5_60_3F-7
100
AcDbLine
 10
239.782286
 20
29.808838
 30
0.0
 11
239.782286
 21
16.230759
 31
0.0
1001
GENIUS_GENODEF_13
1002
{
1000
HIER
1070
     0
1002
}
1002
{
1000
MANEDIT
1070
     0
1002
}
1002
{
1000
NOSEL
1070
     0
1002
}
1002
{
1000
BEHIND
1070
     0
1002
}
1002
{
1000
REACTOR
1002
}
1001
GENIUS_GENOBJ-N-CEN_13
1002
{
1000
OWNER
1000
GEN
1002
}
  0
ELLIPSE
  5
3C98
100
AcDbEntity
  8
MSL5_60_3F-0
100
AcDbEllipse
 10
239.782286
 20
24.103829
 30
0.0
 11
5.5
 21
0.0
 31
0.0
210
0.0
220
0.0
230
1.0
 40
0.642788
 41
3.141592653589793
 42
6.283185307179888
  0
ELLIPSE
  5
3C99
100
AcDbEntity
  8
MSL5_60_3F-0
100
AcDbEllipse
 10
239.782286
 20
25.635918
 30
0.0
 11
5.5
 21
0.0
 31
0.0
210
0.0
220
0.0
230
1.0
 40
0.642788
 41
0.0
 42
6.2831853071796
  0
LINE
  5
3C9A
100
AcDbEntity
  8
MSL5_60_3F-0
100
AcDbLine
 10
234.282286
 20
24.103829
 30
0.0
 11
234.282286
 21
25.635918
 31
0.0
  0
LINE
  5
3C9B
100
AcDbEntity
  8
MSL5_60_3F-0
100
AcDbLine
 10
237.782286
 20
25.635918
 30
0.0
 11
239.782286
 21
27.704238
 31
0.0
  0
ELLIPSE
  5
3C9C
100
AcDbEntity
  8
MSL5_60_3F-0
100
AcDbEllipse
 10
239.782286
 20
25.635918
 30
0.0
 11
-2.0
 21
0.0
 31
0.0
210
0.0
220
0.0
230
1.0
 40
0.642788
 41
-1.112236758281636
 42
4.253829411871665
  0
LINE
  5
3C9D
100
AcDbEntity
  8
MSL5_60_3F-0
100
AcDbLine
 10
239.782286
 20
27.704238
 30
0.0
 11
241.782286
 21
25.635918
 31
0.0
  0
LINE
  5
3C9E
100
AcDbEntity
  8
MSL5_60_3F-0
100
AcDbLine
 10
245.282286
 20
24.103829
 30
0.0
 11
245.282286
 21
25.635918
 31
0.0
  0
LINE
  5
3C9F
100
AcDbEntity
  8
MSL5_60_3F-0
100
AcDbLine
 10
0.0
 20
71.433755
 30
0.0
 11
-12.210704
 21
71.433755
 31
0.0
  0
LINE
  5
3CA0
100
AcDbEntity
  8
MSL5_60_3F-0
100
AcDbLine
 10
-12.552112
 20
70.433755
 30
0.0
 11
12.552112
 21
70.433755
 31
0.0
1001
GENIUS_GENOREF_13
1005
3EC1
  0
ARC
  5
3CA1
100
AcDbEntity
  8
MSL5_60_3F-0
100
AcDbCircle
 10
-12.210704
 20
69.433755
 30
0.0
 40
2.0
100
AcDbArc
 50
90.0
 51
130.0
1001
GENIUS_GENODEF_13
1002
{
1000
HIER
1070
     0
1002
}
1002
{
1000
MANEDIT
1070
     0
1002
}
1002
{
1000
NOSEL
1070
     0
1002
}
1002
{
1000
BEHIND
1070
     0
1002
}
1002
{
1000
REACTOR
1002
}
1001
GENIUS_GENOBJ-N-FIL_13
1002
{
1000
OWNER
1000
GEN
1002
}
  0
LINE
  5
3CA2
100
AcDbEntity
  8
MSL5_60_3F-0
100
AcDbLine
 10
0.0
 20
71.433755
 30
0.0
 11
12.210704
 21
71.433755
 31
0.0
  0
ARC
  5
3CA3
100
AcDbEntity
  8
MSL5_60_3F-0
100
AcDbCircle
 10
12.210704
 20
69.433755
 30
0.0
 40
2.0
100
AcDbArc
 50
50.0
 51
90.0
1001
GENIUS_GENODEF_13
1002
{
1000
HIER
1070
     0
1002
}
1002
{
1000
MANEDIT
1070
     0
1002
}
1002
{
1000
NOSEL
1070
     0
1002
}
1002
{
1000
BEHIND
1070
     0
1002
}
1002
{
1000
REACTOR
1002
}
1001
GENIUS_GENOBJ-N-FIL_13
1002
{
1000
OWNER
1000
GEN
1002
}
  0
CIRCLE
  5
3CA4
100
AcDbEntity
  8
MSL5_60_3F-0
100
AcDbCircle
 10
164.782286
 20
257.194889
 30
0.0
 40
4.188
  0
ARC
  5
3CA5
100
AcDbEntity
  8
MSL5_60_3F-4
100
AcDbCircle
 10
164.782286
 20
257.194889
 30
0.0
 40
5.0
100
AcDbArc
 50
280.0
 51
210.0
  0
LINE
  5
3CA6
100
AcDbEntity
  8
MSL5_60_3F-7
100
AcDbLine
 10
204.121648
 20
261.194889
 30
0.0
 11
164.612224
 21
261.194889
 31
0.0
  0
LINE
  5
3CA7
100
AcDbEntity
  8
MSL5_60_3F-0
100
AcDbLine
 10
172.782286
 20
284.194889
 30
0.0
 11
147.782286
 21
284.194889
 31
0.0
  0
LINE
  5
3CA8
100
AcDbEntity
  8
MSL5_60_3F-7
100
AcDbLine
 10
156.782286
 20
257.194889
 30
0.0
 11
172.782286
 21
257.194889
 31
0.0
  0
LINE
  5
3CA9
100
AcDbEntity
  8
MSL5_60_3F-3
100
AcDbLine
 10
172.782286
 20
234.194889
 30
0.0
 11
147.782286
 21
234.194889
 31
0.0
  0
LINE
  5
3CAA
100
AcDbEntity
  8
MSL5_60_3F-3
100
AcDbLine
 10
172.782286
 20
244.194889
 30
0.0
 11
147.782286
 21
244.194889
 31
0.0
  0
LINE
  5
3CAB
100
AcDbEntity
  8
MSL5_60_3F-7
100
AcDbLine
 10
174.782286
 20
239.194889
 30
0.0
 11
145.782286
 21
239.194889
 31
0.0
  0
LINE
  5
3CAC
100
AcDbEntity
  8
MSL5_60_3F-3
100
AcDbLine
 10
172.782286
 20
188.194889
 30
0.0
 11
165.782286
 21
188.194889
 31
0.0
  0
LINE
  5
3CAD
100
AcDbEntity
  8
MSL5_60_3F-3
100
AcDbLine
 10
165.782286
 20
170.194889
 30
0.0
 11
172.782286
 21
170.194889
 31
0.0
  0
CIRCLE
  5
3CAE
100
AcDbEntity
  8
MSL5_60_3F-0
100
AcDbCircle
 10
164.782286
 20
161.194889
 30
0.0
 40
4.188
  0
ARC
  5
3CAF
100
AcDbEntity
  8
MSL5_60_3F-4
100
AcDbCircle
 10
164.782286
 20
161.194889
 30
0.0
 40
5.0
100
AcDbArc
 50
280.0
 51
210.0
  0
LINE
  5
3CB0
100
AcDbEntity
  8
MSL5_60_3F-7
100
AcDbLine
 10
204.121648
 20
157.194889
 30
0.0
 11
164.612224
 21
157.194889
 31
0.0
  0
LINE
  5
3CB1
100
AcDbEntity
  8
MSL5_60_3F-7
100
AcDbLine
 10
156.782286
 20
161.194889
 30
0.0
 11
172.782286
 21
161.194889
 31
0.0
  0
LINE
  5
3CB2
100
AcDbEntity
  8
MSL5_60_3F-7
100
AcDbLine
 10
174.782286
 20
179.194889
 30
0.0
 11
145.782286
 21
179.194889
 31
0.0
  0
LINE
  5
3CB3
100
AcDbEntity
  8
MSL5_60_3F-0
100
AcDbLine
 10
147.782286
 20
134.194889
 30
0.0
 11
172.782286
 21
134.194889
 31
0.0
  0
LINE
  5
3CB4
100
AcDbEntity
  8
MSL5_60_3F-7
100
AcDbLine
 10
144.782286
 20
209.194889
 30
0.0
 11
204.121648
 21
209.194889
 31
0.0
  0
LINE
  5
3CB5
100
AcDbEntity
  8
MSL5_60_3F-0
100
AcDbLine
 10
147.782286
 20
70.433755
 30
0.0
 11
172.782286
 21
70.433755
 31
0.0
  0
LINE
  5
3CB6
100
AcDbEntity
  8
MSL5_60_3F-3
100
AcDbLine
 10
165.782286
 20
188.194889
 30
0.0
 11
165.782286
 21
170.194889
 31
0.0
  0
LINE
  5
3CB7
100
AcDbEntity
  8
MSL5_60_3F-0
100
AcDbLine
 10
147.782286
 20
284.194889
 30
0.0
 11
147.782286
 21
134.194889
 31
0.0
  0
LINE
  5
3CB8
100
AcDbEntity
  8
MSL5_60_3F-3
100
AcDbLine
 10
159.970286
 20
134.194889
 30
0.0
 11
159.970286
 21
157.194889
 31
0.0
  0
LINE
  5
3CB9
100
AcDbEntity
  8
MSL5_60_3F-7
100
AcDbLine
 10
164.782286
 20
153.194889
 30
0.0
 11
164.782286
 21
169.194889
 31
0.0
  0
LINE
  5
3CBA
100
AcDbEntity
  8
MSL5_60_3F-3
100
AcDbLine
 10
151.594286
 20
134.194889
 30
0.0
 11
151.594286
 21
157.194889
 31
0.0
  0
LINE
  5
3CBB
100
AcDbEntity
  8
MSL5_60_3F-7
100
AcDbLine
 10
155.782286
 20
162.612832
 30
0.0
 11
155.782286
 21
131.194889
 31
0.0
  0
LINE
  5
3CBC
100
AcDbEntity
  8
MSL5_60_3F-3
100
AcDbLine
 10
160.782286
 20
134.194889
 30
0.0
 11
160.782286
 21
151.194889
 31
0.0
  0
LINE
  5
3CBD
100
AcDbEntity
  8
MSL5_60_3F-3
100
AcDbLine
 10
150.782286
 20
134.194889
 30
0.0
 11
150.782286
 21
151.194889
 31
0.0
  0
LINE
  5
3CBE
100
AcDbEntity
  8
MSL5_60_3F-3
100
AcDbLine
 10
160.782286
 20
151.194889
 30
0.0
 11
150.782286
 21
151.194889
 31
0.0
  0
LINE
  5
3CBF
100
AcDbEntity
  8
MSL5_60_3F-3
100
AcDbLine
 10
165.782286
 20
184.694889
 30
0.0
 11
147.782286
 21
184.694889
 31
0.0
  0
LINE
  5
3CC0
100
AcDbEntity
  8
MSL5_60_3F-3
100
AcDbLine
 10
165.782286
 20
173.694889
 30
0.0
 11
147.782286
 21
173.694889
 31
0.0
  0
LINE
  5
3CC1
100
AcDbEntity
  8
MSL5_60_3F-3
100
AcDbLine
 10
155.782286
 20
159.612832
 30
0.0
 11
159.970286
 21
157.194889
 31
0.0
  0
LINE
  5
3CC2
100
AcDbEntity
  8
MSL5_60_3F-3
100
AcDbLine
 10
159.970286
 20
157.194889
 30
0.0
 11
151.594286
 21
157.194889
 31
0.0
  0
LINE
  5
3CC3
100
AcDbEntity
  8
MSL5_60_3F-3
100
AcDbLine
 10
155.782286
 20
159.612832
 30
0.0
 11
151.594286
 21
157.194889
 31
0.0
  0
LINE
  5
3CC4
100
AcDbEntity
  8
MSL5_60_3F-3
100
AcDbLine
 10
160.782286
 20
284.194889
 30
0.0
 11
160.782286
 21
267.194889
 31
0.0
  0
LINE
  5
3CC5
100
AcDbEntity
  8
MSL5_60_3F-3
100
AcDbLine
 10
159.970286
 20
284.194889
 30
0.0
 11
159.970286
 21
261.194889
 31
0.0
  0
LINE
  5
3CC6
100
AcDbEntity
  8
MSL5_60_3F-7
100
AcDbLine
 10
155.782286
 20
255.776946
 30
0.0
 11
155.782286
 21
287.194889
 31
0.0
  0
LINE
  5
3CC7
100
AcDbEntity
  8
MSL5_60_3F-3
100
AcDbLine
 10
150.782286
 20
284.194889
 30
0.0
 11
150.782286
 21
267.194889
 31
0.0
  0
LINE
  5
3CC8
100
AcDbEntity
  8
MSL5_60_3F-3
100
AcDbLine
 10
151.594286
 20
284.194889
 30
0.0
 11
151.594286
 21
261.194889
 31
0.0
  0
LINE
  5
3CC9
100
AcDbEntity
  8
MSL5_60_3F-7
100
AcDbLine
 10
164.782286
 20
249.194889
 30
0.0
 11
164.782286
 21
265.194889
 31
0.0
  0
LINE
  5
3CCA
100
AcDbEntity
  8
MSL5_60_3F-3
100
AcDbLine
 10
155.782286
 20
258.776946
 30
0.0
 11
151.594286
 21
261.194889
 31
0.0
  0
LINE
  5
3CCB
100
AcDbEntity
  8
MSL5_60_3F-3
100
AcDbLine
 10
155.782286
 20
258.776946
 30
0.0
 11
159.970286
 21
261.194889
 31
0.0
  0
LINE
  5
3CCC
100
AcDbEntity
  8
MSL5_60_3F-3
100
AcDbLine
 10
150.782286
 20
267.194889
 30
0.0
 11
160.782286
 21
267.194889
 31
0.0
  0
LINE
  5
3CCD
100
AcDbEntity
  8
MSL5_60_3F-3
100
AcDbLine
 10
159.970286
 20
261.194889
 30
0.0
 11
151.594286
 21
261.194889
 31
0.0
  0
LINE
  5
3CCE
100
AcDbEntity
  8
MSL5_60_3F-7
100
AcDbLine
 10
297.782286
 20
179.194889
 30
0.0
 11
297.782286
 21
186.28377
 31
0.0
  0
LINE
  5
3CCF
100
AcDbEntity
  8
MSL5_60_3F-0
100
AcDbLine
 10
195.782286
 20
284.194889
 30
0.0
 11
195.782286
 21
134.194889
 31
0.0
  0
LINE
  5
3CD0
100
AcDbEntity
  8
MSL5_60_3F-0
100
AcDbLine
 10
172.782286
 20
134.194889
 30
0.0
 11
172.782286
 21
284.194889
 31
0.0
  0
LINE
  5
3CD1
100
AcDbEntity
  8
MSL5_60_3F-0
100
AcDbLine
 10
195.782286
 20
70.433755
 30
0.0
 11
196.282286
 21
70.433755
 31
0.0
  0
LINE
  5
3CD2
100
AcDbEntity
  8
MSL5_60_3F-0
100
AcDbLine
 10
195.782286
 20
144.694889
 30
0.0
 11
172.782286
 21
144.694889
 31
0.0
  0
LINE
  5
3CD3
100
AcDbEntity
  8
MSL5_60_3F-0
100
AcDbLine
 10
190.182286
 20
143.874381
 30
0.0
 11
193.382286
 21
143.874381
 31
0.0
  0
ARC
  5
3CD4
100
AcDbEntity
  8
MSL5_60_3F-0
100
AcDbCircle
 10
192.888536
 20
148.204508
 30
0.0
 40
5.10625
100
AcDbArc
 50
223.418201
 51
237.995373
  0
ARC
  5
3CD5
100
AcDbEntity
  8
MSL5_60_3F-0
100
AcDbCircle
 10
190.676036
 20
148.204508
 30
0.0
 40
5.10625
100
AcDbArc
 50
302.004628
 51
316.5818
  0
LINE
  5
3CD6
100
AcDbEntity
  8
MSL5_60_3F-0
100
AcDbLine
 10
173.782286
 20
172.694889
 30
0.0
 11
186.282286
 21
172.694889
 31
0.0
  0
LINE
  5
3CD7
100
AcDbEntity
  8
MSL5_60_3F-0
100
AcDbLine
 10
172.782286
 20
169.694889
 30
0.0
 11
195.782286
 21
169.694889
 31
0.0
  0
LINE
  5
3CD8
100
AcDbEntity
  8
MSL5_60_3F-7
100
AcDbLine
 10
169.28848
 20
161.194889
 30
0.0
 11
199.60973
 21
161.194889
 31
0.0
  0
LINE
  5
3CD9
100
AcDbEntity
  8
MSL5_60_3F-0
100
AcDbLine
 10
173.782286
 20
169.694889
 30
0.0
 11
173.782286
 21
172.694889
 31
0.0
  0
LINE
  5
3CDA
100
AcDbEntity
  8
MSL5_60_3F-0
100
AcDbLine
 10
172.782286
 20
171.694889
 30
0.0
 11
173.782286
 21
172.694889
 31
0.0
  0
ARC
  5
3CDB
100
AcDbEntity
  8
MSL5_60_3F-0
100
AcDbCircle
 10
190.676036
 20
174.18527
 30
0.0
 40
5.10625
100
AcDbArc
 50
302.004628
 51
57.995372
  0
LINE
  5
3CDC
100
AcDbEntity
  8
MSL5_60_3F-0
100
AcDbLine
 10
187.782286
 20
173.194889
 30
0.0
 11
187.782286
 21
169.694889
 31
0.0
  0
LINE
  5
3CDD
100
AcDbEntity
  8
MSL5_60_3F-0
100
AcDbLine
 10
187.282286
 20
169.694889
 30
0.0
 11
187.282286
 21
172.694889
 31
0.0
  0
LINE
  5
3CDE
100
AcDbEntity
  8
MSL5_60_3F-0
100
AcDbLine
 10
186.282286
 20
172.694889
 30
0.0
 11
186.282286
 21
169.694889
 31
0.0
  0
ARC
  5
3CDF
100
AcDbEntity
  8
MSL5_60_3F-0
100
AcDbCircle
 10
192.888536
 20
174.18527
 30
0.0
 40
5.10625
100
AcDbArc
 50
122.004627
 51
237.995373
  0
LINE
  5
3CE0
100
AcDbEntity
  8
MSL5_60_3F-0
100
AcDbLine
 10
193.382286
 20
169.855143
 30
0.0
 11
190.182286
 21
169.855143
 31
0.0
  0
LINE
  5
3CE1
100
AcDbEntity
  8
MSL5_60_3F-0
100
AcDbLine
 10
190.182286
 20
178.515397
 30
0.0
 11
193.382286
 21
178.515397
 31
0.0
  0
LINE
  5
3CE2
100
AcDbEntity
  8
MSL5_60_3F-0
100
AcDbLine
 10
187.282286
 20
172.694889
 30
0.0
 11
187.782286
 21
173.194889
 31
0.0
  0
MTEXT
  5
3CE3
100
AcDbEntity
  8
MSL5_60_3F-6
100
AcDbMText
 10
200.447235
 20
140.446572
 30
0.0
 40
3.5
 41
22.192126
 71
     1
 72
     1
  1
{MSL5-60-3F}
  0
INSERT
  5
3CE4
100
AcDbEntity
  8
MSL5_60_3F-0
100
AcDbBlockReference
 66
     1
  2
GENINF13
 10
230.817943
 20
169.032876
 30
0.0
1001
GENIUS_GENSCSYM_13
1002
{
1000
INSPT
1011
230.817943
1021
169.032876
1031
0.0
1002
}
1002
{
1000
SCALE
1042
1.0
1002
}
1002
{
1000
USEOLDBPT
1070
     0
1002
}
1001
GENIUS_GENOBJ-N-INFOPT_13
1002
{
1000
OWNER
1000
GEN
1002
}
1001
GENIUS_GENSYMENT_13
1002
{
1000
ENT
1005
3CE4
1002
}
1001
GENIUS_GENODEF_13
1002
{
1000
HIER
1070
     0
1002
}
1002
{
1000
MANEDIT
1070
     0
1002
}
1002
{
1000
NOSEL
1070
     0
1002
}
1002
{
1000
BEHIND
1070
     0
1002
}
1002
{
1000
REACTOR
1002
}
1001
GENIUS_GENOBJ-N-RSSYM_13
1002
{
1000
OWNER
1000
GEN
1002
}
1001
GENIUS_GENINF13_13
1070
     1
  0
ATTRIB
  5
3CE5
100
AcDbEntity
  8
INFO
100
AcDbText
 10
230.817943
 20
169.032876
 30
0.0
 40
1.0
  1
1
100
AcDbAttribute
  2
2GENINF
 70
     1
  0
ATTRIB
  5
3CE6
100
AcDbEntity
  8
INFO
100
AcDbText
 10
230.817943
 20
167.532876
 30
0.0
 40
1.0
  1
<***aktuell***>
100
AcDbAttribute
  2
3GENINF
 70
     1
  0
ATTRIB
  5
3CE7
100
AcDbEntity
  8
INFO
100
AcDbText
 10
230.817943
 20
166.032876
 30
0.0
 40
1.0
  1

100
AcDbAttribute
  2
4GENINF
 70
     1
  0
ATTRIB
  5
3CE8
100
AcDbEntity
  8
INFO
100
AcDbText
 10
230.817943
 20
164.532876
 30
0.0
 40
1.0
  1
MSL5-60-3F
100
AcDbAttribute
  2
5GENINF
 70
     1
  0
ATTRIB
  5
3CE9
100
AcDbEntity
  8
INFO
100
AcDbText
 10
230.817943
 20
163.032876
 30
0.0
 40
1.0
  1

100
AcDbAttribute
  2
6GENINF
 70
     1
  0
ATTRIB
  5
3CEA
100
AcDbEntity
  8
INFO
100
AcDbText
 10
230.817943
 20
161.532876
 30
0.0
 40
1.0
  1
Fa. Mayer
100
AcDbAttribute
  2
7GENINF
 70
     1
  0
ATTRIB
  5
3CEB
100
AcDbEntity
  8
INFO
100
AcDbText
 10
230.817943
 20
160.032876
 30
0.0
 40
1.0
  1

100
AcDbAttribute
  2
8GENINF
 70
     1
  0
ATTRIB
  5
3CEC
100
AcDbEntity
  8
INFO
100
AcDbText
 10
230.817943
 20
158.532876
 30
0.0
 40
1.0
  1

100
AcDbAttribute
  2
9GENINF
 70
     1
  0
ATTRIB
  5
3CED
100
AcDbEntity
  8
INFO
100
AcDbText
 10
230.817943
 20
157.032876
 30
0.0
 40
1.0
  1

100
AcDbAttribute
  2
10GENINF
 70
     1
  0
ATTRIB
  5
3CEE
100
AcDbEntity
  8
INFO
100
AcDbText
 10
230.817943
 20
155.532876
 30
0.0
 40
1.0
  1

100
AcDbAttribute
  2
11GENINF
 70
     1
  0
ATTRIB
  5
3CEF
100
AcDbEntity
  8
INFO
100
AcDbText
 10
230.817943
 20
154.032876
 30
0.0
 40
1.0
  1

100
AcDbAttribute
  2
12GENINF
 70
     1
  0
ATTRIB
  5
3CF0
100
AcDbEntity
  8
INFO
100
AcDbText
 10
230.817943
 20
152.532876
 30
0.0
 40
1.0
  1

100
AcDbAttribute
  2
13GENINF
 70
     1
  0
ATTRIB
  5
3CF1
100
AcDbEntity
  8
INFO
100
AcDbText
 10
230.817943
 20
151.032876
 30
0.0
 40
1.0
  1

100
AcDbAttribute
  2
14GENINF
 70
     1
  0
ATTRIB
  5
3CF2
100
AcDbEntity
  8
INFO
100
AcDbText
 10
230.817943
 20
149.532876
 30
0.0
 40
1.0
  1

100
AcDbAttribute
  2
15GENINF
 70
     1
  0
ATTRIB
  5
3CF3
100
AcDbEntity
  8
INFO
100
AcDbText
 10
230.817943
 20
148.032876
 30
0.0
 40
1.0
  1

100
AcDbAttribute
  2
16GENINF
 70
     1
  0
ATTRIB
  5
3CF4
100
AcDbEntity
  8
INFO
100
AcDbText
 10
230.817943
 20
146.532876
 30
0.0
 40
1.0
  1

100
AcDbAttribute
  2
17GENINF
 70
     1
  0
ATTRIB
  5
3CF5
100
AcDbEntity
  8
INFO
100
AcDbText
 10
230.817943
 20
145.032876
 30
0.0
 40
1.0
  1

100
AcDbAttribute
  2
18GENINF
 70
     1
  0
ATTRIB
  5
3CF6
100
AcDbEntity
  8
INFO
100
AcDbText
 10
230.817943
 20
143.532876
 30
0.0
 40
1.0
  1

100
AcDbAttribute
  2
19GENINF
 70
     1
  0
ATTRIB
  5
3CF7
100
AcDbEntity
  8
INFO
100
AcDbText
 10
230.817943
 20
142.032876
 30
0.0
 40
1.0
  1

100
AcDbAttribute
  2
20GENINF
 70
     1
  0
ATTRIB
  5
3CF8
100
AcDbEntity
  8
INFO
100
AcDbText
 10
230.817943
 20
140.532876
 30
0.0
 40
1.0
  1

100
AcDbAttribute
  2
21GENINF
 70
     1
  0
ATTRIB
  5
3CF9
100
AcDbEntity
  8
INFO
100
AcDbText
 10
230.817943
 20
139.032876
 30
0.0
 40
1.0
  1

100
AcDbAttribute
  2
22GENINF
 70
     1
  0
ATTRIB
  5
3CFA
100
AcDbEntity
  8
INFO
100
AcDbText
 10
230.817943
 20
137.532876
 30
0.0
 40
1.0
  1

100
AcDbAttribute
  2
23GENINF
 70
     1
  0
ATTRIB
  5
3CFB
100
AcDbEntity
  8
INFO
100
AcDbText
 10
230.817943
 20
136.032876
 30
0.0
 40
1.0
  1

100
AcDbAttribute
  2
24GENINF
 70
     1
  0
ATTRIB
  5
3CFC
100
AcDbEntity
  8
INFO
100
AcDbText
 10
230.817943
 20
134.532876
 30
0.0
 40
1.0
  1

100
AcDbAttribute
  2
0GENINF
 70
     1
  0
SEQEND
  5
3CFD
100
AcDbEntity
  8
MSL5_60_3F-0
  0
ARC
  5
3CFE
100
AcDbEntity
  8
MSL5_60_3F-4
100
AcDbCircle
 10
267.782286
 20
179.194889
 30
0.0
 40
5.0
100
AcDbArc
 50
82.606248
 51
7.300134
  0
CIRCLE
  5
3CFF
100
AcDbEntity
  8
MSL5_60_3F-0
100
AcDbCircle
 10
267.782286
 20
179.194889
 30
0.0
 40
4.25
  0
LINE
  5
3D00
100
AcDbEntity
  8
MSL5_60_3F-7
100
AcDbLine
 10
267.782286
 20
179.194889
 30
0.0
 11
274.684184
 21
179.194889
 31
0.0
  0
LINE
  5
3D01
100
AcDbEntity
  8
MSL5_60_3F-3
100
AcDbLine
 10
272.782286
 20
151.194889
 30
0.0
 11
262.782286
 21
151.194889
 31
0.0
  0
LINE
  5
3D02
100
AcDbEntity
  8
MSL5_60_3F-3
100
AcDbLine
 10
271.782286
 20
156.194889
 30
0.0
 11
267.782286
 21
156.194889
 31
0.0
  0
LINE
  5
3D03
100
AcDbEntity
  8
MSL5_60_3F-3
100
AcDbLine
 10
267.782286
 20
158.861555
 30
0.0
 11
271.782286
 21
156.194889
 31
0.0
  0
LINE
  5
3D04
100
AcDbEntity
  8
MSL5_60_3F-3
100
AcDbLine
 10
267.782286
 20
158.861555
 30
0.0
 11
263.782286
 21
156.194889
 31
0.0
  0
LINE
  5
3D05
100
AcDbEntity
  8
MSL5_60_3F-7
100
AcDbLine
 10
267.782286
 20
161.328222
 30
0.0
 11
267.782286
 21
131.728222
 31
0.0
  0
LINE
  5
3D06
100
AcDbEntity
  8
MSL5_60_3F-3
100
AcDbLine
 10
262.782286
 20
151.194889
 30
0.0
 11
262.782286
 21
134.194889
 31
0.0
  0
LINE
  5
3D07
100
AcDbEntity
  8
MSL5_60_3F-3
100
AcDbLine
 10
263.782286
 20
134.194889
 30
0.0
 11
263.782286
 21
156.194889
 31
0.0
  0
LINE
  5
3D08
100
AcDbEntity
  8
MSL5_60_3F-3
100
AcDbLine
 10
267.782286
 20
134.194889
 30
0.0
 11
267.782286
 21
134.194889
 31
0.0
  0
LINE
  5
3D09
100
AcDbEntity
  8
MSL5_60_3F-3
100
AcDbLine
 10
267.782286
 20
134.194889
 30
0.0
 11
267.782286
 21
134.194889
 31
0.0
  0
LINE
  5
3D0A
100
AcDbEntity
  8
MSL5_60_3F-7
100
AcDbLine
 10
267.782286
 20
131.728222
 30
0.0
 11
267.782286
 21
134.194889
 31
0.0
  0
LINE
  5
3D0B
100
AcDbEntity
  8
MSL5_60_3F-3
100
AcDbLine
 10
263.782286
 20
156.194889
 30
0.0
 11
267.782286
 21
156.194889
 31
0.0
  0
LINE
  5
3D0C
100
AcDbEntity
  8
MSL5_60_3F-7
100
AcDbLine
 10
267.782286
 20
179.194889
 30
0.0
 11
267.782286
 21
172.292991
 31
0.0
  0
LINE
  5
3D0D
100
AcDbEntity
  8
MSL5_60_3F-7
100
AcDbLine
 10
267.782286
 20
179.194889
 30
0.0
 11
260.880388
 21
179.194889
 31
0.0
  0
LINE
  5
3D0E
100
AcDbEntity
  8
MSL5_60_3F-7
100
AcDbLine
 10
267.782286
 20
179.194889
 30
0.0
 11
267.782286
 21
186.096787
 31
0.0
  0
LINE
  5
3D0F
100
AcDbEntity
  8
MSL5_60_3F-3
100
AcDbLine
 10
272.782286
 20
134.194889
 30
0.0
 11
272.782286
 21
151.194889
 31
0.0
  0
LINE
  5
3D10
100
AcDbEntity
  8
MSL5_60_3F-3
100
AcDbLine
 10
271.782286
 20
134.194889
 30
0.0
 11
271.782286
 21
156.194889
 31
0.0
  0
LINE
  5
3D11
100
AcDbEntity
  8
MSL5_60_3F-7
100
AcDbLine
 10
297.782286
 20
154.994889
 30
0.0
 11
297.782286
 21
131.728222
 31
0.0
  0
LINE
  5
3D12
100
AcDbEntity
  8
MSL5_60_3F-3
100
AcDbLine
 10
292.782286
 20
134.194889
 30
0.0
 11
292.782286
 21
149.194889
 31
0.0
  0
LINE
  5
3D13
100
AcDbEntity
  8
MSL5_60_3F-3
100
AcDbLine
 10
297.782286
 20
134.194889
 30
0.0
 11
297.782286
 21
134.194889
 31
0.0
  0
LINE
  5
3D14
100
AcDbEntity
  8
MSL5_60_3F-3
100
AcDbLine
 10
297.782286
 20
134.194889
 30
0.0
 11
297.782286
 21
134.194889
 31
0.0
  0
LINE
  5
3D15
100
AcDbEntity
  8
MSL5_60_3F-7
100
AcDbLine
 10
297.782286
 20
131.728222
 30
0.0
 11
297.782286
 21
134.194889
 31
0.0
  0
LINE
  5
3D16
100
AcDbEntity
  8
MSL5_60_3F-3
100
AcDbLine
 10
292.782286
 20
149.194889
 30
0.0
 11
297.782286
 21
149.194889
 31
0.0
  0
LINE
  5
3D17
100
AcDbEntity
  8
MSL5_60_3F-3
100
AcDbLine
 10
297.782286
 20
152.528222
 30
0.0
 11
292.782286
 21
149.194889
 31
0.0
  0
LINE
  5
3D18
100
AcDbEntity
  8
MSL5_60_3F-7
100
AcDbLine
 10
297.782286
 20
179.194889
 30
0.0
 11
290.693405
 21
179.194889
 31
0.0
  0
LINE
  5
3D19
100
AcDbEntity
  8
MSL5_60_3F-7
100
AcDbLine
 10
297.782286
 20
179.194889
 30
0.0
 11
297.782286
 21
172.106008
 31
0.0
  0
LINE
  5
3D1A
100
AcDbEntity
  8
MSL5_60_3F-0
100
AcDbLine
 10
232.280946
 20
288.694882
 30
0.0
 11
240.280946
 21
288.694888
 31
0.0
  0
LINE
  5
3D1B
100
AcDbEntity
  8
MSL5_60_3F-0
100
AcDbLine
 10
176.782286
 20
221.694889
 30
0.0
 11
176.782286
 21
196.694889
 31
0.0
  0
LINE
  5
3D1C
100
AcDbEntity
  8
MSL5_60_3F-0
100
AcDbLine
 10
177.782286
 20
222.694889
 30
0.0
 11
177.782286
 21
195.694889
 31
0.0
  0
LINE
  5
3D1D
100
AcDbEntity
  8
MSL5_60_3F-3
100
AcDbLine
 10
176.782286
 20
196.694889
 30
0.0
 11
195.782286
 21
196.694889
 31
0.0
  0
LINE
  5
3D1E
100
AcDbEntity
  8
MSL5_60_3F-0
100
AcDbLine
 10
177.782286
 20
195.694889
 30
0.0
 11
195.782286
 21
195.694889
 31
0.0
  0
LINE
  5
3D1F
100
AcDbEntity
  8
MSL5_60_3F-0
100
AcDbLine
 10
172.782286
 20
196.694889
 30
0.0
 11
176.782286
 21
196.694889
 31
0.0
  0
LINE
  5
3D20
100
AcDbEntity
  8
MSL5_60_3F-0
100
AcDbLine
 10
176.782286
 20
196.694889
 30
0.0
 11
177.782286
 21
195.694889
 31
0.0
  0
LINE
  5
3D21
100
AcDbEntity
  8
MSL5_60_3F-0
100
AcDbLine
 10
172.782286
 20
215.194889
 30
0.0
 11
176.782286
 21
215.194889
 31
0.0
  0
LINE
  5
3D22
100
AcDbEntity
  8
MSL5_60_3F-0
100
AcDbLine
 10
176.782286
 20
203.194889
 30
0.0
 11
172.782286
 21
203.194889
 31
0.0
  0
LINE
  5
3D23
100
AcDbEntity
  8
MSL5_60_3F-3
100
AcDbLine
 10
176.782286
 20
221.694889
 30
0.0
 11
195.782286
 21
221.694889
 31
0.0
  0
LINE
  5
3D24
100
AcDbEntity
  8
MSL5_60_3F-0
100
AcDbLine
 10
195.782286
 20
222.694889
 30
0.0
 11
177.782286
 21
222.694889
 31
0.0
  0
LINE
  5
3D25
100
AcDbEntity
  8
MSL5_60_3F-0
100
AcDbLine
 10
172.782286
 20
221.694889
 30
0.0
 11
176.782286
 21
221.694889
 31
0.0
  0
LINE
  5
3D26
100
AcDbEntity
  8
MSL5_60_3F-0
100
AcDbLine
 10
177.782286
 20
222.694889
 30
0.0
 11
176.782286
 21
221.694889
 31
0.0
  0
LINE
  5
3D27
100
AcDbEntity
  8
MSL5_60_3F-0
100
AcDbLine
 10
195.782286
 20
273.694889
 30
0.0
 11
172.782286
 21
273.694889
 31
0.0
  0
LINE
  5
3D28
100
AcDbEntity
  8
MSL5_60_3F-0
100
AcDbLine
 10
172.782286
 20
248.694889
 30
0.0
 11
195.782286
 21
248.694889
 31
0.0
  0
LINE
  5
3D29
100
AcDbEntity
  8
MSL5_60_3F-0
100
AcDbLine
 10
230.780949
 20
284.194889
 30
0.0
 11
230.780947
 21
287.194881
 31
0.0
  0
ARC
  5
3D2A
100
AcDbEntity
  8
MSL5_60_3F-0
100
AcDbCircle
 10
232.280947
 20
287.194882
 30
0.0
 40
1.5
100
AcDbArc
 50
90.000041
 51
180.00004
  0
LINE
  5
3D2B
100
AcDbEntity
  8
MSL5_60_3F-7
100
AcDbLine
 10
297.782286
 20
239.194889
 30
0.0
 11
297.782286
 21
246.334638
 31
0.0
  0
LINE
  5
3D2C
100
AcDbEntity
  8
MSL5_60_3F-7
100
AcDbLine
 10
267.782286
 20
239.194889
 30
0.0
 11
267.782286
 21
246.012135
 31
0.0
  0
ARC
  5
3D2D
100
AcDbEntity
  8
MSL5_60_3F-4
100
AcDbCircle
 10
267.782286
 20
239.194889
 30
0.0
 40
5.0
100
AcDbArc
 50
82.606248
 51
7.300134
  0
CIRCLE
  5
3D2E
100
AcDbEntity
  8
MSL5_60_3F-0
100
AcDbCircle
 10
267.782286
 20
239.194889
 30
0.0
 40
4.25
  0
LINE
  5
3D2F
100
AcDbEntity
  8
MSL5_60_3F-7
100
AcDbLine
 10
267.782286
 20
239.194889
 30
0.0
 11
274.599532
 21
239.194889
 31
0.0
  0
LINE
  5
3D30
100
AcDbEntity
  8
MSL5_60_3F-7
100
AcDbLine
 10
267.782286
 20
239.194889
 30
0.0
 11
267.782286
 21
232.377643
 31
0.0
  0
LINE
  5
3D31
100
AcDbEntity
  8
MSL5_60_3F-7
100
AcDbLine
 10
267.782286
 20
239.194889
 30
0.0
 11
260.96504
 21
239.194889
 31
0.0
  0
LINE
  5
3D32
100
AcDbEntity
  8
MSL5_60_3F-7
100
AcDbLine
 10
297.782286
 20
230.4713
 30
0.0
 11
297.782286
 21
186.28377
 31
0.0
  0
LINE
  5
3D33
100
AcDbEntity
  8
MSL5_60_3F-7
100
AcDbLine
 10
297.782286
 20
239.194889
 30
0.0
 11
290.642537
 21
239.194889
 31
0.0
  0
LINE
  5
3D34
100
AcDbEntity
  8
MSL5_60_3F-7
100
AcDbLine
 10
297.782286
 20
239.194889
 30
0.0
 11
297.782286
 21
232.05514
 31
0.0
  0
LINE
  5
3D35
100
AcDbEntity
  8
MSL5_60_3F-3
100
AcDbLine
 10
272.782286
 20
267.194889
 30
0.0
 11
262.782286
 21
267.194889
 31
0.0
  0
LINE
  5
3D36
100
AcDbEntity
  8
MSL5_60_3F-3
100
AcDbLine
 10
267.782286
 20
259.528223
 30
0.0
 11
271.782286
 21
262.194889
 31
0.0
  0
LINE
  5
3D37
100
AcDbEntity
  8
MSL5_60_3F-3
100
AcDbLine
 10
271.782286
 20
262.194889
 30
0.0
 11
267.782286
 21
262.194889
 31
0.0
  0
LINE
  5
3D38
100
AcDbEntity
  8
MSL5_60_3F-7
100
AcDbLine
 10
267.782286
 20
257.061556
 30
0.0
 11
267.782286
 21
286.661556
 31
0.0
  0
LINE
  5
3D39
100
AcDbEntity
  8
MSL5_60_3F-3
100
AcDbLine
 10
262.782286
 20
267.194889
 30
0.0
 11
262.782286
 21
284.194889
 31
0.0
  0
LINE
  5
3D3A
100
AcDbEntity
  8
MSL5_60_3F-3
100
AcDbLine
 10
263.782286
 20
284.194889
 30
0.0
 11
263.782286
 21
262.194889
 31
0.0
  0
LINE
  5
3D3B
100
AcDbEntity
  8
MSL5_60_3F-3
100
AcDbLine
 10
267.782286
 20
259.528223
 30
0.0
 11
263.782286
 21
262.194889
 31
0.0
  0
LINE
  5
3D3C
100
AcDbEntity
  8
MSL5_60_3F-3
100
AcDbLine
 10
263.782286
 20
262.194889
 30
0.0
 11
267.782286
 21
262.194889
 31
0.0
  0
LINE
  5
3D3D
100
AcDbEntity
  8
MSL5_60_3F-7
100
AcDbLine
 10
236.282284
 20
291.48363
 30
0.0
 11
236.282292
 21
280.290903
 31
0.0
  0
LINE
  5
3D3E
100
AcDbEntity
  8
MSL5_60_3F-0
100
AcDbLine
 10
241.780947
 20
287.194889
 30
0.0
 11
241.780949
 21
284.194889
 31
0.0
  0
ARC
  5
3D3F
100
AcDbEntity
  8
MSL5_60_3F-0
100
AcDbCircle
 10
240.280947
 20
287.194888
 30
0.0
 40
1.5
100
AcDbArc
 50
0.000038
 51
90.000041
  0
LINE
  5
3D40
100
AcDbEntity
  8
MSL5_60_3F-7
100
AcDbLine
 10
267.782286
 20
286.661556
 30
0.0
 11
267.782286
 21
284.194889
 31
0.0
  0
LINE
  5
3D41
100
AcDbEntity
  8
MSL5_60_3F-3
100
AcDbLine
 10
267.782286
 20
284.194889
 30
0.0
 11
267.782286
 21
284.194889
 31
0.0
  0
LINE
  5
3D42
100
AcDbEntity
  8
MSL5_60_3F-3
100
AcDbLine
 10
267.782286
 20
284.194889
 30
0.0
 11
267.782286
 21
284.194889
 31
0.0
  0
LINE
  5
3D43
100
AcDbEntity
  8
MSL5_60_3F-3
100
AcDbLine
 10
292.782286
 20
284.194889
 30
0.0
 11
292.782286
 21
269.194889
 31
0.0
  0
LINE
  5
3D44
100
AcDbEntity
  8
MSL5_60_3F-7
100
AcDbLine
 10
297.782286
 20
263.394889
 30
0.0
 11
297.782286
 21
286.661556
 31
0.0
  0
LINE
  5
3D45
100
AcDbEntity
  8
MSL5_60_3F-3
100
AcDbLine
 10
272.782286
 20
284.194889
 30
0.0
 11
272.782286
 21
267.194889
 31
0.0
  0
LINE
  5
3D46
100
AcDbEntity
  8
MSL5_60_3F-3
100
AcDbLine
 10
271.782286
 20
284.194889
 30
0.0
 11
271.782286
 21
262.194889
 31
0.0
  0
LINE
  5
3D47
100
AcDbEntity
  8
MSL5_60_3F-3
100
AcDbLine
 10
292.782286
 20
269.194889
 30
0.0
 11
297.782286
 21
269.194889
 31
0.0
  0
LINE
  5
3D48
100
AcDbEntity
  8
MSL5_60_3F-3
100
AcDbLine
 10
297.782286
 20
265.861556
 30
0.0
 11
292.782286
 21
269.194889
 31
0.0
  0
LINE
  5
3D49
100
AcDbEntity
  8
MSL5_60_3F-7
100
AcDbLine
 10
297.782286
 20
286.661556
 30
0.0
 11
297.782286
 21
284.194889
 31
0.0
  0
LINE
  5
3D4A
100
AcDbEntity
  8
MSL5_60_3F-3
100
AcDbLine
 10
297.782286
 20
284.194889
 30
0.0
 11
297.782286
 21
284.194889
 31
0.0
  0
LINE
  5
3D4B
100
AcDbEntity
  8
MSL5_60_3F-3
100
AcDbLine
 10
297.782286
 20
284.194889
 30
0.0
 11
297.782286
 21
284.194889
 31
0.0
  0
LINE
  5
3D4C
100
AcDbEntity
  8
MSL5_60_3F-0
100
AcDbLine
 10
399.282286
 20
53.150504
 30
0.0
 11
399.282286
 21
71.433755
 31
0.0
  0
LINE
  5
3D4D
100
AcDbEntity
  8
MSL5_60_3F-0
100
AcDbLine
 10
507.782286
 20
70.433755
 30
0.0
 11
507.782286
 21
-87.566245
 31
0.0
  0
LINE
  5
3D4E
100
AcDbEntity
  8
MSL5_60_3F-0
100
AcDbLine
 10
482.782286
 20
70.433755
 30
0.0
 11
482.782286
 21
-87.566245
 31
0.0
  0
LINE
  5
3D4F
100
AcDbEntity
  8
MSL5_60_3F-0
100
AcDbLine
 10
399.782286
 20
70.433755
 30
0.0
 11
399.782286
 21
-86.566245
 31
0.0
  0
LINE
  5
3D50
100
AcDbEntity
  8
MSL5_60_3F-3
100
AcDbLine
 10
504.782286
 20
-151.812121
 30
0.0
 11
504.782286
 21
-168.812121
 31
0.0
  0
LINE
  5
3D51
100
AcDbEntity
  8
MSL5_60_3F-3
100
AcDbLine
 10
494.782286
 20
-151.812121
 30
0.0
 11
494.782286
 21
-168.812121
 31
0.0
  0
LINE
  5
3D52
100
AcDbEntity
  8
MSL5_60_3F-3
100
AcDbLine
 10
495.594286
 20
-151.812121
 30
0.0
 11
495.594286
 21
-174.812121
 31
0.0
  0
LINE
  5
3D53
100
AcDbEntity
  8
MSL5_60_3F-3
100
AcDbLine
 10
503.970286
 20
-151.812121
 30
0.0
 11
503.970286
 21
-174.812121
 31
0.0
  0
LINE
  5
3D54
100
AcDbEntity
  8
MSL5_60_3F-7
100
AcDbLine
 10
499.782286
 20
-180.230064
 30
0.0
 11
499.782286
 21
-148.812121
 31
0.0
  0
LINE
  5
3D55
100
AcDbEntity
  8
MSL5_60_3F-0
100
AcDbLine
 10
507.782286
 20
-151.812192
 30
0.0
 11
507.782286
 21
-301.812192
 31
0.0
  0
ARC
  5
3D56
100
AcDbEntity
  8
MSL5_60_3F-0
100
AcDbCircle
 10
480.48923
 20
-169.183027
 30
0.0
 40
2.293056
100
AcDbArc
 50
305.085848
 51
54.914152
  0
ARC
  5
3D57
100
AcDbEntity
  8
MSL5_60_3F-0
100
AcDbCircle
 10
481.075342
 20
-169.183027
 30
0.0
 40
2.293056
100
AcDbArc
 50
125.085847
 51
234.914153
  0
ARC
  5
3D58
100
AcDbEntity
  8
MSL5_60_3F-0
100
AcDbCircle
 10
465.344451
 20
-169.183027
 30
0.0
 40
2.562165
100
AcDbArc
 50
132.916662
 51
227.083338
  0
LINE
  5
3D59
100
AcDbEntity
  8
MSL5_60_3F-0
100
AcDbLine
 10
466.782286
 20
-182.317746
 30
0.0
 11
466.782286
 21
-167.306639
 31
0.0
  0
ARC
  5
3D5A
100
AcDbEntity
  8
MSL5_60_3F-0
100
AcDbCircle
 10
399.673605
 20
-167.450977
 30
0.0
 40
3.108681
100
AcDbArc
 50
307.878144
 51
52.121856
  0
LINE
  5
3D5B
100
AcDbEntity
  8
MSL5_60_3F-0
100
AcDbLine
 10
402.782286
 20
-167.450977
 30
0.0
 11
402.782286
 21
-182.173408
 31
0.0
  0
LINE
  5
3D5C
100
AcDbEntity
  8
MSL5_60_3F-0
100
AcDbLine
 10
399.282286
 20
-260.897108
 30
0.0
 11
399.282286
 21
-152.812121
 31
0.0
  0
LINE
  5
3D5D
100
AcDbEntity
  8
MSL5_60_3F-0
100
AcDbLine
 10
399.782286
 20
-151.812192
 30
0.0
 11
399.782286
 21
-301.812192
 31
0.0
  0
LINE
  5
3D5E
100
AcDbEntity
  8
MSL5_60_3F-0
100
AcDbLine
 10
482.782286
 20
-301.812192
 30
0.0
 11
482.782286
 21
-151.812192
 31
0.0
  0
LINE
  5
3D5F
100
AcDbEntity
  8
MSL5_60_3F-0
100
AcDbLine
 10
482.782286
 20
-187.312192
 30
0.0
 11
399.782286
 21
-187.312192
 31
0.0
  0
LINE
  5
3D60
100
AcDbEntity
  8
MSL5_60_3F-0
100
AcDbLine
 10
445.582286
 20
-263.204121
 30
0.0
 11
433.082286
 21
-263.204121
 31
0.0
  0
LINE
  5
3D61
100
AcDbEntity
  8
MSL5_60_3F-0
100
AcDbLine
 10
433.082286
 20
-286.204121
 30
0.0
 11
445.582286
 21
-286.204121
 31
0.0
  0
LINE
  5
3D62
100
AcDbEntity
  8
MSL5_60_3F-0
100
AcDbLine
 10
482.782286
 20
-239.312192
 30
0.0
 11
399.782286
 21
-239.312192
 31
0.0
  0
LINE
  5
3D63
100
AcDbEntity
  8
MSL5_60_3F-0
100
AcDbLine
 10
482.782286
 20
-214.312192
 30
0.0
 11
399.782286
 21
-214.312192
 31
0.0
  0
LINE
  5
3D64
100
AcDbEntity
  8
MSL5_60_3F-3
100
AcDbLine
 10
482.782286
 20
-220.812192
 30
0.0
 11
418.782286
 21
-220.812192
 31
0.0
1001
GENIUS_GENBH_13
1002
{
1000
OE
1000
CON1
1002
}
1001
GENIUS_GENOREF_13
1005
3EBE
  0
LINE
  5
3D65
100
AcDbEntity
  8
MSL5_60_3F-3
100
AcDbLine
 10
482.782286
 20
-232.812192
 30
0.0
 11
418.782286
 21
-232.812192
 31
0.0
1001
GENIUS_GENBH_13
1002
{
1000
OE
1000
CON1
1002
}
1001
GENIUS_GENOREF_13
1005
3EBE
  0
LINE
  5
3D66
100
AcDbEntity
  8
MSL5_60_3F-7
100
AcDbLine
 10
394.673008
 20
-274.812192
 30
0.0
 11
451.56765
 21
-274.812192
 31
0.0
  0
LINE
  5
3D67
100
AcDbEntity
  8
MSL5_60_3F-0
100
AcDbLine
 10
482.782286
 20
-291.312192
 30
0.0
 11
406.384993
 21
-291.312192
 31
0.0
  0
LINE
  5
3D68
100
AcDbEntity
  8
MSL5_60_3F-7
100
AcDbLine
 10
490.622252
 20
-278.812192
 30
0.0
 11
389.178292
 21
-278.812192
 31
0.0
  0
LINE
  5
3D69
100
AcDbEntity
  8
MSL5_60_3F-7
100
AcDbLine
 10
490.622252
 20
-174.812192
 30
0.0
 11
389.178292
 21
-174.812192
 31
0.0
  0
LINE
  5
3D6A
100
AcDbEntity
  8
MSL5_60_3F-7
100
AcDbLine
 10
388.784436
 20
-226.812192
 30
0.0
 11
510.782286
 21
-226.812192
 31
0.0
1001
GENIUS_GENOREF_13
1005
3EBE
  0
LINE
  5
3D6B
100
AcDbEntity
  8
MSL5_60_3F-0
100
AcDbLine
 10
433.082286
 20
-263.204121
 30
0.0
 11
433.082286
 21
-286.204121
 31
0.0
  0
LINE
  5
3D6C
100
AcDbEntity
  8
MSL5_60_3F-0
100
AcDbLine
 10
408.282286
 20
-263.204121
 30
0.0
 11
408.282286
 21
-286.204121
 31
0.0
  0
LINE
  5
3D6D
100
AcDbEntity
  8
MSL5_60_3F-0
100
AcDbLine
 10
407.782286
 20
-261.821811
 30
0.0
 11
407.782286
 21
-287.802574
 31
0.0
  0
LINE
  5
3D6E
100
AcDbEntity
  8
MSL5_60_3F-0
100
AcDbLine
 10
399.782286
 20
-261.821811
 30
0.0
 11
399.782286
 21
-287.802574
 31
0.0
  0
LINE
  5
3D6F
100
AcDbEntity
  8
MSL5_60_3F-0
100
AcDbLine
 10
399.282286
 20
-300.812121
 30
0.0
 11
399.282286
 21
-277.750085
 31
0.0
  0
ARC
  5
3D70
100
AcDbEntity
  8
MSL5_60_3F-0
100
AcDbCircle
 10
402.676036
 20
-287.802574
 30
0.0
 40
5.10625
100
AcDbArc
 50
302.004628
 51
57.995372
  0
ARC
  5
3D71
100
AcDbEntity
  8
MSL5_60_3F-0
100
AcDbCircle
 10
404.888536
 20
-287.802574
 30
0.0
 40
5.10625
100
AcDbArc
 50
122.004627
 51
237.995373
  0
LINE
  5
3D72
100
AcDbEntity
  8
MSL5_60_3F-0
100
AcDbLine
 10
402.182286
 20
-292.132701
 30
0.0
 11
405.382286
 21
-292.132701
 31
0.0
  0
LINE
  5
3D73
100
AcDbEntity
  8
MSL5_60_3F-0
100
AcDbLine
 10
408.282286
 20
-286.204121
 30
0.0
 11
407.68348
 21
-286.802927
 31
0.0
  0
CIRCLE
  5
3D74
100
AcDbEntity
  8
MSL5_60_3F-3
100
AcDbCircle
 10
327.782286
 20
-256.812121
 30
0.0
 40
4.25
  0
LINE
  5
3D75
100
AcDbEntity
  8
MSL5_60_3F-7
100
AcDbLine
 10
327.782286
 20
-256.812121
 30
0.0
 11
327.782286
 21
-250.081331
 31
0.0
  0
ARC
  5
3D76
100
AcDbEntity
  8
MSL5_60_3F-3
100
AcDbCircle
 10
327.782286
 20
-256.812121
 30
0.0
 40
5.0
100
AcDbArc
 50
82.606248
 51
7.300134
  0
LINE
  5
3D77
100
AcDbEntity
  8
MSL5_60_3F-7
100
AcDbLine
 10
327.782286
 20
-256.812121
 30
0.0
 11
334.513076
 21
-256.812121
 31
0.0
  0
LINE
  5
3D78
100
AcDbEntity
  8
MSL5_60_3F-7
100
AcDbLine
 10
327.782286
 20
-256.812121
 30
0.0
 11
327.782286
 21
-263.542911
 31
0.0
  0
LINE
  5
3D79
100
AcDbEntity
  8
MSL5_60_3F-7
100
AcDbLine
 10
327.782286
 20
-256.812121
 30
0.0
 11
321.051496
 21
-256.812121
 31
0.0
  0
LINE
  5
3D7A
100
AcDbEntity
  8
MSL5_60_3F-7
100
AcDbLine
 10
327.782286
 20
-196.812121
 30
0.0
 11
327.782286
 21
-203.654835
 31
0.0
  0
CIRCLE
  5
3D7B
100
AcDbEntity
  8
MSL5_60_3F-3
100
AcDbCircle
 10
327.782286
 20
-196.812121
 30
0.0
 40
4.25
  0
ARC
  5
3D7C
100
AcDbEntity
  8
MSL5_60_3F-3
100
AcDbCircle
 10
327.782286
 20
-196.812121
 30
0.0
 40
5.0
100
AcDbArc
 50
82.606248
 51
7.300134
  0
LINE
  5
3D7D
100
AcDbEntity
  8
MSL5_60_3F-7
100
AcDbLine
 10
327.782286
 20
-196.812121
 30
0.0
 11
334.624999
 21
-196.812121
 31
0.0
  0
LINE
  5
3D7E
100
AcDbEntity
  8
MSL5_60_3F-7
100
AcDbLine
 10
327.782286
 20
-196.812121
 30
0.0
 11
327.782286
 21
-189.969408
 31
0.0
  0
LINE
  5
3D7F
100
AcDbEntity
  8
MSL5_60_3F-7
100
AcDbLine
 10
327.782286
 20
-196.812121
 30
0.0
 11
320.939573
 21
-196.812121
 31
0.0
  0
LINE
  5
3D80
100
AcDbEntity
  8
MSL5_60_3F-3
100
AcDbLine
 10
417.782286
 20
-214.312192
 30
0.0
 11
417.782286
 21
-239.312192
 31
0.0
1001
GENIUS_GENBH_13
1002
{
1000
OE
1000
CON1
1002
}
1001
GENIUS_GENOREF_13
1005
3EBE
  0
LINE
  5
3D81
100
AcDbEntity
  8
MSL5_60_3F-3
100
AcDbLine
 10
418.782286
 20
-214.312192
 30
0.0
 11
418.782286
 21
-239.312192
 31
0.0
1001
GENIUS_GENBH_13
1002
{
1000
OE
1000
CON1
1002
}
1001
GENIUS_GENOREF_13
1005
3EBE
  0
LINE
  5
3D82
100
AcDbEntity
  8
MSL5_60_3F-0
100
AcDbLine
 10
402.182286
 20
-266.151938
 30
0.0
 11
405.382286
 21
-266.151938
 31
0.0
  0
LINE
  5
3D83
100
AcDbEntity
  8
MSL5_60_3F-0
100
AcDbLine
 10
402.182286
 20
-257.491684
 30
0.0
 11
405.382286
 21
-257.491684
 31
0.0
  0
LINE
  5
3D84
100
AcDbEntity
  8
MSL5_60_3F-0
100
AcDbLine
 10
402.182286
 20
-283.472446
 30
0.0
 11
405.382286
 21
-283.472446
 31
0.0
  0
LINE
  5
3D85
100
AcDbEntity
  8
MSL5_60_3F-0
100
AcDbLine
 10
417.782286
 20
-240.312192
 30
0.0
 11
399.782286
 21
-240.312192
 31
0.0
  0
ELLIPSE
  5
3D86
100
AcDbEntity
  8
MSL5_60_3F-0
100
AcDbEllipse
 10
385.782286
 20
-269.966455
 30
0.0
 11
-5.722385000000002
 21
0.0
 31
0.0
210
0.0
220
0.0
230
1.0
 40
0.766044
 41
0.0
 42
6.2831853071796
  0
ELLIPSE
  5
3D87
100
AcDbEntity
  8
MSL5_60_3F-4
100
AcDbEllipse
 10
385.782286
 20
-269.966455
 30
0.0
 11
-6.578499999999991
 21
0.0
 31
0.0
210
0.0
220
0.0
230
1.0
 40
0.766044
 41
1.503876197756385
 42
6.396900936057432
  0
LINE
  5
3D88
100
AcDbEntity
  8
MSL5_60_3F-7
100
AcDbLine
 10
376.203786
 20
-269.966455
 30
0.0
 11
395.360786
 21
-269.966455
 31
0.0
1001
GENIUS_GENODEF_13
1002
{
1000
HIER
1070
     0
1002
}
1002
{
1000
MANEDIT
1070
     0
1002
}
1002
{
1000
NOSEL
1070
     0
1002
}
1002
{
1000
BEHIND
1070
     0
1002
}
1002
{
1000
REACTOR
1002
}
1001
GENIUS_GENOBJ-N-CEN_13
1002
{
1000
OWNER
1000
GEN
1002
}
  0
LINE
  5
3D89
100
AcDbEntity
  8
MSL5_60_3F-0
100
AcDbLine
 10
375.582286
 20
-260.897108
 30
0.0
 11
399.282286
 21
-260.897108
 31
0.0
  0
LINE
  5
3D8A
100
AcDbEntity
  8
MSL5_60_3F-0
100
AcDbLine
 10
399.282286
 20
-277.750085
 30
0.0
 11
375.582286
 21
-277.750085
 31
0.0
  0
LINE
  5
3D8B
100
AcDbEntity
  8
MSL5_60_3F-7
100
AcDbLine
 10
385.782286
 20
-261.927032
 30
0.0
 11
385.782286
 21
-278.005878
 31
0.0
1001
GENIUS_GENODEF_13
1002
{
1000
HIER
1070
     0
1002
}
1002
{
1000
MANEDIT
1070
     0
1002
}
1002
{
1000
NOSEL
1070
     0
1002
}
1002
{
1000
BEHIND
1070
     0
1002
}
1002
{
1000
REACTOR
1002
}
1001
GENIUS_GENOBJ-N-CEN_13
1002
{
1000
OWNER
1000
GEN
1002
}
  0
LINE
  5
3D8C
100
AcDbEntity
  8
MSL5_60_3F-0
100
AcDbLine
 10
375.582286
 20
-277.750085
 30
0.0
 11
375.582286
 21
-260.897108
 31
0.0
  0
ARC
  5
3D8D
100
AcDbEntity
  8
MSL5_60_3F-0
100
AcDbCircle
 10
416.607286
 20
-274.812192
 30
0.0
 40
16.825
100
AcDbArc
 50
149.0209
 51
210.9791
  0
ARC
  5
3D8E
100
AcDbEntity
  8
MSL5_60_3F-0
100
AcDbCircle
 10
404.888536
 20
-261.821811
 30
0.0
 40
5.10625
100
AcDbArc
 50
122.004627
 51
237.995373
  0
LINE
  5
3D8F
100
AcDbEntity
  8
MSL5_60_3F-0
100
AcDbLine
 10
408.282286
 20
-270.704121
 30
0.0
 11
433.082286
 21
-270.704121
 31
0.0
  0
LINE
  5
3D90
100
AcDbEntity
  8
MSL5_60_3F-0
100
AcDbLine
 10
433.082286
 20
-266.312192
 30
0.0
 11
408.282286
 21
-266.312192
 31
0.0
  0
LINE
  5
3D91
100
AcDbEntity
  8
MSL5_60_3F-0
100
AcDbLine
 10
408.282286
 20
-278.704121
 30
0.0
 11
433.082286
 21
-278.704121
 31
0.0
  0
ARC
  5
3D92
100
AcDbEntity
  8
MSL5_60_3F-0
100
AcDbCircle
 10
390.957286
 20
-274.812192
 30
0.0
 40
16.825
100
AcDbArc
 50
329.020901
 51
30.979099
  0
LINE
  5
3D93
100
AcDbEntity
  8
MSL5_60_3F-0
100
AcDbLine
 10
407.716568
 20
-262.638403
 30
0.0
 11
408.282286
 21
-263.204121
 31
0.0
  0
ARC
  5
3D94
100
AcDbEntity
  8
MSL5_60_3F-0
100
AcDbCircle
 10
402.676036
 20
-261.821811
 30
0.0
 40
5.10625
100
AcDbArc
 50
302.004628
 51
57.995372
  0
LINE
  5
3D95
100
AcDbEntity
  8
MSL5_60_3F-0
100
AcDbLine
 10
417.782286
 20
-239.312192
 30
0.0
 11
417.782286
 21
-240.312192
 31
0.0
1001
GENIUS_GENOREF_13
1005
3EBE
  0
LINE
  5
3D96
100
AcDbEntity
  8
MSL5_60_3F-0
100
AcDbLine
 10
418.782286
 20
-239.312192
 30
0.0
 11
417.782286
 21
-240.312192
 31
0.0
  0
LINE
  5
3D97
100
AcDbEntity
  8
MSL5_60_3F-0
100
AcDbLine
 10
399.782286
 20
-213.312192
 30
0.0
 11
417.782286
 21
-213.312192
 31
0.0
  0
ARC
  5
3D98
100
AcDbEntity
  8
MSL5_60_3F-0
100
AcDbCircle
 10
399.673605
 20
-182.173408
 30
0.0
 40
3.108681
100
AcDbArc
 50
307.878144
 51
52.121856
  0
LINE
  5
3D99
100
AcDbEntity
  8
MSL5_60_3F-0
100
AcDbLine
 10
399.782286
 20
-184.612192
 30
0.0
 11
401.601357
 21
-184.612192
 31
0.0
  0
LINE
  5
3D9A
100
AcDbEntity
  8
MSL5_60_3F-0
100
AcDbLine
 10
401.582286
 20
-169.904715
 30
0.0
 11
399.782286
 21
-169.904715
 31
0.0
  0
LINE
  5
3D9B
100
AcDbEntity
  8
MSL5_60_3F-0
100
AcDbLine
 10
401.582286
 20
-179.71967
 30
0.0
 11
399.782286
 21
-179.71967
 31
0.0
  0
ARC
  5
3D9C
100
AcDbEntity
  8
MSL5_60_3F-0
100
AcDbCircle
 10
392.147564
 20
-174.812192
 30
0.0
 40
10.634722
100
AcDbArc
 50
332.518773
 51
27.481227
  0
LINE
  5
3D9D
100
AcDbEntity
  8
MSL5_60_3F-0
100
AcDbLine
 10
417.782286
 20
-213.312192
 30
0.0
 11
417.782286
 21
-214.312192
 31
0.0
1001
GENIUS_GENOREF_13
1005
3EBE
  0
LINE
  5
3D9E
100
AcDbEntity
  8
MSL5_60_3F-0
100
AcDbLine
 10
417.782286
 20
-213.312192
 30
0.0
 11
418.782286
 21
-214.312192
 31
0.0
  0
LINE
  5
3D9F
100
AcDbEntity
  8
MSL5_60_3F-3
100
AcDbLine
 10
503.970286
 20
-301.812121
 30
0.0
 11
503.970286
 21
-278.812121
 31
0.0
  0
LINE
  5
3DA0
100
AcDbEntity
  8
MSL5_60_3F-3
100
AcDbLine
 10
495.594286
 20
-301.812121
 30
0.0
 11
495.594286
 21
-278.812121
 31
0.0
  0
LINE
  5
3DA1
100
AcDbEntity
  8
MSL5_60_3F-7
100
AcDbLine
 10
499.782286
 20
-273.394178
 30
0.0
 11
499.782286
 21
-304.812121
 31
0.0
  0
LINE
  5
3DA2
100
AcDbEntity
  8
MSL5_60_3F-3
100
AcDbLine
 10
504.782286
 20
-301.812121
 30
0.0
 11
504.782286
 21
-284.812121
 31
0.0
  0
LINE
  5
3DA3
100
AcDbEntity
  8
MSL5_60_3F-3
100
AcDbLine
 10
494.782286
 20
-301.812121
 30
0.0
 11
494.782286
 21
-284.812121
 31
0.0
  0
LINE
  5
3DA4
100
AcDbEntity
  8
MSL5_60_3F-0
100
AcDbLine
 10
445.582286
 20
-286.204121
 30
0.0
 11
446.582286
 21
-285.204121
 31
0.0
  0
LINE
  5
3DA5
100
AcDbEntity
  8
MSL5_60_3F-0
100
AcDbLine
 10
445.582286
 20
-286.204121
 30
0.0
 11
445.582286
 21
-263.204121
 31
0.0
  0
LINE
  5
3DA6
100
AcDbEntity
  8
MSL5_60_3F-0
100
AcDbLine
 10
507.782286
 20
-301.812192
 30
0.0
 11
482.782286
 21
-301.812192
 31
0.0
  0
LINE
  5
3DA7
100
AcDbEntity
  8
MSL5_60_3F-3
100
AcDbLine
 10
489.782286
 20
-262.312121
 30
0.0
 11
507.782286
 21
-262.312121
 31
0.0
  0
LINE
  5
3DA8
100
AcDbEntity
  8
MSL5_60_3F-3
100
AcDbLine
 10
489.782286
 20
-251.312121
 30
0.0
 11
507.782286
 21
-251.312121
 31
0.0
  0
LINE
  5
3DA9
100
AcDbEntity
  8
MSL5_60_3F-0
100
AcDbLine
 10
507.782286
 20
-239.364304
 30
0.0
 11
482.782286
 21
-239.364304
 31
0.0
  0
LINE
  5
3DAA
100
AcDbEntity
  8
MSL5_60_3F-0
100
AcDbLine
 10
507.782286
 20
-214.26008
 30
0.0
 11
482.782286
 21
-214.26008
 31
0.0
  0
LINE
  5
3DAB
100
AcDbEntity
  8
MSL5_60_3F-7
100
AcDbLine
 10
509.782286
 20
-256.812121
 30
0.0
 11
480.782286
 21
-256.812121
 31
0.0
  0
LINE
  5
3DAC
100
AcDbEntity
  8
MSL5_60_3F-7
100
AcDbLine
 10
509.782286
 20
-196.812121
 30
0.0
 11
480.782286
 21
-196.812121
 31
0.0
  0
LINE
  5
3DAD
100
AcDbEntity
  8
MSL5_60_3F-3
100
AcDbLine
 10
482.782286
 20
-201.812121
 30
0.0
 11
507.782286
 21
-201.812121
 31
0.0
  0
LINE
  5
3DAE
100
AcDbEntity
  8
MSL5_60_3F-3
100
AcDbLine
 10
482.782286
 20
-191.812121
 30
0.0
 11
507.782286
 21
-191.812121
 31
0.0
  0
LINE
  5
3DAF
100
AcDbEntity
  8
MSL5_60_3F-0
100
AcDbLine
 10
482.782286
 20
-266.312192
 30
0.0
 11
446.582286
 21
-266.312192
 31
0.0
  0
LINE
  5
3DB0
100
AcDbEntity
  8
MSL5_60_3F-0
100
AcDbLine
 10
446.582286
 20
-285.204121
 30
0.0
 11
446.582286
 21
-264.204121
 31
0.0
  0
LINE
  5
3DB1
100
AcDbEntity
  8
MSL5_60_3F-0
100
AcDbLine
 10
446.582286
 20
-264.204121
 30
0.0
 11
445.582286
 21
-263.204121
 31
0.0
  0
LINE
  5
3DB2
100
AcDbEntity
  8
MSL5_60_3F-3
100
AcDbLine
 10
489.782286
 20
-247.812121
 30
0.0
 11
489.782286
 21
-265.812121
 31
0.0
  0
LINE
  5
3DB3
100
AcDbEntity
  8
MSL5_60_3F-7
100
AcDbLine
 10
482.782286
 20
-274.812121
 30
0.0
 11
498.782286
 21
-274.812121
 31
0.0
  0
CIRCLE
  5
3DB4
100
AcDbEntity
  8
MSL5_60_3F-3
100
AcDbCircle
 10
490.782286
 20
-274.812121
 30
0.0
 40
4.188
  0
ARC
  5
3DB5
100
AcDbEntity
  8
MSL5_60_3F-3
100
AcDbCircle
 10
490.782286
 20
-274.812121
 30
0.0
 40
5.0
100
AcDbArc
 50
280.0
 51
210.0
  0
LINE
  5
3DB6
100
AcDbEntity
  8
MSL5_60_3F-3
100
AcDbLine
 10
489.782286
 20
-265.812121
 30
0.0
 11
482.782286
 21
-265.812121
 31
0.0
  0
LINE
  5
3DB7
100
AcDbEntity
  8
MSL5_60_3F-7
100
AcDbLine
 10
490.782286
 20
-282.812121
 30
0.0
 11
490.782286
 21
-266.812121
 31
0.0
  0
LINE
  5
3DB8
100
AcDbEntity
  8
MSL5_60_3F-3
100
AcDbLine
 10
499.782286
 20
-276.394178
 30
0.0
 11
495.594286
 21
-278.812121
 31
0.0
  0
LINE
  5
3DB9
100
AcDbEntity
  8
MSL5_60_3F-3
100
AcDbLine
 10
494.782286
 20
-284.812121
 30
0.0
 11
504.782286
 21
-284.812121
 31
0.0
  0
LINE
  5
3DBA
100
AcDbEntity
  8
MSL5_60_3F-3
100
AcDbLine
 10
503.970286
 20
-278.812121
 30
0.0
 11
495.594286
 21
-278.812121
 31
0.0
  0
LINE
  5
3DBB
100
AcDbEntity
  8
MSL5_60_3F-3
100
AcDbLine
 10
499.782286
 20
-276.394178
 30
0.0
 11
503.970286
 21
-278.812121
 31
0.0
  0
LINE
  5
3DBC
100
AcDbEntity
  8
MSL5_60_3F-3
100
AcDbLine
 10
482.782286
 20
-247.812121
 30
0.0
 11
489.782286
 21
-247.812121
 31
0.0
  0
LINE
  5
3DBD
100
AcDbEntity
  8
MSL5_60_3F-0
100
AcDbLine
 10
466.782286
 20
-170.812192
 30
0.0
 11
478.782286
 21
-170.812192
 31
0.0
  0
LINE
  5
3DBE
100
AcDbEntity
  8
MSL5_60_3F-0
100
AcDbLine
 10
466.782286
 20
-178.812192
 30
0.0
 11
478.782286
 21
-178.812192
 31
0.0
  0
LINE
  5
3DBF
100
AcDbEntity
  8
MSL5_60_3F-0
100
AcDbLine
 10
463.599786
 20
-171.059416
 30
0.0
 11
466.782286
 21
-171.059416
 31
0.0
  0
LINE
  5
3DC0
100
AcDbEntity
  8
MSL5_60_3F-0
100
AcDbLine
 10
463.599786
 20
-178.564969
 30
0.0
 11
466.782286
 21
-178.564969
 31
0.0
  0
LINE
  5
3DC1
100
AcDbEntity
  8
MSL5_60_3F-0
100
AcDbLine
 10
463.599786
 20
-182.317746
 30
0.0
 11
466.782286
 21
-182.317746
 31
0.0
  0
ARC
  5
3DC2
100
AcDbEntity
  8
MSL5_60_3F-0
100
AcDbCircle
 10
465.344451
 20
-180.441358
 30
0.0
 40
2.562165
100
AcDbArc
 50
132.916662
 51
227.083338
  0
ARC
  5
3DC3
100
AcDbEntity
  8
MSL5_60_3F-0
100
AcDbCircle
 10
471.804696
 20
-174.812192
 30
0.0
 40
9.02241
100
AcDbArc
 50
155.421502
 51
204.578498
  0
LINE
  5
3DC4
100
AcDbEntity
  8
MSL5_60_3F-0
100
AcDbLine
 10
462.782286
 20
-180.441358
 30
0.0
 11
462.782286
 21
-169.183027
 31
0.0
  0
LINE
  5
3DC5
100
AcDbEntity
  8
MSL5_60_3F-7
100
AcDbLine
 10
482.782286
 20
-178.812121
 30
0.0
 11
498.782286
 21
-178.812121
 31
0.0
  0
ARC
  5
3DC6
100
AcDbEntity
  8
MSL5_60_3F-3
100
AcDbCircle
 10
490.782286
 20
-178.812121
 30
0.0
 40
5.0
100
AcDbArc
 50
280.0
 51
210.0
  0
CIRCLE
  5
3DC7
100
AcDbEntity
  8
MSL5_60_3F-3
100
AcDbCircle
 10
490.782286
 20
-178.812121
 30
0.0
 40
4.188
  0
ARC
  5
3DC8
100
AcDbEntity
  8
MSL5_60_3F-0
100
AcDbCircle
 10
480.48923
 20
-180.441358
 30
0.0
 40
2.293056
100
AcDbArc
 50
305.085848
 51
54.914152
  0
ARC
  5
3DC9
100
AcDbEntity
  8
MSL5_60_3F-0
100
AcDbCircle
 10
475.072564
 20
-174.812192
 30
0.0
 40
7.709722
100
AcDbArc
 50
330.872218
 51
29.127782
  0
LINE
  5
3DCA
100
AcDbEntity
  8
MSL5_60_3F-0
100
AcDbLine
 10
479.757286
 20
-171.059416
 30
0.0
 11
481.807286
 21
-171.059416
 31
0.0
  0
ARC
  5
3DCB
100
AcDbEntity
  8
MSL5_60_3F-0
100
AcDbCircle
 10
481.075342
 20
-180.441358
 30
0.0
 40
2.293056
100
AcDbArc
 50
125.085847
 51
234.914153
  0
LINE
  5
3DCC
100
AcDbEntity
  8
MSL5_60_3F-0
100
AcDbLine
 10
479.757286
 20
-178.564969
 30
0.0
 11
481.807286
 21
-178.564969
 31
0.0
  0
LINE
  5
3DCD
100
AcDbEntity
  8
MSL5_60_3F-0
100
AcDbLine
 10
479.757286
 20
-182.317746
 30
0.0
 11
481.807286
 21
-182.317746
 31
0.0
  0
ARC
  5
3DCE
100
AcDbEntity
  8
MSL5_60_3F-0
100
AcDbCircle
 10
486.492008
 20
-174.812192
 30
0.0
 40
7.709722
100
AcDbArc
 50
150.872216
 51
209.127784
  0
LINE
  5
3DCF
100
AcDbEntity
  8
MSL5_60_3F-0
100
AcDbLine
 10
478.782286
 20
-169.183027
 30
0.0
 11
478.782286
 21
-180.441358
 31
0.0
  0
LINE
  5
3DD0
100
AcDbEntity
  8
MSL5_60_3F-0
100
AcDbLine
 10
482.782286
 20
-169.183027
 30
0.0
 11
482.782286
 21
-180.441358
 31
0.0
  0
LINE
  5
3DD1
100
AcDbEntity
  8
MSL5_60_3F-7
100
AcDbLine
 10
490.782286
 20
-186.812121
 30
0.0
 11
490.782286
 21
-170.812121
 31
0.0
  0
LINE
  5
3DD2
100
AcDbEntity
  8
MSL5_60_3F-3
100
AcDbLine
 10
499.782286
 20
-177.230064
 30
0.0
 11
495.594286
 21
-174.812121
 31
0.0
  0
LINE
  5
3DD3
100
AcDbEntity
  8
MSL5_60_3F-3
100
AcDbLine
 10
494.782286
 20
-168.812121
 30
0.0
 11
504.782286
 21
-168.812121
 31
0.0
  0
LINE
  5
3DD4
100
AcDbEntity
  8
MSL5_60_3F-3
100
AcDbLine
 10
503.970286
 20
-174.812121
 30
0.0
 11
495.594286
 21
-174.812121
 31
0.0
  0
LINE
  5
3DD5
100
AcDbEntity
  8
MSL5_60_3F-3
100
AcDbLine
 10
499.782286
 20
-177.230064
 30
0.0
 11
503.970286
 21
-174.812121
 31
0.0
  0
LINE
  5
3DD6
100
AcDbEntity
  8
MSL5_60_3F-0
100
AcDbLine
 10
482.782286
 20
31.933755
 30
0.0
 11
399.782286
 21
31.933755
 31
0.0
  0
LINE
  5
3DD7
100
AcDbEntity
  8
MSL5_60_3F-0
100
AcDbLine
 10
399.782286
 20
56.933755
 30
0.0
 11
482.782286
 21
56.933755
 31
0.0
  0
LINE
  5
3DD8
100
AcDbEntity
  8
MSL5_60_3F-7
100
AcDbLine
 10
389.178292
 20
44.433755
 30
0.0
 11
510.782286
 21
44.433755
 31
0.0
  0
LINE
  5
3DD9
100
AcDbEntity
  8
MSL5_60_3F-0
100
AcDbLine
 10
482.782286
 20
-61.066245
 30
0.0
 11
399.782286
 21
-61.066245
 31
0.0
  0
LINE
  5
3DDA
100
AcDbEntity
  8
MSL5_60_3F-0
100
AcDbLine
 10
399.782286
 20
-36.066245
 30
0.0
 11
482.782286
 21
-36.066245
 31
0.0
  0
LINE
  5
3DDB
100
AcDbEntity
  8
MSL5_60_3F-0
100
AcDbLine
 10
482.782286
 20
-162.312192
 30
0.0
 11
399.782286
 21
-162.312192
 31
0.0
  0
LINE
  5
3DDC
100
AcDbEntity
  8
MSL5_60_3F-7
100
AcDbLine
 10
389.178292
 20
-48.566245
 30
0.0
 11
510.782286
 21
-48.566245
 31
0.0
  0
LINE
  5
3DDD
100
AcDbEntity
  8
MSL5_60_3F-0
100
AcDbLine
 10
357.797534
 20
-151.812192
 30
0.0
 11
399.782286
 21
-151.812192
 31
0.0
  0
LINE
  5
3DDE
100
AcDbEntity
  8
MSL5_60_3F-0
100
AcDbLine
 10
359.746786
 20
-152.812121
 30
0.0
 11
399.282286
 21
-152.812121
 31
0.0
  0
LINE
  5
3DDF
100
AcDbEntity
  8
MSL5_60_3F-0
100
AcDbLine
 10
355.782284
 20
-154.446838
 30
0.0
 11
353.782286
 21
-155.732417
 31
0.0
  0
ELLIPSE
  5
3DE0
100
AcDbEntity
  8
MSL5_60_3F-0
100
AcDbEllipse
 10
355.782286
 20
-155.732422
 30
0.0
 11
-2.000000000006366
 21
0.0
 31
0.0
210
0.0
220
0.0
230
1.0
 40
0.766044
 41
0.0
 42
6.2831853071796
  0
ELLIPSE
  5
3DE1
100
AcDbEntity
  8
MSL5_60_3F-0
100
AcDbEllipse
 10
355.782286
 20
-155.732422
 30
0.0
 11
-5.500000000006366
 21
0.0
 31
0.0
210
0.0
220
0.0
230
1.0
 40
0.766044
 41
0.0
 42
6.2831853071796
  0
ELLIPSE
  5
3DE2
100
AcDbEntity
  8
MSL5_60_3F-0
100
AcDbEllipse
 10
355.782289
 20
-157.46794
 30
0.0
 11
-5.499999999998895
 21
-0.0000090659728525
 31
0.0
210
0.0
220
0.0
230
-1.0
 40
0.766044
 41
-3.141592653589791
 42
0.0000000000001092
  0
LINE
  5
3DE3
100
AcDbEntity
  8
MSL5_60_3F-7
100
AcDbLine
 10
364.282286
 20
-155.732411
 30
0.0
 11
347.282286
 21
-155.732425
 31
0.0
1001
GENIUS_GENODEF_13
1002
{
1000
HIER
1070
     0
1002
}
1002
{
1000
MANEDIT
1070
     0
1002
}
1002
{
1000
NOSEL
1070
     0
1002
}
1002
{
1000
BEHIND
1070
     0
1002
}
1002
{
1000
REACTOR
1002
}
1001
GENIUS_GENOBJ-N-CEN_13
1002
{
1000
OWNER
1000
GEN
1002
}
  0
LINE
  5
3DE4
100
AcDbEntity
  8
MSL5_60_3F-0
100
AcDbLine
 10
350.282289
 20
-157.467949
 30
0.0
 11
350.282286
 21
-155.732422
 31
0.0
  0
LINE
  5
3DE5
100
AcDbEntity
  8
MSL5_60_3F-7
100
AcDbLine
 10
355.782286
 20
-162.945667
 30
0.0
 11
355.782286
 21
-148.519178
 31
0.0
1001
GENIUS_GENODEF_13
1002
{
1000
HIER
1070
     0
1002
}
1002
{
1000
MANEDIT
1070
     0
1002
}
1002
{
1000
NOSEL
1070
     0
1002
}
1002
{
1000
BEHIND
1070
     0
1002
}
1002
{
1000
REACTOR
1002
}
1001
GENIUS_GENOBJ-N-CEN_13
1002
{
1000
OWNER
1000
GEN
1002
}
  0
LINE
  5
3DE6
100
AcDbEntity
  8
MSL5_60_3F-0
100
AcDbLine
 10
361.282289
 20
-157.46794
 30
0.0
 11
361.282286
 21
-155.732395
 31
0.0
  0
LINE
  5
3DE7
100
AcDbEntity
  8
MSL5_60_3F-0
100
AcDbLine
 10
357.782286
 20
-155.732405
 30
0.0
 11
355.782284
 21
-154.446838
 31
0.0
  0
LINE
  5
3DE8
100
AcDbEntity
  8
MSL5_60_3F-7
100
AcDbLine
 10
327.782286
 20
-78.566245
 30
0.0
 11
327.782286
 21
-85.297035
 31
0.0
  0
CIRCLE
  5
3DE9
100
AcDbEntity
  8
MSL5_60_3F-0
100
AcDbCircle
 10
327.782286
 20
-78.566245
 30
0.0
 40
4.25
  0
ARC
  5
3DEA
100
AcDbEntity
  8
MSL5_60_3F-4
100
AcDbCircle
 10
327.782286
 20
-78.566245
 30
0.0
 40
5.0
100
AcDbArc
 50
82.606248
 51
7.300134
  0
LINE
  5
3DEB
100
AcDbEntity
  8
MSL5_60_3F-7
100
AcDbLine
 10
327.782286
 20
-78.566245
 30
0.0
 11
334.513076
 21
-78.566245
 31
0.0
  0
LINE
  5
3DEC
100
AcDbEntity
  8
MSL5_60_3F-7
100
AcDbLine
 10
327.782286
 20
-78.566245
 30
0.0
 11
327.782286
 21
-71.835455
 31
0.0
  0
LINE
  5
3DED
100
AcDbEntity
  8
MSL5_60_3F-7
100
AcDbLine
 10
327.782286
 20
-78.566245
 30
0.0
 11
321.051496
 21
-78.566245
 31
0.0
  0
LINE
  5
3DEE
100
AcDbEntity
  8
MSL5_60_3F-0
100
AcDbLine
 10
401.601357
 20
-165.012192
 30
0.0
 11
399.782286
 21
-165.012192
 31
0.0
  0
LINE
  5
3DEF
100
AcDbEntity
  8
MSL5_60_3F-0
100
AcDbLine
 10
417.782286
 20
-62.066245
 30
0.0
 11
399.782286
 21
-62.066245
 31
0.0
  0
LINE
  5
3DF0
100
AcDbEntity
  8
MSL5_60_3F-0
100
AcDbLine
 10
417.782286
 20
-61.066245
 30
0.0
 11
417.782286
 21
-62.066245
 31
0.0
  0
LINE
  5
3DF1
100
AcDbEntity
  8
MSL5_60_3F-0
100
AcDbLine
 10
418.782286
 20
-61.066245
 30
0.0
 11
417.782286
 21
-62.066245
 31
0.0
  0
LINE
  5
3DF2
100
AcDbEntity
  8
MSL5_60_3F-0
100
AcDbLine
 10
399.282286
 20
-10.566245
 30
0.0
 11
369.282286
 21
-10.566245
 31
0.0
  0
LINE
  5
3DF3
100
AcDbEntity
  8
MSL5_60_3F-4
100
AcDbLine
 10
399.282286
 20
-8.566245
 30
0.0
 11
369.282286
 21
-8.566245
 31
0.0
  0
LINE
  5
3DF4
100
AcDbEntity
  8
MSL5_60_3F-7
100
AcDbLine
 10
327.782286
 20
-18.566245
 30
0.0
 11
327.782286
 21
-25.408959
 31
0.0
  0
CIRCLE
  5
3DF5
100
AcDbEntity
  8
MSL5_60_3F-0
100
AcDbCircle
 10
327.782286
 20
-18.566245
 30
0.0
 40
4.25
  0
ARC
  5
3DF6
100
AcDbEntity
  8
MSL5_60_3F-4
100
AcDbCircle
 10
327.782286
 20
-18.566245
 30
0.0
 40
5.0
100
AcDbArc
 50
82.606248
 51
7.300134
  0
LINE
  5
3DF7
100
AcDbEntity
  8
MSL5_60_3F-7
100
AcDbLine
 10
327.782286
 20
-18.566245
 30
0.0
 11
334.624999
 21
-18.566245
 31
0.0
  0
LINE
  5
3DF8
100
AcDbEntity
  8
MSL5_60_3F-7
100
AcDbLine
 10
327.782286
 20
-18.566245
 30
0.0
 11
327.782286
 21
-11.723532
 31
0.0
  0
LINE
  5
3DF9
100
AcDbEntity
  8
MSL5_60_3F-7
100
AcDbLine
 10
327.782286
 20
-18.566245
 30
0.0
 11
320.939573
 21
-18.566245
 31
0.0
  0
LINE
  5
3DFA
100
AcDbEntity
  8
MSL5_60_3F-0
100
AcDbLine
 10
361.282286
 20
-10.566245
 30
0.0
 11
364.282286
 21
-10.566245
 31
0.0
  0
LINE
  5
3DFB
100
AcDbEntity
  8
MSL5_60_3F-0
100
AcDbLine
 10
369.282286
 20
-8.566245
 30
0.0
 11
364.282286
 21
-8.566245
 31
0.0
  0
LINE
  5
3DFC
100
AcDbEntity
  8
MSL5_60_3F-0
100
AcDbLine
 10
364.282286
 20
-10.566245
 30
0.0
 11
364.282286
 21
-8.566245
 31
0.0
  0
LINE
  5
3DFD
100
AcDbEntity
  8
MSL5_60_3F-0
100
AcDbLine
 10
369.282286
 20
-10.566245
 30
0.0
 11
369.282286
 21
-8.566245
 31
0.0
  0
ARC
  5
3DFE
100
AcDbEntity
  8
MSL5_60_3F-0
100
AcDbCircle
 10
399.673605
 20
10.794971
 30
0.0
 40
3.108681
100
AcDbArc
 50
307.878144
 51
52.121856
  0
LINE
  5
3DFF
100
AcDbEntity
  8
MSL5_60_3F-0
100
AcDbLine
 10
402.782286
 20
-3.92746
 30
0.0
 11
402.782286
 21
10.794971
 31
0.0
  0
LINE
  5
3E00
100
AcDbEntity
  8
MSL5_60_3F-0
100
AcDbLine
 10
399.282286
 20
-10.566245
 30
0.0
 11
399.282286
 21
39.009176
 31
0.0
  0
LINE
  5
3E01
100
AcDbEntity
  8
MSL5_60_3F-7
100
AcDbLine
 10
393.094724
 20
3.433755
 30
0.0
 11
407.216591
 21
3.433755
 31
0.0
  0
LINE
  5
3E02
100
AcDbEntity
  8
MSL5_60_3F-0
100
AcDbLine
 10
399.782286
 20
-35.066245
 30
0.0
 11
417.782286
 21
-35.066245
 31
0.0
  0
ARC
  5
3E03
100
AcDbEntity
  8
MSL5_60_3F-0
100
AcDbCircle
 10
399.673605
 20
-3.92746
 30
0.0
 40
3.108681
100
AcDbArc
 50
307.878144
 51
52.121856
  0
LINE
  5
3E04
100
AcDbEntity
  8
MSL5_60_3F-0
100
AcDbLine
 10
401.601357
 20
-6.366245
 30
0.0
 11
399.782286
 21
-6.366245
 31
0.0
  0
LINE
  5
3E05
100
AcDbEntity
  8
MSL5_60_3F-0
100
AcDbLine
 10
401.582286
 20
8.341233
 30
0.0
 11
399.782286
 21
8.341233
 31
0.0
  0
LINE
  5
3E06
100
AcDbEntity
  8
MSL5_60_3F-0
100
AcDbLine
 10
401.582286
 20
-1.473722
 30
0.0
 11
399.782286
 21
-1.473722
 31
0.0
  0
ARC
  5
3E07
100
AcDbEntity
  8
MSL5_60_3F-0
100
AcDbCircle
 10
392.147564
 20
3.433755
 30
0.0
 40
10.634722
100
AcDbArc
 50
332.518773
 51
27.481227
  0
LINE
  5
3E08
100
AcDbEntity
  8
MSL5_60_3F-0
100
AcDbLine
 10
417.782286
 20
-35.066245
 30
0.0
 11
418.782286
 21
-36.066245
 31
0.0
  0
LINE
  5
3E09
100
AcDbEntity
  8
MSL5_60_3F-0
100
AcDbLine
 10
417.782286
 20
-35.066245
 30
0.0
 11
417.782286
 21
-36.066245
 31
0.0
  0
LINE
  5
3E0A
100
AcDbEntity
  8
MSL5_60_3F-0
100
AcDbLine
 10
399.782286
 20
13.233755
 30
0.0
 11
401.601357
 21
13.233755
 31
0.0
  0
ELLIPSE
  5
3E0B
100
AcDbEntity
  8
MSL5_60_3F-0
100
AcDbEllipse
 10
385.782286
 20
46.07984
 30
0.0
 11
-5.722384999999974
 21
0.0
 31
0.0
210
0.0
220
0.0
230
1.0
 40
0.642788
 41
0.0
 42
6.2831853071796
  0
ELLIPSE
  5
3E0C
100
AcDbEntity
  8
MSL5_60_3F-4
100
AcDbEllipse
 10
385.782286
 20
46.07984
 30
0.0
 11
-6.578500000000019
 21
0.0
 31
0.0
210
0.0
220
0.0
230
1.0
 40
0.642788
 41
1.514618869528128
 42
6.418462237826772
  0
LINE
  5
3E0D
100
AcDbEntity
  8
MSL5_60_3F-7
100
AcDbLine
 10
376.203786
 20
46.07984
 30
0.0
 11
395.360786
 21
46.07984
 31
0.0
1001
GENIUS_GENODEF_13
1002
{
1000
HIER
1070
     0
1002
}
1002
{
1000
MANEDIT
1070
     0
1002
}
1002
{
1000
NOSEL
1070
     0
1002
}
1002
{
1000
BEHIND
1070
     0
1002
}
1002
{
1000
REACTOR
1002
}
1001
GENIUS_GENOBJ-N-CEN_13
1002
{
1000
OWNER
1000
GEN
1002
}
  0
LINE
  5
3E0E
100
AcDbEntity
  8
MSL5_60_3F-0
100
AcDbLine
 10
375.582286
 20
53.150504
 30
0.0
 11
399.282286
 21
53.150504
 31
0.0
  0
LINE
  5
3E0F
100
AcDbEntity
  8
MSL5_60_3F-0
100
AcDbLine
 10
399.282286
 20
39.009176
 30
0.0
 11
375.582286
 21
39.009176
 31
0.0
  0
LINE
  5
3E10
100
AcDbEntity
  8
MSL5_60_3F-0
100
AcDbLine
 10
375.582286
 20
39.009176
 30
0.0
 11
375.582286
 21
53.150504
 31
0.0
  0
LINE
  5
3E11
100
AcDbEntity
  8
MSL5_60_3F-7
100
AcDbLine
 10
385.782286
 20
53.308418
 30
0.0
 11
385.782286
 21
38.851262
 31
0.0
1001
GENIUS_GENODEF_13
1002
{
1000
HIER
1070
     0
1002
}
1002
{
1000
MANEDIT
1070
     0
1002
}
1002
{
1000
NOSEL
1070
     0
1002
}
1002
{
1000
BEHIND
1070
     0
1002
}
1002
{
1000
REACTOR
1002
}
1001
GENIUS_GENOBJ-N-CEN_13
1002
{
1000
OWNER
1000
GEN
1002
}
  0
LINE
  5
3E12
100
AcDbEntity
  8
MSL5_60_3F-7
100
AcDbLine
 10
491.782286
 20
-78.566245
 30
0.0
 11
507.782286
 21
-78.566245
 31
0.0
  0
LINE
  5
3E13
100
AcDbEntity
  8
MSL5_60_3F-0
100
AcDbLine
 10
482.782286
 20
-151.812192
 30
0.0
 11
507.782286
 21
-151.812192
 31
0.0
  0
LINE
  5
3E14
100
AcDbEntity
  8
MSL5_60_3F-0
100
AcDbLine
 10
507.782286
 20
-87.566245
 30
0.0
 11
482.782286
 21
-87.566245
 31
0.0
  0
LINE
  5
3E15
100
AcDbEntity
  8
MSL5_60_3F-7
100
AcDbLine
 10
509.782286
 20
-78.566245
 30
0.0
 11
480.782286
 21
-78.566245
 31
0.0
  0
LINE
  5
3E16
100
AcDbEntity
  8
MSL5_60_3F-0
100
AcDbLine
 10
466.782286
 20
-167.306639
 30
0.0
 11
463.599786
 21
-167.306639
 31
0.0
  0
LINE
  5
3E17
100
AcDbEntity
  8
MSL5_60_3F-0
100
AcDbLine
 10
479.757286
 20
-167.306639
 30
0.0
 11
481.807286
 21
-167.306639
 31
0.0
  0
CIRCLE
  5
3E18
100
AcDbEntity
  8
MSL5_60_3F-0
100
AcDbCircle
 10
499.782286
 20
-78.566245
 30
0.0
 40
4.188
  0
ARC
  5
3E19
100
AcDbEntity
  8
MSL5_60_3F-4
100
AcDbCircle
 10
499.782286
 20
-78.566245
 30
0.0
 40
5.0
100
AcDbArc
 50
280.0
 51
210.0
  0
LINE
  5
3E1A
100
AcDbEntity
  8
MSL5_60_3F-7
100
AcDbLine
 10
490.782286
 20
-59.148303
 30
0.0
 11
490.782286
 21
-90.566245
 31
0.0
  0
LINE
  5
3E1B
100
AcDbEntity
  8
MSL5_60_3F-7
100
AcDbLine
 10
490.782286
 20
-59.148303
 30
0.0
 11
490.782286
 21
-90.566245
 31
0.0
  0
LINE
  5
3E1C
100
AcDbEntity
  8
MSL5_60_3F-3
100
AcDbLine
 10
495.782286
 20
-87.566245
 30
0.0
 11
495.782286
 21
-70.566245
 31
0.0
  0
LINE
  5
3E1D
100
AcDbEntity
  8
MSL5_60_3F-3
100
AcDbLine
 10
495.782286
 20
-87.566245
 30
0.0
 11
495.782286
 21
-70.566245
 31
0.0
  0
LINE
  5
3E1E
100
AcDbEntity
  8
MSL5_60_3F-3
100
AcDbLine
 10
494.970286
 20
-87.566245
 30
0.0
 11
494.970286
 21
-64.566245
 31
0.0
  0
LINE
  5
3E1F
100
AcDbEntity
  8
MSL5_60_3F-3
100
AcDbLine
 10
494.970286
 20
-87.566245
 30
0.0
 11
494.970286
 21
-64.566245
 31
0.0
  0
LINE
  5
3E20
100
AcDbEntity
  8
MSL5_60_3F-7
100
AcDbLine
 10
499.782286
 20
-86.566245
 30
0.0
 11
499.782286
 21
-70.566245
 31
0.0
  0
LINE
  5
3E21
100
AcDbEntity
  8
MSL5_60_3F-3
100
AcDbLine
 10
485.782286
 20
-87.566245
 30
0.0
 11
485.782286
 21
-70.566245
 31
0.0
  0
LINE
  5
3E22
100
AcDbEntity
  8
MSL5_60_3F-3
100
AcDbLine
 10
485.782286
 20
-87.566245
 30
0.0
 11
485.782286
 21
-70.566245
 31
0.0
  0
LINE
  5
3E23
100
AcDbEntity
  8
MSL5_60_3F-3
100
AcDbLine
 10
486.594286
 20
-87.566245
 30
0.0
 11
486.594286
 21
-64.566245
 31
0.0
  0
LINE
  5
3E24
100
AcDbEntity
  8
MSL5_60_3F-3
100
AcDbLine
 10
486.594286
 20
-87.566245
 30
0.0
 11
486.594286
 21
-64.566245
 31
0.0
  0
LINE
  5
3E25
100
AcDbEntity
  8
MSL5_60_3F-3
100
AcDbLine
 10
490.782286
 20
-62.148303
 30
0.0
 11
486.594286
 21
-64.566245
 31
0.0
  0
LINE
  5
3E26
100
AcDbEntity
  8
MSL5_60_3F-3
100
AcDbLine
 10
490.782286
 20
-62.148303
 30
0.0
 11
486.594286
 21
-64.566245
 31
0.0
  0
LINE
  5
3E27
100
AcDbEntity
  8
MSL5_60_3F-3
100
AcDbLine
 10
486.594286
 20
-64.566245
 30
0.0
 11
494.970286
 21
-64.566245
 31
0.0
  0
LINE
  5
3E28
100
AcDbEntity
  8
MSL5_60_3F-3
100
AcDbLine
 10
486.594286
 20
-64.566245
 30
0.0
 11
494.970286
 21
-64.566245
 31
0.0
  0
LINE
  5
3E29
100
AcDbEntity
  8
MSL5_60_3F-3
100
AcDbLine
 10
485.782286
 20
-70.566245
 30
0.0
 11
495.782286
 21
-70.566245
 31
0.0
  0
LINE
  5
3E2A
100
AcDbEntity
  8
MSL5_60_3F-3
100
AcDbLine
 10
485.782286
 20
-70.566245
 30
0.0
 11
495.782286
 21
-70.566245
 31
0.0
  0
LINE
  5
3E2B
100
AcDbEntity
  8
MSL5_60_3F-3
100
AcDbLine
 10
490.782286
 20
-62.148303
 30
0.0
 11
494.970286
 21
-64.566245
 31
0.0
  0
LINE
  5
3E2C
100
AcDbEntity
  8
MSL5_60_3F-3
100
AcDbLine
 10
490.782286
 20
-62.148303
 30
0.0
 11
494.970286
 21
-64.566245
 31
0.0
  0
LINE
  5
3E2D
100
AcDbEntity
  8
MSL5_60_3F-0
100
AcDbLine
 10
482.782286
 20
18.033755
 30
0.0
 11
507.782286
 21
18.033755
 31
0.0
  0
LINE
  5
3E2E
100
AcDbEntity
  8
MSL5_60_3F-7
100
AcDbLine
 10
491.782286
 20
-18.566245
 30
0.0
 11
507.782286
 21
-18.566245
 31
0.0
  0
LINE
  5
3E2F
100
AcDbEntity
  8
MSL5_60_3F-7
100
AcDbLine
 10
460.383064
 20
3.433755
 30
0.0
 11
508.901033
 21
3.433755
 31
0.0
  0
LINE
  5
3E30
100
AcDbEntity
  8
MSL5_60_3F-7
100
AcDbLine
 10
509.782286
 20
-18.566245
 30
0.0
 11
480.782286
 21
-18.566245
 31
0.0
  0
ARC
  5
3E31
100
AcDbEntity
  8
MSL5_60_3F-0
100
AcDbCircle
 10
480.48923
 20
9.062921
 30
0.0
 40
2.293056
100
AcDbArc
 50
305.085848
 51
54.914152
  0
ARC
  5
3E32
100
AcDbEntity
  8
MSL5_60_3F-0
100
AcDbCircle
 10
481.075342
 20
9.062921
 30
0.0
 40
2.293056
100
AcDbArc
 50
125.085847
 51
234.914153
  0
ARC
  5
3E33
100
AcDbEntity
  8
MSL5_60_3F-0
100
AcDbCircle
 10
465.344451
 20
9.062921
 30
0.0
 40
2.562165
100
AcDbArc
 50
132.916662
 51
227.083338
  0
LINE
  5
3E34
100
AcDbEntity
  8
MSL5_60_3F-0
100
AcDbLine
 10
466.782286
 20
10.939309
 30
0.0
 11
466.782286
 21
-4.071798
 31
0.0
  0
LINE
  5
3E35
100
AcDbEntity
  8
MSL5_60_3F-0
100
AcDbLine
 10
466.782286
 20
7.433755
 30
0.0
 11
478.782286
 21
7.433755
 31
0.0
  0
LINE
  5
3E36
100
AcDbEntity
  8
MSL5_60_3F-0
100
AcDbLine
 10
478.782286
 20
-0.566245
 30
0.0
 11
466.782286
 21
-0.566245
 31
0.0
  0
LINE
  5
3E37
100
AcDbEntity
  8
MSL5_60_3F-0
100
AcDbLine
 10
463.599786
 20
7.186532
 30
0.0
 11
466.782286
 21
7.186532
 31
0.0
  0
LINE
  5
3E38
100
AcDbEntity
  8
MSL5_60_3F-0
100
AcDbLine
 10
463.599786
 20
-0.319021
 30
0.0
 11
466.782286
 21
-0.319021
 31
0.0
  0
LINE
  5
3E39
100
AcDbEntity
  8
MSL5_60_3F-0
100
AcDbLine
 10
466.782286
 20
-4.071798
 30
0.0
 11
463.599786
 21
-4.071798
 31
0.0
  0
ARC
  5
3E3A
100
AcDbEntity
  8
MSL5_60_3F-0
100
AcDbCircle
 10
465.344451
 20
-2.19541
 30
0.0
 40
2.562165
100
AcDbArc
 50
132.916662
 51
227.083338
  0
LINE
  5
3E3B
100
AcDbEntity
  8
MSL5_60_3F-0
100
AcDbLine
 10
462.782286
 20
9.062921
 30
0.0
 11
462.782286
 21
-2.19541
 31
0.0
  0
ARC
  5
3E3C
100
AcDbEntity
  8
MSL5_60_3F-0
100
AcDbCircle
 10
471.804696
 20
3.433755
 30
0.0
 40
9.02241
100
AcDbArc
 50
155.421502
 51
204.578498
  0
LINE
  5
3E3D
100
AcDbEntity
  8
MSL5_60_3F-7
100
AcDbLine
 10
499.782286
 20
-26.566245
 30
0.0
 11
499.782286
 21
-10.566245
 31
0.0
  0
ARC
  5
3E3E
100
AcDbEntity
  8
MSL5_60_3F-4
100
AcDbCircle
 10
499.782286
 20
-18.566245
 30
0.0
 40
5.0
100
AcDbArc
 50
280.0
 51
210.0
  0
CIRCLE
  5
3E3F
100
AcDbEntity
  8
MSL5_60_3F-0
100
AcDbCircle
 10
499.782286
 20
-18.566245
 30
0.0
 40
4.188
  0
ARC
  5
3E40
100
AcDbEntity
  8
MSL5_60_3F-0
100
AcDbCircle
 10
480.48923
 20
-2.19541
 30
0.0
 40
2.293056
100
AcDbArc
 50
305.085848
 51
54.914152
  0
ARC
  5
3E41
100
AcDbEntity
  8
MSL5_60_3F-0
100
AcDbCircle
 10
475.072564
 20
3.433755
 30
0.0
 40
7.709722
100
AcDbArc
 50
330.872218
 51
29.127782
  0
LINE
  5
3E42
100
AcDbEntity
  8
MSL5_60_3F-0
100
AcDbLine
 10
479.757286
 20
7.186532
 30
0.0
 11
481.807286
 21
7.186532
 31
0.0
  0
ARC
  5
3E43
100
AcDbEntity
  8
MSL5_60_3F-0
100
AcDbCircle
 10
481.075342
 20
-2.19541
 30
0.0
 40
2.293056
100
AcDbArc
 50
125.085847
 51
234.914153
  0
LINE
  5
3E44
100
AcDbEntity
  8
MSL5_60_3F-0
100
AcDbLine
 10
479.757286
 20
-0.319021
 30
0.0
 11
481.807286
 21
-0.319021
 31
0.0
  0
LINE
  5
3E45
100
AcDbEntity
  8
MSL5_60_3F-0
100
AcDbLine
 10
479.757286
 20
-4.071798
 30
0.0
 11
481.807286
 21
-4.071798
 31
0.0
  0
ARC
  5
3E46
100
AcDbEntity
  8
MSL5_60_3F-0
100
AcDbCircle
 10
486.492008
 20
3.433755
 30
0.0
 40
7.709722
100
AcDbArc
 50
150.872216
 51
209.127784
  0
LINE
  5
3E47
100
AcDbEntity
  8
MSL5_60_3F-0
100
AcDbLine
 10
478.782286
 20
-2.19541
 30
0.0
 11
478.782286
 21
9.062921
 31
0.0
  0
LINE
  5
3E48
100
AcDbEntity
  8
MSL5_60_3F-0
100
AcDbLine
 10
463.599786
 20
10.939309
 30
0.0
 11
466.782286
 21
10.939309
 31
0.0
  0
LINE
  5
3E49
100
AcDbEntity
  8
MSL5_60_3F-0
100
AcDbLine
 10
479.757286
 20
10.939309
 30
0.0
 11
481.807286
 21
10.939309
 31
0.0
  0
LINE
  5
3E4A
100
AcDbEntity
  8
MSL5_60_3F-0
100
AcDbLine
 10
445.582286
 20
245.586818
 30
0.0
 11
433.082286
 21
245.586818
 31
0.0
  0
LINE
  5
3E4B
100
AcDbEntity
  8
MSL5_60_3F-0
100
AcDbLine
 10
482.782286
 20
221.694889
 30
0.0
 11
418.782286
 21
221.694889
 31
0.0
  0
LINE
  5
3E4C
100
AcDbEntity
  8
MSL5_60_3F-0
100
AcDbLine
 10
482.782286
 20
273.694889
 30
0.0
 11
399.782286
 21
273.694889
 31
0.0
  0
LINE
  5
3E4D
100
AcDbEntity
  8
MSL5_60_3F-0
100
AcDbLine
 10
399.782286
 20
248.694889
 30
0.0
 11
482.782286
 21
248.694889
 31
0.0
  0
LINE
  5
3E4E
100
AcDbEntity
  8
MSL5_60_3F-0
100
AcDbLine
 10
482.782286
 20
196.694889
 30
0.0
 11
418.782286
 21
196.694889
 31
0.0
  0
LINE
  5
3E4F
100
AcDbEntity
  8
MSL5_60_3F-0
100
AcDbLine
 10
482.782286
 20
203.194889
 30
0.0
 11
418.782286
 21
203.194889
 31
0.0
  0
LINE
  5
3E50
100
AcDbEntity
  8
MSL5_60_3F-0
100
AcDbLine
 10
418.782286
 20
215.194889
 30
0.0
 11
482.782286
 21
215.194889
 31
0.0
  0
LINE
  5
3E51
100
AcDbEntity
  8
MSL5_60_3F-0
100
AcDbLine
 10
482.782286
 20
144.694889
 30
0.0
 11
399.782286
 21
144.694889
 31
0.0
  0
LINE
  5
3E52
100
AcDbEntity
  8
MSL5_60_3F-0
100
AcDbLine
 10
399.782286
 20
169.694889
 30
0.0
 11
482.782286
 21
169.694889
 31
0.0
  0
LINE
  5
3E53
100
AcDbEntity
  8
MSL5_60_3F-7
100
AcDbLine
 10
389.34422
 20
209.194889
 30
0.0
 11
510.782286
 21
209.194889
 31
0.0
  0
LINE
  5
3E54
100
AcDbEntity
  8
MSL5_60_3F-7
100
AcDbLine
 10
490.622252
 20
157.194889
 30
0.0
 11
389.34422
 21
157.194889
 31
0.0
  0
LINE
  5
3E55
100
AcDbEntity
  8
MSL5_60_3F-7
100
AcDbLine
 10
490.622252
 20
261.194889
 30
0.0
 11
389.34422
 21
261.194889
 31
0.0
  0
LINE
  5
3E56
100
AcDbEntity
  8
MSL5_60_3F-0
100
AcDbLine
 10
399.782286
 20
134.194889
 30
0.0
 11
399.782286
 21
284.194889
 31
0.0
  0
LINE
  5
3E57
100
AcDbEntity
  8
MSL5_60_3F-3
100
AcDbLine
 10
327.782286
 20
158.861555
 30
0.0
 11
323.782286
 21
156.194889
 31
0.0
  0
LINE
  5
3E58
100
AcDbEntity
  8
MSL5_60_3F-3
100
AcDbLine
 10
327.782286
 20
158.861555
 30
0.0
 11
331.782286
 21
156.194889
 31
0.0
  0
LINE
  5
3E59
100
AcDbEntity
  8
MSL5_60_3F-7
100
AcDbLine
 10
327.782286
 20
161.328222
 30
0.0
 11
327.782286
 21
131.728222
 31
0.0
  0
LINE
  5
3E5A
100
AcDbEntity
  8
MSL5_60_3F-3
100
AcDbLine
 10
302.782286
 20
134.194889
 30
0.0
 11
302.782286
 21
149.194889
 31
0.0
  0
LINE
  5
3E5B
100
AcDbEntity
  8
MSL5_60_3F-3
100
AcDbLine
 10
323.782286
 20
134.194889
 30
0.0
 11
323.782286
 21
156.194889
 31
0.0
  0
LINE
  5
3E5C
100
AcDbEntity
  8
MSL5_60_3F-3
100
AcDbLine
 10
332.782286
 20
134.194889
 30
0.0
 11
332.782286
 21
151.194889
 31
0.0
  0
LINE
  5
3E5D
100
AcDbEntity
  8
MSL5_60_3F-3
100
AcDbLine
 10
331.782286
 20
134.194889
 30
0.0
 11
331.782286
 21
156.194889
 31
0.0
  0
LINE
  5
3E5E
100
AcDbEntity
  8
MSL5_60_3F-3
100
AcDbLine
 10
322.782286
 20
151.194889
 30
0.0
 11
322.782286
 21
134.194889
 31
0.0
  0
LINE
  5
3E5F
100
AcDbEntity
  8
MSL5_60_3F-3
100
AcDbLine
 10
327.782286
 20
134.194889
 30
0.0
 11
327.782286
 21
134.194889
 31
0.0
  0
LINE
  5
3E60
100
AcDbEntity
  8
MSL5_60_3F-3
100
AcDbLine
 10
327.782286
 20
134.194889
 30
0.0
 11
327.782286
 21
134.194889
 31
0.0
  0
LINE
  5
3E61
100
AcDbEntity
  8
MSL5_60_3F-7
100
AcDbLine
 10
327.782286
 20
131.728222
 30
0.0
 11
327.782286
 21
134.194889
 31
0.0
  0
LINE
  5
3E62
100
AcDbEntity
  8
MSL5_60_3F-3
100
AcDbLine
 10
331.782286
 20
156.194889
 30
0.0
 11
327.782286
 21
156.194889
 31
0.0
  0
LINE
  5
3E63
100
AcDbEntity
  8
MSL5_60_3F-3
100
AcDbLine
 10
332.782286
 20
151.194889
 30
0.0
 11
322.782286
 21
151.194889
 31
0.0
  0
LINE
  5
3E64
100
AcDbEntity
  8
MSL5_60_3F-3
100
AcDbLine
 10
323.782286
 20
156.194889
 30
0.0
 11
327.782286
 21
156.194889
 31
0.0
  0
LINE
  5
3E65
100
AcDbEntity
  8
MSL5_60_3F-7
100
AcDbLine
 10
327.782286
 20
179.194889
 30
0.0
 11
334.513076
 21
179.194889
 31
0.0
  0
CIRCLE
  5
3E66
100
AcDbEntity
  8
MSL5_60_3F-0
100
AcDbCircle
 10
327.782286
 20
179.194889
 30
0.0
 40
4.25
  0
ARC
  5
3E67
100
AcDbEntity
  8
MSL5_60_3F-4
100
AcDbCircle
 10
327.782286
 20
179.194889
 30
0.0
 40
5.0
100
AcDbArc
 50
82.606248
 51
7.300134
  0
LINE
  5
3E68
100
AcDbEntity
  8
MSL5_60_3F-7
100
AcDbLine
 10
327.782286
 20
179.194889
 30
0.0
 11
327.782286
 21
172.464099
 31
0.0
  0
LINE
  5
3E69
100
AcDbEntity
  8
MSL5_60_3F-7
100
AcDbLine
 10
327.782286
 20
179.194889
 30
0.0
 11
327.782286
 21
185.925679
 31
0.0
  0
LINE
  5
3E6A
100
AcDbEntity
  8
MSL5_60_3F-7
100
AcDbLine
 10
327.782286
 20
179.194889
 30
0.0
 11
321.051496
 21
179.194889
 31
0.0
  0
LINE
  5
3E6B
100
AcDbEntity
  8
MSL5_60_3F-0
100
AcDbLine
 10
399.282286
 20
70.433755
 30
0.0
 11
399.782286
 21
70.433755
 31
0.0
  0
LINE
  5
3E6C
100
AcDbEntity
  8
MSL5_60_3F-7
100
AcDbLine
 10
327.782286
 20
239.194889
 30
0.0
 11
327.782286
 21
246.037602
 31
0.0
  0
LINE
  5
3E6D
100
AcDbEntity
  8
MSL5_60_3F-7
100
AcDbLine
 10
327.782286
 20
239.194889
 30
0.0
 11
334.624999
 21
239.194889
 31
0.0
  0
CIRCLE
  5
3E6E
100
AcDbEntity
  8
MSL5_60_3F-0
100
AcDbCircle
 10
327.782286
 20
239.194889
 30
0.0
 40
4.25
  0
ARC
  5
3E6F
100
AcDbEntity
  8
MSL5_60_3F-4
100
AcDbCircle
 10
327.782286
 20
239.194889
 30
0.0
 40
5.0
100
AcDbArc
 50
82.606248
 51
7.300134
  0
LINE
  5
3E70
100
AcDbEntity
  8
MSL5_60_3F-7
100
AcDbLine
 10
327.782286
 20
239.194889
 30
0.0
 11
327.782286
 21
232.352176
 31
0.0
  0
LINE
  5
3E71
100
AcDbEntity
  8
MSL5_60_3F-7
100
AcDbLine
 10
327.782286
 20
239.194889
 30
0.0
 11
320.939573
 21
239.194889
 31
0.0
  0
LINE
  5
3E72
100
AcDbEntity
  8
MSL5_60_3F-7
100
AcDbLine
 10
327.782286
 20
257.061556
 30
0.0
 11
327.782286
 21
286.661556
 31
0.0
  0
LINE
  5
3E73
100
AcDbEntity
  8
MSL5_60_3F-3
100
AcDbLine
 10
323.782286
 20
284.194889
 30
0.0
 11
323.782286
 21
262.194889
 31
0.0
  0
LINE
  5
3E74
100
AcDbEntity
  8
MSL5_60_3F-3
100
AcDbLine
 10
332.782286
 20
284.194889
 30
0.0
 11
332.782286
 21
267.194889
 31
0.0
  0
LINE
  5
3E75
100
AcDbEntity
  8
MSL5_60_3F-3
100
AcDbLine
 10
331.782286
 20
284.194889
 30
0.0
 11
331.782286
 21
262.194889
 31
0.0
  0
LINE
  5
3E76
100
AcDbEntity
  8
MSL5_60_3F-3
100
AcDbLine
 10
302.782286
 20
284.194889
 30
0.0
 11
302.782286
 21
269.194889
 31
0.0
  0
LINE
  5
3E77
100
AcDbEntity
  8
MSL5_60_3F-3
100
AcDbLine
 10
322.782286
 20
267.194889
 30
0.0
 11
322.782286
 21
284.194889
 31
0.0
  0
LINE
  5
3E78
100
AcDbEntity
  8
MSL5_60_3F-3
100
AcDbLine
 10
327.782286
 20
259.528223
 30
0.0
 11
323.782286
 21
262.194889
 31
0.0
  0
LINE
  5
3E79
100
AcDbEntity
  8
MSL5_60_3F-3
100
AcDbLine
 10
327.782286
 20
259.528223
 30
0.0
 11
331.782286
 21
262.194889
 31
0.0
  0
LINE
  5
3E7A
100
AcDbEntity
  8
MSL5_60_3F-3
100
AcDbLine
 10
331.782286
 20
262.194889
 30
0.0
 11
327.782286
 21
262.194889
 31
0.0
  0
LINE
  5
3E7B
100
AcDbEntity
  8
MSL5_60_3F-3
100
AcDbLine
 10
332.782286
 20
267.194889
 30
0.0
 11
322.782286
 21
267.194889
 31
0.0
  0
LINE
  5
3E7C
100
AcDbEntity
  8
MSL5_60_3F-3
100
AcDbLine
 10
323.782286
 20
262.194889
 30
0.0
 11
327.782286
 21
262.194889
 31
0.0
  0
LINE
  5
3E7D
100
AcDbEntity
  8
MSL5_60_3F-7
100
AcDbLine
 10
327.782286
 20
286.661556
 30
0.0
 11
327.782286
 21
284.194889
 31
0.0
  0
LINE
  5
3E7E
100
AcDbEntity
  8
MSL5_60_3F-3
100
AcDbLine
 10
327.782286
 20
284.194889
 30
0.0
 11
327.782286
 21
284.194889
 31
0.0
  0
LINE
  5
3E7F
100
AcDbEntity
  8
MSL5_60_3F-3
100
AcDbLine
 10
327.782286
 20
284.194889
 30
0.0
 11
327.782286
 21
284.194889
 31
0.0
  0
LINE
  5
3E80
100
AcDbEntity
  8
MSL5_60_3F-0
100
AcDbLine
 10
407.782286
 20
244.204508
 30
0.0
 11
407.782286
 21
248.694889
 31
0.0
  0
LINE
  5
3E81
100
AcDbEntity
  8
MSL5_60_3F-0
100
AcDbLine
 10
408.282286
 20
245.586818
 30
0.0
 11
407.716568
 21
245.0211
 31
0.0
  0
ARC
  5
3E82
100
AcDbEntity
  8
MSL5_60_3F-0
100
AcDbCircle
 10
402.676036
 20
244.204508
 30
0.0
 40
5.10625
100
AcDbArc
 50
302.004628
 51
57.995372
  0
ARC
  5
3E83
100
AcDbEntity
  8
MSL5_60_3F-0
100
AcDbCircle
 10
404.800291
 20
244.204508
 30
0.0
 40
5.060035
100
AcDbArc
 50
121.157255
 51
238.842745
  0
LINE
  5
3E84
100
AcDbEntity
  8
MSL5_60_3F-3
100
AcDbLine
 10
418.782286
 20
221.694889
 30
0.0
 11
399.782286
 21
221.694889
 31
0.0
  0
LINE
  5
3E85
100
AcDbEntity
  8
MSL5_60_3F-0
100
AcDbLine
 10
405.382286
 20
239.874381
 30
0.0
 11
402.182286
 21
239.874381
 31
0.0
  0
LINE
  5
3E86
100
AcDbEntity
  8
MSL5_60_3F-0
100
AcDbLine
 10
399.782286
 20
222.694889
 30
0.0
 11
417.782286
 21
222.694889
 31
0.0
  0
LINE
  5
3E87
100
AcDbEntity
  8
MSL5_60_3F-3
100
AcDbLine
 10
418.782286
 20
196.694889
 30
0.0
 11
399.782286
 21
196.694889
 31
0.0
  0
LINE
  5
3E88
100
AcDbEntity
  8
MSL5_60_3F-0
100
AcDbLine
 10
417.782286
 20
195.694889
 30
0.0
 11
399.782286
 21
195.694889
 31
0.0
  0
LINE
  5
3E89
100
AcDbEntity
  8
MSL5_60_3F-0
100
AcDbLine
 10
418.782286
 20
221.694889
 30
0.0
 11
418.782286
 21
196.694889
 31
0.0
  0
LINE
  5
3E8A
100
AcDbEntity
  8
MSL5_60_3F-0
100
AcDbLine
 10
417.782286
 20
222.694889
 30
0.0
 11
417.782286
 21
195.694889
 31
0.0
  0
LINE
  5
3E8B
100
AcDbEntity
  8
MSL5_60_3F-0
100
AcDbLine
 10
418.782286
 20
196.694889
 30
0.0
 11
417.782286
 21
195.694889
 31
0.0
  0
LINE
  5
3E8C
100
AcDbEntity
  8
MSL5_60_3F-0
100
AcDbLine
 10
417.782286
 20
222.694889
 30
0.0
 11
418.782286
 21
221.694889
 31
0.0
  0
LINE
  5
3E8D
100
AcDbEntity
  8
MSL5_60_3F-0
100
AcDbLine
 10
402.182286
 20
274.515397
 30
0.0
 11
405.382286
 21
274.515397
 31
0.0
  0
LINE
  5
3E8E
100
AcDbEntity
  8
MSL5_60_3F-0
100
AcDbLine
 10
402.182286
 20
248.534635
 30
0.0
 11
405.382286
 21
248.534635
 31
0.0
  0
ARC
  5
3E8F
100
AcDbEntity
  8
MSL5_60_3F-0
100
AcDbCircle
 10
404.888536
 20
270.18527
 30
0.0
 40
5.10625
100
AcDbArc
 50
122.004627
 51
136.581799
  0
LINE
  5
3E90
100
AcDbEntity
  8
MSL5_60_3F-0
100
AcDbLine
 10
408.282286
 20
248.694889
 30
0.0
 11
408.282286
 21
245.586818
 31
0.0
  0
ARC
  5
3E91
100
AcDbEntity
  8
MSL5_60_3F-0
100
AcDbCircle
 10
402.676036
 20
270.18527
 30
0.0
 40
5.10625
100
AcDbArc
 50
43.4182
 51
57.995372
  0
LINE
  5
3E92
100
AcDbEntity
  8
MSL5_60_3F-0
100
AcDbLine
 10
433.082286
 20
245.586818
 30
0.0
 11
433.082286
 21
248.694889
 31
0.0
  0
LINE
  5
3E93
100
AcDbEntity
  8
MSL5_60_3F-3
100
AcDbLine
 10
489.782286
 20
188.194889
 30
0.0
 11
489.782286
 21
170.194889
 31
0.0
  0
LINE
  5
3E94
100
AcDbEntity
  8
MSL5_60_3F-0
100
AcDbLine
 10
507.782286
 20
284.194889
 30
0.0
 11
507.782286
 21
134.194889
 31
0.0
  0
LINE
  5
3E95
100
AcDbEntity
  8
MSL5_60_3F-0
100
AcDbLine
 10
482.782286
 20
134.194889
 30
0.0
 11
482.782286
 21
284.194889
 31
0.0
  0
LINE
  5
3E96
100
AcDbEntity
  8
MSL5_60_3F-3
100
AcDbLine
 10
489.782286
 20
184.694889
 30
0.0
 11
507.782286
 21
184.694889
 31
0.0
  0
LINE
  5
3E97
100
AcDbEntity
  8
MSL5_60_3F-3
100
AcDbLine
 10
489.782286
 20
173.694889
 30
0.0
 11
507.782286
 21
173.694889
 31
0.0
  0
LINE
  5
3E98
100
AcDbEntity
  8
MSL5_60_3F-0
100
AcDbLine
 10
507.782286
 20
134.194889
 30
0.0
 11
482.782286
 21
134.194889
 31
0.0
  0
LINE
  5
3E99
100
AcDbEntity
  8
MSL5_60_3F-7
100
AcDbLine
 10
509.782286
 20
179.194889
 30
0.0
 11
480.782286
 21
179.194889
 31
0.0
  0
LINE
  5
3E9A
100
AcDbEntity
  8
MSL5_60_3F-0
100
AcDbLine
 10
482.782286
 20
70.433755
 30
0.0
 11
507.782286
 21
70.433755
 31
0.0
  0
LINE
  5
3E9B
100
AcDbEntity
  8
MSL5_60_3F-3
100
AcDbLine
 10
495.594286
 20
134.194889
 30
0.0
 11
495.594286
 21
157.194889
 31
0.0
  0
LINE
  5
3E9C
100
AcDbEntity
  8
MSL5_60_3F-3
100
AcDbLine
 10
503.970286
 20
134.194889
 30
0.0
 11
503.970286
 21
157.194889
 31
0.0
  0
LINE
  5
3E9D
100
AcDbEntity
  8
MSL5_60_3F-7
100
AcDbLine
 10
499.782286
 20
162.612832
 30
0.0
 11
499.782286
 21
131.194889
 31
0.0
  0
LINE
  5
3E9E
100
AcDbEntity
  8
MSL5_60_3F-7
100
AcDbLine
 10
490.782286
 20
153.194889
 30
0.0
 11
490.782286
 21
169.194889
 31
0.0
  0
ARC
  5
3E9F
100
AcDbEntity
  8
MSL5_60_3F-4
100
AcDbCircle
 10
490.782286
 20
161.194889
 30
0.0
 40
5.0
100
AcDbArc
 50
280.0
 51
210.0
  0
LINE
  5
3EA0
100
AcDbEntity
  8
MSL5_60_3F-3
100
AcDbLine
 10
494.782286
 20
134.194889
 30
0.0
 11
494.782286
 21
151.194889
 31
0.0
  0
LINE
  5
3EA1
100
AcDbEntity
  8
MSL5_60_3F-3
100
AcDbLine
 10
504.782286
 20
134.194889
 30
0.0
 11
504.782286
 21
151.194889
 31
0.0
  0
LINE
  5
3EA2
100
AcDbEntity
  8
MSL5_60_3F-3
100
AcDbLine
 10
494.782286
 20
151.194889
 30
0.0
 11
504.782286
 21
151.194889
 31
0.0
  0
LINE
  5
3EA3
100
AcDbEntity
  8
MSL5_60_3F-7
100
AcDbLine
 10
482.782286
 20
161.194889
 30
0.0
 11
498.782286
 21
161.194889
 31
0.0
  0
CIRCLE
  5
3EA4
100
AcDbEntity
  8
MSL5_60_3F-0
100
AcDbCircle
 10
490.782286
 20
161.194889
 30
0.0
 40
4.188
  0
LINE
  5
3EA5
100
AcDbEntity
  8
MSL5_60_3F-3
100
AcDbLine
 10
489.782286
 20
170.194889
 30
0.0
 11
482.782286
 21
170.194889
 31
0.0
  0
LINE
  5
3EA6
100
AcDbEntity
  8
MSL5_60_3F-3
100
AcDbLine
 10
499.782286
 20
159.612832
 30
0.0
 11
495.594286
 21
157.194889
 31
0.0
  0
LINE
  5
3EA7
100
AcDbEntity
  8
MSL5_60_3F-3
100
AcDbLine
 10
503.970286
 20
157.194889
 30
0.0
 11
495.594286
 21
157.194889
 31
0.0
  0
LINE
  5
3EA8
100
AcDbEntity
  8
MSL5_60_3F-3
100
AcDbLine
 10
499.782286
 20
159.612832
 30
0.0
 11
503.970286
 21
157.194889
 31
0.0
  0
LINE
  5
3EA9
100
AcDbEntity
  8
MSL5_60_3F-3
100
AcDbLine
 10
482.782286
 20
244.194889
 30
0.0
 11
507.782286
 21
244.194889
 31
0.0
  0
LINE
  5
3EAA
100
AcDbEntity
  8
MSL5_60_3F-3
100
AcDbLine
 10
482.782286
 20
234.194889
 30
0.0
 11
507.782286
 21
234.194889
 31
0.0
  0
LINE
  5
3EAB
100
AcDbEntity
  8
MSL5_60_3F-7
100
AcDbLine
 10
509.782286
 20
239.194889
 30
0.0
 11
480.782286
 21
239.194889
 31
0.0
  0
LINE
  5
3EAC
100
AcDbEntity
  8
MSL5_60_3F-0
100
AcDbLine
 10
482.782286
 20
284.194889
 30
0.0
 11
507.782286
 21
284.194889
 31
0.0
  0
LINE
  5
3EAD
100
AcDbEntity
  8
MSL5_60_3F-3
100
AcDbLine
 10
482.782286
 20
188.194889
 30
0.0
 11
489.782286
 21
188.194889
 31
0.0
  0
LINE
  5
3EAE
100
AcDbEntity
  8
MSL5_60_3F-0
100
AcDbLine
 10
446.582286
 20
248.694889
 30
0.0
 11
446.582286
 21
246.586818
 31
0.0
  0
LINE
  5
3EAF
100
AcDbEntity
  8
MSL5_60_3F-0
100
AcDbLine
 10
445.582286
 20
248.694889
 30
0.0
 11
445.582286
 21
245.586818
 31
0.0
  0
LINE
  5
3EB0
100
AcDbEntity
  8
MSL5_60_3F-0
100
AcDbLine
 10
446.582286
 20
246.586818
 30
0.0
 11
445.582286
 21
245.586818
 31
0.0
  0
LINE
  5
3EB1
100
AcDbEntity
  8
MSL5_60_3F-7
100
AcDbLine
 10
499.782286
 20
255.776946
 30
0.0
 11
499.782286
 21
287.194889
 31
0.0
  0
LINE
  5
3EB2
100
AcDbEntity
  8
MSL5_60_3F-3
100
AcDbLine
 10
494.782286
 20
284.194889
 30
0.0
 11
494.782286
 21
267.194889
 31
0.0
  0
LINE
  5
3EB3
100
AcDbEntity
  8
MSL5_60_3F-3
100
AcDbLine
 10
504.782286
 20
284.194889
 30
0.0
 11
504.782286
 21
267.194889
 31
0.0
  0
LINE
  5
3EB4
100
AcDbEntity
  8
MSL5_60_3F-3
100
AcDbLine
 10
495.594286
 20
284.194889
 30
0.0
 11
495.594286
 21
261.194889
 31
0.0
  0
LINE
  5
3EB5
100
AcDbEntity
  8
MSL5_60_3F-3
100
AcDbLine
 10
503.970286
 20
284.194889
 30
0.0
 11
503.970286
 21
261.194889
 31
0.0
  0
CIRCLE
  5
3EB6
100
AcDbEntity
  8
MSL5_60_3F-0
100
AcDbCircle
 10
490.782286
 20
257.194889
 30
0.0
 40
4.188
  0
ARC
  5
3EB7
100
AcDbEntity
  8
MSL5_60_3F-4
100
AcDbCircle
 10
490.782286
 20
257.194889
 30
0.0
 40
5.0
100
AcDbArc
 50
280.0
 51
210.0
  0
LINE
  5
3EB8
100
AcDbEntity
  8
MSL5_60_3F-7
100
AcDbLine
 10
482.782286
 20
257.194889
 30
0.0
 11
498.782286
 21
257.194889
 31
0.0
  0
LINE
  5
3EB9
100
AcDbEntity
  8
MSL5_60_3F-3
100
AcDbLine
 10
499.782286
 20
258.776946
 30
0.0
 11
495.594286
 21
261.194889
 31
0.0
  0
LINE
  5
3EBA
100
AcDbEntity
  8
MSL5_60_3F-7
100
AcDbLine
 10
490.782286
 20
249.194889
 30
0.0
 11
490.782286
 21
265.194889
 31
0.0
  0
LINE
  5
3EBB
100
AcDbEntity
  8
MSL5_60_3F-3
100
AcDbLine
 10
499.782286
 20
258.776946
 30
0.0
 11
503.970286
 21
261.194889
 31
0.0
  0
LINE
  5
3EBC
100
AcDbEntity
  8
MSL5_60_3F-3
100
AcDbLine
 10
494.782286
 20
267.194889
 30
0.0
 11
504.782286
 21
267.194889
 31
0.0
  0
LINE
  5
3EBD
100
AcDbEntity
  8
MSL5_60_3F-3
100
AcDbLine
 10
503.970286
 20
261.194889
 30
0.0
 11
495.594286
 21
261.194889
 31
0.0
  0
POINT
  5
3EBE
100
AcDbEntity
  8
0
 60
     1
100
AcDbPoint
 10
0.0
 20
0.0
 30
0.0
1001
GENIUS_GENBH_13
1002
{
1000
FGO
1005
0
1002
}
1001
GENIUS_GENODEF_13
1002
{
1000
HIER
1070
     1
1002
}
1002
{
1000
MANEDIT
1070
     0
1002
}
1002
{
1000
NOSEL
1070
     1
1002
}
1002
{
1000
BEHIND
1070
     0
1002
}
1002
{
1000
REACTOR
1002
}
1001
GENIUS_GENOBJ-NBEHI-BHB_13
1002
{
1000
OWNER
1000
GENBEHI
1002
}
1001
GENIUS_GENOENT_13
1002
{
1000
MYREF
1005
3EBE
1002
}
1002
{
1000
GRP
1005
0
1002
}
1001
GENIUS_GENOLIS_13
1002
{
1000
ENT
1005
3D95
1005
3D80
1005
3D9D
1005
3D81
1005
3D6A
1005
3D65
1005
3D64
1002
}
  0
POINT
  5
3EBF
100
AcDbEntity
  8
0
 60
     1
100
AcDbPoint
 10
0.0
 20
0.0
 30
0.0
1001
GENIUS_GENBH_13
1002
{
1000
FGO
1005
0
1002
}
1001
GENIUS_GENODEF_13
1002
{
1000
HIER
1070
     1
1002
}
1002
{
1000
MANEDIT
1070
     0
1002
}
1002
{
1000
NOSEL
1070
     1
1002
}
1002
{
1000
BEHIND
1070
     0
1002
}
1002
{
1000
REACTOR
1002
}
1001
GENIUS_GENOBJ-NBEHI-BHB_13
1002
{
1000
OWNER
1000
GENBEHI
1002
}
1001
GENIUS_GENOENT_13
1002
{
1000
MYREF
1005
3EBF
1002
}
1002
{
1000
GRP
1005
0
1002
}
1001
GENIUS_GENOLIS_13
1002
{
1000
ENT
1005
3BA9
1005
3B8D
1005
3BB0
1005
3BA8
1005
3BB2
1005
3B8E
1005
3B5C
1002
}
  0
POINT
  5
3EC0
100
AcDbEntity
  8
0
 60
     1
100
AcDbPoint
 10
0.0
 20
0.0
 30
0.0
1001
GENIUS_GENBH_13
1002
{
1000
FGO
1005
3EC1
1002
}
1001
GENIUS_GENODEF_13
1002
{
1000
HIER
1070
     1
1002
}
1002
{
1000
MANEDIT
1070
     0
1002
}
1002
{
1000
NOSEL
1070
     1
1002
}
1002
{
1000
BEHIND
1070
     0
1002
}
1002
{
1000
REACTOR
1002
}
1001
GENIUS_GENOBJ-NBEHI-BHB_13
1002
{
1000
OWNER
1000
GENBEHI
1002
}
1001
GENIUS_GENOENT_13
1002
{
1000
MYREF
1005
3EC0
1002
}
1002
{
1000
GRP
1005
0
1002
}
1001
GENIUS_GENOLIS_13
1002
{
1000
ENT
1005
3AFC
1005
3C13
1005
3B13
1005
3C3A
1002
}
  0
POINT
  5
3EC1
100
AcDbEntity
  8
0
 60
     1
100
AcDbPoint
 10
0.0
 20
0.0
 30
0.0
1001
GENIUS_GENBH_13
1002
{
1000
BGO
1005
3EC0
1002
}
1002
{
1000
FLAGS
1070
   164
1002
}
1002
{
1000
MODIFY
1002
{
1000
I
1000
H
1002
}
1002
}
1001
GENIUS_GENODEF_13
1002
{
1000
HIER
1070
     1
1002
}
1002
{
1000
MANEDIT
1070
     0
1002
}
1002
{
1000
NOSEL
1070
     1
1002
}
1002
{
1000
BEHIND
1070
     0
1002
}
1002
{
1000
REACTOR
1002
}
1001
GENIUS_GENOBJ-NBEHI-BHF_13
1002
{
1000
OWNER
1000
GENBEHI
1002
}
1001
GENIUS_GENOENT_13
1002
{
1000
MYREF
1005
3EC1
1002
}
1002
{
1000
GRP
1005
0
1002
}
1001
GENIUS_GENOLIS_13
1002
{
1000
ENT
1005
3ABC
1005
3CA0
1005
3ABA
1005
3ACA
1005
3BE7
1005
3AD0
1002
}
  0
ENDSEC
  0
SECTION
  2
OBJECTS
  0
DICTIONARY
  5
C
100
AcDbDictionary
  3
ACAD_GROUP
350
D
  3
ACAD_MLINESTYLE
350
E
  0
DICTIONARY
  5
D
102
{ACAD_REACTORS
330
C
102
}
100
AcDbDictionary
  0
DICTIONARY
  5
E
102
{ACAD_REACTORS
330
C
102
}
100
AcDbDictionary
  3
STANDARD
350
13
  0
MLINESTYLE
  5
13
102
{ACAD_REACTORS
330
E
102
}
100
AcDbMlineStyle
  2
STANDARD
 70
     0
  3

 62
     0
 51
90.0
 52
90.0
 71
     2
 49
0.5
 62
   256
  6
BYLAYER
 49
-0.5
 62
   256
  6
BYLAYER
  0
ENDSEC
  0
EOF
