  0
SECTION
  2
HEADER
  9
$ACADVER
  1
AC1012
  9
$DWGCODEPAGE
  3
ansi_1252
  9
$INSBASE
 10
0.0
 20
0.0
 30
0.0
  9
$EXTMIN
 10
-134.920376
 20
-260.534688
 30
0.0
  9
$EXTMAX
 10
802.579624
 20
500.32022
 30
0.0
  9
$LIMMIN
 10
0.0
 20
0.0
  9
$LIMMAX
 10
410.0
 20
287.0
  9
$ORTHOMODE
 70
     0
  9
$REGENMODE
 70
     1
  9
$FILLMODE
 70
     1
  9
$QTEXTMODE
 70
     0
  9
$MIRRTEXT
 70
     1
  9
$DRAGMODE
 70
     2
  9
$LTSCALE
 40
1.0
  9
$OSMODE
 70
    33
  9
$ATTMODE
 70
     1
  9
$TEXTSIZE
 40
3.5
  9
$TRACEWID
 40
0.05
  9
$TEXTSTYLE
  7
STANDARD
  9
$CLAYER
  8
0
  9
$CELTYPE
  6
BYLAYER
  9
$CECOLOR
 62
   256
  9
$CELTSCALE
 40
1.0
  9
$DELOBJ
 70
     1
  9
$DISPSILH
 70
     0
  9
$DIMSCALE
 40
1.0
  9
$DIMASZ
 40
2.5
  9
$DIMEXO
 40
1.0
  9
$DIMDLI
 40
7.0
  9
$DIMRND
 40
0.0
  9
$DIMDLE
 40
0.0
  9
$DIMEXE
 40
1.0
  9
$DIMTP
 40
0.1
  9
$DIMTM
 40
0.1
  9
$DIMTXT
 40
3.5
  9
$DIMCEN
 40
0.0
  9
$DIMTSZ
 40
0.0
  9
$DIMTOL
 70
     0
  9
$DIMLIM
 70
     0
  9
$DIMTIH
 70
     0
  9
$DIMTOH
 70
     0
  9
$DIMSE1
 70
     0
  9
$DIMSE2
 70
     0
  9
$DIMTAD
 70
     1
  9
$DIMZIN
 70
     0
  9
$DIMBLK
  1

  9
$DIMASO
 70
     1
  9
$DIMSHO
 70
     1
  9
$DIMPOST
  1
<>
  9
$DIMAPOST
  1

  9
$DIMALT
 70
     0
  9
$DIMALTD
 70
     2
  9
$DIMALTF
 40
0.03937
  9
$DIMLFAC
 40
1.0
  9
$DIMTOFL
 70
     1
  9
$DIMTVP
 40
0.0
  9
$DIMTIX
 70
     0
  9
$DIMSOXD
 70
     0
  9
$DIMSAH
 70
     0
  9
$DIMBLK1
  1

  9
$DIMBLK2
  1

  9
$DIMSTYLE
  2
GEN-ISO
  9
$DIMCLRD
 70
   256
  9
$DIMCLRE
 70
   256
  9
$DIMCLRT
 70
     2
  9
$DIMTFAC
 40
0.71
  9
$DIMGAP
 40
0.6
  9
$DIMJUST
 70
     0
  9
$DIMSD1
 70
     0
  9
$DIMSD2
 70
     0
  9
$DIMTOLJ
 70
     0
  9
$DIMTZIN
 70
     0
  9
$DIMALTZ
 70
     0
  9
$DIMALTTZ
 70
     0
  9
$DIMFIT
 70
     3
  9
$DIMUPT
 70
     0
  9
$DIMUNIT
 70
     2
  9
$DIMDEC
 70
     2
  9
$DIMTDEC
 70
     3
  9
$DIMALTU
 70
     2
  9
$DIMALTTD
 70
     4
  9
$DIMTXSTY
  7
STANDARD
  9
$DIMAUNIT
 70
     0
  9
$LUNITS
 70
     2
  9
$LUPREC
 70
     2
  9
$SKETCHINC
 40
0.1
  9
$FILLETRAD
 40
12.5
  9
$AUNITS
 70
     0
  9
$AUPREC
 70
     0
  9
$MENU
  1
acad
  9
$ELEVATION
 40
0.0
  9
$PELEVATION
 40
0.0
  9
$THICKNESS
 40
0.0
  9
$LIMCHECK
 70
     0
  9
$BLIPMODE
 70
     0
  9
$CHAMFERA
 40
12.5
  9
$CHAMFERB
 40
12.5
  9
$CHAMFERC
 40
0.0
  9
$CHAMFERD
 40
0.0
  9
$SKPOLY
 70
     0
  9
$TDCREATE
 40
2450928.342955613
  9
$TDUPDATE
 40
2450928.350521701
  9
$TDINDWG
 40
0.0075660880
  9
$TDUSRTIMER
 40
0.0075660880
  9
$USRTIMER
 70
     1
  9
$ANGBASE
 50
0.0
  9
$ANGDIR
 70
     0
  9
$PDMODE
 70
     0
  9
$PDSIZE
 40
39.027365
  9
$PLINEWID
 40
0.0
  9
$COORDS
 70
     1
  9
$SPLFRAME
 70
     0
  9
$SPLINETYPE
 70
     6
  9
$SPLINESEGS
 70
     8
  9
$ATTDIA
 70
     1
  9
$ATTREQ
 70
     1
  9
$HANDLING
 70
     1
  9
$HANDSEED
  5
1175
  9
$SURFTAB1
 70
     6
  9
$SURFTAB2
 70
     6
  9
$SURFTYPE
 70
     6
  9
$SURFU
 70
     6
  9
$SURFV
 70
     6
  9
$UCSNAME
  2

  9
$UCSORG
 10
0.0
 20
0.0
 30
0.0
  9
$UCSXDIR
 10
1.0
 20
0.0
 30
0.0
  9
$UCSYDIR
 10
0.0
 20
1.0
 30
0.0
  9
$PUCSNAME
  2

  9
$PUCSORG
 10
0.0
 20
0.0
 30
0.0
  9
$PUCSXDIR
 10
1.0
 20
0.0
 30
0.0
  9
$PUCSYDIR
 10
0.0
 20
1.0
 30
0.0
  9
$USERI1
 70
     0
  9
$USERI2
 70
     0
  9
$USERI3
 70
     0
  9
$USERI4
 70
     0
  9
$USERI5
 70
     0
  9
$USERR1
 40
0.0
  9
$USERR2
 40
0.0
  9
$USERR3
 40
0.0
  9
$USERR4
 40
0.0
  9
$USERR5
 40
0.0
  9
$WORLDVIEW
 70
     1
  9
$SHADEDGE
 70
     3
  9
$SHADEDIF
 70
    70
  9
$TILEMODE
 70
     1
  9
$MAXACTVP
 70
    16
  9
$PINSBASE
 10
0.0
 20
0.0
 30
0.0
  9
$PLIMCHECK
 70
     0
  9
$PEXTMIN
 10
1.000000E+20
 20
1.000000E+20
 30
1.000000E+20
  9
$PEXTMAX
 10
-1.000000E+20
 20
-1.000000E+20
 30
-1.000000E+20
  9
$PLIMMIN
 10
0.0
 20
0.0
  9
$PLIMMAX
 10
12.0
 20
9.0
  9
$UNITMODE
 70
     0
  9
$VISRETAIN
 70
     0
  9
$PLINEGEN
 70
     0
  9
$PSLTSCALE
 70
     1
  9
$TREEDEPTH
 70
  3020
  9
$PICKSTYLE
 70
     1
  9
$CMLSTYLE
  2
STANDARD
  9
$CMLJUST
 70
     0
  9
$CMLSCALE
 40
1.0
  9
$SAVEIMAGES
 70
     0
  0
ENDSEC
  0
SECTION
  2
CLASSES
  0
ENDSEC
  0
SECTION
  2
TABLES
  0
TABLE
  2
VPORT
  5
8
100
AcDbSymbolTable
 70
     3
  0
VPORT
  5
1174
100
AcDbSymbolTableRecord
100
AcDbViewportTableRecord
  2
*ACTIVE
 70
     0
 10
0.0
 20
0.0
 11
1.0
 21
1.0
 12
482.668419
 22
116.780069
 13
0.0
 23
0.0
 14
5.0
 24
5.0
 15
50.0
 25
50.0
 16
0.0
 26
0.0
 36
1.0
 17
0.0
 27
0.0
 37
0.0
 40
943.286893
 41
1.6368
 42
50.0
 43
0.0
 44
0.0
 50
0.0
 51
0.0
 71
     0
 72
   100
 73
     1
 74
     0
 75
     0
 76
     0
 77
     0
 78
     0
  0
ENDTAB
  0
TABLE
  2
LTYPE
  5
5
100
AcDbSymbolTable
 70
     3
  0
LTYPE
  5
14
100
AcDbSymbolTableRecord
100
AcDbLinetypeTableRecord
  2
BYBLOCK
 70
     0
  3

 72
    65
 73
     0
 40
0.0
  0
LTYPE
  5
15
100
AcDbSymbolTableRecord
100
AcDbLinetypeTableRecord
  2
BYLAYER
 70
     0
  3

 72
    65
 73
     0
 40
0.0
  0
LTYPE
  5
16
100
AcDbSymbolTableRecord
100
AcDbLinetypeTableRecord
  2
CONTINUOUS
 70
    64
  3
Solid line
 72
    65
 73
     0
 40
0.0
  0
LTYPE
  5
6A
100
AcDbSymbolTableRecord
100
AcDbLinetypeTableRecord
  2
GEN3
 70
    64
  3
-- -- -- -- -- -- -- -- -- -- -- -- -- -- --
 72
    65
 73
     2
 40
6.25
 49
5.0
 74
     0
 49
-1.25
 74
     0
  0
LTYPE
  5
6B
100
AcDbSymbolTableRecord
100
AcDbLinetypeTableRecord
  2
GEN7A
 70
    64
  3
__ . __ . __
 72
    65
 73
     4
 40
7.5
 49
5.0
 74
     0
 49
-1.25
 74
     0
 49
0.0
 74
     0
 49
-1.25
 74
     0
  0
ENDTAB
  0
TABLE
  2
LAYER
  5
2
100
AcDbSymbolTable
 70
     8
  0
LAYER
  5
F
100
AcDbSymbolTableRecord
100
AcDbLayerTableRecord
  2
0
 70
     0
 62
     7
  6
CONTINUOUS
  0
LAYER
  5
6C
100
AcDbSymbolTableRecord
100
AcDbLayerTableRecord
  2
MSL5_120_3F-0
 70
    64
 62
     7
  6
CONTINUOUS
  0
LAYER
  5
6D
100
AcDbSymbolTableRecord
100
AcDbLayerTableRecord
  2
MSL5_120_3F-3
 70
    64
 62
     6
  6
GEN3
  0
LAYER
  5
6E
100
AcDbSymbolTableRecord
100
AcDbLayerTableRecord
  2
MSL5_120_3F-4
 70
    64
 62
     3
  6
CONTINUOUS
  0
LAYER
  5
6F
100
AcDbSymbolTableRecord
100
AcDbLayerTableRecord
  2
MSL5_120_3F-7
 70
    64
 62
     4
  6
GEN7A
  0
LAYER
  5
70
100
AcDbSymbolTableRecord
100
AcDbLayerTableRecord
  2
MSL5_120_3F-6
 70
    64
 62
     2
  6
CONTINUOUS
  0
LAYER
  5
71
100
AcDbSymbolTableRecord
100
AcDbLayerTableRecord
  2
INFO
 70
    64
 62
     4
  6
CONTINUOUS
  0
ENDTAB
  0
TABLE
  2
STYLE
  5
3
100
AcDbSymbolTable
 70
     1
  0
STYLE
  5
10
100
AcDbSymbolTableRecord
100
AcDbTextStyleTableRecord
  2
STANDARD
 70
    64
 40
0.0
 41
1.0
 50
0.0
 71
     0
 42
3.5
  3
geniso.shx
  4

  0
ENDTAB
  0
TABLE
  2
VIEW
  5
6
100
AcDbSymbolTable
 70
     0
  0
ENDTAB
  0
TABLE
  2
UCS
  5
7
100
AcDbSymbolTable
 70
     0
  0
ENDTAB
  0
TABLE
  2
APPID
  5
9
100
AcDbSymbolTable
 70
    29
  0
APPID
  5
11
100
AcDbSymbolTableRecord
100
AcDbRegAppTableRecord
  2
ACAD
 70
     0
  0
APPID
  5
29
100
AcDbSymbolTableRecord
100
AcDbRegAppTableRecord
  2
GENIUS_GENCFG_13
 70
     0
1001
GENIUS_GENCFG0_13
1000
GEN@INFO_POS@XLATE
1001
GENIUS_GENCFG1_13
1000
GEN@LAYER@DEFS
1001
GENIUS_GENCFG2_13
1000
GEN@LAYER@ENTSORT
1001
GENIUS_GENCFG3_13
1000
GEN@OSWIZ
1001
GENIUS_GENCFG4_13
1000
GEN
1001
GENIUS_GEVCFG0_13
1000
GEV
1001
GENIUS_GEFCFG0_13
1000
GEF
  0
APPID
  5
2A
100
AcDbSymbolTableRecord
100
AcDbRegAppTableRecord
  2
GENIUS_GENCFG0_13
 70
     0
1001
GENIUS_GENCFG_13
1071
862825278
1000
2A
1000
GEN@INFO_POS@XLATE
1070
     7
1000
GenCfgObject
1000
GenCfgShort
1000
GenCfgReal
1000
GenCfgBool
1000
GenCfgString
1000
GenCfgDim
1000
GenCfgAttrInf
1000
INFOPOINTS
1070
     0
1002
{
1000
GENINF13
1070
     0
1002
{
1000
2GENINF
1070
     4
1000
2
1002
{
1002
}
1000
3GENINF
1070
     4
1000
3
1002
{
1002
}
1000
4GENINF
1070
     4
1000
4
1002
{
1002
}
1000
5GENINF
1070
     4
1000
5
1002
{
1002
}
1000
6GENINF
1070
     4
1000
6
1002
{
1002
}
1000
7GENINF
1070
     4
1000
7
1002
{
1002
}
1000
8GENINF
1070
     4
1000
8
1002
{
1002
}
1000
9GENINF
1070
     4
1000
9
1002
{
1002
}
1000
10GENINF
1070
     4
1000
10
1002
{
1002
}
1000
11GENINF
1070
     4
1000
11
1002
{
1002
}
1000
12GENINF
1070
     4
1000
12
1002
{
1002
}
1000
13GENINF
1070
     4
1000
13
1002
{
1002
}
1000
14GENINF
1070
     4
1000
14
1002
{
1002
}
1000
15GENINF
1070
     4
1000
15
1002
{
1002
}
1000
16GENINF
1070
     4
1000
16
1002
{
1002
}
1000
17GENINF
1070
     4
1000
17
1002
{
1002
}
1000
18GENINF
1070
     4
1000
18
1002
{
1002
}
1000
19GENINF
1070
     4
1000
19
1002
{
1002
}
1000
20GENINF
1070
     4
1000
20
1002
{
1002
}
1000
21GENINF
1070
     4
1000
21
1002
{
1002
}
1000
22GENINF
1070
     4
1000
22
1002
{
1002
}
1000
23GENINF
1070
     4
1000
23
1002
{
1002
}
1000
24GENINF
1070
     4
1000
24
1002
{
1002
}
1000
0GENINF
1070
     4
1000
0
1002
{
1002
}
1002
}
1000
GENINFO
1070
     0
1002
{
1000
3GENINF
1070
     4
1000
3
1002
{
1002
}
1000
4GENINF
1070
     4
1000
4
1002
{
1002
}
1000
5GENINF
1070
     4
1000
5
1002
{
1002
}
1000
6GENINF
1070
     4
1000
6
1002
{
1002
}
1000
7GENINF
1070
     4
1000
7
1002
{
1002
}
1000
8GENINF
1070
     4
1000
8
1002
{
1002
}
1000
9GENINF
1070
     4
1000
9
1002
{
1002
}
1000
10GENINF
1070
     4
1000
10
1002
{
1002
}
1000
11GENINF
1070
     4
1000
11
1002
{
1002
}
1000
12GENINF
1070
     4
1000
12
1002
{
1002
}
1000
13GENINF
1070
     4
1000
13
1002
{
1002
}
1000
14GENINF
1070
     4
1000
14
1002
{
1002
}
1000
15GENINF
1070
     4
1000
15
1002
{
1002
}
1000
16GENINF
1070
     4
1000
16
1002
{
1002
}
1000
17GENINF
1070
     4
1000
17
1002
{
1002
}
1000
18GENINF
1070
     4
1000
18
1002
{
1002
}
1000
19GENINF
1070
     4
1000
19
1002
{
1002
}
1000
20GENINF
1070
     4
1000
20
1002
{
1002
}
1000
21GENINF
1070
     4
1000
21
1002
{
1002
}
1000
22GENINF
1070
     4
1000
22
1002
{
1002
}
1002
}
1000
DININFO
1070
     0
1002
{
1000
ST-NAME1
1070
     4
1000
5
1002
{
1002
}
1000
ST-NAME2
1070
     4
1000
6
1002
{
1002
}
1000
ST-NORM1
1070
     4
1000
7
1002
{
1002
}
1000
ST-NORM2
1070
     4
1000
8
1002
{
1002
}
1000
ST-MAT1
1070
     4
1000
9
1002
{
1002
}
1000
ST-MAT2
1070
     4
1000
10
1002
{
1002
}
1002
}
1002
}
1000
POS_NUMBERS
1070
     0
1002
{
1000
GENPOS13
1070
     0
1002
{
1000
1GENPOS
1070
     4
1000
1
1002
{
1002
}
1000
2GENPOS
1070
     4
1000
2
1002
{
1002
}
1000
3GENPOS
1070
     4
1000
3
1002
{
1002
}
1000
4GENPOS
1070
     4
1000
4
1002
{
1002
}
1000
5GENPOS
1070
     4
1000
5
1002
{
1002
}
1000
6GENPOS
1070
     4
1000
6
1002
{
1002
}
1000
7GENPOS
1070
     4
1000
7
1002
{
1002
}
1000
8GENPOS
1070
     4
1000
8
1002
{
1002
}
1000
9GENPOS
1070
     4
1000
9
1002
{
1002
}
1000
10GENPOS
1070
     4
1000
10
1002
{
1002
}
1000
11GENPOS
1070
     4
1000
11
1002
{
1002
}
1000
12GENPOS
1070
     4
1000
12
1002
{
1002
}
1000
13GENPOS
1070
     4
1000
13
1002
{
1002
}
1000
14GENPOS
1070
     4
1000
14
1002
{
1002
}
1000
15GENPOS
1070
     4
1000
15
1002
{
1002
}
1000
16GENPOS
1070
     4
1000
16
1002
{
1002
}
1000
17GENPOS
1070
     4
1000
17
1002
{
1002
}
1000
18GENPOS
1070
     4
1000
18
1002
{
1002
}
1000
19GENPOS
1070
     4
1000
19
1002
{
1002
}
1000
20GENPOS
1070
     4
1000
20
1002
{
1002
}
1000
21GENPOS
1070
     4
1000
21
1002
{
1002
}
1000
22GENPOS
1070
     4
1000
22
1002
{
1002
}
1000
23GENPOS
1070
     4
1000
23
1002
{
1002
}
1000
24GENPOS
1070
     4
1000
24
1002
{
1002
}
1000
0GENPOS
1070
     4
1000
0
1002
{
1002
}
1002
}
1000
GENPOS
1070
     0
1002
{
1000
1GENPOS
1070
     4
1000
1
1002
{
1002
}
1000
2GENPOS
1070
     4
1000
2
1002
{
1002
}
1000
3GENPOS
1070
     4
1000
3
1002
{
1002
}
1000
4GENPOS
1070
     4
1000
4
1002
{
1002
}
1000
5GENPOS
1070
     4
1000
5
1002
{
1002
}
1000
6GENPOS
1070
     4
1000
6
1002
{
1002
}
1000
7GENPOS
1070
     4
1000
7
1002
{
1002
}
1000
8GENPOS
1070
     4
1000
8
1002
{
1002
}
1000
9GENPOS
1070
     4
1000
9
1002
{
1002
}
1000
10GENPOS
1070
     4
1000
10
1002
{
1002
}
1000
11GENPOS
1070
     4
1000
11
1002
{
1002
}
1000
12GENPOS
1070
     4
1000
12
1002
{
1002
}
1000
13GENPOS
1070
     4
1000
13
1002
{
1002
}
1000
14GENPOS
1070
     4
1000
14
1002
{
1002
}
1000
15GENPOS
1070
     4
1000
15
1002
{
1002
}
1000
16GENPOS
1070
     4
1000
16
1002
{
1002
}
1000
17GENPOS
1070
     4
1000
17
1002
{
1002
}
1000
18GENPOS
1070
     4
1000
18
1002
{
1002
}
1000
19GENPOS
1070
     4
1000
19
1002
{
1002
}
1000
20GENPOS
1070
     4
1000
20
1002
{
1002
}
1000
21GENPOS
1070
     4
1000
21
1002
{
1002
}
1000
22GENPOS
1070
     4
1000
22
1002
{
1002
}
1000
23GENPOS
1070
     4
1000
23
1002
{
1002
}
1002
}
1000
DIN985
1070
     0
1002
{
1000
POSITION
1070
     4
1000
1
1002
{
1002
}
1000
MENGE
1070
     4
1000
2
1002
{
1002
}
1000
BLATT
1070
     4
1000
3
1002
{
1002
}
1000
BENENN
1070
     4
1000
5
1002
{
1002
}
1000
BENENN2
1070
     4
1000
6
1002
{
1002
}
1000
NORM
1070
     4
1000
7
1002
{
1002
}
1000
NORM2
1070
     4
1000
8
1002
{
1002
}
1000
WERKSTOFF
1070
     4
1000
9
1002
{
1002
}
1000
WERKSTOFF2
1070
     4
1000
10
1002
{
1002
}
1002
}
1000
DIN986
1070
     0
1002
{
1000
POSITION
1070
     4
1000
1
1002
{
1002
}
1000
MENGE
1070
     4
1000
2
1002
{
1002
}
1000
BLATT
1070
     4
1000
3
1002
{
1002
}
1000
BENENN
1070
     4
1000
5
1002
{
1002
}
1000
BENENN2
1070
     4
1000
6
1002
{
1002
}
1000
NORM
1070
     4
1000
7
1002
{
1002
}
1000
NORM2
1070
     4
1000
8
1002
{
1002
}
1000
WERKSTOFF
1070
     4
1000
9
1002
{
1002
}
1000
WERKSTOFF2
1070
     4
1000
10
1002
{
1002
}
1002
}
1000
DIN987
1070
     0
1002
{
1000
POSITION
1070
     4
1000
1
1002
{
1002
}
1000
MENGE
1070
     4
1000
2
1002
{
1002
}
1000
BLATT
1070
     4
1000
3
1002
{
1002
}
1000
BENENN
1070
     4
1000
5
1002
{
1002
}
1000
BENENN2
1070
     4
1000
6
1002
{
1002
}
1000
NORM
1070
     4
1000
7
1002
{
1002
}
1000
NORM2
1070
     4
1000
8
1002
{
1002
}
1000
WERKSTOFF
1070
     4
1000
9
1002
{
1002
}
1000
WERKSTOFF2
1070
     4
1000
10
1002
{
1002
}
1002
}
1002
}
  0
APPID
  5
2B
100
AcDbSymbolTableRecord
100
AcDbRegAppTableRecord
  2
GENIUS_GENCFG1_13
 70
     0
1001
GENIUS_GENCFG_13
1071
862825278
1000
2B
1000
GEN@LAYER@DEFS
1070
     9
1000
GenCfgObject
1000
GenCfgShort
1000
GenCfgReal
1000
GenCfgBool
1000
GenCfgString
1000
GenCfgDim
1000
GenCfgAttrInf
1000
GenCfgLaySection
1000
GenCfgLayer
1000
Basic
1070
     0
1002
{
1000
0
1070
     8
1000
0
1002
{
1000
Color
1070
     1
1070
     7
1002
{
1002
}
1000
LType
1070
     4
1000
CONTINUOUS
1002
{
1002
}
1000
Base
1070
     3
1070
     0
1002
{
1002
}
1002
}
1000
1
1070
     8
1000
1
1002
{
1000
Color
1070
     1
1070
    14
1002
{
1002
}
1000
LType
1070
     4
1000
CONTINUOUS
1002
{
1002
}
1000
Base
1070
     3
1070
     0
1002
{
1002
}
1002
}
1000
2
1070
     8
1000
2
1002
{
1000
Color
1070
     1
1070
     5
1002
{
1002
}
1000
LType
1070
     4
1000
CONTINUOUS
1002
{
1002
}
1000
Base
1070
     3
1070
     0
1002
{
1002
}
1002
}
1000
3
1070
     8
1000
3
1002
{
1000
Color
1070
     1
1070
     6
1002
{
1002
}
1000
LType
1070
     4
1000
GEN3
1002
{
1002
}
1000
Base
1070
     3
1070
     0
1002
{
1002
}
1002
}
1000
4
1070
     8
1000
4
1002
{
1000
Color
1070
     1
1070
     3
1002
{
1002
}
1000
LType
1070
     4
1000
CONTINUOUS
1002
{
1002
}
1000
Base
1070
     3
1070
     0
1002
{
1002
}
1002
}
1000
5
1070
     8
1000
5
1002
{
1000
Color
1070
     1
1070
     3
1002
{
1002
}
1000
LType
1070
     4
1000
CONTINUOUS
1002
{
1002
}
1000
Base
1070
     3
1070
     0
1002
{
1002
}
1002
}
1000
6
1070
     8
1000
6
1002
{
1000
Color
1070
     1
1070
     2
1002
{
1002
}
1000
LType
1070
     4
1000
CONTINUOUS
1002
{
1002
}
1000
Base
1070
     3
1070
     0
1002
{
1002
}
1002
}
1000
7
1070
     8
1000
7
1002
{
1000
Color
1070
     1
1070
     4
1002
{
1002
}
1000
LType
1070
     4
1000
GEN7
1002
{
1002
}
1000
Base
1070
     3
1070
     0
1002
{
1002
}
1002
}
1000
8
1070
     8
1000
8
1002
{
1000
Color
1070
     1
1070
     1
1002
{
1002
}
1000
LType
1070
     4
1000
CONTINUOUS
1002
{
1002
}
1000
Base
1070
     3
1070
     0
1002
{
1002
}
1002
}
1000
3A
1070
     8
1000
3A
1002
{
1000
Color
1070
     1
1070
     6
1002
{
1002
}
1000
LType
1070
     4
1000
GEN3A
1002
{
1002
}
1000
Base
1070
     3
1070
     0
1002
{
1002
}
1002
}
1000
7A
1070
     8
1000
7A
1002
{
1000
Color
1070
     1
1070
     4
1002
{
1002
}
1000
LType
1070
     4
1000
GEN7A
1002
{
1002
}
1000
Base
1070
     3
1070
     0
1002
{
1002
}
1002
}
1000
2A
1070
     8
1000
2A
1002
{
1000
Color
1070
     1
1070
     7
1002
{
1002
}
1000
LType
1070
     4
1000
GEN7
1002
{
1002
}
1000
Base
1070
     3
1070
     0
1002
{
1002
}
1002
}
1000
4A
1070
     8
1000
4A
1002
{
1000
Color
1070
     1
1070
     3
1002
{
1002
}
1000
LType
1070
     4
1000
GEN4A
1002
{
1002
}
1000
Base
1070
     3
1070
     0
1002
{
1002
}
1002
}
1000
9
1070
     8
1000
9
1002
{
1000
Color
1070
     1
1070
   253
1002
{
1002
}
1000
LType
1070
     4
1000
CONTINUOUS
1002
{
1002
}
1000
Base
1070
     3
1070
     0
1002
{
1002
}
1002
}
1002
}
1000
Standard
1070
     0
1002
{
1000
0N
1070
     8
1000
0N
1002
{
1000
Color
1070
     1
1070
     7
1002
{
1002
}
1000
LType
1070
     4
1000
CONTINUOUS
1002
{
1002
}
1000
Base
1070
     3
1070
     0
1002
{
1002
}
1002
}
1000
1N
1070
     8
1000
1N
1002
{
1000
Color
1070
     1
1070
    14
1002
{
1002
}
1000
LType
1070
     4
1000
CONTINUOUS
1002
{
1002
}
1000
Base
1070
     3
1070
     0
1002
{
1002
}
1002
}
1000
2N
1070
     8
1000
2N
1002
{
1000
Color
1070
     1
1070
     5
1002
{
1002
}
1000
LType
1070
     4
1000
CONTINUOUS
1002
{
1002
}
1000
Base
1070
     3
1070
     0
1002
{
1002
}
1002
}
1000
3N
1070
     8
1000
3N
1002
{
1000
Color
1070
     1
1070
     6
1002
{
1002
}
1000
LType
1070
     4
1000
GEN3
1002
{
1002
}
1000
Base
1070
     3
1070
     0
1002
{
1002
}
1002
}
1000
4N
1070
     8
1000
4N
1002
{
1000
Color
1070
     1
1070
     3
1002
{
1002
}
1000
LType
1070
     4
1000
CONTINUOUS
1002
{
1002
}
1000
Base
1070
     3
1070
     0
1002
{
1002
}
1002
}
1000
5N
1070
     8
1000
5N
1002
{
1000
Color
1070
     1
1070
     3
1002
{
1002
}
1000
LType
1070
     4
1000
CONTINUOUS
1002
{
1002
}
1000
Base
1070
     3
1070
     0
1002
{
1002
}
1002
}
1000
6N
1070
     8
1000
6N
1002
{
1000
Color
1070
     1
1070
     2
1002
{
1002
}
1000
LType
1070
     4
1000
CONTINUOUS
1002
{
1002
}
1000
Base
1070
     3
1070
     0
1002
{
1002
}
1002
}
1000
7N
1070
     8
1000
7N
1002
{
1000
Color
1070
     1
1070
     4
1002
{
1002
}
1000
LType
1070
     4
1000
GEN7
1002
{
1002
}
1000
Base
1070
     3
1070
     0
1002
{
1002
}
1002
}
1000
8N
1070
     8
1000
8N
1002
{
1000
Color
1070
     1
1070
     1
1002
{
1002
}
1000
LType
1070
     4
1000
CONTINUOUS
1002
{
1002
}
1000
Base
1070
     3
1070
     0
1002
{
1002
}
1002
}
1000
3AN
1070
     8
1000
3AN
1002
{
1000
Color
1070
     1
1070
     6
1002
{
1002
}
1000
LType
1070
     4
1000
GEN3A
1002
{
1002
}
1000
Base
1070
     3
1070
     0
1002
{
1002
}
1002
}
1000
7AN
1070
     8
1000
7AN
1002
{
1000
Color
1070
     1
1070
     4
1002
{
1002
}
1000
LType
1070
     4
1000
GEN7A
1002
{
1002
}
1000
Base
1070
     3
1070
     0
1002
{
1002
}
1002
}
1000
2AN
1070
     8
1000
2AN
1002
{
1000
Color
1070
     1
1070
     7
1002
{
1002
}
1000
LType
1070
     4
1000
GEN7
1002
{
1002
}
1000
Base
1070
     3
1070
     0
1002
{
1002
}
1002
}
1000
4AN
1070
     8
1000
4AN
1002
{
1000
Color
1070
     1
1070
     3
1002
{
1002
}
1000
LType
1070
     4
1000
GEN4A
1002
{
1002
}
1000
Base
1070
     3
1070
     0
1002
{
1002
}
1002
}
1000
9N
1070
     8
1000
9N
1002
{
1000
Color
1070
     1
1070
   253
1002
{
1002
}
1000
LType
1070
     4
1000
CONTINUOUS
1002
{
1002
}
1000
Base
1070
     3
1070
     0
1002
{
1002
}
1002
}
1002
}
1000
Extra
1070
     0
1002
{
1000
Klin
1070
     8
1000
KLIN
1002
{
1000
Color
1070
     1
1070
     1
1002
{
1002
}
1000
LType
1070
     4
1000
CONTINUOUS
1002
{
1002
}
1000
Base
1070
     3
1070
     1
1002
{
1002
}
1002
}
1000
Info
1070
     8
1000
INFO
1002
{
1000
Color
1070
     1
1070
     4
1002
{
1002
}
1000
LType
1070
     4
1000
CONTINUOUS
1002
{
1002
}
1000
Base
1070
     3
1070
     1
1002
{
1002
}
1002
}
1000
Rahm2
1070
     8
1000
RAHM2
1002
{
1000
Color
1070
     1
1070
     1
1002
{
1002
}
1000
LType
1070
     4
1000
CONTINUOUS
1002
{
1002
}
1000
Base
1070
     3
1070
     1
1002
{
1002
}
1002
}
1000
Rahm3
1070
     8
1000
RAHM3
1002
{
1000
Color
1070
     1
1070
     2
1002
{
1002
}
1000
LType
1070
     4
1000
CONTINUOUS
1002
{
1002
}
1000
Base
1070
     3
1070
     1
1002
{
1002
}
1002
}
1000
Rahm5
1070
     8
1000
RAHM5
1002
{
1000
Color
1070
     1
1070
     7
1002
{
1002
}
1000
LType
1070
     4
1000
CONTINUOUS
1002
{
1002
}
1000
Base
1070
     3
1070
     1
1002
{
1002
}
1002
}
1000
View
1070
     8
1000
VIEW
1002
{
1000
Color
1070
     1
1070
     1
1002
{
1002
}
1000
LType
1070
     4
1000
CONTINUOUS
1002
{
1002
}
1000
Base
1070
     3
1070
     1
1002
{
1002
}
1002
}
1000
Behind
1070
     8
1000
BEHIND
1002
{
1000
Color
1070
     1
1070
   253
1002
{
1002
}
1000
LType
1070
     4
1000
CONTINUOUS
1002
{
1002
}
1000
Base
1070
     3
1070
     1
1002
{
1002
}
1002
}
1002
}
  0
APPID
  5
2C
100
AcDbSymbolTableRecord
100
AcDbRegAppTableRecord
  2
GENIUS_GENCFG2_13
 70
     0
1001
GENIUS_GENCFG_13
1071
862825278
1000
2C
1000
GEN@LAYER@ENTSORT
1070
    10
1000
GenCfgObject
1000
GenCfgShort
1000
GenCfgReal
1000
GenCfgBool
1000
GenCfgString
1000
GenCfgDim
1000
GenCfgAttrInf
1000
GenCfgLaySection
1000
GenCfgLayer
1000
GenCfgEntSort
1000
ALTR
1070
     9
1000
4
1002
{
1000
Class
1070
     4
1000

1002
{
1002
}
1000
Color
1070
     1
1070
     7
1002
{
1002
}
1000
LType
1070
     4
1000
GEN3A
1002
{
1002
}
1002
}
1000
BELI
1070
     9
1000
4
1002
{
1000
Class
1070
     4
1000

1002
{
1002
}
1000
Color
1070
     1
1070
   256
1002
{
1002
}
1000
LType
1070
     4
1000
BYLAYER
1002
{
1002
}
1002
}
1000
BHNV
1070
     9
1000
9
1002
{
1000
Class
1070
     4
1000
INV
1002
{
1002
}
1000
Color
1070
     1
1070
   256
1002
{
1002
}
1000
LType
1070
     4
1000
BYLAYER
1002
{
1002
}
1002
}
1000
BHNVS
1070
     9
1000
BEHIND
1002
{
1000
Class
1070
     4
1000
INV
1002
{
1002
}
1000
Color
1070
     1
1070
   256
1002
{
1002
}
1000
LType
1070
     4
1000
BYLAYER
1002
{
1002
}
1002
}
1000
BLID
1070
     9
1000
4A
1002
{
1000
Class
1070
     4
1000

1002
{
1002
}
1000
Color
1070
     1
1070
   256
1002
{
1002
}
1000
LType
1070
     4
1000
BYLAYER
1002
{
1002
}
1002
}
1000
BOAP
1070
     9
1000
4A
1002
{
1000
Class
1070
     4
1000

1002
{
1002
}
1000
Color
1070
     1
1070
   256
1002
{
1002
}
1000
LType
1070
     4
1000
BYLAYER
1002
{
1002
}
1002
}
1000
BOR2
1070
     9
1000
RAHM2
1002
{
1000
Class
1070
     4
1000
SPZ,SYM
1002
{
1002
}
1000
Color
1070
     1
1070
   256
1002
{
1002
}
1000
LType
1070
     4
1000
BYLAYER
1002
{
1002
}
1002
}
1000
BOR3
1070
     9
1000
RAHM3
1002
{
1000
Class
1070
     4
1000
SPZ,SYM
1002
{
1002
}
1000
Color
1070
     1
1070
   256
1002
{
1002
}
1000
LType
1070
     4
1000
BYLAYER
1002
{
1002
}
1002
}
1000
BOR5
1070
     9
1000
RAHM5
1002
{
1000
Class
1070
     4
1000
SPZ,SYM
1002
{
1002
}
1000
Color
1070
     1
1070
   256
1002
{
1002
}
1000
LType
1070
     4
1000
BYLAYER
1002
{
1002
}
1002
}
1000
BOR7
1070
     9
1000
RAHM5
1002
{
1000
Class
1070
     4
1000
SPZ,SYM
1002
{
1002
}
1000
Color
1070
     1
1070
     7
1002
{
1002
}
1000
LType
1070
     4
1000
CONTINUOUS
1002
{
1002
}
1002
}
1000
BPAP
1070
     9
1000
4A
1002
{
1000
Class
1070
     4
1000

1002
{
1002
}
1000
Color
1070
     1
1070
   256
1002
{
1002
}
1000
LType
1070
     4
1000
BYLAYER
1002
{
1002
}
1002
}
1000
BPEX
1070
     9
1000
4A
1002
{
1000
Class
1070
     4
1000

1002
{
1002
}
1000
Color
1070
     1
1070
   256
1002
{
1002
}
1000
LType
1070
     4
1000
BYLAYER
1002
{
1002
}
1002
}
1000
BTDI
1070
     9
1000
5
1002
{
1000
Class
1070
     4
1000
DIM,SYM
1002
{
1002
}
1000
Color
1070
     1
1070
   256
1002
{
1002
}
1000
LType
1070
     4
1000
BYLAYER
1002
{
1002
}
1002
}
1000
CAL2
1070
     9
1000
4
1002
{
1000
Class
1070
     4
1000
SYM
1002
{
1002
}
1000
Color
1070
     1
1070
   256
1002
{
1002
}
1000
LType
1070
     4
1000
BYLAYER
1002
{
1002
}
1002
}
1000
CAL3
1070
     9
1000
4
1002
{
1000
Class
1070
     4
1000
SYM
1002
{
1002
}
1000
Color
1070
     1
1070
     2
1002
{
1002
}
1000
LType
1070
     4
1000
BYLAYER
1002
{
1002
}
1002
}
1000
CAL5
1070
     9
1000
4
1002
{
1000
Class
1070
     4
1000
SYM
1002
{
1002
}
1000
Color
1070
     1
1070
     7
1002
{
1002
}
1000
LType
1070
     4
1000
BYLAYER
1002
{
1002
}
1002
}
1000
CAL7
1070
     9
1000
4
1002
{
1000
Class
1070
     4
1000
SYM
1002
{
1002
}
1000
Color
1070
     1
1070
     5
1002
{
1002
}
1000
LType
1070
     4
1000
BYLAYER
1002
{
1002
}
1002
}
1000
CENN
1070
     9
1000
7A
1002
{
1000
Class
1070
     4
1000
CEN
1002
{
1002
}
1000
Color
1070
     1
1070
   256
1002
{
1002
}
1000
LType
1070
     4
1000
BYLAYER
1002
{
1002
}
1002
}
1000
CENW
1070
     9
1000
7
1002
{
1000
Class
1070
     4
1000
CEN
1002
{
1002
}
1000
Color
1070
     1
1070
   256
1002
{
1002
}
1000
LType
1070
     4
1000
BYLAYER
1002
{
1002
}
1002
}
1000
CLIN
1070
     9
1000
KLIN
1002
{
1000
Class
1070
     4
1000
SPZ
1002
{
1002
}
1000
Color
1070
     1
1070
   256
1002
{
1002
}
1000
LType
1070
     4
1000
BYLAYER
1002
{
1002
}
1002
}
1000
CON1
1070
     9
1000
0
1002
{
1000
Class
1070
     4
1000
CON,BGD
1002
{
1002
}
1000
Color
1070
     1
1070
   256
1002
{
1002
}
1000
LType
1070
     4
1000
BYLAYER
1002
{
1002
}
1002
}
1000
CON2
1070
     9
1000
1
1002
{
1000
Class
1070
     4
1000
CON,BGD
1002
{
1002
}
1000
Color
1070
     1
1070
   256
1002
{
1002
}
1000
LType
1070
     4
1000
BYLAYER
1002
{
1002
}
1002
}
1000
CON3
1070
     9
1000
2
1002
{
1000
Class
1070
     4
1000
CON,BGD
1002
{
1002
}
1000
Color
1070
     1
1070
   256
1002
{
1002
}
1000
LType
1070
     4
1000
BYLAYER
1002
{
1002
}
1002
}
1000
CON4
1070
     9
1000
2
1002
{
1000
Class
1070
     4
1000
CON,BGD
1002
{
1002
}
1000
Color
1070
     1
1070
   256
1002
{
1002
}
1000
LType
1070
     4
1000
BYLAYER
1002
{
1002
}
1002
}
1000
DERP
1070
     9
1000
4
1002
{
1000
Class
1070
     4
1000

1002
{
1002
}
1000
Color
1070
     1
1070
   256
1002
{
1002
}
1000
LType
1070
     4
1000
BYLAYER
1002
{
1002
}
1002
}
1000
DETA
1070
     9
1000
4
1002
{
1000
Class
1070
     4
1000

1002
{
1002
}
1000
Color
1070
     1
1070
   256
1002
{
1002
}
1000
LType
1070
     4
1000
BYLAYER
1002
{
1002
}
1002
}
1000
DIAG
1070
     9
1000
5
1002
{
1000
Class
1070
     4
1000
SYM
1002
{
1002
}
1000
Color
1070
     1
1070
   256
1002
{
1002
}
1000
LType
1070
     4
1000
BYLAYER
1002
{
1002
}
1002
}
1000
DILI
1070
     9
1000
5
1002
{
1000
Class
1070
     4
1000
DIM,SYM
1002
{
1002
}
1000
Color
1070
     1
1070
   256
1002
{
1002
}
1000
LType
1070
     4
1000
BYLAYER
1002
{
1002
}
1002
}
1000
DITX
1070
     9
1000
5
1002
{
1000
Class
1070
     4
1000
DIM,SYM
1002
{
1002
}
1000
Color
1070
     1
1070
     2
1002
{
1002
}
1000
LType
1070
     4
1000
CONTINUOUS
1002
{
1002
}
1002
}
1000
DITO2
1070
     9
1000
5
1002
{
1000
Class
1070
     4
1000
DIM,SYM
1002
{
1002
}
1000
Color
1070
     1
1070
     3
1002
{
1002
}
1000
LType
1070
     4
1000
BYLAYER
1002
{
1002
}
1002
}
1000
DITO3
1070
     9
1000
5
1002
{
1000
Class
1070
     4
1000
DIM,SYM
1002
{
1002
}
1000
Color
1070
     1
1070
     2
1002
{
1002
}
1000
LType
1070
     4
1000
BYLAYER
1002
{
1002
}
1002
}
1000
DIXL
1070
     9
1000
5
1002
{
1000
Class
1070
     4
1000
DIM,SYM
1002
{
1002
}
1000
Color
1070
     1
1070
   256
1002
{
1002
}
1000
LType
1070
     4
1000
BYLAYER
1002
{
1002
}
1002
}
1000
EXMP
1070
     9
1000
4A
1002
{
1000
Class
1070
     4
1000

1002
{
1002
}
1000
Color
1070
     1
1070
   256
1002
{
1002
}
1000
LType
1070
     4
1000
BYLAYER
1002
{
1002
}
1002
}
1000
FEMN
1070
     9
1000
8
1002
{
1000
Class
1070
     4
1000

1002
{
1002
}
1000
Color
1070
     1
1070
   256
1002
{
1002
}
1000
LType
1070
     4
1000
BYLAYER
1002
{
1002
}
1002
}
1000
FEMPN
1070
     9
1000
8
1002
{
1000
Class
1070
     4
1000
SYM
1002
{
1002
}
1000
Color
1070
     1
1070
     3
1002
{
1002
}
1000
LType
1070
     4
1000
BYLAYER
1002
{
1002
}
1002
}
1000
FEMSP
1070
     9
1000
4A
1002
{
1000
Class
1070
     4
1000

1002
{
1002
}
1000
Color
1070
     1
1070
   256
1002
{
1002
}
1000
LType
1070
     4
1000
CONTINUOUS
1002
{
1002
}
1002
}
1000
FEMST
1070
     9
1000
4A
1002
{
1000
Class
1070
     4
1000
SYM
1002
{
1002
}
1000
Color
1070
     1
1070
     3
1002
{
1002
}
1000
LType
1070
     4
1000
BYLAYER
1002
{
1002
}
1002
}
1000
FEMVN
1070
     9
1000
2
1002
{
1000
Class
1070
     4
1000
CON
1002
{
1002
}
1000
Color
1070
     1
1070
   256
1002
{
1002
}
1000
LType
1070
     4
1000
BYLAYER
1002
{
1002
}
1002
}
1000
FEMVT
1070
     9
1000
2
1002
{
1000
Class
1070
     4
1000
SYM
1002
{
1002
}
1000
Color
1070
     1
1070
     3
1002
{
1002
}
1000
LType
1070
     4
1000
BYLAYER
1002
{
1002
}
1002
}
1000
FLAT
1070
     9
1000
0
1002
{
1000
Class
1070
     4
1000

1002
{
1002
}
1000
Color
1070
     1
1070
   256
1002
{
1002
}
1000
LType
1070
     4
1000
BYLAYER
1002
{
1002
}
1002
}
1000
FRAR
1070
     9
1000
4A
1002
{
1000
Class
1070
     4
1000

1002
{
1002
}
1000
Color
1070
     1
1070
   256
1002
{
1002
}
1000
LType
1070
     4
1000
BYLAYER
1002
{
1002
}
1002
}
1000
GRLI
1070
     9
1000
5
1002
{
1000
Class
1070
     4
1000
SYM
1002
{
1002
}
1000
Color
1070
     1
1070
   256
1002
{
1002
}
1000
LType
1070
     4
1000
BYLAYER
1002
{
1002
}
1002
}
1000
GVLI
1070
     9
1000
4A
1002
{
1000
Class
1070
     4
1000

1002
{
1002
}
1000
Color
1070
     1
1070
   256
1002
{
1002
}
1000
LType
1070
     4
1000
BYLAYER
1002
{
1002
}
1002
}
1000
HATC
1070
     9
1000
8
1002
{
1000
Class
1070
     4
1000
HTC,BGD
1002
{
1002
}
1000
Color
1070
     1
1070
   256
1002
{
1002
}
1000
LType
1070
     4
1000
BYLAYER
1002
{
1002
}
1002
}
1000
HIDN
1070
     9
1000
3A
1002
{
1000
Class
1070
     4
1000
HID,BGD
1002
{
1002
}
1000
Color
1070
     1
1070
   256
1002
{
1002
}
1000
LType
1070
     4
1000
BYLAYER
1002
{
1002
}
1002
}
1000
HIDW
1070
     9
1000
3
1002
{
1000
Class
1070
     4
1000
HID,BGD
1002
{
1002
}
1000
Color
1070
     1
1070
   256
1002
{
1002
}
1000
LType
1070
     4
1000
BYLAYER
1002
{
1002
}
1002
}
1000
HLIN
1070
     9
1000
4
1002
{
1000
Class
1070
     4
1000
BGD
1002
{
1002
}
1000
Color
1070
     1
1070
   256
1002
{
1002
}
1000
LType
1070
     4
1000
BYLAYER
1002
{
1002
}
1002
}
1000
HOCN
1070
     9
1000
7A
1002
{
1000
Class
1070
     4
1000
CEN
1002
{
1002
}
1000
Color
1070
     1
1070
   256
1002
{
1002
}
1000
LType
1070
     4
1000
BYLAYER
1002
{
1002
}
1002
}
1000
HOCW
1070
     9
1000
7
1002
{
1000
Class
1070
     4
1000
CEN
1002
{
1002
}
1000
Color
1070
     1
1070
   256
1002
{
1002
}
1000
LType
1070
     4
1000
BYLAYER
1002
{
1002
}
1002
}
1000
INFO
1070
     9
1000
INFO
1002
{
1000
Class
1070
     4
1000
SPZ,SYM
1002
{
1002
}
1000
Color
1070
     1
1070
   256
1002
{
1002
}
1000
LType
1070
     4
1000
BYLAYER
1002
{
1002
}
1002
}
1000
LADI
1070
     9
1000
4
1002
{
1000
Class
1070
     4
1000
BGD
1002
{
1002
}
1000
Color
1070
     1
1070
   256
1002
{
1002
}
1000
LType
1070
     4
1000
BYLAYER
1002
{
1002
}
1002
}
1000
LEAD
1070
     9
1000
5
1002
{
1000
Class
1070
     4
1000
SYM
1002
{
1002
}
1000
Color
1070
     1
1070
   256
1002
{
1002
}
1000
LType
1070
     4
1000
BYLAYER
1002
{
1002
}
1002
}
1000
N_BHNV
1070
     9
1000
9N
1002
{
1000
Class
1070
     4
1000
INV
1002
{
1002
}
1000
Color
1070
     1
1070
   256
1002
{
1002
}
1000
LType
1070
     4
1000
BYLAYER
1002
{
1002
}
1002
}
1000
N_CON1
1070
     9
1000
0N
1002
{
1000
Class
1070
     4
1000
CON,BGD
1002
{
1002
}
1000
Color
1070
     1
1070
   256
1002
{
1002
}
1000
LType
1070
     4
1000
BYLAYER
1002
{
1002
}
1002
}
1000
N_CON2
1070
     9
1000
1N
1002
{
1000
Class
1070
     4
1000
CON,BGD
1002
{
1002
}
1000
Color
1070
     1
1070
   256
1002
{
1002
}
1000
LType
1070
     4
1000
BYLAYER
1002
{
1002
}
1002
}
1000
N_CON3
1070
     9
1000
2N
1002
{
1000
Class
1070
     4
1000
CON,BGD
1002
{
1002
}
1000
Color
1070
     1
1070
   256
1002
{
1002
}
1000
LType
1070
     4
1000
BYLAYER
1002
{
1002
}
1002
}
1000
N_CON4
1070
     9
1000
2N
1002
{
1000
Class
1070
     4
1000
CON,BGD
1002
{
1002
}
1000
Color
1070
     1
1070
   256
1002
{
1002
}
1000
LType
1070
     4
1000
BYLAYER
1002
{
1002
}
1002
}
1000
N_CENN
1070
     9
1000
7AN
1002
{
1000
Class
1070
     4
1000
CEN
1002
{
1002
}
1000
Color
1070
     1
1070
   256
1002
{
1002
}
1000
LType
1070
     4
1000
BYLAYER
1002
{
1002
}
1002
}
1000
N_CENW
1070
     9
1000
7N
1002
{
1000
Class
1070
     4
1000
CEN
1002
{
1002
}
1000
Color
1070
     1
1070
   256
1002
{
1002
}
1000
LType
1070
     4
1000
BYLAYER
1002
{
1002
}
1002
}
1000
N_DILI
1070
     9
1000
5N
1002
{
1000
Class
1070
     4
1000
DIM,SYM
1002
{
1002
}
1000
Color
1070
     1
1070
   256
1002
{
1002
}
1000
LType
1070
     4
1000
BYLAYER
1002
{
1002
}
1002
}
1000
N_DITX
1070
     9
1000
5N
1002
{
1000
Class
1070
     4
1000
DIM,SYM
1002
{
1002
}
1000
Color
1070
     1
1070
     2
1002
{
1002
}
1000
LType
1070
     4
1000
CONTINUOUS
1002
{
1002
}
1002
}
1000
N_DIXL
1070
     9
1000
5N
1002
{
1000
Class
1070
     4
1000
DIM,SYM
1002
{
1002
}
1000
Color
1070
     1
1070
   256
1002
{
1002
}
1000
LType
1070
     4
1000
BYLAYER
1002
{
1002
}
1002
}
1000
N_HATC
1070
     9
1000
8N
1002
{
1000
Class
1070
     4
1000
HTC,BGD
1002
{
1002
}
1000
Color
1070
     1
1070
   256
1002
{
1002
}
1000
LType
1070
     4
1000
BYLAYER
1002
{
1002
}
1002
}
1000
N_HIDN
1070
     9
1000
3AN
1002
{
1000
Class
1070
     4
1000
HID,BGD
1002
{
1002
}
1000
Color
1070
     1
1070
   256
1002
{
1002
}
1000
LType
1070
     4
1000
BYLAYER
1002
{
1002
}
1002
}
1000
N_HIDW
1070
     9
1000
3N
1002
{
1000
Class
1070
     4
1000
HID,BGD
1002
{
1002
}
1000
Color
1070
     1
1070
   256
1002
{
1002
}
1000
LType
1070
     4
1000
BYLAYER
1002
{
1002
}
1002
}
1000
N_PHAN
1070
     9
1000
4AN
1002
{
1000
Class
1070
     4
1000

1002
{
1002
}
1000
Color
1070
     1
1070
   256
1002
{
1002
}
1000
LType
1070
     4
1000
BYLAYER
1002
{
1002
}
1002
}
1000
N_POSL
1070
     9
1000
5N
1002
{
1000
Class
1070
     4
1000
SYM
1002
{
1002
}
1000
Color
1070
     1
1070
   256
1002
{
1002
}
1000
LType
1070
     4
1000
BYLAYER
1002
{
1002
}
1002
}
1000
N_TCON
1070
     9
1000
0N
1002
{
1000
Class
1070
     4
1000
CON,BGD
1002
{
1002
}
1000
Color
1070
     1
1070
   256
1002
{
1002
}
1000
LType
1070
     4
1000
BYLAYER
1002
{
1002
}
1002
}
1000
N_THLI
1070
     9
1000
4N
1002
{
1000
Class
1070
     4
1000
BGD
1002
{
1002
}
1000
Color
1070
     1
1070
   256
1002
{
1002
}
1000
LType
1070
     4
1000
BYLAYER
1002
{
1002
}
1002
}
1000
N_TLEN
1070
     9
1000
0N
1002
{
1000
Class
1070
     4
1000
CON,BGD
1002
{
1002
}
1000
Color
1070
     1
1070
   256
1002
{
1002
}
1000
LType
1070
     4
1000
BYLAYER
1002
{
1002
}
1002
}
1000
N_TXT3
1070
     9
1000
6N
1002
{
1000
Class
1070
     4
1000
SYM
1002
{
1002
}
1000
Color
1070
     1
1070
   256
1002
{
1002
}
1000
LType
1070
     4
1000
BYLAYER
1002
{
1002
}
1002
}
1000
N_VPLI
1070
     9
1000
2AN
1002
{
1000
Class
1070
     4
1000

1002
{
1002
}
1000
Color
1070
     1
1070
   256
1002
{
1002
}
1000
LType
1070
     4
1000
BYLAYER
1002
{
1002
}
1002
}
1000
PAL2
1070
     9
1000
RAHM2
1002
{
1000
Class
1070
     4
1000
SPZ,SYM
1002
{
1002
}
1000
Color
1070
     1
1070
   256
1002
{
1002
}
1000
LType
1070
     4
1000
BYLAYER
1002
{
1002
}
1002
}
1000
PAL3
1070
     9
1000
RAHM3
1002
{
1000
Class
1070
     4
1000
SPZ,SYM
1002
{
1002
}
1000
Color
1070
     1
1070
   256
1002
{
1002
}
1000
LType
1070
     4
1000
BYLAYER
1002
{
1002
}
1002
}
1000
PAL5
1070
     9
1000
RAHM5
1002
{
1000
Class
1070
     4
1000
SPZ,SYM
1002
{
1002
}
1000
Color
1070
     1
1070
   256
1002
{
1002
}
1000
LType
1070
     4
1000
BYLAYER
1002
{
1002
}
1002
}
1000
PAL7
1070
     9
1000
RAHM5
1002
{
1000
Class
1070
     4
1000
SPZ,SYM
1002
{
1002
}
1000
Color
1070
     1
1070
     7
1002
{
1002
}
1000
LType
1070
     4
1000
CONTINUOUS
1002
{
1002
}
1002
}
1000
PHAN
1070
     9
1000
4A
1002
{
1000
Class
1070
     4
1000

1002
{
1002
}
1000
Color
1070
     1
1070
   256
1002
{
1002
}
1000
LType
1070
     4
1000
BYLAYER
1002
{
1002
}
1002
}
1000
POSL
1070
     9
1000
5
1002
{
1000
Class
1070
     4
1000
SYM
1002
{
1002
}
1000
Color
1070
     1
1070
   256
1002
{
1002
}
1000
LType
1070
     4
1000
BYLAYER
1002
{
1002
}
1002
}
1000
POSN
1070
     9
1000
6
1002
{
1000
Class
1070
     4
1000
SYM
1002
{
1002
}
1000
Color
1070
     1
1070
     7
1002
{
1002
}
1000
LType
1070
     4
1000
BYLAYER
1002
{
1002
}
1002
}
1000
POSREF
1070
     9
1000
6
1002
{
1000
Class
1070
     4
1000
SYM
1002
{
1002
}
1000
Color
1070
     1
1070
     5
1002
{
1002
}
1000
LType
1070
     4
1000
BYLAYER
1002
{
1002
}
1002
}
1000
POSX
1070
     9
1000
5
1002
{
1000
Class
1070
     4
1000
SYM
1002
{
1002
}
1000
Color
1070
     1
1070
     2
1002
{
1002
}
1000
LType
1070
     4
1000
CONTINUOUS
1002
{
1002
}
1002
}
1000
PSEC
1070
     9
1000
4A
1002
{
1000
Class
1070
     4
1000

1002
{
1002
}
1000
Color
1070
     1
1070
   256
1002
{
1002
}
1000
LType
1070
     4
1000
BYLAYER
1002
{
1002
}
1002
}
1000
RCGN
1070
     9
1000
7A
1002
{
1000
Class
1070
     4
1000
CEN
1002
{
1002
}
1000
Color
1070
     1
1070
   256
1002
{
1002
}
1000
LType
1070
     4
1000
BYLAYER
1002
{
1002
}
1002
}
1000
RCGW
1070
     9
1000
7
1002
{
1000
Class
1070
     4
1000
CEN
1002
{
1002
}
1000
Color
1070
     1
1070
   256
1002
{
1002
}
1000
LType
1070
     4
1000
BYLAYER
1002
{
1002
}
1002
}
1000
RFDI
1070
     9
1000
4
1002
{
1000
Class
1070
     4
1000
BGD
1002
{
1002
}
1000
Color
1070
     1
1070
   256
1002
{
1002
}
1000
LType
1070
     4
1000
BYLAYER
1002
{
1002
}
1002
}
1000
RQTR
1070
     9
1000
4
1002
{
1000
Class
1070
     4
1000

1002
{
1002
}
1000
Color
1070
     1
1070
     7
1002
{
1002
}
1000
LType
1070
     4
1000
GEN7A
1002
{
1002
}
1002
}
1000
RSBO
1070
     9
1000
4
1002
{
1000
Class
1070
     4
1000
BGD
1002
{
1002
}
1000
Color
1070
     1
1070
   256
1002
{
1002
}
1000
LType
1070
     4
1000
BYLAYER
1002
{
1002
}
1002
}
1000
SBRK
1070
     9
1000
4
1002
{
1000
Class
1070
     4
1000
BGD
1002
{
1002
}
1000
Color
1070
     1
1070
   256
1002
{
1002
}
1000
LType
1070
     4
1000
BYLAYER
1002
{
1002
}
1002
}
1000
SCEN
1070
     9
1000
7
1002
{
1000
Class
1070
     4
1000

1002
{
1002
}
1000
Color
1070
     1
1070
   256
1002
{
1002
}
1000
LType
1070
     4
1000
CONTINUOUS
1002
{
1002
}
1002
}
1000
SECT
1070
     9
1000
4
1002
{
1000
Class
1070
     4
1000
BGD
1002
{
1002
}
1000
Color
1070
     1
1070
   256
1002
{
1002
}
1000
LType
1070
     4
1000
BYLAYER
1002
{
1002
}
1002
}
1000
SELN
1070
     9
1000
7A
1002
{
1000
Class
1070
     4
1000

1002
{
1002
}
1000
Color
1070
     1
1070
   256
1002
{
1002
}
1000
LType
1070
     4
1000
BYLAYER
1002
{
1002
}
1002
}
1000
SELW
1070
     9
1000
7
1002
{
1000
Class
1070
     4
1000

1002
{
1002
}
1000
Color
1070
     1
1070
   256
1002
{
1002
}
1000
LType
1070
     4
1000
BYLAYER
1002
{
1002
}
1002
}
1000
SSYS
1070
     9
1000
0
1002
{
1000
Class
1070
     4
1000

1002
{
1002
}
1000
Color
1070
     1
1070
   256
1002
{
1002
}
1000
LType
1070
     4
1000
BYLAYER
1002
{
1002
}
1002
}
1000
STLI
1070
     9
1000
4
1002
{
1000
Class
1070
     4
1000

1002
{
1002
}
1000
Color
1070
     1
1070
     7
1002
{
1002
}
1000
LType
1070
     4
1000
GEN3A
1002
{
1002
}
1002
}
1000
SYB1
1070
     9
1000
5
1002
{
1000
Class
1070
     4
1000
SYM
1002
{
1002
}
1000
Color
1070
     1
1070
   256
1002
{
1002
}
1000
LType
1070
     4
1000
BYLAYER
1002
{
1002
}
1002
}
1000
SYB2
1070
     9
1000
5
1002
{
1000
Class
1070
     4
1000
SYM
1002
{
1002
}
1000
Color
1070
     1
1070
   256
1002
{
1002
}
1000
LType
1070
     4
1000
BYLAYER
1002
{
1002
}
1002
}
1000
SYB3
1070
     9
1000
6
1002
{
1000
Class
1070
     4
1000
SYM
1002
{
1002
}
1000
Color
1070
     1
1070
   256
1002
{
1002
}
1000
LType
1070
     4
1000
CONTINUOUS
1002
{
1002
}
1002
}
1000
SYB5
1070
     9
1000
5
1002
{
1000
Class
1070
     4
1000
SYM
1002
{
1002
}
1000
Color
1070
     1
1070
     7
1002
{
1002
}
1000
LType
1070
     4
1000
BYLAYER
1002
{
1002
}
1002
}
1000
SYMN
1070
     9
1000
7A
1002
{
1000
Class
1070
     4
1000
CEN
1002
{
1002
}
1000
Color
1070
     1
1070
   256
1002
{
1002
}
1000
LType
1070
     4
1000
BYLAYER
1002
{
1002
}
1002
}
1000
SYMW
1070
     9
1000
7
1002
{
1000
Class
1070
     4
1000
CEN
1002
{
1002
}
1000
Color
1070
     1
1070
   256
1002
{
1002
}
1000
LType
1070
     4
1000
BYLAYER
1002
{
1002
}
1002
}
1000
TCON
1070
     9
1000
0
1002
{
1000
Class
1070
     4
1000
CON,BGD
1002
{
1002
}
1000
Color
1070
     1
1070
   256
1002
{
1002
}
1000
LType
1070
     4
1000
BYLAYER
1002
{
1002
}
1002
}
1000
THLI
1070
     9
1000
4
1002
{
1000
Class
1070
     4
1000
BGD
1002
{
1002
}
1000
Color
1070
     1
1070
   256
1002
{
1002
}
1000
LType
1070
     4
1000
BYLAYER
1002
{
1002
}
1002
}
1000
TIT2
1070
     9
1000
RAHM2
1002
{
1000
Class
1070
     4
1000
SPZ,SYM
1002
{
1002
}
1000
Color
1070
     1
1070
   256
1002
{
1002
}
1000
LType
1070
     4
1000
BYLAYER
1002
{
1002
}
1002
}
1000
TIT3
1070
     9
1000
RAHM3
1002
{
1000
Class
1070
     4
1000
SPZ,SYM
1002
{
1002
}
1000
Color
1070
     1
1070
   256
1002
{
1002
}
1000
LType
1070
     4
1000
BYLAYER
1002
{
1002
}
1002
}
1000
TIT5
1070
     9
1000
RAHM5
1002
{
1000
Class
1070
     4
1000
SPZ,SYM
1002
{
1002
}
1000
Color
1070
     1
1070
   256
1002
{
1002
}
1000
LType
1070
     4
1000
BYLAYER
1002
{
1002
}
1002
}
1000
TIT7
1070
     9
1000
RAHM5
1002
{
1000
Class
1070
     4
1000
SPZ,SYM
1002
{
1002
}
1000
Color
1070
     1
1070
     7
1002
{
1002
}
1000
LType
1070
     4
1000
CONTINUOUS
1002
{
1002
}
1002
}
1000
TLEN
1070
     9
1000
0
1002
{
1000
Class
1070
     4
1000
CON,BGD
1002
{
1002
}
1000
Color
1070
     1
1070
   256
1002
{
1002
}
1000
LType
1070
     4
1000
BYLAYER
1002
{
1002
}
1002
}
1000
TRKN
1070
     9
1000
7A
1002
{
1000
Class
1070
     4
1000

1002
{
1002
}
1000
Color
1070
     1
1070
   256
1002
{
1002
}
1000
LType
1070
     4
1000
BYLAYER
1002
{
1002
}
1002
}
1000
TRKW
1070
     9
1000
7
1002
{
1000
Class
1070
     4
1000

1002
{
1002
}
1000
Color
1070
     1
1070
   256
1002
{
1002
}
1000
LType
1070
     4
1000
BYLAYER
1002
{
1002
}
1002
}
1000
TRLI
1070
     9
1000
4
1002
{
1000
Class
1070
     4
1000
BGD
1002
{
1002
}
1000
Color
1070
     1
1070
   256
1002
{
1002
}
1000
LType
1070
     4
1000
BYLAYER
1002
{
1002
}
1002
}
1000
TXT1
1070
     9
1000
6
1002
{
1000
Class
1070
     4
1000
SYM
1002
{
1002
}
1000
Color
1070
     1
1070
     2
1002
{
1002
}
1000
LType
1070
     4
1000
BYLAYER
1002
{
1002
}
1002
}
1000
TXT2
1070
     9
1000
6
1002
{
1000
Class
1070
     4
1000
SYM
1002
{
1002
}
1000
Color
1070
     1
1070
     2
1002
{
1002
}
1000
LType
1070
     4
1000
BYLAYER
1002
{
1002
}
1002
}
1000
TXT3
1070
     9
1000
6
1002
{
1000
Class
1070
     4
1000
SYM
1002
{
1002
}
1000
Color
1070
     1
1070
   256
1002
{
1002
}
1000
LType
1070
     4
1000
BYLAYER
1002
{
1002
}
1002
}
1000
TXT5
1070
     9
1000
6
1002
{
1000
Class
1070
     4
1000
SYM
1002
{
1002
}
1000
Color
1070
     1
1070
     7
1002
{
1002
}
1000
LType
1070
     4
1000
BYLAYER
1002
{
1002
}
1002
}
1000
TXT7
1070
     9
1000
6
1002
{
1000
Class
1070
     4
1000
SYM
1002
{
1002
}
1000
Color
1070
     1
1070
     7
1002
{
1002
}
1000
LType
1070
     4
1000
BYLAYER
1002
{
1002
}
1002
}
1000
VIEW
1070
     9
1000
VIEW
1002
{
1000
Class
1070
     4
1000
SPZ
1002
{
1002
}
1000
Color
1070
     1
1070
   256
1002
{
1002
}
1000
LType
1070
     4
1000
BYLAYER
1002
{
1002
}
1002
}
1000
VPLI
1070
     9
1000
2A
1002
{
1000
Class
1070
     4
1000

1002
{
1002
}
1000
Color
1070
     1
1070
   256
1002
{
1002
}
1000
LType
1070
     4
1000
BYLAYER
1002
{
1002
}
1002
}
1000
ZIZA
1070
     9
1000
4
1002
{
1000
Class
1070
     4
1000
BGD
1002
{
1002
}
1000
Color
1070
     1
1070
   256
1002
{
1002
}
1000
LType
1070
     4
1000
GENZIGZAG
1002
{
1002
}
1002
}
  0
APPID
  5
2D
100
AcDbSymbolTableRecord
100
AcDbRegAppTableRecord
  2
GENIUS_GENCFG3_13
 70
     0
1001
GENIUS_GENCFG_13
1071
862825278
1000
2D
1000
GEN@OSWIZ
1070
    12
1000
GenCfgObject
1000
GenCfgShort
1000
GenCfgReal
1000
GenCfgBool
1000
GenCfgString
1000
GenCfgDim
1000
GenCfgAttrInf
1000
GenCfgLaySection
1000
GenCfgLayer
1000
GenCfgEntSort
1000
GenCfgLType
1000
GenCfgFilter
1000
AngleStep
1070
     0
1002
{
1000
M
1070
     2
1040
10.0
1002
{
1002
}
1000
I
1070
     2
1040
0.4
1002
{
1002
}
1002
}
1000
AngleIncr
1070
     2
1040
45.0
1002
{
1002
}
1000
Filter
1070
     0
1002
{
1000
HATCH
1070
    11
1002
{
1000
EntityType
1070
     4
1000
LINE
1002
{
1002
}
1000
Layer
1070
     4
1000
8,8N,*-8,*-8N
1002
{
1002
}
1000
Linetype
1070
     4
1000
*
1002
{
1002
}
1000
Color
1070
     4
1000
*
1002
{
1002
}
1002
}
1000
SYMBOLS
1070
    11
1002
{
1000
EntityType
1070
     4
1000
*
1002
{
1002
}
1000
Layer
1070
     4
1000
[5-6],[5-6]N,*-[5-6],*-[5-6]N
1002
{
1002
}
1000
Linetype
1070
     4
1000
*
1002
{
1002
}
1000
Color
1070
     4
1000
*
1002
{
1002
}
1002
}
1000
FEM
1070
    11
1002
{
1000
EntityType
1070
     4
1000
*
1002
{
1002
}
1000
Layer
1070
     4
1000
4A,4AN,*-4A,*-4AN
1002
{
1002
}
1000
Linetype
1070
     4
1000
*
1002
{
1002
}
1000
Color
1070
     4
1000
*
1002
{
1002
}
1002
}
1002
}
1000
IconSize
1070
     2
1040
1.0
1002
{
1002
}
1000
SnapColor
1070
     1
1070
     3
1002
{
1002
}
  0
APPID
  5
2E
100
AcDbSymbolTableRecord
100
AcDbRegAppTableRecord
  2
GENIUS_GENCFG4_13
 70
     0
1001
GENIUS_GENCFG_13
1071
893399085
1000
2E
1000
GEN
1070
     9
1000
GenCfgObject
1000
GenCfgShort
1000
GenCfgReal
1000
GenCfgBool
1000
GenCfgString
1000
GenCfgDim
1000
GenCfgAttrInf
1000
GenCfgLaySection
1000
GenCfgLType
1000
Balloon
1070
     0
1002
{
1000
GenIF
1070
     1
1070
     0
1002
{
1002
}
1000
GenPosInc
1070
     1
1070
    10
1002
{
1002
}
1000
GenPosBlk
1070
     1
1070
     8
1002
{
1002
}
1000
GenPosVar
1070
     1
1070
     2
1002
{
1002
}
1000
GenZiCir
1070
     2
1040
1.5
1002
{
1002
}
1000
MaxCharForCenteredText
1070
     1
1070
    30
1002
{
1002
}
1000
Snap
1070
     0
1002
{
1000
ActivationRadius
1070
     2
1040
1.0
1002
{
1002
}
1000
M
1070
     0
1002
{
1000
SnapStepX
1070
     2
1040
20.0
1002
{
1002
}
1000
SnapStepY
1070
     2
1040
10.0
1002
{
1002
}
1002
}
1000
I
1070
     0
1002
{
1000
SnapStepX
1070
     2
1040
1.0
1002
{
1002
}
1000
SnapStepY
1070
     2
1040
0.5
1002
{
1002
}
1002
}
1002
}
1002
}
1000
Centerline
1070
     0
1002
{
1000
ScaleNot
1070
     3
1070
     1
1002
{
1002
}
1000
M
1070
     0
1002
{
1000
GenCenAng
1070
     4
1000
45|90|135
1002
{
1002
}
1000
GenCenDia
1070
     2
1040
10.0
1002
{
1002
}
1000
GenCenDias
1070
     4
1000
10|20|30
1002
{
1002
}
1000
GenCenDist
1070
     2
1040
3.0
1002
{
1002
}
1000
GenCenLen
1070
     2
1040
10.0
1002
{
1002
}
1000
GenCenOff
1070
     2
1040
10.0
1002
{
1002
}
1002
}
1000
I
1070
     0
1002
{
1000
GenCenAng
1070
     4
1000
45|90|135
1002
{
1002
}
1000
GenCenDia
1070
     2
1040
0.5
1002
{
1002
}
1000
GenCenDias
1070
     4
1000
0.5|1.0|1.5
1002
{
1002
}
1000
GenCenDist
1070
     2
1040
0.125
1002
{
1002
}
1000
GenCenLen
1070
     2
1040
0.5
1002
{
1002
}
1000
GenCenOff
1070
     2
1040
0.5
1002
{
1002
}
1002
}
1002
}
1000
CLine
1070
     0
1002
{
1000
CAngArray
1070
     4
1000
30|45|60
1002
{
1002
}
1000
Typ
1070
     4
1000
XLINE
1002
{
1002
}
1000
M
1070
     0
1002
{
1000
CLinArray
1070
     4
1000
60
1002
{
1002
}
1002
}
1000
I
1070
     0
1002
{
1000
CLinArray
1070
     4
1000
0.125|0.25|0.5
1002
{
1002
}
1002
}
1002
}
1000
Constraints
1070
     0
1002
{
1000
Color
1070
     0
1002
{
1000
Active_Frame
1070
     1
1070
     2
1002
{
1002
}
1000
Inactive_Frame
1070
     1
1070
     8
1002
{
1002
}
1002
}
1000
Debug
1070
     0
1002
{
1002
}
1000
Editor
1070
     0
1002
{
1002
}
1000
Frame
1070
     0
1002
{
1002
}
1000
Sys
1070
     0
1002
{
1002
}
1002
}
1000
Detail
1070
     0
1002
{
1002
}
1000
Dimension
1070
     5
1002
{
1000
DIMALT
1070
     1
1070
     0
1002
{
1002
}
1000
DIMALTD
1070
     1
1070
     2
1002
{
1002
}
1000
DIMALTTD
1070
     1
1070
     4
1002
{
1002
}
1000
DIMALTTZ
1070
     1
1070
     0
1002
{
1002
}
1000
DIMALTU
1070
     1
1070
     2
1002
{
1002
}
1000
DIMALTZ
1070
     1
1070
     0
1002
{
1002
}
1000
DIMAPOST
1070
     4
1000

1002
{
1002
}
1000
DIMAUNIT
1070
     1
1070
     0
1002
{
1002
}
1000
DIMBLK
1070
     4
1000

1002
{
1002
}
1000
DIMBLK1
1070
     4
1000

1002
{
1002
}
1000
DIMBLK2
1070
     4
1000

1002
{
1002
}
1000
DIMDLE
1070
     2
1040
0.0
1002
{
1002
}
1000
DIMFIT
1070
     1
1070
     3
1002
{
1002
}
1000
DIMJUST
1070
     1
1070
     0
1002
{
1002
}
1000
DIMLFAC
1070
     2
1040
1.0
1002
{
1002
}
1000
DIMLIM
1070
     1
1070
     0
1002
{
1002
}
1000
DIMPOST
1070
     4
1000
<>
1002
{
1002
}
1000
DIMRND
1070
     2
1040
0.0
1002
{
1002
}
1000
DIMSAH
1070
     1
1070
     0
1002
{
1002
}
1000
DIMSCALE
1070
     2
1040
1.0
1002
{
1002
}
1000
DIMSD1
1070
     1
1070
     0
1002
{
1002
}
1000
DIMSD2
1070
     1
1070
     0
1002
{
1002
}
1000
DIMSE1
1070
     1
1070
     0
1002
{
1002
}
1000
DIMSE2
1070
     1
1070
     0
1002
{
1002
}
1000
DIMSOXD
1070
     1
1070
     0
1002
{
1002
}
1000
DIMTAD
1070
     1
1070
     0
1002
{
1002
}
1000
DIMTFAC
1070
     2
1040
0.71
1002
{
1002
}
1000
DIMTIH
1070
     1
1070
     0
1002
{
1002
}
1000
DIMTIX
1070
     1
1070
     0
1002
{
1002
}
1000
DIMTM
1070
     2
1040
0.1
1002
{
1002
}
1000
DIMTOFL
1070
     1
1070
     0
1002
{
1002
}
1000
DIMTOH
1070
     1
1070
     0
1002
{
1002
}
1000
DIMTOL
1070
     1
1070
     0
1002
{
1002
}
1000
DIMTOLJ
1070
     1
1070
     1
1002
{
1002
}
1000
DIMTP
1070
     2
1040
0.1
1002
{
1002
}
1000
DIMTSZ
1070
     2
1040
0.0
1002
{
1002
}
1000
DIMTVP
1070
     2
1040
0.0
1002
{
1002
}
1000
DIMTXSTY
1070
     4
1000
STANDARD
1002
{
1002
}
1000
DIMTZIN
1070
     1
1070
     0
1002
{
1002
}
1000
DIMUNIT
1070
     1
1070
     2
1002
{
1002
}
1000
DIMUPT
1070
     1
1070
     0
1002
{
1002
}
1000
M
1070
     0
1002
{
1000
DIMALTF
1070
     2
1040
0.03937
1002
{
1002
}
1000
DIMASZ
1070
     2
1040
2.5
1002
{
1002
}
1000
DIMCEN
1070
     2
1040
0.0
1002
{
1002
}
1000
DIMDEC
1070
     1
1070
     2
1002
{
1002
}
1000
DIMDLI
1070
     2
1040
7.0
1002
{
1002
}
1000
DIMEXE
1070
     2
1040
1.0
1002
{
1002
}
1000
DIMEXO
1070
     2
1040
1.0
1002
{
1002
}
1000
DIMGAP
1070
     2
1040
0.6
1002
{
1002
}
1000
DIMTDEC
1070
     1
1070
     3
1002
{
1002
}
1000
DIMTXT
1070
     2
1040
3.5
1002
{
1002
}
1000
DIMZIN
1070
     1
1070
     8
1002
{
1002
}
1002
}
1000
I
1070
     0
1002
{
1000
DIMALTF
1070
     2
1040
25.4
1002
{
1002
}
1000
DIMASZ
1070
     2
1040
0.1
1002
{
1002
}
1000
DIMCEN
1070
     2
1040
0.0
1002
{
1002
}
1000
DIMDEC
1070
     1
1070
     4
1002
{
1002
}
1000
DIMDLI
1070
     2
1040
0.5
1002
{
1002
}
1000
DIMEXE
1070
     2
1040
0.1
1002
{
1002
}
1000
DIMEXO
1070
     2
1040
0.05
1002
{
1002
}
1000
DIMGAP
1070
     2
1040
0.06
1002
{
1002
}
1000
DIMTDEC
1070
     1
1070
     4
1002
{
1002
}
1000
DIMTXT
1070
     2
1040
0.12
1002
{
1002
}
1000
DIMZIN
1070
     1
1070
     7
1002
{
1002
}
1002
}
1000
GEN-ISO
1070
     5
1002
{
1000
NAME
1070
     4
1000
GEN-ISO
1002
{
1002
}
1000
DIMTAD
1070
     1
1070
     1
1002
{
1002
}
1000
DIMTOLJ
1070
     1
1070
     0
1002
{
1002
}
1000
DIMTOFL
1070
     1
1070
     1
1002
{
1002
}
1000
M
1070
     0
1002
{
1002
}
1000
I
1070
     0
1002
{
1002
}
1002
}
1000
GEN-ISO-POS
1070
     5
1002
{
1000
NAME
1070
     4
1000
GEN-ISO-POS
1002
{
1002
}
1000
DIMTOLJ
1070
     1
1070
     0
1002
{
1002
}
1000
M
1070
     0
1002
{
1000
DIMGAP
1070
     2
1040
1.5
1002
{
1002
}
1000
DIMTXT
1070
     2
1040
5.0
1002
{
1002
}
1000
DIMASZ
1070
     2
1040
2.5
1002
{
1002
}
1002
}
1000
I
1070
     0
1002
{
1000
DIMASZ
1070
     2
1040
0.1
1002
{
1002
}
1000
DIMGAP
1070
     2
1040
0.06
1002
{
1002
}
1000
DIMTXT
1070
     2
1040
0.2
1002
{
1002
}
1002
}
1000
DIMSCALE
1070
     2
1040
1.0
1002
{
1002
}
1000
DIMPOST
1070
     4
1000
<>
1002
{
1002
}
1002
}
1000
GEN-ISO-CIR
1070
     5
1002
{
1000
NAME
1070
     4
1000
GEN-ISO$3
1002
{
1002
}
1000
DIMFIT
1070
     1
1070
     0
1002
{
1002
}
1000
DIMTAD
1070
     1
1070
     1
1002
{
1002
}
1000
DIMTIH
1070
     1
1070
     0
1002
{
1002
}
1000
DIMTIX
1070
     1
1070
     0
1002
{
1002
}
1000
DIMTOH
1070
     1
1070
     1
1002
{
1002
}
1000
DIMTOLJ
1070
     1
1070
     0
1002
{
1002
}
1000
DIMTOFL
1070
     1
1070
     0
1002
{
1002
}
1000
DIMUPT
1070
     1
1070
     1
1002
{
1002
}
1000
M
1070
     0
1002
{
1002
}
1000
I
1070
     0
1002
{
1002
}
1000
DIMPOST
1070
     4
1000
<>
1002
{
1002
}
1002
}
1000
GEN-ISO-RAD
1070
     5
1002
{
1000
NAME
1070
     4
1000
GEN-ISO$4
1002
{
1002
}
1000
DIMFIT
1070
     1
1070
     0
1002
{
1002
}
1000
DIMTAD
1070
     1
1070
     1
1002
{
1002
}
1000
DIMTIH
1070
     1
1070
     0
1002
{
1002
}
1000
DIMTIX
1070
     1
1070
     0
1002
{
1002
}
1000
DIMTOH
1070
     1
1070
     1
1002
{
1002
}
1000
DIMTOLJ
1070
     1
1070
     0
1002
{
1002
}
1000
DIMTOFL
1070
     1
1070
     0
1002
{
1002
}
1000
DIMUPT
1070
     1
1070
     1
1002
{
1002
}
1000
M
1070
     0
1002
{
1002
}
1000
I
1070
     0
1002
{
1002
}
1002
}
1000
GEN-ISO-ORD
1070
     5
1002
{
1000
NAME
1070
     4
1000
GEN-ISO$6
1002
{
1002
}
1000
DIMTOLJ
1070
     1
1070
     0
1002
{
1002
}
1000
M
1070
     0
1002
{
1002
}
1000
I
1070
     0
1002
{
1002
}
1002
}
1000
GEN-ISO-AXE-F
1070
     5
1002
{
1000
NAME
1070
     4
1000
GEN-ISO-AXE-F
1002
{
1002
}
1000
DIMSE1
1070
     1
1070
     1
1002
{
1002
}
1000
DIMSE2
1070
     1
1070
     1
1002
{
1002
}
1000
DIMTAD
1070
     1
1070
     1
1002
{
1002
}
1000
DIMTOLJ
1070
     1
1070
     0
1002
{
1002
}
1000
DIMTOFL
1070
     1
1070
     1
1002
{
1002
}
1000
M
1070
     0
1002
{
1002
}
1000
I
1070
     0
1002
{
1002
}
1002
}
1000
GEN-ISO-AXE-H
1070
     5
1002
{
1000
DIMBLK1
1070
     4
1000
GENAXEH
1002
{
1002
}
1000
DIMLFAC
1070
     2
1040
2.0
1002
{
1002
}
1000
DIMSAH
1070
     1
1070
     1
1002
{
1002
}
1000
DIMSE1
1070
     1
1070
     1
1002
{
1002
}
1000
DIMSE2
1070
     1
1070
     1
1002
{
1002
}
1000
DIMTAD
1070
     1
1070
     1
1002
{
1002
}
1000
DIMTOLJ
1070
     1
1070
     0
1002
{
1002
}
1000
DIMTOFL
1070
     1
1070
     1
1002
{
1002
}
1000
M
1070
     0
1002
{
1002
}
1000
I
1070
     0
1002
{
1002
}
1002
}
1000
GEN-ANSI
1070
     5
1002
{
1000
NAME
1070
     4
1000
GEN-ANSI
1002
{
1002
}
1000
DIMTIH
1070
     1
1070
     1
1002
{
1002
}
1000
DIMTOH
1070
     1
1070
     1
1002
{
1002
}
1000
DIMTAD
1070
     1
1070
     0
1002
{
1002
}
1000
DIMTOLJ
1070
     1
1070
     1
1002
{
1002
}
1000
M
1070
     0
1002
{
1002
}
1000
I
1070
     0
1002
{
1002
}
1002
}
1000
GEN-ANSI-POS
1070
     5
1002
{
1000
NAME
1070
     4
1000
GEN-ANSI-POS
1002
{
1002
}
1000
DIMTOLJ
1070
     1
1070
     1
1002
{
1002
}
1000
M
1070
     0
1002
{
1000
DIMASZ
1070
     2
1040
2.5
1002
{
1002
}
1000
DIMGAP
1070
     2
1040
1.5
1002
{
1002
}
1000
DIMTXT
1070
     2
1040
5.0
1002
{
1002
}
1002
}
1000
I
1070
     0
1002
{
1000
DIMASZ
1070
     2
1040
0.1
1002
{
1002
}
1000
DIMGAP
1070
     2
1040
0.06
1002
{
1002
}
1000
DIMTXT
1070
     2
1040
0.2
1002
{
1002
}
1002
}
1002
}
1000
GEN-ANSI-CIR
1070
     5
1002
{
1000
NAME
1070
     4
1000
GEN-ANSI$3
1002
{
1002
}
1000
DIMFIT
1070
     1
1070
     0
1002
{
1002
}
1000
DIMTAD
1070
     1
1070
     0
1002
{
1002
}
1000
DIMTIH
1070
     1
1070
     1
1002
{
1002
}
1000
DIMTIX
1070
     1
1070
     0
1002
{
1002
}
1000
DIMTOFL
1070
     1
1070
     0
1002
{
1002
}
1000
DIMTOH
1070
     1
1070
     1
1002
{
1002
}
1000
DIMTOLJ
1070
     1
1070
     1
1002
{
1002
}
1000
DIMUPT
1070
     1
1070
     1
1002
{
1002
}
1000
M
1070
     0
1002
{
1002
}
1000
I
1070
     0
1002
{
1002
}
1002
}
1000
GEN-ANSI-RAD
1070
     5
1002
{
1000
NAME
1070
     4
1000
GEN-ANSI$4
1002
{
1002
}
1000
DIMFIT
1070
     1
1070
     0
1002
{
1002
}
1000
DIMTAD
1070
     1
1070
     0
1002
{
1002
}
1000
DIMTIH
1070
     1
1070
     1
1002
{
1002
}
1000
DIMTIX
1070
     1
1070
     0
1002
{
1002
}
1000
DIMTOFL
1070
     1
1070
     0
1002
{
1002
}
1000
DIMTOH
1070
     1
1070
     1
1002
{
1002
}
1000
DIMTOLJ
1070
     1
1070
     1
1002
{
1002
}
1000
DIMUPT
1070
     1
1070
     1
1002
{
1002
}
1000
M
1070
     0
1002
{
1002
}
1000
I
1070
     0
1002
{
1002
}
1002
}
1000
GEN-ANSI-ORD
1070
     5
1002
{
1000
NAME
1070
     4
1000
GEN-ANSI$6
1002
{
1002
}
1000
DIMTAD
1070
     1
1070
     0
1002
{
1002
}
1000
DIMTIH
1070
     1
1070
     1
1002
{
1002
}
1000
DIMTOH
1070
     1
1070
     1
1002
{
1002
}
1000
DIMTOLJ
1070
     1
1070
     1
1002
{
1002
}
1000
M
1070
     0
1002
{
1002
}
1000
I
1070
     0
1002
{
1002
}
1002
}
1000
GEN-ANSI-AXE-F
1070
     5
1002
{
1000
NAME
1070
     4
1000
GEN-ANSI-AXE-F
1002
{
1002
}
1000
DIMBLK1
1070
     4
1000
GENAXEH
1002
{
1002
}
1000
DIMSAH
1070
     1
1070
     1
1002
{
1002
}
1000
DIMSE1
1070
     1
1070
     1
1002
{
1002
}
1000
DIMSE2
1070
     1
1070
     1
1002
{
1002
}
1000
DIMTAD
1070
     1
1070
     0
1002
{
1002
}
1000
DIMTIH
1070
     1
1070
     1
1002
{
1002
}
1000
DIMTOH
1070
     1
1070
     1
1002
{
1002
}
1000
DIMTOLJ
1070
     1
1070
     1
1002
{
1002
}
1000
M
1070
     0
1002
{
1002
}
1000
I
1070
     0
1002
{
1002
}
1002
}
1000
GEN-ANSI-AXE-H
1070
     5
1002
{
1000
NAME
1070
     4
1000
GEN-ANSI-AXE-H
1002
{
1002
}
1000
DIMBLK1
1070
     4
1000
GENAXEH
1002
{
1002
}
1000
DIMLFAC
1070
     2
1040
2.0
1002
{
1002
}
1000
DIMSAH
1070
     1
1070
     1
1002
{
1002
}
1000
DIMSE1
1070
     1
1070
     1
1002
{
1002
}
1000
DIMSE2
1070
     1
1070
     1
1002
{
1002
}
1000
DIMTAD
1070
     1
1070
     0
1002
{
1002
}
1000
DIMTOFL
1070
     1
1070
     1
1002
{
1002
}
1000
DIMTOLJ
1070
     1
1070
     1
1002
{
1002
}
1000
M
1070
     0
1002
{
1002
}
1000
I
1070
     0
1002
{
1002
}
1002
}
1000
DIMZIN
1070
     1
1070
     8
1002
{
1002
}
1002
}
1000
DimSet
1070
     0
1002
{
1000
ChainSum
1070
     3
1070
     0
1002
{
1002
}
1000
DimDclTyp0
1070
     4
1000
dim23
1002
{
1002
}
1000
HorBra
1070
     3
1070
     0
1002
{
1002
}
1000
StrDia
1070
     4
1000
%%c<>
1002
{
1002
}
1000
StrRad
1070
     4
1000
R<>
1002
{
1002
}
1000
TextMinus
1070
     4
1000
<>
1002
{
1002
}
1000
TextPlus
1070
     4
1000
<>
1002
{
1002
}
1000
M
1070
     0
1002
{
1000
DimdliFirst
1070
     2
1040
10.0
1002
{
1002
}
1000
PointMakeDist
1070
     2
1040
10.0
1002
{
1002
}
1002
}
1000
I
1070
     0
1002
{
1000
DimdliFirst
1070
     2
1040
0.5
1002
{
1002
}
1000
PointMakeDist
1070
     2
1040
0.5
1002
{
1002
}
1002
}
1002
}
1000
Drawing
1070
     0
1002
{
1000
ChamferDimMode
1070
     1
1070
     2
1002
{
1002
}
1000
Gen_Fiso
1070
    -3
1040
1.0
1002
{
1002
}
1000
GenDimStil
1070
     4
1000
ISO
1002
{
1002
}
1000
GenDwgUScale
1070
     2
1040
1.0
1002
{
1002
}
1000
GenInch
1070
     4
1000
M
1002
{
1002
}
1000
GenPlotScale
1070
     4
1000
1:1
1002
{
1002
}
1000
Revisi
1070
     4
1000
0
1002
{
1002
}
1000
Version
1070
    -5
1000
13.1/May  9 1996
1002
{
1002
}
1000
Platform
1070
    -5
1000
WINNT
1002
{
1002
}
1002
}
1000
DwgVar
1070
     0
1002
{
1000
M
1070
     0
1002
{
1002
}
1000
I
1070
     0
1002
{
1002
}
1002
}
1000
Hatch
1070
     0
1002
{
1000
GenHtcFlag
1070
     3
1070
     0
1002
{
1002
}
1002
}
1000
Info_Pos
1070
     0
1002
{
1000
DescrText
1070
     4
1000
5,6,7,8
1002
{
1002
}
1000
Attrib
1070
     0
1002
{
1000
0
1070
     6
1002
{
1000
Prompt
1070
     4
1000
(genmsg gendwg 103)
1002
{
1002
}
1000
Value
1070
     4
1000

1002
{
1002
}
1000
EditFlag
1070
     1
1070
     0
1002
{
1002
}
1002
}
1000
1
1070
     6
1002
{
1000
Prompt
1070
     4
1000
(genmsg gendwg 31)
1002
{
1002
}
1000
Value
1070
     4
1000
1
1002
{
1002
}
1000
EditFlag
1070
     1
1070
     1
1002
{
1002
}
1002
}
1000
2
1070
     6
1002
{
1000
Prompt
1070
     4
1000
(genmsg gendwg 32)
1002
{
1002
}
1000
Value
1070
     4
1000
1
1002
{
1002
}
1000
EditFlag
1070
     1
1070
     1
1002
{
1002
}
1002
}
1000
3
1070
     6
1002
{
1000
Prompt
1070
     4
1000
(genmsg gendwg 33)
1002
{
1002
}
1000
Value
1070
     4
1000

1002
{
1002
}
1000
EditFlag
1070
     1
1070
     1
1002
{
1002
}
1002
}
1000
4
1070
     6
1002
{
1000
Prompt
1070
     4
1000
(genmsg gendwg 34)
1002
{
1002
}
1000
Value
1070
     4
1000

1002
{
1002
}
1000
EditFlag
1070
     1
1070
     1
1002
{
1002
}
1002
}
1000
5
1070
     6
1002
{
1000
Prompt
1070
     4
1000
(genmsg gendwg 35)
1002
{
1002
}
1000
Value
1070
     4
1000

1002
{
1002
}
1000
EditFlag
1070
     1
1070
     1
1002
{
1002
}
1002
}
1000
6
1070
     6
1002
{
1000
Prompt
1070
     4
1000
(genmsg gendwg 36)
1002
{
1002
}
1000
Value
1070
     4
1000

1002
{
1002
}
1000
EditFlag
1070
     1
1070
     1
1002
{
1002
}
1002
}
1000
7
1070
     6
1002
{
1000
Prompt
1070
     4
1000
(genmsg gendwg 37)
1002
{
1002
}
1000
Value
1070
     4
1000

1002
{
1002
}
1000
EditFlag
1070
     1
1070
     1
1002
{
1002
}
1002
}
1000
8
1070
     6
1002
{
1000
Prompt
1070
     4
1000
(genmsg gendwg 38)
1002
{
1002
}
1000
Value
1070
     4
1000

1002
{
1002
}
1000
EditFlag
1070
     1
1070
     1
1002
{
1002
}
1002
}
1000
9
1070
     6
1002
{
1000
Prompt
1070
     4
1000
(genmsg gendwg 39)
1002
{
1002
}
1000
Value
1070
     4
1000

1002
{
1002
}
1000
EditFlag
1070
     1
1070
     1
1002
{
1002
}
1002
}
1000
10
1070
     6
1002
{
1000
Prompt
1070
     4
1000
(genmsg gendwg 40)
1002
{
1002
}
1000
Value
1070
     4
1000

1002
{
1002
}
1000
EditFlag
1070
     1
1070
     1
1002
{
1002
}
1002
}
1000
11
1070
     6
1002
{
1000
Prompt
1070
     4
1000
(genmsg gendwg 41)
1002
{
1002
}
1000
Value
1070
     4
1000

1002
{
1002
}
1000
EditFlag
1070
     1
1070
     1
1002
{
1002
}
1002
}
1000
12
1070
     6
1002
{
1000
Prompt
1070
     4
1000
(genmsg gendwg 42)
1002
{
1002
}
1000
Value
1070
     4
1000

1002
{
1002
}
1000
EditFlag
1070
     1
1070
     1
1002
{
1002
}
1002
}
1000
13
1070
     6
1002
{
1000
Prompt
1070
     4
1000
(genmsg gendwg 43)
1002
{
1002
}
1000
Value
1070
     4
1000

1002
{
1002
}
1000
EditFlag
1070
     1
1070
     1
1002
{
1002
}
1002
}
1000
14
1070
     6
1002
{
1000
Prompt
1070
     4
1000
(genmsg gendwg 44)
1002
{
1002
}
1000
Value
1070
     4
1000

1002
{
1002
}
1000
EditFlag
1070
     1
1070
     1
1002
{
1002
}
1002
}
1000
15
1070
     6
1002
{
1000
Prompt
1070
     4
1000
(genmsg gendwg 45)
1002
{
1002
}
1000
Value
1070
     4
1000

1002
{
1002
}
1000
EditFlag
1070
     1
1070
     1
1002
{
1002
}
1002
}
1000
16
1070
     6
1002
{
1000
Prompt
1070
     4
1000
(genmsg gendwg 46)
1002
{
1002
}
1000
Value
1070
     4
1000

1002
{
1002
}
1000
EditFlag
1070
     1
1070
     1
1002
{
1002
}
1002
}
1000
17
1070
     6
1002
{
1000
Prompt
1070
     4
1000
(genmsg gendwg 47)
1002
{
1002
}
1000
Value
1070
     4
1000

1002
{
1002
}
1000
EditFlag
1070
     1
1070
     1
1002
{
1002
}
1002
}
1000
18
1070
     6
1002
{
1000
Prompt
1070
     4
1000
(genmsg gendwg 48)
1002
{
1002
}
1000
Value
1070
     4
1000

1002
{
1002
}
1000
EditFlag
1070
     1
1070
     1
1002
{
1002
}
1002
}
1000
19
1070
     6
1002
{
1000
Prompt
1070
     4
1000
(genmsg gendwg 99)
1002
{
1002
}
1000
Value
1070
     4
1000

1002
{
1002
}
1000
EditFlag
1070
     1
1070
     1
1002
{
1002
}
1002
}
1000
20
1070
     6
1002
{
1000
Prompt
1070
     4
1000
(genmsg gendwg 100)
1002
{
1002
}
1000
Value
1070
     4
1000

1002
{
1002
}
1000
EditFlag
1070
     1
1070
     1
1002
{
1002
}
1002
}
1000
21
1070
     6
1002
{
1000
Prompt
1070
     4
1000
(genmsg gendwg 101)
1002
{
1002
}
1000
Value
1070
     4
1000

1002
{
1002
}
1000
EditFlag
1070
     1
1070
     1
1002
{
1002
}
1002
}
1000
22
1070
     6
1002
{
1000
Prompt
1070
     4
1000
(genmsg gendwg 102)
1002
{
1002
}
1000
Value
1070
     4
1000

1002
{
1002
}
1000
EditFlag
1070
     1
1070
     1
1002
{
1002
}
1002
}
1000
23
1070
     6
1002
{
1000
Prompt
1070
     4
1000
(genmsg gendwg 30)
1002
{
1002
}
1000
Value
1070
     4
1000

1002
{
1002
}
1000
EditFlag
1070
     1
1070
     1
1002
{
1002
}
1002
}
1000
24
1070
     6
1002
{
1000
Prompt
1070
     4
1000
(genmsg gendwg 104)
1002
{
1002
}
1000
Value
1070
     4
1000

1002
{
1002
}
1000
EditFlag
1070
     1
1070
     1
1002
{
1002
}
1002
}
1002
}
1000
Xlate
1070
     0
1002
{
1000
>
1002
}
1002
}
1000
Layer
1070
     7
1002
{
1000
Defs
1070
     0
1002
{
1000
>
1002
}
1000
EntSort
1070
     0
1002
{
1000
>
1002
}
1000
Match
1070
     0
1002
{
1002
}
1000
Settings
1070
     0
1002
{
1000
FocGrNC
1070
     3
1070
     0
1002
{
1002
}
1000
FocGrLo
1070
     3
1070
     0
1002
{
1002
}
1000
FocLoNC
1070
     3
1070
     0
1002
{
1002
}
1000
FocusCol
1070
     1
1070
   253
1002
{
1002
}
1000
GenStdLG
1070
     4
1000

1002
{
1002
}
1000
LayMatch
1070
     3
1070
     0
1002
{
1002
}
1000
LgOff
1070
     3
1070
     0
1002
{
1002
}
1000
CurLG
1070
    -5
1000

1002
{
1002
}
1002
}
1002
}
1000
LType
1070
     0
1002
{
1000
GEN3
1070
     8
1000
genius.lin
1002
{
1002
}
1000
GEN7
1070
     8
1000
genius.lin
1002
{
1002
}
1000
GEN4A
1070
     8
1000
genius.lin
1002
{
1002
}
1000
GEN3A
1070
     8
1000
genius.lin
1002
{
1002
}
1000
GEN7A
1070
     8
1000
genius.lin
1002
{
1002
}
1000
GENZIGZAG
1070
     8
1000
genius.lin
1002
{
1002
}
1002
}
1000
Objecter
1070
     0
1002
{
1000
CreateGroups
1070
     3
1070
     0
1002
{
1002
}
1000
LaySwitch
1070
     3
1070
     1
1002
{
1002
}
1000
LastObj
1070
    -5
1000
1172
1002
{
1002
}
1002
}
1000
OSWiz
1070
     0
1002
{
1000
>
1002
}
1000
PaList
1070
     0
1002
{
1000
AutoUpdatePartList
1070
     3
1070
     0
1002
{
1002
}
1000
ReadInfoPoint
1070
     3
1070
     0
1002
{
1002
}
1000
ReadPosNr
1070
     3
1070
     1
1002
{
1002
}
1000
RevStr
1070
     4
1000
0
1002
{
1002
}
1000
rebuildpending
1070
    -4
1070
     1
1002
{
1002
}
1000
rebuildpendingtime
1070
    -5
1000
893398492
1002
{
1002
}
1002
}
1000
Paper
1070
     0
1002
{
1000
Layer
1070
    -5
1000
5
1002
{
1002
}
1002
}
1000
PartDB
1070
     0
1002
{
1000
GenDbOwner
1070
     4
1000

1002
{
1002
}
1002
}
1000
System
1070
     0
1002
{
1000
Menu
1070
     4
1000
GEV
1002
{
1002
}
1002
}
1000
Title
1070
     0
1002
{
1000
MakeView
1070
     1
1070
     2
1002
{
1002
}
1002
}
  0
APPID
  5
2F
100
AcDbSymbolTableRecord
100
AcDbRegAppTableRecord
  2
GENIUS_GEVCFG0_13
 70
     0
1001
GENIUS_GENCFG_13
1071
862825278
1000
2F
1000
GEV
1070
     1
1000
GenCfgObject
1000
System
1070
     0
1002
{
1002
}
1000
VED
1070
     0
1002
{
1002
}
  0
APPID
  5
33
100
AcDbSymbolTableRecord
100
AcDbRegAppTableRecord
  2
GENIUS_GEFCFG0_13
 70
     0
1001
GENIUS_GENCFG_13
1071
877355996
1000
33
1000
GEF
1070
     5
1000
GenCfgObject
1000
GenCfgString
1000
GenCfgReal
1000
GenCfgShort
1000
GenCfgBool
1000
System
1070
     0
1002
{
1002
}
1000
Prese
1070
     0
1002
{
1000
Funk
1070
     1
1000

1002
{
1002
}
1000
FunkDef
1070
     1
1000

1002
{
1002
}
1000
GefIso
1070
     1
1000
DIN
1002
{
1002
}
1002
}
1000
FEM
1070
     0
1002
{
1000
LayGroup
1070
     1
1000
FEM
1002
{
1002
}
1000
IncrCoef
1070
     2
1040
0.0
1002
{
1002
}
1002
}
1000
Shaft
1070
     0
1002
{
1000
Interrupt
1070
     3
1070
     0
1002
{
1002
}
1002
}
1000
PartDb
1070
     0
1002
{
1000
PartCreate
1070
     0
1002
{
1002
}
1002
}
1000
Symbol
1070
     0
1002
{
1000
WeldStyle
1070
     1
1000
ISO
1002
{
1002
}
1000
WeldSize
1070
     2
1040
1.0
1002
{
1002
}
1000
WeldFlag
1070
     4
1070
     1
1002
{
1002
}
1000
WeldOffset
1070
     4
1070
     1
1002
{
1002
}
1000
TolCType
1070
     1
1000
ISO
1002
{
1002
}
1000
TolCSize
1070
     2
1040
1.0
1002
{
1002
}
1000
STextureSize
1070
     2
1040
1.0
1002
{
1002
}
1000
SurfaceType
1070
     1
1000

1002
{
1002
}
1000
M
1070
     0
1002
{
1000
WeldWidth
1070
     2
1040
3.0
1002
{
1002
}
1002
}
1000
I
1070
     0
1002
{
1000
WeldWidth
1070
     2
1040
0.125
1002
{
1002
}
1002
}
1000
weldwidth
1070
     2
1040
5.0
1002
{
1002
}
1002
}
  0
APPID
  5
3C
100
AcDbSymbolTableRecord
100
AcDbRegAppTableRecord
  2
GENIUS_GENOENT_13
 70
     0
  0
APPID
  5
73
100
AcDbSymbolTableRecord
100
AcDbRegAppTableRecord
  2
GENIUS_GENINF13_13
 70
     0
  0
APPID
  5
74
100
AcDbSymbolTableRecord
100
AcDbRegAppTableRecord
  2
GENIUS_GENODEF_13
 70
     0
1001
GENIUS_GENOBJ_13
1070
     1
  0
APPID
  5
75
100
AcDbSymbolTableRecord
100
AcDbRegAppTableRecord
  2
GENIUS_GENOBJ-N-INFOPT_13
 70
     0
  0
APPID
  5
76
100
AcDbSymbolTableRecord
100
AcDbRegAppTableRecord
  2
GENIUS_GENOBJ_13
 70
     0
1001
GENIUS_GENODEF_13
1070
     1
1001
GENIUS_GENOENT_13
1070
     1
1001
GENIUS_GENOLIS_13
1070
     1
1001
GENIUS_GENOREF_13
1070
     1
1001
GENIUS_GENOBJ-N-RSSYM_13
1070
     1
1001
GENIUS_GENSYMENT_13
1070
     1
1001
GENIUS_GENOBJ-NBEHI-BHF_13
1070
     0
1001
GENIUS_GENOBJ-NBEHI-BHB_13
1070
     0
1001
GENIUS_GENBH_13
1070
     1
1001
GENIUS_GENOBJ-F-PART_13
1070
     0
1001
GENIUS_GEFSTDP_13
1070
     0
  0
APPID
  5
77
100
AcDbSymbolTableRecord
100
AcDbRegAppTableRecord
  2
GENIUS_GENOLIS_13
 70
     0
1001
GENIUS_GENOBJ_13
1070
     1
  0
APPID
  5
78
100
AcDbSymbolTableRecord
100
AcDbRegAppTableRecord
  2
GENIUS_GENOREF_13
 70
     0
1001
GENIUS_GENOBJ_13
1070
     1
  0
APPID
  5
79
100
AcDbSymbolTableRecord
100
AcDbRegAppTableRecord
  2
GENIUS_GENOBJ-N-RSSYM_13
 70
     0
1001
GENIUS_GENOBJ_13
1070
     1
  0
APPID
  5
7A
100
AcDbSymbolTableRecord
100
AcDbRegAppTableRecord
  2
GENIUS_GENSYMENT_13
 70
     0
1001
GENIUS_GENOBJ_13
1070
     1
  0
APPID
  5
7B
100
AcDbSymbolTableRecord
100
AcDbRegAppTableRecord
  2
GENIUS_GENSCSYM_13
 70
     0
  0
APPID
  5
7C
100
AcDbSymbolTableRecord
100
AcDbRegAppTableRecord
  2
GENIUS_GENOBJ-N-CEN_13
 70
     0
  0
APPID
  5
7D
100
AcDbSymbolTableRecord
100
AcDbRegAppTableRecord
  2
GENIUS_GENOBJ-N-FIL_13
 70
     0
  0
APPID
  5
7E
100
AcDbSymbolTableRecord
100
AcDbRegAppTableRecord
  2
GENIUS_GENBH_13
 70
     0
1001
GENIUS_GENOBJ_13
1070
     1
  0
APPID
  5
7F
100
AcDbSymbolTableRecord
100
AcDbRegAppTableRecord
  2
GENIUS_GENOBJ-NBEHI-BHF_13
 70
     0
1001
GENIUS_GENOBJ_13
1070
     0
  0
APPID
  5
80
100
AcDbSymbolTableRecord
100
AcDbRegAppTableRecord
  2
GENIUS_GENOBJ-NBEHI-BHB_13
 70
     0
1001
GENIUS_GENOBJ_13
1070
     0
  0
APPID
  5
81
100
AcDbSymbolTableRecord
100
AcDbRegAppTableRecord
  2
GENIUS_GENOBJ-F-PART_13
 70
     0
1001
GENIUS_GENOBJ_13
1070
     0
  0
APPID
  5
82
100
AcDbSymbolTableRecord
100
AcDbRegAppTableRecord
  2
GENIUS_GEFSTDP_13
 70
     0
1001
GENIUS_GENOBJ_13
1070
     0
  0
APPID
  5
D46
100
AcDbSymbolTableRecord
100
AcDbRegAppTableRecord
  2
GENIUS_GENOBJ-N-RSBK_13
 70
     0
  0
APPID
  5
D47
100
AcDbSymbolTableRecord
100
AcDbRegAppTableRecord
  2
GENIUS_GENOBJ-N-LIB_13
 70
     0
  0
APPID
  5
D48
100
AcDbSymbolTableRecord
100
AcDbRegAppTableRecord
  2
GENIUS_GENSCALE_13
 70
     0
  0
ENDTAB
  0
TABLE
  2
DIMSTYLE
  5
A
100
AcDbSymbolTable
 70
     4
  0
DIMSTYLE
105
1D
100
AcDbSymbolTableRecord
100
AcDbDimStyleTableRecord
  2
STANDARD
 70
     0
  3

  4

  5

  6

  7

 40
1.0
 41
0.18
 42
0.0625
 43
0.38
 44
0.18
 45
0.0
 46
0.0
 47
0.0
 48
0.0
140
0.18
141
0.09
142
0.0
143
25.4
144
1.0
145
0.0
146
1.0
147
0.09
 71
     0
 72
     0
 73
     1
 74
     1
 75
     0
 76
     0
 77
     0
 78
     0
170
     0
171
     2
172
     0
173
     0
174
     0
175
     0
176
     0
177
     0
178
     0
270
     2
271
     4
272
     4
273
     2
274
     2
340
10
275
     0
280
     0
281
     0
282
     0
283
     1
284
     0
285
     0
286
     0
287
     3
288
     0
  0
DIMSTYLE
105
72
100
AcDbSymbolTableRecord
100
AcDbDimStyleTableRecord
  2
GEN-ISO
 70
     0
  3
<>
  4

  5

  6

  7

 40
1.0
 41
2.5
 42
1.0
 43
7.0
 44
1.0
 45
0.0
 46
0.0
 47
0.1
 48
0.1
140
3.5
141
0.0
142
0.0
143
0.03937
144
1.0
145
0.0
146
0.71
147
0.6
 71
     0
 72
     0
 73
     0
 74
     0
 75
     0
 76
     0
 77
     1
 78
     8
170
     0
171
     2
172
     1
173
     0
174
     0
175
     0
176
   256
177
   256
178
     2
270
     2
271
     2
272
     3
273
     2
274
     4
340
10
275
     0
280
     0
281
     0
282
     0
283
     0
284
     0
285
     0
286
     0
287
     3
288
     0
  0
ENDTAB
  0
TABLE
  2
BLOCK_RECORD
  5
1
100
AcDbSymbolTable
 70
     3
  0
BLOCK_RECORD
  5
1A
100
AcDbSymbolTableRecord
100
AcDbBlockTableRecord
  2
*MODEL_SPACE
  0
BLOCK_RECORD
  5
17
100
AcDbSymbolTableRecord
100
AcDbBlockTableRecord
  2
*PAPER_SPACE
  0
BLOCK_RECORD
  5
43
100
AcDbSymbolTableRecord
100
AcDbBlockTableRecord
  2
GENINF13
  0
ENDTAB
  0
ENDSEC
  0
SECTION
  2
BLOCKS
  0
BLOCK
  5
1B
100
AcDbEntity
  8
0
100
AcDbBlockBegin
  2
*MODEL_SPACE
 70
     0
 10
0.0
 20
0.0
 30
0.0
  3
*MODEL_SPACE
  1

  0
ENDBLK
  5
1C
100
AcDbEntity
  8
0
100
AcDbBlockEnd
  0
BLOCK
  5
18
100
AcDbEntity
 67
     1
  8
0
100
AcDbBlockBegin
  2
*PAPER_SPACE
 70
     0
 10
0.0
 20
0.0
 30
0.0
  3
*PAPER_SPACE
  1

  0
ENDBLK
  5
19
100
AcDbEntity
 67
     1
  8
0
100
AcDbBlockEnd
  0
BLOCK
  5
68
100
AcDbEntity
  8
0
100
AcDbBlockBegin
  2
GENINF13
 70
    66
 10
0.0
 20
0.0
 30
0.0
  3
GENINF13
  1
GENINF13
  0
CIRCLE
  5
44
100
AcDbEntity
  8
INFO
100
AcDbCircle
 10
-0.107946
 20
1.312244
 30
0.0
 40
0.339067
  0
CIRCLE
  5
45
100
AcDbEntity
  8
INFO
100
AcDbCircle
 10
0.0
 20
0.0
 30
0.0
 40
1.920194
  0
LINE
  5
46
100
AcDbEntity
  8
INFO
100
AcDbLine
 10
0.411344
 20
0.70683
 30
0.0
 11
-0.700006
 21
0.70683
 31
0.0
  0
LINE
  5
47
100
AcDbEntity
  8
INFO
100
AcDbLine
 10
0.829904
 20
-1.341535
 30
0.0
 11
0.829904
 21
-0.555367
 31
0.0
  0
LINE
  5
48
100
AcDbEntity
  8
INFO
100
AcDbLine
 10
0.829904
 20
-0.555367
 30
0.0
 11
0.411344
 21
-0.555367
 31
0.0
  0
LINE
  5
49
100
AcDbEntity
  8
INFO
100
AcDbLine
 10
0.411344
 20
-0.555367
 30
0.0
 11
0.411344
 21
0.70683
 31
0.0
  0
LINE
  5
4A
100
AcDbEntity
  8
INFO
100
AcDbLine
 10
-0.700006
 20
0.70683
 30
0.0
 11
-0.700006
 21
0.122613
 31
0.0
  0
LINE
  5
4B
100
AcDbEntity
  8
INFO
100
AcDbLine
 10
-0.700006
 20
0.122613
 30
0.0
 11
-0.375261
 21
0.122613
 31
0.0
  0
LINE
  5
4C
100
AcDbEntity
  8
INFO
100
AcDbLine
 10
-0.375261
 20
0.122613
 30
0.0
 11
-0.375261
 21
-0.555367
 31
0.0
  0
LINE
  5
4D
100
AcDbEntity
  8
INFO
100
AcDbLine
 10
-0.375261
 20
-0.555367
 30
0.0
 11
-0.801038
 21
-0.555367
 31
0.0
  0
LINE
  5
4E
100
AcDbEntity
  8
INFO
100
AcDbLine
 10
-0.801038
 20
-0.555367
 30
0.0
 11
-0.801038
 21
-1.341535
 31
0.0
  0
LINE
  5
4F
100
AcDbEntity
  8
INFO
100
AcDbLine
 10
-0.801038
 20
-1.341535
 30
0.0
 11
0.829904
 21
-1.341535
 31
0.0
  0
ATTDEF
  5
50
100
AcDbEntity
  8
INFO
100
AcDbText
 10
0.0
 20
0.0
 30
0.0
 40
1.0
  1
1
100
AcDbAttributeDefinition
  3
Menge
  2
2GENINF
 70
     1
  0
ATTDEF
  5
51
100
AcDbEntity
  8
INFO
100
AcDbText
 10
0.0
 20
-1.5
 30
0.0
 40
1.0
  1

100
AcDbAttributeDefinition
  3
Stücklisten-Name
  2
3GENINF
 70
     1
  0
ATTDEF
  5
52
100
AcDbEntity
  8
INFO
100
AcDbText
 10
0.0
 20
-3.0
 30
0.0
 40
1.0
  1

100
AcDbAttributeDefinition
  3
Stücklisten-Pfad
  2
4GENINF
 70
     1
  0
ATTDEF
  5
53
100
AcDbEntity
  8
INFO
100
AcDbText
 10
0.0
 20
-4.5
 30
0.0
 40
1.0
  1

100
AcDbAttributeDefinition
  3
Beschreibung 1
  2
5GENINF
 70
     1
  0
ATTDEF
  5
54
100
AcDbEntity
  8
INFO
100
AcDbText
 10
0.0
 20
-6.0
 30
0.0
 40
1.0
  1

100
AcDbAttributeDefinition
  3
Beschreibung 2
  2
6GENINF
 70
     1
  0
ATTDEF
  5
55
100
AcDbEntity
  8
INFO
100
AcDbText
 10
0.0
 20
-7.5
 30
0.0
 40
1.0
  1

100
AcDbAttributeDefinition
  3
Norm/Lieferant 1
  2
7GENINF
 70
     1
  0
ATTDEF
  5
56
100
AcDbEntity
  8
INFO
100
AcDbText
 10
0.0
 20
-9.0
 30
0.0
 40
1.0
  1

100
AcDbAttributeDefinition
  3
Norm/Lieferant 2
  2
8GENINF
 70
     1
  0
ATTDEF
  5
57
100
AcDbEntity
  8
INFO
100
AcDbText
 10
0.0
 20
-10.5
 30
0.0
 40
1.0
  1

100
AcDbAttributeDefinition
  3
Material 1
  2
9GENINF
 70
     1
  0
ATTDEF
  5
58
100
AcDbEntity
  8
INFO
100
AcDbText
 10
0.0
 20
-12.0
 30
0.0
 40
1.0
  1

100
AcDbAttributeDefinition
  3
Material 2
  2
10GENINF
 70
     1
  0
ATTDEF
  5
59
100
AcDbEntity
  8
INFO
100
AcDbText
 10
0.0
 20
-13.5
 30
0.0
 40
1.0
  1

100
AcDbAttributeDefinition
  3
Identnummer
  2
11GENINF
 70
     1
  0
ATTDEF
  5
5A
100
AcDbEntity
  8
INFO
100
AcDbText
 10
0.0
 20
-15.0
 30
0.0
 40
1.0
  1

100
AcDbAttributeDefinition
  3
Gewicht
  2
12GENINF
 70
     1
  0
ATTDEF
  5
5B
100
AcDbEntity
  8
INFO
100
AcDbText
 10
0.0
 20
-16.5
 30
0.0
 40
1.0
  1

100
AcDbAttributeDefinition
  3
Preis
  2
13GENINF
 70
     1
  0
ATTDEF
  5
5C
100
AcDbEntity
  8
INFO
100
AcDbText
 10
0.0
 20
-18.0
 30
0.0
 40
1.0
  1

100
AcDbAttributeDefinition
  3
Abmessungen
  2
14GENINF
 70
     1
  0
ATTDEF
  5
5D
100
AcDbEntity
  8
INFO
100
AcDbText
 10
0.0
 20
-19.5
 30
0.0
 40
1.0
  1

100
AcDbAttributeDefinition
  3
User 1
  2
15GENINF
 70
     1
  0
ATTDEF
  5
5E
100
AcDbEntity
  8
INFO
100
AcDbText
 10
0.0
 20
-21.0
 30
0.0
 40
1.0
  1

100
AcDbAttributeDefinition
  3
User 2
  2
16GENINF
 70
     1
  0
ATTDEF
  5
5F
100
AcDbEntity
  8
INFO
100
AcDbText
 10
0.0
 20
-22.5
 30
0.0
 40
1.0
  1

100
AcDbAttributeDefinition
  3
User 3
  2
17GENINF
 70
     1
  0
ATTDEF
  5
60
100
AcDbEntity
  8
INFO
100
AcDbText
 10
0.0
 20
-24.0
 30
0.0
 40
1.0
  1

100
AcDbAttributeDefinition
  3
User 4
  2
18GENINF
 70
     1
  0
ATTDEF
  5
61
100
AcDbEntity
  8
INFO
100
AcDbText
 10
0.0
 20
-25.5
 30
0.0
 40
1.0
  1

100
AcDbAttributeDefinition
  3
User 5
  2
19GENINF
 70
     1
  0
ATTDEF
  5
62
100
AcDbEntity
  8
INFO
100
AcDbText
 10
0.0
 20
-27.0
 30
0.0
 40
1.0
  1

100
AcDbAttributeDefinition
  3
User 6
  2
20GENINF
 70
     1
  0
ATTDEF
  5
63
100
AcDbEntity
  8
INFO
100
AcDbText
 10
0.0
 20
-28.5
 30
0.0
 40
1.0
  1

100
AcDbAttributeDefinition
  3
User 7
  2
21GENINF
 70
     1
  0
ATTDEF
  5
64
100
AcDbEntity
  8
INFO
100
AcDbText
 10
0.0
 20
-30.0
 30
0.0
 40
1.0
  1

100
AcDbAttributeDefinition
  3
User 8
  2
22GENINF
 70
     1
  0
ATTDEF
  5
65
100
AcDbEntity
  8
INFO
100
AcDbText
 10
0.0
 20
-31.5
 30
0.0
 40
1.0
  1

100
AcDbAttributeDefinition
  3
Filter
  2
23GENINF
 70
     1
  0
ATTDEF
  5
66
100
AcDbEntity
  8
INFO
100
AcDbText
 10
0.0
 20
-33.0
 30
0.0
 40
1.0
  1

100
AcDbAttributeDefinition
  3
Bemerkung
  2
24GENINF
 70
     1
  0
ATTDEF
  5
67
100
AcDbEntity
  8
INFO
100
AcDbText
 10
0.0
 20
-34.5
 30
0.0
 40
1.0
  1

100
AcDbAttributeDefinition
  3
Genius Normteile ID
  2
0GENINF
 70
     1
  0
ENDBLK
  5
69
100
AcDbEntity
  8
0
100
AcDbBlockEnd
  0
ENDSEC
  0
SECTION
  2
ENTITIES
  0
LINE
  5
D49
100
AcDbEntity
  8
MSL5_120_3F-7
100
AcDbLine
 10
327.782286
 20
287.761134
 30
0.0
 11
334.624999
 21
287.761134
 31
0.0
  0
LINE
  5
D4A
100
AcDbEntity
  8
MSL5_120_3F-7
100
AcDbLine
 10
327.782286
 20
227.761134
 30
0.0
 11
334.513076
 21
227.761134
 31
0.0
  0
LINE
  5
D4B
100
AcDbEntity
  8
MSL5_120_3F-7
100
AcDbLine
 10
327.782286
 20
30.0
 30
0.0
 11
334.624999
 21
30.0
 31
0.0
  0
LINE
  5
D4C
100
AcDbEntity
  8
MSL5_120_3F-7
100
AcDbLine
 10
327.782286
 20
-30.0
 30
0.0
 11
334.513076
 21
-30.0
 31
0.0
  0
LINE
  5
D4D
100
AcDbEntity
  8
MSL5_120_3F-7
100
AcDbLine
 10
327.782286
 20
-148.245876
 30
0.0
 11
334.624999
 21
-148.245876
 31
0.0
  0
LINE
  5
D4E
100
AcDbEntity
  8
MSL5_120_3F-7
100
AcDbLine
 10
327.782286
 20
-208.245876
 30
0.0
 11
334.513076
 21
-208.245876
 31
0.0
  0
MTEXT
  5
D4F
100
AcDbEntity
  8
MSL5_120_3F-6
100
AcDbMText
 10
-134.920376
 20
500.295614
 30
0.0
 40
125.0
 41
751.380416
 71
     1
 72
     1
  1
{MSL5-120-3F}
  0
LINE
  5
D50
100
AcDbEntity
  8
MSL5_120_3F-0
100
AcDbLine
 10
195.782286
 20
38.0
 30
0.0
 11
399.782286
 21
38.0
 31
0.0
  0
LINE
  5
D51
100
AcDbEntity
  8
MSL5_120_3F-0
100
AcDbLine
 10
195.782286
 20
-103.245947
 30
0.0
 11
353.767038
 21
-103.245947
 31
0.0
  0
LINE
  5
D52
100
AcDbEntity
  8
MSL5_120_3F-0
100
AcDbLine
 10
399.782286
 20
-38.0
 30
0.0
 11
195.782286
 21
-38.0
 31
0.0
  0
LINE
  5
D53
100
AcDbEntity
  8
MSL5_120_3F-7
100
AcDbLine
 10
254.123046
 20
-178.245876
 30
0.0
 11
340.21241
 21
-178.245876
 31
0.0
  0
LINE
  5
D54
100
AcDbEntity
  8
MSL5_120_3F-7
100
AcDbLine
 10
254.123046
 20
0.0
 30
0.0
 11
340.21241
 21
0.0
 31
0.0
  0
LINE
  5
D55
100
AcDbEntity
  8
MSL5_120_3F-0
100
AcDbLine
 10
399.782286
 20
332.761134
 30
0.0
 11
195.782286
 21
332.761134
 31
0.0
  0
LINE
  5
D56
100
AcDbEntity
  8
MSL5_120_3F-0
100
AcDbLine
 10
195.782286
 20
182.761134
 30
0.0
 11
399.782286
 21
182.761134
 31
0.0
  0
LINE
  5
D57
100
AcDbEntity
  8
MSL5_120_3F-7
100
AcDbLine
 10
254.123046
 20
257.761134
 30
0.0
 11
340.21241
 21
257.761134
 31
0.0
  0
LINE
  5
D58
100
AcDbEntity
  8
MSL5_120_3F-0
100
AcDbLine
 10
196.282286
 20
-104.245876
 30
0.0
 11
351.817786
 21
-104.245876
 31
0.0
  0
LINE
  5
D59
100
AcDbEntity
  8
MSL5_120_3F-4
100
AcDbLine
 10
196.282286
 20
-190.456579
 30
0.0
 11
399.282286
 21
-190.456579
 31
0.0
  0
LINE
  5
D5A
100
AcDbEntity
  8
MSL5_120_3F-4
100
AcDbLine
 10
196.282286
 20
-166.035172
 30
0.0
 11
399.282286
 21
-166.035172
 31
0.0
  0
LINE
  5
D5B
100
AcDbEntity
  8
MSL5_120_3F-0
100
AcDbLine
 10
399.282286
 20
120.0
 30
0.0
 11
196.282286
 21
120.0
 31
0.0
  0
LINE
  5
D5C
100
AcDbEntity
  8
MSL5_120_3F-4
100
AcDbLine
 10
399.282286
 20
67.830823
 30
0.0
 11
196.282286
 21
67.830823
 31
0.0
  0
LINE
  5
D5D
100
AcDbEntity
  8
MSL5_120_3F-0
100
AcDbLine
 10
361.282286
 20
38.0
 30
0.0
 11
237.932286
 21
38.0
 31
0.0
  0
LINE
  5
D5E
100
AcDbEntity
  8
MSL5_120_3F-0
100
AcDbLine
 10
243.746965
 20
-252.245876
 30
0.0
 11
399.282286
 21
-252.245876
 31
0.0
  0
LINE
  5
D5F
100
AcDbEntity
  8
MSL5_120_3F-0
100
AcDbLine
 10
241.797534
 20
-253.245947
 30
0.0
 11
399.782286
 21
-253.245947
 31
0.0
  0
ARC
  5
D60
100
AcDbEntity
  8
MSL5_120_3F-0
100
AcDbCircle
 10
12.210704
 20
118.0
 30
0.0
 40
2.0
100
AcDbArc
 50
50.0
 51
90.0
1001
GENIUS_GENODEF_13
1002
{
1000
HIER
1070
     0
1002
}
1002
{
1000
MANEDIT
1070
     0
1002
}
1002
{
1000
NOSEL
1070
     0
1002
}
1002
{
1000
BEHIND
1070
     0
1002
}
1002
{
1000
REACTOR
1002
}
1001
GENIUS_GENOBJ-N-FIL_13
1002
{
1000
OWNER
1000
GEN
1002
}
  0
ARC
  5
D61
100
AcDbEntity
  8
MSL5_120_3F-0
100
AcDbCircle
 10
-12.210704
 20
118.0
 30
0.0
 40
2.0
100
AcDbArc
 50
90.0
 51
130.0
1001
GENIUS_GENODEF_13
1002
{
1000
HIER
1070
     0
1002
}
1002
{
1000
MANEDIT
1070
     0
1002
}
1002
{
1000
NOSEL
1070
     0
1002
}
1002
{
1000
BEHIND
1070
     0
1002
}
1002
{
1000
REACTOR
1002
}
1001
GENIUS_GENOBJ-N-FIL_13
1002
{
1000
OWNER
1000
GEN
1002
}
  0
LINE
  5
D62
100
AcDbEntity
  8
MSL5_120_3F-0
100
AcDbLine
 10
196.282286
 20
120.0
 30
0.0
 11
196.282286
 21
38.0
 31
0.0
  0
LINE
  5
D63
100
AcDbEntity
  8
MSL5_120_3F-7
100
AcDbLine
 10
45.082626
 20
96.944219
 30
0.0
 11
34.798024
 21
84.687508
 31
0.0
  0
LINE
  5
D64
100
AcDbEntity
  8
MSL5_120_3F-7
100
AcDbLine
 10
30.0
 20
30.0
 30
0.0
 11
41.607953
 21
30.0
 31
0.0
  0
LINE
  5
D65
100
AcDbEntity
  8
MSL5_120_3F-7
100
AcDbLine
 10
52.0
 20
0.0
 30
0.0
 11
37.494432
 21
0.0
 31
0.0
  0
LINE
  5
D66
100
AcDbEntity
  8
MSL5_120_3F-7
100
AcDbLine
 10
30.0
 20
-30.0
 30
0.0
 11
41.632255
 21
-30.0
 31
0.0
  0
LINE
  5
D67
100
AcDbEntity
  8
MSL5_120_3F-3
100
AcDbLine
 10
-75.0
 20
-38.0
 30
0.0
 11
75.0
 21
-38.0
 31
0.0
  0
LINE
  5
D68
100
AcDbEntity
  8
MSL5_120_3F-0
100
AcDbLine
 10
-75.0
 20
-39.0
 30
0.0
 11
75.0
 21
-39.0
 31
0.0
1001
GENIUS_GENOREF_13
1005
1172
  0
LINE
  5
D69
100
AcDbEntity
  8
MSL5_120_3F-3
100
AcDbLine
 10
-75.0
 20
38.0
 30
0.0
 11
75.0
 21
38.0
 31
0.0
  0
LINE
  5
D6A
100
AcDbEntity
  8
MSL5_120_3F-0
100
AcDbLine
 10
12.552112
 20
119.0
 30
0.0
 11
75.0
 21
66.6
 31
0.0
1001
GENIUS_GENOREF_13
1005
1172
  0
LINE
  5
D6B
100
AcDbEntity
  8
MSL5_120_3F-0
100
AcDbLine
 10
13.496279
 20
119.532089
 30
0.0
 11
73.285575
 21
69.362912
 31
0.0
  0
LINE
  5
D6C
100
AcDbEntity
  8
MSL5_120_3F-7
100
AcDbLine
 10
30.0
 20
0.0
 30
0.0
 11
30.0
 21
7.474898
 31
0.0
  0
LINE
  5
D6D
100
AcDbEntity
  8
MSL5_120_3F-7
100
AcDbLine
 10
0.0
 20
0.0
 30
0.0
 11
0.0
 21
21.868677
 31
0.0
  0
LINE
  5
D6E
100
AcDbEntity
  8
MSL5_120_3F-7
100
AcDbLine
 10
-30.0
 20
0.0
 30
0.0
 11
-30.0
 21
7.888213
 31
0.0
  0
LINE
  5
D6F
100
AcDbEntity
  8
MSL5_120_3F-7
100
AcDbLine
 10
-52.0
 20
0.0
 30
0.0
 11
-52.0
 21
14.571633
 31
0.0
  0
LINE
  5
D70
100
AcDbEntity
  8
MSL5_120_3F-0
100
AcDbLine
 10
-75.0
 20
66.6
 30
0.0
 11
-75.0
 21
-39.0
 31
0.0
1001
GENIUS_GENOREF_13
1005
1172
  0
CIRCLE
  5
D71
100
AcDbEntity
  8
MSL5_120_3F-0
100
AcDbCircle
 10
-30.0
 20
0.0
 30
0.0
 40
5.0
  0
CIRCLE
  5
D72
100
AcDbEntity
  8
MSL5_120_3F-0
100
AcDbCircle
 10
30.0
 20
0.0
 30
0.0
 40
5.0
  0
LINE
  5
D73
100
AcDbEntity
  8
MSL5_120_3F-7
100
AcDbLine
 10
-30.0
 20
0.0
 30
0.0
 11
-37.888213
 21
0.0
 31
0.0
  0
ARC
  5
D74
100
AcDbEntity
  8
MSL5_120_3F-3
100
AcDbCircle
 10
-30.0
 20
-30.0
 30
0.0
 40
9.0
100
AcDbArc
 50
0.0
 51
179.999998
  0
CIRCLE
  5
D75
100
AcDbEntity
  8
MSL5_120_3F-0
100
AcDbCircle
 10
-30.0
 20
-30.0
 30
0.0
 40
5.5
  0
LINE
  5
D76
100
AcDbEntity
  8
MSL5_120_3F-7
100
AcDbLine
 10
-30.0
 20
-30.0
 30
0.0
 11
-41.826761
 21
-30.0
 31
0.0
  0
LINE
  5
D77
100
AcDbEntity
  8
MSL5_120_3F-3
100
AcDbLine
 10
-75.0
 20
-35.0
 30
0.0
 11
-58.0
 21
-35.0
 31
0.0
  0
LINE
  5
D78
100
AcDbEntity
  8
MSL5_120_3F-3
100
AcDbLine
 10
-75.0
 20
-25.0
 30
0.0
 11
-58.0
 21
-25.0
 31
0.0
  0
LINE
  5
D79
100
AcDbEntity
  8
MSL5_120_3F-7
100
AcDbLine
 10
-46.582057
 20
-30.0
 30
0.0
 11
-78.0
 21
-30.0
 31
0.0
  0
LINE
  5
D7A
100
AcDbEntity
  8
MSL5_120_3F-3
100
AcDbLine
 10
-75.0
 20
-34.188
 30
0.0
 11
-52.0
 21
-34.188
 31
0.0
  0
LINE
  5
D7B
100
AcDbEntity
  8
MSL5_120_3F-3
100
AcDbLine
 10
-75.0
 20
-25.812
 30
0.0
 11
-52.0
 21
-25.812
 31
0.0
  0
LINE
  5
D7C
100
AcDbEntity
  8
MSL5_120_3F-3
100
AcDbLine
 10
-49.582057
 20
-30.0
 30
0.0
 11
-52.0
 21
-25.812
 31
0.0
  0
LINE
  5
D7D
100
AcDbEntity
  8
MSL5_120_3F-3
100
AcDbLine
 10
-52.188
 20
-39.0
 30
0.0
 11
-52.188
 21
-16.0
 31
0.0
  0
LINE
  5
D7E
100
AcDbEntity
  8
MSL5_120_3F-3
100
AcDbLine
 10
-52.188
 20
-39.0
 30
0.0
 11
-52.188
 21
-16.0
 31
0.0
  0
LINE
  5
D7F
100
AcDbEntity
  8
MSL5_120_3F-3
100
AcDbLine
 10
-43.812
 20
-39.0
 30
0.0
 11
-43.812
 21
-16.0
 31
0.0
  0
LINE
  5
D80
100
AcDbEntity
  8
MSL5_120_3F-3
100
AcDbLine
 10
-53.0
 20
-39.0
 30
0.0
 11
-53.0
 21
-22.0
 31
0.0
  0
LINE
  5
D81
100
AcDbEntity
  8
MSL5_120_3F-3
100
AcDbLine
 10
-53.0
 20
-39.0
 30
0.0
 11
-53.0
 21
-22.0
 31
0.0
  0
LINE
  5
D82
100
AcDbEntity
  8
MSL5_120_3F-3
100
AcDbLine
 10
-43.0
 20
-39.0
 30
0.0
 11
-43.0
 21
-22.0
 31
0.0
  0
LINE
  5
D83
100
AcDbEntity
  8
MSL5_120_3F-3
100
AcDbLine
 10
-43.0
 20
-39.0
 30
0.0
 11
-43.0
 21
-22.0
 31
0.0
  0
LINE
  5
D84
100
AcDbEntity
  8
MSL5_120_3F-7
100
AcDbLine
 10
-48.0
 20
-10.582057
 30
0.0
 11
-48.0
 21
-42.0
 31
0.0
  0
LINE
  5
D85
100
AcDbEntity
  8
MSL5_120_3F-7
100
AcDbLine
 10
-48.0
 20
-10.582057
 30
0.0
 11
-48.0
 21
-41.0
 31
0.0
  0
LINE
  5
D86
100
AcDbEntity
  8
MSL5_120_3F-3
100
AcDbLine
 10
-58.0
 20
-35.0
 30
0.0
 11
-58.0
 21
-25.0
 31
0.0
  0
LINE
  5
D87
100
AcDbEntity
  8
MSL5_120_3F-3
100
AcDbLine
 10
-52.0
 20
-34.188
 30
0.0
 11
-52.0
 21
-25.812
 31
0.0
  0
LINE
  5
D88
100
AcDbEntity
  8
MSL5_120_3F-3
100
AcDbLine
 10
-49.582057
 20
-30.0
 30
0.0
 11
-52.0
 21
-34.188
 31
0.0
  0
LINE
  5
D89
100
AcDbEntity
  8
MSL5_120_3F-3
100
AcDbLine
 10
-39.0
 20
-30.0
 30
0.0
 11
-39.0
 21
-39.0
 31
0.0
  0
LINE
  5
D8A
100
AcDbEntity
  8
MSL5_120_3F-3
100
AcDbLine
 10
-53.0
 20
-22.0
 30
0.0
 11
-43.0
 21
-22.0
 31
0.0
  0
LINE
  5
D8B
100
AcDbEntity
  8
MSL5_120_3F-3
100
AcDbLine
 10
-53.0
 20
-22.0
 30
0.0
 11
-43.0
 21
-22.0
 31
0.0
  0
LINE
  5
D8C
100
AcDbEntity
  8
MSL5_120_3F-3
100
AcDbLine
 10
-52.188
 20
-16.0
 30
0.0
 11
-43.812
 21
-16.0
 31
0.0
  0
LINE
  5
D8D
100
AcDbEntity
  8
MSL5_120_3F-3
100
AcDbLine
 10
-52.188
 20
-16.0
 30
0.0
 11
-43.812
 21
-16.0
 31
0.0
  0
LINE
  5
D8E
100
AcDbEntity
  8
MSL5_120_3F-3
100
AcDbLine
 10
-48.0
 20
-13.582057
 30
0.0
 11
-52.188
 21
-16.0
 31
0.0
  0
LINE
  5
D8F
100
AcDbEntity
  8
MSL5_120_3F-3
100
AcDbLine
 10
-48.0
 20
-13.582057
 30
0.0
 11
-52.188
 21
-16.0
 31
0.0
  0
LINE
  5
D90
100
AcDbEntity
  8
MSL5_120_3F-7
100
AcDbLine
 10
-52.0
 20
0.0
 30
0.0
 11
-37.428367
 21
0.0
 31
0.0
  0
LINE
  5
D91
100
AcDbEntity
  8
MSL5_120_3F-7
100
AcDbLine
 10
-52.0
 20
0.0
 30
0.0
 11
-52.0
 21
-14.571633
 31
0.0
  0
LINE
  5
D92
100
AcDbEntity
  8
MSL5_120_3F-7
100
AcDbLine
 10
-52.0
 20
0.0
 30
0.0
 11
-66.571633
 21
0.0
 31
0.0
  0
LINE
  5
D93
100
AcDbEntity
  8
MSL5_120_3F-3
100
AcDbLine
 10
-48.0
 20
-13.582057
 30
0.0
 11
-43.812
 21
-16.0
 31
0.0
  0
LINE
  5
D94
100
AcDbEntity
  8
MSL5_120_3F-3
100
AcDbLine
 10
-48.0
 20
-13.582057
 30
0.0
 11
-43.812
 21
-16.0
 31
0.0
  0
LINE
  5
D95
100
AcDbEntity
  8
MSL5_120_3F-7
100
AcDbLine
 10
0.0
 20
0.0
 30
0.0
 11
21.868677
 21
0.0
 31
0.0
  0
LINE
  5
D96
100
AcDbEntity
  8
MSL5_120_3F-7
100
AcDbLine
 10
0.0
 20
-30.0
 30
0.0
 11
7.864948
 21
-30.0
 31
0.0
  0
CIRCLE
  5
D97
100
AcDbEntity
  8
MSL5_120_3F-0
100
AcDbCircle
 10
0.0
 20
-30.0
 30
0.0
 40
5.0
  0
LINE
  5
D98
100
AcDbEntity
  8
MSL5_120_3F-7
100
AcDbLine
 10
0.0
 20
-30.0
 30
0.0
 11
0.0
 21
-22.135052
 31
0.0
  0
LINE
  5
D99
100
AcDbEntity
  8
MSL5_120_3F-7
100
AcDbLine
 10
-30.0
 20
-30.0
 30
0.0
 11
-30.0
 21
-18.173239
 31
0.0
  0
LINE
  5
D9A
100
AcDbEntity
  8
MSL5_120_3F-7
100
AcDbLine
 10
-30.0
 20
-30.0
 30
0.0
 11
-18.173239
 21
-30.0
 31
0.0
  0
LINE
  5
D9B
100
AcDbEntity
  8
MSL5_120_3F-7
100
AcDbLine
 10
-30.0
 20
-30.0
 30
0.0
 11
-30.0
 21
-41.0
 31
0.0
  0
LINE
  5
D9C
100
AcDbEntity
  8
MSL5_120_3F-3
100
AcDbLine
 10
-21.0
 20
-39.0
 30
0.0
 11
-21.0
 21
-30.0
 31
0.0
  0
LINE
  5
D9D
100
AcDbEntity
  8
MSL5_120_3F-7
100
AcDbLine
 10
0.0
 20
-30.0
 30
0.0
 11
-7.864948
 21
-30.0
 31
0.0
  0
LINE
  5
D9E
100
AcDbEntity
  8
MSL5_120_3F-7
100
AcDbLine
 10
0.0
 20
-30.0
 30
0.0
 11
0.0
 21
-37.864948
 31
0.0
  0
LINE
  5
D9F
100
AcDbEntity
  8
MSL5_120_3F-7
100
AcDbLine
 10
0.0
 20
0.0
 30
0.0
 11
-21.868677
 21
0.0
 31
0.0
  0
LINE
  5
DA0
100
AcDbEntity
  8
MSL5_120_3F-7
100
AcDbLine
 10
-30.0
 20
0.0
 30
0.0
 11
-22.111787
 21
0.0
 31
0.0
  0
LINE
  5
DA1
100
AcDbEntity
  8
MSL5_120_3F-7
100
AcDbLine
 10
-30.0
 20
0.0
 30
0.0
 11
-30.0
 21
-7.888213
 31
0.0
  0
LINE
  5
DA2
100
AcDbEntity
  8
MSL5_120_3F-7
100
AcDbLine
 10
0.0
 20
0.0
 30
0.0
 11
0.0
 21
-21.868677
 31
0.0
  0
LINE
  5
DA3
100
AcDbEntity
  8
MSL5_120_3F-7
100
AcDbLine
 10
30.0
 20
-30.0
 30
0.0
 11
30.0
 21
-18.367745
 31
0.0
  0
ARC
  5
DA4
100
AcDbEntity
  8
MSL5_120_3F-3
100
AcDbCircle
 10
30.0
 20
-30.0
 30
0.0
 40
9.0
100
AcDbArc
 50
0.0
 51
179.999998
  0
CIRCLE
  5
DA5
100
AcDbEntity
  8
MSL5_120_3F-0
100
AcDbCircle
 10
30.0
 20
-30.0
 30
0.0
 40
5.5
  0
LINE
  5
DA6
100
AcDbEntity
  8
MSL5_120_3F-7
100
AcDbLine
 10
30.0
 20
-30.0
 30
0.0
 11
18.367745
 21
-30.0
 31
0.0
  0
LINE
  5
DA7
100
AcDbEntity
  8
MSL5_120_3F-3
100
AcDbLine
 10
21.0
 20
-39.0
 30
0.0
 11
21.0
 21
-30.0
 31
0.0
  0
LINE
  5
DA8
100
AcDbEntity
  8
MSL5_120_3F-7
100
AcDbLine
 10
30.0
 20
-30.0
 30
0.0
 11
30.0
 21
-41.0
 31
0.0
  0
LINE
  5
DA9
100
AcDbEntity
  8
MSL5_120_3F-3
100
AcDbLine
 10
39.0
 20
-30.0
 30
0.0
 11
39.0
 21
-39.0
 31
0.0
  0
LINE
  5
DAA
100
AcDbEntity
  8
MSL5_120_3F-7
100
AcDbLine
 10
30.0
 20
0.0
 30
0.0
 11
22.525102
 21
0.0
 31
0.0
  0
LINE
  5
DAB
100
AcDbEntity
  8
MSL5_120_3F-7
100
AcDbLine
 10
30.0
 20
0.0
 30
0.0
 11
37.474898
 21
0.0
 31
0.0
  0
LINE
  5
DAC
100
AcDbEntity
  8
MSL5_120_3F-7
100
AcDbLine
 10
30.0
 20
0.0
 30
0.0
 11
30.0
 21
-7.474898
 31
0.0
  0
LINE
  5
DAD
100
AcDbEntity
  8
MSL5_120_3F-3
100
AcDbLine
 10
-38.114839
 20
98.874664
 30
0.0
 11
-31.686963
 21
91.214219
 31
0.0
  0
LINE
  5
DAE
100
AcDbEntity
  8
MSL5_120_3F-3
100
AcDbLine
 10
-38.770662
 20
98.324364
 30
0.0
 11
-32.342786
 21
90.663919
 31
0.0
  0
CIRCLE
  5
DAF
100
AcDbEntity
  8
MSL5_120_3F-0
100
AcDbCircle
 10
-30.0
 20
30.0
 30
0.0
 40
5.5
  0
CIRCLE
  5
DB0
100
AcDbEntity
  8
MSL5_120_3F-3
100
AcDbCircle
 10
-30.0
 20
30.0
 30
0.0
 40
9.0
  0
LINE
  5
DB1
100
AcDbEntity
  8
MSL5_120_3F-7
100
AcDbLine
 10
-30.0
 20
30.0
 30
0.0
 11
-41.607953
 21
30.0
 31
0.0
  0
LINE
  5
DB2
100
AcDbEntity
  8
MSL5_120_3F-0
100
AcDbLine
 10
-75.0
 20
66.6
 30
0.0
 11
-12.552112
 21
119.0
 31
0.0
1001
GENIUS_GENOREF_13
1005
1172
  0
LINE
  5
DB3
100
AcDbEntity
  8
MSL5_120_3F-0
100
AcDbLine
 10
-13.496279
 20
119.532089
 30
0.0
 11
-73.285575
 21
69.362912
 31
0.0
  0
LINE
  5
DB4
100
AcDbEntity
  8
MSL5_120_3F-0
100
AcDbLine
 10
-78.999971
 20
59.998686
 30
0.0
 11
-78.999977
 21
67.998686
 31
0.0
  0
LINE
  5
DB5
100
AcDbEntity
  8
MSL5_120_3F-3
100
AcDbLine
 10
-74.0
 20
67.4391
 30
0.0
 11
-74.0
 21
38.0
 31
0.0
1001
GENIUS_GENBH_13
1002
{
1000
OE
1000
CON1
1002
}
1001
GENIUS_GENOREF_13
1005
1171
  0
LINE
  5
DB6
100
AcDbEntity
  8
MSL5_120_3F-3
100
AcDbLine
 10
-75.0
 20
34.188
 30
0.0
 11
-52.0
 21
34.188
 31
0.0
  0
LINE
  5
DB7
100
AcDbEntity
  8
MSL5_120_3F-3
100
AcDbLine
 10
-75.0
 20
25.812
 30
0.0
 11
-52.0
 21
25.812
 31
0.0
  0
LINE
  5
DB8
100
AcDbEntity
  8
MSL5_120_3F-7
100
AcDbLine
 10
-46.582057
 20
30.0
 30
0.0
 11
-78.0
 21
30.0
 31
0.0
  0
LINE
  5
DB9
100
AcDbEntity
  8
MSL5_120_3F-3
100
AcDbLine
 10
-75.0
 20
35.0
 30
0.0
 11
-58.0
 21
35.0
 31
0.0
  0
LINE
  5
DBA
100
AcDbEntity
  8
MSL5_120_3F-3
100
AcDbLine
 10
-75.0
 20
25.0
 30
0.0
 11
-58.0
 21
25.0
 31
0.0
  0
ARC
  5
DBB
100
AcDbEntity
  8
MSL5_120_3F-0
100
AcDbCircle
 10
-77.499971
 20
45.998687
 30
0.0
 40
1.5
100
AcDbArc
 50
180.000041
 51
270.00004
  0
LINE
  5
DBC
100
AcDbEntity
  8
MSL5_120_3F-0
100
AcDbLine
 10
-75.0
 20
44.498689
 30
0.0
 11
-77.49997
 21
44.498687
 31
0.0
  0
ARC
  5
DBD
100
AcDbEntity
  8
MSL5_120_3F-0
100
AcDbCircle
 10
-77.499971
 20
59.998687
 30
0.0
 40
1.5
100
AcDbArc
 50
180.000041
 51
270.00004
  0
ARC
  5
DBE
100
AcDbEntity
  8
MSL5_120_3F-0
100
AcDbCircle
 10
-77.499977
 20
53.998687
 30
0.0
 40
1.5
100
AcDbArc
 50
90.000038
 51
180.000041
  0
LINE
  5
DBF
100
AcDbEntity
  8
MSL5_120_3F-7
100
AcDbLine
 10
-81.788719
 20
50.000024
 30
0.0
 11
-70.595992
 21
50.000032
 31
0.0
  0
LINE
  5
DC0
100
AcDbEntity
  8
MSL5_120_3F-0
100
AcDbLine
 10
-78.999971
 20
45.998686
 30
0.0
 11
-78.999977
 21
53.998686
 31
0.0
  0
LINE
  5
DC1
100
AcDbEntity
  8
MSL5_120_3F-0
100
AcDbLine
 10
-75.0
 20
58.498689
 30
0.0
 11
-77.49997
 21
58.498687
 31
0.0
  0
LINE
  5
DC2
100
AcDbEntity
  8
MSL5_120_3F-0
100
AcDbLine
 10
-77.499978
 20
55.498687
 30
0.0
 11
-75.0
 21
55.498689
 31
0.0
  0
LINE
  5
DC3
100
AcDbEntity
  8
MSL5_120_3F-3
100
AcDbLine
 10
-49.582057
 20
30.0
 30
0.0
 11
-52.0
 21
34.188
 31
0.0
  0
LINE
  5
DC4
100
AcDbEntity
  8
MSL5_120_3F-3
100
AcDbLine
 10
-58.0
 20
25.0
 30
0.0
 11
-58.0
 21
35.0
 31
0.0
  0
LINE
  5
DC5
100
AcDbEntity
  8
MSL5_120_3F-3
100
AcDbLine
 10
-52.0
 20
25.812
 30
0.0
 11
-52.0
 21
34.188
 31
0.0
  0
LINE
  5
DC6
100
AcDbEntity
  8
MSL5_120_3F-3
100
AcDbLine
 10
-49.582057
 20
30.0
 30
0.0
 11
-52.0
 21
25.812
 31
0.0
  0
LINE
  5
DC7
100
AcDbEntity
  8
MSL5_120_3F-7
100
AcDbLine
 10
-73.301727
 20
77.386409
 30
0.0
 11
-68.331701
 21
71.463363
 31
0.0
  0
LINE
  5
DC8
100
AcDbEntity
  8
MSL5_120_3F-0
100
AcDbLine
 10
-74.843072
 20
70.666832
 30
0.0
 11
-66.416583
 21
77.737496
 31
0.0
  0
LINE
  5
DC9
100
AcDbEntity
  8
MSL5_120_3F-0
100
AcDbLine
 10
-72.365354
 20
76.270484
 30
0.0
 11
-72.161916
 21
72.916589
 31
0.0
  0
ARC
  5
DCA
100
AcDbEntity
  8
MSL5_120_3F-0
100
AcDbCircle
 10
-77.499977
 20
67.998687
 30
0.0
 40
1.5
100
AcDbArc
 50
90.000038
 51
180.000041
  0
LINE
  5
DCB
100
AcDbEntity
  8
MSL5_120_3F-7
100
AcDbLine
 10
-81.788719
 20
64.000024
 30
0.0
 11
-70.595992
 21
64.000032
 31
0.0
  0
LINE
  5
DCC
100
AcDbEntity
  8
MSL5_120_3F-0
100
AcDbLine
 10
-73.557497
 20
69.134743
 30
0.0
 11
-74.843072
 21
70.666832
 31
0.0
  0
LINE
  5
DCD
100
AcDbEntity
  8
MSL5_120_3F-0
100
AcDbLine
 10
-77.499978
 20
69.498687
 30
0.0
 11
-74.0
 21
69.49869
 31
0.0
  0
LINE
  5
DCE
100
AcDbEntity
  8
MSL5_120_3F-0
100
AcDbLine
 10
-74.0
 20
67.830823
 30
0.0
 11
-74.0
 21
67.4391
 31
0.0
1001
GENIUS_GENOREF_13
1005
1171
  0
LINE
  5
DCF
100
AcDbEntity
  8
MSL5_120_3F-0
100
AcDbLine
 10
-74.0
 20
69.49869
 30
0.0
 11
-74.0
 21
67.830823
 31
0.0
  0
ARC
  5
DD0
100
AcDbEntity
  8
MSL5_120_3F-0
100
AcDbCircle
 10
-72.0
 20
67.830823
 30
0.0
 40
2.0
100
AcDbArc
 50
130.0
 51
180.0
1001
GENIUS_GENODEF_13
1002
{
1000
HIER
1070
     0
1002
}
1002
{
1000
MANEDIT
1070
     0
1002
}
1002
{
1000
NOSEL
1070
     0
1002
}
1002
{
1000
BEHIND
1070
     0
1002
}
1002
{
1000
REACTOR
1002
}
1001
GENIUS_GENOBJ-N-FIL_13
1002
{
1000
OWNER
1000
GEN
1002
}
  0
LINE
  5
DD1
100
AcDbEntity
  8
MSL5_120_3F-3
100
AcDbLine
 10
-72.838105
 20
68.432977
 30
0.0
 11
-73.470403
 21
69.186521
 31
0.0
  0
LINE
  5
DD2
100
AcDbEntity
  8
MSL5_120_3F-0
100
AcDbLine
 10
-69.097739
 20
75.487739
 30
0.0
 11
-72.365354
 21
76.270484
 31
0.0
  0
LINE
  5
DD3
100
AcDbEntity
  8
MSL5_120_3F-3
100
AcDbLine
 10
-48.193686
 20
90.417507
 30
0.0
 11
-41.76581
 21
82.757063
 31
0.0
  0
LINE
  5
DD4
100
AcDbEntity
  8
MSL5_120_3F-3
100
AcDbLine
 10
-47.537864
 20
90.967807
 30
0.0
 11
-41.109988
 21
83.307363
 31
0.0
  0
LINE
  5
DD5
100
AcDbEntity
  8
MSL5_120_3F-7
100
AcDbLine
 10
-45.082626
 20
96.944219
 30
0.0
 11
-34.798024
 21
84.687508
 31
0.0
  0
LINE
  5
DD6
100
AcDbEntity
  8
MSL5_120_3F-0
100
AcDbLine
 10
-66.416583
 20
77.737496
 30
0.0
 11
-65.131008
 21
76.205407
 31
0.0
  0
LINE
  5
DD7
100
AcDbEntity
  8
MSL5_120_3F-3
100
AcDbLine
 10
-64.564825
 20
75.375084
 30
0.0
 11
-65.207612
 21
76.141128
 31
0.0
  0
LINE
  5
DD8
100
AcDbEntity
  8
MSL5_120_3F-0
100
AcDbLine
 10
-50.937964
 20
86.809377
 30
0.0
 11
-51.580752
 21
87.575422
 31
0.0
  0
LINE
  5
DD9
100
AcDbEntity
  8
MSL5_120_3F-0
100
AcDbLine
 10
-34.084986
 20
100.950705
 30
0.0
 11
-34.727774
 21
101.716749
 31
0.0
  0
LINE
  5
DDA
100
AcDbEntity
  8
MSL5_120_3F-7
100
AcDbLine
 10
0.0
 20
30.0
 30
0.0
 11
7.864948
 21
30.0
 31
0.0
  0
CIRCLE
  5
DDB
100
AcDbEntity
  8
MSL5_120_3F-0
100
AcDbCircle
 10
0.0
 20
30.0
 30
0.0
 40
5.0
  0
LINE
  5
DDC
100
AcDbEntity
  8
MSL5_120_3F-7
100
AcDbLine
 10
0.0
 20
30.0
 30
0.0
 11
0.0
 21
37.864948
 31
0.0
  0
LINE
  5
DDD
100
AcDbEntity
  8
MSL5_120_3F-7
100
AcDbLine
 10
-30.0
 20
30.0
 30
0.0
 11
-30.0
 21
41.607953
 31
0.0
  0
LINE
  5
DDE
100
AcDbEntity
  8
MSL5_120_3F-7
100
AcDbLine
 10
-30.0
 20
30.0
 30
0.0
 11
-18.392047
 21
30.0
 31
0.0
  0
LINE
  5
DDF
100
AcDbEntity
  8
MSL5_120_3F-7
100
AcDbLine
 10
-30.0
 20
30.0
 30
0.0
 11
-30.0
 21
18.392047
 31
0.0
  0
LINE
  5
DE0
100
AcDbEntity
  8
MSL5_120_3F-7
100
AcDbLine
 10
0.0
 20
30.0
 30
0.0
 11
-7.864948
 21
30.0
 31
0.0
  0
LINE
  5
DE1
100
AcDbEntity
  8
MSL5_120_3F-7
100
AcDbLine
 10
0.0
 20
30.0
 30
0.0
 11
0.0
 21
22.135052
 31
0.0
  0
LINE
  5
DE2
100
AcDbEntity
  8
MSL5_120_3F-7
100
AcDbLine
 10
30.0
 20
30.0
 30
0.0
 11
30.0
 21
41.607953
 31
0.0
  0
CIRCLE
  5
DE3
100
AcDbEntity
  8
MSL5_120_3F-3
100
AcDbCircle
 10
30.0
 20
30.0
 30
0.0
 40
9.0
  0
CIRCLE
  5
DE4
100
AcDbEntity
  8
MSL5_120_3F-0
100
AcDbCircle
 10
30.0
 20
30.0
 30
0.0
 40
5.5
  0
LINE
  5
DE5
100
AcDbEntity
  8
MSL5_120_3F-7
100
AcDbLine
 10
30.0
 20
30.0
 30
0.0
 11
18.392047
 21
30.0
 31
0.0
  0
LINE
  5
DE6
100
AcDbEntity
  8
MSL5_120_3F-7
100
AcDbLine
 10
30.0
 20
30.0
 30
0.0
 11
30.0
 21
18.392047
 31
0.0
  0
LINE
  5
DE7
100
AcDbEntity
  8
MSL5_120_3F-7
100
AcDbLine
 10
0.0
 20
93.0
 30
0.0
 11
14.571633
 21
93.0
 31
0.0
  0
MTEXT
  5
DE8
100
AcDbEntity
  8
MSL5_120_3F-6
100
AcDbMText
 10
-10.082601
 20
68.394298
 30
0.0
 40
3.5
 41
22.192126
 71
     1
 72
     1
  1
{MSL5-120-3F}
  0
LINE
  5
DE9
100
AcDbEntity
  8
MSL5_120_3F-0
100
AcDbLine
 10
-12.552112
 20
119.0
 30
0.0
 11
12.552112
 21
119.0
 31
0.0
1001
GENIUS_GENOREF_13
1005
1172
  0
LINE
  5
DEA
100
AcDbEntity
  8
MSL5_120_3F-7
100
AcDbLine
 10
0.0
 20
93.0
 30
0.0
 11
0.0
 21
78.428367
 31
0.0
  0
LINE
  5
DEB
100
AcDbEntity
  8
MSL5_120_3F-7
100
AcDbLine
 10
0.0
 20
93.0
 30
0.0
 11
-14.571633
 21
93.0
 31
0.0
  0
LINE
  5
DEC
100
AcDbEntity
  8
MSL5_120_3F-7
100
AcDbLine
 10
0.0
 20
93.0
 30
0.0
 11
0.0
 21
107.571633
 31
0.0
  0
LINE
  5
DED
100
AcDbEntity
  8
MSL5_120_3F-3
100
AcDbLine
 10
38.114839
 20
98.874664
 30
0.0
 11
31.686963
 21
91.214219
 31
0.0
  0
LINE
  5
DEE
100
AcDbEntity
  8
MSL5_120_3F-3
100
AcDbLine
 10
34.084986
 20
100.950705
 30
0.0
 11
34.727774
 21
101.716749
 31
0.0
  0
LINE
  5
DEF
100
AcDbEntity
  8
MSL5_120_3F-3
100
AcDbLine
 10
38.770662
 20
98.324364
 30
0.0
 11
32.342786
 21
90.663919
 31
0.0
  0
LINE
  5
DF0
100
AcDbEntity
  8
MSL5_120_3F-0
100
AcDbLine
 10
147.782286
 20
-103.245947
 30
0.0
 11
147.782286
 21
-253.245947
 31
0.0
  0
LINE
  5
DF1
100
AcDbEntity
  8
MSL5_120_3F-0
100
AcDbLine
 10
172.782286
 20
-253.245947
 30
0.0
 11
172.782286
 21
-103.245947
 31
0.0
  0
LINE
  5
DF2
100
AcDbEntity
  8
MSL5_120_3F-0
100
AcDbLine
 10
187.782286
 20
-117.255566
 30
0.0
 11
187.782286
 21
-143.236329
 31
0.0
  0
LINE
  5
DF3
100
AcDbEntity
  8
MSL5_120_3F-0
100
AcDbLine
 10
195.782286
 20
-117.255566
 30
0.0
 11
195.782286
 21
-143.236329
 31
0.0
  0
LINE
  5
DF4
100
AcDbEntity
  8
MSL5_120_3F-0
100
AcDbLine
 10
195.782286
 20
-253.245947
 30
0.0
 11
195.782286
 21
-103.245947
 31
0.0
  0
LINE
  5
DF5
100
AcDbEntity
  8
MSL5_120_3F-7
100
AcDbLine
 10
155.782286
 20
-131.663819
 30
0.0
 11
155.782286
 21
-100.245876
 31
0.0
  0
LINE
  5
DF6
100
AcDbEntity
  8
MSL5_120_3F-3
100
AcDbLine
 10
151.594286
 20
-103.245876
 30
0.0
 11
151.594286
 21
-126.245876
 31
0.0
  0
LINE
  5
DF7
100
AcDbEntity
  8
MSL5_120_3F-3
100
AcDbLine
 10
150.782286
 20
-103.245876
 30
0.0
 11
150.782286
 21
-120.245876
 31
0.0
  0
LINE
  5
DF8
100
AcDbEntity
  8
MSL5_120_3F-3
100
AcDbLine
 10
159.970286
 20
-103.245876
 30
0.0
 11
159.970286
 21
-126.245876
 31
0.0
  0
LINE
  5
DF9
100
AcDbEntity
  8
MSL5_120_3F-3
100
AcDbLine
 10
160.782286
 20
-103.245876
 30
0.0
 11
160.782286
 21
-120.245876
 31
0.0
  0
ARC
  5
DFA
100
AcDbEntity
  8
MSL5_120_3F-0
100
AcDbCircle
 10
192.888536
 20
-117.255566
 30
0.0
 40
5.10625
100
AcDbArc
 50
122.004627
 51
237.995373
  0
ARC
  5
DFB
100
AcDbEntity
  8
MSL5_120_3F-0
100
AcDbCircle
 10
190.676036
 20
-117.255566
 30
0.0
 40
5.10625
100
AcDbArc
 50
302.004628
 51
57.995372
  0
LINE
  5
DFC
100
AcDbEntity
  8
MSL5_120_3F-0
100
AcDbLine
 10
196.282286
 20
-126.665124
 30
0.0
 11
196.282286
 21
-104.245876
 31
0.0
  0
LINE
  5
DFD
100
AcDbEntity
  8
MSL5_120_3F-0
100
AcDbLine
 10
187.782286
 20
-118.245947
 30
0.0
 11
187.282286
 21
-118.745947
 31
0.0
  0
LINE
  5
DFE
100
AcDbEntity
  8
MSL5_120_3F-0
100
AcDbLine
 10
187.282286
 20
-141.745947
 30
0.0
 11
187.782286
 21
-142.245947
 31
0.0
  0
LINE
  5
DFF
100
AcDbEntity
  8
MSL5_120_3F-0
100
AcDbLine
 10
195.782286
 20
-164.745947
 30
0.0
 11
177.782286
 21
-164.745947
 31
0.0
  0
LINE
  5
E00
100
AcDbEntity
  8
MSL5_120_3F-0
100
AcDbLine
 10
172.782286
 20
-165.745947
 30
0.0
 11
195.782286
 21
-165.745947
 31
0.0
  0
LINE
  5
E01
100
AcDbEntity
  8
MSL5_120_3F-7
100
AcDbLine
 10
169.216084
 20
-130.245947
 30
0.0
 11
200.717072
 21
-130.245947
 31
0.0
  0
LINE
  5
E02
100
AcDbEntity
  8
MSL5_120_3F-0
100
AcDbLine
 10
177.782286
 20
-191.745947
 30
0.0
 11
195.782286
 21
-191.745947
 31
0.0
  0
LINE
  5
E03
100
AcDbEntity
  8
MSL5_120_3F-0
100
AcDbLine
 10
172.782286
 20
-190.745947
 30
0.0
 11
195.782286
 21
-190.745947
 31
0.0
  0
LINE
  5
E04
100
AcDbEntity
  8
MSL5_120_3F-0
100
AcDbLine
 10
176.782286
 20
-234.245947
 30
0.0
 11
188.782286
 21
-234.245947
 31
0.0
  0
LINE
  5
E05
100
AcDbEntity
  8
MSL5_120_3F-0
100
AcDbLine
 10
188.782286
 20
-226.245947
 30
0.0
 11
176.782286
 21
-226.245947
 31
0.0
  0
LINE
  5
E06
100
AcDbEntity
  8
MSL5_120_3F-0
100
AcDbLine
 10
195.782286
 20
-217.745947
 30
0.0
 11
172.782286
 21
-217.745947
 31
0.0
  0
LINE
  5
E07
100
AcDbEntity
  8
MSL5_120_3F-0
100
AcDbLine
 10
195.782286
 20
-242.745947
 30
0.0
 11
172.782286
 21
-242.745947
 31
0.0
  0
LINE
  5
E08
100
AcDbEntity
  8
MSL5_120_3F-7
100
AcDbLine
 10
144.782286
 20
-178.245947
 30
0.0
 11
204.972948
 21
-178.245947
 31
0.0
1001
GENIUS_GENOREF_13
1005
1170
  0
LINE
  5
E09
100
AcDbEntity
  8
MSL5_120_3F-7
100
AcDbLine
 10
204.787278
 20
-230.245947
 30
0.0
 11
164.612224
 21
-230.245947
 31
0.0
  0
LINE
  5
E0A
100
AcDbEntity
  8
MSL5_120_3F-7
100
AcDbLine
 10
204.787278
 20
-126.245947
 30
0.0
 11
164.612224
 21
-126.245947
 31
0.0
  0
ARC
  5
E0B
100
AcDbEntity
  8
MSL5_120_3F-0
100
AcDbCircle
 10
174.48923
 20
-235.875113
 30
0.0
 40
2.293056
100
AcDbArc
 50
305.085848
 51
54.914152
  0
ARC
  5
E0C
100
AcDbEntity
  8
MSL5_120_3F-0
100
AcDbCircle
 10
175.075342
 20
-235.875113
 30
0.0
 40
2.293056
100
AcDbArc
 50
125.085847
 51
234.914153
  0
LINE
  5
E0D
100
AcDbEntity
  8
MSL5_120_3F-3
100
AcDbLine
 10
150.782286
 20
-253.245876
 30
0.0
 11
150.782286
 21
-236.245876
 31
0.0
  0
LINE
  5
E0E
100
AcDbEntity
  8
MSL5_120_3F-7
100
AcDbLine
 10
155.782286
 20
-224.827933
 30
0.0
 11
155.782286
 21
-256.245876
 31
0.0
  0
LINE
  5
E0F
100
AcDbEntity
  8
MSL5_120_3F-3
100
AcDbLine
 10
151.594286
 20
-253.245876
 30
0.0
 11
151.594286
 21
-230.245876
 31
0.0
  0
LINE
  5
E10
100
AcDbEntity
  8
MSL5_120_3F-3
100
AcDbLine
 10
160.782286
 20
-253.245876
 30
0.0
 11
160.782286
 21
-236.245876
 31
0.0
  0
LINE
  5
E11
100
AcDbEntity
  8
MSL5_120_3F-3
100
AcDbLine
 10
159.970286
 20
-253.245876
 30
0.0
 11
159.970286
 21
-230.245876
 31
0.0
  0
LINE
  5
E12
100
AcDbEntity
  8
MSL5_120_3F-0
100
AcDbLine
 10
147.782286
 20
-253.245947
 30
0.0
 11
172.782286
 21
-253.245947
 31
0.0
  0
LINE
  5
E13
100
AcDbEntity
  8
MSL5_120_3F-0
100
AcDbLine
 10
173.757286
 20
-237.751501
 30
0.0
 11
175.807286
 21
-237.751501
 31
0.0
  0
LINE
  5
E14
100
AcDbEntity
  8
MSL5_120_3F-3
100
AcDbLine
 10
176.782286
 20
-165.745947
 30
0.0
 11
176.782286
 21
-190.745947
 31
0.0
1001
GENIUS_GENBH_13
1002
{
1000
OE
1000
CON1
1002
}
1001
GENIUS_GENOREF_13
1005
1170
  0
LINE
  5
E15
100
AcDbEntity
  8
MSL5_120_3F-3
100
AcDbLine
 10
177.782286
 20
-165.745947
 30
0.0
 11
177.782286
 21
-190.745947
 31
0.0
1001
GENIUS_GENBH_13
1002
{
1000
OE
1000
CON1
1002
}
1001
GENIUS_GENOREF_13
1005
1170
  0
LINE
  5
E16
100
AcDbEntity
  8
MSL5_120_3F-3
100
AcDbLine
 10
165.782286
 20
-202.745876
 30
0.0
 11
147.782286
 21
-202.745876
 31
0.0
  0
LINE
  5
E17
100
AcDbEntity
  8
MSL5_120_3F-3
100
AcDbLine
 10
165.782286
 20
-213.745876
 30
0.0
 11
147.782286
 21
-213.745876
 31
0.0
  0
LINE
  5
E18
100
AcDbEntity
  8
MSL5_120_3F-7
100
AcDbLine
 10
174.782286
 20
-208.245876
 30
0.0
 11
145.782286
 21
-208.245876
 31
0.0
  0
LINE
  5
E19
100
AcDbEntity
  8
MSL5_120_3F-0
100
AcDbLine
 10
147.782286
 20
-190.798058
 30
0.0
 11
172.782286
 21
-190.798058
 31
0.0
  0
LINE
  5
E1A
100
AcDbEntity
  8
MSL5_120_3F-3
100
AcDbLine
 10
165.782286
 20
-199.245876
 30
0.0
 11
165.782286
 21
-217.245876
 31
0.0
  0
LINE
  5
E1B
100
AcDbEntity
  8
MSL5_120_3F-7
100
AcDbLine
 10
156.782286
 20
-226.245876
 30
0.0
 11
172.782286
 21
-226.245876
 31
0.0
  0
LINE
  5
E1C
100
AcDbEntity
  8
MSL5_120_3F-3
100
AcDbLine
 10
165.782286
 20
-217.245876
 30
0.0
 11
172.782286
 21
-217.245876
 31
0.0
  0
ARC
  5
E1D
100
AcDbEntity
  8
MSL5_120_3F-3
100
AcDbCircle
 10
164.782286
 20
-226.245876
 30
0.0
 40
5.0
100
AcDbArc
 50
280.0
 51
210.0
  0
LINE
  5
E1E
100
AcDbEntity
  8
MSL5_120_3F-7
100
AcDbLine
 10
164.782286
 20
-234.245947
 30
0.0
 11
164.782286
 21
-218.245947
 31
0.0
  0
LINE
  5
E1F
100
AcDbEntity
  8
MSL5_120_3F-3
100
AcDbLine
 10
160.782286
 20
-236.245876
 30
0.0
 11
150.782286
 21
-236.245876
 31
0.0
  0
LINE
  5
E20
100
AcDbEntity
  8
MSL5_120_3F-3
100
AcDbLine
 10
159.970286
 20
-230.245876
 30
0.0
 11
151.594286
 21
-230.245876
 31
0.0
  0
LINE
  5
E21
100
AcDbEntity
  8
MSL5_120_3F-3
100
AcDbLine
 10
155.782286
 20
-227.827933
 30
0.0
 11
159.970286
 21
-230.245876
 31
0.0
  0
LINE
  5
E22
100
AcDbEntity
  8
MSL5_120_3F-3
100
AcDbLine
 10
155.782286
 20
-227.827933
 30
0.0
 11
151.594286
 21
-230.245876
 31
0.0
  0
CIRCLE
  5
E23
100
AcDbEntity
  8
MSL5_120_3F-3
100
AcDbCircle
 10
164.782286
 20
-226.245876
 30
0.0
 40
4.188
  0
ARC
  5
E24
100
AcDbEntity
  8
MSL5_120_3F-0
100
AcDbCircle
 10
169.072564
 20
-230.245947
 30
0.0
 40
7.709722
100
AcDbArc
 50
330.872218
 51
29.127782
  0
LINE
  5
E25
100
AcDbEntity
  8
MSL5_120_3F-0
100
AcDbLine
 10
176.782286
 20
-235.875113
 30
0.0
 11
176.782286
 21
-224.616782
 31
0.0
  0
ARC
  5
E26
100
AcDbEntity
  8
MSL5_120_3F-0
100
AcDbCircle
 10
174.48923
 20
-224.616782
 30
0.0
 40
2.293056
100
AcDbArc
 50
305.085848
 51
54.914152
  0
ARC
  5
E27
100
AcDbEntity
  8
MSL5_120_3F-0
100
AcDbCircle
 10
180.492008
 20
-230.245947
 30
0.0
 40
7.709722
100
AcDbArc
 50
150.872216
 51
209.127784
  0
LINE
  5
E28
100
AcDbEntity
  8
MSL5_120_3F-0
100
AcDbLine
 10
172.782286
 20
-235.875113
 30
0.0
 11
172.782286
 21
-224.616782
 31
0.0
  0
ARC
  5
E29
100
AcDbEntity
  8
MSL5_120_3F-0
100
AcDbCircle
 10
175.075342
 20
-224.616782
 30
0.0
 40
2.293056
100
AcDbArc
 50
125.085847
 51
234.914153
  0
LINE
  5
E2A
100
AcDbEntity
  8
MSL5_120_3F-0
100
AcDbLine
 10
173.757286
 20
-233.998724
 30
0.0
 11
175.807286
 21
-233.998724
 31
0.0
  0
LINE
  5
E2B
100
AcDbEntity
  8
MSL5_120_3F-0
100
AcDbLine
 10
173.757286
 20
-226.493171
 30
0.0
 11
175.807286
 21
-226.493171
 31
0.0
  0
LINE
  5
E2C
100
AcDbEntity
  8
MSL5_120_3F-0
100
AcDbLine
 10
173.757286
 20
-222.740394
 30
0.0
 11
175.807286
 21
-222.740394
 31
0.0
  0
LINE
  5
E2D
100
AcDbEntity
  8
MSL5_120_3F-3
100
AcDbLine
 10
172.782286
 20
-199.245876
 30
0.0
 11
165.782286
 21
-199.245876
 31
0.0
  0
LINE
  5
E2E
100
AcDbEntity
  8
MSL5_120_3F-0
100
AcDbLine
 10
176.782286
 20
-190.745947
 30
0.0
 11
177.782286
 21
-191.745947
 31
0.0
  0
LINE
  5
E2F
100
AcDbEntity
  8
MSL5_120_3F-0
100
AcDbLine
 10
177.782286
 20
-190.745947
 30
0.0
 11
177.782286
 21
-191.745947
 31
0.0
1001
GENIUS_GENOREF_13
1005
1170
  0
LINE
  5
E30
100
AcDbEntity
  8
MSL5_120_3F-3
100
AcDbLine
 10
172.782286
 20
-184.245947
 30
0.0
 11
176.782286
 21
-184.245947
 31
0.0
1001
GENIUS_GENBH_13
1002
{
1000
OE
1000
CON1
1002
}
1001
GENIUS_GENOREF_13
1005
1170
  0
LINE
  5
E31
100
AcDbEntity
  8
MSL5_120_3F-3
100
AcDbLine
 10
172.782286
 20
-153.245876
 30
0.0
 11
147.782286
 21
-153.245876
 31
0.0
  0
LINE
  5
E32
100
AcDbEntity
  8
MSL5_120_3F-3
100
AcDbLine
 10
172.782286
 20
-143.245876
 30
0.0
 11
147.782286
 21
-143.245876
 31
0.0
  0
LINE
  5
E33
100
AcDbEntity
  8
MSL5_120_3F-7
100
AcDbLine
 10
174.782286
 20
-148.245876
 30
0.0
 11
145.782286
 21
-148.245876
 31
0.0
  0
LINE
  5
E34
100
AcDbEntity
  8
MSL5_120_3F-0
100
AcDbLine
 10
147.782286
 20
-165.693835
 30
0.0
 11
172.782286
 21
-165.693835
 31
0.0
  0
LINE
  5
E35
100
AcDbEntity
  8
MSL5_120_3F-0
100
AcDbLine
 10
177.782286
 20
-164.745947
 30
0.0
 11
177.782286
 21
-165.745947
 31
0.0
1001
GENIUS_GENOREF_13
1005
1170
  0
LINE
  5
E36
100
AcDbEntity
  8
MSL5_120_3F-0
100
AcDbLine
 10
177.782286
 20
-164.745947
 30
0.0
 11
176.782286
 21
-165.745947
 31
0.0
  0
LINE
  5
E37
100
AcDbEntity
  8
MSL5_120_3F-3
100
AcDbLine
 10
176.782286
 20
-172.245947
 30
0.0
 11
172.782286
 21
-172.245947
 31
0.0
1001
GENIUS_GENBH_13
1002
{
1000
OE
1000
CON1
1002
}
1001
GENIUS_GENOREF_13
1005
1170
  0
LINE
  5
E38
100
AcDbEntity
  8
MSL5_120_3F-7
100
AcDbLine
 10
156.782286
 20
-130.245876
 30
0.0
 11
172.782286
 21
-130.245876
 31
0.0
  0
ARC
  5
E39
100
AcDbEntity
  8
MSL5_120_3F-3
100
AcDbCircle
 10
164.782286
 20
-130.245876
 30
0.0
 40
5.0
100
AcDbArc
 50
280.0
 51
210.0
  0
LINE
  5
E3A
100
AcDbEntity
  8
MSL5_120_3F-7
100
AcDbLine
 10
164.782286
 20
-138.245876
 30
0.0
 11
164.782286
 21
-122.245876
 31
0.0
  0
CIRCLE
  5
E3B
100
AcDbEntity
  8
MSL5_120_3F-3
100
AcDbCircle
 10
164.782286
 20
-130.245876
 30
0.0
 40
4.188
  0
LINE
  5
E3C
100
AcDbEntity
  8
MSL5_120_3F-3
100
AcDbLine
 10
159.970286
 20
-126.245876
 30
0.0
 11
151.594286
 21
-126.245876
 31
0.0
  0
LINE
  5
E3D
100
AcDbEntity
  8
MSL5_120_3F-3
100
AcDbLine
 10
155.782286
 20
-128.663819
 30
0.0
 11
159.970286
 21
-126.245876
 31
0.0
  0
LINE
  5
E3E
100
AcDbEntity
  8
MSL5_120_3F-3
100
AcDbLine
 10
150.782286
 20
-120.245876
 30
0.0
 11
160.782286
 21
-120.245876
 31
0.0
  0
LINE
  5
E3F
100
AcDbEntity
  8
MSL5_120_3F-3
100
AcDbLine
 10
155.782286
 20
-128.663819
 30
0.0
 11
151.594286
 21
-126.245876
 31
0.0
  0
LINE
  5
E40
100
AcDbEntity
  8
MSL5_120_3F-0
100
AcDbLine
 10
187.282286
 20
-118.745947
 30
0.0
 11
187.282286
 21
-141.745947
 31
0.0
  0
LINE
  5
E41
100
AcDbEntity
  8
MSL5_120_3F-0
100
AcDbLine
 10
186.282286
 20
-141.745947
 30
0.0
 11
186.282286
 21
-118.745947
 31
0.0
  0
LINE
  5
E42
100
AcDbEntity
  8
MSL5_120_3F-0
100
AcDbLine
 10
172.782286
 20
-119.745947
 30
0.0
 11
172.782286
 21
-140.745947
 31
0.0
  0
LINE
  5
E43
100
AcDbEntity
  8
MSL5_120_3F-0
100
AcDbLine
 10
173.782286
 20
-118.745947
 30
0.0
 11
173.782286
 21
-141.745947
 31
0.0
  0
LINE
  5
E44
100
AcDbEntity
  8
MSL5_120_3F-0
100
AcDbLine
 10
173.782286
 20
-141.745947
 30
0.0
 11
186.282286
 21
-141.745947
 31
0.0
  0
LINE
  5
E45
100
AcDbEntity
  8
MSL5_120_3F-0
100
AcDbLine
 10
172.782286
 20
-140.745947
 30
0.0
 11
173.782286
 21
-141.745947
 31
0.0
  0
LINE
  5
E46
100
AcDbEntity
  8
MSL5_120_3F-0
100
AcDbLine
 10
187.282286
 20
-134.245947
 30
0.0
 11
186.282286
 21
-134.245947
 31
0.0
  0
LINE
  5
E47
100
AcDbEntity
  8
MSL5_120_3F-0
100
AcDbLine
 10
186.282286
 20
-118.745947
 30
0.0
 11
173.782286
 21
-118.745947
 31
0.0
  0
LINE
  5
E48
100
AcDbEntity
  8
MSL5_120_3F-0
100
AcDbLine
 10
173.782286
 20
-118.745947
 30
0.0
 11
172.782286
 21
-119.745947
 31
0.0
  0
LINE
  5
E49
100
AcDbEntity
  8
MSL5_120_3F-0
100
AcDbLine
 10
187.282286
 20
-126.245947
 30
0.0
 11
186.282286
 21
-126.245947
 31
0.0
  0
LINE
  5
E4A
100
AcDbEntity
  8
MSL5_120_3F-0
100
AcDbLine
 10
196.282286
 20
-252.245876
 30
0.0
 11
196.282286
 21
-143.518102
 31
0.0
  0
LINE
  5
E4B
100
AcDbEntity
  8
MSL5_120_3F-0
100
AcDbLine
 10
188.782286
 20
-222.740394
 30
0.0
 11
188.782286
 21
-237.751501
 31
0.0
  0
LINE
  5
E4C
100
AcDbEntity
  8
MSL5_120_3F-0
100
AcDbLine
 10
192.782286
 20
-237.607163
 30
0.0
 11
192.782286
 21
-222.884732
 31
0.0
  0
ARC
  5
E4D
100
AcDbEntity
  8
MSL5_120_3F-0
100
AcDbCircle
 10
195.890967
 20
-237.607163
 30
0.0
 40
3.108681
100
AcDbArc
 50
127.878142
 51
232.121858
  0
ARC
  5
E4E
100
AcDbEntity
  8
MSL5_120_3F-0
100
AcDbCircle
 10
190.220121
 20
-235.875113
 30
0.0
 40
2.562165
100
AcDbArc
 50
312.916664
 51
47.083336
  0
MTEXT
  5
E4F
100
AcDbEntity
  8
MSL5_120_3F-6
100
AcDbMText
 10
199.331697
 20
-246.192418
 30
0.0
 40
3.5
 41
22.192126
 71
     1
 72
     1
  1
{MSL5-120-3F}
  0
LINE
  5
E50
100
AcDbEntity
  8
MSL5_120_3F-0
100
AcDbLine
 10
195.782286
 20
-253.245947
 30
0.0
 11
237.767038
 21
-253.245947
 31
0.0
  0
LINE
  5
E51
100
AcDbEntity
  8
MSL5_120_3F-0
100
AcDbLine
 10
196.282286
 20
-252.245876
 30
0.0
 11
235.817607
 21
-252.245876
 31
0.0
  0
LINE
  5
E52
100
AcDbEntity
  8
MSL5_120_3F-0
100
AcDbLine
 10
193.963215
 20
-240.045947
 30
0.0
 11
195.782286
 21
-240.045947
 31
0.0
  0
LINE
  5
E53
100
AcDbEntity
  8
MSL5_120_3F-0
100
AcDbLine
 10
188.782286
 20
-237.751501
 30
0.0
 11
191.964786
 21
-237.751501
 31
0.0
  0
ELLIPSE
  5
E54
100
AcDbEntity
  8
MSL5_120_3F-0
100
AcDbEllipse
 10
239.782283
 20
-247.590199
 30
0.0
 11
5.499999999998895
 21
0.0000090659728525
 31
0.0
210
0.0
220
0.0
230
-1.0
 40
0.766044
 41
-3.141592653589791
 42
0.0000000000001632
  0
ELLIPSE
  5
E55
100
AcDbEntity
  8
MSL5_120_3F-0
100
AcDbEllipse
 10
239.782286
 20
-249.325716
 30
0.0
 11
5.500000000006366
 21
0.0
 31
0.0
210
0.0
220
0.0
230
1.0
 40
0.766044
 41
0.0
 42
6.2831853071796
  0
LINE
  5
E56
100
AcDbEntity
  8
MSL5_120_3F-7
100
AcDbLine
 10
231.282286
 20
-249.325728
 30
0.0
 11
248.282286
 21
-249.325714
 31
0.0
1001
GENIUS_GENODEF_13
1002
{
1000
HIER
1070
     0
1002
}
1002
{
1000
MANEDIT
1070
     0
1002
}
1002
{
1000
NOSEL
1070
     0
1002
}
1002
{
1000
BEHIND
1070
     0
1002
}
1002
{
1000
REACTOR
1002
}
1001
GENIUS_GENOBJ-N-CEN_13
1002
{
1000
OWNER
1000
GEN
1002
}
  0
LINE
  5
E57
100
AcDbEntity
  8
MSL5_120_3F-7
100
AcDbLine
 10
236.282284
 20
-260.534688
 30
0.0
 11
236.282292
 21
-249.341961
 31
0.0
  0
LINE
  5
E58
100
AcDbEntity
  8
MSL5_120_3F-7
100
AcDbLine
 10
236.282286
 20
-255.245876
 30
0.0
 11
236.282286
 21
-248.245876
 31
0.0
1001
GENIUS_GENODEF_13
1002
{
1000
HIER
1070
     0
1002
}
1002
{
1000
MANEDIT
1070
     0
1002
}
1002
{
1000
NOSEL
1070
     0
1002
}
1002
{
1000
BEHIND
1070
     0
1002
}
1002
{
1000
REACTOR
1002
}
1001
GENIUS_GENOBJ-N-CEN_13
1002
{
1000
OWNER
1000
GEN
1002
}
  0
LINE
  5
E59
100
AcDbEntity
  8
MSL5_120_3F-7
100
AcDbLine
 10
239.782286
 20
-242.112472
 30
0.0
 11
239.782286
 21
-256.538961
 31
0.0
1001
GENIUS_GENODEF_13
1002
{
1000
HIER
1070
     0
1002
}
1002
{
1000
MANEDIT
1070
     0
1002
}
1002
{
1000
NOSEL
1070
     0
1002
}
1002
{
1000
BEHIND
1070
     0
1002
}
1002
{
1000
REACTOR
1002
}
1001
GENIUS_GENOBJ-N-CEN_13
1002
{
1000
OWNER
1000
GEN
1002
}
  0
LINE
  5
E5A
100
AcDbEntity
  8
MSL5_120_3F-0
100
AcDbLine
 10
232.280946
 20
-257.74594
 30
0.0
 11
240.280946
 21
-257.745946
 31
0.0
  0
LINE
  5
E5B
100
AcDbEntity
  8
MSL5_120_3F-0
100
AcDbLine
 10
230.780949
 20
-253.245947
 30
0.0
 11
230.780947
 21
-256.245939
 31
0.0
  0
ARC
  5
E5C
100
AcDbEntity
  8
MSL5_120_3F-0
100
AcDbCircle
 10
232.280947
 20
-256.24594
 30
0.0
 40
1.5
100
AcDbArc
 50
179.99996
 51
269.999959
  0
ARC
  5
E5D
100
AcDbEntity
  8
MSL5_120_3F-0
100
AcDbCircle
 10
240.280947
 20
-256.245946
 30
0.0
 40
1.5
100
AcDbArc
 50
269.999959
 51
359.999962
  0
LINE
  5
E5E
100
AcDbEntity
  8
MSL5_120_3F-0
100
AcDbLine
 10
241.780947
 20
-256.245947
 30
0.0
 11
241.780949
 21
-253.245947
 31
0.0
  0
ELLIPSE
  5
E5F
100
AcDbEntity
  8
MSL5_120_3F-0
100
AcDbEllipse
 10
239.782286
 20
-249.325716
 30
0.0
 11
2.000000000006366
 21
0.0
 31
0.0
210
0.0
220
0.0
230
1.0
 40
0.766044
 41
0.0
 42
6.2831853071796
  0
LINE
  5
E60
100
AcDbEntity
  8
MSL5_120_3F-0
100
AcDbLine
 10
239.782288
 20
-250.611301
 30
0.0
 11
241.782286
 21
-249.325722
 31
0.0
  0
LINE
  5
E61
100
AcDbEntity
  8
MSL5_120_3F-0
100
AcDbLine
 10
234.282283
 20
-247.590199
 30
0.0
 11
234.282286
 21
-249.325744
 31
0.0
  0
LINE
  5
E62
100
AcDbEntity
  8
MSL5_120_3F-0
100
AcDbLine
 10
237.782286
 20
-249.325734
 30
0.0
 11
239.782288
 21
-250.611301
 31
0.0
  0
LINE
  5
E63
100
AcDbEntity
  8
MSL5_120_3F-0
100
AcDbLine
 10
245.282283
 20
-247.59019
 30
0.0
 11
245.282286
 21
-249.325716
 31
0.0
  0
ARC
  5
E64
100
AcDbEntity
  8
MSL5_120_3F-0
100
AcDbCircle
 10
195.890967
 20
-222.884732
 30
0.0
 40
3.108681
100
AcDbArc
 50
127.878142
 51
232.121858
  0
ARC
  5
E65
100
AcDbEntity
  8
MSL5_120_3F-0
100
AcDbCircle
 10
183.759876
 20
-230.245947
 30
0.0
 40
9.02241
100
AcDbArc
 50
335.421503
 51
24.578497
  0
ARC
  5
E66
100
AcDbEntity
  8
MSL5_120_3F-0
100
AcDbCircle
 10
203.417008
 20
-230.245947
 30
0.0
 40
10.634722
100
AcDbArc
 50
152.518771
 51
207.481229
  0
LINE
  5
E67
100
AcDbEntity
  8
MSL5_120_3F-0
100
AcDbLine
 10
192.782286
 20
-224.616782
 30
0.0
 11
192.782286
 21
-235.875113
 31
0.0
  0
LINE
  5
E68
100
AcDbEntity
  8
MSL5_120_3F-0
100
AcDbLine
 10
193.982286
 20
-235.153425
 30
0.0
 11
195.782286
 21
-235.153425
 31
0.0
  0
ARC
  5
E69
100
AcDbEntity
  8
MSL5_120_3F-0
100
AcDbCircle
 10
190.220121
 20
-224.616782
 30
0.0
 40
2.562165
100
AcDbArc
 50
312.916664
 51
47.083336
  0
LINE
  5
E6A
100
AcDbEntity
  8
MSL5_120_3F-0
100
AcDbLine
 10
193.982286
 20
-225.33847
 30
0.0
 11
195.782286
 21
-225.33847
 31
0.0
  0
LINE
  5
E6B
100
AcDbEntity
  8
MSL5_120_3F-0
100
AcDbLine
 10
191.964786
 20
-233.998724
 30
0.0
 11
188.782286
 21
-233.998724
 31
0.0
  0
LINE
  5
E6C
100
AcDbEntity
  8
MSL5_120_3F-0
100
AcDbLine
 10
191.964786
 20
-226.493171
 30
0.0
 11
188.782286
 21
-226.493171
 31
0.0
  0
LINE
  5
E6D
100
AcDbEntity
  8
MSL5_120_3F-0
100
AcDbLine
 10
191.964786
 20
-222.740394
 30
0.0
 11
188.782286
 21
-222.740394
 31
0.0
  0
LINE
  5
E6E
100
AcDbEntity
  8
MSL5_120_3F-0
100
AcDbLine
 10
195.782286
 20
-220.445947
 30
0.0
 11
193.963215
 21
-220.445947
 31
0.0
  0
ELLIPSE
  5
E6F
100
AcDbEntity
  8
MSL5_120_3F-0
100
AcDbEllipse
 10
209.782286
 20
-135.091684
 30
0.0
 11
-5.722385000000002
 21
0.0
 31
0.0
210
0.0
220
0.0
230
1.0
 40
0.766044
 41
0.0
 42
6.2831853071796
  0
ELLIPSE
  5
E70
100
AcDbEntity
  8
MSL5_120_3F-4
100
AcDbEllipse
 10
209.782286
 20
-135.091684
 30
0.0
 11
-6.578499999999991
 21
0.0
 31
0.0
210
0.0
220
0.0
230
1.0
 40
0.766044
 41
1.503876197756385
 42
6.396900936057455
  0
LINE
  5
E71
100
AcDbEntity
  8
MSL5_120_3F-7
100
AcDbLine
 10
200.203786
 20
-135.091684
 30
0.0
 11
219.360786
 21
-135.091684
 31
0.0
1001
GENIUS_GENODEF_13
1002
{
1000
HIER
1070
     0
1002
}
1002
{
1000
MANEDIT
1070
     0
1002
}
1002
{
1000
NOSEL
1070
     0
1002
}
1002
{
1000
BEHIND
1070
     0
1002
}
1002
{
1000
REACTOR
1002
}
1001
GENIUS_GENOBJ-N-CEN_13
1002
{
1000
OWNER
1000
GEN
1002
}
  0
LINE
  5
E72
100
AcDbEntity
  8
MSL5_120_3F-0
100
AcDbLine
 10
196.282286
 20
-143.518102
 30
0.0
 11
219.982286
 21
-143.518102
 31
0.0
  0
LINE
  5
E73
100
AcDbEntity
  8
MSL5_120_3F-0
100
AcDbLine
 10
219.982286
 20
-126.665124
 30
0.0
 11
196.282286
 21
-126.665124
 31
0.0
  0
ARC
  5
E74
100
AcDbEntity
  8
MSL5_120_3F-0
100
AcDbCircle
 10
178.957286
 20
-130.245947
 30
0.0
 40
16.825
100
AcDbArc
 50
329.020901
 51
30.979099
  0
ARC
  5
E75
100
AcDbEntity
  8
MSL5_120_3F-0
100
AcDbCircle
 10
204.607286
 20
-130.245947
 30
0.0
 40
16.825
100
AcDbArc
 50
149.0209
 51
210.9791
  0
ARC
  5
E76
100
AcDbEntity
  8
MSL5_120_3F-0
100
AcDbCircle
 10
190.676036
 20
-143.236329
 30
0.0
 40
5.10625
100
AcDbArc
 50
302.004628
 51
57.995372
  0
ARC
  5
E77
100
AcDbEntity
  8
MSL5_120_3F-0
100
AcDbCircle
 10
192.888536
 20
-143.236329
 30
0.0
 40
5.10625
100
AcDbArc
 50
122.004627
 51
237.995373
  0
LINE
  5
E78
100
AcDbEntity
  8
MSL5_120_3F-0
100
AcDbLine
 10
193.382286
 20
-138.906201
 30
0.0
 11
190.182286
 21
-138.906201
 31
0.0
  0
LINE
  5
E79
100
AcDbEntity
  8
MSL5_120_3F-0
100
AcDbLine
 10
193.382286
 20
-147.566456
 30
0.0
 11
190.182286
 21
-147.566456
 31
0.0
  0
LINE
  5
E7A
100
AcDbEntity
  8
MSL5_120_3F-0
100
AcDbLine
 10
193.382286
 20
-121.585693
 30
0.0
 11
190.182286
 21
-121.585693
 31
0.0
  0
LINE
  5
E7B
100
AcDbEntity
  8
MSL5_120_3F-0
100
AcDbLine
 10
219.982286
 20
-143.518102
 30
0.0
 11
219.982286
 21
-126.665124
 31
0.0
  0
LINE
  5
E7C
100
AcDbEntity
  8
MSL5_120_3F-7
100
AcDbLine
 10
209.782286
 20
-127.052261
 30
0.0
 11
209.782286
 21
-143.131107
 31
0.0
1001
GENIUS_GENODEF_13
1002
{
1000
HIER
1070
     0
1002
}
1002
{
1000
MANEDIT
1070
     0
1002
}
1002
{
1000
NOSEL
1070
     0
1002
}
1002
{
1000
BEHIND
1070
     0
1002
}
1002
{
1000
REACTOR
1002
}
1001
GENIUS_GENOBJ-N-CEN_13
1002
{
1000
OWNER
1000
GEN
1002
}
  0
LINE
  5
E7D
100
AcDbEntity
  8
MSL5_120_3F-7
100
AcDbLine
 10
297.782286
 20
-156.969465
 30
0.0
 11
297.782286
 21
-201.156995
 31
0.0
  0
LINE
  5
E7E
100
AcDbEntity
  8
MSL5_120_3F-7
100
AcDbLine
 10
297.782286
 20
-208.245876
 30
0.0
 11
290.693405
 21
-208.245876
 31
0.0
  0
CIRCLE
  5
E7F
100
AcDbEntity
  8
MSL5_120_3F-3
100
AcDbCircle
 10
297.782286
 20
-208.245876
 30
0.0
 40
5.0
  0
LINE
  5
E80
100
AcDbEntity
  8
MSL5_120_3F-7
100
AcDbLine
 10
267.782286
 20
-208.245876
 30
0.0
 11
267.782286
 21
-201.343978
 31
0.0
  0
CIRCLE
  5
E81
100
AcDbEntity
  8
MSL5_120_3F-3
100
AcDbCircle
 10
267.782286
 20
-208.245876
 30
0.0
 40
4.25
  0
ARC
  5
E82
100
AcDbEntity
  8
MSL5_120_3F-3
100
AcDbCircle
 10
267.782286
 20
-208.245876
 30
0.0
 40
5.0
100
AcDbArc
 50
82.606248
 51
7.300134
  0
LINE
  5
E83
100
AcDbEntity
  8
MSL5_120_3F-7
100
AcDbLine
 10
267.782286
 20
-208.245876
 30
0.0
 11
274.684184
 21
-208.245876
 31
0.0
  0
LINE
  5
E84
100
AcDbEntity
  8
MSL5_120_3F-7
100
AcDbLine
 10
267.782286
 20
-208.245876
 30
0.0
 11
267.782286
 21
-215.147774
 31
0.0
  0
LINE
  5
E85
100
AcDbEntity
  8
MSL5_120_3F-7
100
AcDbLine
 10
267.782286
 20
-208.245876
 30
0.0
 11
260.880388
 21
-208.245876
 31
0.0
  0
ARC
  5
E86
100
AcDbEntity
  8
MSL5_120_3F-3
100
AcDbCircle
 10
327.782286
 20
-208.245876
 30
0.0
 40
5.0
100
AcDbArc
 50
82.606248
 51
7.300134
  0
LINE
  5
E87
100
AcDbEntity
  8
MSL5_120_3F-7
100
AcDbLine
 10
327.782286
 20
-208.245876
 30
0.0
 11
327.782286
 21
-201.515086
 31
0.0
  0
CIRCLE
  5
E88
100
AcDbEntity
  8
MSL5_120_3F-3
100
AcDbCircle
 10
327.782286
 20
-208.245876
 30
0.0
 40
4.25
  0
LINE
  5
E89
100
AcDbEntity
  8
MSL5_120_3F-7
100
AcDbLine
 10
297.782286
 20
-208.245876
 30
0.0
 11
297.782286
 21
-201.156995
 31
0.0
  0
LINE
  5
E8A
100
AcDbEntity
  8
MSL5_120_3F-7
100
AcDbLine
 10
297.782286
 20
-208.245876
 30
0.0
 11
297.782286
 21
-215.334757
 31
0.0
  0
LINE
  5
E8B
100
AcDbEntity
  8
MSL5_120_3F-7
100
AcDbLine
 10
297.782286
 20
-208.245876
 30
0.0
 11
304.871167
 21
-208.245876
 31
0.0
  0
LINE
  5
E8C
100
AcDbEntity
  8
MSL5_120_3F-7
100
AcDbLine
 10
327.782286
 20
-208.245876
 30
0.0
 11
321.051496
 21
-208.245876
 31
0.0
  0
LINE
  5
E8D
100
AcDbEntity
  8
MSL5_120_3F-7
100
AcDbLine
 10
327.782286
 20
-208.245876
 30
0.0
 11
327.782286
 21
-214.976666
 31
0.0
  0
LINE
  5
E8E
100
AcDbEntity
  8
MSL5_120_3F-7
100
AcDbLine
 10
297.782286
 20
-148.245876
 30
0.0
 11
290.642537
 21
-148.245876
 31
0.0
  0
CIRCLE
  5
E8F
100
AcDbEntity
  8
MSL5_120_3F-3
100
AcDbCircle
 10
297.782286
 20
-148.245876
 30
0.0
 40
5.0
  0
LINE
  5
E90
100
AcDbEntity
  8
MSL5_120_3F-7
100
AcDbLine
 10
267.782286
 20
-148.245876
 30
0.0
 11
267.782286
 21
-141.428629
 31
0.0
  0
CIRCLE
  5
E91
100
AcDbEntity
  8
MSL5_120_3F-3
100
AcDbCircle
 10
267.782286
 20
-148.245876
 30
0.0
 40
4.25
  0
ARC
  5
E92
100
AcDbEntity
  8
MSL5_120_3F-3
100
AcDbCircle
 10
267.782286
 20
-148.245876
 30
0.0
 40
5.0
100
AcDbArc
 50
82.606248
 51
7.300134
  0
LINE
  5
E93
100
AcDbEntity
  8
MSL5_120_3F-7
100
AcDbLine
 10
267.782286
 20
-148.245876
 30
0.0
 11
274.599532
 21
-148.245876
 31
0.0
  0
LINE
  5
E94
100
AcDbEntity
  8
MSL5_120_3F-7
100
AcDbLine
 10
267.782286
 20
-148.245876
 30
0.0
 11
260.96504
 21
-148.245876
 31
0.0
  0
LINE
  5
E95
100
AcDbEntity
  8
MSL5_120_3F-7
100
AcDbLine
 10
267.782286
 20
-148.245876
 30
0.0
 11
267.782286
 21
-155.063122
 31
0.0
  0
LINE
  5
E96
100
AcDbEntity
  8
MSL5_120_3F-7
100
AcDbLine
 10
327.782286
 20
-148.245876
 30
0.0
 11
327.782286
 21
-141.403162
 31
0.0
  0
ARC
  5
E97
100
AcDbEntity
  8
MSL5_120_3F-3
100
AcDbCircle
 10
327.782286
 20
-148.245876
 30
0.0
 40
5.0
100
AcDbArc
 50
82.606248
 51
7.300134
  0
CIRCLE
  5
E98
100
AcDbEntity
  8
MSL5_120_3F-3
100
AcDbCircle
 10
327.782286
 20
-148.245876
 30
0.0
 40
4.25
  0
LINE
  5
E99
100
AcDbEntity
  8
MSL5_120_3F-7
100
AcDbLine
 10
297.782286
 20
-148.245876
 30
0.0
 11
297.782286
 21
-141.106127
 31
0.0
  0
LINE
  5
E9A
100
AcDbEntity
  8
MSL5_120_3F-7
100
AcDbLine
 10
297.782286
 20
-148.245876
 30
0.0
 11
297.782286
 21
-155.385624
 31
0.0
  0
LINE
  5
E9B
100
AcDbEntity
  8
MSL5_120_3F-7
100
AcDbLine
 10
297.782286
 20
-148.245876
 30
0.0
 11
304.922035
 21
-148.245876
 31
0.0
  0
LINE
  5
E9C
100
AcDbEntity
  8
MSL5_120_3F-7
100
AcDbLine
 10
327.782286
 20
-148.245876
 30
0.0
 11
320.939573
 21
-148.245876
 31
0.0
  0
LINE
  5
E9D
100
AcDbEntity
  8
MSL5_120_3F-7
100
AcDbLine
 10
327.782286
 20
-148.245876
 30
0.0
 11
327.782286
 21
-155.088589
 31
0.0
  0
LINE
  5
E9E
100
AcDbEntity
  8
MSL5_120_3F-0
100
AcDbLine
 10
172.782286
 20
105.5
 30
0.0
 11
195.782286
 21
105.5
 31
0.0
  0
LINE
  5
E9F
100
AcDbEntity
  8
MSL5_120_3F-0
100
AcDbLine
 10
187.782286
 20
64.0
 30
0.0
 11
187.282286
 21
63.5
 31
0.0
  0
LINE
  5
EA0
100
AcDbEntity
  8
MSL5_120_3F-0
100
AcDbLine
 10
195.782286
 20
80.5
 30
0.0
 11
172.782286
 21
80.5
 31
0.0
  0
LINE
  5
EA1
100
AcDbEntity
  8
MSL5_120_3F-0
100
AcDbLine
 10
187.282286
 20
40.5
 30
0.0
 11
187.782286
 21
40.0
 31
0.0
  0
LINE
  5
EA2
100
AcDbEntity
  8
MSL5_120_3F-7
100
AcDbLine
 10
169.538634
 20
52.0
 30
0.0
 11
199.457847
 21
52.0
 31
0.0
  0
LINE
  5
EA3
100
AcDbEntity
  8
MSL5_120_3F-0
100
AcDbLine
 10
172.782286
 20
12.5
 30
0.0
 11
195.782286
 21
12.5
 31
0.0
  0
LINE
  5
EA4
100
AcDbEntity
  8
MSL5_120_3F-0
100
AcDbLine
 10
195.782286
 20
13.5
 30
0.0
 11
177.782286
 21
13.5
 31
0.0
  0
LINE
  5
EA5
100
AcDbEntity
  8
MSL5_120_3F-0
100
AcDbLine
 10
177.782286
 20
-13.5
 30
0.0
 11
195.782286
 21
-13.5
 31
0.0
  0
LINE
  5
EA6
100
AcDbEntity
  8
MSL5_120_3F-0
100
AcDbLine
 10
195.782286
 20
-12.5
 30
0.0
 11
172.782286
 21
-12.5
 31
0.0
  0
LINE
  5
EA7
100
AcDbEntity
  8
MSL5_120_3F-0
100
AcDbLine
 10
189.179579
 20
-113.745947
 30
0.0
 11
172.782286
 21
-113.745947
 31
0.0
  0
LINE
  5
EA8
100
AcDbEntity
  8
MSL5_120_3F-7
100
AcDbLine
 10
144.782286
 20
0.0
 30
0.0
 11
204.787278
 21
0.0
 31
0.0
  0
LINE
  5
EA9
100
AcDbEntity
  8
MSL5_120_3F-7
100
AcDbLine
 10
144.782286
 20
93.0
 30
0.0
 11
204.787278
 21
93.0
 31
0.0
  0
LINE
  5
EAA
100
AcDbEntity
  8
MSL5_120_3F-0
100
AcDbLine
 10
172.782286
 20
-39.0
 30
0.0
 11
172.782286
 21
119.0
 31
0.0
  0
LINE
  5
EAB
100
AcDbEntity
  8
MSL5_120_3F-7
100
AcDbLine
 10
52.0
 20
0.0
 30
0.0
 11
52.0
 21
14.505568
 31
0.0
  0
LINE
  5
EAC
100
AcDbEntity
  8
MSL5_120_3F-0
100
AcDbLine
 10
75.0
 20
-39.0
 30
0.0
 11
75.0
 21
66.6
 31
0.0
1001
GENIUS_GENOREF_13
1005
1172
  0
LINE
  5
EAD
100
AcDbEntity
  8
MSL5_120_3F-0
100
AcDbLine
 10
147.782286
 20
-39.0
 30
0.0
 11
147.782286
 21
119.0
 31
0.0
  0
LINE
  5
EAE
100
AcDbEntity
  8
MSL5_120_3F-7
100
AcDbLine
 10
46.582057
 20
-30.0
 30
0.0
 11
78.0
 21
-30.0
 31
0.0
  0
LINE
  5
EAF
100
AcDbEntity
  8
MSL5_120_3F-3
100
AcDbLine
 10
49.582057
 20
-30.0
 30
0.0
 11
52.0
 21
-25.812
 31
0.0
  0
LINE
  5
EB0
100
AcDbEntity
  8
MSL5_120_3F-3
100
AcDbLine
 10
43.812
 20
-39.0
 30
0.0
 11
43.812
 21
-16.0
 31
0.0
  0
LINE
  5
EB1
100
AcDbEntity
  8
MSL5_120_3F-3
100
AcDbLine
 10
43.812
 20
-39.0
 30
0.0
 11
43.812
 21
-16.0
 31
0.0
  0
LINE
  5
EB2
100
AcDbEntity
  8
MSL5_120_3F-3
100
AcDbLine
 10
43.0
 20
-39.0
 30
0.0
 11
43.0
 21
-22.0
 31
0.0
  0
LINE
  5
EB3
100
AcDbEntity
  8
MSL5_120_3F-3
100
AcDbLine
 10
43.0
 20
-39.0
 30
0.0
 11
43.0
 21
-22.0
 31
0.0
  0
LINE
  5
EB4
100
AcDbEntity
  8
MSL5_120_3F-7
100
AcDbLine
 10
48.0
 20
-10.582057
 30
0.0
 11
48.0
 21
-42.0
 31
0.0
  0
LINE
  5
EB5
100
AcDbEntity
  8
MSL5_120_3F-7
100
AcDbLine
 10
48.0
 20
-10.582057
 30
0.0
 11
48.0
 21
-41.0
 31
0.0
  0
LINE
  5
EB6
100
AcDbEntity
  8
MSL5_120_3F-3
100
AcDbLine
 10
52.188
 20
-39.0
 30
0.0
 11
52.188
 21
-16.0
 31
0.0
  0
LINE
  5
EB7
100
AcDbEntity
  8
MSL5_120_3F-3
100
AcDbLine
 10
52.188
 20
-39.0
 30
0.0
 11
52.188
 21
-16.0
 31
0.0
  0
LINE
  5
EB8
100
AcDbEntity
  8
MSL5_120_3F-3
100
AcDbLine
 10
53.0
 20
-39.0
 30
0.0
 11
53.0
 21
-22.0
 31
0.0
  0
LINE
  5
EB9
100
AcDbEntity
  8
MSL5_120_3F-3
100
AcDbLine
 10
53.0
 20
-39.0
 30
0.0
 11
53.0
 21
-22.0
 31
0.0
  0
LINE
  5
EBA
100
AcDbEntity
  8
MSL5_120_3F-3
100
AcDbLine
 10
52.0
 20
-34.188
 30
0.0
 11
52.0
 21
-25.812
 31
0.0
  0
LINE
  5
EBB
100
AcDbEntity
  8
MSL5_120_3F-3
100
AcDbLine
 10
58.0
 20
-35.0
 30
0.0
 11
58.0
 21
-25.0
 31
0.0
  0
LINE
  5
EBC
100
AcDbEntity
  8
MSL5_120_3F-3
100
AcDbLine
 10
75.0
 20
-34.188
 30
0.0
 11
52.0
 21
-34.188
 31
0.0
  0
LINE
  5
EBD
100
AcDbEntity
  8
MSL5_120_3F-3
100
AcDbLine
 10
75.0
 20
-35.0
 30
0.0
 11
58.0
 21
-35.0
 31
0.0
  0
LINE
  5
EBE
100
AcDbEntity
  8
MSL5_120_3F-3
100
AcDbLine
 10
49.582057
 20
-30.0
 30
0.0
 11
52.0
 21
-34.188
 31
0.0
  0
LINE
  5
EBF
100
AcDbEntity
  8
MSL5_120_3F-7
100
AcDbLine
 10
52.0
 20
0.0
 30
0.0
 11
66.505568
 21
0.0
 31
0.0
  0
LINE
  5
EC0
100
AcDbEntity
  8
MSL5_120_3F-3
100
AcDbLine
 10
75.0
 20
-25.812
 30
0.0
 11
52.0
 21
-25.812
 31
0.0
  0
LINE
  5
EC1
100
AcDbEntity
  8
MSL5_120_3F-3
100
AcDbLine
 10
75.0
 20
-25.0
 30
0.0
 11
58.0
 21
-25.0
 31
0.0
  0
LINE
  5
EC2
100
AcDbEntity
  8
MSL5_120_3F-3
100
AcDbLine
 10
48.0
 20
-13.582057
 30
0.0
 11
52.188
 21
-16.0
 31
0.0
  0
LINE
  5
EC3
100
AcDbEntity
  8
MSL5_120_3F-3
100
AcDbLine
 10
48.0
 20
-13.582057
 30
0.0
 11
52.188
 21
-16.0
 31
0.0
  0
LINE
  5
EC4
100
AcDbEntity
  8
MSL5_120_3F-7
100
AcDbLine
 10
52.0
 20
0.0
 30
0.0
 11
52.0
 21
-14.505568
 31
0.0
  0
LINE
  5
EC5
100
AcDbEntity
  8
MSL5_120_3F-3
100
AcDbLine
 10
48.0
 20
-13.582057
 30
0.0
 11
43.812
 21
-16.0
 31
0.0
  0
LINE
  5
EC6
100
AcDbEntity
  8
MSL5_120_3F-3
100
AcDbLine
 10
48.0
 20
-13.582057
 30
0.0
 11
43.812
 21
-16.0
 31
0.0
  0
LINE
  5
EC7
100
AcDbEntity
  8
MSL5_120_3F-3
100
AcDbLine
 10
43.0
 20
-22.0
 30
0.0
 11
53.0
 21
-22.0
 31
0.0
  0
LINE
  5
EC8
100
AcDbEntity
  8
MSL5_120_3F-3
100
AcDbLine
 10
43.0
 20
-22.0
 30
0.0
 11
53.0
 21
-22.0
 31
0.0
  0
LINE
  5
EC9
100
AcDbEntity
  8
MSL5_120_3F-3
100
AcDbLine
 10
43.812
 20
-16.0
 30
0.0
 11
52.188
 21
-16.0
 31
0.0
  0
LINE
  5
ECA
100
AcDbEntity
  8
MSL5_120_3F-3
100
AcDbLine
 10
43.812
 20
-16.0
 30
0.0
 11
52.188
 21
-16.0
 31
0.0
  0
LINE
  5
ECB
100
AcDbEntity
  8
MSL5_120_3F-0
100
AcDbLine
 10
172.782286
 20
-103.245947
 30
0.0
 11
147.782286
 21
-103.245947
 31
0.0
  0
LINE
  5
ECC
100
AcDbEntity
  8
MSL5_120_3F-7
100
AcDbLine
 10
147.782286
 20
-30.0
 30
0.0
 11
163.782286
 21
-30.0
 31
0.0
  0
LINE
  5
ECD
100
AcDbEntity
  8
MSL5_120_3F-0
100
AcDbLine
 10
172.782286
 20
-39.0
 30
0.0
 11
147.782286
 21
-39.0
 31
0.0
  0
LINE
  5
ECE
100
AcDbEntity
  8
MSL5_120_3F-7
100
AcDbLine
 10
174.782286
 20
-30.0
 30
0.0
 11
145.782286
 21
-30.0
 31
0.0
  0
LINE
  5
ECF
100
AcDbEntity
  8
MSL5_120_3F-3
100
AcDbLine
 10
169.782286
 20
-39.0
 30
0.0
 11
169.782286
 21
-22.0
 31
0.0
  0
LINE
  5
ED0
100
AcDbEntity
  8
MSL5_120_3F-3
100
AcDbLine
 10
169.782286
 20
-39.0
 30
0.0
 11
169.782286
 21
-22.0
 31
0.0
  0
LINE
  5
ED1
100
AcDbEntity
  8
MSL5_120_3F-3
100
AcDbLine
 10
168.970286
 20
-39.0
 30
0.0
 11
168.970286
 21
-16.0
 31
0.0
  0
LINE
  5
ED2
100
AcDbEntity
  8
MSL5_120_3F-3
100
AcDbLine
 10
168.970286
 20
-39.0
 30
0.0
 11
168.970286
 21
-16.0
 31
0.0
  0
ARC
  5
ED3
100
AcDbEntity
  8
MSL5_120_3F-4
100
AcDbCircle
 10
155.782286
 20
-30.0
 30
0.0
 40
5.0
100
AcDbArc
 50
280.0
 51
210.0
  0
CIRCLE
  5
ED4
100
AcDbEntity
  8
MSL5_120_3F-0
100
AcDbCircle
 10
155.782286
 20
-30.0
 30
0.0
 40
4.188
  0
LINE
  5
ED5
100
AcDbEntity
  8
MSL5_120_3F-7
100
AcDbLine
 10
155.782286
 20
-38.0
 30
0.0
 11
155.782286
 21
-22.0
 31
0.0
  0
LINE
  5
ED6
100
AcDbEntity
  8
MSL5_120_3F-3
100
AcDbLine
 10
160.594286
 20
-39.0
 30
0.0
 11
160.594286
 21
-16.0
 31
0.0
  0
LINE
  5
ED7
100
AcDbEntity
  8
MSL5_120_3F-3
100
AcDbLine
 10
160.594286
 20
-39.0
 30
0.0
 11
160.594286
 21
-16.0
 31
0.0
  0
LINE
  5
ED8
100
AcDbEntity
  8
MSL5_120_3F-3
100
AcDbLine
 10
159.782286
 20
-39.0
 30
0.0
 11
159.782286
 21
-22.0
 31
0.0
  0
LINE
  5
ED9
100
AcDbEntity
  8
MSL5_120_3F-3
100
AcDbLine
 10
159.782286
 20
-39.0
 30
0.0
 11
159.782286
 21
-22.0
 31
0.0
  0
LINE
  5
EDA
100
AcDbEntity
  8
MSL5_120_3F-7
100
AcDbLine
 10
164.782286
 20
-10.582057
 30
0.0
 11
164.782286
 21
-42.0
 31
0.0
  0
LINE
  5
EDB
100
AcDbEntity
  8
MSL5_120_3F-7
100
AcDbLine
 10
164.782286
 20
-10.582057
 30
0.0
 11
164.782286
 21
-42.0
 31
0.0
  0
LINE
  5
EDC
100
AcDbEntity
  8
MSL5_120_3F-3
100
AcDbLine
 10
159.782286
 20
-22.0
 30
0.0
 11
169.782286
 21
-22.0
 31
0.0
  0
LINE
  5
EDD
100
AcDbEntity
  8
MSL5_120_3F-3
100
AcDbLine
 10
159.782286
 20
-22.0
 30
0.0
 11
169.782286
 21
-22.0
 31
0.0
  0
LINE
  5
EDE
100
AcDbEntity
  8
MSL5_120_3F-3
100
AcDbLine
 10
164.782286
 20
-13.582057
 30
0.0
 11
160.594286
 21
-16.0
 31
0.0
  0
LINE
  5
EDF
100
AcDbEntity
  8
MSL5_120_3F-3
100
AcDbLine
 10
164.782286
 20
-13.582057
 30
0.0
 11
160.594286
 21
-16.0
 31
0.0
  0
LINE
  5
EE0
100
AcDbEntity
  8
MSL5_120_3F-3
100
AcDbLine
 10
164.782286
 20
-13.582057
 30
0.0
 11
168.970286
 21
-16.0
 31
0.0
  0
LINE
  5
EE1
100
AcDbEntity
  8
MSL5_120_3F-3
100
AcDbLine
 10
164.782286
 20
-13.582057
 30
0.0
 11
168.970286
 21
-16.0
 31
0.0
  0
LINE
  5
EE2
100
AcDbEntity
  8
MSL5_120_3F-3
100
AcDbLine
 10
160.594286
 20
-16.0
 30
0.0
 11
168.970286
 21
-16.0
 31
0.0
  0
LINE
  5
EE3
100
AcDbEntity
  8
MSL5_120_3F-3
100
AcDbLine
 10
160.594286
 20
-16.0
 30
0.0
 11
168.970286
 21
-16.0
 31
0.0
  0
LINE
  5
EE4
100
AcDbEntity
  8
MSL5_120_3F-0
100
AcDbLine
 10
176.782286
 20
-12.5
 30
0.0
 11
177.782286
 21
-13.5
 31
0.0
  0
LINE
  5
EE5
100
AcDbEntity
  8
MSL5_120_3F-0
100
AcDbLine
 10
177.782286
 20
-12.5
 30
0.0
 11
177.782286
 21
-13.5
 31
0.0
  0
LINE
  5
EE6
100
AcDbEntity
  8
MSL5_120_3F-3
100
AcDbLine
 10
74.0
 20
67.4391
 30
0.0
 11
74.0
 21
38.0
 31
0.0
1001
GENIUS_GENBH_13
1002
{
1000
OE
1000
CON1
1002
}
1001
GENIUS_GENOREF_13
1005
1171
  0
LINE
  5
EE7
100
AcDbEntity
  8
MSL5_120_3F-7
100
AcDbLine
 10
46.582057
 20
30.0
 30
0.0
 11
78.0
 21
30.0
 31
0.0
  0
LINE
  5
EE8
100
AcDbEntity
  8
MSL5_120_3F-7
100
AcDbLine
 10
46.582057
 20
30.0
 30
0.0
 11
78.0
 21
30.0
 31
0.0
  0
LINE
  5
EE9
100
AcDbEntity
  8
MSL5_120_3F-3
100
AcDbLine
 10
49.582057
 20
30.0
 30
0.0
 11
52.0
 21
34.188
 31
0.0
  0
LINE
  5
EEA
100
AcDbEntity
  8
MSL5_120_3F-3
100
AcDbLine
 10
49.582057
 20
30.0
 30
0.0
 11
52.0
 21
34.188
 31
0.0
  0
LINE
  5
EEB
100
AcDbEntity
  8
MSL5_120_3F-3
100
AcDbLine
 10
52.0
 20
25.812
 30
0.0
 11
52.0
 21
34.188
 31
0.0
  0
LINE
  5
EEC
100
AcDbEntity
  8
MSL5_120_3F-3
100
AcDbLine
 10
52.0
 20
25.812
 30
0.0
 11
52.0
 21
34.188
 31
0.0
  0
LINE
  5
EED
100
AcDbEntity
  8
MSL5_120_3F-3
100
AcDbLine
 10
58.0
 20
25.0
 30
0.0
 11
58.0
 21
35.0
 31
0.0
  0
LINE
  5
EEE
100
AcDbEntity
  8
MSL5_120_3F-3
100
AcDbLine
 10
58.0
 20
25.0
 30
0.0
 11
58.0
 21
35.0
 31
0.0
  0
LINE
  5
EEF
100
AcDbEntity
  8
MSL5_120_3F-3
100
AcDbLine
 10
75.0
 20
25.0
 30
0.0
 11
58.0
 21
25.0
 31
0.0
  0
LINE
  5
EF0
100
AcDbEntity
  8
MSL5_120_3F-3
100
AcDbLine
 10
75.0
 20
25.0
 30
0.0
 11
58.0
 21
25.0
 31
0.0
  0
LINE
  5
EF1
100
AcDbEntity
  8
MSL5_120_3F-3
100
AcDbLine
 10
75.0
 20
25.812
 30
0.0
 11
52.0
 21
25.812
 31
0.0
  0
LINE
  5
EF2
100
AcDbEntity
  8
MSL5_120_3F-3
100
AcDbLine
 10
75.0
 20
25.812
 30
0.0
 11
52.0
 21
25.812
 31
0.0
  0
LINE
  5
EF3
100
AcDbEntity
  8
MSL5_120_3F-3
100
AcDbLine
 10
49.582057
 20
30.0
 30
0.0
 11
52.0
 21
25.812
 31
0.0
  0
LINE
  5
EF4
100
AcDbEntity
  8
MSL5_120_3F-3
100
AcDbLine
 10
49.582057
 20
30.0
 30
0.0
 11
52.0
 21
25.812
 31
0.0
  0
LINE
  5
EF5
100
AcDbEntity
  8
MSL5_120_3F-3
100
AcDbLine
 10
75.0
 20
35.0
 30
0.0
 11
58.0
 21
35.0
 31
0.0
  0
LINE
  5
EF6
100
AcDbEntity
  8
MSL5_120_3F-3
100
AcDbLine
 10
75.0
 20
34.188
 30
0.0
 11
52.0
 21
34.188
 31
0.0
  0
LINE
  5
EF7
100
AcDbEntity
  8
MSL5_120_3F-3
100
AcDbLine
 10
75.0
 20
34.188
 30
0.0
 11
52.0
 21
34.188
 31
0.0
  0
LINE
  5
EF8
100
AcDbEntity
  8
MSL5_120_3F-3
100
AcDbLine
 10
75.0
 20
35.0
 30
0.0
 11
58.0
 21
35.0
 31
0.0
  0
LINE
  5
EF9
100
AcDbEntity
  8
MSL5_120_3F-3
100
AcDbLine
 10
47.537864
 20
90.967807
 30
0.0
 11
41.109988
 21
83.307363
 31
0.0
  0
LINE
  5
EFA
100
AcDbEntity
  8
MSL5_120_3F-3
100
AcDbLine
 10
48.193686
 20
90.417507
 30
0.0
 11
41.76581
 21
82.757063
 31
0.0
  0
LINE
  5
EFB
100
AcDbEntity
  8
MSL5_120_3F-3
100
AcDbLine
 10
50.937964
 20
86.809377
 30
0.0
 11
51.580752
 21
87.575422
 31
0.0
  0
LINE
  5
EFC
100
AcDbEntity
  8
MSL5_120_3F-0
100
AcDbLine
 10
72.365354
 20
76.270484
 30
0.0
 11
72.161916
 21
72.916589
 31
0.0
  0
LINE
  5
EFD
100
AcDbEntity
  8
MSL5_120_3F-7
100
AcDbLine
 10
73.301727
 20
77.386409
 30
0.0
 11
68.331701
 21
71.463363
 31
0.0
  0
LINE
  5
EFE
100
AcDbEntity
  8
MSL5_120_3F-0
100
AcDbLine
 10
74.843072
 20
70.666832
 30
0.0
 11
66.416583
 21
77.737496
 31
0.0
  0
LINE
  5
EFF
100
AcDbEntity
  8
MSL5_120_3F-0
100
AcDbLine
 10
74.0
 20
67.830823
 30
0.0
 11
74.0
 21
67.4391
 31
0.0
1001
GENIUS_GENOREF_13
1005
1171
  0
LINE
  5
F00
100
AcDbEntity
  8
MSL5_120_3F-3
100
AcDbLine
 10
72.766044
 20
68.473611
 30
0.0
 11
73.532089
 21
69.116399
 31
0.0
  0
ARC
  5
F01
100
AcDbEntity
  8
MSL5_120_3F-0
100
AcDbCircle
 10
72.0
 20
67.830823
 30
0.0
 40
2.0
100
AcDbArc
 50
360.0
 51
50.0
1001
GENIUS_GENODEF_13
1002
{
1000
HIER
1070
     0
1002
}
1002
{
1000
MANEDIT
1070
     0
1002
}
1002
{
1000
NOSEL
1070
     0
1002
}
1002
{
1000
BEHIND
1070
     0
1002
}
1002
{
1000
REACTOR
1002
}
1001
GENIUS_GENOBJ-N-FIL_13
1002
{
1000
OWNER
1000
GEN
1002
}
  0
LINE
  5
F02
100
AcDbEntity
  8
MSL5_120_3F-0
100
AcDbLine
 10
73.557497
 20
69.134743
 30
0.0
 11
74.843072
 21
70.666832
 31
0.0
  0
LINE
  5
F03
100
AcDbEntity
  8
MSL5_120_3F-0
100
AcDbLine
 10
66.416583
 20
77.737496
 30
0.0
 11
65.131008
 21
76.205407
 31
0.0
  0
LINE
  5
F04
100
AcDbEntity
  8
MSL5_120_3F-3
100
AcDbLine
 10
64.564825
 20
75.375084
 30
0.0
 11
65.207612
 21
76.141128
 31
0.0
  0
LINE
  5
F05
100
AcDbEntity
  8
MSL5_120_3F-0
100
AcDbLine
 10
69.097739
 20
75.487739
 30
0.0
 11
72.365354
 21
76.270484
 31
0.0
  0
LINE
  5
F06
100
AcDbEntity
  8
MSL5_120_3F-0
100
AcDbLine
 10
173.782286
 20
63.5
 30
0.0
 11
173.782286
 21
40.5
 31
0.0
  0
LINE
  5
F07
100
AcDbEntity
  8
MSL5_120_3F-0
100
AcDbLine
 10
172.782286
 20
62.5
 30
0.0
 11
172.782286
 21
41.5
 31
0.0
  0
LINE
  5
F08
100
AcDbEntity
  8
MSL5_120_3F-0
100
AcDbLine
 10
187.282286
 20
63.5
 30
0.0
 11
187.282286
 21
40.5
 31
0.0
  0
LINE
  5
F09
100
AcDbEntity
  8
MSL5_120_3F-0
100
AcDbLine
 10
186.282286
 20
40.5
 30
0.0
 11
186.282286
 21
63.5
 31
0.0
  0
LINE
  5
F0A
100
AcDbEntity
  8
MSL5_120_3F-7
100
AcDbLine
 10
147.782286
 20
30.0
 30
0.0
 11
163.782286
 21
30.0
 31
0.0
  0
LINE
  5
F0B
100
AcDbEntity
  8
MSL5_120_3F-7
100
AcDbLine
 10
174.782286
 20
30.0
 30
0.0
 11
145.782286
 21
30.0
 31
0.0
  0
ARC
  5
F0C
100
AcDbEntity
  8
MSL5_120_3F-4
100
AcDbCircle
 10
155.782286
 20
30.0
 30
0.0
 40
5.0
100
AcDbArc
 50
280.0
 51
210.0
  0
CIRCLE
  5
F0D
100
AcDbEntity
  8
MSL5_120_3F-0
100
AcDbCircle
 10
155.782286
 20
30.0
 30
0.0
 40
4.188
  0
LINE
  5
F0E
100
AcDbEntity
  8
MSL5_120_3F-7
100
AcDbLine
 10
155.782286
 20
22.0
 30
0.0
 11
155.782286
 21
38.0
 31
0.0
  0
LINE
  5
F0F
100
AcDbEntity
  8
MSL5_120_3F-0
100
AcDbLine
 10
177.782286
 20
13.5
 30
0.0
 11
177.782286
 21
12.5
 31
0.0
  0
LINE
  5
F10
100
AcDbEntity
  8
MSL5_120_3F-0
100
AcDbLine
 10
177.782286
 20
13.5
 30
0.0
 11
176.782286
 21
12.5
 31
0.0
  0
LINE
  5
F11
100
AcDbEntity
  8
MSL5_120_3F-0
100
AcDbLine
 10
173.782286
 20
40.5
 30
0.0
 11
186.282286
 21
40.5
 31
0.0
  0
LINE
  5
F12
100
AcDbEntity
  8
MSL5_120_3F-0
100
AcDbLine
 10
172.782286
 20
41.5
 30
0.0
 11
173.782286
 21
40.5
 31
0.0
  0
LINE
  5
F13
100
AcDbEntity
  8
MSL5_120_3F-0
100
AcDbLine
 10
187.282286
 20
48.0
 30
0.0
 11
186.282286
 21
48.0
 31
0.0
  0
LINE
  5
F14
100
AcDbEntity
  8
MSL5_120_3F-0
100
AcDbLine
 10
187.282286
 20
56.0
 30
0.0
 11
186.282286
 21
56.0
 31
0.0
  0
LINE
  5
F15
100
AcDbEntity
  8
MSL5_120_3F-0
100
AcDbLine
 10
147.782286
 20
119.0
 30
0.0
 11
172.782286
 21
119.0
 31
0.0
  0
LINE
  5
F16
100
AcDbEntity
  8
MSL5_120_3F-0
100
AcDbLine
 10
147.782286
 20
66.6
 30
0.0
 11
172.782286
 21
66.6
 31
0.0
  0
LINE
  5
F17
100
AcDbEntity
  8
MSL5_120_3F-0
100
AcDbLine
 10
186.282286
 20
63.5
 30
0.0
 11
173.782286
 21
63.5
 31
0.0
  0
LINE
  5
F18
100
AcDbEntity
  8
MSL5_120_3F-0
100
AcDbLine
 10
173.782286
 20
63.5
 30
0.0
 11
172.782286
 21
62.5
 31
0.0
  0
LINE
  5
F19
100
AcDbEntity
  8
MSL5_120_3F-7
100
AcDbLine
 10
297.782286
 20
21.276411
 30
0.0
 11
297.782286
 21
-22.911119
 31
0.0
  0
LINE
  5
F1A
100
AcDbEntity
  8
MSL5_120_3F-0
100
AcDbLine
 10
195.782286
 20
-38.0
 30
0.0
 11
195.782286
 21
119.0
 31
0.0
  0
LINE
  5
F1B
100
AcDbEntity
  8
MSL5_120_3F-0
100
AcDbLine
 10
195.782286
 20
-113.745947
 30
0.0
 11
194.384993
 21
-113.745947
 31
0.0
  0
LINE
  5
F1C
100
AcDbEntity
  8
MSL5_120_3F-0
100
AcDbLine
 10
193.382286
 20
-112.925439
 30
0.0
 11
190.182286
 21
-112.925439
 31
0.0
  0
MTEXT
  5
F1D
100
AcDbEntity
  8
MSL5_120_3F-6
100
AcDbMText
 10
199.61058
 20
-31.114077
 30
0.0
 40
3.5
 41
22.192126
 71
     1
 72
     1
  1
{MSL5-120-3F}
  0
LINE
  5
F1E
100
AcDbEntity
  8
MSL5_120_3F-7
100
AcDbLine
 10
297.782286
 20
-30.0
 30
0.0
 11
290.693405
 21
-30.0
 31
0.0
  0
CIRCLE
  5
F1F
100
AcDbEntity
  8
MSL5_120_3F-0
100
AcDbCircle
 10
297.782286
 20
-30.0
 30
0.0
 40
5.0
  0
LINE
  5
F20
100
AcDbEntity
  8
MSL5_120_3F-7
100
AcDbLine
 10
267.782286
 20
-30.0
 30
0.0
 11
267.782286
 21
-23.098102
 31
0.0
  0
CIRCLE
  5
F21
100
AcDbEntity
  8
MSL5_120_3F-0
100
AcDbCircle
 10
267.782286
 20
-30.0
 30
0.0
 40
4.25
  0
ARC
  5
F22
100
AcDbEntity
  8
MSL5_120_3F-4
100
AcDbCircle
 10
267.782286
 20
-30.0
 30
0.0
 40
5.0
100
AcDbArc
 50
82.606248
 51
7.300134
  0
LINE
  5
F23
100
AcDbEntity
  8
MSL5_120_3F-7
100
AcDbLine
 10
267.782286
 20
-30.0
 30
0.0
 11
274.684184
 21
-30.0
 31
0.0
  0
LINE
  5
F24
100
AcDbEntity
  8
MSL5_120_3F-7
100
AcDbLine
 10
267.782286
 20
-30.0
 30
0.0
 11
260.880388
 21
-30.0
 31
0.0
  0
LINE
  5
F25
100
AcDbEntity
  8
MSL5_120_3F-7
100
AcDbLine
 10
267.782286
 20
-30.0
 30
0.0
 11
267.782286
 21
-36.901898
 31
0.0
  0
LINE
  5
F26
100
AcDbEntity
  8
MSL5_120_3F-7
100
AcDbLine
 10
327.782286
 20
-30.0
 30
0.0
 11
327.782286
 21
-23.26921
 31
0.0
  0
ARC
  5
F27
100
AcDbEntity
  8
MSL5_120_3F-4
100
AcDbCircle
 10
327.782286
 20
-30.0
 30
0.0
 40
5.0
100
AcDbArc
 50
82.606248
 51
7.300134
  0
CIRCLE
  5
F28
100
AcDbEntity
  8
MSL5_120_3F-0
100
AcDbCircle
 10
327.782286
 20
-30.0
 30
0.0
 40
4.25
  0
LINE
  5
F29
100
AcDbEntity
  8
MSL5_120_3F-7
100
AcDbLine
 10
297.782286
 20
-30.0
 30
0.0
 11
297.782286
 21
-22.911119
 31
0.0
  0
LINE
  5
F2A
100
AcDbEntity
  8
MSL5_120_3F-7
100
AcDbLine
 10
297.782286
 20
-30.0
 30
0.0
 11
297.782286
 21
-37.088881
 31
0.0
  0
LINE
  5
F2B
100
AcDbEntity
  8
MSL5_120_3F-7
100
AcDbLine
 10
297.782286
 20
-30.0
 30
0.0
 11
304.871167
 21
-30.0
 31
0.0
  0
LINE
  5
F2C
100
AcDbEntity
  8
MSL5_120_3F-7
100
AcDbLine
 10
327.782286
 20
-30.0
 30
0.0
 11
321.051496
 21
-30.0
 31
0.0
  0
LINE
  5
F2D
100
AcDbEntity
  8
MSL5_120_3F-7
100
AcDbLine
 10
327.782286
 20
-30.0
 30
0.0
 11
327.782286
 21
-36.73079
 31
0.0
  0
LINE
  5
F2E
100
AcDbEntity
  8
MSL5_120_3F-7
100
AcDbLine
 10
236.282286
 20
69.75
 30
0.0
 11
236.282286
 21
35.0
 31
0.0
1001
GENIUS_GENODEF_13
1002
{
1000
HIER
1070
     0
1002
}
1002
{
1000
MANEDIT
1070
     0
1002
}
1002
{
1000
NOSEL
1070
     0
1002
}
1002
{
1000
BEHIND
1070
     0
1002
}
1002
{
1000
REACTOR
1002
}
1001
GENIUS_GENOBJ-N-CEN_13
1002
{
1000
OWNER
1000
GEN
1002
}
  0
LINE
  5
F2F
100
AcDbEntity
  8
MSL5_120_3F-0
100
AcDbLine
 10
187.782286
 20
64.990382
 30
0.0
 11
187.782286
 21
39.009619
 31
0.0
  0
ARC
  5
F30
100
AcDbEntity
  8
MSL5_120_3F-0
100
AcDbCircle
 10
178.957286
 20
52.0
 30
0.0
 40
16.825
100
AcDbArc
 50
329.020901
 51
30.979099
  0
ARC
  5
F31
100
AcDbEntity
  8
MSL5_120_3F-0
100
AcDbCircle
 10
204.607286
 20
52.0
 30
0.0
 40
16.825
100
AcDbArc
 50
149.0209
 51
210.9791
  0
CIRCLE
  5
F32
100
AcDbEntity
  8
MSL5_120_3F-0
100
AcDbCircle
 10
236.282286
 20
62.0
 30
0.0
 40
5.501337
  0
LINE
  5
F33
100
AcDbEntity
  8
MSL5_120_3F-0
100
AcDbLine
 10
226.282286
 20
38.0
 30
0.0
 11
196.282286
 21
38.0
 31
0.0
  0
LINE
  5
F34
100
AcDbEntity
  8
MSL5_120_3F-4
100
AcDbLine
 10
226.282286
 20
40.0
 30
0.0
 11
196.282286
 21
40.0
 31
0.0
  0
ARC
  5
F35
100
AcDbEntity
  8
MSL5_120_3F-0
100
AcDbCircle
 10
190.676036
 20
39.009619
 30
0.0
 40
5.10625
100
AcDbArc
 50
302.004628
 51
57.995372
  0
ARC
  5
F36
100
AcDbEntity
  8
MSL5_120_3F-0
100
AcDbCircle
 10
192.888536
 20
39.009619
 30
0.0
 40
5.10625
100
AcDbArc
 50
122.004627
 51
237.995373
  0
LINE
  5
F37
100
AcDbEntity
  8
MSL5_120_3F-0
100
AcDbLine
 10
193.382286
 20
43.339746
 30
0.0
 11
190.182286
 21
43.339746
 31
0.0
  0
LINE
  5
F38
100
AcDbEntity
  8
MSL5_120_3F-0
100
AcDbLine
 10
193.382286
 20
34.679492
 30
0.0
 11
190.182286
 21
34.679492
 31
0.0
  0
LINE
  5
F39
100
AcDbEntity
  8
MSL5_120_3F-7
100
AcDbLine
 10
244.032286
 20
49.0
 30
0.0
 11
228.532286
 21
49.0
 31
0.0
1001
GENIUS_GENODEF_13
1002
{
1000
HIER
1070
     0
1002
}
1002
{
1000
MANEDIT
1070
     0
1002
}
1002
{
1000
NOSEL
1070
     0
1002
}
1002
{
1000
BEHIND
1070
     0
1002
}
1002
{
1000
REACTOR
1002
}
1001
GENIUS_GENOBJ-N-CEN_13
1002
{
1000
OWNER
1000
GEN
1002
}
  0
CIRCLE
  5
F3A
100
AcDbEntity
  8
MSL5_120_3F-0
100
AcDbCircle
 10
236.282286
 20
49.0
 30
0.0
 40
5.501337
  0
LINE
  5
F3B
100
AcDbEntity
  8
MSL5_120_3F-0
100
AcDbLine
 10
231.282286
 20
38.0
 30
0.0
 11
234.282286
 21
38.0
 31
0.0
  0
LINE
  5
F3C
100
AcDbEntity
  8
MSL5_120_3F-0
100
AcDbLine
 10
226.282286
 20
40.0
 30
0.0
 11
226.282286
 21
38.0
 31
0.0
  0
LINE
  5
F3D
100
AcDbEntity
  8
MSL5_120_3F-0
100
AcDbLine
 10
231.282286
 20
40.0
 30
0.0
 11
231.282286
 21
38.0
 31
0.0
  0
LINE
  5
F3E
100
AcDbEntity
  8
MSL5_120_3F-0
100
AcDbLine
 10
231.282286
 20
40.0
 30
0.0
 11
226.282286
 21
40.0
 31
0.0
  0
LINE
  5
F3F
100
AcDbEntity
  8
MSL5_120_3F-0
100
AcDbLine
 10
234.632286
 20
38.0
 30
0.0
 11
234.282286
 21
38.0
 31
0.0
  0
LINE
  5
F40
100
AcDbEntity
  8
MSL5_120_3F-0
100
AcDbLine
 10
237.932286
 20
43.751933
 30
0.0
 11
237.932286
 21
38.0
 31
0.0
  0
LINE
  5
F41
100
AcDbEntity
  8
MSL5_120_3F-0
100
AcDbLine
 10
234.632286
 20
43.751933
 30
0.0
 11
234.632286
 21
38.0
 31
0.0
  0
LINE
  5
F42
100
AcDbEntity
  8
MSL5_120_3F-0
100
AcDbLine
 10
237.932286
 20
56.751933
 30
0.0
 11
237.932286
 21
54.248067
 31
0.0
  0
LINE
  5
F43
100
AcDbEntity
  8
MSL5_120_3F-0
100
AcDbLine
 10
234.632286
 20
56.751933
 30
0.0
 11
234.632286
 21
54.248067
 31
0.0
  0
LINE
  5
F44
100
AcDbEntity
  8
MSL5_120_3F-7
100
AcDbLine
 10
209.782286
 20
101.874664
 30
0.0
 11
209.782286
 21
87.417507
 31
0.0
1001
GENIUS_GENODEF_13
1002
{
1000
HIER
1070
     0
1002
}
1002
{
1000
MANEDIT
1070
     0
1002
}
1002
{
1000
NOSEL
1070
     0
1002
}
1002
{
1000
BEHIND
1070
     0
1002
}
1002
{
1000
REACTOR
1002
}
1001
GENIUS_GENOBJ-N-CEN_13
1002
{
1000
OWNER
1000
GEN
1002
}
  0
ARC
  5
F45
100
AcDbEntity
  8
MSL5_120_3F-0
100
AcDbCircle
 10
190.676036
 20
64.990382
 30
0.0
 40
5.10625
100
AcDbArc
 50
302.004628
 51
57.995372
  0
ARC
  5
F46
100
AcDbEntity
  8
MSL5_120_3F-0
100
AcDbCircle
 10
192.888536
 20
64.990382
 30
0.0
 40
5.10625
100
AcDbArc
 50
122.004627
 51
237.995373
  0
LINE
  5
F47
100
AcDbEntity
  8
MSL5_120_3F-0
100
AcDbLine
 10
193.382286
 20
60.660254
 30
0.0
 11
190.182286
 21
60.660254
 31
0.0
  0
LINE
  5
F48
100
AcDbEntity
  8
MSL5_120_3F-0
100
AcDbLine
 10
193.382286
 20
69.320509
 30
0.0
 11
190.182286
 21
69.320509
 31
0.0
  0
ELLIPSE
  5
F49
100
AcDbEntity
  8
MSL5_120_3F-3
100
AcDbEllipse
 10
209.782286
 20
94.646085
 30
0.0
 11
-6.578500000000019
 21
0.0
 31
0.0
210
0.0
220
0.0
230
1.0
 40
0.642788
 41
1.514618869528128
 42
6.418462237826807
  0
ELLIPSE
  5
F4A
100
AcDbEntity
  8
MSL5_120_3F-3
100
AcDbEllipse
 10
209.782286
 20
94.646085
 30
0.0
 11
-5.722384999999974
 21
0.0
 31
0.0
210
0.0
220
0.0
230
1.0
 40
0.642788
 41
0.0
 42
6.2831853071796
  0
LINE
  5
F4B
100
AcDbEntity
  8
MSL5_120_3F-7
100
AcDbLine
 10
200.203786
 20
94.646085
 30
0.0
 11
219.360786
 21
94.646085
 31
0.0
1001
GENIUS_GENODEF_13
1002
{
1000
HIER
1070
     0
1002
}
1002
{
1000
MANEDIT
1070
     0
1002
}
1002
{
1000
NOSEL
1070
     0
1002
}
1002
{
1000
BEHIND
1070
     0
1002
}
1002
{
1000
REACTOR
1002
}
1001
GENIUS_GENOBJ-N-CEN_13
1002
{
1000
OWNER
1000
GEN
1002
}
  0
LINE
  5
F4C
100
AcDbEntity
  8
MSL5_120_3F-0
100
AcDbLine
 10
195.782286
 20
119.0
 30
0.0
 11
196.282286
 21
119.0
 31
0.0
  0
ELLIPSE
  5
F4D
100
AcDbEntity
  8
MSL5_120_3F-0
100
AcDbEllipse
 10
239.782286
 20
72.670075
 30
0.0
 11
5.5
 21
0.0
 31
0.0
210
0.0
220
0.0
230
1.0
 40
0.642788
 41
3.141592653589793
 42
6.283185307179918
  0
ELLIPSE
  5
F4E
100
AcDbEntity
  8
MSL5_120_3F-0
100
AcDbEllipse
 10
239.782286
 20
74.202164
 30
0.0
 11
5.5
 21
0.0
 31
0.0
210
0.0
220
0.0
230
1.0
 40
0.642788
 41
0.0
 42
6.2831853071796
  0
LINE
  5
F4F
100
AcDbEntity
  8
MSL5_120_3F-7
100
AcDbLine
 10
244.032286
 20
62.0
 30
0.0
 11
228.532286
 21
62.0
 31
0.0
1001
GENIUS_GENODEF_13
1002
{
1000
HIER
1070
     0
1002
}
1002
{
1000
MANEDIT
1070
     0
1002
}
1002
{
1000
NOSEL
1070
     0
1002
}
1002
{
1000
BEHIND
1070
     0
1002
}
1002
{
1000
REACTOR
1002
}
1001
GENIUS_GENOBJ-N-CEN_13
1002
{
1000
OWNER
1000
GEN
1002
}
  0
LINE
  5
F50
100
AcDbEntity
  8
MSL5_120_3F-7
100
AcDbLine
 10
248.182286
 20
72.670075
 30
0.0
 11
231.382286
 21
72.670075
 31
0.0
1001
GENIUS_GENODEF_13
1002
{
1000
HIER
1070
     0
1002
}
1002
{
1000
MANEDIT
1070
     0
1002
}
1002
{
1000
NOSEL
1070
     0
1002
}
1002
{
1000
BEHIND
1070
     0
1002
}
1002
{
1000
REACTOR
1002
}
1001
GENIUS_GENOBJ-N-CEN_13
1002
{
1000
OWNER
1000
GEN
1002
}
  0
LINE
  5
F51
100
AcDbEntity
  8
MSL5_120_3F-0
100
AcDbLine
 10
239.782286
 20
76.270484
 30
0.0
 11
241.782286
 21
74.202164
 31
0.0
  0
ELLIPSE
  5
F52
100
AcDbEntity
  8
MSL5_120_3F-0
100
AcDbEllipse
 10
239.782286
 20
74.202164
 30
0.0
 11
-2.0
 21
0.0
 31
0.0
210
0.0
220
0.0
230
1.0
 40
0.642788
 41
-1.112236758281635
 42
4.253829411871699
  0
LINE
  5
F53
100
AcDbEntity
  8
MSL5_120_3F-0
100
AcDbLine
 10
237.782286
 20
74.202164
 30
0.0
 11
239.782286
 21
76.270484
 31
0.0
  0
LINE
  5
F54
100
AcDbEntity
  8
MSL5_120_3F-7
100
AcDbLine
 10
239.782286
 20
78.375084
 30
0.0
 11
239.782286
 21
64.797004
 31
0.0
1001
GENIUS_GENODEF_13
1002
{
1000
HIER
1070
     0
1002
}
1002
{
1000
MANEDIT
1070
     0
1002
}
1002
{
1000
NOSEL
1070
     0
1002
}
1002
{
1000
BEHIND
1070
     0
1002
}
1002
{
1000
REACTOR
1002
}
1001
GENIUS_GENOBJ-N-CEN_13
1002
{
1000
OWNER
1000
GEN
1002
}
  0
LINE
  5
F55
100
AcDbEntity
  8
MSL5_120_3F-0
100
AcDbLine
 10
234.282286
 20
72.670075
 30
0.0
 11
234.282286
 21
74.202164
 31
0.0
  0
LINE
  5
F56
100
AcDbEntity
  8
MSL5_120_3F-0
100
AcDbLine
 10
245.282286
 20
72.670075
 30
0.0
 11
245.282286
 21
74.202164
 31
0.0
  0
LINE
  5
F57
100
AcDbEntity
  8
MSL5_120_3F-7
100
AcDbLine
 10
297.782286
 20
30.0
 30
0.0
 11
290.642537
 21
30.0
 31
0.0
  0
CIRCLE
  5
F58
100
AcDbEntity
  8
MSL5_120_3F-0
100
AcDbCircle
 10
297.782286
 20
30.0
 30
0.0
 40
5.0
  0
LINE
  5
F59
100
AcDbEntity
  8
MSL5_120_3F-7
100
AcDbLine
 10
267.782286
 20
30.0
 30
0.0
 11
267.782286
 21
36.817246
 31
0.0
  0
CIRCLE
  5
F5A
100
AcDbEntity
  8
MSL5_120_3F-0
100
AcDbCircle
 10
267.782286
 20
30.0
 30
0.0
 40
4.25
  0
ARC
  5
F5B
100
AcDbEntity
  8
MSL5_120_3F-4
100
AcDbCircle
 10
267.782286
 20
30.0
 30
0.0
 40
5.0
100
AcDbArc
 50
82.606248
 51
7.300134
  0
LINE
  5
F5C
100
AcDbEntity
  8
MSL5_120_3F-7
100
AcDbLine
 10
267.782286
 20
30.0
 30
0.0
 11
274.599532
 21
30.0
 31
0.0
  0
LINE
  5
F5D
100
AcDbEntity
  8
MSL5_120_3F-7
100
AcDbLine
 10
267.782286
 20
30.0
 30
0.0
 11
260.96504
 21
30.0
 31
0.0
  0
LINE
  5
F5E
100
AcDbEntity
  8
MSL5_120_3F-7
100
AcDbLine
 10
267.782286
 20
30.0
 30
0.0
 11
267.782286
 21
23.182754
 31
0.0
  0
LINE
  5
F5F
100
AcDbEntity
  8
MSL5_120_3F-7
100
AcDbLine
 10
327.782286
 20
30.0
 30
0.0
 11
327.782286
 21
36.842713
 31
0.0
  0
ARC
  5
F60
100
AcDbEntity
  8
MSL5_120_3F-4
100
AcDbCircle
 10
327.782286
 20
30.0
 30
0.0
 40
5.0
100
AcDbArc
 50
82.606248
 51
7.300134
  0
CIRCLE
  5
F61
100
AcDbEntity
  8
MSL5_120_3F-0
100
AcDbCircle
 10
327.782286
 20
30.0
 30
0.0
 40
4.25
  0
LINE
  5
F62
100
AcDbEntity
  8
MSL5_120_3F-7
100
AcDbLine
 10
297.782286
 20
30.0
 30
0.0
 11
297.782286
 21
37.139749
 31
0.0
  0
LINE
  5
F63
100
AcDbEntity
  8
MSL5_120_3F-7
100
AcDbLine
 10
297.782286
 20
30.0
 30
0.0
 11
297.782286
 21
22.860251
 31
0.0
  0
LINE
  5
F64
100
AcDbEntity
  8
MSL5_120_3F-7
100
AcDbLine
 10
297.782286
 20
30.0
 30
0.0
 11
304.922035
 21
30.0
 31
0.0
  0
LINE
  5
F65
100
AcDbEntity
  8
MSL5_120_3F-7
100
AcDbLine
 10
327.782286
 20
30.0
 30
0.0
 11
320.939573
 21
30.0
 31
0.0
  0
LINE
  5
F66
100
AcDbEntity
  8
MSL5_120_3F-7
100
AcDbLine
 10
327.782286
 20
30.0
 30
0.0
 11
327.782286
 21
23.157287
 31
0.0
  0
LINE
  5
F67
100
AcDbEntity
  8
MSL5_120_3F-0
100
AcDbLine
 10
0.0
 20
120.0
 30
0.0
 11
12.210704
 21
120.0
 31
0.0
  0
LINE
  5
F68
100
AcDbEntity
  8
MSL5_120_3F-0
100
AcDbLine
 10
0.0
 20
120.0
 30
0.0
 11
-12.210704
 21
120.0
 31
0.0
  0
LINE
  5
F69
100
AcDbEntity
  8
MSL5_120_3F-0
100
AcDbLine
 10
195.782286
 20
322.261134
 30
0.0
 11
172.782286
 21
322.261134
 31
0.0
  0
LINE
  5
F6A
100
AcDbEntity
  8
MSL5_120_3F-0
100
AcDbLine
 10
172.782286
 20
297.261134
 30
0.0
 11
195.782286
 21
297.261134
 31
0.0
  0
LINE
  5
F6B
100
AcDbEntity
  8
MSL5_120_3F-0
100
AcDbLine
 10
195.782286
 20
271.261134
 30
0.0
 11
177.782286
 21
271.261134
 31
0.0
  0
LINE
  5
F6C
100
AcDbEntity
  8
MSL5_120_3F-3
100
AcDbLine
 10
176.782286
 20
270.261134
 30
0.0
 11
195.782286
 21
270.261134
 31
0.0
  0
LINE
  5
F6D
100
AcDbEntity
  8
MSL5_120_3F-0
100
AcDbLine
 10
177.782286
 20
244.261134
 30
0.0
 11
195.782286
 21
244.261134
 31
0.0
  0
LINE
  5
F6E
100
AcDbEntity
  8
MSL5_120_3F-3
100
AcDbLine
 10
176.782286
 20
245.261134
 30
0.0
 11
195.782286
 21
245.261134
 31
0.0
  0
LINE
  5
F6F
100
AcDbEntity
  8
MSL5_120_3F-0
100
AcDbLine
 10
187.282286
 20
221.261134
 30
0.0
 11
187.782286
 21
221.761134
 31
0.0
  0
LINE
  5
F70
100
AcDbEntity
  8
MSL5_120_3F-7
100
AcDbLine
 10
169.28848
 20
209.761134
 30
0.0
 11
199.60973
 21
209.761134
 31
0.0
  0
LINE
  5
F71
100
AcDbEntity
  8
MSL5_120_3F-0
100
AcDbLine
 10
172.782286
 20
218.261134
 30
0.0
 11
195.782286
 21
218.261134
 31
0.0
  0
LINE
  5
F72
100
AcDbEntity
  8
MSL5_120_3F-0
100
AcDbLine
 10
195.782286
 20
193.261134
 30
0.0
 11
172.782286
 21
193.261134
 31
0.0
  0
LINE
  5
F73
100
AcDbEntity
  8
MSL5_120_3F-7
100
AcDbLine
 10
144.782286
 20
257.761134
 30
0.0
 11
204.121648
 21
257.761134
 31
0.0
  0
LINE
  5
F74
100
AcDbEntity
  8
MSL5_120_3F-7
100
AcDbLine
 10
204.121648
 20
205.761134
 30
0.0
 11
164.612224
 21
205.761134
 31
0.0
  0
LINE
  5
F75
100
AcDbEntity
  8
MSL5_120_3F-7
100
AcDbLine
 10
204.121648
 20
309.761134
 30
0.0
 11
164.612224
 21
309.761134
 31
0.0
  0
LINE
  5
F76
100
AcDbEntity
  8
MSL5_120_3F-0
100
AcDbLine
 10
172.782286
 20
182.761134
 30
0.0
 11
172.782286
 21
332.761134
 31
0.0
  0
LINE
  5
F77
100
AcDbEntity
  8
MSL5_120_3F-0
100
AcDbLine
 10
147.782286
 20
332.761134
 30
0.0
 11
147.782286
 21
182.761134
 31
0.0
  0
LINE
  5
F78
100
AcDbEntity
  8
MSL5_120_3F-3
100
AcDbLine
 10
165.782286
 20
222.261134
 30
0.0
 11
147.782286
 21
222.261134
 31
0.0
  0
LINE
  5
F79
100
AcDbEntity
  8
MSL5_120_3F-3
100
AcDbLine
 10
165.782286
 20
233.261134
 30
0.0
 11
147.782286
 21
233.261134
 31
0.0
  0
LINE
  5
F7A
100
AcDbEntity
  8
MSL5_120_3F-0
100
AcDbLine
 10
147.782286
 20
182.761134
 30
0.0
 11
172.782286
 21
182.761134
 31
0.0
  0
LINE
  5
F7B
100
AcDbEntity
  8
MSL5_120_3F-7
100
AcDbLine
 10
174.782286
 20
227.761134
 30
0.0
 11
145.782286
 21
227.761134
 31
0.0
  0
LINE
  5
F7C
100
AcDbEntity
  8
MSL5_120_3F-7
100
AcDbLine
 10
155.782286
 20
211.179077
 30
0.0
 11
155.782286
 21
179.761134
 31
0.0
  0
LINE
  5
F7D
100
AcDbEntity
  8
MSL5_120_3F-7
100
AcDbLine
 10
164.782286
 20
201.761134
 30
0.0
 11
164.782286
 21
217.761134
 31
0.0
  0
ARC
  5
F7E
100
AcDbEntity
  8
MSL5_120_3F-4
100
AcDbCircle
 10
164.782286
 20
209.761134
 30
0.0
 40
5.0
100
AcDbArc
 50
280.0
 51
210.0
  0
CIRCLE
  5
F7F
100
AcDbEntity
  8
MSL5_120_3F-0
100
AcDbCircle
 10
164.782286
 20
209.761134
 30
0.0
 40
4.188
  0
LINE
  5
F80
100
AcDbEntity
  8
MSL5_120_3F-3
100
AcDbLine
 10
150.782286
 20
182.761134
 30
0.0
 11
150.782286
 21
199.761134
 31
0.0
  0
LINE
  5
F81
100
AcDbEntity
  8
MSL5_120_3F-3
100
AcDbLine
 10
160.782286
 20
182.761134
 30
0.0
 11
160.782286
 21
199.761134
 31
0.0
  0
LINE
  5
F82
100
AcDbEntity
  8
MSL5_120_3F-3
100
AcDbLine
 10
151.594286
 20
182.761134
 30
0.0
 11
151.594286
 21
205.761134
 31
0.0
  0
LINE
  5
F83
100
AcDbEntity
  8
MSL5_120_3F-3
100
AcDbLine
 10
159.970286
 20
182.761134
 30
0.0
 11
159.970286
 21
205.761134
 31
0.0
  0
LINE
  5
F84
100
AcDbEntity
  8
MSL5_120_3F-3
100
AcDbLine
 10
159.970286
 20
205.761134
 30
0.0
 11
151.594286
 21
205.761134
 31
0.0
  0
LINE
  5
F85
100
AcDbEntity
  8
MSL5_120_3F-3
100
AcDbLine
 10
155.782286
 20
208.179077
 30
0.0
 11
159.970286
 21
205.761134
 31
0.0
  0
LINE
  5
F86
100
AcDbEntity
  8
MSL5_120_3F-3
100
AcDbLine
 10
160.782286
 20
199.761134
 30
0.0
 11
150.782286
 21
199.761134
 31
0.0
  0
LINE
  5
F87
100
AcDbEntity
  8
MSL5_120_3F-3
100
AcDbLine
 10
155.782286
 20
208.179077
 30
0.0
 11
151.594286
 21
205.761134
 31
0.0
  0
LINE
  5
F88
100
AcDbEntity
  8
MSL5_120_3F-7
100
AcDbLine
 10
156.782286
 20
209.761134
 30
0.0
 11
172.782286
 21
209.761134
 31
0.0
  0
LINE
  5
F89
100
AcDbEntity
  8
MSL5_120_3F-3
100
AcDbLine
 10
165.782286
 20
218.761134
 30
0.0
 11
172.782286
 21
218.761134
 31
0.0
  0
LINE
  5
F8A
100
AcDbEntity
  8
MSL5_120_3F-3
100
AcDbLine
 10
172.782286
 20
236.761134
 30
0.0
 11
165.782286
 21
236.761134
 31
0.0
  0
LINE
  5
F8B
100
AcDbEntity
  8
MSL5_120_3F-3
100
AcDbLine
 10
165.782286
 20
236.761134
 30
0.0
 11
165.782286
 21
218.761134
 31
0.0
  0
LINE
  5
F8C
100
AcDbEntity
  8
MSL5_120_3F-0
100
AcDbLine
 10
173.782286
 20
221.261134
 30
0.0
 11
186.282286
 21
221.261134
 31
0.0
  0
LINE
  5
F8D
100
AcDbEntity
  8
MSL5_120_3F-0
100
AcDbLine
 10
172.782286
 20
220.261134
 30
0.0
 11
173.782286
 21
221.261134
 31
0.0
  0
LINE
  5
F8E
100
AcDbEntity
  8
MSL5_120_3F-0
100
AcDbLine
 10
173.782286
 20
218.261134
 30
0.0
 11
173.782286
 21
221.261134
 31
0.0
  0
LINE
  5
F8F
100
AcDbEntity
  8
MSL5_120_3F-0
100
AcDbLine
 10
186.282286
 20
221.261134
 30
0.0
 11
186.282286
 21
218.261134
 31
0.0
  0
LINE
  5
F90
100
AcDbEntity
  8
MSL5_120_3F-0
100
AcDbLine
 10
187.282286
 20
218.261134
 30
0.0
 11
187.282286
 21
221.261134
 31
0.0
  0
LINE
  5
F91
100
AcDbEntity
  8
MSL5_120_3F-7
100
AcDbLine
 10
164.782286
 20
297.761134
 30
0.0
 11
164.782286
 21
313.761134
 31
0.0
  0
LINE
  5
F92
100
AcDbEntity
  8
MSL5_120_3F-7
100
AcDbLine
 10
174.782286
 20
287.761134
 30
0.0
 11
145.782286
 21
287.761134
 31
0.0
  0
LINE
  5
F93
100
AcDbEntity
  8
MSL5_120_3F-3
100
AcDbLine
 10
172.782286
 20
292.761134
 30
0.0
 11
147.782286
 21
292.761134
 31
0.0
  0
LINE
  5
F94
100
AcDbEntity
  8
MSL5_120_3F-3
100
AcDbLine
 10
172.782286
 20
282.761134
 30
0.0
 11
147.782286
 21
282.761134
 31
0.0
  0
LINE
  5
F95
100
AcDbEntity
  8
MSL5_120_3F-0
100
AcDbLine
 10
177.782286
 20
271.261134
 30
0.0
 11
177.782286
 21
244.261134
 31
0.0
  0
LINE
  5
F96
100
AcDbEntity
  8
MSL5_120_3F-0
100
AcDbLine
 10
176.782286
 20
270.261134
 30
0.0
 11
176.782286
 21
245.261134
 31
0.0
  0
LINE
  5
F97
100
AcDbEntity
  8
MSL5_120_3F-0
100
AcDbLine
 10
176.782286
 20
245.261134
 30
0.0
 11
177.782286
 21
244.261134
 31
0.0
  0
LINE
  5
F98
100
AcDbEntity
  8
MSL5_120_3F-0
100
AcDbLine
 10
176.782286
 20
251.761134
 30
0.0
 11
172.782286
 21
251.761134
 31
0.0
  0
LINE
  5
F99
100
AcDbEntity
  8
MSL5_120_3F-0
100
AcDbLine
 10
172.782286
 20
245.261134
 30
0.0
 11
176.782286
 21
245.261134
 31
0.0
  0
LINE
  5
F9A
100
AcDbEntity
  8
MSL5_120_3F-0
100
AcDbLine
 10
172.782286
 20
263.761134
 30
0.0
 11
176.782286
 21
263.761134
 31
0.0
  0
LINE
  5
F9B
100
AcDbEntity
  8
MSL5_120_3F-0
100
AcDbLine
 10
177.782286
 20
271.261134
 30
0.0
 11
176.782286
 21
270.261134
 31
0.0
  0
LINE
  5
F9C
100
AcDbEntity
  8
MSL5_120_3F-0
100
AcDbLine
 10
172.782286
 20
270.261134
 30
0.0
 11
176.782286
 21
270.261134
 31
0.0
  0
LINE
  5
F9D
100
AcDbEntity
  8
MSL5_120_3F-0
100
AcDbLine
 10
172.782286
 20
332.761134
 30
0.0
 11
147.782286
 21
332.761134
 31
0.0
  0
LINE
  5
F9E
100
AcDbEntity
  8
MSL5_120_3F-3
100
AcDbLine
 10
151.594286
 20
332.761134
 30
0.0
 11
151.594286
 21
309.761134
 31
0.0
  0
LINE
  5
F9F
100
AcDbEntity
  8
MSL5_120_3F-3
100
AcDbLine
 10
150.782286
 20
332.761134
 30
0.0
 11
150.782286
 21
315.761134
 31
0.0
  0
LINE
  5
FA0
100
AcDbEntity
  8
MSL5_120_3F-7
100
AcDbLine
 10
155.782286
 20
304.343192
 30
0.0
 11
155.782286
 21
335.761134
 31
0.0
  0
LINE
  5
FA1
100
AcDbEntity
  8
MSL5_120_3F-3
100
AcDbLine
 10
159.970286
 20
332.761134
 30
0.0
 11
159.970286
 21
309.761134
 31
0.0
  0
LINE
  5
FA2
100
AcDbEntity
  8
MSL5_120_3F-3
100
AcDbLine
 10
160.782286
 20
332.761134
 30
0.0
 11
160.782286
 21
315.761134
 31
0.0
  0
LINE
  5
FA3
100
AcDbEntity
  8
MSL5_120_3F-7
100
AcDbLine
 10
156.782286
 20
305.761134
 30
0.0
 11
172.782286
 21
305.761134
 31
0.0
  0
ARC
  5
FA4
100
AcDbEntity
  8
MSL5_120_3F-4
100
AcDbCircle
 10
164.782286
 20
305.761134
 30
0.0
 40
5.0
100
AcDbArc
 50
280.0
 51
210.0
  0
LINE
  5
FA5
100
AcDbEntity
  8
MSL5_120_3F-3
100
AcDbLine
 10
159.970286
 20
309.761134
 30
0.0
 11
151.594286
 21
309.761134
 31
0.0
  0
LINE
  5
FA6
100
AcDbEntity
  8
MSL5_120_3F-3
100
AcDbLine
 10
155.782286
 20
307.343192
 30
0.0
 11
159.970286
 21
309.761134
 31
0.0
  0
LINE
  5
FA7
100
AcDbEntity
  8
MSL5_120_3F-3
100
AcDbLine
 10
155.782286
 20
307.343192
 30
0.0
 11
151.594286
 21
309.761134
 31
0.0
  0
CIRCLE
  5
FA8
100
AcDbEntity
  8
MSL5_120_3F-0
100
AcDbCircle
 10
164.782286
 20
305.761134
 30
0.0
 40
4.188
  0
LINE
  5
FA9
100
AcDbEntity
  8
MSL5_120_3F-3
100
AcDbLine
 10
150.782286
 20
315.761134
 30
0.0
 11
160.782286
 21
315.761134
 31
0.0
  0
LINE
  5
FAA
100
AcDbEntity
  8
MSL5_120_3F-7
100
AcDbLine
 10
297.782286
 20
279.037546
 30
0.0
 11
297.782286
 21
234.850015
 31
0.0
  0
LINE
  5
FAB
100
AcDbEntity
  8
MSL5_120_3F-0
100
AcDbLine
 10
195.782286
 20
332.761134
 30
0.0
 11
195.782286
 21
182.761134
 31
0.0
  0
MTEXT
  5
FAC
100
AcDbEntity
  8
MSL5_120_3F-6
100
AcDbMText
 10
200.447235
 20
189.012817
 30
0.0
 40
3.5
 41
22.192126
 71
     1
 72
     1
  1
{MSL5-120-3F}
  0
ARC
  5
FAD
100
AcDbEntity
  8
MSL5_120_3F-0
100
AcDbCircle
 10
190.676036
 20
196.770753
 30
0.0
 40
5.10625
100
AcDbArc
 50
302.004628
 51
316.5818
  0
ARC
  5
FAE
100
AcDbEntity
  8
MSL5_120_3F-0
100
AcDbCircle
 10
192.888536
 20
196.770753
 30
0.0
 40
5.10625
100
AcDbArc
 50
223.418201
 51
237.995373
  0
LINE
  5
FAF
100
AcDbEntity
  8
MSL5_120_3F-0
100
AcDbLine
 10
190.182286
 20
192.440626
 30
0.0
 11
193.382286
 21
192.440626
 31
0.0
  0
ARC
  5
FB0
100
AcDbEntity
  8
MSL5_120_3F-0
100
AcDbCircle
 10
192.888536
 20
222.751515
 30
0.0
 40
5.10625
100
AcDbArc
 50
122.004627
 51
237.995373
  0
ARC
  5
FB1
100
AcDbEntity
  8
MSL5_120_3F-0
100
AcDbCircle
 10
190.676036
 20
222.751515
 30
0.0
 40
5.10625
100
AcDbArc
 50
302.004628
 51
57.995372
  0
LINE
  5
FB2
100
AcDbEntity
  8
MSL5_120_3F-0
100
AcDbLine
 10
187.782286
 20
221.761134
 30
0.0
 11
187.782286
 21
218.261134
 31
0.0
  0
LINE
  5
FB3
100
AcDbEntity
  8
MSL5_120_3F-0
100
AcDbLine
 10
193.382286
 20
218.421388
 30
0.0
 11
190.182286
 21
218.421388
 31
0.0
  0
LINE
  5
FB4
100
AcDbEntity
  8
MSL5_120_3F-0
100
AcDbLine
 10
190.182286
 20
227.081642
 30
0.0
 11
193.382286
 21
227.081642
 31
0.0
  0
INSERT
  5
FB5
100
AcDbEntity
  8
MSL5_120_3F-0
100
AcDbBlockReference
 66
     1
  2
GENINF13
 10
230.817943
 20
217.599121
 30
0.0
1001
GENIUS_GENSCSYM_13
1002
{
1000
INSPT
1011
230.817943
1021
217.599121
1031
0.0
1002
}
1002
{
1000
SCALE
1042
1.0
1002
}
1002
{
1000
USEOLDBPT
1070
     0
1002
}
1001
GENIUS_GENOBJ-N-INFOPT_13
1002
{
1000
OWNER
1000
GEN
1002
}
1001
GENIUS_GENSYMENT_13
1002
{
1000
ENT
1005
FB5
1002
}
1001
GENIUS_GENODEF_13
1002
{
1000
HIER
1070
     0
1002
}
1002
{
1000
MANEDIT
1070
     0
1002
}
1002
{
1000
NOSEL
1070
     0
1002
}
1002
{
1000
BEHIND
1070
     0
1002
}
1002
{
1000
REACTOR
1002
}
1001
GENIUS_GENOBJ-N-RSSYM_13
1002
{
1000
OWNER
1000
GEN
1002
}
1001
GENIUS_GENINF13_13
1070
     1
  0
ATTRIB
  5
FB6
100
AcDbEntity
  8
INFO
100
AcDbText
 10
230.817943
 20
217.599121
 30
0.0
 40
1.0
  1
1
100
AcDbAttribute
  2
2GENINF
 70
     1
  0
ATTRIB
  5
FB7
100
AcDbEntity
  8
INFO
100
AcDbText
 10
230.817943
 20
216.099121
 30
0.0
 40
1.0
  1
<***aktuell***>
100
AcDbAttribute
  2
3GENINF
 70
     1
  0
ATTRIB
  5
FB8
100
AcDbEntity
  8
INFO
100
AcDbText
 10
230.817943
 20
214.599121
 30
0.0
 40
1.0
  1

100
AcDbAttribute
  2
4GENINF
 70
     1
  0
ATTRIB
  5
FB9
100
AcDbEntity
  8
INFO
100
AcDbText
 10
230.817943
 20
213.099121
 30
0.0
 40
1.0
  1
MSL5-120
100
AcDbAttribute
  2
5GENINF
 70
     1
  0
ATTRIB
  5
FBA
100
AcDbEntity
  8
INFO
100
AcDbText
 10
230.817943
 20
211.599121
 30
0.0
 40
1.0
  1

100
AcDbAttribute
  2
6GENINF
 70
     1
  0
ATTRIB
  5
FBB
100
AcDbEntity
  8
INFO
100
AcDbText
 10
230.817943
 20
210.099121
 30
0.0
 40
1.0
  1
Fa. Mayer
100
AcDbAttribute
  2
7GENINF
 70
     1
  0
ATTRIB
  5
FBC
100
AcDbEntity
  8
INFO
100
AcDbText
 10
230.817943
 20
208.599121
 30
0.0
 40
1.0
  1

100
AcDbAttribute
  2
8GENINF
 70
     1
  0
ATTRIB
  5
FBD
100
AcDbEntity
  8
INFO
100
AcDbText
 10
230.817943
 20
207.099121
 30
0.0
 40
1.0
  1

100
AcDbAttribute
  2
9GENINF
 70
     1
  0
ATTRIB
  5
FBE
100
AcDbEntity
  8
INFO
100
AcDbText
 10
230.817943
 20
205.599121
 30
0.0
 40
1.0
  1

100
AcDbAttribute
  2
10GENINF
 70
     1
  0
ATTRIB
  5
FBF
100
AcDbEntity
  8
INFO
100
AcDbText
 10
230.817943
 20
204.099121
 30
0.0
 40
1.0
  1

100
AcDbAttribute
  2
11GENINF
 70
     1
  0
ATTRIB
  5
FC0
100
AcDbEntity
  8
INFO
100
AcDbText
 10
230.817943
 20
202.599121
 30
0.0
 40
1.0
  1

100
AcDbAttribute
  2
12GENINF
 70
     1
  0
ATTRIB
  5
FC1
100
AcDbEntity
  8
INFO
100
AcDbText
 10
230.817943
 20
201.099121
 30
0.0
 40
1.0
  1

100
AcDbAttribute
  2
13GENINF
 70
     1
  0
ATTRIB
  5
FC2
100
AcDbEntity
  8
INFO
100
AcDbText
 10
230.817943
 20
199.599121
 30
0.0
 40
1.0
  1

100
AcDbAttribute
  2
14GENINF
 70
     1
  0
ATTRIB
  5
FC3
100
AcDbEntity
  8
INFO
100
AcDbText
 10
230.817943
 20
198.099121
 30
0.0
 40
1.0
  1

100
AcDbAttribute
  2
15GENINF
 70
     1
  0
ATTRIB
  5
FC4
100
AcDbEntity
  8
INFO
100
AcDbText
 10
230.817943
 20
196.599121
 30
0.0
 40
1.0
  1

100
AcDbAttribute
  2
16GENINF
 70
     1
  0
ATTRIB
  5
FC5
100
AcDbEntity
  8
INFO
100
AcDbText
 10
230.817943
 20
195.099121
 30
0.0
 40
1.0
  1

100
AcDbAttribute
  2
17GENINF
 70
     1
  0
ATTRIB
  5
FC6
100
AcDbEntity
  8
INFO
100
AcDbText
 10
230.817943
 20
193.599121
 30
0.0
 40
1.0
  1

100
AcDbAttribute
  2
18GENINF
 70
     1
  0
ATTRIB
  5
FC7
100
AcDbEntity
  8
INFO
100
AcDbText
 10
230.817943
 20
192.099121
 30
0.0
 40
1.0
  1

100
AcDbAttribute
  2
19GENINF
 70
     1
  0
ATTRIB
  5
FC8
100
AcDbEntity
  8
INFO
100
AcDbText
 10
230.817943
 20
190.599121
 30
0.0
 40
1.0
  1

100
AcDbAttribute
  2
20GENINF
 70
     1
  0
ATTRIB
  5
FC9
100
AcDbEntity
  8
INFO
100
AcDbText
 10
230.817943
 20
189.099121
 30
0.0
 40
1.0
  1

100
AcDbAttribute
  2
21GENINF
 70
     1
  0
ATTRIB
  5
FCA
100
AcDbEntity
  8
INFO
100
AcDbText
 10
230.817943
 20
187.599121
 30
0.0
 40
1.0
  1

100
AcDbAttribute
  2
22GENINF
 70
     1
  0
ATTRIB
  5
FCB
100
AcDbEntity
  8
INFO
100
AcDbText
 10
230.817943
 20
186.099121
 30
0.0
 40
1.0
  1

100
AcDbAttribute
  2
23GENINF
 70
     1
  0
ATTRIB
  5
FCC
100
AcDbEntity
  8
INFO
100
AcDbText
 10
230.817943
 20
184.599121
 30
0.0
 40
1.0
  1

100
AcDbAttribute
  2
24GENINF
 70
     1
  0
ATTRIB
  5
FCD
100
AcDbEntity
  8
INFO
100
AcDbText
 10
230.817943
 20
183.099121
 30
0.0
 40
1.0
  1

100
AcDbAttribute
  2
0GENINF
 70
     1
  0
SEQEND
  5
FCE
100
AcDbEntity
  8
MSL5_120_3F-0
  0
LINE
  5
FCF
100
AcDbEntity
  8
MSL5_120_3F-7
100
AcDbLine
 10
297.782286
 20
227.761134
 30
0.0
 11
290.693405
 21
227.761134
 31
0.0
  0
LINE
  5
FD0
100
AcDbEntity
  8
MSL5_120_3F-3
100
AcDbLine
 10
297.782286
 20
201.094467
 30
0.0
 11
292.782286
 21
197.761134
 31
0.0
  0
LINE
  5
FD1
100
AcDbEntity
  8
MSL5_120_3F-3
100
AcDbLine
 10
292.782286
 20
197.761134
 30
0.0
 11
297.782286
 21
197.761134
 31
0.0
  0
CIRCLE
  5
FD2
100
AcDbEntity
  8
MSL5_120_3F-0
100
AcDbCircle
 10
297.782286
 20
227.761134
 30
0.0
 40
5.0
  0
LINE
  5
FD3
100
AcDbEntity
  8
MSL5_120_3F-7
100
AcDbLine
 10
267.782286
 20
209.894467
 30
0.0
 11
267.782286
 21
180.294467
 31
0.0
  0
LINE
  5
FD4
100
AcDbEntity
  8
MSL5_120_3F-3
100
AcDbLine
 10
271.782286
 20
182.761134
 30
0.0
 11
271.782286
 21
204.761134
 31
0.0
  0
LINE
  5
FD5
100
AcDbEntity
  8
MSL5_120_3F-3
100
AcDbLine
 10
272.782286
 20
182.761134
 30
0.0
 11
272.782286
 21
199.761134
 31
0.0
  0
LINE
  5
FD6
100
AcDbEntity
  8
MSL5_120_3F-3
100
AcDbLine
 10
263.782286
 20
182.761134
 30
0.0
 11
263.782286
 21
204.761134
 31
0.0
  0
LINE
  5
FD7
100
AcDbEntity
  8
MSL5_120_3F-3
100
AcDbLine
 10
262.782286
 20
199.761134
 30
0.0
 11
262.782286
 21
182.761134
 31
0.0
  0
LINE
  5
FD8
100
AcDbEntity
  8
MSL5_120_3F-7
100
AcDbLine
 10
267.782286
 20
180.294467
 30
0.0
 11
267.782286
 21
182.761134
 31
0.0
  0
LINE
  5
FD9
100
AcDbEntity
  8
MSL5_120_3F-3
100
AcDbLine
 10
267.782286
 20
182.761134
 30
0.0
 11
267.782286
 21
182.761134
 31
0.0
  0
LINE
  5
FDA
100
AcDbEntity
  8
MSL5_120_3F-3
100
AcDbLine
 10
267.782286
 20
182.761134
 30
0.0
 11
267.782286
 21
182.761134
 31
0.0
  0
LINE
  5
FDB
100
AcDbEntity
  8
MSL5_120_3F-3
100
AcDbLine
 10
267.782286
 20
207.4278
 30
0.0
 11
271.782286
 21
204.761134
 31
0.0
  0
LINE
  5
FDC
100
AcDbEntity
  8
MSL5_120_3F-3
100
AcDbLine
 10
271.782286
 20
204.761134
 30
0.0
 11
267.782286
 21
204.761134
 31
0.0
  0
LINE
  5
FDD
100
AcDbEntity
  8
MSL5_120_3F-3
100
AcDbLine
 10
272.782286
 20
199.761134
 30
0.0
 11
262.782286
 21
199.761134
 31
0.0
  0
LINE
  5
FDE
100
AcDbEntity
  8
MSL5_120_3F-3
100
AcDbLine
 10
263.782286
 20
204.761134
 30
0.0
 11
267.782286
 21
204.761134
 31
0.0
  0
LINE
  5
FDF
100
AcDbEntity
  8
MSL5_120_3F-3
100
AcDbLine
 10
267.782286
 20
207.4278
 30
0.0
 11
263.782286
 21
204.761134
 31
0.0
  0
LINE
  5
FE0
100
AcDbEntity
  8
MSL5_120_3F-3
100
AcDbLine
 10
292.782286
 20
182.761134
 30
0.0
 11
292.782286
 21
197.761134
 31
0.0
  0
LINE
  5
FE1
100
AcDbEntity
  8
MSL5_120_3F-7
100
AcDbLine
 10
267.782286
 20
227.761134
 30
0.0
 11
267.782286
 21
220.859237
 31
0.0
  0
CIRCLE
  5
FE2
100
AcDbEntity
  8
MSL5_120_3F-0
100
AcDbCircle
 10
267.782286
 20
227.761134
 30
0.0
 40
4.25
  0
ARC
  5
FE3
100
AcDbEntity
  8
MSL5_120_3F-4
100
AcDbCircle
 10
267.782286
 20
227.761134
 30
0.0
 40
5.0
100
AcDbArc
 50
82.606248
 51
7.300134
  0
LINE
  5
FE4
100
AcDbEntity
  8
MSL5_120_3F-7
100
AcDbLine
 10
267.782286
 20
227.761134
 30
0.0
 11
274.684184
 21
227.761134
 31
0.0
  0
LINE
  5
FE5
100
AcDbEntity
  8
MSL5_120_3F-7
100
AcDbLine
 10
267.782286
 20
227.761134
 30
0.0
 11
267.782286
 21
234.663032
 31
0.0
  0
LINE
  5
FE6
100
AcDbEntity
  8
MSL5_120_3F-7
100
AcDbLine
 10
267.782286
 20
227.761134
 30
0.0
 11
260.880388
 21
227.761134
 31
0.0
  0
LINE
  5
FE7
100
AcDbEntity
  8
MSL5_120_3F-7
100
AcDbLine
 10
327.782286
 20
209.894467
 30
0.0
 11
327.782286
 21
180.294467
 31
0.0
  0
LINE
  5
FE8
100
AcDbEntity
  8
MSL5_120_3F-3
100
AcDbLine
 10
302.782286
 20
182.761134
 30
0.0
 11
302.782286
 21
197.761134
 31
0.0
  0
LINE
  5
FE9
100
AcDbEntity
  8
MSL5_120_3F-7
100
AcDbLine
 10
297.782286
 20
203.561134
 30
0.0
 11
297.782286
 21
180.294467
 31
0.0
  0
LINE
  5
FEA
100
AcDbEntity
  8
MSL5_120_3F-7
100
AcDbLine
 10
297.782286
 20
180.294467
 30
0.0
 11
297.782286
 21
182.761134
 31
0.0
  0
LINE
  5
FEB
100
AcDbEntity
  8
MSL5_120_3F-3
100
AcDbLine
 10
297.782286
 20
182.761134
 30
0.0
 11
297.782286
 21
182.761134
 31
0.0
  0
LINE
  5
FEC
100
AcDbEntity
  8
MSL5_120_3F-3
100
AcDbLine
 10
297.782286
 20
182.761134
 30
0.0
 11
297.782286
 21
182.761134
 31
0.0
  0
LINE
  5
FED
100
AcDbEntity
  8
MSL5_120_3F-3
100
AcDbLine
 10
302.782286
 20
197.761134
 30
0.0
 11
297.782286
 21
197.761134
 31
0.0
  0
LINE
  5
FEE
100
AcDbEntity
  8
MSL5_120_3F-3
100
AcDbLine
 10
297.782286
 20
201.094467
 30
0.0
 11
302.782286
 21
197.761134
 31
0.0
  0
LINE
  5
FEF
100
AcDbEntity
  8
MSL5_120_3F-3
100
AcDbLine
 10
322.782286
 20
199.761134
 30
0.0
 11
322.782286
 21
182.761134
 31
0.0
  0
LINE
  5
FF0
100
AcDbEntity
  8
MSL5_120_3F-3
100
AcDbLine
 10
331.782286
 20
182.761134
 30
0.0
 11
331.782286
 21
204.761134
 31
0.0
  0
LINE
  5
FF1
100
AcDbEntity
  8
MSL5_120_3F-3
100
AcDbLine
 10
332.782286
 20
182.761134
 30
0.0
 11
332.782286
 21
199.761134
 31
0.0
  0
LINE
  5
FF2
100
AcDbEntity
  8
MSL5_120_3F-3
100
AcDbLine
 10
323.782286
 20
182.761134
 30
0.0
 11
323.782286
 21
204.761134
 31
0.0
  0
LINE
  5
FF3
100
AcDbEntity
  8
MSL5_120_3F-7
100
AcDbLine
 10
327.782286
 20
180.294467
 30
0.0
 11
327.782286
 21
182.761134
 31
0.0
  0
LINE
  5
FF4
100
AcDbEntity
  8
MSL5_120_3F-3
100
AcDbLine
 10
327.782286
 20
182.761134
 30
0.0
 11
327.782286
 21
182.761134
 31
0.0
  0
LINE
  5
FF5
100
AcDbEntity
  8
MSL5_120_3F-3
100
AcDbLine
 10
327.782286
 20
182.761134
 30
0.0
 11
327.782286
 21
182.761134
 31
0.0
  0
LINE
  5
FF6
100
AcDbEntity
  8
MSL5_120_3F-3
100
AcDbLine
 10
323.782286
 20
204.761134
 30
0.0
 11
327.782286
 21
204.761134
 31
0.0
  0
LINE
  5
FF7
100
AcDbEntity
  8
MSL5_120_3F-3
100
AcDbLine
 10
327.782286
 20
207.4278
 30
0.0
 11
323.782286
 21
204.761134
 31
0.0
  0
LINE
  5
FF8
100
AcDbEntity
  8
MSL5_120_3F-3
100
AcDbLine
 10
332.782286
 20
199.761134
 30
0.0
 11
322.782286
 21
199.761134
 31
0.0
  0
LINE
  5
FF9
100
AcDbEntity
  8
MSL5_120_3F-3
100
AcDbLine
 10
331.782286
 20
204.761134
 30
0.0
 11
327.782286
 21
204.761134
 31
0.0
  0
LINE
  5
FFA
100
AcDbEntity
  8
MSL5_120_3F-3
100
AcDbLine
 10
327.782286
 20
207.4278
 30
0.0
 11
331.782286
 21
204.761134
 31
0.0
  0
LINE
  5
FFB
100
AcDbEntity
  8
MSL5_120_3F-7
100
AcDbLine
 10
297.782286
 20
227.761134
 30
0.0
 11
297.782286
 21
220.672254
 31
0.0
  0
LINE
  5
FFC
100
AcDbEntity
  8
MSL5_120_3F-7
100
AcDbLine
 10
297.782286
 20
227.761134
 30
0.0
 11
297.782286
 21
234.850015
 31
0.0
  0
LINE
  5
FFD
100
AcDbEntity
  8
MSL5_120_3F-7
100
AcDbLine
 10
297.782286
 20
227.761134
 30
0.0
 11
304.871167
 21
227.761134
 31
0.0
  0
CIRCLE
  5
FFE
100
AcDbEntity
  8
MSL5_120_3F-0
100
AcDbCircle
 10
327.782286
 20
227.761134
 30
0.0
 40
4.25
  0
LINE
  5
FFF
100
AcDbEntity
  8
MSL5_120_3F-7
100
AcDbLine
 10
327.782286
 20
227.761134
 30
0.0
 11
327.782286
 21
221.030344
 31
0.0
  0
ARC
  5
1000
100
AcDbEntity
  8
MSL5_120_3F-4
100
AcDbCircle
 10
327.782286
 20
227.761134
 30
0.0
 40
5.0
100
AcDbArc
 50
82.606248
 51
7.300134
  0
LINE
  5
1001
100
AcDbEntity
  8
MSL5_120_3F-7
100
AcDbLine
 10
327.782286
 20
227.761134
 30
0.0
 11
321.051496
 21
227.761134
 31
0.0
  0
LINE
  5
1002
100
AcDbEntity
  8
MSL5_120_3F-7
100
AcDbLine
 10
327.782286
 20
227.761134
 30
0.0
 11
327.782286
 21
234.491924
 31
0.0
  0
LINE
  5
1003
100
AcDbEntity
  8
MSL5_120_3F-0
100
AcDbLine
 10
232.280946
 20
337.261128
 30
0.0
 11
240.280946
 21
337.261133
 31
0.0
  0
ARC
  5
1004
100
AcDbEntity
  8
MSL5_120_3F-0
100
AcDbCircle
 10
232.280947
 20
335.761128
 30
0.0
 40
1.5
100
AcDbArc
 50
90.000041
 51
180.00004
  0
LINE
  5
1005
100
AcDbEntity
  8
MSL5_120_3F-0
100
AcDbLine
 10
230.780949
 20
332.761134
 30
0.0
 11
230.780947
 21
335.761127
 31
0.0
  0
ARC
  5
1006
100
AcDbEntity
  8
MSL5_120_3F-0
100
AcDbCircle
 10
240.280947
 20
335.761133
 30
0.0
 40
1.5
100
AcDbArc
 50
0.000038
 51
90.000041
  0
LINE
  5
1007
100
AcDbEntity
  8
MSL5_120_3F-0
100
AcDbLine
 10
241.780947
 20
335.761134
 30
0.0
 11
241.780949
 21
332.761134
 31
0.0
  0
LINE
  5
1008
100
AcDbEntity
  8
MSL5_120_3F-7
100
AcDbLine
 10
236.282284
 20
340.049876
 30
0.0
 11
236.282292
 21
328.857149
 31
0.0
  0
LINE
  5
1009
100
AcDbEntity
  8
MSL5_120_3F-7
100
AcDbLine
 10
297.782286
 20
287.761134
 30
0.0
 11
290.642537
 21
287.761134
 31
0.0
  0
CIRCLE
  5
100A
100
AcDbEntity
  8
MSL5_120_3F-0
100
AcDbCircle
 10
297.782286
 20
287.761134
 30
0.0
 40
5.0
  0
LINE
  5
100B
100
AcDbEntity
  8
MSL5_120_3F-7
100
AcDbLine
 10
267.782286
 20
287.761134
 30
0.0
 11
267.782286
 21
280.943888
 31
0.0
  0
ARC
  5
100C
100
AcDbEntity
  8
MSL5_120_3F-4
100
AcDbCircle
 10
267.782286
 20
287.761134
 30
0.0
 40
5.0
100
AcDbArc
 50
82.606248
 51
7.300134
  0
LINE
  5
100D
100
AcDbEntity
  8
MSL5_120_3F-7
100
AcDbLine
 10
267.782286
 20
287.761134
 30
0.0
 11
274.599532
 21
287.761134
 31
0.0
  0
CIRCLE
  5
100E
100
AcDbEntity
  8
MSL5_120_3F-0
100
AcDbCircle
 10
267.782286
 20
287.761134
 30
0.0
 40
4.25
  0
LINE
  5
100F
100
AcDbEntity
  8
MSL5_120_3F-7
100
AcDbLine
 10
267.782286
 20
287.761134
 30
0.0
 11
260.96504
 21
287.761134
 31
0.0
  0
LINE
  5
1010
100
AcDbEntity
  8
MSL5_120_3F-7
100
AcDbLine
 10
267.782286
 20
287.761134
 30
0.0
 11
267.782286
 21
294.578381
 31
0.0
  0
LINE
  5
1011
100
AcDbEntity
  8
MSL5_120_3F-7
100
AcDbLine
 10
297.782286
 20
287.761134
 30
0.0
 11
297.782286
 21
280.621386
 31
0.0
  0
LINE
  5
1012
100
AcDbEntity
  8
MSL5_120_3F-7
100
AcDbLine
 10
297.782286
 20
287.761134
 30
0.0
 11
297.782286
 21
294.900883
 31
0.0
  0
LINE
  5
1013
100
AcDbEntity
  8
MSL5_120_3F-7
100
AcDbLine
 10
297.782286
 20
287.761134
 30
0.0
 11
304.922035
 21
287.761134
 31
0.0
  0
LINE
  5
1014
100
AcDbEntity
  8
MSL5_120_3F-7
100
AcDbLine
 10
327.782286
 20
287.761134
 30
0.0
 11
327.782286
 21
280.918421
 31
0.0
  0
ARC
  5
1015
100
AcDbEntity
  8
MSL5_120_3F-4
100
AcDbCircle
 10
327.782286
 20
287.761134
 30
0.0
 40
5.0
100
AcDbArc
 50
82.606248
 51
7.300134
  0
LINE
  5
1016
100
AcDbEntity
  8
MSL5_120_3F-7
100
AcDbLine
 10
327.782286
 20
287.761134
 30
0.0
 11
320.939573
 21
287.761134
 31
0.0
  0
CIRCLE
  5
1017
100
AcDbEntity
  8
MSL5_120_3F-0
100
AcDbCircle
 10
327.782286
 20
287.761134
 30
0.0
 40
4.25
  0
LINE
  5
1018
100
AcDbEntity
  8
MSL5_120_3F-7
100
AcDbLine
 10
327.782286
 20
287.761134
 30
0.0
 11
327.782286
 21
294.603848
 31
0.0
  0
LINE
  5
1019
100
AcDbEntity
  8
MSL5_120_3F-3
100
AcDbLine
 10
297.782286
 20
314.427801
 30
0.0
 11
292.782286
 21
317.761134
 31
0.0
  0
LINE
  5
101A
100
AcDbEntity
  8
MSL5_120_3F-3
100
AcDbLine
 10
292.782286
 20
317.761134
 30
0.0
 11
297.782286
 21
317.761134
 31
0.0
  0
LINE
  5
101B
100
AcDbEntity
  8
MSL5_120_3F-3
100
AcDbLine
 10
271.782286
 20
332.761134
 30
0.0
 11
271.782286
 21
310.761134
 31
0.0
  0
LINE
  5
101C
100
AcDbEntity
  8
MSL5_120_3F-3
100
AcDbLine
 10
272.782286
 20
332.761134
 30
0.0
 11
272.782286
 21
315.761134
 31
0.0
  0
LINE
  5
101D
100
AcDbEntity
  8
MSL5_120_3F-3
100
AcDbLine
 10
292.782286
 20
332.761134
 30
0.0
 11
292.782286
 21
317.761134
 31
0.0
  0
LINE
  5
101E
100
AcDbEntity
  8
MSL5_120_3F-3
100
AcDbLine
 10
263.782286
 20
332.761134
 30
0.0
 11
263.782286
 21
310.761134
 31
0.0
  0
LINE
  5
101F
100
AcDbEntity
  8
MSL5_120_3F-3
100
AcDbLine
 10
262.782286
 20
315.761134
 30
0.0
 11
262.782286
 21
332.761134
 31
0.0
  0
LINE
  5
1020
100
AcDbEntity
  8
MSL5_120_3F-7
100
AcDbLine
 10
267.782286
 20
305.627801
 30
0.0
 11
267.782286
 21
335.227801
 31
0.0
  0
LINE
  5
1021
100
AcDbEntity
  8
MSL5_120_3F-3
100
AcDbLine
 10
271.782286
 20
310.761134
 30
0.0
 11
267.782286
 21
310.761134
 31
0.0
  0
LINE
  5
1022
100
AcDbEntity
  8
MSL5_120_3F-3
100
AcDbLine
 10
267.782286
 20
308.094468
 30
0.0
 11
271.782286
 21
310.761134
 31
0.0
  0
LINE
  5
1023
100
AcDbEntity
  8
MSL5_120_3F-3
100
AcDbLine
 10
263.782286
 20
310.761134
 30
0.0
 11
267.782286
 21
310.761134
 31
0.0
  0
LINE
  5
1024
100
AcDbEntity
  8
MSL5_120_3F-3
100
AcDbLine
 10
267.782286
 20
308.094468
 30
0.0
 11
263.782286
 21
310.761134
 31
0.0
  0
LINE
  5
1025
100
AcDbEntity
  8
MSL5_120_3F-3
100
AcDbLine
 10
272.782286
 20
315.761134
 30
0.0
 11
262.782286
 21
315.761134
 31
0.0
  0
LINE
  5
1026
100
AcDbEntity
  8
MSL5_120_3F-3
100
AcDbLine
 10
267.782286
 20
332.761134
 30
0.0
 11
267.782286
 21
332.761134
 31
0.0
  0
LINE
  5
1027
100
AcDbEntity
  8
MSL5_120_3F-3
100
AcDbLine
 10
267.782286
 20
332.761134
 30
0.0
 11
267.782286
 21
332.761134
 31
0.0
  0
LINE
  5
1028
100
AcDbEntity
  8
MSL5_120_3F-7
100
AcDbLine
 10
267.782286
 20
335.227801
 30
0.0
 11
267.782286
 21
332.761134
 31
0.0
  0
LINE
  5
1029
100
AcDbEntity
  8
MSL5_120_3F-3
100
AcDbLine
 10
322.782286
 20
315.761134
 30
0.0
 11
322.782286
 21
332.761134
 31
0.0
  0
LINE
  5
102A
100
AcDbEntity
  8
MSL5_120_3F-3
100
AcDbLine
 10
302.782286
 20
332.761134
 30
0.0
 11
302.782286
 21
317.761134
 31
0.0
  0
LINE
  5
102B
100
AcDbEntity
  8
MSL5_120_3F-3
100
AcDbLine
 10
331.782286
 20
332.761134
 30
0.0
 11
331.782286
 21
310.761134
 31
0.0
  0
LINE
  5
102C
100
AcDbEntity
  8
MSL5_120_3F-3
100
AcDbLine
 10
332.782286
 20
332.761134
 30
0.0
 11
332.782286
 21
315.761134
 31
0.0
  0
LINE
  5
102D
100
AcDbEntity
  8
MSL5_120_3F-3
100
AcDbLine
 10
323.782286
 20
332.761134
 30
0.0
 11
323.782286
 21
310.761134
 31
0.0
  0
LINE
  5
102E
100
AcDbEntity
  8
MSL5_120_3F-7
100
AcDbLine
 10
327.782286
 20
305.627801
 30
0.0
 11
327.782286
 21
335.227801
 31
0.0
  0
LINE
  5
102F
100
AcDbEntity
  8
MSL5_120_3F-7
100
AcDbLine
 10
297.782286
 20
311.961134
 30
0.0
 11
297.782286
 21
335.227801
 31
0.0
  0
LINE
  5
1030
100
AcDbEntity
  8
MSL5_120_3F-3
100
AcDbLine
 10
297.782286
 20
314.427801
 30
0.0
 11
302.782286
 21
317.761134
 31
0.0
  0
LINE
  5
1031
100
AcDbEntity
  8
MSL5_120_3F-3
100
AcDbLine
 10
302.782286
 20
317.761134
 30
0.0
 11
297.782286
 21
317.761134
 31
0.0
  0
LINE
  5
1032
100
AcDbEntity
  8
MSL5_120_3F-3
100
AcDbLine
 10
323.782286
 20
310.761134
 30
0.0
 11
327.782286
 21
310.761134
 31
0.0
  0
LINE
  5
1033
100
AcDbEntity
  8
MSL5_120_3F-3
100
AcDbLine
 10
327.782286
 20
308.094468
 30
0.0
 11
323.782286
 21
310.761134
 31
0.0
  0
LINE
  5
1034
100
AcDbEntity
  8
MSL5_120_3F-3
100
AcDbLine
 10
331.782286
 20
310.761134
 30
0.0
 11
327.782286
 21
310.761134
 31
0.0
  0
LINE
  5
1035
100
AcDbEntity
  8
MSL5_120_3F-3
100
AcDbLine
 10
327.782286
 20
308.094468
 30
0.0
 11
331.782286
 21
310.761134
 31
0.0
  0
LINE
  5
1036
100
AcDbEntity
  8
MSL5_120_3F-3
100
AcDbLine
 10
332.782286
 20
315.761134
 30
0.0
 11
322.782286
 21
315.761134
 31
0.0
  0
LINE
  5
1037
100
AcDbEntity
  8
MSL5_120_3F-3
100
AcDbLine
 10
297.782286
 20
332.761134
 30
0.0
 11
297.782286
 21
332.761134
 31
0.0
  0
LINE
  5
1038
100
AcDbEntity
  8
MSL5_120_3F-3
100
AcDbLine
 10
297.782286
 20
332.761134
 30
0.0
 11
297.782286
 21
332.761134
 31
0.0
  0
LINE
  5
1039
100
AcDbEntity
  8
MSL5_120_3F-7
100
AcDbLine
 10
297.782286
 20
335.227801
 30
0.0
 11
297.782286
 21
332.761134
 31
0.0
  0
LINE
  5
103A
100
AcDbEntity
  8
MSL5_120_3F-3
100
AcDbLine
 10
327.782286
 20
332.761134
 30
0.0
 11
327.782286
 21
332.761134
 31
0.0
  0
LINE
  5
103B
100
AcDbEntity
  8
MSL5_120_3F-3
100
AcDbLine
 10
327.782286
 20
332.761134
 30
0.0
 11
327.782286
 21
332.761134
 31
0.0
  0
LINE
  5
103C
100
AcDbEntity
  8
MSL5_120_3F-7
100
AcDbLine
 10
327.782286
 20
335.227801
 30
0.0
 11
327.782286
 21
332.761134
 31
0.0
  0
LINE
  5
103D
100
AcDbEntity
  8
MSL5_120_3F-0
100
AcDbLine
 10
399.282286
 20
101.716749
 30
0.0
 11
399.282286
 21
120.0
 31
0.0
  0
LINE
  5
103E
100
AcDbEntity
  8
MSL5_120_3F-3
100
AcDbLine
 10
564.782286
 20
-103.245876
 30
0.0
 11
564.782286
 21
-120.245876
 31
0.0
  0
LINE
  5
103F
100
AcDbEntity
  8
MSL5_120_3F-3
100
AcDbLine
 10
554.782286
 20
-103.245876
 30
0.0
 11
554.782286
 21
-120.245876
 31
0.0
  0
LINE
  5
1040
100
AcDbEntity
  8
MSL5_120_3F-3
100
AcDbLine
 10
555.594286
 20
-103.245876
 30
0.0
 11
555.594286
 21
-126.245876
 31
0.0
  0
LINE
  5
1041
100
AcDbEntity
  8
MSL5_120_3F-3
100
AcDbLine
 10
563.970286
 20
-103.245876
 30
0.0
 11
563.970286
 21
-126.245876
 31
0.0
  0
LINE
  5
1042
100
AcDbEntity
  8
MSL5_120_3F-7
100
AcDbLine
 10
559.782286
 20
-131.663819
 30
0.0
 11
559.782286
 21
-100.245876
 31
0.0
  0
LINE
  5
1043
100
AcDbEntity
  8
MSL5_120_3F-0
100
AcDbLine
 10
567.782286
 20
-103.245947
 30
0.0
 11
567.782286
 21
-253.245947
 31
0.0
  0
LINE
  5
1044
100
AcDbEntity
  8
MSL5_120_3F-0
100
AcDbLine
 10
542.782286
 20
-253.245947
 30
0.0
 11
542.782286
 21
-103.245947
 31
0.0
  0
LINE
  5
1045
100
AcDbEntity
  8
MSL5_120_3F-0
100
AcDbLine
 10
399.782286
 20
-103.245947
 30
0.0
 11
399.782286
 21
-253.245947
 31
0.0
  0
LINE
  5
1046
100
AcDbEntity
  8
MSL5_120_3F-0
100
AcDbLine
 10
399.282286
 20
-212.330862
 30
0.0
 11
399.282286
 21
-104.245876
 31
0.0
  0
ARC
  5
1047
100
AcDbEntity
  8
MSL5_120_3F-0
100
AcDbCircle
 10
399.673605
 20
-118.884732
 30
0.0
 40
3.108681
100
AcDbArc
 50
307.878144
 51
52.121856
  0
LINE
  5
1048
100
AcDbEntity
  8
MSL5_120_3F-0
100
AcDbLine
 10
542.782286
 20
-217.745947
 30
0.0
 11
446.582286
 21
-217.745947
 31
0.0
  0
LINE
  5
1049
100
AcDbEntity
  8
MSL5_120_3F-0
100
AcDbLine
 10
542.782286
 20
-138.745947
 30
0.0
 11
399.782286
 21
-138.745947
 31
0.0
  0
LINE
  5
104A
100
AcDbEntity
  8
MSL5_120_3F-0
100
AcDbLine
 10
542.782286
 20
-190.745947
 30
0.0
 11
399.782286
 21
-190.745947
 31
0.0
  0
LINE
  5
104B
100
AcDbEntity
  8
MSL5_120_3F-0
100
AcDbLine
 10
542.782286
 20
-165.745947
 30
0.0
 11
399.782286
 21
-165.745947
 31
0.0
  0
LINE
  5
104C
100
AcDbEntity
  8
MSL5_120_3F-3
100
AcDbLine
 10
542.782286
 20
-172.245947
 30
0.0
 11
418.782286
 21
-172.245947
 31
0.0
1001
GENIUS_GENBH_13
1002
{
1000
OE
1000
CON1
1002
}
1001
GENIUS_GENOREF_13
1005
116F
  0
LINE
  5
104D
100
AcDbEntity
  8
MSL5_120_3F-3
100
AcDbLine
 10
542.782286
 20
-184.245947
 30
0.0
 11
418.782286
 21
-184.245947
 31
0.0
1001
GENIUS_GENBH_13
1002
{
1000
OE
1000
CON1
1002
}
1001
GENIUS_GENOREF_13
1005
116F
  0
LINE
  5
104E
100
AcDbEntity
  8
MSL5_120_3F-0
100
AcDbLine
 10
542.782286
 20
-242.745947
 30
0.0
 11
406.384993
 21
-242.745947
 31
0.0
  0
LINE
  5
104F
100
AcDbEntity
  8
MSL5_120_3F-7
100
AcDbLine
 10
550.622252
 20
-230.245947
 30
0.0
 11
389.178292
 21
-230.245947
 31
0.0
  0
LINE
  5
1050
100
AcDbEntity
  8
MSL5_120_3F-7
100
AcDbLine
 10
550.622252
 20
-126.245947
 30
0.0
 11
389.178292
 21
-126.245947
 31
0.0
  0
LINE
  5
1051
100
AcDbEntity
  8
MSL5_120_3F-7
100
AcDbLine
 10
388.784436
 20
-178.245947
 30
0.0
 11
570.782286
 21
-178.245947
 31
0.0
1001
GENIUS_GENOREF_13
1005
116F
  0
LINE
  5
1052
100
AcDbEntity
  8
MSL5_120_3F-0
100
AcDbLine
 10
445.582286
 20
-237.637876
 30
0.0
 11
445.582286
 21
-214.637876
 31
0.0
  0
LINE
  5
1053
100
AcDbEntity
  8
MSL5_120_3F-0
100
AcDbLine
 10
445.582286
 20
-237.637876
 30
0.0
 11
446.582286
 21
-236.637876
 31
0.0
  0
ARC
  5
1054
100
AcDbEntity
  8
MSL5_120_3F-0
100
AcDbCircle
 10
404.888536
 20
-239.236329
 30
0.0
 40
5.10625
100
AcDbArc
 50
122.004627
 51
237.995373
  0
ARC
  5
1055
100
AcDbEntity
  8
MSL5_120_3F-0
100
AcDbCircle
 10
402.676036
 20
-239.236329
 30
0.0
 40
5.10625
100
AcDbArc
 50
302.004628
 51
57.995372
  0
LINE
  5
1056
100
AcDbEntity
  8
MSL5_120_3F-0
100
AcDbLine
 10
399.282286
 20
-252.245876
 30
0.0
 11
399.282286
 21
-229.18384
 31
0.0
  0
LINE
  5
1057
100
AcDbEntity
  8
MSL5_120_3F-0
100
AcDbLine
 10
399.782286
 20
-213.255566
 30
0.0
 11
399.782286
 21
-239.236329
 31
0.0
  0
LINE
  5
1058
100
AcDbEntity
  8
MSL5_120_3F-0
100
AcDbLine
 10
407.782286
 20
-213.255566
 30
0.0
 11
407.782286
 21
-239.236329
 31
0.0
  0
LINE
  5
1059
100
AcDbEntity
  8
MSL5_120_3F-0
100
AcDbLine
 10
408.282286
 20
-214.637876
 30
0.0
 11
408.282286
 21
-237.637876
 31
0.0
  0
LINE
  5
105A
100
AcDbEntity
  8
MSL5_120_3F-0
100
AcDbLine
 10
433.082286
 20
-214.637876
 30
0.0
 11
433.082286
 21
-237.637876
 31
0.0
  0
LINE
  5
105B
100
AcDbEntity
  8
MSL5_120_3F-0
100
AcDbLine
 10
402.182286
 20
-243.566456
 30
0.0
 11
405.382286
 21
-243.566456
 31
0.0
  0
LINE
  5
105C
100
AcDbEntity
  8
MSL5_120_3F-0
100
AcDbLine
 10
433.082286
 20
-237.637876
 30
0.0
 11
445.582286
 21
-237.637876
 31
0.0
  0
LINE
  5
105D
100
AcDbEntity
  8
MSL5_120_3F-0
100
AcDbLine
 10
408.282286
 20
-237.637876
 30
0.0
 11
407.68348
 21
-238.236682
 31
0.0
  0
LINE
  5
105E
100
AcDbEntity
  8
MSL5_120_3F-0
100
AcDbLine
 10
399.782286
 20
-164.745947
 30
0.0
 11
417.782286
 21
-164.745947
 31
0.0
  0
ARC
  5
105F
100
AcDbEntity
  8
MSL5_120_3F-0
100
AcDbCircle
 10
402.676036
 20
-213.255566
 30
0.0
 40
5.10625
100
AcDbArc
 50
302.004628
 51
57.995372
  0
ARC
  5
1060
100
AcDbEntity
  8
MSL5_120_3F-0
100
AcDbCircle
 10
390.957286
 20
-226.245947
 30
0.0
 40
16.825
100
AcDbArc
 50
329.020901
 51
30.979099
  0
LINE
  5
1061
100
AcDbEntity
  8
MSL5_120_3F-0
100
AcDbLine
 10
417.782286
 20
-191.745947
 30
0.0
 11
399.782286
 21
-191.745947
 31
0.0
  0
LINE
  5
1062
100
AcDbEntity
  8
MSL5_120_3F-7
100
AcDbLine
 10
394.673008
 20
-226.245947
 30
0.0
 11
451.56765
 21
-226.245947
 31
0.0
  0
LINE
  5
1063
100
AcDbEntity
  8
MSL5_120_3F-0
100
AcDbLine
 10
399.282286
 20
-229.18384
 30
0.0
 11
375.582286
 21
-229.18384
 31
0.0
  0
LINE
  5
1064
100
AcDbEntity
  8
MSL5_120_3F-0
100
AcDbLine
 10
375.582286
 20
-212.330862
 30
0.0
 11
399.282286
 21
-212.330862
 31
0.0
  0
LINE
  5
1065
100
AcDbEntity
  8
MSL5_120_3F-7
100
AcDbLine
 10
376.203786
 20
-221.40021
 30
0.0
 11
395.360786
 21
-221.40021
 31
0.0
1001
GENIUS_GENODEF_13
1002
{
1000
HIER
1070
     0
1002
}
1002
{
1000
MANEDIT
1070
     0
1002
}
1002
{
1000
NOSEL
1070
     0
1002
}
1002
{
1000
BEHIND
1070
     0
1002
}
1002
{
1000
REACTOR
1002
}
1001
GENIUS_GENOBJ-N-CEN_13
1002
{
1000
OWNER
1000
GEN
1002
}
  0
ELLIPSE
  5
1066
100
AcDbEntity
  8
MSL5_120_3F-4
100
AcDbEllipse
 10
385.782286
 20
-221.40021
 30
0.0
 11
-6.578499999999991
 21
0.0
 31
0.0
210
0.0
220
0.0
230
1.0
 40
0.766044
 41
1.503876197756385
 42
6.396900936057465
  0
ELLIPSE
  5
1067
100
AcDbEntity
  8
MSL5_120_3F-0
100
AcDbEllipse
 10
385.782286
 20
-221.40021
 30
0.0
 11
-5.722385000000002
 21
0.0
 31
0.0
210
0.0
220
0.0
230
1.0
 40
0.766044
 41
0.0
 42
6.2831853071796
  0
LINE
  5
1068
100
AcDbEntity
  8
MSL5_120_3F-0
100
AcDbLine
 10
375.582286
 20
-229.18384
 30
0.0
 11
375.582286
 21
-212.330862
 31
0.0
  0
LINE
  5
1069
100
AcDbEntity
  8
MSL5_120_3F-7
100
AcDbLine
 10
385.782286
 20
-213.360786
 30
0.0
 11
385.782286
 21
-229.439633
 31
0.0
1001
GENIUS_GENODEF_13
1002
{
1000
HIER
1070
     0
1002
}
1002
{
1000
MANEDIT
1070
     0
1002
}
1002
{
1000
NOSEL
1070
     0
1002
}
1002
{
1000
BEHIND
1070
     0
1002
}
1002
{
1000
REACTOR
1002
}
1001
GENIUS_GENOBJ-N-CEN_13
1002
{
1000
OWNER
1000
GEN
1002
}
  0
ARC
  5
106A
100
AcDbEntity
  8
MSL5_120_3F-0
100
AcDbCircle
 10
416.607286
 20
-226.245947
 30
0.0
 40
16.825
100
AcDbArc
 50
149.0209
 51
210.9791
  0
LINE
  5
106B
100
AcDbEntity
  8
MSL5_120_3F-0
100
AcDbLine
 10
402.182286
 20
-234.906201
 30
0.0
 11
405.382286
 21
-234.906201
 31
0.0
  0
ARC
  5
106C
100
AcDbEntity
  8
MSL5_120_3F-0
100
AcDbCircle
 10
404.888536
 20
-213.255566
 30
0.0
 40
5.10625
100
AcDbArc
 50
122.004627
 51
237.995373
  0
LINE
  5
106D
100
AcDbEntity
  8
MSL5_120_3F-0
100
AcDbLine
 10
402.182286
 20
-208.925439
 30
0.0
 11
405.382286
 21
-208.925439
 31
0.0
  0
LINE
  5
106E
100
AcDbEntity
  8
MSL5_120_3F-0
100
AcDbLine
 10
402.182286
 20
-217.585693
 30
0.0
 11
405.382286
 21
-217.585693
 31
0.0
  0
ARC
  5
106F
100
AcDbEntity
  8
MSL5_120_3F-0
100
AcDbCircle
 10
399.673605
 20
-133.607163
 30
0.0
 40
3.108681
100
AcDbArc
 50
307.878144
 51
52.121856
  0
LINE
  5
1070
100
AcDbEntity
  8
MSL5_120_3F-0
100
AcDbLine
 10
402.782286
 20
-118.884732
 30
0.0
 11
402.782286
 21
-133.607163
 31
0.0
  0
LINE
  5
1071
100
AcDbEntity
  8
MSL5_120_3F-0
100
AcDbLine
 10
399.782286
 20
-136.045947
 30
0.0
 11
401.601357
 21
-136.045947
 31
0.0
  0
ARC
  5
1072
100
AcDbEntity
  8
MSL5_120_3F-0
100
AcDbCircle
 10
392.147564
 20
-126.245947
 30
0.0
 40
10.634722
100
AcDbArc
 50
332.518773
 51
27.481227
  0
LINE
  5
1073
100
AcDbEntity
  8
MSL5_120_3F-0
100
AcDbLine
 10
401.582286
 20
-131.153425
 30
0.0
 11
399.782286
 21
-131.153425
 31
0.0
  0
LINE
  5
1074
100
AcDbEntity
  8
MSL5_120_3F-0
100
AcDbLine
 10
401.582286
 20
-121.33847
 30
0.0
 11
399.782286
 21
-121.33847
 31
0.0
  0
LINE
  5
1075
100
AcDbEntity
  8
MSL5_120_3F-3
100
AcDbLine
 10
418.782286
 20
-165.745947
 30
0.0
 11
418.782286
 21
-190.745947
 31
0.0
1001
GENIUS_GENBH_13
1002
{
1000
OE
1000
CON1
1002
}
1001
GENIUS_GENOREF_13
1005
116F
  0
LINE
  5
1076
100
AcDbEntity
  8
MSL5_120_3F-3
100
AcDbLine
 10
417.782286
 20
-165.745947
 30
0.0
 11
417.782286
 21
-190.745947
 31
0.0
1001
GENIUS_GENBH_13
1002
{
1000
OE
1000
CON1
1002
}
1001
GENIUS_GENOREF_13
1005
116F
  0
LINE
  5
1077
100
AcDbEntity
  8
MSL5_120_3F-0
100
AcDbLine
 10
445.582286
 20
-214.637876
 30
0.0
 11
433.082286
 21
-214.637876
 31
0.0
  0
LINE
  5
1078
100
AcDbEntity
  8
MSL5_120_3F-0
100
AcDbLine
 10
408.282286
 20
-230.137876
 30
0.0
 11
433.082286
 21
-230.137876
 31
0.0
  0
LINE
  5
1079
100
AcDbEntity
  8
MSL5_120_3F-0
100
AcDbLine
 10
433.082286
 20
-217.745947
 30
0.0
 11
408.282286
 21
-217.745947
 31
0.0
  0
LINE
  5
107A
100
AcDbEntity
  8
MSL5_120_3F-0
100
AcDbLine
 10
408.282286
 20
-222.137876
 30
0.0
 11
433.082286
 21
-222.137876
 31
0.0
  0
LINE
  5
107B
100
AcDbEntity
  8
MSL5_120_3F-0
100
AcDbLine
 10
407.716568
 20
-214.072158
 30
0.0
 11
408.282286
 21
-214.637876
 31
0.0
  0
LINE
  5
107C
100
AcDbEntity
  8
MSL5_120_3F-0
100
AcDbLine
 10
418.782286
 20
-190.745947
 30
0.0
 11
417.782286
 21
-191.745947
 31
0.0
  0
LINE
  5
107D
100
AcDbEntity
  8
MSL5_120_3F-0
100
AcDbLine
 10
417.782286
 20
-190.745947
 30
0.0
 11
417.782286
 21
-191.745947
 31
0.0
1001
GENIUS_GENOREF_13
1005
116F
  0
LINE
  5
107E
100
AcDbEntity
  8
MSL5_120_3F-0
100
AcDbLine
 10
446.582286
 20
-236.637876
 30
0.0
 11
446.582286
 21
-215.637876
 31
0.0
  0
LINE
  5
107F
100
AcDbEntity
  8
MSL5_120_3F-0
100
AcDbLine
 10
446.582286
 20
-215.637876
 30
0.0
 11
445.582286
 21
-214.637876
 31
0.0
  0
LINE
  5
1080
100
AcDbEntity
  8
MSL5_120_3F-0
100
AcDbLine
 10
417.782286
 20
-164.745947
 30
0.0
 11
418.782286
 21
-165.745947
 31
0.0
  0
LINE
  5
1081
100
AcDbEntity
  8
MSL5_120_3F-0
100
AcDbLine
 10
417.782286
 20
-164.745947
 30
0.0
 11
417.782286
 21
-165.745947
 31
0.0
1001
GENIUS_GENOREF_13
1005
116F
  0
LINE
  5
1082
100
AcDbEntity
  8
MSL5_120_3F-3
100
AcDbLine
 10
563.970286
 20
-253.245876
 30
0.0
 11
563.970286
 21
-230.245876
 31
0.0
  0
LINE
  5
1083
100
AcDbEntity
  8
MSL5_120_3F-3
100
AcDbLine
 10
555.594286
 20
-253.245876
 30
0.0
 11
555.594286
 21
-230.245876
 31
0.0
  0
LINE
  5
1084
100
AcDbEntity
  8
MSL5_120_3F-7
100
AcDbLine
 10
559.782286
 20
-224.827933
 30
0.0
 11
559.782286
 21
-256.245876
 31
0.0
  0
LINE
  5
1085
100
AcDbEntity
  8
MSL5_120_3F-3
100
AcDbLine
 10
564.782286
 20
-253.245876
 30
0.0
 11
564.782286
 21
-236.245876
 31
0.0
  0
LINE
  5
1086
100
AcDbEntity
  8
MSL5_120_3F-3
100
AcDbLine
 10
554.782286
 20
-253.245876
 30
0.0
 11
554.782286
 21
-236.245876
 31
0.0
  0
LINE
  5
1087
100
AcDbEntity
  8
MSL5_120_3F-0
100
AcDbLine
 10
567.782286
 20
-253.245947
 30
0.0
 11
542.782286
 21
-253.245947
 31
0.0
  0
LINE
  5
1088
100
AcDbEntity
  8
MSL5_120_3F-7
100
AcDbLine
 10
542.782286
 20
-130.245876
 30
0.0
 11
558.782286
 21
-130.245876
 31
0.0
  0
ARC
  5
1089
100
AcDbEntity
  8
MSL5_120_3F-3
100
AcDbCircle
 10
550.782286
 20
-130.245876
 30
0.0
 40
5.0
100
AcDbArc
 50
280.0
 51
210.0
  0
CIRCLE
  5
108A
100
AcDbEntity
  8
MSL5_120_3F-3
100
AcDbCircle
 10
550.782286
 20
-130.245876
 30
0.0
 40
4.188
  0
LINE
  5
108B
100
AcDbEntity
  8
MSL5_120_3F-3
100
AcDbLine
 10
542.782286
 20
-143.245876
 30
0.0
 11
567.782286
 21
-143.245876
 31
0.0
  0
LINE
  5
108C
100
AcDbEntity
  8
MSL5_120_3F-0
100
AcDbLine
 10
567.782286
 20
-165.693835
 30
0.0
 11
542.782286
 21
-165.693835
 31
0.0
  0
LINE
  5
108D
100
AcDbEntity
  8
MSL5_120_3F-3
100
AcDbLine
 10
542.782286
 20
-153.245876
 30
0.0
 11
567.782286
 21
-153.245876
 31
0.0
  0
LINE
  5
108E
100
AcDbEntity
  8
MSL5_120_3F-7
100
AcDbLine
 10
569.782286
 20
-148.245876
 30
0.0
 11
540.782286
 21
-148.245876
 31
0.0
  0
LINE
  5
108F
100
AcDbEntity
  8
MSL5_120_3F-3
100
AcDbLine
 10
549.782286
 20
-202.745876
 30
0.0
 11
567.782286
 21
-202.745876
 31
0.0
  0
LINE
  5
1090
100
AcDbEntity
  8
MSL5_120_3F-0
100
AcDbLine
 10
567.782286
 20
-190.798058
 30
0.0
 11
542.782286
 21
-190.798058
 31
0.0
  0
LINE
  5
1091
100
AcDbEntity
  8
MSL5_120_3F-7
100
AcDbLine
 10
542.782286
 20
-226.245876
 30
0.0
 11
558.782286
 21
-226.245876
 31
0.0
  0
CIRCLE
  5
1092
100
AcDbEntity
  8
MSL5_120_3F-3
100
AcDbCircle
 10
550.782286
 20
-226.245876
 30
0.0
 40
4.188
  0
ARC
  5
1093
100
AcDbEntity
  8
MSL5_120_3F-3
100
AcDbCircle
 10
550.782286
 20
-226.245876
 30
0.0
 40
5.0
100
AcDbArc
 50
280.0
 51
210.0
  0
LINE
  5
1094
100
AcDbEntity
  8
MSL5_120_3F-3
100
AcDbLine
 10
549.782286
 20
-213.745876
 30
0.0
 11
567.782286
 21
-213.745876
 31
0.0
  0
LINE
  5
1095
100
AcDbEntity
  8
MSL5_120_3F-7
100
AcDbLine
 10
569.782286
 20
-208.245876
 30
0.0
 11
540.782286
 21
-208.245876
 31
0.0
  0
LINE
  5
1096
100
AcDbEntity
  8
MSL5_120_3F-3
100
AcDbLine
 10
549.782286
 20
-199.245876
 30
0.0
 11
549.782286
 21
-217.245876
 31
0.0
  0
LINE
  5
1097
100
AcDbEntity
  8
MSL5_120_3F-7
100
AcDbLine
 10
550.782286
 20
-234.245876
 30
0.0
 11
550.782286
 21
-218.245876
 31
0.0
  0
LINE
  5
1098
100
AcDbEntity
  8
MSL5_120_3F-3
100
AcDbLine
 10
549.782286
 20
-217.245876
 30
0.0
 11
542.782286
 21
-217.245876
 31
0.0
  0
LINE
  5
1099
100
AcDbEntity
  8
MSL5_120_3F-3
100
AcDbLine
 10
542.782286
 20
-199.245876
 30
0.0
 11
549.782286
 21
-199.245876
 31
0.0
  0
LINE
  5
109A
100
AcDbEntity
  8
MSL5_120_3F-0
100
AcDbLine
 10
526.782286
 20
-122.245947
 30
0.0
 11
538.782286
 21
-122.245947
 31
0.0
  0
LINE
  5
109B
100
AcDbEntity
  8
MSL5_120_3F-0
100
AcDbLine
 10
526.782286
 20
-130.245947
 30
0.0
 11
538.782286
 21
-130.245947
 31
0.0
  0
LINE
  5
109C
100
AcDbEntity
  8
MSL5_120_3F-0
100
AcDbLine
 10
526.782286
 20
-133.751501
 30
0.0
 11
526.782286
 21
-118.740394
 31
0.0
  0
ARC
  5
109D
100
AcDbEntity
  8
MSL5_120_3F-0
100
AcDbCircle
 10
525.344451
 20
-131.875113
 30
0.0
 40
2.562165
100
AcDbArc
 50
132.916662
 51
227.083338
  0
LINE
  5
109E
100
AcDbEntity
  8
MSL5_120_3F-0
100
AcDbLine
 10
523.599786
 20
-133.751501
 30
0.0
 11
526.782286
 21
-133.751501
 31
0.0
  0
LINE
  5
109F
100
AcDbEntity
  8
MSL5_120_3F-0
100
AcDbLine
 10
523.599786
 20
-122.493171
 30
0.0
 11
526.782286
 21
-122.493171
 31
0.0
  0
LINE
  5
10A0
100
AcDbEntity
  8
MSL5_120_3F-0
100
AcDbLine
 10
523.599786
 20
-129.998724
 30
0.0
 11
526.782286
 21
-129.998724
 31
0.0
  0
LINE
  5
10A1
100
AcDbEntity
  8
MSL5_120_3F-0
100
AcDbLine
 10
526.782286
 20
-118.740394
 30
0.0
 11
523.599786
 21
-118.740394
 31
0.0
  0
ARC
  5
10A2
100
AcDbEntity
  8
MSL5_120_3F-0
100
AcDbCircle
 10
525.344451
 20
-120.616782
 30
0.0
 40
2.562165
100
AcDbArc
 50
132.916662
 51
227.083338
  0
ARC
  5
10A3
100
AcDbEntity
  8
MSL5_120_3F-0
100
AcDbCircle
 10
531.804696
 20
-126.245947
 30
0.0
 40
9.02241
100
AcDbArc
 50
155.421502
 51
204.578498
  0
LINE
  5
10A4
100
AcDbEntity
  8
MSL5_120_3F-0
100
AcDbLine
 10
522.782286
 20
-131.875113
 30
0.0
 11
522.782286
 21
-120.616782
 31
0.0
  0
LINE
  5
10A5
100
AcDbEntity
  8
MSL5_120_3F-7
100
AcDbLine
 10
550.782286
 20
-138.245876
 30
0.0
 11
550.782286
 21
-122.245876
 31
0.0
  0
ARC
  5
10A6
100
AcDbEntity
  8
MSL5_120_3F-0
100
AcDbCircle
 10
541.075342
 20
-131.875113
 30
0.0
 40
2.293056
100
AcDbArc
 50
125.085847
 51
234.914153
  0
ARC
  5
10A7
100
AcDbEntity
  8
MSL5_120_3F-0
100
AcDbCircle
 10
540.48923
 20
-131.875113
 30
0.0
 40
2.293056
100
AcDbArc
 50
305.085848
 51
54.914152
  0
LINE
  5
10A8
100
AcDbEntity
  8
MSL5_120_3F-0
100
AcDbLine
 10
539.757286
 20
-133.751501
 30
0.0
 11
541.807286
 21
-133.751501
 31
0.0
  0
LINE
  5
10A9
100
AcDbEntity
  8
MSL5_120_3F-0
100
AcDbLine
 10
542.782286
 20
-120.616782
 30
0.0
 11
542.782286
 21
-131.875113
 31
0.0
  0
ARC
  5
10AA
100
AcDbEntity
  8
MSL5_120_3F-0
100
AcDbCircle
 10
541.075342
 20
-120.616782
 30
0.0
 40
2.293056
100
AcDbArc
 50
125.085847
 51
234.914153
  0
LINE
  5
10AB
100
AcDbEntity
  8
MSL5_120_3F-0
100
AcDbLine
 10
539.757286
 20
-122.493171
 30
0.0
 11
541.807286
 21
-122.493171
 31
0.0
  0
LINE
  5
10AC
100
AcDbEntity
  8
MSL5_120_3F-0
100
AcDbLine
 10
539.757286
 20
-129.998724
 30
0.0
 11
541.807286
 21
-129.998724
 31
0.0
  0
ARC
  5
10AD
100
AcDbEntity
  8
MSL5_120_3F-0
100
AcDbCircle
 10
546.492008
 20
-126.245947
 30
0.0
 40
7.709722
100
AcDbArc
 50
150.872216
 51
209.127784
  0
LINE
  5
10AE
100
AcDbEntity
  8
MSL5_120_3F-0
100
AcDbLine
 10
538.782286
 20
-120.616782
 30
0.0
 11
538.782286
 21
-131.875113
 31
0.0
  0
LINE
  5
10AF
100
AcDbEntity
  8
MSL5_120_3F-0
100
AcDbLine
 10
539.757286
 20
-118.740394
 30
0.0
 11
541.807286
 21
-118.740394
 31
0.0
  0
ARC
  5
10B0
100
AcDbEntity
  8
MSL5_120_3F-0
100
AcDbCircle
 10
540.48923
 20
-120.616782
 30
0.0
 40
2.293056
100
AcDbArc
 50
305.085848
 51
54.914152
  0
ARC
  5
10B1
100
AcDbEntity
  8
MSL5_120_3F-0
100
AcDbCircle
 10
535.072564
 20
-126.245947
 30
0.0
 40
7.709722
100
AcDbArc
 50
330.872218
 51
29.127782
  0
LINE
  5
10B2
100
AcDbEntity
  8
MSL5_120_3F-3
100
AcDbLine
 10
559.782286
 20
-227.827933
 30
0.0
 11
563.970286
 21
-230.245876
 31
0.0
  0
LINE
  5
10B3
100
AcDbEntity
  8
MSL5_120_3F-3
100
AcDbLine
 10
554.782286
 20
-236.245876
 30
0.0
 11
564.782286
 21
-236.245876
 31
0.0
  0
LINE
  5
10B4
100
AcDbEntity
  8
MSL5_120_3F-3
100
AcDbLine
 10
563.970286
 20
-230.245876
 30
0.0
 11
555.594286
 21
-230.245876
 31
0.0
  0
LINE
  5
10B5
100
AcDbEntity
  8
MSL5_120_3F-3
100
AcDbLine
 10
559.782286
 20
-227.827933
 30
0.0
 11
555.594286
 21
-230.245876
 31
0.0
  0
LINE
  5
10B6
100
AcDbEntity
  8
MSL5_120_3F-3
100
AcDbLine
 10
559.782286
 20
-128.663819
 30
0.0
 11
563.970286
 21
-126.245876
 31
0.0
  0
LINE
  5
10B7
100
AcDbEntity
  8
MSL5_120_3F-3
100
AcDbLine
 10
554.782286
 20
-120.245876
 30
0.0
 11
564.782286
 21
-120.245876
 31
0.0
  0
LINE
  5
10B8
100
AcDbEntity
  8
MSL5_120_3F-3
100
AcDbLine
 10
563.970286
 20
-126.245876
 30
0.0
 11
555.594286
 21
-126.245876
 31
0.0
  0
LINE
  5
10B9
100
AcDbEntity
  8
MSL5_120_3F-3
100
AcDbLine
 10
559.782286
 20
-128.663819
 30
0.0
 11
555.594286
 21
-126.245876
 31
0.0
  0
LINE
  5
10BA
100
AcDbEntity
  8
MSL5_120_3F-0
100
AcDbLine
 10
542.782286
 20
80.5
 30
0.0
 11
399.782286
 21
80.5
 31
0.0
  0
LINE
  5
10BB
100
AcDbEntity
  8
MSL5_120_3F-0
100
AcDbLine
 10
399.782286
 20
105.5
 30
0.0
 11
542.782286
 21
105.5
 31
0.0
  0
LINE
  5
10BC
100
AcDbEntity
  8
MSL5_120_3F-7
100
AcDbLine
 10
389.178292
 20
93.0
 30
0.0
 11
570.782286
 21
93.0
 31
0.0
  0
LINE
  5
10BD
100
AcDbEntity
  8
MSL5_120_3F-0
100
AcDbLine
 10
542.782286
 20
-12.5
 30
0.0
 11
399.782286
 21
-12.5
 31
0.0
  0
LINE
  5
10BE
100
AcDbEntity
  8
MSL5_120_3F-0
100
AcDbLine
 10
399.782286
 20
12.5
 30
0.0
 11
542.782286
 21
12.5
 31
0.0
  0
LINE
  5
10BF
100
AcDbEntity
  8
MSL5_120_3F-0
100
AcDbLine
 10
542.782286
 20
-113.745947
 30
0.0
 11
399.782286
 21
-113.745947
 31
0.0
  0
LINE
  5
10C0
100
AcDbEntity
  8
MSL5_120_3F-7
100
AcDbLine
 10
389.178292
 20
0.0
 30
0.0
 11
570.782286
 21
0.0
 31
0.0
  0
LINE
  5
10C1
100
AcDbEntity
  8
MSL5_120_3F-0
100
AcDbLine
 10
399.782286
 20
119.0
 30
0.0
 11
399.782286
 21
-38.0
 31
0.0
  0
LINE
  5
10C2
100
AcDbEntity
  8
MSL5_120_3F-0
100
AcDbLine
 10
417.782286
 20
-13.5
 30
0.0
 11
399.782286
 21
-13.5
 31
0.0
  0
LINE
  5
10C3
100
AcDbEntity
  8
MSL5_120_3F-0
100
AcDbLine
 10
359.746786
 20
-104.245876
 30
0.0
 11
399.282286
 21
-104.245876
 31
0.0
  0
LINE
  5
10C4
100
AcDbEntity
  8
MSL5_120_3F-0
100
AcDbLine
 10
357.797534
 20
-103.245947
 30
0.0
 11
399.782286
 21
-103.245947
 31
0.0
  0
LINE
  5
10C5
100
AcDbEntity
  8
MSL5_120_3F-7
100
AcDbLine
 10
364.282286
 20
-107.166165
 30
0.0
 11
347.282286
 21
-107.166179
 31
0.0
1001
GENIUS_GENODEF_13
1002
{
1000
HIER
1070
     0
1002
}
1002
{
1000
MANEDIT
1070
     0
1002
}
1002
{
1000
NOSEL
1070
     0
1002
}
1002
{
1000
BEHIND
1070
     0
1002
}
1002
{
1000
REACTOR
1002
}
1001
GENIUS_GENOBJ-N-CEN_13
1002
{
1000
OWNER
1000
GEN
1002
}
  0
ELLIPSE
  5
10C6
100
AcDbEntity
  8
MSL5_120_3F-0
100
AcDbEllipse
 10
355.782289
 20
-108.901695
 30
0.0
 11
-5.499999999998895
 21
-0.0000090659728525
 31
0.0
210
0.0
220
0.0
230
-1.0
 40
0.766044
 41
-3.141592653589791
 42
0.0000000000001092
  0
ELLIPSE
  5
10C7
100
AcDbEntity
  8
MSL5_120_3F-0
100
AcDbEllipse
 10
355.782286
 20
-107.166177
 30
0.0
 11
-5.500000000006366
 21
0.0
 31
0.0
210
0.0
220
0.0
230
1.0
 40
0.766044
 41
0.0
 42
6.2831853071796
  0
LINE
  5
10C8
100
AcDbEntity
  8
MSL5_120_3F-0
100
AcDbLine
 10
350.282289
 20
-108.901704
 30
0.0
 11
350.282286
 21
-107.166177
 31
0.0
  0
LINE
  5
10C9
100
AcDbEntity
  8
MSL5_120_3F-7
100
AcDbLine
 10
355.782286
 20
-114.379421
 30
0.0
 11
355.782286
 21
-99.952933
 31
0.0
1001
GENIUS_GENODEF_13
1002
{
1000
HIER
1070
     0
1002
}
1002
{
1000
MANEDIT
1070
     0
1002
}
1002
{
1000
NOSEL
1070
     0
1002
}
1002
{
1000
BEHIND
1070
     0
1002
}
1002
{
1000
REACTOR
1002
}
1001
GENIUS_GENOBJ-N-CEN_13
1002
{
1000
OWNER
1000
GEN
1002
}
  0
LINE
  5
10CA
100
AcDbEntity
  8
MSL5_120_3F-0
100
AcDbLine
 10
357.782286
 20
-107.166159
 30
0.0
 11
355.782284
 21
-105.880593
 31
0.0
  0
LINE
  5
10CB
100
AcDbEntity
  8
MSL5_120_3F-0
100
AcDbLine
 10
361.282289
 20
-108.901695
 30
0.0
 11
361.282286
 21
-107.16615
 31
0.0
  0
ELLIPSE
  5
10CC
100
AcDbEntity
  8
MSL5_120_3F-0
100
AcDbEllipse
 10
355.782286
 20
-107.166177
 30
0.0
 11
-2.000000000006366
 21
0.0
 31
0.0
210
0.0
220
0.0
230
1.0
 40
0.766044
 41
0.0
 42
6.2831853071796
  0
LINE
  5
10CD
100
AcDbEntity
  8
MSL5_120_3F-0
100
AcDbLine
 10
355.782284
 20
-105.880593
 30
0.0
 11
353.782286
 21
-107.166171
 31
0.0
  0
LINE
  5
10CE
100
AcDbEntity
  8
MSL5_120_3F-0
100
AcDbLine
 10
401.601357
 20
-116.445947
 30
0.0
 11
399.782286
 21
-116.445947
 31
0.0
  0
LINE
  5
10CF
100
AcDbEntity
  8
MSL5_120_3F-0
100
AcDbLine
 10
418.782286
 20
-12.5
 30
0.0
 11
417.782286
 21
-13.5
 31
0.0
  0
LINE
  5
10D0
100
AcDbEntity
  8
MSL5_120_3F-0
100
AcDbLine
 10
417.782286
 20
-12.5
 30
0.0
 11
417.782286
 21
-13.5
 31
0.0
  0
LINE
  5
10D1
100
AcDbEntity
  8
MSL5_120_3F-0
100
AcDbLine
 10
399.782286
 20
13.5
 30
0.0
 11
417.782286
 21
13.5
 31
0.0
  0
LINE
  5
10D2
100
AcDbEntity
  8
MSL5_120_3F-7
100
AcDbLine
 10
393.094724
 20
52.0
 30
0.0
 11
407.216591
 21
52.0
 31
0.0
  0
LINE
  5
10D3
100
AcDbEntity
  8
MSL5_120_3F-0
100
AcDbLine
 10
399.282286
 20
38.0
 30
0.0
 11
399.282286
 21
87.575422
 31
0.0
  0
ARC
  5
10D4
100
AcDbEntity
  8
MSL5_120_3F-0
100
AcDbCircle
 10
399.673605
 20
59.361216
 30
0.0
 40
3.108681
100
AcDbArc
 50
307.878144
 51
52.121856
  0
LINE
  5
10D5
100
AcDbEntity
  8
MSL5_120_3F-4
100
AcDbLine
 10
399.282286
 20
40.0
 30
0.0
 11
369.282286
 21
40.0
 31
0.0
  0
LINE
  5
10D6
100
AcDbEntity
  8
MSL5_120_3F-0
100
AcDbLine
 10
399.282286
 20
38.0
 30
0.0
 11
369.282286
 21
38.0
 31
0.0
  0
LINE
  5
10D7
100
AcDbEntity
  8
MSL5_120_3F-0
100
AcDbLine
 10
361.282286
 20
38.0
 30
0.0
 11
364.282286
 21
38.0
 31
0.0
  0
LINE
  5
10D8
100
AcDbEntity
  8
MSL5_120_3F-0
100
AcDbLine
 10
369.282286
 20
38.0
 30
0.0
 11
369.282286
 21
40.0
 31
0.0
  0
LINE
  5
10D9
100
AcDbEntity
  8
MSL5_120_3F-0
100
AcDbLine
 10
364.282286
 20
38.0
 30
0.0
 11
364.282286
 21
40.0
 31
0.0
  0
LINE
  5
10DA
100
AcDbEntity
  8
MSL5_120_3F-0
100
AcDbLine
 10
369.282286
 20
40.0
 30
0.0
 11
364.282286
 21
40.0
 31
0.0
  0
ARC
  5
10DB
100
AcDbEntity
  8
MSL5_120_3F-0
100
AcDbCircle
 10
399.673605
 20
44.638785
 30
0.0
 40
3.108681
100
AcDbArc
 50
307.878144
 51
52.121856
  0
LINE
  5
10DC
100
AcDbEntity
  8
MSL5_120_3F-0
100
AcDbLine
 10
402.782286
 20
44.638785
 30
0.0
 11
402.782286
 21
59.361216
 31
0.0
  0
LINE
  5
10DD
100
AcDbEntity
  8
MSL5_120_3F-0
100
AcDbLine
 10
401.601357
 20
42.2
 30
0.0
 11
399.782286
 21
42.2
 31
0.0
  0
ARC
  5
10DE
100
AcDbEntity
  8
MSL5_120_3F-0
100
AcDbCircle
 10
392.147564
 20
52.0
 30
0.0
 40
10.634722
100
AcDbArc
 50
332.518773
 51
27.481227
  0
LINE
  5
10DF
100
AcDbEntity
  8
MSL5_120_3F-0
100
AcDbLine
 10
401.582286
 20
47.092523
 30
0.0
 11
399.782286
 21
47.092523
 31
0.0
  0
LINE
  5
10E0
100
AcDbEntity
  8
MSL5_120_3F-0
100
AcDbLine
 10
401.582286
 20
56.907478
 30
0.0
 11
399.782286
 21
56.907478
 31
0.0
  0
LINE
  5
10E1
100
AcDbEntity
  8
MSL5_120_3F-7
100
AcDbLine
 10
385.782286
 20
101.874664
 30
0.0
 11
385.782286
 21
87.417507
 31
0.0
1001
GENIUS_GENODEF_13
1002
{
1000
HIER
1070
     0
1002
}
1002
{
1000
MANEDIT
1070
     0
1002
}
1002
{
1000
NOSEL
1070
     0
1002
}
1002
{
1000
BEHIND
1070
     0
1002
}
1002
{
1000
REACTOR
1002
}
1001
GENIUS_GENOBJ-N-CEN_13
1002
{
1000
OWNER
1000
GEN
1002
}
  0
LINE
  5
10E2
100
AcDbEntity
  8
MSL5_120_3F-0
100
AcDbLine
 10
375.582286
 20
87.575422
 30
0.0
 11
375.582286
 21
101.716749
 31
0.0
  0
LINE
  5
10E3
100
AcDbEntity
  8
MSL5_120_3F-0
100
AcDbLine
 10
399.282286
 20
87.575422
 30
0.0
 11
375.582286
 21
87.575422
 31
0.0
  0
LINE
  5
10E4
100
AcDbEntity
  8
MSL5_120_3F-0
100
AcDbLine
 10
399.782286
 20
61.8
 30
0.0
 11
401.601357
 21
61.8
 31
0.0
  0
LINE
  5
10E5
100
AcDbEntity
  8
MSL5_120_3F-0
100
AcDbLine
 10
375.582286
 20
101.716749
 30
0.0
 11
399.282286
 21
101.716749
 31
0.0
  0
LINE
  5
10E6
100
AcDbEntity
  8
MSL5_120_3F-7
100
AcDbLine
 10
376.203786
 20
94.646085
 30
0.0
 11
395.360786
 21
94.646085
 31
0.0
1001
GENIUS_GENODEF_13
1002
{
1000
HIER
1070
     0
1002
}
1002
{
1000
MANEDIT
1070
     0
1002
}
1002
{
1000
NOSEL
1070
     0
1002
}
1002
{
1000
BEHIND
1070
     0
1002
}
1002
{
1000
REACTOR
1002
}
1001
GENIUS_GENOBJ-N-CEN_13
1002
{
1000
OWNER
1000
GEN
1002
}
  0
ELLIPSE
  5
10E7
100
AcDbEntity
  8
MSL5_120_3F-4
100
AcDbEllipse
 10
385.782286
 20
94.646085
 30
0.0
 11
-6.578500000000019
 21
0.0
 31
0.0
210
0.0
220
0.0
230
1.0
 40
0.642788
 41
1.514618869528128
 42
6.418462237826797
  0
ELLIPSE
  5
10E8
100
AcDbEntity
  8
MSL5_120_3F-0
100
AcDbEllipse
 10
385.782286
 20
94.646085
 30
0.0
 11
-5.722384999999974
 21
0.0
 31
0.0
210
0.0
220
0.0
230
1.0
 40
0.642788
 41
0.0
 42
6.2831853071796
  0
LINE
  5
10E9
100
AcDbEntity
  8
MSL5_120_3F-0
100
AcDbLine
 10
399.282286
 20
119.0
 30
0.0
 11
399.782286
 21
119.0
 31
0.0
  0
LINE
  5
10EA
100
AcDbEntity
  8
MSL5_120_3F-0
100
AcDbLine
 10
417.782286
 20
13.5
 30
0.0
 11
417.782286
 21
12.5
 31
0.0
  0
LINE
  5
10EB
100
AcDbEntity
  8
MSL5_120_3F-0
100
AcDbLine
 10
417.782286
 20
13.5
 30
0.0
 11
418.782286
 21
12.5
 31
0.0
  0
LINE
  5
10EC
100
AcDbEntity
  8
MSL5_120_3F-0
100
AcDbLine
 10
567.782286
 20
119.0
 30
0.0
 11
567.782286
 21
-39.0
 31
0.0
  0
LINE
  5
10ED
100
AcDbEntity
  8
MSL5_120_3F-0
100
AcDbLine
 10
542.782286
 20
119.0
 30
0.0
 11
542.782286
 21
-39.0
 31
0.0
  0
LINE
  5
10EE
100
AcDbEntity
  8
MSL5_120_3F-3
100
AcDbLine
 10
546.594286
 20
-16.0
 30
0.0
 11
554.970286
 21
-16.0
 31
0.0
  0
LINE
  5
10EF
100
AcDbEntity
  8
MSL5_120_3F-3
100
AcDbLine
 10
546.594286
 20
-16.0
 30
0.0
 11
554.970286
 21
-16.0
 31
0.0
  0
LINE
  5
10F0
100
AcDbEntity
  8
MSL5_120_3F-3
100
AcDbLine
 10
545.782286
 20
-22.0
 30
0.0
 11
555.782286
 21
-22.0
 31
0.0
  0
LINE
  5
10F1
100
AcDbEntity
  8
MSL5_120_3F-3
100
AcDbLine
 10
545.782286
 20
-22.0
 30
0.0
 11
555.782286
 21
-22.0
 31
0.0
  0
LINE
  5
10F2
100
AcDbEntity
  8
MSL5_120_3F-3
100
AcDbLine
 10
550.782286
 20
-13.582057
 30
0.0
 11
554.970286
 21
-16.0
 31
0.0
  0
LINE
  5
10F3
100
AcDbEntity
  8
MSL5_120_3F-3
100
AcDbLine
 10
550.782286
 20
-13.582057
 30
0.0
 11
554.970286
 21
-16.0
 31
0.0
  0
LINE
  5
10F4
100
AcDbEntity
  8
MSL5_120_3F-7
100
AcDbLine
 10
551.782286
 20
-30.0
 30
0.0
 11
567.782286
 21
-30.0
 31
0.0
  0
LINE
  5
10F5
100
AcDbEntity
  8
MSL5_120_3F-0
100
AcDbLine
 10
567.782286
 20
-39.0
 30
0.0
 11
542.782286
 21
-39.0
 31
0.0
  0
LINE
  5
10F6
100
AcDbEntity
  8
MSL5_120_3F-7
100
AcDbLine
 10
569.782286
 20
-30.0
 30
0.0
 11
540.782286
 21
-30.0
 31
0.0
  0
LINE
  5
10F7
100
AcDbEntity
  8
MSL5_120_3F-0
100
AcDbLine
 10
542.782286
 20
-103.245947
 30
0.0
 11
567.782286
 21
-103.245947
 31
0.0
  0
LINE
  5
10F8
100
AcDbEntity
  8
MSL5_120_3F-7
100
AcDbLine
 10
550.782286
 20
-10.582057
 30
0.0
 11
550.782286
 21
-42.0
 31
0.0
  0
LINE
  5
10F9
100
AcDbEntity
  8
MSL5_120_3F-7
100
AcDbLine
 10
550.782286
 20
-10.582057
 30
0.0
 11
550.782286
 21
-42.0
 31
0.0
  0
LINE
  5
10FA
100
AcDbEntity
  8
MSL5_120_3F-3
100
AcDbLine
 10
545.782286
 20
-39.0
 30
0.0
 11
545.782286
 21
-22.0
 31
0.0
  0
LINE
  5
10FB
100
AcDbEntity
  8
MSL5_120_3F-3
100
AcDbLine
 10
545.782286
 20
-39.0
 30
0.0
 11
545.782286
 21
-22.0
 31
0.0
  0
LINE
  5
10FC
100
AcDbEntity
  8
MSL5_120_3F-3
100
AcDbLine
 10
546.594286
 20
-39.0
 30
0.0
 11
546.594286
 21
-16.0
 31
0.0
  0
LINE
  5
10FD
100
AcDbEntity
  8
MSL5_120_3F-3
100
AcDbLine
 10
546.594286
 20
-39.0
 30
0.0
 11
546.594286
 21
-16.0
 31
0.0
  0
LINE
  5
10FE
100
AcDbEntity
  8
MSL5_120_3F-3
100
AcDbLine
 10
550.782286
 20
-13.582057
 30
0.0
 11
546.594286
 21
-16.0
 31
0.0
  0
LINE
  5
10FF
100
AcDbEntity
  8
MSL5_120_3F-3
100
AcDbLine
 10
550.782286
 20
-13.582057
 30
0.0
 11
546.594286
 21
-16.0
 31
0.0
  0
CIRCLE
  5
1100
100
AcDbEntity
  8
MSL5_120_3F-0
100
AcDbCircle
 10
559.782286
 20
-30.0
 30
0.0
 40
4.188
  0
ARC
  5
1101
100
AcDbEntity
  8
MSL5_120_3F-4
100
AcDbCircle
 10
559.782286
 20
-30.0
 30
0.0
 40
5.0
100
AcDbArc
 50
280.0
 51
210.0
  0
LINE
  5
1102
100
AcDbEntity
  8
MSL5_120_3F-3
100
AcDbLine
 10
555.782286
 20
-39.0
 30
0.0
 11
555.782286
 21
-22.0
 31
0.0
  0
LINE
  5
1103
100
AcDbEntity
  8
MSL5_120_3F-3
100
AcDbLine
 10
555.782286
 20
-39.0
 30
0.0
 11
555.782286
 21
-22.0
 31
0.0
  0
LINE
  5
1104
100
AcDbEntity
  8
MSL5_120_3F-3
100
AcDbLine
 10
554.970286
 20
-39.0
 30
0.0
 11
554.970286
 21
-16.0
 31
0.0
  0
LINE
  5
1105
100
AcDbEntity
  8
MSL5_120_3F-3
100
AcDbLine
 10
554.970286
 20
-39.0
 30
0.0
 11
554.970286
 21
-16.0
 31
0.0
  0
LINE
  5
1106
100
AcDbEntity
  8
MSL5_120_3F-7
100
AcDbLine
 10
559.782286
 20
-38.0
 30
0.0
 11
559.782286
 21
-22.0
 31
0.0
  0
LINE
  5
1107
100
AcDbEntity
  8
MSL5_120_3F-0
100
AcDbLine
 10
542.782286
 20
119.0
 30
0.0
 11
567.782286
 21
119.0
 31
0.0
  0
LINE
  5
1108
100
AcDbEntity
  8
MSL5_120_3F-0
100
AcDbLine
 10
542.782286
 20
66.6
 30
0.0
 11
567.782286
 21
66.6
 31
0.0
  0
LINE
  5
1109
100
AcDbEntity
  8
MSL5_120_3F-7
100
AcDbLine
 10
551.782286
 20
30.0
 30
0.0
 11
567.782286
 21
30.0
 31
0.0
  0
LINE
  5
110A
100
AcDbEntity
  8
MSL5_120_3F-7
100
AcDbLine
 10
520.383064
 20
52.0
 30
0.0
 11
568.901033
 21
52.0
 31
0.0
  0
LINE
  5
110B
100
AcDbEntity
  8
MSL5_120_3F-7
100
AcDbLine
 10
569.782286
 20
30.0
 30
0.0
 11
540.782286
 21
30.0
 31
0.0
  0
LINE
  5
110C
100
AcDbEntity
  8
MSL5_120_3F-0
100
AcDbLine
 10
526.782286
 20
56.0
 30
0.0
 11
538.782286
 21
56.0
 31
0.0
  0
LINE
  5
110D
100
AcDbEntity
  8
MSL5_120_3F-0
100
AcDbLine
 10
538.782286
 20
48.0
 30
0.0
 11
526.782286
 21
48.0
 31
0.0
  0
LINE
  5
110E
100
AcDbEntity
  8
MSL5_120_3F-0
100
AcDbLine
 10
526.782286
 20
59.505554
 30
0.0
 11
526.782286
 21
44.494447
 31
0.0
  0
ARC
  5
110F
100
AcDbEntity
  8
MSL5_120_3F-0
100
AcDbCircle
 10
525.344451
 20
46.370835
 30
0.0
 40
2.562165
100
AcDbArc
 50
132.916662
 51
227.083338
  0
LINE
  5
1110
100
AcDbEntity
  8
MSL5_120_3F-0
100
AcDbLine
 10
526.782286
 20
44.494447
 30
0.0
 11
523.599786
 21
44.494447
 31
0.0
  0
LINE
  5
1111
100
AcDbEntity
  8
MSL5_120_3F-0
100
AcDbLine
 10
523.599786
 20
55.752777
 30
0.0
 11
526.782286
 21
55.752777
 31
0.0
  0
LINE
  5
1112
100
AcDbEntity
  8
MSL5_120_3F-0
100
AcDbLine
 10
523.599786
 20
48.247224
 30
0.0
 11
526.782286
 21
48.247224
 31
0.0
  0
LINE
  5
1113
100
AcDbEntity
  8
MSL5_120_3F-0
100
AcDbLine
 10
523.599786
 20
59.505554
 30
0.0
 11
526.782286
 21
59.505554
 31
0.0
  0
ARC
  5
1114
100
AcDbEntity
  8
MSL5_120_3F-0
100
AcDbCircle
 10
525.344451
 20
57.629166
 30
0.0
 40
2.562165
100
AcDbArc
 50
132.916662
 51
227.083338
  0
LINE
  5
1115
100
AcDbEntity
  8
MSL5_120_3F-0
100
AcDbLine
 10
522.782286
 20
57.629166
 30
0.0
 11
522.782286
 21
46.370835
 31
0.0
  0
ARC
  5
1116
100
AcDbEntity
  8
MSL5_120_3F-0
100
AcDbCircle
 10
531.804696
 20
52.0
 30
0.0
 40
9.02241
100
AcDbArc
 50
155.421502
 51
204.578498
  0
ARC
  5
1117
100
AcDbEntity
  8
MSL5_120_3F-0
100
AcDbCircle
 10
541.075342
 20
46.370835
 30
0.0
 40
2.293056
100
AcDbArc
 50
125.085847
 51
234.914153
  0
ARC
  5
1118
100
AcDbEntity
  8
MSL5_120_3F-0
100
AcDbCircle
 10
540.48923
 20
46.370835
 30
0.0
 40
2.293056
100
AcDbArc
 50
305.085848
 51
54.914152
  0
LINE
  5
1119
100
AcDbEntity
  8
MSL5_120_3F-0
100
AcDbLine
 10
539.757286
 20
44.494447
 30
0.0
 11
541.807286
 21
44.494447
 31
0.0
  0
ARC
  5
111A
100
AcDbEntity
  8
MSL5_120_3F-0
100
AcDbCircle
 10
541.075342
 20
57.629166
 30
0.0
 40
2.293056
100
AcDbArc
 50
125.085847
 51
234.914153
  0
LINE
  5
111B
100
AcDbEntity
  8
MSL5_120_3F-0
100
AcDbLine
 10
539.757286
 20
55.752777
 30
0.0
 11
541.807286
 21
55.752777
 31
0.0
  0
LINE
  5
111C
100
AcDbEntity
  8
MSL5_120_3F-0
100
AcDbLine
 10
539.757286
 20
48.247224
 30
0.0
 11
541.807286
 21
48.247224
 31
0.0
  0
ARC
  5
111D
100
AcDbEntity
  8
MSL5_120_3F-0
100
AcDbCircle
 10
546.492008
 20
52.0
 30
0.0
 40
7.709722
100
AcDbArc
 50
150.872216
 51
209.127784
  0
LINE
  5
111E
100
AcDbEntity
  8
MSL5_120_3F-0
100
AcDbLine
 10
538.782286
 20
46.370835
 30
0.0
 11
538.782286
 21
57.629166
 31
0.0
  0
LINE
  5
111F
100
AcDbEntity
  8
MSL5_120_3F-0
100
AcDbLine
 10
539.757286
 20
59.505554
 30
0.0
 11
541.807286
 21
59.505554
 31
0.0
  0
ARC
  5
1120
100
AcDbEntity
  8
MSL5_120_3F-0
100
AcDbCircle
 10
540.48923
 20
57.629166
 30
0.0
 40
2.293056
100
AcDbArc
 50
305.085848
 51
54.914152
  0
ARC
  5
1121
100
AcDbEntity
  8
MSL5_120_3F-0
100
AcDbCircle
 10
535.072564
 20
52.0
 30
0.0
 40
7.709722
100
AcDbArc
 50
330.872218
 51
29.127782
  0
LINE
  5
1122
100
AcDbEntity
  8
MSL5_120_3F-7
100
AcDbLine
 10
559.782286
 20
22.0
 30
0.0
 11
559.782286
 21
38.0
 31
0.0
  0
ARC
  5
1123
100
AcDbEntity
  8
MSL5_120_3F-4
100
AcDbCircle
 10
559.782286
 20
30.0
 30
0.0
 40
5.0
100
AcDbArc
 50
280.0
 51
210.0
  0
CIRCLE
  5
1124
100
AcDbEntity
  8
MSL5_120_3F-0
100
AcDbCircle
 10
559.782286
 20
30.0
 30
0.0
 40
4.188
  0
LINE
  5
1125
100
AcDbEntity
  8
MSL5_120_3F-0
100
AcDbLine
 10
542.782286
 20
270.261134
 30
0.0
 11
418.782286
 21
270.261134
 31
0.0
  0
LINE
  5
1126
100
AcDbEntity
  8
MSL5_120_3F-0
100
AcDbLine
 10
542.782286
 20
322.261134
 30
0.0
 11
399.782286
 21
322.261134
 31
0.0
  0
LINE
  5
1127
100
AcDbEntity
  8
MSL5_120_3F-0
100
AcDbLine
 10
399.782286
 20
297.261134
 30
0.0
 11
542.782286
 21
297.261134
 31
0.0
  0
LINE
  5
1128
100
AcDbEntity
  8
MSL5_120_3F-0
100
AcDbLine
 10
542.782286
 20
245.261134
 30
0.0
 11
418.782286
 21
245.261134
 31
0.0
  0
LINE
  5
1129
100
AcDbEntity
  8
MSL5_120_3F-0
100
AcDbLine
 10
542.782286
 20
251.761134
 30
0.0
 11
418.782286
 21
251.761134
 31
0.0
  0
LINE
  5
112A
100
AcDbEntity
  8
MSL5_120_3F-0
100
AcDbLine
 10
418.782286
 20
263.761134
 30
0.0
 11
542.782286
 21
263.761134
 31
0.0
  0
LINE
  5
112B
100
AcDbEntity
  8
MSL5_120_3F-0
100
AcDbLine
 10
542.782286
 20
193.261134
 30
0.0
 11
399.782286
 21
193.261134
 31
0.0
  0
LINE
  5
112C
100
AcDbEntity
  8
MSL5_120_3F-0
100
AcDbLine
 10
399.782286
 20
218.261134
 30
0.0
 11
542.782286
 21
218.261134
 31
0.0
  0
LINE
  5
112D
100
AcDbEntity
  8
MSL5_120_3F-7
100
AcDbLine
 10
389.34422
 20
257.761134
 30
0.0
 11
570.782286
 21
257.761134
 31
0.0
  0
LINE
  5
112E
100
AcDbEntity
  8
MSL5_120_3F-7
100
AcDbLine
 10
550.622252
 20
205.761134
 30
0.0
 11
389.34422
 21
205.761134
 31
0.0
  0
LINE
  5
112F
100
AcDbEntity
  8
MSL5_120_3F-7
100
AcDbLine
 10
550.622252
 20
309.761134
 30
0.0
 11
389.34422
 21
309.761134
 31
0.0
  0
LINE
  5
1130
100
AcDbEntity
  8
MSL5_120_3F-0
100
AcDbLine
 10
399.782286
 20
182.761134
 30
0.0
 11
399.782286
 21
332.761134
 31
0.0
  0
ARC
  5
1131
100
AcDbEntity
  8
MSL5_120_3F-0
100
AcDbCircle
 10
402.676036
 20
292.770753
 30
0.0
 40
5.10625
100
AcDbArc
 50
302.004628
 51
57.995372
  0
LINE
  5
1132
100
AcDbEntity
  8
MSL5_120_3F-0
100
AcDbLine
 10
417.782286
 20
244.261134
 30
0.0
 11
399.782286
 21
244.261134
 31
0.0
  0
LINE
  5
1133
100
AcDbEntity
  8
MSL5_120_3F-3
100
AcDbLine
 10
418.782286
 20
245.261134
 30
0.0
 11
399.782286
 21
245.261134
 31
0.0
  0
LINE
  5
1134
100
AcDbEntity
  8
MSL5_120_3F-0
100
AcDbLine
 10
399.782286
 20
271.261134
 30
0.0
 11
417.782286
 21
271.261134
 31
0.0
  0
LINE
  5
1135
100
AcDbEntity
  8
MSL5_120_3F-3
100
AcDbLine
 10
418.782286
 20
270.261134
 30
0.0
 11
399.782286
 21
270.261134
 31
0.0
  0
ARC
  5
1136
100
AcDbEntity
  8
MSL5_120_3F-0
100
AcDbCircle
 10
404.800291
 20
292.770753
 30
0.0
 40
5.060035
100
AcDbArc
 50
121.157255
 51
238.842745
  0
LINE
  5
1137
100
AcDbEntity
  8
MSL5_120_3F-0
100
AcDbLine
 10
402.182286
 20
297.10088
 30
0.0
 11
405.382286
 21
297.10088
 31
0.0
  0
LINE
  5
1138
100
AcDbEntity
  8
MSL5_120_3F-0
100
AcDbLine
 10
405.382286
 20
288.440626
 30
0.0
 11
402.182286
 21
288.440626
 31
0.0
  0
ARC
  5
1139
100
AcDbEntity
  8
MSL5_120_3F-0
100
AcDbCircle
 10
402.676036
 20
318.751515
 30
0.0
 40
5.10625
100
AcDbArc
 50
43.4182
 51
57.995372
  0
ARC
  5
113A
100
AcDbEntity
  8
MSL5_120_3F-0
100
AcDbCircle
 10
404.888536
 20
318.751515
 30
0.0
 40
5.10625
100
AcDbArc
 50
122.004627
 51
136.581799
  0
LINE
  5
113B
100
AcDbEntity
  8
MSL5_120_3F-0
100
AcDbLine
 10
402.182286
 20
323.081642
 30
0.0
 11
405.382286
 21
323.081642
 31
0.0
  0
LINE
  5
113C
100
AcDbEntity
  8
MSL5_120_3F-0
100
AcDbLine
 10
445.582286
 20
294.153063
 30
0.0
 11
433.082286
 21
294.153063
 31
0.0
  0
LINE
  5
113D
100
AcDbEntity
  8
MSL5_120_3F-0
100
AcDbLine
 10
417.782286
 20
271.261134
 30
0.0
 11
417.782286
 21
244.261134
 31
0.0
  0
LINE
  5
113E
100
AcDbEntity
  8
MSL5_120_3F-0
100
AcDbLine
 10
418.782286
 20
270.261134
 30
0.0
 11
418.782286
 21
245.261134
 31
0.0
  0
LINE
  5
113F
100
AcDbEntity
  8
MSL5_120_3F-0
100
AcDbLine
 10
418.782286
 20
245.261134
 30
0.0
 11
417.782286
 21
244.261134
 31
0.0
  0
LINE
  5
1140
100
AcDbEntity
  8
MSL5_120_3F-0
100
AcDbLine
 10
417.782286
 20
271.261134
 30
0.0
 11
418.782286
 21
270.261134
 31
0.0
  0
LINE
  5
1141
100
AcDbEntity
  8
MSL5_120_3F-0
100
AcDbLine
 10
408.282286
 20
297.261134
 30
0.0
 11
408.282286
 21
294.153063
 31
0.0
  0
LINE
  5
1142
100
AcDbEntity
  8
MSL5_120_3F-0
100
AcDbLine
 10
408.282286
 20
294.153063
 30
0.0
 11
407.716568
 21
293.587345
 31
0.0
  0
LINE
  5
1143
100
AcDbEntity
  8
MSL5_120_3F-0
100
AcDbLine
 10
407.782286
 20
292.770753
 30
0.0
 11
407.782286
 21
297.261134
 31
0.0
  0
LINE
  5
1144
100
AcDbEntity
  8
MSL5_120_3F-0
100
AcDbLine
 10
433.082286
 20
294.153063
 30
0.0
 11
433.082286
 21
297.261134
 31
0.0
  0
LINE
  5
1145
100
AcDbEntity
  8
MSL5_120_3F-0
100
AcDbLine
 10
446.582286
 20
295.153063
 30
0.0
 11
445.582286
 21
294.153063
 31
0.0
  0
LINE
  5
1146
100
AcDbEntity
  8
MSL5_120_3F-0
100
AcDbLine
 10
445.582286
 20
297.261134
 30
0.0
 11
445.582286
 21
294.153063
 31
0.0
  0
LINE
  5
1147
100
AcDbEntity
  8
MSL5_120_3F-0
100
AcDbLine
 10
446.582286
 20
297.261134
 30
0.0
 11
446.582286
 21
295.153063
 31
0.0
  0
LINE
  5
1148
100
AcDbEntity
  8
MSL5_120_3F-0
100
AcDbLine
 10
567.782286
 20
332.761134
 30
0.0
 11
567.782286
 21
182.761134
 31
0.0
  0
LINE
  5
1149
100
AcDbEntity
  8
MSL5_120_3F-0
100
AcDbLine
 10
542.782286
 20
182.761134
 30
0.0
 11
542.782286
 21
332.761134
 31
0.0
  0
LINE
  5
114A
100
AcDbEntity
  8
MSL5_120_3F-7
100
AcDbLine
 10
542.782286
 20
209.761134
 30
0.0
 11
558.782286
 21
209.761134
 31
0.0
  0
LINE
  5
114B
100
AcDbEntity
  8
MSL5_120_3F-3
100
AcDbLine
 10
549.782286
 20
233.261134
 30
0.0
 11
567.782286
 21
233.261134
 31
0.0
  0
LINE
  5
114C
100
AcDbEntity
  8
MSL5_120_3F-3
100
AcDbLine
 10
549.782286
 20
222.261134
 30
0.0
 11
567.782286
 21
222.261134
 31
0.0
  0
LINE
  5
114D
100
AcDbEntity
  8
MSL5_120_3F-0
100
AcDbLine
 10
567.782286
 20
182.761134
 30
0.0
 11
542.782286
 21
182.761134
 31
0.0
  0
ARC
  5
114E
100
AcDbEntity
  8
MSL5_120_3F-4
100
AcDbCircle
 10
550.782286
 20
209.761134
 30
0.0
 40
5.0
100
AcDbArc
 50
280.0
 51
210.0
  0
CIRCLE
  5
114F
100
AcDbEntity
  8
MSL5_120_3F-0
100
AcDbCircle
 10
550.782286
 20
209.761134
 30
0.0
 40
4.188
  0
LINE
  5
1150
100
AcDbEntity
  8
MSL5_120_3F-7
100
AcDbLine
 10
569.782286
 20
227.761134
 30
0.0
 11
540.782286
 21
227.761134
 31
0.0
  0
LINE
  5
1151
100
AcDbEntity
  8
MSL5_120_3F-7
100
AcDbLine
 10
550.782286
 20
201.761134
 30
0.0
 11
550.782286
 21
217.761134
 31
0.0
  0
LINE
  5
1152
100
AcDbEntity
  8
MSL5_120_3F-3
100
AcDbLine
 10
549.782286
 20
236.761134
 30
0.0
 11
549.782286
 21
218.761134
 31
0.0
  0
LINE
  5
1153
100
AcDbEntity
  8
MSL5_120_3F-3
100
AcDbLine
 10
549.782286
 20
218.761134
 30
0.0
 11
542.782286
 21
218.761134
 31
0.0
  0
LINE
  5
1154
100
AcDbEntity
  8
MSL5_120_3F-3
100
AcDbLine
 10
542.782286
 20
236.761134
 30
0.0
 11
549.782286
 21
236.761134
 31
0.0
  0
LINE
  5
1155
100
AcDbEntity
  8
MSL5_120_3F-7
100
AcDbLine
 10
559.782286
 20
211.179077
 30
0.0
 11
559.782286
 21
179.761134
 31
0.0
  0
LINE
  5
1156
100
AcDbEntity
  8
MSL5_120_3F-3
100
AcDbLine
 10
563.970286
 20
182.761134
 30
0.0
 11
563.970286
 21
205.761134
 31
0.0
  0
LINE
  5
1157
100
AcDbEntity
  8
MSL5_120_3F-3
100
AcDbLine
 10
564.782286
 20
182.761134
 30
0.0
 11
564.782286
 21
199.761134
 31
0.0
  0
LINE
  5
1158
100
AcDbEntity
  8
MSL5_120_3F-3
100
AcDbLine
 10
555.594286
 20
182.761134
 30
0.0
 11
555.594286
 21
205.761134
 31
0.0
  0
LINE
  5
1159
100
AcDbEntity
  8
MSL5_120_3F-3
100
AcDbLine
 10
554.782286
 20
182.761134
 30
0.0
 11
554.782286
 21
199.761134
 31
0.0
  0
LINE
  5
115A
100
AcDbEntity
  8
MSL5_120_3F-3
100
AcDbLine
 10
559.782286
 20
208.179077
 30
0.0
 11
563.970286
 21
205.761134
 31
0.0
  0
LINE
  5
115B
100
AcDbEntity
  8
MSL5_120_3F-3
100
AcDbLine
 10
554.782286
 20
199.761134
 30
0.0
 11
564.782286
 21
199.761134
 31
0.0
  0
LINE
  5
115C
100
AcDbEntity
  8
MSL5_120_3F-3
100
AcDbLine
 10
563.970286
 20
205.761134
 30
0.0
 11
555.594286
 21
205.761134
 31
0.0
  0
LINE
  5
115D
100
AcDbEntity
  8
MSL5_120_3F-3
100
AcDbLine
 10
559.782286
 20
208.179077
 30
0.0
 11
555.594286
 21
205.761134
 31
0.0
  0
LINE
  5
115E
100
AcDbEntity
  8
MSL5_120_3F-0
100
AcDbLine
 10
542.782286
 20
332.761134
 30
0.0
 11
567.782286
 21
332.761134
 31
0.0
  0
CIRCLE
  5
115F
100
AcDbEntity
  8
MSL5_120_3F-0
100
AcDbCircle
 10
550.782286
 20
305.761134
 30
0.0
 40
4.188
  0
ARC
  5
1160
100
AcDbEntity
  8
MSL5_120_3F-4
100
AcDbCircle
 10
550.782286
 20
305.761134
 30
0.0
 40
5.0
100
AcDbArc
 50
280.0
 51
210.0
  0
LINE
  5
1161
100
AcDbEntity
  8
MSL5_120_3F-7
100
AcDbLine
 10
542.782286
 20
305.761134
 30
0.0
 11
558.782286
 21
305.761134
 31
0.0
  0
LINE
  5
1162
100
AcDbEntity
  8
MSL5_120_3F-3
100
AcDbLine
 10
542.782286
 20
292.761134
 30
0.0
 11
567.782286
 21
292.761134
 31
0.0
  0
LINE
  5
1163
100
AcDbEntity
  8
MSL5_120_3F-3
100
AcDbLine
 10
542.782286
 20
282.761134
 30
0.0
 11
567.782286
 21
282.761134
 31
0.0
  0
LINE
  5
1164
100
AcDbEntity
  8
MSL5_120_3F-7
100
AcDbLine
 10
569.782286
 20
287.761134
 30
0.0
 11
540.782286
 21
287.761134
 31
0.0
  0
LINE
  5
1165
100
AcDbEntity
  8
MSL5_120_3F-7
100
AcDbLine
 10
550.782286
 20
297.761134
 30
0.0
 11
550.782286
 21
313.761134
 31
0.0
  0
LINE
  5
1166
100
AcDbEntity
  8
MSL5_120_3F-7
100
AcDbLine
 10
559.782286
 20
304.343192
 30
0.0
 11
559.782286
 21
335.761134
 31
0.0
  0
LINE
  5
1167
100
AcDbEntity
  8
MSL5_120_3F-3
100
AcDbLine
 10
554.782286
 20
332.761134
 30
0.0
 11
554.782286
 21
315.761134
 31
0.0
  0
LINE
  5
1168
100
AcDbEntity
  8
MSL5_120_3F-3
100
AcDbLine
 10
564.782286
 20
332.761134
 30
0.0
 11
564.782286
 21
315.761134
 31
0.0
  0
LINE
  5
1169
100
AcDbEntity
  8
MSL5_120_3F-3
100
AcDbLine
 10
555.594286
 20
332.761134
 30
0.0
 11
555.594286
 21
309.761134
 31
0.0
  0
LINE
  5
116A
100
AcDbEntity
  8
MSL5_120_3F-3
100
AcDbLine
 10
563.970286
 20
332.761134
 30
0.0
 11
563.970286
 21
309.761134
 31
0.0
  0
LINE
  5
116B
100
AcDbEntity
  8
MSL5_120_3F-3
100
AcDbLine
 10
559.782286
 20
307.343192
 30
0.0
 11
563.970286
 21
309.761134
 31
0.0
  0
LINE
  5
116C
100
AcDbEntity
  8
MSL5_120_3F-3
100
AcDbLine
 10
563.970286
 20
309.761134
 30
0.0
 11
555.594286
 21
309.761134
 31
0.0
  0
LINE
  5
116D
100
AcDbEntity
  8
MSL5_120_3F-3
100
AcDbLine
 10
559.782286
 20
307.343192
 30
0.0
 11
555.594286
 21
309.761134
 31
0.0
  0
LINE
  5
116E
100
AcDbEntity
  8
MSL5_120_3F-3
100
AcDbLine
 10
554.782286
 20
315.761134
 30
0.0
 11
564.782286
 21
315.761134
 31
0.0
  0
POINT
  5
116F
100
AcDbEntity
  8
0
 60
     1
100
AcDbPoint
 10
0.0
 20
48.566245
 30
0.0
1001
GENIUS_GENBH_13
1002
{
1000
FGO
1005
0
1002
}
1001
GENIUS_GENODEF_13
1002
{
1000
HIER
1070
     1
1002
}
1002
{
1000
MANEDIT
1070
     0
1002
}
1002
{
1000
NOSEL
1070
     1
1002
}
1002
{
1000
BEHIND
1070
     0
1002
}
1002
{
1000
REACTOR
1002
}
1001
GENIUS_GENOBJ-NBEHI-BHB_13
1002
{
1000
OWNER
1000
GENBEHI
1002
}
1001
GENIUS_GENOENT_13
1002
{
1000
MYREF
1005
116F
1002
}
1002
{
1000
GRP
1005
0
1002
}
1001
GENIUS_GENOLIS_13
1002
{
1000
ENT
1005
107D
1005
1076
1005
1081
1005
1075
1005
1051
1005
104D
1005
104C
1002
}
  0
POINT
  5
1170
100
AcDbEntity
  8
0
 60
     1
100
AcDbPoint
 10
0.0
 20
48.566245
 30
0.0
1001
GENIUS_GENBH_13
1002
{
1000
FGO
1005
0
1002
}
1001
GENIUS_GENODEF_13
1002
{
1000
HIER
1070
     1
1002
}
1002
{
1000
MANEDIT
1070
     0
1002
}
1002
{
1000
NOSEL
1070
     1
1002
}
1002
{
1000
BEHIND
1070
     0
1002
}
1002
{
1000
REACTOR
1002
}
1001
GENIUS_GENOBJ-NBEHI-BHB_13
1002
{
1000
OWNER
1000
GENBEHI
1002
}
1001
GENIUS_GENOENT_13
1002
{
1000
MYREF
1005
1170
1002
}
1002
{
1000
GRP
1005
0
1002
}
1001
GENIUS_GENOLIS_13
1002
{
1000
ENT
1005
E2F
1005
E15
1005
E37
1005
E30
1005
E35
1005
E14
1005
E08
1002
}
  0
POINT
  5
1171
100
AcDbEntity
  8
0
 60
     1
100
AcDbPoint
 10
0.0
 20
48.566245
 30
0.0
1001
GENIUS_GENBH_13
1002
{
1000
FGO
1005
1172
1002
}
1001
GENIUS_GENODEF_13
1002
{
1000
HIER
1070
     1
1002
}
1002
{
1000
MANEDIT
1070
     0
1002
}
1002
{
1000
NOSEL
1070
     1
1002
}
1002
{
1000
BEHIND
1070
     0
1002
}
1002
{
1000
REACTOR
1002
}
1001
GENIUS_GENOBJ-NBEHI-BHB_13
1002
{
1000
OWNER
1000
GENBEHI
1002
}
1001
GENIUS_GENOENT_13
1002
{
1000
MYREF
1005
1171
1002
}
1002
{
1000
GRP
1005
0
1002
}
1001
GENIUS_GENOLIS_13
1002
{
1000
ENT
1005
DB5
1005
EE6
1005
DCE
1005
EFF
1002
}
  0
POINT
  5
1172
100
AcDbEntity
  8
0
 60
     1
100
AcDbPoint
 10
0.0
 20
48.566245
 30
0.0
1001
GENIUS_GENBH_13
1002
{
1000
BGO
1005
1171
1002
}
1002
{
1000
FLAGS
1070
   164
1002
}
1002
{
1000
MODIFY
1002
{
1000
I
1000
H
1002
}
1002
}
1001
GENIUS_GENODEF_13
1002
{
1000
HIER
1070
     1
1002
}
1002
{
1000
MANEDIT
1070
     0
1002
}
1002
{
1000
NOSEL
1070
     1
1002
}
1002
{
1000
BEHIND
1070
     0
1002
}
1002
{
1000
REACTOR
1002
}
1001
GENIUS_GENOBJ-NBEHI-BHF_13
1002
{
1000
OWNER
1000
GENBEHI
1002
}
1001
GENIUS_GENOENT_13
1002
{
1000
MYREF
1005
1172
1002
}
1002
{
1000
GRP
1005
0
1002
}
1001
GENIUS_GENOLIS_13
1002
{
1000
ENT
1005
D6A
1005
DE9
1005
DB2
1005
D68
1005
EAC
1005
D70
1002
}
  0
ENDSEC
  0
SECTION
  2
OBJECTS
  0
DICTIONARY
  5
C
100
AcDbDictionary
  3
ACAD_GROUP
350
D
  3
ACAD_MLINESTYLE
350
E
  0
DICTIONARY
  5
D
102
{ACAD_REACTORS
330
C
102
}
100
AcDbDictionary
  0
DICTIONARY
  5
E
102
{ACAD_REACTORS
330
C
102
}
100
AcDbDictionary
  3
STANDARD
350
13
  0
MLINESTYLE
  5
13
102
{ACAD_REACTORS
330
E
102
}
100
AcDbMlineStyle
  2
STANDARD
 70
     0
  3

 62
     0
 51
90.0
 52
90.0
 71
     2
 49
0.5
 62
   256
  6
BYLAYER
 49
-0.5
 62
   256
  6
BYLAYER
  0
ENDSEC
  0
EOF
