  0
SECTION
  2
HEADER
  9
$ACADVER
  1
AC1012
  9
$DWGCODEPAGE
  3
ansi_1252
  9
$INSBASE
 10
0.0
 20
0.0
 30
0.0
  9
$EXTMIN
 10
-45.424827
 20
-180.21389
 30
0.0
  9
$EXTMAX
 10
641.834746
 20
195.992834
 30
0.0
  9
$LIMMIN
 10
0.0
 20
0.0
  9
$LIMMAX
 10
410.0
 20
287.0
  9
$ORTHOMODE
 70
     0
  9
$REGENMODE
 70
     1
  9
$FILLMODE
 70
     1
  9
$QTEXTMODE
 70
     0
  9
$MIRRTEXT
 70
     1
  9
$DRAGMODE
 70
     2
  9
$LTSCALE
 40
1.0
  9
$OSMODE
 70
    33
  9
$ATTMODE
 70
     1
  9
$TEXTSIZE
 40
3.5
  9
$TRACEWID
 40
0.05
  9
$TEXTSTYLE
  7
STANDARD
  9
$CLAYER
  8
0
  9
$CELTYPE
  6
BYLAYER
  9
$CECOLOR
 62
   256
  9
$CELTSCALE
 40
1.0
  9
$DELOBJ
 70
     1
  9
$DISPSILH
 70
     0
  9
$DIMSCALE
 40
1.0
  9
$DIMASZ
 40
0.18
  9
$DIMEXO
 40
0.0625
  9
$DIMDLI
 40
0.38
  9
$DIMRND
 40
0.0
  9
$DIMDLE
 40
0.0
  9
$DIMEXE
 40
0.18
  9
$DIMTP
 40
0.0
  9
$DIMTM
 40
0.0
  9
$DIMTXT
 40
0.18
  9
$DIMCEN
 40
0.09
  9
$DIMTSZ
 40
0.0
  9
$DIMTOL
 70
     0
  9
$DIMLIM
 70
     0
  9
$DIMTIH
 70
     1
  9
$DIMTOH
 70
     1
  9
$DIMSE1
 70
     0
  9
$DIMSE2
 70
     0
  9
$DIMTAD
 70
     0
  9
$DIMZIN
 70
     0
  9
$DIMBLK
  1

  9
$DIMASO
 70
     1
  9
$DIMSHO
 70
     1
  9
$DIMPOST
  1

  9
$DIMAPOST
  1

  9
$DIMALT
 70
     0
  9
$DIMALTD
 70
     2
  9
$DIMALTF
 40
25.4
  9
$DIMLFAC
 40
1.0
  9
$DIMTOFL
 70
     0
  9
$DIMTVP
 40
0.0
  9
$DIMTIX
 70
     0
  9
$DIMSOXD
 70
     0
  9
$DIMSAH
 70
     0
  9
$DIMBLK1
  1

  9
$DIMBLK2
  1

  9
$DIMSTYLE
  2
STANDARD
  9
$DIMCLRD
 70
     0
  9
$DIMCLRE
 70
     0
  9
$DIMCLRT
 70
     0
  9
$DIMTFAC
 40
1.0
  9
$DIMGAP
 40
0.09
  9
$DIMJUST
 70
     0
  9
$DIMSD1
 70
     0
  9
$DIMSD2
 70
     0
  9
$DIMTOLJ
 70
     1
  9
$DIMTZIN
 70
     0
  9
$DIMALTZ
 70
     0
  9
$DIMALTTZ
 70
     0
  9
$DIMFIT
 70
     3
  9
$DIMUPT
 70
     0
  9
$DIMUNIT
 70
     2
  9
$DIMDEC
 70
     4
  9
$DIMTDEC
 70
     4
  9
$DIMALTU
 70
     2
  9
$DIMALTTD
 70
     2
  9
$DIMTXSTY
  7
STANDARD
  9
$DIMAUNIT
 70
     0
  9
$LUNITS
 70
     2
  9
$LUPREC
 70
     4
  9
$SKETCHINC
 40
0.1
  9
$FILLETRAD
 40
12.5
  9
$AUNITS
 70
     0
  9
$AUPREC
 70
     0
  9
$MENU
  1
acad
  9
$ELEVATION
 40
0.0
  9
$PELEVATION
 40
0.0
  9
$THICKNESS
 40
0.0
  9
$LIMCHECK
 70
     0
  9
$BLIPMODE
 70
     0
  9
$CHAMFERA
 40
12.5
  9
$CHAMFERB
 40
12.5
  9
$CHAMFERC
 40
0.0
  9
$CHAMFERD
 40
0.0
  9
$SKPOLY
 70
     0
  9
$TDCREATE
 40
2450924.616933900
  9
$TDUPDATE
 40
2450924.630149780
  9
$TDINDWG
 40
0.0132158796
  9
$TDUSRTIMER
 40
0.0132158796
  9
$USRTIMER
 70
     1
  9
$ANGBASE
 50
0.0
  9
$ANGDIR
 70
     0
  9
$PDMODE
 70
     0
  9
$PDSIZE
 40
25.192696
  9
$PLINEWID
 40
0.0
  9
$COORDS
 70
     1
  9
$SPLFRAME
 70
     0
  9
$SPLINETYPE
 70
     6
  9
$SPLINESEGS
 70
     8
  9
$ATTDIA
 70
     1
  9
$ATTREQ
 70
     1
  9
$HANDLING
 70
     1
  9
$HANDSEED
  5
1D08
  9
$SURFTAB1
 70
     6
  9
$SURFTAB2
 70
     6
  9
$SURFTYPE
 70
     6
  9
$SURFU
 70
     6
  9
$SURFV
 70
     6
  9
$UCSNAME
  2

  9
$UCSORG
 10
0.0
 20
0.0
 30
0.0
  9
$UCSXDIR
 10
1.0
 20
0.0
 30
0.0
  9
$UCSYDIR
 10
0.0
 20
1.0
 30
0.0
  9
$PUCSNAME
  2

  9
$PUCSORG
 10
0.0
 20
0.0
 30
0.0
  9
$PUCSXDIR
 10
1.0
 20
0.0
 30
0.0
  9
$PUCSYDIR
 10
0.0
 20
1.0
 30
0.0
  9
$USERI1
 70
     0
  9
$USERI2
 70
     0
  9
$USERI3
 70
     0
  9
$USERI4
 70
     0
  9
$USERI5
 70
     0
  9
$USERR1
 40
0.0
  9
$USERR2
 40
0.0
  9
$USERR3
 40
0.0
  9
$USERR4
 40
0.0
  9
$USERR5
 40
0.0
  9
$WORLDVIEW
 70
     1
  9
$SHADEDGE
 70
     3
  9
$SHADEDIF
 70
    70
  9
$TILEMODE
 70
     1
  9
$MAXACTVP
 70
    16
  9
$PINSBASE
 10
0.0
 20
0.0
 30
0.0
  9
$PLIMCHECK
 70
     0
  9
$PEXTMIN
 10
1.000000E+20
 20
1.000000E+20
 30
1.000000E+20
  9
$PEXTMAX
 10
-1.000000E+20
 20
-1.000000E+20
 30
-1.000000E+20
  9
$PLIMMIN
 10
0.0
 20
0.0
  9
$PLIMMAX
 10
12.0
 20
9.0
  9
$UNITMODE
 70
     0
  9
$VISRETAIN
 70
     0
  9
$PLINEGEN
 70
     0
  9
$PSLTSCALE
 70
     1
  9
$TREEDEPTH
 70
  3020
  9
$PICKSTYLE
 70
     1
  9
$CMLSTYLE
  2
STANDARD
  9
$CMLJUST
 70
     0
  9
$CMLSCALE
 40
1.0
  9
$SAVEIMAGES
 70
     0
  0
ENDSEC
  0
SECTION
  2
CLASSES
  0
ENDSEC
  0
SECTION
  2
TABLES
  0
TABLE
  2
VPORT
  5
8
100
AcDbSymbolTable
 70
     4
  0
VPORT
  5
1D07
100
AcDbSymbolTableRecord
100
AcDbViewportTableRecord
  2
*ACTIVE
 70
     0
 10
0.0
 20
0.0
 11
1.0
 21
1.0
 12
298.204959
 22
29.726107
 13
0.0
 23
0.0
 14
5.0
 24
5.0
 15
50.0
 25
50.0
 16
0.0
 26
0.0
 36
1.0
 17
0.0
 27
0.0
 37
0.0
 40
524.849992
 41
1.6368
 42
50.0
 43
0.0
 44
0.0
 50
0.0
 51
0.0
 71
     0
 72
   100
 73
     1
 74
     0
 75
     0
 76
     0
 77
     0
 78
     0
  0
ENDTAB
  0
TABLE
  2
LTYPE
  5
5
100
AcDbSymbolTable
 70
     3
  0
LTYPE
  5
14
100
AcDbSymbolTableRecord
100
AcDbLinetypeTableRecord
  2
BYBLOCK
 70
     0
  3

 72
    65
 73
     0
 40
0.0
  0
LTYPE
  5
15
100
AcDbSymbolTableRecord
100
AcDbLinetypeTableRecord
  2
BYLAYER
 70
     0
  3

 72
    65
 73
     0
 40
0.0
  0
LTYPE
  5
16
100
AcDbSymbolTableRecord
100
AcDbLinetypeTableRecord
  2
CONTINUOUS
 70
     0
  3
Solid line
 72
    65
 73
     0
 40
0.0
  0
LTYPE
  5
6A
100
AcDbSymbolTableRecord
100
AcDbLinetypeTableRecord
  2
GEN3
 70
    64
  3
-- -- -- -- -- -- -- -- -- -- -- -- -- -- --
 72
    65
 73
     2
 40
6.25
 49
5.0
 74
     0
 49
-1.25
 74
     0
  0
LTYPE
  5
6B
100
AcDbSymbolTableRecord
100
AcDbLinetypeTableRecord
  2
GEN7A
 70
    64
  3
__ . __ . __
 72
    65
 73
     4
 40
7.5
 49
5.0
 74
     0
 49
-1.25
 74
     0
 49
0.0
 74
     0
 49
-1.25
 74
     0
  0
ENDTAB
  0
TABLE
  2
LAYER
  5
2
100
AcDbSymbolTable
 70
     7
  0
LAYER
  5
F
100
AcDbSymbolTableRecord
100
AcDbLayerTableRecord
  2
0
 70
     0
 62
     7
  6
CONTINUOUS
  0
LAYER
  5
6C
100
AcDbSymbolTableRecord
100
AcDbLayerTableRecord
  2
MSL2_180_3F-0
 70
    64
 62
     7
  6
CONTINUOUS
  0
LAYER
  5
6D
100
AcDbSymbolTableRecord
100
AcDbLayerTableRecord
  2
MSL2_180_3F-7
 70
    64
 62
     4
  6
GEN7A
  0
LAYER
  5
6E
100
AcDbSymbolTableRecord
100
AcDbLayerTableRecord
  2
MSL2_180_3F-4
 70
    64
 62
     3
  6
CONTINUOUS
  0
LAYER
  5
6F
100
AcDbSymbolTableRecord
100
AcDbLayerTableRecord
  2
MSL2_180_3F-3
 70
    64
 62
     6
  6
GEN3
  0
LAYER
  5
70
100
AcDbSymbolTableRecord
100
AcDbLayerTableRecord
  2
MSL2_180_3F-6
 70
    64
 62
     2
  6
CONTINUOUS
  0
LAYER
  5
71
100
AcDbSymbolTableRecord
100
AcDbLayerTableRecord
  2
INFO
 70
    64
 62
     4
  6
CONTINUOUS
  0
ENDTAB
  0
TABLE
  2
STYLE
  5
3
100
AcDbSymbolTable
 70
     1
  0
STYLE
  5
10
100
AcDbSymbolTableRecord
100
AcDbTextStyleTableRecord
  2
STANDARD
 70
    64
 40
0.0
 41
1.0
 50
0.0
 71
     0
 42
3.5
  3
geniso.shx
  4

  0
ENDTAB
  0
TABLE
  2
VIEW
  5
6
100
AcDbSymbolTable
 70
     0
  0
ENDTAB
  0
TABLE
  2
UCS
  5
7
100
AcDbSymbolTable
 70
     0
  0
ENDTAB
  0
TABLE
  2
APPID
  5
9
100
AcDbSymbolTable
 70
    30
  0
APPID
  5
11
100
AcDbSymbolTableRecord
100
AcDbRegAppTableRecord
  2
ACAD
 70
     0
  0
APPID
  5
29
100
AcDbSymbolTableRecord
100
AcDbRegAppTableRecord
  2
GENIUS_GENCFG_13
 70
     0
1001
GENIUS_GENCFG0_13
1000
GEN@INFO_POS@XLATE
1001
GENIUS_GENCFG1_13
1000
GEN@LAYER@DEFS
1001
GENIUS_GENCFG2_13
1000
GEN@LAYER@ENTSORT
1001
GENIUS_GENCFG3_13
1000
GEN@OSWIZ
1001
GENIUS_GENCFG4_13
1000
GEN
1001
GENIUS_GEVCFG0_13
1000
GEV
1001
GENIUS_GEFCFG0_13
1000
GEF
  0
APPID
  5
2A
100
AcDbSymbolTableRecord
100
AcDbRegAppTableRecord
  2
GENIUS_GENCFG0_13
 70
     0
1001
GENIUS_GENCFG_13
1071
862825278
1000
2A
1000
GEN@INFO_POS@XLATE
1070
     7
1000
GenCfgObject
1000
GenCfgShort
1000
GenCfgReal
1000
GenCfgBool
1000
GenCfgString
1000
GenCfgDim
1000
GenCfgAttrInf
1000
INFOPOINTS
1070
     0
1002
{
1000
GENINF13
1070
     0
1002
{
1000
2GENINF
1070
     4
1000
2
1002
{
1002
}
1000
3GENINF
1070
     4
1000
3
1002
{
1002
}
1000
4GENINF
1070
     4
1000
4
1002
{
1002
}
1000
5GENINF
1070
     4
1000
5
1002
{
1002
}
1000
6GENINF
1070
     4
1000
6
1002
{
1002
}
1000
7GENINF
1070
     4
1000
7
1002
{
1002
}
1000
8GENINF
1070
     4
1000
8
1002
{
1002
}
1000
9GENINF
1070
     4
1000
9
1002
{
1002
}
1000
10GENINF
1070
     4
1000
10
1002
{
1002
}
1000
11GENINF
1070
     4
1000
11
1002
{
1002
}
1000
12GENINF
1070
     4
1000
12
1002
{
1002
}
1000
13GENINF
1070
     4
1000
13
1002
{
1002
}
1000
14GENINF
1070
     4
1000
14
1002
{
1002
}
1000
15GENINF
1070
     4
1000
15
1002
{
1002
}
1000
16GENINF
1070
     4
1000
16
1002
{
1002
}
1000
17GENINF
1070
     4
1000
17
1002
{
1002
}
1000
18GENINF
1070
     4
1000
18
1002
{
1002
}
1000
19GENINF
1070
     4
1000
19
1002
{
1002
}
1000
20GENINF
1070
     4
1000
20
1002
{
1002
}
1000
21GENINF
1070
     4
1000
21
1002
{
1002
}
1000
22GENINF
1070
     4
1000
22
1002
{
1002
}
1000
23GENINF
1070
     4
1000
23
1002
{
1002
}
1000
24GENINF
1070
     4
1000
24
1002
{
1002
}
1000
0GENINF
1070
     4
1000
0
1002
{
1002
}
1002
}
1000
GENINFO
1070
     0
1002
{
1000
3GENINF
1070
     4
1000
3
1002
{
1002
}
1000
4GENINF
1070
     4
1000
4
1002
{
1002
}
1000
5GENINF
1070
     4
1000
5
1002
{
1002
}
1000
6GENINF
1070
     4
1000
6
1002
{
1002
}
1000
7GENINF
1070
     4
1000
7
1002
{
1002
}
1000
8GENINF
1070
     4
1000
8
1002
{
1002
}
1000
9GENINF
1070
     4
1000
9
1002
{
1002
}
1000
10GENINF
1070
     4
1000
10
1002
{
1002
}
1000
11GENINF
1070
     4
1000
11
1002
{
1002
}
1000
12GENINF
1070
     4
1000
12
1002
{
1002
}
1000
13GENINF
1070
     4
1000
13
1002
{
1002
}
1000
14GENINF
1070
     4
1000
14
1002
{
1002
}
1000
15GENINF
1070
     4
1000
15
1002
{
1002
}
1000
16GENINF
1070
     4
1000
16
1002
{
1002
}
1000
17GENINF
1070
     4
1000
17
1002
{
1002
}
1000
18GENINF
1070
     4
1000
18
1002
{
1002
}
1000
19GENINF
1070
     4
1000
19
1002
{
1002
}
1000
20GENINF
1070
     4
1000
20
1002
{
1002
}
1000
21GENINF
1070
     4
1000
21
1002
{
1002
}
1000
22GENINF
1070
     4
1000
22
1002
{
1002
}
1002
}
1000
DININFO
1070
     0
1002
{
1000
ST-NAME1
1070
     4
1000
5
1002
{
1002
}
1000
ST-NAME2
1070
     4
1000
6
1002
{
1002
}
1000
ST-NORM1
1070
     4
1000
7
1002
{
1002
}
1000
ST-NORM2
1070
     4
1000
8
1002
{
1002
}
1000
ST-MAT1
1070
     4
1000
9
1002
{
1002
}
1000
ST-MAT2
1070
     4
1000
10
1002
{
1002
}
1002
}
1002
}
1000
POS_NUMBERS
1070
     0
1002
{
1000
GENPOS13
1070
     0
1002
{
1000
1GENPOS
1070
     4
1000
1
1002
{
1002
}
1000
2GENPOS
1070
     4
1000
2
1002
{
1002
}
1000
3GENPOS
1070
     4
1000
3
1002
{
1002
}
1000
4GENPOS
1070
     4
1000
4
1002
{
1002
}
1000
5GENPOS
1070
     4
1000
5
1002
{
1002
}
1000
6GENPOS
1070
     4
1000
6
1002
{
1002
}
1000
7GENPOS
1070
     4
1000
7
1002
{
1002
}
1000
8GENPOS
1070
     4
1000
8
1002
{
1002
}
1000
9GENPOS
1070
     4
1000
9
1002
{
1002
}
1000
10GENPOS
1070
     4
1000
10
1002
{
1002
}
1000
11GENPOS
1070
     4
1000
11
1002
{
1002
}
1000
12GENPOS
1070
     4
1000
12
1002
{
1002
}
1000
13GENPOS
1070
     4
1000
13
1002
{
1002
}
1000
14GENPOS
1070
     4
1000
14
1002
{
1002
}
1000
15GENPOS
1070
     4
1000
15
1002
{
1002
}
1000
16GENPOS
1070
     4
1000
16
1002
{
1002
}
1000
17GENPOS
1070
     4
1000
17
1002
{
1002
}
1000
18GENPOS
1070
     4
1000
18
1002
{
1002
}
1000
19GENPOS
1070
     4
1000
19
1002
{
1002
}
1000
20GENPOS
1070
     4
1000
20
1002
{
1002
}
1000
21GENPOS
1070
     4
1000
21
1002
{
1002
}
1000
22GENPOS
1070
     4
1000
22
1002
{
1002
}
1000
23GENPOS
1070
     4
1000
23
1002
{
1002
}
1000
24GENPOS
1070
     4
1000
24
1002
{
1002
}
1000
0GENPOS
1070
     4
1000
0
1002
{
1002
}
1002
}
1000
GENPOS
1070
     0
1002
{
1000
1GENPOS
1070
     4
1000
1
1002
{
1002
}
1000
2GENPOS
1070
     4
1000
2
1002
{
1002
}
1000
3GENPOS
1070
     4
1000
3
1002
{
1002
}
1000
4GENPOS
1070
     4
1000
4
1002
{
1002
}
1000
5GENPOS
1070
     4
1000
5
1002
{
1002
}
1000
6GENPOS
1070
     4
1000
6
1002
{
1002
}
1000
7GENPOS
1070
     4
1000
7
1002
{
1002
}
1000
8GENPOS
1070
     4
1000
8
1002
{
1002
}
1000
9GENPOS
1070
     4
1000
9
1002
{
1002
}
1000
10GENPOS
1070
     4
1000
10
1002
{
1002
}
1000
11GENPOS
1070
     4
1000
11
1002
{
1002
}
1000
12GENPOS
1070
     4
1000
12
1002
{
1002
}
1000
13GENPOS
1070
     4
1000
13
1002
{
1002
}
1000
14GENPOS
1070
     4
1000
14
1002
{
1002
}
1000
15GENPOS
1070
     4
1000
15
1002
{
1002
}
1000
16GENPOS
1070
     4
1000
16
1002
{
1002
}
1000
17GENPOS
1070
     4
1000
17
1002
{
1002
}
1000
18GENPOS
1070
     4
1000
18
1002
{
1002
}
1000
19GENPOS
1070
     4
1000
19
1002
{
1002
}
1000
20GENPOS
1070
     4
1000
20
1002
{
1002
}
1000
21GENPOS
1070
     4
1000
21
1002
{
1002
}
1000
22GENPOS
1070
     4
1000
22
1002
{
1002
}
1000
23GENPOS
1070
     4
1000
23
1002
{
1002
}
1002
}
1000
DIN985
1070
     0
1002
{
1000
POSITION
1070
     4
1000
1
1002
{
1002
}
1000
MENGE
1070
     4
1000
2
1002
{
1002
}
1000
BLATT
1070
     4
1000
3
1002
{
1002
}
1000
BENENN
1070
     4
1000
5
1002
{
1002
}
1000
BENENN2
1070
     4
1000
6
1002
{
1002
}
1000
NORM
1070
     4
1000
7
1002
{
1002
}
1000
NORM2
1070
     4
1000
8
1002
{
1002
}
1000
WERKSTOFF
1070
     4
1000
9
1002
{
1002
}
1000
WERKSTOFF2
1070
     4
1000
10
1002
{
1002
}
1002
}
1000
DIN986
1070
     0
1002
{
1000
POSITION
1070
     4
1000
1
1002
{
1002
}
1000
MENGE
1070
     4
1000
2
1002
{
1002
}
1000
BLATT
1070
     4
1000
3
1002
{
1002
}
1000
BENENN
1070
     4
1000
5
1002
{
1002
}
1000
BENENN2
1070
     4
1000
6
1002
{
1002
}
1000
NORM
1070
     4
1000
7
1002
{
1002
}
1000
NORM2
1070
     4
1000
8
1002
{
1002
}
1000
WERKSTOFF
1070
     4
1000
9
1002
{
1002
}
1000
WERKSTOFF2
1070
     4
1000
10
1002
{
1002
}
1002
}
1000
DIN987
1070
     0
1002
{
1000
POSITION
1070
     4
1000
1
1002
{
1002
}
1000
MENGE
1070
     4
1000
2
1002
{
1002
}
1000
BLATT
1070
     4
1000
3
1002
{
1002
}
1000
BENENN
1070
     4
1000
5
1002
{
1002
}
1000
BENENN2
1070
     4
1000
6
1002
{
1002
}
1000
NORM
1070
     4
1000
7
1002
{
1002
}
1000
NORM2
1070
     4
1000
8
1002
{
1002
}
1000
WERKSTOFF
1070
     4
1000
9
1002
{
1002
}
1000
WERKSTOFF2
1070
     4
1000
10
1002
{
1002
}
1002
}
1002
}
  0
APPID
  5
2B
100
AcDbSymbolTableRecord
100
AcDbRegAppTableRecord
  2
GENIUS_GENCFG1_13
 70
     0
1001
GENIUS_GENCFG_13
1071
862825278
1000
2B
1000
GEN@LAYER@DEFS
1070
     9
1000
GenCfgObject
1000
GenCfgShort
1000
GenCfgReal
1000
GenCfgBool
1000
GenCfgString
1000
GenCfgDim
1000
GenCfgAttrInf
1000
GenCfgLaySection
1000
GenCfgLayer
1000
Basic
1070
     0
1002
{
1000
0
1070
     8
1000
0
1002
{
1000
Color
1070
     1
1070
     7
1002
{
1002
}
1000
LType
1070
     4
1000
CONTINUOUS
1002
{
1002
}
1000
Base
1070
     3
1070
     0
1002
{
1002
}
1002
}
1000
1
1070
     8
1000
1
1002
{
1000
Color
1070
     1
1070
    14
1002
{
1002
}
1000
LType
1070
     4
1000
CONTINUOUS
1002
{
1002
}
1000
Base
1070
     3
1070
     0
1002
{
1002
}
1002
}
1000
2
1070
     8
1000
2
1002
{
1000
Color
1070
     1
1070
     5
1002
{
1002
}
1000
LType
1070
     4
1000
CONTINUOUS
1002
{
1002
}
1000
Base
1070
     3
1070
     0
1002
{
1002
}
1002
}
1000
3
1070
     8
1000
3
1002
{
1000
Color
1070
     1
1070
     6
1002
{
1002
}
1000
LType
1070
     4
1000
GEN3
1002
{
1002
}
1000
Base
1070
     3
1070
     0
1002
{
1002
}
1002
}
1000
4
1070
     8
1000
4
1002
{
1000
Color
1070
     1
1070
     3
1002
{
1002
}
1000
LType
1070
     4
1000
CONTINUOUS
1002
{
1002
}
1000
Base
1070
     3
1070
     0
1002
{
1002
}
1002
}
1000
5
1070
     8
1000
5
1002
{
1000
Color
1070
     1
1070
     3
1002
{
1002
}
1000
LType
1070
     4
1000
CONTINUOUS
1002
{
1002
}
1000
Base
1070
     3
1070
     0
1002
{
1002
}
1002
}
1000
6
1070
     8
1000
6
1002
{
1000
Color
1070
     1
1070
     2
1002
{
1002
}
1000
LType
1070
     4
1000
CONTINUOUS
1002
{
1002
}
1000
Base
1070
     3
1070
     0
1002
{
1002
}
1002
}
1000
7
1070
     8
1000
7
1002
{
1000
Color
1070
     1
1070
     4
1002
{
1002
}
1000
LType
1070
     4
1000
GEN7
1002
{
1002
}
1000
Base
1070
     3
1070
     0
1002
{
1002
}
1002
}
1000
8
1070
     8
1000
8
1002
{
1000
Color
1070
     1
1070
     1
1002
{
1002
}
1000
LType
1070
     4
1000
CONTINUOUS
1002
{
1002
}
1000
Base
1070
     3
1070
     0
1002
{
1002
}
1002
}
1000
3A
1070
     8
1000
3A
1002
{
1000
Color
1070
     1
1070
     6
1002
{
1002
}
1000
LType
1070
     4
1000
GEN3A
1002
{
1002
}
1000
Base
1070
     3
1070
     0
1002
{
1002
}
1002
}
1000
7A
1070
     8
1000
7A
1002
{
1000
Color
1070
     1
1070
     4
1002
{
1002
}
1000
LType
1070
     4
1000
GEN7A
1002
{
1002
}
1000
Base
1070
     3
1070
     0
1002
{
1002
}
1002
}
1000
2A
1070
     8
1000
2A
1002
{
1000
Color
1070
     1
1070
     7
1002
{
1002
}
1000
LType
1070
     4
1000
GEN7
1002
{
1002
}
1000
Base
1070
     3
1070
     0
1002
{
1002
}
1002
}
1000
4A
1070
     8
1000
4A
1002
{
1000
Color
1070
     1
1070
     3
1002
{
1002
}
1000
LType
1070
     4
1000
GEN4A
1002
{
1002
}
1000
Base
1070
     3
1070
     0
1002
{
1002
}
1002
}
1000
9
1070
     8
1000
9
1002
{
1000
Color
1070
     1
1070
   253
1002
{
1002
}
1000
LType
1070
     4
1000
CONTINUOUS
1002
{
1002
}
1000
Base
1070
     3
1070
     0
1002
{
1002
}
1002
}
1002
}
1000
Standard
1070
     0
1002
{
1000
0N
1070
     8
1000
0N
1002
{
1000
Color
1070
     1
1070
     7
1002
{
1002
}
1000
LType
1070
     4
1000
CONTINUOUS
1002
{
1002
}
1000
Base
1070
     3
1070
     0
1002
{
1002
}
1002
}
1000
1N
1070
     8
1000
1N
1002
{
1000
Color
1070
     1
1070
    14
1002
{
1002
}
1000
LType
1070
     4
1000
CONTINUOUS
1002
{
1002
}
1000
Base
1070
     3
1070
     0
1002
{
1002
}
1002
}
1000
2N
1070
     8
1000
2N
1002
{
1000
Color
1070
     1
1070
     5
1002
{
1002
}
1000
LType
1070
     4
1000
CONTINUOUS
1002
{
1002
}
1000
Base
1070
     3
1070
     0
1002
{
1002
}
1002
}
1000
3N
1070
     8
1000
3N
1002
{
1000
Color
1070
     1
1070
     6
1002
{
1002
}
1000
LType
1070
     4
1000
GEN3
1002
{
1002
}
1000
Base
1070
     3
1070
     0
1002
{
1002
}
1002
}
1000
4N
1070
     8
1000
4N
1002
{
1000
Color
1070
     1
1070
     3
1002
{
1002
}
1000
LType
1070
     4
1000
CONTINUOUS
1002
{
1002
}
1000
Base
1070
     3
1070
     0
1002
{
1002
}
1002
}
1000
5N
1070
     8
1000
5N
1002
{
1000
Color
1070
     1
1070
     3
1002
{
1002
}
1000
LType
1070
     4
1000
CONTINUOUS
1002
{
1002
}
1000
Base
1070
     3
1070
     0
1002
{
1002
}
1002
}
1000
6N
1070
     8
1000
6N
1002
{
1000
Color
1070
     1
1070
     2
1002
{
1002
}
1000
LType
1070
     4
1000
CONTINUOUS
1002
{
1002
}
1000
Base
1070
     3
1070
     0
1002
{
1002
}
1002
}
1000
7N
1070
     8
1000
7N
1002
{
1000
Color
1070
     1
1070
     4
1002
{
1002
}
1000
LType
1070
     4
1000
GEN7
1002
{
1002
}
1000
Base
1070
     3
1070
     0
1002
{
1002
}
1002
}
1000
8N
1070
     8
1000
8N
1002
{
1000
Color
1070
     1
1070
     1
1002
{
1002
}
1000
LType
1070
     4
1000
CONTINUOUS
1002
{
1002
}
1000
Base
1070
     3
1070
     0
1002
{
1002
}
1002
}
1000
3AN
1070
     8
1000
3AN
1002
{
1000
Color
1070
     1
1070
     6
1002
{
1002
}
1000
LType
1070
     4
1000
GEN3A
1002
{
1002
}
1000
Base
1070
     3
1070
     0
1002
{
1002
}
1002
}
1000
7AN
1070
     8
1000
7AN
1002
{
1000
Color
1070
     1
1070
     4
1002
{
1002
}
1000
LType
1070
     4
1000
GEN7A
1002
{
1002
}
1000
Base
1070
     3
1070
     0
1002
{
1002
}
1002
}
1000
2AN
1070
     8
1000
2AN
1002
{
1000
Color
1070
     1
1070
     7
1002
{
1002
}
1000
LType
1070
     4
1000
GEN7
1002
{
1002
}
1000
Base
1070
     3
1070
     0
1002
{
1002
}
1002
}
1000
4AN
1070
     8
1000
4AN
1002
{
1000
Color
1070
     1
1070
     3
1002
{
1002
}
1000
LType
1070
     4
1000
GEN4A
1002
{
1002
}
1000
Base
1070
     3
1070
     0
1002
{
1002
}
1002
}
1000
9N
1070
     8
1000
9N
1002
{
1000
Color
1070
     1
1070
   253
1002
{
1002
}
1000
LType
1070
     4
1000
CONTINUOUS
1002
{
1002
}
1000
Base
1070
     3
1070
     0
1002
{
1002
}
1002
}
1002
}
1000
Extra
1070
     0
1002
{
1000
Klin
1070
     8
1000
KLIN
1002
{
1000
Color
1070
     1
1070
     1
1002
{
1002
}
1000
LType
1070
     4
1000
CONTINUOUS
1002
{
1002
}
1000
Base
1070
     3
1070
     1
1002
{
1002
}
1002
}
1000
Info
1070
     8
1000
INFO
1002
{
1000
Color
1070
     1
1070
     4
1002
{
1002
}
1000
LType
1070
     4
1000
CONTINUOUS
1002
{
1002
}
1000
Base
1070
     3
1070
     1
1002
{
1002
}
1002
}
1000
Rahm2
1070
     8
1000
RAHM2
1002
{
1000
Color
1070
     1
1070
     1
1002
{
1002
}
1000
LType
1070
     4
1000
CONTINUOUS
1002
{
1002
}
1000
Base
1070
     3
1070
     1
1002
{
1002
}
1002
}
1000
Rahm3
1070
     8
1000
RAHM3
1002
{
1000
Color
1070
     1
1070
     2
1002
{
1002
}
1000
LType
1070
     4
1000
CONTINUOUS
1002
{
1002
}
1000
Base
1070
     3
1070
     1
1002
{
1002
}
1002
}
1000
Rahm5
1070
     8
1000
RAHM5
1002
{
1000
Color
1070
     1
1070
     7
1002
{
1002
}
1000
LType
1070
     4
1000
CONTINUOUS
1002
{
1002
}
1000
Base
1070
     3
1070
     1
1002
{
1002
}
1002
}
1000
View
1070
     8
1000
VIEW
1002
{
1000
Color
1070
     1
1070
     1
1002
{
1002
}
1000
LType
1070
     4
1000
CONTINUOUS
1002
{
1002
}
1000
Base
1070
     3
1070
     1
1002
{
1002
}
1002
}
1000
Behind
1070
     8
1000
BEHIND
1002
{
1000
Color
1070
     1
1070
   253
1002
{
1002
}
1000
LType
1070
     4
1000
CONTINUOUS
1002
{
1002
}
1000
Base
1070
     3
1070
     1
1002
{
1002
}
1002
}
1002
}
  0
APPID
  5
2C
100
AcDbSymbolTableRecord
100
AcDbRegAppTableRecord
  2
GENIUS_GENCFG2_13
 70
     0
1001
GENIUS_GENCFG_13
1071
862825278
1000
2C
1000
GEN@LAYER@ENTSORT
1070
    10
1000
GenCfgObject
1000
GenCfgShort
1000
GenCfgReal
1000
GenCfgBool
1000
GenCfgString
1000
GenCfgDim
1000
GenCfgAttrInf
1000
GenCfgLaySection
1000
GenCfgLayer
1000
GenCfgEntSort
1000
ALTR
1070
     9
1000
4
1002
{
1000
Class
1070
     4
1000

1002
{
1002
}
1000
Color
1070
     1
1070
     7
1002
{
1002
}
1000
LType
1070
     4
1000
GEN3A
1002
{
1002
}
1002
}
1000
BELI
1070
     9
1000
4
1002
{
1000
Class
1070
     4
1000

1002
{
1002
}
1000
Color
1070
     1
1070
   256
1002
{
1002
}
1000
LType
1070
     4
1000
BYLAYER
1002
{
1002
}
1002
}
1000
BHNV
1070
     9
1000
9
1002
{
1000
Class
1070
     4
1000
INV
1002
{
1002
}
1000
Color
1070
     1
1070
   256
1002
{
1002
}
1000
LType
1070
     4
1000
BYLAYER
1002
{
1002
}
1002
}
1000
BHNVS
1070
     9
1000
BEHIND
1002
{
1000
Class
1070
     4
1000
INV
1002
{
1002
}
1000
Color
1070
     1
1070
   256
1002
{
1002
}
1000
LType
1070
     4
1000
BYLAYER
1002
{
1002
}
1002
}
1000
BLID
1070
     9
1000
4A
1002
{
1000
Class
1070
     4
1000

1002
{
1002
}
1000
Color
1070
     1
1070
   256
1002
{
1002
}
1000
LType
1070
     4
1000
BYLAYER
1002
{
1002
}
1002
}
1000
BOAP
1070
     9
1000
4A
1002
{
1000
Class
1070
     4
1000

1002
{
1002
}
1000
Color
1070
     1
1070
   256
1002
{
1002
}
1000
LType
1070
     4
1000
BYLAYER
1002
{
1002
}
1002
}
1000
BOR2
1070
     9
1000
RAHM2
1002
{
1000
Class
1070
     4
1000
SPZ,SYM
1002
{
1002
}
1000
Color
1070
     1
1070
   256
1002
{
1002
}
1000
LType
1070
     4
1000
BYLAYER
1002
{
1002
}
1002
}
1000
BOR3
1070
     9
1000
RAHM3
1002
{
1000
Class
1070
     4
1000
SPZ,SYM
1002
{
1002
}
1000
Color
1070
     1
1070
   256
1002
{
1002
}
1000
LType
1070
     4
1000
BYLAYER
1002
{
1002
}
1002
}
1000
BOR5
1070
     9
1000
RAHM5
1002
{
1000
Class
1070
     4
1000
SPZ,SYM
1002
{
1002
}
1000
Color
1070
     1
1070
   256
1002
{
1002
}
1000
LType
1070
     4
1000
BYLAYER
1002
{
1002
}
1002
}
1000
BOR7
1070
     9
1000
RAHM5
1002
{
1000
Class
1070
     4
1000
SPZ,SYM
1002
{
1002
}
1000
Color
1070
     1
1070
     7
1002
{
1002
}
1000
LType
1070
     4
1000
CONTINUOUS
1002
{
1002
}
1002
}
1000
BPAP
1070
     9
1000
4A
1002
{
1000
Class
1070
     4
1000

1002
{
1002
}
1000
Color
1070
     1
1070
   256
1002
{
1002
}
1000
LType
1070
     4
1000
BYLAYER
1002
{
1002
}
1002
}
1000
BPEX
1070
     9
1000
4A
1002
{
1000
Class
1070
     4
1000

1002
{
1002
}
1000
Color
1070
     1
1070
   256
1002
{
1002
}
1000
LType
1070
     4
1000
BYLAYER
1002
{
1002
}
1002
}
1000
BTDI
1070
     9
1000
5
1002
{
1000
Class
1070
     4
1000
DIM,SYM
1002
{
1002
}
1000
Color
1070
     1
1070
   256
1002
{
1002
}
1000
LType
1070
     4
1000
BYLAYER
1002
{
1002
}
1002
}
1000
CAL2
1070
     9
1000
4
1002
{
1000
Class
1070
     4
1000
SYM
1002
{
1002
}
1000
Color
1070
     1
1070
   256
1002
{
1002
}
1000
LType
1070
     4
1000
BYLAYER
1002
{
1002
}
1002
}
1000
CAL3
1070
     9
1000
4
1002
{
1000
Class
1070
     4
1000
SYM
1002
{
1002
}
1000
Color
1070
     1
1070
     2
1002
{
1002
}
1000
LType
1070
     4
1000
BYLAYER
1002
{
1002
}
1002
}
1000
CAL5
1070
     9
1000
4
1002
{
1000
Class
1070
     4
1000
SYM
1002
{
1002
}
1000
Color
1070
     1
1070
     7
1002
{
1002
}
1000
LType
1070
     4
1000
BYLAYER
1002
{
1002
}
1002
}
1000
CAL7
1070
     9
1000
4
1002
{
1000
Class
1070
     4
1000
SYM
1002
{
1002
}
1000
Color
1070
     1
1070
     5
1002
{
1002
}
1000
LType
1070
     4
1000
BYLAYER
1002
{
1002
}
1002
}
1000
CENN
1070
     9
1000
7A
1002
{
1000
Class
1070
     4
1000
CEN
1002
{
1002
}
1000
Color
1070
     1
1070
   256
1002
{
1002
}
1000
LType
1070
     4
1000
BYLAYER
1002
{
1002
}
1002
}
1000
CENW
1070
     9
1000
7
1002
{
1000
Class
1070
     4
1000
CEN
1002
{
1002
}
1000
Color
1070
     1
1070
   256
1002
{
1002
}
1000
LType
1070
     4
1000
BYLAYER
1002
{
1002
}
1002
}
1000
CLIN
1070
     9
1000
KLIN
1002
{
1000
Class
1070
     4
1000
SPZ
1002
{
1002
}
1000
Color
1070
     1
1070
   256
1002
{
1002
}
1000
LType
1070
     4
1000
BYLAYER
1002
{
1002
}
1002
}
1000
CON1
1070
     9
1000
0
1002
{
1000
Class
1070
     4
1000
CON,BGD
1002
{
1002
}
1000
Color
1070
     1
1070
   256
1002
{
1002
}
1000
LType
1070
     4
1000
BYLAYER
1002
{
1002
}
1002
}
1000
CON2
1070
     9
1000
1
1002
{
1000
Class
1070
     4
1000
CON,BGD
1002
{
1002
}
1000
Color
1070
     1
1070
   256
1002
{
1002
}
1000
LType
1070
     4
1000
BYLAYER
1002
{
1002
}
1002
}
1000
CON3
1070
     9
1000
2
1002
{
1000
Class
1070
     4
1000
CON,BGD
1002
{
1002
}
1000
Color
1070
     1
1070
   256
1002
{
1002
}
1000
LType
1070
     4
1000
BYLAYER
1002
{
1002
}
1002
}
1000
CON4
1070
     9
1000
2
1002
{
1000
Class
1070
     4
1000
CON,BGD
1002
{
1002
}
1000
Color
1070
     1
1070
   256
1002
{
1002
}
1000
LType
1070
     4
1000
BYLAYER
1002
{
1002
}
1002
}
1000
DERP
1070
     9
1000
4
1002
{
1000
Class
1070
     4
1000

1002
{
1002
}
1000
Color
1070
     1
1070
   256
1002
{
1002
}
1000
LType
1070
     4
1000
BYLAYER
1002
{
1002
}
1002
}
1000
DETA
1070
     9
1000
4
1002
{
1000
Class
1070
     4
1000

1002
{
1002
}
1000
Color
1070
     1
1070
   256
1002
{
1002
}
1000
LType
1070
     4
1000
BYLAYER
1002
{
1002
}
1002
}
1000
DIAG
1070
     9
1000
5
1002
{
1000
Class
1070
     4
1000
SYM
1002
{
1002
}
1000
Color
1070
     1
1070
   256
1002
{
1002
}
1000
LType
1070
     4
1000
BYLAYER
1002
{
1002
}
1002
}
1000
DILI
1070
     9
1000
5
1002
{
1000
Class
1070
     4
1000
DIM,SYM
1002
{
1002
}
1000
Color
1070
     1
1070
   256
1002
{
1002
}
1000
LType
1070
     4
1000
BYLAYER
1002
{
1002
}
1002
}
1000
DITX
1070
     9
1000
5
1002
{
1000
Class
1070
     4
1000
DIM,SYM
1002
{
1002
}
1000
Color
1070
     1
1070
     2
1002
{
1002
}
1000
LType
1070
     4
1000
CONTINUOUS
1002
{
1002
}
1002
}
1000
DITO2
1070
     9
1000
5
1002
{
1000
Class
1070
     4
1000
DIM,SYM
1002
{
1002
}
1000
Color
1070
     1
1070
     3
1002
{
1002
}
1000
LType
1070
     4
1000
BYLAYER
1002
{
1002
}
1002
}
1000
DITO3
1070
     9
1000
5
1002
{
1000
Class
1070
     4
1000
DIM,SYM
1002
{
1002
}
1000
Color
1070
     1
1070
     2
1002
{
1002
}
1000
LType
1070
     4
1000
BYLAYER
1002
{
1002
}
1002
}
1000
DIXL
1070
     9
1000
5
1002
{
1000
Class
1070
     4
1000
DIM,SYM
1002
{
1002
}
1000
Color
1070
     1
1070
   256
1002
{
1002
}
1000
LType
1070
     4
1000
BYLAYER
1002
{
1002
}
1002
}
1000
EXMP
1070
     9
1000
4A
1002
{
1000
Class
1070
     4
1000

1002
{
1002
}
1000
Color
1070
     1
1070
   256
1002
{
1002
}
1000
LType
1070
     4
1000
BYLAYER
1002
{
1002
}
1002
}
1000
FEMN
1070
     9
1000
8
1002
{
1000
Class
1070
     4
1000

1002
{
1002
}
1000
Color
1070
     1
1070
   256
1002
{
1002
}
1000
LType
1070
     4
1000
BYLAYER
1002
{
1002
}
1002
}
1000
FEMPN
1070
     9
1000
8
1002
{
1000
Class
1070
     4
1000
SYM
1002
{
1002
}
1000
Color
1070
     1
1070
     3
1002
{
1002
}
1000
LType
1070
     4
1000
BYLAYER
1002
{
1002
}
1002
}
1000
FEMSP
1070
     9
1000
4A
1002
{
1000
Class
1070
     4
1000

1002
{
1002
}
1000
Color
1070
     1
1070
   256
1002
{
1002
}
1000
LType
1070
     4
1000
CONTINUOUS
1002
{
1002
}
1002
}
1000
FEMST
1070
     9
1000
4A
1002
{
1000
Class
1070
     4
1000
SYM
1002
{
1002
}
1000
Color
1070
     1
1070
     3
1002
{
1002
}
1000
LType
1070
     4
1000
BYLAYER
1002
{
1002
}
1002
}
1000
FEMVN
1070
     9
1000
2
1002
{
1000
Class
1070
     4
1000
CON
1002
{
1002
}
1000
Color
1070
     1
1070
   256
1002
{
1002
}
1000
LType
1070
     4
1000
BYLAYER
1002
{
1002
}
1002
}
1000
FEMVT
1070
     9
1000
2
1002
{
1000
Class
1070
     4
1000
SYM
1002
{
1002
}
1000
Color
1070
     1
1070
     3
1002
{
1002
}
1000
LType
1070
     4
1000
BYLAYER
1002
{
1002
}
1002
}
1000
FLAT
1070
     9
1000
0
1002
{
1000
Class
1070
     4
1000

1002
{
1002
}
1000
Color
1070
     1
1070
   256
1002
{
1002
}
1000
LType
1070
     4
1000
BYLAYER
1002
{
1002
}
1002
}
1000
FRAR
1070
     9
1000
4A
1002
{
1000
Class
1070
     4
1000

1002
{
1002
}
1000
Color
1070
     1
1070
   256
1002
{
1002
}
1000
LType
1070
     4
1000
BYLAYER
1002
{
1002
}
1002
}
1000
GRLI
1070
     9
1000
5
1002
{
1000
Class
1070
     4
1000
SYM
1002
{
1002
}
1000
Color
1070
     1
1070
   256
1002
{
1002
}
1000
LType
1070
     4
1000
BYLAYER
1002
{
1002
}
1002
}
1000
GVLI
1070
     9
1000
4A
1002
{
1000
Class
1070
     4
1000

1002
{
1002
}
1000
Color
1070
     1
1070
   256
1002
{
1002
}
1000
LType
1070
     4
1000
BYLAYER
1002
{
1002
}
1002
}
1000
HATC
1070
     9
1000
8
1002
{
1000
Class
1070
     4
1000
HTC,BGD
1002
{
1002
}
1000
Color
1070
     1
1070
   256
1002
{
1002
}
1000
LType
1070
     4
1000
BYLAYER
1002
{
1002
}
1002
}
1000
HIDN
1070
     9
1000
3A
1002
{
1000
Class
1070
     4
1000
HID,BGD
1002
{
1002
}
1000
Color
1070
     1
1070
   256
1002
{
1002
}
1000
LType
1070
     4
1000
BYLAYER
1002
{
1002
}
1002
}
1000
HIDW
1070
     9
1000
3
1002
{
1000
Class
1070
     4
1000
HID,BGD
1002
{
1002
}
1000
Color
1070
     1
1070
   256
1002
{
1002
}
1000
LType
1070
     4
1000
BYLAYER
1002
{
1002
}
1002
}
1000
HLIN
1070
     9
1000
4
1002
{
1000
Class
1070
     4
1000
BGD
1002
{
1002
}
1000
Color
1070
     1
1070
   256
1002
{
1002
}
1000
LType
1070
     4
1000
BYLAYER
1002
{
1002
}
1002
}
1000
HOCN
1070
     9
1000
7A
1002
{
1000
Class
1070
     4
1000
CEN
1002
{
1002
}
1000
Color
1070
     1
1070
   256
1002
{
1002
}
1000
LType
1070
     4
1000
BYLAYER
1002
{
1002
}
1002
}
1000
HOCW
1070
     9
1000
7
1002
{
1000
Class
1070
     4
1000
CEN
1002
{
1002
}
1000
Color
1070
     1
1070
   256
1002
{
1002
}
1000
LType
1070
     4
1000
BYLAYER
1002
{
1002
}
1002
}
1000
INFO
1070
     9
1000
INFO
1002
{
1000
Class
1070
     4
1000
SPZ,SYM
1002
{
1002
}
1000
Color
1070
     1
1070
   256
1002
{
1002
}
1000
LType
1070
     4
1000
BYLAYER
1002
{
1002
}
1002
}
1000
LADI
1070
     9
1000
4
1002
{
1000
Class
1070
     4
1000
BGD
1002
{
1002
}
1000
Color
1070
     1
1070
   256
1002
{
1002
}
1000
LType
1070
     4
1000
BYLAYER
1002
{
1002
}
1002
}
1000
LEAD
1070
     9
1000
5
1002
{
1000
Class
1070
     4
1000
SYM
1002
{
1002
}
1000
Color
1070
     1
1070
   256
1002
{
1002
}
1000
LType
1070
     4
1000
BYLAYER
1002
{
1002
}
1002
}
1000
N_BHNV
1070
     9
1000
9N
1002
{
1000
Class
1070
     4
1000
INV
1002
{
1002
}
1000
Color
1070
     1
1070
   256
1002
{
1002
}
1000
LType
1070
     4
1000
BYLAYER
1002
{
1002
}
1002
}
1000
N_CON1
1070
     9
1000
0N
1002
{
1000
Class
1070
     4
1000
CON,BGD
1002
{
1002
}
1000
Color
1070
     1
1070
   256
1002
{
1002
}
1000
LType
1070
     4
1000
BYLAYER
1002
{
1002
}
1002
}
1000
N_CON2
1070
     9
1000
1N
1002
{
1000
Class
1070
     4
1000
CON,BGD
1002
{
1002
}
1000
Color
1070
     1
1070
   256
1002
{
1002
}
1000
LType
1070
     4
1000
BYLAYER
1002
{
1002
}
1002
}
1000
N_CON3
1070
     9
1000
2N
1002
{
1000
Class
1070
     4
1000
CON,BGD
1002
{
1002
}
1000
Color
1070
     1
1070
   256
1002
{
1002
}
1000
LType
1070
     4
1000
BYLAYER
1002
{
1002
}
1002
}
1000
N_CON4
1070
     9
1000
2N
1002
{
1000
Class
1070
     4
1000
CON,BGD
1002
{
1002
}
1000
Color
1070
     1
1070
   256
1002
{
1002
}
1000
LType
1070
     4
1000
BYLAYER
1002
{
1002
}
1002
}
1000
N_CENN
1070
     9
1000
7AN
1002
{
1000
Class
1070
     4
1000
CEN
1002
{
1002
}
1000
Color
1070
     1
1070
   256
1002
{
1002
}
1000
LType
1070
     4
1000
BYLAYER
1002
{
1002
}
1002
}
1000
N_CENW
1070
     9
1000
7N
1002
{
1000
Class
1070
     4
1000
CEN
1002
{
1002
}
1000
Color
1070
     1
1070
   256
1002
{
1002
}
1000
LType
1070
     4
1000
BYLAYER
1002
{
1002
}
1002
}
1000
N_DILI
1070
     9
1000
5N
1002
{
1000
Class
1070
     4
1000
DIM,SYM
1002
{
1002
}
1000
Color
1070
     1
1070
   256
1002
{
1002
}
1000
LType
1070
     4
1000
BYLAYER
1002
{
1002
}
1002
}
1000
N_DITX
1070
     9
1000
5N
1002
{
1000
Class
1070
     4
1000
DIM,SYM
1002
{
1002
}
1000
Color
1070
     1
1070
     2
1002
{
1002
}
1000
LType
1070
     4
1000
CONTINUOUS
1002
{
1002
}
1002
}
1000
N_DIXL
1070
     9
1000
5N
1002
{
1000
Class
1070
     4
1000
DIM,SYM
1002
{
1002
}
1000
Color
1070
     1
1070
   256
1002
{
1002
}
1000
LType
1070
     4
1000
BYLAYER
1002
{
1002
}
1002
}
1000
N_HATC
1070
     9
1000
8N
1002
{
1000
Class
1070
     4
1000
HTC,BGD
1002
{
1002
}
1000
Color
1070
     1
1070
   256
1002
{
1002
}
1000
LType
1070
     4
1000
BYLAYER
1002
{
1002
}
1002
}
1000
N_HIDN
1070
     9
1000
3AN
1002
{
1000
Class
1070
     4
1000
HID,BGD
1002
{
1002
}
1000
Color
1070
     1
1070
   256
1002
{
1002
}
1000
LType
1070
     4
1000
BYLAYER
1002
{
1002
}
1002
}
1000
N_HIDW
1070
     9
1000
3N
1002
{
1000
Class
1070
     4
1000
HID,BGD
1002
{
1002
}
1000
Color
1070
     1
1070
   256
1002
{
1002
}
1000
LType
1070
     4
1000
BYLAYER
1002
{
1002
}
1002
}
1000
N_PHAN
1070
     9
1000
4AN
1002
{
1000
Class
1070
     4
1000

1002
{
1002
}
1000
Color
1070
     1
1070
   256
1002
{
1002
}
1000
LType
1070
     4
1000
BYLAYER
1002
{
1002
}
1002
}
1000
N_POSL
1070
     9
1000
5N
1002
{
1000
Class
1070
     4
1000
SYM
1002
{
1002
}
1000
Color
1070
     1
1070
   256
1002
{
1002
}
1000
LType
1070
     4
1000
BYLAYER
1002
{
1002
}
1002
}
1000
N_TCON
1070
     9
1000
0N
1002
{
1000
Class
1070
     4
1000
CON,BGD
1002
{
1002
}
1000
Color
1070
     1
1070
   256
1002
{
1002
}
1000
LType
1070
     4
1000
BYLAYER
1002
{
1002
}
1002
}
1000
N_THLI
1070
     9
1000
4N
1002
{
1000
Class
1070
     4
1000
BGD
1002
{
1002
}
1000
Color
1070
     1
1070
   256
1002
{
1002
}
1000
LType
1070
     4
1000
BYLAYER
1002
{
1002
}
1002
}
1000
N_TLEN
1070
     9
1000
0N
1002
{
1000
Class
1070
     4
1000
CON,BGD
1002
{
1002
}
1000
Color
1070
     1
1070
   256
1002
{
1002
}
1000
LType
1070
     4
1000
BYLAYER
1002
{
1002
}
1002
}
1000
N_TXT3
1070
     9
1000
6N
1002
{
1000
Class
1070
     4
1000
SYM
1002
{
1002
}
1000
Color
1070
     1
1070
   256
1002
{
1002
}
1000
LType
1070
     4
1000
BYLAYER
1002
{
1002
}
1002
}
1000
N_VPLI
1070
     9
1000
2AN
1002
{
1000
Class
1070
     4
1000

1002
{
1002
}
1000
Color
1070
     1
1070
   256
1002
{
1002
}
1000
LType
1070
     4
1000
BYLAYER
1002
{
1002
}
1002
}
1000
PAL2
1070
     9
1000
RAHM2
1002
{
1000
Class
1070
     4
1000
SPZ,SYM
1002
{
1002
}
1000
Color
1070
     1
1070
   256
1002
{
1002
}
1000
LType
1070
     4
1000
BYLAYER
1002
{
1002
}
1002
}
1000
PAL3
1070
     9
1000
RAHM3
1002
{
1000
Class
1070
     4
1000
SPZ,SYM
1002
{
1002
}
1000
Color
1070
     1
1070
   256
1002
{
1002
}
1000
LType
1070
     4
1000
BYLAYER
1002
{
1002
}
1002
}
1000
PAL5
1070
     9
1000
RAHM5
1002
{
1000
Class
1070
     4
1000
SPZ,SYM
1002
{
1002
}
1000
Color
1070
     1
1070
   256
1002
{
1002
}
1000
LType
1070
     4
1000
BYLAYER
1002
{
1002
}
1002
}
1000
PAL7
1070
     9
1000
RAHM5
1002
{
1000
Class
1070
     4
1000
SPZ,SYM
1002
{
1002
}
1000
Color
1070
     1
1070
     7
1002
{
1002
}
1000
LType
1070
     4
1000
CONTINUOUS
1002
{
1002
}
1002
}
1000
PHAN
1070
     9
1000
4A
1002
{
1000
Class
1070
     4
1000

1002
{
1002
}
1000
Color
1070
     1
1070
   256
1002
{
1002
}
1000
LType
1070
     4
1000
BYLAYER
1002
{
1002
}
1002
}
1000
POSL
1070
     9
1000
5
1002
{
1000
Class
1070
     4
1000
SYM
1002
{
1002
}
1000
Color
1070
     1
1070
   256
1002
{
1002
}
1000
LType
1070
     4
1000
BYLAYER
1002
{
1002
}
1002
}
1000
POSN
1070
     9
1000
6
1002
{
1000
Class
1070
     4
1000
SYM
1002
{
1002
}
1000
Color
1070
     1
1070
     7
1002
{
1002
}
1000
LType
1070
     4
1000
BYLAYER
1002
{
1002
}
1002
}
1000
POSREF
1070
     9
1000
6
1002
{
1000
Class
1070
     4
1000
SYM
1002
{
1002
}
1000
Color
1070
     1
1070
     5
1002
{
1002
}
1000
LType
1070
     4
1000
BYLAYER
1002
{
1002
}
1002
}
1000
POSX
1070
     9
1000
5
1002
{
1000
Class
1070
     4
1000
SYM
1002
{
1002
}
1000
Color
1070
     1
1070
     2
1002
{
1002
}
1000
LType
1070
     4
1000
CONTINUOUS
1002
{
1002
}
1002
}
1000
PSEC
1070
     9
1000
4A
1002
{
1000
Class
1070
     4
1000

1002
{
1002
}
1000
Color
1070
     1
1070
   256
1002
{
1002
}
1000
LType
1070
     4
1000
BYLAYER
1002
{
1002
}
1002
}
1000
RCGN
1070
     9
1000
7A
1002
{
1000
Class
1070
     4
1000
CEN
1002
{
1002
}
1000
Color
1070
     1
1070
   256
1002
{
1002
}
1000
LType
1070
     4
1000
BYLAYER
1002
{
1002
}
1002
}
1000
RCGW
1070
     9
1000
7
1002
{
1000
Class
1070
     4
1000
CEN
1002
{
1002
}
1000
Color
1070
     1
1070
   256
1002
{
1002
}
1000
LType
1070
     4
1000
BYLAYER
1002
{
1002
}
1002
}
1000
RFDI
1070
     9
1000
4
1002
{
1000
Class
1070
     4
1000
BGD
1002
{
1002
}
1000
Color
1070
     1
1070
   256
1002
{
1002
}
1000
LType
1070
     4
1000
BYLAYER
1002
{
1002
}
1002
}
1000
RQTR
1070
     9
1000
4
1002
{
1000
Class
1070
     4
1000

1002
{
1002
}
1000
Color
1070
     1
1070
     7
1002
{
1002
}
1000
LType
1070
     4
1000
GEN7A
1002
{
1002
}
1002
}
1000
RSBO
1070
     9
1000
4
1002
{
1000
Class
1070
     4
1000
BGD
1002
{
1002
}
1000
Color
1070
     1
1070
   256
1002
{
1002
}
1000
LType
1070
     4
1000
BYLAYER
1002
{
1002
}
1002
}
1000
SBRK
1070
     9
1000
4
1002
{
1000
Class
1070
     4
1000
BGD
1002
{
1002
}
1000
Color
1070
     1
1070
   256
1002
{
1002
}
1000
LType
1070
     4
1000
BYLAYER
1002
{
1002
}
1002
}
1000
SCEN
1070
     9
1000
7
1002
{
1000
Class
1070
     4
1000

1002
{
1002
}
1000
Color
1070
     1
1070
   256
1002
{
1002
}
1000
LType
1070
     4
1000
CONTINUOUS
1002
{
1002
}
1002
}
1000
SECT
1070
     9
1000
4
1002
{
1000
Class
1070
     4
1000
BGD
1002
{
1002
}
1000
Color
1070
     1
1070
   256
1002
{
1002
}
1000
LType
1070
     4
1000
BYLAYER
1002
{
1002
}
1002
}
1000
SELN
1070
     9
1000
7A
1002
{
1000
Class
1070
     4
1000

1002
{
1002
}
1000
Color
1070
     1
1070
   256
1002
{
1002
}
1000
LType
1070
     4
1000
BYLAYER
1002
{
1002
}
1002
}
1000
SELW
1070
     9
1000
7
1002
{
1000
Class
1070
     4
1000

1002
{
1002
}
1000
Color
1070
     1
1070
   256
1002
{
1002
}
1000
LType
1070
     4
1000
BYLAYER
1002
{
1002
}
1002
}
1000
SSYS
1070
     9
1000
0
1002
{
1000
Class
1070
     4
1000

1002
{
1002
}
1000
Color
1070
     1
1070
   256
1002
{
1002
}
1000
LType
1070
     4
1000
BYLAYER
1002
{
1002
}
1002
}
1000
STLI
1070
     9
1000
4
1002
{
1000
Class
1070
     4
1000

1002
{
1002
}
1000
Color
1070
     1
1070
     7
1002
{
1002
}
1000
LType
1070
     4
1000
GEN3A
1002
{
1002
}
1002
}
1000
SYB1
1070
     9
1000
5
1002
{
1000
Class
1070
     4
1000
SYM
1002
{
1002
}
1000
Color
1070
     1
1070
   256
1002
{
1002
}
1000
LType
1070
     4
1000
BYLAYER
1002
{
1002
}
1002
}
1000
SYB2
1070
     9
1000
5
1002
{
1000
Class
1070
     4
1000
SYM
1002
{
1002
}
1000
Color
1070
     1
1070
   256
1002
{
1002
}
1000
LType
1070
     4
1000
BYLAYER
1002
{
1002
}
1002
}
1000
SYB3
1070
     9
1000
6
1002
{
1000
Class
1070
     4
1000
SYM
1002
{
1002
}
1000
Color
1070
     1
1070
   256
1002
{
1002
}
1000
LType
1070
     4
1000
CONTINUOUS
1002
{
1002
}
1002
}
1000
SYB5
1070
     9
1000
5
1002
{
1000
Class
1070
     4
1000
SYM
1002
{
1002
}
1000
Color
1070
     1
1070
     7
1002
{
1002
}
1000
LType
1070
     4
1000
BYLAYER
1002
{
1002
}
1002
}
1000
SYMN
1070
     9
1000
7A
1002
{
1000
Class
1070
     4
1000
CEN
1002
{
1002
}
1000
Color
1070
     1
1070
   256
1002
{
1002
}
1000
LType
1070
     4
1000
BYLAYER
1002
{
1002
}
1002
}
1000
SYMW
1070
     9
1000
7
1002
{
1000
Class
1070
     4
1000
CEN
1002
{
1002
}
1000
Color
1070
     1
1070
   256
1002
{
1002
}
1000
LType
1070
     4
1000
BYLAYER
1002
{
1002
}
1002
}
1000
TCON
1070
     9
1000
0
1002
{
1000
Class
1070
     4
1000
CON,BGD
1002
{
1002
}
1000
Color
1070
     1
1070
   256
1002
{
1002
}
1000
LType
1070
     4
1000
BYLAYER
1002
{
1002
}
1002
}
1000
THLI
1070
     9
1000
4
1002
{
1000
Class
1070
     4
1000
BGD
1002
{
1002
}
1000
Color
1070
     1
1070
   256
1002
{
1002
}
1000
LType
1070
     4
1000
BYLAYER
1002
{
1002
}
1002
}
1000
TIT2
1070
     9
1000
RAHM2
1002
{
1000
Class
1070
     4
1000
SPZ,SYM
1002
{
1002
}
1000
Color
1070
     1
1070
   256
1002
{
1002
}
1000
LType
1070
     4
1000
BYLAYER
1002
{
1002
}
1002
}
1000
TIT3
1070
     9
1000
RAHM3
1002
{
1000
Class
1070
     4
1000
SPZ,SYM
1002
{
1002
}
1000
Color
1070
     1
1070
   256
1002
{
1002
}
1000
LType
1070
     4
1000
BYLAYER
1002
{
1002
}
1002
}
1000
TIT5
1070
     9
1000
RAHM5
1002
{
1000
Class
1070
     4
1000
SPZ,SYM
1002
{
1002
}
1000
Color
1070
     1
1070
   256
1002
{
1002
}
1000
LType
1070
     4
1000
BYLAYER
1002
{
1002
}
1002
}
1000
TIT7
1070
     9
1000
RAHM5
1002
{
1000
Class
1070
     4
1000
SPZ,SYM
1002
{
1002
}
1000
Color
1070
     1
1070
     7
1002
{
1002
}
1000
LType
1070
     4
1000
CONTINUOUS
1002
{
1002
}
1002
}
1000
TLEN
1070
     9
1000
0
1002
{
1000
Class
1070
     4
1000
CON,BGD
1002
{
1002
}
1000
Color
1070
     1
1070
   256
1002
{
1002
}
1000
LType
1070
     4
1000
BYLAYER
1002
{
1002
}
1002
}
1000
TRKN
1070
     9
1000
7A
1002
{
1000
Class
1070
     4
1000

1002
{
1002
}
1000
Color
1070
     1
1070
   256
1002
{
1002
}
1000
LType
1070
     4
1000
BYLAYER
1002
{
1002
}
1002
}
1000
TRKW
1070
     9
1000
7
1002
{
1000
Class
1070
     4
1000

1002
{
1002
}
1000
Color
1070
     1
1070
   256
1002
{
1002
}
1000
LType
1070
     4
1000
BYLAYER
1002
{
1002
}
1002
}
1000
TRLI
1070
     9
1000
4
1002
{
1000
Class
1070
     4
1000
BGD
1002
{
1002
}
1000
Color
1070
     1
1070
   256
1002
{
1002
}
1000
LType
1070
     4
1000
BYLAYER
1002
{
1002
}
1002
}
1000
TXT1
1070
     9
1000
6
1002
{
1000
Class
1070
     4
1000
SYM
1002
{
1002
}
1000
Color
1070
     1
1070
     2
1002
{
1002
}
1000
LType
1070
     4
1000
BYLAYER
1002
{
1002
}
1002
}
1000
TXT2
1070
     9
1000
6
1002
{
1000
Class
1070
     4
1000
SYM
1002
{
1002
}
1000
Color
1070
     1
1070
     2
1002
{
1002
}
1000
LType
1070
     4
1000
BYLAYER
1002
{
1002
}
1002
}
1000
TXT3
1070
     9
1000
6
1002
{
1000
Class
1070
     4
1000
SYM
1002
{
1002
}
1000
Color
1070
     1
1070
   256
1002
{
1002
}
1000
LType
1070
     4
1000
BYLAYER
1002
{
1002
}
1002
}
1000
TXT5
1070
     9
1000
6
1002
{
1000
Class
1070
     4
1000
SYM
1002
{
1002
}
1000
Color
1070
     1
1070
     7
1002
{
1002
}
1000
LType
1070
     4
1000
BYLAYER
1002
{
1002
}
1002
}
1000
TXT7
1070
     9
1000
6
1002
{
1000
Class
1070
     4
1000
SYM
1002
{
1002
}
1000
Color
1070
     1
1070
     7
1002
{
1002
}
1000
LType
1070
     4
1000
BYLAYER
1002
{
1002
}
1002
}
1000
VIEW
1070
     9
1000
VIEW
1002
{
1000
Class
1070
     4
1000
SPZ
1002
{
1002
}
1000
Color
1070
     1
1070
   256
1002
{
1002
}
1000
LType
1070
     4
1000
BYLAYER
1002
{
1002
}
1002
}
1000
VPLI
1070
     9
1000
2A
1002
{
1000
Class
1070
     4
1000

1002
{
1002
}
1000
Color
1070
     1
1070
   256
1002
{
1002
}
1000
LType
1070
     4
1000
BYLAYER
1002
{
1002
}
1002
}
1000
ZIZA
1070
     9
1000
4
1002
{
1000
Class
1070
     4
1000
BGD
1002
{
1002
}
1000
Color
1070
     1
1070
   256
1002
{
1002
}
1000
LType
1070
     4
1000
GENZIGZAG
1002
{
1002
}
1002
}
  0
APPID
  5
2D
100
AcDbSymbolTableRecord
100
AcDbRegAppTableRecord
  2
GENIUS_GENCFG3_13
 70
     0
1001
GENIUS_GENCFG_13
1071
862825278
1000
2D
1000
GEN@OSWIZ
1070
    12
1000
GenCfgObject
1000
GenCfgShort
1000
GenCfgReal
1000
GenCfgBool
1000
GenCfgString
1000
GenCfgDim
1000
GenCfgAttrInf
1000
GenCfgLaySection
1000
GenCfgLayer
1000
GenCfgEntSort
1000
GenCfgLType
1000
GenCfgFilter
1000
AngleStep
1070
     0
1002
{
1000
M
1070
     2
1040
10.0
1002
{
1002
}
1000
I
1070
     2
1040
0.4
1002
{
1002
}
1002
}
1000
AngleIncr
1070
     2
1040
45.0
1002
{
1002
}
1000
Filter
1070
     0
1002
{
1000
HATCH
1070
    11
1002
{
1000
EntityType
1070
     4
1000
LINE
1002
{
1002
}
1000
Layer
1070
     4
1000
8,8N,*-8,*-8N
1002
{
1002
}
1000
Linetype
1070
     4
1000
*
1002
{
1002
}
1000
Color
1070
     4
1000
*
1002
{
1002
}
1002
}
1000
SYMBOLS
1070
    11
1002
{
1000
EntityType
1070
     4
1000
*
1002
{
1002
}
1000
Layer
1070
     4
1000
[5-6],[5-6]N,*-[5-6],*-[5-6]N
1002
{
1002
}
1000
Linetype
1070
     4
1000
*
1002
{
1002
}
1000
Color
1070
     4
1000
*
1002
{
1002
}
1002
}
1000
FEM
1070
    11
1002
{
1000
EntityType
1070
     4
1000
*
1002
{
1002
}
1000
Layer
1070
     4
1000
4A,4AN,*-4A,*-4AN
1002
{
1002
}
1000
Linetype
1070
     4
1000
*
1002
{
1002
}
1000
Color
1070
     4
1000
*
1002
{
1002
}
1002
}
1002
}
1000
IconSize
1070
     2
1040
1.0
1002
{
1002
}
1000
SnapColor
1070
     1
1070
     3
1002
{
1002
}
  0
APPID
  5
2E
100
AcDbSymbolTableRecord
100
AcDbRegAppTableRecord
  2
GENIUS_GENCFG4_13
 70
     0
1001
GENIUS_GENCFG_13
1071
893077644
1000
2E
1000
GEN
1070
     9
1000
GenCfgObject
1000
GenCfgShort
1000
GenCfgReal
1000
GenCfgBool
1000
GenCfgString
1000
GenCfgDim
1000
GenCfgAttrInf
1000
GenCfgLaySection
1000
GenCfgLType
1000
Balloon
1070
     0
1002
{
1000
GenIF
1070
     1
1070
     0
1002
{
1002
}
1000
GenPosInc
1070
     1
1070
    10
1002
{
1002
}
1000
GenPosBlk
1070
     1
1070
     8
1002
{
1002
}
1000
GenPosVar
1070
     1
1070
     2
1002
{
1002
}
1000
GenZiCir
1070
     2
1040
1.5
1002
{
1002
}
1000
MaxCharForCenteredText
1070
     1
1070
    30
1002
{
1002
}
1000
Snap
1070
     0
1002
{
1000
ActivationRadius
1070
     2
1040
1.0
1002
{
1002
}
1000
M
1070
     0
1002
{
1000
SnapStepX
1070
     2
1040
20.0
1002
{
1002
}
1000
SnapStepY
1070
     2
1040
10.0
1002
{
1002
}
1002
}
1000
I
1070
     0
1002
{
1000
SnapStepX
1070
     2
1040
1.0
1002
{
1002
}
1000
SnapStepY
1070
     2
1040
0.5
1002
{
1002
}
1002
}
1002
}
1002
}
1000
Centerline
1070
     0
1002
{
1000
ScaleNot
1070
     3
1070
     1
1002
{
1002
}
1000
M
1070
     0
1002
{
1000
GenCenAng
1070
     4
1000
45|90|135
1002
{
1002
}
1000
GenCenDia
1070
     2
1040
10.0
1002
{
1002
}
1000
GenCenDias
1070
     4
1000
10|20|30
1002
{
1002
}
1000
GenCenDist
1070
     2
1040
3.0
1002
{
1002
}
1000
GenCenLen
1070
     2
1040
10.0
1002
{
1002
}
1000
GenCenOff
1070
     2
1040
10.0
1002
{
1002
}
1002
}
1000
I
1070
     0
1002
{
1000
GenCenAng
1070
     4
1000
45|90|135
1002
{
1002
}
1000
GenCenDia
1070
     2
1040
0.5
1002
{
1002
}
1000
GenCenDias
1070
     4
1000
0.5|1.0|1.5
1002
{
1002
}
1000
GenCenDist
1070
     2
1040
0.125
1002
{
1002
}
1000
GenCenLen
1070
     2
1040
0.5
1002
{
1002
}
1000
GenCenOff
1070
     2
1040
0.5
1002
{
1002
}
1002
}
1002
}
1000
CLine
1070
     0
1002
{
1000
CAngArray
1070
     4
1000
30|45|60
1002
{
1002
}
1000
Typ
1070
     4
1000
XLINE
1002
{
1002
}
1000
M
1070
     0
1002
{
1000
CLinArray
1070
     4
1000
60
1002
{
1002
}
1002
}
1000
I
1070
     0
1002
{
1000
CLinArray
1070
     4
1000
0.125|0.25|0.5
1002
{
1002
}
1002
}
1002
}
1000
Constraints
1070
     0
1002
{
1000
Color
1070
     0
1002
{
1000
Active_Frame
1070
     1
1070
     2
1002
{
1002
}
1000
Inactive_Frame
1070
     1
1070
     8
1002
{
1002
}
1002
}
1000
Debug
1070
     0
1002
{
1002
}
1000
Editor
1070
     0
1002
{
1002
}
1000
Frame
1070
     0
1002
{
1002
}
1000
Sys
1070
     0
1002
{
1002
}
1002
}
1000
Detail
1070
     0
1002
{
1002
}
1000
Dimension
1070
     5
1002
{
1000
DIMALT
1070
     1
1070
     0
1002
{
1002
}
1000
DIMALTD
1070
     1
1070
     2
1002
{
1002
}
1000
DIMALTTD
1070
     1
1070
     4
1002
{
1002
}
1000
DIMALTTZ
1070
     1
1070
     0
1002
{
1002
}
1000
DIMALTU
1070
     1
1070
     2
1002
{
1002
}
1000
DIMALTZ
1070
     1
1070
     0
1002
{
1002
}
1000
DIMAPOST
1070
     4
1000

1002
{
1002
}
1000
DIMAUNIT
1070
     1
1070
     0
1002
{
1002
}
1000
DIMBLK
1070
     4
1000

1002
{
1002
}
1000
DIMBLK1
1070
     4
1000

1002
{
1002
}
1000
DIMBLK2
1070
     4
1000

1002
{
1002
}
1000
DIMDLE
1070
     2
1040
0.0
1002
{
1002
}
1000
DIMFIT
1070
     1
1070
     3
1002
{
1002
}
1000
DIMJUST
1070
     1
1070
     0
1002
{
1002
}
1000
DIMLFAC
1070
     2
1040
1.0
1002
{
1002
}
1000
DIMLIM
1070
     1
1070
     0
1002
{
1002
}
1000
DIMPOST
1070
     4
1000
<>
1002
{
1002
}
1000
DIMRND
1070
     2
1040
0.0
1002
{
1002
}
1000
DIMSAH
1070
     1
1070
     0
1002
{
1002
}
1000
DIMSCALE
1070
     2
1040
1.0
1002
{
1002
}
1000
DIMSD1
1070
     1
1070
     0
1002
{
1002
}
1000
DIMSD2
1070
     1
1070
     0
1002
{
1002
}
1000
DIMSE1
1070
     1
1070
     0
1002
{
1002
}
1000
DIMSE2
1070
     1
1070
     0
1002
{
1002
}
1000
DIMSOXD
1070
     1
1070
     0
1002
{
1002
}
1000
DIMTAD
1070
     1
1070
     0
1002
{
1002
}
1000
DIMTFAC
1070
     2
1040
0.71
1002
{
1002
}
1000
DIMTIH
1070
     1
1070
     0
1002
{
1002
}
1000
DIMTIX
1070
     1
1070
     0
1002
{
1002
}
1000
DIMTM
1070
     2
1040
0.1
1002
{
1002
}
1000
DIMTOFL
1070
     1
1070
     0
1002
{
1002
}
1000
DIMTOH
1070
     1
1070
     0
1002
{
1002
}
1000
DIMTOL
1070
     1
1070
     0
1002
{
1002
}
1000
DIMTOLJ
1070
     1
1070
     1
1002
{
1002
}
1000
DIMTP
1070
     2
1040
0.1
1002
{
1002
}
1000
DIMTSZ
1070
     2
1040
0.0
1002
{
1002
}
1000
DIMTVP
1070
     2
1040
0.0
1002
{
1002
}
1000
DIMTXSTY
1070
     4
1000
STANDARD
1002
{
1002
}
1000
DIMTZIN
1070
     1
1070
     0
1002
{
1002
}
1000
DIMUNIT
1070
     1
1070
     2
1002
{
1002
}
1000
DIMUPT
1070
     1
1070
     0
1002
{
1002
}
1000
M
1070
     0
1002
{
1000
DIMALTF
1070
     2
1040
0.03937
1002
{
1002
}
1000
DIMASZ
1070
     2
1040
2.5
1002
{
1002
}
1000
DIMCEN
1070
     2
1040
0.0
1002
{
1002
}
1000
DIMDEC
1070
     1
1070
     2
1002
{
1002
}
1000
DIMDLI
1070
     2
1040
7.0
1002
{
1002
}
1000
DIMEXE
1070
     2
1040
1.0
1002
{
1002
}
1000
DIMEXO
1070
     2
1040
1.0
1002
{
1002
}
1000
DIMGAP
1070
     2
1040
0.6
1002
{
1002
}
1000
DIMTDEC
1070
     1
1070
     3
1002
{
1002
}
1000
DIMTXT
1070
     2
1040
3.5
1002
{
1002
}
1000
DIMZIN
1070
     1
1070
     8
1002
{
1002
}
1002
}
1000
I
1070
     0
1002
{
1000
DIMALTF
1070
     2
1040
25.4
1002
{
1002
}
1000
DIMASZ
1070
     2
1040
0.1
1002
{
1002
}
1000
DIMCEN
1070
     2
1040
0.0
1002
{
1002
}
1000
DIMDEC
1070
     1
1070
     4
1002
{
1002
}
1000
DIMDLI
1070
     2
1040
0.5
1002
{
1002
}
1000
DIMEXE
1070
     2
1040
0.1
1002
{
1002
}
1000
DIMEXO
1070
     2
1040
0.05
1002
{
1002
}
1000
DIMGAP
1070
     2
1040
0.06
1002
{
1002
}
1000
DIMTDEC
1070
     1
1070
     4
1002
{
1002
}
1000
DIMTXT
1070
     2
1040
0.12
1002
{
1002
}
1000
DIMZIN
1070
     1
1070
     7
1002
{
1002
}
1002
}
1000
GEN-ISO
1070
     5
1002
{
1000
NAME
1070
     4
1000
GEN-ISO
1002
{
1002
}
1000
DIMTAD
1070
     1
1070
     1
1002
{
1002
}
1000
DIMTOLJ
1070
     1
1070
     0
1002
{
1002
}
1000
DIMTOFL
1070
     1
1070
     1
1002
{
1002
}
1000
M
1070
     0
1002
{
1002
}
1000
I
1070
     0
1002
{
1002
}
1002
}
1000
GEN-ISO-POS
1070
     5
1002
{
1000
NAME
1070
     4
1000
GEN-ISO-POS
1002
{
1002
}
1000
DIMTOLJ
1070
     1
1070
     0
1002
{
1002
}
1000
M
1070
     0
1002
{
1000
DIMGAP
1070
     2
1040
1.5
1002
{
1002
}
1000
DIMTXT
1070
     2
1040
5.0
1002
{
1002
}
1000
DIMASZ
1070
     2
1040
2.5
1002
{
1002
}
1002
}
1000
I
1070
     0
1002
{
1000
DIMASZ
1070
     2
1040
0.1
1002
{
1002
}
1000
DIMGAP
1070
     2
1040
0.06
1002
{
1002
}
1000
DIMTXT
1070
     2
1040
0.2
1002
{
1002
}
1002
}
1000
DIMSCALE
1070
     2
1040
1.0
1002
{
1002
}
1000
DIMPOST
1070
     4
1000
<>
1002
{
1002
}
1002
}
1000
GEN-ISO-CIR
1070
     5
1002
{
1000
NAME
1070
     4
1000
GEN-ISO$3
1002
{
1002
}
1000
DIMFIT
1070
     1
1070
     0
1002
{
1002
}
1000
DIMTAD
1070
     1
1070
     1
1002
{
1002
}
1000
DIMTIH
1070
     1
1070
     0
1002
{
1002
}
1000
DIMTIX
1070
     1
1070
     0
1002
{
1002
}
1000
DIMTOH
1070
     1
1070
     1
1002
{
1002
}
1000
DIMTOLJ
1070
     1
1070
     0
1002
{
1002
}
1000
DIMTOFL
1070
     1
1070
     0
1002
{
1002
}
1000
DIMUPT
1070
     1
1070
     1
1002
{
1002
}
1000
M
1070
     0
1002
{
1002
}
1000
I
1070
     0
1002
{
1002
}
1000
DIMPOST
1070
     4
1000
<>
1002
{
1002
}
1002
}
1000
GEN-ISO-RAD
1070
     5
1002
{
1000
NAME
1070
     4
1000
GEN-ISO$4
1002
{
1002
}
1000
DIMFIT
1070
     1
1070
     0
1002
{
1002
}
1000
DIMTAD
1070
     1
1070
     1
1002
{
1002
}
1000
DIMTIH
1070
     1
1070
     0
1002
{
1002
}
1000
DIMTIX
1070
     1
1070
     0
1002
{
1002
}
1000
DIMTOH
1070
     1
1070
     1
1002
{
1002
}
1000
DIMTOLJ
1070
     1
1070
     0
1002
{
1002
}
1000
DIMTOFL
1070
     1
1070
     0
1002
{
1002
}
1000
DIMUPT
1070
     1
1070
     1
1002
{
1002
}
1000
M
1070
     0
1002
{
1002
}
1000
I
1070
     0
1002
{
1002
}
1002
}
1000
GEN-ISO-ORD
1070
     5
1002
{
1000
NAME
1070
     4
1000
GEN-ISO$6
1002
{
1002
}
1000
DIMTOLJ
1070
     1
1070
     0
1002
{
1002
}
1000
M
1070
     0
1002
{
1002
}
1000
I
1070
     0
1002
{
1002
}
1002
}
1000
GEN-ISO-AXE-F
1070
     5
1002
{
1000
NAME
1070
     4
1000
GEN-ISO-AXE-F
1002
{
1002
}
1000
DIMSE1
1070
     1
1070
     1
1002
{
1002
}
1000
DIMSE2
1070
     1
1070
     1
1002
{
1002
}
1000
DIMTAD
1070
     1
1070
     1
1002
{
1002
}
1000
DIMTOLJ
1070
     1
1070
     0
1002
{
1002
}
1000
DIMTOFL
1070
     1
1070
     1
1002
{
1002
}
1000
M
1070
     0
1002
{
1002
}
1000
I
1070
     0
1002
{
1002
}
1002
}
1000
GEN-ISO-AXE-H
1070
     5
1002
{
1000
DIMBLK1
1070
     4
1000
GENAXEH
1002
{
1002
}
1000
DIMLFAC
1070
     2
1040
2.0
1002
{
1002
}
1000
DIMSAH
1070
     1
1070
     1
1002
{
1002
}
1000
DIMSE1
1070
     1
1070
     1
1002
{
1002
}
1000
DIMSE2
1070
     1
1070
     1
1002
{
1002
}
1000
DIMTAD
1070
     1
1070
     1
1002
{
1002
}
1000
DIMTOLJ
1070
     1
1070
     0
1002
{
1002
}
1000
DIMTOFL
1070
     1
1070
     1
1002
{
1002
}
1000
M
1070
     0
1002
{
1002
}
1000
I
1070
     0
1002
{
1002
}
1002
}
1000
GEN-ANSI
1070
     5
1002
{
1000
NAME
1070
     4
1000
GEN-ANSI
1002
{
1002
}
1000
DIMTIH
1070
     1
1070
     1
1002
{
1002
}
1000
DIMTOH
1070
     1
1070
     1
1002
{
1002
}
1000
DIMTAD
1070
     1
1070
     0
1002
{
1002
}
1000
DIMTOLJ
1070
     1
1070
     1
1002
{
1002
}
1000
M
1070
     0
1002
{
1002
}
1000
I
1070
     0
1002
{
1002
}
1002
}
1000
GEN-ANSI-POS
1070
     5
1002
{
1000
NAME
1070
     4
1000
GEN-ANSI-POS
1002
{
1002
}
1000
DIMTOLJ
1070
     1
1070
     1
1002
{
1002
}
1000
M
1070
     0
1002
{
1000
DIMASZ
1070
     2
1040
2.5
1002
{
1002
}
1000
DIMGAP
1070
     2
1040
1.5
1002
{
1002
}
1000
DIMTXT
1070
     2
1040
5.0
1002
{
1002
}
1002
}
1000
I
1070
     0
1002
{
1000
DIMASZ
1070
     2
1040
0.1
1002
{
1002
}
1000
DIMGAP
1070
     2
1040
0.06
1002
{
1002
}
1000
DIMTXT
1070
     2
1040
0.2
1002
{
1002
}
1002
}
1002
}
1000
GEN-ANSI-CIR
1070
     5
1002
{
1000
NAME
1070
     4
1000
GEN-ANSI$3
1002
{
1002
}
1000
DIMFIT
1070
     1
1070
     0
1002
{
1002
}
1000
DIMTAD
1070
     1
1070
     0
1002
{
1002
}
1000
DIMTIH
1070
     1
1070
     1
1002
{
1002
}
1000
DIMTIX
1070
     1
1070
     0
1002
{
1002
}
1000
DIMTOFL
1070
     1
1070
     0
1002
{
1002
}
1000
DIMTOH
1070
     1
1070
     1
1002
{
1002
}
1000
DIMTOLJ
1070
     1
1070
     1
1002
{
1002
}
1000
DIMUPT
1070
     1
1070
     1
1002
{
1002
}
1000
M
1070
     0
1002
{
1002
}
1000
I
1070
     0
1002
{
1002
}
1002
}
1000
GEN-ANSI-RAD
1070
     5
1002
{
1000
NAME
1070
     4
1000
GEN-ANSI$4
1002
{
1002
}
1000
DIMFIT
1070
     1
1070
     0
1002
{
1002
}
1000
DIMTAD
1070
     1
1070
     0
1002
{
1002
}
1000
DIMTIH
1070
     1
1070
     1
1002
{
1002
}
1000
DIMTIX
1070
     1
1070
     0
1002
{
1002
}
1000
DIMTOFL
1070
     1
1070
     0
1002
{
1002
}
1000
DIMTOH
1070
     1
1070
     1
1002
{
1002
}
1000
DIMTOLJ
1070
     1
1070
     1
1002
{
1002
}
1000
DIMUPT
1070
     1
1070
     1
1002
{
1002
}
1000
M
1070
     0
1002
{
1002
}
1000
I
1070
     0
1002
{
1002
}
1002
}
1000
GEN-ANSI-ORD
1070
     5
1002
{
1000
NAME
1070
     4
1000
GEN-ANSI$6
1002
{
1002
}
1000
DIMTAD
1070
     1
1070
     0
1002
{
1002
}
1000
DIMTIH
1070
     1
1070
     1
1002
{
1002
}
1000
DIMTOH
1070
     1
1070
     1
1002
{
1002
}
1000
DIMTOLJ
1070
     1
1070
     1
1002
{
1002
}
1000
M
1070
     0
1002
{
1002
}
1000
I
1070
     0
1002
{
1002
}
1002
}
1000
GEN-ANSI-AXE-F
1070
     5
1002
{
1000
NAME
1070
     4
1000
GEN-ANSI-AXE-F
1002
{
1002
}
1000
DIMBLK1
1070
     4
1000
GENAXEH
1002
{
1002
}
1000
DIMSAH
1070
     1
1070
     1
1002
{
1002
}
1000
DIMSE1
1070
     1
1070
     1
1002
{
1002
}
1000
DIMSE2
1070
     1
1070
     1
1002
{
1002
}
1000
DIMTAD
1070
     1
1070
     0
1002
{
1002
}
1000
DIMTIH
1070
     1
1070
     1
1002
{
1002
}
1000
DIMTOH
1070
     1
1070
     1
1002
{
1002
}
1000
DIMTOLJ
1070
     1
1070
     1
1002
{
1002
}
1000
M
1070
     0
1002
{
1002
}
1000
I
1070
     0
1002
{
1002
}
1002
}
1000
GEN-ANSI-AXE-H
1070
     5
1002
{
1000
NAME
1070
     4
1000
GEN-ANSI-AXE-H
1002
{
1002
}
1000
DIMBLK1
1070
     4
1000
GENAXEH
1002
{
1002
}
1000
DIMLFAC
1070
     2
1040
2.0
1002
{
1002
}
1000
DIMSAH
1070
     1
1070
     1
1002
{
1002
}
1000
DIMSE1
1070
     1
1070
     1
1002
{
1002
}
1000
DIMSE2
1070
     1
1070
     1
1002
{
1002
}
1000
DIMTAD
1070
     1
1070
     0
1002
{
1002
}
1000
DIMTOFL
1070
     1
1070
     1
1002
{
1002
}
1000
DIMTOLJ
1070
     1
1070
     1
1002
{
1002
}
1000
M
1070
     0
1002
{
1002
}
1000
I
1070
     0
1002
{
1002
}
1002
}
1000
DIMZIN
1070
     1
1070
     8
1002
{
1002
}
1002
}
1000
DimSet
1070
     0
1002
{
1000
ChainSum
1070
     3
1070
     0
1002
{
1002
}
1000
DimDclTyp0
1070
     4
1000
dim23
1002
{
1002
}
1000
HorBra
1070
     3
1070
     0
1002
{
1002
}
1000
StrDia
1070
     4
1000
%%c<>
1002
{
1002
}
1000
StrRad
1070
     4
1000
R<>
1002
{
1002
}
1000
TextMinus
1070
     4
1000
<>
1002
{
1002
}
1000
TextPlus
1070
     4
1000
<>
1002
{
1002
}
1000
M
1070
     0
1002
{
1000
DimdliFirst
1070
     2
1040
10.0
1002
{
1002
}
1000
PointMakeDist
1070
     2
1040
10.0
1002
{
1002
}
1002
}
1000
I
1070
     0
1002
{
1000
DimdliFirst
1070
     2
1040
0.5
1002
{
1002
}
1000
PointMakeDist
1070
     2
1040
0.5
1002
{
1002
}
1002
}
1002
}
1000
Drawing
1070
     0
1002
{
1000
ChamferDimMode
1070
     1
1070
     2
1002
{
1002
}
1000
Gen_Fiso
1070
    -3
1040
1.0
1002
{
1002
}
1000
GenDimStil
1070
     4
1000
ISO
1002
{
1002
}
1000
GenDwgUScale
1070
     2
1040
1.0
1002
{
1002
}
1000
GenInch
1070
     4
1000
M
1002
{
1002
}
1000
GenPlotScale
1070
     4
1000
1:1
1002
{
1002
}
1000
Revisi
1070
     4
1000
0
1002
{
1002
}
1000
Version
1070
    -5
1000
13.1/May  9 1996
1002
{
1002
}
1000
Platform
1070
    -5
1000
WINNT
1002
{
1002
}
1002
}
1000
DwgVar
1070
     0
1002
{
1000
M
1070
     0
1002
{
1002
}
1000
I
1070
     0
1002
{
1002
}
1002
}
1000
Hatch
1070
     0
1002
{
1000
GenHtcFlag
1070
     3
1070
     0
1002
{
1002
}
1002
}
1000
Info_Pos
1070
     0
1002
{
1000
DescrText
1070
     4
1000
5,6,7,8
1002
{
1002
}
1000
Attrib
1070
     0
1002
{
1000
0
1070
     6
1002
{
1000
Prompt
1070
     4
1000
(genmsg gendwg 103)
1002
{
1002
}
1000
Value
1070
     4
1000

1002
{
1002
}
1000
EditFlag
1070
     1
1070
     0
1002
{
1002
}
1002
}
1000
1
1070
     6
1002
{
1000
Prompt
1070
     4
1000
(genmsg gendwg 31)
1002
{
1002
}
1000
Value
1070
     4
1000
1
1002
{
1002
}
1000
EditFlag
1070
     1
1070
     1
1002
{
1002
}
1002
}
1000
2
1070
     6
1002
{
1000
Prompt
1070
     4
1000
(genmsg gendwg 32)
1002
{
1002
}
1000
Value
1070
     4
1000
1
1002
{
1002
}
1000
EditFlag
1070
     1
1070
     1
1002
{
1002
}
1002
}
1000
3
1070
     6
1002
{
1000
Prompt
1070
     4
1000
(genmsg gendwg 33)
1002
{
1002
}
1000
Value
1070
     4
1000

1002
{
1002
}
1000
EditFlag
1070
     1
1070
     1
1002
{
1002
}
1002
}
1000
4
1070
     6
1002
{
1000
Prompt
1070
     4
1000
(genmsg gendwg 34)
1002
{
1002
}
1000
Value
1070
     4
1000

1002
{
1002
}
1000
EditFlag
1070
     1
1070
     1
1002
{
1002
}
1002
}
1000
5
1070
     6
1002
{
1000
Prompt
1070
     4
1000
(genmsg gendwg 35)
1002
{
1002
}
1000
Value
1070
     4
1000

1002
{
1002
}
1000
EditFlag
1070
     1
1070
     1
1002
{
1002
}
1002
}
1000
6
1070
     6
1002
{
1000
Prompt
1070
     4
1000
(genmsg gendwg 36)
1002
{
1002
}
1000
Value
1070
     4
1000

1002
{
1002
}
1000
EditFlag
1070
     1
1070
     1
1002
{
1002
}
1002
}
1000
7
1070
     6
1002
{
1000
Prompt
1070
     4
1000
(genmsg gendwg 37)
1002
{
1002
}
1000
Value
1070
     4
1000

1002
{
1002
}
1000
EditFlag
1070
     1
1070
     1
1002
{
1002
}
1002
}
1000
8
1070
     6
1002
{
1000
Prompt
1070
     4
1000
(genmsg gendwg 38)
1002
{
1002
}
1000
Value
1070
     4
1000

1002
{
1002
}
1000
EditFlag
1070
     1
1070
     1
1002
{
1002
}
1002
}
1000
9
1070
     6
1002
{
1000
Prompt
1070
     4
1000
(genmsg gendwg 39)
1002
{
1002
}
1000
Value
1070
     4
1000

1002
{
1002
}
1000
EditFlag
1070
     1
1070
     1
1002
{
1002
}
1002
}
1000
10
1070
     6
1002
{
1000
Prompt
1070
     4
1000
(genmsg gendwg 40)
1002
{
1002
}
1000
Value
1070
     4
1000

1002
{
1002
}
1000
EditFlag
1070
     1
1070
     1
1002
{
1002
}
1002
}
1000
11
1070
     6
1002
{
1000
Prompt
1070
     4
1000
(genmsg gendwg 41)
1002
{
1002
}
1000
Value
1070
     4
1000

1002
{
1002
}
1000
EditFlag
1070
     1
1070
     1
1002
{
1002
}
1002
}
1000
12
1070
     6
1002
{
1000
Prompt
1070
     4
1000
(genmsg gendwg 42)
1002
{
1002
}
1000
Value
1070
     4
1000

1002
{
1002
}
1000
EditFlag
1070
     1
1070
     1
1002
{
1002
}
1002
}
1000
13
1070
     6
1002
{
1000
Prompt
1070
     4
1000
(genmsg gendwg 43)
1002
{
1002
}
1000
Value
1070
     4
1000

1002
{
1002
}
1000
EditFlag
1070
     1
1070
     1
1002
{
1002
}
1002
}
1000
14
1070
     6
1002
{
1000
Prompt
1070
     4
1000
(genmsg gendwg 44)
1002
{
1002
}
1000
Value
1070
     4
1000

1002
{
1002
}
1000
EditFlag
1070
     1
1070
     1
1002
{
1002
}
1002
}
1000
15
1070
     6
1002
{
1000
Prompt
1070
     4
1000
(genmsg gendwg 45)
1002
{
1002
}
1000
Value
1070
     4
1000

1002
{
1002
}
1000
EditFlag
1070
     1
1070
     1
1002
{
1002
}
1002
}
1000
16
1070
     6
1002
{
1000
Prompt
1070
     4
1000
(genmsg gendwg 46)
1002
{
1002
}
1000
Value
1070
     4
1000

1002
{
1002
}
1000
EditFlag
1070
     1
1070
     1
1002
{
1002
}
1002
}
1000
17
1070
     6
1002
{
1000
Prompt
1070
     4
1000
(genmsg gendwg 47)
1002
{
1002
}
1000
Value
1070
     4
1000

1002
{
1002
}
1000
EditFlag
1070
     1
1070
     1
1002
{
1002
}
1002
}
1000
18
1070
     6
1002
{
1000
Prompt
1070
     4
1000
(genmsg gendwg 48)
1002
{
1002
}
1000
Value
1070
     4
1000

1002
{
1002
}
1000
EditFlag
1070
     1
1070
     1
1002
{
1002
}
1002
}
1000
19
1070
     6
1002
{
1000
Prompt
1070
     4
1000
(genmsg gendwg 99)
1002
{
1002
}
1000
Value
1070
     4
1000

1002
{
1002
}
1000
EditFlag
1070
     1
1070
     1
1002
{
1002
}
1002
}
1000
20
1070
     6
1002
{
1000
Prompt
1070
     4
1000
(genmsg gendwg 100)
1002
{
1002
}
1000
Value
1070
     4
1000

1002
{
1002
}
1000
EditFlag
1070
     1
1070
     1
1002
{
1002
}
1002
}
1000
21
1070
     6
1002
{
1000
Prompt
1070
     4
1000
(genmsg gendwg 101)
1002
{
1002
}
1000
Value
1070
     4
1000

1002
{
1002
}
1000
EditFlag
1070
     1
1070
     1
1002
{
1002
}
1002
}
1000
22
1070
     6
1002
{
1000
Prompt
1070
     4
1000
(genmsg gendwg 102)
1002
{
1002
}
1000
Value
1070
     4
1000

1002
{
1002
}
1000
EditFlag
1070
     1
1070
     1
1002
{
1002
}
1002
}
1000
23
1070
     6
1002
{
1000
Prompt
1070
     4
1000
(genmsg gendwg 30)
1002
{
1002
}
1000
Value
1070
     4
1000

1002
{
1002
}
1000
EditFlag
1070
     1
1070
     1
1002
{
1002
}
1002
}
1000
24
1070
     6
1002
{
1000
Prompt
1070
     4
1000
(genmsg gendwg 104)
1002
{
1002
}
1000
Value
1070
     4
1000

1002
{
1002
}
1000
EditFlag
1070
     1
1070
     1
1002
{
1002
}
1002
}
1002
}
1000
Xlate
1070
     0
1002
{
1000
>
1002
}
1002
}
1000
Layer
1070
     7
1002
{
1000
Defs
1070
     0
1002
{
1000
>
1002
}
1000
EntSort
1070
     0
1002
{
1000
>
1002
}
1000
Match
1070
     0
1002
{
1002
}
1000
Settings
1070
     0
1002
{
1000
FocGrNC
1070
     3
1070
     0
1002
{
1002
}
1000
FocGrLo
1070
     3
1070
     0
1002
{
1002
}
1000
FocLoNC
1070
     3
1070
     0
1002
{
1002
}
1000
FocusCol
1070
     1
1070
   253
1002
{
1002
}
1000
GenStdLG
1070
     4
1000

1002
{
1002
}
1000
LayMatch
1070
     3
1070
     0
1002
{
1002
}
1000
LgOff
1070
     3
1070
     0
1002
{
1002
}
1000
CurLG
1070
    -5
1000

1002
{
1002
}
1002
}
1002
}
1000
LType
1070
     0
1002
{
1000
GEN3
1070
     8
1000
genius.lin
1002
{
1002
}
1000
GEN7
1070
     8
1000
genius.lin
1002
{
1002
}
1000
GEN4A
1070
     8
1000
genius.lin
1002
{
1002
}
1000
GEN3A
1070
     8
1000
genius.lin
1002
{
1002
}
1000
GEN7A
1070
     8
1000
genius.lin
1002
{
1002
}
1000
GENZIGZAG
1070
     8
1000
genius.lin
1002
{
1002
}
1002
}
1000
Objecter
1070
     0
1002
{
1000
CreateGroups
1070
     3
1070
     0
1002
{
1002
}
1000
LaySwitch
1070
     3
1070
     1
1002
{
1002
}
1000
LastObj
1070
    -5
1000
1D04
1002
{
1002
}
1002
}
1000
OSWiz
1070
     0
1002
{
1000
>
1002
}
1000
PaList
1070
     0
1002
{
1000
AutoUpdatePartList
1070
     3
1070
     0
1002
{
1002
}
1000
ReadInfoPoint
1070
     3
1070
     0
1002
{
1002
}
1000
ReadPosNr
1070
     3
1070
     1
1002
{
1002
}
1000
RevStr
1070
     4
1000
0
1002
{
1002
}
1000
rebuildpending
1070
    -4
1070
     1
1002
{
1002
}
1000
rebuildpendingtime
1070
    -5
1000
893076807
1002
{
1002
}
1002
}
1000
Paper
1070
     0
1002
{
1002
}
1000
PartDB
1070
     0
1002
{
1000
GenDbOwner
1070
     4
1000

1002
{
1002
}
1002
}
1000
System
1070
     0
1002
{
1000
Menu
1070
     4
1000
GEV
1002
{
1002
}
1002
}
1000
Title
1070
     0
1002
{
1000
MakeView
1070
     1
1070
     2
1002
{
1002
}
1002
}
  0
APPID
  5
2F
100
AcDbSymbolTableRecord
100
AcDbRegAppTableRecord
  2
GENIUS_GEVCFG0_13
 70
     0
1001
GENIUS_GENCFG_13
1071
862825278
1000
2F
1000
GEV
1070
     1
1000
GenCfgObject
1000
System
1070
     0
1002
{
1002
}
1000
VED
1070
     0
1002
{
1002
}
  0
APPID
  5
33
100
AcDbSymbolTableRecord
100
AcDbRegAppTableRecord
  2
GENIUS_GEFCFG0_13
 70
     0
1001
GENIUS_GENCFG_13
1071
893076566
1000
33
1000
GEF
1070
     5
1000
GenCfgObject
1000
GenCfgString
1000
GenCfgReal
1000
GenCfgShort
1000
GenCfgBool
1000
System
1070
     0
1002
{
1002
}
1000
Prese
1070
     0
1002
{
1000
Funk
1070
     1
1000

1002
{
1002
}
1000
FunkDef
1070
     1
1000

1002
{
1002
}
1000
GefIso
1070
     1
1000
DIN
1002
{
1002
}
1002
}
1000
FEM
1070
     0
1002
{
1000
LayGroup
1070
     1
1000
FEM
1002
{
1002
}
1000
IncrCoef
1070
     2
1040
0.0
1002
{
1002
}
1002
}
1000
Shaft
1070
     0
1002
{
1000
Interrupt
1070
     3
1070
     0
1002
{
1002
}
1002
}
1000
PartDb
1070
     0
1002
{
1000
PartCreate
1070
     0
1002
{
1002
}
1002
}
1000
Symbol
1070
     0
1002
{
1000
WeldStyle
1070
     1
1000
ISO
1002
{
1002
}
1000
WeldSize
1070
     2
1040
1.0
1002
{
1002
}
1000
WeldFlag
1070
     4
1070
     1
1002
{
1002
}
1000
WeldOffset
1070
     4
1070
     1
1002
{
1002
}
1000
TolCType
1070
     1
1000
ISO
1002
{
1002
}
1000
TolCSize
1070
     2
1040
1.0
1002
{
1002
}
1000
STextureSize
1070
     2
1040
1.0
1002
{
1002
}
1000
SurfaceType
1070
     1
1000

1002
{
1002
}
1000
M
1070
     0
1002
{
1000
WeldWidth
1070
     2
1040
3.0
1002
{
1002
}
1002
}
1000
I
1070
     0
1002
{
1000
WeldWidth
1070
     2
1040
0.125
1002
{
1002
}
1002
}
1002
}
  0
APPID
  5
3C
100
AcDbSymbolTableRecord
100
AcDbRegAppTableRecord
  2
GENIUS_GENOENT_13
 70
     0
  0
APPID
  5
73
100
AcDbSymbolTableRecord
100
AcDbRegAppTableRecord
  2
GENIUS_GENBH_13
 70
     0
1001
GENIUS_GENOBJ_13
1070
     1
  0
APPID
  5
74
100
AcDbSymbolTableRecord
100
AcDbRegAppTableRecord
  2
GENIUS_GENOBJ_13
 70
     0
1001
GENIUS_GENODEF_13
1070
     0
1001
GENIUS_GENOLIS_13
1070
     0
1001
GENIUS_GENOREF_13
1070
     0
1001
GENIUS_GENOBJ-NBEHI-BHF_13
1070
     0
1001
GENIUS_GENOBJ-NBEHI-BHB_13
1070
     0
1001
GENIUS_GENBH_13
1070
     1
1001
GENIUS_GENOBJ-F-PART_13
1070
     0
1001
GENIUS_GEFSTDP_13
1070
     0
1001
GENIUS_GENOBJ-N-CRS_13
1070
     0
1001
GENIUS_GENOBJ-N-RSSYM_13
1070
     1
1001
GENIUS_GENSYMENT_13
1070
     1
1001
GENIUS_GENOENT_13
1070
     0
1070
     2
  0
APPID
  5
75
100
AcDbSymbolTableRecord
100
AcDbRegAppTableRecord
  2
GENIUS_GENODEF_13
 70
     0
1001
GENIUS_GENOBJ_13
1070
     0
  0
APPID
  5
76
100
AcDbSymbolTableRecord
100
AcDbRegAppTableRecord
  2
GENIUS_GENOLIS_13
 70
     0
1001
GENIUS_GENOBJ_13
1070
     0
  0
APPID
  5
77
100
AcDbSymbolTableRecord
100
AcDbRegAppTableRecord
  2
GENIUS_GENOREF_13
 70
     0
1001
GENIUS_GENOBJ_13
1070
     0
  0
APPID
  5
78
100
AcDbSymbolTableRecord
100
AcDbRegAppTableRecord
  2
GENIUS_GENOBJ-NBEHI-BHF_13
 70
     0
1001
GENIUS_GENOBJ_13
1070
     0
  0
APPID
  5
79
100
AcDbSymbolTableRecord
100
AcDbRegAppTableRecord
  2
GENIUS_GENOBJ-NBEHI-BHB_13
 70
     0
1001
GENIUS_GENOBJ_13
1070
     0
  0
APPID
  5
7A
100
AcDbSymbolTableRecord
100
AcDbRegAppTableRecord
  2
GENIUS_GENOBJ-F-PART_13
 70
     0
1001
GENIUS_GENOBJ_13
1070
     0
  0
APPID
  5
7B
100
AcDbSymbolTableRecord
100
AcDbRegAppTableRecord
  2
GENIUS_GEFSTDP_13
 70
     0
1001
GENIUS_GENOBJ_13
1070
     0
  0
APPID
  5
7C
100
AcDbSymbolTableRecord
100
AcDbRegAppTableRecord
  2
GENIUS_GENOBJ-N-CRS_13
 70
     0
1001
GENIUS_GENOBJ_13
1070
     0
  0
APPID
  5
7D
100
AcDbSymbolTableRecord
100
AcDbRegAppTableRecord
  2
GENIUS_GENINF13_13
 70
     0
  0
APPID
  5
7E
100
AcDbSymbolTableRecord
100
AcDbRegAppTableRecord
  2
GENIUS_GENOBJ-N-INFOPT_13
 70
     0
  0
APPID
  5
7F
100
AcDbSymbolTableRecord
100
AcDbRegAppTableRecord
  2
GENIUS_GENOBJ-N-RSSYM_13
 70
     0
1001
GENIUS_GENOBJ_13
1070
     1
  0
APPID
  5
80
100
AcDbSymbolTableRecord
100
AcDbRegAppTableRecord
  2
GENIUS_GENSYMENT_13
 70
     0
1001
GENIUS_GENOBJ_13
1070
     1
  0
APPID
  5
81
100
AcDbSymbolTableRecord
100
AcDbRegAppTableRecord
  2
GENIUS_GENSCSYM_13
 70
     0
  0
APPID
  5
82
100
AcDbSymbolTableRecord
100
AcDbRegAppTableRecord
  2
GENIUS_GENOBJ-N-CEN_13
 70
     0
  0
APPID
  5
83
100
AcDbSymbolTableRecord
100
AcDbRegAppTableRecord
  2
GENIUS_GENOBJ-N-FIL_13
 70
     0
  0
APPID
  5
E68
100
AcDbSymbolTableRecord
100
AcDbRegAppTableRecord
  2
GENIUS_GENOBJ-N-RSBK_13
 70
     0
  0
APPID
  5
E69
100
AcDbSymbolTableRecord
100
AcDbRegAppTableRecord
  2
GENIUS_GENOBJ-N-LIB_13
 70
     0
  0
APPID
  5
E6A
100
AcDbSymbolTableRecord
100
AcDbRegAppTableRecord
  2
GENIUS_GENSCALE_13
 70
     0
  0
ENDTAB
  0
TABLE
  2
DIMSTYLE
  5
A
100
AcDbSymbolTable
 70
     2
  0
DIMSTYLE
105
1D
100
AcDbSymbolTableRecord
100
AcDbDimStyleTableRecord
  2
STANDARD
 70
     0
  3

  4

  5

  6

  7

 40
1.0
 41
0.18
 42
0.0625
 43
0.38
 44
0.18
 45
0.0
 46
0.0
 47
0.0
 48
0.0
140
0.18
141
0.09
142
0.0
143
25.4
144
1.0
145
0.0
146
1.0
147
0.09
 71
     0
 72
     0
 73
     1
 74
     1
 75
     0
 76
     0
 77
     0
 78
     0
170
     0
171
     2
172
     0
173
     0
174
     0
175
     0
176
     0
177
     0
178
     0
270
     2
271
     4
272
     4
273
     2
274
     2
340
10
275
     0
280
     0
281
     0
282
     0
283
     1
284
     0
285
     0
286
     0
287
     3
288
     0
  0
DIMSTYLE
105
72
100
AcDbSymbolTableRecord
100
AcDbDimStyleTableRecord
  2
GEN-ISO
 70
     0
  3
<>
  4

  5

  6

  7

 40
1.0
 41
2.5
 42
1.0
 43
7.0
 44
1.0
 45
0.0
 46
0.0
 47
0.1
 48
0.1
140
3.5
141
0.0
142
0.0
143
0.03937
144
1.0
145
0.0
146
0.71
147
0.6
 71
     0
 72
     0
 73
     0
 74
     0
 75
     0
 76
     0
 77
     1
 78
     8
170
     0
171
     2
172
     1
173
     0
174
     0
175
     0
176
   256
177
   256
178
     2
270
     2
271
     2
272
     3
273
     2
274
     4
340
10
275
     0
280
     0
281
     0
282
     0
283
     0
284
     0
285
     0
286
     0
287
     3
288
     0
  0
ENDTAB
  0
TABLE
  2
BLOCK_RECORD
  5
1
100
AcDbSymbolTable
 70
     4
  0
BLOCK_RECORD
  5
1A
100
AcDbSymbolTableRecord
100
AcDbBlockTableRecord
  2
*MODEL_SPACE
  0
BLOCK_RECORD
  5
17
100
AcDbSymbolTableRecord
100
AcDbBlockTableRecord
  2
*PAPER_SPACE
  0
BLOCK_RECORD
  5
43
100
AcDbSymbolTableRecord
100
AcDbBlockTableRecord
  2
GENINF13
  0
ENDTAB
  0
ENDSEC
  0
SECTION
  2
BLOCKS
  0
BLOCK
  5
1B
100
AcDbEntity
  8
0
100
AcDbBlockBegin
  2
*MODEL_SPACE
 70
     0
 10
0.0
 20
0.0
 30
0.0
  3
*MODEL_SPACE
  1

  0
ENDBLK
  5
1C
100
AcDbEntity
  8
0
100
AcDbBlockEnd
  0
BLOCK
  5
18
100
AcDbEntity
 67
     1
  8
0
100
AcDbBlockBegin
  2
*PAPER_SPACE
 70
     0
 10
0.0
 20
0.0
 30
0.0
  3
*PAPER_SPACE
  1

  0
ENDBLK
  5
19
100
AcDbEntity
 67
     1
  8
0
100
AcDbBlockEnd
  0
BLOCK
  5
68
100
AcDbEntity
  8
0
100
AcDbBlockBegin
  2
GENINF13
 70
    66
 10
0.0
 20
0.0
 30
0.0
  3
GENINF13
  1
GENINF13
  0
CIRCLE
  5
44
100
AcDbEntity
  8
INFO
100
AcDbCircle
 10
-0.107946
 20
1.312244
 30
0.0
 40
0.339067
  0
CIRCLE
  5
45
100
AcDbEntity
  8
INFO
100
AcDbCircle
 10
0.0
 20
0.0
 30
0.0
 40
1.920194
  0
LINE
  5
46
100
AcDbEntity
  8
INFO
100
AcDbLine
 10
0.411344
 20
0.70683
 30
0.0
 11
-0.700006
 21
0.70683
 31
0.0
  0
LINE
  5
47
100
AcDbEntity
  8
INFO
100
AcDbLine
 10
0.829904
 20
-1.341535
 30
0.0
 11
0.829904
 21
-0.555367
 31
0.0
  0
LINE
  5
48
100
AcDbEntity
  8
INFO
100
AcDbLine
 10
0.829904
 20
-0.555367
 30
0.0
 11
0.411344
 21
-0.555367
 31
0.0
  0
LINE
  5
49
100
AcDbEntity
  8
INFO
100
AcDbLine
 10
0.411344
 20
-0.555367
 30
0.0
 11
0.411344
 21
0.70683
 31
0.0
  0
LINE
  5
4A
100
AcDbEntity
  8
INFO
100
AcDbLine
 10
-0.700006
 20
0.70683
 30
0.0
 11
-0.700006
 21
0.122613
 31
0.0
  0
LINE
  5
4B
100
AcDbEntity
  8
INFO
100
AcDbLine
 10
-0.700006
 20
0.122613
 30
0.0
 11
-0.375261
 21
0.122613
 31
0.0
  0
LINE
  5
4C
100
AcDbEntity
  8
INFO
100
AcDbLine
 10
-0.375261
 20
0.122613
 30
0.0
 11
-0.375261
 21
-0.555367
 31
0.0
  0
LINE
  5
4D
100
AcDbEntity
  8
INFO
100
AcDbLine
 10
-0.375261
 20
-0.555367
 30
0.0
 11
-0.801038
 21
-0.555367
 31
0.0
  0
LINE
  5
4E
100
AcDbEntity
  8
INFO
100
AcDbLine
 10
-0.801038
 20
-0.555367
 30
0.0
 11
-0.801038
 21
-1.341535
 31
0.0
  0
LINE
  5
4F
100
AcDbEntity
  8
INFO
100
AcDbLine
 10
-0.801038
 20
-1.341535
 30
0.0
 11
0.829904
 21
-1.341535
 31
0.0
  0
ATTDEF
  5
50
100
AcDbEntity
  8
INFO
100
AcDbText
 10
0.0
 20
0.0
 30
0.0
 40
1.0
  1
1
100
AcDbAttributeDefinition
  3
Menge
  2
2GENINF
 70
     1
  0
ATTDEF
  5
51
100
AcDbEntity
  8
INFO
100
AcDbText
 10
0.0
 20
-1.5
 30
0.0
 40
1.0
  1

100
AcDbAttributeDefinition
  3
Stücklisten-Name
  2
3GENINF
 70
     1
  0
ATTDEF
  5
52
100
AcDbEntity
  8
INFO
100
AcDbText
 10
0.0
 20
-3.0
 30
0.0
 40
1.0
  1

100
AcDbAttributeDefinition
  3
Stücklisten-Pfad
  2
4GENINF
 70
     1
  0
ATTDEF
  5
53
100
AcDbEntity
  8
INFO
100
AcDbText
 10
0.0
 20
-4.5
 30
0.0
 40
1.0
  1

100
AcDbAttributeDefinition
  3
Beschreibung 1
  2
5GENINF
 70
     1
  0
ATTDEF
  5
54
100
AcDbEntity
  8
INFO
100
AcDbText
 10
0.0
 20
-6.0
 30
0.0
 40
1.0
  1

100
AcDbAttributeDefinition
  3
Beschreibung 2
  2
6GENINF
 70
     1
  0
ATTDEF
  5
55
100
AcDbEntity
  8
INFO
100
AcDbText
 10
0.0
 20
-7.5
 30
0.0
 40
1.0
  1

100
AcDbAttributeDefinition
  3
Norm/Lieferant 1
  2
7GENINF
 70
     1
  0
ATTDEF
  5
56
100
AcDbEntity
  8
INFO
100
AcDbText
 10
0.0
 20
-9.0
 30
0.0
 40
1.0
  1

100
AcDbAttributeDefinition
  3
Norm/Lieferant 2
  2
8GENINF
 70
     1
  0
ATTDEF
  5
57
100
AcDbEntity
  8
INFO
100
AcDbText
 10
0.0
 20
-10.5
 30
0.0
 40
1.0
  1

100
AcDbAttributeDefinition
  3
Material 1
  2
9GENINF
 70
     1
  0
ATTDEF
  5
58
100
AcDbEntity
  8
INFO
100
AcDbText
 10
0.0
 20
-12.0
 30
0.0
 40
1.0
  1

100
AcDbAttributeDefinition
  3
Material 2
  2
10GENINF
 70
     1
  0
ATTDEF
  5
59
100
AcDbEntity
  8
INFO
100
AcDbText
 10
0.0
 20
-13.5
 30
0.0
 40
1.0
  1

100
AcDbAttributeDefinition
  3
Identnummer
  2
11GENINF
 70
     1
  0
ATTDEF
  5
5A
100
AcDbEntity
  8
INFO
100
AcDbText
 10
0.0
 20
-15.0
 30
0.0
 40
1.0
  1

100
AcDbAttributeDefinition
  3
Gewicht
  2
12GENINF
 70
     1
  0
ATTDEF
  5
5B
100
AcDbEntity
  8
INFO
100
AcDbText
 10
0.0
 20
-16.5
 30
0.0
 40
1.0
  1

100
AcDbAttributeDefinition
  3
Preis
  2
13GENINF
 70
     1
  0
ATTDEF
  5
5C
100
AcDbEntity
  8
INFO
100
AcDbText
 10
0.0
 20
-18.0
 30
0.0
 40
1.0
  1

100
AcDbAttributeDefinition
  3
Abmessungen
  2
14GENINF
 70
     1
  0
ATTDEF
  5
5D
100
AcDbEntity
  8
INFO
100
AcDbText
 10
0.0
 20
-19.5
 30
0.0
 40
1.0
  1

100
AcDbAttributeDefinition
  3
User 1
  2
15GENINF
 70
     1
  0
ATTDEF
  5
5E
100
AcDbEntity
  8
INFO
100
AcDbText
 10
0.0
 20
-21.0
 30
0.0
 40
1.0
  1

100
AcDbAttributeDefinition
  3
User 2
  2
16GENINF
 70
     1
  0
ATTDEF
  5
5F
100
AcDbEntity
  8
INFO
100
AcDbText
 10
0.0
 20
-22.5
 30
0.0
 40
1.0
  1

100
AcDbAttributeDefinition
  3
User 3
  2
17GENINF
 70
     1
  0
ATTDEF
  5
60
100
AcDbEntity
  8
INFO
100
AcDbText
 10
0.0
 20
-24.0
 30
0.0
 40
1.0
  1

100
AcDbAttributeDefinition
  3
User 4
  2
18GENINF
 70
     1
  0
ATTDEF
  5
61
100
AcDbEntity
  8
INFO
100
AcDbText
 10
0.0
 20
-25.5
 30
0.0
 40
1.0
  1

100
AcDbAttributeDefinition
  3
User 5
  2
19GENINF
 70
     1
  0
ATTDEF
  5
62
100
AcDbEntity
  8
INFO
100
AcDbText
 10
0.0
 20
-27.0
 30
0.0
 40
1.0
  1

100
AcDbAttributeDefinition
  3
User 6
  2
20GENINF
 70
     1
  0
ATTDEF
  5
63
100
AcDbEntity
  8
INFO
100
AcDbText
 10
0.0
 20
-28.5
 30
0.0
 40
1.0
  1

100
AcDbAttributeDefinition
  3
User 7
  2
21GENINF
 70
     1
  0
ATTDEF
  5
64
100
AcDbEntity
  8
INFO
100
AcDbText
 10
0.0
 20
-30.0
 30
0.0
 40
1.0
  1

100
AcDbAttributeDefinition
  3
User 8
  2
22GENINF
 70
     1
  0
ATTDEF
  5
65
100
AcDbEntity
  8
INFO
100
AcDbText
 10
0.0
 20
-31.5
 30
0.0
 40
1.0
  1

100
AcDbAttributeDefinition
  3
Filter
  2
23GENINF
 70
     1
  0
ATTDEF
  5
66
100
AcDbEntity
  8
INFO
100
AcDbText
 10
0.0
 20
-33.0
 30
0.0
 40
1.0
  1

100
AcDbAttributeDefinition
  3
Bemerkung
  2
24GENINF
 70
     1
  0
ATTDEF
  5
67
100
AcDbEntity
  8
INFO
100
AcDbText
 10
0.0
 20
-34.5
 30
0.0
 40
1.0
  1

100
AcDbAttributeDefinition
  3
Genius Normteile ID
  2
0GENINF
 70
     1
  0
ENDBLK
  5
69
100
AcDbEntity
  8
0
100
AcDbBlockEnd
  0
ENDSEC
  0
SECTION
  2
ENTITIES
  0
LINE
  5
182A
100
AcDbEntity
  8
MSL2_180_3F-7
100
AcDbLine
 10
382.592842
 20
150.0
 30
0.0
 11
218.071593
 21
150.0
 31
0.0
  0
LINE
  5
182B
100
AcDbEntity
  8
MSL2_180_3F-4
100
AcDbLine
 10
420.180842
 20
37.229016
 30
0.0
 11
211.440869
 21
37.229016
 31
0.0
  0
LINE
  5
182C
100
AcDbEntity
  8
MSL2_180_3F-7
100
AcDbLine
 10
382.592842
 20
0.0
 30
0.0
 11
218.071593
 21
0.0
 31
0.0
  0
LINE
  5
182D
100
AcDbEntity
  8
MSL2_180_3F-0
100
AcDbLine
 10
261.830842
 20
20.0
 30
0.0
 11
392.180842
 21
20.0
 31
0.0
  0
LINE
  5
182E
100
AcDbEntity
  8
MSL2_180_3F-0
100
AcDbLine
 10
420.680842
 20
-174.221056
 30
0.0
 11
213.660859
 21
-174.221056
 31
0.0
  0
LINE
  5
182F
100
AcDbEntity
  8
MSL2_180_3F-0
100
AcDbLine
 10
420.180842
 20
-173.221056
 30
0.0
 11
214.347691
 21
-173.221056
 31
0.0
  0
LINE
  5
1830
100
AcDbEntity
  8
MSL2_180_3F-4
100
AcDbLine
 10
420.180842
 20
-127.933719
 30
0.0
 11
181.180842
 21
-127.933719
 31
0.0
  0
LINE
  5
1831
100
AcDbEntity
  8
MSL2_180_3F-4
100
AcDbLine
 10
420.180842
 20
-140.508393
 30
0.0
 11
181.180842
 21
-140.508393
 31
0.0
  0
LINE
  5
1832
100
AcDbEntity
  8
MSL2_180_3F-0
100
AcDbLine
 10
180.680842
 20
-94.221056
 30
0.0
 11
387.700824
 21
-94.221056
 31
0.0
  0
LINE
  5
1833
100
AcDbEntity
  8
MSL2_180_3F-0
100
AcDbLine
 10
387.013992
 20
-95.221056
 30
0.0
 11
181.180842
 21
-95.221056
 31
0.0
  0
LINE
  5
1834
100
AcDbEntity
  8
MSL2_180_3F-0
100
AcDbLine
 10
420.680842
 20
20.0
 30
0.0
 11
180.680842
 21
20.0
 31
0.0
  0
LINE
  5
1835
100
AcDbEntity
  8
MSL2_180_3F-0
100
AcDbLine
 10
180.680842
 20
-20.0
 30
0.0
 11
420.680842
 21
-20.0
 31
0.0
  0
LINE
  5
1836
100
AcDbEntity
  8
MSL2_180_3F-0
100
AcDbLine
 10
181.180842
 20
65.0
 30
0.0
 11
420.180842
 21
65.0
 31
0.0
  0
POLYLINE
  5
1837
100
AcDbEntity
  8
MSL2_180_3F-0
100
AcDb2dPolyline
 66
     1
 10
0.0
 20
0.0
 30
0.0
 70
     1
  0
VERTEX
  5
1838
100
AcDbEntity
  8
MSL2_180_3F-0
  6
CONTINUOUS
100
AcDbVertex
100
AcDb2dVertex
 10
420.680842
 20
110.0
 30
0.0
  0
VERTEX
  5
1839
100
AcDbEntity
  8
MSL2_180_3F-0
  6
CONTINUOUS
100
AcDbVertex
100
AcDb2dVertex
 10
420.680842
 20
190.0
 30
0.0
  0
VERTEX
  5
183A
100
AcDbEntity
  8
MSL2_180_3F-0
  6
CONTINUOUS
100
AcDbVertex
100
AcDb2dVertex
 10
180.680842
 20
190.0
 30
0.0
  0
VERTEX
  5
183B
100
AcDbEntity
  8
MSL2_180_3F-0
  6
CONTINUOUS
100
AcDbVertex
100
AcDb2dVertex
 10
180.680842
 20
110.0
 30
0.0
  0
SEQEND
  5
183C
100
AcDbEntity
  8
MSL2_180_3F-0
  0
LINE
  5
183D
100
AcDbEntity
  8
MSL2_180_3F-7
100
AcDbLine
 10
641.029727
 20
-134.221056
 30
0.0
 11
140.456342
 21
-134.221056
 31
0.0
1001
GENIUS_GENOREF_13
1005
1D04
1005
1D03
  0
LINE
  5
183E
100
AcDbEntity
  8
MSL2_180_3F-7
100
AcDbLine
 10
0.0
 20
66.0
 30
0.0
 11
0.0
 21
-23.0
 31
0.0
  0
LINE
  5
183F
100
AcDbEntity
  8
MSL2_180_3F-0
100
AcDbLine
 10
-41.0
 20
34.9
 30
0.0
 11
-6.31997
 21
64.0
 31
0.0
  0
LINE
  5
1840
100
AcDbEntity
  8
MSL2_180_3F-0
100
AcDbLine
 10
-38.285575
 20
38.761105
 30
0.0
 11
-7.572912
 21
64.532089
 31
0.0
  0
LINE
  5
1841
100
AcDbEntity
  8
MSL2_180_3F-0
100
AcDbLine
 10
-6.930124
 20
63.766044
 30
0.0
 11
-37.642788
 21
37.99506
 31
0.0
  0
LINE
  5
1842
100
AcDbEntity
  8
MSL2_180_3F-3
100
AcDbLine
 10
-41.0
 20
12.933
 30
0.0
 11
-29.8
 21
12.933
 31
0.0
  0
LINE
  5
1843
100
AcDbEntity
  8
MSL2_180_3F-3
100
AcDbLine
 10
-41.0
 20
17.067
 30
0.0
 11
-29.8
 21
17.067
 31
0.0
  0
LINE
  5
1844
100
AcDbEntity
  8
MSL2_180_3F-7
100
AcDbLine
 10
-25.606617
 20
15.0
 30
0.0
 11
-44.0
 21
15.0
 31
0.0
  0
LINE
  5
1845
100
AcDbEntity
  8
MSL2_180_3F-7
100
AcDbLine
 10
-42.0
 20
0.0
 30
0.0
 11
42.0
 21
0.0
 31
0.0
  0
LINE
  5
1846
100
AcDbEntity
  8
MSL2_180_3F-3
100
AcDbLine
 10
40.0
 20
20.0
 30
0.0
 11
-40.0
 21
20.0
 31
0.0
  0
LINE
  5
1847
100
AcDbEntity
  8
MSL2_180_3F-3
100
AcDbLine
 10
-41.0
 20
-17.067
 30
0.0
 11
-29.8
 21
-17.067
 31
0.0
  0
LINE
  5
1848
100
AcDbEntity
  8
MSL2_180_3F-3
100
AcDbLine
 10
-41.0
 20
-12.933
 30
0.0
 11
-29.8
 21
-12.933
 31
0.0
  0
LINE
  5
1849
100
AcDbEntity
  8
MSL2_180_3F-7
100
AcDbLine
 10
-25.606617
 20
-15.0
 30
0.0
 11
-44.0
 21
-15.0
 31
0.0
  0
LINE
  5
184A
100
AcDbEntity
  8
MSL2_180_3F-3
100
AcDbLine
 10
-40.0
 20
-20.0
 30
0.0
 11
40.0
 21
-20.0
 31
0.0
  0
LINE
  5
184B
100
AcDbEntity
  8
MSL2_180_3F-0
100
AcDbLine
 10
41.0
 20
-21.0
 30
0.0
 11
-41.0
 21
-21.0
 31
0.0
  0
LINE
  5
184C
100
AcDbEntity
  8
MSL2_180_3F-3
100
AcDbLine
 10
-40.0
 20
20.0
 30
0.0
 11
-40.0
 21
-20.0
 31
0.0
  0
LINE
  5
184D
100
AcDbEntity
  8
MSL2_180_3F-0
100
AcDbLine
 10
-41.0
 20
-21.0
 30
0.0
 11
-41.0
 21
34.9
 31
0.0
  0
LINE
  5
184E
100
AcDbEntity
  8
MSL2_180_3F-3
100
AcDbLine
 10
-41.0
 20
-17.5
 30
0.0
 11
-33.0
 21
-17.5
 31
0.0
  0
LINE
  5
184F
100
AcDbEntity
  8
MSL2_180_3F-3
100
AcDbLine
 10
-41.0
 20
-12.5
 30
0.0
 11
-33.0
 21
-12.5
 31
0.0
  0
LINE
  5
1850
100
AcDbEntity
  8
MSL2_180_3F-3
100
AcDbLine
 10
-33.0
 20
-12.5
 30
0.0
 11
-33.0
 21
-17.5
 31
0.0
  0
LINE
  5
1851
100
AcDbEntity
  8
MSL2_180_3F-3
100
AcDbLine
 10
-39.0
 20
36.578199
 30
0.0
 11
-39.0
 21
20.0
 31
0.0
  0
LINE
  5
1852
100
AcDbEntity
  8
MSL2_180_3F-0
100
AcDbLine
 10
-44.0
 20
22.0
 30
0.0
 11
-44.0
 21
30.0
 31
0.0
  0
LINE
  5
1853
100
AcDbEntity
  8
MSL2_180_3F-7
100
AcDbLine
 10
-38.200636
 20
26.0
 30
0.0
 11
-45.424827
 21
26.0
 31
0.0
  0
LINE
  5
1854
100
AcDbEntity
  8
MSL2_180_3F-3
100
AcDbLine
 10
-41.0
 20
17.5
 30
0.0
 11
-33.0
 21
17.5
 31
0.0
  0
LINE
  5
1855
100
AcDbEntity
  8
MSL2_180_3F-3
100
AcDbLine
 10
-41.0
 20
12.5
 30
0.0
 11
-33.0
 21
12.5
 31
0.0
  0
LINE
  5
1856
100
AcDbEntity
  8
MSL2_180_3F-3
100
AcDbLine
 10
-33.0
 20
17.5
 30
0.0
 11
-33.0
 21
12.5
 31
0.0
  0
ARC
  5
1857
100
AcDbEntity
  8
MSL2_180_3F-0
100
AcDbCircle
 10
-42.5
 20
22.0
 30
0.0
 40
1.5
100
AcDbArc
 50
179.999998
 51
270.000001
  0
LINE
  5
1858
100
AcDbEntity
  8
MSL2_180_3F-0
100
AcDbLine
 10
-41.0
 20
20.5
 30
0.0
 11
-42.5
 21
20.5
 31
0.0
  0
LINE
  5
1859
100
AcDbEntity
  8
MSL2_180_3F-7
100
AcDbLine
 10
-38.13834
 20
31.0
 30
0.0
 11
-45.336731
 21
31.0
 31
0.0
  0
LINE
  5
185A
100
AcDbEntity
  8
MSL2_180_3F-0
100
AcDbLine
 10
-39.0
 20
36.578199
 30
0.0
 11
-39.0
 21
37.229016
 31
0.0
  0
ARC
  5
185B
100
AcDbEntity
  8
MSL2_180_3F-0
100
AcDbCircle
 10
-42.5
 20
30.0
 30
0.0
 40
1.5
100
AcDbArc
 50
89.999999
 51
179.999998
  0
LINE
  5
185C
100
AcDbEntity
  8
MSL2_180_3F-0
100
AcDbLine
 10
-44.0
 20
35.0
 30
0.0
 11
-44.0
 21
30.0
 31
0.0
  0
ARC
  5
185D
100
AcDbEntity
  8
MSL2_180_3F-0
100
AcDbCircle
 10
-42.5
 20
35.0
 30
0.0
 40
1.5
100
AcDbArc
 50
89.999999
 51
179.999998
  0
LINE
  5
185E
100
AcDbEntity
  8
MSL2_180_3F-0
100
AcDbLine
 10
-42.5
 20
31.5
 30
0.0
 11
-41.0
 21
31.5
 31
0.0
  0
LINE
  5
185F
100
AcDbEntity
  8
MSL2_180_3F-0
100
AcDbLine
 10
-42.5
 20
36.5
 30
0.0
 11
-39.093194
 21
36.5
 31
0.0
  0
LINE
  5
1860
100
AcDbEntity
  8
MSL2_180_3F-0
100
AcDbLine
 10
-36.023828
 20
43.26975
 30
0.0
 11
-39.291443
 21
44.052495
 31
0.0
  0
ARC
  5
1861
100
AcDbEntity
  8
MSL2_180_3F-0
100
AcDbCircle
 10
-37.0
 20
37.229016
 30
0.0
 40
1.0
100
AcDbArc
 50
130.0
 51
168.092024
1001
GENIUS_GENODEF_13
1002
{
1000
HIER
1070
     0
1002
}
1002
{
1000
MANEDIT
1070
     0
1002
}
1002
{
1000
NOSEL
1070
     0
1002
}
1002
{
1000
BEHIND
1070
     0
1002
}
1002
{
1000
REACTOR
1002
}
1001
GENIUS_GENOBJ-N-FIL_13
1002
{
1000
OWNER
1000
GEN
1002
}
  0
LINE
  5
1862
100
AcDbEntity
  8
MSL2_180_3F-7
100
AcDbLine
 10
-40.227816
 20
45.168421
 30
0.0
 11
-35.25779
 21
39.245375
 31
0.0
  0
LINE
  5
1863
100
AcDbEntity
  8
MSL2_180_3F-0
100
AcDbLine
 10
-41.769161
 20
38.448843
 30
0.0
 11
-33.342673
 21
45.519507
 31
0.0
  0
LINE
  5
1864
100
AcDbEntity
  8
MSL2_180_3F-0
100
AcDbLine
 10
-39.291443
 20
44.052495
 30
0.0
 11
-39.088006
 21
40.6986
 31
0.0
  0
ARC
  5
1865
100
AcDbEntity
  8
MSL2_180_3F-0
100
AcDbCircle
 10
-37.0
 20
37.229016
 30
0.0
 40
2.0
100
AcDbArc
 50
130.0
 51
180.0
1001
GENIUS_GENODEF_13
1002
{
1000
HIER
1070
     0
1002
}
1002
{
1000
MANEDIT
1070
     0
1002
}
1002
{
1000
NOSEL
1070
     0
1002
}
1002
{
1000
BEHIND
1070
     0
1002
}
1002
{
1000
REACTOR
1002
}
1001
GENIUS_GENOBJ-N-FIL_13
1002
{
1000
OWNER
1000
GEN
1002
}
  0
LINE
  5
1866
100
AcDbEntity
  8
MSL2_180_3F-0
100
AcDbLine
 10
-40.483586
 20
36.916754
 30
0.0
 11
-41.769161
 21
38.448843
 31
0.0
  0
LINE
  5
1867
100
AcDbEntity
  8
MSL2_180_3F-0
100
AcDbLine
 10
-40.483586
 20
36.916754
 30
0.0
 11
-38.285575
 21
38.761105
 31
0.0
  0
LINE
  5
1868
100
AcDbEntity
  8
MSL2_180_3F-3
100
AcDbLine
 10
-31.167663
 20
43.428335
 30
0.0
 11
-31.810451
 21
44.194379
 31
0.0
  0
LINE
  5
1869
100
AcDbEntity
  8
MSL2_180_3F-3
100
AcDbLine
 10
-31.490914
 20
43.157095
 30
0.0
 11
-32.133702
 21
43.923139
 31
0.0
  0
LINE
  5
186A
100
AcDbEntity
  8
MSL2_180_3F-0
100
AcDbLine
 10
-33.342673
 20
45.519507
 30
0.0
 11
-32.057097
 21
43.987418
 31
0.0
  0
LINE
  5
186B
100
AcDbEntity
  8
MSL2_180_3F-3
100
AcDbLine
 10
27.067
 20
-21.0
 30
0.0
 11
27.067
 21
-9.8
 31
0.0
  0
LINE
  5
186C
100
AcDbEntity
  8
MSL2_180_3F-3
100
AcDbLine
 10
27.067
 20
-21.0
 30
0.0
 11
27.067
 21
-9.8
 31
0.0
  0
LINE
  5
186D
100
AcDbEntity
  8
MSL2_180_3F-3
100
AcDbLine
 10
22.933
 20
-21.0
 30
0.0
 11
22.933
 21
-9.8
 31
0.0
  0
LINE
  5
186E
100
AcDbEntity
  8
MSL2_180_3F-3
100
AcDbLine
 10
22.933
 20
-21.0
 30
0.0
 11
22.933
 21
-9.8
 31
0.0
  0
CIRCLE
  5
186F
100
AcDbEntity
  8
MSL2_180_3F-3
100
AcDbCircle
 10
15.0
 20
-15.0
 30
0.0
 40
5.0
  0
LINE
  5
1870
100
AcDbEntity
  8
MSL2_180_3F-3
100
AcDbLine
 10
-22.933
 20
-21.0
 30
0.0
 11
-22.933
 21
-9.8
 31
0.0
  0
LINE
  5
1871
100
AcDbEntity
  8
MSL2_180_3F-3
100
AcDbLine
 10
-22.933
 20
-21.0
 30
0.0
 11
-22.933
 21
-9.8
 31
0.0
  0
CIRCLE
  5
1872
100
AcDbEntity
  8
MSL2_180_3F-3
100
AcDbCircle
 10
-15.0
 20
-15.0
 30
0.0
 40
5.0
  0
LINE
  5
1873
100
AcDbEntity
  8
MSL2_180_3F-3
100
AcDbLine
 10
-27.067
 20
-21.0
 30
0.0
 11
-27.067
 21
-9.8
 31
0.0
  0
LINE
  5
1874
100
AcDbEntity
  8
MSL2_180_3F-3
100
AcDbLine
 10
-27.067
 20
-21.0
 30
0.0
 11
-27.067
 21
-9.8
 31
0.0
  0
LINE
  5
1875
100
AcDbEntity
  8
MSL2_180_3F-7
100
AcDbLine
 10
-15.0
 20
23.867497
 30
0.0
 11
-15.0
 21
-23.0
 31
0.0
  0
LINE
  5
1876
100
AcDbEntity
  8
MSL2_180_3F-7
100
AcDbLine
 10
-25.0
 20
-5.606617
 30
0.0
 11
-25.0
 21
-24.0
 31
0.0
  0
LINE
  5
1877
100
AcDbEntity
  8
MSL2_180_3F-7
100
AcDbLine
 10
-25.0
 20
-5.606617
 30
0.0
 11
-25.0
 21
-23.0
 31
0.0
  0
LINE
  5
1878
100
AcDbEntity
  8
MSL2_180_3F-7
100
AcDbLine
 10
15.0
 20
23.867497
 30
0.0
 11
15.0
 21
-23.0
 31
0.0
  0
LINE
  5
1879
100
AcDbEntity
  8
MSL2_180_3F-3
100
AcDbLine
 10
40.0
 20
-20.0
 30
0.0
 11
40.0
 21
20.0
 31
0.0
  0
LINE
  5
187A
100
AcDbEntity
  8
MSL2_180_3F-0
100
AcDbLine
 10
41.0
 20
34.9
 30
0.0
 11
41.0
 21
-21.0
 31
0.0
  0
LINE
  5
187B
100
AcDbEntity
  8
MSL2_180_3F-7
100
AcDbLine
 10
25.0
 20
-5.606617
 30
0.0
 11
25.0
 21
-24.0
 31
0.0
  0
LINE
  5
187C
100
AcDbEntity
  8
MSL2_180_3F-7
100
AcDbLine
 10
25.0
 20
-5.606617
 30
0.0
 11
25.0
 21
-23.0
 31
0.0
  0
LINE
  5
187D
100
AcDbEntity
  8
MSL2_180_3F-7
100
AcDbLine
 10
25.606617
 20
-15.0
 30
0.0
 11
44.0
 21
-15.0
 31
0.0
  0
LINE
  5
187E
100
AcDbEntity
  8
MSL2_180_3F-7
100
AcDbLine
 10
25.606617
 20
-15.0
 30
0.0
 11
44.0
 21
-15.0
 31
0.0
  0
CIRCLE
  5
187F
100
AcDbEntity
  8
MSL2_180_3F-0
100
AcDbCircle
 10
0.0
 20
-15.0
 30
0.0
 40
2.5
  0
LINE
  5
1880
100
AcDbEntity
  8
MSL2_180_3F-7
100
AcDbLine
 10
23.783771
 20
-15.0
 30
0.0
 11
-23.841229
 21
-15.0
 31
0.0
  0
CIRCLE
  5
1881
100
AcDbEntity
  8
MSL2_180_3F-0
100
AcDbCircle
 10
-15.0
 20
-15.0
 30
0.0
 40
2.75
  0
LINE
  5
1882
100
AcDbEntity
  8
MSL2_180_3F-3
100
AcDbLine
 10
-22.5
 20
-21.0
 30
0.0
 11
-22.5
 21
-13.0
 31
0.0
  0
LINE
  5
1883
100
AcDbEntity
  8
MSL2_180_3F-3
100
AcDbLine
 10
-22.5
 20
-21.0
 30
0.0
 11
-22.5
 21
-13.0
 31
0.0
  0
LINE
  5
1884
100
AcDbEntity
  8
MSL2_180_3F-3
100
AcDbLine
 10
-27.5
 20
-21.0
 30
0.0
 11
-27.5
 21
-13.0
 31
0.0
  0
LINE
  5
1885
100
AcDbEntity
  8
MSL2_180_3F-3
100
AcDbLine
 10
-27.5
 20
-21.0
 30
0.0
 11
-27.5
 21
-13.0
 31
0.0
  0
LINE
  5
1886
100
AcDbEntity
  8
MSL2_180_3F-3
100
AcDbLine
 10
-27.5
 20
-13.0
 30
0.0
 11
-22.5
 21
-13.0
 31
0.0
  0
LINE
  5
1887
100
AcDbEntity
  8
MSL2_180_3F-3
100
AcDbLine
 10
-27.5
 20
-13.0
 30
0.0
 11
-22.5
 21
-13.0
 31
0.0
  0
LINE
  5
1888
100
AcDbEntity
  8
MSL2_180_3F-3
100
AcDbLine
 10
-29.8
 20
-12.933
 30
0.0
 11
-29.8
 21
-17.067
 31
0.0
  0
LINE
  5
1889
100
AcDbEntity
  8
MSL2_180_3F-3
100
AcDbLine
 10
-28.606617
 20
-15.0
 30
0.0
 11
-29.8
 21
-12.933
 31
0.0
  0
LINE
  5
188A
100
AcDbEntity
  8
MSL2_180_3F-3
100
AcDbLine
 10
-28.606617
 20
-15.0
 30
0.0
 11
-29.8
 21
-17.067
 31
0.0
  0
CIRCLE
  5
188B
100
AcDbEntity
  8
MSL2_180_3F-0
100
AcDbCircle
 10
15.0
 20
-15.0
 30
0.0
 40
2.75
  0
LINE
  5
188C
100
AcDbEntity
  8
MSL2_180_3F-3
100
AcDbLine
 10
27.5
 20
-21.0
 30
0.0
 11
27.5
 21
-13.0
 31
0.0
  0
LINE
  5
188D
100
AcDbEntity
  8
MSL2_180_3F-3
100
AcDbLine
 10
27.5
 20
-21.0
 30
0.0
 11
27.5
 21
-13.0
 31
0.0
  0
LINE
  5
188E
100
AcDbEntity
  8
MSL2_180_3F-3
100
AcDbLine
 10
22.5
 20
-21.0
 30
0.0
 11
22.5
 21
-13.0
 31
0.0
  0
LINE
  5
188F
100
AcDbEntity
  8
MSL2_180_3F-3
100
AcDbLine
 10
22.5
 20
-21.0
 30
0.0
 11
22.5
 21
-13.0
 31
0.0
  0
LINE
  5
1890
100
AcDbEntity
  8
MSL2_180_3F-3
100
AcDbLine
 10
27.5
 20
-13.0
 30
0.0
 11
22.5
 21
-13.0
 31
0.0
  0
LINE
  5
1891
100
AcDbEntity
  8
MSL2_180_3F-3
100
AcDbLine
 10
27.5
 20
-13.0
 30
0.0
 11
22.5
 21
-13.0
 31
0.0
  0
LINE
  5
1892
100
AcDbEntity
  8
MSL2_180_3F-3
100
AcDbLine
 10
41.0
 20
-17.5
 30
0.0
 11
33.0
 21
-17.5
 31
0.0
  0
LINE
  5
1893
100
AcDbEntity
  8
MSL2_180_3F-3
100
AcDbLine
 10
41.0
 20
-17.5
 30
0.0
 11
33.0
 21
-17.5
 31
0.0
  0
LINE
  5
1894
100
AcDbEntity
  8
MSL2_180_3F-3
100
AcDbLine
 10
41.0
 20
-12.5
 30
0.0
 11
33.0
 21
-12.5
 31
0.0
  0
LINE
  5
1895
100
AcDbEntity
  8
MSL2_180_3F-3
100
AcDbLine
 10
41.0
 20
-12.5
 30
0.0
 11
33.0
 21
-12.5
 31
0.0
  0
LINE
  5
1896
100
AcDbEntity
  8
MSL2_180_3F-3
100
AcDbLine
 10
41.0
 20
-17.067
 30
0.0
 11
29.8
 21
-17.067
 31
0.0
  0
LINE
  5
1897
100
AcDbEntity
  8
MSL2_180_3F-3
100
AcDbLine
 10
41.0
 20
-17.067
 30
0.0
 11
29.8
 21
-17.067
 31
0.0
  0
LINE
  5
1898
100
AcDbEntity
  8
MSL2_180_3F-3
100
AcDbLine
 10
41.0
 20
-12.933
 30
0.0
 11
29.8
 21
-12.933
 31
0.0
  0
LINE
  5
1899
100
AcDbEntity
  8
MSL2_180_3F-3
100
AcDbLine
 10
41.0
 20
-12.933
 30
0.0
 11
29.8
 21
-12.933
 31
0.0
  0
LINE
  5
189A
100
AcDbEntity
  8
MSL2_180_3F-3
100
AcDbLine
 10
33.0
 20
-12.5
 30
0.0
 11
33.0
 21
-17.5
 31
0.0
  0
LINE
  5
189B
100
AcDbEntity
  8
MSL2_180_3F-3
100
AcDbLine
 10
33.0
 20
-12.5
 30
0.0
 11
33.0
 21
-17.5
 31
0.0
  0
LINE
  5
189C
100
AcDbEntity
  8
MSL2_180_3F-3
100
AcDbLine
 10
28.606617
 20
-15.0
 30
0.0
 11
29.8
 21
-12.933
 31
0.0
  0
LINE
  5
189D
100
AcDbEntity
  8
MSL2_180_3F-3
100
AcDbLine
 10
28.606617
 20
-15.0
 30
0.0
 11
29.8
 21
-12.933
 31
0.0
  0
LINE
  5
189E
100
AcDbEntity
  8
MSL2_180_3F-3
100
AcDbLine
 10
29.8
 20
-12.933
 30
0.0
 11
29.8
 21
-17.067
 31
0.0
  0
LINE
  5
189F
100
AcDbEntity
  8
MSL2_180_3F-3
100
AcDbLine
 10
29.8
 20
-12.933
 30
0.0
 11
29.8
 21
-17.067
 31
0.0
  0
LINE
  5
18A0
100
AcDbEntity
  8
MSL2_180_3F-3
100
AcDbLine
 10
28.606617
 20
-15.0
 30
0.0
 11
29.8
 21
-17.067
 31
0.0
  0
LINE
  5
18A1
100
AcDbEntity
  8
MSL2_180_3F-3
100
AcDbLine
 10
28.606617
 20
-15.0
 30
0.0
 11
29.8
 21
-17.067
 31
0.0
  0
LINE
  5
18A2
100
AcDbEntity
  8
MSL2_180_3F-0
100
AcDbLine
 10
41.0
 20
34.9
 30
0.0
 11
6.31997
 21
64.0
 31
0.0
  0
LINE
  5
18A3
100
AcDbEntity
  8
MSL2_180_3F-0
100
AcDbLine
 10
38.285575
 20
38.761105
 30
0.0
 11
7.572912
 21
64.532089
 31
0.0
  0
LINE
  5
18A4
100
AcDbEntity
  8
MSL2_180_3F-0
100
AcDbLine
 10
6.930124
 20
63.766044
 30
0.0
 11
37.642788
 21
37.99506
 31
0.0
  0
LINE
  5
18A5
100
AcDbEntity
  8
MSL2_180_3F-7
100
AcDbLine
 10
25.606617
 20
15.0
 30
0.0
 11
44.0
 21
15.0
 31
0.0
  0
CIRCLE
  5
18A6
100
AcDbEntity
  8
MSL2_180_3F-0
100
AcDbCircle
 10
0.0
 20
15.0
 30
0.0
 40
2.5
  0
LINE
  5
18A7
100
AcDbEntity
  8
MSL2_180_3F-7
100
AcDbLine
 10
-23.841229
 20
15.0
 30
0.0
 11
23.783771
 21
15.0
 31
0.0
  0
LINE
  5
18A8
100
AcDbEntity
  8
MSL2_180_3F-7
100
AcDbLine
 10
-27.5
 20
10.175309
 30
0.0
 11
-27.5
 21
-9.668441
 31
0.0
  0
CIRCLE
  5
18A9
100
AcDbEntity
  8
MSL2_180_3F-0
100
AcDbCircle
 10
-15.0
 20
0.0
 30
0.0
 40
2.5
  0
LINE
  5
18AA
100
AcDbEntity
  8
MSL2_180_3F-3
100
AcDbLine
 10
-27.067
 20
-9.8
 30
0.0
 11
-22.933
 21
-9.8
 31
0.0
  0
LINE
  5
18AB
100
AcDbEntity
  8
MSL2_180_3F-3
100
AcDbLine
 10
-27.067
 20
-9.8
 30
0.0
 11
-22.933
 21
-9.8
 31
0.0
  0
LINE
  5
18AC
100
AcDbEntity
  8
MSL2_180_3F-3
100
AcDbLine
 10
-25.0
 20
-8.606617
 30
0.0
 11
-22.933
 21
-9.8
 31
0.0
  0
LINE
  5
18AD
100
AcDbEntity
  8
MSL2_180_3F-3
100
AcDbLine
 10
-25.0
 20
-8.606617
 30
0.0
 11
-22.933
 21
-9.8
 31
0.0
  0
LINE
  5
18AE
100
AcDbEntity
  8
MSL2_180_3F-3
100
AcDbLine
 10
-25.0
 20
-8.606617
 30
0.0
 11
-27.067
 21
-9.8
 31
0.0
  0
LINE
  5
18AF
100
AcDbEntity
  8
MSL2_180_3F-3
100
AcDbLine
 10
-25.0
 20
-8.606617
 30
0.0
 11
-27.067
 21
-9.8
 31
0.0
  0
CIRCLE
  5
18B0
100
AcDbEntity
  8
MSL2_180_3F-0
100
AcDbCircle
 10
-15.0
 20
15.0
 30
0.0
 40
2.75
  0
CIRCLE
  5
18B1
100
AcDbEntity
  8
MSL2_180_3F-3
100
AcDbCircle
 10
-15.0
 20
15.0
 30
0.0
 40
5.0
  0
LINE
  5
18B2
100
AcDbEntity
  8
MSL2_180_3F-3
100
AcDbLine
 10
-28.606617
 20
15.0
 30
0.0
 11
-29.8
 21
12.933
 31
0.0
  0
LINE
  5
18B3
100
AcDbEntity
  8
MSL2_180_3F-3
100
AcDbLine
 10
-29.8
 20
17.067
 30
0.0
 11
-29.8
 21
12.933
 31
0.0
  0
LINE
  5
18B4
100
AcDbEntity
  8
MSL2_180_3F-3
100
AcDbLine
 10
-28.606617
 20
15.0
 30
0.0
 11
-29.8
 21
17.067
 31
0.0
  0
LINE
  5
18B5
100
AcDbEntity
  8
MSL2_180_3F-7
100
AcDbLine
 10
27.5
 20
10.175309
 30
0.0
 11
27.5
 21
-9.668441
 31
0.0
  0
CIRCLE
  5
18B6
100
AcDbEntity
  8
MSL2_180_3F-0
100
AcDbCircle
 10
15.0
 20
0.0
 30
0.0
 40
2.5
  0
LINE
  5
18B7
100
AcDbEntity
  8
MSL2_180_3F-3
100
AcDbLine
 10
27.067
 20
-9.8
 30
0.0
 11
22.933
 21
-9.8
 31
0.0
  0
LINE
  5
18B8
100
AcDbEntity
  8
MSL2_180_3F-3
100
AcDbLine
 10
27.067
 20
-9.8
 30
0.0
 11
22.933
 21
-9.8
 31
0.0
  0
LINE
  5
18B9
100
AcDbEntity
  8
MSL2_180_3F-3
100
AcDbLine
 10
25.0
 20
-8.606617
 30
0.0
 11
22.933
 21
-9.8
 31
0.0
  0
LINE
  5
18BA
100
AcDbEntity
  8
MSL2_180_3F-3
100
AcDbLine
 10
25.0
 20
-8.606617
 30
0.0
 11
22.933
 21
-9.8
 31
0.0
  0
LINE
  5
18BB
100
AcDbEntity
  8
MSL2_180_3F-3
100
AcDbLine
 10
25.0
 20
-8.606617
 30
0.0
 11
27.067
 21
-9.8
 31
0.0
  0
LINE
  5
18BC
100
AcDbEntity
  8
MSL2_180_3F-3
100
AcDbLine
 10
25.0
 20
-8.606617
 30
0.0
 11
27.067
 21
-9.8
 31
0.0
  0
CIRCLE
  5
18BD
100
AcDbEntity
  8
MSL2_180_3F-0
100
AcDbCircle
 10
15.0
 20
15.0
 30
0.0
 40
2.75
  0
CIRCLE
  5
18BE
100
AcDbEntity
  8
MSL2_180_3F-3
100
AcDbCircle
 10
15.0
 20
15.0
 30
0.0
 40
5.0
  0
LINE
  5
18BF
100
AcDbEntity
  8
MSL2_180_3F-0
100
AcDbLine
 10
-6.287337
 20
65.0
 30
0.0
 11
0.0
 21
65.0
 31
0.0
  0
LINE
  5
18C0
100
AcDbEntity
  8
MSL2_180_3F-0
100
AcDbLine
 10
0.0
 20
64.0
 30
0.0
 11
-6.31997
 21
64.0
 31
0.0
  0
LINE
  5
18C1
100
AcDbEntity
  8
MSL2_180_3F-7
100
AcDbLine
 10
-8.5
 20
50.0
 30
0.0
 11
8.5
 21
50.0
 31
0.0
  0
LINE
  5
18C2
100
AcDbEntity
  8
MSL2_180_3F-3
100
AcDbLine
 10
-19.581317
 20
54.455841
 30
0.0
 11
-11.867866
 21
45.263307
 31
0.0
  0
LINE
  5
18C3
100
AcDbEntity
  8
MSL2_180_3F-3
100
AcDbLine
 10
-20.026217
 20
54.082526
 30
0.0
 11
-12.312765
 21
44.889992
 31
0.0
  0
LINE
  5
18C4
100
AcDbEntity
  8
MSL2_180_3F-3
100
AcDbLine
 10
-26.588498
 20
48.576118
 30
0.0
 11
-18.875047
 21
39.383584
 31
0.0
  0
LINE
  5
18C5
100
AcDbEntity
  8
MSL2_180_3F-7
100
AcDbLine
 10
-25.23572
 20
53.627455
 30
0.0
 11
-11.730276
 21
37.532294
 31
0.0
  0
LINE
  5
18C6
100
AcDbEntity
  8
MSL2_180_3F-3
100
AcDbLine
 10
-27.033397
 20
48.202803
 30
0.0
 11
-19.319946
 21
39.010269
 31
0.0
  0
MTEXT
  5
18C7
100
AcDbEntity
  8
MSL2_180_3F-6
100
AcDbMText
 10
-30.248415
 20
31.93689
 30
0.0
 40
3.5
 41
21.059228
 71
     1
 72
     1
  1
{MSL2-180-3F}
  0
LINE
  5
18C8
100
AcDbEntity
  8
MSL2_180_3F-3
100
AcDbLine
 10
-14.314685
 20
57.569662
 30
0.0
 11
-14.957473
 21
58.335707
 31
0.0
  0
ARC
  5
18C9
100
AcDbEntity
  8
MSL2_180_3F-0
100
AcDbCircle
 10
-6.287337
 20
63.0
 30
0.0
 40
2.0
100
AcDbArc
 50
90.0
 51
130.0
1001
GENIUS_GENODEF_13
1002
{
1000
HIER
1070
     0
1002
}
1002
{
1000
MANEDIT
1070
     0
1002
}
1002
{
1000
NOSEL
1070
     0
1002
}
1002
{
1000
BEHIND
1070
     0
1002
}
1002
{
1000
REACTOR
1002
}
1001
GENIUS_GENOBJ-N-FIL_13
1002
{
1000
OWNER
1000
GEN
1002
}
  0
ARC
  5
18CA
100
AcDbEntity
  8
MSL2_180_3F-0
100
AcDbCircle
 10
-6.287337
 20
63.0
 30
0.0
 40
1.0
100
AcDbArc
 50
91.907976
 51
130.0
1001
GENIUS_GENODEF_13
1002
{
1000
HIER
1070
     0
1002
}
1002
{
1000
MANEDIT
1070
     0
1002
}
1002
{
1000
NOSEL
1070
     0
1002
}
1002
{
1000
BEHIND
1070
     0
1002
}
1002
{
1000
REACTOR
1002
}
1001
GENIUS_GENOBJ-N-FIL_13
1002
{
1000
OWNER
1000
GEN
1002
}
  0
LINE
  5
18CB
100
AcDbEntity
  8
MSL2_180_3F-3
100
AcDbLine
 10
26.588498
 20
48.576118
 30
0.0
 11
18.875047
 21
39.383584
 31
0.0
  0
LINE
  5
18CC
100
AcDbEntity
  8
MSL2_180_3F-3
100
AcDbLine
 10
27.033397
 20
48.202803
 30
0.0
 11
19.319946
 21
39.010269
 31
0.0
  0
LINE
  5
18CD
100
AcDbEntity
  8
MSL2_180_3F-3
100
AcDbLine
 10
19.581317
 20
54.455841
 30
0.0
 11
11.867866
 21
45.263307
 31
0.0
  0
LINE
  5
18CE
100
AcDbEntity
  8
MSL2_180_3F-3
100
AcDbLine
 10
20.026217
 20
54.082526
 30
0.0
 11
12.312765
 21
44.889992
 31
0.0
  0
LINE
  5
18CF
100
AcDbEntity
  8
MSL2_180_3F-7
100
AcDbLine
 10
25.23572
 20
53.627455
 30
0.0
 11
11.730276
 21
37.532294
 31
0.0
  0
LINE
  5
18D0
100
AcDbEntity
  8
MSL2_180_3F-0
100
AcDbLine
 10
6.287337
 20
65.0
 30
0.0
 11
0.0
 21
65.0
 31
0.0
  0
LINE
  5
18D1
100
AcDbEntity
  8
MSL2_180_3F-0
100
AcDbLine
 10
0.0
 20
64.0
 30
0.0
 11
6.31997
 21
64.0
 31
0.0
  0
ARC
  5
18D2
100
AcDbEntity
  8
MSL2_180_3F-0
100
AcDbCircle
 10
6.287337
 20
63.0
 30
0.0
 40
2.0
100
AcDbArc
 50
50.0
 51
90.0
1001
GENIUS_GENODEF_13
1002
{
1000
HIER
1070
     0
1002
}
1002
{
1000
MANEDIT
1070
     0
1002
}
1002
{
1000
NOSEL
1070
     0
1002
}
1002
{
1000
BEHIND
1070
     0
1002
}
1002
{
1000
REACTOR
1002
}
1001
GENIUS_GENOBJ-N-FIL_13
1002
{
1000
OWNER
1000
GEN
1002
}
  0
ARC
  5
18D3
100
AcDbEntity
  8
MSL2_180_3F-0
100
AcDbCircle
 10
6.287337
 20
63.0
 30
0.0
 40
1.0
100
AcDbArc
 50
50.0
 51
88.092024
1001
GENIUS_GENODEF_13
1002
{
1000
HIER
1070
     0
1002
}
1002
{
1000
MANEDIT
1070
     0
1002
}
1002
{
1000
NOSEL
1070
     0
1002
}
1002
{
1000
BEHIND
1070
     0
1002
}
1002
{
1000
REACTOR
1002
}
1001
GENIUS_GENOBJ-N-FIL_13
1002
{
1000
OWNER
1000
GEN
1002
}
  0
LINE
  5
18D4
100
AcDbEntity
  8
MSL2_180_3F-0
100
AcDbLine
 10
14.314685
 20
57.569662
 30
0.0
 11
14.957473
 21
58.335707
 31
0.0
  0
LINE
  5
18D5
100
AcDbEntity
  8
MSL2_180_3F-3
100
AcDbLine
 10
39.0
 20
36.578199
 30
0.0
 11
39.0
 21
20.0
 31
0.0
  0
LINE
  5
18D6
100
AcDbEntity
  8
MSL2_180_3F-3
100
AcDbLine
 10
41.0
 20
12.5
 30
0.0
 11
33.0
 21
12.5
 31
0.0
  0
LINE
  5
18D7
100
AcDbEntity
  8
MSL2_180_3F-3
100
AcDbLine
 10
41.0
 20
17.5
 30
0.0
 11
33.0
 21
17.5
 31
0.0
  0
LINE
  5
18D8
100
AcDbEntity
  8
MSL2_180_3F-3
100
AcDbLine
 10
41.0
 20
12.933
 30
0.0
 11
29.8
 21
12.933
 31
0.0
  0
LINE
  5
18D9
100
AcDbEntity
  8
MSL2_180_3F-3
100
AcDbLine
 10
41.0
 20
17.067
 30
0.0
 11
29.8
 21
17.067
 31
0.0
  0
LINE
  5
18DA
100
AcDbEntity
  8
MSL2_180_3F-3
100
AcDbLine
 10
33.0
 20
17.5
 30
0.0
 11
33.0
 21
12.5
 31
0.0
  0
LINE
  5
18DB
100
AcDbEntity
  8
MSL2_180_3F-3
100
AcDbLine
 10
28.606617
 20
15.0
 30
0.0
 11
29.8
 21
12.933
 31
0.0
  0
LINE
  5
18DC
100
AcDbEntity
  8
MSL2_180_3F-3
100
AcDbLine
 10
28.606617
 20
15.0
 30
0.0
 11
29.8
 21
17.067
 31
0.0
  0
LINE
  5
18DD
100
AcDbEntity
  8
MSL2_180_3F-3
100
AcDbLine
 10
29.8
 20
17.067
 30
0.0
 11
29.8
 21
12.933
 31
0.0
  0
LINE
  5
18DE
100
AcDbEntity
  8
MSL2_180_3F-0
100
AcDbLine
 10
39.0
 20
36.578199
 30
0.0
 11
39.0
 21
37.229016
 31
0.0
  0
LINE
  5
18DF
100
AcDbEntity
  8
MSL2_180_3F-7
100
AcDbLine
 10
40.227816
 20
45.168421
 30
0.0
 11
35.25779
 21
39.245375
 31
0.0
  0
LINE
  5
18E0
100
AcDbEntity
  8
MSL2_180_3F-0
100
AcDbLine
 10
41.769161
 20
38.448843
 30
0.0
 11
33.342673
 21
45.519507
 31
0.0
  0
LINE
  5
18E1
100
AcDbEntity
  8
MSL2_180_3F-0
100
AcDbLine
 10
33.342673
 20
45.519507
 30
0.0
 11
32.057097
 21
43.987418
 31
0.0
  0
LINE
  5
18E2
100
AcDbEntity
  8
MSL2_180_3F-0
100
AcDbLine
 10
31.167663
 20
43.428335
 30
0.0
 11
31.810451
 21
44.194379
 31
0.0
  0
LINE
  5
18E3
100
AcDbEntity
  8
MSL2_180_3F-3
100
AcDbLine
 10
31.490914
 20
43.157095
 30
0.0
 11
32.133702
 21
43.923139
 31
0.0
  0
LINE
  5
18E4
100
AcDbEntity
  8
MSL2_180_3F-0
100
AcDbLine
 10
39.291443
 20
44.052495
 30
0.0
 11
39.088006
 21
40.6986
 31
0.0
  0
LINE
  5
18E5
100
AcDbEntity
  8
MSL2_180_3F-0
100
AcDbLine
 10
36.023828
 20
43.26975
 30
0.0
 11
39.291443
 21
44.052495
 31
0.0
  0
LINE
  5
18E6
100
AcDbEntity
  8
MSL2_180_3F-0
100
AcDbLine
 10
40.483586
 20
36.916754
 30
0.0
 11
41.769161
 21
38.448843
 31
0.0
  0
ARC
  5
18E7
100
AcDbEntity
  8
MSL2_180_3F-0
100
AcDbCircle
 10
37.0
 20
37.229016
 30
0.0
 40
1.0
100
AcDbArc
 50
11.907976
 51
50.0
1001
GENIUS_GENODEF_13
1002
{
1000
HIER
1070
     0
1002
}
1002
{
1000
MANEDIT
1070
     0
1002
}
1002
{
1000
NOSEL
1070
     0
1002
}
1002
{
1000
BEHIND
1070
     0
1002
}
1002
{
1000
REACTOR
1002
}
1001
GENIUS_GENOBJ-N-FIL_13
1002
{
1000
OWNER
1000
GEN
1002
}
  0
LINE
  5
18E8
100
AcDbEntity
  8
MSL2_180_3F-0
100
AcDbLine
 10
40.483586
 20
36.916754
 30
0.0
 11
38.285575
 21
38.761105
 31
0.0
  0
ARC
  5
18E9
100
AcDbEntity
  8
MSL2_180_3F-0
100
AcDbCircle
 10
37.0
 20
37.229016
 30
0.0
 40
2.0
100
AcDbArc
 50
360.0
 51
50.0
1001
GENIUS_GENODEF_13
1002
{
1000
HIER
1070
     0
1002
}
1002
{
1000
MANEDIT
1070
     0
1002
}
1002
{
1000
NOSEL
1070
     0
1002
}
1002
{
1000
BEHIND
1070
     0
1002
}
1002
{
1000
REACTOR
1002
}
1001
GENIUS_GENOBJ-N-FIL_13
1002
{
1000
OWNER
1000
GEN
1002
}
  0
ELLIPSE
  5
18EA
100
AcDbEntity
  8
MSL2_180_3F-0
100
AcDbEllipse
 10
209.180839
 20
-170.041455
 30
0.0
 11
5.499999999998895
 21
0.0000090659728525
 31
0.0
210
0.0
220
0.0
230
-1.0
 40
0.766044
 41
3.141592653589787
 42
6.283185307179938
  0
ELLIPSE
  5
18EB
100
AcDbEntity
  8
MSL2_180_3F-0
100
AcDbEllipse
 10
209.180842
 20
-171.776973
 30
0.0
 11
5.500000000006366
 21
0.0
 31
0.0
210
0.0
220
0.0
230
1.0
 40
0.766044
 41
0.0
 42
6.2831853071796
  0
LINE
  5
18EC
100
AcDbEntity
  8
MSL2_180_3F-7
100
AcDbLine
 10
200.680842
 20
-171.776984
 30
0.0
 11
217.680842
 21
-171.77697
 31
0.0
1001
GENIUS_GENODEF_13
1002
{
1000
HIER
1070
     0
1002
}
1002
{
1000
MANEDIT
1070
     0
1002
}
1002
{
1000
NOSEL
1070
     0
1002
}
1002
{
1000
BEHIND
1070
     0
1002
}
1002
{
1000
REACTOR
1002
}
1001
GENIUS_GENOBJ-N-CEN_13
1002
{
1000
OWNER
1000
GEN
1002
}
  0
MTEXT
  5
18ED
100
AcDbEntity
  8
MSL2_180_3F-6
100
AcDbMText
 10
182.520053
 20
-141.713945
 30
0.0
 40
3.5
 41
27.367041
 71
     1
 72
     1
  1
{MSL2-180-3F}
  0
LINE
  5
18EE
100
AcDbEntity
  8
MSL2_180_3F-0
100
AcDbLine
 10
204.700824
 20
-174.221056
 30
0.0
 11
180.680842
 21
-174.221056
 31
0.0
  0
LINE
  5
18EF
100
AcDbEntity
  8
MSL2_180_3F-0
100
AcDbLine
 10
204.013992
 20
-173.221056
 30
0.0
 11
181.180842
 21
-173.221056
 31
0.0
  0
LINE
  5
18F0
100
AcDbEntity
  8
MSL2_180_3F-0
100
AcDbLine
 10
180.680842
 20
-174.221056
 30
0.0
 11
180.680842
 21
-94.221056
 31
0.0
  0
LINE
  5
18F1
100
AcDbEntity
  8
MSL2_180_3F-0
100
AcDbLine
 10
181.180842
 20
-119.906371
 30
0.0
 11
181.180842
 21
-173.221056
 31
0.0
  0
LINE
  5
18F2
100
AcDbEntity
  8
MSL2_180_3F-0
100
AcDbLine
 10
143.680842
 20
-175.221056
 30
0.0
 11
143.680842
 21
-93.221056
 31
0.0
  0
LINE
  5
18F3
100
AcDbEntity
  8
MSL2_180_3F-0
100
AcDbLine
 10
159.680842
 20
-93.221056
 30
0.0
 11
159.680842
 21
-175.221056
 31
0.0
  0
LINE
  5
18F4
100
AcDbEntity
  8
MSL2_180_3F-3
100
AcDbLine
 10
146.613842
 20
-175.221056
 30
0.0
 11
146.613842
 21
-164.021056
 31
0.0
  0
LINE
  5
18F5
100
AcDbEntity
  8
MSL2_180_3F-3
100
AcDbLine
 10
146.613842
 20
-175.221056
 30
0.0
 11
146.613842
 21
-164.021056
 31
0.0
  0
LINE
  5
18F6
100
AcDbEntity
  8
MSL2_180_3F-3
100
AcDbLine
 10
150.747842
 20
-175.221056
 30
0.0
 11
150.747842
 21
-164.021056
 31
0.0
  0
LINE
  5
18F7
100
AcDbEntity
  8
MSL2_180_3F-3
100
AcDbLine
 10
150.747842
 20
-175.221056
 30
0.0
 11
150.747842
 21
-164.021056
 31
0.0
  0
LINE
  5
18F8
100
AcDbEntity
  8
MSL2_180_3F-7
100
AcDbLine
 10
148.680842
 20
-159.827673
 30
0.0
 11
148.680842
 21
-178.221056
 31
0.0
  0
LINE
  5
18F9
100
AcDbEntity
  8
MSL2_180_3F-7
100
AcDbLine
 10
148.680842
 20
-159.827673
 30
0.0
 11
148.680842
 21
-178.221056
 31
0.0
  0
ARC
  5
18FA
100
AcDbEntity
  8
MSL2_180_3F-0
100
AcDbCircle
 10
155.971119
 20
-161.721056
 30
0.0
 40
7.709722
100
AcDbArc
 50
330.872216
 51
29.127784
  0
ARC
  5
18FB
100
AcDbEntity
  8
MSL2_180_3F-0
100
AcDbCircle
 10
167.390564
 20
-161.721056
 30
0.0
 40
7.709722
100
AcDbArc
 50
150.872218
 51
209.127782
  0
LINE
  5
18FC
100
AcDbEntity
  8
MSL2_180_3F-0
100
AcDbLine
 10
163.680842
 20
-156.091891
 30
0.0
 11
163.680842
 21
-167.350221
 31
0.0
  0
ARC
  5
18FD
100
AcDbEntity
  8
MSL2_180_3F-0
100
AcDbCircle
 10
168.658432
 20
-161.721056
 30
0.0
 40
9.02241
100
AcDbArc
 50
335.421502
 51
24.578498
  0
LINE
  5
18FE
100
AcDbEntity
  8
MSL2_180_3F-0
100
AcDbLine
 10
173.730842
 20
-157.721056
 30
0.0
 11
173.730842
 21
-165.721056
 31
0.0
  0
LINE
  5
18FF
100
AcDbEntity
  8
MSL2_180_3F-0
100
AcDbLine
 10
177.680842
 20
-156.091891
 30
0.0
 11
177.680842
 21
-167.350221
 31
0.0
  0
LINE
  5
1900
100
AcDbEntity
  8
MSL2_180_3F-0
100
AcDbLine
 10
177.680842
 20
-169.082272
 30
0.0
 11
177.680842
 21
-154.35984
 31
0.0
  0
LINE
  5
1901
100
AcDbEntity
  8
MSL2_180_3F-0
100
AcDbLine
 10
173.730842
 20
-154.215503
 30
0.0
 11
173.730842
 21
-169.226609
 31
0.0
  0
ARC
  5
1902
100
AcDbEntity
  8
MSL2_180_3F-0
100
AcDbCircle
 10
188.315564
 20
-161.721056
 30
0.0
 40
10.634722
100
AcDbArc
 50
152.518773
 51
207.481227
  0
LINE
  5
1903
100
AcDbEntity
  8
MSL2_180_3F-0
100
AcDbLine
 10
159.680842
 20
-175.221056
 30
0.0
 11
143.680842
 21
-175.221056
 31
0.0
  0
LINE
  5
1904
100
AcDbEntity
  8
MSL2_180_3F-0
100
AcDbLine
 10
173.730842
 20
-169.226609
 30
0.0
 11
176.863342
 21
-169.226609
 31
0.0
  0
LINE
  5
1905
100
AcDbEntity
  8
MSL2_180_3F-0
100
AcDbLine
 10
176.863342
 20
-165.473833
 30
0.0
 11
173.730842
 21
-165.473833
 31
0.0
  0
ARC
  5
1906
100
AcDbEntity
  8
MSL2_180_3F-0
100
AcDbCircle
 10
161.973897
 20
-167.350221
 30
0.0
 40
2.293056
100
AcDbArc
 50
125.085848
 51
234.914152
  0
LINE
  5
1907
100
AcDbEntity
  8
MSL2_180_3F-3
100
AcDbLine
 10
151.180842
 20
-175.221056
 30
0.0
 11
151.180842
 21
-167.221056
 31
0.0
  0
LINE
  5
1908
100
AcDbEntity
  8
MSL2_180_3F-3
100
AcDbLine
 10
151.180842
 20
-175.221056
 30
0.0
 11
151.180842
 21
-167.221056
 31
0.0
  0
LINE
  5
1909
100
AcDbEntity
  8
MSL2_180_3F-3
100
AcDbLine
 10
146.180842
 20
-175.221056
 30
0.0
 11
146.180842
 21
-167.221056
 31
0.0
  0
LINE
  5
190A
100
AcDbEntity
  8
MSL2_180_3F-3
100
AcDbLine
 10
146.180842
 20
-175.221056
 30
0.0
 11
146.180842
 21
-167.221056
 31
0.0
  0
LINE
  5
190B
100
AcDbEntity
  8
MSL2_180_3F-3
100
AcDbLine
 10
151.180842
 20
-167.221056
 30
0.0
 11
146.180842
 21
-167.221056
 31
0.0
  0
LINE
  5
190C
100
AcDbEntity
  8
MSL2_180_3F-3
100
AcDbLine
 10
151.180842
 20
-167.221056
 30
0.0
 11
146.180842
 21
-167.221056
 31
0.0
  0
LINE
  5
190D
100
AcDbEntity
  8
MSL2_180_3F-0
100
AcDbLine
 10
173.730842
 20
-167.721056
 30
0.0
 11
163.650657
 21
-167.721056
 31
0.0
  0
LINE
  5
190E
100
AcDbEntity
  8
MSL2_180_3F-0
100
AcDbLine
 10
163.680842
 20
-165.721056
 30
0.0
 11
173.730842
 21
-165.721056
 31
0.0
  0
LINE
  5
190F
100
AcDbEntity
  8
MSL2_180_3F-0
100
AcDbLine
 10
160.655842
 20
-169.226609
 30
0.0
 11
162.705842
 21
-169.226609
 31
0.0
  0
LINE
  5
1910
100
AcDbEntity
  8
MSL2_180_3F-0
100
AcDbLine
 10
160.655842
 20
-165.473833
 30
0.0
 11
162.705842
 21
-165.473833
 31
0.0
  0
ARC
  5
1911
100
AcDbEntity
  8
MSL2_180_3F-0
100
AcDbCircle
 10
161.387786
 20
-167.350221
 30
0.0
 40
2.293056
100
AcDbArc
 50
305.085847
 51
54.914153
  0
ARC
  5
1912
100
AcDbEntity
  8
MSL2_180_3F-0
100
AcDbCircle
 10
175.118677
 20
-167.350221
 30
0.0
 40
2.562165
100
AcDbArc
 50
312.916662
 51
47.083338
  0
ARC
  5
1913
100
AcDbEntity
  8
MSL2_180_3F-0
100
AcDbCircle
 10
180.789522
 20
-169.082272
 30
0.0
 40
3.108681
100
AcDbArc
 50
127.878144
 51
232.121856
  0
LINE
  5
1914
100
AcDbEntity
  8
MSL2_180_3F-0
100
AcDbLine
 10
178.880842
 20
-171.536011
 30
0.0
 11
180.680842
 21
-171.536011
 31
0.0
  0
LINE
  5
1915
100
AcDbEntity
  8
MSL2_180_3F-0
100
AcDbLine
 10
178.880842
 20
-166.628533
 30
0.0
 11
180.680842
 21
-166.628533
 31
0.0
  0
LINE
  5
1916
100
AcDbEntity
  8
MSL2_180_3F-0
100
AcDbLine
 10
203.680839
 20
-170.041455
 30
0.0
 11
203.680842
 21
-171.777
 31
0.0
  0
LINE
  5
1917
100
AcDbEntity
  8
MSL2_180_3F-7
100
AcDbLine
 10
140.331957
 20
-119.221056
 30
0.0
 11
163.451175
 21
-119.221056
 31
0.0
  0
LINE
  5
1918
100
AcDbEntity
  8
MSL2_180_3F-0
100
AcDbLine
 10
143.680842
 20
-93.221056
 30
0.0
 11
159.680842
 21
-93.221056
 31
0.0
  0
LINE
  5
1919
100
AcDbEntity
  8
MSL2_180_3F-7
100
AcDbLine
 10
184.34181
 20
-106.721056
 30
0.0
 11
140.456342
 21
-106.721056
 31
0.0
  0
LINE
  5
191A
100
AcDbEntity
  8
MSL2_180_3F-7
100
AcDbLine
 10
140.331957
 20
-149.221056
 30
0.0
 11
163.451175
 21
-149.221056
 31
0.0
  0
LINE
  5
191B
100
AcDbEntity
  8
MSL2_180_3F-0
100
AcDbLine
 10
143.680842
 20
-127.901086
 30
0.0
 11
159.680842
 21
-127.901086
 31
0.0
  0
LINE
  5
191C
100
AcDbEntity
  8
MSL2_180_3F-0
100
AcDbLine
 10
143.680842
 20
-140.541026
 30
0.0
 11
159.680842
 21
-140.541026
 31
0.0
  0
LINE
  5
191D
100
AcDbEntity
  8
MSL2_180_3F-7
100
AcDbLine
 10
184.34181
 20
-161.721056
 30
0.0
 11
140.456342
 21
-161.721056
 31
0.0
  0
LINE
  5
191E
100
AcDbEntity
  8
MSL2_180_3F-0
100
AcDbLine
 10
165.680842
 20
-128.221056
 30
0.0
 11
165.680842
 21
-126.221056
 31
0.0
1001
GENIUS_GENOREF_13
1005
1D04
  0
LINE
  5
191F
100
AcDbEntity
  8
MSL2_180_3F-0
100
AcDbLine
 10
166.680842
 20
-128.221056
 30
0.0
 11
166.680842
 21
-125.221056
 31
0.0
1001
GENIUS_GENOREF_13
1005
1D04
  0
LINE
  5
1920
100
AcDbEntity
  8
MSL2_180_3F-0
100
AcDbLine
 10
180.680842
 20
-143.221056
 30
0.0
 11
166.680842
 21
-143.221056
 31
0.0
  0
LINE
  5
1921
100
AcDbEntity
  8
MSL2_180_3F-0
100
AcDbLine
 10
180.680842
 20
-128.221056
 30
0.0
 11
159.680842
 21
-128.221056
 31
0.0
  0
LINE
  5
1922
100
AcDbEntity
  8
MSL2_180_3F-0
100
AcDbLine
 10
159.680842
 20
-140.221056
 30
0.0
 11
180.680842
 21
-140.221056
 31
0.0
  0
LINE
  5
1923
100
AcDbEntity
  8
MSL2_180_3F-0
100
AcDbLine
 10
176.863342
 20
-154.215503
 30
0.0
 11
173.730842
 21
-154.215503
 31
0.0
  0
LINE
  5
1924
100
AcDbEntity
  8
MSL2_180_3F-0
100
AcDbLine
 10
176.863342
 20
-157.968279
 30
0.0
 11
173.730842
 21
-157.968279
 31
0.0
  0
ARC
  5
1925
100
AcDbEntity
  8
MSL2_180_3F-0
100
AcDbCircle
 10
161.973897
 20
-156.091891
 30
0.0
 40
2.293056
100
AcDbArc
 50
125.085848
 51
234.914152
  0
CIRCLE
  5
1926
100
AcDbEntity
  8
MSL2_180_3F-3
100
AcDbCircle
 10
154.680842
 20
-159.221056
 30
0.0
 40
2.067
  0
LINE
  5
1927
100
AcDbEntity
  8
MSL2_180_3F-7
100
AcDbLine
 10
150.930842
 20
-159.221056
 30
0.0
 11
158.430842
 21
-159.221056
 31
0.0
  0
ARC
  5
1928
100
AcDbEntity
  8
MSL2_180_3F-3
100
AcDbCircle
 10
154.680842
 20
-159.221056
 30
0.0
 40
2.5
100
AcDbArc
 50
255.068583
 51
187.594643
  0
LINE
  5
1929
100
AcDbEntity
  8
MSL2_180_3F-3
100
AcDbLine
 10
148.680842
 20
-162.827673
 30
0.0
 11
146.613842
 21
-164.021056
 31
0.0
  0
LINE
  5
192A
100
AcDbEntity
  8
MSL2_180_3F-3
100
AcDbLine
 10
148.680842
 20
-162.827673
 30
0.0
 11
146.613842
 21
-164.021056
 31
0.0
  0
LINE
  5
192B
100
AcDbEntity
  8
MSL2_180_3F-3
100
AcDbLine
 10
148.680842
 20
-162.827673
 30
0.0
 11
150.747842
 21
-164.021056
 31
0.0
  0
LINE
  5
192C
100
AcDbEntity
  8
MSL2_180_3F-3
100
AcDbLine
 10
148.680842
 20
-162.827673
 30
0.0
 11
150.747842
 21
-164.021056
 31
0.0
  0
LINE
  5
192D
100
AcDbEntity
  8
MSL2_180_3F-3
100
AcDbLine
 10
150.747842
 20
-164.021056
 30
0.0
 11
146.613842
 21
-164.021056
 31
0.0
  0
LINE
  5
192E
100
AcDbEntity
  8
MSL2_180_3F-3
100
AcDbLine
 10
150.747842
 20
-164.021056
 30
0.0
 11
146.613842
 21
-164.021056
 31
0.0
  0
LINE
  5
192F
100
AcDbEntity
  8
MSL2_180_3F-7
100
AcDbLine
 10
154.680842
 20
-155.471056
 30
0.0
 11
154.680842
 21
-162.971056
 31
0.0
  0
ARC
  5
1930
100
AcDbEntity
  8
MSL2_180_3F-0
100
AcDbCircle
 10
161.387786
 20
-156.091891
 30
0.0
 40
2.293056
100
AcDbArc
 50
305.085847
 51
54.914153
  0
LINE
  5
1931
100
AcDbEntity
  8
MSL2_180_3F-0
100
AcDbLine
 10
173.730842
 20
-157.721056
 30
0.0
 11
163.680842
 21
-157.721056
 31
0.0
  0
LINE
  5
1932
100
AcDbEntity
  8
MSL2_180_3F-0
100
AcDbLine
 10
163.650657
 20
-155.721056
 30
0.0
 11
173.730842
 21
-155.721056
 31
0.0
  0
LINE
  5
1933
100
AcDbEntity
  8
MSL2_180_3F-0
100
AcDbLine
 10
160.655842
 20
-157.968279
 30
0.0
 11
162.705842
 21
-157.968279
 31
0.0
  0
LINE
  5
1934
100
AcDbEntity
  8
MSL2_180_3F-0
100
AcDbLine
 10
160.655842
 20
-154.215503
 30
0.0
 11
162.705842
 21
-154.215503
 31
0.0
  0
LINE
  5
1935
100
AcDbEntity
  8
MSL2_180_3F-3
100
AcDbLine
 10
159.680842
 20
-131.221056
 30
0.0
 11
165.680842
 21
-131.221056
 31
0.0
1001
GENIUS_GENBH_13
1002
{
1000
OE
1000
CON1
1002
}
1001
GENIUS_GENOREF_13
1005
1D04
  0
LINE
  5
1936
100
AcDbEntity
  8
MSL2_180_3F-3
100
AcDbLine
 10
165.680842
 20
-137.221056
 30
0.0
 11
159.680842
 21
-137.221056
 31
0.0
1001
GENIUS_GENBH_13
1002
{
1000
OE
1000
CON1
1002
}
1001
GENIUS_GENOREF_13
1005
1D04
  0
LINE
  5
1937
100
AcDbEntity
  8
MSL2_180_3F-3
100
AcDbLine
 10
165.680842
 20
-140.221056
 30
0.0
 11
165.680842
 21
-128.221056
 31
0.0
1001
GENIUS_GENBH_13
1002
{
1000
OE
1000
CON1
1002
}
1001
GENIUS_GENOREF_13
1005
1D04
  0
LINE
  5
1938
100
AcDbEntity
  8
MSL2_180_3F-3
100
AcDbLine
 10
166.680842
 20
-140.221056
 30
0.0
 11
166.680842
 21
-128.221056
 31
0.0
1001
GENIUS_GENBH_13
1002
{
1000
OE
1000
CON1
1002
}
1001
GENIUS_GENOREF_13
1005
1D04
  0
LINE
  5
1939
100
AcDbEntity
  8
MSL2_180_3F-0
100
AcDbLine
 10
166.680842
 20
-143.221056
 30
0.0
 11
165.680842
 21
-142.221056
 31
0.0
  0
LINE
  5
193A
100
AcDbEntity
  8
MSL2_180_3F-0
100
AcDbLine
 10
166.680842
 20
-143.221056
 30
0.0
 11
166.680842
 21
-140.221056
 31
0.0
1001
GENIUS_GENOREF_13
1005
1D04
  0
LINE
  5
193B
100
AcDbEntity
  8
MSL2_180_3F-0
100
AcDbLine
 10
165.680842
 20
-142.221056
 30
0.0
 11
165.680842
 21
-140.221056
 31
0.0
1001
GENIUS_GENOREF_13
1005
1D04
  0
ARC
  5
193C
100
AcDbEntity
  8
MSL2_180_3F-0
100
AcDbCircle
 10
175.118677
 20
-156.091891
 30
0.0
 40
2.562165
100
AcDbArc
 50
312.916662
 51
47.083338
  0
ARC
  5
193D
100
AcDbEntity
  8
MSL2_180_3F-0
100
AcDbCircle
 10
180.789522
 20
-154.35984
 30
0.0
 40
3.108681
100
AcDbArc
 50
127.878144
 51
232.121856
  0
LINE
  5
193E
100
AcDbEntity
  8
MSL2_180_3F-0
100
AcDbLine
 10
178.880842
 20
-156.813579
 30
0.0
 11
180.680842
 21
-156.813579
 31
0.0
  0
LINE
  5
193F
100
AcDbEntity
  8
MSL2_180_3F-0
100
AcDbLine
 10
178.880842
 20
-151.906101
 30
0.0
 11
180.680842
 21
-151.906101
 31
0.0
  0
LINE
  5
1940
100
AcDbEntity
  8
MSL2_180_3F-0
100
AcDbLine
 10
172.680842
 20
-99.721056
 30
0.0
 11
180.680842
 21
-99.721056
 31
0.0
  0
LINE
  5
1941
100
AcDbEntity
  8
MSL2_180_3F-0
100
AcDbLine
 10
180.680842
 20
-113.721056
 30
0.0
 11
172.680842
 21
-113.721056
 31
0.0
  0
LINE
  5
1942
100
AcDbEntity
  8
MSL2_180_3F-0
100
AcDbLine
 10
166.680842
 20
-125.221056
 30
0.0
 11
180.680842
 21
-125.221056
 31
0.0
  0
LINE
  5
1943
100
AcDbEntity
  8
MSL2_180_3F-0
100
AcDbLine
 10
171.680842
 20
-112.721056
 30
0.0
 11
171.680842
 21
-100.721056
 31
0.0
  0
LINE
  5
1944
100
AcDbEntity
  8
MSL2_180_3F-0
100
AcDbLine
 10
172.680842
 20
-113.721056
 30
0.0
 11
172.680842
 21
-99.721056
 31
0.0
  0
LINE
  5
1945
100
AcDbEntity
  8
MSL2_180_3F-0
100
AcDbLine
 10
170.680842
 20
-100.721056
 30
0.0
 11
170.680842
 21
-112.721056
 31
0.0
  0
LINE
  5
1946
100
AcDbEntity
  8
MSL2_180_3F-0
100
AcDbLine
 10
160.680842
 20
-112.721056
 30
0.0
 11
160.680842
 21
-100.721056
 31
0.0
  0
CIRCLE
  5
1947
100
AcDbEntity
  8
MSL2_180_3F-3
100
AcDbCircle
 10
154.680842
 20
-109.221056
 30
0.0
 40
2.067
  0
LINE
  5
1948
100
AcDbEntity
  8
MSL2_180_3F-7
100
AcDbLine
 10
154.680842
 20
-105.471056
 30
0.0
 11
154.680842
 21
-112.971056
 31
0.0
  0
LINE
  5
1949
100
AcDbEntity
  8
MSL2_180_3F-7
100
AcDbLine
 10
148.680842
 20
-108.614439
 30
0.0
 11
148.680842
 21
-90.221056
 31
0.0
  0
LINE
  5
194A
100
AcDbEntity
  8
MSL2_180_3F-7
100
AcDbLine
 10
148.680842
 20
-108.614439
 30
0.0
 11
148.680842
 21
-90.221056
 31
0.0
  0
ARC
  5
194B
100
AcDbEntity
  8
MSL2_180_3F-3
100
AcDbCircle
 10
154.680842
 20
-109.221056
 30
0.0
 40
2.5
100
AcDbArc
 50
255.068583
 51
187.594643
  0
LINE
  5
194C
100
AcDbEntity
  8
MSL2_180_3F-0
100
AcDbLine
 10
160.680842
 20
-112.721056
 30
0.0
 11
159.680842
 21
-111.721056
 31
0.0
  0
LINE
  5
194D
100
AcDbEntity
  8
MSL2_180_3F-7
100
AcDbLine
 10
150.930842
 20
-109.221056
 30
0.0
 11
158.430842
 21
-109.221056
 31
0.0
  0
LINE
  5
194E
100
AcDbEntity
  8
MSL2_180_3F-0
100
AcDbLine
 10
165.680842
 20
-126.221056
 30
0.0
 11
166.680842
 21
-125.221056
 31
0.0
  0
LINE
  5
194F
100
AcDbEntity
  8
MSL2_180_3F-0
100
AcDbLine
 10
170.680842
 20
-112.721056
 30
0.0
 11
160.680842
 21
-112.721056
 31
0.0
  0
LINE
  5
1950
100
AcDbEntity
  8
MSL2_180_3F-0
100
AcDbLine
 10
171.680842
 20
-108.771056
 30
0.0
 11
170.680842
 21
-108.771056
 31
0.0
  0
LINE
  5
1951
100
AcDbEntity
  8
MSL2_180_3F-0
100
AcDbLine
 10
172.680842
 20
-113.721056
 30
0.0
 11
171.680842
 21
-112.721056
 31
0.0
  0
LINE
  5
1952
100
AcDbEntity
  8
MSL2_180_3F-0
100
AcDbLine
 10
159.680842
 20
-101.721056
 30
0.0
 11
160.680842
 21
-100.721056
 31
0.0
  0
LINE
  5
1953
100
AcDbEntity
  8
MSL2_180_3F-3
100
AcDbLine
 10
150.747842
 20
-93.221056
 30
0.0
 11
150.747842
 21
-104.421056
 31
0.0
  0
LINE
  5
1954
100
AcDbEntity
  8
MSL2_180_3F-3
100
AcDbLine
 10
150.747842
 20
-93.221056
 30
0.0
 11
150.747842
 21
-104.421056
 31
0.0
  0
LINE
  5
1955
100
AcDbEntity
  8
MSL2_180_3F-3
100
AcDbLine
 10
151.180842
 20
-93.221056
 30
0.0
 11
151.180842
 21
-101.221056
 31
0.0
  0
LINE
  5
1956
100
AcDbEntity
  8
MSL2_180_3F-3
100
AcDbLine
 10
151.180842
 20
-93.221056
 30
0.0
 11
151.180842
 21
-101.221056
 31
0.0
  0
LINE
  5
1957
100
AcDbEntity
  8
MSL2_180_3F-3
100
AcDbLine
 10
146.613842
 20
-93.221056
 30
0.0
 11
146.613842
 21
-104.421056
 31
0.0
  0
LINE
  5
1958
100
AcDbEntity
  8
MSL2_180_3F-3
100
AcDbLine
 10
146.613842
 20
-93.221056
 30
0.0
 11
146.613842
 21
-104.421056
 31
0.0
  0
LINE
  5
1959
100
AcDbEntity
  8
MSL2_180_3F-3
100
AcDbLine
 10
146.180842
 20
-93.221056
 30
0.0
 11
146.180842
 21
-101.221056
 31
0.0
  0
LINE
  5
195A
100
AcDbEntity
  8
MSL2_180_3F-3
100
AcDbLine
 10
146.180842
 20
-93.221056
 30
0.0
 11
146.180842
 21
-101.221056
 31
0.0
  0
LINE
  5
195B
100
AcDbEntity
  8
MSL2_180_3F-3
100
AcDbLine
 10
148.680842
 20
-105.614439
 30
0.0
 11
146.613842
 21
-104.421056
 31
0.0
  0
LINE
  5
195C
100
AcDbEntity
  8
MSL2_180_3F-3
100
AcDbLine
 10
148.680842
 20
-105.614439
 30
0.0
 11
146.613842
 21
-104.421056
 31
0.0
  0
LINE
  5
195D
100
AcDbEntity
  8
MSL2_180_3F-3
100
AcDbLine
 10
148.680842
 20
-105.614439
 30
0.0
 11
150.747842
 21
-104.421056
 31
0.0
  0
LINE
  5
195E
100
AcDbEntity
  8
MSL2_180_3F-3
100
AcDbLine
 10
148.680842
 20
-105.614439
 30
0.0
 11
150.747842
 21
-104.421056
 31
0.0
  0
LINE
  5
195F
100
AcDbEntity
  8
MSL2_180_3F-3
100
AcDbLine
 10
150.747842
 20
-104.421056
 30
0.0
 11
146.613842
 21
-104.421056
 31
0.0
  0
LINE
  5
1960
100
AcDbEntity
  8
MSL2_180_3F-3
100
AcDbLine
 10
150.747842
 20
-104.421056
 30
0.0
 11
146.613842
 21
-104.421056
 31
0.0
  0
LINE
  5
1961
100
AcDbEntity
  8
MSL2_180_3F-3
100
AcDbLine
 10
151.180842
 20
-101.221056
 30
0.0
 11
146.180842
 21
-101.221056
 31
0.0
  0
LINE
  5
1962
100
AcDbEntity
  8
MSL2_180_3F-3
100
AcDbLine
 10
151.180842
 20
-101.221056
 30
0.0
 11
146.180842
 21
-101.221056
 31
0.0
  0
LINE
  5
1963
100
AcDbEntity
  8
MSL2_180_3F-0
100
AcDbLine
 10
160.680842
 20
-100.721056
 30
0.0
 11
170.680842
 21
-100.721056
 31
0.0
  0
LINE
  5
1964
100
AcDbEntity
  8
MSL2_180_3F-0
100
AcDbLine
 10
171.680842
 20
-104.671056
 30
0.0
 11
170.680842
 21
-104.671056
 31
0.0
  0
LINE
  5
1965
100
AcDbEntity
  8
MSL2_180_3F-0
100
AcDbLine
 10
171.680842
 20
-100.721056
 30
0.0
 11
172.680842
 21
-99.721056
 31
0.0
  0
LINE
  5
1966
100
AcDbEntity
  8
MSL2_180_3F-0
100
AcDbLine
 10
200.880842
 20
-103.053393
 30
0.0
 11
200.880842
 21
-119.906371
 31
0.0
  0
LINE
  5
1967
100
AcDbEntity
  8
MSL2_180_3F-7
100
AcDbLine
 10
190.580842
 20
-104.187659
 30
0.0
 11
190.580842
 21
-117.74074
 31
0.0
1001
GENIUS_GENODEF_13
1002
{
1000
HIER
1070
     0
1002
}
1002
{
1000
MANEDIT
1070
     0
1002
}
1002
{
1000
NOSEL
1070
     0
1002
}
1002
{
1000
BEHIND
1070
     0
1002
}
1002
{
1000
REACTOR
1002
}
1001
GENIUS_GENOBJ-N-CEN_13
1002
{
1000
OWNER
1000
GEN
1002
}
  0
ELLIPSE
  5
1968
100
AcDbEntity
  8
MSL2_180_3F-4
100
AcDbEllipse
 10
190.580842
 20
-110.913699
 30
0.0
 11
4.863999999999975
 21
0.0
 31
0.0
210
0.0
220
0.0
230
1.0
 40
0.766044
 41
-1.637716455833807
 42
3.255308282467414
  0
LINE
  5
1969
100
AcDbEntity
  8
MSL2_180_3F-7
100
AcDbLine
 10
182.716842
 20
-110.913699
 30
0.0
 11
198.444842
 21
-110.913699
 31
0.0
1001
GENIUS_GENODEF_13
1002
{
1000
HIER
1070
     0
1002
}
1002
{
1000
MANEDIT
1070
     0
1002
}
1002
{
1000
NOSEL
1070
     0
1002
}
1002
{
1000
BEHIND
1070
     0
1002
}
1002
{
1000
REACTOR
1002
}
1001
GENIUS_GENOBJ-N-CEN_13
1002
{
1000
OWNER
1000
GEN
1002
}
  0
LINE
  5
196A
100
AcDbEntity
  8
MSL2_180_3F-0
100
AcDbLine
 10
200.880842
 20
-119.906371
 30
0.0
 11
181.180842
 21
-119.906371
 31
0.0
  0
ELLIPSE
  5
196B
100
AcDbEntity
  8
MSL2_180_3F-0
100
AcDbEllipse
 10
190.580842
 20
-110.913699
 30
0.0
 11
4.283225000000015
 21
0.0
 31
0.0
210
0.0
220
0.0
230
1.0
 40
0.766044
 41
0.0
 42
6.2831853071796
  0
LINE
  5
196C
100
AcDbEntity
  8
MSL2_180_3F-0
100
AcDbLine
 10
181.180842
 20
-103.053393
 30
0.0
 11
200.880842
 21
-103.053393
 31
0.0
  0
LINE
  5
196D
100
AcDbEntity
  8
MSL2_180_3F-0
100
AcDbLine
 10
181.180842
 20
-95.221056
 30
0.0
 11
181.180842
 21
-103.053393
 31
0.0
  0
LINE
  5
196E
100
AcDbEntity
  8
MSL2_180_3F-7
100
AcDbLine
 10
209.180842
 20
-164.563729
 30
0.0
 11
209.180842
 21
-178.990217
 31
0.0
1001
GENIUS_GENODEF_13
1002
{
1000
HIER
1070
     0
1002
}
1002
{
1000
MANEDIT
1070
     0
1002
}
1002
{
1000
NOSEL
1070
     0
1002
}
1002
{
1000
BEHIND
1070
     0
1002
}
1002
{
1000
REACTOR
1002
}
1001
GENIUS_GENOBJ-N-CEN_13
1002
{
1000
OWNER
1000
GEN
1002
}
  0
LINE
  5
196F
100
AcDbEntity
  8
MSL2_180_3F-0
100
AcDbLine
 10
238.180842
 20
-178.221056
 30
0.0
 11
230.180842
 21
-178.221056
 31
0.0
  0
LINE
  5
1970
100
AcDbEntity
  8
MSL2_180_3F-0
100
AcDbLine
 10
225.180842
 20
-178.221056
 30
0.0
 11
217.180842
 21
-178.221056
 31
0.0
  0
LINE
  5
1971
100
AcDbEntity
  8
MSL2_180_3F-0
100
AcDbLine
 10
215.680842
 20
-176.721056
 30
0.0
 11
215.680842
 21
-174.221056
 31
0.0
  0
ARC
  5
1972
100
AcDbEntity
  8
MSL2_180_3F-0
100
AcDbCircle
 10
217.180842
 20
-176.721056
 30
0.0
 40
1.5
100
AcDbArc
 50
180.0
 51
269.999999
  0
LINE
  5
1973
100
AcDbEntity
  8
MSL2_180_3F-0
100
AcDbLine
 10
207.180842
 20
-171.776991
 30
0.0
 11
209.180844
 21
-173.062557
 31
0.0
  0
LINE
  5
1974
100
AcDbEntity
  8
MSL2_180_3F-0
100
AcDbLine
 10
209.180844
 20
-173.062557
 30
0.0
 11
211.180842
 21
-171.776979
 31
0.0
  0
ELLIPSE
  5
1975
100
AcDbEntity
  8
MSL2_180_3F-0
100
AcDbEllipse
 10
209.180842
 20
-171.776973
 30
0.0
 11
2.000000000006366
 21
0.0
 31
0.0
210
0.0
220
0.0
230
1.0
 40
0.766044
 41
0.0
 42
6.2831853071796
  0
LINE
  5
1976
100
AcDbEntity
  8
MSL2_180_3F-0
100
AcDbLine
 10
214.680839
 20
-170.041446
 30
0.0
 11
214.680842
 21
-171.776973
 31
0.0
  0
LINE
  5
1977
100
AcDbEntity
  8
MSL2_180_3F-0
100
AcDbLine
 10
226.680842
 20
-174.221056
 30
0.0
 11
226.680842
 21
-176.721056
 31
0.0
  0
LINE
  5
1978
100
AcDbEntity
  8
MSL2_180_3F-0
100
AcDbLine
 10
228.680842
 20
-176.721056
 30
0.0
 11
228.680842
 21
-174.221056
 31
0.0
  0
LINE
  5
1979
100
AcDbEntity
  8
MSL2_180_3F-7
100
AcDbLine
 10
221.180842
 20
-171.522672
 30
0.0
 11
221.180842
 21
-180.21389
 31
0.0
  0
ARC
  5
197A
100
AcDbEntity
  8
MSL2_180_3F-0
100
AcDbCircle
 10
225.180842
 20
-176.721056
 30
0.0
 40
1.5
100
AcDbArc
 50
269.999999
 51
0.000002
  0
ARC
  5
197B
100
AcDbEntity
  8
MSL2_180_3F-0
100
AcDbCircle
 10
230.180842
 20
-176.721056
 30
0.0
 40
1.5
100
AcDbArc
 50
180.0
 51
269.999999
  0
LINE
  5
197C
100
AcDbEntity
  8
MSL2_180_3F-0
100
AcDbLine
 10
239.680842
 20
-174.221056
 30
0.0
 11
239.680842
 21
-176.721056
 31
0.0
  0
LINE
  5
197D
100
AcDbEntity
  8
MSL2_180_3F-7
100
AcDbLine
 10
234.180842
 20
-171.522672
 30
0.0
 11
234.180842
 21
-180.21389
 31
0.0
  0
ARC
  5
197E
100
AcDbEntity
  8
MSL2_180_3F-0
100
AcDbCircle
 10
238.180842
 20
-176.721056
 30
0.0
 40
1.5
100
AcDbArc
 50
269.999999
 51
0.000002
  0
LINE
  5
197F
100
AcDbEntity
  8
MSL2_180_3F-7
100
AcDbLine
 10
240.680842
 20
-122.76929
 30
0.0
 11
240.680842
 21
-145.585862
 31
0.0
  0
LINE
  5
1980
100
AcDbEntity
  8
MSL2_180_3F-7
100
AcDbLine
 10
225.680842
 20
-152.971056
 30
0.0
 11
225.680842
 21
-145.471056
 31
0.0
  0
ARC
  5
1981
100
AcDbEntity
  8
MSL2_180_3F-3
100
AcDbCircle
 10
225.680842
 20
-149.221056
 30
0.0
 40
2.5
100
AcDbArc
 50
172.405357
 51
104.931417
  0
CIRCLE
  5
1982
100
AcDbEntity
  8
MSL2_180_3F-3
100
AcDbCircle
 10
225.680842
 20
-149.221056
 30
0.0
 40
2.067
  0
LINE
  5
1983
100
AcDbEntity
  8
MSL2_180_3F-7
100
AcDbLine
 10
221.930842
 20
-149.221056
 30
0.0
 11
229.430842
 21
-149.221056
 31
0.0
  0
LINE
  5
1984
100
AcDbEntity
  8
MSL2_180_3F-7
100
AcDbLine
 10
255.680842
 20
-152.971056
 30
0.0
 11
255.680842
 21
-145.471056
 31
0.0
  0
LINE
  5
1985
100
AcDbEntity
  8
MSL2_180_3F-7
100
AcDbLine
 10
240.680842
 20
-149.221056
 30
0.0
 11
240.680842
 21
-145.613862
 31
0.0
  0
CIRCLE
  5
1986
100
AcDbEntity
  8
MSL2_180_3F-3
100
AcDbCircle
 10
240.680842
 20
-149.221056
 30
0.0
 40
2.5
  0
LINE
  5
1987
100
AcDbEntity
  8
MSL2_180_3F-7
100
AcDbLine
 10
240.680842
 20
-149.221056
 30
0.0
 11
237.073648
 21
-149.221056
 31
0.0
  0
LINE
  5
1988
100
AcDbEntity
  8
MSL2_180_3F-7
100
AcDbLine
 10
240.680842
 20
-149.221056
 30
0.0
 11
240.680842
 21
-152.82825
 31
0.0
  0
LINE
  5
1989
100
AcDbEntity
  8
MSL2_180_3F-7
100
AcDbLine
 10
240.680842
 20
-149.221056
 30
0.0
 11
244.288036
 21
-149.221056
 31
0.0
  0
ARC
  5
198A
100
AcDbEntity
  8
MSL2_180_3F-3
100
AcDbCircle
 10
255.680842
 20
-149.221056
 30
0.0
 40
2.5
100
AcDbArc
 50
172.405357
 51
104.931417
  0
CIRCLE
  5
198B
100
AcDbEntity
  8
MSL2_180_3F-3
100
AcDbCircle
 10
255.680842
 20
-149.221056
 30
0.0
 40
2.067
  0
LINE
  5
198C
100
AcDbEntity
  8
MSL2_180_3F-7
100
AcDbLine
 10
251.930842
 20
-149.221056
 30
0.0
 11
259.430842
 21
-149.221056
 31
0.0
  0
ARC
  5
198D
100
AcDbEntity
  8
MSL2_180_3F-3
100
AcDbCircle
 10
225.680842
 20
-119.221056
 30
0.0
 40
2.5
100
AcDbArc
 50
172.405357
 51
104.931417
  0
LINE
  5
198E
100
AcDbEntity
  8
MSL2_180_3F-7
100
AcDbLine
 10
225.680842
 20
-122.971056
 30
0.0
 11
225.680842
 21
-115.471056
 31
0.0
  0
CIRCLE
  5
198F
100
AcDbEntity
  8
MSL2_180_3F-3
100
AcDbCircle
 10
225.680842
 20
-119.221056
 30
0.0
 40
2.067
  0
LINE
  5
1990
100
AcDbEntity
  8
MSL2_180_3F-7
100
AcDbLine
 10
221.930842
 20
-119.221056
 30
0.0
 11
229.430842
 21
-119.221056
 31
0.0
  0
CIRCLE
  5
1991
100
AcDbEntity
  8
MSL2_180_3F-3
100
AcDbCircle
 10
240.680842
 20
-119.255273
 30
0.0
 40
2.5
  0
LINE
  5
1992
100
AcDbEntity
  8
MSL2_180_3F-7
100
AcDbLine
 10
240.680842
 20
-119.221056
 30
0.0
 11
240.680842
 21
-115.747562
 31
0.0
  0
LINE
  5
1993
100
AcDbEntity
  8
MSL2_180_3F-7
100
AcDbLine
 10
240.680842
 20
-119.221056
 30
0.0
 11
237.207347
 21
-119.221056
 31
0.0
  0
LINE
  5
1994
100
AcDbEntity
  8
MSL2_180_3F-7
100
AcDbLine
 10
240.680842
 20
-119.221056
 30
0.0
 11
240.680842
 21
-122.69455
 31
0.0
  0
LINE
  5
1995
100
AcDbEntity
  8
MSL2_180_3F-7
100
AcDbLine
 10
240.680842
 20
-119.221056
 30
0.0
 11
244.154336
 21
-119.221056
 31
0.0
  0
ARC
  5
1996
100
AcDbEntity
  8
MSL2_180_3F-3
100
AcDbCircle
 10
255.680842
 20
-119.221056
 30
0.0
 40
2.5
100
AcDbArc
 50
172.405357
 51
104.931417
  0
LINE
  5
1997
100
AcDbEntity
  8
MSL2_180_3F-7
100
AcDbLine
 10
255.680842
 20
-122.971056
 30
0.0
 11
255.680842
 21
-115.471056
 31
0.0
  0
CIRCLE
  5
1998
100
AcDbEntity
  8
MSL2_180_3F-3
100
AcDbCircle
 10
255.680842
 20
-119.221056
 30
0.0
 40
2.067
  0
LINE
  5
1999
100
AcDbEntity
  8
MSL2_180_3F-7
100
AcDbLine
 10
251.930842
 20
-119.221056
 30
0.0
 11
259.430842
 21
-119.221056
 31
0.0
  0
LINE
  5
199A
100
AcDbEntity
  8
MSL2_180_3F-7
100
AcDbLine
 10
300.680842
 20
-122.76929
 30
0.0
 11
300.680842
 21
-145.585862
 31
0.0
  0
LINE
  5
199B
100
AcDbEntity
  8
MSL2_180_3F-7
100
AcDbLine
 10
270.680842
 20
-122.76929
 30
0.0
 11
270.680842
 21
-145.585862
 31
0.0
  0
LINE
  5
199C
100
AcDbEntity
  8
MSL2_180_3F-7
100
AcDbLine
 10
285.680842
 20
-152.971056
 30
0.0
 11
285.680842
 21
-145.471056
 31
0.0
  0
LINE
  5
199D
100
AcDbEntity
  8
MSL2_180_3F-7
100
AcDbLine
 10
270.680842
 20
-149.221056
 30
0.0
 11
270.680842
 21
-145.613862
 31
0.0
  0
LINE
  5
199E
100
AcDbEntity
  8
MSL2_180_3F-7
100
AcDbLine
 10
270.680842
 20
-149.221056
 30
0.0
 11
267.073648
 21
-149.221056
 31
0.0
  0
CIRCLE
  5
199F
100
AcDbEntity
  8
MSL2_180_3F-3
100
AcDbCircle
 10
270.680842
 20
-149.221056
 30
0.0
 40
2.5
  0
LINE
  5
19A0
100
AcDbEntity
  8
MSL2_180_3F-7
100
AcDbLine
 10
270.680842
 20
-149.221056
 30
0.0
 11
270.680842
 21
-152.82825
 31
0.0
  0
LINE
  5
19A1
100
AcDbEntity
  8
MSL2_180_3F-7
100
AcDbLine
 10
270.680842
 20
-149.221056
 30
0.0
 11
274.288036
 21
-149.221056
 31
0.0
  0
CIRCLE
  5
19A2
100
AcDbEntity
  8
MSL2_180_3F-3
100
AcDbCircle
 10
285.680842
 20
-149.221056
 30
0.0
 40
2.067
  0
ARC
  5
19A3
100
AcDbEntity
  8
MSL2_180_3F-3
100
AcDbCircle
 10
285.680842
 20
-149.221056
 30
0.0
 40
2.5
100
AcDbArc
 50
172.405357
 51
104.931417
  0
LINE
  5
19A4
100
AcDbEntity
  8
MSL2_180_3F-7
100
AcDbLine
 10
281.930842
 20
-149.221056
 30
0.0
 11
289.430842
 21
-149.221056
 31
0.0
  0
LINE
  5
19A5
100
AcDbEntity
  8
MSL2_180_3F-7
100
AcDbLine
 10
315.680842
 20
-152.971056
 30
0.0
 11
315.680842
 21
-145.471056
 31
0.0
  0
LINE
  5
19A6
100
AcDbEntity
  8
MSL2_180_3F-7
100
AcDbLine
 10
300.680842
 20
-149.221056
 30
0.0
 11
300.680842
 21
-145.613862
 31
0.0
  0
LINE
  5
19A7
100
AcDbEntity
  8
MSL2_180_3F-7
100
AcDbLine
 10
300.680842
 20
-149.221056
 30
0.0
 11
297.073648
 21
-149.221056
 31
0.0
  0
CIRCLE
  5
19A8
100
AcDbEntity
  8
MSL2_180_3F-3
100
AcDbCircle
 10
300.680842
 20
-149.221056
 30
0.0
 40
2.5
  0
LINE
  5
19A9
100
AcDbEntity
  8
MSL2_180_3F-7
100
AcDbLine
 10
300.680842
 20
-149.221056
 30
0.0
 11
300.680842
 21
-152.82825
 31
0.0
  0
LINE
  5
19AA
100
AcDbEntity
  8
MSL2_180_3F-7
100
AcDbLine
 10
300.680842
 20
-149.221056
 30
0.0
 11
304.288036
 21
-149.221056
 31
0.0
  0
ARC
  5
19AB
100
AcDbEntity
  8
MSL2_180_3F-3
100
AcDbCircle
 10
315.680842
 20
-149.221056
 30
0.0
 40
2.5
100
AcDbArc
 50
172.405357
 51
104.931417
  0
CIRCLE
  5
19AC
100
AcDbEntity
  8
MSL2_180_3F-3
100
AcDbCircle
 10
315.680842
 20
-149.221056
 30
0.0
 40
2.067
  0
LINE
  5
19AD
100
AcDbEntity
  8
MSL2_180_3F-7
100
AcDbLine
 10
311.930842
 20
-149.221056
 30
0.0
 11
319.430842
 21
-149.221056
 31
0.0
  0
CIRCLE
  5
19AE
100
AcDbEntity
  8
MSL2_180_3F-3
100
AcDbCircle
 10
270.680842
 20
-119.255273
 30
0.0
 40
2.5
  0
LINE
  5
19AF
100
AcDbEntity
  8
MSL2_180_3F-7
100
AcDbLine
 10
270.680842
 20
-119.221056
 30
0.0
 11
270.680842
 21
-115.747562
 31
0.0
  0
LINE
  5
19B0
100
AcDbEntity
  8
MSL2_180_3F-7
100
AcDbLine
 10
270.680842
 20
-119.221056
 30
0.0
 11
267.207347
 21
-119.221056
 31
0.0
  0
LINE
  5
19B1
100
AcDbEntity
  8
MSL2_180_3F-7
100
AcDbLine
 10
270.680842
 20
-119.221056
 30
0.0
 11
270.680842
 21
-122.69455
 31
0.0
  0
LINE
  5
19B2
100
AcDbEntity
  8
MSL2_180_3F-7
100
AcDbLine
 10
270.680842
 20
-119.221056
 30
0.0
 11
274.154336
 21
-119.221056
 31
0.0
  0
ARC
  5
19B3
100
AcDbEntity
  8
MSL2_180_3F-3
100
AcDbCircle
 10
285.680842
 20
-119.221056
 30
0.0
 40
2.5
100
AcDbArc
 50
172.405357
 51
104.931417
  0
LINE
  5
19B4
100
AcDbEntity
  8
MSL2_180_3F-7
100
AcDbLine
 10
285.680842
 20
-122.971056
 30
0.0
 11
285.680842
 21
-115.471056
 31
0.0
  0
CIRCLE
  5
19B5
100
AcDbEntity
  8
MSL2_180_3F-3
100
AcDbCircle
 10
285.680842
 20
-119.221056
 30
0.0
 40
2.067
  0
LINE
  5
19B6
100
AcDbEntity
  8
MSL2_180_3F-7
100
AcDbLine
 10
281.930842
 20
-119.221056
 30
0.0
 11
289.430842
 21
-119.221056
 31
0.0
  0
CIRCLE
  5
19B7
100
AcDbEntity
  8
MSL2_180_3F-3
100
AcDbCircle
 10
300.680842
 20
-119.255273
 30
0.0
 40
2.5
  0
LINE
  5
19B8
100
AcDbEntity
  8
MSL2_180_3F-7
100
AcDbLine
 10
300.680842
 20
-119.221056
 30
0.0
 11
300.680842
 21
-115.747562
 31
0.0
  0
LINE
  5
19B9
100
AcDbEntity
  8
MSL2_180_3F-7
100
AcDbLine
 10
300.680842
 20
-119.221056
 30
0.0
 11
297.207347
 21
-119.221056
 31
0.0
  0
LINE
  5
19BA
100
AcDbEntity
  8
MSL2_180_3F-7
100
AcDbLine
 10
300.680842
 20
-119.221056
 30
0.0
 11
300.680842
 21
-122.69455
 31
0.0
  0
LINE
  5
19BB
100
AcDbEntity
  8
MSL2_180_3F-7
100
AcDbLine
 10
300.680842
 20
-119.221056
 30
0.0
 11
304.154336
 21
-119.221056
 31
0.0
  0
ARC
  5
19BC
100
AcDbEntity
  8
MSL2_180_3F-3
100
AcDbCircle
 10
315.680842
 20
-119.221056
 30
0.0
 40
2.5
100
AcDbArc
 50
172.405357
 51
104.931417
  0
LINE
  5
19BD
100
AcDbEntity
  8
MSL2_180_3F-7
100
AcDbLine
 10
315.680842
 20
-122.971056
 30
0.0
 11
315.680842
 21
-115.471056
 31
0.0
  0
LINE
  5
19BE
100
AcDbEntity
  8
MSL2_180_3F-7
100
AcDbLine
 10
311.930842
 20
-119.221056
 30
0.0
 11
319.430842
 21
-119.221056
 31
0.0
  0
CIRCLE
  5
19BF
100
AcDbEntity
  8
MSL2_180_3F-3
100
AcDbCircle
 10
315.680842
 20
-119.221056
 30
0.0
 40
2.067
  0
ELLIPSE
  5
19C0
100
AcDbEntity
  8
MSL2_180_3F-0
100
AcDbEllipse
 10
209.180842
 20
40.452086
 30
0.0
 11
5.5
 21
0.0
 31
0.0
210
0.0
220
0.0
230
1.0
 40
0.642788
 41
3.141592653589793
 42
6.28318530717998
  0
ELLIPSE
  5
19C1
100
AcDbEntity
  8
MSL2_180_3F-0
100
AcDbEllipse
 10
209.180842
 20
41.984175
 30
0.0
 11
5.5
 21
0.0
 31
0.0
210
0.0
220
0.0
230
1.0
 40
0.642788
 41
0.0
 42
6.2831853071796
  0
LINE
  5
19C2
100
AcDbEntity
  8
MSL2_180_3F-7
100
AcDbLine
 10
217.580842
 20
39.686042
 30
0.0
 11
200.780842
 21
39.686042
 31
0.0
1001
GENIUS_GENODEF_13
1002
{
1000
HIER
1070
     0
1002
}
1002
{
1000
MANEDIT
1070
     0
1002
}
1002
{
1000
NOSEL
1070
     0
1002
}
1002
{
1000
BEHIND
1070
     0
1002
}
1002
{
1000
REACTOR
1002
}
1001
GENIUS_GENOBJ-N-CEN_13
1002
{
1000
OWNER
1000
GEN
1002
}
  0
LINE
  5
19C3
100
AcDbEntity
  8
MSL2_180_3F-4
100
AcDbLine
 10
206.920815
 20
37.229016
 30
0.0
 11
181.180842
 21
37.229016
 31
0.0
  0
LINE
  5
19C4
100
AcDbEntity
  8
MSL2_180_3F-0
100
AcDbLine
 10
181.180842
 20
20.0
 30
0.0
 11
204.180842
 21
20.0
 31
0.0
  0
LINE
  5
19C5
100
AcDbEntity
  8
MSL2_180_3F-4
100
AcDbLine
 10
181.180842
 20
22.0
 30
0.0
 11
204.180842
 21
22.0
 31
0.0
  0
MTEXT
  5
19C6
100
AcDbEntity
  8
MSL2_180_3F-6
100
AcDbMText
 10
181.553809
 20
-15.489504
 30
0.0
 40
3.5
 41
21.059228
 71
     1
 72
     1
  1
{MSL2-180-3F}
  0
LINE
  5
19C7
100
AcDbEntity
  8
MSL2_180_3F-3
100
AcDbLine
 10
152.613842
 20
-21.0
 30
0.0
 11
152.613842
 21
-9.8
 31
0.0
  0
LINE
  5
19C8
100
AcDbEntity
  8
MSL2_180_3F-3
100
AcDbLine
 10
152.613842
 20
-21.0
 30
0.0
 11
152.613842
 21
-9.8
 31
0.0
  0
LINE
  5
19C9
100
AcDbEntity
  8
MSL2_180_3F-3
100
AcDbLine
 10
156.747842
 20
-21.0
 30
0.0
 11
156.747842
 21
-9.8
 31
0.0
  0
LINE
  5
19CA
100
AcDbEntity
  8
MSL2_180_3F-3
100
AcDbLine
 10
156.747842
 20
-21.0
 30
0.0
 11
156.747842
 21
-9.8
 31
0.0
  0
LINE
  5
19CB
100
AcDbEntity
  8
MSL2_180_3F-0
100
AcDbLine
 10
180.680842
 20
64.0
 30
0.0
 11
180.680842
 21
-20.0
 31
0.0
  0
LINE
  5
19CC
100
AcDbEntity
  8
MSL2_180_3F-0
100
AcDbLine
 10
143.680842
 20
64.0
 30
0.0
 11
143.680842
 21
-21.0
 31
0.0
  0
LINE
  5
19CD
100
AcDbEntity
  8
MSL2_180_3F-0
100
AcDbLine
 10
159.680842
 20
-21.0
 30
0.0
 11
159.680842
 21
64.0
 31
0.0
  0
LINE
  5
19CE
100
AcDbEntity
  8
MSL2_180_3F-7
100
AcDbLine
 10
154.680842
 20
-5.606617
 30
0.0
 11
154.680842
 21
-24.0
 31
0.0
  0
LINE
  5
19CF
100
AcDbEntity
  8
MSL2_180_3F-7
100
AcDbLine
 10
154.680842
 20
-5.606617
 30
0.0
 11
154.680842
 21
-24.0
 31
0.0
  0
LINE
  5
19D0
100
AcDbEntity
  8
MSL2_180_3F-7
100
AcDbLine
 10
144.930842
 20
-15.0
 30
0.0
 11
152.430842
 21
-15.0
 31
0.0
  0
LINE
  5
19D1
100
AcDbEntity
  8
MSL2_180_3F-7
100
AcDbLine
 10
140.680842
 20
-15.0
 30
0.0
 11
162.268808
 21
-15.0
 31
0.0
  0
LINE
  5
19D2
100
AcDbEntity
  8
MSL2_180_3F-0
100
AcDbLine
 10
143.680842
 20
-21.0
 30
0.0
 11
159.680842
 21
-21.0
 31
0.0
  0
LINE
  5
19D3
100
AcDbEntity
  8
MSL2_180_3F-3
100
AcDbLine
 10
157.180842
 20
-21.0
 30
0.0
 11
157.180842
 21
-13.0
 31
0.0
  0
LINE
  5
19D4
100
AcDbEntity
  8
MSL2_180_3F-3
100
AcDbLine
 10
157.180842
 20
-21.0
 30
0.0
 11
157.180842
 21
-13.0
 31
0.0
  0
LINE
  5
19D5
100
AcDbEntity
  8
MSL2_180_3F-3
100
AcDbLine
 10
152.180842
 20
-21.0
 30
0.0
 11
152.180842
 21
-13.0
 31
0.0
  0
LINE
  5
19D6
100
AcDbEntity
  8
MSL2_180_3F-3
100
AcDbLine
 10
152.180842
 20
-21.0
 30
0.0
 11
152.180842
 21
-13.0
 31
0.0
  0
LINE
  5
19D7
100
AcDbEntity
  8
MSL2_180_3F-3
100
AcDbLine
 10
157.180842
 20
-13.0
 30
0.0
 11
152.180842
 21
-13.0
 31
0.0
  0
LINE
  5
19D8
100
AcDbEntity
  8
MSL2_180_3F-3
100
AcDbLine
 10
157.180842
 20
-13.0
 30
0.0
 11
152.180842
 21
-13.0
 31
0.0
  0
LINE
  5
19D9
100
AcDbEntity
  8
MSL2_180_3F-7
100
AcDbLine
 10
148.680842
 20
-18.75
 30
0.0
 11
148.680842
 21
-11.25
 31
0.0
  0
ARC
  5
19DA
100
AcDbEntity
  8
MSL2_180_3F-4
100
AcDbCircle
 10
148.680842
 20
-15.0
 30
0.0
 40
2.5
100
AcDbArc
 50
172.405357
 51
104.931417
  0
CIRCLE
  5
19DB
100
AcDbEntity
  8
MSL2_180_3F-0
100
AcDbCircle
 10
148.680842
 20
-15.0
 30
0.0
 40
2.067
  0
LINE
  5
19DC
100
AcDbEntity
  8
MSL2_180_3F-0
100
AcDbLine
 10
143.680842
 20
34.9
 30
0.0
 11
159.680842
 21
34.9
 31
0.0
  0
LINE
  5
19DD
100
AcDbEntity
  8
MSL2_180_3F-0
100
AcDbLine
 10
159.680842
 20
64.0
 30
0.0
 11
143.680842
 21
64.0
 31
0.0
  0
LINE
  5
19DE
100
AcDbEntity
  8
MSL2_180_3F-7
100
AcDbLine
 10
186.244409
 20
50.0
 30
0.0
 11
140.456342
 21
50.0
 31
0.0
  0
LINE
  5
19DF
100
AcDbEntity
  8
MSL2_180_3F-7
100
AcDbLine
 10
144.930842
 20
15.0
 30
0.0
 11
152.430842
 21
15.0
 31
0.0
  0
LINE
  5
19E0
100
AcDbEntity
  8
MSL2_180_3F-7
100
AcDbLine
 10
140.680842
 20
15.0
 30
0.0
 11
162.268808
 21
15.0
 31
0.0
  0
LINE
  5
19E1
100
AcDbEntity
  8
MSL2_180_3F-7
100
AcDbLine
 10
186.244409
 20
0.0
 30
0.0
 11
140.456342
 21
0.0
 31
0.0
  0
LINE
  5
19E2
100
AcDbEntity
  8
MSL2_180_3F-0
100
AcDbLine
 10
181.180842
 20
65.0
 30
0.0
 11
181.180842
 21
20.0
 31
0.0
  0
ARC
  5
19E3
100
AcDbEntity
  8
MSL2_180_3F-0
100
AcDbCircle
 10
167.390564
 20
30.0
 30
0.0
 40
7.709722
100
AcDbArc
 50
150.872218
 51
209.127782
  0
ARC
  5
19E4
100
AcDbEntity
  8
MSL2_180_3F-0
100
AcDbCircle
 10
155.971119
 20
30.0
 30
0.0
 40
7.709722
100
AcDbArc
 50
330.872216
 51
29.127784
  0
LINE
  5
19E5
100
AcDbEntity
  8
MSL2_180_3F-0
100
AcDbLine
 10
159.680842
 20
24.370834
 30
0.0
 11
159.680842
 21
35.629165
 31
0.0
  0
LINE
  5
19E6
100
AcDbEntity
  8
MSL2_180_3F-0
100
AcDbLine
 10
163.680842
 20
24.370834
 30
0.0
 11
163.680842
 21
35.629165
 31
0.0
  0
ARC
  5
19E7
100
AcDbEntity
  8
MSL2_180_3F-0
100
AcDbCircle
 10
168.658432
 20
30.0
 30
0.0
 40
9.02241
100
AcDbArc
 50
335.421502
 51
24.578498
  0
LINE
  5
19E8
100
AcDbEntity
  8
MSL2_180_3F-0
100
AcDbLine
 10
173.730842
 20
26.0
 30
0.0
 11
173.730842
 21
34.0
 31
0.0
  0
LINE
  5
19E9
100
AcDbEntity
  8
MSL2_180_3F-0
100
AcDbLine
 10
177.680842
 20
24.370834
 30
0.0
 11
177.680842
 21
35.629165
 31
0.0
  0
LINE
  5
19EA
100
AcDbEntity
  8
MSL2_180_3F-0
100
AcDbLine
 10
173.730842
 20
22.494446
 30
0.0
 11
173.730842
 21
37.505553
 31
0.0
  0
LINE
  5
19EB
100
AcDbEntity
  8
MSL2_180_3F-0
100
AcDbLine
 10
177.680842
 20
37.361215
 30
0.0
 11
177.680842
 21
22.638784
 31
0.0
  0
LINE
  5
19EC
100
AcDbEntity
  8
MSL2_180_3F-0
100
AcDbLine
 10
177.680842
 20
37.361215
 30
0.0
 11
177.680842
 21
22.638784
 31
0.0
  0
ARC
  5
19ED
100
AcDbEntity
  8
MSL2_180_3F-0
100
AcDbCircle
 10
188.315564
 20
30.0
 30
0.0
 40
10.634722
100
AcDbArc
 50
152.518773
 51
207.481227
  0
ARC
  5
19EE
100
AcDbEntity
  8
MSL2_180_3F-0
100
AcDbCircle
 10
188.315564
 20
30.0
 30
0.0
 40
10.634722
100
AcDbArc
 50
152.518773
 51
207.481227
  0
LINE
  5
19EF
100
AcDbEntity
  8
MSL2_180_3F-0
100
AcDbLine
 10
176.863342
 20
22.494446
 30
0.0
 11
173.730842
 21
22.494446
 31
0.0
  0
LINE
  5
19F0
100
AcDbEntity
  8
MSL2_180_3F-0
100
AcDbLine
 10
176.863342
 20
26.247223
 30
0.0
 11
173.730842
 21
26.247223
 31
0.0
  0
LINE
  5
19F1
100
AcDbEntity
  8
MSL2_180_3F-0
100
AcDbLine
 10
180.680842
 20
-9.0
 30
0.0
 11
166.680842
 21
-9.0
 31
0.0
  0
LINE
  5
19F2
100
AcDbEntity
  8
MSL2_180_3F-0
100
AcDbLine
 10
180.680842
 20
6.0
 30
0.0
 11
159.680842
 21
6.0
 31
0.0
  0
LINE
  5
19F3
100
AcDbEntity
  8
MSL2_180_3F-0
100
AcDbLine
 10
159.680842
 20
-6.0
 30
0.0
 11
180.680842
 21
-6.0
 31
0.0
  0
LINE
  5
19F4
100
AcDbEntity
  8
MSL2_180_3F-0
100
AcDbLine
 10
166.680842
 20
9.0
 30
0.0
 11
180.680842
 21
9.0
 31
0.0
  0
LINE
  5
19F5
100
AcDbEntity
  8
MSL2_180_3F-0
100
AcDbLine
 10
165.680842
 20
8.0
 30
0.0
 11
166.680842
 21
9.0
 31
0.0
  0
LINE
  5
19F6
100
AcDbEntity
  8
MSL2_180_3F-0
100
AcDbLine
 10
166.680842
 20
9.0
 30
0.0
 11
166.680842
 21
6.0
 31
0.0
  0
LINE
  5
19F7
100
AcDbEntity
  8
MSL2_180_3F-3
100
AcDbLine
 10
156.747842
 20
-9.8
 30
0.0
 11
152.613842
 21
-9.8
 31
0.0
  0
LINE
  5
19F8
100
AcDbEntity
  8
MSL2_180_3F-3
100
AcDbLine
 10
156.747842
 20
-9.8
 30
0.0
 11
152.613842
 21
-9.8
 31
0.0
  0
LINE
  5
19F9
100
AcDbEntity
  8
MSL2_180_3F-3
100
AcDbLine
 10
154.680842
 20
-8.606617
 30
0.0
 11
152.613842
 21
-9.8
 31
0.0
  0
LINE
  5
19FA
100
AcDbEntity
  8
MSL2_180_3F-3
100
AcDbLine
 10
154.680842
 20
-8.606617
 30
0.0
 11
152.613842
 21
-9.8
 31
0.0
  0
LINE
  5
19FB
100
AcDbEntity
  8
MSL2_180_3F-3
100
AcDbLine
 10
154.680842
 20
-8.606617
 30
0.0
 11
156.747842
 21
-9.8
 31
0.0
  0
LINE
  5
19FC
100
AcDbEntity
  8
MSL2_180_3F-3
100
AcDbLine
 10
154.680842
 20
-8.606617
 30
0.0
 11
156.747842
 21
-9.8
 31
0.0
  0
LINE
  5
19FD
100
AcDbEntity
  8
MSL2_180_3F-0
100
AcDbLine
 10
165.680842
 20
-8.0
 30
0.0
 11
165.680842
 21
-6.0
 31
0.0
  0
LINE
  5
19FE
100
AcDbEntity
  8
MSL2_180_3F-0
100
AcDbLine
 10
166.680842
 20
-6.0
 30
0.0
 11
166.680842
 21
-9.0
 31
0.0
  0
LINE
  5
19FF
100
AcDbEntity
  8
MSL2_180_3F-0
100
AcDbLine
 10
166.680842
 20
-9.0
 30
0.0
 11
165.680842
 21
-8.0
 31
0.0
  0
LINE
  5
1A00
100
AcDbEntity
  8
MSL2_180_3F-0
100
AcDbLine
 10
165.680842
 20
6.0
 30
0.0
 11
165.680842
 21
8.0
 31
0.0
  0
ARC
  5
1A01
100
AcDbEntity
  8
MSL2_180_3F-0
100
AcDbCircle
 10
161.973897
 20
24.370834
 30
0.0
 40
2.293056
100
AcDbArc
 50
125.085848
 51
234.914152
  0
LINE
  5
1A02
100
AcDbEntity
  8
MSL2_180_3F-7
100
AcDbLine
 10
148.680842
 20
11.25
 30
0.0
 11
148.680842
 21
18.75
 31
0.0
  0
ARC
  5
1A03
100
AcDbEntity
  8
MSL2_180_3F-4
100
AcDbCircle
 10
148.680842
 20
15.0
 30
0.0
 40
2.5
100
AcDbArc
 50
172.405357
 51
104.931417
  0
CIRCLE
  5
1A04
100
AcDbEntity
  8
MSL2_180_3F-0
100
AcDbCircle
 10
148.680842
 20
15.0
 30
0.0
 40
2.067
  0
LINE
  5
1A05
100
AcDbEntity
  8
MSL2_180_3F-0
100
AcDbLine
 10
173.730842
 20
26.0
 30
0.0
 11
163.680842
 21
26.0
 31
0.0
  0
LINE
  5
1A06
100
AcDbEntity
  8
MSL2_180_3F-0
100
AcDbLine
 10
160.655842
 20
22.494446
 30
0.0
 11
162.705842
 21
22.494446
 31
0.0
  0
LINE
  5
1A07
100
AcDbEntity
  8
MSL2_180_3F-0
100
AcDbLine
 10
160.655842
 20
26.247223
 30
0.0
 11
162.705842
 21
26.247223
 31
0.0
  0
ARC
  5
1A08
100
AcDbEntity
  8
MSL2_180_3F-0
100
AcDbCircle
 10
161.387786
 20
24.370834
 30
0.0
 40
2.293056
100
AcDbArc
 50
305.085847
 51
54.914153
  0
ARC
  5
1A09
100
AcDbEntity
  8
MSL2_180_3F-0
100
AcDbCircle
 10
175.118677
 20
24.370834
 30
0.0
 40
2.562165
100
AcDbArc
 50
312.916662
 51
47.083338
  0
ARC
  5
1A0A
100
AcDbEntity
  8
MSL2_180_3F-0
100
AcDbCircle
 10
180.789522
 20
22.638784
 30
0.0
 40
3.108681
100
AcDbArc
 50
127.878144
 51
232.121856
  0
ARC
  5
1A0B
100
AcDbEntity
  8
MSL2_180_3F-0
100
AcDbCircle
 10
180.789522
 20
22.638784
 30
0.0
 40
3.108681
100
AcDbArc
 50
127.878144
 51
232.121856
  0
LINE
  5
1A0C
100
AcDbEntity
  8
MSL2_180_3F-0
100
AcDbLine
 10
178.880842
 20
25.092522
 30
0.0
 11
180.680842
 21
25.092522
 31
0.0
  0
LINE
  5
1A0D
100
AcDbEntity
  8
MSL2_180_3F-0
100
AcDbLine
 10
178.880842
 20
25.092522
 30
0.0
 11
180.680842
 21
25.092522
 31
0.0
  0
LINE
  5
1A0E
100
AcDbEntity
  8
MSL2_180_3F-0
100
AcDbLine
 10
178.880842
 20
20.185045
 30
0.0
 11
180.680842
 21
20.185045
 31
0.0
  0
LINE
  5
1A0F
100
AcDbEntity
  8
MSL2_180_3F-0
100
AcDbLine
 10
180.680842
 20
56.0
 30
0.0
 11
159.680842
 21
56.0
 31
0.0
  0
LINE
  5
1A10
100
AcDbEntity
  8
MSL2_180_3F-0
100
AcDbLine
 10
176.863342
 20
33.752776
 30
0.0
 11
173.730842
 21
33.752776
 31
0.0
  0
LINE
  5
1A11
100
AcDbEntity
  8
MSL2_180_3F-0
100
AcDbLine
 10
173.730842
 20
37.505553
 30
0.0
 11
176.863342
 21
37.505553
 31
0.0
  0
LINE
  5
1A12
100
AcDbEntity
  8
MSL2_180_3F-0
100
AcDbLine
 10
159.680842
 20
44.0
 30
0.0
 11
180.680842
 21
44.0
 31
0.0
  0
LINE
  5
1A13
100
AcDbEntity
  8
MSL2_180_3F-7
100
AcDbLine
 10
154.582795
 20
30.0
 30
0.0
 11
184.351892
 21
30.0
 31
0.0
  0
ARC
  5
1A14
100
AcDbEntity
  8
MSL2_180_3F-0
100
AcDbCircle
 10
161.973897
 20
35.629165
 30
0.0
 40
2.293056
100
AcDbArc
 50
125.085848
 51
234.914152
  0
ARC
  5
1A15
100
AcDbEntity
  8
MSL2_180_3F-0
100
AcDbCircle
 10
161.387786
 20
35.629165
 30
0.0
 40
2.293056
100
AcDbArc
 50
305.085847
 51
54.914153
  0
LINE
  5
1A16
100
AcDbEntity
  8
MSL2_180_3F-0
100
AcDbLine
 10
163.680842
 20
34.0
 30
0.0
 11
173.730842
 21
34.0
 31
0.0
  0
LINE
  5
1A17
100
AcDbEntity
  8
MSL2_180_3F-0
100
AcDbLine
 10
160.655842
 20
33.752776
 30
0.0
 11
162.705842
 21
33.752776
 31
0.0
  0
LINE
  5
1A18
100
AcDbEntity
  8
MSL2_180_3F-0
100
AcDbLine
 10
160.655842
 20
37.505553
 30
0.0
 11
162.705842
 21
37.505553
 31
0.0
  0
LINE
  5
1A19
100
AcDbEntity
  8
MSL2_180_3F-3
100
AcDbLine
 10
200.880842
 20
58.335707
 30
0.0
 11
200.880842
 21
44.194379
 31
0.0
  0
LINE
  5
1A1A
100
AcDbEntity
  8
MSL2_180_3F-7
100
AcDbLine
 10
190.580842
 20
45.202803
 30
0.0
 11
190.580842
 21
57.455841
 31
0.0
1001
GENIUS_GENODEF_13
1002
{
1000
HIER
1070
     0
1002
}
1002
{
1000
MANEDIT
1070
     0
1002
}
1002
{
1000
NOSEL
1070
     0
1002
}
1002
{
1000
BEHIND
1070
     0
1002
}
1002
{
1000
REACTOR
1002
}
1001
GENIUS_GENOBJ-N-CEN_13
1002
{
1000
OWNER
1000
GEN
1002
}
  0
LINE
  5
1A1B
100
AcDbEntity
  8
MSL2_180_3F-3
100
AcDbLine
 10
200.880842
 20
44.194379
 30
0.0
 11
181.180842
 21
44.194379
 31
0.0
  0
ARC
  5
1A1C
100
AcDbEntity
  8
MSL2_180_3F-0
100
AcDbCircle
 10
175.118677
 20
35.629165
 30
0.0
 40
2.562165
100
AcDbArc
 50
312.916662
 51
47.083338
  0
ARC
  5
1A1D
100
AcDbEntity
  8
MSL2_180_3F-0
100
AcDbCircle
 10
180.789522
 20
37.361215
 30
0.0
 40
3.108681
100
AcDbArc
 50
127.878144
 51
232.121856
  0
ARC
  5
1A1E
100
AcDbEntity
  8
MSL2_180_3F-0
100
AcDbCircle
 10
180.789522
 20
37.361215
 30
0.0
 40
3.108681
100
AcDbArc
 50
127.878144
 51
232.121856
  0
LINE
  5
1A1F
100
AcDbEntity
  8
MSL2_180_3F-0
100
AcDbLine
 10
178.880842
 20
34.907477
 30
0.0
 11
180.680842
 21
34.907477
 31
0.0
  0
LINE
  5
1A20
100
AcDbEntity
  8
MSL2_180_3F-0
100
AcDbLine
 10
178.880842
 20
34.907477
 30
0.0
 11
180.680842
 21
34.907477
 31
0.0
  0
LINE
  5
1A21
100
AcDbEntity
  8
MSL2_180_3F-0
100
AcDbLine
 10
178.880842
 20
39.814954
 30
0.0
 11
180.680842
 21
39.814954
 31
0.0
  0
LINE
  5
1A22
100
AcDbEntity
  8
MSL2_180_3F-0
100
AcDbLine
 10
178.880842
 20
39.814954
 30
0.0
 11
180.680842
 21
39.814954
 31
0.0
  0
LINE
  5
1A23
100
AcDbEntity
  8
MSL2_180_3F-0
100
AcDbLine
 10
203.680842
 20
40.452086
 30
0.0
 11
203.680842
 21
41.984175
 31
0.0
  0
LINE
  5
1A24
100
AcDbEntity
  8
MSL2_180_3F-7
100
AcDbLine
 10
182.716842
 20
51.329322
 30
0.0
 11
198.444842
 21
51.329322
 31
0.0
1001
GENIUS_GENODEF_13
1002
{
1000
HIER
1070
     0
1002
}
1002
{
1000
MANEDIT
1070
     0
1002
}
1002
{
1000
NOSEL
1070
     0
1002
}
1002
{
1000
BEHIND
1070
     0
1002
}
1002
{
1000
REACTOR
1002
}
1001
GENIUS_GENOBJ-N-CEN_13
1002
{
1000
OWNER
1000
GEN
1002
}
  0
LINE
  5
1A25
100
AcDbEntity
  8
MSL2_180_3F-3
100
AcDbLine
 10
181.180842
 20
58.335707
 30
0.0
 11
200.880842
 21
58.335707
 31
0.0
  0
ELLIPSE
  5
1A26
100
AcDbEntity
  8
MSL2_180_3F-3
100
AcDbEllipse
 10
190.580842
 20
51.329322
 30
0.0
 11
4.863999999999919
 21
0.0
 31
0.0
210
0.0
220
0.0
230
1.0
 40
0.642788
 41
-1.626973784062189
 42
3.276869584236015
  0
ELLIPSE
  5
1A27
100
AcDbEntity
  8
MSL2_180_3F-3
100
AcDbEllipse
 10
190.580842
 20
51.329322
 30
0.0
 11
4.283225000000015
 21
0.0
 31
0.0
210
0.0
220
0.0
230
1.0
 40
0.642788
 41
0.0
 42
6.2831853071796
  0
LINE
  5
1A28
100
AcDbEntity
  8
MSL2_180_3F-0
100
AcDbLine
 10
180.680842
 20
64.0
 30
0.0
 11
181.180842
 21
64.0
 31
0.0
  0
LINE
  5
1A29
100
AcDbEntity
  8
MSL2_180_3F-7
100
AcDbLine
 10
300.680842
 20
11.451766
 30
0.0
 11
300.680842
 21
-11.364806
 31
0.0
  0
LINE
  5
1A2A
100
AcDbEntity
  8
MSL2_180_3F-7
100
AcDbLine
 10
240.680842
 20
11.451766
 30
0.0
 11
240.680842
 21
-11.364806
 31
0.0
  0
LINE
  5
1A2B
100
AcDbEntity
  8
MSL2_180_3F-7
100
AcDbLine
 10
270.680842
 20
11.451766
 30
0.0
 11
270.680842
 21
-11.364806
 31
0.0
  0
ARC
  5
1A2C
100
AcDbEntity
  8
MSL2_180_3F-4
100
AcDbCircle
 10
225.680842
 20
-15.0
 30
0.0
 40
2.5
100
AcDbArc
 50
172.405357
 51
104.931417
  0
CIRCLE
  5
1A2D
100
AcDbEntity
  8
MSL2_180_3F-0
100
AcDbCircle
 10
225.680842
 20
-15.0
 30
0.0
 40
2.067
  0
LINE
  5
1A2E
100
AcDbEntity
  8
MSL2_180_3F-7
100
AcDbLine
 10
221.930842
 20
-15.0
 30
0.0
 11
229.430842
 21
-15.0
 31
0.0
  0
LINE
  5
1A2F
100
AcDbEntity
  8
MSL2_180_3F-7
100
AcDbLine
 10
225.680842
 20
-18.75
 30
0.0
 11
225.680842
 21
-11.25
 31
0.0
  0
CIRCLE
  5
1A30
100
AcDbEntity
  8
MSL2_180_3F-0
100
AcDbCircle
 10
240.680842
 20
-15.0
 30
0.0
 40
2.5
  0
LINE
  5
1A31
100
AcDbEntity
  8
MSL2_180_3F-7
100
AcDbLine
 10
240.680842
 20
-15.0
 30
0.0
 11
237.073648
 21
-15.0
 31
0.0
  0
LINE
  5
1A32
100
AcDbEntity
  8
MSL2_180_3F-7
100
AcDbLine
 10
240.680842
 20
-15.0
 30
0.0
 11
240.680842
 21
-11.392806
 31
0.0
  0
LINE
  5
1A33
100
AcDbEntity
  8
MSL2_180_3F-7
100
AcDbLine
 10
240.680842
 20
-15.0
 30
0.0
 11
240.680842
 21
-18.607194
 31
0.0
  0
LINE
  5
1A34
100
AcDbEntity
  8
MSL2_180_3F-7
100
AcDbLine
 10
240.680842
 20
-15.0
 30
0.0
 11
244.288036
 21
-15.0
 31
0.0
  0
CIRCLE
  5
1A35
100
AcDbEntity
  8
MSL2_180_3F-0
100
AcDbCircle
 10
255.680842
 20
-15.0
 30
0.0
 40
2.067
  0
ARC
  5
1A36
100
AcDbEntity
  8
MSL2_180_3F-4
100
AcDbCircle
 10
255.680842
 20
-15.0
 30
0.0
 40
2.5
100
AcDbArc
 50
172.405357
 51
104.931417
  0
LINE
  5
1A37
100
AcDbEntity
  8
MSL2_180_3F-7
100
AcDbLine
 10
251.930842
 20
-15.0
 30
0.0
 11
259.430842
 21
-15.0
 31
0.0
  0
LINE
  5
1A38
100
AcDbEntity
  8
MSL2_180_3F-7
100
AcDbLine
 10
255.680842
 20
-18.75
 30
0.0
 11
255.680842
 21
-11.25
 31
0.0
  0
LINE
  5
1A39
100
AcDbEntity
  8
MSL2_180_3F-7
100
AcDbLine
 10
270.680842
 20
-15.0
 30
0.0
 11
267.073648
 21
-15.0
 31
0.0
  0
CIRCLE
  5
1A3A
100
AcDbEntity
  8
MSL2_180_3F-0
100
AcDbCircle
 10
270.680842
 20
-15.0
 30
0.0
 40
2.5
  0
LINE
  5
1A3B
100
AcDbEntity
  8
MSL2_180_3F-7
100
AcDbLine
 10
270.680842
 20
-15.0
 30
0.0
 11
270.680842
 21
-11.392806
 31
0.0
  0
LINE
  5
1A3C
100
AcDbEntity
  8
MSL2_180_3F-7
100
AcDbLine
 10
270.680842
 20
-15.0
 30
0.0
 11
270.680842
 21
-18.607194
 31
0.0
  0
LINE
  5
1A3D
100
AcDbEntity
  8
MSL2_180_3F-7
100
AcDbLine
 10
270.680842
 20
-15.0
 30
0.0
 11
274.288036
 21
-15.0
 31
0.0
  0
CIRCLE
  5
1A3E
100
AcDbEntity
  8
MSL2_180_3F-0
100
AcDbCircle
 10
285.680842
 20
-15.0
 30
0.0
 40
2.067
  0
ARC
  5
1A3F
100
AcDbEntity
  8
MSL2_180_3F-4
100
AcDbCircle
 10
285.680842
 20
-15.0
 30
0.0
 40
2.5
100
AcDbArc
 50
172.405357
 51
104.931417
  0
LINE
  5
1A40
100
AcDbEntity
  8
MSL2_180_3F-7
100
AcDbLine
 10
281.930842
 20
-15.0
 30
0.0
 11
289.430842
 21
-15.0
 31
0.0
  0
LINE
  5
1A41
100
AcDbEntity
  8
MSL2_180_3F-7
100
AcDbLine
 10
285.680842
 20
-18.75
 30
0.0
 11
285.680842
 21
-11.25
 31
0.0
  0
LINE
  5
1A42
100
AcDbEntity
  8
MSL2_180_3F-7
100
AcDbLine
 10
300.680842
 20
-15.0
 30
0.0
 11
297.073648
 21
-15.0
 31
0.0
  0
CIRCLE
  5
1A43
100
AcDbEntity
  8
MSL2_180_3F-0
100
AcDbCircle
 10
300.680842
 20
-15.0
 30
0.0
 40
2.5
  0
LINE
  5
1A44
100
AcDbEntity
  8
MSL2_180_3F-7
100
AcDbLine
 10
300.680842
 20
-15.0
 30
0.0
 11
300.680842
 21
-11.392806
 31
0.0
  0
LINE
  5
1A45
100
AcDbEntity
  8
MSL2_180_3F-7
100
AcDbLine
 10
300.680842
 20
-15.0
 30
0.0
 11
300.680842
 21
-18.607194
 31
0.0
  0
LINE
  5
1A46
100
AcDbEntity
  8
MSL2_180_3F-7
100
AcDbLine
 10
300.680842
 20
-15.0
 30
0.0
 11
304.288036
 21
-15.0
 31
0.0
  0
ARC
  5
1A47
100
AcDbEntity
  8
MSL2_180_3F-4
100
AcDbCircle
 10
315.680842
 20
-15.0
 30
0.0
 40
2.5
100
AcDbArc
 50
172.405357
 51
104.931417
  0
CIRCLE
  5
1A48
100
AcDbEntity
  8
MSL2_180_3F-0
100
AcDbCircle
 10
315.680842
 20
-15.0
 30
0.0
 40
2.067
  0
LINE
  5
1A49
100
AcDbEntity
  8
MSL2_180_3F-7
100
AcDbLine
 10
311.930842
 20
-15.0
 30
0.0
 11
319.430842
 21
-15.0
 31
0.0
  0
LINE
  5
1A4A
100
AcDbEntity
  8
MSL2_180_3F-7
100
AcDbLine
 10
315.680842
 20
-18.75
 30
0.0
 11
315.680842
 21
-11.25
 31
0.0
  0
CIRCLE
  5
1A4B
100
AcDbEntity
  8
MSL2_180_3F-0
100
AcDbCircle
 10
221.180842
 20
31.0
 30
0.0
 40
5.5
  0
LINE
  5
1A4C
100
AcDbEntity
  8
MSL2_180_3F-7
100
AcDbLine
 10
221.180842
 20
38.75
 30
0.0
 11
221.180842
 21
17.0
 31
0.0
1001
GENIUS_GENODEF_13
1002
{
1000
HIER
1070
     0
1002
}
1002
{
1000
MANEDIT
1070
     0
1002
}
1002
{
1000
NOSEL
1070
     0
1002
}
1002
{
1000
BEHIND
1070
     0
1002
}
1002
{
1000
REACTOR
1002
}
1001
GENIUS_GENOBJ-N-CEN_13
1002
{
1000
OWNER
1000
GEN
1002
}
  0
LINE
  5
1A4D
100
AcDbEntity
  8
MSL2_180_3F-7
100
AcDbLine
 10
234.180842
 20
33.75
 30
0.0
 11
234.180842
 21
17.0
 31
0.0
1001
GENIUS_GENODEF_13
1002
{
1000
HIER
1070
     0
1002
}
1002
{
1000
MANEDIT
1070
     0
1002
}
1002
{
1000
NOSEL
1070
     0
1002
}
1002
{
1000
BEHIND
1070
     0
1002
}
1002
{
1000
REACTOR
1002
}
1001
GENIUS_GENOBJ-N-CEN_13
1002
{
1000
OWNER
1000
GEN
1002
}
  0
CIRCLE
  5
1A4E
100
AcDbEntity
  8
MSL2_180_3F-0
100
AcDbCircle
 10
234.180842
 20
26.0
 30
0.0
 40
5.5
  0
LINE
  5
1A4F
100
AcDbEntity
  8
MSL2_180_3F-7
100
AcDbLine
 10
241.930842
 20
26.0
 30
0.0
 11
226.430842
 21
26.0
 31
0.0
1001
GENIUS_GENODEF_13
1002
{
1000
HIER
1070
     0
1002
}
1002
{
1000
MANEDIT
1070
     0
1002
}
1002
{
1000
NOSEL
1070
     0
1002
}
1002
{
1000
BEHIND
1070
     0
1002
}
1002
{
1000
REACTOR
1002
}
1001
GENIUS_GENOBJ-N-CEN_13
1002
{
1000
OWNER
1000
GEN
1002
}
  0
LINE
  5
1A50
100
AcDbEntity
  8
MSL2_180_3F-0
100
AcDbLine
 10
209.180842
 20
20.0
 30
0.0
 11
245.530842
 21
20.0
 31
0.0
  0
LINE
  5
1A51
100
AcDbEntity
  8
MSL2_180_3F-0
100
AcDbLine
 10
209.180842
 20
22.0
 30
0.0
 11
209.180842
 21
20.0
 31
0.0
  0
LINE
  5
1A52
100
AcDbEntity
  8
MSL2_180_3F-0
100
AcDbLine
 10
204.180842
 20
20.0
 30
0.0
 11
204.180842
 21
22.0
 31
0.0
  0
LINE
  5
1A53
100
AcDbEntity
  8
MSL2_180_3F-0
100
AcDbLine
 10
204.180842
 20
22.0
 30
0.0
 11
209.180842
 21
22.0
 31
0.0
  0
LINE
  5
1A54
100
AcDbEntity
  8
MSL2_180_3F-7
100
AcDbLine
 10
225.680842
 20
11.25
 30
0.0
 11
225.680842
 21
18.75
 31
0.0
  0
ARC
  5
1A55
100
AcDbEntity
  8
MSL2_180_3F-4
100
AcDbCircle
 10
225.680842
 20
15.0
 30
0.0
 40
2.5
100
AcDbArc
 50
172.405357
 51
104.931417
  0
CIRCLE
  5
1A56
100
AcDbEntity
  8
MSL2_180_3F-0
100
AcDbCircle
 10
225.680842
 20
15.0
 30
0.0
 40
2.067
  0
LINE
  5
1A57
100
AcDbEntity
  8
MSL2_180_3F-7
100
AcDbLine
 10
221.930842
 20
15.0
 30
0.0
 11
229.430842
 21
15.0
 31
0.0
  0
LINE
  5
1A58
100
AcDbEntity
  8
MSL2_180_3F-0
100
AcDbLine
 10
222.830842
 20
20.0
 30
0.0
 11
222.830842
 21
25.753334
 31
0.0
  0
LINE
  5
1A59
100
AcDbEntity
  8
MSL2_180_3F-0
100
AcDbLine
 10
219.530842
 20
20.0
 30
0.0
 11
219.530842
 21
25.753334
 31
0.0
  0
LINE
  5
1A5A
100
AcDbEntity
  8
MSL2_180_3F-0
100
AcDbLine
 10
232.530842
 20
20.0
 30
0.0
 11
232.530842
 21
20.753334
 31
0.0
  0
LINE
  5
1A5B
100
AcDbEntity
  8
MSL2_180_3F-7
100
AcDbLine
 10
240.680842
 20
15.0
 30
0.0
 11
240.680842
 21
18.473494
 31
0.0
  0
CIRCLE
  5
1A5C
100
AcDbEntity
  8
MSL2_180_3F-0
100
AcDbCircle
 10
240.680842
 20
14.965783
 30
0.0
 40
2.5
  0
LINE
  5
1A5D
100
AcDbEntity
  8
MSL2_180_3F-7
100
AcDbLine
 10
240.680842
 20
15.0
 30
0.0
 11
237.207347
 21
15.0
 31
0.0
  0
LINE
  5
1A5E
100
AcDbEntity
  8
MSL2_180_3F-7
100
AcDbLine
 10
240.680842
 20
15.0
 30
0.0
 11
240.680842
 21
11.526506
 31
0.0
  0
LINE
  5
1A5F
100
AcDbEntity
  8
MSL2_180_3F-7
100
AcDbLine
 10
240.680842
 20
15.0
 30
0.0
 11
244.154336
 21
15.0
 31
0.0
  0
LINE
  5
1A60
100
AcDbEntity
  8
MSL2_180_3F-0
100
AcDbLine
 10
235.830842
 20
20.0
 30
0.0
 11
235.830842
 21
20.753334
 31
0.0
  0
LINE
  5
1A61
100
AcDbEntity
  8
MSL2_180_3F-7
100
AcDbLine
 10
255.680842
 20
11.25
 30
0.0
 11
255.680842
 21
18.75
 31
0.0
  0
CIRCLE
  5
1A62
100
AcDbEntity
  8
MSL2_180_3F-0
100
AcDbCircle
 10
255.680842
 20
15.0
 30
0.0
 40
2.067
  0
ARC
  5
1A63
100
AcDbEntity
  8
MSL2_180_3F-4
100
AcDbCircle
 10
255.680842
 20
15.0
 30
0.0
 40
2.5
100
AcDbArc
 50
172.405357
 51
104.931417
  0
LINE
  5
1A64
100
AcDbEntity
  8
MSL2_180_3F-7
100
AcDbLine
 10
251.930842
 20
15.0
 30
0.0
 11
259.430842
 21
15.0
 31
0.0
  0
LINE
  5
1A65
100
AcDbEntity
  8
MSL2_180_3F-0
100
AcDbLine
 10
248.830842
 20
20.0
 30
0.0
 11
258.530842
 21
20.0
 31
0.0
  0
LINE
  5
1A66
100
AcDbEntity
  8
MSL2_180_3F-7
100
AcDbLine
 10
228.930842
 20
31.0
 30
0.0
 11
213.430842
 21
31.0
 31
0.0
1001
GENIUS_GENODEF_13
1002
{
1000
HIER
1070
     0
1002
}
1002
{
1000
MANEDIT
1070
     0
1002
}
1002
{
1000
NOSEL
1070
     0
1002
}
1002
{
1000
BEHIND
1070
     0
1002
}
1002
{
1000
REACTOR
1002
}
1001
GENIUS_GENOBJ-N-CEN_13
1002
{
1000
OWNER
1000
GEN
1002
}
  0
LINE
  5
1A67
100
AcDbEntity
  8
MSL2_180_3F-7
100
AcDbLine
 10
209.180842
 20
46.157095
 30
0.0
 11
209.180842
 21
32.579016
 31
0.0
1001
GENIUS_GENODEF_13
1002
{
1000
HIER
1070
     0
1002
}
1002
{
1000
MANEDIT
1070
     0
1002
}
1002
{
1000
NOSEL
1070
     0
1002
}
1002
{
1000
BEHIND
1070
     0
1002
}
1002
{
1000
REACTOR
1002
}
1001
GENIUS_GENOBJ-N-CEN_13
1002
{
1000
OWNER
1000
GEN
1002
}
  0
LINE
  5
1A68
100
AcDbEntity
  8
MSL2_180_3F-0
100
AcDbLine
 10
207.180842
 20
41.984175
 30
0.0
 11
209.180842
 21
44.052495
 31
0.0
  0
LINE
  5
1A69
100
AcDbEntity
  8
MSL2_180_3F-0
100
AcDbLine
 10
209.180842
 20
44.052495
 30
0.0
 11
211.180842
 21
41.984175
 31
0.0
  0
ELLIPSE
  5
1A6A
100
AcDbEntity
  8
MSL2_180_3F-0
100
AcDbEllipse
 10
209.180842
 20
41.984175
 30
0.0
 11
-2.0
 21
0.0
 31
0.0
210
0.0
220
0.0
230
1.0
 40
0.642788
 41
-1.112236758281637
 42
4.253829411871809
  0
LINE
  5
1A6B
100
AcDbEntity
  8
MSL2_180_3F-0
100
AcDbLine
 10
214.680842
 20
40.452086
 30
0.0
 11
214.680842
 21
41.984175
 31
0.0
  0
LINE
  5
1A6C
100
AcDbEntity
  8
MSL2_180_3F-7
100
AcDbLine
 10
270.680842
 20
15.0
 30
0.0
 11
270.680842
 21
18.473494
 31
0.0
  0
LINE
  5
1A6D
100
AcDbEntity
  8
MSL2_180_3F-7
100
AcDbLine
 10
270.680842
 20
15.0
 30
0.0
 11
267.207347
 21
15.0
 31
0.0
  0
CIRCLE
  5
1A6E
100
AcDbEntity
  8
MSL2_180_3F-0
100
AcDbCircle
 10
270.680842
 20
14.965783
 30
0.0
 40
2.5
  0
LINE
  5
1A6F
100
AcDbEntity
  8
MSL2_180_3F-7
100
AcDbLine
 10
270.680842
 20
15.0
 30
0.0
 11
270.680842
 21
11.526506
 31
0.0
  0
LINE
  5
1A70
100
AcDbEntity
  8
MSL2_180_3F-7
100
AcDbLine
 10
270.680842
 20
15.0
 30
0.0
 11
274.154336
 21
15.0
 31
0.0
  0
LINE
  5
1A71
100
AcDbEntity
  8
MSL2_180_3F-7
100
AcDbLine
 10
285.680842
 20
11.25
 30
0.0
 11
285.680842
 21
18.75
 31
0.0
  0
CIRCLE
  5
1A72
100
AcDbEntity
  8
MSL2_180_3F-0
100
AcDbCircle
 10
285.680842
 20
15.0
 30
0.0
 40
2.067
  0
LINE
  5
1A73
100
AcDbEntity
  8
MSL2_180_3F-7
100
AcDbLine
 10
281.930842
 20
15.0
 30
0.0
 11
289.430842
 21
15.0
 31
0.0
  0
ARC
  5
1A74
100
AcDbEntity
  8
MSL2_180_3F-4
100
AcDbCircle
 10
285.680842
 20
15.0
 30
0.0
 40
2.5
100
AcDbArc
 50
172.405357
 51
104.931417
  0
LINE
  5
1A75
100
AcDbEntity
  8
MSL2_180_3F-0
100
AcDbLine
 10
278.830842
 20
20.0
 30
0.0
 11
288.530842
 21
20.0
 31
0.0
  0
LINE
  5
1A76
100
AcDbEntity
  8
MSL2_180_3F-7
100
AcDbLine
 10
300.680842
 20
15.0
 30
0.0
 11
300.680842
 21
18.473494
 31
0.0
  0
LINE
  5
1A77
100
AcDbEntity
  8
MSL2_180_3F-7
100
AcDbLine
 10
300.680842
 20
15.0
 30
0.0
 11
297.207347
 21
15.0
 31
0.0
  0
CIRCLE
  5
1A78
100
AcDbEntity
  8
MSL2_180_3F-0
100
AcDbCircle
 10
300.680842
 20
14.965783
 30
0.0
 40
2.5
  0
LINE
  5
1A79
100
AcDbEntity
  8
MSL2_180_3F-7
100
AcDbLine
 10
300.680842
 20
15.0
 30
0.0
 11
300.680842
 21
11.526506
 31
0.0
  0
LINE
  5
1A7A
100
AcDbEntity
  8
MSL2_180_3F-7
100
AcDbLine
 10
300.680842
 20
15.0
 30
0.0
 11
304.154336
 21
15.0
 31
0.0
  0
LINE
  5
1A7B
100
AcDbEntity
  8
MSL2_180_3F-7
100
AcDbLine
 10
315.680842
 20
11.25
 30
0.0
 11
315.680842
 21
18.75
 31
0.0
  0
LINE
  5
1A7C
100
AcDbEntity
  8
MSL2_180_3F-7
100
AcDbLine
 10
311.930842
 20
15.0
 30
0.0
 11
319.430842
 21
15.0
 31
0.0
  0
CIRCLE
  5
1A7D
100
AcDbEntity
  8
MSL2_180_3F-0
100
AcDbCircle
 10
315.680842
 20
15.0
 30
0.0
 40
2.067
  0
ARC
  5
1A7E
100
AcDbEntity
  8
MSL2_180_3F-4
100
AcDbCircle
 10
315.680842
 20
15.0
 30
0.0
 40
2.5
100
AcDbArc
 50
172.405357
 51
104.931417
  0
LINE
  5
1A7F
100
AcDbEntity
  8
MSL2_180_3F-0
100
AcDbLine
 10
308.830842
 20
20.0
 30
0.0
 11
318.530842
 21
20.0
 31
0.0
  0
MTEXT
  5
1A80
100
AcDbEntity
  8
MSL2_180_3F-6
100
AcDbMText
 10
181.8138
 20
114.949958
 30
0.0
 40
3.5
 41
21.059228
 71
     1
 72
     1
  1
{MSL2-180-3F}
  0
LINE
  5
1A81
100
AcDbEntity
  8
MSL2_180_3F-0
100
AcDbLine
 10
143.680842
 20
191.0
 30
0.0
 11
143.680842
 21
109.0
 31
0.0
  0
LINE
  5
1A82
100
AcDbEntity
  8
MSL2_180_3F-0
100
AcDbLine
 10
165.680842
 20
142.0
 30
0.0
 11
165.680842
 21
158.0
 31
0.0
  0
LINE
  5
1A83
100
AcDbEntity
  8
MSL2_180_3F-0
100
AcDbLine
 10
166.680842
 20
141.0
 30
0.0
 11
166.680842
 21
159.0
 31
0.0
  0
LINE
  5
1A84
100
AcDbEntity
  8
MSL2_180_3F-0
100
AcDbLine
 10
159.680842
 20
109.0
 30
0.0
 11
159.680842
 21
191.0
 31
0.0
  0
LINE
  5
1A85
100
AcDbEntity
  8
MSL2_180_3F-7
100
AcDbLine
 10
140.331957
 20
135.0
 30
0.0
 11
163.451175
 21
135.0
 31
0.0
  0
LINE
  5
1A86
100
AcDbEntity
  8
MSL2_180_3F-0
100
AcDbLine
 10
143.680842
 20
109.0
 30
0.0
 11
159.680842
 21
109.0
 31
0.0
  0
LINE
  5
1A87
100
AcDbEntity
  8
MSL2_180_3F-7
100
AcDbLine
 10
186.244409
 20
122.5
 30
0.0
 11
140.456342
 21
122.5
 31
0.0
  0
LINE
  5
1A88
100
AcDbEntity
  8
MSL2_180_3F-0
100
AcDbLine
 10
180.680842
 20
141.0
 30
0.0
 11
166.680842
 21
141.0
 31
0.0
  0
LINE
  5
1A89
100
AcDbEntity
  8
MSL2_180_3F-0
100
AcDbLine
 10
180.680842
 20
128.5
 30
0.0
 11
159.680842
 21
128.5
 31
0.0
  0
LINE
  5
1A8A
100
AcDbEntity
  8
MSL2_180_3F-0
100
AcDbLine
 10
159.680842
 20
116.5
 30
0.0
 11
180.680842
 21
116.5
 31
0.0
  0
CIRCLE
  5
1A8B
100
AcDbEntity
  8
MSL2_180_3F-0
100
AcDbCircle
 10
154.680842
 20
125.0
 30
0.0
 40
2.067
  0
LINE
  5
1A8C
100
AcDbEntity
  8
MSL2_180_3F-7
100
AcDbLine
 10
154.680842
 20
121.25
 30
0.0
 11
154.680842
 21
128.75
 31
0.0
  0
ARC
  5
1A8D
100
AcDbEntity
  8
MSL2_180_3F-4
100
AcDbCircle
 10
154.680842
 20
125.0
 30
0.0
 40
2.5
100
AcDbArc
 50
172.405357
 51
104.931417
  0
LINE
  5
1A8E
100
AcDbEntity
  8
MSL2_180_3F-7
100
AcDbLine
 10
148.680842
 20
124.393383
 30
0.0
 11
148.680842
 21
106.0
 31
0.0
  0
LINE
  5
1A8F
100
AcDbEntity
  8
MSL2_180_3F-7
100
AcDbLine
 10
148.680842
 20
124.393383
 30
0.0
 11
148.680842
 21
106.0
 31
0.0
  0
LINE
  5
1A90
100
AcDbEntity
  8
MSL2_180_3F-3
100
AcDbLine
 10
151.180842
 20
109.0
 30
0.0
 11
151.180842
 21
117.0
 31
0.0
  0
LINE
  5
1A91
100
AcDbEntity
  8
MSL2_180_3F-3
100
AcDbLine
 10
151.180842
 20
109.0
 30
0.0
 11
151.180842
 21
117.0
 31
0.0
  0
LINE
  5
1A92
100
AcDbEntity
  8
MSL2_180_3F-3
100
AcDbLine
 10
150.747842
 20
109.0
 30
0.0
 11
150.747842
 21
120.2
 31
0.0
  0
LINE
  5
1A93
100
AcDbEntity
  8
MSL2_180_3F-3
100
AcDbLine
 10
150.747842
 20
109.0
 30
0.0
 11
150.747842
 21
120.2
 31
0.0
  0
LINE
  5
1A94
100
AcDbEntity
  8
MSL2_180_3F-3
100
AcDbLine
 10
146.180842
 20
109.0
 30
0.0
 11
146.180842
 21
117.0
 31
0.0
  0
LINE
  5
1A95
100
AcDbEntity
  8
MSL2_180_3F-3
100
AcDbLine
 10
146.180842
 20
109.0
 30
0.0
 11
146.180842
 21
117.0
 31
0.0
  0
LINE
  5
1A96
100
AcDbEntity
  8
MSL2_180_3F-3
100
AcDbLine
 10
146.613842
 20
109.0
 30
0.0
 11
146.613842
 21
120.2
 31
0.0
  0
LINE
  5
1A97
100
AcDbEntity
  8
MSL2_180_3F-3
100
AcDbLine
 10
146.613842
 20
109.0
 30
0.0
 11
146.613842
 21
120.2
 31
0.0
  0
LINE
  5
1A98
100
AcDbEntity
  8
MSL2_180_3F-3
100
AcDbLine
 10
148.680842
 20
121.393383
 30
0.0
 11
146.613842
 21
120.2
 31
0.0
  0
LINE
  5
1A99
100
AcDbEntity
  8
MSL2_180_3F-3
100
AcDbLine
 10
148.680842
 20
121.393383
 30
0.0
 11
146.613842
 21
120.2
 31
0.0
  0
LINE
  5
1A9A
100
AcDbEntity
  8
MSL2_180_3F-3
100
AcDbLine
 10
148.680842
 20
121.393383
 30
0.0
 11
150.747842
 21
120.2
 31
0.0
  0
LINE
  5
1A9B
100
AcDbEntity
  8
MSL2_180_3F-3
100
AcDbLine
 10
148.680842
 20
121.393383
 30
0.0
 11
150.747842
 21
120.2
 31
0.0
  0
LINE
  5
1A9C
100
AcDbEntity
  8
MSL2_180_3F-3
100
AcDbLine
 10
151.180842
 20
117.0
 30
0.0
 11
146.180842
 21
117.0
 31
0.0
  0
LINE
  5
1A9D
100
AcDbEntity
  8
MSL2_180_3F-3
100
AcDbLine
 10
151.180842
 20
117.0
 30
0.0
 11
146.180842
 21
117.0
 31
0.0
  0
LINE
  5
1A9E
100
AcDbEntity
  8
MSL2_180_3F-3
100
AcDbLine
 10
150.747842
 20
120.2
 30
0.0
 11
146.613842
 21
120.2
 31
0.0
  0
LINE
  5
1A9F
100
AcDbEntity
  8
MSL2_180_3F-3
100
AcDbLine
 10
150.747842
 20
120.2
 30
0.0
 11
146.613842
 21
120.2
 31
0.0
  0
LINE
  5
1AA0
100
AcDbEntity
  8
MSL2_180_3F-7
100
AcDbLine
 10
150.930842
 20
125.0
 30
0.0
 11
158.430842
 21
125.0
 31
0.0
  0
LINE
  5
1AA1
100
AcDbEntity
  8
MSL2_180_3F-0
100
AcDbLine
 10
166.680842
 20
141.0
 30
0.0
 11
165.680842
 21
142.0
 31
0.0
  0
INSERT
  5
1AA2
100
AcDbEntity
  8
MSL2_180_3F-0
100
AcDbBlockReference
 66
     1
  2
GENINF13
 10
200.111753
 20
139.425286
 30
0.0
1001
GENIUS_GENSCSYM_13
1002
{
1000
INSPT
1011
200.111753
1021
139.425286
1031
0.0
1002
}
1002
{
1000
SCALE
1042
1.0
1002
}
1002
{
1000
USEOLDBPT
1070
     0
1002
}
1001
GENIUS_GENOBJ-N-INFOPT_13
1002
{
1000
OWNER
1000
GEN
1002
}
1001
GENIUS_GENSYMENT_13
1002
{
1000
ENT
1005
1AA2
1002
}
1001
GENIUS_GENODEF_13
1002
{
1000
HIER
1070
     0
1002
}
1002
{
1000
MANEDIT
1070
     0
1002
}
1002
{
1000
NOSEL
1070
     0
1002
}
1002
{
1000
BEHIND
1070
     0
1002
}
1002
{
1000
REACTOR
1002
}
1001
GENIUS_GENOBJ-N-RSSYM_13
1002
{
1000
OWNER
1000
GEN
1002
}
1001
GENIUS_GENINF13_13
1070
     1
  0
ATTRIB
  5
1AA3
100
AcDbEntity
  8
INFO
100
AcDbText
 10
200.111753
 20
139.425286
 30
0.0
 40
1.0
  1
1
100
AcDbAttribute
  2
2GENINF
 70
     1
  0
ATTRIB
  5
1AA4
100
AcDbEntity
  8
INFO
100
AcDbText
 10
200.111753
 20
137.925286
 30
0.0
 40
1.0
  1
<***aktuell***>
100
AcDbAttribute
  2
3GENINF
 70
     1
  0
ATTRIB
  5
1AA5
100
AcDbEntity
  8
INFO
100
AcDbText
 10
200.111753
 20
136.425286
 30
0.0
 40
1.0
  1

100
AcDbAttribute
  2
4GENINF
 70
     1
  0
ATTRIB
  5
1AA6
100
AcDbEntity
  8
INFO
100
AcDbText
 10
200.111753
 20
134.925286
 30
0.0
 40
1.0
  1
MSL2-180-3F
100
AcDbAttribute
  2
5GENINF
 70
     1
  0
ATTRIB
  5
1AA7
100
AcDbEntity
  8
INFO
100
AcDbText
 10
200.111753
 20
133.425286
 30
0.0
 40
1.0
  1

100
AcDbAttribute
  2
6GENINF
 70
     1
  0
ATTRIB
  5
1AA8
100
AcDbEntity
  8
INFO
100
AcDbText
 10
200.111753
 20
131.925286
 30
0.0
 40
1.0
  1
Fa. Mayer
100
AcDbAttribute
  2
7GENINF
 70
     1
  0
ATTRIB
  5
1AA9
100
AcDbEntity
  8
INFO
100
AcDbText
 10
200.111753
 20
130.425286
 30
0.0
 40
1.0
  1

100
AcDbAttribute
  2
8GENINF
 70
     1
  0
ATTRIB
  5
1AAA
100
AcDbEntity
  8
INFO
100
AcDbText
 10
200.111753
 20
128.925286
 30
0.0
 40
1.0
  1

100
AcDbAttribute
  2
9GENINF
 70
     1
  0
ATTRIB
  5
1AAB
100
AcDbEntity
  8
INFO
100
AcDbText
 10
200.111753
 20
127.425286
 30
0.0
 40
1.0
  1

100
AcDbAttribute
  2
10GENINF
 70
     1
  0
ATTRIB
  5
1AAC
100
AcDbEntity
  8
INFO
100
AcDbText
 10
200.111753
 20
125.925286
 30
0.0
 40
1.0
  1

100
AcDbAttribute
  2
11GENINF
 70
     1
  0
ATTRIB
  5
1AAD
100
AcDbEntity
  8
INFO
100
AcDbText
 10
200.111753
 20
124.425286
 30
0.0
 40
1.0
  1

100
AcDbAttribute
  2
12GENINF
 70
     1
  0
ATTRIB
  5
1AAE
100
AcDbEntity
  8
INFO
100
AcDbText
 10
200.111753
 20
122.925286
 30
0.0
 40
1.0
  1

100
AcDbAttribute
  2
13GENINF
 70
     1
  0
ATTRIB
  5
1AAF
100
AcDbEntity
  8
INFO
100
AcDbText
 10
200.111753
 20
121.425286
 30
0.0
 40
1.0
  1

100
AcDbAttribute
  2
14GENINF
 70
     1
  0
ATTRIB
  5
1AB0
100
AcDbEntity
  8
INFO
100
AcDbText
 10
200.111753
 20
119.925286
 30
0.0
 40
1.0
  1

100
AcDbAttribute
  2
15GENINF
 70
     1
  0
ATTRIB
  5
1AB1
100
AcDbEntity
  8
INFO
100
AcDbText
 10
200.111753
 20
118.425286
 30
0.0
 40
1.0
  1

100
AcDbAttribute
  2
16GENINF
 70
     1
  0
ATTRIB
  5
1AB2
100
AcDbEntity
  8
INFO
100
AcDbText
 10
200.111753
 20
116.925286
 30
0.0
 40
1.0
  1

100
AcDbAttribute
  2
17GENINF
 70
     1
  0
ATTRIB
  5
1AB3
100
AcDbEntity
  8
INFO
100
AcDbText
 10
200.111753
 20
115.425286
 30
0.0
 40
1.0
  1

100
AcDbAttribute
  2
18GENINF
 70
     1
  0
ATTRIB
  5
1AB4
100
AcDbEntity
  8
INFO
100
AcDbText
 10
200.111753
 20
113.925286
 30
0.0
 40
1.0
  1

100
AcDbAttribute
  2
19GENINF
 70
     1
  0
ATTRIB
  5
1AB5
100
AcDbEntity
  8
INFO
100
AcDbText
 10
200.111753
 20
112.425286
 30
0.0
 40
1.0
  1

100
AcDbAttribute
  2
20GENINF
 70
     1
  0
ATTRIB
  5
1AB6
100
AcDbEntity
  8
INFO
100
AcDbText
 10
200.111753
 20
110.925286
 30
0.0
 40
1.0
  1

100
AcDbAttribute
  2
21GENINF
 70
     1
  0
ATTRIB
  5
1AB7
100
AcDbEntity
  8
INFO
100
AcDbText
 10
200.111753
 20
109.425286
 30
0.0
 40
1.0
  1

100
AcDbAttribute
  2
22GENINF
 70
     1
  0
ATTRIB
  5
1AB8
100
AcDbEntity
  8
INFO
100
AcDbText
 10
200.111753
 20
107.925286
 30
0.0
 40
1.0
  1

100
AcDbAttribute
  2
23GENINF
 70
     1
  0
ATTRIB
  5
1AB9
100
AcDbEntity
  8
INFO
100
AcDbText
 10
200.111753
 20
106.425286
 30
0.0
 40
1.0
  1

100
AcDbAttribute
  2
24GENINF
 70
     1
  0
ATTRIB
  5
1ABA
100
AcDbEntity
  8
INFO
100
AcDbText
 10
200.111753
 20
104.925286
 30
0.0
 40
1.0
  1

100
AcDbAttribute
  2
0GENINF
 70
     1
  0
SEQEND
  5
1ABB
100
AcDbEntity
  8
MSL2_180_3F-0
  0
LINE
  5
1ABC
100
AcDbEntity
  8
MSL2_180_3F-0
100
AcDbLine
 10
159.680842
 20
191.0
 30
0.0
 11
143.680842
 21
191.0
 31
0.0
  0
LINE
  5
1ABD
100
AcDbEntity
  8
MSL2_180_3F-7
100
AcDbLine
 10
140.331957
 20
165.0
 30
0.0
 11
163.451175
 21
165.0
 31
0.0
  0
LINE
  5
1ABE
100
AcDbEntity
  8
MSL2_180_3F-7
100
AcDbLine
 10
186.244409
 20
150.0
 30
0.0
 11
140.331957
 21
150.0
 31
0.0
  0
LINE
  5
1ABF
100
AcDbEntity
  8
MSL2_180_3F-7
100
AcDbLine
 10
186.244409
 20
177.5
 30
0.0
 11
140.456342
 21
177.5
 31
0.0
  0
LINE
  5
1AC0
100
AcDbEntity
  8
MSL2_180_3F-3
100
AcDbLine
 10
146.613842
 20
191.0
 30
0.0
 11
146.613842
 21
179.8
 31
0.0
  0
LINE
  5
1AC1
100
AcDbEntity
  8
MSL2_180_3F-3
100
AcDbLine
 10
146.613842
 20
191.0
 30
0.0
 11
146.613842
 21
179.8
 31
0.0
  0
LINE
  5
1AC2
100
AcDbEntity
  8
MSL2_180_3F-3
100
AcDbLine
 10
150.747842
 20
191.0
 30
0.0
 11
150.747842
 21
179.8
 31
0.0
  0
LINE
  5
1AC3
100
AcDbEntity
  8
MSL2_180_3F-3
100
AcDbLine
 10
150.747842
 20
191.0
 30
0.0
 11
150.747842
 21
179.8
 31
0.0
  0
LINE
  5
1AC4
100
AcDbEntity
  8
MSL2_180_3F-7
100
AcDbLine
 10
148.680842
 20
175.606617
 30
0.0
 11
148.680842
 21
194.0
 31
0.0
  0
LINE
  5
1AC5
100
AcDbEntity
  8
MSL2_180_3F-7
100
AcDbLine
 10
148.680842
 20
175.606617
 30
0.0
 11
148.680842
 21
194.0
 31
0.0
  0
LINE
  5
1AC6
100
AcDbEntity
  8
MSL2_180_3F-0
100
AcDbLine
 10
159.680842
 20
171.5
 30
0.0
 11
180.680842
 21
171.5
 31
0.0
  0
LINE
  5
1AC7
100
AcDbEntity
  8
MSL2_180_3F-0
100
AcDbLine
 10
166.680842
 20
159.0
 30
0.0
 11
180.680842
 21
159.0
 31
0.0
  0
LINE
  5
1AC8
100
AcDbEntity
  8
MSL2_180_3F-0
100
AcDbLine
 10
165.680842
 20
156.0
 30
0.0
 11
159.680842
 21
156.0
 31
0.0
  0
LINE
  5
1AC9
100
AcDbEntity
  8
MSL2_180_3F-0
100
AcDbLine
 10
165.680842
 20
153.0
 30
0.0
 11
159.680842
 21
153.0
 31
0.0
  0
LINE
  5
1ACA
100
AcDbEntity
  8
MSL2_180_3F-0
100
AcDbLine
 10
159.680842
 20
147.0
 30
0.0
 11
165.680842
 21
147.0
 31
0.0
  0
LINE
  5
1ACB
100
AcDbEntity
  8
MSL2_180_3F-0
100
AcDbLine
 10
159.680842
 20
144.0
 30
0.0
 11
165.680842
 21
144.0
 31
0.0
  0
LINE
  5
1ACC
100
AcDbEntity
  8
MSL2_180_3F-0
100
AcDbLine
 10
165.680842
 20
158.0
 30
0.0
 11
166.680842
 21
159.0
 31
0.0
  0
LINE
  5
1ACD
100
AcDbEntity
  8
MSL2_180_3F-7
100
AcDbLine
 10
154.680842
 20
171.25
 30
0.0
 11
154.680842
 21
178.75
 31
0.0
  0
CIRCLE
  5
1ACE
100
AcDbEntity
  8
MSL2_180_3F-0
100
AcDbCircle
 10
154.680842
 20
175.0
 30
0.0
 40
2.067
  0
LINE
  5
1ACF
100
AcDbEntity
  8
MSL2_180_3F-7
100
AcDbLine
 10
150.930842
 20
175.0
 30
0.0
 11
158.430842
 21
175.0
 31
0.0
  0
ARC
  5
1AD0
100
AcDbEntity
  8
MSL2_180_3F-4
100
AcDbCircle
 10
154.680842
 20
175.0
 30
0.0
 40
2.5
100
AcDbArc
 50
172.405357
 51
104.931417
  0
LINE
  5
1AD1
100
AcDbEntity
  8
MSL2_180_3F-3
100
AcDbLine
 10
148.680842
 20
178.606617
 30
0.0
 11
146.613842
 21
179.8
 31
0.0
  0
LINE
  5
1AD2
100
AcDbEntity
  8
MSL2_180_3F-3
100
AcDbLine
 10
148.680842
 20
178.606617
 30
0.0
 11
146.613842
 21
179.8
 31
0.0
  0
LINE
  5
1AD3
100
AcDbEntity
  8
MSL2_180_3F-3
100
AcDbLine
 10
148.680842
 20
178.606617
 30
0.0
 11
150.747842
 21
179.8
 31
0.0
  0
LINE
  5
1AD4
100
AcDbEntity
  8
MSL2_180_3F-3
100
AcDbLine
 10
148.680842
 20
178.606617
 30
0.0
 11
150.747842
 21
179.8
 31
0.0
  0
LINE
  5
1AD5
100
AcDbEntity
  8
MSL2_180_3F-3
100
AcDbLine
 10
150.747842
 20
179.8
 30
0.0
 11
146.613842
 21
179.8
 31
0.0
  0
LINE
  5
1AD6
100
AcDbEntity
  8
MSL2_180_3F-3
100
AcDbLine
 10
150.747842
 20
179.8
 30
0.0
 11
146.613842
 21
179.8
 31
0.0
  0
LINE
  5
1AD7
100
AcDbEntity
  8
MSL2_180_3F-0
100
AcDbLine
 10
180.680842
 20
183.5
 30
0.0
 11
159.680842
 21
183.5
 31
0.0
  0
LINE
  5
1AD8
100
AcDbEntity
  8
MSL2_180_3F-3
100
AcDbLine
 10
151.180842
 20
191.0
 30
0.0
 11
151.180842
 21
183.0
 31
0.0
  0
LINE
  5
1AD9
100
AcDbEntity
  8
MSL2_180_3F-3
100
AcDbLine
 10
151.180842
 20
191.0
 30
0.0
 11
151.180842
 21
183.0
 31
0.0
  0
LINE
  5
1ADA
100
AcDbEntity
  8
MSL2_180_3F-3
100
AcDbLine
 10
146.180842
 20
191.0
 30
0.0
 11
146.180842
 21
183.0
 31
0.0
  0
LINE
  5
1ADB
100
AcDbEntity
  8
MSL2_180_3F-3
100
AcDbLine
 10
146.180842
 20
191.0
 30
0.0
 11
146.180842
 21
183.0
 31
0.0
  0
LINE
  5
1ADC
100
AcDbEntity
  8
MSL2_180_3F-3
100
AcDbLine
 10
151.180842
 20
183.0
 30
0.0
 11
146.180842
 21
183.0
 31
0.0
  0
LINE
  5
1ADD
100
AcDbEntity
  8
MSL2_180_3F-3
100
AcDbLine
 10
151.180842
 20
183.0
 30
0.0
 11
146.180842
 21
183.0
 31
0.0
  0
LINE
  5
1ADE
100
AcDbEntity
  8
MSL2_180_3F-7
100
AcDbLine
 10
300.680842
 20
161.451766
 30
0.0
 11
300.680842
 21
138.635194
 31
0.0
  0
LINE
  5
1ADF
100
AcDbEntity
  8
MSL2_180_3F-7
100
AcDbLine
 10
270.680842
 20
161.451766
 30
0.0
 11
270.680842
 21
138.635194
 31
0.0
  0
LINE
  5
1AE0
100
AcDbEntity
  8
MSL2_180_3F-7
100
AcDbLine
 10
240.680842
 20
161.451766
 30
0.0
 11
240.680842
 21
138.635194
 31
0.0
  0
LINE
  5
1AE1
100
AcDbEntity
  8
MSL2_180_3F-7
100
AcDbLine
 10
225.680842
 20
122.480714
 30
0.0
 11
225.680842
 21
105.934345
 31
0.0
  0
LINE
  5
1AE2
100
AcDbEntity
  8
MSL2_180_3F-7
100
AcDbLine
 10
225.680842
 20
131.25
 30
0.0
 11
225.680842
 21
138.75
 31
0.0
  0
CIRCLE
  5
1AE3
100
AcDbEntity
  8
MSL2_180_3F-0
100
AcDbCircle
 10
225.680842
 20
135.0
 30
0.0
 40
2.067
  0
ARC
  5
1AE4
100
AcDbEntity
  8
MSL2_180_3F-4
100
AcDbCircle
 10
225.680842
 20
135.0
 30
0.0
 40
2.5
100
AcDbArc
 50
172.405357
 51
104.931417
  0
LINE
  5
1AE5
100
AcDbEntity
  8
MSL2_180_3F-7
100
AcDbLine
 10
221.930842
 20
135.0
 30
0.0
 11
229.430842
 21
135.0
 31
0.0
  0
LINE
  5
1AE6
100
AcDbEntity
  8
MSL2_180_3F-7
100
AcDbLine
 10
240.680842
 20
122.480714
 30
0.0
 11
240.680842
 21
105.934345
 31
0.0
  0
LINE
  5
1AE7
100
AcDbEntity
  8
MSL2_180_3F-7
100
AcDbLine
 10
255.680842
 20
122.480714
 30
0.0
 11
255.680842
 21
105.934345
 31
0.0
  0
LINE
  5
1AE8
100
AcDbEntity
  8
MSL2_180_3F-7
100
AcDbLine
 10
240.680842
 20
135.0
 30
0.0
 11
240.680842
 21
131.392806
 31
0.0
  0
CIRCLE
  5
1AE9
100
AcDbEntity
  8
MSL2_180_3F-0
100
AcDbCircle
 10
240.680842
 20
135.0
 30
0.0
 40
2.5
  0
LINE
  5
1AEA
100
AcDbEntity
  8
MSL2_180_3F-7
100
AcDbLine
 10
240.680842
 20
135.0
 30
0.0
 11
237.073648
 21
135.0
 31
0.0
  0
LINE
  5
1AEB
100
AcDbEntity
  8
MSL2_180_3F-7
100
AcDbLine
 10
240.680842
 20
135.0
 30
0.0
 11
244.288036
 21
135.0
 31
0.0
  0
LINE
  5
1AEC
100
AcDbEntity
  8
MSL2_180_3F-7
100
AcDbLine
 10
240.680842
 20
135.0
 30
0.0
 11
240.680842
 21
138.607194
 31
0.0
  0
LINE
  5
1AED
100
AcDbEntity
  8
MSL2_180_3F-7
100
AcDbLine
 10
255.680842
 20
131.25
 30
0.0
 11
255.680842
 21
138.75
 31
0.0
  0
CIRCLE
  5
1AEE
100
AcDbEntity
  8
MSL2_180_3F-0
100
AcDbCircle
 10
255.680842
 20
135.0
 30
0.0
 40
2.067
  0
ARC
  5
1AEF
100
AcDbEntity
  8
MSL2_180_3F-4
100
AcDbCircle
 10
255.680842
 20
135.0
 30
0.0
 40
2.5
100
AcDbArc
 50
172.405357
 51
104.931417
  0
LINE
  5
1AF0
100
AcDbEntity
  8
MSL2_180_3F-7
100
AcDbLine
 10
251.930842
 20
135.0
 30
0.0
 11
259.430842
 21
135.0
 31
0.0
  0
LINE
  5
1AF1
100
AcDbEntity
  8
MSL2_180_3F-7
100
AcDbLine
 10
270.680842
 20
122.480714
 30
0.0
 11
270.680842
 21
105.934345
 31
0.0
  0
LINE
  5
1AF2
100
AcDbEntity
  8
MSL2_180_3F-7
100
AcDbLine
 10
285.680842
 20
122.480714
 30
0.0
 11
285.680842
 21
105.934345
 31
0.0
  0
LINE
  5
1AF3
100
AcDbEntity
  8
MSL2_180_3F-7
100
AcDbLine
 10
270.680842
 20
135.0
 30
0.0
 11
270.680842
 21
131.392806
 31
0.0
  0
CIRCLE
  5
1AF4
100
AcDbEntity
  8
MSL2_180_3F-0
100
AcDbCircle
 10
270.680842
 20
135.0
 30
0.0
 40
2.5
  0
LINE
  5
1AF5
100
AcDbEntity
  8
MSL2_180_3F-7
100
AcDbLine
 10
270.680842
 20
135.0
 30
0.0
 11
267.073648
 21
135.0
 31
0.0
  0
LINE
  5
1AF6
100
AcDbEntity
  8
MSL2_180_3F-7
100
AcDbLine
 10
270.680842
 20
135.0
 30
0.0
 11
274.288036
 21
135.0
 31
0.0
  0
LINE
  5
1AF7
100
AcDbEntity
  8
MSL2_180_3F-7
100
AcDbLine
 10
270.680842
 20
135.0
 30
0.0
 11
270.680842
 21
138.607194
 31
0.0
  0
CIRCLE
  5
1AF8
100
AcDbEntity
  8
MSL2_180_3F-0
100
AcDbCircle
 10
285.680842
 20
135.0
 30
0.0
 40
2.067
  0
ARC
  5
1AF9
100
AcDbEntity
  8
MSL2_180_3F-4
100
AcDbCircle
 10
285.680842
 20
135.0
 30
0.0
 40
2.5
100
AcDbArc
 50
172.405357
 51
104.931417
  0
LINE
  5
1AFA
100
AcDbEntity
  8
MSL2_180_3F-7
100
AcDbLine
 10
285.680842
 20
131.25
 30
0.0
 11
285.680842
 21
138.75
 31
0.0
  0
LINE
  5
1AFB
100
AcDbEntity
  8
MSL2_180_3F-7
100
AcDbLine
 10
281.930842
 20
135.0
 30
0.0
 11
289.430842
 21
135.0
 31
0.0
  0
LINE
  5
1AFC
100
AcDbEntity
  8
MSL2_180_3F-7
100
AcDbLine
 10
300.680842
 20
122.480714
 30
0.0
 11
300.680842
 21
105.934345
 31
0.0
  0
LINE
  5
1AFD
100
AcDbEntity
  8
MSL2_180_3F-7
100
AcDbLine
 10
315.680842
 20
122.480714
 30
0.0
 11
315.680842
 21
105.934345
 31
0.0
  0
LINE
  5
1AFE
100
AcDbEntity
  8
MSL2_180_3F-7
100
AcDbLine
 10
300.680842
 20
135.0
 30
0.0
 11
300.680842
 21
131.392806
 31
0.0
  0
CIRCLE
  5
1AFF
100
AcDbEntity
  8
MSL2_180_3F-0
100
AcDbCircle
 10
300.680842
 20
135.0
 30
0.0
 40
2.5
  0
LINE
  5
1B00
100
AcDbEntity
  8
MSL2_180_3F-7
100
AcDbLine
 10
300.680842
 20
135.0
 30
0.0
 11
297.073648
 21
135.0
 31
0.0
  0
LINE
  5
1B01
100
AcDbEntity
  8
MSL2_180_3F-7
100
AcDbLine
 10
300.680842
 20
135.0
 30
0.0
 11
304.288036
 21
135.0
 31
0.0
  0
LINE
  5
1B02
100
AcDbEntity
  8
MSL2_180_3F-7
100
AcDbLine
 10
300.680842
 20
135.0
 30
0.0
 11
300.680842
 21
138.607194
 31
0.0
  0
CIRCLE
  5
1B03
100
AcDbEntity
  8
MSL2_180_3F-0
100
AcDbCircle
 10
315.680842
 20
135.0
 30
0.0
 40
2.067
  0
ARC
  5
1B04
100
AcDbEntity
  8
MSL2_180_3F-4
100
AcDbCircle
 10
315.680842
 20
135.0
 30
0.0
 40
2.5
100
AcDbArc
 50
172.405357
 51
104.931417
  0
LINE
  5
1B05
100
AcDbEntity
  8
MSL2_180_3F-7
100
AcDbLine
 10
315.680842
 20
131.25
 30
0.0
 11
315.680842
 21
138.75
 31
0.0
  0
LINE
  5
1B06
100
AcDbEntity
  8
MSL2_180_3F-7
100
AcDbLine
 10
311.930842
 20
135.0
 30
0.0
 11
319.430842
 21
135.0
 31
0.0
  0
LINE
  5
1B07
100
AcDbEntity
  8
MSL2_180_3F-7
100
AcDbLine
 10
255.680842
 20
193.717185
 30
0.0
 11
255.680842
 21
177.519161
 31
0.0
  0
LINE
  5
1B08
100
AcDbEntity
  8
MSL2_180_3F-7
100
AcDbLine
 10
240.680842
 20
193.717185
 30
0.0
 11
240.680842
 21
177.519161
 31
0.0
  0
LINE
  5
1B09
100
AcDbEntity
  8
MSL2_180_3F-7
100
AcDbLine
 10
225.680842
 20
193.717185
 30
0.0
 11
225.680842
 21
177.519161
 31
0.0
  0
LINE
  5
1B0A
100
AcDbEntity
  8
MSL2_180_3F-7
100
AcDbLine
 10
225.680842
 20
161.25
 30
0.0
 11
225.680842
 21
168.75
 31
0.0
  0
LINE
  5
1B0B
100
AcDbEntity
  8
MSL2_180_3F-7
100
AcDbLine
 10
221.930842
 20
165.0
 30
0.0
 11
229.430842
 21
165.0
 31
0.0
  0
CIRCLE
  5
1B0C
100
AcDbEntity
  8
MSL2_180_3F-0
100
AcDbCircle
 10
225.680842
 20
165.0
 30
0.0
 40
2.067
  0
ARC
  5
1B0D
100
AcDbEntity
  8
MSL2_180_3F-4
100
AcDbCircle
 10
225.680842
 20
165.0
 30
0.0
 40
2.5
100
AcDbArc
 50
172.405357
 51
104.931417
  0
LINE
  5
1B0E
100
AcDbEntity
  8
MSL2_180_3F-7
100
AcDbLine
 10
255.680842
 20
161.25
 30
0.0
 11
255.680842
 21
168.75
 31
0.0
  0
LINE
  5
1B0F
100
AcDbEntity
  8
MSL2_180_3F-7
100
AcDbLine
 10
240.680842
 20
165.0
 30
0.0
 11
240.680842
 21
161.526506
 31
0.0
  0
LINE
  5
1B10
100
AcDbEntity
  8
MSL2_180_3F-7
100
AcDbLine
 10
240.680842
 20
165.0
 30
0.0
 11
237.207347
 21
165.0
 31
0.0
  0
CIRCLE
  5
1B11
100
AcDbEntity
  8
MSL2_180_3F-0
100
AcDbCircle
 10
240.680842
 20
164.965783
 30
0.0
 40
2.5
  0
LINE
  5
1B12
100
AcDbEntity
  8
MSL2_180_3F-7
100
AcDbLine
 10
240.680842
 20
165.0
 30
0.0
 11
244.154336
 21
165.0
 31
0.0
  0
LINE
  5
1B13
100
AcDbEntity
  8
MSL2_180_3F-7
100
AcDbLine
 10
240.680842
 20
165.0
 30
0.0
 11
240.680842
 21
168.473494
 31
0.0
  0
LINE
  5
1B14
100
AcDbEntity
  8
MSL2_180_3F-7
100
AcDbLine
 10
251.930842
 20
165.0
 30
0.0
 11
259.430842
 21
165.0
 31
0.0
  0
ARC
  5
1B15
100
AcDbEntity
  8
MSL2_180_3F-4
100
AcDbCircle
 10
255.680842
 20
165.0
 30
0.0
 40
2.5
100
AcDbArc
 50
172.405357
 51
104.931417
  0
CIRCLE
  5
1B16
100
AcDbEntity
  8
MSL2_180_3F-0
100
AcDbCircle
 10
255.680842
 20
165.0
 30
0.0
 40
2.067
  0
LINE
  5
1B17
100
AcDbEntity
  8
MSL2_180_3F-0
100
AcDbLine
 10
238.180842
 20
194.0
 30
0.0
 11
230.180842
 21
194.0
 31
0.0
  0
LINE
  5
1B18
100
AcDbEntity
  8
MSL2_180_3F-0
100
AcDbLine
 10
225.180842
 20
194.0
 30
0.0
 11
217.180842
 21
194.0
 31
0.0
  0
LINE
  5
1B19
100
AcDbEntity
  8
MSL2_180_3F-0
100
AcDbLine
 10
215.680842
 20
192.5
 30
0.0
 11
215.680842
 21
190.0
 31
0.0
  0
ARC
  5
1B1A
100
AcDbEntity
  8
MSL2_180_3F-0
100
AcDbCircle
 10
217.180842
 20
192.5
 30
0.0
 40
1.5
100
AcDbArc
 50
90.000001
 51
180.0
  0
LINE
  5
1B1B
100
AcDbEntity
  8
MSL2_180_3F-0
100
AcDbLine
 10
226.680842
 20
190.0
 30
0.0
 11
226.680842
 21
192.5
 31
0.0
  0
LINE
  5
1B1C
100
AcDbEntity
  8
MSL2_180_3F-0
100
AcDbLine
 10
228.680842
 20
192.5
 30
0.0
 11
228.680842
 21
190.0
 31
0.0
  0
LINE
  5
1B1D
100
AcDbEntity
  8
MSL2_180_3F-7
100
AcDbLine
 10
221.180842
 20
187.301616
 30
0.0
 11
221.180842
 21
195.992834
 31
0.0
  0
ARC
  5
1B1E
100
AcDbEntity
  8
MSL2_180_3F-0
100
AcDbCircle
 10
225.180842
 20
192.5
 30
0.0
 40
1.5
100
AcDbArc
 50
359.999998
 51
90.000001
  0
ARC
  5
1B1F
100
AcDbEntity
  8
MSL2_180_3F-0
100
AcDbCircle
 10
230.180842
 20
192.5
 30
0.0
 40
1.5
100
AcDbArc
 50
90.000001
 51
180.0
  0
LINE
  5
1B20
100
AcDbEntity
  8
MSL2_180_3F-0
100
AcDbLine
 10
239.680842
 20
190.0
 30
0.0
 11
239.680842
 21
192.5
 31
0.0
  0
LINE
  5
1B21
100
AcDbEntity
  8
MSL2_180_3F-7
100
AcDbLine
 10
234.180842
 20
187.301616
 30
0.0
 11
234.180842
 21
195.992834
 31
0.0
  0
ARC
  5
1B22
100
AcDbEntity
  8
MSL2_180_3F-0
100
AcDbCircle
 10
238.180842
 20
192.5
 30
0.0
 40
1.5
100
AcDbArc
 50
359.999998
 51
90.000001
  0
LINE
  5
1B23
100
AcDbEntity
  8
MSL2_180_3F-7
100
AcDbLine
 10
315.680842
 20
193.717185
 30
0.0
 11
315.680842
 21
177.519161
 31
0.0
  0
LINE
  5
1B24
100
AcDbEntity
  8
MSL2_180_3F-7
100
AcDbLine
 10
300.680842
 20
193.717185
 30
0.0
 11
300.680842
 21
177.519161
 31
0.0
  0
LINE
  5
1B25
100
AcDbEntity
  8
MSL2_180_3F-7
100
AcDbLine
 10
270.680842
 20
193.717185
 30
0.0
 11
270.680842
 21
177.519161
 31
0.0
  0
LINE
  5
1B26
100
AcDbEntity
  8
MSL2_180_3F-7
100
AcDbLine
 10
285.680842
 20
193.717185
 30
0.0
 11
285.680842
 21
177.519161
 31
0.0
  0
LINE
  5
1B27
100
AcDbEntity
  8
MSL2_180_3F-7
100
AcDbLine
 10
285.680842
 20
161.25
 30
0.0
 11
285.680842
 21
168.75
 31
0.0
  0
LINE
  5
1B28
100
AcDbEntity
  8
MSL2_180_3F-7
100
AcDbLine
 10
270.680842
 20
165.0
 30
0.0
 11
270.680842
 21
161.526506
 31
0.0
  0
LINE
  5
1B29
100
AcDbEntity
  8
MSL2_180_3F-7
100
AcDbLine
 10
270.680842
 20
165.0
 30
0.0
 11
267.207347
 21
165.0
 31
0.0
  0
CIRCLE
  5
1B2A
100
AcDbEntity
  8
MSL2_180_3F-0
100
AcDbCircle
 10
270.680842
 20
164.965783
 30
0.0
 40
2.5
  0
LINE
  5
1B2B
100
AcDbEntity
  8
MSL2_180_3F-7
100
AcDbLine
 10
270.680842
 20
165.0
 30
0.0
 11
274.154336
 21
165.0
 31
0.0
  0
LINE
  5
1B2C
100
AcDbEntity
  8
MSL2_180_3F-7
100
AcDbLine
 10
270.680842
 20
165.0
 30
0.0
 11
270.680842
 21
168.473494
 31
0.0
  0
LINE
  5
1B2D
100
AcDbEntity
  8
MSL2_180_3F-7
100
AcDbLine
 10
281.930842
 20
165.0
 30
0.0
 11
289.430842
 21
165.0
 31
0.0
  0
CIRCLE
  5
1B2E
100
AcDbEntity
  8
MSL2_180_3F-0
100
AcDbCircle
 10
285.680842
 20
165.0
 30
0.0
 40
2.067
  0
ARC
  5
1B2F
100
AcDbEntity
  8
MSL2_180_3F-4
100
AcDbCircle
 10
285.680842
 20
165.0
 30
0.0
 40
2.5
100
AcDbArc
 50
172.405357
 51
104.931417
  0
LINE
  5
1B30
100
AcDbEntity
  8
MSL2_180_3F-7
100
AcDbLine
 10
315.680842
 20
161.25
 30
0.0
 11
315.680842
 21
168.75
 31
0.0
  0
LINE
  5
1B31
100
AcDbEntity
  8
MSL2_180_3F-7
100
AcDbLine
 10
300.680842
 20
165.0
 30
0.0
 11
300.680842
 21
161.526506
 31
0.0
  0
LINE
  5
1B32
100
AcDbEntity
  8
MSL2_180_3F-7
100
AcDbLine
 10
300.680842
 20
165.0
 30
0.0
 11
297.207347
 21
165.0
 31
0.0
  0
CIRCLE
  5
1B33
100
AcDbEntity
  8
MSL2_180_3F-0
100
AcDbCircle
 10
300.680842
 20
164.965783
 30
0.0
 40
2.5
  0
LINE
  5
1B34
100
AcDbEntity
  8
MSL2_180_3F-7
100
AcDbLine
 10
300.680842
 20
165.0
 30
0.0
 11
304.154336
 21
165.0
 31
0.0
  0
LINE
  5
1B35
100
AcDbEntity
  8
MSL2_180_3F-7
100
AcDbLine
 10
300.680842
 20
165.0
 30
0.0
 11
300.680842
 21
168.473494
 31
0.0
  0
LINE
  5
1B36
100
AcDbEntity
  8
MSL2_180_3F-7
100
AcDbLine
 10
311.930842
 20
165.0
 30
0.0
 11
319.430842
 21
165.0
 31
0.0
  0
ARC
  5
1B37
100
AcDbEntity
  8
MSL2_180_3F-4
100
AcDbCircle
 10
315.680842
 20
165.0
 30
0.0
 40
2.5
100
AcDbArc
 50
172.405357
 51
104.931417
  0
CIRCLE
  5
1B38
100
AcDbEntity
  8
MSL2_180_3F-0
100
AcDbCircle
 10
315.680842
 20
165.0
 30
0.0
 40
2.067
  0
LINE
  5
1B39
100
AcDbEntity
  8
MSL2_180_3F-0
100
AcDbLine
 10
423.680842
 20
-100.721056
 30
0.0
 11
603.70782
 21
-100.721056
 31
0.0
  0
LINE
  5
1B3A
100
AcDbEntity
  8
MSL2_180_3F-0
100
AcDbLine
 10
603.70782
 20
-112.721056
 30
0.0
 11
423.680842
 21
-112.721056
 31
0.0
  0
LINE
  5
1B3B
100
AcDbEntity
  8
MSL2_180_3F-7
100
AcDbLine
 10
641.029727
 20
50.0
 30
0.0
 11
415.956959
 21
50.0
 31
0.0
  0
LINE
  5
1B3C
100
AcDbEntity
  8
MSL2_180_3F-7
100
AcDbLine
 10
416.221026
 20
30.0
 30
0.0
 11
637.503342
 21
30.0
 31
0.0
  0
LINE
  5
1B3D
100
AcDbEntity
  8
MSL2_180_3F-7
100
AcDbLine
 10
641.029727
 20
0.0
 30
0.0
 11
415.956959
 21
0.0
 31
0.0
  0
LINE
  5
1B3E
100
AcDbEntity
  8
MSL2_180_3F-7
100
AcDbLine
 10
641.029727
 20
-106.721056
 30
0.0
 11
416.656661
 21
-106.721056
 31
0.0
  0
LINE
  5
1B3F
100
AcDbEntity
  8
MSL2_180_3F-7
100
AcDbLine
 10
641.029727
 20
-161.721056
 30
0.0
 11
416.656661
 21
-161.721056
 31
0.0
  0
LINE
  5
1B40
100
AcDbEntity
  8
MSL2_180_3F-0
100
AcDbLine
 10
621.680842
 20
-128.221056
 30
0.0
 11
420.680842
 21
-128.221056
 31
0.0
  0
LINE
  5
1B41
100
AcDbEntity
  8
MSL2_180_3F-0
100
AcDbLine
 10
420.680842
 20
-140.221056
 30
0.0
 11
621.680842
 21
-140.221056
 31
0.0
  0
POLYLINE
  5
1B42
100
AcDbEntity
  8
MSL2_180_3F-0
100
AcDb2dPolyline
 66
     1
 10
0.0
 20
0.0
 30
0.0
  0
VERTEX
  5
1B43
100
AcDbEntity
  8
MSL2_180_3F-0
  6
CONTINUOUS
100
AcDbVertex
100
AcDb2dVertex
 10
621.680842
 20
-167.721056
 30
0.0
  0
VERTEX
  5
1B44
100
AcDbEntity
  8
MSL2_180_3F-0
  6
CONTINUOUS
100
AcDbVertex
100
AcDb2dVertex
 10
450.780842
 20
-167.721056
 30
0.0
  0
VERTEX
  5
1B45
100
AcDbEntity
  8
MSL2_180_3F-0
  6
CONTINUOUS
100
AcDbVertex
100
AcDb2dVertex
 10
429.680842
 20
-167.721056
 30
0.0
  0
SEQEND
  5
1B46
100
AcDbEntity
  8
MSL2_180_3F-0
  0
POLYLINE
  5
1B47
100
AcDbEntity
  8
MSL2_180_3F-0
100
AcDb2dPolyline
 66
     1
 10
0.0
 20
0.0
 30
0.0
  0
VERTEX
  5
1B48
100
AcDbEntity
  8
MSL2_180_3F-0
  6
CONTINUOUS
100
AcDbVertex
100
AcDb2dVertex
 10
450.780842
 20
-155.721056
 30
0.0
  0
VERTEX
  5
1B49
100
AcDbEntity
  8
MSL2_180_3F-0
  6
CONTINUOUS
100
AcDbVertex
100
AcDb2dVertex
 10
429.680842
 20
-155.721056
 30
0.0
  0
VERTEX
  5
1B4A
100
AcDbEntity
  8
MSL2_180_3F-0
  6
CONTINUOUS
100
AcDbVertex
100
AcDb2dVertex
 10
621.680842
 20
-155.721056
 30
0.0
  0
SEQEND
  5
1B4B
100
AcDbEntity
  8
MSL2_180_3F-0
  0
LINE
  5
1B4C
100
AcDbEntity
  8
MSL2_180_3F-3
100
AcDbLine
 10
435.680842
 20
-131.221056
 30
0.0
 11
621.680842
 21
-131.221056
 31
0.0
1001
GENIUS_GENBH_13
1002
{
1000
OE
1000
CON1
1002
}
1001
GENIUS_GENOREF_13
1005
1D03
  0
LINE
  5
1B4D
100
AcDbEntity
  8
MSL2_180_3F-3
100
AcDbLine
 10
621.680842
 20
-137.221056
 30
0.0
 11
435.680842
 21
-137.221056
 31
0.0
1001
GENIUS_GENBH_13
1002
{
1000
OE
1000
CON1
1002
}
1001
GENIUS_GENOREF_13
1005
1D03
  0
LINE
  5
1B4E
100
AcDbEntity
  8
MSL2_180_3F-0
100
AcDbLine
 10
621.680842
 20
56.0
 30
0.0
 11
420.680842
 21
56.0
 31
0.0
  0
LINE
  5
1B4F
100
AcDbEntity
  8
MSL2_180_3F-0
100
AcDbLine
 10
420.680842
 20
44.0
 30
0.0
 11
621.680842
 21
44.0
 31
0.0
  0
LINE
  5
1B50
100
AcDbEntity
  8
MSL2_180_3F-0
100
AcDbLine
 10
621.680842
 20
6.0
 30
0.0
 11
420.680842
 21
6.0
 31
0.0
  0
LINE
  5
1B51
100
AcDbEntity
  8
MSL2_180_3F-0
100
AcDbLine
 10
420.680842
 20
-6.0
 30
0.0
 11
621.680842
 21
-6.0
 31
0.0
  0
LINE
  5
1B52
100
AcDbEntity
  8
MSL2_180_3F-0
100
AcDbLine
 10
429.680842
 20
-159.671056
 30
0.0
 11
440.780842
 21
-159.671056
 31
0.0
  0
LINE
  5
1B53
100
AcDbEntity
  8
MSL2_180_3F-0
100
AcDbLine
 10
429.680842
 20
-163.771056
 30
0.0
 11
440.780842
 21
-163.771056
 31
0.0
  0
LINE
  5
1B54
100
AcDbEntity
  8
MSL2_180_3F-0
100
AcDbLine
 10
429.680842
 20
-155.721056
 30
0.0
 11
429.680842
 21
-167.721056
 31
0.0
  0
LINE
  5
1B55
100
AcDbEntity
  8
MSL2_180_3F-0
100
AcDbLine
 10
428.680842
 20
-154.721056
 30
0.0
 11
428.680842
 21
-168.721056
 31
0.0
  0
LINE
  5
1B56
100
AcDbEntity
  8
MSL2_180_3F-0
100
AcDbLine
 10
420.680842
 20
-94.221056
 30
0.0
 11
420.680842
 21
-174.221056
 31
0.0
  0
LINE
  5
1B57
100
AcDbEntity
  8
MSL2_180_3F-0
100
AcDbLine
 10
400.480842
 20
-149.178529
 30
0.0
 11
400.480842
 21
-166.031507
 31
0.0
  0
LINE
  5
1B58
100
AcDbEntity
  8
MSL2_180_3F-0
100
AcDbLine
 10
400.480842
 20
-166.031507
 30
0.0
 11
420.180842
 21
-166.031507
 31
0.0
  0
LINE
  5
1B59
100
AcDbEntity
  8
MSL2_180_3F-0
100
AcDbLine
 10
428.680842
 20
-168.721056
 30
0.0
 11
420.680842
 21
-168.721056
 31
0.0
  0
LINE
  5
1B5A
100
AcDbEntity
  8
MSL2_180_3F-0
100
AcDbLine
 10
420.180842
 20
-166.031507
 30
0.0
 11
420.180842
 21
-173.221056
 31
0.0
  0
LINE
  5
1B5B
100
AcDbEntity
  8
MSL2_180_3F-0
100
AcDbLine
 10
429.680842
 20
-167.721056
 30
0.0
 11
428.680842
 21
-168.721056
 31
0.0
  0
LINE
  5
1B5C
100
AcDbEntity
  8
MSL2_180_3F-7
100
AcDbLine
 10
360.680842
 20
-122.76929
 30
0.0
 11
360.680842
 21
-145.585862
 31
0.0
  0
LINE
  5
1B5D
100
AcDbEntity
  8
MSL2_180_3F-7
100
AcDbLine
 10
330.680842
 20
-122.76929
 30
0.0
 11
330.680842
 21
-145.585862
 31
0.0
  0
LINE
  5
1B5E
100
AcDbEntity
  8
MSL2_180_3F-7
100
AcDbLine
 10
345.680842
 20
-152.971056
 30
0.0
 11
345.680842
 21
-145.471056
 31
0.0
  0
LINE
  5
1B5F
100
AcDbEntity
  8
MSL2_180_3F-7
100
AcDbLine
 10
330.680842
 20
-149.221056
 30
0.0
 11
330.680842
 21
-145.613862
 31
0.0
  0
LINE
  5
1B60
100
AcDbEntity
  8
MSL2_180_3F-7
100
AcDbLine
 10
330.680842
 20
-149.221056
 30
0.0
 11
327.073648
 21
-149.221056
 31
0.0
  0
CIRCLE
  5
1B61
100
AcDbEntity
  8
MSL2_180_3F-3
100
AcDbCircle
 10
330.680842
 20
-149.221056
 30
0.0
 40
2.5
  0
LINE
  5
1B62
100
AcDbEntity
  8
MSL2_180_3F-7
100
AcDbLine
 10
330.680842
 20
-149.221056
 30
0.0
 11
330.680842
 21
-152.82825
 31
0.0
  0
LINE
  5
1B63
100
AcDbEntity
  8
MSL2_180_3F-7
100
AcDbLine
 10
330.680842
 20
-149.221056
 30
0.0
 11
334.288036
 21
-149.221056
 31
0.0
  0
LINE
  5
1B64
100
AcDbEntity
  8
MSL2_180_3F-7
100
AcDbLine
 10
341.930842
 20
-149.221056
 30
0.0
 11
349.430842
 21
-149.221056
 31
0.0
  0
CIRCLE
  5
1B65
100
AcDbEntity
  8
MSL2_180_3F-3
100
AcDbCircle
 10
345.680842
 20
-149.221056
 30
0.0
 40
2.067
  0
ARC
  5
1B66
100
AcDbEntity
  8
MSL2_180_3F-3
100
AcDbCircle
 10
345.680842
 20
-149.221056
 30
0.0
 40
2.5
100
AcDbArc
 50
172.405357
 51
104.931417
  0
LINE
  5
1B67
100
AcDbEntity
  8
MSL2_180_3F-7
100
AcDbLine
 10
375.680842
 20
-152.971056
 30
0.0
 11
375.680842
 21
-145.471056
 31
0.0
  0
LINE
  5
1B68
100
AcDbEntity
  8
MSL2_180_3F-7
100
AcDbLine
 10
360.680842
 20
-149.221056
 30
0.0
 11
360.680842
 21
-145.613862
 31
0.0
  0
LINE
  5
1B69
100
AcDbEntity
  8
MSL2_180_3F-7
100
AcDbLine
 10
360.680842
 20
-149.221056
 30
0.0
 11
357.073648
 21
-149.221056
 31
0.0
  0
LINE
  5
1B6A
100
AcDbEntity
  8
MSL2_180_3F-7
100
AcDbLine
 10
360.680842
 20
-149.221056
 30
0.0
 11
360.680842
 21
-152.82825
 31
0.0
  0
LINE
  5
1B6B
100
AcDbEntity
  8
MSL2_180_3F-7
100
AcDbLine
 10
360.680842
 20
-149.221056
 30
0.0
 11
364.288036
 21
-149.221056
 31
0.0
  0
CIRCLE
  5
1B6C
100
AcDbEntity
  8
MSL2_180_3F-3
100
AcDbCircle
 10
360.680842
 20
-149.221056
 30
0.0
 40
2.5
  0
LINE
  5
1B6D
100
AcDbEntity
  8
MSL2_180_3F-7
100
AcDbLine
 10
371.930842
 20
-149.221056
 30
0.0
 11
379.430842
 21
-149.221056
 31
0.0
  0
ARC
  5
1B6E
100
AcDbEntity
  8
MSL2_180_3F-3
100
AcDbCircle
 10
375.680842
 20
-149.221056
 30
0.0
 40
2.5
100
AcDbArc
 50
172.405357
 51
104.931417
  0
CIRCLE
  5
1B6F
100
AcDbEntity
  8
MSL2_180_3F-3
100
AcDbCircle
 10
375.680842
 20
-149.221056
 30
0.0
 40
2.067
  0
CIRCLE
  5
1B70
100
AcDbEntity
  8
MSL2_180_3F-3
100
AcDbCircle
 10
330.680842
 20
-119.255273
 30
0.0
 40
2.5
  0
LINE
  5
1B71
100
AcDbEntity
  8
MSL2_180_3F-7
100
AcDbLine
 10
330.680842
 20
-119.221056
 30
0.0
 11
330.680842
 21
-115.747562
 31
0.0
  0
LINE
  5
1B72
100
AcDbEntity
  8
MSL2_180_3F-7
100
AcDbLine
 10
330.680842
 20
-119.221056
 30
0.0
 11
327.207347
 21
-119.221056
 31
0.0
  0
LINE
  5
1B73
100
AcDbEntity
  8
MSL2_180_3F-7
100
AcDbLine
 10
330.680842
 20
-119.221056
 30
0.0
 11
330.680842
 21
-122.69455
 31
0.0
  0
LINE
  5
1B74
100
AcDbEntity
  8
MSL2_180_3F-7
100
AcDbLine
 10
330.680842
 20
-119.221056
 30
0.0
 11
334.154336
 21
-119.221056
 31
0.0
  0
ARC
  5
1B75
100
AcDbEntity
  8
MSL2_180_3F-3
100
AcDbCircle
 10
345.680842
 20
-119.221056
 30
0.0
 40
2.5
100
AcDbArc
 50
172.405357
 51
104.931417
  0
LINE
  5
1B76
100
AcDbEntity
  8
MSL2_180_3F-7
100
AcDbLine
 10
345.680842
 20
-122.971056
 30
0.0
 11
345.680842
 21
-115.471056
 31
0.0
  0
LINE
  5
1B77
100
AcDbEntity
  8
MSL2_180_3F-7
100
AcDbLine
 10
341.930842
 20
-119.221056
 30
0.0
 11
349.430842
 21
-119.221056
 31
0.0
  0
CIRCLE
  5
1B78
100
AcDbEntity
  8
MSL2_180_3F-3
100
AcDbCircle
 10
345.680842
 20
-119.221056
 30
0.0
 40
2.067
  0
CIRCLE
  5
1B79
100
AcDbEntity
  8
MSL2_180_3F-3
100
AcDbCircle
 10
360.680842
 20
-119.255273
 30
0.0
 40
2.5
  0
LINE
  5
1B7A
100
AcDbEntity
  8
MSL2_180_3F-7
100
AcDbLine
 10
360.680842
 20
-119.221056
 30
0.0
 11
360.680842
 21
-115.747562
 31
0.0
  0
LINE
  5
1B7B
100
AcDbEntity
  8
MSL2_180_3F-7
100
AcDbLine
 10
360.680842
 20
-119.221056
 30
0.0
 11
357.207347
 21
-119.221056
 31
0.0
  0
LINE
  5
1B7C
100
AcDbEntity
  8
MSL2_180_3F-7
100
AcDbLine
 10
360.680842
 20
-119.221056
 30
0.0
 11
360.680842
 21
-122.69455
 31
0.0
  0
LINE
  5
1B7D
100
AcDbEntity
  8
MSL2_180_3F-7
100
AcDbLine
 10
360.680842
 20
-119.221056
 30
0.0
 11
364.154336
 21
-119.221056
 31
0.0
  0
ARC
  5
1B7E
100
AcDbEntity
  8
MSL2_180_3F-3
100
AcDbCircle
 10
375.680842
 20
-119.221056
 30
0.0
 40
2.5
100
AcDbArc
 50
172.405357
 51
104.931417
  0
LINE
  5
1B7F
100
AcDbEntity
  8
MSL2_180_3F-7
100
AcDbLine
 10
375.680842
 20
-122.971056
 30
0.0
 11
375.680842
 21
-115.471056
 31
0.0
  0
LINE
  5
1B80
100
AcDbEntity
  8
MSL2_180_3F-7
100
AcDbLine
 10
371.930842
 20
-119.221056
 30
0.0
 11
379.430842
 21
-119.221056
 31
0.0
  0
CIRCLE
  5
1B81
100
AcDbEntity
  8
MSL2_180_3F-3
100
AcDbCircle
 10
375.680842
 20
-119.221056
 30
0.0
 40
2.067
  0
LINE
  5
1B82
100
AcDbEntity
  8
MSL2_180_3F-0
100
AcDbLine
 10
435.680842
 20
-128.221056
 30
0.0
 11
435.680842
 21
-126.221056
 31
0.0
1001
GENIUS_GENOREF_13
1005
1D03
  0
LINE
  5
1B83
100
AcDbEntity
  8
MSL2_180_3F-0
100
AcDbLine
 10
434.680842
 20
-128.221056
 30
0.0
 11
434.680842
 21
-125.221056
 31
0.0
1001
GENIUS_GENOREF_13
1005
1D03
  0
LINE
  5
1B84
100
AcDbEntity
  8
MSL2_180_3F-0
100
AcDbLine
 10
420.180842
 20
-95.221056
 30
0.0
 11
420.180842
 21
-149.178529
 31
0.0
  0
ELLIPSE
  5
1B85
100
AcDbEntity
  8
MSL2_180_3F-0
100
AcDbEllipse
 10
410.780842
 20
-157.528413
 30
0.0
 11
4.283225000000015
 21
0.0
 31
0.0
210
0.0
220
0.0
230
1.0
 40
0.766044
 41
0.0000000000000693
 42
6.283185307179669
  0
ELLIPSE
  5
1B86
100
AcDbEntity
  8
MSL2_180_3F-4
100
AcDbEllipse
 10
410.780842
 20
-157.528413
 30
0.0
 11
-4.863999999999981
 21
0.0000000000000972
 31
0.0
210
0.0
220
0.0
230
1.0
 40
0.766044
 41
1.503876197756
 42
6.396900936057238
  0
LINE
  5
1B87
100
AcDbEntity
  8
MSL2_180_3F-0
100
AcDbLine
 10
420.180842
 20
-149.178529
 30
0.0
 11
400.480842
 21
-149.178529
 31
0.0
  0
LINE
  5
1B88
100
AcDbEntity
  8
MSL2_180_3F-7
100
AcDbLine
 10
402.916842
 20
-157.528413
 30
0.0
 11
418.644842
 21
-157.528413
 31
0.0
1001
GENIUS_GENODEF_13
1002
{
1000
HIER
1070
     0
1002
}
1002
{
1000
MANEDIT
1070
     0
1002
}
1002
{
1000
NOSEL
1070
     0
1002
}
1002
{
1000
BEHIND
1070
     0
1002
}
1002
{
1000
REACTOR
1002
}
1001
GENIUS_GENOBJ-N-CEN_13
1002
{
1000
OWNER
1000
GEN
1002
}
  0
LINE
  5
1B89
100
AcDbEntity
  8
MSL2_180_3F-0
100
AcDbLine
 10
420.680842
 20
-154.721056
 30
0.0
 11
428.680842
 21
-154.721056
 31
0.0
  0
LINE
  5
1B8A
100
AcDbEntity
  8
MSL2_180_3F-7
100
AcDbLine
 10
410.780842
 20
-150.802373
 30
0.0
 11
410.780842
 21
-164.355455
 31
0.0
1001
GENIUS_GENODEF_13
1002
{
1000
HIER
1070
     0
1002
}
1002
{
1000
MANEDIT
1070
     0
1002
}
1002
{
1000
NOSEL
1070
     0
1002
}
1002
{
1000
BEHIND
1070
     0
1002
}
1002
{
1000
REACTOR
1002
}
1001
GENIUS_GENOBJ-N-CEN_13
1002
{
1000
OWNER
1000
GEN
1002
}
  0
LINE
  5
1B8B
100
AcDbEntity
  8
MSL2_180_3F-0
100
AcDbLine
 10
428.680842
 20
-154.721056
 30
0.0
 11
429.680842
 21
-155.721056
 31
0.0
  0
LINE
  5
1B8C
100
AcDbEntity
  8
MSL2_180_3F-0
100
AcDbLine
 10
420.680842
 20
-143.221056
 30
0.0
 11
434.680842
 21
-143.221056
 31
0.0
  0
LINE
  5
1B8D
100
AcDbEntity
  8
MSL2_180_3F-3
100
AcDbLine
 10
434.680842
 20
-140.221056
 30
0.0
 11
434.680842
 21
-128.221056
 31
0.0
1001
GENIUS_GENBH_13
1002
{
1000
OE
1000
CON1
1002
}
1001
GENIUS_GENOREF_13
1005
1D03
  0
LINE
  5
1B8E
100
AcDbEntity
  8
MSL2_180_3F-3
100
AcDbLine
 10
435.680842
 20
-140.221056
 30
0.0
 11
435.680842
 21
-128.221056
 31
0.0
1001
GENIUS_GENBH_13
1002
{
1000
OE
1000
CON1
1002
}
1001
GENIUS_GENOREF_13
1005
1D03
  0
LINE
  5
1B8F
100
AcDbEntity
  8
MSL2_180_3F-0
100
AcDbLine
 10
435.680842
 20
-142.221056
 30
0.0
 11
435.680842
 21
-140.221056
 31
0.0
1001
GENIUS_GENOREF_13
1005
1D03
  0
LINE
  5
1B90
100
AcDbEntity
  8
MSL2_180_3F-0
100
AcDbLine
 10
434.680842
 20
-143.221056
 30
0.0
 11
434.680842
 21
-140.221056
 31
0.0
1001
GENIUS_GENOREF_13
1005
1D03
  0
LINE
  5
1B91
100
AcDbEntity
  8
MSL2_180_3F-0
100
AcDbLine
 10
434.680842
 20
-143.221056
 30
0.0
 11
435.680842
 21
-142.221056
 31
0.0
  0
LINE
  5
1B92
100
AcDbEntity
  8
MSL2_180_3F-0
100
AcDbLine
 10
420.180842
 20
-95.221056
 30
0.0
 11
397.347691
 21
-95.221056
 31
0.0
  0
LINE
  5
1B93
100
AcDbEntity
  8
MSL2_180_3F-0
100
AcDbLine
 10
396.660859
 20
-94.221056
 30
0.0
 11
420.680842
 21
-94.221056
 31
0.0
  0
ELLIPSE
  5
1B94
100
AcDbEntity
  8
MSL2_180_3F-0
100
AcDbEllipse
 10
392.180845
 20
-98.400657
 30
0.0
 11
-5.499999999998918
 21
-0.0000090659720686
 31
0.0
210
0.0
220
0.0
230
-1.0
 40
0.766044
 41
3.141592653589766
 42
6.283185307179614
  0
ELLIPSE
  5
1B95
100
AcDbEntity
  8
MSL2_180_3F-0
100
AcDbEllipse
 10
392.180842
 20
-96.665139
 30
0.0
 11
-5.500000000006366
 21
0.0
 31
0.0
210
0.0
220
0.0
230
1.0
 40
0.766044
 41
0.000000000000054
 42
6.283185307179654
  0
LINE
  5
1B96
100
AcDbEntity
  8
MSL2_180_3F-7
100
AcDbLine
 10
400.680842
 20
-96.665128
 30
0.0
 11
383.680842
 21
-96.665142
 31
0.0
1001
GENIUS_GENODEF_13
1002
{
1000
HIER
1070
     0
1002
}
1002
{
1000
MANEDIT
1070
     0
1002
}
1002
{
1000
NOSEL
1070
     0
1002
}
1002
{
1000
BEHIND
1070
     0
1002
}
1002
{
1000
REACTOR
1002
}
1001
GENIUS_GENOBJ-N-CEN_13
1002
{
1000
OWNER
1000
GEN
1002
}
  0
ELLIPSE
  5
1B97
100
AcDbEntity
  8
MSL2_180_3F-0
100
AcDbEllipse
 10
392.180842
 20
-96.665139
 30
0.0
 11
-2.000000000006366
 21
0.0
 31
0.0
210
0.0
220
0.0
230
1.0
 40
0.766044
 41
0.0000000000000742
 42
6.283185307179675
  0
LINE
  5
1B98
100
AcDbEntity
  8
MSL2_180_3F-0
100
AcDbLine
 10
386.680845
 20
-98.400666
 30
0.0
 11
386.680842
 21
-96.665139
 31
0.0
  0
LINE
  5
1B99
100
AcDbEntity
  8
MSL2_180_3F-7
100
AcDbLine
 10
392.180842
 20
-103.878383
 30
0.0
 11
392.180842
 21
-89.451895
 31
0.0
1001
GENIUS_GENODEF_13
1002
{
1000
HIER
1070
     0
1002
}
1002
{
1000
MANEDIT
1070
     0
1002
}
1002
{
1000
NOSEL
1070
     0
1002
}
1002
{
1000
BEHIND
1070
     0
1002
}
1002
{
1000
REACTOR
1002
}
1001
GENIUS_GENOBJ-N-CEN_13
1002
{
1000
OWNER
1000
GEN
1002
}
  0
LINE
  5
1B9A
100
AcDbEntity
  8
MSL2_180_3F-0
100
AcDbLine
 10
394.180842
 20
-96.665121
 30
0.0
 11
392.18084
 21
-95.379555
 31
0.0
  0
LINE
  5
1B9B
100
AcDbEntity
  8
MSL2_180_3F-0
100
AcDbLine
 10
392.18084
 20
-95.379555
 30
0.0
 11
390.180842
 21
-96.665133
 31
0.0
  0
LINE
  5
1B9C
100
AcDbEntity
  8
MSL2_180_3F-0
100
AcDbLine
 10
397.680845
 20
-98.400657
 30
0.0
 11
397.680842
 21
-96.665112
 31
0.0
  0
ARC
  5
1B9D
100
AcDbEntity
  8
MSL2_180_3F-0
100
AcDbCircle
 10
413.046119
 20
-106.721056
 30
0.0
 40
10.634722
100
AcDbArc
 50
332.518771
 51
27.481229
  0
LINE
  5
1B9E
100
AcDbEntity
  8
MSL2_180_3F-0
100
AcDbLine
 10
423.680842
 20
-99.35984
 30
0.0
 11
423.680842
 21
-114.082272
 31
0.0
  0
ARC
  5
1B9F
100
AcDbEntity
  8
MSL2_180_3F-0
100
AcDbCircle
 10
420.572161
 20
-114.082272
 30
0.0
 40
3.108681
100
AcDbArc
 50
307.878142
 51
52.121858
  0
LINE
  5
1BA0
100
AcDbEntity
  8
MSL2_180_3F-0
100
AcDbLine
 10
434.680842
 20
-125.221056
 30
0.0
 11
420.680842
 21
-125.221056
 31
0.0
  0
LINE
  5
1BA1
100
AcDbEntity
  8
MSL2_180_3F-0
100
AcDbLine
 10
422.480842
 20
-111.628533
 30
0.0
 11
420.680842
 21
-111.628533
 31
0.0
  0
LINE
  5
1BA2
100
AcDbEntity
  8
MSL2_180_3F-0
100
AcDbLine
 10
422.480842
 20
-116.536011
 30
0.0
 11
420.680842
 21
-116.536011
 31
0.0
  0
LINE
  5
1BA3
100
AcDbEntity
  8
MSL2_180_3F-0
100
AcDbLine
 10
435.680842
 20
-126.221056
 30
0.0
 11
434.680842
 21
-125.221056
 31
0.0
  0
ARC
  5
1BA4
100
AcDbEntity
  8
MSL2_180_3F-0
100
AcDbCircle
 10
420.572161
 20
-99.35984
 30
0.0
 40
3.108681
100
AcDbArc
 50
307.878142
 51
52.121858
  0
LINE
  5
1BA5
100
AcDbEntity
  8
MSL2_180_3F-0
100
AcDbLine
 10
422.480842
 20
-101.813579
 30
0.0
 11
420.680842
 21
-101.813579
 31
0.0
  0
LINE
  5
1BA6
100
AcDbEntity
  8
MSL2_180_3F-0
100
AcDbLine
 10
422.480842
 20
-96.906101
 30
0.0
 11
420.680842
 21
-96.906101
 31
0.0
  0
LINE
  5
1BA7
100
AcDbEntity
  8
MSL2_180_3F-0
100
AcDbLine
 10
451.780842
 20
-156.721056
 30
0.0
 11
451.780842
 21
-166.721056
 31
0.0
  0
LINE
  5
1BA8
100
AcDbEntity
  8
MSL2_180_3F-0
100
AcDbLine
 10
450.780842
 20
-155.721056
 30
0.0
 11
450.780842
 21
-167.721056
 31
0.0
  0
LINE
  5
1BA9
100
AcDbEntity
  8
MSL2_180_3F-0
100
AcDbLine
 10
440.780842
 20
-167.721056
 30
0.0
 11
440.780842
 21
-155.721056
 31
0.0
  0
LINE
  5
1BAA
100
AcDbEntity
  8
MSL2_180_3F-0
100
AcDbLine
 10
450.780842
 20
-167.721056
 30
0.0
 11
440.780842
 21
-167.721056
 31
0.0
  0
LINE
  5
1BAB
100
AcDbEntity
  8
MSL2_180_3F-0
100
AcDbLine
 10
451.780842
 20
-166.721056
 30
0.0
 11
450.780842
 21
-167.721056
 31
0.0
  0
LINE
  5
1BAC
100
AcDbEntity
  8
MSL2_180_3F-0
100
AcDbLine
 10
440.780842
 20
-155.721056
 30
0.0
 11
450.780842
 21
-155.721056
 31
0.0
  0
LINE
  5
1BAD
100
AcDbEntity
  8
MSL2_180_3F-0
100
AcDbLine
 10
450.780842
 20
-155.721056
 30
0.0
 11
451.780842
 21
-156.721056
 31
0.0
  0
LINE
  5
1BAE
100
AcDbEntity
  8
MSL2_180_3F-0
100
AcDbLine
 10
429.680842
 20
32.05
 30
0.0
 11
440.780842
 21
32.05
 31
0.0
  0
LINE
  5
1BAF
100
AcDbEntity
  8
MSL2_180_3F-0
100
AcDbLine
 10
429.680842
 20
27.95
 30
0.0
 11
440.780842
 21
27.95
 31
0.0
  0
LINE
  5
1BB0
100
AcDbEntity
  8
MSL2_180_3F-0
100
AcDbLine
 10
420.680842
 20
-20.0
 30
0.0
 11
420.680842
 21
64.0
 31
0.0
  0
LINE
  5
1BB1
100
AcDbEntity
  8
MSL2_180_3F-7
100
AcDbLine
 10
360.680842
 20
11.451766
 30
0.0
 11
360.680842
 21
-11.364806
 31
0.0
  0
LINE
  5
1BB2
100
AcDbEntity
  8
MSL2_180_3F-7
100
AcDbLine
 10
330.680842
 20
11.451766
 30
0.0
 11
330.680842
 21
-11.364806
 31
0.0
  0
LINE
  5
1BB3
100
AcDbEntity
  8
MSL2_180_3F-7
100
AcDbLine
 10
330.680842
 20
-15.0
 30
0.0
 11
327.073648
 21
-15.0
 31
0.0
  0
CIRCLE
  5
1BB4
100
AcDbEntity
  8
MSL2_180_3F-0
100
AcDbCircle
 10
330.680842
 20
-15.0
 30
0.0
 40
2.5
  0
LINE
  5
1BB5
100
AcDbEntity
  8
MSL2_180_3F-7
100
AcDbLine
 10
330.680842
 20
-15.0
 30
0.0
 11
330.680842
 21
-11.392806
 31
0.0
  0
LINE
  5
1BB6
100
AcDbEntity
  8
MSL2_180_3F-7
100
AcDbLine
 10
330.680842
 20
-15.0
 30
0.0
 11
330.680842
 21
-18.607194
 31
0.0
  0
LINE
  5
1BB7
100
AcDbEntity
  8
MSL2_180_3F-7
100
AcDbLine
 10
330.680842
 20
-15.0
 30
0.0
 11
334.288036
 21
-15.0
 31
0.0
  0
LINE
  5
1BB8
100
AcDbEntity
  8
MSL2_180_3F-7
100
AcDbLine
 10
341.930842
 20
-15.0
 30
0.0
 11
349.430842
 21
-15.0
 31
0.0
  0
LINE
  5
1BB9
100
AcDbEntity
  8
MSL2_180_3F-7
100
AcDbLine
 10
345.680842
 20
-18.75
 30
0.0
 11
345.680842
 21
-11.25
 31
0.0
  0
CIRCLE
  5
1BBA
100
AcDbEntity
  8
MSL2_180_3F-0
100
AcDbCircle
 10
345.680842
 20
-15.0
 30
0.0
 40
2.067
  0
ARC
  5
1BBB
100
AcDbEntity
  8
MSL2_180_3F-4
100
AcDbCircle
 10
345.680842
 20
-15.0
 30
0.0
 40
2.5
100
AcDbArc
 50
172.405357
 51
104.931417
  0
LINE
  5
1BBC
100
AcDbEntity
  8
MSL2_180_3F-7
100
AcDbLine
 10
360.680842
 20
-15.0
 30
0.0
 11
357.073648
 21
-15.0
 31
0.0
  0
LINE
  5
1BBD
100
AcDbEntity
  8
MSL2_180_3F-7
100
AcDbLine
 10
360.680842
 20
-15.0
 30
0.0
 11
360.680842
 21
-18.607194
 31
0.0
  0
LINE
  5
1BBE
100
AcDbEntity
  8
MSL2_180_3F-7
100
AcDbLine
 10
360.680842
 20
-15.0
 30
0.0
 11
360.680842
 21
-11.392806
 31
0.0
  0
LINE
  5
1BBF
100
AcDbEntity
  8
MSL2_180_3F-7
100
AcDbLine
 10
360.680842
 20
-15.0
 30
0.0
 11
364.288036
 21
-15.0
 31
0.0
  0
CIRCLE
  5
1BC0
100
AcDbEntity
  8
MSL2_180_3F-0
100
AcDbCircle
 10
360.680842
 20
-15.0
 30
0.0
 40
2.5
  0
LINE
  5
1BC1
100
AcDbEntity
  8
MSL2_180_3F-7
100
AcDbLine
 10
371.930842
 20
-15.0
 30
0.0
 11
379.430842
 21
-15.0
 31
0.0
  0
LINE
  5
1BC2
100
AcDbEntity
  8
MSL2_180_3F-7
100
AcDbLine
 10
375.680842
 20
-18.75
 30
0.0
 11
375.680842
 21
-11.25
 31
0.0
  0
ARC
  5
1BC3
100
AcDbEntity
  8
MSL2_180_3F-4
100
AcDbCircle
 10
375.680842
 20
-15.0
 30
0.0
 40
2.5
100
AcDbArc
 50
172.405357
 51
104.931417
  0
CIRCLE
  5
1BC4
100
AcDbEntity
  8
MSL2_180_3F-0
100
AcDbCircle
 10
375.680842
 20
-15.0
 30
0.0
 40
2.067
  0
LINE
  5
1BC5
100
AcDbEntity
  8
MSL2_180_3F-7
100
AcDbLine
 10
330.680842
 20
15.0
 30
0.0
 11
330.680842
 21
18.473494
 31
0.0
  0
LINE
  5
1BC6
100
AcDbEntity
  8
MSL2_180_3F-7
100
AcDbLine
 10
330.680842
 20
15.0
 30
0.0
 11
327.207347
 21
15.0
 31
0.0
  0
CIRCLE
  5
1BC7
100
AcDbEntity
  8
MSL2_180_3F-0
100
AcDbCircle
 10
330.680842
 20
14.965783
 30
0.0
 40
2.5
  0
LINE
  5
1BC8
100
AcDbEntity
  8
MSL2_180_3F-7
100
AcDbLine
 10
330.680842
 20
15.0
 30
0.0
 11
330.680842
 21
11.526506
 31
0.0
  0
LINE
  5
1BC9
100
AcDbEntity
  8
MSL2_180_3F-7
100
AcDbLine
 10
330.680842
 20
15.0
 30
0.0
 11
334.154336
 21
15.0
 31
0.0
  0
LINE
  5
1BCA
100
AcDbEntity
  8
MSL2_180_3F-7
100
AcDbLine
 10
345.680842
 20
11.25
 30
0.0
 11
345.680842
 21
18.75
 31
0.0
  0
LINE
  5
1BCB
100
AcDbEntity
  8
MSL2_180_3F-7
100
AcDbLine
 10
341.930842
 20
15.0
 30
0.0
 11
349.430842
 21
15.0
 31
0.0
  0
ARC
  5
1BCC
100
AcDbEntity
  8
MSL2_180_3F-4
100
AcDbCircle
 10
345.680842
 20
15.0
 30
0.0
 40
2.5
100
AcDbArc
 50
172.405357
 51
104.931417
  0
CIRCLE
  5
1BCD
100
AcDbEntity
  8
MSL2_180_3F-0
100
AcDbCircle
 10
345.680842
 20
15.0
 30
0.0
 40
2.067
  0
LINE
  5
1BCE
100
AcDbEntity
  8
MSL2_180_3F-0
100
AcDbLine
 10
338.830842
 20
20.0
 30
0.0
 11
348.530842
 21
20.0
 31
0.0
  0
LINE
  5
1BCF
100
AcDbEntity
  8
MSL2_180_3F-7
100
AcDbLine
 10
360.680842
 20
15.0
 30
0.0
 11
360.680842
 21
18.473494
 31
0.0
  0
LINE
  5
1BD0
100
AcDbEntity
  8
MSL2_180_3F-7
100
AcDbLine
 10
360.680842
 20
15.0
 30
0.0
 11
357.207347
 21
15.0
 31
0.0
  0
LINE
  5
1BD1
100
AcDbEntity
  8
MSL2_180_3F-7
100
AcDbLine
 10
360.680842
 20
15.0
 30
0.0
 11
360.680842
 21
11.526506
 31
0.0
  0
CIRCLE
  5
1BD2
100
AcDbEntity
  8
MSL2_180_3F-0
100
AcDbCircle
 10
360.680842
 20
14.965783
 30
0.0
 40
2.5
  0
LINE
  5
1BD3
100
AcDbEntity
  8
MSL2_180_3F-7
100
AcDbLine
 10
360.680842
 20
15.0
 30
0.0
 11
364.154336
 21
15.0
 31
0.0
  0
LINE
  5
1BD4
100
AcDbEntity
  8
MSL2_180_3F-7
100
AcDbLine
 10
375.680842
 20
11.25
 30
0.0
 11
375.680842
 21
18.75
 31
0.0
  0
LINE
  5
1BD5
100
AcDbEntity
  8
MSL2_180_3F-7
100
AcDbLine
 10
371.930842
 20
15.0
 30
0.0
 11
379.430842
 21
15.0
 31
0.0
  0
CIRCLE
  5
1BD6
100
AcDbEntity
  8
MSL2_180_3F-0
100
AcDbCircle
 10
375.680842
 20
15.0
 30
0.0
 40
2.067
  0
ARC
  5
1BD7
100
AcDbEntity
  8
MSL2_180_3F-4
100
AcDbCircle
 10
375.680842
 20
15.0
 30
0.0
 40
2.5
100
AcDbArc
 50
172.405357
 51
104.931417
  0
LINE
  5
1BD8
100
AcDbEntity
  8
MSL2_180_3F-0
100
AcDbLine
 10
368.830842
 20
20.0
 30
0.0
 11
378.530842
 21
20.0
 31
0.0
  0
LINE
  5
1BD9
100
AcDbEntity
  8
MSL2_180_3F-0
100
AcDbLine
 10
429.680842
 20
24.0
 30
0.0
 11
429.680842
 21
36.0
 31
0.0
  0
LINE
  5
1BDA
100
AcDbEntity
  8
MSL2_180_3F-0
100
AcDbLine
 10
428.680842
 20
37.0
 30
0.0
 11
428.680842
 21
23.0
 31
0.0
  0
ARC
  5
1BDB
100
AcDbEntity
  8
MSL2_180_3F-0
100
AcDbCircle
 10
413.046119
 20
30.0
 30
0.0
 40
10.634722
100
AcDbArc
 50
332.518771
 51
27.481229
  0
LINE
  5
1BDC
100
AcDbEntity
  8
MSL2_180_3F-0
100
AcDbLine
 10
420.180842
 20
44.194379
 30
0.0
 11
420.180842
 21
20.0
 31
0.0
  0
LINE
  5
1BDD
100
AcDbEntity
  8
MSL2_180_3F-0
100
AcDbLine
 10
423.680842
 20
22.638784
 30
0.0
 11
423.680842
 21
37.361216
 31
0.0
  0
LINE
  5
1BDE
100
AcDbEntity
  8
MSL2_180_3F-4
100
AcDbLine
 10
420.180842
 20
22.0
 30
0.0
 11
397.180842
 21
22.0
 31
0.0
  0
LINE
  5
1BDF
100
AcDbEntity
  8
MSL2_180_3F-0
100
AcDbLine
 10
420.180842
 20
20.0
 30
0.0
 11
397.180842
 21
20.0
 31
0.0
  0
LINE
  5
1BE0
100
AcDbEntity
  8
MSL2_180_3F-0
100
AcDbLine
 10
397.180842
 20
22.0
 30
0.0
 11
392.180842
 21
22.0
 31
0.0
  0
LINE
  5
1BE1
100
AcDbEntity
  8
MSL2_180_3F-0
100
AcDbLine
 10
392.180842
 20
22.0
 30
0.0
 11
392.180842
 21
20.0
 31
0.0
  0
LINE
  5
1BE2
100
AcDbEntity
  8
MSL2_180_3F-0
100
AcDbLine
 10
397.180842
 20
20.0
 30
0.0
 11
397.180842
 21
22.0
 31
0.0
  0
LINE
  5
1BE3
100
AcDbEntity
  8
MSL2_180_3F-0
100
AcDbLine
 10
434.680842
 20
9.0
 30
0.0
 11
434.680842
 21
6.0
 31
0.0
  0
POLYLINE
  5
1BE4
100
AcDbEntity
  8
MSL2_180_3F-0
100
AcDb2dPolyline
 66
     1
 10
0.0
 20
0.0
 30
0.0
  0
VERTEX
  5
1BE5
100
AcDbEntity
  8
MSL2_180_3F-0
  6
CONTINUOUS
100
AcDbVertex
100
AcDb2dVertex
 10
435.680842
 20
6.0
 30
0.0
  0
VERTEX
  5
1BE6
100
AcDbEntity
  8
MSL2_180_3F-0
  6
CONTINUOUS
100
AcDbVertex
100
AcDb2dVertex
 10
435.680842
 20
8.0
 30
0.0
  0
VERTEX
  5
1BE7
100
AcDbEntity
  8
MSL2_180_3F-0
  6
CONTINUOUS
100
AcDbVertex
100
AcDb2dVertex
 10
434.680842
 20
9.0
 30
0.0
  0
VERTEX
  5
1BE8
100
AcDbEntity
  8
MSL2_180_3F-0
  6
CONTINUOUS
100
AcDbVertex
100
AcDb2dVertex
 10
420.680842
 20
9.0
 30
0.0
  0
SEQEND
  5
1BE9
100
AcDbEntity
  8
MSL2_180_3F-0
  0
POLYLINE
  5
1BEA
100
AcDbEntity
  8
MSL2_180_3F-0
100
AcDb2dPolyline
 66
     1
 10
0.0
 20
0.0
 30
0.0
  0
VERTEX
  5
1BEB
100
AcDbEntity
  8
MSL2_180_3F-0
  6
CONTINUOUS
100
AcDbVertex
100
AcDb2dVertex
 10
420.680842
 20
-9.0
 30
0.0
  0
VERTEX
  5
1BEC
100
AcDbEntity
  8
MSL2_180_3F-0
  6
CONTINUOUS
100
AcDbVertex
100
AcDb2dVertex
 10
434.680842
 20
-9.0
 30
0.0
  0
VERTEX
  5
1BED
100
AcDbEntity
  8
MSL2_180_3F-0
  6
CONTINUOUS
100
AcDbVertex
100
AcDb2dVertex
 10
435.680842
 20
-8.0
 30
0.0
  0
VERTEX
  5
1BEE
100
AcDbEntity
  8
MSL2_180_3F-0
  6
CONTINUOUS
100
AcDbVertex
100
AcDb2dVertex
 10
435.680842
 20
-6.0
 30
0.0
  0
SEQEND
  5
1BEF
100
AcDbEntity
  8
MSL2_180_3F-0
  6
CONTINUOUS
  0
LINE
  5
1BF0
100
AcDbEntity
  8
MSL2_180_3F-0
100
AcDbLine
 10
434.680842
 20
-6.0
 30
0.0
 11
434.680842
 21
-9.0
 31
0.0
  0
ARC
  5
1BF1
100
AcDbEntity
  8
MSL2_180_3F-0
100
AcDbCircle
 10
420.572161
 20
22.638784
 30
0.0
 40
3.108681
100
AcDbArc
 50
307.878142
 51
52.121858
  0
LINE
  5
1BF2
100
AcDbEntity
  8
MSL2_180_3F-0
100
AcDbLine
 10
422.480842
 20
25.092523
 30
0.0
 11
420.680842
 21
25.092523
 31
0.0
  0
LINE
  5
1BF3
100
AcDbEntity
  8
MSL2_180_3F-0
100
AcDbLine
 10
422.480842
 20
20.185045
 30
0.0
 11
420.680842
 21
20.185045
 31
0.0
  0
LINE
  5
1BF4
100
AcDbEntity
  8
MSL2_180_3F-0
100
AcDbLine
 10
423.680842
 20
23.0
 30
0.0
 11
428.680842
 21
23.0
 31
0.0
  0
LINE
  5
1BF5
100
AcDbEntity
  8
MSL2_180_3F-0
100
AcDbLine
 10
428.680842
 20
23.0
 30
0.0
 11
429.680842
 21
24.0
 31
0.0
  0
LINE
  5
1BF6
100
AcDbEntity
  8
MSL2_180_3F-0
100
AcDbLine
 10
420.180842
 20
58.335707
 30
0.0
 11
400.480842
 21
58.335707
 31
0.0
  0
LINE
  5
1BF7
100
AcDbEntity
  8
MSL2_180_3F-7
100
AcDbLine
 10
402.916842
 20
51.329322
 30
0.0
 11
418.644842
 21
51.329322
 31
0.0
1001
GENIUS_GENODEF_13
1002
{
1000
HIER
1070
     0
1002
}
1002
{
1000
MANEDIT
1070
     0
1002
}
1002
{
1000
NOSEL
1070
     0
1002
}
1002
{
1000
BEHIND
1070
     0
1002
}
1002
{
1000
REACTOR
1002
}
1001
GENIUS_GENOBJ-N-CEN_13
1002
{
1000
OWNER
1000
GEN
1002
}
  0
LINE
  5
1BF8
100
AcDbEntity
  8
MSL2_180_3F-0
100
AcDbLine
 10
400.480842
 20
44.194379
 30
0.0
 11
420.180842
 21
44.194379
 31
0.0
  0
ELLIPSE
  5
1BF9
100
AcDbEntity
  8
MSL2_180_3F-0
100
AcDbEllipse
 10
410.780842
 20
51.329322
 30
0.0
 11
4.283225000000015
 21
0.0
 31
0.0
210
0.0
220
0.0
230
1.0
 40
0.642788
 41
0.0000000000000542
 42
6.283185307179654
  0
ELLIPSE
  5
1BFA
100
AcDbEntity
  8
MSL2_180_3F-4
100
AcDbEllipse
 10
410.780842
 20
51.329322
 30
0.0
 11
-4.863999999999905
 21
0.0000000000000259
 31
0.0
210
0.0
220
0.0
230
1.0
 40
0.642788
 41
1.514618869527607
 42
6.418462237825831
  0
LINE
  5
1BFB
100
AcDbEntity
  8
MSL2_180_3F-0
100
AcDbLine
 10
400.480842
 20
58.335707
 30
0.0
 11
400.480842
 21
44.194379
 31
0.0
  0
LINE
  5
1BFC
100
AcDbEntity
  8
MSL2_180_3F-7
100
AcDbLine
 10
410.780842
 20
45.202803
 30
0.0
 11
410.780842
 21
57.455841
 31
0.0
1001
GENIUS_GENODEF_13
1002
{
1000
HIER
1070
     0
1002
}
1002
{
1000
MANEDIT
1070
     0
1002
}
1002
{
1000
NOSEL
1070
     0
1002
}
1002
{
1000
BEHIND
1070
     0
1002
}
1002
{
1000
REACTOR
1002
}
1001
GENIUS_GENOBJ-N-CEN_13
1002
{
1000
OWNER
1000
GEN
1002
}
  0
ARC
  5
1BFD
100
AcDbEntity
  8
MSL2_180_3F-0
100
AcDbCircle
 10
420.572161
 20
37.361216
 30
0.0
 40
3.108681
100
AcDbArc
 50
307.878142
 51
52.121858
  0
LINE
  5
1BFE
100
AcDbEntity
  8
MSL2_180_3F-0
100
AcDbLine
 10
422.480842
 20
34.907477
 30
0.0
 11
420.680842
 21
34.907477
 31
0.0
  0
LINE
  5
1BFF
100
AcDbEntity
  8
MSL2_180_3F-0
100
AcDbLine
 10
422.480842
 20
39.814955
 30
0.0
 11
420.680842
 21
39.814955
 31
0.0
  0
LINE
  5
1C00
100
AcDbEntity
  8
MSL2_180_3F-0
100
AcDbLine
 10
429.680842
 20
36.0
 30
0.0
 11
428.680842
 21
37.0
 31
0.0
  0
LINE
  5
1C01
100
AcDbEntity
  8
MSL2_180_3F-0
100
AcDbLine
 10
428.680842
 20
37.0
 30
0.0
 11
423.680842
 21
37.0
 31
0.0
  0
LINE
  5
1C02
100
AcDbEntity
  8
MSL2_180_3F-0
100
AcDbLine
 10
420.680842
 20
64.0
 30
0.0
 11
420.180842
 21
64.0
 31
0.0
  0
LINE
  5
1C03
100
AcDbEntity
  8
MSL2_180_3F-0
100
AcDbLine
 10
420.180842
 20
65.0
 30
0.0
 11
420.180842
 21
58.335707
 31
0.0
  0
LINE
  5
1C04
100
AcDbEntity
  8
MSL2_180_3F-0
100
AcDbLine
 10
451.780842
 20
25.0
 30
0.0
 11
451.780842
 21
35.0
 31
0.0
  0
LINE
  5
1C05
100
AcDbEntity
  8
MSL2_180_3F-0
100
AcDbLine
 10
450.780842
 20
24.0
 30
0.0
 11
450.780842
 21
36.0
 31
0.0
  0
LINE
  5
1C06
100
AcDbEntity
  8
MSL2_180_3F-0
100
AcDbLine
 10
440.780842
 20
36.0
 30
0.0
 11
440.780842
 21
24.0
 31
0.0
  0
LINE
  5
1C07
100
AcDbEntity
  8
MSL2_180_3F-0
100
AcDbLine
 10
440.780842
 20
24.0
 30
0.0
 11
450.780842
 21
24.0
 31
0.0
  0
LINE
  5
1C08
100
AcDbEntity
  8
MSL2_180_3F-0
100
AcDbLine
 10
450.780842
 20
24.0
 30
0.0
 11
451.780842
 21
25.0
 31
0.0
  0
LINE
  5
1C09
100
AcDbEntity
  8
MSL2_180_3F-0
100
AcDbLine
 10
450.780842
 20
36.0
 30
0.0
 11
440.780842
 21
36.0
 31
0.0
  0
LINE
  5
1C0A
100
AcDbEntity
  8
MSL2_180_3F-0
100
AcDbLine
 10
451.780842
 20
35.0
 30
0.0
 11
450.780842
 21
36.0
 31
0.0
  0
LINE
  5
1C0B
100
AcDbEntity
  8
MSL2_180_3F-3
100
AcDbLine
 10
634.747842
 20
-175.221056
 30
0.0
 11
634.747842
 21
-164.021056
 31
0.0
  0
LINE
  5
1C0C
100
AcDbEntity
  8
MSL2_180_3F-3
100
AcDbLine
 10
634.747842
 20
-175.221056
 30
0.0
 11
634.747842
 21
-164.021056
 31
0.0
  0
LINE
  5
1C0D
100
AcDbEntity
  8
MSL2_180_3F-7
100
AcDbLine
 10
632.680842
 20
-159.827673
 30
0.0
 11
632.680842
 21
-178.221056
 31
0.0
  0
LINE
  5
1C0E
100
AcDbEntity
  8
MSL2_180_3F-7
100
AcDbLine
 10
632.680842
 20
-159.827673
 30
0.0
 11
632.680842
 21
-178.221056
 31
0.0
  0
LINE
  5
1C0F
100
AcDbEntity
  8
MSL2_180_3F-3
100
AcDbLine
 10
630.613842
 20
-175.221056
 30
0.0
 11
630.613842
 21
-164.021056
 31
0.0
  0
LINE
  5
1C10
100
AcDbEntity
  8
MSL2_180_3F-3
100
AcDbLine
 10
630.613842
 20
-175.221056
 30
0.0
 11
630.613842
 21
-164.021056
 31
0.0
  0
LINE
  5
1C11
100
AcDbEntity
  8
MSL2_180_3F-0
100
AcDbLine
 10
637.680842
 20
-93.221056
 30
0.0
 11
637.680842
 21
-175.221056
 31
0.0
  0
LINE
  5
1C12
100
AcDbEntity
  8
MSL2_180_3F-0
100
AcDbLine
 10
621.680842
 20
-175.221056
 30
0.0
 11
621.680842
 21
-93.221056
 31
0.0
  0
LINE
  5
1C13
100
AcDbEntity
  8
MSL2_180_3F-0
100
AcDbLine
 10
637.680842
 20
-175.221056
 30
0.0
 11
621.680842
 21
-175.221056
 31
0.0
  0
LINE
  5
1C14
100
AcDbEntity
  8
MSL2_180_3F-3
100
AcDbLine
 10
635.180842
 20
-175.221056
 30
0.0
 11
635.180842
 21
-167.221056
 31
0.0
  0
LINE
  5
1C15
100
AcDbEntity
  8
MSL2_180_3F-3
100
AcDbLine
 10
635.180842
 20
-175.221056
 30
0.0
 11
635.180842
 21
-167.221056
 31
0.0
  0
LINE
  5
1C16
100
AcDbEntity
  8
MSL2_180_3F-3
100
AcDbLine
 10
630.180842
 20
-175.221056
 30
0.0
 11
630.180842
 21
-167.221056
 31
0.0
  0
LINE
  5
1C17
100
AcDbEntity
  8
MSL2_180_3F-3
100
AcDbLine
 10
630.180842
 20
-175.221056
 30
0.0
 11
630.180842
 21
-167.221056
 31
0.0
  0
LINE
  5
1C18
100
AcDbEntity
  8
MSL2_180_3F-3
100
AcDbLine
 10
630.180842
 20
-167.221056
 30
0.0
 11
635.180842
 21
-167.221056
 31
0.0
  0
LINE
  5
1C19
100
AcDbEntity
  8
MSL2_180_3F-3
100
AcDbLine
 10
630.180842
 20
-167.221056
 30
0.0
 11
635.180842
 21
-167.221056
 31
0.0
  0
LINE
  5
1C1A
100
AcDbEntity
  8
MSL2_180_3F-0
100
AcDbLine
 10
607.680842
 20
-100.721056
 30
0.0
 11
617.711026
 21
-100.721056
 31
0.0
  0
LINE
  5
1C1B
100
AcDbEntity
  8
MSL2_180_3F-0
100
AcDbLine
 10
607.680842
 20
-102.721056
 30
0.0
 11
617.680842
 21
-102.721056
 31
0.0
  0
LINE
  5
1C1C
100
AcDbEntity
  8
MSL2_180_3F-0
100
AcDbLine
 10
617.680842
 20
-110.721056
 30
0.0
 11
607.680842
 21
-110.721056
 31
0.0
  0
LINE
  5
1C1D
100
AcDbEntity
  8
MSL2_180_3F-0
100
AcDbLine
 10
617.711026
 20
-112.721056
 30
0.0
 11
607.680842
 21
-112.721056
 31
0.0
  0
LINE
  5
1C1E
100
AcDbEntity
  8
MSL2_180_3F-0
100
AcDbLine
 10
607.680842
 20
-99.215503
 30
0.0
 11
607.680842
 21
-114.226609
 31
0.0
  0
LINE
  5
1C1F
100
AcDbEntity
  8
MSL2_180_3F-0
100
AcDbLine
 10
607.680842
 20
-102.721056
 30
0.0
 11
607.680842
 21
-110.721056
 31
0.0
  0
ARC
  5
1C20
100
AcDbEntity
  8
MSL2_180_3F-0
100
AcDbCircle
 10
612.703251
 20
-106.721056
 30
0.0
 40
9.02241
100
AcDbArc
 50
155.421503
 51
204.578497
  0
LINE
  5
1C21
100
AcDbEntity
  8
MSL2_180_3F-0
100
AcDbLine
 10
603.680842
 20
-101.091891
 30
0.0
 11
603.680842
 21
-112.350221
 31
0.0
  0
LINE
  5
1C22
100
AcDbEntity
  8
MSL2_180_3F-0
100
AcDbLine
 10
607.680842
 20
-114.226609
 30
0.0
 11
604.498342
 21
-114.226609
 31
0.0
  0
LINE
  5
1C23
100
AcDbEntity
  8
MSL2_180_3F-0
100
AcDbLine
 10
604.498342
 20
-110.473833
 30
0.0
 11
607.680842
 21
-110.473833
 31
0.0
  0
ARC
  5
1C24
100
AcDbEntity
  8
MSL2_180_3F-0
100
AcDbCircle
 10
606.243006
 20
-112.350221
 30
0.0
 40
2.562165
100
AcDbArc
 50
132.916664
 51
227.083336
  0
LINE
  5
1C25
100
AcDbEntity
  8
MSL2_180_3F-0
100
AcDbLine
 10
604.498342
 20
-99.215503
 30
0.0
 11
607.680842
 21
-99.215503
 31
0.0
  0
LINE
  5
1C26
100
AcDbEntity
  8
MSL2_180_3F-0
100
AcDbLine
 10
604.498342
 20
-102.968279
 30
0.0
 11
607.680842
 21
-102.968279
 31
0.0
  0
ARC
  5
1C27
100
AcDbEntity
  8
MSL2_180_3F-0
100
AcDbCircle
 10
606.243006
 20
-101.091891
 30
0.0
 40
2.562165
100
AcDbArc
 50
132.916664
 51
227.083336
  0
LINE
  5
1C28
100
AcDbEntity
  8
MSL2_180_3F-7
100
AcDbLine
 10
622.930842
 20
-159.221056
 30
0.0
 11
630.430842
 21
-159.221056
 31
0.0
  0
CIRCLE
  5
1C29
100
AcDbEntity
  8
MSL2_180_3F-3
100
AcDbCircle
 10
626.680842
 20
-159.221056
 30
0.0
 40
2.067
  0
ARC
  5
1C2A
100
AcDbEntity
  8
MSL2_180_3F-3
100
AcDbCircle
 10
626.680842
 20
-159.221056
 30
0.0
 40
2.5
100
AcDbArc
 50
255.068583
 51
187.594643
  0
LINE
  5
1C2B
100
AcDbEntity
  8
MSL2_180_3F-7
100
AcDbLine
 10
641.029727
 20
-149.221056
 30
0.0
 11
617.910508
 21
-149.221056
 31
0.0
  0
LINE
  5
1C2C
100
AcDbEntity
  8
MSL2_180_3F-7
100
AcDbLine
 10
626.680842
 20
-155.471056
 30
0.0
 11
626.680842
 21
-162.971056
 31
0.0
  0
LINE
  5
1C2D
100
AcDbEntity
  8
MSL2_180_3F-7
100
AcDbLine
 10
626.680842
 20
-159.221056
 30
0.0
 11
626.680842
 21
-164.685081
 31
0.0
1001
GENIUS_GENOREF_13
1005
0
  0
LINE
  5
1C2E
100
AcDbEntity
  8
MSL2_180_3F-3
100
AcDbLine
 10
632.680842
 20
-162.827673
 30
0.0
 11
630.613842
 21
-164.021056
 31
0.0
  0
LINE
  5
1C2F
100
AcDbEntity
  8
MSL2_180_3F-3
100
AcDbLine
 10
632.680842
 20
-162.827673
 30
0.0
 11
630.613842
 21
-164.021056
 31
0.0
  0
LINE
  5
1C30
100
AcDbEntity
  8
MSL2_180_3F-3
100
AcDbLine
 10
632.680842
 20
-162.827673
 30
0.0
 11
634.747842
 21
-164.021056
 31
0.0
  0
LINE
  5
1C31
100
AcDbEntity
  8
MSL2_180_3F-3
100
AcDbLine
 10
632.680842
 20
-162.827673
 30
0.0
 11
634.747842
 21
-164.021056
 31
0.0
  0
LINE
  5
1C32
100
AcDbEntity
  8
MSL2_180_3F-3
100
AcDbLine
 10
630.613842
 20
-164.021056
 30
0.0
 11
634.747842
 21
-164.021056
 31
0.0
  0
LINE
  5
1C33
100
AcDbEntity
  8
MSL2_180_3F-3
100
AcDbLine
 10
630.613842
 20
-164.021056
 30
0.0
 11
634.747842
 21
-164.021056
 31
0.0
  0
LINE
  5
1C34
100
AcDbEntity
  8
MSL2_180_3F-0
100
AcDbLine
 10
621.680842
 20
-127.901086
 30
0.0
 11
637.680842
 21
-127.901086
 31
0.0
  0
LINE
  5
1C35
100
AcDbEntity
  8
MSL2_180_3F-0
100
AcDbLine
 10
621.680842
 20
-140.541026
 30
0.0
 11
637.680842
 21
-140.541026
 31
0.0
  0
CIRCLE
  5
1C36
100
AcDbEntity
  8
MSL2_180_3F-3
100
AcDbCircle
 10
626.680842
 20
-109.221056
 30
0.0
 40
2.067
  0
ARC
  5
1C37
100
AcDbEntity
  8
MSL2_180_3F-3
100
AcDbCircle
 10
626.680842
 20
-109.221056
 30
0.0
 40
2.5
100
AcDbArc
 50
255.068583
 51
187.594643
  0
LINE
  5
1C38
100
AcDbEntity
  8
MSL2_180_3F-7
100
AcDbLine
 10
626.680842
 20
-105.471056
 30
0.0
 11
626.680842
 21
-112.971056
 31
0.0
  0
LINE
  5
1C39
100
AcDbEntity
  8
MSL2_180_3F-7
100
AcDbLine
 10
632.680842
 20
-108.614439
 30
0.0
 11
632.680842
 21
-90.221056
 31
0.0
  0
LINE
  5
1C3A
100
AcDbEntity
  8
MSL2_180_3F-7
100
AcDbLine
 10
632.680842
 20
-108.614439
 30
0.0
 11
632.680842
 21
-90.221056
 31
0.0
  0
ARC
  5
1C3B
100
AcDbEntity
  8
MSL2_180_3F-0
100
AcDbCircle
 10
613.971119
 20
-106.721056
 30
0.0
 40
7.709722
100
AcDbArc
 50
330.872216
 51
29.127784
  0
LINE
  5
1C3C
100
AcDbEntity
  8
MSL2_180_3F-0
100
AcDbLine
 10
617.680842
 20
-101.091891
 30
0.0
 11
617.680842
 21
-112.350221
 31
0.0
  0
ARC
  5
1C3D
100
AcDbEntity
  8
MSL2_180_3F-0
100
AcDbCircle
 10
625.390564
 20
-106.721056
 30
0.0
 40
7.709722
100
AcDbArc
 50
150.872218
 51
209.127782
  0
LINE
  5
1C3E
100
AcDbEntity
  8
MSL2_180_3F-7
100
AcDbLine
 10
622.930842
 20
-109.221056
 30
0.0
 11
630.430842
 21
-109.221056
 31
0.0
  0
LINE
  5
1C3F
100
AcDbEntity
  8
MSL2_180_3F-7
100
AcDbLine
 10
641.029727
 20
-119.221056
 30
0.0
 11
617.910508
 21
-119.221056
 31
0.0
  0
ARC
  5
1C40
100
AcDbEntity
  8
MSL2_180_3F-0
100
AcDbCircle
 10
619.387786
 20
-112.350221
 30
0.0
 40
2.293056
100
AcDbArc
 50
305.085847
 51
54.914153
  0
ARC
  5
1C41
100
AcDbEntity
  8
MSL2_180_3F-0
100
AcDbCircle
 10
619.973897
 20
-112.350221
 30
0.0
 40
2.293056
100
AcDbArc
 50
125.085848
 51
234.914152
  0
LINE
  5
1C42
100
AcDbEntity
  8
MSL2_180_3F-0
100
AcDbLine
 10
620.705842
 20
-114.226609
 30
0.0
 11
618.655842
 21
-114.226609
 31
0.0
  0
LINE
  5
1C43
100
AcDbEntity
  8
MSL2_180_3F-0
100
AcDbLine
 10
620.705842
 20
-110.473833
 30
0.0
 11
618.655842
 21
-110.473833
 31
0.0
  0
LINE
  5
1C44
100
AcDbEntity
  8
MSL2_180_3F-0
100
AcDbLine
 10
621.680842
 20
-93.221056
 30
0.0
 11
637.680842
 21
-93.221056
 31
0.0
  0
ARC
  5
1C45
100
AcDbEntity
  8
MSL2_180_3F-0
100
AcDbCircle
 10
619.387786
 20
-101.091891
 30
0.0
 40
2.293056
100
AcDbArc
 50
305.085847
 51
54.914153
  0
ARC
  5
1C46
100
AcDbEntity
  8
MSL2_180_3F-0
100
AcDbCircle
 10
619.973897
 20
-101.091891
 30
0.0
 40
2.293056
100
AcDbArc
 50
125.085848
 51
234.914152
  0
LINE
  5
1C47
100
AcDbEntity
  8
MSL2_180_3F-0
100
AcDbLine
 10
620.705842
 20
-99.215503
 30
0.0
 11
618.655842
 21
-99.215503
 31
0.0
  0
LINE
  5
1C48
100
AcDbEntity
  8
MSL2_180_3F-0
100
AcDbLine
 10
620.705842
 20
-102.968279
 30
0.0
 11
618.655842
 21
-102.968279
 31
0.0
  0
LINE
  5
1C49
100
AcDbEntity
  8
MSL2_180_3F-3
100
AcDbLine
 10
635.180842
 20
-93.221056
 30
0.0
 11
635.180842
 21
-101.221056
 31
0.0
  0
LINE
  5
1C4A
100
AcDbEntity
  8
MSL2_180_3F-3
100
AcDbLine
 10
635.180842
 20
-93.221056
 30
0.0
 11
635.180842
 21
-101.221056
 31
0.0
  0
LINE
  5
1C4B
100
AcDbEntity
  8
MSL2_180_3F-3
100
AcDbLine
 10
634.747842
 20
-93.221056
 30
0.0
 11
634.747842
 21
-104.421056
 31
0.0
  0
LINE
  5
1C4C
100
AcDbEntity
  8
MSL2_180_3F-3
100
AcDbLine
 10
634.747842
 20
-93.221056
 30
0.0
 11
634.747842
 21
-104.421056
 31
0.0
  0
LINE
  5
1C4D
100
AcDbEntity
  8
MSL2_180_3F-3
100
AcDbLine
 10
630.180842
 20
-93.221056
 30
0.0
 11
630.180842
 21
-101.221056
 31
0.0
  0
LINE
  5
1C4E
100
AcDbEntity
  8
MSL2_180_3F-3
100
AcDbLine
 10
630.180842
 20
-93.221056
 30
0.0
 11
630.180842
 21
-101.221056
 31
0.0
  0
LINE
  5
1C4F
100
AcDbEntity
  8
MSL2_180_3F-3
100
AcDbLine
 10
630.613842
 20
-93.221056
 30
0.0
 11
630.613842
 21
-104.421056
 31
0.0
  0
LINE
  5
1C50
100
AcDbEntity
  8
MSL2_180_3F-3
100
AcDbLine
 10
630.613842
 20
-93.221056
 30
0.0
 11
630.613842
 21
-104.421056
 31
0.0
  0
LINE
  5
1C51
100
AcDbEntity
  8
MSL2_180_3F-3
100
AcDbLine
 10
632.680842
 20
-105.614439
 30
0.0
 11
630.613842
 21
-104.421056
 31
0.0
  0
LINE
  5
1C52
100
AcDbEntity
  8
MSL2_180_3F-3
100
AcDbLine
 10
632.680842
 20
-105.614439
 30
0.0
 11
630.613842
 21
-104.421056
 31
0.0
  0
LINE
  5
1C53
100
AcDbEntity
  8
MSL2_180_3F-3
100
AcDbLine
 10
632.680842
 20
-105.614439
 30
0.0
 11
634.747842
 21
-104.421056
 31
0.0
  0
LINE
  5
1C54
100
AcDbEntity
  8
MSL2_180_3F-3
100
AcDbLine
 10
632.680842
 20
-105.614439
 30
0.0
 11
634.747842
 21
-104.421056
 31
0.0
  0
LINE
  5
1C55
100
AcDbEntity
  8
MSL2_180_3F-3
100
AcDbLine
 10
630.180842
 20
-101.221056
 30
0.0
 11
635.180842
 21
-101.221056
 31
0.0
  0
LINE
  5
1C56
100
AcDbEntity
  8
MSL2_180_3F-3
100
AcDbLine
 10
630.180842
 20
-101.221056
 30
0.0
 11
635.180842
 21
-101.221056
 31
0.0
  0
LINE
  5
1C57
100
AcDbEntity
  8
MSL2_180_3F-3
100
AcDbLine
 10
630.613842
 20
-104.421056
 30
0.0
 11
634.747842
 21
-104.421056
 31
0.0
  0
LINE
  5
1C58
100
AcDbEntity
  8
MSL2_180_3F-3
100
AcDbLine
 10
630.613842
 20
-104.421056
 30
0.0
 11
634.747842
 21
-104.421056
 31
0.0
  0
LINE
  5
1C59
100
AcDbEntity
  8
MSL2_180_3F-3
100
AcDbLine
 10
628.747842
 20
-21.0
 30
0.0
 11
628.747842
 21
-9.8
 31
0.0
  0
LINE
  5
1C5A
100
AcDbEntity
  8
MSL2_180_3F-3
100
AcDbLine
 10
628.747842
 20
-21.0
 30
0.0
 11
628.747842
 21
-9.8
 31
0.0
  0
LINE
  5
1C5B
100
AcDbEntity
  8
MSL2_180_3F-3
100
AcDbLine
 10
624.613842
 20
-21.0
 30
0.0
 11
624.613842
 21
-9.8
 31
0.0
  0
LINE
  5
1C5C
100
AcDbEntity
  8
MSL2_180_3F-3
100
AcDbLine
 10
624.613842
 20
-21.0
 30
0.0
 11
624.613842
 21
-9.8
 31
0.0
  0
LINE
  5
1C5D
100
AcDbEntity
  8
MSL2_180_3F-7
100
AcDbLine
 10
626.680842
 20
-5.606617
 30
0.0
 11
626.680842
 21
-24.0
 31
0.0
  0
LINE
  5
1C5E
100
AcDbEntity
  8
MSL2_180_3F-7
100
AcDbLine
 10
626.680842
 20
-5.606617
 30
0.0
 11
626.680842
 21
-24.0
 31
0.0
  0
LINE
  5
1C5F
100
AcDbEntity
  8
MSL2_180_3F-0
100
AcDbLine
 10
637.680842
 20
-21.0
 30
0.0
 11
637.680842
 21
64.0
 31
0.0
  0
LINE
  5
1C60
100
AcDbEntity
  8
MSL2_180_3F-0
100
AcDbLine
 10
621.680842
 20
64.0
 30
0.0
 11
621.680842
 21
-21.0
 31
0.0
  0
LINE
  5
1C61
100
AcDbEntity
  8
MSL2_180_3F-3
100
AcDbLine
 10
629.180842
 20
-13.0
 30
0.0
 11
624.180842
 21
-13.0
 31
0.0
  0
LINE
  5
1C62
100
AcDbEntity
  8
MSL2_180_3F-3
100
AcDbLine
 10
629.180842
 20
-13.0
 30
0.0
 11
624.180842
 21
-13.0
 31
0.0
  0
LINE
  5
1C63
100
AcDbEntity
  8
MSL2_180_3F-0
100
AcDbLine
 10
637.680842
 20
-21.0
 30
0.0
 11
621.680842
 21
-21.0
 31
0.0
  0
LINE
  5
1C64
100
AcDbEntity
  8
MSL2_180_3F-7
100
AcDbLine
 10
618.815996
 20
-15.0
 30
0.0
 11
641.834746
 21
-15.0
 31
0.0
  0
LINE
  5
1C65
100
AcDbEntity
  8
MSL2_180_3F-3
100
AcDbLine
 10
624.180842
 20
-21.0
 30
0.0
 11
624.180842
 21
-13.0
 31
0.0
  0
LINE
  5
1C66
100
AcDbEntity
  8
MSL2_180_3F-3
100
AcDbLine
 10
624.180842
 20
-21.0
 30
0.0
 11
624.180842
 21
-13.0
 31
0.0
  0
LINE
  5
1C67
100
AcDbEntity
  8
MSL2_180_3F-3
100
AcDbLine
 10
629.180842
 20
-21.0
 30
0.0
 11
629.180842
 21
-13.0
 31
0.0
  0
LINE
  5
1C68
100
AcDbEntity
  8
MSL2_180_3F-3
100
AcDbLine
 10
629.180842
 20
-21.0
 30
0.0
 11
629.180842
 21
-13.0
 31
0.0
  0
LINE
  5
1C69
100
AcDbEntity
  8
MSL2_180_3F-7
100
AcDbLine
 10
628.930842
 20
-15.0
 30
0.0
 11
636.430842
 21
-15.0
 31
0.0
  0
LINE
  5
1C6A
100
AcDbEntity
  8
MSL2_180_3F-7
100
AcDbLine
 10
632.680842
 20
-18.75
 30
0.0
 11
632.680842
 21
-11.25
 31
0.0
  0
CIRCLE
  5
1C6B
100
AcDbEntity
  8
MSL2_180_3F-0
100
AcDbCircle
 10
632.680842
 20
-15.0
 30
0.0
 40
2.067
  0
ARC
  5
1C6C
100
AcDbEntity
  8
MSL2_180_3F-4
100
AcDbCircle
 10
632.680842
 20
-15.0
 30
0.0
 40
2.5
100
AcDbArc
 50
172.405357
 51
104.931417
  0
LINE
  5
1C6D
100
AcDbEntity
  8
MSL2_180_3F-0
100
AcDbLine
 10
617.680842
 20
34.0
 30
0.0
 11
607.680842
 21
34.0
 31
0.0
  0
LINE
  5
1C6E
100
AcDbEntity
  8
MSL2_180_3F-0
100
AcDbLine
 10
607.680842
 20
26.0
 30
0.0
 11
617.680842
 21
26.0
 31
0.0
  0
LINE
  5
1C6F
100
AcDbEntity
  8
MSL2_180_3F-0
100
AcDbLine
 10
607.680842
 20
22.494446
 30
0.0
 11
607.680842
 21
37.505553
 31
0.0
  0
LINE
  5
1C70
100
AcDbEntity
  8
MSL2_180_3F-0
100
AcDbLine
 10
603.680842
 20
24.370834
 30
0.0
 11
603.680842
 21
35.629165
 31
0.0
  0
LINE
  5
1C71
100
AcDbEntity
  8
MSL2_180_3F-0
100
AcDbLine
 10
607.680842
 20
26.0
 30
0.0
 11
607.680842
 21
34.0
 31
0.0
  0
ARC
  5
1C72
100
AcDbEntity
  8
MSL2_180_3F-0
100
AcDbCircle
 10
612.703251
 20
30.0
 30
0.0
 40
9.02241
100
AcDbArc
 50
155.421503
 51
204.578497
  0
LINE
  5
1C73
100
AcDbEntity
  8
MSL2_180_3F-0
100
AcDbLine
 10
604.498342
 20
26.247223
 30
0.0
 11
607.680842
 21
26.247223
 31
0.0
  0
LINE
  5
1C74
100
AcDbEntity
  8
MSL2_180_3F-0
100
AcDbLine
 10
604.498342
 20
22.494446
 30
0.0
 11
607.680842
 21
22.494446
 31
0.0
  0
ARC
  5
1C75
100
AcDbEntity
  8
MSL2_180_3F-0
100
AcDbCircle
 10
606.243006
 20
24.370834
 30
0.0
 40
2.562165
100
AcDbArc
 50
132.916664
 51
227.083336
  0
ARC
  5
1C76
100
AcDbEntity
  8
MSL2_180_3F-0
100
AcDbCircle
 10
606.243006
 20
35.629165
 30
0.0
 40
2.562165
100
AcDbArc
 50
132.916664
 51
227.083336
  0
LINE
  5
1C77
100
AcDbEntity
  8
MSL2_180_3F-0
100
AcDbLine
 10
604.498342
 20
33.752776
 30
0.0
 11
607.680842
 21
33.752776
 31
0.0
  0
LINE
  5
1C78
100
AcDbEntity
  8
MSL2_180_3F-0
100
AcDbLine
 10
607.680842
 20
37.505553
 30
0.0
 11
604.498342
 21
37.505553
 31
0.0
  0
LINE
  5
1C79
100
AcDbEntity
  8
MSL2_180_3F-0
100
AcDbLine
 10
617.680842
 20
24.370834
 30
0.0
 11
617.680842
 21
35.629165
 31
0.0
  0
LINE
  5
1C7A
100
AcDbEntity
  8
MSL2_180_3F-0
100
AcDbLine
 10
621.680842
 20
24.370834
 30
0.0
 11
621.680842
 21
35.629165
 31
0.0
  0
ARC
  5
1C7B
100
AcDbEntity
  8
MSL2_180_3F-0
100
AcDbCircle
 10
625.390564
 20
30.0
 30
0.0
 40
7.709722
100
AcDbArc
 50
150.872218
 51
209.127782
  0
ARC
  5
1C7C
100
AcDbEntity
  8
MSL2_180_3F-0
100
AcDbCircle
 10
613.971119
 20
30.0
 30
0.0
 40
7.709722
100
AcDbArc
 50
330.872216
 51
29.127784
  0
LINE
  5
1C7D
100
AcDbEntity
  8
MSL2_180_3F-3
100
AcDbLine
 10
628.747842
 20
-9.8
 30
0.0
 11
624.613842
 21
-9.8
 31
0.0
  0
LINE
  5
1C7E
100
AcDbEntity
  8
MSL2_180_3F-3
100
AcDbLine
 10
628.747842
 20
-9.8
 30
0.0
 11
624.613842
 21
-9.8
 31
0.0
  0
LINE
  5
1C7F
100
AcDbEntity
  8
MSL2_180_3F-3
100
AcDbLine
 10
626.680842
 20
-8.606617
 30
0.0
 11
628.747842
 21
-9.8
 31
0.0
  0
LINE
  5
1C80
100
AcDbEntity
  8
MSL2_180_3F-3
100
AcDbLine
 10
626.680842
 20
-8.606617
 30
0.0
 11
628.747842
 21
-9.8
 31
0.0
  0
LINE
  5
1C81
100
AcDbEntity
  8
MSL2_180_3F-3
100
AcDbLine
 10
626.680842
 20
-8.606617
 30
0.0
 11
624.613842
 21
-9.8
 31
0.0
  0
LINE
  5
1C82
100
AcDbEntity
  8
MSL2_180_3F-3
100
AcDbLine
 10
626.680842
 20
-8.606617
 30
0.0
 11
624.613842
 21
-9.8
 31
0.0
  0
LINE
  5
1C83
100
AcDbEntity
  8
MSL2_180_3F-7
100
AcDbLine
 10
618.815996
 20
15.0
 30
0.0
 11
641.834746
 21
15.0
 31
0.0
  0
ARC
  5
1C84
100
AcDbEntity
  8
MSL2_180_3F-0
100
AcDbCircle
 10
619.387786
 20
24.370834
 30
0.0
 40
2.293056
100
AcDbArc
 50
305.085847
 51
54.914153
  0
ARC
  5
1C85
100
AcDbEntity
  8
MSL2_180_3F-0
100
AcDbCircle
 10
619.973897
 20
24.370834
 30
0.0
 40
2.293056
100
AcDbArc
 50
125.085848
 51
234.914152
  0
LINE
  5
1C86
100
AcDbEntity
  8
MSL2_180_3F-0
100
AcDbLine
 10
620.705842
 20
26.247223
 30
0.0
 11
618.655842
 21
26.247223
 31
0.0
  0
LINE
  5
1C87
100
AcDbEntity
  8
MSL2_180_3F-0
100
AcDbLine
 10
620.705842
 20
22.494446
 30
0.0
 11
618.655842
 21
22.494446
 31
0.0
  0
LINE
  5
1C88
100
AcDbEntity
  8
MSL2_180_3F-7
100
AcDbLine
 10
632.680842
 20
11.25
 30
0.0
 11
632.680842
 21
18.75
 31
0.0
  0
LINE
  5
1C89
100
AcDbEntity
  8
MSL2_180_3F-7
100
AcDbLine
 10
628.930842
 20
15.0
 30
0.0
 11
636.430842
 21
15.0
 31
0.0
  0
CIRCLE
  5
1C8A
100
AcDbEntity
  8
MSL2_180_3F-0
100
AcDbCircle
 10
632.680842
 20
15.0
 30
0.0
 40
2.067
  0
ARC
  5
1C8B
100
AcDbEntity
  8
MSL2_180_3F-4
100
AcDbCircle
 10
632.680842
 20
15.0
 30
0.0
 40
2.5
100
AcDbArc
 50
172.405357
 51
104.931417
  0
LINE
  5
1C8C
100
AcDbEntity
  8
MSL2_180_3F-0
100
AcDbLine
 10
621.680842
 20
34.9
 30
0.0
 11
637.680842
 21
34.9
 31
0.0
  0
ARC
  5
1C8D
100
AcDbEntity
  8
MSL2_180_3F-0
100
AcDbCircle
 10
619.387786
 20
35.629165
 30
0.0
 40
2.293056
100
AcDbArc
 50
305.085847
 51
54.914153
  0
ARC
  5
1C8E
100
AcDbEntity
  8
MSL2_180_3F-0
100
AcDbCircle
 10
619.973897
 20
35.629165
 30
0.0
 40
2.293056
100
AcDbArc
 50
125.085848
 51
234.914152
  0
LINE
  5
1C8F
100
AcDbEntity
  8
MSL2_180_3F-0
100
AcDbLine
 10
620.705842
 20
33.752776
 30
0.0
 11
618.655842
 21
33.752776
 31
0.0
  0
LINE
  5
1C90
100
AcDbEntity
  8
MSL2_180_3F-0
100
AcDbLine
 10
620.705842
 20
37.505553
 30
0.0
 11
618.655842
 21
37.505553
 31
0.0
  0
LINE
  5
1C91
100
AcDbEntity
  8
MSL2_180_3F-0
100
AcDbLine
 10
637.680842
 20
64.0
 30
0.0
 11
621.680842
 21
64.0
 31
0.0
  0
LINE
  5
1C92
100
AcDbEntity
  8
MSL2_180_3F-7
100
AcDbLine
 10
641.029727
 20
122.5
 30
0.0
 11
415.956959
 21
122.5
 31
0.0
  0
LINE
  5
1C93
100
AcDbEntity
  8
MSL2_180_3F-0
100
AcDbLine
 10
621.680842
 20
128.5
 30
0.0
 11
420.680842
 21
128.5
 31
0.0
  0
LINE
  5
1C94
100
AcDbEntity
  8
MSL2_180_3F-0
100
AcDbLine
 10
420.680842
 20
116.5
 30
0.0
 11
621.680842
 21
116.5
 31
0.0
  0
LINE
  5
1C95
100
AcDbEntity
  8
MSL2_180_3F-7
100
AcDbLine
 10
641.029727
 20
177.5
 30
0.0
 11
415.956959
 21
177.5
 31
0.0
  0
LINE
  5
1C96
100
AcDbEntity
  8
MSL2_180_3F-7
100
AcDbLine
 10
641.029727
 20
150.0
 30
0.0
 11
415.956959
 21
150.0
 31
0.0
  0
LINE
  5
1C97
100
AcDbEntity
  8
MSL2_180_3F-0
100
AcDbLine
 10
621.680842
 20
183.5
 30
0.0
 11
420.680842
 21
183.5
 31
0.0
  0
LINE
  5
1C98
100
AcDbEntity
  8
MSL2_180_3F-0
100
AcDbLine
 10
420.680842
 20
171.5
 30
0.0
 11
621.680842
 21
171.5
 31
0.0
  0
LINE
  5
1C99
100
AcDbEntity
  8
MSL2_180_3F-0
100
AcDbLine
 10
621.680842
 20
156.0
 30
0.0
 11
435.680842
 21
156.0
 31
0.0
  0
LINE
  5
1C9A
100
AcDbEntity
  8
MSL2_180_3F-0
100
AcDbLine
 10
621.680842
 20
153.0
 30
0.0
 11
435.680842
 21
153.0
 31
0.0
  0
LINE
  5
1C9B
100
AcDbEntity
  8
MSL2_180_3F-0
100
AcDbLine
 10
435.680842
 20
147.0
 30
0.0
 11
621.680842
 21
147.0
 31
0.0
  0
LINE
  5
1C9C
100
AcDbEntity
  8
MSL2_180_3F-0
100
AcDbLine
 10
435.680842
 20
144.0
 30
0.0
 11
621.680842
 21
144.0
 31
0.0
  0
LINE
  5
1C9D
100
AcDbEntity
  8
MSL2_180_3F-0
100
AcDbLine
 10
434.680842
 20
141.0
 30
0.0
 11
434.680842
 21
159.0
 31
0.0
  0
LINE
  5
1C9E
100
AcDbEntity
  8
MSL2_180_3F-0
100
AcDbLine
 10
435.680842
 20
142.0
 30
0.0
 11
435.680842
 21
158.0
 31
0.0
  0
LINE
  5
1C9F
100
AcDbEntity
  8
MSL2_180_3F-7
100
AcDbLine
 10
360.680842
 20
161.451766
 30
0.0
 11
360.680842
 21
138.635194
 31
0.0
  0
LINE
  5
1CA0
100
AcDbEntity
  8
MSL2_180_3F-7
100
AcDbLine
 10
330.680842
 20
161.451766
 30
0.0
 11
330.680842
 21
138.635194
 31
0.0
  0
LINE
  5
1CA1
100
AcDbEntity
  8
MSL2_180_3F-7
100
AcDbLine
 10
330.680842
 20
122.480714
 30
0.0
 11
330.680842
 21
105.934345
 31
0.0
  0
LINE
  5
1CA2
100
AcDbEntity
  8
MSL2_180_3F-7
100
AcDbLine
 10
345.680842
 20
122.480714
 30
0.0
 11
345.680842
 21
105.934345
 31
0.0
  0
LINE
  5
1CA3
100
AcDbEntity
  8
MSL2_180_3F-7
100
AcDbLine
 10
330.680842
 20
135.0
 30
0.0
 11
330.680842
 21
131.392806
 31
0.0
  0
CIRCLE
  5
1CA4
100
AcDbEntity
  8
MSL2_180_3F-0
100
AcDbCircle
 10
330.680842
 20
135.0
 30
0.0
 40
2.5
  0
LINE
  5
1CA5
100
AcDbEntity
  8
MSL2_180_3F-7
100
AcDbLine
 10
330.680842
 20
135.0
 30
0.0
 11
327.073648
 21
135.0
 31
0.0
  0
LINE
  5
1CA6
100
AcDbEntity
  8
MSL2_180_3F-7
100
AcDbLine
 10
330.680842
 20
135.0
 30
0.0
 11
334.288036
 21
135.0
 31
0.0
  0
LINE
  5
1CA7
100
AcDbEntity
  8
MSL2_180_3F-7
100
AcDbLine
 10
330.680842
 20
135.0
 30
0.0
 11
330.680842
 21
138.607194
 31
0.0
  0
LINE
  5
1CA8
100
AcDbEntity
  8
MSL2_180_3F-7
100
AcDbLine
 10
345.680842
 20
131.25
 30
0.0
 11
345.680842
 21
138.75
 31
0.0
  0
ARC
  5
1CA9
100
AcDbEntity
  8
MSL2_180_3F-4
100
AcDbCircle
 10
345.680842
 20
135.0
 30
0.0
 40
2.5
100
AcDbArc
 50
172.405357
 51
104.931417
  0
CIRCLE
  5
1CAA
100
AcDbEntity
  8
MSL2_180_3F-0
100
AcDbCircle
 10
345.680842
 20
135.0
 30
0.0
 40
2.067
  0
LINE
  5
1CAB
100
AcDbEntity
  8
MSL2_180_3F-7
100
AcDbLine
 10
341.930842
 20
135.0
 30
0.0
 11
349.430842
 21
135.0
 31
0.0
  0
LINE
  5
1CAC
100
AcDbEntity
  8
MSL2_180_3F-7
100
AcDbLine
 10
360.680842
 20
122.480714
 30
0.0
 11
360.680842
 21
105.934345
 31
0.0
  0
LINE
  5
1CAD
100
AcDbEntity
  8
MSL2_180_3F-7
100
AcDbLine
 10
375.680842
 20
122.480714
 30
0.0
 11
375.680842
 21
105.934345
 31
0.0
  0
LINE
  5
1CAE
100
AcDbEntity
  8
MSL2_180_3F-7
100
AcDbLine
 10
360.680842
 20
135.0
 30
0.0
 11
360.680842
 21
131.392806
 31
0.0
  0
CIRCLE
  5
1CAF
100
AcDbEntity
  8
MSL2_180_3F-0
100
AcDbCircle
 10
360.680842
 20
135.0
 30
0.0
 40
2.5
  0
LINE
  5
1CB0
100
AcDbEntity
  8
MSL2_180_3F-7
100
AcDbLine
 10
360.680842
 20
135.0
 30
0.0
 11
357.073648
 21
135.0
 31
0.0
  0
LINE
  5
1CB1
100
AcDbEntity
  8
MSL2_180_3F-7
100
AcDbLine
 10
360.680842
 20
135.0
 30
0.0
 11
364.288036
 21
135.0
 31
0.0
  0
LINE
  5
1CB2
100
AcDbEntity
  8
MSL2_180_3F-7
100
AcDbLine
 10
360.680842
 20
135.0
 30
0.0
 11
360.680842
 21
138.607194
 31
0.0
  0
CIRCLE
  5
1CB3
100
AcDbEntity
  8
MSL2_180_3F-0
100
AcDbCircle
 10
375.680842
 20
135.0
 30
0.0
 40
2.067
  0
ARC
  5
1CB4
100
AcDbEntity
  8
MSL2_180_3F-4
100
AcDbCircle
 10
375.680842
 20
135.0
 30
0.0
 40
2.5
100
AcDbArc
 50
172.405357
 51
104.931417
  0
LINE
  5
1CB5
100
AcDbEntity
  8
MSL2_180_3F-7
100
AcDbLine
 10
375.680842
 20
131.25
 30
0.0
 11
375.680842
 21
138.75
 31
0.0
  0
LINE
  5
1CB6
100
AcDbEntity
  8
MSL2_180_3F-7
100
AcDbLine
 10
371.930842
 20
135.0
 30
0.0
 11
379.430842
 21
135.0
 31
0.0
  0
LINE
  5
1CB7
100
AcDbEntity
  8
MSL2_180_3F-0
100
AcDbLine
 10
420.680842
 20
141.0
 30
0.0
 11
434.680842
 21
141.0
 31
0.0
  0
LINE
  5
1CB8
100
AcDbEntity
  8
MSL2_180_3F-0
100
AcDbLine
 10
434.680842
 20
141.0
 30
0.0
 11
435.680842
 21
142.0
 31
0.0
  0
LINE
  5
1CB9
100
AcDbEntity
  8
MSL2_180_3F-7
100
AcDbLine
 10
375.680842
 20
193.717185
 30
0.0
 11
375.680842
 21
177.519161
 31
0.0
  0
LINE
  5
1CBA
100
AcDbEntity
  8
MSL2_180_3F-7
100
AcDbLine
 10
360.680842
 20
193.717185
 30
0.0
 11
360.680842
 21
177.519161
 31
0.0
  0
LINE
  5
1CBB
100
AcDbEntity
  8
MSL2_180_3F-7
100
AcDbLine
 10
330.680842
 20
193.717185
 30
0.0
 11
330.680842
 21
177.519161
 31
0.0
  0
LINE
  5
1CBC
100
AcDbEntity
  8
MSL2_180_3F-7
100
AcDbLine
 10
345.680842
 20
193.717185
 30
0.0
 11
345.680842
 21
177.519161
 31
0.0
  0
LINE
  5
1CBD
100
AcDbEntity
  8
MSL2_180_3F-7
100
AcDbLine
 10
345.680842
 20
161.25
 30
0.0
 11
345.680842
 21
168.75
 31
0.0
  0
LINE
  5
1CBE
100
AcDbEntity
  8
MSL2_180_3F-7
100
AcDbLine
 10
330.680842
 20
165.0
 30
0.0
 11
330.680842
 21
161.526506
 31
0.0
  0
LINE
  5
1CBF
100
AcDbEntity
  8
MSL2_180_3F-7
100
AcDbLine
 10
330.680842
 20
165.0
 30
0.0
 11
327.207347
 21
165.0
 31
0.0
  0
CIRCLE
  5
1CC0
100
AcDbEntity
  8
MSL2_180_3F-0
100
AcDbCircle
 10
330.680842
 20
164.965783
 30
0.0
 40
2.5
  0
LINE
  5
1CC1
100
AcDbEntity
  8
MSL2_180_3F-7
100
AcDbLine
 10
330.680842
 20
165.0
 30
0.0
 11
334.154336
 21
165.0
 31
0.0
  0
LINE
  5
1CC2
100
AcDbEntity
  8
MSL2_180_3F-7
100
AcDbLine
 10
330.680842
 20
165.0
 30
0.0
 11
330.680842
 21
168.473494
 31
0.0
  0
LINE
  5
1CC3
100
AcDbEntity
  8
MSL2_180_3F-7
100
AcDbLine
 10
341.930842
 20
165.0
 30
0.0
 11
349.430842
 21
165.0
 31
0.0
  0
CIRCLE
  5
1CC4
100
AcDbEntity
  8
MSL2_180_3F-0
100
AcDbCircle
 10
345.680842
 20
165.0
 30
0.0
 40
2.067
  0
ARC
  5
1CC5
100
AcDbEntity
  8
MSL2_180_3F-4
100
AcDbCircle
 10
345.680842
 20
165.0
 30
0.0
 40
2.5
100
AcDbArc
 50
172.405357
 51
104.931417
  0
LINE
  5
1CC6
100
AcDbEntity
  8
MSL2_180_3F-7
100
AcDbLine
 10
375.680842
 20
161.25
 30
0.0
 11
375.680842
 21
168.75
 31
0.0
  0
LINE
  5
1CC7
100
AcDbEntity
  8
MSL2_180_3F-7
100
AcDbLine
 10
360.680842
 20
165.0
 30
0.0
 11
360.680842
 21
161.526506
 31
0.0
  0
LINE
  5
1CC8
100
AcDbEntity
  8
MSL2_180_3F-7
100
AcDbLine
 10
360.680842
 20
165.0
 30
0.0
 11
357.207347
 21
165.0
 31
0.0
  0
LINE
  5
1CC9
100
AcDbEntity
  8
MSL2_180_3F-7
100
AcDbLine
 10
360.680842
 20
165.0
 30
0.0
 11
364.154336
 21
165.0
 31
0.0
  0
LINE
  5
1CCA
100
AcDbEntity
  8
MSL2_180_3F-7
100
AcDbLine
 10
360.680842
 20
165.0
 30
0.0
 11
360.680842
 21
168.473494
 31
0.0
  0
CIRCLE
  5
1CCB
100
AcDbEntity
  8
MSL2_180_3F-0
100
AcDbCircle
 10
360.680842
 20
164.965783
 30
0.0
 40
2.5
  0
LINE
  5
1CCC
100
AcDbEntity
  8
MSL2_180_3F-7
100
AcDbLine
 10
371.930842
 20
165.0
 30
0.0
 11
379.430842
 21
165.0
 31
0.0
  0
ARC
  5
1CCD
100
AcDbEntity
  8
MSL2_180_3F-4
100
AcDbCircle
 10
375.680842
 20
165.0
 30
0.0
 40
2.5
100
AcDbArc
 50
172.405357
 51
104.931417
  0
CIRCLE
  5
1CCE
100
AcDbEntity
  8
MSL2_180_3F-0
100
AcDbCircle
 10
375.680842
 20
165.0
 30
0.0
 40
2.067
  0
LINE
  5
1CCF
100
AcDbEntity
  8
MSL2_180_3F-0
100
AcDbLine
 10
434.680842
 20
159.0
 30
0.0
 11
420.680842
 21
159.0
 31
0.0
  0
LINE
  5
1CD0
100
AcDbEntity
  8
MSL2_180_3F-0
100
AcDbLine
 10
435.680842
 20
158.0
 30
0.0
 11
434.680842
 21
159.0
 31
0.0
  0
LINE
  5
1CD1
100
AcDbEntity
  8
MSL2_180_3F-0
100
AcDbLine
 10
637.680842
 20
109.0
 30
0.0
 11
637.680842
 21
191.0
 31
0.0
  0
LINE
  5
1CD2
100
AcDbEntity
  8
MSL2_180_3F-0
100
AcDbLine
 10
621.680842
 20
191.0
 30
0.0
 11
621.680842
 21
109.0
 31
0.0
  0
LINE
  5
1CD3
100
AcDbEntity
  8
MSL2_180_3F-7
100
AcDbLine
 10
626.680842
 20
121.25
 30
0.0
 11
626.680842
 21
128.75
 31
0.0
  0
CIRCLE
  5
1CD4
100
AcDbEntity
  8
MSL2_180_3F-0
100
AcDbCircle
 10
626.680842
 20
125.0
 30
0.0
 40
2.067
  0
ARC
  5
1CD5
100
AcDbEntity
  8
MSL2_180_3F-4
100
AcDbCircle
 10
626.680842
 20
125.0
 30
0.0
 40
2.5
100
AcDbArc
 50
172.405357
 51
104.931417
  0
LINE
  5
1CD6
100
AcDbEntity
  8
MSL2_180_3F-7
100
AcDbLine
 10
632.680842
 20
124.393383
 30
0.0
 11
632.680842
 21
106.0
 31
0.0
  0
LINE
  5
1CD7
100
AcDbEntity
  8
MSL2_180_3F-7
100
AcDbLine
 10
632.680842
 20
124.393383
 30
0.0
 11
632.680842
 21
106.0
 31
0.0
  0
LINE
  5
1CD8
100
AcDbEntity
  8
MSL2_180_3F-0
100
AcDbLine
 10
621.680842
 20
109.0
 30
0.0
 11
637.680842
 21
109.0
 31
0.0
  0
LINE
  5
1CD9
100
AcDbEntity
  8
MSL2_180_3F-3
100
AcDbLine
 10
634.747842
 20
109.0
 30
0.0
 11
634.747842
 21
120.2
 31
0.0
  0
LINE
  5
1CDA
100
AcDbEntity
  8
MSL2_180_3F-3
100
AcDbLine
 10
634.747842
 20
109.0
 30
0.0
 11
634.747842
 21
120.2
 31
0.0
  0
LINE
  5
1CDB
100
AcDbEntity
  8
MSL2_180_3F-3
100
AcDbLine
 10
635.180842
 20
109.0
 30
0.0
 11
635.180842
 21
117.0
 31
0.0
  0
LINE
  5
1CDC
100
AcDbEntity
  8
MSL2_180_3F-3
100
AcDbLine
 10
635.180842
 20
109.0
 30
0.0
 11
635.180842
 21
117.0
 31
0.0
  0
LINE
  5
1CDD
100
AcDbEntity
  8
MSL2_180_3F-3
100
AcDbLine
 10
630.613842
 20
109.0
 30
0.0
 11
630.613842
 21
120.2
 31
0.0
  0
LINE
  5
1CDE
100
AcDbEntity
  8
MSL2_180_3F-3
100
AcDbLine
 10
630.613842
 20
109.0
 30
0.0
 11
630.613842
 21
120.2
 31
0.0
  0
LINE
  5
1CDF
100
AcDbEntity
  8
MSL2_180_3F-3
100
AcDbLine
 10
630.180842
 20
109.0
 30
0.0
 11
630.180842
 21
117.0
 31
0.0
  0
LINE
  5
1CE0
100
AcDbEntity
  8
MSL2_180_3F-3
100
AcDbLine
 10
630.180842
 20
109.0
 30
0.0
 11
630.180842
 21
117.0
 31
0.0
  0
LINE
  5
1CE1
100
AcDbEntity
  8
MSL2_180_3F-3
100
AcDbLine
 10
632.680842
 20
121.393383
 30
0.0
 11
630.613842
 21
120.2
 31
0.0
  0
LINE
  5
1CE2
100
AcDbEntity
  8
MSL2_180_3F-3
100
AcDbLine
 10
632.680842
 20
121.393383
 30
0.0
 11
630.613842
 21
120.2
 31
0.0
  0
LINE
  5
1CE3
100
AcDbEntity
  8
MSL2_180_3F-3
100
AcDbLine
 10
632.680842
 20
121.393383
 30
0.0
 11
634.747842
 21
120.2
 31
0.0
  0
LINE
  5
1CE4
100
AcDbEntity
  8
MSL2_180_3F-3
100
AcDbLine
 10
632.680842
 20
121.393383
 30
0.0
 11
634.747842
 21
120.2
 31
0.0
  0
LINE
  5
1CE5
100
AcDbEntity
  8
MSL2_180_3F-3
100
AcDbLine
 10
630.613842
 20
120.2
 30
0.0
 11
634.747842
 21
120.2
 31
0.0
  0
LINE
  5
1CE6
100
AcDbEntity
  8
MSL2_180_3F-3
100
AcDbLine
 10
630.613842
 20
120.2
 30
0.0
 11
634.747842
 21
120.2
 31
0.0
  0
LINE
  5
1CE7
100
AcDbEntity
  8
MSL2_180_3F-3
100
AcDbLine
 10
630.180842
 20
117.0
 30
0.0
 11
635.180842
 21
117.0
 31
0.0
  0
LINE
  5
1CE8
100
AcDbEntity
  8
MSL2_180_3F-3
100
AcDbLine
 10
630.180842
 20
117.0
 30
0.0
 11
635.180842
 21
117.0
 31
0.0
  0
LINE
  5
1CE9
100
AcDbEntity
  8
MSL2_180_3F-7
100
AcDbLine
 10
641.029727
 20
135.0
 30
0.0
 11
617.910508
 21
135.0
 31
0.0
  0
LINE
  5
1CEA
100
AcDbEntity
  8
MSL2_180_3F-7
100
AcDbLine
 10
622.930842
 20
125.0
 30
0.0
 11
630.430842
 21
125.0
 31
0.0
  0
LINE
  5
1CEB
100
AcDbEntity
  8
MSL2_180_3F-7
100
AcDbLine
 10
632.680842
 20
175.606617
 30
0.0
 11
632.680842
 21
194.0
 31
0.0
  0
LINE
  5
1CEC
100
AcDbEntity
  8
MSL2_180_3F-7
100
AcDbLine
 10
632.680842
 20
175.606617
 30
0.0
 11
632.680842
 21
194.0
 31
0.0
  0
LINE
  5
1CED
100
AcDbEntity
  8
MSL2_180_3F-3
100
AcDbLine
 10
634.747842
 20
191.0
 30
0.0
 11
634.747842
 21
179.8
 31
0.0
  0
LINE
  5
1CEE
100
AcDbEntity
  8
MSL2_180_3F-3
100
AcDbLine
 10
634.747842
 20
191.0
 30
0.0
 11
634.747842
 21
179.8
 31
0.0
  0
LINE
  5
1CEF
100
AcDbEntity
  8
MSL2_180_3F-3
100
AcDbLine
 10
630.613842
 20
191.0
 30
0.0
 11
630.613842
 21
179.8
 31
0.0
  0
LINE
  5
1CF0
100
AcDbEntity
  8
MSL2_180_3F-3
100
AcDbLine
 10
630.613842
 20
191.0
 30
0.0
 11
630.613842
 21
179.8
 31
0.0
  0
LINE
  5
1CF1
100
AcDbEntity
  8
MSL2_180_3F-7
100
AcDbLine
 10
622.930842
 20
175.0
 30
0.0
 11
630.430842
 21
175.0
 31
0.0
  0
CIRCLE
  5
1CF2
100
AcDbEntity
  8
MSL2_180_3F-0
100
AcDbCircle
 10
626.680842
 20
175.0
 30
0.0
 40
2.067
  0
ARC
  5
1CF3
100
AcDbEntity
  8
MSL2_180_3F-4
100
AcDbCircle
 10
626.680842
 20
175.0
 30
0.0
 40
2.5
100
AcDbArc
 50
172.405357
 51
104.931417
  0
LINE
  5
1CF4
100
AcDbEntity
  8
MSL2_180_3F-7
100
AcDbLine
 10
641.029727
 20
165.0
 30
0.0
 11
617.910508
 21
165.0
 31
0.0
  0
LINE
  5
1CF5
100
AcDbEntity
  8
MSL2_180_3F-7
100
AcDbLine
 10
626.680842
 20
171.25
 30
0.0
 11
626.680842
 21
178.75
 31
0.0
  0
LINE
  5
1CF6
100
AcDbEntity
  8
MSL2_180_3F-3
100
AcDbLine
 10
632.680842
 20
178.606617
 30
0.0
 11
630.613842
 21
179.8
 31
0.0
  0
LINE
  5
1CF7
100
AcDbEntity
  8
MSL2_180_3F-3
100
AcDbLine
 10
632.680842
 20
178.606617
 30
0.0
 11
630.613842
 21
179.8
 31
0.0
  0
LINE
  5
1CF8
100
AcDbEntity
  8
MSL2_180_3F-3
100
AcDbLine
 10
632.680842
 20
178.606617
 30
0.0
 11
634.747842
 21
179.8
 31
0.0
  0
LINE
  5
1CF9
100
AcDbEntity
  8
MSL2_180_3F-3
100
AcDbLine
 10
632.680842
 20
178.606617
 30
0.0
 11
634.747842
 21
179.8
 31
0.0
  0
LINE
  5
1CFA
100
AcDbEntity
  8
MSL2_180_3F-3
100
AcDbLine
 10
630.613842
 20
179.8
 30
0.0
 11
634.747842
 21
179.8
 31
0.0
  0
LINE
  5
1CFB
100
AcDbEntity
  8
MSL2_180_3F-3
100
AcDbLine
 10
630.613842
 20
179.8
 30
0.0
 11
634.747842
 21
179.8
 31
0.0
  0
LINE
  5
1CFC
100
AcDbEntity
  8
MSL2_180_3F-0
100
AcDbLine
 10
637.680842
 20
191.0
 30
0.0
 11
621.680842
 21
191.0
 31
0.0
  0
LINE
  5
1CFD
100
AcDbEntity
  8
MSL2_180_3F-3
100
AcDbLine
 10
635.180842
 20
191.0
 30
0.0
 11
635.180842
 21
183.0
 31
0.0
  0
LINE
  5
1CFE
100
AcDbEntity
  8
MSL2_180_3F-3
100
AcDbLine
 10
635.180842
 20
191.0
 30
0.0
 11
635.180842
 21
183.0
 31
0.0
  0
LINE
  5
1CFF
100
AcDbEntity
  8
MSL2_180_3F-3
100
AcDbLine
 10
630.180842
 20
191.0
 30
0.0
 11
630.180842
 21
183.0
 31
0.0
  0
LINE
  5
1D00
100
AcDbEntity
  8
MSL2_180_3F-3
100
AcDbLine
 10
630.180842
 20
191.0
 30
0.0
 11
630.180842
 21
183.0
 31
0.0
  0
LINE
  5
1D01
100
AcDbEntity
  8
MSL2_180_3F-3
100
AcDbLine
 10
630.180842
 20
183.0
 30
0.0
 11
635.180842
 21
183.0
 31
0.0
  0
LINE
  5
1D02
100
AcDbEntity
  8
MSL2_180_3F-3
100
AcDbLine
 10
630.180842
 20
183.0
 30
0.0
 11
635.180842
 21
183.0
 31
0.0
  0
POINT
  5
1D03
100
AcDbEntity
  8
0
 60
     1
100
AcDbPoint
 10
-165.838689
 20
-119.888977
 30
0.0
1001
GENIUS_GENBH_13
1002
{
1000
FGO
1005
0
1002
}
1001
GENIUS_GENODEF_13
1002
{
1000
HIER
1070
     1
1002
}
1002
{
1000
MANEDIT
1070
     0
1002
}
1002
{
1000
NOSEL
1070
     1
1002
}
1002
{
1000
BEHIND
1070
     0
1002
}
1002
{
1000
REACTOR
1002
}
1001
GENIUS_GENOBJ-NBEHI-BHB_13
1002
{
1000
OWNER
1000
GENBEHI
1002
}
1001
GENIUS_GENOENT_13
1002
{
1000
MYREF
1005
1D03
1002
}
1002
{
1000
GRP
1005
0
1002
}
1001
GENIUS_GENOLIS_13
1002
{
1000
ENT
1005
1B83
1005
1B8D
1005
1B82
1005
1B8E
1005
1B4D
1005
1B4C
1005
183D
1005
1B90
1005
1B8F
1002
}
  0
POINT
  5
1D04
100
AcDbEntity
  8
0
 60
     1
100
AcDbPoint
 10
-165.838689
 20
-119.888977
 30
0.0
1001
GENIUS_GENBH_13
1002
{
1000
FGO
1005
0
1002
}
1001
GENIUS_GENODEF_13
1002
{
1000
HIER
1070
     1
1002
}
1002
{
1000
MANEDIT
1070
     0
1002
}
1002
{
1000
NOSEL
1070
     1
1002
}
1002
{
1000
BEHIND
1070
     0
1002
}
1002
{
1000
REACTOR
1002
}
1001
GENIUS_GENOBJ-NBEHI-BHB_13
1002
{
1000
OWNER
1000
GENBEHI
1002
}
1001
GENIUS_GENOENT_13
1002
{
1000
MYREF
1005
1D04
1002
}
1002
{
1000
GRP
1005
0
1002
}
1001
GENIUS_GENOLIS_13
1002
{
1000
ENT
1005
191F
1005
1938
1005
191E
1005
1937
1005
1936
1005
1935
1005
183D
1005
193A
1005
193B
1002
}
  0
ENDSEC
  0
SECTION
  2
OBJECTS
  0
DICTIONARY
  5
C
100
AcDbDictionary
  3
ACAD_GROUP
350
D
  3
ACAD_MLINESTYLE
350
E
  0
DICTIONARY
  5
D
102
{ACAD_REACTORS
330
C
102
}
100
AcDbDictionary
  0
DICTIONARY
  5
E
102
{ACAD_REACTORS
330
C
102
}
100
AcDbDictionary
  3
STANDARD
350
13
  0
MLINESTYLE
  5
13
102
{ACAD_REACTORS
330
E
102
}
100
AcDbMlineStyle
  2
STANDARD
 70
     0
  3

 62
     0
 51
90.0
 52
90.0
 71
     2
 49
0.5
 62
   256
  6
BYLAYER
 49
-0.5
 62
   256
  6
BYLAYER
  0
ENDSEC
  0
EOF
