  0
SECTION
  2
HEADER
  9
$ACADVER
  1
AC1012
  9
$DWGCODEPAGE
  3
ansi_1252
  9
$INSBASE
 10
201.649254
 20
119.829629
 30
0.0
  9
$EXTMIN
 10
204.170677
 20
122.349588
 30
0.0
  9
$EXTMAX
 10
621.43025
 20
498.556312
 30
0.0
  9
$LIMMIN
 10
0.0
 20
0.0
  9
$LIMMAX
 10
420.0
 20
297.0
  9
$ORTHOMODE
 70
     1
  9
$REGENMODE
 70
     1
  9
$FILLMODE
 70
     1
  9
$QTEXTMODE
 70
     0
  9
$MIRRTEXT
 70
     1
  9
$DRAGMODE
 70
     2
  9
$LTSCALE
 40
1.0
  9
$OSMODE
 70
    33
  9
$ATTMODE
 70
     1
  9
$TEXTSIZE
 40
3.5
  9
$TRACEWID
 40
1.0
  9
$TEXTSTYLE
  7
STANDARD
  9
$CLAYER
  8
MSL-2-30-0
  9
$CELTYPE
  6
BYLAYER
  9
$CECOLOR
 62
   256
  9
$CELTSCALE
 40
1.0
  9
$DELOBJ
 70
     1
  9
$DISPSILH
 70
     0
  9
$DIMSCALE
 40
1.0
  9
$DIMASZ
 40
2.5
  9
$DIMEXO
 40
1.0
  9
$DIMDLI
 40
10.0
  9
$DIMRND
 40
0.0
  9
$DIMDLE
 40
0.0
  9
$DIMEXE
 40
2.0
  9
$DIMTP
 40
0.1
  9
$DIMTM
 40
0.1
  9
$DIMTXT
 40
3.5
  9
$DIMCEN
 40
-2.0
  9
$DIMTSZ
 40
0.0
  9
$DIMTOL
 70
     0
  9
$DIMLIM
 70
     0
  9
$DIMTIH
 70
     0
  9
$DIMTOH
 70
     0
  9
$DIMSE1
 70
     0
  9
$DIMSE2
 70
     0
  9
$DIMTAD
 70
     1
  9
$DIMZIN
 70
     8
  9
$DIMBLK
  1

  9
$DIMASO
 70
     1
  9
$DIMSHO
 70
     1
  9
$DIMPOST
  1

  9
$DIMAPOST
  1

  9
$DIMALT
 70
     0
  9
$DIMALTD
 70
     2
  9
$DIMALTF
 40
25.4
  9
$DIMLFAC
 40
1.0
  9
$DIMTOFL
 70
     1
  9
$DIMTVP
 40
0.0
  9
$DIMTIX
 70
     0
  9
$DIMSOXD
 70
     0
  9
$DIMSAH
 70
     0
  9
$DIMBLK1
  1

  9
$DIMBLK2
  1

  9
$DIMSTYLE
  2
GEN-ISO
  9
$DIMCLRD
 70
     0
  9
$DIMCLRE
 70
     0
  9
$DIMCLRT
 70
     2
  9
$DIMTFAC
 40
1.0
  9
$DIMGAP
 40
1.5
  9
$DIMJUST
 70
     0
  9
$DIMSD1
 70
     0
  9
$DIMSD2
 70
     0
  9
$DIMTOLJ
 70
     0
  9
$DIMTZIN
 70
     8
  9
$DIMALTZ
 70
     8
  9
$DIMALTTZ
 70
     8
  9
$DIMFIT
 70
     3
  9
$DIMUPT
 70
     0
  9
$DIMUNIT
 70
     2
  9
$DIMDEC
 70
     2
  9
$DIMTDEC
 70
     5
  9
$DIMALTU
 70
     2
  9
$DIMALTTD
 70
     2
  9
$DIMTXSTY
  7
STANDARD
  9
$DIMAUNIT
 70
     0
  9
$LUNITS
 70
     2
  9
$LUPREC
 70
     4
  9
$SKETCHINC
 40
1.0
  9
$FILLETRAD
 40
0.0
  9
$AUNITS
 70
     0
  9
$AUPREC
 70
     0
  9
$MENU
  1
acad
  9
$ELEVATION
 40
0.0
  9
$PELEVATION
 40
0.0
  9
$THICKNESS
 40
0.0
  9
$LIMCHECK
 70
     0
  9
$BLIPMODE
 70
     0
  9
$CHAMFERA
 40
10.0
  9
$CHAMFERB
 40
10.0
  9
$CHAMFERC
 40
0.0
  9
$CHAMFERD
 40
0.0
  9
$SKPOLY
 70
     0
  9
$TDCREATE
 40
2450624.477272569
  9
$TDUPDATE
 40
2450786.455098611
  9
$TDINDWG
 40
0.0236950579
  9
$TDUSRTIMER
 40
0.0236950579
  9
$USRTIMER
 70
     1
  9
$ANGBASE
 50
0.0
  9
$ANGDIR
 70
     0
  9
$PDMODE
 70
     0
  9
$PDSIZE
 40
0.0
  9
$PLINEWID
 40
0.0
  9
$COORDS
 70
     2
  9
$SPLFRAME
 70
     0
  9
$SPLINETYPE
 70
     6
  9
$SPLINESEGS
 70
     8
  9
$ATTDIA
 70
     1
  9
$ATTREQ
 70
     1
  9
$HANDLING
 70
     1
  9
$HANDSEED
  5
3B0
  9
$SURFTAB1
 70
     6
  9
$SURFTAB2
 70
     6
  9
$SURFTYPE
 70
     6
  9
$SURFU
 70
     6
  9
$SURFV
 70
     6
  9
$UCSNAME
  2

  9
$UCSORG
 10
0.0
 20
0.0
 30
0.0
  9
$UCSXDIR
 10
1.0
 20
0.0
 30
0.0
  9
$UCSYDIR
 10
0.0
 20
1.0
 30
0.0
  9
$PUCSNAME
  2

  9
$PUCSORG
 10
0.0
 20
0.0
 30
0.0
  9
$PUCSXDIR
 10
1.0
 20
0.0
 30
0.0
  9
$PUCSYDIR
 10
0.0
 20
1.0
 30
0.0
  9
$USERI1
 70
     0
  9
$USERI2
 70
     0
  9
$USERI3
 70
     0
  9
$USERI4
 70
     0
  9
$USERI5
 70
     0
  9
$USERR1
 40
0.0
  9
$USERR2
 40
0.0
  9
$USERR3
 40
0.0
  9
$USERR4
 40
0.0
  9
$USERR5
 40
0.0
  9
$WORLDVIEW
 70
     1
  9
$SHADEDGE
 70
     3
  9
$SHADEDIF
 70
    70
  9
$TILEMODE
 70
     1
  9
$MAXACTVP
 70
    16
  9
$PINSBASE
 10
0.0
 20
0.0
 30
0.0
  9
$PLIMCHECK
 70
     0
  9
$PEXTMIN
 10
1.000000E+20
 20
1.000000E+20
 30
1.000000E+20
  9
$PEXTMAX
 10
-1.000000E+20
 20
-1.000000E+20
 30
-1.000000E+20
  9
$PLIMMIN
 10
0.0
 20
0.0
  9
$PLIMMAX
 10
420.0
 20
297.0
  9
$UNITMODE
 70
     0
  9
$VISRETAIN
 70
     0
  9
$PLINEGEN
 70
     0
  9
$PSLTSCALE
 70
     1
  9
$TREEDEPTH
 70
  3020
  9
$PICKSTYLE
 70
     1
  9
$CMLSTYLE
  2
STANDARD
  9
$CMLJUST
 70
     0
  9
$CMLSCALE
 40
1.0
  9
$SAVEIMAGES
 70
     0
  0
ENDSEC
  0
SECTION
  2
CLASSES
  0
ENDSEC
  0
SECTION
  2
TABLES
  0
TABLE
  2
VPORT
  5
12
100
AcDbSymbolTable
 70
     3
  0
VPORT
  5
3AF
100
AcDbSymbolTableRecord
100
AcDbViewportTableRecord
  2
*ACTIVE
 70
     0
 10
0.0
 20
0.0
 11
1.0
 21
1.0
 12
516.997247
 22
309.710917
 13
0.0
 23
0.0
 14
1.0
 24
1.0
 15
10.0
 25
10.0
 16
0.0
 26
0.0
 36
1.0
 17
0.0
 27
0.0
 37
0.0
 40
427.442272
 41
1.671569
 42
50.0
 43
0.0
 44
0.0
 50
0.0
 51
0.0
 71
     0
 72
   100
 73
     1
 74
     0
 75
     0
 76
     0
 77
     0
 78
     0
  0
ENDTAB
  0
TABLE
  2
LTYPE
  5
E
100
AcDbSymbolTable
 70
     4
  0
LTYPE
  5
F
100
AcDbSymbolTableRecord
100
AcDbLinetypeTableRecord
  2
BYBLOCK
 70
     0
  3

 72
    65
 73
     0
 40
0.0
  0
LTYPE
  5
6
100
AcDbSymbolTableRecord
100
AcDbLinetypeTableRecord
  2
BYLAYER
 70
     0
  3

 72
    65
 73
     0
 40
0.0
  0
LTYPE
  5
5
100
AcDbSymbolTableRecord
100
AcDbLinetypeTableRecord
  2
CONTINUOUS
 70
    64
  3
Solid line
 72
    65
 73
     0
 40
0.0
  0
LTYPE
  5
26
100
AcDbSymbolTableRecord
100
AcDbLinetypeTableRecord
  2
GEN3
 70
    64
  3
-- -- -- -- -- -- -- -- -- -- -- -- -- -- --
 72
    65
 73
     2
 40
6.25
 49
5.0
 74
     0
 49
-1.25
 74
     0
  0
LTYPE
  5
1C
100
AcDbSymbolTableRecord
100
AcDbLinetypeTableRecord
  2
GEN7A
 70
    64
  3
__ . __ . __
 72
    65
 73
     4
 40
7.5
 49
5.0
 74
     0
 49
-1.25
 74
     0
 49
0.0
 74
     0
 49
-1.25
 74
     0
  0
LTYPE
  5
2FF
100
AcDbSymbolTableRecord
100
AcDbLinetypeTableRecord
  2
CENTER
 70
    64
  3
____ _ ____ _ ____ _ ____ _ ____ _ ____ _ ____
 72
    65
 73
     4
 40
2.0
 49
1.25
 74
     0
 49
-0.25
 74
     0
 49
0.25
 74
     0
 49
-0.25
 74
     0
  0
ENDTAB
  0
TABLE
  2
LAYER
  5
B
100
AcDbSymbolTable
 70
     6
  0
LAYER
  5
4
100
AcDbSymbolTableRecord
100
AcDbLayerTableRecord
  2
0
 70
    64
 62
     7
  6
CONTINUOUS
  0
LAYER
  5
20
100
AcDbSymbolTableRecord
100
AcDbLayerTableRecord
  2
MSL-2-30-0
 70
    64
 62
     7
  6
CONTINUOUS
  0
LAYER
  5
1B
100
AcDbSymbolTableRecord
100
AcDbLayerTableRecord
  2
MSL-2-30-7
 70
    64
 62
     4
  6
GEN7A
  0
LAYER
  5
A4
100
AcDbSymbolTableRecord
100
AcDbLayerTableRecord
  2
MSL-2-30-4
 70
    64
 62
     3
  6
CONTINUOUS
  0
LAYER
  5
25
100
AcDbSymbolTableRecord
100
AcDbLayerTableRecord
  2
MSL-2-30-3
 70
    64
 62
     6
  6
GEN3
  0
LAYER
  5
3AD
100
AcDbSymbolTableRecord
100
AcDbLayerTableRecord
  2
MSL-2-30-6
 70
    64
 62
     2
  6
CONTINUOUS
  0
ENDTAB
  0
TABLE
  2
STYLE
  5
C
100
AcDbSymbolTable
 70
     1
  0
STYLE
  5
D
100
AcDbSymbolTableRecord
100
AcDbTextStyleTableRecord
  2
STANDARD
 70
    64
 40
0.0
 41
1.0
 50
0.0
 71
     0
 42
3.5
  3
ISOCP.SHX
  4

  0
ENDTAB
  0
TABLE
  2
VIEW
  5
10
100
AcDbSymbolTable
 70
     0
  0
ENDTAB
  0
TABLE
  2
UCS
  5
11
100
AcDbSymbolTable
 70
     0
  0
ENDTAB
  0
TABLE
  2
APPID
  5
14
100
AcDbSymbolTable
 70
    19
  0
APPID
  5
15
100
AcDbSymbolTableRecord
100
AcDbRegAppTableRecord
  2
ACAD
 70
    64
  0
APPID
  5
1DD
100
AcDbSymbolTableRecord
100
AcDbRegAppTableRecord
  2
GENIUS_GENOENT_13
 70
     0
1001
GENIUS_GENOBJ_13
1070
     0
  0
APPID
  5
1E1
100
AcDbSymbolTableRecord
100
AcDbRegAppTableRecord
  2
GENIUS_GENBH_13
 70
     0
1001
GENIUS_GENOBJ_13
1070
     1
  0
APPID
  5
1DB
100
AcDbSymbolTableRecord
100
AcDbRegAppTableRecord
  2
GENIUS_GENOBJ_13
 70
     0
1001
GENIUS_GENODEF_13
1070
     0
1001
GENIUS_GENOENT_13
1070
     0
1001
GENIUS_GENOLIS_13
1070
     0
1001
GENIUS_GENOREF_13
1070
     0
1001
GENIUS_GENOBJ-NBEHI-BHF_13
1070
     0
1001
GENIUS_GENOBJ-NBEHI-BHB_13
1070
     0
1001
GENIUS_GENBH_13
1070
     1
1001
GENIUS_GENOBJ-F-PART_13
1070
     0
1001
GENIUS_GEFSTDP_13
1070
     0
1001
GENIUS_GENOBJ-N-CRS_13
1070
     0
  0
APPID
  5
1DC
100
AcDbSymbolTableRecord
100
AcDbRegAppTableRecord
  2
GENIUS_GENODEF_13
 70
     0
1001
GENIUS_GENOBJ_13
1070
     0
  0
APPID
  5
1DE
100
AcDbSymbolTableRecord
100
AcDbRegAppTableRecord
  2
GENIUS_GENOLIS_13
 70
     0
1001
GENIUS_GENOBJ_13
1070
     0
  0
APPID
  5
1DA
100
AcDbSymbolTableRecord
100
AcDbRegAppTableRecord
  2
GENIUS_GENOREF_13
 70
     0
1001
GENIUS_GENOBJ_13
1070
     0
  0
APPID
  5
1DF
100
AcDbSymbolTableRecord
100
AcDbRegAppTableRecord
  2
GENIUS_GENOBJ-NBEHI-BHF_13
 70
     0
1001
GENIUS_GENOBJ_13
1070
     0
  0
APPID
  5
1E0
100
AcDbSymbolTableRecord
100
AcDbRegAppTableRecord
  2
GENIUS_GENOBJ-NBEHI-BHB_13
 70
     0
1001
GENIUS_GENOBJ_13
1070
     0
  0
APPID
  5
1E2
100
AcDbSymbolTableRecord
100
AcDbRegAppTableRecord
  2
GENIUS_GENOBJ-F-PART_13
 70
     0
1001
GENIUS_GENOBJ_13
1070
     0
  0
APPID
  5
1E3
100
AcDbSymbolTableRecord
100
AcDbRegAppTableRecord
  2
GENIUS_GEFSTDP_13
 70
     0
1001
GENIUS_GENOBJ_13
1070
     0
  0
APPID
  5
1E4
100
AcDbSymbolTableRecord
100
AcDbRegAppTableRecord
  2
GENIUS_GENOBJ-N-CRS_13
 70
     0
1001
GENIUS_GENOBJ_13
1070
     0
  0
APPID
  5
3A3
100
AcDbSymbolTableRecord
100
AcDbRegAppTableRecord
  2
GENIUS_GENCFG_13
 70
     0
1001
GENIUS_GENCFG0_13
1000
GEN@INFO_POS@XLATE
1001
GENIUS_GENCFG1_13
1000
GEN@LAYER@DEFS
1001
GENIUS_GENCFG2_13
1000
GEN@LAYER@ENTSORT
1001
GENIUS_GENCFG3_13
1000
GEN@OSWIZ
1001
GENIUS_GENCFG4_13
1000
GEN
1001
GENIUS_GEVCFG0_13
1000
GEV
  0
APPID
  5
3A4
100
AcDbSymbolTableRecord
100
AcDbRegAppTableRecord
  2
GENIUS_GENCFG0_13
 70
     0
1001
GENIUS_GENCFG_13
1071
881142765
1000
3A4
1000
GEN@INFO_POS@XLATE
1070
     7
1000
GenCfgObject
1000
GenCfgShort
1000
GenCfgReal
1000
GenCfgBool
1000
GenCfgString
1000
GenCfgDim
1000
GenCfgAttrInf
1000
INFOPOINTS
1070
     0
1002
{
1000
GENINF13
1070
     0
1002
{
1000
2GENINF
1070
     4
1000
2
1002
{
1002
}
1000
3GENINF
1070
     4
1000
3
1002
{
1002
}
1000
4GENINF
1070
     4
1000
4
1002
{
1002
}
1000
5GENINF
1070
     4
1000
5
1002
{
1002
}
1000
6GENINF
1070
     4
1000
6
1002
{
1002
}
1000
7GENINF
1070
     4
1000
7
1002
{
1002
}
1000
8GENINF
1070
     4
1000
8
1002
{
1002
}
1000
9GENINF
1070
     4
1000
9
1002
{
1002
}
1000
10GENINF
1070
     4
1000
10
1002
{
1002
}
1000
11GENINF
1070
     4
1000
11
1002
{
1002
}
1000
12GENINF
1070
     4
1000
12
1002
{
1002
}
1000
13GENINF
1070
     4
1000
13
1002
{
1002
}
1000
14GENINF
1070
     4
1000
14
1002
{
1002
}
1000
15GENINF
1070
     4
1000
15
1002
{
1002
}
1000
16GENINF
1070
     4
1000
16
1002
{
1002
}
1000
17GENINF
1070
     4
1000
17
1002
{
1002
}
1000
18GENINF
1070
     4
1000
18
1002
{
1002
}
1000
19GENINF
1070
     4
1000
19
1002
{
1002
}
1000
20GENINF
1070
     4
1000
20
1002
{
1002
}
1000
21GENINF
1070
     4
1000
21
1002
{
1002
}
1000
22GENINF
1070
     4
1000
22
1002
{
1002
}
1000
23GENINF
1070
     4
1000
23
1002
{
1002
}
1000
24GENINF
1070
     4
1000
24
1002
{
1002
}
1000
0GENINF
1070
     4
1000
0
1002
{
1002
}
1002
}
1000
GENINFO
1070
     0
1002
{
1000
3GENINF
1070
     4
1000
3
1002
{
1002
}
1000
4GENINF
1070
     4
1000
4
1002
{
1002
}
1000
5GENINF
1070
     4
1000
5
1002
{
1002
}
1000
6GENINF
1070
     4
1000
6
1002
{
1002
}
1000
7GENINF
1070
     4
1000
7
1002
{
1002
}
1000
8GENINF
1070
     4
1000
8
1002
{
1002
}
1000
9GENINF
1070
     4
1000
9
1002
{
1002
}
1000
10GENINF
1070
     4
1000
10
1002
{
1002
}
1000
11GENINF
1070
     4
1000
11
1002
{
1002
}
1000
12GENINF
1070
     4
1000
12
1002
{
1002
}
1000
13GENINF
1070
     4
1000
13
1002
{
1002
}
1000
14GENINF
1070
     4
1000
14
1002
{
1002
}
1000
15GENINF
1070
     4
1000
15
1002
{
1002
}
1000
16GENINF
1070
     4
1000
16
1002
{
1002
}
1000
17GENINF
1070
     4
1000
17
1002
{
1002
}
1000
18GENINF
1070
     4
1000
18
1002
{
1002
}
1000
19GENINF
1070
     4
1000
19
1002
{
1002
}
1000
20GENINF
1070
     4
1000
20
1002
{
1002
}
1000
21GENINF
1070
     4
1000
21
1002
{
1002
}
1000
22GENINF
1070
     4
1000
22
1002
{
1002
}
1002
}
1000
DININFO
1070
     0
1002
{
1000
ST-NAME1
1070
     4
1000
5
1002
{
1002
}
1000
ST-NAME2
1070
     4
1000
6
1002
{
1002
}
1000
ST-NORM1
1070
     4
1000
7
1002
{
1002
}
1000
ST-NORM2
1070
     4
1000
8
1002
{
1002
}
1000
ST-MAT1
1070
     4
1000
9
1002
{
1002
}
1000
ST-MAT2
1070
     4
1000
10
1002
{
1002
}
1002
}
1002
}
1000
POS_NUMBERS
1070
     0
1002
{
1000
GENPOS13
1070
     0
1002
{
1000
1GENPOS
1070
     4
1000
1
1002
{
1002
}
1000
2GENPOS
1070
     4
1000
2
1002
{
1002
}
1000
3GENPOS
1070
     4
1000
3
1002
{
1002
}
1000
4GENPOS
1070
     4
1000
4
1002
{
1002
}
1000
5GENPOS
1070
     4
1000
5
1002
{
1002
}
1000
6GENPOS
1070
     4
1000
6
1002
{
1002
}
1000
7GENPOS
1070
     4
1000
7
1002
{
1002
}
1000
8GENPOS
1070
     4
1000
8
1002
{
1002
}
1000
9GENPOS
1070
     4
1000
9
1002
{
1002
}
1000
10GENPOS
1070
     4
1000
10
1002
{
1002
}
1000
11GENPOS
1070
     4
1000
11
1002
{
1002
}
1000
12GENPOS
1070
     4
1000
12
1002
{
1002
}
1000
13GENPOS
1070
     4
1000
13
1002
{
1002
}
1000
14GENPOS
1070
     4
1000
14
1002
{
1002
}
1000
15GENPOS
1070
     4
1000
15
1002
{
1002
}
1000
16GENPOS
1070
     4
1000
16
1002
{
1002
}
1000
17GENPOS
1070
     4
1000
17
1002
{
1002
}
1000
18GENPOS
1070
     4
1000
18
1002
{
1002
}
1000
19GENPOS
1070
     4
1000
19
1002
{
1002
}
1000
20GENPOS
1070
     4
1000
20
1002
{
1002
}
1000
21GENPOS
1070
     4
1000
21
1002
{
1002
}
1000
22GENPOS
1070
     4
1000
22
1002
{
1002
}
1000
23GENPOS
1070
     4
1000
23
1002
{
1002
}
1000
24GENPOS
1070
     4
1000
24
1002
{
1002
}
1000
0GENPOS
1070
     4
1000
0
1002
{
1002
}
1002
}
1000
GENPOS
1070
     0
1002
{
1000
1GENPOS
1070
     4
1000
1
1002
{
1002
}
1000
2GENPOS
1070
     4
1000
2
1002
{
1002
}
1000
3GENPOS
1070
     4
1000
3
1002
{
1002
}
1000
4GENPOS
1070
     4
1000
4
1002
{
1002
}
1000
5GENPOS
1070
     4
1000
5
1002
{
1002
}
1000
6GENPOS
1070
     4
1000
6
1002
{
1002
}
1000
7GENPOS
1070
     4
1000
7
1002
{
1002
}
1000
8GENPOS
1070
     4
1000
8
1002
{
1002
}
1000
9GENPOS
1070
     4
1000
9
1002
{
1002
}
1000
10GENPOS
1070
     4
1000
10
1002
{
1002
}
1000
11GENPOS
1070
     4
1000
11
1002
{
1002
}
1000
12GENPOS
1070
     4
1000
12
1002
{
1002
}
1000
13GENPOS
1070
     4
1000
13
1002
{
1002
}
1000
14GENPOS
1070
     4
1000
14
1002
{
1002
}
1000
15GENPOS
1070
     4
1000
15
1002
{
1002
}
1000
16GENPOS
1070
     4
1000
16
1002
{
1002
}
1000
17GENPOS
1070
     4
1000
17
1002
{
1002
}
1000
18GENPOS
1070
     4
1000
18
1002
{
1002
}
1000
19GENPOS
1070
     4
1000
19
1002
{
1002
}
1000
20GENPOS
1070
     4
1000
20
1002
{
1002
}
1000
21GENPOS
1070
     4
1000
21
1002
{
1002
}
1000
22GENPOS
1070
     4
1000
22
1002
{
1002
}
1000
23GENPOS
1070
     4
1000
23
1002
{
1002
}
1002
}
1000
DIN985
1070
     0
1002
{
1000
POSITION
1070
     4
1000
1
1002
{
1002
}
1000
MENGE
1070
     4
1000
2
1002
{
1002
}
1000
BLATT
1070
     4
1000
3
1002
{
1002
}
1000
BENENN
1070
     4
1000
5
1002
{
1002
}
1000
BENENN2
1070
     4
1000
6
1002
{
1002
}
1000
NORM
1070
     4
1000
7
1002
{
1002
}
1000
NORM2
1070
     4
1000
8
1002
{
1002
}
1000
WERKSTOFF
1070
     4
1000
9
1002
{
1002
}
1000
WERKSTOFF2
1070
     4
1000
10
1002
{
1002
}
1002
}
1000
DIN986
1070
     0
1002
{
1000
POSITION
1070
     4
1000
1
1002
{
1002
}
1000
MENGE
1070
     4
1000
2
1002
{
1002
}
1000
BLATT
1070
     4
1000
3
1002
{
1002
}
1000
BENENN
1070
     4
1000
5
1002
{
1002
}
1000
BENENN2
1070
     4
1000
6
1002
{
1002
}
1000
NORM
1070
     4
1000
7
1002
{
1002
}
1000
NORM2
1070
     4
1000
8
1002
{
1002
}
1000
WERKSTOFF
1070
     4
1000
9
1002
{
1002
}
1000
WERKSTOFF2
1070
     4
1000
10
1002
{
1002
}
1002
}
1000
DIN987
1070
     0
1002
{
1000
POSITION
1070
     4
1000
1
1002
{
1002
}
1000
MENGE
1070
     4
1000
2
1002
{
1002
}
1000
BLATT
1070
     4
1000
3
1002
{
1002
}
1000
BENENN
1070
     4
1000
5
1002
{
1002
}
1000
BENENN2
1070
     4
1000
6
1002
{
1002
}
1000
NORM
1070
     4
1000
7
1002
{
1002
}
1000
NORM2
1070
     4
1000
8
1002
{
1002
}
1000
WERKSTOFF
1070
     4
1000
9
1002
{
1002
}
1000
WERKSTOFF2
1070
     4
1000
10
1002
{
1002
}
1002
}
1002
}
  0
APPID
  5
3A5
100
AcDbSymbolTableRecord
100
AcDbRegAppTableRecord
  2
GENIUS_GENCFG1_13
 70
     0
1001
GENIUS_GENCFG_13
1071
881142765
1000
3A5
1000
GEN@LAYER@DEFS
1070
     9
1000
GenCfgObject
1000
GenCfgShort
1000
GenCfgReal
1000
GenCfgBool
1000
GenCfgString
1000
GenCfgDim
1000
GenCfgAttrInf
1000
GenCfgLaySection
1000
GenCfgLayer
1000
Basic
1070
     0
1002
{
1000
0
1070
     8
1000
0
1002
{
1000
Color
1070
     1
1070
     7
1002
{
1002
}
1000
LType
1070
     4
1000
CONTINUOUS
1002
{
1002
}
1000
Base
1070
     3
1070
     0
1002
{
1002
}
1002
}
1000
1
1070
     8
1000
1
1002
{
1000
Color
1070
     1
1070
    14
1002
{
1002
}
1000
LType
1070
     4
1000
CONTINUOUS
1002
{
1002
}
1000
Base
1070
     3
1070
     0
1002
{
1002
}
1002
}
1000
2
1070
     8
1000
2
1002
{
1000
Color
1070
     1
1070
     5
1002
{
1002
}
1000
LType
1070
     4
1000
CONTINUOUS
1002
{
1002
}
1000
Base
1070
     3
1070
     0
1002
{
1002
}
1002
}
1000
3
1070
     8
1000
3
1002
{
1000
Color
1070
     1
1070
     6
1002
{
1002
}
1000
LType
1070
     4
1000
GEN3
1002
{
1002
}
1000
Base
1070
     3
1070
     0
1002
{
1002
}
1002
}
1000
4
1070
     8
1000
4
1002
{
1000
Color
1070
     1
1070
     3
1002
{
1002
}
1000
LType
1070
     4
1000
CONTINUOUS
1002
{
1002
}
1000
Base
1070
     3
1070
     0
1002
{
1002
}
1002
}
1000
5
1070
     8
1000
5
1002
{
1000
Color
1070
     1
1070
     3
1002
{
1002
}
1000
LType
1070
     4
1000
CONTINUOUS
1002
{
1002
}
1000
Base
1070
     3
1070
     0
1002
{
1002
}
1002
}
1000
6
1070
     8
1000
6
1002
{
1000
Color
1070
     1
1070
     2
1002
{
1002
}
1000
LType
1070
     4
1000
CONTINUOUS
1002
{
1002
}
1000
Base
1070
     3
1070
     0
1002
{
1002
}
1002
}
1000
7
1070
     8
1000
7
1002
{
1000
Color
1070
     1
1070
     4
1002
{
1002
}
1000
LType
1070
     4
1000
GEN7
1002
{
1002
}
1000
Base
1070
     3
1070
     0
1002
{
1002
}
1002
}
1000
8
1070
     8
1000
8
1002
{
1000
Color
1070
     1
1070
     1
1002
{
1002
}
1000
LType
1070
     4
1000
CONTINUOUS
1002
{
1002
}
1000
Base
1070
     3
1070
     0
1002
{
1002
}
1002
}
1000
3A
1070
     8
1000
3A
1002
{
1000
Color
1070
     1
1070
     6
1002
{
1002
}
1000
LType
1070
     4
1000
GEN3A
1002
{
1002
}
1000
Base
1070
     3
1070
     0
1002
{
1002
}
1002
}
1000
7A
1070
     8
1000
7A
1002
{
1000
Color
1070
     1
1070
     4
1002
{
1002
}
1000
LType
1070
     4
1000
GEN7A
1002
{
1002
}
1000
Base
1070
     3
1070
     0
1002
{
1002
}
1002
}
1000
2A
1070
     8
1000
2A
1002
{
1000
Color
1070
     1
1070
     7
1002
{
1002
}
1000
LType
1070
     4
1000
GEN7
1002
{
1002
}
1000
Base
1070
     3
1070
     0
1002
{
1002
}
1002
}
1000
4A
1070
     8
1000
4A
1002
{
1000
Color
1070
     1
1070
     3
1002
{
1002
}
1000
LType
1070
     4
1000
GEN4A
1002
{
1002
}
1000
Base
1070
     3
1070
     0
1002
{
1002
}
1002
}
1000
9
1070
     8
1000
9
1002
{
1000
Color
1070
     1
1070
   253
1002
{
1002
}
1000
LType
1070
     4
1000
CONTINUOUS
1002
{
1002
}
1000
Base
1070
     3
1070
     0
1002
{
1002
}
1002
}
1002
}
1000
Standard
1070
     0
1002
{
1000
0N
1070
     8
1000
0N
1002
{
1000
Color
1070
     1
1070
     7
1002
{
1002
}
1000
LType
1070
     4
1000
CONTINUOUS
1002
{
1002
}
1000
Base
1070
     3
1070
     0
1002
{
1002
}
1002
}
1000
1N
1070
     8
1000
1N
1002
{
1000
Color
1070
     1
1070
    14
1002
{
1002
}
1000
LType
1070
     4
1000
CONTINUOUS
1002
{
1002
}
1000
Base
1070
     3
1070
     0
1002
{
1002
}
1002
}
1000
2N
1070
     8
1000
2N
1002
{
1000
Color
1070
     1
1070
     5
1002
{
1002
}
1000
LType
1070
     4
1000
CONTINUOUS
1002
{
1002
}
1000
Base
1070
     3
1070
     0
1002
{
1002
}
1002
}
1000
3N
1070
     8
1000
3N
1002
{
1000
Color
1070
     1
1070
     6
1002
{
1002
}
1000
LType
1070
     4
1000
GEN3
1002
{
1002
}
1000
Base
1070
     3
1070
     0
1002
{
1002
}
1002
}
1000
4N
1070
     8
1000
4N
1002
{
1000
Color
1070
     1
1070
     3
1002
{
1002
}
1000
LType
1070
     4
1000
CONTINUOUS
1002
{
1002
}
1000
Base
1070
     3
1070
     0
1002
{
1002
}
1002
}
1000
5N
1070
     8
1000
5N
1002
{
1000
Color
1070
     1
1070
     3
1002
{
1002
}
1000
LType
1070
     4
1000
CONTINUOUS
1002
{
1002
}
1000
Base
1070
     3
1070
     0
1002
{
1002
}
1002
}
1000
6N
1070
     8
1000
6N
1002
{
1000
Color
1070
     1
1070
     2
1002
{
1002
}
1000
LType
1070
     4
1000
CONTINUOUS
1002
{
1002
}
1000
Base
1070
     3
1070
     0
1002
{
1002
}
1002
}
1000
7N
1070
     8
1000
7N
1002
{
1000
Color
1070
     1
1070
     4
1002
{
1002
}
1000
LType
1070
     4
1000
GEN7
1002
{
1002
}
1000
Base
1070
     3
1070
     0
1002
{
1002
}
1002
}
1000
8N
1070
     8
1000
8N
1002
{
1000
Color
1070
     1
1070
     1
1002
{
1002
}
1000
LType
1070
     4
1000
CONTINUOUS
1002
{
1002
}
1000
Base
1070
     3
1070
     0
1002
{
1002
}
1002
}
1000
3AN
1070
     8
1000
3AN
1002
{
1000
Color
1070
     1
1070
     6
1002
{
1002
}
1000
LType
1070
     4
1000
GEN3A
1002
{
1002
}
1000
Base
1070
     3
1070
     0
1002
{
1002
}
1002
}
1000
7AN
1070
     8
1000
7AN
1002
{
1000
Color
1070
     1
1070
     4
1002
{
1002
}
1000
LType
1070
     4
1000
GEN7A
1002
{
1002
}
1000
Base
1070
     3
1070
     0
1002
{
1002
}
1002
}
1000
2AN
1070
     8
1000
2AN
1002
{
1000
Color
1070
     1
1070
     7
1002
{
1002
}
1000
LType
1070
     4
1000
GEN7
1002
{
1002
}
1000
Base
1070
     3
1070
     0
1002
{
1002
}
1002
}
1000
4AN
1070
     8
1000
4AN
1002
{
1000
Color
1070
     1
1070
     3
1002
{
1002
}
1000
LType
1070
     4
1000
GEN4A
1002
{
1002
}
1000
Base
1070
     3
1070
     0
1002
{
1002
}
1002
}
1000
9N
1070
     8
1000
9N
1002
{
1000
Color
1070
     1
1070
   253
1002
{
1002
}
1000
LType
1070
     4
1000
CONTINUOUS
1002
{
1002
}
1000
Base
1070
     3
1070
     0
1002
{
1002
}
1002
}
1002
}
1000
Extra
1070
     0
1002
{
1000
Klin
1070
     8
1000
KLIN
1002
{
1000
Color
1070
     1
1070
     1
1002
{
1002
}
1000
LType
1070
     4
1000
CONTINUOUS
1002
{
1002
}
1000
Base
1070
     3
1070
     1
1002
{
1002
}
1002
}
1000
Info
1070
     8
1000
INFO
1002
{
1000
Color
1070
     1
1070
     4
1002
{
1002
}
1000
LType
1070
     4
1000
CONTINUOUS
1002
{
1002
}
1000
Base
1070
     3
1070
     1
1002
{
1002
}
1002
}
1000
Rahm2
1070
     8
1000
RAHM2
1002
{
1000
Color
1070
     1
1070
     1
1002
{
1002
}
1000
LType
1070
     4
1000
CONTINUOUS
1002
{
1002
}
1000
Base
1070
     3
1070
     1
1002
{
1002
}
1002
}
1000
Rahm3
1070
     8
1000
RAHM3
1002
{
1000
Color
1070
     1
1070
     2
1002
{
1002
}
1000
LType
1070
     4
1000
CONTINUOUS
1002
{
1002
}
1000
Base
1070
     3
1070
     1
1002
{
1002
}
1002
}
1000
Rahm5
1070
     8
1000
RAHM5
1002
{
1000
Color
1070
     1
1070
     7
1002
{
1002
}
1000
LType
1070
     4
1000
CONTINUOUS
1002
{
1002
}
1000
Base
1070
     3
1070
     1
1002
{
1002
}
1002
}
1000
View
1070
     8
1000
VIEW
1002
{
1000
Color
1070
     1
1070
     1
1002
{
1002
}
1000
LType
1070
     4
1000
CONTINUOUS
1002
{
1002
}
1000
Base
1070
     3
1070
     1
1002
{
1002
}
1002
}
1000
Behind
1070
     8
1000
BEHIND
1002
{
1000
Color
1070
     1
1070
   253
1002
{
1002
}
1000
LType
1070
     4
1000
CONTINUOUS
1002
{
1002
}
1000
Base
1070
     3
1070
     1
1002
{
1002
}
1002
}
1002
}
  0
APPID
  5
3A6
100
AcDbSymbolTableRecord
100
AcDbRegAppTableRecord
  2
GENIUS_GENCFG2_13
 70
     0
1001
GENIUS_GENCFG_13
1071
881142765
1000
3A6
1000
GEN@LAYER@ENTSORT
1070
    10
1000
GenCfgObject
1000
GenCfgShort
1000
GenCfgReal
1000
GenCfgBool
1000
GenCfgString
1000
GenCfgDim
1000
GenCfgAttrInf
1000
GenCfgLaySection
1000
GenCfgLayer
1000
GenCfgEntSort
1000
ALTR
1070
     9
1000
4
1002
{
1000
Class
1070
     4
1000

1002
{
1002
}
1000
Color
1070
     1
1070
     7
1002
{
1002
}
1000
LType
1070
     4
1000
GEN3A
1002
{
1002
}
1002
}
1000
BELI
1070
     9
1000
4
1002
{
1000
Class
1070
     4
1000

1002
{
1002
}
1000
Color
1070
     1
1070
   256
1002
{
1002
}
1000
LType
1070
     4
1000
BYLAYER
1002
{
1002
}
1002
}
1000
BHNV
1070
     9
1000
9
1002
{
1000
Class
1070
     4
1000
INV
1002
{
1002
}
1000
Color
1070
     1
1070
   256
1002
{
1002
}
1000
LType
1070
     4
1000
BYLAYER
1002
{
1002
}
1002
}
1000
BHNVS
1070
     9
1000
BEHIND
1002
{
1000
Class
1070
     4
1000
INV
1002
{
1002
}
1000
Color
1070
     1
1070
   256
1002
{
1002
}
1000
LType
1070
     4
1000
BYLAYER
1002
{
1002
}
1002
}
1000
BLID
1070
     9
1000
4A
1002
{
1000
Class
1070
     4
1000

1002
{
1002
}
1000
Color
1070
     1
1070
   256
1002
{
1002
}
1000
LType
1070
     4
1000
BYLAYER
1002
{
1002
}
1002
}
1000
BOAP
1070
     9
1000
4A
1002
{
1000
Class
1070
     4
1000

1002
{
1002
}
1000
Color
1070
     1
1070
   256
1002
{
1002
}
1000
LType
1070
     4
1000
BYLAYER
1002
{
1002
}
1002
}
1000
BOR2
1070
     9
1000
RAHM2
1002
{
1000
Class
1070
     4
1000
SPZ,SYM
1002
{
1002
}
1000
Color
1070
     1
1070
   256
1002
{
1002
}
1000
LType
1070
     4
1000
BYLAYER
1002
{
1002
}
1002
}
1000
BOR3
1070
     9
1000
RAHM3
1002
{
1000
Class
1070
     4
1000
SPZ,SYM
1002
{
1002
}
1000
Color
1070
     1
1070
   256
1002
{
1002
}
1000
LType
1070
     4
1000
BYLAYER
1002
{
1002
}
1002
}
1000
BOR5
1070
     9
1000
RAHM5
1002
{
1000
Class
1070
     4
1000
SPZ,SYM
1002
{
1002
}
1000
Color
1070
     1
1070
   256
1002
{
1002
}
1000
LType
1070
     4
1000
BYLAYER
1002
{
1002
}
1002
}
1000
BOR7
1070
     9
1000
RAHM5
1002
{
1000
Class
1070
     4
1000
SPZ,SYM
1002
{
1002
}
1000
Color
1070
     1
1070
     7
1002
{
1002
}
1000
LType
1070
     4
1000
CONTINUOUS
1002
{
1002
}
1002
}
1000
BPAP
1070
     9
1000
4A
1002
{
1000
Class
1070
     4
1000

1002
{
1002
}
1000
Color
1070
     1
1070
   256
1002
{
1002
}
1000
LType
1070
     4
1000
BYLAYER
1002
{
1002
}
1002
}
1000
BPEX
1070
     9
1000
4A
1002
{
1000
Class
1070
     4
1000

1002
{
1002
}
1000
Color
1070
     1
1070
   256
1002
{
1002
}
1000
LType
1070
     4
1000
BYLAYER
1002
{
1002
}
1002
}
1000
BTDI
1070
     9
1000
5
1002
{
1000
Class
1070
     4
1000
DIM,SYM
1002
{
1002
}
1000
Color
1070
     1
1070
   256
1002
{
1002
}
1000
LType
1070
     4
1000
BYLAYER
1002
{
1002
}
1002
}
1000
CAL2
1070
     9
1000
4
1002
{
1000
Class
1070
     4
1000
SYM
1002
{
1002
}
1000
Color
1070
     1
1070
   256
1002
{
1002
}
1000
LType
1070
     4
1000
BYLAYER
1002
{
1002
}
1002
}
1000
CAL3
1070
     9
1000
4
1002
{
1000
Class
1070
     4
1000
SYM
1002
{
1002
}
1000
Color
1070
     1
1070
     2
1002
{
1002
}
1000
LType
1070
     4
1000
BYLAYER
1002
{
1002
}
1002
}
1000
CAL5
1070
     9
1000
4
1002
{
1000
Class
1070
     4
1000
SYM
1002
{
1002
}
1000
Color
1070
     1
1070
     7
1002
{
1002
}
1000
LType
1070
     4
1000
BYLAYER
1002
{
1002
}
1002
}
1000
CAL7
1070
     9
1000
4
1002
{
1000
Class
1070
     4
1000
SYM
1002
{
1002
}
1000
Color
1070
     1
1070
     5
1002
{
1002
}
1000
LType
1070
     4
1000
BYLAYER
1002
{
1002
}
1002
}
1000
CENN
1070
     9
1000
7A
1002
{
1000
Class
1070
     4
1000
CEN
1002
{
1002
}
1000
Color
1070
     1
1070
   256
1002
{
1002
}
1000
LType
1070
     4
1000
BYLAYER
1002
{
1002
}
1002
}
1000
CENW
1070
     9
1000
7
1002
{
1000
Class
1070
     4
1000
CEN
1002
{
1002
}
1000
Color
1070
     1
1070
   256
1002
{
1002
}
1000
LType
1070
     4
1000
BYLAYER
1002
{
1002
}
1002
}
1000
CLIN
1070
     9
1000
KLIN
1002
{
1000
Class
1070
     4
1000
SPZ
1002
{
1002
}
1000
Color
1070
     1
1070
   256
1002
{
1002
}
1000
LType
1070
     4
1000
BYLAYER
1002
{
1002
}
1002
}
1000
CON1
1070
     9
1000
0
1002
{
1000
Class
1070
     4
1000
CON,BGD
1002
{
1002
}
1000
Color
1070
     1
1070
   256
1002
{
1002
}
1000
LType
1070
     4
1000
BYLAYER
1002
{
1002
}
1002
}
1000
CON2
1070
     9
1000
1
1002
{
1000
Class
1070
     4
1000
CON,BGD
1002
{
1002
}
1000
Color
1070
     1
1070
   256
1002
{
1002
}
1000
LType
1070
     4
1000
BYLAYER
1002
{
1002
}
1002
}
1000
CON3
1070
     9
1000
2
1002
{
1000
Class
1070
     4
1000
CON,BGD
1002
{
1002
}
1000
Color
1070
     1
1070
   256
1002
{
1002
}
1000
LType
1070
     4
1000
BYLAYER
1002
{
1002
}
1002
}
1000
CON4
1070
     9
1000
2
1002
{
1000
Class
1070
     4
1000
CON,BGD
1002
{
1002
}
1000
Color
1070
     1
1070
   256
1002
{
1002
}
1000
LType
1070
     4
1000
BYLAYER
1002
{
1002
}
1002
}
1000
DERP
1070
     9
1000
4
1002
{
1000
Class
1070
     4
1000

1002
{
1002
}
1000
Color
1070
     1
1070
   256
1002
{
1002
}
1000
LType
1070
     4
1000
BYLAYER
1002
{
1002
}
1002
}
1000
DETA
1070
     9
1000
4
1002
{
1000
Class
1070
     4
1000

1002
{
1002
}
1000
Color
1070
     1
1070
   256
1002
{
1002
}
1000
LType
1070
     4
1000
BYLAYER
1002
{
1002
}
1002
}
1000
DIAG
1070
     9
1000
5
1002
{
1000
Class
1070
     4
1000
SYM
1002
{
1002
}
1000
Color
1070
     1
1070
   256
1002
{
1002
}
1000
LType
1070
     4
1000
BYLAYER
1002
{
1002
}
1002
}
1000
DILI
1070
     9
1000
5
1002
{
1000
Class
1070
     4
1000
DIM,SYM
1002
{
1002
}
1000
Color
1070
     1
1070
   256
1002
{
1002
}
1000
LType
1070
     4
1000
BYLAYER
1002
{
1002
}
1002
}
1000
DITX
1070
     9
1000
5
1002
{
1000
Class
1070
     4
1000
DIM,SYM
1002
{
1002
}
1000
Color
1070
     1
1070
     2
1002
{
1002
}
1000
LType
1070
     4
1000
CONTINUOUS
1002
{
1002
}
1002
}
1000
DITO2
1070
     9
1000
5
1002
{
1000
Class
1070
     4
1000
DIM,SYM
1002
{
1002
}
1000
Color
1070
     1
1070
     3
1002
{
1002
}
1000
LType
1070
     4
1000
BYLAYER
1002
{
1002
}
1002
}
1000
DITO3
1070
     9
1000
5
1002
{
1000
Class
1070
     4
1000
DIM,SYM
1002
{
1002
}
1000
Color
1070
     1
1070
     2
1002
{
1002
}
1000
LType
1070
     4
1000
BYLAYER
1002
{
1002
}
1002
}
1000
DIXL
1070
     9
1000
5
1002
{
1000
Class
1070
     4
1000
DIM,SYM
1002
{
1002
}
1000
Color
1070
     1
1070
   256
1002
{
1002
}
1000
LType
1070
     4
1000
BYLAYER
1002
{
1002
}
1002
}
1000
EXMP
1070
     9
1000
4A
1002
{
1000
Class
1070
     4
1000

1002
{
1002
}
1000
Color
1070
     1
1070
   256
1002
{
1002
}
1000
LType
1070
     4
1000
BYLAYER
1002
{
1002
}
1002
}
1000
FEMN
1070
     9
1000
8
1002
{
1000
Class
1070
     4
1000

1002
{
1002
}
1000
Color
1070
     1
1070
   256
1002
{
1002
}
1000
LType
1070
     4
1000
BYLAYER
1002
{
1002
}
1002
}
1000
FEMPN
1070
     9
1000
8
1002
{
1000
Class
1070
     4
1000
SYM
1002
{
1002
}
1000
Color
1070
     1
1070
     3
1002
{
1002
}
1000
LType
1070
     4
1000
BYLAYER
1002
{
1002
}
1002
}
1000
FEMSP
1070
     9
1000
4A
1002
{
1000
Class
1070
     4
1000

1002
{
1002
}
1000
Color
1070
     1
1070
   256
1002
{
1002
}
1000
LType
1070
     4
1000
CONTINUOUS
1002
{
1002
}
1002
}
1000
FEMST
1070
     9
1000
4A
1002
{
1000
Class
1070
     4
1000
SYM
1002
{
1002
}
1000
Color
1070
     1
1070
     3
1002
{
1002
}
1000
LType
1070
     4
1000
BYLAYER
1002
{
1002
}
1002
}
1000
FEMVN
1070
     9
1000
2
1002
{
1000
Class
1070
     4
1000
CON
1002
{
1002
}
1000
Color
1070
     1
1070
   256
1002
{
1002
}
1000
LType
1070
     4
1000
BYLAYER
1002
{
1002
}
1002
}
1000
FEMVT
1070
     9
1000
2
1002
{
1000
Class
1070
     4
1000
SYM
1002
{
1002
}
1000
Color
1070
     1
1070
     3
1002
{
1002
}
1000
LType
1070
     4
1000
BYLAYER
1002
{
1002
}
1002
}
1000
FLAT
1070
     9
1000
0
1002
{
1000
Class
1070
     4
1000

1002
{
1002
}
1000
Color
1070
     1
1070
   256
1002
{
1002
}
1000
LType
1070
     4
1000
BYLAYER
1002
{
1002
}
1002
}
1000
FRAR
1070
     9
1000
4A
1002
{
1000
Class
1070
     4
1000

1002
{
1002
}
1000
Color
1070
     1
1070
   256
1002
{
1002
}
1000
LType
1070
     4
1000
BYLAYER
1002
{
1002
}
1002
}
1000
GRLI
1070
     9
1000
5
1002
{
1000
Class
1070
     4
1000
SYM
1002
{
1002
}
1000
Color
1070
     1
1070
   256
1002
{
1002
}
1000
LType
1070
     4
1000
BYLAYER
1002
{
1002
}
1002
}
1000
GVLI
1070
     9
1000
4A
1002
{
1000
Class
1070
     4
1000

1002
{
1002
}
1000
Color
1070
     1
1070
   256
1002
{
1002
}
1000
LType
1070
     4
1000
BYLAYER
1002
{
1002
}
1002
}
1000
HATC
1070
     9
1000
8
1002
{
1000
Class
1070
     4
1000
HTC,BGD
1002
{
1002
}
1000
Color
1070
     1
1070
   256
1002
{
1002
}
1000
LType
1070
     4
1000
BYLAYER
1002
{
1002
}
1002
}
1000
HIDN
1070
     9
1000
3A
1002
{
1000
Class
1070
     4
1000
HID,BGD
1002
{
1002
}
1000
Color
1070
     1
1070
   256
1002
{
1002
}
1000
LType
1070
     4
1000
BYLAYER
1002
{
1002
}
1002
}
1000
HIDW
1070
     9
1000
3
1002
{
1000
Class
1070
     4
1000
HID,BGD
1002
{
1002
}
1000
Color
1070
     1
1070
   256
1002
{
1002
}
1000
LType
1070
     4
1000
BYLAYER
1002
{
1002
}
1002
}
1000
HLIN
1070
     9
1000
4
1002
{
1000
Class
1070
     4
1000
BGD
1002
{
1002
}
1000
Color
1070
     1
1070
   256
1002
{
1002
}
1000
LType
1070
     4
1000
BYLAYER
1002
{
1002
}
1002
}
1000
HOCN
1070
     9
1000
7A
1002
{
1000
Class
1070
     4
1000
CEN
1002
{
1002
}
1000
Color
1070
     1
1070
   256
1002
{
1002
}
1000
LType
1070
     4
1000
BYLAYER
1002
{
1002
}
1002
}
1000
HOCW
1070
     9
1000
7
1002
{
1000
Class
1070
     4
1000
CEN
1002
{
1002
}
1000
Color
1070
     1
1070
   256
1002
{
1002
}
1000
LType
1070
     4
1000
BYLAYER
1002
{
1002
}
1002
}
1000
INFO
1070
     9
1000
INFO
1002
{
1000
Class
1070
     4
1000
SPZ,SYM
1002
{
1002
}
1000
Color
1070
     1
1070
   256
1002
{
1002
}
1000
LType
1070
     4
1000
BYLAYER
1002
{
1002
}
1002
}
1000
LADI
1070
     9
1000
4
1002
{
1000
Class
1070
     4
1000
BGD
1002
{
1002
}
1000
Color
1070
     1
1070
   256
1002
{
1002
}
1000
LType
1070
     4
1000
BYLAYER
1002
{
1002
}
1002
}
1000
LEAD
1070
     9
1000
5
1002
{
1000
Class
1070
     4
1000
SYM
1002
{
1002
}
1000
Color
1070
     1
1070
   256
1002
{
1002
}
1000
LType
1070
     4
1000
BYLAYER
1002
{
1002
}
1002
}
1000
N_BHNV
1070
     9
1000
9N
1002
{
1000
Class
1070
     4
1000
INV
1002
{
1002
}
1000
Color
1070
     1
1070
   256
1002
{
1002
}
1000
LType
1070
     4
1000
BYLAYER
1002
{
1002
}
1002
}
1000
N_CON1
1070
     9
1000
0N
1002
{
1000
Class
1070
     4
1000
CON,BGD
1002
{
1002
}
1000
Color
1070
     1
1070
   256
1002
{
1002
}
1000
LType
1070
     4
1000
BYLAYER
1002
{
1002
}
1002
}
1000
N_CON2
1070
     9
1000
1N
1002
{
1000
Class
1070
     4
1000
CON,BGD
1002
{
1002
}
1000
Color
1070
     1
1070
   256
1002
{
1002
}
1000
LType
1070
     4
1000
BYLAYER
1002
{
1002
}
1002
}
1000
N_CON3
1070
     9
1000
2N
1002
{
1000
Class
1070
     4
1000
CON,BGD
1002
{
1002
}
1000
Color
1070
     1
1070
   256
1002
{
1002
}
1000
LType
1070
     4
1000
BYLAYER
1002
{
1002
}
1002
}
1000
N_CON4
1070
     9
1000
2N
1002
{
1000
Class
1070
     4
1000
CON,BGD
1002
{
1002
}
1000
Color
1070
     1
1070
   256
1002
{
1002
}
1000
LType
1070
     4
1000
BYLAYER
1002
{
1002
}
1002
}
1000
N_CENN
1070
     9
1000
7AN
1002
{
1000
Class
1070
     4
1000
CEN
1002
{
1002
}
1000
Color
1070
     1
1070
   256
1002
{
1002
}
1000
LType
1070
     4
1000
BYLAYER
1002
{
1002
}
1002
}
1000
N_CENW
1070
     9
1000
7N
1002
{
1000
Class
1070
     4
1000
CEN
1002
{
1002
}
1000
Color
1070
     1
1070
   256
1002
{
1002
}
1000
LType
1070
     4
1000
BYLAYER
1002
{
1002
}
1002
}
1000
N_DILI
1070
     9
1000
5N
1002
{
1000
Class
1070
     4
1000
DIM,SYM
1002
{
1002
}
1000
Color
1070
     1
1070
   256
1002
{
1002
}
1000
LType
1070
     4
1000
BYLAYER
1002
{
1002
}
1002
}
1000
N_DITX
1070
     9
1000
5N
1002
{
1000
Class
1070
     4
1000
DIM,SYM
1002
{
1002
}
1000
Color
1070
     1
1070
     2
1002
{
1002
}
1000
LType
1070
     4
1000
CONTINUOUS
1002
{
1002
}
1002
}
1000
N_DIXL
1070
     9
1000
5N
1002
{
1000
Class
1070
     4
1000
DIM,SYM
1002
{
1002
}
1000
Color
1070
     1
1070
   256
1002
{
1002
}
1000
LType
1070
     4
1000
BYLAYER
1002
{
1002
}
1002
}
1000
N_HATC
1070
     9
1000
8N
1002
{
1000
Class
1070
     4
1000
HTC,BGD
1002
{
1002
}
1000
Color
1070
     1
1070
   256
1002
{
1002
}
1000
LType
1070
     4
1000
BYLAYER
1002
{
1002
}
1002
}
1000
N_HIDN
1070
     9
1000
3AN
1002
{
1000
Class
1070
     4
1000
HID,BGD
1002
{
1002
}
1000
Color
1070
     1
1070
   256
1002
{
1002
}
1000
LType
1070
     4
1000
BYLAYER
1002
{
1002
}
1002
}
1000
N_HIDW
1070
     9
1000
3N
1002
{
1000
Class
1070
     4
1000
HID,BGD
1002
{
1002
}
1000
Color
1070
     1
1070
   256
1002
{
1002
}
1000
LType
1070
     4
1000
BYLAYER
1002
{
1002
}
1002
}
1000
N_PHAN
1070
     9
1000
4AN
1002
{
1000
Class
1070
     4
1000

1002
{
1002
}
1000
Color
1070
     1
1070
   256
1002
{
1002
}
1000
LType
1070
     4
1000
BYLAYER
1002
{
1002
}
1002
}
1000
N_POSL
1070
     9
1000
5N
1002
{
1000
Class
1070
     4
1000
SYM
1002
{
1002
}
1000
Color
1070
     1
1070
   256
1002
{
1002
}
1000
LType
1070
     4
1000
BYLAYER
1002
{
1002
}
1002
}
1000
N_TCON
1070
     9
1000
0N
1002
{
1000
Class
1070
     4
1000
CON,BGD
1002
{
1002
}
1000
Color
1070
     1
1070
   256
1002
{
1002
}
1000
LType
1070
     4
1000
BYLAYER
1002
{
1002
}
1002
}
1000
N_THLI
1070
     9
1000
4N
1002
{
1000
Class
1070
     4
1000
BGD
1002
{
1002
}
1000
Color
1070
     1
1070
   256
1002
{
1002
}
1000
LType
1070
     4
1000
BYLAYER
1002
{
1002
}
1002
}
1000
N_TLEN
1070
     9
1000
0N
1002
{
1000
Class
1070
     4
1000
CON,BGD
1002
{
1002
}
1000
Color
1070
     1
1070
   256
1002
{
1002
}
1000
LType
1070
     4
1000
BYLAYER
1002
{
1002
}
1002
}
1000
N_TXT3
1070
     9
1000
6N
1002
{
1000
Class
1070
     4
1000
SYM
1002
{
1002
}
1000
Color
1070
     1
1070
   256
1002
{
1002
}
1000
LType
1070
     4
1000
BYLAYER
1002
{
1002
}
1002
}
1000
N_VPLI
1070
     9
1000
2AN
1002
{
1000
Class
1070
     4
1000

1002
{
1002
}
1000
Color
1070
     1
1070
   256
1002
{
1002
}
1000
LType
1070
     4
1000
BYLAYER
1002
{
1002
}
1002
}
1000
PAL2
1070
     9
1000
RAHM2
1002
{
1000
Class
1070
     4
1000
SPZ,SYM
1002
{
1002
}
1000
Color
1070
     1
1070
   256
1002
{
1002
}
1000
LType
1070
     4
1000
BYLAYER
1002
{
1002
}
1002
}
1000
PAL3
1070
     9
1000
RAHM3
1002
{
1000
Class
1070
     4
1000
SPZ,SYM
1002
{
1002
}
1000
Color
1070
     1
1070
   256
1002
{
1002
}
1000
LType
1070
     4
1000
BYLAYER
1002
{
1002
}
1002
}
1000
PAL5
1070
     9
1000
RAHM5
1002
{
1000
Class
1070
     4
1000
SPZ,SYM
1002
{
1002
}
1000
Color
1070
     1
1070
   256
1002
{
1002
}
1000
LType
1070
     4
1000
BYLAYER
1002
{
1002
}
1002
}
1000
PAL7
1070
     9
1000
RAHM5
1002
{
1000
Class
1070
     4
1000
SPZ,SYM
1002
{
1002
}
1000
Color
1070
     1
1070
     7
1002
{
1002
}
1000
LType
1070
     4
1000
CONTINUOUS
1002
{
1002
}
1002
}
1000
PHAN
1070
     9
1000
4A
1002
{
1000
Class
1070
     4
1000

1002
{
1002
}
1000
Color
1070
     1
1070
   256
1002
{
1002
}
1000
LType
1070
     4
1000
BYLAYER
1002
{
1002
}
1002
}
1000
POSL
1070
     9
1000
5
1002
{
1000
Class
1070
     4
1000
SYM
1002
{
1002
}
1000
Color
1070
     1
1070
   256
1002
{
1002
}
1000
LType
1070
     4
1000
BYLAYER
1002
{
1002
}
1002
}
1000
POSN
1070
     9
1000
6
1002
{
1000
Class
1070
     4
1000
SYM
1002
{
1002
}
1000
Color
1070
     1
1070
     7
1002
{
1002
}
1000
LType
1070
     4
1000
BYLAYER
1002
{
1002
}
1002
}
1000
POSREF
1070
     9
1000
6
1002
{
1000
Class
1070
     4
1000
SYM
1002
{
1002
}
1000
Color
1070
     1
1070
     5
1002
{
1002
}
1000
LType
1070
     4
1000
BYLAYER
1002
{
1002
}
1002
}
1000
POSX
1070
     9
1000
5
1002
{
1000
Class
1070
     4
1000
SYM
1002
{
1002
}
1000
Color
1070
     1
1070
     2
1002
{
1002
}
1000
LType
1070
     4
1000
CONTINUOUS
1002
{
1002
}
1002
}
1000
PSEC
1070
     9
1000
4A
1002
{
1000
Class
1070
     4
1000

1002
{
1002
}
1000
Color
1070
     1
1070
   256
1002
{
1002
}
1000
LType
1070
     4
1000
BYLAYER
1002
{
1002
}
1002
}
1000
RCGN
1070
     9
1000
7A
1002
{
1000
Class
1070
     4
1000
CEN
1002
{
1002
}
1000
Color
1070
     1
1070
   256
1002
{
1002
}
1000
LType
1070
     4
1000
BYLAYER
1002
{
1002
}
1002
}
1000
RCGW
1070
     9
1000
7
1002
{
1000
Class
1070
     4
1000
CEN
1002
{
1002
}
1000
Color
1070
     1
1070
   256
1002
{
1002
}
1000
LType
1070
     4
1000
BYLAYER
1002
{
1002
}
1002
}
1000
RFDI
1070
     9
1000
4
1002
{
1000
Class
1070
     4
1000
BGD
1002
{
1002
}
1000
Color
1070
     1
1070
   256
1002
{
1002
}
1000
LType
1070
     4
1000
BYLAYER
1002
{
1002
}
1002
}
1000
RQTR
1070
     9
1000
4
1002
{
1000
Class
1070
     4
1000

1002
{
1002
}
1000
Color
1070
     1
1070
     7
1002
{
1002
}
1000
LType
1070
     4
1000
GEN7A
1002
{
1002
}
1002
}
1000
RSBO
1070
     9
1000
4
1002
{
1000
Class
1070
     4
1000
BGD
1002
{
1002
}
1000
Color
1070
     1
1070
   256
1002
{
1002
}
1000
LType
1070
     4
1000
BYLAYER
1002
{
1002
}
1002
}
1000
SBRK
1070
     9
1000
4
1002
{
1000
Class
1070
     4
1000
BGD
1002
{
1002
}
1000
Color
1070
     1
1070
   256
1002
{
1002
}
1000
LType
1070
     4
1000
BYLAYER
1002
{
1002
}
1002
}
1000
SCEN
1070
     9
1000
7
1002
{
1000
Class
1070
     4
1000

1002
{
1002
}
1000
Color
1070
     1
1070
   256
1002
{
1002
}
1000
LType
1070
     4
1000
CONTINUOUS
1002
{
1002
}
1002
}
1000
SECT
1070
     9
1000
4
1002
{
1000
Class
1070
     4
1000
BGD
1002
{
1002
}
1000
Color
1070
     1
1070
   256
1002
{
1002
}
1000
LType
1070
     4
1000
BYLAYER
1002
{
1002
}
1002
}
1000
SELN
1070
     9
1000
7A
1002
{
1000
Class
1070
     4
1000

1002
{
1002
}
1000
Color
1070
     1
1070
   256
1002
{
1002
}
1000
LType
1070
     4
1000
BYLAYER
1002
{
1002
}
1002
}
1000
SELW
1070
     9
1000
7
1002
{
1000
Class
1070
     4
1000

1002
{
1002
}
1000
Color
1070
     1
1070
   256
1002
{
1002
}
1000
LType
1070
     4
1000
BYLAYER
1002
{
1002
}
1002
}
1000
SSYS
1070
     9
1000
0
1002
{
1000
Class
1070
     4
1000

1002
{
1002
}
1000
Color
1070
     1
1070
   256
1002
{
1002
}
1000
LType
1070
     4
1000
BYLAYER
1002
{
1002
}
1002
}
1000
STLI
1070
     9
1000
4
1002
{
1000
Class
1070
     4
1000

1002
{
1002
}
1000
Color
1070
     1
1070
     7
1002
{
1002
}
1000
LType
1070
     4
1000
GEN3A
1002
{
1002
}
1002
}
1000
SYB1
1070
     9
1000
5
1002
{
1000
Class
1070
     4
1000
SYM
1002
{
1002
}
1000
Color
1070
     1
1070
   256
1002
{
1002
}
1000
LType
1070
     4
1000
BYLAYER
1002
{
1002
}
1002
}
1000
SYB2
1070
     9
1000
5
1002
{
1000
Class
1070
     4
1000
SYM
1002
{
1002
}
1000
Color
1070
     1
1070
   256
1002
{
1002
}
1000
LType
1070
     4
1000
BYLAYER
1002
{
1002
}
1002
}
1000
SYB3
1070
     9
1000
6
1002
{
1000
Class
1070
     4
1000
SYM
1002
{
1002
}
1000
Color
1070
     1
1070
   256
1002
{
1002
}
1000
LType
1070
     4
1000
CONTINUOUS
1002
{
1002
}
1002
}
1000
SYB5
1070
     9
1000
5
1002
{
1000
Class
1070
     4
1000
SYM
1002
{
1002
}
1000
Color
1070
     1
1070
     7
1002
{
1002
}
1000
LType
1070
     4
1000
BYLAYER
1002
{
1002
}
1002
}
1000
SYMN
1070
     9
1000
7A
1002
{
1000
Class
1070
     4
1000
CEN
1002
{
1002
}
1000
Color
1070
     1
1070
   256
1002
{
1002
}
1000
LType
1070
     4
1000
BYLAYER
1002
{
1002
}
1002
}
1000
SYMW
1070
     9
1000
7
1002
{
1000
Class
1070
     4
1000
CEN
1002
{
1002
}
1000
Color
1070
     1
1070
   256
1002
{
1002
}
1000
LType
1070
     4
1000
BYLAYER
1002
{
1002
}
1002
}
1000
TCON
1070
     9
1000
0
1002
{
1000
Class
1070
     4
1000
CON,BGD
1002
{
1002
}
1000
Color
1070
     1
1070
   256
1002
{
1002
}
1000
LType
1070
     4
1000
BYLAYER
1002
{
1002
}
1002
}
1000
THLI
1070
     9
1000
4
1002
{
1000
Class
1070
     4
1000
BGD
1002
{
1002
}
1000
Color
1070
     1
1070
   256
1002
{
1002
}
1000
LType
1070
     4
1000
BYLAYER
1002
{
1002
}
1002
}
1000
TIT2
1070
     9
1000
RAHM2
1002
{
1000
Class
1070
     4
1000
SPZ,SYM
1002
{
1002
}
1000
Color
1070
     1
1070
   256
1002
{
1002
}
1000
LType
1070
     4
1000
BYLAYER
1002
{
1002
}
1002
}
1000
TIT3
1070
     9
1000
RAHM3
1002
{
1000
Class
1070
     4
1000
SPZ,SYM
1002
{
1002
}
1000
Color
1070
     1
1070
   256
1002
{
1002
}
1000
LType
1070
     4
1000
BYLAYER
1002
{
1002
}
1002
}
1000
TIT5
1070
     9
1000
RAHM5
1002
{
1000
Class
1070
     4
1000
SPZ,SYM
1002
{
1002
}
1000
Color
1070
     1
1070
   256
1002
{
1002
}
1000
LType
1070
     4
1000
BYLAYER
1002
{
1002
}
1002
}
1000
TIT7
1070
     9
1000
RAHM5
1002
{
1000
Class
1070
     4
1000
SPZ,SYM
1002
{
1002
}
1000
Color
1070
     1
1070
     7
1002
{
1002
}
1000
LType
1070
     4
1000
CONTINUOUS
1002
{
1002
}
1002
}
1000
TLEN
1070
     9
1000
0
1002
{
1000
Class
1070
     4
1000
CON,BGD
1002
{
1002
}
1000
Color
1070
     1
1070
   256
1002
{
1002
}
1000
LType
1070
     4
1000
BYLAYER
1002
{
1002
}
1002
}
1000
TRKN
1070
     9
1000
7A
1002
{
1000
Class
1070
     4
1000

1002
{
1002
}
1000
Color
1070
     1
1070
   256
1002
{
1002
}
1000
LType
1070
     4
1000
BYLAYER
1002
{
1002
}
1002
}
1000
TRKW
1070
     9
1000
7
1002
{
1000
Class
1070
     4
1000

1002
{
1002
}
1000
Color
1070
     1
1070
   256
1002
{
1002
}
1000
LType
1070
     4
1000
BYLAYER
1002
{
1002
}
1002
}
1000
TRLI
1070
     9
1000
4
1002
{
1000
Class
1070
     4
1000
BGD
1002
{
1002
}
1000
Color
1070
     1
1070
   256
1002
{
1002
}
1000
LType
1070
     4
1000
BYLAYER
1002
{
1002
}
1002
}
1000
TXT1
1070
     9
1000
6
1002
{
1000
Class
1070
     4
1000
SYM
1002
{
1002
}
1000
Color
1070
     1
1070
     2
1002
{
1002
}
1000
LType
1070
     4
1000
BYLAYER
1002
{
1002
}
1002
}
1000
TXT2
1070
     9
1000
6
1002
{
1000
Class
1070
     4
1000
SYM
1002
{
1002
}
1000
Color
1070
     1
1070
     2
1002
{
1002
}
1000
LType
1070
     4
1000
BYLAYER
1002
{
1002
}
1002
}
1000
TXT3
1070
     9
1000
6
1002
{
1000
Class
1070
     4
1000
SYM
1002
{
1002
}
1000
Color
1070
     1
1070
   256
1002
{
1002
}
1000
LType
1070
     4
1000
BYLAYER
1002
{
1002
}
1002
}
1000
TXT5
1070
     9
1000
6
1002
{
1000
Class
1070
     4
1000
SYM
1002
{
1002
}
1000
Color
1070
     1
1070
     7
1002
{
1002
}
1000
LType
1070
     4
1000
BYLAYER
1002
{
1002
}
1002
}
1000
TXT7
1070
     9
1000
6
1002
{
1000
Class
1070
     4
1000
SYM
1002
{
1002
}
1000
Color
1070
     1
1070
     7
1002
{
1002
}
1000
LType
1070
     4
1000
BYLAYER
1002
{
1002
}
1002
}
1000
VIEW
1070
     9
1000
VIEW
1002
{
1000
Class
1070
     4
1000
SPZ
1002
{
1002
}
1000
Color
1070
     1
1070
   256
1002
{
1002
}
1000
LType
1070
     4
1000
BYLAYER
1002
{
1002
}
1002
}
1000
VPLI
1070
     9
1000
2A
1002
{
1000
Class
1070
     4
1000

1002
{
1002
}
1000
Color
1070
     1
1070
   256
1002
{
1002
}
1000
LType
1070
     4
1000
BYLAYER
1002
{
1002
}
1002
}
1000
ZIZA
1070
     9
1000
4
1002
{
1000
Class
1070
     4
1000
BGD
1002
{
1002
}
1000
Color
1070
     1
1070
   256
1002
{
1002
}
1000
LType
1070
     4
1000
GENZIGZAG
1002
{
1002
}
1002
}
  0
APPID
  5
3A7
100
AcDbSymbolTableRecord
100
AcDbRegAppTableRecord
  2
GENIUS_GENCFG3_13
 70
     0
1001
GENIUS_GENCFG_13
1071
881142765
1000
3A7
1000
GEN@OSWIZ
1070
    12
1000
GenCfgObject
1000
GenCfgShort
1000
GenCfgReal
1000
GenCfgBool
1000
GenCfgString
1000
GenCfgDim
1000
GenCfgAttrInf
1000
GenCfgLaySection
1000
GenCfgLayer
1000
GenCfgEntSort
1000
GenCfgLType
1000
GenCfgFilter
1000
AngleStep
1070
     0
1002
{
1000
M
1070
     2
1040
10.0
1002
{
1002
}
1000
I
1070
     2
1040
0.4
1002
{
1002
}
1002
}
1000
AngleIncr
1070
     2
1040
45.0
1002
{
1002
}
1000
Filter
1070
     0
1002
{
1000
HATCH
1070
    11
1002
{
1000
EntityType
1070
     4
1000
LINE
1002
{
1002
}
1000
Layer
1070
     4
1000
8,8N,*-8,*-8N
1002
{
1002
}
1000
Linetype
1070
     4
1000
*
1002
{
1002
}
1000
Color
1070
     4
1000
*
1002
{
1002
}
1002
}
1000
SYMBOLS
1070
    11
1002
{
1000
EntityType
1070
     4
1000
*
1002
{
1002
}
1000
Layer
1070
     4
1000
[5-6],[5-6]N,*-[5-6],*-[5-6]N
1002
{
1002
}
1000
Linetype
1070
     4
1000
*
1002
{
1002
}
1000
Color
1070
     4
1000
*
1002
{
1002
}
1002
}
1000
FEM
1070
    11
1002
{
1000
EntityType
1070
     4
1000
*
1002
{
1002
}
1000
Layer
1070
     4
1000
4A,4AN,*-4A,*-4AN
1002
{
1002
}
1000
Linetype
1070
     4
1000
*
1002
{
1002
}
1000
Color
1070
     4
1000
*
1002
{
1002
}
1002
}
1002
}
1000
IconSize
1070
     2
1040
1.0
1002
{
1002
}
1000
SnapColor
1070
     1
1070
     3
1002
{
1002
}
  0
APPID
  5
3A8
100
AcDbSymbolTableRecord
100
AcDbRegAppTableRecord
  2
GENIUS_GENCFG4_13
 70
     0
1001
GENIUS_GENCFG_13
1071
881142920
1000
3A8
1000
GEN
1070
     9
1000
GenCfgObject
1000
GenCfgShort
1000
GenCfgReal
1000
GenCfgBool
1000
GenCfgString
1000
GenCfgDim
1000
GenCfgAttrInf
1000
GenCfgLaySection
1000
GenCfgLType
1000
Balloon
1070
     0
1002
{
1000
GenIF
1070
     1
1070
     0
1002
{
1002
}
1000
GenPosInc
1070
     1
1070
    10
1002
{
1002
}
1000
GenPosBlk
1070
     1
1070
     8
1002
{
1002
}
1000
GenPosVar
1070
     1
1070
     2
1002
{
1002
}
1000
GenZiCir
1070
     2
1040
1.5
1002
{
1002
}
1000
MaxCharForCenteredText
1070
     1
1070
    30
1002
{
1002
}
1000
Snap
1070
     0
1002
{
1000
ActivationRadius
1070
     2
1040
1.0
1002
{
1002
}
1000
M
1070
     0
1002
{
1000
SnapStepX
1070
     2
1040
20.0
1002
{
1002
}
1000
SnapStepY
1070
     2
1040
10.0
1002
{
1002
}
1002
}
1000
I
1070
     0
1002
{
1000
SnapStepX
1070
     2
1040
1.0
1002
{
1002
}
1000
SnapStepY
1070
     2
1040
0.5
1002
{
1002
}
1002
}
1002
}
1002
}
1000
Centerline
1070
     0
1002
{
1000
ScaleNot
1070
     3
1070
     1
1002
{
1002
}
1000
M
1070
     0
1002
{
1000
GenCenAng
1070
     4
1000
45|90|135
1002
{
1002
}
1000
GenCenDia
1070
     2
1040
10.0
1002
{
1002
}
1000
GenCenDias
1070
     4
1000
10|20|30
1002
{
1002
}
1000
GenCenDist
1070
     2
1040
3.0
1002
{
1002
}
1000
GenCenLen
1070
     2
1040
10.0
1002
{
1002
}
1000
GenCenOff
1070
     2
1040
10.0
1002
{
1002
}
1002
}
1000
I
1070
     0
1002
{
1000
GenCenAng
1070
     4
1000
45|90|135
1002
{
1002
}
1000
GenCenDia
1070
     2
1040
0.5
1002
{
1002
}
1000
GenCenDias
1070
     4
1000
0.5|1.0|1.5
1002
{
1002
}
1000
GenCenDist
1070
     2
1040
0.125
1002
{
1002
}
1000
GenCenLen
1070
     2
1040
0.5
1002
{
1002
}
1000
GenCenOff
1070
     2
1040
0.5
1002
{
1002
}
1002
}
1002
}
1000
CLine
1070
     0
1002
{
1000
CAngArray
1070
     4
1000
30|45|60
1002
{
1002
}
1000
Typ
1070
     4
1000
XLINE
1002
{
1002
}
1000
M
1070
     0
1002
{
1000
CLinArray
1070
     4
1000
60
1002
{
1002
}
1002
}
1000
I
1070
     0
1002
{
1000
CLinArray
1070
     4
1000
0.125|0.25|0.5
1002
{
1002
}
1002
}
1002
}
1000
Constraints
1070
     0
1002
{
1000
Color
1070
     0
1002
{
1000
Active_Frame
1070
     1
1070
     2
1002
{
1002
}
1000
Inactive_Frame
1070
     1
1070
     8
1002
{
1002
}
1002
}
1000
Debug
1070
     0
1002
{
1002
}
1000
Editor
1070
     0
1002
{
1002
}
1000
Frame
1070
     0
1002
{
1002
}
1000
Sys
1070
     0
1002
{
1002
}
1002
}
1000
Detail
1070
     0
1002
{
1002
}
1000
Dimension
1070
     5
1002
{
1000
DIMALT
1070
     1
1070
     0
1002
{
1002
}
1000
DIMALTD
1070
     1
1070
     2
1002
{
1002
}
1000
DIMALTTD
1070
     1
1070
     4
1002
{
1002
}
1000
DIMALTTZ
1070
     1
1070
     0
1002
{
1002
}
1000
DIMALTU
1070
     1
1070
     2
1002
{
1002
}
1000
DIMALTZ
1070
     1
1070
     0
1002
{
1002
}
1000
DIMAPOST
1070
     4
1000

1002
{
1002
}
1000
DIMAUNIT
1070
     1
1070
     0
1002
{
1002
}
1000
DIMBLK
1070
     4
1000

1002
{
1002
}
1000
DIMBLK1
1070
     4
1000

1002
{
1002
}
1000
DIMBLK2
1070
     4
1000

1002
{
1002
}
1000
DIMDLE
1070
     2
1040
0.0
1002
{
1002
}
1000
DIMFIT
1070
     1
1070
     3
1002
{
1002
}
1000
DIMJUST
1070
     1
1070
     0
1002
{
1002
}
1000
DIMLFAC
1070
     2
1040
1.0
1002
{
1002
}
1000
DIMLIM
1070
     1
1070
     0
1002
{
1002
}
1000
DIMPOST
1070
     4
1000
<>
1002
{
1002
}
1000
DIMRND
1070
     2
1040
0.0
1002
{
1002
}
1000
DIMSAH
1070
     1
1070
     0
1002
{
1002
}
1000
DIMSCALE
1070
     2
1040
1.0
1002
{
1002
}
1000
DIMSD1
1070
     1
1070
     0
1002
{
1002
}
1000
DIMSD2
1070
     1
1070
     0
1002
{
1002
}
1000
DIMSE1
1070
     1
1070
     0
1002
{
1002
}
1000
DIMSE2
1070
     1
1070
     0
1002
{
1002
}
1000
DIMSOXD
1070
     1
1070
     0
1002
{
1002
}
1000
DIMTAD
1070
     1
1070
     0
1002
{
1002
}
1000
DIMTFAC
1070
     2
1040
0.71
1002
{
1002
}
1000
DIMTIH
1070
     1
1070
     0
1002
{
1002
}
1000
DIMTIX
1070
     1
1070
     0
1002
{
1002
}
1000
DIMTM
1070
     2
1040
0.1
1002
{
1002
}
1000
DIMTOFL
1070
     1
1070
     0
1002
{
1002
}
1000
DIMTOH
1070
     1
1070
     0
1002
{
1002
}
1000
DIMTOL
1070
     1
1070
     0
1002
{
1002
}
1000
DIMTOLJ
1070
     1
1070
     1
1002
{
1002
}
1000
DIMTP
1070
     2
1040
0.1
1002
{
1002
}
1000
DIMTSZ
1070
     2
1040
0.0
1002
{
1002
}
1000
DIMTVP
1070
     2
1040
0.0
1002
{
1002
}
1000
DIMTXSTY
1070
     4
1000
STANDARD
1002
{
1002
}
1000
DIMTZIN
1070
     1
1070
     0
1002
{
1002
}
1000
DIMUNIT
1070
     1
1070
     2
1002
{
1002
}
1000
DIMUPT
1070
     1
1070
     0
1002
{
1002
}
1000
M
1070
     0
1002
{
1000
DIMALTF
1070
     2
1040
0.03937
1002
{
1002
}
1000
DIMASZ
1070
     2
1040
2.5
1002
{
1002
}
1000
DIMCEN
1070
     2
1040
0.0
1002
{
1002
}
1000
DIMDEC
1070
     1
1070
     2
1002
{
1002
}
1000
DIMDLI
1070
     2
1040
7.0
1002
{
1002
}
1000
DIMEXE
1070
     2
1040
1.0
1002
{
1002
}
1000
DIMEXO
1070
     2
1040
1.0
1002
{
1002
}
1000
DIMGAP
1070
     2
1040
0.6
1002
{
1002
}
1000
DIMTDEC
1070
     1
1070
     3
1002
{
1002
}
1000
DIMTXT
1070
     2
1040
3.5
1002
{
1002
}
1000
DIMZIN
1070
     1
1070
     8
1002
{
1002
}
1002
}
1000
I
1070
     0
1002
{
1000
DIMALTF
1070
     2
1040
25.4
1002
{
1002
}
1000
DIMASZ
1070
     2
1040
0.1
1002
{
1002
}
1000
DIMCEN
1070
     2
1040
0.0
1002
{
1002
}
1000
DIMDEC
1070
     1
1070
     4
1002
{
1002
}
1000
DIMDLI
1070
     2
1040
0.5
1002
{
1002
}
1000
DIMEXE
1070
     2
1040
0.1
1002
{
1002
}
1000
DIMEXO
1070
     2
1040
0.05
1002
{
1002
}
1000
DIMGAP
1070
     2
1040
0.06
1002
{
1002
}
1000
DIMTDEC
1070
     1
1070
     4
1002
{
1002
}
1000
DIMTXT
1070
     2
1040
0.12
1002
{
1002
}
1000
DIMZIN
1070
     1
1070
     7
1002
{
1002
}
1002
}
1000
GEN-ISO
1070
     5
1002
{
1000
NAME
1070
     4
1000
GEN-ISO
1002
{
1002
}
1000
DIMTAD
1070
     1
1070
     1
1002
{
1002
}
1000
DIMTOLJ
1070
     1
1070
     0
1002
{
1002
}
1000
DIMTOFL
1070
     1
1070
     1
1002
{
1002
}
1000
M
1070
     0
1002
{
1002
}
1000
I
1070
     0
1002
{
1002
}
1002
}
1000
GEN-ISO-POS
1070
     5
1002
{
1000
NAME
1070
     4
1000
GEN-ISO-POS
1002
{
1002
}
1000
DIMTOLJ
1070
     1
1070
     0
1002
{
1002
}
1000
M
1070
     0
1002
{
1000
DIMASZ
1070
     2
1040
2.5
1002
{
1002
}
1000
DIMGAP
1070
     2
1040
1.5
1002
{
1002
}
1000
DIMTXT
1070
     2
1040
5.0
1002
{
1002
}
1002
}
1000
I
1070
     0
1002
{
1000
DIMASZ
1070
     2
1040
0.1
1002
{
1002
}
1000
DIMGAP
1070
     2
1040
0.06
1002
{
1002
}
1000
DIMTXT
1070
     2
1040
0.2
1002
{
1002
}
1002
}
1000
DIMSCALE
1070
     2
1040
1.0
1002
{
1002
}
1002
}
1000
GEN-ISO-CIR
1070
     5
1002
{
1000
NAME
1070
     4
1000
GEN-ISO$3
1002
{
1002
}
1000
DIMFIT
1070
     1
1070
     0
1002
{
1002
}
1000
DIMTAD
1070
     1
1070
     1
1002
{
1002
}
1000
DIMTIH
1070
     1
1070
     0
1002
{
1002
}
1000
DIMTIX
1070
     1
1070
     0
1002
{
1002
}
1000
DIMTOH
1070
     1
1070
     1
1002
{
1002
}
1000
DIMTOLJ
1070
     1
1070
     0
1002
{
1002
}
1000
DIMTOFL
1070
     1
1070
     0
1002
{
1002
}
1000
DIMUPT
1070
     1
1070
     1
1002
{
1002
}
1000
M
1070
     0
1002
{
1002
}
1000
I
1070
     0
1002
{
1002
}
1002
}
1000
GEN-ISO-RAD
1070
     5
1002
{
1000
NAME
1070
     4
1000
GEN-ISO$4
1002
{
1002
}
1000
DIMFIT
1070
     1
1070
     0
1002
{
1002
}
1000
DIMTAD
1070
     1
1070
     1
1002
{
1002
}
1000
DIMTIH
1070
     1
1070
     0
1002
{
1002
}
1000
DIMTIX
1070
     1
1070
     0
1002
{
1002
}
1000
DIMTOH
1070
     1
1070
     1
1002
{
1002
}
1000
DIMTOLJ
1070
     1
1070
     0
1002
{
1002
}
1000
DIMTOFL
1070
     1
1070
     0
1002
{
1002
}
1000
DIMUPT
1070
     1
1070
     1
1002
{
1002
}
1000
M
1070
     0
1002
{
1002
}
1000
I
1070
     0
1002
{
1002
}
1002
}
1000
GEN-ISO-ORD
1070
     5
1002
{
1000
NAME
1070
     4
1000
GEN-ISO$6
1002
{
1002
}
1000
DIMTOLJ
1070
     1
1070
     0
1002
{
1002
}
1000
M
1070
     0
1002
{
1002
}
1000
I
1070
     0
1002
{
1002
}
1002
}
1000
GEN-ISO-AXE-F
1070
     5
1002
{
1000
NAME
1070
     4
1000
GEN-ISO-AXE-F
1002
{
1002
}
1000
DIMSE1
1070
     1
1070
     1
1002
{
1002
}
1000
DIMSE2
1070
     1
1070
     1
1002
{
1002
}
1000
DIMTAD
1070
     1
1070
     1
1002
{
1002
}
1000
DIMTOLJ
1070
     1
1070
     0
1002
{
1002
}
1000
DIMTOFL
1070
     1
1070
     1
1002
{
1002
}
1000
M
1070
     0
1002
{
1002
}
1000
I
1070
     0
1002
{
1002
}
1002
}
1000
GEN-ISO-AXE-H
1070
     5
1002
{
1000
DIMBLK1
1070
     4
1000
GENAXEH
1002
{
1002
}
1000
DIMLFAC
1070
     2
1040
2.0
1002
{
1002
}
1000
DIMSAH
1070
     1
1070
     1
1002
{
1002
}
1000
DIMSE1
1070
     1
1070
     1
1002
{
1002
}
1000
DIMSE2
1070
     1
1070
     1
1002
{
1002
}
1000
DIMTAD
1070
     1
1070
     1
1002
{
1002
}
1000
DIMTOLJ
1070
     1
1070
     0
1002
{
1002
}
1000
DIMTOFL
1070
     1
1070
     1
1002
{
1002
}
1000
M
1070
     0
1002
{
1002
}
1000
I
1070
     0
1002
{
1002
}
1002
}
1000
GEN-ANSI
1070
     5
1002
{
1000
NAME
1070
     4
1000
GEN-ANSI
1002
{
1002
}
1000
DIMTIH
1070
     1
1070
     1
1002
{
1002
}
1000
DIMTOH
1070
     1
1070
     1
1002
{
1002
}
1000
DIMTAD
1070
     1
1070
     0
1002
{
1002
}
1000
DIMTOLJ
1070
     1
1070
     1
1002
{
1002
}
1000
M
1070
     0
1002
{
1002
}
1000
I
1070
     0
1002
{
1002
}
1002
}
1000
GEN-ANSI-POS
1070
     5
1002
{
1000
NAME
1070
     4
1000
GEN-ANSI-POS
1002
{
1002
}
1000
DIMTOLJ
1070
     1
1070
     1
1002
{
1002
}
1000
M
1070
     0
1002
{
1000
DIMASZ
1070
     2
1040
2.5
1002
{
1002
}
1000
DIMGAP
1070
     2
1040
1.5
1002
{
1002
}
1000
DIMTXT
1070
     2
1040
5.0
1002
{
1002
}
1002
}
1000
I
1070
     0
1002
{
1000
DIMASZ
1070
     2
1040
0.1
1002
{
1002
}
1000
DIMGAP
1070
     2
1040
0.06
1002
{
1002
}
1000
DIMTXT
1070
     2
1040
0.2
1002
{
1002
}
1002
}
1002
}
1000
GEN-ANSI-CIR
1070
     5
1002
{
1000
NAME
1070
     4
1000
GEN-ANSI$3
1002
{
1002
}
1000
DIMFIT
1070
     1
1070
     0
1002
{
1002
}
1000
DIMTAD
1070
     1
1070
     0
1002
{
1002
}
1000
DIMTIH
1070
     1
1070
     1
1002
{
1002
}
1000
DIMTIX
1070
     1
1070
     0
1002
{
1002
}
1000
DIMTOFL
1070
     1
1070
     0
1002
{
1002
}
1000
DIMTOH
1070
     1
1070
     1
1002
{
1002
}
1000
DIMTOLJ
1070
     1
1070
     1
1002
{
1002
}
1000
DIMUPT
1070
     1
1070
     1
1002
{
1002
}
1000
M
1070
     0
1002
{
1002
}
1000
I
1070
     0
1002
{
1002
}
1002
}
1000
GEN-ANSI-RAD
1070
     5
1002
{
1000
NAME
1070
     4
1000
GEN-ANSI$4
1002
{
1002
}
1000
DIMFIT
1070
     1
1070
     0
1002
{
1002
}
1000
DIMTAD
1070
     1
1070
     0
1002
{
1002
}
1000
DIMTIH
1070
     1
1070
     1
1002
{
1002
}
1000
DIMTIX
1070
     1
1070
     0
1002
{
1002
}
1000
DIMTOFL
1070
     1
1070
     0
1002
{
1002
}
1000
DIMTOH
1070
     1
1070
     1
1002
{
1002
}
1000
DIMTOLJ
1070
     1
1070
     1
1002
{
1002
}
1000
DIMUPT
1070
     1
1070
     1
1002
{
1002
}
1000
M
1070
     0
1002
{
1002
}
1000
I
1070
     0
1002
{
1002
}
1002
}
1000
GEN-ANSI-ORD
1070
     5
1002
{
1000
NAME
1070
     4
1000
GEN-ANSI$6
1002
{
1002
}
1000
DIMTAD
1070
     1
1070
     0
1002
{
1002
}
1000
DIMTIH
1070
     1
1070
     1
1002
{
1002
}
1000
DIMTOH
1070
     1
1070
     1
1002
{
1002
}
1000
DIMTOLJ
1070
     1
1070
     1
1002
{
1002
}
1000
M
1070
     0
1002
{
1002
}
1000
I
1070
     0
1002
{
1002
}
1002
}
1000
GEN-ANSI-AXE-F
1070
     5
1002
{
1000
NAME
1070
     4
1000
GEN-ANSI-AXE-F
1002
{
1002
}
1000
DIMBLK1
1070
     4
1000
GENAXEH
1002
{
1002
}
1000
DIMSAH
1070
     1
1070
     1
1002
{
1002
}
1000
DIMSE1
1070
     1
1070
     1
1002
{
1002
}
1000
DIMSE2
1070
     1
1070
     1
1002
{
1002
}
1000
DIMTAD
1070
     1
1070
     0
1002
{
1002
}
1000
DIMTIH
1070
     1
1070
     1
1002
{
1002
}
1000
DIMTOH
1070
     1
1070
     1
1002
{
1002
}
1000
DIMTOLJ
1070
     1
1070
     1
1002
{
1002
}
1000
M
1070
     0
1002
{
1002
}
1000
I
1070
     0
1002
{
1002
}
1002
}
1000
GEN-ANSI-AXE-H
1070
     5
1002
{
1000
NAME
1070
     4
1000
GEN-ANSI-AXE-H
1002
{
1002
}
1000
DIMBLK1
1070
     4
1000
GENAXEH
1002
{
1002
}
1000
DIMLFAC
1070
     2
1040
2.0
1002
{
1002
}
1000
DIMSAH
1070
     1
1070
     1
1002
{
1002
}
1000
DIMSE1
1070
     1
1070
     1
1002
{
1002
}
1000
DIMSE2
1070
     1
1070
     1
1002
{
1002
}
1000
DIMTAD
1070
     1
1070
     0
1002
{
1002
}
1000
DIMTOFL
1070
     1
1070
     1
1002
{
1002
}
1000
DIMTOLJ
1070
     1
1070
     1
1002
{
1002
}
1000
M
1070
     0
1002
{
1002
}
1000
I
1070
     0
1002
{
1002
}
1002
}
1000
DIMZIN
1070
     1
1070
     8
1002
{
1002
}
1002
}
1000
DimSet
1070
     0
1002
{
1000
ChainSum
1070
     3
1070
     0
1002
{
1002
}
1000
DimDclTyp0
1070
     4
1000
dim23
1002
{
1002
}
1000
HorBra
1070
     3
1070
     0
1002
{
1002
}
1000
StrDia
1070
     4
1000
%%c<>
1002
{
1002
}
1000
StrRad
1070
     4
1000
R<>
1002
{
1002
}
1000
TextMinus
1070
     4
1000
<>
1002
{
1002
}
1000
TextPlus
1070
     4
1000
<>
1002
{
1002
}
1000
M
1070
     0
1002
{
1000
DimdliFirst
1070
     2
1040
10.0
1002
{
1002
}
1000
PointMakeDist
1070
     2
1040
10.0
1002
{
1002
}
1002
}
1000
I
1070
     0
1002
{
1000
DimdliFirst
1070
     2
1040
0.5
1002
{
1002
}
1000
PointMakeDist
1070
     2
1040
0.5
1002
{
1002
}
1002
}
1002
}
1000
Drawing
1070
     0
1002
{
1000
ChamferDimMode
1070
     1
1070
     2
1002
{
1002
}
1000
Gen_Fiso
1070
    -3
1040
1.0
1002
{
1002
}
1000
GenDimStil
1070
     4
1000
ISO
1002
{
1002
}
1000
GenDwgUScale
1070
     2
1040
1.0
1002
{
1002
}
1000
GenInch
1070
     4
1000
M
1002
{
1002
}
1000
GenPlotScale
1070
     4
1000
1:1
1002
{
1002
}
1000
Revisi
1070
     4
1000
0
1002
{
1002
}
1000
Version
1070
    -5
1000
13.1/May  9 1996
1002
{
1002
}
1000
Platform
1070
    -5
1000
WINNT
1002
{
1002
}
1002
}
1000
DwgVar
1070
     0
1002
{
1000
M
1070
     0
1002
{
1002
}
1000
I
1070
     0
1002
{
1002
}
1002
}
1000
Hatch
1070
     0
1002
{
1000
GenHtcFlag
1070
     3
1070
     0
1002
{
1002
}
1002
}
1000
Info_Pos
1070
     0
1002
{
1000
DescrText
1070
     4
1000
5,6,7,8
1002
{
1002
}
1000
Attrib
1070
     0
1002
{
1000
0
1070
     6
1002
{
1000
Prompt
1070
     4
1000
(genmsg gendwg 103)
1002
{
1002
}
1000
Value
1070
     4
1000

1002
{
1002
}
1000
EditFlag
1070
     1
1070
     0
1002
{
1002
}
1002
}
1000
1
1070
     6
1002
{
1000
Prompt
1070
     4
1000
(genmsg gendwg 31)
1002
{
1002
}
1000
Value
1070
     4
1000
1
1002
{
1002
}
1000
EditFlag
1070
     1
1070
     1
1002
{
1002
}
1002
}
1000
2
1070
     6
1002
{
1000
Prompt
1070
     4
1000
(genmsg gendwg 32)
1002
{
1002
}
1000
Value
1070
     4
1000
1
1002
{
1002
}
1000
EditFlag
1070
     1
1070
     1
1002
{
1002
}
1002
}
1000
3
1070
     6
1002
{
1000
Prompt
1070
     4
1000
(genmsg gendwg 33)
1002
{
1002
}
1000
Value
1070
     4
1000

1002
{
1002
}
1000
EditFlag
1070
     1
1070
     1
1002
{
1002
}
1002
}
1000
4
1070
     6
1002
{
1000
Prompt
1070
     4
1000
(genmsg gendwg 34)
1002
{
1002
}
1000
Value
1070
     4
1000

1002
{
1002
}
1000
EditFlag
1070
     1
1070
     1
1002
{
1002
}
1002
}
1000
5
1070
     6
1002
{
1000
Prompt
1070
     4
1000
(genmsg gendwg 35)
1002
{
1002
}
1000
Value
1070
     4
1000

1002
{
1002
}
1000
EditFlag
1070
     1
1070
     1
1002
{
1002
}
1002
}
1000
6
1070
     6
1002
{
1000
Prompt
1070
     4
1000
(genmsg gendwg 36)
1002
{
1002
}
1000
Value
1070
     4
1000

1002
{
1002
}
1000
EditFlag
1070
     1
1070
     1
1002
{
1002
}
1002
}
1000
7
1070
     6
1002
{
1000
Prompt
1070
     4
1000
(genmsg gendwg 37)
1002
{
1002
}
1000
Value
1070
     4
1000

1002
{
1002
}
1000
EditFlag
1070
     1
1070
     1
1002
{
1002
}
1002
}
1000
8
1070
     6
1002
{
1000
Prompt
1070
     4
1000
(genmsg gendwg 38)
1002
{
1002
}
1000
Value
1070
     4
1000

1002
{
1002
}
1000
EditFlag
1070
     1
1070
     1
1002
{
1002
}
1002
}
1000
9
1070
     6
1002
{
1000
Prompt
1070
     4
1000
(genmsg gendwg 39)
1002
{
1002
}
1000
Value
1070
     4
1000

1002
{
1002
}
1000
EditFlag
1070
     1
1070
     1
1002
{
1002
}
1002
}
1000
10
1070
     6
1002
{
1000
Prompt
1070
     4
1000
(genmsg gendwg 40)
1002
{
1002
}
1000
Value
1070
     4
1000

1002
{
1002
}
1000
EditFlag
1070
     1
1070
     1
1002
{
1002
}
1002
}
1000
11
1070
     6
1002
{
1000
Prompt
1070
     4
1000
(genmsg gendwg 41)
1002
{
1002
}
1000
Value
1070
     4
1000

1002
{
1002
}
1000
EditFlag
1070
     1
1070
     1
1002
{
1002
}
1002
}
1000
12
1070
     6
1002
{
1000
Prompt
1070
     4
1000
(genmsg gendwg 42)
1002
{
1002
}
1000
Value
1070
     4
1000

1002
{
1002
}
1000
EditFlag
1070
     1
1070
     1
1002
{
1002
}
1002
}
1000
13
1070
     6
1002
{
1000
Prompt
1070
     4
1000
(genmsg gendwg 43)
1002
{
1002
}
1000
Value
1070
     4
1000

1002
{
1002
}
1000
EditFlag
1070
     1
1070
     1
1002
{
1002
}
1002
}
1000
14
1070
     6
1002
{
1000
Prompt
1070
     4
1000
(genmsg gendwg 44)
1002
{
1002
}
1000
Value
1070
     4
1000

1002
{
1002
}
1000
EditFlag
1070
     1
1070
     1
1002
{
1002
}
1002
}
1000
15
1070
     6
1002
{
1000
Prompt
1070
     4
1000
(genmsg gendwg 45)
1002
{
1002
}
1000
Value
1070
     4
1000

1002
{
1002
}
1000
EditFlag
1070
     1
1070
     1
1002
{
1002
}
1002
}
1000
16
1070
     6
1002
{
1000
Prompt
1070
     4
1000
(genmsg gendwg 46)
1002
{
1002
}
1000
Value
1070
     4
1000

1002
{
1002
}
1000
EditFlag
1070
     1
1070
     1
1002
{
1002
}
1002
}
1000
17
1070
     6
1002
{
1000
Prompt
1070
     4
1000
(genmsg gendwg 47)
1002
{
1002
}
1000
Value
1070
     4
1000

1002
{
1002
}
1000
EditFlag
1070
     1
1070
     1
1002
{
1002
}
1002
}
1000
18
1070
     6
1002
{
1000
Prompt
1070
     4
1000
(genmsg gendwg 48)
1002
{
1002
}
1000
Value
1070
     4
1000

1002
{
1002
}
1000
EditFlag
1070
     1
1070
     1
1002
{
1002
}
1002
}
1000
19
1070
     6
1002
{
1000
Prompt
1070
     4
1000
(genmsg gendwg 99)
1002
{
1002
}
1000
Value
1070
     4
1000

1002
{
1002
}
1000
EditFlag
1070
     1
1070
     1
1002
{
1002
}
1002
}
1000
20
1070
     6
1002
{
1000
Prompt
1070
     4
1000
(genmsg gendwg 100)
1002
{
1002
}
1000
Value
1070
     4
1000

1002
{
1002
}
1000
EditFlag
1070
     1
1070
     1
1002
{
1002
}
1002
}
1000
21
1070
     6
1002
{
1000
Prompt
1070
     4
1000
(genmsg gendwg 101)
1002
{
1002
}
1000
Value
1070
     4
1000

1002
{
1002
}
1000
EditFlag
1070
     1
1070
     1
1002
{
1002
}
1002
}
1000
22
1070
     6
1002
{
1000
Prompt
1070
     4
1000
(genmsg gendwg 102)
1002
{
1002
}
1000
Value
1070
     4
1000

1002
{
1002
}
1000
EditFlag
1070
     1
1070
     1
1002
{
1002
}
1002
}
1000
23
1070
     6
1002
{
1000
Prompt
1070
     4
1000
(genmsg gendwg 30)
1002
{
1002
}
1000
Value
1070
     4
1000

1002
{
1002
}
1000
EditFlag
1070
     1
1070
     1
1002
{
1002
}
1002
}
1000
24
1070
     6
1002
{
1000
Prompt
1070
     4
1000
(genmsg gendwg 104)
1002
{
1002
}
1000
Value
1070
     4
1000

1002
{
1002
}
1000
EditFlag
1070
     1
1070
     1
1002
{
1002
}
1002
}
1002
}
1000
Xlate
1070
     0
1002
{
1000
>
1002
}
1002
}
1000
Layer
1070
     7
1002
{
1000
Defs
1070
     0
1002
{
1000
>
1002
}
1000
EntSort
1070
     0
1002
{
1000
>
1002
}
1000
Match
1070
     0
1002
{
1002
}
1000
Settings
1070
     0
1002
{
1000
FocGrNC
1070
     3
1070
     0
1002
{
1002
}
1000
FocGrLo
1070
     3
1070
     0
1002
{
1002
}
1000
FocLoNC
1070
     3
1070
     0
1002
{
1002
}
1000
FocusCol
1070
     1
1070
   253
1002
{
1002
}
1000
GenStdLG
1070
     4
1000

1002
{
1002
}
1000
LayMatch
1070
     3
1070
     0
1002
{
1002
}
1000
LgOff
1070
     3
1070
     0
1002
{
1002
}
1000
CurLG
1070
    -5
1000
MSL-2-30
1002
{
1002
}
1002
}
1002
}
1000
LType
1070
     0
1002
{
1000
GEN3
1070
     8
1000
genius.lin
1002
{
1002
}
1000
GEN7
1070
     8
1000
genius.lin
1002
{
1002
}
1000
GEN4A
1070
     8
1000
genius.lin
1002
{
1002
}
1000
GEN3A
1070
     8
1000
genius.lin
1002
{
1002
}
1000
GEN7A
1070
     8
1000
genius.lin
1002
{
1002
}
1000
GENZIGZAG
1070
     8
1000
genius.lin
1002
{
1002
}
1002
}
1000
Objecter
1070
     0
1002
{
1000
CreateGroups
1070
     3
1070
     0
1002
{
1002
}
1000
LaySwitch
1070
     3
1070
     1
1002
{
1002
}
1000
LastObj
1070
    -5
1000
0
1002
{
1002
}
1002
}
1000
OSWiz
1070
     0
1002
{
1000
>
1002
}
1000
PaList
1070
     0
1002
{
1000
AutoUpdatePartList
1070
     3
1070
     0
1002
{
1002
}
1000
ReadInfoPoint
1070
     3
1070
     0
1002
{
1002
}
1000
ReadPosNr
1070
     3
1070
     1
1002
{
1002
}
1000
RevStr
1070
     4
1000
0
1002
{
1002
}
1002
}
1000
Paper
1070
     0
1002
{
1000
Layer
1070
    -5
1000
MSL-2-30-6
1002
{
1002
}
1002
}
1000
PartDB
1070
     0
1002
{
1000
GenDbOwner
1070
     4
1000

1002
{
1002
}
1002
}
1000
System
1070
     0
1002
{
1000
Menu
1070
     4
1000
GEV
1002
{
1002
}
1002
}
1000
Title
1070
     0
1002
{
1000
MakeView
1070
     1
1070
     2
1002
{
1002
}
1002
}
  0
APPID
  5
3A9
100
AcDbSymbolTableRecord
100
AcDbRegAppTableRecord
  2
GENIUS_GEVCFG0_13
 70
     0
1001
GENIUS_GENCFG_13
1071
881142765
1000
3A9
1000
GEV
1070
     1
1000
GenCfgObject
1000
System
1070
     0
1002
{
1002
}
1000
VED
1070
     0
1002
{
1002
}
  0
ENDTAB
  0
TABLE
  2
DIMSTYLE
  5
16
100
AcDbSymbolTable
 70
     1
  0
DIMSTYLE
105
1E
100
AcDbSymbolTableRecord
100
AcDbDimStyleTableRecord
  2
GEN-ISO
 70
     0
  3

  4

  5

  6

  7

 40
1.0
 41
2.5
 42
1.0
 43
10.0
 44
2.0
 45
0.0
 46
0.0
 47
0.1
 48
0.1
140
3.5
141
-2.0
142
0.0
143
25.4
144
1.0
145
0.0
146
1.0
147
1.5
 71
     0
 72
     0
 73
     0
 74
     0
 75
     0
 76
     0
 77
     1
 78
     8
170
     0
171
     2
172
     1
173
     0
174
     0
175
     0
176
     0
177
     0
178
     2
270
     2
271
     2
272
     5
273
     2
274
     2
340
D
275
     0
280
     0
281
     0
282
     0
283
     0
284
     8
285
     8
286
     8
287
     3
288
     0
  0
ENDTAB
  0
TABLE
  2
BLOCK_RECORD
  5
1
100
AcDbSymbolTable
 70
     0
  0
BLOCK_RECORD
  5
2
100
AcDbSymbolTableRecord
100
AcDbBlockTableRecord
  2
*MODEL_SPACE
  0
BLOCK_RECORD
  5
8
100
AcDbSymbolTableRecord
100
AcDbBlockTableRecord
  2
*PAPER_SPACE
  0
ENDTAB
  0
ENDSEC
  0
SECTION
  2
BLOCKS
  0
BLOCK
  5
3
100
AcDbEntity
  8
0
100
AcDbBlockBegin
  2
*MODEL_SPACE
 70
     0
 10
0.0
 20
0.0
 30
0.0
  3
*MODEL_SPACE
  1

  0
ENDBLK
  5
7
100
AcDbEntity
  8
0
100
AcDbBlockEnd
  0
BLOCK
  5
9
100
AcDbEntity
 67
     1
  8
0
100
AcDbBlockBegin
  2
*PAPER_SPACE
 70
     0
 10
0.0
 20
0.0
 30
0.0
  3
*PAPER_SPACE
  1

  0
ENDBLK
  5
A
100
AcDbEntity
 67
     1
  8
0
100
AcDbBlockEnd
  0
ENDSEC
  0
SECTION
  2
ENTITIES
  0
ARC
  5
1F
100
AcDbEntity
  8
MSL-2-30-0
100
AcDbCircle
 10
212.095504
 20
343.563478
 30
0.0
 40
1.0
100
AcDbArc
 50
89.999999
 51
179.999998
  0
LINE
  5
21
100
AcDbEntity
  8
MSL-2-30-7
100
AcDbLine
 10
211.457164
 20
338.563478
 30
0.0
 11
204.258773
 21
338.563478
 31
0.0
  0
LINE
  5
22
100
AcDbEntity
  8
MSL-2-30-7
100
AcDbLine
 10
211.394868
 20
328.563478
 30
0.0
 11
204.170677
 21
328.563478
 31
0.0
  0
ARC
  5
23
100
AcDbEntity
  8
MSL-2-30-0
100
AcDbCircle
 10
212.095504
 20
343.563478
 30
0.0
 40
2.0
100
AcDbArc
 50
89.999999
 51
179.999998
  0
LINE
  5
24
100
AcDbEntity
  8
MSL-2-30-3
100
AcDbLine
 10
208.595504
 20
315.063478
 30
0.0
 11
216.595504
 21
315.063478
 31
0.0
  0
LINE
  5
27
100
AcDbEntity
  8
MSL-2-30-3
100
AcDbLine
 10
208.595504
 20
320.063478
 30
0.0
 11
216.595504
 21
320.063478
 31
0.0
  0
LINE
  5
28
100
AcDbEntity
  8
MSL-2-30-3
100
AcDbLine
 10
208.595504
 20
319.630478
 30
0.0
 11
219.795504
 21
319.630478
 31
0.0
  0
LINE
  5
29
100
AcDbEntity
  8
MSL-2-30-3
100
AcDbLine
 10
208.595504
 20
315.496478
 30
0.0
 11
219.795504
 21
315.496478
 31
0.0
  0
LINE
  5
2A
100
AcDbEntity
  8
MSL-2-30-3
100
AcDbLine
 10
208.595504
 20
289.630478
 30
0.0
 11
219.795504
 21
289.630478
 31
0.0
  0
LINE
  5
2B
100
AcDbEntity
  8
MSL-2-30-3
100
AcDbLine
 10
208.595504
 20
290.063478
 30
0.0
 11
216.595504
 21
290.063478
 31
0.0
  0
LINE
  5
2C
100
AcDbEntity
  8
MSL-2-30-3
100
AcDbLine
 10
208.595504
 20
285.496478
 30
0.0
 11
219.795504
 21
285.496478
 31
0.0
  0
LINE
  5
2D
100
AcDbEntity
  8
MSL-2-30-3
100
AcDbLine
 10
208.595504
 20
285.063478
 30
0.0
 11
216.595504
 21
285.063478
 31
0.0
  0
LINE
  5
2E
100
AcDbEntity
  8
MSL-2-30-0
100
AcDbLine
 10
290.595504
 20
281.563478
 30
0.0
 11
208.595504
 21
281.563478
 31
0.0
  0
LINE
  5
2F
100
AcDbEntity
  8
MSL-2-30-3
100
AcDbLine
 10
209.595504
 20
282.563478
 30
0.0
 11
289.595504
 21
282.563478
 31
0.0
  0
LINE
  5
30
100
AcDbEntity
  8
MSL-2-30-7
100
AcDbLine
 10
207.595504
 20
302.563478
 30
0.0
 11
291.595504
 21
302.563478
 31
0.0
  0
LINE
  5
31
100
AcDbEntity
  8
MSL-2-30-7
100
AcDbLine
 10
223.988887
 20
287.563478
 30
0.0
 11
205.595504
 21
287.563478
 31
0.0
  0
LINE
  5
32
100
AcDbEntity
  8
MSL-2-30-0
100
AcDbLine
 10
208.595504
 20
341.563478
 30
0.0
 11
290.595504
 21
341.563478
 31
0.0
  0
LINE
  5
33
100
AcDbEntity
  8
MSL-2-30-3
100
AcDbLine
 10
289.595504
 20
322.563478
 30
0.0
 11
209.595504
 21
322.563478
 31
0.0
  0
LINE
  5
34
100
AcDbEntity
  8
MSL-2-30-7
100
AcDbLine
 10
223.988887
 20
317.563478
 30
0.0
 11
205.595504
 21
317.563478
 31
0.0
  0
LINE
  5
35
100
AcDbEntity
  8
MSL-2-30-0
100
AcDbLine
 10
205.595504
 20
324.563478
 30
0.0
 11
205.595504
 21
332.563478
 31
0.0
  0
LINE
  5
36
100
AcDbEntity
  8
MSL-2-30-0
100
AcDbLine
 10
208.595504
 20
281.563478
 30
0.0
 11
208.595504
 21
341.563478
 31
0.0
  0
LINE
  5
37
100
AcDbEntity
  8
MSL-2-30-3
100
AcDbLine
 10
210.095504
 20
341.563478
 30
0.0
 11
210.095504
 21
322.563478
 31
0.0
  0
LINE
  5
38
100
AcDbEntity
  8
MSL-2-30-3
100
AcDbLine
 10
209.595504
 20
322.563478
 30
0.0
 11
209.595504
 21
282.563478
 31
0.0
  0
ARC
  5
39
100
AcDbEntity
  8
MSL-2-30-0
100
AcDbCircle
 10
207.095504
 20
324.563478
 30
0.0
 40
1.5
100
AcDbArc
 50
179.999998
 51
270.000001
  0
LINE
  5
3A
100
AcDbEntity
  8
MSL-2-30-0
100
AcDbLine
 10
208.595504
 20
323.063478
 30
0.0
 11
207.095504
 21
323.063478
 31
0.0
  0
ARC
  5
3B
100
AcDbEntity
  8
MSL-2-30-0
100
AcDbCircle
 10
207.095504
 20
342.563478
 30
0.0
 40
1.5
100
AcDbArc
 50
89.999999
 51
179.999998
  0
ARC
  5
3C
100
AcDbEntity
  8
MSL-2-30-0
100
AcDbCircle
 10
207.095504
 20
334.563478
 30
0.0
 40
1.5
100
AcDbArc
 50
180.0
 51
221.810315
  0
ARC
  5
3D
100
AcDbEntity
  8
MSL-2-30-0
100
AcDbCircle
 10
207.095504
 20
332.563478
 30
0.0
 40
1.5
100
AcDbArc
 50
89.999999
 51
179.999998
  0
LINE
  5
3E
100
AcDbEntity
  8
MSL-2-30-0
100
AcDbLine
 10
207.095504
 20
334.063478
 30
0.0
 11
208.595504
 21
334.063478
 31
0.0
  0
LINE
  5
3F
100
AcDbEntity
  8
MSL-2-30-0
100
AcDbLine
 10
210.095504
 20
344.063478
 30
0.0
 11
210.095504
 21
341.563478
 31
0.0
  0
LINE
  5
40
100
AcDbEntity
  8
MSL-2-30-0
100
AcDbLine
 10
211.095504
 20
341.563478
 30
0.0
 11
211.095504
 21
343.563478
 31
0.0
  0
LINE
  5
41
100
AcDbEntity
  8
MSL-2-30-0
100
AcDbLine
 10
207.095504
 20
344.063478
 30
0.0
 11
210.095504
 21
344.063478
 31
0.0
  0
LINE
  5
42
100
AcDbEntity
  8
MSL-2-30-0
100
AcDbLine
 10
205.595504
 20
334.563478
 30
0.0
 11
205.595504
 21
342.563478
 31
0.0
  0
LINE
  5
43
100
AcDbEntity
  8
MSL-2-30-7
100
AcDbLine
 10
249.595504
 20
340.08986
 30
0.0
 11
249.595504
 21
279.563478
 31
0.0
  0
LINE
  5
44
100
AcDbEntity
  8
MSL-2-30-7
100
AcDbLine
 10
234.595504
 20
326.430975
 30
0.0
 11
234.595504
 21
279.563478
 31
0.0
  0
LINE
  5
45
100
AcDbEntity
  8
MSL-2-30-7
100
AcDbLine
 10
264.595504
 20
326.430975
 30
0.0
 11
264.595504
 21
279.563478
 31
0.0
  0
LINE
  5
46
100
AcDbEntity
  8
MSL-2-30-0
100
AcDbLine
 10
290.595504
 20
341.563478
 30
0.0
 11
290.595504
 21
281.563478
 31
0.0
  0
LINE
  5
47
100
AcDbEntity
  8
MSL-2-30-3
100
AcDbLine
 10
289.095504
 20
341.563478
 30
0.0
 11
289.095504
 21
322.563478
 31
0.0
  0
LINE
  5
48
100
AcDbEntity
  8
MSL-2-30-7
100
AcDbLine
 10
273.379275
 20
287.563478
 30
0.0
 11
225.754275
 21
287.563478
 31
0.0
  0
CIRCLE
  5
49
100
AcDbEntity
  8
MSL-2-30-3
100
AcDbCircle
 10
264.595504
 20
287.563478
 30
0.0
 40
5.0
  0
LINE
  5
4A
100
AcDbEntity
  8
MSL-2-30-7
100
AcDbLine
 10
225.754275
 20
317.563478
 30
0.0
 11
273.379275
 21
317.563478
 31
0.0
  0
CIRCLE
  5
4B
100
AcDbEntity
  8
MSL-2-30-3
100
AcDbCircle
 10
264.595504
 20
317.563478
 30
0.0
 40
5.0
  0
CIRCLE
  5
4C
100
AcDbEntity
  8
MSL-2-30-0
100
AcDbCircle
 10
249.595504
 20
287.563478
 30
0.0
 40
2.5
  0
CIRCLE
  5
4D
100
AcDbEntity
  8
MSL-2-30-0
100
AcDbCircle
 10
234.595504
 20
287.563478
 30
0.0
 40
2.75
  0
CIRCLE
  5
4E
100
AcDbEntity
  8
MSL-2-30-3
100
AcDbCircle
 10
234.595504
 20
287.563478
 30
0.0
 40
5.0
  0
LINE
  5
4F
100
AcDbEntity
  8
MSL-2-30-3
100
AcDbLine
 10
222.528504
 20
281.563478
 30
0.0
 11
222.528504
 21
292.763478
 31
0.0
  0
LINE
  5
50
100
AcDbEntity
  8
MSL-2-30-3
100
AcDbLine
 10
222.528504
 20
281.563478
 30
0.0
 11
222.528504
 21
292.763478
 31
0.0
  0
LINE
  5
51
100
AcDbEntity
  8
MSL-2-30-3
100
AcDbLine
 10
222.095504
 20
281.563478
 30
0.0
 11
222.095504
 21
289.563478
 31
0.0
  0
LINE
  5
52
100
AcDbEntity
  8
MSL-2-30-3
100
AcDbLine
 10
222.095504
 20
281.563478
 30
0.0
 11
222.095504
 21
289.563478
 31
0.0
  0
LINE
  5
53
100
AcDbEntity
  8
MSL-2-30-3
100
AcDbLine
 10
226.662504
 20
281.563478
 30
0.0
 11
226.662504
 21
292.763478
 31
0.0
  0
LINE
  5
54
100
AcDbEntity
  8
MSL-2-30-3
100
AcDbLine
 10
226.662504
 20
281.563478
 30
0.0
 11
226.662504
 21
292.763478
 31
0.0
  0
LINE
  5
55
100
AcDbEntity
  8
MSL-2-30-7
100
AcDbLine
 10
224.595504
 20
296.956861
 30
0.0
 11
224.595504
 21
278.563478
 31
0.0
  0
LINE
  5
56
100
AcDbEntity
  8
MSL-2-30-7
100
AcDbLine
 10
224.595504
 20
296.956861
 30
0.0
 11
224.595504
 21
278.563478
 31
0.0
  0
LINE
  5
57
100
AcDbEntity
  8
MSL-2-30-3
100
AcDbLine
 10
227.095504
 20
281.563478
 30
0.0
 11
227.095504
 21
289.563478
 31
0.0
  0
LINE
  5
58
100
AcDbEntity
  8
MSL-2-30-3
100
AcDbLine
 10
227.095504
 20
281.563478
 30
0.0
 11
227.095504
 21
289.563478
 31
0.0
  0
LINE
  5
59
100
AcDbEntity
  8
MSL-2-30-3
100
AcDbLine
 10
216.595504
 20
290.063478
 30
0.0
 11
216.595504
 21
285.063478
 31
0.0
  0
LINE
  5
5A
100
AcDbEntity
  8
MSL-2-30-3
100
AcDbLine
 10
219.795504
 20
289.630478
 30
0.0
 11
219.795504
 21
285.496478
 31
0.0
  0
LINE
  5
5B
100
AcDbEntity
  8
MSL-2-30-3
100
AcDbLine
 10
220.988887
 20
287.563478
 30
0.0
 11
219.795504
 21
285.496478
 31
0.0
  0
CIRCLE
  5
5C
100
AcDbEntity
  8
MSL-2-30-0
100
AcDbCircle
 10
234.595504
 20
317.563478
 30
0.0
 40
2.75
  0
CIRCLE
  5
5D
100
AcDbEntity
  8
MSL-2-30-0
100
AcDbCircle
 10
234.595504
 20
302.563478
 30
0.0
 40
2.5
  0
CIRCLE
  5
5E
100
AcDbEntity
  8
MSL-2-30-3
100
AcDbCircle
 10
234.595504
 20
317.563478
 30
0.0
 40
5.0
  0
LINE
  5
5F
100
AcDbEntity
  8
MSL-2-30-7
100
AcDbLine
 10
222.095504
 20
312.738787
 30
0.0
 11
222.095504
 21
292.895037
 31
0.0
  0
LINE
  5
60
100
AcDbEntity
  8
MSL-2-30-3
100
AcDbLine
 10
224.595504
 20
293.956861
 30
0.0
 11
222.528504
 21
292.763478
 31
0.0
  0
LINE
  5
61
100
AcDbEntity
  8
MSL-2-30-3
100
AcDbLine
 10
224.595504
 20
293.956861
 30
0.0
 11
222.528504
 21
292.763478
 31
0.0
  0
LINE
  5
62
100
AcDbEntity
  8
MSL-2-30-3
100
AcDbLine
 10
222.528504
 20
292.763478
 30
0.0
 11
226.662504
 21
292.763478
 31
0.0
  0
LINE
  5
63
100
AcDbEntity
  8
MSL-2-30-3
100
AcDbLine
 10
222.528504
 20
292.763478
 30
0.0
 11
226.662504
 21
292.763478
 31
0.0
  0
LINE
  5
64
100
AcDbEntity
  8
MSL-2-30-3
100
AcDbLine
 10
222.095504
 20
289.563478
 30
0.0
 11
227.095504
 21
289.563478
 31
0.0
  0
LINE
  5
65
100
AcDbEntity
  8
MSL-2-30-3
100
AcDbLine
 10
222.095504
 20
289.563478
 30
0.0
 11
227.095504
 21
289.563478
 31
0.0
  0
LINE
  5
66
100
AcDbEntity
  8
MSL-2-30-3
100
AcDbLine
 10
220.988887
 20
287.563478
 30
0.0
 11
219.795504
 21
289.630478
 31
0.0
  0
LINE
  5
67
100
AcDbEntity
  8
MSL-2-30-3
100
AcDbLine
 10
224.595504
 20
293.956861
 30
0.0
 11
226.662504
 21
292.763478
 31
0.0
  0
LINE
  5
68
100
AcDbEntity
  8
MSL-2-30-3
100
AcDbLine
 10
224.595504
 20
293.956861
 30
0.0
 11
226.662504
 21
292.763478
 31
0.0
  0
LINE
  5
69
100
AcDbEntity
  8
MSL-2-30-3
100
AcDbLine
 10
216.595504
 20
320.063478
 30
0.0
 11
216.595504
 21
315.063478
 31
0.0
  0
LINE
  5
6A
100
AcDbEntity
  8
MSL-2-30-3
100
AcDbLine
 10
220.988887
 20
317.563478
 30
0.0
 11
219.795504
 21
319.630478
 31
0.0
  0
LINE
  5
6B
100
AcDbEntity
  8
MSL-2-30-3
100
AcDbLine
 10
219.795504
 20
319.630478
 30
0.0
 11
219.795504
 21
315.496478
 31
0.0
  0
LINE
  5
6C
100
AcDbEntity
  8
MSL-2-30-3
100
AcDbLine
 10
220.988887
 20
317.563478
 30
0.0
 11
219.795504
 21
315.496478
 31
0.0
  0
CIRCLE
  5
6D
100
AcDbEntity
  8
MSL-2-30-0
100
AcDbCircle
 10
249.595504
 20
317.563478
 30
0.0
 40
2.5
  0
LINE
  5
6E
100
AcDbEntity
  8
MSL-2-30-3
100
AcDbLine
 10
282.595504
 20
290.063478
 30
0.0
 11
282.595504
 21
285.063478
 31
0.0
  0
LINE
  5
6F
100
AcDbEntity
  8
MSL-2-30-3
100
AcDbLine
 10
282.595504
 20
290.063478
 30
0.0
 11
282.595504
 21
285.063478
 31
0.0
  0
LINE
  5
70
100
AcDbEntity
  8
MSL-2-30-3
100
AcDbLine
 10
278.202121
 20
287.563478
 30
0.0
 11
279.395504
 21
285.496478
 31
0.0
  0
LINE
  5
71
100
AcDbEntity
  8
MSL-2-30-3
100
AcDbLine
 10
278.202121
 20
287.563478
 30
0.0
 11
279.395504
 21
285.496478
 31
0.0
  0
LINE
  5
72
100
AcDbEntity
  8
MSL-2-30-3
100
AcDbLine
 10
279.395504
 20
289.630478
 30
0.0
 11
279.395504
 21
285.496478
 31
0.0
  0
LINE
  5
73
100
AcDbEntity
  8
MSL-2-30-3
100
AcDbLine
 10
279.395504
 20
289.630478
 30
0.0
 11
279.395504
 21
285.496478
 31
0.0
  0
LINE
  5
74
100
AcDbEntity
  8
MSL-2-30-3
100
AcDbLine
 10
289.595504
 20
282.563478
 30
0.0
 11
289.595504
 21
322.563478
 31
0.0
  0
LINE
  5
75
100
AcDbEntity
  8
MSL-2-30-3
100
AcDbLine
 10
272.528504
 20
281.563478
 30
0.0
 11
272.528504
 21
292.763478
 31
0.0
  0
LINE
  5
76
100
AcDbEntity
  8
MSL-2-30-3
100
AcDbLine
 10
272.528504
 20
281.563478
 30
0.0
 11
272.528504
 21
292.763478
 31
0.0
  0
LINE
  5
77
100
AcDbEntity
  8
MSL-2-30-3
100
AcDbLine
 10
276.662504
 20
281.563478
 30
0.0
 11
276.662504
 21
292.763478
 31
0.0
  0
LINE
  5
78
100
AcDbEntity
  8
MSL-2-30-7
100
AcDbLine
 10
274.595504
 20
296.956861
 30
0.0
 11
274.595504
 21
278.563478
 31
0.0
  0
LINE
  5
79
100
AcDbEntity
  8
MSL-2-30-7
100
AcDbLine
 10
274.595504
 20
296.956861
 30
0.0
 11
274.595504
 21
278.563478
 31
0.0
  0
LINE
  5
7A
100
AcDbEntity
  8
MSL-2-30-3
100
AcDbLine
 10
276.662504
 20
281.563478
 30
0.0
 11
276.662504
 21
292.763478
 31
0.0
  0
LINE
  5
7B
100
AcDbEntity
  8
MSL-2-30-3
100
AcDbLine
 10
272.095504
 20
281.563478
 30
0.0
 11
272.095504
 21
289.563478
 31
0.0
  0
LINE
  5
7C
100
AcDbEntity
  8
MSL-2-30-3
100
AcDbLine
 10
272.095504
 20
281.563478
 30
0.0
 11
272.095504
 21
289.563478
 31
0.0
  0
LINE
  5
7D
100
AcDbEntity
  8
MSL-2-30-3
100
AcDbLine
 10
277.095504
 20
281.563478
 30
0.0
 11
277.095504
 21
289.563478
 31
0.0
  0
LINE
  5
7E
100
AcDbEntity
  8
MSL-2-30-3
100
AcDbLine
 10
277.095504
 20
281.563478
 30
0.0
 11
277.095504
 21
289.563478
 31
0.0
  0
CIRCLE
  5
7F
100
AcDbEntity
  8
MSL-2-30-0
100
AcDbCircle
 10
264.595504
 20
287.563478
 30
0.0
 40
2.75
  0
LINE
  5
80
100
AcDbEntity
  8
MSL-2-30-3
100
AcDbLine
 10
290.595504
 20
285.063478
 30
0.0
 11
282.595504
 21
285.063478
 31
0.0
  0
LINE
  5
81
100
AcDbEntity
  8
MSL-2-30-3
100
AcDbLine
 10
290.595504
 20
285.063478
 30
0.0
 11
282.595504
 21
285.063478
 31
0.0
  0
LINE
  5
82
100
AcDbEntity
  8
MSL-2-30-3
100
AcDbLine
 10
290.595504
 20
285.496478
 30
0.0
 11
279.395504
 21
285.496478
 31
0.0
  0
LINE
  5
83
100
AcDbEntity
  8
MSL-2-30-3
100
AcDbLine
 10
290.595504
 20
285.496478
 30
0.0
 11
279.395504
 21
285.496478
 31
0.0
  0
LINE
  5
84
100
AcDbEntity
  8
MSL-2-30-3
100
AcDbLine
 10
290.595504
 20
320.063478
 30
0.0
 11
282.595504
 21
320.063478
 31
0.0
  0
LINE
  5
85
100
AcDbEntity
  8
MSL-2-30-3
100
AcDbLine
 10
290.595504
 20
315.063478
 30
0.0
 11
282.595504
 21
315.063478
 31
0.0
  0
LINE
  5
86
100
AcDbEntity
  8
MSL-2-30-3
100
AcDbLine
 10
290.595504
 20
315.496478
 30
0.0
 11
279.395504
 21
315.496478
 31
0.0
  0
LINE
  5
87
100
AcDbEntity
  8
MSL-2-30-3
100
AcDbLine
 10
290.595504
 20
319.630478
 30
0.0
 11
279.395504
 21
319.630478
 31
0.0
  0
LINE
  5
88
100
AcDbEntity
  8
MSL-2-30-3
100
AcDbLine
 10
290.595504
 20
290.063478
 30
0.0
 11
282.595504
 21
290.063478
 31
0.0
  0
LINE
  5
89
100
AcDbEntity
  8
MSL-2-30-3
100
AcDbLine
 10
290.595504
 20
290.063478
 30
0.0
 11
282.595504
 21
290.063478
 31
0.0
  0
LINE
  5
8A
100
AcDbEntity
  8
MSL-2-30-3
100
AcDbLine
 10
290.595504
 20
289.630478
 30
0.0
 11
279.395504
 21
289.630478
 31
0.0
  0
LINE
  5
8B
100
AcDbEntity
  8
MSL-2-30-3
100
AcDbLine
 10
290.595504
 20
289.630478
 30
0.0
 11
279.395504
 21
289.630478
 31
0.0
  0
LINE
  5
8C
100
AcDbEntity
  8
MSL-2-30-7
100
AcDbLine
 10
275.202121
 20
287.563478
 30
0.0
 11
293.595504
 21
287.563478
 31
0.0
  0
LINE
  5
8D
100
AcDbEntity
  8
MSL-2-30-7
100
AcDbLine
 10
275.202121
 20
287.563478
 30
0.0
 11
293.595504
 21
287.563478
 31
0.0
  0
LINE
  5
8E
100
AcDbEntity
  8
MSL-2-30-7
100
AcDbLine
 10
275.202121
 20
317.563478
 30
0.0
 11
293.595504
 21
317.563478
 31
0.0
  0
LINE
  5
8F
100
AcDbEntity
  8
MSL-2-30-7
100
AcDbLine
 10
277.095504
 20
312.738787
 30
0.0
 11
277.095504
 21
292.895037
 31
0.0
  0
CIRCLE
  5
90
100
AcDbEntity
  8
MSL-2-30-0
100
AcDbCircle
 10
264.595504
 20
302.563478
 30
0.0
 40
2.5
  0
LINE
  5
91
100
AcDbEntity
  8
MSL-2-30-3
100
AcDbLine
 10
277.095504
 20
289.563478
 30
0.0
 11
272.095504
 21
289.563478
 31
0.0
  0
LINE
  5
92
100
AcDbEntity
  8
MSL-2-30-3
100
AcDbLine
 10
277.095504
 20
289.563478
 30
0.0
 11
272.095504
 21
289.563478
 31
0.0
  0
LINE
  5
93
100
AcDbEntity
  8
MSL-2-30-3
100
AcDbLine
 10
278.202121
 20
287.563478
 30
0.0
 11
279.395504
 21
289.630478
 31
0.0
  0
LINE
  5
94
100
AcDbEntity
  8
MSL-2-30-3
100
AcDbLine
 10
278.202121
 20
287.563478
 30
0.0
 11
279.395504
 21
289.630478
 31
0.0
  0
LINE
  5
95
100
AcDbEntity
  8
MSL-2-30-3
100
AcDbLine
 10
274.595504
 20
293.956861
 30
0.0
 11
276.662504
 21
292.763478
 31
0.0
  0
LINE
  5
96
100
AcDbEntity
  8
MSL-2-30-3
100
AcDbLine
 10
274.595504
 20
293.956861
 30
0.0
 11
276.662504
 21
292.763478
 31
0.0
  0
LINE
  5
97
100
AcDbEntity
  8
MSL-2-30-3
100
AcDbLine
 10
276.662504
 20
292.763478
 30
0.0
 11
272.528504
 21
292.763478
 31
0.0
  0
LINE
  5
98
100
AcDbEntity
  8
MSL-2-30-3
100
AcDbLine
 10
276.662504
 20
292.763478
 30
0.0
 11
272.528504
 21
292.763478
 31
0.0
  0
LINE
  5
99
100
AcDbEntity
  8
MSL-2-30-3
100
AcDbLine
 10
274.595504
 20
293.956861
 30
0.0
 11
272.528504
 21
292.763478
 31
0.0
  0
LINE
  5
9A
100
AcDbEntity
  8
MSL-2-30-3
100
AcDbLine
 10
274.595504
 20
293.956861
 30
0.0
 11
272.528504
 21
292.763478
 31
0.0
  0
CIRCLE
  5
9B
100
AcDbEntity
  8
MSL-2-30-0
100
AcDbCircle
 10
264.595504
 20
317.563478
 30
0.0
 40
2.75
  0
LINE
  5
9C
100
AcDbEntity
  8
MSL-2-30-3
100
AcDbLine
 10
278.202121
 20
317.563478
 30
0.0
 11
279.395504
 21
319.630478
 31
0.0
  0
LINE
  5
9D
100
AcDbEntity
  8
MSL-2-30-3
100
AcDbLine
 10
278.202121
 20
317.563478
 30
0.0
 11
279.395504
 21
315.496478
 31
0.0
  0
LINE
  5
9E
100
AcDbEntity
  8
MSL-2-30-3
100
AcDbLine
 10
282.595504
 20
320.063478
 30
0.0
 11
282.595504
 21
315.063478
 31
0.0
  0
LINE
  5
9F
100
AcDbEntity
  8
MSL-2-30-3
100
AcDbLine
 10
279.395504
 20
319.630478
 30
0.0
 11
279.395504
 21
315.496478
 31
0.0
  0
LINE
  5
A0
100
AcDbEntity
  8
MSL-2-30-0
100
AcDbLine
 10
212.095504
 20
345.563478
 30
0.0
 11
287.095504
 21
345.563478
 31
0.0
  0
LINE
  5
A1
100
AcDbEntity
  8
MSL-2-30-0
100
AcDbLine
 10
212.095504
 20
344.563478
 30
0.0
 11
287.095504
 21
344.563478
 31
0.0
  0
LINE
  5
A2
100
AcDbEntity
  8
MSL-2-30-7
100
AcDbLine
 10
222.095504
 20
351.720215
 30
0.0
 11
222.095504
 21
343.988228
 31
0.0
  0
MTEXT
  5
A3
100
AcDbEntity
  8
MSL-2-30-6
100
AcDbMText
 10
212.615485
 20
340.665885
 30
0.0
 40
3.5
 41
21.059228
 71
     1
 72
     1
  1
{MSL-2-30}
  0
LINE
  5
A5
100
AcDbEntity
  8
MSL-2-30-0
100
AcDbLine
 10
224.095504
 20
347.563478
 30
0.0
 11
222.095504
 21
350.263478
 31
0.0
  0
LINE
  5
A6
100
AcDbEntity
  8
MSL-2-30-0
100
AcDbLine
 10
216.595504
 20
347.563478
 30
0.0
 11
227.595504
 21
347.563478
 31
0.0
  0
LINE
  5
A7
100
AcDbEntity
  8
MSL-2-30-0
100
AcDbLine
 10
216.595504
 20
345.563478
 30
0.0
 11
216.595504
 21
347.563478
 31
0.0
  0
LINE
  5
A8
100
AcDbEntity
  8
MSL-2-30-0
100
AcDbLine
 10
222.095504
 20
350.263478
 30
0.0
 11
220.095504
 21
347.563478
 31
0.0
  0
LINE
  5
A9
100
AcDbEntity
  8
MSL-2-30-0
100
AcDbLine
 10
227.595504
 20
347.563478
 30
0.0
 11
227.595504
 21
345.563478
 31
0.0
  0
LINE
  5
AA
100
AcDbEntity
  8
MSL-2-30-7
100
AcDbLine
 10
277.095504
 20
351.720215
 30
0.0
 11
277.095504
 21
343.988228
 31
0.0
  0
LINE
  5
AB
100
AcDbEntity
  8
MSL-2-30-0
100
AcDbLine
 10
271.595504
 20
347.563478
 30
0.0
 11
282.595504
 21
347.563478
 31
0.0
  0
LINE
  5
AC
100
AcDbEntity
  8
MSL-2-30-0
100
AcDbLine
 10
271.595504
 20
345.563478
 30
0.0
 11
271.595504
 21
347.563478
 31
0.0
  0
LINE
  5
AD
100
AcDbEntity
  8
MSL-2-30-0
100
AcDbLine
 10
279.095504
 20
347.563478
 30
0.0
 11
277.095504
 21
350.263478
 31
0.0
  0
LINE
  5
AE
100
AcDbEntity
  8
MSL-2-30-0
100
AcDbLine
 10
277.095504
 20
350.263478
 30
0.0
 11
275.095504
 21
347.563478
 31
0.0
  0
LINE
  5
AF
100
AcDbEntity
  8
MSL-2-30-0
100
AcDbLine
 10
282.595504
 20
347.563478
 30
0.0
 11
282.595504
 21
345.563478
 31
0.0
  0
ARC
  5
B0
100
AcDbEntity
  8
MSL-2-30-0
100
AcDbCircle
 10
287.095504
 20
343.563478
 30
0.0
 40
1.0
100
AcDbArc
 50
0.0
 51
89.999999
  0
ARC
  5
B1
100
AcDbEntity
  8
MSL-2-30-0
100
AcDbCircle
 10
287.095504
 20
343.563478
 30
0.0
 40
2.0
100
AcDbArc
 50
0.0
 51
89.999999
  0
LINE
  5
B2
100
AcDbEntity
  8
MSL-2-30-0
100
AcDbLine
 10
289.095504
 20
343.563478
 30
0.0
 11
289.095504
 21
341.563478
 31
0.0
  0
LINE
  5
B3
100
AcDbEntity
  8
MSL-2-30-0
100
AcDbLine
 10
288.095504
 20
343.563478
 30
0.0
 11
288.095504
 21
341.563478
 31
0.0
  0
CIRCLE
  5
B4
100
AcDbEntity
  8
MSL-2-30-3
100
AcDbCircle
 10
505.276346
 20
153.342422
 30
0.0
 40
2.067
  0
ARC
  5
B5
100
AcDbEntity
  8
MSL-2-30-3
100
AcDbCircle
 10
505.276346
 20
153.342422
 30
0.0
 40
2.5
100
AcDbArc
 50
172.405357
 51
104.931417
  0
CIRCLE
  5
B6
100
AcDbEntity
  8
MSL-2-30-3
100
AcDbCircle
 10
505.276346
 20
183.376639
 30
0.0
 40
2.067
  0
ARC
  5
B7
100
AcDbEntity
  8
MSL-2-30-3
100
AcDbCircle
 10
505.276346
 20
183.376639
 30
0.0
 40
2.5
100
AcDbArc
 50
172.405357
 51
104.931417
  0
LINE
  5
B8
100
AcDbEntity
  8
MSL-2-30-7
100
AcDbLine
 10
501.526346
 20
153.342422
 30
0.0
 11
509.026346
 21
153.342422
 31
0.0
  0
LINE
  5
B9
100
AcDbEntity
  8
MSL-2-30-7
100
AcDbLine
 10
501.526346
 20
183.376639
 30
0.0
 11
509.026346
 21
183.376639
 31
0.0
  0
LINE
  5
BA
100
AcDbEntity
  8
MSL-2-30-7
100
AcDbLine
 10
620.625231
 20
168.342422
 30
0.0
 11
390.051846
 21
168.342422
 31
0.0
  0
LINE
  5
BB
100
AcDbEntity
  8
MSL-2-30-0
100
AcDbLine
 10
430.276346
 20
208.342422
 30
0.0
 11
550.276346
 21
208.342422
 31
0.0
  0
LINE
  5
BC
100
AcDbEntity
  8
MSL-2-30-0
100
AcDbLine
 10
550.276346
 20
128.342422
 30
0.0
 11
430.276346
 21
128.342422
 31
0.0
  0
ARC
  5
BD
100
AcDbEntity
  8
MSL-2-30-3
100
AcDbCircle
 10
404.276346
 20
143.342422
 30
0.0
 40
2.5
100
AcDbArc
 50
255.068583
 51
187.594643
  0
ARC
  5
BE
100
AcDbEntity
  8
MSL-2-30-3
100
AcDbCircle
 10
404.276346
 20
193.342422
 30
0.0
 40
2.5
100
AcDbArc
 50
255.068583
 51
187.594643
  0
LINE
  5
BF
100
AcDbEntity
  8
MSL-2-30-7
100
AcDbLine
 10
400.526346
 20
193.342422
 30
0.0
 11
408.026346
 21
193.342422
 31
0.0
  0
LINE
  5
C0
100
AcDbEntity
  8
MSL-2-30-7
100
AcDbLine
 10
400.526346
 20
143.342422
 30
0.0
 11
408.026346
 21
143.342422
 31
0.0
  0
LINE
  5
C1
100
AcDbEntity
  8
MSL-2-30-0
100
AcDbLine
 10
409.276346
 20
127.342422
 30
0.0
 11
393.276346
 21
127.342422
 31
0.0
  0
LINE
  5
C2
100
AcDbEntity
  8
MSL-2-30-0
100
AcDbLine
 10
393.276346
 20
209.342422
 30
0.0
 11
409.276346
 21
209.342422
 31
0.0
  0
LINE
  5
C3
100
AcDbEntity
  8
MSL-2-30-7
100
AcDbLine
 10
433.937315
 20
195.842422
 30
0.0
 11
390.051846
 21
195.842422
 31
0.0
  0
LINE
  5
C4
100
AcDbEntity
  8
MSL-2-30-7
100
AcDbLine
 10
389.927461
 20
153.342422
 30
0.0
 11
413.046679
 21
153.342422
 31
0.0
  0
LINE
  5
C5
100
AcDbEntity
  8
MSL-2-30-7
100
AcDbLine
 10
389.927461
 20
183.342422
 30
0.0
 11
413.046679
 21
183.342422
 31
0.0
  0
LINE
  5
C6
100
AcDbEntity
  8
MSL-2-30-7
100
AcDbLine
 10
433.937315
 20
140.842422
 30
0.0
 11
390.051846
 21
140.842422
 31
0.0
  0
LINE
  5
C7
100
AcDbEntity
  8
MSL-2-30-0
100
AcDbLine
 10
393.276346
 20
127.342422
 30
0.0
 11
393.276346
 21
209.342422
 31
0.0
  0
LINE
  5
C8
100
AcDbEntity
  8
MSL-2-30-3
100
AcDbLine
 10
400.776346
 20
209.342422
 30
0.0
 11
400.776346
 21
201.342422
 31
0.0
  0
LINE
  5
C9
100
AcDbEntity
  8
MSL-2-30-3
100
AcDbLine
 10
400.776346
 20
209.342422
 30
0.0
 11
400.776346
 21
201.342422
 31
0.0
  0
LINE
  5
CA
100
AcDbEntity
  8
MSL-2-30-3
100
AcDbLine
 10
400.343346
 20
209.342422
 30
0.0
 11
400.343346
 21
198.142422
 31
0.0
  0
LINE
  5
CB
100
AcDbEntity
  8
MSL-2-30-3
100
AcDbLine
 10
400.343346
 20
209.342422
 30
0.0
 11
400.343346
 21
198.142422
 31
0.0
  0
LINE
  5
CC
100
AcDbEntity
  8
MSL-2-30-3
100
AcDbLine
 10
395.776346
 20
209.342422
 30
0.0
 11
395.776346
 21
201.342422
 31
0.0
  0
LINE
  5
CD
100
AcDbEntity
  8
MSL-2-30-3
100
AcDbLine
 10
395.776346
 20
209.342422
 30
0.0
 11
395.776346
 21
201.342422
 31
0.0
  0
LINE
  5
CE
100
AcDbEntity
  8
MSL-2-30-3
100
AcDbLine
 10
396.209346
 20
209.342422
 30
0.0
 11
396.209346
 21
198.142422
 31
0.0
  0
LINE
  5
CF
100
AcDbEntity
  8
MSL-2-30-3
100
AcDbLine
 10
396.209346
 20
209.342422
 30
0.0
 11
396.209346
 21
198.142422
 31
0.0
  0
LINE
  5
D0
100
AcDbEntity
  8
MSL-2-30-7
100
AcDbLine
 10
398.276346
 20
193.949039
 30
0.0
 11
398.276346
 21
212.342422
 31
0.0
  0
LINE
  5
D1
100
AcDbEntity
  8
MSL-2-30-7
100
AcDbLine
 10
398.276346
 20
193.949039
 30
0.0
 11
398.276346
 21
212.342422
 31
0.0
  0
LINE
  5
D2
100
AcDbEntity
  8
MSL-2-30-3
100
AcDbLine
 10
398.276346
 20
196.949039
 30
0.0
 11
396.209346
 21
198.142422
 31
0.0
  0
LINE
  5
D3
100
AcDbEntity
  8
MSL-2-30-3
100
AcDbLine
 10
398.276346
 20
196.949039
 30
0.0
 11
396.209346
 21
198.142422
 31
0.0
  0
LINE
  5
D4
100
AcDbEntity
  8
MSL-2-30-3
100
AcDbLine
 10
398.276346
 20
196.949039
 30
0.0
 11
400.343346
 21
198.142422
 31
0.0
  0
LINE
  5
D5
100
AcDbEntity
  8
MSL-2-30-3
100
AcDbLine
 10
398.276346
 20
196.949039
 30
0.0
 11
400.343346
 21
198.142422
 31
0.0
  0
LINE
  5
D6
100
AcDbEntity
  8
MSL-2-30-3
100
AcDbLine
 10
400.776346
 20
201.342422
 30
0.0
 11
395.776346
 21
201.342422
 31
0.0
  0
LINE
  5
D7
100
AcDbEntity
  8
MSL-2-30-3
100
AcDbLine
 10
400.776346
 20
201.342422
 30
0.0
 11
395.776346
 21
201.342422
 31
0.0
  0
LINE
  5
D8
100
AcDbEntity
  8
MSL-2-30-3
100
AcDbLine
 10
400.343346
 20
198.142422
 30
0.0
 11
396.209346
 21
198.142422
 31
0.0
  0
LINE
  5
D9
100
AcDbEntity
  8
MSL-2-30-3
100
AcDbLine
 10
400.343346
 20
198.142422
 30
0.0
 11
396.209346
 21
198.142422
 31
0.0
  0
LINE
  5
DA
100
AcDbEntity
  8
MSL-2-30-7
100
AcDbLine
 10
404.276346
 20
197.092422
 30
0.0
 11
404.276346
 21
189.592422
 31
0.0
  0
CIRCLE
  5
DB
100
AcDbEntity
  8
MSL-2-30-3
100
AcDbCircle
 10
404.276346
 20
193.342422
 30
0.0
 40
2.067
  0
LINE
  5
DC
100
AcDbEntity
  8
MSL-2-30-3
100
AcDbLine
 10
400.776346
 20
127.342422
 30
0.0
 11
400.776346
 21
135.342422
 31
0.0
  0
LINE
  5
DD
100
AcDbEntity
  8
MSL-2-30-3
100
AcDbLine
 10
400.776346
 20
127.342422
 30
0.0
 11
400.776346
 21
135.342422
 31
0.0
  0
LINE
  5
DE
100
AcDbEntity
  8
MSL-2-30-3
100
AcDbLine
 10
395.776346
 20
127.342422
 30
0.0
 11
395.776346
 21
135.342422
 31
0.0
  0
LINE
  5
DF
100
AcDbEntity
  8
MSL-2-30-3
100
AcDbLine
 10
395.776346
 20
127.342422
 30
0.0
 11
395.776346
 21
135.342422
 31
0.0
  0
LINE
  5
E0
100
AcDbEntity
  8
MSL-2-30-3
100
AcDbLine
 10
396.209346
 20
127.342422
 30
0.0
 11
396.209346
 21
138.542422
 31
0.0
  0
LINE
  5
E1
100
AcDbEntity
  8
MSL-2-30-3
100
AcDbLine
 10
396.209346
 20
127.342422
 30
0.0
 11
396.209346
 21
138.542422
 31
0.0
  0
LINE
  5
E2
100
AcDbEntity
  8
MSL-2-30-3
100
AcDbLine
 10
400.343346
 20
127.342422
 30
0.0
 11
400.343346
 21
138.542422
 31
0.0
  0
LINE
  5
E3
100
AcDbEntity
  8
MSL-2-30-3
100
AcDbLine
 10
400.343346
 20
127.342422
 30
0.0
 11
400.343346
 21
138.542422
 31
0.0
  0
LINE
  5
E4
100
AcDbEntity
  8
MSL-2-30-7
100
AcDbLine
 10
398.276346
 20
142.735805
 30
0.0
 11
398.276346
 21
124.342422
 31
0.0
  0
LINE
  5
E5
100
AcDbEntity
  8
MSL-2-30-7
100
AcDbLine
 10
398.276346
 20
142.735805
 30
0.0
 11
398.276346
 21
124.342422
 31
0.0
  0
LINE
  5
E6
100
AcDbEntity
  8
MSL-2-30-3
100
AcDbLine
 10
398.276346
 20
139.735805
 30
0.0
 11
396.209346
 21
138.542422
 31
0.0
  0
LINE
  5
E7
100
AcDbEntity
  8
MSL-2-30-3
100
AcDbLine
 10
398.276346
 20
139.735805
 30
0.0
 11
396.209346
 21
138.542422
 31
0.0
  0
LINE
  5
E8
100
AcDbEntity
  8
MSL-2-30-3
100
AcDbLine
 10
398.276346
 20
139.735805
 30
0.0
 11
400.343346
 21
138.542422
 31
0.0
  0
LINE
  5
E9
100
AcDbEntity
  8
MSL-2-30-3
100
AcDbLine
 10
398.276346
 20
139.735805
 30
0.0
 11
400.343346
 21
138.542422
 31
0.0
  0
CIRCLE
  5
EA
100
AcDbEntity
  8
MSL-2-30-3
100
AcDbCircle
 10
404.276346
 20
143.342422
 30
0.0
 40
2.067
  0
LINE
  5
EB
100
AcDbEntity
  8
MSL-2-30-7
100
AcDbLine
 10
404.276346
 20
147.092422
 30
0.0
 11
404.276346
 21
139.592422
 31
0.0
  0
LINE
  5
EC
100
AcDbEntity
  8
MSL-2-30-3
100
AcDbLine
 10
400.776346
 20
135.342422
 30
0.0
 11
395.776346
 21
135.342422
 31
0.0
  0
LINE
  5
ED
100
AcDbEntity
  8
MSL-2-30-3
100
AcDbLine
 10
400.776346
 20
135.342422
 30
0.0
 11
395.776346
 21
135.342422
 31
0.0
  0
LINE
  5
EE
100
AcDbEntity
  8
MSL-2-30-3
100
AcDbLine
 10
400.343346
 20
138.542422
 30
0.0
 11
396.209346
 21
138.542422
 31
0.0
  0
LINE
  5
EF
100
AcDbEntity
  8
MSL-2-30-3
100
AcDbLine
 10
400.343346
 20
138.542422
 30
0.0
 11
396.209346
 21
138.542422
 31
0.0
  0
LINE
  5
F0
100
AcDbEntity
  8
MSL-2-30-7
100
AcDbLine
 10
490.276346
 20
179.794188
 30
0.0
 11
490.276346
 21
156.977616
 31
0.0
  0
LINE
  5
F1
100
AcDbEntity
  8
MSL-2-30-0
100
AcDbLine
 10
430.276346
 20
128.342422
 30
0.0
 11
430.276346
 21
208.342422
 31
0.0
  0
LINE
  5
F2
100
AcDbEntity
  8
MSL-2-30-0
100
AcDbLine
 10
449.776346
 20
178.842422
 30
0.0
 11
449.776346
 21
157.842422
 31
0.0
  0
CIRCLE
  5
F3
100
AcDbEntity
  8
MSL-2-30-0
100
AcDbCircle
 10
440.176346
 20
168.342422
 30
0.0
 40
4.25
  0
CIRCLE
  5
F4
100
AcDbEntity
  8
MSL-2-30-0
100
AcDbCircle
 10
440.176346
 20
168.342422
 30
0.0
 40
2.5
  0
LINE
  5
F5
100
AcDbEntity
  8
MSL-2-30-7
100
AcDbLine
 10
440.176346
 20
175.231003
 30
0.0
 11
440.176346
 21
161.208087
 31
0.0
  0
LINE
  5
F6
100
AcDbEntity
  8
MSL-2-30-0
100
AcDbLine
 10
415.276346
 20
160.342422
 30
0.0
 11
415.276346
 21
176.342422
 31
0.0
  0
LINE
  5
F7
100
AcDbEntity
  8
MSL-2-30-0
100
AcDbLine
 10
416.276346
 20
159.342422
 30
0.0
 11
416.276346
 21
177.342422
 31
0.0
  0
LINE
  5
F8
100
AcDbEntity
  8
MSL-2-30-0
100
AcDbLine
 10
409.276346
 20
209.342422
 30
0.0
 11
409.276346
 21
127.342422
 31
0.0
  0
LINE
  5
F9
100
AcDbEntity
  8
MSL-2-30-7
100
AcDbLine
 10
457.776346
 20
140.842422
 30
0.0
 11
450.342324
 21
140.842422
 31
0.0
  0
CIRCLE
  5
FA
100
AcDbEntity
  8
MSL-2-30-0
100
AcDbCircle
 10
457.776346
 20
140.842422
 30
0.0
 40
5.5
  0
LINE
  5
FB
100
AcDbEntity
  8
MSL-2-30-0
100
AcDbLine
 10
449.776346
 20
178.842422
 30
0.0
 11
430.276346
 21
178.842422
 31
0.0
  0
LINE
  5
FC
100
AcDbEntity
  8
MSL-2-30-0
100
AcDbLine
 10
410.276346
 20
201.842422
 30
0.0
 11
420.276346
 21
201.842422
 31
0.0
  0
LINE
  5
FD
100
AcDbEntity
  8
MSL-2-30-0
100
AcDbLine
 10
420.276346
 20
189.842422
 30
0.0
 11
410.276346
 21
189.842422
 31
0.0
  0
LINE
  5
FE
100
AcDbEntity
  8
MSL-2-30-0
100
AcDbLine
 10
410.276346
 20
189.842422
 30
0.0
 11
410.276346
 21
201.842422
 31
0.0
  0
LINE
  5
FF
100
AcDbEntity
  8
MSL-2-30-0
100
AcDbLine
 10
409.276346
 20
200.842422
 30
0.0
 11
410.276346
 21
201.842422
 31
0.0
  0
LINE
  5
100
100
AcDbEntity
  8
MSL-2-30-0
100
AcDbLine
 10
410.276346
 20
189.842422
 30
0.0
 11
409.276346
 21
190.842422
 31
0.0
  0
LINE
  5
101
100
AcDbEntity
  8
MSL-2-30-0
100
AcDbLine
 10
420.276346
 20
201.842422
 30
0.0
 11
420.276346
 21
189.842422
 31
0.0
  0
LINE
  5
102
100
AcDbEntity
  8
MSL-2-30-0
100
AcDbLine
 10
421.276346
 20
189.842422
 30
0.0
 11
421.276346
 21
201.842422
 31
0.0
  0
LINE
  5
103
100
AcDbEntity
  8
MSL-2-30-0
100
AcDbLine
 10
422.276346
 20
188.842422
 30
0.0
 11
422.276346
 21
202.842422
 31
0.0
  0
LINE
  5
104
100
AcDbEntity
  8
MSL-2-30-0
100
AcDbLine
 10
422.276346
 20
202.842422
 30
0.0
 11
430.276346
 21
202.842422
 31
0.0
  0
LINE
  5
105
100
AcDbEntity
  8
MSL-2-30-0
100
AcDbLine
 10
421.276346
 20
197.892422
 30
0.0
 11
420.276346
 21
197.892422
 31
0.0
  0
LINE
  5
106
100
AcDbEntity
  8
MSL-2-30-0
100
AcDbLine
 10
421.276346
 20
201.842422
 30
0.0
 11
422.276346
 21
202.842422
 31
0.0
  0
LINE
  5
107
100
AcDbEntity
  8
MSL-2-30-0
100
AcDbLine
 10
430.276346
 20
188.842422
 30
0.0
 11
422.276346
 21
188.842422
 31
0.0
  0
LINE
  5
108
100
AcDbEntity
  8
MSL-2-30-0
100
AcDbLine
 10
422.276346
 20
188.842422
 30
0.0
 11
421.276346
 21
189.842422
 31
0.0
  0
LINE
  5
109
100
AcDbEntity
  8
MSL-2-30-0
100
AcDbLine
 10
421.276346
 20
193.792422
 30
0.0
 11
420.276346
 21
193.792422
 31
0.0
  0
LINE
  5
10A
100
AcDbEntity
  8
MSL-2-30-0
100
AcDbLine
 10
416.276346
 20
177.342422
 30
0.0
 11
430.276346
 21
177.342422
 31
0.0
  0
LINE
  5
10B
100
AcDbEntity
  8
MSL-2-30-0
100
AcDbLine
 10
409.276346
 20
171.342422
 30
0.0
 11
415.276346
 21
171.342422
 31
0.0
  0
LINE
  5
10C
100
AcDbEntity
  8
MSL-2-30-0
100
AcDbLine
 10
415.276346
 20
176.342422
 30
0.0
 11
416.276346
 21
177.342422
 31
0.0
  0
MTEXT
  5
10D
100
AcDbEntity
  8
MSL-2-30-6
100
AcDbMText
 10
431.409305
 20
133.198564
 30
0.0
 40
3.5
 41
21.059228
 71
     1
 72
     1
  1
{MSL-2-30}
  0
LINE
  5
10E
100
AcDbEntity
  8
MSL-2-30-7
100
AcDbLine
 10
480.276346
 20
131.040806
 30
0.0
 11
480.276346
 21
122.349588
 31
0.0
  0
LINE
  5
10F
100
AcDbEntity
  8
MSL-2-30-7
100
AcDbLine
 10
470.276346
 20
131.040806
 30
0.0
 11
470.276346
 21
122.349588
 31
0.0
  0
LINE
  5
110
100
AcDbEntity
  8
MSL-2-30-0
100
AcDbLine
 10
484.276346
 20
124.342422
 30
0.0
 11
476.276346
 21
124.342422
 31
0.0
  0
LINE
  5
111
100
AcDbEntity
  8
MSL-2-30-0
100
AcDbLine
 10
474.276346
 20
124.342422
 30
0.0
 11
466.276346
 21
124.342422
 31
0.0
  0
ARC
  5
112
100
AcDbEntity
  8
MSL-2-30-0
100
AcDbCircle
 10
466.276346
 20
125.842422
 30
0.0
 40
1.5
100
AcDbArc
 50
180.0
 51
269.999999
  0
LINE
  5
113
100
AcDbEntity
  8
MSL-2-30-0
100
AcDbLine
 10
464.776346
 20
125.842422
 30
0.0
 11
464.776346
 21
128.342422
 31
0.0
  0
ARC
  5
114
100
AcDbEntity
  8
MSL-2-30-0
100
AcDbCircle
 10
476.276346
 20
125.842422
 30
0.0
 40
1.5
100
AcDbArc
 50
228.189685
 51
270.0
  0
LINE
  5
115
100
AcDbEntity
  8
MSL-2-30-0
100
AcDbLine
 10
475.776346
 20
128.342422
 30
0.0
 11
475.776346
 21
125.842422
 31
0.0
  0
ARC
  5
116
100
AcDbEntity
  8
MSL-2-30-0
100
AcDbCircle
 10
474.276346
 20
125.842422
 30
0.0
 40
1.5
100
AcDbArc
 50
269.999999
 51
0.000002
  0
ARC
  5
117
100
AcDbEntity
  8
MSL-2-30-0
100
AcDbCircle
 10
484.276346
 20
125.842422
 30
0.0
 40
1.5
100
AcDbArc
 50
269.999999
 51
0.000002
  0
LINE
  5
118
100
AcDbEntity
  8
MSL-2-30-0
100
AcDbLine
 10
485.776346
 20
128.342422
 30
0.0
 11
485.776346
 21
125.842422
 31
0.0
  0
LINE
  5
119
100
AcDbEntity
  8
MSL-2-30-7
100
AcDbLine
 10
457.776346
 20
140.842422
 30
0.0
 11
457.776346
 21
133.4084
 31
0.0
  0
LINE
  5
11A
100
AcDbEntity
  8
MSL-2-30-7
100
AcDbLine
 10
457.776346
 20
140.842422
 30
0.0
 11
465.210368
 21
140.842422
 31
0.0
  0
LINE
  5
11B
100
AcDbEntity
  8
MSL-2-30-7
100
AcDbLine
 10
457.776346
 20
140.842422
 30
0.0
 11
457.776346
 21
148.276444
 31
0.0
  0
LINE
  5
11C
100
AcDbEntity
  8
MSL-2-30-7
100
AcDbLine
 10
471.526346
 20
153.342422
 30
0.0
 11
479.026346
 21
153.342422
 31
0.0
  0
CIRCLE
  5
11D
100
AcDbEntity
  8
MSL-2-30-3
100
AcDbCircle
 10
475.276346
 20
153.342422
 30
0.0
 40
2.067
  0
ARC
  5
11E
100
AcDbEntity
  8
MSL-2-30-3
100
AcDbCircle
 10
475.276346
 20
153.342422
 30
0.0
 40
2.5
100
AcDbArc
 50
172.405357
 51
104.931417
  0
LINE
  5
11F
100
AcDbEntity
  8
MSL-2-30-7
100
AcDbLine
 10
475.276346
 20
149.592422
 30
0.0
 11
475.276346
 21
157.092422
 31
0.0
  0
LINE
  5
120
100
AcDbEntity
  8
MSL-2-30-7
100
AcDbLine
 10
490.276346
 20
153.342422
 30
0.0
 11
493.88354
 21
153.342422
 31
0.0
  0
CIRCLE
  5
121
100
AcDbEntity
  8
MSL-2-30-3
100
AcDbCircle
 10
490.276346
 20
153.342422
 30
0.0
 40
2.5
  0
LINE
  5
122
100
AcDbEntity
  8
MSL-2-30-7
100
AcDbLine
 10
490.276346
 20
153.342422
 30
0.0
 11
490.276346
 21
156.949616
 31
0.0
  0
LINE
  5
123
100
AcDbEntity
  8
MSL-2-30-7
100
AcDbLine
 10
490.276346
 20
153.342422
 30
0.0
 11
486.669152
 21
153.342422
 31
0.0
  0
LINE
  5
124
100
AcDbEntity
  8
MSL-2-30-7
100
AcDbLine
 10
490.276346
 20
153.342422
 30
0.0
 11
490.276346
 21
149.735228
 31
0.0
  0
LINE
  5
125
100
AcDbEntity
  8
MSL-2-30-0
100
AcDbLine
 10
430.276346
 20
157.842422
 30
0.0
 11
449.776346
 21
157.842422
 31
0.0
  0
ARC
  5
126
100
AcDbEntity
  8
MSL-2-30-0
100
AcDbCircle
 10
430.385026
 20
148.203638
 30
0.0
 40
3.108681
100
AcDbArc
 50
127.878144
 51
232.121856
  0
LINE
  5
127
100
AcDbEntity
  8
MSL-2-30-0
100
AcDbLine
 10
430.276346
 20
159.342422
 30
0.0
 11
416.276346
 21
159.342422
 31
0.0
  0
LINE
  5
128
100
AcDbEntity
  8
MSL-2-30-0
100
AcDbLine
 10
415.276346
 20
165.342422
 30
0.0
 11
409.276346
 21
165.342422
 31
0.0
  0
LINE
  5
129
100
AcDbEntity
  8
MSL-2-30-0
100
AcDbLine
 10
416.276346
 20
159.342422
 30
0.0
 11
415.276346
 21
160.342422
 31
0.0
  0
LINE
  5
12A
100
AcDbEntity
  8
MSL-2-30-0
100
AcDbLine
 10
428.476346
 20
150.657377
 30
0.0
 11
430.276346
 21
150.657377
 31
0.0
  0
LINE
  5
12B
100
AcDbEntity
  8
MSL-2-30-0
100
AcDbLine
 10
423.326346
 20
134.842422
 30
0.0
 11
413.246161
 21
134.842422
 31
0.0
  0
LINE
  5
12C
100
AcDbEntity
  8
MSL-2-30-0
100
AcDbLine
 10
413.276346
 20
136.842422
 30
0.0
 11
423.326346
 21
136.842422
 31
0.0
  0
LINE
  5
12E
100
AcDbEntity
  8
MSL-2-30-0
100
AcDbLine
 10
423.326346
 20
144.842422
 30
0.0
 11
413.276346
 21
144.842422
 31
0.0
  0
LINE
  5
130
100
AcDbEntity
  8
MSL-2-30-0
100
AcDbLine
 10
413.246161
 20
146.842422
 30
0.0
 11
423.326346
 21
146.842422
 31
0.0
  0
ARC
  5
131
100
AcDbEntity
  8
MSL-2-30-0
100
AcDbCircle
 10
405.566623
 20
140.842422
 30
0.0
 40
7.709722
100
AcDbArc
 50
330.872216
 51
29.127784
  0
ARC
  5
132
100
AcDbEntity
  8
MSL-2-30-0
100
AcDbCircle
 10
416.986068
 20
140.842422
 30
0.0
 40
7.709722
100
AcDbArc
 50
150.872218
 51
209.127782
  0
LINE
  5
133
100
AcDbEntity
  8
MSL-2-30-0
100
AcDbLine
 10
413.276346
 20
146.471587
 30
0.0
 11
413.276346
 21
135.213257
 31
0.0
  0
ARC
  5
134
100
AcDbEntity
  8
MSL-2-30-0
100
AcDbCircle
 10
410.98329
 20
146.471587
 30
0.0
 40
2.293056
100
AcDbArc
 50
305.085847
 51
54.914153
  0
LINE
  5
135
100
AcDbEntity
  8
MSL-2-30-0
100
AcDbLine
 10
410.251346
 20
144.595199
 30
0.0
 11
412.301346
 21
144.595199
 31
0.0
  0
LINE
  5
136
100
AcDbEntity
  8
MSL-2-30-0
100
AcDbLine
 10
410.251346
 20
148.347975
 30
0.0
 11
412.301346
 21
148.347975
 31
0.0
  0
ARC
  5
137
100
AcDbEntity
  8
MSL-2-30-0
100
AcDbCircle
 10
411.569401
 20
146.471587
 30
0.0
 40
2.293056
100
AcDbArc
 50
125.085848
 51
234.914152
  0
ARC
  5
138
100
AcDbEntity
  8
MSL-2-30-0
100
AcDbCircle
 10
410.98329
 20
135.213257
 30
0.0
 40
2.293056
100
AcDbArc
 50
305.085847
 51
54.914153
  0
LINE
  5
139
100
AcDbEntity
  8
MSL-2-30-0
100
AcDbLine
 10
410.251346
 20
133.336869
 30
0.0
 11
412.301346
 21
133.336869
 31
0.0
  0
LINE
  5
13A
100
AcDbEntity
  8
MSL-2-30-0
100
AcDbLine
 10
410.251346
 20
137.089645
 30
0.0
 11
412.301346
 21
137.089645
 31
0.0
  0
ARC
  5
13B
100
AcDbEntity
  8
MSL-2-30-0
100
AcDbCircle
 10
411.569401
 20
135.213257
 30
0.0
 40
2.293056
100
AcDbArc
 50
125.085848
 51
234.914152
  0
ARC
  5
13C
100
AcDbEntity
  8
MSL-2-30-0
100
AcDbCircle
 10
418.253936
 20
140.842422
 30
0.0
 40
9.02241
100
AcDbArc
 50
335.421502
 51
24.578498
  0
ARC
  5
13D
100
AcDbEntity
  8
MSL-2-30-0
100
AcDbCircle
 10
437.911068
 20
140.842422
 30
0.0
 40
10.634722
100
AcDbArc
 50
152.518773
 51
207.481227
  0
LINE
  5
13E
100
AcDbEntity
  8
MSL-2-30-0
100
AcDbLine
 10
427.276346
 20
146.471587
 30
0.0
 11
427.276346
 21
135.213257
 31
0.0
  0
LINE
  5
13F
100
AcDbEntity
  8
MSL-2-30-0
100
AcDbLine
 10
423.326346
 20
144.842422
 30
0.0
 11
423.326346
 21
136.842422
 31
0.0
  0
LINE
  5
140
100
AcDbEntity
  8
MSL-2-30-0
100
AcDbLine
 10
427.276346
 20
133.481206
 30
0.0
 11
427.276346
 21
148.203638
 31
0.0
  0
LINE
  5
141
100
AcDbEntity
  8
MSL-2-30-0
100
AcDbLine
 10
423.326346
 20
148.347975
 30
0.0
 11
423.326346
 21
133.336869
 31
0.0
  0
LINE
  5
142
100
AcDbEntity
  8
MSL-2-30-0
100
AcDbLine
 10
426.458846
 20
144.595199
 30
0.0
 11
423.326346
 21
144.595199
 31
0.0
  0
LINE
  5
143
100
AcDbEntity
  8
MSL-2-30-0
100
AcDbLine
 10
426.458846
 20
148.347975
 30
0.0
 11
423.326346
 21
148.347975
 31
0.0
  0
LINE
  5
144
100
AcDbEntity
  8
MSL-2-30-0
100
AcDbLine
 10
428.476346
 20
145.749899
 30
0.0
 11
430.276346
 21
145.749899
 31
0.0
  0
ARC
  5
145
100
AcDbEntity
  8
MSL-2-30-0
100
AcDbCircle
 10
424.714181
 20
146.471587
 30
0.0
 40
2.562165
100
AcDbArc
 50
312.916662
 51
47.083338
  0
LINE
  5
146
100
AcDbEntity
  8
MSL-2-30-0
100
AcDbLine
 10
423.326346
 20
133.336869
 30
0.0
 11
426.458846
 21
133.336869
 31
0.0
  0
LINE
  5
147
100
AcDbEntity
  8
MSL-2-30-0
100
AcDbLine
 10
426.458846
 20
137.089645
 30
0.0
 11
423.326346
 21
137.089645
 31
0.0
  0
LINE
  5
148
100
AcDbEntity
  8
MSL-2-30-0
100
AcDbLine
 10
428.476346
 20
131.027467
 30
0.0
 11
430.276346
 21
131.027467
 31
0.0
  0
LINE
  5
149
100
AcDbEntity
  8
MSL-2-30-0
100
AcDbLine
 10
428.476346
 20
135.934945
 30
0.0
 11
430.276346
 21
135.934945
 31
0.0
  0
ARC
  5
14A
100
AcDbEntity
  8
MSL-2-30-0
100
AcDbCircle
 10
430.385026
 20
133.481206
 30
0.0
 40
3.108681
100
AcDbArc
 50
127.878144
 51
232.121856
  0
ARC
  5
14B
100
AcDbEntity
  8
MSL-2-30-0
100
AcDbCircle
 10
424.714181
 20
135.213257
 30
0.0
 40
2.562165
100
AcDbArc
 50
312.916662
 51
47.083338
  0
CIRCLE
  5
14C
100
AcDbEntity
  8
MSL-2-30-3
100
AcDbCircle
 10
475.276346
 20
183.376639
 30
0.0
 40
2.067
  0
ARC
  5
14D
100
AcDbEntity
  8
MSL-2-30-3
100
AcDbCircle
 10
475.276346
 20
183.376639
 30
0.0
 40
2.5
100
AcDbArc
 50
172.405357
 51
104.931417
  0
LINE
  5
14E
100
AcDbEntity
  8
MSL-2-30-7
100
AcDbLine
 10
471.526346
 20
183.376639
 30
0.0
 11
479.026346
 21
183.376639
 31
0.0
  0
LINE
  5
14F
100
AcDbEntity
  8
MSL-2-30-7
100
AcDbLine
 10
475.276346
 20
179.626639
 30
0.0
 11
475.276346
 21
187.126639
 31
0.0
  0
CIRCLE
  5
150
100
AcDbEntity
  8
MSL-2-30-3
100
AcDbCircle
 10
490.276346
 20
183.342422
 30
0.0
 40
2.5
  0
LINE
  5
151
100
AcDbEntity
  8
MSL-2-30-7
100
AcDbLine
 10
490.276346
 20
183.376639
 30
0.0
 11
493.74984
 21
183.376639
 31
0.0
  0
LINE
  5
152
100
AcDbEntity
  8
MSL-2-30-7
100
AcDbLine
 10
490.276346
 20
183.376639
 30
0.0
 11
490.276346
 21
186.850133
 31
0.0
  0
LINE
  5
153
100
AcDbEntity
  8
MSL-2-30-7
100
AcDbLine
 10
490.276346
 20
183.376639
 30
0.0
 11
486.802852
 21
183.376639
 31
0.0
  0
LINE
  5
154
100
AcDbEntity
  8
MSL-2-30-7
100
AcDbLine
 10
490.276346
 20
183.376639
 30
0.0
 11
490.276346
 21
179.903144
 31
0.0
  0
LINE
  5
155
100
AcDbEntity
  8
MSL-2-30-7
100
AcDbLine
 10
620.625231
 20
140.842422
 30
0.0
 11
546.252166
 21
140.842422
 31
0.0
  0
LINE
  5
156
100
AcDbEntity
  8
MSL-2-30-7
100
AcDbLine
 10
620.625231
 20
195.842422
 30
0.0
 11
546.252166
 21
195.842422
 31
0.0
  0
LINE
  5
157
100
AcDbEntity
  8
MSL-2-30-0
100
AcDbLine
 10
601.276346
 20
209.342422
 30
0.0
 11
617.276346
 21
209.342422
 31
0.0
  0
LINE
  5
158
100
AcDbEntity
  8
MSL-2-30-7
100
AcDbLine
 10
620.625231
 20
153.342422
 30
0.0
 11
597.506012
 21
153.342422
 31
0.0
  0
LINE
  5
159
100
AcDbEntity
  8
MSL-2-30-7
100
AcDbLine
 10
620.625231
 20
183.342422
 30
0.0
 11
597.506012
 21
183.342422
 31
0.0
  0
LINE
  5
15A
100
AcDbEntity
  8
MSL-2-30-0
100
AcDbLine
 10
617.276346
 20
127.342422
 30
0.0
 11
601.276346
 21
127.342422
 31
0.0
  0
LINE
  5
15B
100
AcDbEntity
  8
MSL-2-30-0
100
AcDbLine
 10
601.276346
 20
127.342422
 30
0.0
 11
601.276346
 21
209.342422
 31
0.0
  0
LINE
  5
15C
100
AcDbEntity
  8
MSL-2-30-0
100
AcDbLine
 10
550.276346
 20
208.342422
 30
0.0
 11
550.276346
 21
128.342422
 31
0.0
  0
LINE
  5
15D
100
AcDbEntity
  8
MSL-2-30-0
100
AcDbLine
 10
530.776346
 20
157.842422
 30
0.0
 11
530.776346
 21
178.842422
 31
0.0
  0
LINE
  5
15E
100
AcDbEntity
  8
MSL-2-30-0
100
AcDbLine
 10
565.276346
 20
160.342422
 30
0.0
 11
565.276346
 21
176.342422
 31
0.0
  0
LINE
  5
15F
100
AcDbEntity
  8
MSL-2-30-0
100
AcDbLine
 10
564.276346
 20
159.342422
 30
0.0
 11
564.276346
 21
177.342422
 31
0.0
  0
CIRCLE
  5
160
100
AcDbEntity
  8
MSL-2-30-0
100
AcDbCircle
 10
540.376346
 20
168.342422
 30
0.0
 40
4.25
  0
LINE
  5
161
100
AcDbEntity
  8
MSL-2-30-7
100
AcDbLine
 10
540.376346
 20
177.302894
 30
0.0
 11
540.376346
 21
159.223033
 31
0.0
  0
CIRCLE
  5
162
100
AcDbEntity
  8
MSL-2-30-0
100
AcDbCircle
 10
540.376346
 20
168.342422
 30
0.0
 40
2.5
  0
ARC
  5
163
100
AcDbEntity
  8
MSL-2-30-0
100
AcDbCircle
 10
550.167665
 20
188.481206
 30
0.0
 40
3.108681
100
AcDbArc
 50
307.878142
 51
52.121858
  0
ARC
  5
164
100
AcDbEntity
  8
MSL-2-30-0
100
AcDbCircle
 10
542.641623
 20
195.842422
 30
0.0
 40
10.634722
100
AcDbArc
 50
332.518771
 51
27.481229
  0
ARC
  5
165
100
AcDbEntity
  8
MSL-2-30-0
100
AcDbCircle
 10
550.167665
 20
203.203638
 30
0.0
 40
3.108681
100
AcDbArc
 50
307.878142
 51
52.121858
  0
LINE
  5
166
100
AcDbEntity
  8
MSL-2-30-0
100
AcDbLine
 10
564.276346
 20
177.342422
 30
0.0
 11
550.276346
 21
177.342422
 31
0.0
  0
LINE
  5
167
100
AcDbEntity
  8
MSL-2-30-7
100
AcDbLine
 10
505.276346
 20
149.592422
 30
0.0
 11
505.276346
 21
157.092422
 31
0.0
  0
LINE
  5
168
100
AcDbEntity
  8
MSL-2-30-0
100
AcDbLine
 10
552.076346
 20
200.749899
 30
0.0
 11
550.276346
 21
200.749899
 31
0.0
  0
LINE
  5
169
100
AcDbEntity
  8
MSL-2-30-0
100
AcDbLine
 10
552.076346
 20
205.657377
 30
0.0
 11
550.276346
 21
205.657377
 31
0.0
  0
LINE
  5
16A
100
AcDbEntity
  8
MSL-2-30-0
100
AcDbLine
 10
552.076346
 20
190.934945
 30
0.0
 11
550.276346
 21
190.934945
 31
0.0
  0
LINE
  5
16B
100
AcDbEntity
  8
MSL-2-30-0
100
AcDbLine
 10
550.276346
 20
178.842422
 30
0.0
 11
530.776346
 21
178.842422
 31
0.0
  0
LINE
  5
16C
100
AcDbEntity
  8
MSL-2-30-0
100
AcDbLine
 10
552.076346
 20
186.027467
 30
0.0
 11
550.276346
 21
186.027467
 31
0.0
  0
LINE
  5
16D
100
AcDbEntity
  8
MSL-2-30-0
100
AcDbLine
 10
565.276346
 20
171.342422
 30
0.0
 11
601.276346
 21
171.342422
 31
0.0
  0
LINE
  5
16E
100
AcDbEntity
  8
MSL-2-30-0
100
AcDbLine
 10
583.303324
 20
189.842422
 30
0.0
 11
553.276346
 21
189.842422
 31
0.0
  0
LINE
  5
16F
100
AcDbEntity
  8
MSL-2-30-0
100
AcDbLine
 10
553.276346
 20
201.842422
 30
0.0
 11
583.303324
 21
201.842422
 31
0.0
  0
LINE
  5
170
100
AcDbEntity
  8
MSL-2-30-0
100
AcDbLine
 10
553.276346
 20
203.203638
 30
0.0
 11
553.276346
 21
188.481206
 31
0.0
  0
LINE
  5
171
100
AcDbEntity
  8
MSL-2-30-0
100
AcDbLine
 10
565.276346
 20
176.342422
 30
0.0
 11
564.276346
 21
177.342422
 31
0.0
  0
LINE
  5
172
100
AcDbEntity
  8
MSL-2-30-0
100
AcDbLine
 10
597.30653
 20
189.842422
 30
0.0
 11
587.276346
 21
189.842422
 31
0.0
  0
LINE
  5
173
100
AcDbEntity
  8
MSL-2-30-0
100
AcDbLine
 10
587.276346
 20
201.842422
 30
0.0
 11
597.30653
 21
201.842422
 31
0.0
  0
LINE
  5
174
100
AcDbEntity
  8
MSL-2-30-0
100
AcDbLine
 10
587.276346
 20
199.842422
 30
0.0
 11
597.276346
 21
199.842422
 31
0.0
  0
LINE
  5
176
100
AcDbEntity
  8
MSL-2-30-0
100
AcDbLine
 10
597.276346
 20
191.842422
 30
0.0
 11
587.276346
 21
191.842422
 31
0.0
  0
LINE
  5
178
100
AcDbEntity
  8
MSL-2-30-0
100
AcDbLine
 10
587.276346
 20
199.842422
 30
0.0
 11
587.276346
 21
191.842422
 31
0.0
  0
ARC
  5
179
100
AcDbEntity
  8
MSL-2-30-0
100
AcDbCircle
 10
592.298755
 20
195.842422
 30
0.0
 40
9.02241
100
AcDbArc
 50
155.421503
 51
204.578497
  0
LINE
  5
17A
100
AcDbEntity
  8
MSL-2-30-0
100
AcDbLine
 10
587.276346
 20
203.347975
 30
0.0
 11
587.276346
 21
188.336869
 31
0.0
  0
LINE
  5
17B
100
AcDbEntity
  8
MSL-2-30-0
100
AcDbLine
 10
583.276346
 20
201.471587
 30
0.0
 11
583.276346
 21
190.213257
 31
0.0
  0
ARC
  5
17C
100
AcDbEntity
  8
MSL-2-30-0
100
AcDbCircle
 10
585.83851
 20
201.471587
 30
0.0
 40
2.562165
100
AcDbArc
 50
132.916664
 51
227.083336
  0
LINE
  5
17D
100
AcDbEntity
  8
MSL-2-30-0
100
AcDbLine
 10
584.093846
 20
199.595199
 30
0.0
 11
587.276346
 21
199.595199
 31
0.0
  0
LINE
  5
17E
100
AcDbEntity
  8
MSL-2-30-0
100
AcDbLine
 10
584.093846
 20
203.347975
 30
0.0
 11
587.276346
 21
203.347975
 31
0.0
  0
ARC
  5
17F
100
AcDbEntity
  8
MSL-2-30-0
100
AcDbCircle
 10
585.83851
 20
190.213257
 30
0.0
 40
2.562165
100
AcDbArc
 50
132.916664
 51
227.083336
  0
LINE
  5
180
100
AcDbEntity
  8
MSL-2-30-0
100
AcDbLine
 10
587.276346
 20
188.336869
 30
0.0
 11
584.093846
 21
188.336869
 31
0.0
  0
LINE
  5
181
100
AcDbEntity
  8
MSL-2-30-0
100
AcDbLine
 10
584.093846
 20
192.089645
 30
0.0
 11
587.276346
 21
192.089645
 31
0.0
  0
ARC
  5
182
100
AcDbEntity
  8
MSL-2-30-0
100
AcDbCircle
 10
593.566623
 20
195.842422
 30
0.0
 40
7.709722
100
AcDbArc
 50
330.872216
 51
29.127784
  0
ARC
  5
183
100
AcDbEntity
  8
MSL-2-30-0
100
AcDbCircle
 10
604.986068
 20
195.842422
 30
0.0
 40
7.709722
100
AcDbArc
 50
150.872218
 51
209.127782
  0
LINE
  5
184
100
AcDbEntity
  8
MSL-2-30-0
100
AcDbLine
 10
597.276346
 20
201.471587
 30
0.0
 11
597.276346
 21
190.213257
 31
0.0
  0
LINE
  5
185
100
AcDbEntity
  8
MSL-2-30-0
100
AcDbLine
 10
600.301346
 20
199.595199
 30
0.0
 11
598.251346
 21
199.595199
 31
0.0
  0
LINE
  5
186
100
AcDbEntity
  8
MSL-2-30-0
100
AcDbLine
 10
600.301346
 20
203.347975
 30
0.0
 11
598.251346
 21
203.347975
 31
0.0
  0
ARC
  5
187
100
AcDbEntity
  8
MSL-2-30-0
100
AcDbCircle
 10
598.98329
 20
201.471587
 30
0.0
 40
2.293056
100
AcDbArc
 50
305.085847
 51
54.914153
  0
ARC
  5
188
100
AcDbEntity
  8
MSL-2-30-0
100
AcDbCircle
 10
599.569401
 20
201.471587
 30
0.0
 40
2.293056
100
AcDbArc
 50
125.085848
 51
234.914152
  0
LINE
  5
189
100
AcDbEntity
  8
MSL-2-30-0
100
AcDbLine
 10
600.301346
 20
188.336869
 30
0.0
 11
598.251346
 21
188.336869
 31
0.0
  0
LINE
  5
18A
100
AcDbEntity
  8
MSL-2-30-0
100
AcDbLine
 10
600.301346
 20
192.089645
 30
0.0
 11
598.251346
 21
192.089645
 31
0.0
  0
ARC
  5
18B
100
AcDbEntity
  8
MSL-2-30-0
100
AcDbCircle
 10
598.98329
 20
190.213257
 30
0.0
 40
2.293056
100
AcDbArc
 50
305.085847
 51
54.914153
  0
ARC
  5
18C
100
AcDbEntity
  8
MSL-2-30-0
100
AcDbCircle
 10
599.569401
 20
190.213257
 30
0.0
 40
2.293056
100
AcDbArc
 50
125.085848
 51
234.914152
  0
LINE
  5
18D
100
AcDbEntity
  8
MSL-2-30-0
100
AcDbLine
 10
550.276346
 20
159.342422
 30
0.0
 11
564.276346
 21
159.342422
 31
0.0
  0
LINE
  5
18E
100
AcDbEntity
  8
MSL-2-30-0
100
AcDbLine
 10
558.276346
 20
133.842422
 30
0.0
 11
550.276346
 21
133.842422
 31
0.0
  0
LINE
  5
18F
100
AcDbEntity
  8
MSL-2-30-0
100
AcDbLine
 10
550.276346
 20
147.842422
 30
0.0
 11
558.276346
 21
147.842422
 31
0.0
  0
LINE
  5
190
100
AcDbEntity
  8
MSL-2-30-7
100
AcDbLine
 10
522.776346
 20
195.842422
 30
0.0
 11
530.348389
 21
195.842422
 31
0.0
  0
LINE
  5
191
100
AcDbEntity
  8
MSL-2-30-7
100
AcDbLine
 10
505.276346
 20
179.626639
 30
0.0
 11
505.276346
 21
187.126639
 31
0.0
  0
LINE
  5
192
100
AcDbEntity
  8
MSL-2-30-7
100
AcDbLine
 10
522.776346
 20
195.842422
 30
0.0
 11
515.204303
 21
195.842422
 31
0.0
  0
LINE
  5
193
100
AcDbEntity
  8
MSL-2-30-7
100
AcDbLine
 10
522.776346
 20
195.842422
 30
0.0
 11
522.776346
 21
203.414465
 31
0.0
  0
CIRCLE
  5
194
100
AcDbEntity
  8
MSL-2-30-0
100
AcDbCircle
 10
522.776346
 20
195.842422
 30
0.0
 40
5.5
  0
LINE
  5
195
100
AcDbEntity
  8
MSL-2-30-7
100
AcDbLine
 10
522.776346
 20
195.842422
 30
0.0
 11
522.776346
 21
188.270379
 31
0.0
  0
LINE
  5
196
100
AcDbEntity
  8
MSL-2-30-0
100
AcDbLine
 10
550.276346
 20
157.842422
 30
0.0
 11
530.776346
 21
157.842422
 31
0.0
  0
POLYLINE
  5
197
100
AcDbEntity
  8
MSL-2-30-0
100
AcDb2dPolyline
 66
     1
 10
0.0
 20
0.0
 30
0.0
  0
VERTEX
  5
198
100
AcDbEntity
  8
MSL-2-30-0
  6
CONTINUOUS
100
AcDbVertex
100
AcDb2dVertex
 10
601.276346
 20
134.842422
 30
0.0
  0
VERTEX
  5
199
100
AcDbEntity
  8
MSL-2-30-0
  6
CONTINUOUS
100
AcDbVertex
100
AcDb2dVertex
 10
580.376346
 20
134.842422
 30
0.0
  0
VERTEX
  5
19A
100
AcDbEntity
  8
MSL-2-30-0
  6
CONTINUOUS
100
AcDbVertex
100
AcDb2dVertex
 10
559.276346
 20
134.842422
 30
0.0
  0
SEQEND
  5
19B
100
AcDbEntity
  8
MSL-2-30-0
  0
POLYLINE
  5
19C
100
AcDbEntity
  8
MSL-2-30-0
100
AcDb2dPolyline
 66
     1
 10
0.0
 20
0.0
 30
0.0
  0
VERTEX
  5
19D
100
AcDbEntity
  8
MSL-2-30-0
  6
CONTINUOUS
100
AcDbVertex
100
AcDb2dVertex
 10
580.376346
 20
146.842422
 30
0.0
  0
VERTEX
  5
19E
100
AcDbEntity
  8
MSL-2-30-0
  6
CONTINUOUS
100
AcDbVertex
100
AcDb2dVertex
 10
559.276346
 20
146.842422
 30
0.0
  0
VERTEX
  5
19F
100
AcDbEntity
  8
MSL-2-30-0
  6
CONTINUOUS
100
AcDbVertex
100
AcDb2dVertex
 10
601.276346
 20
146.842422
 30
0.0
  0
SEQEND
  5
1A0
100
AcDbEntity
  8
MSL-2-30-0
  0
LINE
  5
1A1
100
AcDbEntity
  8
MSL-2-30-0
100
AcDbLine
 10
601.276346
 20
165.342422
 30
0.0
 11
565.276346
 21
165.342422
 31
0.0
  0
LINE
  5
1A2
100
AcDbEntity
  8
MSL-2-30-0
100
AcDbLine
 10
570.376346
 20
146.842422
 30
0.0
 11
580.376346
 21
146.842422
 31
0.0
  0
LINE
  5
1A3
100
AcDbEntity
  8
MSL-2-30-0
100
AcDbLine
 10
580.376346
 20
134.842422
 30
0.0
 11
570.376346
 21
134.842422
 31
0.0
  0
LINE
  5
1A4
100
AcDbEntity
  8
MSL-2-30-0
100
AcDbLine
 10
564.276346
 20
159.342422
 30
0.0
 11
565.276346
 21
160.342422
 31
0.0
  0
LINE
  5
1A5
100
AcDbEntity
  8
MSL-2-30-0
100
AcDbLine
 10
559.276346
 20
142.892422
 30
0.0
 11
570.376346
 21
142.892422
 31
0.0
  0
LINE
  5
1A6
100
AcDbEntity
  8
MSL-2-30-0
100
AcDbLine
 10
559.276346
 20
138.792422
 30
0.0
 11
570.376346
 21
138.792422
 31
0.0
  0
LINE
  5
1A7
100
AcDbEntity
  8
MSL-2-30-0
100
AcDbLine
 10
559.276346
 20
146.842422
 30
0.0
 11
559.276346
 21
134.842422
 31
0.0
  0
LINE
  5
1A8
100
AcDbEntity
  8
MSL-2-30-0
100
AcDbLine
 10
558.276346
 20
147.842422
 30
0.0
 11
558.276346
 21
133.842422
 31
0.0
  0
LINE
  5
1A9
100
AcDbEntity
  8
MSL-2-30-0
100
AcDbLine
 10
558.276346
 20
147.842422
 30
0.0
 11
559.276346
 21
146.842422
 31
0.0
  0
LINE
  5
1AA
100
AcDbEntity
  8
MSL-2-30-0
100
AcDbLine
 10
559.276346
 20
134.842422
 30
0.0
 11
558.276346
 21
133.842422
 31
0.0
  0
LINE
  5
1AB
100
AcDbEntity
  8
MSL-2-30-0
100
AcDbLine
 10
570.376346
 20
134.842422
 30
0.0
 11
570.376346
 21
146.842422
 31
0.0
  0
LINE
  5
1AC
100
AcDbEntity
  8
MSL-2-30-0
100
AcDbLine
 10
581.376346
 20
145.842422
 30
0.0
 11
581.376346
 21
135.842422
 31
0.0
  0
LINE
  5
1AD
100
AcDbEntity
  8
MSL-2-30-0
100
AcDbLine
 10
580.376346
 20
146.842422
 30
0.0
 11
580.376346
 21
134.842422
 31
0.0
  0
LINE
  5
1AE
100
AcDbEntity
  8
MSL-2-30-0
100
AcDbLine
 10
580.376346
 20
146.842422
 30
0.0
 11
581.376346
 21
145.842422
 31
0.0
  0
LINE
  5
1AF
100
AcDbEntity
  8
MSL-2-30-0
100
AcDbLine
 10
581.376346
 20
135.842422
 30
0.0
 11
580.376346
 21
134.842422
 31
0.0
  0
LINE
  5
1B0
100
AcDbEntity
  8
MSL-2-30-0
100
AcDbLine
 10
617.276346
 20
209.342422
 30
0.0
 11
617.276346
 21
127.342422
 31
0.0
  0
LINE
  5
1B1
100
AcDbEntity
  8
MSL-2-30-3
100
AcDbLine
 10
614.776346
 20
209.342422
 30
0.0
 11
614.776346
 21
201.342422
 31
0.0
  0
LINE
  5
1B2
100
AcDbEntity
  8
MSL-2-30-3
100
AcDbLine
 10
614.776346
 20
209.342422
 30
0.0
 11
614.776346
 21
201.342422
 31
0.0
  0
LINE
  5
1B3
100
AcDbEntity
  8
MSL-2-30-3
100
AcDbLine
 10
614.343346
 20
209.342422
 30
0.0
 11
614.343346
 21
198.142422
 31
0.0
  0
LINE
  5
1B4
100
AcDbEntity
  8
MSL-2-30-3
100
AcDbLine
 10
614.343346
 20
209.342422
 30
0.0
 11
614.343346
 21
198.142422
 31
0.0
  0
LINE
  5
1B5
100
AcDbEntity
  8
MSL-2-30-3
100
AcDbLine
 10
609.776346
 20
209.342422
 30
0.0
 11
609.776346
 21
201.342422
 31
0.0
  0
LINE
  5
1B6
100
AcDbEntity
  8
MSL-2-30-3
100
AcDbLine
 10
609.776346
 20
209.342422
 30
0.0
 11
609.776346
 21
201.342422
 31
0.0
  0
LINE
  5
1B7
100
AcDbEntity
  8
MSL-2-30-3
100
AcDbLine
 10
610.209346
 20
209.342422
 30
0.0
 11
610.209346
 21
198.142422
 31
0.0
  0
LINE
  5
1B8
100
AcDbEntity
  8
MSL-2-30-3
100
AcDbLine
 10
610.209346
 20
209.342422
 30
0.0
 11
610.209346
 21
198.142422
 31
0.0
  0
LINE
  5
1B9
100
AcDbEntity
  8
MSL-2-30-7
100
AcDbLine
 10
612.276346
 20
193.949039
 30
0.0
 11
612.276346
 21
212.342422
 31
0.0
  0
LINE
  5
1BA
100
AcDbEntity
  8
MSL-2-30-7
100
AcDbLine
 10
612.276346
 20
193.949039
 30
0.0
 11
612.276346
 21
212.342422
 31
0.0
  0
LINE
  5
1BB
100
AcDbEntity
  8
MSL-2-30-3
100
AcDbLine
 10
609.776346
 20
201.342422
 30
0.0
 11
614.776346
 21
201.342422
 31
0.0
  0
LINE
  5
1BC
100
AcDbEntity
  8
MSL-2-30-3
100
AcDbLine
 10
609.776346
 20
201.342422
 30
0.0
 11
614.776346
 21
201.342422
 31
0.0
  0
LINE
  5
1BD
100
AcDbEntity
  8
MSL-2-30-3
100
AcDbLine
 10
612.276346
 20
196.949039
 30
0.0
 11
614.343346
 21
198.142422
 31
0.0
  0
LINE
  5
1BE
100
AcDbEntity
  8
MSL-2-30-3
100
AcDbLine
 10
610.209346
 20
198.142422
 30
0.0
 11
614.343346
 21
198.142422
 31
0.0
  0
LINE
  5
1BF
100
AcDbEntity
  8
MSL-2-30-3
100
AcDbLine
 10
610.209346
 20
198.142422
 30
0.0
 11
614.343346
 21
198.142422
 31
0.0
  0
LINE
  5
1C0
100
AcDbEntity
  8
MSL-2-30-3
100
AcDbLine
 10
612.276346
 20
196.949039
 30
0.0
 11
614.343346
 21
198.142422
 31
0.0
  0
LINE
  5
1C1
100
AcDbEntity
  8
MSL-2-30-3
100
AcDbLine
 10
612.276346
 20
196.949039
 30
0.0
 11
610.209346
 21
198.142422
 31
0.0
  0
LINE
  5
1C2
100
AcDbEntity
  8
MSL-2-30-3
100
AcDbLine
 10
612.276346
 20
196.949039
 30
0.0
 11
610.209346
 21
198.142422
 31
0.0
  0
LINE
  5
1C3
100
AcDbEntity
  8
MSL-2-30-7
100
AcDbLine
 10
602.526346
 20
193.342422
 30
0.0
 11
610.026346
 21
193.342422
 31
0.0
  0
ARC
  5
1C4
100
AcDbEntity
  8
MSL-2-30-3
100
AcDbCircle
 10
606.276346
 20
193.342422
 30
0.0
 40
2.5
100
AcDbArc
 50
255.068583
 51
187.594643
  0
CIRCLE
  5
1C5
100
AcDbEntity
  8
MSL-2-30-3
100
AcDbCircle
 10
606.276346
 20
193.342422
 30
0.0
 40
2.067
  0
LINE
  5
1C6
100
AcDbEntity
  8
MSL-2-30-7
100
AcDbLine
 10
606.276346
 20
197.092422
 30
0.0
 11
606.276346
 21
189.592422
 31
0.0
  0
LINE
  5
1C7
100
AcDbEntity
  8
MSL-2-30-3
100
AcDbLine
 10
614.776346
 20
127.342422
 30
0.0
 11
614.776346
 21
135.342422
 31
0.0
  0
LINE
  5
1C8
100
AcDbEntity
  8
MSL-2-30-3
100
AcDbLine
 10
614.776346
 20
127.342422
 30
0.0
 11
614.776346
 21
135.342422
 31
0.0
  0
LINE
  5
1C9
100
AcDbEntity
  8
MSL-2-30-3
100
AcDbLine
 10
614.343346
 20
127.342422
 30
0.0
 11
614.343346
 21
138.542422
 31
0.0
  0
LINE
  5
1CA
100
AcDbEntity
  8
MSL-2-30-3
100
AcDbLine
 10
614.343346
 20
127.342422
 30
0.0
 11
614.343346
 21
138.542422
 31
0.0
  0
LINE
  5
1CB
100
AcDbEntity
  8
MSL-2-30-3
100
AcDbLine
 10
609.776346
 20
127.342422
 30
0.0
 11
609.776346
 21
135.342422
 31
0.0
  0
LINE
  5
1CC
100
AcDbEntity
  8
MSL-2-30-3
100
AcDbLine
 10
609.776346
 20
127.342422
 30
0.0
 11
609.776346
 21
135.342422
 31
0.0
  0
LINE
  5
1CD
100
AcDbEntity
  8
MSL-2-30-3
100
AcDbLine
 10
610.209346
 20
127.342422
 30
0.0
 11
610.209346
 21
138.542422
 31
0.0
  0
LINE
  5
1CE
100
AcDbEntity
  8
MSL-2-30-3
100
AcDbLine
 10
610.209346
 20
127.342422
 30
0.0
 11
610.209346
 21
138.542422
 31
0.0
  0
LINE
  5
1CF
100
AcDbEntity
  8
MSL-2-30-7
100
AcDbLine
 10
612.276346
 20
142.735805
 30
0.0
 11
612.276346
 21
124.342422
 31
0.0
  0
LINE
  5
1D0
100
AcDbEntity
  8
MSL-2-30-7
100
AcDbLine
 10
612.276346
 20
142.735805
 30
0.0
 11
612.276346
 21
124.342422
 31
0.0
  0
LINE
  5
1D1
100
AcDbEntity
  8
MSL-2-30-3
100
AcDbLine
 10
609.776346
 20
135.342422
 30
0.0
 11
614.776346
 21
135.342422
 31
0.0
  0
LINE
  5
1D2
100
AcDbEntity
  8
MSL-2-30-3
100
AcDbLine
 10
609.776346
 20
135.342422
 30
0.0
 11
614.776346
 21
135.342422
 31
0.0
  0
LINE
  5
1D3
100
AcDbEntity
  8
MSL-2-30-3
100
AcDbLine
 10
612.276346
 20
139.735805
 30
0.0
 11
614.343346
 21
138.542422
 31
0.0
  0
LINE
  5
1D4
100
AcDbEntity
  8
MSL-2-30-3
100
AcDbLine
 10
610.209346
 20
138.542422
 30
0.0
 11
614.343346
 21
138.542422
 31
0.0
  0
LINE
  5
1D5
100
AcDbEntity
  8
MSL-2-30-3
100
AcDbLine
 10
610.209346
 20
138.542422
 30
0.0
 11
614.343346
 21
138.542422
 31
0.0
  0
LINE
  5
1D6
100
AcDbEntity
  8
MSL-2-30-3
100
AcDbLine
 10
612.276346
 20
139.735805
 30
0.0
 11
614.343346
 21
138.542422
 31
0.0
  0
LINE
  5
1D7
100
AcDbEntity
  8
MSL-2-30-3
100
AcDbLine
 10
612.276346
 20
139.735805
 30
0.0
 11
610.209346
 21
138.542422
 31
0.0
  0
LINE
  5
1D8
100
AcDbEntity
  8
MSL-2-30-3
100
AcDbLine
 10
612.276346
 20
139.735805
 30
0.0
 11
610.209346
 21
138.542422
 31
0.0
  0
LINE
  5
1D9
100
AcDbEntity
  8
MSL-2-30-7
100
AcDbLine
 10
606.276346
 20
143.342422
 30
0.0
 11
606.276346
 21
137.878397
 31
0.0
1001
GENIUS_GENOREF_13
1005
0
  0
LINE
  5
1E5
100
AcDbEntity
  8
MSL-2-30-7
100
AcDbLine
 10
602.526346
 20
143.342422
 30
0.0
 11
610.026346
 21
143.342422
 31
0.0
  0
ARC
  5
1E6
100
AcDbEntity
  8
MSL-2-30-3
100
AcDbCircle
 10
606.276346
 20
143.342422
 30
0.0
 40
2.5
100
AcDbArc
 50
255.068583
 51
187.594643
  0
CIRCLE
  5
1E7
100
AcDbEntity
  8
MSL-2-30-3
100
AcDbCircle
 10
606.276346
 20
143.342422
 30
0.0
 40
2.067
  0
LINE
  5
1E8
100
AcDbEntity
  8
MSL-2-30-7
100
AcDbLine
 10
606.276346
 20
147.092422
 30
0.0
 11
606.276346
 21
139.592422
 31
0.0
  0
LINE
  5
1E9
100
AcDbEntity
  8
MSL-2-30-7
  6
GEN7A
100
AcDbLine
 10
512.188346
 20
302.563478
 30
0.0
 11
467.667097
 21
302.563478
 31
0.0
  0
CIRCLE
  5
1EA
100
AcDbEntity
  8
MSL-2-30-0
100
AcDbCircle
 10
505.276346
 20
317.597695
 30
0.0
 40
2.067
  0
CIRCLE
  5
1EB
100
AcDbEntity
  8
MSL-2-30-0
100
AcDbCircle
 10
505.276346
 20
287.563478
 30
0.0
 40
2.067
  0
ARC
  5
1EC
100
AcDbEntity
  8
MSL-2-30-4
100
AcDbCircle
 10
505.276346
 20
317.597695
 30
0.0
 40
2.5
100
AcDbArc
 50
172.405357
 51
104.931417
  0
ARC
  5
1ED
100
AcDbEntity
  8
MSL-2-30-4
100
AcDbCircle
 10
505.276346
 20
287.563478
 30
0.0
 40
2.5
100
AcDbArc
 50
172.405357
 51
104.931417
  0
LINE
  5
1EE
100
AcDbEntity
  8
MSL-2-30-7
100
AcDbLine
 10
501.526346
 20
317.597695
 30
0.0
 11
509.026346
 21
317.597695
 31
0.0
  0
LINE
  5
1EF
100
AcDbEntity
  8
MSL-2-30-7
100
AcDbLine
 10
501.526346
 20
287.563478
 30
0.0
 11
509.026346
 21
287.563478
 31
0.0
  0
LINE
  5
1F0
100
AcDbEntity
  8
MSL-2-30-7
100
AcDbLine
 10
501.526346
 20
437.563478
 30
0.0
 11
509.026346
 21
437.563478
 31
0.0
  0
LINE
  5
1F1
100
AcDbEntity
  8
MSL-2-30-7
100
AcDbLine
 10
501.526346
 20
467.597695
 30
0.0
 11
509.026346
 21
467.597695
 31
0.0
  0
ARC
  5
1F2
100
AcDbEntity
  8
MSL-2-30-4
100
AcDbCircle
 10
505.276346
 20
437.563478
 30
0.0
 40
2.5
100
AcDbArc
 50
172.405357
 51
104.931417
  0
ARC
  5
1F3
100
AcDbEntity
  8
MSL-2-30-4
100
AcDbCircle
 10
505.276346
 20
467.597695
 30
0.0
 40
2.5
100
AcDbArc
 50
172.405357
 51
104.931417
  0
CIRCLE
  5
1F4
100
AcDbEntity
  8
MSL-2-30-0
100
AcDbCircle
 10
505.276346
 20
437.563478
 30
0.0
 40
2.067
  0
CIRCLE
  5
1F5
100
AcDbEntity
  8
MSL-2-30-0
100
AcDbCircle
 10
505.276346
 20
467.597695
 30
0.0
 40
2.067
  0
LINE
  5
1F6
100
AcDbEntity
  8
MSL-2-30-0
100
AcDbLine
 10
430.276346
 20
282.563478
 30
0.0
 11
550.276346
 21
282.563478
 31
0.0
  0
LINE
  5
1F7
100
AcDbEntity
  8
MSL-2-30-0
100
AcDbLine
 10
550.276346
 20
322.563478
 30
0.0
 11
430.276346
 21
322.563478
 31
0.0
  0
LINE
  5
1F8
100
AcDbEntity
  8
MSL-2-30-0
100
AcDbLine
 10
550.276346
 20
345.563478
 30
0.0
 11
430.276346
 21
345.563478
 31
0.0
  0
POLYLINE
  5
1F9
100
AcDbEntity
  8
MSL-2-30-0
100
AcDb2dPolyline
 66
     1
 10
0.0
 20
0.0
 30
0.0
 70
     1
  0
VERTEX
  5
1FA
100
AcDbEntity
  8
MSL-2-30-0
  6
CONTINUOUS
100
AcDbVertex
100
AcDb2dVertex
 10
550.276346
 20
412.563478
 30
0.0
  0
VERTEX
  5
1FB
100
AcDbEntity
  8
MSL-2-30-0
  6
CONTINUOUS
100
AcDbVertex
100
AcDb2dVertex
 10
550.276346
 20
492.563478
 30
0.0
  0
VERTEX
  5
1FC
100
AcDbEntity
  8
MSL-2-30-0
  6
CONTINUOUS
100
AcDbVertex
100
AcDb2dVertex
 10
430.276346
 20
492.563478
 30
0.0
  0
VERTEX
  5
1FD
100
AcDbEntity
  8
MSL-2-30-0
  6
CONTINUOUS
100
AcDbVertex
100
AcDb2dVertex
 10
430.276346
 20
412.563478
 30
0.0
  0
SEQEND
  5
1FE
100
AcDbEntity
  8
MSL-2-30-0
  0
LINE
  5
1FF
100
AcDbEntity
  8
MSL-2-30-7
  6
GEN7A
100
AcDbLine
 10
512.188346
 20
452.563478
 30
0.0
 11
467.667097
 21
452.563478
 31
0.0
  0
LINE
  5
200
100
AcDbEntity
  8
MSL-2-30-3
100
AcDbLine
 10
406.776346
 20
289.563478
 30
0.0
 11
401.776346
 21
289.563478
 31
0.0
  0
LINE
  5
201
100
AcDbEntity
  8
MSL-2-30-3
100
AcDbLine
 10
406.776346
 20
289.563478
 30
0.0
 11
401.776346
 21
289.563478
 31
0.0
  0
LINE
  5
202
100
AcDbEntity
  8
MSL-2-30-0
100
AcDbLine
 10
409.276346
 20
341.563478
 30
0.0
 11
393.276346
 21
341.563478
 31
0.0
  0
LINE
  5
203
100
AcDbEntity
  8
MSL-2-30-0
100
AcDbLine
 10
393.276346
 20
281.563478
 30
0.0
 11
409.276346
 21
281.563478
 31
0.0
  0
LINE
  5
204
100
AcDbEntity
  8
MSL-2-30-7
100
AcDbLine
 10
435.839914
 20
302.563478
 30
0.0
 11
390.051846
 21
302.563478
 31
0.0
  0
LINE
  5
205
100
AcDbEntity
  8
MSL-2-30-7
100
AcDbLine
 10
390.276346
 20
287.563478
 30
0.0
 11
411.864312
 21
287.563478
 31
0.0
  0
LINE
  5
206
100
AcDbEntity
  8
MSL-2-30-7
100
AcDbLine
 10
390.276346
 20
317.563478
 30
0.0
 11
411.864312
 21
317.563478
 31
0.0
  0
LINE
  5
207
100
AcDbEntity
  8
MSL-2-30-0
100
AcDbLine
 10
393.276346
 20
341.563478
 30
0.0
 11
393.276346
 21
281.563478
 31
0.0
  0
ARC
  5
208
100
AcDbEntity
  8
MSL-2-30-4
100
AcDbCircle
 10
398.276346
 20
287.563478
 30
0.0
 40
2.5
100
AcDbArc
 50
172.405357
 51
104.931417
  0
CIRCLE
  5
209
100
AcDbEntity
  8
MSL-2-30-0
100
AcDbCircle
 10
398.276346
 20
287.563478
 30
0.0
 40
2.067
  0
LINE
  5
20A
100
AcDbEntity
  8
MSL-2-30-7
100
AcDbLine
 10
398.276346
 20
283.813478
 30
0.0
 11
398.276346
 21
291.313478
 31
0.0
  0
LINE
  5
20B
100
AcDbEntity
  8
MSL-2-30-3
100
AcDbLine
 10
406.343346
 20
281.563478
 30
0.0
 11
406.343346
 21
292.763478
 31
0.0
  0
LINE
  5
20C
100
AcDbEntity
  8
MSL-2-30-7
100
AcDbLine
 10
404.276346
 20
296.956861
 30
0.0
 11
404.276346
 21
278.563478
 31
0.0
  0
LINE
  5
20D
100
AcDbEntity
  8
MSL-2-30-7
100
AcDbLine
 10
404.276346
 20
296.956861
 30
0.0
 11
404.276346
 21
278.563478
 31
0.0
  0
LINE
  5
20E
100
AcDbEntity
  8
MSL-2-30-3
100
AcDbLine
 10
406.343346
 20
281.563478
 30
0.0
 11
406.343346
 21
292.763478
 31
0.0
  0
LINE
  5
20F
100
AcDbEntity
  8
MSL-2-30-3
100
AcDbLine
 10
402.209346
 20
281.563478
 30
0.0
 11
402.209346
 21
292.763478
 31
0.0
  0
LINE
  5
210
100
AcDbEntity
  8
MSL-2-30-3
100
AcDbLine
 10
402.209346
 20
281.563478
 30
0.0
 11
402.209346
 21
292.763478
 31
0.0
  0
LINE
  5
211
100
AcDbEntity
  8
MSL-2-30-3
100
AcDbLine
 10
401.776346
 20
281.563478
 30
0.0
 11
401.776346
 21
289.563478
 31
0.0
  0
LINE
  5
212
100
AcDbEntity
  8
MSL-2-30-3
100
AcDbLine
 10
401.776346
 20
281.563478
 30
0.0
 11
401.776346
 21
289.563478
 31
0.0
  0
LINE
  5
213
100
AcDbEntity
  8
MSL-2-30-7
100
AcDbLine
 10
394.526346
 20
287.563478
 30
0.0
 11
402.026346
 21
287.563478
 31
0.0
  0
LINE
  5
214
100
AcDbEntity
  8
MSL-2-30-3
100
AcDbLine
 10
406.343346
 20
292.763478
 30
0.0
 11
402.209346
 21
292.763478
 31
0.0
  0
LINE
  5
215
100
AcDbEntity
  8
MSL-2-30-3
100
AcDbLine
 10
406.343346
 20
292.763478
 30
0.0
 11
402.209346
 21
292.763478
 31
0.0
  0
LINE
  5
216
100
AcDbEntity
  8
MSL-2-30-3
100
AcDbLine
 10
404.276346
 20
293.956861
 30
0.0
 11
402.209346
 21
292.763478
 31
0.0
  0
LINE
  5
217
100
AcDbEntity
  8
MSL-2-30-3
100
AcDbLine
 10
404.276346
 20
293.956861
 30
0.0
 11
402.209346
 21
292.763478
 31
0.0
  0
LINE
  5
218
100
AcDbEntity
  8
MSL-2-30-3
100
AcDbLine
 10
404.276346
 20
293.956861
 30
0.0
 11
406.343346
 21
292.763478
 31
0.0
  0
LINE
  5
219
100
AcDbEntity
  8
MSL-2-30-3
100
AcDbLine
 10
404.276346
 20
293.956861
 30
0.0
 11
406.343346
 21
292.763478
 31
0.0
  0
LINE
  5
21A
100
AcDbEntity
  8
MSL-2-30-7
100
AcDbLine
 10
398.276346
 20
313.813478
 30
0.0
 11
398.276346
 21
321.313478
 31
0.0
  0
ARC
  5
21B
100
AcDbEntity
  8
MSL-2-30-4
100
AcDbCircle
 10
398.276346
 20
317.563478
 30
0.0
 40
2.5
100
AcDbArc
 50
172.405357
 51
104.931417
  0
LINE
  5
21C
100
AcDbEntity
  8
MSL-2-30-7
100
AcDbLine
 10
394.526346
 20
317.563478
 30
0.0
 11
402.026346
 21
317.563478
 31
0.0
  0
CIRCLE
  5
21D
100
AcDbEntity
  8
MSL-2-30-0
100
AcDbCircle
 10
398.276346
 20
317.563478
 30
0.0
 40
2.067
  0
LINE
  5
21E
100
AcDbEntity
  8
MSL-2-30-7
100
AcDbLine
 10
480.276346
 20
328.563478
 30
0.0
 11
480.276346
 21
321.464546
 31
0.0
  0
CIRCLE
  5
21F
100
AcDbEntity
  8
MSL-2-30-0
100
AcDbCircle
 10
480.276346
 20
328.563478
 30
0.0
 40
5.5
  0
LINE
  5
220
100
AcDbEntity
  8
MSL-2-30-0
100
AcDbLine
 10
430.276346
 20
345.563478
 30
0.0
 11
430.276346
 21
282.563478
 31
0.0
  0
ARC
  5
221
100
AcDbEntity
  8
MSL-2-30-0
100
AcDbCircle
 10
430.385026
 20
325.202262
 30
0.0
 40
3.108681
100
AcDbArc
 50
127.878144
 51
232.121856
  0
ARC
  5
222
100
AcDbEntity
  8
MSL-2-30-0
100
AcDbCircle
 10
430.385026
 20
325.202262
 30
0.0
 40
3.108681
100
AcDbArc
 50
127.878144
 51
232.121856
  0
LINE
  5
223
100
AcDbEntity
  8
MSL-2-30-0
100
AcDbLine
 10
409.276346
 20
281.563478
 30
0.0
 11
409.276346
 21
341.563478
 31
0.0
  0
MTEXT
  5
224
100
AcDbEntity
  8
MSL-2-30-6
100
AcDbMText
 10
431.149313
 20
287.073973
 30
0.0
 40
3.5
 41
21.059228
 71
     1
 72
     1
  1
{MSL-2-30}
  0
LINE
  5
225
100
AcDbEntity
  8
MSL-2-30-3
100
AcDbLine
 10
406.776346
 20
281.563478
 30
0.0
 11
406.776346
 21
289.563478
 31
0.0
  0
LINE
  5
226
100
AcDbEntity
  8
MSL-2-30-3
100
AcDbLine
 10
406.776346
 20
281.563478
 30
0.0
 11
406.776346
 21
289.563478
 31
0.0
  0
LINE
  5
227
100
AcDbEntity
  8
MSL-2-30-0
100
AcDbLine
 10
430.276346
 20
293.563478
 30
0.0
 11
416.276346
 21
293.563478
 31
0.0
  0
LINE
  5
228
100
AcDbEntity
  8
MSL-2-30-0
100
AcDbLine
 10
409.276346
 20
296.563478
 30
0.0
 11
430.276346
 21
296.563478
 31
0.0
  0
LINE
  5
229
100
AcDbEntity
  8
MSL-2-30-0
100
AcDbLine
 10
415.276346
 20
294.563478
 30
0.0
 11
415.276346
 21
296.563478
 31
0.0
  0
LINE
  5
22A
100
AcDbEntity
  8
MSL-2-30-0
100
AcDbLine
 10
416.276346
 20
296.563478
 30
0.0
 11
416.276346
 21
293.563478
 31
0.0
  0
LINE
  5
22B
100
AcDbEntity
  8
MSL-2-30-0
100
AcDbLine
 10
416.276346
 20
293.563478
 30
0.0
 11
415.276346
 21
294.563478
 31
0.0
  0
LINE
  5
22C
100
AcDbEntity
  8
MSL-2-30-0
100
AcDbLine
 10
416.276346
 20
311.563478
 30
0.0
 11
430.276346
 21
311.563478
 31
0.0
  0
LINE
  5
22D
100
AcDbEntity
  8
MSL-2-30-0
100
AcDbLine
 10
430.276346
 20
308.563478
 30
0.0
 11
409.276346
 21
308.563478
 31
0.0
  0
LINE
  5
22E
100
AcDbEntity
  8
MSL-2-30-0
100
AcDbLine
 10
416.276346
 20
311.563478
 30
0.0
 11
416.276346
 21
308.563478
 31
0.0
  0
LINE
  5
22F
100
AcDbEntity
  8
MSL-2-30-0
100
AcDbLine
 10
415.276346
 20
310.563478
 30
0.0
 11
416.276346
 21
311.563478
 31
0.0
  0
LINE
  5
230
100
AcDbEntity
  8
MSL-2-30-0
100
AcDbLine
 10
415.276346
 20
308.563478
 30
0.0
 11
415.276346
 21
310.563478
 31
0.0
  0
LINE
  5
231
100
AcDbEntity
  8
MSL-2-30-0
100
AcDbLine
 10
428.476346
 20
322.748523
 30
0.0
 11
430.276346
 21
322.748523
 31
0.0
  0
LINE
  5
232
100
AcDbEntity
  8
MSL-2-30-7
100
AcDbLine
 10
490.276346
 20
287.563478
 30
0.0
 11
490.276346
 21
283.956284
 31
0.0
  0
CIRCLE
  5
233
100
AcDbEntity
  8
MSL-2-30-0
100
AcDbCircle
 10
490.276346
 20
287.563478
 30
0.0
 40
2.5
  0
LINE
  5
234
100
AcDbEntity
  8
MSL-2-30-7
100
AcDbLine
 10
475.276346
 20
283.813478
 30
0.0
 11
475.276346
 21
291.313478
 31
0.0
  0
CIRCLE
  5
235
100
AcDbEntity
  8
MSL-2-30-0
100
AcDbCircle
 10
475.276346
 20
287.563478
 30
0.0
 40
2.067
  0
ARC
  5
236
100
AcDbEntity
  8
MSL-2-30-4
100
AcDbCircle
 10
475.276346
 20
287.563478
 30
0.0
 40
2.5
100
AcDbArc
 50
172.405357
 51
104.931417
  0
LINE
  5
237
100
AcDbEntity
  8
MSL-2-30-7
100
AcDbLine
 10
471.526346
 20
287.563478
 30
0.0
 11
479.026346
 21
287.563478
 31
0.0
  0
LINE
  5
238
100
AcDbEntity
  8
MSL-2-30-7
100
AcDbLine
 10
475.276346
 20
313.847695
 30
0.0
 11
475.276346
 21
321.347695
 31
0.0
  0
LINE
  5
239
100
AcDbEntity
  8
MSL-2-30-7
100
AcDbLine
 10
471.526346
 20
317.597695
 30
0.0
 11
479.026346
 21
317.597695
 31
0.0
  0
CIRCLE
  5
23A
100
AcDbEntity
  8
MSL-2-30-0
100
AcDbCircle
 10
475.276346
 20
317.597695
 30
0.0
 40
2.067
  0
ARC
  5
23B
100
AcDbEntity
  8
MSL-2-30-4
100
AcDbCircle
 10
475.276346
 20
317.597695
 30
0.0
 40
2.5
100
AcDbArc
 50
172.405357
 51
104.931417
  0
LINE
  5
23C
100
AcDbEntity
  8
MSL-2-30-7
100
AcDbLine
 10
490.276346
 20
314.015244
 30
0.0
 11
490.276346
 21
291.198672
 31
0.0
  0
LINE
  5
23D
100
AcDbEntity
  8
MSL-2-30-7
100
AcDbLine
 10
490.276346
 20
287.563478
 30
0.0
 11
493.88354
 21
287.563478
 31
0.0
  0
LINE
  5
23E
100
AcDbEntity
  8
MSL-2-30-7
100
AcDbLine
 10
490.276346
 20
287.563478
 30
0.0
 11
490.276346
 21
291.170672
 31
0.0
  0
LINE
  5
23F
100
AcDbEntity
  8
MSL-2-30-7
100
AcDbLine
 10
490.276346
 20
287.563478
 30
0.0
 11
486.669152
 21
287.563478
 31
0.0
  0
CIRCLE
  5
240
100
AcDbEntity
  8
MSL-2-30-0
100
AcDbCircle
 10
490.276346
 20
317.563478
 30
0.0
 40
2.5
  0
LINE
  5
241
100
AcDbEntity
  8
MSL-2-30-7
100
AcDbLine
 10
490.276346
 20
317.597695
 30
0.0
 11
493.74984
 21
317.597695
 31
0.0
  0
LINE
  5
242
100
AcDbEntity
  8
MSL-2-30-7
100
AcDbLine
 10
490.276346
 20
317.597695
 30
0.0
 11
490.276346
 21
314.1242
 31
0.0
  0
LINE
  5
243
100
AcDbEntity
  8
MSL-2-30-7
100
AcDbLine
 10
490.276346
 20
317.597695
 30
0.0
 11
486.802852
 21
317.597695
 31
0.0
  0
LINE
  5
244
100
AcDbEntity
  8
MSL-2-30-7
100
AcDbLine
 10
490.276346
 20
317.597695
 30
0.0
 11
490.276346
 21
321.071189
 31
0.0
  0
LINE
  5
245
100
AcDbEntity
  8
MSL-2-30-0
100
AcDbLine
 10
452.276346
 20
347.563478
 30
0.0
 11
463.276346
 21
347.563478
 31
0.0
  0
LINE
  5
246
100
AcDbEntity
  8
MSL-2-30-0
100
AcDbLine
 10
413.276346
 20
336.563478
 30
0.0
 11
423.326346
 21
336.563478
 31
0.0
  0
LINE
  5
248
100
AcDbEntity
  8
MSL-2-30-0
100
AcDbLine
 10
423.326346
 20
328.563478
 30
0.0
 11
413.276346
 21
328.563478
 31
0.0
  0
ARC
  5
24A
100
AcDbEntity
  8
MSL-2-30-0
100
AcDbCircle
 10
405.566623
 20
332.563478
 30
0.0
 40
7.709722
100
AcDbArc
 50
330.872216
 51
29.127784
  0
LINE
  5
24B
100
AcDbEntity
  8
MSL-2-30-0
100
AcDbLine
 10
413.276346
 20
326.934312
 30
0.0
 11
413.276346
 21
338.192643
 31
0.0
  0
ARC
  5
24C
100
AcDbEntity
  8
MSL-2-30-0
100
AcDbCircle
 10
416.986068
 20
332.563478
 30
0.0
 40
7.709722
100
AcDbArc
 50
150.872218
 51
209.127782
  0
LINE
  5
24D
100
AcDbEntity
  8
MSL-2-30-0
100
AcDbLine
 10
409.276346
 20
326.934312
 30
0.0
 11
409.276346
 21
338.192643
 31
0.0
  0
ARC
  5
24E
100
AcDbEntity
  8
MSL-2-30-0
100
AcDbCircle
 10
410.98329
 20
326.934312
 30
0.0
 40
2.293056
100
AcDbArc
 50
305.085847
 51
54.914153
  0
LINE
  5
24F
100
AcDbEntity
  8
MSL-2-30-0
100
AcDbLine
 10
410.251346
 20
328.810701
 30
0.0
 11
412.301346
 21
328.810701
 31
0.0
  0
LINE
  5
250
100
AcDbEntity
  8
MSL-2-30-0
100
AcDbLine
 10
410.251346
 20
325.057924
 30
0.0
 11
412.301346
 21
325.057924
 31
0.0
  0
ARC
  5
251
100
AcDbEntity
  8
MSL-2-30-0
100
AcDbCircle
 10
411.569401
 20
326.934312
 30
0.0
 40
2.293056
100
AcDbArc
 50
125.085848
 51
234.914152
  0
ARC
  5
252
100
AcDbEntity
  8
MSL-2-30-0
100
AcDbCircle
 10
410.98329
 20
338.192643
 30
0.0
 40
2.293056
100
AcDbArc
 50
305.085847
 51
54.914153
  0
ARC
  5
253
100
AcDbEntity
  8
MSL-2-30-0
100
AcDbCircle
 10
411.569401
 20
338.192643
 30
0.0
 40
2.293056
100
AcDbArc
 50
125.085848
 51
234.914152
  0
LINE
  5
254
100
AcDbEntity
  8
MSL-2-30-0
100
AcDbLine
 10
410.251346
 20
336.316254
 30
0.0
 11
412.301346
 21
336.316254
 31
0.0
  0
LINE
  5
255
100
AcDbEntity
  8
MSL-2-30-0
100
AcDbLine
 10
410.251346
 20
340.069031
 30
0.0
 11
412.301346
 21
340.069031
 31
0.0
  0
ARC
  5
256
100
AcDbEntity
  8
MSL-2-30-0
100
AcDbCircle
 10
418.253936
 20
332.563478
 30
0.0
 40
9.02241
100
AcDbArc
 50
335.421502
 51
24.578498
  0
LINE
  5
257
100
AcDbEntity
  8
MSL-2-30-0
100
AcDbLine
 10
427.276346
 20
326.934312
 30
0.0
 11
427.276346
 21
338.192643
 31
0.0
  0
ARC
  5
258
100
AcDbEntity
  8
MSL-2-30-0
100
AcDbCircle
 10
437.911068
 20
332.563478
 30
0.0
 40
10.634722
100
AcDbArc
 50
152.518773
 51
207.481227
  0
ARC
  5
259
100
AcDbEntity
  8
MSL-2-30-0
100
AcDbCircle
 10
437.911068
 20
332.563478
 30
0.0
 40
10.634722
100
AcDbArc
 50
152.518773
 51
207.481227
  0
LINE
  5
25A
100
AcDbEntity
  8
MSL-2-30-0
100
AcDbLine
 10
423.326346
 20
328.563478
 30
0.0
 11
423.326346
 21
336.563478
 31
0.0
  0
LINE
  5
25B
100
AcDbEntity
  8
MSL-2-30-0
100
AcDbLine
 10
427.276346
 20
339.924693
 30
0.0
 11
427.276346
 21
325.202262
 31
0.0
  0
LINE
  5
25C
100
AcDbEntity
  8
MSL-2-30-0
100
AcDbLine
 10
427.276346
 20
339.924693
 30
0.0
 11
427.276346
 21
325.202262
 31
0.0
  0
LINE
  5
25D
100
AcDbEntity
  8
MSL-2-30-0
100
AcDbLine
 10
423.326346
 20
325.057924
 30
0.0
 11
423.326346
 21
340.069031
 31
0.0
  0
LINE
  5
25E
100
AcDbEntity
  8
MSL-2-30-0
100
AcDbLine
 10
426.458846
 20
328.810701
 30
0.0
 11
423.326346
 21
328.810701
 31
0.0
  0
LINE
  5
25F
100
AcDbEntity
  8
MSL-2-30-0
100
AcDbLine
 10
426.458846
 20
325.057924
 30
0.0
 11
423.326346
 21
325.057924
 31
0.0
  0
LINE
  5
260
100
AcDbEntity
  8
MSL-2-30-0
100
AcDbLine
 10
428.476346
 20
327.656
 30
0.0
 11
430.276346
 21
327.656
 31
0.0
  0
LINE
  5
261
100
AcDbEntity
  8
MSL-2-30-0
100
AcDbLine
 10
428.476346
 20
327.656
 30
0.0
 11
430.276346
 21
327.656
 31
0.0
  0
ARC
  5
262
100
AcDbEntity
  8
MSL-2-30-0
100
AcDbCircle
 10
424.714181
 20
326.934312
 30
0.0
 40
2.562165
100
AcDbArc
 50
312.916662
 51
47.083338
  0
LINE
  5
263
100
AcDbEntity
  8
MSL-2-30-0
100
AcDbLine
 10
426.458846
 20
336.316254
 30
0.0
 11
423.326346
 21
336.316254
 31
0.0
  0
LINE
  5
264
100
AcDbEntity
  8
MSL-2-30-0
100
AcDbLine
 10
423.326346
 20
340.069031
 30
0.0
 11
426.458846
 21
340.069031
 31
0.0
  0
ARC
  5
265
100
AcDbEntity
  8
MSL-2-30-0
100
AcDbCircle
 10
424.714181
 20
338.192643
 30
0.0
 40
2.562165
100
AcDbArc
 50
312.916662
 51
47.083338
  0
ARC
  5
266
100
AcDbEntity
  8
MSL-2-30-0
100
AcDbCircle
 10
430.385026
 20
339.924693
 30
0.0
 40
3.108681
100
AcDbArc
 50
127.878144
 51
232.121856
  0
ARC
  5
267
100
AcDbEntity
  8
MSL-2-30-0
100
AcDbCircle
 10
430.385026
 20
339.924693
 30
0.0
 40
3.108681
100
AcDbArc
 50
127.878144
 51
232.121856
  0
LINE
  5
268
100
AcDbEntity
  8
MSL-2-30-0
100
AcDbLine
 10
428.476346
 20
337.470955
 30
0.0
 11
430.276346
 21
337.470955
 31
0.0
  0
LINE
  5
269
100
AcDbEntity
  8
MSL-2-30-0
100
AcDbLine
 10
428.476346
 20
337.470955
 30
0.0
 11
430.276346
 21
337.470955
 31
0.0
  0
LINE
  5
26A
100
AcDbEntity
  8
MSL-2-30-0
100
AcDbLine
 10
428.476346
 20
342.378432
 30
0.0
 11
430.276346
 21
342.378432
 31
0.0
  0
LINE
  5
26B
100
AcDbEntity
  8
MSL-2-30-0
100
AcDbLine
 10
428.476346
 20
342.378432
 30
0.0
 11
430.276346
 21
342.378432
 31
0.0
  0
LINE
  5
26C
100
AcDbEntity
  8
MSL-2-30-0
100
AcDbLine
 10
452.276346
 20
345.563478
 30
0.0
 11
452.276346
 21
347.563478
 31
0.0
  0
LINE
  5
26D
100
AcDbEntity
  8
MSL-2-30-7
100
AcDbLine
 10
480.276346
 20
328.563478
 30
0.0
 11
473.177414
 21
328.563478
 31
0.0
  0
LINE
  5
26E
100
AcDbEntity
  8
MSL-2-30-7
100
AcDbLine
 10
457.776346
 20
351.720215
 30
0.0
 11
457.776346
 21
343.988228
 31
0.0
  0
LINE
  5
26F
100
AcDbEntity
  8
MSL-2-30-7
100
AcDbLine
 10
470.276346
 20
338.563478
 30
0.0
 11
470.276346
 21
345.76083
 31
0.0
  0
LINE
  5
270
100
AcDbEntity
  8
MSL-2-30-7
100
AcDbLine
 10
470.276346
 20
338.563478
 30
0.0
 11
463.078994
 21
338.563478
 31
0.0
  0
CIRCLE
  5
271
100
AcDbEntity
  8
MSL-2-30-0
100
AcDbCircle
 10
470.276346
 20
338.563478
 30
0.0
 40
5.5
  0
LINE
  5
272
100
AcDbEntity
  8
MSL-2-30-7
100
AcDbLine
 10
470.276346
 20
338.563478
 30
0.0
 11
470.276346
 21
331.366125
 31
0.0
  0
LINE
  5
273
100
AcDbEntity
  8
MSL-2-30-7
100
AcDbLine
 10
470.276346
 20
338.563478
 30
0.0
 11
477.473699
 21
338.563478
 31
0.0
  0
LINE
  5
274
100
AcDbEntity
  8
MSL-2-30-0
100
AcDbLine
 10
459.776346
 20
347.563478
 30
0.0
 11
457.776346
 21
350.263478
 31
0.0
  0
LINE
  5
275
100
AcDbEntity
  8
MSL-2-30-0
100
AcDbLine
 10
457.776346
 20
350.263478
 30
0.0
 11
455.776346
 21
347.563478
 31
0.0
  0
LINE
  5
276
100
AcDbEntity
  8
MSL-2-30-0
100
AcDbLine
 10
463.276346
 20
347.563478
 30
0.0
 11
463.276346
 21
345.563478
 31
0.0
  0
LINE
  5
277
100
AcDbEntity
  8
MSL-2-30-7
100
AcDbLine
 10
480.276346
 20
328.563478
 30
0.0
 11
480.276346
 21
335.66241
 31
0.0
  0
LINE
  5
278
100
AcDbEntity
  8
MSL-2-30-7
100
AcDbLine
 10
480.276346
 20
328.563478
 30
0.0
 11
487.375278
 21
328.563478
 31
0.0
  0
ARC
  5
279
100
AcDbEntity
  8
MSL-2-30-4
100
AcDbCircle
 10
404.276346
 20
477.563478
 30
0.0
 40
2.5
100
AcDbArc
 50
172.405357
 51
104.931417
  0
ARC
  5
27A
100
AcDbEntity
  8
MSL-2-30-4
100
AcDbCircle
 10
404.276346
 20
427.563478
 30
0.0
 40
2.5
100
AcDbArc
 50
172.405357
 51
104.931417
  0
LINE
  5
27B
100
AcDbEntity
  8
MSL-2-30-7
100
AcDbLine
 10
400.526346
 20
427.563478
 30
0.0
 11
408.026346
 21
427.563478
 31
0.0
  0
LINE
  5
27C
100
AcDbEntity
  8
MSL-2-30-7
100
AcDbLine
 10
400.526346
 20
477.563478
 30
0.0
 11
408.026346
 21
477.563478
 31
0.0
  0
LINE
  5
27D
100
AcDbEntity
  8
MSL-2-30-0
100
AcDbLine
 10
409.276346
 20
493.563478
 30
0.0
 11
393.276346
 21
493.563478
 31
0.0
  0
LINE
  5
27E
100
AcDbEntity
  8
MSL-2-30-0
100
AcDbLine
 10
393.276346
 20
411.563478
 30
0.0
 11
409.276346
 21
411.563478
 31
0.0
  0
LINE
  5
27F
100
AcDbEntity
  8
MSL-2-30-7
100
AcDbLine
 10
435.839914
 20
425.063478
 30
0.0
 11
390.051846
 21
425.063478
 31
0.0
  0
LINE
  5
280
100
AcDbEntity
  8
MSL-2-30-7
100
AcDbLine
 10
435.839914
 20
480.063478
 30
0.0
 11
390.051846
 21
480.063478
 31
0.0
  0
LINE
  5
281
100
AcDbEntity
  8
MSL-2-30-7
100
AcDbLine
 10
435.839914
 20
452.563478
 30
0.0
 11
389.927461
 21
452.563478
 31
0.0
  0
LINE
  5
282
100
AcDbEntity
  8
MSL-2-30-7
100
AcDbLine
 10
389.927461
 20
467.563478
 30
0.0
 11
413.046679
 21
467.563478
 31
0.0
  0
LINE
  5
283
100
AcDbEntity
  8
MSL-2-30-7
100
AcDbLine
 10
389.927461
 20
437.563478
 30
0.0
 11
413.046679
 21
437.563478
 31
0.0
  0
LINE
  5
284
100
AcDbEntity
  8
MSL-2-30-7
100
AcDbLine
 10
404.276346
 20
473.813478
 30
0.0
 11
404.276346
 21
481.313478
 31
0.0
  0
LINE
  5
285
100
AcDbEntity
  8
MSL-2-30-0
100
AcDbLine
 10
393.276346
 20
493.563478
 30
0.0
 11
393.276346
 21
411.563478
 31
0.0
  0
LINE
  5
286
100
AcDbEntity
  8
MSL-2-30-7
100
AcDbLine
 10
398.276346
 20
478.170095
 30
0.0
 11
398.276346
 21
496.563478
 31
0.0
  0
LINE
  5
287
100
AcDbEntity
  8
MSL-2-30-7
100
AcDbLine
 10
398.276346
 20
478.170095
 30
0.0
 11
398.276346
 21
496.563478
 31
0.0
  0
LINE
  5
288
100
AcDbEntity
  8
MSL-2-30-3
100
AcDbLine
 10
396.209346
 20
411.563478
 30
0.0
 11
396.209346
 21
422.763478
 31
0.0
  0
LINE
  5
289
100
AcDbEntity
  8
MSL-2-30-3
100
AcDbLine
 10
396.209346
 20
411.563478
 30
0.0
 11
396.209346
 21
422.763478
 31
0.0
  0
LINE
  5
28A
100
AcDbEntity
  8
MSL-2-30-3
100
AcDbLine
 10
400.343346
 20
411.563478
 30
0.0
 11
400.343346
 21
422.763478
 31
0.0
  0
LINE
  5
28B
100
AcDbEntity
  8
MSL-2-30-3
100
AcDbLine
 10
400.343346
 20
411.563478
 30
0.0
 11
400.343346
 21
422.763478
 31
0.0
  0
LINE
  5
28C
100
AcDbEntity
  8
MSL-2-30-7
100
AcDbLine
 10
398.276346
 20
426.956861
 30
0.0
 11
398.276346
 21
408.563478
 31
0.0
  0
LINE
  5
28D
100
AcDbEntity
  8
MSL-2-30-7
100
AcDbLine
 10
398.276346
 20
426.956861
 30
0.0
 11
398.276346
 21
408.563478
 31
0.0
  0
LINE
  5
28E
100
AcDbEntity
  8
MSL-2-30-3
100
AcDbLine
 10
400.776346
 20
411.563478
 30
0.0
 11
400.776346
 21
419.563478
 31
0.0
  0
LINE
  5
28F
100
AcDbEntity
  8
MSL-2-30-3
100
AcDbLine
 10
400.776346
 20
411.563478
 30
0.0
 11
400.776346
 21
419.563478
 31
0.0
  0
LINE
  5
290
100
AcDbEntity
  8
MSL-2-30-3
100
AcDbLine
 10
395.776346
 20
411.563478
 30
0.0
 11
395.776346
 21
419.563478
 31
0.0
  0
LINE
  5
291
100
AcDbEntity
  8
MSL-2-30-3
100
AcDbLine
 10
395.776346
 20
411.563478
 30
0.0
 11
395.776346
 21
419.563478
 31
0.0
  0
LINE
  5
292
100
AcDbEntity
  8
MSL-2-30-3
100
AcDbLine
 10
400.776346
 20
419.563478
 30
0.0
 11
395.776346
 21
419.563478
 31
0.0
  0
LINE
  5
293
100
AcDbEntity
  8
MSL-2-30-3
100
AcDbLine
 10
400.776346
 20
419.563478
 30
0.0
 11
395.776346
 21
419.563478
 31
0.0
  0
LINE
  5
294
100
AcDbEntity
  8
MSL-2-30-3
100
AcDbLine
 10
400.343346
 20
422.763478
 30
0.0
 11
396.209346
 21
422.763478
 31
0.0
  0
LINE
  5
295
100
AcDbEntity
  8
MSL-2-30-3
100
AcDbLine
 10
400.343346
 20
422.763478
 30
0.0
 11
396.209346
 21
422.763478
 31
0.0
  0
LINE
  5
296
100
AcDbEntity
  8
MSL-2-30-3
100
AcDbLine
 10
398.276346
 20
423.956861
 30
0.0
 11
396.209346
 21
422.763478
 31
0.0
  0
LINE
  5
297
100
AcDbEntity
  8
MSL-2-30-3
100
AcDbLine
 10
398.276346
 20
423.956861
 30
0.0
 11
396.209346
 21
422.763478
 31
0.0
  0
LINE
  5
298
100
AcDbEntity
  8
MSL-2-30-3
100
AcDbLine
 10
398.276346
 20
423.956861
 30
0.0
 11
400.343346
 21
422.763478
 31
0.0
  0
LINE
  5
299
100
AcDbEntity
  8
MSL-2-30-3
100
AcDbLine
 10
398.276346
 20
423.956861
 30
0.0
 11
400.343346
 21
422.763478
 31
0.0
  0
LINE
  5
29A
100
AcDbEntity
  8
MSL-2-30-7
100
AcDbLine
 10
404.276346
 20
423.813478
 30
0.0
 11
404.276346
 21
431.313478
 31
0.0
  0
CIRCLE
  5
29B
100
AcDbEntity
  8
MSL-2-30-0
100
AcDbCircle
 10
404.276346
 20
427.563478
 30
0.0
 40
2.067
  0
CIRCLE
  5
29C
100
AcDbEntity
  8
MSL-2-30-0
100
AcDbCircle
 10
404.276346
 20
477.563478
 30
0.0
 40
2.067
  0
LINE
  5
29D
100
AcDbEntity
  8
MSL-2-30-3
100
AcDbLine
 10
400.776346
 20
493.563478
 30
0.0
 11
400.776346
 21
485.563478
 31
0.0
  0
LINE
  5
29E
100
AcDbEntity
  8
MSL-2-30-3
100
AcDbLine
 10
400.343346
 20
493.563478
 30
0.0
 11
400.343346
 21
482.363478
 31
0.0
  0
LINE
  5
29F
100
AcDbEntity
  8
MSL-2-30-3
100
AcDbLine
 10
400.343346
 20
493.563478
 30
0.0
 11
400.343346
 21
482.363478
 31
0.0
  0
LINE
  5
2A0
100
AcDbEntity
  8
MSL-2-30-3
100
AcDbLine
 10
400.776346
 20
493.563478
 30
0.0
 11
400.776346
 21
485.563478
 31
0.0
  0
LINE
  5
2A1
100
AcDbEntity
  8
MSL-2-30-3
100
AcDbLine
 10
395.776346
 20
493.563478
 30
0.0
 11
395.776346
 21
485.563478
 31
0.0
  0
LINE
  5
2A2
100
AcDbEntity
  8
MSL-2-30-3
100
AcDbLine
 10
395.776346
 20
493.563478
 30
0.0
 11
395.776346
 21
485.563478
 31
0.0
  0
LINE
  5
2A3
100
AcDbEntity
  8
MSL-2-30-3
100
AcDbLine
 10
396.209346
 20
493.563478
 30
0.0
 11
396.209346
 21
482.363478
 31
0.0
  0
LINE
  5
2A4
100
AcDbEntity
  8
MSL-2-30-3
100
AcDbLine
 10
396.209346
 20
493.563478
 30
0.0
 11
396.209346
 21
482.363478
 31
0.0
  0
LINE
  5
2A5
100
AcDbEntity
  8
MSL-2-30-3
100
AcDbLine
 10
400.776346
 20
485.563478
 30
0.0
 11
395.776346
 21
485.563478
 31
0.0
  0
LINE
  5
2A6
100
AcDbEntity
  8
MSL-2-30-3
100
AcDbLine
 10
400.776346
 20
485.563478
 30
0.0
 11
395.776346
 21
485.563478
 31
0.0
  0
LINE
  5
2A7
100
AcDbEntity
  8
MSL-2-30-3
100
AcDbLine
 10
398.276346
 20
481.170095
 30
0.0
 11
396.209346
 21
482.363478
 31
0.0
  0
LINE
  5
2A8
100
AcDbEntity
  8
MSL-2-30-3
100
AcDbLine
 10
398.276346
 20
481.170095
 30
0.0
 11
396.209346
 21
482.363478
 31
0.0
  0
LINE
  5
2A9
100
AcDbEntity
  8
MSL-2-30-3
100
AcDbLine
 10
398.276346
 20
481.170095
 30
0.0
 11
400.343346
 21
482.363478
 31
0.0
  0
LINE
  5
2AA
100
AcDbEntity
  8
MSL-2-30-3
100
AcDbLine
 10
398.276346
 20
481.170095
 30
0.0
 11
400.343346
 21
482.363478
 31
0.0
  0
LINE
  5
2AB
100
AcDbEntity
  8
MSL-2-30-3
100
AcDbLine
 10
400.343346
 20
482.363478
 30
0.0
 11
396.209346
 21
482.363478
 31
0.0
  0
LINE
  5
2AC
100
AcDbEntity
  8
MSL-2-30-3
100
AcDbLine
 10
400.343346
 20
482.363478
 30
0.0
 11
396.209346
 21
482.363478
 31
0.0
  0
LINE
  5
2AD
100
AcDbEntity
  8
MSL-2-30-7
100
AcDbLine
 10
490.276346
 20
496.280663
 30
0.0
 11
490.276346
 21
480.082639
 31
0.0
  0
LINE
  5
2AE
100
AcDbEntity
  8
MSL-2-30-7
100
AcDbLine
 10
475.276346
 20
496.280663
 30
0.0
 11
475.276346
 21
480.082639
 31
0.0
  0
LINE
  5
2AF
100
AcDbEntity
  8
MSL-2-30-0
100
AcDbLine
 10
409.276346
 20
411.563478
 30
0.0
 11
409.276346
 21
493.563478
 31
0.0
  0
LINE
  5
2B0
100
AcDbEntity
  8
MSL-2-30-0
100
AcDbLine
 10
409.276346
 20
419.063478
 30
0.0
 11
430.276346
 21
419.063478
 31
0.0
  0
LINE
  5
2B1
100
AcDbEntity
  8
MSL-2-30-0
100
AcDbLine
 10
430.276346
 20
431.063478
 30
0.0
 11
409.276346
 21
431.063478
 31
0.0
  0
MTEXT
  5
2B2
100
AcDbEntity
  8
MSL-2-30-6
100
AcDbMText
 10
431.409305
 20
417.513436
 30
0.0
 40
3.5
 41
21.059228
 71
     1
 72
     1
  1
{MSL-2-30}
  0
LINE
  5
2B3
100
AcDbEntity
  8
MSL-2-30-0
100
AcDbLine
 10
415.276346
 20
460.563478
 30
0.0
 11
416.276346
 21
461.563478
 31
0.0
  0
LINE
  5
2B4
100
AcDbEntity
  8
MSL-2-30-0
100
AcDbLine
 10
416.276346
 20
443.563478
 30
0.0
 11
416.276346
 21
461.563478
 31
0.0
  0
LINE
  5
2B5
100
AcDbEntity
  8
MSL-2-30-0
100
AcDbLine
 10
430.276346
 20
443.563478
 30
0.0
 11
416.276346
 21
443.563478
 31
0.0
  0
LINE
  5
2B6
100
AcDbEntity
  8
MSL-2-30-0
100
AcDbLine
 10
415.276346
 20
444.563478
 30
0.0
 11
415.276346
 21
460.563478
 31
0.0
  0
LINE
  5
2B7
100
AcDbEntity
  8
MSL-2-30-0
100
AcDbLine
 10
409.276346
 20
449.563478
 30
0.0
 11
415.276346
 21
449.563478
 31
0.0
  0
LINE
  5
2B8
100
AcDbEntity
  8
MSL-2-30-0
100
AcDbLine
 10
416.276346
 20
443.563478
 30
0.0
 11
415.276346
 21
444.563478
 31
0.0
  0
LINE
  5
2B9
100
AcDbEntity
  8
MSL-2-30-0
100
AcDbLine
 10
415.276346
 20
455.563478
 30
0.0
 11
409.276346
 21
455.563478
 31
0.0
  0
LINE
  5
2BA
100
AcDbEntity
  8
MSL-2-30-0
100
AcDbLine
 10
409.276346
 20
474.063478
 30
0.0
 11
430.276346
 21
474.063478
 31
0.0
  0
LINE
  5
2BB
100
AcDbEntity
  8
MSL-2-30-0
100
AcDbLine
 10
416.276346
 20
461.563478
 30
0.0
 11
430.276346
 21
461.563478
 31
0.0
  0
LINE
  5
2BC
100
AcDbEntity
  8
MSL-2-30-7
100
AcDbLine
 10
490.276346
 20
464.015244
 30
0.0
 11
490.276346
 21
441.198672
 31
0.0
  0
LINE
  5
2BD
100
AcDbEntity
  8
MSL-2-30-7
100
AcDbLine
 10
475.276346
 20
425.044192
 30
0.0
 11
475.276346
 21
408.497823
 31
0.0
  0
LINE
  5
2BE
100
AcDbEntity
  8
MSL-2-30-7
100
AcDbLine
 10
471.526346
 20
437.563478
 30
0.0
 11
479.026346
 21
437.563478
 31
0.0
  0
ARC
  5
2BF
100
AcDbEntity
  8
MSL-2-30-4
100
AcDbCircle
 10
475.276346
 20
437.563478
 30
0.0
 40
2.5
100
AcDbArc
 50
172.405357
 51
104.931417
  0
CIRCLE
  5
2C0
100
AcDbEntity
  8
MSL-2-30-0
100
AcDbCircle
 10
475.276346
 20
437.563478
 30
0.0
 40
2.067
  0
LINE
  5
2C1
100
AcDbEntity
  8
MSL-2-30-7
100
AcDbLine
 10
475.276346
 20
433.813478
 30
0.0
 11
475.276346
 21
441.313478
 31
0.0
  0
LINE
  5
2C2
100
AcDbEntity
  8
MSL-2-30-7
100
AcDbLine
 10
490.276346
 20
425.044192
 30
0.0
 11
490.276346
 21
408.497823
 31
0.0
  0
LINE
  5
2C3
100
AcDbEntity
  8
MSL-2-30-7
100
AcDbLine
 10
490.276346
 20
437.563478
 30
0.0
 11
493.88354
 21
437.563478
 31
0.0
  0
CIRCLE
  5
2C4
100
AcDbEntity
  8
MSL-2-30-0
100
AcDbCircle
 10
490.276346
 20
437.563478
 30
0.0
 40
2.5
  0
LINE
  5
2C5
100
AcDbEntity
  8
MSL-2-30-7
100
AcDbLine
 10
490.276346
 20
437.563478
 30
0.0
 11
490.276346
 21
441.170672
 31
0.0
  0
LINE
  5
2C6
100
AcDbEntity
  8
MSL-2-30-7
100
AcDbLine
 10
490.276346
 20
437.563478
 30
0.0
 11
490.276346
 21
433.956284
 31
0.0
  0
LINE
  5
2C7
100
AcDbEntity
  8
MSL-2-30-7
100
AcDbLine
 10
490.276346
 20
437.563478
 30
0.0
 11
486.669152
 21
437.563478
 31
0.0
  0
LINE
  5
2C8
100
AcDbEntity
  8
MSL-2-30-7
100
AcDbLine
 10
475.276346
 20
463.847695
 30
0.0
 11
475.276346
 21
471.347695
 31
0.0
  0
LINE
  5
2C9
100
AcDbEntity
  8
MSL-2-30-7
100
AcDbLine
 10
471.526346
 20
467.597695
 30
0.0
 11
479.026346
 21
467.597695
 31
0.0
  0
ARC
  5
2CA
100
AcDbEntity
  8
MSL-2-30-4
100
AcDbCircle
 10
475.276346
 20
467.597695
 30
0.0
 40
2.5
100
AcDbArc
 50
172.405357
 51
104.931417
  0
CIRCLE
  5
2CB
100
AcDbEntity
  8
MSL-2-30-0
100
AcDbCircle
 10
475.276346
 20
467.597695
 30
0.0
 40
2.067
  0
LINE
  5
2CC
100
AcDbEntity
  8
MSL-2-30-7
100
AcDbLine
 10
490.276346
 20
467.597695
 30
0.0
 11
493.74984
 21
467.597695
 31
0.0
  0
CIRCLE
  5
2CD
100
AcDbEntity
  8
MSL-2-30-0
100
AcDbCircle
 10
490.276346
 20
467.563478
 30
0.0
 40
2.5
  0
LINE
  5
2CE
100
AcDbEntity
  8
MSL-2-30-7
100
AcDbLine
 10
490.276346
 20
467.597695
 30
0.0
 11
490.276346
 21
471.071189
 31
0.0
  0
LINE
  5
2CF
100
AcDbEntity
  8
MSL-2-30-7
100
AcDbLine
 10
490.276346
 20
467.597695
 30
0.0
 11
486.802852
 21
467.597695
 31
0.0
  0
LINE
  5
2D0
100
AcDbEntity
  8
MSL-2-30-7
100
AcDbLine
 10
490.276346
 20
467.597695
 30
0.0
 11
490.276346
 21
464.1242
 31
0.0
  0
LINE
  5
2D1
100
AcDbEntity
  8
MSL-2-30-0
100
AcDbLine
 10
430.276346
 20
486.063478
 30
0.0
 11
409.276346
 21
486.063478
 31
0.0
  0
LINE
  5
2D2
100
AcDbEntity
  8
MSL-2-30-7
100
AcDbLine
 10
620.625231
 20
302.563478
 30
0.0
 11
545.552463
 21
302.563478
 31
0.0
  0
LINE
  5
2D3
100
AcDbEntity
  8
MSL-2-30-7
100
AcDbLine
 10
404.1783
 20
332.563478
 30
0.0
 11
433.947397
 21
332.563478
 31
0.0
  0
LINE
  5
2D4
100
AcDbEntity
  8
MSL-2-30-0
100
AcDbLine
 10
617.276346
 20
281.563478
 30
0.0
 11
601.276346
 21
281.563478
 31
0.0
  0
LINE
  5
2D5
100
AcDbEntity
  8
MSL-2-30-7
100
AcDbLine
 10
598.4115
 20
287.563478
 30
0.0
 11
621.43025
 21
287.563478
 31
0.0
  0
LINE
  5
2D6
100
AcDbEntity
  8
MSL-2-30-0
100
AcDbLine
 10
601.276346
 20
341.563478
 30
0.0
 11
617.276346
 21
341.563478
 31
0.0
  0
LINE
  5
2D7
100
AcDbEntity
  8
MSL-2-30-7
100
AcDbLine
 10
598.4115
 20
317.563478
 30
0.0
 11
621.43025
 21
317.563478
 31
0.0
  0
LINE
  5
2D8
100
AcDbEntity
  8
MSL-2-30-0
100
AcDbLine
 10
550.276346
 20
282.563478
 30
0.0
 11
550.276346
 21
345.563478
 31
0.0
  0
LINE
  5
2D9
100
AcDbEntity
  8
MSL-2-30-0
100
AcDbLine
 10
601.276346
 20
281.563478
 30
0.0
 11
601.276346
 21
341.563478
 31
0.0
  0
ARC
  5
2DA
100
AcDbEntity
  8
MSL-2-30-0
100
AcDbCircle
 10
550.167665
 20
325.202262
 30
0.0
 40
3.108681
100
AcDbArc
 50
307.878142
 51
52.121858
  0
LINE
  5
2DB
100
AcDbEntity
  8
MSL-2-30-0
100
AcDbLine
 10
550.276346
 20
296.563478
 30
0.0
 11
601.276346
 21
296.563478
 31
0.0
  0
LINE
  5
2DC
100
AcDbEntity
  8
MSL-2-30-0
100
AcDbLine
 10
601.276346
 20
308.563478
 30
0.0
 11
550.276346
 21
308.563478
 31
0.0
  0
POLYLINE
  5
2DD
100
AcDbEntity
  8
MSL-2-30-0
100
AcDb2dPolyline
 66
     1
 10
0.0
 20
0.0
 30
0.0
  0
VERTEX
  5
2DE
100
AcDbEntity
  8
MSL-2-30-0
  6
CONTINUOUS
100
AcDbVertex
100
AcDb2dVertex
 10
550.276346
 20
293.563478
 30
0.0
  0
VERTEX
  5
2DF
100
AcDbEntity
  8
MSL-2-30-0
  6
CONTINUOUS
100
AcDbVertex
100
AcDb2dVertex
 10
564.276346
 20
293.563478
 30
0.0
  0
VERTEX
  5
2E0
100
AcDbEntity
  8
MSL-2-30-0
  6
CONTINUOUS
100
AcDbVertex
100
AcDb2dVertex
 10
565.276346
 20
294.563478
 30
0.0
  0
VERTEX
  5
2E1
100
AcDbEntity
  8
MSL-2-30-0
  6
CONTINUOUS
100
AcDbVertex
100
AcDb2dVertex
 10
565.276346
 20
296.563478
 30
0.0
  0
SEQEND
  5
2E2
100
AcDbEntity
  8
MSL-2-30-0
  6
CONTINUOUS
  0
POLYLINE
  5
2E3
100
AcDbEntity
  8
MSL-2-30-0
100
AcDb2dPolyline
 66
     1
 10
0.0
 20
0.0
 30
0.0
  0
VERTEX
  5
2E4
100
AcDbEntity
  8
MSL-2-30-0
  6
CONTINUOUS
100
AcDbVertex
100
AcDb2dVertex
 10
565.276346
 20
308.563478
 30
0.0
  0
VERTEX
  5
2E5
100
AcDbEntity
  8
MSL-2-30-0
  6
CONTINUOUS
100
AcDbVertex
100
AcDb2dVertex
 10
565.276346
 20
310.563478
 30
0.0
  0
VERTEX
  5
2E6
100
AcDbEntity
  8
MSL-2-30-0
  6
CONTINUOUS
100
AcDbVertex
100
AcDb2dVertex
 10
564.276346
 20
311.563478
 30
0.0
  0
VERTEX
  5
2E7
100
AcDbEntity
  8
MSL-2-30-0
  6
CONTINUOUS
100
AcDbVertex
100
AcDb2dVertex
 10
550.276346
 20
311.563478
 30
0.0
  0
SEQEND
  5
2E8
100
AcDbEntity
  8
MSL-2-30-0
  0
LINE
  5
2E9
100
AcDbEntity
  8
MSL-2-30-7
100
AcDbLine
 10
505.276346
 20
283.813478
 30
0.0
 11
505.276346
 21
291.313478
 31
0.0
  0
LINE
  5
2EA
100
AcDbEntity
  8
MSL-2-30-7
100
AcDbLine
 10
505.276346
 20
313.847695
 30
0.0
 11
505.276346
 21
321.347695
 31
0.0
  0
LINE
  5
2EB
100
AcDbEntity
  8
MSL-2-30-0
100
AcDbLine
 10
552.076346
 20
322.748523
 30
0.0
 11
550.276346
 21
322.748523
 31
0.0
  0
LINE
  5
2EC
100
AcDbEntity
  8
MSL-2-30-0
100
AcDbLine
 10
564.276346
 20
296.563478
 30
0.0
 11
564.276346
 21
293.563478
 31
0.0
  0
LINE
  5
2ED
100
AcDbEntity
  8
MSL-2-30-0
100
AcDbLine
 10
564.276346
 20
311.563478
 30
0.0
 11
564.276346
 21
308.563478
 31
0.0
  0
ARC
  5
2EE
100
AcDbEntity
  8
MSL-2-30-0
100
AcDbCircle
 10
550.167665
 20
339.924694
 30
0.0
 40
3.108681
100
AcDbArc
 50
307.878142
 51
52.121858
  0
ARC
  5
2EF
100
AcDbEntity
  8
MSL-2-30-0
100
AcDbCircle
 10
542.641623
 20
332.563478
 30
0.0
 40
10.634722
100
AcDbArc
 50
332.518771
 51
27.481229
  0
LINE
  5
2F0
100
AcDbEntity
  8
MSL-2-30-7
100
AcDbLine
 10
522.776346
 20
351.720215
 30
0.0
 11
522.776346
 21
343.988228
 31
0.0
  0
LINE
  5
2F1
100
AcDbEntity
  8
MSL-2-30-0
100
AcDbLine
 10
522.776346
 20
350.263478
 30
0.0
 11
520.776346
 21
347.563478
 31
0.0
  0
LINE
  5
2F2
100
AcDbEntity
  8
MSL-2-30-0
100
AcDbLine
 10
517.276346
 20
347.563478
 30
0.0
 11
528.276346
 21
347.563478
 31
0.0
  0
LINE
  5
2F3
100
AcDbEntity
  8
MSL-2-30-0
100
AcDbLine
 10
517.276346
 20
345.563478
 30
0.0
 11
517.276346
 21
347.563478
 31
0.0
  0
LINE
  5
2F4
100
AcDbEntity
  8
MSL-2-30-0
100
AcDbLine
 10
528.276346
 20
347.563478
 30
0.0
 11
528.276346
 21
345.563478
 31
0.0
  0
LINE
  5
2F5
100
AcDbEntity
  8
MSL-2-30-0
100
AcDbLine
 10
524.776346
 20
347.563478
 30
0.0
 11
522.776346
 21
350.263478
 31
0.0
  0
LINE
  5
2F6
100
AcDbEntity
  8
MSL-2-30-0
100
AcDbLine
 10
552.076346
 20
327.656001
 30
0.0
 11
550.276346
 21
327.656001
 31
0.0
  0
LINE
  5
2F7
100
AcDbEntity
  8
MSL-2-30-0
100
AcDbLine
 10
552.076346
 20
342.378433
 30
0.0
 11
550.276346
 21
342.378433
 31
0.0
  0
LINE
  5
2F8
100
AcDbEntity
  8
MSL-2-30-0
100
AcDbLine
 10
552.076346
 20
337.470955
 30
0.0
 11
550.276346
 21
337.470955
 31
0.0
  0
LINE
  5
2F9
100
AcDbEntity
  8
MSL-2-30-0
100
AcDbLine
 10
580.376346
 20
338.563478
 30
0.0
 11
570.376346
 21
338.563478
 31
0.0
  0
LINE
  5
2FA
100
AcDbEntity
  8
MSL-2-30-0
100
AcDbLine
 10
570.376346
 20
326.563478
 30
0.0
 11
580.376346
 21
326.563478
 31
0.0
  0
LINE
  5
2FB
100
AcDbEntity
  8
MSL-2-30-0
100
AcDbLine
 10
559.276346
 20
334.613478
 30
0.0
 11
570.376346
 21
334.613478
 31
0.0
  0
LINE
  5
2FC
100
AcDbEntity
  8
MSL-2-30-0
100
AcDbLine
 10
559.276346
 20
330.513478
 30
0.0
 11
570.376346
 21
330.513478
 31
0.0
  0
POLYLINE
  5
2FD
100
AcDbEntity
  8
MSL-2-30-0
100
AcDb2dPolyline
 66
     1
 10
0.0
 20
0.0
 30
0.0
  0
VERTEX
  5
2FE
100
AcDbEntity
  8
MSL-2-30-0
  6
CENTER
100
AcDbVertex
100
AcDb2dVertex
 10
560.276346
 20
330.513478
 30
0.0
  0
VERTEX
  5
300
100
AcDbEntity
  8
MSL-2-30-0
  6
CENTER
100
AcDbVertex
100
AcDb2dVertex
 10
566.676346
 20
330.513478
 30
0.0
  0
VERTEX
  5
301
100
AcDbEntity
  8
MSL-2-30-0
  6
CENTER
100
AcDbVertex
100
AcDb2dVertex
 10
566.676346
 20
334.613478
 30
0.0
  0
VERTEX
  5
302
100
AcDbEntity
  8
MSL-2-30-0
  6
CENTER
100
AcDbVertex
100
AcDb2dVertex
 10
560.276346
 20
334.613478
 30
0.0
  0
SEQEND
  5
303
100
AcDbEntity
  8
MSL-2-30-0
  0
LINE
  5
304
100
AcDbEntity
  8
MSL-2-30-0
100
AcDbLine
 10
559.276346
 20
326.563478
 30
0.0
 11
559.276346
 21
338.563478
 31
0.0
  0
LINE
  5
305
100
AcDbEntity
  8
MSL-2-30-0
100
AcDbLine
 10
558.276346
 20
339.563478
 30
0.0
 11
558.276346
 21
325.563478
 31
0.0
  0
LINE
  5
306
100
AcDbEntity
  8
MSL-2-30-0
100
AcDbLine
 10
553.276346
 20
325.202262
 30
0.0
 11
553.276346
 21
339.924694
 31
0.0
  0
LINE
  5
307
100
AcDbEntity
  8
MSL-2-30-0
100
AcDbLine
 10
558.276346
 20
325.563478
 30
0.0
 11
559.276346
 21
326.563478
 31
0.0
  0
LINE
  5
308
100
AcDbEntity
  8
MSL-2-30-0
100
AcDbLine
 10
553.276346
 20
325.563478
 30
0.0
 11
558.276346
 21
325.563478
 31
0.0
  0
LINE
  5
309
100
AcDbEntity
  8
MSL-2-30-0
100
AcDbLine
 10
559.276346
 20
338.563478
 30
0.0
 11
558.276346
 21
339.563478
 31
0.0
  0
LINE
  5
30A
100
AcDbEntity
  8
MSL-2-30-0
100
AcDbLine
 10
558.276346
 20
339.563478
 30
0.0
 11
553.276346
 21
339.563478
 31
0.0
  0
LINE
  5
30B
100
AcDbEntity
  8
MSL-2-30-0
100
AcDbLine
 10
570.376346
 20
338.563478
 30
0.0
 11
570.376346
 21
326.563478
 31
0.0
  0
LINE
  5
30D
100
AcDbEntity
  8
MSL-2-30-0
100
AcDbLine
 10
587.276346
 20
328.563478
 30
0.0
 11
597.276346
 21
328.563478
 31
0.0
  0
LINE
  5
30F
100
AcDbEntity
  8
MSL-2-30-0
100
AcDbLine
 10
597.276346
 20
336.563478
 30
0.0
 11
587.276346
 21
336.563478
 31
0.0
  0
LINE
  5
310
100
AcDbEntity
  8
MSL-2-30-0
100
AcDbLine
 10
587.276346
 20
328.563478
 30
0.0
 11
587.276346
 21
336.563478
 31
0.0
  0
ARC
  5
311
100
AcDbEntity
  8
MSL-2-30-0
100
AcDbCircle
 10
592.298755
 20
332.563478
 30
0.0
 40
9.02241
100
AcDbArc
 50
155.421503
 51
204.578497
  0
LINE
  5
312
100
AcDbEntity
  8
MSL-2-30-0
100
AcDbLine
 10
583.276346
 20
326.934312
 30
0.0
 11
583.276346
 21
338.192643
 31
0.0
  0
LINE
  5
313
100
AcDbEntity
  8
MSL-2-30-0
100
AcDbLine
 10
581.376346
 20
327.563478
 30
0.0
 11
581.376346
 21
337.563478
 31
0.0
  0
LINE
  5
314
100
AcDbEntity
  8
MSL-2-30-0
100
AcDbLine
 10
580.376346
 20
326.563478
 30
0.0
 11
580.376346
 21
338.563478
 31
0.0
  0
LINE
  5
315
100
AcDbEntity
  8
MSL-2-30-0
100
AcDbLine
 10
587.276346
 20
325.057924
 30
0.0
 11
587.276346
 21
340.069031
 31
0.0
  0
ARC
  5
316
100
AcDbEntity
  8
MSL-2-30-0
100
AcDbCircle
 10
585.83851
 20
326.934312
 30
0.0
 40
2.562165
100
AcDbArc
 50
132.916664
 51
227.083336
  0
LINE
  5
317
100
AcDbEntity
  8
MSL-2-30-0
100
AcDbLine
 10
580.376346
 20
326.563478
 30
0.0
 11
581.376346
 21
327.563478
 31
0.0
  0
LINE
  5
318
100
AcDbEntity
  8
MSL-2-30-0
100
AcDbLine
 10
584.093846
 20
328.810701
 30
0.0
 11
587.276346
 21
328.810701
 31
0.0
  0
LINE
  5
319
100
AcDbEntity
  8
MSL-2-30-0
100
AcDbLine
 10
584.093846
 20
325.057924
 30
0.0
 11
587.276346
 21
325.057924
 31
0.0
  0
ARC
  5
31A
100
AcDbEntity
  8
MSL-2-30-0
100
AcDbCircle
 10
585.83851
 20
338.192643
 30
0.0
 40
2.562165
100
AcDbArc
 50
132.916664
 51
227.083336
  0
LINE
  5
31B
100
AcDbEntity
  8
MSL-2-30-0
100
AcDbLine
 10
581.376346
 20
337.563478
 30
0.0
 11
580.376346
 21
338.563478
 31
0.0
  0
LINE
  5
31C
100
AcDbEntity
  8
MSL-2-30-0
100
AcDbLine
 10
584.093846
 20
336.316254
 30
0.0
 11
587.276346
 21
336.316254
 31
0.0
  0
LINE
  5
31D
100
AcDbEntity
  8
MSL-2-30-0
100
AcDbLine
 10
587.276346
 20
340.069031
 30
0.0
 11
584.093846
 21
340.069031
 31
0.0
  0
ARC
  5
31E
100
AcDbEntity
  8
MSL-2-30-0
100
AcDbCircle
 10
593.566623
 20
332.563478
 30
0.0
 40
7.709722
100
AcDbArc
 50
330.872216
 51
29.127784
  0
LINE
  5
31F
100
AcDbEntity
  8
MSL-2-30-0
100
AcDbLine
 10
601.276346
 20
326.934312
 30
0.0
 11
601.276346
 21
338.192643
 31
0.0
  0
ARC
  5
320
100
AcDbEntity
  8
MSL-2-30-0
100
AcDbCircle
 10
604.986068
 20
332.563478
 30
0.0
 40
7.709722
100
AcDbArc
 50
150.872218
 51
209.127782
  0
LINE
  5
321
100
AcDbEntity
  8
MSL-2-30-0
100
AcDbLine
 10
597.276346
 20
326.934312
 30
0.0
 11
597.276346
 21
338.192643
 31
0.0
  0
LINE
  5
322
100
AcDbEntity
  8
MSL-2-30-0
100
AcDbLine
 10
600.301346
 20
328.810701
 30
0.0
 11
598.251346
 21
328.810701
 31
0.0
  0
LINE
  5
323
100
AcDbEntity
  8
MSL-2-30-0
100
AcDbLine
 10
600.301346
 20
325.057924
 30
0.0
 11
598.251346
 21
325.057924
 31
0.0
  0
ARC
  5
324
100
AcDbEntity
  8
MSL-2-30-0
100
AcDbCircle
 10
598.98329
 20
326.934312
 30
0.0
 40
2.293056
100
AcDbArc
 50
305.085847
 51
54.914153
  0
ARC
  5
325
100
AcDbEntity
  8
MSL-2-30-0
100
AcDbCircle
 10
599.569401
 20
326.934312
 30
0.0
 40
2.293056
100
AcDbArc
 50
125.085848
 51
234.914152
  0
ARC
  5
326
100
AcDbEntity
  8
MSL-2-30-0
100
AcDbCircle
 10
599.569401
 20
338.192643
 30
0.0
 40
2.293056
100
AcDbArc
 50
125.085848
 51
234.914152
  0
ARC
  5
327
100
AcDbEntity
  8
MSL-2-30-0
100
AcDbCircle
 10
598.98329
 20
338.192643
 30
0.0
 40
2.293056
100
AcDbArc
 50
305.085847
 51
54.914153
  0
LINE
  5
328
100
AcDbEntity
  8
MSL-2-30-0
100
AcDbLine
 10
600.301346
 20
336.316254
 30
0.0
 11
598.251346
 21
336.316254
 31
0.0
  0
LINE
  5
329
100
AcDbEntity
  8
MSL-2-30-0
100
AcDbLine
 10
600.301346
 20
340.069031
 30
0.0
 11
598.251346
 21
340.069031
 31
0.0
  0
LINE
  5
32A
100
AcDbEntity
  8
MSL-2-30-0
100
AcDbLine
 10
617.276346
 20
341.563478
 30
0.0
 11
617.276346
 21
281.563478
 31
0.0
  0
LINE
  5
32B
100
AcDbEntity
  8
MSL-2-30-7
100
AcDbLine
 10
612.276346
 20
283.813478
 30
0.0
 11
612.276346
 21
291.313478
 31
0.0
  0
ARC
  5
32C
100
AcDbEntity
  8
MSL-2-30-4
100
AcDbCircle
 10
612.276346
 20
287.563478
 30
0.0
 40
2.5
100
AcDbArc
 50
172.405357
 51
104.931417
  0
CIRCLE
  5
32D
100
AcDbEntity
  8
MSL-2-30-0
100
AcDbCircle
 10
612.276346
 20
287.563478
 30
0.0
 40
2.067
  0
LINE
  5
32E
100
AcDbEntity
  8
MSL-2-30-3
100
AcDbLine
 10
608.343346
 20
281.563478
 30
0.0
 11
608.343346
 21
292.763478
 31
0.0
  0
LINE
  5
32F
100
AcDbEntity
  8
MSL-2-30-7
100
AcDbLine
 10
606.276346
 20
296.956861
 30
0.0
 11
606.276346
 21
278.563478
 31
0.0
  0
LINE
  5
330
100
AcDbEntity
  8
MSL-2-30-7
100
AcDbLine
 10
606.276346
 20
296.956861
 30
0.0
 11
606.276346
 21
278.563478
 31
0.0
  0
LINE
  5
331
100
AcDbEntity
  8
MSL-2-30-3
100
AcDbLine
 10
608.343346
 20
281.563478
 30
0.0
 11
608.343346
 21
292.763478
 31
0.0
  0
LINE
  5
332
100
AcDbEntity
  8
MSL-2-30-3
100
AcDbLine
 10
604.209346
 20
281.563478
 30
0.0
 11
604.209346
 21
292.763478
 31
0.0
  0
LINE
  5
333
100
AcDbEntity
  8
MSL-2-30-3
100
AcDbLine
 10
604.209346
 20
281.563478
 30
0.0
 11
604.209346
 21
292.763478
 31
0.0
  0
LINE
  5
334
100
AcDbEntity
  8
MSL-2-30-3
100
AcDbLine
 10
608.776346
 20
281.563478
 30
0.0
 11
608.776346
 21
289.563478
 31
0.0
  0
LINE
  5
335
100
AcDbEntity
  8
MSL-2-30-3
100
AcDbLine
 10
608.776346
 20
281.563478
 30
0.0
 11
608.776346
 21
289.563478
 31
0.0
  0
LINE
  5
336
100
AcDbEntity
  8
MSL-2-30-3
100
AcDbLine
 10
603.776346
 20
281.563478
 30
0.0
 11
603.776346
 21
289.563478
 31
0.0
  0
LINE
  5
337
100
AcDbEntity
  8
MSL-2-30-3
100
AcDbLine
 10
603.776346
 20
281.563478
 30
0.0
 11
603.776346
 21
289.563478
 31
0.0
  0
LINE
  5
338
100
AcDbEntity
  8
MSL-2-30-7
100
AcDbLine
 10
608.526346
 20
287.563478
 30
0.0
 11
616.026346
 21
287.563478
 31
0.0
  0
LINE
  5
339
100
AcDbEntity
  8
MSL-2-30-3
100
AcDbLine
 10
608.776346
 20
289.563478
 30
0.0
 11
603.776346
 21
289.563478
 31
0.0
  0
LINE
  5
33A
100
AcDbEntity
  8
MSL-2-30-3
100
AcDbLine
 10
608.776346
 20
289.563478
 30
0.0
 11
603.776346
 21
289.563478
 31
0.0
  0
LINE
  5
33B
100
AcDbEntity
  8
MSL-2-30-3
100
AcDbLine
 10
608.343346
 20
292.763478
 30
0.0
 11
604.209346
 21
292.763478
 31
0.0
  0
LINE
  5
33C
100
AcDbEntity
  8
MSL-2-30-3
100
AcDbLine
 10
608.343346
 20
292.763478
 30
0.0
 11
604.209346
 21
292.763478
 31
0.0
  0
LINE
  5
33D
100
AcDbEntity
  8
MSL-2-30-3
100
AcDbLine
 10
606.276346
 20
293.956861
 30
0.0
 11
608.343346
 21
292.763478
 31
0.0
  0
LINE
  5
33E
100
AcDbEntity
  8
MSL-2-30-3
100
AcDbLine
 10
606.276346
 20
293.956861
 30
0.0
 11
608.343346
 21
292.763478
 31
0.0
  0
LINE
  5
33F
100
AcDbEntity
  8
MSL-2-30-3
100
AcDbLine
 10
606.276346
 20
293.956861
 30
0.0
 11
604.209346
 21
292.763478
 31
0.0
  0
LINE
  5
340
100
AcDbEntity
  8
MSL-2-30-3
100
AcDbLine
 10
606.276346
 20
293.956861
 30
0.0
 11
604.209346
 21
292.763478
 31
0.0
  0
LINE
  5
341
100
AcDbEntity
  8
MSL-2-30-7
100
AcDbLine
 10
608.526346
 20
317.563478
 30
0.0
 11
616.026346
 21
317.563478
 31
0.0
  0
ARC
  5
342
100
AcDbEntity
  8
MSL-2-30-4
100
AcDbCircle
 10
612.276346
 20
317.563478
 30
0.0
 40
2.5
100
AcDbArc
 50
172.405357
 51
104.931417
  0
CIRCLE
  5
343
100
AcDbEntity
  8
MSL-2-30-0
100
AcDbCircle
 10
612.276346
 20
317.563478
 30
0.0
 40
2.067
  0
LINE
  5
344
100
AcDbEntity
  8
MSL-2-30-7
100
AcDbLine
 10
612.276346
 20
313.813478
 30
0.0
 11
612.276346
 21
321.313478
 31
0.0
  0
LINE
  5
345
100
AcDbEntity
  8
MSL-2-30-7
100
AcDbLine
 10
620.625231
 20
425.063478
 30
0.0
 11
545.552463
 21
425.063478
 31
0.0
  0
LINE
  5
346
100
AcDbEntity
  8
MSL-2-30-7
100
AcDbLine
 10
620.625231
 20
452.563478
 30
0.0
 11
545.552463
 21
452.563478
 31
0.0
  0
LINE
  5
347
100
AcDbEntity
  8
MSL-2-30-7
100
AcDbLine
 10
620.625231
 20
480.063478
 30
0.0
 11
545.552463
 21
480.063478
 31
0.0
  0
LINE
  5
348
100
AcDbEntity
  8
MSL-2-30-0
100
AcDbLine
 10
601.276346
 20
411.563478
 30
0.0
 11
617.276346
 21
411.563478
 31
0.0
  0
LINE
  5
349
100
AcDbEntity
  8
MSL-2-30-0
100
AcDbLine
 10
617.276346
 20
493.563478
 30
0.0
 11
601.276346
 21
493.563478
 31
0.0
  0
LINE
  5
34A
100
AcDbEntity
  8
MSL-2-30-7
100
AcDbLine
 10
620.625231
 20
467.563478
 30
0.0
 11
597.506012
 21
467.563478
 31
0.0
  0
LINE
  5
34B
100
AcDbEntity
  8
MSL-2-30-7
100
AcDbLine
 10
620.625231
 20
437.563478
 30
0.0
 11
597.506012
 21
437.563478
 31
0.0
  0
LINE
  5
34C
100
AcDbEntity
  8
MSL-2-30-7
100
AcDbLine
 10
505.276346
 20
496.280663
 30
0.0
 11
505.276346
 21
480.082639
 31
0.0
  0
LINE
  5
34D
100
AcDbEntity
  8
MSL-2-30-0
100
AcDbLine
 10
601.276346
 20
493.563478
 30
0.0
 11
601.276346
 21
411.563478
 31
0.0
  0
LINE
  5
34E
100
AcDbEntity
  8
MSL-2-30-0
100
AcDbLine
 10
550.276346
 20
419.063478
 30
0.0
 11
601.276346
 21
419.063478
 31
0.0
  0
LINE
  5
34F
100
AcDbEntity
  8
MSL-2-30-0
100
AcDbLine
 10
601.276346
 20
431.063478
 30
0.0
 11
550.276346
 21
431.063478
 31
0.0
  0
LINE
  5
350
100
AcDbEntity
  8
MSL-2-30-0
100
AcDbLine
 10
550.276346
 20
474.063478
 30
0.0
 11
601.276346
 21
474.063478
 31
0.0
  0
LINE
  5
351
100
AcDbEntity
  8
MSL-2-30-0
100
AcDbLine
 10
564.276346
 20
461.563478
 30
0.0
 11
550.276346
 21
461.563478
 31
0.0
  0
LINE
  5
352
100
AcDbEntity
  8
MSL-2-30-0
100
AcDbLine
 10
550.276346
 20
443.563478
 30
0.0
 11
564.276346
 21
443.563478
 31
0.0
  0
LINE
  5
353
100
AcDbEntity
  8
MSL-2-30-7
100
AcDbLine
 10
505.276346
 20
425.044192
 30
0.0
 11
505.276346
 21
408.497823
 31
0.0
  0
LINE
  5
354
100
AcDbEntity
  8
MSL-2-30-7
100
AcDbLine
 10
505.276346
 20
433.813478
 30
0.0
 11
505.276346
 21
441.313478
 31
0.0
  0
LINE
  5
355
100
AcDbEntity
  8
MSL-2-30-7
100
AcDbLine
 10
505.276346
 20
463.847695
 30
0.0
 11
505.276346
 21
471.347695
 31
0.0
  0
LINE
  5
356
100
AcDbEntity
  8
MSL-2-30-0
100
AcDbLine
 10
565.276346
 20
449.563478
 30
0.0
 11
601.276346
 21
449.563478
 31
0.0
  0
LINE
  5
357
100
AcDbEntity
  8
MSL-2-30-0
100
AcDbLine
 10
601.276346
 20
455.563478
 30
0.0
 11
565.276346
 21
455.563478
 31
0.0
  0
LINE
  5
358
100
AcDbEntity
  8
MSL-2-30-0
100
AcDbLine
 10
565.276346
 20
460.563478
 30
0.0
 11
564.276346
 21
461.563478
 31
0.0
  0
LINE
  5
359
100
AcDbEntity
  8
MSL-2-30-0
100
AcDbLine
 10
564.276346
 20
443.563478
 30
0.0
 11
564.276346
 21
461.563478
 31
0.0
  0
LINE
  5
35A
100
AcDbEntity
  8
MSL-2-30-0
100
AcDbLine
 10
564.276346
 20
443.563478
 30
0.0
 11
565.276346
 21
444.563478
 31
0.0
  0
LINE
  5
35B
100
AcDbEntity
  8
MSL-2-30-0
100
AcDbLine
 10
565.276346
 20
444.563478
 30
0.0
 11
565.276346
 21
460.563478
 31
0.0
  0
LINE
  5
35C
100
AcDbEntity
  8
MSL-2-30-0
100
AcDbLine
 10
601.276346
 20
486.063478
 30
0.0
 11
550.276346
 21
486.063478
 31
0.0
  0
LINE
  5
35D
100
AcDbEntity
  8
MSL-2-30-7
100
AcDbLine
 10
606.276346
 20
473.813478
 30
0.0
 11
606.276346
 21
481.313478
 31
0.0
  0
LINE
  5
35E
100
AcDbEntity
  8
MSL-2-30-0
100
AcDbLine
 10
617.276346
 20
411.563478
 30
0.0
 11
617.276346
 21
493.563478
 31
0.0
  0
LINE
  5
35F
100
AcDbEntity
  8
MSL-2-30-7
100
AcDbLine
 10
612.276346
 20
478.170095
 30
0.0
 11
612.276346
 21
496.563478
 31
0.0
  0
LINE
  5
360
100
AcDbEntity
  8
MSL-2-30-7
100
AcDbLine
 10
612.276346
 20
478.170095
 30
0.0
 11
612.276346
 21
496.563478
 31
0.0
  0
LINE
  5
361
100
AcDbEntity
  8
MSL-2-30-3
100
AcDbLine
 10
614.343346
 20
411.563478
 30
0.0
 11
614.343346
 21
422.763478
 31
0.0
  0
LINE
  5
362
100
AcDbEntity
  8
MSL-2-30-3
100
AcDbLine
 10
614.343346
 20
411.563478
 30
0.0
 11
614.343346
 21
422.763478
 31
0.0
  0
LINE
  5
363
100
AcDbEntity
  8
MSL-2-30-3
100
AcDbLine
 10
610.209346
 20
411.563478
 30
0.0
 11
610.209346
 21
422.763478
 31
0.0
  0
LINE
  5
364
100
AcDbEntity
  8
MSL-2-30-3
100
AcDbLine
 10
610.209346
 20
411.563478
 30
0.0
 11
610.209346
 21
422.763478
 31
0.0
  0
LINE
  5
365
100
AcDbEntity
  8
MSL-2-30-7
100
AcDbLine
 10
612.276346
 20
426.956861
 30
0.0
 11
612.276346
 21
408.563478
 31
0.0
  0
LINE
  5
366
100
AcDbEntity
  8
MSL-2-30-7
100
AcDbLine
 10
612.276346
 20
426.956861
 30
0.0
 11
612.276346
 21
408.563478
 31
0.0
  0
LINE
  5
367
100
AcDbEntity
  8
MSL-2-30-3
100
AcDbLine
 10
609.776346
 20
419.563478
 30
0.0
 11
614.776346
 21
419.563478
 31
0.0
  0
LINE
  5
368
100
AcDbEntity
  8
MSL-2-30-3
100
AcDbLine
 10
609.776346
 20
419.563478
 30
0.0
 11
614.776346
 21
419.563478
 31
0.0
  0
LINE
  5
369
100
AcDbEntity
  8
MSL-2-30-3
100
AcDbLine
 10
609.776346
 20
411.563478
 30
0.0
 11
609.776346
 21
419.563478
 31
0.0
  0
LINE
  5
36A
100
AcDbEntity
  8
MSL-2-30-3
100
AcDbLine
 10
609.776346
 20
411.563478
 30
0.0
 11
609.776346
 21
419.563478
 31
0.0
  0
LINE
  5
36B
100
AcDbEntity
  8
MSL-2-30-3
100
AcDbLine
 10
614.776346
 20
411.563478
 30
0.0
 11
614.776346
 21
419.563478
 31
0.0
  0
LINE
  5
36C
100
AcDbEntity
  8
MSL-2-30-3
100
AcDbLine
 10
614.776346
 20
411.563478
 30
0.0
 11
614.776346
 21
419.563478
 31
0.0
  0
LINE
  5
36D
100
AcDbEntity
  8
MSL-2-30-3
100
AcDbLine
 10
610.209346
 20
422.763478
 30
0.0
 11
614.343346
 21
422.763478
 31
0.0
  0
LINE
  5
36E
100
AcDbEntity
  8
MSL-2-30-3
100
AcDbLine
 10
610.209346
 20
422.763478
 30
0.0
 11
614.343346
 21
422.763478
 31
0.0
  0
LINE
  5
36F
100
AcDbEntity
  8
MSL-2-30-3
100
AcDbLine
 10
612.276346
 20
423.956861
 30
0.0
 11
614.343346
 21
422.763478
 31
0.0
  0
LINE
  5
370
100
AcDbEntity
  8
MSL-2-30-3
100
AcDbLine
 10
612.276346
 20
423.956861
 30
0.0
 11
614.343346
 21
422.763478
 31
0.0
  0
CIRCLE
  5
371
100
AcDbEntity
  8
MSL-2-30-0
100
AcDbCircle
 10
606.276346
 20
427.563478
 30
0.0
 40
2.067
  0
ARC
  5
372
100
AcDbEntity
  8
MSL-2-30-4
100
AcDbCircle
 10
606.276346
 20
427.563478
 30
0.0
 40
2.5
100
AcDbArc
 50
172.405357
 51
104.931417
  0
LINE
  5
373
100
AcDbEntity
  8
MSL-2-30-7
100
AcDbLine
 10
602.526346
 20
427.563478
 30
0.0
 11
610.026346
 21
427.563478
 31
0.0
  0
LINE
  5
374
100
AcDbEntity
  8
MSL-2-30-7
100
AcDbLine
 10
606.276346
 20
423.813478
 30
0.0
 11
606.276346
 21
431.313478
 31
0.0
  0
LINE
  5
375
100
AcDbEntity
  8
MSL-2-30-3
100
AcDbLine
 10
612.276346
 20
423.956861
 30
0.0
 11
610.209346
 21
422.763478
 31
0.0
  0
LINE
  5
376
100
AcDbEntity
  8
MSL-2-30-3
100
AcDbLine
 10
612.276346
 20
423.956861
 30
0.0
 11
610.209346
 21
422.763478
 31
0.0
  0
CIRCLE
  5
377
100
AcDbEntity
  8
MSL-2-30-0
100
AcDbCircle
 10
606.276346
 20
477.563478
 30
0.0
 40
2.067
  0
ARC
  5
378
100
AcDbEntity
  8
MSL-2-30-4
100
AcDbCircle
 10
606.276346
 20
477.563478
 30
0.0
 40
2.5
100
AcDbArc
 50
172.405357
 51
104.931417
  0
LINE
  5
379
100
AcDbEntity
  8
MSL-2-30-7
100
AcDbLine
 10
602.526346
 20
477.563478
 30
0.0
 11
610.026346
 21
477.563478
 31
0.0
  0
LINE
  5
37A
100
AcDbEntity
  8
MSL-2-30-3
100
AcDbLine
 10
609.776346
 20
485.563478
 30
0.0
 11
614.776346
 21
485.563478
 31
0.0
  0
LINE
  5
37B
100
AcDbEntity
  8
MSL-2-30-3
100
AcDbLine
 10
609.776346
 20
485.563478
 30
0.0
 11
614.776346
 21
485.563478
 31
0.0
  0
LINE
  5
37C
100
AcDbEntity
  8
MSL-2-30-3
100
AcDbLine
 10
612.276346
 20
481.170095
 30
0.0
 11
614.343346
 21
482.363478
 31
0.0
  0
LINE
  5
37D
100
AcDbEntity
  8
MSL-2-30-3
100
AcDbLine
 10
610.209346
 20
482.363478
 30
0.0
 11
614.343346
 21
482.363478
 31
0.0
  0
LINE
  5
37E
100
AcDbEntity
  8
MSL-2-30-3
100
AcDbLine
 10
610.209346
 20
482.363478
 30
0.0
 11
614.343346
 21
482.363478
 31
0.0
  0
LINE
  5
37F
100
AcDbEntity
  8
MSL-2-30-3
100
AcDbLine
 10
612.276346
 20
481.170095
 30
0.0
 11
614.343346
 21
482.363478
 31
0.0
  0
LINE
  5
380
100
AcDbEntity
  8
MSL-2-30-3
100
AcDbLine
 10
609.776346
 20
493.563478
 30
0.0
 11
609.776346
 21
485.563478
 31
0.0
  0
LINE
  5
381
100
AcDbEntity
  8
MSL-2-30-3
100
AcDbLine
 10
610.209346
 20
493.563478
 30
0.0
 11
610.209346
 21
482.363478
 31
0.0
  0
LINE
  5
382
100
AcDbEntity
  8
MSL-2-30-3
100
AcDbLine
 10
610.209346
 20
493.563478
 30
0.0
 11
610.209346
 21
482.363478
 31
0.0
  0
LINE
  5
383
100
AcDbEntity
  8
MSL-2-30-3
100
AcDbLine
 10
609.776346
 20
493.563478
 30
0.0
 11
609.776346
 21
485.563478
 31
0.0
  0
LINE
  5
384
100
AcDbEntity
  8
MSL-2-30-3
100
AcDbLine
 10
612.276346
 20
481.170095
 30
0.0
 11
610.209346
 21
482.363478
 31
0.0
  0
LINE
  5
385
100
AcDbEntity
  8
MSL-2-30-3
100
AcDbLine
 10
612.276346
 20
481.170095
 30
0.0
 11
610.209346
 21
482.363478
 31
0.0
  0
LINE
  5
386
100
AcDbEntity
  8
MSL-2-30-3
100
AcDbLine
 10
614.776346
 20
493.563478
 30
0.0
 11
614.776346
 21
485.563478
 31
0.0
  0
LINE
  5
387
100
AcDbEntity
  8
MSL-2-30-3
100
AcDbLine
 10
614.776346
 20
493.563478
 30
0.0
 11
614.776346
 21
485.563478
 31
0.0
  0
LINE
  5
388
100
AcDbEntity
  8
MSL-2-30-3
100
AcDbLine
 10
614.343346
 20
493.563478
 30
0.0
 11
614.343346
 21
482.363478
 31
0.0
  0
LINE
  5
389
100
AcDbEntity
  8
MSL-2-30-3
100
AcDbLine
 10
614.343346
 20
493.563478
 30
0.0
 11
614.343346
 21
482.363478
 31
0.0
  0
LINE
  5
38C
100
AcDbEntity
  8
MSL-2-30-0
100
AcDbLine
 10
484.276346
 20
496.563478
 30
0.0
 11
476.276346
 21
496.563478
 31
0.0
  0
LINE
  5
38D
100
AcDbEntity
  8
MSL-2-30-0
100
AcDbLine
 10
474.276346
 20
496.563478
 30
0.0
 11
466.276346
 21
496.563478
 31
0.0
  0
LINE
  5
38E
100
AcDbEntity
  8
MSL-2-30-0
100
AcDbLine
 10
464.776346
 20
495.063478
 30
0.0
 11
464.776346
 21
492.563478
 31
0.0
  0
ARC
  5
38F
100
AcDbEntity
  8
MSL-2-30-0
100
AcDbCircle
 10
466.276346
 20
495.063478
 30
0.0
 40
1.5
100
AcDbArc
 50
90.000001
 51
180.0
  0
ARC
  5
390
100
AcDbEntity
  8
MSL-2-30-0
100
AcDbCircle
 10
474.276346
 20
495.063478
 30
0.0
 40
1.5
100
AcDbArc
 50
359.999998
 51
90.000001
  0
LINE
  5
391
100
AcDbEntity
  8
MSL-2-30-7
100
AcDbLine
 10
470.276346
 20
489.865093
 30
0.0
 11
470.276346
 21
498.556312
 31
0.0
  0
LINE
  5
392
100
AcDbEntity
  8
MSL-2-30-0
100
AcDbLine
 10
475.776346
 20
492.563478
 30
0.0
 11
475.776346
 21
495.063478
 31
0.0
  0
ARC
  5
393
100
AcDbEntity
  8
MSL-2-30-0
100
AcDbCircle
 10
476.276346
 20
495.063478
 30
0.0
 40
1.5
100
AcDbArc
 50
90.0
 51
131.810315
  0
LINE
  5
394
100
AcDbEntity
  8
MSL-2-30-7
100
AcDbLine
 10
480.276346
 20
489.865093
 30
0.0
 11
480.276346
 21
498.556312
 31
0.0
  0
LINE
  5
395
100
AcDbEntity
  8
MSL-2-30-0
100
AcDbLine
 10
485.776346
 20
492.563478
 30
0.0
 11
485.776346
 21
495.063478
 31
0.0
  0
ARC
  5
396
100
AcDbEntity
  8
MSL-2-30-0
100
AcDbCircle
 10
484.276346
 20
495.063478
 30
0.0
 40
1.5
100
AcDbArc
 50
359.999998
 51
90.000001
  0
LINE
  5
399
100
AcDbEntity
  8
MSL-2-30-7
100
AcDbLine
 10
545.81653
 20
332.563478
 30
0.0
 11
617.098846
 21
332.563478
 31
0.0
  0
CIRCLE
  5
39A
100
AcDbEntity
  8
MSL-2-30-0
100
AcDbCircle
 10
222.095504
 20
302.563478
 30
0.0
 40
6.0
  0
CIRCLE
  5
39B
100
AcDbEntity
  8
MSL-2-30-0
100
AcDbCircle
 10
277.095504
 20
302.563478
 30
0.0
 40
6.0
  0
ENDSEC
  0
SECTION
  2
OBJECTS
  0
DICTIONARY
  5
1A
100
AcDbDictionary
  3
ACAD_GROUP
350
18
  3
ACAD_MLINESTYLE
350
19
  0
DICTIONARY
  5
18
102
{ACAD_REACTORS
330
1A
102
}
100
AcDbDictionary
  0
DICTIONARY
  5
19
102
{ACAD_REACTORS
330
1A
102
}
100
AcDbDictionary
  3
STANDARD
350
1D
  0
MLINESTYLE
  5
1D
102
{ACAD_REACTORS
330
19
102
}
100
AcDbMlineStyle
  2
STANDARD
 70
     0
  3

 62
     0
 51
90.0
 52
90.0
 71
     2
 49
0.5
 62
   256
  6
BYLAYER
 49
-0.5
 62
   256
  6
BYLAYER
  0
ENDSEC
  0
EOF
 