  0
SECTION
  2
HEADER
  9
$ACADVER
  1
AC1012
  9
$DWGCODEPAGE
  3
ansi_1252
  9
$INSBASE
 10
0.0
 20
0.0
 30
0.0
  9
$EXTMIN
 10
-81.788719
 20
-260.534688
 30
0.0
  9
$EXTMAX
 10
1050.782286
 20
340.049876
 30
0.0
  9
$LIMMIN
 10
0.0
 20
0.0
  9
$LIMMAX
 10
410.0
 20
287.0
  9
$ORTHOMODE
 70
     0
  9
$REGENMODE
 70
     1
  9
$FILLMODE
 70
     1
  9
$QTEXTMODE
 70
     0
  9
$MIRRTEXT
 70
     1
  9
$DRAGMODE
 70
     2
  9
$LTSCALE
 40
1.0
  9
$OSMODE
 70
    33
  9
$ATTMODE
 70
     1
  9
$TEXTSIZE
 40
3.5
  9
$TRACEWID
 40
0.05
  9
$TEXTSTYLE
  7
STANDARD
  9
$CLAYER
  8
0
  9
$CELTYPE
  6
BYLAYER
  9
$CECOLOR
 62
   256
  9
$CELTSCALE
 40
1.0
  9
$DELOBJ
 70
     1
  9
$DISPSILH
 70
     0
  9
$DIMSCALE
 40
1.0
  9
$DIMASZ
 40
0.18
  9
$DIMEXO
 40
0.0625
  9
$DIMDLI
 40
0.38
  9
$DIMRND
 40
0.0
  9
$DIMDLE
 40
0.0
  9
$DIMEXE
 40
0.18
  9
$DIMTP
 40
0.0
  9
$DIMTM
 40
0.0
  9
$DIMTXT
 40
0.18
  9
$DIMCEN
 40
0.09
  9
$DIMTSZ
 40
0.0
  9
$DIMTOL
 70
     0
  9
$DIMLIM
 70
     0
  9
$DIMTIH
 70
     1
  9
$DIMTOH
 70
     1
  9
$DIMSE1
 70
     0
  9
$DIMSE2
 70
     0
  9
$DIMTAD
 70
     0
  9
$DIMZIN
 70
     0
  9
$DIMBLK
  1

  9
$DIMASO
 70
     1
  9
$DIMSHO
 70
     1
  9
$DIMPOST
  1

  9
$DIMAPOST
  1

  9
$DIMALT
 70
     0
  9
$DIMALTD
 70
     2
  9
$DIMALTF
 40
25.4
  9
$DIMLFAC
 40
1.0
  9
$DIMTOFL
 70
     0
  9
$DIMTVP
 40
0.0
  9
$DIMTIX
 70
     0
  9
$DIMSOXD
 70
     0
  9
$DIMSAH
 70
     0
  9
$DIMBLK1
  1

  9
$DIMBLK2
  1

  9
$DIMSTYLE
  2
STANDARD
  9
$DIMCLRD
 70
     0
  9
$DIMCLRE
 70
     0
  9
$DIMCLRT
 70
     0
  9
$DIMTFAC
 40
1.0
  9
$DIMGAP
 40
0.09
  9
$DIMJUST
 70
     0
  9
$DIMSD1
 70
     0
  9
$DIMSD2
 70
     0
  9
$DIMTOLJ
 70
     1
  9
$DIMTZIN
 70
     0
  9
$DIMALTZ
 70
     0
  9
$DIMALTTZ
 70
     0
  9
$DIMFIT
 70
     3
  9
$DIMUPT
 70
     0
  9
$DIMUNIT
 70
     2
  9
$DIMDEC
 70
     4
  9
$DIMTDEC
 70
     4
  9
$DIMALTU
 70
     2
  9
$DIMALTTD
 70
     2
  9
$DIMTXSTY
  7
STANDARD
  9
$DIMAUNIT
 70
     0
  9
$LUNITS
 70
     2
  9
$LUPREC
 70
     4
  9
$SKETCHINC
 40
0.1
  9
$FILLETRAD
 40
12.5
  9
$AUNITS
 70
     0
  9
$AUPREC
 70
     0
  9
$MENU
  1
acad
  9
$ELEVATION
 40
0.0
  9
$PELEVATION
 40
0.0
  9
$THICKNESS
 40
0.0
  9
$LIMCHECK
 70
     0
  9
$BLIPMODE
 70
     0
  9
$CHAMFERA
 40
12.5
  9
$CHAMFERB
 40
12.5
  9
$CHAMFERC
 40
0.0
  9
$CHAMFERD
 40
0.0
  9
$SKPOLY
 70
     0
  9
$TDCREATE
 40
2450928.463521678
  9
$TDUPDATE
 40
2450928.474916192
  9
$TDINDWG
 40
0.0113945139
  9
$TDUSRTIMER
 40
0.0113945139
  9
$USRTIMER
 70
     1
  9
$ANGBASE
 50
0.0
  9
$ANGDIR
 70
     0
  9
$PDMODE
 70
     0
  9
$PDSIZE
 40
39.647092
  9
$PLINEWID
 40
0.0
  9
$COORDS
 70
     1
  9
$SPLFRAME
 70
     0
  9
$SPLINETYPE
 70
     6
  9
$SPLINESEGS
 70
     8
  9
$ATTDIA
 70
     1
  9
$ATTREQ
 70
     1
  9
$HANDLING
 70
     1
  9
$HANDSEED
  5
17F8
  9
$SURFTAB1
 70
     6
  9
$SURFTAB2
 70
     6
  9
$SURFTYPE
 70
     6
  9
$SURFU
 70
     6
  9
$SURFV
 70
     6
  9
$UCSNAME
  2

  9
$UCSORG
 10
0.0
 20
0.0
 30
0.0
  9
$UCSXDIR
 10
1.0
 20
0.0
 30
0.0
  9
$UCSYDIR
 10
0.0
 20
1.0
 30
0.0
  9
$PUCSNAME
  2

  9
$PUCSORG
 10
0.0
 20
0.0
 30
0.0
  9
$PUCSXDIR
 10
1.0
 20
0.0
 30
0.0
  9
$PUCSYDIR
 10
0.0
 20
1.0
 30
0.0
  9
$USERI1
 70
     0
  9
$USERI2
 70
     0
  9
$USERI3
 70
     0
  9
$USERI4
 70
     0
  9
$USERI5
 70
     0
  9
$USERR1
 40
0.0
  9
$USERR2
 40
0.0
  9
$USERR3
 40
0.0
  9
$USERR4
 40
0.0
  9
$USERR5
 40
0.0
  9
$WORLDVIEW
 70
     1
  9
$SHADEDGE
 70
     3
  9
$SHADEDIF
 70
    70
  9
$TILEMODE
 70
     1
  9
$MAXACTVP
 70
    16
  9
$PINSBASE
 10
0.0
 20
0.0
 30
0.0
  9
$PLIMCHECK
 70
     0
  9
$PEXTMIN
 10
1.000000E+20
 20
1.000000E+20
 30
1.000000E+20
  9
$PEXTMAX
 10
-1.000000E+20
 20
-1.000000E+20
 30
-1.000000E+20
  9
$PLIMMIN
 10
0.0
 20
0.0
  9
$PLIMMAX
 10
12.0
 20
9.0
  9
$UNITMODE
 70
     0
  9
$VISRETAIN
 70
     0
  9
$PLINEGEN
 70
     0
  9
$PSLTSCALE
 70
     1
  9
$TREEDEPTH
 70
  3020
  9
$PICKSTYLE
 70
     1
  9
$CMLSTYLE
  2
STANDARD
  9
$CMLJUST
 70
     0
  9
$CMLSCALE
 40
1.0
  9
$SAVEIMAGES
 70
     0
  0
ENDSEC
  0
SECTION
  2
CLASSES
  0
ENDSEC
  0
SECTION
  2
TABLES
  0
TABLE
  2
VPORT
  5
8
100
AcDbSymbolTable
 70
     4
  0
VPORT
  5
17F7
100
AcDbSymbolTableRecord
100
AcDbViewportTableRecord
  2
*ACTIVE
 70
     0
 10
0.0
 20
0.0
 11
1.0
 21
1.0
 12
484.496784
 22
85.436416
 13
0.0
 23
0.0
 14
5.0
 24
5.0
 15
50.0
 25
50.0
 16
0.0
 26
0.0
 36
1.0
 17
0.0
 27
0.0
 37
0.0
 40
864.927759
 41
1.6368
 42
50.0
 43
0.0
 44
0.0
 50
0.0
 51
0.0
 71
     0
 72
   100
 73
     1
 74
     0
 75
     0
 76
     0
 77
     0
 78
     0
  0
ENDTAB
  0
TABLE
  2
LTYPE
  5
5
100
AcDbSymbolTable
 70
     3
  0
LTYPE
  5
14
100
AcDbSymbolTableRecord
100
AcDbLinetypeTableRecord
  2
BYBLOCK
 70
     0
  3

 72
    65
 73
     0
 40
0.0
  0
LTYPE
  5
15
100
AcDbSymbolTableRecord
100
AcDbLinetypeTableRecord
  2
BYLAYER
 70
     0
  3

 72
    65
 73
     0
 40
0.0
  0
LTYPE
  5
16
100
AcDbSymbolTableRecord
100
AcDbLinetypeTableRecord
  2
CONTINUOUS
 70
     0
  3
Solid line
 72
    65
 73
     0
 40
0.0
  0
LTYPE
  5
6A
100
AcDbSymbolTableRecord
100
AcDbLinetypeTableRecord
  2
GEN3
 70
    64
  3
-- -- -- -- -- -- -- -- -- -- -- -- -- -- --
 72
    65
 73
     2
 40
6.25
 49
5.0
 74
     0
 49
-1.25
 74
     0
  0
LTYPE
  5
6B
100
AcDbSymbolTableRecord
100
AcDbLinetypeTableRecord
  2
GEN7A
 70
    64
  3
__ . __ . __
 72
    65
 73
     4
 40
7.5
 49
5.0
 74
     0
 49
-1.25
 74
     0
 49
0.0
 74
     0
 49
-1.25
 74
     0
  0
ENDTAB
  0
TABLE
  2
LAYER
  5
2
100
AcDbSymbolTable
 70
     7
  0
LAYER
  5
F
100
AcDbSymbolTableRecord
100
AcDbLayerTableRecord
  2
0
 70
     0
 62
     7
  6
CONTINUOUS
  0
LAYER
  5
6C
100
AcDbSymbolTableRecord
100
AcDbLayerTableRecord
  2
MSL5_360_3F-0
 70
    64
 62
     7
  6
CONTINUOUS
  0
LAYER
  5
6D
100
AcDbSymbolTableRecord
100
AcDbLayerTableRecord
  2
MSL5_360_3F-3
 70
    64
 62
     6
  6
GEN3
  0
LAYER
  5
6E
100
AcDbSymbolTableRecord
100
AcDbLayerTableRecord
  2
MSL5_360_3F-4
 70
    64
 62
     3
  6
CONTINUOUS
  0
LAYER
  5
6F
100
AcDbSymbolTableRecord
100
AcDbLayerTableRecord
  2
MSL5_360_3F-7
 70
    64
 62
     4
  6
GEN7A
  0
LAYER
  5
70
100
AcDbSymbolTableRecord
100
AcDbLayerTableRecord
  2
MSL5_360_3F-6
 70
    64
 62
     2
  6
CONTINUOUS
  0
LAYER
  5
71
100
AcDbSymbolTableRecord
100
AcDbLayerTableRecord
  2
INFO
 70
    64
 62
     4
  6
CONTINUOUS
  0
ENDTAB
  0
TABLE
  2
STYLE
  5
3
100
AcDbSymbolTable
 70
     1
  0
STYLE
  5
10
100
AcDbSymbolTableRecord
100
AcDbTextStyleTableRecord
  2
STANDARD
 70
    64
 40
0.0
 41
1.0
 50
0.0
 71
     0
 42
3.5
  3
geniso.shx
  4

  0
ENDTAB
  0
TABLE
  2
VIEW
  5
6
100
AcDbSymbolTable
 70
     0
  0
ENDTAB
  0
TABLE
  2
UCS
  5
7
100
AcDbSymbolTable
 70
     0
  0
ENDTAB
  0
TABLE
  2
APPID
  5
9
100
AcDbSymbolTable
 70
    29
  0
APPID
  5
11
100
AcDbSymbolTableRecord
100
AcDbRegAppTableRecord
  2
ACAD
 70
     0
  0
APPID
  5
29
100
AcDbSymbolTableRecord
100
AcDbRegAppTableRecord
  2
GENIUS_GENCFG_13
 70
     0
1001
GENIUS_GENCFG0_13
1000
GEN@INFO_POS@XLATE
1001
GENIUS_GENCFG1_13
1000
GEN@LAYER@DEFS
1001
GENIUS_GENCFG2_13
1000
GEN@LAYER@ENTSORT
1001
GENIUS_GENCFG3_13
1000
GEN@OSWIZ
1001
GENIUS_GENCFG4_13
1000
GEN
1001
GENIUS_GEVCFG0_13
1000
GEV
1001
GENIUS_GEFCFG0_13
1000
GEF
  0
APPID
  5
2A
100
AcDbSymbolTableRecord
100
AcDbRegAppTableRecord
  2
GENIUS_GENCFG0_13
 70
     0
1001
GENIUS_GENCFG_13
1071
862825278
1000
2A
1000
GEN@INFO_POS@XLATE
1070
     7
1000
GenCfgObject
1000
GenCfgShort
1000
GenCfgReal
1000
GenCfgBool
1000
GenCfgString
1000
GenCfgDim
1000
GenCfgAttrInf
1000
INFOPOINTS
1070
     0
1002
{
1000
GENINF13
1070
     0
1002
{
1000
2GENINF
1070
     4
1000
2
1002
{
1002
}
1000
3GENINF
1070
     4
1000
3
1002
{
1002
}
1000
4GENINF
1070
     4
1000
4
1002
{
1002
}
1000
5GENINF
1070
     4
1000
5
1002
{
1002
}
1000
6GENINF
1070
     4
1000
6
1002
{
1002
}
1000
7GENINF
1070
     4
1000
7
1002
{
1002
}
1000
8GENINF
1070
     4
1000
8
1002
{
1002
}
1000
9GENINF
1070
     4
1000
9
1002
{
1002
}
1000
10GENINF
1070
     4
1000
10
1002
{
1002
}
1000
11GENINF
1070
     4
1000
11
1002
{
1002
}
1000
12GENINF
1070
     4
1000
12
1002
{
1002
}
1000
13GENINF
1070
     4
1000
13
1002
{
1002
}
1000
14GENINF
1070
     4
1000
14
1002
{
1002
}
1000
15GENINF
1070
     4
1000
15
1002
{
1002
}
1000
16GENINF
1070
     4
1000
16
1002
{
1002
}
1000
17GENINF
1070
     4
1000
17
1002
{
1002
}
1000
18GENINF
1070
     4
1000
18
1002
{
1002
}
1000
19GENINF
1070
     4
1000
19
1002
{
1002
}
1000
20GENINF
1070
     4
1000
20
1002
{
1002
}
1000
21GENINF
1070
     4
1000
21
1002
{
1002
}
1000
22GENINF
1070
     4
1000
22
1002
{
1002
}
1000
23GENINF
1070
     4
1000
23
1002
{
1002
}
1000
24GENINF
1070
     4
1000
24
1002
{
1002
}
1000
0GENINF
1070
     4
1000
0
1002
{
1002
}
1002
}
1000
GENINFO
1070
     0
1002
{
1000
3GENINF
1070
     4
1000
3
1002
{
1002
}
1000
4GENINF
1070
     4
1000
4
1002
{
1002
}
1000
5GENINF
1070
     4
1000
5
1002
{
1002
}
1000
6GENINF
1070
     4
1000
6
1002
{
1002
}
1000
7GENINF
1070
     4
1000
7
1002
{
1002
}
1000
8GENINF
1070
     4
1000
8
1002
{
1002
}
1000
9GENINF
1070
     4
1000
9
1002
{
1002
}
1000
10GENINF
1070
     4
1000
10
1002
{
1002
}
1000
11GENINF
1070
     4
1000
11
1002
{
1002
}
1000
12GENINF
1070
     4
1000
12
1002
{
1002
}
1000
13GENINF
1070
     4
1000
13
1002
{
1002
}
1000
14GENINF
1070
     4
1000
14
1002
{
1002
}
1000
15GENINF
1070
     4
1000
15
1002
{
1002
}
1000
16GENINF
1070
     4
1000
16
1002
{
1002
}
1000
17GENINF
1070
     4
1000
17
1002
{
1002
}
1000
18GENINF
1070
     4
1000
18
1002
{
1002
}
1000
19GENINF
1070
     4
1000
19
1002
{
1002
}
1000
20GENINF
1070
     4
1000
20
1002
{
1002
}
1000
21GENINF
1070
     4
1000
21
1002
{
1002
}
1000
22GENINF
1070
     4
1000
22
1002
{
1002
}
1002
}
1000
DININFO
1070
     0
1002
{
1000
ST-NAME1
1070
     4
1000
5
1002
{
1002
}
1000
ST-NAME2
1070
     4
1000
6
1002
{
1002
}
1000
ST-NORM1
1070
     4
1000
7
1002
{
1002
}
1000
ST-NORM2
1070
     4
1000
8
1002
{
1002
}
1000
ST-MAT1
1070
     4
1000
9
1002
{
1002
}
1000
ST-MAT2
1070
     4
1000
10
1002
{
1002
}
1002
}
1002
}
1000
POS_NUMBERS
1070
     0
1002
{
1000
GENPOS13
1070
     0
1002
{
1000
1GENPOS
1070
     4
1000
1
1002
{
1002
}
1000
2GENPOS
1070
     4
1000
2
1002
{
1002
}
1000
3GENPOS
1070
     4
1000
3
1002
{
1002
}
1000
4GENPOS
1070
     4
1000
4
1002
{
1002
}
1000
5GENPOS
1070
     4
1000
5
1002
{
1002
}
1000
6GENPOS
1070
     4
1000
6
1002
{
1002
}
1000
7GENPOS
1070
     4
1000
7
1002
{
1002
}
1000
8GENPOS
1070
     4
1000
8
1002
{
1002
}
1000
9GENPOS
1070
     4
1000
9
1002
{
1002
}
1000
10GENPOS
1070
     4
1000
10
1002
{
1002
}
1000
11GENPOS
1070
     4
1000
11
1002
{
1002
}
1000
12GENPOS
1070
     4
1000
12
1002
{
1002
}
1000
13GENPOS
1070
     4
1000
13
1002
{
1002
}
1000
14GENPOS
1070
     4
1000
14
1002
{
1002
}
1000
15GENPOS
1070
     4
1000
15
1002
{
1002
}
1000
16GENPOS
1070
     4
1000
16
1002
{
1002
}
1000
17GENPOS
1070
     4
1000
17
1002
{
1002
}
1000
18GENPOS
1070
     4
1000
18
1002
{
1002
}
1000
19GENPOS
1070
     4
1000
19
1002
{
1002
}
1000
20GENPOS
1070
     4
1000
20
1002
{
1002
}
1000
21GENPOS
1070
     4
1000
21
1002
{
1002
}
1000
22GENPOS
1070
     4
1000
22
1002
{
1002
}
1000
23GENPOS
1070
     4
1000
23
1002
{
1002
}
1000
24GENPOS
1070
     4
1000
24
1002
{
1002
}
1000
0GENPOS
1070
     4
1000
0
1002
{
1002
}
1002
}
1000
GENPOS
1070
     0
1002
{
1000
1GENPOS
1070
     4
1000
1
1002
{
1002
}
1000
2GENPOS
1070
     4
1000
2
1002
{
1002
}
1000
3GENPOS
1070
     4
1000
3
1002
{
1002
}
1000
4GENPOS
1070
     4
1000
4
1002
{
1002
}
1000
5GENPOS
1070
     4
1000
5
1002
{
1002
}
1000
6GENPOS
1070
     4
1000
6
1002
{
1002
}
1000
7GENPOS
1070
     4
1000
7
1002
{
1002
}
1000
8GENPOS
1070
     4
1000
8
1002
{
1002
}
1000
9GENPOS
1070
     4
1000
9
1002
{
1002
}
1000
10GENPOS
1070
     4
1000
10
1002
{
1002
}
1000
11GENPOS
1070
     4
1000
11
1002
{
1002
}
1000
12GENPOS
1070
     4
1000
12
1002
{
1002
}
1000
13GENPOS
1070
     4
1000
13
1002
{
1002
}
1000
14GENPOS
1070
     4
1000
14
1002
{
1002
}
1000
15GENPOS
1070
     4
1000
15
1002
{
1002
}
1000
16GENPOS
1070
     4
1000
16
1002
{
1002
}
1000
17GENPOS
1070
     4
1000
17
1002
{
1002
}
1000
18GENPOS
1070
     4
1000
18
1002
{
1002
}
1000
19GENPOS
1070
     4
1000
19
1002
{
1002
}
1000
20GENPOS
1070
     4
1000
20
1002
{
1002
}
1000
21GENPOS
1070
     4
1000
21
1002
{
1002
}
1000
22GENPOS
1070
     4
1000
22
1002
{
1002
}
1000
23GENPOS
1070
     4
1000
23
1002
{
1002
}
1002
}
1000
DIN985
1070
     0
1002
{
1000
POSITION
1070
     4
1000
1
1002
{
1002
}
1000
MENGE
1070
     4
1000
2
1002
{
1002
}
1000
BLATT
1070
     4
1000
3
1002
{
1002
}
1000
BENENN
1070
     4
1000
5
1002
{
1002
}
1000
BENENN2
1070
     4
1000
6
1002
{
1002
}
1000
NORM
1070
     4
1000
7
1002
{
1002
}
1000
NORM2
1070
     4
1000
8
1002
{
1002
}
1000
WERKSTOFF
1070
     4
1000
9
1002
{
1002
}
1000
WERKSTOFF2
1070
     4
1000
10
1002
{
1002
}
1002
}
1000
DIN986
1070
     0
1002
{
1000
POSITION
1070
     4
1000
1
1002
{
1002
}
1000
MENGE
1070
     4
1000
2
1002
{
1002
}
1000
BLATT
1070
     4
1000
3
1002
{
1002
}
1000
BENENN
1070
     4
1000
5
1002
{
1002
}
1000
BENENN2
1070
     4
1000
6
1002
{
1002
}
1000
NORM
1070
     4
1000
7
1002
{
1002
}
1000
NORM2
1070
     4
1000
8
1002
{
1002
}
1000
WERKSTOFF
1070
     4
1000
9
1002
{
1002
}
1000
WERKSTOFF2
1070
     4
1000
10
1002
{
1002
}
1002
}
1000
DIN987
1070
     0
1002
{
1000
POSITION
1070
     4
1000
1
1002
{
1002
}
1000
MENGE
1070
     4
1000
2
1002
{
1002
}
1000
BLATT
1070
     4
1000
3
1002
{
1002
}
1000
BENENN
1070
     4
1000
5
1002
{
1002
}
1000
BENENN2
1070
     4
1000
6
1002
{
1002
}
1000
NORM
1070
     4
1000
7
1002
{
1002
}
1000
NORM2
1070
     4
1000
8
1002
{
1002
}
1000
WERKSTOFF
1070
     4
1000
9
1002
{
1002
}
1000
WERKSTOFF2
1070
     4
1000
10
1002
{
1002
}
1002
}
1002
}
  0
APPID
  5
2B
100
AcDbSymbolTableRecord
100
AcDbRegAppTableRecord
  2
GENIUS_GENCFG1_13
 70
     0
1001
GENIUS_GENCFG_13
1071
862825278
1000
2B
1000
GEN@LAYER@DEFS
1070
     9
1000
GenCfgObject
1000
GenCfgShort
1000
GenCfgReal
1000
GenCfgBool
1000
GenCfgString
1000
GenCfgDim
1000
GenCfgAttrInf
1000
GenCfgLaySection
1000
GenCfgLayer
1000
Basic
1070
     0
1002
{
1000
0
1070
     8
1000
0
1002
{
1000
Color
1070
     1
1070
     7
1002
{
1002
}
1000
LType
1070
     4
1000
CONTINUOUS
1002
{
1002
}
1000
Base
1070
     3
1070
     0
1002
{
1002
}
1002
}
1000
1
1070
     8
1000
1
1002
{
1000
Color
1070
     1
1070
    14
1002
{
1002
}
1000
LType
1070
     4
1000
CONTINUOUS
1002
{
1002
}
1000
Base
1070
     3
1070
     0
1002
{
1002
}
1002
}
1000
2
1070
     8
1000
2
1002
{
1000
Color
1070
     1
1070
     5
1002
{
1002
}
1000
LType
1070
     4
1000
CONTINUOUS
1002
{
1002
}
1000
Base
1070
     3
1070
     0
1002
{
1002
}
1002
}
1000
3
1070
     8
1000
3
1002
{
1000
Color
1070
     1
1070
     6
1002
{
1002
}
1000
LType
1070
     4
1000
GEN3
1002
{
1002
}
1000
Base
1070
     3
1070
     0
1002
{
1002
}
1002
}
1000
4
1070
     8
1000
4
1002
{
1000
Color
1070
     1
1070
     3
1002
{
1002
}
1000
LType
1070
     4
1000
CONTINUOUS
1002
{
1002
}
1000
Base
1070
     3
1070
     0
1002
{
1002
}
1002
}
1000
5
1070
     8
1000
5
1002
{
1000
Color
1070
     1
1070
     3
1002
{
1002
}
1000
LType
1070
     4
1000
CONTINUOUS
1002
{
1002
}
1000
Base
1070
     3
1070
     0
1002
{
1002
}
1002
}
1000
6
1070
     8
1000
6
1002
{
1000
Color
1070
     1
1070
     2
1002
{
1002
}
1000
LType
1070
     4
1000
CONTINUOUS
1002
{
1002
}
1000
Base
1070
     3
1070
     0
1002
{
1002
}
1002
}
1000
7
1070
     8
1000
7
1002
{
1000
Color
1070
     1
1070
     4
1002
{
1002
}
1000
LType
1070
     4
1000
GEN7
1002
{
1002
}
1000
Base
1070
     3
1070
     0
1002
{
1002
}
1002
}
1000
8
1070
     8
1000
8
1002
{
1000
Color
1070
     1
1070
     1
1002
{
1002
}
1000
LType
1070
     4
1000
CONTINUOUS
1002
{
1002
}
1000
Base
1070
     3
1070
     0
1002
{
1002
}
1002
}
1000
3A
1070
     8
1000
3A
1002
{
1000
Color
1070
     1
1070
     6
1002
{
1002
}
1000
LType
1070
     4
1000
GEN3A
1002
{
1002
}
1000
Base
1070
     3
1070
     0
1002
{
1002
}
1002
}
1000
7A
1070
     8
1000
7A
1002
{
1000
Color
1070
     1
1070
     4
1002
{
1002
}
1000
LType
1070
     4
1000
GEN7A
1002
{
1002
}
1000
Base
1070
     3
1070
     0
1002
{
1002
}
1002
}
1000
2A
1070
     8
1000
2A
1002
{
1000
Color
1070
     1
1070
     7
1002
{
1002
}
1000
LType
1070
     4
1000
GEN7
1002
{
1002
}
1000
Base
1070
     3
1070
     0
1002
{
1002
}
1002
}
1000
4A
1070
     8
1000
4A
1002
{
1000
Color
1070
     1
1070
     3
1002
{
1002
}
1000
LType
1070
     4
1000
GEN4A
1002
{
1002
}
1000
Base
1070
     3
1070
     0
1002
{
1002
}
1002
}
1000
9
1070
     8
1000
9
1002
{
1000
Color
1070
     1
1070
   253
1002
{
1002
}
1000
LType
1070
     4
1000
CONTINUOUS
1002
{
1002
}
1000
Base
1070
     3
1070
     0
1002
{
1002
}
1002
}
1002
}
1000
Standard
1070
     0
1002
{
1000
0N
1070
     8
1000
0N
1002
{
1000
Color
1070
     1
1070
     7
1002
{
1002
}
1000
LType
1070
     4
1000
CONTINUOUS
1002
{
1002
}
1000
Base
1070
     3
1070
     0
1002
{
1002
}
1002
}
1000
1N
1070
     8
1000
1N
1002
{
1000
Color
1070
     1
1070
    14
1002
{
1002
}
1000
LType
1070
     4
1000
CONTINUOUS
1002
{
1002
}
1000
Base
1070
     3
1070
     0
1002
{
1002
}
1002
}
1000
2N
1070
     8
1000
2N
1002
{
1000
Color
1070
     1
1070
     5
1002
{
1002
}
1000
LType
1070
     4
1000
CONTINUOUS
1002
{
1002
}
1000
Base
1070
     3
1070
     0
1002
{
1002
}
1002
}
1000
3N
1070
     8
1000
3N
1002
{
1000
Color
1070
     1
1070
     6
1002
{
1002
}
1000
LType
1070
     4
1000
GEN3
1002
{
1002
}
1000
Base
1070
     3
1070
     0
1002
{
1002
}
1002
}
1000
4N
1070
     8
1000
4N
1002
{
1000
Color
1070
     1
1070
     3
1002
{
1002
}
1000
LType
1070
     4
1000
CONTINUOUS
1002
{
1002
}
1000
Base
1070
     3
1070
     0
1002
{
1002
}
1002
}
1000
5N
1070
     8
1000
5N
1002
{
1000
Color
1070
     1
1070
     3
1002
{
1002
}
1000
LType
1070
     4
1000
CONTINUOUS
1002
{
1002
}
1000
Base
1070
     3
1070
     0
1002
{
1002
}
1002
}
1000
6N
1070
     8
1000
6N
1002
{
1000
Color
1070
     1
1070
     2
1002
{
1002
}
1000
LType
1070
     4
1000
CONTINUOUS
1002
{
1002
}
1000
Base
1070
     3
1070
     0
1002
{
1002
}
1002
}
1000
7N
1070
     8
1000
7N
1002
{
1000
Color
1070
     1
1070
     4
1002
{
1002
}
1000
LType
1070
     4
1000
GEN7
1002
{
1002
}
1000
Base
1070
     3
1070
     0
1002
{
1002
}
1002
}
1000
8N
1070
     8
1000
8N
1002
{
1000
Color
1070
     1
1070
     1
1002
{
1002
}
1000
LType
1070
     4
1000
CONTINUOUS
1002
{
1002
}
1000
Base
1070
     3
1070
     0
1002
{
1002
}
1002
}
1000
3AN
1070
     8
1000
3AN
1002
{
1000
Color
1070
     1
1070
     6
1002
{
1002
}
1000
LType
1070
     4
1000
GEN3A
1002
{
1002
}
1000
Base
1070
     3
1070
     0
1002
{
1002
}
1002
}
1000
7AN
1070
     8
1000
7AN
1002
{
1000
Color
1070
     1
1070
     4
1002
{
1002
}
1000
LType
1070
     4
1000
GEN7A
1002
{
1002
}
1000
Base
1070
     3
1070
     0
1002
{
1002
}
1002
}
1000
2AN
1070
     8
1000
2AN
1002
{
1000
Color
1070
     1
1070
     7
1002
{
1002
}
1000
LType
1070
     4
1000
GEN7
1002
{
1002
}
1000
Base
1070
     3
1070
     0
1002
{
1002
}
1002
}
1000
4AN
1070
     8
1000
4AN
1002
{
1000
Color
1070
     1
1070
     3
1002
{
1002
}
1000
LType
1070
     4
1000
GEN4A
1002
{
1002
}
1000
Base
1070
     3
1070
     0
1002
{
1002
}
1002
}
1000
9N
1070
     8
1000
9N
1002
{
1000
Color
1070
     1
1070
   253
1002
{
1002
}
1000
LType
1070
     4
1000
CONTINUOUS
1002
{
1002
}
1000
Base
1070
     3
1070
     0
1002
{
1002
}
1002
}
1002
}
1000
Extra
1070
     0
1002
{
1000
Klin
1070
     8
1000
KLIN
1002
{
1000
Color
1070
     1
1070
     1
1002
{
1002
}
1000
LType
1070
     4
1000
CONTINUOUS
1002
{
1002
}
1000
Base
1070
     3
1070
     1
1002
{
1002
}
1002
}
1000
Info
1070
     8
1000
INFO
1002
{
1000
Color
1070
     1
1070
     4
1002
{
1002
}
1000
LType
1070
     4
1000
CONTINUOUS
1002
{
1002
}
1000
Base
1070
     3
1070
     1
1002
{
1002
}
1002
}
1000
Rahm2
1070
     8
1000
RAHM2
1002
{
1000
Color
1070
     1
1070
     1
1002
{
1002
}
1000
LType
1070
     4
1000
CONTINUOUS
1002
{
1002
}
1000
Base
1070
     3
1070
     1
1002
{
1002
}
1002
}
1000
Rahm3
1070
     8
1000
RAHM3
1002
{
1000
Color
1070
     1
1070
     2
1002
{
1002
}
1000
LType
1070
     4
1000
CONTINUOUS
1002
{
1002
}
1000
Base
1070
     3
1070
     1
1002
{
1002
}
1002
}
1000
Rahm5
1070
     8
1000
RAHM5
1002
{
1000
Color
1070
     1
1070
     7
1002
{
1002
}
1000
LType
1070
     4
1000
CONTINUOUS
1002
{
1002
}
1000
Base
1070
     3
1070
     1
1002
{
1002
}
1002
}
1000
View
1070
     8
1000
VIEW
1002
{
1000
Color
1070
     1
1070
     1
1002
{
1002
}
1000
LType
1070
     4
1000
CONTINUOUS
1002
{
1002
}
1000
Base
1070
     3
1070
     1
1002
{
1002
}
1002
}
1000
Behind
1070
     8
1000
BEHIND
1002
{
1000
Color
1070
     1
1070
   253
1002
{
1002
}
1000
LType
1070
     4
1000
CONTINUOUS
1002
{
1002
}
1000
Base
1070
     3
1070
     1
1002
{
1002
}
1002
}
1002
}
  0
APPID
  5
2C
100
AcDbSymbolTableRecord
100
AcDbRegAppTableRecord
  2
GENIUS_GENCFG2_13
 70
     0
1001
GENIUS_GENCFG_13
1071
862825278
1000
2C
1000
GEN@LAYER@ENTSORT
1070
    10
1000
GenCfgObject
1000
GenCfgShort
1000
GenCfgReal
1000
GenCfgBool
1000
GenCfgString
1000
GenCfgDim
1000
GenCfgAttrInf
1000
GenCfgLaySection
1000
GenCfgLayer
1000
GenCfgEntSort
1000
ALTR
1070
     9
1000
4
1002
{
1000
Class
1070
     4
1000

1002
{
1002
}
1000
Color
1070
     1
1070
     7
1002
{
1002
}
1000
LType
1070
     4
1000
GEN3A
1002
{
1002
}
1002
}
1000
BELI
1070
     9
1000
4
1002
{
1000
Class
1070
     4
1000

1002
{
1002
}
1000
Color
1070
     1
1070
   256
1002
{
1002
}
1000
LType
1070
     4
1000
BYLAYER
1002
{
1002
}
1002
}
1000
BHNV
1070
     9
1000
9
1002
{
1000
Class
1070
     4
1000
INV
1002
{
1002
}
1000
Color
1070
     1
1070
   256
1002
{
1002
}
1000
LType
1070
     4
1000
BYLAYER
1002
{
1002
}
1002
}
1000
BHNVS
1070
     9
1000
BEHIND
1002
{
1000
Class
1070
     4
1000
INV
1002
{
1002
}
1000
Color
1070
     1
1070
   256
1002
{
1002
}
1000
LType
1070
     4
1000
BYLAYER
1002
{
1002
}
1002
}
1000
BLID
1070
     9
1000
4A
1002
{
1000
Class
1070
     4
1000

1002
{
1002
}
1000
Color
1070
     1
1070
   256
1002
{
1002
}
1000
LType
1070
     4
1000
BYLAYER
1002
{
1002
}
1002
}
1000
BOAP
1070
     9
1000
4A
1002
{
1000
Class
1070
     4
1000

1002
{
1002
}
1000
Color
1070
     1
1070
   256
1002
{
1002
}
1000
LType
1070
     4
1000
BYLAYER
1002
{
1002
}
1002
}
1000
BOR2
1070
     9
1000
RAHM2
1002
{
1000
Class
1070
     4
1000
SPZ,SYM
1002
{
1002
}
1000
Color
1070
     1
1070
   256
1002
{
1002
}
1000
LType
1070
     4
1000
BYLAYER
1002
{
1002
}
1002
}
1000
BOR3
1070
     9
1000
RAHM3
1002
{
1000
Class
1070
     4
1000
SPZ,SYM
1002
{
1002
}
1000
Color
1070
     1
1070
   256
1002
{
1002
}
1000
LType
1070
     4
1000
BYLAYER
1002
{
1002
}
1002
}
1000
BOR5
1070
     9
1000
RAHM5
1002
{
1000
Class
1070
     4
1000
SPZ,SYM
1002
{
1002
}
1000
Color
1070
     1
1070
   256
1002
{
1002
}
1000
LType
1070
     4
1000
BYLAYER
1002
{
1002
}
1002
}
1000
BOR7
1070
     9
1000
RAHM5
1002
{
1000
Class
1070
     4
1000
SPZ,SYM
1002
{
1002
}
1000
Color
1070
     1
1070
     7
1002
{
1002
}
1000
LType
1070
     4
1000
CONTINUOUS
1002
{
1002
}
1002
}
1000
BPAP
1070
     9
1000
4A
1002
{
1000
Class
1070
     4
1000

1002
{
1002
}
1000
Color
1070
     1
1070
   256
1002
{
1002
}
1000
LType
1070
     4
1000
BYLAYER
1002
{
1002
}
1002
}
1000
BPEX
1070
     9
1000
4A
1002
{
1000
Class
1070
     4
1000

1002
{
1002
}
1000
Color
1070
     1
1070
   256
1002
{
1002
}
1000
LType
1070
     4
1000
BYLAYER
1002
{
1002
}
1002
}
1000
BTDI
1070
     9
1000
5
1002
{
1000
Class
1070
     4
1000
DIM,SYM
1002
{
1002
}
1000
Color
1070
     1
1070
   256
1002
{
1002
}
1000
LType
1070
     4
1000
BYLAYER
1002
{
1002
}
1002
}
1000
CAL2
1070
     9
1000
4
1002
{
1000
Class
1070
     4
1000
SYM
1002
{
1002
}
1000
Color
1070
     1
1070
   256
1002
{
1002
}
1000
LType
1070
     4
1000
BYLAYER
1002
{
1002
}
1002
}
1000
CAL3
1070
     9
1000
4
1002
{
1000
Class
1070
     4
1000
SYM
1002
{
1002
}
1000
Color
1070
     1
1070
     2
1002
{
1002
}
1000
LType
1070
     4
1000
BYLAYER
1002
{
1002
}
1002
}
1000
CAL5
1070
     9
1000
4
1002
{
1000
Class
1070
     4
1000
SYM
1002
{
1002
}
1000
Color
1070
     1
1070
     7
1002
{
1002
}
1000
LType
1070
     4
1000
BYLAYER
1002
{
1002
}
1002
}
1000
CAL7
1070
     9
1000
4
1002
{
1000
Class
1070
     4
1000
SYM
1002
{
1002
}
1000
Color
1070
     1
1070
     5
1002
{
1002
}
1000
LType
1070
     4
1000
BYLAYER
1002
{
1002
}
1002
}
1000
CENN
1070
     9
1000
7A
1002
{
1000
Class
1070
     4
1000
CEN
1002
{
1002
}
1000
Color
1070
     1
1070
   256
1002
{
1002
}
1000
LType
1070
     4
1000
BYLAYER
1002
{
1002
}
1002
}
1000
CENW
1070
     9
1000
7
1002
{
1000
Class
1070
     4
1000
CEN
1002
{
1002
}
1000
Color
1070
     1
1070
   256
1002
{
1002
}
1000
LType
1070
     4
1000
BYLAYER
1002
{
1002
}
1002
}
1000
CLIN
1070
     9
1000
KLIN
1002
{
1000
Class
1070
     4
1000
SPZ
1002
{
1002
}
1000
Color
1070
     1
1070
   256
1002
{
1002
}
1000
LType
1070
     4
1000
BYLAYER
1002
{
1002
}
1002
}
1000
CON1
1070
     9
1000
0
1002
{
1000
Class
1070
     4
1000
CON,BGD
1002
{
1002
}
1000
Color
1070
     1
1070
   256
1002
{
1002
}
1000
LType
1070
     4
1000
BYLAYER
1002
{
1002
}
1002
}
1000
CON2
1070
     9
1000
1
1002
{
1000
Class
1070
     4
1000
CON,BGD
1002
{
1002
}
1000
Color
1070
     1
1070
   256
1002
{
1002
}
1000
LType
1070
     4
1000
BYLAYER
1002
{
1002
}
1002
}
1000
CON3
1070
     9
1000
2
1002
{
1000
Class
1070
     4
1000
CON,BGD
1002
{
1002
}
1000
Color
1070
     1
1070
   256
1002
{
1002
}
1000
LType
1070
     4
1000
BYLAYER
1002
{
1002
}
1002
}
1000
CON4
1070
     9
1000
2
1002
{
1000
Class
1070
     4
1000
CON,BGD
1002
{
1002
}
1000
Color
1070
     1
1070
   256
1002
{
1002
}
1000
LType
1070
     4
1000
BYLAYER
1002
{
1002
}
1002
}
1000
DERP
1070
     9
1000
4
1002
{
1000
Class
1070
     4
1000

1002
{
1002
}
1000
Color
1070
     1
1070
   256
1002
{
1002
}
1000
LType
1070
     4
1000
BYLAYER
1002
{
1002
}
1002
}
1000
DETA
1070
     9
1000
4
1002
{
1000
Class
1070
     4
1000

1002
{
1002
}
1000
Color
1070
     1
1070
   256
1002
{
1002
}
1000
LType
1070
     4
1000
BYLAYER
1002
{
1002
}
1002
}
1000
DIAG
1070
     9
1000
5
1002
{
1000
Class
1070
     4
1000
SYM
1002
{
1002
}
1000
Color
1070
     1
1070
   256
1002
{
1002
}
1000
LType
1070
     4
1000
BYLAYER
1002
{
1002
}
1002
}
1000
DILI
1070
     9
1000
5
1002
{
1000
Class
1070
     4
1000
DIM,SYM
1002
{
1002
}
1000
Color
1070
     1
1070
   256
1002
{
1002
}
1000
LType
1070
     4
1000
BYLAYER
1002
{
1002
}
1002
}
1000
DITX
1070
     9
1000
5
1002
{
1000
Class
1070
     4
1000
DIM,SYM
1002
{
1002
}
1000
Color
1070
     1
1070
     2
1002
{
1002
}
1000
LType
1070
     4
1000
CONTINUOUS
1002
{
1002
}
1002
}
1000
DITO2
1070
     9
1000
5
1002
{
1000
Class
1070
     4
1000
DIM,SYM
1002
{
1002
}
1000
Color
1070
     1
1070
     3
1002
{
1002
}
1000
LType
1070
     4
1000
BYLAYER
1002
{
1002
}
1002
}
1000
DITO3
1070
     9
1000
5
1002
{
1000
Class
1070
     4
1000
DIM,SYM
1002
{
1002
}
1000
Color
1070
     1
1070
     2
1002
{
1002
}
1000
LType
1070
     4
1000
BYLAYER
1002
{
1002
}
1002
}
1000
DIXL
1070
     9
1000
5
1002
{
1000
Class
1070
     4
1000
DIM,SYM
1002
{
1002
}
1000
Color
1070
     1
1070
   256
1002
{
1002
}
1000
LType
1070
     4
1000
BYLAYER
1002
{
1002
}
1002
}
1000
EXMP
1070
     9
1000
4A
1002
{
1000
Class
1070
     4
1000

1002
{
1002
}
1000
Color
1070
     1
1070
   256
1002
{
1002
}
1000
LType
1070
     4
1000
BYLAYER
1002
{
1002
}
1002
}
1000
FEMN
1070
     9
1000
8
1002
{
1000
Class
1070
     4
1000

1002
{
1002
}
1000
Color
1070
     1
1070
   256
1002
{
1002
}
1000
LType
1070
     4
1000
BYLAYER
1002
{
1002
}
1002
}
1000
FEMPN
1070
     9
1000
8
1002
{
1000
Class
1070
     4
1000
SYM
1002
{
1002
}
1000
Color
1070
     1
1070
     3
1002
{
1002
}
1000
LType
1070
     4
1000
BYLAYER
1002
{
1002
}
1002
}
1000
FEMSP
1070
     9
1000
4A
1002
{
1000
Class
1070
     4
1000

1002
{
1002
}
1000
Color
1070
     1
1070
   256
1002
{
1002
}
1000
LType
1070
     4
1000
CONTINUOUS
1002
{
1002
}
1002
}
1000
FEMST
1070
     9
1000
4A
1002
{
1000
Class
1070
     4
1000
SYM
1002
{
1002
}
1000
Color
1070
     1
1070
     3
1002
{
1002
}
1000
LType
1070
     4
1000
BYLAYER
1002
{
1002
}
1002
}
1000
FEMVN
1070
     9
1000
2
1002
{
1000
Class
1070
     4
1000
CON
1002
{
1002
}
1000
Color
1070
     1
1070
   256
1002
{
1002
}
1000
LType
1070
     4
1000
BYLAYER
1002
{
1002
}
1002
}
1000
FEMVT
1070
     9
1000
2
1002
{
1000
Class
1070
     4
1000
SYM
1002
{
1002
}
1000
Color
1070
     1
1070
     3
1002
{
1002
}
1000
LType
1070
     4
1000
BYLAYER
1002
{
1002
}
1002
}
1000
FLAT
1070
     9
1000
0
1002
{
1000
Class
1070
     4
1000

1002
{
1002
}
1000
Color
1070
     1
1070
   256
1002
{
1002
}
1000
LType
1070
     4
1000
BYLAYER
1002
{
1002
}
1002
}
1000
FRAR
1070
     9
1000
4A
1002
{
1000
Class
1070
     4
1000

1002
{
1002
}
1000
Color
1070
     1
1070
   256
1002
{
1002
}
1000
LType
1070
     4
1000
BYLAYER
1002
{
1002
}
1002
}
1000
GRLI
1070
     9
1000
5
1002
{
1000
Class
1070
     4
1000
SYM
1002
{
1002
}
1000
Color
1070
     1
1070
   256
1002
{
1002
}
1000
LType
1070
     4
1000
BYLAYER
1002
{
1002
}
1002
}
1000
GVLI
1070
     9
1000
4A
1002
{
1000
Class
1070
     4
1000

1002
{
1002
}
1000
Color
1070
     1
1070
   256
1002
{
1002
}
1000
LType
1070
     4
1000
BYLAYER
1002
{
1002
}
1002
}
1000
HATC
1070
     9
1000
8
1002
{
1000
Class
1070
     4
1000
HTC,BGD
1002
{
1002
}
1000
Color
1070
     1
1070
   256
1002
{
1002
}
1000
LType
1070
     4
1000
BYLAYER
1002
{
1002
}
1002
}
1000
HIDN
1070
     9
1000
3A
1002
{
1000
Class
1070
     4
1000
HID,BGD
1002
{
1002
}
1000
Color
1070
     1
1070
   256
1002
{
1002
}
1000
LType
1070
     4
1000
BYLAYER
1002
{
1002
}
1002
}
1000
HIDW
1070
     9
1000
3
1002
{
1000
Class
1070
     4
1000
HID,BGD
1002
{
1002
}
1000
Color
1070
     1
1070
   256
1002
{
1002
}
1000
LType
1070
     4
1000
BYLAYER
1002
{
1002
}
1002
}
1000
HLIN
1070
     9
1000
4
1002
{
1000
Class
1070
     4
1000
BGD
1002
{
1002
}
1000
Color
1070
     1
1070
   256
1002
{
1002
}
1000
LType
1070
     4
1000
BYLAYER
1002
{
1002
}
1002
}
1000
HOCN
1070
     9
1000
7A
1002
{
1000
Class
1070
     4
1000
CEN
1002
{
1002
}
1000
Color
1070
     1
1070
   256
1002
{
1002
}
1000
LType
1070
     4
1000
BYLAYER
1002
{
1002
}
1002
}
1000
HOCW
1070
     9
1000
7
1002
{
1000
Class
1070
     4
1000
CEN
1002
{
1002
}
1000
Color
1070
     1
1070
   256
1002
{
1002
}
1000
LType
1070
     4
1000
BYLAYER
1002
{
1002
}
1002
}
1000
INFO
1070
     9
1000
INFO
1002
{
1000
Class
1070
     4
1000
SPZ,SYM
1002
{
1002
}
1000
Color
1070
     1
1070
   256
1002
{
1002
}
1000
LType
1070
     4
1000
BYLAYER
1002
{
1002
}
1002
}
1000
LADI
1070
     9
1000
4
1002
{
1000
Class
1070
     4
1000
BGD
1002
{
1002
}
1000
Color
1070
     1
1070
   256
1002
{
1002
}
1000
LType
1070
     4
1000
BYLAYER
1002
{
1002
}
1002
}
1000
LEAD
1070
     9
1000
5
1002
{
1000
Class
1070
     4
1000
SYM
1002
{
1002
}
1000
Color
1070
     1
1070
   256
1002
{
1002
}
1000
LType
1070
     4
1000
BYLAYER
1002
{
1002
}
1002
}
1000
N_BHNV
1070
     9
1000
9N
1002
{
1000
Class
1070
     4
1000
INV
1002
{
1002
}
1000
Color
1070
     1
1070
   256
1002
{
1002
}
1000
LType
1070
     4
1000
BYLAYER
1002
{
1002
}
1002
}
1000
N_CON1
1070
     9
1000
0N
1002
{
1000
Class
1070
     4
1000
CON,BGD
1002
{
1002
}
1000
Color
1070
     1
1070
   256
1002
{
1002
}
1000
LType
1070
     4
1000
BYLAYER
1002
{
1002
}
1002
}
1000
N_CON2
1070
     9
1000
1N
1002
{
1000
Class
1070
     4
1000
CON,BGD
1002
{
1002
}
1000
Color
1070
     1
1070
   256
1002
{
1002
}
1000
LType
1070
     4
1000
BYLAYER
1002
{
1002
}
1002
}
1000
N_CON3
1070
     9
1000
2N
1002
{
1000
Class
1070
     4
1000
CON,BGD
1002
{
1002
}
1000
Color
1070
     1
1070
   256
1002
{
1002
}
1000
LType
1070
     4
1000
BYLAYER
1002
{
1002
}
1002
}
1000
N_CON4
1070
     9
1000
2N
1002
{
1000
Class
1070
     4
1000
CON,BGD
1002
{
1002
}
1000
Color
1070
     1
1070
   256
1002
{
1002
}
1000
LType
1070
     4
1000
BYLAYER
1002
{
1002
}
1002
}
1000
N_CENN
1070
     9
1000
7AN
1002
{
1000
Class
1070
     4
1000
CEN
1002
{
1002
}
1000
Color
1070
     1
1070
   256
1002
{
1002
}
1000
LType
1070
     4
1000
BYLAYER
1002
{
1002
}
1002
}
1000
N_CENW
1070
     9
1000
7N
1002
{
1000
Class
1070
     4
1000
CEN
1002
{
1002
}
1000
Color
1070
     1
1070
   256
1002
{
1002
}
1000
LType
1070
     4
1000
BYLAYER
1002
{
1002
}
1002
}
1000
N_DILI
1070
     9
1000
5N
1002
{
1000
Class
1070
     4
1000
DIM,SYM
1002
{
1002
}
1000
Color
1070
     1
1070
   256
1002
{
1002
}
1000
LType
1070
     4
1000
BYLAYER
1002
{
1002
}
1002
}
1000
N_DITX
1070
     9
1000
5N
1002
{
1000
Class
1070
     4
1000
DIM,SYM
1002
{
1002
}
1000
Color
1070
     1
1070
     2
1002
{
1002
}
1000
LType
1070
     4
1000
CONTINUOUS
1002
{
1002
}
1002
}
1000
N_DIXL
1070
     9
1000
5N
1002
{
1000
Class
1070
     4
1000
DIM,SYM
1002
{
1002
}
1000
Color
1070
     1
1070
   256
1002
{
1002
}
1000
LType
1070
     4
1000
BYLAYER
1002
{
1002
}
1002
}
1000
N_HATC
1070
     9
1000
8N
1002
{
1000
Class
1070
     4
1000
HTC,BGD
1002
{
1002
}
1000
Color
1070
     1
1070
   256
1002
{
1002
}
1000
LType
1070
     4
1000
BYLAYER
1002
{
1002
}
1002
}
1000
N_HIDN
1070
     9
1000
3AN
1002
{
1000
Class
1070
     4
1000
HID,BGD
1002
{
1002
}
1000
Color
1070
     1
1070
   256
1002
{
1002
}
1000
LType
1070
     4
1000
BYLAYER
1002
{
1002
}
1002
}
1000
N_HIDW
1070
     9
1000
3N
1002
{
1000
Class
1070
     4
1000
HID,BGD
1002
{
1002
}
1000
Color
1070
     1
1070
   256
1002
{
1002
}
1000
LType
1070
     4
1000
BYLAYER
1002
{
1002
}
1002
}
1000
N_PHAN
1070
     9
1000
4AN
1002
{
1000
Class
1070
     4
1000

1002
{
1002
}
1000
Color
1070
     1
1070
   256
1002
{
1002
}
1000
LType
1070
     4
1000
BYLAYER
1002
{
1002
}
1002
}
1000
N_POSL
1070
     9
1000
5N
1002
{
1000
Class
1070
     4
1000
SYM
1002
{
1002
}
1000
Color
1070
     1
1070
   256
1002
{
1002
}
1000
LType
1070
     4
1000
BYLAYER
1002
{
1002
}
1002
}
1000
N_TCON
1070
     9
1000
0N
1002
{
1000
Class
1070
     4
1000
CON,BGD
1002
{
1002
}
1000
Color
1070
     1
1070
   256
1002
{
1002
}
1000
LType
1070
     4
1000
BYLAYER
1002
{
1002
}
1002
}
1000
N_THLI
1070
     9
1000
4N
1002
{
1000
Class
1070
     4
1000
BGD
1002
{
1002
}
1000
Color
1070
     1
1070
   256
1002
{
1002
}
1000
LType
1070
     4
1000
BYLAYER
1002
{
1002
}
1002
}
1000
N_TLEN
1070
     9
1000
0N
1002
{
1000
Class
1070
     4
1000
CON,BGD
1002
{
1002
}
1000
Color
1070
     1
1070
   256
1002
{
1002
}
1000
LType
1070
     4
1000
BYLAYER
1002
{
1002
}
1002
}
1000
N_TXT3
1070
     9
1000
6N
1002
{
1000
Class
1070
     4
1000
SYM
1002
{
1002
}
1000
Color
1070
     1
1070
   256
1002
{
1002
}
1000
LType
1070
     4
1000
BYLAYER
1002
{
1002
}
1002
}
1000
N_VPLI
1070
     9
1000
2AN
1002
{
1000
Class
1070
     4
1000

1002
{
1002
}
1000
Color
1070
     1
1070
   256
1002
{
1002
}
1000
LType
1070
     4
1000
BYLAYER
1002
{
1002
}
1002
}
1000
PAL2
1070
     9
1000
RAHM2
1002
{
1000
Class
1070
     4
1000
SPZ,SYM
1002
{
1002
}
1000
Color
1070
     1
1070
   256
1002
{
1002
}
1000
LType
1070
     4
1000
BYLAYER
1002
{
1002
}
1002
}
1000
PAL3
1070
     9
1000
RAHM3
1002
{
1000
Class
1070
     4
1000
SPZ,SYM
1002
{
1002
}
1000
Color
1070
     1
1070
   256
1002
{
1002
}
1000
LType
1070
     4
1000
BYLAYER
1002
{
1002
}
1002
}
1000
PAL5
1070
     9
1000
RAHM5
1002
{
1000
Class
1070
     4
1000
SPZ,SYM
1002
{
1002
}
1000
Color
1070
     1
1070
   256
1002
{
1002
}
1000
LType
1070
     4
1000
BYLAYER
1002
{
1002
}
1002
}
1000
PAL7
1070
     9
1000
RAHM5
1002
{
1000
Class
1070
     4
1000
SPZ,SYM
1002
{
1002
}
1000
Color
1070
     1
1070
     7
1002
{
1002
}
1000
LType
1070
     4
1000
CONTINUOUS
1002
{
1002
}
1002
}
1000
PHAN
1070
     9
1000
4A
1002
{
1000
Class
1070
     4
1000

1002
{
1002
}
1000
Color
1070
     1
1070
   256
1002
{
1002
}
1000
LType
1070
     4
1000
BYLAYER
1002
{
1002
}
1002
}
1000
POSL
1070
     9
1000
5
1002
{
1000
Class
1070
     4
1000
SYM
1002
{
1002
}
1000
Color
1070
     1
1070
   256
1002
{
1002
}
1000
LType
1070
     4
1000
BYLAYER
1002
{
1002
}
1002
}
1000
POSN
1070
     9
1000
6
1002
{
1000
Class
1070
     4
1000
SYM
1002
{
1002
}
1000
Color
1070
     1
1070
     7
1002
{
1002
}
1000
LType
1070
     4
1000
BYLAYER
1002
{
1002
}
1002
}
1000
POSREF
1070
     9
1000
6
1002
{
1000
Class
1070
     4
1000
SYM
1002
{
1002
}
1000
Color
1070
     1
1070
     5
1002
{
1002
}
1000
LType
1070
     4
1000
BYLAYER
1002
{
1002
}
1002
}
1000
POSX
1070
     9
1000
5
1002
{
1000
Class
1070
     4
1000
SYM
1002
{
1002
}
1000
Color
1070
     1
1070
     2
1002
{
1002
}
1000
LType
1070
     4
1000
CONTINUOUS
1002
{
1002
}
1002
}
1000
PSEC
1070
     9
1000
4A
1002
{
1000
Class
1070
     4
1000

1002
{
1002
}
1000
Color
1070
     1
1070
   256
1002
{
1002
}
1000
LType
1070
     4
1000
BYLAYER
1002
{
1002
}
1002
}
1000
RCGN
1070
     9
1000
7A
1002
{
1000
Class
1070
     4
1000
CEN
1002
{
1002
}
1000
Color
1070
     1
1070
   256
1002
{
1002
}
1000
LType
1070
     4
1000
BYLAYER
1002
{
1002
}
1002
}
1000
RCGW
1070
     9
1000
7
1002
{
1000
Class
1070
     4
1000
CEN
1002
{
1002
}
1000
Color
1070
     1
1070
   256
1002
{
1002
}
1000
LType
1070
     4
1000
BYLAYER
1002
{
1002
}
1002
}
1000
RFDI
1070
     9
1000
4
1002
{
1000
Class
1070
     4
1000
BGD
1002
{
1002
}
1000
Color
1070
     1
1070
   256
1002
{
1002
}
1000
LType
1070
     4
1000
BYLAYER
1002
{
1002
}
1002
}
1000
RQTR
1070
     9
1000
4
1002
{
1000
Class
1070
     4
1000

1002
{
1002
}
1000
Color
1070
     1
1070
     7
1002
{
1002
}
1000
LType
1070
     4
1000
GEN7A
1002
{
1002
}
1002
}
1000
RSBO
1070
     9
1000
4
1002
{
1000
Class
1070
     4
1000
BGD
1002
{
1002
}
1000
Color
1070
     1
1070
   256
1002
{
1002
}
1000
LType
1070
     4
1000
BYLAYER
1002
{
1002
}
1002
}
1000
SBRK
1070
     9
1000
4
1002
{
1000
Class
1070
     4
1000
BGD
1002
{
1002
}
1000
Color
1070
     1
1070
   256
1002
{
1002
}
1000
LType
1070
     4
1000
BYLAYER
1002
{
1002
}
1002
}
1000
SCEN
1070
     9
1000
7
1002
{
1000
Class
1070
     4
1000

1002
{
1002
}
1000
Color
1070
     1
1070
   256
1002
{
1002
}
1000
LType
1070
     4
1000
CONTINUOUS
1002
{
1002
}
1002
}
1000
SECT
1070
     9
1000
4
1002
{
1000
Class
1070
     4
1000
BGD
1002
{
1002
}
1000
Color
1070
     1
1070
   256
1002
{
1002
}
1000
LType
1070
     4
1000
BYLAYER
1002
{
1002
}
1002
}
1000
SELN
1070
     9
1000
7A
1002
{
1000
Class
1070
     4
1000

1002
{
1002
}
1000
Color
1070
     1
1070
   256
1002
{
1002
}
1000
LType
1070
     4
1000
BYLAYER
1002
{
1002
}
1002
}
1000
SELW
1070
     9
1000
7
1002
{
1000
Class
1070
     4
1000

1002
{
1002
}
1000
Color
1070
     1
1070
   256
1002
{
1002
}
1000
LType
1070
     4
1000
BYLAYER
1002
{
1002
}
1002
}
1000
SSYS
1070
     9
1000
0
1002
{
1000
Class
1070
     4
1000

1002
{
1002
}
1000
Color
1070
     1
1070
   256
1002
{
1002
}
1000
LType
1070
     4
1000
BYLAYER
1002
{
1002
}
1002
}
1000
STLI
1070
     9
1000
4
1002
{
1000
Class
1070
     4
1000

1002
{
1002
}
1000
Color
1070
     1
1070
     7
1002
{
1002
}
1000
LType
1070
     4
1000
GEN3A
1002
{
1002
}
1002
}
1000
SYB1
1070
     9
1000
5
1002
{
1000
Class
1070
     4
1000
SYM
1002
{
1002
}
1000
Color
1070
     1
1070
   256
1002
{
1002
}
1000
LType
1070
     4
1000
BYLAYER
1002
{
1002
}
1002
}
1000
SYB2
1070
     9
1000
5
1002
{
1000
Class
1070
     4
1000
SYM
1002
{
1002
}
1000
Color
1070
     1
1070
   256
1002
{
1002
}
1000
LType
1070
     4
1000
BYLAYER
1002
{
1002
}
1002
}
1000
SYB3
1070
     9
1000
6
1002
{
1000
Class
1070
     4
1000
SYM
1002
{
1002
}
1000
Color
1070
     1
1070
   256
1002
{
1002
}
1000
LType
1070
     4
1000
CONTINUOUS
1002
{
1002
}
1002
}
1000
SYB5
1070
     9
1000
5
1002
{
1000
Class
1070
     4
1000
SYM
1002
{
1002
}
1000
Color
1070
     1
1070
     7
1002
{
1002
}
1000
LType
1070
     4
1000
BYLAYER
1002
{
1002
}
1002
}
1000
SYMN
1070
     9
1000
7A
1002
{
1000
Class
1070
     4
1000
CEN
1002
{
1002
}
1000
Color
1070
     1
1070
   256
1002
{
1002
}
1000
LType
1070
     4
1000
BYLAYER
1002
{
1002
}
1002
}
1000
SYMW
1070
     9
1000
7
1002
{
1000
Class
1070
     4
1000
CEN
1002
{
1002
}
1000
Color
1070
     1
1070
   256
1002
{
1002
}
1000
LType
1070
     4
1000
BYLAYER
1002
{
1002
}
1002
}
1000
TCON
1070
     9
1000
0
1002
{
1000
Class
1070
     4
1000
CON,BGD
1002
{
1002
}
1000
Color
1070
     1
1070
   256
1002
{
1002
}
1000
LType
1070
     4
1000
BYLAYER
1002
{
1002
}
1002
}
1000
THLI
1070
     9
1000
4
1002
{
1000
Class
1070
     4
1000
BGD
1002
{
1002
}
1000
Color
1070
     1
1070
   256
1002
{
1002
}
1000
LType
1070
     4
1000
BYLAYER
1002
{
1002
}
1002
}
1000
TIT2
1070
     9
1000
RAHM2
1002
{
1000
Class
1070
     4
1000
SPZ,SYM
1002
{
1002
}
1000
Color
1070
     1
1070
   256
1002
{
1002
}
1000
LType
1070
     4
1000
BYLAYER
1002
{
1002
}
1002
}
1000
TIT3
1070
     9
1000
RAHM3
1002
{
1000
Class
1070
     4
1000
SPZ,SYM
1002
{
1002
}
1000
Color
1070
     1
1070
   256
1002
{
1002
}
1000
LType
1070
     4
1000
BYLAYER
1002
{
1002
}
1002
}
1000
TIT5
1070
     9
1000
RAHM5
1002
{
1000
Class
1070
     4
1000
SPZ,SYM
1002
{
1002
}
1000
Color
1070
     1
1070
   256
1002
{
1002
}
1000
LType
1070
     4
1000
BYLAYER
1002
{
1002
}
1002
}
1000
TIT7
1070
     9
1000
RAHM5
1002
{
1000
Class
1070
     4
1000
SPZ,SYM
1002
{
1002
}
1000
Color
1070
     1
1070
     7
1002
{
1002
}
1000
LType
1070
     4
1000
CONTINUOUS
1002
{
1002
}
1002
}
1000
TLEN
1070
     9
1000
0
1002
{
1000
Class
1070
     4
1000
CON,BGD
1002
{
1002
}
1000
Color
1070
     1
1070
   256
1002
{
1002
}
1000
LType
1070
     4
1000
BYLAYER
1002
{
1002
}
1002
}
1000
TRKN
1070
     9
1000
7A
1002
{
1000
Class
1070
     4
1000

1002
{
1002
}
1000
Color
1070
     1
1070
   256
1002
{
1002
}
1000
LType
1070
     4
1000
BYLAYER
1002
{
1002
}
1002
}
1000
TRKW
1070
     9
1000
7
1002
{
1000
Class
1070
     4
1000

1002
{
1002
}
1000
Color
1070
     1
1070
   256
1002
{
1002
}
1000
LType
1070
     4
1000
BYLAYER
1002
{
1002
}
1002
}
1000
TRLI
1070
     9
1000
4
1002
{
1000
Class
1070
     4
1000
BGD
1002
{
1002
}
1000
Color
1070
     1
1070
   256
1002
{
1002
}
1000
LType
1070
     4
1000
BYLAYER
1002
{
1002
}
1002
}
1000
TXT1
1070
     9
1000
6
1002
{
1000
Class
1070
     4
1000
SYM
1002
{
1002
}
1000
Color
1070
     1
1070
     2
1002
{
1002
}
1000
LType
1070
     4
1000
BYLAYER
1002
{
1002
}
1002
}
1000
TXT2
1070
     9
1000
6
1002
{
1000
Class
1070
     4
1000
SYM
1002
{
1002
}
1000
Color
1070
     1
1070
     2
1002
{
1002
}
1000
LType
1070
     4
1000
BYLAYER
1002
{
1002
}
1002
}
1000
TXT3
1070
     9
1000
6
1002
{
1000
Class
1070
     4
1000
SYM
1002
{
1002
}
1000
Color
1070
     1
1070
   256
1002
{
1002
}
1000
LType
1070
     4
1000
BYLAYER
1002
{
1002
}
1002
}
1000
TXT5
1070
     9
1000
6
1002
{
1000
Class
1070
     4
1000
SYM
1002
{
1002
}
1000
Color
1070
     1
1070
     7
1002
{
1002
}
1000
LType
1070
     4
1000
BYLAYER
1002
{
1002
}
1002
}
1000
TXT7
1070
     9
1000
6
1002
{
1000
Class
1070
     4
1000
SYM
1002
{
1002
}
1000
Color
1070
     1
1070
     7
1002
{
1002
}
1000
LType
1070
     4
1000
BYLAYER
1002
{
1002
}
1002
}
1000
VIEW
1070
     9
1000
VIEW
1002
{
1000
Class
1070
     4
1000
SPZ
1002
{
1002
}
1000
Color
1070
     1
1070
   256
1002
{
1002
}
1000
LType
1070
     4
1000
BYLAYER
1002
{
1002
}
1002
}
1000
VPLI
1070
     9
1000
2A
1002
{
1000
Class
1070
     4
1000

1002
{
1002
}
1000
Color
1070
     1
1070
   256
1002
{
1002
}
1000
LType
1070
     4
1000
BYLAYER
1002
{
1002
}
1002
}
1000
ZIZA
1070
     9
1000
4
1002
{
1000
Class
1070
     4
1000
BGD
1002
{
1002
}
1000
Color
1070
     1
1070
   256
1002
{
1002
}
1000
LType
1070
     4
1000
GENZIGZAG
1002
{
1002
}
1002
}
  0
APPID
  5
2D
100
AcDbSymbolTableRecord
100
AcDbRegAppTableRecord
  2
GENIUS_GENCFG3_13
 70
     0
1001
GENIUS_GENCFG_13
1071
862825278
1000
2D
1000
GEN@OSWIZ
1070
    12
1000
GenCfgObject
1000
GenCfgShort
1000
GenCfgReal
1000
GenCfgBool
1000
GenCfgString
1000
GenCfgDim
1000
GenCfgAttrInf
1000
GenCfgLaySection
1000
GenCfgLayer
1000
GenCfgEntSort
1000
GenCfgLType
1000
GenCfgFilter
1000
AngleStep
1070
     0
1002
{
1000
M
1070
     2
1040
10.0
1002
{
1002
}
1000
I
1070
     2
1040
0.4
1002
{
1002
}
1002
}
1000
AngleIncr
1070
     2
1040
45.0
1002
{
1002
}
1000
Filter
1070
     0
1002
{
1000
HATCH
1070
    11
1002
{
1000
EntityType
1070
     4
1000
LINE
1002
{
1002
}
1000
Layer
1070
     4
1000
8,8N,*-8,*-8N
1002
{
1002
}
1000
Linetype
1070
     4
1000
*
1002
{
1002
}
1000
Color
1070
     4
1000
*
1002
{
1002
}
1002
}
1000
SYMBOLS
1070
    11
1002
{
1000
EntityType
1070
     4
1000
*
1002
{
1002
}
1000
Layer
1070
     4
1000
[5-6],[5-6]N,*-[5-6],*-[5-6]N
1002
{
1002
}
1000
Linetype
1070
     4
1000
*
1002
{
1002
}
1000
Color
1070
     4
1000
*
1002
{
1002
}
1002
}
1000
FEM
1070
    11
1002
{
1000
EntityType
1070
     4
1000
*
1002
{
1002
}
1000
Layer
1070
     4
1000
4A,4AN,*-4A,*-4AN
1002
{
1002
}
1000
Linetype
1070
     4
1000
*
1002
{
1002
}
1000
Color
1070
     4
1000
*
1002
{
1002
}
1002
}
1002
}
1000
IconSize
1070
     2
1040
1.0
1002
{
1002
}
1000
SnapColor
1070
     1
1070
     3
1002
{
1002
}
  0
APPID
  5
2E
100
AcDbSymbolTableRecord
100
AcDbRegAppTableRecord
  2
GENIUS_GENCFG4_13
 70
     0
1001
GENIUS_GENCFG_13
1071
893409832
1000
2E
1000
GEN
1070
     9
1000
GenCfgObject
1000
GenCfgShort
1000
GenCfgReal
1000
GenCfgBool
1000
GenCfgString
1000
GenCfgDim
1000
GenCfgAttrInf
1000
GenCfgLaySection
1000
GenCfgLType
1000
Balloon
1070
     0
1002
{
1000
GenIF
1070
     1
1070
     0
1002
{
1002
}
1000
GenPosInc
1070
     1
1070
    10
1002
{
1002
}
1000
GenPosBlk
1070
     1
1070
     8
1002
{
1002
}
1000
GenPosVar
1070
     1
1070
     2
1002
{
1002
}
1000
GenZiCir
1070
     2
1040
1.5
1002
{
1002
}
1000
MaxCharForCenteredText
1070
     1
1070
    30
1002
{
1002
}
1000
Snap
1070
     0
1002
{
1000
ActivationRadius
1070
     2
1040
1.0
1002
{
1002
}
1000
M
1070
     0
1002
{
1000
SnapStepX
1070
     2
1040
20.0
1002
{
1002
}
1000
SnapStepY
1070
     2
1040
10.0
1002
{
1002
}
1002
}
1000
I
1070
     0
1002
{
1000
SnapStepX
1070
     2
1040
1.0
1002
{
1002
}
1000
SnapStepY
1070
     2
1040
0.5
1002
{
1002
}
1002
}
1002
}
1002
}
1000
Centerline
1070
     0
1002
{
1000
ScaleNot
1070
     3
1070
     1
1002
{
1002
}
1000
M
1070
     0
1002
{
1000
GenCenAng
1070
     4
1000
45|90|135
1002
{
1002
}
1000
GenCenDia
1070
     2
1040
10.0
1002
{
1002
}
1000
GenCenDias
1070
     4
1000
10|20|30
1002
{
1002
}
1000
GenCenDist
1070
     2
1040
3.0
1002
{
1002
}
1000
GenCenLen
1070
     2
1040
10.0
1002
{
1002
}
1000
GenCenOff
1070
     2
1040
10.0
1002
{
1002
}
1002
}
1000
I
1070
     0
1002
{
1000
GenCenAng
1070
     4
1000
45|90|135
1002
{
1002
}
1000
GenCenDia
1070
     2
1040
0.5
1002
{
1002
}
1000
GenCenDias
1070
     4
1000
0.5|1.0|1.5
1002
{
1002
}
1000
GenCenDist
1070
     2
1040
0.125
1002
{
1002
}
1000
GenCenLen
1070
     2
1040
0.5
1002
{
1002
}
1000
GenCenOff
1070
     2
1040
0.5
1002
{
1002
}
1002
}
1002
}
1000
CLine
1070
     0
1002
{
1000
CAngArray
1070
     4
1000
30|45|60
1002
{
1002
}
1000
Typ
1070
     4
1000
XLINE
1002
{
1002
}
1000
M
1070
     0
1002
{
1000
CLinArray
1070
     4
1000
60
1002
{
1002
}
1002
}
1000
I
1070
     0
1002
{
1000
CLinArray
1070
     4
1000
0.125|0.25|0.5
1002
{
1002
}
1002
}
1002
}
1000
Constraints
1070
     0
1002
{
1000
Color
1070
     0
1002
{
1000
Active_Frame
1070
     1
1070
     2
1002
{
1002
}
1000
Inactive_Frame
1070
     1
1070
     8
1002
{
1002
}
1002
}
1000
Debug
1070
     0
1002
{
1002
}
1000
Editor
1070
     0
1002
{
1002
}
1000
Frame
1070
     0
1002
{
1002
}
1000
Sys
1070
     0
1002
{
1002
}
1002
}
1000
Detail
1070
     0
1002
{
1002
}
1000
Dimension
1070
     5
1002
{
1000
DIMALT
1070
     1
1070
     0
1002
{
1002
}
1000
DIMALTD
1070
     1
1070
     2
1002
{
1002
}
1000
DIMALTTD
1070
     1
1070
     4
1002
{
1002
}
1000
DIMALTTZ
1070
     1
1070
     0
1002
{
1002
}
1000
DIMALTU
1070
     1
1070
     2
1002
{
1002
}
1000
DIMALTZ
1070
     1
1070
     0
1002
{
1002
}
1000
DIMAPOST
1070
     4
1000

1002
{
1002
}
1000
DIMAUNIT
1070
     1
1070
     0
1002
{
1002
}
1000
DIMBLK
1070
     4
1000

1002
{
1002
}
1000
DIMBLK1
1070
     4
1000

1002
{
1002
}
1000
DIMBLK2
1070
     4
1000

1002
{
1002
}
1000
DIMDLE
1070
     2
1040
0.0
1002
{
1002
}
1000
DIMFIT
1070
     1
1070
     3
1002
{
1002
}
1000
DIMJUST
1070
     1
1070
     0
1002
{
1002
}
1000
DIMLFAC
1070
     2
1040
1.0
1002
{
1002
}
1000
DIMLIM
1070
     1
1070
     0
1002
{
1002
}
1000
DIMPOST
1070
     4
1000
<>
1002
{
1002
}
1000
DIMRND
1070
     2
1040
0.0
1002
{
1002
}
1000
DIMSAH
1070
     1
1070
     0
1002
{
1002
}
1000
DIMSCALE
1070
     2
1040
1.0
1002
{
1002
}
1000
DIMSD1
1070
     1
1070
     0
1002
{
1002
}
1000
DIMSD2
1070
     1
1070
     0
1002
{
1002
}
1000
DIMSE1
1070
     1
1070
     0
1002
{
1002
}
1000
DIMSE2
1070
     1
1070
     0
1002
{
1002
}
1000
DIMSOXD
1070
     1
1070
     0
1002
{
1002
}
1000
DIMTAD
1070
     1
1070
     0
1002
{
1002
}
1000
DIMTFAC
1070
     2
1040
0.71
1002
{
1002
}
1000
DIMTIH
1070
     1
1070
     0
1002
{
1002
}
1000
DIMTIX
1070
     1
1070
     0
1002
{
1002
}
1000
DIMTM
1070
     2
1040
0.1
1002
{
1002
}
1000
DIMTOFL
1070
     1
1070
     0
1002
{
1002
}
1000
DIMTOH
1070
     1
1070
     0
1002
{
1002
}
1000
DIMTOL
1070
     1
1070
     0
1002
{
1002
}
1000
DIMTOLJ
1070
     1
1070
     1
1002
{
1002
}
1000
DIMTP
1070
     2
1040
0.1
1002
{
1002
}
1000
DIMTSZ
1070
     2
1040
0.0
1002
{
1002
}
1000
DIMTVP
1070
     2
1040
0.0
1002
{
1002
}
1000
DIMTXSTY
1070
     4
1000
STANDARD
1002
{
1002
}
1000
DIMTZIN
1070
     1
1070
     0
1002
{
1002
}
1000
DIMUNIT
1070
     1
1070
     2
1002
{
1002
}
1000
DIMUPT
1070
     1
1070
     0
1002
{
1002
}
1000
M
1070
     0
1002
{
1000
DIMALTF
1070
     2
1040
0.03937
1002
{
1002
}
1000
DIMASZ
1070
     2
1040
2.5
1002
{
1002
}
1000
DIMCEN
1070
     2
1040
0.0
1002
{
1002
}
1000
DIMDEC
1070
     1
1070
     2
1002
{
1002
}
1000
DIMDLI
1070
     2
1040
7.0
1002
{
1002
}
1000
DIMEXE
1070
     2
1040
1.0
1002
{
1002
}
1000
DIMEXO
1070
     2
1040
1.0
1002
{
1002
}
1000
DIMGAP
1070
     2
1040
0.6
1002
{
1002
}
1000
DIMTDEC
1070
     1
1070
     3
1002
{
1002
}
1000
DIMTXT
1070
     2
1040
3.5
1002
{
1002
}
1000
DIMZIN
1070
     1
1070
     8
1002
{
1002
}
1002
}
1000
I
1070
     0
1002
{
1000
DIMALTF
1070
     2
1040
25.4
1002
{
1002
}
1000
DIMASZ
1070
     2
1040
0.1
1002
{
1002
}
1000
DIMCEN
1070
     2
1040
0.0
1002
{
1002
}
1000
DIMDEC
1070
     1
1070
     4
1002
{
1002
}
1000
DIMDLI
1070
     2
1040
0.5
1002
{
1002
}
1000
DIMEXE
1070
     2
1040
0.1
1002
{
1002
}
1000
DIMEXO
1070
     2
1040
0.05
1002
{
1002
}
1000
DIMGAP
1070
     2
1040
0.06
1002
{
1002
}
1000
DIMTDEC
1070
     1
1070
     4
1002
{
1002
}
1000
DIMTXT
1070
     2
1040
0.12
1002
{
1002
}
1000
DIMZIN
1070
     1
1070
     7
1002
{
1002
}
1002
}
1000
GEN-ISO
1070
     5
1002
{
1000
NAME
1070
     4
1000
GEN-ISO
1002
{
1002
}
1000
DIMTAD
1070
     1
1070
     1
1002
{
1002
}
1000
DIMTOLJ
1070
     1
1070
     0
1002
{
1002
}
1000
DIMTOFL
1070
     1
1070
     1
1002
{
1002
}
1000
M
1070
     0
1002
{
1002
}
1000
I
1070
     0
1002
{
1002
}
1002
}
1000
GEN-ISO-POS
1070
     5
1002
{
1000
NAME
1070
     4
1000
GEN-ISO-POS
1002
{
1002
}
1000
DIMTOLJ
1070
     1
1070
     0
1002
{
1002
}
1000
M
1070
     0
1002
{
1000
DIMGAP
1070
     2
1040
1.5
1002
{
1002
}
1000
DIMTXT
1070
     2
1040
5.0
1002
{
1002
}
1000
DIMASZ
1070
     2
1040
2.5
1002
{
1002
}
1002
}
1000
I
1070
     0
1002
{
1000
DIMASZ
1070
     2
1040
0.1
1002
{
1002
}
1000
DIMGAP
1070
     2
1040
0.06
1002
{
1002
}
1000
DIMTXT
1070
     2
1040
0.2
1002
{
1002
}
1002
}
1000
DIMSCALE
1070
     2
1040
1.0
1002
{
1002
}
1000
DIMPOST
1070
     4
1000
<>
1002
{
1002
}
1002
}
1000
GEN-ISO-CIR
1070
     5
1002
{
1000
NAME
1070
     4
1000
GEN-ISO$3
1002
{
1002
}
1000
DIMFIT
1070
     1
1070
     0
1002
{
1002
}
1000
DIMTAD
1070
     1
1070
     1
1002
{
1002
}
1000
DIMTIH
1070
     1
1070
     0
1002
{
1002
}
1000
DIMTIX
1070
     1
1070
     0
1002
{
1002
}
1000
DIMTOH
1070
     1
1070
     1
1002
{
1002
}
1000
DIMTOLJ
1070
     1
1070
     0
1002
{
1002
}
1000
DIMTOFL
1070
     1
1070
     0
1002
{
1002
}
1000
DIMUPT
1070
     1
1070
     1
1002
{
1002
}
1000
M
1070
     0
1002
{
1002
}
1000
I
1070
     0
1002
{
1002
}
1000
DIMPOST
1070
     4
1000
<>
1002
{
1002
}
1002
}
1000
GEN-ISO-RAD
1070
     5
1002
{
1000
NAME
1070
     4
1000
GEN-ISO$4
1002
{
1002
}
1000
DIMFIT
1070
     1
1070
     0
1002
{
1002
}
1000
DIMTAD
1070
     1
1070
     1
1002
{
1002
}
1000
DIMTIH
1070
     1
1070
     0
1002
{
1002
}
1000
DIMTIX
1070
     1
1070
     0
1002
{
1002
}
1000
DIMTOH
1070
     1
1070
     1
1002
{
1002
}
1000
DIMTOLJ
1070
     1
1070
     0
1002
{
1002
}
1000
DIMTOFL
1070
     1
1070
     0
1002
{
1002
}
1000
DIMUPT
1070
     1
1070
     1
1002
{
1002
}
1000
M
1070
     0
1002
{
1002
}
1000
I
1070
     0
1002
{
1002
}
1002
}
1000
GEN-ISO-ORD
1070
     5
1002
{
1000
NAME
1070
     4
1000
GEN-ISO$6
1002
{
1002
}
1000
DIMTOLJ
1070
     1
1070
     0
1002
{
1002
}
1000
M
1070
     0
1002
{
1002
}
1000
I
1070
     0
1002
{
1002
}
1002
}
1000
GEN-ISO-AXE-F
1070
     5
1002
{
1000
NAME
1070
     4
1000
GEN-ISO-AXE-F
1002
{
1002
}
1000
DIMSE1
1070
     1
1070
     1
1002
{
1002
}
1000
DIMSE2
1070
     1
1070
     1
1002
{
1002
}
1000
DIMTAD
1070
     1
1070
     1
1002
{
1002
}
1000
DIMTOLJ
1070
     1
1070
     0
1002
{
1002
}
1000
DIMTOFL
1070
     1
1070
     1
1002
{
1002
}
1000
M
1070
     0
1002
{
1002
}
1000
I
1070
     0
1002
{
1002
}
1002
}
1000
GEN-ISO-AXE-H
1070
     5
1002
{
1000
DIMBLK1
1070
     4
1000
GENAXEH
1002
{
1002
}
1000
DIMLFAC
1070
     2
1040
2.0
1002
{
1002
}
1000
DIMSAH
1070
     1
1070
     1
1002
{
1002
}
1000
DIMSE1
1070
     1
1070
     1
1002
{
1002
}
1000
DIMSE2
1070
     1
1070
     1
1002
{
1002
}
1000
DIMTAD
1070
     1
1070
     1
1002
{
1002
}
1000
DIMTOLJ
1070
     1
1070
     0
1002
{
1002
}
1000
DIMTOFL
1070
     1
1070
     1
1002
{
1002
}
1000
M
1070
     0
1002
{
1002
}
1000
I
1070
     0
1002
{
1002
}
1002
}
1000
GEN-ANSI
1070
     5
1002
{
1000
NAME
1070
     4
1000
GEN-ANSI
1002
{
1002
}
1000
DIMTIH
1070
     1
1070
     1
1002
{
1002
}
1000
DIMTOH
1070
     1
1070
     1
1002
{
1002
}
1000
DIMTAD
1070
     1
1070
     0
1002
{
1002
}
1000
DIMTOLJ
1070
     1
1070
     1
1002
{
1002
}
1000
M
1070
     0
1002
{
1002
}
1000
I
1070
     0
1002
{
1002
}
1002
}
1000
GEN-ANSI-POS
1070
     5
1002
{
1000
NAME
1070
     4
1000
GEN-ANSI-POS
1002
{
1002
}
1000
DIMTOLJ
1070
     1
1070
     1
1002
{
1002
}
1000
M
1070
     0
1002
{
1000
DIMASZ
1070
     2
1040
2.5
1002
{
1002
}
1000
DIMGAP
1070
     2
1040
1.5
1002
{
1002
}
1000
DIMTXT
1070
     2
1040
5.0
1002
{
1002
}
1002
}
1000
I
1070
     0
1002
{
1000
DIMASZ
1070
     2
1040
0.1
1002
{
1002
}
1000
DIMGAP
1070
     2
1040
0.06
1002
{
1002
}
1000
DIMTXT
1070
     2
1040
0.2
1002
{
1002
}
1002
}
1002
}
1000
GEN-ANSI-CIR
1070
     5
1002
{
1000
NAME
1070
     4
1000
GEN-ANSI$3
1002
{
1002
}
1000
DIMFIT
1070
     1
1070
     0
1002
{
1002
}
1000
DIMTAD
1070
     1
1070
     0
1002
{
1002
}
1000
DIMTIH
1070
     1
1070
     1
1002
{
1002
}
1000
DIMTIX
1070
     1
1070
     0
1002
{
1002
}
1000
DIMTOFL
1070
     1
1070
     0
1002
{
1002
}
1000
DIMTOH
1070
     1
1070
     1
1002
{
1002
}
1000
DIMTOLJ
1070
     1
1070
     1
1002
{
1002
}
1000
DIMUPT
1070
     1
1070
     1
1002
{
1002
}
1000
M
1070
     0
1002
{
1002
}
1000
I
1070
     0
1002
{
1002
}
1002
}
1000
GEN-ANSI-RAD
1070
     5
1002
{
1000
NAME
1070
     4
1000
GEN-ANSI$4
1002
{
1002
}
1000
DIMFIT
1070
     1
1070
     0
1002
{
1002
}
1000
DIMTAD
1070
     1
1070
     0
1002
{
1002
}
1000
DIMTIH
1070
     1
1070
     1
1002
{
1002
}
1000
DIMTIX
1070
     1
1070
     0
1002
{
1002
}
1000
DIMTOFL
1070
     1
1070
     0
1002
{
1002
}
1000
DIMTOH
1070
     1
1070
     1
1002
{
1002
}
1000
DIMTOLJ
1070
     1
1070
     1
1002
{
1002
}
1000
DIMUPT
1070
     1
1070
     1
1002
{
1002
}
1000
M
1070
     0
1002
{
1002
}
1000
I
1070
     0
1002
{
1002
}
1002
}
1000
GEN-ANSI-ORD
1070
     5
1002
{
1000
NAME
1070
     4
1000
GEN-ANSI$6
1002
{
1002
}
1000
DIMTAD
1070
     1
1070
     0
1002
{
1002
}
1000
DIMTIH
1070
     1
1070
     1
1002
{
1002
}
1000
DIMTOH
1070
     1
1070
     1
1002
{
1002
}
1000
DIMTOLJ
1070
     1
1070
     1
1002
{
1002
}
1000
M
1070
     0
1002
{
1002
}
1000
I
1070
     0
1002
{
1002
}
1002
}
1000
GEN-ANSI-AXE-F
1070
     5
1002
{
1000
NAME
1070
     4
1000
GEN-ANSI-AXE-F
1002
{
1002
}
1000
DIMBLK1
1070
     4
1000
GENAXEH
1002
{
1002
}
1000
DIMSAH
1070
     1
1070
     1
1002
{
1002
}
1000
DIMSE1
1070
     1
1070
     1
1002
{
1002
}
1000
DIMSE2
1070
     1
1070
     1
1002
{
1002
}
1000
DIMTAD
1070
     1
1070
     0
1002
{
1002
}
1000
DIMTIH
1070
     1
1070
     1
1002
{
1002
}
1000
DIMTOH
1070
     1
1070
     1
1002
{
1002
}
1000
DIMTOLJ
1070
     1
1070
     1
1002
{
1002
}
1000
M
1070
     0
1002
{
1002
}
1000
I
1070
     0
1002
{
1002
}
1002
}
1000
GEN-ANSI-AXE-H
1070
     5
1002
{
1000
NAME
1070
     4
1000
GEN-ANSI-AXE-H
1002
{
1002
}
1000
DIMBLK1
1070
     4
1000
GENAXEH
1002
{
1002
}
1000
DIMLFAC
1070
     2
1040
2.0
1002
{
1002
}
1000
DIMSAH
1070
     1
1070
     1
1002
{
1002
}
1000
DIMSE1
1070
     1
1070
     1
1002
{
1002
}
1000
DIMSE2
1070
     1
1070
     1
1002
{
1002
}
1000
DIMTAD
1070
     1
1070
     0
1002
{
1002
}
1000
DIMTOFL
1070
     1
1070
     1
1002
{
1002
}
1000
DIMTOLJ
1070
     1
1070
     1
1002
{
1002
}
1000
M
1070
     0
1002
{
1002
}
1000
I
1070
     0
1002
{
1002
}
1002
}
1000
DIMZIN
1070
     1
1070
     8
1002
{
1002
}
1002
}
1000
DimSet
1070
     0
1002
{
1000
ChainSum
1070
     3
1070
     0
1002
{
1002
}
1000
DimDclTyp0
1070
     4
1000
dim23
1002
{
1002
}
1000
HorBra
1070
     3
1070
     0
1002
{
1002
}
1000
StrDia
1070
     4
1000
%%c<>
1002
{
1002
}
1000
StrRad
1070
     4
1000
R<>
1002
{
1002
}
1000
TextMinus
1070
     4
1000
<>
1002
{
1002
}
1000
TextPlus
1070
     4
1000
<>
1002
{
1002
}
1000
M
1070
     0
1002
{
1000
DimdliFirst
1070
     2
1040
10.0
1002
{
1002
}
1000
PointMakeDist
1070
     2
1040
10.0
1002
{
1002
}
1002
}
1000
I
1070
     0
1002
{
1000
DimdliFirst
1070
     2
1040
0.5
1002
{
1002
}
1000
PointMakeDist
1070
     2
1040
0.5
1002
{
1002
}
1002
}
1002
}
1000
Drawing
1070
     0
1002
{
1000
ChamferDimMode
1070
     1
1070
     2
1002
{
1002
}
1000
Gen_Fiso
1070
    -3
1040
1.0
1002
{
1002
}
1000
GenDimStil
1070
     4
1000
ISO
1002
{
1002
}
1000
GenDwgUScale
1070
     2
1040
1.0
1002
{
1002
}
1000
GenInch
1070
     4
1000
M
1002
{
1002
}
1000
GenPlotScale
1070
     4
1000
1:1
1002
{
1002
}
1000
Revisi
1070
     4
1000
0
1002
{
1002
}
1000
Version
1070
    -5
1000
13.1/May  9 1996
1002
{
1002
}
1000
Platform
1070
    -5
1000
WINNT
1002
{
1002
}
1002
}
1000
DwgVar
1070
     0
1002
{
1000
M
1070
     0
1002
{
1002
}
1000
I
1070
     0
1002
{
1002
}
1002
}
1000
Hatch
1070
     0
1002
{
1000
GenHtcFlag
1070
     3
1070
     0
1002
{
1002
}
1002
}
1000
Info_Pos
1070
     0
1002
{
1000
DescrText
1070
     4
1000
5,6,7,8
1002
{
1002
}
1000
Attrib
1070
     0
1002
{
1000
0
1070
     6
1002
{
1000
Prompt
1070
     4
1000
(genmsg gendwg 103)
1002
{
1002
}
1000
Value
1070
     4
1000

1002
{
1002
}
1000
EditFlag
1070
     1
1070
     0
1002
{
1002
}
1002
}
1000
1
1070
     6
1002
{
1000
Prompt
1070
     4
1000
(genmsg gendwg 31)
1002
{
1002
}
1000
Value
1070
     4
1000
1
1002
{
1002
}
1000
EditFlag
1070
     1
1070
     1
1002
{
1002
}
1002
}
1000
2
1070
     6
1002
{
1000
Prompt
1070
     4
1000
(genmsg gendwg 32)
1002
{
1002
}
1000
Value
1070
     4
1000
1
1002
{
1002
}
1000
EditFlag
1070
     1
1070
     1
1002
{
1002
}
1002
}
1000
3
1070
     6
1002
{
1000
Prompt
1070
     4
1000
(genmsg gendwg 33)
1002
{
1002
}
1000
Value
1070
     4
1000

1002
{
1002
}
1000
EditFlag
1070
     1
1070
     1
1002
{
1002
}
1002
}
1000
4
1070
     6
1002
{
1000
Prompt
1070
     4
1000
(genmsg gendwg 34)
1002
{
1002
}
1000
Value
1070
     4
1000

1002
{
1002
}
1000
EditFlag
1070
     1
1070
     1
1002
{
1002
}
1002
}
1000
5
1070
     6
1002
{
1000
Prompt
1070
     4
1000
(genmsg gendwg 35)
1002
{
1002
}
1000
Value
1070
     4
1000

1002
{
1002
}
1000
EditFlag
1070
     1
1070
     1
1002
{
1002
}
1002
}
1000
6
1070
     6
1002
{
1000
Prompt
1070
     4
1000
(genmsg gendwg 36)
1002
{
1002
}
1000
Value
1070
     4
1000

1002
{
1002
}
1000
EditFlag
1070
     1
1070
     1
1002
{
1002
}
1002
}
1000
7
1070
     6
1002
{
1000
Prompt
1070
     4
1000
(genmsg gendwg 37)
1002
{
1002
}
1000
Value
1070
     4
1000

1002
{
1002
}
1000
EditFlag
1070
     1
1070
     1
1002
{
1002
}
1002
}
1000
8
1070
     6
1002
{
1000
Prompt
1070
     4
1000
(genmsg gendwg 38)
1002
{
1002
}
1000
Value
1070
     4
1000

1002
{
1002
}
1000
EditFlag
1070
     1
1070
     1
1002
{
1002
}
1002
}
1000
9
1070
     6
1002
{
1000
Prompt
1070
     4
1000
(genmsg gendwg 39)
1002
{
1002
}
1000
Value
1070
     4
1000

1002
{
1002
}
1000
EditFlag
1070
     1
1070
     1
1002
{
1002
}
1002
}
1000
10
1070
     6
1002
{
1000
Prompt
1070
     4
1000
(genmsg gendwg 40)
1002
{
1002
}
1000
Value
1070
     4
1000

1002
{
1002
}
1000
EditFlag
1070
     1
1070
     1
1002
{
1002
}
1002
}
1000
11
1070
     6
1002
{
1000
Prompt
1070
     4
1000
(genmsg gendwg 41)
1002
{
1002
}
1000
Value
1070
     4
1000

1002
{
1002
}
1000
EditFlag
1070
     1
1070
     1
1002
{
1002
}
1002
}
1000
12
1070
     6
1002
{
1000
Prompt
1070
     4
1000
(genmsg gendwg 42)
1002
{
1002
}
1000
Value
1070
     4
1000

1002
{
1002
}
1000
EditFlag
1070
     1
1070
     1
1002
{
1002
}
1002
}
1000
13
1070
     6
1002
{
1000
Prompt
1070
     4
1000
(genmsg gendwg 43)
1002
{
1002
}
1000
Value
1070
     4
1000

1002
{
1002
}
1000
EditFlag
1070
     1
1070
     1
1002
{
1002
}
1002
}
1000
14
1070
     6
1002
{
1000
Prompt
1070
     4
1000
(genmsg gendwg 44)
1002
{
1002
}
1000
Value
1070
     4
1000

1002
{
1002
}
1000
EditFlag
1070
     1
1070
     1
1002
{
1002
}
1002
}
1000
15
1070
     6
1002
{
1000
Prompt
1070
     4
1000
(genmsg gendwg 45)
1002
{
1002
}
1000
Value
1070
     4
1000

1002
{
1002
}
1000
EditFlag
1070
     1
1070
     1
1002
{
1002
}
1002
}
1000
16
1070
     6
1002
{
1000
Prompt
1070
     4
1000
(genmsg gendwg 46)
1002
{
1002
}
1000
Value
1070
     4
1000

1002
{
1002
}
1000
EditFlag
1070
     1
1070
     1
1002
{
1002
}
1002
}
1000
17
1070
     6
1002
{
1000
Prompt
1070
     4
1000
(genmsg gendwg 47)
1002
{
1002
}
1000
Value
1070
     4
1000

1002
{
1002
}
1000
EditFlag
1070
     1
1070
     1
1002
{
1002
}
1002
}
1000
18
1070
     6
1002
{
1000
Prompt
1070
     4
1000
(genmsg gendwg 48)
1002
{
1002
}
1000
Value
1070
     4
1000

1002
{
1002
}
1000
EditFlag
1070
     1
1070
     1
1002
{
1002
}
1002
}
1000
19
1070
     6
1002
{
1000
Prompt
1070
     4
1000
(genmsg gendwg 99)
1002
{
1002
}
1000
Value
1070
     4
1000

1002
{
1002
}
1000
EditFlag
1070
     1
1070
     1
1002
{
1002
}
1002
}
1000
20
1070
     6
1002
{
1000
Prompt
1070
     4
1000
(genmsg gendwg 100)
1002
{
1002
}
1000
Value
1070
     4
1000

1002
{
1002
}
1000
EditFlag
1070
     1
1070
     1
1002
{
1002
}
1002
}
1000
21
1070
     6
1002
{
1000
Prompt
1070
     4
1000
(genmsg gendwg 101)
1002
{
1002
}
1000
Value
1070
     4
1000

1002
{
1002
}
1000
EditFlag
1070
     1
1070
     1
1002
{
1002
}
1002
}
1000
22
1070
     6
1002
{
1000
Prompt
1070
     4
1000
(genmsg gendwg 102)
1002
{
1002
}
1000
Value
1070
     4
1000

1002
{
1002
}
1000
EditFlag
1070
     1
1070
     1
1002
{
1002
}
1002
}
1000
23
1070
     6
1002
{
1000
Prompt
1070
     4
1000
(genmsg gendwg 30)
1002
{
1002
}
1000
Value
1070
     4
1000

1002
{
1002
}
1000
EditFlag
1070
     1
1070
     1
1002
{
1002
}
1002
}
1000
24
1070
     6
1002
{
1000
Prompt
1070
     4
1000
(genmsg gendwg 104)
1002
{
1002
}
1000
Value
1070
     4
1000

1002
{
1002
}
1000
EditFlag
1070
     1
1070
     1
1002
{
1002
}
1002
}
1002
}
1000
Xlate
1070
     0
1002
{
1000
>
1002
}
1002
}
1000
Layer
1070
     7
1002
{
1000
Defs
1070
     0
1002
{
1000
>
1002
}
1000
EntSort
1070
     0
1002
{
1000
>
1002
}
1000
Match
1070
     0
1002
{
1002
}
1000
Settings
1070
     0
1002
{
1000
FocGrNC
1070
     3
1070
     0
1002
{
1002
}
1000
FocGrLo
1070
     3
1070
     0
1002
{
1002
}
1000
FocLoNC
1070
     3
1070
     0
1002
{
1002
}
1000
FocusCol
1070
     1
1070
   253
1002
{
1002
}
1000
GenStdLG
1070
     4
1000

1002
{
1002
}
1000
LayMatch
1070
     3
1070
     0
1002
{
1002
}
1000
LgOff
1070
     3
1070
     0
1002
{
1002
}
1000
CurLG
1070
    -5
1000

1002
{
1002
}
1002
}
1002
}
1000
LType
1070
     0
1002
{
1000
GEN3
1070
     8
1000
genius.lin
1002
{
1002
}
1000
GEN7
1070
     8
1000
genius.lin
1002
{
1002
}
1000
GEN4A
1070
     8
1000
genius.lin
1002
{
1002
}
1000
GEN3A
1070
     8
1000
genius.lin
1002
{
1002
}
1000
GEN7A
1070
     8
1000
genius.lin
1002
{
1002
}
1000
GENZIGZAG
1070
     8
1000
genius.lin
1002
{
1002
}
1002
}
1000
Objecter
1070
     0
1002
{
1000
CreateGroups
1070
     3
1070
     0
1002
{
1002
}
1000
LaySwitch
1070
     3
1070
     1
1002
{
1002
}
1000
LastObj
1070
    -5
1000
17F4
1002
{
1002
}
1002
}
1000
OSWiz
1070
     0
1002
{
1000
>
1002
}
1000
PaList
1070
     0
1002
{
1000
AutoUpdatePartList
1070
     3
1070
     0
1002
{
1002
}
1000
ReadInfoPoint
1070
     3
1070
     0
1002
{
1002
}
1000
ReadPosNr
1070
     3
1070
     1
1002
{
1002
}
1000
RevStr
1070
     4
1000
0
1002
{
1002
}
1000
rebuildpending
1070
    -4
1070
     1
1002
{
1002
}
1000
rebuildpendingtime
1070
    -5
1000
893408906
1002
{
1002
}
1002
}
1000
Paper
1070
     0
1002
{
1002
}
1000
PartDB
1070
     0
1002
{
1000
GenDbOwner
1070
     4
1000

1002
{
1002
}
1002
}
1000
System
1070
     0
1002
{
1000
Menu
1070
     4
1000
GEV
1002
{
1002
}
1002
}
1000
Title
1070
     0
1002
{
1000
MakeView
1070
     1
1070
     2
1002
{
1002
}
1002
}
  0
APPID
  5
2F
100
AcDbSymbolTableRecord
100
AcDbRegAppTableRecord
  2
GENIUS_GEVCFG0_13
 70
     0
1001
GENIUS_GENCFG_13
1071
862825278
1000
2F
1000
GEV
1070
     1
1000
GenCfgObject
1000
System
1070
     0
1002
{
1002
}
1000
VED
1070
     0
1002
{
1002
}
  0
APPID
  5
33
100
AcDbSymbolTableRecord
100
AcDbRegAppTableRecord
  2
GENIUS_GEFCFG0_13
 70
     0
1001
GENIUS_GENCFG_13
1071
877355996
1000
33
1000
GEF
1070
     5
1000
GenCfgObject
1000
GenCfgString
1000
GenCfgReal
1000
GenCfgShort
1000
GenCfgBool
1000
System
1070
     0
1002
{
1002
}
1000
Prese
1070
     0
1002
{
1000
Funk
1070
     1
1000

1002
{
1002
}
1000
FunkDef
1070
     1
1000

1002
{
1002
}
1000
GefIso
1070
     1
1000
DIN
1002
{
1002
}
1002
}
1000
FEM
1070
     0
1002
{
1000
LayGroup
1070
     1
1000
FEM
1002
{
1002
}
1000
IncrCoef
1070
     2
1040
0.0
1002
{
1002
}
1002
}
1000
Shaft
1070
     0
1002
{
1000
Interrupt
1070
     3
1070
     0
1002
{
1002
}
1002
}
1000
PartDb
1070
     0
1002
{
1000
PartCreate
1070
     0
1002
{
1002
}
1002
}
1000
Symbol
1070
     0
1002
{
1000
WeldStyle
1070
     1
1000
ISO
1002
{
1002
}
1000
WeldSize
1070
     2
1040
1.0
1002
{
1002
}
1000
WeldFlag
1070
     4
1070
     1
1002
{
1002
}
1000
WeldOffset
1070
     4
1070
     1
1002
{
1002
}
1000
TolCType
1070
     1
1000
ISO
1002
{
1002
}
1000
TolCSize
1070
     2
1040
1.0
1002
{
1002
}
1000
STextureSize
1070
     2
1040
1.0
1002
{
1002
}
1000
SurfaceType
1070
     1
1000

1002
{
1002
}
1000
M
1070
     0
1002
{
1000
WeldWidth
1070
     2
1040
3.0
1002
{
1002
}
1002
}
1000
I
1070
     0
1002
{
1000
WeldWidth
1070
     2
1040
0.125
1002
{
1002
}
1002
}
1000
weldwidth
1070
     2
1040
5.0
1002
{
1002
}
1002
}
  0
APPID
  5
3C
100
AcDbSymbolTableRecord
100
AcDbRegAppTableRecord
  2
GENIUS_GENOENT_13
 70
     0
  0
APPID
  5
72
100
AcDbSymbolTableRecord
100
AcDbRegAppTableRecord
  2
GENIUS_GENINF13_13
 70
     0
  0
APPID
  5
73
100
AcDbSymbolTableRecord
100
AcDbRegAppTableRecord
  2
GENIUS_GENODEF_13
 70
     0
1001
GENIUS_GENOBJ_13
1070
     1
  0
APPID
  5
74
100
AcDbSymbolTableRecord
100
AcDbRegAppTableRecord
  2
GENIUS_GENOBJ-N-INFOPT_13
 70
     0
  0
APPID
  5
75
100
AcDbSymbolTableRecord
100
AcDbRegAppTableRecord
  2
GENIUS_GENOBJ_13
 70
     0
1001
GENIUS_GENODEF_13
1070
     1
1001
GENIUS_GENOLIS_13
1070
     1
1001
GENIUS_GENOREF_13
1070
     1
1001
GENIUS_GENOBJ-N-RSSYM_13
1070
     1
1001
GENIUS_GENSYMENT_13
1070
     1
1001
GENIUS_GENOBJ-NBEHI-BHF_13
1070
     0
1001
GENIUS_GENOBJ-NBEHI-BHB_13
1070
     0
1001
GENIUS_GENBH_13
1070
     1
1001
GENIUS_GENOBJ-F-PART_13
1070
     0
1001
GENIUS_GEFSTDP_13
1070
     0
1001
GENIUS_GENOENT_13
1070
     1
1070
     2
  0
APPID
  5
76
100
AcDbSymbolTableRecord
100
AcDbRegAppTableRecord
  2
GENIUS_GENOLIS_13
 70
     0
1001
GENIUS_GENOBJ_13
1070
     1
  0
APPID
  5
77
100
AcDbSymbolTableRecord
100
AcDbRegAppTableRecord
  2
GENIUS_GENOREF_13
 70
     0
1001
GENIUS_GENOBJ_13
1070
     1
  0
APPID
  5
78
100
AcDbSymbolTableRecord
100
AcDbRegAppTableRecord
  2
GENIUS_GENOBJ-N-RSSYM_13
 70
     0
1001
GENIUS_GENOBJ_13
1070
     1
  0
APPID
  5
79
100
AcDbSymbolTableRecord
100
AcDbRegAppTableRecord
  2
GENIUS_GENSYMENT_13
 70
     0
1001
GENIUS_GENOBJ_13
1070
     1
  0
APPID
  5
7A
100
AcDbSymbolTableRecord
100
AcDbRegAppTableRecord
  2
GENIUS_GENSCSYM_13
 70
     0
  0
APPID
  5
7B
100
AcDbSymbolTableRecord
100
AcDbRegAppTableRecord
  2
GENIUS_GENOBJ-N-CEN_13
 70
     0
  0
APPID
  5
7C
100
AcDbSymbolTableRecord
100
AcDbRegAppTableRecord
  2
GENIUS_GENOBJ-N-FIL_13
 70
     0
  0
APPID
  5
7D
100
AcDbSymbolTableRecord
100
AcDbRegAppTableRecord
  2
GENIUS_GENBH_13
 70
     0
1001
GENIUS_GENOBJ_13
1070
     1
  0
APPID
  5
7E
100
AcDbSymbolTableRecord
100
AcDbRegAppTableRecord
  2
GENIUS_GENOBJ-NBEHI-BHF_13
 70
     0
1001
GENIUS_GENOBJ_13
1070
     0
  0
APPID
  5
7F
100
AcDbSymbolTableRecord
100
AcDbRegAppTableRecord
  2
GENIUS_GENOBJ-NBEHI-BHB_13
 70
     0
1001
GENIUS_GENOBJ_13
1070
     0
  0
APPID
  5
80
100
AcDbSymbolTableRecord
100
AcDbRegAppTableRecord
  2
GENIUS_GENOBJ-F-PART_13
 70
     0
1001
GENIUS_GENOBJ_13
1070
     0
  0
APPID
  5
81
100
AcDbSymbolTableRecord
100
AcDbRegAppTableRecord
  2
GENIUS_GEFSTDP_13
 70
     0
1001
GENIUS_GENOBJ_13
1070
     0
  0
APPID
  5
11FB
100
AcDbSymbolTableRecord
100
AcDbRegAppTableRecord
  2
GENIUS_GENOBJ-N-RSBK_13
 70
     0
  0
APPID
  5
11FC
100
AcDbSymbolTableRecord
100
AcDbRegAppTableRecord
  2
GENIUS_GENOBJ-N-LIB_13
 70
     0
  0
APPID
  5
11FD
100
AcDbSymbolTableRecord
100
AcDbRegAppTableRecord
  2
GENIUS_GENSCALE_13
 70
     0
  0
ENDTAB
  0
TABLE
  2
DIMSTYLE
  5
A
100
AcDbSymbolTable
 70
     1
  0
DIMSTYLE
105
1D
100
AcDbSymbolTableRecord
100
AcDbDimStyleTableRecord
  2
STANDARD
 70
     0
  3

  4

  5

  6

  7

 40
1.0
 41
0.18
 42
0.0625
 43
0.38
 44
0.18
 45
0.0
 46
0.0
 47
0.0
 48
0.0
140
0.18
141
0.09
142
0.0
143
25.4
144
1.0
145
0.0
146
1.0
147
0.09
 71
     0
 72
     0
 73
     1
 74
     1
 75
     0
 76
     0
 77
     0
 78
     0
170
     0
171
     2
172
     0
173
     0
174
     0
175
     0
176
     0
177
     0
178
     0
270
     2
271
     4
272
     4
273
     2
274
     2
340
10
275
     0
280
     0
281
     0
282
     0
283
     1
284
     0
285
     0
286
     0
287
     3
288
     0
  0
ENDTAB
  0
TABLE
  2
BLOCK_RECORD
  5
1
100
AcDbSymbolTable
 70
     3
  0
BLOCK_RECORD
  5
1A
100
AcDbSymbolTableRecord
100
AcDbBlockTableRecord
  2
*MODEL_SPACE
  0
BLOCK_RECORD
  5
17
100
AcDbSymbolTableRecord
100
AcDbBlockTableRecord
  2
*PAPER_SPACE
  0
BLOCK_RECORD
  5
43
100
AcDbSymbolTableRecord
100
AcDbBlockTableRecord
  2
GENINF13
  0
ENDTAB
  0
ENDSEC
  0
SECTION
  2
BLOCKS
  0
BLOCK
  5
1B
100
AcDbEntity
  8
0
100
AcDbBlockBegin
  2
*MODEL_SPACE
 70
     0
 10
0.0
 20
0.0
 30
0.0
  3
*MODEL_SPACE
  1

  0
ENDBLK
  5
1C
100
AcDbEntity
  8
0
100
AcDbBlockEnd
  0
BLOCK
  5
18
100
AcDbEntity
 67
     1
  8
0
100
AcDbBlockBegin
  2
*PAPER_SPACE
 70
     0
 10
0.0
 20
0.0
 30
0.0
  3
*PAPER_SPACE
  1

  0
ENDBLK
  5
19
100
AcDbEntity
 67
     1
  8
0
100
AcDbBlockEnd
  0
BLOCK
  5
68
100
AcDbEntity
  8
0
100
AcDbBlockBegin
  2
GENINF13
 70
    66
 10
0.0
 20
0.0
 30
0.0
  3
GENINF13
  1
GENINF13
  0
CIRCLE
  5
44
100
AcDbEntity
  8
INFO
100
AcDbCircle
 10
-0.107946
 20
1.312244
 30
0.0
 40
0.339067
  0
CIRCLE
  5
45
100
AcDbEntity
  8
INFO
100
AcDbCircle
 10
0.0
 20
0.0
 30
0.0
 40
1.920194
  0
LINE
  5
46
100
AcDbEntity
  8
INFO
100
AcDbLine
 10
0.411344
 20
0.70683
 30
0.0
 11
-0.700006
 21
0.70683
 31
0.0
  0
LINE
  5
47
100
AcDbEntity
  8
INFO
100
AcDbLine
 10
0.829904
 20
-1.341535
 30
0.0
 11
0.829904
 21
-0.555367
 31
0.0
  0
LINE
  5
48
100
AcDbEntity
  8
INFO
100
AcDbLine
 10
0.829904
 20
-0.555367
 30
0.0
 11
0.411344
 21
-0.555367
 31
0.0
  0
LINE
  5
49
100
AcDbEntity
  8
INFO
100
AcDbLine
 10
0.411344
 20
-0.555367
 30
0.0
 11
0.411344
 21
0.70683
 31
0.0
  0
LINE
  5
4A
100
AcDbEntity
  8
INFO
100
AcDbLine
 10
-0.700006
 20
0.70683
 30
0.0
 11
-0.700006
 21
0.122613
 31
0.0
  0
LINE
  5
4B
100
AcDbEntity
  8
INFO
100
AcDbLine
 10
-0.700006
 20
0.122613
 30
0.0
 11
-0.375261
 21
0.122613
 31
0.0
  0
LINE
  5
4C
100
AcDbEntity
  8
INFO
100
AcDbLine
 10
-0.375261
 20
0.122613
 30
0.0
 11
-0.375261
 21
-0.555367
 31
0.0
  0
LINE
  5
4D
100
AcDbEntity
  8
INFO
100
AcDbLine
 10
-0.375261
 20
-0.555367
 30
0.0
 11
-0.801038
 21
-0.555367
 31
0.0
  0
LINE
  5
4E
100
AcDbEntity
  8
INFO
100
AcDbLine
 10
-0.801038
 20
-0.555367
 30
0.0
 11
-0.801038
 21
-1.341535
 31
0.0
  0
LINE
  5
4F
100
AcDbEntity
  8
INFO
100
AcDbLine
 10
-0.801038
 20
-1.341535
 30
0.0
 11
0.829904
 21
-1.341535
 31
0.0
  0
ATTDEF
  5
50
100
AcDbEntity
  8
INFO
100
AcDbText
 10
0.0
 20
0.0
 30
0.0
 40
1.0
  1
1
100
AcDbAttributeDefinition
  3
Menge
  2
2GENINF
 70
     1
  0
ATTDEF
  5
51
100
AcDbEntity
  8
INFO
100
AcDbText
 10
0.0
 20
-1.5
 30
0.0
 40
1.0
  1

100
AcDbAttributeDefinition
  3
Stücklisten-Name
  2
3GENINF
 70
     1
  0
ATTDEF
  5
52
100
AcDbEntity
  8
INFO
100
AcDbText
 10
0.0
 20
-3.0
 30
0.0
 40
1.0
  1

100
AcDbAttributeDefinition
  3
Stücklisten-Pfad
  2
4GENINF
 70
     1
  0
ATTDEF
  5
53
100
AcDbEntity
  8
INFO
100
AcDbText
 10
0.0
 20
-4.5
 30
0.0
 40
1.0
  1

100
AcDbAttributeDefinition
  3
Beschreibung 1
  2
5GENINF
 70
     1
  0
ATTDEF
  5
54
100
AcDbEntity
  8
INFO
100
AcDbText
 10
0.0
 20
-6.0
 30
0.0
 40
1.0
  1

100
AcDbAttributeDefinition
  3
Beschreibung 2
  2
6GENINF
 70
     1
  0
ATTDEF
  5
55
100
AcDbEntity
  8
INFO
100
AcDbText
 10
0.0
 20
-7.5
 30
0.0
 40
1.0
  1

100
AcDbAttributeDefinition
  3
Norm/Lieferant 1
  2
7GENINF
 70
     1
  0
ATTDEF
  5
56
100
AcDbEntity
  8
INFO
100
AcDbText
 10
0.0
 20
-9.0
 30
0.0
 40
1.0
  1

100
AcDbAttributeDefinition
  3
Norm/Lieferant 2
  2
8GENINF
 70
     1
  0
ATTDEF
  5
57
100
AcDbEntity
  8
INFO
100
AcDbText
 10
0.0
 20
-10.5
 30
0.0
 40
1.0
  1

100
AcDbAttributeDefinition
  3
Material 1
  2
9GENINF
 70
     1
  0
ATTDEF
  5
58
100
AcDbEntity
  8
INFO
100
AcDbText
 10
0.0
 20
-12.0
 30
0.0
 40
1.0
  1

100
AcDbAttributeDefinition
  3
Material 2
  2
10GENINF
 70
     1
  0
ATTDEF
  5
59
100
AcDbEntity
  8
INFO
100
AcDbText
 10
0.0
 20
-13.5
 30
0.0
 40
1.0
  1

100
AcDbAttributeDefinition
  3
Identnummer
  2
11GENINF
 70
     1
  0
ATTDEF
  5
5A
100
AcDbEntity
  8
INFO
100
AcDbText
 10
0.0
 20
-15.0
 30
0.0
 40
1.0
  1

100
AcDbAttributeDefinition
  3
Gewicht
  2
12GENINF
 70
     1
  0
ATTDEF
  5
5B
100
AcDbEntity
  8
INFO
100
AcDbText
 10
0.0
 20
-16.5
 30
0.0
 40
1.0
  1

100
AcDbAttributeDefinition
  3
Preis
  2
13GENINF
 70
     1
  0
ATTDEF
  5
5C
100
AcDbEntity
  8
INFO
100
AcDbText
 10
0.0
 20
-18.0
 30
0.0
 40
1.0
  1

100
AcDbAttributeDefinition
  3
Abmessungen
  2
14GENINF
 70
     1
  0
ATTDEF
  5
5D
100
AcDbEntity
  8
INFO
100
AcDbText
 10
0.0
 20
-19.5
 30
0.0
 40
1.0
  1

100
AcDbAttributeDefinition
  3
User 1
  2
15GENINF
 70
     1
  0
ATTDEF
  5
5E
100
AcDbEntity
  8
INFO
100
AcDbText
 10
0.0
 20
-21.0
 30
0.0
 40
1.0
  1

100
AcDbAttributeDefinition
  3
User 2
  2
16GENINF
 70
     1
  0
ATTDEF
  5
5F
100
AcDbEntity
  8
INFO
100
AcDbText
 10
0.0
 20
-22.5
 30
0.0
 40
1.0
  1

100
AcDbAttributeDefinition
  3
User 3
  2
17GENINF
 70
     1
  0
ATTDEF
  5
60
100
AcDbEntity
  8
INFO
100
AcDbText
 10
0.0
 20
-24.0
 30
0.0
 40
1.0
  1

100
AcDbAttributeDefinition
  3
User 4
  2
18GENINF
 70
     1
  0
ATTDEF
  5
61
100
AcDbEntity
  8
INFO
100
AcDbText
 10
0.0
 20
-25.5
 30
0.0
 40
1.0
  1

100
AcDbAttributeDefinition
  3
User 5
  2
19GENINF
 70
     1
  0
ATTDEF
  5
62
100
AcDbEntity
  8
INFO
100
AcDbText
 10
0.0
 20
-27.0
 30
0.0
 40
1.0
  1

100
AcDbAttributeDefinition
  3
User 6
  2
20GENINF
 70
     1
  0
ATTDEF
  5
63
100
AcDbEntity
  8
INFO
100
AcDbText
 10
0.0
 20
-28.5
 30
0.0
 40
1.0
  1

100
AcDbAttributeDefinition
  3
User 7
  2
21GENINF
 70
     1
  0
ATTDEF
  5
64
100
AcDbEntity
  8
INFO
100
AcDbText
 10
0.0
 20
-30.0
 30
0.0
 40
1.0
  1

100
AcDbAttributeDefinition
  3
User 8
  2
22GENINF
 70
     1
  0
ATTDEF
  5
65
100
AcDbEntity
  8
INFO
100
AcDbText
 10
0.0
 20
-31.5
 30
0.0
 40
1.0
  1

100
AcDbAttributeDefinition
  3
Filter
  2
23GENINF
 70
     1
  0
ATTDEF
  5
66
100
AcDbEntity
  8
INFO
100
AcDbText
 10
0.0
 20
-33.0
 30
0.0
 40
1.0
  1

100
AcDbAttributeDefinition
  3
Bemerkung
  2
24GENINF
 70
     1
  0
ATTDEF
  5
67
100
AcDbEntity
  8
INFO
100
AcDbText
 10
0.0
 20
-34.5
 30
0.0
 40
1.0
  1

100
AcDbAttributeDefinition
  3
Genius Normteile ID
  2
0GENINF
 70
     1
  0
ENDBLK
  5
69
100
AcDbEntity
  8
0
100
AcDbBlockEnd
  0
ENDSEC
  0
SECTION
  2
ENTITIES
  0
LINE
  5
1200
100
AcDbEntity
  8
MSL5_360_3F-7
100
AcDbLine
 10
477.782286
 20
287.761134
 30
0.0
 11
484.922035
 21
287.761134
 31
0.0
  0
LINE
  5
1201
100
AcDbEntity
  8
MSL5_360_3F-7
100
AcDbLine
 10
477.782286
 20
227.761134
 30
0.0
 11
484.871167
 21
227.761134
 31
0.0
  0
LINE
  5
1202
100
AcDbEntity
  8
MSL5_360_3F-7
100
AcDbLine
 10
477.782286
 20
30.0
 30
0.0
 11
484.922035
 21
30.0
 31
0.0
  0
LINE
  5
1203
100
AcDbEntity
  8
MSL5_360_3F-7
100
AcDbLine
 10
477.782286
 20
-30.0
 30
0.0
 11
484.871167
 21
-30.0
 31
0.0
  0
LINE
  5
1204
100
AcDbEntity
  8
MSL5_360_3F-7
100
AcDbLine
 10
477.782286
 20
-148.245876
 30
0.0
 11
484.922035
 21
-148.245876
 31
0.0
  0
LINE
  5
1205
100
AcDbEntity
  8
MSL5_360_3F-7
100
AcDbLine
 10
477.782286
 20
-208.245876
 30
0.0
 11
484.871167
 21
-208.245876
 31
0.0
  0
LINE
  5
1206
100
AcDbEntity
  8
MSL5_360_3F-0
100
AcDbLine
 10
241.797534
 20
-253.245947
 30
0.0
 11
639.782286
 21
-253.245947
 31
0.0
  0
LINE
  5
1207
100
AcDbEntity
  8
MSL5_360_3F-0
100
AcDbLine
 10
243.746965
 20
-252.245876
 30
0.0
 11
639.282286
 21
-252.245876
 31
0.0
  0
LINE
  5
1208
100
AcDbEntity
  8
MSL5_360_3F-0
100
AcDbLine
 10
601.282286
 20
38.0
 30
0.0
 11
237.932286
 21
38.0
 31
0.0
  0
LINE
  5
1209
100
AcDbEntity
  8
MSL5_360_3F-4
100
AcDbLine
 10
639.282286
 20
67.830823
 30
0.0
 11
196.282286
 21
67.830823
 31
0.0
  0
LINE
  5
120A
100
AcDbEntity
  8
MSL5_360_3F-0
100
AcDbLine
 10
639.282286
 20
120.0
 30
0.0
 11
196.282286
 21
120.0
 31
0.0
  0
LINE
  5
120B
100
AcDbEntity
  8
MSL5_360_3F-4
100
AcDbLine
 10
196.282286
 20
-166.035172
 30
0.0
 11
639.282286
 21
-166.035172
 31
0.0
  0
LINE
  5
120C
100
AcDbEntity
  8
MSL5_360_3F-4
100
AcDbLine
 10
196.282286
 20
-190.456579
 30
0.0
 11
639.282286
 21
-190.456579
 31
0.0
  0
LINE
  5
120D
100
AcDbEntity
  8
MSL5_360_3F-0
100
AcDbLine
 10
196.282286
 20
-104.245876
 30
0.0
 11
591.817786
 21
-104.245876
 31
0.0
  0
LINE
  5
120E
100
AcDbEntity
  8
MSL5_360_3F-7
100
AcDbLine
 10
254.123046
 20
257.761134
 30
0.0
 11
580.21241
 21
257.761134
 31
0.0
  0
LINE
  5
120F
100
AcDbEntity
  8
MSL5_360_3F-0
100
AcDbLine
 10
195.782286
 20
182.761134
 30
0.0
 11
639.782286
 21
182.761134
 31
0.0
  0
LINE
  5
1210
100
AcDbEntity
  8
MSL5_360_3F-0
100
AcDbLine
 10
639.782286
 20
332.761134
 30
0.0
 11
195.782286
 21
332.761134
 31
0.0
  0
LINE
  5
1211
100
AcDbEntity
  8
MSL5_360_3F-7
100
AcDbLine
 10
254.123046
 20
0.0
 30
0.0
 11
580.21241
 21
0.0
 31
0.0
  0
LINE
  5
1212
100
AcDbEntity
  8
MSL5_360_3F-7
100
AcDbLine
 10
254.123046
 20
-178.245876
 30
0.0
 11
580.21241
 21
-178.245876
 31
0.0
  0
LINE
  5
1213
100
AcDbEntity
  8
MSL5_360_3F-0
100
AcDbLine
 10
639.782286
 20
-38.0
 30
0.0
 11
195.782286
 21
-38.0
 31
0.0
  0
LINE
  5
1214
100
AcDbEntity
  8
MSL5_360_3F-0
100
AcDbLine
 10
195.782286
 20
-103.245947
 30
0.0
 11
593.767038
 21
-103.245947
 31
0.0
  0
LINE
  5
1215
100
AcDbEntity
  8
MSL5_360_3F-0
100
AcDbLine
 10
195.782286
 20
38.0
 30
0.0
 11
639.782286
 21
38.0
 31
0.0
  0
LINE
  5
1216
100
AcDbEntity
  8
MSL5_360_3F-3
100
AcDbLine
 10
-47.537864
 20
90.967807
 30
0.0
 11
-41.109988
 21
83.307363
 31
0.0
  0
LINE
  5
1217
100
AcDbEntity
  8
MSL5_360_3F-3
100
AcDbLine
 10
-48.193686
 20
90.417507
 30
0.0
 11
-41.76581
 21
82.757063
 31
0.0
  0
LINE
  5
1218
100
AcDbEntity
  8
MSL5_360_3F-3
100
AcDbLine
 10
-48.0
 20
-13.582057
 30
0.0
 11
-43.812
 21
-16.0
 31
0.0
  0
LINE
  5
1219
100
AcDbEntity
  8
MSL5_360_3F-3
100
AcDbLine
 10
-48.0
 20
-13.582057
 30
0.0
 11
-43.812
 21
-16.0
 31
0.0
  0
LINE
  5
121A
100
AcDbEntity
  8
MSL5_360_3F-0
100
AcDbLine
 10
-13.496279
 20
119.532089
 30
0.0
 11
-73.285575
 21
69.362912
 31
0.0
  0
LINE
  5
121B
100
AcDbEntity
  8
MSL5_360_3F-0
100
AcDbLine
 10
-75.0
 20
66.6
 30
0.0
 11
-12.552112
 21
119.0
 31
0.0
1001
GENIUS_GENOREF_13
1005
17F4
  0
LINE
  5
121C
100
AcDbEntity
  8
MSL5_360_3F-7
100
AcDbLine
 10
-52.0
 20
0.0
 30
0.0
 11
-37.428367
 21
0.0
 31
0.0
  0
LINE
  5
121D
100
AcDbEntity
  8
MSL5_360_3F-3
100
AcDbLine
 10
-52.188
 20
-16.0
 30
0.0
 11
-43.812
 21
-16.0
 31
0.0
  0
LINE
  5
121E
100
AcDbEntity
  8
MSL5_360_3F-3
100
AcDbLine
 10
-52.188
 20
-16.0
 30
0.0
 11
-43.812
 21
-16.0
 31
0.0
  0
LINE
  5
121F
100
AcDbEntity
  8
MSL5_360_3F-3
100
AcDbLine
 10
-53.0
 20
-22.0
 30
0.0
 11
-43.0
 21
-22.0
 31
0.0
  0
LINE
  5
1220
100
AcDbEntity
  8
MSL5_360_3F-3
100
AcDbLine
 10
-53.0
 20
-22.0
 30
0.0
 11
-43.0
 21
-22.0
 31
0.0
  0
LINE
  5
1221
100
AcDbEntity
  8
MSL5_360_3F-3
100
AcDbLine
 10
-75.0
 20
38.0
 30
0.0
 11
75.0
 21
38.0
 31
0.0
  0
LINE
  5
1222
100
AcDbEntity
  8
MSL5_360_3F-0
100
AcDbLine
 10
-75.0
 20
-39.0
 30
0.0
 11
75.0
 21
-39.0
 31
0.0
1001
GENIUS_GENOREF_13
1005
17F4
  0
LINE
  5
1223
100
AcDbEntity
  8
MSL5_360_3F-3
100
AcDbLine
 10
-75.0
 20
-38.0
 30
0.0
 11
75.0
 21
-38.0
 31
0.0
  0
LINE
  5
1224
100
AcDbEntity
  8
MSL5_360_3F-0
100
AcDbLine
 10
-75.0
 20
66.6
 30
0.0
 11
-75.0
 21
-39.0
 31
0.0
1001
GENIUS_GENOREF_13
1005
17F4
  0
LINE
  5
1225
100
AcDbEntity
  8
MSL5_360_3F-7
100
AcDbLine
 10
-52.0
 20
0.0
 30
0.0
 11
-52.0
 21
14.571633
 31
0.0
  0
LINE
  5
1226
100
AcDbEntity
  8
MSL5_360_3F-7
100
AcDbLine
 10
-48.0
 20
-10.582057
 30
0.0
 11
-48.0
 21
-41.0
 31
0.0
  0
LINE
  5
1227
100
AcDbEntity
  8
MSL5_360_3F-7
100
AcDbLine
 10
-48.0
 20
-10.582057
 30
0.0
 11
-48.0
 21
-42.0
 31
0.0
  0
LINE
  5
1228
100
AcDbEntity
  8
MSL5_360_3F-3
100
AcDbLine
 10
-53.0
 20
-39.0
 30
0.0
 11
-53.0
 21
-22.0
 31
0.0
  0
LINE
  5
1229
100
AcDbEntity
  8
MSL5_360_3F-3
100
AcDbLine
 10
-53.0
 20
-39.0
 30
0.0
 11
-53.0
 21
-22.0
 31
0.0
  0
LINE
  5
122A
100
AcDbEntity
  8
MSL5_360_3F-3
100
AcDbLine
 10
-52.188
 20
-39.0
 30
0.0
 11
-52.188
 21
-16.0
 31
0.0
  0
LINE
  5
122B
100
AcDbEntity
  8
MSL5_360_3F-3
100
AcDbLine
 10
-52.188
 20
-39.0
 30
0.0
 11
-52.188
 21
-16.0
 31
0.0
  0
LINE
  5
122C
100
AcDbEntity
  8
MSL5_360_3F-3
100
AcDbLine
 10
-75.0
 20
-25.0
 30
0.0
 11
-58.0
 21
-25.0
 31
0.0
  0
LINE
  5
122D
100
AcDbEntity
  8
MSL5_360_3F-3
100
AcDbLine
 10
-75.0
 20
-25.812
 30
0.0
 11
-52.0
 21
-25.812
 31
0.0
  0
LINE
  5
122E
100
AcDbEntity
  8
MSL5_360_3F-3
100
AcDbLine
 10
-75.0
 20
-34.188
 30
0.0
 11
-52.0
 21
-34.188
 31
0.0
  0
LINE
  5
122F
100
AcDbEntity
  8
MSL5_360_3F-3
100
AcDbLine
 10
-75.0
 20
-35.0
 30
0.0
 11
-58.0
 21
-35.0
 31
0.0
  0
LINE
  5
1230
100
AcDbEntity
  8
MSL5_360_3F-7
100
AcDbLine
 10
-46.582057
 20
-30.0
 30
0.0
 11
-78.0
 21
-30.0
 31
0.0
  0
LINE
  5
1231
100
AcDbEntity
  8
MSL5_360_3F-3
100
AcDbLine
 10
-58.0
 20
-35.0
 30
0.0
 11
-58.0
 21
-25.0
 31
0.0
  0
LINE
  5
1232
100
AcDbEntity
  8
MSL5_360_3F-3
100
AcDbLine
 10
-49.582057
 20
-30.0
 30
0.0
 11
-52.0
 21
-34.188
 31
0.0
  0
LINE
  5
1233
100
AcDbEntity
  8
MSL5_360_3F-3
100
AcDbLine
 10
-52.0
 20
-34.188
 30
0.0
 11
-52.0
 21
-25.812
 31
0.0
  0
LINE
  5
1234
100
AcDbEntity
  8
MSL5_360_3F-3
100
AcDbLine
 10
-49.582057
 20
-30.0
 30
0.0
 11
-52.0
 21
-25.812
 31
0.0
  0
LINE
  5
1235
100
AcDbEntity
  8
MSL5_360_3F-7
100
AcDbLine
 10
-52.0
 20
0.0
 30
0.0
 11
-52.0
 21
-14.571633
 31
0.0
  0
LINE
  5
1236
100
AcDbEntity
  8
MSL5_360_3F-3
100
AcDbLine
 10
-48.0
 20
-13.582057
 30
0.0
 11
-52.188
 21
-16.0
 31
0.0
  0
LINE
  5
1237
100
AcDbEntity
  8
MSL5_360_3F-3
100
AcDbLine
 10
-48.0
 20
-13.582057
 30
0.0
 11
-52.188
 21
-16.0
 31
0.0
  0
LINE
  5
1238
100
AcDbEntity
  8
MSL5_360_3F-7
100
AcDbLine
 10
-52.0
 20
0.0
 30
0.0
 11
-66.571633
 21
0.0
 31
0.0
  0
LINE
  5
1239
100
AcDbEntity
  8
MSL5_360_3F-0
100
AcDbLine
 10
-78.999971
 20
59.998686
 30
0.0
 11
-78.999977
 21
67.998686
 31
0.0
  0
LINE
  5
123A
100
AcDbEntity
  8
MSL5_360_3F-3
100
AcDbLine
 10
-74.0
 20
67.4391
 30
0.0
 11
-74.0
 21
38.0
 31
0.0
1001
GENIUS_GENBH_13
1002
{
1000
OE
1000
CON1
1002
}
1001
GENIUS_GENOREF_13
1005
17F3
  0
LINE
  5
123B
100
AcDbEntity
  8
MSL5_360_3F-3
100
AcDbLine
 10
-75.0
 20
35.0
 30
0.0
 11
-58.0
 21
35.0
 31
0.0
  0
LINE
  5
123C
100
AcDbEntity
  8
MSL5_360_3F-3
100
AcDbLine
 10
-75.0
 20
34.188
 30
0.0
 11
-52.0
 21
34.188
 31
0.0
  0
LINE
  5
123D
100
AcDbEntity
  8
MSL5_360_3F-3
100
AcDbLine
 10
-75.0
 20
25.0
 30
0.0
 11
-58.0
 21
25.0
 31
0.0
  0
LINE
  5
123E
100
AcDbEntity
  8
MSL5_360_3F-3
100
AcDbLine
 10
-75.0
 20
25.812
 30
0.0
 11
-52.0
 21
25.812
 31
0.0
  0
LINE
  5
123F
100
AcDbEntity
  8
MSL5_360_3F-7
100
AcDbLine
 10
-46.582057
 20
30.0
 30
0.0
 11
-78.0
 21
30.0
 31
0.0
  0
LINE
  5
1240
100
AcDbEntity
  8
MSL5_360_3F-3
100
AcDbLine
 10
-58.0
 20
25.0
 30
0.0
 11
-58.0
 21
35.0
 31
0.0
  0
LINE
  5
1241
100
AcDbEntity
  8
MSL5_360_3F-3
100
AcDbLine
 10
-49.582057
 20
30.0
 30
0.0
 11
-52.0
 21
25.812
 31
0.0
  0
LINE
  5
1242
100
AcDbEntity
  8
MSL5_360_3F-3
100
AcDbLine
 10
-52.0
 20
25.812
 30
0.0
 11
-52.0
 21
34.188
 31
0.0
  0
LINE
  5
1243
100
AcDbEntity
  8
MSL5_360_3F-3
100
AcDbLine
 10
-49.582057
 20
30.0
 30
0.0
 11
-52.0
 21
34.188
 31
0.0
  0
LINE
  5
1244
100
AcDbEntity
  8
MSL5_360_3F-0
100
AcDbLine
 10
-78.999971
 20
45.998686
 30
0.0
 11
-78.999977
 21
53.998686
 31
0.0
  0
LINE
  5
1245
100
AcDbEntity
  8
MSL5_360_3F-7
100
AcDbLine
 10
-81.788719
 20
50.000024
 30
0.0
 11
-70.595992
 21
50.000032
 31
0.0
  0
LINE
  5
1246
100
AcDbEntity
  8
MSL5_360_3F-0
100
AcDbLine
 10
-75.0
 20
44.498689
 30
0.0
 11
-77.49997
 21
44.498687
 31
0.0
  0
ARC
  5
1247
100
AcDbEntity
  8
MSL5_360_3F-0
100
AcDbCircle
 10
-77.499971
 20
45.998687
 30
0.0
 40
1.5
100
AcDbArc
 50
180.000041
 51
270.00004
  0
LINE
  5
1248
100
AcDbEntity
  8
MSL5_360_3F-7
100
AcDbLine
 10
-81.788719
 20
64.000024
 30
0.0
 11
-70.595992
 21
64.000032
 31
0.0
  0
ARC
  5
1249
100
AcDbEntity
  8
MSL5_360_3F-0
100
AcDbCircle
 10
-77.499977
 20
53.998687
 30
0.0
 40
1.5
100
AcDbArc
 50
90.000038
 51
180.000041
  0
ARC
  5
124A
100
AcDbEntity
  8
MSL5_360_3F-0
100
AcDbCircle
 10
-77.499971
 20
59.998687
 30
0.0
 40
1.5
100
AcDbArc
 50
180.000041
 51
270.00004
  0
LINE
  5
124B
100
AcDbEntity
  8
MSL5_360_3F-0
100
AcDbLine
 10
-77.499978
 20
55.498687
 30
0.0
 11
-75.0
 21
55.498689
 31
0.0
  0
LINE
  5
124C
100
AcDbEntity
  8
MSL5_360_3F-0
100
AcDbLine
 10
-75.0
 20
58.498689
 30
0.0
 11
-77.49997
 21
58.498687
 31
0.0
  0
LINE
  5
124D
100
AcDbEntity
  8
MSL5_360_3F-0
100
AcDbLine
 10
-74.843072
 20
70.666832
 30
0.0
 11
-66.416583
 21
77.737496
 31
0.0
  0
LINE
  5
124E
100
AcDbEntity
  8
MSL5_360_3F-7
100
AcDbLine
 10
-73.301727
 20
77.386409
 30
0.0
 11
-68.331701
 21
71.463363
 31
0.0
  0
LINE
  5
124F
100
AcDbEntity
  8
MSL5_360_3F-3
100
AcDbLine
 10
-72.838105
 20
68.432977
 30
0.0
 11
-73.470403
 21
69.186521
 31
0.0
  0
ARC
  5
1250
100
AcDbEntity
  8
MSL5_360_3F-0
100
AcDbCircle
 10
-72.0
 20
67.830823
 30
0.0
 40
2.0
100
AcDbArc
 50
130.0
 51
180.0
1001
GENIUS_GENODEF_13
1002
{
1000
HIER
1070
     0
1002
}
1002
{
1000
MANEDIT
1070
     0
1002
}
1002
{
1000
NOSEL
1070
     0
1002
}
1002
{
1000
BEHIND
1070
     0
1002
}
1002
{
1000
REACTOR
1002
}
1001
GENIUS_GENOBJ-N-FIL_13
1002
{
1000
OWNER
1000
GEN
1002
}
  0
LINE
  5
1251
100
AcDbEntity
  8
MSL5_360_3F-0
100
AcDbLine
 10
-74.0
 20
69.49869
 30
0.0
 11
-74.0
 21
67.830823
 31
0.0
  0
LINE
  5
1252
100
AcDbEntity
  8
MSL5_360_3F-0
100
AcDbLine
 10
-74.0
 20
67.830823
 30
0.0
 11
-74.0
 21
67.4391
 31
0.0
1001
GENIUS_GENOREF_13
1005
17F3
  0
LINE
  5
1253
100
AcDbEntity
  8
MSL5_360_3F-0
100
AcDbLine
 10
-73.557497
 20
69.134743
 30
0.0
 11
-74.843072
 21
70.666832
 31
0.0
  0
ARC
  5
1254
100
AcDbEntity
  8
MSL5_360_3F-0
100
AcDbCircle
 10
-77.499977
 20
67.998687
 30
0.0
 40
1.5
100
AcDbArc
 50
90.000038
 51
180.000041
  0
LINE
  5
1255
100
AcDbEntity
  8
MSL5_360_3F-0
100
AcDbLine
 10
-77.499978
 20
69.498687
 30
0.0
 11
-74.0
 21
69.49869
 31
0.0
  0
LINE
  5
1256
100
AcDbEntity
  8
MSL5_360_3F-0
100
AcDbLine
 10
-72.365354
 20
76.270484
 30
0.0
 11
-72.161916
 21
72.916589
 31
0.0
  0
LINE
  5
1257
100
AcDbEntity
  8
MSL5_360_3F-0
100
AcDbLine
 10
-69.097739
 20
75.487739
 30
0.0
 11
-72.365354
 21
76.270484
 31
0.0
  0
LINE
  5
1258
100
AcDbEntity
  8
MSL5_360_3F-3
100
AcDbLine
 10
-64.564825
 20
75.375084
 30
0.0
 11
-65.207612
 21
76.141128
 31
0.0
  0
LINE
  5
1259
100
AcDbEntity
  8
MSL5_360_3F-0
100
AcDbLine
 10
-66.416583
 20
77.737496
 30
0.0
 11
-65.131008
 21
76.205407
 31
0.0
  0
LINE
  5
125A
100
AcDbEntity
  8
MSL5_360_3F-0
100
AcDbLine
 10
-50.937964
 20
86.809377
 30
0.0
 11
-51.580752
 21
87.575422
 31
0.0
  0
LINE
  5
125B
100
AcDbEntity
  8
MSL5_360_3F-7
100
AcDbLine
 10
-30.0
 20
0.0
 30
0.0
 11
-30.0
 21
7.888213
 31
0.0
  0
LINE
  5
125C
100
AcDbEntity
  8
MSL5_360_3F-7
100
AcDbLine
 10
0.0
 20
0.0
 30
0.0
 11
0.0
 21
21.868677
 31
0.0
  0
LINE
  5
125D
100
AcDbEntity
  8
MSL5_360_3F-7
100
AcDbLine
 10
30.0
 20
0.0
 30
0.0
 11
30.0
 21
7.474898
 31
0.0
  0
LINE
  5
125E
100
AcDbEntity
  8
MSL5_360_3F-0
100
AcDbLine
 10
75.0
 20
-39.0
 30
0.0
 11
75.0
 21
66.6
 31
0.0
1001
GENIUS_GENOREF_13
1005
17F4
  0
LINE
  5
125F
100
AcDbEntity
  8
MSL5_360_3F-7
100
AcDbLine
 10
52.0
 20
0.0
 30
0.0
 11
52.0
 21
14.505568
 31
0.0
  0
LINE
  5
1260
100
AcDbEntity
  8
MSL5_360_3F-7
100
AcDbLine
 10
52.0
 20
0.0
 30
0.0
 11
37.494432
 21
0.0
 31
0.0
  0
LINE
  5
1261
100
AcDbEntity
  8
MSL5_360_3F-7
100
AcDbLine
 10
0.0
 20
-30.0
 30
0.0
 11
-7.864948
 21
-30.0
 31
0.0
  0
CIRCLE
  5
1262
100
AcDbEntity
  8
MSL5_360_3F-0
100
AcDbCircle
 10
0.0
 20
-30.0
 30
0.0
 40
5.0
  0
LINE
  5
1263
100
AcDbEntity
  8
MSL5_360_3F-7
100
AcDbLine
 10
0.0
 20
0.0
 30
0.0
 11
-21.868677
 21
0.0
 31
0.0
  0
LINE
  5
1264
100
AcDbEntity
  8
MSL5_360_3F-7
100
AcDbLine
 10
-30.0
 20
-30.0
 30
0.0
 11
-30.0
 21
-18.173239
 31
0.0
  0
LINE
  5
1265
100
AcDbEntity
  8
MSL5_360_3F-3
100
AcDbLine
 10
-43.0
 20
-39.0
 30
0.0
 11
-43.0
 21
-22.0
 31
0.0
  0
LINE
  5
1266
100
AcDbEntity
  8
MSL5_360_3F-3
100
AcDbLine
 10
-43.0
 20
-39.0
 30
0.0
 11
-43.0
 21
-22.0
 31
0.0
  0
LINE
  5
1267
100
AcDbEntity
  8
MSL5_360_3F-3
100
AcDbLine
 10
-43.812
 20
-39.0
 30
0.0
 11
-43.812
 21
-16.0
 31
0.0
  0
CIRCLE
  5
1268
100
AcDbEntity
  8
MSL5_360_3F-0
100
AcDbCircle
 10
-30.0
 20
-30.0
 30
0.0
 40
5.5
  0
ARC
  5
1269
100
AcDbEntity
  8
MSL5_360_3F-3
100
AcDbCircle
 10
-30.0
 20
-30.0
 30
0.0
 40
9.0
100
AcDbArc
 50
0.0
 51
179.999998
  0
LINE
  5
126A
100
AcDbEntity
  8
MSL5_360_3F-7
100
AcDbLine
 10
-30.0
 20
-30.0
 30
0.0
 11
-18.173239
 21
-30.0
 31
0.0
  0
LINE
  5
126B
100
AcDbEntity
  8
MSL5_360_3F-7
100
AcDbLine
 10
-30.0
 20
-30.0
 30
0.0
 11
-30.0
 21
-41.0
 31
0.0
  0
LINE
  5
126C
100
AcDbEntity
  8
MSL5_360_3F-7
100
AcDbLine
 10
-30.0
 20
-30.0
 30
0.0
 11
-41.826761
 21
-30.0
 31
0.0
  0
LINE
  5
126D
100
AcDbEntity
  8
MSL5_360_3F-3
100
AcDbLine
 10
-39.0
 20
-30.0
 30
0.0
 11
-39.0
 21
-39.0
 31
0.0
  0
LINE
  5
126E
100
AcDbEntity
  8
MSL5_360_3F-3
100
AcDbLine
 10
-21.0
 20
-39.0
 30
0.0
 11
-21.0
 21
-30.0
 31
0.0
  0
LINE
  5
126F
100
AcDbEntity
  8
MSL5_360_3F-7
100
AcDbLine
 10
-30.0
 20
0.0
 30
0.0
 11
-22.111787
 21
0.0
 31
0.0
  0
LINE
  5
1270
100
AcDbEntity
  8
MSL5_360_3F-7
100
AcDbLine
 10
-30.0
 20
0.0
 30
0.0
 11
-37.888213
 21
0.0
 31
0.0
  0
LINE
  5
1271
100
AcDbEntity
  8
MSL5_360_3F-7
100
AcDbLine
 10
-30.0
 20
0.0
 30
0.0
 11
-30.0
 21
-7.888213
 31
0.0
  0
CIRCLE
  5
1272
100
AcDbEntity
  8
MSL5_360_3F-0
100
AcDbCircle
 10
-30.0
 20
0.0
 30
0.0
 40
5.0
  0
LINE
  5
1273
100
AcDbEntity
  8
MSL5_360_3F-7
100
AcDbLine
 10
30.0
 20
-30.0
 30
0.0
 11
30.0
 21
-18.367745
 31
0.0
  0
LINE
  5
1274
100
AcDbEntity
  8
MSL5_360_3F-7
100
AcDbLine
 10
0.0
 20
-30.0
 30
0.0
 11
0.0
 21
-22.135052
 31
0.0
  0
CIRCLE
  5
1275
100
AcDbEntity
  8
MSL5_360_3F-0
100
AcDbCircle
 10
30.0
 20
-30.0
 30
0.0
 40
5.5
  0
ARC
  5
1276
100
AcDbEntity
  8
MSL5_360_3F-3
100
AcDbCircle
 10
30.0
 20
-30.0
 30
0.0
 40
9.0
100
AcDbArc
 50
0.0
 51
179.999998
  0
LINE
  5
1277
100
AcDbEntity
  8
MSL5_360_3F-7
100
AcDbLine
 10
30.0
 20
-30.0
 30
0.0
 11
18.367745
 21
-30.0
 31
0.0
  0
LINE
  5
1278
100
AcDbEntity
  8
MSL5_360_3F-7
100
AcDbLine
 10
0.0
 20
-30.0
 30
0.0
 11
0.0
 21
-37.864948
 31
0.0
  0
LINE
  5
1279
100
AcDbEntity
  8
MSL5_360_3F-7
100
AcDbLine
 10
0.0
 20
-30.0
 30
0.0
 11
7.864948
 21
-30.0
 31
0.0
  0
LINE
  5
127A
100
AcDbEntity
  8
MSL5_360_3F-7
100
AcDbLine
 10
30.0
 20
-30.0
 30
0.0
 11
30.0
 21
-41.0
 31
0.0
  0
LINE
  5
127B
100
AcDbEntity
  8
MSL5_360_3F-7
100
AcDbLine
 10
30.0
 20
-30.0
 30
0.0
 11
41.632255
 21
-30.0
 31
0.0
  0
LINE
  5
127C
100
AcDbEntity
  8
MSL5_360_3F-3
100
AcDbLine
 10
21.0
 20
-39.0
 30
0.0
 11
21.0
 21
-30.0
 31
0.0
  0
LINE
  5
127D
100
AcDbEntity
  8
MSL5_360_3F-3
100
AcDbLine
 10
39.0
 20
-30.0
 30
0.0
 11
39.0
 21
-39.0
 31
0.0
  0
LINE
  5
127E
100
AcDbEntity
  8
MSL5_360_3F-7
100
AcDbLine
 10
0.0
 20
0.0
 30
0.0
 11
21.868677
 21
0.0
 31
0.0
  0
LINE
  5
127F
100
AcDbEntity
  8
MSL5_360_3F-7
100
AcDbLine
 10
0.0
 20
0.0
 30
0.0
 11
0.0
 21
-21.868677
 31
0.0
  0
LINE
  5
1280
100
AcDbEntity
  8
MSL5_360_3F-7
100
AcDbLine
 10
30.0
 20
0.0
 30
0.0
 11
37.474898
 21
0.0
 31
0.0
  0
CIRCLE
  5
1281
100
AcDbEntity
  8
MSL5_360_3F-0
100
AcDbCircle
 10
30.0
 20
0.0
 30
0.0
 40
5.0
  0
LINE
  5
1282
100
AcDbEntity
  8
MSL5_360_3F-7
100
AcDbLine
 10
30.0
 20
0.0
 30
0.0
 11
30.0
 21
-7.474898
 31
0.0
  0
LINE
  5
1283
100
AcDbEntity
  8
MSL5_360_3F-7
100
AcDbLine
 10
30.0
 20
0.0
 30
0.0
 11
22.525102
 21
0.0
 31
0.0
  0
LINE
  5
1284
100
AcDbEntity
  8
MSL5_360_3F-3
100
AcDbLine
 10
43.0
 20
-39.0
 30
0.0
 11
43.0
 21
-22.0
 31
0.0
  0
LINE
  5
1285
100
AcDbEntity
  8
MSL5_360_3F-3
100
AcDbLine
 10
43.0
 20
-39.0
 30
0.0
 11
43.0
 21
-22.0
 31
0.0
  0
LINE
  5
1286
100
AcDbEntity
  8
MSL5_360_3F-3
100
AcDbLine
 10
43.812
 20
-39.0
 30
0.0
 11
43.812
 21
-16.0
 31
0.0
  0
LINE
  5
1287
100
AcDbEntity
  8
MSL5_360_3F-3
100
AcDbLine
 10
43.812
 20
-39.0
 30
0.0
 11
43.812
 21
-16.0
 31
0.0
  0
LINE
  5
1288
100
AcDbEntity
  8
MSL5_360_3F-3
100
AcDbLine
 10
53.0
 20
-39.0
 30
0.0
 11
53.0
 21
-22.0
 31
0.0
  0
LINE
  5
1289
100
AcDbEntity
  8
MSL5_360_3F-3
100
AcDbLine
 10
53.0
 20
-39.0
 30
0.0
 11
53.0
 21
-22.0
 31
0.0
  0
LINE
  5
128A
100
AcDbEntity
  8
MSL5_360_3F-3
100
AcDbLine
 10
52.188
 20
-39.0
 30
0.0
 11
52.188
 21
-16.0
 31
0.0
  0
LINE
  5
128B
100
AcDbEntity
  8
MSL5_360_3F-3
100
AcDbLine
 10
52.188
 20
-39.0
 30
0.0
 11
52.188
 21
-16.0
 31
0.0
  0
LINE
  5
128C
100
AcDbEntity
  8
MSL5_360_3F-7
100
AcDbLine
 10
48.0
 20
-10.582057
 30
0.0
 11
48.0
 21
-41.0
 31
0.0
  0
LINE
  5
128D
100
AcDbEntity
  8
MSL5_360_3F-7
100
AcDbLine
 10
48.0
 20
-10.582057
 30
0.0
 11
48.0
 21
-42.0
 31
0.0
  0
LINE
  5
128E
100
AcDbEntity
  8
MSL5_360_3F-3
100
AcDbLine
 10
75.0
 20
-25.0
 30
0.0
 11
58.0
 21
-25.0
 31
0.0
  0
LINE
  5
128F
100
AcDbEntity
  8
MSL5_360_3F-3
100
AcDbLine
 10
75.0
 20
-25.812
 30
0.0
 11
52.0
 21
-25.812
 31
0.0
  0
LINE
  5
1290
100
AcDbEntity
  8
MSL5_360_3F-7
100
AcDbLine
 10
46.582057
 20
-30.0
 30
0.0
 11
78.0
 21
-30.0
 31
0.0
  0
LINE
  5
1291
100
AcDbEntity
  8
MSL5_360_3F-3
100
AcDbLine
 10
75.0
 20
-35.0
 30
0.0
 11
58.0
 21
-35.0
 31
0.0
  0
LINE
  5
1292
100
AcDbEntity
  8
MSL5_360_3F-3
100
AcDbLine
 10
75.0
 20
-34.188
 30
0.0
 11
52.0
 21
-34.188
 31
0.0
  0
LINE
  5
1293
100
AcDbEntity
  8
MSL5_360_3F-3
100
AcDbLine
 10
49.582057
 20
-30.0
 30
0.0
 11
52.0
 21
-34.188
 31
0.0
  0
LINE
  5
1294
100
AcDbEntity
  8
MSL5_360_3F-3
100
AcDbLine
 10
49.582057
 20
-30.0
 30
0.0
 11
52.0
 21
-25.812
 31
0.0
  0
LINE
  5
1295
100
AcDbEntity
  8
MSL5_360_3F-3
100
AcDbLine
 10
52.0
 20
-34.188
 30
0.0
 11
52.0
 21
-25.812
 31
0.0
  0
LINE
  5
1296
100
AcDbEntity
  8
MSL5_360_3F-3
100
AcDbLine
 10
58.0
 20
-35.0
 30
0.0
 11
58.0
 21
-25.0
 31
0.0
  0
LINE
  5
1297
100
AcDbEntity
  8
MSL5_360_3F-7
100
AcDbLine
 10
52.0
 20
0.0
 30
0.0
 11
66.505568
 21
0.0
 31
0.0
  0
LINE
  5
1298
100
AcDbEntity
  8
MSL5_360_3F-7
100
AcDbLine
 10
52.0
 20
0.0
 30
0.0
 11
52.0
 21
-14.505568
 31
0.0
  0
LINE
  5
1299
100
AcDbEntity
  8
MSL5_360_3F-3
100
AcDbLine
 10
48.0
 20
-13.582057
 30
0.0
 11
43.812
 21
-16.0
 31
0.0
  0
LINE
  5
129A
100
AcDbEntity
  8
MSL5_360_3F-3
100
AcDbLine
 10
48.0
 20
-13.582057
 30
0.0
 11
43.812
 21
-16.0
 31
0.0
  0
LINE
  5
129B
100
AcDbEntity
  8
MSL5_360_3F-3
100
AcDbLine
 10
43.812
 20
-16.0
 30
0.0
 11
52.188
 21
-16.0
 31
0.0
  0
LINE
  5
129C
100
AcDbEntity
  8
MSL5_360_3F-3
100
AcDbLine
 10
43.812
 20
-16.0
 30
0.0
 11
52.188
 21
-16.0
 31
0.0
  0
LINE
  5
129D
100
AcDbEntity
  8
MSL5_360_3F-3
100
AcDbLine
 10
43.0
 20
-22.0
 30
0.0
 11
53.0
 21
-22.0
 31
0.0
  0
LINE
  5
129E
100
AcDbEntity
  8
MSL5_360_3F-3
100
AcDbLine
 10
43.0
 20
-22.0
 30
0.0
 11
53.0
 21
-22.0
 31
0.0
  0
LINE
  5
129F
100
AcDbEntity
  8
MSL5_360_3F-3
100
AcDbLine
 10
48.0
 20
-13.582057
 30
0.0
 11
52.188
 21
-16.0
 31
0.0
  0
LINE
  5
12A0
100
AcDbEntity
  8
MSL5_360_3F-3
100
AcDbLine
 10
48.0
 20
-13.582057
 30
0.0
 11
52.188
 21
-16.0
 31
0.0
  0
LINE
  5
12A1
100
AcDbEntity
  8
MSL5_360_3F-3
100
AcDbLine
 10
47.537864
 20
90.967807
 30
0.0
 11
41.109988
 21
83.307363
 31
0.0
  0
LINE
  5
12A2
100
AcDbEntity
  8
MSL5_360_3F-3
100
AcDbLine
 10
48.193686
 20
90.417507
 30
0.0
 11
41.76581
 21
82.757063
 31
0.0
  0
LINE
  5
12A3
100
AcDbEntity
  8
MSL5_360_3F-7
100
AcDbLine
 10
45.082626
 20
96.944219
 30
0.0
 11
34.798024
 21
84.687508
 31
0.0
  0
LINE
  5
12A4
100
AcDbEntity
  8
MSL5_360_3F-0
100
AcDbLine
 10
13.496279
 20
119.532089
 30
0.0
 11
73.285575
 21
69.362912
 31
0.0
  0
LINE
  5
12A5
100
AcDbEntity
  8
MSL5_360_3F-0
100
AcDbLine
 10
12.552112
 20
119.0
 30
0.0
 11
75.0
 21
66.6
 31
0.0
1001
GENIUS_GENOREF_13
1005
17F4
  0
MTEXT
  5
12A6
100
AcDbEntity
  8
MSL5_360_3F-6
100
AcDbMText
 10
-10.082601
 20
68.394298
 30
0.0
 40
3.5
 41
22.192126
 71
     1
 72
     1
  1
{MSL5-360-3F}
  0
LINE
  5
12A7
100
AcDbEntity
  8
MSL5_360_3F-7
100
AcDbLine
 10
0.0
 20
30.0
 30
0.0
 11
-7.864948
 21
30.0
 31
0.0
  0
CIRCLE
  5
12A8
100
AcDbEntity
  8
MSL5_360_3F-0
100
AcDbCircle
 10
0.0
 20
30.0
 30
0.0
 40
5.0
  0
LINE
  5
12A9
100
AcDbEntity
  8
MSL5_360_3F-7
100
AcDbLine
 10
-30.0
 20
30.0
 30
0.0
 11
-30.0
 21
41.607953
 31
0.0
  0
CIRCLE
  5
12AA
100
AcDbEntity
  8
MSL5_360_3F-3
100
AcDbCircle
 10
-30.0
 20
30.0
 30
0.0
 40
9.0
  0
LINE
  5
12AB
100
AcDbEntity
  8
MSL5_360_3F-7
100
AcDbLine
 10
-30.0
 20
30.0
 30
0.0
 11
-18.392047
 21
30.0
 31
0.0
  0
LINE
  5
12AC
100
AcDbEntity
  8
MSL5_360_3F-7
100
AcDbLine
 10
-30.0
 20
30.0
 30
0.0
 11
-30.0
 21
18.392047
 31
0.0
  0
LINE
  5
12AD
100
AcDbEntity
  8
MSL5_360_3F-7
100
AcDbLine
 10
-30.0
 20
30.0
 30
0.0
 11
-41.607953
 21
30.0
 31
0.0
  0
CIRCLE
  5
12AE
100
AcDbEntity
  8
MSL5_360_3F-0
100
AcDbCircle
 10
-30.0
 20
30.0
 30
0.0
 40
5.5
  0
LINE
  5
12AF
100
AcDbEntity
  8
MSL5_360_3F-7
100
AcDbLine
 10
30.0
 20
30.0
 30
0.0
 11
30.0
 21
41.607953
 31
0.0
  0
LINE
  5
12B0
100
AcDbEntity
  8
MSL5_360_3F-7
100
AcDbLine
 10
0.0
 20
30.0
 30
0.0
 11
0.0
 21
37.864948
 31
0.0
  0
CIRCLE
  5
12B1
100
AcDbEntity
  8
MSL5_360_3F-3
100
AcDbCircle
 10
30.0
 20
30.0
 30
0.0
 40
9.0
  0
LINE
  5
12B2
100
AcDbEntity
  8
MSL5_360_3F-7
100
AcDbLine
 10
30.0
 20
30.0
 30
0.0
 11
18.392047
 21
30.0
 31
0.0
  0
LINE
  5
12B3
100
AcDbEntity
  8
MSL5_360_3F-7
100
AcDbLine
 10
0.0
 20
30.0
 30
0.0
 11
0.0
 21
22.135052
 31
0.0
  0
LINE
  5
12B4
100
AcDbEntity
  8
MSL5_360_3F-7
100
AcDbLine
 10
0.0
 20
30.0
 30
0.0
 11
7.864948
 21
30.0
 31
0.0
  0
LINE
  5
12B5
100
AcDbEntity
  8
MSL5_360_3F-7
100
AcDbLine
 10
30.0
 20
30.0
 30
0.0
 11
30.0
 21
18.392047
 31
0.0
  0
LINE
  5
12B6
100
AcDbEntity
  8
MSL5_360_3F-7
100
AcDbLine
 10
30.0
 20
30.0
 30
0.0
 11
41.607953
 21
30.0
 31
0.0
  0
CIRCLE
  5
12B7
100
AcDbEntity
  8
MSL5_360_3F-0
100
AcDbCircle
 10
30.0
 20
30.0
 30
0.0
 40
5.5
  0
LINE
  5
12B8
100
AcDbEntity
  8
MSL5_360_3F-7
100
AcDbLine
 10
0.0
 20
93.0
 30
0.0
 11
-14.571633
 21
93.0
 31
0.0
  0
LINE
  5
12B9
100
AcDbEntity
  8
MSL5_360_3F-0
100
AcDbLine
 10
-12.552112
 20
119.0
 30
0.0
 11
12.552112
 21
119.0
 31
0.0
1001
GENIUS_GENOREF_13
1005
17F4
  0
LINE
  5
12BA
100
AcDbEntity
  8
MSL5_360_3F-0
100
AcDbLine
 10
0.0
 20
120.0
 30
0.0
 11
-12.210704
 21
120.0
 31
0.0
  0
LINE
  5
12BB
100
AcDbEntity
  8
MSL5_360_3F-3
100
AcDbLine
 10
-38.770662
 20
98.324364
 30
0.0
 11
-32.342786
 21
90.663919
 31
0.0
  0
LINE
  5
12BC
100
AcDbEntity
  8
MSL5_360_3F-3
100
AcDbLine
 10
-38.114839
 20
98.874664
 30
0.0
 11
-31.686963
 21
91.214219
 31
0.0
  0
LINE
  5
12BD
100
AcDbEntity
  8
MSL5_360_3F-7
100
AcDbLine
 10
-45.082626
 20
96.944219
 30
0.0
 11
-34.798024
 21
84.687508
 31
0.0
  0
LINE
  5
12BE
100
AcDbEntity
  8
MSL5_360_3F-0
100
AcDbLine
 10
-34.084986
 20
100.950705
 30
0.0
 11
-34.727774
 21
101.716749
 31
0.0
  0
ARC
  5
12BF
100
AcDbEntity
  8
MSL5_360_3F-0
100
AcDbCircle
 10
-12.210704
 20
118.0
 30
0.0
 40
2.0
100
AcDbArc
 50
90.0
 51
130.0
1001
GENIUS_GENODEF_13
1002
{
1000
HIER
1070
     0
1002
}
1002
{
1000
MANEDIT
1070
     0
1002
}
1002
{
1000
NOSEL
1070
     0
1002
}
1002
{
1000
BEHIND
1070
     0
1002
}
1002
{
1000
REACTOR
1002
}
1001
GENIUS_GENOBJ-N-FIL_13
1002
{
1000
OWNER
1000
GEN
1002
}
  0
LINE
  5
12C0
100
AcDbEntity
  8
MSL5_360_3F-3
100
AcDbLine
 10
38.114839
 20
98.874664
 30
0.0
 11
31.686963
 21
91.214219
 31
0.0
  0
LINE
  5
12C1
100
AcDbEntity
  8
MSL5_360_3F-3
100
AcDbLine
 10
38.770662
 20
98.324364
 30
0.0
 11
32.342786
 21
90.663919
 31
0.0
  0
LINE
  5
12C2
100
AcDbEntity
  8
MSL5_360_3F-7
100
AcDbLine
 10
0.0
 20
93.0
 30
0.0
 11
0.0
 21
107.571633
 31
0.0
  0
LINE
  5
12C3
100
AcDbEntity
  8
MSL5_360_3F-7
100
AcDbLine
 10
0.0
 20
93.0
 30
0.0
 11
0.0
 21
78.428367
 31
0.0
  0
LINE
  5
12C4
100
AcDbEntity
  8
MSL5_360_3F-7
100
AcDbLine
 10
0.0
 20
93.0
 30
0.0
 11
14.571633
 21
93.0
 31
0.0
  0
LINE
  5
12C5
100
AcDbEntity
  8
MSL5_360_3F-0
100
AcDbLine
 10
0.0
 20
120.0
 30
0.0
 11
12.210704
 21
120.0
 31
0.0
  0
ARC
  5
12C6
100
AcDbEntity
  8
MSL5_360_3F-0
100
AcDbCircle
 10
12.210704
 20
118.0
 30
0.0
 40
2.0
100
AcDbArc
 50
50.0
 51
90.0
1001
GENIUS_GENODEF_13
1002
{
1000
HIER
1070
     0
1002
}
1002
{
1000
MANEDIT
1070
     0
1002
}
1002
{
1000
NOSEL
1070
     0
1002
}
1002
{
1000
BEHIND
1070
     0
1002
}
1002
{
1000
REACTOR
1002
}
1001
GENIUS_GENOBJ-N-FIL_13
1002
{
1000
OWNER
1000
GEN
1002
}
  0
LINE
  5
12C7
100
AcDbEntity
  8
MSL5_360_3F-3
100
AcDbLine
 10
34.084986
 20
100.950705
 30
0.0
 11
34.727774
 21
101.716749
 31
0.0
  0
LINE
  5
12C8
100
AcDbEntity
  8
MSL5_360_3F-3
100
AcDbLine
 10
74.0
 20
67.4391
 30
0.0
 11
74.0
 21
38.0
 31
0.0
1001
GENIUS_GENBH_13
1002
{
1000
OE
1000
CON1
1002
}
1001
GENIUS_GENOREF_13
1005
17F3
  0
LINE
  5
12C9
100
AcDbEntity
  8
MSL5_360_3F-3
100
AcDbLine
 10
75.0
 20
35.0
 30
0.0
 11
58.0
 21
35.0
 31
0.0
  0
LINE
  5
12CA
100
AcDbEntity
  8
MSL5_360_3F-3
100
AcDbLine
 10
75.0
 20
34.188
 30
0.0
 11
52.0
 21
34.188
 31
0.0
  0
LINE
  5
12CB
100
AcDbEntity
  8
MSL5_360_3F-3
100
AcDbLine
 10
75.0
 20
34.188
 30
0.0
 11
52.0
 21
34.188
 31
0.0
  0
LINE
  5
12CC
100
AcDbEntity
  8
MSL5_360_3F-3
100
AcDbLine
 10
75.0
 20
35.0
 30
0.0
 11
58.0
 21
35.0
 31
0.0
  0
LINE
  5
12CD
100
AcDbEntity
  8
MSL5_360_3F-7
100
AcDbLine
 10
46.582057
 20
30.0
 30
0.0
 11
78.0
 21
30.0
 31
0.0
  0
LINE
  5
12CE
100
AcDbEntity
  8
MSL5_360_3F-7
100
AcDbLine
 10
46.582057
 20
30.0
 30
0.0
 11
78.0
 21
30.0
 31
0.0
  0
LINE
  5
12CF
100
AcDbEntity
  8
MSL5_360_3F-3
100
AcDbLine
 10
75.0
 20
25.812
 30
0.0
 11
52.0
 21
25.812
 31
0.0
  0
LINE
  5
12D0
100
AcDbEntity
  8
MSL5_360_3F-3
100
AcDbLine
 10
75.0
 20
25.812
 30
0.0
 11
52.0
 21
25.812
 31
0.0
  0
LINE
  5
12D1
100
AcDbEntity
  8
MSL5_360_3F-3
100
AcDbLine
 10
75.0
 20
25.0
 30
0.0
 11
58.0
 21
25.0
 31
0.0
  0
LINE
  5
12D2
100
AcDbEntity
  8
MSL5_360_3F-3
100
AcDbLine
 10
75.0
 20
25.0
 30
0.0
 11
58.0
 21
25.0
 31
0.0
  0
LINE
  5
12D3
100
AcDbEntity
  8
MSL5_360_3F-3
100
AcDbLine
 10
49.582057
 20
30.0
 30
0.0
 11
52.0
 21
25.812
 31
0.0
  0
LINE
  5
12D4
100
AcDbEntity
  8
MSL5_360_3F-3
100
AcDbLine
 10
49.582057
 20
30.0
 30
0.0
 11
52.0
 21
25.812
 31
0.0
  0
LINE
  5
12D5
100
AcDbEntity
  8
MSL5_360_3F-3
100
AcDbLine
 10
52.0
 20
25.812
 30
0.0
 11
52.0
 21
34.188
 31
0.0
  0
LINE
  5
12D6
100
AcDbEntity
  8
MSL5_360_3F-3
100
AcDbLine
 10
52.0
 20
25.812
 30
0.0
 11
52.0
 21
34.188
 31
0.0
  0
LINE
  5
12D7
100
AcDbEntity
  8
MSL5_360_3F-3
100
AcDbLine
 10
49.582057
 20
30.0
 30
0.0
 11
52.0
 21
34.188
 31
0.0
  0
LINE
  5
12D8
100
AcDbEntity
  8
MSL5_360_3F-3
100
AcDbLine
 10
49.582057
 20
30.0
 30
0.0
 11
52.0
 21
34.188
 31
0.0
  0
LINE
  5
12D9
100
AcDbEntity
  8
MSL5_360_3F-3
100
AcDbLine
 10
58.0
 20
25.0
 30
0.0
 11
58.0
 21
35.0
 31
0.0
  0
LINE
  5
12DA
100
AcDbEntity
  8
MSL5_360_3F-3
100
AcDbLine
 10
58.0
 20
25.0
 30
0.0
 11
58.0
 21
35.0
 31
0.0
  0
LINE
  5
12DB
100
AcDbEntity
  8
MSL5_360_3F-3
100
AcDbLine
 10
50.937964
 20
86.809377
 30
0.0
 11
51.580752
 21
87.575422
 31
0.0
  0
LINE
  5
12DC
100
AcDbEntity
  8
MSL5_360_3F-0
100
AcDbLine
 10
69.097739
 20
75.487739
 30
0.0
 11
72.365354
 21
76.270484
 31
0.0
  0
LINE
  5
12DD
100
AcDbEntity
  8
MSL5_360_3F-0
100
AcDbLine
 10
73.557497
 20
69.134743
 30
0.0
 11
74.843072
 21
70.666832
 31
0.0
  0
ARC
  5
12DE
100
AcDbEntity
  8
MSL5_360_3F-0
100
AcDbCircle
 10
72.0
 20
67.830823
 30
0.0
 40
2.0
100
AcDbArc
 50
360.0
 51
50.0
1001
GENIUS_GENODEF_13
1002
{
1000
HIER
1070
     0
1002
}
1002
{
1000
MANEDIT
1070
     0
1002
}
1002
{
1000
NOSEL
1070
     0
1002
}
1002
{
1000
BEHIND
1070
     0
1002
}
1002
{
1000
REACTOR
1002
}
1001
GENIUS_GENOBJ-N-FIL_13
1002
{
1000
OWNER
1000
GEN
1002
}
  0
LINE
  5
12DF
100
AcDbEntity
  8
MSL5_360_3F-3
100
AcDbLine
 10
72.766044
 20
68.473611
 30
0.0
 11
73.532089
 21
69.116399
 31
0.0
  0
LINE
  5
12E0
100
AcDbEntity
  8
MSL5_360_3F-0
100
AcDbLine
 10
74.0
 20
67.830823
 30
0.0
 11
74.0
 21
67.4391
 31
0.0
1001
GENIUS_GENOREF_13
1005
17F3
  0
LINE
  5
12E1
100
AcDbEntity
  8
MSL5_360_3F-0
100
AcDbLine
 10
72.365354
 20
76.270484
 30
0.0
 11
72.161916
 21
72.916589
 31
0.0
  0
LINE
  5
12E2
100
AcDbEntity
  8
MSL5_360_3F-3
100
AcDbLine
 10
64.564825
 20
75.375084
 30
0.0
 11
65.207612
 21
76.141128
 31
0.0
  0
LINE
  5
12E3
100
AcDbEntity
  8
MSL5_360_3F-0
100
AcDbLine
 10
66.416583
 20
77.737496
 30
0.0
 11
65.131008
 21
76.205407
 31
0.0
  0
LINE
  5
12E4
100
AcDbEntity
  8
MSL5_360_3F-7
100
AcDbLine
 10
73.301727
 20
77.386409
 30
0.0
 11
68.331701
 21
71.463363
 31
0.0
  0
LINE
  5
12E5
100
AcDbEntity
  8
MSL5_360_3F-0
100
AcDbLine
 10
74.843072
 20
70.666832
 30
0.0
 11
66.416583
 21
77.737496
 31
0.0
  0
LINE
  5
12E6
100
AcDbEntity
  8
MSL5_360_3F-0
100
AcDbLine
 10
196.282286
 20
-126.665124
 30
0.0
 11
196.282286
 21
-104.245876
 31
0.0
  0
ARC
  5
12E7
100
AcDbEntity
  8
MSL5_360_3F-0
100
AcDbCircle
 10
190.676036
 20
-117.255566
 30
0.0
 40
5.10625
100
AcDbArc
 50
302.004628
 51
57.995372
  0
ARC
  5
12E8
100
AcDbEntity
  8
MSL5_360_3F-0
100
AcDbCircle
 10
192.888536
 20
-117.255566
 30
0.0
 40
5.10625
100
AcDbArc
 50
122.004627
 51
237.995373
  0
LINE
  5
12E9
100
AcDbEntity
  8
MSL5_360_3F-3
100
AcDbLine
 10
160.782286
 20
-103.245876
 30
0.0
 11
160.782286
 21
-120.245876
 31
0.0
  0
LINE
  5
12EA
100
AcDbEntity
  8
MSL5_360_3F-3
100
AcDbLine
 10
159.970286
 20
-103.245876
 30
0.0
 11
159.970286
 21
-126.245876
 31
0.0
  0
LINE
  5
12EB
100
AcDbEntity
  8
MSL5_360_3F-3
100
AcDbLine
 10
150.782286
 20
-103.245876
 30
0.0
 11
150.782286
 21
-120.245876
 31
0.0
  0
LINE
  5
12EC
100
AcDbEntity
  8
MSL5_360_3F-3
100
AcDbLine
 10
151.594286
 20
-103.245876
 30
0.0
 11
151.594286
 21
-126.245876
 31
0.0
  0
LINE
  5
12ED
100
AcDbEntity
  8
MSL5_360_3F-7
100
AcDbLine
 10
155.782286
 20
-131.663819
 30
0.0
 11
155.782286
 21
-100.245876
 31
0.0
  0
LINE
  5
12EE
100
AcDbEntity
  8
MSL5_360_3F-0
100
AcDbLine
 10
195.782286
 20
-253.245947
 30
0.0
 11
195.782286
 21
-103.245947
 31
0.0
  0
LINE
  5
12EF
100
AcDbEntity
  8
MSL5_360_3F-0
100
AcDbLine
 10
172.782286
 20
-253.245947
 30
0.0
 11
172.782286
 21
-103.245947
 31
0.0
  0
LINE
  5
12F0
100
AcDbEntity
  8
MSL5_360_3F-0
100
AcDbLine
 10
147.782286
 20
-103.245947
 30
0.0
 11
147.782286
 21
-253.245947
 31
0.0
  0
ARC
  5
12F1
100
AcDbEntity
  8
MSL5_360_3F-0
100
AcDbCircle
 10
190.220121
 20
-235.875113
 30
0.0
 40
2.562165
100
AcDbArc
 50
312.916664
 51
47.083336
  0
ARC
  5
12F2
100
AcDbEntity
  8
MSL5_360_3F-0
100
AcDbCircle
 10
195.890967
 20
-237.607163
 30
0.0
 40
3.108681
100
AcDbArc
 50
127.878142
 51
232.121858
  0
LINE
  5
12F3
100
AcDbEntity
  8
MSL5_360_3F-0
100
AcDbLine
 10
192.782286
 20
-237.607163
 30
0.0
 11
192.782286
 21
-222.884732
 31
0.0
  0
LINE
  5
12F4
100
AcDbEntity
  8
MSL5_360_3F-0
100
AcDbLine
 10
188.782286
 20
-222.740394
 30
0.0
 11
188.782286
 21
-237.751501
 31
0.0
  0
LINE
  5
12F5
100
AcDbEntity
  8
MSL5_360_3F-0
100
AcDbLine
 10
196.282286
 20
-252.245876
 30
0.0
 11
196.282286
 21
-143.518102
 31
0.0
  0
LINE
  5
12F6
100
AcDbEntity
  8
MSL5_360_3F-3
100
AcDbLine
 10
159.970286
 20
-253.245876
 30
0.0
 11
159.970286
 21
-230.245876
 31
0.0
  0
LINE
  5
12F7
100
AcDbEntity
  8
MSL5_360_3F-3
100
AcDbLine
 10
160.782286
 20
-253.245876
 30
0.0
 11
160.782286
 21
-236.245876
 31
0.0
  0
LINE
  5
12F8
100
AcDbEntity
  8
MSL5_360_3F-3
100
AcDbLine
 10
151.594286
 20
-253.245876
 30
0.0
 11
151.594286
 21
-230.245876
 31
0.0
  0
LINE
  5
12F9
100
AcDbEntity
  8
MSL5_360_3F-7
100
AcDbLine
 10
155.782286
 20
-224.827933
 30
0.0
 11
155.782286
 21
-256.245876
 31
0.0
  0
LINE
  5
12FA
100
AcDbEntity
  8
MSL5_360_3F-3
100
AcDbLine
 10
150.782286
 20
-253.245876
 30
0.0
 11
150.782286
 21
-236.245876
 31
0.0
  0
ARC
  5
12FB
100
AcDbEntity
  8
MSL5_360_3F-0
100
AcDbCircle
 10
175.075342
 20
-235.875113
 30
0.0
 40
2.293056
100
AcDbArc
 50
125.085847
 51
234.914153
  0
ARC
  5
12FC
100
AcDbEntity
  8
MSL5_360_3F-0
100
AcDbCircle
 10
174.48923
 20
-235.875113
 30
0.0
 40
2.293056
100
AcDbArc
 50
305.085848
 51
54.914152
  0
MTEXT
  5
12FD
100
AcDbEntity
  8
MSL5_360_3F-6
100
AcDbMText
 10
199.331697
 20
-246.192418
 30
0.0
 40
3.5
 41
22.192126
 71
     1
 72
     1
  1
{MSL5-360-3F}
  0
LINE
  5
12FE
100
AcDbEntity
  8
MSL5_360_3F-0
100
AcDbLine
 10
196.282286
 20
-252.245876
 30
0.0
 11
235.817607
 21
-252.245876
 31
0.0
  0
LINE
  5
12FF
100
AcDbEntity
  8
MSL5_360_3F-0
100
AcDbLine
 10
195.782286
 20
-253.245947
 30
0.0
 11
237.767038
 21
-253.245947
 31
0.0
  0
LINE
  5
1300
100
AcDbEntity
  8
MSL5_360_3F-0
100
AcDbLine
 10
173.757286
 20
-237.751501
 30
0.0
 11
175.807286
 21
-237.751501
 31
0.0
  0
LINE
  5
1301
100
AcDbEntity
  8
MSL5_360_3F-0
100
AcDbLine
 10
195.782286
 20
-242.745947
 30
0.0
 11
172.782286
 21
-242.745947
 31
0.0
  0
LINE
  5
1302
100
AcDbEntity
  8
MSL5_360_3F-0
100
AcDbLine
 10
147.782286
 20
-253.245947
 30
0.0
 11
172.782286
 21
-253.245947
 31
0.0
  0
LINE
  5
1303
100
AcDbEntity
  8
MSL5_360_3F-0
100
AcDbLine
 10
193.963215
 20
-240.045947
 30
0.0
 11
195.782286
 21
-240.045947
 31
0.0
  0
LINE
  5
1304
100
AcDbEntity
  8
MSL5_360_3F-0
100
AcDbLine
 10
188.782286
 20
-237.751501
 30
0.0
 11
191.964786
 21
-237.751501
 31
0.0
  0
LINE
  5
1305
100
AcDbEntity
  8
MSL5_360_3F-0
100
AcDbLine
 10
239.782288
 20
-250.611301
 30
0.0
 11
241.782286
 21
-249.325722
 31
0.0
  0
ELLIPSE
  5
1306
100
AcDbEntity
  8
MSL5_360_3F-0
100
AcDbEllipse
 10
239.782286
 20
-249.325716
 30
0.0
 11
2.000000000006366
 21
0.0
 31
0.0
210
0.0
220
0.0
230
1.0
 40
0.766044
 41
0.0
 42
6.2831853071796
  0
ELLIPSE
  5
1307
100
AcDbEntity
  8
MSL5_360_3F-0
100
AcDbEllipse
 10
239.782283
 20
-247.590199
 30
0.0
 11
5.499999999998895
 21
0.0000090659728525
 31
0.0
210
0.0
220
0.0
230
-1.0
 40
0.766044
 41
-3.141592653589791
 42
0.0000000000001632
  0
ARC
  5
1308
100
AcDbEntity
  8
MSL5_360_3F-0
100
AcDbCircle
 10
240.280947
 20
-256.245946
 30
0.0
 40
1.5
100
AcDbArc
 50
269.999959
 51
359.999962
  0
ELLIPSE
  5
1309
100
AcDbEntity
  8
MSL5_360_3F-0
100
AcDbEllipse
 10
239.782286
 20
-249.325716
 30
0.0
 11
5.500000000006366
 21
0.0
 31
0.0
210
0.0
220
0.0
230
1.0
 40
0.766044
 41
0.0
 42
6.2831853071796
  0
LINE
  5
130A
100
AcDbEntity
  8
MSL5_360_3F-7
100
AcDbLine
 10
231.282286
 20
-249.325728
 30
0.0
 11
248.282286
 21
-249.325714
 31
0.0
1001
GENIUS_GENODEF_13
1002
{
1000
HIER
1070
     0
1002
}
1002
{
1000
MANEDIT
1070
     0
1002
}
1002
{
1000
NOSEL
1070
     0
1002
}
1002
{
1000
BEHIND
1070
     0
1002
}
1002
{
1000
REACTOR
1002
}
1001
GENIUS_GENOBJ-N-CEN_13
1002
{
1000
OWNER
1000
GEN
1002
}
  0
LINE
  5
130B
100
AcDbEntity
  8
MSL5_360_3F-7
100
AcDbLine
 10
239.782286
 20
-242.112472
 30
0.0
 11
239.782286
 21
-256.538961
 31
0.0
1001
GENIUS_GENODEF_13
1002
{
1000
HIER
1070
     0
1002
}
1002
{
1000
MANEDIT
1070
     0
1002
}
1002
{
1000
NOSEL
1070
     0
1002
}
1002
{
1000
BEHIND
1070
     0
1002
}
1002
{
1000
REACTOR
1002
}
1001
GENIUS_GENOBJ-N-CEN_13
1002
{
1000
OWNER
1000
GEN
1002
}
  0
LINE
  5
130C
100
AcDbEntity
  8
MSL5_360_3F-7
100
AcDbLine
 10
236.282286
 20
-255.245876
 30
0.0
 11
236.282286
 21
-248.245876
 31
0.0
1001
GENIUS_GENODEF_13
1002
{
1000
HIER
1070
     0
1002
}
1002
{
1000
MANEDIT
1070
     0
1002
}
1002
{
1000
NOSEL
1070
     0
1002
}
1002
{
1000
BEHIND
1070
     0
1002
}
1002
{
1000
REACTOR
1002
}
1001
GENIUS_GENOBJ-N-CEN_13
1002
{
1000
OWNER
1000
GEN
1002
}
  0
LINE
  5
130D
100
AcDbEntity
  8
MSL5_360_3F-7
100
AcDbLine
 10
236.282284
 20
-260.534688
 30
0.0
 11
236.282292
 21
-249.341961
 31
0.0
  0
ARC
  5
130E
100
AcDbEntity
  8
MSL5_360_3F-0
100
AcDbCircle
 10
232.280947
 20
-256.24594
 30
0.0
 40
1.5
100
AcDbArc
 50
179.99996
 51
269.999959
  0
LINE
  5
130F
100
AcDbEntity
  8
MSL5_360_3F-0
100
AcDbLine
 10
230.780949
 20
-253.245947
 30
0.0
 11
230.780947
 21
-256.245939
 31
0.0
  0
LINE
  5
1310
100
AcDbEntity
  8
MSL5_360_3F-0
100
AcDbLine
 10
232.280946
 20
-257.74594
 30
0.0
 11
240.280946
 21
-257.745946
 31
0.0
  0
LINE
  5
1311
100
AcDbEntity
  8
MSL5_360_3F-0
100
AcDbLine
 10
237.782286
 20
-249.325734
 30
0.0
 11
239.782288
 21
-250.611301
 31
0.0
  0
LINE
  5
1312
100
AcDbEntity
  8
MSL5_360_3F-0
100
AcDbLine
 10
234.282283
 20
-247.590199
 30
0.0
 11
234.282286
 21
-249.325744
 31
0.0
  0
LINE
  5
1313
100
AcDbEntity
  8
MSL5_360_3F-0
100
AcDbLine
 10
241.780947
 20
-256.245947
 30
0.0
 11
241.780949
 21
-253.245947
 31
0.0
  0
LINE
  5
1314
100
AcDbEntity
  8
MSL5_360_3F-0
100
AcDbLine
 10
245.282283
 20
-247.59019
 30
0.0
 11
245.282286
 21
-249.325716
 31
0.0
  0
LINE
  5
1315
100
AcDbEntity
  8
MSL5_360_3F-0
100
AcDbLine
 10
219.982286
 20
-126.665124
 30
0.0
 11
196.282286
 21
-126.665124
 31
0.0
  0
LINE
  5
1316
100
AcDbEntity
  8
MSL5_360_3F-0
100
AcDbLine
 10
196.282286
 20
-143.518102
 30
0.0
 11
219.982286
 21
-143.518102
 31
0.0
  0
LINE
  5
1317
100
AcDbEntity
  8
MSL5_360_3F-7
100
AcDbLine
 10
200.203786
 20
-135.091684
 30
0.0
 11
219.360786
 21
-135.091684
 31
0.0
1001
GENIUS_GENODEF_13
1002
{
1000
HIER
1070
     0
1002
}
1002
{
1000
MANEDIT
1070
     0
1002
}
1002
{
1000
NOSEL
1070
     0
1002
}
1002
{
1000
BEHIND
1070
     0
1002
}
1002
{
1000
REACTOR
1002
}
1001
GENIUS_GENOBJ-N-CEN_13
1002
{
1000
OWNER
1000
GEN
1002
}
  0
LINE
  5
1318
100
AcDbEntity
  8
MSL5_360_3F-3
100
AcDbLine
 10
177.782286
 20
-165.745947
 30
0.0
 11
177.782286
 21
-190.745947
 31
0.0
1001
GENIUS_GENBH_13
1002
{
1000
OE
1000
CON1
1002
}
1001
GENIUS_GENOREF_13
1005
17F2
  0
LINE
  5
1319
100
AcDbEntity
  8
MSL5_360_3F-3
100
AcDbLine
 10
176.782286
 20
-165.745947
 30
0.0
 11
176.782286
 21
-190.745947
 31
0.0
1001
GENIUS_GENBH_13
1002
{
1000
OE
1000
CON1
1002
}
1001
GENIUS_GENOREF_13
1005
17F2
  0
LINE
  5
131A
100
AcDbEntity
  8
MSL5_360_3F-3
100
AcDbLine
 10
172.782286
 20
-184.245947
 30
0.0
 11
176.782286
 21
-184.245947
 31
0.0
1001
GENIUS_GENBH_13
1002
{
1000
OE
1000
CON1
1002
}
1001
GENIUS_GENOREF_13
1005
17F2
  0
LINE
  5
131B
100
AcDbEntity
  8
MSL5_360_3F-0
100
AcDbLine
 10
173.757286
 20
-222.740394
 30
0.0
 11
175.807286
 21
-222.740394
 31
0.0
  0
LINE
  5
131C
100
AcDbEntity
  8
MSL5_360_3F-0
100
AcDbLine
 10
173.757286
 20
-226.493171
 30
0.0
 11
175.807286
 21
-226.493171
 31
0.0
  0
LINE
  5
131D
100
AcDbEntity
  8
MSL5_360_3F-0
100
AcDbLine
 10
173.757286
 20
-233.998724
 30
0.0
 11
175.807286
 21
-233.998724
 31
0.0
  0
LINE
  5
131E
100
AcDbEntity
  8
MSL5_360_3F-0
100
AcDbLine
 10
195.782286
 20
-217.745947
 30
0.0
 11
172.782286
 21
-217.745947
 31
0.0
  0
LINE
  5
131F
100
AcDbEntity
  8
MSL5_360_3F-7
100
AcDbLine
 10
204.787278
 20
-230.245947
 30
0.0
 11
164.612224
 21
-230.245947
 31
0.0
  0
LINE
  5
1320
100
AcDbEntity
  8
MSL5_360_3F-7
100
AcDbLine
 10
144.782286
 20
-178.245947
 30
0.0
 11
204.972948
 21
-178.245947
 31
0.0
1001
GENIUS_GENOREF_13
1005
17F2
  0
LINE
  5
1321
100
AcDbEntity
  8
MSL5_360_3F-0
100
AcDbLine
 10
172.782286
 20
-190.745947
 30
0.0
 11
195.782286
 21
-190.745947
 31
0.0
  0
LINE
  5
1322
100
AcDbEntity
  8
MSL5_360_3F-3
100
AcDbLine
 10
165.782286
 20
-199.245876
 30
0.0
 11
165.782286
 21
-217.245876
 31
0.0
  0
LINE
  5
1323
100
AcDbEntity
  8
MSL5_360_3F-3
100
AcDbLine
 10
165.782286
 20
-213.745876
 30
0.0
 11
147.782286
 21
-213.745876
 31
0.0
  0
LINE
  5
1324
100
AcDbEntity
  8
MSL5_360_3F-3
100
AcDbLine
 10
155.782286
 20
-227.827933
 30
0.0
 11
151.594286
 21
-230.245876
 31
0.0
  0
LINE
  5
1325
100
AcDbEntity
  8
MSL5_360_3F-3
100
AcDbLine
 10
159.970286
 20
-230.245876
 30
0.0
 11
151.594286
 21
-230.245876
 31
0.0
  0
LINE
  5
1326
100
AcDbEntity
  8
MSL5_360_3F-3
100
AcDbLine
 10
160.782286
 20
-236.245876
 30
0.0
 11
150.782286
 21
-236.245876
 31
0.0
  0
LINE
  5
1327
100
AcDbEntity
  8
MSL5_360_3F-7
100
AcDbLine
 10
174.782286
 20
-208.245876
 30
0.0
 11
145.782286
 21
-208.245876
 31
0.0
  0
LINE
  5
1328
100
AcDbEntity
  8
MSL5_360_3F-7
100
AcDbLine
 10
164.782286
 20
-234.245947
 30
0.0
 11
164.782286
 21
-218.245947
 31
0.0
  0
ARC
  5
1329
100
AcDbEntity
  8
MSL5_360_3F-3
100
AcDbCircle
 10
164.782286
 20
-226.245876
 30
0.0
 40
5.0
100
AcDbArc
 50
280.0
 51
210.0
  0
CIRCLE
  5
132A
100
AcDbEntity
  8
MSL5_360_3F-3
100
AcDbCircle
 10
164.782286
 20
-226.245876
 30
0.0
 40
4.188
  0
LINE
  5
132B
100
AcDbEntity
  8
MSL5_360_3F-7
100
AcDbLine
 10
156.782286
 20
-226.245876
 30
0.0
 11
172.782286
 21
-226.245876
 31
0.0
  0
LINE
  5
132C
100
AcDbEntity
  8
MSL5_360_3F-3
100
AcDbLine
 10
155.782286
 20
-227.827933
 30
0.0
 11
159.970286
 21
-230.245876
 31
0.0
  0
ARC
  5
132D
100
AcDbEntity
  8
MSL5_360_3F-0
100
AcDbCircle
 10
175.075342
 20
-224.616782
 30
0.0
 40
2.293056
100
AcDbArc
 50
125.085847
 51
234.914153
  0
LINE
  5
132E
100
AcDbEntity
  8
MSL5_360_3F-0
100
AcDbLine
 10
172.782286
 20
-235.875113
 30
0.0
 11
172.782286
 21
-224.616782
 31
0.0
  0
ARC
  5
132F
100
AcDbEntity
  8
MSL5_360_3F-0
100
AcDbCircle
 10
180.492008
 20
-230.245947
 30
0.0
 40
7.709722
100
AcDbArc
 50
150.872216
 51
209.127784
  0
LINE
  5
1330
100
AcDbEntity
  8
MSL5_360_3F-3
100
AcDbLine
 10
165.782286
 20
-217.245876
 30
0.0
 11
172.782286
 21
-217.245876
 31
0.0
  0
LINE
  5
1331
100
AcDbEntity
  8
MSL5_360_3F-3
100
AcDbLine
 10
165.782286
 20
-202.745876
 30
0.0
 11
147.782286
 21
-202.745876
 31
0.0
  0
LINE
  5
1332
100
AcDbEntity
  8
MSL5_360_3F-0
100
AcDbLine
 10
147.782286
 20
-190.798058
 30
0.0
 11
172.782286
 21
-190.798058
 31
0.0
  0
LINE
  5
1333
100
AcDbEntity
  8
MSL5_360_3F-3
100
AcDbLine
 10
172.782286
 20
-199.245876
 30
0.0
 11
165.782286
 21
-199.245876
 31
0.0
  0
ARC
  5
1334
100
AcDbEntity
  8
MSL5_360_3F-0
100
AcDbCircle
 10
195.890967
 20
-222.884732
 30
0.0
 40
3.108681
100
AcDbArc
 50
127.878142
 51
232.121858
  0
LINE
  5
1335
100
AcDbEntity
  8
MSL5_360_3F-0
100
AcDbLine
 10
188.782286
 20
-226.245947
 30
0.0
 11
176.782286
 21
-226.245947
 31
0.0
  0
LINE
  5
1336
100
AcDbEntity
  8
MSL5_360_3F-0
100
AcDbLine
 10
176.782286
 20
-234.245947
 30
0.0
 11
188.782286
 21
-234.245947
 31
0.0
  0
ARC
  5
1337
100
AcDbEntity
  8
MSL5_360_3F-0
100
AcDbCircle
 10
174.48923
 20
-224.616782
 30
0.0
 40
2.293056
100
AcDbArc
 50
305.085848
 51
54.914152
  0
LINE
  5
1338
100
AcDbEntity
  8
MSL5_360_3F-0
100
AcDbLine
 10
176.782286
 20
-235.875113
 30
0.0
 11
176.782286
 21
-224.616782
 31
0.0
  0
ARC
  5
1339
100
AcDbEntity
  8
MSL5_360_3F-0
100
AcDbCircle
 10
169.072564
 20
-230.245947
 30
0.0
 40
7.709722
100
AcDbArc
 50
330.872218
 51
29.127782
  0
LINE
  5
133A
100
AcDbEntity
  8
MSL5_360_3F-0
100
AcDbLine
 10
193.982286
 20
-225.33847
 30
0.0
 11
195.782286
 21
-225.33847
 31
0.0
  0
ARC
  5
133B
100
AcDbEntity
  8
MSL5_360_3F-0
100
AcDbCircle
 10
190.220121
 20
-224.616782
 30
0.0
 40
2.562165
100
AcDbArc
 50
312.916664
 51
47.083336
  0
LINE
  5
133C
100
AcDbEntity
  8
MSL5_360_3F-0
100
AcDbLine
 10
193.982286
 20
-235.153425
 30
0.0
 11
195.782286
 21
-235.153425
 31
0.0
  0
LINE
  5
133D
100
AcDbEntity
  8
MSL5_360_3F-0
100
AcDbLine
 10
192.782286
 20
-224.616782
 30
0.0
 11
192.782286
 21
-235.875113
 31
0.0
  0
ARC
  5
133E
100
AcDbEntity
  8
MSL5_360_3F-0
100
AcDbCircle
 10
203.417008
 20
-230.245947
 30
0.0
 40
10.634722
100
AcDbArc
 50
152.518771
 51
207.481229
  0
ARC
  5
133F
100
AcDbEntity
  8
MSL5_360_3F-0
100
AcDbCircle
 10
183.759876
 20
-230.245947
 30
0.0
 40
9.02241
100
AcDbArc
 50
335.421503
 51
24.578497
  0
LINE
  5
1340
100
AcDbEntity
  8
MSL5_360_3F-0
100
AcDbLine
 10
191.964786
 20
-222.740394
 30
0.0
 11
188.782286
 21
-222.740394
 31
0.0
  0
LINE
  5
1341
100
AcDbEntity
  8
MSL5_360_3F-0
100
AcDbLine
 10
191.964786
 20
-226.493171
 30
0.0
 11
188.782286
 21
-226.493171
 31
0.0
  0
LINE
  5
1342
100
AcDbEntity
  8
MSL5_360_3F-0
100
AcDbLine
 10
191.964786
 20
-233.998724
 30
0.0
 11
188.782286
 21
-233.998724
 31
0.0
  0
LINE
  5
1343
100
AcDbEntity
  8
MSL5_360_3F-0
100
AcDbLine
 10
195.782286
 20
-220.445947
 30
0.0
 11
193.963215
 21
-220.445947
 31
0.0
  0
LINE
  5
1344
100
AcDbEntity
  8
MSL5_360_3F-0
100
AcDbLine
 10
177.782286
 20
-190.745947
 30
0.0
 11
177.782286
 21
-191.745947
 31
0.0
1001
GENIUS_GENOREF_13
1005
17F2
  0
LINE
  5
1345
100
AcDbEntity
  8
MSL5_360_3F-0
100
AcDbLine
 10
176.782286
 20
-190.745947
 30
0.0
 11
177.782286
 21
-191.745947
 31
0.0
  0
LINE
  5
1346
100
AcDbEntity
  8
MSL5_360_3F-0
100
AcDbLine
 10
177.782286
 20
-191.745947
 30
0.0
 11
195.782286
 21
-191.745947
 31
0.0
  0
LINE
  5
1347
100
AcDbEntity
  8
MSL5_360_3F-0
100
AcDbLine
 10
186.282286
 20
-118.745947
 30
0.0
 11
173.782286
 21
-118.745947
 31
0.0
  0
LINE
  5
1348
100
AcDbEntity
  8
MSL5_360_3F-0
100
AcDbLine
 10
173.782286
 20
-141.745947
 30
0.0
 11
186.282286
 21
-141.745947
 31
0.0
  0
LINE
  5
1349
100
AcDbEntity
  8
MSL5_360_3F-3
100
AcDbLine
 10
176.782286
 20
-172.245947
 30
0.0
 11
172.782286
 21
-172.245947
 31
0.0
1001
GENIUS_GENBH_13
1002
{
1000
OE
1000
CON1
1002
}
1001
GENIUS_GENOREF_13
1005
17F2
  0
LINE
  5
134A
100
AcDbEntity
  8
MSL5_360_3F-7
100
AcDbLine
 10
204.787278
 20
-126.245947
 30
0.0
 11
164.612224
 21
-126.245947
 31
0.0
  0
LINE
  5
134B
100
AcDbEntity
  8
MSL5_360_3F-7
100
AcDbLine
 10
169.216084
 20
-130.245947
 30
0.0
 11
200.717072
 21
-130.245947
 31
0.0
  0
LINE
  5
134C
100
AcDbEntity
  8
MSL5_360_3F-0
100
AcDbLine
 10
172.782286
 20
-165.745947
 30
0.0
 11
195.782286
 21
-165.745947
 31
0.0
  0
LINE
  5
134D
100
AcDbEntity
  8
MSL5_360_3F-0
100
AcDbLine
 10
147.782286
 20
-165.693835
 30
0.0
 11
172.782286
 21
-165.693835
 31
0.0
  0
LINE
  5
134E
100
AcDbEntity
  8
MSL5_360_3F-3
100
AcDbLine
 10
172.782286
 20
-153.245876
 30
0.0
 11
147.782286
 21
-153.245876
 31
0.0
  0
LINE
  5
134F
100
AcDbEntity
  8
MSL5_360_3F-7
100
AcDbLine
 10
174.782286
 20
-148.245876
 30
0.0
 11
145.782286
 21
-148.245876
 31
0.0
  0
LINE
  5
1350
100
AcDbEntity
  8
MSL5_360_3F-3
100
AcDbLine
 10
155.782286
 20
-128.663819
 30
0.0
 11
151.594286
 21
-126.245876
 31
0.0
  0
LINE
  5
1351
100
AcDbEntity
  8
MSL5_360_3F-3
100
AcDbLine
 10
150.782286
 20
-120.245876
 30
0.0
 11
160.782286
 21
-120.245876
 31
0.0
  0
LINE
  5
1352
100
AcDbEntity
  8
MSL5_360_3F-3
100
AcDbLine
 10
159.970286
 20
-126.245876
 30
0.0
 11
151.594286
 21
-126.245876
 31
0.0
  0
LINE
  5
1353
100
AcDbEntity
  8
MSL5_360_3F-3
100
AcDbLine
 10
172.782286
 20
-143.245876
 30
0.0
 11
147.782286
 21
-143.245876
 31
0.0
  0
LINE
  5
1354
100
AcDbEntity
  8
MSL5_360_3F-0
100
AcDbLine
 10
173.782286
 20
-118.745947
 30
0.0
 11
173.782286
 21
-141.745947
 31
0.0
  0
LINE
  5
1355
100
AcDbEntity
  8
MSL5_360_3F-0
100
AcDbLine
 10
172.782286
 20
-119.745947
 30
0.0
 11
172.782286
 21
-140.745947
 31
0.0
  0
LINE
  5
1356
100
AcDbEntity
  8
MSL5_360_3F-7
100
AcDbLine
 10
164.782286
 20
-138.245876
 30
0.0
 11
164.782286
 21
-122.245876
 31
0.0
  0
CIRCLE
  5
1357
100
AcDbEntity
  8
MSL5_360_3F-3
100
AcDbCircle
 10
164.782286
 20
-130.245876
 30
0.0
 40
4.188
  0
ARC
  5
1358
100
AcDbEntity
  8
MSL5_360_3F-3
100
AcDbCircle
 10
164.782286
 20
-130.245876
 30
0.0
 40
5.0
100
AcDbArc
 50
280.0
 51
210.0
  0
LINE
  5
1359
100
AcDbEntity
  8
MSL5_360_3F-0
100
AcDbLine
 10
172.782286
 20
-140.745947
 30
0.0
 11
173.782286
 21
-141.745947
 31
0.0
  0
LINE
  5
135A
100
AcDbEntity
  8
MSL5_360_3F-7
100
AcDbLine
 10
156.782286
 20
-130.245876
 30
0.0
 11
172.782286
 21
-130.245876
 31
0.0
  0
LINE
  5
135B
100
AcDbEntity
  8
MSL5_360_3F-3
100
AcDbLine
 10
155.782286
 20
-128.663819
 30
0.0
 11
159.970286
 21
-126.245876
 31
0.0
  0
LINE
  5
135C
100
AcDbEntity
  8
MSL5_360_3F-0
100
AcDbLine
 10
173.782286
 20
-118.745947
 30
0.0
 11
172.782286
 21
-119.745947
 31
0.0
  0
ARC
  5
135D
100
AcDbEntity
  8
MSL5_360_3F-0
100
AcDbCircle
 10
190.676036
 20
-143.236329
 30
0.0
 40
5.10625
100
AcDbArc
 50
302.004628
 51
57.995372
  0
ARC
  5
135E
100
AcDbEntity
  8
MSL5_360_3F-0
100
AcDbCircle
 10
192.888536
 20
-143.236329
 30
0.0
 40
5.10625
100
AcDbArc
 50
122.004627
 51
237.995373
  0
LINE
  5
135F
100
AcDbEntity
  8
MSL5_360_3F-0
100
AcDbLine
 10
195.782286
 20
-164.745947
 30
0.0
 11
177.782286
 21
-164.745947
 31
0.0
  0
LINE
  5
1360
100
AcDbEntity
  8
MSL5_360_3F-0
100
AcDbLine
 10
177.782286
 20
-164.745947
 30
0.0
 11
177.782286
 21
-165.745947
 31
0.0
1001
GENIUS_GENOREF_13
1005
17F2
  0
LINE
  5
1361
100
AcDbEntity
  8
MSL5_360_3F-0
100
AcDbLine
 10
177.782286
 20
-164.745947
 30
0.0
 11
176.782286
 21
-165.745947
 31
0.0
  0
LINE
  5
1362
100
AcDbEntity
  8
MSL5_360_3F-0
100
AcDbLine
 10
193.382286
 20
-147.566456
 30
0.0
 11
190.182286
 21
-147.566456
 31
0.0
  0
LINE
  5
1363
100
AcDbEntity
  8
MSL5_360_3F-0
100
AcDbLine
 10
195.782286
 20
-117.255566
 30
0.0
 11
195.782286
 21
-143.236329
 31
0.0
  0
LINE
  5
1364
100
AcDbEntity
  8
MSL5_360_3F-0
100
AcDbLine
 10
187.782286
 20
-117.255566
 30
0.0
 11
187.782286
 21
-143.236329
 31
0.0
  0
ARC
  5
1365
100
AcDbEntity
  8
MSL5_360_3F-0
100
AcDbCircle
 10
204.607286
 20
-130.245947
 30
0.0
 40
16.825
100
AcDbArc
 50
149.0209
 51
210.9791
  0
ARC
  5
1366
100
AcDbEntity
  8
MSL5_360_3F-0
100
AcDbCircle
 10
178.957286
 20
-130.245947
 30
0.0
 40
16.825
100
AcDbArc
 50
329.020901
 51
30.979099
  0
LINE
  5
1367
100
AcDbEntity
  8
MSL5_360_3F-0
100
AcDbLine
 10
187.282286
 20
-118.745947
 30
0.0
 11
187.282286
 21
-141.745947
 31
0.0
  0
LINE
  5
1368
100
AcDbEntity
  8
MSL5_360_3F-0
100
AcDbLine
 10
186.282286
 20
-141.745947
 30
0.0
 11
186.282286
 21
-118.745947
 31
0.0
  0
LINE
  5
1369
100
AcDbEntity
  8
MSL5_360_3F-0
100
AcDbLine
 10
187.282286
 20
-141.745947
 30
0.0
 11
187.782286
 21
-142.245947
 31
0.0
  0
LINE
  5
136A
100
AcDbEntity
  8
MSL5_360_3F-0
100
AcDbLine
 10
193.382286
 20
-138.906201
 30
0.0
 11
190.182286
 21
-138.906201
 31
0.0
  0
LINE
  5
136B
100
AcDbEntity
  8
MSL5_360_3F-0
100
AcDbLine
 10
187.282286
 20
-134.245947
 30
0.0
 11
186.282286
 21
-134.245947
 31
0.0
  0
LINE
  5
136C
100
AcDbEntity
  8
MSL5_360_3F-0
100
AcDbLine
 10
187.782286
 20
-118.245947
 30
0.0
 11
187.282286
 21
-118.745947
 31
0.0
  0
LINE
  5
136D
100
AcDbEntity
  8
MSL5_360_3F-0
100
AcDbLine
 10
193.382286
 20
-121.585693
 30
0.0
 11
190.182286
 21
-121.585693
 31
0.0
  0
LINE
  5
136E
100
AcDbEntity
  8
MSL5_360_3F-0
100
AcDbLine
 10
187.282286
 20
-126.245947
 30
0.0
 11
186.282286
 21
-126.245947
 31
0.0
  0
LINE
  5
136F
100
AcDbEntity
  8
MSL5_360_3F-7
100
AcDbLine
 10
209.782286
 20
-127.052261
 30
0.0
 11
209.782286
 21
-143.131107
 31
0.0
1001
GENIUS_GENODEF_13
1002
{
1000
HIER
1070
     0
1002
}
1002
{
1000
MANEDIT
1070
     0
1002
}
1002
{
1000
NOSEL
1070
     0
1002
}
1002
{
1000
BEHIND
1070
     0
1002
}
1002
{
1000
REACTOR
1002
}
1001
GENIUS_GENOBJ-N-CEN_13
1002
{
1000
OWNER
1000
GEN
1002
}
  0
ELLIPSE
  5
1370
100
AcDbEntity
  8
MSL5_360_3F-4
100
AcDbEllipse
 10
209.782286
 20
-135.091684
 30
0.0
 11
-6.578499999999991
 21
0.0
 31
0.0
210
0.0
220
0.0
230
1.0
 40
0.766044
 41
1.503876197756385
 42
6.396900936057682
  0
ELLIPSE
  5
1371
100
AcDbEntity
  8
MSL5_360_3F-0
100
AcDbEllipse
 10
209.782286
 20
-135.091684
 30
0.0
 11
-5.722385000000002
 21
0.0
 31
0.0
210
0.0
220
0.0
230
1.0
 40
0.766044
 41
0.0
 42
6.2831853071796
  0
LINE
  5
1372
100
AcDbEntity
  8
MSL5_360_3F-7
100
AcDbLine
 10
297.782286
 20
-156.969465
 30
0.0
 11
297.782286
 21
-201.156995
 31
0.0
  0
LINE
  5
1373
100
AcDbEntity
  8
MSL5_360_3F-7
100
AcDbLine
 10
267.782286
 20
-208.245876
 30
0.0
 11
260.880388
 21
-208.245876
 31
0.0
  0
ARC
  5
1374
100
AcDbEntity
  8
MSL5_360_3F-3
100
AcDbCircle
 10
267.782286
 20
-208.245876
 30
0.0
 40
5.0
100
AcDbArc
 50
82.606248
 51
7.300134
  0
LINE
  5
1375
100
AcDbEntity
  8
MSL5_360_3F-7
100
AcDbLine
 10
297.782286
 20
-208.245876
 30
0.0
 11
297.782286
 21
-201.156995
 31
0.0
  0
CIRCLE
  5
1376
100
AcDbEntity
  8
MSL5_360_3F-3
100
AcDbCircle
 10
297.782286
 20
-208.245876
 30
0.0
 40
5.0
  0
LINE
  5
1377
100
AcDbEntity
  8
MSL5_360_3F-7
100
AcDbLine
 10
267.782286
 20
-208.245876
 30
0.0
 11
267.782286
 21
-201.343978
 31
0.0
  0
CIRCLE
  5
1378
100
AcDbEntity
  8
MSL5_360_3F-3
100
AcDbCircle
 10
267.782286
 20
-208.245876
 30
0.0
 40
4.25
  0
LINE
  5
1379
100
AcDbEntity
  8
MSL5_360_3F-7
100
AcDbLine
 10
267.782286
 20
-208.245876
 30
0.0
 11
274.684184
 21
-208.245876
 31
0.0
  0
LINE
  5
137A
100
AcDbEntity
  8
MSL5_360_3F-7
100
AcDbLine
 10
267.782286
 20
-208.245876
 30
0.0
 11
267.782286
 21
-215.147774
 31
0.0
  0
LINE
  5
137B
100
AcDbEntity
  8
MSL5_360_3F-7
100
AcDbLine
 10
297.782286
 20
-208.245876
 30
0.0
 11
290.693405
 21
-208.245876
 31
0.0
  0
LINE
  5
137C
100
AcDbEntity
  8
MSL5_360_3F-7
100
AcDbLine
 10
297.782286
 20
-208.245876
 30
0.0
 11
304.871167
 21
-208.245876
 31
0.0
  0
LINE
  5
137D
100
AcDbEntity
  8
MSL5_360_3F-7
100
AcDbLine
 10
297.782286
 20
-208.245876
 30
0.0
 11
297.782286
 21
-215.334757
 31
0.0
  0
LINE
  5
137E
100
AcDbEntity
  8
MSL5_360_3F-7
100
AcDbLine
 10
267.782286
 20
-148.245876
 30
0.0
 11
260.96504
 21
-148.245876
 31
0.0
  0
ARC
  5
137F
100
AcDbEntity
  8
MSL5_360_3F-3
100
AcDbCircle
 10
267.782286
 20
-148.245876
 30
0.0
 40
5.0
100
AcDbArc
 50
82.606248
 51
7.300134
  0
LINE
  5
1380
100
AcDbEntity
  8
MSL5_360_3F-0
100
AcDbLine
 10
219.982286
 20
-143.518102
 30
0.0
 11
219.982286
 21
-126.665124
 31
0.0
  0
LINE
  5
1381
100
AcDbEntity
  8
MSL5_360_3F-7
100
AcDbLine
 10
297.782286
 20
-148.245876
 30
0.0
 11
297.782286
 21
-141.106127
 31
0.0
  0
CIRCLE
  5
1382
100
AcDbEntity
  8
MSL5_360_3F-3
100
AcDbCircle
 10
297.782286
 20
-148.245876
 30
0.0
 40
5.0
  0
LINE
  5
1383
100
AcDbEntity
  8
MSL5_360_3F-7
100
AcDbLine
 10
267.782286
 20
-148.245876
 30
0.0
 11
267.782286
 21
-141.428629
 31
0.0
  0
CIRCLE
  5
1384
100
AcDbEntity
  8
MSL5_360_3F-3
100
AcDbCircle
 10
267.782286
 20
-148.245876
 30
0.0
 40
4.25
  0
LINE
  5
1385
100
AcDbEntity
  8
MSL5_360_3F-7
100
AcDbLine
 10
267.782286
 20
-148.245876
 30
0.0
 11
274.599532
 21
-148.245876
 31
0.0
  0
LINE
  5
1386
100
AcDbEntity
  8
MSL5_360_3F-7
100
AcDbLine
 10
267.782286
 20
-148.245876
 30
0.0
 11
267.782286
 21
-155.063122
 31
0.0
  0
LINE
  5
1387
100
AcDbEntity
  8
MSL5_360_3F-7
100
AcDbLine
 10
297.782286
 20
-148.245876
 30
0.0
 11
290.642537
 21
-148.245876
 31
0.0
  0
LINE
  5
1388
100
AcDbEntity
  8
MSL5_360_3F-7
100
AcDbLine
 10
297.782286
 20
-148.245876
 30
0.0
 11
304.922035
 21
-148.245876
 31
0.0
  0
LINE
  5
1389
100
AcDbEntity
  8
MSL5_360_3F-7
100
AcDbLine
 10
297.782286
 20
-148.245876
 30
0.0
 11
297.782286
 21
-155.385624
 31
0.0
  0
LINE
  5
138A
100
AcDbEntity
  8
MSL5_360_3F-7
100
AcDbLine
 10
357.782286
 20
-156.969465
 30
0.0
 11
357.782286
 21
-201.156995
 31
0.0
  0
LINE
  5
138B
100
AcDbEntity
  8
MSL5_360_3F-7
100
AcDbLine
 10
357.782286
 20
-208.245876
 30
0.0
 11
350.693405
 21
-208.245876
 31
0.0
  0
CIRCLE
  5
138C
100
AcDbEntity
  8
MSL5_360_3F-3
100
AcDbCircle
 10
327.782286
 20
-208.245876
 30
0.0
 40
4.25
  0
LINE
  5
138D
100
AcDbEntity
  8
MSL5_360_3F-7
100
AcDbLine
 10
327.782286
 20
-208.245876
 30
0.0
 11
327.782286
 21
-201.515086
 31
0.0
  0
ARC
  5
138E
100
AcDbEntity
  8
MSL5_360_3F-3
100
AcDbCircle
 10
327.782286
 20
-208.245876
 30
0.0
 40
5.0
100
AcDbArc
 50
82.606248
 51
7.300134
  0
LINE
  5
138F
100
AcDbEntity
  8
MSL5_360_3F-7
100
AcDbLine
 10
327.782286
 20
-208.245876
 30
0.0
 11
334.513076
 21
-208.245876
 31
0.0
  0
LINE
  5
1390
100
AcDbEntity
  8
MSL5_360_3F-7
100
AcDbLine
 10
327.782286
 20
-208.245876
 30
0.0
 11
327.782286
 21
-214.976666
 31
0.0
  0
LINE
  5
1391
100
AcDbEntity
  8
MSL5_360_3F-7
100
AcDbLine
 10
327.782286
 20
-208.245876
 30
0.0
 11
321.051496
 21
-208.245876
 31
0.0
  0
LINE
  5
1392
100
AcDbEntity
  8
MSL5_360_3F-7
100
AcDbLine
 10
387.782286
 20
-208.245876
 30
0.0
 11
387.782286
 21
-201.515086
 31
0.0
  0
LINE
  5
1393
100
AcDbEntity
  8
MSL5_360_3F-7
100
AcDbLine
 10
357.782286
 20
-208.245876
 30
0.0
 11
357.782286
 21
-201.156995
 31
0.0
  0
CIRCLE
  5
1394
100
AcDbEntity
  8
MSL5_360_3F-3
100
AcDbCircle
 10
357.782286
 20
-208.245876
 30
0.0
 40
5.0
  0
ARC
  5
1395
100
AcDbEntity
  8
MSL5_360_3F-3
100
AcDbCircle
 10
387.782286
 20
-208.245876
 30
0.0
 40
5.0
100
AcDbArc
 50
82.606248
 51
7.300134
  0
CIRCLE
  5
1396
100
AcDbEntity
  8
MSL5_360_3F-3
100
AcDbCircle
 10
387.782286
 20
-208.245876
 30
0.0
 40
4.25
  0
LINE
  5
1397
100
AcDbEntity
  8
MSL5_360_3F-7
100
AcDbLine
 10
357.782286
 20
-208.245876
 30
0.0
 11
364.871167
 21
-208.245876
 31
0.0
  0
LINE
  5
1398
100
AcDbEntity
  8
MSL5_360_3F-7
100
AcDbLine
 10
357.782286
 20
-208.245876
 30
0.0
 11
357.782286
 21
-215.334757
 31
0.0
  0
LINE
  5
1399
100
AcDbEntity
  8
MSL5_360_3F-7
100
AcDbLine
 10
387.782286
 20
-208.245876
 30
0.0
 11
381.051496
 21
-208.245876
 31
0.0
  0
LINE
  5
139A
100
AcDbEntity
  8
MSL5_360_3F-7
100
AcDbLine
 10
387.782286
 20
-208.245876
 30
0.0
 11
387.782286
 21
-214.976666
 31
0.0
  0
LINE
  5
139B
100
AcDbEntity
  8
MSL5_360_3F-7
100
AcDbLine
 10
387.782286
 20
-208.245876
 30
0.0
 11
394.513076
 21
-208.245876
 31
0.0
  0
LINE
  5
139C
100
AcDbEntity
  8
MSL5_360_3F-7
100
AcDbLine
 10
357.782286
 20
-148.245876
 30
0.0
 11
350.642537
 21
-148.245876
 31
0.0
  0
CIRCLE
  5
139D
100
AcDbEntity
  8
MSL5_360_3F-3
100
AcDbCircle
 10
327.782286
 20
-148.245876
 30
0.0
 40
4.25
  0
ARC
  5
139E
100
AcDbEntity
  8
MSL5_360_3F-3
100
AcDbCircle
 10
327.782286
 20
-148.245876
 30
0.0
 40
5.0
100
AcDbArc
 50
82.606248
 51
7.300134
  0
LINE
  5
139F
100
AcDbEntity
  8
MSL5_360_3F-7
100
AcDbLine
 10
327.782286
 20
-148.245876
 30
0.0
 11
327.782286
 21
-141.403162
 31
0.0
  0
LINE
  5
13A0
100
AcDbEntity
  8
MSL5_360_3F-7
100
AcDbLine
 10
327.782286
 20
-148.245876
 30
0.0
 11
334.624999
 21
-148.245876
 31
0.0
  0
LINE
  5
13A1
100
AcDbEntity
  8
MSL5_360_3F-7
100
AcDbLine
 10
327.782286
 20
-148.245876
 30
0.0
 11
327.782286
 21
-155.088589
 31
0.0
  0
LINE
  5
13A2
100
AcDbEntity
  8
MSL5_360_3F-7
100
AcDbLine
 10
327.782286
 20
-148.245876
 30
0.0
 11
320.939573
 21
-148.245876
 31
0.0
  0
LINE
  5
13A3
100
AcDbEntity
  8
MSL5_360_3F-7
100
AcDbLine
 10
387.782286
 20
-148.245876
 30
0.0
 11
387.782286
 21
-141.403162
 31
0.0
  0
LINE
  5
13A4
100
AcDbEntity
  8
MSL5_360_3F-7
100
AcDbLine
 10
357.782286
 20
-148.245876
 30
0.0
 11
357.782286
 21
-141.106127
 31
0.0
  0
CIRCLE
  5
13A5
100
AcDbEntity
  8
MSL5_360_3F-3
100
AcDbCircle
 10
357.782286
 20
-148.245876
 30
0.0
 40
5.0
  0
ARC
  5
13A6
100
AcDbEntity
  8
MSL5_360_3F-3
100
AcDbCircle
 10
387.782286
 20
-148.245876
 30
0.0
 40
5.0
100
AcDbArc
 50
82.606248
 51
7.300134
  0
CIRCLE
  5
13A7
100
AcDbEntity
  8
MSL5_360_3F-3
100
AcDbCircle
 10
387.782286
 20
-148.245876
 30
0.0
 40
4.25
  0
LINE
  5
13A8
100
AcDbEntity
  8
MSL5_360_3F-7
100
AcDbLine
 10
357.782286
 20
-148.245876
 30
0.0
 11
364.922035
 21
-148.245876
 31
0.0
  0
LINE
  5
13A9
100
AcDbEntity
  8
MSL5_360_3F-7
100
AcDbLine
 10
357.782286
 20
-148.245876
 30
0.0
 11
357.782286
 21
-155.385624
 31
0.0
  0
LINE
  5
13AA
100
AcDbEntity
  8
MSL5_360_3F-7
100
AcDbLine
 10
387.782286
 20
-148.245876
 30
0.0
 11
380.939573
 21
-148.245876
 31
0.0
  0
LINE
  5
13AB
100
AcDbEntity
  8
MSL5_360_3F-7
100
AcDbLine
 10
387.782286
 20
-148.245876
 30
0.0
 11
387.782286
 21
-155.088589
 31
0.0
  0
LINE
  5
13AC
100
AcDbEntity
  8
MSL5_360_3F-7
100
AcDbLine
 10
387.782286
 20
-148.245876
 30
0.0
 11
394.624999
 21
-148.245876
 31
0.0
  0
LINE
  5
13AD
100
AcDbEntity
  8
MSL5_360_3F-7
100
AcDbLine
 10
477.782286
 20
-156.969465
 30
0.0
 11
477.782286
 21
-201.156995
 31
0.0
  0
LINE
  5
13AE
100
AcDbEntity
  8
MSL5_360_3F-7
100
AcDbLine
 10
417.782286
 20
-156.969465
 30
0.0
 11
417.782286
 21
-201.156995
 31
0.0
  0
CIRCLE
  5
13AF
100
AcDbEntity
  8
MSL5_360_3F-3
100
AcDbCircle
 10
417.782286
 20
-208.245876
 30
0.0
 40
5.0
  0
LINE
  5
13B0
100
AcDbEntity
  8
MSL5_360_3F-7
100
AcDbLine
 10
417.782286
 20
-208.245876
 30
0.0
 11
417.782286
 21
-201.156995
 31
0.0
  0
LINE
  5
13B1
100
AcDbEntity
  8
MSL5_360_3F-7
100
AcDbLine
 10
417.782286
 20
-208.245876
 30
0.0
 11
424.871167
 21
-208.245876
 31
0.0
  0
LINE
  5
13B2
100
AcDbEntity
  8
MSL5_360_3F-7
100
AcDbLine
 10
417.782286
 20
-208.245876
 30
0.0
 11
417.782286
 21
-215.334757
 31
0.0
  0
LINE
  5
13B3
100
AcDbEntity
  8
MSL5_360_3F-7
100
AcDbLine
 10
417.782286
 20
-208.245876
 30
0.0
 11
410.693405
 21
-208.245876
 31
0.0
  0
LINE
  5
13B4
100
AcDbEntity
  8
MSL5_360_3F-7
100
AcDbLine
 10
477.782286
 20
-208.245876
 30
0.0
 11
477.782286
 21
-201.156995
 31
0.0
  0
CIRCLE
  5
13B5
100
AcDbEntity
  8
MSL5_360_3F-3
100
AcDbCircle
 10
477.782286
 20
-208.245876
 30
0.0
 40
5.0
  0
LINE
  5
13B6
100
AcDbEntity
  8
MSL5_360_3F-7
100
AcDbLine
 10
447.782286
 20
-208.245876
 30
0.0
 11
447.782286
 21
-201.515086
 31
0.0
  0
CIRCLE
  5
13B7
100
AcDbEntity
  8
MSL5_360_3F-3
100
AcDbCircle
 10
447.782286
 20
-208.245876
 30
0.0
 40
4.25
  0
ARC
  5
13B8
100
AcDbEntity
  8
MSL5_360_3F-3
100
AcDbCircle
 10
447.782286
 20
-208.245876
 30
0.0
 40
5.0
100
AcDbArc
 50
82.606248
 51
7.300134
  0
LINE
  5
13B9
100
AcDbEntity
  8
MSL5_360_3F-7
100
AcDbLine
 10
447.782286
 20
-208.245876
 30
0.0
 11
454.513076
 21
-208.245876
 31
0.0
  0
LINE
  5
13BA
100
AcDbEntity
  8
MSL5_360_3F-7
100
AcDbLine
 10
447.782286
 20
-208.245876
 30
0.0
 11
447.782286
 21
-214.976666
 31
0.0
  0
LINE
  5
13BB
100
AcDbEntity
  8
MSL5_360_3F-7
100
AcDbLine
 10
447.782286
 20
-208.245876
 30
0.0
 11
441.051496
 21
-208.245876
 31
0.0
  0
LINE
  5
13BC
100
AcDbEntity
  8
MSL5_360_3F-7
100
AcDbLine
 10
477.782286
 20
-208.245876
 30
0.0
 11
470.693405
 21
-208.245876
 31
0.0
  0
LINE
  5
13BD
100
AcDbEntity
  8
MSL5_360_3F-7
100
AcDbLine
 10
477.782286
 20
-208.245876
 30
0.0
 11
477.782286
 21
-215.334757
 31
0.0
  0
CIRCLE
  5
13BE
100
AcDbEntity
  8
MSL5_360_3F-3
100
AcDbCircle
 10
417.782286
 20
-148.245876
 30
0.0
 40
5.0
  0
LINE
  5
13BF
100
AcDbEntity
  8
MSL5_360_3F-7
100
AcDbLine
 10
417.782286
 20
-148.245876
 30
0.0
 11
417.782286
 21
-141.106127
 31
0.0
  0
LINE
  5
13C0
100
AcDbEntity
  8
MSL5_360_3F-7
100
AcDbLine
 10
417.782286
 20
-148.245876
 30
0.0
 11
424.922035
 21
-148.245876
 31
0.0
  0
LINE
  5
13C1
100
AcDbEntity
  8
MSL5_360_3F-7
100
AcDbLine
 10
417.782286
 20
-148.245876
 30
0.0
 11
417.782286
 21
-155.385624
 31
0.0
  0
LINE
  5
13C2
100
AcDbEntity
  8
MSL5_360_3F-7
100
AcDbLine
 10
417.782286
 20
-148.245876
 30
0.0
 11
410.642537
 21
-148.245876
 31
0.0
  0
LINE
  5
13C3
100
AcDbEntity
  8
MSL5_360_3F-7
100
AcDbLine
 10
477.782286
 20
-148.245876
 30
0.0
 11
477.782286
 21
-141.106127
 31
0.0
  0
CIRCLE
  5
13C4
100
AcDbEntity
  8
MSL5_360_3F-3
100
AcDbCircle
 10
477.782286
 20
-148.245876
 30
0.0
 40
5.0
  0
LINE
  5
13C5
100
AcDbEntity
  8
MSL5_360_3F-7
100
AcDbLine
 10
447.782286
 20
-148.245876
 30
0.0
 11
447.782286
 21
-141.403162
 31
0.0
  0
CIRCLE
  5
13C6
100
AcDbEntity
  8
MSL5_360_3F-3
100
AcDbCircle
 10
447.782286
 20
-148.245876
 30
0.0
 40
4.25
  0
ARC
  5
13C7
100
AcDbEntity
  8
MSL5_360_3F-3
100
AcDbCircle
 10
447.782286
 20
-148.245876
 30
0.0
 40
5.0
100
AcDbArc
 50
82.606248
 51
7.300134
  0
LINE
  5
13C8
100
AcDbEntity
  8
MSL5_360_3F-7
100
AcDbLine
 10
447.782286
 20
-148.245876
 30
0.0
 11
454.624999
 21
-148.245876
 31
0.0
  0
LINE
  5
13C9
100
AcDbEntity
  8
MSL5_360_3F-7
100
AcDbLine
 10
447.782286
 20
-148.245876
 30
0.0
 11
447.782286
 21
-155.088589
 31
0.0
  0
LINE
  5
13CA
100
AcDbEntity
  8
MSL5_360_3F-7
100
AcDbLine
 10
447.782286
 20
-148.245876
 30
0.0
 11
440.939573
 21
-148.245876
 31
0.0
  0
LINE
  5
13CB
100
AcDbEntity
  8
MSL5_360_3F-7
100
AcDbLine
 10
477.782286
 20
-148.245876
 30
0.0
 11
470.642537
 21
-148.245876
 31
0.0
  0
LINE
  5
13CC
100
AcDbEntity
  8
MSL5_360_3F-7
100
AcDbLine
 10
477.782286
 20
-148.245876
 30
0.0
 11
477.782286
 21
-155.385624
 31
0.0
  0
LINE
  5
13CD
100
AcDbEntity
  8
MSL5_360_3F-7
100
AcDbLine
 10
297.782286
 20
21.276411
 30
0.0
 11
297.782286
 21
-22.911119
 31
0.0
  0
LINE
  5
13CE
100
AcDbEntity
  8
MSL5_360_3F-0
100
AcDbLine
 10
195.782286
 20
-38.0
 30
0.0
 11
195.782286
 21
119.0
 31
0.0
  0
LINE
  5
13CF
100
AcDbEntity
  8
MSL5_360_3F-0
100
AcDbLine
 10
147.782286
 20
-39.0
 30
0.0
 11
147.782286
 21
119.0
 31
0.0
  0
LINE
  5
13D0
100
AcDbEntity
  8
MSL5_360_3F-0
100
AcDbLine
 10
172.782286
 20
-39.0
 30
0.0
 11
172.782286
 21
119.0
 31
0.0
  0
MTEXT
  5
13D1
100
AcDbEntity
  8
MSL5_360_3F-6
100
AcDbMText
 10
199.61058
 20
-31.114077
 30
0.0
 40
3.5
 41
22.192126
 71
     1
 72
     1
  1
{MSL5-360-3F}
  0
LINE
  5
13D2
100
AcDbEntity
  8
MSL5_360_3F-0
100
AcDbLine
 10
189.179579
 20
-113.745947
 30
0.0
 11
172.782286
 21
-113.745947
 31
0.0
  0
LINE
  5
13D3
100
AcDbEntity
  8
MSL5_360_3F-0
100
AcDbLine
 10
172.782286
 20
-103.245947
 30
0.0
 11
147.782286
 21
-103.245947
 31
0.0
  0
LINE
  5
13D4
100
AcDbEntity
  8
MSL5_360_3F-0
100
AcDbLine
 10
195.782286
 20
-113.745947
 30
0.0
 11
194.384993
 21
-113.745947
 31
0.0
  0
LINE
  5
13D5
100
AcDbEntity
  8
MSL5_360_3F-0
100
AcDbLine
 10
193.382286
 20
-112.925439
 30
0.0
 11
190.182286
 21
-112.925439
 31
0.0
  0
LINE
  5
13D6
100
AcDbEntity
  8
MSL5_360_3F-0
100
AcDbLine
 10
195.782286
 20
-12.5
 30
0.0
 11
172.782286
 21
-12.5
 31
0.0
  0
LINE
  5
13D7
100
AcDbEntity
  8
MSL5_360_3F-7
100
AcDbLine
 10
144.782286
 20
0.0
 30
0.0
 11
204.787278
 21
0.0
 31
0.0
  0
LINE
  5
13D8
100
AcDbEntity
  8
MSL5_360_3F-7
100
AcDbLine
 10
164.782286
 20
-10.582057
 30
0.0
 11
164.782286
 21
-42.0
 31
0.0
  0
LINE
  5
13D9
100
AcDbEntity
  8
MSL5_360_3F-7
100
AcDbLine
 10
164.782286
 20
-10.582057
 30
0.0
 11
164.782286
 21
-42.0
 31
0.0
  0
LINE
  5
13DA
100
AcDbEntity
  8
MSL5_360_3F-3
100
AcDbLine
 10
168.970286
 20
-39.0
 30
0.0
 11
168.970286
 21
-16.0
 31
0.0
  0
LINE
  5
13DB
100
AcDbEntity
  8
MSL5_360_3F-3
100
AcDbLine
 10
168.970286
 20
-39.0
 30
0.0
 11
168.970286
 21
-16.0
 31
0.0
  0
LINE
  5
13DC
100
AcDbEntity
  8
MSL5_360_3F-3
100
AcDbLine
 10
169.782286
 20
-39.0
 30
0.0
 11
169.782286
 21
-22.0
 31
0.0
  0
LINE
  5
13DD
100
AcDbEntity
  8
MSL5_360_3F-3
100
AcDbLine
 10
169.782286
 20
-39.0
 30
0.0
 11
169.782286
 21
-22.0
 31
0.0
  0
LINE
  5
13DE
100
AcDbEntity
  8
MSL5_360_3F-3
100
AcDbLine
 10
159.782286
 20
-39.0
 30
0.0
 11
159.782286
 21
-22.0
 31
0.0
  0
LINE
  5
13DF
100
AcDbEntity
  8
MSL5_360_3F-3
100
AcDbLine
 10
159.782286
 20
-39.0
 30
0.0
 11
159.782286
 21
-22.0
 31
0.0
  0
LINE
  5
13E0
100
AcDbEntity
  8
MSL5_360_3F-3
100
AcDbLine
 10
160.594286
 20
-39.0
 30
0.0
 11
160.594286
 21
-16.0
 31
0.0
  0
LINE
  5
13E1
100
AcDbEntity
  8
MSL5_360_3F-3
100
AcDbLine
 10
160.594286
 20
-39.0
 30
0.0
 11
160.594286
 21
-16.0
 31
0.0
  0
LINE
  5
13E2
100
AcDbEntity
  8
MSL5_360_3F-7
100
AcDbLine
 10
155.782286
 20
-38.0
 30
0.0
 11
155.782286
 21
-22.0
 31
0.0
  0
LINE
  5
13E3
100
AcDbEntity
  8
MSL5_360_3F-7
100
AcDbLine
 10
147.782286
 20
-30.0
 30
0.0
 11
163.782286
 21
-30.0
 31
0.0
  0
LINE
  5
13E4
100
AcDbEntity
  8
MSL5_360_3F-0
100
AcDbLine
 10
172.782286
 20
-39.0
 30
0.0
 11
147.782286
 21
-39.0
 31
0.0
  0
LINE
  5
13E5
100
AcDbEntity
  8
MSL5_360_3F-7
100
AcDbLine
 10
174.782286
 20
-30.0
 30
0.0
 11
145.782286
 21
-30.0
 31
0.0
  0
CIRCLE
  5
13E6
100
AcDbEntity
  8
MSL5_360_3F-0
100
AcDbCircle
 10
155.782286
 20
-30.0
 30
0.0
 40
4.188
  0
ARC
  5
13E7
100
AcDbEntity
  8
MSL5_360_3F-4
100
AcDbCircle
 10
155.782286
 20
-30.0
 30
0.0
 40
5.0
100
AcDbArc
 50
280.0
 51
210.0
  0
LINE
  5
13E8
100
AcDbEntity
  8
MSL5_360_3F-3
100
AcDbLine
 10
164.782286
 20
-13.582057
 30
0.0
 11
160.594286
 21
-16.0
 31
0.0
  0
LINE
  5
13E9
100
AcDbEntity
  8
MSL5_360_3F-3
100
AcDbLine
 10
164.782286
 20
-13.582057
 30
0.0
 11
160.594286
 21
-16.0
 31
0.0
  0
LINE
  5
13EA
100
AcDbEntity
  8
MSL5_360_3F-3
100
AcDbLine
 10
160.594286
 20
-16.0
 30
0.0
 11
168.970286
 21
-16.0
 31
0.0
  0
LINE
  5
13EB
100
AcDbEntity
  8
MSL5_360_3F-3
100
AcDbLine
 10
160.594286
 20
-16.0
 30
0.0
 11
168.970286
 21
-16.0
 31
0.0
  0
LINE
  5
13EC
100
AcDbEntity
  8
MSL5_360_3F-3
100
AcDbLine
 10
159.782286
 20
-22.0
 30
0.0
 11
169.782286
 21
-22.0
 31
0.0
  0
LINE
  5
13ED
100
AcDbEntity
  8
MSL5_360_3F-3
100
AcDbLine
 10
159.782286
 20
-22.0
 30
0.0
 11
169.782286
 21
-22.0
 31
0.0
  0
LINE
  5
13EE
100
AcDbEntity
  8
MSL5_360_3F-3
100
AcDbLine
 10
164.782286
 20
-13.582057
 30
0.0
 11
168.970286
 21
-16.0
 31
0.0
  0
LINE
  5
13EF
100
AcDbEntity
  8
MSL5_360_3F-3
100
AcDbLine
 10
164.782286
 20
-13.582057
 30
0.0
 11
168.970286
 21
-16.0
 31
0.0
  0
LINE
  5
13F0
100
AcDbEntity
  8
MSL5_360_3F-0
100
AcDbLine
 10
177.782286
 20
-13.5
 30
0.0
 11
195.782286
 21
-13.5
 31
0.0
  0
LINE
  5
13F1
100
AcDbEntity
  8
MSL5_360_3F-0
100
AcDbLine
 10
177.782286
 20
-12.5
 30
0.0
 11
177.782286
 21
-13.5
 31
0.0
  0
LINE
  5
13F2
100
AcDbEntity
  8
MSL5_360_3F-0
100
AcDbLine
 10
176.782286
 20
-12.5
 30
0.0
 11
177.782286
 21
-13.5
 31
0.0
  0
LINE
  5
13F3
100
AcDbEntity
  8
MSL5_360_3F-7
100
AcDbLine
 10
267.782286
 20
-30.0
 30
0.0
 11
260.880388
 21
-30.0
 31
0.0
  0
ARC
  5
13F4
100
AcDbEntity
  8
MSL5_360_3F-4
100
AcDbCircle
 10
267.782286
 20
-30.0
 30
0.0
 40
5.0
100
AcDbArc
 50
82.606248
 51
7.300134
  0
LINE
  5
13F5
100
AcDbEntity
  8
MSL5_360_3F-7
100
AcDbLine
 10
297.782286
 20
-30.0
 30
0.0
 11
297.782286
 21
-22.911119
 31
0.0
  0
LINE
  5
13F6
100
AcDbEntity
  8
MSL5_360_3F-7
100
AcDbLine
 10
267.782286
 20
-30.0
 30
0.0
 11
267.782286
 21
-23.098102
 31
0.0
  0
LINE
  5
13F7
100
AcDbEntity
  8
MSL5_360_3F-7
100
AcDbLine
 10
267.782286
 20
-30.0
 30
0.0
 11
274.684184
 21
-30.0
 31
0.0
  0
LINE
  5
13F8
100
AcDbEntity
  8
MSL5_360_3F-7
100
AcDbLine
 10
267.782286
 20
-30.0
 30
0.0
 11
267.782286
 21
-36.901898
 31
0.0
  0
CIRCLE
  5
13F9
100
AcDbEntity
  8
MSL5_360_3F-0
100
AcDbCircle
 10
267.782286
 20
-30.0
 30
0.0
 40
4.25
  0
LINE
  5
13FA
100
AcDbEntity
  8
MSL5_360_3F-7
100
AcDbLine
 10
297.782286
 20
-30.0
 30
0.0
 11
290.693405
 21
-30.0
 31
0.0
  0
CIRCLE
  5
13FB
100
AcDbEntity
  8
MSL5_360_3F-0
100
AcDbCircle
 10
297.782286
 20
-30.0
 30
0.0
 40
5.0
  0
LINE
  5
13FC
100
AcDbEntity
  8
MSL5_360_3F-7
100
AcDbLine
 10
297.782286
 20
-30.0
 30
0.0
 11
304.871167
 21
-30.0
 31
0.0
  0
LINE
  5
13FD
100
AcDbEntity
  8
MSL5_360_3F-7
100
AcDbLine
 10
297.782286
 20
-30.0
 30
0.0
 11
297.782286
 21
-37.088881
 31
0.0
  0
LINE
  5
13FE
100
AcDbEntity
  8
MSL5_360_3F-7
100
AcDbLine
 10
200.203786
 20
94.646085
 30
0.0
 11
219.360786
 21
94.646085
 31
0.0
1001
GENIUS_GENODEF_13
1002
{
1000
HIER
1070
     0
1002
}
1002
{
1000
MANEDIT
1070
     0
1002
}
1002
{
1000
NOSEL
1070
     0
1002
}
1002
{
1000
BEHIND
1070
     0
1002
}
1002
{
1000
REACTOR
1002
}
1001
GENIUS_GENOBJ-N-CEN_13
1002
{
1000
OWNER
1000
GEN
1002
}
  0
LINE
  5
13FF
100
AcDbEntity
  8
MSL5_360_3F-4
100
AcDbLine
 10
226.282286
 20
40.0
 30
0.0
 11
196.282286
 21
40.0
 31
0.0
  0
LINE
  5
1400
100
AcDbEntity
  8
MSL5_360_3F-0
100
AcDbLine
 10
226.282286
 20
38.0
 30
0.0
 11
196.282286
 21
38.0
 31
0.0
  0
LINE
  5
1401
100
AcDbEntity
  8
MSL5_360_3F-0
100
AcDbLine
 10
196.282286
 20
120.0
 30
0.0
 11
196.282286
 21
38.0
 31
0.0
  0
ARC
  5
1402
100
AcDbEntity
  8
MSL5_360_3F-0
100
AcDbCircle
 10
190.676036
 20
64.990382
 30
0.0
 40
5.10625
100
AcDbArc
 50
302.004628
 51
57.995372
  0
ARC
  5
1403
100
AcDbEntity
  8
MSL5_360_3F-0
100
AcDbCircle
 10
192.888536
 20
64.990382
 30
0.0
 40
5.10625
100
AcDbArc
 50
122.004627
 51
237.995373
  0
LINE
  5
1404
100
AcDbEntity
  8
MSL5_360_3F-0
100
AcDbLine
 10
186.282286
 20
63.5
 30
0.0
 11
173.782286
 21
63.5
 31
0.0
  0
LINE
  5
1405
100
AcDbEntity
  8
MSL5_360_3F-0
100
AcDbLine
 10
173.782286
 20
40.5
 30
0.0
 11
186.282286
 21
40.5
 31
0.0
  0
LINE
  5
1406
100
AcDbEntity
  8
MSL5_360_3F-7
100
AcDbLine
 10
169.538634
 20
52.0
 30
0.0
 11
199.457847
 21
52.0
 31
0.0
  0
LINE
  5
1407
100
AcDbEntity
  8
MSL5_360_3F-0
100
AcDbLine
 10
172.782286
 20
12.5
 30
0.0
 11
195.782286
 21
12.5
 31
0.0
  0
LINE
  5
1408
100
AcDbEntity
  8
MSL5_360_3F-7
100
AcDbLine
 10
155.782286
 20
22.0
 30
0.0
 11
155.782286
 21
38.0
 31
0.0
  0
LINE
  5
1409
100
AcDbEntity
  8
MSL5_360_3F-7
100
AcDbLine
 10
147.782286
 20
30.0
 30
0.0
 11
163.782286
 21
30.0
 31
0.0
  0
LINE
  5
140A
100
AcDbEntity
  8
MSL5_360_3F-7
100
AcDbLine
 10
174.782286
 20
30.0
 30
0.0
 11
145.782286
 21
30.0
 31
0.0
  0
CIRCLE
  5
140B
100
AcDbEntity
  8
MSL5_360_3F-0
100
AcDbCircle
 10
155.782286
 20
30.0
 30
0.0
 40
4.188
  0
ARC
  5
140C
100
AcDbEntity
  8
MSL5_360_3F-4
100
AcDbCircle
 10
155.782286
 20
30.0
 30
0.0
 40
5.0
100
AcDbArc
 50
280.0
 51
210.0
  0
LINE
  5
140D
100
AcDbEntity
  8
MSL5_360_3F-0
100
AcDbLine
 10
172.782286
 20
62.5
 30
0.0
 11
172.782286
 21
41.5
 31
0.0
  0
LINE
  5
140E
100
AcDbEntity
  8
MSL5_360_3F-0
100
AcDbLine
 10
173.782286
 20
63.5
 30
0.0
 11
173.782286
 21
40.5
 31
0.0
  0
LINE
  5
140F
100
AcDbEntity
  8
MSL5_360_3F-0
100
AcDbLine
 10
172.782286
 20
41.5
 30
0.0
 11
173.782286
 21
40.5
 31
0.0
  0
LINE
  5
1410
100
AcDbEntity
  8
MSL5_360_3F-0
100
AcDbLine
 10
173.782286
 20
63.5
 30
0.0
 11
172.782286
 21
62.5
 31
0.0
  0
ARC
  5
1411
100
AcDbEntity
  8
MSL5_360_3F-0
100
AcDbCircle
 10
190.676036
 20
39.009619
 30
0.0
 40
5.10625
100
AcDbArc
 50
302.004628
 51
57.995372
  0
ARC
  5
1412
100
AcDbEntity
  8
MSL5_360_3F-0
100
AcDbCircle
 10
192.888536
 20
39.009619
 30
0.0
 40
5.10625
100
AcDbArc
 50
122.004627
 51
237.995373
  0
LINE
  5
1413
100
AcDbEntity
  8
MSL5_360_3F-0
100
AcDbLine
 10
195.782286
 20
13.5
 30
0.0
 11
177.782286
 21
13.5
 31
0.0
  0
LINE
  5
1414
100
AcDbEntity
  8
MSL5_360_3F-0
100
AcDbLine
 10
177.782286
 20
13.5
 30
0.0
 11
177.782286
 21
12.5
 31
0.0
  0
LINE
  5
1415
100
AcDbEntity
  8
MSL5_360_3F-0
100
AcDbLine
 10
177.782286
 20
13.5
 30
0.0
 11
176.782286
 21
12.5
 31
0.0
  0
LINE
  5
1416
100
AcDbEntity
  8
MSL5_360_3F-0
100
AcDbLine
 10
193.382286
 20
34.679492
 30
0.0
 11
190.182286
 21
34.679492
 31
0.0
  0
ARC
  5
1417
100
AcDbEntity
  8
MSL5_360_3F-0
100
AcDbCircle
 10
204.607286
 20
52.0
 30
0.0
 40
16.825
100
AcDbArc
 50
149.0209
 51
210.9791
  0
ARC
  5
1418
100
AcDbEntity
  8
MSL5_360_3F-0
100
AcDbCircle
 10
178.957286
 20
52.0
 30
0.0
 40
16.825
100
AcDbArc
 50
329.020901
 51
30.979099
  0
LINE
  5
1419
100
AcDbEntity
  8
MSL5_360_3F-0
100
AcDbLine
 10
187.282286
 20
63.5
 30
0.0
 11
187.282286
 21
40.5
 31
0.0
  0
LINE
  5
141A
100
AcDbEntity
  8
MSL5_360_3F-0
100
AcDbLine
 10
186.282286
 20
40.5
 30
0.0
 11
186.282286
 21
63.5
 31
0.0
  0
LINE
  5
141B
100
AcDbEntity
  8
MSL5_360_3F-0
100
AcDbLine
 10
187.782286
 20
64.990382
 30
0.0
 11
187.782286
 21
39.009619
 31
0.0
  0
LINE
  5
141C
100
AcDbEntity
  8
MSL5_360_3F-0
100
AcDbLine
 10
187.282286
 20
40.5
 30
0.0
 11
187.782286
 21
40.0
 31
0.0
  0
LINE
  5
141D
100
AcDbEntity
  8
MSL5_360_3F-0
100
AcDbLine
 10
193.382286
 20
43.339746
 30
0.0
 11
190.182286
 21
43.339746
 31
0.0
  0
LINE
  5
141E
100
AcDbEntity
  8
MSL5_360_3F-0
100
AcDbLine
 10
187.282286
 20
48.0
 30
0.0
 11
186.282286
 21
48.0
 31
0.0
  0
LINE
  5
141F
100
AcDbEntity
  8
MSL5_360_3F-0
100
AcDbLine
 10
193.382286
 20
60.660254
 30
0.0
 11
190.182286
 21
60.660254
 31
0.0
  0
LINE
  5
1420
100
AcDbEntity
  8
MSL5_360_3F-0
100
AcDbLine
 10
187.282286
 20
56.0
 30
0.0
 11
186.282286
 21
56.0
 31
0.0
  0
LINE
  5
1421
100
AcDbEntity
  8
MSL5_360_3F-0
100
AcDbLine
 10
187.782286
 20
64.0
 30
0.0
 11
187.282286
 21
63.5
 31
0.0
  0
LINE
  5
1422
100
AcDbEntity
  8
MSL5_360_3F-0
100
AcDbLine
 10
172.782286
 20
105.5
 30
0.0
 11
195.782286
 21
105.5
 31
0.0
  0
LINE
  5
1423
100
AcDbEntity
  8
MSL5_360_3F-0
100
AcDbLine
 10
195.782286
 20
80.5
 30
0.0
 11
172.782286
 21
80.5
 31
0.0
  0
LINE
  5
1424
100
AcDbEntity
  8
MSL5_360_3F-7
100
AcDbLine
 10
144.782286
 20
93.0
 30
0.0
 11
204.787278
 21
93.0
 31
0.0
  0
LINE
  5
1425
100
AcDbEntity
  8
MSL5_360_3F-0
100
AcDbLine
 10
147.782286
 20
66.6
 30
0.0
 11
172.782286
 21
66.6
 31
0.0
  0
LINE
  5
1426
100
AcDbEntity
  8
MSL5_360_3F-0
100
AcDbLine
 10
147.782286
 20
119.0
 30
0.0
 11
172.782286
 21
119.0
 31
0.0
  0
ELLIPSE
  5
1427
100
AcDbEntity
  8
MSL5_360_3F-3
100
AcDbEllipse
 10
209.782286
 20
94.646085
 30
0.0
 11
-5.722384999999974
 21
0.0
 31
0.0
210
0.0
220
0.0
230
1.0
 40
0.642788
 41
0.0
 42
6.2831853071796
  0
ELLIPSE
  5
1428
100
AcDbEntity
  8
MSL5_360_3F-3
100
AcDbEllipse
 10
209.782286
 20
94.646085
 30
0.0
 11
-6.578500000000019
 21
0.0
 31
0.0
210
0.0
220
0.0
230
1.0
 40
0.642788
 41
1.514618869528128
 42
6.418462237827024
  0
LINE
  5
1429
100
AcDbEntity
  8
MSL5_360_3F-7
100
AcDbLine
 10
209.782286
 20
101.874664
 30
0.0
 11
209.782286
 21
87.417507
 31
0.0
1001
GENIUS_GENODEF_13
1002
{
1000
HIER
1070
     0
1002
}
1002
{
1000
MANEDIT
1070
     0
1002
}
1002
{
1000
NOSEL
1070
     0
1002
}
1002
{
1000
BEHIND
1070
     0
1002
}
1002
{
1000
REACTOR
1002
}
1001
GENIUS_GENOBJ-N-CEN_13
1002
{
1000
OWNER
1000
GEN
1002
}
  0
LINE
  5
142A
100
AcDbEntity
  8
MSL5_360_3F-0
100
AcDbLine
 10
193.382286
 20
69.320509
 30
0.0
 11
190.182286
 21
69.320509
 31
0.0
  0
LINE
  5
142B
100
AcDbEntity
  8
MSL5_360_3F-0
100
AcDbLine
 10
195.782286
 20
119.0
 30
0.0
 11
196.282286
 21
119.0
 31
0.0
  0
LINE
  5
142C
100
AcDbEntity
  8
MSL5_360_3F-7
100
AcDbLine
 10
239.782286
 20
78.375084
 30
0.0
 11
239.782286
 21
64.797004
 31
0.0
1001
GENIUS_GENODEF_13
1002
{
1000
HIER
1070
     0
1002
}
1002
{
1000
MANEDIT
1070
     0
1002
}
1002
{
1000
NOSEL
1070
     0
1002
}
1002
{
1000
BEHIND
1070
     0
1002
}
1002
{
1000
REACTOR
1002
}
1001
GENIUS_GENOBJ-N-CEN_13
1002
{
1000
OWNER
1000
GEN
1002
}
  0
CIRCLE
  5
142D
100
AcDbEntity
  8
MSL5_360_3F-0
100
AcDbCircle
 10
236.282286
 20
62.0
 30
0.0
 40
5.501337
  0
LINE
  5
142E
100
AcDbEntity
  8
MSL5_360_3F-7
100
AcDbLine
 10
236.282286
 20
69.75
 30
0.0
 11
236.282286
 21
35.0
 31
0.0
1001
GENIUS_GENODEF_13
1002
{
1000
HIER
1070
     0
1002
}
1002
{
1000
MANEDIT
1070
     0
1002
}
1002
{
1000
NOSEL
1070
     0
1002
}
1002
{
1000
BEHIND
1070
     0
1002
}
1002
{
1000
REACTOR
1002
}
1001
GENIUS_GENOBJ-N-CEN_13
1002
{
1000
OWNER
1000
GEN
1002
}
  0
LINE
  5
142F
100
AcDbEntity
  8
MSL5_360_3F-7
100
AcDbLine
 10
267.782286
 20
30.0
 30
0.0
 11
260.96504
 21
30.0
 31
0.0
  0
ARC
  5
1430
100
AcDbEntity
  8
MSL5_360_3F-4
100
AcDbCircle
 10
267.782286
 20
30.0
 30
0.0
 40
5.0
100
AcDbArc
 50
82.606248
 51
7.300134
  0
LINE
  5
1431
100
AcDbEntity
  8
MSL5_360_3F-7
100
AcDbLine
 10
244.032286
 20
62.0
 30
0.0
 11
228.532286
 21
62.0
 31
0.0
1001
GENIUS_GENODEF_13
1002
{
1000
HIER
1070
     0
1002
}
1002
{
1000
MANEDIT
1070
     0
1002
}
1002
{
1000
NOSEL
1070
     0
1002
}
1002
{
1000
BEHIND
1070
     0
1002
}
1002
{
1000
REACTOR
1002
}
1001
GENIUS_GENOBJ-N-CEN_13
1002
{
1000
OWNER
1000
GEN
1002
}
  0
LINE
  5
1432
100
AcDbEntity
  8
MSL5_360_3F-7
100
AcDbLine
 10
244.032286
 20
49.0
 30
0.0
 11
228.532286
 21
49.0
 31
0.0
1001
GENIUS_GENODEF_13
1002
{
1000
HIER
1070
     0
1002
}
1002
{
1000
MANEDIT
1070
     0
1002
}
1002
{
1000
NOSEL
1070
     0
1002
}
1002
{
1000
BEHIND
1070
     0
1002
}
1002
{
1000
REACTOR
1002
}
1001
GENIUS_GENOBJ-N-CEN_13
1002
{
1000
OWNER
1000
GEN
1002
}
  0
CIRCLE
  5
1433
100
AcDbEntity
  8
MSL5_360_3F-0
100
AcDbCircle
 10
236.282286
 20
49.0
 30
0.0
 40
5.501337
  0
LINE
  5
1434
100
AcDbEntity
  8
MSL5_360_3F-0
100
AcDbLine
 10
231.282286
 20
40.0
 30
0.0
 11
226.282286
 21
40.0
 31
0.0
  0
LINE
  5
1435
100
AcDbEntity
  8
MSL5_360_3F-0
100
AcDbLine
 10
226.282286
 20
40.0
 30
0.0
 11
226.282286
 21
38.0
 31
0.0
  0
LINE
  5
1436
100
AcDbEntity
  8
MSL5_360_3F-0
100
AcDbLine
 10
237.932286
 20
43.751933
 30
0.0
 11
237.932286
 21
38.0
 31
0.0
  0
LINE
  5
1437
100
AcDbEntity
  8
MSL5_360_3F-0
100
AcDbLine
 10
234.632286
 20
43.751933
 30
0.0
 11
234.632286
 21
38.0
 31
0.0
  0
LINE
  5
1438
100
AcDbEntity
  8
MSL5_360_3F-0
100
AcDbLine
 10
234.632286
 20
38.0
 30
0.0
 11
234.282286
 21
38.0
 31
0.0
  0
LINE
  5
1439
100
AcDbEntity
  8
MSL5_360_3F-0
100
AcDbLine
 10
231.282286
 20
40.0
 30
0.0
 11
231.282286
 21
38.0
 31
0.0
  0
LINE
  5
143A
100
AcDbEntity
  8
MSL5_360_3F-0
100
AcDbLine
 10
231.282286
 20
38.0
 30
0.0
 11
234.282286
 21
38.0
 31
0.0
  0
LINE
  5
143B
100
AcDbEntity
  8
MSL5_360_3F-0
100
AcDbLine
 10
237.932286
 20
56.751933
 30
0.0
 11
237.932286
 21
54.248067
 31
0.0
  0
LINE
  5
143C
100
AcDbEntity
  8
MSL5_360_3F-0
100
AcDbLine
 10
234.632286
 20
56.751933
 30
0.0
 11
234.632286
 21
54.248067
 31
0.0
  0
LINE
  5
143D
100
AcDbEntity
  8
MSL5_360_3F-7
100
AcDbLine
 10
297.782286
 20
30.0
 30
0.0
 11
297.782286
 21
37.139749
 31
0.0
  0
LINE
  5
143E
100
AcDbEntity
  8
MSL5_360_3F-7
100
AcDbLine
 10
267.782286
 20
30.0
 30
0.0
 11
267.782286
 21
36.817246
 31
0.0
  0
LINE
  5
143F
100
AcDbEntity
  8
MSL5_360_3F-7
100
AcDbLine
 10
267.782286
 20
30.0
 30
0.0
 11
274.599532
 21
30.0
 31
0.0
  0
LINE
  5
1440
100
AcDbEntity
  8
MSL5_360_3F-7
100
AcDbLine
 10
267.782286
 20
30.0
 30
0.0
 11
267.782286
 21
23.182754
 31
0.0
  0
CIRCLE
  5
1441
100
AcDbEntity
  8
MSL5_360_3F-0
100
AcDbCircle
 10
267.782286
 20
30.0
 30
0.0
 40
4.25
  0
LINE
  5
1442
100
AcDbEntity
  8
MSL5_360_3F-7
100
AcDbLine
 10
297.782286
 20
30.0
 30
0.0
 11
290.642537
 21
30.0
 31
0.0
  0
CIRCLE
  5
1443
100
AcDbEntity
  8
MSL5_360_3F-0
100
AcDbCircle
 10
297.782286
 20
30.0
 30
0.0
 40
5.0
  0
LINE
  5
1444
100
AcDbEntity
  8
MSL5_360_3F-7
100
AcDbLine
 10
297.782286
 20
30.0
 30
0.0
 11
304.922035
 21
30.0
 31
0.0
  0
LINE
  5
1445
100
AcDbEntity
  8
MSL5_360_3F-7
100
AcDbLine
 10
297.782286
 20
30.0
 30
0.0
 11
297.782286
 21
22.860251
 31
0.0
  0
LINE
  5
1446
100
AcDbEntity
  8
MSL5_360_3F-0
100
AcDbLine
 10
239.782286
 20
76.270484
 30
0.0
 11
241.782286
 21
74.202164
 31
0.0
  0
ELLIPSE
  5
1447
100
AcDbEntity
  8
MSL5_360_3F-0
100
AcDbEllipse
 10
239.782286
 20
74.202164
 30
0.0
 11
-2.0
 21
0.0
 31
0.0
210
0.0
220
0.0
230
1.0
 40
0.642788
 41
-1.112236758281635
 42
4.253829411871953
  0
ELLIPSE
  5
1448
100
AcDbEntity
  8
MSL5_360_3F-0
100
AcDbEllipse
 10
239.782286
 20
74.202164
 30
0.0
 11
5.5
 21
0.0
 31
0.0
210
0.0
220
0.0
230
1.0
 40
0.642788
 41
0.0
 42
6.2831853071796
  0
ELLIPSE
  5
1449
100
AcDbEntity
  8
MSL5_360_3F-0
100
AcDbEllipse
 10
239.782286
 20
72.670075
 30
0.0
 11
5.5
 21
0.0
 31
0.0
210
0.0
220
0.0
230
1.0
 40
0.642788
 41
3.141592653589793
 42
6.283185307180163
  0
LINE
  5
144A
100
AcDbEntity
  8
MSL5_360_3F-7
100
AcDbLine
 10
248.182286
 20
72.670075
 30
0.0
 11
231.382286
 21
72.670075
 31
0.0
1001
GENIUS_GENODEF_13
1002
{
1000
HIER
1070
     0
1002
}
1002
{
1000
MANEDIT
1070
     0
1002
}
1002
{
1000
NOSEL
1070
     0
1002
}
1002
{
1000
BEHIND
1070
     0
1002
}
1002
{
1000
REACTOR
1002
}
1001
GENIUS_GENOBJ-N-CEN_13
1002
{
1000
OWNER
1000
GEN
1002
}
  0
LINE
  5
144B
100
AcDbEntity
  8
MSL5_360_3F-0
100
AcDbLine
 10
237.782286
 20
74.202164
 30
0.0
 11
239.782286
 21
76.270484
 31
0.0
  0
LINE
  5
144C
100
AcDbEntity
  8
MSL5_360_3F-0
100
AcDbLine
 10
234.282286
 20
72.670075
 30
0.0
 11
234.282286
 21
74.202164
 31
0.0
  0
LINE
  5
144D
100
AcDbEntity
  8
MSL5_360_3F-0
100
AcDbLine
 10
245.282286
 20
72.670075
 30
0.0
 11
245.282286
 21
74.202164
 31
0.0
  0
LINE
  5
144E
100
AcDbEntity
  8
MSL5_360_3F-7
100
AcDbLine
 10
477.782286
 20
21.276411
 30
0.0
 11
477.782286
 21
-22.911119
 31
0.0
  0
LINE
  5
144F
100
AcDbEntity
  8
MSL5_360_3F-7
100
AcDbLine
 10
417.782286
 20
21.276411
 30
0.0
 11
417.782286
 21
-22.911119
 31
0.0
  0
LINE
  5
1450
100
AcDbEntity
  8
MSL5_360_3F-7
100
AcDbLine
 10
357.782286
 20
21.276411
 30
0.0
 11
357.782286
 21
-22.911119
 31
0.0
  0
LINE
  5
1451
100
AcDbEntity
  8
MSL5_360_3F-7
100
AcDbLine
 10
357.782286
 20
-30.0
 30
0.0
 11
350.693405
 21
-30.0
 31
0.0
  0
LINE
  5
1452
100
AcDbEntity
  8
MSL5_360_3F-7
100
AcDbLine
 10
327.782286
 20
-30.0
 30
0.0
 11
327.782286
 21
-23.26921
 31
0.0
  0
LINE
  5
1453
100
AcDbEntity
  8
MSL5_360_3F-7
100
AcDbLine
 10
327.782286
 20
-30.0
 30
0.0
 11
334.513076
 21
-30.0
 31
0.0
  0
CIRCLE
  5
1454
100
AcDbEntity
  8
MSL5_360_3F-0
100
AcDbCircle
 10
327.782286
 20
-30.0
 30
0.0
 40
4.25
  0
ARC
  5
1455
100
AcDbEntity
  8
MSL5_360_3F-4
100
AcDbCircle
 10
327.782286
 20
-30.0
 30
0.0
 40
5.0
100
AcDbArc
 50
82.606248
 51
7.300134
  0
LINE
  5
1456
100
AcDbEntity
  8
MSL5_360_3F-7
100
AcDbLine
 10
327.782286
 20
-30.0
 30
0.0
 11
327.782286
 21
-36.73079
 31
0.0
  0
LINE
  5
1457
100
AcDbEntity
  8
MSL5_360_3F-7
100
AcDbLine
 10
327.782286
 20
-30.0
 30
0.0
 11
321.051496
 21
-30.0
 31
0.0
  0
LINE
  5
1458
100
AcDbEntity
  8
MSL5_360_3F-7
100
AcDbLine
 10
387.782286
 20
-30.0
 30
0.0
 11
387.782286
 21
-23.26921
 31
0.0
  0
LINE
  5
1459
100
AcDbEntity
  8
MSL5_360_3F-7
100
AcDbLine
 10
357.782286
 20
-30.0
 30
0.0
 11
357.782286
 21
-22.911119
 31
0.0
  0
LINE
  5
145A
100
AcDbEntity
  8
MSL5_360_3F-7
100
AcDbLine
 10
357.782286
 20
-30.0
 30
0.0
 11
364.871167
 21
-30.0
 31
0.0
  0
LINE
  5
145B
100
AcDbEntity
  8
MSL5_360_3F-7
100
AcDbLine
 10
357.782286
 20
-30.0
 30
0.0
 11
357.782286
 21
-37.088881
 31
0.0
  0
CIRCLE
  5
145C
100
AcDbEntity
  8
MSL5_360_3F-0
100
AcDbCircle
 10
357.782286
 20
-30.0
 30
0.0
 40
5.0
  0
LINE
  5
145D
100
AcDbEntity
  8
MSL5_360_3F-7
100
AcDbLine
 10
387.782286
 20
-30.0
 30
0.0
 11
381.051496
 21
-30.0
 31
0.0
  0
ARC
  5
145E
100
AcDbEntity
  8
MSL5_360_3F-4
100
AcDbCircle
 10
387.782286
 20
-30.0
 30
0.0
 40
5.0
100
AcDbArc
 50
82.606248
 51
7.300134
  0
CIRCLE
  5
145F
100
AcDbEntity
  8
MSL5_360_3F-0
100
AcDbCircle
 10
387.782286
 20
-30.0
 30
0.0
 40
4.25
  0
LINE
  5
1460
100
AcDbEntity
  8
MSL5_360_3F-7
100
AcDbLine
 10
387.782286
 20
-30.0
 30
0.0
 11
387.782286
 21
-36.73079
 31
0.0
  0
LINE
  5
1461
100
AcDbEntity
  8
MSL5_360_3F-7
100
AcDbLine
 10
387.782286
 20
-30.0
 30
0.0
 11
394.513076
 21
-30.0
 31
0.0
  0
LINE
  5
1462
100
AcDbEntity
  8
MSL5_360_3F-7
100
AcDbLine
 10
417.782286
 20
-30.0
 30
0.0
 11
417.782286
 21
-22.911119
 31
0.0
  0
LINE
  5
1463
100
AcDbEntity
  8
MSL5_360_3F-7
100
AcDbLine
 10
417.782286
 20
-30.0
 30
0.0
 11
424.871167
 21
-30.0
 31
0.0
  0
CIRCLE
  5
1464
100
AcDbEntity
  8
MSL5_360_3F-0
100
AcDbCircle
 10
417.782286
 20
-30.0
 30
0.0
 40
5.0
  0
LINE
  5
1465
100
AcDbEntity
  8
MSL5_360_3F-7
100
AcDbLine
 10
417.782286
 20
-30.0
 30
0.0
 11
417.782286
 21
-37.088881
 31
0.0
  0
LINE
  5
1466
100
AcDbEntity
  8
MSL5_360_3F-7
100
AcDbLine
 10
417.782286
 20
-30.0
 30
0.0
 11
410.693405
 21
-30.0
 31
0.0
  0
LINE
  5
1467
100
AcDbEntity
  8
MSL5_360_3F-7
100
AcDbLine
 10
477.782286
 20
-30.0
 30
0.0
 11
477.782286
 21
-22.911119
 31
0.0
  0
LINE
  5
1468
100
AcDbEntity
  8
MSL5_360_3F-7
100
AcDbLine
 10
447.782286
 20
-30.0
 30
0.0
 11
447.782286
 21
-23.26921
 31
0.0
  0
LINE
  5
1469
100
AcDbEntity
  8
MSL5_360_3F-7
100
AcDbLine
 10
447.782286
 20
-30.0
 30
0.0
 11
454.513076
 21
-30.0
 31
0.0
  0
CIRCLE
  5
146A
100
AcDbEntity
  8
MSL5_360_3F-0
100
AcDbCircle
 10
447.782286
 20
-30.0
 30
0.0
 40
4.25
  0
ARC
  5
146B
100
AcDbEntity
  8
MSL5_360_3F-4
100
AcDbCircle
 10
447.782286
 20
-30.0
 30
0.0
 40
5.0
100
AcDbArc
 50
82.606248
 51
7.300134
  0
LINE
  5
146C
100
AcDbEntity
  8
MSL5_360_3F-7
100
AcDbLine
 10
447.782286
 20
-30.0
 30
0.0
 11
447.782286
 21
-36.73079
 31
0.0
  0
LINE
  5
146D
100
AcDbEntity
  8
MSL5_360_3F-7
100
AcDbLine
 10
447.782286
 20
-30.0
 30
0.0
 11
441.051496
 21
-30.0
 31
0.0
  0
LINE
  5
146E
100
AcDbEntity
  8
MSL5_360_3F-7
100
AcDbLine
 10
477.782286
 20
-30.0
 30
0.0
 11
470.693405
 21
-30.0
 31
0.0
  0
CIRCLE
  5
146F
100
AcDbEntity
  8
MSL5_360_3F-0
100
AcDbCircle
 10
477.782286
 20
-30.0
 30
0.0
 40
5.0
  0
LINE
  5
1470
100
AcDbEntity
  8
MSL5_360_3F-7
100
AcDbLine
 10
477.782286
 20
-30.0
 30
0.0
 11
477.782286
 21
-37.088881
 31
0.0
  0
LINE
  5
1471
100
AcDbEntity
  8
MSL5_360_3F-7
100
AcDbLine
 10
357.782286
 20
30.0
 30
0.0
 11
350.642537
 21
30.0
 31
0.0
  0
LINE
  5
1472
100
AcDbEntity
  8
MSL5_360_3F-7
100
AcDbLine
 10
327.782286
 20
30.0
 30
0.0
 11
327.782286
 21
36.842713
 31
0.0
  0
LINE
  5
1473
100
AcDbEntity
  8
MSL5_360_3F-7
100
AcDbLine
 10
327.782286
 20
30.0
 30
0.0
 11
334.624999
 21
30.0
 31
0.0
  0
CIRCLE
  5
1474
100
AcDbEntity
  8
MSL5_360_3F-0
100
AcDbCircle
 10
327.782286
 20
30.0
 30
0.0
 40
4.25
  0
ARC
  5
1475
100
AcDbEntity
  8
MSL5_360_3F-4
100
AcDbCircle
 10
327.782286
 20
30.0
 30
0.0
 40
5.0
100
AcDbArc
 50
82.606248
 51
7.300134
  0
LINE
  5
1476
100
AcDbEntity
  8
MSL5_360_3F-7
100
AcDbLine
 10
327.782286
 20
30.0
 30
0.0
 11
327.782286
 21
23.157287
 31
0.0
  0
LINE
  5
1477
100
AcDbEntity
  8
MSL5_360_3F-7
100
AcDbLine
 10
327.782286
 20
30.0
 30
0.0
 11
320.939573
 21
30.0
 31
0.0
  0
LINE
  5
1478
100
AcDbEntity
  8
MSL5_360_3F-7
100
AcDbLine
 10
387.782286
 20
30.0
 30
0.0
 11
387.782286
 21
36.842713
 31
0.0
  0
LINE
  5
1479
100
AcDbEntity
  8
MSL5_360_3F-7
100
AcDbLine
 10
357.782286
 20
30.0
 30
0.0
 11
357.782286
 21
37.139749
 31
0.0
  0
LINE
  5
147A
100
AcDbEntity
  8
MSL5_360_3F-7
100
AcDbLine
 10
357.782286
 20
30.0
 30
0.0
 11
364.922035
 21
30.0
 31
0.0
  0
LINE
  5
147B
100
AcDbEntity
  8
MSL5_360_3F-7
100
AcDbLine
 10
357.782286
 20
30.0
 30
0.0
 11
357.782286
 21
22.860251
 31
0.0
  0
CIRCLE
  5
147C
100
AcDbEntity
  8
MSL5_360_3F-0
100
AcDbCircle
 10
357.782286
 20
30.0
 30
0.0
 40
5.0
  0
LINE
  5
147D
100
AcDbEntity
  8
MSL5_360_3F-7
100
AcDbLine
 10
387.782286
 20
30.0
 30
0.0
 11
380.939573
 21
30.0
 31
0.0
  0
ARC
  5
147E
100
AcDbEntity
  8
MSL5_360_3F-4
100
AcDbCircle
 10
387.782286
 20
30.0
 30
0.0
 40
5.0
100
AcDbArc
 50
82.606248
 51
7.300134
  0
CIRCLE
  5
147F
100
AcDbEntity
  8
MSL5_360_3F-0
100
AcDbCircle
 10
387.782286
 20
30.0
 30
0.0
 40
4.25
  0
LINE
  5
1480
100
AcDbEntity
  8
MSL5_360_3F-7
100
AcDbLine
 10
387.782286
 20
30.0
 30
0.0
 11
387.782286
 21
23.157287
 31
0.0
  0
LINE
  5
1481
100
AcDbEntity
  8
MSL5_360_3F-7
100
AcDbLine
 10
387.782286
 20
30.0
 30
0.0
 11
394.624999
 21
30.0
 31
0.0
  0
LINE
  5
1482
100
AcDbEntity
  8
MSL5_360_3F-7
100
AcDbLine
 10
417.782286
 20
30.0
 30
0.0
 11
417.782286
 21
37.139749
 31
0.0
  0
LINE
  5
1483
100
AcDbEntity
  8
MSL5_360_3F-7
100
AcDbLine
 10
417.782286
 20
30.0
 30
0.0
 11
424.922035
 21
30.0
 31
0.0
  0
CIRCLE
  5
1484
100
AcDbEntity
  8
MSL5_360_3F-0
100
AcDbCircle
 10
417.782286
 20
30.0
 30
0.0
 40
5.0
  0
LINE
  5
1485
100
AcDbEntity
  8
MSL5_360_3F-7
100
AcDbLine
 10
417.782286
 20
30.0
 30
0.0
 11
417.782286
 21
22.860251
 31
0.0
  0
LINE
  5
1486
100
AcDbEntity
  8
MSL5_360_3F-7
100
AcDbLine
 10
417.782286
 20
30.0
 30
0.0
 11
410.642537
 21
30.0
 31
0.0
  0
LINE
  5
1487
100
AcDbEntity
  8
MSL5_360_3F-7
100
AcDbLine
 10
477.782286
 20
30.0
 30
0.0
 11
477.782286
 21
37.139749
 31
0.0
  0
LINE
  5
1488
100
AcDbEntity
  8
MSL5_360_3F-7
100
AcDbLine
 10
447.782286
 20
30.0
 30
0.0
 11
447.782286
 21
36.842713
 31
0.0
  0
LINE
  5
1489
100
AcDbEntity
  8
MSL5_360_3F-7
100
AcDbLine
 10
447.782286
 20
30.0
 30
0.0
 11
454.624999
 21
30.0
 31
0.0
  0
CIRCLE
  5
148A
100
AcDbEntity
  8
MSL5_360_3F-0
100
AcDbCircle
 10
447.782286
 20
30.0
 30
0.0
 40
4.25
  0
ARC
  5
148B
100
AcDbEntity
  8
MSL5_360_3F-4
100
AcDbCircle
 10
447.782286
 20
30.0
 30
0.0
 40
5.0
100
AcDbArc
 50
82.606248
 51
7.300134
  0
LINE
  5
148C
100
AcDbEntity
  8
MSL5_360_3F-7
100
AcDbLine
 10
447.782286
 20
30.0
 30
0.0
 11
447.782286
 21
23.157287
 31
0.0
  0
LINE
  5
148D
100
AcDbEntity
  8
MSL5_360_3F-7
100
AcDbLine
 10
447.782286
 20
30.0
 30
0.0
 11
440.939573
 21
30.0
 31
0.0
  0
LINE
  5
148E
100
AcDbEntity
  8
MSL5_360_3F-7
100
AcDbLine
 10
477.782286
 20
30.0
 30
0.0
 11
470.642537
 21
30.0
 31
0.0
  0
CIRCLE
  5
148F
100
AcDbEntity
  8
MSL5_360_3F-0
100
AcDbCircle
 10
477.782286
 20
30.0
 30
0.0
 40
5.0
  0
LINE
  5
1490
100
AcDbEntity
  8
MSL5_360_3F-7
100
AcDbLine
 10
477.782286
 20
30.0
 30
0.0
 11
477.782286
 21
22.860251
 31
0.0
  0
LINE
  5
1491
100
AcDbEntity
  8
MSL5_360_3F-0
100
AcDbLine
 10
176.782286
 20
270.261134
 30
0.0
 11
176.782286
 21
245.261134
 31
0.0
  0
LINE
  5
1492
100
AcDbEntity
  8
MSL5_360_3F-0
100
AcDbLine
 10
177.782286
 20
271.261134
 30
0.0
 11
177.782286
 21
244.261134
 31
0.0
  0
LINE
  5
1493
100
AcDbEntity
  8
MSL5_360_3F-7
100
AcDbLine
 10
297.782286
 20
279.037546
 30
0.0
 11
297.782286
 21
234.850015
 31
0.0
  0
LINE
  5
1494
100
AcDbEntity
  8
MSL5_360_3F-0
100
AcDbLine
 10
195.782286
 20
332.761134
 30
0.0
 11
195.782286
 21
182.761134
 31
0.0
  0
LINE
  5
1495
100
AcDbEntity
  8
MSL5_360_3F-0
100
AcDbLine
 10
147.782286
 20
332.761134
 30
0.0
 11
147.782286
 21
182.761134
 31
0.0
  0
LINE
  5
1496
100
AcDbEntity
  8
MSL5_360_3F-0
100
AcDbLine
 10
172.782286
 20
182.761134
 30
0.0
 11
172.782286
 21
332.761134
 31
0.0
  0
MTEXT
  5
1497
100
AcDbEntity
  8
MSL5_360_3F-6
100
AcDbMText
 10
200.447235
 20
189.012817
 30
0.0
 40
3.5
 41
22.192126
 71
     1
 72
     1
  1
{MSL5-360-3F}
  0
LINE
  5
1498
100
AcDbEntity
  8
MSL5_360_3F-3
100
AcDbLine
 10
159.970286
 20
182.761134
 30
0.0
 11
159.970286
 21
205.761134
 31
0.0
  0
LINE
  5
1499
100
AcDbEntity
  8
MSL5_360_3F-3
100
AcDbLine
 10
151.594286
 20
182.761134
 30
0.0
 11
151.594286
 21
205.761134
 31
0.0
  0
LINE
  5
149A
100
AcDbEntity
  8
MSL5_360_3F-3
100
AcDbLine
 10
160.782286
 20
182.761134
 30
0.0
 11
160.782286
 21
199.761134
 31
0.0
  0
LINE
  5
149B
100
AcDbEntity
  8
MSL5_360_3F-3
100
AcDbLine
 10
150.782286
 20
182.761134
 30
0.0
 11
150.782286
 21
199.761134
 31
0.0
  0
LINE
  5
149C
100
AcDbEntity
  8
MSL5_360_3F-7
100
AcDbLine
 10
155.782286
 20
211.179077
 30
0.0
 11
155.782286
 21
179.761134
 31
0.0
  0
LINE
  5
149D
100
AcDbEntity
  8
MSL5_360_3F-0
100
AcDbLine
 10
147.782286
 20
182.761134
 30
0.0
 11
172.782286
 21
182.761134
 31
0.0
  0
LINE
  5
149E
100
AcDbEntity
  8
MSL5_360_3F-0
100
AcDbLine
 10
172.782286
 20
245.261134
 30
0.0
 11
176.782286
 21
245.261134
 31
0.0
  0
LINE
  5
149F
100
AcDbEntity
  8
MSL5_360_3F-0
100
AcDbLine
 10
173.782286
 20
221.261134
 30
0.0
 11
186.282286
 21
221.261134
 31
0.0
  0
LINE
  5
14A0
100
AcDbEntity
  8
MSL5_360_3F-0
100
AcDbLine
 10
172.782286
 20
218.261134
 30
0.0
 11
195.782286
 21
218.261134
 31
0.0
  0
LINE
  5
14A1
100
AcDbEntity
  8
MSL5_360_3F-7
100
AcDbLine
 10
169.28848
 20
209.761134
 30
0.0
 11
199.60973
 21
209.761134
 31
0.0
  0
LINE
  5
14A2
100
AcDbEntity
  8
MSL5_360_3F-0
100
AcDbLine
 10
195.782286
 20
193.261134
 30
0.0
 11
172.782286
 21
193.261134
 31
0.0
  0
LINE
  5
14A3
100
AcDbEntity
  8
MSL5_360_3F-7
100
AcDbLine
 10
204.121648
 20
205.761134
 30
0.0
 11
164.612224
 21
205.761134
 31
0.0
  0
LINE
  5
14A4
100
AcDbEntity
  8
MSL5_360_3F-7
100
AcDbLine
 10
164.782286
 20
201.761134
 30
0.0
 11
164.782286
 21
217.761134
 31
0.0
  0
LINE
  5
14A5
100
AcDbEntity
  8
MSL5_360_3F-3
100
AcDbLine
 10
155.782286
 20
208.179077
 30
0.0
 11
151.594286
 21
205.761134
 31
0.0
  0
LINE
  5
14A6
100
AcDbEntity
  8
MSL5_360_3F-3
100
AcDbLine
 10
159.970286
 20
205.761134
 30
0.0
 11
151.594286
 21
205.761134
 31
0.0
  0
LINE
  5
14A7
100
AcDbEntity
  8
MSL5_360_3F-3
100
AcDbLine
 10
160.782286
 20
199.761134
 30
0.0
 11
150.782286
 21
199.761134
 31
0.0
  0
LINE
  5
14A8
100
AcDbEntity
  8
MSL5_360_3F-7
100
AcDbLine
 10
156.782286
 20
209.761134
 30
0.0
 11
172.782286
 21
209.761134
 31
0.0
  0
CIRCLE
  5
14A9
100
AcDbEntity
  8
MSL5_360_3F-0
100
AcDbCircle
 10
164.782286
 20
209.761134
 30
0.0
 40
4.188
  0
ARC
  5
14AA
100
AcDbEntity
  8
MSL5_360_3F-4
100
AcDbCircle
 10
164.782286
 20
209.761134
 30
0.0
 40
5.0
100
AcDbArc
 50
280.0
 51
210.0
  0
LINE
  5
14AB
100
AcDbEntity
  8
MSL5_360_3F-3
100
AcDbLine
 10
155.782286
 20
208.179077
 30
0.0
 11
159.970286
 21
205.761134
 31
0.0
  0
LINE
  5
14AC
100
AcDbEntity
  8
MSL5_360_3F-3
100
AcDbLine
 10
165.782286
 20
233.261134
 30
0.0
 11
147.782286
 21
233.261134
 31
0.0
  0
LINE
  5
14AD
100
AcDbEntity
  8
MSL5_360_3F-3
100
AcDbLine
 10
165.782286
 20
222.261134
 30
0.0
 11
147.782286
 21
222.261134
 31
0.0
  0
LINE
  5
14AE
100
AcDbEntity
  8
MSL5_360_3F-7
100
AcDbLine
 10
174.782286
 20
227.761134
 30
0.0
 11
145.782286
 21
227.761134
 31
0.0
  0
LINE
  5
14AF
100
AcDbEntity
  8
MSL5_360_3F-3
100
AcDbLine
 10
165.782286
 20
236.761134
 30
0.0
 11
165.782286
 21
218.761134
 31
0.0
  0
LINE
  5
14B0
100
AcDbEntity
  8
MSL5_360_3F-0
100
AcDbLine
 10
173.782286
 20
218.261134
 30
0.0
 11
173.782286
 21
221.261134
 31
0.0
  0
LINE
  5
14B1
100
AcDbEntity
  8
MSL5_360_3F-0
100
AcDbLine
 10
172.782286
 20
220.261134
 30
0.0
 11
173.782286
 21
221.261134
 31
0.0
  0
LINE
  5
14B2
100
AcDbEntity
  8
MSL5_360_3F-3
100
AcDbLine
 10
165.782286
 20
218.761134
 30
0.0
 11
172.782286
 21
218.761134
 31
0.0
  0
LINE
  5
14B3
100
AcDbEntity
  8
MSL5_360_3F-3
100
AcDbLine
 10
172.782286
 20
236.761134
 30
0.0
 11
165.782286
 21
236.761134
 31
0.0
  0
ARC
  5
14B4
100
AcDbEntity
  8
MSL5_360_3F-0
100
AcDbCircle
 10
190.676036
 20
196.770753
 30
0.0
 40
5.10625
100
AcDbArc
 50
302.004628
 51
316.5818
  0
ARC
  5
14B5
100
AcDbEntity
  8
MSL5_360_3F-0
100
AcDbCircle
 10
192.888536
 20
196.770753
 30
0.0
 40
5.10625
100
AcDbArc
 50
223.418201
 51
237.995373
  0
LINE
  5
14B6
100
AcDbEntity
  8
MSL5_360_3F-0
100
AcDbLine
 10
190.182286
 20
192.440626
 30
0.0
 11
193.382286
 21
192.440626
 31
0.0
  0
LINE
  5
14B7
100
AcDbEntity
  8
MSL5_360_3F-0
100
AcDbLine
 10
190.182286
 20
227.081642
 30
0.0
 11
193.382286
 21
227.081642
 31
0.0
  0
LINE
  5
14B8
100
AcDbEntity
  8
MSL5_360_3F-0
100
AcDbLine
 10
187.782286
 20
221.761134
 30
0.0
 11
187.782286
 21
218.261134
 31
0.0
  0
LINE
  5
14B9
100
AcDbEntity
  8
MSL5_360_3F-0
100
AcDbLine
 10
187.282286
 20
218.261134
 30
0.0
 11
187.282286
 21
221.261134
 31
0.0
  0
LINE
  5
14BA
100
AcDbEntity
  8
MSL5_360_3F-0
100
AcDbLine
 10
187.282286
 20
221.261134
 30
0.0
 11
187.782286
 21
221.761134
 31
0.0
  0
LINE
  5
14BB
100
AcDbEntity
  8
MSL5_360_3F-0
100
AcDbLine
 10
193.382286
 20
218.421388
 30
0.0
 11
190.182286
 21
218.421388
 31
0.0
  0
ARC
  5
14BC
100
AcDbEntity
  8
MSL5_360_3F-0
100
AcDbCircle
 10
190.676036
 20
222.751515
 30
0.0
 40
5.10625
100
AcDbArc
 50
302.004628
 51
57.995372
  0
ARC
  5
14BD
100
AcDbEntity
  8
MSL5_360_3F-0
100
AcDbCircle
 10
192.888536
 20
222.751515
 30
0.0
 40
5.10625
100
AcDbArc
 50
122.004627
 51
237.995373
  0
LINE
  5
14BE
100
AcDbEntity
  8
MSL5_360_3F-0
100
AcDbLine
 10
186.282286
 20
221.261134
 30
0.0
 11
186.282286
 21
218.261134
 31
0.0
  0
LINE
  5
14BF
100
AcDbEntity
  8
MSL5_360_3F-3
100
AcDbLine
 10
176.782286
 20
245.261134
 30
0.0
 11
195.782286
 21
245.261134
 31
0.0
  0
LINE
  5
14C0
100
AcDbEntity
  8
MSL5_360_3F-0
100
AcDbLine
 10
177.782286
 20
244.261134
 30
0.0
 11
195.782286
 21
244.261134
 31
0.0
  0
LINE
  5
14C1
100
AcDbEntity
  8
MSL5_360_3F-0
100
AcDbLine
 10
176.782286
 20
245.261134
 30
0.0
 11
177.782286
 21
244.261134
 31
0.0
  0
LINE
  5
14C2
100
AcDbEntity
  8
MSL5_360_3F-7
100
AcDbLine
 10
297.782286
 20
203.561134
 30
0.0
 11
297.782286
 21
180.294467
 31
0.0
  0
LINE
  5
14C3
100
AcDbEntity
  8
MSL5_360_3F-3
100
AcDbLine
 10
302.782286
 20
182.761134
 30
0.0
 11
302.782286
 21
197.761134
 31
0.0
  0
LINE
  5
14C4
100
AcDbEntity
  8
MSL5_360_3F-3
100
AcDbLine
 10
292.782286
 20
182.761134
 30
0.0
 11
292.782286
 21
197.761134
 31
0.0
  0
LINE
  5
14C5
100
AcDbEntity
  8
MSL5_360_3F-3
100
AcDbLine
 10
272.782286
 20
182.761134
 30
0.0
 11
272.782286
 21
199.761134
 31
0.0
  0
LINE
  5
14C6
100
AcDbEntity
  8
MSL5_360_3F-3
100
AcDbLine
 10
271.782286
 20
182.761134
 30
0.0
 11
271.782286
 21
204.761134
 31
0.0
  0
LINE
  5
14C7
100
AcDbEntity
  8
MSL5_360_3F-7
100
AcDbLine
 10
267.782286
 20
209.894467
 30
0.0
 11
267.782286
 21
180.294467
 31
0.0
  0
LINE
  5
14C8
100
AcDbEntity
  8
MSL5_360_3F-3
100
AcDbLine
 10
262.782286
 20
199.761134
 30
0.0
 11
262.782286
 21
182.761134
 31
0.0
  0
LINE
  5
14C9
100
AcDbEntity
  8
MSL5_360_3F-3
100
AcDbLine
 10
263.782286
 20
182.761134
 30
0.0
 11
263.782286
 21
204.761134
 31
0.0
  0
LINE
  5
14CA
100
AcDbEntity
  8
MSL5_360_3F-3
100
AcDbLine
 10
267.782286
 20
182.761134
 30
0.0
 11
267.782286
 21
182.761134
 31
0.0
  0
LINE
  5
14CB
100
AcDbEntity
  8
MSL5_360_3F-3
100
AcDbLine
 10
267.782286
 20
182.761134
 30
0.0
 11
267.782286
 21
182.761134
 31
0.0
  0
LINE
  5
14CC
100
AcDbEntity
  8
MSL5_360_3F-7
100
AcDbLine
 10
267.782286
 20
180.294467
 30
0.0
 11
267.782286
 21
182.761134
 31
0.0
  0
LINE
  5
14CD
100
AcDbEntity
  8
MSL5_360_3F-3
100
AcDbLine
 10
297.782286
 20
182.761134
 30
0.0
 11
297.782286
 21
182.761134
 31
0.0
  0
LINE
  5
14CE
100
AcDbEntity
  8
MSL5_360_3F-3
100
AcDbLine
 10
297.782286
 20
182.761134
 30
0.0
 11
297.782286
 21
182.761134
 31
0.0
  0
LINE
  5
14CF
100
AcDbEntity
  8
MSL5_360_3F-7
100
AcDbLine
 10
297.782286
 20
180.294467
 30
0.0
 11
297.782286
 21
182.761134
 31
0.0
  0
LINE
  5
14D0
100
AcDbEntity
  8
MSL5_360_3F-7
100
AcDbLine
 10
267.782286
 20
227.761134
 30
0.0
 11
260.880388
 21
227.761134
 31
0.0
  0
ARC
  5
14D1
100
AcDbEntity
  8
MSL5_360_3F-4
100
AcDbCircle
 10
267.782286
 20
227.761134
 30
0.0
 40
5.0
100
AcDbArc
 50
82.606248
 51
7.300134
  0
LINE
  5
14D2
100
AcDbEntity
  8
MSL5_360_3F-3
100
AcDbLine
 10
272.782286
 20
199.761134
 30
0.0
 11
262.782286
 21
199.761134
 31
0.0
  0
INSERT
  5
14D3
100
AcDbEntity
  8
MSL5_360_3F-0
100
AcDbBlockReference
 66
     1
  2
GENINF13
 10
230.817943
 20
217.599121
 30
0.0
1001
GENIUS_GENSCSYM_13
1002
{
1000
INSPT
1011
230.817943
1021
217.599121
1031
0.0
1002
}
1002
{
1000
SCALE
1042
1.0
1002
}
1002
{
1000
USEOLDBPT
1070
     0
1002
}
1001
GENIUS_GENOBJ-N-INFOPT_13
1002
{
1000
OWNER
1000
GEN
1002
}
1001
GENIUS_GENSYMENT_13
1002
{
1000
ENT
1005
14D3
1002
}
1001
GENIUS_GENODEF_13
1002
{
1000
HIER
1070
     0
1002
}
1002
{
1000
MANEDIT
1070
     0
1002
}
1002
{
1000
NOSEL
1070
     0
1002
}
1002
{
1000
BEHIND
1070
     0
1002
}
1002
{
1000
REACTOR
1002
}
1001
GENIUS_GENOBJ-N-RSSYM_13
1002
{
1000
OWNER
1000
GEN
1002
}
1001
GENIUS_GENINF13_13
1070
     1
  0
ATTRIB
  5
14D4
100
AcDbEntity
  8
INFO
100
AcDbText
 10
230.817943
 20
217.599121
 30
0.0
 40
1.0
  1
1
100
AcDbAttribute
  2
2GENINF
 70
     1
  0
ATTRIB
  5
14D5
100
AcDbEntity
  8
INFO
100
AcDbText
 10
230.817943
 20
216.099121
 30
0.0
 40
1.0
  1
<***aktuell***>
100
AcDbAttribute
  2
3GENINF
 70
     1
  0
ATTRIB
  5
14D6
100
AcDbEntity
  8
INFO
100
AcDbText
 10
230.817943
 20
214.599121
 30
0.0
 40
1.0
  1

100
AcDbAttribute
  2
4GENINF
 70
     1
  0
ATTRIB
  5
14D7
100
AcDbEntity
  8
INFO
100
AcDbText
 10
230.817943
 20
213.099121
 30
0.0
 40
1.0
  1
MSL5-360-3F
100
AcDbAttribute
  2
5GENINF
 70
     1
  0
ATTRIB
  5
14D8
100
AcDbEntity
  8
INFO
100
AcDbText
 10
230.817943
 20
211.599121
 30
0.0
 40
1.0
  1

100
AcDbAttribute
  2
6GENINF
 70
     1
  0
ATTRIB
  5
14D9
100
AcDbEntity
  8
INFO
100
AcDbText
 10
230.817943
 20
210.099121
 30
0.0
 40
1.0
  1
Fa. Mayer
100
AcDbAttribute
  2
7GENINF
 70
     1
  0
ATTRIB
  5
14DA
100
AcDbEntity
  8
INFO
100
AcDbText
 10
230.817943
 20
208.599121
 30
0.0
 40
1.0
  1

100
AcDbAttribute
  2
8GENINF
 70
     1
  0
ATTRIB
  5
14DB
100
AcDbEntity
  8
INFO
100
AcDbText
 10
230.817943
 20
207.099121
 30
0.0
 40
1.0
  1

100
AcDbAttribute
  2
9GENINF
 70
     1
  0
ATTRIB
  5
14DC
100
AcDbEntity
  8
INFO
100
AcDbText
 10
230.817943
 20
205.599121
 30
0.0
 40
1.0
  1

100
AcDbAttribute
  2
10GENINF
 70
     1
  0
ATTRIB
  5
14DD
100
AcDbEntity
  8
INFO
100
AcDbText
 10
230.817943
 20
204.099121
 30
0.0
 40
1.0
  1

100
AcDbAttribute
  2
11GENINF
 70
     1
  0
ATTRIB
  5
14DE
100
AcDbEntity
  8
INFO
100
AcDbText
 10
230.817943
 20
202.599121
 30
0.0
 40
1.0
  1

100
AcDbAttribute
  2
12GENINF
 70
     1
  0
ATTRIB
  5
14DF
100
AcDbEntity
  8
INFO
100
AcDbText
 10
230.817943
 20
201.099121
 30
0.0
 40
1.0
  1

100
AcDbAttribute
  2
13GENINF
 70
     1
  0
ATTRIB
  5
14E0
100
AcDbEntity
  8
INFO
100
AcDbText
 10
230.817943
 20
199.599121
 30
0.0
 40
1.0
  1

100
AcDbAttribute
  2
14GENINF
 70
     1
  0
ATTRIB
  5
14E1
100
AcDbEntity
  8
INFO
100
AcDbText
 10
230.817943
 20
198.099121
 30
0.0
 40
1.0
  1

100
AcDbAttribute
  2
15GENINF
 70
     1
  0
ATTRIB
  5
14E2
100
AcDbEntity
  8
INFO
100
AcDbText
 10
230.817943
 20
196.599121
 30
0.0
 40
1.0
  1

100
AcDbAttribute
  2
16GENINF
 70
     1
  0
ATTRIB
  5
14E3
100
AcDbEntity
  8
INFO
100
AcDbText
 10
230.817943
 20
195.099121
 30
0.0
 40
1.0
  1

100
AcDbAttribute
  2
17GENINF
 70
     1
  0
ATTRIB
  5
14E4
100
AcDbEntity
  8
INFO
100
AcDbText
 10
230.817943
 20
193.599121
 30
0.0
 40
1.0
  1

100
AcDbAttribute
  2
18GENINF
 70
     1
  0
ATTRIB
  5
14E5
100
AcDbEntity
  8
INFO
100
AcDbText
 10
230.817943
 20
192.099121
 30
0.0
 40
1.0
  1

100
AcDbAttribute
  2
19GENINF
 70
     1
  0
ATTRIB
  5
14E6
100
AcDbEntity
  8
INFO
100
AcDbText
 10
230.817943
 20
190.599121
 30
0.0
 40
1.0
  1

100
AcDbAttribute
  2
20GENINF
 70
     1
  0
ATTRIB
  5
14E7
100
AcDbEntity
  8
INFO
100
AcDbText
 10
230.817943
 20
189.099121
 30
0.0
 40
1.0
  1

100
AcDbAttribute
  2
21GENINF
 70
     1
  0
ATTRIB
  5
14E8
100
AcDbEntity
  8
INFO
100
AcDbText
 10
230.817943
 20
187.599121
 30
0.0
 40
1.0
  1

100
AcDbAttribute
  2
22GENINF
 70
     1
  0
ATTRIB
  5
14E9
100
AcDbEntity
  8
INFO
100
AcDbText
 10
230.817943
 20
186.099121
 30
0.0
 40
1.0
  1

100
AcDbAttribute
  2
23GENINF
 70
     1
  0
ATTRIB
  5
14EA
100
AcDbEntity
  8
INFO
100
AcDbText
 10
230.817943
 20
184.599121
 30
0.0
 40
1.0
  1

100
AcDbAttribute
  2
24GENINF
 70
     1
  0
ATTRIB
  5
14EB
100
AcDbEntity
  8
INFO
100
AcDbText
 10
230.817943
 20
183.099121
 30
0.0
 40
1.0
  1

100
AcDbAttribute
  2
0GENINF
 70
     1
  0
SEQEND
  5
14EC
100
AcDbEntity
  8
MSL5_360_3F-0
  0
LINE
  5
14ED
100
AcDbEntity
  8
MSL5_360_3F-3
100
AcDbLine
 10
271.782286
 20
204.761134
 30
0.0
 11
267.782286
 21
204.761134
 31
0.0
  0
LINE
  5
14EE
100
AcDbEntity
  8
MSL5_360_3F-3
100
AcDbLine
 10
267.782286
 20
207.4278
 30
0.0
 11
271.782286
 21
204.761134
 31
0.0
  0
LINE
  5
14EF
100
AcDbEntity
  8
MSL5_360_3F-3
100
AcDbLine
 10
267.782286
 20
207.4278
 30
0.0
 11
263.782286
 21
204.761134
 31
0.0
  0
LINE
  5
14F0
100
AcDbEntity
  8
MSL5_360_3F-3
100
AcDbLine
 10
263.782286
 20
204.761134
 30
0.0
 11
267.782286
 21
204.761134
 31
0.0
  0
LINE
  5
14F1
100
AcDbEntity
  8
MSL5_360_3F-3
100
AcDbLine
 10
292.782286
 20
197.761134
 30
0.0
 11
297.782286
 21
197.761134
 31
0.0
  0
LINE
  5
14F2
100
AcDbEntity
  8
MSL5_360_3F-3
100
AcDbLine
 10
297.782286
 20
201.094467
 30
0.0
 11
292.782286
 21
197.761134
 31
0.0
  0
LINE
  5
14F3
100
AcDbEntity
  8
MSL5_360_3F-3
100
AcDbLine
 10
302.782286
 20
197.761134
 30
0.0
 11
297.782286
 21
197.761134
 31
0.0
  0
LINE
  5
14F4
100
AcDbEntity
  8
MSL5_360_3F-3
100
AcDbLine
 10
297.782286
 20
201.094467
 30
0.0
 11
302.782286
 21
197.761134
 31
0.0
  0
LINE
  5
14F5
100
AcDbEntity
  8
MSL5_360_3F-7
100
AcDbLine
 10
267.782286
 20
227.761134
 30
0.0
 11
267.782286
 21
234.663032
 31
0.0
  0
LINE
  5
14F6
100
AcDbEntity
  8
MSL5_360_3F-7
100
AcDbLine
 10
267.782286
 20
227.761134
 30
0.0
 11
274.684184
 21
227.761134
 31
0.0
  0
LINE
  5
14F7
100
AcDbEntity
  8
MSL5_360_3F-7
100
AcDbLine
 10
267.782286
 20
227.761134
 30
0.0
 11
267.782286
 21
220.859237
 31
0.0
  0
CIRCLE
  5
14F8
100
AcDbEntity
  8
MSL5_360_3F-0
100
AcDbCircle
 10
267.782286
 20
227.761134
 30
0.0
 40
4.25
  0
LINE
  5
14F9
100
AcDbEntity
  8
MSL5_360_3F-7
100
AcDbLine
 10
297.782286
 20
227.761134
 30
0.0
 11
297.782286
 21
234.850015
 31
0.0
  0
CIRCLE
  5
14FA
100
AcDbEntity
  8
MSL5_360_3F-0
100
AcDbCircle
 10
297.782286
 20
227.761134
 30
0.0
 40
5.0
  0
LINE
  5
14FB
100
AcDbEntity
  8
MSL5_360_3F-7
100
AcDbLine
 10
297.782286
 20
227.761134
 30
0.0
 11
290.693405
 21
227.761134
 31
0.0
  0
LINE
  5
14FC
100
AcDbEntity
  8
MSL5_360_3F-7
100
AcDbLine
 10
297.782286
 20
227.761134
 30
0.0
 11
304.871167
 21
227.761134
 31
0.0
  0
LINE
  5
14FD
100
AcDbEntity
  8
MSL5_360_3F-7
100
AcDbLine
 10
297.782286
 20
227.761134
 30
0.0
 11
297.782286
 21
220.672254
 31
0.0
  0
LINE
  5
14FE
100
AcDbEntity
  8
MSL5_360_3F-3
100
AcDbLine
 10
155.782286
 20
307.343192
 30
0.0
 11
159.970286
 21
309.761134
 31
0.0
  0
LINE
  5
14FF
100
AcDbEntity
  8
MSL5_360_3F-3
100
AcDbLine
 10
155.782286
 20
307.343192
 30
0.0
 11
151.594286
 21
309.761134
 31
0.0
  0
LINE
  5
1500
100
AcDbEntity
  8
MSL5_360_3F-7
100
AcDbLine
 10
155.782286
 20
304.343192
 30
0.0
 11
155.782286
 21
335.761134
 31
0.0
  0
CIRCLE
  5
1501
100
AcDbEntity
  8
MSL5_360_3F-0
100
AcDbCircle
 10
164.782286
 20
305.761134
 30
0.0
 40
4.188
  0
ARC
  5
1502
100
AcDbEntity
  8
MSL5_360_3F-4
100
AcDbCircle
 10
164.782286
 20
305.761134
 30
0.0
 40
5.0
100
AcDbArc
 50
280.0
 51
210.0
  0
LINE
  5
1503
100
AcDbEntity
  8
MSL5_360_3F-7
100
AcDbLine
 10
164.782286
 20
297.761134
 30
0.0
 11
164.782286
 21
313.761134
 31
0.0
  0
LINE
  5
1504
100
AcDbEntity
  8
MSL5_360_3F-0
100
AcDbLine
 10
172.782286
 20
270.261134
 30
0.0
 11
176.782286
 21
270.261134
 31
0.0
  0
LINE
  5
1505
100
AcDbEntity
  8
MSL5_360_3F-0
100
AcDbLine
 10
172.782286
 20
263.761134
 30
0.0
 11
176.782286
 21
263.761134
 31
0.0
  0
LINE
  5
1506
100
AcDbEntity
  8
MSL5_360_3F-0
100
AcDbLine
 10
176.782286
 20
251.761134
 30
0.0
 11
172.782286
 21
251.761134
 31
0.0
  0
LINE
  5
1507
100
AcDbEntity
  8
MSL5_360_3F-0
100
AcDbLine
 10
172.782286
 20
297.261134
 30
0.0
 11
195.782286
 21
297.261134
 31
0.0
  0
LINE
  5
1508
100
AcDbEntity
  8
MSL5_360_3F-7
100
AcDbLine
 10
144.782286
 20
257.761134
 30
0.0
 11
204.121648
 21
257.761134
 31
0.0
  0
LINE
  5
1509
100
AcDbEntity
  8
MSL5_360_3F-3
100
AcDbLine
 10
172.782286
 20
282.761134
 30
0.0
 11
147.782286
 21
282.761134
 31
0.0
  0
LINE
  5
150A
100
AcDbEntity
  8
MSL5_360_3F-3
100
AcDbLine
 10
172.782286
 20
292.761134
 30
0.0
 11
147.782286
 21
292.761134
 31
0.0
  0
LINE
  5
150B
100
AcDbEntity
  8
MSL5_360_3F-7
100
AcDbLine
 10
174.782286
 20
287.761134
 30
0.0
 11
145.782286
 21
287.761134
 31
0.0
  0
LINE
  5
150C
100
AcDbEntity
  8
MSL5_360_3F-7
100
AcDbLine
 10
156.782286
 20
305.761134
 30
0.0
 11
172.782286
 21
305.761134
 31
0.0
  0
LINE
  5
150D
100
AcDbEntity
  8
MSL5_360_3F-3
100
AcDbLine
 10
176.782286
 20
270.261134
 30
0.0
 11
195.782286
 21
270.261134
 31
0.0
  0
LINE
  5
150E
100
AcDbEntity
  8
MSL5_360_3F-0
100
AcDbLine
 10
195.782286
 20
271.261134
 30
0.0
 11
177.782286
 21
271.261134
 31
0.0
  0
LINE
  5
150F
100
AcDbEntity
  8
MSL5_360_3F-0
100
AcDbLine
 10
177.782286
 20
271.261134
 30
0.0
 11
176.782286
 21
270.261134
 31
0.0
  0
LINE
  5
1510
100
AcDbEntity
  8
MSL5_360_3F-0
100
AcDbLine
 10
195.782286
 20
322.261134
 30
0.0
 11
172.782286
 21
322.261134
 31
0.0
  0
LINE
  5
1511
100
AcDbEntity
  8
MSL5_360_3F-7
100
AcDbLine
 10
204.121648
 20
309.761134
 30
0.0
 11
164.612224
 21
309.761134
 31
0.0
  0
LINE
  5
1512
100
AcDbEntity
  8
MSL5_360_3F-3
100
AcDbLine
 10
150.782286
 20
315.761134
 30
0.0
 11
160.782286
 21
315.761134
 31
0.0
  0
LINE
  5
1513
100
AcDbEntity
  8
MSL5_360_3F-3
100
AcDbLine
 10
159.970286
 20
309.761134
 30
0.0
 11
151.594286
 21
309.761134
 31
0.0
  0
LINE
  5
1514
100
AcDbEntity
  8
MSL5_360_3F-0
100
AcDbLine
 10
172.782286
 20
332.761134
 30
0.0
 11
147.782286
 21
332.761134
 31
0.0
  0
LINE
  5
1515
100
AcDbEntity
  8
MSL5_360_3F-3
100
AcDbLine
 10
150.782286
 20
332.761134
 30
0.0
 11
150.782286
 21
315.761134
 31
0.0
  0
LINE
  5
1516
100
AcDbEntity
  8
MSL5_360_3F-3
100
AcDbLine
 10
151.594286
 20
332.761134
 30
0.0
 11
151.594286
 21
309.761134
 31
0.0
  0
LINE
  5
1517
100
AcDbEntity
  8
MSL5_360_3F-3
100
AcDbLine
 10
160.782286
 20
332.761134
 30
0.0
 11
160.782286
 21
315.761134
 31
0.0
  0
LINE
  5
1518
100
AcDbEntity
  8
MSL5_360_3F-3
100
AcDbLine
 10
159.970286
 20
332.761134
 30
0.0
 11
159.970286
 21
309.761134
 31
0.0
  0
LINE
  5
1519
100
AcDbEntity
  8
MSL5_360_3F-7
100
AcDbLine
 10
267.782286
 20
305.627801
 30
0.0
 11
267.782286
 21
335.227801
 31
0.0
  0
LINE
  5
151A
100
AcDbEntity
  8
MSL5_360_3F-7
100
AcDbLine
 10
267.782286
 20
287.761134
 30
0.0
 11
260.96504
 21
287.761134
 31
0.0
  0
ARC
  5
151B
100
AcDbEntity
  8
MSL5_360_3F-4
100
AcDbCircle
 10
267.782286
 20
287.761134
 30
0.0
 40
5.0
100
AcDbArc
 50
82.606248
 51
7.300134
  0
LINE
  5
151C
100
AcDbEntity
  8
MSL5_360_3F-7
100
AcDbLine
 10
267.782286
 20
287.761134
 30
0.0
 11
267.782286
 21
294.578381
 31
0.0
  0
LINE
  5
151D
100
AcDbEntity
  8
MSL5_360_3F-7
100
AcDbLine
 10
267.782286
 20
287.761134
 30
0.0
 11
274.599532
 21
287.761134
 31
0.0
  0
LINE
  5
151E
100
AcDbEntity
  8
MSL5_360_3F-7
100
AcDbLine
 10
267.782286
 20
287.761134
 30
0.0
 11
267.782286
 21
280.943888
 31
0.0
  0
CIRCLE
  5
151F
100
AcDbEntity
  8
MSL5_360_3F-0
100
AcDbCircle
 10
267.782286
 20
287.761134
 30
0.0
 40
4.25
  0
LINE
  5
1520
100
AcDbEntity
  8
MSL5_360_3F-7
100
AcDbLine
 10
297.782286
 20
287.761134
 30
0.0
 11
297.782286
 21
294.900883
 31
0.0
  0
CIRCLE
  5
1521
100
AcDbEntity
  8
MSL5_360_3F-0
100
AcDbCircle
 10
297.782286
 20
287.761134
 30
0.0
 40
5.0
  0
LINE
  5
1522
100
AcDbEntity
  8
MSL5_360_3F-7
100
AcDbLine
 10
297.782286
 20
287.761134
 30
0.0
 11
290.642537
 21
287.761134
 31
0.0
  0
LINE
  5
1523
100
AcDbEntity
  8
MSL5_360_3F-7
100
AcDbLine
 10
297.782286
 20
287.761134
 30
0.0
 11
304.922035
 21
287.761134
 31
0.0
  0
LINE
  5
1524
100
AcDbEntity
  8
MSL5_360_3F-7
100
AcDbLine
 10
297.782286
 20
287.761134
 30
0.0
 11
297.782286
 21
280.621386
 31
0.0
  0
LINE
  5
1525
100
AcDbEntity
  8
MSL5_360_3F-3
100
AcDbLine
 10
272.782286
 20
315.761134
 30
0.0
 11
262.782286
 21
315.761134
 31
0.0
  0
LINE
  5
1526
100
AcDbEntity
  8
MSL5_360_3F-7
100
AcDbLine
 10
236.282284
 20
340.049876
 30
0.0
 11
236.282292
 21
328.857149
 31
0.0
  0
ARC
  5
1527
100
AcDbEntity
  8
MSL5_360_3F-0
100
AcDbCircle
 10
240.280947
 20
335.761133
 30
0.0
 40
1.5
100
AcDbArc
 50
0.000038
 51
90.000041
  0
LINE
  5
1528
100
AcDbEntity
  8
MSL5_360_3F-0
100
AcDbLine
 10
232.280946
 20
337.261128
 30
0.0
 11
240.280946
 21
337.261133
 31
0.0
  0
ARC
  5
1529
100
AcDbEntity
  8
MSL5_360_3F-0
100
AcDbCircle
 10
232.280947
 20
335.761128
 30
0.0
 40
1.5
100
AcDbArc
 50
90.000041
 51
180.00004
  0
LINE
  5
152A
100
AcDbEntity
  8
MSL5_360_3F-0
100
AcDbLine
 10
230.780949
 20
332.761134
 30
0.0
 11
230.780947
 21
335.761127
 31
0.0
  0
LINE
  5
152B
100
AcDbEntity
  8
MSL5_360_3F-3
100
AcDbLine
 10
262.782286
 20
315.761134
 30
0.0
 11
262.782286
 21
332.761134
 31
0.0
  0
LINE
  5
152C
100
AcDbEntity
  8
MSL5_360_3F-0
100
AcDbLine
 10
241.780947
 20
335.761134
 30
0.0
 11
241.780949
 21
332.761134
 31
0.0
  0
LINE
  5
152D
100
AcDbEntity
  8
MSL5_360_3F-3
100
AcDbLine
 10
272.782286
 20
332.761134
 30
0.0
 11
272.782286
 21
315.761134
 31
0.0
  0
LINE
  5
152E
100
AcDbEntity
  8
MSL5_360_3F-3
100
AcDbLine
 10
271.782286
 20
332.761134
 30
0.0
 11
271.782286
 21
310.761134
 31
0.0
  0
LINE
  5
152F
100
AcDbEntity
  8
MSL5_360_3F-3
100
AcDbLine
 10
263.782286
 20
332.761134
 30
0.0
 11
263.782286
 21
310.761134
 31
0.0
  0
LINE
  5
1530
100
AcDbEntity
  8
MSL5_360_3F-3
100
AcDbLine
 10
267.782286
 20
308.094468
 30
0.0
 11
271.782286
 21
310.761134
 31
0.0
  0
LINE
  5
1531
100
AcDbEntity
  8
MSL5_360_3F-3
100
AcDbLine
 10
271.782286
 20
310.761134
 30
0.0
 11
267.782286
 21
310.761134
 31
0.0
  0
LINE
  5
1532
100
AcDbEntity
  8
MSL5_360_3F-3
100
AcDbLine
 10
267.782286
 20
308.094468
 30
0.0
 11
263.782286
 21
310.761134
 31
0.0
  0
LINE
  5
1533
100
AcDbEntity
  8
MSL5_360_3F-3
100
AcDbLine
 10
263.782286
 20
310.761134
 30
0.0
 11
267.782286
 21
310.761134
 31
0.0
  0
LINE
  5
1534
100
AcDbEntity
  8
MSL5_360_3F-3
100
AcDbLine
 10
267.782286
 20
332.761134
 30
0.0
 11
267.782286
 21
332.761134
 31
0.0
  0
LINE
  5
1535
100
AcDbEntity
  8
MSL5_360_3F-3
100
AcDbLine
 10
267.782286
 20
332.761134
 30
0.0
 11
267.782286
 21
332.761134
 31
0.0
  0
LINE
  5
1536
100
AcDbEntity
  8
MSL5_360_3F-7
100
AcDbLine
 10
267.782286
 20
335.227801
 30
0.0
 11
267.782286
 21
332.761134
 31
0.0
  0
LINE
  5
1537
100
AcDbEntity
  8
MSL5_360_3F-3
100
AcDbLine
 10
302.782286
 20
332.761134
 30
0.0
 11
302.782286
 21
317.761134
 31
0.0
  0
LINE
  5
1538
100
AcDbEntity
  8
MSL5_360_3F-3
100
AcDbLine
 10
292.782286
 20
332.761134
 30
0.0
 11
292.782286
 21
317.761134
 31
0.0
  0
LINE
  5
1539
100
AcDbEntity
  8
MSL5_360_3F-7
100
AcDbLine
 10
297.782286
 20
311.961134
 30
0.0
 11
297.782286
 21
335.227801
 31
0.0
  0
LINE
  5
153A
100
AcDbEntity
  8
MSL5_360_3F-3
100
AcDbLine
 10
292.782286
 20
317.761134
 30
0.0
 11
297.782286
 21
317.761134
 31
0.0
  0
LINE
  5
153B
100
AcDbEntity
  8
MSL5_360_3F-3
100
AcDbLine
 10
297.782286
 20
314.427801
 30
0.0
 11
292.782286
 21
317.761134
 31
0.0
  0
LINE
  5
153C
100
AcDbEntity
  8
MSL5_360_3F-3
100
AcDbLine
 10
302.782286
 20
317.761134
 30
0.0
 11
297.782286
 21
317.761134
 31
0.0
  0
LINE
  5
153D
100
AcDbEntity
  8
MSL5_360_3F-3
100
AcDbLine
 10
297.782286
 20
314.427801
 30
0.0
 11
302.782286
 21
317.761134
 31
0.0
  0
LINE
  5
153E
100
AcDbEntity
  8
MSL5_360_3F-3
100
AcDbLine
 10
297.782286
 20
332.761134
 30
0.0
 11
297.782286
 21
332.761134
 31
0.0
  0
LINE
  5
153F
100
AcDbEntity
  8
MSL5_360_3F-3
100
AcDbLine
 10
297.782286
 20
332.761134
 30
0.0
 11
297.782286
 21
332.761134
 31
0.0
  0
LINE
  5
1540
100
AcDbEntity
  8
MSL5_360_3F-7
100
AcDbLine
 10
297.782286
 20
335.227801
 30
0.0
 11
297.782286
 21
332.761134
 31
0.0
  0
LINE
  5
1541
100
AcDbEntity
  8
MSL5_360_3F-7
100
AcDbLine
 10
477.782286
 20
279.037546
 30
0.0
 11
477.782286
 21
234.850015
 31
0.0
  0
LINE
  5
1542
100
AcDbEntity
  8
MSL5_360_3F-7
100
AcDbLine
 10
417.782286
 20
279.037546
 30
0.0
 11
417.782286
 21
234.850015
 31
0.0
  0
LINE
  5
1543
100
AcDbEntity
  8
MSL5_360_3F-7
100
AcDbLine
 10
357.782286
 20
279.037546
 30
0.0
 11
357.782286
 21
234.850015
 31
0.0
  0
LINE
  5
1544
100
AcDbEntity
  8
MSL5_360_3F-3
100
AcDbLine
 10
391.782286
 20
182.761134
 30
0.0
 11
391.782286
 21
204.761134
 31
0.0
  0
LINE
  5
1545
100
AcDbEntity
  8
MSL5_360_3F-3
100
AcDbLine
 10
392.782286
 20
182.761134
 30
0.0
 11
392.782286
 21
199.761134
 31
0.0
  0
LINE
  5
1546
100
AcDbEntity
  8
MSL5_360_3F-3
100
AcDbLine
 10
382.782286
 20
199.761134
 30
0.0
 11
382.782286
 21
182.761134
 31
0.0
  0
LINE
  5
1547
100
AcDbEntity
  8
MSL5_360_3F-3
100
AcDbLine
 10
383.782286
 20
182.761134
 30
0.0
 11
383.782286
 21
204.761134
 31
0.0
  0
LINE
  5
1548
100
AcDbEntity
  8
MSL5_360_3F-3
100
AcDbLine
 10
362.782286
 20
182.761134
 30
0.0
 11
362.782286
 21
197.761134
 31
0.0
  0
LINE
  5
1549
100
AcDbEntity
  8
MSL5_360_3F-7
100
AcDbLine
 10
357.782286
 20
203.561134
 30
0.0
 11
357.782286
 21
180.294467
 31
0.0
  0
LINE
  5
154A
100
AcDbEntity
  8
MSL5_360_3F-3
100
AcDbLine
 10
352.782286
 20
182.761134
 30
0.0
 11
352.782286
 21
197.761134
 31
0.0
  0
LINE
  5
154B
100
AcDbEntity
  8
MSL5_360_3F-7
100
AcDbLine
 10
387.782286
 20
209.894467
 30
0.0
 11
387.782286
 21
180.294467
 31
0.0
  0
LINE
  5
154C
100
AcDbEntity
  8
MSL5_360_3F-3
100
AcDbLine
 10
323.782286
 20
182.761134
 30
0.0
 11
323.782286
 21
204.761134
 31
0.0
  0
LINE
  5
154D
100
AcDbEntity
  8
MSL5_360_3F-3
100
AcDbLine
 10
332.782286
 20
182.761134
 30
0.0
 11
332.782286
 21
199.761134
 31
0.0
  0
LINE
  5
154E
100
AcDbEntity
  8
MSL5_360_3F-3
100
AcDbLine
 10
331.782286
 20
182.761134
 30
0.0
 11
331.782286
 21
204.761134
 31
0.0
  0
LINE
  5
154F
100
AcDbEntity
  8
MSL5_360_3F-3
100
AcDbLine
 10
322.782286
 20
199.761134
 30
0.0
 11
322.782286
 21
182.761134
 31
0.0
  0
LINE
  5
1550
100
AcDbEntity
  8
MSL5_360_3F-7
100
AcDbLine
 10
327.782286
 20
209.894467
 30
0.0
 11
327.782286
 21
180.294467
 31
0.0
  0
LINE
  5
1551
100
AcDbEntity
  8
MSL5_360_3F-3
100
AcDbLine
 10
327.782286
 20
182.761134
 30
0.0
 11
327.782286
 21
182.761134
 31
0.0
  0
LINE
  5
1552
100
AcDbEntity
  8
MSL5_360_3F-3
100
AcDbLine
 10
327.782286
 20
182.761134
 30
0.0
 11
327.782286
 21
182.761134
 31
0.0
  0
LINE
  5
1553
100
AcDbEntity
  8
MSL5_360_3F-7
100
AcDbLine
 10
327.782286
 20
180.294467
 30
0.0
 11
327.782286
 21
182.761134
 31
0.0
  0
LINE
  5
1554
100
AcDbEntity
  8
MSL5_360_3F-7
100
AcDbLine
 10
357.782286
 20
180.294467
 30
0.0
 11
357.782286
 21
182.761134
 31
0.0
  0
LINE
  5
1555
100
AcDbEntity
  8
MSL5_360_3F-3
100
AcDbLine
 10
357.782286
 20
182.761134
 30
0.0
 11
357.782286
 21
182.761134
 31
0.0
  0
LINE
  5
1556
100
AcDbEntity
  8
MSL5_360_3F-3
100
AcDbLine
 10
357.782286
 20
182.761134
 30
0.0
 11
357.782286
 21
182.761134
 31
0.0
  0
LINE
  5
1557
100
AcDbEntity
  8
MSL5_360_3F-7
100
AcDbLine
 10
387.782286
 20
180.294467
 30
0.0
 11
387.782286
 21
182.761134
 31
0.0
  0
LINE
  5
1558
100
AcDbEntity
  8
MSL5_360_3F-3
100
AcDbLine
 10
387.782286
 20
182.761134
 30
0.0
 11
387.782286
 21
182.761134
 31
0.0
  0
LINE
  5
1559
100
AcDbEntity
  8
MSL5_360_3F-3
100
AcDbLine
 10
387.782286
 20
182.761134
 30
0.0
 11
387.782286
 21
182.761134
 31
0.0
  0
LINE
  5
155A
100
AcDbEntity
  8
MSL5_360_3F-7
100
AcDbLine
 10
357.782286
 20
227.761134
 30
0.0
 11
350.693405
 21
227.761134
 31
0.0
  0
LINE
  5
155B
100
AcDbEntity
  8
MSL5_360_3F-3
100
AcDbLine
 10
327.782286
 20
207.4278
 30
0.0
 11
331.782286
 21
204.761134
 31
0.0
  0
LINE
  5
155C
100
AcDbEntity
  8
MSL5_360_3F-3
100
AcDbLine
 10
331.782286
 20
204.761134
 30
0.0
 11
327.782286
 21
204.761134
 31
0.0
  0
LINE
  5
155D
100
AcDbEntity
  8
MSL5_360_3F-3
100
AcDbLine
 10
332.782286
 20
199.761134
 30
0.0
 11
322.782286
 21
199.761134
 31
0.0
  0
LINE
  5
155E
100
AcDbEntity
  8
MSL5_360_3F-3
100
AcDbLine
 10
327.782286
 20
207.4278
 30
0.0
 11
323.782286
 21
204.761134
 31
0.0
  0
LINE
  5
155F
100
AcDbEntity
  8
MSL5_360_3F-3
100
AcDbLine
 10
323.782286
 20
204.761134
 30
0.0
 11
327.782286
 21
204.761134
 31
0.0
  0
LINE
  5
1560
100
AcDbEntity
  8
MSL5_360_3F-7
100
AcDbLine
 10
327.782286
 20
227.761134
 30
0.0
 11
334.513076
 21
227.761134
 31
0.0
  0
ARC
  5
1561
100
AcDbEntity
  8
MSL5_360_3F-4
100
AcDbCircle
 10
327.782286
 20
227.761134
 30
0.0
 40
5.0
100
AcDbArc
 50
82.606248
 51
7.300134
  0
CIRCLE
  5
1562
100
AcDbEntity
  8
MSL5_360_3F-0
100
AcDbCircle
 10
327.782286
 20
227.761134
 30
0.0
 40
4.25
  0
LINE
  5
1563
100
AcDbEntity
  8
MSL5_360_3F-7
100
AcDbLine
 10
327.782286
 20
227.761134
 30
0.0
 11
327.782286
 21
234.491924
 31
0.0
  0
LINE
  5
1564
100
AcDbEntity
  8
MSL5_360_3F-7
100
AcDbLine
 10
327.782286
 20
227.761134
 30
0.0
 11
327.782286
 21
221.030344
 31
0.0
  0
LINE
  5
1565
100
AcDbEntity
  8
MSL5_360_3F-7
100
AcDbLine
 10
327.782286
 20
227.761134
 30
0.0
 11
321.051496
 21
227.761134
 31
0.0
  0
LINE
  5
1566
100
AcDbEntity
  8
MSL5_360_3F-3
100
AcDbLine
 10
362.782286
 20
197.761134
 30
0.0
 11
357.782286
 21
197.761134
 31
0.0
  0
LINE
  5
1567
100
AcDbEntity
  8
MSL5_360_3F-3
100
AcDbLine
 10
352.782286
 20
197.761134
 30
0.0
 11
357.782286
 21
197.761134
 31
0.0
  0
LINE
  5
1568
100
AcDbEntity
  8
MSL5_360_3F-3
100
AcDbLine
 10
357.782286
 20
201.094467
 30
0.0
 11
362.782286
 21
197.761134
 31
0.0
  0
LINE
  5
1569
100
AcDbEntity
  8
MSL5_360_3F-3
100
AcDbLine
 10
357.782286
 20
201.094467
 30
0.0
 11
352.782286
 21
197.761134
 31
0.0
  0
LINE
  5
156A
100
AcDbEntity
  8
MSL5_360_3F-3
100
AcDbLine
 10
392.782286
 20
199.761134
 30
0.0
 11
382.782286
 21
199.761134
 31
0.0
  0
LINE
  5
156B
100
AcDbEntity
  8
MSL5_360_3F-3
100
AcDbLine
 10
383.782286
 20
204.761134
 30
0.0
 11
387.782286
 21
204.761134
 31
0.0
  0
LINE
  5
156C
100
AcDbEntity
  8
MSL5_360_3F-3
100
AcDbLine
 10
387.782286
 20
207.4278
 30
0.0
 11
383.782286
 21
204.761134
 31
0.0
  0
LINE
  5
156D
100
AcDbEntity
  8
MSL5_360_3F-3
100
AcDbLine
 10
391.782286
 20
204.761134
 30
0.0
 11
387.782286
 21
204.761134
 31
0.0
  0
LINE
  5
156E
100
AcDbEntity
  8
MSL5_360_3F-3
100
AcDbLine
 10
387.782286
 20
207.4278
 30
0.0
 11
391.782286
 21
204.761134
 31
0.0
  0
LINE
  5
156F
100
AcDbEntity
  8
MSL5_360_3F-7
100
AcDbLine
 10
357.782286
 20
227.761134
 30
0.0
 11
357.782286
 21
234.850015
 31
0.0
  0
CIRCLE
  5
1570
100
AcDbEntity
  8
MSL5_360_3F-0
100
AcDbCircle
 10
357.782286
 20
227.761134
 30
0.0
 40
5.0
  0
LINE
  5
1571
100
AcDbEntity
  8
MSL5_360_3F-7
100
AcDbLine
 10
357.782286
 20
227.761134
 30
0.0
 11
364.871167
 21
227.761134
 31
0.0
  0
LINE
  5
1572
100
AcDbEntity
  8
MSL5_360_3F-7
100
AcDbLine
 10
357.782286
 20
227.761134
 30
0.0
 11
357.782286
 21
220.672254
 31
0.0
  0
LINE
  5
1573
100
AcDbEntity
  8
MSL5_360_3F-7
100
AcDbLine
 10
387.782286
 20
227.761134
 30
0.0
 11
387.782286
 21
234.491924
 31
0.0
  0
ARC
  5
1574
100
AcDbEntity
  8
MSL5_360_3F-4
100
AcDbCircle
 10
387.782286
 20
227.761134
 30
0.0
 40
5.0
100
AcDbArc
 50
82.606248
 51
7.300134
  0
LINE
  5
1575
100
AcDbEntity
  8
MSL5_360_3F-7
100
AcDbLine
 10
387.782286
 20
227.761134
 30
0.0
 11
381.051496
 21
227.761134
 31
0.0
  0
CIRCLE
  5
1576
100
AcDbEntity
  8
MSL5_360_3F-0
100
AcDbCircle
 10
387.782286
 20
227.761134
 30
0.0
 40
4.25
  0
LINE
  5
1577
100
AcDbEntity
  8
MSL5_360_3F-7
100
AcDbLine
 10
387.782286
 20
227.761134
 30
0.0
 11
387.782286
 21
221.030344
 31
0.0
  0
LINE
  5
1578
100
AcDbEntity
  8
MSL5_360_3F-7
100
AcDbLine
 10
387.782286
 20
227.761134
 30
0.0
 11
394.513076
 21
227.761134
 31
0.0
  0
LINE
  5
1579
100
AcDbEntity
  8
MSL5_360_3F-3
100
AcDbLine
 10
482.782286
 20
182.761134
 30
0.0
 11
482.782286
 21
197.761134
 31
0.0
  0
LINE
  5
157A
100
AcDbEntity
  8
MSL5_360_3F-7
100
AcDbLine
 10
477.782286
 20
203.561134
 30
0.0
 11
477.782286
 21
180.294467
 31
0.0
  0
LINE
  5
157B
100
AcDbEntity
  8
MSL5_360_3F-3
100
AcDbLine
 10
472.782286
 20
182.761134
 30
0.0
 11
472.782286
 21
197.761134
 31
0.0
  0
LINE
  5
157C
100
AcDbEntity
  8
MSL5_360_3F-3
100
AcDbLine
 10
452.782286
 20
182.761134
 30
0.0
 11
452.782286
 21
199.761134
 31
0.0
  0
LINE
  5
157D
100
AcDbEntity
  8
MSL5_360_3F-3
100
AcDbLine
 10
451.782286
 20
182.761134
 30
0.0
 11
451.782286
 21
204.761134
 31
0.0
  0
LINE
  5
157E
100
AcDbEntity
  8
MSL5_360_3F-3
100
AcDbLine
 10
443.782286
 20
182.761134
 30
0.0
 11
443.782286
 21
204.761134
 31
0.0
  0
LINE
  5
157F
100
AcDbEntity
  8
MSL5_360_3F-3
100
AcDbLine
 10
442.782286
 20
199.761134
 30
0.0
 11
442.782286
 21
182.761134
 31
0.0
  0
LINE
  5
1580
100
AcDbEntity
  8
MSL5_360_3F-7
100
AcDbLine
 10
447.782286
 20
209.894467
 30
0.0
 11
447.782286
 21
180.294467
 31
0.0
  0
LINE
  5
1581
100
AcDbEntity
  8
MSL5_360_3F-3
100
AcDbLine
 10
412.782286
 20
182.761134
 30
0.0
 11
412.782286
 21
197.761134
 31
0.0
  0
LINE
  5
1582
100
AcDbEntity
  8
MSL5_360_3F-7
100
AcDbLine
 10
417.782286
 20
203.561134
 30
0.0
 11
417.782286
 21
180.294467
 31
0.0
  0
LINE
  5
1583
100
AcDbEntity
  8
MSL5_360_3F-3
100
AcDbLine
 10
422.782286
 20
182.761134
 30
0.0
 11
422.782286
 21
197.761134
 31
0.0
  0
LINE
  5
1584
100
AcDbEntity
  8
MSL5_360_3F-3
100
AcDbLine
 10
417.782286
 20
182.761134
 30
0.0
 11
417.782286
 21
182.761134
 31
0.0
  0
LINE
  5
1585
100
AcDbEntity
  8
MSL5_360_3F-3
100
AcDbLine
 10
417.782286
 20
182.761134
 30
0.0
 11
417.782286
 21
182.761134
 31
0.0
  0
LINE
  5
1586
100
AcDbEntity
  8
MSL5_360_3F-7
100
AcDbLine
 10
417.782286
 20
180.294467
 30
0.0
 11
417.782286
 21
182.761134
 31
0.0
  0
LINE
  5
1587
100
AcDbEntity
  8
MSL5_360_3F-3
100
AcDbLine
 10
447.782286
 20
182.761134
 30
0.0
 11
447.782286
 21
182.761134
 31
0.0
  0
LINE
  5
1588
100
AcDbEntity
  8
MSL5_360_3F-3
100
AcDbLine
 10
447.782286
 20
182.761134
 30
0.0
 11
447.782286
 21
182.761134
 31
0.0
  0
LINE
  5
1589
100
AcDbEntity
  8
MSL5_360_3F-7
100
AcDbLine
 10
447.782286
 20
180.294467
 30
0.0
 11
447.782286
 21
182.761134
 31
0.0
  0
LINE
  5
158A
100
AcDbEntity
  8
MSL5_360_3F-7
100
AcDbLine
 10
477.782286
 20
180.294467
 30
0.0
 11
477.782286
 21
182.761134
 31
0.0
  0
LINE
  5
158B
100
AcDbEntity
  8
MSL5_360_3F-3
100
AcDbLine
 10
477.782286
 20
182.761134
 30
0.0
 11
477.782286
 21
182.761134
 31
0.0
  0
LINE
  5
158C
100
AcDbEntity
  8
MSL5_360_3F-3
100
AcDbLine
 10
477.782286
 20
182.761134
 30
0.0
 11
477.782286
 21
182.761134
 31
0.0
  0
LINE
  5
158D
100
AcDbEntity
  8
MSL5_360_3F-3
100
AcDbLine
 10
417.782286
 20
201.094467
 30
0.0
 11
422.782286
 21
197.761134
 31
0.0
  0
LINE
  5
158E
100
AcDbEntity
  8
MSL5_360_3F-3
100
AcDbLine
 10
422.782286
 20
197.761134
 30
0.0
 11
417.782286
 21
197.761134
 31
0.0
  0
LINE
  5
158F
100
AcDbEntity
  8
MSL5_360_3F-3
100
AcDbLine
 10
412.782286
 20
197.761134
 30
0.0
 11
417.782286
 21
197.761134
 31
0.0
  0
LINE
  5
1590
100
AcDbEntity
  8
MSL5_360_3F-3
100
AcDbLine
 10
417.782286
 20
201.094467
 30
0.0
 11
412.782286
 21
197.761134
 31
0.0
  0
CIRCLE
  5
1591
100
AcDbEntity
  8
MSL5_360_3F-0
100
AcDbCircle
 10
417.782286
 20
227.761134
 30
0.0
 40
5.0
  0
LINE
  5
1592
100
AcDbEntity
  8
MSL5_360_3F-7
100
AcDbLine
 10
417.782286
 20
227.761134
 30
0.0
 11
424.871167
 21
227.761134
 31
0.0
  0
LINE
  5
1593
100
AcDbEntity
  8
MSL5_360_3F-7
100
AcDbLine
 10
417.782286
 20
227.761134
 30
0.0
 11
417.782286
 21
234.850015
 31
0.0
  0
LINE
  5
1594
100
AcDbEntity
  8
MSL5_360_3F-7
100
AcDbLine
 10
417.782286
 20
227.761134
 30
0.0
 11
417.782286
 21
220.672254
 31
0.0
  0
LINE
  5
1595
100
AcDbEntity
  8
MSL5_360_3F-7
100
AcDbLine
 10
417.782286
 20
227.761134
 30
0.0
 11
410.693405
 21
227.761134
 31
0.0
  0
LINE
  5
1596
100
AcDbEntity
  8
MSL5_360_3F-3
100
AcDbLine
 10
452.782286
 20
199.761134
 30
0.0
 11
442.782286
 21
199.761134
 31
0.0
  0
LINE
  5
1597
100
AcDbEntity
  8
MSL5_360_3F-3
100
AcDbLine
 10
447.782286
 20
207.4278
 30
0.0
 11
451.782286
 21
204.761134
 31
0.0
  0
LINE
  5
1598
100
AcDbEntity
  8
MSL5_360_3F-3
100
AcDbLine
 10
451.782286
 20
204.761134
 30
0.0
 11
447.782286
 21
204.761134
 31
0.0
  0
LINE
  5
1599
100
AcDbEntity
  8
MSL5_360_3F-3
100
AcDbLine
 10
447.782286
 20
207.4278
 30
0.0
 11
443.782286
 21
204.761134
 31
0.0
  0
LINE
  5
159A
100
AcDbEntity
  8
MSL5_360_3F-3
100
AcDbLine
 10
443.782286
 20
204.761134
 30
0.0
 11
447.782286
 21
204.761134
 31
0.0
  0
LINE
  5
159B
100
AcDbEntity
  8
MSL5_360_3F-3
100
AcDbLine
 10
472.782286
 20
197.761134
 30
0.0
 11
477.782286
 21
197.761134
 31
0.0
  0
LINE
  5
159C
100
AcDbEntity
  8
MSL5_360_3F-3
100
AcDbLine
 10
477.782286
 20
201.094467
 30
0.0
 11
472.782286
 21
197.761134
 31
0.0
  0
LINE
  5
159D
100
AcDbEntity
  8
MSL5_360_3F-3
100
AcDbLine
 10
482.782286
 20
197.761134
 30
0.0
 11
477.782286
 21
197.761134
 31
0.0
  0
LINE
  5
159E
100
AcDbEntity
  8
MSL5_360_3F-3
100
AcDbLine
 10
477.782286
 20
201.094467
 30
0.0
 11
482.782286
 21
197.761134
 31
0.0
  0
LINE
  5
159F
100
AcDbEntity
  8
MSL5_360_3F-7
100
AcDbLine
 10
447.782286
 20
227.761134
 30
0.0
 11
447.782286
 21
234.491924
 31
0.0
  0
ARC
  5
15A0
100
AcDbEntity
  8
MSL5_360_3F-4
100
AcDbCircle
 10
447.782286
 20
227.761134
 30
0.0
 40
5.0
100
AcDbArc
 50
82.606248
 51
7.300134
  0
LINE
  5
15A1
100
AcDbEntity
  8
MSL5_360_3F-7
100
AcDbLine
 10
447.782286
 20
227.761134
 30
0.0
 11
454.513076
 21
227.761134
 31
0.0
  0
CIRCLE
  5
15A2
100
AcDbEntity
  8
MSL5_360_3F-0
100
AcDbCircle
 10
447.782286
 20
227.761134
 30
0.0
 40
4.25
  0
LINE
  5
15A3
100
AcDbEntity
  8
MSL5_360_3F-7
100
AcDbLine
 10
447.782286
 20
227.761134
 30
0.0
 11
447.782286
 21
221.030344
 31
0.0
  0
LINE
  5
15A4
100
AcDbEntity
  8
MSL5_360_3F-7
100
AcDbLine
 10
447.782286
 20
227.761134
 30
0.0
 11
441.051496
 21
227.761134
 31
0.0
  0
LINE
  5
15A5
100
AcDbEntity
  8
MSL5_360_3F-7
100
AcDbLine
 10
477.782286
 20
227.761134
 30
0.0
 11
477.782286
 21
234.850015
 31
0.0
  0
CIRCLE
  5
15A6
100
AcDbEntity
  8
MSL5_360_3F-0
100
AcDbCircle
 10
477.782286
 20
227.761134
 30
0.0
 40
5.0
  0
LINE
  5
15A7
100
AcDbEntity
  8
MSL5_360_3F-7
100
AcDbLine
 10
477.782286
 20
227.761134
 30
0.0
 11
470.693405
 21
227.761134
 31
0.0
  0
LINE
  5
15A8
100
AcDbEntity
  8
MSL5_360_3F-7
100
AcDbLine
 10
477.782286
 20
227.761134
 30
0.0
 11
477.782286
 21
220.672254
 31
0.0
  0
LINE
  5
15A9
100
AcDbEntity
  8
MSL5_360_3F-7
100
AcDbLine
 10
387.782286
 20
305.627801
 30
0.0
 11
387.782286
 21
335.227801
 31
0.0
  0
LINE
  5
15AA
100
AcDbEntity
  8
MSL5_360_3F-7
100
AcDbLine
 10
327.782286
 20
305.627801
 30
0.0
 11
327.782286
 21
335.227801
 31
0.0
  0
LINE
  5
15AB
100
AcDbEntity
  8
MSL5_360_3F-7
100
AcDbLine
 10
357.782286
 20
287.761134
 30
0.0
 11
350.642537
 21
287.761134
 31
0.0
  0
LINE
  5
15AC
100
AcDbEntity
  8
MSL5_360_3F-7
100
AcDbLine
 10
327.782286
 20
287.761134
 30
0.0
 11
334.624999
 21
287.761134
 31
0.0
  0
CIRCLE
  5
15AD
100
AcDbEntity
  8
MSL5_360_3F-0
100
AcDbCircle
 10
327.782286
 20
287.761134
 30
0.0
 40
4.25
  0
ARC
  5
15AE
100
AcDbEntity
  8
MSL5_360_3F-4
100
AcDbCircle
 10
327.782286
 20
287.761134
 30
0.0
 40
5.0
100
AcDbArc
 50
82.606248
 51
7.300134
  0
LINE
  5
15AF
100
AcDbEntity
  8
MSL5_360_3F-7
100
AcDbLine
 10
327.782286
 20
287.761134
 30
0.0
 11
327.782286
 21
294.603848
 31
0.0
  0
LINE
  5
15B0
100
AcDbEntity
  8
MSL5_360_3F-7
100
AcDbLine
 10
327.782286
 20
287.761134
 30
0.0
 11
327.782286
 21
280.918421
 31
0.0
  0
LINE
  5
15B1
100
AcDbEntity
  8
MSL5_360_3F-7
100
AcDbLine
 10
327.782286
 20
287.761134
 30
0.0
 11
320.939573
 21
287.761134
 31
0.0
  0
LINE
  5
15B2
100
AcDbEntity
  8
MSL5_360_3F-7
100
AcDbLine
 10
357.782286
 20
287.761134
 30
0.0
 11
357.782286
 21
294.900883
 31
0.0
  0
CIRCLE
  5
15B3
100
AcDbEntity
  8
MSL5_360_3F-0
100
AcDbCircle
 10
357.782286
 20
287.761134
 30
0.0
 40
5.0
  0
LINE
  5
15B4
100
AcDbEntity
  8
MSL5_360_3F-7
100
AcDbLine
 10
357.782286
 20
287.761134
 30
0.0
 11
364.922035
 21
287.761134
 31
0.0
  0
LINE
  5
15B5
100
AcDbEntity
  8
MSL5_360_3F-7
100
AcDbLine
 10
357.782286
 20
287.761134
 30
0.0
 11
357.782286
 21
280.621386
 31
0.0
  0
LINE
  5
15B6
100
AcDbEntity
  8
MSL5_360_3F-7
100
AcDbLine
 10
387.782286
 20
287.761134
 30
0.0
 11
387.782286
 21
294.603848
 31
0.0
  0
ARC
  5
15B7
100
AcDbEntity
  8
MSL5_360_3F-4
100
AcDbCircle
 10
387.782286
 20
287.761134
 30
0.0
 40
5.0
100
AcDbArc
 50
82.606248
 51
7.300134
  0
LINE
  5
15B8
100
AcDbEntity
  8
MSL5_360_3F-7
100
AcDbLine
 10
387.782286
 20
287.761134
 30
0.0
 11
380.939573
 21
287.761134
 31
0.0
  0
CIRCLE
  5
15B9
100
AcDbEntity
  8
MSL5_360_3F-0
100
AcDbCircle
 10
387.782286
 20
287.761134
 30
0.0
 40
4.25
  0
LINE
  5
15BA
100
AcDbEntity
  8
MSL5_360_3F-7
100
AcDbLine
 10
387.782286
 20
287.761134
 30
0.0
 11
387.782286
 21
280.918421
 31
0.0
  0
LINE
  5
15BB
100
AcDbEntity
  8
MSL5_360_3F-7
100
AcDbLine
 10
387.782286
 20
287.761134
 30
0.0
 11
394.624999
 21
287.761134
 31
0.0
  0
LINE
  5
15BC
100
AcDbEntity
  8
MSL5_360_3F-3
100
AcDbLine
 10
327.782286
 20
308.094468
 30
0.0
 11
331.782286
 21
310.761134
 31
0.0
  0
LINE
  5
15BD
100
AcDbEntity
  8
MSL5_360_3F-3
100
AcDbLine
 10
331.782286
 20
310.761134
 30
0.0
 11
327.782286
 21
310.761134
 31
0.0
  0
LINE
  5
15BE
100
AcDbEntity
  8
MSL5_360_3F-3
100
AcDbLine
 10
332.782286
 20
315.761134
 30
0.0
 11
322.782286
 21
315.761134
 31
0.0
  0
LINE
  5
15BF
100
AcDbEntity
  8
MSL5_360_3F-3
100
AcDbLine
 10
323.782286
 20
332.761134
 30
0.0
 11
323.782286
 21
310.761134
 31
0.0
  0
LINE
  5
15C0
100
AcDbEntity
  8
MSL5_360_3F-3
100
AcDbLine
 10
322.782286
 20
315.761134
 30
0.0
 11
322.782286
 21
332.761134
 31
0.0
  0
LINE
  5
15C1
100
AcDbEntity
  8
MSL5_360_3F-3
100
AcDbLine
 10
327.782286
 20
308.094468
 30
0.0
 11
323.782286
 21
310.761134
 31
0.0
  0
LINE
  5
15C2
100
AcDbEntity
  8
MSL5_360_3F-3
100
AcDbLine
 10
323.782286
 20
310.761134
 30
0.0
 11
327.782286
 21
310.761134
 31
0.0
  0
LINE
  5
15C3
100
AcDbEntity
  8
MSL5_360_3F-3
100
AcDbLine
 10
327.782286
 20
332.761134
 30
0.0
 11
327.782286
 21
332.761134
 31
0.0
  0
LINE
  5
15C4
100
AcDbEntity
  8
MSL5_360_3F-3
100
AcDbLine
 10
327.782286
 20
332.761134
 30
0.0
 11
327.782286
 21
332.761134
 31
0.0
  0
LINE
  5
15C5
100
AcDbEntity
  8
MSL5_360_3F-7
100
AcDbLine
 10
327.782286
 20
335.227801
 30
0.0
 11
327.782286
 21
332.761134
 31
0.0
  0
LINE
  5
15C6
100
AcDbEntity
  8
MSL5_360_3F-3
100
AcDbLine
 10
332.782286
 20
332.761134
 30
0.0
 11
332.782286
 21
315.761134
 31
0.0
  0
LINE
  5
15C7
100
AcDbEntity
  8
MSL5_360_3F-3
100
AcDbLine
 10
331.782286
 20
332.761134
 30
0.0
 11
331.782286
 21
310.761134
 31
0.0
  0
LINE
  5
15C8
100
AcDbEntity
  8
MSL5_360_3F-3
100
AcDbLine
 10
362.782286
 20
332.761134
 30
0.0
 11
362.782286
 21
317.761134
 31
0.0
  0
LINE
  5
15C9
100
AcDbEntity
  8
MSL5_360_3F-3
100
AcDbLine
 10
352.782286
 20
332.761134
 30
0.0
 11
352.782286
 21
317.761134
 31
0.0
  0
LINE
  5
15CA
100
AcDbEntity
  8
MSL5_360_3F-7
100
AcDbLine
 10
357.782286
 20
311.961134
 30
0.0
 11
357.782286
 21
335.227801
 31
0.0
  0
LINE
  5
15CB
100
AcDbEntity
  8
MSL5_360_3F-3
100
AcDbLine
 10
357.782286
 20
314.427801
 30
0.0
 11
362.782286
 21
317.761134
 31
0.0
  0
LINE
  5
15CC
100
AcDbEntity
  8
MSL5_360_3F-3
100
AcDbLine
 10
362.782286
 20
317.761134
 30
0.0
 11
357.782286
 21
317.761134
 31
0.0
  0
LINE
  5
15CD
100
AcDbEntity
  8
MSL5_360_3F-3
100
AcDbLine
 10
357.782286
 20
314.427801
 30
0.0
 11
352.782286
 21
317.761134
 31
0.0
  0
LINE
  5
15CE
100
AcDbEntity
  8
MSL5_360_3F-3
100
AcDbLine
 10
352.782286
 20
317.761134
 30
0.0
 11
357.782286
 21
317.761134
 31
0.0
  0
LINE
  5
15CF
100
AcDbEntity
  8
MSL5_360_3F-3
100
AcDbLine
 10
357.782286
 20
332.761134
 30
0.0
 11
357.782286
 21
332.761134
 31
0.0
  0
LINE
  5
15D0
100
AcDbEntity
  8
MSL5_360_3F-3
100
AcDbLine
 10
357.782286
 20
332.761134
 30
0.0
 11
357.782286
 21
332.761134
 31
0.0
  0
LINE
  5
15D1
100
AcDbEntity
  8
MSL5_360_3F-7
100
AcDbLine
 10
357.782286
 20
335.227801
 30
0.0
 11
357.782286
 21
332.761134
 31
0.0
  0
LINE
  5
15D2
100
AcDbEntity
  8
MSL5_360_3F-3
100
AcDbLine
 10
391.782286
 20
332.761134
 30
0.0
 11
391.782286
 21
310.761134
 31
0.0
  0
LINE
  5
15D3
100
AcDbEntity
  8
MSL5_360_3F-3
100
AcDbLine
 10
392.782286
 20
332.761134
 30
0.0
 11
392.782286
 21
315.761134
 31
0.0
  0
LINE
  5
15D4
100
AcDbEntity
  8
MSL5_360_3F-3
100
AcDbLine
 10
382.782286
 20
315.761134
 30
0.0
 11
382.782286
 21
332.761134
 31
0.0
  0
LINE
  5
15D5
100
AcDbEntity
  8
MSL5_360_3F-3
100
AcDbLine
 10
383.782286
 20
332.761134
 30
0.0
 11
383.782286
 21
310.761134
 31
0.0
  0
LINE
  5
15D6
100
AcDbEntity
  8
MSL5_360_3F-3
100
AcDbLine
 10
383.782286
 20
310.761134
 30
0.0
 11
387.782286
 21
310.761134
 31
0.0
  0
LINE
  5
15D7
100
AcDbEntity
  8
MSL5_360_3F-3
100
AcDbLine
 10
387.782286
 20
308.094468
 30
0.0
 11
383.782286
 21
310.761134
 31
0.0
  0
LINE
  5
15D8
100
AcDbEntity
  8
MSL5_360_3F-3
100
AcDbLine
 10
392.782286
 20
315.761134
 30
0.0
 11
382.782286
 21
315.761134
 31
0.0
  0
LINE
  5
15D9
100
AcDbEntity
  8
MSL5_360_3F-3
100
AcDbLine
 10
391.782286
 20
310.761134
 30
0.0
 11
387.782286
 21
310.761134
 31
0.0
  0
LINE
  5
15DA
100
AcDbEntity
  8
MSL5_360_3F-3
100
AcDbLine
 10
387.782286
 20
308.094468
 30
0.0
 11
391.782286
 21
310.761134
 31
0.0
  0
LINE
  5
15DB
100
AcDbEntity
  8
MSL5_360_3F-3
100
AcDbLine
 10
387.782286
 20
332.761134
 30
0.0
 11
387.782286
 21
332.761134
 31
0.0
  0
LINE
  5
15DC
100
AcDbEntity
  8
MSL5_360_3F-3
100
AcDbLine
 10
387.782286
 20
332.761134
 30
0.0
 11
387.782286
 21
332.761134
 31
0.0
  0
LINE
  5
15DD
100
AcDbEntity
  8
MSL5_360_3F-7
100
AcDbLine
 10
387.782286
 20
335.227801
 30
0.0
 11
387.782286
 21
332.761134
 31
0.0
  0
LINE
  5
15DE
100
AcDbEntity
  8
MSL5_360_3F-7
100
AcDbLine
 10
447.782286
 20
305.627801
 30
0.0
 11
447.782286
 21
335.227801
 31
0.0
  0
CIRCLE
  5
15DF
100
AcDbEntity
  8
MSL5_360_3F-0
100
AcDbCircle
 10
417.782286
 20
287.761134
 30
0.0
 40
5.0
  0
LINE
  5
15E0
100
AcDbEntity
  8
MSL5_360_3F-7
100
AcDbLine
 10
417.782286
 20
287.761134
 30
0.0
 11
424.922035
 21
287.761134
 31
0.0
  0
LINE
  5
15E1
100
AcDbEntity
  8
MSL5_360_3F-7
100
AcDbLine
 10
417.782286
 20
287.761134
 30
0.0
 11
417.782286
 21
294.900883
 31
0.0
  0
LINE
  5
15E2
100
AcDbEntity
  8
MSL5_360_3F-7
100
AcDbLine
 10
417.782286
 20
287.761134
 30
0.0
 11
417.782286
 21
280.621386
 31
0.0
  0
LINE
  5
15E3
100
AcDbEntity
  8
MSL5_360_3F-7
100
AcDbLine
 10
417.782286
 20
287.761134
 30
0.0
 11
410.642537
 21
287.761134
 31
0.0
  0
LINE
  5
15E4
100
AcDbEntity
  8
MSL5_360_3F-7
100
AcDbLine
 10
447.782286
 20
287.761134
 30
0.0
 11
447.782286
 21
294.603848
 31
0.0
  0
ARC
  5
15E5
100
AcDbEntity
  8
MSL5_360_3F-4
100
AcDbCircle
 10
447.782286
 20
287.761134
 30
0.0
 40
5.0
100
AcDbArc
 50
82.606248
 51
7.300134
  0
LINE
  5
15E6
100
AcDbEntity
  8
MSL5_360_3F-7
100
AcDbLine
 10
447.782286
 20
287.761134
 30
0.0
 11
454.624999
 21
287.761134
 31
0.0
  0
CIRCLE
  5
15E7
100
AcDbEntity
  8
MSL5_360_3F-0
100
AcDbCircle
 10
447.782286
 20
287.761134
 30
0.0
 40
4.25
  0
LINE
  5
15E8
100
AcDbEntity
  8
MSL5_360_3F-7
100
AcDbLine
 10
447.782286
 20
287.761134
 30
0.0
 11
447.782286
 21
280.918421
 31
0.0
  0
LINE
  5
15E9
100
AcDbEntity
  8
MSL5_360_3F-7
100
AcDbLine
 10
447.782286
 20
287.761134
 30
0.0
 11
440.939573
 21
287.761134
 31
0.0
  0
LINE
  5
15EA
100
AcDbEntity
  8
MSL5_360_3F-7
100
AcDbLine
 10
477.782286
 20
287.761134
 30
0.0
 11
477.782286
 21
294.900883
 31
0.0
  0
CIRCLE
  5
15EB
100
AcDbEntity
  8
MSL5_360_3F-0
100
AcDbCircle
 10
477.782286
 20
287.761134
 30
0.0
 40
5.0
  0
LINE
  5
15EC
100
AcDbEntity
  8
MSL5_360_3F-7
100
AcDbLine
 10
477.782286
 20
287.761134
 30
0.0
 11
470.642537
 21
287.761134
 31
0.0
  0
LINE
  5
15ED
100
AcDbEntity
  8
MSL5_360_3F-7
100
AcDbLine
 10
477.782286
 20
287.761134
 30
0.0
 11
477.782286
 21
280.621386
 31
0.0
  0
LINE
  5
15EE
100
AcDbEntity
  8
MSL5_360_3F-3
100
AcDbLine
 10
422.782286
 20
317.761134
 30
0.0
 11
417.782286
 21
317.761134
 31
0.0
  0
LINE
  5
15EF
100
AcDbEntity
  8
MSL5_360_3F-3
100
AcDbLine
 10
417.782286
 20
314.427801
 30
0.0
 11
422.782286
 21
317.761134
 31
0.0
  0
LINE
  5
15F0
100
AcDbEntity
  8
MSL5_360_3F-3
100
AcDbLine
 10
412.782286
 20
332.761134
 30
0.0
 11
412.782286
 21
317.761134
 31
0.0
  0
LINE
  5
15F1
100
AcDbEntity
  8
MSL5_360_3F-7
100
AcDbLine
 10
417.782286
 20
311.961134
 30
0.0
 11
417.782286
 21
335.227801
 31
0.0
  0
LINE
  5
15F2
100
AcDbEntity
  8
MSL5_360_3F-3
100
AcDbLine
 10
412.782286
 20
317.761134
 30
0.0
 11
417.782286
 21
317.761134
 31
0.0
  0
LINE
  5
15F3
100
AcDbEntity
  8
MSL5_360_3F-3
100
AcDbLine
 10
417.782286
 20
314.427801
 30
0.0
 11
412.782286
 21
317.761134
 31
0.0
  0
LINE
  5
15F4
100
AcDbEntity
  8
MSL5_360_3F-3
100
AcDbLine
 10
417.782286
 20
332.761134
 30
0.0
 11
417.782286
 21
332.761134
 31
0.0
  0
LINE
  5
15F5
100
AcDbEntity
  8
MSL5_360_3F-3
100
AcDbLine
 10
417.782286
 20
332.761134
 30
0.0
 11
417.782286
 21
332.761134
 31
0.0
  0
LINE
  5
15F6
100
AcDbEntity
  8
MSL5_360_3F-7
100
AcDbLine
 10
417.782286
 20
335.227801
 30
0.0
 11
417.782286
 21
332.761134
 31
0.0
  0
LINE
  5
15F7
100
AcDbEntity
  8
MSL5_360_3F-3
100
AcDbLine
 10
422.782286
 20
332.761134
 30
0.0
 11
422.782286
 21
317.761134
 31
0.0
  0
LINE
  5
15F8
100
AcDbEntity
  8
MSL5_360_3F-3
100
AcDbLine
 10
452.782286
 20
332.761134
 30
0.0
 11
452.782286
 21
315.761134
 31
0.0
  0
LINE
  5
15F9
100
AcDbEntity
  8
MSL5_360_3F-3
100
AcDbLine
 10
451.782286
 20
332.761134
 30
0.0
 11
451.782286
 21
310.761134
 31
0.0
  0
LINE
  5
15FA
100
AcDbEntity
  8
MSL5_360_3F-3
100
AcDbLine
 10
443.782286
 20
332.761134
 30
0.0
 11
443.782286
 21
310.761134
 31
0.0
  0
LINE
  5
15FB
100
AcDbEntity
  8
MSL5_360_3F-3
100
AcDbLine
 10
442.782286
 20
315.761134
 30
0.0
 11
442.782286
 21
332.761134
 31
0.0
  0
LINE
  5
15FC
100
AcDbEntity
  8
MSL5_360_3F-3
100
AcDbLine
 10
447.782286
 20
308.094468
 30
0.0
 11
451.782286
 21
310.761134
 31
0.0
  0
LINE
  5
15FD
100
AcDbEntity
  8
MSL5_360_3F-3
100
AcDbLine
 10
451.782286
 20
310.761134
 30
0.0
 11
447.782286
 21
310.761134
 31
0.0
  0
LINE
  5
15FE
100
AcDbEntity
  8
MSL5_360_3F-3
100
AcDbLine
 10
452.782286
 20
315.761134
 30
0.0
 11
442.782286
 21
315.761134
 31
0.0
  0
LINE
  5
15FF
100
AcDbEntity
  8
MSL5_360_3F-3
100
AcDbLine
 10
447.782286
 20
308.094468
 30
0.0
 11
443.782286
 21
310.761134
 31
0.0
  0
LINE
  5
1600
100
AcDbEntity
  8
MSL5_360_3F-3
100
AcDbLine
 10
443.782286
 20
310.761134
 30
0.0
 11
447.782286
 21
310.761134
 31
0.0
  0
LINE
  5
1601
100
AcDbEntity
  8
MSL5_360_3F-3
100
AcDbLine
 10
447.782286
 20
332.761134
 30
0.0
 11
447.782286
 21
332.761134
 31
0.0
  0
LINE
  5
1602
100
AcDbEntity
  8
MSL5_360_3F-3
100
AcDbLine
 10
447.782286
 20
332.761134
 30
0.0
 11
447.782286
 21
332.761134
 31
0.0
  0
LINE
  5
1603
100
AcDbEntity
  8
MSL5_360_3F-7
100
AcDbLine
 10
447.782286
 20
335.227801
 30
0.0
 11
447.782286
 21
332.761134
 31
0.0
  0
LINE
  5
1604
100
AcDbEntity
  8
MSL5_360_3F-3
100
AcDbLine
 10
482.782286
 20
332.761134
 30
0.0
 11
482.782286
 21
317.761134
 31
0.0
  0
LINE
  5
1605
100
AcDbEntity
  8
MSL5_360_3F-3
100
AcDbLine
 10
472.782286
 20
332.761134
 30
0.0
 11
472.782286
 21
317.761134
 31
0.0
  0
LINE
  5
1606
100
AcDbEntity
  8
MSL5_360_3F-7
100
AcDbLine
 10
477.782286
 20
311.961134
 30
0.0
 11
477.782286
 21
335.227801
 31
0.0
  0
LINE
  5
1607
100
AcDbEntity
  8
MSL5_360_3F-3
100
AcDbLine
 10
477.782286
 20
314.427801
 30
0.0
 11
472.782286
 21
317.761134
 31
0.0
  0
LINE
  5
1608
100
AcDbEntity
  8
MSL5_360_3F-3
100
AcDbLine
 10
472.782286
 20
317.761134
 30
0.0
 11
477.782286
 21
317.761134
 31
0.0
  0
LINE
  5
1609
100
AcDbEntity
  8
MSL5_360_3F-3
100
AcDbLine
 10
477.782286
 20
314.427801
 30
0.0
 11
482.782286
 21
317.761134
 31
0.0
  0
LINE
  5
160A
100
AcDbEntity
  8
MSL5_360_3F-3
100
AcDbLine
 10
482.782286
 20
317.761134
 30
0.0
 11
477.782286
 21
317.761134
 31
0.0
  0
LINE
  5
160B
100
AcDbEntity
  8
MSL5_360_3F-3
100
AcDbLine
 10
477.782286
 20
332.761134
 30
0.0
 11
477.782286
 21
332.761134
 31
0.0
  0
LINE
  5
160C
100
AcDbEntity
  8
MSL5_360_3F-3
100
AcDbLine
 10
477.782286
 20
332.761134
 30
0.0
 11
477.782286
 21
332.761134
 31
0.0
  0
LINE
  5
160D
100
AcDbEntity
  8
MSL5_360_3F-7
100
AcDbLine
 10
477.782286
 20
335.227801
 30
0.0
 11
477.782286
 21
332.761134
 31
0.0
  0
LINE
  5
160E
100
AcDbEntity
  8
MSL5_360_3F-7
100
AcDbLine
 10
628.784436
 20
-178.245947
 30
0.0
 11
1050.782286
 21
-178.245947
 31
0.0
1001
GENIUS_GENOREF_13
1005
17F1
  0
LINE
  5
160F
100
AcDbEntity
  8
MSL5_360_3F-7
100
AcDbLine
 10
1030.622252
 20
-126.245947
 30
0.0
 11
629.178292
 21
-126.245947
 31
0.0
  0
LINE
  5
1610
100
AcDbEntity
  8
MSL5_360_3F-7
100
AcDbLine
 10
1030.622252
 20
-230.245947
 30
0.0
 11
629.178292
 21
-230.245947
 31
0.0
  0
LINE
  5
1611
100
AcDbEntity
  8
MSL5_360_3F-0
100
AcDbLine
 10
1022.782286
 20
-242.745947
 30
0.0
 11
646.384993
 21
-242.745947
 31
0.0
  0
LINE
  5
1612
100
AcDbEntity
  8
MSL5_360_3F-3
100
AcDbLine
 10
1022.782286
 20
-184.245947
 30
0.0
 11
658.782286
 21
-184.245947
 31
0.0
1001
GENIUS_GENBH_13
1002
{
1000
OE
1000
CON1
1002
}
1001
GENIUS_GENOREF_13
1005
17F1
  0
LINE
  5
1613
100
AcDbEntity
  8
MSL5_360_3F-3
100
AcDbLine
 10
1022.782286
 20
-172.245947
 30
0.0
 11
658.782286
 21
-172.245947
 31
0.0
1001
GENIUS_GENBH_13
1002
{
1000
OE
1000
CON1
1002
}
1001
GENIUS_GENOREF_13
1005
17F1
  0
LINE
  5
1614
100
AcDbEntity
  8
MSL5_360_3F-0
100
AcDbLine
 10
1022.782286
 20
-165.745947
 30
0.0
 11
639.782286
 21
-165.745947
 31
0.0
  0
LINE
  5
1615
100
AcDbEntity
  8
MSL5_360_3F-0
100
AcDbLine
 10
1022.782286
 20
-190.745947
 30
0.0
 11
639.782286
 21
-190.745947
 31
0.0
  0
LINE
  5
1616
100
AcDbEntity
  8
MSL5_360_3F-0
100
AcDbLine
 10
1022.782286
 20
-138.745947
 30
0.0
 11
639.782286
 21
-138.745947
 31
0.0
  0
LINE
  5
1617
100
AcDbEntity
  8
MSL5_360_3F-0
100
AcDbLine
 10
1022.782286
 20
-217.745947
 30
0.0
 11
686.582286
 21
-217.745947
 31
0.0
  0
LINE
  5
1618
100
AcDbEntity
  8
MSL5_360_3F-7
100
AcDbLine
 10
629.178292
 20
0.0
 30
0.0
 11
1050.782286
 21
0.0
 31
0.0
  0
LINE
  5
1619
100
AcDbEntity
  8
MSL5_360_3F-0
100
AcDbLine
 10
1022.782286
 20
-113.745947
 30
0.0
 11
639.782286
 21
-113.745947
 31
0.0
  0
LINE
  5
161A
100
AcDbEntity
  8
MSL5_360_3F-0
100
AcDbLine
 10
639.782286
 20
12.5
 30
0.0
 11
1022.782286
 21
12.5
 31
0.0
  0
LINE
  5
161B
100
AcDbEntity
  8
MSL5_360_3F-0
100
AcDbLine
 10
1022.782286
 20
-12.5
 30
0.0
 11
639.782286
 21
-12.5
 31
0.0
  0
LINE
  5
161C
100
AcDbEntity
  8
MSL5_360_3F-7
100
AcDbLine
 10
629.178292
 20
93.0
 30
0.0
 11
1050.782286
 21
93.0
 31
0.0
  0
LINE
  5
161D
100
AcDbEntity
  8
MSL5_360_3F-0
100
AcDbLine
 10
639.782286
 20
105.5
 30
0.0
 11
1022.782286
 21
105.5
 31
0.0
  0
LINE
  5
161E
100
AcDbEntity
  8
MSL5_360_3F-0
100
AcDbLine
 10
1022.782286
 20
80.5
 30
0.0
 11
639.782286
 21
80.5
 31
0.0
  0
LINE
  5
161F
100
AcDbEntity
  8
MSL5_360_3F-0
100
AcDbLine
 10
639.282286
 20
-212.330862
 30
0.0
 11
639.282286
 21
-104.245876
 31
0.0
  0
LINE
  5
1620
100
AcDbEntity
  8
MSL5_360_3F-0
100
AcDbLine
 10
639.782286
 20
-103.245947
 30
0.0
 11
639.782286
 21
-253.245947
 31
0.0
  0
LINE
  5
1621
100
AcDbEntity
  8
MSL5_360_3F-0
100
AcDbLine
 10
648.282286
 20
-222.137876
 30
0.0
 11
673.082286
 21
-222.137876
 31
0.0
  0
LINE
  5
1622
100
AcDbEntity
  8
MSL5_360_3F-0
100
AcDbLine
 10
673.082286
 20
-217.745947
 30
0.0
 11
648.282286
 21
-217.745947
 31
0.0
  0
LINE
  5
1623
100
AcDbEntity
  8
MSL5_360_3F-0
100
AcDbLine
 10
648.282286
 20
-230.137876
 30
0.0
 11
673.082286
 21
-230.137876
 31
0.0
  0
LINE
  5
1624
100
AcDbEntity
  8
MSL5_360_3F-7
100
AcDbLine
 10
634.673008
 20
-226.245947
 30
0.0
 11
691.56765
 21
-226.245947
 31
0.0
  0
LINE
  5
1625
100
AcDbEntity
  8
MSL5_360_3F-0
100
AcDbLine
 10
648.282286
 20
-214.637876
 30
0.0
 11
648.282286
 21
-237.637876
 31
0.0
  0
LINE
  5
1626
100
AcDbEntity
  8
MSL5_360_3F-0
100
AcDbLine
 10
647.782286
 20
-213.255566
 30
0.0
 11
647.782286
 21
-239.236329
 31
0.0
  0
ARC
  5
1627
100
AcDbEntity
  8
MSL5_360_3F-0
100
AcDbCircle
 10
642.676036
 20
-239.236329
 30
0.0
 40
5.10625
100
AcDbArc
 50
302.004628
 51
57.995372
  0
LINE
  5
1628
100
AcDbEntity
  8
MSL5_360_3F-0
100
AcDbLine
 10
639.782286
 20
-213.255566
 30
0.0
 11
639.782286
 21
-239.236329
 31
0.0
  0
LINE
  5
1629
100
AcDbEntity
  8
MSL5_360_3F-0
100
AcDbLine
 10
639.282286
 20
-252.245876
 30
0.0
 11
639.282286
 21
-229.18384
 31
0.0
  0
ARC
  5
162A
100
AcDbEntity
  8
MSL5_360_3F-0
100
AcDbCircle
 10
644.888536
 20
-239.236329
 30
0.0
 40
5.10625
100
AcDbArc
 50
122.004627
 51
237.995373
  0
LINE
  5
162B
100
AcDbEntity
  8
MSL5_360_3F-0
100
AcDbLine
 10
648.282286
 20
-237.637876
 30
0.0
 11
647.68348
 21
-238.236682
 31
0.0
  0
LINE
  5
162C
100
AcDbEntity
  8
MSL5_360_3F-0
100
AcDbLine
 10
642.182286
 20
-243.566456
 30
0.0
 11
645.382286
 21
-243.566456
 31
0.0
  0
LINE
  5
162D
100
AcDbEntity
  8
MSL5_360_3F-7
100
AcDbLine
 10
567.782286
 20
-148.245876
 30
0.0
 11
574.624999
 21
-148.245876
 31
0.0
  0
LINE
  5
162E
100
AcDbEntity
  8
MSL5_360_3F-7
100
AcDbLine
 10
567.782286
 20
-208.245876
 30
0.0
 11
574.513076
 21
-208.245876
 31
0.0
  0
LINE
  5
162F
100
AcDbEntity
  8
MSL5_360_3F-7
100
AcDbLine
 10
537.782286
 20
-156.969465
 30
0.0
 11
537.782286
 21
-201.156995
 31
0.0
  0
LINE
  5
1630
100
AcDbEntity
  8
MSL5_360_3F-7
100
AcDbLine
 10
507.782286
 20
-208.245876
 30
0.0
 11
507.782286
 21
-201.515086
 31
0.0
  0
ARC
  5
1631
100
AcDbEntity
  8
MSL5_360_3F-3
100
AcDbCircle
 10
507.782286
 20
-208.245876
 30
0.0
 40
5.0
100
AcDbArc
 50
82.606248
 51
7.300134
  0
CIRCLE
  5
1632
100
AcDbEntity
  8
MSL5_360_3F-3
100
AcDbCircle
 10
507.782286
 20
-208.245876
 30
0.0
 40
4.25
  0
LINE
  5
1633
100
AcDbEntity
  8
MSL5_360_3F-7
100
AcDbLine
 10
507.782286
 20
-208.245876
 30
0.0
 11
501.051496
 21
-208.245876
 31
0.0
  0
LINE
  5
1634
100
AcDbEntity
  8
MSL5_360_3F-7
100
AcDbLine
 10
507.782286
 20
-208.245876
 30
0.0
 11
507.782286
 21
-214.976666
 31
0.0
  0
LINE
  5
1635
100
AcDbEntity
  8
MSL5_360_3F-7
100
AcDbLine
 10
507.782286
 20
-208.245876
 30
0.0
 11
514.513076
 21
-208.245876
 31
0.0
  0
LINE
  5
1636
100
AcDbEntity
  8
MSL5_360_3F-7
100
AcDbLine
 10
567.782286
 20
-208.245876
 30
0.0
 11
567.782286
 21
-201.515086
 31
0.0
  0
CIRCLE
  5
1637
100
AcDbEntity
  8
MSL5_360_3F-3
100
AcDbCircle
 10
567.782286
 20
-208.245876
 30
0.0
 40
4.25
  0
ARC
  5
1638
100
AcDbEntity
  8
MSL5_360_3F-3
100
AcDbCircle
 10
567.782286
 20
-208.245876
 30
0.0
 40
5.0
100
AcDbArc
 50
82.606248
 51
7.300134
  0
CIRCLE
  5
1639
100
AcDbEntity
  8
MSL5_360_3F-3
100
AcDbCircle
 10
537.782286
 20
-208.245876
 30
0.0
 40
5.0
  0
LINE
  5
163A
100
AcDbEntity
  8
MSL5_360_3F-7
100
AcDbLine
 10
537.782286
 20
-208.245876
 30
0.0
 11
537.782286
 21
-201.156995
 31
0.0
  0
LINE
  5
163B
100
AcDbEntity
  8
MSL5_360_3F-7
100
AcDbLine
 10
537.782286
 20
-208.245876
 30
0.0
 11
544.871167
 21
-208.245876
 31
0.0
  0
LINE
  5
163C
100
AcDbEntity
  8
MSL5_360_3F-7
100
AcDbLine
 10
537.782286
 20
-208.245876
 30
0.0
 11
537.782286
 21
-215.334757
 31
0.0
  0
LINE
  5
163D
100
AcDbEntity
  8
MSL5_360_3F-7
100
AcDbLine
 10
537.782286
 20
-208.245876
 30
0.0
 11
530.693405
 21
-208.245876
 31
0.0
  0
LINE
  5
163E
100
AcDbEntity
  8
MSL5_360_3F-7
100
AcDbLine
 10
567.782286
 20
-208.245876
 30
0.0
 11
561.051496
 21
-208.245876
 31
0.0
  0
LINE
  5
163F
100
AcDbEntity
  8
MSL5_360_3F-7
100
AcDbLine
 10
567.782286
 20
-208.245876
 30
0.0
 11
567.782286
 21
-214.976666
 31
0.0
  0
LINE
  5
1640
100
AcDbEntity
  8
MSL5_360_3F-7
100
AcDbLine
 10
507.782286
 20
-148.245876
 30
0.0
 11
507.782286
 21
-141.403162
 31
0.0
  0
ARC
  5
1641
100
AcDbEntity
  8
MSL5_360_3F-3
100
AcDbCircle
 10
507.782286
 20
-148.245876
 30
0.0
 40
5.0
100
AcDbArc
 50
82.606248
 51
7.300134
  0
CIRCLE
  5
1642
100
AcDbEntity
  8
MSL5_360_3F-3
100
AcDbCircle
 10
507.782286
 20
-148.245876
 30
0.0
 40
4.25
  0
LINE
  5
1643
100
AcDbEntity
  8
MSL5_360_3F-7
100
AcDbLine
 10
507.782286
 20
-148.245876
 30
0.0
 11
500.939573
 21
-148.245876
 31
0.0
  0
LINE
  5
1644
100
AcDbEntity
  8
MSL5_360_3F-7
100
AcDbLine
 10
507.782286
 20
-148.245876
 30
0.0
 11
507.782286
 21
-155.088589
 31
0.0
  0
LINE
  5
1645
100
AcDbEntity
  8
MSL5_360_3F-7
100
AcDbLine
 10
507.782286
 20
-148.245876
 30
0.0
 11
514.624999
 21
-148.245876
 31
0.0
  0
LINE
  5
1646
100
AcDbEntity
  8
MSL5_360_3F-7
100
AcDbLine
 10
567.782286
 20
-148.245876
 30
0.0
 11
567.782286
 21
-141.403162
 31
0.0
  0
CIRCLE
  5
1647
100
AcDbEntity
  8
MSL5_360_3F-3
100
AcDbCircle
 10
567.782286
 20
-148.245876
 30
0.0
 40
4.25
  0
ARC
  5
1648
100
AcDbEntity
  8
MSL5_360_3F-3
100
AcDbCircle
 10
567.782286
 20
-148.245876
 30
0.0
 40
5.0
100
AcDbArc
 50
82.606248
 51
7.300134
  0
CIRCLE
  5
1649
100
AcDbEntity
  8
MSL5_360_3F-3
100
AcDbCircle
 10
537.782286
 20
-148.245876
 30
0.0
 40
5.0
  0
LINE
  5
164A
100
AcDbEntity
  8
MSL5_360_3F-7
100
AcDbLine
 10
537.782286
 20
-148.245876
 30
0.0
 11
537.782286
 21
-141.106127
 31
0.0
  0
LINE
  5
164B
100
AcDbEntity
  8
MSL5_360_3F-7
100
AcDbLine
 10
537.782286
 20
-148.245876
 30
0.0
 11
544.922035
 21
-148.245876
 31
0.0
  0
LINE
  5
164C
100
AcDbEntity
  8
MSL5_360_3F-7
100
AcDbLine
 10
537.782286
 20
-148.245876
 30
0.0
 11
537.782286
 21
-155.385624
 31
0.0
  0
LINE
  5
164D
100
AcDbEntity
  8
MSL5_360_3F-7
100
AcDbLine
 10
537.782286
 20
-148.245876
 30
0.0
 11
530.642537
 21
-148.245876
 31
0.0
  0
LINE
  5
164E
100
AcDbEntity
  8
MSL5_360_3F-7
100
AcDbLine
 10
567.782286
 20
-148.245876
 30
0.0
 11
560.939573
 21
-148.245876
 31
0.0
  0
LINE
  5
164F
100
AcDbEntity
  8
MSL5_360_3F-7
100
AcDbLine
 10
567.782286
 20
-148.245876
 30
0.0
 11
567.782286
 21
-155.088589
 31
0.0
  0
LINE
  5
1650
100
AcDbEntity
  8
MSL5_360_3F-3
100
AcDbLine
 10
657.782286
 20
-165.745947
 30
0.0
 11
657.782286
 21
-190.745947
 31
0.0
1001
GENIUS_GENBH_13
1002
{
1000
OE
1000
CON1
1002
}
1001
GENIUS_GENOREF_13
1005
17F1
  0
LINE
  5
1651
100
AcDbEntity
  8
MSL5_360_3F-3
100
AcDbLine
 10
658.782286
 20
-165.745947
 30
0.0
 11
658.782286
 21
-190.745947
 31
0.0
1001
GENIUS_GENBH_13
1002
{
1000
OE
1000
CON1
1002
}
1001
GENIUS_GENOREF_13
1005
17F1
  0
LINE
  5
1652
100
AcDbEntity
  8
MSL5_360_3F-7
100
AcDbLine
 10
616.203786
 20
-221.40021
 30
0.0
 11
635.360786
 21
-221.40021
 31
0.0
1001
GENIUS_GENODEF_13
1002
{
1000
HIER
1070
     0
1002
}
1002
{
1000
MANEDIT
1070
     0
1002
}
1002
{
1000
NOSEL
1070
     0
1002
}
1002
{
1000
BEHIND
1070
     0
1002
}
1002
{
1000
REACTOR
1002
}
1001
GENIUS_GENOBJ-N-CEN_13
1002
{
1000
OWNER
1000
GEN
1002
}
  0
LINE
  5
1653
100
AcDbEntity
  8
MSL5_360_3F-0
100
AcDbLine
 10
615.582286
 20
-212.330862
 30
0.0
 11
639.282286
 21
-212.330862
 31
0.0
  0
LINE
  5
1654
100
AcDbEntity
  8
MSL5_360_3F-0
100
AcDbLine
 10
639.282286
 20
-229.18384
 30
0.0
 11
615.582286
 21
-229.18384
 31
0.0
  0
LINE
  5
1655
100
AcDbEntity
  8
MSL5_360_3F-0
100
AcDbLine
 10
615.582286
 20
-229.18384
 30
0.0
 11
615.582286
 21
-212.330862
 31
0.0
  0
LINE
  5
1656
100
AcDbEntity
  8
MSL5_360_3F-7
100
AcDbLine
 10
625.782286
 20
-213.360786
 30
0.0
 11
625.782286
 21
-229.439633
 31
0.0
1001
GENIUS_GENODEF_13
1002
{
1000
HIER
1070
     0
1002
}
1002
{
1000
MANEDIT
1070
     0
1002
}
1002
{
1000
NOSEL
1070
     0
1002
}
1002
{
1000
BEHIND
1070
     0
1002
}
1002
{
1000
REACTOR
1002
}
1001
GENIUS_GENOBJ-N-CEN_13
1002
{
1000
OWNER
1000
GEN
1002
}
  0
ELLIPSE
  5
1657
100
AcDbEntity
  8
MSL5_360_3F-0
100
AcDbEllipse
 10
625.782286
 20
-221.40021
 30
0.0
 11
-5.722385000000002
 21
0.0
 31
0.0
210
0.0
220
0.0
230
1.0
 40
0.766044
 41
0.0000000000000519
 42
6.283185307179651
  0
ELLIPSE
  5
1658
100
AcDbEntity
  8
MSL5_360_3F-4
100
AcDbEllipse
 10
625.782286
 20
-221.40021
 30
0.0
 11
6.578500000000006
 21
0.0000000000000438
 31
0.0
210
0.0
220
0.0
230
1.0
 40
0.766044
 41
-1.637716455833412
 42
3.255308282467975
  0
ARC
  5
1659
100
AcDbEntity
  8
MSL5_360_3F-0
100
AcDbCircle
 10
630.957286
 20
-226.245947
 30
0.0
 40
16.825
100
AcDbArc
 50
329.020901
 51
30.979099
  0
ARC
  5
165A
100
AcDbEntity
  8
MSL5_360_3F-0
100
AcDbCircle
 10
656.607286
 20
-226.245947
 30
0.0
 40
16.825
100
AcDbArc
 50
149.0209
 51
210.9791
  0
LINE
  5
165B
100
AcDbEntity
  8
MSL5_360_3F-0
100
AcDbLine
 10
642.182286
 20
-234.906201
 30
0.0
 11
645.382286
 21
-234.906201
 31
0.0
  0
LINE
  5
165C
100
AcDbEntity
  8
MSL5_360_3F-0
100
AcDbLine
 10
647.716568
 20
-214.072158
 30
0.0
 11
648.282286
 21
-214.637876
 31
0.0
  0
ARC
  5
165D
100
AcDbEntity
  8
MSL5_360_3F-0
100
AcDbCircle
 10
642.676036
 20
-213.255566
 30
0.0
 40
5.10625
100
AcDbArc
 50
302.004628
 51
57.995372
  0
LINE
  5
165E
100
AcDbEntity
  8
MSL5_360_3F-0
100
AcDbLine
 10
642.182286
 20
-217.585693
 30
0.0
 11
645.382286
 21
-217.585693
 31
0.0
  0
LINE
  5
165F
100
AcDbEntity
  8
MSL5_360_3F-0
100
AcDbLine
 10
642.182286
 20
-208.925439
 30
0.0
 11
645.382286
 21
-208.925439
 31
0.0
  0
ARC
  5
1660
100
AcDbEntity
  8
MSL5_360_3F-0
100
AcDbCircle
 10
644.888536
 20
-213.255566
 30
0.0
 40
5.10625
100
AcDbArc
 50
122.004627
 51
237.995373
  0
LINE
  5
1661
100
AcDbEntity
  8
MSL5_360_3F-0
100
AcDbLine
 10
657.782286
 20
-190.745947
 30
0.0
 11
657.782286
 21
-191.745947
 31
0.0
1001
GENIUS_GENOREF_13
1005
17F1
  0
LINE
  5
1662
100
AcDbEntity
  8
MSL5_360_3F-0
100
AcDbLine
 10
658.782286
 20
-190.745947
 30
0.0
 11
657.782286
 21
-191.745947
 31
0.0
  0
LINE
  5
1663
100
AcDbEntity
  8
MSL5_360_3F-0
100
AcDbLine
 10
657.782286
 20
-191.745947
 30
0.0
 11
639.782286
 21
-191.745947
 31
0.0
  0
LINE
  5
1664
100
AcDbEntity
  8
MSL5_360_3F-0
100
AcDbLine
 10
639.782286
 20
-164.745947
 30
0.0
 11
657.782286
 21
-164.745947
 31
0.0
  0
LINE
  5
1665
100
AcDbEntity
  8
MSL5_360_3F-0
100
AcDbLine
 10
657.782286
 20
-164.745947
 30
0.0
 11
657.782286
 21
-165.745947
 31
0.0
1001
GENIUS_GENOREF_13
1005
17F1
  0
LINE
  5
1666
100
AcDbEntity
  8
MSL5_360_3F-0
100
AcDbLine
 10
657.782286
 20
-164.745947
 30
0.0
 11
658.782286
 21
-165.745947
 31
0.0
  0
ARC
  5
1667
100
AcDbEntity
  8
MSL5_360_3F-0
100
AcDbCircle
 10
632.147564
 20
-126.245947
 30
0.0
 40
10.634722
100
AcDbArc
 50
332.518773
 51
27.481227
  0
LINE
  5
1668
100
AcDbEntity
  8
MSL5_360_3F-0
100
AcDbLine
 10
642.782286
 20
-118.884732
 30
0.0
 11
642.782286
 21
-133.607163
 31
0.0
  0
LINE
  5
1669
100
AcDbEntity
  8
MSL5_360_3F-0
100
AcDbLine
 10
641.582286
 20
-131.153425
 30
0.0
 11
639.782286
 21
-131.153425
 31
0.0
  0
LINE
  5
166A
100
AcDbEntity
  8
MSL5_360_3F-0
100
AcDbLine
 10
639.782286
 20
-136.045947
 30
0.0
 11
641.601357
 21
-136.045947
 31
0.0
  0
ARC
  5
166B
100
AcDbEntity
  8
MSL5_360_3F-0
100
AcDbCircle
 10
639.673605
 20
-133.607163
 30
0.0
 40
3.108681
100
AcDbArc
 50
307.878144
 51
52.121856
  0
LINE
  5
166C
100
AcDbEntity
  8
MSL5_360_3F-0
100
AcDbLine
 10
641.601357
 20
-116.445947
 30
0.0
 11
639.782286
 21
-116.445947
 31
0.0
  0
LINE
  5
166D
100
AcDbEntity
  8
MSL5_360_3F-0
100
AcDbLine
 10
641.582286
 20
-121.33847
 30
0.0
 11
639.782286
 21
-121.33847
 31
0.0
  0
ARC
  5
166E
100
AcDbEntity
  8
MSL5_360_3F-0
100
AcDbCircle
 10
639.673605
 20
-118.884732
 30
0.0
 40
3.108681
100
AcDbArc
 50
307.878144
 51
52.121856
  0
LINE
  5
166F
100
AcDbEntity
  8
MSL5_360_3F-0
100
AcDbLine
 10
673.082286
 20
-214.637876
 30
0.0
 11
673.082286
 21
-237.637876
 31
0.0
  0
LINE
  5
1670
100
AcDbEntity
  8
MSL5_360_3F-0
100
AcDbLine
 10
685.582286
 20
-237.637876
 30
0.0
 11
685.582286
 21
-214.637876
 31
0.0
  0
LINE
  5
1671
100
AcDbEntity
  8
MSL5_360_3F-0
100
AcDbLine
 10
686.582286
 20
-236.637876
 30
0.0
 11
686.582286
 21
-215.637876
 31
0.0
  0
LINE
  5
1672
100
AcDbEntity
  8
MSL5_360_3F-0
100
AcDbLine
 10
673.082286
 20
-237.637876
 30
0.0
 11
685.582286
 21
-237.637876
 31
0.0
  0
LINE
  5
1673
100
AcDbEntity
  8
MSL5_360_3F-0
100
AcDbLine
 10
685.582286
 20
-237.637876
 30
0.0
 11
686.582286
 21
-236.637876
 31
0.0
  0
LINE
  5
1674
100
AcDbEntity
  8
MSL5_360_3F-0
100
AcDbLine
 10
685.582286
 20
-214.637876
 30
0.0
 11
673.082286
 21
-214.637876
 31
0.0
  0
LINE
  5
1675
100
AcDbEntity
  8
MSL5_360_3F-0
100
AcDbLine
 10
686.582286
 20
-215.637876
 30
0.0
 11
685.582286
 21
-214.637876
 31
0.0
  0
LINE
  5
1676
100
AcDbEntity
  8
MSL5_360_3F-0
100
AcDbLine
 10
639.782286
 20
119.0
 30
0.0
 11
639.782286
 21
-38.0
 31
0.0
  0
LINE
  5
1677
100
AcDbEntity
  8
MSL5_360_3F-7
100
AcDbLine
 10
537.782286
 20
21.276411
 30
0.0
 11
537.782286
 21
-22.911119
 31
0.0
  0
LINE
  5
1678
100
AcDbEntity
  8
MSL5_360_3F-7
100
AcDbLine
 10
567.782286
 20
-30.0
 30
0.0
 11
574.513076
 21
-30.0
 31
0.0
  0
LINE
  5
1679
100
AcDbEntity
  8
MSL5_360_3F-7
100
AcDbLine
 10
507.782286
 20
-30.0
 30
0.0
 11
507.782286
 21
-23.26921
 31
0.0
  0
LINE
  5
167A
100
AcDbEntity
  8
MSL5_360_3F-7
100
AcDbLine
 10
507.782286
 20
-30.0
 30
0.0
 11
501.051496
 21
-30.0
 31
0.0
  0
ARC
  5
167B
100
AcDbEntity
  8
MSL5_360_3F-4
100
AcDbCircle
 10
507.782286
 20
-30.0
 30
0.0
 40
5.0
100
AcDbArc
 50
82.606248
 51
7.300134
  0
CIRCLE
  5
167C
100
AcDbEntity
  8
MSL5_360_3F-0
100
AcDbCircle
 10
507.782286
 20
-30.0
 30
0.0
 40
4.25
  0
LINE
  5
167D
100
AcDbEntity
  8
MSL5_360_3F-7
100
AcDbLine
 10
507.782286
 20
-30.0
 30
0.0
 11
507.782286
 21
-36.73079
 31
0.0
  0
LINE
  5
167E
100
AcDbEntity
  8
MSL5_360_3F-7
100
AcDbLine
 10
507.782286
 20
-30.0
 30
0.0
 11
514.513076
 21
-30.0
 31
0.0
  0
LINE
  5
167F
100
AcDbEntity
  8
MSL5_360_3F-7
100
AcDbLine
 10
567.782286
 20
-30.0
 30
0.0
 11
567.782286
 21
-23.26921
 31
0.0
  0
LINE
  5
1680
100
AcDbEntity
  8
MSL5_360_3F-7
100
AcDbLine
 10
537.782286
 20
-30.0
 30
0.0
 11
537.782286
 21
-22.911119
 31
0.0
  0
LINE
  5
1681
100
AcDbEntity
  8
MSL5_360_3F-7
100
AcDbLine
 10
537.782286
 20
-30.0
 30
0.0
 11
544.871167
 21
-30.0
 31
0.0
  0
CIRCLE
  5
1682
100
AcDbEntity
  8
MSL5_360_3F-0
100
AcDbCircle
 10
537.782286
 20
-30.0
 30
0.0
 40
5.0
  0
LINE
  5
1683
100
AcDbEntity
  8
MSL5_360_3F-7
100
AcDbLine
 10
537.782286
 20
-30.0
 30
0.0
 11
537.782286
 21
-37.088881
 31
0.0
  0
LINE
  5
1684
100
AcDbEntity
  8
MSL5_360_3F-7
100
AcDbLine
 10
537.782286
 20
-30.0
 30
0.0
 11
530.693405
 21
-30.0
 31
0.0
  0
LINE
  5
1685
100
AcDbEntity
  8
MSL5_360_3F-7
100
AcDbLine
 10
567.782286
 20
-30.0
 30
0.0
 11
561.051496
 21
-30.0
 31
0.0
  0
LINE
  5
1686
100
AcDbEntity
  8
MSL5_360_3F-7
100
AcDbLine
 10
567.782286
 20
-30.0
 30
0.0
 11
567.782286
 21
-36.73079
 31
0.0
  0
CIRCLE
  5
1687
100
AcDbEntity
  8
MSL5_360_3F-0
100
AcDbCircle
 10
567.782286
 20
-30.0
 30
0.0
 40
4.25
  0
ARC
  5
1688
100
AcDbEntity
  8
MSL5_360_3F-4
100
AcDbCircle
 10
567.782286
 20
-30.0
 30
0.0
 40
5.0
100
AcDbArc
 50
82.606248
 51
7.300134
  0
LINE
  5
1689
100
AcDbEntity
  8
MSL5_360_3F-0
100
AcDbLine
 10
597.797534
 20
-103.245947
 30
0.0
 11
639.782286
 21
-103.245947
 31
0.0
  0
LINE
  5
168A
100
AcDbEntity
  8
MSL5_360_3F-0
100
AcDbLine
 10
599.746786
 20
-104.245876
 30
0.0
 11
639.282286
 21
-104.245876
 31
0.0
  0
ELLIPSE
  5
168B
100
AcDbEntity
  8
MSL5_360_3F-0
100
AcDbEllipse
 10
595.782286
 20
-107.166177
 30
0.0
 11
-2.000000000006366
 21
0.0
 31
0.0
210
0.0
220
0.0
230
1.0
 40
0.766044
 41
0.0000000000000742
 42
6.283185307179675
  0
LINE
  5
168C
100
AcDbEntity
  8
MSL5_360_3F-0
100
AcDbLine
 10
595.782284
 20
-105.880593
 30
0.0
 11
593.782286
 21
-107.166171
 31
0.0
  0
ELLIPSE
  5
168D
100
AcDbEntity
  8
MSL5_360_3F-0
100
AcDbEllipse
 10
595.782289
 20
-108.901695
 30
0.0
 11
-5.499999999998862
 21
-0.0000090659721428
 31
0.0
210
0.0
220
0.0
230
-1.0
 40
0.766044
 41
3.141592653589784
 42
6.283185307179642
  0
ELLIPSE
  5
168E
100
AcDbEntity
  8
MSL5_360_3F-0
100
AcDbEllipse
 10
595.782286
 20
-107.166177
 30
0.0
 11
-5.500000000006366
 21
0.0
 31
0.0
210
0.0
220
0.0
230
1.0
 40
0.766044
 41
0.000000000000054
 42
6.283185307179654
  0
LINE
  5
168F
100
AcDbEntity
  8
MSL5_360_3F-7
100
AcDbLine
 10
604.282286
 20
-107.166165
 30
0.0
 11
587.282286
 21
-107.166179
 31
0.0
1001
GENIUS_GENODEF_13
1002
{
1000
HIER
1070
     0
1002
}
1002
{
1000
MANEDIT
1070
     0
1002
}
1002
{
1000
NOSEL
1070
     0
1002
}
1002
{
1000
BEHIND
1070
     0
1002
}
1002
{
1000
REACTOR
1002
}
1001
GENIUS_GENOBJ-N-CEN_13
1002
{
1000
OWNER
1000
GEN
1002
}
  0
LINE
  5
1690
100
AcDbEntity
  8
MSL5_360_3F-0
100
AcDbLine
 10
590.282289
 20
-108.901704
 30
0.0
 11
590.282286
 21
-107.166177
 31
0.0
  0
LINE
  5
1691
100
AcDbEntity
  8
MSL5_360_3F-7
100
AcDbLine
 10
595.782286
 20
-114.379421
 30
0.0
 11
595.782286
 21
-99.952933
 31
0.0
1001
GENIUS_GENODEF_13
1002
{
1000
HIER
1070
     0
1002
}
1002
{
1000
MANEDIT
1070
     0
1002
}
1002
{
1000
NOSEL
1070
     0
1002
}
1002
{
1000
BEHIND
1070
     0
1002
}
1002
{
1000
REACTOR
1002
}
1001
GENIUS_GENOBJ-N-CEN_13
1002
{
1000
OWNER
1000
GEN
1002
}
  0
LINE
  5
1692
100
AcDbEntity
  8
MSL5_360_3F-0
100
AcDbLine
 10
601.282289
 20
-108.901695
 30
0.0
 11
601.282286
 21
-107.16615
 31
0.0
  0
LINE
  5
1693
100
AcDbEntity
  8
MSL5_360_3F-0
100
AcDbLine
 10
597.782286
 20
-107.166159
 30
0.0
 11
595.782284
 21
-105.880593
 31
0.0
  0
LINE
  5
1694
100
AcDbEntity
  8
MSL5_360_3F-0
100
AcDbLine
 10
657.782286
 20
-13.5
 30
0.0
 11
639.782286
 21
-13.5
 31
0.0
  0
LINE
  5
1695
100
AcDbEntity
  8
MSL5_360_3F-0
100
AcDbLine
 10
657.782286
 20
-12.5
 30
0.0
 11
657.782286
 21
-13.5
 31
0.0
  0
LINE
  5
1696
100
AcDbEntity
  8
MSL5_360_3F-0
100
AcDbLine
 10
658.782286
 20
-12.5
 30
0.0
 11
657.782286
 21
-13.5
 31
0.0
  0
LINE
  5
1697
100
AcDbEntity
  8
MSL5_360_3F-7
100
AcDbLine
 10
567.782286
 20
30.0
 30
0.0
 11
574.624999
 21
30.0
 31
0.0
  0
LINE
  5
1698
100
AcDbEntity
  8
MSL5_360_3F-7
100
AcDbLine
 10
507.782286
 20
30.0
 30
0.0
 11
507.782286
 21
36.842713
 31
0.0
  0
LINE
  5
1699
100
AcDbEntity
  8
MSL5_360_3F-7
100
AcDbLine
 10
507.782286
 20
30.0
 30
0.0
 11
500.939573
 21
30.0
 31
0.0
  0
ARC
  5
169A
100
AcDbEntity
  8
MSL5_360_3F-4
100
AcDbCircle
 10
507.782286
 20
30.0
 30
0.0
 40
5.0
100
AcDbArc
 50
82.606248
 51
7.300134
  0
CIRCLE
  5
169B
100
AcDbEntity
  8
MSL5_360_3F-0
100
AcDbCircle
 10
507.782286
 20
30.0
 30
0.0
 40
4.25
  0
LINE
  5
169C
100
AcDbEntity
  8
MSL5_360_3F-7
100
AcDbLine
 10
507.782286
 20
30.0
 30
0.0
 11
507.782286
 21
23.157287
 31
0.0
  0
LINE
  5
169D
100
AcDbEntity
  8
MSL5_360_3F-7
100
AcDbLine
 10
507.782286
 20
30.0
 30
0.0
 11
514.624999
 21
30.0
 31
0.0
  0
LINE
  5
169E
100
AcDbEntity
  8
MSL5_360_3F-7
100
AcDbLine
 10
567.782286
 20
30.0
 30
0.0
 11
567.782286
 21
36.842713
 31
0.0
  0
LINE
  5
169F
100
AcDbEntity
  8
MSL5_360_3F-7
100
AcDbLine
 10
537.782286
 20
30.0
 30
0.0
 11
537.782286
 21
37.139749
 31
0.0
  0
LINE
  5
16A0
100
AcDbEntity
  8
MSL5_360_3F-7
100
AcDbLine
 10
537.782286
 20
30.0
 30
0.0
 11
544.922035
 21
30.0
 31
0.0
  0
CIRCLE
  5
16A1
100
AcDbEntity
  8
MSL5_360_3F-0
100
AcDbCircle
 10
537.782286
 20
30.0
 30
0.0
 40
5.0
  0
LINE
  5
16A2
100
AcDbEntity
  8
MSL5_360_3F-7
100
AcDbLine
 10
537.782286
 20
30.0
 30
0.0
 11
537.782286
 21
22.860251
 31
0.0
  0
LINE
  5
16A3
100
AcDbEntity
  8
MSL5_360_3F-7
100
AcDbLine
 10
537.782286
 20
30.0
 30
0.0
 11
530.642537
 21
30.0
 31
0.0
  0
LINE
  5
16A4
100
AcDbEntity
  8
MSL5_360_3F-7
100
AcDbLine
 10
567.782286
 20
30.0
 30
0.0
 11
560.939573
 21
30.0
 31
0.0
  0
LINE
  5
16A5
100
AcDbEntity
  8
MSL5_360_3F-7
100
AcDbLine
 10
567.782286
 20
30.0
 30
0.0
 11
567.782286
 21
23.157287
 31
0.0
  0
CIRCLE
  5
16A6
100
AcDbEntity
  8
MSL5_360_3F-0
100
AcDbCircle
 10
567.782286
 20
30.0
 30
0.0
 40
4.25
  0
ARC
  5
16A7
100
AcDbEntity
  8
MSL5_360_3F-4
100
AcDbCircle
 10
567.782286
 20
30.0
 30
0.0
 40
5.0
100
AcDbArc
 50
82.606248
 51
7.300134
  0
LINE
  5
16A8
100
AcDbEntity
  8
MSL5_360_3F-0
100
AcDbLine
 10
639.282286
 20
38.0
 30
0.0
 11
639.282286
 21
87.575422
 31
0.0
  0
LINE
  5
16A9
100
AcDbEntity
  8
MSL5_360_3F-0
100
AcDbLine
 10
639.282286
 20
38.0
 30
0.0
 11
609.282286
 21
38.0
 31
0.0
  0
LINE
  5
16AA
100
AcDbEntity
  8
MSL5_360_3F-4
100
AcDbLine
 10
639.282286
 20
40.0
 30
0.0
 11
609.282286
 21
40.0
 31
0.0
  0
LINE
  5
16AB
100
AcDbEntity
  8
MSL5_360_3F-0
100
AcDbLine
 10
609.282286
 20
40.0
 30
0.0
 11
604.282286
 21
40.0
 31
0.0
  0
LINE
  5
16AC
100
AcDbEntity
  8
MSL5_360_3F-0
100
AcDbLine
 10
604.282286
 20
38.0
 30
0.0
 11
604.282286
 21
40.0
 31
0.0
  0
LINE
  5
16AD
100
AcDbEntity
  8
MSL5_360_3F-0
100
AcDbLine
 10
601.282286
 20
38.0
 30
0.0
 11
604.282286
 21
38.0
 31
0.0
  0
LINE
  5
16AE
100
AcDbEntity
  8
MSL5_360_3F-0
100
AcDbLine
 10
609.282286
 20
38.0
 30
0.0
 11
609.282286
 21
40.0
 31
0.0
  0
LINE
  5
16AF
100
AcDbEntity
  8
MSL5_360_3F-0
100
AcDbLine
 10
639.782286
 20
13.5
 30
0.0
 11
657.782286
 21
13.5
 31
0.0
  0
LINE
  5
16B0
100
AcDbEntity
  8
MSL5_360_3F-0
100
AcDbLine
 10
657.782286
 20
13.5
 30
0.0
 11
658.782286
 21
12.5
 31
0.0
  0
LINE
  5
16B1
100
AcDbEntity
  8
MSL5_360_3F-0
100
AcDbLine
 10
657.782286
 20
13.5
 30
0.0
 11
657.782286
 21
12.5
 31
0.0
  0
LINE
  5
16B2
100
AcDbEntity
  8
MSL5_360_3F-7
100
AcDbLine
 10
633.094724
 20
52.0
 30
0.0
 11
647.216591
 21
52.0
 31
0.0
  0
LINE
  5
16B3
100
AcDbEntity
  8
MSL5_360_3F-0
100
AcDbLine
 10
642.782286
 20
44.638785
 30
0.0
 11
642.782286
 21
59.361216
 31
0.0
  0
ARC
  5
16B4
100
AcDbEntity
  8
MSL5_360_3F-0
100
AcDbCircle
 10
632.147564
 20
52.0
 30
0.0
 40
10.634722
100
AcDbArc
 50
332.518773
 51
27.481227
  0
LINE
  5
16B5
100
AcDbEntity
  8
MSL5_360_3F-0
100
AcDbLine
 10
641.582286
 20
47.092523
 30
0.0
 11
639.782286
 21
47.092523
 31
0.0
  0
LINE
  5
16B6
100
AcDbEntity
  8
MSL5_360_3F-0
100
AcDbLine
 10
641.601357
 20
42.2
 30
0.0
 11
639.782286
 21
42.2
 31
0.0
  0
ARC
  5
16B7
100
AcDbEntity
  8
MSL5_360_3F-0
100
AcDbCircle
 10
639.673605
 20
44.638785
 30
0.0
 40
3.108681
100
AcDbArc
 50
307.878144
 51
52.121856
  0
LINE
  5
16B8
100
AcDbEntity
  8
MSL5_360_3F-0
100
AcDbLine
 10
639.782286
 20
61.8
 30
0.0
 11
641.601357
 21
61.8
 31
0.0
  0
LINE
  5
16B9
100
AcDbEntity
  8
MSL5_360_3F-0
100
AcDbLine
 10
641.582286
 20
56.907478
 30
0.0
 11
639.782286
 21
56.907478
 31
0.0
  0
ARC
  5
16BA
100
AcDbEntity
  8
MSL5_360_3F-0
100
AcDbCircle
 10
639.673605
 20
59.361216
 30
0.0
 40
3.108681
100
AcDbArc
 50
307.878144
 51
52.121856
  0
LINE
  5
16BB
100
AcDbEntity
  8
MSL5_360_3F-0
100
AcDbLine
 10
615.582286
 20
101.716749
 30
0.0
 11
639.282286
 21
101.716749
 31
0.0
  0
LINE
  5
16BC
100
AcDbEntity
  8
MSL5_360_3F-0
100
AcDbLine
 10
639.282286
 20
87.575422
 30
0.0
 11
615.582286
 21
87.575422
 31
0.0
  0
LINE
  5
16BD
100
AcDbEntity
  8
MSL5_360_3F-7
100
AcDbLine
 10
616.203786
 20
94.646085
 30
0.0
 11
635.360786
 21
94.646085
 31
0.0
1001
GENIUS_GENODEF_13
1002
{
1000
HIER
1070
     0
1002
}
1002
{
1000
MANEDIT
1070
     0
1002
}
1002
{
1000
NOSEL
1070
     0
1002
}
1002
{
1000
BEHIND
1070
     0
1002
}
1002
{
1000
REACTOR
1002
}
1001
GENIUS_GENOBJ-N-CEN_13
1002
{
1000
OWNER
1000
GEN
1002
}
  0
LINE
  5
16BE
100
AcDbEntity
  8
MSL5_360_3F-0
100
AcDbLine
 10
615.582286
 20
87.575422
 30
0.0
 11
615.582286
 21
101.716749
 31
0.0
  0
LINE
  5
16BF
100
AcDbEntity
  8
MSL5_360_3F-7
100
AcDbLine
 10
625.782286
 20
101.874664
 30
0.0
 11
625.782286
 21
87.417507
 31
0.0
1001
GENIUS_GENODEF_13
1002
{
1000
HIER
1070
     0
1002
}
1002
{
1000
MANEDIT
1070
     0
1002
}
1002
{
1000
NOSEL
1070
     0
1002
}
1002
{
1000
BEHIND
1070
     0
1002
}
1002
{
1000
REACTOR
1002
}
1001
GENIUS_GENOBJ-N-CEN_13
1002
{
1000
OWNER
1000
GEN
1002
}
  0
ELLIPSE
  5
16C0
100
AcDbEntity
  8
MSL5_360_3F-0
100
AcDbEllipse
 10
625.782286
 20
94.646085
 30
0.0
 11
-5.722384999999974
 21
0.0
 31
0.0
210
0.0
220
0.0
230
1.0
 40
0.642788
 41
0.0000000000000618
 42
6.283185307179662
  0
ELLIPSE
  5
16C1
100
AcDbEntity
  8
MSL5_360_3F-4
100
AcDbEllipse
 10
625.782286
 20
94.646085
 30
0.0
 11
-6.57850000000014
 21
0.0000000000001811
 31
0.0
210
0.0
220
0.0
230
1.0
 40
0.642788
 41
1.514618869528146
 42
6.418462237827103
  0
LINE
  5
16C2
100
AcDbEntity
  8
MSL5_360_3F-0
100
AcDbLine
 10
639.282286
 20
119.0
 30
0.0
 11
639.782286
 21
119.0
 31
0.0
  0
LINE
  5
16C3
100
AcDbEntity
  8
MSL5_360_3F-0
100
AcDbLine
 10
639.282286
 20
101.716749
 30
0.0
 11
639.282286
 21
120.0
 31
0.0
  0
LINE
  5
16C4
100
AcDbEntity
  8
MSL5_360_3F-0
100
AcDbLine
 10
1022.782286
 20
-253.245947
 30
0.0
 11
1022.782286
 21
-103.245947
 31
0.0
  0
LINE
  5
16C5
100
AcDbEntity
  8
MSL5_360_3F-0
100
AcDbLine
 10
1047.782286
 20
-103.245947
 30
0.0
 11
1047.782286
 21
-253.245947
 31
0.0
  0
LINE
  5
16C6
100
AcDbEntity
  8
MSL5_360_3F-7
100
AcDbLine
 10
1039.782286
 20
-131.663819
 30
0.0
 11
1039.782286
 21
-100.245876
 31
0.0
  0
LINE
  5
16C7
100
AcDbEntity
  8
MSL5_360_3F-3
100
AcDbLine
 10
1043.970286
 20
-103.245876
 30
0.0
 11
1043.970286
 21
-126.245876
 31
0.0
  0
LINE
  5
16C8
100
AcDbEntity
  8
MSL5_360_3F-3
100
AcDbLine
 10
1035.594286
 20
-103.245876
 30
0.0
 11
1035.594286
 21
-126.245876
 31
0.0
  0
LINE
  5
16C9
100
AcDbEntity
  8
MSL5_360_3F-3
100
AcDbLine
 10
1034.782286
 20
-103.245876
 30
0.0
 11
1034.782286
 21
-120.245876
 31
0.0
  0
LINE
  5
16CA
100
AcDbEntity
  8
MSL5_360_3F-3
100
AcDbLine
 10
1044.782286
 20
-103.245876
 30
0.0
 11
1044.782286
 21
-120.245876
 31
0.0
  0
LINE
  5
16CB
100
AcDbEntity
  8
MSL5_360_3F-0
100
AcDbLine
 10
1006.782286
 20
-130.245947
 30
0.0
 11
1018.782286
 21
-130.245947
 31
0.0
  0
LINE
  5
16CC
100
AcDbEntity
  8
MSL5_360_3F-0
100
AcDbLine
 10
1006.782286
 20
-122.245947
 30
0.0
 11
1018.782286
 21
-122.245947
 31
0.0
  0
ARC
  5
16CD
100
AcDbEntity
  8
MSL5_360_3F-0
100
AcDbCircle
 10
1005.344451
 20
-131.875113
 30
0.0
 40
2.562165
100
AcDbArc
 50
132.916662
 51
227.083338
  0
LINE
  5
16CE
100
AcDbEntity
  8
MSL5_360_3F-0
100
AcDbLine
 10
1002.782286
 20
-131.875113
 30
0.0
 11
1002.782286
 21
-120.616782
 31
0.0
  0
LINE
  5
16CF
100
AcDbEntity
  8
MSL5_360_3F-0
100
AcDbLine
 10
1006.782286
 20
-133.751501
 30
0.0
 11
1006.782286
 21
-118.740394
 31
0.0
  0
LINE
  5
16D0
100
AcDbEntity
  8
MSL5_360_3F-0
100
AcDbLine
 10
1003.599786
 20
-133.751501
 30
0.0
 11
1006.782286
 21
-133.751501
 31
0.0
  0
LINE
  5
16D1
100
AcDbEntity
  8
MSL5_360_3F-0
100
AcDbLine
 10
1006.782286
 20
-118.740394
 30
0.0
 11
1003.599786
 21
-118.740394
 31
0.0
  0
LINE
  5
16D2
100
AcDbEntity
  8
MSL5_360_3F-0
100
AcDbLine
 10
1003.599786
 20
-129.998724
 30
0.0
 11
1006.782286
 21
-129.998724
 31
0.0
  0
LINE
  5
16D3
100
AcDbEntity
  8
MSL5_360_3F-0
100
AcDbLine
 10
1003.599786
 20
-122.493171
 30
0.0
 11
1006.782286
 21
-122.493171
 31
0.0
  0
ARC
  5
16D4
100
AcDbEntity
  8
MSL5_360_3F-0
100
AcDbCircle
 10
1011.804696
 20
-126.245947
 30
0.0
 40
9.02241
100
AcDbArc
 50
155.421502
 51
204.578498
  0
ARC
  5
16D5
100
AcDbEntity
  8
MSL5_360_3F-0
100
AcDbCircle
 10
1005.344451
 20
-120.616782
 30
0.0
 40
2.562165
100
AcDbArc
 50
132.916662
 51
227.083338
  0
LINE
  5
16D6
100
AcDbEntity
  8
MSL5_360_3F-3
100
AcDbLine
 10
1034.782286
 20
-253.245876
 30
0.0
 11
1034.782286
 21
-236.245876
 31
0.0
  0
LINE
  5
16D7
100
AcDbEntity
  8
MSL5_360_3F-3
100
AcDbLine
 10
1044.782286
 20
-253.245876
 30
0.0
 11
1044.782286
 21
-236.245876
 31
0.0
  0
LINE
  5
16D8
100
AcDbEntity
  8
MSL5_360_3F-7
100
AcDbLine
 10
1039.782286
 20
-224.827933
 30
0.0
 11
1039.782286
 21
-256.245876
 31
0.0
  0
LINE
  5
16D9
100
AcDbEntity
  8
MSL5_360_3F-3
100
AcDbLine
 10
1035.594286
 20
-253.245876
 30
0.0
 11
1035.594286
 21
-230.245876
 31
0.0
  0
LINE
  5
16DA
100
AcDbEntity
  8
MSL5_360_3F-3
100
AcDbLine
 10
1043.970286
 20
-253.245876
 30
0.0
 11
1043.970286
 21
-230.245876
 31
0.0
  0
LINE
  5
16DB
100
AcDbEntity
  8
MSL5_360_3F-0
100
AcDbLine
 10
1047.782286
 20
-253.245947
 30
0.0
 11
1022.782286
 21
-253.245947
 31
0.0
  0
LINE
  5
16DC
100
AcDbEntity
  8
MSL5_360_3F-3
100
AcDbLine
 10
1029.782286
 20
-199.245876
 30
0.0
 11
1029.782286
 21
-217.245876
 31
0.0
  0
LINE
  5
16DD
100
AcDbEntity
  8
MSL5_360_3F-7
100
AcDbLine
 10
1022.782286
 20
-226.245876
 30
0.0
 11
1038.782286
 21
-226.245876
 31
0.0
  0
LINE
  5
16DE
100
AcDbEntity
  8
MSL5_360_3F-3
100
AcDbLine
 10
1043.970286
 20
-230.245876
 30
0.0
 11
1035.594286
 21
-230.245876
 31
0.0
  0
LINE
  5
16DF
100
AcDbEntity
  8
MSL5_360_3F-3
100
AcDbLine
 10
1034.782286
 20
-236.245876
 30
0.0
 11
1044.782286
 21
-236.245876
 31
0.0
  0
LINE
  5
16E0
100
AcDbEntity
  8
MSL5_360_3F-3
100
AcDbLine
 10
1029.782286
 20
-213.745876
 30
0.0
 11
1047.782286
 21
-213.745876
 31
0.0
  0
LINE
  5
16E1
100
AcDbEntity
  8
MSL5_360_3F-7
100
AcDbLine
 10
1049.782286
 20
-208.245876
 30
0.0
 11
1020.782286
 21
-208.245876
 31
0.0
  0
LINE
  5
16E2
100
AcDbEntity
  8
MSL5_360_3F-3
100
AcDbLine
 10
1039.782286
 20
-227.827933
 30
0.0
 11
1035.594286
 21
-230.245876
 31
0.0
  0
LINE
  5
16E3
100
AcDbEntity
  8
MSL5_360_3F-7
100
AcDbLine
 10
1030.782286
 20
-234.245876
 30
0.0
 11
1030.782286
 21
-218.245876
 31
0.0
  0
ARC
  5
16E4
100
AcDbEntity
  8
MSL5_360_3F-3
100
AcDbCircle
 10
1030.782286
 20
-226.245876
 30
0.0
 40
5.0
100
AcDbArc
 50
280.0
 51
210.0
  0
CIRCLE
  5
16E5
100
AcDbEntity
  8
MSL5_360_3F-3
100
AcDbCircle
 10
1030.782286
 20
-226.245876
 30
0.0
 40
4.188
  0
LINE
  5
16E6
100
AcDbEntity
  8
MSL5_360_3F-3
100
AcDbLine
 10
1029.782286
 20
-217.245876
 30
0.0
 11
1022.782286
 21
-217.245876
 31
0.0
  0
LINE
  5
16E7
100
AcDbEntity
  8
MSL5_360_3F-3
100
AcDbLine
 10
1039.782286
 20
-227.827933
 30
0.0
 11
1043.970286
 21
-230.245876
 31
0.0
  0
LINE
  5
16E8
100
AcDbEntity
  8
MSL5_360_3F-3
100
AcDbLine
 10
1029.782286
 20
-202.745876
 30
0.0
 11
1047.782286
 21
-202.745876
 31
0.0
  0
LINE
  5
16E9
100
AcDbEntity
  8
MSL5_360_3F-0
100
AcDbLine
 10
1047.782286
 20
-190.798058
 30
0.0
 11
1022.782286
 21
-190.798058
 31
0.0
  0
LINE
  5
16EA
100
AcDbEntity
  8
MSL5_360_3F-3
100
AcDbLine
 10
1022.782286
 20
-199.245876
 30
0.0
 11
1029.782286
 21
-199.245876
 31
0.0
  0
LINE
  5
16EB
100
AcDbEntity
  8
MSL5_360_3F-3
100
AcDbLine
 10
1022.782286
 20
-153.245876
 30
0.0
 11
1047.782286
 21
-153.245876
 31
0.0
  0
LINE
  5
16EC
100
AcDbEntity
  8
MSL5_360_3F-0
100
AcDbLine
 10
1047.782286
 20
-165.693835
 30
0.0
 11
1022.782286
 21
-165.693835
 31
0.0
  0
LINE
  5
16ED
100
AcDbEntity
  8
MSL5_360_3F-7
100
AcDbLine
 10
1049.782286
 20
-148.245876
 30
0.0
 11
1020.782286
 21
-148.245876
 31
0.0
  0
LINE
  5
16EE
100
AcDbEntity
  8
MSL5_360_3F-7
100
AcDbLine
 10
1022.782286
 20
-130.245876
 30
0.0
 11
1038.782286
 21
-130.245876
 31
0.0
  0
LINE
  5
16EF
100
AcDbEntity
  8
MSL5_360_3F-3
100
AcDbLine
 10
1043.970286
 20
-126.245876
 30
0.0
 11
1035.594286
 21
-126.245876
 31
0.0
  0
LINE
  5
16F0
100
AcDbEntity
  8
MSL5_360_3F-3
100
AcDbLine
 10
1034.782286
 20
-120.245876
 30
0.0
 11
1044.782286
 21
-120.245876
 31
0.0
  0
LINE
  5
16F1
100
AcDbEntity
  8
MSL5_360_3F-3
100
AcDbLine
 10
1022.782286
 20
-143.245876
 30
0.0
 11
1047.782286
 21
-143.245876
 31
0.0
  0
LINE
  5
16F2
100
AcDbEntity
  8
MSL5_360_3F-3
100
AcDbLine
 10
1039.782286
 20
-128.663819
 30
0.0
 11
1035.594286
 21
-126.245876
 31
0.0
  0
ARC
  5
16F3
100
AcDbEntity
  8
MSL5_360_3F-0
100
AcDbCircle
 10
1020.48923
 20
-131.875113
 30
0.0
 40
2.293056
100
AcDbArc
 50
305.085848
 51
54.914152
  0
LINE
  5
16F4
100
AcDbEntity
  8
MSL5_360_3F-0
100
AcDbLine
 10
1022.782286
 20
-120.616782
 30
0.0
 11
1022.782286
 21
-131.875113
 31
0.0
  0
LINE
  5
16F5
100
AcDbEntity
  8
MSL5_360_3F-7
100
AcDbLine
 10
1030.782286
 20
-138.245876
 30
0.0
 11
1030.782286
 21
-122.245876
 31
0.0
  0
CIRCLE
  5
16F6
100
AcDbEntity
  8
MSL5_360_3F-3
100
AcDbCircle
 10
1030.782286
 20
-130.245876
 30
0.0
 40
4.188
  0
ARC
  5
16F7
100
AcDbEntity
  8
MSL5_360_3F-3
100
AcDbCircle
 10
1030.782286
 20
-130.245876
 30
0.0
 40
5.0
100
AcDbArc
 50
280.0
 51
210.0
  0
LINE
  5
16F8
100
AcDbEntity
  8
MSL5_360_3F-0
100
AcDbLine
 10
1018.782286
 20
-120.616782
 30
0.0
 11
1018.782286
 21
-131.875113
 31
0.0
  0
ARC
  5
16F9
100
AcDbEntity
  8
MSL5_360_3F-0
100
AcDbCircle
 10
1021.075342
 20
-131.875113
 30
0.0
 40
2.293056
100
AcDbArc
 50
125.085847
 51
234.914153
  0
LINE
  5
16FA
100
AcDbEntity
  8
MSL5_360_3F-0
100
AcDbLine
 10
1019.757286
 20
-133.751501
 30
0.0
 11
1021.807286
 21
-133.751501
 31
0.0
  0
ARC
  5
16FB
100
AcDbEntity
  8
MSL5_360_3F-0
100
AcDbCircle
 10
1015.072564
 20
-126.245947
 30
0.0
 40
7.709722
100
AcDbArc
 50
330.872218
 51
29.127782
  0
ARC
  5
16FC
100
AcDbEntity
  8
MSL5_360_3F-0
100
AcDbCircle
 10
1020.48923
 20
-120.616782
 30
0.0
 40
2.293056
100
AcDbArc
 50
305.085848
 51
54.914152
  0
LINE
  5
16FD
100
AcDbEntity
  8
MSL5_360_3F-0
100
AcDbLine
 10
1019.757286
 20
-118.740394
 30
0.0
 11
1021.807286
 21
-118.740394
 31
0.0
  0
LINE
  5
16FE
100
AcDbEntity
  8
MSL5_360_3F-0
100
AcDbLine
 10
1019.757286
 20
-129.998724
 30
0.0
 11
1021.807286
 21
-129.998724
 31
0.0
  0
LINE
  5
16FF
100
AcDbEntity
  8
MSL5_360_3F-0
100
AcDbLine
 10
1019.757286
 20
-122.493171
 30
0.0
 11
1021.807286
 21
-122.493171
 31
0.0
  0
ARC
  5
1700
100
AcDbEntity
  8
MSL5_360_3F-0
100
AcDbCircle
 10
1026.492008
 20
-126.245947
 30
0.0
 40
7.709722
100
AcDbArc
 50
150.872216
 51
209.127784
  0
ARC
  5
1701
100
AcDbEntity
  8
MSL5_360_3F-0
100
AcDbCircle
 10
1021.075342
 20
-120.616782
 30
0.0
 40
2.293056
100
AcDbArc
 50
125.085847
 51
234.914153
  0
LINE
  5
1702
100
AcDbEntity
  8
MSL5_360_3F-3
100
AcDbLine
 10
1039.782286
 20
-128.663819
 30
0.0
 11
1043.970286
 21
-126.245876
 31
0.0
  0
LINE
  5
1703
100
AcDbEntity
  8
MSL5_360_3F-0
100
AcDbLine
 10
1006.782286
 20
56.0
 30
0.0
 11
1018.782286
 21
56.0
 31
0.0
  0
LINE
  5
1704
100
AcDbEntity
  8
MSL5_360_3F-0
100
AcDbLine
 10
1018.782286
 20
48.0
 30
0.0
 11
1006.782286
 21
48.0
 31
0.0
  0
LINE
  5
1705
100
AcDbEntity
  8
MSL5_360_3F-7
100
AcDbLine
 10
1000.383064
 20
52.0
 30
0.0
 11
1048.901033
 21
52.0
 31
0.0
  0
ARC
  5
1706
100
AcDbEntity
  8
MSL5_360_3F-0
100
AcDbCircle
 10
1011.804696
 20
52.0
 30
0.0
 40
9.02241
100
AcDbArc
 50
155.421502
 51
204.578498
  0
LINE
  5
1707
100
AcDbEntity
  8
MSL5_360_3F-0
100
AcDbLine
 10
1002.782286
 20
57.629166
 30
0.0
 11
1002.782286
 21
46.370835
 31
0.0
  0
LINE
  5
1708
100
AcDbEntity
  8
MSL5_360_3F-0
100
AcDbLine
 10
1006.782286
 20
59.505554
 30
0.0
 11
1006.782286
 21
44.494447
 31
0.0
  0
LINE
  5
1709
100
AcDbEntity
  8
MSL5_360_3F-0
100
AcDbLine
 10
1003.599786
 20
48.247224
 30
0.0
 11
1006.782286
 21
48.247224
 31
0.0
  0
LINE
  5
170A
100
AcDbEntity
  8
MSL5_360_3F-0
100
AcDbLine
 10
1006.782286
 20
44.494447
 30
0.0
 11
1003.599786
 21
44.494447
 31
0.0
  0
ARC
  5
170B
100
AcDbEntity
  8
MSL5_360_3F-0
100
AcDbCircle
 10
1005.344451
 20
46.370835
 30
0.0
 40
2.562165
100
AcDbArc
 50
132.916662
 51
227.083338
  0
LINE
  5
170C
100
AcDbEntity
  8
MSL5_360_3F-0
100
AcDbLine
 10
1003.599786
 20
59.505554
 30
0.0
 11
1006.782286
 21
59.505554
 31
0.0
  0
LINE
  5
170D
100
AcDbEntity
  8
MSL5_360_3F-0
100
AcDbLine
 10
1003.599786
 20
55.752777
 30
0.0
 11
1006.782286
 21
55.752777
 31
0.0
  0
ARC
  5
170E
100
AcDbEntity
  8
MSL5_360_3F-0
100
AcDbCircle
 10
1005.344451
 20
57.629166
 30
0.0
 40
2.562165
100
AcDbArc
 50
132.916662
 51
227.083338
  0
LINE
  5
170F
100
AcDbEntity
  8
MSL5_360_3F-0
100
AcDbLine
 10
1022.782286
 20
119.0
 30
0.0
 11
1022.782286
 21
-39.0
 31
0.0
  0
LINE
  5
1710
100
AcDbEntity
  8
MSL5_360_3F-0
100
AcDbLine
 10
1047.782286
 20
119.0
 30
0.0
 11
1047.782286
 21
-39.0
 31
0.0
  0
LINE
  5
1711
100
AcDbEntity
  8
MSL5_360_3F-0
100
AcDbLine
 10
1022.782286
 20
-103.245947
 30
0.0
 11
1047.782286
 21
-103.245947
 31
0.0
  0
LINE
  5
1712
100
AcDbEntity
  8
MSL5_360_3F-3
100
AcDbLine
 10
1026.594286
 20
-39.0
 30
0.0
 11
1026.594286
 21
-16.0
 31
0.0
  0
LINE
  5
1713
100
AcDbEntity
  8
MSL5_360_3F-3
100
AcDbLine
 10
1026.594286
 20
-39.0
 30
0.0
 11
1026.594286
 21
-16.0
 31
0.0
  0
LINE
  5
1714
100
AcDbEntity
  8
MSL5_360_3F-3
100
AcDbLine
 10
1025.782286
 20
-39.0
 30
0.0
 11
1025.782286
 21
-22.0
 31
0.0
  0
LINE
  5
1715
100
AcDbEntity
  8
MSL5_360_3F-3
100
AcDbLine
 10
1025.782286
 20
-39.0
 30
0.0
 11
1025.782286
 21
-22.0
 31
0.0
  0
LINE
  5
1716
100
AcDbEntity
  8
MSL5_360_3F-7
100
AcDbLine
 10
1030.782286
 20
-10.582057
 30
0.0
 11
1030.782286
 21
-42.0
 31
0.0
  0
LINE
  5
1717
100
AcDbEntity
  8
MSL5_360_3F-7
100
AcDbLine
 10
1030.782286
 20
-10.582057
 30
0.0
 11
1030.782286
 21
-42.0
 31
0.0
  0
LINE
  5
1718
100
AcDbEntity
  8
MSL5_360_3F-7
100
AcDbLine
 10
1039.782286
 20
-38.0
 30
0.0
 11
1039.782286
 21
-22.0
 31
0.0
  0
LINE
  5
1719
100
AcDbEntity
  8
MSL5_360_3F-3
100
AcDbLine
 10
1034.970286
 20
-39.0
 30
0.0
 11
1034.970286
 21
-16.0
 31
0.0
  0
LINE
  5
171A
100
AcDbEntity
  8
MSL5_360_3F-3
100
AcDbLine
 10
1034.970286
 20
-39.0
 30
0.0
 11
1034.970286
 21
-16.0
 31
0.0
  0
LINE
  5
171B
100
AcDbEntity
  8
MSL5_360_3F-3
100
AcDbLine
 10
1035.782286
 20
-39.0
 30
0.0
 11
1035.782286
 21
-22.0
 31
0.0
  0
LINE
  5
171C
100
AcDbEntity
  8
MSL5_360_3F-3
100
AcDbLine
 10
1035.782286
 20
-39.0
 30
0.0
 11
1035.782286
 21
-22.0
 31
0.0
  0
LINE
  5
171D
100
AcDbEntity
  8
MSL5_360_3F-7
100
AcDbLine
 10
1031.782286
 20
-30.0
 30
0.0
 11
1047.782286
 21
-30.0
 31
0.0
  0
LINE
  5
171E
100
AcDbEntity
  8
MSL5_360_3F-0
100
AcDbLine
 10
1047.782286
 20
-39.0
 30
0.0
 11
1022.782286
 21
-39.0
 31
0.0
  0
LINE
  5
171F
100
AcDbEntity
  8
MSL5_360_3F-7
100
AcDbLine
 10
1049.782286
 20
-30.0
 30
0.0
 11
1020.782286
 21
-30.0
 31
0.0
  0
CIRCLE
  5
1720
100
AcDbEntity
  8
MSL5_360_3F-0
100
AcDbCircle
 10
1039.782286
 20
-30.0
 30
0.0
 40
4.188
  0
ARC
  5
1721
100
AcDbEntity
  8
MSL5_360_3F-4
100
AcDbCircle
 10
1039.782286
 20
-30.0
 30
0.0
 40
5.0
100
AcDbArc
 50
280.0
 51
210.0
  0
LINE
  5
1722
100
AcDbEntity
  8
MSL5_360_3F-3
100
AcDbLine
 10
1025.782286
 20
-22.0
 30
0.0
 11
1035.782286
 21
-22.0
 31
0.0
  0
LINE
  5
1723
100
AcDbEntity
  8
MSL5_360_3F-3
100
AcDbLine
 10
1025.782286
 20
-22.0
 30
0.0
 11
1035.782286
 21
-22.0
 31
0.0
  0
LINE
  5
1724
100
AcDbEntity
  8
MSL5_360_3F-3
100
AcDbLine
 10
1030.782286
 20
-13.582057
 30
0.0
 11
1034.970286
 21
-16.0
 31
0.0
  0
LINE
  5
1725
100
AcDbEntity
  8
MSL5_360_3F-3
100
AcDbLine
 10
1030.782286
 20
-13.582057
 30
0.0
 11
1034.970286
 21
-16.0
 31
0.0
  0
LINE
  5
1726
100
AcDbEntity
  8
MSL5_360_3F-3
100
AcDbLine
 10
1030.782286
 20
-13.582057
 30
0.0
 11
1026.594286
 21
-16.0
 31
0.0
  0
LINE
  5
1727
100
AcDbEntity
  8
MSL5_360_3F-3
100
AcDbLine
 10
1030.782286
 20
-13.582057
 30
0.0
 11
1026.594286
 21
-16.0
 31
0.0
  0
LINE
  5
1728
100
AcDbEntity
  8
MSL5_360_3F-3
100
AcDbLine
 10
1026.594286
 20
-16.0
 30
0.0
 11
1034.970286
 21
-16.0
 31
0.0
  0
LINE
  5
1729
100
AcDbEntity
  8
MSL5_360_3F-3
100
AcDbLine
 10
1026.594286
 20
-16.0
 30
0.0
 11
1034.970286
 21
-16.0
 31
0.0
  0
LINE
  5
172A
100
AcDbEntity
  8
MSL5_360_3F-7
100
AcDbLine
 10
1039.782286
 20
22.0
 30
0.0
 11
1039.782286
 21
38.0
 31
0.0
  0
LINE
  5
172B
100
AcDbEntity
  8
MSL5_360_3F-7
100
AcDbLine
 10
1031.782286
 20
30.0
 30
0.0
 11
1047.782286
 21
30.0
 31
0.0
  0
LINE
  5
172C
100
AcDbEntity
  8
MSL5_360_3F-7
100
AcDbLine
 10
1049.782286
 20
30.0
 30
0.0
 11
1020.782286
 21
30.0
 31
0.0
  0
CIRCLE
  5
172D
100
AcDbEntity
  8
MSL5_360_3F-0
100
AcDbCircle
 10
1039.782286
 20
30.0
 30
0.0
 40
4.188
  0
ARC
  5
172E
100
AcDbEntity
  8
MSL5_360_3F-4
100
AcDbCircle
 10
1039.782286
 20
30.0
 30
0.0
 40
5.0
100
AcDbArc
 50
280.0
 51
210.0
  0
ARC
  5
172F
100
AcDbEntity
  8
MSL5_360_3F-0
100
AcDbCircle
 10
1015.072564
 20
52.0
 30
0.0
 40
7.709722
100
AcDbArc
 50
330.872218
 51
29.127782
  0
LINE
  5
1730
100
AcDbEntity
  8
MSL5_360_3F-0
100
AcDbLine
 10
1018.782286
 20
46.370835
 30
0.0
 11
1018.782286
 21
57.629166
 31
0.0
  0
ARC
  5
1731
100
AcDbEntity
  8
MSL5_360_3F-0
100
AcDbCircle
 10
1026.492008
 20
52.0
 30
0.0
 40
7.709722
100
AcDbArc
 50
150.872216
 51
209.127784
  0
ARC
  5
1732
100
AcDbEntity
  8
MSL5_360_3F-0
100
AcDbCircle
 10
1020.48923
 20
46.370835
 30
0.0
 40
2.293056
100
AcDbArc
 50
305.085848
 51
54.914152
  0
LINE
  5
1733
100
AcDbEntity
  8
MSL5_360_3F-0
100
AcDbLine
 10
1019.757286
 20
44.494447
 30
0.0
 11
1021.807286
 21
44.494447
 31
0.0
  0
LINE
  5
1734
100
AcDbEntity
  8
MSL5_360_3F-0
100
AcDbLine
 10
1019.757286
 20
48.247224
 30
0.0
 11
1021.807286
 21
48.247224
 31
0.0
  0
ARC
  5
1735
100
AcDbEntity
  8
MSL5_360_3F-0
100
AcDbCircle
 10
1021.075342
 20
46.370835
 30
0.0
 40
2.293056
100
AcDbArc
 50
125.085847
 51
234.914153
  0
ARC
  5
1736
100
AcDbEntity
  8
MSL5_360_3F-0
100
AcDbCircle
 10
1020.48923
 20
57.629166
 30
0.0
 40
2.293056
100
AcDbArc
 50
305.085848
 51
54.914152
  0
LINE
  5
1737
100
AcDbEntity
  8
MSL5_360_3F-0
100
AcDbLine
 10
1019.757286
 20
59.505554
 30
0.0
 11
1021.807286
 21
59.505554
 31
0.0
  0
LINE
  5
1738
100
AcDbEntity
  8
MSL5_360_3F-0
100
AcDbLine
 10
1019.757286
 20
55.752777
 30
0.0
 11
1021.807286
 21
55.752777
 31
0.0
  0
ARC
  5
1739
100
AcDbEntity
  8
MSL5_360_3F-0
100
AcDbCircle
 10
1021.075342
 20
57.629166
 30
0.0
 40
2.293056
100
AcDbArc
 50
125.085847
 51
234.914153
  0
LINE
  5
173A
100
AcDbEntity
  8
MSL5_360_3F-0
100
AcDbLine
 10
1022.782286
 20
66.6
 30
0.0
 11
1047.782286
 21
66.6
 31
0.0
  0
LINE
  5
173B
100
AcDbEntity
  8
MSL5_360_3F-0
100
AcDbLine
 10
1022.782286
 20
119.0
 30
0.0
 11
1047.782286
 21
119.0
 31
0.0
  0
LINE
  5
173C
100
AcDbEntity
  8
MSL5_360_3F-7
100
AcDbLine
 10
1030.622252
 20
309.761134
 30
0.0
 11
629.34422
 21
309.761134
 31
0.0
  0
LINE
  5
173D
100
AcDbEntity
  8
MSL5_360_3F-7
100
AcDbLine
 10
1030.622252
 20
205.761134
 30
0.0
 11
629.34422
 21
205.761134
 31
0.0
  0
LINE
  5
173E
100
AcDbEntity
  8
MSL5_360_3F-7
100
AcDbLine
 10
629.34422
 20
257.761134
 30
0.0
 11
1050.782286
 21
257.761134
 31
0.0
  0
LINE
  5
173F
100
AcDbEntity
  8
MSL5_360_3F-0
100
AcDbLine
 10
639.782286
 20
218.261134
 30
0.0
 11
1022.782286
 21
218.261134
 31
0.0
  0
LINE
  5
1740
100
AcDbEntity
  8
MSL5_360_3F-0
100
AcDbLine
 10
1022.782286
 20
193.261134
 30
0.0
 11
639.782286
 21
193.261134
 31
0.0
  0
LINE
  5
1741
100
AcDbEntity
  8
MSL5_360_3F-0
100
AcDbLine
 10
658.782286
 20
263.761134
 30
0.0
 11
1022.782286
 21
263.761134
 31
0.0
  0
LINE
  5
1742
100
AcDbEntity
  8
MSL5_360_3F-0
100
AcDbLine
 10
1022.782286
 20
251.761134
 30
0.0
 11
658.782286
 21
251.761134
 31
0.0
  0
LINE
  5
1743
100
AcDbEntity
  8
MSL5_360_3F-0
100
AcDbLine
 10
1022.782286
 20
245.261134
 30
0.0
 11
658.782286
 21
245.261134
 31
0.0
  0
LINE
  5
1744
100
AcDbEntity
  8
MSL5_360_3F-0
100
AcDbLine
 10
639.782286
 20
297.261134
 30
0.0
 11
1022.782286
 21
297.261134
 31
0.0
  0
LINE
  5
1745
100
AcDbEntity
  8
MSL5_360_3F-0
100
AcDbLine
 10
1022.782286
 20
322.261134
 30
0.0
 11
639.782286
 21
322.261134
 31
0.0
  0
LINE
  5
1746
100
AcDbEntity
  8
MSL5_360_3F-0
100
AcDbLine
 10
1022.782286
 20
270.261134
 30
0.0
 11
658.782286
 21
270.261134
 31
0.0
  0
LINE
  5
1747
100
AcDbEntity
  8
MSL5_360_3F-0
100
AcDbLine
 10
658.782286
 20
270.261134
 30
0.0
 11
658.782286
 21
245.261134
 31
0.0
  0
LINE
  5
1748
100
AcDbEntity
  8
MSL5_360_3F-0
100
AcDbLine
 10
657.782286
 20
271.261134
 30
0.0
 11
657.782286
 21
244.261134
 31
0.0
  0
LINE
  5
1749
100
AcDbEntity
  8
MSL5_360_3F-0
100
AcDbLine
 10
639.782286
 20
182.761134
 30
0.0
 11
639.782286
 21
332.761134
 31
0.0
  0
LINE
  5
174A
100
AcDbEntity
  8
MSL5_360_3F-7
100
AcDbLine
 10
537.782286
 20
279.037546
 30
0.0
 11
537.782286
 21
234.850015
 31
0.0
  0
LINE
  5
174B
100
AcDbEntity
  8
MSL5_360_3F-7
100
AcDbLine
 10
567.782286
 20
227.761134
 30
0.0
 11
574.513076
 21
227.761134
 31
0.0
  0
LINE
  5
174C
100
AcDbEntity
  8
MSL5_360_3F-3
100
AcDbLine
 10
563.782286
 20
182.761134
 30
0.0
 11
563.782286
 21
204.761134
 31
0.0
  0
LINE
  5
174D
100
AcDbEntity
  8
MSL5_360_3F-7
100
AcDbLine
 10
567.782286
 20
209.894467
 30
0.0
 11
567.782286
 21
180.294467
 31
0.0
  0
LINE
  5
174E
100
AcDbEntity
  8
MSL5_360_3F-3
100
AcDbLine
 10
572.782286
 20
182.761134
 30
0.0
 11
572.782286
 21
199.761134
 31
0.0
  0
LINE
  5
174F
100
AcDbEntity
  8
MSL5_360_3F-3
100
AcDbLine
 10
571.782286
 20
182.761134
 30
0.0
 11
571.782286
 21
204.761134
 31
0.0
  0
LINE
  5
1750
100
AcDbEntity
  8
MSL5_360_3F-3
100
AcDbLine
 10
532.782286
 20
182.761134
 30
0.0
 11
532.782286
 21
197.761134
 31
0.0
  0
LINE
  5
1751
100
AcDbEntity
  8
MSL5_360_3F-7
100
AcDbLine
 10
537.782286
 20
203.561134
 30
0.0
 11
537.782286
 21
180.294467
 31
0.0
  0
LINE
  5
1752
100
AcDbEntity
  8
MSL5_360_3F-3
100
AcDbLine
 10
542.782286
 20
182.761134
 30
0.0
 11
542.782286
 21
197.761134
 31
0.0
  0
LINE
  5
1753
100
AcDbEntity
  8
MSL5_360_3F-3
100
AcDbLine
 10
562.782286
 20
199.761134
 30
0.0
 11
562.782286
 21
182.761134
 31
0.0
  0
LINE
  5
1754
100
AcDbEntity
  8
MSL5_360_3F-3
100
AcDbLine
 10
511.782286
 20
182.761134
 30
0.0
 11
511.782286
 21
204.761134
 31
0.0
  0
LINE
  5
1755
100
AcDbEntity
  8
MSL5_360_3F-3
100
AcDbLine
 10
512.782286
 20
182.761134
 30
0.0
 11
512.782286
 21
199.761134
 31
0.0
  0
LINE
  5
1756
100
AcDbEntity
  8
MSL5_360_3F-7
100
AcDbLine
 10
507.782286
 20
209.894467
 30
0.0
 11
507.782286
 21
180.294467
 31
0.0
  0
LINE
  5
1757
100
AcDbEntity
  8
MSL5_360_3F-3
100
AcDbLine
 10
503.782286
 20
182.761134
 30
0.0
 11
503.782286
 21
204.761134
 31
0.0
  0
LINE
  5
1758
100
AcDbEntity
  8
MSL5_360_3F-3
100
AcDbLine
 10
502.782286
 20
199.761134
 30
0.0
 11
502.782286
 21
182.761134
 31
0.0
  0
LINE
  5
1759
100
AcDbEntity
  8
MSL5_360_3F-7
100
AcDbLine
 10
507.782286
 20
180.294467
 30
0.0
 11
507.782286
 21
182.761134
 31
0.0
  0
LINE
  5
175A
100
AcDbEntity
  8
MSL5_360_3F-3
100
AcDbLine
 10
507.782286
 20
182.761134
 30
0.0
 11
507.782286
 21
182.761134
 31
0.0
  0
LINE
  5
175B
100
AcDbEntity
  8
MSL5_360_3F-3
100
AcDbLine
 10
507.782286
 20
182.761134
 30
0.0
 11
507.782286
 21
182.761134
 31
0.0
  0
LINE
  5
175C
100
AcDbEntity
  8
MSL5_360_3F-3
100
AcDbLine
 10
537.782286
 20
182.761134
 30
0.0
 11
537.782286
 21
182.761134
 31
0.0
  0
LINE
  5
175D
100
AcDbEntity
  8
MSL5_360_3F-3
100
AcDbLine
 10
537.782286
 20
182.761134
 30
0.0
 11
537.782286
 21
182.761134
 31
0.0
  0
LINE
  5
175E
100
AcDbEntity
  8
MSL5_360_3F-7
100
AcDbLine
 10
537.782286
 20
180.294467
 30
0.0
 11
537.782286
 21
182.761134
 31
0.0
  0
LINE
  5
175F
100
AcDbEntity
  8
MSL5_360_3F-3
100
AcDbLine
 10
567.782286
 20
182.761134
 30
0.0
 11
567.782286
 21
182.761134
 31
0.0
  0
LINE
  5
1760
100
AcDbEntity
  8
MSL5_360_3F-3
100
AcDbLine
 10
567.782286
 20
182.761134
 30
0.0
 11
567.782286
 21
182.761134
 31
0.0
  0
LINE
  5
1761
100
AcDbEntity
  8
MSL5_360_3F-7
100
AcDbLine
 10
567.782286
 20
180.294467
 30
0.0
 11
567.782286
 21
182.761134
 31
0.0
  0
LINE
  5
1762
100
AcDbEntity
  8
MSL5_360_3F-3
100
AcDbLine
 10
503.782286
 20
204.761134
 30
0.0
 11
507.782286
 21
204.761134
 31
0.0
  0
LINE
  5
1763
100
AcDbEntity
  8
MSL5_360_3F-3
100
AcDbLine
 10
507.782286
 20
207.4278
 30
0.0
 11
503.782286
 21
204.761134
 31
0.0
  0
LINE
  5
1764
100
AcDbEntity
  8
MSL5_360_3F-3
100
AcDbLine
 10
512.782286
 20
199.761134
 30
0.0
 11
502.782286
 21
199.761134
 31
0.0
  0
LINE
  5
1765
100
AcDbEntity
  8
MSL5_360_3F-3
100
AcDbLine
 10
511.782286
 20
204.761134
 30
0.0
 11
507.782286
 21
204.761134
 31
0.0
  0
LINE
  5
1766
100
AcDbEntity
  8
MSL5_360_3F-3
100
AcDbLine
 10
507.782286
 20
207.4278
 30
0.0
 11
511.782286
 21
204.761134
 31
0.0
  0
CIRCLE
  5
1767
100
AcDbEntity
  8
MSL5_360_3F-0
100
AcDbCircle
 10
507.782286
 20
227.761134
 30
0.0
 40
4.25
  0
ARC
  5
1768
100
AcDbEntity
  8
MSL5_360_3F-4
100
AcDbCircle
 10
507.782286
 20
227.761134
 30
0.0
 40
5.0
100
AcDbArc
 50
82.606248
 51
7.300134
  0
LINE
  5
1769
100
AcDbEntity
  8
MSL5_360_3F-7
100
AcDbLine
 10
507.782286
 20
227.761134
 30
0.0
 11
501.051496
 21
227.761134
 31
0.0
  0
LINE
  5
176A
100
AcDbEntity
  8
MSL5_360_3F-7
100
AcDbLine
 10
507.782286
 20
227.761134
 30
0.0
 11
507.782286
 21
234.491924
 31
0.0
  0
LINE
  5
176B
100
AcDbEntity
  8
MSL5_360_3F-7
100
AcDbLine
 10
507.782286
 20
227.761134
 30
0.0
 11
507.782286
 21
221.030344
 31
0.0
  0
LINE
  5
176C
100
AcDbEntity
  8
MSL5_360_3F-7
100
AcDbLine
 10
507.782286
 20
227.761134
 30
0.0
 11
514.513076
 21
227.761134
 31
0.0
  0
LINE
  5
176D
100
AcDbEntity
  8
MSL5_360_3F-3
100
AcDbLine
 10
542.782286
 20
197.761134
 30
0.0
 11
537.782286
 21
197.761134
 31
0.0
  0
LINE
  5
176E
100
AcDbEntity
  8
MSL5_360_3F-3
100
AcDbLine
 10
537.782286
 20
201.094467
 30
0.0
 11
542.782286
 21
197.761134
 31
0.0
  0
LINE
  5
176F
100
AcDbEntity
  8
MSL5_360_3F-3
100
AcDbLine
 10
532.782286
 20
197.761134
 30
0.0
 11
537.782286
 21
197.761134
 31
0.0
  0
LINE
  5
1770
100
AcDbEntity
  8
MSL5_360_3F-3
100
AcDbLine
 10
537.782286
 20
201.094467
 30
0.0
 11
532.782286
 21
197.761134
 31
0.0
  0
LINE
  5
1771
100
AcDbEntity
  8
MSL5_360_3F-3
100
AcDbLine
 10
572.782286
 20
199.761134
 30
0.0
 11
562.782286
 21
199.761134
 31
0.0
  0
LINE
  5
1772
100
AcDbEntity
  8
MSL5_360_3F-3
100
AcDbLine
 10
567.782286
 20
207.4278
 30
0.0
 11
563.782286
 21
204.761134
 31
0.0
  0
LINE
  5
1773
100
AcDbEntity
  8
MSL5_360_3F-3
100
AcDbLine
 10
563.782286
 20
204.761134
 30
0.0
 11
567.782286
 21
204.761134
 31
0.0
  0
LINE
  5
1774
100
AcDbEntity
  8
MSL5_360_3F-3
100
AcDbLine
 10
567.782286
 20
207.4278
 30
0.0
 11
571.782286
 21
204.761134
 31
0.0
  0
LINE
  5
1775
100
AcDbEntity
  8
MSL5_360_3F-3
100
AcDbLine
 10
571.782286
 20
204.761134
 30
0.0
 11
567.782286
 21
204.761134
 31
0.0
  0
CIRCLE
  5
1776
100
AcDbEntity
  8
MSL5_360_3F-0
100
AcDbCircle
 10
537.782286
 20
227.761134
 30
0.0
 40
5.0
  0
LINE
  5
1777
100
AcDbEntity
  8
MSL5_360_3F-7
100
AcDbLine
 10
537.782286
 20
227.761134
 30
0.0
 11
537.782286
 21
234.850015
 31
0.0
  0
LINE
  5
1778
100
AcDbEntity
  8
MSL5_360_3F-7
100
AcDbLine
 10
537.782286
 20
227.761134
 30
0.0
 11
544.871167
 21
227.761134
 31
0.0
  0
LINE
  5
1779
100
AcDbEntity
  8
MSL5_360_3F-7
100
AcDbLine
 10
537.782286
 20
227.761134
 30
0.0
 11
537.782286
 21
220.672254
 31
0.0
  0
LINE
  5
177A
100
AcDbEntity
  8
MSL5_360_3F-7
100
AcDbLine
 10
537.782286
 20
227.761134
 30
0.0
 11
530.693405
 21
227.761134
 31
0.0
  0
LINE
  5
177B
100
AcDbEntity
  8
MSL5_360_3F-7
100
AcDbLine
 10
567.782286
 20
227.761134
 30
0.0
 11
567.782286
 21
234.491924
 31
0.0
  0
ARC
  5
177C
100
AcDbEntity
  8
MSL5_360_3F-4
100
AcDbCircle
 10
567.782286
 20
227.761134
 30
0.0
 40
5.0
100
AcDbArc
 50
82.606248
 51
7.300134
  0
LINE
  5
177D
100
AcDbEntity
  8
MSL5_360_3F-7
100
AcDbLine
 10
567.782286
 20
227.761134
 30
0.0
 11
561.051496
 21
227.761134
 31
0.0
  0
LINE
  5
177E
100
AcDbEntity
  8
MSL5_360_3F-7
100
AcDbLine
 10
567.782286
 20
227.761134
 30
0.0
 11
567.782286
 21
221.030344
 31
0.0
  0
CIRCLE
  5
177F
100
AcDbEntity
  8
MSL5_360_3F-0
100
AcDbCircle
 10
567.782286
 20
227.761134
 30
0.0
 40
4.25
  0
LINE
  5
1780
100
AcDbEntity
  8
MSL5_360_3F-3
100
AcDbLine
 10
658.782286
 20
245.261134
 30
0.0
 11
639.782286
 21
245.261134
 31
0.0
  0
LINE
  5
1781
100
AcDbEntity
  8
MSL5_360_3F-0
100
AcDbLine
 10
657.782286
 20
244.261134
 30
0.0
 11
639.782286
 21
244.261134
 31
0.0
  0
LINE
  5
1782
100
AcDbEntity
  8
MSL5_360_3F-0
100
AcDbLine
 10
658.782286
 20
245.261134
 30
0.0
 11
657.782286
 21
244.261134
 31
0.0
  0
LINE
  5
1783
100
AcDbEntity
  8
MSL5_360_3F-7
100
AcDbLine
 10
567.782286
 20
287.761134
 30
0.0
 11
574.624999
 21
287.761134
 31
0.0
  0
LINE
  5
1784
100
AcDbEntity
  8
MSL5_360_3F-7
100
AcDbLine
 10
567.782286
 20
305.627801
 30
0.0
 11
567.782286
 21
335.227801
 31
0.0
  0
LINE
  5
1785
100
AcDbEntity
  8
MSL5_360_3F-7
100
AcDbLine
 10
507.782286
 20
305.627801
 30
0.0
 11
507.782286
 21
335.227801
 31
0.0
  0
CIRCLE
  5
1786
100
AcDbEntity
  8
MSL5_360_3F-0
100
AcDbCircle
 10
507.782286
 20
287.761134
 30
0.0
 40
4.25
  0
ARC
  5
1787
100
AcDbEntity
  8
MSL5_360_3F-4
100
AcDbCircle
 10
507.782286
 20
287.761134
 30
0.0
 40
5.0
100
AcDbArc
 50
82.606248
 51
7.300134
  0
LINE
  5
1788
100
AcDbEntity
  8
MSL5_360_3F-7
100
AcDbLine
 10
507.782286
 20
287.761134
 30
0.0
 11
500.939573
 21
287.761134
 31
0.0
  0
LINE
  5
1789
100
AcDbEntity
  8
MSL5_360_3F-7
100
AcDbLine
 10
507.782286
 20
287.761134
 30
0.0
 11
507.782286
 21
294.603848
 31
0.0
  0
LINE
  5
178A
100
AcDbEntity
  8
MSL5_360_3F-7
100
AcDbLine
 10
507.782286
 20
287.761134
 30
0.0
 11
507.782286
 21
280.918421
 31
0.0
  0
LINE
  5
178B
100
AcDbEntity
  8
MSL5_360_3F-7
100
AcDbLine
 10
507.782286
 20
287.761134
 30
0.0
 11
514.624999
 21
287.761134
 31
0.0
  0
CIRCLE
  5
178C
100
AcDbEntity
  8
MSL5_360_3F-0
100
AcDbCircle
 10
537.782286
 20
287.761134
 30
0.0
 40
5.0
  0
LINE
  5
178D
100
AcDbEntity
  8
MSL5_360_3F-7
100
AcDbLine
 10
537.782286
 20
287.761134
 30
0.0
 11
537.782286
 21
294.900883
 31
0.0
  0
LINE
  5
178E
100
AcDbEntity
  8
MSL5_360_3F-7
100
AcDbLine
 10
537.782286
 20
287.761134
 30
0.0
 11
544.922035
 21
287.761134
 31
0.0
  0
LINE
  5
178F
100
AcDbEntity
  8
MSL5_360_3F-7
100
AcDbLine
 10
537.782286
 20
287.761134
 30
0.0
 11
537.782286
 21
280.621386
 31
0.0
  0
LINE
  5
1790
100
AcDbEntity
  8
MSL5_360_3F-7
100
AcDbLine
 10
537.782286
 20
287.761134
 30
0.0
 11
530.642537
 21
287.761134
 31
0.0
  0
LINE
  5
1791
100
AcDbEntity
  8
MSL5_360_3F-7
100
AcDbLine
 10
567.782286
 20
287.761134
 30
0.0
 11
567.782286
 21
294.603848
 31
0.0
  0
ARC
  5
1792
100
AcDbEntity
  8
MSL5_360_3F-4
100
AcDbCircle
 10
567.782286
 20
287.761134
 30
0.0
 40
5.0
100
AcDbArc
 50
82.606248
 51
7.300134
  0
LINE
  5
1793
100
AcDbEntity
  8
MSL5_360_3F-7
100
AcDbLine
 10
567.782286
 20
287.761134
 30
0.0
 11
560.939573
 21
287.761134
 31
0.0
  0
LINE
  5
1794
100
AcDbEntity
  8
MSL5_360_3F-7
100
AcDbLine
 10
567.782286
 20
287.761134
 30
0.0
 11
567.782286
 21
280.918421
 31
0.0
  0
CIRCLE
  5
1795
100
AcDbEntity
  8
MSL5_360_3F-0
100
AcDbCircle
 10
567.782286
 20
287.761134
 30
0.0
 40
4.25
  0
LINE
  5
1796
100
AcDbEntity
  8
MSL5_360_3F-3
100
AcDbLine
 10
503.782286
 20
310.761134
 30
0.0
 11
507.782286
 21
310.761134
 31
0.0
  0
LINE
  5
1797
100
AcDbEntity
  8
MSL5_360_3F-3
100
AcDbLine
 10
507.782286
 20
308.094468
 30
0.0
 11
503.782286
 21
310.761134
 31
0.0
  0
LINE
  5
1798
100
AcDbEntity
  8
MSL5_360_3F-3
100
AcDbLine
 10
512.782286
 20
315.761134
 30
0.0
 11
502.782286
 21
315.761134
 31
0.0
  0
LINE
  5
1799
100
AcDbEntity
  8
MSL5_360_3F-3
100
AcDbLine
 10
503.782286
 20
332.761134
 30
0.0
 11
503.782286
 21
310.761134
 31
0.0
  0
LINE
  5
179A
100
AcDbEntity
  8
MSL5_360_3F-3
100
AcDbLine
 10
502.782286
 20
315.761134
 30
0.0
 11
502.782286
 21
332.761134
 31
0.0
  0
LINE
  5
179B
100
AcDbEntity
  8
MSL5_360_3F-3
100
AcDbLine
 10
511.782286
 20
332.761134
 30
0.0
 11
511.782286
 21
310.761134
 31
0.0
  0
LINE
  5
179C
100
AcDbEntity
  8
MSL5_360_3F-3
100
AcDbLine
 10
512.782286
 20
332.761134
 30
0.0
 11
512.782286
 21
315.761134
 31
0.0
  0
LINE
  5
179D
100
AcDbEntity
  8
MSL5_360_3F-3
100
AcDbLine
 10
511.782286
 20
310.761134
 30
0.0
 11
507.782286
 21
310.761134
 31
0.0
  0
LINE
  5
179E
100
AcDbEntity
  8
MSL5_360_3F-3
100
AcDbLine
 10
507.782286
 20
308.094468
 30
0.0
 11
511.782286
 21
310.761134
 31
0.0
  0
LINE
  5
179F
100
AcDbEntity
  8
MSL5_360_3F-3
100
AcDbLine
 10
507.782286
 20
332.761134
 30
0.0
 11
507.782286
 21
332.761134
 31
0.0
  0
LINE
  5
17A0
100
AcDbEntity
  8
MSL5_360_3F-3
100
AcDbLine
 10
507.782286
 20
332.761134
 30
0.0
 11
507.782286
 21
332.761134
 31
0.0
  0
LINE
  5
17A1
100
AcDbEntity
  8
MSL5_360_3F-7
100
AcDbLine
 10
507.782286
 20
335.227801
 30
0.0
 11
507.782286
 21
332.761134
 31
0.0
  0
LINE
  5
17A2
100
AcDbEntity
  8
MSL5_360_3F-3
100
AcDbLine
 10
532.782286
 20
332.761134
 30
0.0
 11
532.782286
 21
317.761134
 31
0.0
  0
LINE
  5
17A3
100
AcDbEntity
  8
MSL5_360_3F-3
100
AcDbLine
 10
542.782286
 20
332.761134
 30
0.0
 11
542.782286
 21
317.761134
 31
0.0
  0
LINE
  5
17A4
100
AcDbEntity
  8
MSL5_360_3F-7
100
AcDbLine
 10
537.782286
 20
311.961134
 30
0.0
 11
537.782286
 21
335.227801
 31
0.0
  0
LINE
  5
17A5
100
AcDbEntity
  8
MSL5_360_3F-3
100
AcDbLine
 10
542.782286
 20
317.761134
 30
0.0
 11
537.782286
 21
317.761134
 31
0.0
  0
LINE
  5
17A6
100
AcDbEntity
  8
MSL5_360_3F-3
100
AcDbLine
 10
537.782286
 20
314.427801
 30
0.0
 11
542.782286
 21
317.761134
 31
0.0
  0
LINE
  5
17A7
100
AcDbEntity
  8
MSL5_360_3F-3
100
AcDbLine
 10
532.782286
 20
317.761134
 30
0.0
 11
537.782286
 21
317.761134
 31
0.0
  0
LINE
  5
17A8
100
AcDbEntity
  8
MSL5_360_3F-3
100
AcDbLine
 10
537.782286
 20
314.427801
 30
0.0
 11
532.782286
 21
317.761134
 31
0.0
  0
LINE
  5
17A9
100
AcDbEntity
  8
MSL5_360_3F-3
100
AcDbLine
 10
537.782286
 20
332.761134
 30
0.0
 11
537.782286
 21
332.761134
 31
0.0
  0
LINE
  5
17AA
100
AcDbEntity
  8
MSL5_360_3F-3
100
AcDbLine
 10
537.782286
 20
332.761134
 30
0.0
 11
537.782286
 21
332.761134
 31
0.0
  0
LINE
  5
17AB
100
AcDbEntity
  8
MSL5_360_3F-7
100
AcDbLine
 10
537.782286
 20
335.227801
 30
0.0
 11
537.782286
 21
332.761134
 31
0.0
  0
LINE
  5
17AC
100
AcDbEntity
  8
MSL5_360_3F-3
100
AcDbLine
 10
563.782286
 20
332.761134
 30
0.0
 11
563.782286
 21
310.761134
 31
0.0
  0
LINE
  5
17AD
100
AcDbEntity
  8
MSL5_360_3F-3
100
AcDbLine
 10
572.782286
 20
332.761134
 30
0.0
 11
572.782286
 21
315.761134
 31
0.0
  0
LINE
  5
17AE
100
AcDbEntity
  8
MSL5_360_3F-3
100
AcDbLine
 10
571.782286
 20
332.761134
 30
0.0
 11
571.782286
 21
310.761134
 31
0.0
  0
LINE
  5
17AF
100
AcDbEntity
  8
MSL5_360_3F-3
100
AcDbLine
 10
562.782286
 20
315.761134
 30
0.0
 11
562.782286
 21
332.761134
 31
0.0
  0
LINE
  5
17B0
100
AcDbEntity
  8
MSL5_360_3F-3
100
AcDbLine
 10
567.782286
 20
308.094468
 30
0.0
 11
563.782286
 21
310.761134
 31
0.0
  0
LINE
  5
17B1
100
AcDbEntity
  8
MSL5_360_3F-3
100
AcDbLine
 10
563.782286
 20
310.761134
 30
0.0
 11
567.782286
 21
310.761134
 31
0.0
  0
LINE
  5
17B2
100
AcDbEntity
  8
MSL5_360_3F-3
100
AcDbLine
 10
567.782286
 20
308.094468
 30
0.0
 11
571.782286
 21
310.761134
 31
0.0
  0
LINE
  5
17B3
100
AcDbEntity
  8
MSL5_360_3F-3
100
AcDbLine
 10
571.782286
 20
310.761134
 30
0.0
 11
567.782286
 21
310.761134
 31
0.0
  0
LINE
  5
17B4
100
AcDbEntity
  8
MSL5_360_3F-3
100
AcDbLine
 10
572.782286
 20
315.761134
 30
0.0
 11
562.782286
 21
315.761134
 31
0.0
  0
LINE
  5
17B5
100
AcDbEntity
  8
MSL5_360_3F-3
100
AcDbLine
 10
567.782286
 20
332.761134
 30
0.0
 11
567.782286
 21
332.761134
 31
0.0
  0
LINE
  5
17B6
100
AcDbEntity
  8
MSL5_360_3F-3
100
AcDbLine
 10
567.782286
 20
332.761134
 30
0.0
 11
567.782286
 21
332.761134
 31
0.0
  0
LINE
  5
17B7
100
AcDbEntity
  8
MSL5_360_3F-7
100
AcDbLine
 10
567.782286
 20
335.227801
 30
0.0
 11
567.782286
 21
332.761134
 31
0.0
  0
LINE
  5
17B8
100
AcDbEntity
  8
MSL5_360_3F-3
100
AcDbLine
 10
658.782286
 20
270.261134
 30
0.0
 11
639.782286
 21
270.261134
 31
0.0
  0
LINE
  5
17B9
100
AcDbEntity
  8
MSL5_360_3F-0
100
AcDbLine
 10
639.782286
 20
271.261134
 30
0.0
 11
657.782286
 21
271.261134
 31
0.0
  0
LINE
  5
17BA
100
AcDbEntity
  8
MSL5_360_3F-0
100
AcDbLine
 10
657.782286
 20
271.261134
 30
0.0
 11
658.782286
 21
270.261134
 31
0.0
  0
ARC
  5
17BB
100
AcDbEntity
  8
MSL5_360_3F-0
100
AcDbCircle
 10
642.676036
 20
292.770753
 30
0.0
 40
5.10625
100
AcDbArc
 50
302.004628
 51
57.995372
  0
ARC
  5
17BC
100
AcDbEntity
  8
MSL5_360_3F-0
100
AcDbCircle
 10
644.800291
 20
292.770753
 30
0.0
 40
5.060035
100
AcDbArc
 50
121.157255
 51
238.842745
  0
LINE
  5
17BD
100
AcDbEntity
  8
MSL5_360_3F-0
100
AcDbLine
 10
645.382286
 20
288.440626
 30
0.0
 11
642.182286
 21
288.440626
 31
0.0
  0
LINE
  5
17BE
100
AcDbEntity
  8
MSL5_360_3F-0
100
AcDbLine
 10
648.282286
 20
294.153063
 30
0.0
 11
647.716568
 21
293.587345
 31
0.0
  0
LINE
  5
17BF
100
AcDbEntity
  8
MSL5_360_3F-0
100
AcDbLine
 10
647.782286
 20
292.770753
 30
0.0
 11
647.782286
 21
297.261134
 31
0.0
  0
LINE
  5
17C0
100
AcDbEntity
  8
MSL5_360_3F-0
100
AcDbLine
 10
648.282286
 20
297.261134
 30
0.0
 11
648.282286
 21
294.153063
 31
0.0
  0
LINE
  5
17C1
100
AcDbEntity
  8
MSL5_360_3F-0
100
AcDbLine
 10
642.182286
 20
297.10088
 30
0.0
 11
645.382286
 21
297.10088
 31
0.0
  0
ARC
  5
17C2
100
AcDbEntity
  8
MSL5_360_3F-0
100
AcDbCircle
 10
642.676036
 20
318.751515
 30
0.0
 40
5.10625
100
AcDbArc
 50
43.4182
 51
57.995372
  0
ARC
  5
17C3
100
AcDbEntity
  8
MSL5_360_3F-0
100
AcDbCircle
 10
644.888536
 20
318.751515
 30
0.0
 40
5.10625
100
AcDbArc
 50
122.004627
 51
136.581799
  0
LINE
  5
17C4
100
AcDbEntity
  8
MSL5_360_3F-0
100
AcDbLine
 10
642.182286
 20
323.081642
 30
0.0
 11
645.382286
 21
323.081642
 31
0.0
  0
LINE
  5
17C5
100
AcDbEntity
  8
MSL5_360_3F-0
100
AcDbLine
 10
685.582286
 20
294.153063
 30
0.0
 11
673.082286
 21
294.153063
 31
0.0
  0
LINE
  5
17C6
100
AcDbEntity
  8
MSL5_360_3F-0
100
AcDbLine
 10
673.082286
 20
294.153063
 30
0.0
 11
673.082286
 21
297.261134
 31
0.0
  0
LINE
  5
17C7
100
AcDbEntity
  8
MSL5_360_3F-0
100
AcDbLine
 10
686.582286
 20
295.153063
 30
0.0
 11
685.582286
 21
294.153063
 31
0.0
  0
LINE
  5
17C8
100
AcDbEntity
  8
MSL5_360_3F-0
100
AcDbLine
 10
686.582286
 20
297.261134
 30
0.0
 11
686.582286
 21
295.153063
 31
0.0
  0
LINE
  5
17C9
100
AcDbEntity
  8
MSL5_360_3F-0
100
AcDbLine
 10
685.582286
 20
297.261134
 30
0.0
 11
685.582286
 21
294.153063
 31
0.0
  0
LINE
  5
17CA
100
AcDbEntity
  8
MSL5_360_3F-0
100
AcDbLine
 10
1022.782286
 20
182.761134
 30
0.0
 11
1022.782286
 21
332.761134
 31
0.0
  0
LINE
  5
17CB
100
AcDbEntity
  8
MSL5_360_3F-0
100
AcDbLine
 10
1047.782286
 20
332.761134
 30
0.0
 11
1047.782286
 21
182.761134
 31
0.0
  0
LINE
  5
17CC
100
AcDbEntity
  8
MSL5_360_3F-7
100
AcDbLine
 10
1039.782286
 20
211.179077
 30
0.0
 11
1039.782286
 21
179.761134
 31
0.0
  0
LINE
  5
17CD
100
AcDbEntity
  8
MSL5_360_3F-3
100
AcDbLine
 10
1034.782286
 20
182.761134
 30
0.0
 11
1034.782286
 21
199.761134
 31
0.0
  0
LINE
  5
17CE
100
AcDbEntity
  8
MSL5_360_3F-3
100
AcDbLine
 10
1035.594286
 20
182.761134
 30
0.0
 11
1035.594286
 21
205.761134
 31
0.0
  0
LINE
  5
17CF
100
AcDbEntity
  8
MSL5_360_3F-3
100
AcDbLine
 10
1044.782286
 20
182.761134
 30
0.0
 11
1044.782286
 21
199.761134
 31
0.0
  0
LINE
  5
17D0
100
AcDbEntity
  8
MSL5_360_3F-3
100
AcDbLine
 10
1043.970286
 20
182.761134
 30
0.0
 11
1043.970286
 21
205.761134
 31
0.0
  0
LINE
  5
17D1
100
AcDbEntity
  8
MSL5_360_3F-0
100
AcDbLine
 10
1047.782286
 20
182.761134
 30
0.0
 11
1022.782286
 21
182.761134
 31
0.0
  0
LINE
  5
17D2
100
AcDbEntity
  8
MSL5_360_3F-7
100
AcDbLine
 10
1030.782286
 20
201.761134
 30
0.0
 11
1030.782286
 21
217.761134
 31
0.0
  0
LINE
  5
17D3
100
AcDbEntity
  8
MSL5_360_3F-7
100
AcDbLine
 10
1022.782286
 20
209.761134
 30
0.0
 11
1038.782286
 21
209.761134
 31
0.0
  0
LINE
  5
17D4
100
AcDbEntity
  8
MSL5_360_3F-3
100
AcDbLine
 10
1043.970286
 20
205.761134
 30
0.0
 11
1035.594286
 21
205.761134
 31
0.0
  0
LINE
  5
17D5
100
AcDbEntity
  8
MSL5_360_3F-3
100
AcDbLine
 10
1034.782286
 20
199.761134
 30
0.0
 11
1044.782286
 21
199.761134
 31
0.0
  0
LINE
  5
17D6
100
AcDbEntity
  8
MSL5_360_3F-3
100
AcDbLine
 10
1039.782286
 20
208.179077
 30
0.0
 11
1035.594286
 21
205.761134
 31
0.0
  0
ARC
  5
17D7
100
AcDbEntity
  8
MSL5_360_3F-4
100
AcDbCircle
 10
1030.782286
 20
209.761134
 30
0.0
 40
5.0
100
AcDbArc
 50
280.0
 51
210.0
  0
CIRCLE
  5
17D8
100
AcDbEntity
  8
MSL5_360_3F-0
100
AcDbCircle
 10
1030.782286
 20
209.761134
 30
0.0
 40
4.188
  0
LINE
  5
17D9
100
AcDbEntity
  8
MSL5_360_3F-3
100
AcDbLine
 10
1039.782286
 20
208.179077
 30
0.0
 11
1043.970286
 21
205.761134
 31
0.0
  0
LINE
  5
17DA
100
AcDbEntity
  8
MSL5_360_3F-3
100
AcDbLine
 10
1029.782286
 20
222.261134
 30
0.0
 11
1047.782286
 21
222.261134
 31
0.0
  0
LINE
  5
17DB
100
AcDbEntity
  8
MSL5_360_3F-3
100
AcDbLine
 10
1029.782286
 20
233.261134
 30
0.0
 11
1047.782286
 21
233.261134
 31
0.0
  0
LINE
  5
17DC
100
AcDbEntity
  8
MSL5_360_3F-7
100
AcDbLine
 10
1049.782286
 20
227.761134
 30
0.0
 11
1020.782286
 21
227.761134
 31
0.0
  0
LINE
  5
17DD
100
AcDbEntity
  8
MSL5_360_3F-3
100
AcDbLine
 10
1029.782286
 20
236.761134
 30
0.0
 11
1029.782286
 21
218.761134
 31
0.0
  0
LINE
  5
17DE
100
AcDbEntity
  8
MSL5_360_3F-3
100
AcDbLine
 10
1029.782286
 20
218.761134
 30
0.0
 11
1022.782286
 21
218.761134
 31
0.0
  0
LINE
  5
17DF
100
AcDbEntity
  8
MSL5_360_3F-3
100
AcDbLine
 10
1022.782286
 20
236.761134
 30
0.0
 11
1029.782286
 21
236.761134
 31
0.0
  0
LINE
  5
17E0
100
AcDbEntity
  8
MSL5_360_3F-3
100
AcDbLine
 10
1039.782286
 20
307.343192
 30
0.0
 11
1043.970286
 21
309.761134
 31
0.0
  0
LINE
  5
17E1
100
AcDbEntity
  8
MSL5_360_3F-3
100
AcDbLine
 10
1039.782286
 20
307.343192
 30
0.0
 11
1035.594286
 21
309.761134
 31
0.0
  0
LINE
  5
17E2
100
AcDbEntity
  8
MSL5_360_3F-7
100
AcDbLine
 10
1039.782286
 20
304.343192
 30
0.0
 11
1039.782286
 21
335.761134
 31
0.0
  0
LINE
  5
17E3
100
AcDbEntity
  8
MSL5_360_3F-7
100
AcDbLine
 10
1030.782286
 20
297.761134
 30
0.0
 11
1030.782286
 21
313.761134
 31
0.0
  0
ARC
  5
17E4
100
AcDbEntity
  8
MSL5_360_3F-4
100
AcDbCircle
 10
1030.782286
 20
305.761134
 30
0.0
 40
5.0
100
AcDbArc
 50
280.0
 51
210.0
  0
CIRCLE
  5
17E5
100
AcDbEntity
  8
MSL5_360_3F-0
100
AcDbCircle
 10
1030.782286
 20
305.761134
 30
0.0
 40
4.188
  0
LINE
  5
17E6
100
AcDbEntity
  8
MSL5_360_3F-7
100
AcDbLine
 10
1022.782286
 20
305.761134
 30
0.0
 11
1038.782286
 21
305.761134
 31
0.0
  0
LINE
  5
17E7
100
AcDbEntity
  8
MSL5_360_3F-3
100
AcDbLine
 10
1022.782286
 20
282.761134
 30
0.0
 11
1047.782286
 21
282.761134
 31
0.0
  0
LINE
  5
17E8
100
AcDbEntity
  8
MSL5_360_3F-3
100
AcDbLine
 10
1022.782286
 20
292.761134
 30
0.0
 11
1047.782286
 21
292.761134
 31
0.0
  0
LINE
  5
17E9
100
AcDbEntity
  8
MSL5_360_3F-7
100
AcDbLine
 10
1049.782286
 20
287.761134
 30
0.0
 11
1020.782286
 21
287.761134
 31
0.0
  0
LINE
  5
17EA
100
AcDbEntity
  8
MSL5_360_3F-0
100
AcDbLine
 10
1022.782286
 20
332.761134
 30
0.0
 11
1047.782286
 21
332.761134
 31
0.0
  0
LINE
  5
17EB
100
AcDbEntity
  8
MSL5_360_3F-3
100
AcDbLine
 10
1034.782286
 20
315.761134
 30
0.0
 11
1044.782286
 21
315.761134
 31
0.0
  0
LINE
  5
17EC
100
AcDbEntity
  8
MSL5_360_3F-3
100
AcDbLine
 10
1043.970286
 20
309.761134
 30
0.0
 11
1035.594286
 21
309.761134
 31
0.0
  0
LINE
  5
17ED
100
AcDbEntity
  8
MSL5_360_3F-3
100
AcDbLine
 10
1035.594286
 20
332.761134
 30
0.0
 11
1035.594286
 21
309.761134
 31
0.0
  0
LINE
  5
17EE
100
AcDbEntity
  8
MSL5_360_3F-3
100
AcDbLine
 10
1034.782286
 20
332.761134
 30
0.0
 11
1034.782286
 21
315.761134
 31
0.0
  0
LINE
  5
17EF
100
AcDbEntity
  8
MSL5_360_3F-3
100
AcDbLine
 10
1043.970286
 20
332.761134
 30
0.0
 11
1043.970286
 21
309.761134
 31
0.0
  0
LINE
  5
17F0
100
AcDbEntity
  8
MSL5_360_3F-3
100
AcDbLine
 10
1044.782286
 20
332.761134
 30
0.0
 11
1044.782286
 21
315.761134
 31
0.0
  0
POINT
  5
17F1
100
AcDbEntity
  8
0
 60
     1
100
AcDbPoint
 10
0.0
 20
48.566245
 30
0.0
1001
GENIUS_GENBH_13
1002
{
1000
FGO
1005
0
1002
}
1001
GENIUS_GENODEF_13
1002
{
1000
HIER
1070
     1
1002
}
1002
{
1000
MANEDIT
1070
     0
1002
}
1002
{
1000
NOSEL
1070
     1
1002
}
1002
{
1000
BEHIND
1070
     0
1002
}
1002
{
1000
REACTOR
1002
}
1001
GENIUS_GENOBJ-NBEHI-BHB_13
1002
{
1000
OWNER
1000
GENBEHI
1002
}
1001
GENIUS_GENOENT_13
1002
{
1000
MYREF
1005
17F1
1002
}
1002
{
1000
GRP
1005
0
1002
}
1001
GENIUS_GENOLIS_13
1002
{
1000
ENT
1005
1661
1005
1650
1005
1665
1005
1651
1005
160E
1005
1612
1005
1613
1002
}
  0
POINT
  5
17F2
100
AcDbEntity
  8
0
 60
     1
100
AcDbPoint
 10
0.0
 20
48.566245
 30
0.0
1001
GENIUS_GENBH_13
1002
{
1000
FGO
1005
0
1002
}
1001
GENIUS_GENODEF_13
1002
{
1000
HIER
1070
     1
1002
}
1002
{
1000
MANEDIT
1070
     0
1002
}
1002
{
1000
NOSEL
1070
     1
1002
}
1002
{
1000
BEHIND
1070
     0
1002
}
1002
{
1000
REACTOR
1002
}
1001
GENIUS_GENOBJ-NBEHI-BHB_13
1002
{
1000
OWNER
1000
GENBEHI
1002
}
1001
GENIUS_GENOENT_13
1002
{
1000
MYREF
1005
17F2
1002
}
1002
{
1000
GRP
1005
0
1002
}
1001
GENIUS_GENOLIS_13
1002
{
1000
ENT
1005
1344
1005
1318
1005
1349
1005
131A
1005
1360
1005
1319
1005
1320
1002
}
  0
POINT
  5
17F3
100
AcDbEntity
  8
0
 60
     1
100
AcDbPoint
 10
0.0
 20
48.566245
 30
0.0
1001
GENIUS_GENBH_13
1002
{
1000
FGO
1005
17F4
1002
}
1001
GENIUS_GENODEF_13
1002
{
1000
HIER
1070
     1
1002
}
1002
{
1000
MANEDIT
1070
     0
1002
}
1002
{
1000
NOSEL
1070
     1
1002
}
1002
{
1000
BEHIND
1070
     0
1002
}
1002
{
1000
REACTOR
1002
}
1001
GENIUS_GENOBJ-NBEHI-BHB_13
1002
{
1000
OWNER
1000
GENBEHI
1002
}
1001
GENIUS_GENOENT_13
1002
{
1000
MYREF
1005
17F3
1002
}
1002
{
1000
GRP
1005
0
1002
}
1001
GENIUS_GENOLIS_13
1002
{
1000
ENT
1005
123A
1005
12C8
1005
1252
1005
12E0
1002
}
  0
POINT
  5
17F4
100
AcDbEntity
  8
0
 60
     1
100
AcDbPoint
 10
0.0
 20
48.566245
 30
0.0
1001
GENIUS_GENBH_13
1002
{
1000
BGO
1005
17F3
1002
}
1002
{
1000
FLAGS
1070
   164
1002
}
1002
{
1000
MODIFY
1002
{
1000
I
1000
H
1002
}
1002
}
1001
GENIUS_GENODEF_13
1002
{
1000
HIER
1070
     1
1002
}
1002
{
1000
MANEDIT
1070
     0
1002
}
1002
{
1000
NOSEL
1070
     1
1002
}
1002
{
1000
BEHIND
1070
     0
1002
}
1002
{
1000
REACTOR
1002
}
1001
GENIUS_GENOBJ-NBEHI-BHF_13
1002
{
1000
OWNER
1000
GENBEHI
1002
}
1001
GENIUS_GENOENT_13
1002
{
1000
MYREF
1005
17F4
1002
}
1002
{
1000
GRP
1005
0
1002
}
1001
GENIUS_GENOLIS_13
1002
{
1000
ENT
1005
12A5
1005
12B9
1005
121B
1005
1222
1005
125E
1005
1224
1002
}
  0
ENDSEC
  0
SECTION
  2
OBJECTS
  0
DICTIONARY
  5
C
100
AcDbDictionary
  3
ACAD_GROUP
350
D
  3
ACAD_MLINESTYLE
350
E
  0
DICTIONARY
  5
D
102
{ACAD_REACTORS
330
C
102
}
100
AcDbDictionary
  0
DICTIONARY
  5
E
102
{ACAD_REACTORS
330
C
102
}
100
AcDbDictionary
  3
STANDARD
350
13
  0
MLINESTYLE
  5
13
102
{ACAD_REACTORS
330
E
102
}
100
AcDbMlineStyle
  2
STANDARD
 70
     0
  3

 62
     0
 51
90.0
 52
90.0
 71
     2
 49
0.5
 62
   256
  6
BYLAYER
 49
-0.5
 62
   256
  6
BYLAYER
  0
ENDSEC
  0
EOF
