  0
SECTION
  2
HEADER
  9
$ACADVER
  1
AC1012
  9
$DWGCODEPAGE
  3
ansi_1252
  9
$INSBASE
 10
0.0
 20
0.0
 30
0.0
  9
$EXTMIN
 10
120.413862
 20
-60.324912
 30
0.0
  9
$EXTMAX
 10
537.673435
 20
315.881811
 30
0.0
  9
$LIMMIN
 10
0.0
 20
0.0
  9
$LIMMAX
 10
410.0
 20
287.0
  9
$ORTHOMODE
 70
     0
  9
$REGENMODE
 70
     1
  9
$FILLMODE
 70
     1
  9
$QTEXTMODE
 70
     0
  9
$MIRRTEXT
 70
     1
  9
$DRAGMODE
 70
     2
  9
$LTSCALE
 40
1.0
  9
$OSMODE
 70
    33
  9
$ATTMODE
 70
     1
  9
$TEXTSIZE
 40
3.5
  9
$TRACEWID
 40
0.05
  9
$TEXTSTYLE
  7
STANDARD
  9
$CLAYER
  8
MSL2_30_3F-0
  9
$CELTYPE
  6
BYLAYER
  9
$CECOLOR
 62
   256
  9
$CELTSCALE
 40
1.0
  9
$DELOBJ
 70
     1
  9
$DISPSILH
 70
     0
  9
$DIMSCALE
 40
1.0
  9
$DIMASZ
 40
2.5
  9
$DIMEXO
 40
1.0
  9
$DIMDLI
 40
7.0
  9
$DIMRND
 40
0.0
  9
$DIMDLE
 40
0.0
  9
$DIMEXE
 40
1.0
  9
$DIMTP
 40
0.1
  9
$DIMTM
 40
0.1
  9
$DIMTXT
 40
3.5
  9
$DIMCEN
 40
0.0
  9
$DIMTSZ
 40
0.0
  9
$DIMTOL
 70
     0
  9
$DIMLIM
 70
     0
  9
$DIMTIH
 70
     0
  9
$DIMTOH
 70
     0
  9
$DIMSE1
 70
     0
  9
$DIMSE2
 70
     0
  9
$DIMTAD
 70
     1
  9
$DIMZIN
 70
     0
  9
$DIMBLK
  1

  9
$DIMASO
 70
     1
  9
$DIMSHO
 70
     1
  9
$DIMPOST
  1
<>
  9
$DIMAPOST
  1

  9
$DIMALT
 70
     0
  9
$DIMALTD
 70
     2
  9
$DIMALTF
 40
0.03937
  9
$DIMLFAC
 40
1.0
  9
$DIMTOFL
 70
     1
  9
$DIMTVP
 40
0.0
  9
$DIMTIX
 70
     0
  9
$DIMSOXD
 70
     0
  9
$DIMSAH
 70
     0
  9
$DIMBLK1
  1

  9
$DIMBLK2
  1

  9
$DIMSTYLE
  2
GEN-ISO
  9
$DIMCLRD
 70
   256
  9
$DIMCLRE
 70
   256
  9
$DIMCLRT
 70
     2
  9
$DIMTFAC
 40
0.71
  9
$DIMGAP
 40
0.6
  9
$DIMJUST
 70
     0
  9
$DIMSD1
 70
     0
  9
$DIMSD2
 70
     0
  9
$DIMTOLJ
 70
     0
  9
$DIMTZIN
 70
     0
  9
$DIMALTZ
 70
     0
  9
$DIMALTTZ
 70
     0
  9
$DIMFIT
 70
     3
  9
$DIMUPT
 70
     0
  9
$DIMUNIT
 70
     2
  9
$DIMDEC
 70
     2
  9
$DIMTDEC
 70
     3
  9
$DIMALTU
 70
     2
  9
$DIMALTTD
 70
     4
  9
$DIMTXSTY
  7
STANDARD
  9
$DIMAUNIT
 70
     0
  9
$LUNITS
 70
     2
  9
$LUPREC
 70
     2
  9
$SKETCHINC
 40
0.1
  9
$FILLETRAD
 40
12.5
  9
$AUNITS
 70
     0
  9
$AUPREC
 70
     0
  9
$MENU
  1
acad
  9
$ELEVATION
 40
0.0
  9
$PELEVATION
 40
0.0
  9
$THICKNESS
 40
0.0
  9
$LIMCHECK
 70
     0
  9
$BLIPMODE
 70
     0
  9
$CHAMFERA
 40
0.0
  9
$CHAMFERB
 40
0.0
  9
$CHAMFERC
 40
0.0
  9
$CHAMFERD
 40
0.0
  9
$SKPOLY
 70
     0
  9
$TDCREATE
 40
2450924.346675729
  9
$TDUPDATE
 40
2450924.502332072
  9
$TDINDWG
 40
0.1458095486
  9
$TDUSRTIMER
 40
0.1458095486
  9
$USRTIMER
 70
     1
  9
$ANGBASE
 50
0.0
  9
$ANGDIR
 70
     0
  9
$PDMODE
 70
     0
  9
$PDSIZE
 40
26.441108
  9
$PLINEWID
 40
0.0
  9
$COORDS
 70
     1
  9
$SPLFRAME
 70
     0
  9
$SPLINETYPE
 70
     6
  9
$SPLINESEGS
 70
     8
  9
$ATTDIA
 70
     1
  9
$ATTREQ
 70
     1
  9
$HANDLING
 70
     1
  9
$HANDSEED
  5
13C3
  9
$SURFTAB1
 70
     6
  9
$SURFTAB2
 70
     6
  9
$SURFTYPE
 70
     6
  9
$SURFU
 70
     6
  9
$SURFV
 70
     6
  9
$UCSNAME
  2

  9
$UCSORG
 10
0.0
 20
0.0
 30
0.0
  9
$UCSXDIR
 10
1.0
 20
0.0
 30
0.0
  9
$UCSYDIR
 10
0.0
 20
1.0
 30
0.0
  9
$PUCSNAME
  2

  9
$PUCSORG
 10
0.0
 20
0.0
 30
0.0
  9
$PUCSXDIR
 10
1.0
 20
0.0
 30
0.0
  9
$PUCSYDIR
 10
0.0
 20
1.0
 30
0.0
  9
$USERI1
 70
     0
  9
$USERI2
 70
     0
  9
$USERI3
 70
     0
  9
$USERI4
 70
     0
  9
$USERI5
 70
     0
  9
$USERR1
 40
0.0
  9
$USERR2
 40
0.0
  9
$USERR3
 40
0.0
  9
$USERR4
 40
0.0
  9
$USERR5
 40
0.0
  9
$WORLDVIEW
 70
     1
  9
$SHADEDGE
 70
     3
  9
$SHADEDIF
 70
    70
  9
$TILEMODE
 70
     1
  9
$MAXACTVP
 70
    16
  9
$PINSBASE
 10
0.0
 20
0.0
 30
0.0
  9
$PLIMCHECK
 70
     0
  9
$PEXTMIN
 10
1.000000E+20
 20
1.000000E+20
 30
1.000000E+20
  9
$PEXTMAX
 10
-1.000000E+20
 20
-1.000000E+20
 30
-1.000000E+20
  9
$PLIMMIN
 10
0.0
 20
0.0
  9
$PLIMMAX
 10
12.0
 20
9.0
  9
$UNITMODE
 70
     0
  9
$VISRETAIN
 70
     0
  9
$PLINEGEN
 70
     0
  9
$PSLTSCALE
 70
     1
  9
$TREEDEPTH
 70
  3020
  9
$PICKSTYLE
 70
     1
  9
$CMLSTYLE
  2
STANDARD
  9
$CMLJUST
 70
     0
  9
$CMLSCALE
 40
1.0
  9
$SAVEIMAGES
 70
     0
  0
ENDSEC
  0
SECTION
  2
CLASSES
  0
ENDSEC
  0
SECTION
  2
TABLES
  0
TABLE
  2
VPORT
  5
12
100
AcDbSymbolTable
 70
     2
  0
VPORT
  5
13C2
100
AcDbSymbolTableRecord
100
AcDbViewportTableRecord
  2
*ACTIVE
 70
     0
 10
0.0
 20
0.0
 11
1.0
 21
1.0
 12
428.301445
 22
127.778449
 13
0.0
 23
0.0
 14
5.0
 24
5.0
 15
50.0
 25
50.0
 16
0.0
 26
0.0
 36
1.0
 17
0.0
 27
0.0
 37
0.0
 40
470.258404
 41
1.6368
 42
50.0
 43
0.0
 44
0.0
 50
0.0
 51
0.0
 71
     0
 72
 10000
 73
     1
 74
     0
 75
     0
 76
     0
 77
     0
 78
     0
  0
ENDTAB
  0
TABLE
  2
LTYPE
  5
E
100
AcDbSymbolTable
 70
     4
  0
LTYPE
  5
F
100
AcDbSymbolTableRecord
100
AcDbLinetypeTableRecord
  2
BYBLOCK
 70
     0
  3

 72
    65
 73
     0
 40
0.0
  0
LTYPE
  5
6
100
AcDbSymbolTableRecord
100
AcDbLinetypeTableRecord
  2
BYLAYER
 70
     0
  3

 72
    65
 73
     0
 40
0.0
  0
LTYPE
  5
5
100
AcDbSymbolTableRecord
100
AcDbLinetypeTableRecord
  2
CONTINUOUS
 70
    64
  3
Solid line
 72
    65
 73
     0
 40
0.0
  0
LTYPE
  5
58
100
AcDbSymbolTableRecord
100
AcDbLinetypeTableRecord
  2
GEN3
 70
    64
  3
-- -- -- -- -- -- -- -- -- -- -- -- -- -- --
 72
    65
 73
     2
 40
6.25
 49
5.0
 74
     0
 49
-1.25
 74
     0
  0
LTYPE
  5
21
100
AcDbSymbolTableRecord
100
AcDbLinetypeTableRecord
  2
GEN7A
 70
    64
  3
__ . __ . __
 72
    65
 73
     4
 40
7.5
 49
5.0
 74
     0
 49
-1.25
 74
     0
 49
0.0
 74
     0
 49
-1.25
 74
     0
  0
LTYPE
  5
3BA
100
AcDbSymbolTableRecord
100
AcDbLinetypeTableRecord
  2
CENTER
 70
    64
  3
____ _ ____ _ ____ _ ____ _ ____ _ ____ _ ____
 72
    65
 73
     4
 40
2.0
 49
1.25
 74
     0
 49
-0.25
 74
     0
 49
0.25
 74
     0
 49
-0.25
 74
     0
  0
ENDTAB
  0
TABLE
  2
LAYER
  5
B
100
AcDbSymbolTable
 70
     7
  0
LAYER
  5
4
100
AcDbSymbolTableRecord
100
AcDbLayerTableRecord
  2
0
 70
    64
 62
     7
  6
CONTINUOUS
  0
LAYER
  5
1B
100
AcDbSymbolTableRecord
100
AcDbLayerTableRecord
  2
MSL2_30_3F-0
 70
    64
 62
     7
  6
CONTINUOUS
  0
LAYER
  5
20
100
AcDbSymbolTableRecord
100
AcDbLayerTableRecord
  2
MSL2_30_3F-7
 70
    64
 62
     4
  6
GEN7A
  0
LAYER
  5
3E
100
AcDbSymbolTableRecord
100
AcDbLayerTableRecord
  2
MSL2_30_3F-4
 70
    64
 62
     3
  6
CONTINUOUS
  0
LAYER
  5
57
100
AcDbSymbolTableRecord
100
AcDbLayerTableRecord
  2
MSL2_30_3F-3
 70
    64
 62
     6
  6
GEN3
  0
LAYER
  5
48
100
AcDbSymbolTableRecord
100
AcDbLayerTableRecord
  2
MSL2_30_3F-6
 70
    64
 62
     2
  6
CONTINUOUS
  0
LAYER
  5
235
100
AcDbSymbolTableRecord
100
AcDbLayerTableRecord
  2
INFO
 70
    64
 62
     4
  6
CONTINUOUS
  0
ENDTAB
  0
TABLE
  2
STYLE
  5
C
100
AcDbSymbolTable
 70
     1
  0
STYLE
  5
D
100
AcDbSymbolTableRecord
100
AcDbTextStyleTableRecord
  2
STANDARD
 70
    64
 40
0.0
 41
1.0
 50
0.0
 71
     0
 42
3.5
  3
geniso.shx
  4

  0
ENDTAB
  0
TABLE
  2
VIEW
  5
10
100
AcDbSymbolTable
 70
     0
  0
ENDTAB
  0
TABLE
  2
UCS
  5
11
100
AcDbSymbolTable
 70
     0
  0
ENDTAB
  0
TABLE
  2
APPID
  5
14
100
AcDbSymbolTable
 70
    39
  0
APPID
  5
15
100
AcDbSymbolTableRecord
100
AcDbRegAppTableRecord
  2
ACAD
 70
     0
  0
APPID
  5
2C
100
AcDbSymbolTableRecord
100
AcDbRegAppTableRecord
  2
GENIUS_GENOENT_13
 70
     0
1001
GENIUS_GENOBJ_13
1070
     2
  0
APPID
  5
31
100
AcDbSymbolTableRecord
100
AcDbRegAppTableRecord
  2
GENIUS_GENBH_13
 70
     0
1001
GENIUS_GENOBJ_13
1070
     1
  0
APPID
  5
2B
100
AcDbSymbolTableRecord
100
AcDbRegAppTableRecord
  2
GENIUS_GENOBJ_13
 70
     0
1001
GENIUS_GENODEF_13
1070
     0
1001
GENIUS_GENOLIS_13
1070
     0
1001
GENIUS_GENOREF_13
1070
     0
1001
GENIUS_GENOBJ-NBEHI-BHF_13
1070
     0
1001
GENIUS_GENOBJ-NBEHI-BHB_13
1070
     0
1001
GENIUS_GENBH_13
1070
     1
1001
GENIUS_GENOBJ-F-PART_13
1070
     0
1001
GENIUS_GEFSTDP_13
1070
     0
1001
GENIUS_GENOBJ-N-CRS_13
1070
     0
1001
GENIUS_GENOBJ-N-RSSYM_13
1070
     1
1001
GENIUS_GENSYMENT_13
1070
     1
1001
GENIUS_GENOENT_13
1070
     0
1070
     2
  0
APPID
  5
2A
100
AcDbSymbolTableRecord
100
AcDbRegAppTableRecord
  2
GENIUS_GENODEF_13
 70
     0
1001
GENIUS_GENOBJ_13
1070
     0
  0
APPID
  5
2D
100
AcDbSymbolTableRecord
100
AcDbRegAppTableRecord
  2
GENIUS_GENOLIS_13
 70
     0
1001
GENIUS_GENOBJ_13
1070
     0
  0
APPID
  5
2E
100
AcDbSymbolTableRecord
100
AcDbRegAppTableRecord
  2
GENIUS_GENOREF_13
 70
     0
1001
GENIUS_GENOBJ_13
1070
     0
  0
APPID
  5
2F
100
AcDbSymbolTableRecord
100
AcDbRegAppTableRecord
  2
GENIUS_GENOBJ-NBEHI-BHF_13
 70
     0
1001
GENIUS_GENOBJ_13
1070
     0
  0
APPID
  5
30
100
AcDbSymbolTableRecord
100
AcDbRegAppTableRecord
  2
GENIUS_GENOBJ-NBEHI-BHB_13
 70
     0
1001
GENIUS_GENOBJ_13
1070
     0
  0
APPID
  5
32
100
AcDbSymbolTableRecord
100
AcDbRegAppTableRecord
  2
GENIUS_GENOBJ-F-PART_13
 70
     0
1001
GENIUS_GENOBJ_13
1070
     0
  0
APPID
  5
33
100
AcDbSymbolTableRecord
100
AcDbRegAppTableRecord
  2
GENIUS_GEFSTDP_13
 70
     0
1001
GENIUS_GENOBJ_13
1070
     0
  0
APPID
  5
34
100
AcDbSymbolTableRecord
100
AcDbRegAppTableRecord
  2
GENIUS_GENOBJ-N-CRS_13
 70
     0
1001
GENIUS_GENOBJ_13
1070
     0
  0
APPID
  5
277
100
AcDbSymbolTableRecord
100
AcDbRegAppTableRecord
  2
GENIUS_GENINF13_13
 70
     0
  0
APPID
  5
276
100
AcDbSymbolTableRecord
100
AcDbRegAppTableRecord
  2
GENIUS_GENOBJ-N-INFOPT_13
 70
     0
  0
APPID
  5
35
100
AcDbSymbolTableRecord
100
AcDbRegAppTableRecord
  2
GENIUS_GENOBJ-N-RSSYM_13
 70
     0
1001
GENIUS_GENOBJ_13
1070
     1
  0
APPID
  5
36
100
AcDbSymbolTableRecord
100
AcDbRegAppTableRecord
  2
GENIUS_GENSYMENT_13
 70
     0
1001
GENIUS_GENOBJ_13
1070
     1
  0
APPID
  5
275
100
AcDbSymbolTableRecord
100
AcDbRegAppTableRecord
  2
GENIUS_GENSCSYM_13
 70
     0
  0
APPID
  5
37
100
AcDbSymbolTableRecord
100
AcDbRegAppTableRecord
  2
GENIUS_GENOBJ-N-CEN_13
 70
     0
  0
APPID
  5
2A6
100
AcDbSymbolTableRecord
100
AcDbRegAppTableRecord
  2
VCC
 70
     0
  0
APPID
  5
2A8
100
AcDbSymbolTableRecord
100
AcDbRegAppTableRecord
  2
GEVPT
 70
     0
  0
APPID
  5
2A7
100
AcDbSymbolTableRecord
100
AcDbRegAppTableRecord
  2
GEVIT
 70
     0
  0
APPID
  5
18B
100
AcDbSymbolTableRecord
100
AcDbRegAppTableRecord
  2
GENBH
 70
     0
  0
APPID
  5
2A5
100
AcDbSymbolTableRecord
100
AcDbRegAppTableRecord
  2
GENIUS_GEFPARTINS_13
 70
     0
  0
APPID
  5
7D
100
AcDbSymbolTableRecord
100
AcDbRegAppTableRecord
  2
GENIUS_GENOBJ-N-FIL_13
 70
     0
  0
APPID
  5
2A9
100
AcDbSymbolTableRecord
100
AcDbRegAppTableRecord
  2
GEVID893062865
 70
     0
  0
APPID
  5
4BE
100
AcDbSymbolTableRecord
100
AcDbRegAppTableRecord
  2
GENIUS_GENCFG_13
 70
     0
1001
GENIUS_GEFCFG0_13
1000
GEF
1001
GENIUS_GENCFG0_13
1000
GEN@INFO_POS@XLATE
1001
GENIUS_GENCFG1_13
1000
GEN@LAYER@DEFS
1001
GENIUS_GENCFG2_13
1000
GEN@LAYER@ENTSORT
1001
GENIUS_GENCFG3_13
1000
GEN@OSWIZ
1001
GENIUS_GENCFG4_13
1000
GEN
1001
GENIUS_GEVCFG0_13
1000
GEV
  0
APPID
  5
4BF
100
AcDbSymbolTableRecord
100
AcDbRegAppTableRecord
  2
GENIUS_GEFCFG0_13
 70
     0
1001
GENIUS_GENCFG_13
1071
893064791
1000
4BF
1000
GEF
1070
     5
1000
GenCfgObject
1000
GenCfgString
1000
GenCfgReal
1000
GenCfgShort
1000
GenCfgBool
1000
System
1070
     0
1002
{
1002
}
1000
Prese
1070
     0
1002
{
1000
Funk
1070
     1
1000

1002
{
1002
}
1000
FunkDef
1070
     1
1000

1002
{
1002
}
1000
GefIso
1070
     1
1000
DIN
1002
{
1002
}
1002
}
1000
FEM
1070
     0
1002
{
1000
LayGroup
1070
     1
1000
FEM
1002
{
1002
}
1000
IncrCoef
1070
     2
1040
0.0
1002
{
1002
}
1002
}
1000
Shaft
1070
     0
1002
{
1000
Interrupt
1070
     3
1070
     0
1002
{
1002
}
1002
}
1000
PartDb
1070
     0
1002
{
1000
PartCreate
1070
     0
1002
{
1002
}
1002
}
1000
Symbol
1070
     0
1002
{
1000
WeldStyle
1070
     1
1000
ISO
1002
{
1002
}
1000
WeldSize
1070
     2
1040
1.0
1002
{
1002
}
1000
WeldFlag
1070
     4
1070
     1
1002
{
1002
}
1000
WeldOffset
1070
     4
1070
     1
1002
{
1002
}
1000
TolCType
1070
     1
1000
ISO
1002
{
1002
}
1000
TolCSize
1070
     2
1040
1.0
1002
{
1002
}
1000
STextureSize
1070
     2
1040
1.0
1002
{
1002
}
1000
SurfaceType
1070
     1
1000

1002
{
1002
}
1000
M
1070
     0
1002
{
1000
WeldWidth
1070
     2
1040
3.0
1002
{
1002
}
1002
}
1000
I
1070
     0
1002
{
1000
WeldWidth
1070
     2
1040
0.125
1002
{
1002
}
1002
}
1002
}
  0
APPID
  5
4C0
100
AcDbSymbolTableRecord
100
AcDbRegAppTableRecord
  2
GENIUS_GENCFG0_13
 70
     0
1001
GENIUS_GENCFG_13
1071
893064791
1000
4C0
1000
GEN@INFO_POS@XLATE
1070
     7
1000
GenCfgObject
1000
GenCfgShort
1000
GenCfgReal
1000
GenCfgBool
1000
GenCfgString
1000
GenCfgDim
1000
GenCfgAttrInf
1000
INFOPOINTS
1070
     0
1002
{
1000
GENINF13
1070
     0
1002
{
1000
2GENINF
1070
     4
1000
2
1002
{
1002
}
1000
3GENINF
1070
     4
1000
3
1002
{
1002
}
1000
4GENINF
1070
     4
1000
4
1002
{
1002
}
1000
5GENINF
1070
     4
1000
5
1002
{
1002
}
1000
6GENINF
1070
     4
1000
6
1002
{
1002
}
1000
7GENINF
1070
     4
1000
7
1002
{
1002
}
1000
8GENINF
1070
     4
1000
8
1002
{
1002
}
1000
9GENINF
1070
     4
1000
9
1002
{
1002
}
1000
10GENINF
1070
     4
1000
10
1002
{
1002
}
1000
11GENINF
1070
     4
1000
11
1002
{
1002
}
1000
12GENINF
1070
     4
1000
12
1002
{
1002
}
1000
13GENINF
1070
     4
1000
13
1002
{
1002
}
1000
14GENINF
1070
     4
1000
14
1002
{
1002
}
1000
15GENINF
1070
     4
1000
15
1002
{
1002
}
1000
16GENINF
1070
     4
1000
16
1002
{
1002
}
1000
17GENINF
1070
     4
1000
17
1002
{
1002
}
1000
18GENINF
1070
     4
1000
18
1002
{
1002
}
1000
19GENINF
1070
     4
1000
19
1002
{
1002
}
1000
20GENINF
1070
     4
1000
20
1002
{
1002
}
1000
21GENINF
1070
     4
1000
21
1002
{
1002
}
1000
22GENINF
1070
     4
1000
22
1002
{
1002
}
1000
23GENINF
1070
     4
1000
23
1002
{
1002
}
1000
24GENINF
1070
     4
1000
24
1002
{
1002
}
1000
0GENINF
1070
     4
1000
0
1002
{
1002
}
1002
}
1000
GENINFO
1070
     0
1002
{
1000
3GENINF
1070
     4
1000
3
1002
{
1002
}
1000
4GENINF
1070
     4
1000
4
1002
{
1002
}
1000
5GENINF
1070
     4
1000
5
1002
{
1002
}
1000
6GENINF
1070
     4
1000
6
1002
{
1002
}
1000
7GENINF
1070
     4
1000
7
1002
{
1002
}
1000
8GENINF
1070
     4
1000
8
1002
{
1002
}
1000
9GENINF
1070
     4
1000
9
1002
{
1002
}
1000
10GENINF
1070
     4
1000
10
1002
{
1002
}
1000
11GENINF
1070
     4
1000
11
1002
{
1002
}
1000
12GENINF
1070
     4
1000
12
1002
{
1002
}
1000
13GENINF
1070
     4
1000
13
1002
{
1002
}
1000
14GENINF
1070
     4
1000
14
1002
{
1002
}
1000
15GENINF
1070
     4
1000
15
1002
{
1002
}
1000
16GENINF
1070
     4
1000
16
1002
{
1002
}
1000
17GENINF
1070
     4
1000
17
1002
{
1002
}
1000
18GENINF
1070
     4
1000
18
1002
{
1002
}
1000
19GENINF
1070
     4
1000
19
1002
{
1002
}
1000
20GENINF
1070
     4
1000
20
1002
{
1002
}
1000
21GENINF
1070
     4
1000
21
1002
{
1002
}
1000
22GENINF
1070
     4
1000
22
1002
{
1002
}
1002
}
1000
DININFO
1070
     0
1002
{
1000
ST-NAME1
1070
     4
1000
5
1002
{
1002
}
1000
ST-NAME2
1070
     4
1000
6
1002
{
1002
}
1000
ST-NORM1
1070
     4
1000
7
1002
{
1002
}
1000
ST-NORM2
1070
     4
1000
8
1002
{
1002
}
1000
ST-MAT1
1070
     4
1000
9
1002
{
1002
}
1000
ST-MAT2
1070
     4
1000
10
1002
{
1002
}
1002
}
1002
}
1000
POS_NUMBERS
1070
     0
1002
{
1000
GENPOS13
1070
     0
1002
{
1000
1GENPOS
1070
     4
1000
1
1002
{
1002
}
1000
2GENPOS
1070
     4
1000
2
1002
{
1002
}
1000
3GENPOS
1070
     4
1000
3
1002
{
1002
}
1000
4GENPOS
1070
     4
1000
4
1002
{
1002
}
1000
5GENPOS
1070
     4
1000
5
1002
{
1002
}
1000
6GENPOS
1070
     4
1000
6
1002
{
1002
}
1000
7GENPOS
1070
     4
1000
7
1002
{
1002
}
1000
8GENPOS
1070
     4
1000
8
1002
{
1002
}
1000
9GENPOS
1070
     4
1000
9
1002
{
1002
}
1000
10GENPOS
1070
     4
1000
10
1002
{
1002
}
1000
11GENPOS
1070
     4
1000
11
1002
{
1002
}
1000
12GENPOS
1070
     4
1000
12
1002
{
1002
}
1000
13GENPOS
1070
     4
1000
13
1002
{
1002
}
1000
14GENPOS
1070
     4
1000
14
1002
{
1002
}
1000
15GENPOS
1070
     4
1000
15
1002
{
1002
}
1000
16GENPOS
1070
     4
1000
16
1002
{
1002
}
1000
17GENPOS
1070
     4
1000
17
1002
{
1002
}
1000
18GENPOS
1070
     4
1000
18
1002
{
1002
}
1000
19GENPOS
1070
     4
1000
19
1002
{
1002
}
1000
20GENPOS
1070
     4
1000
20
1002
{
1002
}
1000
21GENPOS
1070
     4
1000
21
1002
{
1002
}
1000
22GENPOS
1070
     4
1000
22
1002
{
1002
}
1000
23GENPOS
1070
     4
1000
23
1002
{
1002
}
1000
24GENPOS
1070
     4
1000
24
1002
{
1002
}
1000
0GENPOS
1070
     4
1000
0
1002
{
1002
}
1002
}
1000
GENPOS
1070
     0
1002
{
1000
1GENPOS
1070
     4
1000
1
1002
{
1002
}
1000
2GENPOS
1070
     4
1000
2
1002
{
1002
}
1000
3GENPOS
1070
     4
1000
3
1002
{
1002
}
1000
4GENPOS
1070
     4
1000
4
1002
{
1002
}
1000
5GENPOS
1070
     4
1000
5
1002
{
1002
}
1000
6GENPOS
1070
     4
1000
6
1002
{
1002
}
1000
7GENPOS
1070
     4
1000
7
1002
{
1002
}
1000
8GENPOS
1070
     4
1000
8
1002
{
1002
}
1000
9GENPOS
1070
     4
1000
9
1002
{
1002
}
1000
10GENPOS
1070
     4
1000
10
1002
{
1002
}
1000
11GENPOS
1070
     4
1000
11
1002
{
1002
}
1000
12GENPOS
1070
     4
1000
12
1002
{
1002
}
1000
13GENPOS
1070
     4
1000
13
1002
{
1002
}
1000
14GENPOS
1070
     4
1000
14
1002
{
1002
}
1000
15GENPOS
1070
     4
1000
15
1002
{
1002
}
1000
16GENPOS
1070
     4
1000
16
1002
{
1002
}
1000
17GENPOS
1070
     4
1000
17
1002
{
1002
}
1000
18GENPOS
1070
     4
1000
18
1002
{
1002
}
1000
19GENPOS
1070
     4
1000
19
1002
{
1002
}
1000
20GENPOS
1070
     4
1000
20
1002
{
1002
}
1000
21GENPOS
1070
     4
1000
21
1002
{
1002
}
1000
22GENPOS
1070
     4
1000
22
1002
{
1002
}
1000
23GENPOS
1070
     4
1000
23
1002
{
1002
}
1002
}
1000
DIN985
1070
     0
1002
{
1000
POSITION
1070
     4
1000
1
1002
{
1002
}
1000
MENGE
1070
     4
1000
2
1002
{
1002
}
1000
BLATT
1070
     4
1000
3
1002
{
1002
}
1000
BENENN
1070
     4
1000
5
1002
{
1002
}
1000
BENENN2
1070
     4
1000
6
1002
{
1002
}
1000
NORM
1070
     4
1000
7
1002
{
1002
}
1000
NORM2
1070
     4
1000
8
1002
{
1002
}
1000
WERKSTOFF
1070
     4
1000
9
1002
{
1002
}
1000
WERKSTOFF2
1070
     4
1000
10
1002
{
1002
}
1002
}
1000
DIN986
1070
     0
1002
{
1000
POSITION
1070
     4
1000
1
1002
{
1002
}
1000
MENGE
1070
     4
1000
2
1002
{
1002
}
1000
BLATT
1070
     4
1000
3
1002
{
1002
}
1000
BENENN
1070
     4
1000
5
1002
{
1002
}
1000
BENENN2
1070
     4
1000
6
1002
{
1002
}
1000
NORM
1070
     4
1000
7
1002
{
1002
}
1000
NORM2
1070
     4
1000
8
1002
{
1002
}
1000
WERKSTOFF
1070
     4
1000
9
1002
{
1002
}
1000
WERKSTOFF2
1070
     4
1000
10
1002
{
1002
}
1002
}
1000
DIN987
1070
     0
1002
{
1000
POSITION
1070
     4
1000
1
1002
{
1002
}
1000
MENGE
1070
     4
1000
2
1002
{
1002
}
1000
BLATT
1070
     4
1000
3
1002
{
1002
}
1000
BENENN
1070
     4
1000
5
1002
{
1002
}
1000
BENENN2
1070
     4
1000
6
1002
{
1002
}
1000
NORM
1070
     4
1000
7
1002
{
1002
}
1000
NORM2
1070
     4
1000
8
1002
{
1002
}
1000
WERKSTOFF
1070
     4
1000
9
1002
{
1002
}
1000
WERKSTOFF2
1070
     4
1000
10
1002
{
1002
}
1002
}
1002
}
  0
APPID
  5
4C1
100
AcDbSymbolTableRecord
100
AcDbRegAppTableRecord
  2
GENIUS_GENCFG1_13
 70
     0
1001
GENIUS_GENCFG_13
1071
893064791
1000
4C1
1000
GEN@LAYER@DEFS
1070
     9
1000
GenCfgObject
1000
GenCfgShort
1000
GenCfgReal
1000
GenCfgBool
1000
GenCfgString
1000
GenCfgDim
1000
GenCfgAttrInf
1000
GenCfgLaySection
1000
GenCfgLayer
1000
Basic
1070
     0
1002
{
1000
0
1070
     8
1000
0
1002
{
1000
Color
1070
     1
1070
     7
1002
{
1002
}
1000
LType
1070
     4
1000
CONTINUOUS
1002
{
1002
}
1000
Base
1070
     3
1070
     0
1002
{
1002
}
1002
}
1000
1
1070
     8
1000
1
1002
{
1000
Color
1070
     1
1070
    14
1002
{
1002
}
1000
LType
1070
     4
1000
CONTINUOUS
1002
{
1002
}
1000
Base
1070
     3
1070
     0
1002
{
1002
}
1002
}
1000
2
1070
     8
1000
2
1002
{
1000
Color
1070
     1
1070
     5
1002
{
1002
}
1000
LType
1070
     4
1000
CONTINUOUS
1002
{
1002
}
1000
Base
1070
     3
1070
     0
1002
{
1002
}
1002
}
1000
3
1070
     8
1000
3
1002
{
1000
Color
1070
     1
1070
     6
1002
{
1002
}
1000
LType
1070
     4
1000
GEN3
1002
{
1002
}
1000
Base
1070
     3
1070
     0
1002
{
1002
}
1002
}
1000
4
1070
     8
1000
4
1002
{
1000
Color
1070
     1
1070
     3
1002
{
1002
}
1000
LType
1070
     4
1000
CONTINUOUS
1002
{
1002
}
1000
Base
1070
     3
1070
     0
1002
{
1002
}
1002
}
1000
5
1070
     8
1000
5
1002
{
1000
Color
1070
     1
1070
     3
1002
{
1002
}
1000
LType
1070
     4
1000
CONTINUOUS
1002
{
1002
}
1000
Base
1070
     3
1070
     0
1002
{
1002
}
1002
}
1000
6
1070
     8
1000
6
1002
{
1000
Color
1070
     1
1070
     2
1002
{
1002
}
1000
LType
1070
     4
1000
CONTINUOUS
1002
{
1002
}
1000
Base
1070
     3
1070
     0
1002
{
1002
}
1002
}
1000
7
1070
     8
1000
7
1002
{
1000
Color
1070
     1
1070
     4
1002
{
1002
}
1000
LType
1070
     4
1000
GEN7
1002
{
1002
}
1000
Base
1070
     3
1070
     0
1002
{
1002
}
1002
}
1000
8
1070
     8
1000
8
1002
{
1000
Color
1070
     1
1070
     1
1002
{
1002
}
1000
LType
1070
     4
1000
CONTINUOUS
1002
{
1002
}
1000
Base
1070
     3
1070
     0
1002
{
1002
}
1002
}
1000
3A
1070
     8
1000
3A
1002
{
1000
Color
1070
     1
1070
     6
1002
{
1002
}
1000
LType
1070
     4
1000
GEN3A
1002
{
1002
}
1000
Base
1070
     3
1070
     0
1002
{
1002
}
1002
}
1000
7A
1070
     8
1000
7A
1002
{
1000
Color
1070
     1
1070
     4
1002
{
1002
}
1000
LType
1070
     4
1000
GEN7A
1002
{
1002
}
1000
Base
1070
     3
1070
     0
1002
{
1002
}
1002
}
1000
2A
1070
     8
1000
2A
1002
{
1000
Color
1070
     1
1070
     7
1002
{
1002
}
1000
LType
1070
     4
1000
GEN7
1002
{
1002
}
1000
Base
1070
     3
1070
     0
1002
{
1002
}
1002
}
1000
4A
1070
     8
1000
4A
1002
{
1000
Color
1070
     1
1070
     3
1002
{
1002
}
1000
LType
1070
     4
1000
GEN4A
1002
{
1002
}
1000
Base
1070
     3
1070
     0
1002
{
1002
}
1002
}
1000
9
1070
     8
1000
9
1002
{
1000
Color
1070
     1
1070
   253
1002
{
1002
}
1000
LType
1070
     4
1000
CONTINUOUS
1002
{
1002
}
1000
Base
1070
     3
1070
     0
1002
{
1002
}
1002
}
1002
}
1000
Standard
1070
     0
1002
{
1000
0N
1070
     8
1000
0N
1002
{
1000
Color
1070
     1
1070
     7
1002
{
1002
}
1000
LType
1070
     4
1000
CONTINUOUS
1002
{
1002
}
1000
Base
1070
     3
1070
     0
1002
{
1002
}
1002
}
1000
1N
1070
     8
1000
1N
1002
{
1000
Color
1070
     1
1070
    14
1002
{
1002
}
1000
LType
1070
     4
1000
CONTINUOUS
1002
{
1002
}
1000
Base
1070
     3
1070
     0
1002
{
1002
}
1002
}
1000
2N
1070
     8
1000
2N
1002
{
1000
Color
1070
     1
1070
     5
1002
{
1002
}
1000
LType
1070
     4
1000
CONTINUOUS
1002
{
1002
}
1000
Base
1070
     3
1070
     0
1002
{
1002
}
1002
}
1000
3N
1070
     8
1000
3N
1002
{
1000
Color
1070
     1
1070
     6
1002
{
1002
}
1000
LType
1070
     4
1000
GEN3
1002
{
1002
}
1000
Base
1070
     3
1070
     0
1002
{
1002
}
1002
}
1000
4N
1070
     8
1000
4N
1002
{
1000
Color
1070
     1
1070
     3
1002
{
1002
}
1000
LType
1070
     4
1000
CONTINUOUS
1002
{
1002
}
1000
Base
1070
     3
1070
     0
1002
{
1002
}
1002
}
1000
5N
1070
     8
1000
5N
1002
{
1000
Color
1070
     1
1070
     3
1002
{
1002
}
1000
LType
1070
     4
1000
CONTINUOUS
1002
{
1002
}
1000
Base
1070
     3
1070
     0
1002
{
1002
}
1002
}
1000
6N
1070
     8
1000
6N
1002
{
1000
Color
1070
     1
1070
     2
1002
{
1002
}
1000
LType
1070
     4
1000
CONTINUOUS
1002
{
1002
}
1000
Base
1070
     3
1070
     0
1002
{
1002
}
1002
}
1000
7N
1070
     8
1000
7N
1002
{
1000
Color
1070
     1
1070
     4
1002
{
1002
}
1000
LType
1070
     4
1000
GEN7
1002
{
1002
}
1000
Base
1070
     3
1070
     0
1002
{
1002
}
1002
}
1000
8N
1070
     8
1000
8N
1002
{
1000
Color
1070
     1
1070
     1
1002
{
1002
}
1000
LType
1070
     4
1000
CONTINUOUS
1002
{
1002
}
1000
Base
1070
     3
1070
     0
1002
{
1002
}
1002
}
1000
3AN
1070
     8
1000
3AN
1002
{
1000
Color
1070
     1
1070
     6
1002
{
1002
}
1000
LType
1070
     4
1000
GEN3A
1002
{
1002
}
1000
Base
1070
     3
1070
     0
1002
{
1002
}
1002
}
1000
7AN
1070
     8
1000
7AN
1002
{
1000
Color
1070
     1
1070
     4
1002
{
1002
}
1000
LType
1070
     4
1000
GEN7A
1002
{
1002
}
1000
Base
1070
     3
1070
     0
1002
{
1002
}
1002
}
1000
2AN
1070
     8
1000
2AN
1002
{
1000
Color
1070
     1
1070
     7
1002
{
1002
}
1000
LType
1070
     4
1000
GEN7
1002
{
1002
}
1000
Base
1070
     3
1070
     0
1002
{
1002
}
1002
}
1000
4AN
1070
     8
1000
4AN
1002
{
1000
Color
1070
     1
1070
     3
1002
{
1002
}
1000
LType
1070
     4
1000
GEN4A
1002
{
1002
}
1000
Base
1070
     3
1070
     0
1002
{
1002
}
1002
}
1000
9N
1070
     8
1000
9N
1002
{
1000
Color
1070
     1
1070
   253
1002
{
1002
}
1000
LType
1070
     4
1000
CONTINUOUS
1002
{
1002
}
1000
Base
1070
     3
1070
     0
1002
{
1002
}
1002
}
1002
}
1000
Extra
1070
     0
1002
{
1000
Klin
1070
     8
1000
KLIN
1002
{
1000
Color
1070
     1
1070
     1
1002
{
1002
}
1000
LType
1070
     4
1000
CONTINUOUS
1002
{
1002
}
1000
Base
1070
     3
1070
     1
1002
{
1002
}
1002
}
1000
Info
1070
     8
1000
INFO
1002
{
1000
Color
1070
     1
1070
     4
1002
{
1002
}
1000
LType
1070
     4
1000
CONTINUOUS
1002
{
1002
}
1000
Base
1070
     3
1070
     1
1002
{
1002
}
1002
}
1000
Rahm2
1070
     8
1000
RAHM2
1002
{
1000
Color
1070
     1
1070
     1
1002
{
1002
}
1000
LType
1070
     4
1000
CONTINUOUS
1002
{
1002
}
1000
Base
1070
     3
1070
     1
1002
{
1002
}
1002
}
1000
Rahm3
1070
     8
1000
RAHM3
1002
{
1000
Color
1070
     1
1070
     2
1002
{
1002
}
1000
LType
1070
     4
1000
CONTINUOUS
1002
{
1002
}
1000
Base
1070
     3
1070
     1
1002
{
1002
}
1002
}
1000
Rahm5
1070
     8
1000
RAHM5
1002
{
1000
Color
1070
     1
1070
     7
1002
{
1002
}
1000
LType
1070
     4
1000
CONTINUOUS
1002
{
1002
}
1000
Base
1070
     3
1070
     1
1002
{
1002
}
1002
}
1000
View
1070
     8
1000
VIEW
1002
{
1000
Color
1070
     1
1070
     1
1002
{
1002
}
1000
LType
1070
     4
1000
CONTINUOUS
1002
{
1002
}
1000
Base
1070
     3
1070
     1
1002
{
1002
}
1002
}
1000
Behind
1070
     8
1000
BEHIND
1002
{
1000
Color
1070
     1
1070
   253
1002
{
1002
}
1000
LType
1070
     4
1000
CONTINUOUS
1002
{
1002
}
1000
Base
1070
     3
1070
     1
1002
{
1002
}
1002
}
1002
}
  0
APPID
  5
4C2
100
AcDbSymbolTableRecord
100
AcDbRegAppTableRecord
  2
GENIUS_GENCFG2_13
 70
     0
1001
GENIUS_GENCFG_13
1071
893064791
1000
4C2
1000
GEN@LAYER@ENTSORT
1070
    10
1000
GenCfgObject
1000
GenCfgShort
1000
GenCfgReal
1000
GenCfgBool
1000
GenCfgString
1000
GenCfgDim
1000
GenCfgAttrInf
1000
GenCfgLaySection
1000
GenCfgLayer
1000
GenCfgEntSort
1000
ALTR
1070
     9
1000
4
1002
{
1000
Class
1070
     4
1000

1002
{
1002
}
1000
Color
1070
     1
1070
     7
1002
{
1002
}
1000
LType
1070
     4
1000
GEN3A
1002
{
1002
}
1002
}
1000
BELI
1070
     9
1000
4
1002
{
1000
Class
1070
     4
1000

1002
{
1002
}
1000
Color
1070
     1
1070
   256
1002
{
1002
}
1000
LType
1070
     4
1000
BYLAYER
1002
{
1002
}
1002
}
1000
BHNV
1070
     9
1000
9
1002
{
1000
Class
1070
     4
1000
INV
1002
{
1002
}
1000
Color
1070
     1
1070
   256
1002
{
1002
}
1000
LType
1070
     4
1000
BYLAYER
1002
{
1002
}
1002
}
1000
BHNVS
1070
     9
1000
BEHIND
1002
{
1000
Class
1070
     4
1000
INV
1002
{
1002
}
1000
Color
1070
     1
1070
   256
1002
{
1002
}
1000
LType
1070
     4
1000
BYLAYER
1002
{
1002
}
1002
}
1000
BLID
1070
     9
1000
4A
1002
{
1000
Class
1070
     4
1000

1002
{
1002
}
1000
Color
1070
     1
1070
   256
1002
{
1002
}
1000
LType
1070
     4
1000
BYLAYER
1002
{
1002
}
1002
}
1000
BOAP
1070
     9
1000
4A
1002
{
1000
Class
1070
     4
1000

1002
{
1002
}
1000
Color
1070
     1
1070
   256
1002
{
1002
}
1000
LType
1070
     4
1000
BYLAYER
1002
{
1002
}
1002
}
1000
BOR2
1070
     9
1000
RAHM2
1002
{
1000
Class
1070
     4
1000
SPZ,SYM
1002
{
1002
}
1000
Color
1070
     1
1070
   256
1002
{
1002
}
1000
LType
1070
     4
1000
BYLAYER
1002
{
1002
}
1002
}
1000
BOR3
1070
     9
1000
RAHM3
1002
{
1000
Class
1070
     4
1000
SPZ,SYM
1002
{
1002
}
1000
Color
1070
     1
1070
   256
1002
{
1002
}
1000
LType
1070
     4
1000
BYLAYER
1002
{
1002
}
1002
}
1000
BOR5
1070
     9
1000
RAHM5
1002
{
1000
Class
1070
     4
1000
SPZ,SYM
1002
{
1002
}
1000
Color
1070
     1
1070
   256
1002
{
1002
}
1000
LType
1070
     4
1000
BYLAYER
1002
{
1002
}
1002
}
1000
BOR7
1070
     9
1000
RAHM5
1002
{
1000
Class
1070
     4
1000
SPZ,SYM
1002
{
1002
}
1000
Color
1070
     1
1070
     7
1002
{
1002
}
1000
LType
1070
     4
1000
CONTINUOUS
1002
{
1002
}
1002
}
1000
BPAP
1070
     9
1000
4A
1002
{
1000
Class
1070
     4
1000

1002
{
1002
}
1000
Color
1070
     1
1070
   256
1002
{
1002
}
1000
LType
1070
     4
1000
BYLAYER
1002
{
1002
}
1002
}
1000
BPEX
1070
     9
1000
4A
1002
{
1000
Class
1070
     4
1000

1002
{
1002
}
1000
Color
1070
     1
1070
   256
1002
{
1002
}
1000
LType
1070
     4
1000
BYLAYER
1002
{
1002
}
1002
}
1000
BTDI
1070
     9
1000
5
1002
{
1000
Class
1070
     4
1000
DIM,SYM
1002
{
1002
}
1000
Color
1070
     1
1070
   256
1002
{
1002
}
1000
LType
1070
     4
1000
BYLAYER
1002
{
1002
}
1002
}
1000
CAL2
1070
     9
1000
4
1002
{
1000
Class
1070
     4
1000
SYM
1002
{
1002
}
1000
Color
1070
     1
1070
   256
1002
{
1002
}
1000
LType
1070
     4
1000
BYLAYER
1002
{
1002
}
1002
}
1000
CAL3
1070
     9
1000
4
1002
{
1000
Class
1070
     4
1000
SYM
1002
{
1002
}
1000
Color
1070
     1
1070
     2
1002
{
1002
}
1000
LType
1070
     4
1000
BYLAYER
1002
{
1002
}
1002
}
1000
CAL5
1070
     9
1000
4
1002
{
1000
Class
1070
     4
1000
SYM
1002
{
1002
}
1000
Color
1070
     1
1070
     7
1002
{
1002
}
1000
LType
1070
     4
1000
BYLAYER
1002
{
1002
}
1002
}
1000
CAL7
1070
     9
1000
4
1002
{
1000
Class
1070
     4
1000
SYM
1002
{
1002
}
1000
Color
1070
     1
1070
     5
1002
{
1002
}
1000
LType
1070
     4
1000
BYLAYER
1002
{
1002
}
1002
}
1000
CENN
1070
     9
1000
7A
1002
{
1000
Class
1070
     4
1000
CEN
1002
{
1002
}
1000
Color
1070
     1
1070
   256
1002
{
1002
}
1000
LType
1070
     4
1000
BYLAYER
1002
{
1002
}
1002
}
1000
CENW
1070
     9
1000
7
1002
{
1000
Class
1070
     4
1000
CEN
1002
{
1002
}
1000
Color
1070
     1
1070
   256
1002
{
1002
}
1000
LType
1070
     4
1000
BYLAYER
1002
{
1002
}
1002
}
1000
CLIN
1070
     9
1000
KLIN
1002
{
1000
Class
1070
     4
1000
SPZ
1002
{
1002
}
1000
Color
1070
     1
1070
   256
1002
{
1002
}
1000
LType
1070
     4
1000
BYLAYER
1002
{
1002
}
1002
}
1000
CON1
1070
     9
1000
0
1002
{
1000
Class
1070
     4
1000
CON,BGD
1002
{
1002
}
1000
Color
1070
     1
1070
   256
1002
{
1002
}
1000
LType
1070
     4
1000
BYLAYER
1002
{
1002
}
1002
}
1000
CON2
1070
     9
1000
1
1002
{
1000
Class
1070
     4
1000
CON,BGD
1002
{
1002
}
1000
Color
1070
     1
1070
   256
1002
{
1002
}
1000
LType
1070
     4
1000
BYLAYER
1002
{
1002
}
1002
}
1000
CON3
1070
     9
1000
2
1002
{
1000
Class
1070
     4
1000
CON,BGD
1002
{
1002
}
1000
Color
1070
     1
1070
   256
1002
{
1002
}
1000
LType
1070
     4
1000
BYLAYER
1002
{
1002
}
1002
}
1000
CON4
1070
     9
1000
2
1002
{
1000
Class
1070
     4
1000
CON,BGD
1002
{
1002
}
1000
Color
1070
     1
1070
   256
1002
{
1002
}
1000
LType
1070
     4
1000
BYLAYER
1002
{
1002
}
1002
}
1000
DERP
1070
     9
1000
4
1002
{
1000
Class
1070
     4
1000

1002
{
1002
}
1000
Color
1070
     1
1070
   256
1002
{
1002
}
1000
LType
1070
     4
1000
BYLAYER
1002
{
1002
}
1002
}
1000
DETA
1070
     9
1000
4
1002
{
1000
Class
1070
     4
1000

1002
{
1002
}
1000
Color
1070
     1
1070
   256
1002
{
1002
}
1000
LType
1070
     4
1000
BYLAYER
1002
{
1002
}
1002
}
1000
DIAG
1070
     9
1000
5
1002
{
1000
Class
1070
     4
1000
SYM
1002
{
1002
}
1000
Color
1070
     1
1070
   256
1002
{
1002
}
1000
LType
1070
     4
1000
BYLAYER
1002
{
1002
}
1002
}
1000
DILI
1070
     9
1000
5
1002
{
1000
Class
1070
     4
1000
DIM,SYM
1002
{
1002
}
1000
Color
1070
     1
1070
   256
1002
{
1002
}
1000
LType
1070
     4
1000
BYLAYER
1002
{
1002
}
1002
}
1000
DITX
1070
     9
1000
5
1002
{
1000
Class
1070
     4
1000
DIM,SYM
1002
{
1002
}
1000
Color
1070
     1
1070
     2
1002
{
1002
}
1000
LType
1070
     4
1000
CONTINUOUS
1002
{
1002
}
1002
}
1000
DITO2
1070
     9
1000
5
1002
{
1000
Class
1070
     4
1000
DIM,SYM
1002
{
1002
}
1000
Color
1070
     1
1070
     3
1002
{
1002
}
1000
LType
1070
     4
1000
BYLAYER
1002
{
1002
}
1002
}
1000
DITO3
1070
     9
1000
5
1002
{
1000
Class
1070
     4
1000
DIM,SYM
1002
{
1002
}
1000
Color
1070
     1
1070
     2
1002
{
1002
}
1000
LType
1070
     4
1000
BYLAYER
1002
{
1002
}
1002
}
1000
DIXL
1070
     9
1000
5
1002
{
1000
Class
1070
     4
1000
DIM,SYM
1002
{
1002
}
1000
Color
1070
     1
1070
   256
1002
{
1002
}
1000
LType
1070
     4
1000
BYLAYER
1002
{
1002
}
1002
}
1000
EXMP
1070
     9
1000
4A
1002
{
1000
Class
1070
     4
1000

1002
{
1002
}
1000
Color
1070
     1
1070
   256
1002
{
1002
}
1000
LType
1070
     4
1000
BYLAYER
1002
{
1002
}
1002
}
1000
FEMN
1070
     9
1000
8
1002
{
1000
Class
1070
     4
1000

1002
{
1002
}
1000
Color
1070
     1
1070
   256
1002
{
1002
}
1000
LType
1070
     4
1000
BYLAYER
1002
{
1002
}
1002
}
1000
FEMPN
1070
     9
1000
8
1002
{
1000
Class
1070
     4
1000
SYM
1002
{
1002
}
1000
Color
1070
     1
1070
     3
1002
{
1002
}
1000
LType
1070
     4
1000
BYLAYER
1002
{
1002
}
1002
}
1000
FEMSP
1070
     9
1000
4A
1002
{
1000
Class
1070
     4
1000

1002
{
1002
}
1000
Color
1070
     1
1070
   256
1002
{
1002
}
1000
LType
1070
     4
1000
CONTINUOUS
1002
{
1002
}
1002
}
1000
FEMST
1070
     9
1000
4A
1002
{
1000
Class
1070
     4
1000
SYM
1002
{
1002
}
1000
Color
1070
     1
1070
     3
1002
{
1002
}
1000
LType
1070
     4
1000
BYLAYER
1002
{
1002
}
1002
}
1000
FEMVN
1070
     9
1000
2
1002
{
1000
Class
1070
     4
1000
CON
1002
{
1002
}
1000
Color
1070
     1
1070
   256
1002
{
1002
}
1000
LType
1070
     4
1000
BYLAYER
1002
{
1002
}
1002
}
1000
FEMVT
1070
     9
1000
2
1002
{
1000
Class
1070
     4
1000
SYM
1002
{
1002
}
1000
Color
1070
     1
1070
     3
1002
{
1002
}
1000
LType
1070
     4
1000
BYLAYER
1002
{
1002
}
1002
}
1000
FLAT
1070
     9
1000
0
1002
{
1000
Class
1070
     4
1000

1002
{
1002
}
1000
Color
1070
     1
1070
   256
1002
{
1002
}
1000
LType
1070
     4
1000
BYLAYER
1002
{
1002
}
1002
}
1000
FRAR
1070
     9
1000
4A
1002
{
1000
Class
1070
     4
1000

1002
{
1002
}
1000
Color
1070
     1
1070
   256
1002
{
1002
}
1000
LType
1070
     4
1000
BYLAYER
1002
{
1002
}
1002
}
1000
GRLI
1070
     9
1000
5
1002
{
1000
Class
1070
     4
1000
SYM
1002
{
1002
}
1000
Color
1070
     1
1070
   256
1002
{
1002
}
1000
LType
1070
     4
1000
BYLAYER
1002
{
1002
}
1002
}
1000
GVLI
1070
     9
1000
4A
1002
{
1000
Class
1070
     4
1000

1002
{
1002
}
1000
Color
1070
     1
1070
   256
1002
{
1002
}
1000
LType
1070
     4
1000
BYLAYER
1002
{
1002
}
1002
}
1000
HATC
1070
     9
1000
8
1002
{
1000
Class
1070
     4
1000
HTC,BGD
1002
{
1002
}
1000
Color
1070
     1
1070
   256
1002
{
1002
}
1000
LType
1070
     4
1000
BYLAYER
1002
{
1002
}
1002
}
1000
HIDN
1070
     9
1000
3A
1002
{
1000
Class
1070
     4
1000
HID,BGD
1002
{
1002
}
1000
Color
1070
     1
1070
   256
1002
{
1002
}
1000
LType
1070
     4
1000
BYLAYER
1002
{
1002
}
1002
}
1000
HIDW
1070
     9
1000
3
1002
{
1000
Class
1070
     4
1000
HID,BGD
1002
{
1002
}
1000
Color
1070
     1
1070
   256
1002
{
1002
}
1000
LType
1070
     4
1000
BYLAYER
1002
{
1002
}
1002
}
1000
HLIN
1070
     9
1000
4
1002
{
1000
Class
1070
     4
1000
BGD
1002
{
1002
}
1000
Color
1070
     1
1070
   256
1002
{
1002
}
1000
LType
1070
     4
1000
BYLAYER
1002
{
1002
}
1002
}
1000
HOCN
1070
     9
1000
7A
1002
{
1000
Class
1070
     4
1000
CEN
1002
{
1002
}
1000
Color
1070
     1
1070
   256
1002
{
1002
}
1000
LType
1070
     4
1000
BYLAYER
1002
{
1002
}
1002
}
1000
HOCW
1070
     9
1000
7
1002
{
1000
Class
1070
     4
1000
CEN
1002
{
1002
}
1000
Color
1070
     1
1070
   256
1002
{
1002
}
1000
LType
1070
     4
1000
BYLAYER
1002
{
1002
}
1002
}
1000
INFO
1070
     9
1000
INFO
1002
{
1000
Class
1070
     4
1000
SPZ,SYM
1002
{
1002
}
1000
Color
1070
     1
1070
   256
1002
{
1002
}
1000
LType
1070
     4
1000
BYLAYER
1002
{
1002
}
1002
}
1000
LADI
1070
     9
1000
4
1002
{
1000
Class
1070
     4
1000
BGD
1002
{
1002
}
1000
Color
1070
     1
1070
   256
1002
{
1002
}
1000
LType
1070
     4
1000
BYLAYER
1002
{
1002
}
1002
}
1000
LEAD
1070
     9
1000
5
1002
{
1000
Class
1070
     4
1000
SYM
1002
{
1002
}
1000
Color
1070
     1
1070
   256
1002
{
1002
}
1000
LType
1070
     4
1000
BYLAYER
1002
{
1002
}
1002
}
1000
N_BHNV
1070
     9
1000
9N
1002
{
1000
Class
1070
     4
1000
INV
1002
{
1002
}
1000
Color
1070
     1
1070
   256
1002
{
1002
}
1000
LType
1070
     4
1000
BYLAYER
1002
{
1002
}
1002
}
1000
N_CON1
1070
     9
1000
0N
1002
{
1000
Class
1070
     4
1000
CON,BGD
1002
{
1002
}
1000
Color
1070
     1
1070
   256
1002
{
1002
}
1000
LType
1070
     4
1000
BYLAYER
1002
{
1002
}
1002
}
1000
N_CON2
1070
     9
1000
1N
1002
{
1000
Class
1070
     4
1000
CON,BGD
1002
{
1002
}
1000
Color
1070
     1
1070
   256
1002
{
1002
}
1000
LType
1070
     4
1000
BYLAYER
1002
{
1002
}
1002
}
1000
N_CON3
1070
     9
1000
2N
1002
{
1000
Class
1070
     4
1000
CON,BGD
1002
{
1002
}
1000
Color
1070
     1
1070
   256
1002
{
1002
}
1000
LType
1070
     4
1000
BYLAYER
1002
{
1002
}
1002
}
1000
N_CON4
1070
     9
1000
2N
1002
{
1000
Class
1070
     4
1000
CON,BGD
1002
{
1002
}
1000
Color
1070
     1
1070
   256
1002
{
1002
}
1000
LType
1070
     4
1000
BYLAYER
1002
{
1002
}
1002
}
1000
N_CENN
1070
     9
1000
7AN
1002
{
1000
Class
1070
     4
1000
CEN
1002
{
1002
}
1000
Color
1070
     1
1070
   256
1002
{
1002
}
1000
LType
1070
     4
1000
BYLAYER
1002
{
1002
}
1002
}
1000
N_CENW
1070
     9
1000
7N
1002
{
1000
Class
1070
     4
1000
CEN
1002
{
1002
}
1000
Color
1070
     1
1070
   256
1002
{
1002
}
1000
LType
1070
     4
1000
BYLAYER
1002
{
1002
}
1002
}
1000
N_DILI
1070
     9
1000
5N
1002
{
1000
Class
1070
     4
1000
DIM,SYM
1002
{
1002
}
1000
Color
1070
     1
1070
   256
1002
{
1002
}
1000
LType
1070
     4
1000
BYLAYER
1002
{
1002
}
1002
}
1000
N_DITX
1070
     9
1000
5N
1002
{
1000
Class
1070
     4
1000
DIM,SYM
1002
{
1002
}
1000
Color
1070
     1
1070
     2
1002
{
1002
}
1000
LType
1070
     4
1000
CONTINUOUS
1002
{
1002
}
1002
}
1000
N_DIXL
1070
     9
1000
5N
1002
{
1000
Class
1070
     4
1000
DIM,SYM
1002
{
1002
}
1000
Color
1070
     1
1070
   256
1002
{
1002
}
1000
LType
1070
     4
1000
BYLAYER
1002
{
1002
}
1002
}
1000
N_HATC
1070
     9
1000
8N
1002
{
1000
Class
1070
     4
1000
HTC,BGD
1002
{
1002
}
1000
Color
1070
     1
1070
   256
1002
{
1002
}
1000
LType
1070
     4
1000
BYLAYER
1002
{
1002
}
1002
}
1000
N_HIDN
1070
     9
1000
3AN
1002
{
1000
Class
1070
     4
1000
HID,BGD
1002
{
1002
}
1000
Color
1070
     1
1070
   256
1002
{
1002
}
1000
LType
1070
     4
1000
BYLAYER
1002
{
1002
}
1002
}
1000
N_HIDW
1070
     9
1000
3N
1002
{
1000
Class
1070
     4
1000
HID,BGD
1002
{
1002
}
1000
Color
1070
     1
1070
   256
1002
{
1002
}
1000
LType
1070
     4
1000
BYLAYER
1002
{
1002
}
1002
}
1000
N_PHAN
1070
     9
1000
4AN
1002
{
1000
Class
1070
     4
1000

1002
{
1002
}
1000
Color
1070
     1
1070
   256
1002
{
1002
}
1000
LType
1070
     4
1000
BYLAYER
1002
{
1002
}
1002
}
1000
N_POSL
1070
     9
1000
5N
1002
{
1000
Class
1070
     4
1000
SYM
1002
{
1002
}
1000
Color
1070
     1
1070
   256
1002
{
1002
}
1000
LType
1070
     4
1000
BYLAYER
1002
{
1002
}
1002
}
1000
N_TCON
1070
     9
1000
0N
1002
{
1000
Class
1070
     4
1000
CON,BGD
1002
{
1002
}
1000
Color
1070
     1
1070
   256
1002
{
1002
}
1000
LType
1070
     4
1000
BYLAYER
1002
{
1002
}
1002
}
1000
N_THLI
1070
     9
1000
4N
1002
{
1000
Class
1070
     4
1000
BGD
1002
{
1002
}
1000
Color
1070
     1
1070
   256
1002
{
1002
}
1000
LType
1070
     4
1000
BYLAYER
1002
{
1002
}
1002
}
1000
N_TLEN
1070
     9
1000
0N
1002
{
1000
Class
1070
     4
1000
CON,BGD
1002
{
1002
}
1000
Color
1070
     1
1070
   256
1002
{
1002
}
1000
LType
1070
     4
1000
BYLAYER
1002
{
1002
}
1002
}
1000
N_TXT3
1070
     9
1000
6N
1002
{
1000
Class
1070
     4
1000
SYM
1002
{
1002
}
1000
Color
1070
     1
1070
   256
1002
{
1002
}
1000
LType
1070
     4
1000
BYLAYER
1002
{
1002
}
1002
}
1000
N_VPLI
1070
     9
1000
2AN
1002
{
1000
Class
1070
     4
1000

1002
{
1002
}
1000
Color
1070
     1
1070
   256
1002
{
1002
}
1000
LType
1070
     4
1000
BYLAYER
1002
{
1002
}
1002
}
1000
PAL2
1070
     9
1000
RAHM2
1002
{
1000
Class
1070
     4
1000
SPZ,SYM
1002
{
1002
}
1000
Color
1070
     1
1070
   256
1002
{
1002
}
1000
LType
1070
     4
1000
BYLAYER
1002
{
1002
}
1002
}
1000
PAL3
1070
     9
1000
RAHM3
1002
{
1000
Class
1070
     4
1000
SPZ,SYM
1002
{
1002
}
1000
Color
1070
     1
1070
   256
1002
{
1002
}
1000
LType
1070
     4
1000
BYLAYER
1002
{
1002
}
1002
}
1000
PAL5
1070
     9
1000
RAHM5
1002
{
1000
Class
1070
     4
1000
SPZ,SYM
1002
{
1002
}
1000
Color
1070
     1
1070
   256
1002
{
1002
}
1000
LType
1070
     4
1000
BYLAYER
1002
{
1002
}
1002
}
1000
PAL7
1070
     9
1000
RAHM5
1002
{
1000
Class
1070
     4
1000
SPZ,SYM
1002
{
1002
}
1000
Color
1070
     1
1070
     7
1002
{
1002
}
1000
LType
1070
     4
1000
CONTINUOUS
1002
{
1002
}
1002
}
1000
PHAN
1070
     9
1000
4A
1002
{
1000
Class
1070
     4
1000

1002
{
1002
}
1000
Color
1070
     1
1070
   256
1002
{
1002
}
1000
LType
1070
     4
1000
BYLAYER
1002
{
1002
}
1002
}
1000
POSL
1070
     9
1000
5
1002
{
1000
Class
1070
     4
1000
SYM
1002
{
1002
}
1000
Color
1070
     1
1070
   256
1002
{
1002
}
1000
LType
1070
     4
1000
BYLAYER
1002
{
1002
}
1002
}
1000
POSN
1070
     9
1000
6
1002
{
1000
Class
1070
     4
1000
SYM
1002
{
1002
}
1000
Color
1070
     1
1070
     7
1002
{
1002
}
1000
LType
1070
     4
1000
BYLAYER
1002
{
1002
}
1002
}
1000
POSREF
1070
     9
1000
6
1002
{
1000
Class
1070
     4
1000
SYM
1002
{
1002
}
1000
Color
1070
     1
1070
     5
1002
{
1002
}
1000
LType
1070
     4
1000
BYLAYER
1002
{
1002
}
1002
}
1000
POSX
1070
     9
1000
5
1002
{
1000
Class
1070
     4
1000
SYM
1002
{
1002
}
1000
Color
1070
     1
1070
     2
1002
{
1002
}
1000
LType
1070
     4
1000
CONTINUOUS
1002
{
1002
}
1002
}
1000
PSEC
1070
     9
1000
4A
1002
{
1000
Class
1070
     4
1000

1002
{
1002
}
1000
Color
1070
     1
1070
   256
1002
{
1002
}
1000
LType
1070
     4
1000
BYLAYER
1002
{
1002
}
1002
}
1000
RCGN
1070
     9
1000
7A
1002
{
1000
Class
1070
     4
1000
CEN
1002
{
1002
}
1000
Color
1070
     1
1070
   256
1002
{
1002
}
1000
LType
1070
     4
1000
BYLAYER
1002
{
1002
}
1002
}
1000
RCGW
1070
     9
1000
7
1002
{
1000
Class
1070
     4
1000
CEN
1002
{
1002
}
1000
Color
1070
     1
1070
   256
1002
{
1002
}
1000
LType
1070
     4
1000
BYLAYER
1002
{
1002
}
1002
}
1000
RFDI
1070
     9
1000
4
1002
{
1000
Class
1070
     4
1000
BGD
1002
{
1002
}
1000
Color
1070
     1
1070
   256
1002
{
1002
}
1000
LType
1070
     4
1000
BYLAYER
1002
{
1002
}
1002
}
1000
RQTR
1070
     9
1000
4
1002
{
1000
Class
1070
     4
1000

1002
{
1002
}
1000
Color
1070
     1
1070
     7
1002
{
1002
}
1000
LType
1070
     4
1000
GEN7A
1002
{
1002
}
1002
}
1000
RSBO
1070
     9
1000
4
1002
{
1000
Class
1070
     4
1000
BGD
1002
{
1002
}
1000
Color
1070
     1
1070
   256
1002
{
1002
}
1000
LType
1070
     4
1000
BYLAYER
1002
{
1002
}
1002
}
1000
SBRK
1070
     9
1000
4
1002
{
1000
Class
1070
     4
1000
BGD
1002
{
1002
}
1000
Color
1070
     1
1070
   256
1002
{
1002
}
1000
LType
1070
     4
1000
BYLAYER
1002
{
1002
}
1002
}
1000
SCEN
1070
     9
1000
7
1002
{
1000
Class
1070
     4
1000

1002
{
1002
}
1000
Color
1070
     1
1070
   256
1002
{
1002
}
1000
LType
1070
     4
1000
CONTINUOUS
1002
{
1002
}
1002
}
1000
SECT
1070
     9
1000
4
1002
{
1000
Class
1070
     4
1000
BGD
1002
{
1002
}
1000
Color
1070
     1
1070
   256
1002
{
1002
}
1000
LType
1070
     4
1000
BYLAYER
1002
{
1002
}
1002
}
1000
SELN
1070
     9
1000
7A
1002
{
1000
Class
1070
     4
1000

1002
{
1002
}
1000
Color
1070
     1
1070
   256
1002
{
1002
}
1000
LType
1070
     4
1000
BYLAYER
1002
{
1002
}
1002
}
1000
SELW
1070
     9
1000
7
1002
{
1000
Class
1070
     4
1000

1002
{
1002
}
1000
Color
1070
     1
1070
   256
1002
{
1002
}
1000
LType
1070
     4
1000
BYLAYER
1002
{
1002
}
1002
}
1000
SSYS
1070
     9
1000
0
1002
{
1000
Class
1070
     4
1000

1002
{
1002
}
1000
Color
1070
     1
1070
   256
1002
{
1002
}
1000
LType
1070
     4
1000
BYLAYER
1002
{
1002
}
1002
}
1000
STLI
1070
     9
1000
4
1002
{
1000
Class
1070
     4
1000

1002
{
1002
}
1000
Color
1070
     1
1070
     7
1002
{
1002
}
1000
LType
1070
     4
1000
GEN3A
1002
{
1002
}
1002
}
1000
SYB1
1070
     9
1000
5
1002
{
1000
Class
1070
     4
1000
SYM
1002
{
1002
}
1000
Color
1070
     1
1070
   256
1002
{
1002
}
1000
LType
1070
     4
1000
BYLAYER
1002
{
1002
}
1002
}
1000
SYB2
1070
     9
1000
5
1002
{
1000
Class
1070
     4
1000
SYM
1002
{
1002
}
1000
Color
1070
     1
1070
   256
1002
{
1002
}
1000
LType
1070
     4
1000
BYLAYER
1002
{
1002
}
1002
}
1000
SYB3
1070
     9
1000
6
1002
{
1000
Class
1070
     4
1000
SYM
1002
{
1002
}
1000
Color
1070
     1
1070
   256
1002
{
1002
}
1000
LType
1070
     4
1000
CONTINUOUS
1002
{
1002
}
1002
}
1000
SYB5
1070
     9
1000
5
1002
{
1000
Class
1070
     4
1000
SYM
1002
{
1002
}
1000
Color
1070
     1
1070
     7
1002
{
1002
}
1000
LType
1070
     4
1000
BYLAYER
1002
{
1002
}
1002
}
1000
SYMN
1070
     9
1000
7A
1002
{
1000
Class
1070
     4
1000
CEN
1002
{
1002
}
1000
Color
1070
     1
1070
   256
1002
{
1002
}
1000
LType
1070
     4
1000
BYLAYER
1002
{
1002
}
1002
}
1000
SYMW
1070
     9
1000
7
1002
{
1000
Class
1070
     4
1000
CEN
1002
{
1002
}
1000
Color
1070
     1
1070
   256
1002
{
1002
}
1000
LType
1070
     4
1000
BYLAYER
1002
{
1002
}
1002
}
1000
TCON
1070
     9
1000
0
1002
{
1000
Class
1070
     4
1000
CON,BGD
1002
{
1002
}
1000
Color
1070
     1
1070
   256
1002
{
1002
}
1000
LType
1070
     4
1000
BYLAYER
1002
{
1002
}
1002
}
1000
THLI
1070
     9
1000
4
1002
{
1000
Class
1070
     4
1000
BGD
1002
{
1002
}
1000
Color
1070
     1
1070
   256
1002
{
1002
}
1000
LType
1070
     4
1000
BYLAYER
1002
{
1002
}
1002
}
1000
TIT2
1070
     9
1000
RAHM2
1002
{
1000
Class
1070
     4
1000
SPZ,SYM
1002
{
1002
}
1000
Color
1070
     1
1070
   256
1002
{
1002
}
1000
LType
1070
     4
1000
BYLAYER
1002
{
1002
}
1002
}
1000
TIT3
1070
     9
1000
RAHM3
1002
{
1000
Class
1070
     4
1000
SPZ,SYM
1002
{
1002
}
1000
Color
1070
     1
1070
   256
1002
{
1002
}
1000
LType
1070
     4
1000
BYLAYER
1002
{
1002
}
1002
}
1000
TIT5
1070
     9
1000
RAHM5
1002
{
1000
Class
1070
     4
1000
SPZ,SYM
1002
{
1002
}
1000
Color
1070
     1
1070
   256
1002
{
1002
}
1000
LType
1070
     4
1000
BYLAYER
1002
{
1002
}
1002
}
1000
TIT7
1070
     9
1000
RAHM5
1002
{
1000
Class
1070
     4
1000
SPZ,SYM
1002
{
1002
}
1000
Color
1070
     1
1070
     7
1002
{
1002
}
1000
LType
1070
     4
1000
CONTINUOUS
1002
{
1002
}
1002
}
1000
TLEN
1070
     9
1000
0
1002
{
1000
Class
1070
     4
1000
CON,BGD
1002
{
1002
}
1000
Color
1070
     1
1070
   256
1002
{
1002
}
1000
LType
1070
     4
1000
BYLAYER
1002
{
1002
}
1002
}
1000
TRKN
1070
     9
1000
7A
1002
{
1000
Class
1070
     4
1000

1002
{
1002
}
1000
Color
1070
     1
1070
   256
1002
{
1002
}
1000
LType
1070
     4
1000
BYLAYER
1002
{
1002
}
1002
}
1000
TRKW
1070
     9
1000
7
1002
{
1000
Class
1070
     4
1000

1002
{
1002
}
1000
Color
1070
     1
1070
   256
1002
{
1002
}
1000
LType
1070
     4
1000
BYLAYER
1002
{
1002
}
1002
}
1000
TRLI
1070
     9
1000
4
1002
{
1000
Class
1070
     4
1000
BGD
1002
{
1002
}
1000
Color
1070
     1
1070
   256
1002
{
1002
}
1000
LType
1070
     4
1000
BYLAYER
1002
{
1002
}
1002
}
1000
TXT1
1070
     9
1000
6
1002
{
1000
Class
1070
     4
1000
SYM
1002
{
1002
}
1000
Color
1070
     1
1070
     2
1002
{
1002
}
1000
LType
1070
     4
1000
BYLAYER
1002
{
1002
}
1002
}
1000
TXT2
1070
     9
1000
6
1002
{
1000
Class
1070
     4
1000
SYM
1002
{
1002
}
1000
Color
1070
     1
1070
     2
1002
{
1002
}
1000
LType
1070
     4
1000
BYLAYER
1002
{
1002
}
1002
}
1000
TXT3
1070
     9
1000
6
1002
{
1000
Class
1070
     4
1000
SYM
1002
{
1002
}
1000
Color
1070
     1
1070
   256
1002
{
1002
}
1000
LType
1070
     4
1000
BYLAYER
1002
{
1002
}
1002
}
1000
TXT5
1070
     9
1000
6
1002
{
1000
Class
1070
     4
1000
SYM
1002
{
1002
}
1000
Color
1070
     1
1070
     7
1002
{
1002
}
1000
LType
1070
     4
1000
BYLAYER
1002
{
1002
}
1002
}
1000
TXT7
1070
     9
1000
6
1002
{
1000
Class
1070
     4
1000
SYM
1002
{
1002
}
1000
Color
1070
     1
1070
     7
1002
{
1002
}
1000
LType
1070
     4
1000
BYLAYER
1002
{
1002
}
1002
}
1000
VIEW
1070
     9
1000
VIEW
1002
{
1000
Class
1070
     4
1000
SPZ
1002
{
1002
}
1000
Color
1070
     1
1070
   256
1002
{
1002
}
1000
LType
1070
     4
1000
BYLAYER
1002
{
1002
}
1002
}
1000
VPLI
1070
     9
1000
2A
1002
{
1000
Class
1070
     4
1000

1002
{
1002
}
1000
Color
1070
     1
1070
   256
1002
{
1002
}
1000
LType
1070
     4
1000
BYLAYER
1002
{
1002
}
1002
}
1000
ZIZA
1070
     9
1000
4
1002
{
1000
Class
1070
     4
1000
BGD
1002
{
1002
}
1000
Color
1070
     1
1070
   256
1002
{
1002
}
1000
LType
1070
     4
1000
GENZIGZAG
1002
{
1002
}
1002
}
  0
APPID
  5
4C3
100
AcDbSymbolTableRecord
100
AcDbRegAppTableRecord
  2
GENIUS_GENCFG3_13
 70
     0
1001
GENIUS_GENCFG_13
1071
893064791
1000
4C3
1000
GEN@OSWIZ
1070
    12
1000
GenCfgObject
1000
GenCfgShort
1000
GenCfgReal
1000
GenCfgBool
1000
GenCfgString
1000
GenCfgDim
1000
GenCfgAttrInf
1000
GenCfgLaySection
1000
GenCfgLayer
1000
GenCfgEntSort
1000
GenCfgLType
1000
GenCfgFilter
1000
AngleStep
1070
     0
1002
{
1000
M
1070
     2
1040
10.0
1002
{
1002
}
1000
I
1070
     2
1040
0.4
1002
{
1002
}
1002
}
1000
AngleIncr
1070
     2
1040
45.0
1002
{
1002
}
1000
Filter
1070
     0
1002
{
1000
HATCH
1070
    11
1002
{
1000
EntityType
1070
     4
1000
LINE
1002
{
1002
}
1000
Layer
1070
     4
1000
8,8N,*-8,*-8N
1002
{
1002
}
1000
Linetype
1070
     4
1000
*
1002
{
1002
}
1000
Color
1070
     4
1000
*
1002
{
1002
}
1002
}
1000
SYMBOLS
1070
    11
1002
{
1000
EntityType
1070
     4
1000
*
1002
{
1002
}
1000
Layer
1070
     4
1000
[5-6],[5-6]N,*-[5-6],*-[5-6]N
1002
{
1002
}
1000
Linetype
1070
     4
1000
*
1002
{
1002
}
1000
Color
1070
     4
1000
*
1002
{
1002
}
1002
}
1000
FEM
1070
    11
1002
{
1000
EntityType
1070
     4
1000
*
1002
{
1002
}
1000
Layer
1070
     4
1000
4A,4AN,*-4A,*-4AN
1002
{
1002
}
1000
Linetype
1070
     4
1000
*
1002
{
1002
}
1000
Color
1070
     4
1000
*
1002
{
1002
}
1002
}
1002
}
1000
IconSize
1070
     2
1040
1.0
1002
{
1002
}
1000
SnapColor
1070
     1
1070
     3
1002
{
1002
}
  0
APPID
  5
4C4
100
AcDbSymbolTableRecord
100
AcDbRegAppTableRecord
  2
GENIUS_GENCFG4_13
 70
     0
1001
GENIUS_GENCFG_13
1071
893066601
1000
4C4
1000
GEN
1070
     9
1000
GenCfgObject
1000
GenCfgShort
1000
GenCfgReal
1000
GenCfgBool
1000
GenCfgString
1000
GenCfgDim
1000
GenCfgAttrInf
1000
GenCfgLaySection
1000
GenCfgLType
1000
Balloon
1070
     0
1002
{
1000
GenIF
1070
     1
1070
     0
1002
{
1002
}
1000
GenPosInc
1070
     1
1070
    10
1002
{
1002
}
1000
GenPosBlk
1070
     1
1070
     8
1002
{
1002
}
1000
GenPosVar
1070
     1
1070
     2
1002
{
1002
}
1000
GenZiCir
1070
     2
1040
1.5
1002
{
1002
}
1000
MaxCharForCenteredText
1070
     1
1070
    30
1002
{
1002
}
1000
Snap
1070
     0
1002
{
1000
ActivationRadius
1070
     2
1040
1.0
1002
{
1002
}
1000
M
1070
     0
1002
{
1000
SnapStepX
1070
     2
1040
20.0
1002
{
1002
}
1000
SnapStepY
1070
     2
1040
10.0
1002
{
1002
}
1002
}
1000
I
1070
     0
1002
{
1000
SnapStepX
1070
     2
1040
1.0
1002
{
1002
}
1000
SnapStepY
1070
     2
1040
0.5
1002
{
1002
}
1002
}
1002
}
1002
}
1000
Centerline
1070
     0
1002
{
1000
ScaleNot
1070
     3
1070
     1
1002
{
1002
}
1000
M
1070
     0
1002
{
1000
GenCenAng
1070
     4
1000
45|90|135
1002
{
1002
}
1000
GenCenDia
1070
     2
1040
10.0
1002
{
1002
}
1000
GenCenDias
1070
     4
1000
10|20|30
1002
{
1002
}
1000
GenCenDist
1070
     2
1040
3.0
1002
{
1002
}
1000
GenCenLen
1070
     2
1040
10.0
1002
{
1002
}
1000
GenCenOff
1070
     2
1040
10.0
1002
{
1002
}
1002
}
1000
I
1070
     0
1002
{
1000
GenCenAng
1070
     4
1000
45|90|135
1002
{
1002
}
1000
GenCenDia
1070
     2
1040
0.5
1002
{
1002
}
1000
GenCenDias
1070
     4
1000
0.5|1.0|1.5
1002
{
1002
}
1000
GenCenDist
1070
     2
1040
0.125
1002
{
1002
}
1000
GenCenLen
1070
     2
1040
0.5
1002
{
1002
}
1000
GenCenOff
1070
     2
1040
0.5
1002
{
1002
}
1002
}
1002
}
1000
CLine
1070
     0
1002
{
1000
CAngArray
1070
     4
1000
30|45|60
1002
{
1002
}
1000
Typ
1070
     4
1000
XLINE
1002
{
1002
}
1000
M
1070
     0
1002
{
1000
CLinArray
1070
     4
1000
15
1002
{
1002
}
1002
}
1000
I
1070
     0
1002
{
1000
CLinArray
1070
     4
1000
0.125|0.25|0.5
1002
{
1002
}
1002
}
1002
}
1000
Constraints
1070
     0
1002
{
1000
Color
1070
     0
1002
{
1000
Active_Frame
1070
     1
1070
     2
1002
{
1002
}
1000
Inactive_Frame
1070
     1
1070
     8
1002
{
1002
}
1002
}
1000
Debug
1070
     0
1002
{
1002
}
1000
Editor
1070
     0
1002
{
1002
}
1000
Frame
1070
     0
1002
{
1002
}
1000
Sys
1070
     0
1002
{
1002
}
1002
}
1000
Detail
1070
     0
1002
{
1002
}
1000
Dimension
1070
     5
1002
{
1000
DIMALT
1070
     1
1070
     0
1002
{
1002
}
1000
DIMALTD
1070
     1
1070
     2
1002
{
1002
}
1000
DIMALTTD
1070
     1
1070
     4
1002
{
1002
}
1000
DIMALTTZ
1070
     1
1070
     0
1002
{
1002
}
1000
DIMALTU
1070
     1
1070
     2
1002
{
1002
}
1000
DIMALTZ
1070
     1
1070
     0
1002
{
1002
}
1000
DIMAPOST
1070
     4
1000

1002
{
1002
}
1000
DIMAUNIT
1070
     1
1070
     0
1002
{
1002
}
1000
DIMBLK
1070
     4
1000

1002
{
1002
}
1000
DIMBLK1
1070
     4
1000

1002
{
1002
}
1000
DIMBLK2
1070
     4
1000

1002
{
1002
}
1000
DIMDLE
1070
     2
1040
0.0
1002
{
1002
}
1000
DIMFIT
1070
     1
1070
     3
1002
{
1002
}
1000
DIMJUST
1070
     1
1070
     0
1002
{
1002
}
1000
DIMLFAC
1070
     2
1040
1.0
1002
{
1002
}
1000
DIMLIM
1070
     1
1070
     0
1002
{
1002
}
1000
DIMPOST
1070
     4
1000
<>
1002
{
1002
}
1000
DIMRND
1070
     2
1040
0.0
1002
{
1002
}
1000
DIMSAH
1070
     1
1070
     0
1002
{
1002
}
1000
DIMSCALE
1070
     2
1040
1.0
1002
{
1002
}
1000
DIMSD1
1070
     1
1070
     0
1002
{
1002
}
1000
DIMSD2
1070
     1
1070
     0
1002
{
1002
}
1000
DIMSE1
1070
     1
1070
     0
1002
{
1002
}
1000
DIMSE2
1070
     1
1070
     0
1002
{
1002
}
1000
DIMSOXD
1070
     1
1070
     0
1002
{
1002
}
1000
DIMTAD
1070
     1
1070
     0
1002
{
1002
}
1000
DIMTFAC
1070
     2
1040
0.71
1002
{
1002
}
1000
DIMTIH
1070
     1
1070
     0
1002
{
1002
}
1000
DIMTIX
1070
     1
1070
     0
1002
{
1002
}
1000
DIMTM
1070
     2
1040
0.1
1002
{
1002
}
1000
DIMTOFL
1070
     1
1070
     0
1002
{
1002
}
1000
DIMTOH
1070
     1
1070
     0
1002
{
1002
}
1000
DIMTOL
1070
     1
1070
     0
1002
{
1002
}
1000
DIMTOLJ
1070
     1
1070
     1
1002
{
1002
}
1000
DIMTP
1070
     2
1040
0.1
1002
{
1002
}
1000
DIMTSZ
1070
     2
1040
0.0
1002
{
1002
}
1000
DIMTVP
1070
     2
1040
0.0
1002
{
1002
}
1000
DIMTXSTY
1070
     4
1000
STANDARD
1002
{
1002
}
1000
DIMTZIN
1070
     1
1070
     0
1002
{
1002
}
1000
DIMUNIT
1070
     1
1070
     2
1002
{
1002
}
1000
DIMUPT
1070
     1
1070
     0
1002
{
1002
}
1000
M
1070
     0
1002
{
1000
DIMALTF
1070
     2
1040
0.03937
1002
{
1002
}
1000
DIMASZ
1070
     2
1040
2.5
1002
{
1002
}
1000
DIMCEN
1070
     2
1040
0.0
1002
{
1002
}
1000
DIMDEC
1070
     1
1070
     2
1002
{
1002
}
1000
DIMDLI
1070
     2
1040
7.0
1002
{
1002
}
1000
DIMEXE
1070
     2
1040
1.0
1002
{
1002
}
1000
DIMEXO
1070
     2
1040
1.0
1002
{
1002
}
1000
DIMGAP
1070
     2
1040
0.6
1002
{
1002
}
1000
DIMTDEC
1070
     1
1070
     3
1002
{
1002
}
1000
DIMTXT
1070
     2
1040
3.5
1002
{
1002
}
1000
DIMZIN
1070
     1
1070
     8
1002
{
1002
}
1002
}
1000
I
1070
     0
1002
{
1000
DIMALTF
1070
     2
1040
25.4
1002
{
1002
}
1000
DIMASZ
1070
     2
1040
0.1
1002
{
1002
}
1000
DIMCEN
1070
     2
1040
0.0
1002
{
1002
}
1000
DIMDEC
1070
     1
1070
     4
1002
{
1002
}
1000
DIMDLI
1070
     2
1040
0.5
1002
{
1002
}
1000
DIMEXE
1070
     2
1040
0.1
1002
{
1002
}
1000
DIMEXO
1070
     2
1040
0.05
1002
{
1002
}
1000
DIMGAP
1070
     2
1040
0.06
1002
{
1002
}
1000
DIMTDEC
1070
     1
1070
     4
1002
{
1002
}
1000
DIMTXT
1070
     2
1040
0.12
1002
{
1002
}
1000
DIMZIN
1070
     1
1070
     7
1002
{
1002
}
1002
}
1000
GEN-ISO
1070
     5
1002
{
1000
NAME
1070
     4
1000
GEN-ISO
1002
{
1002
}
1000
DIMTAD
1070
     1
1070
     1
1002
{
1002
}
1000
DIMTOLJ
1070
     1
1070
     0
1002
{
1002
}
1000
DIMTOFL
1070
     1
1070
     1
1002
{
1002
}
1000
M
1070
     0
1002
{
1002
}
1000
I
1070
     0
1002
{
1002
}
1002
}
1000
GEN-ISO-POS
1070
     5
1002
{
1000
NAME
1070
     4
1000
GEN-ISO-POS
1002
{
1002
}
1000
DIMTOLJ
1070
     1
1070
     0
1002
{
1002
}
1000
M
1070
     0
1002
{
1000
DIMGAP
1070
     2
1040
1.5
1002
{
1002
}
1000
DIMTXT
1070
     2
1040
5.0
1002
{
1002
}
1002
}
1000
I
1070
     0
1002
{
1000
DIMASZ
1070
     2
1040
0.1
1002
{
1002
}
1000
DIMGAP
1070
     2
1040
0.06
1002
{
1002
}
1000
DIMTXT
1070
     2
1040
0.2
1002
{
1002
}
1002
}
1000
DIMSCALE
1070
     2
1040
1.0
1002
{
1002
}
1000
DIMPOST
1070
     4
1000
<>
1002
{
1002
}
1002
}
1000
GEN-ISO-CIR
1070
     5
1002
{
1000
NAME
1070
     4
1000
GEN-ISO$3
1002
{
1002
}
1000
DIMFIT
1070
     1
1070
     0
1002
{
1002
}
1000
DIMTAD
1070
     1
1070
     1
1002
{
1002
}
1000
DIMTIH
1070
     1
1070
     0
1002
{
1002
}
1000
DIMTIX
1070
     1
1070
     0
1002
{
1002
}
1000
DIMTOH
1070
     1
1070
     1
1002
{
1002
}
1000
DIMTOLJ
1070
     1
1070
     0
1002
{
1002
}
1000
DIMTOFL
1070
     1
1070
     0
1002
{
1002
}
1000
DIMUPT
1070
     1
1070
     1
1002
{
1002
}
1000
M
1070
     0
1002
{
1002
}
1000
I
1070
     0
1002
{
1002
}
1000
DIMPOST
1070
     4
1000
<>
1002
{
1002
}
1002
}
1000
GEN-ISO-RAD
1070
     5
1002
{
1000
NAME
1070
     4
1000
GEN-ISO$4
1002
{
1002
}
1000
DIMFIT
1070
     1
1070
     0
1002
{
1002
}
1000
DIMTAD
1070
     1
1070
     1
1002
{
1002
}
1000
DIMTIH
1070
     1
1070
     0
1002
{
1002
}
1000
DIMTIX
1070
     1
1070
     0
1002
{
1002
}
1000
DIMTOH
1070
     1
1070
     1
1002
{
1002
}
1000
DIMTOLJ
1070
     1
1070
     0
1002
{
1002
}
1000
DIMTOFL
1070
     1
1070
     0
1002
{
1002
}
1000
DIMUPT
1070
     1
1070
     1
1002
{
1002
}
1000
M
1070
     0
1002
{
1002
}
1000
I
1070
     0
1002
{
1002
}
1002
}
1000
GEN-ISO-ORD
1070
     5
1002
{
1000
NAME
1070
     4
1000
GEN-ISO$6
1002
{
1002
}
1000
DIMTOLJ
1070
     1
1070
     0
1002
{
1002
}
1000
M
1070
     0
1002
{
1002
}
1000
I
1070
     0
1002
{
1002
}
1002
}
1000
GEN-ISO-AXE-F
1070
     5
1002
{
1000
NAME
1070
     4
1000
GEN-ISO-AXE-F
1002
{
1002
}
1000
DIMSE1
1070
     1
1070
     1
1002
{
1002
}
1000
DIMSE2
1070
     1
1070
     1
1002
{
1002
}
1000
DIMTAD
1070
     1
1070
     1
1002
{
1002
}
1000
DIMTOLJ
1070
     1
1070
     0
1002
{
1002
}
1000
DIMTOFL
1070
     1
1070
     1
1002
{
1002
}
1000
M
1070
     0
1002
{
1002
}
1000
I
1070
     0
1002
{
1002
}
1002
}
1000
GEN-ISO-AXE-H
1070
     5
1002
{
1000
DIMBLK1
1070
     4
1000
GENAXEH
1002
{
1002
}
1000
DIMLFAC
1070
     2
1040
2.0
1002
{
1002
}
1000
DIMSAH
1070
     1
1070
     1
1002
{
1002
}
1000
DIMSE1
1070
     1
1070
     1
1002
{
1002
}
1000
DIMSE2
1070
     1
1070
     1
1002
{
1002
}
1000
DIMTAD
1070
     1
1070
     1
1002
{
1002
}
1000
DIMTOLJ
1070
     1
1070
     0
1002
{
1002
}
1000
DIMTOFL
1070
     1
1070
     1
1002
{
1002
}
1000
M
1070
     0
1002
{
1002
}
1000
I
1070
     0
1002
{
1002
}
1002
}
1000
GEN-ANSI
1070
     5
1002
{
1000
NAME
1070
     4
1000
GEN-ANSI
1002
{
1002
}
1000
DIMTIH
1070
     1
1070
     1
1002
{
1002
}
1000
DIMTOH
1070
     1
1070
     1
1002
{
1002
}
1000
DIMTAD
1070
     1
1070
     0
1002
{
1002
}
1000
DIMTOLJ
1070
     1
1070
     1
1002
{
1002
}
1000
M
1070
     0
1002
{
1002
}
1000
I
1070
     0
1002
{
1002
}
1002
}
1000
GEN-ANSI-POS
1070
     5
1002
{
1000
NAME
1070
     4
1000
GEN-ANSI-POS
1002
{
1002
}
1000
DIMTOLJ
1070
     1
1070
     1
1002
{
1002
}
1000
M
1070
     0
1002
{
1000
DIMASZ
1070
     2
1040
2.5
1002
{
1002
}
1000
DIMGAP
1070
     2
1040
1.5
1002
{
1002
}
1000
DIMTXT
1070
     2
1040
5.0
1002
{
1002
}
1002
}
1000
I
1070
     0
1002
{
1000
DIMASZ
1070
     2
1040
0.1
1002
{
1002
}
1000
DIMGAP
1070
     2
1040
0.06
1002
{
1002
}
1000
DIMTXT
1070
     2
1040
0.2
1002
{
1002
}
1002
}
1002
}
1000
GEN-ANSI-CIR
1070
     5
1002
{
1000
NAME
1070
     4
1000
GEN-ANSI$3
1002
{
1002
}
1000
DIMFIT
1070
     1
1070
     0
1002
{
1002
}
1000
DIMTAD
1070
     1
1070
     0
1002
{
1002
}
1000
DIMTIH
1070
     1
1070
     1
1002
{
1002
}
1000
DIMTIX
1070
     1
1070
     0
1002
{
1002
}
1000
DIMTOFL
1070
     1
1070
     0
1002
{
1002
}
1000
DIMTOH
1070
     1
1070
     1
1002
{
1002
}
1000
DIMTOLJ
1070
     1
1070
     1
1002
{
1002
}
1000
DIMUPT
1070
     1
1070
     1
1002
{
1002
}
1000
M
1070
     0
1002
{
1002
}
1000
I
1070
     0
1002
{
1002
}
1002
}
1000
GEN-ANSI-RAD
1070
     5
1002
{
1000
NAME
1070
     4
1000
GEN-ANSI$4
1002
{
1002
}
1000
DIMFIT
1070
     1
1070
     0
1002
{
1002
}
1000
DIMTAD
1070
     1
1070
     0
1002
{
1002
}
1000
DIMTIH
1070
     1
1070
     1
1002
{
1002
}
1000
DIMTIX
1070
     1
1070
     0
1002
{
1002
}
1000
DIMTOFL
1070
     1
1070
     0
1002
{
1002
}
1000
DIMTOH
1070
     1
1070
     1
1002
{
1002
}
1000
DIMTOLJ
1070
     1
1070
     1
1002
{
1002
}
1000
DIMUPT
1070
     1
1070
     1
1002
{
1002
}
1000
M
1070
     0
1002
{
1002
}
1000
I
1070
     0
1002
{
1002
}
1002
}
1000
GEN-ANSI-ORD
1070
     5
1002
{
1000
NAME
1070
     4
1000
GEN-ANSI$6
1002
{
1002
}
1000
DIMTAD
1070
     1
1070
     0
1002
{
1002
}
1000
DIMTIH
1070
     1
1070
     1
1002
{
1002
}
1000
DIMTOH
1070
     1
1070
     1
1002
{
1002
}
1000
DIMTOLJ
1070
     1
1070
     1
1002
{
1002
}
1000
M
1070
     0
1002
{
1002
}
1000
I
1070
     0
1002
{
1002
}
1002
}
1000
GEN-ANSI-AXE-F
1070
     5
1002
{
1000
NAME
1070
     4
1000
GEN-ANSI-AXE-F
1002
{
1002
}
1000
DIMBLK1
1070
     4
1000
GENAXEH
1002
{
1002
}
1000
DIMSAH
1070
     1
1070
     1
1002
{
1002
}
1000
DIMSE1
1070
     1
1070
     1
1002
{
1002
}
1000
DIMSE2
1070
     1
1070
     1
1002
{
1002
}
1000
DIMTAD
1070
     1
1070
     0
1002
{
1002
}
1000
DIMTIH
1070
     1
1070
     1
1002
{
1002
}
1000
DIMTOH
1070
     1
1070
     1
1002
{
1002
}
1000
DIMTOLJ
1070
     1
1070
     1
1002
{
1002
}
1000
M
1070
     0
1002
{
1002
}
1000
I
1070
     0
1002
{
1002
}
1002
}
1000
GEN-ANSI-AXE-H
1070
     5
1002
{
1000
NAME
1070
     4
1000
GEN-ANSI-AXE-H
1002
{
1002
}
1000
DIMBLK1
1070
     4
1000
GENAXEH
1002
{
1002
}
1000
DIMLFAC
1070
     2
1040
2.0
1002
{
1002
}
1000
DIMSAH
1070
     1
1070
     1
1002
{
1002
}
1000
DIMSE1
1070
     1
1070
     1
1002
{
1002
}
1000
DIMSE2
1070
     1
1070
     1
1002
{
1002
}
1000
DIMTAD
1070
     1
1070
     0
1002
{
1002
}
1000
DIMTOFL
1070
     1
1070
     1
1002
{
1002
}
1000
DIMTOLJ
1070
     1
1070
     1
1002
{
1002
}
1000
M
1070
     0
1002
{
1002
}
1000
I
1070
     0
1002
{
1002
}
1002
}
1000
DIMZIN
1070
     1
1070
     8
1002
{
1002
}
1002
}
1000
DimSet
1070
     0
1002
{
1000
ChainSum
1070
     3
1070
     0
1002
{
1002
}
1000
DimDclTyp0
1070
     4
1000
dim23
1002
{
1002
}
1000
HorBra
1070
     3
1070
     0
1002
{
1002
}
1000
StrDia
1070
     4
1000
%%c<>
1002
{
1002
}
1000
StrRad
1070
     4
1000
R<>
1002
{
1002
}
1000
TextMinus
1070
     4
1000
<>
1002
{
1002
}
1000
TextPlus
1070
     4
1000
<>
1002
{
1002
}
1000
M
1070
     0
1002
{
1000
DimdliFirst
1070
     2
1040
10.0
1002
{
1002
}
1000
PointMakeDist
1070
     2
1040
10.0
1002
{
1002
}
1002
}
1000
I
1070
     0
1002
{
1000
DimdliFirst
1070
     2
1040
0.5
1002
{
1002
}
1000
PointMakeDist
1070
     2
1040
0.5
1002
{
1002
}
1002
}
1002
}
1000
Drawing
1070
     0
1002
{
1000
ChamferDimMode
1070
     1
1070
     2
1002
{
1002
}
1000
Gen_Fiso
1070
    -3
1040
1.0
1002
{
1002
}
1000
GenDimStil
1070
     4
1000
ISO
1002
{
1002
}
1000
GenDwgUScale
1070
     2
1040
1.0
1002
{
1002
}
1000
GenInch
1070
     4
1000
M
1002
{
1002
}
1000
GenPlotScale
1070
     4
1000
1:1
1002
{
1002
}
1000
Revisi
1070
     4
1000
0
1002
{
1002
}
1000
chamferdim
1070
     3
1070
     0
1002
{
1002
}
1000
chamfertrim
1070
     3
1070
     1
1002
{
1002
}
1000
Version
1070
    -5
1000
13.1/May  9 1996
1002
{
1002
}
1000
Platform
1070
    -5
1000
WINNT
1002
{
1002
}
1002
}
1000
DwgVar
1070
     0
1002
{
1000
M
1070
     0
1002
{
1002
}
1000
I
1070
     0
1002
{
1002
}
1002
}
1000
Hatch
1070
     0
1002
{
1000
GenHtcFlag
1070
     3
1070
     0
1002
{
1002
}
1002
}
1000
Info_Pos
1070
     0
1002
{
1000
DescrText
1070
     4
1000
5,6,7,8
1002
{
1002
}
1000
Attrib
1070
     0
1002
{
1000
0
1070
     6
1002
{
1000
Prompt
1070
     4
1000
(genmsg gendwg 103)
1002
{
1002
}
1000
Value
1070
     4
1000

1002
{
1002
}
1000
EditFlag
1070
     1
1070
     0
1002
{
1002
}
1002
}
1000
1
1070
     6
1002
{
1000
Prompt
1070
     4
1000
(genmsg gendwg 31)
1002
{
1002
}
1000
Value
1070
     4
1000
1
1002
{
1002
}
1000
EditFlag
1070
     1
1070
     1
1002
{
1002
}
1002
}
1000
2
1070
     6
1002
{
1000
Prompt
1070
     4
1000
(genmsg gendwg 32)
1002
{
1002
}
1000
Value
1070
     4
1000
1
1002
{
1002
}
1000
EditFlag
1070
     1
1070
     1
1002
{
1002
}
1002
}
1000
3
1070
     6
1002
{
1000
Prompt
1070
     4
1000
(genmsg gendwg 33)
1002
{
1002
}
1000
Value
1070
     4
1000

1002
{
1002
}
1000
EditFlag
1070
     1
1070
     1
1002
{
1002
}
1002
}
1000
4
1070
     6
1002
{
1000
Prompt
1070
     4
1000
(genmsg gendwg 34)
1002
{
1002
}
1000
Value
1070
     4
1000

1002
{
1002
}
1000
EditFlag
1070
     1
1070
     1
1002
{
1002
}
1002
}
1000
5
1070
     6
1002
{
1000
Prompt
1070
     4
1000
(genmsg gendwg 35)
1002
{
1002
}
1000
Value
1070
     4
1000

1002
{
1002
}
1000
EditFlag
1070
     1
1070
     1
1002
{
1002
}
1002
}
1000
6
1070
     6
1002
{
1000
Prompt
1070
     4
1000
(genmsg gendwg 36)
1002
{
1002
}
1000
Value
1070
     4
1000

1002
{
1002
}
1000
EditFlag
1070
     1
1070
     1
1002
{
1002
}
1002
}
1000
7
1070
     6
1002
{
1000
Prompt
1070
     4
1000
(genmsg gendwg 37)
1002
{
1002
}
1000
Value
1070
     4
1000

1002
{
1002
}
1000
EditFlag
1070
     1
1070
     1
1002
{
1002
}
1002
}
1000
8
1070
     6
1002
{
1000
Prompt
1070
     4
1000
(genmsg gendwg 38)
1002
{
1002
}
1000
Value
1070
     4
1000

1002
{
1002
}
1000
EditFlag
1070
     1
1070
     1
1002
{
1002
}
1002
}
1000
9
1070
     6
1002
{
1000
Prompt
1070
     4
1000
(genmsg gendwg 39)
1002
{
1002
}
1000
Value
1070
     4
1000

1002
{
1002
}
1000
EditFlag
1070
     1
1070
     1
1002
{
1002
}
1002
}
1000
10
1070
     6
1002
{
1000
Prompt
1070
     4
1000
(genmsg gendwg 40)
1002
{
1002
}
1000
Value
1070
     4
1000

1002
{
1002
}
1000
EditFlag
1070
     1
1070
     1
1002
{
1002
}
1002
}
1000
11
1070
     6
1002
{
1000
Prompt
1070
     4
1000
(genmsg gendwg 41)
1002
{
1002
}
1000
Value
1070
     4
1000

1002
{
1002
}
1000
EditFlag
1070
     1
1070
     1
1002
{
1002
}
1002
}
1000
12
1070
     6
1002
{
1000
Prompt
1070
     4
1000
(genmsg gendwg 42)
1002
{
1002
}
1000
Value
1070
     4
1000

1002
{
1002
}
1000
EditFlag
1070
     1
1070
     1
1002
{
1002
}
1002
}
1000
13
1070
     6
1002
{
1000
Prompt
1070
     4
1000
(genmsg gendwg 43)
1002
{
1002
}
1000
Value
1070
     4
1000

1002
{
1002
}
1000
EditFlag
1070
     1
1070
     1
1002
{
1002
}
1002
}
1000
14
1070
     6
1002
{
1000
Prompt
1070
     4
1000
(genmsg gendwg 44)
1002
{
1002
}
1000
Value
1070
     4
1000

1002
{
1002
}
1000
EditFlag
1070
     1
1070
     1
1002
{
1002
}
1002
}
1000
15
1070
     6
1002
{
1000
Prompt
1070
     4
1000
(genmsg gendwg 45)
1002
{
1002
}
1000
Value
1070
     4
1000

1002
{
1002
}
1000
EditFlag
1070
     1
1070
     1
1002
{
1002
}
1002
}
1000
16
1070
     6
1002
{
1000
Prompt
1070
     4
1000
(genmsg gendwg 46)
1002
{
1002
}
1000
Value
1070
     4
1000

1002
{
1002
}
1000
EditFlag
1070
     1
1070
     1
1002
{
1002
}
1002
}
1000
17
1070
     6
1002
{
1000
Prompt
1070
     4
1000
(genmsg gendwg 47)
1002
{
1002
}
1000
Value
1070
     4
1000

1002
{
1002
}
1000
EditFlag
1070
     1
1070
     1
1002
{
1002
}
1002
}
1000
18
1070
     6
1002
{
1000
Prompt
1070
     4
1000
(genmsg gendwg 48)
1002
{
1002
}
1000
Value
1070
     4
1000

1002
{
1002
}
1000
EditFlag
1070
     1
1070
     1
1002
{
1002
}
1002
}
1000
19
1070
     6
1002
{
1000
Prompt
1070
     4
1000
(genmsg gendwg 99)
1002
{
1002
}
1000
Value
1070
     4
1000

1002
{
1002
}
1000
EditFlag
1070
     1
1070
     1
1002
{
1002
}
1002
}
1000
20
1070
     6
1002
{
1000
Prompt
1070
     4
1000
(genmsg gendwg 100)
1002
{
1002
}
1000
Value
1070
     4
1000

1002
{
1002
}
1000
EditFlag
1070
     1
1070
     1
1002
{
1002
}
1002
}
1000
21
1070
     6
1002
{
1000
Prompt
1070
     4
1000
(genmsg gendwg 101)
1002
{
1002
}
1000
Value
1070
     4
1000

1002
{
1002
}
1000
EditFlag
1070
     1
1070
     1
1002
{
1002
}
1002
}
1000
22
1070
     6
1002
{
1000
Prompt
1070
     4
1000
(genmsg gendwg 102)
1002
{
1002
}
1000
Value
1070
     4
1000

1002
{
1002
}
1000
EditFlag
1070
     1
1070
     1
1002
{
1002
}
1002
}
1000
23
1070
     6
1002
{
1000
Prompt
1070
     4
1000
(genmsg gendwg 30)
1002
{
1002
}
1000
Value
1070
     4
1000

1002
{
1002
}
1000
EditFlag
1070
     1
1070
     1
1002
{
1002
}
1002
}
1000
24
1070
     6
1002
{
1000
Prompt
1070
     4
1000
(genmsg gendwg 104)
1002
{
1002
}
1000
Value
1070
     4
1000

1002
{
1002
}
1000
EditFlag
1070
     1
1070
     1
1002
{
1002
}
1002
}
1002
}
1000
Xlate
1070
     0
1002
{
1000
>
1002
}
1002
}
1000
Layer
1070
     7
1002
{
1000
Defs
1070
     0
1002
{
1000
>
1002
}
1000
EntSort
1070
     0
1002
{
1000
>
1002
}
1000
Match
1070
     0
1002
{
1002
}
1000
Settings
1070
     0
1002
{
1000
FocGrNC
1070
     3
1070
     0
1002
{
1002
}
1000
FocGrLo
1070
     3
1070
     0
1002
{
1002
}
1000
FocLoNC
1070
     3
1070
     0
1002
{
1002
}
1000
FocusCol
1070
     1
1070
   253
1002
{
1002
}
1000
GenStdLG
1070
     4
1000

1002
{
1002
}
1000
LayMatch
1070
     3
1070
     0
1002
{
1002
}
1000
LgOff
1070
     3
1070
     0
1002
{
1002
}
1000
CurLG
1070
    -5
1000
MSL2_30_3F
1002
{
1002
}
1002
}
1002
}
1000
LType
1070
     0
1002
{
1000
GEN3
1070
     8
1000
genius.lin
1002
{
1002
}
1000
GEN7
1070
     8
1000
genius.lin
1002
{
1002
}
1000
GEN4A
1070
     8
1000
genius.lin
1002
{
1002
}
1000
GEN3A
1070
     8
1000
genius.lin
1002
{
1002
}
1000
GEN7A
1070
     8
1000
genius.lin
1002
{
1002
}
1000
GENZIGZAG
1070
     8
1000
genius.lin
1002
{
1002
}
1002
}
1000
Objecter
1070
     0
1002
{
1000
CreateGroups
1070
     3
1070
     0
1002
{
1002
}
1000
LaySwitch
1070
     3
1070
     1
1002
{
1002
}
1000
LastObj
1070
    -5
1000
13BE
1002
{
1002
}
1002
}
1000
OSWiz
1070
     0
1002
{
1000
>
1002
}
1000
PaList
1070
     0
1002
{
1000
AutoUpdatePartList
1070
     3
1070
     0
1002
{
1002
}
1000
ReadInfoPoint
1070
     3
1070
     0
1002
{
1002
}
1000
ReadPosNr
1070
     3
1070
     1
1002
{
1002
}
1000
RevStr
1070
     4
1000
0
1002
{
1002
}
1002
}
1000
Paper
1070
     0
1002
{
1000
Layer
1070
    -5
1000
KLIN,MSL2_30_3F-5
1002
{
1002
}
1002
}
1000
PartDB
1070
     0
1002
{
1000
GenDbOwner
1070
     4
1000

1002
{
1002
}
1002
}
1000
System
1070
     0
1002
{
1000
Menu
1070
     4
1000
GEV
1002
{
1002
}
1002
}
1000
Title
1070
     0
1002
{
1000
MakeView
1070
     1
1070
     2
1002
{
1002
}
1002
}
  0
APPID
  5
4C5
100
AcDbSymbolTableRecord
100
AcDbRegAppTableRecord
  2
GENIUS_GEVCFG0_13
 70
     0
1001
GENIUS_GENCFG_13
1071
893064791
1000
4C5
1000
GEV
1070
     1
1000
GenCfgObject
1000
System
1070
     0
1002
{
1002
}
1000
VED
1070
     0
1002
{
1002
}
  0
APPID
  5
4F8
100
AcDbSymbolTableRecord
100
AcDbRegAppTableRecord
  2
GEV_VCCNULL_SWITCH_OFF
 70
     0
  0
APPID
  5
4F9
100
AcDbSymbolTableRecord
100
AcDbRegAppTableRecord
  2
GENIUS_GENDTOL_13
 70
     0
  0
APPID
  5
52A
100
AcDbSymbolTableRecord
100
AcDbRegAppTableRecord
  2
GENIUS_GENDREL_13
 70
     0
  0
APPID
  5
FD2
100
AcDbSymbolTableRecord
100
AcDbRegAppTableRecord
  2
GENIUS_GENOBJ-N-RSBK_13
 70
     0
  0
APPID
  5
FD3
100
AcDbSymbolTableRecord
100
AcDbRegAppTableRecord
  2
GENIUS_GENOBJ-N-LIB_13
 70
     0
  0
APPID
  5
FD4
100
AcDbSymbolTableRecord
100
AcDbRegAppTableRecord
  2
GENIUS_GENSCALE_13
 70
     0
  0
ENDTAB
  0
TABLE
  2
DIMSTYLE
  5
16
100
AcDbSymbolTable
 70
     1
  0
DIMSTYLE
105
1D
100
AcDbSymbolTableRecord
100
AcDbDimStyleTableRecord
  2
GEN-ISO
 70
     0
  3
<>
  4

  5

  6

  7

 40
1.0
 41
2.5
 42
1.0
 43
7.0
 44
1.0
 45
0.0
 46
0.0
 47
0.1
 48
0.1
140
3.5
141
0.0
142
0.0
143
0.03937
144
1.0
145
0.0
146
0.71
147
0.6
 71
     0
 72
     0
 73
     0
 74
     0
 75
     0
 76
     0
 77
     1
 78
     8
170
     0
171
     2
172
     1
173
     0
174
     0
175
     0
176
   256
177
   256
178
     2
270
     2
271
     2
272
     3
273
     2
274
     4
340
D
275
     0
280
     0
281
     0
282
     0
283
     0
284
     0
285
     0
286
     0
287
     3
288
     0
  0
ENDTAB
  0
TABLE
  2
BLOCK_RECORD
  5
1
100
AcDbSymbolTable
 70
     1
  0
BLOCK_RECORD
  5
2
100
AcDbSymbolTableRecord
100
AcDbBlockTableRecord
  2
*MODEL_SPACE
  0
BLOCK_RECORD
  5
8
100
AcDbSymbolTableRecord
100
AcDbBlockTableRecord
  2
*PAPER_SPACE
  0
BLOCK_RECORD
  5
24D
100
AcDbSymbolTableRecord
100
AcDbBlockTableRecord
  2
GENINF13
  0
ENDTAB
  0
ENDSEC
  0
SECTION
  2
BLOCKS
  0
BLOCK
  5
3
100
AcDbEntity
  8
0
100
AcDbBlockBegin
  2
*MODEL_SPACE
 70
     0
 10
0.0
 20
0.0
 30
0.0
  3
*MODEL_SPACE
  1

  0
ENDBLK
  5
7
100
AcDbEntity
  8
0
100
AcDbBlockEnd
  0
BLOCK
  5
9
100
AcDbEntity
 67
     1
  8
0
100
AcDbBlockBegin
  2
*PAPER_SPACE
 70
     0
 10
0.0
 20
0.0
 30
0.0
  3
*PAPER_SPACE
  1

  0
ENDBLK
  5
A
100
AcDbEntity
 67
     1
  8
0
100
AcDbBlockEnd
  0
BLOCK
  5
272
100
AcDbEntity
  8
0
100
AcDbBlockBegin
  2
GENINF13
 70
    66
 10
0.0
 20
0.0
 30
0.0
  3
GENINF13
  1
GENINF13
  0
CIRCLE
  5
24E
100
AcDbEntity
  8
INFO
100
AcDbCircle
 10
-0.107946
 20
1.312244
 30
0.0
 40
0.339067
  0
CIRCLE
  5
24F
100
AcDbEntity
  8
INFO
100
AcDbCircle
 10
0.0
 20
0.0
 30
0.0
 40
1.920194
  0
LINE
  5
250
100
AcDbEntity
  8
INFO
100
AcDbLine
 10
0.411344
 20
0.70683
 30
0.0
 11
-0.700006
 21
0.70683
 31
0.0
  0
LINE
  5
251
100
AcDbEntity
  8
INFO
100
AcDbLine
 10
0.829904
 20
-1.341535
 30
0.0
 11
0.829904
 21
-0.555367
 31
0.0
  0
LINE
  5
252
100
AcDbEntity
  8
INFO
100
AcDbLine
 10
0.829904
 20
-0.555367
 30
0.0
 11
0.411344
 21
-0.555367
 31
0.0
  0
LINE
  5
253
100
AcDbEntity
  8
INFO
100
AcDbLine
 10
0.411344
 20
-0.555367
 30
0.0
 11
0.411344
 21
0.70683
 31
0.0
  0
LINE
  5
254
100
AcDbEntity
  8
INFO
100
AcDbLine
 10
-0.700006
 20
0.70683
 30
0.0
 11
-0.700006
 21
0.122613
 31
0.0
  0
LINE
  5
255
100
AcDbEntity
  8
INFO
100
AcDbLine
 10
-0.700006
 20
0.122613
 30
0.0
 11
-0.375261
 21
0.122613
 31
0.0
  0
LINE
  5
256
100
AcDbEntity
  8
INFO
100
AcDbLine
 10
-0.375261
 20
0.122613
 30
0.0
 11
-0.375261
 21
-0.555367
 31
0.0
  0
LINE
  5
257
100
AcDbEntity
  8
INFO
100
AcDbLine
 10
-0.375261
 20
-0.555367
 30
0.0
 11
-0.801038
 21
-0.555367
 31
0.0
  0
LINE
  5
258
100
AcDbEntity
  8
INFO
100
AcDbLine
 10
-0.801038
 20
-0.555367
 30
0.0
 11
-0.801038
 21
-1.341535
 31
0.0
  0
LINE
  5
259
100
AcDbEntity
  8
INFO
100
AcDbLine
 10
-0.801038
 20
-1.341535
 30
0.0
 11
0.829904
 21
-1.341535
 31
0.0
  0
ATTDEF
  5
25A
100
AcDbEntity
  8
INFO
100
AcDbText
 10
0.0
 20
0.0
 30
0.0
 40
1.0
  1
1
100
AcDbAttributeDefinition
  3
Menge
  2
2GENINF
 70
     1
  0
ATTDEF
  5
25B
100
AcDbEntity
  8
INFO
100
AcDbText
 10
0.0
 20
-1.5
 30
0.0
 40
1.0
  1

100
AcDbAttributeDefinition
  3
Stücklisten-Name
  2
3GENINF
 70
     1
  0
ATTDEF
  5
25C
100
AcDbEntity
  8
INFO
100
AcDbText
 10
0.0
 20
-3.0
 30
0.0
 40
1.0
  1

100
AcDbAttributeDefinition
  3
Stücklisten-Pfad
  2
4GENINF
 70
     1
  0
ATTDEF
  5
25D
100
AcDbEntity
  8
INFO
100
AcDbText
 10
0.0
 20
-4.5
 30
0.0
 40
1.0
  1

100
AcDbAttributeDefinition
  3
Beschreibung 1
  2
5GENINF
 70
     1
  0
ATTDEF
  5
25E
100
AcDbEntity
  8
INFO
100
AcDbText
 10
0.0
 20
-6.0
 30
0.0
 40
1.0
  1

100
AcDbAttributeDefinition
  3
Beschreibung 2
  2
6GENINF
 70
     1
  0
ATTDEF
  5
25F
100
AcDbEntity
  8
INFO
100
AcDbText
 10
0.0
 20
-7.5
 30
0.0
 40
1.0
  1

100
AcDbAttributeDefinition
  3
Norm/Lieferant 1
  2
7GENINF
 70
     1
  0
ATTDEF
  5
260
100
AcDbEntity
  8
INFO
100
AcDbText
 10
0.0
 20
-9.0
 30
0.0
 40
1.0
  1

100
AcDbAttributeDefinition
  3
Norm/Lieferant 2
  2
8GENINF
 70
     1
  0
ATTDEF
  5
261
100
AcDbEntity
  8
INFO
100
AcDbText
 10
0.0
 20
-10.5
 30
0.0
 40
1.0
  1

100
AcDbAttributeDefinition
  3
Material 1
  2
9GENINF
 70
     1
  0
ATTDEF
  5
262
100
AcDbEntity
  8
INFO
100
AcDbText
 10
0.0
 20
-12.0
 30
0.0
 40
1.0
  1

100
AcDbAttributeDefinition
  3
Material 2
  2
10GENINF
 70
     1
  0
ATTDEF
  5
263
100
AcDbEntity
  8
INFO
100
AcDbText
 10
0.0
 20
-13.5
 30
0.0
 40
1.0
  1

100
AcDbAttributeDefinition
  3
Identnummer
  2
11GENINF
 70
     1
  0
ATTDEF
  5
264
100
AcDbEntity
  8
INFO
100
AcDbText
 10
0.0
 20
-15.0
 30
0.0
 40
1.0
  1

100
AcDbAttributeDefinition
  3
Gewicht
  2
12GENINF
 70
     1
  0
ATTDEF
  5
265
100
AcDbEntity
  8
INFO
100
AcDbText
 10
0.0
 20
-16.5
 30
0.0
 40
1.0
  1

100
AcDbAttributeDefinition
  3
Preis
  2
13GENINF
 70
     1
  0
ATTDEF
  5
266
100
AcDbEntity
  8
INFO
100
AcDbText
 10
0.0
 20
-18.0
 30
0.0
 40
1.0
  1

100
AcDbAttributeDefinition
  3
Abmessungen
  2
14GENINF
 70
     1
  0
ATTDEF
  5
267
100
AcDbEntity
  8
INFO
100
AcDbText
 10
0.0
 20
-19.5
 30
0.0
 40
1.0
  1

100
AcDbAttributeDefinition
  3
User 1
  2
15GENINF
 70
     1
  0
ATTDEF
  5
268
100
AcDbEntity
  8
INFO
100
AcDbText
 10
0.0
 20
-21.0
 30
0.0
 40
1.0
  1

100
AcDbAttributeDefinition
  3
User 2
  2
16GENINF
 70
     1
  0
ATTDEF
  5
269
100
AcDbEntity
  8
INFO
100
AcDbText
 10
0.0
 20
-22.5
 30
0.0
 40
1.0
  1

100
AcDbAttributeDefinition
  3
User 3
  2
17GENINF
 70
     1
  0
ATTDEF
  5
26A
100
AcDbEntity
  8
INFO
100
AcDbText
 10
0.0
 20
-24.0
 30
0.0
 40
1.0
  1

100
AcDbAttributeDefinition
  3
User 4
  2
18GENINF
 70
     1
  0
ATTDEF
  5
26B
100
AcDbEntity
  8
INFO
100
AcDbText
 10
0.0
 20
-25.5
 30
0.0
 40
1.0
  1

100
AcDbAttributeDefinition
  3
User 5
  2
19GENINF
 70
     1
  0
ATTDEF
  5
26C
100
AcDbEntity
  8
INFO
100
AcDbText
 10
0.0
 20
-27.0
 30
0.0
 40
1.0
  1

100
AcDbAttributeDefinition
  3
User 6
  2
20GENINF
 70
     1
  0
ATTDEF
  5
26D
100
AcDbEntity
  8
INFO
100
AcDbText
 10
0.0
 20
-28.5
 30
0.0
 40
1.0
  1

100
AcDbAttributeDefinition
  3
User 7
  2
21GENINF
 70
     1
  0
ATTDEF
  5
26E
100
AcDbEntity
  8
INFO
100
AcDbText
 10
0.0
 20
-30.0
 30
0.0
 40
1.0
  1

100
AcDbAttributeDefinition
  3
User 8
  2
22GENINF
 70
     1
  0
ATTDEF
  5
26F
100
AcDbEntity
  8
INFO
100
AcDbText
 10
0.0
 20
-31.5
 30
0.0
 40
1.0
  1

100
AcDbAttributeDefinition
  3
Filter
  2
23GENINF
 70
     1
  0
ATTDEF
  5
270
100
AcDbEntity
  8
INFO
100
AcDbText
 10
0.0
 20
-33.0
 30
0.0
 40
1.0
  1

100
AcDbAttributeDefinition
  3
Bemerkung
  2
24GENINF
 70
     1
  0
ATTDEF
  5
271
100
AcDbEntity
  8
INFO
100
AcDbText
 10
0.0
 20
-34.5
 30
0.0
 40
1.0
  1

100
AcDbAttributeDefinition
  3
Genius Normteile ID
  2
0GENINF
 70
     1
  0
ENDBLK
  5
273
100
AcDbEntity
  8
0
100
AcDbBlockEnd
  0
ENDSEC
  0
SECTION
  2
ENTITIES
  0
LINE
  5
FD6
100
AcDbEntity
  8
MSL2_30_3F-7
100
AcDbLine
 10
536.868416
 20
-14.332079
 30
0.0
 11
306.295031
 21
-14.332079
 31
0.0
1001
GENIUS_GENOREF_13
1005
13BE
1005
13BD
  0
LINE
  5
FD7
100
AcDbEntity
  8
MSL2_30_3F-7
100
AcDbLine
 10
394.769531
 20
150.888977
 30
0.0
 11
379.269531
 21
150.888977
 31
0.0
1001
GENIUS_GENODEF_13
1002
{
1000
HIER
1070
     0
1002
}
1002
{
1000
MANEDIT
1070
     0
1002
}
1002
{
1000
NOSEL
1070
     0
1002
}
1002
{
1000
BEHIND
1070
     0
1002
}
1002
{
1000
REACTOR
1002
}
1001
GENIUS_GENOBJ-N-CEN_13
1002
{
1000
OWNER
1000
GEN
1002
}
  0
LINE
  5
FD8
100
AcDbEntity
  8
MSL2_30_3F-7
100
AcDbLine
 10
428.431531
 20
119.888977
 30
0.0
 11
383.910282
 21
119.888977
 31
0.0
  0
LINE
  5
FD9
100
AcDbEntity
  8
MSL2_30_3F-7
100
AcDbLine
 10
428.431531
 20
269.888977
 30
0.0
 11
383.910282
 21
269.888977
 31
0.0
  0
POLYLINE
  5
FDA
100
AcDbEntity
  8
MSL2_30_3F-0
100
AcDb2dPolyline
 66
     1
 10
0.0
 20
0.0
 30
0.0
 70
     1
  0
VERTEX
  5
FDB
100
AcDbEntity
  8
MSL2_30_3F-0
  6
CONTINUOUS
100
AcDbVertex
100
AcDb2dVertex
 10
466.519531
 20
229.888977
 30
0.0
  0
VERTEX
  5
FDC
100
AcDbEntity
  8
MSL2_30_3F-0
  6
CONTINUOUS
100
AcDbVertex
100
AcDb2dVertex
 10
466.519531
 20
309.888977
 30
0.0
  0
VERTEX
  5
FDD
100
AcDbEntity
  8
MSL2_30_3F-0
  6
CONTINUOUS
100
AcDbVertex
100
AcDb2dVertex
 10
346.519531
 20
309.888977
 30
0.0
  0
VERTEX
  5
FDE
100
AcDbEntity
  8
MSL2_30_3F-0
  6
CONTINUOUS
100
AcDbVertex
100
AcDb2dVertex
 10
346.519531
 20
229.888977
 30
0.0
  0
SEQEND
  5
FDF
100
AcDbEntity
  8
MSL2_30_3F-0
  0
LINE
  5
FE0
100
AcDbEntity
  8
MSL2_30_3F-0
100
AcDbLine
 10
466.519531
 20
-54.332079
 30
0.0
 11
379.499549
 21
-54.332079
 31
0.0
  0
LINE
  5
FE1
100
AcDbEntity
  8
MSL2_30_3F-0
100
AcDbLine
 10
466.519531
 20
139.888977
 30
0.0
 11
346.519531
 21
139.888977
 31
0.0
  0
LINE
  5
FE2
100
AcDbEntity
  8
MSL2_30_3F-0
100
AcDbLine
 10
346.519531
 20
99.888977
 30
0.0
 11
466.519531
 21
99.888977
 31
0.0
  0
LINE
  5
FE3
100
AcDbEntity
  8
MSL2_30_3F-0
100
AcDbLine
 10
466.019531
 20
-53.332079
 30
0.0
 11
380.186381
 21
-53.332079
 31
0.0
  0
LINE
  5
FE4
100
AcDbEntity
  8
MSL2_30_3F-4
100
AcDbLine
 10
466.019531
 20
-8.044742
 30
0.0
 11
347.019531
 21
-8.044742
 31
0.0
  0
LINE
  5
FE5
100
AcDbEntity
  8
MSL2_30_3F-4
100
AcDbLine
 10
466.019531
 20
-20.619416
 30
0.0
 11
347.019531
 21
-20.619416
 31
0.0
  0
LINE
  5
FE6
100
AcDbEntity
  8
MSL2_30_3F-0
100
AcDbLine
 10
347.019531
 20
184.888977
 30
0.0
 11
466.019531
 21
184.888977
 31
0.0
  0
LINE
  5
FE7
100
AcDbEntity
  8
MSL2_30_3F-4
100
AcDbLine
 10
466.019531
 20
157.117993
 30
0.0
 11
377.279558
 21
157.117993
 31
0.0
  0
LINE
  5
FE8
100
AcDbEntity
  8
MSL2_30_3F-0
100
AcDbLine
 10
346.519531
 20
25.667921
 30
0.0
 11
433.539514
 21
25.667921
 31
0.0
  0
LINE
  5
FE9
100
AcDbEntity
  8
MSL2_30_3F-0
100
AcDbLine
 10
432.852681
 20
24.667921
 30
0.0
 11
347.019531
 21
24.667921
 31
0.0
  0
LINE
  5
FEA
100
AcDbEntity
  8
MSL2_30_3F-0
100
AcDbLine
 10
391.019531
 20
-58.332079
 30
0.0
 11
383.019531
 21
-58.332079
 31
0.0
  0
LINE
  5
FEB
100
AcDbEntity
  8
MSL2_30_3F-0
100
AcDbLine
 10
375.019531
 20
139.888977
 30
0.0
 11
411.369531
 21
139.888977
 31
0.0
  0
CIRCLE
  5
FEC
100
AcDbEntity
  8
MSL2_30_3F-0
100
AcDbCircle
 10
387.019531
 20
150.888977
 30
0.0
 40
5.5
  0
LINE
  5
FED
100
AcDbEntity
  8
MSL2_30_3F-0
100
AcDbLine
 10
391.019531
 20
313.888977
 30
0.0
 11
383.019531
 21
313.888977
 31
0.0
  0
LINE
  5
FEE
100
AcDbEntity
  8
MSL2_30_3F-7
100
AcDbLine
 10
140.602969
 20
173.516432
 30
0.0
 11
154.108413
 21
157.421271
 31
0.0
  0
LINE
  5
FEF
100
AcDbEntity
  8
MSL2_30_3F-7
100
AcDbLine
 10
123.838689
 20
119.888977
 30
0.0
 11
207.838689
 21
119.888977
 31
0.0
  0
LINE
  5
FF0
100
AcDbEntity
  8
MSL2_30_3F-7
100
AcDbLine
 10
189.62246
 20
104.888977
 30
0.0
 11
141.99746
 21
104.888977
 31
0.0
  0
LINE
  5
FF1
100
AcDbEntity
  8
MSL2_30_3F-7
100
AcDbLine
 10
141.99746
 20
134.888977
 30
0.0
 11
189.62246
 21
134.888977
 31
0.0
  0
MTEXT
  5
FF2
100
AcDbEntity
  8
MSL2_30_3F-6
100
AcDbMText
 10
135.590275
 20
151.825867
 30
0.0
 40
3.5
 41
21.059228
 71
     1
 72
     1
  1
{MSL2-30-3F}
  0
LINE
  5
FF3
100
AcDbEntity
  8
MSL2_30_3F-3
100
AcDbLine
 10
139.250191
 20
168.465095
 30
0.0
 11
146.963643
 21
159.272562
 31
0.0
  0
LINE
  5
FF4
100
AcDbEntity
  8
MSL2_30_3F-3
100
AcDbLine
 10
138.805292
 20
168.09178
 30
0.0
 11
146.518743
 21
158.899247
 31
0.0
  0
LINE
  5
FF5
100
AcDbEntity
  8
MSL2_30_3F-3
100
AcDbLine
 10
205.838689
 20
139.888977
 30
0.0
 11
125.838689
 21
139.888977
 31
0.0
  0
LINE
  5
FF6
100
AcDbEntity
  8
MSL2_30_3F-3
100
AcDbLine
 10
125.838689
 20
99.888977
 30
0.0
 11
205.838689
 21
99.888977
 31
0.0
  0
LINE
  5
FF7
100
AcDbEntity
  8
MSL2_30_3F-0
100
AcDbLine
 10
206.838689
 20
98.888977
 30
0.0
 11
124.838689
 21
98.888977
 31
0.0
  0
LINE
  5
FF8
100
AcDbEntity
  8
MSL2_30_3F-0
100
AcDbLine
 10
124.838689
 20
154.788977
 30
0.0
 11
159.518719
 21
183.888977
 31
0.0
  0
LINE
  5
FF9
100
AcDbEntity
  8
MSL2_30_3F-0
100
AcDbLine
 10
127.553114
 20
158.650082
 30
0.0
 11
158.265777
 21
184.421066
 31
0.0
  0
LINE
  5
FFA
100
AcDbEntity
  8
MSL2_30_3F-0
100
AcDbLine
 10
158.908565
 20
183.655022
 30
0.0
 11
128.195902
 21
157.884038
 31
0.0
  0
LINE
  5
FFB
100
AcDbEntity
  8
MSL2_30_3F-7
100
AcDbLine
 10
138.338689
 20
130.064286
 30
0.0
 11
138.338689
 21
110.220536
 31
0.0
  0
LINE
  5
FFC
100
AcDbEntity
  8
MSL2_30_3F-3
100
AcDbLine
 10
125.838689
 20
139.888977
 30
0.0
 11
125.838689
 21
99.888977
 31
0.0
  0
LINE
  5
FFD
100
AcDbEntity
  8
MSL2_30_3F-0
100
AcDbLine
 10
124.838689
 20
98.888977
 30
0.0
 11
124.838689
 21
154.788977
 31
0.0
  0
LINE
  5
FFE
100
AcDbEntity
  8
MSL2_30_3F-7
100
AcDbLine
 10
140.838689
 20
114.28236
 30
0.0
 11
140.838689
 21
95.888977
 31
0.0
  0
LINE
  5
FFF
100
AcDbEntity
  8
MSL2_30_3F-7
100
AcDbLine
 10
140.838689
 20
114.28236
 30
0.0
 11
140.838689
 21
96.888977
 31
0.0
  0
LINE
  5
1000
100
AcDbEntity
  8
MSL2_30_3F-7
100
AcDbLine
 10
140.232072
 20
104.888977
 30
0.0
 11
121.838689
 21
104.888977
 31
0.0
  0
LINE
  5
1001
100
AcDbEntity
  8
MSL2_30_3F-3
100
AcDbLine
 10
124.838689
 20
102.388977
 30
0.0
 11
132.838689
 21
102.388977
 31
0.0
  0
LINE
  5
1002
100
AcDbEntity
  8
MSL2_30_3F-3
100
AcDbLine
 10
124.838689
 20
102.821977
 30
0.0
 11
136.038689
 21
102.821977
 31
0.0
  0
LINE
  5
1003
100
AcDbEntity
  8
MSL2_30_3F-3
100
AcDbLine
 10
124.838689
 20
107.388977
 30
0.0
 11
132.838689
 21
107.388977
 31
0.0
  0
LINE
  5
1004
100
AcDbEntity
  8
MSL2_30_3F-3
100
AcDbLine
 10
124.838689
 20
106.955977
 30
0.0
 11
136.038689
 21
106.955977
 31
0.0
  0
LINE
  5
1005
100
AcDbEntity
  8
MSL2_30_3F-3
100
AcDbLine
 10
132.838689
 20
107.388977
 30
0.0
 11
132.838689
 21
102.388977
 31
0.0
  0
LINE
  5
1006
100
AcDbEntity
  8
MSL2_30_3F-3
100
AcDbLine
 10
138.771689
 20
98.888977
 30
0.0
 11
138.771689
 21
110.088977
 31
0.0
  0
LINE
  5
1007
100
AcDbEntity
  8
MSL2_30_3F-3
100
AcDbLine
 10
138.771689
 20
98.888977
 30
0.0
 11
138.771689
 21
110.088977
 31
0.0
  0
LINE
  5
1008
100
AcDbEntity
  8
MSL2_30_3F-3
100
AcDbLine
 10
142.905689
 20
98.888977
 30
0.0
 11
142.905689
 21
110.088977
 31
0.0
  0
LINE
  5
1009
100
AcDbEntity
  8
MSL2_30_3F-3
100
AcDbLine
 10
142.905689
 20
98.888977
 30
0.0
 11
142.905689
 21
110.088977
 31
0.0
  0
LINE
  5
100A
100
AcDbEntity
  8
MSL2_30_3F-3
100
AcDbLine
 10
137.232072
 20
104.888977
 30
0.0
 11
136.038689
 21
106.955977
 31
0.0
  0
LINE
  5
100B
100
AcDbEntity
  8
MSL2_30_3F-3
100
AcDbLine
 10
137.232072
 20
104.888977
 30
0.0
 11
136.038689
 21
102.821977
 31
0.0
  0
LINE
  5
100C
100
AcDbEntity
  8
MSL2_30_3F-3
100
AcDbLine
 10
136.038689
 20
106.955977
 30
0.0
 11
136.038689
 21
102.821977
 31
0.0
  0
LINE
  5
100D
100
AcDbEntity
  8
MSL2_30_3F-3
100
AcDbLine
 10
138.338689
 20
106.888977
 30
0.0
 11
143.338689
 21
106.888977
 31
0.0
  0
LINE
  5
100E
100
AcDbEntity
  8
MSL2_30_3F-3
100
AcDbLine
 10
138.338689
 20
106.888977
 30
0.0
 11
143.338689
 21
106.888977
 31
0.0
  0
LINE
  5
100F
100
AcDbEntity
  8
MSL2_30_3F-3
100
AcDbLine
 10
138.338689
 20
98.888977
 30
0.0
 11
138.338689
 21
106.888977
 31
0.0
  0
LINE
  5
1010
100
AcDbEntity
  8
MSL2_30_3F-3
100
AcDbLine
 10
138.338689
 20
98.888977
 30
0.0
 11
138.338689
 21
106.888977
 31
0.0
  0
LINE
  5
1011
100
AcDbEntity
  8
MSL2_30_3F-3
100
AcDbLine
 10
143.338689
 20
98.888977
 30
0.0
 11
143.338689
 21
106.888977
 31
0.0
  0
LINE
  5
1012
100
AcDbEntity
  8
MSL2_30_3F-3
100
AcDbLine
 10
143.338689
 20
98.888977
 30
0.0
 11
143.338689
 21
106.888977
 31
0.0
  0
LINE
  5
1013
100
AcDbEntity
  8
MSL2_30_3F-3
100
AcDbLine
 10
140.838689
 20
111.28236
 30
0.0
 11
142.905689
 21
110.088977
 31
0.0
  0
LINE
  5
1014
100
AcDbEntity
  8
MSL2_30_3F-3
100
AcDbLine
 10
140.838689
 20
111.28236
 30
0.0
 11
142.905689
 21
110.088977
 31
0.0
  0
LINE
  5
1015
100
AcDbEntity
  8
MSL2_30_3F-3
100
AcDbLine
 10
138.771689
 20
110.088977
 30
0.0
 11
142.905689
 21
110.088977
 31
0.0
  0
LINE
  5
1016
100
AcDbEntity
  8
MSL2_30_3F-3
100
AcDbLine
 10
138.771689
 20
110.088977
 30
0.0
 11
142.905689
 21
110.088977
 31
0.0
  0
LINE
  5
1017
100
AcDbEntity
  8
MSL2_30_3F-3
100
AcDbLine
 10
140.838689
 20
111.28236
 30
0.0
 11
138.771689
 21
110.088977
 31
0.0
  0
LINE
  5
1018
100
AcDbEntity
  8
MSL2_30_3F-3
100
AcDbLine
 10
140.838689
 20
111.28236
 30
0.0
 11
138.771689
 21
110.088977
 31
0.0
  0
ARC
  5
1019
100
AcDbEntity
  8
MSL2_30_3F-0
100
AcDbCircle
 10
128.838689
 20
157.117993
 30
0.0
 40
2.0
100
AcDbArc
 50
130.0
 51
180.0
1001
GENIUS_GENODEF_13
1002
{
1000
HIER
1070
     0
1002
}
1002
{
1000
MANEDIT
1070
     0
1002
}
1002
{
1000
NOSEL
1070
     0
1002
}
1002
{
1000
BEHIND
1070
     0
1002
}
1002
{
1000
REACTOR
1002
}
1001
GENIUS_GENOBJ-N-FIL_13
1002
{
1000
OWNER
1000
GEN
1002
}
  0
ARC
  5
101A
100
AcDbEntity
  8
MSL2_30_3F-0
100
AcDbCircle
 10
128.838689
 20
157.117993
 30
0.0
 40
1.0
100
AcDbArc
 50
130.0
 51
168.092024
1001
GENIUS_GENODEF_13
1002
{
1000
HIER
1070
     0
1002
}
1002
{
1000
MANEDIT
1070
     0
1002
}
1002
{
1000
NOSEL
1070
     0
1002
}
1002
{
1000
BEHIND
1070
     0
1002
}
1002
{
1000
REACTOR
1002
}
1001
GENIUS_GENOBJ-N-FIL_13
1002
{
1000
OWNER
1000
GEN
1002
}
  0
LINE
  5
101B
100
AcDbEntity
  8
MSL2_30_3F-0
100
AcDbLine
 10
125.355103
 20
156.805732
 30
0.0
 11
124.069528
 21
158.337821
 31
0.0
  0
LINE
  5
101C
100
AcDbEntity
  8
MSL2_30_3F-0
100
AcDbLine
 10
125.355103
 20
156.805732
 30
0.0
 11
127.553114
 21
158.650082
 31
0.0
  0
LINE
  5
101D
100
AcDbEntity
  8
MSL2_30_3F-7
100
AcDbLine
 10
140.232072
 20
134.888977
 30
0.0
 11
121.838689
 21
134.888977
 31
0.0
  0
LINE
  5
101E
100
AcDbEntity
  8
MSL2_30_3F-3
100
AcDbLine
 10
124.838689
 20
136.955977
 30
0.0
 11
136.038689
 21
136.955977
 31
0.0
  0
LINE
  5
101F
100
AcDbEntity
  8
MSL2_30_3F-3
100
AcDbLine
 10
124.838689
 20
137.388977
 30
0.0
 11
132.838689
 21
137.388977
 31
0.0
  0
LINE
  5
1020
100
AcDbEntity
  8
MSL2_30_3F-3
100
AcDbLine
 10
124.838689
 20
132.821977
 30
0.0
 11
136.038689
 21
132.821977
 31
0.0
  0
LINE
  5
1021
100
AcDbEntity
  8
MSL2_30_3F-3
100
AcDbLine
 10
124.838689
 20
132.388977
 30
0.0
 11
132.838689
 21
132.388977
 31
0.0
  0
LINE
  5
1022
100
AcDbEntity
  8
MSL2_30_3F-3
100
AcDbLine
 10
137.232072
 20
134.888977
 30
0.0
 11
136.038689
 21
136.955977
 31
0.0
  0
LINE
  5
1023
100
AcDbEntity
  8
MSL2_30_3F-3
100
AcDbLine
 10
137.232072
 20
134.888977
 30
0.0
 11
136.038689
 21
132.821977
 31
0.0
  0
LINE
  5
1024
100
AcDbEntity
  8
MSL2_30_3F-3
100
AcDbLine
 10
132.838689
 20
137.388977
 30
0.0
 11
132.838689
 21
132.388977
 31
0.0
  0
LINE
  5
1025
100
AcDbEntity
  8
MSL2_30_3F-3
100
AcDbLine
 10
136.038689
 20
136.955977
 30
0.0
 11
136.038689
 21
132.821977
 31
0.0
  0
LINE
  5
1026
100
AcDbEntity
  8
MSL2_30_3F-0
100
AcDbLine
 10
121.838689
 20
141.888977
 30
0.0
 11
121.838689
 21
149.888977
 31
0.0
  0
LINE
  5
1027
100
AcDbEntity
  8
MSL2_30_3F-3
100
AcDbLine
 10
126.838689
 20
156.467177
 30
0.0
 11
126.838689
 21
139.888977
 31
0.0
  0
LINE
  5
1028
100
AcDbEntity
  8
MSL2_30_3F-7
100
AcDbLine
 10
127.638053
 20
145.888977
 30
0.0
 11
120.413862
 21
145.888977
 31
0.0
  0
ARC
  5
1029
100
AcDbEntity
  8
MSL2_30_3F-0
100
AcDbCircle
 10
123.338689
 20
141.888977
 30
0.0
 40
1.5
100
AcDbArc
 50
179.999998
 51
270.000001
  0
LINE
  5
102A
100
AcDbEntity
  8
MSL2_30_3F-0
100
AcDbLine
 10
124.838689
 20
140.388977
 30
0.0
 11
123.338689
 21
140.388977
 31
0.0
  0
ARC
  5
102B
100
AcDbEntity
  8
MSL2_30_3F-0
100
AcDbCircle
 10
123.338689
 20
154.888977
 30
0.0
 40
1.5
100
AcDbArc
 50
89.999999
 51
179.999998
  0
LINE
  5
102C
100
AcDbEntity
  8
MSL2_30_3F-7
100
AcDbLine
 10
127.700349
 20
150.888977
 30
0.0
 11
120.501958
 21
150.888977
 31
0.0
  0
ARC
  5
102D
100
AcDbEntity
  8
MSL2_30_3F-0
100
AcDbCircle
 10
123.338689
 20
149.888977
 30
0.0
 40
1.5
100
AcDbArc
 50
89.999999
 51
179.999998
  0
LINE
  5
102E
100
AcDbEntity
  8
MSL2_30_3F-0
100
AcDbLine
 10
123.338689
 20
156.388977
 30
0.0
 11
126.745495
 21
156.388977
 31
0.0
  0
LINE
  5
102F
100
AcDbEntity
  8
MSL2_30_3F-0
100
AcDbLine
 10
126.838689
 20
156.467177
 30
0.0
 11
126.838689
 21
157.117993
 31
0.0
  0
LINE
  5
1030
100
AcDbEntity
  8
MSL2_30_3F-0
100
AcDbLine
 10
123.338689
 20
151.388977
 30
0.0
 11
124.838689
 21
151.388977
 31
0.0
  0
LINE
  5
1031
100
AcDbEntity
  8
MSL2_30_3F-0
100
AcDbLine
 10
121.838689
 20
154.888977
 30
0.0
 11
121.838689
 21
149.888977
 31
0.0
  0
LINE
  5
1032
100
AcDbEntity
  8
MSL2_30_3F-0
100
AcDbLine
 10
129.814861
 20
163.158728
 30
0.0
 11
126.547246
 21
163.941473
 31
0.0
  0
LINE
  5
1033
100
AcDbEntity
  8
MSL2_30_3F-7
100
AcDbLine
 10
125.610873
 20
165.057398
 30
0.0
 11
130.580899
 21
159.134352
 31
0.0
  0
LINE
  5
1034
100
AcDbEntity
  8
MSL2_30_3F-0
100
AcDbLine
 10
124.069528
 20
158.337821
 30
0.0
 11
132.496017
 21
165.408484
 31
0.0
  0
LINE
  5
1035
100
AcDbEntity
  8
MSL2_30_3F-0
100
AcDbLine
 10
126.547246
 20
163.941473
 30
0.0
 11
126.750684
 21
160.587577
 31
0.0
  0
LINE
  5
1036
100
AcDbEntity
  8
MSL2_30_3F-3
100
AcDbLine
 10
134.347775
 20
163.046072
 30
0.0
 11
133.704988
 21
163.812117
 31
0.0
  0
LINE
  5
1037
100
AcDbEntity
  8
MSL2_30_3F-3
100
AcDbLine
 10
134.671026
 20
163.317312
 30
0.0
 11
134.028239
 21
164.083357
 31
0.0
  0
LINE
  5
1038
100
AcDbEntity
  8
MSL2_30_3F-0
100
AcDbLine
 10
132.496017
 20
165.408484
 30
0.0
 11
133.781592
 21
163.876395
 31
0.0
  0
ARC
  5
1039
100
AcDbEntity
  8
MSL2_30_3F-0
100
AcDbCircle
 10
334.497121
 20
-41.832079
 30
0.0
 40
9.02241
100
AcDbArc
 50
335.421502
 51
24.578498
  0
LINE
  5
103A
100
AcDbEntity
  8
MSL2_30_3F-0
100
AcDbLine
 10
339.569531
 20
-37.832079
 30
0.0
 11
339.569531
 21
-45.832079
 31
0.0
  0
ARC
  5
103B
100
AcDbEntity
  8
MSL2_30_3F-0
100
AcDbCircle
 10
354.154253
 20
-41.832079
 30
0.0
 40
10.634722
100
AcDbArc
 50
152.518773
 51
207.481227
  0
LINE
  5
103C
100
AcDbEntity
  8
MSL2_30_3F-0
100
AcDbLine
 10
343.519531
 20
-36.202914
 30
0.0
 11
343.519531
 21
-47.461244
 31
0.0
  0
LINE
  5
103D
100
AcDbEntity
  8
MSL2_30_3F-0
100
AcDbLine
 10
343.519531
 20
-49.193295
 30
0.0
 11
343.519531
 21
-34.470863
 31
0.0
  0
LINE
  5
103E
100
AcDbEntity
  8
MSL2_30_3F-0
100
AcDbLine
 10
339.569531
 20
-34.326526
 30
0.0
 11
339.569531
 21
-49.337632
 31
0.0
  0
ARC
  5
103F
100
AcDbEntity
  8
MSL2_30_3F-0
100
AcDbCircle
 10
321.809808
 20
-41.832079
 30
0.0
 40
7.709722
100
AcDbArc
 50
330.872216
 51
29.127784
  0
ARC
  5
1040
100
AcDbEntity
  8
MSL2_30_3F-0
100
AcDbCircle
 10
333.229253
 20
-41.832079
 30
0.0
 40
7.709722
100
AcDbArc
 50
150.872218
 51
209.127782
  0
LINE
  5
1041
100
AcDbEntity
  8
MSL2_30_3F-0
100
AcDbLine
 10
329.519531
 20
-36.202914
 30
0.0
 11
329.519531
 21
-47.461244
 31
0.0
  0
LINE
  5
1042
100
AcDbEntity
  8
MSL2_30_3F-3
100
AcDbLine
 10
312.452531
 20
-55.332079
 30
0.0
 11
312.452531
 21
-44.132079
 31
0.0
  0
LINE
  5
1043
100
AcDbEntity
  8
MSL2_30_3F-3
100
AcDbLine
 10
312.452531
 20
-55.332079
 30
0.0
 11
312.452531
 21
-44.132079
 31
0.0
  0
LINE
  5
1044
100
AcDbEntity
  8
MSL2_30_3F-3
100
AcDbLine
 10
316.586531
 20
-55.332079
 30
0.0
 11
316.586531
 21
-44.132079
 31
0.0
  0
LINE
  5
1045
100
AcDbEntity
  8
MSL2_30_3F-3
100
AcDbLine
 10
316.586531
 20
-55.332079
 30
0.0
 11
316.586531
 21
-44.132079
 31
0.0
  0
LINE
  5
1046
100
AcDbEntity
  8
MSL2_30_3F-7
100
AcDbLine
 10
314.519531
 20
-39.938696
 30
0.0
 11
314.519531
 21
-58.332079
 31
0.0
  0
LINE
  5
1047
100
AcDbEntity
  8
MSL2_30_3F-7
100
AcDbLine
 10
314.519531
 20
-39.938696
 30
0.0
 11
314.519531
 21
-58.332079
 31
0.0
  0
LINE
  5
1048
100
AcDbEntity
  8
MSL2_30_3F-0
100
AcDbLine
 10
346.519531
 20
-54.332079
 30
0.0
 11
346.519531
 21
25.667921
 31
0.0
  0
LINE
  5
1049
100
AcDbEntity
  8
MSL2_30_3F-0
100
AcDbLine
 10
325.519531
 20
26.667921
 30
0.0
 11
325.519531
 21
-55.332079
 31
0.0
  0
LINE
  5
104A
100
AcDbEntity
  8
MSL2_30_3F-0
100
AcDbLine
 10
309.519531
 20
-55.332079
 30
0.0
 11
309.519531
 21
26.667921
 31
0.0
  0
LINE
  5
104B
100
AcDbEntity
  8
MSL2_30_3F-0
100
AcDbLine
 10
347.019531
 20
-0.017393
 30
0.0
 11
347.019531
 21
-53.332079
 31
0.0
  0
LINE
  5
104C
100
AcDbEntity
  8
MSL2_30_3F-0
100
AcDbLine
 10
325.519531
 20
-55.332079
 30
0.0
 11
309.519531
 21
-55.332079
 31
0.0
  0
LINE
  5
104D
100
AcDbEntity
  8
MSL2_30_3F-3
100
AcDbLine
 10
312.019531
 20
-55.332079
 30
0.0
 11
312.019531
 21
-47.332079
 31
0.0
  0
LINE
  5
104E
100
AcDbEntity
  8
MSL2_30_3F-3
100
AcDbLine
 10
312.019531
 20
-55.332079
 30
0.0
 11
312.019531
 21
-47.332079
 31
0.0
  0
LINE
  5
104F
100
AcDbEntity
  8
MSL2_30_3F-3
100
AcDbLine
 10
317.019531
 20
-55.332079
 30
0.0
 11
317.019531
 21
-47.332079
 31
0.0
  0
LINE
  5
1050
100
AcDbEntity
  8
MSL2_30_3F-3
100
AcDbLine
 10
317.019531
 20
-55.332079
 30
0.0
 11
317.019531
 21
-47.332079
 31
0.0
  0
LINE
  5
1051
100
AcDbEntity
  8
MSL2_30_3F-3
100
AcDbLine
 10
317.019531
 20
-47.332079
 30
0.0
 11
312.019531
 21
-47.332079
 31
0.0
  0
LINE
  5
1052
100
AcDbEntity
  8
MSL2_30_3F-3
100
AcDbLine
 10
317.019531
 20
-47.332079
 30
0.0
 11
312.019531
 21
-47.332079
 31
0.0
  0
LINE
  5
1053
100
AcDbEntity
  8
MSL2_30_3F-0
100
AcDbLine
 10
370.539514
 20
-54.332079
 30
0.0
 11
346.519531
 21
-54.332079
 31
0.0
  0
LINE
  5
1054
100
AcDbEntity
  8
MSL2_30_3F-0
100
AcDbLine
 10
369.852681
 20
-53.332079
 30
0.0
 11
347.019531
 21
-53.332079
 31
0.0
  0
LINE
  5
1055
100
AcDbEntity
  8
MSL2_30_3F-0
100
AcDbLine
 10
339.569531
 20
-47.832079
 30
0.0
 11
329.489346
 21
-47.832079
 31
0.0
  0
LINE
  5
1056
100
AcDbEntity
  8
MSL2_30_3F-0
100
AcDbLine
 10
329.519531
 20
-45.832079
 30
0.0
 11
339.569531
 21
-45.832079
 31
0.0
  0
LINE
  5
1057
100
AcDbEntity
  8
MSL2_30_3F-0
100
AcDbLine
 10
326.494531
 20
-49.337632
 30
0.0
 11
328.544531
 21
-49.337632
 31
0.0
  0
LINE
  5
1058
100
AcDbEntity
  8
MSL2_30_3F-0
100
AcDbLine
 10
326.494531
 20
-45.584856
 30
0.0
 11
328.544531
 21
-45.584856
 31
0.0
  0
ARC
  5
1059
100
AcDbEntity
  8
MSL2_30_3F-0
100
AcDbCircle
 10
327.812586
 20
-47.461244
 30
0.0
 40
2.293056
100
AcDbArc
 50
125.085848
 51
234.914152
  0
ARC
  5
105A
100
AcDbEntity
  8
MSL2_30_3F-0
100
AcDbCircle
 10
327.226475
 20
-47.461244
 30
0.0
 40
2.293056
100
AcDbArc
 50
305.085847
 51
54.914153
  0
ARC
  5
105B
100
AcDbEntity
  8
MSL2_30_3F-0
100
AcDbCircle
 10
340.957366
 20
-47.461244
 30
0.0
 40
2.562165
100
AcDbArc
 50
312.916662
 51
47.083338
  0
LINE
  5
105C
100
AcDbEntity
  8
MSL2_30_3F-0
100
AcDbLine
 10
339.569531
 20
-49.337632
 30
0.0
 11
342.702031
 21
-49.337632
 31
0.0
  0
LINE
  5
105D
100
AcDbEntity
  8
MSL2_30_3F-0
100
AcDbLine
 10
342.702031
 20
-45.584856
 30
0.0
 11
339.569531
 21
-45.584856
 31
0.0
  0
LINE
  5
105E
100
AcDbEntity
  8
MSL2_30_3F-0
100
AcDbLine
 10
344.719531
 20
-46.739556
 30
0.0
 11
346.519531
 21
-46.739556
 31
0.0
  0
LINE
  5
105F
100
AcDbEntity
  8
MSL2_30_3F-0
100
AcDbLine
 10
344.719531
 20
-51.647034
 30
0.0
 11
346.519531
 21
-51.647034
 31
0.0
  0
ARC
  5
1060
100
AcDbEntity
  8
MSL2_30_3F-0
100
AcDbCircle
 10
346.628211
 20
-49.193295
 30
0.0
 40
3.108681
100
AcDbArc
 50
127.878144
 51
232.121856
  0
LINE
  5
1061
100
AcDbEntity
  8
MSL2_30_3F-7
100
AcDbLine
 10
366.519531
 20
-51.888007
 30
0.0
 11
383.519531
 21
-51.887993
 31
0.0
1001
GENIUS_GENODEF_13
1002
{
1000
HIER
1070
     0
1002
}
1002
{
1000
MANEDIT
1070
     0
1002
}
1002
{
1000
NOSEL
1070
     0
1002
}
1002
{
1000
BEHIND
1070
     0
1002
}
1002
{
1000
REACTOR
1002
}
1001
GENIUS_GENOBJ-N-CEN_13
1002
{
1000
OWNER
1000
GEN
1002
}
  0
LINE
  5
1062
100
AcDbEntity
  8
MSL2_30_3F-7
100
AcDbLine
 10
375.019531
 20
-44.674751
 30
0.0
 11
375.019531
 21
-59.10124
 31
0.0
1001
GENIUS_GENODEF_13
1002
{
1000
HIER
1070
     0
1002
}
1002
{
1000
MANEDIT
1070
     0
1002
}
1002
{
1000
NOSEL
1070
     0
1002
}
1002
{
1000
BEHIND
1070
     0
1002
}
1002
{
1000
REACTOR
1002
}
1001
GENIUS_GENOBJ-N-CEN_13
1002
{
1000
OWNER
1000
GEN
1002
}
  0
ELLIPSE
  5
1063
100
AcDbEntity
  8
MSL2_30_3F-0
100
AcDbEllipse
 10
375.019531
 20
-51.887996
 30
0.0
 11
5.500000000006366
 21
0.0
 31
0.0
210
0.0
220
0.0
230
1.0
 40
0.766044
 41
0.0
 42
6.2831853071796
  0
ARC
  5
1064
100
AcDbEntity
  8
MSL2_30_3F-0
100
AcDbCircle
 10
383.019531
 20
-56.832079
 30
0.0
 40
1.5
100
AcDbArc
 50
180.0
 51
269.999999
  0
LINE
  5
1065
100
AcDbEntity
  8
MSL2_30_3F-0
100
AcDbLine
 10
381.519531
 20
-56.832079
 30
0.0
 11
381.519531
 21
-54.332079
 31
0.0
  0
ELLIPSE
  5
1066
100
AcDbEntity
  8
MSL2_30_3F-0
100
AcDbEllipse
 10
375.019528
 20
-50.152478
 30
0.0
 11
5.499999999998895
 21
0.0000090659728525
 31
0.0
210
0.0
220
0.0
230
-1.0
 40
0.766044
 41
3.141592653589787
 42
6.283185307179709
  0
ELLIPSE
  5
1067
100
AcDbEntity
  8
MSL2_30_3F-0
100
AcDbEllipse
 10
375.019531
 20
-51.887996
 30
0.0
 11
2.000000000006366
 21
0.0
 31
0.0
210
0.0
220
0.0
230
1.0
 40
0.766044
 41
0.0
 42
6.2831853071796
  0
LINE
  5
1068
100
AcDbEntity
  8
MSL2_30_3F-0
100
AcDbLine
 10
375.019533
 20
-53.17358
 30
0.0
 11
377.019531
 21
-51.888001
 31
0.0
  0
LINE
  5
1069
100
AcDbEntity
  8
MSL2_30_3F-0
100
AcDbLine
 10
373.019531
 20
-51.888013
 30
0.0
 11
375.019533
 21
-53.17358
 31
0.0
  0
LINE
  5
106A
100
AcDbEntity
  8
MSL2_30_3F-0
100
AcDbLine
 10
369.519528
 20
-50.152478
 30
0.0
 11
369.519531
 21
-51.888023
 31
0.0
  0
LINE
  5
106B
100
AcDbEntity
  8
MSL2_30_3F-0
100
AcDbLine
 10
380.519528
 20
-50.152469
 30
0.0
 11
380.519531
 21
-51.887996
 31
0.0
  0
LINE
  5
106C
100
AcDbEntity
  8
MSL2_30_3F-7
100
AcDbLine
 10
350.1805
 20
-41.832079
 30
0.0
 11
306.295031
 21
-41.832079
 31
0.0
  0
LINE
  5
106D
100
AcDbEntity
  8
MSL2_30_3F-7
100
AcDbLine
 10
316.769531
 20
-39.332079
 30
0.0
 11
324.269531
 21
-39.332079
 31
0.0
  0
LINE
  5
106E
100
AcDbEntity
  8
MSL2_30_3F-7
100
AcDbLine
 10
350.1805
 20
13.167921
 30
0.0
 11
306.295031
 21
13.167921
 31
0.0
  0
LINE
  5
106F
100
AcDbEntity
  8
MSL2_30_3F-7
100
AcDbLine
 10
306.170646
 20
-29.332079
 30
0.0
 11
329.289864
 21
-29.332079
 31
0.0
  0
LINE
  5
1070
100
AcDbEntity
  8
MSL2_30_3F-7
100
AcDbLine
 10
306.170646
 20
0.667921
 30
0.0
 11
329.289864
 21
0.667921
 31
0.0
  0
LINE
  5
1071
100
AcDbEntity
  8
MSL2_30_3F-7
100
AcDbLine
 10
316.769531
 20
10.667921
 30
0.0
 11
324.269531
 21
10.667921
 31
0.0
  0
LINE
  5
1072
100
AcDbEntity
  8
MSL2_30_3F-0
100
AcDbLine
 10
309.519531
 20
26.667921
 30
0.0
 11
325.519531
 21
26.667921
 31
0.0
  0
LINE
  5
1073
100
AcDbEntity
  8
MSL2_30_3F-0
100
AcDbLine
 10
309.519531
 20
-8.012108
 30
0.0
 11
325.519531
 21
-8.012108
 31
0.0
  0
LINE
  5
1074
100
AcDbEntity
  8
MSL2_30_3F-0
100
AcDbLine
 10
309.519531
 20
-20.652049
 30
0.0
 11
325.519531
 21
-20.652049
 31
0.0
  0
LINE
  5
1075
100
AcDbEntity
  8
MSL2_30_3F-3
100
AcDbLine
 10
316.586531
 20
-44.132079
 30
0.0
 11
312.452531
 21
-44.132079
 31
0.0
  0
LINE
  5
1076
100
AcDbEntity
  8
MSL2_30_3F-3
100
AcDbLine
 10
316.586531
 20
-44.132079
 30
0.0
 11
312.452531
 21
-44.132079
 31
0.0
  0
LINE
  5
1077
100
AcDbEntity
  8
MSL2_30_3F-3
100
AcDbLine
 10
314.519531
 20
-42.938696
 30
0.0
 11
316.586531
 21
-44.132079
 31
0.0
  0
LINE
  5
1078
100
AcDbEntity
  8
MSL2_30_3F-3
100
AcDbLine
 10
314.519531
 20
-42.938696
 30
0.0
 11
316.586531
 21
-44.132079
 31
0.0
  0
LINE
  5
1079
100
AcDbEntity
  8
MSL2_30_3F-3
100
AcDbLine
 10
314.519531
 20
-42.938696
 30
0.0
 11
312.452531
 21
-44.132079
 31
0.0
  0
LINE
  5
107A
100
AcDbEntity
  8
MSL2_30_3F-3
100
AcDbLine
 10
314.519531
 20
-42.938696
 30
0.0
 11
312.452531
 21
-44.132079
 31
0.0
  0
LINE
  5
107B
100
AcDbEntity
  8
MSL2_30_3F-7
100
AcDbLine
 10
320.519531
 20
-35.582079
 30
0.0
 11
320.519531
 21
-43.082079
 31
0.0
  0
ARC
  5
107C
100
AcDbEntity
  8
MSL2_30_3F-3
100
AcDbCircle
 10
320.519531
 20
-39.332079
 30
0.0
 40
2.5
100
AcDbArc
 50
255.068583
 51
187.594643
  0
CIRCLE
  5
107D
100
AcDbEntity
  8
MSL2_30_3F-3
100
AcDbCircle
 10
320.519531
 20
-39.332079
 30
0.0
 40
2.067
  0
LINE
  5
107E
100
AcDbEntity
  8
MSL2_30_3F-7
100
AcDbLine
 10
314.519531
 20
11.274538
 30
0.0
 11
314.519531
 21
29.667921
 31
0.0
  0
LINE
  5
107F
100
AcDbEntity
  8
MSL2_30_3F-7
100
AcDbLine
 10
314.519531
 20
11.274538
 30
0.0
 11
314.519531
 21
29.667921
 31
0.0
  0
LINE
  5
1080
100
AcDbEntity
  8
MSL2_30_3F-3
100
AcDbLine
 10
312.452531
 20
26.667921
 30
0.0
 11
312.452531
 21
15.467921
 31
0.0
  0
LINE
  5
1081
100
AcDbEntity
  8
MSL2_30_3F-3
100
AcDbLine
 10
312.452531
 20
26.667921
 30
0.0
 11
312.452531
 21
15.467921
 31
0.0
  0
LINE
  5
1082
100
AcDbEntity
  8
MSL2_30_3F-3
100
AcDbLine
 10
316.586531
 20
26.667921
 30
0.0
 11
316.586531
 21
15.467921
 31
0.0
  0
LINE
  5
1083
100
AcDbEntity
  8
MSL2_30_3F-3
100
AcDbLine
 10
316.586531
 20
26.667921
 30
0.0
 11
316.586531
 21
15.467921
 31
0.0
  0
LINE
  5
1084
100
AcDbEntity
  8
MSL2_30_3F-3
100
AcDbLine
 10
314.519531
 20
14.274538
 30
0.0
 11
316.586531
 21
15.467921
 31
0.0
  0
LINE
  5
1085
100
AcDbEntity
  8
MSL2_30_3F-3
100
AcDbLine
 10
314.519531
 20
14.274538
 30
0.0
 11
316.586531
 21
15.467921
 31
0.0
  0
LINE
  5
1086
100
AcDbEntity
  8
MSL2_30_3F-3
100
AcDbLine
 10
316.586531
 20
15.467921
 30
0.0
 11
312.452531
 21
15.467921
 31
0.0
  0
LINE
  5
1087
100
AcDbEntity
  8
MSL2_30_3F-3
100
AcDbLine
 10
316.586531
 20
15.467921
 30
0.0
 11
312.452531
 21
15.467921
 31
0.0
  0
LINE
  5
1088
100
AcDbEntity
  8
MSL2_30_3F-3
100
AcDbLine
 10
314.519531
 20
14.274538
 30
0.0
 11
312.452531
 21
15.467921
 31
0.0
  0
LINE
  5
1089
100
AcDbEntity
  8
MSL2_30_3F-3
100
AcDbLine
 10
314.519531
 20
14.274538
 30
0.0
 11
312.452531
 21
15.467921
 31
0.0
  0
ARC
  5
108A
100
AcDbEntity
  8
MSL2_30_3F-3
100
AcDbCircle
 10
320.519531
 20
10.667921
 30
0.0
 40
2.5
100
AcDbArc
 50
255.068583
 51
187.594643
  0
CIRCLE
  5
108B
100
AcDbEntity
  8
MSL2_30_3F-3
100
AcDbCircle
 10
320.519531
 20
10.667921
 30
0.0
 40
2.067
  0
LINE
  5
108C
100
AcDbEntity
  8
MSL2_30_3F-7
100
AcDbLine
 10
320.519531
 20
14.417921
 30
0.0
 11
320.519531
 21
6.917921
 31
0.0
  0
LINE
  5
108D
100
AcDbEntity
  8
MSL2_30_3F-3
100
AcDbLine
 10
317.019531
 20
26.667921
 30
0.0
 11
317.019531
 21
18.667921
 31
0.0
  0
LINE
  5
108E
100
AcDbEntity
  8
MSL2_30_3F-3
100
AcDbLine
 10
317.019531
 20
26.667921
 30
0.0
 11
317.019531
 21
18.667921
 31
0.0
  0
LINE
  5
108F
100
AcDbEntity
  8
MSL2_30_3F-3
100
AcDbLine
 10
312.019531
 20
26.667921
 30
0.0
 11
312.019531
 21
18.667921
 31
0.0
  0
LINE
  5
1090
100
AcDbEntity
  8
MSL2_30_3F-3
100
AcDbLine
 10
312.019531
 20
26.667921
 30
0.0
 11
312.019531
 21
18.667921
 31
0.0
  0
LINE
  5
1091
100
AcDbEntity
  8
MSL2_30_3F-3
100
AcDbLine
 10
317.019531
 20
18.667921
 30
0.0
 11
312.019531
 21
18.667921
 31
0.0
  0
LINE
  5
1092
100
AcDbEntity
  8
MSL2_30_3F-3
100
AcDbLine
 10
317.019531
 20
18.667921
 30
0.0
 11
312.019531
 21
18.667921
 31
0.0
  0
MTEXT
  5
1093
100
AcDbEntity
  8
MSL2_30_3F-6
100
AcDbMText
 10
348.358742
 20
-21.824968
 30
0.0
 40
3.5
 41
27.367041
 71
     1
 72
     1
  1
{MSL2-30-3F}
  0
LINE
  5
1094
100
AcDbEntity
  8
MSL2_30_3F-0
100
AcDbLine
 10
339.569531
 20
-37.832079
 30
0.0
 11
329.519531
 21
-37.832079
 31
0.0
  0
LINE
  5
1095
100
AcDbEntity
  8
MSL2_30_3F-0
100
AcDbLine
 10
329.489346
 20
-35.832079
 30
0.0
 11
339.569531
 21
-35.832079
 31
0.0
  0
LINE
  5
1096
100
AcDbEntity
  8
MSL2_30_3F-0
100
AcDbLine
 10
326.494531
 20
-38.079302
 30
0.0
 11
328.544531
 21
-38.079302
 31
0.0
  0
LINE
  5
1097
100
AcDbEntity
  8
MSL2_30_3F-0
100
AcDbLine
 10
326.494531
 20
-34.326526
 30
0.0
 11
328.544531
 21
-34.326526
 31
0.0
  0
ARC
  5
1098
100
AcDbEntity
  8
MSL2_30_3F-0
100
AcDbCircle
 10
327.812586
 20
-36.202914
 30
0.0
 40
2.293056
100
AcDbArc
 50
125.085848
 51
234.914152
  0
ARC
  5
1099
100
AcDbEntity
  8
MSL2_30_3F-0
100
AcDbCircle
 10
327.226475
 20
-36.202914
 30
0.0
 40
2.293056
100
AcDbArc
 50
305.085847
 51
54.914153
  0
ARC
  5
109A
100
AcDbEntity
  8
MSL2_30_3F-0
100
AcDbCircle
 10
346.628211
 20
-34.470863
 30
0.0
 40
3.108681
100
AcDbArc
 50
127.878144
 51
232.121856
  0
ARC
  5
109B
100
AcDbEntity
  8
MSL2_30_3F-0
100
AcDbCircle
 10
340.957366
 20
-36.202914
 30
0.0
 40
2.562165
100
AcDbArc
 50
312.916662
 51
47.083338
  0
LINE
  5
109C
100
AcDbEntity
  8
MSL2_30_3F-0
100
AcDbLine
 10
342.702031
 20
-38.079302
 30
0.0
 11
339.569531
 21
-38.079302
 31
0.0
  0
LINE
  5
109D
100
AcDbEntity
  8
MSL2_30_3F-0
100
AcDbLine
 10
342.702031
 20
-34.326526
 30
0.0
 11
339.569531
 21
-34.326526
 31
0.0
  0
LINE
  5
109E
100
AcDbEntity
  8
MSL2_30_3F-0
100
AcDbLine
 10
344.719531
 20
-36.924602
 30
0.0
 11
346.519531
 21
-36.924602
 31
0.0
  0
LINE
  5
109F
100
AcDbEntity
  8
MSL2_30_3F-0
100
AcDbLine
 10
344.719531
 20
-32.017124
 30
0.0
 11
346.519531
 21
-32.017124
 31
0.0
  0
LINE
  5
10A0
100
AcDbEntity
  8
MSL2_30_3F-0
100
AcDbLine
 10
332.519531
 20
-5.332079
 30
0.0
 11
346.519531
 21
-5.332079
 31
0.0
  0
LINE
  5
10A1
100
AcDbEntity
  8
MSL2_30_3F-0
100
AcDbLine
 10
346.519531
 20
-8.332079
 30
0.0
 11
325.519531
 21
-8.332079
 31
0.0
  0
LINE
  5
10A2
100
AcDbEntity
  8
MSL2_30_3F-0
100
AcDbLine
 10
346.519531
 20
-23.332079
 30
0.0
 11
332.519531
 21
-23.332079
 31
0.0
  0
LINE
  5
10A3
100
AcDbEntity
  8
MSL2_30_3F-0
100
AcDbLine
 10
325.519531
 20
-20.332079
 30
0.0
 11
346.519531
 21
-20.332079
 31
0.0
  0
LINE
  5
10A4
100
AcDbEntity
  8
MSL2_30_3F-3
100
AcDbLine
 10
331.519531
 20
-20.332079
 30
0.0
 11
331.519531
 21
-8.332079
 31
0.0
1001
GENIUS_GENBH_13
1002
{
1000
OE
1000
CON1
1002
}
1001
GENIUS_GENOREF_13
1005
13BE
  0
LINE
  5
10A5
100
AcDbEntity
  8
MSL2_30_3F-3
100
AcDbLine
 10
332.519531
 20
-20.332079
 30
0.0
 11
332.519531
 21
-8.332079
 31
0.0
1001
GENIUS_GENBH_13
1002
{
1000
OE
1000
CON1
1002
}
1001
GENIUS_GENOREF_13
1005
13BE
  0
LINE
  5
10A6
100
AcDbEntity
  8
MSL2_30_3F-0
100
AcDbLine
 10
332.519531
 20
-23.332079
 30
0.0
 11
331.519531
 21
-22.332079
 31
0.0
  0
LINE
  5
10A7
100
AcDbEntity
  8
MSL2_30_3F-3
100
AcDbLine
 10
331.519531
 20
-17.332079
 30
0.0
 11
325.519531
 21
-17.332079
 31
0.0
1001
GENIUS_GENBH_13
1002
{
1000
OE
1000
CON1
1002
}
1001
GENIUS_GENOREF_13
1005
13BE
  0
LINE
  5
10A8
100
AcDbEntity
  8
MSL2_30_3F-0
100
AcDbLine
 10
331.519531
 20
-22.332079
 30
0.0
 11
331.519531
 21
-20.332079
 31
0.0
1001
GENIUS_GENOREF_13
1005
13BE
  0
LINE
  5
10A9
100
AcDbEntity
  8
MSL2_30_3F-0
100
AcDbLine
 10
332.519531
 20
-23.332079
 30
0.0
 11
332.519531
 21
-20.332079
 31
0.0
1001
GENIUS_GENOREF_13
1005
13BE
  0
LINE
  5
10AA
100
AcDbEntity
  8
MSL2_30_3F-0
100
AcDbLine
 10
331.519531
 20
-6.332079
 30
0.0
 11
332.519531
 21
-5.332079
 31
0.0
  0
LINE
  5
10AB
100
AcDbEntity
  8
MSL2_30_3F-0
100
AcDbLine
 10
331.519531
 20
-8.332079
 30
0.0
 11
331.519531
 21
-6.332079
 31
0.0
1001
GENIUS_GENOREF_13
1005
13BE
  0
LINE
  5
10AC
100
AcDbEntity
  8
MSL2_30_3F-3
100
AcDbLine
 10
325.519531
 20
-11.332079
 30
0.0
 11
331.519531
 21
-11.332079
 31
0.0
1001
GENIUS_GENBH_13
1002
{
1000
OE
1000
CON1
1002
}
1001
GENIUS_GENOREF_13
1005
13BE
  0
LINE
  5
10AD
100
AcDbEntity
  8
MSL2_30_3F-0
100
AcDbLine
 10
332.519531
 20
-8.332079
 30
0.0
 11
332.519531
 21
-5.332079
 31
0.0
1001
GENIUS_GENOREF_13
1005
13BE
  0
LINE
  5
10AE
100
AcDbEntity
  8
MSL2_30_3F-7
100
AcDbLine
 10
348.555531
 20
8.975279
 30
0.0
 11
364.283531
 21
8.975279
 31
0.0
1001
GENIUS_GENODEF_13
1002
{
1000
HIER
1070
     0
1002
}
1002
{
1000
MANEDIT
1070
     0
1002
}
1002
{
1000
NOSEL
1070
     0
1002
}
1002
{
1000
BEHIND
1070
     0
1002
}
1002
{
1000
REACTOR
1002
}
1001
GENIUS_GENOBJ-N-CEN_13
1002
{
1000
OWNER
1000
GEN
1002
}
  0
ELLIPSE
  5
10AF
100
AcDbEntity
  8
MSL2_30_3F-4
100
AcDbEllipse
 10
356.419531
 20
8.975279
 30
0.0
 11
4.863999999999975
 21
0.0
 31
0.0
210
0.0
220
0.0
230
1.0
 40
0.766044
 41
-1.637716455833807
 42
3.255308282467152
  0
ELLIPSE
  5
10B0
100
AcDbEntity
  8
MSL2_30_3F-0
100
AcDbEllipse
 10
356.419531
 20
8.975279
 30
0.0
 11
4.283225000000015
 21
0.0
 31
0.0
210
0.0
220
0.0
230
1.0
 40
0.766044
 41
0.0
 42
6.2831853071796
  0
LINE
  5
10B1
100
AcDbEntity
  8
MSL2_30_3F-0
100
AcDbLine
 10
347.019531
 20
16.835584
 30
0.0
 11
366.719531
 21
16.835584
 31
0.0
  0
LINE
  5
10B2
100
AcDbEntity
  8
MSL2_30_3F-0
100
AcDbLine
 10
366.719531
 20
-0.017393
 30
0.0
 11
347.019531
 21
-0.017393
 31
0.0
  0
LINE
  5
10B3
100
AcDbEntity
  8
MSL2_30_3F-0
100
AcDbLine
 10
326.519531
 20
7.167921
 30
0.0
 11
326.519531
 21
19.167921
 31
0.0
  0
LINE
  5
10B4
100
AcDbEntity
  8
MSL2_30_3F-0
100
AcDbLine
 10
336.519531
 20
19.167921
 30
0.0
 11
336.519531
 21
7.167921
 31
0.0
  0
LINE
  5
10B5
100
AcDbEntity
  8
MSL2_30_3F-0
100
AcDbLine
 10
337.519531
 20
7.167921
 30
0.0
 11
337.519531
 21
19.167921
 31
0.0
  0
LINE
  5
10B6
100
AcDbEntity
  8
MSL2_30_3F-0
100
AcDbLine
 10
338.519531
 20
6.167921
 30
0.0
 11
338.519531
 21
20.167921
 31
0.0
  0
LINE
  5
10B7
100
AcDbEntity
  8
MSL2_30_3F-0
100
AcDbLine
 10
346.519531
 20
6.167921
 30
0.0
 11
338.519531
 21
6.167921
 31
0.0
  0
LINE
  5
10B8
100
AcDbEntity
  8
MSL2_30_3F-0
100
AcDbLine
 10
338.519531
 20
6.167921
 30
0.0
 11
337.519531
 21
7.167921
 31
0.0
  0
LINE
  5
10B9
100
AcDbEntity
  8
MSL2_30_3F-0
100
AcDbLine
 10
336.519531
 20
7.167921
 30
0.0
 11
326.519531
 21
7.167921
 31
0.0
  0
LINE
  5
10BA
100
AcDbEntity
  8
MSL2_30_3F-0
100
AcDbLine
 10
326.519531
 20
7.167921
 30
0.0
 11
325.519531
 21
8.167921
 31
0.0
  0
LINE
  5
10BB
100
AcDbEntity
  8
MSL2_30_3F-0
100
AcDbLine
 10
337.519531
 20
11.117921
 30
0.0
 11
336.519531
 21
11.117921
 31
0.0
  0
LINE
  5
10BC
100
AcDbEntity
  8
MSL2_30_3F-0
100
AcDbLine
 10
337.519531
 20
15.217921
 30
0.0
 11
336.519531
 21
15.217921
 31
0.0
  0
LINE
  5
10BD
100
AcDbEntity
  8
MSL2_30_3F-0
100
AcDbLine
 10
338.519531
 20
20.167921
 30
0.0
 11
346.519531
 21
20.167921
 31
0.0
  0
LINE
  5
10BE
100
AcDbEntity
  8
MSL2_30_3F-0
100
AcDbLine
 10
326.519531
 20
19.167921
 30
0.0
 11
336.519531
 21
19.167921
 31
0.0
  0
LINE
  5
10BF
100
AcDbEntity
  8
MSL2_30_3F-0
100
AcDbLine
 10
325.519531
 20
18.167921
 30
0.0
 11
326.519531
 21
19.167921
 31
0.0
  0
LINE
  5
10C0
100
AcDbEntity
  8
MSL2_30_3F-0
100
AcDbLine
 10
337.519531
 20
19.167921
 30
0.0
 11
338.519531
 21
20.167921
 31
0.0
  0
LINE
  5
10C1
100
AcDbEntity
  8
MSL2_30_3F-0
100
AcDbLine
 10
347.019531
 20
24.667921
 30
0.0
 11
347.019531
 21
16.835584
 31
0.0
  0
LINE
  5
10C2
100
AcDbEntity
  8
MSL2_30_3F-0
100
AcDbLine
 10
366.719531
 20
16.835584
 30
0.0
 11
366.719531
 21
-0.017393
 31
0.0
  0
LINE
  5
10C3
100
AcDbEntity
  8
MSL2_30_3F-7
100
AcDbLine
 10
356.419531
 20
15.701319
 30
0.0
 11
356.419531
 21
2.148237
 31
0.0
1001
GENIUS_GENODEF_13
1002
{
1000
HIER
1070
     0
1002
}
1002
{
1000
MANEDIT
1070
     0
1002
}
1002
{
1000
NOSEL
1070
     0
1002
}
1002
{
1000
BEHIND
1070
     0
1002
}
1002
{
1000
REACTOR
1002
}
1001
GENIUS_GENOBJ-N-CEN_13
1002
{
1000
OWNER
1000
GEN
1002
}
  0
CIRCLE
  5
10C4
100
AcDbEntity
  8
MSL2_30_3F-0
100
AcDbCircle
 10
180.838689
 20
119.888977
 30
0.0
 40
2.5
  0
CIRCLE
  5
10C5
100
AcDbEntity
  8
MSL2_30_3F-0
100
AcDbCircle
 10
150.838689
 20
119.888977
 30
0.0
 40
2.5
  0
LINE
  5
10C6
100
AcDbEntity
  8
MSL2_30_3F-7
100
AcDbLine
 10
150.838689
 20
143.756474
 30
0.0
 11
150.838689
 21
96.888977
 31
0.0
  0
LINE
  5
10C7
100
AcDbEntity
  8
MSL2_30_3F-7
100
AcDbLine
 10
180.838689
 20
143.756474
 30
0.0
 11
180.838689
 21
96.888977
 31
0.0
  0
LINE
  5
10C8
100
AcDbEntity
  8
MSL2_30_3F-7
100
AcDbLine
 10
165.838689
 20
185.888977
 30
0.0
 11
165.838689
 21
96.888977
 31
0.0
  0
LINE
  5
10C9
100
AcDbEntity
  8
MSL2_30_3F-7
100
AcDbLine
 10
193.338689
 20
130.064286
 30
0.0
 11
193.338689
 21
110.220536
 31
0.0
  0
LINE
  5
10CA
100
AcDbEntity
  8
MSL2_30_3F-3
100
AcDbLine
 10
205.838689
 20
99.888977
 30
0.0
 11
205.838689
 21
139.888977
 31
0.0
  0
LINE
  5
10CB
100
AcDbEntity
  8
MSL2_30_3F-0
100
AcDbLine
 10
206.838689
 20
154.788977
 30
0.0
 11
206.838689
 21
98.888977
 31
0.0
  0
LINE
  5
10CC
100
AcDbEntity
  8
MSL2_30_3F-7
100
AcDbLine
 10
191.445306
 20
104.888977
 30
0.0
 11
209.838689
 21
104.888977
 31
0.0
  0
LINE
  5
10CD
100
AcDbEntity
  8
MSL2_30_3F-7
100
AcDbLine
 10
191.445306
 20
104.888977
 30
0.0
 11
209.838689
 21
104.888977
 31
0.0
  0
LINE
  5
10CE
100
AcDbEntity
  8
MSL2_30_3F-3
100
AcDbLine
 10
206.838689
 20
106.955977
 30
0.0
 11
195.638689
 21
106.955977
 31
0.0
  0
LINE
  5
10CF
100
AcDbEntity
  8
MSL2_30_3F-3
100
AcDbLine
 10
206.838689
 20
106.955977
 30
0.0
 11
195.638689
 21
106.955977
 31
0.0
  0
LINE
  5
10D0
100
AcDbEntity
  8
MSL2_30_3F-3
100
AcDbLine
 10
206.838689
 20
107.388977
 30
0.0
 11
198.838689
 21
107.388977
 31
0.0
  0
LINE
  5
10D1
100
AcDbEntity
  8
MSL2_30_3F-3
100
AcDbLine
 10
206.838689
 20
107.388977
 30
0.0
 11
198.838689
 21
107.388977
 31
0.0
  0
LINE
  5
10D2
100
AcDbEntity
  8
MSL2_30_3F-3
100
AcDbLine
 10
206.838689
 20
102.821977
 30
0.0
 11
195.638689
 21
102.821977
 31
0.0
  0
LINE
  5
10D3
100
AcDbEntity
  8
MSL2_30_3F-3
100
AcDbLine
 10
206.838689
 20
102.821977
 30
0.0
 11
195.638689
 21
102.821977
 31
0.0
  0
LINE
  5
10D4
100
AcDbEntity
  8
MSL2_30_3F-3
100
AcDbLine
 10
206.838689
 20
102.388977
 30
0.0
 11
198.838689
 21
102.388977
 31
0.0
  0
LINE
  5
10D5
100
AcDbEntity
  8
MSL2_30_3F-3
100
AcDbLine
 10
206.838689
 20
102.388977
 30
0.0
 11
198.838689
 21
102.388977
 31
0.0
  0
CIRCLE
  5
10D6
100
AcDbEntity
  8
MSL2_30_3F-0
100
AcDbCircle
 10
150.838689
 20
104.888977
 30
0.0
 40
2.75
  0
CIRCLE
  5
10D7
100
AcDbEntity
  8
MSL2_30_3F-3
100
AcDbCircle
 10
150.838689
 20
104.888977
 30
0.0
 40
5.0
  0
CIRCLE
  5
10D8
100
AcDbEntity
  8
MSL2_30_3F-0
100
AcDbCircle
 10
165.838689
 20
104.888977
 30
0.0
 40
2.5
  0
LINE
  5
10D9
100
AcDbEntity
  8
MSL2_30_3F-7
100
AcDbLine
 10
190.838689
 20
114.28236
 30
0.0
 11
190.838689
 21
95.888977
 31
0.0
  0
LINE
  5
10DA
100
AcDbEntity
  8
MSL2_30_3F-7
100
AcDbLine
 10
190.838689
 20
114.28236
 30
0.0
 11
190.838689
 21
96.888977
 31
0.0
  0
LINE
  5
10DB
100
AcDbEntity
  8
MSL2_30_3F-3
100
AcDbLine
 10
192.905689
 20
110.088977
 30
0.0
 11
188.771689
 21
110.088977
 31
0.0
  0
LINE
  5
10DC
100
AcDbEntity
  8
MSL2_30_3F-3
100
AcDbLine
 10
192.905689
 20
110.088977
 30
0.0
 11
188.771689
 21
110.088977
 31
0.0
  0
LINE
  5
10DD
100
AcDbEntity
  8
MSL2_30_3F-3
100
AcDbLine
 10
193.338689
 20
106.888977
 30
0.0
 11
188.338689
 21
106.888977
 31
0.0
  0
LINE
  5
10DE
100
AcDbEntity
  8
MSL2_30_3F-3
100
AcDbLine
 10
193.338689
 20
106.888977
 30
0.0
 11
188.338689
 21
106.888977
 31
0.0
  0
LINE
  5
10DF
100
AcDbEntity
  8
MSL2_30_3F-3
100
AcDbLine
 10
190.838689
 20
111.28236
 30
0.0
 11
188.771689
 21
110.088977
 31
0.0
  0
LINE
  5
10E0
100
AcDbEntity
  8
MSL2_30_3F-3
100
AcDbLine
 10
190.838689
 20
111.28236
 30
0.0
 11
188.771689
 21
110.088977
 31
0.0
  0
CIRCLE
  5
10E1
100
AcDbEntity
  8
MSL2_30_3F-0
100
AcDbCircle
 10
180.838689
 20
104.888977
 30
0.0
 40
2.75
  0
CIRCLE
  5
10E2
100
AcDbEntity
  8
MSL2_30_3F-3
100
AcDbCircle
 10
180.838689
 20
104.888977
 30
0.0
 40
5.0
  0
LINE
  5
10E3
100
AcDbEntity
  8
MSL2_30_3F-3
100
AcDbLine
 10
188.771689
 20
98.888977
 30
0.0
 11
188.771689
 21
110.088977
 31
0.0
  0
LINE
  5
10E4
100
AcDbEntity
  8
MSL2_30_3F-3
100
AcDbLine
 10
188.771689
 20
98.888977
 30
0.0
 11
188.771689
 21
110.088977
 31
0.0
  0
LINE
  5
10E5
100
AcDbEntity
  8
MSL2_30_3F-3
100
AcDbLine
 10
188.338689
 20
98.888977
 30
0.0
 11
188.338689
 21
106.888977
 31
0.0
  0
LINE
  5
10E6
100
AcDbEntity
  8
MSL2_30_3F-3
100
AcDbLine
 10
188.338689
 20
98.888977
 30
0.0
 11
188.338689
 21
106.888977
 31
0.0
  0
LINE
  5
10E7
100
AcDbEntity
  8
MSL2_30_3F-3
100
AcDbLine
 10
198.838689
 20
107.388977
 30
0.0
 11
198.838689
 21
102.388977
 31
0.0
  0
LINE
  5
10E8
100
AcDbEntity
  8
MSL2_30_3F-3
100
AcDbLine
 10
198.838689
 20
107.388977
 30
0.0
 11
198.838689
 21
102.388977
 31
0.0
  0
LINE
  5
10E9
100
AcDbEntity
  8
MSL2_30_3F-3
100
AcDbLine
 10
192.905689
 20
98.888977
 30
0.0
 11
192.905689
 21
110.088977
 31
0.0
  0
LINE
  5
10EA
100
AcDbEntity
  8
MSL2_30_3F-3
100
AcDbLine
 10
192.905689
 20
98.888977
 30
0.0
 11
192.905689
 21
110.088977
 31
0.0
  0
LINE
  5
10EB
100
AcDbEntity
  8
MSL2_30_3F-3
100
AcDbLine
 10
194.445306
 20
104.888977
 30
0.0
 11
195.638689
 21
106.955977
 31
0.0
  0
LINE
  5
10EC
100
AcDbEntity
  8
MSL2_30_3F-3
100
AcDbLine
 10
194.445306
 20
104.888977
 30
0.0
 11
195.638689
 21
106.955977
 31
0.0
  0
LINE
  5
10ED
100
AcDbEntity
  8
MSL2_30_3F-3
100
AcDbLine
 10
194.445306
 20
104.888977
 30
0.0
 11
195.638689
 21
102.821977
 31
0.0
  0
LINE
  5
10EE
100
AcDbEntity
  8
MSL2_30_3F-3
100
AcDbLine
 10
194.445306
 20
104.888977
 30
0.0
 11
195.638689
 21
102.821977
 31
0.0
  0
LINE
  5
10EF
100
AcDbEntity
  8
MSL2_30_3F-3
100
AcDbLine
 10
193.338689
 20
98.888977
 30
0.0
 11
193.338689
 21
106.888977
 31
0.0
  0
LINE
  5
10F0
100
AcDbEntity
  8
MSL2_30_3F-3
100
AcDbLine
 10
193.338689
 20
98.888977
 30
0.0
 11
193.338689
 21
106.888977
 31
0.0
  0
LINE
  5
10F1
100
AcDbEntity
  8
MSL2_30_3F-3
100
AcDbLine
 10
195.638689
 20
106.955977
 30
0.0
 11
195.638689
 21
102.821977
 31
0.0
  0
LINE
  5
10F2
100
AcDbEntity
  8
MSL2_30_3F-3
100
AcDbLine
 10
195.638689
 20
106.955977
 30
0.0
 11
195.638689
 21
102.821977
 31
0.0
  0
LINE
  5
10F3
100
AcDbEntity
  8
MSL2_30_3F-3
100
AcDbLine
 10
190.838689
 20
111.28236
 30
0.0
 11
192.905689
 21
110.088977
 31
0.0
  0
LINE
  5
10F4
100
AcDbEntity
  8
MSL2_30_3F-3
100
AcDbLine
 10
190.838689
 20
111.28236
 30
0.0
 11
192.905689
 21
110.088977
 31
0.0
  0
LINE
  5
10F5
100
AcDbEntity
  8
MSL2_30_3F-7
100
AcDbLine
 10
191.445306
 20
134.888977
 30
0.0
 11
209.838689
 21
134.888977
 31
0.0
  0
LINE
  5
10F6
100
AcDbEntity
  8
MSL2_30_3F-7
100
AcDbLine
 10
206.066506
 20
165.057398
 30
0.0
 11
201.09648
 21
159.134352
 31
0.0
  0
LINE
  5
10F7
100
AcDbEntity
  8
MSL2_30_3F-0
100
AcDbLine
 10
206.838689
 20
154.788977
 30
0.0
 11
172.15866
 21
183.888977
 31
0.0
  0
LINE
  5
10F8
100
AcDbEntity
  8
MSL2_30_3F-0
100
AcDbLine
 10
204.124265
 20
158.650082
 30
0.0
 11
173.411602
 21
184.421066
 31
0.0
  0
LINE
  5
10F9
100
AcDbEntity
  8
MSL2_30_3F-3
100
AcDbLine
 10
206.838689
 20
136.955977
 30
0.0
 11
195.638689
 21
136.955977
 31
0.0
  0
LINE
  5
10FA
100
AcDbEntity
  8
MSL2_30_3F-3
100
AcDbLine
 10
206.838689
 20
132.821977
 30
0.0
 11
195.638689
 21
132.821977
 31
0.0
  0
LINE
  5
10FB
100
AcDbEntity
  8
MSL2_30_3F-3
100
AcDbLine
 10
206.838689
 20
132.388977
 30
0.0
 11
198.838689
 21
132.388977
 31
0.0
  0
LINE
  5
10FC
100
AcDbEntity
  8
MSL2_30_3F-3
100
AcDbLine
 10
206.838689
 20
137.388977
 30
0.0
 11
198.838689
 21
137.388977
 31
0.0
  0
LINE
  5
10FD
100
AcDbEntity
  8
MSL2_30_3F-0
100
AcDbLine
 10
207.607851
 20
158.337821
 30
0.0
 11
199.181362
 21
165.408484
 31
0.0
  0
LINE
  5
10FE
100
AcDbEntity
  8
MSL2_30_3F-0
100
AcDbLine
 10
201.862518
 20
163.158728
 30
0.0
 11
205.130133
 21
163.941473
 31
0.0
  0
ARC
  5
10FF
100
AcDbEntity
  8
MSL2_30_3F-0
100
AcDbCircle
 10
202.838689
 20
157.117993
 30
0.0
 40
1.0
100
AcDbArc
 50
11.907976
 51
50.0
1001
GENIUS_GENODEF_13
1002
{
1000
HIER
1070
     0
1002
}
1002
{
1000
MANEDIT
1070
     0
1002
}
1002
{
1000
NOSEL
1070
     0
1002
}
1002
{
1000
BEHIND
1070
     0
1002
}
1002
{
1000
REACTOR
1002
}
1001
GENIUS_GENOBJ-N-FIL_13
1002
{
1000
OWNER
1000
GEN
1002
}
  0
LINE
  5
1100
100
AcDbEntity
  8
MSL2_30_3F-7
100
AcDbLine
 10
191.07441
 20
173.516432
 30
0.0
 11
177.568966
 21
157.421271
 31
0.0
  0
CIRCLE
  5
1101
100
AcDbEntity
  8
MSL2_30_3F-0
100
AcDbCircle
 10
150.838689
 20
134.888977
 30
0.0
 40
2.75
  0
CIRCLE
  5
1102
100
AcDbEntity
  8
MSL2_30_3F-3
100
AcDbCircle
 10
150.838689
 20
134.888977
 30
0.0
 40
5.0
  0
CIRCLE
  5
1103
100
AcDbEntity
  8
MSL2_30_3F-0
100
AcDbCircle
 10
165.838689
 20
134.888977
 30
0.0
 40
2.5
  0
CIRCLE
  5
1104
100
AcDbEntity
  8
MSL2_30_3F-0
100
AcDbCircle
 10
180.838689
 20
134.888977
 30
0.0
 40
2.75
  0
CIRCLE
  5
1105
100
AcDbEntity
  8
MSL2_30_3F-3
100
AcDbCircle
 10
180.838689
 20
134.888977
 30
0.0
 40
5.0
  0
LINE
  5
1106
100
AcDbEntity
  8
MSL2_30_3F-3
100
AcDbLine
 10
194.445306
 20
134.888977
 30
0.0
 11
195.638689
 21
136.955977
 31
0.0
  0
LINE
  5
1107
100
AcDbEntity
  8
MSL2_30_3F-3
100
AcDbLine
 10
194.445306
 20
134.888977
 30
0.0
 11
195.638689
 21
132.821977
 31
0.0
  0
LINE
  5
1108
100
AcDbEntity
  8
MSL2_30_3F-3
100
AcDbLine
 10
195.638689
 20
136.955977
 30
0.0
 11
195.638689
 21
132.821977
 31
0.0
  0
LINE
  5
1109
100
AcDbEntity
  8
MSL2_30_3F-3
100
AcDbLine
 10
198.838689
 20
137.388977
 30
0.0
 11
198.838689
 21
132.388977
 31
0.0
  0
LINE
  5
110A
100
AcDbEntity
  8
MSL2_30_3F-7
100
AcDbLine
 10
157.338689
 20
169.888977
 30
0.0
 11
174.338689
 21
169.888977
 31
0.0
  0
LINE
  5
110B
100
AcDbEntity
  8
MSL2_30_3F-0
100
AcDbLine
 10
172.768814
 20
183.655022
 30
0.0
 11
203.481477
 21
157.884038
 31
0.0
  0
LINE
  5
110C
100
AcDbEntity
  8
MSL2_30_3F-3
100
AcDbLine
 10
151.524004
 20
177.45864
 30
0.0
 11
150.881217
 21
178.224684
 31
0.0
  0
LINE
  5
110D
100
AcDbEntity
  8
MSL2_30_3F-3
100
AcDbLine
 10
146.257372
 20
174.344818
 30
0.0
 11
153.970824
 21
165.152285
 31
0.0
  0
LINE
  5
110E
100
AcDbEntity
  8
MSL2_30_3F-3
100
AcDbLine
 10
145.812473
 20
173.971503
 30
0.0
 11
153.525924
 21
164.77897
 31
0.0
  0
ARC
  5
110F
100
AcDbEntity
  8
MSL2_30_3F-0
100
AcDbCircle
 10
159.551353
 20
182.888977
 30
0.0
 40
2.0
100
AcDbArc
 50
90.0
 51
130.0
1001
GENIUS_GENODEF_13
1002
{
1000
HIER
1070
     0
1002
}
1002
{
1000
MANEDIT
1070
     0
1002
}
1002
{
1000
NOSEL
1070
     0
1002
}
1002
{
1000
BEHIND
1070
     0
1002
}
1002
{
1000
REACTOR
1002
}
1001
GENIUS_GENOBJ-N-FIL_13
1002
{
1000
OWNER
1000
GEN
1002
}
  0
ARC
  5
1110
100
AcDbEntity
  8
MSL2_30_3F-0
100
AcDbCircle
 10
159.551353
 20
182.888977
 30
0.0
 40
1.0
100
AcDbArc
 50
91.907976
 51
130.0
1001
GENIUS_GENODEF_13
1002
{
1000
HIER
1070
     0
1002
}
1002
{
1000
MANEDIT
1070
     0
1002
}
1002
{
1000
NOSEL
1070
     0
1002
}
1002
{
1000
BEHIND
1070
     0
1002
}
1002
{
1000
REACTOR
1002
}
1001
GENIUS_GENOBJ-N-FIL_13
1002
{
1000
OWNER
1000
GEN
1002
}
  0
LINE
  5
1111
100
AcDbEntity
  8
MSL2_30_3F-0
100
AcDbLine
 10
172.126026
 20
184.888977
 30
0.0
 11
165.838689
 21
184.888977
 31
0.0
  0
LINE
  5
1112
100
AcDbEntity
  8
MSL2_30_3F-0
100
AcDbLine
 10
165.838689
 20
183.888977
 30
0.0
 11
172.15866
 21
183.888977
 31
0.0
  0
LINE
  5
1113
100
AcDbEntity
  8
MSL2_30_3F-0
100
AcDbLine
 10
159.551353
 20
184.888977
 30
0.0
 11
165.838689
 21
184.888977
 31
0.0
  0
LINE
  5
1114
100
AcDbEntity
  8
MSL2_30_3F-0
100
AcDbLine
 10
165.838689
 20
183.888977
 30
0.0
 11
159.518719
 21
183.888977
 31
0.0
  0
ARC
  5
1115
100
AcDbEntity
  8
MSL2_30_3F-0
100
AcDbCircle
 10
172.126026
 20
182.888977
 30
0.0
 40
1.0
100
AcDbArc
 50
50.0
 51
88.092024
1001
GENIUS_GENODEF_13
1002
{
1000
HIER
1070
     0
1002
}
1002
{
1000
MANEDIT
1070
     0
1002
}
1002
{
1000
NOSEL
1070
     0
1002
}
1002
{
1000
BEHIND
1070
     0
1002
}
1002
{
1000
REACTOR
1002
}
1001
GENIUS_GENOBJ-N-FIL_13
1002
{
1000
OWNER
1000
GEN
1002
}
  0
ARC
  5
1116
100
AcDbEntity
  8
MSL2_30_3F-0
100
AcDbCircle
 10
172.126026
 20
182.888977
 30
0.0
 40
2.0
100
AcDbArc
 50
50.0
 51
90.0
1001
GENIUS_GENODEF_13
1002
{
1000
HIER
1070
     0
1002
}
1002
{
1000
MANEDIT
1070
     0
1002
}
1002
{
1000
NOSEL
1070
     0
1002
}
1002
{
1000
BEHIND
1070
     0
1002
}
1002
{
1000
REACTOR
1002
}
1001
GENIUS_GENOBJ-N-FIL_13
1002
{
1000
OWNER
1000
GEN
1002
}
  0
LINE
  5
1117
100
AcDbEntity
  8
MSL2_30_3F-0
100
AcDbLine
 10
180.153375
 20
177.45864
 30
0.0
 11
180.796162
 21
178.224684
 31
0.0
  0
LINE
  5
1118
100
AcDbEntity
  8
MSL2_30_3F-3
100
AcDbLine
 10
192.427187
 20
168.465095
 30
0.0
 11
184.713736
 21
159.272562
 31
0.0
  0
LINE
  5
1119
100
AcDbEntity
  8
MSL2_30_3F-3
100
AcDbLine
 10
192.872087
 20
168.09178
 30
0.0
 11
185.158636
 21
158.899247
 31
0.0
  0
LINE
  5
111A
100
AcDbEntity
  8
MSL2_30_3F-3
100
AcDbLine
 10
185.864906
 20
173.971503
 30
0.0
 11
178.151455
 21
164.77897
 31
0.0
  0
LINE
  5
111B
100
AcDbEntity
  8
MSL2_30_3F-3
100
AcDbLine
 10
185.420007
 20
174.344818
 30
0.0
 11
177.706555
 21
165.152285
 31
0.0
  0
LINE
  5
111C
100
AcDbEntity
  8
MSL2_30_3F-0
100
AcDbLine
 10
197.006352
 20
163.317312
 30
0.0
 11
197.64914
 21
164.083357
 31
0.0
  0
LINE
  5
111D
100
AcDbEntity
  8
MSL2_30_3F-3
100
AcDbLine
 10
197.329604
 20
163.046072
 30
0.0
 11
197.972391
 21
163.812117
 31
0.0
  0
LINE
  5
111E
100
AcDbEntity
  8
MSL2_30_3F-0
100
AcDbLine
 10
199.181362
 20
165.408484
 30
0.0
 11
197.895787
 21
163.876395
 31
0.0
  0
ARC
  5
111F
100
AcDbEntity
  8
MSL2_30_3F-0
100
AcDbCircle
 10
202.838689
 20
157.117993
 30
0.0
 40
2.0
100
AcDbArc
 50
360.0
 51
50.0
1001
GENIUS_GENODEF_13
1002
{
1000
HIER
1070
     0
1002
}
1002
{
1000
MANEDIT
1070
     0
1002
}
1002
{
1000
NOSEL
1070
     0
1002
}
1002
{
1000
BEHIND
1070
     0
1002
}
1002
{
1000
REACTOR
1002
}
1001
GENIUS_GENOBJ-N-FIL_13
1002
{
1000
OWNER
1000
GEN
1002
}
  0
LINE
  5
1120
100
AcDbEntity
  8
MSL2_30_3F-0
100
AcDbLine
 10
206.322276
 20
156.805732
 30
0.0
 11
207.607851
 21
158.337821
 31
0.0
  0
LINE
  5
1121
100
AcDbEntity
  8
MSL2_30_3F-0
100
AcDbLine
 10
206.322276
 20
156.805732
 30
0.0
 11
204.124265
 21
158.650082
 31
0.0
  0
LINE
  5
1122
100
AcDbEntity
  8
MSL2_30_3F-3
100
AcDbLine
 10
204.838689
 20
156.467177
 30
0.0
 11
204.838689
 21
139.888977
 31
0.0
  0
LINE
  5
1123
100
AcDbEntity
  8
MSL2_30_3F-0
100
AcDbLine
 10
204.838689
 20
156.467177
 30
0.0
 11
204.838689
 21
157.117993
 31
0.0
  0
LINE
  5
1124
100
AcDbEntity
  8
MSL2_30_3F-0
100
AcDbLine
 10
205.130133
 20
163.941473
 30
0.0
 11
204.926695
 21
160.587577
 31
0.0
  0
LINE
  5
1125
100
AcDbEntity
  8
MSL2_30_3F-0
100
AcDbLine
 10
309.519531
 20
183.888977
 30
0.0
 11
309.519531
 21
98.888977
 31
0.0
  0
LINE
  5
1126
100
AcDbEntity
  8
MSL2_30_3F-0
100
AcDbLine
 10
325.519531
 20
98.888977
 30
0.0
 11
325.519531
 21
183.888977
 31
0.0
  0
LINE
  5
1127
100
AcDbEntity
  8
MSL2_30_3F-0
100
AcDbLine
 10
346.519531
 20
183.888977
 30
0.0
 11
346.519531
 21
99.888977
 31
0.0
  0
LINE
  5
1128
100
AcDbEntity
  8
MSL2_30_3F-7
100
AcDbLine
 10
306.519531
 20
104.888977
 30
0.0
 11
328.107497
 21
104.888977
 31
0.0
  0
LINE
  5
1129
100
AcDbEntity
  8
MSL2_30_3F-0
100
AcDbLine
 10
309.519531
 20
98.888977
 30
0.0
 11
325.519531
 21
98.888977
 31
0.0
  0
LINE
  5
112A
100
AcDbEntity
  8
MSL2_30_3F-7
100
AcDbLine
 10
320.519531
 20
114.28236
 30
0.0
 11
320.519531
 21
95.888977
 31
0.0
  0
LINE
  5
112B
100
AcDbEntity
  8
MSL2_30_3F-7
100
AcDbLine
 10
320.519531
 20
114.28236
 30
0.0
 11
320.519531
 21
95.888977
 31
0.0
  0
LINE
  5
112C
100
AcDbEntity
  8
MSL2_30_3F-7
100
AcDbLine
 10
314.519531
 20
101.138977
 30
0.0
 11
314.519531
 21
108.638977
 31
0.0
  0
ARC
  5
112D
100
AcDbEntity
  8
MSL2_30_3F-4
100
AcDbCircle
 10
314.519531
 20
104.888977
 30
0.0
 40
2.5
100
AcDbArc
 50
172.405357
 51
104.931417
  0
LINE
  5
112E
100
AcDbEntity
  8
MSL2_30_3F-3
100
AcDbLine
 10
318.452531
 20
98.888977
 30
0.0
 11
318.452531
 21
110.088977
 31
0.0
  0
LINE
  5
112F
100
AcDbEntity
  8
MSL2_30_3F-3
100
AcDbLine
 10
318.452531
 20
98.888977
 30
0.0
 11
318.452531
 21
110.088977
 31
0.0
  0
LINE
  5
1130
100
AcDbEntity
  8
MSL2_30_3F-3
100
AcDbLine
 10
322.586531
 20
98.888977
 30
0.0
 11
322.586531
 21
110.088977
 31
0.0
  0
LINE
  5
1131
100
AcDbEntity
  8
MSL2_30_3F-3
100
AcDbLine
 10
322.586531
 20
98.888977
 30
0.0
 11
322.586531
 21
110.088977
 31
0.0
  0
LINE
  5
1132
100
AcDbEntity
  8
MSL2_30_3F-7
100
AcDbLine
 10
310.769531
 20
104.888977
 30
0.0
 11
318.269531
 21
104.888977
 31
0.0
  0
CIRCLE
  5
1133
100
AcDbEntity
  8
MSL2_30_3F-0
100
AcDbCircle
 10
314.519531
 20
104.888977
 30
0.0
 40
2.067
  0
LINE
  5
1134
100
AcDbEntity
  8
MSL2_30_3F-3
100
AcDbLine
 10
323.019531
 20
106.888977
 30
0.0
 11
318.019531
 21
106.888977
 31
0.0
  0
LINE
  5
1135
100
AcDbEntity
  8
MSL2_30_3F-3
100
AcDbLine
 10
323.019531
 20
106.888977
 30
0.0
 11
318.019531
 21
106.888977
 31
0.0
  0
LINE
  5
1136
100
AcDbEntity
  8
MSL2_30_3F-3
100
AcDbLine
 10
318.019531
 20
98.888977
 30
0.0
 11
318.019531
 21
106.888977
 31
0.0
  0
LINE
  5
1137
100
AcDbEntity
  8
MSL2_30_3F-3
100
AcDbLine
 10
318.019531
 20
98.888977
 30
0.0
 11
318.019531
 21
106.888977
 31
0.0
  0
LINE
  5
1138
100
AcDbEntity
  8
MSL2_30_3F-3
100
AcDbLine
 10
323.019531
 20
98.888977
 30
0.0
 11
323.019531
 21
106.888977
 31
0.0
  0
LINE
  5
1139
100
AcDbEntity
  8
MSL2_30_3F-3
100
AcDbLine
 10
323.019531
 20
98.888977
 30
0.0
 11
323.019531
 21
106.888977
 31
0.0
  0
LINE
  5
113A
100
AcDbEntity
  8
MSL2_30_3F-3
100
AcDbLine
 10
320.519531
 20
111.28236
 30
0.0
 11
322.586531
 21
110.088977
 31
0.0
  0
LINE
  5
113B
100
AcDbEntity
  8
MSL2_30_3F-3
100
AcDbLine
 10
320.519531
 20
111.28236
 30
0.0
 11
322.586531
 21
110.088977
 31
0.0
  0
LINE
  5
113C
100
AcDbEntity
  8
MSL2_30_3F-3
100
AcDbLine
 10
320.519531
 20
111.28236
 30
0.0
 11
318.452531
 21
110.088977
 31
0.0
  0
LINE
  5
113D
100
AcDbEntity
  8
MSL2_30_3F-3
100
AcDbLine
 10
320.519531
 20
111.28236
 30
0.0
 11
318.452531
 21
110.088977
 31
0.0
  0
LINE
  5
113E
100
AcDbEntity
  8
MSL2_30_3F-3
100
AcDbLine
 10
322.586531
 20
110.088977
 30
0.0
 11
318.452531
 21
110.088977
 31
0.0
  0
LINE
  5
113F
100
AcDbEntity
  8
MSL2_30_3F-3
100
AcDbLine
 10
322.586531
 20
110.088977
 30
0.0
 11
318.452531
 21
110.088977
 31
0.0
  0
MTEXT
  5
1140
100
AcDbEntity
  8
MSL2_30_3F-6
100
AcDbMText
 10
347.392499
 20
104.399473
 30
0.0
 40
3.5
 41
21.059228
 71
     1
 72
     1
  1
{MSL2-30-3F}
  0
LINE
  5
1141
100
AcDbEntity
  8
MSL2_30_3F-0
100
AcDbLine
 10
325.519531
 20
113.888977
 30
0.0
 11
346.519531
 21
113.888977
 31
0.0
  0
LINE
  5
1142
100
AcDbEntity
  8
MSL2_30_3F-0
100
AcDbLine
 10
346.519531
 20
110.888977
 30
0.0
 11
332.519531
 21
110.888977
 31
0.0
  0
LINE
  5
1143
100
AcDbEntity
  8
MSL2_30_3F-0
100
AcDbLine
 10
332.519531
 20
110.888977
 30
0.0
 11
331.519531
 21
111.888977
 31
0.0
  0
LINE
  5
1144
100
AcDbEntity
  8
MSL2_30_3F-0
100
AcDbLine
 10
331.519531
 20
111.888977
 30
0.0
 11
331.519531
 21
113.888977
 31
0.0
  0
LINE
  5
1145
100
AcDbEntity
  8
MSL2_30_3F-0
100
AcDbLine
 10
332.519531
 20
113.888977
 30
0.0
 11
332.519531
 21
110.888977
 31
0.0
  0
LINE
  5
1146
100
AcDbEntity
  8
MSL2_30_3F-7
100
AcDbLine
 10
306.519531
 20
134.888977
 30
0.0
 11
328.107497
 21
134.888977
 31
0.0
  0
LINE
  5
1147
100
AcDbEntity
  8
MSL2_30_3F-7
100
AcDbLine
 10
352.083099
 20
119.888977
 30
0.0
 11
306.295031
 21
119.888977
 31
0.0
  0
LINE
  5
1148
100
AcDbEntity
  8
MSL2_30_3F-7
100
AcDbLine
 10
320.421485
 20
149.888977
 30
0.0
 11
350.190582
 21
149.888977
 31
0.0
  0
LINE
  5
1149
100
AcDbEntity
  8
MSL2_30_3F-7
100
AcDbLine
 10
352.083099
 20
169.888977
 30
0.0
 11
306.295031
 21
169.888977
 31
0.0
  0
LINE
  5
114A
100
AcDbEntity
  8
MSL2_30_3F-0
100
AcDbLine
 10
325.519531
 20
183.888977
 30
0.0
 11
309.519531
 21
183.888977
 31
0.0
  0
LINE
  5
114B
100
AcDbEntity
  8
MSL2_30_3F-0
100
AcDbLine
 10
309.519531
 20
154.788977
 30
0.0
 11
325.519531
 21
154.788977
 31
0.0
  0
LINE
  5
114C
100
AcDbEntity
  8
MSL2_30_3F-7
100
AcDbLine
 10
314.519531
 20
131.138977
 30
0.0
 11
314.519531
 21
138.638977
 31
0.0
  0
LINE
  5
114D
100
AcDbEntity
  8
MSL2_30_3F-7
100
AcDbLine
 10
310.769531
 20
134.888977
 30
0.0
 11
318.269531
 21
134.888977
 31
0.0
  0
ARC
  5
114E
100
AcDbEntity
  8
MSL2_30_3F-4
100
AcDbCircle
 10
314.519531
 20
134.888977
 30
0.0
 40
2.5
100
AcDbArc
 50
172.405357
 51
104.931417
  0
CIRCLE
  5
114F
100
AcDbEntity
  8
MSL2_30_3F-0
100
AcDbCircle
 10
314.519531
 20
134.888977
 30
0.0
 40
2.067
  0
ELLIPSE
  5
1150
100
AcDbEntity
  8
MSL2_30_3F-0
100
AcDbEllipse
 10
375.019531
 20
160.341064
 30
0.0
 11
5.5
 21
0.0
 31
0.0
210
0.0
220
0.0
230
1.0
 40
0.642788
 41
3.141592653589793
 42
6.283185307179745
  0
ARC
  5
1151
100
AcDbEntity
  8
MSL2_30_3F-0
100
AcDbCircle
 10
346.628211
 20
157.250192
 30
0.0
 40
3.108681
100
AcDbArc
 50
127.878144
 51
232.121856
  0
ARC
  5
1152
100
AcDbEntity
  8
MSL2_30_3F-0
100
AcDbCircle
 10
346.628211
 20
157.250192
 30
0.0
 40
3.108681
100
AcDbArc
 50
127.878144
 51
232.121856
  0
LINE
  5
1153
100
AcDbEntity
  8
MSL2_30_3F-7
100
AcDbLine
 10
375.019531
 20
166.046072
 30
0.0
 11
375.019531
 21
152.467993
 31
0.0
1001
GENIUS_GENODEF_13
1002
{
1000
HIER
1070
     0
1002
}
1002
{
1000
MANEDIT
1070
     0
1002
}
1002
{
1000
NOSEL
1070
     0
1002
}
1002
{
1000
BEHIND
1070
     0
1002
}
1002
{
1000
REACTOR
1002
}
1001
GENIUS_GENOBJ-N-CEN_13
1002
{
1000
OWNER
1000
GEN
1002
}
  0
LINE
  5
1154
100
AcDbEntity
  8
MSL2_30_3F-0
100
AcDbLine
 10
347.019531
 20
184.888977
 30
0.0
 11
347.019531
 21
139.888977
 31
0.0
  0
LINE
  5
1155
100
AcDbEntity
  8
MSL2_30_3F-4
100
AcDbLine
 10
372.759504
 20
157.117993
 30
0.0
 11
347.019531
 21
157.117993
 31
0.0
  0
LINE
  5
1156
100
AcDbEntity
  8
MSL2_30_3F-0
100
AcDbLine
 10
347.019531
 20
139.888977
 30
0.0
 11
370.019531
 21
139.888977
 31
0.0
  0
LINE
  5
1157
100
AcDbEntity
  8
MSL2_30_3F-4
100
AcDbLine
 10
347.019531
 20
141.888977
 30
0.0
 11
370.019531
 21
141.888977
 31
0.0
  0
LINE
  5
1158
100
AcDbEntity
  8
MSL2_30_3F-0
100
AcDbLine
 10
346.519531
 20
125.888977
 30
0.0
 11
325.519531
 21
125.888977
 31
0.0
  0
LINE
  5
1159
100
AcDbEntity
  8
MSL2_30_3F-0
100
AcDbLine
 10
332.519531
 20
128.888977
 30
0.0
 11
346.519531
 21
128.888977
 31
0.0
  0
LINE
  5
115A
100
AcDbEntity
  8
MSL2_30_3F-0
100
AcDbLine
 10
332.519531
 20
128.888977
 30
0.0
 11
332.519531
 21
125.888977
 31
0.0
  0
LINE
  5
115B
100
AcDbEntity
  8
MSL2_30_3F-0
100
AcDbLine
 10
331.519531
 20
125.888977
 30
0.0
 11
331.519531
 21
127.888977
 31
0.0
  0
LINE
  5
115C
100
AcDbEntity
  8
MSL2_30_3F-0
100
AcDbLine
 10
331.519531
 20
127.888977
 30
0.0
 11
332.519531
 21
128.888977
 31
0.0
  0
LINE
  5
115D
100
AcDbEntity
  8
MSL2_30_3F-0
100
AcDbLine
 10
339.569531
 20
145.888977
 30
0.0
 11
329.519531
 21
145.888977
 31
0.0
  0
LINE
  5
115E
100
AcDbEntity
  8
MSL2_30_3F-0
100
AcDbLine
 10
329.519531
 20
153.888977
 30
0.0
 11
339.569531
 21
153.888977
 31
0.0
  0
ARC
  5
115F
100
AcDbEntity
  8
MSL2_30_3F-0
100
AcDbCircle
 10
333.229253
 20
149.888977
 30
0.0
 40
7.709722
100
AcDbArc
 50
150.872218
 51
209.127782
  0
ARC
  5
1160
100
AcDbEntity
  8
MSL2_30_3F-0
100
AcDbCircle
 10
321.809808
 20
149.888977
 30
0.0
 40
7.709722
100
AcDbArc
 50
330.872216
 51
29.127784
  0
LINE
  5
1161
100
AcDbEntity
  8
MSL2_30_3F-0
100
AcDbLine
 10
325.519531
 20
144.259811
 30
0.0
 11
325.519531
 21
155.518142
 31
0.0
  0
LINE
  5
1162
100
AcDbEntity
  8
MSL2_30_3F-0
100
AcDbLine
 10
329.519531
 20
144.259811
 30
0.0
 11
329.519531
 21
155.518142
 31
0.0
  0
LINE
  5
1163
100
AcDbEntity
  8
MSL2_30_3F-0
100
AcDbLine
 10
326.494531
 20
146.1362
 30
0.0
 11
328.544531
 21
146.1362
 31
0.0
  0
LINE
  5
1164
100
AcDbEntity
  8
MSL2_30_3F-0
100
AcDbLine
 10
326.494531
 20
142.383423
 30
0.0
 11
328.544531
 21
142.383423
 31
0.0
  0
ARC
  5
1165
100
AcDbEntity
  8
MSL2_30_3F-0
100
AcDbCircle
 10
327.812586
 20
144.259811
 30
0.0
 40
2.293056
100
AcDbArc
 50
125.085848
 51
234.914152
  0
ARC
  5
1166
100
AcDbEntity
  8
MSL2_30_3F-0
100
AcDbCircle
 10
327.226475
 20
144.259811
 30
0.0
 40
2.293056
100
AcDbArc
 50
305.085847
 51
54.914153
  0
LINE
  5
1167
100
AcDbEntity
  8
MSL2_30_3F-0
100
AcDbLine
 10
326.494531
 20
157.39453
 30
0.0
 11
328.544531
 21
157.39453
 31
0.0
  0
LINE
  5
1168
100
AcDbEntity
  8
MSL2_30_3F-0
100
AcDbLine
 10
326.494531
 20
153.641753
 30
0.0
 11
328.544531
 21
153.641753
 31
0.0
  0
ARC
  5
1169
100
AcDbEntity
  8
MSL2_30_3F-0
100
AcDbCircle
 10
327.812586
 20
155.518142
 30
0.0
 40
2.293056
100
AcDbArc
 50
125.085848
 51
234.914152
  0
ARC
  5
116A
100
AcDbEntity
  8
MSL2_30_3F-0
100
AcDbCircle
 10
327.226475
 20
155.518142
 30
0.0
 40
2.293056
100
AcDbArc
 50
305.085847
 51
54.914153
  0
ARC
  5
116B
100
AcDbEntity
  8
MSL2_30_3F-0
100
AcDbCircle
 10
334.497121
 20
149.888977
 30
0.0
 40
9.02241
100
AcDbArc
 50
335.421502
 51
24.578498
  0
LINE
  5
116C
100
AcDbEntity
  8
MSL2_30_3F-0
100
AcDbLine
 10
339.569531
 20
145.888977
 30
0.0
 11
339.569531
 21
153.888977
 31
0.0
  0
ARC
  5
116D
100
AcDbEntity
  8
MSL2_30_3F-0
100
AcDbCircle
 10
354.154253
 20
149.888977
 30
0.0
 40
10.634722
100
AcDbArc
 50
152.518773
 51
207.481227
  0
ARC
  5
116E
100
AcDbEntity
  8
MSL2_30_3F-0
100
AcDbCircle
 10
354.154253
 20
149.888977
 30
0.0
 40
10.634722
100
AcDbArc
 50
152.518773
 51
207.481227
  0
LINE
  5
116F
100
AcDbEntity
  8
MSL2_30_3F-0
100
AcDbLine
 10
339.569531
 20
142.383423
 30
0.0
 11
339.569531
 21
157.39453
 31
0.0
  0
LINE
  5
1170
100
AcDbEntity
  8
MSL2_30_3F-0
100
AcDbLine
 10
343.519531
 20
157.250192
 30
0.0
 11
343.519531
 21
142.527761
 31
0.0
  0
LINE
  5
1171
100
AcDbEntity
  8
MSL2_30_3F-0
100
AcDbLine
 10
343.519531
 20
157.250192
 30
0.0
 11
343.519531
 21
142.527761
 31
0.0
  0
LINE
  5
1172
100
AcDbEntity
  8
MSL2_30_3F-0
100
AcDbLine
 10
343.519531
 20
144.259811
 30
0.0
 11
343.519531
 21
155.518142
 31
0.0
  0
LINE
  5
1173
100
AcDbEntity
  8
MSL2_30_3F-0
100
AcDbLine
 10
342.702031
 20
146.1362
 30
0.0
 11
339.569531
 21
146.1362
 31
0.0
  0
LINE
  5
1174
100
AcDbEntity
  8
MSL2_30_3F-0
100
AcDbLine
 10
344.719531
 20
144.981499
 30
0.0
 11
346.519531
 21
144.981499
 31
0.0
  0
LINE
  5
1175
100
AcDbEntity
  8
MSL2_30_3F-0
100
AcDbLine
 10
344.719531
 20
144.981499
 30
0.0
 11
346.519531
 21
144.981499
 31
0.0
  0
LINE
  5
1176
100
AcDbEntity
  8
MSL2_30_3F-0
100
AcDbLine
 10
342.702031
 20
142.383423
 30
0.0
 11
339.569531
 21
142.383423
 31
0.0
  0
LINE
  5
1177
100
AcDbEntity
  8
MSL2_30_3F-0
100
AcDbLine
 10
344.719531
 20
140.074022
 30
0.0
 11
346.519531
 21
140.074022
 31
0.0
  0
ARC
  5
1178
100
AcDbEntity
  8
MSL2_30_3F-0
100
AcDbCircle
 10
346.628211
 20
142.527761
 30
0.0
 40
3.108681
100
AcDbArc
 50
127.878144
 51
232.121856
  0
ARC
  5
1179
100
AcDbEntity
  8
MSL2_30_3F-0
100
AcDbCircle
 10
346.628211
 20
142.527761
 30
0.0
 40
3.108681
100
AcDbArc
 50
127.878144
 51
232.121856
  0
ARC
  5
117A
100
AcDbEntity
  8
MSL2_30_3F-0
100
AcDbCircle
 10
340.957366
 20
144.259811
 30
0.0
 40
2.562165
100
AcDbArc
 50
312.916662
 51
47.083338
  0
LINE
  5
117B
100
AcDbEntity
  8
MSL2_30_3F-0
100
AcDbLine
 10
339.569531
 20
157.39453
 30
0.0
 11
342.702031
 21
157.39453
 31
0.0
  0
LINE
  5
117C
100
AcDbEntity
  8
MSL2_30_3F-0
100
AcDbLine
 10
344.719531
 20
154.796454
 30
0.0
 11
346.519531
 21
154.796454
 31
0.0
  0
LINE
  5
117D
100
AcDbEntity
  8
MSL2_30_3F-0
100
AcDbLine
 10
344.719531
 20
154.796454
 30
0.0
 11
346.519531
 21
154.796454
 31
0.0
  0
LINE
  5
117E
100
AcDbEntity
  8
MSL2_30_3F-0
100
AcDbLine
 10
342.702031
 20
153.641753
 30
0.0
 11
339.569531
 21
153.641753
 31
0.0
  0
ARC
  5
117F
100
AcDbEntity
  8
MSL2_30_3F-0
100
AcDbCircle
 10
340.957366
 20
155.518142
 30
0.0
 40
2.562165
100
AcDbArc
 50
312.916662
 51
47.083338
  0
LINE
  5
1180
100
AcDbEntity
  8
MSL2_30_3F-0
100
AcDbLine
 10
370.019531
 20
141.888977
 30
0.0
 11
375.019531
 21
141.888977
 31
0.0
  0
LINE
  5
1181
100
AcDbEntity
  8
MSL2_30_3F-0
100
AcDbLine
 10
370.019531
 20
139.888977
 30
0.0
 11
370.019531
 21
141.888977
 31
0.0
  0
LINE
  5
1182
100
AcDbEntity
  8
MSL2_30_3F-0
100
AcDbLine
 10
375.019531
 20
141.888977
 30
0.0
 11
375.019531
 21
139.888977
 31
0.0
  0
LINE
  5
1183
100
AcDbEntity
  8
MSL2_30_3F-7
100
AcDbLine
 10
348.555531
 20
171.218299
 30
0.0
 11
364.283531
 21
171.218299
 31
0.0
1001
GENIUS_GENODEF_13
1002
{
1000
HIER
1070
     0
1002
}
1002
{
1000
MANEDIT
1070
     0
1002
}
1002
{
1000
NOSEL
1070
     0
1002
}
1002
{
1000
BEHIND
1070
     0
1002
}
1002
{
1000
REACTOR
1002
}
1001
GENIUS_GENOBJ-N-CEN_13
1002
{
1000
OWNER
1000
GEN
1002
}
  0
ELLIPSE
  5
1184
100
AcDbEntity
  8
MSL2_30_3F-3
100
AcDbEllipse
 10
356.419531
 20
171.218299
 30
0.0
 11
4.863999999999919
 21
0.0
 31
0.0
210
0.0
220
0.0
230
1.0
 40
0.642788
 41
-1.626973784062188
 42
3.27686958423578
  0
ELLIPSE
  5
1185
100
AcDbEntity
  8
MSL2_30_3F-3
100
AcDbEllipse
 10
356.419531
 20
171.218299
 30
0.0
 11
4.283225000000015
 21
0.0
 31
0.0
210
0.0
220
0.0
230
1.0
 40
0.642788
 41
0.0
 42
6.2831853071796
  0
LINE
  5
1186
100
AcDbEntity
  8
MSL2_30_3F-3
100
AcDbLine
 10
347.019531
 20
178.224684
 30
0.0
 11
366.719531
 21
178.224684
 31
0.0
  0
LINE
  5
1187
100
AcDbEntity
  8
MSL2_30_3F-3
100
AcDbLine
 10
366.719531
 20
164.083357
 30
0.0
 11
347.019531
 21
164.083357
 31
0.0
  0
LINE
  5
1188
100
AcDbEntity
  8
MSL2_30_3F-0
100
AcDbLine
 10
346.519531
 20
175.888977
 30
0.0
 11
325.519531
 21
175.888977
 31
0.0
  0
LINE
  5
1189
100
AcDbEntity
  8
MSL2_30_3F-0
100
AcDbLine
 10
325.519531
 20
163.888977
 30
0.0
 11
346.519531
 21
163.888977
 31
0.0
  0
LINE
  5
118A
100
AcDbEntity
  8
MSL2_30_3F-0
100
AcDbLine
 10
344.719531
 20
159.703931
 30
0.0
 11
346.519531
 21
159.703931
 31
0.0
  0
LINE
  5
118B
100
AcDbEntity
  8
MSL2_30_3F-0
100
AcDbLine
 10
344.719531
 20
159.703931
 30
0.0
 11
346.519531
 21
159.703931
 31
0.0
  0
LINE
  5
118C
100
AcDbEntity
  8
MSL2_30_3F-0
100
AcDbLine
 10
346.519531
 20
183.888977
 30
0.0
 11
347.019531
 21
183.888977
 31
0.0
  0
LINE
  5
118D
100
AcDbEntity
  8
MSL2_30_3F-3
100
AcDbLine
 10
366.719531
 20
178.224684
 30
0.0
 11
366.719531
 21
164.083357
 31
0.0
  0
LINE
  5
118E
100
AcDbEntity
  8
MSL2_30_3F-7
100
AcDbLine
 10
383.419531
 20
159.575019
 30
0.0
 11
366.619531
 21
159.575019
 31
0.0
1001
GENIUS_GENODEF_13
1002
{
1000
HIER
1070
     0
1002
}
1002
{
1000
MANEDIT
1070
     0
1002
}
1002
{
1000
NOSEL
1070
     0
1002
}
1002
{
1000
BEHIND
1070
     0
1002
}
1002
{
1000
REACTOR
1002
}
1001
GENIUS_GENOBJ-N-CEN_13
1002
{
1000
OWNER
1000
GEN
1002
}
  0
LINE
  5
118F
100
AcDbEntity
  8
MSL2_30_3F-7
100
AcDbLine
 10
356.419531
 20
165.09178
 30
0.0
 11
356.419531
 21
177.344818
 31
0.0
1001
GENIUS_GENODEF_13
1002
{
1000
HIER
1070
     0
1002
}
1002
{
1000
MANEDIT
1070
     0
1002
}
1002
{
1000
NOSEL
1070
     0
1002
}
1002
{
1000
BEHIND
1070
     0
1002
}
1002
{
1000
REACTOR
1002
}
1001
GENIUS_GENOBJ-N-CEN_13
1002
{
1000
OWNER
1000
GEN
1002
}
  0
ELLIPSE
  5
1190
100
AcDbEntity
  8
MSL2_30_3F-0
100
AcDbEllipse
 10
375.019531
 20
161.873153
 30
0.0
 11
-2.0
 21
0.0
 31
0.0
210
0.0
220
0.0
230
1.0
 40
0.642788
 41
-1.112236758281639
 42
4.253829411871508
  0
LINE
  5
1191
100
AcDbEntity
  8
MSL2_30_3F-0
100
AcDbLine
 10
375.019531
 20
163.941473
 30
0.0
 11
377.019531
 21
161.873153
 31
0.0
  0
ELLIPSE
  5
1192
100
AcDbEntity
  8
MSL2_30_3F-0
100
AcDbEllipse
 10
375.019531
 20
161.873153
 30
0.0
 11
5.5
 21
0.0
 31
0.0
210
0.0
220
0.0
230
1.0
 40
0.642788
 41
0.0
 42
6.2831853071796
  0
LINE
  5
1193
100
AcDbEntity
  8
MSL2_30_3F-0
100
AcDbLine
 10
369.519531
 20
160.341064
 30
0.0
 11
369.519531
 21
161.873153
 31
0.0
  0
LINE
  5
1194
100
AcDbEntity
  8
MSL2_30_3F-0
100
AcDbLine
 10
373.019531
 20
161.873153
 30
0.0
 11
375.019531
 21
163.941473
 31
0.0
  0
LINE
  5
1195
100
AcDbEntity
  8
MSL2_30_3F-0
100
AcDbLine
 10
380.519531
 20
160.341064
 30
0.0
 11
380.519531
 21
161.873153
 31
0.0
  0
LINE
  5
1196
100
AcDbEntity
  8
MSL2_30_3F-0
100
AcDbLine
 10
309.519531
 20
310.888977
 30
0.0
 11
309.519531
 21
228.888977
 31
0.0
  0
LINE
  5
1197
100
AcDbEntity
  8
MSL2_30_3F-0
100
AcDbLine
 10
325.519531
 20
228.888977
 30
0.0
 11
325.519531
 21
310.888977
 31
0.0
  0
LINE
  5
1198
100
AcDbEntity
  8
MSL2_30_3F-7
100
AcDbLine
 10
306.170646
 20
254.888977
 30
0.0
 11
329.289864
 21
254.888977
 31
0.0
  0
LINE
  5
1199
100
AcDbEntity
  8
MSL2_30_3F-7
100
AcDbLine
 10
352.083099
 20
269.888977
 30
0.0
 11
306.170646
 21
269.888977
 31
0.0
  0
LINE
  5
119A
100
AcDbEntity
  8
MSL2_30_3F-7
100
AcDbLine
 10
352.083099
 20
242.388977
 30
0.0
 11
306.295031
 21
242.388977
 31
0.0
  0
LINE
  5
119B
100
AcDbEntity
  8
MSL2_30_3F-7
100
AcDbLine
 10
316.769531
 20
244.888977
 30
0.0
 11
324.269531
 21
244.888977
 31
0.0
  0
LINE
  5
119C
100
AcDbEntity
  8
MSL2_30_3F-0
100
AcDbLine
 10
309.519531
 20
228.888977
 30
0.0
 11
325.519531
 21
228.888977
 31
0.0
  0
LINE
  5
119D
100
AcDbEntity
  8
MSL2_30_3F-3
100
AcDbLine
 10
312.452531
 20
228.888977
 30
0.0
 11
312.452531
 21
240.088977
 31
0.0
  0
LINE
  5
119E
100
AcDbEntity
  8
MSL2_30_3F-3
100
AcDbLine
 10
312.452531
 20
228.888977
 30
0.0
 11
312.452531
 21
240.088977
 31
0.0
  0
LINE
  5
119F
100
AcDbEntity
  8
MSL2_30_3F-3
100
AcDbLine
 10
316.586531
 20
228.888977
 30
0.0
 11
316.586531
 21
240.088977
 31
0.0
  0
LINE
  5
11A0
100
AcDbEntity
  8
MSL2_30_3F-3
100
AcDbLine
 10
316.586531
 20
228.888977
 30
0.0
 11
316.586531
 21
240.088977
 31
0.0
  0
LINE
  5
11A1
100
AcDbEntity
  8
MSL2_30_3F-7
100
AcDbLine
 10
314.519531
 20
244.28236
 30
0.0
 11
314.519531
 21
225.888977
 31
0.0
  0
LINE
  5
11A2
100
AcDbEntity
  8
MSL2_30_3F-7
100
AcDbLine
 10
314.519531
 20
244.28236
 30
0.0
 11
314.519531
 21
225.888977
 31
0.0
  0
LINE
  5
11A3
100
AcDbEntity
  8
MSL2_30_3F-3
100
AcDbLine
 10
317.019531
 20
236.888977
 30
0.0
 11
312.019531
 21
236.888977
 31
0.0
  0
LINE
  5
11A4
100
AcDbEntity
  8
MSL2_30_3F-3
100
AcDbLine
 10
317.019531
 20
236.888977
 30
0.0
 11
312.019531
 21
236.888977
 31
0.0
  0
LINE
  5
11A5
100
AcDbEntity
  8
MSL2_30_3F-3
100
AcDbLine
 10
312.019531
 20
228.888977
 30
0.0
 11
312.019531
 21
236.888977
 31
0.0
  0
LINE
  5
11A6
100
AcDbEntity
  8
MSL2_30_3F-3
100
AcDbLine
 10
312.019531
 20
228.888977
 30
0.0
 11
312.019531
 21
236.888977
 31
0.0
  0
LINE
  5
11A7
100
AcDbEntity
  8
MSL2_30_3F-3
100
AcDbLine
 10
317.019531
 20
228.888977
 30
0.0
 11
317.019531
 21
236.888977
 31
0.0
  0
LINE
  5
11A8
100
AcDbEntity
  8
MSL2_30_3F-3
100
AcDbLine
 10
317.019531
 20
228.888977
 30
0.0
 11
317.019531
 21
236.888977
 31
0.0
  0
LINE
  5
11A9
100
AcDbEntity
  8
MSL2_30_3F-3
100
AcDbLine
 10
314.519531
 20
241.28236
 30
0.0
 11
316.586531
 21
240.088977
 31
0.0
  0
LINE
  5
11AA
100
AcDbEntity
  8
MSL2_30_3F-3
100
AcDbLine
 10
314.519531
 20
241.28236
 30
0.0
 11
316.586531
 21
240.088977
 31
0.0
  0
LINE
  5
11AB
100
AcDbEntity
  8
MSL2_30_3F-3
100
AcDbLine
 10
316.586531
 20
240.088977
 30
0.0
 11
312.452531
 21
240.088977
 31
0.0
  0
LINE
  5
11AC
100
AcDbEntity
  8
MSL2_30_3F-3
100
AcDbLine
 10
316.586531
 20
240.088977
 30
0.0
 11
312.452531
 21
240.088977
 31
0.0
  0
LINE
  5
11AD
100
AcDbEntity
  8
MSL2_30_3F-3
100
AcDbLine
 10
314.519531
 20
241.28236
 30
0.0
 11
312.452531
 21
240.088977
 31
0.0
  0
LINE
  5
11AE
100
AcDbEntity
  8
MSL2_30_3F-3
100
AcDbLine
 10
314.519531
 20
241.28236
 30
0.0
 11
312.452531
 21
240.088977
 31
0.0
  0
ARC
  5
11AF
100
AcDbEntity
  8
MSL2_30_3F-4
100
AcDbCircle
 10
320.519531
 20
244.888977
 30
0.0
 40
2.5
100
AcDbArc
 50
172.405357
 51
104.931417
  0
CIRCLE
  5
11B0
100
AcDbEntity
  8
MSL2_30_3F-0
100
AcDbCircle
 10
320.519531
 20
244.888977
 30
0.0
 40
2.067
  0
LINE
  5
11B1
100
AcDbEntity
  8
MSL2_30_3F-7
100
AcDbLine
 10
320.519531
 20
241.138977
 30
0.0
 11
320.519531
 21
248.638977
 31
0.0
  0
MTEXT
  5
11B2
100
AcDbEntity
  8
MSL2_30_3F-6
100
AcDbMText
 10
347.65249
 20
234.838935
 30
0.0
 40
3.5
 41
21.059228
 71
     1
 72
     1
  1
{MSL2-30-3F}
  0
LINE
  5
11B3
100
AcDbEntity
  8
MSL2_30_3F-0
100
AcDbLine
 10
325.519531
 20
236.388977
 30
0.0
 11
346.519531
 21
236.388977
 31
0.0
  0
LINE
  5
11B4
100
AcDbEntity
  8
MSL2_30_3F-0
100
AcDbLine
 10
346.519531
 20
248.388977
 30
0.0
 11
325.519531
 21
248.388977
 31
0.0
  0
LINE
  5
11B5
100
AcDbEntity
  8
MSL2_30_3F-0
100
AcDbLine
 10
332.519531
 20
278.888977
 30
0.0
 11
346.519531
 21
278.888977
 31
0.0
  0
LINE
  5
11B6
100
AcDbEntity
  8
MSL2_30_3F-0
100
AcDbLine
 10
346.519531
 20
260.888977
 30
0.0
 11
332.519531
 21
260.888977
 31
0.0
  0
LINE
  5
11B7
100
AcDbEntity
  8
MSL2_30_3F-0
100
AcDbLine
 10
331.519531
 20
261.888977
 30
0.0
 11
331.519531
 21
277.888977
 31
0.0
  0
LINE
  5
11B8
100
AcDbEntity
  8
MSL2_30_3F-0
100
AcDbLine
 10
332.519531
 20
260.888977
 30
0.0
 11
332.519531
 21
278.888977
 31
0.0
  0
LINE
  5
11B9
100
AcDbEntity
  8
MSL2_30_3F-0
100
AcDbLine
 10
332.519531
 20
260.888977
 30
0.0
 11
331.519531
 21
261.888977
 31
0.0
  0
LINE
  5
11BA
100
AcDbEntity
  8
MSL2_30_3F-0
100
AcDbLine
 10
325.519531
 20
266.888977
 30
0.0
 11
331.519531
 21
266.888977
 31
0.0
  0
LINE
  5
11BB
100
AcDbEntity
  8
MSL2_30_3F-0
100
AcDbLine
 10
325.519531
 20
263.888977
 30
0.0
 11
331.519531
 21
263.888977
 31
0.0
  0
LINE
  5
11BC
100
AcDbEntity
  8
MSL2_30_3F-0
100
AcDbLine
 10
331.519531
 20
277.888977
 30
0.0
 11
332.519531
 21
278.888977
 31
0.0
  0
LINE
  5
11BD
100
AcDbEntity
  8
MSL2_30_3F-0
100
AcDbLine
 10
331.519531
 20
272.888977
 30
0.0
 11
325.519531
 21
272.888977
 31
0.0
  0
LINE
  5
11BE
100
AcDbEntity
  8
MSL2_30_3F-0
100
AcDbLine
 10
331.519531
 20
275.888977
 30
0.0
 11
325.519531
 21
275.888977
 31
0.0
  0
INSERT
  5
11BF
100
AcDbEntity
  8
MSL2_30_3F-0
100
AcDbBlockReference
 66
     1
  2
GENINF13
 10
365.950442
 20
259.314263
 30
0.0
1001
GENIUS_GENSCSYM_13
1002
{
1000
INSPT
1011
365.950442
1021
259.314263
1031
0.0
1002
}
1002
{
1000
SCALE
1042
1.0
1002
}
1002
{
1000
USEOLDBPT
1070
     0
1002
}
1001
GENIUS_GENOBJ-N-INFOPT_13
1002
{
1000
OWNER
1000
GEN
1002
}
1001
GENIUS_GENSYMENT_13
1002
{
1000
ENT
1005
11BF
1002
}
1001
GENIUS_GENODEF_13
1002
{
1000
HIER
1070
     0
1002
}
1002
{
1000
MANEDIT
1070
     0
1002
}
1002
{
1000
NOSEL
1070
     0
1002
}
1002
{
1000
BEHIND
1070
     0
1002
}
1002
{
1000
REACTOR
1002
}
1001
GENIUS_GENOBJ-N-RSSYM_13
1002
{
1000
OWNER
1000
GEN
1002
}
1001
GENIUS_GENINF13_13
1070
     1
  0
ATTRIB
  5
11C0
100
AcDbEntity
  8
INFO
100
AcDbText
 10
365.950442
 20
259.314263
 30
0.0
 40
1.0
  1
1
100
AcDbAttribute
  2
2GENINF
 70
     1
  0
ATTRIB
  5
11C1
100
AcDbEntity
  8
INFO
100
AcDbText
 10
365.950442
 20
257.814263
 30
0.0
 40
1.0
  1
<***aktuell***>
100
AcDbAttribute
  2
3GENINF
 70
     1
  0
ATTRIB
  5
11C2
100
AcDbEntity
  8
INFO
100
AcDbText
 10
365.950442
 20
256.314263
 30
0.0
 40
1.0
  1

100
AcDbAttribute
  2
4GENINF
 70
     1
  0
ATTRIB
  5
11C3
100
AcDbEntity
  8
INFO
100
AcDbText
 10
365.950442
 20
254.814263
 30
0.0
 40
1.0
  1
MSL2-30-3F
100
AcDbAttribute
  2
5GENINF
 70
     1
  0
ATTRIB
  5
11C4
100
AcDbEntity
  8
INFO
100
AcDbText
 10
365.950442
 20
253.314263
 30
0.0
 40
1.0
  1

100
AcDbAttribute
  2
6GENINF
 70
     1
  0
ATTRIB
  5
11C5
100
AcDbEntity
  8
INFO
100
AcDbText
 10
365.950442
 20
251.814263
 30
0.0
 40
1.0
  1
Fa. Mayer
100
AcDbAttribute
  2
7GENINF
 70
     1
  0
ATTRIB
  5
11C6
100
AcDbEntity
  8
INFO
100
AcDbText
 10
365.950442
 20
250.314263
 30
0.0
 40
1.0
  1

100
AcDbAttribute
  2
8GENINF
 70
     1
  0
ATTRIB
  5
11C7
100
AcDbEntity
  8
INFO
100
AcDbText
 10
365.950442
 20
248.814263
 30
0.0
 40
1.0
  1

100
AcDbAttribute
  2
9GENINF
 70
     1
  0
ATTRIB
  5
11C8
100
AcDbEntity
  8
INFO
100
AcDbText
 10
365.950442
 20
247.314263
 30
0.0
 40
1.0
  1

100
AcDbAttribute
  2
10GENINF
 70
     1
  0
ATTRIB
  5
11C9
100
AcDbEntity
  8
INFO
100
AcDbText
 10
365.950442
 20
245.814263
 30
0.0
 40
1.0
  1

100
AcDbAttribute
  2
11GENINF
 70
     1
  0
ATTRIB
  5
11CA
100
AcDbEntity
  8
INFO
100
AcDbText
 10
365.950442
 20
244.314263
 30
0.0
 40
1.0
  1

100
AcDbAttribute
  2
12GENINF
 70
     1
  0
ATTRIB
  5
11CB
100
AcDbEntity
  8
INFO
100
AcDbText
 10
365.950442
 20
242.814263
 30
0.0
 40
1.0
  1

100
AcDbAttribute
  2
13GENINF
 70
     1
  0
ATTRIB
  5
11CC
100
AcDbEntity
  8
INFO
100
AcDbText
 10
365.950442
 20
241.314263
 30
0.0
 40
1.0
  1

100
AcDbAttribute
  2
14GENINF
 70
     1
  0
ATTRIB
  5
11CD
100
AcDbEntity
  8
INFO
100
AcDbText
 10
365.950442
 20
239.814263
 30
0.0
 40
1.0
  1

100
AcDbAttribute
  2
15GENINF
 70
     1
  0
ATTRIB
  5
11CE
100
AcDbEntity
  8
INFO
100
AcDbText
 10
365.950442
 20
238.314263
 30
0.0
 40
1.0
  1

100
AcDbAttribute
  2
16GENINF
 70
     1
  0
ATTRIB
  5
11CF
100
AcDbEntity
  8
INFO
100
AcDbText
 10
365.950442
 20
236.814263
 30
0.0
 40
1.0
  1

100
AcDbAttribute
  2
17GENINF
 70
     1
  0
ATTRIB
  5
11D0
100
AcDbEntity
  8
INFO
100
AcDbText
 10
365.950442
 20
235.314263
 30
0.0
 40
1.0
  1

100
AcDbAttribute
  2
18GENINF
 70
     1
  0
ATTRIB
  5
11D1
100
AcDbEntity
  8
INFO
100
AcDbText
 10
365.950442
 20
233.814263
 30
0.0
 40
1.0
  1

100
AcDbAttribute
  2
19GENINF
 70
     1
  0
ATTRIB
  5
11D2
100
AcDbEntity
  8
INFO
100
AcDbText
 10
365.950442
 20
232.314263
 30
0.0
 40
1.0
  1

100
AcDbAttribute
  2
20GENINF
 70
     1
  0
ATTRIB
  5
11D3
100
AcDbEntity
  8
INFO
100
AcDbText
 10
365.950442
 20
230.814263
 30
0.0
 40
1.0
  1

100
AcDbAttribute
  2
21GENINF
 70
     1
  0
ATTRIB
  5
11D4
100
AcDbEntity
  8
INFO
100
AcDbText
 10
365.950442
 20
229.314263
 30
0.0
 40
1.0
  1

100
AcDbAttribute
  2
22GENINF
 70
     1
  0
ATTRIB
  5
11D5
100
AcDbEntity
  8
INFO
100
AcDbText
 10
365.950442
 20
227.814263
 30
0.0
 40
1.0
  1

100
AcDbAttribute
  2
23GENINF
 70
     1
  0
ATTRIB
  5
11D6
100
AcDbEntity
  8
INFO
100
AcDbText
 10
365.950442
 20
226.314263
 30
0.0
 40
1.0
  1

100
AcDbAttribute
  2
24GENINF
 70
     1
  0
ATTRIB
  5
11D7
100
AcDbEntity
  8
INFO
100
AcDbText
 10
365.950442
 20
224.814263
 30
0.0
 40
1.0
  1

100
AcDbAttribute
  2
0GENINF
 70
     1
  0
SEQEND
  5
11D8
100
AcDbEntity
  8
MSL2_30_3F-0
  0
LINE
  5
11D9
100
AcDbEntity
  8
MSL2_30_3F-7
100
AcDbLine
 10
306.170646
 20
284.888977
 30
0.0
 11
329.289864
 21
284.888977
 31
0.0
  0
LINE
  5
11DA
100
AcDbEntity
  8
MSL2_30_3F-7
100
AcDbLine
 10
352.083099
 20
297.388977
 30
0.0
 11
306.295031
 21
297.388977
 31
0.0
  0
LINE
  5
11DB
100
AcDbEntity
  8
MSL2_30_3F-7
100
AcDbLine
 10
316.769531
 20
294.888977
 30
0.0
 11
324.269531
 21
294.888977
 31
0.0
  0
LINE
  5
11DC
100
AcDbEntity
  8
MSL2_30_3F-0
100
AcDbLine
 10
325.519531
 20
310.888977
 30
0.0
 11
309.519531
 21
310.888977
 31
0.0
  0
LINE
  5
11DD
100
AcDbEntity
  8
MSL2_30_3F-3
100
AcDbLine
 10
314.519531
 20
298.495594
 30
0.0
 11
316.586531
 21
299.688977
 31
0.0
  0
LINE
  5
11DE
100
AcDbEntity
  8
MSL2_30_3F-3
100
AcDbLine
 10
314.519531
 20
298.495594
 30
0.0
 11
316.586531
 21
299.688977
 31
0.0
  0
LINE
  5
11DF
100
AcDbEntity
  8
MSL2_30_3F-3
100
AcDbLine
 10
314.519531
 20
298.495594
 30
0.0
 11
312.452531
 21
299.688977
 31
0.0
  0
LINE
  5
11E0
100
AcDbEntity
  8
MSL2_30_3F-3
100
AcDbLine
 10
314.519531
 20
298.495594
 30
0.0
 11
312.452531
 21
299.688977
 31
0.0
  0
LINE
  5
11E1
100
AcDbEntity
  8
MSL2_30_3F-7
100
AcDbLine
 10
314.519531
 20
295.495594
 30
0.0
 11
314.519531
 21
313.888977
 31
0.0
  0
LINE
  5
11E2
100
AcDbEntity
  8
MSL2_30_3F-7
100
AcDbLine
 10
314.519531
 20
295.495594
 30
0.0
 11
314.519531
 21
313.888977
 31
0.0
  0
CIRCLE
  5
11E3
100
AcDbEntity
  8
MSL2_30_3F-0
100
AcDbCircle
 10
320.519531
 20
294.888977
 30
0.0
 40
2.067
  0
LINE
  5
11E4
100
AcDbEntity
  8
MSL2_30_3F-7
100
AcDbLine
 10
320.519531
 20
291.138977
 30
0.0
 11
320.519531
 21
298.638977
 31
0.0
  0
ARC
  5
11E5
100
AcDbEntity
  8
MSL2_30_3F-4
100
AcDbCircle
 10
320.519531
 20
294.888977
 30
0.0
 40
2.5
100
AcDbArc
 50
172.405357
 51
104.931417
  0
LINE
  5
11E6
100
AcDbEntity
  8
MSL2_30_3F-3
100
AcDbLine
 10
317.019531
 20
310.888977
 30
0.0
 11
317.019531
 21
302.888977
 31
0.0
  0
LINE
  5
11E7
100
AcDbEntity
  8
MSL2_30_3F-3
100
AcDbLine
 10
317.019531
 20
310.888977
 30
0.0
 11
317.019531
 21
302.888977
 31
0.0
  0
LINE
  5
11E8
100
AcDbEntity
  8
MSL2_30_3F-3
100
AcDbLine
 10
312.019531
 20
310.888977
 30
0.0
 11
312.019531
 21
302.888977
 31
0.0
  0
LINE
  5
11E9
100
AcDbEntity
  8
MSL2_30_3F-3
100
AcDbLine
 10
312.019531
 20
310.888977
 30
0.0
 11
312.019531
 21
302.888977
 31
0.0
  0
LINE
  5
11EA
100
AcDbEntity
  8
MSL2_30_3F-3
100
AcDbLine
 10
312.452531
 20
310.888977
 30
0.0
 11
312.452531
 21
299.688977
 31
0.0
  0
LINE
  5
11EB
100
AcDbEntity
  8
MSL2_30_3F-3
100
AcDbLine
 10
312.452531
 20
310.888977
 30
0.0
 11
312.452531
 21
299.688977
 31
0.0
  0
LINE
  5
11EC
100
AcDbEntity
  8
MSL2_30_3F-3
100
AcDbLine
 10
316.586531
 20
310.888977
 30
0.0
 11
316.586531
 21
299.688977
 31
0.0
  0
LINE
  5
11ED
100
AcDbEntity
  8
MSL2_30_3F-3
100
AcDbLine
 10
316.586531
 20
310.888977
 30
0.0
 11
316.586531
 21
299.688977
 31
0.0
  0
LINE
  5
11EE
100
AcDbEntity
  8
MSL2_30_3F-3
100
AcDbLine
 10
317.019531
 20
302.888977
 30
0.0
 11
312.019531
 21
302.888977
 31
0.0
  0
LINE
  5
11EF
100
AcDbEntity
  8
MSL2_30_3F-3
100
AcDbLine
 10
317.019531
 20
302.888977
 30
0.0
 11
312.019531
 21
302.888977
 31
0.0
  0
LINE
  5
11F0
100
AcDbEntity
  8
MSL2_30_3F-3
100
AcDbLine
 10
316.586531
 20
299.688977
 30
0.0
 11
312.452531
 21
299.688977
 31
0.0
  0
LINE
  5
11F1
100
AcDbEntity
  8
MSL2_30_3F-3
100
AcDbLine
 10
316.586531
 20
299.688977
 30
0.0
 11
312.452531
 21
299.688977
 31
0.0
  0
LINE
  5
11F2
100
AcDbEntity
  8
MSL2_30_3F-0
100
AcDbLine
 10
325.519531
 20
291.388977
 30
0.0
 11
346.519531
 21
291.388977
 31
0.0
  0
LINE
  5
11F3
100
AcDbEntity
  8
MSL2_30_3F-0
100
AcDbLine
 10
346.519531
 20
303.388977
 30
0.0
 11
325.519531
 21
303.388977
 31
0.0
  0
LINE
  5
11F4
100
AcDbEntity
  8
MSL2_30_3F-0
100
AcDbLine
 10
381.519531
 20
312.388977
 30
0.0
 11
381.519531
 21
309.888977
 31
0.0
  0
ARC
  5
11F5
100
AcDbEntity
  8
MSL2_30_3F-0
100
AcDbCircle
 10
383.019531
 20
312.388977
 30
0.0
 40
1.5
100
AcDbArc
 50
90.000001
 51
180.0
  0
LINE
  5
11F6
100
AcDbEntity
  8
MSL2_30_3F-7
100
AcDbLine
 10
536.868416
 20
-41.832079
 30
0.0
 11
462.495351
 21
-41.832079
 31
0.0
  0
LINE
  5
11F7
100
AcDbEntity
  8
MSL2_30_3F-7
100
AcDbLine
 10
536.868416
 20
13.167921
 30
0.0
 11
462.495351
 21
13.167921
 31
0.0
  0
POLYLINE
  5
11F8
100
AcDbEntity
  8
MSL2_30_3F-0
100
AcDb2dPolyline
 66
     1
 10
0.0
 20
0.0
 30
0.0
  0
VERTEX
  5
11F9
100
AcDbEntity
  8
MSL2_30_3F-0
  6
CONTINUOUS
100
AcDbVertex
100
AcDb2dVertex
 10
517.519531
 20
-47.832079
 30
0.0
  0
VERTEX
  5
11FA
100
AcDbEntity
  8
MSL2_30_3F-0
  6
CONTINUOUS
100
AcDbVertex
100
AcDb2dVertex
 10
496.619531
 20
-47.832079
 30
0.0
  0
VERTEX
  5
11FB
100
AcDbEntity
  8
MSL2_30_3F-0
  6
CONTINUOUS
100
AcDbVertex
100
AcDb2dVertex
 10
475.519531
 20
-47.832079
 30
0.0
  0
SEQEND
  5
11FC
100
AcDbEntity
  8
MSL2_30_3F-0
  0
POLYLINE
  5
11FD
100
AcDbEntity
  8
MSL2_30_3F-0
100
AcDb2dPolyline
 66
     1
 10
0.0
 20
0.0
 30
0.0
  0
VERTEX
  5
11FE
100
AcDbEntity
  8
MSL2_30_3F-0
  6
CONTINUOUS
100
AcDbVertex
100
AcDb2dVertex
 10
496.619531
 20
-35.832079
 30
0.0
  0
VERTEX
  5
11FF
100
AcDbEntity
  8
MSL2_30_3F-0
  6
CONTINUOUS
100
AcDbVertex
100
AcDb2dVertex
 10
475.519531
 20
-35.832079
 30
0.0
  0
VERTEX
  5
1200
100
AcDbEntity
  8
MSL2_30_3F-0
  6
CONTINUOUS
100
AcDbVertex
100
AcDb2dVertex
 10
517.519531
 20
-35.832079
 30
0.0
  0
SEQEND
  5
1201
100
AcDbEntity
  8
MSL2_30_3F-0
  0
LINE
  5
1202
100
AcDbEntity
  8
MSL2_30_3F-3
100
AcDbLine
 10
481.519531
 20
-11.332079
 30
0.0
 11
517.519531
 21
-11.332079
 31
0.0
1001
GENIUS_GENBH_13
1002
{
1000
OE
1000
CON1
1002
}
1001
GENIUS_GENOREF_13
1005
13BD
  0
LINE
  5
1203
100
AcDbEntity
  8
MSL2_30_3F-3
100
AcDbLine
 10
517.519531
 20
-17.332079
 30
0.0
 11
481.519531
 21
-17.332079
 31
0.0
1001
GENIUS_GENBH_13
1002
{
1000
OE
1000
CON1
1002
}
1001
GENIUS_GENOREF_13
1005
13BD
  0
LINE
  5
1204
100
AcDbEntity
  8
MSL2_30_3F-0
100
AcDbLine
 10
517.519531
 20
-8.332079
 30
0.0
 11
466.519531
 21
-8.332079
 31
0.0
  0
LINE
  5
1205
100
AcDbEntity
  8
MSL2_30_3F-0
100
AcDbLine
 10
466.519531
 20
-20.332079
 30
0.0
 11
517.519531
 21
-20.332079
 31
0.0
  0
LINE
  5
1206
100
AcDbEntity
  8
MSL2_30_3F-0
100
AcDbLine
 10
513.519531
 20
9.167921
 30
0.0
 11
503.519531
 21
9.167921
 31
0.0
  0
LINE
  5
1207
100
AcDbEntity
  8
MSL2_30_3F-0
100
AcDbLine
 10
513.549715
 20
7.167921
 30
0.0
 11
503.519531
 21
7.167921
 31
0.0
  0
LINE
  5
1208
100
AcDbEntity
  8
MSL2_30_3F-0
100
AcDbLine
 10
503.519531
 20
19.167921
 30
0.0
 11
513.549715
 21
19.167921
 31
0.0
  0
LINE
  5
1209
100
AcDbEntity
  8
MSL2_30_3F-0
100
AcDbLine
 10
503.519531
 20
17.167921
 30
0.0
 11
513.519531
 21
17.167921
 31
0.0
  0
LINE
  5
120A
100
AcDbEntity
  8
MSL2_30_3F-0
100
AcDbLine
 10
497.619531
 20
-36.832079
 30
0.0
 11
497.619531
 21
-46.832079
 31
0.0
  0
LINE
  5
120B
100
AcDbEntity
  8
MSL2_30_3F-0
100
AcDbLine
 10
496.619531
 20
-35.832079
 30
0.0
 11
496.619531
 21
-47.832079
 31
0.0
  0
LINE
  5
120C
100
AcDbEntity
  8
MSL2_30_3F-0
100
AcDbLine
 10
475.519531
 20
-35.832079
 30
0.0
 11
475.519531
 21
-47.832079
 31
0.0
  0
LINE
  5
120D
100
AcDbEntity
  8
MSL2_30_3F-0
100
AcDbLine
 10
474.519531
 20
-34.832079
 30
0.0
 11
474.519531
 21
-48.832079
 31
0.0
  0
LINE
  5
120E
100
AcDbEntity
  8
MSL2_30_3F-0
100
AcDbLine
 10
486.619531
 20
-47.832079
 30
0.0
 11
486.619531
 21
-35.832079
 31
0.0
  0
LINE
  5
120F
100
AcDbEntity
  8
MSL2_30_3F-7
100
AcDbLine
 10
456.619531
 20
-30.913396
 30
0.0
 11
456.619531
 21
-44.466478
 31
0.0
1001
GENIUS_GENODEF_13
1002
{
1000
HIER
1070
     0
1002
}
1002
{
1000
MANEDIT
1070
     0
1002
}
1002
{
1000
NOSEL
1070
     0
1002
}
1002
{
1000
BEHIND
1070
     0
1002
}
1002
{
1000
REACTOR
1002
}
1001
GENIUS_GENOBJ-N-CEN_13
1002
{
1000
OWNER
1000
GEN
1002
}
  0
LINE
  5
1210
100
AcDbEntity
  8
MSL2_30_3F-0
100
AcDbLine
 10
446.319531
 20
-29.289551
 30
0.0
 11
446.319531
 21
-46.142529
 31
0.0
  0
LINE
  5
1211
100
AcDbEntity
  8
MSL2_30_3F-0
100
AcDbLine
 10
466.519531
 20
25.667921
 30
0.0
 11
466.519531
 21
-54.332079
 31
0.0
  0
LINE
  5
1212
100
AcDbEntity
  8
MSL2_30_3F-0
100
AcDbLine
 10
404.019531
 20
-58.332079
 30
0.0
 11
396.019531
 21
-58.332079
 31
0.0
  0
LINE
  5
1213
100
AcDbEntity
  8
MSL2_30_3F-7
100
AcDbLine
 10
387.019531
 20
-51.633694
 30
0.0
 11
387.019531
 21
-60.324912
 31
0.0
  0
ARC
  5
1214
100
AcDbEntity
  8
MSL2_30_3F-0
100
AcDbCircle
 10
391.019531
 20
-56.832079
 30
0.0
 40
1.5
100
AcDbArc
 50
269.999999
 51
0.000002
  0
LINE
  5
1215
100
AcDbEntity
  8
MSL2_30_3F-0
100
AcDbLine
 10
392.519531
 20
-54.332079
 30
0.0
 11
392.519531
 21
-56.832079
 31
0.0
  0
ARC
  5
1216
100
AcDbEntity
  8
MSL2_30_3F-0
100
AcDbCircle
 10
396.019531
 20
-56.832079
 30
0.0
 40
1.5
100
AcDbArc
 50
180.0
 51
269.999999
  0
LINE
  5
1217
100
AcDbEntity
  8
MSL2_30_3F-0
100
AcDbLine
 10
394.519531
 20
-56.832079
 30
0.0
 11
394.519531
 21
-54.332079
 31
0.0
  0
LINE
  5
1218
100
AcDbEntity
  8
MSL2_30_3F-7
100
AcDbLine
 10
400.019531
 20
-51.633694
 30
0.0
 11
400.019531
 21
-60.324912
 31
0.0
  0
ARC
  5
1219
100
AcDbEntity
  8
MSL2_30_3F-0
100
AcDbCircle
 10
404.019531
 20
-56.832079
 30
0.0
 40
1.5
100
AcDbArc
 50
269.999999
 51
0.000002
  0
LINE
  5
121A
100
AcDbEntity
  8
MSL2_30_3F-0
100
AcDbLine
 10
405.519531
 20
-54.332079
 30
0.0
 11
405.519531
 21
-56.832079
 31
0.0
  0
LINE
  5
121B
100
AcDbEntity
  8
MSL2_30_3F-0
100
AcDbLine
 10
474.519531
 20
-48.832079
 30
0.0
 11
466.519531
 21
-48.832079
 31
0.0
  0
LINE
  5
121C
100
AcDbEntity
  8
MSL2_30_3F-0
100
AcDbLine
 10
446.319531
 20
-46.142529
 30
0.0
 11
466.019531
 21
-46.142529
 31
0.0
  0
LINE
  5
121D
100
AcDbEntity
  8
MSL2_30_3F-0
100
AcDbLine
 10
466.019531
 20
-46.142529
 30
0.0
 11
466.019531
 21
-53.332079
 31
0.0
  0
LINE
  5
121E
100
AcDbEntity
  8
MSL2_30_3F-0
100
AcDbLine
 10
496.619531
 20
-47.832079
 30
0.0
 11
486.619531
 21
-47.832079
 31
0.0
  0
LINE
  5
121F
100
AcDbEntity
  8
MSL2_30_3F-0
100
AcDbLine
 10
475.519531
 20
-47.832079
 30
0.0
 11
474.519531
 21
-48.832079
 31
0.0
  0
LINE
  5
1220
100
AcDbEntity
  8
MSL2_30_3F-0
100
AcDbLine
 10
497.619531
 20
-46.832079
 30
0.0
 11
496.619531
 21
-47.832079
 31
0.0
  0
LINE
  5
1221
100
AcDbEntity
  8
MSL2_30_3F-7
100
AcDbLine
 10
446.519531
 20
23.22385
 30
0.0
 11
429.519531
 21
23.223836
 31
0.0
1001
GENIUS_GENODEF_13
1002
{
1000
HIER
1070
     0
1002
}
1002
{
1000
MANEDIT
1070
     0
1002
}
1002
{
1000
NOSEL
1070
     0
1002
}
1002
{
1000
BEHIND
1070
     0
1002
}
1002
{
1000
REACTOR
1002
}
1001
GENIUS_GENOBJ-N-CEN_13
1002
{
1000
OWNER
1000
GEN
1002
}
  0
LINE
  5
1222
100
AcDbEntity
  8
MSL2_30_3F-0
100
AcDbLine
 10
466.019531
 20
24.667921
 30
0.0
 11
443.186381
 21
24.667921
 31
0.0
  0
LINE
  5
1223
100
AcDbEntity
  8
MSL2_30_3F-0
100
AcDbLine
 10
442.499549
 20
25.667921
 30
0.0
 11
466.519531
 21
25.667921
 31
0.0
  0
LINE
  5
1224
100
AcDbEntity
  8
MSL2_30_3F-7
100
AcDbLine
 10
406.519531
 20
-2.880312
 30
0.0
 11
406.519531
 21
-25.696884
 31
0.0
  0
LINE
  5
1225
100
AcDbEntity
  8
MSL2_30_3F-7
100
AcDbLine
 10
387.769531
 20
-29.332079
 30
0.0
 11
395.269531
 21
-29.332079
 31
0.0
  0
ARC
  5
1226
100
AcDbEntity
  8
MSL2_30_3F-3
100
AcDbCircle
 10
391.519531
 20
-29.332079
 30
0.0
 40
2.5
100
AcDbArc
 50
172.405357
 51
104.931417
  0
CIRCLE
  5
1227
100
AcDbEntity
  8
MSL2_30_3F-3
100
AcDbCircle
 10
391.519531
 20
-29.332079
 30
0.0
 40
2.067
  0
LINE
  5
1228
100
AcDbEntity
  8
MSL2_30_3F-7
100
AcDbLine
 10
391.519531
 20
-33.082079
 30
0.0
 11
391.519531
 21
-25.582079
 31
0.0
  0
LINE
  5
1229
100
AcDbEntity
  8
MSL2_30_3F-7
100
AcDbLine
 10
406.519531
 20
-29.332079
 30
0.0
 11
410.126725
 21
-29.332079
 31
0.0
  0
CIRCLE
  5
122A
100
AcDbEntity
  8
MSL2_30_3F-3
100
AcDbCircle
 10
406.519531
 20
-29.332079
 30
0.0
 40
2.5
  0
LINE
  5
122B
100
AcDbEntity
  8
MSL2_30_3F-7
100
AcDbLine
 10
406.519531
 20
-29.332079
 30
0.0
 11
402.912337
 21
-29.332079
 31
0.0
  0
LINE
  5
122C
100
AcDbEntity
  8
MSL2_30_3F-7
100
AcDbLine
 10
406.519531
 20
-29.332079
 30
0.0
 11
406.519531
 21
-25.724885
 31
0.0
  0
LINE
  5
122D
100
AcDbEntity
  8
MSL2_30_3F-7
100
AcDbLine
 10
406.519531
 20
-29.332079
 30
0.0
 11
406.519531
 21
-32.939272
 31
0.0
  0
LINE
  5
122E
100
AcDbEntity
  8
MSL2_30_3F-7
100
AcDbLine
 10
417.769531
 20
-29.332079
 30
0.0
 11
425.269531
 21
-29.332079
 31
0.0
  0
ARC
  5
122F
100
AcDbEntity
  8
MSL2_30_3F-3
100
AcDbCircle
 10
421.519531
 20
-29.332079
 30
0.0
 40
2.5
100
AcDbArc
 50
172.405357
 51
104.931417
  0
CIRCLE
  5
1230
100
AcDbEntity
  8
MSL2_30_3F-3
100
AcDbCircle
 10
421.519531
 20
-29.332079
 30
0.0
 40
2.067
  0
LINE
  5
1231
100
AcDbEntity
  8
MSL2_30_3F-7
100
AcDbLine
 10
421.519531
 20
-33.082079
 30
0.0
 11
421.519531
 21
-25.582079
 31
0.0
  0
LINE
  5
1232
100
AcDbEntity
  8
MSL2_30_3F-7
100
AcDbLine
 10
387.769531
 20
0.667921
 30
0.0
 11
395.269531
 21
0.667921
 31
0.0
  0
CIRCLE
  5
1233
100
AcDbEntity
  8
MSL2_30_3F-3
100
AcDbCircle
 10
391.519531
 20
0.667921
 30
0.0
 40
2.067
  0
ARC
  5
1234
100
AcDbEntity
  8
MSL2_30_3F-3
100
AcDbCircle
 10
391.519531
 20
0.667921
 30
0.0
 40
2.5
100
AcDbArc
 50
172.405357
 51
104.931417
  0
LINE
  5
1235
100
AcDbEntity
  8
MSL2_30_3F-7
100
AcDbLine
 10
391.519531
 20
-3.082079
 30
0.0
 11
391.519531
 21
4.417921
 31
0.0
  0
LINE
  5
1236
100
AcDbEntity
  8
MSL2_30_3F-7
100
AcDbLine
 10
406.519531
 20
0.667921
 30
0.0
 11
409.993026
 21
0.667921
 31
0.0
  0
CIRCLE
  5
1237
100
AcDbEntity
  8
MSL2_30_3F-3
100
AcDbCircle
 10
406.519531
 20
0.633705
 30
0.0
 40
2.5
  0
LINE
  5
1238
100
AcDbEntity
  8
MSL2_30_3F-7
100
AcDbLine
 10
406.519531
 20
0.667921
 30
0.0
 11
406.519531
 21
-2.805573
 31
0.0
  0
LINE
  5
1239
100
AcDbEntity
  8
MSL2_30_3F-7
100
AcDbLine
 10
406.519531
 20
0.667921
 30
0.0
 11
403.046037
 21
0.667921
 31
0.0
  0
LINE
  5
123A
100
AcDbEntity
  8
MSL2_30_3F-7
100
AcDbLine
 10
406.519531
 20
0.667921
 30
0.0
 11
406.519531
 21
4.141416
 31
0.0
  0
LINE
  5
123B
100
AcDbEntity
  8
MSL2_30_3F-7
100
AcDbLine
 10
438.019531
 20
16.010594
 30
0.0
 11
438.019531
 21
30.437083
 31
0.0
1001
GENIUS_GENODEF_13
1002
{
1000
HIER
1070
     0
1002
}
1002
{
1000
MANEDIT
1070
     0
1002
}
1002
{
1000
NOSEL
1070
     0
1002
}
1002
{
1000
BEHIND
1070
     0
1002
}
1002
{
1000
REACTOR
1002
}
1001
GENIUS_GENOBJ-N-CEN_13
1002
{
1000
OWNER
1000
GEN
1002
}
  0
LINE
  5
123C
100
AcDbEntity
  8
MSL2_30_3F-7
100
AcDbLine
 10
417.769531
 20
0.667921
 30
0.0
 11
425.269531
 21
0.667921
 31
0.0
  0
CIRCLE
  5
123D
100
AcDbEntity
  8
MSL2_30_3F-3
100
AcDbCircle
 10
421.519531
 20
0.667921
 30
0.0
 40
2.067
  0
ARC
  5
123E
100
AcDbEntity
  8
MSL2_30_3F-3
100
AcDbCircle
 10
421.519531
 20
0.667921
 30
0.0
 40
2.5
100
AcDbArc
 50
172.405357
 51
104.931417
  0
LINE
  5
123F
100
AcDbEntity
  8
MSL2_30_3F-7
100
AcDbLine
 10
421.519531
 20
-3.082079
 30
0.0
 11
421.519531
 21
4.417921
 31
0.0
  0
ELLIPSE
  5
1240
100
AcDbEntity
  8
MSL2_30_3F-0
100
AcDbEllipse
 10
438.019531
 20
23.223838
 30
0.0
 11
-5.500000000006366
 21
0.0
 31
0.0
210
0.0
220
0.0
230
1.0
 40
0.766044
 41
0.0
 42
6.2831853071796
  0
ELLIPSE
  5
1241
100
AcDbEntity
  8
MSL2_30_3F-0
100
AcDbEllipse
 10
438.019531
 20
23.223838
 30
0.0
 11
-2.000000000006366
 21
0.0
 31
0.0
210
0.0
220
0.0
230
1.0
 40
0.766044
 41
0.0
 42
6.2831853071796
  0
LINE
  5
1242
100
AcDbEntity
  8
MSL2_30_3F-0
100
AcDbLine
 10
438.019529
 20
24.509423
 30
0.0
 11
436.019531
 21
23.223844
 31
0.0
  0
ELLIPSE
  5
1243
100
AcDbEntity
  8
MSL2_30_3F-0
100
AcDbEllipse
 10
438.019534
 20
21.488321
 30
0.0
 11
-5.499999999998895
 21
-0.0000090659728525
 31
0.0
210
0.0
220
0.0
230
-1.0
 40
0.766044
 41
3.141592653589791
 42
6.283185307179723
  0
LINE
  5
1244
100
AcDbEntity
  8
MSL2_30_3F-0
100
AcDbLine
 10
432.519534
 20
21.488312
 30
0.0
 11
432.519531
 21
23.223838
 31
0.0
  0
LINE
  5
1245
100
AcDbEntity
  8
MSL2_30_3F-0
100
AcDbLine
 10
440.019531
 20
23.223856
 30
0.0
 11
438.019529
 21
24.509423
 31
0.0
  0
LINE
  5
1246
100
AcDbEntity
  8
MSL2_30_3F-0
100
AcDbLine
 10
443.519534
 20
21.488321
 30
0.0
 11
443.519531
 21
23.223866
 31
0.0
  0
LINE
  5
1247
100
AcDbEntity
  8
MSL2_30_3F-0
100
AcDbLine
 10
466.019531
 20
24.667921
 30
0.0
 11
466.019531
 21
-29.289551
 31
0.0
  0
LINE
  5
1248
100
AcDbEntity
  8
MSL2_30_3F-0
100
AcDbLine
 10
480.519531
 20
-5.332079
 30
0.0
 11
466.519531
 21
-5.332079
 31
0.0
  0
LINE
  5
1249
100
AcDbEntity
  8
MSL2_30_3F-0
100
AcDbLine
 10
466.519531
 20
-23.332079
 30
0.0
 11
480.519531
 21
-23.332079
 31
0.0
  0
LINE
  5
124A
100
AcDbEntity
  8
MSL2_30_3F-0
100
AcDbLine
 10
466.519531
 20
-34.832079
 30
0.0
 11
474.519531
 21
-34.832079
 31
0.0
  0
LINE
  5
124B
100
AcDbEntity
  8
MSL2_30_3F-0
100
AcDbLine
 10
466.019531
 20
-29.289551
 30
0.0
 11
446.319531
 21
-29.289551
 31
0.0
  0
LINE
  5
124C
100
AcDbEntity
  8
MSL2_30_3F-7
100
AcDbLine
 10
448.755531
 20
-37.639436
 30
0.0
 11
464.483531
 21
-37.639436
 31
0.0
1001
GENIUS_GENODEF_13
1002
{
1000
HIER
1070
     0
1002
}
1002
{
1000
MANEDIT
1070
     0
1002
}
1002
{
1000
NOSEL
1070
     0
1002
}
1002
{
1000
BEHIND
1070
     0
1002
}
1002
{
1000
REACTOR
1002
}
1001
GENIUS_GENOBJ-N-CEN_13
1002
{
1000
OWNER
1000
GEN
1002
}
  0
ELLIPSE
  5
124D
100
AcDbEntity
  8
MSL2_30_3F-4
100
AcDbEllipse
 10
456.619531
 20
-37.639436
 30
0.0
 11
4.863999999999975
 21
0.0
 31
0.0
210
0.0
220
0.0
230
1.0
 40
0.766044
 41
-1.637716455833807
 42
3.255308282467134
  0
ELLIPSE
  5
124E
100
AcDbEntity
  8
MSL2_30_3F-0
100
AcDbEllipse
 10
456.619531
 20
-37.639436
 30
0.0
 11
4.283225000000015
 21
0.0
 31
0.0
210
0.0
220
0.0
230
1.0
 40
0.766044
 41
0.0
 42
6.2831853071796
  0
LINE
  5
124F
100
AcDbEntity
  8
MSL2_30_3F-0
100
AcDbLine
 10
486.619531
 20
-35.832079
 30
0.0
 11
496.619531
 21
-35.832079
 31
0.0
  0
LINE
  5
1250
100
AcDbEntity
  8
MSL2_30_3F-0
100
AcDbLine
 10
475.519531
 20
-39.782079
 30
0.0
 11
486.619531
 21
-39.782079
 31
0.0
  0
LINE
  5
1251
100
AcDbEntity
  8
MSL2_30_3F-0
100
AcDbLine
 10
475.519531
 20
-43.882079
 30
0.0
 11
486.619531
 21
-43.882079
 31
0.0
  0
LINE
  5
1252
100
AcDbEntity
  8
MSL2_30_3F-0
100
AcDbLine
 10
474.519531
 20
-34.832079
 30
0.0
 11
475.519531
 21
-35.832079
 31
0.0
  0
LINE
  5
1253
100
AcDbEntity
  8
MSL2_30_3F-0
100
AcDbLine
 10
496.619531
 20
-35.832079
 30
0.0
 11
497.619531
 21
-36.832079
 31
0.0
  0
LINE
  5
1254
100
AcDbEntity
  8
MSL2_30_3F-3
100
AcDbLine
 10
481.519531
 20
-20.332079
 30
0.0
 11
481.519531
 21
-8.332079
 31
0.0
1001
GENIUS_GENBH_13
1002
{
1000
OE
1000
CON1
1002
}
1001
GENIUS_GENOREF_13
1005
13BD
  0
LINE
  5
1255
100
AcDbEntity
  8
MSL2_30_3F-3
100
AcDbLine
 10
480.519531
 20
-20.332079
 30
0.0
 11
480.519531
 21
-8.332079
 31
0.0
1001
GENIUS_GENBH_13
1002
{
1000
OE
1000
CON1
1002
}
1001
GENIUS_GENOREF_13
1005
13BD
  0
LINE
  5
1256
100
AcDbEntity
  8
MSL2_30_3F-0
100
AcDbLine
 10
480.519531
 20
-23.332079
 30
0.0
 11
480.519531
 21
-20.332079
 31
0.0
1001
GENIUS_GENOREF_13
1005
13BD
  0
LINE
  5
1257
100
AcDbEntity
  8
MSL2_30_3F-0
100
AcDbLine
 10
481.519531
 20
-22.332079
 30
0.0
 11
481.519531
 21
-20.332079
 31
0.0
1001
GENIUS_GENOREF_13
1005
13BD
  0
LINE
  5
1258
100
AcDbEntity
  8
MSL2_30_3F-0
100
AcDbLine
 10
480.519531
 20
-23.332079
 30
0.0
 11
481.519531
 21
-22.332079
 31
0.0
  0
LINE
  5
1259
100
AcDbEntity
  8
MSL2_30_3F-0
100
AcDbLine
 10
480.519531
 20
-8.332079
 30
0.0
 11
480.519531
 21
-5.332079
 31
0.0
1001
GENIUS_GENOREF_13
1005
13BD
  0
LINE
  5
125A
100
AcDbEntity
  8
MSL2_30_3F-0
100
AcDbLine
 10
481.519531
 20
-8.332079
 30
0.0
 11
481.519531
 21
-6.332079
 31
0.0
1001
GENIUS_GENOREF_13
1005
13BD
  0
LINE
  5
125B
100
AcDbEntity
  8
MSL2_30_3F-0
100
AcDbLine
 10
481.519531
 20
-6.332079
 30
0.0
 11
480.519531
 21
-5.332079
 31
0.0
  0
LINE
  5
125C
100
AcDbEntity
  8
MSL2_30_3F-0
100
AcDbLine
 10
499.546509
 20
7.167921
 30
0.0
 11
469.519531
 21
7.167921
 31
0.0
  0
LINE
  5
125D
100
AcDbEntity
  8
MSL2_30_3F-0
100
AcDbLine
 10
469.519531
 20
19.167921
 30
0.0
 11
499.546509
 21
19.167921
 31
0.0
  0
ARC
  5
125E
100
AcDbEntity
  8
MSL2_30_3F-0
100
AcDbCircle
 10
458.884808
 20
13.167921
 30
0.0
 40
10.634722
100
AcDbArc
 50
332.518771
 51
27.481229
  0
LINE
  5
125F
100
AcDbEntity
  8
MSL2_30_3F-0
100
AcDbLine
 10
469.519531
 20
20.529137
 30
0.0
 11
469.519531
 21
5.806705
 31
0.0
  0
ARC
  5
1260
100
AcDbEntity
  8
MSL2_30_3F-0
100
AcDbCircle
 10
466.41085
 20
5.806705
 30
0.0
 40
3.108681
100
AcDbArc
 50
307.878142
 51
52.121858
  0
LINE
  5
1261
100
AcDbEntity
  8
MSL2_30_3F-0
100
AcDbLine
 10
468.319531
 20
3.352966
 30
0.0
 11
466.519531
 21
3.352966
 31
0.0
  0
LINE
  5
1262
100
AcDbEntity
  8
MSL2_30_3F-0
100
AcDbLine
 10
468.319531
 20
8.260444
 30
0.0
 11
466.519531
 21
8.260444
 31
0.0
  0
LINE
  5
1263
100
AcDbEntity
  8
MSL2_30_3F-0
100
AcDbLine
 10
468.319531
 20
22.982876
 30
0.0
 11
466.519531
 21
22.982876
 31
0.0
  0
LINE
  5
1264
100
AcDbEntity
  8
MSL2_30_3F-0
100
AcDbLine
 10
468.319531
 20
18.075398
 30
0.0
 11
466.519531
 21
18.075398
 31
0.0
  0
ARC
  5
1265
100
AcDbEntity
  8
MSL2_30_3F-0
100
AcDbCircle
 10
466.41085
 20
20.529137
 30
0.0
 40
3.108681
100
AcDbArc
 50
307.878142
 51
52.121858
  0
ARC
  5
1266
100
AcDbEntity
  8
MSL2_30_3F-0
100
AcDbCircle
 10
508.54194
 20
13.167921
 30
0.0
 40
9.02241
100
AcDbArc
 50
155.421503
 51
204.578497
  0
LINE
  5
1267
100
AcDbEntity
  8
MSL2_30_3F-0
100
AcDbLine
 10
503.519531
 20
20.673474
 30
0.0
 11
503.519531
 21
5.662368
 31
0.0
  0
LINE
  5
1268
100
AcDbEntity
  8
MSL2_30_3F-0
100
AcDbLine
 10
503.519531
 20
17.167921
 30
0.0
 11
503.519531
 21
9.167921
 31
0.0
  0
LINE
  5
1269
100
AcDbEntity
  8
MSL2_30_3F-0
100
AcDbLine
 10
499.519531
 20
18.797086
 30
0.0
 11
499.519531
 21
7.538756
 31
0.0
  0
ARC
  5
126A
100
AcDbEntity
  8
MSL2_30_3F-0
100
AcDbCircle
 10
502.081695
 20
7.538756
 30
0.0
 40
2.562165
100
AcDbArc
 50
132.916664
 51
227.083336
  0
LINE
  5
126B
100
AcDbEntity
  8
MSL2_30_3F-0
100
AcDbLine
 10
503.519531
 20
5.662368
 30
0.0
 11
500.337031
 21
5.662368
 31
0.0
  0
LINE
  5
126C
100
AcDbEntity
  8
MSL2_30_3F-0
100
AcDbLine
 10
500.337031
 20
9.415144
 30
0.0
 11
503.519531
 21
9.415144
 31
0.0
  0
LINE
  5
126D
100
AcDbEntity
  8
MSL2_30_3F-0
100
AcDbLine
 10
500.337031
 20
20.673474
 30
0.0
 11
503.519531
 21
20.673474
 31
0.0
  0
LINE
  5
126E
100
AcDbEntity
  8
MSL2_30_3F-0
100
AcDbLine
 10
500.337031
 20
16.920698
 30
0.0
 11
503.519531
 21
16.920698
 31
0.0
  0
ARC
  5
126F
100
AcDbEntity
  8
MSL2_30_3F-0
100
AcDbCircle
 10
502.081695
 20
18.797086
 30
0.0
 40
2.562165
100
AcDbArc
 50
132.916664
 51
227.083336
  0
LINE
  5
1270
100
AcDbEntity
  8
MSL2_30_3F-7
100
AcDbLine
 10
522.519531
 20
-39.332079
 30
0.0
 11
522.519531
 21
-44.796104
 31
0.0
1001
GENIUS_GENOREF_13
1005
0
  0
LINE
  5
1271
100
AcDbEntity
  8
MSL2_30_3F-3
100
AcDbLine
 10
530.586531
 20
-55.332079
 30
0.0
 11
530.586531
 21
-44.132079
 31
0.0
  0
LINE
  5
1272
100
AcDbEntity
  8
MSL2_30_3F-3
100
AcDbLine
 10
530.586531
 20
-55.332079
 30
0.0
 11
530.586531
 21
-44.132079
 31
0.0
  0
LINE
  5
1273
100
AcDbEntity
  8
MSL2_30_3F-3
100
AcDbLine
 10
526.452531
 20
-55.332079
 30
0.0
 11
526.452531
 21
-44.132079
 31
0.0
  0
LINE
  5
1274
100
AcDbEntity
  8
MSL2_30_3F-3
100
AcDbLine
 10
526.452531
 20
-55.332079
 30
0.0
 11
526.452531
 21
-44.132079
 31
0.0
  0
LINE
  5
1275
100
AcDbEntity
  8
MSL2_30_3F-7
100
AcDbLine
 10
528.519531
 20
-39.938696
 30
0.0
 11
528.519531
 21
-58.332079
 31
0.0
  0
LINE
  5
1276
100
AcDbEntity
  8
MSL2_30_3F-7
100
AcDbLine
 10
528.519531
 20
-39.938696
 30
0.0
 11
528.519531
 21
-58.332079
 31
0.0
  0
LINE
  5
1277
100
AcDbEntity
  8
MSL2_30_3F-0
100
AcDbLine
 10
533.519531
 20
26.667921
 30
0.0
 11
533.519531
 21
-55.332079
 31
0.0
  0
LINE
  5
1278
100
AcDbEntity
  8
MSL2_30_3F-0
100
AcDbLine
 10
517.519531
 20
-55.332079
 30
0.0
 11
517.519531
 21
26.667921
 31
0.0
  0
LINE
  5
1279
100
AcDbEntity
  8
MSL2_30_3F-0
100
AcDbLine
 10
533.519531
 20
-55.332079
 30
0.0
 11
517.519531
 21
-55.332079
 31
0.0
  0
LINE
  5
127A
100
AcDbEntity
  8
MSL2_30_3F-3
100
AcDbLine
 10
526.019531
 20
-55.332079
 30
0.0
 11
526.019531
 21
-47.332079
 31
0.0
  0
LINE
  5
127B
100
AcDbEntity
  8
MSL2_30_3F-3
100
AcDbLine
 10
526.019531
 20
-55.332079
 30
0.0
 11
526.019531
 21
-47.332079
 31
0.0
  0
LINE
  5
127C
100
AcDbEntity
  8
MSL2_30_3F-3
100
AcDbLine
 10
531.019531
 20
-55.332079
 30
0.0
 11
531.019531
 21
-47.332079
 31
0.0
  0
LINE
  5
127D
100
AcDbEntity
  8
MSL2_30_3F-3
100
AcDbLine
 10
531.019531
 20
-55.332079
 30
0.0
 11
531.019531
 21
-47.332079
 31
0.0
  0
LINE
  5
127E
100
AcDbEntity
  8
MSL2_30_3F-3
100
AcDbLine
 10
526.019531
 20
-47.332079
 30
0.0
 11
531.019531
 21
-47.332079
 31
0.0
  0
LINE
  5
127F
100
AcDbEntity
  8
MSL2_30_3F-3
100
AcDbLine
 10
526.019531
 20
-47.332079
 30
0.0
 11
531.019531
 21
-47.332079
 31
0.0
  0
LINE
  5
1280
100
AcDbEntity
  8
MSL2_30_3F-7
100
AcDbLine
 10
536.868416
 20
-29.332079
 30
0.0
 11
513.749197
 21
-29.332079
 31
0.0
  0
LINE
  5
1281
100
AcDbEntity
  8
MSL2_30_3F-7
100
AcDbLine
 10
518.769531
 20
-39.332079
 30
0.0
 11
526.269531
 21
-39.332079
 31
0.0
  0
LINE
  5
1282
100
AcDbEntity
  8
MSL2_30_3F-3
100
AcDbLine
 10
526.452531
 20
-44.132079
 30
0.0
 11
530.586531
 21
-44.132079
 31
0.0
  0
LINE
  5
1283
100
AcDbEntity
  8
MSL2_30_3F-3
100
AcDbLine
 10
526.452531
 20
-44.132079
 30
0.0
 11
530.586531
 21
-44.132079
 31
0.0
  0
LINE
  5
1284
100
AcDbEntity
  8
MSL2_30_3F-3
100
AcDbLine
 10
528.519531
 20
-42.938696
 30
0.0
 11
526.452531
 21
-44.132079
 31
0.0
  0
LINE
  5
1285
100
AcDbEntity
  8
MSL2_30_3F-3
100
AcDbLine
 10
528.519531
 20
-42.938696
 30
0.0
 11
526.452531
 21
-44.132079
 31
0.0
  0
LINE
  5
1286
100
AcDbEntity
  8
MSL2_30_3F-7
100
AcDbLine
 10
522.519531
 20
-35.582079
 30
0.0
 11
522.519531
 21
-43.082079
 31
0.0
  0
ARC
  5
1287
100
AcDbEntity
  8
MSL2_30_3F-3
100
AcDbCircle
 10
522.519531
 20
-39.332079
 30
0.0
 40
2.5
100
AcDbArc
 50
255.068583
 51
187.594643
  0
CIRCLE
  5
1288
100
AcDbEntity
  8
MSL2_30_3F-3
100
AcDbCircle
 10
522.519531
 20
-39.332079
 30
0.0
 40
2.067
  0
LINE
  5
1289
100
AcDbEntity
  8
MSL2_30_3F-3
100
AcDbLine
 10
528.519531
 20
-42.938696
 30
0.0
 11
530.586531
 21
-44.132079
 31
0.0
  0
LINE
  5
128A
100
AcDbEntity
  8
MSL2_30_3F-3
100
AcDbLine
 10
528.519531
 20
-42.938696
 30
0.0
 11
530.586531
 21
-44.132079
 31
0.0
  0
LINE
  5
128B
100
AcDbEntity
  8
MSL2_30_3F-0
100
AcDbLine
 10
517.519531
 20
-8.012108
 30
0.0
 11
533.519531
 21
-8.012108
 31
0.0
  0
LINE
  5
128C
100
AcDbEntity
  8
MSL2_30_3F-0
100
AcDbLine
 10
517.519531
 20
-20.652049
 30
0.0
 11
533.519531
 21
-20.652049
 31
0.0
  0
LINE
  5
128D
100
AcDbEntity
  8
MSL2_30_3F-7
100
AcDbLine
 10
536.868416
 20
0.667921
 30
0.0
 11
513.749197
 21
0.667921
 31
0.0
  0
LINE
  5
128E
100
AcDbEntity
  8
MSL2_30_3F-7
100
AcDbLine
 10
528.519531
 20
11.274538
 30
0.0
 11
528.519531
 21
29.667921
 31
0.0
  0
LINE
  5
128F
100
AcDbEntity
  8
MSL2_30_3F-7
100
AcDbLine
 10
528.519531
 20
11.274538
 30
0.0
 11
528.519531
 21
29.667921
 31
0.0
  0
LINE
  5
1290
100
AcDbEntity
  8
MSL2_30_3F-3
100
AcDbLine
 10
530.586531
 20
26.667921
 30
0.0
 11
530.586531
 21
15.467921
 31
0.0
  0
LINE
  5
1291
100
AcDbEntity
  8
MSL2_30_3F-3
100
AcDbLine
 10
530.586531
 20
26.667921
 30
0.0
 11
530.586531
 21
15.467921
 31
0.0
  0
LINE
  5
1292
100
AcDbEntity
  8
MSL2_30_3F-3
100
AcDbLine
 10
526.452531
 20
26.667921
 30
0.0
 11
526.452531
 21
15.467921
 31
0.0
  0
LINE
  5
1293
100
AcDbEntity
  8
MSL2_30_3F-3
100
AcDbLine
 10
526.452531
 20
26.667921
 30
0.0
 11
526.452531
 21
15.467921
 31
0.0
  0
ARC
  5
1294
100
AcDbEntity
  8
MSL2_30_3F-0
100
AcDbCircle
 10
509.809808
 20
13.167921
 30
0.0
 40
7.709722
100
AcDbArc
 50
330.872216
 51
29.127784
  0
ARC
  5
1295
100
AcDbEntity
  8
MSL2_30_3F-0
100
AcDbCircle
 10
521.229253
 20
13.167921
 30
0.0
 40
7.709722
100
AcDbArc
 50
150.872218
 51
209.127782
  0
LINE
  5
1296
100
AcDbEntity
  8
MSL2_30_3F-0
100
AcDbLine
 10
513.519531
 20
18.797086
 30
0.0
 11
513.519531
 21
7.538756
 31
0.0
  0
LINE
  5
1297
100
AcDbEntity
  8
MSL2_30_3F-7
100
AcDbLine
 10
518.769531
 20
10.667921
 30
0.0
 11
526.269531
 21
10.667921
 31
0.0
  0
ARC
  5
1298
100
AcDbEntity
  8
MSL2_30_3F-0
100
AcDbCircle
 10
515.226475
 20
7.538756
 30
0.0
 40
2.293056
100
AcDbArc
 50
305.085847
 51
54.914153
  0
ARC
  5
1299
100
AcDbEntity
  8
MSL2_30_3F-0
100
AcDbCircle
 10
515.812586
 20
7.538756
 30
0.0
 40
2.293056
100
AcDbArc
 50
125.085848
 51
234.914152
  0
LINE
  5
129A
100
AcDbEntity
  8
MSL2_30_3F-0
100
AcDbLine
 10
516.544531
 20
5.662368
 30
0.0
 11
514.494531
 21
5.662368
 31
0.0
  0
LINE
  5
129B
100
AcDbEntity
  8
MSL2_30_3F-0
100
AcDbLine
 10
516.544531
 20
9.415144
 30
0.0
 11
514.494531
 21
9.415144
 31
0.0
  0
LINE
  5
129C
100
AcDbEntity
  8
MSL2_30_3F-3
100
AcDbLine
 10
526.452531
 20
15.467921
 30
0.0
 11
530.586531
 21
15.467921
 31
0.0
  0
LINE
  5
129D
100
AcDbEntity
  8
MSL2_30_3F-3
100
AcDbLine
 10
526.452531
 20
15.467921
 30
0.0
 11
530.586531
 21
15.467921
 31
0.0
  0
LINE
  5
129E
100
AcDbEntity
  8
MSL2_30_3F-3
100
AcDbLine
 10
528.519531
 20
14.274538
 30
0.0
 11
526.452531
 21
15.467921
 31
0.0
  0
LINE
  5
129F
100
AcDbEntity
  8
MSL2_30_3F-3
100
AcDbLine
 10
528.519531
 20
14.274538
 30
0.0
 11
526.452531
 21
15.467921
 31
0.0
  0
ARC
  5
12A0
100
AcDbEntity
  8
MSL2_30_3F-3
100
AcDbCircle
 10
522.519531
 20
10.667921
 30
0.0
 40
2.5
100
AcDbArc
 50
255.068583
 51
187.594643
  0
CIRCLE
  5
12A1
100
AcDbEntity
  8
MSL2_30_3F-3
100
AcDbCircle
 10
522.519531
 20
10.667921
 30
0.0
 40
2.067
  0
LINE
  5
12A2
100
AcDbEntity
  8
MSL2_30_3F-7
100
AcDbLine
 10
522.519531
 20
14.417921
 30
0.0
 11
522.519531
 21
6.917921
 31
0.0
  0
LINE
  5
12A3
100
AcDbEntity
  8
MSL2_30_3F-3
100
AcDbLine
 10
528.519531
 20
14.274538
 30
0.0
 11
530.586531
 21
15.467921
 31
0.0
  0
LINE
  5
12A4
100
AcDbEntity
  8
MSL2_30_3F-3
100
AcDbLine
 10
528.519531
 20
14.274538
 30
0.0
 11
530.586531
 21
15.467921
 31
0.0
  0
LINE
  5
12A5
100
AcDbEntity
  8
MSL2_30_3F-0
100
AcDbLine
 10
517.519531
 20
26.667921
 30
0.0
 11
533.519531
 21
26.667921
 31
0.0
  0
LINE
  5
12A6
100
AcDbEntity
  8
MSL2_30_3F-0
100
AcDbLine
 10
516.544531
 20
20.673474
 30
0.0
 11
514.494531
 21
20.673474
 31
0.0
  0
LINE
  5
12A7
100
AcDbEntity
  8
MSL2_30_3F-0
100
AcDbLine
 10
516.544531
 20
16.920698
 30
0.0
 11
514.494531
 21
16.920698
 31
0.0
  0
ARC
  5
12A8
100
AcDbEntity
  8
MSL2_30_3F-0
100
AcDbCircle
 10
515.812586
 20
18.797086
 30
0.0
 40
2.293056
100
AcDbArc
 50
125.085848
 51
234.914152
  0
ARC
  5
12A9
100
AcDbEntity
  8
MSL2_30_3F-0
100
AcDbCircle
 10
515.226475
 20
18.797086
 30
0.0
 40
2.293056
100
AcDbArc
 50
305.085847
 51
54.914153
  0
LINE
  5
12AA
100
AcDbEntity
  8
MSL2_30_3F-3
100
AcDbLine
 10
531.019531
 20
26.667921
 30
0.0
 11
531.019531
 21
18.667921
 31
0.0
  0
LINE
  5
12AB
100
AcDbEntity
  8
MSL2_30_3F-3
100
AcDbLine
 10
531.019531
 20
26.667921
 30
0.0
 11
531.019531
 21
18.667921
 31
0.0
  0
LINE
  5
12AC
100
AcDbEntity
  8
MSL2_30_3F-3
100
AcDbLine
 10
526.019531
 20
26.667921
 30
0.0
 11
526.019531
 21
18.667921
 31
0.0
  0
LINE
  5
12AD
100
AcDbEntity
  8
MSL2_30_3F-3
100
AcDbLine
 10
526.019531
 20
26.667921
 30
0.0
 11
526.019531
 21
18.667921
 31
0.0
  0
LINE
  5
12AE
100
AcDbEntity
  8
MSL2_30_3F-3
100
AcDbLine
 10
526.019531
 20
18.667921
 30
0.0
 11
531.019531
 21
18.667921
 31
0.0
  0
LINE
  5
12AF
100
AcDbEntity
  8
MSL2_30_3F-3
100
AcDbLine
 10
526.019531
 20
18.667921
 30
0.0
 11
531.019531
 21
18.667921
 31
0.0
  0
LINE
  5
12B0
100
AcDbEntity
  8
MSL2_30_3F-7
100
AcDbLine
 10
462.059715
 20
149.888977
 30
0.0
 11
533.342031
 21
149.888977
 31
0.0
  0
LINE
  5
12B1
100
AcDbEntity
  8
MSL2_30_3F-7
100
AcDbLine
 10
536.868416
 20
119.888977
 30
0.0
 11
461.795648
 21
119.888977
 31
0.0
  0
LINE
  5
12B2
100
AcDbEntity
  8
MSL2_30_3F-7
100
AcDbLine
 10
536.868416
 20
169.888977
 30
0.0
 11
461.795648
 21
169.888977
 31
0.0
  0
LINE
  5
12B3
100
AcDbEntity
  8
MSL2_30_3F-0
100
AcDbLine
 10
466.519531
 20
113.888977
 30
0.0
 11
517.519531
 21
113.888977
 31
0.0
  0
LINE
  5
12B4
100
AcDbEntity
  8
MSL2_30_3F-0
100
AcDbLine
 10
517.519531
 20
125.888977
 30
0.0
 11
466.519531
 21
125.888977
 31
0.0
  0
LINE
  5
12B5
100
AcDbEntity
  8
MSL2_30_3F-0
100
AcDbLine
 10
517.519531
 20
175.888977
 30
0.0
 11
466.519531
 21
175.888977
 31
0.0
  0
LINE
  5
12B6
100
AcDbEntity
  8
MSL2_30_3F-0
100
AcDbLine
 10
466.519531
 20
163.888977
 30
0.0
 11
517.519531
 21
163.888977
 31
0.0
  0
LINE
  5
12B7
100
AcDbEntity
  8
MSL2_30_3F-0
100
AcDbLine
 10
513.519531
 20
153.888977
 30
0.0
 11
503.519531
 21
153.888977
 31
0.0
  0
LINE
  5
12B8
100
AcDbEntity
  8
MSL2_30_3F-0
100
AcDbLine
 10
503.519531
 20
145.888977
 30
0.0
 11
513.519531
 21
145.888977
 31
0.0
  0
LINE
  5
12B9
100
AcDbEntity
  8
MSL2_30_3F-7
100
AcDbLine
 10
406.519531
 20
131.340744
 30
0.0
 11
406.519531
 21
108.524172
 31
0.0
  0
LINE
  5
12BA
100
AcDbEntity
  8
MSL2_30_3F-0
100
AcDbLine
 10
466.519531
 20
99.888977
 30
0.0
 11
466.519531
 21
183.888977
 31
0.0
  0
LINE
  5
12BB
100
AcDbEntity
  8
MSL2_30_3F-7
100
AcDbLine
 10
391.519531
 20
101.138977
 30
0.0
 11
391.519531
 21
108.638977
 31
0.0
  0
ARC
  5
12BC
100
AcDbEntity
  8
MSL2_30_3F-4
100
AcDbCircle
 10
391.519531
 20
104.888977
 30
0.0
 40
2.5
100
AcDbArc
 50
172.405357
 51
104.931417
  0
LINE
  5
12BD
100
AcDbEntity
  8
MSL2_30_3F-7
100
AcDbLine
 10
387.769531
 20
104.888977
 30
0.0
 11
395.269531
 21
104.888977
 31
0.0
  0
CIRCLE
  5
12BE
100
AcDbEntity
  8
MSL2_30_3F-0
100
AcDbCircle
 10
391.519531
 20
104.888977
 30
0.0
 40
2.067
  0
LINE
  5
12BF
100
AcDbEntity
  8
MSL2_30_3F-7
100
AcDbLine
 10
406.519531
 20
104.888977
 30
0.0
 11
406.519531
 21
108.496171
 31
0.0
  0
CIRCLE
  5
12C0
100
AcDbEntity
  8
MSL2_30_3F-0
100
AcDbCircle
 10
406.519531
 20
104.888977
 30
0.0
 40
2.5
  0
LINE
  5
12C1
100
AcDbEntity
  8
MSL2_30_3F-7
100
AcDbLine
 10
406.519531
 20
104.888977
 30
0.0
 11
410.126725
 21
104.888977
 31
0.0
  0
LINE
  5
12C2
100
AcDbEntity
  8
MSL2_30_3F-7
100
AcDbLine
 10
406.519531
 20
104.888977
 30
0.0
 11
402.912337
 21
104.888977
 31
0.0
  0
LINE
  5
12C3
100
AcDbEntity
  8
MSL2_30_3F-7
100
AcDbLine
 10
406.519531
 20
104.888977
 30
0.0
 11
406.519531
 21
101.281784
 31
0.0
  0
LINE
  5
12C4
100
AcDbEntity
  8
MSL2_30_3F-7
100
AcDbLine
 10
421.519531
 20
101.138977
 30
0.0
 11
421.519531
 21
108.638977
 31
0.0
  0
ARC
  5
12C5
100
AcDbEntity
  8
MSL2_30_3F-4
100
AcDbCircle
 10
421.519531
 20
104.888977
 30
0.0
 40
2.5
100
AcDbArc
 50
172.405357
 51
104.931417
  0
LINE
  5
12C6
100
AcDbEntity
  8
MSL2_30_3F-7
100
AcDbLine
 10
417.769531
 20
104.888977
 30
0.0
 11
425.269531
 21
104.888977
 31
0.0
  0
CIRCLE
  5
12C7
100
AcDbEntity
  8
MSL2_30_3F-0
100
AcDbCircle
 10
421.519531
 20
104.888977
 30
0.0
 40
2.067
  0
POLYLINE
  5
12C8
100
AcDbEntity
  8
MSL2_30_3F-0
100
AcDb2dPolyline
 66
     1
 10
0.0
 20
0.0
 30
0.0
  0
VERTEX
  5
12C9
100
AcDbEntity
  8
MSL2_30_3F-0
  6
CONTINUOUS
100
AcDbVertex
100
AcDb2dVertex
 10
466.519531
 20
110.888977
 30
0.0
  0
VERTEX
  5
12CA
100
AcDbEntity
  8
MSL2_30_3F-0
  6
CONTINUOUS
100
AcDbVertex
100
AcDb2dVertex
 10
480.519531
 20
110.888977
 30
0.0
  0
VERTEX
  5
12CB
100
AcDbEntity
  8
MSL2_30_3F-0
  6
CONTINUOUS
100
AcDbVertex
100
AcDb2dVertex
 10
481.519531
 20
111.888977
 30
0.0
  0
VERTEX
  5
12CC
100
AcDbEntity
  8
MSL2_30_3F-0
  6
CONTINUOUS
100
AcDbVertex
100
AcDb2dVertex
 10
481.519531
 20
113.888977
 30
0.0
  0
SEQEND
  5
12CD
100
AcDbEntity
  8
MSL2_30_3F-0
  6
CONTINUOUS
  0
LINE
  5
12CE
100
AcDbEntity
  8
MSL2_30_3F-0
100
AcDbLine
 10
480.519531
 20
113.888977
 30
0.0
 11
480.519531
 21
110.888977
 31
0.0
  0
LINE
  5
12CF
100
AcDbEntity
  8
MSL2_30_3F-4
100
AcDbLine
 10
466.019531
 20
141.888977
 30
0.0
 11
443.019531
 21
141.888977
 31
0.0
  0
LINE
  5
12D0
100
AcDbEntity
  8
MSL2_30_3F-0
100
AcDbLine
 10
466.019531
 20
139.888977
 30
0.0
 11
443.019531
 21
139.888977
 31
0.0
  0
LINE
  5
12D1
100
AcDbEntity
  8
MSL2_30_3F-7
100
AcDbLine
 10
387.019531
 20
158.638977
 30
0.0
 11
387.019531
 21
136.888977
 31
0.0
1001
GENIUS_GENODEF_13
1002
{
1000
HIER
1070
     0
1002
}
1002
{
1000
MANEDIT
1070
     0
1002
}
1002
{
1000
NOSEL
1070
     0
1002
}
1002
{
1000
BEHIND
1070
     0
1002
}
1002
{
1000
REACTOR
1002
}
1001
GENIUS_GENOBJ-N-CEN_13
1002
{
1000
OWNER
1000
GEN
1002
}
  0
LINE
  5
12D2
100
AcDbEntity
  8
MSL2_30_3F-7
100
AcDbLine
 10
406.519531
 20
134.888977
 30
0.0
 11
406.519531
 21
138.362472
 31
0.0
  0
LINE
  5
12D3
100
AcDbEntity
  8
MSL2_30_3F-7
100
AcDbLine
 10
400.019531
 20
153.638977
 30
0.0
 11
400.019531
 21
136.888977
 31
0.0
1001
GENIUS_GENODEF_13
1002
{
1000
HIER
1070
     0
1002
}
1002
{
1000
MANEDIT
1070
     0
1002
}
1002
{
1000
NOSEL
1070
     0
1002
}
1002
{
1000
BEHIND
1070
     0
1002
}
1002
{
1000
REACTOR
1002
}
1001
GENIUS_GENOBJ-N-CEN_13
1002
{
1000
OWNER
1000
GEN
1002
}
  0
LINE
  5
12D4
100
AcDbEntity
  8
MSL2_30_3F-7
100
AcDbLine
 10
391.519531
 20
131.138977
 30
0.0
 11
391.519531
 21
138.638977
 31
0.0
  0
LINE
  5
12D5
100
AcDbEntity
  8
MSL2_30_3F-7
100
AcDbLine
 10
387.769531
 20
134.888977
 30
0.0
 11
395.269531
 21
134.888977
 31
0.0
  0
CIRCLE
  5
12D6
100
AcDbEntity
  8
MSL2_30_3F-0
100
AcDbCircle
 10
391.519531
 20
134.888977
 30
0.0
 40
2.067
  0
ARC
  5
12D7
100
AcDbEntity
  8
MSL2_30_3F-4
100
AcDbCircle
 10
391.519531
 20
134.888977
 30
0.0
 40
2.5
100
AcDbArc
 50
172.405357
 51
104.931417
  0
LINE
  5
12D8
100
AcDbEntity
  8
MSL2_30_3F-7
100
AcDbLine
 10
406.519531
 20
134.888977
 30
0.0
 11
409.993026
 21
134.888977
 31
0.0
  0
CIRCLE
  5
12D9
100
AcDbEntity
  8
MSL2_30_3F-0
100
AcDbCircle
 10
406.519531
 20
134.854761
 30
0.0
 40
2.5
  0
LINE
  5
12DA
100
AcDbEntity
  8
MSL2_30_3F-7
100
AcDbLine
 10
406.519531
 20
134.888977
 30
0.0
 11
403.046037
 21
134.888977
 31
0.0
  0
LINE
  5
12DB
100
AcDbEntity
  8
MSL2_30_3F-7
100
AcDbLine
 10
406.519531
 20
134.888977
 30
0.0
 11
406.519531
 21
131.415483
 31
0.0
  0
LINE
  5
12DC
100
AcDbEntity
  8
MSL2_30_3F-7
100
AcDbLine
 10
407.769531
 20
145.888977
 30
0.0
 11
392.269531
 21
145.888977
 31
0.0
1001
GENIUS_GENODEF_13
1002
{
1000
HIER
1070
     0
1002
}
1002
{
1000
MANEDIT
1070
     0
1002
}
1002
{
1000
NOSEL
1070
     0
1002
}
1002
{
1000
BEHIND
1070
     0
1002
}
1002
{
1000
REACTOR
1002
}
1001
GENIUS_GENOBJ-N-CEN_13
1002
{
1000
OWNER
1000
GEN
1002
}
  0
CIRCLE
  5
12DD
100
AcDbEntity
  8
MSL2_30_3F-0
100
AcDbCircle
 10
400.019531
 20
145.888977
 30
0.0
 40
5.5
  0
LINE
  5
12DE
100
AcDbEntity
  8
MSL2_30_3F-0
100
AcDbLine
 10
385.369531
 20
139.888977
 30
0.0
 11
385.369531
 21
145.642312
 31
0.0
  0
LINE
  5
12DF
100
AcDbEntity
  8
MSL2_30_3F-0
100
AcDbLine
 10
388.669531
 20
139.888977
 30
0.0
 11
388.669531
 21
145.642312
 31
0.0
  0
LINE
  5
12E0
100
AcDbEntity
  8
MSL2_30_3F-0
100
AcDbLine
 10
398.369531
 20
139.888977
 30
0.0
 11
398.369531
 21
140.642312
 31
0.0
  0
LINE
  5
12E1
100
AcDbEntity
  8
MSL2_30_3F-0
100
AcDbLine
 10
401.669531
 20
139.888977
 30
0.0
 11
401.669531
 21
140.642312
 31
0.0
  0
LINE
  5
12E2
100
AcDbEntity
  8
MSL2_30_3F-7
100
AcDbLine
 10
421.519531
 20
131.138977
 30
0.0
 11
421.519531
 21
138.638977
 31
0.0
  0
LINE
  5
12E3
100
AcDbEntity
  8
MSL2_30_3F-7
100
AcDbLine
 10
417.769531
 20
134.888977
 30
0.0
 11
425.269531
 21
134.888977
 31
0.0
  0
CIRCLE
  5
12E4
100
AcDbEntity
  8
MSL2_30_3F-0
100
AcDbCircle
 10
421.519531
 20
134.888977
 30
0.0
 40
2.067
  0
ARC
  5
12E5
100
AcDbEntity
  8
MSL2_30_3F-4
100
AcDbCircle
 10
421.519531
 20
134.888977
 30
0.0
 40
2.5
100
AcDbArc
 50
172.405357
 51
104.931417
  0
LINE
  5
12E6
100
AcDbEntity
  8
MSL2_30_3F-0
100
AcDbLine
 10
427.669531
 20
139.888977
 30
0.0
 11
438.019531
 21
139.888977
 31
0.0
  0
LINE
  5
12E7
100
AcDbEntity
  8
MSL2_30_3F-0
100
AcDbLine
 10
414.669531
 20
139.888977
 30
0.0
 11
424.369531
 21
139.888977
 31
0.0
  0
LINE
  5
12E8
100
AcDbEntity
  8
MSL2_30_3F-0
100
AcDbLine
 10
443.019531
 20
141.888977
 30
0.0
 11
438.019531
 21
141.888977
 31
0.0
  0
LINE
  5
12E9
100
AcDbEntity
  8
MSL2_30_3F-0
100
AcDbLine
 10
438.019531
 20
141.888977
 30
0.0
 11
438.019531
 21
139.888977
 31
0.0
  0
LINE
  5
12EA
100
AcDbEntity
  8
MSL2_30_3F-0
100
AcDbLine
 10
443.019531
 20
139.888977
 30
0.0
 11
443.019531
 21
141.888977
 31
0.0
  0
ARC
  5
12EB
100
AcDbEntity
  8
MSL2_30_3F-0
100
AcDbCircle
 10
466.41085
 20
157.250193
 30
0.0
 40
3.108681
100
AcDbArc
 50
307.878142
 51
52.121858
  0
LINE
  5
12EC
100
AcDbEntity
  8
MSL2_30_3F-0
100
AcDbLine
 10
466.019531
 20
164.083357
 30
0.0
 11
466.019531
 21
139.888977
 31
0.0
  0
LINE
  5
12ED
100
AcDbEntity
  8
MSL2_30_3F-0
100
AcDbLine
 10
474.519531
 20
156.888977
 30
0.0
 11
469.519531
 21
156.888977
 31
0.0
  0
POLYLINE
  5
12EE
100
AcDbEntity
  8
MSL2_30_3F-0
100
AcDb2dPolyline
 66
     1
 10
0.0
 20
0.0
 30
0.0
  0
VERTEX
  5
12EF
100
AcDbEntity
  8
MSL2_30_3F-0
  6
CONTINUOUS
100
AcDbVertex
100
AcDb2dVertex
 10
481.519531
 20
125.888977
 30
0.0
  0
VERTEX
  5
12F0
100
AcDbEntity
  8
MSL2_30_3F-0
  6
CONTINUOUS
100
AcDbVertex
100
AcDb2dVertex
 10
481.519531
 20
127.888977
 30
0.0
  0
VERTEX
  5
12F1
100
AcDbEntity
  8
MSL2_30_3F-0
  6
CONTINUOUS
100
AcDbVertex
100
AcDb2dVertex
 10
480.519531
 20
128.888977
 30
0.0
  0
VERTEX
  5
12F2
100
AcDbEntity
  8
MSL2_30_3F-0
  6
CONTINUOUS
100
AcDbVertex
100
AcDb2dVertex
 10
466.519531
 20
128.888977
 30
0.0
  0
SEQEND
  5
12F3
100
AcDbEntity
  8
MSL2_30_3F-0
  0
LINE
  5
12F4
100
AcDbEntity
  8
MSL2_30_3F-0
100
AcDbLine
 10
469.519531
 20
142.888977
 30
0.0
 11
474.519531
 21
142.888977
 31
0.0
  0
LINE
  5
12F5
100
AcDbEntity
  8
MSL2_30_3F-0
100
AcDbLine
 10
469.519531
 20
142.527761
 30
0.0
 11
469.519531
 21
157.250193
 31
0.0
  0
ARC
  5
12F6
100
AcDbEntity
  8
MSL2_30_3F-0
100
AcDbCircle
 10
458.884808
 20
149.888977
 30
0.0
 40
10.634722
100
AcDbArc
 50
332.518771
 51
27.481229
  0
LINE
  5
12F7
100
AcDbEntity
  8
MSL2_30_3F-0
100
AcDbLine
 10
468.319531
 20
144.9815
 30
0.0
 11
466.519531
 21
144.9815
 31
0.0
  0
LINE
  5
12F8
100
AcDbEntity
  8
MSL2_30_3F-0
100
AcDbLine
 10
468.319531
 20
140.074022
 30
0.0
 11
466.519531
 21
140.074022
 31
0.0
  0
ARC
  5
12F9
100
AcDbEntity
  8
MSL2_30_3F-0
100
AcDbCircle
 10
466.41085
 20
142.527761
 30
0.0
 40
3.108681
100
AcDbArc
 50
307.878142
 51
52.121858
  0
LINE
  5
12FA
100
AcDbEntity
  8
MSL2_30_3F-0
100
AcDbLine
 10
468.319531
 20
154.796454
 30
0.0
 11
466.519531
 21
154.796454
 31
0.0
  0
LINE
  5
12FB
100
AcDbEntity
  8
MSL2_30_3F-0
100
AcDbLine
 10
480.519531
 20
128.888977
 30
0.0
 11
480.519531
 21
125.888977
 31
0.0
  0
LINE
  5
12FC
100
AcDbEntity
  8
MSL2_30_3F-0
100
AcDbLine
 10
496.619531
 20
155.888977
 30
0.0
 11
486.619531
 21
155.888977
 31
0.0
  0
LINE
  5
12FD
100
AcDbEntity
  8
MSL2_30_3F-0
100
AcDbLine
 10
486.619531
 20
143.888977
 30
0.0
 11
496.619531
 21
143.888977
 31
0.0
  0
LINE
  5
12FE
100
AcDbEntity
  8
MSL2_30_3F-0
100
AcDbLine
 10
474.519531
 20
156.888977
 30
0.0
 11
474.519531
 21
142.888977
 31
0.0
  0
LINE
  5
12FF
100
AcDbEntity
  8
MSL2_30_3F-0
100
AcDbLine
 10
475.519531
 20
143.888977
 30
0.0
 11
475.519531
 21
155.888977
 31
0.0
  0
LINE
  5
1300
100
AcDbEntity
  8
MSL2_30_3F-0
100
AcDbLine
 10
486.619531
 20
155.888977
 30
0.0
 11
486.619531
 21
143.888977
 31
0.0
  0
LINE
  5
1301
100
AcDbEntity
  8
MSL2_30_3F-0
100
AcDbLine
 10
474.519531
 20
142.888977
 30
0.0
 11
475.519531
 21
143.888977
 31
0.0
  0
LINE
  5
1302
100
AcDbEntity
  8
MSL2_30_3F-0
100
AcDbLine
 10
475.519531
 20
151.938977
 30
0.0
 11
486.619531
 21
151.938977
 31
0.0
  0
LINE
  5
1303
100
AcDbEntity
  8
MSL2_30_3F-0
100
AcDbLine
 10
475.519531
 20
147.838977
 30
0.0
 11
486.619531
 21
147.838977
 31
0.0
  0
POLYLINE
  5
1304
100
AcDbEntity
  8
MSL2_30_3F-0
100
AcDb2dPolyline
 66
     1
 10
0.0
 20
0.0
 30
0.0
  0
VERTEX
  5
1305
100
AcDbEntity
  8
MSL2_30_3F-0
  6
CENTER
100
AcDbVertex
100
AcDb2dVertex
 10
476.519531
 20
147.838977
 30
0.0
  0
VERTEX
  5
1306
100
AcDbEntity
  8
MSL2_30_3F-0
  6
CENTER
100
AcDbVertex
100
AcDb2dVertex
 10
482.919531
 20
147.838977
 30
0.0
  0
VERTEX
  5
1307
100
AcDbEntity
  8
MSL2_30_3F-0
  6
CENTER
100
AcDbVertex
100
AcDb2dVertex
 10
482.919531
 20
151.938977
 30
0.0
  0
VERTEX
  5
1308
100
AcDbEntity
  8
MSL2_30_3F-0
  6
CENTER
100
AcDbVertex
100
AcDb2dVertex
 10
476.519531
 20
151.938977
 30
0.0
  0
SEQEND
  5
1309
100
AcDbEntity
  8
MSL2_30_3F-0
  0
LINE
  5
130A
100
AcDbEntity
  8
MSL2_30_3F-0
100
AcDbLine
 10
475.519531
 20
155.888977
 30
0.0
 11
474.519531
 21
156.888977
 31
0.0
  0
LINE
  5
130B
100
AcDbEntity
  8
MSL2_30_3F-0
100
AcDbLine
 10
503.519531
 20
145.888977
 30
0.0
 11
503.519531
 21
153.888977
 31
0.0
  0
ARC
  5
130C
100
AcDbEntity
  8
MSL2_30_3F-0
100
AcDbCircle
 10
508.54194
 20
149.888977
 30
0.0
 40
9.02241
100
AcDbArc
 50
155.421503
 51
204.578497
  0
LINE
  5
130D
100
AcDbEntity
  8
MSL2_30_3F-0
100
AcDbLine
 10
496.619531
 20
143.888977
 30
0.0
 11
496.619531
 21
155.888977
 31
0.0
  0
LINE
  5
130E
100
AcDbEntity
  8
MSL2_30_3F-0
100
AcDbLine
 10
503.519531
 20
142.383423
 30
0.0
 11
503.519531
 21
157.39453
 31
0.0
  0
LINE
  5
130F
100
AcDbEntity
  8
MSL2_30_3F-0
100
AcDbLine
 10
499.519531
 20
144.259811
 30
0.0
 11
499.519531
 21
155.518142
 31
0.0
  0
LINE
  5
1310
100
AcDbEntity
  8
MSL2_30_3F-0
100
AcDbLine
 10
497.619531
 20
144.888977
 30
0.0
 11
497.619531
 21
154.888977
 31
0.0
  0
LINE
  5
1311
100
AcDbEntity
  8
MSL2_30_3F-0
100
AcDbLine
 10
496.619531
 20
143.888977
 30
0.0
 11
497.619531
 21
144.888977
 31
0.0
  0
LINE
  5
1312
100
AcDbEntity
  8
MSL2_30_3F-0
100
AcDbLine
 10
500.337031
 20
146.1362
 30
0.0
 11
503.519531
 21
146.1362
 31
0.0
  0
LINE
  5
1313
100
AcDbEntity
  8
MSL2_30_3F-0
100
AcDbLine
 10
500.337031
 20
142.383423
 30
0.0
 11
503.519531
 21
142.383423
 31
0.0
  0
ARC
  5
1314
100
AcDbEntity
  8
MSL2_30_3F-0
100
AcDbCircle
 10
502.081695
 20
144.259811
 30
0.0
 40
2.562165
100
AcDbArc
 50
132.916664
 51
227.083336
  0
LINE
  5
1315
100
AcDbEntity
  8
MSL2_30_3F-0
100
AcDbLine
 10
497.619531
 20
154.888977
 30
0.0
 11
496.619531
 21
155.888977
 31
0.0
  0
LINE
  5
1316
100
AcDbEntity
  8
MSL2_30_3F-0
100
AcDbLine
 10
503.519531
 20
157.39453
 30
0.0
 11
500.337031
 21
157.39453
 31
0.0
  0
LINE
  5
1317
100
AcDbEntity
  8
MSL2_30_3F-0
100
AcDbLine
 10
500.337031
 20
153.641753
 30
0.0
 11
503.519531
 21
153.641753
 31
0.0
  0
ARC
  5
1318
100
AcDbEntity
  8
MSL2_30_3F-0
100
AcDbCircle
 10
502.081695
 20
155.518142
 30
0.0
 40
2.562165
100
AcDbArc
 50
132.916664
 51
227.083336
  0
LINE
  5
1319
100
AcDbEntity
  8
MSL2_30_3F-0
100
AcDbLine
 10
446.319531
 20
178.224684
 30
0.0
 11
446.319531
 21
164.083357
 31
0.0
  0
LINE
  5
131A
100
AcDbEntity
  8
MSL2_30_3F-7
100
AcDbLine
 10
448.755531
 20
171.218299
 30
0.0
 11
464.483531
 21
171.218299
 31
0.0
1001
GENIUS_GENODEF_13
1002
{
1000
HIER
1070
     0
1002
}
1002
{
1000
MANEDIT
1070
     0
1002
}
1002
{
1000
NOSEL
1070
     0
1002
}
1002
{
1000
BEHIND
1070
     0
1002
}
1002
{
1000
REACTOR
1002
}
1001
GENIUS_GENOBJ-N-CEN_13
1002
{
1000
OWNER
1000
GEN
1002
}
  0
ELLIPSE
  5
131B
100
AcDbEntity
  8
MSL2_30_3F-0
100
AcDbEllipse
 10
456.619531
 20
171.218299
 30
0.0
 11
4.283225000000015
 21
0.0
 31
0.0
210
0.0
220
0.0
230
1.0
 40
0.642788
 41
0.0
 42
6.2831853071796
  0
ELLIPSE
  5
131C
100
AcDbEntity
  8
MSL2_30_3F-4
100
AcDbEllipse
 10
456.619531
 20
171.218299
 30
0.0
 11
4.863999999999919
 21
0.0
 31
0.0
210
0.0
220
0.0
230
1.0
 40
0.642788
 41
-1.626973784062188
 42
3.276869584235753
  0
LINE
  5
131D
100
AcDbEntity
  8
MSL2_30_3F-0
100
AcDbLine
 10
446.319531
 20
164.083357
 30
0.0
 11
466.019531
 21
164.083357
 31
0.0
  0
LINE
  5
131E
100
AcDbEntity
  8
MSL2_30_3F-7
100
AcDbLine
 10
456.619531
 20
165.09178
 30
0.0
 11
456.619531
 21
177.344818
 31
0.0
1001
GENIUS_GENODEF_13
1002
{
1000
HIER
1070
     0
1002
}
1002
{
1000
MANEDIT
1070
     0
1002
}
1002
{
1000
NOSEL
1070
     0
1002
}
1002
{
1000
BEHIND
1070
     0
1002
}
1002
{
1000
REACTOR
1002
}
1001
GENIUS_GENOBJ-N-CEN_13
1002
{
1000
OWNER
1000
GEN
1002
}
  0
LINE
  5
131F
100
AcDbEntity
  8
MSL2_30_3F-0
100
AcDbLine
 10
468.319531
 20
159.703932
 30
0.0
 11
466.519531
 21
159.703932
 31
0.0
  0
LINE
  5
1320
100
AcDbEntity
  8
MSL2_30_3F-0
100
AcDbLine
 10
466.019531
 20
178.224684
 30
0.0
 11
446.319531
 21
178.224684
 31
0.0
  0
LINE
  5
1321
100
AcDbEntity
  8
MSL2_30_3F-0
100
AcDbLine
 10
466.519531
 20
183.888977
 30
0.0
 11
466.019531
 21
183.888977
 31
0.0
  0
LINE
  5
1322
100
AcDbEntity
  8
MSL2_30_3F-0
100
AcDbLine
 10
466.019531
 20
184.888977
 30
0.0
 11
466.019531
 21
178.224684
 31
0.0
  0
LINE
  5
1323
100
AcDbEntity
  8
MSL2_30_3F-0
100
AcDbLine
 10
533.519531
 20
98.888977
 30
0.0
 11
533.519531
 21
183.888977
 31
0.0
  0
LINE
  5
1324
100
AcDbEntity
  8
MSL2_30_3F-0
100
AcDbLine
 10
517.519531
 20
183.888977
 30
0.0
 11
517.519531
 21
98.888977
 31
0.0
  0
LINE
  5
1325
100
AcDbEntity
  8
MSL2_30_3F-7
100
AcDbLine
 10
514.654685
 20
104.888977
 30
0.0
 11
537.673435
 21
104.888977
 31
0.0
  0
LINE
  5
1326
100
AcDbEntity
  8
MSL2_30_3F-7
100
AcDbLine
 10
522.519531
 20
114.28236
 30
0.0
 11
522.519531
 21
95.888977
 31
0.0
  0
LINE
  5
1327
100
AcDbEntity
  8
MSL2_30_3F-7
100
AcDbLine
 10
522.519531
 20
114.28236
 30
0.0
 11
522.519531
 21
95.888977
 31
0.0
  0
LINE
  5
1328
100
AcDbEntity
  8
MSL2_30_3F-0
100
AcDbLine
 10
533.519531
 20
98.888977
 30
0.0
 11
517.519531
 21
98.888977
 31
0.0
  0
LINE
  5
1329
100
AcDbEntity
  8
MSL2_30_3F-7
100
AcDbLine
 10
528.519531
 20
101.138977
 30
0.0
 11
528.519531
 21
108.638977
 31
0.0
  0
ARC
  5
132A
100
AcDbEntity
  8
MSL2_30_3F-4
100
AcDbCircle
 10
528.519531
 20
104.888977
 30
0.0
 40
2.5
100
AcDbArc
 50
172.405357
 51
104.931417
  0
LINE
  5
132B
100
AcDbEntity
  8
MSL2_30_3F-3
100
AcDbLine
 10
520.452531
 20
98.888977
 30
0.0
 11
520.452531
 21
110.088977
 31
0.0
  0
LINE
  5
132C
100
AcDbEntity
  8
MSL2_30_3F-3
100
AcDbLine
 10
520.452531
 20
98.888977
 30
0.0
 11
520.452531
 21
110.088977
 31
0.0
  0
LINE
  5
132D
100
AcDbEntity
  8
MSL2_30_3F-3
100
AcDbLine
 10
524.586531
 20
98.888977
 30
0.0
 11
524.586531
 21
110.088977
 31
0.0
  0
LINE
  5
132E
100
AcDbEntity
  8
MSL2_30_3F-3
100
AcDbLine
 10
524.586531
 20
98.888977
 30
0.0
 11
524.586531
 21
110.088977
 31
0.0
  0
LINE
  5
132F
100
AcDbEntity
  8
MSL2_30_3F-7
100
AcDbLine
 10
524.769531
 20
104.888977
 30
0.0
 11
532.269531
 21
104.888977
 31
0.0
  0
CIRCLE
  5
1330
100
AcDbEntity
  8
MSL2_30_3F-0
100
AcDbCircle
 10
528.519531
 20
104.888977
 30
0.0
 40
2.067
  0
LINE
  5
1331
100
AcDbEntity
  8
MSL2_30_3F-3
100
AcDbLine
 10
525.019531
 20
106.888977
 30
0.0
 11
520.019531
 21
106.888977
 31
0.0
  0
LINE
  5
1332
100
AcDbEntity
  8
MSL2_30_3F-3
100
AcDbLine
 10
525.019531
 20
106.888977
 30
0.0
 11
520.019531
 21
106.888977
 31
0.0
  0
LINE
  5
1333
100
AcDbEntity
  8
MSL2_30_3F-3
100
AcDbLine
 10
520.019531
 20
98.888977
 30
0.0
 11
520.019531
 21
106.888977
 31
0.0
  0
LINE
  5
1334
100
AcDbEntity
  8
MSL2_30_3F-3
100
AcDbLine
 10
520.019531
 20
98.888977
 30
0.0
 11
520.019531
 21
106.888977
 31
0.0
  0
LINE
  5
1335
100
AcDbEntity
  8
MSL2_30_3F-3
100
AcDbLine
 10
525.019531
 20
98.888977
 30
0.0
 11
525.019531
 21
106.888977
 31
0.0
  0
LINE
  5
1336
100
AcDbEntity
  8
MSL2_30_3F-3
100
AcDbLine
 10
525.019531
 20
98.888977
 30
0.0
 11
525.019531
 21
106.888977
 31
0.0
  0
LINE
  5
1337
100
AcDbEntity
  8
MSL2_30_3F-3
100
AcDbLine
 10
522.519531
 20
111.28236
 30
0.0
 11
520.452531
 21
110.088977
 31
0.0
  0
LINE
  5
1338
100
AcDbEntity
  8
MSL2_30_3F-3
100
AcDbLine
 10
522.519531
 20
111.28236
 30
0.0
 11
520.452531
 21
110.088977
 31
0.0
  0
LINE
  5
1339
100
AcDbEntity
  8
MSL2_30_3F-3
100
AcDbLine
 10
522.519531
 20
111.28236
 30
0.0
 11
524.586531
 21
110.088977
 31
0.0
  0
LINE
  5
133A
100
AcDbEntity
  8
MSL2_30_3F-3
100
AcDbLine
 10
522.519531
 20
111.28236
 30
0.0
 11
524.586531
 21
110.088977
 31
0.0
  0
LINE
  5
133B
100
AcDbEntity
  8
MSL2_30_3F-3
100
AcDbLine
 10
524.586531
 20
110.088977
 30
0.0
 11
520.452531
 21
110.088977
 31
0.0
  0
LINE
  5
133C
100
AcDbEntity
  8
MSL2_30_3F-3
100
AcDbLine
 10
524.586531
 20
110.088977
 30
0.0
 11
520.452531
 21
110.088977
 31
0.0
  0
LINE
  5
133D
100
AcDbEntity
  8
MSL2_30_3F-7
100
AcDbLine
 10
514.654685
 20
134.888977
 30
0.0
 11
537.673435
 21
134.888977
 31
0.0
  0
LINE
  5
133E
100
AcDbEntity
  8
MSL2_30_3F-7
100
AcDbLine
 10
528.519531
 20
131.138977
 30
0.0
 11
528.519531
 21
138.638977
 31
0.0
  0
LINE
  5
133F
100
AcDbEntity
  8
MSL2_30_3F-7
100
AcDbLine
 10
524.769531
 20
134.888977
 30
0.0
 11
532.269531
 21
134.888977
 31
0.0
  0
CIRCLE
  5
1340
100
AcDbEntity
  8
MSL2_30_3F-0
100
AcDbCircle
 10
528.519531
 20
134.888977
 30
0.0
 40
2.067
  0
ARC
  5
1341
100
AcDbEntity
  8
MSL2_30_3F-4
100
AcDbCircle
 10
528.519531
 20
134.888977
 30
0.0
 40
2.5
100
AcDbArc
 50
172.405357
 51
104.931417
  0
LINE
  5
1342
100
AcDbEntity
  8
MSL2_30_3F-0
100
AcDbLine
 10
517.519531
 20
154.788977
 30
0.0
 11
533.519531
 21
154.788977
 31
0.0
  0
ARC
  5
1343
100
AcDbEntity
  8
MSL2_30_3F-0
100
AcDbCircle
 10
521.229253
 20
149.888977
 30
0.0
 40
7.709722
100
AcDbArc
 50
150.872218
 51
209.127782
  0
ARC
  5
1344
100
AcDbEntity
  8
MSL2_30_3F-0
100
AcDbCircle
 10
509.809808
 20
149.888977
 30
0.0
 40
7.709722
100
AcDbArc
 50
330.872216
 51
29.127784
  0
LINE
  5
1345
100
AcDbEntity
  8
MSL2_30_3F-0
100
AcDbLine
 10
513.519531
 20
144.259811
 30
0.0
 11
513.519531
 21
155.518142
 31
0.0
  0
LINE
  5
1346
100
AcDbEntity
  8
MSL2_30_3F-0
100
AcDbLine
 10
517.519531
 20
144.259811
 30
0.0
 11
517.519531
 21
155.518142
 31
0.0
  0
LINE
  5
1347
100
AcDbEntity
  8
MSL2_30_3F-0
100
AcDbLine
 10
516.544531
 20
146.1362
 30
0.0
 11
514.494531
 21
146.1362
 31
0.0
  0
LINE
  5
1348
100
AcDbEntity
  8
MSL2_30_3F-0
100
AcDbLine
 10
516.544531
 20
142.383423
 30
0.0
 11
514.494531
 21
142.383423
 31
0.0
  0
ARC
  5
1349
100
AcDbEntity
  8
MSL2_30_3F-0
100
AcDbCircle
 10
515.812586
 20
144.259811
 30
0.0
 40
2.293056
100
AcDbArc
 50
125.085848
 51
234.914152
  0
ARC
  5
134A
100
AcDbEntity
  8
MSL2_30_3F-0
100
AcDbCircle
 10
515.226475
 20
144.259811
 30
0.0
 40
2.293056
100
AcDbArc
 50
305.085847
 51
54.914153
  0
LINE
  5
134B
100
AcDbEntity
  8
MSL2_30_3F-0
100
AcDbLine
 10
516.544531
 20
157.39453
 30
0.0
 11
514.494531
 21
157.39453
 31
0.0
  0
LINE
  5
134C
100
AcDbEntity
  8
MSL2_30_3F-0
100
AcDbLine
 10
516.544531
 20
153.641753
 30
0.0
 11
514.494531
 21
153.641753
 31
0.0
  0
ARC
  5
134D
100
AcDbEntity
  8
MSL2_30_3F-0
100
AcDbCircle
 10
515.812586
 20
155.518142
 30
0.0
 40
2.293056
100
AcDbArc
 50
125.085848
 51
234.914152
  0
ARC
  5
134E
100
AcDbEntity
  8
MSL2_30_3F-0
100
AcDbCircle
 10
515.226475
 20
155.518142
 30
0.0
 40
2.293056
100
AcDbArc
 50
305.085847
 51
54.914153
  0
LINE
  5
134F
100
AcDbEntity
  8
MSL2_30_3F-0
100
AcDbLine
 10
533.519531
 20
183.888977
 30
0.0
 11
517.519531
 21
183.888977
 31
0.0
  0
LINE
  5
1350
100
AcDbEntity
  8
MSL2_30_3F-7
100
AcDbLine
 10
536.868416
 20
269.888977
 30
0.0
 11
461.795648
 21
269.888977
 31
0.0
  0
LINE
  5
1351
100
AcDbEntity
  8
MSL2_30_3F-7
100
AcDbLine
 10
536.868416
 20
242.388977
 30
0.0
 11
461.795648
 21
242.388977
 31
0.0
  0
LINE
  5
1352
100
AcDbEntity
  8
MSL2_30_3F-7
100
AcDbLine
 10
536.868416
 20
297.388977
 30
0.0
 11
461.795648
 21
297.388977
 31
0.0
  0
LINE
  5
1353
100
AcDbEntity
  8
MSL2_30_3F-0
100
AcDbLine
 10
517.519531
 20
248.388977
 30
0.0
 11
466.519531
 21
248.388977
 31
0.0
  0
LINE
  5
1354
100
AcDbEntity
  8
MSL2_30_3F-0
100
AcDbLine
 10
466.519531
 20
236.388977
 30
0.0
 11
517.519531
 21
236.388977
 31
0.0
  0
LINE
  5
1355
100
AcDbEntity
  8
MSL2_30_3F-0
100
AcDbLine
 10
517.519531
 20
272.888977
 30
0.0
 11
481.519531
 21
272.888977
 31
0.0
  0
LINE
  5
1356
100
AcDbEntity
  8
MSL2_30_3F-0
100
AcDbLine
 10
481.519531
 20
266.888977
 30
0.0
 11
517.519531
 21
266.888977
 31
0.0
  0
LINE
  5
1357
100
AcDbEntity
  8
MSL2_30_3F-0
100
AcDbLine
 10
517.519531
 20
275.888977
 30
0.0
 11
481.519531
 21
275.888977
 31
0.0
  0
LINE
  5
1358
100
AcDbEntity
  8
MSL2_30_3F-0
100
AcDbLine
 10
481.519531
 20
263.888977
 30
0.0
 11
517.519531
 21
263.888977
 31
0.0
  0
LINE
  5
1359
100
AcDbEntity
  8
MSL2_30_3F-0
100
AcDbLine
 10
517.519531
 20
303.388977
 30
0.0
 11
466.519531
 21
303.388977
 31
0.0
  0
LINE
  5
135A
100
AcDbEntity
  8
MSL2_30_3F-0
100
AcDbLine
 10
466.519531
 20
291.388977
 30
0.0
 11
517.519531
 21
291.388977
 31
0.0
  0
LINE
  5
135B
100
AcDbEntity
  8
MSL2_30_3F-7
100
AcDbLine
 10
406.519531
 20
281.340744
 30
0.0
 11
406.519531
 21
258.524172
 31
0.0
  0
LINE
  5
135C
100
AcDbEntity
  8
MSL2_30_3F-7
100
AcDbLine
 10
391.519531
 20
242.369691
 30
0.0
 11
391.519531
 21
225.823323
 31
0.0
  0
LINE
  5
135D
100
AcDbEntity
  8
MSL2_30_3F-7
100
AcDbLine
 10
406.519531
 20
242.369691
 30
0.0
 11
406.519531
 21
225.823323
 31
0.0
  0
LINE
  5
135E
100
AcDbEntity
  8
MSL2_30_3F-7
100
AcDbLine
 10
421.519531
 20
242.369691
 30
0.0
 11
421.519531
 21
225.823323
 31
0.0
  0
LINE
  5
135F
100
AcDbEntity
  8
MSL2_30_3F-7
100
AcDbLine
 10
387.769531
 20
254.888977
 30
0.0
 11
395.269531
 21
254.888977
 31
0.0
  0
ARC
  5
1360
100
AcDbEntity
  8
MSL2_30_3F-4
100
AcDbCircle
 10
391.519531
 20
254.888977
 30
0.0
 40
2.5
100
AcDbArc
 50
172.405357
 51
104.931417
  0
CIRCLE
  5
1361
100
AcDbEntity
  8
MSL2_30_3F-0
100
AcDbCircle
 10
391.519531
 20
254.888977
 30
0.0
 40
2.067
  0
LINE
  5
1362
100
AcDbEntity
  8
MSL2_30_3F-7
100
AcDbLine
 10
391.519531
 20
251.138977
 30
0.0
 11
391.519531
 21
258.638977
 31
0.0
  0
LINE
  5
1363
100
AcDbEntity
  8
MSL2_30_3F-7
100
AcDbLine
 10
406.519531
 20
254.888977
 30
0.0
 11
410.126725
 21
254.888977
 31
0.0
  0
CIRCLE
  5
1364
100
AcDbEntity
  8
MSL2_30_3F-0
100
AcDbCircle
 10
406.519531
 20
254.888977
 30
0.0
 40
2.5
  0
LINE
  5
1365
100
AcDbEntity
  8
MSL2_30_3F-7
100
AcDbLine
 10
406.519531
 20
254.888977
 30
0.0
 11
402.912337
 21
254.888977
 31
0.0
  0
LINE
  5
1366
100
AcDbEntity
  8
MSL2_30_3F-7
100
AcDbLine
 10
406.519531
 20
254.888977
 30
0.0
 11
406.519531
 21
251.281784
 31
0.0
  0
LINE
  5
1367
100
AcDbEntity
  8
MSL2_30_3F-7
100
AcDbLine
 10
406.519531
 20
254.888977
 30
0.0
 11
406.519531
 21
258.496171
 31
0.0
  0
LINE
  5
1368
100
AcDbEntity
  8
MSL2_30_3F-7
100
AcDbLine
 10
417.769531
 20
254.888977
 30
0.0
 11
425.269531
 21
254.888977
 31
0.0
  0
CIRCLE
  5
1369
100
AcDbEntity
  8
MSL2_30_3F-0
100
AcDbCircle
 10
421.519531
 20
254.888977
 30
0.0
 40
2.067
  0
ARC
  5
136A
100
AcDbEntity
  8
MSL2_30_3F-4
100
AcDbCircle
 10
421.519531
 20
254.888977
 30
0.0
 40
2.5
100
AcDbArc
 50
172.405357
 51
104.931417
  0
LINE
  5
136B
100
AcDbEntity
  8
MSL2_30_3F-7
100
AcDbLine
 10
421.519531
 20
251.138977
 30
0.0
 11
421.519531
 21
258.638977
 31
0.0
  0
LINE
  5
136C
100
AcDbEntity
  8
MSL2_30_3F-0
100
AcDbLine
 10
480.519531
 20
278.888977
 30
0.0
 11
466.519531
 21
278.888977
 31
0.0
  0
LINE
  5
136D
100
AcDbEntity
  8
MSL2_30_3F-0
100
AcDbLine
 10
466.519531
 20
260.888977
 30
0.0
 11
480.519531
 21
260.888977
 31
0.0
  0
LINE
  5
136E
100
AcDbEntity
  8
MSL2_30_3F-0
100
AcDbLine
 10
481.519531
 20
261.888977
 30
0.0
 11
481.519531
 21
277.888977
 31
0.0
  0
LINE
  5
136F
100
AcDbEntity
  8
MSL2_30_3F-0
100
AcDbLine
 10
480.519531
 20
260.888977
 30
0.0
 11
480.519531
 21
278.888977
 31
0.0
  0
LINE
  5
1370
100
AcDbEntity
  8
MSL2_30_3F-0
100
AcDbLine
 10
480.519531
 20
260.888977
 30
0.0
 11
481.519531
 21
261.888977
 31
0.0
  0
LINE
  5
1371
100
AcDbEntity
  8
MSL2_30_3F-0
100
AcDbLine
 10
481.519531
 20
277.888977
 30
0.0
 11
480.519531
 21
278.888977
 31
0.0
  0
LINE
  5
1372
100
AcDbEntity
  8
MSL2_30_3F-7
100
AcDbLine
 10
406.519531
 20
313.606162
 30
0.0
 11
406.519531
 21
297.408138
 31
0.0
  0
LINE
  5
1373
100
AcDbEntity
  8
MSL2_30_3F-7
100
AcDbLine
 10
391.519531
 20
313.606162
 30
0.0
 11
391.519531
 21
297.408138
 31
0.0
  0
CIRCLE
  5
1374
100
AcDbEntity
  8
MSL2_30_3F-0
100
AcDbCircle
 10
391.519531
 20
284.888977
 30
0.0
 40
2.067
  0
LINE
  5
1375
100
AcDbEntity
  8
MSL2_30_3F-7
100
AcDbLine
 10
387.769531
 20
284.888977
 30
0.0
 11
395.269531
 21
284.888977
 31
0.0
  0
ARC
  5
1376
100
AcDbEntity
  8
MSL2_30_3F-4
100
AcDbCircle
 10
391.519531
 20
284.888977
 30
0.0
 40
2.5
100
AcDbArc
 50
172.405357
 51
104.931417
  0
LINE
  5
1377
100
AcDbEntity
  8
MSL2_30_3F-7
100
AcDbLine
 10
391.519531
 20
281.138977
 30
0.0
 11
391.519531
 21
288.638977
 31
0.0
  0
LINE
  5
1378
100
AcDbEntity
  8
MSL2_30_3F-7
100
AcDbLine
 10
406.519531
 20
284.888977
 30
0.0
 11
409.993026
 21
284.888977
 31
0.0
  0
CIRCLE
  5
1379
100
AcDbEntity
  8
MSL2_30_3F-0
100
AcDbCircle
 10
406.519531
 20
284.854761
 30
0.0
 40
2.5
  0
LINE
  5
137A
100
AcDbEntity
  8
MSL2_30_3F-7
100
AcDbLine
 10
406.519531
 20
284.888977
 30
0.0
 11
406.519531
 21
281.415483
 31
0.0
  0
LINE
  5
137B
100
AcDbEntity
  8
MSL2_30_3F-7
100
AcDbLine
 10
406.519531
 20
284.888977
 30
0.0
 11
403.046037
 21
284.888977
 31
0.0
  0
LINE
  5
137C
100
AcDbEntity
  8
MSL2_30_3F-7
100
AcDbLine
 10
406.519531
 20
284.888977
 30
0.0
 11
406.519531
 21
288.362472
 31
0.0
  0
LINE
  5
137D
100
AcDbEntity
  8
MSL2_30_3F-0
100
AcDbLine
 10
404.019531
 20
313.888977
 30
0.0
 11
396.019531
 21
313.888977
 31
0.0
  0
LINE
  5
137E
100
AcDbEntity
  8
MSL2_30_3F-7
100
AcDbLine
 10
387.019531
 20
307.190593
 30
0.0
 11
387.019531
 21
315.881811
 31
0.0
  0
ARC
  5
137F
100
AcDbEntity
  8
MSL2_30_3F-0
100
AcDbCircle
 10
391.019531
 20
312.388977
 30
0.0
 40
1.5
100
AcDbArc
 50
359.999998
 51
90.000001
  0
LINE
  5
1380
100
AcDbEntity
  8
MSL2_30_3F-0
100
AcDbLine
 10
392.519531
 20
309.888977
 30
0.0
 11
392.519531
 21
312.388977
 31
0.0
  0
LINE
  5
1381
100
AcDbEntity
  8
MSL2_30_3F-0
100
AcDbLine
 10
394.519531
 20
312.388977
 30
0.0
 11
394.519531
 21
309.888977
 31
0.0
  0
ARC
  5
1382
100
AcDbEntity
  8
MSL2_30_3F-0
100
AcDbCircle
 10
396.019531
 20
312.388977
 30
0.0
 40
1.5
100
AcDbArc
 50
90.000001
 51
180.0
  0
LINE
  5
1383
100
AcDbEntity
  8
MSL2_30_3F-7
100
AcDbLine
 10
400.019531
 20
307.190593
 30
0.0
 11
400.019531
 21
315.881811
 31
0.0
  0
LINE
  5
1384
100
AcDbEntity
  8
MSL2_30_3F-0
100
AcDbLine
 10
405.519531
 20
309.888977
 30
0.0
 11
405.519531
 21
312.388977
 31
0.0
  0
ARC
  5
1385
100
AcDbEntity
  8
MSL2_30_3F-0
100
AcDbCircle
 10
404.019531
 20
312.388977
 30
0.0
 40
1.5
100
AcDbArc
 50
359.999998
 51
90.000001
  0
LINE
  5
1386
100
AcDbEntity
  8
MSL2_30_3F-7
100
AcDbLine
 10
421.519531
 20
313.606162
 30
0.0
 11
421.519531
 21
297.408138
 31
0.0
  0
CIRCLE
  5
1387
100
AcDbEntity
  8
MSL2_30_3F-0
100
AcDbCircle
 10
421.519531
 20
284.888977
 30
0.0
 40
2.067
  0
LINE
  5
1388
100
AcDbEntity
  8
MSL2_30_3F-7
100
AcDbLine
 10
417.769531
 20
284.888977
 30
0.0
 11
425.269531
 21
284.888977
 31
0.0
  0
ARC
  5
1389
100
AcDbEntity
  8
MSL2_30_3F-4
100
AcDbCircle
 10
421.519531
 20
284.888977
 30
0.0
 40
2.5
100
AcDbArc
 50
172.405357
 51
104.931417
  0
LINE
  5
138A
100
AcDbEntity
  8
MSL2_30_3F-7
100
AcDbLine
 10
421.519531
 20
281.138977
 30
0.0
 11
421.519531
 21
288.638977
 31
0.0
  0
LINE
  5
138B
100
AcDbEntity
  8
MSL2_30_3F-0
100
AcDbLine
 10
517.519531
 20
310.888977
 30
0.0
 11
517.519531
 21
228.888977
 31
0.0
  0
LINE
  5
138C
100
AcDbEntity
  8
MSL2_30_3F-0
100
AcDbLine
 10
533.519531
 20
228.888977
 30
0.0
 11
533.519531
 21
310.888977
 31
0.0
  0
LINE
  5
138D
100
AcDbEntity
  8
MSL2_30_3F-3
100
AcDbLine
 10
530.586531
 20
228.888977
 30
0.0
 11
530.586531
 21
240.088977
 31
0.0
  0
LINE
  5
138E
100
AcDbEntity
  8
MSL2_30_3F-3
100
AcDbLine
 10
530.586531
 20
228.888977
 30
0.0
 11
530.586531
 21
240.088977
 31
0.0
  0
LINE
  5
138F
100
AcDbEntity
  8
MSL2_30_3F-3
100
AcDbLine
 10
526.452531
 20
228.888977
 30
0.0
 11
526.452531
 21
240.088977
 31
0.0
  0
LINE
  5
1390
100
AcDbEntity
  8
MSL2_30_3F-3
100
AcDbLine
 10
526.452531
 20
228.888977
 30
0.0
 11
526.452531
 21
240.088977
 31
0.0
  0
LINE
  5
1391
100
AcDbEntity
  8
MSL2_30_3F-7
100
AcDbLine
 10
528.519531
 20
244.28236
 30
0.0
 11
528.519531
 21
225.888977
 31
0.0
  0
LINE
  5
1392
100
AcDbEntity
  8
MSL2_30_3F-7
100
AcDbLine
 10
528.519531
 20
244.28236
 30
0.0
 11
528.519531
 21
225.888977
 31
0.0
  0
LINE
  5
1393
100
AcDbEntity
  8
MSL2_30_3F-0
100
AcDbLine
 10
517.519531
 20
228.888977
 30
0.0
 11
533.519531
 21
228.888977
 31
0.0
  0
LINE
  5
1394
100
AcDbEntity
  8
MSL2_30_3F-3
100
AcDbLine
 10
526.019531
 20
236.888977
 30
0.0
 11
531.019531
 21
236.888977
 31
0.0
  0
LINE
  5
1395
100
AcDbEntity
  8
MSL2_30_3F-3
100
AcDbLine
 10
526.019531
 20
236.888977
 30
0.0
 11
531.019531
 21
236.888977
 31
0.0
  0
LINE
  5
1396
100
AcDbEntity
  8
MSL2_30_3F-3
100
AcDbLine
 10
526.019531
 20
228.888977
 30
0.0
 11
526.019531
 21
236.888977
 31
0.0
  0
LINE
  5
1397
100
AcDbEntity
  8
MSL2_30_3F-3
100
AcDbLine
 10
526.019531
 20
228.888977
 30
0.0
 11
526.019531
 21
236.888977
 31
0.0
  0
LINE
  5
1398
100
AcDbEntity
  8
MSL2_30_3F-3
100
AcDbLine
 10
531.019531
 20
228.888977
 30
0.0
 11
531.019531
 21
236.888977
 31
0.0
  0
LINE
  5
1399
100
AcDbEntity
  8
MSL2_30_3F-3
100
AcDbLine
 10
531.019531
 20
228.888977
 30
0.0
 11
531.019531
 21
236.888977
 31
0.0
  0
LINE
  5
139A
100
AcDbEntity
  8
MSL2_30_3F-7
100
AcDbLine
 10
536.868416
 20
254.888977
 30
0.0
 11
513.749197
 21
254.888977
 31
0.0
  0
LINE
  5
139B
100
AcDbEntity
  8
MSL2_30_3F-7
100
AcDbLine
 10
518.769531
 20
244.888977
 30
0.0
 11
526.269531
 21
244.888977
 31
0.0
  0
LINE
  5
139C
100
AcDbEntity
  8
MSL2_30_3F-3
100
AcDbLine
 10
526.452531
 20
240.088977
 30
0.0
 11
530.586531
 21
240.088977
 31
0.0
  0
LINE
  5
139D
100
AcDbEntity
  8
MSL2_30_3F-3
100
AcDbLine
 10
526.452531
 20
240.088977
 30
0.0
 11
530.586531
 21
240.088977
 31
0.0
  0
LINE
  5
139E
100
AcDbEntity
  8
MSL2_30_3F-3
100
AcDbLine
 10
528.519531
 20
241.28236
 30
0.0
 11
526.452531
 21
240.088977
 31
0.0
  0
LINE
  5
139F
100
AcDbEntity
  8
MSL2_30_3F-3
100
AcDbLine
 10
528.519531
 20
241.28236
 30
0.0
 11
526.452531
 21
240.088977
 31
0.0
  0
ARC
  5
13A0
100
AcDbEntity
  8
MSL2_30_3F-4
100
AcDbCircle
 10
522.519531
 20
244.888977
 30
0.0
 40
2.5
100
AcDbArc
 50
172.405357
 51
104.931417
  0
CIRCLE
  5
13A1
100
AcDbEntity
  8
MSL2_30_3F-0
100
AcDbCircle
 10
522.519531
 20
244.888977
 30
0.0
 40
2.067
  0
LINE
  5
13A2
100
AcDbEntity
  8
MSL2_30_3F-7
100
AcDbLine
 10
522.519531
 20
241.138977
 30
0.0
 11
522.519531
 21
248.638977
 31
0.0
  0
LINE
  5
13A3
100
AcDbEntity
  8
MSL2_30_3F-3
100
AcDbLine
 10
528.519531
 20
241.28236
 30
0.0
 11
530.586531
 21
240.088977
 31
0.0
  0
LINE
  5
13A4
100
AcDbEntity
  8
MSL2_30_3F-3
100
AcDbLine
 10
528.519531
 20
241.28236
 30
0.0
 11
530.586531
 21
240.088977
 31
0.0
  0
LINE
  5
13A5
100
AcDbEntity
  8
MSL2_30_3F-7
100
AcDbLine
 10
536.868416
 20
284.888977
 30
0.0
 11
513.749197
 21
284.888977
 31
0.0
  0
LINE
  5
13A6
100
AcDbEntity
  8
MSL2_30_3F-3
100
AcDbLine
 10
528.519531
 20
298.495594
 30
0.0
 11
530.586531
 21
299.688977
 31
0.0
  0
LINE
  5
13A7
100
AcDbEntity
  8
MSL2_30_3F-3
100
AcDbLine
 10
528.519531
 20
298.495594
 30
0.0
 11
530.586531
 21
299.688977
 31
0.0
  0
LINE
  5
13A8
100
AcDbEntity
  8
MSL2_30_3F-3
100
AcDbLine
 10
528.519531
 20
298.495594
 30
0.0
 11
526.452531
 21
299.688977
 31
0.0
  0
LINE
  5
13A9
100
AcDbEntity
  8
MSL2_30_3F-3
100
AcDbLine
 10
528.519531
 20
298.495594
 30
0.0
 11
526.452531
 21
299.688977
 31
0.0
  0
LINE
  5
13AA
100
AcDbEntity
  8
MSL2_30_3F-7
100
AcDbLine
 10
528.519531
 20
295.495594
 30
0.0
 11
528.519531
 21
313.888977
 31
0.0
  0
LINE
  5
13AB
100
AcDbEntity
  8
MSL2_30_3F-7
100
AcDbLine
 10
528.519531
 20
295.495594
 30
0.0
 11
528.519531
 21
313.888977
 31
0.0
  0
LINE
  5
13AC
100
AcDbEntity
  8
MSL2_30_3F-7
100
AcDbLine
 10
518.769531
 20
294.888977
 30
0.0
 11
526.269531
 21
294.888977
 31
0.0
  0
CIRCLE
  5
13AD
100
AcDbEntity
  8
MSL2_30_3F-0
100
AcDbCircle
 10
522.519531
 20
294.888977
 30
0.0
 40
2.067
  0
LINE
  5
13AE
100
AcDbEntity
  8
MSL2_30_3F-7
100
AcDbLine
 10
522.519531
 20
291.138977
 30
0.0
 11
522.519531
 21
298.638977
 31
0.0
  0
ARC
  5
13AF
100
AcDbEntity
  8
MSL2_30_3F-4
100
AcDbCircle
 10
522.519531
 20
294.888977
 30
0.0
 40
2.5
100
AcDbArc
 50
172.405357
 51
104.931417
  0
LINE
  5
13B0
100
AcDbEntity
  8
MSL2_30_3F-0
100
AcDbLine
 10
533.519531
 20
310.888977
 30
0.0
 11
517.519531
 21
310.888977
 31
0.0
  0
LINE
  5
13B1
100
AcDbEntity
  8
MSL2_30_3F-3
100
AcDbLine
 10
531.019531
 20
310.888977
 30
0.0
 11
531.019531
 21
302.888977
 31
0.0
  0
LINE
  5
13B2
100
AcDbEntity
  8
MSL2_30_3F-3
100
AcDbLine
 10
531.019531
 20
310.888977
 30
0.0
 11
531.019531
 21
302.888977
 31
0.0
  0
LINE
  5
13B3
100
AcDbEntity
  8
MSL2_30_3F-3
100
AcDbLine
 10
526.019531
 20
310.888977
 30
0.0
 11
526.019531
 21
302.888977
 31
0.0
  0
LINE
  5
13B4
100
AcDbEntity
  8
MSL2_30_3F-3
100
AcDbLine
 10
526.019531
 20
310.888977
 30
0.0
 11
526.019531
 21
302.888977
 31
0.0
  0
LINE
  5
13B5
100
AcDbEntity
  8
MSL2_30_3F-3
100
AcDbLine
 10
526.452531
 20
310.888977
 30
0.0
 11
526.452531
 21
299.688977
 31
0.0
  0
LINE
  5
13B6
100
AcDbEntity
  8
MSL2_30_3F-3
100
AcDbLine
 10
526.452531
 20
310.888977
 30
0.0
 11
526.452531
 21
299.688977
 31
0.0
  0
LINE
  5
13B7
100
AcDbEntity
  8
MSL2_30_3F-3
100
AcDbLine
 10
530.586531
 20
310.888977
 30
0.0
 11
530.586531
 21
299.688977
 31
0.0
  0
LINE
  5
13B8
100
AcDbEntity
  8
MSL2_30_3F-3
100
AcDbLine
 10
530.586531
 20
310.888977
 30
0.0
 11
530.586531
 21
299.688977
 31
0.0
  0
LINE
  5
13B9
100
AcDbEntity
  8
MSL2_30_3F-3
100
AcDbLine
 10
526.019531
 20
302.888977
 30
0.0
 11
531.019531
 21
302.888977
 31
0.0
  0
LINE
  5
13BA
100
AcDbEntity
  8
MSL2_30_3F-3
100
AcDbLine
 10
526.019531
 20
302.888977
 30
0.0
 11
531.019531
 21
302.888977
 31
0.0
  0
LINE
  5
13BB
100
AcDbEntity
  8
MSL2_30_3F-3
100
AcDbLine
 10
526.452531
 20
299.688977
 30
0.0
 11
530.586531
 21
299.688977
 31
0.0
  0
LINE
  5
13BC
100
AcDbEntity
  8
MSL2_30_3F-3
100
AcDbLine
 10
526.452531
 20
299.688977
 30
0.0
 11
530.586531
 21
299.688977
 31
0.0
  0
POINT
  5
13BD
100
AcDbEntity
  8
0
 60
     1
100
AcDbPoint
 10
0.0
 20
0.0
 30
0.0
1001
GENIUS_GENBH_13
1002
{
1000
FGO
1005
0
1002
}
1001
GENIUS_GENODEF_13
1002
{
1000
HIER
1070
     1
1002
}
1002
{
1000
MANEDIT
1070
     0
1002
}
1002
{
1000
NOSEL
1070
     1
1002
}
1002
{
1000
BEHIND
1070
     0
1002
}
1002
{
1000
REACTOR
1002
}
1001
GENIUS_GENOBJ-NBEHI-BHB_13
1002
{
1000
OWNER
1000
GENBEHI
1002
}
1001
GENIUS_GENOENT_13
1002
{
1000
MYREF
1005
13BD
1002
}
1002
{
1000
GRP
1005
0
1002
}
1001
GENIUS_GENOLIS_13
1002
{
1000
ENT
1005
1259
1005
1255
1005
125A
1005
1254
1005
1203
1005
1202
1005
FD6
1005
1256
1005
1257
1002
}
  0
POINT
  5
13BE
100
AcDbEntity
  8
0
 60
     1
100
AcDbPoint
 10
0.0
 20
0.0
 30
0.0
1001
GENIUS_GENBH_13
1002
{
1000
FGO
1005
0
1002
}
1001
GENIUS_GENODEF_13
1002
{
1000
HIER
1070
     1
1002
}
1002
{
1000
MANEDIT
1070
     0
1002
}
1002
{
1000
NOSEL
1070
     1
1002
}
1002
{
1000
BEHIND
1070
     0
1002
}
1002
{
1000
REACTOR
1002
}
1001
GENIUS_GENOBJ-NBEHI-BHB_13
1002
{
1000
OWNER
1000
GENBEHI
1002
}
1001
GENIUS_GENOENT_13
1002
{
1000
MYREF
1005
13BE
1002
}
1002
{
1000
GRP
1005
0
1002
}
1001
GENIUS_GENOLIS_13
1002
{
1000
ENT
1005
10AD
1005
10A5
1005
10AB
1005
10A4
1005
10A7
1005
10AC
1005
FD6
1005
10A9
1005
10A8
1002
}
  0
ENDSEC
  0
SECTION
  2
OBJECTS
  0
DICTIONARY
  5
1A
100
AcDbDictionary
  3
ACAD_GROUP
350
18
  3
ACAD_MLINESTYLE
350
19
  0
DICTIONARY
  5
18
102
{ACAD_REACTORS
330
1A
102
}
100
AcDbDictionary
  0
DICTIONARY
  5
19
102
{ACAD_REACTORS
330
1A
102
}
100
AcDbDictionary
  3
STANDARD
350
1C
  0
MLINESTYLE
  5
1C
102
{ACAD_REACTORS
330
19
102
}
100
AcDbMlineStyle
  2
STANDARD
 70
     0
  3

 62
     0
 51
90.0
 52
90.0
 71
     2
 49
0.5
 62
   256
  6
BYLAYER
 49
-0.5
 62
   256
  6
BYLAYER
  0
ENDSEC
  0
EOF
