ISO-10303-21;
HEADER;
/****************************************************************
 * Generated by software with PDElib inside                    *
 * PDElib Version v51a, created Wed 07/06/2011                  *
 * ITI Transcendata (http://www.transcendata.com/)              *
 ****************************************************************/
FILE_DESCRIPTION((''),'2;1');
FILE_NAME('M:\\Module\\Internet-Daten\\MSL-F + MSF\\STEP\\MSF-12.stp','2012-10-05T14:04:03',('hartung_david'),(''),'Autodesk Inventor 2012','Autodesk Inventor 2012','');
FILE_SCHEMA(('AUTOMOTIVE_DESIGN { 1 0 10303 214 1 1 1 1 }'));
ENDSEC;
DATA;
#5=APPLICATION_CONTEXT('automotive design');
#6=APPLICATION_PROTOCOL_DEFINITION('International Standard','automotive_design',2001,#5);
#7=PRODUCT_CONTEXT('',#5,'mechanical');
#8=PRODUCT('MSF-12','MSF-12',$,(#7));
#9=PRODUCT_RELATED_PRODUCT_CATEGORY('part',$,(#8));
#10=PRODUCT_DEFINITION_FORMATION('',$,#8);
#11=PRODUCT_DEFINITION_CONTEXT('part definition',#5,'design');
#12=PRODUCT_DEFINITION('',$,#10,#11);
#18=(NAMED_UNIT(*)PLANE_ANGLE_UNIT()SI_UNIT($,.RADIAN.));
#19=DIMENSIONAL_EXPONENTS(0.0,0.0,0.0,0.0,0.0,0.0,0.0);
#20=PLANE_ANGLE_MEASURE_WITH_UNIT(PLANE_ANGLE_MEASURE(0.0174532925),#18);
#24=(CONVERSION_BASED_UNIT('DEGREE',#20)NAMED_UNIT(#19)PLANE_ANGLE_UNIT());
#28=(NAMED_UNIT(*)SI_UNIT($,.STERADIAN.)SOLID_ANGLE_UNIT());
#32=(LENGTH_UNIT()NAMED_UNIT(*)SI_UNIT(.MILLI.,.METRE.));
#34=UNCERTAINTY_MEASURE_WITH_UNIT(LENGTH_MEASURE(0.01),#32,'DISTANCE_ACCURACY_VALUE','');
#36=(GEOMETRIC_REPRESENTATION_CONTEXT(3)GLOBAL_UNCERTAINTY_ASSIGNED_CONTEXT((#34))GLOBAL_UNIT_ASSIGNED_CONTEXT((#24,#28,#32))REPRESENTATION_CONTEXT('None','None'));
#37=AXIS2_PLACEMENT_3D('',#38,#39,#40);
#38=CARTESIAN_POINT('',(0.0,0.0,0.0));
#39=DIRECTION('',(0.0,0.0,1.0));
#40=DIRECTION('',(1.0,0.0,0.0));
#41=SHAPE_REPRESENTATION('',(#37),#36);
#42=PRODUCT_DEFINITION_SHAPE('','',#12);
#43=SHAPE_DEFINITION_REPRESENTATION(#42,#41);
#49=(NAMED_UNIT(*)PLANE_ANGLE_UNIT()SI_UNIT($,.RADIAN.));
#50=DIMENSIONAL_EXPONENTS(0.0,0.0,0.0,0.0,0.0,0.0,0.0);
#51=PLANE_ANGLE_MEASURE_WITH_UNIT(PLANE_ANGLE_MEASURE(0.0174532925),#49);
#55=(CONVERSION_BASED_UNIT('DEGREE',#51)NAMED_UNIT(#50)PLANE_ANGLE_UNIT());
#59=(NAMED_UNIT(*)SI_UNIT($,.STERADIAN.)SOLID_ANGLE_UNIT());
#63=(LENGTH_UNIT()NAMED_UNIT(*)SI_UNIT(.MILLI.,.METRE.));
#65=UNCERTAINTY_MEASURE_WITH_UNIT(LENGTH_MEASURE(0.000001),#63,'DISTANCE_ACCURACY_VALUE','');
#67=(GEOMETRIC_REPRESENTATION_CONTEXT(3)GLOBAL_UNCERTAINTY_ASSIGNED_CONTEXT((#65))GLOBAL_UNIT_ASSIGNED_CONTEXT((#55,#59,#63))REPRESENTATION_CONTEXT('','3D'));
#68=CARTESIAN_POINT('',(0.0,0.0,17.5));
#69=DIRECTION('',(0.0,1.0,0.0));
#70=DIRECTION('',(1.0,0.0,0.0));
#71=AXIS2_PLACEMENT_3D('',#68,#69,#70);
#72=CYLINDRICAL_SURFACE('',#71,6.000000000000001);
#73=CARTESIAN_POINT('',(6.000000000000001,8.000000000000004,17.5));
#74=VERTEX_POINT('',#73);
#75=CARTESIAN_POINT('',(6.000000000000001,8.000000000000004,17.5));
#76=CARTESIAN_POINT('',(6.000000000000001,8.000000000000004,18.279732729545387));
#77=CARTESIAN_POINT('',(5.839962219586042,8.126008907895253,19.090316114866003));
#78=CARTESIAN_POINT('',(5.222867433575152,8.535737701199318,20.558748314168945));
#79=CARTESIAN_POINT('',(4.766020534792567,8.810170539013953,21.219260839446004));
#80=CARTESIAN_POINT('',(3.722637743127284,9.299017586006562,22.262643631111288));
#81=CARTESIAN_POINT('',(3.061194815181609,9.550015262336654,22.72184191473314));
#82=CARTESIAN_POINT('',(1.587822732301137,9.902147492565383,23.341007439895147));
#83=CARTESIAN_POINT('',(0.774701809198484,10.000000000000002,23.5));
#84=CARTESIAN_POINT('',(-0.774701809198486,10.000000000000002,23.5));
#85=CARTESIAN_POINT('',(-1.587822732301139,9.902147492565382,23.341007439895147));
#86=CARTESIAN_POINT('',(-3.061194815181611,9.550015262336652,22.72184191473314));
#87=CARTESIAN_POINT('',(-3.722637743127286,9.299017586006562,22.262643631111288));
#88=CARTESIAN_POINT('',(-4.766020534792569,8.810170539013953,21.219260839446004));
#89=CARTESIAN_POINT('',(-5.222867433575153,8.53573770119932,20.558748314168945));
#90=CARTESIAN_POINT('',(-5.839962219586042,8.126008907895255,19.090316114866003));
#91=CARTESIAN_POINT('',(-6.000000000000001,8.000000000000004,18.279732729545387));
#92=CARTESIAN_POINT('',(-6.000000000000001,8.000000000000004,16.720267270454613));
#93=CARTESIAN_POINT('',(-5.839962219586042,8.126008907895253,15.909683885133997));
#94=CARTESIAN_POINT('',(-5.222867433575152,8.535737701199318,14.441251685831054));
#95=CARTESIAN_POINT('',(-4.766020534792568,8.810170539013953,13.780739160553996));
#96=CARTESIAN_POINT('',(-3.722637743127285,9.29901758600656,12.737356368888712));
#97=CARTESIAN_POINT('',(-3.061194815181612,9.550015262336652,12.27815808526686));
#98=CARTESIAN_POINT('',(-1.58782273230114,9.902147492565383,11.658992560104851));
#99=CARTESIAN_POINT('',(-0.774701809198486,10.000000000000002,11.5));
#100=CARTESIAN_POINT('',(0.774701809198486,10.000000000000002,11.5));
#101=CARTESIAN_POINT('',(1.58782273230114,9.902147492565383,11.658992560104851));
#102=CARTESIAN_POINT('',(3.061194815181612,9.550015262336652,12.27815808526686));
#103=CARTESIAN_POINT('',(3.722637743127286,9.29901758600656,12.737356368888712));
#104=CARTESIAN_POINT('',(4.766020534792569,8.810170539013953,13.780739160553996));
#105=CARTESIAN_POINT('',(5.222867433575153,8.535737701199318,14.441251685831054));
#106=CARTESIAN_POINT('',(5.839962219586043,8.126008907895253,15.909683885133997));
#107=CARTESIAN_POINT('',(6.0,8.000000000000004,16.720267270454617));
#108=CARTESIAN_POINT('',(6.0,8.000000000000004,17.500000000000004));
#109=B_SPLINE_CURVE_WITH_KNOTS('',3,(#75,#76,#77,#78,#79,#80,#81,#82,#83,#84,#85,#86,#87,#88,#89,#90,#91,#92,#93,#94,#95,#96,#97,#98,#99,#100,#101,#102,#103,#104,#105,#106,#107,#108),.UNSPECIFIED.,.T.,.U.,(4,2,2,2,2,2,2,2,2,2,2,2,2,2,2,2,4),(0.0,0.233919818863616,0.467839637727232,0.700250180486778,0.932660723246323,1.165071266005869,1.397481808765414,1.63140162762903,1.865321446492646,2.099241265356262,2.333161084219878,2.565571626979423,2.797982169738969,3.030392712498515,3.262803255258061,3.496723074121677,3.730642892985293),.UNSPECIFIED.);
#110=EDGE_CURVE('',#74,#74,#109,.T.);
#111=ORIENTED_EDGE('',*,*,#110,.F.);
#112=EDGE_LOOP('',(#111));
#113=FACE_OUTER_BOUND('',#112,.T.);
#114=CARTESIAN_POINT('',(6.000000000000001,-8.000000000000004,17.5));
#115=VERTEX_POINT('',#114);
#116=CARTESIAN_POINT('',(6.0,-8.000000000000004,17.5));
#117=CARTESIAN_POINT('',(6.0,-8.000000000000004,16.720267270454613));
#118=CARTESIAN_POINT('',(5.839962219586042,-8.126008907895255,15.909683885133997));
#119=CARTESIAN_POINT('',(5.222867433575153,-8.53573770119932,14.441251685831054));
#120=CARTESIAN_POINT('',(4.766020534792569,-8.810170539013953,13.780739160553996));
#121=CARTESIAN_POINT('',(3.722637743127285,-9.299017586006562,12.737356368888712));
#122=CARTESIAN_POINT('',(3.061194815181612,-9.550015262336654,12.27815808526686));
#123=CARTESIAN_POINT('',(1.587822732301139,-9.902147492565383,11.658992560104851));
#124=CARTESIAN_POINT('',(0.774701809198486,-10.000000000000002,11.5));
#125=CARTESIAN_POINT('',(-0.774701809198485,-10.000000000000002,11.5));
#126=CARTESIAN_POINT('',(-1.587822732301138,-9.902147492565383,11.658992560104851));
#127=CARTESIAN_POINT('',(-3.061194815181612,-9.550015262336654,12.27815808526686));
#128=CARTESIAN_POINT('',(-3.722637743127284,-9.299017586006562,12.737356368888712));
#129=CARTESIAN_POINT('',(-4.766020534792569,-8.810170539013953,13.780739160553996));
#130=CARTESIAN_POINT('',(-5.222867433575152,-8.53573770119932,14.441251685831054));
#131=CARTESIAN_POINT('',(-5.839962219586042,-8.126008907895255,15.909683885133997));
#132=CARTESIAN_POINT('',(-6.000000000000001,-8.000000000000004,16.720267270454613));
#133=CARTESIAN_POINT('',(-6.000000000000001,-8.000000000000004,18.279732729545387));
#134=CARTESIAN_POINT('',(-5.839962219586042,-8.126008907895255,19.090316114866003));
#135=CARTESIAN_POINT('',(-5.222867433575153,-8.53573770119932,20.558748314168945));
#136=CARTESIAN_POINT('',(-4.766020534792569,-8.810170539013953,21.219260839446004));
#137=CARTESIAN_POINT('',(-3.722637743127286,-9.299017586006562,22.262643631111288));
#138=CARTESIAN_POINT('',(-3.061194815181611,-9.550015262336652,22.72184191473314));
#139=CARTESIAN_POINT('',(-1.587822732301139,-9.902147492565382,23.341007439895147));
#140=CARTESIAN_POINT('',(-0.774701809198486,-10.000000000000002,23.5));
#141=CARTESIAN_POINT('',(0.774701809198484,-10.000000000000002,23.5));
#142=CARTESIAN_POINT('',(1.587822732301137,-9.902147492565383,23.341007439895147));
#143=CARTESIAN_POINT('',(3.061194815181609,-9.550015262336654,22.72184191473314));
#144=CARTESIAN_POINT('',(3.722637743127284,-9.299017586006562,22.262643631111288));
#145=CARTESIAN_POINT('',(4.766020534792567,-8.810170539013953,21.219260839446001));
#146=CARTESIAN_POINT('',(5.222867433575154,-8.535737701199317,20.558748314168945));
#147=CARTESIAN_POINT('',(5.839962219586042,-8.126008907895253,19.090316114866003));
#148=CARTESIAN_POINT('',(6.0,-8.000000000000004,18.279732729545387));
#149=CARTESIAN_POINT('',(6.0,-8.000000000000004,17.5));
#150=B_SPLINE_CURVE_WITH_KNOTS('',3,(#116,#117,#118,#119,#120,#121,#122,#123,#124,#125,#126,#127,#128,#129,#130,#131,#132,#133,#134,#135,#136,#137,#138,#139,#140,#141,#142,#143,#144,#145,#146,#147,#148,#149),.UNSPECIFIED.,.T.,.U.,(4,2,2,2,2,2,2,2,2,2,2,2,2,2,2,2,4),(0.0,0.233919818863616,0.467839637727232,0.700250180486778,0.932660723246323,1.165071266005869,1.397481808765415,1.631401627629031,1.865321446492647,2.099241265356262,2.333161084219878,2.565571626979424,2.797982169738969,3.030392712498515,3.26280325525806,3.496723074121676,3.730642892985292),.UNSPECIFIED.);
#151=EDGE_CURVE('',#115,#115,#150,.T.);
#152=ORIENTED_EDGE('',*,*,#151,.F.);
#153=EDGE_LOOP('',(#152));
#154=FACE_BOUND('',#153,.T.);
#155=ADVANCED_FACE('',(#113,#154),#72,.F.);
#156=CARTESIAN_POINT('',(0.0,0.0,45.37901055023503));
#157=DIRECTION('',(0.0,0.0,1.0));
#158=DIRECTION('',(1.0,0.0,0.0));
#159=AXIS2_PLACEMENT_3D('',#156,#157,#158);
#160=CONICAL_SURFACE('',#159,1.0335,59.000000000000007);
#161=CARTESIAN_POINT('',(2.067,0.0,46.000000000000014));
#162=VERTEX_POINT('',#161);
#163=CARTESIAN_POINT('',(0.0,0.0,46.000000000000014));
#164=DIRECTION('',(0.0,0.0,1.0));
#165=DIRECTION('',(1.0,0.0,0.0));
#166=AXIS2_PLACEMENT_3D('',#163,#164,#165);
#167=CIRCLE('',#166,2.067);
#168=EDGE_CURVE('',#162,#162,#167,.T.);
#169=ORIENTED_EDGE('',*,*,#168,.T.);
#170=EDGE_LOOP('',(#169));
#171=FACE_OUTER_BOUND('',#170,.T.);
#172=ADVANCED_FACE('',(#171),#160,.F.);
#173=CARTESIAN_POINT('',(0.0,0.0,54.000000000000014));
#174=DIRECTION('',(0.0,0.0,1.0));
#175=DIRECTION('',(1.0,0.0,0.0));
#176=AXIS2_PLACEMENT_3D('',#173,#174,#175);
#177=CYLINDRICAL_SURFACE('',#176,2.067);
#178=CARTESIAN_POINT('',(2.067,0.0,62.000000000000014));
#179=VERTEX_POINT('',#178);
#180=CARTESIAN_POINT('',(0.0,0.0,62.000000000000014));
#181=DIRECTION('',(0.0,0.0,-1.0));
#182=DIRECTION('',(1.0,0.0,0.0));
#183=AXIS2_PLACEMENT_3D('',#180,#181,#182);
#184=CIRCLE('',#183,2.067);
#185=EDGE_CURVE('',#179,#179,#184,.T.);
#186=ORIENTED_EDGE('',*,*,#185,.F.);
#187=EDGE_LOOP('',(#186));
#188=FACE_OUTER_BOUND('',#187,.T.);
#189=ORIENTED_EDGE('',*,*,#168,.F.);
#190=EDGE_LOOP('',(#189));
#191=FACE_BOUND('',#190,.T.);
#192=ADVANCED_FACE('',(#188,#191),#177,.F.);
#193=CARTESIAN_POINT('',(5.000000000000004,0.0,62.000000000000014));
#194=DIRECTION('',(0.0,0.0,1.0));
#195=DIRECTION('',(1.0,0.0,0.0));
#196=AXIS2_PLACEMENT_3D('',#193,#194,#195);
#197=PLANE('',#196);
#198=CARTESIAN_POINT('',(10.000000000000007,0.0,62.0));
#199=VERTEX_POINT('',#198);
#200=CARTESIAN_POINT('',(0.0,0.0,62.0));
#201=DIRECTION('',(0.0,0.0,-1.0));
#202=DIRECTION('',(1.0,0.0,0.0));
#203=AXIS2_PLACEMENT_3D('',#200,#201,#202);
#204=CIRCLE('',#203,10.000000000000007);
#205=EDGE_CURVE('',#199,#199,#204,.T.);
#206=ORIENTED_EDGE('',*,*,#205,.F.);
#207=EDGE_LOOP('',(#206));
#208=FACE_OUTER_BOUND('',#207,.T.);
#209=ORIENTED_EDGE('',*,*,#185,.T.);
#210=EDGE_LOOP('',(#209));
#211=FACE_BOUND('',#210,.T.);
#212=ADVANCED_FACE('',(#208,#211),#197,.T.);
#213=CARTESIAN_POINT('',(0.0,0.0,31.0));
#214=DIRECTION('',(0.0,0.0,-1.0));
#215=DIRECTION('',(1.0,0.0,0.0));
#216=AXIS2_PLACEMENT_3D('',#213,#214,#215);
#217=CYLINDRICAL_SURFACE('',#216,10.000000000000002);
#218=CARTESIAN_POINT('',(9.999999999999998,0.0,-2.220446E-015));
#219=VERTEX_POINT('',#218);
#220=CARTESIAN_POINT('',(0.0,0.0,0.0));
#221=DIRECTION('',(0.0,0.0,-1.0));
#222=DIRECTION('',(1.0,0.0,0.0));
#223=AXIS2_PLACEMENT_3D('',#220,#221,#222);
#224=CIRCLE('',#223,9.999999999999998);
#225=EDGE_CURVE('',#219,#219,#224,.T.);
#226=ORIENTED_EDGE('',*,*,#225,.F.);
#227=EDGE_LOOP('',(#226));
#228=FACE_OUTER_BOUND('',#227,.T.);
#229=ORIENTED_EDGE('',*,*,#110,.T.);
#230=EDGE_LOOP('',(#229));
#231=FACE_BOUND('',#230,.T.);
#232=ORIENTED_EDGE('',*,*,#151,.T.);
#233=EDGE_LOOP('',(#232));
#234=FACE_BOUND('',#233,.T.);
#235=ORIENTED_EDGE('',*,*,#205,.T.);
#236=EDGE_LOOP('',(#235));
#237=FACE_BOUND('',#236,.T.);
#238=ADVANCED_FACE('',(#228,#231,#234,#237),#217,.T.);
#239=CARTESIAN_POINT('',(5.0,0.0,-1.387779E-015));
#240=DIRECTION('',(0.0,0.0,-1.0));
#241=DIRECTION('',(-1.0,0.0,0.0));
#242=AXIS2_PLACEMENT_3D('',#239,#240,#241);
#243=PLANE('',#242);
#244=ORIENTED_EDGE('',*,*,#225,.T.);
#245=EDGE_LOOP('',(#244));
#246=FACE_OUTER_BOUND('',#245,.T.);
#247=ADVANCED_FACE('',(#246),#243,.T.);
#248=CLOSED_SHELL('',(#155,#172,#192,#212,#238,#247));
#249=MANIFOLD_SOLID_BREP('Volumenk\S\vrper1',#248);
#250=COLOUR_RGB('',0.800000011920929,0.800000011920929,0.800000011920929);
#251=FILL_AREA_STYLE_COLOUR('',#250);
#252=FILL_AREA_STYLE('',(#251));
#253=SURFACE_STYLE_FILL_AREA(#252);
#254=SURFACE_SIDE_STYLE('',(#253));
#255=SURFACE_STYLE_USAGE(.BOTH.,#254);
#256=PRESENTATION_STYLE_ASSIGNMENT((#255));
#257=STYLED_ITEM('',(#256),#212);
#258=STYLED_ITEM('',(#256),#238);
#259=COLOUR_RGB('',0.831372976303101,0.0,0.0);
#260=FILL_AREA_STYLE_COLOUR('',#259);
#261=FILL_AREA_STYLE('',(#260));
#262=SURFACE_STYLE_FILL_AREA(#261);
#263=SURFACE_SIDE_STYLE('',(#262));
#264=SURFACE_STYLE_USAGE(.BOTH.,#263);
#265=PRESENTATION_STYLE_ASSIGNMENT((#264));
#266=STYLED_ITEM('',(#265),#247);
#267=MECHANICAL_DESIGN_GEOMETRIC_PRESENTATION_REPRESENTATION('',(#257,#258,#266,#275),#67);
#268=COLOUR_RGB('RGB(237,119,81)',0.800000011920929,0.800000011920929,0.800000011920929);
#269=FILL_AREA_STYLE_COLOUR('RGB(237,119,81)',#268);
#270=FILL_AREA_STYLE('RGB(237,119,81)',(#269));
#271=SURFACE_STYLE_FILL_AREA(#270);
#272=SURFACE_SIDE_STYLE('RGB(237,119,81)',(#271));
#273=SURFACE_STYLE_USAGE(.BOTH.,#272);
#274=PRESENTATION_STYLE_ASSIGNMENT((#273));
#275=STYLED_ITEM('',(#274),#249);
#276=ADVANCED_BREP_SHAPE_REPRESENTATION('ABSR',(#249),#36);
#277=SHAPE_REPRESENTATION_RELATIONSHIP('SRR','None',#276,#41);
ENDSEC;
END-ISO-10303-21;
