  0
SECTION
  2
HEADER
  9
$ACADVER
  1
AC1015
  9
$ACADMAINTVER
 70
    20
  9
$DWGCODEPAGE
  3
ANSI_1252
  9
$INSBASE
 10
0.0
 20
0.0
 30
0.0
  9
$EXTMIN
 10
-194.1005723202371
 20
-364.7472769048848
 30
-0.00000001
  9
$EXTMAX
 10
232.3213280971899
 20
45.0
 30
0.00000001
  9
$LIMMIN
 10
0.0
 20
0.0
  9
$LIMMAX
 10
410.0
 20
287.0
  9
$ORTHOMODE
 70
     0
  9
$REGENMODE
 70
     1
  9
$FILLMODE
 70
     1
  9
$QTEXTMODE
 70
     0
  9
$MIRRTEXT
 70
     1
  9
$LTSCALE
 40
1.0
  9
$ATTMODE
 70
     1
  9
$TEXTSIZE
 40
3.5
  9
$TRACEWID
 40
0.05
  9
$TEXTSTYLE
  7
STANDARD
  9
$CLAYER
  8
0
  9
$CELTYPE
  6
BYLAYER
  9
$CECOLOR
 62
   256
  9
$CELTSCALE
 40
1.0
  9
$DISPSILH
 70
     0
  9
$DIMSCALE
 40
1.0
  9
$DIMASZ
 40
0.18
  9
$DIMEXO
 40
0.0625
  9
$DIMDLI
 40
0.38
  9
$DIMRND
 40
0.0
  9
$DIMDLE
 40
0.0
  9
$DIMEXE
 40
0.18
  9
$DIMTP
 40
0.0
  9
$DIMTM
 40
0.0
  9
$DIMTXT
 40
0.18
  9
$DIMCEN
 40
0.09
  9
$DIMTSZ
 40
0.0
  9
$DIMTOL
 70
     0
  9
$DIMLIM
 70
     0
  9
$DIMTIH
 70
     1
  9
$DIMTOH
 70
     1
  9
$DIMSE1
 70
     0
  9
$DIMSE2
 70
     0
  9
$DIMTAD
 70
     0
  9
$DIMZIN
 70
     0
  9
$DIMBLK
  1

  9
$DIMASO
 70
     1
  9
$DIMSHO
 70
     1
  9
$DIMPOST
  1

  9
$DIMAPOST
  1

  9
$DIMALT
 70
     0
  9
$DIMALTD
 70
     2
  9
$DIMALTF
 40
25.4
  9
$DIMLFAC
 40
1.0
  9
$DIMTOFL
 70
     0
  9
$DIMTVP
 40
0.0
  9
$DIMTIX
 70
     0
  9
$DIMSOXD
 70
     0
  9
$DIMSAH
 70
     0
  9
$DIMBLK1
  1

  9
$DIMBLK2
  1

  9
$DIMSTYLE
  2
STANDARD
  9
$DIMCLRD
 70
     0
  9
$DIMCLRE
 70
     0
  9
$DIMCLRT
 70
     0
  9
$DIMTFAC
 40
1.0
  9
$DIMGAP
 40
0.09
  9
$DIMJUST
 70
     0
  9
$DIMSD1
 70
     0
  9
$DIMSD2
 70
     0
  9
$DIMTOLJ
 70
     1
  9
$DIMTZIN
 70
     0
  9
$DIMALTZ
 70
     0
  9
$DIMALTTZ
 70
     0
  9
$DIMUPT
 70
     0
  9
$DIMDEC
 70
     4
  9
$DIMTDEC
 70
     4
  9
$DIMALTU
 70
     2
  9
$DIMALTTD
 70
     2
  9
$DIMTXSTY
  7
STANDARD
  9
$DIMAUNIT
 70
     0
  9
$DIMADEC
 70
     0
  9
$DIMALTRND
 40
0.0
  9
$DIMAZIN
 70
     0
  9
$DIMDSEP
 70
    46
  9
$DIMATFIT
 70
     3
  9
$DIMFRAC
 70
     0
  9
$DIMLDRBLK
  1

  9
$DIMLUNIT
 70
     2
  9
$DIMLWD
 70
    -2
  9
$DIMLWE
 70
    -2
  9
$DIMTMOVE
 70
     0
  9
$LUNITS
 70
     2
  9
$LUPREC
 70
     4
  9
$SKETCHINC
 40
0.1
  9
$FILLETRAD
 40
12.5
  9
$AUNITS
 70
     0
  9
$AUPREC
 70
     0
  9
$MENU
  1
acad
  9
$ELEVATION
 40
0.0
  9
$PELEVATION
 40
0.0
  9
$THICKNESS
 40
0.0
  9
$LIMCHECK
 70
     0
  9
$CHAMFERA
 40
12.5
  9
$CHAMFERB
 40
12.5
  9
$CHAMFERC
 40
0.0
  9
$CHAMFERD
 40
0.0
  9
$SKPOLY
 70
     0
  9
$TDCREATE
 40
2450847.688760428
  9
$TDUCREATE
 40
2450847.605427095
  9
$TDUPDATE
 40
2456226.382886355
  9
$TDUUPDATE
 40
2456226.299553021
  9
$TDINDWG
 40
0.0034904398
  9
$TDUSRTIMER
 40
0.0034904398
  9
$USRTIMER
 70
     1
  9
$ANGBASE
 50
0.0
  9
$ANGDIR
 70
     0
  9
$PDMODE
 70
     0
  9
$PDSIZE
 40
26.44101167920534
  9
$PLINEWID
 40
0.0
  9
$SPLFRAME
 70
     0
  9
$SPLINETYPE
 70
     6
  9
$SPLINESEGS
 70
     8
  9
$HANDSEED
  5
A9B
  9
$SURFTAB1
 70
     6
  9
$SURFTAB2
 70
     6
  9
$SURFTYPE
 70
     6
  9
$SURFU
 70
     6
  9
$SURFV
 70
     6
  9
$UCSBASE
  2

  9
$UCSNAME
  2

  9
$UCSORG
 10
0.0
 20
0.0
 30
0.0
  9
$UCSXDIR
 10
1.0
 20
0.0
 30
0.0
  9
$UCSYDIR
 10
0.0
 20
1.0
 30
0.0
  9
$UCSORTHOREF
  2

  9
$UCSORTHOVIEW
 70
     0
  9
$UCSORGTOP
 10
0.0
 20
0.0
 30
0.0
  9
$UCSORGBOTTOM
 10
0.0
 20
0.0
 30
0.0
  9
$UCSORGLEFT
 10
0.0
 20
0.0
 30
0.0
  9
$UCSORGRIGHT
 10
0.0
 20
0.0
 30
0.0
  9
$UCSORGFRONT
 10
0.0
 20
0.0
 30
0.0
  9
$UCSORGBACK
 10
0.0
 20
0.0
 30
0.0
  9
$PUCSBASE
  2

  9
$PUCSNAME
  2

  9
$PUCSORG
 10
0.0
 20
0.0
 30
0.0
  9
$PUCSXDIR
 10
1.0
 20
0.0
 30
0.0
  9
$PUCSYDIR
 10
0.0
 20
1.0
 30
0.0
  9
$PUCSORTHOREF
  2

  9
$PUCSORTHOVIEW
 70
     0
  9
$PUCSORGTOP
 10
0.0
 20
0.0
 30
0.0
  9
$PUCSORGBOTTOM
 10
0.0
 20
0.0
 30
0.0
  9
$PUCSORGLEFT
 10
0.0
 20
0.0
 30
0.0
  9
$PUCSORGRIGHT
 10
0.0
 20
0.0
 30
0.0
  9
$PUCSORGFRONT
 10
0.0
 20
0.0
 30
0.0
  9
$PUCSORGBACK
 10
0.0
 20
0.0
 30
0.0
  9
$USERI1
 70
     0
  9
$USERI2
 70
     0
  9
$USERI3
 70
     0
  9
$USERI4
 70
     0
  9
$USERI5
 70
     0
  9
$USERR1
 40
0.0
  9
$USERR2
 40
0.0
  9
$USERR3
 40
0.0
  9
$USERR4
 40
0.0
  9
$USERR5
 40
0.0
  9
$WORLDVIEW
 70
     1
  9
$SHADEDGE
 70
     3
  9
$SHADEDIF
 70
    70
  9
$TILEMODE
 70
     1
  9
$MAXACTVP
 70
    16
  9
$PINSBASE
 10
0.0
 20
0.0
 30
0.0
  9
$PLIMCHECK
 70
     0
  9
$PEXTMIN
 10
1.000000000000000E+20
 20
1.000000000000000E+20
 30
1.000000000000000E+20
  9
$PEXTMAX
 10
-1.000000000000000E+20
 20
-1.000000000000000E+20
 30
-1.000000000000000E+20
  9
$PLIMMIN
 10
0.0
 20
0.0
  9
$PLIMMAX
 10
12.0
 20
9.0
  9
$UNITMODE
 70
     0
  9
$VISRETAIN
 70
     0
  9
$PLINEGEN
 70
     0
  9
$PSLTSCALE
 70
     1
  9
$TREEDEPTH
 70
  3020
  9
$CMLSTYLE
  2
STANDARD
  9
$CMLJUST
 70
     0
  9
$CMLSCALE
 40
1.0
  9
$PROXYGRAPHICS
 70
     1
  9
$MEASUREMENT
 70
     1
  9
$CELWEIGHT
370
    -1
  9
$ENDCAPS
280
     0
  9
$JOINSTYLE
280
     0
  9
$LWDISPLAY
290
     0
  9
$INSUNITS
 70
     4
  9
$HYPERLINKBASE
  1

  9
$STYLESHEET
  1

  9
$XEDIT
290
     1
  9
$CEPSNTYPE
380
     0
  9
$PSTYLEMODE
290
     1
  9
$FINGERPRINTGUID
  2
{C0A9A33B-18AB-4E1C-B674-083136BC4E65}
  9
$VERSIONGUID
  2
{D1605C0D-1A81-462D-9D91-358FB5800B4F}
  9
$EXTNAMES
290
     1
  9
$PSVPSCALE
 40
0.0
  9
$OLESTARTUP
290
     0
  0
ENDSEC
  0
SECTION
  2
CLASSES
  0
CLASS
  1
ACDBDICTIONARYWDFLT
  2
AcDbDictionaryWithDefault
  3
ObjectDBX Classes
 90
        0
280
     0
281
     0
  0
CLASS
  1
MATERIAL
  2
AcDbMaterial
  3
ObjectDBX Classes
 90
     1153
280
     0
281
     0
  0
CLASS
  1
VISUALSTYLE
  2
AcDbVisualStyle
  3
ObjectDBX Classes
 90
     4095
280
     0
281
     0
  0
CLASS
  1
TABLESTYLE
  2
AcDbTableStyle
  3
ObjectDBX Classes
 90
     4095
280
     0
281
     0
  0
CLASS
  1
SCALE
  2
AcDbScale
  3
ObjectDBX Classes
 90
     1153
280
     0
281
     0
  0
CLASS
  1
MLEADERSTYLE
  2
AcDbMLeaderStyle
  3
ACDB_MLEADERSTYLE_CLASS
 90
     4095
280
     0
281
     0
  0
CLASS
  1
ACME_DOCUMENT
  2
AcMeDbDoc
  3
AcMeServices
 90
     1024
280
     0
281
     0
  0
CLASS
  1
AMGSETTINGSOBJ
  2
AmgSettingsObj
  3
"AcadM|Product Description: AutoCAD Mechanical|Company: Autodesk, Inc."
 90
     1024
280
     0
281
     0
  0
CLASS
  1
ACMESCOPE
  2
AcMeScope
  3
AcMeServices
 90
     1024
280
     0
281
     0
  0
CLASS
  1
ACMECOMMANDHISTORY
  2
AcMeCommandHistory
  3
AcMeServices
 90
     1024
280
     0
281
     0
  0
CLASS
  1
ACIMSYSVARMAN
  2
AcImSysVarManager
  3
AcMeServices
 90
     1024
280
     0
281
     0
  0
CLASS
  1
ACIMINTSYSVAR
  2
AcImIntSysVar
  3
AcMeServices
 90
     1024
280
     0
281
     0
  0
CLASS
  1
ACMEDRAWINGMAN
  2
AcMeDrawingMan
  3
AcMeServices
 90
     1024
280
     0
281
     0
  0
CLASS
  1
ACMEVIEW
  2
AcMeView
  3
AcMeServices
 90
     1024
280
     0
281
     0
  0
CLASS
  1
ACDBENTITYCACHE
  2
AcMeEntityCache
  3
AcMeServices
 90
     1024
280
     0
281
     0
  0
CLASS
  1
GSMANAGER
  2
AcMeGSManager
  3
AcMeServices
 90
     1024
280
     0
281
     0
  0
CLASS
  1
AMDTINTERNALREACTOR
  2
AmdtInternalReactor
  3
AcMeServices
 90
     1024
280
     0
281
     0
  0
CLASS
  1
ACMESTATEMGR
  2
AcMeStateMgr
  3
AcMeServices
 90
     1024
280
     0
281
     0
  0
CLASS
  1
ACGREFMASTER
  2
AcGrefMaster
  3
AcAttribServices
 90
     1024
280
     0
281
     0
  0
CLASS
  1
AM_DRAWING_MGR
  2
AcDmDwgMgr
  3
AcMechDwgViewMgmt
 90
     1024
280
     0
281
     0
  0
CLASS
  1
AM_DWG_DOCUMENT
  2
AcDmDwgDocument
  3
AcMechDwgViewMgmt
 90
     1024
280
     0
281
     0
  0
CLASS
  1
AM_DWG_SHEET
  2
AcDmSheet
  3
AcMechDwgViewMgmt
 90
     1024
280
     0
281
     0
  0
CLASS
  1
AM_VIEWDIMPARMAP
  2
AcDmViewDimParMap
  3
AcMechDwgViewMgmt
 90
     1024
280
     0
281
     0
  0
CLASS
  1
ACIMREALSYSVAR
  2
AcImRealSysVar
  3
AcMeServices
 90
     1024
280
     0
281
     0
  0
CLASS
  1
AM_DWGMGR_NAME
  2
AcDmDwgMgrName
  3
AcMechDwgViewMgmt
 90
     1024
280
     0
281
     0
  0
CLASS
  1
ACME_DATABASE
  2
AcMeDbDatabase
  3
AcMeServices
 90
     1024
280
     0
281
     0
  0
CLASS
  1
ACRFINSADJUSTERMGR
  2
AcRfInsAdjusterMgr
  3
AcMeServices
 90
     1024
280
     0
281
     0
  0
CLASS
  1
ACGREFACADMASTER
  2
AcGrefacadMaster
  3
AcGrefServices
 90
     1024
280
     0
281
     0
  0
CLASS
  1
AMDTMENUSTATEMGR
  2
AmdtMenuStateMgr
  3
McadcomServices
 90
     1024
280
     0
281
     0
  0
CLASS
  1
AMDTMCOMMENUSTATE
  2
AmdtMcomMenuState
  3
McadcomServices
 90
     1024
280
     0
281
     0
  0
CLASS
  1
AMIMASTER
  2
AmiMaster
  3
AmiServices
 90
     1024
280
     0
281
     0
  0
CLASS
  1
MAPIAMMOUDLE
  2
MApiAmModule
  3
MApiAmServices
 90
     1024
280
     0
281
     0
  0
CLASS
  1
ACIMSTRSYSVAR
  2
AcImStrSysVar
  3
AcMeServices
 90
     1024
280
     0
281
     0
  0
CLASS
  1
AMDTADMENUSTATE
  2
AmdtAdMenuState
  3
DesignerServices
 90
     1024
280
     0
281
     0
  0
CLASS
  1
ADAPPL
  2
AcAdAppl
  3
DesignerServices
 90
     1024
280
     0
281
     0
  0
CLASS
  1
DEPMGR
  2
AcAdDepMgr
  3
DesignerServices
 90
     1024
280
     0
281
     0
  0
CLASS
  1
PARAMMGR
  2
AcAdParamMgr
  3
DesignerServices
 90
     1024
280
     0
281
     0
  0
CLASS
  1
PARAMSCOPE
  2
AcAdParamScope
  3
DesignerServices
 90
     1024
280
     0
281
     0
  0
CLASS
  1
NAMEDAPPL
  2
AcAdNamedAppl
  3
DesignerServices
 90
     1024
280
     0
281
     0
  0
CLASS
  1
AMDTDMMENUSTATE
  2
AmdtDmMenuState
  3
AcMechDwgViewMgmt
 90
     1024
280
     0
281
     0
  0
CLASS
  1
AMDTAMMENUSTATE
  2
AmdtAmMenuState
  3
DesignerAssemblies
 90
     1024
280
     0
281
     0
  0
CLASS
  1
ACAMPROJECT
  2
AcAmProject
  3
DesignerAssemblies
 90
     1024
280
     0
281
     0
  0
CLASS
  1
ACAMGRCOMPDEF
  2
AcAmGrCompDef
  3
DesignerAssemblies
 90
     1024
280
     0
281
     0
  0
CLASS
  1
ACCMCONTEXT
  2
AcCmContext
  3
DesignerAssemblies
 90
     1024
280
     0
281
     0
  0
CLASS
  1
ACAMCOMPDEF
  2
AcAmCompDef
  3
DesignerAssemblies
 90
     1024
280
     0
281
     0
  0
CLASS
  1
ACAMCOMPDEFMGR
  2
AcAmCompDefMgr
  3
DesignerAssemblies
 90
     1024
280
     0
281
     0
  0
CLASS
  1
AMCONTEXTMGR
  2
AcAmContextMgr
  3
DesignerAssemblies
 90
     1024
280
     0
281
     0
  0
CLASS
  1
ACAMCONTEXTMODELER
  2
AcAmContextModeler
  3
DesignerAssemblies
 90
     1024
280
     0
281
     0
  0
CLASS
  1
ACMDATADICTIONARY
  2
AcmDataDictionary
  3
"AcmSymBB|Product Description: AutoCAD Mechanical|Company: Autodesk, Inc."
 90
     1024
280
     0
281
     0
  0
CLASS
  1
CATALOGSTATE
  2
AcAmCatalogState
  3
DesignerAssemblies
 90
     1024
280
     0
281
     0
  0
CLASS
  1
ACAMGRCOMPDEFSET
  2
AcAmGrCompDefSet
  3
DesignerAssemblies
 90
     1024
280
     0
281
     0
  0
CLASS
  1
AMDTBROWSERDBTAB
  2
AmdtBrowserDbTab
  3
McadcomServices
 90
     1024
280
     0
281
     0
  0
CLASS
  1
CBROWSERAPPOBJECT
  2
CBrowserAppObject
  3
McadcomServices
 90
     1024
280
     0
281
     0
  0
CLASS
  1
DM_PLACEHOLDER
  2
AcDmSelsetPlaceholder
  3
AcMechDwgViewMgmt
 90
     1024
280
     0
281
     0
  0
CLASS
  1
ACMSTANDARDANSI
  2
AcmStandardANSI
  3
"Amdt_StdImp|Product Description: AutoCAD Mechanical|Company: Autodesk, Inc."
 90
     1024
280
     0
281
     0
  0
CLASS
  1
ACMSURFSTANDARDANSI
  2
AcmSurfTextStdANSI
  3
"Amdt_StdImp|Product Description: AutoCAD Mechanical|Company: Autodesk, Inc."
 90
     1024
280
     0
281
     0
  0
CLASS
  1
ACMFCFSTANDARDANSI
  2
AcmFCFStdANSI
  3
"Amdt_StdImp|Product Description: AutoCAD Mechanical|Company: Autodesk, Inc."
 90
     1024
280
     0
281
     0
  0
CLASS
  1
ACMWELDSTANDARDANSI
  2
AcmWeldingStdANSI
  3
"Amdt_StdImp|Product Description: AutoCAD Mechanical|Company: Autodesk, Inc."
 90
     1024
280
     0
281
     0
  0
CLASS
  1
ACMIDSTANDARDANSI
  2
AcmIdStdANSI
  3
"Amdt_StdImp|Product Description: AutoCAD Mechanical|Company: Autodesk, Inc."
 90
     1024
280
     0
281
     0
  0
CLASS
  1
ACMDATUMSTANDARDANSI
  2
AcmDatumStdANSI
  3
"Amdt_StdImp|Product Description: AutoCAD Mechanical|Company: Autodesk, Inc."
 90
     1024
280
     0
281
     0
  0
CLASS
  1
ACMBOMSTANDARDANSI
  2
AcmBOMStdANSI
  3
"Amdt_StdImp|Product Description: AutoCAD Mechanical|Company: Autodesk, Inc."
 90
     1024
280
     0
281
     0
  0
CLASS
  1
ACMDETAILSTANDARDANSI
  2
AmdtDetailSymStdANSI
  3
"Amdt_StdImp|Product Description: AutoCAD Mechanical|Company: Autodesk, Inc."
 90
     1024
280
     0
281
     0
  0
CLASS
  1
ACMSECTIONSTANDARDANSI
  2
AmdtSectionSymStdANSI
  3
"Amdt_StdImp|Product Description: AutoCAD Mechanical|Company: Autodesk, Inc."
 90
     1024
280
     0
281
     0
  0
CLASS
  1
ACMCENTERLINESTANDARDANSI
  2
AmdtCenterLineStdANSI
  3
"Amdt_StdImp|Product Description: AutoCAD Mechanical|Company: Autodesk, Inc."
 90
     1024
280
     0
281
     0
  0
CLASS
  1
ACMTHREADLINESTANDARDANSI
  2
AmdtThreadLineStdANSI
  3
"Amdt_StdImp|Product Description: AutoCAD Mechanical|Company: Autodesk, Inc."
 90
     1024
280
     0
281
     0
  0
CLASS
  1
ACMNOTESTANDARDANSI
  2
AmdtNoteStdANSI
  3
"Amdt_StdImp|Product Description: AutoCAD Mechanical|Company: Autodesk, Inc."
 90
     1024
280
     0
281
     0
  0
CLASS
  1
ACMTAPERSTANDARDANSI
  2
AcmTaperStdANSI
  3
"Amdt_StdImp|Product Description: AutoCAD Mechanical|Company: Autodesk, Inc."
 90
     1024
280
     0
281
     0
  0
CLASS
  1
ACMANOOTATIONVIEWSTANDARDANSI
  2
AmdtAnViewStdANSI
  3
"Amdt_StdImp|Product Description: AutoCAD Mechanical|Company: Autodesk, Inc."
 90
     1024
280
     0
281
     0
  0
CLASS
  1
ACAMGLAYSTD
  2
AcAmgLayStd
  3
"AmgLay|Product Description: AutoCAD Mechanical|Company: Autodesk, Inc."
 90
     1024
280
     0
281
     0
  0
CLASS
  1
ACAMGDIMSTD
  2
AcAmgDimStd
  3
"AmgDim|Product Description: AutoCAD Mechanical|Company: Autodesk, Inc."
 90
     1024
280
     0
281
     0
  0
CLASS
  1
AMGOBJPROPCFG
  2
AmgObjPropCfg
  3
"AmgLay|Product Description: AutoCAD Mechanical|Company: Autodesk, Inc."
 90
     1025
280
     0
281
     0
  0
CLASS
  1
ACAMGHOLECHARTSTDANSI
  2
AcAmgHoleChartStdANSI
  3
AmgDim|Product Description: AutoCAD Mechanical|Company: Autodesk, Inc.
 90
     1024
280
     0
281
     0
  0
CLASS
  1
ACAMGTITLESTD
  2
AcAmgTitleStd
  3
"AmgTitle|Product Description: AutoCAD Mechanical|Company: Autodesk, Inc."
 90
     4095
280
     0
281
     0
  0
CLASS
  1
AMDTNOTETEMPLATEDB
  2
AmdtNoteTemplateDB
  3
AcmSymBB|Product Description: AutoCAD Mechanical|Company: Autodesk, Inc.
 90
     1024
280
     0
281
     0
  0
CLASS
  1
ACAMGFILTERDAT
  2
AcAmgFilterDat
  3
"AcadM|Product Description: AutoCAD Mechanical|Company: Autodesk, Inc."
 90
     1024
280
     0
281
     0
  0
CLASS
  1
DICTIONARYVAR
  2
AcDbDictionaryVar
  3
ObjectDBX Classes
 90
        0
280
     0
281
     0
  0
CLASS
  1
CELLSTYLEMAP
  2
AcDbCellStyleMap
  3
ObjectDBX Classes
 90
     1152
280
     0
281
     0
  0
CLASS
  1
ACDBPLACEHOLDER
  2
AcDbPlaceHolder
  3
ObjectDBX Classes
 90
        0
280
     0
281
     0
  0
CLASS
  1
LAYOUT
  2
AcDbLayout
  3
ObjectDBX Classes
 90
        0
280
     0
281
     0
  0
ENDSEC
  0
SECTION
  2
TABLES
  0
TABLE
  2
VPORT
  5
8
330
0
100
AcDbSymbolTable
 70
     1
  0
VPORT
  5
978
330
8
100
AcDbSymbolTableRecord
100
AcDbViewportTableRecord
  2
*ACTIVE
 70
     0
 10
0.0
 20
0.0
 11
1.0
 21
1.0
 12
141.2365990987206
 22
-145.2157112675819
 13
0.0
 23
0.0
 14
5.0
 24
5.0
 15
50.0
 25
50.0
 16
0.0
 26
0.0
 36
1.0
 17
0.0
 27
0.0
 37
0.0
 40
541.499950500827
 41
1.548186528497409
 42
50.0
 43
0.0
 44
0.0
 50
0.0
 51
0.0
 71
     0
 72
   100
 73
     1
 74
     0
 75
     0
 76
     0
 77
     0
 78
     0
281
     0
 65
     1
110
0.0
120
0.0
130
0.0
111
1.0
121
0.0
131
0.0
112
0.0
122
1.0
132
0.0
 79
     0
146
0.0
  0
ENDTAB
  0
TABLE
  2
LTYPE
  5
5
330
0
100
AcDbSymbolTable
 70
    22
  0
LTYPE
  5
14
330
5
100
AcDbSymbolTableRecord
100
AcDbLinetypeTableRecord
  2
BYBLOCK
 70
     0
  3

 72
    65
 73
     0
 40
0.0
  0
LTYPE
  5
15
330
5
100
AcDbSymbolTableRecord
100
AcDbLinetypeTableRecord
  2
BYLAYER
 70
     0
  3

 72
    65
 73
     0
 40
0.0
  0
LTYPE
  5
16
330
5
100
AcDbSymbolTableRecord
100
AcDbLinetypeTableRecord
  2
CONTINUOUS
 70
     0
  3
Solid line
 72
    65
 73
     0
 40
0.0
  0
LTYPE
  5
7D
330
5
100
AcDbSymbolTableRecord
100
AcDbLinetypeTableRecord
  2
GEN7A
 70
     0
  3
__ . __ . __
 72
    65
 73
     4
 40
7.5
 49
5.0
 74
     0
 49
-1.25
 74
     0
 49
0.0
 74
     0
 49
-1.25
 74
     0
  0
LTYPE
  5
7E
330
5
100
AcDbSymbolTableRecord
100
AcDbLinetypeTableRecord
  2
GEN4A
 70
     0
  3
_____ . . _____ . . _____ . . ____ .. ____
 72
    65
 73
     6
 40
16.25
 49
10.0
 74
     0
 49
-1.25
 74
     0
 49
1.25
 74
     0
 49
-1.25
 74
     0
 49
1.25
 74
     0
 49
-1.25
 74
     0
  0
LTYPE
  5
A07
330
5
100
AcDbSymbolTableRecord
100
AcDbLinetypeTableRecord
  2
HIDDEN
 70
     0
  3
Verdeckt
 72
    65
 73
     2
 40
0.375
 49
0.25
 74
     0
 49
-0.125
 74
     0
  0
LTYPE
  5
A08
330
5
100
AcDbSymbolTableRecord
100
AcDbLinetypeTableRecord
  2
PHANTOM2
 70
     0
  3
Phantom (.5x) ___ _ _ ___ _ _ ___ _ _ ___ _ _
 72
    65
 73
     6
 40
1.25
 49
0.625
 74
     0
 49
-0.125
 74
     0
 49
0.125
 74
     0
 49
-0.125
 74
     0
 49
0.125
 74
     0
 49
-0.125
 74
     0
  0
LTYPE
  5
A09
330
5
100
AcDbSymbolTableRecord
100
AcDbLinetypeTableRecord
  2
CENTER
 70
     0
  3
Mitte ____ _ ____ _ ____ _ ____ _ ____ _ ____
 72
    65
 73
     4
 40
2.0
 49
1.25
 74
     0
 49
-0.25
 74
     0
 49
0.25
 74
     0
 49
-0.25
 74
     0
  0
LTYPE
  5
A4E
330
5
100
AcDbSymbolTableRecord
100
AcDbLinetypeTableRecord
  2
AM_ISO02W050
 70
     0
  3
__ __ __ __ __ __ __ __ __ __ __ __ __ __ __
 72
    65
 73
     2
 40
7.5
 49
6.0
 74
     0
 49
-1.5
 74
     0
  0
LTYPE
  5
A4F
330
5
100
AcDbSymbolTableRecord
100
AcDbLinetypeTableRecord
  2
AM_ISO08W050
 70
     0
  3
____ . ____ . ____ . ____ . ____ . ____ . ____
 72
    65
 73
     4
 40
18.0
 49
12.0
 74
     0
 49
-1.5
 74
     0
 49
3.0
 74
     0
 49
-1.5
 74
     0
  0
LTYPE
  5
A50
330
5
100
AcDbSymbolTableRecord
100
AcDbLinetypeTableRecord
  2
AM_ISO09W050
 70
     0
  3
_____ . . _____ . . _____ . . ____ .. ____
 72
    65
 73
     6
 40
22.5
 49
12.0
 74
     0
 49
-1.5
 74
     0
 49
3.0
 74
     0
 49
-1.5
 74
     0
 49
3.0
 74
     0
 49
-1.5
 74
     0
  0
LTYPE
  5
A51
330
5
100
AcDbSymbolTableRecord
100
AcDbLinetypeTableRecord
  2
Amconstr
 70
     0
  3
_______________________
 72
    65
 73
     2
 40
9999.0
 49
9999.0
 74
     0
 49
0.0
 74
     0
  0
LTYPE
  5
A52
330
5
100
AcDbSymbolTableRecord
100
AcDbLinetypeTableRecord
  2
AM_ISO08W050x2
 70
     0
  3
__ . __ . __ . __ . __ . __
 72
    65
 73
     4
 40
9.0
 49
6.0
 74
     0
 49
-0.75
 74
     0
 49
1.5
 74
     0
 49
-0.75
 74
     0
  0
LTYPE
  5
A53
330
5
100
AcDbSymbolTableRecord
100
AcDbLinetypeTableRecord
  2
AM_ISO02W050x2
 70
     0
  3
 _ _ _ _ _ _ _ _ _ _ _ _
 72
    65
 73
     2
 40
3.75
 49
3.0
 74
     0
 49
-0.75
 74
     0
  0
LTYPE
  5
A56
330
5
100
AcDbSymbolTableRecord
100
AcDbLinetypeTableRecord
  2
Amzigzag
 70
     0
  3
/\/-/\/-/\/-/\/-/\/-/\/
 72
    65
 73
     2
 40
11.0001
 49
0.0001
 74
     4
 75
   136
340
A55
 46
0.04
 50
0.0
 44
0.0
 45
0.0
 49
-11.0
 74
     0
  0
LTYPE
  5
A57
330
5
100
AcDbSymbolTableRecord
100
AcDbLinetypeTableRecord
  2
CENTER2
 70
     0
  3
Center (.5x) ___ _ ___ _ ___ _ ___ _ ___ _ ___
 72
    65
 73
     4
 40
1.125
 49
0.75
 74
     0
 49
-0.125
 74
     0
 49
0.125
 74
     0
 49
-0.125
 74
     0
  0
LTYPE
  5
A58
330
5
100
AcDbSymbolTableRecord
100
AcDbLinetypeTableRecord
  2
HIDDEN2
 70
     0
  3
Hidden (.5x) _ _ _ _ _ _ _ _ _ _ _ _ _ _ _ _ _
 72
    65
 73
     2
 40
0.1875
 49
0.125
 74
     0
 49
-0.0625
 74
     0
  0
LTYPE
  5
A59
330
5
100
AcDbSymbolTableRecord
100
AcDbLinetypeTableRecord
  2
Amzigzag2
 70
     0
  3
/\/-/\/-/\/-/\/-/\/-/\/
 72
    65
 73
     2
 40
0.4401
 49
0.0001
 74
     4
 75
   136
340
A55
 46
0.0016
 50
0.0
 44
0.0
 45
0.0
 49
-0.4400000000000001
 74
     0
  0
LTYPE
  5
A67
330
5
100
AcDbSymbolTableRecord
100
AcDbLinetypeTableRecord
  2
ACANSTGBM
 70
     0
  3
__ . . __ . .
 72
    65
 73
     6
 40
9.0
 49
4.0
 74
     0
 49
-1.0
 74
     0
 49
1.0
 74
     0
 49
-1.0
 74
     0
 49
1.0
 74
     0
 49
-1.0
 74
     0
  0
LTYPE
  5
A68
330
5
100
AcDbSymbolTableRecord
100
AcDbLinetypeTableRecord
  2
ACANSTGLM
 70
     0
  3
_ _ _ _ _
 72
    65
 73
     2
 40
3.0
 49
2.0
 74
     0
 49
-1.0
 74
     0
  0
LTYPE
  5
A76
330
5
100
AcDbSymbolTableRecord
100
AcDbLinetypeTableRecord
  2
gen3
 70
     0
  3
-- -- -- -- -- -- -- -- -- -- -- -- -- -- --
 72
    65
 73
     2
 40
6.25
 49
4.75
 74
     0
 49
-1.5
 74
     0
  0
LTYPE
  5
A77
330
5
100
AcDbSymbolTableRecord
100
AcDbLinetypeTableRecord
  2
gen7
 70
     0
  3
____ . ____ . ____ . ____ . ____ . ____ . ____
 72
    65
 73
     4
 40
13.75
 49
9.75
 74
     0
 49
-1.5
 74
     0
 49
1.0
 74
     0
 49
-1.5
 74
     0
  0
LTYPE
  5
A78
330
5
100
AcDbSymbolTableRecord
100
AcDbLinetypeTableRecord
  2
gen3a
 70
     0
  3
 - - - - -
 72
    65
 73
     2
 40
3.125
 49
2.25
 74
     0
 49
-0.875
 74
     0
  0
LTYPE
  5
A79
330
5
100
AcDbSymbolTableRecord
100
AcDbLinetypeTableRecord
  2
genzigzag
 70
     0
  3
/\/-/\/-/\/-/\/-/\/-/\/
 72
    65
 73
     2
 40
12.0001
 49
0.0001
 74
     4
 75
   135
340
A55
 46
2.0
 50
0.0
 44
0.0
 45
0.0
 49
-12.0
 74
     0
  0
ENDTAB
  0
TABLE
  2
LAYER
  5
2
330
0
100
AcDbSymbolTable
 70
    11
  0
LAYER
  5
F
330
2
100
AcDbSymbolTableRecord
100
AcDbLayerTableRecord
  2
0
 70
     0
 62
     7
  6
CONTINUOUS
370
    -3
390
97B
  0
LAYER
  5
7F
330
2
100
AcDbSymbolTableRecord
100
AcDbLayerTableRecord
  2
MSR_5-0
 70
     0
 62
     7
  6
CONTINUOUS
370
    -3
390
97B
  0
LAYER
  5
80
330
2
100
AcDbSymbolTableRecord
100
AcDbLayerTableRecord
  2
MSR_5-4
 70
     0
 62
     3
  6
CONTINUOUS
370
    -3
390
97B
  0
LAYER
  5
81
330
2
100
AcDbSymbolTableRecord
100
AcDbLayerTableRecord
  2
MSR_5-7
 70
     0
 62
     4
  6
GEN7A
370
    -3
390
97B
  0
LAYER
  5
82
330
2
100
AcDbSymbolTableRecord
100
AcDbLayerTableRecord
  2
MSR_5-6
 70
     0
 62
     2
  6
CONTINUOUS
370
    -3
390
97B
  0
LAYER
  5
83
330
2
100
AcDbSymbolTableRecord
100
AcDbLayerTableRecord
  2
MSR_5-7A
 70
     0
 62
     4
  6
GEN7A
370
    -3
390
97B
  0
LAYER
  5
84
330
2
100
AcDbSymbolTableRecord
100
AcDbLayerTableRecord
  2
MSR_5-2
 70
     0
 62
     5
  6
CONTINUOUS
370
    -3
390
97B
  0
LAYER
  5
85
330
2
100
AcDbSymbolTableRecord
100
AcDbLayerTableRecord
  2
MSR_5-4A
 70
     0
 62
     3
  6
GEN4A
370
    -3
390
97B
  0
LAYER
  5
86
330
2
100
AcDbSymbolTableRecord
100
AcDbLayerTableRecord
  2
MSR_5-8
 70
     0
 62
     1
  6
CONTINUOUS
370
    -3
390
97B
  0
LAYER
  5
87
330
2
100
AcDbSymbolTableRecord
100
AcDbLayerTableRecord
  2
INFO
 70
     0
 62
     4
  6
CONTINUOUS
370
    -3
390
97B
  0
LAYER
  5
88
330
2
100
AcDbSymbolTableRecord
100
AcDbLayerTableRecord
  2
MSR_5-0N
 70
     0
 62
     7
  6
CONTINUOUS
370
    -3
390
97B
  0
ENDTAB
  0
TABLE
  2
STYLE
  5
3
330
0
100
AcDbSymbolTable
 70
     4
  0
STYLE
  5
10
330
3
100
AcDbSymbolTableRecord
100
AcDbTextStyleTableRecord
  2
STANDARD
 70
     0
 40
0.0
 41
1.0
 50
0.0
 71
     0
 42
3.5
  3
ISOCP.SHX
  4

  0
STYLE
  5
A55
330
3
100
AcDbSymbolTableRecord
100
AcDbTextStyleTableRecord
  2

 70
     1
 40
0.0
 41
1.0
 50
0.0
 71
     0
 42
3.5
  3
genltshp.shx
  4

  0
STYLE
  5
A65
330
3
100
AcDbSymbolTableRecord
100
AcDbTextStyleTableRecord
  2
ACANSTS
 70
     0
 40
1.0
 41
1.0
 50
0.0
 71
     0
 42
3.5
  3
romans.shx
  4

  0
STYLE
  5
A66
330
3
100
AcDbSymbolTableRecord
100
AcDbTextStyleTableRecord
  2
ACANSGDT
 70
     0
 40
0.0
 41
1.0
 50
0.0
 71
     0
 42
3.5
  3
amgdt.shx
  4

  0
ENDTAB
  0
TABLE
  2
VIEW
  5
6
330
0
100
AcDbSymbolTable
 70
     0
  0
ENDTAB
  0
TABLE
  2
UCS
  5
7
330
0
100
AcDbSymbolTable
 70
     0
  0
ENDTAB
  0
TABLE
  2
APPID
  5
9
330
0
100
AcDbSymbolTable
 70
    38
  0
APPID
  5
11
330
9
100
AcDbSymbolTableRecord
100
AcDbRegAppTableRecord
  2
ACAD
 70
     0
  0
APPID
  5
29
330
9
100
AcDbSymbolTableRecord
100
AcDbRegAppTableRecord
  2
GENIUS_GENCFG_13
 70
     0
1001
GENIUS_GENCFG0_13
1000
GEN@INFO_POS@XLATE
1001
GENIUS_GENCFG1_13
1000
GEN@LAYER@DEFS
1001
GENIUS_GENCFG2_13
1000
GEN@LAYER@ENTSORT
1001
GENIUS_GENCFG3_13
1000
GEN@OSWIZ
1001
GENIUS_GENCFG4_13
1000
GEN
1001
GENIUS_GEVCFG0_13
1000
GEV
1001
GENIUS_GEFCFG0_13
1000
GEF
  0
APPID
  5
2A
330
9
100
AcDbSymbolTableRecord
100
AcDbRegAppTableRecord
  2
GENIUS_GENCFG0_13
 70
     0
1001
GENIUS_GENCFG_13
1071
862825278
1000
2A
1000
GEN@INFO_POS@XLATE
1070
     7
1000
GenCfgObject
1000
GenCfgShort
1000
GenCfgReal
1000
GenCfgBool
1000
GenCfgString
1000
GenCfgDim
1000
GenCfgAttrInf
1000
INFOPOINTS
1070
     0
1002
{
1000
GENINF13
1070
     0
1002
{
1000
2GENINF
1070
     4
1000
2
1002
{
1002
}
1000
3GENINF
1070
     4
1000
3
1002
{
1002
}
1000
4GENINF
1070
     4
1000
4
1002
{
1002
}
1000
5GENINF
1070
     4
1000
5
1002
{
1002
}
1000
6GENINF
1070
     4
1000
6
1002
{
1002
}
1000
7GENINF
1070
     4
1000
7
1002
{
1002
}
1000
8GENINF
1070
     4
1000
8
1002
{
1002
}
1000
9GENINF
1070
     4
1000
9
1002
{
1002
}
1000
10GENINF
1070
     4
1000
10
1002
{
1002
}
1000
11GENINF
1070
     4
1000
11
1002
{
1002
}
1000
12GENINF
1070
     4
1000
12
1002
{
1002
}
1000
13GENINF
1070
     4
1000
13
1002
{
1002
}
1000
14GENINF
1070
     4
1000
14
1002
{
1002
}
1000
15GENINF
1070
     4
1000
15
1002
{
1002
}
1000
16GENINF
1070
     4
1000
16
1002
{
1002
}
1000
17GENINF
1070
     4
1000
17
1002
{
1002
}
1000
18GENINF
1070
     4
1000
18
1002
{
1002
}
1000
19GENINF
1070
     4
1000
19
1002
{
1002
}
1000
20GENINF
1070
     4
1000
20
1002
{
1002
}
1000
21GENINF
1070
     4
1000
21
1002
{
1002
}
1000
22GENINF
1070
     4
1000
22
1002
{
1002
}
1000
23GENINF
1070
     4
1000
23
1002
{
1002
}
1000
24GENINF
1070
     4
1000
24
1002
{
1002
}
1000
0GENINF
1070
     4
1000
0
1002
{
1002
}
1002
}
1000
GENINFO
1070
     0
1002
{
1000
3GENINF
1070
     4
1000
3
1002
{
1002
}
1000
4GENINF
1070
     4
1000
4
1002
{
1002
}
1000
5GENINF
1070
     4
1000
5
1002
{
1002
}
1000
6GENINF
1070
     4
1000
6
1002
{
1002
}
1000
7GENINF
1070
     4
1000
7
1002
{
1002
}
1000
8GENINF
1070
     4
1000
8
1002
{
1002
}
1000
9GENINF
1070
     4
1000
9
1002
{
1002
}
1000
10GENINF
1070
     4
1000
10
1002
{
1002
}
1000
11GENINF
1070
     4
1000
11
1002
{
1002
}
1000
12GENINF
1070
     4
1000
12
1002
{
1002
}
1000
13GENINF
1070
     4
1000
13
1002
{
1002
}
1000
14GENINF
1070
     4
1000
14
1002
{
1002
}
1000
15GENINF
1070
     4
1000
15
1002
{
1002
}
1000
16GENINF
1070
     4
1000
16
1002
{
1002
}
1000
17GENINF
1070
     4
1000
17
1002
{
1002
}
1000
18GENINF
1070
     4
1000
18
1002
{
1002
}
1000
19GENINF
1070
     4
1000
19
1002
{
1002
}
1000
20GENINF
1070
     4
1000
20
1002
{
1002
}
1000
21GENINF
1070
     4
1000
21
1002
{
1002
}
1000
22GENINF
1070
     4
1000
22
1002
{
1002
}
1002
}
1000
DININFO
1070
     0
1002
{
1000
ST-NAME1
1070
     4
1000
5
1002
{
1002
}
1000
ST-NAME2
1070
     4
1000
6
1002
{
1002
}
1000
ST-NORM1
1070
     4
1000
7
1002
{
1002
}
1000
ST-NORM2
1070
     4
1000
8
1002
{
1002
}
1000
ST-MAT1
1070
     4
1000
9
1002
{
1002
}
1000
ST-MAT2
1070
     4
1000
10
1002
{
1002
}
1002
}
1002
}
1000
POS_NUMBERS
1070
     0
1002
{
1000
GENPOS13
1070
     0
1002
{
1000
1GENPOS
1070
     4
1000
1
1002
{
1002
}
1000
2GENPOS
1070
     4
1000
2
1002
{
1002
}
1000
3GENPOS
1070
     4
1000
3
1002
{
1002
}
1000
4GENPOS
1070
     4
1000
4
1002
{
1002
}
1000
5GENPOS
1070
     4
1000
5
1002
{
1002
}
1000
6GENPOS
1070
     4
1000
6
1002
{
1002
}
1000
7GENPOS
1070
     4
1000
7
1002
{
1002
}
1000
8GENPOS
1070
     4
1000
8
1002
{
1002
}
1000
9GENPOS
1070
     4
1000
9
1002
{
1002
}
1000
10GENPOS
1070
     4
1000
10
1002
{
1002
}
1000
11GENPOS
1070
     4
1000
11
1002
{
1002
}
1000
12GENPOS
1070
     4
1000
12
1002
{
1002
}
1000
13GENPOS
1070
     4
1000
13
1002
{
1002
}
1000
14GENPOS
1070
     4
1000
14
1002
{
1002
}
1000
15GENPOS
1070
     4
1000
15
1002
{
1002
}
1000
16GENPOS
1070
     4
1000
16
1002
{
1002
}
1000
17GENPOS
1070
     4
1000
17
1002
{
1002
}
1000
18GENPOS
1070
     4
1000
18
1002
{
1002
}
1000
19GENPOS
1070
     4
1000
19
1002
{
1002
}
1000
20GENPOS
1070
     4
1000
20
1002
{
1002
}
1000
21GENPOS
1070
     4
1000
21
1002
{
1002
}
1000
22GENPOS
1070
     4
1000
22
1002
{
1002
}
1000
23GENPOS
1070
     4
1000
23
1002
{
1002
}
1000
24GENPOS
1070
     4
1000
24
1002
{
1002
}
1000
0GENPOS
1070
     4
1000
0
1002
{
1002
}
1002
}
1000
GENPOS
1070
     0
1002
{
1000
1GENPOS
1070
     4
1000
1
1002
{
1002
}
1000
2GENPOS
1070
     4
1000
2
1002
{
1002
}
1000
3GENPOS
1070
     4
1000
3
1002
{
1002
}
1000
4GENPOS
1070
     4
1000
4
1002
{
1002
}
1000
5GENPOS
1070
     4
1000
5
1002
{
1002
}
1000
6GENPOS
1070
     4
1000
6
1002
{
1002
}
1000
7GENPOS
1070
     4
1000
7
1002
{
1002
}
1000
8GENPOS
1070
     4
1000
8
1002
{
1002
}
1000
9GENPOS
1070
     4
1000
9
1002
{
1002
}
1000
10GENPOS
1070
     4
1000
10
1002
{
1002
}
1000
11GENPOS
1070
     4
1000
11
1002
{
1002
}
1000
12GENPOS
1070
     4
1000
12
1002
{
1002
}
1000
13GENPOS
1070
     4
1000
13
1002
{
1002
}
1000
14GENPOS
1070
     4
1000
14
1002
{
1002
}
1000
15GENPOS
1070
     4
1000
15
1002
{
1002
}
1000
16GENPOS
1070
     4
1000
16
1002
{
1002
}
1000
17GENPOS
1070
     4
1000
17
1002
{
1002
}
1000
18GENPOS
1070
     4
1000
18
1002
{
1002
}
1000
19GENPOS
1070
     4
1000
19
1002
{
1002
}
1000
20GENPOS
1070
     4
1000
20
1002
{
1002
}
1000
21GENPOS
1070
     4
1000
21
1002
{
1002
}
1000
22GENPOS
1070
     4
1000
22
1002
{
1002
}
1000
23GENPOS
1070
     4
1000
23
1002
{
1002
}
1002
}
1000
DIN985
1070
     0
1002
{
1000
POSITION
1070
     4
1000
1
1002
{
1002
}
1000
MENGE
1070
     4
1000
2
1002
{
1002
}
1000
BLATT
1070
     4
1000
3
1002
{
1002
}
1000
BENENN
1070
     4
1000
5
1002
{
1002
}
1000
BENENN2
1070
     4
1000
6
1002
{
1002
}
1000
NORM
1070
     4
1000
7
1002
{
1002
}
1000
NORM2
1070
     4
1000
8
1002
{
1002
}
1000
WERKSTOFF
1070
     4
1000
9
1002
{
1002
}
1000
WERKSTOFF2
1070
     4
1000
10
1002
{
1002
}
1002
}
1000
DIN986
1070
     0
1002
{
1000
POSITION
1070
     4
1000
1
1002
{
1002
}
1000
MENGE
1070
     4
1000
2
1002
{
1002
}
1000
BLATT
1070
     4
1000
3
1002
{
1002
}
1000
BENENN
1070
     4
1000
5
1002
{
1002
}
1000
BENENN2
1070
     4
1000
6
1002
{
1002
}
1000
NORM
1070
     4
1000
7
1002
{
1002
}
1000
NORM2
1070
     4
1000
8
1002
{
1002
}
1000
WERKSTOFF
1070
     4
1000
9
1002
{
1002
}
1000
WERKSTOFF2
1070
     4
1000
10
1002
{
1002
}
1002
}
1000
DIN987
1070
     0
1002
{
1000
POSITION
1070
     4
1000
1
1002
{
1002
}
1000
MENGE
1070
     4
1000
2
1002
{
1002
}
1000
BLATT
1070
     4
1000
3
1002
{
1002
}
1000
BENENN
1070
     4
1000
5
1002
{
1002
}
1000
BENENN2
1070
     4
1000
6
1002
{
1002
}
1000
NORM
1070
     4
1000
7
1002
{
1002
}
1000
NORM2
1070
     4
1000
8
1002
{
1002
}
1000
WERKSTOFF
1070
     4
1000
9
1002
{
1002
}
1000
WERKSTOFF2
1070
     4
1000
10
1002
{
1002
}
1002
}
1002
}
  0
APPID
  5
2B
330
9
100
AcDbSymbolTableRecord
100
AcDbRegAppTableRecord
  2
GENIUS_GENCFG1_13
 70
     0
1001
GENIUS_GENCFG_13
1071
862825278
1000
2B
1000
GEN@LAYER@DEFS
1070
     9
1000
GenCfgObject
1000
GenCfgShort
1000
GenCfgReal
1000
GenCfgBool
1000
GenCfgString
1000
GenCfgDim
1000
GenCfgAttrInf
1000
GenCfgLaySection
1000
GenCfgLayer
1000
Basic
1070
     0
1002
{
1000
0
1070
     8
1000
0
1002
{
1000
Color
1070
     1
1070
     7
1002
{
1002
}
1000
LType
1070
     4
1000
CONTINUOUS
1002
{
1002
}
1000
Base
1070
     3
1070
     0
1002
{
1002
}
1002
}
1000
1
1070
     8
1000
1
1002
{
1000
Color
1070
     1
1070
    14
1002
{
1002
}
1000
LType
1070
     4
1000
CONTINUOUS
1002
{
1002
}
1000
Base
1070
     3
1070
     0
1002
{
1002
}
1002
}
1000
2
1070
     8
1000
2
1002
{
1000
Color
1070
     1
1070
     5
1002
{
1002
}
1000
LType
1070
     4
1000
CONTINUOUS
1002
{
1002
}
1000
Base
1070
     3
1070
     0
1002
{
1002
}
1002
}
1000
3
1070
     8
1000
3
1002
{
1000
Color
1070
     1
1070
     6
1002
{
1002
}
1000
LType
1070
     4
1000
GEN3
1002
{
1002
}
1000
Base
1070
     3
1070
     0
1002
{
1002
}
1002
}
1000
4
1070
     8
1000
4
1002
{
1000
Color
1070
     1
1070
     3
1002
{
1002
}
1000
LType
1070
     4
1000
CONTINUOUS
1002
{
1002
}
1000
Base
1070
     3
1070
     0
1002
{
1002
}
1002
}
1000
5
1070
     8
1000
5
1002
{
1000
Color
1070
     1
1070
     3
1002
{
1002
}
1000
LType
1070
     4
1000
CONTINUOUS
1002
{
1002
}
1000
Base
1070
     3
1070
     0
1002
{
1002
}
1002
}
1000
6
1070
     8
1000
6
1002
{
1000
Color
1070
     1
1070
     2
1002
{
1002
}
1000
LType
1070
     4
1000
CONTINUOUS
1002
{
1002
}
1000
Base
1070
     3
1070
     0
1002
{
1002
}
1002
}
1000
7
1070
     8
1000
7
1002
{
1000
Color
1070
     1
1070
     4
1002
{
1002
}
1000
LType
1070
     4
1000
GEN7
1002
{
1002
}
1000
Base
1070
     3
1070
     0
1002
{
1002
}
1002
}
1000
8
1070
     8
1000
8
1002
{
1000
Color
1070
     1
1070
     1
1002
{
1002
}
1000
LType
1070
     4
1000
CONTINUOUS
1002
{
1002
}
1000
Base
1070
     3
1070
     0
1002
{
1002
}
1002
}
1000
3A
1070
     8
1000
3A
1002
{
1000
Color
1070
     1
1070
     6
1002
{
1002
}
1000
LType
1070
     4
1000
GEN3A
1002
{
1002
}
1000
Base
1070
     3
1070
     0
1002
{
1002
}
1002
}
1000
7A
1070
     8
1000
7A
1002
{
1000
Color
1070
     1
1070
     4
1002
{
1002
}
1000
LType
1070
     4
1000
GEN7A
1002
{
1002
}
1000
Base
1070
     3
1070
     0
1002
{
1002
}
1002
}
1000
2A
1070
     8
1000
2A
1002
{
1000
Color
1070
     1
1070
     7
1002
{
1002
}
1000
LType
1070
     4
1000
GEN7
1002
{
1002
}
1000
Base
1070
     3
1070
     0
1002
{
1002
}
1002
}
1000
4A
1070
     8
1000
4A
1002
{
1000
Color
1070
     1
1070
     3
1002
{
1002
}
1000
LType
1070
     4
1000
GEN4A
1002
{
1002
}
1000
Base
1070
     3
1070
     0
1002
{
1002
}
1002
}
1000
9
1070
     8
1000
9
1002
{
1000
Color
1070
     1
1070
   253
1002
{
1002
}
1000
LType
1070
     4
1000
CONTINUOUS
1002
{
1002
}
1000
Base
1070
     3
1070
     0
1002
{
1002
}
1002
}
1002
}
1000
Standard
1070
     0
1002
{
1000
0N
1070
     8
1000
0N
1002
{
1000
Color
1070
     1
1070
     7
1002
{
1002
}
1000
LType
1070
     4
1000
CONTINUOUS
1002
{
1002
}
1000
Base
1070
     3
1070
     0
1002
{
1002
}
1002
}
1000
1N
1070
     8
1000
1N
1002
{
1000
Color
1070
     1
1070
    14
1002
{
1002
}
1000
LType
1070
     4
1000
CONTINUOUS
1002
{
1002
}
1000
Base
1070
     3
1070
     0
1002
{
1002
}
1002
}
1000
2N
1070
     8
1000
2N
1002
{
1000
Color
1070
     1
1070
     5
1002
{
1002
}
1000
LType
1070
     4
1000
CONTINUOUS
1002
{
1002
}
1000
Base
1070
     3
1070
     0
1002
{
1002
}
1002
}
1000
3N
1070
     8
1000
3N
1002
{
1000
Color
1070
     1
1070
     6
1002
{
1002
}
1000
LType
1070
     4
1000
GEN3
1002
{
1002
}
1000
Base
1070
     3
1070
     0
1002
{
1002
}
1002
}
1000
4N
1070
     8
1000
4N
1002
{
1000
Color
1070
     1
1070
     3
1002
{
1002
}
1000
LType
1070
     4
1000
CONTINUOUS
1002
{
1002
}
1000
Base
1070
     3
1070
     0
1002
{
1002
}
1002
}
1000
5N
1070
     8
1000
5N
1002
{
1000
Color
1070
     1
1070
     3
1002
{
1002
}
1000
LType
1070
     4
1000
CONTINUOUS
1002
{
1002
}
1000
Base
1070
     3
1070
     0
1002
{
1002
}
1002
}
1000
6N
1070
     8
1000
6N
1002
{
1000
Color
1070
     1
1070
     2
1002
{
1002
}
1000
LType
1070
     4
1000
CONTINUOUS
1002
{
1002
}
1000
Base
1070
     3
1070
     0
1002
{
1002
}
1002
}
1000
7N
1070
     8
1000
7N
1002
{
1000
Color
1070
     1
1070
     4
1002
{
1002
}
1000
LType
1070
     4
1000
GEN7
1002
{
1002
}
1000
Base
1070
     3
1070
     0
1002
{
1002
}
1002
}
1000
8N
1070
     8
1000
8N
1002
{
1000
Color
1070
     1
1070
     1
1002
{
1002
}
1000
LType
1070
     4
1000
CONTINUOUS
1002
{
1002
}
1000
Base
1070
     3
1070
     0
1002
{
1002
}
1002
}
1000
3AN
1070
     8
1000
3AN
1002
{
1000
Color
1070
     1
1070
     6
1002
{
1002
}
1000
LType
1070
     4
1000
GEN3A
1002
{
1002
}
1000
Base
1070
     3
1070
     0
1002
{
1002
}
1002
}
1000
7AN
1070
     8
1000
7AN
1002
{
1000
Color
1070
     1
1070
     4
1002
{
1002
}
1000
LType
1070
     4
1000
GEN7A
1002
{
1002
}
1000
Base
1070
     3
1070
     0
1002
{
1002
}
1002
}
1000
2AN
1070
     8
1000
2AN
1002
{
1000
Color
1070
     1
1070
     7
1002
{
1002
}
1000
LType
1070
     4
1000
GEN7
1002
{
1002
}
1000
Base
1070
     3
1070
     0
1002
{
1002
}
1002
}
1000
4AN
1070
     8
1000
4AN
1002
{
1000
Color
1070
     1
1070
     3
1002
{
1002
}
1000
LType
1070
     4
1000
GEN4A
1002
{
1002
}
1000
Base
1070
     3
1070
     0
1002
{
1002
}
1002
}
1000
9N
1070
     8
1000
9N
1002
{
1000
Color
1070
     1
1070
   253
1002
{
1002
}
1000
LType
1070
     4
1000
CONTINUOUS
1002
{
1002
}
1000
Base
1070
     3
1070
     0
1002
{
1002
}
1002
}
1002
}
1000
Extra
1070
     0
1002
{
1000
Klin
1070
     8
1000
KLIN
1002
{
1000
Color
1070
     1
1070
     1
1002
{
1002
}
1000
LType
1070
     4
1000
CONTINUOUS
1002
{
1002
}
1000
Base
1070
     3
1070
     1
1002
{
1002
}
1002
}
1000
Info
1070
     8
1000
INFO
1002
{
1000
Color
1070
     1
1070
     4
1002
{
1002
}
1000
LType
1070
     4
1000
CONTINUOUS
1002
{
1002
}
1000
Base
1070
     3
1070
     1
1002
{
1002
}
1002
}
1000
Rahm2
1070
     8
1000
RAHM2
1002
{
1000
Color
1070
     1
1070
     1
1002
{
1002
}
1000
LType
1070
     4
1000
CONTINUOUS
1002
{
1002
}
1000
Base
1070
     3
1070
     1
1002
{
1002
}
1002
}
1000
Rahm3
1070
     8
1000
RAHM3
1002
{
1000
Color
1070
     1
1070
     2
1002
{
1002
}
1000
LType
1070
     4
1000
CONTINUOUS
1002
{
1002
}
1000
Base
1070
     3
1070
     1
1002
{
1002
}
1002
}
1000
Rahm5
1070
     8
1000
RAHM5
1002
{
1000
Color
1070
     1
1070
     7
1002
{
1002
}
1000
LType
1070
     4
1000
CONTINUOUS
1002
{
1002
}
1000
Base
1070
     3
1070
     1
1002
{
1002
}
1002
}
1000
View
1070
     8
1000
VIEW
1002
{
1000
Color
1070
     1
1070
     1
1002
{
1002
}
1000
LType
1070
     4
1000
CONTINUOUS
1002
{
1002
}
1000
Base
1070
     3
1070
     1
1002
{
1002
}
1002
}
1000
Behind
1070
     8
1000
BEHIND
1002
{
1000
Color
1070
     1
1070
   253
1002
{
1002
}
1000
LType
1070
     4
1000
CONTINUOUS
1002
{
1002
}
1000
Base
1070
     3
1070
     1
1002
{
1002
}
1002
}
1002
}
  0
APPID
  5
2C
330
9
100
AcDbSymbolTableRecord
100
AcDbRegAppTableRecord
  2
GENIUS_GENCFG2_13
 70
     0
1001
GENIUS_GENCFG_13
1071
862825278
1000
2C
1000
GEN@LAYER@ENTSORT
1070
    10
1000
GenCfgObject
1000
GenCfgShort
1000
GenCfgReal
1000
GenCfgBool
1000
GenCfgString
1000
GenCfgDim
1000
GenCfgAttrInf
1000
GenCfgLaySection
1000
GenCfgLayer
1000
GenCfgEntSort
1000
ALTR
1070
     9
1000
4
1002
{
1000
Class
1070
     4
1000

1002
{
1002
}
1000
Color
1070
     1
1070
     7
1002
{
1002
}
1000
LType
1070
     4
1000
GEN3A
1002
{
1002
}
1002
}
1000
BELI
1070
     9
1000
4
1002
{
1000
Class
1070
     4
1000

1002
{
1002
}
1000
Color
1070
     1
1070
   256
1002
{
1002
}
1000
LType
1070
     4
1000
BYLAYER
1002
{
1002
}
1002
}
1000
BHNV
1070
     9
1000
9
1002
{
1000
Class
1070
     4
1000
INV
1002
{
1002
}
1000
Color
1070
     1
1070
   256
1002
{
1002
}
1000
LType
1070
     4
1000
BYLAYER
1002
{
1002
}
1002
}
1000
BHNVS
1070
     9
1000
BEHIND
1002
{
1000
Class
1070
     4
1000
INV
1002
{
1002
}
1000
Color
1070
     1
1070
   256
1002
{
1002
}
1000
LType
1070
     4
1000
BYLAYER
1002
{
1002
}
1002
}
1000
BLID
1070
     9
1000
4A
1002
{
1000
Class
1070
     4
1000

1002
{
1002
}
1000
Color
1070
     1
1070
   256
1002
{
1002
}
1000
LType
1070
     4
1000
BYLAYER
1002
{
1002
}
1002
}
1000
BOAP
1070
     9
1000
4A
1002
{
1000
Class
1070
     4
1000

1002
{
1002
}
1000
Color
1070
     1
1070
   256
1002
{
1002
}
1000
LType
1070
     4
1000
BYLAYER
1002
{
1002
}
1002
}
1000
BOR2
1070
     9
1000
RAHM2
1002
{
1000
Class
1070
     4
1000
SPZ,SYM
1002
{
1002
}
1000
Color
1070
     1
1070
   256
1002
{
1002
}
1000
LType
1070
     4
1000
BYLAYER
1002
{
1002
}
1002
}
1000
BOR3
1070
     9
1000
RAHM3
1002
{
1000
Class
1070
     4
1000
SPZ,SYM
1002
{
1002
}
1000
Color
1070
     1
1070
   256
1002
{
1002
}
1000
LType
1070
     4
1000
BYLAYER
1002
{
1002
}
1002
}
1000
BOR5
1070
     9
1000
RAHM5
1002
{
1000
Class
1070
     4
1000
SPZ,SYM
1002
{
1002
}
1000
Color
1070
     1
1070
   256
1002
{
1002
}
1000
LType
1070
     4
1000
BYLAYER
1002
{
1002
}
1002
}
1000
BOR7
1070
     9
1000
RAHM5
1002
{
1000
Class
1070
     4
1000
SPZ,SYM
1002
{
1002
}
1000
Color
1070
     1
1070
     7
1002
{
1002
}
1000
LType
1070
     4
1000
CONTINUOUS
1002
{
1002
}
1002
}
1000
BPAP
1070
     9
1000
4A
1002
{
1000
Class
1070
     4
1000

1002
{
1002
}
1000
Color
1070
     1
1070
   256
1002
{
1002
}
1000
LType
1070
     4
1000
BYLAYER
1002
{
1002
}
1002
}
1000
BPEX
1070
     9
1000
4A
1002
{
1000
Class
1070
     4
1000

1002
{
1002
}
1000
Color
1070
     1
1070
   256
1002
{
1002
}
1000
LType
1070
     4
1000
BYLAYER
1002
{
1002
}
1002
}
1000
BTDI
1070
     9
1000
5
1002
{
1000
Class
1070
     4
1000
DIM,SYM
1002
{
1002
}
1000
Color
1070
     1
1070
   256
1002
{
1002
}
1000
LType
1070
     4
1000
BYLAYER
1002
{
1002
}
1002
}
1000
CAL2
1070
     9
1000
4
1002
{
1000
Class
1070
     4
1000
SYM
1002
{
1002
}
1000
Color
1070
     1
1070
   256
1002
{
1002
}
1000
LType
1070
     4
1000
BYLAYER
1002
{
1002
}
1002
}
1000
CAL3
1070
     9
1000
4
1002
{
1000
Class
1070
     4
1000
SYM
1002
{
1002
}
1000
Color
1070
     1
1070
     2
1002
{
1002
}
1000
LType
1070
     4
1000
BYLAYER
1002
{
1002
}
1002
}
1000
CAL5
1070
     9
1000
4
1002
{
1000
Class
1070
     4
1000
SYM
1002
{
1002
}
1000
Color
1070
     1
1070
     7
1002
{
1002
}
1000
LType
1070
     4
1000
BYLAYER
1002
{
1002
}
1002
}
1000
CAL7
1070
     9
1000
4
1002
{
1000
Class
1070
     4
1000
SYM
1002
{
1002
}
1000
Color
1070
     1
1070
     5
1002
{
1002
}
1000
LType
1070
     4
1000
BYLAYER
1002
{
1002
}
1002
}
1000
CENN
1070
     9
1000
7A
1002
{
1000
Class
1070
     4
1000
CEN
1002
{
1002
}
1000
Color
1070
     1
1070
   256
1002
{
1002
}
1000
LType
1070
     4
1000
BYLAYER
1002
{
1002
}
1002
}
1000
CENW
1070
     9
1000
7
1002
{
1000
Class
1070
     4
1000
CEN
1002
{
1002
}
1000
Color
1070
     1
1070
   256
1002
{
1002
}
1000
LType
1070
     4
1000
BYLAYER
1002
{
1002
}
1002
}
1000
CLIN
1070
     9
1000
KLIN
1002
{
1000
Class
1070
     4
1000
SPZ
1002
{
1002
}
1000
Color
1070
     1
1070
   256
1002
{
1002
}
1000
LType
1070
     4
1000
BYLAYER
1002
{
1002
}
1002
}
1000
CON1
1070
     9
1000
0
1002
{
1000
Class
1070
     4
1000
CON,BGD
1002
{
1002
}
1000
Color
1070
     1
1070
   256
1002
{
1002
}
1000
LType
1070
     4
1000
BYLAYER
1002
{
1002
}
1002
}
1000
CON2
1070
     9
1000
1
1002
{
1000
Class
1070
     4
1000
CON,BGD
1002
{
1002
}
1000
Color
1070
     1
1070
   256
1002
{
1002
}
1000
LType
1070
     4
1000
BYLAYER
1002
{
1002
}
1002
}
1000
CON3
1070
     9
1000
2
1002
{
1000
Class
1070
     4
1000
CON,BGD
1002
{
1002
}
1000
Color
1070
     1
1070
   256
1002
{
1002
}
1000
LType
1070
     4
1000
BYLAYER
1002
{
1002
}
1002
}
1000
CON4
1070
     9
1000
2
1002
{
1000
Class
1070
     4
1000
CON,BGD
1002
{
1002
}
1000
Color
1070
     1
1070
   256
1002
{
1002
}
1000
LType
1070
     4
1000
BYLAYER
1002
{
1002
}
1002
}
1000
DERP
1070
     9
1000
4
1002
{
1000
Class
1070
     4
1000

1002
{
1002
}
1000
Color
1070
     1
1070
   256
1002
{
1002
}
1000
LType
1070
     4
1000
BYLAYER
1002
{
1002
}
1002
}
1000
DETA
1070
     9
1000
4
1002
{
1000
Class
1070
     4
1000

1002
{
1002
}
1000
Color
1070
     1
1070
   256
1002
{
1002
}
1000
LType
1070
     4
1000
BYLAYER
1002
{
1002
}
1002
}
1000
DIAG
1070
     9
1000
5
1002
{
1000
Class
1070
     4
1000
SYM
1002
{
1002
}
1000
Color
1070
     1
1070
   256
1002
{
1002
}
1000
LType
1070
     4
1000
BYLAYER
1002
{
1002
}
1002
}
1000
DILI
1070
     9
1000
5
1002
{
1000
Class
1070
     4
1000
DIM,SYM
1002
{
1002
}
1000
Color
1070
     1
1070
   256
1002
{
1002
}
1000
LType
1070
     4
1000
BYLAYER
1002
{
1002
}
1002
}
1000
DITX
1070
     9
1000
5
1002
{
1000
Class
1070
     4
1000
DIM,SYM
1002
{
1002
}
1000
Color
1070
     1
1070
     2
1002
{
1002
}
1000
LType
1070
     4
1000
CONTINUOUS
1002
{
1002
}
1002
}
1000
DITO2
1070
     9
1000
5
1002
{
1000
Class
1070
     4
1000
DIM,SYM
1002
{
1002
}
1000
Color
1070
     1
1070
     3
1002
{
1002
}
1000
LType
1070
     4
1000
BYLAYER
1002
{
1002
}
1002
}
1000
DITO3
1070
     9
1000
5
1002
{
1000
Class
1070
     4
1000
DIM,SYM
1002
{
1002
}
1000
Color
1070
     1
1070
     2
1002
{
1002
}
1000
LType
1070
     4
1000
BYLAYER
1002
{
1002
}
1002
}
1000
DIXL
1070
     9
1000
5
1002
{
1000
Class
1070
     4
1000
DIM,SYM
1002
{
1002
}
1000
Color
1070
     1
1070
   256
1002
{
1002
}
1000
LType
1070
     4
1000
BYLAYER
1002
{
1002
}
1002
}
1000
EXMP
1070
     9
1000
4A
1002
{
1000
Class
1070
     4
1000

1002
{
1002
}
1000
Color
1070
     1
1070
   256
1002
{
1002
}
1000
LType
1070
     4
1000
BYLAYER
1002
{
1002
}
1002
}
1000
FEMN
1070
     9
1000
8
1002
{
1000
Class
1070
     4
1000

1002
{
1002
}
1000
Color
1070
     1
1070
   256
1002
{
1002
}
1000
LType
1070
     4
1000
BYLAYER
1002
{
1002
}
1002
}
1000
FEMPN
1070
     9
1000
8
1002
{
1000
Class
1070
     4
1000
SYM
1002
{
1002
}
1000
Color
1070
     1
1070
     3
1002
{
1002
}
1000
LType
1070
     4
1000
BYLAYER
1002
{
1002
}
1002
}
1000
FEMSP
1070
     9
1000
4A
1002
{
1000
Class
1070
     4
1000

1002
{
1002
}
1000
Color
1070
     1
1070
   256
1002
{
1002
}
1000
LType
1070
     4
1000
CONTINUOUS
1002
{
1002
}
1002
}
1000
FEMST
1070
     9
1000
4A
1002
{
1000
Class
1070
     4
1000
SYM
1002
{
1002
}
1000
Color
1070
     1
1070
     3
1002
{
1002
}
1000
LType
1070
     4
1000
BYLAYER
1002
{
1002
}
1002
}
1000
FEMVN
1070
     9
1000
2
1002
{
1000
Class
1070
     4
1000
CON
1002
{
1002
}
1000
Color
1070
     1
1070
   256
1002
{
1002
}
1000
LType
1070
     4
1000
BYLAYER
1002
{
1002
}
1002
}
1000
FEMVT
1070
     9
1000
2
1002
{
1000
Class
1070
     4
1000
SYM
1002
{
1002
}
1000
Color
1070
     1
1070
     3
1002
{
1002
}
1000
LType
1070
     4
1000
BYLAYER
1002
{
1002
}
1002
}
1000
FLAT
1070
     9
1000
0
1002
{
1000
Class
1070
     4
1000

1002
{
1002
}
1000
Color
1070
     1
1070
   256
1002
{
1002
}
1000
LType
1070
     4
1000
BYLAYER
1002
{
1002
}
1002
}
1000
FRAR
1070
     9
1000
4A
1002
{
1000
Class
1070
     4
1000

1002
{
1002
}
1000
Color
1070
     1
1070
   256
1002
{
1002
}
1000
LType
1070
     4
1000
BYLAYER
1002
{
1002
}
1002
}
1000
GRLI
1070
     9
1000
5
1002
{
1000
Class
1070
     4
1000
SYM
1002
{
1002
}
1000
Color
1070
     1
1070
   256
1002
{
1002
}
1000
LType
1070
     4
1000
BYLAYER
1002
{
1002
}
1002
}
1000
GVLI
1070
     9
1000
4A
1002
{
1000
Class
1070
     4
1000

1002
{
1002
}
1000
Color
1070
     1
1070
   256
1002
{
1002
}
1000
LType
1070
     4
1000
BYLAYER
1002
{
1002
}
1002
}
1000
HATC
1070
     9
1000
8
1002
{
1000
Class
1070
     4
1000
HTC,BGD
1002
{
1002
}
1000
Color
1070
     1
1070
   256
1002
{
1002
}
1000
LType
1070
     4
1000
BYLAYER
1002
{
1002
}
1002
}
1000
HIDN
1070
     9
1000
3A
1002
{
1000
Class
1070
     4
1000
HID,BGD
1002
{
1002
}
1000
Color
1070
     1
1070
   256
1002
{
1002
}
1000
LType
1070
     4
1000
BYLAYER
1002
{
1002
}
1002
}
1000
HIDW
1070
     9
1000
3
1002
{
1000
Class
1070
     4
1000
HID,BGD
1002
{
1002
}
1000
Color
1070
     1
1070
   256
1002
{
1002
}
1000
LType
1070
     4
1000
BYLAYER
1002
{
1002
}
1002
}
1000
HLIN
1070
     9
1000
4
1002
{
1000
Class
1070
     4
1000
BGD
1002
{
1002
}
1000
Color
1070
     1
1070
   256
1002
{
1002
}
1000
LType
1070
     4
1000
BYLAYER
1002
{
1002
}
1002
}
1000
HOCN
1070
     9
1000
7A
1002
{
1000
Class
1070
     4
1000
CEN
1002
{
1002
}
1000
Color
1070
     1
1070
   256
1002
{
1002
}
1000
LType
1070
     4
1000
BYLAYER
1002
{
1002
}
1002
}
1000
HOCW
1070
     9
1000
7
1002
{
1000
Class
1070
     4
1000
CEN
1002
{
1002
}
1000
Color
1070
     1
1070
   256
1002
{
1002
}
1000
LType
1070
     4
1000
BYLAYER
1002
{
1002
}
1002
}
1000
INFO
1070
     9
1000
INFO
1002
{
1000
Class
1070
     4
1000
SPZ,SYM
1002
{
1002
}
1000
Color
1070
     1
1070
   256
1002
{
1002
}
1000
LType
1070
     4
1000
BYLAYER
1002
{
1002
}
1002
}
1000
LADI
1070
     9
1000
4
1002
{
1000
Class
1070
     4
1000
BGD
1002
{
1002
}
1000
Color
1070
     1
1070
   256
1002
{
1002
}
1000
LType
1070
     4
1000
BYLAYER
1002
{
1002
}
1002
}
1000
LEAD
1070
     9
1000
5
1002
{
1000
Class
1070
     4
1000
SYM
1002
{
1002
}
1000
Color
1070
     1
1070
   256
1002
{
1002
}
1000
LType
1070
     4
1000
BYLAYER
1002
{
1002
}
1002
}
1000
N_BHNV
1070
     9
1000
9N
1002
{
1000
Class
1070
     4
1000
INV
1002
{
1002
}
1000
Color
1070
     1
1070
   256
1002
{
1002
}
1000
LType
1070
     4
1000
BYLAYER
1002
{
1002
}
1002
}
1000
N_CON1
1070
     9
1000
0N
1002
{
1000
Class
1070
     4
1000
CON,BGD
1002
{
1002
}
1000
Color
1070
     1
1070
   256
1002
{
1002
}
1000
LType
1070
     4
1000
BYLAYER
1002
{
1002
}
1002
}
1000
N_CON2
1070
     9
1000
1N
1002
{
1000
Class
1070
     4
1000
CON,BGD
1002
{
1002
}
1000
Color
1070
     1
1070
   256
1002
{
1002
}
1000
LType
1070
     4
1000
BYLAYER
1002
{
1002
}
1002
}
1000
N_CON3
1070
     9
1000
2N
1002
{
1000
Class
1070
     4
1000
CON,BGD
1002
{
1002
}
1000
Color
1070
     1
1070
   256
1002
{
1002
}
1000
LType
1070
     4
1000
BYLAYER
1002
{
1002
}
1002
}
1000
N_CON4
1070
     9
1000
2N
1002
{
1000
Class
1070
     4
1000
CON,BGD
1002
{
1002
}
1000
Color
1070
     1
1070
   256
1002
{
1002
}
1000
LType
1070
     4
1000
BYLAYER
1002
{
1002
}
1002
}
1000
N_CENN
1070
     9
1000
7AN
1002
{
1000
Class
1070
     4
1000
CEN
1002
{
1002
}
1000
Color
1070
     1
1070
   256
1002
{
1002
}
1000
LType
1070
     4
1000
BYLAYER
1002
{
1002
}
1002
}
1000
N_CENW
1070
     9
1000
7N
1002
{
1000
Class
1070
     4
1000
CEN
1002
{
1002
}
1000
Color
1070
     1
1070
   256
1002
{
1002
}
1000
LType
1070
     4
1000
BYLAYER
1002
{
1002
}
1002
}
1000
N_DILI
1070
     9
1000
5N
1002
{
1000
Class
1070
     4
1000
DIM,SYM
1002
{
1002
}
1000
Color
1070
     1
1070
   256
1002
{
1002
}
1000
LType
1070
     4
1000
BYLAYER
1002
{
1002
}
1002
}
1000
N_DITX
1070
     9
1000
5N
1002
{
1000
Class
1070
     4
1000
DIM,SYM
1002
{
1002
}
1000
Color
1070
     1
1070
     2
1002
{
1002
}
1000
LType
1070
     4
1000
CONTINUOUS
1002
{
1002
}
1002
}
1000
N_DIXL
1070
     9
1000
5N
1002
{
1000
Class
1070
     4
1000
DIM,SYM
1002
{
1002
}
1000
Color
1070
     1
1070
   256
1002
{
1002
}
1000
LType
1070
     4
1000
BYLAYER
1002
{
1002
}
1002
}
1000
N_HATC
1070
     9
1000
8N
1002
{
1000
Class
1070
     4
1000
HTC,BGD
1002
{
1002
}
1000
Color
1070
     1
1070
   256
1002
{
1002
}
1000
LType
1070
     4
1000
BYLAYER
1002
{
1002
}
1002
}
1000
N_HIDN
1070
     9
1000
3AN
1002
{
1000
Class
1070
     4
1000
HID,BGD
1002
{
1002
}
1000
Color
1070
     1
1070
   256
1002
{
1002
}
1000
LType
1070
     4
1000
BYLAYER
1002
{
1002
}
1002
}
1000
N_HIDW
1070
     9
1000
3N
1002
{
1000
Class
1070
     4
1000
HID,BGD
1002
{
1002
}
1000
Color
1070
     1
1070
   256
1002
{
1002
}
1000
LType
1070
     4
1000
BYLAYER
1002
{
1002
}
1002
}
1000
N_PHAN
1070
     9
1000
4AN
1002
{
1000
Class
1070
     4
1000

1002
{
1002
}
1000
Color
1070
     1
1070
   256
1002
{
1002
}
1000
LType
1070
     4
1000
BYLAYER
1002
{
1002
}
1002
}
1000
N_POSL
1070
     9
1000
5N
1002
{
1000
Class
1070
     4
1000
SYM
1002
{
1002
}
1000
Color
1070
     1
1070
   256
1002
{
1002
}
1000
LType
1070
     4
1000
BYLAYER
1002
{
1002
}
1002
}
1000
N_TCON
1070
     9
1000
0N
1002
{
1000
Class
1070
     4
1000
CON,BGD
1002
{
1002
}
1000
Color
1070
     1
1070
   256
1002
{
1002
}
1000
LType
1070
     4
1000
BYLAYER
1002
{
1002
}
1002
}
1000
N_THLI
1070
     9
1000
4N
1002
{
1000
Class
1070
     4
1000
BGD
1002
{
1002
}
1000
Color
1070
     1
1070
   256
1002
{
1002
}
1000
LType
1070
     4
1000
BYLAYER
1002
{
1002
}
1002
}
1000
N_TLEN
1070
     9
1000
0N
1002
{
1000
Class
1070
     4
1000
CON,BGD
1002
{
1002
}
1000
Color
1070
     1
1070
   256
1002
{
1002
}
1000
LType
1070
     4
1000
BYLAYER
1002
{
1002
}
1002
}
1000
N_TXT3
1070
     9
1000
6N
1002
{
1000
Class
1070
     4
1000
SYM
1002
{
1002
}
1000
Color
1070
     1
1070
   256
1002
{
1002
}
1000
LType
1070
     4
1000
BYLAYER
1002
{
1002
}
1002
}
1000
N_VPLI
1070
     9
1000
2AN
1002
{
1000
Class
1070
     4
1000

1002
{
1002
}
1000
Color
1070
     1
1070
   256
1002
{
1002
}
1000
LType
1070
     4
1000
BYLAYER
1002
{
1002
}
1002
}
1000
PAL2
1070
     9
1000
RAHM2
1002
{
1000
Class
1070
     4
1000
SPZ,SYM
1002
{
1002
}
1000
Color
1070
     1
1070
   256
1002
{
1002
}
1000
LType
1070
     4
1000
BYLAYER
1002
{
1002
}
1002
}
1000
PAL3
1070
     9
1000
RAHM3
1002
{
1000
Class
1070
     4
1000
SPZ,SYM
1002
{
1002
}
1000
Color
1070
     1
1070
   256
1002
{
1002
}
1000
LType
1070
     4
1000
BYLAYER
1002
{
1002
}
1002
}
1000
PAL5
1070
     9
1000
RAHM5
1002
{
1000
Class
1070
     4
1000
SPZ,SYM
1002
{
1002
}
1000
Color
1070
     1
1070
   256
1002
{
1002
}
1000
LType
1070
     4
1000
BYLAYER
1002
{
1002
}
1002
}
1000
PAL7
1070
     9
1000
RAHM5
1002
{
1000
Class
1070
     4
1000
SPZ,SYM
1002
{
1002
}
1000
Color
1070
     1
1070
     7
1002
{
1002
}
1000
LType
1070
     4
1000
CONTINUOUS
1002
{
1002
}
1002
}
1000
PHAN
1070
     9
1000
4A
1002
{
1000
Class
1070
     4
1000

1002
{
1002
}
1000
Color
1070
     1
1070
   256
1002
{
1002
}
1000
LType
1070
     4
1000
BYLAYER
1002
{
1002
}
1002
}
1000
POSL
1070
     9
1000
5
1002
{
1000
Class
1070
     4
1000
SYM
1002
{
1002
}
1000
Color
1070
     1
1070
   256
1002
{
1002
}
1000
LType
1070
     4
1000
BYLAYER
1002
{
1002
}
1002
}
1000
POSN
1070
     9
1000
6
1002
{
1000
Class
1070
     4
1000
SYM
1002
{
1002
}
1000
Color
1070
     1
1070
     7
1002
{
1002
}
1000
LType
1070
     4
1000
BYLAYER
1002
{
1002
}
1002
}
1000
POSREF
1070
     9
1000
6
1002
{
1000
Class
1070
     4
1000
SYM
1002
{
1002
}
1000
Color
1070
     1
1070
     5
1002
{
1002
}
1000
LType
1070
     4
1000
BYLAYER
1002
{
1002
}
1002
}
1000
POSX
1070
     9
1000
5
1002
{
1000
Class
1070
     4
1000
SYM
1002
{
1002
}
1000
Color
1070
     1
1070
     2
1002
{
1002
}
1000
LType
1070
     4
1000
CONTINUOUS
1002
{
1002
}
1002
}
1000
PSEC
1070
     9
1000
4A
1002
{
1000
Class
1070
     4
1000

1002
{
1002
}
1000
Color
1070
     1
1070
   256
1002
{
1002
}
1000
LType
1070
     4
1000
BYLAYER
1002
{
1002
}
1002
}
1000
RCGN
1070
     9
1000
7A
1002
{
1000
Class
1070
     4
1000
CEN
1002
{
1002
}
1000
Color
1070
     1
1070
   256
1002
{
1002
}
1000
LType
1070
     4
1000
BYLAYER
1002
{
1002
}
1002
}
1000
RCGW
1070
     9
1000
7
1002
{
1000
Class
1070
     4
1000
CEN
1002
{
1002
}
1000
Color
1070
     1
1070
   256
1002
{
1002
}
1000
LType
1070
     4
1000
BYLAYER
1002
{
1002
}
1002
}
1000
RFDI
1070
     9
1000
4
1002
{
1000
Class
1070
     4
1000
BGD
1002
{
1002
}
1000
Color
1070
     1
1070
   256
1002
{
1002
}
1000
LType
1070
     4
1000
BYLAYER
1002
{
1002
}
1002
}
1000
RQTR
1070
     9
1000
4
1002
{
1000
Class
1070
     4
1000

1002
{
1002
}
1000
Color
1070
     1
1070
     7
1002
{
1002
}
1000
LType
1070
     4
1000
GEN7A
1002
{
1002
}
1002
}
1000
RSBO
1070
     9
1000
4
1002
{
1000
Class
1070
     4
1000
BGD
1002
{
1002
}
1000
Color
1070
     1
1070
   256
1002
{
1002
}
1000
LType
1070
     4
1000
BYLAYER
1002
{
1002
}
1002
}
1000
SBRK
1070
     9
1000
4
1002
{
1000
Class
1070
     4
1000
BGD
1002
{
1002
}
1000
Color
1070
     1
1070
   256
1002
{
1002
}
1000
LType
1070
     4
1000
BYLAYER
1002
{
1002
}
1002
}
1000
SCEN
1070
     9
1000
7
1002
{
1000
Class
1070
     4
1000

1002
{
1002
}
1000
Color
1070
     1
1070
   256
1002
{
1002
}
1000
LType
1070
     4
1000
CONTINUOUS
1002
{
1002
}
1002
}
1000
SECT
1070
     9
1000
4
1002
{
1000
Class
1070
     4
1000
BGD
1002
{
1002
}
1000
Color
1070
     1
1070
   256
1002
{
1002
}
1000
LType
1070
     4
1000
BYLAYER
1002
{
1002
}
1002
}
1000
SELN
1070
     9
1000
7A
1002
{
1000
Class
1070
     4
1000

1002
{
1002
}
1000
Color
1070
     1
1070
   256
1002
{
1002
}
1000
LType
1070
     4
1000
BYLAYER
1002
{
1002
}
1002
}
1000
SELW
1070
     9
1000
7
1002
{
1000
Class
1070
     4
1000

1002
{
1002
}
1000
Color
1070
     1
1070
   256
1002
{
1002
}
1000
LType
1070
     4
1000
BYLAYER
1002
{
1002
}
1002
}
1000
SSYS
1070
     9
1000
0
1002
{
1000
Class
1070
     4
1000

1002
{
1002
}
1000
Color
1070
     1
1070
   256
1002
{
1002
}
1000
LType
1070
     4
1000
BYLAYER
1002
{
1002
}
1002
}
1000
STLI
1070
     9
1000
4
1002
{
1000
Class
1070
     4
1000

1002
{
1002
}
1000
Color
1070
     1
1070
     7
1002
{
1002
}
1000
LType
1070
     4
1000
GEN3A
1002
{
1002
}
1002
}
1000
SYB1
1070
     9
1000
5
1002
{
1000
Class
1070
     4
1000
SYM
1002
{
1002
}
1000
Color
1070
     1
1070
   256
1002
{
1002
}
1000
LType
1070
     4
1000
BYLAYER
1002
{
1002
}
1002
}
1000
SYB2
1070
     9
1000
5
1002
{
1000
Class
1070
     4
1000
SYM
1002
{
1002
}
1000
Color
1070
     1
1070
   256
1002
{
1002
}
1000
LType
1070
     4
1000
BYLAYER
1002
{
1002
}
1002
}
1000
SYB3
1070
     9
1000
6
1002
{
1000
Class
1070
     4
1000
SYM
1002
{
1002
}
1000
Color
1070
     1
1070
   256
1002
{
1002
}
1000
LType
1070
     4
1000
CONTINUOUS
1002
{
1002
}
1002
}
1000
SYB5
1070
     9
1000
5
1002
{
1000
Class
1070
     4
1000
SYM
1002
{
1002
}
1000
Color
1070
     1
1070
     7
1002
{
1002
}
1000
LType
1070
     4
1000
BYLAYER
1002
{
1002
}
1002
}
1000
SYMN
1070
     9
1000
7A
1002
{
1000
Class
1070
     4
1000
CEN
1002
{
1002
}
1000
Color
1070
     1
1070
   256
1002
{
1002
}
1000
LType
1070
     4
1000
BYLAYER
1002
{
1002
}
1002
}
1000
SYMW
1070
     9
1000
7
1002
{
1000
Class
1070
     4
1000
CEN
1002
{
1002
}
1000
Color
1070
     1
1070
   256
1002
{
1002
}
1000
LType
1070
     4
1000
BYLAYER
1002
{
1002
}
1002
}
1000
TCON
1070
     9
1000
0
1002
{
1000
Class
1070
     4
1000
CON,BGD
1002
{
1002
}
1000
Color
1070
     1
1070
   256
1002
{
1002
}
1000
LType
1070
     4
1000
BYLAYER
1002
{
1002
}
1002
}
1000
THLI
1070
     9
1000
4
1002
{
1000
Class
1070
     4
1000
BGD
1002
{
1002
}
1000
Color
1070
     1
1070
   256
1002
{
1002
}
1000
LType
1070
     4
1000
BYLAYER
1002
{
1002
}
1002
}
1000
TIT2
1070
     9
1000
RAHM2
1002
{
1000
Class
1070
     4
1000
SPZ,SYM
1002
{
1002
}
1000
Color
1070
     1
1070
   256
1002
{
1002
}
1000
LType
1070
     4
1000
BYLAYER
1002
{
1002
}
1002
}
1000
TIT3
1070
     9
1000
RAHM3
1002
{
1000
Class
1070
     4
1000
SPZ,SYM
1002
{
1002
}
1000
Color
1070
     1
1070
   256
1002
{
1002
}
1000
LType
1070
     4
1000
BYLAYER
1002
{
1002
}
1002
}
1000
TIT5
1070
     9
1000
RAHM5
1002
{
1000
Class
1070
     4
1000
SPZ,SYM
1002
{
1002
}
1000
Color
1070
     1
1070
   256
1002
{
1002
}
1000
LType
1070
     4
1000
BYLAYER
1002
{
1002
}
1002
}
1000
TIT7
1070
     9
1000
RAHM5
1002
{
1000
Class
1070
     4
1000
SPZ,SYM
1002
{
1002
}
1000
Color
1070
     1
1070
     7
1002
{
1002
}
1000
LType
1070
     4
1000
CONTINUOUS
1002
{
1002
}
1002
}
1000
TLEN
1070
     9
1000
0
1002
{
1000
Class
1070
     4
1000
CON,BGD
1002
{
1002
}
1000
Color
1070
     1
1070
   256
1002
{
1002
}
1000
LType
1070
     4
1000
BYLAYER
1002
{
1002
}
1002
}
1000
TRKN
1070
     9
1000
7A
1002
{
1000
Class
1070
     4
1000

1002
{
1002
}
1000
Color
1070
     1
1070
   256
1002
{
1002
}
1000
LType
1070
     4
1000
BYLAYER
1002
{
1002
}
1002
}
1000
TRKW
1070
     9
1000
7
1002
{
1000
Class
1070
     4
1000

1002
{
1002
}
1000
Color
1070
     1
1070
   256
1002
{
1002
}
1000
LType
1070
     4
1000
BYLAYER
1002
{
1002
}
1002
}
1000
TRLI
1070
     9
1000
4
1002
{
1000
Class
1070
     4
1000
BGD
1002
{
1002
}
1000
Color
1070
     1
1070
   256
1002
{
1002
}
1000
LType
1070
     4
1000
BYLAYER
1002
{
1002
}
1002
}
1000
TXT1
1070
     9
1000
6
1002
{
1000
Class
1070
     4
1000
SYM
1002
{
1002
}
1000
Color
1070
     1
1070
     2
1002
{
1002
}
1000
LType
1070
     4
1000
BYLAYER
1002
{
1002
}
1002
}
1000
TXT2
1070
     9
1000
6
1002
{
1000
Class
1070
     4
1000
SYM
1002
{
1002
}
1000
Color
1070
     1
1070
     2
1002
{
1002
}
1000
LType
1070
     4
1000
BYLAYER
1002
{
1002
}
1002
}
1000
TXT3
1070
     9
1000
6
1002
{
1000
Class
1070
     4
1000
SYM
1002
{
1002
}
1000
Color
1070
     1
1070
   256
1002
{
1002
}
1000
LType
1070
     4
1000
BYLAYER
1002
{
1002
}
1002
}
1000
TXT5
1070
     9
1000
6
1002
{
1000
Class
1070
     4
1000
SYM
1002
{
1002
}
1000
Color
1070
     1
1070
     7
1002
{
1002
}
1000
LType
1070
     4
1000
BYLAYER
1002
{
1002
}
1002
}
1000
TXT7
1070
     9
1000
6
1002
{
1000
Class
1070
     4
1000
SYM
1002
{
1002
}
1000
Color
1070
     1
1070
     7
1002
{
1002
}
1000
LType
1070
     4
1000
BYLAYER
1002
{
1002
}
1002
}
1000
VIEW
1070
     9
1000
VIEW
1002
{
1000
Class
1070
     4
1000
SPZ
1002
{
1002
}
1000
Color
1070
     1
1070
   256
1002
{
1002
}
1000
LType
1070
     4
1000
BYLAYER
1002
{
1002
}
1002
}
1000
VPLI
1070
     9
1000
2A
1002
{
1000
Class
1070
     4
1000

1002
{
1002
}
1000
Color
1070
     1
1070
   256
1002
{
1002
}
1000
LType
1070
     4
1000
BYLAYER
1002
{
1002
}
1002
}
1000
ZIZA
1070
     9
1000
4
1002
{
1000
Class
1070
     4
1000
BGD
1002
{
1002
}
1000
Color
1070
     1
1070
   256
1002
{
1002
}
1000
LType
1070
     4
1000
GENZIGZAG
1002
{
1002
}
1002
}
  0
APPID
  5
2D
330
9
100
AcDbSymbolTableRecord
100
AcDbRegAppTableRecord
  2
GENIUS_GENCFG3_13
 70
     0
1001
GENIUS_GENCFG_13
1071
862825278
1000
2D
1000
GEN@OSWIZ
1070
    12
1000
GenCfgObject
1000
GenCfgShort
1000
GenCfgReal
1000
GenCfgBool
1000
GenCfgString
1000
GenCfgDim
1000
GenCfgAttrInf
1000
GenCfgLaySection
1000
GenCfgLayer
1000
GenCfgEntSort
1000
GenCfgLType
1000
GenCfgFilter
1000
AngleStep
1070
     0
1002
{
1000
M
1070
     2
1040
10.0
1002
{
1002
}
1000
I
1070
     2
1040
0.4
1002
{
1002
}
1002
}
1000
AngleIncr
1070
     2
1040
45.0
1002
{
1002
}
1000
Filter
1070
     0
1002
{
1000
HATCH
1070
    11
1002
{
1000
EntityType
1070
     4
1000
LINE
1002
{
1002
}
1000
Layer
1070
     4
1000
8,8N,*-8,*-8N
1002
{
1002
}
1000
Linetype
1070
     4
1000
*
1002
{
1002
}
1000
Color
1070
     4
1000
*
1002
{
1002
}
1002
}
1000
SYMBOLS
1070
    11
1002
{
1000
EntityType
1070
     4
1000
*
1002
{
1002
}
1000
Layer
1070
     4
1000
[5-6],[5-6]N,*-[5-6],*-[5-6]N
1002
{
1002
}
1000
Linetype
1070
     4
1000
*
1002
{
1002
}
1000
Color
1070
     4
1000
*
1002
{
1002
}
1002
}
1000
FEM
1070
    11
1002
{
1000
EntityType
1070
     4
1000
*
1002
{
1002
}
1000
Layer
1070
     4
1000
4A,4AN,*-4A,*-4AN
1002
{
1002
}
1000
Linetype
1070
     4
1000
*
1002
{
1002
}
1000
Color
1070
     4
1000
*
1002
{
1002
}
1002
}
1002
}
1000
IconSize
1070
     2
1040
1.0
1002
{
1002
}
1000
SnapColor
1070
     1
1070
     3
1002
{
1002
}
  0
APPID
  5
2E
330
9
100
AcDbSymbolTableRecord
100
AcDbRegAppTableRecord
  2
GENIUS_GENCFG4_13
 70
     0
1001
GENIUS_GENCFG_13
1071
886433801
1000
2E
1000
GEN
1070
     9
1000
GenCfgObject
1000
GenCfgShort
1000
GenCfgReal
1000
GenCfgBool
1000
GenCfgString
1000
GenCfgDim
1000
GenCfgAttrInf
1000
GenCfgLaySection
1000
GenCfgLType
1000
Balloon
1070
     0
1002
{
1000
GenIF
1070
     1
1070
     0
1002
{
1002
}
1000
GenPosInc
1070
     1
1070
    10
1002
{
1002
}
1000
GenPosBlk
1070
     1
1070
     8
1002
{
1002
}
1000
GenPosVar
1070
     1
1070
     2
1002
{
1002
}
1000
GenZiCir
1070
     2
1040
1.5
1002
{
1002
}
1000
MaxCharForCenteredText
1070
     1
1070
    30
1002
{
1002
}
1000
Snap
1070
     0
1002
{
1000
ActivationRadius
1070
     2
1040
1.0
1002
{
1002
}
1000
M
1070
     0
1002
{
1000
SnapStepX
1070
     2
1040
20.0
1002
{
1002
}
1000
SnapStepY
1070
     2
1040
10.0
1002
{
1002
}
1002
}
1000
I
1070
     0
1002
{
1000
SnapStepX
1070
     2
1040
1.0
1002
{
1002
}
1000
SnapStepY
1070
     2
1040
0.5
1002
{
1002
}
1002
}
1002
}
1002
}
1000
Centerline
1070
     0
1002
{
1000
ScaleNot
1070
     3
1070
     1
1002
{
1002
}
1000
M
1070
     0
1002
{
1000
GenCenAng
1070
     4
1000
45|90|135
1002
{
1002
}
1000
GenCenDia
1070
     2
1040
10.0
1002
{
1002
}
1000
GenCenDias
1070
     4
1000
10|20|30
1002
{
1002
}
1000
GenCenDist
1070
     2
1040
3.0
1002
{
1002
}
1000
GenCenLen
1070
     2
1040
10.0
1002
{
1002
}
1000
GenCenOff
1070
     2
1040
10.0
1002
{
1002
}
1002
}
1000
I
1070
     0
1002
{
1000
GenCenAng
1070
     4
1000
45|90|135
1002
{
1002
}
1000
GenCenDia
1070
     2
1040
0.5
1002
{
1002
}
1000
GenCenDias
1070
     4
1000
0.5|1.0|1.5
1002
{
1002
}
1000
GenCenDist
1070
     2
1040
0.125
1002
{
1002
}
1000
GenCenLen
1070
     2
1040
0.5
1002
{
1002
}
1000
GenCenOff
1070
     2
1040
0.5
1002
{
1002
}
1002
}
1002
}
1000
CLine
1070
     0
1002
{
1000
CAngArray
1070
     4
1000
30|45|60
1002
{
1002
}
1000
Typ
1070
     4
1000
XLINE
1002
{
1002
}
1000
M
1070
     0
1002
{
1000
CLinArray
1070
     4
1000
60
1002
{
1002
}
1002
}
1000
I
1070
     0
1002
{
1000
CLinArray
1070
     4
1000
0.125|0.25|0.5
1002
{
1002
}
1002
}
1002
}
1000
Constraints
1070
     0
1002
{
1000
Color
1070
     0
1002
{
1000
Active_Frame
1070
     1
1070
     2
1002
{
1002
}
1000
Inactive_Frame
1070
     1
1070
     8
1002
{
1002
}
1002
}
1000
Debug
1070
     0
1002
{
1002
}
1000
Editor
1070
     0
1002
{
1002
}
1000
Frame
1070
     0
1002
{
1002
}
1000
Sys
1070
     0
1002
{
1002
}
1002
}
1000
Detail
1070
     0
1002
{
1002
}
1000
Dimension
1070
     5
1002
{
1000
DIMALT
1070
     1
1070
     0
1002
{
1002
}
1000
DIMALTD
1070
     1
1070
     2
1002
{
1002
}
1000
DIMALTTD
1070
     1
1070
     4
1002
{
1002
}
1000
DIMALTTZ
1070
     1
1070
     0
1002
{
1002
}
1000
DIMALTU
1070
     1
1070
     2
1002
{
1002
}
1000
DIMALTZ
1070
     1
1070
     0
1002
{
1002
}
1000
DIMAPOST
1070
     4
1000

1002
{
1002
}
1000
DIMAUNIT
1070
     1
1070
     0
1002
{
1002
}
1000
DIMBLK
1070
     4
1000

1002
{
1002
}
1000
DIMBLK1
1070
     4
1000

1002
{
1002
}
1000
DIMBLK2
1070
     4
1000

1002
{
1002
}
1000
DIMDLE
1070
     2
1040
0.0
1002
{
1002
}
1000
DIMFIT
1070
     1
1070
     3
1002
{
1002
}
1000
DIMJUST
1070
     1
1070
     0
1002
{
1002
}
1000
DIMLFAC
1070
     2
1040
1.0
1002
{
1002
}
1000
DIMLIM
1070
     1
1070
     0
1002
{
1002
}
1000
DIMPOST
1070
     4
1000
<>
1002
{
1002
}
1000
DIMRND
1070
     2
1040
0.0
1002
{
1002
}
1000
DIMSAH
1070
     1
1070
     0
1002
{
1002
}
1000
DIMSCALE
1070
     2
1040
1.0
1002
{
1002
}
1000
DIMSD1
1070
     1
1070
     0
1002
{
1002
}
1000
DIMSD2
1070
     1
1070
     0
1002
{
1002
}
1000
DIMSE1
1070
     1
1070
     0
1002
{
1002
}
1000
DIMSE2
1070
     1
1070
     0
1002
{
1002
}
1000
DIMSOXD
1070
     1
1070
     0
1002
{
1002
}
1000
DIMTAD
1070
     1
1070
     0
1002
{
1002
}
1000
DIMTFAC
1070
     2
1040
0.71
1002
{
1002
}
1000
DIMTIH
1070
     1
1070
     0
1002
{
1002
}
1000
DIMTIX
1070
     1
1070
     0
1002
{
1002
}
1000
DIMTM
1070
     2
1040
0.1
1002
{
1002
}
1000
DIMTOFL
1070
     1
1070
     0
1002
{
1002
}
1000
DIMTOH
1070
     1
1070
     0
1002
{
1002
}
1000
DIMTOL
1070
     1
1070
     0
1002
{
1002
}
1000
DIMTOLJ
1070
     1
1070
     1
1002
{
1002
}
1000
DIMTP
1070
     2
1040
0.1
1002
{
1002
}
1000
DIMTSZ
1070
     2
1040
0.0
1002
{
1002
}
1000
DIMTVP
1070
     2
1040
0.0
1002
{
1002
}
1000
DIMTXSTY
1070
     4
1000
STANDARD
1002
{
1002
}
1000
DIMTZIN
1070
     1
1070
     0
1002
{
1002
}
1000
DIMUNIT
1070
     1
1070
     2
1002
{
1002
}
1000
DIMUPT
1070
     1
1070
     0
1002
{
1002
}
1000
M
1070
     0
1002
{
1000
DIMALTF
1070
     2
1040
0.0393701
1002
{
1002
}
1000
DIMASZ
1070
     2
1040
2.5
1002
{
1002
}
1000
DIMCEN
1070
     2
1040
0.0
1002
{
1002
}
1000
DIMDEC
1070
     1
1070
     2
1002
{
1002
}
1000
DIMDLI
1070
     2
1040
7.0
1002
{
1002
}
1000
DIMEXE
1070
     2
1040
1.0
1002
{
1002
}
1000
DIMEXO
1070
     2
1040
1.0
1002
{
1002
}
1000
DIMGAP
1070
     2
1040
0.6
1002
{
1002
}
1000
DIMTDEC
1070
     1
1070
     3
1002
{
1002
}
1000
DIMTXT
1070
     2
1040
3.5
1002
{
1002
}
1000
DIMZIN
1070
     1
1070
     8
1002
{
1002
}
1002
}
1000
I
1070
     0
1002
{
1000
DIMALTF
1070
     2
1040
25.4
1002
{
1002
}
1000
DIMASZ
1070
     2
1040
0.1
1002
{
1002
}
1000
DIMCEN
1070
     2
1040
0.0
1002
{
1002
}
1000
DIMDEC
1070
     1
1070
     4
1002
{
1002
}
1000
DIMDLI
1070
     2
1040
0.5
1002
{
1002
}
1000
DIMEXE
1070
     2
1040
0.1
1002
{
1002
}
1000
DIMEXO
1070
     2
1040
0.05
1002
{
1002
}
1000
DIMGAP
1070
     2
1040
0.06
1002
{
1002
}
1000
DIMTDEC
1070
     1
1070
     4
1002
{
1002
}
1000
DIMTXT
1070
     2
1040
0.12
1002
{
1002
}
1000
DIMZIN
1070
     1
1070
     7
1002
{
1002
}
1002
}
1000
GEN-ISO
1070
     5
1002
{
1000
NAME
1070
     4
1000
GEN-ISO
1002
{
1002
}
1000
DIMTAD
1070
     1
1070
     1
1002
{
1002
}
1000
DIMTOLJ
1070
     1
1070
     0
1002
{
1002
}
1000
DIMTOFL
1070
     1
1070
     1
1002
{
1002
}
1000
M
1070
     0
1002
{
1002
}
1000
I
1070
     0
1002
{
1002
}
1002
}
1000
GEN-ISO-POS
1070
     5
1002
{
1000
NAME
1070
     4
1000
GEN-ISO-POS
1002
{
1002
}
1000
DIMTOLJ
1070
     1
1070
     0
1002
{
1002
}
1000
M
1070
     0
1002
{
1000
DIMASZ
1070
     2
1040
2.5
1002
{
1002
}
1000
DIMGAP
1070
     2
1040
1.5
1002
{
1002
}
1000
DIMTXT
1070
     2
1040
5.0
1002
{
1002
}
1002
}
1000
I
1070
     0
1002
{
1000
DIMASZ
1070
     2
1040
0.1
1002
{
1002
}
1000
DIMGAP
1070
     2
1040
0.06
1002
{
1002
}
1000
DIMTXT
1070
     2
1040
0.2
1002
{
1002
}
1002
}
1000
DIMSCALE
1070
     2
1040
1.0
1002
{
1002
}
1002
}
1000
GEN-ISO-CIR
1070
     5
1002
{
1000
NAME
1070
     4
1000
GEN-ISO$3
1002
{
1002
}
1000
DIMFIT
1070
     1
1070
     0
1002
{
1002
}
1000
DIMTAD
1070
     1
1070
     1
1002
{
1002
}
1000
DIMTIH
1070
     1
1070
     0
1002
{
1002
}
1000
DIMTIX
1070
     1
1070
     0
1002
{
1002
}
1000
DIMTOH
1070
     1
1070
     1
1002
{
1002
}
1000
DIMTOLJ
1070
     1
1070
     0
1002
{
1002
}
1000
DIMTOFL
1070
     1
1070
     0
1002
{
1002
}
1000
DIMUPT
1070
     1
1070
     1
1002
{
1002
}
1000
M
1070
     0
1002
{
1002
}
1000
I
1070
     0
1002
{
1002
}
1002
}
1000
GEN-ISO-RAD
1070
     5
1002
{
1000
NAME
1070
     4
1000
GEN-ISO$4
1002
{
1002
}
1000
DIMFIT
1070
     1
1070
     0
1002
{
1002
}
1000
DIMTAD
1070
     1
1070
     1
1002
{
1002
}
1000
DIMTIH
1070
     1
1070
     0
1002
{
1002
}
1000
DIMTIX
1070
     1
1070
     0
1002
{
1002
}
1000
DIMTOH
1070
     1
1070
     1
1002
{
1002
}
1000
DIMTOLJ
1070
     1
1070
     0
1002
{
1002
}
1000
DIMTOFL
1070
     1
1070
     0
1002
{
1002
}
1000
DIMUPT
1070
     1
1070
     1
1002
{
1002
}
1000
M
1070
     0
1002
{
1002
}
1000
I
1070
     0
1002
{
1002
}
1002
}
1000
GEN-ISO-ORD
1070
     5
1002
{
1000
NAME
1070
     4
1000
GEN-ISO$6
1002
{
1002
}
1000
DIMTOLJ
1070
     1
1070
     0
1002
{
1002
}
1000
M
1070
     0
1002
{
1002
}
1000
I
1070
     0
1002
{
1002
}
1002
}
1000
GEN-ISO-AXE-F
1070
     5
1002
{
1000
NAME
1070
     4
1000
GEN-ISO-AXE-F
1002
{
1002
}
1000
DIMSE1
1070
     1
1070
     1
1002
{
1002
}
1000
DIMSE2
1070
     1
1070
     1
1002
{
1002
}
1000
DIMTAD
1070
     1
1070
     1
1002
{
1002
}
1000
DIMTOLJ
1070
     1
1070
     0
1002
{
1002
}
1000
DIMTOFL
1070
     1
1070
     1
1002
{
1002
}
1000
M
1070
     0
1002
{
1002
}
1000
I
1070
     0
1002
{
1002
}
1002
}
1000
GEN-ISO-AXE-H
1070
     5
1002
{
1000
DIMBLK1
1070
     4
1000
GENAXEH
1002
{
1002
}
1000
DIMLFAC
1070
     2
1040
2.0
1002
{
1002
}
1000
DIMSAH
1070
     1
1070
     1
1002
{
1002
}
1000
DIMSE1
1070
     1
1070
     1
1002
{
1002
}
1000
DIMSE2
1070
     1
1070
     1
1002
{
1002
}
1000
DIMTAD
1070
     1
1070
     1
1002
{
1002
}
1000
DIMTOLJ
1070
     1
1070
     0
1002
{
1002
}
1000
DIMTOFL
1070
     1
1070
     1
1002
{
1002
}
1000
M
1070
     0
1002
{
1002
}
1000
I
1070
     0
1002
{
1002
}
1002
}
1000
GEN-ANSI
1070
     5
1002
{
1000
NAME
1070
     4
1000
GEN-ANSI
1002
{
1002
}
1000
DIMTIH
1070
     1
1070
     1
1002
{
1002
}
1000
DIMTOH
1070
     1
1070
     1
1002
{
1002
}
1000
DIMTAD
1070
     1
1070
     0
1002
{
1002
}
1000
DIMTOLJ
1070
     1
1070
     1
1002
{
1002
}
1000
M
1070
     0
1002
{
1002
}
1000
I
1070
     0
1002
{
1002
}
1002
}
1000
GEN-ANSI-POS
1070
     5
1002
{
1000
NAME
1070
     4
1000
GEN-ANSI-POS
1002
{
1002
}
1000
DIMTOLJ
1070
     1
1070
     1
1002
{
1002
}
1000
M
1070
     0
1002
{
1000
DIMASZ
1070
     2
1040
2.5
1002
{
1002
}
1000
DIMGAP
1070
     2
1040
1.5
1002
{
1002
}
1000
DIMTXT
1070
     2
1040
5.0
1002
{
1002
}
1002
}
1000
I
1070
     0
1002
{
1000
DIMASZ
1070
     2
1040
0.1
1002
{
1002
}
1000
DIMGAP
1070
     2
1040
0.06
1002
{
1002
}
1000
DIMTXT
1070
     2
1040
0.2
1002
{
1002
}
1002
}
1002
}
1000
GEN-ANSI-CIR
1070
     5
1002
{
1000
NAME
1070
     4
1000
GEN-ANSI$3
1002
{
1002
}
1000
DIMFIT
1070
     1
1070
     0
1002
{
1002
}
1000
DIMTAD
1070
     1
1070
     0
1002
{
1002
}
1000
DIMTIH
1070
     1
1070
     1
1002
{
1002
}
1000
DIMTIX
1070
     1
1070
     0
1002
{
1002
}
1000
DIMTOFL
1070
     1
1070
     0
1002
{
1002
}
1000
DIMTOH
1070
     1
1070
     1
1002
{
1002
}
1000
DIMTOLJ
1070
     1
1070
     1
1002
{
1002
}
1000
DIMUPT
1070
     1
1070
     1
1002
{
1002
}
1000
M
1070
     0
1002
{
1002
}
1000
I
1070
     0
1002
{
1002
}
1002
}
1000
GEN-ANSI-RAD
1070
     5
1002
{
1000
NAME
1070
     4
1000
GEN-ANSI$4
1002
{
1002
}
1000
DIMFIT
1070
     1
1070
     0
1002
{
1002
}
1000
DIMTAD
1070
     1
1070
     0
1002
{
1002
}
1000
DIMTIH
1070
     1
1070
     1
1002
{
1002
}
1000
DIMTIX
1070
     1
1070
     0
1002
{
1002
}
1000
DIMTOFL
1070
     1
1070
     0
1002
{
1002
}
1000
DIMTOH
1070
     1
1070
     1
1002
{
1002
}
1000
DIMTOLJ
1070
     1
1070
     1
1002
{
1002
}
1000
DIMUPT
1070
     1
1070
     1
1002
{
1002
}
1000
M
1070
     0
1002
{
1002
}
1000
I
1070
     0
1002
{
1002
}
1002
}
1000
GEN-ANSI-ORD
1070
     5
1002
{
1000
NAME
1070
     4
1000
GEN-ANSI$6
1002
{
1002
}
1000
DIMTAD
1070
     1
1070
     0
1002
{
1002
}
1000
DIMTIH
1070
     1
1070
     1
1002
{
1002
}
1000
DIMTOH
1070
     1
1070
     1
1002
{
1002
}
1000
DIMTOLJ
1070
     1
1070
     1
1002
{
1002
}
1000
M
1070
     0
1002
{
1002
}
1000
I
1070
     0
1002
{
1002
}
1002
}
1000
GEN-ANSI-AXE-F
1070
     5
1002
{
1000
NAME
1070
     4
1000
GEN-ANSI-AXE-F
1002
{
1002
}
1000
DIMBLK1
1070
     4
1000
GENAXEH
1002
{
1002
}
1000
DIMSAH
1070
     1
1070
     1
1002
{
1002
}
1000
DIMSE1
1070
     1
1070
     1
1002
{
1002
}
1000
DIMSE2
1070
     1
1070
     1
1002
{
1002
}
1000
DIMTAD
1070
     1
1070
     0
1002
{
1002
}
1000
DIMTIH
1070
     1
1070
     1
1002
{
1002
}
1000
DIMTOH
1070
     1
1070
     1
1002
{
1002
}
1000
DIMTOLJ
1070
     1
1070
     1
1002
{
1002
}
1000
M
1070
     0
1002
{
1002
}
1000
I
1070
     0
1002
{
1002
}
1002
}
1000
GEN-ANSI-AXE-H
1070
     5
1002
{
1000
NAME
1070
     4
1000
GEN-ANSI-AXE-H
1002
{
1002
}
1000
DIMBLK1
1070
     4
1000
GENAXEH
1002
{
1002
}
1000
DIMLFAC
1070
     2
1040
2.0
1002
{
1002
}
1000
DIMSAH
1070
     1
1070
     1
1002
{
1002
}
1000
DIMSE1
1070
     1
1070
     1
1002
{
1002
}
1000
DIMSE2
1070
     1
1070
     1
1002
{
1002
}
1000
DIMTAD
1070
     1
1070
     0
1002
{
1002
}
1000
DIMTOFL
1070
     1
1070
     1
1002
{
1002
}
1000
DIMTOLJ
1070
     1
1070
     1
1002
{
1002
}
1000
M
1070
     0
1002
{
1002
}
1000
I
1070
     0
1002
{
1002
}
1002
}
1000
DIMZIN
1070
     1
1070
     8
1002
{
1002
}
1002
}
1000
DimSet
1070
     0
1002
{
1000
ChainSum
1070
     3
1070
     0
1002
{
1002
}
1000
DimDclTyp0
1070
     4
1000
dim23
1002
{
1002
}
1000
HorBra
1070
     3
1070
     0
1002
{
1002
}
1000
StrDia
1070
     4
1000
%%c<>
1002
{
1002
}
1000
StrRad
1070
     4
1000
R<>
1002
{
1002
}
1000
TextMinus
1070
     4
1000
<>
1002
{
1002
}
1000
TextPlus
1070
     4
1000
<>
1002
{
1002
}
1000
M
1070
     0
1002
{
1000
DimdliFirst
1070
     2
1040
10.0
1002
{
1002
}
1000
PointMakeDist
1070
     2
1040
10.0
1002
{
1002
}
1002
}
1000
I
1070
     0
1002
{
1000
DimdliFirst
1070
     2
1040
0.5
1002
{
1002
}
1000
PointMakeDist
1070
     2
1040
0.5
1002
{
1002
}
1002
}
1002
}
1000
Drawing
1070
     0
1002
{
1000
ChamferDimMode
1070
     1
1070
     2
1002
{
1002
}
1000
Gen_Fiso
1070
    -3
1040
1.0
1002
{
1002
}
1000
GenDimStil
1070
     4
1000
ISO
1002
{
1002
}
1000
GenDwgUScale
1070
     2
1040
1.0
1002
{
1002
}
1000
GenInch
1070
     4
1000
M
1002
{
1002
}
1000
GenPlotScale
1070
     4
1000
1:1
1002
{
1002
}
1000
Revisi
1070
     4
1000
0
1002
{
1002
}
1000
Version
1070
    -5
1000
13.1/May  9 1996
1002
{
1002
}
1000
Platform
1070
    -5
1000
WINNT
1002
{
1002
}
1002
}
1000
DwgVar
1070
     0
1002
{
1000
M
1070
     0
1002
{
1002
}
1000
I
1070
     0
1002
{
1002
}
1002
}
1000
Hatch
1070
     0
1002
{
1000
GenHtcFlag
1070
     3
1070
     0
1002
{
1002
}
1002
}
1000
Info_Pos
1070
     0
1002
{
1000
DescrText
1070
     4
1000
5,6,7,8
1002
{
1002
}
1000
Attrib
1070
     0
1002
{
1000
0
1070
     6
1002
{
1000
Prompt
1070
     4
1000
(genmsg gendwg 103)
1002
{
1002
}
1000
Value
1070
     4
1000

1002
{
1002
}
1000
EditFlag
1070
     1
1070
     0
1002
{
1002
}
1002
}
1000
1
1070
     6
1002
{
1000
Prompt
1070
     4
1000
(genmsg gendwg 31)
1002
{
1002
}
1000
Value
1070
     4
1000
1
1002
{
1002
}
1000
EditFlag
1070
     1
1070
     1
1002
{
1002
}
1002
}
1000
2
1070
     6
1002
{
1000
Prompt
1070
     4
1000
(genmsg gendwg 32)
1002
{
1002
}
1000
Value
1070
     4
1000
1
1002
{
1002
}
1000
EditFlag
1070
     1
1070
     1
1002
{
1002
}
1002
}
1000
3
1070
     6
1002
{
1000
Prompt
1070
     4
1000
(genmsg gendwg 33)
1002
{
1002
}
1000
Value
1070
     4
1000

1002
{
1002
}
1000
EditFlag
1070
     1
1070
     1
1002
{
1002
}
1002
}
1000
4
1070
     6
1002
{
1000
Prompt
1070
     4
1000
(genmsg gendwg 34)
1002
{
1002
}
1000
Value
1070
     4
1000

1002
{
1002
}
1000
EditFlag
1070
     1
1070
     1
1002
{
1002
}
1002
}
1000
5
1070
     6
1002
{
1000
Prompt
1070
     4
1000
(genmsg gendwg 35)
1002
{
1002
}
1000
Value
1070
     4
1000

1002
{
1002
}
1000
EditFlag
1070
     1
1070
     1
1002
{
1002
}
1002
}
1000
6
1070
     6
1002
{
1000
Prompt
1070
     4
1000
(genmsg gendwg 36)
1002
{
1002
}
1000
Value
1070
     4
1000

1002
{
1002
}
1000
EditFlag
1070
     1
1070
     1
1002
{
1002
}
1002
}
1000
7
1070
     6
1002
{
1000
Prompt
1070
     4
1000
(genmsg gendwg 37)
1002
{
1002
}
1000
Value
1070
     4
1000

1002
{
1002
}
1000
EditFlag
1070
     1
1070
     1
1002
{
1002
}
1002
}
1000
8
1070
     6
1002
{
1000
Prompt
1070
     4
1000
(genmsg gendwg 38)
1002
{
1002
}
1000
Value
1070
     4
1000

1002
{
1002
}
1000
EditFlag
1070
     1
1070
     1
1002
{
1002
}
1002
}
1000
9
1070
     6
1002
{
1000
Prompt
1070
     4
1000
(genmsg gendwg 39)
1002
{
1002
}
1000
Value
1070
     4
1000

1002
{
1002
}
1000
EditFlag
1070
     1
1070
     1
1002
{
1002
}
1002
}
1000
10
1070
     6
1002
{
1000
Prompt
1070
     4
1000
(genmsg gendwg 40)
1002
{
1002
}
1000
Value
1070
     4
1000

1002
{
1002
}
1000
EditFlag
1070
     1
1070
     1
1002
{
1002
}
1002
}
1000
11
1070
     6
1002
{
1000
Prompt
1070
     4
1000
(genmsg gendwg 41)
1002
{
1002
}
1000
Value
1070
     4
1000

1002
{
1002
}
1000
EditFlag
1070
     1
1070
     1
1002
{
1002
}
1002
}
1000
12
1070
     6
1002
{
1000
Prompt
1070
     4
1000
(genmsg gendwg 42)
1002
{
1002
}
1000
Value
1070
     4
1000

1002
{
1002
}
1000
EditFlag
1070
     1
1070
     1
1002
{
1002
}
1002
}
1000
13
1070
     6
1002
{
1000
Prompt
1070
     4
1000
(genmsg gendwg 43)
1002
{
1002
}
1000
Value
1070
     4
1000

1002
{
1002
}
1000
EditFlag
1070
     1
1070
     1
1002
{
1002
}
1002
}
1000
14
1070
     6
1002
{
1000
Prompt
1070
     4
1000
(genmsg gendwg 44)
1002
{
1002
}
1000
Value
1070
     4
1000

1002
{
1002
}
1000
EditFlag
1070
     1
1070
     1
1002
{
1002
}
1002
}
1000
15
1070
     6
1002
{
1000
Prompt
1070
     4
1000
(genmsg gendwg 45)
1002
{
1002
}
1000
Value
1070
     4
1000

1002
{
1002
}
1000
EditFlag
1070
     1
1070
     1
1002
{
1002
}
1002
}
1000
16
1070
     6
1002
{
1000
Prompt
1070
     4
1000
(genmsg gendwg 46)
1002
{
1002
}
1000
Value
1070
     4
1000

1002
{
1002
}
1000
EditFlag
1070
     1
1070
     1
1002
{
1002
}
1002
}
1000
17
1070
     6
1002
{
1000
Prompt
1070
     4
1000
(genmsg gendwg 47)
1002
{
1002
}
1000
Value
1070
     4
1000

1002
{
1002
}
1000
EditFlag
1070
     1
1070
     1
1002
{
1002
}
1002
}
1000
18
1070
     6
1002
{
1000
Prompt
1070
     4
1000
(genmsg gendwg 48)
1002
{
1002
}
1000
Value
1070
     4
1000

1002
{
1002
}
1000
EditFlag
1070
     1
1070
     1
1002
{
1002
}
1002
}
1000
19
1070
     6
1002
{
1000
Prompt
1070
     4
1000
(genmsg gendwg 99)
1002
{
1002
}
1000
Value
1070
     4
1000

1002
{
1002
}
1000
EditFlag
1070
     1
1070
     1
1002
{
1002
}
1002
}
1000
20
1070
     6
1002
{
1000
Prompt
1070
     4
1000
(genmsg gendwg 100)
1002
{
1002
}
1000
Value
1070
     4
1000

1002
{
1002
}
1000
EditFlag
1070
     1
1070
     1
1002
{
1002
}
1002
}
1000
21
1070
     6
1002
{
1000
Prompt
1070
     4
1000
(genmsg gendwg 101)
1002
{
1002
}
1000
Value
1070
     4
1000

1002
{
1002
}
1000
EditFlag
1070
     1
1070
     1
1002
{
1002
}
1002
}
1000
22
1070
     6
1002
{
1000
Prompt
1070
     4
1000
(genmsg gendwg 102)
1002
{
1002
}
1000
Value
1070
     4
1000

1002
{
1002
}
1000
EditFlag
1070
     1
1070
     1
1002
{
1002
}
1002
}
1000
23
1070
     6
1002
{
1000
Prompt
1070
     4
1000
(genmsg gendwg 30)
1002
{
1002
}
1000
Value
1070
     4
1000

1002
{
1002
}
1000
EditFlag
1070
     1
1070
     1
1002
{
1002
}
1002
}
1000
24
1070
     6
1002
{
1000
Prompt
1070
     4
1000
(genmsg gendwg 104)
1002
{
1002
}
1000
Value
1070
     4
1000

1002
{
1002
}
1000
EditFlag
1070
     1
1070
     1
1002
{
1002
}
1002
}
1002
}
1000
Xlate
1070
     0
1002
{
1000
>
1002
}
1002
}
1000
Layer
1070
     7
1002
{
1000
Defs
1070
     0
1002
{
1000
>
1002
}
1000
EntSort
1070
     0
1002
{
1000
>
1002
}
1000
Match
1070
     0
1002
{
1002
}
1000
Settings
1070
     0
1002
{
1000
FocGrNC
1070
     3
1070
     0
1002
{
1002
}
1000
FocGrLo
1070
     3
1070
     0
1002
{
1002
}
1000
FocLoNC
1070
     3
1070
     0
1002
{
1002
}
1000
FocusCol
1070
     1
1070
   253
1002
{
1002
}
1000
GenStdLG
1070
     4
1000

1002
{
1002
}
1000
LayMatch
1070
     3
1070
     0
1002
{
1002
}
1000
LgOff
1070
     3
1070
     0
1002
{
1002
}
1000
CurLG
1070
    -5
1000

1002
{
1002
}
1002
}
1002
}
1000
LType
1070
     0
1002
{
1000
GEN3
1070
     8
1000
genius.lin
1002
{
1002
}
1000
GEN7
1070
     8
1000
genius.lin
1002
{
1002
}
1000
GEN4A
1070
     8
1000
genius.lin
1002
{
1002
}
1000
GEN3A
1070
     8
1000
genius.lin
1002
{
1002
}
1000
GEN7A
1070
     8
1000
genius.lin
1002
{
1002
}
1000
GENZIGZAG
1070
     8
1000
genius.lin
1002
{
1002
}
1002
}
1000
Objecter
1070
     0
1002
{
1000
CreateGroups
1070
     3
1070
     0
1002
{
1002
}
1000
LaySwitch
1070
     3
1070
     1
1002
{
1002
}
1000
LastObj
1070
    -5
1000
976
1002
{
1002
}
1002
}
1000
OSWiz
1070
     0
1002
{
1000
>
1002
}
1000
PaList
1070
     0
1002
{
1000
AutoUpdatePartList
1070
     3
1070
     0
1002
{
1002
}
1000
ReadInfoPoint
1070
     3
1070
     0
1002
{
1002
}
1000
ReadPosNr
1070
     3
1070
     1
1002
{
1002
}
1000
RevStr
1070
     4
1000
0
1002
{
1002
}
1002
}
1000
Paper
1070
     0
1002
{
1000
Layer
1070
    -5
1000
KLIN
1002
{
1002
}
1002
}
1000
PartDB
1070
     0
1002
{
1000
GenDbOwner
1070
     4
1000

1002
{
1002
}
1002
}
1000
System
1070
     0
1002
{
1000
Menu
1070
     4
1000
GEV
1002
{
1002
}
1002
}
1000
Title
1070
     0
1002
{
1000
MakeView
1070
     1
1070
     2
1002
{
1002
}
1002
}
  0
APPID
  5
2F
330
9
100
AcDbSymbolTableRecord
100
AcDbRegAppTableRecord
  2
GENIUS_GEVCFG0_13
 70
     0
1001
GENIUS_GENCFG_13
1071
862825278
1000
2F
1000
GEV
1070
     1
1000
GenCfgObject
1000
System
1070
     0
1002
{
1002
}
1000
VED
1070
     0
1002
{
1002
}
  0
APPID
  5
33
330
9
100
AcDbSymbolTableRecord
100
AcDbRegAppTableRecord
  2
GENIUS_GEFCFG0_13
 70
     0
1001
GENIUS_GENCFG_13
1071
877355996
1000
33
1000
GEF
1070
     5
1000
GenCfgObject
1000
GenCfgString
1000
GenCfgReal
1000
GenCfgShort
1000
GenCfgBool
1000
System
1070
     0
1002
{
1002
}
1000
Prese
1070
     0
1002
{
1000
Funk
1070
     1
1000

1002
{
1002
}
1000
FunkDef
1070
     1
1000

1002
{
1002
}
1000
GefIso
1070
     1
1000
DIN
1002
{
1002
}
1002
}
1000
FEM
1070
     0
1002
{
1000
LayGroup
1070
     1
1000
FEM
1002
{
1002
}
1000
IncrCoef
1070
     2
1040
0.0
1002
{
1002
}
1002
}
1000
Shaft
1070
     0
1002
{
1000
Interrupt
1070
     3
1070
     0
1002
{
1002
}
1002
}
1000
PartDb
1070
     0
1002
{
1000
PartCreate
1070
     0
1002
{
1002
}
1002
}
1000
Symbol
1070
     0
1002
{
1000
WeldStyle
1070
     1
1000
ISO
1002
{
1002
}
1000
WeldSize
1070
     2
1040
1.0
1002
{
1002
}
1000
WeldFlag
1070
     4
1070
     1
1002
{
1002
}
1000
WeldOffset
1070
     4
1070
     1
1002
{
1002
}
1000
TolCType
1070
     1
1000
ISO
1002
{
1002
}
1000
TolCSize
1070
     2
1040
1.0
1002
{
1002
}
1000
STextureSize
1070
     2
1040
1.0
1002
{
1002
}
1000
SurfaceType
1070
     1
1000

1002
{
1002
}
1000
M
1070
     0
1002
{
1000
WeldWidth
1070
     2
1040
3.0
1002
{
1002
}
1002
}
1000
I
1070
     0
1002
{
1000
WeldWidth
1070
     2
1040
0.125
1002
{
1002
}
1002
}
1000
weldwidth
1070
     2
1040
5.0
1002
{
1002
}
1002
}
  0
APPID
  5
3C
330
9
100
AcDbSymbolTableRecord
100
AcDbRegAppTableRecord
  2
GENIUS_GENOENT_13
 70
     0
  0
APPID
  5
8A
330
9
100
AcDbSymbolTableRecord
100
AcDbRegAppTableRecord
  2
GENIUS_GENOBJ_13
 70
     0
  0
APPID
  5
8B
330
9
100
AcDbSymbolTableRecord
100
AcDbRegAppTableRecord
  2
GENIUS_GENODEF_13
 70
     0
  0
APPID
  5
8C
330
9
100
AcDbSymbolTableRecord
100
AcDbRegAppTableRecord
  2
GENIUS_GENOLIS_13
 70
     0
  0
APPID
  5
8D
330
9
100
AcDbSymbolTableRecord
100
AcDbRegAppTableRecord
  2
GENIUS_GENOREF_13
 70
     0
  0
APPID
  5
8E
330
9
100
AcDbSymbolTableRecord
100
AcDbRegAppTableRecord
  2
GENIUS_GENOBJ-N-CRS_13
 70
     0
  0
APPID
  5
8F
330
9
100
AcDbSymbolTableRecord
100
AcDbRegAppTableRecord
  2
GENIUS_GENOBJ-N-HTC_13
 70
     0
  0
APPID
  5
90
330
9
100
AcDbSymbolTableRecord
100
AcDbRegAppTableRecord
  2
GENIUS_GENHATCH_13
 70
     0
  0
APPID
  5
91
330
9
100
AcDbSymbolTableRecord
100
AcDbRegAppTableRecord
  2
GENIUS_GENOBJ-N-CEN_13
 70
     0
  0
APPID
  5
92
330
9
100
AcDbSymbolTableRecord
100
AcDbRegAppTableRecord
  2
GENIUS_GENINF13_13
 70
     0
  0
APPID
  5
93
330
9
100
AcDbSymbolTableRecord
100
AcDbRegAppTableRecord
  2
GENIUS_GENOBJ-N-INFOPT_13
 70
     0
  0
APPID
  5
94
330
9
100
AcDbSymbolTableRecord
100
AcDbRegAppTableRecord
  2
GENIUS_GENOBJ-N-RSSYM_13
 70
     0
  0
APPID
  5
95
330
9
100
AcDbSymbolTableRecord
100
AcDbRegAppTableRecord
  2
GENIUS_GENSYMENT_13
 70
     0
  0
APPID
  5
96
330
9
100
AcDbSymbolTableRecord
100
AcDbRegAppTableRecord
  2
GENIUS_GENSCSYM_13
 70
     0
  0
APPID
  5
749
330
9
100
AcDbSymbolTableRecord
100
AcDbRegAppTableRecord
  2
GENIUS_GENOBJ-N-RSBK_13
 70
     0
  0
APPID
  5
74A
330
9
100
AcDbSymbolTableRecord
100
AcDbRegAppTableRecord
  2
GENIUS_GENOBJ-N-LIB_13
 70
     0
  0
APPID
  5
74B
330
9
100
AcDbSymbolTableRecord
100
AcDbRegAppTableRecord
  2
GENIUS_GENSCALE_13
 70
     0
  0
APPID
  5
9CD
330
9
100
AcDbSymbolTableRecord
100
AcDbRegAppTableRecord
  2
ACAD_MLEADERVER
 70
     0
  0
APPID
  5
9DA
330
9
100
AcDbSymbolTableRecord
100
AcDbRegAppTableRecord
  2
MCAD_NO_VIS
 70
     0
  0
APPID
  5
9DB
330
9
100
AcDbSymbolTableRecord
100
AcDbRegAppTableRecord
  2
ACAD_TEMP_GRAPHIC
 70
     0
  0
APPID
  5
A0B
330
9
100
AcDbSymbolTableRecord
100
AcDbRegAppTableRecord
  2
AD_DRAW
 70
     0
  0
APPID
  5
A0E
330
9
100
AcDbSymbolTableRecord
100
AcDbRegAppTableRecord
  2
ACATTRIBSERVICES
 70
     0
  0
APPID
  5
A2F
330
9
100
AcDbSymbolTableRecord
100
AcDbRegAppTableRecord
  2
DESIGNERASSEMBLIES
 70
     0
  0
APPID
  5
A35
330
9
100
AcDbSymbolTableRecord
100
AcDbRegAppTableRecord
  2
ACADM_DIM_EDIT
 70
     0
  0
APPID
  5
A36
330
9
100
AcDbSymbolTableRecord
100
AcDbRegAppTableRecord
  2
AMDT_DM_ADJ
 70
     0
  0
APPID
  5
A95
330
9
100
AcDbSymbolTableRecord
100
AcDbRegAppTableRecord
  2
ACAD_DSTYLE_DIMARC_LENGTH_SYMBOL
 70
     0
  0
APPID
  5
A96
330
9
100
AcDbSymbolTableRecord
100
AcDbRegAppTableRecord
  2
ACAD_DSTYLE_DIM_LINETYPE
 70
     0
  0
APPID
  5
A97
330
9
100
AcDbSymbolTableRecord
100
AcDbRegAppTableRecord
  2
ACAD_DSTYLE_DIM_EXT1_LINETYPE
 70
     0
  0
APPID
  5
A98
330
9
100
AcDbSymbolTableRecord
100
AcDbRegAppTableRecord
  2
ACAD_DSTYLE_DIM_EXT2_LINETYPE
 70
     0
  0
ENDTAB
  0
TABLE
  2
DIMSTYLE
  5
A
330
0
100
AcDbSymbolTable
 70
    14
100
AcDbDimStyleTable
 71
     0
  0
DIMSTYLE
105
1D
330
A
100
AcDbSymbolTableRecord
100
AcDbDimStyleTableRecord
  2
STANDARD
 70
     0
340
10
  0
DIMSTYLE
105
A4C
102
{ACAD_REACTORS
330
A3C
102
}
330
A
100
AcDbSymbolTableRecord
100
AcDbDimStyleTableRecord
  2
AM_ANSI
 70
     0
  4
"
 41
3.5
 42
1.0
 43
10.0
 44
1.0
 47
0.1
 48
0.1
 78
     8
 79
     2
140
3.5
141
0.0
143
0.0393701
146
0.71
147
1.5
176
   256
177
   256
178
     2
271
     2
272
     3
274
     4
284
     8
340
10
371
    -1
372
    -1
1001
ACAD_DSTYLE_DIMARC_LENGTH_SYMBOL
1070
   379
1070
     1
1001
ACAD_DSTYLE_DIM_LINETYPE
1070
   380
1005
14
1001
ACAD_DSTYLE_DIM_EXT1_LINETYPE
1070
   381
1005
14
1001
ACAD_DSTYLE_DIM_EXT2_LINETYPE
1070
   382
1005
14
  0
DIMSTYLE
105
A5A
330
A
100
AcDbSymbolTableRecord
100
AcDbDimStyleTableRecord
  2
AM_ANSI$3
 70
     0
  4
"
 41
3.5
 42
1.0
 43
10.0
 44
1.0
 47
0.1
 48
0.1
 78
     8
 79
     2
140
3.5
141
0.0
143
0.0393701
146
0.71
147
1.5
176
   256
177
   256
178
     2
271
     2
272
     3
274
     4
284
     8
288
     1
289
     0
340
10
371
    -1
372
    -1
1001
ACAD_DSTYLE_DIMARC_LENGTH_SYMBOL
1070
   379
1070
     1
1001
ACAD_DSTYLE_DIM_LINETYPE
1070
   380
1005
14
1001
ACAD_DSTYLE_DIM_EXT1_LINETYPE
1070
   381
1005
14
1001
ACAD_DSTYLE_DIM_EXT2_LINETYPE
1070
   382
1005
14
  0
DIMSTYLE
105
A5B
330
A
100
AcDbSymbolTableRecord
100
AcDbDimStyleTableRecord
  2
AM_ANSI$4
 70
     0
  4
"
 41
3.5
 42
1.0
 43
10.0
 44
1.0
 47
0.1
 48
0.1
 78
     8
 79
     2
140
3.5
141
0.0
143
0.0393701
146
0.71
147
1.5
176
   256
177
   256
178
     2
271
     2
272
     3
274
     4
284
     8
288
     1
289
     0
340
10
371
    -1
372
    -1
1001
ACAD_DSTYLE_DIMARC_LENGTH_SYMBOL
1070
   379
1070
     1
1001
ACAD_DSTYLE_DIM_LINETYPE
1070
   380
1005
14
1001
ACAD_DSTYLE_DIM_EXT1_LINETYPE
1070
   381
1005
14
1001
ACAD_DSTYLE_DIM_EXT2_LINETYPE
1070
   382
1005
14
  0
DIMSTYLE
105
A5C
330
A
100
AcDbSymbolTableRecord
100
AcDbDimStyleTableRecord
  2
AM_ANSI$7
 70
     0
  4
"
 41
3.5
 42
1.0
 43
10.0
 44
1.0
 47
0.1
 48
0.1
 78
     8
 79
     2
140
3.5
141
0.0
143
0.0393701
146
0.71
147
1.5
176
   256
177
   256
178
     2
271
     2
272
     3
274
     4
284
     8
340
10
371
    -1
372
    -1
1001
ACAD_DSTYLE_DIMARC_LENGTH_SYMBOL
1070
   379
1070
     1
1001
ACAD_DSTYLE_DIM_LINETYPE
1070
   380
1005
14
1001
ACAD_DSTYLE_DIM_EXT1_LINETYPE
1070
   381
1005
14
1001
ACAD_DSTYLE_DIM_EXT2_LINETYPE
1070
   382
1005
14
  0
DIMSTYLE
105
A5D
330
A
100
AcDbSymbolTableRecord
100
AcDbDimStyleTableRecord
  2
AM_ANSI$SF
 70
     0
  4
"
 41
3.5
 42
1.0
 43
10.0
 44
1.0
 47
0.1
 48
0.1
 75
     1
 76
     1
 78
     8
 79
     2
140
3.5
141
0.0
143
0.0393701
146
0.71
147
1.5
176
   256
177
   256
178
     2
271
     2
272
     3
274
     4
284
     8
340
10
371
    -1
372
    -1
1001
ACAD_DSTYLE_DIMARC_LENGTH_SYMBOL
1070
   379
1070
     1
1001
ACAD_DSTYLE_DIM_LINETYPE
1070
   380
1005
14
1001
ACAD_DSTYLE_DIM_EXT1_LINETYPE
1070
   381
1005
14
1001
ACAD_DSTYLE_DIM_EXT2_LINETYPE
1070
   382
1005
14
  0
DIMSTYLE
105
A62
330
A
100
AcDbSymbolTableRecord
100
AcDbDimStyleTableRecord
  2
AM_ANSI$SH
 70
     0
  4
"
 41
3.5
 42
1.0
 43
10.0
 44
1.0
 47
0.1
 48
0.1
 75
     1
 76
     1
 78
     8
 79
     2
140
3.5
141
0.0
143
0.0393701
146
0.71
147
1.5
173
     1
176
   256
177
   256
178
     2
271
     2
272
     3
274
     4
284
     8
340
10
343
A5E
371
    -1
372
    -1
1001
ACAD_DSTYLE_DIMARC_LENGTH_SYMBOL
1070
   379
1070
     1
1001
ACAD_DSTYLE_DIM_LINETYPE
1070
   380
1005
14
1001
ACAD_DSTYLE_DIM_EXT1_LINETYPE
1070
   381
1005
14
1001
ACAD_DSTYLE_DIM_EXT2_LINETYPE
1070
   382
1005
14
  0
DIMSTYLE
105
A6F
330
A
100
AcDbSymbolTableRecord
100
AcDbDimStyleTableRecord
  2
GEN-ANSI
 70
     0
  3
<>
 41
2.5
 42
1.0
 43
7.0
 44
1.0
 47
0.1
 48
0.1
 78
     8
140
3.5
141
0.0
143
0.0393701
146
0.71
147
0.6
271
     2
272
     3
274
     4
340
10
  0
DIMSTYLE
105
A70
330
A
100
AcDbSymbolTableRecord
100
AcDbDimStyleTableRecord
  2
GEN-ANSI$3
 70
     0
  3
<>
 41
2.5
 42
1.0
 43
7.0
 44
1.0
 47
0.1
 48
0.1
 78
     8
140
3.5
141
0.0
143
0.0393701
146
0.71
147
0.6
271
     2
272
     3
274
     4
288
     1
289
     0
340
10
  0
DIMSTYLE
105
A71
330
A
100
AcDbSymbolTableRecord
100
AcDbDimStyleTableRecord
  2
GEN-ANSI$4
 70
     0
  3
<>
 41
2.5
 42
1.0
 43
7.0
 44
1.0
 47
0.1
 48
0.1
 78
     8
140
3.5
141
0.0
143
0.0393701
146
0.71
147
0.6
271
     2
272
     3
274
     4
288
     1
289
     0
340
10
  0
DIMSTYLE
105
A72
330
A
100
AcDbSymbolTableRecord
100
AcDbDimStyleTableRecord
  2
GEN-ANSI$6
 70
     0
  3
<>
 41
2.5
 42
1.0
 43
7.0
 44
1.0
 47
0.1
 48
0.1
 78
     8
140
3.5
141
0.0
143
0.0393701
146
0.71
147
0.6
271
     2
272
     3
274
     4
340
10
  0
DIMSTYLE
105
A73
330
A
100
AcDbSymbolTableRecord
100
AcDbDimStyleTableRecord
  2
GEN-ANSI-POS
 70
     0
  3
<>
 41
2.5
 42
1.0
 43
7.0
 44
1.0
 47
0.1
 48
0.1
 73
     0
 74
     0
 78
     8
140
5.0
141
0.0
143
0.0393701
146
0.71
147
1.5
271
     2
272
     3
274
     4
340
10
  0
DIMSTYLE
105
A74
330
A
100
AcDbSymbolTableRecord
100
AcDbDimStyleTableRecord
  2
GEN-ANSI-AXE-F
 70
     0
  3
<>
 41
2.5
 42
1.0
 43
7.0
 44
1.0
 47
0.1
 48
0.1
 75
     1
 76
     1
 78
     8
140
3.5
141
0.0
143
0.0393701
146
0.71
147
0.6
173
     1
271
     2
272
     3
274
     4
340
10
343
A5E
  0
DIMSTYLE
105
A75
330
A
100
AcDbSymbolTableRecord
100
AcDbDimStyleTableRecord
  2
GEN-ANSI-AXE-H
 70
     0
  3
<>
 41
2.5
 42
1.0
 43
7.0
 44
1.0
 47
0.1
 48
0.1
 73
     0
 74
     0
 75
     1
 76
     1
 78
     8
140
3.5
141
0.0
143
0.0393701
144
2.0
146
0.71
147
0.6
172
     1
173
     1
271
     2
272
     3
274
     4
340
10
343
A5E
  0
ENDTAB
  0
TABLE
  2
BLOCK_RECORD
  5
1
330
0
100
AcDbSymbolTable
 70
     5
  0
BLOCK_RECORD
  5
1A
330
1
100
AcDbSymbolTableRecord
100
AcDbBlockTableRecord
  2
*MODEL_SPACE
340
9D0
  0
BLOCK_RECORD
  5
17
330
1
100
AcDbSymbolTableRecord
100
AcDbBlockTableRecord
  2
*PAPER_SPACE
340
9D1
  0
BLOCK_RECORD
  5
56
330
1
100
AcDbSymbolTableRecord
100
AcDbBlockTableRecord
  2
GENINF13
340
0
102
{BLKREFS
331
755
102
}
  0
BLOCK_RECORD
  5
504
330
1
100
AcDbSymbolTableRecord
100
AcDbBlockTableRecord
  2
*X1
340
0
102
{BLKREFS
331
8F5
102
}
  0
BLOCK_RECORD
  5
510
330
1
100
AcDbSymbolTableRecord
100
AcDbBlockTableRecord
  2
*X2
340
0
102
{BLKREFS
331
8E8
102
}
  0
BLOCK_RECORD
  5
A5E
330
1
100
AcDbSymbolTableRecord
100
AcDbBlockTableRecord
  2
GENAXEH
340
0
  0
ENDTAB
  0
ENDSEC
  0
SECTION
  2
BLOCKS
  0
BLOCK
  5
1B
330
1A
100
AcDbEntity
  8
0
100
AcDbBlockBegin
  2
*MODEL_SPACE
 70
     0
 10
0.0
 20
0.0
 30
0.0
  3
*MODEL_SPACE
  1

  0
ENDBLK
  5
1C
330
1A
100
AcDbEntity
  8
0
100
AcDbBlockEnd
  0
BLOCK
  5
18
330
17
100
AcDbEntity
 67
     1
  8
0
100
AcDbBlockBegin
  2
*PAPER_SPACE
 70
     0
 10
0.0
 20
0.0
 30
0.0
  3
*PAPER_SPACE
  1

  0
ENDBLK
  5
19
330
17
100
AcDbEntity
 67
     1
  8
0
100
AcDbBlockEnd
  0
BLOCK
  5
7B
330
56
100
AcDbEntity
  8
0
100
AcDbBlockBegin
  2
GENINF13
 70
     2
 10
0.0
 20
0.0
 30
0.0
  3
GENINF13
  1
GENINF13
  0
CIRCLE
  5
57
330
56
100
AcDbEntity
  8
INFO
100
AcDbCircle
 10
-0.1079460011883957
 20
1.312243585777231
 30
0.0
 40
0.3390668951753026
  0
CIRCLE
  5
58
330
56
100
AcDbEntity
  8
INFO
100
AcDbCircle
 10
0.0
 20
0.0
 30
0.0
 40
1.920194409963144
  0
LINE
  5
59
330
56
100
AcDbEntity
  8
INFO
100
AcDbLine
 10
0.4113437479737743
 20
0.7068303850037036
 30
0.0
 11
-0.7000060094186789
 21
0.7068303850037035
 31
0.0
  0
LINE
  5
5A
330
56
100
AcDbEntity
  8
INFO
100
AcDbLine
 10
0.8299040409314978
 20
-1.341535205482386
 30
0.0
 11
0.8299040409314978
 21
-0.5553667224477728
 31
0.0
  0
LINE
  5
5B
330
56
100
AcDbEntity
  8
INFO
100
AcDbLine
 10
0.8299040409314978
 20
-0.5553667224477728
 30
0.0
 11
0.4113437479737743
 21
-0.5553667224477728
 31
0.0
  0
LINE
  5
5C
330
56
100
AcDbEntity
  8
INFO
100
AcDbLine
 10
0.4113437479737743
 20
-0.5553667224477728
 30
0.0
 11
0.4113437479737743
 21
0.7068303850037036
 31
0.0
  0
LINE
  5
5D
330
56
100
AcDbEntity
  8
INFO
100
AcDbLine
 10
-0.7000060094186789
 20
0.7068303850037035
 30
0.0
 11
-0.7000060094186788
 21
0.1226134319150372
 31
0.0
  0
LINE
  5
5E
330
56
100
AcDbEntity
  8
INFO
100
AcDbLine
 10
-0.7000060094186788
 20
0.1226134319150372
 30
0.0
 11
-0.3752609491200999
 21
0.1226134319150372
 31
0.0
  0
LINE
  5
5F
330
56
100
AcDbEntity
  8
INFO
100
AcDbLine
 10
-0.3752609491200999
 20
0.1226134319150372
 30
0.0
 11
-0.3752609491200999
 21
-0.5553667224477728
 31
0.0
  0
LINE
  5
60
330
56
100
AcDbEntity
  8
INFO
100
AcDbLine
 10
-0.3752609491200999
 20
-0.5553667224477728
 30
0.0
 11
-0.8010378055452676
 21
-0.5553667224477728
 31
0.0
  0
LINE
  5
61
330
56
100
AcDbEntity
  8
INFO
100
AcDbLine
 10
-0.8010378055452676
 20
-0.5553667224477728
 30
0.0
 11
-0.8010378055452676
 21
-1.341535205482386
 31
0.0
  0
LINE
  5
62
330
56
100
AcDbEntity
  8
INFO
100
AcDbLine
 10
-0.8010378055452676
 20
-1.341535205482386
 30
0.0
 11
0.8299040409314978
 21
-1.341535205482386
 31
0.0
  0
ATTDEF
  5
63
330
56
100
AcDbEntity
  8
INFO
100
AcDbText
 10
0.0
 20
0.0
 30
0.0
 40
1.0
  1
1
100
AcDbAttributeDefinition
  3
Menge
  2
2GENINF
 70
     1
  0
ATTDEF
  5
64
330
56
100
AcDbEntity
  8
INFO
100
AcDbText
 10
0.0
 20
-1.5
 30
0.0
 40
1.0
  1

100
AcDbAttributeDefinition
  3
Stücklisten-Name
  2
3GENINF
 70
     1
  0
ATTDEF
  5
65
330
56
100
AcDbEntity
  8
INFO
100
AcDbText
 10
0.0
 20
-3.0
 30
0.0
 40
1.0
  1

100
AcDbAttributeDefinition
  3
Stücklisten-Pfad
  2
4GENINF
 70
     1
  0
ATTDEF
  5
66
330
56
100
AcDbEntity
  8
INFO
100
AcDbText
 10
0.0
 20
-4.5
 30
0.0
 40
1.0
  1

100
AcDbAttributeDefinition
  3
Beschreibung 1
  2
5GENINF
 70
     1
  0
ATTDEF
  5
67
330
56
100
AcDbEntity
  8
INFO
100
AcDbText
 10
0.0
 20
-6.0
 30
0.0
 40
1.0
  1

100
AcDbAttributeDefinition
  3
Beschreibung 2
  2
6GENINF
 70
     1
  0
ATTDEF
  5
68
330
56
100
AcDbEntity
  8
INFO
100
AcDbText
 10
0.0
 20
-7.5
 30
0.0
 40
1.0
  1

100
AcDbAttributeDefinition
  3
Norm/Lieferant 1
  2
7GENINF
 70
     1
  0
ATTDEF
  5
69
330
56
100
AcDbEntity
  8
INFO
100
AcDbText
 10
0.0
 20
-9.0
 30
0.0
 40
1.0
  1

100
AcDbAttributeDefinition
  3
Norm/Lieferant 2
  2
8GENINF
 70
     1
  0
ATTDEF
  5
6A
330
56
100
AcDbEntity
  8
INFO
100
AcDbText
 10
0.0
 20
-10.5
 30
0.0
 40
1.0
  1

100
AcDbAttributeDefinition
  3
Material 1
  2
9GENINF
 70
     1
  0
ATTDEF
  5
6B
330
56
100
AcDbEntity
  8
INFO
100
AcDbText
 10
0.0
 20
-12.0
 30
0.0
 40
1.0
  1

100
AcDbAttributeDefinition
  3
Material 2
  2
10GENINF
 70
     1
  0
ATTDEF
  5
6C
330
56
100
AcDbEntity
  8
INFO
100
AcDbText
 10
0.0
 20
-13.5
 30
0.0
 40
1.0
  1

100
AcDbAttributeDefinition
  3
Identnummer
  2
11GENINF
 70
     1
  0
ATTDEF
  5
6D
330
56
100
AcDbEntity
  8
INFO
100
AcDbText
 10
0.0
 20
-15.0
 30
0.0
 40
1.0
  1

100
AcDbAttributeDefinition
  3
Gewicht
  2
12GENINF
 70
     1
  0
ATTDEF
  5
6E
330
56
100
AcDbEntity
  8
INFO
100
AcDbText
 10
0.0
 20
-16.5
 30
0.0
 40
1.0
  1

100
AcDbAttributeDefinition
  3
Preis
  2
13GENINF
 70
     1
  0
ATTDEF
  5
6F
330
56
100
AcDbEntity
  8
INFO
100
AcDbText
 10
0.0
 20
-18.0
 30
0.0
 40
1.0
  1

100
AcDbAttributeDefinition
  3
Abmessungen
  2
14GENINF
 70
     1
  0
ATTDEF
  5
70
330
56
100
AcDbEntity
  8
INFO
100
AcDbText
 10
0.0
 20
-19.5
 30
0.0
 40
1.0
  1

100
AcDbAttributeDefinition
  3
User 1
  2
15GENINF
 70
     1
  0
ATTDEF
  5
71
330
56
100
AcDbEntity
  8
INFO
100
AcDbText
 10
0.0
 20
-21.0
 30
0.0
 40
1.0
  1

100
AcDbAttributeDefinition
  3
User 2
  2
16GENINF
 70
     1
  0
ATTDEF
  5
72
330
56
100
AcDbEntity
  8
INFO
100
AcDbText
 10
0.0
 20
-22.5
 30
0.0
 40
1.0
  1

100
AcDbAttributeDefinition
  3
User 3
  2
17GENINF
 70
     1
  0
ATTDEF
  5
73
330
56
100
AcDbEntity
  8
INFO
100
AcDbText
 10
0.0
 20
-24.0
 30
0.0
 40
1.0
  1

100
AcDbAttributeDefinition
  3
User 4
  2
18GENINF
 70
     1
  0
ATTDEF
  5
74
330
56
100
AcDbEntity
  8
INFO
100
AcDbText
 10
0.0
 20
-25.5
 30
0.0
 40
1.0
  1

100
AcDbAttributeDefinition
  3
User 5
  2
19GENINF
 70
     1
  0
ATTDEF
  5
75
330
56
100
AcDbEntity
  8
INFO
100
AcDbText
 10
0.0
 20
-27.0
 30
0.0
 40
1.0
  1

100
AcDbAttributeDefinition
  3
User 6
  2
20GENINF
 70
     1
  0
ATTDEF
  5
76
330
56
100
AcDbEntity
  8
INFO
100
AcDbText
 10
0.0
 20
-28.5
 30
0.0
 40
1.0
  1

100
AcDbAttributeDefinition
  3
User 7
  2
21GENINF
 70
     1
  0
ATTDEF
  5
77
330
56
100
AcDbEntity
  8
INFO
100
AcDbText
 10
0.0
 20
-30.0
 30
0.0
 40
1.0
  1

100
AcDbAttributeDefinition
  3
User 8
  2
22GENINF
 70
     1
  0
ATTDEF
  5
78
330
56
100
AcDbEntity
  8
INFO
100
AcDbText
 10
0.0
 20
-31.5
 30
0.0
 40
1.0
  1

100
AcDbAttributeDefinition
  3
Filter
  2
23GENINF
 70
     1
  0
ATTDEF
  5
79
330
56
100
AcDbEntity
  8
INFO
100
AcDbText
 10
0.0
 20
-33.0
 30
0.0
 40
1.0
  1

100
AcDbAttributeDefinition
  3
Bemerkung
  2
24GENINF
 70
     1
  0
ATTDEF
  5
7A
330
56
100
AcDbEntity
  8
INFO
100
AcDbText
 10
0.0
 20
-34.5
 30
0.0
 40
1.0
  1

100
AcDbAttributeDefinition
  3
Genius Normteile ID
  2
0GENINF
 70
     1
  0
ENDBLK
  5
7C
330
56
100
AcDbEntity
  8
0
100
AcDbBlockEnd
  0
BLOCK
  5
50E
330
504
100
AcDbEntity
  8
0
100
AcDbBlockBegin
  2
*X1
 70
     1
 10
0.0
 20
0.0
 30
0.0
  3
*X1
  1
GEVFRAME
  0
LINE
  5
505
330
504
100
AcDbEntity
  8
0
 62
     0
100
AcDbLine
 10
530.6356623850684
 20
509.4224589494721
 30
0.0
 11
535.1356623850684
 21
513.9224589494719
 31
0.0
  0
LINE
  5
506
330
504
100
AcDbEntity
  8
0
 62
     0
100
AcDbLine
 10
530.6356623850684
 20
512.9579928554047
 30
0.0
 11
535.1356623850684
 21
517.4579928554046
 31
0.0
  0
LINE
  5
507
330
504
100
AcDbEntity
  8
0
 62
     0
100
AcDbLine
 10
530.6356623850684
 20
516.4935267613375
 30
0.0
 11
533.1356623850683
 21
518.9935267613374
 31
0.0
  0
LINE
  5
508
330
504
100
AcDbEntity
  8
0
 62
     0
100
AcDbLine
 10
530.6356623850684
 20
520.0290606672703
 30
0.0
 11
531.5677919104699
 21
520.9611901926717
 31
0.0
  0
LINE
  5
509
330
504
100
AcDbEntity
  8
0
 62
     0
100
AcDbLine
 10
530.6356623850684
 20
505.8869250435392
 30
0.0
 11
535.1356623850684
 21
510.3869250435391
 31
0.0
  0
LINE
  5
50A
330
504
100
AcDbEntity
  8
0
 62
     0
100
AcDbLine
 10
530.6356623850684
 20
502.3513911376065
 30
0.0
 11
532.8856623850684
 21
504.6013911376064
 31
0.0
  0
LINE
  5
50B
330
504
100
AcDbEntity
  8
0
 62
     0
100
AcDbLine
 10
534.2454614401336
 20
505.9611901926715
 30
0.0
 11
535.1356623850684
 21
506.8513911376064
 31
0.0
  0
LINE
  5
50C
330
504
100
AcDbEntity
  8
0
 62
     0
100
AcDbLine
 10
530.6356623850684
 20
498.8158572316738
 30
0.0
 11
532.8856623850684
 21
501.0658572316737
 31
0.0
  0
LINE
  5
50D
330
504
100
AcDbEntity
  8
0
 62
     0
100
AcDbLine
 10
532.816529251999
 20
497.4611901926716
 30
0.0
 11
532.8856623850684
 21
497.530323325741
 31
0.0
  0
ENDBLK
  5
50F
330
504
100
AcDbEntity
  8
0
100
AcDbBlockEnd
  0
BLOCK
  5
518
330
510
100
AcDbEntity
  8
0
100
AcDbBlockBegin
  2
*X2
 70
     1
 10
0.0
 20
0.0
 30
0.0
  3
*X2
  1
GEVFRAME
  0
LINE
  5
511
330
510
100
AcDbEntity
  8
0
 62
     0
100
AcDbLine
 10
544.8520631579317
 20
505.9611901926715
 30
0.0
 11
551.7389985965545
 21
512.8481256312944
 31
0.0
  0
LINE
  5
512
330
510
100
AcDbEntity
  8
0
 62
     0
100
AcDbLine
 10
544.1356623850683
 20
508.7803233257409
 30
0.0
 11
551.0343826007983
 21
515.679043541471
 31
0.0
  0
LINE
  5
513
330
510
100
AcDbEntity
  8
0
 62
     0
100
AcDbLine
 10
544.1356623850683
 20
512.3158572316737
 30
0.0
 11
550.3044447491239
 21
518.4846395957293
 31
0.0
  0
LINE
  5
514
330
510
100
AcDbEntity
  8
0
 62
     0
100
AcDbLine
 10
544.1356623850683
 20
515.8513911376064
 30
0.0
 11
549.2454614401335
 21
520.9611901926717
 31
0.0
  0
LINE
  5
515
330
510
100
AcDbEntity
  8
0
 62
     0
100
AcDbLine
 10
546.3856623850683
 20
503.9592555138755
 30
0.0
 11
552.0513856956729
 21
509.6249788244801
 31
0.0
  0
LINE
  5
516
330
510
100
AcDbEntity
  8
0
 62
     0
100
AcDbLine
 10
546.3856623850683
 20
500.4237216079427
 30
0.0
 11
552.0294704717416
 21
506.067529694616
 31
0.0
  0
LINE
  5
517
330
510
100
AcDbEntity
  8
0
 62
     0
100
AcDbLine
 10
546.9586648757298
 20
497.4611901926715
 30
0.0
 11
550.7198226309051
 21
501.2223479478467
 31
0.0
  0
ENDBLK
  5
519
330
510
100
AcDbEntity
  8
0
100
AcDbBlockEnd
  0
BLOCK
  5
A60
330
A5E
100
AcDbEntity
  8
0
100
AcDbBlockBegin
  2
GENAXEH
 70
     0
 10
0.0
 20
0.0
 30
0.0
  3
GENAXEH
  1

  0
LINE
  5
A5F
330
A5E
100
AcDbEntity
  8
0
100
AcDbLine
 10
-1.0
 20
0.0
 30
0.0
 11
1.0
 21
0.0
 31
0.0
  0
ENDBLK
  5
A61
330
A5E
100
AcDbEntity
  8
0
100
AcDbBlockEnd
  0
ENDSEC
  0
SECTION
  2
ENTITIES
  0
POLYLINE
  5
74D
330
1A
100
AcDbEntity
  8
MSR_5-0
100
AcDb2dPolyline
 66
     1
 10
0.0
 20
0.0
 30
0.0
  0
VERTEX
  5
74E
330
74D
100
AcDbEntity
  8
MSR_5-0
100
AcDbVertex
100
AcDb2dVertex
 10
77.00000000000006
 20
45.0
 30
0.0
  0
VERTEX
  5
74F
330
74D
100
AcDbEntity
  8
MSR_5-0
100
AcDbVertex
100
AcDb2dVertex
 10
82.5
 20
45.0
 30
0.0
  0
VERTEX
  5
750
330
74D
100
AcDbEntity
  8
MSR_5-0
100
AcDbVertex
100
AcDb2dVertex
 10
82.5
 20
-45.0
 30
0.0
  0
VERTEX
  5
751
330
74D
100
AcDbEntity
  8
MSR_5-0
100
AcDbVertex
100
AcDb2dVertex
 10
77.00000000000006
 20
-45.0
 30
0.0
  0
SEQEND
  5
752
330
74D
100
AcDbEntity
  8
MSR_5-0
  0
LINE
  5
753
330
1A
100
AcDbEntity
  8
MSR_5-0
100
AcDbLine
 10
77.00000000000006
 20
45.0
 30
0.0
 11
77.00000000000006
 21
-45.0
 31
0.0
  0
TEXT
  5
754
330
1A
100
AcDbEntity
  8
MSR_5-6
100
AcDbText
 10
-72.72298288263141
 20
-39.82113498110777
 30
0.0
 40
3.5
  1
MSR 5
100
AcDbText
  0
INSERT
  5
755
330
1A
100
AcDbEntity
  8
MSR_5-0N
100
AcDbBlockReference
 66
     1
  2
GENINF13
 10
-51.52453778877384
 20
-38.67991667306171
 30
0.0
1001
GENIUS_GENSCSYM_13
1002
{
1000
INSPT
1011
-51.52453778877384
1021
-38.67991667306171
1031
0.0
1002
}
1002
{
1000
SCALE
1042
1.0
1002
}
1002
{
1000
USEOLDBPT
1070
     0
1002
}
1001
GENIUS_GENOBJ-N-INFOPT_13
1002
{
1000
OWNER
1000
GEN
1002
}
1001
GENIUS_GENSYMENT_13
1002
{
1000
ENT
1005
755
1002
}
1001
GENIUS_GENODEF_13
1002
{
1000
HIER
1070
     0
1002
}
1002
{
1000
MANEDIT
1070
     0
1002
}
1002
{
1000
NOSEL
1070
     0
1002
}
1002
{
1000
BEHIND
1070
     0
1002
}
1002
{
1000
REACTOR
1002
}
1001
GENIUS_GENOBJ-N-RSSYM_13
1002
{
1000
OWNER
1000
GEN
1002
}
1001
GENIUS_GENINF13_13
1070
     1
  0
ATTRIB
  5
756
330
755
100
AcDbEntity
  8
INFO
100
AcDbText
 10
-51.52453778877384
 20
-38.67991667306171
 30
0.0
 40
1.0
  1
1
100
AcDbAttribute
  2
2GENINF
 70
     1
  0
ATTRIB
  5
757
330
755
100
AcDbEntity
  8
INFO
100
AcDbText
 10
-51.52453778877384
 20
-40.17991667306171
 30
0.0
 40
1.0
  1
<***aktuell***>
100
AcDbAttribute
  2
3GENINF
 70
     1
  0
ATTRIB
  5
758
330
755
100
AcDbEntity
  8
INFO
100
AcDbText
 10
-51.52453778877384
 20
-41.6799166730617
 30
0.0
 40
1.0
  1

100
AcDbAttribute
  2
4GENINF
 70
     1
  0
ATTRIB
  5
759
330
755
100
AcDbEntity
  8
INFO
100
AcDbText
 10
-51.52453778877384
 20
-43.17991667306171
 30
0.0
 40
1.0
  1
MSR 5
100
AcDbAttribute
  2
5GENINF
 70
     1
  0
ATTRIB
  5
75A
330
755
100
AcDbEntity
  8
INFO
100
AcDbText
 10
-51.52453778877384
 20
-44.67991667306171
 30
0.0
 40
1.0
  1

100
AcDbAttribute
  2
6GENINF
 70
     1
  0
ATTRIB
  5
75B
330
755
100
AcDbEntity
  8
INFO
100
AcDbText
 10
-51.52453778877384
 20
-46.17991667306171
 30
0.0
 40
1.0
  1
Fa. Mayer
100
AcDbAttribute
  2
7GENINF
 70
     1
  0
ATTRIB
  5
75C
330
755
100
AcDbEntity
  8
INFO
100
AcDbText
 10
-51.52453778877384
 20
-47.67991667306171
 30
0.0
 40
1.0
  1

100
AcDbAttribute
  2
8GENINF
 70
     1
  0
ATTRIB
  5
75D
330
755
100
AcDbEntity
  8
INFO
100
AcDbText
 10
-51.52453778877384
 20
-49.17991667306171
 30
0.0
 40
1.0
  1

100
AcDbAttribute
  2
9GENINF
 70
     1
  0
ATTRIB
  5
75E
330
755
100
AcDbEntity
  8
INFO
100
AcDbText
 10
-51.52453778877384
 20
-50.67991667306171
 30
0.0
 40
1.0
  1

100
AcDbAttribute
  2
10GENINF
 70
     1
  0
ATTRIB
  5
75F
330
755
100
AcDbEntity
  8
INFO
100
AcDbText
 10
-51.52453778877384
 20
-52.17991667306171
 30
0.0
 40
1.0
  1

100
AcDbAttribute
  2
11GENINF
 70
     1
  0
ATTRIB
  5
760
330
755
100
AcDbEntity
  8
INFO
100
AcDbText
 10
-51.52453778877384
 20
-53.67991667306171
 30
0.0
 40
1.0
  1

100
AcDbAttribute
  2
12GENINF
 70
     1
  0
ATTRIB
  5
761
330
755
100
AcDbEntity
  8
INFO
100
AcDbText
 10
-51.52453778877384
 20
-55.17991667306171
 30
0.0
 40
1.0
  1

100
AcDbAttribute
  2
13GENINF
 70
     1
  0
ATTRIB
  5
762
330
755
100
AcDbEntity
  8
INFO
100
AcDbText
 10
-51.52453778877384
 20
-56.67991667306171
 30
0.0
 40
1.0
  1

100
AcDbAttribute
  2
14GENINF
 70
     1
  0
ATTRIB
  5
763
330
755
100
AcDbEntity
  8
INFO
100
AcDbText
 10
-51.52453778877384
 20
-58.17991667306171
 30
0.0
 40
1.0
  1

100
AcDbAttribute
  2
15GENINF
 70
     1
  0
ATTRIB
  5
764
330
755
100
AcDbEntity
  8
INFO
100
AcDbText
 10
-51.52453778877384
 20
-59.67991667306171
 30
0.0
 40
1.0
  1

100
AcDbAttribute
  2
16GENINF
 70
     1
  0
ATTRIB
  5
765
330
755
100
AcDbEntity
  8
INFO
100
AcDbText
 10
-51.52453778877384
 20
-61.17991667306171
 30
0.0
 40
1.0
  1

100
AcDbAttribute
  2
17GENINF
 70
     1
  0
ATTRIB
  5
766
330
755
100
AcDbEntity
  8
INFO
100
AcDbText
 10
-51.52453778877384
 20
-62.67991667306171
 30
0.0
 40
1.0
  1

100
AcDbAttribute
  2
18GENINF
 70
     1
  0
ATTRIB
  5
767
330
755
100
AcDbEntity
  8
INFO
100
AcDbText
 10
-51.52453778877384
 20
-64.17991667306171
 30
0.0
 40
1.0
  1

100
AcDbAttribute
  2
19GENINF
 70
     1
  0
ATTRIB
  5
768
330
755
100
AcDbEntity
  8
INFO
100
AcDbText
 10
-51.52453778877384
 20
-65.67991667306171
 30
0.0
 40
1.0
  1

100
AcDbAttribute
  2
20GENINF
 70
     1
  0
ATTRIB
  5
769
330
755
100
AcDbEntity
  8
INFO
100
AcDbText
 10
-51.52453778877384
 20
-67.17991667306171
 30
0.0
 40
1.0
  1

100
AcDbAttribute
  2
21GENINF
 70
     1
  0
ATTRIB
  5
76A
330
755
100
AcDbEntity
  8
INFO
100
AcDbText
 10
-51.52453778877384
 20
-68.67991667306171
 30
0.0
 40
1.0
  1

100
AcDbAttribute
  2
22GENINF
 70
     1
  0
ATTRIB
  5
76B
330
755
100
AcDbEntity
  8
INFO
100
AcDbText
 10
-51.52453778877384
 20
-70.17991667306171
 30
0.0
 40
1.0
  1

100
AcDbAttribute
  2
23GENINF
 70
     1
  0
ATTRIB
  5
76C
330
755
100
AcDbEntity
  8
INFO
100
AcDbText
 10
-51.52453778877384
 20
-71.67991667306171
 30
0.0
 40
1.0
  1

100
AcDbAttribute
  2
24GENINF
 70
     1
  0
ATTRIB
  5
76D
330
755
100
AcDbEntity
  8
INFO
100
AcDbText
 10
-51.52453778877384
 20
-73.17991667306171
 30
0.0
 40
1.0
  1

100
AcDbAttribute
  2
0GENINF
 70
     1
  0
SEQEND
  5
76E
330
755
100
AcDbEntity
  8
MSR_5-0N
  0
ARC
  5
76F
330
1A
100
AcDbEntity
  8
MSR_5-0
100
AcDbCircle
 10
-89.9130725
 20
-38.14502999999991
 30
0.0
 40
5.551215
100
AcDbArc
 50
127.878142
 51
232.121858
  0
ARC
  5
770
330
1A
100
AcDbEntity
  8
MSR_5-0
100
AcDbCircle
 10
-94.05121749999995
 20
-38.14502999999991
 30
0.0
 40
5.551215
100
AcDbArc
 50
307.878144
 51
52.121856
  0
LINE
  5
771
330
1A
100
AcDbEntity
  8
MSR_5-0
100
AcDbLine
 10
-88.49999999999994
 20
-45.0
 30
0.0
 11
-88.49999999999994
 21
45.0
 31
0.0
  0
LINE
  5
772
330
1A
100
AcDbEntity
  8
MSR_5-0
100
AcDbLine
 10
-76.85629999999992
 20
45.0
 30
0.0
 11
-76.85629999999992
 21
-45.0
 31
0.0
  0
POLYLINE
  5
773
330
1A
100
AcDbEntity
  8
MSR_5-0
100
AcDb2dPolyline
 66
     1
 10
0.0
 20
0.0
 30
0.0
  0
VERTEX
  5
774
330
773
100
AcDbEntity
  8
MSR_5-0
100
AcDbVertex
100
AcDb2dVertex
 10
-53.99999999999995
 20
-130.2904818645038
 30
0.0
  0
VERTEX
  5
775
330
773
100
AcDbEntity
  8
MSR_5-0
100
AcDbVertex
100
AcDb2dVertex
 10
-53.99999999999995
 20
-145.2904818645038
 30
0.0
  0
VERTEX
  5
776
330
773
100
AcDbEntity
  8
MSR_5-0
100
AcDbVertex
100
AcDb2dVertex
 10
-88.49999999999994
 20
-145.2904818645038
 30
0.0
  0
SEQEND
  5
777
330
773
100
AcDbEntity
  8
MSR_5-0
  0
TEXT
  5
778
330
1A
100
AcDbEntity
  8
MSR_5-6
100
AcDbText
 10
-84.36668288263144
 20
-206.1116168456116
 30
0.0
 40
3.5
  1
MSR 5
100
AcDbText
  0
POLYLINE
  5
779
330
1A
100
AcDbEntity
  8
MSR_5-0
100
AcDb2dPolyline
 66
     1
 10
0.0
 20
0.0
 30
0.0
 70
     1
  0
VERTEX
  5
77A
330
779
100
AcDbEntity
  8
MSR_5-0
100
AcDbVertex
100
AcDb2dVertex
 10
-88.49999999999994
 20
-211.2904818645038
 30
0.0
  0
VERTEX
  5
77B
330
779
100
AcDbEntity
  8
MSR_5-0
100
AcDbVertex
100
AcDb2dVertex
 10
-88.49999999999994
 20
-195.2904818645038
 30
0.0
  0
VERTEX
  5
77C
330
779
100
AcDbEntity
  8
MSR_5-0
100
AcDbVertex
100
AcDb2dVertex
 10
77.00000000000006
 20
-195.2904818645038
 30
0.0
  0
VERTEX
  5
77D
330
779
100
AcDbEntity
  8
MSR_5-0
100
AcDbVertex
100
AcDb2dVertex
 10
77.00000000000006
 20
-211.2904818645038
 30
0.0
  0
SEQEND
  5
77E
330
779
100
AcDbEntity
  8
MSR_5-0
  0
POLYLINE
  5
77F
330
1A
100
AcDbEntity
  8
MSR_5-0
100
AcDb2dPolyline
 66
     1
 10
0.0
 20
0.0
 30
0.0
  0
VERTEX
  5
780
330
77F
100
AcDbEntity
  8
MSR_5-0
100
AcDbVertex
100
AcDb2dVertex
 10
-76.99999999999988
 20
-135.2904818645038
 30
0.0
  0
VERTEX
  5
781
330
77F
100
AcDbEntity
  8
MSR_5-0
100
AcDbVertex
100
AcDb2dVertex
 10
-88.49999999999994
 20
-135.2904818645038
 30
0.0
  0
VERTEX
  5
782
330
77F
100
AcDbEntity
  8
MSR_5-0
100
AcDbVertex
100
AcDb2dVertex
 10
-88.49999999999994
 20
-195.2904818645038
 30
0.0
  0
VERTEX
  5
783
330
77F
100
AcDbEntity
  8
MSR_5-0
100
AcDbVertex
100
AcDb2dVertex
 10
-76.99999999999988
 20
-195.2904818645038
 30
0.0
  0
SEQEND
  5
784
330
77F
100
AcDbEntity
  8
MSR_5-0
  0
LINE
  5
785
330
1A
100
AcDbEntity
  8
MSR_5-7
100
AcDbLine
 10
-194.1005723202371
 20
-160.9677368645038
 30
0.0
 11
-77.95041249999991
 21
-160.9677368645038
 31
0.0
  0
LINE
  5
786
330
1A
100
AcDbEntity
  8
MSR_5-0
100
AcDbLine
 10
-88.49999999999994
 20
-291.5972769048848
 30
0.0
 11
-77.99999999999994
 21
-291.5972769048848
 31
0.0
  0
LINE
  5
787
330
1A
100
AcDbEntity
  8
MSR_5-0
100
AcDbLine
 10
-77.99999999999994
 20
-346.8972769048848
 30
0.0
 11
-88.49999999999994
 21
-346.8972769048848
 31
0.0
  0
LINE
  5
788
330
1A
100
AcDbEntity
  8
MSR_5-0
100
AcDbLine
 10
-88.49999999999994
 20
-274.2472769048847
 30
0.0
 11
77.00000000000006
 21
-274.2472769048847
 31
0.0
  0
LINE
  5
789
330
1A
100
AcDbEntity
  8
MSR_5-0
100
AcDbLine
 10
77.00000000000006
 20
-364.2472769048848
 30
0.0
 11
-88.49999999999994
 21
-364.2472769048849
 31
0.0
  0
LINE
  5
78A
330
1A
100
AcDbEntity
  8
MSR_5-0
100
AcDbLine
 10
77.00000000000006
 20
-45.0
 30
0.0
 11
-88.49999999999994
 21
-45.0
 31
0.0
  0
LINE
  5
78B
330
1A
100
AcDbEntity
  8
MSR_5-7
100
AcDbLine
 10
-80.96303249999994
 20
-354.2472769048848
 30
0.0
 11
-61.36871999999994
 21
-354.2472769048848
 31
0.0
  0
LINE
  5
78C
330
1A
100
AcDbEntity
  8
MSR_5-7
100
AcDbLine
 10
-80.96303249999994
 20
-284.2472769048848
 30
0.0
 11
-57.67969999999997
 21
-284.2472769048848
 31
0.0
  0
LINE
  5
78D
330
1A
100
AcDbEntity
  8
MSR_5-0
100
AcDbLine
 10
-88.49999999999994
 20
-331.1022469048848
 30
0.0
 11
-88.49999999999994
 21
-357.3923044048848
 31
0.0
  0
LINE
  5
78E
330
1A
100
AcDbEntity
  8
MSR_5-0
100
AcDbLine
 10
-95.46428749999995
 20
-331.1022469048848
 30
0.0
 11
-95.46428749999995
 21
-357.3923044048848
 31
0.0
  0
ARC
  5
78F
330
1A
100
AcDbEntity
  8
MSR_5-0
100
AcDbCircle
 10
-76.47371249999991
 20
-344.2472769048848
 30
0.0
 40
18.990575
100
AcDbArc
 50
152.518771
 51
207.481229
  0
ARC
  5
790
330
1A
100
AcDbEntity
  8
MSR_5-0
100
AcDbCircle
 10
-107.4905774999999
 20
-344.2472769048848
 30
0.0
 40
18.990575
100
AcDbArc
 50
332.518773
 51
27.481227
  0
LINE
  5
791
330
1A
100
AcDbEntity
  8
MSR_5-0
100
AcDbLine
 10
-88.49999999999994
 20
-364.2472769048848
 30
0.0
 11
-88.49999999999994
 21
-274.2472769048847
 31
0.0
  0
LINE
  5
792
330
1A
100
AcDbEntity
  8
MSR_5-0
100
AcDbLine
 10
-93.32142999999996
 20
-361.7739819048848
 30
0.0
 11
-90.64285749999994
 21
-361.7739819048848
 31
0.0
  0
LINE
  5
793
330
1A
100
AcDbEntity
  8
MSR_5-0
100
AcDbLine
 10
-93.32142999999996
 20
-353.0106294048848
 30
0.0
 11
-90.64285749999994
 21
-353.0106294048848
 31
0.0
  0
ARC
  5
794
330
1A
100
AcDbEntity
  8
MSR_5-0
100
AcDbCircle
 10
-89.9130725
 20
-357.3923044048848
 30
0.0
 40
5.551215
100
AcDbArc
 50
127.878142
 51
232.121858
  0
ARC
  5
795
330
1A
100
AcDbEntity
  8
MSR_5-0
100
AcDbCircle
 10
-94.05121749999995
 20
-357.3923044048848
 30
0.0
 40
5.551215
100
AcDbArc
 50
307.878144
 51
52.121856
  0
LINE
  5
796
330
1A
100
AcDbEntity
  8
MSR_5-0
100
AcDbLine
 10
-95.46428749999995
 20
-281.1022469048848
 30
0.0
 11
-95.46428749999995
 21
-307.3923044048848
 31
0.0
  0
LINE
  5
797
330
1A
100
AcDbEntity
  8
MSR_5-0
100
AcDbLine
 10
-88.49999999999994
 20
-281.1022469048848
 30
0.0
 11
-88.49999999999994
 21
-307.3923044048848
 31
0.0
  0
ARC
  5
798
330
1A
100
AcDbEntity
  8
MSR_5-0
100
AcDbCircle
 10
-76.47371249999991
 20
-294.2472769048848
 30
0.0
 40
18.990575
100
AcDbArc
 50
152.518771
 51
207.481229
  0
ARC
  5
799
330
1A
100
AcDbEntity
  8
MSR_5-0
100
AcDbCircle
 10
-107.4905774999999
 20
-294.2472769048848
 30
0.0
 40
18.990575
100
AcDbArc
 50
332.518773
 51
27.481227
  0
LINE
  5
79A
330
1A
100
AcDbEntity
  8
MSR_5-0
100
AcDbLine
 10
-93.32142999999996
 20
-326.7205719048848
 30
0.0
 11
-90.64285749999994
 21
-326.7205719048848
 31
0.0
  0
LINE
  5
79B
330
1A
100
AcDbEntity
  8
MSR_5-0
100
AcDbLine
 10
-93.32142999999996
 20
-335.4839244048848
 30
0.0
 11
-90.64285749999994
 21
-335.4839244048848
 31
0.0
  0
LINE
  5
79C
330
1A
100
AcDbEntity
  8
MSR_5-7
100
AcDbLine
 10
-100.0636507012079
 20
-344.2472769048848
 30
0.0
 11
-83.06840249999993
 21
-344.2472769048848
 31
0.0
  0
ARC
  5
79D
330
1A
100
AcDbEntity
  8
MSR_5-0
100
AcDbCircle
 10
-89.9130725
 20
-331.1022469048848
 30
0.0
 40
5.551215
100
AcDbArc
 50
127.878142
 51
232.121858
  0
ARC
  5
79E
330
1A
100
AcDbEntity
  8
MSR_5-0
100
AcDbCircle
 10
-94.05121749999995
 20
-331.1022469048848
 30
0.0
 40
5.551215
100
AcDbArc
 50
307.878144
 51
52.121856
  0
LINE
  5
79F
330
1A
100
AcDbEntity
  8
MSR_5-0
100
AcDbLine
 10
-93.32142999999996
 20
-311.7739819048848
 30
0.0
 11
-90.64285749999994
 21
-311.7739819048848
 31
0.0
  0
LINE
  5
7A0
330
1A
100
AcDbEntity
  8
MSR_5-0
100
AcDbLine
 10
-93.32142999999996
 20
-303.0106294048848
 30
0.0
 11
-90.64285749999994
 21
-303.0106294048848
 31
0.0
  0
LINE
  5
7A1
330
1A
100
AcDbEntity
  8
MSR_5-7
100
AcDbLine
 10
-100.0636507012079
 20
-294.2472769048848
 30
0.0
 11
-83.06840249999993
 21
-294.2472769048848
 31
0.0
  0
ARC
  5
7A2
330
1A
100
AcDbEntity
  8
MSR_5-0
100
AcDbCircle
 10
-89.9130725
 20
-307.3923044048848
 30
0.0
 40
5.551215
100
AcDbArc
 50
127.878142
 51
232.121858
  0
ARC
  5
7A3
330
1A
100
AcDbEntity
  8
MSR_5-0
100
AcDbCircle
 10
-94.05121749999995
 20
-307.3923044048848
 30
0.0
 40
5.551215
100
AcDbArc
 50
307.878144
 51
52.121856
  0
LINE
  5
7A4
330
1A
100
AcDbEntity
  8
MSR_5-0
100
AcDbLine
 10
-93.32142999999996
 20
-285.4839244048848
 30
0.0
 11
-90.64285749999994
 21
-285.4839244048848
 31
0.0
  0
LINE
  5
7A5
330
1A
100
AcDbEntity
  8
MSR_5-0
100
AcDbLine
 10
-93.32142999999996
 20
-276.7205719048848
 30
0.0
 11
-90.64285749999994
 21
-276.7205719048848
 31
0.0
  0
ARC
  5
7A6
330
1A
100
AcDbEntity
  8
MSR_5-0
100
AcDbCircle
 10
-89.9130725
 20
-281.1022469048848
 30
0.0
 40
5.551215
100
AcDbArc
 50
127.878142
 51
232.121858
  0
ARC
  5
7A7
330
1A
100
AcDbEntity
  8
MSR_5-0
100
AcDbCircle
 10
-94.05121749999995
 20
-281.1022469048848
 30
0.0
 40
5.551215
100
AcDbArc
 50
307.878144
 51
52.121856
  0
LINE
  5
7A8
330
1A
100
AcDbEntity
  8
MSR_5-4A
100
AcDbLine
 10
-170.1071449999999
 20
-150.2534493645038
 30
0.0
 11
-179.9285724999999
 21
-150.2534493645038
 31
0.0
  0
LINE
  5
7A9
330
1A
100
AcDbEntity
  8
MSR_5-4A
100
AcDbLine
 10
-179.9285724999999
 20
-171.6820218645038
 30
0.0
 11
-170.1071449999999
 21
-171.6820218645038
 31
0.0
  0
LINE
  5
7AA
330
1A
100
AcDbEntity
  8
MSR_5-4A
100
AcDbLine
 10
-183.4999999999999
 20
-153.8248793645038
 30
0.0
 11
-183.4999999999999
 21
-168.1105918645038
 31
0.0
  0
ARC
  5
7AB
330
1A
100
AcDbEntity
  8
MSR_5-4A
100
AcDbCircle
 10
-179.9285724999999
 20
-168.1105918645038
 30
0.0
 40
3.571427499999999
100
AcDbArc
 50
179.999998
 51
270.000001
  0
ARC
  5
7AC
330
1A
100
AcDbEntity
  8
MSR_5-4A
100
AcDbCircle
 10
-179.9285724999999
 20
-153.8248793645038
 30
0.0
 40
3.571427499999999
100
AcDbArc
 50
89.999999
 51
179.999998
  0
LINE
  5
7AD
330
1A
100
AcDbEntity
  8
MSR_5-4A
100
AcDbLine
 10
-95.49999999999995
 20
-148.4677368645038
 30
0.0
 11
-168.3214299999999
 21
-148.4677368645038
 31
0.0
  0
LINE
  5
7AE
330
1A
100
AcDbEntity
  8
MSR_5-4A
100
AcDbLine
 10
-169.6607149999999
 20
-149.8070218645038
 30
0.0
 11
-95.49999999999988
 21
-149.8070218645038
 31
0.0
  0
LINE
  5
7AF
330
1A
100
AcDbEntity
  8
MSR_5-4A
100
AcDbLine
 10
-168.3214299999999
 20
-173.4677368645038
 30
0.0
 11
-95.49999999999995
 21
-173.4677368645038
 31
0.0
  0
LINE
  5
7B0
330
1A
100
AcDbEntity
  8
MSR_5-4A
100
AcDbLine
 10
-169.6607149999999
 20
-172.1284493645038
 30
0.0
 11
-95.49999999999988
 21
-172.1284493645038
 31
0.0
  0
LINE
  5
7B1
330
1A
100
AcDbEntity
  8
MSR_5-4A
100
AcDbLine
 10
-170.1071449999999
 20
-150.2534493645038
 30
0.0
 11
-170.1071449999999
 21
-171.6820218645038
 31
0.0
  0
LINE
  5
7B2
330
1A
100
AcDbEntity
  8
MSR_5-4A
100
AcDbLine
 10
-168.3214299999999
 20
-148.4677368645038
 30
0.0
 11
-168.3214299999999
 21
-173.4677368645038
 31
0.0
  0
LINE
  5
7B3
330
1A
100
AcDbEntity
  8
MSR_5-4A
100
AcDbLine
 10
-170.1071449999999
 20
-171.6820218645038
 30
0.0
 11
-168.3214299999999
 21
-173.4677368645038
 31
0.0
  0
LINE
  5
7B4
330
1A
100
AcDbEntity
  8
MSR_5-4A
100
AcDbLine
 10
-168.3214299999999
 20
-148.4677368645038
 30
0.0
 11
-170.1071449999999
 21
-150.2534493645038
 31
0.0
  0
POLYLINE
  5
7B5
330
1A
100
AcDbEntity
  8
MSR_5-0
100
AcDb2dPolyline
 66
     1
 10
0.0
 20
0.0
 30
0.0
  0
VERTEX
  5
7B6
330
7B5
100
AcDbEntity
  8
MSR_5-0
100
AcDbVertex
100
AcDb2dVertex
 10
-88.49999999999994
 20
-145.7891643645038
 30
0.0
  0
VERTEX
  5
7B7
330
7B5
100
AcDbEntity
  8
MSR_5-0
100
AcDbVertex
100
AcDb2dVertex
 10
-95.49999999999995
 20
-145.7891643645038
 30
0.0
  0
VERTEX
  5
7B8
330
7B5
100
AcDbEntity
  8
MSR_5-0
100
AcDbVertex
100
AcDb2dVertex
 10
-95.49999999999995
 20
-175.9677368645038
 30
0.0
  0
VERTEX
  5
7B9
330
7B5
100
AcDbEntity
  8
MSR_5-0
100
AcDbVertex
100
AcDb2dVertex
 10
-88.49999999999994
 20
-175.9677368645038
 30
0.0
  0
SEQEND
  5
7BA
330
7B5
100
AcDbEntity
  8
MSR_5-0
  0
LINE
  5
7BB
330
1A
100
AcDbEntity
  8
MSR_5-0
100
AcDbLine
 10
-95.49999999999995
 20
-160.9677368645038
 30
0.0
 11
-88.49999999999994
 21
-160.9677368645038
 31
0.0
  0
LINE
  5
7BC
330
1A
100
AcDbEntity
  8
MSR_5-0
100
AcDbLine
 10
-93.32142999999996
 20
-42.52670499999999
 30
0.0
 11
-90.64285749999994
 21
-42.52670499999999
 31
0.0
  0
POLYLINE
  5
7BD
330
1A
100
AcDbEntity
  8
MSR_5-2
100
AcDb2dPolyline
 66
     1
 10
0.0
 20
0.0
 30
0.0
 70
     1
  0
VERTEX
  5
7BE
330
7BD
100
AcDbEntity
  8
MSR_5-2
100
AcDbVertex
100
AcDb2dVertex
 10
45.0
 20
-364.2472769048848
 30
0.0
  0
VERTEX
  5
7BF
330
7BD
100
AcDbEntity
  8
MSR_5-2
100
AcDbVertex
100
AcDb2dVertex
 10
-44.99999999999994
 20
-364.2472769048848
 30
0.0
  0
VERTEX
  5
7C0
330
7BD
100
AcDbEntity
  8
MSR_5-2
100
AcDbVertex
100
AcDb2dVertex
 10
-44.99999999999994
 20
-274.2472769048847
 30
0.0
  0
VERTEX
  5
7C1
330
7BD
100
AcDbEntity
  8
MSR_5-2
100
AcDbVertex
100
AcDb2dVertex
 10
45.0
 20
-274.2472769048847
 30
0.0
  0
SEQEND
  5
7C2
330
7BD
100
AcDbEntity
  8
MSR_5-2
  0
LINE
  5
7C3
330
1A
100
AcDbEntity
  8
MSR_5-0
100
AcDbLine
 10
-59.99999999999994
 20
-344.2472769048848
 30
0.0
 11
-59.99999999999994
 21
-364.2472769048848
 31
0.0
  0
LINE
  5
7C4
330
1A
100
AcDbEntity
  8
MSR_5-0
100
AcDbLine
 10
-53.99999999999995
 20
-274.2472769048847
 30
0.0
 11
-53.99999999999995
 21
-364.2472769048849
 31
0.0
  0
LINE
  5
7C5
330
1A
100
AcDbEntity
  8
MSR_5-0
100
AcDbLine
 10
-76.99999999999994
 20
-291.7472769048848
 30
0.0
 11
-76.99999999999994
 21
-346.7472769048848
 31
0.0
  0
LINE
  5
7C6
330
1A
100
AcDbEntity
  8
MSR_5-7A
100
AcDbLine
 10
-35.99999999999994
 20
-355.2472769048848
 30
0.0
 11
-26.49999999999995
 21
-355.2472769048848
 31
0.0
1001
GENIUS_GENOREF_13
1005
976
  0
CIRCLE
  5
7C7
330
1A
100
AcDbEntity
  8
MSR_5-2
100
AcDbCircle
 10
-35.99999999999994
 20
-355.2472769048848
 30
0.0
 40
6.5
  0
ARC
  5
7C8
330
1A
100
AcDbEntity
  8
MSR_5-4
100
AcDbCircle
 10
-35.99999999999994
 20
-355.2472769048848
 30
0.0
 40
5.0
100
AcDbArc
 50
174.454123
 51
97.31717699999999
  0
CIRCLE
  5
7C9
330
1A
100
AcDbEntity
  8
MSR_5-2
100
AcDbCircle
 10
-35.99999999999994
 20
-355.2472769048848
 30
0.0
 40
4.5
  0
LINE
  5
7CA
330
1A
100
AcDbEntity
  8
MSR_5-0
100
AcDbLine
 10
-77.99999999999989
 20
-361.7472769048848
 30
0.0
 11
-65.99999999999994
 21
-361.7472769048848
 31
0.0
  0
LINE
  5
7CB
330
1A
100
AcDbEntity
  8
MSR_5-0
100
AcDbLine
 10
-77.99999999999994
 20
-357.9992869048848
 30
0.0
 11
-65.99999999999994
 21
-357.9992869048848
 31
0.0
  0
LINE
  5
7CC
330
1A
100
AcDbEntity
  8
MSR_5-0
100
AcDbLine
 10
-77.99999999999994
 20
-350.4952669048848
 30
0.0
 11
-65.99999999999994
 21
-350.4952669048848
 31
0.0
  0
LINE
  5
7CD
330
1A
100
AcDbEntity
  8
MSR_5-0
100
AcDbLine
 10
-59.99999999999994
 20
-346.7472769048848
 30
0.0
 11
-77.99999999999994
 21
-346.7472769048848
 31
0.0
  0
LINE
  5
7CE
330
1A
100
AcDbEntity
  8
MSR_5-0
100
AcDbLine
 10
-77.99999999999994
 20
-346.7472769048848
 30
0.0
 11
-77.99999999999994
 21
-361.7472769048848
 31
0.0
  0
LINE
  5
7CF
330
1A
100
AcDbEntity
  8
MSR_5-0
100
AcDbLine
 10
-65.99999999999994
 20
-361.7472769048848
 30
0.0
 11
-65.99999999999994
 21
-346.7472769048848
 31
0.0
  0
LINE
  5
7D0
330
1A
100
AcDbEntity
  8
MSR_5-0
100
AcDbLine
 10
-65.99999999999994
 20
-360.2472769048848
 30
0.0
 11
-59.99999999999994
 21
-360.2472769048848
 31
0.0
  0
LINE
  5
7D1
330
1A
100
AcDbEntity
  8
MSR_5-4
100
AcDbLine
 10
-65.99999999999994
 20
-359.7472769048848
 30
0.0
 11
-59.99999999999994
 21
-359.7472769048848
 31
0.0
  0
LINE
  5
7D2
330
1A
100
AcDbEntity
  8
MSR_5-0
100
AcDbLine
 10
-65.99999999999994
 20
-348.2472769048848
 30
0.0
 11
-59.99999999999994
 21
-348.2472769048848
 31
0.0
  0
LINE
  5
7D3
330
1A
100
AcDbEntity
  8
MSR_5-4
100
AcDbLine
 10
-65.99999999999994
 20
-348.7472769048848
 30
0.0
 11
-59.99999999999994
 21
-348.7472769048848
 31
0.0
  0
LINE
  5
7D4
330
1A
100
AcDbEntity
  8
MSR_5-7A
100
AcDbLine
 10
-35.99999999999994
 20
-355.2472769048848
 30
0.0
 11
-45.49999999999994
 21
-355.2472769048848
 31
0.0
1001
GENIUS_GENOREF_13
1005
976
  0
LINE
  5
7D5
330
1A
100
AcDbEntity
  8
MSR_5-7A
100
AcDbLine
 10
-35.99999999999994
 20
-355.2472769048848
 30
0.0
 11
-35.99999999999994
 21
-364.7472769048848
 31
0.0
1001
GENIUS_GENOREF_13
1005
976
  0
LINE
  5
7D6
330
1A
100
AcDbEntity
  8
MSR_5-7A
100
AcDbLine
 10
-35.99999999999994
 20
-355.2472769048848
 30
0.0
 11
-35.99999999999994
 21
-345.7472769048848
 31
0.0
1001
GENIUS_GENOREF_13
1005
976
  0
LINE
  5
7D7
330
1A
100
AcDbEntity
  8
MSR_5-7A
100
AcDbLine
 10
-35.99999999999994
 20
-283.2472769048848
 30
0.0
 11
-26.49999999999995
 21
-283.2472769048848
 31
0.0
1001
GENIUS_GENOREF_13
1005
975
  0
ARC
  5
7D8
330
1A
100
AcDbEntity
  8
MSR_5-4
100
AcDbCircle
 10
-35.99999999999994
 20
-283.2472769048848
 30
0.0
 40
5.0
100
AcDbArc
 50
174.454123
 51
97.31717699999999
  0
CIRCLE
  5
7D9
330
1A
100
AcDbEntity
  8
MSR_5-2
100
AcDbCircle
 10
-35.99999999999994
 20
-283.2472769048848
 30
0.0
 40
6.5
  0
CIRCLE
  5
7DA
330
1A
100
AcDbEntity
  8
MSR_5-2
100
AcDbCircle
 10
-35.99999999999994
 20
-283.2472769048848
 30
0.0
 40
4.5
  0
POLYLINE
  5
7DB
330
1A
100
AcDbEntity
  8
MSR_5-0
100
AcDb2dPolyline
 66
     1
 10
0.0
 20
0.0
 30
0.0
  0
VERTEX
  5
7DC
330
7DB
100
AcDbEntity
  8
MSR_5-0
100
AcDbVertex
100
AcDb2dVertex
 10
-59.99999999999994
 20
-274.2472769048847
 30
0.0
  0
VERTEX
  5
7DD
330
7DB
100
AcDbEntity
  8
MSR_5-0
100
AcDbVertex
100
AcDb2dVertex
 10
-59.99999999999994
 20
-294.2472769048848
 30
0.0
  0
VERTEX
  5
7DE
330
7DB
100
AcDbEntity
  8
MSR_5-0
100
AcDbVertex
100
AcDb2dVertex
 10
-63.99999999999995
 20
-294.2472769048848
 30
0.0
  0
VERTEX
  5
7DF
330
7DB
100
AcDbEntity
  8
MSR_5-0
100
AcDbVertex
100
AcDb2dVertex
 10
-63.99999999999995
 20
-344.2472769048848
 30
0.0
  0
VERTEX
  5
7E0
330
7DB
100
AcDbEntity
  8
MSR_5-0
100
AcDbVertex
100
AcDb2dVertex
 10
-59.99999999999994
 20
-344.2472769048848
 30
0.0
  0
SEQEND
  5
7E1
330
7DB
100
AcDbEntity
  8
MSR_5-0
  0
LINE
  5
7E2
330
1A
100
AcDbEntity
  8
MSR_5-7
100
AcDbLine
 10
-75.69603749999993
 20
-319.2472769048848
 30
0.0
 11
-51.60727749999995
 21
-319.2472769048848
 31
0.0
  0
POLYLINE
  5
7E3
330
1A
100
AcDbEntity
  8
MSR_5-0
100
AcDb2dPolyline
 66
     1
 10
0.0
 20
0.0
 30
0.0
  0
VERTEX
  5
7E4
330
7E3
100
AcDbEntity
  8
MSR_5-0
100
AcDbVertex
100
AcDb2dVertex
 10
-73.72857999999997
 20
-324.2472769048848
 30
0.0
  0
VERTEX
  5
7E5
330
7E3
100
AcDbEntity
  8
MSR_5-0
100
AcDbVertex
100
AcDb2dVertex
 10
-67.72857999999996
 20
-324.2472769048848
 30
0.0
  0
VERTEX
  5
7E6
330
7E3
100
AcDbEntity
  8
MSR_5-0
100
AcDbVertex
100
AcDb2dVertex
 10
-67.72857999999996
 20
-314.2472769048848
 30
0.0
  0
VERTEX
  5
7E7
330
7E3
100
AcDbEntity
  8
MSR_5-0
100
AcDbVertex
100
AcDb2dVertex
 10
-73.72857999999997
 20
-314.2472769048848
 30
0.0
  0
SEQEND
  5
7E8
330
7E3
100
AcDbEntity
  8
MSR_5-0
  0
LINE
  5
7E9
330
1A
100
AcDbEntity
  8
MSR_5-0
100
AcDbLine
 10
-74.72857999999996
 20
-315.2472769048848
 30
0.0
 11
-74.72857999999996
 21
-323.2472769048848
 31
0.0
  0
LINE
  5
7EA
330
1A
100
AcDbEntity
  8
MSR_5-0
100
AcDbLine
 10
-67.72857999999996
 20
-316.2472769048847
 30
0.0
 11
-67.72857999999996
 21
-322.2472769048847
 31
0.0
  0
ARC
  5
7EB
330
1A
100
AcDbEntity
  8
MSR_5-0
100
AcDbCircle
 10
-73.72857999999997
 20
-323.2472769048848
 30
0.0
 40
1.0
100
AcDbArc
 50
179.999998
 51
270.000001
  0
LINE
  5
7EC
330
1A
100
AcDbEntity
  8
MSR_5-0
100
AcDbLine
 10
-67.72857999999996
 20
-322.2472769048847
 30
0.0
 11
-63.99999999999995
 21
-322.2472769048847
 31
0.0
  0
LINE
  5
7ED
330
1A
100
AcDbEntity
  8
MSR_5-4
100
AcDbLine
 10
-63.99999999999995
 20
-321.7472769048848
 30
0.0
 11
-67.72857999999996
 21
-321.7472769048848
 31
0.0
  0
ARC
  5
7EE
330
1A
100
AcDbEntity
  8
MSR_5-0
100
AcDbCircle
 10
-73.72857999999997
 20
-315.2472769048848
 30
0.0
 40
1.0
100
AcDbArc
 50
89.999999
 51
180.0000029999999
  0
LINE
  5
7EF
330
1A
100
AcDbEntity
  8
MSR_5-0
100
AcDbLine
 10
-67.72857999999996
 20
-316.2472769048847
 30
0.0
 11
-63.99999999999995
 21
-316.2472769048847
 31
0.0
  0
LINE
  5
7F0
330
1A
100
AcDbEntity
  8
MSR_5-4
100
AcDbLine
 10
-63.99999999999995
 20
-316.7472769048848
 30
0.0
 11
-67.72857999999996
 21
-316.7472769048848
 31
0.0
  0
POLYLINE
  5
7F1
330
1A
100
AcDbEntity
  8
MSR_5-0
100
AcDb2dPolyline
 66
     1
 10
0.0
 20
0.0
 30
0.0
 70
     1
  0
VERTEX
  5
7F2
330
7F1
100
AcDbEntity
  8
MSR_5-0
100
AcDbVertex
100
AcDb2dVertex
 10
-77.99999999999994
 20
-291.7472769048848
 30
0.0
  0
VERTEX
  5
7F3
330
7F1
100
AcDbEntity
  8
MSR_5-0
100
AcDbVertex
100
AcDb2dVertex
 10
-77.99999999999994
 20
-276.7472769048847
 30
0.0
  0
VERTEX
  5
7F4
330
7F1
100
AcDbEntity
  8
MSR_5-0
100
AcDbVertex
100
AcDb2dVertex
 10
-65.99999999999994
 20
-276.7472769048847
 30
0.0
  0
VERTEX
  5
7F5
330
7F1
100
AcDbEntity
  8
MSR_5-0
100
AcDbVertex
100
AcDb2dVertex
 10
-65.99999999999994
 20
-291.7472769048848
 30
0.0
  0
SEQEND
  5
7F6
330
7F1
100
AcDbEntity
  8
MSR_5-0
  0
LINE
  5
7F7
330
1A
100
AcDbEntity
  8
MSR_5-0
100
AcDbLine
 10
-77.99999999999994
 20
-287.9992869048848
 30
0.0
 11
-65.99999999999994
 21
-287.9992869048848
 31
0.0
  0
LINE
  5
7F8
330
1A
100
AcDbEntity
  8
MSR_5-0
100
AcDbLine
 10
-77.99999999999994
 20
-280.4952669048848
 30
0.0
 11
-65.99999999999994
 21
-280.4952669048848
 31
0.0
  0
LINE
  5
7F9
330
1A
100
AcDbEntity
  8
MSR_5-0
100
AcDbLine
 10
-76.99999999999994
 20
-274.2472769048847
 30
0.0
 11
-76.99999999999994
 21
-276.7472769048847
 31
0.0
  0
LINE
  5
7FA
330
1A
100
AcDbEntity
  8
MSR_5-0
100
AcDbLine
 10
-65.99999999999994
 20
-290.2472769048848
 30
0.0
 11
-59.99999999999994
 21
-290.2472769048848
 31
0.0
  0
LINE
  5
7FB
330
1A
100
AcDbEntity
  8
MSR_5-0
100
AcDbLine
 10
-65.99999999999994
 20
-291.5972769048848
 30
0.0
 11
-59.99999999999994
 21
-291.5972769048848
 31
0.0
  0
LINE
  5
7FC
330
1A
100
AcDbEntity
  8
MSR_5-4
100
AcDbLine
 10
-65.99999999999994
 20
-289.7472769048848
 30
0.0
 11
-59.99999999999994
 21
-289.7472769048848
 31
0.0
  0
LINE
  5
7FD
330
1A
100
AcDbEntity
  8
MSR_5-0
100
AcDbLine
 10
-65.99999999999994
 20
-278.2472769048848
 30
0.0
 11
-59.99999999999994
 21
-278.2472769048848
 31
0.0
  0
LINE
  5
7FE
330
1A
100
AcDbEntity
  8
MSR_5-4
100
AcDbLine
 10
-65.99999999999994
 20
-278.7472769048848
 30
0.0
 11
-59.99999999999994
 21
-278.7472769048848
 31
0.0
  0
LINE
  5
7FF
330
1A
100
AcDbEntity
  8
MSR_5-7A
100
AcDbLine
 10
-35.99999999999994
 20
-283.2472769048848
 30
0.0
 11
-45.49999999999994
 21
-283.2472769048848
 31
0.0
1001
GENIUS_GENOREF_13
1005
975
  0
LINE
  5
800
330
1A
100
AcDbEntity
  8
MSR_5-7A
100
AcDbLine
 10
-35.99999999999994
 20
-283.2472769048848
 30
0.0
 11
-35.99999999999994
 21
-273.7472769048848
 31
0.0
1001
GENIUS_GENOREF_13
1005
975
  0
LINE
  5
801
330
1A
100
AcDbEntity
  8
MSR_5-7A
100
AcDbLine
 10
-35.99999999999994
 20
-283.2472769048848
 30
0.0
 11
-35.99999999999994
 21
-292.7472769048848
 31
0.0
1001
GENIUS_GENOREF_13
1005
975
  0
LINE
  5
802
330
1A
100
AcDbEntity
  8
MSR_5-7A
100
AcDbLine
 10
0.0
 20
-319.2472769048848
 30
0.0
 11
-12.5
 21
-319.2472769048848
 31
0.0
1001
GENIUS_GENOREF_13
1005
974
  0
CIRCLE
  5
803
330
1A
100
AcDbEntity
  8
MSR_5-2
100
AcDbCircle
 10
0.0
 20
-319.2472769048848
 30
0.0
 40
9.5
  0
LINE
  5
804
330
1A
100
AcDbEntity
  8
MSR_5-7A
100
AcDbLine
 10
0.0
 20
-319.2472769048848
 30
0.0
 11
0.0
 21
-306.7472769048848
 31
0.0
1001
GENIUS_GENOREF_13
1005
974
  0
LINE
  5
805
330
1A
100
AcDbEntity
  8
MSR_5-7A
100
AcDbLine
 10
0.0
 20
-319.2472769048848
 30
0.0
 11
12.5
 21
-319.2472769048848
 31
0.0
1001
GENIUS_GENOREF_13
1005
974
  0
LINE
  5
806
330
1A
100
AcDbEntity
  8
MSR_5-7A
100
AcDbLine
 10
0.0
 20
-319.2472769048848
 30
0.0
 11
0.0
 21
-331.7472769048848
 31
0.0
1001
GENIUS_GENOREF_13
1005
974
  0
POLYLINE
  5
807
330
1A
100
AcDbEntity
  8
MSR_5-0
100
AcDb2dPolyline
 66
     1
 10
0.0
 20
0.0
 30
0.0
  0
VERTEX
  5
808
330
807
100
AcDbEntity
  8
MSR_5-0
100
AcDbVertex
100
AcDb2dVertex
 10
77.00000000000006
 20
-274.2472769048847
 30
0.0
  0
VERTEX
  5
809
330
807
100
AcDbEntity
  8
MSR_5-0
100
AcDbVertex
100
AcDb2dVertex
 10
82.5
 20
-274.2472769048847
 30
0.0
  0
VERTEX
  5
80A
330
807
100
AcDbEntity
  8
MSR_5-0
100
AcDbVertex
100
AcDb2dVertex
 10
82.5
 20
-364.2472769048848
 30
0.0
  0
VERTEX
  5
80B
330
807
100
AcDbEntity
  8
MSR_5-0
100
AcDbVertex
100
AcDb2dVertex
 10
77.00000000000006
 20
-364.2472769048848
 30
0.0
  0
SEQEND
  5
80C
330
807
100
AcDbEntity
  8
MSR_5-0
  0
LINE
  5
80D
330
1A
100
AcDbEntity
  8
MSR_5-0
100
AcDbLine
 10
77.00000000000006
 20
-274.2472769048847
 30
0.0
 11
77.00000000000006
 21
-364.2472769048848
 31
0.0
  0
TEXT
  5
80E
330
1A
100
AcDbEntity
  8
MSR_5-6
100
AcDbText
 10
49.13331711736851
 20
-359.0684118859926
 30
0.0
 40
3.5
  1
MSR 5
100
AcDbText
  0
LINE
  5
80F
330
1A
100
AcDbEntity
  8
MSR_5-7A
100
AcDbLine
 10
36.0
 20
-355.2472769048848
 30
0.0
 11
45.49999999999999
 21
-355.2472769048848
 31
0.0
1001
GENIUS_GENOREF_13
1005
973
  0
CIRCLE
  5
810
330
1A
100
AcDbEntity
  8
MSR_5-2
100
AcDbCircle
 10
36.0
 20
-355.2472769048848
 30
0.0
 40
6.5
  0
ARC
  5
811
330
1A
100
AcDbEntity
  8
MSR_5-4
100
AcDbCircle
 10
36.0
 20
-355.2472769048848
 30
0.0
 40
5.0
100
AcDbArc
 50
174.454123
 51
97.31717699999999
  0
CIRCLE
  5
812
330
1A
100
AcDbEntity
  8
MSR_5-2
100
AcDbCircle
 10
36.0
 20
-355.2472769048848
 30
0.0
 40
4.5
  0
LINE
  5
813
330
1A
100
AcDbEntity
  8
MSR_5-7A
100
AcDbLine
 10
36.0
 20
-355.2472769048848
 30
0.0
 11
36.0
 21
-364.7472769048848
 31
0.0
1001
GENIUS_GENOREF_13
1005
973
  0
LINE
  5
814
330
1A
100
AcDbEntity
  8
MSR_5-7A
100
AcDbLine
 10
36.0
 20
-355.2472769048848
 30
0.0
 11
26.5
 21
-355.2472769048848
 31
0.0
1001
GENIUS_GENOREF_13
1005
973
  0
LINE
  5
815
330
1A
100
AcDbEntity
  8
MSR_5-7A
100
AcDbLine
 10
36.0
 20
-355.2472769048848
 30
0.0
 11
36.0
 21
-345.7472769048848
 31
0.0
1001
GENIUS_GENOREF_13
1005
973
  0
LINE
  5
816
330
1A
100
AcDbEntity
  8
MSR_5-7A
100
AcDbLine
 10
36.0
 20
-283.2472769048848
 30
0.0
 11
45.49999999999999
 21
-283.2472769048848
 31
0.0
1001
GENIUS_GENOREF_13
1005
972
  0
CIRCLE
  5
817
330
1A
100
AcDbEntity
  8
MSR_5-2
100
AcDbCircle
 10
36.0
 20
-283.2472769048848
 30
0.0
 40
6.5
  0
ARC
  5
818
330
1A
100
AcDbEntity
  8
MSR_5-4
100
AcDbCircle
 10
36.0
 20
-283.2472769048848
 30
0.0
 40
5.0
100
AcDbArc
 50
174.454123
 51
97.31717699999999
  0
CIRCLE
  5
819
330
1A
100
AcDbEntity
  8
MSR_5-2
100
AcDbCircle
 10
36.0
 20
-283.2472769048848
 30
0.0
 40
4.5
  0
LINE
  5
81A
330
1A
100
AcDbEntity
  8
MSR_5-7A
100
AcDbLine
 10
36.0
 20
-283.2472769048848
 30
0.0
 11
36.0
 21
-273.7472769048848
 31
0.0
1001
GENIUS_GENOREF_13
1005
972
  0
LINE
  5
81B
330
1A
100
AcDbEntity
  8
MSR_5-7A
100
AcDbLine
 10
36.0
 20
-283.2472769048848
 30
0.0
 11
26.5
 21
-283.2472769048848
 31
0.0
1001
GENIUS_GENOREF_13
1005
972
  0
LINE
  5
81C
330
1A
100
AcDbEntity
  8
MSR_5-7A
100
AcDbLine
 10
36.0
 20
-283.2472769048848
 30
0.0
 11
36.0
 21
-292.7472769048848
 31
0.0
1001
GENIUS_GENOREF_13
1005
972
  0
POLYLINE
  5
81D
330
1A
100
AcDbEntity
  8
MSR_5-0
100
AcDb2dPolyline
 66
     1
 10
0.0
 20
0.0
 30
0.0
  0
VERTEX
  5
81E
330
81D
100
AcDbEntity
  8
MSR_5-0
100
AcDbVertex
100
AcDb2dVertex
 10
-58.99999999999995
 20
-135.2904818645038
 30
0.0
  0
VERTEX
  5
81F
330
81D
100
AcDbEntity
  8
MSR_5-0
100
AcDbVertex
100
AcDb2dVertex
 10
-76.99999999999988
 20
-135.2904818645038
 30
0.0
  0
VERTEX
  5
820
330
81D
100
AcDbEntity
  8
MSR_5-0
100
AcDbVertex
100
AcDb2dVertex
 10
-76.99999999999988
 20
-195.2904818645038
 30
0.0
  0
VERTEX
  5
821
330
81D
100
AcDbEntity
  8
MSR_5-0
100
AcDbVertex
100
AcDb2dVertex
 10
77.00000000000006
 20
-195.2904818645038
 30
0.0
  0
VERTEX
  5
822
330
81D
100
AcDbEntity
  8
MSR_5-0
100
AcDbVertex
100
AcDb2dVertex
 10
77.00000000000006
 20
-135.2904818645038
 30
0.0
  0
VERTEX
  5
823
330
81D
100
AcDbEntity
  8
MSR_5-0
100
AcDbVertex
100
AcDb2dVertex
 10
-26.99999999999989
 20
-135.2904818645038
 30
0.0
  0
SEQEND
  5
824
330
81D
100
AcDbEntity
  8
MSR_5-0
  0
POLYLINE
  5
825
330
1A
100
AcDbEntity
  8
MSR_5-2
100
AcDb2dPolyline
 66
     1
 10
0.0
 20
0.0
 30
0.0
 70
     1
  0
VERTEX
  5
826
330
825
100
AcDbEntity
  8
MSR_5-2
100
AcDbVertex
100
AcDb2dVertex
 10
45.00000000000006
 20
-107.7904818645038
 30
0.0
  0
VERTEX
  5
827
330
825
100
AcDbEntity
  8
MSR_5-2
100
AcDbVertex
100
AcDb2dVertex
 10
-44.99999999999994
 20
-107.7904818645038
 30
0.0
  0
VERTEX
  5
828
330
825
100
AcDbEntity
  8
MSR_5-2
100
AcDbVertex
100
AcDb2dVertex
 10
-44.99999999999994
 20
-84.29048186450382
 30
0.0
  0
VERTEX
  5
829
330
825
100
AcDbEntity
  8
MSR_5-2
100
AcDbVertex
100
AcDb2dVertex
 10
45.00000000000006
 20
-84.29048186450382
 30
0.0
  0
SEQEND
  5
82A
330
825
100
AcDbEntity
  8
MSR_5-2
  0
POLYLINE
  5
82B
330
1A
100
AcDbEntity
  8
MSR_5-2
100
AcDb2dPolyline
 66
     1
 10
0.0
 20
0.0
 30
0.0
  0
VERTEX
  5
82C
330
82B
100
AcDbEntity
  8
MSR_5-2
100
AcDbVertex
100
AcDb2dVertex
 10
43.41519000000011
 20
-124.2904818645038
 30
0.0
  0
VERTEX
  5
82D
330
82B
100
AcDbEntity
  8
MSR_5-2
100
AcDbVertex
100
AcDb2dVertex
 10
44.00000000000011
 20
-124.2904818645038
 30
0.0
  0
VERTEX
  5
82E
330
82B
100
AcDbEntity
  8
MSR_5-2
100
AcDbVertex
100
AcDb2dVertex
 10
44.00000000000011
 20
-134.7904818645038
 30
0.0
  0
VERTEX
  5
82F
330
82B
100
AcDbEntity
  8
MSR_5-2
100
AcDbVertex
100
AcDb2dVertex
 10
-29.17944999999992
 20
-134.7904818645038
 30
0.0
  0
SEQEND
  5
830
330
82B
100
AcDbEntity
  8
MSR_5-2
  0
POLYLINE
  5
831
330
1A
100
AcDbEntity
  8
MSR_5-2
100
AcDb2dPolyline
 66
     1
 10
0.0
 20
0.0
 30
0.0
  0
VERTEX
  5
832
330
831
100
AcDbEntity
  8
MSR_5-2
100
AcDbVertex
100
AcDb2dVertex
 10
43.41519000000011
 20
-111.2904818645038
 30
0.0
  0
VERTEX
  5
833
330
831
100
AcDbEntity
  8
MSR_5-2
100
AcDbVertex
100
AcDb2dVertex
 10
43.41519000000011
 20
-124.2904818645038
 30
0.0
  0
VERTEX
  5
834
330
831
100
AcDbEntity
  8
MSR_5-2
100
AcDbVertex
100
AcDb2dVertex
 10
-31.99999999999989
 20
-124.2904818645038
 30
0.0
  0
SEQEND
  5
835
330
831
100
AcDbEntity
  8
MSR_5-2
  0
POLYLINE
  5
836
330
1A
100
AcDbEntity
  8
MSR_5-2
100
AcDb2dPolyline
 66
     1
 10
0.0
 20
0.0
 30
0.0
  0
VERTEX
  5
837
330
836
100
AcDbEntity
  8
MSR_5-2
100
AcDbVertex
100
AcDb2dVertex
 10
44.00000000000011
 20
-107.7904818645038
 30
0.0
  0
VERTEX
  5
838
330
836
100
AcDbEntity
  8
MSR_5-2
100
AcDbVertex
100
AcDb2dVertex
 10
44.00000000000011
 20
-111.2904818645038
 30
0.0
  0
VERTEX
  5
839
330
836
100
AcDbEntity
  8
MSR_5-2
100
AcDbVertex
100
AcDb2dVertex
 10
-31.99999999999989
 20
-111.2904818645038
 30
0.0
  0
SEQEND
  5
83A
330
836
100
AcDbEntity
  8
MSR_5-2
  0
LINE
  5
83B
330
1A
100
AcDbEntity
  8
MSR_5-7
100
AcDbLine
 10
0.0000000000001137
 20
-77.18624936450385
 30
0.0
 11
0.0000000000001137
 21
-222.6449912148918
 31
0.0
  0
LINE
  5
83C
330
1A
100
AcDbEntity
  8
MSR_5-7
100
AcDbLine
 10
-80.42232249999988
 20
-117.7904818645038
 30
0.0
 11
-7.299107499999877
 21
-117.7904818645038
 31
0.0
  0
POLYLINE
  5
83D
330
1A
100
AcDbEntity
  8
MSR_5-0
100
AcDb2dPolyline
 66
     1
 10
0.0
 20
0.0
 30
0.0
  0
VERTEX
  5
83E
330
83D
100
AcDbEntity
  8
MSR_5-0
100
AcDbVertex
100
AcDb2dVertex
 10
-31.99999999999989
 20
-130.2904818645038
 30
0.0
  0
VERTEX
  5
83F
330
83D
100
AcDbEntity
  8
MSR_5-0
100
AcDbVertex
100
AcDb2dVertex
 10
-31.99999999999989
 20
-108.7904818645038
 30
0.0
  0
VERTEX
  5
840
330
83D
100
AcDbEntity
  8
MSR_5-0
100
AcDbVertex
100
AcDb2dVertex
 10
-53.99999999999995
 20
-108.7904818645038
 30
0.0
  0
VERTEX
  5
841
330
83D
100
AcDbEntity
  8
MSR_5-0
100
AcDbVertex
100
AcDb2dVertex
 10
-53.99999999999995
 20
-130.2904818645038
 30
0.0
  0
SEQEND
  5
842
330
83D
100
AcDbEntity
  8
MSR_5-0
  0
LINE
  5
843
330
1A
100
AcDbEntity
  8
MSR_5-7A
100
AcDbLine
 10
-35.99999999999994
 20
-110.7904818645125
 30
0.0
 11
-35.99999999999994
 21
-81.2904818645053
 31
0.0
1001
GENIUS_GENODEF_13
1002
{
1000
HIER
1070
     0
1002
}
1002
{
1000
MANEDIT
1070
     0
1002
}
1002
{
1000
NOSEL
1070
     0
1002
}
1002
{
1000
BEHIND
1070
     0
1002
}
1002
{
1000
REACTOR
1002
}
1001
GENIUS_GENOBJ-N-CEN_13
1002
{
1000
OWNER
1000
GEN
1002
}
  0
POLYLINE
  5
844
330
1A
100
AcDbEntity
  8
MSR_5-0
100
AcDb2dPolyline
 66
     1
 10
0.0
 20
0.0
 30
0.0
  0
VERTEX
  5
845
330
844
100
AcDbEntity
  8
MSR_5-0
100
AcDbVertex
100
AcDb2dVertex
 10
-53.99999999999995
 20
-108.7904818645038
 30
0.0
  0
VERTEX
  5
846
330
844
100
AcDbEntity
  8
MSR_5-0
100
AcDbVertex
100
AcDb2dVertex
 10
-59.99999999999994
 20
-108.7904818645038
 30
0.0
  0
VERTEX
  5
847
330
844
100
AcDbEntity
  8
MSR_5-0
100
AcDbVertex
100
AcDb2dVertex
 10
-59.99999999999994
 20
-126.7904818645038
 30
0.0
  0
VERTEX
  5
848
330
844
100
AcDbEntity
  8
MSR_5-0
100
AcDbVertex
100
AcDb2dVertex
 10
-53.99999999999995
 20
-126.7904818645038
 30
0.0
  0
SEQEND
  5
849
330
844
100
AcDbEntity
  8
MSR_5-0
  0
ARC
  5
84A
330
1A
100
AcDbEntity
  8
MSR_5-0
100
AcDbCircle
 10
-58.99999999999995
 20
-130.2904818645038
 30
0.0
 40
5.0
100
AcDbArc
 50
270.000001
 51
0.0
  0
POLYLINE
  5
84B
330
1A
100
AcDbEntity
  8
MSR_5-0
100
AcDb2dPolyline
 66
     1
 10
0.0
 20
0.0
 30
0.0
 70
     1
  0
VERTEX
  5
84C
330
84B
100
AcDbEntity
  8
MSR_5-0
100
AcDbVertex
100
AcDb2dVertex
 10
-65.99999999999994
 20
-125.2904818645038
 30
0.0
  0
VERTEX
  5
84D
330
84B
100
AcDbEntity
  8
MSR_5-0
100
AcDbVertex
100
AcDb2dVertex
 10
-65.99999999999994
 20
-110.2904818645038
 30
0.0
  0
VERTEX
  5
84E
330
84B
100
AcDbEntity
  8
MSR_5-0
100
AcDbVertex
100
AcDb2dVertex
 10
-77.99999999999994
 20
-110.2904818645038
 30
0.0
  0
VERTEX
  5
84F
330
84B
100
AcDbEntity
  8
MSR_5-0
100
AcDbVertex
100
AcDb2dVertex
 10
-77.99999999999994
 20
-125.2904818645038
 30
0.0
  0
SEQEND
  5
850
330
84B
100
AcDbEntity
  8
MSR_5-0
  0
LINE
  5
851
330
1A
100
AcDbEntity
  8
MSR_5-0
100
AcDbLine
 10
-77.99999999999994
 20
-121.5424918645038
 30
0.0
 11
-65.99999999999994
 21
-121.5424918645038
 31
0.0
  0
POLYLINE
  5
852
330
1A
100
AcDbEntity
  8
MSR_5-0
100
AcDb2dPolyline
 66
     1
 10
0.0
 20
0.0
 30
0.0
  0
VERTEX
  5
853
330
852
100
AcDbEntity
  8
MSR_5-0
100
AcDbVertex
100
AcDb2dVertex
 10
-63.99999999999995
 20
-123.7904818645038
 30
0.0
  0
VERTEX
  5
854
330
852
100
AcDbEntity
  8
MSR_5-0
100
AcDbVertex
100
AcDb2dVertex
 10
-63.99999999999995
 20
-126.7904818645038
 30
0.0
  0
VERTEX
  5
855
330
852
100
AcDbEntity
  8
MSR_5-0
100
AcDbVertex
100
AcDb2dVertex
 10
-59.99999999999994
 20
-126.7904818645038
 30
0.0
  0
SEQEND
  5
856
330
852
100
AcDbEntity
  8
MSR_5-0
  0
LINE
  5
857
330
1A
100
AcDbEntity
  8
MSR_5-0
100
AcDbLine
 10
-59.99999999999994
 20
-123.7904818645038
 30
0.0
 11
-65.99999999999994
 21
-123.7904818645038
 31
0.0
  0
LINE
  5
858
330
1A
100
AcDbEntity
  8
MSR_5-4
100
AcDbLine
 10
-65.99999999999994
 20
-123.2904818645038
 30
0.0
 11
-59.99999999999994
 21
-123.2904818645038
 31
0.0
  0
LINE
  5
859
330
1A
100
AcDbEntity
  8
MSR_5-0
100
AcDbLine
 10
-77.99999999999994
 20
-114.0384718645037
 30
0.0
 11
-65.99999999999994
 21
-114.0384718645037
 31
0.0
  0
POLYLINE
  5
85A
330
1A
100
AcDbEntity
  8
MSR_5-0
100
AcDb2dPolyline
 66
     1
 10
0.0
 20
0.0
 30
0.0
  0
VERTEX
  5
85B
330
85A
100
AcDbEntity
  8
MSR_5-0
100
AcDbVertex
100
AcDb2dVertex
 10
-59.99999999999994
 20
-108.7904818645038
 30
0.0
  0
VERTEX
  5
85C
330
85A
100
AcDbEntity
  8
MSR_5-0
100
AcDbVertex
100
AcDb2dVertex
 10
-63.99999999999995
 20
-108.7904818645038
 30
0.0
  0
VERTEX
  5
85D
330
85A
100
AcDbEntity
  8
MSR_5-0
100
AcDbVertex
100
AcDb2dVertex
 10
-63.99999999999995
 20
-111.7904818645038
 30
0.0
  0
SEQEND
  5
85E
330
85A
100
AcDbEntity
  8
MSR_5-0
  0
LINE
  5
85F
330
1A
100
AcDbEntity
  8
MSR_5-0
100
AcDbLine
 10
-65.99999999999994
 20
-111.7904818645038
 30
0.0
 11
-59.99999999999994
 21
-111.7904818645038
 31
0.0
  0
LINE
  5
860
330
1A
100
AcDbEntity
  8
MSR_5-4
100
AcDbLine
 10
-65.99999999999994
 20
-112.2904818645038
 30
0.0
 11
-59.99999999999994
 21
-112.2904818645038
 31
0.0
  0
LINE
  5
861
330
1A
100
AcDbEntity
  8
MSR_5-2
100
AcDbLine
 10
-43.99999999999994
 20
-108.7904818645038
 30
0.0
 11
-43.99999999999994
 21
-107.7904818645038
 31
0.0
  0
LINE
  5
862
330
1A
100
AcDbEntity
  8
MSR_5-4
100
AcDbLine
 10
-31.99999999999989
 20
-112.2904818645038
 30
0.0
 11
-9.999999999999886
 21
-112.2904818645038
 31
0.0
  0
LINE
  5
863
330
1A
100
AcDbEntity
  8
MSR_5-4
100
AcDbLine
 10
-31.99999999999989
 20
-123.2904818645038
 30
0.0
 11
-9.999999999999886
 21
-123.2904818645038
 31
0.0
  0
POLYLINE
  5
864
330
1A
100
AcDbEntity
  8
MSR_5-0
100
AcDb2dPolyline
 66
     1
 10
0.0
 20
0.0
 30
0.0
  0
VERTEX
  5
865
330
864
100
AcDbEntity
  8
MSR_5-0
100
AcDbVertex
100
AcDb2dVertex
 10
-31.99999999999989
 20
-111.7904818645038
 30
0.0
  0
VERTEX
  5
866
330
864
100
AcDbEntity
  8
MSR_5-0
100
AcDbVertex
100
AcDb2dVertex
 10
-9.999999999999886
 20
-111.7904818645038
 30
0.0
  0
VERTEX
  5
867
330
864
100
AcDbEntity
  8
MSR_5-0
100
AcDbVertex
100
AcDb2dVertex
 10
-9.999999999999886
 20
-123.7904818645038
 30
0.0
  0
VERTEX
  5
868
330
864
100
AcDbEntity
  8
MSR_5-0
100
AcDbVertex
100
AcDb2dVertex
 10
-31.99999999999989
 20
-123.7904818645038
 30
0.0
  0
SEQEND
  5
869
330
864
100
AcDbEntity
  8
MSR_5-0
  0
ARC
  5
86A
330
1A
100
AcDbEntity
  8
MSR_5-0
100
AcDbCircle
 10
-26.99999999999989
 20
-130.2904818645038
 30
0.0
 40
5.0
100
AcDbArc
 50
180.0000029999999
 51
270.000003
  0
ARC
  5
86B
330
1A
100
AcDbEntity
  8
MSR_5-2
100
AcDbCircle
 10
-27.99999999999994
 20
-123.7904818645038
 30
0.0
 40
0.5
100
AcDbArc
 50
270.000003
 51
0.0
  0
ARC
  5
86C
330
1A
100
AcDbEntity
  8
MSR_5-2
100
AcDbCircle
 10
-27.99999999999994
 20
-111.7904818645038
 30
0.0
 40
0.5
100
AcDbArc
 50
0.000003
 51
89.999999
  0
POLYLINE
  5
86D
330
1A
100
AcDbEntity
  8
MSR_5-0
100
AcDb2dPolyline
 66
     1
 10
0.0
 20
0.0
 30
0.0
  0
VERTEX
  5
86E
330
86D
100
AcDbEntity
  8
MSR_5-0
100
AcDbVertex
100
AcDb2dVertex
 10
-9.999999999999886
 20
-112.7904818645038
 30
0.0
  0
VERTEX
  5
86F
330
86D
100
AcDbEntity
  8
MSR_5-0
100
AcDbVertex
100
AcDb2dVertex
 10
-8.999999999999943
 20
-112.7904818645038
 30
0.0
  0
VERTEX
  5
870
330
86D
100
AcDbEntity
  8
MSR_5-0
100
AcDbVertex
100
AcDb2dVertex
 10
-8.999999999999943
 20
-122.7904818645038
 30
0.0
  0
VERTEX
  5
871
330
86D
100
AcDbEntity
  8
MSR_5-0
100
AcDbVertex
100
AcDb2dVertex
 10
-9.999999999999886
 20
-122.7904818645038
 30
0.0
  0
SEQEND
  5
872
330
86D
100
AcDbEntity
  8
MSR_5-0
  0
POLYLINE
  5
873
330
1A
100
AcDbEntity
  8
MSR_5-0
100
AcDb2dPolyline
 66
     1
 10
0.0
 20
0.0
 30
0.0
  0
VERTEX
  5
874
330
873
100
AcDbEntity
  8
MSR_5-0
  6
Continuous
100
AcDbVertex
100
AcDb2dVertex
 10
77.00000000000006
 20
-135.2904818645038
 30
0.0
  0
VERTEX
  5
875
330
873
100
AcDbEntity
  8
MSR_5-0
  6
Continuous
100
AcDbVertex
100
AcDb2dVertex
 10
82.50000000000005
 20
-135.2904818645038
 30
0.0
  0
VERTEX
  5
876
330
873
100
AcDbEntity
  8
MSR_5-0
  6
Continuous
100
AcDbVertex
100
AcDb2dVertex
 10
82.50000000000005
 20
-195.2904818645038
 30
0.0
  0
VERTEX
  5
877
330
873
100
AcDbEntity
  8
MSR_5-0
  6
Continuous
100
AcDbVertex
100
AcDb2dVertex
 10
77.00000000000006
 20
-195.2904818645038
 30
0.0
  0
SEQEND
  5
878
330
873
100
AcDbEntity
  8
MSR_5-0
  0
CIRCLE
  5
879
330
1A
100
AcDbEntity
  8
MSR_5-0
100
AcDbCircle
 10
25.00000000000011
 20
-184.2904818645038
 30
0.0
 40
4.444444999999999
  0
ARC
  5
87A
330
1A
100
AcDbEntity
  8
MSR_5-4
100
AcDbCircle
 10
25.00000000000011
 20
-184.2904818645038
 30
0.0
 40
5.0
100
AcDbArc
 50
173.905915
 51
98.149119
  0
LINE
  5
87B
330
1A
100
AcDbEntity
  8
MSR_5-7
100
AcDbLine
 10
20.00000000000011
 20
-184.2904818645038
 30
0.0
 11
29.44444250000009
 21
-184.2904818645038
 31
0.0
  0
LINE
  5
87C
330
1A
100
AcDbEntity
  8
MSR_5-7
100
AcDbLine
 10
25.00000000000011
 20
-179.7904818645038
 30
0.0
 11
25.00000000000011
 21
-188.7904818645038
 31
0.0
  0
LINE
  5
87D
330
1A
100
AcDbEntity
  8
MSR_5-7
100
AcDbLine
 10
65.50000000000011
 20
-179.2904818645038
 30
0.0
 11
74.94444250000004
 21
-179.2904818645038
 31
0.0
  0
CIRCLE
  5
87E
330
1A
100
AcDbEntity
  8
MSR_5-0
100
AcDbCircle
 10
70.50000000000011
 20
-179.2904818645038
 30
0.0
 40
4.444444999999999
  0
ARC
  5
87F
330
1A
100
AcDbEntity
  8
MSR_5-4
100
AcDbCircle
 10
70.50000000000011
 20
-179.2904818645038
 30
0.0
 40
5.0
100
AcDbArc
 50
173.905915
 51
98.149119
  0
LINE
  5
880
330
1A
100
AcDbEntity
  8
MSR_5-7
100
AcDbLine
 10
70.50000000000011
 20
-174.7904818645038
 30
0.0
 11
70.50000000000011
 21
-183.7904818645038
 31
0.0
  0
LINE
  5
881
330
1A
100
AcDbEntity
  8
MSR_5-7A
100
AcDbLine
 10
36.0
 20
-110.7904818645028
 30
0.0
 11
36.0
 21
-81.2904818645028
 31
0.0
1001
GENIUS_GENODEF_13
1002
{
1000
HIER
1070
     0
1002
}
1002
{
1000
MANEDIT
1070
     0
1002
}
1002
{
1000
NOSEL
1070
     0
1002
}
1002
{
1000
BEHIND
1070
     0
1002
}
1002
{
1000
REACTOR
1002
}
1001
GENIUS_GENOBJ-N-CEN_13
1002
{
1000
OWNER
1000
GEN
1002
}
  0
LINE
  5
882
330
1A
100
AcDbEntity
  8
MSR_5-2
100
AcDbLine
 10
27.50000000000011
 20
-111.7904818645038
 30
0.0
 11
27.50000000000011
 21
-123.7904818645038
 31
0.0
  0
ARC
  5
883
330
1A
100
AcDbEntity
  8
MSR_5-2
100
AcDbCircle
 10
28.00000000000011
 20
-123.7904818645038
 30
0.0
 40
0.5
100
AcDbArc
 50
180.0000029999999
 51
270.000001
  0
ARC
  5
884
330
1A
100
AcDbEntity
  8
MSR_5-2
100
AcDbCircle
 10
28.00000000000011
 20
-111.7904818645038
 30
0.0
 40
0.5
100
AcDbArc
 50
89.999999
 51
180.0000029999999
  0
LINE
  5
885
330
1A
100
AcDbEntity
  8
MSR_5-0
100
AcDbLine
 10
-88.49999999999994
 20
45.0
 30
0.0
 11
77.00000000000006
 21
45.0
 31
0.0
  0
ARC
  5
886
330
1A
100
AcDbEntity
  8
MSR_5-0
100
AcDbCircle
 10
-94.05121749999995
 20
11.85497000000009
 30
0.0
 40
5.551215
100
AcDbArc
 50
307.878144
 51
52.121856
  0
ARC
  5
887
330
1A
100
AcDbEntity
  8
MSR_5-0
100
AcDbCircle
 10
-89.9130725
 20
11.85497000000009
 30
0.0
 40
5.551215
100
AcDbArc
 50
127.878142
 51
232.121858
  0
LINE
  5
888
330
1A
100
AcDbEntity
  8
MSR_5-0
100
AcDbLine
 10
-95.46428749999995
 20
38.14502750000008
 30
0.0
 11
-95.46428749999995
 21
11.85497000000009
 31
0.0
  0
LINE
  5
889
330
1A
100
AcDbEntity
  8
MSR_5-0
100
AcDbLine
 10
-88.49999999999994
 20
38.14502750000008
 30
0.0
 11
-88.49999999999994
 21
11.85497000000009
 31
0.0
  0
ARC
  5
88A
330
1A
100
AcDbEntity
  8
MSR_5-0
100
AcDbCircle
 10
-89.9130725
 20
-11.85497249999992
 30
0.0
 40
5.551215
100
AcDbArc
 50
127.878142
 51
232.121858
  0
ARC
  5
88B
330
1A
100
AcDbEntity
  8
MSR_5-0
100
AcDbCircle
 10
-94.05121749999995
 20
-11.85497249999992
 30
0.0
 40
5.551215
100
AcDbArc
 50
307.878144
 51
52.121856
  0
LINE
  5
88C
330
1A
100
AcDbEntity
  8
MSR_5-0
100
AcDbLine
 10
-95.46428749999995
 20
-11.85497249999992
 30
0.0
 11
-95.46428749999995
 21
-38.14502999999991
 31
0.0
  0
LINE
  5
88D
330
1A
100
AcDbEntity
  8
MSR_5-0
100
AcDbLine
 10
-88.49999999999994
 20
-11.85497249999992
 30
0.0
 11
-88.49999999999994
 21
-38.14502999999991
 31
0.0
  0
LINE
  5
88E
330
1A
100
AcDbEntity
  8
MSR_5-0
100
AcDbLine
 10
-93.32142999999996
 20
-16.2366475
 30
0.0
 11
-90.64285749999994
 21
-16.2366475
 31
0.0
  0
LINE
  5
88F
330
1A
100
AcDbEntity
  8
MSR_5-0
100
AcDbLine
 10
-93.32142999999996
 20
-33.76335249999988
 30
0.0
 11
-90.64285749999994
 21
-33.76335249999988
 31
0.0
  0
LINE
  5
890
330
1A
100
AcDbEntity
  8
MSR_5-7
100
AcDbLine
 10
-101.906735
 20
-25.0
 30
0.0
 11
-83.06840249999993
 21
-25.0
 31
0.0
  0
ARC
  5
891
330
1A
100
AcDbEntity
  8
MSR_5-0
100
AcDbCircle
 10
-76.47371249999991
 20
-25.0
 30
0.0
 40
18.990575
100
AcDbArc
 50
152.518771
 51
207.481229
  0
ARC
  5
892
330
1A
100
AcDbEntity
  8
MSR_5-0
100
AcDbCircle
 10
-107.4905774999999
 20
-25.0
 30
0.0
 40
18.990575
100
AcDbArc
 50
332.518773
 51
27.481227
  0
LINE
  5
893
330
1A
100
AcDbEntity
  8
MSR_5-0
100
AcDbLine
 10
-93.32142999999996
 20
7.473295000000121
 30
0.0
 11
-90.64285749999994
 21
7.473295000000121
 31
0.0
  0
LINE
  5
894
330
1A
100
AcDbEntity
  8
MSR_5-0
100
AcDbLine
 10
-93.32142999999996
 20
-7.473294999999893
 30
0.0
 11
-90.64285749999994
 21
-7.473294999999893
 31
0.0
  0
ARC
  5
895
330
1A
100
AcDbEntity
  8
MSR_5-0
100
AcDbCircle
 10
-89.9130725
 20
38.14502750000008
 30
0.0
 40
5.551215
100
AcDbArc
 50
127.878142
 51
232.121858
  0
ARC
  5
896
330
1A
100
AcDbEntity
  8
MSR_5-0
100
AcDbCircle
 10
-94.05121749999995
 20
38.14502750000008
 30
0.0
 40
5.551215
100
AcDbArc
 50
307.878144
 51
52.121856
  0
LINE
  5
897
330
1A
100
AcDbEntity
  8
MSR_5-0
100
AcDbLine
 10
-93.32142999999996
 20
33.7633525
 30
0.0
 11
-90.64285749999994
 21
33.7633525
 31
0.0
  0
LINE
  5
898
330
1A
100
AcDbEntity
  8
MSR_5-0
100
AcDbLine
 10
-93.32142999999996
 20
16.23664750000012
 30
0.0
 11
-90.64285749999994
 21
16.23664750000012
 31
0.0
  0
LINE
  5
899
330
1A
100
AcDbEntity
  8
MSR_5-7
100
AcDbLine
 10
-101.906735
 20
25.0
 30
0.0
 11
-83.06840249999993
 21
25.0
 31
0.0
  0
ARC
  5
89A
330
1A
100
AcDbEntity
  8
MSR_5-0
100
AcDbCircle
 10
-76.47371249999991
 20
25.0
 30
0.0
 40
18.990575
100
AcDbArc
 50
152.518771
 51
207.481229
  0
ARC
  5
89B
330
1A
100
AcDbEntity
  8
MSR_5-0
100
AcDbCircle
 10
-107.4905774999999
 20
25.0
 30
0.0
 40
18.990575
100
AcDbArc
 50
332.518773
 51
27.481227
  0
LINE
  5
89C
330
1A
100
AcDbEntity
  8
MSR_5-0
100
AcDbLine
 10
-93.32142999999996
 20
42.5267050000001
 30
0.0
 11
-90.64285749999994
 21
42.5267050000001
 31
0.0
  0
CIRCLE
  5
89D
330
1A
100
AcDbEntity
  8
MSR_5-0
100
AcDbCircle
 10
-29.99999999999989
 20
30.0
 30
0.0
 40
4.25
  0
CIRCLE
  5
89E
330
1A
100
AcDbEntity
  8
MSR_5-0
100
AcDbCircle
 10
-29.99999999999989
 20
-30.0
 30
0.0
 40
4.25
  0
LINE
  5
89F
330
1A
100
AcDbEntity
  8
MSR_5-7
100
AcDbLine
 10
-36.19831999999997
 20
-30.0
 30
0.0
 11
-22.87600249999997
 21
-30.0
 31
0.0
  0
ARC
  5
8A0
330
1A
100
AcDbEntity
  8
MSR_5-4
100
AcDbCircle
 10
-29.99999999999989
 20
-30.0
 30
0.0
 40
5.0
100
AcDbArc
 50
82.606248
 51
7.300133999999999
  0
LINE
  5
8A1
330
1A
100
AcDbEntity
  8
MSR_5-7
100
AcDbLine
 10
-36.19831999999997
 20
30.0
 30
0.0
 11
-23.14058499999993
 21
30.0
 31
0.0
  0
ARC
  5
8A2
330
1A
100
AcDbEntity
  8
MSR_5-4
100
AcDbCircle
 10
-29.99999999999989
 20
30.0
 30
0.0
 40
5.0
100
AcDbArc
 50
82.606248
 51
7.300133999999999
  0
LINE
  5
8A3
330
1A
100
AcDbEntity
  8
MSR_5-7A
100
AcDbLine
 10
0.0
 20
0.0
 30
0.0
 11
0.0
 21
12.5
 31
0.0
1001
GENIUS_GENOREF_13
1005
971
  0
LINE
  5
8A4
330
1A
100
AcDbEntity
  8
MSR_5-7A
100
AcDbLine
 10
0.0
 20
0.0
 30
0.0
 11
-12.5
 21
0.0
 31
0.0
1001
GENIUS_GENOREF_13
1005
971
  0
LINE
  5
8A5
330
1A
100
AcDbEntity
  8
MSR_5-7
100
AcDbLine
 10
-29.99999999999989
 20
-22.81141749999995
 30
0.0
 11
-29.99999999999989
 21
-36.19831999999997
 31
0.0
  0
CIRCLE
  5
8A6
330
1A
100
AcDbEntity
  8
MSR_5-0
100
AcDbCircle
 10
0.0
 20
-30.0
 30
0.0
 40
5.0
  0
LINE
  5
8A7
330
1A
100
AcDbEntity
  8
MSR_5-7
100
AcDbLine
 10
-6.868709999999964
 20
-30.0
 30
0.0
 11
7.418790000000058
 21
-30.0
 31
0.0
  0
LINE
  5
8A8
330
1A
100
AcDbEntity
  8
MSR_5-7
100
AcDbLine
 10
0.0
 20
-21.48849999999993
 30
0.0
 11
0.0
 21
-36.19831999999997
 31
0.0
  0
LINE
  5
8A9
330
1A
100
AcDbEntity
  8
MSR_5-7A
100
AcDbLine
 10
0.0
 20
0.0
 30
0.0
 11
12.5
 21
0.0
 31
0.0
1001
GENIUS_GENOREF_13
1005
971
  0
CIRCLE
  5
8AA
330
1A
100
AcDbEntity
  8
MSR_5-0
100
AcDbCircle
 10
0.0
 20
0.0
 30
0.0
 40
9.5
  0
LINE
  5
8AB
330
1A
100
AcDbEntity
  8
MSR_5-7A
100
AcDbLine
 10
0.0
 20
0.0
 30
0.0
 11
0.0
 21
-12.5
 31
0.0
1001
GENIUS_GENOREF_13
1005
971
  0
LINE
  5
8AC
330
1A
100
AcDbEntity
  8
MSR_5-7
100
AcDbLine
 10
-29.99999999999989
 20
35.95355500000017
 30
0.0
 11
-29.99999999999989
 21
22.69691499999999
 31
0.0
  0
LINE
  5
8AD
330
1A
100
AcDbEntity
  8
MSR_5-7
100
AcDbLine
 10
-7.397877499999935
 20
30.0
 30
0.0
 11
7.683372500000018
 21
30.0
 31
0.0
  0
CIRCLE
  5
8AE
330
1A
100
AcDbEntity
  8
MSR_5-0
100
AcDbCircle
 10
0.0
 20
30.0
 30
0.0
 40
5.0
  0
LINE
  5
8AF
330
1A
100
AcDbEntity
  8
MSR_5-7
100
AcDbLine
 10
0.0
 20
35.95355500000017
 30
0.0
 11
0.0
 21
22.56462499999998
 31
0.0
  0
ARC
  5
8B0
330
1A
100
AcDbEntity
  8
MSR_5-4
100
AcDbCircle
 10
30.0
 20
-30.0
 30
0.0
 40
5.0
100
AcDbArc
 50
82.606248
 51
7.300133999999999
  0
LINE
  5
8B1
330
1A
100
AcDbEntity
  8
MSR_5-7
100
AcDbLine
 10
22.76462250000003
 20
-30.0
 30
0.0
 11
35.95355500000005
 21
-30.0
 31
0.0
  0
CIRCLE
  5
8B2
330
1A
100
AcDbEntity
  8
MSR_5-0
100
AcDbCircle
 10
30.0
 20
-30.0
 30
0.0
 40
4.25
  0
LINE
  5
8B3
330
1A
100
AcDbEntity
  8
MSR_5-7
100
AcDbLine
 10
30.0
 20
-22.54683499999988
 30
0.0
 11
30.0
 21
-36.19831999999997
 31
0.0
  0
ARC
  5
8B4
330
1A
100
AcDbEntity
  8
MSR_5-4
100
AcDbCircle
 10
30.0
 20
30.0
 30
0.0
 40
5.0
100
AcDbArc
 50
82.606248
 51
7.300133999999999
  0
LINE
  5
8B5
330
1A
100
AcDbEntity
  8
MSR_5-7
100
AcDbLine
 10
22.63233250000007
 20
30.0
 30
0.0
 11
35.95355500000005
 21
30.0
 31
0.0
  0
LINE
  5
8B6
330
1A
100
AcDbEntity
  8
MSR_5-7
100
AcDbLine
 10
30.0
 20
35.95355500000017
 30
0.0
 11
30.0
 21
23.09379000000013
 31
0.0
  0
CIRCLE
  5
8B7
330
1A
100
AcDbEntity
  8
MSR_5-0
100
AcDbCircle
 10
30.0
 20
30.0
 30
0.0
 40
4.25
  0
CIRCLE
  5
8B8
330
1A
100
AcDbEntity
  8
MSR_5-0
100
AcDbCircle
 10
208.6820330971899
 20
-160.9677368645028
 30
0.0
 40
12.5
  0
LINE
  5
8B9
330
1A
100
AcDbEntity
  8
MSR_5-0
100
AcDbLine
 10
150.5935780971898
 20
-108.9677368645028
 30
0.0
 11
216.7704905971898
 21
-108.9677368645028
 31
0.0
  0
LINE
  5
8BA
330
1A
100
AcDbEntity
  8
MSR_5-0
100
AcDbLine
 10
216.7704905971898
 20
-126.9677368645028
 30
0.0
 11
150.5935780971898
 21
-126.9677368645028
 31
0.0
  0
POLYLINE
  5
8BB
330
1A
100
AcDbEntity
  8
MSR_5-0
100
AcDb2dPolyline
 66
     1
 10
0.0
 20
0.0
 30
0.0
 70
     1
  0
VERTEX
  5
8BC
330
8BB
100
AcDbEntity
  8
MSR_5-0
100
AcDbVertex
100
AcDb2dVertex
 10
199.9186805971898
 20
-145.7891643645027
 30
0.0
  0
VERTEX
  5
8BD
330
8BB
100
AcDbEntity
  8
MSR_5-0
100
AcDbVertex
100
AcDb2dVertex
 10
191.1553305971898
 20
-160.9677368645028
 30
0.0
  0
VERTEX
  5
8BE
330
8BB
100
AcDbEntity
  8
MSR_5-0
100
AcDbVertex
100
AcDb2dVertex
 10
200.0217805971898
 20
-175.9677368645028
 30
0.0
  0
VERTEX
  5
8BF
330
8BB
100
AcDbEntity
  8
MSR_5-0
100
AcDbVertex
100
AcDb2dVertex
 10
217.7546805971899
 20
-175.9677368645028
 30
0.0
  0
VERTEX
  5
8C0
330
8BB
100
AcDbEntity
  8
MSR_5-0
100
AcDbVertex
100
AcDb2dVertex
 10
226.0025430971898
 20
-160.9677368645028
 30
0.0
  0
VERTEX
  5
8C1
330
8BB
100
AcDbEntity
  8
MSR_5-0
100
AcDbVertex
100
AcDb2dVertex
 10
217.2391905971898
 20
-145.7891643645027
 30
0.0
  0
SEQEND
  5
8C2
330
8BB
100
AcDbEntity
  8
MSR_5-0
  0
POLYLINE
  5
8C3
330
1A
100
AcDbEntity
  8
MSR_5-0
100
AcDb2dPolyline
 66
     1
 10
0.0
 20
0.0
 30
0.0
  0
VERTEX
  5
8C4
330
8C3
100
AcDbEntity
  8
MSR_5-0
100
AcDbVertex
100
AcDb2dVertex
 10
138.6820330971899
 20
-145.4677368645027
 30
0.0
  0
VERTEX
  5
8C5
330
8C3
100
AcDbEntity
  8
MSR_5-0
100
AcDbVertex
100
AcDb2dVertex
 10
156.0025430971898
 20
-135.4677368645027
 30
0.0
  0
VERTEX
  5
8C6
330
8C3
100
AcDbEntity
  8
MSR_5-0
100
AcDbVertex
100
AcDb2dVertex
 10
211.3615255971898
 20
-135.4677368645027
 30
0.0
  0
VERTEX
  5
8C7
330
8C3
100
AcDbEntity
  8
MSR_5-0
100
AcDbVertex
100
AcDb2dVertex
 10
228.6820330971899
 20
-145.4677368645027
 30
0.0
  0
SEQEND
  5
8C8
330
8C3
100
AcDbEntity
  8
MSR_5-0
  0
POLYLINE
  5
8C9
330
1A
100
AcDbEntity
  8
MSR_5-2
100
AcDb2dPolyline
 66
     1
 10
0.0
 20
0.0
 30
0.0
 70
     1
  0
VERTEX
  5
8CA
330
8C9
100
AcDbEntity
  8
MSR_5-2
100
AcDbVertex
100
AcDb2dVertex
 10
138.6820330971899
 20
-84.29048186450279
 30
0.0
  0
VERTEX
  5
8CB
330
8C9
100
AcDbEntity
  8
MSR_5-2
100
AcDbVertex
100
AcDb2dVertex
 10
228.6820330971899
 20
-84.29048186450279
 30
0.0
  0
VERTEX
  5
8CC
330
8C9
100
AcDbEntity
  8
MSR_5-2
100
AcDbVertex
100
AcDb2dVertex
 10
228.6820330971899
 20
-107.7904818645028
 30
0.0
  0
VERTEX
  5
8CD
330
8C9
100
AcDbEntity
  8
MSR_5-2
100
AcDbVertex
100
AcDb2dVertex
 10
138.6820330971899
 20
-107.7904818645028
 30
0.0
  0
SEQEND
  5
8CE
330
8C9
100
AcDbEntity
  8
MSR_5-2
  0
LINE
  5
8CF
330
1A
100
AcDbEntity
  8
MSR_5-7
100
AcDbLine
 10
190.5563230971899
 20
-160.9677368645028
 30
0.0
 11
225.4875730971899
 21
-160.9677368645028
 31
0.0
  0
LINE
  5
8D0
330
1A
100
AcDbEntity
  8
MSR_5-0
100
AcDbLine
 10
138.6820330971899
 20
-211.2904818645028
 30
0.0
 11
228.6820330971899
 21
-211.2904818645028
 31
0.0
  0
LINE
  5
8D1
330
1A
100
AcDbEntity
  8
MSR_5-0
100
AcDbLine
 10
138.6820330971875
 20
-195.2904818645028
 30
0.0
 11
228.6820330971899
 21
-195.2904818645028
 31
0.0
  0
LINE
  5
8D2
330
1A
100
AcDbEntity
  8
MSR_5-7
100
AcDbLine
 10
158.6820330971899
 20
-140.2157718645027
 30
0.0
 11
158.6820330971899
 21
-182.2845218645027
 31
0.0
  0
POLYLINE
  5
8D3
330
1A
100
AcDbEntity
  8
MSR_5-0
100
AcDb2dPolyline
 66
     1
 10
0.0
 20
0.0
 30
0.0
  0
VERTEX
  5
8D4
330
8D3
100
AcDbEntity
  8
MSR_5-0
100
AcDbVertex
100
AcDb2dVertex
 10
138.6820330971899
 20
-211.2904818645028
 30
0.0
  0
VERTEX
  5
8D5
330
8D3
100
AcDbEntity
  8
MSR_5-0
100
AcDbVertex
100
AcDb2dVertex
 10
138.6820330971899
 20
-195.3791093645028
 30
0.0
  0
VERTEX
  5
8D6
330
8D3
100
AcDbEntity
  8
MSR_5-0
100
AcDbVertex
100
AcDb2dVertex
 10
138.6820330971899
 20
-145.4677368645027
 30
0.0
  0
VERTEX
  5
8D7
330
8D3
100
AcDbEntity
  8
MSR_5-0
100
AcDbVertex
100
AcDb2dVertex
 10
138.6820330971899
 20
-126.9677368645028
 30
0.0
  0
SEQEND
  5
8D8
330
8D3
100
AcDbEntity
  8
MSR_5-0
  0
LINE
  5
8D9
330
1A
100
AcDbEntity
  8
MSR_5-7
100
AcDbLine
 10
183.6820330971899
 20
-214.2904818645028
 30
0.0
 11
183.6820330971899
 21
-81.2904818645028
 31
0.0
1001
GENIUS_GENODEF_13
1002
{
1000
HIER
1070
     0
1002
}
1002
{
1000
MANEDIT
1070
     0
1002
}
1002
{
1000
NOSEL
1070
     0
1002
}
1002
{
1000
BEHIND
1070
     0
1002
}
1002
{
1000
REACTOR
1002
}
1001
GENIUS_GENOBJ-N-CEN_13
1002
{
1000
OWNER
1000
GEN
1002
}
  0
CIRCLE
  5
8DA
330
1A
100
AcDbEntity
  8
MSR_5-0
100
AcDbCircle
 10
158.6820330971899
 20
-160.9677368645028
 30
0.0
 40
12.5
  0
POLYLINE
  5
8DB
330
1A
100
AcDbEntity
  8
MSR_5-0
100
AcDb2dPolyline
 66
     1
 10
0.0
 20
0.0
 30
0.0
 70
     1
  0
VERTEX
  5
8DC
330
8DB
100
AcDbEntity
  8
MSR_5-0
100
AcDbVertex
100
AcDb2dVertex
 10
149.9186805971898
 20
-145.7891643645027
 30
0.0
  0
VERTEX
  5
8DD
330
8DB
100
AcDbEntity
  8
MSR_5-0
100
AcDbVertex
100
AcDb2dVertex
 10
141.1553305971898
 20
-160.9677368645028
 30
0.0
  0
VERTEX
  5
8DE
330
8DB
100
AcDbEntity
  8
MSR_5-0
100
AcDbVertex
100
AcDb2dVertex
 10
150.0217805971898
 20
-175.9677368645028
 30
0.0
  0
VERTEX
  5
8DF
330
8DB
100
AcDbEntity
  8
MSR_5-0
100
AcDbVertex
100
AcDb2dVertex
 10
167.7546805971898
 20
-175.9677368645028
 30
0.0
  0
VERTEX
  5
8E0
330
8DB
100
AcDbEntity
  8
MSR_5-0
100
AcDbVertex
100
AcDb2dVertex
 10
176.0025430971898
 20
-160.9677368645028
 30
0.0
  0
VERTEX
  5
8E1
330
8DB
100
AcDbEntity
  8
MSR_5-0
100
AcDbVertex
100
AcDb2dVertex
 10
167.2391905971898
 20
-145.7891643645027
 30
0.0
  0
SEQEND
  5
8E2
330
8DB
100
AcDbEntity
  8
MSR_5-0
  0
LINE
  5
8E3
330
1A
100
AcDbEntity
  8
MSR_5-7
100
AcDbLine
 10
140.5563230971899
 20
-160.9677368645028
 30
0.0
 11
175.4875730971898
 21
-160.9677368645028
 31
0.0
  0
TEXT
  5
8E4
330
1A
100
AcDbEntity
  8
MSR_5-6
100
AcDbText
 10
142.8153502145584
 20
-206.1116168456106
 30
0.0
 40
3.5
  1
MSR 5
100
AcDbText
  0
CIRCLE
  5
8E5
330
1A
100
AcDbEntity
  8
MSR_5-0
100
AcDbCircle
 10
183.6820330971899
 20
-187.4677368645028
 30
0.0
 40
6.0
  0
LINE
  5
8E6
330
1A
100
AcDbEntity
  8
MSR_5-7
100
AcDbLine
 10
175.6290080971898
 20
-187.4677368645028
 30
0.0
 11
191.9008830971899
 21
-187.4677368645028
 31
0.0
  0
ARC
  5
8E7
330
1A
100
AcDbEntity
  8
MSR_5-4
100
AcDbCircle
 10
149.1820330971898
 20
-117.9677368645027
 30
0.0
 40
6.0
100
AcDbArc
 50
166.087868
 51
105.754047
  0
INSERT
  5
8E8
330
1A
100
AcDbEntity
  8
MSR_5-8
100
AcDbBlockReference
  2
*X2
 10
-391.9536292878786
 20
-605.2516720571745
 30
0.0
1001
GENIUS_GENODEF_13
1002
{
1000
HIER
1070
     0
1002
}
1002
{
1000
MANEDIT
1070
     0
1002
}
1002
{
1000
NOSEL
1070
     0
1002
}
1002
{
1000
BEHIND
1070
     0
1002
}
1002
{
1000
REACTOR
1002
}
1001
GENIUS_GENOBJ-N-HTC_13
1002
{
1000
OWNER
1000
GEN
1002
}
1001
GENIUS_GENHATCH_13
1002
{
1000
DATA
1040
45.0
1042
2.5
1000
_U
1070
     0
1011
155.9531067433761
1021
-93.42365985628793
1031
0.0
1002
}
1002
{
1000
UCS
1010
0.0
1020
0.0
1030
0.0
1010
1.0
1020
0.0
1030
0.0
1010
0.0
1020
1.0
1030
0.0
1002
}
1001
ACAD
1000
HATCH
1002
{
1070
    19
1000
_U
1040
2.5
1040
0.7853981633974483
1070
     0
1002
}
  0
LINE
  5
8E9
330
1A
100
AcDbEntity
  8
MSR_5-7
100
AcDbLine
 10
141.6764805971899
 20
-117.9677368645027
 30
0.0
 11
157.6820330971898
 21
-117.9677368645027
 31
0.0
  0
POLYLINE
  5
8EA
330
1A
100
AcDbEntity
  8
MSR_5-0
100
AcDb2dPolyline
 66
     1
 10
0.0
 20
0.0
 30
0.0
 70
     1
  0
VERTEX
  5
8EB
330
8EA
100
AcDbEntity
  8
MSR_5-0
100
AcDbVertex
100
AcDb2dVertex
 10
140.6820330971898
 20
-122.8752118645027
 30
0.0
  0
VERTEX
  5
8EC
330
8EA
100
AcDbEntity
  8
MSR_5-0
100
AcDbVertex
100
AcDb2dVertex
 10
140.6820330971898
 20
-113.0602593645028
 30
0.0
  0
VERTEX
  5
8ED
330
8EA
100
AcDbEntity
  8
MSR_5-0
100
AcDbVertex
100
AcDb2dVertex
 10
149.1820330971898
 20
-108.1527818645027
 30
0.0
  0
VERTEX
  5
8EE
330
8EA
100
AcDbEntity
  8
MSR_5-0
100
AcDbVertex
100
AcDb2dVertex
 10
157.6820330971898
 20
-113.0602593645028
 30
0.0
  0
VERTEX
  5
8EF
330
8EA
100
AcDbEntity
  8
MSR_5-0
100
AcDbVertex
100
AcDb2dVertex
 10
157.6820330971898
 20
-122.8752118645027
 30
0.0
  0
VERTEX
  5
8F0
330
8EA
100
AcDbEntity
  8
MSR_5-0
100
AcDbVertex
100
AcDb2dVertex
 10
149.1820330971898
 20
-127.7826918645028
 30
0.0
  0
SEQEND
  5
8F1
330
8EA
100
AcDbEntity
  8
MSR_5-0
  0
LINE
  5
8F2
330
1A
100
AcDbEntity
  8
MSR_5-7
100
AcDbLine
 10
147.6820330971898
 20
-81.15455686450275
 30
0.0
 11
147.6820330971898
 21
-109.7295568645028
 31
0.0
  0
LINE
  5
8F3
330
1A
100
AcDbEntity
  8
MSR_5-2
100
AcDbLine
 10
152.1820330971898
 20
-99.2904818645028
 30
0.0
 11
152.1820330971898
 21
-86.39048186450281
 31
0.0
  0
LINE
  5
8F4
330
1A
100
AcDbEntity
  8
MSR_5-4
100
AcDbLine
 10
152.6820330971898
 20
-86.39048186450281
 30
0.0
 11
152.6820330971898
 21
-99.2904818645028
 31
0.0
  0
INSERT
  5
8F5
330
1A
100
AcDbEntity
  8
MSR_5-8
100
AcDbBlockReference
  2
*X1
 10
-391.9536292878786
 20
-605.2516720571745
 30
0.0
1001
GENIUS_GENODEF_13
1002
{
1000
HIER
1070
     0
1002
}
1002
{
1000
MANEDIT
1070
     0
1002
}
1002
{
1000
NOSEL
1070
     0
1002
}
1002
{
1000
BEHIND
1070
     0
1002
}
1002
{
1000
REACTOR
1002
}
1001
GENIUS_GENOBJ-N-HTC_13
1002
{
1000
OWNER
1000
GEN
1002
}
1001
GENIUS_GENHATCH_13
1002
{
1000
DATA
1040
45.0
1042
2.5
1000
_U
1070
     0
1011
140.64710668371
1021
-94.11446928712098
1031
0.0
1002
}
1002
{
1000
UCS
1010
0.0
1020
0.0
1030
0.0
1010
1.0
1020
0.0
1030
0.0
1010
0.0
1020
1.0
1030
0.0
1002
}
1001
ACAD
1000
HATCH
1002
{
1070
    19
1000
_U
1040
2.5
1040
0.7853981633974483
1070
     0
1002
}
  0
LINE
  5
8F6
330
1A
100
AcDbEntity
  8
MSR_5-2
100
AcDbLine
 10
143.1820330971898
 20
-86.39048186450281
 30
0.0
 11
143.1820330971898
 21
-99.2904818645028
 31
0.0
  0
LINE
  5
8F7
330
1A
100
AcDbEntity
  8
MSR_5-4
100
AcDbLine
 10
142.6820330971898
 20
-86.39048186450281
 30
0.0
 11
142.6820330971898
 21
-99.2904818645028
 31
0.0
  0
POLYLINE
  5
8F8
330
1A
100
AcDbEntity
  8
MSR_5-0
100
AcDb2dPolyline
 66
     1
 10
0.0
 20
0.0
 30
0.0
  0
VERTEX
  5
8F9
330
8F8
100
AcDbEntity
  8
MSR_5-0
100
AcDbVertex
100
AcDb2dVertex
 10
147.7704905971898
 20
-126.9677368645028
 30
0.0
  0
VERTEX
  5
8FA
330
8F8
100
AcDbEntity
  8
MSR_5-0
100
AcDbVertex
100
AcDb2dVertex
 10
138.6820330971899
 20
-126.9677368645028
 30
0.0
  0
VERTEX
  5
8FB
330
8F8
100
AcDbEntity
  8
MSR_5-0
100
AcDbVertex
100
AcDb2dVertex
 10
138.6820330971899
 20
-108.9677368645028
 30
0.0
  0
VERTEX
  5
8FC
330
8F8
100
AcDbEntity
  8
MSR_5-0
100
AcDbVertex
100
AcDb2dVertex
 10
147.7704905971898
 20
-108.9677368645028
 30
0.0
  0
SEQEND
  5
8FD
330
8F8
100
AcDbEntity
  8
MSR_5-0
  0
CIRCLE
  5
8FE
330
1A
100
AcDbEntity
  8
MSR_5-0
100
AcDbCircle
 10
149.1820330971898
 20
-117.9677368645027
 30
0.0
 40
5.4
  0
LINE
  5
8FF
330
1A
100
AcDbEntity
  8
MSR_5-7
100
AcDbLine
 10
149.1820330971898
 20
-111.4677368645028
 30
0.0
 11
149.1820330971898
 21
-124.4677368645028
 31
0.0
  0
POLYLINE
  5
900
330
1A
100
AcDbEntity
  8
MSR_5-2
100
AcDb2dPolyline
 66
     1
 10
0.0
 20
0.0
 30
0.0
  0
VERTEX
  5
901
330
900
100
AcDbEntity
  8
MSR_5-2
100
AcDbVertex
100
AcDb2dVertex
 10
154.4320330971897
 20
-107.7904818645028
 30
0.0
  0
VERTEX
  5
902
330
900
100
AcDbEntity
  8
MSR_5-2
100
AcDbVertex
100
AcDb2dVertex
 10
154.4320330971897
 20
-99.2904818645028
 30
0.0
  0
VERTEX
  5
903
330
900
100
AcDbEntity
  8
MSR_5-2
100
AcDbVertex
100
AcDb2dVertex
 10
140.9320330971898
 20
-99.2904818645028
 30
0.0
  0
VERTEX
  5
904
330
900
100
AcDbEntity
  8
MSR_5-2
100
AcDbVertex
100
AcDb2dVertex
 10
140.9320330971898
 20
-107.7904818645028
 30
0.0
  0
SEQEND
  5
905
330
900
100
AcDbEntity
  8
MSR_5-2
  0
POLYLINE
  5
906
330
1A
100
AcDbEntity
  8
MSR_5-2
100
AcDb2dPolyline
 66
     1
 10
0.0
 20
0.0
 30
0.0
  0
VERTEX
  5
907
330
906
100
AcDbEntity
  8
MSR_5-2
100
AcDbVertex
100
AcDb2dVertex
 10
154.1820330971898
 20
-84.29048186450279
 30
0.0
  0
VERTEX
  5
908
330
906
100
AcDbEntity
  8
MSR_5-2
100
AcDbVertex
100
AcDb2dVertex
 10
154.1820330971898
 20
-86.39048186450281
 30
0.0
  0
VERTEX
  5
909
330
906
100
AcDbEntity
  8
MSR_5-2
100
AcDbVertex
100
AcDb2dVertex
 10
141.1820330971899
 20
-86.39048186450281
 30
0.0
  0
VERTEX
  5
90A
330
906
100
AcDbEntity
  8
MSR_5-2
100
AcDbVertex
100
AcDb2dVertex
 10
141.1820330971899
 20
-84.29048186450279
 30
0.0
  0
SEQEND
  5
90B
330
906
100
AcDbEntity
  8
MSR_5-2
  0
POLYLINE
  5
90C
330
1A
100
AcDbEntity
  8
MSR_5-4
100
AcDb2dPolyline
 66
     1
 10
0.0
 20
0.0
 30
0.0
 70
     4
 75
     6
  0
VERTEX
  5
90D
330
90C
100
AcDbEntity
  8
MSR_5-4
100
AcDbVertex
100
AcDb2dVertex
 10
157.7305770188915
 20
-107.7904818645028
 30
0.0
 70
    16
  0
VERTEX
  5
90E
330
90C
100
AcDbEntity
  8
MSR_5-4
100
AcDbVertex
100
AcDb2dVertex
 10
157.7305770188915
 20
-107.7904818645028
 30
0.0
 70
     8
  0
VERTEX
  5
90F
330
90C
100
AcDbEntity
  8
MSR_5-4
100
AcDbVertex
100
AcDb2dVertex
 10
158.1194635079151
 20
-106.2763570899527
 30
0.0
 70
     8
  0
VERTEX
  5
910
330
90C
100
AcDbEntity
  8
MSR_5-4
100
AcDbVertex
100
AcDb2dVertex
 10
158.4717049965769
 20
-105.010365596451
 30
0.0
 70
     8
  0
VERTEX
  5
911
330
90C
100
AcDbEntity
  8
MSR_5-4
100
AcDbVertex
100
AcDb2dVertex
 10
158.7876872281393
 20
-103.9577206205331
 30
0.0
 70
     8
  0
VERTEX
  5
912
330
90C
100
AcDbEntity
  8
MSR_5-4
100
AcDbVertex
100
AcDb2dVertex
 10
159.0677959458649
 20
-103.0836353987348
 30
0.0
 70
     8
  0
VERTEX
  5
913
330
90C
100
AcDbEntity
  8
MSR_5-4
100
AcDbVertex
100
AcDb2dVertex
 10
159.312416893016
 20
-102.3533231675918
 30
0.0
 70
     8
  0
VERTEX
  5
914
330
90C
100
AcDbEntity
  8
MSR_5-4
100
AcDbVertex
100
AcDb2dVertex
 10
159.5219358128553
 20
-101.7319971636398
 30
0.0
 70
     8
  0
VERTEX
  5
915
330
90C
100
AcDbEntity
  8
MSR_5-4
100
AcDbVertex
100
AcDb2dVertex
 10
159.6967384486452
 20
-101.1848706234143
 30
0.0
 70
     8
  0
VERTEX
  5
916
330
90C
100
AcDbEntity
  8
MSR_5-4
100
AcDbVertex
100
AcDb2dVertex
 10
159.8372105436481
 20
-100.6771567834515
 30
0.0
 70
     8
  0
VERTEX
  5
917
330
90C
100
AcDbEntity
  8
MSR_5-4
100
AcDbVertex
100
AcDb2dVertex
 10
159.9444128791366
 20
-100.1799309241094
 30
0.0
 70
     8
  0
VERTEX
  5
918
330
90C
100
AcDbEntity
  8
MSR_5-4
100
AcDbVertex
100
AcDb2dVertex
 10
160.0221063884227
 20
-99.68771650103992
 30
0.0
 70
     8
  0
VERTEX
  5
919
330
90C
100
AcDbEntity
  8
MSR_5-4
100
AcDbVertex
100
AcDb2dVertex
 10
160.074727042828
 20
-99.20089901371751
 30
0.0
 70
     8
  0
VERTEX
  5
91A
330
90C
100
AcDbEntity
  8
MSR_5-4
100
AcDbVertex
100
AcDb2dVertex
 10
160.1067108136743
 20
-98.71986396161691
 30
0.0
 70
     8
  0
VERTEX
  5
91B
330
90C
100
AcDbEntity
  8
MSR_5-4
100
AcDbVertex
100
AcDb2dVertex
 10
160.1224936722835
 20
-98.24499684421272
 30
0.0
 70
     8
  0
VERTEX
  5
91C
330
90C
100
AcDbEntity
  8
MSR_5-4
100
AcDbVertex
100
AcDb2dVertex
 10
160.1265115899774
 20
-97.77668316097942
 30
0.0
 70
     8
  0
VERTEX
  5
91D
330
90C
100
AcDbEntity
  8
MSR_5-4
100
AcDbVertex
100
AcDb2dVertex
 10
160.1232005380776
 20
-97.31530841139182
 30
0.0
 70
     8
  0
VERTEX
  5
91E
330
90C
100
AcDbEntity
  8
MSR_5-4
100
AcDbVertex
100
AcDb2dVertex
 10
160.1169964879062
 20
-96.86125809492445
 30
0.0
 70
     8
  0
VERTEX
  5
91F
330
90C
100
AcDbEntity
  8
MSR_5-4
100
AcDbVertex
100
AcDb2dVertex
 10
160.1112424905902
 20
-96.41450008974613
 30
0.0
 70
     8
  0
VERTEX
  5
920
330
90C
100
AcDbEntity
  8
MSR_5-4
100
AcDbVertex
100
AcDb2dVertex
 10
160.1049099164789
 20
-95.97333178880246
 30
0.0
 70
     8
  0
VERTEX
  5
921
330
90C
100
AcDbEntity
  8
MSR_5-4
100
AcDbVertex
100
AcDb2dVertex
 10
160.0958772157272
 20
-95.53563296373352
 30
0.0
 70
     8
  0
VERTEX
  5
922
330
90C
100
AcDbEntity
  8
MSR_5-4
100
AcDbVertex
100
AcDb2dVertex
 10
160.0820228384897
 20
-95.09928338617914
 30
0.0
 70
     8
  0
VERTEX
  5
923
330
90C
100
AcDbEntity
  8
MSR_5-4
100
AcDbVertex
100
AcDb2dVertex
 10
160.0612252349211
 20
-94.66216282777924
 30
0.0
 70
     8
  0
VERTEX
  5
924
330
90C
100
AcDbEntity
  8
MSR_5-4
100
AcDbVertex
100
AcDb2dVertex
 10
160.0313628551763
 20
-94.22215106017381
 30
0.0
 70
     8
  0
VERTEX
  5
925
330
90C
100
AcDbEntity
  8
MSR_5-4
100
AcDbVertex
100
AcDb2dVertex
 10
159.9903141494097
 20
-93.77712785500273
 30
0.0
 70
     8
  0
VERTEX
  5
926
330
90C
100
AcDbEntity
  8
MSR_5-4
100
AcDbVertex
100
AcDb2dVertex
 10
159.9359575677764
 20
-93.32497298390576
 30
0.0
 70
     8
  0
VERTEX
  5
927
330
90C
100
AcDbEntity
  8
MSR_5-4
100
AcDbVertex
100
AcDb2dVertex
 10
159.8669108875734
 20
-92.86472270660192
 30
0.0
 70
     8
  0
VERTEX
  5
928
330
90C
100
AcDbEntity
  8
MSR_5-4
100
AcDbVertex
100
AcDb2dVertex
 10
159.7847491946685
 20
-92.4000392351253
 30
0.0
 70
     8
  0
VERTEX
  5
929
330
90C
100
AcDbEntity
  8
MSR_5-4
100
AcDbVertex
100
AcDb2dVertex
 10
159.6917869020718
 20
-91.93574126958891
 30
0.0
 70
     8
  0
VERTEX
  5
92A
330
90C
100
AcDbEntity
  8
MSR_5-4
100
AcDbVertex
100
AcDb2dVertex
 10
159.5903384227937
 20
-91.47664751010575
 30
0.0
 70
     8
  0
VERTEX
  5
92B
330
90C
100
AcDbEntity
  8
MSR_5-4
100
AcDbVertex
100
AcDb2dVertex
 10
159.482718169844
 20
-91.02757665678893
 30
0.0
 70
     8
  0
VERTEX
  5
92C
330
90C
100
AcDbEntity
  8
MSR_5-4
100
AcDbVertex
100
AcDb2dVertex
 10
159.3712405562331
 20
-90.59334740975135
 30
0.0
 70
     8
  0
VERTEX
  5
92D
330
90C
100
AcDbEntity
  8
MSR_5-4
100
AcDbVertex
100
AcDb2dVertex
 10
159.2582199949712
 20
-90.1787784691062
 30
0.0
 70
     8
  0
VERTEX
  5
92E
330
90C
100
AcDbEntity
  8
MSR_5-4
100
AcDbVertex
100
AcDb2dVertex
 10
159.1459708990686
 20
-89.78868853496635
 30
0.0
 70
     8
  0
VERTEX
  5
92F
330
90C
100
AcDbEntity
  8
MSR_5-4
100
AcDbVertex
100
AcDb2dVertex
 10
159.0365665972877
 20
-89.42624188604691
 30
0.0
 70
     8
  0
VERTEX
  5
930
330
90C
100
AcDbEntity
  8
MSR_5-4
100
AcDbVertex
100
AcDb2dVertex
 10
158.9311160814005
 20
-89.0879851154707
 30
0.0
 70
     8
  0
VERTEX
  5
931
330
90C
100
AcDbEntity
  8
MSR_5-4
100
AcDbVertex
100
AcDb2dVertex
 10
158.830487258932
 20
-88.76881039496277
 30
0.0
 70
     8
  0
VERTEX
  5
932
330
90C
100
AcDbEntity
  8
MSR_5-4
100
AcDbVertex
100
AcDb2dVertex
 10
158.7355480374065
 20
-88.46360989624793
 30
0.0
 70
     8
  0
VERTEX
  5
933
330
90C
100
AcDbEntity
  8
MSR_5-4
100
AcDbVertex
100
AcDb2dVertex
 10
158.6471663243484
 20
-88.16727579105123
 30
0.0
 70
     8
  0
VERTEX
  5
934
330
90C
100
AcDbEntity
  8
MSR_5-4
100
AcDbVertex
100
AcDb2dVertex
 10
158.5662100272826
 20
-87.87470025109758
 30
0.0
 70
     8
  0
VERTEX
  5
935
330
90C
100
AcDbEntity
  8
MSR_5-4
100
AcDbVertex
100
AcDb2dVertex
 10
158.4935470537333
 20
-87.58077544811181
 30
0.0
 70
     8
  0
VERTEX
  5
936
330
90C
100
AcDbEntity
  8
MSR_5-4
100
AcDbVertex
100
AcDb2dVertex
 10
158.4300453112254
 20
-87.28039355381884
 30
0.0
 70
     8
  0
VERTEX
  5
937
330
90C
100
AcDbEntity
  8
MSR_5-4
100
AcDbVertex
100
AcDb2dVertex
 10
158.3767012841375
 20
-86.96895169725838
 30
0.0
 70
     8
  0
VERTEX
  5
938
330
90C
100
AcDbEntity
  8
MSR_5-4
100
AcDbVertex
100
AcDb2dVertex
 10
158.3350257642659
 20
-86.64386683672843
 30
0.0
 70
     8
  0
VERTEX
  5
939
330
90C
100
AcDbEntity
  8
MSR_5-4
100
AcDbVertex
100
AcDb2dVertex
 10
158.3066581202612
 20
-86.30306088784164
 30
0.0
 70
     8
  0
VERTEX
  5
93A
330
90C
100
AcDbEntity
  8
MSR_5-4
100
AcDbVertex
100
AcDb2dVertex
 10
158.2932377207741
 20
-85.94445576621092
 30
0.0
 70
     8
  0
VERTEX
  5
93B
330
90C
100
AcDbEntity
  8
MSR_5-4
100
AcDbVertex
100
AcDb2dVertex
 10
158.2964039344547
 20
-85.56597338744905
 30
0.0
 70
     8
  0
VERTEX
  5
93C
330
90C
100
AcDbEntity
  8
MSR_5-4
100
AcDbVertex
100
AcDb2dVertex
 10
158.3177961299538
 20
-85.16553566716845
 30
0.0
 70
     8
  0
VERTEX
  5
93D
330
90C
100
AcDbEntity
  8
MSR_5-4
100
AcDbVertex
100
AcDb2dVertex
 10
158.3590536759221
 20
-84.74106452098215
 30
0.0
 70
     8
  0
VERTEX
  5
93E
330
90C
100
AcDbEntity
  8
MSR_5-4
100
AcDbVertex
100
AcDb2dVertex
 10
158.42181594101
 20
-84.29048186450268
 30
0.0
 70
     8
  0
VERTEX
  5
93F
330
90C
100
AcDbEntity
  8
MSR_5-4
100
AcDbVertex
100
AcDb2dVertex
 10
158.8168105396705
 20
-103.3910498567811
 30
0.0
 70
    16
  0
VERTEX
  5
940
330
90C
100
AcDbEntity
  8
MSR_5-4
100
AcDbVertex
100
AcDb2dVertex
 10
160.1992883839077
 20
-100.6278134576068
 30
0.0
 70
    16
  0
VERTEX
  5
941
330
90C
100
AcDbEntity
  8
MSR_5-4
100
AcDbVertex
100
AcDb2dVertex
 10
160.1005381087059
 20
-96.7790188139129
 30
0.0
 70
    16
  0
VERTEX
  5
942
330
90C
100
AcDbEntity
  8
MSR_5-4
100
AcDbVertex
100
AcDb2dVertex
 10
160.1005381087059
 20
-93.42365985628793
 30
0.0
 70
    16
  0
VERTEX
  5
943
330
90C
100
AcDbEntity
  8
MSR_5-4
100
AcDbVertex
100
AcDb2dVertex
 10
159.1130548631288
 20
-89.4761796643702
 30
0.0
 70
    16
  0
VERTEX
  5
944
330
90C
100
AcDbEntity
  8
MSR_5-4
100
AcDbVertex
100
AcDb2dVertex
 10
158.3230678331904
 20
-87.40375269602919
 30
0.0
 70
    16
  0
VERTEX
  5
945
330
90C
100
AcDbEntity
  8
MSR_5-4
100
AcDbVertex
100
AcDb2dVertex
 10
158.2243197253713
 20
-85.52869814829387
 30
0.0
 70
    16
  0
VERTEX
  5
946
330
90C
100
AcDbEntity
  8
MSR_5-4
100
AcDbVertex
100
AcDb2dVertex
 10
158.42181594101
 20
-84.29048186450279
 30
0.0
 70
    16
  0
SEQEND
  5
947
330
90C
100
AcDbEntity
  8
MSR_5-4
  0
LINE
  5
948
330
1A
100
AcDbEntity
  8
MSR_5-7
100
AcDbLine
 10
178.1820330971898
 20
-117.9677368645027
 30
0.0
 11
189.1820330971898
 21
-117.9677368645027
 31
0.0
  0
CIRCLE
  5
949
330
1A
100
AcDbEntity
  8
MSR_5-0
100
AcDbCircle
 10
183.6820330971899
 20
-117.9677368645027
 30
0.0
 40
5.5
  0
LINE
  5
94A
330
1A
100
AcDbEntity
  8
MSR_5-0
100
AcDbLine
 10
159.6820330971898
 20
-108.9677368645028
 30
0.0
 11
159.6820330971898
 21
-126.9677368645028
 31
0.0
  0
LINE
  5
94B
330
1A
100
AcDbEntity
  8
MSR_5-2
100
AcDbLine
 10
155.6820330971898
 20
-107.7904818645028
 30
0.0
 11
155.6820330971898
 21
-108.7904818645028
 31
0.0
  0
POLYLINE
  5
94C
330
1A
100
AcDbEntity
  8
MSR_5-0
100
AcDb2dPolyline
 66
     1
 10
0.0
 20
0.0
 30
0.0
 70
     1
  0
VERTEX
  5
94D
330
94C
100
AcDbEntity
  8
MSR_5-0
100
AcDbVertex
100
AcDb2dVertex
 10
183.6820330971899
 20
-120.8059318645028
 30
0.0
  0
VERTEX
  5
94E
330
94C
100
AcDbEntity
  8
MSR_5-0
100
AcDbVertex
100
AcDb2dVertex
 10
181.2240830971898
 20
-119.3868343645028
 30
0.0
  0
VERTEX
  5
94F
330
94C
100
AcDbEntity
  8
MSR_5-0
100
AcDbVertex
100
AcDb2dVertex
 10
181.2240830971898
 20
-116.5486368645028
 30
0.0
  0
VERTEX
  5
950
330
94C
100
AcDbEntity
  8
MSR_5-0
100
AcDbVertex
100
AcDb2dVertex
 10
183.6820330971899
 20
-115.1295393645027
 30
0.0
  0
VERTEX
  5
951
330
94C
100
AcDbEntity
  8
MSR_5-0
100
AcDbVertex
100
AcDb2dVertex
 10
186.1399830971899
 20
-116.5486368645028
 30
0.0
  0
VERTEX
  5
952
330
94C
100
AcDbEntity
  8
MSR_5-0
100
AcDbVertex
100
AcDb2dVertex
 10
186.1399830971899
 20
-119.3868343645028
 30
0.0
  0
SEQEND
  5
953
330
94C
100
AcDbEntity
  8
MSR_5-0
  0
LINE
  5
954
330
1A
100
AcDbEntity
  8
MSR_5-7
100
AcDbLine
 10
208.6820330971899
 20
-140.2157718645027
 30
0.0
 11
208.6820330971899
 21
-182.2845218645027
 31
0.0
  0
POLYLINE
  5
955
330
1A
100
AcDbEntity
  8
MSR_5-0
100
AcDb2dPolyline
 66
     1
 10
0.0
 20
0.0
 30
0.0
  0
VERTEX
  5
956
330
955
100
AcDbEntity
  8
MSR_5-0
100
AcDbVertex
100
AcDb2dVertex
 10
228.6820330971899
 20
-126.9677368645028
 30
0.0
  0
VERTEX
  5
957
330
955
100
AcDbEntity
  8
MSR_5-0
100
AcDbVertex
100
AcDb2dVertex
 10
228.6820330971899
 20
-195.3791093645028
 30
0.0
  0
VERTEX
  5
958
330
955
100
AcDbEntity
  8
MSR_5-0
100
AcDbVertex
100
AcDb2dVertex
 10
228.6820330971899
 20
-211.2904818645028
 30
0.0
  0
SEQEND
  5
959
330
955
100
AcDbEntity
  8
MSR_5-0
  0
LINE
  5
95A
330
1A
100
AcDbEntity
  8
MSR_5-7
100
AcDbLine
 10
224.1357830971898
 20
-179.2904818645028
 30
0.0
 11
232.3213280971899
 21
-179.2904818645028
 31
0.0
  0
LINE
  5
95B
330
1A
100
AcDbEntity
  8
MSR_5-7
100
AcDbLine
 10
225.9547930971899
 20
-184.2904818645028
 30
0.0
 11
231.6598705971899
 21
-184.2904818645028
 31
0.0
  0
LINE
  5
95C
330
1A
100
AcDbEntity
  8
MSR_5-7
100
AcDbLine
 10
219.68203309719
 20
-81.15455686450275
 30
0.0
 11
219.68203309719
 21
-109.7295568645028
 31
0.0
  0
POLYLINE
  5
95D
330
1A
100
AcDbEntity
  8
MSR_5-0
100
AcDb2dPolyline
 66
     1
 10
0.0
 20
0.0
 30
0.0
 70
     1
  0
VERTEX
  5
95E
330
95D
100
AcDbEntity
  8
MSR_5-0
100
AcDbVertex
100
AcDb2dVertex
 10
226.6820330971898
 20
-122.8752118645027
 30
0.0
  0
VERTEX
  5
95F
330
95D
100
AcDbEntity
  8
MSR_5-0
100
AcDbVertex
100
AcDb2dVertex
 10
226.6820330971898
 20
-113.0602593645028
 30
0.0
  0
VERTEX
  5
960
330
95D
100
AcDbEntity
  8
MSR_5-0
100
AcDbVertex
100
AcDb2dVertex
 10
218.1820330971898
 20
-108.1527818645027
 30
0.0
  0
VERTEX
  5
961
330
95D
100
AcDbEntity
  8
MSR_5-0
100
AcDbVertex
100
AcDb2dVertex
 10
209.6820330971898
 20
-113.0602593645028
 30
0.0
  0
VERTEX
  5
962
330
95D
100
AcDbEntity
  8
MSR_5-0
100
AcDbVertex
100
AcDb2dVertex
 10
209.6820330971898
 20
-122.8752118645027
 30
0.0
  0
VERTEX
  5
963
330
95D
100
AcDbEntity
  8
MSR_5-0
100
AcDbVertex
100
AcDb2dVertex
 10
218.1820330971898
 20
-127.7826918645028
 30
0.0
  0
SEQEND
  5
964
330
95D
100
AcDbEntity
  8
MSR_5-0
  0
POLYLINE
  5
965
330
1A
100
AcDbEntity
  8
MSR_5-0
100
AcDb2dPolyline
 66
     1
 10
0.0
 20
0.0
 30
0.0
  0
VERTEX
  5
966
330
965
100
AcDbEntity
  8
MSR_5-0
100
AcDbVertex
100
AcDb2dVertex
 10
219.5935780971898
 20
-108.9677368645028
 30
0.0
  0
VERTEX
  5
967
330
965
100
AcDbEntity
  8
MSR_5-0
100
AcDbVertex
100
AcDb2dVertex
 10
228.6820330971899
 20
-108.9677368645028
 30
0.0
  0
VERTEX
  5
968
330
965
100
AcDbEntity
  8
MSR_5-0
100
AcDbVertex
100
AcDb2dVertex
 10
228.6820330971899
 20
-126.9677368645028
 30
0.0
  0
VERTEX
  5
969
330
965
100
AcDbEntity
  8
MSR_5-0
100
AcDbVertex
100
AcDb2dVertex
 10
219.5935780971898
 20
-126.9677368645028
 30
0.0
  0
SEQEND
  5
96A
330
965
100
AcDbEntity
  8
MSR_5-0
  0
LINE
  5
96B
330
1A
100
AcDbEntity
  8
MSR_5-0
100
AcDbLine
 10
207.6820330971898
 20
-108.9677368645028
 30
0.0
 11
207.6820330971898
 21
-126.9677368645028
 31
0.0
  0
LINE
  5
96C
330
1A
100
AcDbEntity
  8
MSR_5-7
100
AcDbLine
 10
218.1820330971898
 20
-111.4677368645028
 30
0.0
 11
218.1820330971898
 21
-124.4677368645028
 31
0.0
  0
CIRCLE
  5
96D
330
1A
100
AcDbEntity
  8
MSR_5-0
100
AcDbCircle
 10
218.1820330971898
 20
-117.9677368645027
 30
0.0
 40
5.4
  0
ARC
  5
96E
330
1A
100
AcDbEntity
  8
MSR_5-4
100
AcDbCircle
 10
218.1820330971898
 20
-117.9677368645027
 30
0.0
 40
6.0
100
AcDbArc
 50
74.24595100000001
 51
13.91213
  0
LINE
  5
96F
330
1A
100
AcDbEntity
  8
MSR_5-7
100
AcDbLine
 10
225.6875880971898
 20
-117.9677368645027
 30
0.0
 11
209.6820330971898
 21
-117.9677368645027
 31
0.0
  0
LINE
  5
970
330
1A
100
AcDbEntity
  8
MSR_5-2
100
AcDbLine
 10
211.68203309719
 20
-107.7904818645028
 30
0.0
 11
211.68203309719
 21
-108.7904818645028
 31
0.0
  0
POINT
  5
971
330
1A
100
AcDbEntity
  8
0
 60
     1
100
AcDbPoint
 10
-391.9536292878786
 20
-605.2516720571745
 30
0.0
1001
GENIUS_GENODEF_13
1002
{
1000
HIER
1070
    10
1002
}
1002
{
1000
MANEDIT
1070
     0
1002
}
1002
{
1000
NOSEL
1070
     0
1002
}
1002
{
1000
BEHIND
1070
     0
1002
}
1002
{
1000
REACTOR
1002
}
1001
GENIUS_GENOBJ-N-CRS_13
1002
{
1000
OWNER
1000
GEN
1002
}
1001
GENIUS_GENOENT_13
1002
{
1000
MYREF
1005
971
1002
}
1002
{
1000
GRP
1005
0
1002
}
1001
GENIUS_GENOLIS_13
1002
{
1000
ENT
1005
8AB
1005
8A4
1005
8A3
1005
8A9
1002
}
  0
POINT
  5
972
330
1A
100
AcDbEntity
  8
0
 60
     1
100
AcDbPoint
 10
-391.9536292878786
 20
-605.2516720571745
 30
0.0
1001
GENIUS_GENODEF_13
1002
{
1000
HIER
1070
    10
1002
}
1002
{
1000
MANEDIT
1070
     0
1002
}
1002
{
1000
NOSEL
1070
     0
1002
}
1002
{
1000
BEHIND
1070
     0
1002
}
1002
{
1000
REACTOR
1002
}
1001
GENIUS_GENOBJ-N-CRS_13
1002
{
1000
OWNER
1000
GEN
1002
}
1001
GENIUS_GENOENT_13
1002
{
1000
MYREF
1005
972
1002
}
1002
{
1000
GRP
1005
0
1002
}
1001
GENIUS_GENOLIS_13
1002
{
1000
ENT
1005
81C
1005
81B
1005
81A
1005
816
1002
}
  0
POINT
  5
973
330
1A
100
AcDbEntity
  8
0
 60
     1
100
AcDbPoint
 10
-391.9536292878786
 20
-605.2516720571745
 30
0.0
1001
GENIUS_GENODEF_13
1002
{
1000
HIER
1070
    10
1002
}
1002
{
1000
MANEDIT
1070
     0
1002
}
1002
{
1000
NOSEL
1070
     0
1002
}
1002
{
1000
BEHIND
1070
     0
1002
}
1002
{
1000
REACTOR
1002
}
1001
GENIUS_GENOBJ-N-CRS_13
1002
{
1000
OWNER
1000
GEN
1002
}
1001
GENIUS_GENOENT_13
1002
{
1000
MYREF
1005
973
1002
}
1002
{
1000
GRP
1005
0
1002
}
1001
GENIUS_GENOLIS_13
1002
{
1000
ENT
1005
813
1005
814
1005
815
1005
80F
1002
}
  0
POINT
  5
974
330
1A
100
AcDbEntity
  8
0
 60
     1
100
AcDbPoint
 10
-391.9536292878786
 20
-605.2516720571745
 30
0.0
1001
GENIUS_GENODEF_13
1002
{
1000
HIER
1070
    10
1002
}
1002
{
1000
MANEDIT
1070
     0
1002
}
1002
{
1000
NOSEL
1070
     0
1002
}
1002
{
1000
BEHIND
1070
     0
1002
}
1002
{
1000
REACTOR
1002
}
1001
GENIUS_GENOBJ-N-CRS_13
1002
{
1000
OWNER
1000
GEN
1002
}
1001
GENIUS_GENOENT_13
1002
{
1000
MYREF
1005
974
1002
}
1002
{
1000
GRP
1005
0
1002
}
1001
GENIUS_GENOLIS_13
1002
{
1000
ENT
1005
806
1005
802
1005
804
1005
805
1002
}
  0
POINT
  5
975
330
1A
100
AcDbEntity
  8
0
 60
     1
100
AcDbPoint
 10
-391.9536292878786
 20
-605.2516720571745
 30
0.0
1001
GENIUS_GENODEF_13
1002
{
1000
HIER
1070
    10
1002
}
1002
{
1000
MANEDIT
1070
     0
1002
}
1002
{
1000
NOSEL
1070
     0
1002
}
1002
{
1000
BEHIND
1070
     0
1002
}
1002
{
1000
REACTOR
1002
}
1001
GENIUS_GENOBJ-N-CRS_13
1002
{
1000
OWNER
1000
GEN
1002
}
1001
GENIUS_GENOENT_13
1002
{
1000
MYREF
1005
975
1002
}
1002
{
1000
GRP
1005
0
1002
}
1001
GENIUS_GENOLIS_13
1002
{
1000
ENT
1005
801
1005
7FF
1005
800
1005
7D7
1002
}
  0
POINT
  5
976
330
1A
100
AcDbEntity
  8
0
 60
     1
100
AcDbPoint
 10
-391.9536292878786
 20
-605.2516720571745
 30
0.0
1001
GENIUS_GENODEF_13
1002
{
1000
HIER
1070
    10
1002
}
1002
{
1000
MANEDIT
1070
     0
1002
}
1002
{
1000
NOSEL
1070
     0
1002
}
1002
{
1000
BEHIND
1070
     0
1002
}
1002
{
1000
REACTOR
1002
}
1001
GENIUS_GENOBJ-N-CRS_13
1002
{
1000
OWNER
1000
GEN
1002
}
1001
GENIUS_GENOENT_13
1002
{
1000
MYREF
1005
976
1002
}
1002
{
1000
GRP
1005
0
1002
}
1001
GENIUS_GENOLIS_13
1002
{
1000
ENT
1005
7D5
1005
7D4
1005
7D6
1005
7C6
1002
}
  0
ENDSEC
  0
SECTION
  2
OBJECTS
  0
DICTIONARY
  5
C
330
0
100
AcDbDictionary
281
     1
  3
ACAD_COLOR
350
9A6
  3
ACAD_GROUP
350
D
  3
ACAD_LAYOUT
350
9CE
  3
ACAD_MATERIAL
350
97C
  3
ACAD_MLEADERSTYLE
350
9CB
  3
ACAD_MLINESTYLE
350
E
  3
ACAD_PLOTSETTINGS
350
9CF
  3
ACAD_PLOTSTYLENAME
350
97A
  3
ACAD_SCALELIST
350
9A9
  3
ACAD_TABLESTYLE
350
9A7
  3
ACAD_VISUALSTYLE
350
995
  3
ACDB_RECOMPOSE_DATA
350
A8B
  3
AcDbVariableDictionary
350
A82
  3
AcmDictionary
350
A30
  3
AcmSystemVariableManager
350
A99
  3
AMG
350
9D5
  3
AMGSNAPSETTINGS
350
A7B
  3
DWGPROPS
350
A8C
  0
DICTIONARY
  5
9A6
102
{ACAD_REACTORS
330
C
102
}
330
C
100
AcDbDictionary
281
     1
  0
DICTIONARY
  5
D
102
{ACAD_REACTORS
330
C
102
}
330
C
100
AcDbDictionary
281
     1
  0
DICTIONARY
  5
9CE
102
{ACAD_REACTORS
330
C
102
}
330
C
100
AcDbDictionary
281
     1
  3
Layout1
350
9D1
  3
Model
350
9D0
  0
DICTIONARY
  5
97C
102
{ACAD_REACTORS
330
C
102
}
330
C
100
AcDbDictionary
281
     1
  3
ByBlock
350
985
  3
ByLayer
350
97D
  3
Global
350
98D
  0
DICTIONARY
  5
9CB
102
{ACAD_REACTORS
330
C
102
}
330
C
100
AcDbDictionary
281
     1
  3
Standard
350
9CC
  0
DICTIONARY
  5
E
102
{ACAD_REACTORS
330
C
102
}
330
C
100
AcDbDictionary
281
     1
  3
STANDARD
350
13
  0
DICTIONARY
  5
9CF
102
{ACAD_REACTORS
330
C
102
}
330
C
100
AcDbDictionary
281
     1
  0
ACDBDICTIONARYWDFLT
  5
97A
102
{ACAD_REACTORS
330
C
102
}
330
C
100
AcDbDictionary
281
     1
  3
Normal
350
97B
100
AcDbDictionaryWithDefault
340
97B
  0
DICTIONARY
  5
9A9
102
{ACAD_REACTORS
330
C
102
}
330
C
100
AcDbDictionary
281
     1
  3
A0
350
9AA
  3
A1
350
9AB
  3
A2
350
9AC
  3
A3
350
9AD
  3
A4
350
9AE
  3
A5
350
9AF
  3
A6
350
9B0
  3
A7
350
9B1
  3
A8
350
9B2
  3
A9
350
9B3
  3
B0
350
9B4
  3
B1
350
9B5
  3
B2
350
9B6
  3
B3
350
9B7
  3
B4
350
9B8
  3
B5
350
9B9
  3
B6
350
9BA
  3
B7
350
9BB
  3
B8
350
9BC
  3
B9
350
9BD
  3
C0
350
9BE
  3
C1
350
9BF
  3
C2
350
9C0
  3
C3
350
9C1
  3
C4
350
9C2
  3
C5
350
9C3
  3
C6
350
9C4
  3
C7
350
9C5
  3
C8
350
9C6
  3
C9
350
9C7
  3
D0
350
9C8
  3
D1
350
9C9
  3
D2
350
9CA
  0
DICTIONARY
  5
9A7
102
{ACAD_REACTORS
330
C
102
}
330
C
100
AcDbDictionary
281
     1
  3
Standard
350
9A8
  0
DICTIONARY
  5
995
102
{ACAD_REACTORS
330
C
102
}
330
C
100
AcDbDictionary
281
     1
  3
2dWireframe
350
99B
  3
3D Hidden
350
99D
  3
3dWireframe
350
99C
  3
Basic
350
99A
  3
Brighten
350
9A1
  3
ColorChange
350
9A5
  3
Conceptual
350
99E
  3
Dim
350
9A0
  3
Facepattern
350
9A4
  3
Flat
350
996
  3
FlatWithEdges
350
997
  3
Gouraud
350
998
  3
GouraudWithEdges
350
999
  3
Linepattern
350
9A3
  3
Realistic
350
99F
  3
Thicken
350
9A2
  0
XRECORD
  5
A8B
102
{ACAD_REACTORS
330
C
102
}
330
C
100
AcDbXrecord
280
     1
 90
        1
330
9A8
  0
DICTIONARY
  5
A82
102
{ACAD_REACTORS
330
C
102
}
330
C
100
AcDbDictionary
281
     1
  3
CANNOSCALE
350
A85
  3
CMLEADERSTYLE
350
A84
  3
CTABLESTYLE
350
A83
  3
DIMASSOC
350
A88
  3
INDEXCTL
350
A87
  3
SORTENTS
350
A86
  0
DICTIONARY
  5
A30
102
{ACAD_REACTORS
330
C
102
}
330
C
100
AcDbDictionary
281
     1
  3
AcmStdDictionary
350
A3B
  0
DICTIONARY
  5
9D5
102
{ACAD_REACTORS
330
C
102
}
330
C
100
AcDbDictionary
281
     1
  0
DICTIONARY
  5
A7B
102
{ACAD_REACTORS
330
C
102
}
330
C
100
AcDbDictionary
281
     1
  0
XRECORD
  5
A8C
102
{ACAD_REACTORS
330
C
102
}
330
C
100
AcDbXrecord
280
     1
  1
DWGPROPS COOKIE
  2

  3

  4

  6

  7

  8
bauer_sven
  9

300
=
301
=
302
=
303
=
304
=
305
=
306
=
307
=
308
=
309
=
 40
0.0034904050925926
 41
2450847.688760428
 42
2456226.382886355
  1

 90
        0
  0
LAYOUT
  5
9D1
102
{ACAD_XDICTIONARY
360
A93
102
}
102
{ACAD_REACTORS
330
9CE
102
}
330
9CE
100
AcDbPlotSettings
  1

  2
iR 2570CN-010
  4

  6

 40
0.0
 41
0.0
 42
0.0
 43
0.0
 44
0.0
 45
0.0
 46
0.0
 47
0.0
 48
0.0
 49
0.0
140
0.0
141
0.0
142
1.0
143
1.0
 70
   688
 72
     0
 73
     0
 74
     5
  7

 75
    16
147
1.0
148
0.0
149
0.0
100
AcDbLayout
  1
Layout1
 70
     1
 71
     1
 10
0.0
 20
0.0
 11
12.0
 21
9.0
 12
0.0
 22
0.0
 32
0.0
 14
1.000000000000000E+20
 24
1.000000000000000E+20
 34
1.000000000000000E+20
 15
-1.000000000000000E+20
 25
-1.000000000000000E+20
 35
-1.000000000000000E+20
146
0.0
 13
0.0
 23
0.0
 33
0.0
 16
1.0
 26
0.0
 36
0.0
 17
0.0
 27
1.0
 37
0.0
 76
     0
330
17
  0
LAYOUT
  5
9D0
102
{ACAD_XDICTIONARY
360
A91
102
}
102
{ACAD_REACTORS
330
9CE
102
}
330
9CE
100
AcDbPlotSettings
  1

  2
iR 2570CN-010
  4

  6

 40
0.0
 41
0.0
 42
0.0
 43
0.0
 44
0.0
 45
0.0
 46
0.0
 47
0.0
 48
0.0
 49
0.0
140
0.0
141
0.0
142
1.0
143
1.0
 70
  1712
 72
     0
 73
     0
 74
     0
  7

 75
     0
147
1.0
148
0.0
149
0.0
100
AcDbLayout
  1
Model
 70
     1
 71
     0
 10
0.0
 20
0.0
 11
12.0
 21
9.0
 12
0.0
 22
0.0
 32
0.0
 14
0.0
 24
0.0
 34
0.0
 15
0.0
 25
0.0
 35
0.0
146
0.0
 13
0.0
 23
0.0
 33
0.0
 16
1.0
 26
0.0
 36
0.0
 17
0.0
 27
1.0
 37
0.0
 76
     0
330
1A
331
978
  0
MATERIAL
  5
985
102
{ACAD_XDICTIONARY
360
986
102
}
102
{ACAD_REACTORS
330
97C
102
}
330
97C
100
AcDbMaterial
  1
ByBlock
 72
     0
 43
0.0208333333333333
 43
0.0
 43
0.0
 43
0.0
 43
0.0
 43
0.0208333333333333
 43
0.0
 43
0.0
 43
0.0
 43
0.0
 43
1.0
 43
0.0
 43
0.0
 43
0.0
 43
0.0
 43
1.0
 77
     0
 47
0.0208333333333333
 47
0.0
 47
0.0
 47
0.0
 47
0.0
 47
0.0208333333333333
 47
0.0
 47
0.0
 47
0.0
 47
0.0
 47
1.0
 47
0.0
 47
0.0
 47
0.0
 47
0.0
 47
1.0
171
     0
 49
0.0208333333333333
 49
0.0
 49
0.0
 49
0.0
 49
0.0
 49
0.0208333333333333
 49
0.0
 49
0.0
 49
0.0
 49
0.0
 49
1.0
 49
0.0
 49
0.0
 49
0.0
 49
0.0
 49
1.0
175
     0
142
0.0208333333333333
142
0.0
142
0.0
142
0.0
142
0.0
142
0.0208333333333333
142
0.0
142
0.0
142
0.0
142
0.0
142
1.0
142
0.0
142
0.0
142
0.0
142
0.0
142
1.0
179
     0
144
0.0208333333333333
144
0.0
144
0.0
144
0.0
144
0.0
144
0.0208333333333333
144
0.0
144
0.0
144
0.0
144
0.0
144
1.0
144
0.0
144
0.0
144
0.0
144
0.0
144
1.0
147
0.0208333333333333
147
0.0
147
0.0
147
0.0
147
0.0
147
0.0208333333333333
147
0.0
147
0.0
147
0.0
147
0.0
147
1.0
147
0.0
147
0.0
147
0.0
147
0.0
147
1.0
  0
MATERIAL
  5
97D
102
{ACAD_XDICTIONARY
360
97E
102
}
102
{ACAD_REACTORS
330
97C
102
}
330
97C
100
AcDbMaterial
  1
ByLayer
 72
     0
 43
0.0208333333333333
 43
0.0
 43
0.0
 43
0.0
 43
0.0
 43
0.0208333333333333
 43
0.0
 43
0.0
 43
0.0
 43
0.0
 43
1.0
 43
0.0
 43
0.0
 43
0.0
 43
0.0
 43
1.0
 77
     0
 47
0.0208333333333333
 47
0.0
 47
0.0
 47
0.0
 47
0.0
 47
0.0208333333333333
 47
0.0
 47
0.0
 47
0.0
 47
0.0
 47
1.0
 47
0.0
 47
0.0
 47
0.0
 47
0.0
 47
1.0
171
     0
 49
0.0208333333333333
 49
0.0
 49
0.0
 49
0.0
 49
0.0
 49
0.0208333333333333
 49
0.0
 49
0.0
 49
0.0
 49
0.0
 49
1.0
 49
0.0
 49
0.0
 49
0.0
 49
0.0
 49
1.0
175
     0
142
0.0208333333333333
142
0.0
142
0.0
142
0.0
142
0.0
142
0.0208333333333333
142
0.0
142
0.0
142
0.0
142
0.0
142
1.0
142
0.0
142
0.0
142
0.0
142
0.0
142
1.0
179
     0
144
0.0208333333333333
144
0.0
144
0.0
144
0.0
144
0.0
144
0.0208333333333333
144
0.0
144
0.0
144
0.0
144
0.0
144
1.0
144
0.0
144
0.0
144
0.0
144
0.0
144
1.0
147
0.0208333333333333
147
0.0
147
0.0
147
0.0
147
0.0
147
0.0208333333333333
147
0.0
147
0.0
147
0.0
147
0.0
147
1.0
147
0.0
147
0.0
147
0.0
147
0.0
147
1.0
  0
MATERIAL
  5
98D
102
{ACAD_XDICTIONARY
360
98E
102
}
102
{ACAD_REACTORS
330
97C
102
}
330
97C
100
AcDbMaterial
  1
Global
 72
     0
 43
0.0208333333333333
 43
0.0
 43
0.0
 43
0.0
 43
0.0
 43
0.0208333333333333
 43
0.0
 43
0.0
 43
0.0
 43
0.0
 43
1.0
 43
0.0
 43
0.0
 43
0.0
 43
0.0
 43
1.0
 77
     0
 47
0.0208333333333333
 47
0.0
 47
0.0
 47
0.0
 47
0.0
 47
0.0208333333333333
 47
0.0
 47
0.0
 47
0.0
 47
0.0
 47
1.0
 47
0.0
 47
0.0
 47
0.0
 47
0.0
 47
1.0
171
     0
 49
0.0208333333333333
 49
0.0
 49
0.0
 49
0.0
 49
0.0
 49
0.0208333333333333
 49
0.0
 49
0.0
 49
0.0
 49
0.0
 49
1.0
 49
0.0
 49
0.0
 49
0.0
 49
0.0
 49
1.0
175
     0
142
0.0208333333333333
142
0.0
142
0.0
142
0.0
142
0.0
142
0.0208333333333333
142
0.0
142
0.0
142
0.0
142
0.0
142
1.0
142
0.0
142
0.0
142
0.0
142
0.0
142
1.0
179
     0
144
0.0208333333333333
144
0.0
144
0.0
144
0.0
144
0.0
144
0.0208333333333333
144
0.0
144
0.0
144
0.0
144
0.0
144
1.0
144
0.0
144
0.0
144
0.0
144
0.0
144
1.0
147
0.0208333333333333
147
0.0
147
0.0
147
0.0
147
0.0
147
0.0208333333333333
147
0.0
147
0.0
147
0.0
147
0.0
147
1.0
147
0.0
147
0.0
147
0.0
147
0.0
147
1.0
  0
MLEADERSTYLE
  5
9CC
102
{ACAD_REACTORS
330
9CB
102
}
330
9CB
100
AcDbMLeaderStyle
170
     2
171
     1
172
     0
 90
        2
 40
0.0
 41
0.0
173
     1
 91
-1056964608
340
14
 92
       -2
290
     1
 42
0.09
291
     1
 43
0.36
  3
Standard
 44
0.18
300

342
10
174
     1
178
     6
175
     1
176
     0
 93
-1056964608
 45
0.18
292
     0
297
     0
 46
0.18
 94
-1056964608
 47
1.0
 49
1.0
140
1.0
293
     1
141
0.0
294
     1
177
     0
142
1.0
295
     0
296
     0
143
0.125
1001
ACAD_MLEADERVER
1070
     2
  0
MLINESTYLE
  5
13
102
{ACAD_REACTORS
330
E
102
}
330
E
100
AcDbMlineStyle
  2
STANDARD
 70
     0
  3

 62
     0
 51
90.0
 52
90.0
 71
     2
 49
0.5
 62
   256
  6
BYLAYER
 49
-0.5
 62
   256
  6
BYLAYER
  0
ACDBPLACEHOLDER
  5
97B
102
{ACAD_REACTORS
330
97A
102
}
330
97A
  0
SCALE
  5
9AA
102
{ACAD_REACTORS
330
9A9
102
}
330
9A9
100
AcDbScale
 70
     0
300
1:1
140
1.0
141
1.0
290
     1
  0
SCALE
  5
9AB
102
{ACAD_REACTORS
330
9A9
102
}
330
9A9
100
AcDbScale
 70
     0
300
1:2
140
1.0
141
2.0
290
     0
  0
SCALE
  5
9AC
102
{ACAD_REACTORS
330
9A9
102
}
330
9A9
100
AcDbScale
 70
     0
300
1:4
140
1.0
141
4.0
290
     0
  0
SCALE
  5
9AD
102
{ACAD_REACTORS
330
9A9
102
}
330
9A9
100
AcDbScale
 70
     0
300
1:5
140
1.0
141
5.0
290
     0
  0
SCALE
  5
9AE
102
{ACAD_REACTORS
330
9A9
102
}
330
9A9
100
AcDbScale
 70
     0
300
1:8
140
1.0
141
8.0
290
     0
  0
SCALE
  5
9AF
102
{ACAD_REACTORS
330
9A9
102
}
330
9A9
100
AcDbScale
 70
     0
300
1:10
140
1.0
141
10.0
290
     0
  0
SCALE
  5
9B0
102
{ACAD_REACTORS
330
9A9
102
}
330
9A9
100
AcDbScale
 70
     0
300
1:16
140
1.0
141
16.0
290
     0
  0
SCALE
  5
9B1
102
{ACAD_REACTORS
330
9A9
102
}
330
9A9
100
AcDbScale
 70
     0
300
1:20
140
1.0
141
20.0
290
     0
  0
SCALE
  5
9B2
102
{ACAD_REACTORS
330
9A9
102
}
330
9A9
100
AcDbScale
 70
     0
300
1:30
140
1.0
141
30.0
290
     0
  0
SCALE
  5
9B3
102
{ACAD_REACTORS
330
9A9
102
}
330
9A9
100
AcDbScale
 70
     0
300
1:40
140
1.0
141
40.0
290
     0
  0
SCALE
  5
9B4
102
{ACAD_REACTORS
330
9A9
102
}
330
9A9
100
AcDbScale
 70
     0
300
1:50
140
1.0
141
50.0
290
     0
  0
SCALE
  5
9B5
102
{ACAD_REACTORS
330
9A9
102
}
330
9A9
100
AcDbScale
 70
     0
300
1:100
140
1.0
141
100.0
290
     0
  0
SCALE
  5
9B6
102
{ACAD_REACTORS
330
9A9
102
}
330
9A9
100
AcDbScale
 70
     0
300
2:1
140
2.0
141
1.0
290
     0
  0
SCALE
  5
9B7
102
{ACAD_REACTORS
330
9A9
102
}
330
9A9
100
AcDbScale
 70
     0
300
4:1
140
4.0
141
1.0
290
     0
  0
SCALE
  5
9B8
102
{ACAD_REACTORS
330
9A9
102
}
330
9A9
100
AcDbScale
 70
     0
300
8:1
140
8.0
141
1.0
290
     0
  0
SCALE
  5
9B9
102
{ACAD_REACTORS
330
9A9
102
}
330
9A9
100
AcDbScale
 70
     0
300
10:1
140
10.0
141
1.0
290
     0
  0
SCALE
  5
9BA
102
{ACAD_REACTORS
330
9A9
102
}
330
9A9
100
AcDbScale
 70
     0
300
100:1
140
100.0
141
1.0
290
     0
  0
SCALE
  5
9BB
102
{ACAD_REACTORS
330
9A9
102
}
330
9A9
100
AcDbScale
 70
     0
300
1/128" = 1'-0"
140
0.0078125
141
12.0
290
     0
  0
SCALE
  5
9BC
102
{ACAD_REACTORS
330
9A9
102
}
330
9A9
100
AcDbScale
 70
     0
300
1/64" = 1'-0"
140
0.015625
141
12.0
290
     0
  0
SCALE
  5
9BD
102
{ACAD_REACTORS
330
9A9
102
}
330
9A9
100
AcDbScale
 70
     0
300
1/32" = 1'-0"
140
0.03125
141
12.0
290
     0
  0
SCALE
  5
9BE
102
{ACAD_REACTORS
330
9A9
102
}
330
9A9
100
AcDbScale
 70
     0
300
1/16" = 1'-0"
140
0.0625
141
12.0
290
     0
  0
SCALE
  5
9BF
102
{ACAD_REACTORS
330
9A9
102
}
330
9A9
100
AcDbScale
 70
     0
300
3/32" = 1'-0"
140
0.09375
141
12.0
290
     0
  0
SCALE
  5
9C0
102
{ACAD_REACTORS
330
9A9
102
}
330
9A9
100
AcDbScale
 70
     0
300
1/8" = 1'-0"
140
0.125
141
12.0
290
     0
  0
SCALE
  5
9C1
102
{ACAD_REACTORS
330
9A9
102
}
330
9A9
100
AcDbScale
 70
     0
300
3/16" = 1'-0"
140
0.1875
141
12.0
290
     0
  0
SCALE
  5
9C2
102
{ACAD_REACTORS
330
9A9
102
}
330
9A9
100
AcDbScale
 70
     0
300
1/4" = 1'-0"
140
0.25
141
12.0
290
     0
  0
SCALE
  5
9C3
102
{ACAD_REACTORS
330
9A9
102
}
330
9A9
100
AcDbScale
 70
     0
300
3/8" = 1'-0"
140
0.375
141
12.0
290
     0
  0
SCALE
  5
9C4
102
{ACAD_REACTORS
330
9A9
102
}
330
9A9
100
AcDbScale
 70
     0
300
1/2" = 1'-0"
140
0.5
141
12.0
290
     0
  0
SCALE
  5
9C5
102
{ACAD_REACTORS
330
9A9
102
}
330
9A9
100
AcDbScale
 70
     0
300
3/4" = 1'-0"
140
0.75
141
12.0
290
     0
  0
SCALE
  5
9C6
102
{ACAD_REACTORS
330
9A9
102
}
330
9A9
100
AcDbScale
 70
     0
300
1" = 1'-0"
140
1.0
141
12.0
290
     0
  0
SCALE
  5
9C7
102
{ACAD_REACTORS
330
9A9
102
}
330
9A9
100
AcDbScale
 70
     0
300
1-1/2" = 1'-0"
140
1.5
141
12.0
290
     0
  0
SCALE
  5
9C8
102
{ACAD_REACTORS
330
9A9
102
}
330
9A9
100
AcDbScale
 70
     0
300
3" = 1'-0"
140
3.0
141
12.0
290
     0
  0
SCALE
  5
9C9
102
{ACAD_REACTORS
330
9A9
102
}
330
9A9
100
AcDbScale
 70
     0
300
6" = 1'-0"
140
6.0
141
12.0
290
     0
  0
SCALE
  5
9CA
102
{ACAD_REACTORS
330
9A9
102
}
330
9A9
100
AcDbScale
 70
     0
300
1'-0" = 1'-0"
140
12.0
141
12.0
290
     0
  0
TABLESTYLE
  5
9A8
102
{ACAD_XDICTIONARY
360
A89
102
}
102
{ACAD_REACTORS
330
9A7
102
}
330
9A7
100
AcDbTableStyle
  3
Standard
 70
     0
 71
     0
 40
0.06
 41
0.06
280
     0
281
     0
  7
STANDARD
140
0.18
170
     2
 62
     0
 63
     7
283
     0
274
    -2
284
     1
 64
     0
275
    -2
285
     1
 65
     0
276
    -2
286
     1
 66
     0
277
    -2
287
     1
 67
     0
278
    -2
288
     1
 68
     0
279
    -2
289
     1
 69
     0
  7
STANDARD
140
0.25
170
     5
 62
     0
 63
     7
283
     0
274
    -2
284
     1
 64
     0
275
    -2
285
     1
 65
     0
276
    -2
286
     1
 66
     0
277
    -2
287
     1
 67
     0
278
    -2
288
     1
 68
     0
279
    -2
289
     1
 69
     0
  7
STANDARD
140
0.18
170
     5
 62
     0
 63
     7
283
     0
274
    -2
284
     1
 64
     0
275
    -2
285
     1
 65
     0
276
    -2
286
     1
 66
     0
277
    -2
287
     1
 67
     0
278
    -2
288
     1
 68
     0
279
    -2
289
     1
 69
     0
  0
VISUALSTYLE
  5
99B
102
{ACAD_REACTORS
330
995
102
}
330
995
100
AcDbVisualStyle
  2
2dWireframe
 70
     4
 71
     0
 72
     2
 73
     0
 90
        0
 40
-0.6
 41
-30.0
 62
     5
 63
     7
 74
     1
 91
        4
 64
     7
 65
   257
 75
     1
175
     1
 42
1.0
 92
        0
 66
   257
 43
1.0
 76
     1
 77
     6
 78
     2
 67
     7
 79
     5
170
     0
171
     0
290
     0
174
     0
 93
        1
 44
0.0
173
     0
291
     0
 45
0.0
1001
ACAD
1000
AcDbSavedByObjectVersion
1070
     0
  0
VISUALSTYLE
  5
99D
102
{ACAD_REACTORS
330
995
102
}
330
995
100
AcDbVisualStyle
  2
3D Hidden
 70
     6
 71
     1
 72
     2
 73
     2
 90
        0
 40
-0.6
 41
-30.0
 62
     5
 63
     7
 74
     2
 91
        2
 64
     7
 65
   257
 75
     2
175
     1
 42
40.0
 92
        0
 66
   257
 43
1.0
 76
     1
 77
     6
 78
     2
 67
     7
 79
     3
170
     0
171
     0
290
     0
174
     0
 93
        1
 44
0.0
173
     0
291
     0
 45
0.0
1001
ACAD
1000
AcDbSavedByObjectVersion
1070
     0
  0
VISUALSTYLE
  5
99C
102
{ACAD_REACTORS
330
995
102
}
330
995
100
AcDbVisualStyle
  2
3dWireframe
 70
     5
 71
     0
 72
     2
 73
     0
 90
        0
 40
-0.6
 41
-30.0
 62
     5
 63
     7
 74
     1
 91
        4
 64
     7
 65
   257
 75
     1
175
     1
 42
1.0
 92
        0
 66
   257
 43
1.0
 76
     1
 77
     6
 78
     2
 67
     7
 79
     5
170
     0
171
     0
290
     0
174
     0
 93
        1
 44
0.0
173
     0
291
     0
 45
0.0
1001
ACAD
1000
AcDbSavedByObjectVersion
1070
     0
  0
VISUALSTYLE
  5
99A
102
{ACAD_REACTORS
330
995
102
}
330
995
100
AcDbVisualStyle
  2
Basic
 70
     7
 71
     1
 72
     0
 73
     1
 90
        0
 40
-0.6
 41
-30.0
 62
     5
 63
     7
 74
     0
 91
        4
 64
     7
 65
   257
 75
     1
175
     1
 42
1.0
 92
        8
 66
     7
 43
1.0
 76
     1
 77
     6
 78
     2
 67
     7
 79
     5
170
     0
171
     0
290
     0
174
     0
 93
        1
 44
0.0
173
     0
291
     1
 45
0.0
1001
ACAD
1000
AcDbSavedByObjectVersion
1070
     0
  0
VISUALSTYLE
  5
9A1
102
{ACAD_REACTORS
330
995
102
}
330
995
100
AcDbVisualStyle
  2
Brighten
 70
    12
 71
     2
 72
     2
 73
     0
 90
        0
 40
-0.6
 41
-30.0
 62
     5
 63
     7
 74
     1
 91
        4
 64
     7
 65
   257
 75
     1
175
     1
 42
1.0
 92
        8
 66
     7
 43
1.0
 76
     1
 77
     6
 78
     2
 67
     7
 79
     5
170
     0
171
     0
290
     0
174
     0
 93
        1
 44
50.0
173
     0
291
     1
 45
0.0
1001
ACAD
1000
AcDbSavedByObjectVersion
1070
     0
  0
VISUALSTYLE
  5
9A5
102
{ACAD_REACTORS
330
995
102
}
330
995
100
AcDbVisualStyle
  2
ColorChange
 70
    16
 71
     2
 72
     2
 73
     3
 90
        0
 40
-0.6
 41
-30.0
 62
     5
 63
     8
 74
     1
 91
        4
 64
     7
 65
   257
 75
     1
175
     1
 42
1.0
 92
        8
 66
     8
 43
1.0
 76
     1
 77
     6
 78
     2
 67
     7
 79
     5
170
     0
171
     0
290
     0
174
     0
 93
        1
 44
0.0
173
     0
291
     1
 45
0.0
1001
ACAD
1000
AcDbSavedByObjectVersion
1070
     0
  0
VISUALSTYLE
  5
99E
102
{ACAD_REACTORS
330
995
102
}
330
995
100
AcDbVisualStyle
  2
Conceptual
 70
     9
 71
     3
 72
     2
 73
     0
 90
        0
 40
-0.6
 41
-30.0
 62
     5
 63
     7
 74
     2
 91
        2
 64
     7
 65
   257
 75
     1
175
     1
 42
40.0
 92
        8
 66
     7
 43
1.0
 76
     1
 77
     6
 78
     2
 67
     7
 79
     3
170
     0
171
     0
290
     0
174
     0
 93
        1
 44
0.0
173
     0
291
     0
 45
0.0
1001
ACAD
1000
AcDbSavedByObjectVersion
1070
     0
  0
VISUALSTYLE
  5
9A0
102
{ACAD_REACTORS
330
995
102
}
330
995
100
AcDbVisualStyle
  2
Dim
 70
    11
 71
     2
 72
     2
 73
     0
 90
        0
 40
-0.6
 41
-30.0
 62
     5
 63
     7
 74
     1
 91
        4
 64
     7
 65
   257
 75
     1
175
     1
 42
1.0
 92
        8
 66
     7
 43
1.0
 76
     1
 77
     6
 78
     2
 67
     7
 79
     5
170
     0
171
     0
290
     0
174
     0
 93
        1
 44
-50.0
173
     0
291
     1
 45
0.0
1001
ACAD
1000
AcDbSavedByObjectVersion
1070
     0
  0
VISUALSTYLE
  5
9A4
102
{ACAD_REACTORS
330
995
102
}
330
995
100
AcDbVisualStyle
  2
Facepattern
 70
    15
 71
     2
 72
     2
 73
     0
 90
        0
 40
-0.6
 41
-30.0
 62
     5
 63
     7
 74
     1
 91
        4
 64
     7
 65
   257
 75
     1
175
     1
 42
1.0
 92
        8
 66
     7
 43
1.0
 76
     1
 77
     6
 78
     2
 67
     7
 79
     5
170
     0
171
     0
290
     0
174
     0
 93
        1
 44
0.0
173
     0
291
     1
 45
0.0
1001
ACAD
1000
AcDbSavedByObjectVersion
1070
     0
  0
VISUALSTYLE
  5
996
102
{ACAD_REACTORS
330
995
102
}
330
995
100
AcDbVisualStyle
  2
Flat
 70
     0
 71
     2
 72
     1
 73
     1
 90
        2
 40
-0.6
 41
30.0
 62
     5
 63
     7
 74
     0
 91
        4
 64
     7
 65
   257
 75
     1
175
     1
 42
1.0
 92
        8
 66
     7
 43
1.0
 76
     1
 77
     6
 78
     2
 67
     7
 79
     5
170
     0
171
     0
290
     0
174
     0
 93
       13
 44
0.0
173
     0
291
     1
 45
0.0
1001
ACAD
1000
AcDbSavedByObjectVersion
1070
     0
  0
VISUALSTYLE
  5
997
102
{ACAD_REACTORS
330
995
102
}
330
995
100
AcDbVisualStyle
  2
FlatWithEdges
 70
     1
 71
     2
 72
     1
 73
     1
 90
        2
 40
-0.6
 41
30.0
 62
     5
 63
     7
 74
     1
 91
        4
 64
     7
 65
   257
 75
     1
175
     1
 42
1.0
 92
        0
 66
   257
 43
1.0
 76
     1
 77
     6
 78
     2
 67
     7
 79
     5
170
     0
171
     0
290
     0
174
     0
 93
       13
 44
0.0
173
     0
291
     1
 45
0.0
1001
ACAD
1000
AcDbSavedByObjectVersion
1070
     0
  0
VISUALSTYLE
  5
998
102
{ACAD_REACTORS
330
995
102
}
330
995
100
AcDbVisualStyle
  2
Gouraud
 70
     2
 71
     2
 72
     2
 73
     1
 90
        2
 40
-0.6
 41
30.0
 62
     5
 63
     7
 74
     0
 91
        4
 64
     7
 65
   257
 75
     1
175
     1
 42
1.0
 92
        0
 66
     7
 43
1.0
 76
     1
 77
     6
 78
     2
 67
     7
 79
     5
170
     0
171
     0
290
     0
174
     0
 93
       13
 44
0.0
173
     0
291
     1
 45
0.0
1001
ACAD
1000
AcDbSavedByObjectVersion
1070
     0
  0
VISUALSTYLE
  5
999
102
{ACAD_REACTORS
330
995
102
}
330
995
100
AcDbVisualStyle
  2
GouraudWithEdges
 70
     3
 71
     2
 72
     2
 73
     1
 90
        2
 40
-0.6
 41
30.0
 62
     5
 63
     7
 74
     1
 91
        4
 64
     7
 65
   257
 75
     1
175
     1
 42
1.0
 92
        0
 66
   257
 43
1.0
 76
     1
 77
     6
 78
     2
 67
     7
 79
     5
170
     0
171
     0
290
     0
174
     0
 93
       13
 44
0.0
173
     0
291
     1
 45
0.0
1001
ACAD
1000
AcDbSavedByObjectVersion
1070
     0
  0
VISUALSTYLE
  5
9A3
102
{ACAD_REACTORS
330
995
102
}
330
995
100
AcDbVisualStyle
  2
Linepattern
 70
    14
 71
     2
 72
     2
 73
     0
 90
        0
 40
-0.6
 41
-30.0
 62
     5
 63
     7
 74
     1
 91
        4
 64
     7
 65
   257
 75
     7
175
     7
 42
1.0
 92
        8
 66
     7
 43
1.0
 76
     1
 77
     6
 78
     2
 67
     7
 79
     5
170
     0
171
     0
290
     0
174
     0
 93
        1
 44
0.0
173
     0
291
     1
 45
0.0
1001
ACAD
1000
AcDbSavedByObjectVersion
1070
     0
  0
VISUALSTYLE
  5
99F
102
{ACAD_REACTORS
330
995
102
}
330
995
100
AcDbVisualStyle
  2
Realistic
 70
     8
 71
     2
 72
     2
 73
     0
 90
        0
 40
-0.6
 41
-30.0
 62
     5
 63
     7
 74
     1
 91
        0
 64
     7
 65
   257
 75
     1
175
     1
 42
1.0
 92
        8
 66
     8
 43
1.0
 76
     1
 77
     6
 78
     2
 67
     7
 79
     5
170
     0
171
     0
290
     0
174
     0
 93
       13
 44
0.0
173
     0
291
     0
 45
0.0
1001
ACAD
1000
AcDbSavedByObjectVersion
1070
     0
  0
VISUALSTYLE
  5
9A2
102
{ACAD_REACTORS
330
995
102
}
330
995
100
AcDbVisualStyle
  2
Thicken
 70
    13
 71
     2
 72
     2
 73
     0
 90
        0
 40
-0.6
 41
-30.0
 62
     5
 63
     7
 74
     1
 91
        4
 64
     7
 65
   257
 75
     1
175
     1
 42
1.0
 92
       12
 66
     7
 43
1.0
 76
     1
 77
     6
 78
     2
 67
     7
 79
     5
170
     0
171
     0
290
     0
174
     0
 93
        1
 44
0.0
173
     0
291
     1
 45
0.0
1001
ACAD
1000
AcDbSavedByObjectVersion
1070
     0
  0
DICTIONARYVAR
  5
A85
102
{ACAD_REACTORS
330
A82
102
}
330
A82
100
DictionaryVariables
280
     0
  1
1:1
  0
DICTIONARYVAR
  5
A84
102
{ACAD_REACTORS
330
A82
102
}
330
A82
100
DictionaryVariables
280
     0
  1
STANDARD
  0
DICTIONARYVAR
  5
A83
102
{ACAD_REACTORS
330
A82
102
}
330
A82
100
DictionaryVariables
280
     0
  1
STANDARD
  0
DICTIONARYVAR
  5
A88
102
{ACAD_REACTORS
330
A82
102
}
330
A82
100
DictionaryVariables
280
     0
  1
1
  0
DICTIONARYVAR
  5
A87
102
{ACAD_REACTORS
330
A82
102
}
330
A82
100
DictionaryVariables
280
     0
  1
0
  0
DICTIONARYVAR
  5
A86
102
{ACAD_REACTORS
330
A82
102
}
330
A82
100
DictionaryVariables
280
     0
  1
127
  0
DICTIONARY
  5
A3B
102
{ACAD_REACTORS
330
A30
102
}
330
A30
100
AcDbDictionary
281
     1
  0
DICTIONARY
  5
A93
330
9D1
100
AcDbDictionary
280
     1
281
     1
  3
ACAD_XREC_ROUNDTRIP
360
A94
  0
DICTIONARY
  5
A91
330
9D0
100
AcDbDictionary
280
     1
281
     1
  3
ACAD_XREC_ROUNDTRIP
360
A92
  0
DICTIONARY
  5
986
330
985
100
AcDbDictionary
280
     1
281
     1
  3
ACAD_XREC_ROUNDTRIP
360
A8E
  3
BUMPTILE
360
988
  3
DIFFUSETILE
360
987
  3
OPACITYTILE
360
98B
  3
REFLECTIONTILE
360
98A
  3
REFRACTIONTILE
360
98C
  3
SPECULARTILE
360
989
  0
DICTIONARY
  5
97E
330
97D
100
AcDbDictionary
280
     1
281
     1
  3
ACAD_XREC_ROUNDTRIP
360
A8D
  3
BUMPTILE
360
980
  3
DIFFUSETILE
360
97F
  3
OPACITYTILE
360
983
  3
REFLECTIONTILE
360
982
  3
REFRACTIONTILE
360
984
  3
SPECULARTILE
360
981
  0
DICTIONARY
  5
98E
330
98D
100
AcDbDictionary
280
     1
281
     1
  3
ACAD_XREC_ROUNDTRIP
360
A8F
  3
BUMPTILE
360
990
  3
DIFFUSETILE
360
98F
  3
OPACITYTILE
360
993
  3
REFLECTIONTILE
360
992
  3
REFRACTIONTILE
360
994
  3
SPECULARTILE
360
991
  0
DICTIONARY
  5
A89
330
9A8
100
AcDbDictionary
280
     1
281
     1
  3
ACAD_ROUNDTRIP_2008_TABLESTYLE_CELLSTYLEMAP
360
A8A
  3
ACAD_XREC_ROUNDTRIP
360
A90
  0
XRECORD
  5
A94
102
{ACAD_REACTORS
330
A93
102
}
330
A93
100
AcDbXrecord
280
     1
102
SHADEPLOT
 70
     0
102
SHADEPLOTRESLEVEL
 70
     2
102
SHADEPLOTCUSTOMDPI
 70
   300
  0
XRECORD
  5
A92
102
{ACAD_REACTORS
330
A91
102
}
330
A91
100
AcDbXrecord
280
     1
102
SHADEPLOT
 70
     0
102
SHADEPLOTRESLEVEL
 70
     2
102
SHADEPLOTCUSTOMDPI
 70
   300
  0
XRECORD
  5
A8E
102
{ACAD_REACTORS
330
986
102
}
330
986
100
AcDbXrecord
280
     1
102
MATERIAL
148
0.0
149
0.0
149
0.0
 93
        0
 94
      127
282
     0
 72
     0
 77
     0
171
     0
175
     0
179
     0
273
     0
  0
XRECORD
  5
988
102
{ACAD_REACTORS
330
986
102
}
330
986
100
AcDbXrecord
280
     1
270
     1
271
     1
  0
XRECORD
  5
987
102
{ACAD_REACTORS
330
986
102
}
330
986
100
AcDbXrecord
280
     1
270
     1
271
     1
  0
XRECORD
  5
98B
102
{ACAD_REACTORS
330
986
102
}
330
986
100
AcDbXrecord
280
     1
270
     1
271
     1
  0
XRECORD
  5
98A
102
{ACAD_REACTORS
330
986
102
}
330
986
100
AcDbXrecord
280
     1
270
     1
271
     1
  0
XRECORD
  5
98C
102
{ACAD_REACTORS
330
986
102
}
330
986
100
AcDbXrecord
280
     1
270
     1
271
     1
  0
XRECORD
  5
989
102
{ACAD_REACTORS
330
986
102
}
330
986
100
AcDbXrecord
280
     1
270
     1
271
     1
  0
XRECORD
  5
A8D
102
{ACAD_REACTORS
330
97E
102
}
330
97E
100
AcDbXrecord
280
     1
102
MATERIAL
148
0.0
149
0.0
149
0.0
 93
        0
 94
      127
282
     0
 72
     0
 77
     0
171
     0
175
     0
179
     0
273
     0
  0
XRECORD
  5
980
102
{ACAD_REACTORS
330
97E
102
}
330
97E
100
AcDbXrecord
280
     1
270
     1
271
     1
  0
XRECORD
  5
97F
102
{ACAD_REACTORS
330
97E
102
}
330
97E
100
AcDbXrecord
280
     1
270
     1
271
     1
  0
XRECORD
  5
983
102
{ACAD_REACTORS
330
97E
102
}
330
97E
100
AcDbXrecord
280
     1
270
     1
271
     1
  0
XRECORD
  5
982
102
{ACAD_REACTORS
330
97E
102
}
330
97E
100
AcDbXrecord
280
     1
270
     1
271
     1
  0
XRECORD
  5
984
102
{ACAD_REACTORS
330
97E
102
}
330
97E
100
AcDbXrecord
280
     1
270
     1
271
     1
  0
XRECORD
  5
981
102
{ACAD_REACTORS
330
97E
102
}
330
97E
100
AcDbXrecord
280
     1
270
     1
271
     1
  0
XRECORD
  5
A8F
102
{ACAD_REACTORS
330
98E
102
}
330
98E
100
AcDbXrecord
280
     1
102
MATERIAL
148
0.0
149
0.0
149
0.0
 93
        0
 94
      127
282
     0
 72
     0
 77
     0
171
     0
175
     0
179
     0
273
     0
  0
XRECORD
  5
990
102
{ACAD_REACTORS
330
98E
102
}
330
98E
100
AcDbXrecord
280
     1
270
     1
271
     1
  0
XRECORD
  5
98F
102
{ACAD_REACTORS
330
98E
102
}
330
98E
100
AcDbXrecord
280
     1
270
     1
271
     1
  0
XRECORD
  5
993
102
{ACAD_REACTORS
330
98E
102
}
330
98E
100
AcDbXrecord
280
     1
270
     1
271
     1
  0
XRECORD
  5
992
102
{ACAD_REACTORS
330
98E
102
}
330
98E
100
AcDbXrecord
280
     1
270
     1
271
     1
  0
XRECORD
  5
994
102
{ACAD_REACTORS
330
98E
102
}
330
98E
100
AcDbXrecord
280
     1
270
     1
271
     1
  0
XRECORD
  5
991
102
{ACAD_REACTORS
330
98E
102
}
330
98E
100
AcDbXrecord
280
     1
270
     1
271
     1
  0
CELLSTYLEMAP
  5
A8A
102
{ACAD_REACTORS
330
A89
102
}
330
A89
100
AcDbCellStyleMap
 90
        3
300
CELLSTYLE
  1
TABLEFORMAT_BEGIN
 90
        5
170
     1
 91
        0
 92
    32768
 62
   257
 93
        1
300
CONTENTFORMAT
  1
CONTENTFORMAT_BEGIN
 90
        0
 91
        0
 92
      512
 93
        0
300

 40
0.0
140
1.0
 94
        5
 62
     0
340
10
144
0.25
309
CONTENTFORMAT_END
171
     0
 94
        0
309
TABLEFORMAT_END
  1
CELLSTYLE_BEGIN
 90
        1
 91
        1
300
_TITLE
309
CELLSTYLE_END
300
CELLSTYLE
  1
TABLEFORMAT_BEGIN
 90
        5
170
     1
 91
        0
 92
        0
 62
   257
 93
        1
300
CONTENTFORMAT
  1
CONTENTFORMAT_BEGIN
 90
        0
 91
        0
 92
      512
 93
        0
300

 40
0.0
140
1.0
 94
        5
 62
     0
340
10
144
0.18
309
CONTENTFORMAT_END
171
     0
 94
        0
309
TABLEFORMAT_END
  1
CELLSTYLE_BEGIN
 90
        2
 91
        1
300
_HEADER
309
CELLSTYLE_END
300
CELLSTYLE
  1
TABLEFORMAT_BEGIN
 90
        5
170
     1
 91
        0
 92
        0
 62
   257
 93
        1
300
CONTENTFORMAT
  1
CONTENTFORMAT_BEGIN
 90
        0
 91
        0
 92
      512
 93
        0
300

 40
0.0
140
1.0
 94
        2
 62
     0
340
10
144
0.18
309
CONTENTFORMAT_END
171
     0
 94
        0
309
TABLEFORMAT_END
  1
CELLSTYLE_BEGIN
 90
        3
 91
        2
300
_DATA
309
CELLSTYLE_END
  0
XRECORD
  5
A90
102
{ACAD_REACTORS
330
A89
102
}
330
A89
100
AcDbXrecord
280
     1
102
ACAD_ROUNDTRIP_PRE2007_TABLESTYLE
 90
      512
 91
        0
  1

 92
      512
 93
        0
  2

 94
      512
 95
        0
  3

  0
ENDSEC
  0
EOF
