  0
SECTION
  2
HEADER
  9
$ACADVER
  1
AC1015
  9
$ACADMAINTVER
 70
    20
  9
$DWGCODEPAGE
  3
ANSI_1252
  9
$INSBASE
 10
0.0
 20
0.0
 30
0.0
  9
$EXTMIN
 10
144.3306642087471
 20
181.8249372540108
 30
-0.00000001
  9
$EXTMAX
 10
466.8779606626067
 20
705.9586537334029
 30
0.00000001
  9
$LIMMIN
 10
0.0
 20
0.0
  9
$LIMMAX
 10
630.0
 20
891.0
  9
$ORTHOMODE
 70
     0
  9
$REGENMODE
 70
     1
  9
$FILLMODE
 70
     1
  9
$QTEXTMODE
 70
     0
  9
$MIRRTEXT
 70
     0
  9
$LTSCALE
 40
3.0
  9
$ATTMODE
 70
     1
  9
$TEXTSIZE
 40
0.2
  9
$TRACEWID
 40
0.05
  9
$TEXTSTYLE
  7
Standard
  9
$CLAYER
  8
0
  9
$CELTYPE
  6
ByLayer
  9
$CECOLOR
 62
   256
  9
$CELTSCALE
 40
1.0
  9
$DISPSILH
 70
     0
  9
$DIMSCALE
 40
1.0
  9
$DIMASZ
 40
1.799999999999999
  9
$DIMEXO
 40
0.0625
  9
$DIMDLI
 40
0.38
  9
$DIMRND
 40
0.0
  9
$DIMDLE
 40
0.0
  9
$DIMEXE
 40
0.18
  9
$DIMTP
 40
0.0
  9
$DIMTM
 40
0.0
  9
$DIMTXT
 40
0.3499999940395355
  9
$DIMCEN
 40
0.09
  9
$DIMTSZ
 40
0.0
  9
$DIMTOL
 70
     0
  9
$DIMLIM
 70
     0
  9
$DIMTIH
 70
     1
  9
$DIMTOH
 70
     1
  9
$DIMSE1
 70
     0
  9
$DIMSE2
 70
     0
  9
$DIMTAD
 70
     0
  9
$DIMZIN
 70
     0
  9
$DIMBLK
  1

  9
$DIMASO
 70
     1
  9
$DIMSHO
 70
     1
  9
$DIMPOST
  1

  9
$DIMAPOST
  1

  9
$DIMALT
 70
     0
  9
$DIMALTD
 70
     2
  9
$DIMALTF
 40
25.4
  9
$DIMLFAC
 40
1.0
  9
$DIMTOFL
 70
     0
  9
$DIMTVP
 40
0.0
  9
$DIMTIX
 70
     0
  9
$DIMSOXD
 70
     0
  9
$DIMSAH
 70
     0
  9
$DIMBLK1
  1

  9
$DIMBLK2
  1

  9
$DIMSTYLE
  2
Standard
  9
$DIMCLRD
 70
     0
  9
$DIMCLRE
 70
     0
  9
$DIMCLRT
 70
     0
  9
$DIMTFAC
 40
1.0
  9
$DIMGAP
 40
0.09
  9
$DIMJUST
 70
     0
  9
$DIMSD1
 70
     0
  9
$DIMSD2
 70
     0
  9
$DIMTOLJ
 70
     1
  9
$DIMTZIN
 70
     0
  9
$DIMALTZ
 70
     0
  9
$DIMALTTZ
 70
     0
  9
$DIMUPT
 70
     0
  9
$DIMDEC
 70
     4
  9
$DIMTDEC
 70
     4
  9
$DIMALTU
 70
     2
  9
$DIMALTTD
 70
     2
  9
$DIMTXSTY
  7
Standard
  9
$DIMAUNIT
 70
     0
  9
$DIMADEC
 70
     0
  9
$DIMALTRND
 40
0.0
  9
$DIMAZIN
 70
     0
  9
$DIMDSEP
 70
    46
  9
$DIMATFIT
 70
     3
  9
$DIMFRAC
 70
     0
  9
$DIMLDRBLK
  1

  9
$DIMLUNIT
 70
     2
  9
$DIMLWD
 70
    -2
  9
$DIMLWE
 70
    -2
  9
$DIMTMOVE
 70
     0
  9
$LUNITS
 70
     2
  9
$LUPREC
 70
     4
  9
$SKETCHINC
 40
0.1
  9
$FILLETRAD
 40
0.0
  9
$AUNITS
 70
     0
  9
$AUPREC
 70
     0
  9
$MENU
  1
.
  9
$ELEVATION
 40
0.0
  9
$PELEVATION
 40
0.0
  9
$THICKNESS
 40
0.0
  9
$LIMCHECK
 70
     0
  9
$CHAMFERA
 40
0.0
  9
$CHAMFERB
 40
0.0
  9
$CHAMFERC
 40
0.0
  9
$CHAMFERD
 40
0.0
  9
$SKPOLY
 70
     0
  9
$TDCREATE
 40
2456219.307603264
  9
$TDUCREATE
 40
2456219.224269931
  9
$TDUPDATE
 40
2456219.388012060
  9
$TDUUPDATE
 40
2456219.304678727
  9
$TDINDWG
 40
0.0001857176
  9
$TDUSRTIMER
 40
0.0001857176
  9
$USRTIMER
 70
     1
  9
$ANGBASE
 50
0.0
  9
$ANGDIR
 70
     0
  9
$PDMODE
 70
     0
  9
$PDSIZE
 40
0.0
  9
$PLINEWID
 40
0.0
  9
$SPLFRAME
 70
     0
  9
$SPLINETYPE
 70
     6
  9
$SPLINESEGS
 70
     8
  9
$HANDSEED
  5
493
  9
$SURFTAB1
 70
     6
  9
$SURFTAB2
 70
     6
  9
$SURFTYPE
 70
     6
  9
$SURFU
 70
     6
  9
$SURFV
 70
     6
  9
$UCSBASE
  2

  9
$UCSNAME
  2

  9
$UCSORG
 10
0.0
 20
0.0
 30
0.0
  9
$UCSXDIR
 10
1.0
 20
0.0
 30
0.0
  9
$UCSYDIR
 10
0.0
 20
1.0
 30
0.0
  9
$UCSORTHOREF
  2

  9
$UCSORTHOVIEW
 70
     0
  9
$UCSORGTOP
 10
0.0
 20
0.0
 30
0.0
  9
$UCSORGBOTTOM
 10
0.0
 20
0.0
 30
0.0
  9
$UCSORGLEFT
 10
0.0
 20
0.0
 30
0.0
  9
$UCSORGRIGHT
 10
0.0
 20
0.0
 30
0.0
  9
$UCSORGFRONT
 10
0.0
 20
0.0
 30
0.0
  9
$UCSORGBACK
 10
0.0
 20
0.0
 30
0.0
  9
$PUCSBASE
  2

  9
$PUCSNAME
  2

  9
$PUCSORG
 10
0.0
 20
0.0
 30
0.0
  9
$PUCSXDIR
 10
1.0
 20
0.0
 30
0.0
  9
$PUCSYDIR
 10
0.0
 20
1.0
 30
0.0
  9
$PUCSORTHOREF
  2

  9
$PUCSORTHOVIEW
 70
     0
  9
$PUCSORGTOP
 10
0.0
 20
0.0
 30
0.0
  9
$PUCSORGBOTTOM
 10
0.0
 20
0.0
 30
0.0
  9
$PUCSORGLEFT
 10
0.0
 20
0.0
 30
0.0
  9
$PUCSORGRIGHT
 10
0.0
 20
0.0
 30
0.0
  9
$PUCSORGFRONT
 10
0.0
 20
0.0
 30
0.0
  9
$PUCSORGBACK
 10
0.0
 20
0.0
 30
0.0
  9
$USERI1
 70
     0
  9
$USERI2
 70
     0
  9
$USERI3
 70
     0
  9
$USERI4
 70
     0
  9
$USERI5
 70
     0
  9
$USERR1
 40
0.0
  9
$USERR2
 40
0.0
  9
$USERR3
 40
0.0
  9
$USERR4
 40
0.0
  9
$USERR5
 40
0.0
  9
$WORLDVIEW
 70
     1
  9
$SHADEDGE
 70
     3
  9
$SHADEDIF
 70
    70
  9
$TILEMODE
 70
     1
  9
$MAXACTVP
 70
    64
  9
$PINSBASE
 10
0.0
 20
0.0
 30
0.0
  9
$PLIMCHECK
 70
     0
  9
$PEXTMIN
 10
0.0
 20
0.0
 30
0.0
  9
$PEXTMAX
 10
630.0
 20
891.0
 30
0.0
  9
$PLIMMIN
 10
0.0
 20
0.0
  9
$PLIMMAX
 10
630.0
 20
891.0
  9
$UNITMODE
 70
     0
  9
$VISRETAIN
 70
     1
  9
$PLINEGEN
 70
     0
  9
$PSLTSCALE
 70
     1
  9
$TREEDEPTH
 70
  3020
  9
$CMLSTYLE
  2
Standard
  9
$CMLJUST
 70
     0
  9
$CMLSCALE
 40
1.0
  9
$PROXYGRAPHICS
 70
     1
  9
$MEASUREMENT
 70
     1
  9
$CELWEIGHT
370
    -1
  9
$ENDCAPS
280
     0
  9
$JOINSTYLE
280
     0
  9
$LWDISPLAY
290
     0
  9
$INSUNITS
 70
     4
  9
$HYPERLINKBASE
  1

  9
$STYLESHEET
  1

  9
$XEDIT
290
     1
  9
$CEPSNTYPE
380
     0
  9
$PSTYLEMODE
290
     1
  9
$FINGERPRINTGUID
  2
{AEC55BE5-2AF7-48B8-873A-B41CC625A710}
  9
$VERSIONGUID
  2
{C724E65C-20CD-4005-AF43-0A30CDA06E1E}
  9
$EXTNAMES
290
     1
  9
$PSVPSCALE
 40
0.0
  9
$OLESTARTUP
290
     0
  0
ENDSEC
  0
SECTION
  2
CLASSES
  0
CLASS
  1
ACDBDICTIONARYWDFLT
  2
AcDbDictionaryWithDefault
  3
ObjectDBX Classes
 90
        0
280
     0
281
     0
  0
CLASS
  1
MATERIAL
  2
AcDbMaterial
  3
ObjectDBX Classes
 90
     1153
280
     0
281
     0
  0
CLASS
  1
VISUALSTYLE
  2
AcDbVisualStyle
  3
ObjectDBX Classes
 90
     4095
280
     0
281
     0
  0
CLASS
  1
SCALE
  2
AcDbScale
  3
ObjectDBX Classes
 90
     1153
280
     0
281
     0
  0
CLASS
  1
TABLESTYLE
  2
AcDbTableStyle
  3
ObjectDBX Classes
 90
     4095
280
     0
281
     0
  0
CLASS
  1
MLEADERSTYLE
  2
AcDbMLeaderStyle
  3
ACDB_MLEADERSTYLE_CLASS
 90
     4095
280
     0
281
     0
  0
CLASS
  1
CELLSTYLEMAP
  2
AcDbCellStyleMap
  3
ObjectDBX Classes
 90
     1152
280
     0
281
     0
  0
CLASS
  1
DICTIONARYVAR
  2
AcDbDictionaryVar
  3
ObjectDBX Classes
 90
        0
280
     0
281
     0
  0
CLASS
  1
ACDBPLACEHOLDER
  2
AcDbPlaceHolder
  3
ObjectDBX Classes
 90
        0
280
     0
281
     0
  0
CLASS
  1
LAYOUT
  2
AcDbLayout
  3
ObjectDBX Classes
 90
        0
280
     0
281
     0
  0
CLASS
  1
ACME_DOCUMENT
  2
AcMeDbDoc
  3
AcMeServices
 90
     1024
280
     0
281
     0
  0
CLASS
  1
AMGSETTINGSOBJ
  2
AmgSettingsObj
  3
"AcadM|Product Description: AutoCAD Mechanical|Company: Autodesk, Inc."
 90
     1024
280
     0
281
     0
  0
CLASS
  1
ACMESCOPE
  2
AcMeScope
  3
AcMeServices
 90
     1024
280
     0
281
     0
  0
CLASS
  1
ACMECOMMANDHISTORY
  2
AcMeCommandHistory
  3
AcMeServices
 90
     1024
280
     0
281
     0
  0
CLASS
  1
ACIMSYSVARMAN
  2
AcImSysVarManager
  3
AcMeServices
 90
     1024
280
     0
281
     0
  0
CLASS
  1
ACIMINTSYSVAR
  2
AcImIntSysVar
  3
AcMeServices
 90
     1024
280
     0
281
     0
  0
CLASS
  1
ACMEDRAWINGMAN
  2
AcMeDrawingMan
  3
AcMeServices
 90
     1024
280
     0
281
     0
  0
CLASS
  1
ACMEVIEW
  2
AcMeView
  3
AcMeServices
 90
     1024
280
     0
281
     0
  0
CLASS
  1
ACDBENTITYCACHE
  2
AcMeEntityCache
  3
AcMeServices
 90
     1024
280
     0
281
     0
  0
CLASS
  1
GSMANAGER
  2
AcMeGSManager
  3
AcMeServices
 90
     1024
280
     0
281
     0
  0
CLASS
  1
AMDTINTERNALREACTOR
  2
AmdtInternalReactor
  3
AcMeServices
 90
     1024
280
     0
281
     0
  0
CLASS
  1
ACMESTATEMGR
  2
AcMeStateMgr
  3
AcMeServices
 90
     1024
280
     0
281
     0
  0
CLASS
  1
ACGREFMASTER
  2
AcGrefMaster
  3
AcAttribServices
 90
     1024
280
     0
281
     0
  0
CLASS
  1
AM_DRAWING_MGR
  2
AcDmDwgMgr
  3
AcMechDwgViewMgmt
 90
     1024
280
     0
281
     0
  0
CLASS
  1
AM_DWG_DOCUMENT
  2
AcDmDwgDocument
  3
AcMechDwgViewMgmt
 90
     1024
280
     0
281
     0
  0
CLASS
  1
AM_DWG_SHEET
  2
AcDmSheet
  3
AcMechDwgViewMgmt
 90
     1024
280
     0
281
     0
  0
CLASS
  1
AM_VIEWDIMPARMAP
  2
AcDmViewDimParMap
  3
AcMechDwgViewMgmt
 90
     1024
280
     0
281
     0
  0
CLASS
  1
ACIMREALSYSVAR
  2
AcImRealSysVar
  3
AcMeServices
 90
     1024
280
     0
281
     0
  0
CLASS
  1
AM_DWGMGR_NAME
  2
AcDmDwgMgrName
  3
AcMechDwgViewMgmt
 90
     1024
280
     0
281
     0
  0
CLASS
  1
ACME_DATABASE
  2
AcMeDbDatabase
  3
AcMeServices
 90
     1024
280
     0
281
     0
  0
CLASS
  1
ACRFINSADJUSTERMGR
  2
AcRfInsAdjusterMgr
  3
AcMeServices
 90
     1024
280
     0
281
     0
  0
CLASS
  1
ACGREFACADMASTER
  2
AcGrefacadMaster
  3
AcGrefServices
 90
     1024
280
     0
281
     0
  0
CLASS
  1
AMDTMENUSTATEMGR
  2
AmdtMenuStateMgr
  3
McadcomServices
 90
     1024
280
     0
281
     0
  0
CLASS
  1
AMDTMCOMMENUSTATE
  2
AmdtMcomMenuState
  3
McadcomServices
 90
     1024
280
     0
281
     0
  0
CLASS
  1
AMIMASTER
  2
AmiMaster
  3
AmiServices
 90
     1024
280
     0
281
     0
  0
CLASS
  1
MAPIAMMOUDLE
  2
MApiAmModule
  3
MApiAmServices
 90
     1024
280
     0
281
     0
  0
CLASS
  1
ACIMSTRSYSVAR
  2
AcImStrSysVar
  3
AcMeServices
 90
     1024
280
     0
281
     0
  0
CLASS
  1
AMDTADMENUSTATE
  2
AmdtAdMenuState
  3
DesignerServices
 90
     1024
280
     0
281
     0
  0
CLASS
  1
ADAPPL
  2
AcAdAppl
  3
DesignerServices
 90
     1024
280
     0
281
     0
  0
CLASS
  1
DEPMGR
  2
AcAdDepMgr
  3
DesignerServices
 90
     1024
280
     0
281
     0
  0
CLASS
  1
PARAMMGR
  2
AcAdParamMgr
  3
DesignerServices
 90
     1024
280
     0
281
     0
  0
CLASS
  1
PARAMSCOPE
  2
AcAdParamScope
  3
DesignerServices
 90
     1024
280
     0
281
     0
  0
CLASS
  1
NAMEDAPPL
  2
AcAdNamedAppl
  3
DesignerServices
 90
     1024
280
     0
281
     0
  0
CLASS
  1
AMDTDMMENUSTATE
  2
AmdtDmMenuState
  3
AcMechDwgViewMgmt
 90
     1024
280
     0
281
     0
  0
CLASS
  1
AMDTAMMENUSTATE
  2
AmdtAmMenuState
  3
DesignerAssemblies
 90
     1024
280
     0
281
     0
  0
CLASS
  1
ACAMPROJECT
  2
AcAmProject
  3
DesignerAssemblies
 90
     1024
280
     0
281
     0
  0
CLASS
  1
ACAMGRCOMPDEF
  2
AcAmGrCompDef
  3
DesignerAssemblies
 90
     1024
280
     0
281
     0
  0
CLASS
  1
ACCMCONTEXT
  2
AcCmContext
  3
DesignerAssemblies
 90
     1024
280
     0
281
     0
  0
CLASS
  1
ACAMCOMPDEF
  2
AcAmCompDef
  3
DesignerAssemblies
 90
     1024
280
     0
281
     0
  0
CLASS
  1
ACAMCOMPDEFMGR
  2
AcAmCompDefMgr
  3
DesignerAssemblies
 90
     1024
280
     0
281
     0
  0
CLASS
  1
AMCONTEXTMGR
  2
AcAmContextMgr
  3
DesignerAssemblies
 90
     1024
280
     0
281
     0
  0
CLASS
  1
ACAMCONTEXTMODELER
  2
AcAmContextModeler
  3
DesignerAssemblies
 90
     1024
280
     0
281
     0
  0
CLASS
  1
ACMDATADICTIONARY
  2
AcmDataDictionary
  3
"AcmSymBB|Product Description: AutoCAD Mechanical|Company: Autodesk, Inc."
 90
     1024
280
     0
281
     0
  0
CLASS
  1
CATALOGSTATE
  2
AcAmCatalogState
  3
DesignerAssemblies
 90
     1024
280
     0
281
     0
  0
CLASS
  1
ACAMGRCOMPDEFSET
  2
AcAmGrCompDefSet
  3
DesignerAssemblies
 90
     1024
280
     0
281
     0
  0
CLASS
  1
AMDTBROWSERDBTAB
  2
AmdtBrowserDbTab
  3
McadcomServices
 90
     1024
280
     0
281
     0
  0
CLASS
  1
CBROWSERAPPOBJECT
  2
CBrowserAppObject
  3
McadcomServices
 90
     1024
280
     0
281
     0
  0
CLASS
  1
DM_PLACEHOLDER
  2
AcDmSelsetPlaceholder
  3
AcMechDwgViewMgmt
 90
     1024
280
     0
281
     0
  0
CLASS
  1
ACMSTANDARDDIN
  2
AcmStandardDIN
  3
"Amdt_StdImp|Product Description: AutoCAD Mechanical|Company: Autodesk, Inc."
 90
     1024
280
     0
281
     0
  0
CLASS
  1
AMDTEDGESTANDARDDIN13715
  2
AmdtEdgeStdDIN13715
  3
"Amdt_StdImp|Product Description: AutoCAD Mechanical|Company: Autodesk, Inc."
 90
     1024
280
     0
281
     0
  0
CLASS
  1
ACMSURFSTANDARDDIN2002
  2
AcmSurfTextStdDIN2002
  3
"Amdt_StdImp|Product Description: AutoCAD Mechanical|Company: Autodesk, Inc."
 90
     1024
280
     0
281
     0
  0
CLASS
  1
ACMFCFSTANDARDDIN
  2
AcmFCFStdDIN
  3
"Amdt_StdImp|Product Description: AutoCAD Mechanical|Company: Autodesk, Inc."
 90
     1024
280
     0
281
     0
  0
CLASS
  1
ACMWELDSTANDARDDIN
  2
AcmWeldingStdDIN
  3
"Amdt_StdImp|Product Description: AutoCAD Mechanical|Company: Autodesk, Inc."
 90
     1024
280
     0
281
     0
  0
CLASS
  1
ACMIDSTANDARDDIN
  2
AcmIdStdDIN
  3
"Amdt_StdImp|Product Description: AutoCAD Mechanical|Company: Autodesk, Inc."
 90
     1024
280
     0
281
     0
  0
CLASS
  1
ACMDATUMSTANDARDDIN
  2
AcmDatumStdDIN
  3
"Amdt_StdImp|Product Description: AutoCAD Mechanical|Company: Autodesk, Inc."
 90
     1024
280
     0
281
     0
  0
CLASS
  1
ACMBOMSTANDARDDIN
  2
AcmBOMStdDIN
  3
"Amdt_StdImp|Product Description: AutoCAD Mechanical|Company: Autodesk, Inc."
 90
     1024
280
     0
281
     0
  0
CLASS
  1
ACMDETAILSTANDARDDIN
  2
AmdtDetailSymStdDIN
  3
"Amdt_StdImp|Product Description: AutoCAD Mechanical|Company: Autodesk, Inc."
 90
     1024
280
     0
281
     0
  0
CLASS
  1
ACMSECTIONSTANDARDDIN
  2
AmdtSectionSymStdDIN
  3
"Amdt_StdImp|Product Description: AutoCAD Mechanical|Company: Autodesk, Inc."
 90
     1024
280
     0
281
     0
  0
CLASS
  1
ACMCENTERLINESTANDARDDIN
  2
AmdtCenterLineStdDIN
  3
"Amdt_StdImp|Product Description: AutoCAD Mechanical|Company: Autodesk, Inc."
 90
     1024
280
     0
281
     0
  0
CLASS
  1
ACMTHREADLINESTANDARDDIN
  2
AmdtThreadLineStdDIN
  3
"Amdt_StdImp|Product Description: AutoCAD Mechanical|Company: Autodesk, Inc."
 90
     1024
280
     0
281
     0
  0
CLASS
  1
ACMNOTESTANDARDDIN
  2
AmdtNoteStdDIN
  3
"Amdt_StdImp|Product Description: AutoCAD Mechanical|Company: Autodesk, Inc."
 90
     1024
280
     0
281
     0
  0
CLASS
  1
ACMTAPERSTANDARDDIN
  2
AcmTaperStdDIN
  3
"Amdt_StdImp|Product Description: AutoCAD Mechanical|Company: Autodesk, Inc."
 90
     1024
280
     0
281
     0
  0
CLASS
  1
ACMANOOTATIONVIEWSTANDARDDIN
  2
AmdtAnViewStdDIN
  3
"Amdt_StdImp|Product Description: AutoCAD Mechanical|Company: Autodesk, Inc."
 90
     1024
280
     0
281
     0
  0
CLASS
  1
ACAMGLAYSTD
  2
AcAmgLayStd
  3
"AmgLay|Product Description: AutoCAD Mechanical|Company: Autodesk, Inc."
 90
     1024
280
     0
281
     0
  0
CLASS
  1
ACAMGDIMSTD
  2
AcAmgDimStd
  3
"AmgDim|Product Description: AutoCAD Mechanical|Company: Autodesk, Inc."
 90
     1024
280
     0
281
     0
  0
CLASS
  1
AMGOBJPROPCFG
  2
AmgObjPropCfg
  3
"AmgLay|Product Description: AutoCAD Mechanical|Company: Autodesk, Inc."
 90
     1025
280
     0
281
     0
  0
CLASS
  1
ACAMGHOLECHARTSTDDIN
  2
AcAmgHoleChartStdDIN
  3
AmgDim|Product Description: AutoCAD Mechanical|Company: Autodesk, Inc.
 90
     1024
280
     0
281
     0
  0
CLASS
  1
ACAMGTITLESTD
  2
AcAmgTitleStd
  3
"AmgTitle|Product Description: AutoCAD Mechanical|Company: Autodesk, Inc."
 90
     4095
280
     0
281
     0
  0
CLASS
  1
AMDTNOTETEMPLATEDB
  2
AmdtNoteTemplateDB
  3
AcmSymBB|Product Description: AutoCAD Mechanical|Company: Autodesk, Inc.
 90
     1024
280
     0
281
     0
  0
CLASS
  1
ACAMGFILTERDAT
  2
AcAmgFilterDat
  3
"AcadM|Product Description: AutoCAD Mechanical|Company: Autodesk, Inc."
 90
     1024
280
     0
281
     0
  0
ENDSEC
  0
SECTION
  2
TABLES
  0
TABLE
  2
VPORT
  5
8
102
{ACAD_XDICTIONARY
360
37D
102
}
330
0
100
AcDbSymbolTable
 70
     1
  0
VPORT
  5
57
330
8
100
AcDbSymbolTableRecord
100
AcDbViewportTableRecord
  2
*Active
 70
     0
 10
0.0
 20
0.0
 11
1.0
 21
1.0
 12
689.7170984455958
 22
445.5
 13
0.0
 23
0.0
 14
1.0
 24
1.0
 15
0.0
 25
0.0
 16
0.0
 26
0.0
 36
1.0
 17
0.0
 27
0.0
 37
0.0
 40
891.0
 41
1.548186528497409
 42
50.0
 43
0.0
 44
0.0
 50
0.0
 51
0.0
 71
     0
 72
   100
 73
     1
 74
     1
 75
     0
 76
     0
 77
     0
 78
     0
281
     0
 65
     1
110
0.0
120
0.0
130
0.0
111
1.0
121
0.0
131
0.0
112
0.0
122
1.0
132
0.0
 79
     0
146
0.0
  0
ENDTAB
  0
TABLE
  2
LTYPE
  5
5
330
0
100
AcDbSymbolTable
 70
    75
  0
LTYPE
  5
5B
330
5
100
AcDbSymbolTableRecord
100
AcDbLinetypeTableRecord
  2
ByBlock
 70
     0
  3

 72
    65
 73
     0
 40
0.0
  0
LTYPE
  5
5C
330
5
100
AcDbSymbolTableRecord
100
AcDbLinetypeTableRecord
  2
ByLayer
 70
     0
  3

 72
    65
 73
     0
 40
0.0
  0
LTYPE
  5
5D
330
5
100
AcDbSymbolTableRecord
100
AcDbLinetypeTableRecord
  2
Continuous
 70
     0
  3
Solid line
 72
    65
 73
     0
 40
0.0
  0
LTYPE
  5
74
330
5
100
AcDbSymbolTableRecord
100
AcDbLinetypeTableRecord
  2
Section_View_Lines
 70
     0
  3
Section View Lines
 72
    65
 73
     4
 40
0.8406
 49
0.6614
 74
     0
 49
-0.0827
 74
     0
 49
0.0138
 74
     0
 49
-0.0827
 74
     0
  0
LTYPE
  5
75
330
5
100
AcDbSymbolTableRecord
100
AcDbLinetypeTableRecord
  2
CHAIN
 70
     0
  3
Chain ____ _ ____ _ ____ _ ____ _ ____ _ ____
 72
    65
 73
     4
 40
0.3543
 49
0.2362
 74
     0
 49
-0.0295
 74
     0
 49
0.0591
 74
     0
 49
-0.0295
 74
     0
  0
LTYPE
  5
76
330
5
100
AcDbSymbolTableRecord
100
AcDbLinetypeTableRecord
  2
DASH_DOT
 70
     0
  3
Dash dot _._._._._._._._._._._._._._._.
 72
    65
 73
     4
 40
0.182
 49
0.1181
 74
     0
 49
-0.0295
 74
     0
 49
0.0049
 74
     0
 49
-0.0295
 74
     0
  0
LTYPE
  5
77
330
5
100
AcDbSymbolTableRecord
100
AcDbLinetypeTableRecord
  2
DASH_DOUBLE_DOT
 70
     0
  3
Dash Double Dot __ __ . __ __ . __ __ . __ _
 72
    65
 73
     6
 40
0.2164
 49
0.1181
 74
     0
 49
-0.0295
 74
     0
 49
0.0049
 74
     0
 49
-0.0295
 74
     0
 49
0.0049
 74
     0
 49
-0.0295
 74
     0
  0
LTYPE
  5
78
330
5
100
AcDbSymbolTableRecord
100
AcDbLinetypeTableRecord
  2
DASH_TRIPLE_DOT
 70
     0
  3
Dash Triple-Dot _ . . . _ . . . _ . . . _
 72
    65
 73
     8
 40
0.2508
 49
0.1181
 74
     0
 49
-0.0295
 74
     0
 49
0.0049
 74
     0
 49
-0.0295
 74
     0
 49
0.0049
 74
     0
 49
-0.0295
 74
     0
 49
0.0049
 74
     0
 49
-0.0295
 74
     0
  0
LTYPE
  5
79
330
5
100
AcDbSymbolTableRecord
100
AcDbLinetypeTableRecord
  2
DASHED
 70
     0
  3
Dashed __ __ __ __ __ __ __ __ __ __ __ __ __ _
 72
    65
 73
     2
 40
0.2068
 49
0.1655
 74
     0
 49
-0.0413
 74
     0
  0
LTYPE
  5
7A
330
5
100
AcDbSymbolTableRecord
100
AcDbLinetypeTableRecord
  2
DASHED_SPACE
 70
     0
  3
Dashed Space __ __ __ __ __ __ __ __ __ __ __ _
 72
    65
 73
     2
 40
0.2067
 49
0.1654
 74
     0
 49
-0.0413
 74
     0
  0
LTYPE
  5
7B
330
5
100
AcDbSymbolTableRecord
100
AcDbLinetypeTableRecord
  2
DOTTED
 70
     0
  3
Dotted . . . . . . . . . . . . . . . . . . . . 
 72
    65
 73
     2
 40
0.0481
 49
0.0068
 74
     0
 49
-0.0413
 74
     0
  0
LTYPE
  5
7C
330
5
100
AcDbSymbolTableRecord
100
AcDbLinetypeTableRecord
  2
DOUBLE_DASH_CHAIN
 70
     0
  3
Double Dash Chain ___ _ _ ___ _ _ ___ _ _ ___ _
 72
    65
 73
     6
 40
1.240299999999999
 49
0.6614
 74
     0
 49
-0.0827
 74
     0
 49
0.1654
 74
     0
 49
-0.0827
 74
     0
 49
0.1654
 74
     0
 49
-0.0827
 74
     0
  0
LTYPE
  5
7D
330
5
100
AcDbSymbolTableRecord
100
AcDbLinetypeTableRecord
  2
DOUBLE_DASH_DOT
 70
     0
  3
Double Dash Dot __ __ . __ __ . __ __ . __ _
 72
    65
 73
     6
 40
0.3296
 49
0.1181
 74
     0
 49
-0.0295
 74
     0
 49
0.1181
 74
     0
 49
-0.0295
 74
     0
 49
0.0049
 74
     0
 49
-0.0295
 74
     0
  0
LTYPE
  5
7E
330
5
100
AcDbSymbolTableRecord
100
AcDbLinetypeTableRecord
  2
DOUBLE_DASH_DOUBLE_DOT
 70
     0
  3
Double Dash Double Dot _ _ . . _ _ . . _ _
 72
    65
 73
     8
 40
0.364
 49
0.1181
 74
     0
 49
-0.0295
 74
     0
 49
0.1181
 74
     0
 49
-0.0295
 74
     0
 49
0.0049
 74
     0
 49
-0.0295
 74
     0
 49
0.0049
 74
     0
 49
-0.0295
 74
     0
  0
LTYPE
  5
7F
330
5
100
AcDbSymbolTableRecord
100
AcDbLinetypeTableRecord
  2
DOUBLE_DASH_TRIPLE_DOT
 70
     0
  3
Double Dash Triple Dot __ __ . . . __ __ . . .
 72
    65
 73
    10
 40
0.3984
 49
0.1181
 74
     0
 49
-0.0295
 74
     0
 49
0.1181
 74
     0
 49
-0.0295
 74
     0
 49
0.0049
 74
     0
 49
-0.0295
 74
     0
 49
0.0049
 74
     0
 49
-0.0295
 74
     0
 49
0.0049
 74
     0
 49
-0.0295
 74
     0
  0
LTYPE
  5
80
330
5
100
AcDbSymbolTableRecord
100
AcDbLinetypeTableRecord
  2
LONG_DASH_DOTTED
 70
     0
  3
Long Dash Dotted ____ . ____ . ____ . ____ . _
 72
    65
 73
     4
 40
0.3001
 49
0.2362
 74
     0
 49
-0.0295
 74
     0
 49
0.0049
 74
     0
 49
-0.0295
 74
     0
  0
LTYPE
  5
81
330
5
100
AcDbSymbolTableRecord
100
AcDbLinetypeTableRecord
  2
LONG_DASH_DOUBLE_DOT
 70
     0
  3
Long Dash Double Dot ____ . . ____ . . ____ . .
 72
    65
 73
     6
 40
0.3345
 49
0.2362
 74
     0
 49
-0.0295
 74
     0
 49
0.0049
 74
     0
 49
-0.0295
 74
     0
 49
0.0049
 74
     0
 49
-0.0295
 74
     0
  0
LTYPE
  5
82
330
5
100
AcDbSymbolTableRecord
100
AcDbLinetypeTableRecord
  2
LONG_DASH_TRIPLE_DOT
 70
     0
  3
Long Dash Triple Dot ____ ... ____ ... ____
 72
    65
 73
     8
 40
0.3689
 49
0.2362
 74
     0
 49
-0.0295
 74
     0
 49
0.0049
 74
     0
 49
-0.0295
 74
     0
 49
0.0049
 74
     0
 49
-0.0295
 74
     0
 49
0.0049
 74
     0
 49
-0.0295
 74
     0
  0
LTYPE
  5
83
330
5
100
AcDbSymbolTableRecord
100
AcDbLinetypeTableRecord
  2
BORDER
 70
     0
  3
Border __ __ . __ __ . __ __ . __ __ . __ __ .
 72
    65
 73
     6
 40
44.45
 49
12.7
 74
     0
 49
-6.349999999999999
 74
     0
 49
12.7
 74
     0
 49
-6.349999999999999
 74
     0
 49
0.0
 74
     0
 49
-6.349999999999999
 74
     0
  0
LTYPE
  5
84
330
5
100
AcDbSymbolTableRecord
100
AcDbLinetypeTableRecord
  2
BORDER2
 70
     0
  3
Border (.5x) __.__.__.__.__.__.__.__.__.__.__.
 72
    65
 73
     6
 40
22.225
 49
6.349999999999999
 74
     0
 49
-3.174999999999999
 74
     0
 49
6.349999999999999
 74
     0
 49
-3.174999999999999
 74
     0
 49
0.0
 74
     0
 49
-3.174999999999999
 74
     0
  0
LTYPE
  5
85
330
5
100
AcDbSymbolTableRecord
100
AcDbLinetypeTableRecord
  2
BORDERX2
 70
     0
  3
Border (2x) ____  ____  .  ____  ____  .  ___
 72
    65
 73
     6
 40
88.9
 49
25.4
 74
     0
 49
-12.7
 74
     0
 49
25.4
 74
     0
 49
-12.7
 74
     0
 49
0.0
 74
     0
 49
-12.7
 74
     0
  0
LTYPE
  5
86
330
5
100
AcDbSymbolTableRecord
100
AcDbLinetypeTableRecord
  2
CENTER
 70
     0
  3
Center ____ _ ____ _ ____ _ ____ _ ____ _ ____
 72
    65
 73
     4
 40
50.8
 49
31.75
 74
     0
 49
-6.349999999999999
 74
     0
 49
6.349999999999999
 74
     0
 49
-6.349999999999999
 74
     0
  0
LTYPE
  5
87
330
5
100
AcDbSymbolTableRecord
100
AcDbLinetypeTableRecord
  2
CENTER2
 70
     0
  3
Center (.5x) ___ _ ___ _ ___ _ ___ _ ___ _ ___
 72
    65
 73
     4
 40
28.575
 49
19.05
 74
     0
 49
-3.174999999999999
 74
     0
 49
3.174999999999999
 74
     0
 49
-3.174999999999999
 74
     0
  0
LTYPE
  5
88
330
5
100
AcDbSymbolTableRecord
100
AcDbLinetypeTableRecord
  2
CENTERX2
 70
     0
  3
Center (2x) ________  __  ________  __  _____
 72
    65
 73
     4
 40
101.6
 49
63.5
 74
     0
 49
-12.7
 74
     0
 49
12.7
 74
     0
 49
-12.7
 74
     0
  0
LTYPE
  5
89
330
5
100
AcDbSymbolTableRecord
100
AcDbLinetypeTableRecord
  2
DASHDOT2
 70
     0
  3
Dash dot (.5x) _._._._._._._._._._._._._._._.
 72
    65
 73
     4
 40
12.7
 49
6.349999999999999
 74
     0
 49
-3.174999999999999
 74
     0
 49
0.0
 74
     0
 49
-3.174999999999999
 74
     0
  0
LTYPE
  5
8A
330
5
100
AcDbSymbolTableRecord
100
AcDbLinetypeTableRecord
  2
DASHDOTX2
 70
     0
  3
Dash dot (2x) ____  .  ____  .  ____  .  ___
 72
    65
 73
     4
 40
50.8
 49
25.4
 74
     0
 49
-12.7
 74
     0
 49
0.0
 74
     0
 49
-12.7
 74
     0
  0
LTYPE
  5
8B
330
5
100
AcDbSymbolTableRecord
100
AcDbLinetypeTableRecord
  2
DASHED2
 70
     0
  3
Dashed (.5x) _ _ _ _ _ _ _ _ _ _ _ _ _ _ _ _ _
 72
    65
 73
     2
 40
9.524999999999998
 49
6.349999999999999
 74
     0
 49
-3.174999999999999
 74
     0
  0
LTYPE
  5
8C
330
5
100
AcDbSymbolTableRecord
100
AcDbLinetypeTableRecord
  2
DASHEDX2
 70
     0
  3
Dashed (2x) ____  ____  ____  ____  ____  ___
 72
    65
 73
     2
 40
38.1
 49
25.4
 74
     0
 49
-12.7
 74
     0
  0
LTYPE
  5
8D
330
5
100
AcDbSymbolTableRecord
100
AcDbLinetypeTableRecord
  2
DIVIDE
 70
     0
  3
Divide ____ . . ____ . . ____ . . ____ . . ____
 72
    65
 73
     6
 40
31.75
 49
12.7
 74
     0
 49
-6.349999999999999
 74
     0
 49
0.0
 74
     0
 49
-6.349999999999999
 74
     0
 49
0.0
 74
     0
 49
-6.349999999999999
 74
     0
  0
LTYPE
  5
8E
330
5
100
AcDbSymbolTableRecord
100
AcDbLinetypeTableRecord
  2
DIVIDE2
 70
     0
  3
Divide (.5x) __..__..__..__..__..__..__..__.._
 72
    65
 73
     6
 40
15.875
 49
6.349999999999999
 74
     0
 49
-3.174999999999999
 74
     0
 49
0.0
 74
     0
 49
-3.174999999999999
 74
     0
 49
0.0
 74
     0
 49
-3.174999999999999
 74
     0
  0
LTYPE
  5
8F
330
5
100
AcDbSymbolTableRecord
100
AcDbLinetypeTableRecord
  2
DIVIDEX2
 70
     0
  3
Divide (2x) ________  .  .  ________  .  .  _
 72
    65
 73
     6
 40
63.49999999999999
 49
25.4
 74
     0
 49
-12.7
 74
     0
 49
0.0
 74
     0
 49
-12.7
 74
     0
 49
0.0
 74
     0
 49
-12.7
 74
     0
  0
LTYPE
  5
90
330
5
100
AcDbSymbolTableRecord
100
AcDbLinetypeTableRecord
  2
DOT
 70
     0
  3
Dot . . . . . . . . . . . . . . . . . . . . . .
 72
    65
 73
     2
 40
6.349999999999999
 49
0.0
 74
     0
 49
-6.349999999999999
 74
     0
  0
LTYPE
  5
91
330
5
100
AcDbSymbolTableRecord
100
AcDbLinetypeTableRecord
  2
DOT2
 70
     0
  3
Dot (.5x) .....................................
 72
    65
 73
     2
 40
3.174999999999999
 49
0.0
 74
     0
 49
-3.174999999999999
 74
     0
  0
LTYPE
  5
92
330
5
100
AcDbSymbolTableRecord
100
AcDbLinetypeTableRecord
  2
DOTX2
 70
     0
  3
Dot (2x) .  .  .  .  .  .  .  .  .  .  .  .  . 
 72
    65
 73
     2
 40
12.7
 49
0.0
 74
     0
 49
-12.7
 74
     0
  0
LTYPE
  5
93
330
5
100
AcDbSymbolTableRecord
100
AcDbLinetypeTableRecord
  2
HIDDEN
 70
     0
  3
Hidden __ __ __ __ __ __ __ __ __ __ __ __ __ _
 72
    65
 73
     2
 40
9.524999999999998
 49
6.349999999999999
 74
     0
 49
-3.174999999999999
 74
     0
  0
LTYPE
  5
94
330
5
100
AcDbSymbolTableRecord
100
AcDbLinetypeTableRecord
  2
HIDDEN2
 70
     0
  3
Hidden (.5x) _ _ _ _ _ _ _ _ _ _ _ _ _ _ _ _ _
 72
    65
 73
     2
 40
4.762499999999999
 49
3.174999999999999
 74
     0
 49
-1.587499999999999
 74
     0
  0
LTYPE
  5
95
330
5
100
AcDbSymbolTableRecord
100
AcDbLinetypeTableRecord
  2
HIDDENX2
 70
     0
  3
Hidden (2x) ____ ____ ____ ____ ____ ____ ____
 72
    65
 73
     2
 40
19.05
 49
12.7
 74
     0
 49
-6.349999999999999
 74
     0
  0
LTYPE
  5
96
330
5
100
AcDbSymbolTableRecord
100
AcDbLinetypeTableRecord
  2
PHANTOM
 70
     0
  3
Phantom ______  __  __  ______  __  __  ______
 72
    65
 73
     6
 40
63.5
 49
31.75
 74
     0
 49
-6.349999999999999
 74
     0
 49
6.349999999999999
 74
     0
 49
-6.349999999999999
 74
     0
 49
6.349999999999999
 74
     0
 49
-6.349999999999999
 74
     0
  0
LTYPE
  5
97
330
5
100
AcDbSymbolTableRecord
100
AcDbLinetypeTableRecord
  2
PHANTOM2
 70
     0
  3
Phantom (.5x) ___ _ _ ___ _ _ ___ _ _ ___ _ _
 72
    65
 73
     6
 40
31.75
 49
15.875
 74
     0
 49
-3.174999999999999
 74
     0
 49
3.174999999999999
 74
     0
 49
-3.174999999999999
 74
     0
 49
3.174999999999999
 74
     0
 49
-3.174999999999999
 74
     0
  0
LTYPE
  5
98
330
5
100
AcDbSymbolTableRecord
100
AcDbLinetypeTableRecord
  2
PHANTOMX2
 70
     0
  3
Phantom (2x) ____________    ____    ____   _
 72
    65
 73
     6
 40
127.0
 49
63.5
 74
     0
 49
-12.7
 74
     0
 49
12.7
 74
     0
 49
-12.7
 74
     0
 49
12.7
 74
     0
 49
-12.7
 74
     0
  0
LTYPE
  5
99
330
5
100
AcDbSymbolTableRecord
100
AcDbLinetypeTableRecord
  2
ACAD_ISO02W100
 70
     0
  3
ISO dash __ __ __ __ __ __ __ __ __ __ __ __ __
 72
    65
 73
     2
 40
15.0
 49
12.0
 74
     0
 49
-3.0
 74
     0
  0
LTYPE
  5
9A
330
5
100
AcDbSymbolTableRecord
100
AcDbLinetypeTableRecord
  2
ACAD_ISO03W100
 70
     0
  3
ISO dash space __    __    __    __    __    __
 72
    65
 73
     2
 40
30.0
 49
12.0
 74
     0
 49
-18.0
 74
     0
  0
LTYPE
  5
9B
330
5
100
AcDbSymbolTableRecord
100
AcDbLinetypeTableRecord
  2
ACAD_ISO04W100
 70
     0
  3
ISO long-dash dot ____ . ____ . ____ . ____ . _
 72
    65
 73
     4
 40
30.0
 49
24.0
 74
     0
 49
-3.0
 74
     0
 49
0.0
 74
     0
 49
-3.0
 74
     0
  0
LTYPE
  5
9C
330
5
100
AcDbSymbolTableRecord
100
AcDbLinetypeTableRecord
  2
ACAD_ISO05W100
 70
     0
  3
ISO long-dash double-dot ____ .. ____ .. ____ .
 72
    65
 73
     6
 40
33.0
 49
24.0
 74
     0
 49
-3.0
 74
     0
 49
0.0
 74
     0
 49
-3.0
 74
     0
 49
0.0
 74
     0
 49
-3.0
 74
     0
  0
LTYPE
  5
9D
330
5
100
AcDbSymbolTableRecord
100
AcDbLinetypeTableRecord
  2
ACAD_ISO06W100
 70
     0
  3
ISO long-dash triple-dot ____ ... ____ ... ____
 72
    65
 73
     8
 40
36.0
 49
24.0
 74
     0
 49
-3.0
 74
     0
 49
0.0
 74
     0
 49
-3.0
 74
     0
 49
0.0
 74
     0
 49
-3.0
 74
     0
 49
0.0
 74
     0
 49
-3.0
 74
     0
  0
LTYPE
  5
9E
330
5
100
AcDbSymbolTableRecord
100
AcDbLinetypeTableRecord
  2
ACAD_ISO07W100
 70
     0
  3
ISO dot . . . . . . . . . . . . . . . . . . . .
 72
    65
 73
     2
 40
3.0
 49
0.0
 74
     0
 49
-3.0
 74
     0
  0
LTYPE
  5
9F
330
5
100
AcDbSymbolTableRecord
100
AcDbLinetypeTableRecord
  2
ACAD_ISO08W100
 70
     0
  3
ISO long-dash short-dash ____ __ ____ __ ____ _
 72
    65
 73
     4
 40
36.0
 49
24.0
 74
     0
 49
-3.0
 74
     0
 49
6.0
 74
     0
 49
-3.0
 74
     0
  0
LTYPE
  5
A0
330
5
100
AcDbSymbolTableRecord
100
AcDbLinetypeTableRecord
  2
ACAD_ISO09W100
 70
     0
  3
ISO long-dash double-short-dash ____ __ __ ____
 72
    65
 73
     6
 40
45.0
 49
24.0
 74
     0
 49
-3.0
 74
     0
 49
6.0
 74
     0
 49
-3.0
 74
     0
 49
6.0
 74
     0
 49
-3.0
 74
     0
  0
LTYPE
  5
A1
330
5
100
AcDbSymbolTableRecord
100
AcDbLinetypeTableRecord
  2
ACAD_ISO10W100
 70
     0
  3
ISO dash dot __ . __ . __ . __ . __ . __ . __ .
 72
    65
 73
     4
 40
18.0
 49
12.0
 74
     0
 49
-3.0
 74
     0
 49
0.0
 74
     0
 49
-3.0
 74
     0
  0
LTYPE
  5
A2
330
5
100
AcDbSymbolTableRecord
100
AcDbLinetypeTableRecord
  2
ACAD_ISO11W100
 70
     0
  3
ISO double-dash dot __ __ . __ __ . __ __ . __ 
 72
    65
 73
     6
 40
33.0
 49
12.0
 74
     0
 49
-3.0
 74
     0
 49
12.0
 74
     0
 49
-3.0
 74
     0
 49
0.0
 74
     0
 49
-3.0
 74
     0
  0
LTYPE
  5
A3
330
5
100
AcDbSymbolTableRecord
100
AcDbLinetypeTableRecord
  2
ACAD_ISO12W100
 70
     0
  3
ISO dash double-dot __ . . __ . . __ . . __ . .
 72
    65
 73
     6
 40
21.0
 49
12.0
 74
     0
 49
-3.0
 74
     0
 49
0.0
 74
     0
 49
-3.0
 74
     0
 49
0.0
 74
     0
 49
-3.0
 74
     0
  0
LTYPE
  5
A4
330
5
100
AcDbSymbolTableRecord
100
AcDbLinetypeTableRecord
  2
ACAD_ISO13W100
 70
     0
  3
ISO double-dash double-dot __ __ . . __ __ . . 
 72
    65
 73
     8
 40
36.0
 49
12.0
 74
     0
 49
-3.0
 74
     0
 49
12.0
 74
     0
 49
-3.0
 74
     0
 49
0.0
 74
     0
 49
-3.0
 74
     0
 49
0.0
 74
     0
 49
-3.0
 74
     0
  0
LTYPE
  5
A5
330
5
100
AcDbSymbolTableRecord
100
AcDbLinetypeTableRecord
  2
ACAD_ISO14W100
 70
     0
  3
ISO dash triple-dot __ . . . __ . . . __ . . . 
 72
    65
 73
     8
 40
24.0
 49
12.0
 74
     0
 49
-3.0
 74
     0
 49
0.0
 74
     0
 49
-3.0
 74
     0
 49
0.0
 74
     0
 49
-3.0
 74
     0
 49
0.0
 74
     0
 49
-3.0
 74
     0
  0
LTYPE
  5
A6
330
5
100
AcDbSymbolTableRecord
100
AcDbLinetypeTableRecord
  2
ACAD_ISO15W100
 70
     0
  3
ISO double-dash triple-dot __ __ . . . __ __ . 
 72
    65
 73
    10
 40
39.0
 49
12.0
 74
     0
 49
-3.0
 74
     0
 49
12.0
 74
     0
 49
-3.0
 74
     0
 49
0.0
 74
     0
 49
-3.0
 74
     0
 49
0.0
 74
     0
 49
-3.0
 74
     0
 49
0.0
 74
     0
 49
-3.0
 74
     0
  0
LTYPE
  5
A9
330
5
100
AcDbSymbolTableRecord
100
AcDbLinetypeTableRecord
  2
FENCELINE1
 70
     0
  3
Fenceline circle ----0-----0----0-----0----0---
 72
    65
 73
     4
 40
36.83
 49
6.349999999999999
 74
     0
 49
-2.54
 74
     4
 75
   133
340
A8
 46
2.54
 50
0.0
 44
-2.54
 45
0.0
 49
-2.54
 74
     0
 49
25.4
 74
     0
  0
LTYPE
  5
AA
330
5
100
AcDbSymbolTableRecord
100
AcDbLinetypeTableRecord
  2
FENCELINE2
 70
     0
  3
Fenceline square ----[]-----[]----[]-----[]----
 72
    65
 73
     4
 40
36.83
 49
6.349999999999999
 74
     0
 49
-2.54
 74
     4
 75
   132
340
A8
 46
2.54
 50
0.0
 44
-2.54
 45
0.0
 49
-2.54
 74
     0
 49
25.4
 74
     0
  0
LTYPE
  5
AB
330
5
100
AcDbSymbolTableRecord
100
AcDbLinetypeTableRecord
  2
TRACKS
 70
     0
  3
Tracks -|-|-|-|-|-|-|-|-|-|-|-|-|-|-|-|-|-|-|-|
 72
    65
 73
     2
 40
7.62
 49
3.81
 74
     4
 75
   130
340
A8
 46
6.349999999999999
 50
0.0
 44
0.0
 45
0.0
 49
3.81
 74
     0
  0
LTYPE
  5
AC
330
5
100
AcDbSymbolTableRecord
100
AcDbLinetypeTableRecord
  2
BATTING
 70
     0
  3
Batting SSSSSSSSSSSSSSSSSSSSSSSSSSSSSSSSSSSSSSS
 72
    65
 73
     4
 40
10.16254
 49
0.00254
 74
     0
 49
-2.54
 74
     4
 75
   134
340
A8
 46
2.54
 50
0.0
 44
-2.54
 45
0.0
 49
-5.08
 74
     4
 75
   134
340
A8
 46
2.54
 50
180.0
 44
2.54
 45
0.0
 49
-2.54
 74
     0
  0
LTYPE
  5
AD
330
5
100
AcDbSymbolTableRecord
100
AcDbLinetypeTableRecord
  2
HOT_WATER_SUPPLY
 70
     0
  3
Hot water supply ---- HW ---- HW ---- HW ----
 72
    65
 73
     3
 40
22.86
 49
12.7
 74
     0
 49
-5.08
 74
     2
 75
     0
340
55
 46
2.54
 50
0.0
 44
-2.54
 45
-1.27
  9
HW
 49
-5.08
 74
     0
  0
LTYPE
  5
AE
330
5
100
AcDbSymbolTableRecord
100
AcDbLinetypeTableRecord
  2
GAS_LINE
 70
     0
  3
Gas line ----GAS----GAS----GAS----GAS----GAS---
 72
    65
 73
     3
 40
24.13
 49
12.7
 74
     0
 49
-5.08
 74
     2
 75
     0
340
55
 46
2.54
 50
0.0
 44
-2.54
 45
-1.27
  9
GAS
 49
-6.349999999999999
 74
     0
  0
LTYPE
  5
AF
330
5
100
AcDbSymbolTableRecord
100
AcDbLinetypeTableRecord
  2
ZIGZAG
 70
     0
  3
Zig zag /\/\/\/\/\/\/\/\/\/\/\/\/\/\/\/\/\/\/\/
 72
    65
 73
     4
 40
20.32254
 49
0.00254
 74
     0
 49
-5.08
 74
     4
 75
   131
340
A8
 46
5.08
 50
0.0
 44
-5.08
 45
0.0
 49
-10.16
 74
     4
 75
   131
340
A8
 46
5.08
 50
180.0
 44
5.08
 45
0.0
 49
-5.08
 74
     0
  0
LTYPE
  5
FC
330
5
100
AcDbSymbolTableRecord
100
AcDbLinetypeTableRecord
  2
CONTINUOUS_ACAD
 70
     0
  3

 72
    65
 73
     0
 40
0.0
  0
LTYPE
  5
44D
330
5
100
AcDbSymbolTableRecord
100
AcDbLinetypeTableRecord
  2
AM_ISO02W050
 70
     0
  3
__ __ __ __ __ __ __ __ __ __ __ __ __ __ __
 72
    65
 73
     2
 40
7.5
 49
6.0
 74
     0
 49
-1.5
 74
     0
  0
LTYPE
  5
44E
330
5
100
AcDbSymbolTableRecord
100
AcDbLinetypeTableRecord
  2
AM_ISO08W050
 70
     0
  3
____ . ____ . ____ . ____ . ____ . ____ . ____
 72
    65
 73
     4
 40
18.0
 49
12.0
 74
     0
 49
-1.5
 74
     0
 49
3.0
 74
     0
 49
-1.5
 74
     0
  0
LTYPE
  5
44F
330
5
100
AcDbSymbolTableRecord
100
AcDbLinetypeTableRecord
  2
AM_ISO09W050
 70
     0
  3
_____ . . _____ . . _____ . . ____ .. ____
 72
    65
 73
     6
 40
22.5
 49
12.0
 74
     0
 49
-1.5
 74
     0
 49
3.0
 74
     0
 49
-1.5
 74
     0
 49
3.0
 74
     0
 49
-1.5
 74
     0
  0
LTYPE
  5
450
330
5
100
AcDbSymbolTableRecord
100
AcDbLinetypeTableRecord
  2
Amconstr
 70
     0
  3
_______________________
 72
    65
 73
     2
 40
9999.0
 49
9999.0
 74
     0
 49
0.0
 74
     0
  0
LTYPE
  5
451
330
5
100
AcDbSymbolTableRecord
100
AcDbLinetypeTableRecord
  2
AM_ISO08W050x2
 70
     0
  3
__ . __ . __ . __ . __ . __
 72
    65
 73
     4
 40
9.0
 49
6.0
 74
     0
 49
-0.75
 74
     0
 49
1.5
 74
     0
 49
-0.75
 74
     0
  0
LTYPE
  5
452
330
5
100
AcDbSymbolTableRecord
100
AcDbLinetypeTableRecord
  2
AM_ISO02W050x2
 70
     0
  3
 _ _ _ _ _ _ _ _ _ _ _ _
 72
    65
 73
     2
 40
3.75
 49
3.0
 74
     0
 49
-0.75
 74
     0
  0
LTYPE
  5
455
330
5
100
AcDbSymbolTableRecord
100
AcDbLinetypeTableRecord
  2
Amzigzag
 70
     0
  3
/\/-/\/-/\/-/\/-/\/-/\/
 72
    65
 73
     2
 40
11.0001
 49
0.0001
 74
     4
 75
   136
340
454
 46
0.04
 50
0.0
 44
0.0
 45
0.0
 49
-11.0
 74
     0
  0
LTYPE
  5
456
330
5
100
AcDbSymbolTableRecord
100
AcDbLinetypeTableRecord
  2
AM_DIN_F_W050
 70
     0
  3
__ __ __ __ __ __ __ __ __ __ __ __ __ __ __
 72
    65
 73
     2
 40
6.25
 49
4.75
 74
     0
 49
-1.5
 74
     0
  0
LTYPE
  5
457
330
5
100
AcDbSymbolTableRecord
100
AcDbLinetypeTableRecord
  2
AM_DIN_G_W050
 70
     0
  3
____ . ____ . ____ . ____ . ____ . ____ . ____
 72
    65
 73
     4
 40
13.75
 49
9.75
 74
     0
 49
-1.5
 74
     0
 49
1.0
 74
     0
 49
-1.5
 74
     0
  0
LTYPE
  5
458
330
5
100
AcDbSymbolTableRecord
100
AcDbLinetypeTableRecord
  2
AM_DIN_K_W050
 70
     0
  3
_____ . . _____ . . _____ . . ____ .. ____
 72
    65
 73
     6
 40
16.25
 49
9.75
 74
     0
 49
-1.5
 74
     0
 49
1.0
 74
     0
 49
-1.5
 74
     0
 49
1.0
 74
     0
 49
-1.5
 74
     0
  0
LTYPE
  5
459
330
5
100
AcDbSymbolTableRecord
100
AcDbLinetypeTableRecord
  2
AM_DIN_G_W050x2
 70
     0
  3
__ . __ . __ . __ . __ . __
 72
    65
 73
     4
 40
6.875
 49
4.75
 74
     0
 49
-0.875
 74
     0
 49
0.375
 74
     0
 49
-0.875
 74
     0
  0
LTYPE
  5
45A
330
5
100
AcDbSymbolTableRecord
100
AcDbLinetypeTableRecord
  2
AM_DIN_F_W050x2
 70
     0
  3
 _ _ _ _ _ _ _ _ _ _ _ _
 72
    65
 73
     2
 40
3.125
 49
2.25
 74
     0
 49
-0.875
 74
     0
  0
LTYPE
  5
469
330
5
100
AcDbSymbolTableRecord
100
AcDbLinetypeTableRecord
  2
ACDINWELD
 70
     0
  3
_ _ _ _ _
 72
    65
 73
     2
 40
2.0
 49
2.0
 74
     0
 49
-1.0
 74
     0
  0
LTYPE
  5
46A
330
5
100
AcDbSymbolTableRecord
100
AcDbLinetypeTableRecord
  2
ACDINTGB
 70
     0
  3
__ . . __ . .
 72
    65
 73
     6
 40
9.0
 49
4.0
 74
     0
 49
-1.0
 74
     0
 49
1.0
 74
     0
 49
-1.0
 74
     0
 49
1.0
 74
     0
 49
-1.0
 74
     0
  0
LTYPE
  5
46B
330
5
100
AcDbSymbolTableRecord
100
AcDbLinetypeTableRecord
  2
ACDINTGL
 70
     0
  3
_ _ _ _ _
 72
    65
 73
     2
 40
3.0
 49
2.0
 74
     0
 49
-1.0
 74
     0
  0
ENDTAB
  0
TABLE
  2
LAYER
  5
2
330
0
100
AcDbSymbolTable
 70
     6
  0
LAYER
  5
54
330
2
100
AcDbSymbolTableRecord
100
AcDbLayerTableRecord
  2
0
 70
     0
 62
     7
  6
Continuous
370
    -3
390
F
  0
LAYER
  5
BF
330
2
100
AcDbSymbolTableRecord
100
AcDbLayerTableRecord
  2
Bemaßungen(ISO)
 70
     0
 62
     7
  6
Continuous
370
    18
390
F
  0
LAYER
  5
D5
330
2
100
AcDbSymbolTableRecord
100
AcDbLayerTableRecord
  2
Mittelpunktmarkierung(ISO)
 70
     0
 62
     7
  6
Continuous
370
    18
390
F
  0
LAYER
  5
E1
330
2
100
AcDbSymbolTableRecord
100
AcDbLayerTableRecord
  2
Sichtbare Kanten(ISO)
 70
     0
 62
     7
  6
Continuous
370
    35
390
F
  0
LAYER
  5
E6
330
2
100
AcDbSymbolTableRecord
100
AcDbLayerTableRecord
  2
Skizziergeometrie(ISO)
 70
     0
 62
     7
  6
Continuous
370
    35
390
F
  0
LAYER
  5
ED
330
2
100
AcDbSymbolTableRecord
100
AcDbLayerTableRecord
  2
Symbole(ISO)
 70
     0
 62
     7
  6
Continuous
370
    25
390
F
  0
ENDTAB
  0
TABLE
  2
STYLE
  5
3
330
0
100
AcDbSymbolTable
 70
    25
  0
STYLE
  5
55
330
3
100
AcDbSymbolTableRecord
100
AcDbTextStyleTableRecord
  2
Standard
 70
     0
 40
0.0
 41
1.0
 50
0.0
 71
     0
 42
0.2
  3
arial.ttf
  4

1001
ACAD
1000
Arial
1071
      256
  0
STYLE
  5
5A
330
3
100
AcDbSymbolTableRecord
100
AcDbTextStyleTableRecord
  2
Annotative
 70
     0
 40
0.0
 41
1.0
 50
0.0
 71
     0
 42
0.2
  3
txt
  4

1001
AcadAnnotative
1000
AnnotativeData
1002
{
1070
     1
1070
     1
1002
}
  0
STYLE
  5
A8
330
3
100
AcDbSymbolTableRecord
100
AcDbTextStyleTableRecord
  2

 70
     1
 40
0.0
 41
1.0
 50
0.0
 71
     0
 42
0.2
  3
ltypeshp.shx
  4

  0
STYLE
  5
FD
330
3
100
AcDbSymbolTableRecord
100
AcDbTextStyleTableRecord
  2
Aktuell-BSI
 70
     0
 40
0.0
 41
1.0
 50
0.0
 71
     0
 42
0.2
  3
arial.ttf
  4

1001
ACAD
1000
Arial
1071
      256
  0
STYLE
  5
FE
330
3
100
AcDbSymbolTableRecord
100
AcDbTextStyleTableRecord
  2
Aktuell-ISO
 70
     0
 40
0.0
 41
1.0
 50
0.0
 71
     0
 42
0.2
  3
arial.ttf
  4

1001
ACAD
1000
Arial
1071
      256
  0
STYLE
  5
FF
330
3
100
AcDbSymbolTableRecord
100
AcDbTextStyleTableRecord
  2
CUSTOM-BOM Inv
 70
     0
 40
0.0
 41
1.0
 50
0.0
 71
     0
 42
0.2
  3
isocpeur.ttf
  4

1001
ACAD
1000
ISOCPEUR
1071
      256
  0
STYLE
  5
100
330
3
100
AcDbSymbolTableRecord
100
AcDbTextStyleTableRecord
  2
CUSTOM-Datum Inv
 70
     0
 40
0.0
 41
1.0
 50
0.0
 71
     0
 42
0.2
  3
isocpeur.ttf
  4

1001
ACAD
1000
ISOCPEUR
1071
      256
  0
STYLE
  5
101
330
3
100
AcDbSymbolTableRecord
100
AcDbTextStyleTableRecord
  2
CUSTOM-ENGBigText Inv
 70
     0
 40
0.0
 41
1.0
 50
0.0
 71
     0
 42
0.2
  3
isocpeur.ttf
  4

1001
ACAD
1000
ISOCPEUR
1071
      256
  0
STYLE
  5
102
330
3
100
AcDbSymbolTableRecord
100
AcDbTextStyleTableRecord
  2
CUSTOM-ENGByLayer Inv
 70
     0
 40
0.0
 41
1.0
 50
0.0
 71
     0
 42
0.2
  3
ISOCP.shx
  4

  0
STYLE
  5
103
330
3
100
AcDbSymbolTableRecord
100
AcDbTextStyleTableRecord
  2
CUSTOM-TITLE Inv
 70
     0
 40
0.0
 41
1.0
 50
0.0
 71
     0
 42
0.2
  3
ISOCP.shx
  4

  0
STYLE
  5
104
330
3
100
AcDbSymbolTableRecord
100
AcDbTextStyleTableRecord
  2
CUSTOM-TOL Inv
 70
     0
 40
0.0
 41
1.0
 50
0.0
 71
     0
 42
0.2
  3
isocpeur.ttf
  4

1001
ACAD
1000
ISOCPEUR
1071
      256
  0
STYLE
  5
105
330
3
100
AcDbSymbolTableRecord
100
AcDbTextStyleTableRecord
  2
CUSTOM BALLOON Inv
 70
     0
 40
0.0
 41
1.0
 50
0.0
 71
     0
 42
0.2
  3
isocpeur.ttf
  4

1001
ACAD
1000
ISOCPEUR
1071
      256
  0
STYLE
  5
106
330
3
100
AcDbSymbolTableRecord
100
AcDbTextStyleTableRecord
  2
CUSTOM Inv
 70
     0
 40
0.0
 41
1.0
 50
0.0
 71
     0
 42
0.2
  3
isocpeur.ttf
  4

1001
ACAD
1000
ISOCPEUR
1071
      256
  0
STYLE
  5
107
330
3
100
AcDbSymbolTableRecord
100
AcDbTextStyleTableRecord
  2
STANDARD-4
 70
     0
 40
0.0
 41
1.0
 50
0.0
 71
     0
 42
0.2
  3
arial.ttf
  4

1001
ACAD
1000
Arial
1071
      256
  0
STYLE
  5
108
330
3
100
AcDbSymbolTableRecord
100
AcDbTextStyleTableRecord
  2
STANDARD-6
 70
     0
 40
0.0
 41
1.0
 50
0.0
 71
     0
 42
0.2
  3
arial.ttf
  4

1001
ACAD
1000
Arial
1071
      256
  0
STYLE
  5
109
330
3
100
AcDbSymbolTableRecord
100
AcDbTextStyleTableRecord
  2
STANDARD-ISO
 70
     0
 40
0.0
 41
1.0
 50
0.0
 71
     0
 42
0.2
  3
arial.ttf
  4

1001
ACAD
1000
Arial
1071
      256
  0
STYLE
  5
10A
330
3
100
AcDbSymbolTableRecord
100
AcDbTextStyleTableRecord
  2
STANDARD-ISO-2
 70
     0
 40
0.0
 41
1.0
 50
0.0
 71
     0
 42
0.2
  3
arial.ttf
  4

1001
ACAD
1000
Arial
1071
      256
  0
STYLE
  5
10B
330
3
100
AcDbSymbolTableRecord
100
AcDbTextStyleTableRecord
  2
STANDARD-ISONach Layer
 70
     0
 40
0.0
 41
1.0
 50
0.0
 71
     0
 42
0.2
  3
arial.ttf
  4

1001
ACAD
1000
Arial
1071
      256
  0
STYLE
  5
10C
330
3
100
AcDbSymbolTableRecord
100
AcDbTextStyleTableRecord
  2
STANDARD-Stueckliste
 70
     0
 40
0.0
 41
1.0
 50
0.0
 71
     0
 42
0.2
  3
arial.ttf
  4

1001
ACAD
1000
Arial
1071
      256
  0
STYLE
  5
10D
330
3
100
AcDbSymbolTableRecord
100
AcDbTextStyleTableRecord
  2
STANDARD-StuecklisteNach Layer
 70
     0
 40
0.0
 41
1.0
 50
0.0
 71
     0
 42
0.2
  3
arial.ttf
  4

1001
ACAD
1000
Arial
1071
      256
  0
STYLE
  5
10E
330
3
100
AcDbSymbolTableRecord
100
AcDbTextStyleTableRecord
  2
STANDARDGroßer Text
 70
     0
 40
0.0
 41
1.0
 50
0.0
 71
     0
 42
0.2
  3
arial.ttf
  4

1001
ACAD
1000
Arial
1071
      256
  0
STYLE
  5
10F
330
3
100
AcDbSymbolTableRecord
100
AcDbTextStyleTableRecord
  2
STANDARDNach Layer
 70
     0
 40
0.0
 41
1.0
 50
0.0
 71
     0
 42
0.2
  3
arial.ttf
  4

1001
ACAD
1000
Arial
1071
      256
  0
STYLE
  5
454
330
3
100
AcDbSymbolTableRecord
100
AcDbTextStyleTableRecord
  2

 70
     1
 40
0.0
 41
1.0
 50
0.0
 71
     0
 42
0.2
  3
genltshp.shx
  4

  0
STYLE
  5
467
330
3
100
AcDbSymbolTableRecord
100
AcDbTextStyleTableRecord
  2
ACDINTS
 70
     0
 40
1.0
 41
1.0
 50
0.0
 71
     0
 42
0.2
  3
isocp.shx
  4

  0
STYLE
  5
468
330
3
100
AcDbSymbolTableRecord
100
AcDbTextStyleTableRecord
  2
ACDINGDT
 70
     0
 40
0.0
 41
1.0
 50
0.0
 71
     0
 42
0.2
  3
amgdt.shx
  4

  0
ENDTAB
  0
TABLE
  2
VIEW
  5
6
330
0
100
AcDbSymbolTable
 70
     0
  0
ENDTAB
  0
TABLE
  2
UCS
  5
7
330
0
100
AcDbSymbolTable
 70
     0
  0
ENDTAB
  0
TABLE
  2
APPID
  5
9
330
0
100
AcDbSymbolTable
 70
    15
  0
APPID
  5
56
330
9
100
AcDbSymbolTableRecord
100
AcDbRegAppTableRecord
  2
ACAD
 70
     0
  0
APPID
  5
5E
330
9
100
AcDbSymbolTableRecord
100
AcDbRegAppTableRecord
  2
AcadAnnotative
 70
     0
  0
APPID
  5
15B
330
9
100
AcDbSymbolTableRecord
100
AcDbRegAppTableRecord
  2
AcadAnnoPO
 70
     0
  0
APPID
  5
3B3
330
9
100
AcDbSymbolTableRecord
100
AcDbRegAppTableRecord
  2
ACAD_MLEADERVER
 70
     0
  0
APPID
  5
3D9
330
9
100
AcDbSymbolTableRecord
100
AcDbRegAppTableRecord
  2
MCAD_NO_VIS
 70
     0
  0
APPID
  5
3DA
330
9
100
AcDbSymbolTableRecord
100
AcDbRegAppTableRecord
  2
ACAD_TEMP_GRAPHIC
 70
     0
  0
APPID
  5
409
330
9
100
AcDbSymbolTableRecord
100
AcDbRegAppTableRecord
  2
AD_DRAW
 70
     0
  0
APPID
  5
40C
330
9
100
AcDbSymbolTableRecord
100
AcDbRegAppTableRecord
  2
ACATTRIBSERVICES
 70
     0
  0
APPID
  5
42D
330
9
100
AcDbSymbolTableRecord
100
AcDbRegAppTableRecord
  2
DESIGNERASSEMBLIES
 70
     0
  0
APPID
  5
433
330
9
100
AcDbSymbolTableRecord
100
AcDbRegAppTableRecord
  2
ACADM_DIM_EDIT
 70
     0
  0
APPID
  5
434
330
9
100
AcDbSymbolTableRecord
100
AcDbRegAppTableRecord
  2
AMDT_DM_ADJ
 70
     0
  0
APPID
  5
48D
330
9
100
AcDbSymbolTableRecord
100
AcDbRegAppTableRecord
  2
ACAD_DSTYLE_DIMJOGGED_JOGANGLE_SYMBOL
 70
     0
  0
APPID
  5
48E
330
9
100
AcDbSymbolTableRecord
100
AcDbRegAppTableRecord
  2
ACAD_DSTYLE_DIM_LINETYPE
 70
     0
  0
APPID
  5
48F
330
9
100
AcDbSymbolTableRecord
100
AcDbRegAppTableRecord
  2
ACAD_DSTYLE_DIM_EXT1_LINETYPE
 70
     0
  0
APPID
  5
490
330
9
100
AcDbSymbolTableRecord
100
AcDbRegAppTableRecord
  2
ACAD_DSTYLE_DIM_EXT2_LINETYPE
 70
     0
  0
ENDTAB
  0
TABLE
  2
DIMSTYLE
  5
A
330
0
100
AcDbSymbolTable
 70
    33
100
AcDbDimStyleTable
 71
     0
  0
DIMSTYLE
105
58
330
A
100
AcDbSymbolTableRecord
100
AcDbDimStyleTableRecord
  2
Standard
 70
     0
340
55
  0
DIMSTYLE
105
59
330
A
100
AcDbSymbolTableRecord
100
AcDbDimStyleTableRecord
  2
Annotative
 70
     0
340
55
1001
AcadAnnotative
1000
AnnotativeData
1002
{
1070
     1
1070
     1
1002
}
  0
DIMSTYLE
105
110
330
A
100
AcDbSymbolTableRecord
100
AcDbDimStyleTableRecord
  2
01-Mayer
 70
     0
 40
3.0
 41
2.5
 42
0.0
 43
10.0
 44
1.0
 45
0.00000001
 46
10.0
 73
     0
 74
     0
 77
     1
 78
     8
 79
     2
140
3.5
143
0.03937
146
0.5714285969734192
147
0.762
171
     3
172
     1
176
     7
177
     7
178
     7
179
     2
271
     2
272
     2
274
     3
278
    44
284
     8
286
     8
340
FD
371
     9
372
     9
  0
DIMSTYLE
105
111
330
A
100
AcDbSymbolTableRecord
100
AcDbDimStyleTableRecord
  2
01-Mayer$7
 70
     0
 40
3.0
 41
2.5
 42
0.0
 43
10.0
 44
1.0
 45
0.00000001
 46
10.0
 73
     0
 74
     0
 77
     1
 78
     8
 79
     2
140
3.5
143
0.03937
146
0.5714285969734192
147
0.762
171
     3
172
     1
176
     7
177
     7
178
     7
179
     2
271
     2
272
     2
274
     3
278
    44
284
     8
286
     8
340
FD
371
    15
372
     9
  0
DIMSTYLE
105
112
330
A
100
AcDbSymbolTableRecord
100
AcDbDimStyleTableRecord
  2
01-Mayer_STANDARD-Stueckliste
 70
     0
 40
3.0
 41
2.5
 42
0.0
 43
10.0
 44
1.0
 45
0.00000001
 46
10.0
 73
     0
 74
     0
 77
     1
 78
     8
 79
     2
140
2.200000047683715
143
0.03937
146
0.9090908765792846
147
0.762
171
     3
172
     1
176
     7
177
     7
178
     7
179
     2
271
     2
272
     2
274
     3
278
    44
284
     8
286
     8
340
10C
371
     9
372
     9
  0
DIMSTYLE
105
113
330
A
100
AcDbSymbolTableRecord
100
AcDbDimStyleTableRecord
  2
01-Mayer_STANDARD-Stueckliste$7
 70
     0
 40
3.0
 41
2.5
 42
0.0
 43
10.0
 44
1.0
 45
0.00000001
 46
10.0
 73
     0
 74
     0
 77
     1
 78
     8
 79
     2
140
2.200000047683715
143
0.03937
146
0.9090908765792846
147
0.762
171
     3
172
     1
176
     7
177
     7
178
     7
179
     2
271
     2
272
     2
274
     3
278
    44
284
     8
286
     8
340
10C
371
    15
372
     9
  0
DIMSTYLE
105
114
330
A
100
AcDbSymbolTableRecord
100
AcDbDimStyleTableRecord
  2
01-MayerGroßer Text
 70
     0
 40
3.0
 41
5.0
 42
0.0
 43
10.0
 44
1.0
 45
0.00000001
 46
10.0
 73
     0
 74
     0
 77
     1
 78
     8
 79
     2
140
5.25
143
0.03937
146
0.380952388048172
147
0.762
171
     3
172
     1
176
     7
177
     7
178
     7
179
     2
271
     2
272
     2
274
     3
278
    44
284
     8
286
     8
340
10E
371
     9
372
     9
  0
DIMSTYLE
105
115
330
A
100
AcDbSymbolTableRecord
100
AcDbDimStyleTableRecord
  2
01-MayerGroßer Text$7
 70
     0
 40
3.0
 41
5.0
 42
0.0
 43
10.0
 44
1.0
 45
0.00000001
 46
10.0
 73
     0
 74
     0
 77
     1
 78
     8
 79
     2
140
5.25
143
0.03937
146
0.380952388048172
147
0.762
171
     3
172
     1
176
     7
177
     7
178
     7
179
     2
271
     2
272
     2
274
     3
278
    44
284
     8
286
     8
340
10E
371
    15
372
     9
  0
DIMSTYLE
105
125
330
A
100
AcDbSymbolTableRecord
100
AcDbDimStyleTableRecord
  2
CUSTOM-BigText Inv
 70
     0
 40
3.0
 41
6.0
 42
1.0
 43
6.999999999999999
 44
2.0
 45
0.00000001
 46
10.0
 73
     0
 74
     0
 77
     1
 78
     8
 79
     2
140
5.0
143
0.03937
147
0.762
171
     4
172
     1
176
     7
177
     7
178
     7
179
     1
271
     1
272
     3
273
     6
274
     4
278
    44
284
     8
286
     8
340
101
341
116
342
116
371
    25
372
    25
  0
DIMSTYLE
105
126
330
A
100
AcDbSymbolTableRecord
100
AcDbDimStyleTableRecord
  2
CUSTOM-BigText Inv$7
 70
     0
 40
3.0
 41
6.0
 42
1.0
 43
6.999999999999999
 44
2.0
 45
0.00000001
 46
10.0
 73
     0
 74
     0
 77
     1
 78
     8
 79
     2
140
5.0
143
0.03937
147
0.762
171
     4
172
     1
176
   100
177
     7
178
     7
179
     1
271
     1
272
     3
273
     6
274
     4
278
    44
284
     8
286
     8
340
101
341
116
342
116
371
    25
372
    25
  0
DIMSTYLE
105
127
330
A
100
AcDbSymbolTableRecord
100
AcDbDimStyleTableRecord
  2
CUSTOM-MACHINING Inv
 70
     0
  4
 in
 40
3.0
 41
3.0
 42
1.0
 43
6.999999999999999
 44
2.0
 45
0.00000001
 46
10.0
 73
     0
 74
     0
 77
     1
 78
     8
 79
     2
140
2.200000047683715
143
0.03937
146
1.363636374473571
147
0.762
171
     4
172
     1
176
     7
177
     7
178
     7
179
     1
271
     3
272
     3
274
     4
278
    44
284
     8
285
    12
286
     8
340
106
341
116
342
116
371
    25
372
    25
  0
DIMSTYLE
105
128
330
A
100
AcDbSymbolTableRecord
100
AcDbDimStyleTableRecord
  2
CUSTOM-MACHINING Inv$7
 70
     0
  4
 in
 40
3.0
 41
3.0
 42
1.0
 43
6.999999999999999
 44
2.0
 45
0.00000001
 46
10.0
 73
     0
 74
     0
 77
     1
 78
     8
 79
     2
140
2.200000047683715
143
0.03937
146
1.363636374473571
147
0.762
171
     4
172
     1
176
     7
177
     7
178
     7
179
     1
271
     3
272
     3
274
     4
278
    44
284
     8
285
    12
286
     8
340
106
341
116
342
116
371
    25
372
    25
  0
DIMSTYLE
105
129
330
A
100
AcDbSymbolTableRecord
100
AcDbDimStyleTableRecord
  2
CUSTOM Inv
 70
     0
 40
3.0
 41
3.0
 42
0.0
 43
8.0
 44
2.0
 45
0.00000001
 46
10.0
 73
     0
 77
     1
 78
     8
 79
     2
140
2.200000047683715
143
0.03937
146
1.136363625526428
147
0.762
171
     4
172
     1
176
     7
177
     7
178
     7
179
     1
271
     2
272
     3
273
     6
274
     4
278
    44
284
     8
286
     8
340
106
341
116
342
116
371
    25
372
    25
  0
DIMSTYLE
105
12A
330
A
100
AcDbSymbolTableRecord
100
AcDbDimStyleTableRecord
  2
CUSTOM Inv$7
 70
     0
 40
3.0
 41
3.0
 42
0.0
 43
8.0
 44
2.0
 45
0.00000001
 46
10.0
 73
     0
 77
     1
 78
     8
 79
     2
140
2.200000047683715
143
0.03937
146
1.136363625526428
147
0.762
171
     4
172
     1
176
     7
177
     7
178
     7
179
     1
271
     2
272
     3
273
     6
274
     4
278
    44
284
     8
286
     8
340
106
341
116
342
116
371
    25
372
    25
  0
DIMSTYLE
105
12B
330
A
100
AcDbSymbolTableRecord
100
AcDbDimStyleTableRecord
  2
Vorlage Module
 70
     0
 40
3.0
 41
3.0
 42
0.0
 43
8.0
 44
2.0
 45
0.00000001
 46
10.0
 73
     0
 77
     1
 78
     8
 79
     2
140
2.200000047683715
143
0.03937
146
1.136363625526428
147
0.762
171
     4
172
     1
176
     5
177
     5
178
     7
179
     1
271
     2
272
     3
273
     6
274
     4
278
    44
284
     8
286
     8
340
106
341
116
342
116
371
     9
372
     9
  0
DIMSTYLE
105
12C
330
A
100
AcDbSymbolTableRecord
100
AcDbDimStyleTableRecord
  2
Vorlage Module$7
 70
     0
 40
3.0
 41
3.0
 42
0.0
 43
8.0
 44
2.0
 45
0.00000001
 46
10.0
 73
     0
 77
     1
 78
     8
 79
     2
140
2.200000047683715
143
0.03937
146
1.136363625526428
147
0.762
171
     4
172
     1
176
     7
177
     5
178
     7
179
     1
271
     2
272
     3
273
     6
274
     4
278
    44
284
     8
286
     8
340
106
341
116
342
116
371
    25
372
     9
  0
DIMSTYLE
105
12D
330
A
100
AcDbSymbolTableRecord
100
AcDbDimStyleTableRecord
  2
02-Mayer-Basis
 70
     0
 40
3.0
 41
2.5
340
55
342
12E
  0
DIMSTYLE
105
135
330
A
100
AcDbSymbolTableRecord
100
AcDbDimStyleTableRecord
  2
03-Mayer-Durchmesser
 70
     0
 40
3.0
 41
2.5
340
55
342
12E
  0
DIMSTYLE
105
136
330
A
100
AcDbSymbolTableRecord
100
AcDbDimStyleTableRecord
  2
04-Mayer-Gewinde
 70
     0
 40
3.0
 41
2.5
340
55
342
12E
  0
DIMSTYLE
105
137
330
A
100
AcDbSymbolTableRecord
100
AcDbDimStyleTableRecord
  2
Führungslinie-Ursprungsindikator(ISO)
 70
     0
 40
3.0
 41
2.5
340
55
342
12E
  0
DIMSTYLE
105
142
330
A
100
AcDbSymbolTableRecord
100
AcDbDimStyleTableRecord
  2
Führungslinie - Bezugsstelle(ISO)
 70
     0
 40
3.0
 41
2.5
340
55
342
12E
  0
DIMSTYLE
105
143
330
A
100
AcDbSymbolTableRecord
100
AcDbDimStyleTableRecord
  2
Führungslinie - Punkt(ISO)
 70
     0
 40
3.0
 41
2.5
340
55
342
12E
  0
DIMSTYLE
105
144
330
A
100
AcDbSymbolTableRecord
100
AcDbDimStyleTableRecord
  2
Führungslinie(ISO)
 70
     0
 40
3.0
 41
2.5
340
55
342
12E
  0
DIMSTYLE
105
145
330
A
100
AcDbSymbolTableRecord
100
AcDbDimStyleTableRecord
  2
Leader-Datum Inv
 70
     0
 40
3.0
 41
3.0
340
55
342
12E
  0
DIMSTYLE
105
146
330
A
100
AcDbSymbolTableRecord
100
AcDbDimStyleTableRecord
  2
Leader-Dot Inv
 70
     0
 40
3.0
 41
3.0
340
55
342
12E
  0
DIMSTYLE
105
147
330
A
100
AcDbSymbolTableRecord
100
AcDbDimStyleTableRecord
  2
Leader-OriginIndicator
 70
     0
 40
3.0
 41
3.0
340
55
342
12E
  0
DIMSTYLE
105
44B
102
{ACAD_REACTORS
330
43A
102
}
330
A
100
AcDbSymbolTableRecord
100
AcDbDimStyleTableRecord
  2
AM_DIN
 70
     0
  4
"
 41
3.5
 42
1.0
 43
10.0
 44
1.0
 47
0.1
 48
0.1
 73
     0
 74
     0
 77
     1
 78
     8
 79
     2
140
3.5
141
0.0
143
0.0393701
146
0.71
147
1.5
172
     1
176
   256
177
   256
178
     2
271
     2
272
     3
274
     4
283
     0
284
     8
340
55
371
    -1
372
    -1
1001
ACAD_DSTYLE_DIMJOGGED_JOGANGLE_SYMBOL
1070
   384
1040
1.570796326794896
1001
ACAD_DSTYLE_DIM_LINETYPE
1070
   380
1005
5B
1001
ACAD_DSTYLE_DIM_EXT1_LINETYPE
1070
   381
1005
5B
1001
ACAD_DSTYLE_DIM_EXT2_LINETYPE
1070
   382
1005
5B
  0
DIMSTYLE
105
45B
330
A
100
AcDbSymbolTableRecord
100
AcDbDimStyleTableRecord
  2
AM_DIN$3
 70
     0
  4
"
 41
3.5
 42
1.0
 43
10.0
 44
1.0
 47
0.1
 48
0.1
 73
     0
 77
     1
 78
     8
 79
     2
140
3.5
141
0.0
143
0.0393701
146
0.71
147
1.5
176
   256
177
   256
178
     2
271
     2
272
     3
274
     4
283
     0
284
     8
288
     1
289
     0
340
55
371
    -1
372
    -1
1001
ACAD_DSTYLE_DIMJOGGED_JOGANGLE_SYMBOL
1070
   384
1040
1.570796326794896
1001
ACAD_DSTYLE_DIM_LINETYPE
1070
   380
1005
5B
1001
ACAD_DSTYLE_DIM_EXT1_LINETYPE
1070
   381
1005
5B
1001
ACAD_DSTYLE_DIM_EXT2_LINETYPE
1070
   382
1005
5B
  0
DIMSTYLE
105
45C
330
A
100
AcDbSymbolTableRecord
100
AcDbDimStyleTableRecord
  2
AM_DIN$4
 70
     0
  4
"
 41
3.5
 42
1.0
 43
10.0
 44
1.0
 47
0.1
 48
0.1
 73
     0
 77
     1
 78
     8
 79
     2
140
3.5
141
0.0
143
0.0393701
146
0.71
147
1.5
176
   256
177
   256
178
     2
271
     2
272
     3
274
     4
283
     0
284
     8
288
     1
289
     0
340
55
371
    -1
372
    -1
1001
ACAD_DSTYLE_DIMJOGGED_JOGANGLE_SYMBOL
1070
   384
1040
1.570796326794896
1001
ACAD_DSTYLE_DIM_LINETYPE
1070
   380
1005
5B
1001
ACAD_DSTYLE_DIM_EXT1_LINETYPE
1070
   381
1005
5B
1001
ACAD_DSTYLE_DIM_EXT2_LINETYPE
1070
   382
1005
5B
  0
DIMSTYLE
105
45D
330
A
100
AcDbSymbolTableRecord
100
AcDbDimStyleTableRecord
  2
AM_DIN$6
 70
     0
  4
"
 41
3.5
 42
1.0
 43
10.0
 44
1.0
 47
0.1
 48
0.1
 73
     0
 74
     0
 78
     8
 79
     2
140
3.5
141
0.0
143
0.0393701
146
0.71
147
1.5
172
     1
176
   256
177
   256
178
     2
271
     2
272
     3
274
     4
283
     0
284
     8
340
55
371
    -1
372
    -1
1001
ACAD_DSTYLE_DIMJOGGED_JOGANGLE_SYMBOL
1070
   384
1040
1.570796326794896
1001
ACAD_DSTYLE_DIM_LINETYPE
1070
   380
1005
5B
1001
ACAD_DSTYLE_DIM_EXT1_LINETYPE
1070
   381
1005
5B
1001
ACAD_DSTYLE_DIM_EXT2_LINETYPE
1070
   382
1005
5B
  0
DIMSTYLE
105
45E
330
A
100
AcDbSymbolTableRecord
100
AcDbDimStyleTableRecord
  2
AM_DIN$7
 70
     0
  4
"
 41
3.5
 42
1.0
 43
10.0
 44
1.0
 47
0.1
 48
0.1
 73
     0
 74
     0
 77
     1
 78
     8
 79
     2
140
3.5
141
0.0
143
0.0393701
146
0.71
147
1.5
172
     1
176
   256
177
   256
178
     2
271
     2
272
     3
274
     4
283
     0
284
     8
340
55
371
    -1
372
    -1
1001
ACAD_DSTYLE_DIMJOGGED_JOGANGLE_SYMBOL
1070
   384
1040
1.570796326794896
1001
ACAD_DSTYLE_DIM_LINETYPE
1070
   380
1005
5B
1001
ACAD_DSTYLE_DIM_EXT1_LINETYPE
1070
   381
1005
5B
1001
ACAD_DSTYLE_DIM_EXT2_LINETYPE
1070
   382
1005
5B
  0
DIMSTYLE
105
45F
330
A
100
AcDbSymbolTableRecord
100
AcDbDimStyleTableRecord
  2
AM_DIN$SF
 70
     0
  4
"
 41
3.5
 42
1.0
 43
10.0
 44
1.0
 47
0.1
 48
0.1
 73
     0
 74
     0
 75
     1
 76
     1
 77
     1
 78
     8
 79
     2
140
3.5
141
0.0
143
0.0393701
146
0.71
147
1.5
172
     1
176
   256
177
   256
178
     2
271
     2
272
     3
274
     4
283
     0
284
     8
340
55
371
    -1
372
    -1
1001
ACAD_DSTYLE_DIMJOGGED_JOGANGLE_SYMBOL
1070
   384
1040
1.570796326794896
1001
ACAD_DSTYLE_DIM_LINETYPE
1070
   380
1005
5B
1001
ACAD_DSTYLE_DIM_EXT1_LINETYPE
1070
   381
1005
5B
1001
ACAD_DSTYLE_DIM_EXT2_LINETYPE
1070
   382
1005
5B
  0
DIMSTYLE
105
464
330
A
100
AcDbSymbolTableRecord
100
AcDbDimStyleTableRecord
  2
AM_DIN$SH
 70
     0
  4
"
 41
3.5
 42
1.0
 43
10.0
 44
1.0
 47
0.1
 48
0.1
 73
     0
 74
     0
 75
     1
 76
     1
 77
     1
 78
     8
 79
     2
140
3.5
141
0.0
143
0.0393701
144
2.0
146
0.71
147
1.5
172
     1
173
     1
176
   256
177
   256
178
     2
271
     2
272
     3
274
     4
283
     0
284
     8
340
55
343
460
371
    -1
372
    -1
1001
ACAD_DSTYLE_DIMJOGGED_JOGANGLE_SYMBOL
1070
   384
1040
1.570796326794896
1001
ACAD_DSTYLE_DIM_LINETYPE
1070
   380
1005
5B
1001
ACAD_DSTYLE_DIM_EXT1_LINETYPE
1070
   381
1005
5B
1001
ACAD_DSTYLE_DIM_EXT2_LINETYPE
1070
   382
1005
5B
  0
ENDTAB
  0
TABLE
  2
BLOCK_RECORD
  5
1
330
0
100
AcDbSymbolTable
 70
    20
  0
BLOCK_RECORD
  5
6C
330
1
100
AcDbSymbolTableRecord
100
AcDbBlockTableRecord
  2
*Model_Space
340
6F
  0
BLOCK_RECORD
  5
68
330
1
100
AcDbSymbolTableRecord
100
AcDbBlockTableRecord
  2
*Paper_Space
340
6B
  0
BLOCK_RECORD
  5
70
330
1
100
AcDbSymbolTableRecord
100
AcDbBlockTableRecord
  2
*Paper_Space0
340
73
  0
BLOCK_RECORD
  5
116
330
1
100
AcDbSymbolTableRecord
100
AcDbBlockTableRecord
  2
Filled-1
340
0
  0
BLOCK_RECORD
  5
12E
330
1
100
AcDbSymbolTableRecord
100
AcDbBlockTableRecord
  2
_Closed
340
0
  0
BLOCK_RECORD
  5
138
330
1
100
AcDbSymbolTableRecord
100
AcDbBlockTableRecord
  2
DatumFilled45
340
0
  0
BLOCK_RECORD
  5
148
330
1
100
AcDbSymbolTableRecord
100
AcDbBlockTableRecord
  2
Darstellung
340
0
  0
BLOCK_RECORD
  5
154
330
1
100
AcDbSymbolTableRecord
100
AcDbBlockTableRecord
  2
Eckfase links oben
340
0
  0
BLOCK_RECORD
  5
15C
330
1
100
AcDbSymbolTableRecord
100
AcDbBlockTableRecord
  2
Eckfase links unten
340
0
  0
BLOCK_RECORD
  5
162
330
1
100
AcDbSymbolTableRecord
100
AcDbBlockTableRecord
  2
Eckfase rechts oben
340
0
  0
BLOCK_RECORD
  5
168
330
1
100
AcDbSymbolTableRecord
100
AcDbBlockTableRecord
  2
Eckfase rechts unten
340
0
  0
BLOCK_RECORD
  5
16E
330
1
100
AcDbSymbolTableRecord
100
AcDbBlockTableRecord
  2
Kanten gebrochen
340
0
  0
BLOCK_RECORD
  5
173
330
1
100
AcDbSymbolTableRecord
100
AcDbBlockTableRecord
  2
Kanten gebrochen - lackiert RAL
340
0
  0
BLOCK_RECORD
  5
177
330
1
100
AcDbSymbolTableRecord
100
AcDbBlockTableRecord
  2
Kanten gebrochen - eloxiert natur
340
0
  0
BLOCK_RECORD
  5
17B
330
1
100
AcDbSymbolTableRecord
100
AcDbBlockTableRecord
  2
Kanten gebrochen - eloxiert schwarz
340
0
  0
BLOCK_RECORD
  5
17F
330
1
100
AcDbSymbolTableRecord
100
AcDbBlockTableRecord
  2
Kanten gebrochen - schwarz verzinkt
340
0
  0
BLOCK_RECORD
  5
183
330
1
100
AcDbSymbolTableRecord
100
AcDbBlockTableRecord
  2
Kanten gebrochen - brüniert
340
0
  0
BLOCK_RECORD
  5
187
330
1
100
AcDbSymbolTableRecord
100
AcDbBlockTableRecord
  2
Kegelverhältnis
340
0
  0
BLOCK_RECORD
  5
190
330
1
100
AcDbSymbolTableRecord
100
AcDbBlockTableRecord
  2
Laserkontur
340
0
  0
BLOCK_RECORD
  5
194
330
1
100
AcDbSymbolTableRecord
100
AcDbBlockTableRecord
  2
Brennkontur
340
0
  0
BLOCK_RECORD
  5
460
330
1
100
AcDbSymbolTableRecord
100
AcDbBlockTableRecord
  2
GENAXEH
340
0
  0
ENDTAB
  0
ENDSEC
  0
SECTION
  2
BLOCKS
  0
BLOCK
  5
6D
330
6C
100
AcDbEntity
  8
0
100
AcDbBlockBegin
  2
*Model_Space
 70
     0
 10
0.0
 20
0.0
 30
0.0
  3
*Model_Space
  1

  0
ENDBLK
  5
6E
330
6C
100
AcDbEntity
  8
0
100
AcDbBlockEnd
  0
BLOCK
  5
69
330
68
100
AcDbEntity
 67
     1
  8
0
100
AcDbBlockBegin
  2
*Paper_Space
 70
     0
 10
0.0
 20
0.0
 30
0.0
  3
*Paper_Space
  1

  0
ENDBLK
  5
6A
330
68
100
AcDbEntity
 67
     1
  8
0
100
AcDbBlockEnd
  0
BLOCK
  5
71
330
70
100
AcDbEntity
 67
     1
  8
0
100
AcDbBlockBegin
  2
*Paper_Space0
 70
     0
 10
0.0
 20
0.0
 30
0.0
  3
*Paper_Space0
  1

  0
ENDBLK
  5
72
330
70
100
AcDbEntity
 67
     1
  8
0
100
AcDbBlockEnd
  0
BLOCK
  5
117
330
116
100
AcDbEntity
  8
0
100
AcDbBlockBegin
  2
Filled-1
 70
     0
 10
0.0
 20
0.0
 30
0.0
  3
Filled-1
  1

  0
LINE
  5
119
330
116
100
AcDbEntity
  8
0
 62
     0
100
AcDbLine
 10
-1.0
 20
0.0
 30
0.0
 11
0.0
 21
0.0
 31
0.0
  0
POLYLINE
  5
11B
330
116
100
AcDbEntity
  8
0
 62
     0
100
AcDb2dPolyline
 66
     1
 10
0.0
 20
0.0
 30
0.0
 70
   128
  0
VERTEX
  5
11C
330
11B
100
AcDbEntity
  8
0
 62
     0
100
AcDbVertex
100
AcDb2dVertex
 10
-1.0
 20
-0.1666666666666667
 30
0.0
  0
VERTEX
  5
11D
330
11B
100
AcDbEntity
  8
0
 62
     0
100
AcDbVertex
100
AcDb2dVertex
 10
0.0
 20
0.0
 30
0.0
  0
VERTEX
  5
11F
330
11B
100
AcDbEntity
  8
0
 62
     0
100
AcDbVertex
100
AcDb2dVertex
 10
-1.0
 20
0.1666666666666667
 30
0.0
  0
VERTEX
  5
120
330
11B
100
AcDbEntity
  8
0
 62
     0
100
AcDbVertex
100
AcDb2dVertex
 10
-1.0
 20
-0.1666666666666667
 30
0.0
  0
SEQEND
  5
11E
330
11B
100
AcDbEntity
  8
0
 62
     0
  0
SOLID
  5
121
330
116
100
AcDbEntity
  8
0
 62
     0
100
AcDbTrace
 10
-1.0
 20
-0.1666666666666667
 30
0.0
 11
0.0
 21
0.0
 31
0.0
 12
-1.0
 22
0.1666666666666667
 32
0.0
 13
-1.0
 23
-0.1666666666666667
 33
0.0
  0
LINE
  5
122
330
116
100
AcDbEntity
  8
0
 62
     0
100
AcDbLine
 10
-1.0
 20
-0.1666666666666667
 30
0.0
 11
0.0
 21
0.0
 31
0.0
  0
LINE
  5
123
330
116
100
AcDbEntity
  8
0
 62
     0
100
AcDbLine
 10
0.0
 20
0.0
 30
0.0
 11
-1.0
 21
0.1666666666666667
 31
0.0
  0
LINE
  5
124
330
116
100
AcDbEntity
  8
0
 62
     0
100
AcDbLine
 10
-1.0
 20
0.1666666666666667
 30
0.0
 11
-1.0
 21
-0.1666666666666667
 31
0.0
  0
ENDBLK
  5
118
330
116
100
AcDbEntity
  8
0
100
AcDbBlockEnd
  0
BLOCK
  5
133
330
12E
100
AcDbEntity
  8
0
100
AcDbBlockBegin
  2
_Closed
 70
     0
 10
0.0
 20
0.0
 30
0.0
  3
_Closed
  1

  0
LINE
  5
12F
330
12E
100
AcDbEntity
  8
0
  6
ByBlock
 62
     0
370
    -2
100
AcDbLine
 10
-1.0
 20
0.1666666666666666
 30
0.0
 11
0.0
 21
0.0
 31
0.0
  0
LINE
  5
130
330
12E
100
AcDbEntity
  8
0
  6
ByBlock
 62
     0
370
    -2
100
AcDbLine
 10
0.0
 20
0.0
 30
0.0
 11
-1.0
 21
-0.1666666666666666
 31
0.0
  0
LINE
  5
131
330
12E
100
AcDbEntity
  8
0
  6
ByBlock
 62
     0
370
    -2
100
AcDbLine
 10
-1.0
 20
0.1666666666666666
 30
0.0
 11
-1.0
 21
-0.1666666666666666
 31
0.0
  0
LINE
  5
132
330
12E
100
AcDbEntity
  8
0
  6
ByBlock
 62
     0
370
    -2
100
AcDbLine
 10
0.0
 20
0.0
 30
0.0
 11
-1.0
 21
0.0
 31
0.0
  0
ENDBLK
  5
134
330
12E
100
AcDbEntity
  8
0
100
AcDbBlockEnd
  0
BLOCK
  5
139
330
138
100
AcDbEntity
  8
0
100
AcDbBlockBegin
  2
DatumFilled45
 70
     0
 10
0.0
 20
0.0
 30
0.0
  3
DatumFilled45
  1

  0
POLYLINE
  5
13B
330
138
100
AcDbEntity
  8
0
 62
     0
100
AcDb2dPolyline
 66
     1
 10
0.0
 20
0.0
 30
0.0
 70
   128
  0
VERTEX
  5
13C
330
13B
100
AcDbEntity
  8
0
 62
     0
100
AcDbVertex
100
AcDb2dVertex
 10
0.0
 20
1.0
 30
0.0
  0
VERTEX
  5
13D
330
13B
100
AcDbEntity
  8
0
 62
     0
100
AcDbVertex
100
AcDb2dVertex
 10
0.0
 20
-1.0
 30
0.0
  0
VERTEX
  5
13F
330
13B
100
AcDbEntity
  8
0
 62
     0
100
AcDbVertex
100
AcDb2dVertex
 10
-1.0
 20
0.0
 30
0.0
  0
VERTEX
  5
140
330
13B
100
AcDbEntity
  8
0
 62
     0
100
AcDbVertex
100
AcDb2dVertex
 10
0.0
 20
1.0
 30
0.0
  0
SEQEND
  5
13E
330
13B
100
AcDbEntity
  8
0
 62
     0
  0
SOLID
  5
141
330
138
100
AcDbEntity
  8
0
 62
     0
100
AcDbTrace
 10
0.0
 20
1.0
 30
0.0
 11
0.0
 21
-1.0
 31
0.0
 12
-1.0
 22
0.0
 32
0.0
 13
0.0
 23
1.0
 33
0.0
  0
ENDBLK
  5
13A
330
138
100
AcDbEntity
  8
0
100
AcDbBlockEnd
  0
BLOCK
  5
149
330
148
100
AcDbEntity
  8
0
100
AcDbBlockBegin
  2
Darstellung
 70
     0
 10
0.0
 20
0.0
 30
0.0
  3
Darstellung
  1

  0
CIRCLE
  5
14B
330
148
100
AcDbEntity
  8
Skizziergeometrie(ISO)
100
AcDbCircle
 10
7.67419947530552
 20
0.0
 30
0.0
 40
5.000000000000012
  0
CIRCLE
  5
14C
330
148
100
AcDbEntity
  8
Skizziergeometrie(ISO)
100
AcDbCircle
 10
7.67419947530552
 20
0.0
 30
0.0
 40
2.000000000000001
  0
LINE
  5
14D
330
148
100
AcDbEntity
  8
Skizziergeometrie(ISO)
100
AcDbLine
 10
-0.9362943917628641
 20
5.0
 30
0.0
 11
-12.67419947530548
 21
1.999999999999992
 31
0.0
  0
LINE
  5
14E
330
148
100
AcDbEntity
  8
Skizziergeometrie(ISO)
100
AcDbLine
 10
-12.67419947530548
 20
1.999999999999992
 30
0.0
 11
-12.67419947530548
 21
-1.999999999999992
 31
0.0
  0
LINE
  5
14F
330
148
100
AcDbEntity
  8
Skizziergeometrie(ISO)
100
AcDbLine
 10
-12.67419947530548
 20
-1.999999999999992
 30
0.0
 11
-0.9362943917628641
 21
-5.0
 31
0.0
  0
LINE
  5
150
330
148
100
AcDbEntity
  8
Skizziergeometrie(ISO)
100
AcDbLine
 10
-0.9362943917628641
 20
-5.0
 30
0.0
 11
-0.9362943917628641
 21
5.0
 31
0.0
  0
LINE
  5
151
330
148
100
AcDbEntity
  8
Skizziergeometrie(ISO)
  6
CHAIN
 48
11.0432825088501
100
AcDbLine
 10
-12.67419947530548
 20
0.0
 30
0.0
 11
-0.9362943917628641
 21
0.0
 31
0.0
  0
LINE
  5
152
330
148
100
AcDbEntity
  8
Skizziergeometrie(ISO)
  6
CHAIN
 48
9.408223152160644
100
AcDbLine
 10
2.67419947530552
 20
0.0
 30
0.0
 11
12.67419947530552
 21
0.0
 31
0.0
  0
LINE
  5
153
330
148
100
AcDbEntity
  8
Skizziergeometrie(ISO)
  6
CHAIN
 48
9.408223152160644
100
AcDbLine
 10
7.67419947530552
 20
5.0
 30
0.0
 11
7.67419947530552
 21
-5.0
 31
0.0
  0
ENDBLK
  5
14A
330
148
100
AcDbEntity
  8
0
100
AcDbBlockEnd
  0
BLOCK
  5
155
330
154
100
AcDbEntity
  8
0
100
AcDbBlockBegin
  2
Eckfase links oben
 70
     2
 10
0.0
 20
0.0
 30
0.0
  3
Eckfase links oben
  1

  0
LINE
  5
157
330
154
100
AcDbEntity
  8
Bemaßungen(ISO)
100
AcDbLine
 10
0.0
 20
6.0
 30
0.0
 11
0.0
 21
0.0
 31
0.0
  0
LINE
  5
158
330
154
100
AcDbEntity
  8
Bemaßungen(ISO)
100
AcDbLine
 10
0.0
 20
0.0
 30
0.0
 11
6.0
 21
0.0
 31
0.0
  0
ATTDEF
  5
159
102
{ACAD_XDICTIONARY
360
36B
102
}
330
154
100
AcDbEntity
  8
Symbole(ISO)
 62
     7
100
AcDbText
 10
0.6889495169699435
 20
1.483628880501932
 30
0.0
 40
2.000000029802322
  1
+0,2
  7
STANDARD-ISO-2
100
AcDbAttributeDefinition
  3
Wert
  2
Wert_001
 70
     0
  0
ENDBLK
  5
156
330
154
100
AcDbEntity
  8
0
100
AcDbBlockEnd
  0
BLOCK
  5
15D
330
15C
100
AcDbEntity
  8
0
100
AcDbBlockBegin
  2
Eckfase links unten
 70
     2
 10
0.0
 20
0.0
 30
0.0
  3
Eckfase links unten
  1

  0
LINE
  5
15F
330
15C
100
AcDbEntity
  8
Bemaßungen(ISO)
100
AcDbLine
 10
0.0
 20
0.0
 30
0.0
 11
0.0
 21
-6.0
 31
0.0
  0
LINE
  5
160
330
15C
100
AcDbEntity
  8
Bemaßungen(ISO)
100
AcDbLine
 10
0.0
 20
0.0
 30
0.0
 11
6.0
 21
0.0
 31
0.0
  0
ATTDEF
  5
161
102
{ACAD_XDICTIONARY
360
36E
102
}
330
15C
100
AcDbEntity
  8
Symbole(ISO)
 62
     7
100
AcDbText
 10
0.6889495169699432
 20
-3.516371119498068
 30
0.0
 40
2.000000029802322
  1
+0,2
  7
STANDARD-ISO-2
100
AcDbAttributeDefinition
  3
Wert
  2
Wert_001
 70
     0
  0
ENDBLK
  5
15E
330
15C
100
AcDbEntity
  8
0
100
AcDbBlockEnd
  0
BLOCK
  5
163
330
162
100
AcDbEntity
  8
0
100
AcDbBlockBegin
  2
Eckfase rechts oben
 70
     2
 10
0.0
 20
0.0
 30
0.0
  3
Eckfase rechts oben
  1

  0
LINE
  5
165
330
162
100
AcDbEntity
  8
Bemaßungen(ISO)
100
AcDbLine
 10
0.0
 20
6.0
 30
0.0
 11
0.0
 21
0.0
 31
0.0
  0
LINE
  5
166
330
162
100
AcDbEntity
  8
Bemaßungen(ISO)
100
AcDbLine
 10
0.0
 20
0.0
 30
0.0
 11
-6.0
 21
0.0
 31
0.0
  0
ATTDEF
  5
167
102
{ACAD_XDICTIONARY
360
371
102
}
330
162
100
AcDbEntity
  8
Symbole(ISO)
 62
     7
100
AcDbText
 10
-6.221009658842373
 20
1.483628880501932
 30
0.0
 40
2.000000029802322
  1
+0,2
  7
STANDARD-ISO-2
100
AcDbAttributeDefinition
  3
Wert
  2
Wert_001
 70
     0
  0
ENDBLK
  5
164
330
162
100
AcDbEntity
  8
0
100
AcDbBlockEnd
  0
BLOCK
  5
169
330
168
100
AcDbEntity
  8
0
100
AcDbBlockBegin
  2
Eckfase rechts unten
 70
     2
 10
0.0
 20
0.0
 30
0.0
  3
Eckfase rechts unten
  1

  0
LINE
  5
16B
330
168
100
AcDbEntity
  8
Bemaßungen(ISO)
100
AcDbLine
 10
0.0
 20
-6.0
 30
0.0
 11
0.0
 21
0.0
 31
0.0
  0
LINE
  5
16C
330
168
100
AcDbEntity
  8
Bemaßungen(ISO)
100
AcDbLine
 10
0.0
 20
0.0
 30
0.0
 11
-6.0
 21
0.0
 31
0.0
  0
ATTDEF
  5
16D
102
{ACAD_XDICTIONARY
360
374
102
}
330
168
100
AcDbEntity
  8
Symbole(ISO)
 62
     7
100
AcDbText
 10
-6.221009658842373
 20
-3.516371119498067
 30
0.0
 40
2.000000029802322
  1
+0,2
  7
STANDARD-ISO-2
100
AcDbAttributeDefinition
  3
Wert
  2
Wert_001
 70
     0
  0
ENDBLK
  5
16A
330
168
100
AcDbEntity
  8
0
100
AcDbBlockEnd
  0
BLOCK
  5
16F
330
16E
100
AcDbEntity
  8
0
100
AcDbBlockBegin
  2
Kanten gebrochen
 70
     0
 10
0.0
 20
0.0
 30
0.0
  3
Kanten gebrochen
  1

  0
MTEXT
  5
171
330
16E
100
AcDbEntity
  8
Symbole(ISO)
 62
     7
100
AcDbMText
 10
3.663000196180057
 20
-3.653242581630564
 30
0.0
 40
3.499999940395355
 41
0.0
 71
     1
 72
     1
  1
Kanten gebrochen
  7
STANDARD-ISO
 73
     1
 44
1.0
1001
ACAD
1000
MTEXTBEGIN
1070
    73
1070
     1
1070
    44
1040
1.0
1070
    74
1070
     0
1000
MTEXTEND
  0
ENDBLK
  5
170
330
16E
100
AcDbEntity
  8
0
100
AcDbBlockEnd
  0
BLOCK
  5
174
330
173
100
AcDbEntity
  8
0
100
AcDbBlockBegin
  2
Kanten gebrochen - lackiert RAL
 70
     0
 10
0.0
 20
0.0
 30
0.0
  3
Kanten gebrochen - lackiert RAL
  1

  0
MTEXT
  5
176
330
173
100
AcDbEntity
  8
Symbole(ISO)
 62
     7
100
AcDbMText
 10
-19.97694373130798
 20
4.531989758834242
 30
0.0
 40
3.499999940395355
 41
0.0
 71
     1
 72
     1
  1
Kanten gebrochen\Plackiert RAL
  7
STANDARD-ISO
 73
     2
 44
0.9442214965820312
1001
ACAD
1000
MTEXTBEGIN
1070
    73
1070
     2
1070
    44
1040
0.9442214965820312
1070
    74
1070
     0
1000
MTEXTEND
  0
ENDBLK
  5
175
330
173
100
AcDbEntity
  8
0
100
AcDbBlockEnd
  0
BLOCK
  5
178
330
177
100
AcDbEntity
  8
0
100
AcDbBlockBegin
  2
Kanten gebrochen - eloxiert natur
 70
     0
 10
0.0
 20
0.0
 30
0.0
  3
Kanten gebrochen - eloxiert natur
  1

  0
MTEXT
  5
17A
330
177
100
AcDbEntity
  8
Symbole(ISO)
 62
     7
100
AcDbMText
 10
-19.97694373130798
 20
4.531989758834242
 30
0.0
 40
3.499999940395355
 41
0.0
 71
     1
 72
     1
  1
Kanten gebrochen\Peloxiert natur
  7
STANDARD-ISO
 73
     2
 44
0.9442214965820312
1001
ACAD
1000
MTEXTBEGIN
1070
    73
1070
     2
1070
    44
1040
0.9442214965820312
1070
    74
1070
     0
1000
MTEXTEND
  0
ENDBLK
  5
179
330
177
100
AcDbEntity
  8
0
100
AcDbBlockEnd
  0
BLOCK
  5
17C
330
17B
100
AcDbEntity
  8
0
100
AcDbBlockBegin
  2
Kanten gebrochen - eloxiert schwarz
 70
     0
 10
0.0
 20
0.0
 30
0.0
  3
Kanten gebrochen - eloxiert schwarz
  1

  0
MTEXT
  5
17E
330
17B
100
AcDbEntity
  8
Symbole(ISO)
 62
     7
100
AcDbMText
 10
-19.97694373130798
 20
4.531989758834242
 30
0.0
 40
3.499999940395355
 41
0.0
 71
     1
 72
     1
  1
Kanten gebrochen\Pschwarz eloxiert
  7
STANDARD-ISO
 73
     2
 44
0.9442214965820312
1001
ACAD
1000
MTEXTBEGIN
1070
    73
1070
     2
1070
    44
1040
0.9442214965820312
1070
    74
1070
     0
1000
MTEXTEND
  0
ENDBLK
  5
17D
330
17B
100
AcDbEntity
  8
0
100
AcDbBlockEnd
  0
BLOCK
  5
180
330
17F
100
AcDbEntity
  8
0
100
AcDbBlockBegin
  2
Kanten gebrochen - schwarz verzinkt
 70
     0
 10
0.0
 20
0.0
 30
0.0
  3
Kanten gebrochen - schwarz verzinkt
  1

  0
MTEXT
  5
182
330
17F
100
AcDbEntity
  8
Symbole(ISO)
 62
     7
100
AcDbMText
 10
-19.97694373130798
 20
4.531989758834242
 30
0.0
 40
3.499999940395355
 41
0.0
 71
     1
 72
     1
  1
Kanten gebrochen\Pschwarz verzinkt
  7
STANDARD-ISO
 73
     2
 44
0.9442214965820312
1001
ACAD
1000
MTEXTBEGIN
1070
    73
1070
     2
1070
    44
1040
0.9442214965820312
1070
    74
1070
     0
1000
MTEXTEND
  0
ENDBLK
  5
181
330
17F
100
AcDbEntity
  8
0
100
AcDbBlockEnd
  0
BLOCK
  5
184
330
183
100
AcDbEntity
  8
0
100
AcDbBlockBegin
  2
Kanten gebrochen - brüniert
 70
     0
 10
0.0
 20
0.0
 30
0.0
  3
Kanten gebrochen - brüniert
  1

  0
MTEXT
  5
186
102
{ACAD_XDICTIONARY
360
48B
102
}
330
183
100
AcDbEntity
  8
Symbole(ISO)
 62
     7
100
AcDbMText
 10
-19.97694373130798
 20
4.531989758834242
 30
0.0
 40
3.499999940395355
 41
0.0
 71
     1
 72
     1
  1
Kanten gebrochen\Pbr\U+00FCniert
  7
STANDARD-ISO
 73
     2
 44
0.9442214965820312
1001
ACAD
1000
MTEXTBEGIN
1070
    73
1070
     2
1070
    44
1040
0.9442214965820312
1070
    74
1070
     0
1000
MTEXTEND
  0
ENDBLK
  5
185
330
183
100
AcDbEntity
  8
0
100
AcDbBlockEnd
  0
BLOCK
  5
188
330
187
100
AcDbEntity
  8
0
100
AcDbBlockBegin
  2
Kegelverhältnis
 70
     2
 10
0.0
 20
0.0
 30
0.0
  3
Kegelverhältnis
  1

  0
LINE
  5
18A
330
187
100
AcDbEntity
  8
Skizziergeometrie(ISO)
100
AcDbLine
 10
-30.00000000000003
 20
0.0
 30
0.0
 11
-7.5
 21
0.0
 31
0.0
  0
LINE
  5
18B
330
187
100
AcDbEntity
  8
Skizziergeometrie(ISO)
100
AcDbLine
 10
-13.99519052838332
 20
0.0
 30
0.0
 11
-7.5
 21
3.75
 31
0.0
  0
LINE
  5
18C
330
187
100
AcDbEntity
  8
Skizziergeometrie(ISO)
100
AcDbLine
 10
-7.5
 20
3.75
 30
0.0
 11
-7.5
 21
-3.75
 31
0.0
  0
LINE
  5
18D
330
187
100
AcDbEntity
  8
Skizziergeometrie(ISO)
100
AcDbLine
 10
-7.5
 20
-3.75
 30
0.0
 11
-13.99519052838332
 21
0.0
 31
0.0
  0
LINE
  5
18E
330
187
100
AcDbEntity
  8
Skizziergeometrie(ISO)
100
AcDbLine
 10
-7.5
 20
0.0
 30
0.0
 11
0.0
 21
0.0
 31
0.0
  0
ATTDEF
  5
18F
102
{ACAD_XDICTIONARY
360
377
102
}
330
187
100
AcDbEntity
  8
Symbole(ISO)
 62
     7
100
AcDbText
 10
-54.59785039738775
 20
2.457025960711857
 30
0.0
 40
3.499999940395355
  1
<Kegelverhältnis>
  7
STANDARD-ISO
100
AcDbAttributeDefinition
  3
<Kegelverhältnis>
  2
<Kegelverhältnis>_001
 70
     0
  0
ENDBLK
  5
189
330
187
100
AcDbEntity
  8
0
100
AcDbBlockEnd
  0
BLOCK
  5
191
330
190
100
AcDbEntity
  8
0
100
AcDbBlockBegin
  2
Laserkontur
 70
     0
 10
0.0
 20
0.0
 30
0.0
  3
Laserkontur
  1

  0
MTEXT
  5
193
330
190
100
AcDbEntity
  8
Symbole(ISO)
 62
     7
100
AcDbMText
 10
-14.12804961204528
 20
1.778010791167616
 30
0.0
 40
3.499999940395355
 41
0.0
 71
     1
 72
     1
  1
\fArial|b1|i0;\H3.5000;\LLaserkontur
  7
STANDARD-ISO
 73
     1
 44
1.0
1001
ACAD
1000
MTEXTBEGIN
1070
    73
1070
     1
1070
    44
1040
1.0
1070
    74
1070
     0
1000
MTEXTEND
  0
ENDBLK
  5
192
330
190
100
AcDbEntity
  8
0
100
AcDbBlockEnd
  0
BLOCK
  5
195
330
194
100
AcDbEntity
  8
0
100
AcDbBlockBegin
  2
Brennkontur
 70
     0
 10
0.0
 20
0.0
 30
0.0
  3
Brennkontur
  1

  0
MTEXT
  5
197
330
194
100
AcDbEntity
  8
Symbole(ISO)
 62
     7
100
AcDbMText
 10
-14.66958880424499
 20
1.778010791167616
 30
0.0
 40
3.499999940395355
 41
0.0
 71
     1
 72
     1
  1
\fArial|b1|i0;\H3.5000;\LBrennkontur
  7
STANDARD-ISO
 73
     1
 44
1.0
1001
ACAD
1000
MTEXTBEGIN
1070
    73
1070
     1
1070
    44
1040
1.0
1070
    74
1070
     0
1000
MTEXTEND
  0
ENDBLK
  5
196
330
194
100
AcDbEntity
  8
0
100
AcDbBlockEnd
  0
BLOCK
  5
462
330
460
100
AcDbEntity
  8
0
100
AcDbBlockBegin
  2
GENAXEH
 70
     0
 10
0.0
 20
0.0
 30
0.0
  3
GENAXEH
  1

  0
LINE
  5
461
330
460
100
AcDbEntity
  8
0
100
AcDbLine
 10
-1.0
 20
0.0
 30
0.0
 11
1.0
 21
0.0
 31
0.0
  0
ENDBLK
  5
463
330
460
100
AcDbEntity
  8
0
100
AcDbBlockEnd
  0
ENDSEC
  0
SECTION
  2
ENTITIES
  0
CIRCLE
  5
198
330
6C
100
AcDbEntity
  8
Sichtbare Kanten(ISO)
100
AcDbCircle
 10
399.3779606626065
 20
426.8249372540122
 30
0.0
 40
4.700000000000069
  0
CIRCLE
  5
199
330
6C
100
AcDbEntity
  8
Sichtbare Kanten(ISO)
100
AcDbCircle
 10
399.3779606626065
 20
426.8249372540122
 30
0.0
 40
5.000000000000067
  0
CIRCLE
  5
19A
330
6C
100
AcDbEntity
  8
Sichtbare Kanten(ISO)
100
AcDbCircle
 10
449.3779606626065
 20
426.8249372540122
 30
0.0
 40
4.700000000000076
  0
CIRCLE
  5
19B
330
6C
100
AcDbEntity
  8
Sichtbare Kanten(ISO)
100
AcDbCircle
 10
449.3779606626065
 20
426.8249372540122
 30
0.0
 40
5.000000000000077
  0
CIRCLE
  5
19C
330
6C
100
AcDbEntity
  8
Sichtbare Kanten(ISO)
100
AcDbCircle
 10
399.3779606626065
 20
426.8249372540122
 30
0.0
 40
3.162277660168379
  0
CIRCLE
  5
19D
330
6C
100
AcDbEntity
  8
Sichtbare Kanten(ISO)
100
AcDbCircle
 10
449.3779606626065
 20
426.8249372540122
 30
0.0
 40
3.3235
  0
LINE
  5
19E
330
6C
100
AcDbEntity
  8
Sichtbare Kanten(ISO)
100
AcDbLine
 10
449.3790971843986
 20
336.7183355362128
 30
0.0
 11
450.1292978054532
 21
336.7183355362128
 31
0.0
  0
LINE
  5
19F
330
6C
100
AcDbEntity
  8
Sichtbare Kanten(ISO)
100
AcDbLine
 10
453.4779606626067
 20
331.9066042030677
 30
0.0
 11
453.4779606626067
 21
332.6713243688224
 31
0.0
  0
LINE
  5
1A0
330
6C
100
AcDbEntity
  8
Sichtbare Kanten(ISO)
100
AcDbLine
 10
399.3768241408148
 20
241.9315389718091
 30
0.0
 11
398.6266235197619
 21
241.9315389718091
 31
0.0
  0
LINE
  5
1A1
330
6C
100
AcDbEntity
  8
Sichtbare Kanten(ISO)
100
AcDbLine
 10
395.2779606626068
 20
246.7432703049541
 30
0.0
 11
395.2779606626068
 21
245.9785501391984
 31
0.0
  0
LINE
  5
1A2
330
6C
100
AcDbEntity
  8
Sichtbare Kanten(ISO)
100
AcDbLine
 10
453.4779606626067
 20
245.9785501391981
 30
0.0
 11
453.4779606626067
 21
246.7432703049541
 31
0.0
  0
LINE
  5
1A3
330
6C
100
AcDbEntity
  8
Sichtbare Kanten(ISO)
100
AcDbLine
 10
395.2779606626068
 20
332.671324368822
 30
0.0
 11
395.2779606626068
 21
331.9066042030677
 31
0.0
  0
LINE
  5
1A4
330
6C
100
AcDbEntity
  8
Sichtbare Kanten(ISO)
100
AcDbLine
 10
398.6266235197618
 20
336.7183355362127
 30
0.0
 11
399.3768241408148
 21
336.7183355362127
 31
0.0
  0
LINE
  5
1A5
330
6C
100
AcDbEntity
  8
Sichtbare Kanten(ISO)
100
AcDbLine
 10
450.1292978054532
 20
241.9315389718092
 30
0.0
 11
449.3790971843987
 21
241.9315389718092
 31
0.0
  0
CIRCLE
  5
1A6
330
6C
100
AcDbEntity
  8
Sichtbare Kanten(ISO)
100
AcDbCircle
 10
394.3779606626076
 20
336.8249372540102
 30
0.0
 40
4.250000000000001
  0
CIRCLE
  5
1A7
330
6C
100
AcDbEntity
  8
Sichtbare Kanten(ISO)
100
AcDbCircle
 10
454.3779606626076
 20
241.8249372540103
 30
0.0
 40
4.250000000000001
  0
CIRCLE
  5
1A8
330
6C
100
AcDbEntity
  8
Sichtbare Kanten(ISO)
100
AcDbCircle
 10
454.3779606626075
 20
336.8249372540103
 30
0.0
 40
4.250000000000001
  0
CIRCLE
  5
1A9
330
6C
100
AcDbEntity
  8
Sichtbare Kanten(ISO)
100
AcDbCircle
 10
394.3779606626076
 20
241.8249372540102
 30
0.0
 40
4.250000000000001
  0
CIRCLE
  5
1AA
330
6C
100
AcDbEntity
  8
Sichtbare Kanten(ISO)
100
AcDbCircle
 10
454.3779606626066
 20
336.8249372540109
 30
0.0
 40
5.0
  0
CIRCLE
  5
1AB
330
6C
100
AcDbEntity
  8
Sichtbare Kanten(ISO)
100
AcDbCircle
 10
394.3779606626067
 20
241.8249372540109
 30
0.0
 40
5.0
  0
CIRCLE
  5
1AC
330
6C
100
AcDbEntity
  8
Sichtbare Kanten(ISO)
100
AcDbCircle
 10
454.3779606626067
 20
241.8249372540109
 30
0.0
 40
5.0
  0
CIRCLE
  5
1AD
330
6C
100
AcDbEntity
  8
Sichtbare Kanten(ISO)
100
AcDbCircle
 10
394.3779606626066
 20
336.8249372540109
 30
0.0
 40
5.0
  0
LINE
  5
1AE
330
6C
100
AcDbEntity
  8
Sichtbare Kanten(ISO)
100
AcDbLine
 10
393.2232601242283
 20
338.8249372540102
 30
0.0
 11
395.5326612009868
 21
338.8249372540102
 31
0.0
  0
LINE
  5
1AF
330
6C
100
AcDbEntity
  8
Sichtbare Kanten(ISO)
100
AcDbLine
 10
395.5326612009868
 20
338.8249372540102
 30
0.0
 11
396.6873617393661
 21
336.8249372540102
 31
0.0
  0
LINE
  5
1B0
330
6C
100
AcDbEntity
  8
Sichtbare Kanten(ISO)
100
AcDbLine
 10
396.6873617393661
 20
336.8249372540102
 30
0.0
 11
395.5326612009868
 21
334.8249372540102
 31
0.0
  0
LINE
  5
1B1
330
6C
100
AcDbEntity
  8
Sichtbare Kanten(ISO)
100
AcDbLine
 10
395.5326612009868
 20
334.8249372540102
 30
0.0
 11
393.2232601242283
 21
334.8249372540102
 31
0.0
  0
LINE
  5
1B2
330
6C
100
AcDbEntity
  8
Sichtbare Kanten(ISO)
100
AcDbLine
 10
393.2232601242283
 20
334.8249372540102
 30
0.0
 11
392.0685595858491
 21
336.8249372540102
 31
0.0
  0
LINE
  5
1B3
330
6C
100
AcDbEntity
  8
Sichtbare Kanten(ISO)
100
AcDbLine
 10
392.0685595858491
 20
336.8249372540102
 30
0.0
 11
393.2232601242283
 21
338.8249372540102
 31
0.0
  0
LINE
  5
1B4
330
6C
100
AcDbEntity
  8
Sichtbare Kanten(ISO)
100
AcDbLine
 10
453.2232601242283
 20
338.8249372540102
 30
0.0
 11
455.5326612009868
 21
338.8249372540103
 31
0.0
  0
LINE
  5
1B5
330
6C
100
AcDbEntity
  8
Sichtbare Kanten(ISO)
100
AcDbLine
 10
455.5326612009868
 20
338.8249372540103
 30
0.0
 11
456.687361739366
 21
336.8249372540103
 31
0.0
  0
LINE
  5
1B6
330
6C
100
AcDbEntity
  8
Sichtbare Kanten(ISO)
100
AcDbLine
 10
456.687361739366
 20
336.8249372540103
 30
0.0
 11
455.5326612009868
 21
334.8249372540103
 31
0.0
  0
LINE
  5
1B7
330
6C
100
AcDbEntity
  8
Sichtbare Kanten(ISO)
100
AcDbLine
 10
455.5326612009868
 20
334.8249372540103
 30
0.0
 11
453.2232601242283
 21
334.8249372540103
 31
0.0
  0
LINE
  5
1B8
330
6C
100
AcDbEntity
  8
Sichtbare Kanten(ISO)
100
AcDbLine
 10
453.2232601242283
 20
334.8249372540103
 30
0.0
 11
452.068559585849
 21
336.8249372540103
 31
0.0
  0
LINE
  5
1B9
330
6C
100
AcDbEntity
  8
Sichtbare Kanten(ISO)
100
AcDbLine
 10
452.068559585849
 20
336.8249372540103
 30
0.0
 11
453.2232601242283
 21
338.8249372540102
 31
0.0
  0
LINE
  5
1BA
330
6C
100
AcDbEntity
  8
Sichtbare Kanten(ISO)
100
AcDbLine
 10
393.2232601242284
 20
243.8249372540102
 30
0.0
 11
395.5326612009869
 21
243.8249372540102
 31
0.0
  0
LINE
  5
1BB
330
6C
100
AcDbEntity
  8
Sichtbare Kanten(ISO)
100
AcDbLine
 10
395.5326612009869
 20
243.8249372540102
 30
0.0
 11
396.6873617393661
 21
241.8249372540102
 31
0.0
  0
LINE
  5
1BC
330
6C
100
AcDbEntity
  8
Sichtbare Kanten(ISO)
100
AcDbLine
 10
396.6873617393661
 20
241.8249372540102
 30
0.0
 11
395.5326612009869
 21
239.8249372540102
 31
0.0
  0
LINE
  5
1BD
330
6C
100
AcDbEntity
  8
Sichtbare Kanten(ISO)
100
AcDbLine
 10
395.5326612009869
 20
239.8249372540102
 30
0.0
 11
393.2232601242284
 21
239.8249372540102
 31
0.0
  0
LINE
  5
1BE
330
6C
100
AcDbEntity
  8
Sichtbare Kanten(ISO)
100
AcDbLine
 10
393.2232601242284
 20
239.8249372540102
 30
0.0
 11
392.0685595858491
 21
241.8249372540102
 31
0.0
  0
LINE
  5
1BF
330
6C
100
AcDbEntity
  8
Sichtbare Kanten(ISO)
100
AcDbLine
 10
392.0685595858491
 20
241.8249372540102
 30
0.0
 11
393.2232601242284
 21
243.8249372540102
 31
0.0
  0
LINE
  5
1C0
330
6C
100
AcDbEntity
  8
Sichtbare Kanten(ISO)
100
AcDbLine
 10
453.2232601242283
 20
243.8249372540103
 30
0.0
 11
455.5326612009868
 21
243.8249372540103
 31
0.0
  0
LINE
  5
1C1
330
6C
100
AcDbEntity
  8
Sichtbare Kanten(ISO)
100
AcDbLine
 10
455.5326612009868
 20
243.8249372540103
 30
0.0
 11
456.687361739366
 21
241.8249372540103
 31
0.0
  0
LINE
  5
1C2
330
6C
100
AcDbEntity
  8
Sichtbare Kanten(ISO)
100
AcDbLine
 10
456.687361739366
 20
241.8249372540103
 30
0.0
 11
455.5326612009868
 21
239.8249372540103
 31
0.0
  0
LINE
  5
1C3
330
6C
100
AcDbEntity
  8
Sichtbare Kanten(ISO)
100
AcDbLine
 10
455.5326612009868
 20
239.8249372540103
 30
0.0
 11
453.2232601242283
 21
239.8249372540103
 31
0.0
  0
LINE
  5
1C4
330
6C
100
AcDbEntity
  8
Sichtbare Kanten(ISO)
100
AcDbLine
 10
453.2232601242283
 20
239.8249372540103
 30
0.0
 11
452.0685595858491
 21
241.8249372540103
 31
0.0
  0
LINE
  5
1C5
330
6C
100
AcDbEntity
  8
Sichtbare Kanten(ISO)
100
AcDbLine
 10
452.0685595858491
 20
241.8249372540103
 30
0.0
 11
453.2232601242283
 21
243.8249372540103
 31
0.0
  0
CIRCLE
  5
1C6
330
6C
100
AcDbEntity
  8
Sichtbare Kanten(ISO)
100
AcDbCircle
 10
449.3779606626064
 20
386.8249372540123
 30
0.0
 40
4.999999999999998
  0
CIRCLE
  5
1C7
330
6C
100
AcDbEntity
  8
Sichtbare Kanten(ISO)
100
AcDbCircle
 10
449.3779606626064
 20
386.8249372540123
 30
0.0
 40
4.699999999999997
  0
CIRCLE
  5
1C8
330
6C
100
AcDbEntity
  8
Sichtbare Kanten(ISO)
100
AcDbCircle
 10
399.3779606626064
 20
386.8249372540122
 30
0.0
 40
4.999999999999998
  0
CIRCLE
  5
1C9
330
6C
100
AcDbEntity
  8
Sichtbare Kanten(ISO)
100
AcDbCircle
 10
399.3779606626064
 20
386.8249372540122
 30
0.0
 40
4.699999999999997
  0
CIRCLE
  5
1CA
330
6C
100
AcDbEntity
  8
Sichtbare Kanten(ISO)
100
AcDbCircle
 10
449.3779606626064
 20
386.8249372540123
 30
0.0
 40
3.3235
  0
CIRCLE
  5
1CB
330
6C
100
AcDbEntity
  8
Sichtbare Kanten(ISO)
100
AcDbCircle
 10
399.3779606626064
 20
386.8249372540122
 30
0.0
 40
3.3235
  0
CIRCLE
  5
1CC
330
6C
100
AcDbEntity
  8
Sichtbare Kanten(ISO)
100
AcDbCircle
 10
449.3779606626065
 20
386.8249372540123
 30
0.0
 40
2.104999999999999
  0
CIRCLE
  5
1CD
330
6C
100
AcDbEntity
  8
Sichtbare Kanten(ISO)
100
AcDbCircle
 10
399.3779606626065
 20
386.8249372540123
 30
0.0
 40
2.104999999999999
  0
CIRCLE
  5
1CE
330
6C
100
AcDbEntity
  8
Sichtbare Kanten(ISO)
100
AcDbCircle
 10
449.3779606626065
 20
446.8249372540123
 30
0.0
 40
2.104999999999999
  0
CIRCLE
  5
1CF
330
6C
100
AcDbEntity
  8
Sichtbare Kanten(ISO)
100
AcDbCircle
 10
449.3779606626065
 20
406.8249372540122
 30
0.0
 40
2.104999999999999
  0
CIRCLE
  5
1D0
330
6C
100
AcDbEntity
  8
Sichtbare Kanten(ISO)
100
AcDbCircle
 10
449.3779606626065
 20
366.8249372540123
 30
0.0
 40
2.104999999999999
  0
CIRCLE
  5
1D1
330
6C
100
AcDbEntity
  8
Sichtbare Kanten(ISO)
100
AcDbCircle
 10
399.3779606626065
 20
406.8249372540122
 30
0.0
 40
2.104999999999999
  0
CIRCLE
  5
1D2
330
6C
100
AcDbEntity
  8
Sichtbare Kanten(ISO)
100
AcDbCircle
 10
399.3779606626066
 20
366.8249372540123
 30
0.0
 40
2.104999999999999
  0
CIRCLE
  5
1D3
330
6C
100
AcDbEntity
  8
Sichtbare Kanten(ISO)
100
AcDbCircle
 10
449.3779606626065
 20
426.8249372540122
 30
0.0
 40
2.104999999999999
  0
CIRCLE
  5
1D4
330
6C
100
AcDbEntity
  8
Sichtbare Kanten(ISO)
100
AcDbCircle
 10
399.3779606626065
 20
426.8249372540122
 30
0.0
 40
2.104999999999999
  0
LINE
  5
1D5
330
6C
100
AcDbEntity
  8
Sichtbare Kanten(ISO)
100
AcDbLine
 10
461.5779606626067
 20
461.8249372540121
 30
0.0
 11
461.5779606626067
 21
351.8249372540109
 31
0.0
  0
LINE
  5
1D6
330
6C
100
AcDbEntity
  8
Sichtbare Kanten(ISO)
100
AcDbLine
 10
461.5779606626067
 20
461.8249372540121
 30
0.0
 11
432.3779606626066
 21
461.8249372540121
 31
0.0
  0
LINE
  5
1D7
330
6C
100
AcDbEntity
  8
Sichtbare Kanten(ISO)
100
AcDbLine
 10
432.3779606626066
 20
461.8249372540121
 30
0.0
 11
432.3779606626067
 21
351.8249372540109
 31
0.0
  0
LINE
  5
1D8
330
6C
100
AcDbEntity
  8
Sichtbare Kanten(ISO)
100
AcDbLine
 10
387.1779606626065
 20
461.8249372540121
 30
0.0
 11
386.8779606626065
 21
461.8249372540121
 31
0.0
  0
LINE
  5
1D9
330
6C
100
AcDbEntity
  8
Sichtbare Kanten(ISO)
100
AcDbLine
 10
416.3779606626065
 20
461.8249372540121
 30
0.0
 11
387.1779606626065
 21
461.8249372540121
 31
0.0
  0
LINE
  5
1DA
330
6C
100
AcDbEntity
  8
Sichtbare Kanten(ISO)
100
AcDbLine
 10
416.3779606626067
 20
351.8249372540109
 30
0.0
 11
416.3779606626065
 21
461.8249372540121
 31
0.0
  0
LINE
  5
1DB
330
6C
100
AcDbEntity
  8
Sichtbare Kanten(ISO)
100
AcDbLine
 10
387.1779606626064
 20
351.8249372540109
 30
0.0
 11
387.1779606626065
 21
461.8249372540121
 31
0.0
  0
LINE
  5
1DC
330
6C
100
AcDbEntity
  8
Sichtbare Kanten(ISO)
100
AcDbLine
 10
461.8779606626067
 20
461.8249372540121
 30
0.0
 11
461.5779606626067
 21
461.8249372540121
 31
0.0
  0
LINE
  5
1DD
330
6C
100
AcDbEntity
  8
Sichtbare Kanten(ISO)
100
AcDbLine
 10
386.8779606626065
 20
351.8249372540109
 30
0.0
 11
386.8779606626065
 21
461.8249372540121
 31
0.0
  0
LINE
  5
1DE
330
6C
100
AcDbEntity
  8
Sichtbare Kanten(ISO)
100
AcDbLine
 10
461.8779606626067
 20
461.8249372540121
 30
0.0
 11
461.8779606626067
 21
351.8249372540109
 31
0.0
  0
CIRCLE
  5
1DF
330
6C
100
AcDbEntity
  8
Sichtbare Kanten(ISO)
100
AcDbCircle
 10
399.3779606626065
 20
446.8249372540123
 30
0.0
 40
2.104999999999999
  0
LINE
  5
1E0
330
6C
100
AcDbEntity
  8
Sichtbare Kanten(ISO)
100
AcDbLine
 10
461.8779606626067
 20
264.3249372540109
 30
0.0
 11
461.8779606626067
 21
226.8249372540109
 31
0.0
  0
LINE
  5
1E1
330
6C
100
AcDbEntity
  8
Sichtbare Kanten(ISO)
100
AcDbLine
 10
461.8779606626067
 20
264.3249372540109
 30
0.0
 11
386.8779606626067
 21
264.3249372540109
 31
0.0
  0
LINE
  5
1E2
330
6C
100
AcDbEntity
  8
Sichtbare Kanten(ISO)
100
AcDbLine
 10
386.8779606626067
 20
226.8249372540109
 30
0.0
 11
386.8779606626067
 21
264.3249372540109
 31
0.0
  0
LINE
  5
1E3
330
6C
100
AcDbEntity
  8
Sichtbare Kanten(ISO)
100
AcDbLine
 10
461.8779606626067
 20
226.8249372540109
 30
0.0
 11
386.8779606626067
 21
226.8249372540109
 31
0.0
  0
LINE
  5
1E4
330
6C
100
AcDbEntity
  8
Sichtbare Kanten(ISO)
100
AcDbLine
 10
386.8779606626067
 20
264.3249372540109
 30
0.0
 11
386.8779606626067
 21
314.3249372540109
 31
0.0
  0
LINE
  5
1E5
330
6C
100
AcDbEntity
  8
Sichtbare Kanten(ISO)
100
AcDbLine
 10
386.8779606626067
 20
351.8249372540109
 30
0.0
 11
386.8779606626067
 21
314.3249372540109
 31
0.0
  0
LINE
  5
1E6
330
6C
100
AcDbEntity
  8
Sichtbare Kanten(ISO)
100
AcDbLine
 10
461.8779606626067
 20
264.3249372540109
 30
0.0
 11
461.8779606626066
 21
314.3249372540109
 31
0.0
  0
LINE
  5
1E7
330
6C
100
AcDbEntity
  8
Sichtbare Kanten(ISO)
100
AcDbLine
 10
461.8779606626066
 20
314.3249372540109
 30
0.0
 11
386.8779606626067
 21
314.3249372540109
 31
0.0
  0
LINE
  5
1E8
330
6C
100
AcDbEntity
  8
Sichtbare Kanten(ISO)
100
AcDbLine
 10
461.8779606626066
 20
314.3249372540109
 30
0.0
 11
461.8779606626066
 21
351.8249372540109
 31
0.0
  0
LINE
  5
1E9
330
6C
100
AcDbEntity
  8
Sichtbare Kanten(ISO)
100
AcDbLine
 10
461.8779606626066
 20
351.8249372540109
 30
0.0
 11
386.8779606626067
 21
351.8249372540109
 31
0.0
  0
LINE
  5
1EA
330
6C
100
AcDbEntity
  8
Sichtbare Kanten(ISO)
100
AcDbLine
 10
386.8779606626065
 20
469.8249372540129
 30
0.0
 11
387.3779606626067
 21
469.8249372540129
 31
0.0
  0
LINE
  5
1EB
330
6C
100
AcDbEntity
  8
Sichtbare Kanten(ISO)
100
AcDbLine
 10
387.3779606626067
 20
469.8249372540129
 30
0.0
 11
461.3779606626068
 21
469.8249372540129
 31
0.0
  0
LINE
  5
1EC
330
6C
100
AcDbEntity
  8
Sichtbare Kanten(ISO)
100
AcDbLine
 10
461.3779606626068
 20
469.8249372540129
 30
0.0
 11
461.8779606626068
 21
469.8249372540129
 31
0.0
  0
LINE
  5
1ED
330
6C
100
AcDbEntity
  8
Sichtbare Kanten(ISO)
100
AcDbLine
 10
387.3779606626067
 20
469.8249372540129
 30
0.0
 11
387.3779606626067
 21
461.8249372540129
 31
0.0
  0
LINE
  5
1EE
330
6C
100
AcDbEntity
  8
Sichtbare Kanten(ISO)
100
AcDbLine
 10
461.3779606626068
 20
461.8249372540129
 30
0.0
 11
461.3779606626068
 21
469.8249372540129
 31
0.0
  0
LINE
  5
1EF
330
6C
100
AcDbEntity
  8
Sichtbare Kanten(ISO)
100
AcDbLine
 10
386.8779606626065
 20
461.8249372540129
 30
0.0
 11
386.8779606626065
 21
469.8249372540129
 31
0.0
  0
LINE
  5
1F0
330
6C
100
AcDbEntity
  8
Sichtbare Kanten(ISO)
100
AcDbLine
 10
461.8779606626068
 20
469.8249372540129
 30
0.0
 11
461.8779606626068
 21
461.8249372540129
 31
0.0
  0
LINE
  5
1F1
330
6C
100
AcDbEntity
  8
Sichtbare Kanten(ISO)
100
AcDbLine
 10
461.8779606626068
 20
218.82493725401
 30
0.0
 11
461.3779606626068
 21
218.82493725401
 31
0.0
  0
LINE
  5
1F2
330
6C
100
AcDbEntity
  8
Sichtbare Kanten(ISO)
100
AcDbLine
 10
461.3779606626068
 20
218.82493725401
 30
0.0
 11
387.3779606626067
 21
218.82493725401
 31
0.0
  0
LINE
  5
1F3
330
6C
100
AcDbEntity
  8
Sichtbare Kanten(ISO)
100
AcDbLine
 10
387.3779606626067
 20
218.82493725401
 30
0.0
 11
386.8779606626065
 21
218.82493725401
 31
0.0
  0
LINE
  5
1F4
330
6C
100
AcDbEntity
  8
Sichtbare Kanten(ISO)
100
AcDbLine
 10
386.8779606626065
 20
218.82493725401
 30
0.0
 11
386.8779606626065
 21
226.82493725401
 31
0.0
  0
LINE
  5
1F5
330
6C
100
AcDbEntity
  8
Sichtbare Kanten(ISO)
100
AcDbLine
 10
461.3779606626068
 20
218.82493725401
 30
0.0
 11
461.3779606626068
 21
226.8249372540101
 31
0.0
  0
LINE
  5
1F6
330
6C
100
AcDbEntity
  8
Sichtbare Kanten(ISO)
100
AcDbLine
 10
387.3779606626067
 20
226.82493725401
 30
0.0
 11
387.3779606626067
 21
218.82493725401
 31
0.0
  0
LINE
  5
1F7
330
6C
100
AcDbEntity
  8
Sichtbare Kanten(ISO)
100
AcDbLine
 10
461.8779606626068
 20
226.8249372540101
 30
0.0
 11
461.8779606626068
 21
218.82493725401
 31
0.0
  0
LINE
  5
1F8
330
6C
100
AcDbEntity
  8
Sichtbare Kanten(ISO)
100
AcDbLine
 10
391.8779606626068
 20
216.8249372540108
 30
0.0
 11
403.0256024582186
 21
216.8249372540108
 31
0.0
  0
LINE
  5
1F9
330
6C
100
AcDbEntity
  8
Sichtbare Kanten(ISO)
100
AcDbLine
 10
411.7303188669921
 20
216.8249372540108
 30
0.0
 11
437.0256024582187
 21
216.8249372540108
 31
0.0
  0
LINE
  5
1FA
330
6C
100
AcDbEntity
  8
Sichtbare Kanten(ISO)
100
AcDbLine
 10
445.7303188669921
 20
216.8249372540108
 30
0.0
 11
456.8779606626067
 21
216.8249372540109
 31
0.0
  0
LINE
  5
1FB
330
6C
100
AcDbEntity
  8
Sichtbare Kanten(ISO)
100
AcDbLine
 10
391.8779606626068
 20
204.8249372540108
 30
0.0
 11
391.8779606626068
 21
216.8249372540108
 31
0.0
  0
LINE
  5
1FC
330
6C
100
AcDbEntity
  8
Sichtbare Kanten(ISO)
100
AcDbLine
 10
456.8779606626067
 20
216.8249372540109
 30
0.0
 11
456.8779606626067
 21
204.8249372540109
 31
0.0
  0
LINE
  5
1FD
330
6C
100
AcDbEntity
  8
Sichtbare Kanten(ISO)
100
AcDbLine
 10
456.8779606626067
 20
204.8249372540109
 30
0.0
 11
391.8779606626068
 21
204.8249372540108
 31
0.0
  0
LINE
  5
1FE
330
6C
100
AcDbEntity
  8
Sichtbare Kanten(ISO)
100
AcDbLine
 10
391.9779606626068
 20
217.8249372540109
 30
0.0
 11
391.8779606626067
 21
217.8249372540109
 31
0.0
  0
LINE
  5
1FF
330
6C
100
AcDbEntity
  8
Sichtbare Kanten(ISO)
100
AcDbLine
 10
391.8779606626068
 20
217.8249372540109
 30
0.0
 11
391.8779606626067
 21
216.8249372540108
 31
0.0
  0
LINE
  5
200
330
6C
100
AcDbEntity
  8
Sichtbare Kanten(ISO)
100
AcDbLine
 10
391.9779606626068
 20
217.8249372540109
 30
0.0
 11
391.9779606626068
 21
216.8249372540108
 31
0.0
  0
LINE
  5
201
330
6C
100
AcDbEntity
  8
Sichtbare Kanten(ISO)
100
AcDbLine
 10
391.8779606626067
 20
217.8249372540109
 30
0.0
 11
391.8779606626067
 21
218.82493725401
 31
0.0
  0
LINE
  5
202
330
6C
100
AcDbEntity
  8
Sichtbare Kanten(ISO)
100
AcDbLine
 10
391.8779606626067
 20
469.8249372540129
 30
0.0
 11
391.8779606626066
 21
521.8249372540108
 31
0.0
  0
LINE
  5
203
330
6C
100
AcDbEntity
  8
Sichtbare Kanten(ISO)
100
AcDbLine
 10
391.8779606626068
 20
181.8249372540108
 30
0.0
 11
391.8779606626068
 21
204.8249372540108
 31
0.0
  0
LINE
  5
204
330
6C
100
AcDbEntity
  8
Sichtbare Kanten(ISO)
100
AcDbLine
 10
456.8779606626066
 20
521.8249372540108
 30
0.0
 11
456.8779606626066
 21
469.8249372540129
 31
0.0
  0
LINE
  5
205
330
6C
100
AcDbEntity
  8
Sichtbare Kanten(ISO)
100
AcDbLine
 10
456.8779606626068
 20
218.82493725401
 30
0.0
 11
456.8779606626068
 21
217.8249372540109
 31
0.0
  0
LINE
  5
206
330
6C
100
AcDbEntity
  8
Sichtbare Kanten(ISO)
100
AcDbLine
 10
456.8779606626067
 20
204.8249372540109
 30
0.0
 11
456.8779606626067
 21
181.8249372540108
 31
0.0
  0
LINE
  5
207
330
6C
100
AcDbEntity
  8
Sichtbare Kanten(ISO)
100
AcDbLine
 10
456.8779606626067
 20
181.8249372540108
 30
0.0
 11
391.8779606626068
 21
181.8249372540108
 31
0.0
  0
LINE
  5
208
330
6C
100
AcDbEntity
  8
Sichtbare Kanten(ISO)
100
AcDbLine
 10
456.8779606626068
 20
217.8249372540109
 30
0.0
 11
456.7779606626068
 21
217.8249372540109
 31
0.0
  0
LINE
  5
209
330
6C
100
AcDbEntity
  8
Sichtbare Kanten(ISO)
100
AcDbLine
 10
456.8779606626067
 20
217.8249372540109
 30
0.0
 11
456.8779606626068
 21
216.8249372540109
 31
0.0
  0
LINE
  5
20A
330
6C
100
AcDbEntity
  8
Sichtbare Kanten(ISO)
100
AcDbLine
 10
456.7779606626068
 20
216.8249372540109
 30
0.0
 11
456.7779606626068
 21
217.8249372540109
 31
0.0
  0
LINE
  5
20B
330
6C
100
AcDbEntity
  8
Sichtbare Kanten(ISO)
100
AcDbLine
 10
394.8781361626065
 20
521.8249372540108
 30
0.0
 11
394.8781361626065
 21
469.8249372540129
 31
0.0
  0
LINE
  5
20C
330
6C
100
AcDbEntity
  8
Sichtbare Kanten(ISO)
100
AcDbLine
 10
394.8781361626067
 20
218.82493725401
 30
0.0
 11
394.8781361626067
 21
216.8249372540109
 31
0.0
  0
LINE
  5
20D
330
6C
100
AcDbEntity
  8
Sichtbare Kanten(ISO)
100
AcDbLine
 10
399.1276970126065
 20
521.8249372540108
 30
0.0
 11
399.1276970126066
 21
469.8249372540129
 31
0.0
  0
LINE
  5
20E
330
6C
100
AcDbEntity
  8
Sichtbare Kanten(ISO)
100
AcDbLine
 10
399.1276970126066
 20
408.9150073737663
 30
0.0
 11
399.1276970126066
 21
404.7348671342581
 31
0.0
  0
LINE
  5
20F
330
6C
100
AcDbEntity
  8
Sichtbare Kanten(ISO)
100
AcDbLine
 10
399.1276970126066
 20
388.9150073737663
 30
0.0
 11
399.1276970126066
 21
384.7348671342582
 31
0.0
  0
LINE
  5
210
330
6C
100
AcDbEntity
  8
Sichtbare Kanten(ISO)
100
AcDbLine
 10
399.1276970126066
 20
368.9150073737664
 30
0.0
 11
399.1276970126066
 21
364.7348671342582
 31
0.0
  0
LINE
  5
211
330
6C
100
AcDbEntity
  8
Sichtbare Kanten(ISO)
100
AcDbLine
 10
399.1276970126067
 20
218.82493725401
 30
0.0
 11
399.1276970126067
 21
216.8249372540109
 31
0.0
  0
LINE
  5
212
330
6C
100
AcDbEntity
  8
Sichtbare Kanten(ISO)
100
AcDbLine
 10
402.6276970126066
 20
216.8249372540109
 30
0.0
 11
402.6276970126066
 21
218.82493725401
 31
0.0
  0
LINE
  5
213
330
6C
100
AcDbEntity
  8
Sichtbare Kanten(ISO)
100
AcDbLine
 10
402.6276970126065
 20
469.8249372540129
 30
0.0
 11
402.6276970126065
 21
521.8249372540108
 31
0.0
  0
LINE
  5
214
330
6C
100
AcDbEntity
  8
Sichtbare Kanten(ISO)
100
AcDbLine
 10
406.3779606626065
 20
519.8249372540106
 30
0.0
 11
406.3779606626065
 21
469.8249372540129
 31
0.0
  0
LINE
  5
215
330
6C
100
AcDbEntity
  8
Sichtbare Kanten(ISO)
100
AcDbLine
 10
442.3779606626068
 20
469.8249372540129
 30
0.0
 11
442.3779606626068
 21
519.8249372540108
 31
0.0
  0
LINE
  5
216
330
6C
100
AcDbEntity
  8
Sichtbare Kanten(ISO)
100
AcDbLine
 10
446.1282243126068
 20
521.8249372540108
 30
0.0
 11
446.1282243126068
 21
469.8249372540129
 31
0.0
  0
LINE
  5
217
330
6C
100
AcDbEntity
  8
Sichtbare Kanten(ISO)
100
AcDbLine
 10
446.1282243126069
 20
218.82493725401
 30
0.0
 11
446.1282243126069
 21
216.8249372540109
 31
0.0
  0
LINE
  5
218
330
6C
100
AcDbEntity
  8
Sichtbare Kanten(ISO)
100
AcDbLine
 10
449.6282243126068
 20
216.8249372540109
 30
0.0
 11
449.6282243126068
 21
218.82493725401
 31
0.0
  0
LINE
  5
219
330
6C
100
AcDbEntity
  8
Sichtbare Kanten(ISO)
100
AcDbLine
 10
449.6282243126067
 20
364.7348671342582
 30
0.0
 11
449.6282243126067
 21
368.9150073737663
 31
0.0
  0
LINE
  5
21A
330
6C
100
AcDbEntity
  8
Sichtbare Kanten(ISO)
100
AcDbLine
 10
449.6282243126067
 20
384.7348671342583
 30
0.0
 11
449.6282243126067
 21
388.9150073737662
 31
0.0
  0
LINE
  5
21B
330
6C
100
AcDbEntity
  8
Sichtbare Kanten(ISO)
100
AcDbLine
 10
449.6282243126067
 20
404.7348671342582
 30
0.0
 11
449.6282243126067
 21
408.9150073737663
 31
0.0
  0
LINE
  5
21C
330
6C
100
AcDbEntity
  8
Sichtbare Kanten(ISO)
100
AcDbLine
 10
449.6282243126067
 20
469.8249372540129
 30
0.0
 11
449.6282243126067
 21
521.8249372540108
 31
0.0
  0
ARC
  5
21D
330
6C
100
AcDbEntity
  8
Sichtbare Kanten(ISO)
100
AcDbCircle
 10
407.3779606626066
 20
215.3017299362597
 30
0.0
 40
4.523207317751073
100
AcDbArc
 50
128.8383906701716
 51
148.2769041740264
  0
ARC
  5
21E
330
6C
100
AcDbEntity
  8
Sichtbare Kanten(ISO)
100
AcDbCircle
 10
407.3779606626066
 20
215.3017299362597
 30
0.0
 40
4.523207317751074
100
AcDbArc
 50
31.72309582596449
 51
51.16160932982832
  0
ARC
  5
21F
330
6C
100
AcDbEntity
  8
Sichtbare Kanten(ISO)
100
AcDbCircle
 10
390.4298724004604
 20
204.8249372540069
 30
0.0
 40
24.44808826214608
100
AcDbArc
 50
0.0
 51
31.72309582598281
  0
ARC
  5
220
330
6C
100
AcDbEntity
  8
Sichtbare Kanten(ISO)
100
AcDbCircle
 10
424.3260489247528
 20
204.8249372540109
 30
0.0
 40
24.44808826214607
100
AcDbArc
 50
148.276904174023
 51
180.0
  0
ARC
  5
221
330
6C
100
AcDbEntity
  8
Sichtbare Kanten(ISO)
100
AcDbCircle
 10
441.3779606626067
 20
215.3017299362597
 30
0.0
 40
4.523207317751073
100
AcDbArc
 50
128.8383906701716
 51
148.2769041740264
  0
ARC
  5
222
330
6C
100
AcDbEntity
  8
Sichtbare Kanten(ISO)
100
AcDbCircle
 10
441.3779606626067
 20
215.3017299362597
 30
0.0
 40
4.523207317751074
100
AcDbArc
 50
31.72309582596449
 51
51.16160932982832
  0
ARC
  5
223
330
6C
100
AcDbEntity
  8
Sichtbare Kanten(ISO)
100
AcDbCircle
 10
424.4298724004602
 20
204.8249372540069
 30
0.0
 40
24.44808826214608
100
AcDbArc
 50
0.0
 51
31.72309582598281
  0
ARC
  5
224
330
6C
100
AcDbEntity
  8
Sichtbare Kanten(ISO)
100
AcDbCircle
 10
458.3260489247527
 20
204.8249372540109
 30
0.0
 40
24.44808826214607
100
AcDbArc
 50
148.2769041740231
 51
180.0
  0
LINE
  5
225
330
6C
100
AcDbEntity
  8
Sichtbare Kanten(ISO)
100
AcDbLine
 10
391.8779606626065
 20
533.8249372540108
 30
0.0
 11
456.8779606626065
 21
533.8249372540108
 31
0.0
  0
LINE
  5
226
330
6C
100
AcDbEntity
  8
Sichtbare Kanten(ISO)
100
AcDbLine
 10
456.8779606626065
 20
521.8249372540108
 30
0.0
 11
445.7303188669919
 21
521.8249372540108
 31
0.0
  0
LINE
  5
227
330
6C
100
AcDbEntity
  8
Sichtbare Kanten(ISO)
100
AcDbLine
 10
437.0256024582184
 20
521.8249372540108
 30
0.0
 11
411.7303188669919
 21
521.8249372540108
 31
0.0
  0
LINE
  5
228
330
6C
100
AcDbEntity
  8
Sichtbare Kanten(ISO)
100
AcDbLine
 10
403.0256024582184
 20
521.8249372540108
 30
0.0
 11
391.8779606626065
 21
521.8249372540108
 31
0.0
  0
LINE
  5
229
330
6C
100
AcDbEntity
  8
Sichtbare Kanten(ISO)
100
AcDbLine
 10
391.8779606626065
 20
521.8249372540108
 30
0.0
 11
391.8779606626065
 21
533.8249372540108
 31
0.0
  0
LINE
  5
22A
330
6C
100
AcDbEntity
  8
Sichtbare Kanten(ISO)
100
AcDbLine
 10
456.8779606626065
 20
533.8249372540108
 30
0.0
 11
456.8779606626065
 21
521.8249372540108
 31
0.0
  0
LINE
  5
22B
330
6C
100
AcDbEntity
  8
Sichtbare Kanten(ISO)
100
AcDbLine
 10
410.2145809465891
 20
519.8249372540108
 30
0.0
 11
404.5413403786239
 21
519.8249372540108
 31
0.0
  0
ARC
  5
22C
330
6C
100
AcDbEntity
  8
Sichtbare Kanten(ISO)
100
AcDbCircle
 10
424.3260489247525
 20
533.8249372540108
 30
0.0
 40
24.44808826214608
100
AcDbArc
 50
180.0
 51
211.723095825977
  0
ARC
  5
22D
330
6C
100
AcDbEntity
  8
Sichtbare Kanten(ISO)
100
AcDbCircle
 10
390.4298724004601
 20
533.8249372540148
 30
0.0
 40
24.44808826214607
100
AcDbArc
 50
328.2769041740171
 51
0.0
  0
ARC
  5
22E
330
6C
100
AcDbEntity
  8
Sichtbare Kanten(ISO)
100
AcDbCircle
 10
407.3779606626065
 20
523.3481445717619
 30
0.0
 40
4.523207317751072
100
AcDbArc
 50
308.8383906701717
 51
328.2769041740361
  0
ARC
  5
22F
330
6C
100
AcDbEntity
  8
Sichtbare Kanten(ISO)
100
AcDbCircle
 10
407.3779606626065
 20
523.3481445717619
 30
0.0
 40
4.523207317751073
100
AcDbArc
 50
211.7230958259732
 51
231.1616093298283
  0
LINE
  5
230
330
6C
100
AcDbEntity
  8
Sichtbare Kanten(ISO)
100
AcDbLine
 10
391.8779606626065
 20
533.8249372540108
 30
0.0
 11
391.8779606626065
 21
556.8249372540106
 31
0.0
  0
LINE
  5
231
330
6C
100
AcDbEntity
  8
Sichtbare Kanten(ISO)
100
AcDbLine
 10
391.8779606626065
 20
556.8249372540106
 30
0.0
 11
456.8779606626065
 21
556.8249372540106
 31
0.0
  0
LINE
  5
232
330
6C
100
AcDbEntity
  8
Sichtbare Kanten(ISO)
100
AcDbLine
 10
456.8779606626065
 20
556.8249372540106
 30
0.0
 11
456.8779606626065
 21
533.8249372540108
 31
0.0
  0
LINE
  5
233
330
6C
100
AcDbEntity
  8
Sichtbare Kanten(ISO)
100
AcDbLine
 10
444.214580946589
 20
519.8249372540108
 30
0.0
 11
438.5413403786238
 21
519.8249372540108
 31
0.0
  0
ARC
  5
234
330
6C
100
AcDbEntity
  8
Sichtbare Kanten(ISO)
100
AcDbCircle
 10
441.3779606626063
 20
523.3481445717619
 30
0.0
 40
4.523207317751072
100
AcDbArc
 50
308.8383906701717
 51
328.2769041740361
  0
ARC
  5
235
330
6C
100
AcDbEntity
  8
Sichtbare Kanten(ISO)
100
AcDbCircle
 10
441.3779606626063
 20
523.3481445717619
 30
0.0
 40
4.523207317751073
100
AcDbArc
 50
211.7230958259732
 51
231.1616093298283
  0
ARC
  5
236
330
6C
100
AcDbEntity
  8
Sichtbare Kanten(ISO)
100
AcDbCircle
 10
458.3260489247526
 20
533.8249372540108
 30
0.0
 40
24.44808826214608
100
AcDbArc
 50
180.0
 51
211.723095825977
  0
ARC
  5
237
330
6C
100
AcDbEntity
  8
Sichtbare Kanten(ISO)
100
AcDbCircle
 10
424.42987240046
 20
533.8249372540148
 30
0.0
 40
24.44808826214607
100
AcDbArc
 50
328.2769041740171
 51
0.0
  0
LINE
  5
238
330
6C
100
AcDbEntity
  8
Sichtbare Kanten(ISO)
100
AcDbLine
 10
196.5516642087433
 20
422.1249372540121
 30
0.0
 11
196.5516642087433
 21
431.5249372540122
 31
0.0
  0
LINE
  5
239
330
6C
100
AcDbEntity
  8
Sichtbare Kanten(ISO)
100
AcDbLine
 10
196.8516642087433
 20
431.8249372540123
 30
0.0
 11
196.8516642087433
 21
421.8249372540121
 31
0.0
  0
LINE
  5
23A
330
6C
100
AcDbEntity
  8
Sichtbare Kanten(ISO)
100
AcDbLine
 10
196.5516642087433
 20
431.5249372540122
 30
0.0
 11
196.8516642087433
 21
431.8249372540122
 31
0.0
  0
LINE
  5
23B
330
6C
100
AcDbEntity
  8
Sichtbare Kanten(ISO)
100
AcDbLine
 10
196.5516642087433
 20
422.1249372540121
 30
0.0
 11
196.8516642087433
 21
421.8249372540121
 31
0.0
  0
SPLINE
  5
23C
330
6C
100
AcDbEntity
  8
Sichtbare Kanten(ISO)
100
AcDbSpline
210
0.0
220
0.0
230
1.0
 70
     8
 71
     3
 72
    10
 73
     6
 74
     0
 42
0.0000000001
 43
0.0000000001
 40
1.860542426311661
 40
1.860542426311661
 40
1.860542426311661
 40
1.860542426311661
 40
1.94325274963773
 40
1.94325274963773
 40
1.950413745259842
 40
1.950413745259842
 40
1.950413745259842
 40
1.950413745259842
 10
153.2740053107312
 20
307.7137022258547
 30
0.0
 10
153.3720670677482
 20
307.921605629344
 30
0.0
 10
153.4699852335754
 20
308.1246349331206
 30
0.0
 10
153.5787795836769
 20
308.3454573092122
 30
0.0
 10
153.587461547211
 20
308.3630466301051
 30
0.0
 10
153.5961619697616
 20
308.3806407139302
 30
0.0
  0
SPLINE
  5
23D
330
6C
100
AcDbEntity
  8
Sichtbare Kanten(ISO)
100
AcDbSpline
210
0.0
220
0.0
230
1.0
 70
     8
 71
     3
 72
    10
 73
     6
 74
     0
 42
0.0000000001
 43
0.0000000001
 40
2.126827454022304
 40
2.126827454022304
 40
2.126827454022304
 40
2.126827454022304
 40
2.133988449644415
 40
2.133988449644415
 40
2.216698772970481
 40
2.216698772970481
 40
2.216698772970481
 40
2.216698772970481
 10
154.3068552279907
 20
309.7506412346661
 30
0.0
 10
154.31622790173
 20
309.7678865854941
 30
0.0
 10
154.325607312504
 20
309.7851141028373
 30
0.0
 10
154.4434759926723
 20
310.0012291338558
 30
0.0
 10
154.5530623729202
 20
310.1982055046599
 30
0.0
 10
154.6665506877744
 20
310.3981063194737
 30
0.0
  0
ARC
  5
23E
330
6C
100
AcDbEntity
  8
Sichtbare Kanten(ISO)
100
AcDbCircle
 10
189.4516642086982
 20
290.6497930413118
 30
0.0
 40
39.99999999994978
100
AcDbArc
 50
151.4763672436994
 51
153.687216934631
  0
SPLINE
  5
23F
330
6C
100
AcDbEntity
  8
Sichtbare Kanten(ISO)
100
AcDbSpline
210
0.0
220
0.0
230
1.0
 70
     8
 71
     3
 72
    10
 73
     6
 74
     0
 42
0.0000000001
 43
0.0000000001
 40
1.860542426311663
 40
1.860542426311663
 40
1.860542426311663
 40
1.860542426311663
 40
1.943252749637732
 40
1.943252749637732
 40
1.950413745259842
 40
1.950413745259842
 40
1.950413745259842
 40
1.950413745259842
 10
154.6665506877744
 20
268.2517681885479
 30
0.0
 10
154.5530623729202
 20
268.4516690033618
 30
0.0
 10
154.4434759926723
 20
268.6486453741659
 30
0.0
 10
154.325607312504
 20
268.8647604051844
 30
0.0
 10
154.31622790173
 20
268.8819879225277
 30
0.0
 10
154.3068552279906
 20
268.8992332733556
 30
0.0
  0
SPLINE
  5
240
330
6C
100
AcDbEntity
  8
Sichtbare Kanten(ISO)
100
AcDbSpline
210
0.0
220
0.0
230
1.0
 70
     8
 71
     3
 72
    10
 73
     6
 74
     0
 42
0.0000000001
 43
0.0000000001
 40
2.126827454022306
 40
2.126827454022306
 40
2.126827454022306
 40
2.126827454022306
 40
2.133988449644417
 40
2.133988449644417
 40
2.216698772970486
 40
2.216698772970486
 40
2.216698772970486
 40
2.216698772970486
 10
153.5961619697616
 20
270.2692337940915
 30
0.0
 10
153.587461547211
 20
270.2868278779166
 30
0.0
 10
153.5787795836769
 20
270.3044171988096
 30
0.0
 10
153.4699852335754
 20
270.5252395749011
 30
0.0
 10
153.3720670677482
 20
270.7282688786777
 30
0.0
 10
153.2740053107312
 20
270.936172282167
 30
0.0
  0
ARC
  5
241
330
6C
100
AcDbEntity
  8
Sichtbare Kanten(ISO)
100
AcDbCircle
 10
189.4516642087322
 20
288.0000814667269
 30
0.0
 40
39.99999999998792
100
AcDbArc
 50
206.3127830653695
 51
208.5236327562989
  0
ARC
  5
242
330
6C
100
AcDbEntity
  8
Sichtbare Kanten(ISO)
100
AcDbCircle
 10
209.4516642087402
 20
251.8249372540108
 30
0.0
 40
16.99999999999995
100
AcDbArc
 50
271.6854130402241
 51
322.572036713491
  0
ARC
  5
243
330
6C
100
AcDbEntity
  8
Sichtbare Kanten(ISO)
100
AcDbCircle
 10
209.4516642087401
 20
251.8249372540108
 30
0.0
 40
17.00000000000005
100
AcDbArc
 50
37.42796328650912
 51
88.31458695977584
  0
ARC
  5
244
330
6C
100
AcDbEntity
  8
Sichtbare Kanten(ISO)
100
AcDbCircle
 10
209.4516642087402
 20
251.8249372540109
 30
0.0
 40
13.57735026918962
100
AcDbArc
 50
272.1104536832206
 51
353.8814851565273
  0
ARC
  5
245
330
6C
100
AcDbEntity
  8
Sichtbare Kanten(ISO)
100
AcDbCircle
 10
209.4516642087402
 20
251.8249372540109
 30
0.0
 40
13.57735026918958
100
AcDbArc
 50
6.11851484347244
 51
87.8895463167794
  0
ARC
  5
246
330
6C
100
AcDbEntity
  8
Sichtbare Kanten(ISO)
100
AcDbCircle
 10
209.4516642087402
 20
326.8249372540108
 30
0.0
 40
16.99999999999988
100
AcDbArc
 50
271.6854130402238
 51
322.572036713491
  0
ARC
  5
247
330
6C
100
AcDbEntity
  8
Sichtbare Kanten(ISO)
100
AcDbCircle
 10
209.4516642087402
 20
326.8249372540109
 30
0.0
 40
17.00000000000001
100
AcDbArc
 50
37.42796328650917
 51
88.31458695977602
  0
ARC
  5
248
330
6C
100
AcDbEntity
  8
Sichtbare Kanten(ISO)
100
AcDbCircle
 10
209.4516642087399
 20
326.8249372540109
 30
0.0
 40
13.0
100
AcDbArc
 50
272.2042275039738
 51
87.79577249602604
  0
ARC
  5
249
330
6C
100
AcDbEntity
  8
Sichtbare Kanten(ISO)
100
AcDbCircle
 10
209.4516642087402
 20
326.8249372540109
 30
0.0
 40
13.57735026918961
100
AcDbArc
 50
272.1104536832206
 51
353.8814851565273
  0
ARC
  5
24A
330
6C
100
AcDbEntity
  8
Sichtbare Kanten(ISO)
100
AcDbCircle
 10
209.4516642087402
 20
326.8249372540109
 30
0.0
 40
13.57735026918961
100
AcDbArc
 50
6.1185148434725
 51
87.88954631677942
  0
ARC
  5
24B
330
6C
100
AcDbEntity
  8
Sichtbare Kanten(ISO)
100
AcDbCircle
 10
209.4516642087399
 20
251.8249372540109
 30
0.0
 40
13.0
100
AcDbArc
 50
272.2042275039738
 51
87.79577249602604
  0
ARC
  5
24C
330
6C
100
AcDbEntity
  8
Sichtbare Kanten(ISO)
100
AcDbCircle
 10
210.0266642087402
 20
251.8249372540109
 30
0.0
 40
10.225
100
AcDbArc
 50
269.5797337900235
 51
90.42026620997674
  0
ARC
  5
24D
330
6C
100
AcDbEntity
  8
Sichtbare Kanten(ISO)
100
AcDbCircle
 10
210.0266642087402
 20
326.8249372540109
 30
0.0
 40
10.225
100
AcDbArc
 50
269.5797337900236
 51
90.42026620997688
  0
CIRCLE
  5
24E
330
6C
100
AcDbEntity
  8
Sichtbare Kanten(ISO)
100
AcDbCircle
 10
153.4516642087471
 20
309.3249372540108
 30
0.0
 40
1.620999999999999
  0
CIRCLE
  5
24F
330
6C
100
AcDbEntity
  8
Sichtbare Kanten(ISO)
100
AcDbCircle
 10
153.4516642087471
 20
269.3249372540109
 30
0.0
 40
1.620999999999999
  0
CIRCLE
  5
250
330
6C
100
AcDbEntity
  8
Sichtbare Kanten(ISO)
100
AcDbCircle
 10
193.4516642087471
 20
269.3249372540109
 30
0.0
 40
1.620999999999999
  0
CIRCLE
  5
251
330
6C
100
AcDbEntity
  8
Sichtbare Kanten(ISO)
100
AcDbCircle
 10
193.4516642087471
 20
309.3249372540108
 30
0.0
 40
1.620999999999999
  0
LINE
  5
252
330
6C
100
AcDbEntity
  8
Sichtbare Kanten(ISO)
100
AcDbLine
 10
209.9516642087473
 20
461.8249372540121
 30
0.0
 11
209.9516642087473
 21
226.8249372540122
 31
0.0
  0
LINE
  5
253
330
6C
100
AcDbEntity
  8
Sichtbare Kanten(ISO)
100
AcDbLine
 10
198.4516642087472
 20
461.8249372540121
 30
0.0
 11
198.4516642087472
 21
351.8249372540109
 31
0.0
  0
LINE
  5
254
330
6C
100
AcDbEntity
  8
Sichtbare Kanten(ISO)
100
AcDbLine
 10
198.7516642087471
 20
461.8249372540121
 30
0.0
 11
198.4516642087472
 21
461.8249372540121
 31
0.0
  0
LINE
  5
255
330
6C
100
AcDbEntity
  8
Sichtbare Kanten(ISO)
100
AcDbLine
 10
199.2516642087473
 20
461.8249372540128
 30
0.0
 11
198.7516642087471
 21
461.8249372540121
 31
0.0
  0
LINE
  5
256
330
6C
100
AcDbEntity
  8
Sichtbare Kanten(ISO)
100
AcDbLine
 10
198.7516642087471
 20
461.8249372540121
 30
0.0
 11
198.7516642087471
 21
226.8249372540122
 31
0.0
  0
ARC
  5
257
330
6C
100
AcDbEntity
  8
Sichtbare Kanten(ISO)
100
AcDbCircle
 10
209.4516642087428
 20
326.8249372540108
 30
0.0
 40
8.500000000000138
100
AcDbArc
 50
53.96812092752966
 51
86.6277133165631
  0
ARC
  5
258
330
6C
100
AcDbEntity
  8
Sichtbare Kanten(ISO)
100
AcDbCircle
 10
209.4516642087428
 20
326.8249372540111
 30
0.0
 40
8.500000000000135
100
AcDbArc
 50
273.3722866834369
 51
306.0318790724703
  0
SPLINE
  5
259
330
6C
100
AcDbEntity
  8
Sichtbare Kanten(ISO)
100
AcDbSpline
210
0.0
220
0.0
230
1.0
 70
    24
 71
     3
 72
    31
 73
    27
 74
     0
 42
0.0000000001
 43
0.0000000001
 40
-0.8850442675906805
 40
-0.8850442675906805
 40
-0.8850442675906805
 40
-0.8850442675906805
 40
-0.7497761756319692
 40
-0.7497761756319692
 40
-0.6051635205072388
 40
-0.6051635205072388
 40
-0.5179450181628283
 40
-0.5179450181628283
 40
-0.4307265158184173
 40
-0.4307265158184173
 40
-0.2153632579092086
 40
-0.2153632579092086
 40
0.0
 40
0.0
 40
0.0
 40
0.2153632579092087
 40
0.2153632579092087
 40
0.4307265158184174
 40
0.4307265158184174
 40
0.5179450181628282
 40
0.5179450181628282
 40
0.6051635205072389
 40
0.6051635205072389
 40
0.7497761756319693
 40
0.7497761756319693
 40
0.8850442675906807
 40
0.8850442675906807
 40
0.8850442675906807
 40
0.8850442675906807
 10
214.4516642087429
 20
244.9510737115772
 30
0.0
 10
214.451664208743
 20
244.9510737115772
 30
0.0
 10
214.4516642087431
 20
245.0469444017526
 30
0.0
 10
214.4516642087435
 20
245.3686344143858
 30
0.0
 10
214.4516642087435
 20
245.6644312440904
 30
0.0
 10
214.4516642087438
 20
246.1663621132011
 30
0.0
 10
214.4516642087438
 20
246.395042032556
 30
0.0
 10
214.4516642087439
 20
246.8926197925604
 30
0.0
 10
214.451664208744
 20
247.1613259579881
 30
0.0
 10
214.4516642087441
 20
248.0484785300204
 30
0.0
 10
214.4516642087442
 20
248.7893035134623
 30
0.0
 10
214.4516642087443
 20
250.3193588197357
 30
0.0
 10
214.4516642087443
 20
251.1070597276469
 30
0.0
 10
214.4516642087443
 20
251.8249372540109
 30
0.0
 10
214.4516642087443
 20
252.5428147803749
 30
0.0
 10
214.4516642087443
 20
253.3305156882862
 30
0.0
 10
214.4516642087442
 20
254.8605709945595
 30
0.0
 10
214.4516642087441
 20
255.6013959780014
 30
0.0
 10
214.451664208744
 20
256.4885485500337
 30
0.0
 10
214.4516642087439
 20
256.7572547154615
 30
0.0
 10
214.4516642087438
 20
257.2548324754658
 30
0.0
 10
214.4516642087438
 20
257.4835123948208
 30
0.0
 10
214.4516642087435
 20
257.9854432639315
 30
0.0
 10
214.4516642087435
 20
258.281240093636
 30
0.0
 10
214.4516642087431
 20
258.6029301062692
 30
0.0
 10
214.451664208743
 20
258.6988007964446
 30
0.0
 10
214.4516642087429
 20
258.6988007964446
 30
0.0
  0
ARC
  5
25A
330
6C
100
AcDbEntity
  8
Sichtbare Kanten(ISO)
100
AcDbCircle
 10
209.4516642087429
 20
251.8249372540108
 30
0.0
 40
8.500000000000126
100
AcDbArc
 50
53.96812092752981
 51
86.62771331656292
  0
ARC
  5
25B
330
6C
100
AcDbEntity
  8
Sichtbare Kanten(ISO)
100
AcDbCircle
 10
209.4516642087429
 20
251.824937254011
 30
0.0
 40
8.500000000000097
100
AcDbArc
 50
273.372286683437
 51
306.0318790724702
  0
SPLINE
  5
25C
330
6C
100
AcDbEntity
  8
Sichtbare Kanten(ISO)
100
AcDbSpline
210
0.0
220
0.0
230
1.0
 70
    24
 71
     3
 72
    31
 73
    27
 74
     0
 42
0.0000000001
 43
0.0000000001
 40
-0.8850442675906805
 40
-0.8850442675906805
 40
-0.8850442675906805
 40
-0.8850442675906805
 40
-0.7497761756319692
 40
-0.7497761756319692
 40
-0.6051635205072388
 40
-0.6051635205072388
 40
-0.5179450181628283
 40
-0.5179450181628283
 40
-0.4307265158184173
 40
-0.4307265158184173
 40
-0.2153632579092086
 40
-0.2153632579092086
 40
0.0
 40
0.0
 40
0.0
 40
0.2153632579092087
 40
0.2153632579092087
 40
0.4307265158184174
 40
0.4307265158184174
 40
0.5179450181628282
 40
0.5179450181628282
 40
0.6051635205072389
 40
0.6051635205072389
 40
0.7497761756319693
 40
0.7497761756319693
 40
0.8850442675906807
 40
0.8850442675906807
 40
0.8850442675906807
 40
0.8850442675906807
 10
214.4516642087429
 20
319.9510737115771
 30
0.0
 10
214.451664208743
 20
319.9510737115771
 30
0.0
 10
214.4516642087431
 20
320.0469444017526
 30
0.0
 10
214.4516642087435
 20
320.3686344143858
 30
0.0
 10
214.4516642087435
 20
320.6644312440904
 30
0.0
 10
214.4516642087438
 20
321.166362113201
 30
0.0
 10
214.4516642087438
 20
321.395042032556
 30
0.0
 10
214.4516642087439
 20
321.8926197925604
 30
0.0
 10
214.451664208744
 20
322.1613259579881
 30
0.0
 10
214.4516642087441
 20
323.0484785300204
 30
0.0
 10
214.4516642087442
 20
323.7893035134623
 30
0.0
 10
214.4516642087443
 20
325.3193588197356
 30
0.0
 10
214.4516642087443
 20
326.1070597276468
 30
0.0
 10
214.4516642087443
 20
326.8249372540109
 30
0.0
 10
214.4516642087443
 20
327.5428147803749
 30
0.0
 10
214.4516642087443
 20
328.3305156882862
 30
0.0
 10
214.4516642087442
 20
329.8605709945595
 30
0.0
 10
214.4516642087441
 20
330.6013959780015
 30
0.0
 10
214.451664208744
 20
331.4885485500337
 30
0.0
 10
214.4516642087439
 20
331.7572547154615
 30
0.0
 10
214.4516642087438
 20
332.2548324754658
 30
0.0
 10
214.4516642087438
 20
332.4835123948208
 30
0.0
 10
214.4516642087435
 20
332.9854432639315
 30
0.0
 10
214.4516642087435
 20
333.281240093636
 30
0.0
 10
214.4516642087431
 20
333.6029301062692
 30
0.0
 10
214.451664208743
 20
333.6988007964447
 30
0.0
 10
214.4516642087429
 20
333.6988007964447
 30
0.0
  0
ARC
  5
25D
330
6C
100
AcDbEntity
  8
Sichtbare Kanten(ISO)
100
AcDbCircle
 10
209.4516642087407
 20
326.8249372540109
 30
0.0
 40
8.499999999999987
100
AcDbArc
 50
306.0318790724703
 51
53.9681209275295
  0
ARC
  5
25E
330
6C
100
AcDbEntity
  8
Sichtbare Kanten(ISO)
100
AcDbCircle
 10
209.4516642087407
 20
251.8249372540109
 30
0.0
 40
8.499999999999987
100
AcDbArc
 50
306.0318790724703
 51
53.9681209275295
  0
LINE
  5
25F
330
6C
100
AcDbEntity
  8
Sichtbare Kanten(ISO)
100
AcDbLine
 10
196.8516642087433
 20
391.8249372540122
 30
0.0
 11
196.8516642087433
 21
381.8249372540122
 31
0.0
  0
LINE
  5
260
330
6C
100
AcDbEntity
  8
Sichtbare Kanten(ISO)
100
AcDbLine
 10
196.5516642087433
 20
382.1249372540122
 30
0.0
 11
196.5516642087433
 21
391.5249372540122
 31
0.0
  0
LINE
  5
261
330
6C
100
AcDbEntity
  8
Sichtbare Kanten(ISO)
100
AcDbLine
 10
196.5516642087433
 20
391.5249372540122
 30
0.0
 11
196.8516642087433
 21
391.8249372540122
 31
0.0
  0
LINE
  5
262
330
6C
100
AcDbEntity
  8
Sichtbare Kanten(ISO)
100
AcDbLine
 10
196.5516642087433
 20
382.1249372540122
 30
0.0
 11
196.8516642087433
 21
381.8249372540122
 31
0.0
  0
CIRCLE
  5
263
330
6C
100
AcDbEntity
  8
Sichtbare Kanten(ISO)
100
AcDbCircle
 10
173.451664208744
 20
289.3249372540109
 30
0.0
 40
8.214359353944919
  0
CIRCLE
  5
264
330
6C
100
AcDbEntity
  8
Sichtbare Kanten(ISO)
100
AcDbCircle
 10
173.4516642087455
 20
289.3249372540109
 30
0.0
 40
7.500000000000031
  0
CIRCLE
  5
265
330
6C
100
AcDbEntity
  8
Sichtbare Kanten(ISO)
100
AcDbCircle
 10
173.4516642087454
 20
289.3249372540109
 30
0.0
 40
8.00000000000004
  0
LINE
  5
266
330
6C
100
AcDbEntity
  8
Sichtbare Kanten(ISO)
100
AcDbLine
 10
209.9516718287465
 20
452.6249372540108
 30
0.0
 11
210.4616718287466
 21
452.6249372540108
 31
0.0
  0
LINE
  5
267
330
6C
100
AcDbEntity
  8
Sichtbare Kanten(ISO)
100
AcDbLine
 10
210.4616718287466
 20
452.6249372540108
 30
0.0
 11
212.4309611506276
 21
452.6249372540108
 31
0.0
  0
LINE
  5
268
330
6C
100
AcDbEntity
  8
Sichtbare Kanten(ISO)
100
AcDbLine
 10
212.4309611506276
 20
452.6249372540108
 30
0.0
 11
212.4409611506277
 21
452.6249372540108
 31
0.0
  0
LINE
  5
269
330
6C
100
AcDbEntity
  8
Sichtbare Kanten(ISO)
100
AcDbLine
 10
212.5623825068656
 20
452.6249372540108
 30
0.0
 11
212.5723825068657
 21
452.6249372540108
 31
0.0
  0
LINE
  5
26A
330
6C
100
AcDbEntity
  8
Sichtbare Kanten(ISO)
100
AcDbLine
 10
213.2516718287467
 20
452.6249372540108
 30
0.0
 11
212.5723825068657
 21
452.6249372540108
 31
0.0
  0
LINE
  5
26B
330
6C
100
AcDbEntity
  8
Sichtbare Kanten(ISO)
100
AcDbLine
 10
210.0616718287463
 20
459.2249372540107
 30
0.0
 11
210.0616718287463
 21
452.6249372540108
 31
0.0
  0
LINE
  5
26C
330
6C
100
AcDbEntity
  8
Sichtbare Kanten(ISO)
100
AcDbLine
 10
210.0616718287463
 20
431.0249372540108
 30
0.0
 11
210.0616718287463
 21
424.4249372540108
 31
0.0
  0
LINE
  5
26D
330
6C
100
AcDbEntity
  8
Sichtbare Kanten(ISO)
100
AcDbLine
 10
209.9516718287465
 20
431.0249372540108
 30
0.0
 11
210.4616718287466
 21
431.0249372540108
 31
0.0
  0
LINE
  5
26E
330
6C
100
AcDbEntity
  8
Sichtbare Kanten(ISO)
100
AcDbLine
 10
212.4309611506276
 20
431.0249372540108
 30
0.0
 11
212.4409611506277
 21
431.0249372540108
 31
0.0
  0
LINE
  5
26F
330
6C
100
AcDbEntity
  8
Sichtbare Kanten(ISO)
100
AcDbLine
 10
210.4616718287466
 20
431.0249372540108
 30
0.0
 11
212.4309611506276
 21
431.0249372540108
 31
0.0
  0
LINE
  5
270
330
6C
100
AcDbEntity
  8
Sichtbare Kanten(ISO)
100
AcDbLine
 10
212.5623825068656
 20
431.0249372540108
 30
0.0
 11
212.5723825068657
 21
431.0249372540108
 31
0.0
  0
LINE
  5
271
330
6C
100
AcDbEntity
  8
Sichtbare Kanten(ISO)
100
AcDbLine
 10
213.2516718287467
 20
431.0249372540108
 30
0.0
 11
212.5723825068657
 21
431.0249372540108
 31
0.0
  0
LINE
  5
272
330
6C
100
AcDbEntity
  8
Sichtbare Kanten(ISO)
100
AcDbLine
 10
219.9516718287466
 20
424.4249372540108
 30
0.0
 11
211.0587786099336
 21
424.4249372540108
 31
0.0
  0
LINE
  5
273
330
6C
100
AcDbEntity
  8
Sichtbare Kanten(ISO)
100
AcDbLine
 10
211.0587786099336
 20
424.4249372540108
 30
0.0
 11
210.0616718287463
 21
424.4249372540108
 31
0.0
  0
LINE
  5
274
330
6C
100
AcDbEntity
  8
Sichtbare Kanten(ISO)
100
AcDbLine
 10
211.0587786099336
 20
459.2249372540107
 30
0.0
 11
210.0616718287463
 21
459.2249372540107
 31
0.0
  0
LINE
  5
275
330
6C
100
AcDbEntity
  8
Sichtbare Kanten(ISO)
100
AcDbLine
 10
219.9516718287466
 20
459.2249372540107
 30
0.0
 11
211.0587786099336
 21
459.2249372540107
 31
0.0
  0
LINE
  5
276
330
6C
100
AcDbEntity
  8
Sichtbare Kanten(ISO)
100
AcDbLine
 10
219.9516718287466
 20
459.2249372540107
 30
0.0
 11
219.9516718287466
 21
424.4249372540108
 31
0.0
  0
LINE
  5
277
330
6C
100
AcDbEntity
  8
Sichtbare Kanten(ISO)
100
AcDbLine
 10
212.4409611506277
 20
431.0249372540108
 30
0.0
 11
212.5623825068656
 21
431.0249372540108
 31
0.0
  0
LINE
  5
278
330
6C
100
AcDbEntity
  8
Sichtbare Kanten(ISO)
100
AcDbLine
 10
211.0587786099336
 20
431.0249372540108
 30
0.0
 11
211.0587786099336
 21
424.4249372540108
 31
0.0
  0
LINE
  5
279
330
6C
100
AcDbEntity
  8
Sichtbare Kanten(ISO)
100
AcDbLine
 10
211.0587786099336
 20
459.2249372540107
 30
0.0
 11
211.0587786099336
 21
452.6249372540108
 31
0.0
  0
LINE
  5
27A
330
6C
100
AcDbEntity
  8
Sichtbare Kanten(ISO)
100
AcDbLine
 10
212.4409611506277
 20
452.6249372540108
 30
0.0
 11
212.5623825068656
 21
452.6249372540108
 31
0.0
  0
LINE
  5
27B
330
6C
100
AcDbEntity
  8
Sichtbare Kanten(ISO)
100
AcDbLine
 10
212.4309611506276
 20
431.0249372540108
 30
0.0
 11
212.4309611506276
 21
452.6249372540108
 31
0.0
  0
LINE
  5
27C
330
6C
100
AcDbEntity
  8
Sichtbare Kanten(ISO)
100
AcDbLine
 10
212.5016718287466
 20
431.0249372540108
 30
0.0
 11
212.5016718287466
 21
452.6249372540108
 31
0.0
  0
LINE
  5
27D
330
6C
100
AcDbEntity
  8
Sichtbare Kanten(ISO)
100
AcDbLine
 10
212.5723825068657
 20
431.0249372540108
 30
0.0
 11
212.5723825068657
 21
452.6249372540108
 31
0.0
  0
LINE
  5
27E
330
6C
100
AcDbEntity
  8
Sichtbare Kanten(ISO)
100
AcDbLine
 10
213.2516718287467
 20
452.6249372540108
 30
0.0
 11
213.2516718287467
 21
431.0249372540108
 31
0.0
  0
LINE
  5
27F
330
6C
100
AcDbEntity
  8
Sichtbare Kanten(ISO)
100
AcDbLine
 10
210.4616718287466
 20
431.0249372540108
 30
0.0
 11
210.4616718287466
 21
452.6249372540108
 31
0.0
  0
LINE
  5
280
330
6C
100
AcDbEntity
  8
Sichtbare Kanten(ISO)
100
AcDbLine
 10
209.9516718287465
 20
300.1249372540109
 30
0.0
 11
210.4616718287466
 21
300.1249372540109
 31
0.0
  0
LINE
  5
281
330
6C
100
AcDbEntity
  8
Sichtbare Kanten(ISO)
100
AcDbLine
 10
210.4616718287466
 20
300.1249372540109
 30
0.0
 11
212.4309611506276
 21
300.1249372540109
 31
0.0
  0
LINE
  5
282
330
6C
100
AcDbEntity
  8
Sichtbare Kanten(ISO)
100
AcDbLine
 10
212.4309611506276
 20
300.1249372540109
 30
0.0
 11
212.4409611506277
 21
300.1249372540109
 31
0.0
  0
LINE
  5
283
330
6C
100
AcDbEntity
  8
Sichtbare Kanten(ISO)
100
AcDbLine
 10
212.5623825068656
 20
300.1249372540109
 30
0.0
 11
212.5723825068657
 21
300.1249372540109
 31
0.0
  0
LINE
  5
284
330
6C
100
AcDbEntity
  8
Sichtbare Kanten(ISO)
100
AcDbLine
 10
213.2516718287467
 20
300.1249372540109
 30
0.0
 11
212.5723825068657
 21
300.1249372540109
 31
0.0
  0
LINE
  5
285
330
6C
100
AcDbEntity
  8
Sichtbare Kanten(ISO)
100
AcDbLine
 10
210.0616718287463
 20
306.7249372540109
 30
0.0
 11
210.0616718287463
 21
300.1249372540109
 31
0.0
  0
LINE
  5
286
330
6C
100
AcDbEntity
  8
Sichtbare Kanten(ISO)
100
AcDbLine
 10
210.0616718287463
 20
278.5249372540109
 30
0.0
 11
210.0616718287463
 21
271.9249372540109
 31
0.0
  0
LINE
  5
287
330
6C
100
AcDbEntity
  8
Sichtbare Kanten(ISO)
100
AcDbLine
 10
209.9516718287465
 20
278.5249372540109
 30
0.0
 11
210.4616718287466
 21
278.5249372540109
 31
0.0
  0
LINE
  5
288
330
6C
100
AcDbEntity
  8
Sichtbare Kanten(ISO)
100
AcDbLine
 10
212.4309611506276
 20
278.5249372540109
 30
0.0
 11
212.4409611506277
 21
278.5249372540109
 31
0.0
  0
LINE
  5
289
330
6C
100
AcDbEntity
  8
Sichtbare Kanten(ISO)
100
AcDbLine
 10
210.4616718287466
 20
278.5249372540109
 30
0.0
 11
212.4309611506276
 21
278.5249372540109
 31
0.0
  0
LINE
  5
28A
330
6C
100
AcDbEntity
  8
Sichtbare Kanten(ISO)
100
AcDbLine
 10
212.5623825068656
 20
278.5249372540109
 30
0.0
 11
212.5723825068657
 21
278.5249372540109
 31
0.0
  0
LINE
  5
28B
330
6C
100
AcDbEntity
  8
Sichtbare Kanten(ISO)
100
AcDbLine
 10
213.2516718287467
 20
278.5249372540109
 30
0.0
 11
212.5723825068657
 21
278.5249372540109
 31
0.0
  0
LINE
  5
28C
330
6C
100
AcDbEntity
  8
Sichtbare Kanten(ISO)
100
AcDbLine
 10
219.9516718287466
 20
271.9249372540109
 30
0.0
 11
211.0587786099336
 21
271.9249372540109
 31
0.0
  0
LINE
  5
28D
330
6C
100
AcDbEntity
  8
Sichtbare Kanten(ISO)
100
AcDbLine
 10
211.0587786099336
 20
271.9249372540109
 30
0.0
 11
210.0616718287463
 21
271.9249372540109
 31
0.0
  0
LINE
  5
28E
330
6C
100
AcDbEntity
  8
Sichtbare Kanten(ISO)
100
AcDbLine
 10
211.0587786099336
 20
306.7249372540109
 30
0.0
 11
210.0616718287463
 21
306.7249372540109
 31
0.0
  0
LINE
  5
28F
330
6C
100
AcDbEntity
  8
Sichtbare Kanten(ISO)
100
AcDbLine
 10
219.9516718287466
 20
306.7249372540109
 30
0.0
 11
211.0587786099336
 21
306.7249372540109
 31
0.0
  0
LINE
  5
290
330
6C
100
AcDbEntity
  8
Sichtbare Kanten(ISO)
100
AcDbLine
 10
219.9516718287466
 20
306.7249372540109
 30
0.0
 11
219.9516718287466
 21
271.9249372540109
 31
0.0
  0
LINE
  5
291
330
6C
100
AcDbEntity
  8
Sichtbare Kanten(ISO)
100
AcDbLine
 10
212.4409611506277
 20
278.5249372540109
 30
0.0
 11
212.5623825068656
 21
278.5249372540109
 31
0.0
  0
LINE
  5
292
330
6C
100
AcDbEntity
  8
Sichtbare Kanten(ISO)
100
AcDbLine
 10
211.0587786099336
 20
278.5249372540109
 30
0.0
 11
211.0587786099336
 21
271.9249372540109
 31
0.0
  0
LINE
  5
293
330
6C
100
AcDbEntity
  8
Sichtbare Kanten(ISO)
100
AcDbLine
 10
211.0587786099336
 20
306.7249372540109
 30
0.0
 11
211.0587786099336
 21
300.1249372540109
 31
0.0
  0
LINE
  5
294
330
6C
100
AcDbEntity
  8
Sichtbare Kanten(ISO)
100
AcDbLine
 10
212.4409611506277
 20
300.1249372540109
 30
0.0
 11
212.5623825068656
 21
300.1249372540109
 31
0.0
  0
LINE
  5
295
330
6C
100
AcDbEntity
  8
Sichtbare Kanten(ISO)
100
AcDbLine
 10
212.4309611506276
 20
278.5249372540109
 30
0.0
 11
212.4309611506276
 21
300.1249372540109
 31
0.0
  0
LINE
  5
296
330
6C
100
AcDbEntity
  8
Sichtbare Kanten(ISO)
100
AcDbLine
 10
212.5016718287466
 20
278.5249372540109
 30
0.0
 11
212.5016718287466
 21
300.1249372540109
 31
0.0
  0
LINE
  5
297
330
6C
100
AcDbEntity
  8
Sichtbare Kanten(ISO)
100
AcDbLine
 10
212.5723825068657
 20
278.5249372540109
 30
0.0
 11
212.5723825068657
 21
300.1249372540109
 31
0.0
  0
LINE
  5
298
330
6C
100
AcDbEntity
  8
Sichtbare Kanten(ISO)
100
AcDbLine
 10
213.2516718287467
 20
300.1249372540109
 30
0.0
 11
213.2516718287467
 21
278.5249372540109
 31
0.0
  0
LINE
  5
299
330
6C
100
AcDbEntity
  8
Sichtbare Kanten(ISO)
100
AcDbLine
 10
210.4616718287466
 20
278.5249372540109
 30
0.0
 11
210.4616718287466
 21
300.1249372540109
 31
0.0
  0
CIRCLE
  5
29A
330
6C
100
AcDbEntity
  8
Sichtbare Kanten(ISO)
100
AcDbCircle
 10
204.9516642087471
 20
398.8249372540122
 30
0.0
 40
1.655
  0
CIRCLE
  5
29B
330
6C
100
AcDbEntity
  8
Sichtbare Kanten(ISO)
100
AcDbCircle
 10
204.9516642087437
 20
398.8249372540122
 30
0.0
 40
1.620999999999999
  0
CIRCLE
  5
29C
330
6C
100
AcDbEntity
  8
Sichtbare Kanten(ISO)
100
AcDbCircle
 10
204.9516642087472
 20
414.8249372540122
 30
0.0
 40
1.655
  0
CIRCLE
  5
29D
330
6C
100
AcDbEntity
  8
Sichtbare Kanten(ISO)
100
AcDbCircle
 10
204.9516642087437
 20
414.8249372540122
 30
0.0
 40
1.620999999999999
  0
LINE
  5
29E
330
6C
100
AcDbEntity
  8
Sichtbare Kanten(ISO)
100
AcDbLine
 10
198.4516642087472
 20
226.8249372540122
 30
0.0
 11
198.7516642087471
 21
226.8249372540122
 31
0.0
  0
LINE
  5
29F
330
6C
100
AcDbEntity
  8
Sichtbare Kanten(ISO)
100
AcDbLine
 10
145.9516642087471
 20
264.3249372540109
 30
0.0
 11
183.4516642087471
 21
226.8249372540109
 31
0.0
  0
LINE
  5
2A0
330
6C
100
AcDbEntity
  8
Sichtbare Kanten(ISO)
100
AcDbLine
 10
183.4516642087471
 20
226.8249372540109
 30
0.0
 11
198.4516642087471
 21
226.8249372540109
 31
0.0
  0
LINE
  5
2A1
330
6C
100
AcDbEntity
  8
Sichtbare Kanten(ISO)
100
AcDbLine
 10
198.7516642087471
 20
226.8249372540122
 30
0.0
 11
199.2516642087472
 21
226.82493725401
 31
0.0
  0
LINE
  5
2A2
330
6C
100
AcDbEntity
  8
Sichtbare Kanten(ISO)
100
AcDbLine
 10
198.4516642087471
 20
226.8249372540109
 30
0.0
 11
198.4516642087471
 21
351.8249372540109
 31
0.0
  0
CIRCLE
  5
2A3
330
6C
100
AcDbEntity
  8
Sichtbare Kanten(ISO)
100
AcDbCircle
 10
173.4516642087471
 20
289.3249372540109
 30
0.0
 40
13.0
  0
LINE
  5
2A4
330
6C
100
AcDbEntity
  8
Sichtbare Kanten(ISO)
100
AcDbLine
 10
145.9516642087471
 20
264.3249372540109
 30
0.0
 11
145.9516642087471
 21
314.3249372540109
 31
0.0
  0
LINE
  5
2A5
330
6C
100
AcDbEntity
  8
Sichtbare Kanten(ISO)
100
AcDbLine
 10
145.9516642087471
 20
314.3249372540109
 30
0.0
 11
183.4516642087471
 21
351.8249372540109
 31
0.0
  0
LINE
  5
2A6
330
6C
100
AcDbEntity
  8
Sichtbare Kanten(ISO)
100
AcDbLine
 10
183.4516642087471
 20
351.8249372540109
 30
0.0
 11
198.4516642087471
 21
351.8249372540109
 31
0.0
  0
LINE
  5
2A7
330
6C
100
AcDbEntity
  8
Sichtbare Kanten(ISO)
100
AcDbLine
 10
213.2516642087472
 20
461.8249372540128
 30
0.0
 11
213.751664208747
 21
461.8249372540128
 31
0.0
  0
LINE
  5
2A8
330
6C
100
AcDbEntity
  8
Sichtbare Kanten(ISO)
100
AcDbLine
 10
209.9516642087473
 20
461.8249372540121
 30
0.0
 11
213.2516642087472
 21
461.8249372540128
 31
0.0
  0
LINE
  5
2A9
330
6C
100
AcDbEntity
  8
Sichtbare Kanten(ISO)
100
AcDbLine
 10
198.7516642087471
 20
469.8249372540128
 30
0.0
 11
199.2516642087472
 21
469.8249372540128
 31
0.0
  0
LINE
  5
2AA
330
6C
100
AcDbEntity
  8
Sichtbare Kanten(ISO)
100
AcDbLine
 10
199.2516642087472
 20
469.8249372540128
 30
0.0
 11
213.2516642087472
 21
469.8249372540128
 31
0.0
  0
LINE
  5
2AB
330
6C
100
AcDbEntity
  8
Sichtbare Kanten(ISO)
100
AcDbLine
 10
213.2516642087472
 20
469.8249372540128
 30
0.0
 11
213.751664208747
 21
469.8249372540128
 31
0.0
  0
LINE
  5
2AC
330
6C
100
AcDbEntity
  8
Sichtbare Kanten(ISO)
100
AcDbLine
 10
198.7516642087471
 20
461.8249372540128
 30
0.0
 11
198.7516642087471
 21
469.8249372540128
 31
0.0
  0
LINE
  5
2AD
330
6C
100
AcDbEntity
  8
Sichtbare Kanten(ISO)
100
AcDbLine
 10
213.751664208747
 20
469.8249372540128
 30
0.0
 11
213.751664208747
 21
461.8249372540128
 31
0.0
  0
LINE
  5
2AE
330
6C
100
AcDbEntity
  8
Sichtbare Kanten(ISO)
100
AcDbLine
 10
213.2516642087472
 20
461.8249372540128
 30
0.0
 11
213.2516642087472
 21
469.8249372540128
 31
0.0
  0
LINE
  5
2AF
330
6C
100
AcDbEntity
  8
Sichtbare Kanten(ISO)
100
AcDbLine
 10
199.2516642087472
 20
469.8249372540128
 30
0.0
 11
199.2516642087473
 21
461.8249372540128
 31
0.0
  0
LINE
  5
2B0
330
6C
100
AcDbEntity
  8
Sichtbare Kanten(ISO)
100
AcDbLine
 10
213.2516642087471
 20
226.82493725401
 30
0.0
 11
209.9516642087473
 21
226.8249372540122
 31
0.0
  0
LINE
  5
2B1
330
6C
100
AcDbEntity
  8
Sichtbare Kanten(ISO)
100
AcDbLine
 10
213.751664208747
 20
226.82493725401
 30
0.0
 11
213.2516642087471
 21
226.82493725401
 31
0.0
  0
LINE
  5
2B2
330
6C
100
AcDbEntity
  8
Sichtbare Kanten(ISO)
100
AcDbLine
 10
213.751664208747
 20
218.82493725401
 30
0.0
 11
213.2516642087471
 21
218.82493725401
 31
0.0
  0
LINE
  5
2B3
330
6C
100
AcDbEntity
  8
Sichtbare Kanten(ISO)
100
AcDbLine
 10
213.2516642087471
 20
218.82493725401
 30
0.0
 11
199.2516642087472
 21
218.82493725401
 31
0.0
  0
LINE
  5
2B4
330
6C
100
AcDbEntity
  8
Sichtbare Kanten(ISO)
100
AcDbLine
 10
199.2516642087472
 20
218.82493725401
 30
0.0
 11
198.751664208747
 21
218.82493725401
 31
0.0
  0
LINE
  5
2B5
330
6C
100
AcDbEntity
  8
Sichtbare Kanten(ISO)
100
AcDbLine
 10
198.751664208747
 20
218.82493725401
 30
0.0
 11
198.751664208747
 21
226.82493725401
 31
0.0
  0
LINE
  5
2B6
330
6C
100
AcDbEntity
  8
Sichtbare Kanten(ISO)
100
AcDbLine
 10
213.2516642087471
 20
218.82493725401
 30
0.0
 11
213.2516642087471
 21
226.82493725401
 31
0.0
  0
LINE
  5
2B7
330
6C
100
AcDbEntity
  8
Sichtbare Kanten(ISO)
100
AcDbLine
 10
199.2516642087472
 20
226.82493725401
 30
0.0
 11
199.2516642087472
 21
218.82493725401
 31
0.0
  0
LINE
  5
2B8
330
6C
100
AcDbEntity
  8
Sichtbare Kanten(ISO)
100
AcDbLine
 10
213.751664208747
 20
226.82493725401
 30
0.0
 11
213.751664208747
 21
218.82493725401
 31
0.0
  0
SPLINE
  5
2B9
330
6C
100
AcDbEntity
  8
Sichtbare Kanten(ISO)
100
AcDbSpline
210
0.0
220
0.0
230
1.0
 70
    28
 71
     2
 72
     6
 73
     3
 74
     0
 42
0.0000000001
 43
0.0000000001
 40
0.0
 40
0.0
 40
0.0
 40
0.0194186103655869
 40
0.0194186103655869
 40
0.0194186103655869
 10
168.1601615866163
 20
290.824937254011
 30
0.0
 41
1.0
 10
168.4334888611629
 20
290.824937254011
 30
0.0
 41
1.039032875474398
 10
168.6819682016606
 20
290.824937254011
 30
0.0
 41
1.076923076922947
  0
SPLINE
  5
2BA
330
6C
100
AcDbEntity
  8
Sichtbare Kanten(ISO)
100
AcDbSpline
210
0.0
220
0.0
230
1.0
 70
    28
 71
     2
 72
     6
 73
     3
 74
     0
 42
0.0000000001
 43
0.0000000001
 40
1.307231305776178
 40
1.307231305776178
 40
1.307231305776178
 40
1.326649916142158
 40
1.326649916142158
 40
1.326649916142158
 10
168.6819682016606
 20
287.8249372540109
 30
0.0
 41
1.076923076924484
 10
168.4334888611682
 20
287.8249372540109
 30
0.0
 41
1.03903287547519
 10
168.1601615866163
 20
287.8249372540109
 30
0.0
 41
1.0
  0
ARC
  5
2BB
330
6C
100
AcDbEntity
  8
Sichtbare Kanten(ISO)
100
AcDbCircle
 10
173.4516642087455
 20
289.3249372540109
 30
0.0
 40
5.499999999999995
100
AcDbArc
 50
195.8266201318726
 51
164.1733798681279
  0
ARC
  5
2BC
330
6C
100
AcDbEntity
  8
Sichtbare Kanten(ISO)
100
AcDbCircle
 10
173.4516642087454
 20
289.3249372540109
 30
0.0
 40
5.000000000000007
100
AcDbArc
 50
197.4576031237216
 51
162.5423968762777
  0
LINE
  5
2BD
330
6C
100
AcDbEntity
  8
Sichtbare Kanten(ISO)
100
AcDbLine
 10
168.1601615866163
 20
290.824937254011
 30
0.0
 11
167.0516642087455
 21
290.824937254011
 31
0.0
  0
LINE
  5
2BE
330
6C
100
AcDbEntity
  8
Sichtbare Kanten(ISO)
100
AcDbLine
 10
167.0516642087455
 20
287.8249372540109
 30
0.0
 11
168.1601615866163
 21
287.8249372540109
 31
0.0
  0
LINE
  5
2BF
330
6C
100
AcDbEntity
  8
Sichtbare Kanten(ISO)
100
AcDbLine
 10
167.0516642087455
 20
290.824937254011
 30
0.0
 11
167.0516642087455
 21
287.8249372540109
 31
0.0
  0
LINE
  5
2C0
330
6C
100
AcDbEntity
  8
Sichtbare Kanten(ISO)
100
AcDbLine
 10
198.4516642087436
 20
421.8249372540121
 30
0.0
 11
196.8516642087433
 21
421.8249372540121
 31
0.0
  0
LINE
  5
2C1
330
6C
100
AcDbEntity
  8
Sichtbare Kanten(ISO)
100
AcDbLine
 10
198.4516642087434
 20
431.8249372540122
 30
0.0
 11
196.8516642087433
 21
431.8249372540122
 31
0.0
  0
LINE
  5
2C2
330
6C
100
AcDbEntity
  8
Sichtbare Kanten(ISO)
100
AcDbLine
 10
196.8516642087433
 20
391.8249372540122
 30
0.0
 11
198.4516642087434
 21
391.8249372540122
 31
0.0
  0
LINE
  5
2C3
330
6C
100
AcDbEntity
  8
Sichtbare Kanten(ISO)
100
AcDbLine
 10
196.8516642087433
 20
381.8249372540122
 30
0.0
 11
198.4516642087436
 21
381.8249372540122
 31
0.0
  0
LINE
  5
2C4
330
6C
100
AcDbEntity
  8
Sichtbare Kanten(ISO)
100
AcDbLine
 10
231.2516642287453
 20
216.8249372540108
 30
0.0
 11
215.4516642287453
 21
216.8249372540108
 31
0.0
  0
LINE
  5
2C5
330
6C
100
AcDbEntity
  8
Sichtbare Kanten(ISO)
100
AcDbLine
 10
223.1516718287453
 20
521.8249372540108
 30
0.0
 11
231.2516642287453
 21
521.8249372540108
 31
0.0
  0
LINE
  5
2C6
330
6C
100
AcDbEntity
  8
Sichtbare Kanten(ISO)
100
AcDbLine
 10
256.6516642287453
 20
216.8249372540108
 30
0.0
 11
231.2516642287453
 21
216.8249372540108
 31
0.0
  0
LINE
  5
2C7
330
6C
100
AcDbEntity
  8
Sichtbare Kanten(ISO)
100
AcDbLine
 10
199.4516642287454
 20
204.8249372540108
 30
0.0
 11
199.4516642287454
 21
181.8249372540108
 31
0.0
  0
LINE
  5
2C8
330
6C
100
AcDbEntity
  8
Sichtbare Kanten(ISO)
100
AcDbLine
 10
199.4516642287454
 20
181.8249372540108
 30
0.0
 11
267.9516642287453
 21
181.8249372540108
 31
0.0
  0
LINE
  5
2C9
330
6C
100
AcDbEntity
  8
Sichtbare Kanten(ISO)
100
AcDbLine
 10
267.9516642287453
 20
181.8249372540108
 30
0.0
 11
267.9516642287453
 21
216.8249372540108
 31
0.0
  0
LINE
  5
2CA
330
6C
100
AcDbEntity
  8
Sichtbare Kanten(ISO)
100
AcDbLine
 10
268.2516642287454
 20
521.8249372540108
 30
0.0
 11
256.6516642287453
 21
521.8249372540108
 31
0.0
  0
LINE
  5
2CB
330
6C
100
AcDbEntity
  8
Sichtbare Kanten(ISO)
100
AcDbLine
 10
268.4248693095022
 20
217.8249372540108
 30
0.0
 11
268.2516642287454
 21
217.8249372540108
 31
0.0
  0
LINE
  5
2CC
330
6C
100
AcDbEntity
  8
Sichtbare Kanten(ISO)
100
AcDbLine
 10
256.6516642287453
 20
217.8249372540108
 30
0.0
 11
268.2516642287454
 21
217.8249372540108
 31
0.0
  0
LINE
  5
2CD
330
6C
100
AcDbEntity
  8
Sichtbare Kanten(ISO)
100
AcDbLine
 10
268.4248693095022
 20
217.8249372540108
 30
0.0
 11
268.4248693095022
 21
216.8249372540108
 31
0.0
  0
LINE
  5
2CE
330
6C
100
AcDbEntity
  8
Sichtbare Kanten(ISO)
100
AcDbLine
 10
268.4248693095022
 20
216.8249372540108
 30
0.0
 11
267.9516642287453
 21
216.8249372540108
 31
0.0
  0
LINE
  5
2CF
330
6C
100
AcDbEntity
  8
Sichtbare Kanten(ISO)
100
AcDbLine
 10
267.9516642287453
 20
216.8249372540108
 30
0.0
 11
256.6516642287453
 21
216.8249372540108
 31
0.0
  0
LINE
  5
2D0
330
6C
100
AcDbEntity
  8
Sichtbare Kanten(ISO)
100
AcDbLine
 10
256.6516642287453
 20
217.8249372540108
 30
0.0
 11
256.6516642287453
 21
216.8249372540108
 31
0.0
  0
LINE
  5
2D1
330
6C
100
AcDbEntity
  8
Sichtbare Kanten(ISO)
100
AcDbLine
 10
223.1516718287453
 20
217.8249372540108
 30
0.0
 11
222.9784667479885
 21
217.8249372540108
 31
0.0
  0
LINE
  5
2D2
330
6C
100
AcDbEntity
  8
Sichtbare Kanten(ISO)
100
AcDbLine
 10
223.1516718287453
 20
217.8249372540108
 30
0.0
 11
231.2516642287453
 21
217.8249372540108
 31
0.0
  0
LINE
  5
2D3
330
6C
100
AcDbEntity
  8
Sichtbare Kanten(ISO)
100
AcDbLine
 10
231.2516642287453
 20
217.8249372540108
 30
0.0
 11
231.2516642287453
 21
216.8249372540108
 31
0.0
  0
LINE
  5
2D4
330
6C
100
AcDbEntity
  8
Sichtbare Kanten(ISO)
100
AcDbLine
 10
222.9784667479885
 20
216.8249372540108
 30
0.0
 11
222.9784667479885
 21
217.8249372540108
 31
0.0
  0
LINE
  5
2D5
330
6C
100
AcDbEntity
  8
Sichtbare Kanten(ISO)
100
AcDbLine
 10
268.4516642287454
 20
216.8249372540108
 30
0.0
 11
268.4248693095022
 21
216.8249372540108
 31
0.0
  0
LINE
  5
2D6
330
6C
100
AcDbEntity
  8
Sichtbare Kanten(ISO)
100
AcDbLine
 10
268.4516642287454
 20
521.8249372540108
 30
0.0
 11
268.4516642287454
 21
216.8249372540108
 31
0.0
  0
LINE
  5
2D7
330
6C
100
AcDbEntity
  8
Sichtbare Kanten(ISO)
100
AcDbLine
 10
268.2516642287454
 20
521.8249372540108
 30
0.0
 11
268.4516642287454
 21
521.8249372540108
 31
0.0
  0
LINE
  5
2D8
330
6C
100
AcDbEntity
  8
Sichtbare Kanten(ISO)
100
AcDbLine
 10
222.9516718287452
 20
216.8249372540108
 30
0.0
 11
222.9516718287452
 21
521.8249372540108
 31
0.0
  0
LINE
  5
2D9
330
6C
100
AcDbEntity
  8
Sichtbare Kanten(ISO)
100
AcDbLine
 10
231.4516642287453
 20
521.8249372540108
 30
0.0
 11
231.4516642287453
 21
216.8249372540108
 31
0.0
  0
LINE
  5
2DA
330
6C
100
AcDbEntity
  8
Sichtbare Kanten(ISO)
100
AcDbLine
 10
256.4516642287454
 20
216.8249372540108
 30
0.0
 11
256.4516642287454
 21
521.8249372540108
 31
0.0
  0
LINE
  5
2DB
330
6C
100
AcDbEntity
  8
Sichtbare Kanten(ISO)
100
AcDbLine
 10
221.5516718287268
 20
216.8249372540108
 30
0.0
 11
221.5516718287268
 21
239.883839498949
 31
0.0
  0
LINE
  5
2DC
330
6C
100
AcDbEntity
  8
Sichtbare Kanten(ISO)
100
AcDbLine
 10
221.5516718287268
 20
263.7660350090728
 30
0.0
 11
221.5516718287268
 21
314.883839498949
 31
0.0
  0
LINE
  5
2DD
330
6C
100
AcDbEntity
  8
Sichtbare Kanten(ISO)
100
AcDbLine
 10
221.5516718287268
 20
338.7660350090728
 30
0.0
 11
221.5516718287268
 21
521.8249372540108
 31
0.0
  0
LINE
  5
2DE
330
6C
100
AcDbEntity
  8
Sichtbare Kanten(ISO)
100
AcDbLine
 10
215.4516642287453
 20
216.8249372540108
 30
0.0
 11
215.4516642287453
 21
204.8249372540108
 31
0.0
  0
LINE
  5
2DF
330
6C
100
AcDbEntity
  8
Sichtbare Kanten(ISO)
100
AcDbLine
 10
215.4516642287453
 20
204.8249372540108
 30
0.0
 11
199.4516642287454
 21
204.8249372540108
 31
0.0
  0
ARC
  5
2E0
330
6C
100
AcDbEntity
  8
Sichtbare Kanten(ISO)
100
AcDbCircle
 10
207.4516642287409
 20
215.3017299362597
 30
0.0
 40
4.523207317751073
100
AcDbArc
 50
128.8383906701716
 51
148.2769041740214
  0
ARC
  5
2E1
330
6C
100
AcDbEntity
  8
Sichtbare Kanten(ISO)
100
AcDbCircle
 10
207.4516642287409
 20
215.3017299362597
 30
0.0
 40
4.523207317751074
100
AcDbArc
 50
31.72309582598933
 51
51.16160932982832
  0
ARC
  5
2E2
330
6C
100
AcDbEntity
  8
Sichtbare Kanten(ISO)
100
AcDbCircle
 10
190.5035759665946
 20
204.8249372540096
 30
0.0
 40
24.44808826214607
100
AcDbArc
 50
0.0
 51
31.72309582598217
  0
ARC
  5
2E3
330
6C
100
AcDbEntity
  8
Sichtbare Kanten(ISO)
100
AcDbCircle
 10
224.3997524908871
 20
204.8249372540081
 30
0.0
 40
24.44808826214607
100
AcDbArc
 50
148.2769041740168
 51
180.0
  0
LINE
  5
2E4
330
6C
100
AcDbEntity
  8
Sichtbare Kanten(ISO)
100
AcDbLine
 10
199.4516642287454
 20
533.8249372540108
 30
0.0
 11
215.4516642287453
 21
533.8249372540108
 31
0.0
  0
LINE
  5
2E5
330
6C
100
AcDbEntity
  8
Sichtbare Kanten(ISO)
100
AcDbLine
 10
215.4516642287453
 20
533.8249372540108
 30
0.0
 11
215.4516642287453
 21
521.8249372540108
 31
0.0
  0
LINE
  5
2E6
330
6C
100
AcDbEntity
  8
Sichtbare Kanten(ISO)
100
AcDbLine
 10
215.4516642287453
 20
521.8249372540108
 30
0.0
 11
267.9516642287453
 21
521.8249372540108
 31
0.0
  0
LINE
  5
2E7
330
6C
100
AcDbEntity
  8
Sichtbare Kanten(ISO)
100
AcDbLine
 10
267.9516642287453
 20
521.8249372540108
 30
0.0
 11
267.9516642287453
 21
556.8249372540106
 31
0.0
  0
LINE
  5
2E8
330
6C
100
AcDbEntity
  8
Sichtbare Kanten(ISO)
100
AcDbLine
 10
199.4516642287454
 20
556.8249372540106
 30
0.0
 11
267.9516642287453
 21
556.8249372540106
 31
0.0
  0
LINE
  5
2E9
330
6C
100
AcDbEntity
  8
Sichtbare Kanten(ISO)
100
AcDbLine
 10
199.4516642287454
 20
556.8249372540106
 30
0.0
 11
199.4516642287454
 21
533.8249372540108
 31
0.0
  0
LINE
  5
2EA
330
6C
100
AcDbEntity
  8
Sichtbare Kanten(ISO)
100
AcDbLine
 10
210.2882845127234
 20
519.8249372540106
 30
0.0
 11
204.6150439447582
 21
519.8249372540106
 31
0.0
  0
ARC
  5
2EB
330
6C
100
AcDbEntity
  8
Sichtbare Kanten(ISO)
100
AcDbCircle
 10
207.4516642287408
 20
523.3481445717618
 30
0.0
 40
4.523207317751073
100
AcDbArc
 50
308.8383906701717
 51
328.2769041740217
  0
ARC
  5
2EC
330
6C
100
AcDbEntity
  8
Sichtbare Kanten(ISO)
100
AcDbCircle
 10
207.4516642287408
 20
523.3481445717618
 30
0.0
 40
4.523207317751073
100
AcDbArc
 50
211.7230958259895
 51
231.1616093298286
  0
ARC
  5
2ED
330
6C
100
AcDbEntity
  8
Sichtbare Kanten(ISO)
100
AcDbCircle
 10
224.399752490887
 20
533.824937254012
 30
0.0
 40
24.44808826214608
100
AcDbArc
 50
180.0
 51
211.7230958259822
  0
ARC
  5
2EE
330
6C
100
AcDbEntity
  8
Sichtbare Kanten(ISO)
100
AcDbCircle
 10
190.5035759665945
 20
533.8249372540135
 30
0.0
 40
24.44808826214607
100
AcDbArc
 50
328.2769041740169
 51
0.0
  0
CIRCLE
  5
2EF
330
6C
100
AcDbEntity
  8
Sichtbare Kanten(ISO)
100
AcDbCircle
 10
168.4516642088143
 20
633.4586537334029
 30
0.0
 40
5.0
  0
CIRCLE
  5
2F0
330
6C
100
AcDbEntity
  8
Sichtbare Kanten(ISO)
100
AcDbCircle
 10
168.4516642088321
 20
693.4586537334029
 30
0.0
 40
5.0
  0
LINE
  5
2F1
330
6C
100
AcDbEntity
  8
Sichtbare Kanten(ISO)
100
AcDbLine
 10
219.9516718288326
 20
695.9586537333965
 30
0.0
 11
219.9516718288339
 21
700.3586537333965
 31
0.0
  0
LINE
  5
2F2
330
6C
100
AcDbEntity
  8
Sichtbare Kanten(ISO)
100
AcDbLine
 10
219.9516718288339
 20
700.3586537333965
 30
0.0
 11
213.7516642088341
 21
700.3586537333983
 31
0.0
  0
LINE
  5
2F3
330
6C
100
AcDbEntity
  8
Sichtbare Kanten(ISO)
100
AcDbLine
 10
213.7516642088123
 20
626.5586537333984
 30
0.0
 11
219.951671828812
 21
626.5586537333965
 31
0.0
  0
LINE
  5
2F4
330
6C
100
AcDbEntity
  8
Sichtbare Kanten(ISO)
100
AcDbLine
 10
219.951671828812
 20
626.5586537333965
 30
0.0
 11
219.9516718288133
 21
630.9586537333965
 31
0.0
  0
LINE
  5
2F5
330
6C
100
AcDbEntity
  8
Sichtbare Kanten(ISO)
100
AcDbLine
 10
198.7516642088256
 20
671.4586537333893
 30
0.0
 11
198.4516642088258
 21
671.4586537333895
 31
0.0
  0
LINE
  5
2F6
330
6C
100
AcDbEntity
  8
Sichtbare Kanten(ISO)
100
AcDbLine
 10
198.451664208821
 20
655.4586537333895
 30
0.0
 11
198.7516642088208
 21
655.4586537333894
 31
0.0
  0
LINE
  5
2F7
330
6C
100
AcDbEntity
  8
Sichtbare Kanten(ISO)
100
AcDbLine
 10
198.7516642088121
 20
625.9586537333892
 30
0.0
 11
198.4516642088124
 21
626.2586537333893
 31
0.0
  0
LINE
  5
2F8
330
6C
100
AcDbEntity
  8
Sichtbare Kanten(ISO)
100
AcDbLine
 10
198.4516642088344
 20
700.6586537333895
 30
0.0
 11
198.7516642088343
 21
700.9586537333895
 31
0.0
  0
LINE
  5
2F9
330
6C
100
AcDbEntity
  8
Sichtbare Kanten(ISO)
100
AcDbLine
 10
198.4516642088124
 20
626.2586537333893
 30
0.0
 11
198.4516642088122
 21
625.9586537333895
 31
0.0
  0
LINE
  5
2FA
330
6C
100
AcDbEntity
  8
Sichtbare Kanten(ISO)
100
AcDbLine
 10
198.4516642088343
 20
700.9586537333895
 30
0.0
 11
198.4516642088344
 21
700.6586537333895
 31
0.0
  0
LINE
  5
2FB
330
6C
100
AcDbEntity
  8
Sichtbare Kanten(ISO)
100
AcDbLine
 10
198.4516642088258
 20
671.4586537333895
 30
0.0
 11
198.451664208821
 21
655.4586537333895
 31
0.0
  0
LINE
  5
2FC
330
6C
100
AcDbEntity
  8
Sichtbare Kanten(ISO)
100
AcDbLine
 10
145.9516642088343
 20
700.9586537334162
 30
0.0
 11
183.4516642088343
 21
700.9586537333939
 31
0.0
  0
LINE
  5
2FD
330
6C
100
AcDbEntity
  8
Sichtbare Kanten(ISO)
100
AcDbLine
 10
145.9516642088343
 20
700.9586537334162
 30
0.0
 11
145.9516642088121
 21
625.9586537334162
 31
0.0
  0
LINE
  5
2FE
330
6C
100
AcDbEntity
  8
Sichtbare Kanten(ISO)
100
AcDbLine
 10
183.4516642088121
 20
625.9586537333939
 30
0.0
 11
145.9516642088121
 21
625.9586537334162
 31
0.0
  0
LINE
  5
2FF
330
6C
100
AcDbEntity
  8
Sichtbare Kanten(ISO)
100
AcDbLine
 10
183.4516642088343
 20
700.9586537333939
 30
0.0
 11
183.4516642088121
 21
625.9586537333939
 31
0.0
  0
LINE
  5
300
330
6C
100
AcDbEntity
  8
Sichtbare Kanten(ISO)
100
AcDbLine
 10
183.4516642088343
 20
700.9586537333939
 30
0.0
 11
198.4516642088343
 21
700.9586537333895
 31
0.0
  0
LINE
  5
301
330
6C
100
AcDbEntity
  8
Sichtbare Kanten(ISO)
100
AcDbLine
 10
198.4516642088122
 20
625.9586537333895
 30
0.0
 11
183.4516642088121
 21
625.9586537333939
 31
0.0
  0
LINE
  5
302
330
6C
100
AcDbEntity
  8
Sichtbare Kanten(ISO)
100
AcDbLine
 10
199.2516642088122
 20
625.9586537333891
 30
0.0
 11
198.7516642088121
 21
625.9586537333892
 31
0.0
  0
LINE
  5
303
330
6C
100
AcDbEntity
  8
Sichtbare Kanten(ISO)
100
AcDbLine
 10
198.7516642088343
 20
700.9586537333895
 30
0.0
 11
199.2516642088344
 21
700.9586537333894
 31
0.0
  0
LINE
  5
304
330
6C
100
AcDbEntity
  8
Sichtbare Kanten(ISO)
100
AcDbLine
 10
213.7516642088123
 20
626.4586537333824
 30
0.0
 11
213.7516642088136
 21
630.9586537333826
 31
0.0
  0
LINE
  5
305
330
6C
100
AcDbEntity
  8
Sichtbare Kanten(ISO)
100
AcDbLine
 10
213.7516642088328
 20
695.9586537333826
 30
0.0
 11
213.7516642088342
 21
700.4586537333826
 31
0.0
  0
LINE
  5
306
330
6C
100
AcDbEntity
  8
Sichtbare Kanten(ISO)
100
AcDbLine
 10
213.7516642088342
 20
700.4586537333826
 30
0.0
 11
213.2516642088343
 21
700.9586537333827
 31
0.0
  0
LINE
  5
307
330
6C
100
AcDbEntity
  8
Sichtbare Kanten(ISO)
100
AcDbLine
 10
213.2516642088343
 20
700.9586537333827
 30
0.0
 11
199.2516642088344
 21
700.958653733387
 31
0.0
  0
LINE
  5
308
330
6C
100
AcDbEntity
  8
Sichtbare Kanten(ISO)
100
AcDbLine
 10
199.2516642088344
 20
700.958653733387
 30
0.0
 11
198.7516642088342
 21
700.458653733387
 31
0.0
  0
LINE
  5
309
330
6C
100
AcDbEntity
  8
Sichtbare Kanten(ISO)
100
AcDbLine
 10
198.7516642088342
 20
700.458653733387
 30
0.0
 11
198.7516642088124
 21
626.4586537333869
 31
0.0
  0
LINE
  5
30A
330
6C
100
AcDbEntity
  8
Sichtbare Kanten(ISO)
100
AcDbLine
 10
198.7516642088124
 20
626.4586537333869
 30
0.0
 11
199.2516642088122
 21
625.9586537333866
 31
0.0
  0
LINE
  5
30B
330
6C
100
AcDbEntity
  8
Sichtbare Kanten(ISO)
100
AcDbLine
 10
199.2516642088122
 20
625.9586537333866
 30
0.0
 11
213.2516642088121
 21
625.9586537333826
 31
0.0
  0
LINE
  5
30C
330
6C
100
AcDbEntity
  8
Sichtbare Kanten(ISO)
100
AcDbLine
 10
213.2516642088121
 20
625.9586537333826
 30
0.0
 11
213.7516642088123
 21
626.4586537333824
 31
0.0
  0
LINE
  5
30D
330
6C
100
AcDbEntity
  8
Sichtbare Kanten(ISO)
100
AcDbLine
 10
260.9516642288149
 20
636.3916537333619
 30
0.0
 11
260.9516642288156
 21
638.7086537333617
 31
0.0
  0
LINE
  5
30E
330
6C
100
AcDbEntity
  8
Sichtbare Kanten(ISO)
100
AcDbLine
 10
260.9516642288162
 20
640.5256537333618
 30
0.0
 11
260.9516642288156
 21
638.7086537333617
 31
0.0
  0
LINE
  5
30F
330
6C
100
AcDbEntity
  8
Sichtbare Kanten(ISO)
100
AcDbLine
 10
260.9516642288304
 20
688.2086537333618
 30
0.0
 11
260.9516642288298
 21
686.3916537333619
 31
0.0
  0
LINE
  5
310
330
6C
100
AcDbEntity
  8
Sichtbare Kanten(ISO)
100
AcDbLine
 10
260.9516642288304
 20
688.2086537333618
 30
0.0
 11
260.951664228831
 21
690.5256537333619
 31
0.0
  0
LINE
  5
311
330
6C
100
AcDbEntity
  8
Sichtbare Kanten(ISO)
100
AcDbLine
 10
267.9516642288133
 20
631.058653733366
 30
0.0
 11
268.4248693095703
 21
631.0586537333659
 31
0.0
  0
ARC
  5
312
330
6C
100
AcDbEntity
  8
Sichtbare Kanten(ISO)
100
AcDbCircle
 10
268.2516642288134
 20
631.1586537333661
 30
0.0
 40
0.1999999999999872
100
AcDbArc
 50
270.0
 51
329.9999999999975
  0
LINE
  5
313
330
6C
100
AcDbEntity
  8
Sichtbare Kanten(ISO)
100
AcDbLine
 10
268.2516642288133
 20
630.9586537333662
 30
0.0
 11
267.9516642288133
 21
630.9586537333662
 31
0.0
  0
ARC
  5
314
330
6C
100
AcDbEntity
  8
Sichtbare Kanten(ISO)
100
AcDbCircle
 10
268.2516642288133
 20
631.1586537333657
 30
0.0
 40
0.2000000000000071
100
AcDbArc
 50
329.9999999999975
 51
0.0
  0
LINE
  5
315
330
6C
100
AcDbEntity
  8
Sichtbare Kanten(ISO)
100
AcDbLine
 10
268.4516642288134
 20
631.1586537333657
 30
0.0
 11
268.4516642288155
 21
638.2086537333659
 31
0.0
  0
ARC
  5
316
330
6C
100
AcDbEntity
  8
Sichtbare Kanten(ISO)
100
AcDbCircle
 10
268.2516642288152
 20
638.2086537333658
 30
0.0
 40
0.200000000000316
100
AcDbArc
 50
0.0
 51
89.99999999989313
  0
LINE
  5
317
330
6C
100
AcDbEntity
  8
Sichtbare Kanten(ISO)
100
AcDbLine
 10
268.2516642288156
 20
638.408653733366
 30
0.0
 11
267.9516642288156
 21
638.408653733366
 31
0.0
  0
ARC
  5
318
330
6C
100
AcDbEntity
  8
Sichtbare Kanten(ISO)
100
AcDbCircle
 10
268.2516642288325
 20
695.7586537333658
 30
0.0
 40
0.2000000000000609
100
AcDbArc
 50
0.0
 51
29.99999999996077
  0
LINE
  5
319
330
6C
100
AcDbEntity
  8
Sichtbare Kanten(ISO)
100
AcDbLine
 10
267.9516642288304
 20
688.5086537333657
 30
0.0
 11
268.2516642288305
 21
688.5086537333656
 31
0.0
  0
ARC
  5
31A
330
6C
100
AcDbEntity
  8
Sichtbare Kanten(ISO)
100
AcDbCircle
 10
268.2516642288305
 20
688.7086537333654
 30
0.0
 40
0.1999999999998492
100
AcDbArc
 50
269.9999999999847
 51
0.0
  0
LINE
  5
31B
330
6C
100
AcDbEntity
  8
Sichtbare Kanten(ISO)
100
AcDbLine
 10
268.4516642288325
 20
695.7586537333658
 30
0.0
 11
268.4516642288305
 21
688.7086537333658
 31
0.0
  0
LINE
  5
31C
330
6C
100
AcDbEntity
  8
Sichtbare Kanten(ISO)
100
AcDbLine
 10
268.2516642288281
 20
680.4086537333658
 30
0.0
 11
267.951664228828
 21
680.4086537333659
 31
0.0
  0
ARC
  5
31D
330
6C
100
AcDbEntity
  8
Sichtbare Kanten(ISO)
100
AcDbCircle
 10
268.2516642288279
 20
680.2086537333658
 30
0.0
 40
0.2000000000000687
100
AcDbArc
 50
0.0
 51
89.99999999993894
  0
LINE
  5
31E
330
6C
100
AcDbEntity
  8
Sichtbare Kanten(ISO)
100
AcDbLine
 10
268.451664228818
 20
646.7086537333657
 30
0.0
 11
268.4516642288279
 21
680.2086537333658
 31
0.0
  0
ARC
  5
31F
330
6C
100
AcDbEntity
  8
Sichtbare Kanten(ISO)
100
AcDbCircle
 10
268.251664228818
 20
646.7086537333657
 30
0.0
 40
0.1999999999999824
100
AcDbArc
 50
270.0
 51
0.0
  0
LINE
  5
320
330
6C
100
AcDbEntity
  8
Sichtbare Kanten(ISO)
100
AcDbLine
 10
267.9516642288179
 20
646.5086537333659
 30
0.0
 11
268.251664228818
 21
646.5086537333659
 31
0.0
  0
LINE
  5
321
330
6C
100
AcDbEntity
  8
Sichtbare Kanten(ISO)
100
AcDbLine
 10
199.4516642288133
 20
630.9586537333758
 30
0.0
 11
267.9516642288133
 21
630.9586537333556
 31
0.0
  0
LINE
  5
322
330
6C
100
AcDbEntity
  8
Sichtbare Kanten(ISO)
100
AcDbLine
 10
199.4516642288326
 20
695.9586537333758
 30
0.0
 11
267.9516642288326
 21
695.9586537333555
 31
0.0
  0
LINE
  5
323
330
6C
100
AcDbEntity
  8
Sichtbare Kanten(ISO)
100
AcDbLine
 10
199.4516642288326
 20
695.9586537333758
 30
0.0
 11
199.4516642288133
 21
630.9586537333758
 31
0.0
  0
LINE
  5
324
330
6C
100
AcDbEntity
  8
Sichtbare Kanten(ISO)
100
AcDbLine
 10
267.9516642288133
 20
630.9586537333556
 30
0.0
 11
267.9516642288326
 21
695.9586537333555
 31
0.0
  0
ARC
  5
325
330
6C
100
AcDbEntity
  8
Sichtbare Kanten(ISO)
100
AcDbCircle
 10
268.2516642288325
 20
695.7586537333661
 30
0.0
 40
0.2000000000000756
100
AcDbArc
 50
29.99999999998722
 51
89.9999999999542
  0
LINE
  5
326
330
6C
100
AcDbEntity
  8
Sichtbare Kanten(ISO)
100
AcDbLine
 10
267.9516642288326
 20
695.9586537333663
 30
0.0
 11
268.2516642288327
 21
695.9586537333661
 31
0.0
  0
LINE
  5
327
330
6C
100
AcDbEntity
  8
Sichtbare Kanten(ISO)
100
AcDbLine
 10
268.4248693095895
 20
695.8586537333658
 30
0.0
 11
267.9516642288326
 21
695.8586537333659
 31
0.0
  0
CIRCLE
  5
328
330
6C
100
AcDbEntity
  8
Sichtbare Kanten(ISO)
100
AcDbCircle
 10
220.9516642288304
 20
688.4586537333695
 30
0.0
 40
2.067
  0
CIRCLE
  5
329
330
6C
100
AcDbEntity
  8
Sichtbare Kanten(ISO)
100
AcDbCircle
 10
260.9516642288156
 20
638.4586537333576
 30
0.0
 40
2.067
  0
CIRCLE
  5
32A
330
6C
100
AcDbEntity
  8
Sichtbare Kanten(ISO)
100
AcDbCircle
 10
260.9516642288304
 20
688.4586537333576
 30
0.0
 40
2.067
  0
CIRCLE
  5
32B
330
6C
100
AcDbEntity
  8
Sichtbare Kanten(ISO)
100
AcDbCircle
 10
220.9516642288156
 20
638.4586537333695
 30
0.0
 40
2.067
  0
CIRCLE
  5
32C
330
6C
100
AcDbEntity
  8
Sichtbare Kanten(ISO)
100
AcDbCircle
 10
240.9516642288156
 20
638.4586537333635
 30
0.0
 40
5.0
  0
CIRCLE
  5
32D
330
6C
100
AcDbEntity
  8
Sichtbare Kanten(ISO)
100
AcDbCircle
 10
240.9516642288304
 20
688.4586537333635
 30
0.0
 40
5.0
  0
CIRCLE
  5
32E
330
6C
100
AcDbEntity
  8
Sichtbare Kanten(ISO)
100
AcDbCircle
 10
240.9516642288304
 20
688.4586537333641
 30
0.0
 40
2.067
  0
CIRCLE
  5
32F
330
6C
100
AcDbEntity
  8
Sichtbare Kanten(ISO)
100
AcDbCircle
 10
240.9516642288156
 20
638.4586537333643
 30
0.0
 40
2.067
  0
LINE
  5
330
330
6C
100
AcDbEntity
  8
Mittelpunktmarkierung(ISO)
  6
CHAIN
 48
9.259962081909179
100
AcDbLine
 10
394.3779606626067
 20
254.3249372540109
 30
0.0
 11
394.3779606626067
 21
229.3249372540109
 31
0.0
  0
LINE
  5
331
330
6C
100
AcDbEntity
  8
Mittelpunktmarkierung(ISO)
  6
CHAIN
 48
9.259962081909179
100
AcDbLine
 10
406.8779606626066
 20
241.8249372540109
 30
0.0
 11
381.8779606626067
 21
241.8249372540109
 31
0.0
  0
LINE
  5
332
330
6C
100
AcDbEntity
  8
Mittelpunktmarkierung(ISO)
  6
CHAIN
 48
9.259962081909179
100
AcDbLine
 10
454.3779606626067
 20
254.3249372540109
 30
0.0
 11
454.3779606626067
 21
229.3249372540109
 31
0.0
  0
LINE
  5
333
330
6C
100
AcDbEntity
  8
Mittelpunktmarkierung(ISO)
  6
CHAIN
 48
9.259962081909179
100
AcDbLine
 10
466.8779606626067
 20
241.8249372540109
 30
0.0
 11
441.8779606626067
 21
241.8249372540109
 31
0.0
  0
LINE
  5
334
330
6C
100
AcDbEntity
  8
Mittelpunktmarkierung(ISO)
  6
CHAIN
 48
9.259962081909179
100
AcDbLine
 10
454.3779606626066
 20
349.3249372540109
 30
0.0
 11
454.3779606626066
 21
324.3249372540109
 31
0.0
  0
LINE
  5
335
330
6C
100
AcDbEntity
  8
Mittelpunktmarkierung(ISO)
  6
CHAIN
 48
9.259962081909179
100
AcDbLine
 10
466.8779606626066
 20
336.8249372540109
 30
0.0
 11
441.8779606626067
 21
336.8249372540109
 31
0.0
  0
LINE
  5
336
330
6C
100
AcDbEntity
  8
Mittelpunktmarkierung(ISO)
  6
CHAIN
 48
8.0180025100708
100
AcDbLine
 10
410.2014606626064
 20
386.8249372540122
 30
0.0
 11
388.5544606626064
 21
386.8249372540122
 31
0.0
  0
LINE
  5
337
330
6C
100
AcDbEntity
  8
Mittelpunktmarkierung(ISO)
  6
CHAIN
 48
8.0180025100708
100
AcDbLine
 10
399.3779606626064
 20
397.6484372540122
 30
0.0
 11
399.3779606626064
 21
376.0014372540122
 31
0.0
  0
LINE
  5
338
330
6C
100
AcDbEntity
  8
Mittelpunktmarkierung(ISO)
  6
CHAIN
 48
8.0180025100708
100
AcDbLine
 10
460.2014606626064
 20
386.8249372540123
 30
0.0
 11
438.5544606626064
 21
386.8249372540123
 31
0.0
  0
LINE
  5
339
330
6C
100
AcDbEntity
  8
Mittelpunktmarkierung(ISO)
  6
CHAIN
 48
8.0180025100708
100
AcDbLine
 10
449.3779606626064
 20
397.6484372540123
 30
0.0
 11
449.3779606626064
 21
376.0014372540123
 31
0.0
  0
LINE
  5
33A
330
6C
100
AcDbEntity
  8
Mittelpunktmarkierung(ISO)
  6
CHAIN
 48
6.756782054901123
100
AcDbLine
 10
162.5726642087471
 20
269.3249372540109
 30
0.0
 11
144.3306642087471
 21
269.3249372540109
 31
0.0
  0
LINE
  5
33B
330
6C
100
AcDbEntity
  8
Mittelpunktmarkierung(ISO)
  6
CHAIN
 48
6.756782054901123
100
AcDbLine
 10
153.4516642087471
 20
278.4459372540109
 30
0.0
 11
153.4516642087471
 21
260.2039372540109
 31
0.0
  0
LINE
  5
33C
330
6C
100
AcDbEntity
  8
Mittelpunktmarkierung(ISO)
  6
CHAIN
 48
6.756782054901123
100
AcDbLine
 10
162.5726642087471
 20
309.3249372540108
 30
0.0
 11
144.3306642087471
 21
309.3249372540108
 31
0.0
  0
LINE
  5
33D
330
6C
100
AcDbEntity
  8
Mittelpunktmarkierung(ISO)
  6
CHAIN
 48
6.756782054901123
100
AcDbLine
 10
153.4516642087471
 20
318.4459372540108
 30
0.0
 11
153.4516642087471
 21
300.2039372540108
 31
0.0
  0
LINE
  5
33E
330
6C
100
AcDbEntity
  8
Mittelpunktmarkierung(ISO)
  6
CHAIN
 48
6.756782054901123
100
AcDbLine
 10
202.5726642087471
 20
269.3249372540109
 30
0.0
 11
184.3306642087471
 21
269.3249372540109
 31
0.0
  0
LINE
  5
33F
330
6C
100
AcDbEntity
  8
Mittelpunktmarkierung(ISO)
  6
CHAIN
 48
6.756782054901123
100
AcDbLine
 10
193.4516642087471
 20
278.4459372540109
 30
0.0
 11
193.4516642087471
 21
260.2039372540109
 31
0.0
  0
LINE
  5
340
330
6C
100
AcDbEntity
  8
Mittelpunktmarkierung(ISO)
  6
CHAIN
 48
6.756782054901123
100
AcDbLine
 10
202.5726642087471
 20
309.3249372540108
 30
0.0
 11
184.3306642087471
 21
309.3249372540108
 31
0.0
  0
LINE
  5
341
330
6C
100
AcDbEntity
  8
Mittelpunktmarkierung(ISO)
  6
CHAIN
 48
6.756782054901123
100
AcDbLine
 10
193.4516642087471
 20
318.4459372540108
 30
0.0
 11
193.4516642087471
 21
300.2039372540108
 31
0.0
  0
LINE
  5
342
330
6C
100
AcDbEntity
  8
Mittelpunktmarkierung(ISO)
  6
CHAIN
 48
6.756782054901123
100
AcDbLine
 10
214.0726642087437
 20
398.8249372540122
 30
0.0
 11
195.8306642087437
 21
398.8249372540122
 31
0.0
  0
LINE
  5
343
330
6C
100
AcDbEntity
  8
Mittelpunktmarkierung(ISO)
  6
CHAIN
 48
6.756782054901123
100
AcDbLine
 10
204.9516642087437
 20
407.9459372540122
 30
0.0
 11
204.9516642087437
 21
389.7039372540123
 31
0.0
  0
LINE
  5
344
330
6C
100
AcDbEntity
  8
Mittelpunktmarkierung(ISO)
  6
CHAIN
 48
6.756782054901123
100
AcDbLine
 10
214.0726642087437
 20
414.8249372540122
 30
0.0
 11
195.8306642087437
 21
414.8249372540122
 31
0.0
  0
LINE
  5
345
330
6C
100
AcDbEntity
  8
Mittelpunktmarkierung(ISO)
  6
CHAIN
 48
6.756782054901123
100
AcDbLine
 10
204.9516642087437
 20
423.9459372540122
 30
0.0
 11
204.9516642087437
 21
405.7039372540122
 31
0.0
  0
LINE
  5
346
330
6C
100
AcDbEntity
  8
Mittelpunktmarkierung(ISO)
  6
CHAIN
 48
9.259962081909179
100
AcDbLine
 10
253.4516642288156
 20
638.4586537333635
 30
0.0
 11
228.4516642288156
 21
638.4586537333635
 31
0.0
  0
LINE
  5
347
330
6C
100
AcDbEntity
  8
Mittelpunktmarkierung(ISO)
  6
CHAIN
 48
9.259962081909179
100
AcDbLine
 10
240.9516642288156
 20
650.9586537333635
 30
0.0
 11
240.9516642288156
 21
625.9586537333635
 31
0.0
  0
LINE
  5
348
330
6C
100
AcDbEntity
  8
Mittelpunktmarkierung(ISO)
  6
CHAIN
 48
9.259962081909179
100
AcDbLine
 10
253.4516642288304
 20
688.4586537333635
 30
0.0
 11
228.4516642288304
 21
688.4586537333635
 31
0.0
  0
LINE
  5
349
330
6C
100
AcDbEntity
  8
Mittelpunktmarkierung(ISO)
  6
CHAIN
 48
9.259962081909179
100
AcDbLine
 10
240.9516642288304
 20
700.9586537333636
 30
0.0
 11
240.9516642288304
 21
675.9586537333635
 31
0.0
  0
LINE
  5
34A
330
6C
100
AcDbEntity
  8
Mittelpunktmarkierung(ISO)
  6
CHAIN
 48
7.087181091308593
100
AcDbLine
 10
230.5186642288156
 20
638.4586537333696
 30
0.0
 11
211.3846642288156
 21
638.4586537333696
 31
0.0
  0
LINE
  5
34B
330
6C
100
AcDbEntity
  8
Mittelpunktmarkierung(ISO)
  6
CHAIN
 48
7.087181091308593
100
AcDbLine
 10
220.9516642288156
 20
648.0256537333694
 30
0.0
 11
220.9516642288156
 21
628.8916537333696
 31
0.0
  0
LINE
  5
34C
330
6C
100
AcDbEntity
  8
Mittelpunktmarkierung(ISO)
  6
CHAIN
 48
3.753558635711669
100
AcDbLine
 10
226.0186642288304
 20
688.4586537333696
 30
0.0
 11
215.8846642288304
 21
688.4586537333696
 31
0.0
  0
LINE
  5
34D
330
6C
100
AcDbEntity
  8
Mittelpunktmarkierung(ISO)
  6
CHAIN
 48
3.753558635711669
100
AcDbLine
 10
220.9516642288304
 20
693.5256537333696
 30
0.0
 11
220.9516642288304
 21
683.3916537333696
 31
0.0
  0
LINE
  5
34E
330
6C
100
AcDbEntity
  8
Mittelpunktmarkierung(ISO)
  6
CHAIN
 48
9.259962081909179
100
AcDbLine
 10
155.9516642088321
 20
693.4586537334102
 30
0.0
 11
180.9516642088321
 21
693.4586537333954
 31
0.0
  0
LINE
  5
34F
330
6C
100
AcDbEntity
  8
Mittelpunktmarkierung(ISO)
  6
CHAIN
 48
9.259962081909179
100
AcDbLine
 10
168.4516642088358
 20
705.9586537334029
 30
0.0
 11
168.4516642088284
 21
680.9586537334028
 31
0.0
  0
LINE
  5
350
330
6C
100
AcDbEntity
  8
Mittelpunktmarkierung(ISO)
  6
CHAIN
 48
9.259962081909179
100
AcDbLine
 10
155.9516642088143
 20
633.4586537334103
 30
0.0
 11
180.9516642088143
 21
633.4586537333954
 31
0.0
  0
LINE
  5
351
330
6C
100
AcDbEntity
  8
Mittelpunktmarkierung(ISO)
  6
CHAIN
 48
9.259962081909179
100
AcDbLine
 10
168.451664208818
 20
645.9586537334029
 30
0.0
 11
168.4516642088106
 21
620.9586537334027
 31
0.0
  0
LINE
  5
352
330
6C
100
AcDbEntity
  8
Mittelpunktmarkierung(ISO)
  6
CHAIN
 48
7.115331649780273
100
AcDbLine
 10
408.9829606626064
 20
446.8249372540122
 30
0.0
 11
389.7729606626065
 21
446.8249372540122
 31
0.0
  0
LINE
  5
353
330
6C
100
AcDbEntity
  8
Mittelpunktmarkierung(ISO)
  6
CHAIN
 48
7.115331649780273
100
AcDbLine
 10
399.3779606626065
 20
456.4299372540122
 30
0.0
 11
399.3779606626065
 21
437.2199372540122
 31
0.0
  0
LINE
  5
354
330
6C
100
AcDbEntity
  8
Mittelpunktmarkierung(ISO)
  6
CHAIN
 48
9.037720680236816
100
AcDbLine
 10
411.5779606626065
 20
426.8249372540122
 30
0.0
 11
387.1779606626064
 21
426.8249372540122
 31
0.0
  0
LINE
  5
355
330
6C
100
AcDbEntity
  8
Mittelpunktmarkierung(ISO)
  6
CHAIN
 48
9.037720680236816
100
AcDbLine
 10
399.3779606626065
 20
439.0249372540123
 30
0.0
 11
399.3779606626065
 21
414.6249372540121
 31
0.0
  0
LINE
  5
356
330
6C
100
AcDbEntity
  8
Mittelpunktmarkierung(ISO)
  6
CHAIN
 48
7.115331649780273
100
AcDbLine
 10
408.9829606626065
 20
406.8249372540122
 30
0.0
 11
389.7729606626065
 21
406.8249372540122
 31
0.0
  0
LINE
  5
357
330
6C
100
AcDbEntity
  8
Mittelpunktmarkierung(ISO)
  6
CHAIN
 48
7.115331649780273
100
AcDbLine
 10
399.3779606626065
 20
416.4299372540122
 30
0.0
 11
399.3779606626065
 21
397.2199372540122
 31
0.0
  0
LINE
  5
358
330
6C
100
AcDbEntity
  8
Mittelpunktmarkierung(ISO)
  6
CHAIN
 48
9.037720680236816
100
AcDbLine
 10
411.5779606626063
 20
386.8249372540122
 30
0.0
 11
387.1779606626065
 21
386.8249372540122
 31
0.0
  0
LINE
  5
359
330
6C
100
AcDbEntity
  8
Mittelpunktmarkierung(ISO)
  6
CHAIN
 48
9.037720680236816
100
AcDbLine
 10
399.3779606626064
 20
399.0249372540122
 30
0.0
 11
399.3779606626064
 21
374.6249372540122
 31
0.0
  0
LINE
  5
35A
330
6C
100
AcDbEntity
  8
Mittelpunktmarkierung(ISO)
  6
CHAIN
 48
7.115331649780273
100
AcDbLine
 10
408.9829606626065
 20
366.8249372540123
 30
0.0
 11
389.7729606626065
 21
366.8249372540123
 31
0.0
  0
LINE
  5
35B
330
6C
100
AcDbEntity
  8
Mittelpunktmarkierung(ISO)
  6
CHAIN
 48
7.115331649780273
100
AcDbLine
 10
399.3779606626065
 20
376.4299372540123
 30
0.0
 11
399.3779606626065
 21
357.2199372540122
 31
0.0
  0
LINE
  5
35C
330
6C
100
AcDbEntity
  8
Mittelpunktmarkierung(ISO)
  6
CHAIN
 48
7.115331649780273
100
AcDbLine
 10
458.9829606626065
 20
366.8249372540123
 30
0.0
 11
439.7729606626064
 21
366.8249372540123
 31
0.0
  0
LINE
  5
35D
330
6C
100
AcDbEntity
  8
Mittelpunktmarkierung(ISO)
  6
CHAIN
 48
7.115331649780273
100
AcDbLine
 10
449.3779606626065
 20
376.4299372540123
 30
0.0
 11
449.3779606626065
 21
357.2199372540122
 31
0.0
  0
LINE
  5
35E
330
6C
100
AcDbEntity
  8
Mittelpunktmarkierung(ISO)
  6
CHAIN
 48
9.037720680236816
100
AcDbLine
 10
461.5779606626063
 20
386.8249372540123
 30
0.0
 11
437.1779606626064
 21
386.8249372540123
 31
0.0
  0
LINE
  5
35F
330
6C
100
AcDbEntity
  8
Mittelpunktmarkierung(ISO)
  6
CHAIN
 48
9.037720680236816
100
AcDbLine
 10
449.3779606626064
 20
399.0249372540123
 30
0.0
 11
449.3779606626064
 21
374.6249372540123
 31
0.0
  0
LINE
  5
360
330
6C
100
AcDbEntity
  8
Mittelpunktmarkierung(ISO)
  6
CHAIN
 48
7.115331649780273
100
AcDbLine
 10
458.9829606626065
 20
406.8249372540122
 30
0.0
 11
439.7729606626064
 21
406.8249372540122
 31
0.0
  0
LINE
  5
361
330
6C
100
AcDbEntity
  8
Mittelpunktmarkierung(ISO)
  6
CHAIN
 48
7.115331649780273
100
AcDbLine
 10
449.3779606626065
 20
416.4299372540122
 30
0.0
 11
449.3779606626065
 21
397.2199372540123
 31
0.0
  0
LINE
  5
362
330
6C
100
AcDbEntity
  8
Mittelpunktmarkierung(ISO)
  6
CHAIN
 48
9.037720680236816
100
AcDbLine
 10
461.5779606626066
 20
426.8249372540123
 30
0.0
 11
437.1779606626064
 21
426.8249372540123
 31
0.0
  0
LINE
  5
363
330
6C
100
AcDbEntity
  8
Mittelpunktmarkierung(ISO)
  6
CHAIN
 48
9.037720680236816
100
AcDbLine
 10
449.3779606626065
 20
439.0249372540123
 30
0.0
 11
449.3779606626065
 21
414.6249372540122
 31
0.0
  0
LINE
  5
364
330
6C
100
AcDbEntity
  8
Mittelpunktmarkierung(ISO)
  6
CHAIN
 48
7.115331649780273
100
AcDbLine
 10
458.9829606626065
 20
446.8249372540122
 30
0.0
 11
439.7729606626064
 21
446.8249372540122
 31
0.0
  0
LINE
  5
365
330
6C
100
AcDbEntity
  8
Mittelpunktmarkierung(ISO)
  6
CHAIN
 48
7.115331649780273
100
AcDbLine
 10
449.3779606626065
 20
456.4299372540122
 30
0.0
 11
449.3779606626065
 21
437.2199372540122
 31
0.0
  0
ENDSEC
  0
SECTION
  2
OBJECTS
  0
DICTIONARY
  5
C
330
0
100
AcDbDictionary
281
     1
  3
ACAD_CIP_PREVIOUS_PRODUCT_INFO
350
366
  3
ACAD_COLOR
350
63
  3
ACAD_GROUP
350
D
  3
ACAD_LAYOUT
350
62
  3
ACAD_MATERIAL
350
10
  3
ACAD_MLEADERSTYLE
350
66
  3
ACAD_MLINESTYLE
350
5F
  3
ACAD_PLOTSETTINGS
350
61
  3
ACAD_PLOTSTYLENAME
350
E
  3
ACAD_SCALELIST
350
42
  3
ACAD_TABLESTYLE
350
64
  3
ACAD_VISUALSTYLE
350
29
  3
ACDB_RECOMPOSE_DATA
350
37B
  3
AcDbVariableDictionary
350
3BC
  3
AcmDictionary
350
42E
  3
AcmSystemVariableManager
350
491
  3
AMG
350
3D4
  3
AMGSNAPSETTINGS
350
472
  3
DWGPROPS
350
480
  0
DICTIONARY
  5
37D
330
8
100
AcDbDictionary
280
     1
281
     1
  0
DICTIONARY
  5
36B
330
159
100
AcDbDictionary
280
     1
281
     1
  3
ACAD_MLATT
360
47A
  3
ACAD_XREC_ROUNDTRIP
360
36C
  0
DICTIONARY
  5
36E
330
161
100
AcDbDictionary
280
     1
281
     1
  3
ACAD_MLATT
360
47B
  3
ACAD_XREC_ROUNDTRIP
360
36F
  0
DICTIONARY
  5
371
330
167
100
AcDbDictionary
280
     1
281
     1
  3
ACAD_MLATT
360
47C
  3
ACAD_XREC_ROUNDTRIP
360
372
  0
DICTIONARY
  5
374
330
16D
100
AcDbDictionary
280
     1
281
     1
  3
ACAD_MLATT
360
47D
  3
ACAD_XREC_ROUNDTRIP
360
375
  0
DICTIONARY
  5
48B
330
186
100
AcDbDictionary
280
     1
281
     1
  3
ACAD_MTEXT_RT
360
48C
  0
DICTIONARY
  5
377
330
18F
100
AcDbDictionary
280
     1
281
     1
  3
ACAD_MLATT
360
47E
  3
ACAD_XREC_ROUNDTRIP
360
378
  0
XRECORD
  5
366
102
{ACAD_REACTORS
330
C
102
}
330
C
100
AcDbXrecord
280
     1
300
INVPROSA
300
2012
300
PDSU_F_S
  0
DICTIONARY
  5
63
102
{ACAD_REACTORS
330
C
102
}
330
C
100
AcDbDictionary
281
     1
  0
DICTIONARY
  5
D
102
{ACAD_REACTORS
330
C
102
}
330
C
100
AcDbDictionary
281
     1
  0
DICTIONARY
  5
62
102
{ACAD_REACTORS
330
C
102
}
330
C
100
AcDbDictionary
281
     1
  3
Layout1
350
6B
  3
Layout2
350
73
  3
Model
350
6F
  0
DICTIONARY
  5
10
102
{ACAD_REACTORS
330
C
102
}
330
C
100
AcDbDictionary
281
     1
  3
ByBlock
350
19
  3
ByLayer
350
11
  3
Global
350
21
  0
DICTIONARY
  5
66
102
{ACAD_REACTORS
330
C
102
}
330
C
100
AcDbDictionary
281
     1
  3
Standard
350
67
  0
DICTIONARY
  5
5F
102
{ACAD_REACTORS
330
C
102
}
330
C
100
AcDbDictionary
281
     1
  3
Standard
350
60
  0
DICTIONARY
  5
61
102
{ACAD_REACTORS
330
C
102
}
330
C
100
AcDbDictionary
281
     1
  0
ACDBDICTIONARYWDFLT
  5
E
102
{ACAD_REACTORS
330
C
102
}
330
C
100
AcDbDictionary
281
     1
  3
Normal
350
F
100
AcDbDictionaryWithDefault
340
F
  0
DICTIONARY
  5
42
102
{ACAD_REACTORS
330
C
102
}
330
C
100
AcDbDictionary
281
     1
  3
A0
350
43
  3
A1
350
44
  3
A2
350
45
  3
A3
350
46
  3
A4
350
47
  3
A5
350
48
  3
A6
350
49
  3
A7
350
4A
  3
A8
350
4B
  3
A9
350
4C
  3
B0
350
4D
  3
B1
350
4E
  3
B2
350
4F
  3
B3
350
50
  3
B4
350
51
  3
B5
350
52
  3
B6
350
53
  0
DICTIONARY
  5
64
102
{ACAD_REACTORS
330
C
102
}
330
C
100
AcDbDictionary
281
     1
  3
Standard
350
65
  0
DICTIONARY
  5
29
102
{ACAD_REACTORS
330
C
102
}
330
C
100
AcDbDictionary
281
     1
  3
2dWireframe
350
2F
  3
3D Hidden
350
3CB
  3
3dWireframe
350
3CA
  3
Basic
350
2E
  3
Brighten
350
35
  3
ColorChange
350
39
  3
Conceptual
350
32
  3
Dim
350
34
  3
EdgeColorOff
350
41
  3
Facepattern
350
38
  3
Flat
350
2A
  3
FlatWithEdges
350
2B
  3
Gouraud
350
2C
  3
GouraudWithEdges
350
2D
  3
Hidden
350
31
  3
JitterOff
350
3F
  3
Linepattern
350
37
  3
OverhangOff
350
40
  3
Realistic
350
33
  3
Shaded
350
3E
  3
Shaded with edges
350
3D
  3
Shades of Gray
350
3A
  3
Sketchy
350
3B
  3
Thicken
350
36
  3
Wireframe
350
30
  3
X-Ray
350
3C
  0
XRECORD
  5
37B
102
{ACAD_REACTORS
330
C
102
}
330
C
100
AcDbXrecord
280
     1
 90
        1
330
65
330
159
330
161
330
167
330
16D
330
18F
  0
DICTIONARY
  5
3BC
102
{ACAD_REACTORS
330
C
102
}
330
C
100
AcDbDictionary
281
     1
  3
CANNOSCALE
350
3C0
  3
CMLEADERSTYLE
350
3BE
  3
CTABLESTYLE
350
3BD
  3
DIMASSOC
350
3C7
  3
HIDETEXT
350
3C6
  3
INDEXCTL
350
3C5
  3
LAYEREVAL
350
3C2
  3
LAYERNOTIFY
350
3C3
  3
LIGHTINGUNITS
350
3C1
  3
MSLTSCALE
350
3BF
  3
SORTENTS
350
3C4
  3
XCLIPFRAME
350
3C8
  0
DICTIONARY
  5
42E
102
{ACAD_REACTORS
330
C
102
}
330
C
100
AcDbDictionary
281
     1
  3
AcmStdDictionary
350
439
  0
DICTIONARY
  5
3D4
102
{ACAD_REACTORS
330
C
102
}
330
C
100
AcDbDictionary
281
     1
  0
DICTIONARY
  5
472
102
{ACAD_REACTORS
330
C
102
}
330
C
100
AcDbDictionary
281
     1
  0
XRECORD
  5
480
102
{ACAD_REACTORS
330
C
102
}
330
C
100
AcDbXrecord
280
     1
  1
DWGPROPS COOKIE
  2

  3

  4
D.Hartung
  6

  7

  8
bauer_sven
  9

300
Manager=
301
Firma=
302
Kategorie=
303
Bauteilnummer=MSL65-R25-S-DWG
304
Bezeichnung=Platte
305
Projekt=
306
Konstrukteur=D.Hartung
307
Ingenieur=
308
Bevollmächtigter=
309
Kostenstelle=
 40
0.0001856712962963
 41
2456219.307603264
 42
2456219.38801206
  1

 90
       19
300
Zulieferer=
300
Benutzerstatus=
300
Konstruktionsstatus=InBearbeitung
300
Kontrolliert von=
300
Konstruktion genehmigt von=
300
Fertigung genehmigt von=
300
1-Beschreibung=
300
2-Sachnr-Norm-Lieferant=
300
3-Material=
  0
XRECORD
  5
47A
102
{ACAD_REACTORS
330
36B
102
}
330
36B
100
AcDbXrecord
280
     1
 70
     4
 70
     0
 70
     0
 40
1.0
  2
Wert
  1
Embedded Object
 10
0.844474758032334
 20
3.491814449307538
 30
0.0
 40
2.000000029802322
 41
0.0
 46
0.0
 71
     1
 72
     5
  1
+0,2
  7
STANDARD-ISO-2
 73
     1
 44
1.0
  0
XRECORD
  5
36C
102
{ACAD_REACTORS
330
36B
102
}
330
36B
100
AcDbXrecord
280
     1
102
ACAD_MATT_HEIGHT
140
2.000000029802322
  0
XRECORD
  5
47B
102
{ACAD_REACTORS
330
36E
102
}
330
36E
100
AcDbXrecord
280
     1
 70
     4
 70
     0
 70
     0
 40
1.0
  2
Wert
  1
Embedded Object
 10
0.8444747580323337
 20
-1.508185550692462
 30
0.0
 40
2.000000029802322
 41
0.0
 46
0.0
 71
     1
 72
     5
  1
+0,2
  7
STANDARD-ISO-2
 73
     1
 44
1.0
  0
XRECORD
  5
36F
102
{ACAD_REACTORS
330
36E
102
}
330
36E
100
AcDbXrecord
280
     1
102
ACAD_MATT_HEIGHT
140
2.000000029802322
  0
XRECORD
  5
47C
102
{ACAD_REACTORS
330
371
102
}
330
371
100
AcDbXrecord
280
     1
 70
     4
 70
     0
 70
     0
 40
1.0
  2
Wert
  1
Embedded Object
 10
-0.8526603291887999
 20
3.491814449307538
 30
0.0
 40
2.000000029802322
 41
0.0
 46
0.0
 71
     3
 72
     5
  1
+0,2
  7
STANDARD-ISO-2
 73
     1
 44
1.0
  0
XRECORD
  5
372
102
{ACAD_REACTORS
330
371
102
}
330
371
100
AcDbXrecord
280
     1
102
ACAD_MATT_HEIGHT
140
2.000000029802322
  0
XRECORD
  5
47D
102
{ACAD_REACTORS
330
374
102
}
330
374
100
AcDbXrecord
280
     1
 70
     4
 70
     0
 70
     0
 40
1.0
  2
Wert
  1
Embedded Object
 10
-0.8526603291887999
 20
-1.508185550692461
 30
0.0
 40
2.000000029802322
 41
0.0
 46
0.0
 71
     3
 72
     5
  1
+0,2
  7
STANDARD-ISO-2
 73
     1
 44
1.0
  0
XRECORD
  5
375
102
{ACAD_REACTORS
330
374
102
}
330
374
100
AcDbXrecord
280
     1
102
ACAD_MATT_HEIGHT
140
2.000000029802322
  0
XRECORD
  5
48C
102
{ACAD_REACTORS
330
48B
102
}
330
48B
100
AcDbXrecord
280
     1
 40
48088.0
  1
Kanten gebrochen\Pbrüniert
  0
XRECORD
  5
47E
102
{ACAD_REACTORS
330
377
102
}
330
377
100
AcDbXrecord
280
     1
 70
     4
 70
     0
 70
     0
 40
1.0
  2
<Kegelverhältnis>
  1
Embedded Object
 10
-15.72540904028189
 20
5.978512940304728
 30
0.0
 40
3.499999940395355
 41
0.0
 46
0.0
 71
     3
 72
     5
  1
<Kegelverhältnis>
  7
STANDARD-ISO
 73
     1
 44
1.0
  0
XRECORD
  5
378
102
{ACAD_REACTORS
330
377
102
}
330
377
100
AcDbXrecord
280
     1
102
ACAD_MATT_HEIGHT
140
3.499999940395355
  0
LAYOUT
  5
6B
102
{ACAD_XDICTIONARY
360
485
102
}
102
{ACAD_REACTORS
330
62
102
}
330
62
100
AcDbPlotSettings
  1

  2

  4

  6

 40
0.0
 41
0.0
 42
0.0
 43
0.0
 44
0.0
 45
0.0
 46
0.0
 47
0.0
 48
0.0
 49
0.0
140
0.0
141
0.0
142
1.0
143
1.0
 70
   688
 72
     0
 73
     0
 74
     5
  7

 75
    16
147
1.0
148
0.0
149
0.0
100
AcDbLayout
  1
Layout1
 70
     1
 71
     1
 10
0.0
 20
0.0
 11
630.0
 21
891.0
 12
0.0
 22
0.0
 32
0.0
 14
0.0
 24
0.0
 34
0.0
 15
630.0
 25
891.0
 35
0.0
146
0.0
 13
0.0
 23
0.0
 33
0.0
 16
1.0
 26
0.0
 36
0.0
 17
0.0
 27
1.0
 37
0.0
 76
     0
330
68
  0
LAYOUT
  5
73
102
{ACAD_XDICTIONARY
360
489
102
}
102
{ACAD_REACTORS
330
62
102
}
330
62
100
AcDbPlotSettings
  1

  2

  4

  6

 40
0.0
 41
0.0
 42
0.0
 43
0.0
 44
0.0
 45
0.0
 46
0.0
 47
0.0
 48
0.0
 49
0.0
140
0.0
141
0.0
142
1.0
143
1.0
 70
   688
 72
     0
 73
     0
 74
     5
  7

 75
    16
147
1.0
148
0.0
149
0.0
100
AcDbLayout
  1
Layout2
 70
     1
 71
     2
 10
0.0
 20
0.0
 11
12.0
 21
9.0
 12
0.0
 22
0.0
 32
0.0
 14
0.0
 24
0.0
 34
0.0
 15
0.0
 25
0.0
 35
0.0
146
0.0
 13
0.0
 23
0.0
 33
0.0
 16
1.0
 26
0.0
 36
0.0
 17
0.0
 27
1.0
 37
0.0
 76
     0
330
70
  0
LAYOUT
  5
6F
102
{ACAD_XDICTIONARY
360
487
102
}
102
{ACAD_REACTORS
330
62
102
}
330
62
100
AcDbPlotSettings
  1

  2

  4

  6

 40
0.0
 41
0.0
 42
0.0
 43
0.0
 44
0.0
 45
0.0
 46
0.0
 47
0.0
 48
0.0
 49
0.0
140
0.0
141
0.0
142
1.0
143
1.0
 70
  1712
 72
     0
 73
     0
 74
     0
  7

 75
     0
147
1.0
148
0.0
149
0.0
100
AcDbLayout
  1
Model
 70
     1
 71
     0
 10
0.0
 20
0.0
 11
12.0
 21
9.0
 12
0.0
 22
0.0
 32
0.0
 14
0.0
 24
0.0
 34
0.0
 15
0.0
 25
0.0
 35
0.0
146
0.0
 13
0.0
 23
0.0
 33
0.0
 16
1.0
 26
0.0
 36
0.0
 17
0.0
 27
1.0
 37
0.0
 76
     0
330
6C
331
57
  0
MATERIAL
  5
19
102
{ACAD_XDICTIONARY
360
1A
102
}
102
{ACAD_REACTORS
330
10
102
}
330
10
100
AcDbMaterial
  1
ByBlock
 72
     0
 43
0.0208333333333333
 43
0.0
 43
0.0
 43
0.0
 43
0.0
 43
0.0208333333333333
 43
0.0
 43
0.0
 43
0.0
 43
0.0
 43
1.0
 43
0.0
 43
0.0
 43
0.0
 43
0.0
 43
1.0
 77
     0
 47
0.0208333333333333
 47
0.0
 47
0.0
 47
0.0
 47
0.0
 47
0.0208333333333333
 47
0.0
 47
0.0
 47
0.0
 47
0.0
 47
1.0
 47
0.0
 47
0.0
 47
0.0
 47
0.0
 47
1.0
171
     0
 49
0.0208333333333333
 49
0.0
 49
0.0
 49
0.0
 49
0.0
 49
0.0208333333333333
 49
0.0
 49
0.0
 49
0.0
 49
0.0
 49
1.0
 49
0.0
 49
0.0
 49
0.0
 49
0.0
 49
1.0
175
     0
142
0.0208333333333333
142
0.0
142
0.0
142
0.0
142
0.0
142
0.0208333333333333
142
0.0
142
0.0
142
0.0
142
0.0
142
1.0
142
0.0
142
0.0
142
0.0
142
0.0
142
1.0
179
     0
144
0.0208333333333333
144
0.0
144
0.0
144
0.0
144
0.0
144
0.0208333333333333
144
0.0
144
0.0
144
0.0
144
0.0
144
1.0
144
0.0
144
0.0
144
0.0
144
0.0
144
1.0
147
0.0208333333333333
147
0.0
147
0.0
147
0.0
147
0.0
147
0.0208333333333333
147
0.0
147
0.0
147
0.0
147
0.0
147
1.0
147
0.0
147
0.0
147
0.0
147
0.0
147
1.0
  0
MATERIAL
  5
11
102
{ACAD_XDICTIONARY
360
12
102
}
102
{ACAD_REACTORS
330
10
102
}
330
10
100
AcDbMaterial
  1
ByLayer
 72
     0
 43
0.0208333333333333
 43
0.0
 43
0.0
 43
0.0
 43
0.0
 43
0.0208333333333333
 43
0.0
 43
0.0
 43
0.0
 43
0.0
 43
1.0
 43
0.0
 43
0.0
 43
0.0
 43
0.0
 43
1.0
 77
     0
 47
0.0208333333333333
 47
0.0
 47
0.0
 47
0.0
 47
0.0
 47
0.0208333333333333
 47
0.0
 47
0.0
 47
0.0
 47
0.0
 47
1.0
 47
0.0
 47
0.0
 47
0.0
 47
0.0
 47
1.0
171
     0
 49
0.0208333333333333
 49
0.0
 49
0.0
 49
0.0
 49
0.0
 49
0.0208333333333333
 49
0.0
 49
0.0
 49
0.0
 49
0.0
 49
1.0
 49
0.0
 49
0.0
 49
0.0
 49
0.0
 49
1.0
175
     0
142
0.0208333333333333
142
0.0
142
0.0
142
0.0
142
0.0
142
0.0208333333333333
142
0.0
142
0.0
142
0.0
142
0.0
142
1.0
142
0.0
142
0.0
142
0.0
142
0.0
142
1.0
179
     0
144
0.0208333333333333
144
0.0
144
0.0
144
0.0
144
0.0
144
0.0208333333333333
144
0.0
144
0.0
144
0.0
144
0.0
144
1.0
144
0.0
144
0.0
144
0.0
144
0.0
144
1.0
147
0.0208333333333333
147
0.0
147
0.0
147
0.0
147
0.0
147
0.0208333333333333
147
0.0
147
0.0
147
0.0
147
0.0
147
1.0
147
0.0
147
0.0
147
0.0
147
0.0
147
1.0
  0
MATERIAL
  5
21
102
{ACAD_XDICTIONARY
360
22
102
}
102
{ACAD_REACTORS
330
10
102
}
330
10
100
AcDbMaterial
  1
Global
 72
     0
 43
0.0208333333333333
 43
0.0
 43
0.0
 43
0.0
 43
0.0
 43
0.0208333333333333
 43
0.0
 43
0.0
 43
0.0
 43
0.0
 43
1.0
 43
0.0
 43
0.0
 43
0.0
 43
0.0
 43
1.0
 77
     0
 47
0.0208333333333333
 47
0.0
 47
0.0
 47
0.0
 47
0.0
 47
0.0208333333333333
 47
0.0
 47
0.0
 47
0.0
 47
0.0
 47
1.0
 47
0.0
 47
0.0
 47
0.0
 47
0.0
 47
1.0
171
     0
 49
0.0208333333333333
 49
0.0
 49
0.0
 49
0.0
 49
0.0
 49
0.0208333333333333
 49
0.0
 49
0.0
 49
0.0
 49
0.0
 49
1.0
 49
0.0
 49
0.0
 49
0.0
 49
0.0
 49
1.0
175
     0
142
0.0208333333333333
142
0.0
142
0.0
142
0.0
142
0.0
142
0.0208333333333333
142
0.0
142
0.0
142
0.0
142
0.0
142
1.0
142
0.0
142
0.0
142
0.0
142
0.0
142
1.0
179
     0
144
0.0208333333333333
144
0.0
144
0.0
144
0.0
144
0.0
144
0.0208333333333333
144
0.0
144
0.0
144
0.0
144
0.0
144
1.0
144
0.0
144
0.0
144
0.0
144
0.0
144
1.0
147
0.0208333333333333
147
0.0
147
0.0
147
0.0
147
0.0
147
0.0208333333333333
147
0.0
147
0.0
147
0.0
147
0.0
147
1.0
147
0.0
147
0.0
147
0.0
147
0.0
147
1.0
  0
MLEADERSTYLE
  5
67
102
{ACAD_XDICTIONARY
360
369
102
}
102
{ACAD_REACTORS
330
66
102
}
330
66
100
AcDbMLeaderStyle
170
     2
171
     1
172
     0
 90
        2
 40
0.0
 41
0.0
173
     1
 91
-1056964608
340
5B
 92
       -2
290
     1
 42
0.09
291
     1
 43
0.36
  3
Standard
 44
0.18
300

342
55
174
     1
178
     6
175
     1
176
     0
 93
-1056964608
 45
0.18
292
     0
297
     0
 46
0.18
 94
-1056964608
 47
1.0
 49
1.0
140
1.0
293
     1
141
0.0
294
     1
177
     0
142
1.0
295
     0
296
     0
143
0.125
1001
ACAD_MLEADERVER
1070
     2
  0
MLINESTYLE
  5
60
102
{ACAD_REACTORS
330
5F
102
}
330
5F
100
AcDbMlineStyle
  2
STANDARD
 70
     0
  3

 62
   256
 51
90.0
 52
90.0
 71
     2
 49
0.5
 62
   256
  6
BYLAYER
 49
-0.5
 62
   256
  6
BYLAYER
  0
ACDBPLACEHOLDER
  5
F
102
{ACAD_REACTORS
330
E
102
}
330
E
  0
SCALE
  5
43
102
{ACAD_REACTORS
330
42
102
}
330
42
100
AcDbScale
 70
     0
300
1:1
140
1.0
141
1.0
290
     1
  0
SCALE
  5
44
102
{ACAD_REACTORS
330
42
102
}
330
42
100
AcDbScale
 70
     0
300
1/128" = 1'-0"
140
0.0078125
141
12.0
290
     0
  0
SCALE
  5
45
102
{ACAD_REACTORS
330
42
102
}
330
42
100
AcDbScale
 70
     0
300
1/64" = 1'-0"
140
0.015625
141
12.0
290
     0
  0
SCALE
  5
46
102
{ACAD_REACTORS
330
42
102
}
330
42
100
AcDbScale
 70
     0
300
1/32" = 1'-0"
140
0.03125
141
12.0
290
     0
  0
SCALE
  5
47
102
{ACAD_REACTORS
330
42
102
}
330
42
100
AcDbScale
 70
     0
300
1/16" = 1'-0"
140
0.0625
141
12.0
290
     0
  0
SCALE
  5
48
102
{ACAD_REACTORS
330
42
102
}
330
42
100
AcDbScale
 70
     0
300
3/32" = 1'-0"
140
0.09375
141
12.0
290
     0
  0
SCALE
  5
49
102
{ACAD_REACTORS
330
42
102
}
330
42
100
AcDbScale
 70
     0
300
1/8" = 1'-0"
140
0.125
141
12.0
290
     0
  0
SCALE
  5
4A
102
{ACAD_REACTORS
330
42
102
}
330
42
100
AcDbScale
 70
     0
300
3/16" = 1'-0"
140
0.1875
141
12.0
290
     0
  0
SCALE
  5
4B
102
{ACAD_REACTORS
330
42
102
}
330
42
100
AcDbScale
 70
     0
300
1/4" = 1'-0"
140
0.25
141
12.0
290
     0
  0
SCALE
  5
4C
102
{ACAD_REACTORS
330
42
102
}
330
42
100
AcDbScale
 70
     0
300
3/8" = 1'-0"
140
0.375
141
12.0
290
     0
  0
SCALE
  5
4D
102
{ACAD_REACTORS
330
42
102
}
330
42
100
AcDbScale
 70
     0
300
1/2" = 1'-0"
140
0.5
141
12.0
290
     0
  0
SCALE
  5
4E
102
{ACAD_REACTORS
330
42
102
}
330
42
100
AcDbScale
 70
     0
300
3/4" = 1'-0"
140
0.75
141
12.0
290
     0
  0
SCALE
  5
4F
102
{ACAD_REACTORS
330
42
102
}
330
42
100
AcDbScale
 70
     0
300
1" = 1'-0"
140
1.0
141
12.0
290
     0
  0
SCALE
  5
50
102
{ACAD_REACTORS
330
42
102
}
330
42
100
AcDbScale
 70
     0
300
1-1/2" = 1'-0"
140
1.5
141
12.0
290
     0
  0
SCALE
  5
51
102
{ACAD_REACTORS
330
42
102
}
330
42
100
AcDbScale
 70
     0
300
3" = 1'-0"
140
3.0
141
12.0
290
     0
  0
SCALE
  5
52
102
{ACAD_REACTORS
330
42
102
}
330
42
100
AcDbScale
 70
     0
300
6" = 1'-0"
140
6.0
141
12.0
290
     0
  0
SCALE
  5
53
102
{ACAD_REACTORS
330
42
102
}
330
42
100
AcDbScale
 70
     0
300
1'-0" = 1'-0"
140
12.0
141
12.0
290
     0
  0
TABLESTYLE
  5
65
102
{ACAD_XDICTIONARY
360
367
102
}
102
{ACAD_REACTORS
330
64
102
}
330
64
100
AcDbTableStyle
  3
Standard
 70
     0
 71
     0
 40
0.06
 41
0.06
280
     0
281
     0
  7
Standard
140
0.18
170
     2
 62
     0
 63
     7
283
     0
274
    -2
284
     1
 64
     0
275
    -2
285
     1
 65
     0
276
    -2
286
     1
 66
     0
277
    -2
287
     1
 67
     0
278
    -2
288
     1
 68
     0
279
    -2
289
     1
 69
     0
  7
Standard
140
0.25
170
     5
 62
     0
 63
     7
283
     0
274
    -2
284
     1
 64
     0
275
    -2
285
     1
 65
     0
276
    -2
286
     1
 66
     0
277
    -2
287
     1
 67
     0
278
    -2
288
     1
 68
     0
279
    -2
289
     1
 69
     0
  7
Standard
140
0.18
170
     5
 62
     0
 63
     7
283
     0
274
    -2
284
     1
 64
     0
275
    -2
285
     1
 65
     0
276
    -2
286
     1
 66
     0
277
    -2
287
     1
 67
     0
278
    -2
288
     1
 68
     0
279
    -2
289
     1
 69
     0
  0
VISUALSTYLE
  5
2F
102
{ACAD_XDICTIONARY
360
38C
102
}
102
{ACAD_REACTORS
330
29
102
}
330
29
100
AcDbVisualStyle
  2
2dWireframe
 70
     4
 71
     0
 72
     2
 73
     0
 90
        0
 40
-0.6
 41
-30.0
 62
     5
 63
     7
 74
     1
 91
        4
 64
     7
 65
   257
 75
     1
175
     1
 42
1.0
 92
        0
 66
   257
 43
1.0
 76
     1
 77
     6
 78
     2
 67
     7
 79
     5
170
     0
171
     0
290
     0
174
     0
 93
        1
 44
0.0
173
     0
291
     0
 45
0.0
1001
ACAD
1000
AcDbSavedByObjectVersion
1070
     0
  0
VISUALSTYLE
  5
3CB
102
{ACAD_REACTORS
330
29
102
}
330
29
100
AcDbVisualStyle
  2
3D Hidden
 70
     6
 71
     1
 72
     2
 73
     2
 90
        0
 40
-0.6
 41
-30.0
 62
     5
 63
     7
 74
     2
 91
        2
 64
     7
 65
   257
 75
     2
175
     1
 42
40.0
 92
        0
 66
   257
 43
1.0
 76
     1
 77
     6
 78
     2
 67
     7
 79
     3
170
     0
171
     0
290
     0
174
     0
 93
        1
 44
0.0
173
     0
291
     0
 45
0.0
1001
ACAD
1000
AcDbSavedByObjectVersion
1070
     0
  0
VISUALSTYLE
  5
3CA
102
{ACAD_REACTORS
330
29
102
}
330
29
100
AcDbVisualStyle
  2
3dWireframe
 70
     5
 71
     0
 72
     2
 73
     0
 90
        0
 40
-0.6
 41
-30.0
 62
     5
 63
     7
 74
     1
 91
        4
 64
     7
 65
   257
 75
     1
175
     1
 42
1.0
 92
        0
 66
   257
 43
1.0
 76
     1
 77
     6
 78
     2
 67
     7
 79
     5
170
     0
171
     0
290
     0
174
     0
 93
        1
 44
0.0
173
     0
291
     0
 45
0.0
1001
ACAD
1000
AcDbSavedByObjectVersion
1070
     0
  0
VISUALSTYLE
  5
2E
102
{ACAD_XDICTIONARY
360
38A
102
}
102
{ACAD_REACTORS
330
29
102
}
330
29
100
AcDbVisualStyle
  2
Basic
 70
     7
 71
     1
 72
     0
 73
     1
 90
        0
 40
-0.6
 41
-30.0
 62
     5
 63
     7
 74
     0
 91
        4
 64
     7
 65
   257
 75
     1
175
     1
 42
1.0
 92
        8
 66
     7
 43
1.0
 76
     1
 77
     6
 78
     2
 67
     7
 79
     5
170
     0
171
     0
290
     0
174
     0
 93
        1
 44
0.0
173
     0
291
     1
 45
0.0
1001
ACAD
1000
AcDbSavedByObjectVersion
1070
     0
  0
VISUALSTYLE
  5
35
102
{ACAD_XDICTIONARY
360
398
102
}
102
{ACAD_REACTORS
330
29
102
}
330
29
100
AcDbVisualStyle
  2
Brighten
 70
    12
 71
     2
 72
     2
 73
     0
 90
        0
 40
-0.6
 41
-30.0
 62
     5
 63
     7
 74
     1
 91
        4
 64
     7
 65
   257
 75
     1
175
     1
 42
1.0
 92
        8
 66
     7
 43
1.0
 76
     1
 77
     6
 78
     2
 67
     7
 79
     5
170
     0
171
     0
290
     0
174
     0
 93
        1
 44
50.0
173
     0
291
     1
 45
0.0
1001
ACAD
1000
AcDbSavedByObjectVersion
1070
     0
  0
VISUALSTYLE
  5
39
102
{ACAD_XDICTIONARY
360
3A0
102
}
102
{ACAD_REACTORS
330
29
102
}
330
29
100
AcDbVisualStyle
  2
ColorChange
 70
    16
 71
     2
 72
     2
 73
     3
 90
        0
 40
-0.6
 41
-30.0
 62
     5
 63
     8
 74
     1
 91
        4
 64
     7
 65
   257
 75
     1
175
     1
 42
1.0
 92
        8
 66
     8
 43
1.0
 76
     1
 77
     6
 78
     2
 67
     7
 79
     5
170
     0
171
     0
290
     0
174
     0
 93
        1
 44
0.0
173
     0
291
     1
 45
0.0
1001
ACAD
1000
AcDbSavedByObjectVersion
1070
     0
  0
VISUALSTYLE
  5
32
102
{ACAD_XDICTIONARY
360
392
102
}
102
{ACAD_REACTORS
330
29
102
}
330
29
100
AcDbVisualStyle
  2
Conceptual
 70
     9
 71
     3
 72
     2
 73
     0
 90
        0
 40
-0.6
 41
-30.0
 62
     5
 63
     7
 74
     2
 91
        2
 64
     7
 65
   257
 75
     1
175
     1
 42
179.0
 92
        8
 66
     7
 43
1.0
 76
     1
 77
     6
 78
     2
 67
     7
 79
     3
170
     0
171
     0
290
     0
174
     0
 93
        1
 44
0.0
173
     0
291
     0
 45
0.0
1001
ACAD
1000
AcDbSavedByObjectVersion
1070
     0
  0
VISUALSTYLE
  5
34
102
{ACAD_XDICTIONARY
360
396
102
}
102
{ACAD_REACTORS
330
29
102
}
330
29
100
AcDbVisualStyle
  2
Dim
 70
    11
 71
     2
 72
     2
 73
     0
 90
        0
 40
-0.6
 41
-30.0
 62
     5
 63
     7
 74
     1
 91
        4
 64
     7
 65
   257
 75
     1
175
     1
 42
1.0
 92
        8
 66
     7
 43
1.0
 76
     1
 77
     6
 78
     2
 67
     7
 79
     5
170
     0
171
     0
290
     0
174
     0
 93
        1
 44
-50.0
173
     0
291
     1
 45
0.0
1001
ACAD
1000
AcDbSavedByObjectVersion
1070
     0
  0
VISUALSTYLE
  5
41
102
{ACAD_XDICTIONARY
360
3B0
102
}
102
{ACAD_REACTORS
330
29
102
}
330
29
100
AcDbVisualStyle
  2
EdgeColorOff
 70
    22
 71
     2
 72
     2
 73
     0
 90
        0
 40
-0.6
 41
-30.0
 62
     5
 63
     7
 74
     1
 91
        4
 64
     7
 65
   257
 75
     1
175
     1
 42
1.0
 92
        8
 66
     7
 43
1.0
 76
     1
 77
     6
 78
     2
 67
     7
 79
     5
170
     0
171
     0
290
     0
174
     0
 93
        1
 44
0.0
173
     0
291
     1
 45
0.0
1001
ACAD
1000
AcDbSavedByObjectVersion
1070
     0
  0
VISUALSTYLE
  5
38
102
{ACAD_XDICTIONARY
360
39E
102
}
102
{ACAD_REACTORS
330
29
102
}
330
29
100
AcDbVisualStyle
  2
Facepattern
 70
    15
 71
     2
 72
     2
 73
     0
 90
        0
 40
-0.6
 41
-30.0
 62
     5
 63
     7
 74
     1
 91
        4
 64
     7
 65
   257
 75
     1
175
     1
 42
1.0
 92
        8
 66
     7
 43
1.0
 76
     1
 77
     6
 78
     2
 67
     7
 79
     5
170
     0
171
     0
290
     0
174
     0
 93
        1
 44
0.0
173
     0
291
     1
 45
0.0
1001
ACAD
1000
AcDbSavedByObjectVersion
1070
     0
  0
VISUALSTYLE
  5
2A
102
{ACAD_XDICTIONARY
360
382
102
}
102
{ACAD_REACTORS
330
29
102
}
330
29
100
AcDbVisualStyle
  2
Flat
 70
     0
 71
     2
 72
     1
 73
     1
 90
        2
 40
-0.6
 41
30.0
 62
     5
 63
     7
 74
     0
 91
        0
 64
     7
 65
   257
 75
     1
175
     1
 42
1.0
 92
        8
 66
     7
 43
1.0
 76
     1
 77
     6
 78
     2
 67
     7
 79
     5
170
     0
171
     0
290
     0
174
     0
 93
       13
 44
0.0
173
     0
291
     1
 45
0.0
1001
ACAD
1000
AcDbSavedByObjectVersion
1070
     0
  0
VISUALSTYLE
  5
2B
102
{ACAD_XDICTIONARY
360
384
102
}
102
{ACAD_REACTORS
330
29
102
}
330
29
100
AcDbVisualStyle
  2
FlatWithEdges
 70
     1
 71
     2
 72
     1
 73
     1
 90
        2
 40
-0.6
 41
30.0
 62
     5
 63
     7
 74
     1
 91
        0
 64
     7
 65
   257
 75
     1
175
     1
 42
1.0
 92
        0
 66
   257
 43
1.0
 76
     1
 77
     6
 78
     2
 67
     7
 79
     5
170
     0
171
     0
290
     0
174
     0
 93
       13
 44
0.0
173
     0
291
     1
 45
0.0
1001
ACAD
1000
AcDbSavedByObjectVersion
1070
     0
  0
VISUALSTYLE
  5
2C
102
{ACAD_XDICTIONARY
360
386
102
}
102
{ACAD_REACTORS
330
29
102
}
330
29
100
AcDbVisualStyle
  2
Gouraud
 70
     2
 71
     2
 72
     2
 73
     1
 90
        2
 40
-0.6
 41
30.0
 62
     5
 63
     7
 74
     0
 91
        0
 64
     7
 65
   257
 75
     1
175
     1
 42
1.0
 92
        0
 66
     7
 43
1.0
 76
     1
 77
     6
 78
     2
 67
     7
 79
     5
170
     0
171
     0
290
     0
174
     0
 93
       13
 44
0.0
173
     0
291
     1
 45
0.0
1001
ACAD
1000
AcDbSavedByObjectVersion
1070
     0
  0
VISUALSTYLE
  5
2D
102
{ACAD_XDICTIONARY
360
388
102
}
102
{ACAD_REACTORS
330
29
102
}
330
29
100
AcDbVisualStyle
  2
GouraudWithEdges
 70
     3
 71
     2
 72
     2
 73
     1
 90
        2
 40
-0.6
 41
30.0
 62
     5
 63
     7
 74
     1
 91
        0
 64
     7
 65
   257
 75
     1
175
     1
 42
1.0
 92
        0
 66
   257
 43
1.0
 76
     1
 77
     6
 78
     2
 67
     7
 79
     5
170
     0
171
     0
290
     0
174
     0
 93
       13
 44
0.0
173
     0
291
     1
 45
0.0
1001
ACAD
1000
AcDbSavedByObjectVersion
1070
     0
  0
VISUALSTYLE
  5
31
102
{ACAD_XDICTIONARY
360
390
102
}
102
{ACAD_REACTORS
330
29
102
}
330
29
100
AcDbVisualStyle
  2
Hidden
 70
     6
 71
     1
 72
     2
 73
     2
 90
        0
 40
-0.6
 41
-30.0
 62
     5
 63
     7
 74
     2
 91
        2
 64
     7
 65
   257
 75
     2
175
     1
 42
40.0
 92
        0
 66
   257
 43
1.0
 76
     1
 77
     6
 78
     2
 67
     7
 79
     3
170
     0
171
     0
290
     0
174
     0
 93
        1
 44
0.0
173
     0
291
     0
 45
0.0
1001
ACAD
1000
AcDbSavedByObjectVersion
1070
     0
  0
VISUALSTYLE
  5
3F
102
{ACAD_XDICTIONARY
360
3AC
102
}
102
{ACAD_REACTORS
330
29
102
}
330
29
100
AcDbVisualStyle
  2
JitterOff
 70
    20
 71
     2
 72
     2
 73
     0
 90
        0
 40
-0.6
 41
-30.0
 62
     5
 63
     7
 74
     1
 91
        4
 64
     7
 65
   257
 75
     1
175
     1
 42
1.0
 92
       10
 66
     7
 43
1.0
 76
     1
 77
     6
 78
     2
 67
     7
 79
     5
170
     0
171
     0
290
     0
174
     0
 93
        1
 44
0.0
173
     0
291
     1
 45
0.0
1001
ACAD
1000
AcDbSavedByObjectVersion
1070
     0
  0
VISUALSTYLE
  5
37
102
{ACAD_XDICTIONARY
360
39C
102
}
102
{ACAD_REACTORS
330
29
102
}
330
29
100
AcDbVisualStyle
  2
Linepattern
 70
    14
 71
     2
 72
     2
 73
     0
 90
        0
 40
-0.6
 41
-30.0
 62
     5
 63
     7
 74
     1
 91
        4
 64
     7
 65
   257
 75
     7
175
     7
 42
1.0
 92
        8
 66
     7
 43
1.0
 76
     1
 77
     6
 78
     2
 67
     7
 79
     5
170
     0
171
     0
290
     0
174
     0
 93
        1
 44
0.0
173
     0
291
     1
 45
0.0
1001
ACAD
1000
AcDbSavedByObjectVersion
1070
     0
  0
VISUALSTYLE
  5
40
102
{ACAD_XDICTIONARY
360
3AE
102
}
102
{ACAD_REACTORS
330
29
102
}
330
29
100
AcDbVisualStyle
  2
OverhangOff
 70
    21
 71
     2
 72
     2
 73
     0
 90
        0
 40
-0.6
 41
-30.0
 62
     5
 63
     7
 74
     1
 91
        4
 64
     7
 65
   257
 75
     1
175
     1
 42
1.0
 92
        9
 66
     7
 43
1.0
 76
     1
 77
     6
 78
     2
 67
     7
 79
     5
170
     0
171
     0
290
     0
174
     0
 93
        1
 44
0.0
173
     0
291
     1
 45
0.0
1001
ACAD
1000
AcDbSavedByObjectVersion
1070
     0
  0
VISUALSTYLE
  5
33
102
{ACAD_XDICTIONARY
360
394
102
}
102
{ACAD_REACTORS
330
29
102
}
330
29
100
AcDbVisualStyle
  2
Realistic
 70
     8
 71
     2
 72
     2
 73
     0
 90
        2
 40
-0.6
 41
30.0
 62
     5
 63
     7
 74
     0
 91
        0
 64
     7
 65
   257
 75
     1
175
     1
 42
1.0
 92
        8
 66
   257
 43
1.0
 76
     1
 77
     6
 78
     2
 67
     7
 79
     3
170
     0
171
     0
290
     0
174
     0
 93
       13
 44
0.0
173
     0
291
     0
 45
0.0
1001
ACAD
1000
AcDbSavedByObjectVersion
1070
     0
  0
VISUALSTYLE
  5
3E
102
{ACAD_XDICTIONARY
360
3AA
102
}
102
{ACAD_REACTORS
330
29
102
}
330
29
100
AcDbVisualStyle
  2
Shaded
 70
    27
 71
     2
 72
     2
 73
     1
 90
        2
 40
-0.6
 41
30.0
 62
     5
 63
     7
 74
     0
 91
        4
 64
     7
 65
   257
 75
     1
175
     1
 42
1.0
 92
        8
 66
   257
 43
1.0
 76
     1
 77
     6
 78
     2
 67
     8
 79
     3
170
     0
171
     0
290
     0
174
     0
 93
        5
 44
0.0
173
     0
291
     0
 45
0.0
1001
ACAD
1000
AcDbSavedByObjectVersion
1070
     0
  0
VISUALSTYLE
  5
3D
102
{ACAD_XDICTIONARY
360
3A8
102
}
102
{ACAD_REACTORS
330
29
102
}
330
29
100
AcDbVisualStyle
  2
Shaded with edges
 70
    26
 71
     2
 72
     2
 73
     1
 90
        2
 40
-0.6
 41
30.0
 62
     5
 63
     7
 74
     1
 91
       10
 64
     7
 65
   257
 75
     2
175
     1
 42
1.0
 92
        8
 66
   257
 43
1.0
 76
     1
 77
     6
 78
     2
 67
     7
 79
     3
170
     0
171
     0
290
     0
174
     0
 93
        5
 44
0.0
173
     0
291
     0
 45
0.0
1001
ACAD
1000
AcDbSavedByObjectVersion
1070
     0
  0
VISUALSTYLE
  5
3A
102
{ACAD_XDICTIONARY
360
3A2
102
}
102
{ACAD_REACTORS
330
29
102
}
330
29
100
AcDbVisualStyle
  2
Shades of Gray
 70
    23
 71
     2
 72
     2
 73
     3
 90
        0
 40
-0.6
 41
-30.0
 62
     5
 63
     7
 74
     2
 91
        2
 64
     7
 65
     7
 75
     1
175
     1
 42
40.0
 92
        8
 66
     7
 43
1.0
 76
     1
 77
     6
 78
     2
 67
     7
 79
     3
170
     0
171
     0
290
     0
174
     0
 93
        1
 44
0.0
173
     0
291
     0
 45
0.0
1001
ACAD
1000
AcDbSavedByObjectVersion
1070
     0
  0
VISUALSTYLE
  5
3B
102
{ACAD_XDICTIONARY
360
3A4
102
}
102
{ACAD_REACTORS
330
29
102
}
330
29
100
AcDbVisualStyle
  2
Sketchy
 70
    24
 71
     1
 72
     2
 73
     2
 90
        0
 40
-0.6
 41
-30.0
 62
     5
 63
     7
 74
     2
 91
        2
 64
     7
 65
     7
 75
     1
175
     1
 42
40.0
 92
       11
 66
     7
 43
1.0
 76
     1
 77
     6
 78
     2
 67
     7
 79
     6
170
     0
171
     0
290
     0
174
     0
 93
        1
 44
0.0
173
     0
291
     0
 45
0.0
1001
ACAD
1000
AcDbSavedByObjectVersion
1070
     0
  0
VISUALSTYLE
  5
36
102
{ACAD_XDICTIONARY
360
39A
102
}
102
{ACAD_REACTORS
330
29
102
}
330
29
100
AcDbVisualStyle
  2
Thicken
 70
    13
 71
     2
 72
     2
 73
     0
 90
        0
 40
-0.6
 41
-30.0
 62
     5
 63
     7
 74
     1
 91
        4
 64
     7
 65
   257
 75
     1
175
     1
 42
1.0
 92
       12
 66
     7
 43
1.0
 76
     1
 77
     6
 78
     2
 67
     7
 79
     5
170
     0
171
     0
290
     0
174
     0
 93
        1
 44
0.0
173
     0
291
     1
 45
0.0
1001
ACAD
1000
AcDbSavedByObjectVersion
1070
     0
  0
VISUALSTYLE
  5
30
102
{ACAD_XDICTIONARY
360
38E
102
}
102
{ACAD_REACTORS
330
29
102
}
330
29
100
AcDbVisualStyle
  2
Wireframe
 70
     5
 71
     0
 72
     2
 73
     0
 90
        0
 40
-0.6
 41
-30.0
 62
     5
 63
     7
 74
     1
 91
        4
 64
     7
 65
   257
 75
     1
175
     1
 42
1.0
 92
        0
 66
   257
 43
1.0
 76
     1
 77
     6
 78
     2
 67
     7
 79
     3
170
     0
171
     0
290
     0
174
     0
 93
        1
 44
0.0
173
     0
291
     0
 45
0.0
1001
ACAD
1000
AcDbSavedByObjectVersion
1070
     0
  0
VISUALSTYLE
  5
3C
102
{ACAD_XDICTIONARY
360
3A6
102
}
102
{ACAD_REACTORS
330
29
102
}
330
29
100
AcDbVisualStyle
  2
X-Ray
 70
    25
 71
     2
 72
     2
 73
     1
 90
        1
 40
0.5
 41
-30.0
 62
     5
 63
     7
 74
     1
 91
        0
 64
     7
 65
   257
 75
     1
175
     1
 42
1.0
 92
        8
 66
     7
 43
1.0
 76
     1
 77
     6
 78
     2
 67
     7
 79
     3
170
     0
171
     0
290
     0
174
     0
 93
       13
 44
0.0
173
     0
291
     0
 45
0.0
1001
ACAD
1000
AcDbSavedByObjectVersion
1070
     0
  0
DICTIONARYVAR
  5
3C0
102
{ACAD_REACTORS
330
3BC
102
}
330
3BC
100
DictionaryVariables
280
     0
  1
1:1
  0
DICTIONARYVAR
  5
3BE
102
{ACAD_REACTORS
330
3BC
102
}
330
3BC
100
DictionaryVariables
280
     0
  1
STANDARD
  0
DICTIONARYVAR
  5
3BD
102
{ACAD_REACTORS
330
3BC
102
}
330
3BC
100
DictionaryVariables
280
     0
  1
STANDARD
  0
DICTIONARYVAR
  5
3C7
102
{ACAD_REACTORS
330
3BC
102
}
330
3BC
100
DictionaryVariables
280
     0
  1
1
  0
DICTIONARYVAR
  5
3C6
102
{ACAD_REACTORS
330
3BC
102
}
330
3BC
100
DictionaryVariables
280
     0
  1
1
  0
DICTIONARYVAR
  5
3C5
102
{ACAD_REACTORS
330
3BC
102
}
330
3BC
100
DictionaryVariables
280
     0
  1
0
  0
DICTIONARYVAR
  5
3C2
102
{ACAD_REACTORS
330
3BC
102
}
330
3BC
100
DictionaryVariables
280
     0
  1
0
  0
DICTIONARYVAR
  5
3C3
102
{ACAD_REACTORS
330
3BC
102
}
330
3BC
100
DictionaryVariables
280
     0
  1
0
  0
DICTIONARYVAR
  5
3C1
102
{ACAD_REACTORS
330
3BC
102
}
330
3BC
100
DictionaryVariables
280
     0
  1
2
  0
DICTIONARYVAR
  5
3BF
102
{ACAD_REACTORS
330
3BC
102
}
330
3BC
100
DictionaryVariables
280
     0
  1
1
  0
DICTIONARYVAR
  5
3C4
102
{ACAD_REACTORS
330
3BC
102
}
330
3BC
100
DictionaryVariables
280
     0
  1
127
  0
DICTIONARYVAR
  5
3C8
102
{ACAD_REACTORS
330
3BC
102
}
330
3BC
100
DictionaryVariables
280
     0
  1
0
  0
DICTIONARY
  5
439
102
{ACAD_REACTORS
330
42E
102
}
330
42E
100
AcDbDictionary
281
     1
  0
DICTIONARY
  5
485
330
6B
100
AcDbDictionary
280
     1
281
     1
  3
ACAD_XREC_ROUNDTRIP
360
486
  0
DICTIONARY
  5
489
330
73
100
AcDbDictionary
280
     1
281
     1
  3
ACAD_XREC_ROUNDTRIP
360
48A
  0
DICTIONARY
  5
487
330
6F
100
AcDbDictionary
280
     1
281
     1
  3
ACAD_XREC_ROUNDTRIP
360
488
  0
DICTIONARY
  5
1A
330
19
100
AcDbDictionary
280
     1
281
     1
  3
ACAD_XREC_ROUNDTRIP
360
482
  3
BUMPTILE
360
1C
  3
DIFFUSETILE
360
1B
  3
OPACITYTILE
360
1F
  3
REFLECTIONTILE
360
1E
  3
REFRACTIONTILE
360
20
  3
SPECULARTILE
360
1D
  0
DICTIONARY
  5
12
330
11
100
AcDbDictionary
280
     1
281
     1
  3
ACAD_XREC_ROUNDTRIP
360
481
  3
BUMPTILE
360
14
  3
DIFFUSETILE
360
13
  3
FBXASSET
360
11A
  3
OPACITYTILE
360
17
  3
REFLECTIONTILE
360
16
  3
REFRACTIONTILE
360
18
  3
SPECULARTILE
360
15
  0
DICTIONARY
  5
22
330
21
100
AcDbDictionary
280
     1
281
     1
  3
ACAD_XREC_ROUNDTRIP
360
483
  3
BUMPTILE
360
24
  3
DIFFUSETILE
360
23
  3
OPACITYTILE
360
27
  3
REFLECTIONTILE
360
26
  3
REFRACTIONTILE
360
28
  3
SPECULARTILE
360
25
  0
DICTIONARY
  5
369
330
67
100
AcDbDictionary
280
     1
281
     1
  3
ACAD_XREC_ROUNDTRIP
360
36A
  0
DICTIONARY
  5
367
330
65
100
AcDbDictionary
280
     1
281
     1
  3
ACAD_ROUNDTRIP_2008_TABLESTYLE_CELLSTYLEMAP
360
479
  3
ACAD_XREC_ROUNDTRIP
360
484
  0
DICTIONARY
  5
38C
330
2F
100
AcDbDictionary
280
     1
281
     1
  3
ACAD_XREC_ROUNDTRIP
360
38D
  0
DICTIONARY
  5
38A
330
2E
100
AcDbDictionary
280
     1
281
     1
  3
ACAD_XREC_ROUNDTRIP
360
38B
  0
DICTIONARY
  5
398
330
35
100
AcDbDictionary
280
     1
281
     1
  3
ACAD_XREC_ROUNDTRIP
360
399
  0
DICTIONARY
  5
3A0
330
39
100
AcDbDictionary
280
     1
281
     1
  3
ACAD_XREC_ROUNDTRIP
360
3A1
  0
DICTIONARY
  5
392
330
32
100
AcDbDictionary
280
     1
281
     1
  3
ACAD_XREC_ROUNDTRIP
360
393
  0
DICTIONARY
  5
396
330
34
100
AcDbDictionary
280
     1
281
     1
  3
ACAD_XREC_ROUNDTRIP
360
397
  0
DICTIONARY
  5
3B0
330
41
100
AcDbDictionary
280
     1
281
     1
  3
ACAD_XREC_ROUNDTRIP
360
3B1
  0
DICTIONARY
  5
39E
330
38
100
AcDbDictionary
280
     1
281
     1
  3
ACAD_XREC_ROUNDTRIP
360
39F
  0
DICTIONARY
  5
382
330
2A
100
AcDbDictionary
280
     1
281
     1
  3
ACAD_XREC_ROUNDTRIP
360
383
  0
DICTIONARY
  5
384
330
2B
100
AcDbDictionary
280
     1
281
     1
  3
ACAD_XREC_ROUNDTRIP
360
385
  0
DICTIONARY
  5
386
330
2C
100
AcDbDictionary
280
     1
281
     1
  3
ACAD_XREC_ROUNDTRIP
360
387
  0
DICTIONARY
  5
388
330
2D
100
AcDbDictionary
280
     1
281
     1
  3
ACAD_XREC_ROUNDTRIP
360
389
  0
DICTIONARY
  5
390
330
31
100
AcDbDictionary
280
     1
281
     1
  3
ACAD_XREC_ROUNDTRIP
360
391
  0
DICTIONARY
  5
3AC
330
3F
100
AcDbDictionary
280
     1
281
     1
  3
ACAD_XREC_ROUNDTRIP
360
3AD
  0
DICTIONARY
  5
39C
330
37
100
AcDbDictionary
280
     1
281
     1
  3
ACAD_XREC_ROUNDTRIP
360
39D
  0
DICTIONARY
  5
3AE
330
40
100
AcDbDictionary
280
     1
281
     1
  3
ACAD_XREC_ROUNDTRIP
360
3AF
  0
DICTIONARY
  5
394
330
33
100
AcDbDictionary
280
     1
281
     1
  3
ACAD_XREC_ROUNDTRIP
360
395
  0
DICTIONARY
  5
3AA
330
3E
100
AcDbDictionary
280
     1
281
     1
  3
ACAD_XREC_ROUNDTRIP
360
3AB
  0
DICTIONARY
  5
3A8
330
3D
100
AcDbDictionary
280
     1
281
     1
  3
ACAD_XREC_ROUNDTRIP
360
3A9
  0
DICTIONARY
  5
3A2
330
3A
100
AcDbDictionary
280
     1
281
     1
  3
ACAD_XREC_ROUNDTRIP
360
3A3
  0
DICTIONARY
  5
3A4
330
3B
100
AcDbDictionary
280
     1
281
     1
  3
ACAD_XREC_ROUNDTRIP
360
3A5
  0
DICTIONARY
  5
39A
330
36
100
AcDbDictionary
280
     1
281
     1
  3
ACAD_XREC_ROUNDTRIP
360
39B
  0
DICTIONARY
  5
38E
330
30
100
AcDbDictionary
280
     1
281
     1
  3
ACAD_XREC_ROUNDTRIP
360
38F
  0
DICTIONARY
  5
3A6
330
3C
100
AcDbDictionary
280
     1
281
     1
  3
ACAD_XREC_ROUNDTRIP
360
3A7
  0
XRECORD
  5
486
102
{ACAD_REACTORS
330
485
102
}
330
485
100
AcDbXrecord
280
     1
102
SHADEPLOT
 70
     0
102
SHADEPLOTRESLEVEL
 70
     2
102
SHADEPLOTCUSTOMDPI
 70
   300
  0
XRECORD
  5
48A
102
{ACAD_REACTORS
330
489
102
}
330
489
100
AcDbXrecord
280
     1
102
SHADEPLOT
 70
     0
102
SHADEPLOTRESLEVEL
 70
     2
102
SHADEPLOTCUSTOMDPI
 70
   300
  0
XRECORD
  5
488
102
{ACAD_REACTORS
330
487
102
}
330
487
100
AcDbXrecord
280
     1
102
SHADEPLOT
 70
     0
102
SHADEPLOTRESLEVEL
 70
     2
102
SHADEPLOTCUSTOMDPI
 70
   300
  0
XRECORD
  5
482
102
{ACAD_REACTORS
330
1A
102
}
330
1A
100
AcDbXrecord
280
     1
102
MATERIAL
148
0.0
149
0.0
149
0.0
 93
        0
 94
      127
282
     0
 72
     0
 77
     0
171
     0
175
     0
179
     0
273
     0
  0
XRECORD
  5
1C
102
{ACAD_REACTORS
330
1A
102
}
330
1A
100
AcDbXrecord
280
     1
270
     1
271
     1
  0
XRECORD
  5
1B
102
{ACAD_REACTORS
330
1A
102
}
330
1A
100
AcDbXrecord
280
     1
270
     1
271
     1
  0
XRECORD
  5
1F
102
{ACAD_REACTORS
330
1A
102
}
330
1A
100
AcDbXrecord
280
     1
270
     1
271
     1
  0
XRECORD
  5
1E
102
{ACAD_REACTORS
330
1A
102
}
330
1A
100
AcDbXrecord
280
     1
270
     1
271
     1
  0
XRECORD
  5
20
102
{ACAD_REACTORS
330
1A
102
}
330
1A
100
AcDbXrecord
280
     1
270
     1
271
     1
  0
XRECORD
  5
1D
102
{ACAD_REACTORS
330
1A
102
}
330
1A
100
AcDbXrecord
280
     1
270
     1
271
     1
  0
XRECORD
  5
481
102
{ACAD_REACTORS
330
12
102
}
330
12
100
AcDbXrecord
280
     1
102
MATERIAL
148
0.0
149
0.0
149
0.0
 93
        0
 94
      127
282
     0
 72
     0
 77
     0
171
     0
175
     0
179
     0
273
     0
  0
XRECORD
  5
14
102
{ACAD_REACTORS
330
12
102
}
330
12
100
AcDbXrecord
280
     1
270
     1
271
     1
  0
XRECORD
  5
13
102
{ACAD_REACTORS
330
12
102
}
330
12
100
AcDbXrecord
280
     1
270
     1
271
     1
  0
XRECORD
  5
11A
102
{ACAD_REACTORS
330
12
102
}
330
12
100
AcDbXrecord
280
     1
 70
     1
 90
1959938040
 71
     1
  1
6DCF9D61-2B8F-4478-94F4-338519682531
311
504B03040A0000080000E13A52413DEE336E79000000790000001B0000006175746F6465736B2D64657369676E2D7061636B6167652E786D6C3C3F786D6C2076657273696F6E3D22312E302220656E636F64696E673D227574662D3822203F3E3C666F726D6174733E3C666F726D61743E687474703A2F2F736368656D612E
311
6175746F6465736B2E636F6D2F64657369676E2D7061636B6167652F323030393C2F666F726D61743E3C2F666F726D6174733E504B0304140006080800E13A5241D486FD9CA0000000F4000000130000005B436F6E74656E745F54797065735D2E786D6C7D8EC10E82300C865F65E91D8A1E8C310C0EEA1BF002731658846E
311
D98AC1B77784ABF1D8FE5FBFBF75BBCE937A534CCEB38643598122B6FEE978D0B0485F9C41B54DDD7D022595594E1A469170414C76A4D9A4D207E29CF43ECE46F218070CC6BECC4078ACAA135ACF422C856C0E68EA1BF5669944DDD7BCDE7B1F8E415D77AECB980613C2E4AC91FC167A2B244592486606FC29C8FD7F045B9A
311
EF7053A7E60B504B0304140006080800E13A52419A769B49E90000007C01000008000000636F72652E786D6C8D90D18AC32010457F45E67531511B1A138CA510FA05FB03A2362B6D34445DF6F36BDA1476DFF669863BF7CC0C579C7EE63BFAB66B74C10F402B02C87A1D8CF3D300395D31077492620D21FDB201F26AB6036C
311
324831AD212FBBA4834FD6A7A2FA60EC2EAA186D02A4EFA51920EA2F3BAB4AE5541CF1562D4ADFD4642BFAEE0A9CB333E875C499B2CF5D9D5D41723212DEB00637E791E186771CF3B13DE38E8DC7231B2F9C75ADA837588AE4E6F77DBD5A95AC01C9086598124CF927697B76E809FB20B42744D49BFD0F9417F34F283B9F0E
311
6C7FF7854590B43CF21C48516F5994F20CAAD42D37F900504B0304140006080800E13A524155019EA25F0000007C00000007000000636E782E786D6C4DCB3B0E80201045D1AD90E915ED2CF8AC45050C11660C8261F98AB1B07AC9C97D42D718D865D3E909258CFD00CCE24AC6E326A164D74DC0B4128928FF326038472BA1
311
3128B1252AC747C6BAB984FC68F0B87FE8960A5C09FE86CFB69FBA01504B0304140006080800E13A524139864E0765010000020300000C0000006662782F636F72652E786D6C8D52ED8A8330107C9590BF474C4CA5B525A614E49EE05E20D5B427D544F2217DFC5B3F8AD7A39443886166677776541CEF5D8B06ED7C634D81
311
D38461A44D65EBC65C0B1CC385E4181DA570D6865F651819D5E9028F3096E2EA6CEC17A8B22668130035B6D60BA8BCD701A3AA854B817DF5AD3B95A818A0C2DF925E553775D5499A000D7552F8E0C0009A878C279697F35DD0199722C6A65ED8A68669CDA5D10ECB9C952CCF7846B253C94996EF739297BB13D9F372BBE5E5
311
67CEF73B4147B114A1E91EEE2AA755D035969CA59CA48CA4F917DB1DF8E6C0F8074B0F8C093A963F89625FFF53141B13367CB13BCB3C96291899883FDB4244017935801F2A051D4384D794F073D01008841CD4B97DEC710368D055B02E03A6B671A506D5460D53199A1E4167163A4F0D60B3977DF89B3EEF7BC00754E60AD6
311
5480EB398671BA98A72E51F4DA9121DC91B1AE53ED6A6EB6B89EEBA097F2CAB6D6FD474D9755E912261DFF5EF903504B0304140006080800E13A5241E9CCC8397E0000009D0000000B0000006662782F636E782E786D6C4DCCD10A83201886E15B91FFDC95A19B811AD3ADFB886521990EA76397BF1A1DECE883878F57749F
311
D5A3B74D2F17830472AA01D9F088A30BB3849227CC01754AA418F3DF0D5018562B616750624EB13C0F1AED34149F37F52E2C07362DBDD333D3B8D7CC607AE317CC4DCFB1B9724274C3EBD630A894A87EA56DF7B0FA02504B0304140006080800E13A52415654FF992E01000015020000310000006662782F32393445343635
311
422D464235432D344438372D384346382D4341383131423238303943352F636F72652E786D6C8D515B6EC32010BC0AE22B55850D7E2424C2448DDB9CA017706C92A2C460F1A872FC2EB523B57FF961D1ECCCEC6857ECEFE30D7D2BE7B5350D6619C54899DE0EDA5C1A1CC399708CF652386BC31F1A46A61B5583138CA5B838
311
1BA705EAAD09CA04408D1DD40276DEAB80517F834F837DFFA5C62EEB620086BF6653D75FBB8BCA58066DE049E1838300681E925E2C8B6DF551ADEB03391EEA9654EF7C43787BE4A47DE38C1D0A4EB76D2DF25928458C7A58E47A8038FAAC957BD62489A5087A7CC4EF9DEA821A404F594118258C7FD2CDAE2877B478A56C47
311
A9C813FD9F284EC393A2A84D288B25EE2CF3583291CF0D29061B4FB74718759FAC0B28CD5B79D5BF6049334A6B5E9775B911F9CC850D80E9BA5A4C7DB00E36BCBA9E80CE604FC9795D4991A72341F9BD20D47450F903504B0304140006080800E13A524122F1EE864E01000033030000300000006662782F32393445343635
311
422D464235432D344438372D384346382D4341383131423238303943352F636E782E786D6CD593CD6E022114855F85B06DE687D15863184CBAE81374D12DC2D5521998F0D3D4B7EF45D1BA71D165376472EEE19C9B2F0CDF7E4F967C4188C6BB91B2B6A7049CF2DAB8C34873DA376B4AB68207EFD39D8D122727186991A9E0
311
87E0F35C250D7B996D42D51A77AC6280E8735010512E3789F54A5A0C00D7641461DA81D6A0C9CD885F7B08B80A8ABB13491F405E5FDE89DF7D824A91772545F0AE74085ECEDA7467A2445919E348A3FA8049B63227AF211E5B2D936C597BED7AB0D36F122917AE95391852CA475A4E2AEA462D72E41D0E058F2920BD6A4AA7
311
19A890F36C8D9209217767E3C52378362EAD96D56B107C40375B2D964B0C3BCF044F6682EA500164024DC5D0B3A1617DC3D66FFDF366586CFAE1A9679BBEE75DB10BBEF3DED64B1803C1CF447997C0252A18EFCAF811BEEA23DA0464EDC3E90F2011406DBDD0B965FC673EDDF97D23AE807F81F801504B0304140006080800
311
E13A5241E4901AB9A405000081100000340000006662782F32393445343635422D464235432D344438372D384346382D4341383131423238303943352F6F626A656374732E786D6CAD57DB6EDB3810FD1541FBB2FB20D9B29DD45E282A12BB2E8C366D51A3C53E1830688952B8A12E20A9C4D9AFDF43899225D74EBD8BBEE8
311
C2CB70E6CC990BFDB7FB945B4F5448966737B6E70E6D8B66611EB12CB9B14B153B53DB7A1BF822CF5567996D6524A537B61EB6033F11795998A188C6A4E4EA687479F79725439A51DB0A3991F2C696E1034D894B4A9547543EBA1151C44DE2BDEBB9F5C2BED84490E2E148684104CD1434C578062956AD94D7FF1DDA83C01F
311
E8F9C0D74FB36A7C7ED5A0B2A77F3ECBA42259F8C3614762C6DE64F16E743573AE2693B133B91E79CEDDF26EE1786FC6C3F9F57C3EBB7D37C3C1520948329A081ADBC17B602358E80FEAA9C02F59A6C623B3C4386820E813D39EB28391E5F9837A4D6B9D31F294FA619E6534ACB0021A957D4674440B9A45F039A3129A7510
311
1AF67F3D8D63677AACFFCD91DDE1CB10E8EEE8086A746FDE5D4DF3DDDF30415EC22021A966608DA531B4E6EAF080F02ECFB99963D24A89A282116E71B61344BCD80196EA2581DF13A3992C7434680BEC005EA8A7FB744118FD9CE7A7B48C4BCE358DEDA08A822D62852A5969C6FEA1E2A07D1719E8045F69364C8D41EAA5A0
311
7630AB29323D62530DA4157392C0E53053EF1C8F8E0C9DEB385D2DECE0C372B75FEBD83D7D7821F2820AA5E9036A358E6BDE1A25A3937791E7F406FB489503285F81FC2784FA4115F84DB0FD643F31A728413219E722856FACA1E50CF1185A5EF5D4DF9D2F7FD06EEE7BEF1C9E70B686EA17E0D9B7A1EBCB0E9C81FF04C2E7
311
626C4C5B8784236DDCB30C006992583CC710F270BCDBDBC10A590E5919BB080F3C980C759FF0E90F8C18248AEAA4CE3B03964769F182040DD82A46428D9AFC46C1839F7E4867D5C166D93978AF7E095D6F17EB0FEB52C424A4F726A61734661953287107DE7415EA61DEB3E891BE3CE72282A13FE2BDEEE29D9AA324D0D698
311
6BE09326A7EB9FC3C9BD0342EC4B729D6EFC9F9C00237461EDC8BF6732A49C938CE66573EEABF50365A3865807BB66725B600E8505A4A9678E6210453A14ACD020B6D5AA4D9AEE19EBBEAD3E81917670F7F291BC74B3D7EE907BC39CE762BB7BD9D669E924D4DFFBDC36180CB414D0BD0A9226FE0DE8DB88C5712991044FE0
311
FA7D35EFFA4EA705A488466A1D2D13D88FE022C290B6918B6A2D082A699E6D19EA26E2EEE4015DF980D430A012784E634979BC659C97E936661CD5689B92E20C1CFF5FFF5D99165B92E665A6CEC8EEA98EEAD0D7BDC75EF94C54F86007EBEAEDDC21F746343A43065D4B4E60D573EDF562BE9C2DAE3D6774375D3A93C99BA9
311
339B2C27CE783CBDF266D7D3D1D5F88066D544057E536ABA110D2FA1B4F9A560C67DDF56881F9304ECE09E28B9795F8767F3FEB672D10BFB03EC41BD6C37DE464FE8FB68F4730187952705ADD282D394668AE818BAD71FFC2B419FD153A61E5FA524A11748F9FC7E7D640C462ED8F745C73B7D3EDA6B46E73A204F0A510F65
311
BACB08E3471B931A49B7C812835FE393F65D179AE657FF19C7A03395396711F2606425344FA94236BCA00889944A50AFDBD347E6EE71C1EEA7BA435464C769A3C9034193CC25C202242F43D51FB77E4353A7FBAA1B1BE5D67DC4C3640ADB02676E6C34E98A8554BA3B1468DD0A55C2C1A56E270FCE922CE1E8B5EB4DED7FBB
311
4B63D32BC9ED924BFA2763579DC28D01482305FA063444F04EA54CE057BA99F9F03F19DEA8631185CF5DA95A5B0E03AD31D53108D1DA28735B4013F3688EDE23505F37CB73AB353D442EBA65BD4A825AAAA38848AA9B82D6CFA874BBF832408762AD3E5B052F13F8F272498EA02073A9031C2C022B8CCC82285075FEE7E68B
311
C871934DAD250305ACDFF7D3EB3F36F33C4DF3AC1EDADC9AFBB0B57EC0ED36DA2039507D2D919BD1D01B6DAAEB80B9A16C7744529744F21103F0AC602DD03DF78397F59D1199B39E68D70DB42B8E18BA5A58A6B04D20D4D0A59B5B3538683C326A2186F49552474C7741F1EA8D60502D850A02BD7CF02F504B030414000608
311
0000E13A5241000000000000000000000000350000006662782F32393445343635422D464235432D344438372D384346382D4341383131423238303943352F76657274696365732E62696E504B0304140006080800E13A5241F270F1330600000004000000360000006662782F32393445343635422D464235432D34443837
311
2D384346382D4341383131423238303943352F747269616E676C65732E62696E636660600000504B0304140006080000E13A5241000000000000000000000000370000006662782F32393445343635422D464235432D344438372D384346382D4341383131423238303943352F617474726962757465732E62696E504B0304
311
140006080800E13A5241D5987DFC8F00000041010000360000006662782F32393445343635422D464235432D344438372D384346382D4341383131423238303943352F6469726563746F72792E786D6C858F410EC2201045AF4266AF15DDB800BA74E7C21B903225242D6328188F2FA5C4183471359997F9FF81E89FF3C41E
311
1816475E02DF1F80A11FC8386F25A438EECEC07A250251FC3803E6F58C12560C4AD840E95E91C151A72936F496F35732D860FE635F62C8F2DA16B505C545B74125BAA2FA9E05D7CC053D063734D5C7665FD55B6B8D15D5E9BFEAFD8490FFA45E504B0304140006080800E13A5241451851F1FC000000A00100003B00000066
311
62782F32393445343635422D464235432D344438372D384346382D4341383131423238303943352F7265736F75726365732F636F72652E786D6C8D504B6AC33010BD8A996D912D2921568CAC10303D412F20E4892B124B419FD0E3574A5C6877DDCC0CEFC33C9E3C7DADB7E681215AEF46602D85069DF1B375CB08395D8880
311
E6A464F03EFD9241E3F48A235418945C82CFF70D32DE2574A9A0CECFB8813A464CD0985B394688E61357DDEA9C8A225EDBBB3657BD60CBDA42179D92318512A0793DA91354C0E873301865F76295CCD9CE9BC6CEE5A7BD580CA0049DA8D8F31DD99F274EF6E2288898FA3339F2E970E0D3BBE0C75E76D5AC64B2EB4F461350
311
279C4171CA38619430F141FB81EF06CADF281B28955D95FF31E5FBFC4F53B62EEDF816F7658BA05809F22494EC6A5F653DCB2CBB76ABBE01504B010214000A0000080000E13A52413DEE336E79000000790000001B00000000000000000000000000000000006175746F6465736B2D64657369676E2D7061636B6167652E78
311
6D6C504B01021400140006080800E13A5241D486FD9CA0000000F40000001300000000000000000000000000B20000005B436F6E74656E745F54797065735D2E786D6C504B01021400140006080800E13A52419A769B49E90000007C010000080000000000000000000000000083010000636F72652E786D6C504B01021400
311
140006080800E13A524155019EA25F0000007C000000070000000000000000000000000092020000636E782E786D6C504B01021400140006080800E13A524139864E0765010000020300000C00000000000000000000000000160300006662782F636F72652E786D6C504B01021400140006080800E13A5241E9CCC8397E00
311
00009D0000000B00000000000000000000000000A50400006662782F636E782E786D6C504B01021400140006080800E13A52415654FF992E0100001502000031000000000000000000000000004C0500006662782F32393445343635422D464235432D344438372D384346382D4341383131423238303943352F636F72652E
311
786D6C504B01021400140006080800E13A524122F1EE864E010000330300003000000000000000000000000000C90600006662782F32393445343635422D464235432D344438372D384346382D4341383131423238303943352F636E782E786D6C504B01021400140006080800E13A5241E4901AB9A4050000811000003400
311
000000000000000000000000650800006662782F32393445343635422D464235432D344438372D384346382D4341383131423238303943352F6F626A656374732E786D6C504B01021400140006080000E13A524100000000000000000000000035000000000000000000000000005B0E00006662782F32393445343635422D
311
464235432D344438372D384346382D4341383131423238303943352F76657274696365732E62696E504B01021400140006080800E13A5241F270F13306000000040000003600000000000000000000000000AE0E00006662782F32393445343635422D464235432D344438372D384346382D4341383131423238303943352F
311
747269616E676C65732E62696E504B01021400140006080000E13A52410000000000000000000000003700000000000000000000000000080F00006662782F32393445343635422D464235432D344438372D384346382D4341383131423238303943352F617474726962757465732E62696E504B01021400140006080800E1
311
3A5241D5987DFC8F0000004101000036000000000000000000000000005D0F00006662782F32393445343635422D464235432D344438372D384346382D4341383131423238303943352F6469726563746F72792E786D6C504B01021400140006080800E13A5241451851F1FC000000A00100003B0000000000000000000000
311
0000401000006662782F32393445343635422D464235432D344438372D384346382D4341383131423238303943352F7265736F75726365732F636F72652E786D6C504B0506000000000E000E0080040000951100000000
310
504B03040A0000080000E13A52413DEE336E79000000790000001B0000006175746F6465736B2D64657369676E2D7061636B6167652E786D6C3C3F786D6C2076657273696F6E3D22312E302220656E636F64696E673D227574662D3822203F3E3C666F726D6174733E3C666F726D61743E687474703A2F2F736368656D612E
310
6175746F6465736B2E636F6D2F64657369676E2D7061636B6167652F323030393C2F666F726D61743E3C2F666F726D6174733E504B0304140006080800E13A5241D486FD9CA0000000F4000000130000005B436F6E74656E745F54797065735D2E786D6C7D8EC10E82300C865F65E91D8A1E8C310C0EEA1BF002731658846E
310
D98AC1B77784ABF1D8FE5FBFBF75BBCE937A534CCEB38643598122B6FEE978D0B0485F9C41B54DDD7D022595594E1A469170414C76A4D9A4D207E29CF43ECE46F218070CC6BECC4078ACAA135ACF422C856C0E68EA1BF5669944DDD7BCDE7B1F8E415D77AECB980613C2E4AC91FC167A2B244592486606FC29C8FD7F045B9A
310
EF7053A7E60B504B0304140006080800E13A524198629FA8EB0000007C01000008000000636F72652E786D6C8D90416EC3201045AF82665B61831D3B8E85899CD63D412F8080B828315806AA1C3F3871A476D70D33FAFC3733FAEC789BAEE8472FDE38DB01CD08206DA553C68E1DC470C60DA023678B73E1970D901593EE60
310
9581B3717171DE24E96CD03624D53AA5375178AF0320794D4D075E7EEB49642286E4F0976C16F222469DD15797E0188D42CF2546A579E66CF4027C3F94C3E163D8E15DDFD7E9A96B7CA2A4C1D5E7E99D926AE89BEAC0F215E62C98E9B55F2E5A04AD8017841698124C9B2FB26F8BB225C51BA12D212C5FED7FA038AB7F42D1
310
D85016DBB94FCC03A7E990C70767F99A452A8FA0525D73E377504B0304140006080800E13A524155019EA25F0000007C00000007000000636E782E786D6C4DCB3B0E80201045D1AD90E915ED2CF8AC45050C11660C8261F98AB1B07AC9C97D42D718D865D3E909258CFD00CCE24AC6E326A164D74DC0B4128928FF32603847
310
2BA13128B1252AC747C6BAB984FC68F0B87FE8960A5C09FE86CFB69FBA01504B0304140006080800E13A524138B05FD867010000020300000C0000006662782F636F72652E786D6C8D525B6E833010BC8AE5DF0A6C9317898CA3A4A527E8051C70280AD8C80F94E377794469AA28AA908C35B3B33B3BC0F7D7B641BDB2AE36
310
3AC32CA618295D98B2D65586833F4729467BC1AD31FE5719465AB62AC3038C05AFAC09DD0C15467BA53DA0DA946A06A573CA63543470C9B02BBE552B63193C54B84BDCC9E2222B15B31868A813DC790B06D0346438B1389FAE9C4CB8E021D4E5CCD6254CABCFB5B2586CF245BEFDC897D1F27058C3B15E474746D368F5797C
310
6774951FD2D59693412CB8AFDB9BBBC22AE9558945425912311AB1F48B6E76C962479337CA76947232943F884257FE53146AED17C96C7792392C181819893FDB42441E39D9831F2238194284D798F063D0100884ECE5A9B9ED7101A857853776094C69C29DEA6513144CA5687C389958E83C3680CD9EF6495EF479DD033EA0
310
D41558931EAEA7E087E97C9A3A47D1291BF5FE8AB4B1AD6CEEE6268BF7F33EE8A9BC308DB1FF5193795532874986BF57FC00504B0304140006080800E13A5241AFF05FF77D0000009D0000000B0000006662782F636E782E786D6C4DCC410E83201404D0AB90BFA78A58EA0230A03D88A96848110C85A6C72F362EBA9ACCCB
310
6478FFD91C7A9BF8B2C10B20971A90F18F305BBF0AC869C11DA05EF21842FA9B01F2D366041C0C92AF31E4FDA4D92C5376A9A8B3FE79E2385E6B46A9C6B74637B8BD0F0A6B3D94DAB24E114609D30A2AC9ABDF53C9E3587E01504B0304140006080800E13A5241E6853C432B01000015020000310000006662782F44443530
310
363333422D373242322D344543412D424243422D3734363841313633313642412F636F72652E786D6C8D515B6EC32010BC0AE22B55659B87E3A411268A93DEA017A0405294182C1E558E5FA81DA9FDCB0F0BC3CCEC6897EDEFE30D7C6B1F8CB33DC43582405BE994B1971EA678AEB610EC39F3CEC53F3408AC18750F0B0C39
310
BB7897A60592CE466D6346AD537A0145083A42206FF9D2C320BFF4286A916266846B3D097915175DE33A7F671E6721FA1C00CC4DCA09F9E9B4461DA543B52103A9DAF7E3A11A86637EB6DDF6803B8ABBE1C09A59C8594A462D72A3721C7336DA3F6B52C49C45333EE24BAF45D40A728230A930AAF0F6036D7684EE10794578
310
87106B0AFD9F284DEA4951323652B2C49D650172CC9AF98333E5D2E7ED1146DF27E72328FD5641CB17C8518DD0A65BAFD11B65CDCCCD13C8A65DBB9886E87C9EF0EAFA99E97471EE5ACE9AB2A45C7E37986B5928FF01504B0304140006080800E13A5241445621915601000033030000300000006662782F44443530363333
310
422D373242322D344543412D424243422D3734363841313633313642412F636E782E786D6CBD93CD6EC32010845F0571AD6C63274AA30813A9873E410FBD62D824343658FC54CDDB7749489A4B0E95AA5E90353BCCAC3E61BEFD9A46F2093E18677BDAD68C12B0CA6963F73D4D7157AD29D90AEE9D8B77364AAC9CA0A759A6
310
82EFBD4B739134EC641A23AAA3B1C7227A082E790501E57C938C4EC91103C05609459806D01A34B919F16B071E57417138917800F2FAF24EDCF0012A06DEE414C19BDC21783E4BD39D891235CA107A1AD4012659CB149D8670ACB58CB26EEB6BD7839D7E9248BE70AD4CDE905CDED37C525136AA91236F702878881EE91553
310
3CCD40859CE7D12819117273365E3C822763E36A59BC06C17B742FBAD57A8D61E799E0D14C501CCA838CA0A9E858DB552DABDAF51B7BDE748B0DEB9E58BB618C37D92EF8E0DC582E610C783713E56C041BA9687993C78FF0151FD1C6236BE74FBF0089004AEB85CE2DE32FF9B4ABC572F98F7C9AF3FB465C1EFF02F10D504B
310
0304140006080800E13A5241BBFEA4BF630700009A1B0000340000006662782F44443530363333422D373242322D344543412D424243422D3734363841313633313642412F6F626A656374732E786D6CED59DD73A33610FF5718FAD23E181BDBC9251D4227B12F379E6BDA9B73EFA60F9E616490891A211849E4E2FEF55D7D
310
80819804B7E9DB3DD8809056BBBFFDD412FCF29451E71173417276E5FADEC475308BF384B0F4CA2DE56E74E13ABF8401CF73D998E63A0C65F8CA55C36E18A43C2F0B3B94E01D2AA9EC8CDEDEFCE9881833EC3A3145425CB922BEC719F25029F3048B072F411279E9EEC9F33D33B14D36E5A8B8EF102D10C74C02A730CE808A
310
6398F2DB8F13771C0663F53E0CD4BF9D351B346BDE3F6BACA56E7349989088C5CF58EA90990D6269E6CF97EFA76797A3B3F97C369A9F4FFDD1CDEDCD72E4BF9B4D16E78BC5E5F5FB4B606F9BE7D4CA94E002B304F4B777433F18AB37B5E81681635CC7396338D64002545AAC2E4182056CD5806FD27EF495448DD75AC2C6F3
310
5CBDB72C3486676D2A7DB38601D1A20B82D8ED2A89AB6B53BE7CFB17082E861825175802B74272D0AE85878357B8E124189BD130D81E7441849321893941D4A164CB1107A5C05435250CCC024B46390707528E92406BCEBC6EDB1678E6EBAE738CCB5D49A9F20C37D48E1581FB61293467E46FCC0FDC3791019E40DA923079
310
61B994FB02BBE16530D68361A02EB3A97D6980747614A5422362DE76045D28D75F2DDDF0E3EDF669ADC2C1F1CD0B9E17984B65744A8F9A2F30647B5528D96DFD419A530B401803AA5D7900E53320FF1B448F032BA0374E9EE64F733B5772C4C42EE719E8C69938A309FC4D1C5FFFABFBC65D30AE17B7B5D78727B8A982EAE2
310
BFE3D996416365F96FC019068F60F0399FD957EB1851B0E73BC2002065240ECD610842FB6EFBE4862B089C10E86115A2A10F2203BB8F701B8C2D9983562AF7B25EC70051BBC76C889200366D91C0468F9E3E40F6E0243EA8A929621FBC676F62AED7CBF5C775C97728C677D6A7977847189190358F33D4C2BC25D103DE7FCB
310
7902823EC77BDDC43BB35B09405B61AE804F2B10D4C361E7D60631AC4B73156E825776002154AE6ED0BF2322C6942286F3B2DAB78E6ECA506B8FB735831B4E0DC4B369C784397E24AAAA00A739CC68310A793FE6A45020BAE10723591D34BD1EE9BEAC7E038BACE7F7CC5A3108BD0CD13F74D03A8243CBB22BA42D10B5C0DB
310
43388F739AF368BB8F4CA473A1960036DADEF2B5451462BD5192A2021EA4FDAE0A29A991364AC86E570A88AB4758FCBA5A34CD61E2CDFC33A7F9DF71C639445BF05DC4ADDF75F6884886521CED50D2B75D73B79AB6D0247B4873BCA320177924721F21194D129C9E02CD49C42FDF947A4A732108C302F2D551F09B684C3C08
310
24469B15CB4AAB1DA08988322C113D050145A6075C9D76748D1B43E9F03A8FB5F5BEA4B126D1FFC92238825A32671181521472C8AB8CFBDE19C49036BA06E50EBE606D156D2D062DA18488F7D1374CD27B790AEA867C0FEE311C494A19E5058AC1AC07907DE62B4AA91DDEB7287E50F9238A4BFA56062230DD4584D2328BE0
310
47189C3C86B8761D985E44A141DCC43E893328CA902CF9904DCECF26CFF631354337043636DA110A613BCA50D1837A2B20EA7AC4A9C1B7D47B94BA2DB32242595EB24186E2CDBADE64C977D5AAC80EE457958A503656842DC130204CD659B58AD960EA3AB0821BE940B58F04CA0A6A4E61AF241EBFF6264DB977036EFDF46D
310
37C8A0F0EBD15E33A2CE2B182C8FADC2407C4332BE77C3B5BE8E6EA0FE4E707248F555ADD9AC00013115C94B4EAC8ABEACA0BCB1359A1BDE2129361F4CD6ADAE5F561E743F8231AC81DAA55EB85240679849A42A933B75433F2308C12D1A667CA572EA2954AE9344578D88DE923E75B6CA88D6A619F18A7BCCF20C7E6C4358
310
4CCB046F50221EA23B49A33551AC5B29BD8C5418BF28E0EF1FD61D78606480489F548187BF75D6DAD1852A978E1291F765B6658840106C89961ADD78054BAD462A2DD75775A680BA0B0CCCAA78FEFD64D16C477C3F59A4D630FED3C9E266FF2BDA37FB228D741E2BBB3EE91850E72745E52D8E01BAED5053ADB38849E6567E
310
EB4C1104C52ACA0FAEC6AAA06108F671FCAFB3765F1634DB75F83F2D6BFBCF2A8E93B24A6BB2EA521DA95C57CD1C76BE5CDC5E2ECFFDD1F4E6E276349FBFBB185DCE6FE7A3D9ECE2CCBF3CBF989ECD6A3D19E2615007339DBBE0D904B56A583D590CA02B2B724A1238CD274E8A21E64B38D30F689FF30C0B489ECD6677629B
310
F203563F9A3EA7445B8A2B4EEE113488A980B40E6294B16C8F3B3F406B52C241FBCA85A691F7007FD62A5D0732CF950BAD0249622CBC2DB49954434F138794AB73BF2506810CB154A544B3A87EAE57296C5AE1BF9E32240D58B95A3D0C28DC0AE87EB53A149A37CB537C92E0153B0E9270BB2D25546B4696C3402D8CDEE6A0
310
7E231B25ECC16EFD04AEFBB258BEA7E7B41019F4C9E0452330544712F154F7BB156396A5EBE5A731F4D99CD5EF4E41CB1474399CD2886330E6521554604560159666812498EAE2E7CD279EC3279ECCD15591F3E3D3C5F94F9B459E653933439B6B389525F0A1C859DFC3679F6403C50356CD75B1994EFCE94637B56D9F3DDA
310
22813D5515C140554C28413A260776F9AC4165DB9763A58ACEF4D5D2B141149A01C68E9EF578CD472E077C487D4E511EA3FDBC92F6C5BEF6584F059BE0D0910EFF01504B0304140006080000E13A5241000000000000000000000000350000006662782F44443530363333422D373242322D344543412D424243422D373436
310
3841313633313642412F76657274696365732E62696E504B0304140006080800E13A5241F270F1330600000004000000360000006662782F44443530363333422D373242322D344543412D424243422D3734363841313633313642412F747269616E676C65732E62696E636660600000504B0304140006080000E13A524100
310
0000000000000000000000370000006662782F44443530363333422D373242322D344543412D424243422D3734363841313633313642412F617474726962757465732E62696E504B0304140006080800E13A5241D5987DFC8F00000041010000360000006662782F44443530363333422D373242322D344543412D42424342
310
2D3734363841313633313642412F6469726563746F72792E786D6C858F410EC2201045AF4266AF15DDB800BA74E7C21B903225242D6328188F2FA5C4183471359997F9FF81E89FF3C41E1816475E02DF1F80A11FC8386F25A438EECEC07A250251FC3803E6F58C12560C4AD840E95E91C151A72936F496F35732D860FE635F
310
62C8F2DA16B505C545B74125BAA2FA9E05D7CC053D063734D5C7665FD55B6B8D15D5E9BFEAFD8490FFA45E504B0304140006080800E13A5241470C5510FD000000A00100003B0000006662782F44443530363333422D373242322D344543412D424243422D3734363841313633313642412F7265736F75726365732F636F72
310
652E786D6C8D504B6E833010BD0A9A6D65B0A124041947A4A527E8052C33A156828DFCA97AFC9A40A576D7CDCCE87D344F8F9FBFE67BF689CE6B6B3A6039850C8DB2A3365307315C4903D95970676DF82583CCC8193B5861107C72362E3BA4AC096842428D1D7107A5F7182053F77474E0D507CE3297312485BFE58B543739
310
61CEF244279DE03EB81420DB9EAC1384436FA353E879B1B182C7A8C75DA3C7F4535F353A10C7A11A4EAF43459EFBFE90C6E1402E8C36A47EBBBC305A0F7D539F78B19A050F7AFEC9A81CCA80238892B292304A58F34E8F6D59B5B47CA2ACA59417ABFC8F292EE33F4D519B50957BDCCDE641B014E441085EAC7DA5F52833ED
310
B55BF10D504B010214000A0000080000E13A52413DEE336E79000000790000001B00000000000000000000000000000000006175746F6465736B2D64657369676E2D7061636B6167652E786D6C504B01021400140006080800E13A5241D486FD9CA0000000F40000001300000000000000000000000000B20000005B436F6E
310
74656E745F54797065735D2E786D6C504B01021400140006080800E13A524198629FA8EB0000007C010000080000000000000000000000000083010000636F72652E786D6C504B01021400140006080800E13A524155019EA25F0000007C000000070000000000000000000000000094020000636E782E786D6C504B010214
310
00140006080800E13A524138B05FD867010000020300000C00000000000000000000000000180300006662782F636F72652E786D6C504B01021400140006080800E13A5241AFF05FF77D0000009D0000000B00000000000000000000000000A90400006662782F636E782E786D6C504B01021400140006080800E13A5241E6
310
853C432B0100001502000031000000000000000000000000004F0500006662782F44443530363333422D373242322D344543412D424243422D3734363841313633313642412F636F72652E786D6C504B01021400140006080800E13A52414456219156010000330300003000000000000000000000000000C9060000666278
310
2F44443530363333422D373242322D344543412D424243422D3734363841313633313642412F636E782E786D6C504B01021400140006080800E13A5241BBFEA4BF630700009A1B000034000000000000000000000000006D0800006662782F44443530363333422D373242322D344543412D424243422D3734363841313633
310
313642412F6F626A656374732E786D6C504B01021400140006080000E13A52410000000000000000000000003500000000000000000000000000221000006662782F44443530363333422D373242322D344543412D424243422D3734363841313633313642412F76657274696365732E62696E504B01021400140006080800
310
E13A5241F270F13306000000040000003600000000000000000000000000751000006662782F44443530363333422D373242322D344543412D424243422D3734363841313633313642412F747269616E676C65732E62696E504B01021400140006080000E13A52410000000000000000000000003700000000000000000000
310
000000CF1000006662782F44443530363333422D373242322D344543412D424243422D3734363841313633313642412F617474726962757465732E62696E504B01021400140006080800E13A5241D5987DFC8F000000410100003600000000000000000000000000241100006662782F44443530363333422D373242322D34
310
4543412D424243422D3734363841313633313642412F6469726563746F72792E786D6C504B01021400140006080800E13A5241470C5510FD000000A00100003B00000000000000000000000000071200006662782F44443530363333422D373242322D344543412D424243422D3734363841313633313642412F7265736F75
310
726365732F636F72652E786D6C504B0506000000000E000E00800400005D1300000000
  0
XRECORD
  5
17
102
{ACAD_REACTORS
330
12
102
}
330
12
100
AcDbXrecord
280
     1
270
     1
271
     1
  0
XRECORD
  5
16
102
{ACAD_REACTORS
330
12
102
}
330
12
100
AcDbXrecord
280
     1
270
     1
271
     1
  0
XRECORD
  5
18
102
{ACAD_REACTORS
330
12
102
}
330
12
100
AcDbXrecord
280
     1
270
     1
271
     1
  0
XRECORD
  5
15
102
{ACAD_REACTORS
330
12
102
}
330
12
100
AcDbXrecord
280
     1
270
     1
271
     1
  0
XRECORD
  5
483
102
{ACAD_REACTORS
330
22
102
}
330
22
100
AcDbXrecord
280
     1
102
MATERIAL
148
0.0
149
0.0
149
0.0
 93
        0
 94
      127
282
     0
 72
     0
 77
     0
171
     0
175
     0
179
     0
273
     0
  0
XRECORD
  5
24
102
{ACAD_REACTORS
330
22
102
}
330
22
100
AcDbXrecord
280
     1
270
     1
271
     1
  0
XRECORD
  5
23
102
{ACAD_REACTORS
330
22
102
}
330
22
100
AcDbXrecord
280
     1
270
     1
271
     1
  0
XRECORD
  5
27
102
{ACAD_REACTORS
330
22
102
}
330
22
100
AcDbXrecord
280
     1
270
     1
271
     1
  0
XRECORD
  5
26
102
{ACAD_REACTORS
330
22
102
}
330
22
100
AcDbXrecord
280
     1
270
     1
271
     1
  0
XRECORD
  5
28
102
{ACAD_REACTORS
330
22
102
}
330
22
100
AcDbXrecord
280
     1
270
     1
271
     1
  0
XRECORD
  5
25
102
{ACAD_REACTORS
330
22
102
}
330
22
100
AcDbXrecord
280
     1
270
     1
271
     1
  0
XRECORD
  5
36A
102
{ACAD_REACTORS
330
369
102
}
330
369
100
AcDbXrecord
280
     1
102
ACAD_ROUNDTRIP_2012_MLEADER_STYLE
298
     1
  0
CELLSTYLEMAP
  5
479
102
{ACAD_REACTORS
330
367
102
}
330
367
100
AcDbCellStyleMap
 90
        3
300
CELLSTYLE
  1
TABLEFORMAT_BEGIN
 90
        5
170
     1
 91
        0
 92
    32768
 62
   257
 93
        1
300
CONTENTFORMAT
  1
CONTENTFORMAT_BEGIN
 90
        0
 91
        0
 92
      512
 93
        0
300

 40
0.0
140
1.0
 94
        5
 62
     0
340
55
144
0.25
309
CONTENTFORMAT_END
171
     0
 94
        0
309
TABLEFORMAT_END
  1
CELLSTYLE_BEGIN
 90
        1
 91
        1
300
_TITLE
309
CELLSTYLE_END
300
CELLSTYLE
  1
TABLEFORMAT_BEGIN
 90
        5
170
     1
 91
        0
 92
        0
 62
   257
 93
        1
300
CONTENTFORMAT
  1
CONTENTFORMAT_BEGIN
 90
        0
 91
        0
 92
      512
 93
        0
300

 40
0.0
140
1.0
 94
        5
 62
     0
340
55
144
0.18
309
CONTENTFORMAT_END
171
     0
 94
        0
309
TABLEFORMAT_END
  1
CELLSTYLE_BEGIN
 90
        2
 91
        1
300
_HEADER
309
CELLSTYLE_END
300
CELLSTYLE
  1
TABLEFORMAT_BEGIN
 90
        5
170
     1
 91
        0
 92
        0
 62
   257
 93
        1
300
CONTENTFORMAT
  1
CONTENTFORMAT_BEGIN
 90
        0
 91
        0
 92
      512
 93
        0
300

 40
0.0
140
1.0
 94
        2
 62
     0
340
55
144
0.18
309
CONTENTFORMAT_END
171
     0
 94
        0
309
TABLEFORMAT_END
  1
CELLSTYLE_BEGIN
 90
        3
 91
        2
300
_DATA
309
CELLSTYLE_END
  0
XRECORD
  5
484
102
{ACAD_REACTORS
330
367
102
}
330
367
100
AcDbXrecord
280
     1
102
ACAD_ROUNDTRIP_PRE2007_TABLESTYLE
 90
      512
 91
        0
  1

 92
      512
 93
        0
  2

 94
      512
 95
        0
  3

  0
XRECORD
  5
38D
102
{ACAD_REACTORS
330
38C
102
}
330
38C
100
AcDbXrecord
280
     1
102
RTVSPropertyOp0
 70
     1
102
RTVSPropertyOp1
 70
     1
102
RTVSPropertyOp2
 70
     1
102
RTVSPropertyOp3
 70
     1
102
RTVSPropertyOp4
 70
     1
102
RTVSPropertyOp5
 70
     1
102
RTVSPropertyOp6
 70
     1
102
RTVSPropertyOp7
 70
     1
102
RTVSPropertyOp8
 70
     1
102
RTVSPropertyOp9
 70
     1
102
RTVSPropertyOp10
 70
     1
102
RTVSPropertyOp11
 70
     1
102
RTVSPropertyOp12
 70
     1
102
RTVSPropertyOp13
 70
     1
102
RTVSPropertyOp14
 70
     1
102
RTVSPropertyOp15
 70
     1
102
RTVSPropertyOp16
 70
     1
102
RTVSPropertyOp17
 70
     1
102
RTVSPropertyOp18
 70
     1
102
RTVSPropertyOp19
 70
     1
102
RTVSPropertyOp20
 70
     1
102
RTVSPropertyOp21
 70
     1
102
RTVSPropertyOp22
 70
     1
102
RTVSPropertyOp23
 70
     1
102
RTVSPropertyOp24
 70
     1
102
RTVSPropertyOp25
 70
     1
102
RTVSPropertyOp26
 70
     1
102
RTVSPropertyOp27
 70
     1
102
RTVSPropertyOp28
 70
     1
102
RTVSPropertyOp29
 70
     1
102
RTVSPropertyOp30
 70
     1
102
RTVSPropertyOp31
 70
     1
102
RTVSPropertyOp32
 70
     1
  0
XRECORD
  5
38B
102
{ACAD_REACTORS
330
38A
102
}
330
38A
100
AcDbXrecord
280
     1
102
RTVSPropertyOp0
 70
     1
102
RTVSPropertyOp1
 70
     1
102
RTVSPropertyOp2
 70
     1
102
RTVSPropertyOp3
 70
     1
102
RTVSPropertyOp4
 70
     1
102
RTVSPropertyOp5
 70
     1
102
RTVSPropertyOp6
 70
     1
102
RTVSPropertyOp7
 70
     1
102
RTVSPropertyOp8
 70
     1
102
RTVSPropertyOp9
 70
     1
102
RTVSPropertyOp10
 70
     1
102
RTVSPropertyOp11
 70
     1
102
RTVSPropertyOp12
 70
     1
102
RTVSPropertyOp13
 70
     1
102
RTVSPropertyOp14
 70
     1
102
RTVSPropertyOp15
 70
     1
102
RTVSPropertyOp16
 70
     1
102
RTVSPropertyOp17
 70
     1
102
RTVSPropertyOp18
 70
     1
102
RTVSPropertyOp19
 70
     1
102
RTVSPropertyOp20
 70
     1
102
RTVSPropertyOp21
 70
     1
102
RTVSPropertyOp22
 70
     1
102
RTVSPropertyOp23
 70
     1
102
RTVSPropertyOp24
 70
     1
102
RTVSPropertyOp25
 70
     1
102
RTVSPropertyOp26
 70
     1
102
RTVSPropertyOp27
 70
     1
102
RTVSPropertyOp28
 70
     1
102
RTVSPropertyOp29
 70
     1
102
RTVSPropertyOp30
 70
     1
102
RTVSPropertyOp31
 70
     1
102
RTVSPropertyOp32
 70
     1
  0
XRECORD
  5
399
102
{ACAD_REACTORS
330
398
102
}
330
398
100
AcDbXrecord
280
     1
102
RTVSPropertyOp0
 70
     1
102
RTVSPropertyOp1
 70
     1
102
RTVSPropertyOp2
 70
     1
102
RTVSPropertyOp3
 70
     1
102
RTVSPropertyOp4
 70
     1
102
RTVSPropertyOp5
 70
     1
102
RTVSPropertyOp6
 70
     1
102
RTVSPropertyOp7
 70
     1
102
RTVSPropertyOp8
 70
     1
102
RTVSPropertyOp9
 70
     1
102
RTVSPropertyOp10
 70
     1
102
RTVSPropertyOp11
 70
     1
102
RTVSPropertyOp12
 70
     1
102
RTVSPropertyOp13
 70
     1
102
RTVSPropertyOp14
 70
     1
102
RTVSPropertyOp15
 70
     1
102
RTVSPropertyOp16
 70
     1
102
RTVSPropertyOp17
 70
     1
102
RTVSPropertyOp18
 70
     1
102
RTVSPropertyOp19
 70
     1
102
RTVSPropertyOp20
 70
     1
102
RTVSPropertyOp21
 70
     1
102
RTVSPropertyOp22
 70
     1
102
RTVSPropertyOp23
 70
     1
102
RTVSPropertyOp24
 70
     1
102
RTVSPropertyOp25
 70
     1
102
RTVSPropertyOp26
 70
     1
102
RTVSPropertyOp27
 70
     1
102
RTVSPropertyOp28
 70
     1
102
RTVSPropertyOp29
 70
     1
102
RTVSPropertyOp30
 70
     1
102
RTVSPropertyOp31
 70
     1
102
RTVSPropertyOp32
 70
     1
  0
XRECORD
  5
3A1
102
{ACAD_REACTORS
330
3A0
102
}
330
3A0
100
AcDbXrecord
280
     1
102
RTVSPropertyOp0
 70
     1
102
RTVSPropertyOp1
 70
     1
102
RTVSPropertyOp2
 70
     1
102
RTVSPropertyOp3
 70
     1
102
RTVSPropertyOp4
 70
     1
102
RTVSPropertyOp5
 70
     1
102
RTVSPropertyOp6
 70
     1
102
RTVSPropertyOp7
 70
     1
102
RTVSPropertyOp8
 70
     1
102
RTVSPropertyOp9
 70
     1
102
RTVSPropertyOp10
 70
     1
102
RTVSPropertyOp11
 70
     1
102
RTVSPropertyOp12
 70
     1
102
RTVSPropertyOp13
 70
     1
102
RTVSPropertyOp14
 70
     1
102
RTVSPropertyOp15
 70
     1
102
RTVSPropertyOp16
 70
     1
102
RTVSPropertyOp17
 70
     1
102
RTVSPropertyOp18
 70
     1
102
RTVSPropertyOp19
 70
     1
102
RTVSPropertyOp20
 70
     1
102
RTVSPropertyOp21
 70
     1
102
RTVSPropertyOp22
 70
     1
102
RTVSPropertyOp23
 70
     1
102
RTVSPropertyOp24
 70
     1
102
RTVSPropertyOp25
 70
     1
102
RTVSPropertyOp26
 70
     1
102
RTVSPropertyOp27
 70
     1
102
RTVSPropertyOp28
 70
     1
102
RTVSPropertyOp29
 70
     1
102
RTVSPropertyOp30
 70
     1
102
RTVSPropertyOp31
 70
     1
102
RTVSPropertyOp32
 70
     1
  0
XRECORD
  5
393
102
{ACAD_REACTORS
330
392
102
}
330
392
100
AcDbXrecord
280
     1
102
RTVSPropertyOp0
 70
     1
102
RTVSPropertyOp1
 70
     1
102
RTVSPropertyOp2
 70
     1
102
RTVSPropertyOp3
 70
     1
102
RTVSPropertyOp4
 70
     1
102
RTVSPropertyOp5
 70
     1
102
RTVSPropertyOp6
 70
     1
102
RTVSPropertyOp7
 70
     1
102
RTVSPropertyOp8
 70
     1
102
RTVSPropertyOp9
 70
     1
102
RTVSPropertyOp10
 70
     1
102
RTVSPropertyOp11
 70
     1
102
RTVSPropertyOp12
 70
     1
102
RTVSPropertyOp13
 70
     1
102
RTVSPropertyOp14
 70
     1
102
RTVSPropertyOp15
 70
     1
102
RTVSPropertyOp16
 70
     1
102
RTVSPropertyOp17
 70
     1
102
RTVSPropertyOp18
 70
     1
102
RTVSPropertyOp19
 70
     1
102
RTVSPropertyOp20
 70
     1
102
RTVSPropertyOp21
 70
     1
102
RTVSPropertyOp22
 70
     1
102
RTVSPropertyOp23
 70
     1
102
RTVSPropertyOp24
 70
     1
102
RTVSPropertyOp25
 70
     1
102
RTVSPropertyOp26
 70
     1
102
RTVSPropertyOp27
 70
     1
102
RTVSPropertyOp28
 70
     1
102
RTVSPropertyOp29
 70
     1
102
RTVSPropertyOp30
 70
     1
102
RTVSPropertyOp31
 70
     1
102
RTVSPropertyOp32
 70
     1
  0
XRECORD
  5
397
102
{ACAD_REACTORS
330
396
102
}
330
396
100
AcDbXrecord
280
     1
102
RTVSPropertyOp0
 70
     1
102
RTVSPropertyOp1
 70
     1
102
RTVSPropertyOp2
 70
     1
102
RTVSPropertyOp3
 70
     1
102
RTVSPropertyOp4
 70
     1
102
RTVSPropertyOp5
 70
     1
102
RTVSPropertyOp6
 70
     1
102
RTVSPropertyOp7
 70
     1
102
RTVSPropertyOp8
 70
     1
102
RTVSPropertyOp9
 70
     1
102
RTVSPropertyOp10
 70
     1
102
RTVSPropertyOp11
 70
     1
102
RTVSPropertyOp12
 70
     1
102
RTVSPropertyOp13
 70
     1
102
RTVSPropertyOp14
 70
     1
102
RTVSPropertyOp15
 70
     1
102
RTVSPropertyOp16
 70
     1
102
RTVSPropertyOp17
 70
     1
102
RTVSPropertyOp18
 70
     1
102
RTVSPropertyOp19
 70
     1
102
RTVSPropertyOp20
 70
     1
102
RTVSPropertyOp21
 70
     1
102
RTVSPropertyOp22
 70
     1
102
RTVSPropertyOp23
 70
     1
102
RTVSPropertyOp24
 70
     1
102
RTVSPropertyOp25
 70
     1
102
RTVSPropertyOp26
 70
     1
102
RTVSPropertyOp27
 70
     1
102
RTVSPropertyOp28
 70
     1
102
RTVSPropertyOp29
 70
     1
102
RTVSPropertyOp30
 70
     1
102
RTVSPropertyOp31
 70
     1
102
RTVSPropertyOp32
 70
     1
  0
XRECORD
  5
3B1
102
{ACAD_REACTORS
330
3B0
102
}
330
3B0
100
AcDbXrecord
280
     1
102
RTVSPropertyOp0
 70
     0
102
RTVSPropertyOp1
 70
     0
102
RTVSPropertyOp2
 70
     0
102
RTVSPropertyOp3
 70
     0
102
RTVSPropertyOp4
 70
     0
102
RTVSPropertyOp5
 70
     0
102
RTVSPropertyOp6
 70
     0
102
RTVSPropertyOp7
 70
     0
102
RTVSPropertyOp8
 70
     0
102
RTVSPropertyOp9
 70
     0
102
RTVSPropertyOp10
 70
     0
102
RTVSPropertyOp11
 70
     0
102
RTVSPropertyOp12
 70
     0
102
RTVSPropertyOp13
 70
     0
102
RTVSPropertyOp14
 70
     2
102
RTVSPropertyOp15
 70
     0
102
RTVSPropertyOp16
 70
     0
102
RTVSPropertyOp17
 70
     0
102
RTVSPropertyOp18
 70
     0
102
RTVSPropertyOp19
 70
     0
102
RTVSPropertyOp20
 70
     0
102
RTVSPropertyOp21
 70
     0
102
RTVSPropertyOp22
 70
     0
102
RTVSPropertyOp23
 70
     0
102
RTVSPropertyOp24
 70
     0
102
RTVSPropertyOp25
 70
     0
102
RTVSPropertyOp26
 70
     0
102
RTVSPropertyOp27
 70
     0
102
RTVSPropertyOp28
 70
     0
102
RTVSPropertyOp29
 70
     0
102
RTVSPropertyOp30
 70
     0
102
RTVSPropertyOp31
 70
     0
102
RTVSPropertyOp32
 70
     0
  0
XRECORD
  5
39F
102
{ACAD_REACTORS
330
39E
102
}
330
39E
100
AcDbXrecord
280
     1
102
RTVSPropertyOp0
 70
     1
102
RTVSPropertyOp1
 70
     1
102
RTVSPropertyOp2
 70
     1
102
RTVSPropertyOp3
 70
     1
102
RTVSPropertyOp4
 70
     1
102
RTVSPropertyOp5
 70
     1
102
RTVSPropertyOp6
 70
     1
102
RTVSPropertyOp7
 70
     1
102
RTVSPropertyOp8
 70
     1
102
RTVSPropertyOp9
 70
     1
102
RTVSPropertyOp10
 70
     1
102
RTVSPropertyOp11
 70
     1
102
RTVSPropertyOp12
 70
     1
102
RTVSPropertyOp13
 70
     1
102
RTVSPropertyOp14
 70
     1
102
RTVSPropertyOp15
 70
     1
102
RTVSPropertyOp16
 70
     1
102
RTVSPropertyOp17
 70
     1
102
RTVSPropertyOp18
 70
     1
102
RTVSPropertyOp19
 70
     1
102
RTVSPropertyOp20
 70
     1
102
RTVSPropertyOp21
 70
     1
102
RTVSPropertyOp22
 70
     1
102
RTVSPropertyOp23
 70
     1
102
RTVSPropertyOp24
 70
     1
102
RTVSPropertyOp25
 70
     1
102
RTVSPropertyOp26
 70
     1
102
RTVSPropertyOp27
 70
     1
102
RTVSPropertyOp28
 70
     1
102
RTVSPropertyOp29
 70
     1
102
RTVSPropertyOp30
 70
     1
102
RTVSPropertyOp31
 70
     1
102
RTVSPropertyOp32
 70
     1
  0
XRECORD
  5
383
102
{ACAD_REACTORS
330
382
102
}
330
382
100
AcDbXrecord
280
     1
102
RTVSPropertyOp0
 70
     1
102
RTVSPropertyOp1
 70
     1
102
RTVSPropertyOp2
 70
     1
102
RTVSPropertyOp3
 70
     1
102
RTVSPropertyOp4
 70
     1
102
RTVSPropertyOp5
 70
     1
102
RTVSPropertyOp6
 70
     1
102
RTVSPropertyOp7
 70
     1
102
RTVSPropertyOp8
 70
     1
102
RTVSPropertyOp9
 70
     1
102
RTVSPropertyOp10
 70
     1
102
RTVSPropertyOp11
 70
     1
102
RTVSPropertyOp12
 70
     1
102
RTVSPropertyOp13
 70
     1
102
RTVSPropertyOp14
 70
     1
102
RTVSPropertyOp15
 70
     1
102
RTVSPropertyOp16
 70
     1
102
RTVSPropertyOp17
 70
     1
102
RTVSPropertyOp18
 70
     1
102
RTVSPropertyOp19
 70
     1
102
RTVSPropertyOp20
 70
     1
102
RTVSPropertyOp21
 70
     1
102
RTVSPropertyOp22
 70
     1
102
RTVSPropertyOp23
 70
     1
102
RTVSPropertyOp24
 70
     1
102
RTVSPropertyOp25
 70
     1
102
RTVSPropertyOp26
 70
     1
102
RTVSPropertyOp27
 70
     1
102
RTVSPropertyOp28
 70
     1
102
RTVSPropertyOp29
 70
     1
102
RTVSPropertyOp30
 70
     1
102
RTVSPropertyOp31
 70
     1
102
RTVSPropertyOp32
 70
     1
  0
XRECORD
  5
385
102
{ACAD_REACTORS
330
384
102
}
330
384
100
AcDbXrecord
280
     1
102
RTVSPropertyOp0
 70
     1
102
RTVSPropertyOp1
 70
     1
102
RTVSPropertyOp2
 70
     1
102
RTVSPropertyOp3
 70
     1
102
RTVSPropertyOp4
 70
     1
102
RTVSPropertyOp5
 70
     1
102
RTVSPropertyOp6
 70
     1
102
RTVSPropertyOp7
 70
     1
102
RTVSPropertyOp8
 70
     1
102
RTVSPropertyOp9
 70
     1
102
RTVSPropertyOp10
 70
     1
102
RTVSPropertyOp11
 70
     1
102
RTVSPropertyOp12
 70
     1
102
RTVSPropertyOp13
 70
     1
102
RTVSPropertyOp14
 70
     1
102
RTVSPropertyOp15
 70
     1
102
RTVSPropertyOp16
 70
     1
102
RTVSPropertyOp17
 70
     1
102
RTVSPropertyOp18
 70
     1
102
RTVSPropertyOp19
 70
     1
102
RTVSPropertyOp20
 70
     1
102
RTVSPropertyOp21
 70
     1
102
RTVSPropertyOp22
 70
     1
102
RTVSPropertyOp23
 70
     1
102
RTVSPropertyOp24
 70
     1
102
RTVSPropertyOp25
 70
     1
102
RTVSPropertyOp26
 70
     1
102
RTVSPropertyOp27
 70
     1
102
RTVSPropertyOp28
 70
     1
102
RTVSPropertyOp29
 70
     1
102
RTVSPropertyOp30
 70
     1
102
RTVSPropertyOp31
 70
     1
102
RTVSPropertyOp32
 70
     1
  0
XRECORD
  5
387
102
{ACAD_REACTORS
330
386
102
}
330
386
100
AcDbXrecord
280
     1
102
RTVSPropertyOp0
 70
     1
102
RTVSPropertyOp1
 70
     1
102
RTVSPropertyOp2
 70
     1
102
RTVSPropertyOp3
 70
     1
102
RTVSPropertyOp4
 70
     1
102
RTVSPropertyOp5
 70
     1
102
RTVSPropertyOp6
 70
     1
102
RTVSPropertyOp7
 70
     1
102
RTVSPropertyOp8
 70
     1
102
RTVSPropertyOp9
 70
     1
102
RTVSPropertyOp10
 70
     1
102
RTVSPropertyOp11
 70
     1
102
RTVSPropertyOp12
 70
     1
102
RTVSPropertyOp13
 70
     1
102
RTVSPropertyOp14
 70
     1
102
RTVSPropertyOp15
 70
     1
102
RTVSPropertyOp16
 70
     1
102
RTVSPropertyOp17
 70
     1
102
RTVSPropertyOp18
 70
     1
102
RTVSPropertyOp19
 70
     1
102
RTVSPropertyOp20
 70
     1
102
RTVSPropertyOp21
 70
     1
102
RTVSPropertyOp22
 70
     1
102
RTVSPropertyOp23
 70
     1
102
RTVSPropertyOp24
 70
     1
102
RTVSPropertyOp25
 70
     1
102
RTVSPropertyOp26
 70
     1
102
RTVSPropertyOp27
 70
     1
102
RTVSPropertyOp28
 70
     1
102
RTVSPropertyOp29
 70
     1
102
RTVSPropertyOp30
 70
     1
102
RTVSPropertyOp31
 70
     1
102
RTVSPropertyOp32
 70
     1
  0
XRECORD
  5
389
102
{ACAD_REACTORS
330
388
102
}
330
388
100
AcDbXrecord
280
     1
102
RTVSPropertyOp0
 70
     1
102
RTVSPropertyOp1
 70
     1
102
RTVSPropertyOp2
 70
     1
102
RTVSPropertyOp3
 70
     1
102
RTVSPropertyOp4
 70
     1
102
RTVSPropertyOp5
 70
     1
102
RTVSPropertyOp6
 70
     1
102
RTVSPropertyOp7
 70
     1
102
RTVSPropertyOp8
 70
     1
102
RTVSPropertyOp9
 70
     1
102
RTVSPropertyOp10
 70
     1
102
RTVSPropertyOp11
 70
     1
102
RTVSPropertyOp12
 70
     1
102
RTVSPropertyOp13
 70
     1
102
RTVSPropertyOp14
 70
     1
102
RTVSPropertyOp15
 70
     1
102
RTVSPropertyOp16
 70
     1
102
RTVSPropertyOp17
 70
     1
102
RTVSPropertyOp18
 70
     1
102
RTVSPropertyOp19
 70
     1
102
RTVSPropertyOp20
 70
     1
102
RTVSPropertyOp21
 70
     1
102
RTVSPropertyOp22
 70
     1
102
RTVSPropertyOp23
 70
     1
102
RTVSPropertyOp24
 70
     1
102
RTVSPropertyOp25
 70
     1
102
RTVSPropertyOp26
 70
     1
102
RTVSPropertyOp27
 70
     1
102
RTVSPropertyOp28
 70
     1
102
RTVSPropertyOp29
 70
     1
102
RTVSPropertyOp30
 70
     1
102
RTVSPropertyOp31
 70
     1
102
RTVSPropertyOp32
 70
     1
  0
XRECORD
  5
391
102
{ACAD_REACTORS
330
390
102
}
330
390
100
AcDbXrecord
280
     1
102
RTVSPropertyOp0
 70
     1
102
RTVSPropertyOp1
 70
     1
102
RTVSPropertyOp2
 70
     1
102
RTVSPropertyOp3
 70
     1
102
RTVSPropertyOp4
 70
     1
102
RTVSPropertyOp5
 70
     1
102
RTVSPropertyOp6
 70
     1
102
RTVSPropertyOp7
 70
     1
102
RTVSPropertyOp8
 70
     1
102
RTVSPropertyOp9
 70
     1
102
RTVSPropertyOp10
 70
     1
102
RTVSPropertyOp11
 70
     1
102
RTVSPropertyOp12
 70
     1
102
RTVSPropertyOp13
 70
     1
102
RTVSPropertyOp14
 70
     1
102
RTVSPropertyOp15
 70
     1
102
RTVSPropertyOp16
 70
     1
102
RTVSPropertyOp17
 70
     1
102
RTVSPropertyOp18
 70
     1
102
RTVSPropertyOp19
 70
     1
102
RTVSPropertyOp20
 70
     1
102
RTVSPropertyOp21
 70
     1
102
RTVSPropertyOp22
 70
     1
102
RTVSPropertyOp23
 70
     1
102
RTVSPropertyOp24
 70
     1
102
RTVSPropertyOp25
 70
     1
102
RTVSPropertyOp26
 70
     1
102
RTVSPropertyOp27
 70
     1
102
RTVSPropertyOp28
 70
     1
102
RTVSPropertyOp29
 70
     1
102
RTVSPropertyOp30
 70
     1
102
RTVSPropertyOp31
 70
     1
102
RTVSPropertyOp32
 70
     1
  0
XRECORD
  5
3AD
102
{ACAD_REACTORS
330
3AC
102
}
330
3AC
100
AcDbXrecord
280
     1
102
RTVSPropertyOp0
 70
     0
102
RTVSPropertyOp1
 70
     0
102
RTVSPropertyOp2
 70
     0
102
RTVSPropertyOp3
 70
     0
102
RTVSPropertyOp4
 70
     0
102
RTVSPropertyOp5
 70
     0
102
RTVSPropertyOp6
 70
     0
102
RTVSPropertyOp7
 70
     0
102
RTVSPropertyOp8
 70
     0
102
RTVSPropertyOp9
 70
     0
102
RTVSPropertyOp10
 70
     0
102
RTVSPropertyOp11
 70
     0
102
RTVSPropertyOp12
 70
     0
102
RTVSPropertyOp13
 70
     0
102
RTVSPropertyOp14
 70
     2
102
RTVSPropertyOp15
 70
     0
102
RTVSPropertyOp16
 70
     0
102
RTVSPropertyOp17
 70
     0
102
RTVSPropertyOp18
 70
     0
102
RTVSPropertyOp19
 70
     0
102
RTVSPropertyOp20
 70
     0
102
RTVSPropertyOp21
 70
     0
102
RTVSPropertyOp22
 70
     0
102
RTVSPropertyOp23
 70
     0
102
RTVSPropertyOp24
 70
     0
102
RTVSPropertyOp25
 70
     0
102
RTVSPropertyOp26
 70
     0
102
RTVSPropertyOp27
 70
     0
102
RTVSPropertyOp28
 70
     0
102
RTVSPropertyOp29
 70
     0
102
RTVSPropertyOp30
 70
     0
102
RTVSPropertyOp31
 70
     0
102
RTVSPropertyOp32
 70
     0
  0
XRECORD
  5
39D
102
{ACAD_REACTORS
330
39C
102
}
330
39C
100
AcDbXrecord
280
     1
102
RTVSPropertyOp0
 70
     1
102
RTVSPropertyOp1
 70
     1
102
RTVSPropertyOp2
 70
     1
102
RTVSPropertyOp3
 70
     1
102
RTVSPropertyOp4
 70
     1
102
RTVSPropertyOp5
 70
     1
102
RTVSPropertyOp6
 70
     1
102
RTVSPropertyOp7
 70
     1
102
RTVSPropertyOp8
 70
     1
102
RTVSPropertyOp9
 70
     1
102
RTVSPropertyOp10
 70
     1
102
RTVSPropertyOp11
 70
     1
102
RTVSPropertyOp12
 70
     1
102
RTVSPropertyOp13
 70
     1
102
RTVSPropertyOp14
 70
     1
102
RTVSPropertyOp15
 70
     1
102
RTVSPropertyOp16
 70
     1
102
RTVSPropertyOp17
 70
     1
102
RTVSPropertyOp18
 70
     1
102
RTVSPropertyOp19
 70
     1
102
RTVSPropertyOp20
 70
     1
102
RTVSPropertyOp21
 70
     1
102
RTVSPropertyOp22
 70
     1
102
RTVSPropertyOp23
 70
     1
102
RTVSPropertyOp24
 70
     1
102
RTVSPropertyOp25
 70
     1
102
RTVSPropertyOp26
 70
     1
102
RTVSPropertyOp27
 70
     1
102
RTVSPropertyOp28
 70
     1
102
RTVSPropertyOp29
 70
     1
102
RTVSPropertyOp30
 70
     1
102
RTVSPropertyOp31
 70
     1
102
RTVSPropertyOp32
 70
     1
  0
XRECORD
  5
3AF
102
{ACAD_REACTORS
330
3AE
102
}
330
3AE
100
AcDbXrecord
280
     1
102
RTVSPropertyOp0
 70
     0
102
RTVSPropertyOp1
 70
     0
102
RTVSPropertyOp2
 70
     0
102
RTVSPropertyOp3
 70
     0
102
RTVSPropertyOp4
 70
     0
102
RTVSPropertyOp5
 70
     0
102
RTVSPropertyOp6
 70
     0
102
RTVSPropertyOp7
 70
     0
102
RTVSPropertyOp8
 70
     0
102
RTVSPropertyOp9
 70
     0
102
RTVSPropertyOp10
 70
     0
102
RTVSPropertyOp11
 70
     0
102
RTVSPropertyOp12
 70
     0
102
RTVSPropertyOp13
 70
     0
102
RTVSPropertyOp14
 70
     2
102
RTVSPropertyOp15
 70
     0
102
RTVSPropertyOp16
 70
     0
102
RTVSPropertyOp17
 70
     0
102
RTVSPropertyOp18
 70
     0
102
RTVSPropertyOp19
 70
     0
102
RTVSPropertyOp20
 70
     0
102
RTVSPropertyOp21
 70
     0
102
RTVSPropertyOp22
 70
     0
102
RTVSPropertyOp23
 70
     0
102
RTVSPropertyOp24
 70
     0
102
RTVSPropertyOp25
 70
     0
102
RTVSPropertyOp26
 70
     0
102
RTVSPropertyOp27
 70
     0
102
RTVSPropertyOp28
 70
     0
102
RTVSPropertyOp29
 70
     0
102
RTVSPropertyOp30
 70
     0
102
RTVSPropertyOp31
 70
     0
102
RTVSPropertyOp32
 70
     0
  0
XRECORD
  5
395
102
{ACAD_REACTORS
330
394
102
}
330
394
100
AcDbXrecord
280
     1
102
RTVSPropertyOp0
 70
     1
102
RTVSPropertyOp1
 70
     1
102
RTVSPropertyOp2
 70
     1
102
RTVSPropertyOp3
 70
     1
102
RTVSPropertyOp4
 70
     1
102
RTVSPropertyOp5
 70
     1
102
RTVSPropertyOp6
 70
     1
102
RTVSPropertyOp7
 70
     1
102
RTVSPropertyOp8
 70
     1
102
RTVSPropertyOp9
 70
     1
102
RTVSPropertyOp10
 70
     1
102
RTVSPropertyOp11
 70
     1
102
RTVSPropertyOp12
 70
     1
102
RTVSPropertyOp13
 70
     1
102
RTVSPropertyOp14
 70
     1
102
RTVSPropertyOp15
 70
     1
102
RTVSPropertyOp16
 70
     1
102
RTVSPropertyOp17
 70
     1
102
RTVSPropertyOp18
 70
     1
102
RTVSPropertyOp19
 70
     1
102
RTVSPropertyOp20
 70
     1
102
RTVSPropertyOp21
 70
     1
102
RTVSPropertyOp22
 70
     1
102
RTVSPropertyOp23
 70
     1
102
RTVSPropertyOp24
 70
     1
102
RTVSPropertyOp25
 70
     1
102
RTVSPropertyOp26
 70
     1
102
RTVSPropertyOp27
 70
     1
102
RTVSPropertyOp28
 70
     1
102
RTVSPropertyOp29
 70
     1
102
RTVSPropertyOp30
 70
     1
102
RTVSPropertyOp31
 70
     1
102
RTVSPropertyOp32
 70
     1
  0
XRECORD
  5
3AB
102
{ACAD_REACTORS
330
3AA
102
}
330
3AA
100
AcDbXrecord
280
     1
102
RTVSPropertyOp0
 70
     1
102
RTVSPropertyOp1
 70
     1
102
RTVSPropertyOp2
 70
     1
102
RTVSPropertyOp3
 70
     1
102
RTVSPropertyOp4
 70
     1
102
RTVSPropertyOp5
 70
     1
102
RTVSPropertyOp6
 70
     1
102
RTVSPropertyOp7
 70
     1
102
RTVSPropertyOp8
 70
     1
102
RTVSPropertyOp9
 70
     1
102
RTVSPropertyOp10
 70
     1
102
RTVSPropertyOp11
 70
     1
102
RTVSPropertyOp12
 70
     1
102
RTVSPropertyOp13
 70
     1
102
RTVSPropertyOp14
 70
     1
102
RTVSPropertyOp15
 70
     1
102
RTVSPropertyOp16
 70
     1
102
RTVSPropertyOp17
 70
     1
102
RTVSPropertyOp18
 70
     1
102
RTVSPropertyOp19
 70
     1
102
RTVSPropertyOp20
 70
     1
102
RTVSPropertyOp21
 70
     1
102
RTVSPropertyOp22
 70
     1
102
RTVSPropertyOp23
 70
     1
102
RTVSPropertyOp24
 70
     1
102
RTVSPropertyOp25
 70
     1
102
RTVSPropertyOp26
 70
     1
102
RTVSPropertyOp27
 70
     1
102
RTVSPropertyOp28
 70
     1
102
RTVSPropertyOp29
 70
     1
102
RTVSPropertyOp30
 70
     1
102
RTVSPropertyOp31
 70
     1
102
RTVSPropertyOp32
 70
     1
  0
XRECORD
  5
3A9
102
{ACAD_REACTORS
330
3A8
102
}
330
3A8
100
AcDbXrecord
280
     1
102
RTVSPropertyOp0
 70
     1
102
RTVSPropertyOp1
 70
     1
102
RTVSPropertyOp2
 70
     1
102
RTVSPropertyOp3
 70
     1
102
RTVSPropertyOp4
 70
     1
102
RTVSPropertyOp5
 70
     1
102
RTVSPropertyOp6
 70
     1
102
RTVSPropertyOp7
 70
     1
102
RTVSPropertyOp8
 70
     1
102
RTVSPropertyOp9
 70
     1
102
RTVSPropertyOp10
 70
     1
102
RTVSPropertyOp11
 70
     1
102
RTVSPropertyOp12
 70
     1
102
RTVSPropertyOp13
 70
     1
102
RTVSPropertyOp14
 70
     1
102
RTVSPropertyOp15
 70
     1
102
RTVSPropertyOp16
 70
     1
102
RTVSPropertyOp17
 70
     1
102
RTVSPropertyOp18
 70
     1
102
RTVSPropertyOp19
 70
     1
102
RTVSPropertyOp20
 70
     1
102
RTVSPropertyOp21
 70
     1
102
RTVSPropertyOp22
 70
     1
102
RTVSPropertyOp23
 70
     1
102
RTVSPropertyOp24
 70
     1
102
RTVSPropertyOp25
 70
     1
102
RTVSPropertyOp26
 70
     1
102
RTVSPropertyOp27
 70
     1
102
RTVSPropertyOp28
 70
     1
102
RTVSPropertyOp29
 70
     1
102
RTVSPropertyOp30
 70
     1
102
RTVSPropertyOp31
 70
     1
102
RTVSPropertyOp32
 70
     1
  0
XRECORD
  5
3A3
102
{ACAD_REACTORS
330
3A2
102
}
330
3A2
100
AcDbXrecord
280
     1
102
RTVSPropertyOp0
 70
     1
102
RTVSPropertyOp1
 70
     1
102
RTVSPropertyOp2
 70
     1
102
RTVSPropertyOp3
 70
     1
102
RTVSPropertyOp4
 70
     1
102
RTVSPropertyOp5
 70
     1
102
RTVSPropertyOp6
 70
     1
102
RTVSPropertyOp7
 70
     1
102
RTVSPropertyOp8
 70
     1
102
RTVSPropertyOp9
 70
     1
102
RTVSPropertyOp10
 70
     1
102
RTVSPropertyOp11
 70
     1
102
RTVSPropertyOp12
 70
     1
102
RTVSPropertyOp13
 70
     1
102
RTVSPropertyOp14
 70
     1
102
RTVSPropertyOp15
 70
     1
102
RTVSPropertyOp16
 70
     1
102
RTVSPropertyOp17
 70
     1
102
RTVSPropertyOp18
 70
     1
102
RTVSPropertyOp19
 70
     1
102
RTVSPropertyOp20
 70
     1
102
RTVSPropertyOp21
 70
     1
102
RTVSPropertyOp22
 70
     1
102
RTVSPropertyOp23
 70
     1
102
RTVSPropertyOp24
 70
     1
102
RTVSPropertyOp25
 70
     1
102
RTVSPropertyOp26
 70
     1
102
RTVSPropertyOp27
 70
     1
102
RTVSPropertyOp28
 70
     1
102
RTVSPropertyOp29
 70
     1
102
RTVSPropertyOp30
 70
     1
102
RTVSPropertyOp31
 70
     1
102
RTVSPropertyOp32
 70
     1
  0
XRECORD
  5
3A5
102
{ACAD_REACTORS
330
3A4
102
}
330
3A4
100
AcDbXrecord
280
     1
102
RTVSPropertyOp0
 70
     1
102
RTVSPropertyOp1
 70
     1
102
RTVSPropertyOp2
 70
     1
102
RTVSPropertyOp3
 70
     1
102
RTVSPropertyOp4
 70
     1
102
RTVSPropertyOp5
 70
     1
102
RTVSPropertyOp6
 70
     1
102
RTVSPropertyOp7
 70
     1
102
RTVSPropertyOp8
 70
     1
102
RTVSPropertyOp9
 70
     1
102
RTVSPropertyOp10
 70
     1
102
RTVSPropertyOp11
 70
     1
102
RTVSPropertyOp12
 70
     1
102
RTVSPropertyOp13
 70
     1
102
RTVSPropertyOp14
 70
     1
102
RTVSPropertyOp15
 70
     1
102
RTVSPropertyOp16
 70
     1
102
RTVSPropertyOp17
 70
     1
102
RTVSPropertyOp18
 70
     1
102
RTVSPropertyOp19
 70
     1
102
RTVSPropertyOp20
 70
     1
102
RTVSPropertyOp21
 70
     1
102
RTVSPropertyOp22
 70
     1
102
RTVSPropertyOp23
 70
     1
102
RTVSPropertyOp24
 70
     1
102
RTVSPropertyOp25
 70
     1
102
RTVSPropertyOp26
 70
     1
102
RTVSPropertyOp27
 70
     1
102
RTVSPropertyOp28
 70
     1
102
RTVSPropertyOp29
 70
     1
102
RTVSPropertyOp30
 70
     1
102
RTVSPropertyOp31
 70
     1
102
RTVSPropertyOp32
 70
     1
  0
XRECORD
  5
39B
102
{ACAD_REACTORS
330
39A
102
}
330
39A
100
AcDbXrecord
280
     1
102
RTVSPropertyOp0
 70
     1
102
RTVSPropertyOp1
 70
     1
102
RTVSPropertyOp2
 70
     1
102
RTVSPropertyOp3
 70
     1
102
RTVSPropertyOp4
 70
     1
102
RTVSPropertyOp5
 70
     1
102
RTVSPropertyOp6
 70
     1
102
RTVSPropertyOp7
 70
     1
102
RTVSPropertyOp8
 70
     1
102
RTVSPropertyOp9
 70
     1
102
RTVSPropertyOp10
 70
     1
102
RTVSPropertyOp11
 70
     1
102
RTVSPropertyOp12
 70
     1
102
RTVSPropertyOp13
 70
     1
102
RTVSPropertyOp14
 70
     1
102
RTVSPropertyOp15
 70
     1
102
RTVSPropertyOp16
 70
     1
102
RTVSPropertyOp17
 70
     1
102
RTVSPropertyOp18
 70
     1
102
RTVSPropertyOp19
 70
     1
102
RTVSPropertyOp20
 70
     1
102
RTVSPropertyOp21
 70
     1
102
RTVSPropertyOp22
 70
     1
102
RTVSPropertyOp23
 70
     1
102
RTVSPropertyOp24
 70
     1
102
RTVSPropertyOp25
 70
     1
102
RTVSPropertyOp26
 70
     1
102
RTVSPropertyOp27
 70
     1
102
RTVSPropertyOp28
 70
     1
102
RTVSPropertyOp29
 70
     1
102
RTVSPropertyOp30
 70
     1
102
RTVSPropertyOp31
 70
     1
102
RTVSPropertyOp32
 70
     1
  0
XRECORD
  5
38F
102
{ACAD_REACTORS
330
38E
102
}
330
38E
100
AcDbXrecord
280
     1
102
RTVSPropertyOp0
 70
     1
102
RTVSPropertyOp1
 70
     1
102
RTVSPropertyOp2
 70
     1
102
RTVSPropertyOp3
 70
     1
102
RTVSPropertyOp4
 70
     1
102
RTVSPropertyOp5
 70
     1
102
RTVSPropertyOp6
 70
     1
102
RTVSPropertyOp7
 70
     1
102
RTVSPropertyOp8
 70
     1
102
RTVSPropertyOp9
 70
     1
102
RTVSPropertyOp10
 70
     1
102
RTVSPropertyOp11
 70
     1
102
RTVSPropertyOp12
 70
     1
102
RTVSPropertyOp13
 70
     1
102
RTVSPropertyOp14
 70
     1
102
RTVSPropertyOp15
 70
     1
102
RTVSPropertyOp16
 70
     1
102
RTVSPropertyOp17
 70
     1
102
RTVSPropertyOp18
 70
     1
102
RTVSPropertyOp19
 70
     1
102
RTVSPropertyOp20
 70
     1
102
RTVSPropertyOp21
 70
     1
102
RTVSPropertyOp22
 70
     1
102
RTVSPropertyOp23
 70
     1
102
RTVSPropertyOp24
 70
     1
102
RTVSPropertyOp25
 70
     1
102
RTVSPropertyOp26
 70
     1
102
RTVSPropertyOp27
 70
     1
102
RTVSPropertyOp28
 70
     1
102
RTVSPropertyOp29
 70
     1
102
RTVSPropertyOp30
 70
     1
102
RTVSPropertyOp31
 70
     1
102
RTVSPropertyOp32
 70
     1
  0
XRECORD
  5
3A7
102
{ACAD_REACTORS
330
3A6
102
}
330
3A6
100
AcDbXrecord
280
     1
102
RTVSPropertyOp0
 70
     1
102
RTVSPropertyOp1
 70
     1
102
RTVSPropertyOp2
 70
     1
102
RTVSPropertyOp3
 70
     1
102
RTVSPropertyOp4
 70
     1
102
RTVSPropertyOp5
 70
     1
102
RTVSPropertyOp6
 70
     1
102
RTVSPropertyOp7
 70
     1
102
RTVSPropertyOp8
 70
     1
102
RTVSPropertyOp9
 70
     1
102
RTVSPropertyOp10
 70
     1
102
RTVSPropertyOp11
 70
     1
102
RTVSPropertyOp12
 70
     1
102
RTVSPropertyOp13
 70
     1
102
RTVSPropertyOp14
 70
     1
102
RTVSPropertyOp15
 70
     1
102
RTVSPropertyOp16
 70
     1
102
RTVSPropertyOp17
 70
     1
102
RTVSPropertyOp18
 70
     1
102
RTVSPropertyOp19
 70
     1
102
RTVSPropertyOp20
 70
     1
102
RTVSPropertyOp21
 70
     1
102
RTVSPropertyOp22
 70
     1
102
RTVSPropertyOp23
 70
     1
102
RTVSPropertyOp24
 70
     1
102
RTVSPropertyOp25
 70
     1
102
RTVSPropertyOp26
 70
     1
102
RTVSPropertyOp27
 70
     1
102
RTVSPropertyOp28
 70
     1
102
RTVSPropertyOp29
 70
     1
102
RTVSPropertyOp30
 70
     1
102
RTVSPropertyOp31
 70
     1
102
RTVSPropertyOp32
 70
     1
  0
ENDSEC
  0
EOF
