  0
SECTION
  2
HEADER
  9
$ACADVER
  1
AC1014
  9
$ACADMAINTVER
 70
     9
  9
$DWGCODEPAGE
  3
ANSI_1252
  9
$INSBASE
 10
0.0
 20
0.0
 30
0.0
  9
$EXTMIN
 10
725.124744585865
 20
709.6259664472425
 30
0.0
  9
$EXTMAX
 10
1358.378991672299
 20
1007.25962777487
 30
0.0
  9
$LIMMIN
 10
0.0
 20
0.0
  9
$LIMMAX
 10
398.0
 20
282.0
  9
$ORTHOMODE
 70
     1
  9
$REGENMODE
 70
     1
  9
$FILLMODE
 70
     1
  9
$QTEXTMODE
 70
     0
  9
$MIRRTEXT
 70
     0
  9
$DRAGMODE
 70
     2
  9
$LTSCALE
 40
1.0
  9
$OSMODE
 70
   559
  9
$ATTMODE
 70
     1
  9
$TEXTSIZE
 40
3.5
  9
$TRACEWID
 40
1.0
  9
$TEXTSTYLE
  7
STANDARD
  9
$CLAYER
  8
0
  9
$CELTYPE
  6
BYLAYER
  9
$CECOLOR
 62
   256
  9
$CELTSCALE
 40
1.0
  9
$DELOBJ
 70
     1
  9
$DISPSILH
 70
     0
  9
$DIMSCALE
 40
1.0
  9
$DIMASZ
 40
7.0
  9
$DIMEXO
 40
1.0
  9
$DIMDLI
 40
10.0
  9
$DIMRND
 40
0.0
  9
$DIMDLE
 40
0.0
  9
$DIMEXE
 40
0.0
  9
$DIMTP
 40
0.1
  9
$DIMTM
 40
0.1
  9
$DIMTXT
 40
9.0
  9
$DIMCEN
 40
0.0
  9
$DIMTSZ
 40
0.0
  9
$DIMTOL
 70
     0
  9
$DIMLIM
 70
     0
  9
$DIMTIH
 70
     0
  9
$DIMTOH
 70
     0
  9
$DIMSE1
 70
     0
  9
$DIMSE2
 70
     0
  9
$DIMTAD
 70
     1
  9
$DIMZIN
 70
     8
  9
$DIMBLK
  1

  9
$DIMASO
 70
     1
  9
$DIMSHO
 70
     1
  9
$DIMPOST
  1

  9
$DIMAPOST
  1
"
  9
$DIMALT
 70
     0
  9
$DIMALTD
 70
     2
  9
$DIMALTF
 40
0.0393701
  9
$DIMLFAC
 40
1.0
  9
$DIMTOFL
 70
     1
  9
$DIMTVP
 40
0.0
  9
$DIMTIX
 70
     0
  9
$DIMSOXD
 70
     0
  9
$DIMSAH
 70
     0
  9
$DIMBLK1
  1

  9
$DIMBLK2
  1

  9
$DIMSTYLE
  2
MASSBLATT
  9
$DIMCLRD
 70
     5
  9
$DIMCLRE
 70
     5
  9
$DIMCLRT
 70
     5
  9
$DIMTFAC
 40
0.71
  9
$DIMGAP
 40
1.0
  9
$DIMJUST
 70
     0
  9
$DIMSD1
 70
     0
  9
$DIMSD2
 70
     0
  9
$DIMTOLJ
 70
     0
  9
$DIMTZIN
 70
     8
  9
$DIMALTZ
 70
     0
  9
$DIMALTTZ
 70
     0
  9
$DIMFIT
 70
     3
  9
$DIMUPT
 70
     0
  9
$DIMUNIT
 70
     2
  9
$DIMDEC
 70
     2
  9
$DIMTDEC
 70
     2
  9
$DIMALTU
 70
     2
  9
$DIMALTTD
 70
     2
  9
$DIMTXSTY
  7
STANDARD
  9
$DIMAUNIT
 70
     0
  9
$LUNITS
 70
     2
  9
$LUPREC
 70
     4
  9
$SKETCHINC
 40
1.0
  9
$FILLETRAD
 40
0.2
  9
$AUNITS
 70
     0
  9
$AUPREC
 70
     0
  9
$MENU
  1
acad
  9
$ELEVATION
 40
0.0
  9
$PELEVATION
 40
0.0
  9
$THICKNESS
 40
0.0
  9
$LIMCHECK
 70
     0
  9
$BLIPMODE
 70
     0
  9
$CHAMFERA
 40
10.0
  9
$CHAMFERB
 40
10.0
  9
$CHAMFERC
 40
0.0
  9
$CHAMFERD
 40
0.0
  9
$SKPOLY
 70
     0
  9
$TDCREATE
 40
2452422.648523437
  9
$TDUPDATE
 40
2452919.876163726
  9
$TDINDWG
 40
0.1300777546
  9
$TDUSRTIMER
 40
0.1300776389
  9
$USRTIMER
 70
     1
  9
$ANGBASE
 50
0.0
  9
$ANGDIR
 70
     0
  9
$PDMODE
 70
     0
  9
$PDSIZE
 40
0.0
  9
$PLINEWID
 40
0.0
  9
$COORDS
 70
     2
  9
$SPLFRAME
 70
     0
  9
$SPLINETYPE
 70
     6
  9
$SPLINESEGS
 70
     8
  9
$ATTDIA
 70
     1
  9
$ATTREQ
 70
     1
  9
$HANDLING
 70
-16383
  9
$HANDSEED
  5
4534
  9
$SURFTAB1
 70
     6
  9
$SURFTAB2
 70
     6
  9
$SURFTYPE
 70
     6
  9
$SURFU
 70
     6
  9
$SURFV
 70
     6
  9
$UCSNAME
  2

  9
$UCSORG
 10
0.0
 20
0.0
 30
0.0
  9
$UCSXDIR
 10
1.0
 20
0.0
 30
0.0
  9
$UCSYDIR
 10
0.0
 20
1.0
 30
0.0
  9
$PUCSNAME
  2

  9
$PUCSORG
 10
0.0
 20
0.0
 30
0.0
  9
$PUCSXDIR
 10
1.0
 20
0.0
 30
0.0
  9
$PUCSYDIR
 10
0.0
 20
1.0
 30
0.0
  9
$USERI1
 70
     0
  9
$USERI2
 70
     0
  9
$USERI3
 70
     0
  9
$USERI4
 70
     0
  9
$USERI5
 70
     0
  9
$USERR1
 40
0.0
  9
$USERR2
 40
0.0
  9
$USERR3
 40
0.0
  9
$USERR4
 40
0.0
  9
$USERR5
 40
0.0
  9
$WORLDVIEW
 70
     1
  9
$SHADEDGE
 70
     3
  9
$SHADEDIF
 70
    70
  9
$TILEMODE
 70
     1
  9
$MAXACTVP
 70
    16
  9
$PINSBASE
 10
0.0
 20
0.0
 30
0.0
  9
$PLIMCHECK
 70
     0
  9
$PEXTMIN
 10
1.000000000000000E+20
 20
1.000000000000000E+20
 30
1.000000000000000E+20
  9
$PEXTMAX
 10
-1.000000000000000E+20
 20
-1.000000000000000E+20
 30
-1.000000000000000E+20
  9
$PLIMMIN
 10
0.0
 20
0.0
  9
$PLIMMAX
 10
420.0
 20
297.0
  9
$UNITMODE
 70
     0
  9
$VISRETAIN
 70
     0
  9
$PLINEGEN
 70
     0
  9
$PSLTSCALE
 70
     1
  9
$TREEDEPTH
 70
  3020
  9
$PICKSTYLE
 70
     1
  9
$CMLSTYLE
  2
STANDARD
  9
$CMLJUST
 70
     0
  9
$CMLSCALE
 40
1.0
  9
$PROXYGRAPHICS
 70
     1
  9
$MEASUREMENT
 70
     1
  0
ENDSEC
  0
SECTION
  2
CLASSES
  0
CLASS
  1
DICTIONARYVAR
  2
AcDbDictionaryVar
  3
AutoCAD 2000
 90
        0
280
     0
281
     0
  0
CLASS
  1
HATCH
  2
AcDbHatch
  3
AutoCAD 2000
 90
        0
280
     0
281
     1
  0
CLASS
  1
OLE2FRAME
  2
AcDbOle2Frame
  3
AutoCAD 2000
 90
        0
280
     0
281
     1
  0
CLASS
  1
ACDBDICTIONARYWDFLT
  2
AcDbDictionaryWithDefault
  3
AutoCAD 2000
 90
        0
280
     0
281
     0
  0
CLASS
  1
ACDBPLACEHOLDER
  2
AcDbPlaceHolder
  3
AutoCAD 2000
 90
        0
280
     0
281
     0
  0
CLASS
  1
LAYOUT
  2
AcDbLayout
  3
AutoCAD 2000
 90
        0
280
     0
281
     0
  0
CLASS
  1
ACME_DOCUMENT
  2
AcMeDbDoc
  3
AcMeServices
 90
        0
280
     0
281
     0
  0
CLASS
  1
AMGSETTINGSOBJ
  2
AmgSettingsObj
  3
"AcadM|Product Description: AutoCAD Mechanical 2000|Company: Autodesk"
 90
        0
280
     0
281
     0
  0
CLASS
  1
AMGOBJPROPCFG
  2
AmgObjPropCfg
  3
"AmgLay|Product Description: AutoCAD Mechanical 2000|Company: Autodesk"
 90
        1
280
     0
281
     0
  0
CLASS
  1
ACMESCOPE
  2
AcMeScope
  3
AcMeServices
 90
        0
280
     0
281
     0
  0
CLASS
  1
ACMECOMMANDHISTORY
  2
AcMeCommandHistory
  3
AcMeServices
 90
        0
280
     0
281
     0
  0
CLASS
  1
ACIMSYSVARMAN
  2
AcImSysVarManager
  3
AcMeServices
 90
        0
280
     0
281
     0
  0
CLASS
  1
ACIMREALSYSVAR
  2
AcImRealSysVar
  3
AcMeServices
 90
        0
280
     0
281
     0
  0
CLASS
  1
ACIMINTSYSVAR
  2
AcImIntSysVar
  3
AcMeServices
 90
        0
280
     0
281
     0
  0
CLASS
  1
ACMEDRAWINGMAN
  2
AcMeDrawingMan
  3
AcMeServices
 90
        0
280
     0
281
     0
  0
CLASS
  1
ACMEVIEW
  2
AcMeView
  3
AcMeServices
 90
        0
280
     0
281
     0
  0
CLASS
  1
ACDBENTITYCACHE
  2
AcMeEntityCache
  3
AcMeServices
 90
        0
280
     0
281
     0
  0
CLASS
  1
GSMANAGER
  2
AcMeGSManager
  3
AcMeServices
 90
        0
280
     0
281
     0
  0
CLASS
  1
AMDTINTERNALREACTOR
  2
AmdtInternalReactor
  3
AcMeServices
 90
        0
280
     0
281
     0
  0
CLASS
  1
ACMESTATEMGR
  2
AcMeStateMgr
  3
AcMeServices
 90
        0
280
     0
281
     0
  0
CLASS
  1
ACGREFMASTER
  2
AcGrefMaster
  3
AcAttribServices
 90
        0
280
     0
281
     0
  0
CLASS
  1
ACME_DATABASE
  2
AcMeDbDatabase
  3
AcMeServices
 90
        0
280
     0
281
     0
  0
CLASS
  1
ACRFINSADJUSTERMGR
  2
AcRfInsAdjusterMgr
  3
AcMeServices
 90
        0
280
     0
281
     0
  0
CLASS
  1
ACGREFMASTER
  2
AcGrefacadMaster
  3
AcGrefServices
 90
        0
280
     0
281
     0
  0
CLASS
  1
AMIMASTER
  2
AmiMaster
  3
AmiServices
 90
        0
280
     0
281
     0
  0
CLASS
  1
ACMDATADICTIONARY
  2
AcmDataDictionary
  3
"AcmSymBB|Product Description: AutoCAD Mechanical 2000|Company: Autodesk"
 90
        0
280
     0
281
     0
  0
CLASS
  1
ACMDATAENTRYBLOCK
  2
AcmDataEntryBlock
  3
"AcmSymBB|Product Description: AutoCAD Mechanical 2000|Company: Autodesk"
 90
        0
280
     0
281
     0
  0
CLASS
  1
ACMSTANDARDISO
  2
AcmStandardISO
  3
"Amdt_StdImp|Product Description: AutoCAD Mechanical 2000|Company: Autodesk"
 90
        0
280
     0
281
     0
  0
CLASS
  1
AMDTEDGESTANDARDISO
  2
AmdtEdgeStdISO
  3
"Amdt_StdImp|Product Description: AutoCAD Mechanical 2000|Company: Autodesk"
 90
        0
280
     0
281
     0
  0
CLASS
  1
ACMSURFSTANDARDISO
  2
AcmSurfTextStdISO
  3
"Amdt_StdImp|Product Description: AutoCAD Mechanical 2000|Company: Autodesk"
 90
        0
280
     0
281
     0
  0
CLASS
  1
ACMFCFSTANDARDISO
  2
AcmFCFStdISO
  3
"Amdt_StdImp|Product Description: AutoCAD Mechanical 2000|Company: Autodesk"
 90
        0
280
     0
281
     0
  0
CLASS
  1
ACMWELDSTANDARDISO
  2
AcmWeldingStdISO
  3
"Amdt_StdImp|Product Description: AutoCAD Mechanical 2000|Company: Autodesk"
 90
        0
280
     0
281
     0
  0
CLASS
  1
ACMIDSTANDARDISO
  2
AcmIdStdISO
  3
"Amdt_StdImp|Product Description: AutoCAD Mechanical 2000|Company: Autodesk"
 90
        0
280
     0
281
     0
  0
CLASS
  1
ACMDATUMSTANDARDISO
  2
AcmDatumStdISO
  3
"Amdt_StdImp|Product Description: AutoCAD Mechanical 2000|Company: Autodesk"
 90
        0
280
     0
281
     0
  0
CLASS
  1
ACMBOMSTANDARDISO
  2
AcmBOMStdISO
  3
"Amdt_StdImp|Product Description: AutoCAD Mechanical 2000|Company: Autodesk"
 90
        0
280
     0
281
     0
  0
CLASS
  1
"AcAmgLayStd"
  2
AcAmgLayStd
  3
"AcAmgLayStd|Product Description: AutoCAD Mechanical 2000|Company: Autodesk"
 90
        0
280
     0
281
     0
  0
CLASS
  1
"AcAmgDimStd"
  2
AcAmgDimStd
  3
"AcAmgDimStd|Product Description: AutoCAD Mechanical 2000|Company: Autodesk"
 90
        0
280
     0
281
     0
  0
CLASS
  1
AcAmgTitleStd
  2
AcAmgTitleStd
  3
"TITLEAPP"
 90
        0
280
     0
281
     0
  0
CLASS
  1
ACMDETAILSTANDARDISO
  2
AmdtDetailSymStdISO
  3
"Amdt_StdImp|Product Description: AutoCAD Mechanical 2000|Company: Autodesk"
 90
        0
280
     0
281
     0
  0
CLASS
  1
ACMSECTIONSTANDARDISO
  2
AmdtSectionSymStdISO
  3
"Amdt_StdImp|Product Description: AutoCAD Mechanical 2000|Company: Autodesk"
 90
        0
280
     0
281
     0
  0
CLASS
  1
ACMCENTERLINESTANDARDISO
  2
AmdtCenterLineStdISO
  3
"Amdt_StdImp|Product Description: AutoCAD Mechanical 2000|Company: Autodesk"
 90
        0
280
     0
281
     0
  0
CLASS
  1
ACMTHREADLINESTANDARDISO
  2
AmdtThreadLineStdISO
  3
"Amdt_StdImp|Product Description: AutoCAD Mechanical 2000|Company: Autodesk"
 90
        0
280
     0
281
     0
  0
CLASS
  1
ACIMSTRSYSVAR
  2
AcImStrSysVar
  3
AcMeServices
 90
        0
280
     0
281
     0
  0
CLASS
  1
ACAMGFILTERDAT
  2
AcAmgFilterDat
  3
"AcadM|Product Description: AutoCAD Mechanical 2000|Company: Autodesk"
 90
        0
280
     0
281
     0
  0
CLASS
  1
LAYER_INDEX
  2
AcDbLayerIndex
  3
AutoCAD 2000
 90
        0
280
     0
281
     0
  0
CLASS
  1
IDBUFFER
  2
AcDbIdBuffer
  3
AutoCAD 2000
 90
        0
280
     0
281
     0
  0
CLASS
  1
ACMSTANDARDDIN
  2
AcmStandardDIN
  3
"Amdt_StdImp|Product Description: AutoCAD Mechanical 2000|Company: Autodesk"
 90
        0
280
     0
281
     0
  0
CLASS
  1
AMDTEDGESTANDARDDIN
  2
AmdtEdgeStdDIN
  3
"Amdt_StdImp|Product Description: AutoCAD Mechanical 2000|Company: Autodesk"
 90
        0
280
     0
281
     0
  0
CLASS
  1
ACMSURFSTANDARDDIN
  2
AcmSurfTextStdDIN
  3
"Amdt_StdImp|Product Description: AutoCAD Mechanical 2000|Company: Autodesk"
 90
        0
280
     0
281
     0
  0
CLASS
  1
ACMFCFSTANDARDDIN
  2
AcmFCFStdDIN
  3
"Amdt_StdImp|Product Description: AutoCAD Mechanical 2000|Company: Autodesk"
 90
        0
280
     0
281
     0
  0
CLASS
  1
ACMWELDSTANDARDDIN
  2
AcmWeldingStdDIN
  3
"Amdt_StdImp|Product Description: AutoCAD Mechanical 2000|Company: Autodesk"
 90
        0
280
     0
281
     0
  0
CLASS
  1
ACMIDSTANDARDDIN
  2
AcmIdStdDIN
  3
"Amdt_StdImp|Product Description: AutoCAD Mechanical 2000|Company: Autodesk"
 90
        0
280
     0
281
     0
  0
CLASS
  1
ACMDATUMSTANDARDDIN
  2
AcmDatumStdDIN
  3
"Amdt_StdImp|Product Description: AutoCAD Mechanical 2000|Company: Autodesk"
 90
        0
280
     0
281
     0
  0
CLASS
  1
ACMBOMSTANDARDDIN
  2
AcmBOMStdDIN
  3
"Amdt_StdImp|Product Description: AutoCAD Mechanical 2000|Company: Autodesk"
 90
        0
280
     0
281
     0
  0
CLASS
  1
ACMDETAILSTANDARDDIN
  2
AmdtDetailSymStdDIN
  3
"Amdt_StdImp|Product Description: AutoCAD Mechanical 2000|Company: Autodesk"
 90
        0
280
     0
281
     0
  0
CLASS
  1
ACMSECTIONSTANDARDDIN
  2
AmdtSectionSymStdDIN
  3
"Amdt_StdImp|Product Description: AutoCAD Mechanical 2000|Company: Autodesk"
 90
        0
280
     0
281
     0
  0
CLASS
  1
ACMCENTERLINESTANDARDDIN
  2
AmdtCenterLineStdDIN
  3
"Amdt_StdImp|Product Description: AutoCAD Mechanical 2000|Company: Autodesk"
 90
        0
280
     0
281
     0
  0
CLASS
  1
AMDTFORMULAUPDATEDISPATCHER
  2
AmdtFormulaUpdateDispatcher
  3
AcMeServices
 90
        0
280
     0
281
     0
  0
CLASS
  1
LONG_TRANSACTION
  2
AcDbLongTransaction
  3
AutoCAD 2000
 90
        0
280
     0
281
     0
  0
CLASS
  1
LWPOLYLINE
  2
AcDbPolyline
  3
AutoCAD 2000
 90
        0
280
     0
281
     1
  0
CLASS
  1
HATCH
  2
AcDbHatch
  3
AutoCAD 2000
 90
        0
280
     0
281
     1
  0
CLASS
  1
XRECORD
  2
AcDbXrecord
  3
AutoCAD 2000
 90
        0
280
     0
281
     0
  0
CLASS
  1
ACDBCIRCARCRES
  2
AcDbCircArcRes
  3
AcGrefServices
 90
        0
280
     0
281
     0
  0
CLASS
  1
AMDTNOTE
  2
AmdtNote
  3
"AcmSymBB|Product Description: AutoCAD Mechanical 2000|Company: Autodesk"
 90
     1023
280
     0
281
     1
  0
CLASS
  1
LONG_TRANSACTION
  2
AcDbLongTransaction
  3
AutoCAD 2000
 90
        0
280
     0
281
     0
  0
CLASS
  1
LWPOLYLINE
  2
AcDbPolyline
  3
AutoCAD 2000
 90
        0
280
     0
281
     1
  0
CLASS
  1
HATCH
  2
AcDbHatch
  3
AutoCAD 2000
 90
        0
280
     0
281
     1
  0
CLASS
  1
XRECORD
  2
AcDbXrecord
  3
AutoCAD 2000
 90
        0
280
     0
281
     0
  0
CLASS
  1
LONG_TRANSACTION
  2
AcDbLongTransaction
  3
AutoCAD 2000
 90
        0
280
     0
281
     0
  0
CLASS
  1
LWPOLYLINE
  2
AcDbPolyline
  3
AutoCAD 2000
 90
        0
280
     0
281
     1
  0
CLASS
  1
HATCH
  2
AcDbHatch
  3
AutoCAD 2000
 90
        0
280
     0
281
     1
  0
CLASS
  1
XRECORD
  2
AcDbXrecord
  3
AutoCAD 2000
 90
        0
280
     0
281
     0
  0
ENDSEC
  0
SECTION
  2
TABLES
  0
TABLE
  2
VPORT
  5
8
330
0
100
AcDbSymbolTable
 70
     3
  0
VPORT
  5
450F
330
8
100
AcDbSymbolTableRecord
100
AcDbViewportTableRecord
  2
*ACTIVE
 70
     0
 10
0.0
 20
0.0
 11
1.0
 21
1.0
 12
1041.760369047237
 22
858.4361598339082
 13
0.0
 23
0.0
 14
2.5
 24
2.5
 15
10.0
 25
10.0
 16
0.0
 26
0.0
 36
1.0
 17
0.0
 27
0.0
 37
0.0
 40
390.7083412152638
 41
1.631304347826086
 42
50.0
 43
0.0
 44
0.0
 50
0.0
 51
0.0
 71
     0
 72
   100
 73
     1
 74
     0
 75
     0
 76
     0
 77
     0
 78
     0
  0
ENDTAB
  0
TABLE
  2
LTYPE
  5
5
330
0
100
AcDbSymbolTable
 70
    13
  0
LTYPE
  5
12
330
5
100
AcDbSymbolTableRecord
100
AcDbLinetypeTableRecord
  2
BYBLOCK
 70
     0
  3

 72
    65
 73
     0
 40
0.0
  0
LTYPE
  5
13
330
5
100
AcDbSymbolTableRecord
100
AcDbLinetypeTableRecord
  2
BYLAYER
 70
     0
  3

 72
    65
 73
     0
 40
0.0
  0
LTYPE
  5
14
330
5
100
AcDbSymbolTableRecord
100
AcDbLinetypeTableRecord
  2
CONTINUOUS
 70
     0
  3
Solid line
 72
    65
 73
     0
 40
0.0
  0
LTYPE
  5
2405
330
5
100
AcDbSymbolTableRecord
100
AcDbLinetypeTableRecord
  2
AM_ISO08W050
 70
     0
  3
____ . ____ . ____ . ____ . ____ . ____ . ____
 72
    65
 73
     4
 40
18.0
 49
12.0
 74
     0
 49
-1.5
 74
     0
 49
3.0
 74
     0
 49
-1.5
 74
     0
  0
LTYPE
  5
405C
330
5
100
AcDbSymbolTableRecord
100
AcDbLinetypeTableRecord
  2
GEN3A
 70
     0
  3
 - - - - -
 72
    65
 73
     2
 40
3.1
 49
2.5
 74
     0
 49
-0.6
 74
     0
  0
LTYPE
  5
43AC
330
5
100
AcDbSymbolTableRecord
100
AcDbLinetypeTableRecord
  2
AM_ISO02W050
 70
     0
  3
__ __ __ __ __ __ __ __ __ __ __ __ __ __ __
 72
    65
 73
     2
 40
7.5
 49
6.0
 74
     0
 49
-1.5
 74
     0
  0
LTYPE
  5
43AD
330
5
100
AcDbSymbolTableRecord
100
AcDbLinetypeTableRecord
  2
AM_ISO09W050
 70
     0
  3
_____ . . _____ . . _____ . . ____ .. ____
 72
    65
 73
     6
 40
22.5
 49
12.0
 74
     0
 49
-1.5
 74
     0
 49
3.0
 74
     0
 49
-1.5
 74
     0
 49
3.0
 74
     0
 49
-1.5
 74
     0
  0
LTYPE
  5
43AE
330
5
100
AcDbSymbolTableRecord
100
AcDbLinetypeTableRecord
  2
AMCONSTR
 70
     0
  3
_______________________
 72
    65
 73
     2
 40
9999.0
 49
9999.0
 74
     0
 49
0.0
 74
     0
  0
LTYPE
  5
43AF
330
5
100
AcDbSymbolTableRecord
100
AcDbLinetypeTableRecord
  2
AM_ISO02W050X2
 70
     0
  3
 _ _ _ _ _ _ _ _ _ _ _ _
 72
    65
 73
     2
 40
3.75
 49
3.0
 74
     0
 49
-0.75
 74
     0
  0
LTYPE
  5
43B0
330
5
100
AcDbSymbolTableRecord
100
AcDbLinetypeTableRecord
  2
AM_ISO08W050X2
 70
     0
  3
__ . __ . __ . __ . __ . __
 72
    65
 73
     4
 40
9.0
 49
6.0
 74
     0
 49
-0.75
 74
     0
 49
1.5
 74
     0
 49
-0.75
 74
     0
  0
LTYPE
  5
43B1
330
5
100
AcDbSymbolTableRecord
100
AcDbLinetypeTableRecord
  2
AMZIGZAG
 70
     0
  3
/\/-/\/-/\/-/\/-/\/-/\/
 72
    65
 73
     2
 40
11.00009999999999
 49
0.0001
 74
     4
 75
   135
340
43B2
 46
0.04
 50
0.0
 44
0.0
 45
0.0
 49
-11.0
 74
     0
  0
LTYPE
  5
43D3
330
5
100
AcDbSymbolTableRecord
100
AcDbLinetypeTableRecord
  2
ACISOWELD
 70
     0
  3
_ _ _ _ _
 72
    65
 73
     2
 40
2.0
 49
2.0
 74
     0
 49
-1.0
 74
     0
  0
LTYPE
  5
43D6
330
5
100
AcDbSymbolTableRecord
100
AcDbLinetypeTableRecord
  2
ACISOTGB
 70
     0
  3
__ . . __ . .
 72
    65
 73
     6
 40
9.0
 49
4.0
 74
     0
 49
-1.0
 74
     0
 49
1.0
 74
     0
 49
-1.0
 74
     0
 49
1.0
 74
     0
 49
-1.0
 74
     0
  0
LTYPE
  5
43D7
330
5
100
AcDbSymbolTableRecord
100
AcDbLinetypeTableRecord
  2
ACISOTGL
 70
     0
  3
_ _ _ _ _
 72
    65
 73
     2
 40
3.0
 49
2.0
 74
     0
 49
-1.0
 74
     0
  0
LTYPE
  5
4440
330
5
100
AcDbSymbolTableRecord
100
AcDbLinetypeTableRecord
  2
CENTER
 70
     0
  3
__ . __
 72
    65
 73
     4
 40
7.0
 49
4.0
 74
     0
 49
-1.0
 74
     0
 49
1.0
 74
     0
 49
-1.0
 74
     0
  0
ENDTAB
  0
TABLE
  2
LAYER
  5
2
330
0
100
AcDbSymbolTable
 70
     9
  0
LAYER
  5
F
330
2
100
AcDbSymbolTableRecord
100
AcDbLayerTableRecord
  2
0
 70
     0
 62
     7
  6
CONTINUOUS
  0
LAYER
  5
2656
330
2
100
AcDbSymbolTableRecord
100
AcDbLayerTableRecord
  2
MSL-115-S25-R-0
 70
     0
 62
     7
  6
CONTINUOUS
  0
LAYER
  5
2658
330
2
100
AcDbSymbolTableRecord
100
AcDbLayerTableRecord
  2
MSL-115-S25-R-5
 70
     0
 62
     3
  6
CONTINUOUS
  0
LAYER
  5
2659
330
2
100
AcDbSymbolTableRecord
100
AcDbLayerTableRecord
  2
MSL-115-S25-R-7A
 70
     0
 62
     4
  6
AM_ISO08W050
  0
LAYER
  5
405D
330
2
100
AcDbSymbolTableRecord
100
AcDbLayerTableRecord
  2
MSL-115-S25-R-3A
 70
     0
 62
     6
  6
GEN3A
  0
LAYER
  5
4396
330
2
100
AcDbSymbolTableRecord
100
AcDbLayerTableRecord
  2
MSL-115-S25-R-6
 70
     0
 62
     2
  6
CONTINUOUS
  0
LAYER
  5
43A6
330
2
100
AcDbSymbolTableRecord
100
AcDbLayerTableRecord
  2
DEFPOINTS
 70
     0
 62
     7
  6
CONTINUOUS
  0
LAYER
  5
43DC
330
2
100
AcDbSymbolTableRecord
100
AcDbLayerTableRecord
  2
AM_BOR
 70
     0
 62
     7
  6
CONTINUOUS
  0
LAYER
  5
4446
330
2
100
AcDbSymbolTableRecord
100
AcDbLayerTableRecord
  2
AM_5
 70
     0
 62
     3
  6
CONTINUOUS
  0
ENDTAB
  0
TABLE
  2
STYLE
  5
3
330
0
100
AcDbSymbolTable
 70
     4
  0
STYLE
  5
10
330
3
100
AcDbSymbolTableRecord
100
AcDbTextStyleTableRecord
  2
STANDARD
 70
     0
 40
0.0
 41
1.0
 50
0.0
 71
     0
 42
3.5
  3
isocp.shx
  4

  0
STYLE
  5
43B2
330
3
100
AcDbSymbolTableRecord
100
AcDbTextStyleTableRecord
  2

 70
     1
 40
0.0
 41
1.0
 50
0.0
 71
     0
 42
2.5
  3
ltypeshp.shx
  4

  0
STYLE
  5
43CD
330
3
100
AcDbSymbolTableRecord
100
AcDbTextStyleTableRecord
  2
ACISOTS
 70
     0
 40
1.0
 41
1.0
 50
0.0
 71
     0
 42
2.5
  3
isocp.shx
  4

  0
STYLE
  5
43D1
330
3
100
AcDbSymbolTableRecord
100
AcDbTextStyleTableRecord
  2
ACISOGDT
 70
     0
 40
0.0
 41
1.0
 50
0.0
 71
     0
 42
2.5
  3
amgdt.shx
  4

  0
ENDTAB
  0
TABLE
  2
VIEW
  5
6
330
0
100
AcDbSymbolTable
 70
     0
  0
ENDTAB
  0
TABLE
  2
UCS
  5
7
330
0
100
AcDbSymbolTable
 70
     0
  0
ENDTAB
  0
TABLE
  2
APPID
  5
9
330
0
100
AcDbSymbolTable
 70
    61
  0
APPID
  5
11
330
9
100
AcDbSymbolTableRecord
100
AcDbRegAppTableRecord
  2
ACAD
 70
     0
  0
APPID
  5
9A7
330
9
100
AcDbSymbolTableRecord
100
AcDbRegAppTableRecord
  2
GENIUS_GENOENT_13
 70
     0
  0
APPID
  5
9A8
330
9
100
AcDbSymbolTableRecord
100
AcDbRegAppTableRecord
  2
GENIUS_GENOBJ_13
 70
     0
  0
APPID
  5
9A9
330
9
100
AcDbSymbolTableRecord
100
AcDbRegAppTableRecord
  2
GENIUS_GENODEF_13
 70
     0
  0
APPID
  5
9AA
330
9
100
AcDbSymbolTableRecord
100
AcDbRegAppTableRecord
  2
GENIUS_GENOLIS_13
 70
     0
  0
APPID
  5
9AB
330
9
100
AcDbSymbolTableRecord
100
AcDbRegAppTableRecord
  2
GENIUS_GENOREF_13
 70
     0
  0
APPID
  5
9AC
330
9
100
AcDbSymbolTableRecord
100
AcDbRegAppTableRecord
  2
GENIUS_GENOBJ-N-CRS_13
 70
     0
  0
APPID
  5
9AD
330
9
100
AcDbSymbolTableRecord
100
AcDbRegAppTableRecord
  2
GENIUS_GENBH_13
 70
     0
  0
APPID
  5
9AE
330
9
100
AcDbSymbolTableRecord
100
AcDbRegAppTableRecord
  2
GENIUS_GENOBJ-NBEHI-BHF_13
 70
     0
  0
APPID
  5
9AF
330
9
100
AcDbSymbolTableRecord
100
AcDbRegAppTableRecord
  2
GENIUS_GENOBJ-NBEHI-BHB_13
 70
     0
  0
APPID
  5
9B0
330
9
100
AcDbSymbolTableRecord
100
AcDbRegAppTableRecord
  2
GENIUS_GENINF13_13
 70
     0
  0
APPID
  5
9B1
330
9
100
AcDbSymbolTableRecord
100
AcDbRegAppTableRecord
  2
GENIUS_GENOBJ-N-INFOPT_13
 70
     0
  0
APPID
  5
9B2
330
9
100
AcDbSymbolTableRecord
100
AcDbRegAppTableRecord
  2
GENIUS_GENOBJ-N-RSSYM_13
 70
     0
  0
APPID
  5
9B3
330
9
100
AcDbSymbolTableRecord
100
AcDbRegAppTableRecord
  2
GENIUS_GENSYMENT_13
 70
     0
  0
APPID
  5
9B4
330
9
100
AcDbSymbolTableRecord
100
AcDbRegAppTableRecord
  2
GENIUS_GENSCSYM_13
 70
     0
  0
APPID
  5
9B5
330
9
100
AcDbSymbolTableRecord
100
AcDbRegAppTableRecord
  2
GEVPT
 70
     0
  0
APPID
  5
9B6
330
9
100
AcDbSymbolTableRecord
100
AcDbRegAppTableRecord
  2
GEVIT
 70
     0
  0
APPID
  5
9B7
330
9
100
AcDbSymbolTableRecord
100
AcDbRegAppTableRecord
  2
VCC
 70
     0
  0
APPID
  5
9B8
330
9
100
AcDbSymbolTableRecord
100
AcDbRegAppTableRecord
  2
GENBH
 70
     0
  0
APPID
  5
9B9
330
9
100
AcDbSymbolTableRecord
100
AcDbRegAppTableRecord
  2
GEVMK
 70
     0
  0
APPID
  5
9BA
330
9
100
AcDbSymbolTableRecord
100
AcDbRegAppTableRecord
  2
GENIUS_GENOBJ-F-PART_13
 70
     0
  0
APPID
  5
9BB
330
9
100
AcDbSymbolTableRecord
100
AcDbRegAppTableRecord
  2
GENIUS_GEFSTDP_13
 70
     0
  0
APPID
  5
9BC
330
9
100
AcDbSymbolTableRecord
100
AcDbRegAppTableRecord
  2
GENIUS_GEFPARTINS_13
 70
     0
  0
APPID
  5
9BD
330
9
100
AcDbSymbolTableRecord
100
AcDbRegAppTableRecord
  2
GEVID885282451
 70
     0
  0
APPID
  5
9BE
330
9
100
AcDbSymbolTableRecord
100
AcDbRegAppTableRecord
  2
GEVID885282452
 70
     0
  0
APPID
  5
9BF
330
9
100
AcDbSymbolTableRecord
100
AcDbRegAppTableRecord
  2
GEVID885282453
 70
     0
  0
APPID
  5
9C0
330
9
100
AcDbSymbolTableRecord
100
AcDbRegAppTableRecord
  2
GEVID885282454
 70
     0
  0
APPID
  5
9C1
330
9
100
AcDbSymbolTableRecord
100
AcDbRegAppTableRecord
  2
GEVID885282455
 70
     0
  0
APPID
  5
9C2
330
9
100
AcDbSymbolTableRecord
100
AcDbRegAppTableRecord
  2
GEVID885282456
 70
     0
  0
APPID
  5
9C3
330
9
100
AcDbSymbolTableRecord
100
AcDbRegAppTableRecord
  2
GEVID885282457
 70
     0
  0
APPID
  5
9C4
330
9
100
AcDbSymbolTableRecord
100
AcDbRegAppTableRecord
  2
GEVID885282458
 70
     0
  0
APPID
  5
9C5
330
9
100
AcDbSymbolTableRecord
100
AcDbRegAppTableRecord
  2
GEVID885282459
 70
     0
  0
APPID
  5
9C6
330
9
100
AcDbSymbolTableRecord
100
AcDbRegAppTableRecord
  2
GEVID885282460
 70
     0
  0
APPID
  5
9C7
330
9
100
AcDbSymbolTableRecord
100
AcDbRegAppTableRecord
  2
GEVID885282461
 70
     0
  0
APPID
  5
9C8
330
9
100
AcDbSymbolTableRecord
100
AcDbRegAppTableRecord
  2
GEVID885282462
 70
     0
  0
APPID
  5
1880
330
9
100
AcDbSymbolTableRecord
100
AcDbRegAppTableRecord
  2
GENIUS_GENOBJ-N-CEN_13
 70
     0
  0
APPID
  5
23E9
330
9
100
AcDbSymbolTableRecord
100
AcDbRegAppTableRecord
  2
GENIUS_GENCFG_13
 70
     0
  0
APPID
  5
23EA
330
9
100
AcDbSymbolTableRecord
100
AcDbRegAppTableRecord
  2
GENIUS_GEVCFG0_13
 70
     0
  0
APPID
  5
23EB
330
9
100
AcDbSymbolTableRecord
100
AcDbRegAppTableRecord
  2
GENIUS_GENCFG0_13
 70
     0
  0
APPID
  5
23EC
330
9
100
AcDbSymbolTableRecord
100
AcDbRegAppTableRecord
  2
GENIUS_GENCFG1_13
 70
     0
  0
APPID
  5
23ED
330
9
100
AcDbSymbolTableRecord
100
AcDbRegAppTableRecord
  2
GENIUS_GENCFG2_13
 70
     0
  0
APPID
  5
23EE
330
9
100
AcDbSymbolTableRecord
100
AcDbRegAppTableRecord
  2
GENIUS_GENCFG3_13
 70
     0
  0
APPID
  5
23EF
330
9
100
AcDbSymbolTableRecord
100
AcDbRegAppTableRecord
  2
GENIUS_GENCFG4_13
 70
     0
  0
APPID
  5
23F0
330
9
100
AcDbSymbolTableRecord
100
AcDbRegAppTableRecord
  2
GENIUS_GEFCFG0_13
 70
     0
  0
APPID
  5
23F1
330
9
100
AcDbSymbolTableRecord
100
AcDbRegAppTableRecord
  2
MCAD_NO_VIS
 70
     0
  0
APPID
  5
23F2
330
9
100
AcDbSymbolTableRecord
100
AcDbRegAppTableRecord
  2
ACAD_TEMP_GRAPHIC
 70
     0
  0
APPID
  5
23F3
330
9
100
AcDbSymbolTableRecord
100
AcDbRegAppTableRecord
  2
GENIUS_GENOBJ-N-TIT_13
 70
     0
  0
APPID
  5
23F4
330
9
100
AcDbSymbolTableRecord
100
AcDbRegAppTableRecord
  2
GENIUS_GENTITLE_13
 70
     0
  0
APPID
  5
23F5
330
9
100
AcDbSymbolTableRecord
100
AcDbRegAppTableRecord
  2
GENIUS_GENZVEED_13
 70
     0
  0
APPID
  5
23F6
330
9
100
AcDbSymbolTableRecord
100
AcDbRegAppTableRecord
  2
GENIUS_GENSCREG_15
 70
     0
  0
APPID
  5
23F7
330
9
100
AcDbSymbolTableRecord
100
AcDbRegAppTableRecord
  2
GENIUS_GENOBJ-N-SDF_13
 70
     0
  0
APPID
  5
23F8
330
9
100
AcDbSymbolTableRecord
100
AcDbRegAppTableRecord
  2
GENIUS_GENREC_14
 70
     0
  0
APPID
  5
23F9
330
9
100
AcDbSymbolTableRecord
100
AcDbRegAppTableRecord
  2
GENIUS_GENOBJ-N-REC_13
 70
     0
  0
APPID
  5
23FA
330
9
100
AcDbSymbolTableRecord
100
AcDbRegAppTableRecord
  2
GENIUS_GENBLLY_14
 70
     0
  0
APPID
  5
23FB
330
9
100
AcDbSymbolTableRecord
100
AcDbRegAppTableRecord
  2
GENIUS_GENDTOL_13
 70
     0
  0
APPID
  5
23FC
330
9
100
AcDbSymbolTableRecord
100
AcDbRegAppTableRecord
  2
GENIUS_GENDIMSH_14
 70
     0
  0
APPID
  5
23FD
330
9
100
AcDbSymbolTableRecord
100
AcDbRegAppTableRecord
  2
ACATTRIBSERVICES
 70
     0
  0
APPID
  5
23FE
330
9
100
AcDbSymbolTableRecord
100
AcDbRegAppTableRecord
  2
DCO15
 70
     0
  0
APPID
  5
252F
330
9
100
AcDbSymbolTableRecord
100
AcDbRegAppTableRecord
  2
GENIUS_GENTRA_14
 70
     0
  0
APPID
  5
2B64
330
9
100
AcDbSymbolTableRecord
100
AcDbRegAppTableRecord
  2
GENIUS_GENOBJ-N-FIL_13
 70
     0
  0
APPID
  5
3476
330
9
100
AcDbSymbolTableRecord
100
AcDbRegAppTableRecord
  2
CONTENTBLOCKICON
 70
     0
  0
ENDTAB
  0
TABLE
  2
DIMSTYLE
  5
A
330
0
100
AcDbSymbolTable
 70
     9
  0
DIMSTYLE
105
117
330
A
100
AcDbSymbolTableRecord
100
AcDbDimStyleTableRecord
  2
STANDARD
 70
     0
  3

  4

  5

  6

  7

 40
1.0
 41
0.18
 42
0.0625
 43
0.38
 44
0.18
 45
0.0
 46
0.0
 47
0.0
 48
0.0
140
0.18
141
0.09
142
0.0
143
25.4
144
1.0
145
0.0
146
1.0
147
0.09
 71
     0
 72
     0
 73
     1
 74
     1
 75
     0
 76
     0
 77
     0
 78
     0
170
     0
171
     2
172
     0
173
     0
174
     0
175
     0
176
     0
177
     0
178
     0
270
     2
271
     4
272
     4
273
     2
274
     2
340
10
275
     0
280
     0
281
     0
282
     0
283
     1
284
     0
285
     0
286
     0
287
     3
288
     0
  0
DIMSTYLE
105
255C
330
A
100
AcDbSymbolTableRecord
100
AcDbDimStyleTableRecord
  2
MASSBLATT
 70
     0
  3

  4
"
  5

  6

  7

 40
1.0
 41
7.0
 42
1.0
 43
10.0
 44
0.0
 45
0.0
 46
0.0
 47
0.1
 48
0.1
140
9.0
141
0.0
142
0.0
143
0.0393701
144
1.0
145
0.0
146
0.71
147
1.0
 71
     0
 72
     0
 73
     0
 74
     0
 75
     0
 76
     0
 77
     1
 78
     8
170
     0
171
     2
172
     1
173
     0
174
     0
175
     0
176
     5
177
     5
178
     5
270
     2
271
     2
272
     2
273
     2
274
     2
340
10
275
     0
280
     0
281
     0
282
     0
283
     0
284
     8
285
     0
286
     0
287
     3
288
     0
  0
DIMSTYLE
105
4432
330
A
100
AcDbSymbolTableRecord
100
AcDbDimStyleTableRecord
  2
AM_ISO
 70
     0
  3

  4
"
  5

  6

  7

 40
1.0
 41
2.5
 42
1.0
 43
10.0
 44
1.0
 45
0.0
 46
0.0
 47
0.1
 48
0.1
140
3.5
141
0.0
142
0.0
143
0.0393701
144
1.0
145
0.0
146
0.71
147
1.5
 71
     0
 72
     0
 73
     0
 74
     0
 75
     0
 76
     0
 77
     1
 78
     8
170
     0
171
     2
172
     1
173
     0
174
     0
175
     0
176
   256
177
   256
178
     2
270
     2
271
     2
272
     2
273
     2
274
     2
340
10
275
     0
280
     0
281
     0
282
     0
283
     0
284
     8
285
     0
286
     0
287
     3
288
     0
  0
DIMSTYLE
105
4433
330
A
100
AcDbSymbolTableRecord
100
AcDbDimStyleTableRecord
  2
AM_ISO$3
 70
     0
  3

  4
"
  5

  6

  7

 40
1.0
 41
2.5
 42
1.0
 43
10.0
 44
1.0
 45
0.0
 46
0.0
 47
0.1
 48
0.1
140
3.5
141
0.0
142
0.0
143
0.0393701
144
1.0
145
0.0
146
0.71
147
1.5
 71
     0
 72
     0
 73
     0
 74
     1
 75
     0
 76
     0
 77
     1
 78
     8
170
     0
171
     2
172
     0
173
     0
174
     0
175
     0
176
   256
177
   256
178
     2
270
     2
271
     2
272
     3
273
     2
274
     4
340
10
275
     0
280
     0
281
     0
282
     0
283
     0
284
     0
285
     0
286
     0
287
     0
288
     1
  0
DIMSTYLE
105
4434
330
A
100
AcDbSymbolTableRecord
100
AcDbDimStyleTableRecord
  2
AM_ISO$4
 70
     0
  3

  4
"
  5

  6

  7

 40
1.0
 41
2.5
 42
1.0
 43
10.0
 44
1.0
 45
0.0
 46
0.0
 47
0.1
 48
0.1
140
3.5
141
0.0
142
0.0
143
0.0393701
144
1.0
145
0.0
146
0.71
147
1.5
 71
     0
 72
     0
 73
     0
 74
     1
 75
     0
 76
     0
 77
     1
 78
     8
170
     0
171
     2
172
     0
173
     0
174
     0
175
     0
176
   256
177
   256
178
     2
270
     2
271
     2
272
     2
273
     2
274
     2
340
10
275
     0
280
     0
281
     0
282
     0
283
     0
284
     0
285
     0
286
     0
287
     3
288
     1
  0
DIMSTYLE
105
4435
330
A
100
AcDbSymbolTableRecord
100
AcDbDimStyleTableRecord
  2
AM_ISO$6
 70
     0
  3

  4
"
  5

  6

  7

 40
1.0
 41
2.5
 42
1.0
 43
10.0
 44
1.0
 45
0.0
 46
0.0
 47
0.1
 48
0.1
140
3.5
141
0.0
142
0.0
143
0.0393701
144
1.0
145
0.0
146
0.71
147
1.5
 71
     0
 72
     0
 73
     0
 74
     0
 75
     0
 76
     0
 77
     0
 78
     8
170
     0
171
     2
172
     1
173
     0
174
     0
175
     0
176
   256
177
   256
178
     2
270
     2
271
     2
272
     3
273
     2
274
     4
340
10
275
     0
280
     0
281
     0
282
     0
283
     0
284
     0
285
     0
286
     0
287
     3
288
     0
  0
DIMSTYLE
105
4436
330
A
100
AcDbSymbolTableRecord
100
AcDbDimStyleTableRecord
  2
AM_ISO$7
 70
     0
  3

  4
"
  5

  6

  7

 40
1.0
 41
2.5
 42
1.0
 43
10.0
 44
1.0
 45
0.0
 46
0.0
 47
0.1
 48
0.1
140
5.0
141
0.0
142
0.0
143
0.0393701
144
1.0
145
0.0
146
0.71
147
1.5
 71
     0
 72
     0
 73
     0
 74
     0
 75
     0
 76
     0
 77
     1
 78
     8
170
     0
171
     2
172
     1
173
     0
174
     0
175
     0
176
   256
177
   256
178
     2
270
     2
271
     2
272
     3
273
     2
274
     4
340
10
275
     0
280
     0
281
     0
282
     0
283
     0
284
     0
285
     0
286
     0
287
     3
288
     0
  0
DIMSTYLE
105
4437
330
A
100
AcDbSymbolTableRecord
100
AcDbDimStyleTableRecord
  2
AM_ISO$SF
 70
     0
  3

  4
"
  5

  6

  7

 40
1.0
 41
2.5
 42
1.0
 43
10.0
 44
1.0
 45
0.0
 46
0.0
 47
0.1
 48
0.1
140
3.5
141
0.0
142
0.0
143
0.0393701
144
1.0
145
0.0
146
0.71
147
1.5
 71
     0
 72
     0
 73
     0
 74
     0
 75
     1
 76
     1
 77
     1
 78
     8
170
     0
171
     2
172
     1
173
     0
174
     0
175
     0
176
   256
177
   256
178
     2
270
     2
271
     2
272
     3
273
     2
274
     4
340
10
275
     0
280
     0
281
     0
282
     0
283
     0
284
     0
285
     0
286
     0
287
     3
288
     0
  0
DIMSTYLE
105
4438
330
A
100
AcDbSymbolTableRecord
100
AcDbDimStyleTableRecord
  2
AM_ISO$SH
 70
     0
  3

  4
"
  5

  6
GENAXEH
  7

 40
1.0
 41
2.5
 42
1.0
 43
10.0
 44
1.0
 45
0.0
 46
0.0
 47
0.1
 48
0.1
140
3.5
141
0.0
142
0.0
143
0.0393701
144
2.0
145
0.0
146
0.71
147
1.5
 71
     0
 72
     0
 73
     0
 74
     0
 75
     1
 76
     1
 77
     1
 78
     8
170
     0
171
     2
172
     1
173
     1
174
     0
175
     0
176
   256
177
   256
178
     2
270
     2
271
     2
272
     3
273
     2
274
     4
340
10
275
     0
280
     0
281
     0
282
     0
283
     0
284
     0
285
     0
286
     0
287
     3
288
     0
  0
ENDTAB
  0
TABLE
  2
BLOCK_RECORD
  5
1
330
0
100
AcDbSymbolTable
 70
     5
  0
BLOCK_RECORD
  5
18
102
{ACAD_XDICTIONARY
360
2541
102
}
330
1
100
AcDbSymbolTableRecord
100
AcDbBlockTableRecord
  2
*MODEL_SPACE
  0
BLOCK_RECORD
  5
15
102
{ACAD_XDICTIONARY
360
3461
102
}
330
1
100
AcDbSymbolTableRecord
100
AcDbBlockTableRecord
  2
*PAPER_SPACE
  0
BLOCK_RECORD
  5
43D9
330
1
100
AcDbSymbolTableRecord
100
AcDbBlockTableRecord
  2
GENTPOS0
  0
BLOCK_RECORD
  5
43F5
330
1
100
AcDbSymbolTableRecord
100
AcDbBlockTableRecord
  2
GENTPOS1
  0
BLOCK_RECORD
  5
4402
330
1
100
AcDbSymbolTableRecord
100
AcDbBlockTableRecord
  2
GENTPOS2
1001
CONTENTBLOCKICON
1071
        0
1004
2800000020000000200000000100080000000000000400000000000000000000000000000000000000000000000080000080000000808000800000008000800080800000C0C0C000C0DCC000F0CAA6000020400000206000002080000020A0000020C0000020E00000400000004020000040400000406000004080000040A0
1004
000040C0000040E00000600000006020000060400000606000006080000060A0000060C0000060E00000800000008020000080400000806000008080000080A0000080C0000080E00000A0000000A0200000A0400000A0600000A0800000A0A00000A0C00000A0E00000C0000000C0200000C0400000C0600000C0800000C0
1004
A00000C0C00000C0E00000E0000000E0200000E0400000E0600000E0800000E0A00000E0C00000E0E00040000000400020004000400040006000400080004000A0004000C0004000E00040200000402020004020400040206000402080004020A0004020C0004020E000404000004040200040404000404060004040800040
1004
40A0004040C0004040E00040600000406020004060400040606000406080004060A0004060C0004060E00040800000408020004080400040806000408080004080A0004080C0004080E00040A0000040A0200040A0400040A0600040A0800040A0A00040A0C00040A0E00040C0000040C0200040C0400040C0600040C08000
1004
40C0A00040C0C00040C0E00040E0000040E0200040E0400040E0600040E0800040E0A00040E0C00040E0E00080000000800020008000400080006000800080008000A0008000C0008000E00080200000802020008020400080206000802080008020A0008020C0008020E00080400000804020008040400080406000804080
1004
008040A0008040C0008040E00080600000806020008060400080606000806080008060A0008060C0008060E00080800000808020008080400080806000808080008080A0008080C0008080E00080A0000080A0200080A0400080A0600080A0800080A0A00080A0C00080A0E00080C0000080C0200080C0400080C0600080C0
1004
800080C0A00080C0C00080C0E00080E0000080E0200080E0400080E0600080E0800080E0A00080E0C00080E0E000C0000000C0002000C0004000C0006000C0008000C000A000C000C000C000E000C0200000C0202000C0204000C0206000C0208000C020A000C020C000C020E000C0400000C0402000C0404000C0406000C0
1004
408000C040A000C040C000C040E000C0600000C0602000C0604000C0606000C0608000C060A000C060C000C060E000C0800000C0802000C0804000C0806000C0808000C080A000C080C000C080E000C0A00000C0A02000C0A04000C0A06000C0A08000C0A0A000C0A0C000C0A0E000C0C00000C0C02000C0C04000C0C06000
1004
C0C08000C0C0A000F0FBFF00A4A0A000808080000000FF0000FF000000FFFF00FF000000FF00FF00FFFF0000FFFFFF0000000000000000000000000000000000000000000000000000000000000000000000000000000000000000000000000000000000000000000000000000000000000000000000000000000000000000
1004
00000000000000000000000000000000000000000000000000000000000000000000000000000000000000000000000000000000000000000000000000000000000000000000000000000000000000000000000000000000000000000000000000000000000000000000000000000000000000000000000000000000000000
1004
00000000000000000000000000000000000000000000000000000000000000000000000000000000000000000000000000000000000000000000000000000000000000000000000000000000000000000000000000000000000000000000000000000000000000000000000000000000000000000000000000000000000000
1004
00000000000000000000000000000000000000000000000000000000000000000000000000000000000000000000000000000000000000000000000000000000000000000000000000000000000000000000000000000000000000000000000000000000000000000000000000000000000000000000000000000000000000
1004
000000000000000000000000000000000000000000FFFBF9FBF9F9F9F9F9F9F9F9F9F9F9F9F9F9F9F9F9F9F9F9F9F9F9F9F9FF0000FFFBF9FBF9FBFBFB0000000000F9FBFBFB0000000000F9FBFBFB0000FBFF0000000000000000000000000000000000000000000000000000000000000000000000000000000000000000
1004
00000000000000000000000000000000000000000000000000000000000000000000000000000000000000000000000000000000000000000000000000000000000000000000000000000000000000000000000000000000000000000000000000000000000000000000000000000000000000000000000000000000000000
1004
00000000000000000000000000000000000000000000000000000000000000000000000000000000000000000000000000000000000000000000000000000000000000000000000000000000000000000000000000000000000000000000000000000000000000000000000000000000000000000000000000000000000000
1004
00000000000000000000000000000000000000000000000000000000000000000000000000000000000000000000000000000000000000000000000000000000000000000000000000000000000000000000000000000000000000000000000000000000000000000000000000000000000000000000000000000000000000
1004
0000000000000000000000000000000000000000000000000000000000000000000000000000000000000000000000000000000000000000
  0
BLOCK_RECORD
  5
4412
330
1
100
AcDbSymbolTableRecord
100
AcDbBlockTableRecord
  2
GENTPOS
  0
BLOCK_RECORD
  5
4439
330
1
100
AcDbSymbolTableRecord
100
AcDbBlockTableRecord
  2
GENAXEH
  0
ENDTAB
  0
ENDSEC
  0
SECTION
  2
BLOCKS
  0
BLOCK
  5
44
330
18
100
AcDbEntity
  8
0
100
AcDbBlockBegin
  2
*MODEL_SPACE
 70
     0
 10
0.0
 20
0.0
 30
0.0
  3
*MODEL_SPACE
  1

  0
ENDBLK
  5
45
330
18
100
AcDbEntity
  8
0
100
AcDbBlockEnd
  0
BLOCK
  5
42
330
15
100
AcDbEntity
 67
     1
  8
0
100
AcDbBlockBegin
  2
*PAPER_SPACE
 70
     0
 10
0.0
 20
0.0
 30
0.0
  3
*PAPER_SPACE
  1

  0
ENDBLK
  5
43
330
15
100
AcDbEntity
 67
     1
  8
0
100
AcDbBlockEnd
  0
BLOCK
  5
43F3
330
43D9
100
AcDbEntity
  8
0
100
AcDbBlockBegin
  2
GENTPOS0
 70
     0
 10
0.0
 20
0.0
 30
0.0
  3
GENTPOS0
  1

  0
LINE
  5
43DA
330
43D9
100
AcDbEntity
  8
0
100
AcDbLine
 10
-182.8848688369858
 20
0.0000000000000178
 30
0.0
 11
-0.0000000000000015
 21
0.0
 31
0.0
  0
LINE
  5
43DB
330
43D9
100
AcDbEntity
  8
AM_BOR
 62
     1
100
AcDbLine
 10
-159.8848688369858
 20
4.500000000000026
 30
0.0
 11
0.0
 21
4.5
 31
0.0
1001
GENIUS_GENBLLY_14
1000
BOR2
  0
LINE
  5
43DD
330
43D9
100
AcDbEntity
  8
AM_BOR
 62
     1
100
AcDbLine
 10
-182.8848688369858
 20
9.000000000000017
 30
0.0
 11
0.0000000000000015
 21
8.999999999999971
 31
0.0
1001
GENIUS_GENBLLY_14
1000
BOR2
  0
LINE
  5
43DE
330
43D9
100
AcDbEntity
  8
0
100
AcDbLine
 10
-182.8848688369858
 20
4.500000000000018
 30
0.0
 11
-182.8848688369858
 21
9.000000000000017
 31
0.0
  0
LINE
  5
43DF
330
43D9
100
AcDbEntity
  8
0
100
AcDbLine
 10
-182.8848688369858
 20
0.0000000000000178
 30
0.0
 11
-182.8848688369858
 21
4.500000000000018
 31
0.0
  0
LINE
  5
43E0
330
43D9
100
AcDbEntity
  8
AM_BOR
 62
     1
100
AcDbLine
 10
-159.8848688369858
 20
4.500000000000028
 30
0.0
 11
-159.8848688369858
 21
0.0862588319893405
 31
0.0
1001
GENIUS_GENBLLY_14
1000
BOR2
  0
LINE
  5
43E1
330
43D9
100
AcDbEntity
  8
AM_BOR
 62
     1
100
AcDbLine
 10
-171.8848688369858
 20
4.500000000000049
 30
0.0
 11
-171.8848688369858
 21
0.0862588319893618
 31
0.0
1001
GENIUS_GENBLLY_14
1000
BOR2
  0
LINE
  5
43E2
330
43D9
100
AcDbEntity
  8
AM_BOR
 62
     1
100
AcDbLine
 10
-171.8848688369858
 20
9.000000000000078
 30
0.0
 11
-171.8848688369858
 21
4.500000000000078
 31
0.0
1001
GENIUS_GENBLLY_14
1000
BOR2
  0
LINE
  5
43E3
330
43D9
100
AcDbEntity
  8
AM_BOR
 62
     1
100
AcDbLine
 10
-159.8848688369858
 20
9.000000000000056
 30
0.0
 11
-159.8848688369858
 21
4.500000000000056
 31
0.0
1001
GENIUS_GENBLLY_14
1000
BOR2
  0
LINE
  5
43E4
330
43D9
100
AcDbEntity
  8
AM_BOR
 62
     1
100
AcDbLine
 10
-99.16415352220628
 20
4.500000000000028
 30
0.0
 11
-99.16415352220628
 21
0.0000000000000284
 31
0.0
1001
GENIUS_GENBLLY_14
1000
BOR2
  0
LINE
  5
43E5
330
43D9
100
AcDbEntity
  8
AM_BOR
 62
     1
100
AcDbLine
 10
-99.16415352220628
 20
9.000000000000028
 30
0.0
 11
-99.16415352220628
 21
4.500000000000028
 31
0.0
1001
GENIUS_GENBLLY_14
1000
BOR2
  0
TEXT
  5
43E6
330
43D9
100
AcDbEntity
  8
AM_BOR
 62
     1
100
AcDbText
 10
-40.5339414917006
 20
5.763229718930091
 30
0.0
 40
2.0
  1
(genmsg "gendwg" 39){20.2}
100
AcDbText
1001
GENIUS_GENBLLY_14
1000
BOR3
  0
TEXT
  5
43E7
330
43D9
100
AcDbEntity
  8
AM_BOR
 62
     1
100
AcDbText
 10
-40.5339414917006
 20
0.9821435911503897
 30
0.0
 40
2.0
  1
(genmsg "gendwg" 40){20.2}
100
AcDbText
1001
GENIUS_GENBLLY_14
1000
BOR3
  0
LINE
  5
43E8
330
43D9
100
AcDbEntity
  8
AM_BOR
 62
     1
100
AcDbLine
 10
-42.51312267027481
 20
4.500000000000056
 30
0.0
 11
-42.51312267027481
 21
0.0000000000000568
 31
0.0
1001
GENIUS_GENBLLY_14
1000
BOR2
  0
LINE
  5
43E9
330
43D9
100
AcDbEntity
  8
AM_BOR
 62
     1
100
AcDbLine
 10
-42.51312267027481
 20
9.000000000000028
 30
0.0
 11
-42.51312267027481
 21
4.500000000000028
 31
0.0
1001
GENIUS_GENBLLY_14
1000
BOR2
  0
LINE
  5
43EA
330
43D9
100
AcDbEntity
  8
0
100
AcDbLine
 10
0.0
 20
4.5
 30
0.0
 11
0.0000000000000015
 21
9.0
 31
0.0
  0
LINE
  5
43EB
330
43D9
100
AcDbEntity
  8
0
100
AcDbLine
 10
-0.0000000000000015
 20
0.0
 30
0.0
 11
0.0
 21
4.5
 31
0.0
  0
TEXT
  5
43EC
330
43D9
100
AcDbEntity
  8
AM_BOR
 62
     1
100
AcDbText
 10
-98.2036393615847
 20
5.608505873506747
 30
0.0
 40
2.0
  1
(genmsg "gendwg" 37){27.5}
100
AcDbText
1001
GENIUS_GENBLLY_14
1000
BOR3
  0
TEXT
  5
43ED
330
43D9
100
AcDbEntity
  8
AM_BOR
 62
     1
100
AcDbText
 10
-98.13869994507559
 20
1.100050017994508
 30
0.0
 40
2.0
  1
(genmsg "gendwg" 38){27.5}
100
AcDbText
1001
GENIUS_GENBLLY_14
1000
BOR3
  0
TEXT
  5
43EE
330
43D9
100
AcDbEntity
  8
AM_BOR
 62
     1
100
AcDbText
 10
-159.1934076074175
 20
5.534152162888322
 30
0.0
 40
2.0
  1
(genmsg "gendwg" 35){22.7}
100
AcDbText
1001
GENIUS_GENBLLY_14
1000
BOR3
  0
TEXT
  5
43EF
330
43D9
100
AcDbEntity
  8
AM_BOR
 62
     1
100
AcDbText
 10
-159.0635287743993
 20
1.186796013715994
 30
0.0
 40
2.0
  1
(genmsg "gendwg" 36){22.7}
100
AcDbText
1001
GENIUS_GENBLLY_14
1000
BOR3
  0
TEXT
  5
43F0
330
43D9
100
AcDbEntity
  8
AM_BOR
 62
     1
100
AcDbText
 10
-182.0635287743993
 20
5.864034458310133
 30
0.0
 40
2.0
  1
(genmsg "gendwg" 29){7.6}
100
AcDbText
1001
GENIUS_GENBLLY_14
1000
BOR3
  0
TEXT
  5
43F1
330
43D9
100
AcDbEntity
  8
AM_BOR
 62
     1
100
AcDbText
 10
-171.0635287743993
 20
5.650960109797129
 30
0.0
 40
2.0
  1
(genmsg "gendwg" 32){5.3}
100
AcDbText
1001
GENIUS_GENBLLY_14
1000
BOR3
  0
TEXT
  5
43F2
330
43D9
100
AcDbEntity
  8
AM_BOR
 62
     1
100
AcDbText
 10
-8.700000000000002
 20
5.763229718930091
 30
0.0
 40
2.0
  1
Länge
 72
     2
 11
-2.0
 21
5.763229718930091
 31
0.0
100
AcDbText
1001
GENIUS_GENBLLY_14
1000
BOR3
  0
ENDBLK
  5
43F4
330
43D9
100
AcDbEntity
  8
0
100
AcDbBlockEnd
  0
BLOCK
  5
4400
330
43F5
100
AcDbEntity
  8
0
100
AcDbBlockBegin
  2
GENTPOS1
 70
     2
 10
0.0
 20
0.0
 30
0.0
  3
GENTPOS1
  1

  0
LINE
  5
43F6
330
43F5
100
AcDbEntity
  8
0
100
AcDbLine
 10
-182.8848688369859
 20
0.0000000000000853
 30
0.0
 11
-182.8848688369859
 21
4.500000000000085
 31
0.0
  0
ATTDEF
  5
43F7
330
43F5
100
AcDbEntity
  8
AM_BOR
 62
     2
100
AcDbText
 10
-158.9507488793445
 20
1.462817121073982
 30
0.0
 40
2.0
  1

100
AcDbAttributeDefinition
  3
(GENMSG "GENDWG" 35)
  2
6GENST{22.7}
 70
     0
1001
GENIUS_GENBLLY_14
1000
BOR3
  0
LINE
  5
43F8
330
43F5
100
AcDbEntity
  8
AM_BOR
 62
     1
100
AcDbLine
 10
-171.8848688369858
 20
4.500000000000028
 30
0.0
 11
-171.8848688369858
 21
0.0000000000000284
 31
0.0
1001
GENIUS_GENBLLY_14
1000
BOR2
  0
LINE
  5
43F9
330
43F5
100
AcDbEntity
  8
AM_BOR
 62
     1
100
AcDbLine
 10
-159.8848688369858
 20
4.5
 30
0.0
 11
-159.8848688369858
 21
0.0
 31
0.0
1001
GENIUS_GENBLLY_14
1000
BOR2
  0
ATTDEF
  5
43FA
330
43F5
100
AcDbEntity
  8
AM_BOR
 62
     2
100
AcDbText
 10
-98.30654456084836
 20
1.462846717870263
 30
0.0
 40
2.0
  1

100
AcDbAttributeDefinition
  3
(GENMSG "GENDWG" 37)
  2
8GENST{27.5}
 70
     0
1001
GENIUS_GENBLLY_14
1000
BOR3
  0
LINE
  5
43FB
330
43F5
100
AcDbEntity
  8
AM_BOR
 62
     1
100
AcDbLine
 10
-99.16415352220633
 20
4.499999999999985
 30
0.0
 11
-99.16415352220633
 21
0.0
 31
0.0
1001
GENIUS_GENBLLY_14
1000
BOR2
  0
ATTDEF
  5
43FC
330
43F5
100
AcDbEntity
  8
AM_BOR
 62
     2
100
AcDbText
 10
-41.18880055791851
 20
1.453563055486227
 30
0.0
 40
2.0
  1

100
AcDbAttributeDefinition
  3
(GENMSG "GENDWG" 39)
  2
10GENST{20.2}
 70
     0
1001
GENIUS_GENBLLY_14
1000
BOR3
  0
LINE
  5
43FD
330
43F5
100
AcDbEntity
  8
AM_BOR
 62
     1
100
AcDbLine
 10
-42.51312267027481
 20
4.499999999999971
 30
0.0
 11
-42.51312267027481
 21
0.0
 31
0.0
1001
GENIUS_GENBLLY_14
1000
BOR2
  0
LINE
  5
43FE
330
43F5
100
AcDbEntity
  8
0
100
AcDbLine
 10
0.0
 20
4.499999999999957
 30
0.0
 11
0.0
 21
0.0
 31
0.0
  0
LINE
  5
43FF
330
43F5
100
AcDbEntity
  8
AM_BOR
 62
     1
100
AcDbLine
 10
-159.8848688369858
 20
4.5
 30
0.0
 11
0.0
 21
4.50000000000017
 31
0.0
1001
GENIUS_GENBLLY_14
1000
BOR2
  0
ENDBLK
  5
4401
330
43F5
100
AcDbEntity
  8
0
100
AcDbBlockEnd
  0
BLOCK
  5
4410
330
4402
100
AcDbEntity
  8
0
100
AcDbBlockBegin
  2
GENTPOS2
 70
     2
 10
0.0
 20
0.0
 30
0.0
  3
GENTPOS2
  1

  0
ATTDEF
  5
4403
330
4402
100
AcDbEntity
  8
AM_BOR
 62
     2
100
AcDbText
 10
-181.9880496049755
 20
-25.67901407093678
 30
0.0
 40
2.0
  1

100
AcDbAttributeDefinition
  3

  2
ITEM
 70
     0
1001
GENIUS_GENBLLY_14
1000
BOR3
  0
ATTDEF
  5
4404
330
4402
100
AcDbEntity
  8
AM_BOR
 62
     2
100
AcDbText
 10
-170.9880496049755
 20
-25.67901407093676
 30
0.0
 40
2.0
  1

100
AcDbAttributeDefinition
  3

  2
QTY
 70
     0
1001
GENIUS_GENBLLY_14
1000
BOR3
  0
ATTDEF
  5
4405
330
4402
100
AcDbEntity
  8
AM_BOR
 62
     2
100
AcDbText
 10
-158.9880496049755
 20
-25.67901407093678
 30
0.0
 40
2.0
  1

100
AcDbAttributeDefinition
  3
(GENMSG "GENDWG" 36)
  2
5GENST{22.7}
 70
     0
1001
GENIUS_GENBLLY_14
1000
BOR3
  0
ATTDEF
  5
4406
330
4402
100
AcDbEntity
  8
AM_BOR
 62
     2
100
AcDbText
 10
-98.12709024845236
 20
-25.6789844741405
 30
0.0
 40
2.0
  1

100
AcDbAttributeDefinition
  3
(GENMSG "GENDWG" 38)
  2
7GENST{27.5}
 70
     0
1001
GENIUS_GENBLLY_14
1000
BOR3
  0
ATTDEF
  5
4407
330
4402
100
AcDbEntity
  8
AM_BOR
 62
     2
100
AcDbText
 10
-41.3554367051451
 20
-25.48402756407573
 30
0.0
 40
2.0
  1

100
AcDbAttributeDefinition
  3
(GENMSG "GENDWG" 40)
  2
9GENST{20.2}
 70
     0
1001
GENIUS_GENBLLY_14
1000
BOR3
  0
ATTDEF
  5
4408
330
4402
100
AcDbEntity
  8
AM_BOR
 62
     2
100
AcDbText
 10
-2.000000000000113
 20
-25.54643694451361
 30
0.0
 40
2.0
  1

 72
     2
 11
-2.000000000000113
 21
-25.54643694451361
 31
0.0
100
AcDbAttributeDefinition
  3

  2
DIM
 70
     0
1001
GENIUS_GENBLLY_14
1000
BOR3
  0
LINE
  5
4409
330
4402
100
AcDbEntity
  8
AM_BOR
 62
     1
100
AcDbLine
 10
-182.8848688369859
 20
-22.49999999999984
 30
0.0
 11
-0.0000000000001137
 21
-22.49999999999984
 31
0.0
1001
GENIUS_GENBLLY_14
1000
BOR2
  0
LINE
  5
440A
330
4402
100
AcDbEntity
  8
0
100
AcDbLine
 10
-182.8848688369859
 20
-26.99999999999984
 30
0.0
 11
-182.8848688369859
 21
-22.49999999999984
 31
0.0
  0
LINE
  5
440B
330
4402
100
AcDbEntity
  8
AM_BOR
 62
     1
100
AcDbLine
 10
-171.8848688369859
 20
-22.4999999999998
 30
0.0
 11
-171.8848688369859
 21
-26.9999999999998
 31
0.0
1001
GENIUS_GENBLLY_14
1000
BOR2
  0
LINE
  5
440C
330
4402
100
AcDbEntity
  8
AM_BOR
 62
     1
100
AcDbLine
 10
-159.8848688369859
 20
-22.49999999999984
 30
0.0
 11
-159.8848688369859
 21
-26.99999999999984
 31
0.0
1001
GENIUS_GENBLLY_14
1000
BOR2
  0
LINE
  5
440D
330
4402
100
AcDbEntity
  8
AM_BOR
 62
     1
100
AcDbLine
 10
-99.16415352220639
 20
-22.49999999999985
 30
0.0
 11
-99.16415352220639
 21
-26.99999999999984
 31
0.0
1001
GENIUS_GENBLLY_14
1000
BOR2
  0
LINE
  5
440E
330
4402
100
AcDbEntity
  8
AM_BOR
 62
     1
100
AcDbLine
 10
-42.51312267027486
 20
-22.49999999999987
 30
0.0
 11
-42.51312267027486
 21
-26.99999999999984
 31
0.0
1001
GENIUS_GENBLLY_14
1000
BOR2
  0
LINE
  5
440F
330
4402
100
AcDbEntity
  8
0
100
AcDbLine
 10
-0.0000000000000568
 20
-22.49999999999988
 30
0.0
 11
-0.0000000000000568
 21
-26.99999999999984
 31
0.0
  0
ENDBLK
  5
4411
330
4402
100
AcDbEntity
  8
0
100
AcDbBlockEnd
  0
BLOCK
  5
4425
330
4412
100
AcDbEntity
  8
0
100
AcDbBlockBegin
  2
GENTPOS
 70
     2
 10
0.0
 20
0.0
 30
0.0
  3
GENTPOS
  1

  0
ATTDEF
  5
4413
330
4412
100
AcDbEntity
  8
0
100
AcDbText
 10
0.0
 20
9.0
 30
0.0
 40
2.5
  1
4
100
AcDbAttributeDefinition
  3

  2
_ALWAYS
 70
     3
  0
INSERT
  5
4414
330
4412
100
AcDbEntity
  8
0
100
AcDbBlockReference
  2
GENTPOS0
 10
0.0
 20
0.0
 30
0.0
  0
INSERT
  5
4415
330
4412
100
AcDbEntity
  8
0
100
AcDbBlockReference
 66
     1
  2
GENTPOS1
 10
0.0000000000000015
 20
9.0
 30
0.0
  0
ATTRIB
  5
4416
330
4415
100
AcDbEntity
  8
AM_BOR
 62
     2
100
AcDbText
 10
-42.51312267027481
 20
9.0
 30
0.0
 40
2.0
  1

100
AcDbAttribute
  2
3GENST{6.3}
 70
     0
1001
GENIUS_GENBLLY_14
1000
BOR3
  0
ATTRIB
  5
4417
330
4415
100
AcDbEntity
  8
AM_BOR
 62
     2
100
AcDbText
 10
-99.16415352220633
 20
9.000000000000028
 30
0.0
 40
2.0
  1

100
AcDbAttribute
  2
1GENST{7.6}
 70
     0
1001
GENIUS_GENBLLY_14
1000
BOR3
  0
ATTRIB
  5
4418
330
4415
100
AcDbEntity
  8
AM_BOR
 62
     2
100
AcDbText
 10
-145.5207488793445
 20
10.46281712107398
 30
0.0
 40
2.0
  1

100
AcDbAttribute
  2
5GENST{22.7}
 70
     0
1001
GENIUS_GENBLLY_14
1000
BOR3
  0
ATTRIB
  5
4419
330
4415
100
AcDbEntity
  8
AM_BOR
 62
     2
100
AcDbText
 10
-146.4548688369858
 20
9.0
 30
0.0
 40
2.0
  1

100
AcDbAttribute
  2
2GENST{5.3}
 70
     0
1001
GENIUS_GENBLLY_14
1000
BOR3
  0
ATTRIB
  5
441A
330
4415
100
AcDbEntity
  8
AM_BOR
 62
     2
100
AcDbText
 10
-98.30654456084836
 20
10.46284671787026
 30
0.0
 40
2.0
  1

100
AcDbAttribute
  2
7GENST{27.5}
 70
     0
1001
GENIUS_GENBLLY_14
1000
BOR3
  0
ATTRIB
  5
441B
330
4415
100
AcDbEntity
  8
AM_BOR
 62
     2
100
AcDbText
 10
-41.18880055791851
 20
10.45356305548622
 30
0.0
 40
2.0
  1

100
AcDbAttribute
  2
9GENST{20.2}
 70
     0
1001
GENIUS_GENBLLY_14
1000
BOR3
  0
SEQEND
  5
441C
330
4415
100
AcDbEntity
  8
0
  0
INSERT
  5
441D
330
4412
100
AcDbEntity
  8
0
100
AcDbBlockReference
 66
     1
  2
GENTPOS2
 10
0.0000000000000583
 20
40.50000000000001
 30
0.0
  0
ATTRIB
  5
441E
330
441D
100
AcDbEntity
  8
AM_BOR
 62
     2
100
AcDbText
 10
-181.9880496049754
 20
14.82098592906322
 30
0.0
 40
2.0
  1

100
AcDbAttribute
  2
ITEM
 70
     0
  0
ATTRIB
  5
441F
330
441D
100
AcDbEntity
  8
AM_BOR
 62
     2
100
AcDbText
 10
-170.9880496049754
 20
14.82098592906326
 30
0.0
 40
2.0
  1

100
AcDbAttribute
  2
QTY
 70
     0
  0
ATTRIB
  5
4420
330
441D
100
AcDbEntity
  8
AM_BOR
 62
     2
100
AcDbText
 10
-158.9880496049754
 20
14.82098592906322
 30
0.0
 40
2.0
  1

100
AcDbAttribute
  2
5GENST{22.7}
 70
     0
  0
ATTRIB
  5
4421
330
441D
100
AcDbEntity
  8
AM_BOR
 62
     2
100
AcDbText
 10
-98.12709024845231
 20
14.8210155258595
 30
0.0
 40
2.0
  1

100
AcDbAttribute
  2
7GENST{27.5}
 70
     0
  0
ATTRIB
  5
4422
330
441D
100
AcDbEntity
  8
AM_BOR
 62
     2
100
AcDbText
 10
-41.35543670514505
 20
15.01597243592428
 30
0.0
 40
2.0
  1

100
AcDbAttribute
  2
9GENST{20.2}
 70
     0
  0
ATTRIB
  5
4423
330
441D
100
AcDbEntity
  8
AM_BOR
 62
     2
100
AcDbText
 10
-2.000000000000055
 20
14.95356305548639
 30
0.0
 40
2.0
  1

 72
     2
 11
-2.000000000000055
 21
14.95356305548639
 31
0.0
100
AcDbAttribute
  2
DIM
 70
     0
  0
SEQEND
  5
4424
330
441D
100
AcDbEntity
  8
0
  0
ENDBLK
  5
4426
330
4412
100
AcDbEntity
  8
0
100
AcDbBlockEnd
  0
BLOCK
  5
443B
330
4439
100
AcDbEntity
  8
0
100
AcDbBlockBegin
  2
GENAXEH
 70
     0
 10
0.0
 20
0.0
 30
0.0
  3
GENAXEH
  1

  0
LINE
  5
443A
330
4439
100
AcDbEntity
  8
0
100
AcDbLine
 10
-1.0
 20
0.0
 30
0.0
 11
1.0
 21
0.0
 31
0.0
  0
ENDBLK
  5
443C
330
4439
100
AcDbEntity
  8
0
100
AcDbBlockEnd
  0
ENDSEC
  0
SECTION
  2
ENTITIES
  0
LINE
  5
289F
330
18
100
AcDbEntity
  8
MSL-115-S25-R-0
100
AcDbLine
 10
997.6247445858648
 20
956.7596277748702
 30
0.0
 11
1042.624744585864
 21
956.7596277748702
 31
0.0
  0
LINE
  5
28A2
330
18
100
AcDbEntity
  8
MSL-115-S25-R-7A
 48
2.0
100
AcDbLine
 10
898.9309562457842
 20
778.6177798929756
 30
0.0
 11
1358.378991672299
 21
778.6177798929753
 31
0.0
  0
LINE
  5
28A7
330
18
100
AcDbEntity
  8
MSL-115-S25-R-0
 48
2.0
100
AcDbLine
 10
1156.124744585865
 20
888.2596277748701
 30
0.0
 11
809.1247445858648
 21
888.2596277748701
 31
0.0
  0
LINE
  5
28A8
330
18
100
AcDbEntity
  8
MSL-115-S25-R-0
 48
2.0
100
AcDbLine
 10
1156.124744585864
 20
950.2596277748702
 30
0.0
 11
809.1247445858648
 21
950.2596277748702
 31
0.0
  0
LINE
  5
28A9
330
18
100
AcDbEntity
  8
MSL-115-S25-R-0
 48
2.0
100
AcDbLine
 10
809.1247445858648
 20
954.7596277748702
 30
0.0
 11
1156.124744585864
 21
954.7596277748702
 31
0.0
  0
LINE
  5
28AA
330
18
100
AcDbEntity
  8
MSL-115-S25-R-0
 48
2.0
100
AcDbLine
 10
809.1247445858648
 20
904.7551627748701
 30
0.0
 11
1156.124744585865
 21
904.7551627748701
 31
0.0
  0
LINE
  5
28AB
330
18
100
AcDbEntity
  8
MSL-115-S25-R-0
 48
2.0
100
AcDbLine
 10
822.6247445858648
 20
1003.25962777487
 30
0.0
 11
1042.624744585864
 21
1003.25962777487
 31
0.0
  0
LINE
  5
28AC
330
18
100
AcDbEntity
  8
MSL-115-S25-R-0
 48
2.0
100
AcDbLine
 10
1042.624744585864
 20
990.7596277748702
 30
0.0
 11
822.6247445858648
 21
990.7596277748702
 31
0.0
  0
LINE
  5
28AD
330
18
100
AcDbEntity
  8
MSL-115-S25-R-0
 48
2.0
100
AcDbLine
 10
1042.624744585864
 20
1002.75962777487
 30
0.0
 11
822.6247445858648
 21
1002.75962777487
 31
0.0
  0
LINE
  5
28AE
330
18
100
AcDbEntity
  8
MSL-115-S25-R-0
 48
2.0
100
AcDbLine
 10
994.2401407536577
 20
711.6177798929753
 30
0.0
 11
1214.240140753657
 21
711.6177798929753
 31
0.0
  0
LINE
  5
28B0
330
18
100
AcDbEntity
  8
MSL-115-S25-R-0
 48
2.0
100
AcDbLine
 10
994.2401407536577
 20
846.1177798929753
 30
0.0
 11
1214.240140753657
 21
846.1177798929753
 31
0.0
  0
LINE
  5
28B1
330
18
100
AcDbEntity
  8
MSL-115-S25-R-0
 48
2.0
100
AcDbLine
 10
1214.240140753657
 20
791.1177798929753
 30
0.0
 11
994.2401407536577
 21
791.1177798929753
 31
0.0
  0
LINE
  5
28B2
330
18
100
AcDbEntity
  8
MSL-115-S25-R-0
 48
2.0
100
AcDbLine
 10
1214.240140753657
 20
845.6177798929754
 30
0.0
 11
994.2401407536577
 21
845.6177798929754
 31
0.0
  0
LINE
  5
28B3
330
18
100
AcDbEntity
  8
MSL-115-S25-R-0
 48
2.0
100
AcDbLine
 10
1214.240140753657
 20
711.1177798929753
 30
0.0
 11
994.2401407536577
 21
711.1177798929753
 31
0.0
  0
LINE
  5
28B4
330
18
100
AcDbEntity
  8
MSL-115-S25-R-0
100
AcDbLine
 10
848.2079011403634
 20
751.1759664472424
 30
0.0
 11
849.6512768133374
 21
748.6759664472424
 31
0.0
  0
LINE
  5
28B5
330
18
100
AcDbEntity
  8
MSL-115-S25-R-0
100
AcDbLine
 10
843.8777741214412
 20
748.6759664472424
 30
0.0
 11
845.3211497944153
 21
751.1759664472424
 31
0.0
  0
CIRCLE
  5
28B6
330
18
100
AcDbEntity
  8
MSL-115-S25-R-0
100
AcDbCircle
 10
846.7645254673895
 20
748.6759664472423
 30
0.0
 40
5.0
  0
LINE
  5
28B7
330
18
100
AcDbEntity
  8
MSL-115-S25-R-0
100
AcDbLine
 10
742.7645254673893
 20
718.1009664472421
 30
0.0
 11
742.7645254673893
 21
837.1009664472421
 31
0.0
  0
CIRCLE
  5
28B8
330
18
100
AcDbEntity
  8
MSL-115-S25-R-0
100
AcDbCircle
 10
846.7645254673895
 20
748.6759664472423
 30
0.0
 40
5.5
  0
LINE
  5
28B9
330
18
100
AcDbEntity
  8
MSL-115-S25-R-0
100
AcDbLine
 10
856.7645254673893
 20
840.1009664472422
 30
0.0
 11
856.7645254673896
 21
715.1009664472422
 31
0.0
  0
LINE
  5
28BA
330
18
100
AcDbEntity
  8
MSL-115-S25-R-0
100
AcDbLine
 10
742.2645254673893
 20
765.1009664472422
 30
0.0
 11
742.2645254673893
 21
710.6009664472422
 31
0.0
  0
LINE
  5
28BB
330
18
100
AcDbEntity
  8
MSL-115-S25-R-0
100
AcDbLine
 10
857.2645254673894
 20
757.6009664472421
 30
0.0
 11
857.2645254673894
 21
739.2259664472422
 31
0.0
  0
LINE
  5
28BC
330
18
100
AcDbEntity
  8
MSL-115-S25-R-0
100
AcDbLine
 10
940.7401407536577
 20
838.1177798929753
 30
0.0
 11
940.7401407536577
 21
719.1177798929754
 31
0.0
  0
LINE
  5
28BD
330
18
100
AcDbEntity
  8
MSL-115-S25-R-0
 48
2.0
100
AcDbLine
 10
994.2401407536577
 20
711.6177798929753
 30
0.0
 11
994.2401407536577
 21
768.6177798929754
 31
0.0
  0
LINE
  5
28BE
330
18
100
AcDbEntity
  8
MSL-115-S25-R-0
 48
2.0
100
AcDbLine
 10
984.2401407536577
 20
844.6177798929753
 30
0.0
 11
984.2401407536577
 21
712.6177798929753
 31
0.0
  0
LINE
  5
28BF
330
18
100
AcDbEntity
  8
MSL-115-S25-R-0
 48
2.0
100
AcDbLine
 10
980.7401407536577
 20
841.1177798929752
 30
0.0
 11
980.7401407536577
 21
716.1177798929753
 31
0.0
  0
LINE
  5
28C0
330
18
100
AcDbEntity
  8
MSL-115-S25-R-0
100
AcDbLine
 10
856.7645254673896
 20
715.1009664472422
 30
0.0
 11
745.7645254673893
 21
715.1009664472422
 31
0.0
  0
LINE
  5
28C1
330
18
100
AcDbEntity
  8
MSL-115-S25-R-0
100
AcDbLine
 10
788.7645254673893
 20
710.1759664472425
 30
0.0
 11
754.7645254673893
 21
710.1759664472425
 31
0.0
  0
LINE
  5
28C2
330
18
100
AcDbEntity
  8
MSL-115-S25-R-7A
 48
2.0
100
AcDbLine
 10
738.2645254673893
 20
732.6009664472421
 30
0.0
 11
756.7645254673894
 21
732.6009664472421
 31
0.0
  0
LINE
  5
28C3
330
18
100
AcDbEntity
  8
MSL-115-S25-R-0
100
AcDbLine
 10
742.7645254673893
 20
718.1009664472421
 30
0.0
 11
745.7645254673893
 21
715.1009664472422
 31
0.0
  0
LINE
  5
28C4
330
18
100
AcDbEntity
  8
MSL-115-S25-R-0
100
AcDbLine
 10
742.7645254673893
 20
711.6009664472422
 30
0.0
 11
743.7645254673894
 21
710.6009664472422
 31
0.0
  0
LINE
  5
28C5
330
18
100
AcDbEntity
  8
MSL-115-S25-R-0
100
AcDbLine
 10
742.7645254673893
 20
710.1009664472421
 30
0.0
 11
754.7645254673893
 21
710.1009664472421
 31
0.0
  0
LINE
  5
28C6
330
18
100
AcDbEntity
  8
MSL-115-S25-R-0
 48
2.0
100
AcDbLine
 10
740.7645254673894
 20
725.6009664472421
 30
0.0
 11
740.7645254673894
 21
739.6009664472422
 31
0.0
  0
LINE
  5
28C7
330
18
100
AcDbEntity
  8
MSL-115-S25-R-0
 48
2.0
100
AcDbLine
 10
740.2645254673894
 20
726.1009664472421
 30
0.0
 11
740.2645254673894
 21
739.1009664472421
 31
0.0
  0
LINE
  5
28C8
330
18
100
AcDbEntity
  8
MSL-115-S25-R-0
100
AcDbLine
 10
742.7645254673893
 20
711.6009664472422
 30
0.0
 11
742.7645254673893
 21
718.1009664472421
 31
0.0
  0
LINE
  5
28C9
330
18
100
AcDbEntity
  8
MSL-115-S25-R-0
100
AcDbLine
 10
742.2645254673893
 20
710.6009664472422
 30
0.0
 11
742.7645254673893
 21
710.1009664472421
 31
0.0
  0
LINE
  5
28CA
330
18
100
AcDbEntity
  8
MSL-115-S25-R-0
 48
2.0
100
AcDbLine
 10
740.7645254673894
 20
725.6009664472421
 30
0.0
 11
740.2645254673894
 21
726.1009664472421
 31
0.0
  0
LINE
  5
28CB
330
18
100
AcDbEntity
  8
MSL-115-S25-R-0
 48
2.0
100
AcDbLine
 10
742.2645254673893
 20
725.6009664472421
 30
0.0
 11
740.7645254673894
 21
725.6009664472421
 31
0.0
  0
LINE
  5
28CC
330
18
100
AcDbEntity
  8
MSL-115-S25-R-0
 48
2.0
100
AcDbLine
 10
740.7645254673894
 20
739.6009664472422
 30
0.0
 11
740.2645254673894
 21
739.1009664472421
 31
0.0
  0
LINE
  5
28CD
330
18
100
AcDbEntity
  8
MSL-115-S25-R-0
 48
2.0
100
AcDbLine
 10
740.7645254673894
 20
739.6009664472422
 30
0.0
 11
742.2645254673893
 21
739.6009664472422
 31
0.0
  0
LINE
  5
28CE
330
18
100
AcDbEntity
  8
MSL-115-S25-R-7A
100
AcDbLine
 10
759.26452546739
 20
737.1010152753671
 30
0.0
 11
759.26452546739
 21
723.1010152753672
 31
0.0
  0
ARC
  5
28CF
330
18
100
AcDbEntity
  8
MSL-115-S25-R-5
100
AcDbCircle
 10
758.9645254673902
 20
730.101015275367
 30
0.0
 40
5.0
100
AcDbArc
 50
345.0000000000008
 51
284.9999999999949
  0
CIRCLE
  5
28D0
330
18
100
AcDbEntity
  8
MSL-115-S25-R-0
100
AcDbCircle
 10
758.9645254673902
 20
730.101015275367
 30
0.0
 40
4.25
  0
LINE
  5
28D1
330
18
100
AcDbEntity
  8
MSL-115-S25-R-0
100
AcDbLine
 10
763.7645254673893
 20
710.6009664472422
 30
0.0
 11
743.7645254673894
 21
710.6009664472422
 31
0.0
  0
LINE
  5
28D2
330
18
100
AcDbEntity
  8
MSL-115-S25-R-0
100
AcDbLine
 10
754.7645254673893
 20
710.1759664472425
 30
0.0
 11
754.7645254673893
 21
710.6009664472422
 31
0.0
  0
LINE
  5
28D3
330
18
100
AcDbEntity
  8
MSL-115-S25-R-0
100
AcDbLine
 10
754.7645254673893
 20
710.6009664472422
 30
0.0
 11
754.7645254673893
 21
710.1009664472421
 31
0.0
  0
LINE
  5
28D4
330
18
100
AcDbEntity
  8
MSL-115-S25-R-0
100
AcDbLine
 10
763.7645254673893
 20
710.6009664472422
 30
0.0
 11
764.7645254673894
 21
711.6009664472422
 31
0.0
  0
LINE
  5
28D5
330
18
100
AcDbEntity
  8
MSL-115-S25-R-0
100
AcDbLine
 10
764.7645254673894
 20
715.1009664472422
 30
0.0
 11
764.7645254673894
 21
711.6009664472422
 31
0.0
  0
LINE
  5
28D6
330
18
100
AcDbEntity
  8
MSL-115-S25-R-7A
100
AcDbLine
 10
752.26452546739
 20
730.1010152753672
 30
0.0
 11
765.6645254673901
 21
730.1010152753672
 31
0.0
  0
LINE
  5
28D7
330
18
100
AcDbEntity
  8
MSL-115-S25-R-0
100
AcDbLine
 10
777.2079011403634
 20
731.675966447242
 30
0.0
 11
778.6512768133375
 21
729.175966447242
 31
0.0
  0
LINE
  5
28D8
330
18
100
AcDbEntity
  8
MSL-115-S25-R-0
100
AcDbLine
 10
772.8777741214412
 20
729.175966447242
 30
0.0
 11
774.3211497944153
 21
731.675966447242
 31
0.0
  0
CIRCLE
  5
28D9
330
18
100
AcDbEntity
  8
MSL-115-S25-R-0
100
AcDbCircle
 10
775.7645254673895
 20
729.1759664472423
 30
0.0
 40
5.0
  0
CIRCLE
  5
28DA
330
18
100
AcDbEntity
  8
MSL-115-S25-R-0
100
AcDbCircle
 10
775.7645254673897
 20
729.1759664472423
 30
0.0
 40
5.5
  0
LINE
  5
28DB
330
18
100
AcDbEntity
  8
MSL-115-S25-R-0
100
AcDbLine
 10
774.3211497944153
 20
726.6759664472419
 30
0.0
 11
772.8777741214412
 21
729.175966447242
 31
0.0
  0
LINE
  5
28DC
330
18
100
AcDbEntity
  8
MSL-115-S25-R-0
100
AcDbLine
 10
778.6512768133375
 20
729.175966447242
 30
0.0
 11
777.2079011403634
 21
726.6759664472419
 31
0.0
  0
LINE
  5
28DD
330
18
100
AcDbEntity
  8
MSL-115-S25-R-0
100
AcDbLine
 10
777.2079011403634
 20
726.6759664472419
 30
0.0
 11
774.3211497944153
 21
726.6759664472419
 31
0.0
  0
LINE
  5
28DE
330
18
100
AcDbEntity
  8
MSL-115-S25-R-0
100
AcDbLine
 10
788.7645254673893
 20
710.1759664472425
 30
0.0
 11
788.7645254673893
 21
715.1009664472422
 31
0.0
  0
LINE
  5
28DF
330
18
100
AcDbEntity
  8
MSL-115-S25-R-0
100
AcDbLine
 10
774.3211497944153
 20
731.675966447242
 30
0.0
 11
777.2079011403634
 21
731.675966447242
 31
0.0
  0
LINE
  5
28E0
330
18
100
AcDbEntity
  8
MSL-115-S25-R-0
100
AcDbLine
 10
984.2401407536577
 20
716.1177798929753
 30
0.0
 11
940.7401407536577
 21
716.1177798929753
 31
0.0
  0
LINE
  5
28E1
330
18
100
AcDbEntity
  8
MSL-115-S25-R-0
100
AcDbLine
 10
940.7401407536577
 20
719.1177798929754
 30
0.0
 11
980.7401407536577
 21
719.1177798929754
 31
0.0
  0
LINE
  5
28E2
330
18
100
AcDbEntity
  8
MSL-115-S25-R-7A
100
AcDbLine
 10
830.2645254673901
 20
730.1010152753672
 30
0.0
 11
843.6645254673901
 21
730.1010152753672
 31
0.0
  0
ARC
  5
28E3
330
18
100
AcDbEntity
  8
MSL-115-S25-R-5
100
AcDbCircle
 10
836.9645254673901
 20
730.1010152753676
 30
0.0
 40
5.0
100
AcDbArc
 50
345.0000000000008
 51
284.9999999999949
  0
LINE
  5
28E4
330
18
100
AcDbEntity
  8
MSL-115-S25-R-7A
100
AcDbLine
 10
837.26452546739
 20
737.1010152753671
 30
0.0
 11
837.26452546739
 21
723.1010152753672
 31
0.0
  0
CIRCLE
  5
28E5
330
18
100
AcDbEntity
  8
MSL-115-S25-R-0
100
AcDbCircle
 10
836.9645254673901
 20
730.1010152753676
 30
0.0
 40
4.25
  0
LINE
  5
28E6
330
18
100
AcDbEntity
  8
MSL-115-S25-R-0
100
AcDbLine
 10
857.2645254673894
 20
722.1259664472422
 30
0.0
 11
857.2645254673894
 21
719.1259664472422
 31
0.0
  0
LINE
  5
28E7
330
18
100
AcDbEntity
  8
MSL-115-S25-R-0
100
AcDbLine
 10
857.2645254673894
 20
719.1259664472422
 30
0.0
 11
857.2645254673894
 21
715.1009664472422
 31
0.0
  0
LINE
  5
28E8
330
18
100
AcDbEntity
  8
MSL-115-S25-R-0
100
AcDbLine
 10
857.2645254673894
 20
715.1009664472422
 30
0.0
 11
856.7645254673896
 21
715.1009664472422
 31
0.0
  0
LINE
  5
28E9
330
18
100
AcDbEntity
  8
MSL-115-S25-R-0
100
AcDbLine
 10
856.7645254673896
 20
719.1259664472422
 30
0.0
 11
857.2645254673894
 21
719.1259664472422
 31
0.0
  0
ARC
  5
28EA
330
18
100
AcDbEntity
  8
MSL-115-S25-R-0
100
AcDbCircle
 10
857.0645254673895
 20
723.9021044472423
 30
0.0
 40
0.2
100
AcDbArc
 50
0.0
 51
89.99999999999998
  0
LINE
  5
28EB
330
18
100
AcDbEntity
  8
MSL-115-S25-R-0
100
AcDbLine
 10
856.7645254673896
 20
724.1021044472423
 30
0.0
 11
857.0645254673895
 21
724.1021044472423
 31
0.0
  0
LINE
  5
28EC
330
18
100
AcDbEntity
  8
MSL-115-S25-R-0
100
AcDbLine
 10
857.2645254673894
 20
723.9021044472424
 30
0.0
 11
857.2645254673894
 21
722.1259664472422
 31
0.0
  0
LINE
  5
28ED
330
18
100
AcDbEntity
  8
MSL-115-S25-R-0
100
AcDbLine
 10
849.6512768133378
 20
748.6759664472424
 30
0.0
 11
848.2079011403637
 21
746.1759664472424
 31
0.0
  0
LINE
  5
28EE
330
18
100
AcDbEntity
  8
MSL-115-S25-R-0
100
AcDbLine
 10
848.2079011403634
 20
746.1759664472424
 30
0.0
 11
845.3211497944153
 21
746.1759664472424
 31
0.0
  0
LINE
  5
28EF
330
18
100
AcDbEntity
  8
MSL-115-S25-R-0
100
AcDbLine
 10
845.3211497944154
 20
746.1759664472424
 30
0.0
 11
843.8777741214414
 21
748.6759664472424
 31
0.0
  0
ARC
  5
28F0
330
18
100
AcDbEntity
  8
MSL-115-S25-R-0
100
AcDbCircle
 10
857.0645254673895
 20
734.2998284472422
 30
0.0
 40
0.2
100
AcDbArc
 50
270.0
 51
0.0
  0
LINE
  5
28F1
330
18
100
AcDbEntity
  8
MSL-115-S25-R-0
100
AcDbLine
 10
857.0645254673895
 20
734.0998284472425
 30
0.0
 11
856.7645254673896
 21
734.0998284472425
 31
0.0
  0
LINE
  5
28F2
330
18
100
AcDbEntity
  8
MSL-115-S25-R-0
100
AcDbLine
 10
857.2645254673894
 20
736.2259664472421
 30
0.0
 11
857.2645254673894
 21
734.2998284472423
 31
0.0
  0
LINE
  5
28F3
330
18
100
AcDbEntity
  8
MSL-115-S25-R-0
100
AcDbLine
 10
857.2645254673894
 20
739.2259664472422
 30
0.0
 11
857.2645254673894
 21
736.2259664472421
 31
0.0
  0
LINE
  5
28F4
330
18
100
AcDbEntity
  8
MSL-115-S25-R-0
100
AcDbLine
 10
856.7645254673893
 20
739.2259664472422
 30
0.0
 11
857.2645254673894
 21
739.2259664472422
 31
0.0
  0
LINE
  5
28F5
330
18
100
AcDbEntity
  8
MSL-115-S25-R-0
100
AcDbLine
 10
940.7401407536577
 20
716.1177798929753
 30
0.0
 11
940.7401407536577
 21
719.1177798929754
 31
0.0
  0
LINE
  5
28F6
330
18
100
AcDbEntity
  8
MSL-115-S25-R-0
 48
2.0
100
AcDbLine
 10
984.2401407536577
 20
712.6177798929753
 30
0.0
 11
994.2401407536577
 21
712.6177798929753
 31
0.0
  0
LINE
  5
28F7
330
18
100
AcDbEntity
  8
MSL-115-S25-R-0
 48
2.0
100
AcDbLine
 10
994.2401407536577
 20
711.6177798929753
 30
0.0
 11
984.2401407536577
 21
711.6177798929753
 31
0.0
  0
LINE
  5
28F8
330
18
100
AcDbEntity
  8
MSL-115-S25-R-0
 48
2.0
100
AcDbLine
 10
984.2401407536577
 20
711.6177798929753
 30
0.0
 11
984.2401407536577
 21
712.6177798929753
 31
0.0
  0
LINE
  5
28F9
330
18
100
AcDbEntity
  8
MSL-115-S25-R-0
100
AcDbLine
 10
980.7401407536577
 20
722.1924043990017
 30
0.0
 11
984.2401407536577
 21
722.1924043990017
 31
0.0
  0
LINE
  5
28FA
330
18
100
AcDbEntity
  8
MSL-115-S25-R-7A
 48
2.0
100
AcDbLine
 10
978.1953730038209
 20
730.1924043990017
 30
0.0
 11
986.3427129490865
 21
730.1924043990017
 31
0.0
  0
LINE
  5
28FB
330
18
100
AcDbEntity
  8
MSL-115-S25-R-0
100
AcDbLine
 10
980.7401407536577
 20
738.1924043990017
 30
0.0
 11
984.2401407536577
 21
738.1924043990017
 31
0.0
  0
LINE
  5
28FF
330
18
100
AcDbEntity
  8
MSL-115-S25-R-0
 48
2.0
100
AcDbLine
 10
994.2401407536577
 20
711.1177798929753
 30
0.0
 11
994.2401407536577
 21
711.6177798929753
 31
0.0
  0
LINE
  5
2901
330
18
100
AcDbEntity
  8
MSL-115-S25-R-7A
100
AcDbLine
 10
739.7645254673894
 20
777.6010152753672
 30
0.0
 11
859.7645254673894
 21
777.6010152753672
 31
0.0
  0
CIRCLE
  5
2902
330
18
100
AcDbEntity
  8
MSL-115-S25-R-0
100
AcDbCircle
 10
801.7645254673894
 20
777.0509664472426
 30
0.0
 40
17.5
  0
LINE
  5
2903
330
18
100
AcDbEntity
  8
MSL-115-S25-R-0
100
AcDbLine
 10
745.7645254673893
 20
840.1009664472422
 30
0.0
 11
856.7645254673893
 21
840.1009664472422
 31
0.0
  0
LINE
  5
2904
330
18
100
AcDbEntity
  8
MSL-115-S25-R-0
100
AcDbLine
 10
822.6247445858648
 20
956.7596277748696
 30
0.0
 11
867.6247445858647
 21
956.7596277748696
 31
0.0
  0
LINE
  5
2906
330
18
100
AcDbEntity
  8
MSL-115-S25-R-0
100
AcDbLine
 10
769.1247445858648
 20
999.7596277748701
 30
0.0
 11
769.1247445858648
 21
888.7596277748702
 31
0.0
  0
LINE
  5
2907
330
18
100
AcDbEntity
  8
MSL-115-S25-R-0
 48
2.0
100
AcDbLine
 10
809.1247445858648
 20
1002.75962777487
 30
0.0
 11
809.1247445858648
 21
888.2596277748701
 31
0.0
  0
LINE
  5
290A
330
18
100
AcDbEntity
  8
MSL-115-S25-R-7A
100
AcDbLine
 10
759.2645254673893
 20
832.1010152753672
 30
0.0
 11
759.2645254673893
 21
818.1010152753671
 31
0.0
  0
CIRCLE
  5
290B
330
18
100
AcDbEntity
  8
MSL-115-S25-R-0
100
AcDbCircle
 10
775.7645254673895
 20
826.0259664472423
 30
0.0
 40
5.0
  0
ARC
  5
290C
330
18
100
AcDbEntity
  8
MSL-115-S25-R-5
100
AcDbCircle
 10
759.2645254673895
 20
825.1010152753671
 30
0.0
 40
5.0
100
AcDbArc
 50
345.0000000000008
 51
284.9999999999949
  0
CIRCLE
  5
290D
330
18
100
AcDbEntity
  8
MSL-115-S25-R-0
100
AcDbCircle
 10
775.7645254673895
 20
826.0259664472423
 30
0.0
 40
5.5
  0
CIRCLE
  5
290E
330
18
100
AcDbEntity
  8
MSL-115-S25-R-0
100
AcDbCircle
 10
759.2645254673895
 20
825.1010152753671
 30
0.0
 40
4.25
  0
LINE
  5
290F
330
18
100
AcDbEntity
  8
MSL-115-S25-R-0
100
AcDbLine
 10
742.2645254673896
 20
844.6009664472422
 30
0.0
 11
742.2645254673893
 21
790.1009664472422
 31
0.0
  0
LINE
  5
2910
330
18
100
AcDbEntity
  8
MSL-115-S25-R-0
100
AcDbLine
 10
742.7645254673893
 20
765.1009664472422
 30
0.0
 11
742.2645254673893
 21
765.1009664472422
 31
0.0
  0
LINE
  5
2911
330
18
100
AcDbEntity
  8
MSL-115-S25-R-0
100
AcDbLine
 10
742.2645254673893
 20
790.1009664472422
 30
0.0
 11
742.7645254673893
 21
790.1009664472422
 31
0.0
  0
LINE
  5
2912
330
18
100
AcDbEntity
  8
MSL-115-S25-R-7A
 48
2.0
100
AcDbLine
 10
738.2645254673893
 20
822.6009664472421
 30
0.0
 11
756.7645254673894
 21
822.6009664472421
 31
0.0
  0
LINE
  5
2915
330
18
100
AcDbEntity
  8
MSL-115-S25-R-7A
100
AcDbLine
 10
752.2645254673894
 20
825.1010152753671
 30
0.0
 11
765.6645254673894
 21
825.1010152753671
 31
0.0
  0
LINE
  5
2916
330
18
100
AcDbEntity
  8
MSL-115-S25-R-7A
100
AcDbLine
 10
801.7645254673896
 20
844.4528366459408
 30
0.0
 11
801.7645254673901
 21
709.6259664472425
 31
0.0
  0
CIRCLE
  5
2917
330
18
100
AcDbEntity
  8
MSL-115-S25-R-0
100
AcDbCircle
 10
801.7645254673897
 20
777.0509664472421
 30
0.0
 40
14.24
  0
CIRCLE
  5
2918
330
18
100
AcDbEntity
  8
MSL-115-S25-R-0
100
AcDbCircle
 10
801.7645254673897
 20
777.0509664472421
 30
0.0
 40
10.75999999999999
  0
LINE
  5
2919
330
18
100
AcDbEntity
  8
MSL-115-S25-R-0
100
AcDbLine
 10
807.1222282697705
 20
770.7582868711829
 30
0.0
 11
806.2928337303569
 21
768.642085971619
 31
0.0
  0
LINE
  5
291A
330
18
100
AcDbEntity
  8
MSL-115-S25-R-0
100
AcDbLine
 10
797.2378796146572
 20
768.0910820330243
 30
0.0
 11
796.406408049419
 21
770.2085873716326
 31
0.0
  0
ARC
  5
291B
330
18
100
AcDbEntity
  8
MSL-115-S25-R-0
100
AcDbCircle
 10
801.7645254673897
 20
777.6010152753671
 30
0.0
 40
9.13002807096859
100
AcDbArc
 50
305.931821904388
 51
234.0649646397803
  0
CIRCLE
  5
291C
330
18
100
AcDbEntity
  8
MSL-115-S25-R-0
100
AcDbCircle
 10
799.1645254673898
 20
769.0009664472421
 30
0.0
 40
0.85
  0
CIRCLE
  5
291D
330
18
100
AcDbEntity
  8
MSL-115-S25-R-0
100
AcDbCircle
 10
804.3645254673895
 20
769.0009664472421
 30
0.0
 40
0.85
  0
LINE
  5
291E
330
18
100
AcDbEntity
  8
MSL-115-S25-R-0
100
AcDbLine
 10
800.9146719517646
 20
770.1492720760284
 30
0.0
 11
800.9146719517646
 21
766.8843898816594
 31
0.0
  0
LINE
  5
291F
330
18
100
AcDbEntity
  8
MSL-115-S25-R-0
100
AcDbLine
 10
802.6146205002696
 20
766.8846678655459
 30
0.0
 11
802.6146205000681
 21
770.1492999239176
 31
0.0
  0
ARC
  5
2920
330
18
100
AcDbEntity
  8
MSL-115-S25-R-0
100
AcDbCircle
 10
804.1820059361397
 20
769.469374650367
 30
0.0
 40
2.266875449640205
100
AcDbArc
 50
286.5569432240109
 51
338.5984867606649
  0
ARC
  5
2921
330
18
100
AcDbEntity
  8
MSL-115-S25-R-0
100
AcDbCircle
 10
801.7645254673897
 20
777.600966447242
 30
0.0
 40
10.75026882346426
100
AcDbArc
 50
253.4446373266951
 51
265.4657788977565
  0
ARC
  5
2922
330
18
100
AcDbEntity
  8
MSL-115-S25-R-0
100
AcDbCircle
 10
799.3472891392647
 20
769.469374650367
 30
0.0
 40
2.266626225877324
100
AcDbArc
 50
201.4382298608185
 51
253.4446373266951
  0
ARC
  5
2923
330
18
100
AcDbEntity
  8
MSL-115-S25-R-0
100
AcDbCircle
 10
801.7645254673897
 20
777.600966447242
 30
0.0
 40
10.74996357468214
100
AcDbArc
 50
274.5356214545173
 51
286.5569432240109
  0
LINE
  5
2924
330
18
100
AcDbEntity
  8
MSL-115-S25-R-0
100
AcDbLine
 10
801.765464454526
 20
766.8409664882133
 30
0.0
 11
801.7657681418153
 21
763.3609665014642
 31
0.0
  0
LINE
  5
2925
330
18
100
AcDbEntity
  8
MSL-115-S25-R-0
100
AcDbLine
 10
801.7635864802532
 20
766.8409664882133
 30
0.0
 11
801.7632827929638
 21
763.3609665014642
 31
0.0
  0
CIRCLE
  5
2926
330
18
100
AcDbEntity
  8
MSL-115-S25-R-0
100
AcDbCircle
 10
801.7645254673897
 20
777.0509664472421
 30
0.0
 40
6.999999999999999
  0
CIRCLE
  5
2927
330
18
100
AcDbEntity
  8
MSL-115-S25-R-0
100
AcDbCircle
 10
801.7645254673897
 20
777.0509664472421
 30
0.0
 40
7.5
  0
LINE
  5
2928
330
18
100
AcDbEntity
  8
MSL-115-S25-R-0
100
AcDbLine
 10
772.8777741214412
 20
826.0259664472423
 30
0.0
 11
774.3211497944153
 21
828.5259664472423
 31
0.0
  0
LINE
  5
2929
330
18
100
AcDbEntity
  8
MSL-115-S25-R-0
100
AcDbLine
 10
774.3211497944153
 20
823.5259664472422
 30
0.0
 11
772.8777741214412
 21
826.0259664472423
 31
0.0
  0
LINE
  5
292A
330
18
100
AcDbEntity
  8
MSL-115-S25-R-0
100
AcDbLine
 10
778.6512768133375
 20
826.0259664472423
 30
0.0
 11
777.2079011403634
 21
823.5259664472422
 31
0.0
  0
LINE
  5
292B
330
18
100
AcDbEntity
  8
MSL-115-S25-R-0
100
AcDbLine
 10
777.2079011403634
 20
828.5259664472423
 30
0.0
 11
778.6512768133375
 21
826.0259664472423
 31
0.0
  0
LINE
  5
292C
330
18
100
AcDbEntity
  8
MSL-115-S25-R-0
100
AcDbLine
 10
777.2079011403634
 20
823.5259664472422
 30
0.0
 11
774.3211497944153
 21
823.5259664472422
 31
0.0
  0
LINE
  5
292D
330
18
100
AcDbEntity
  8
MSL-115-S25-R-0
100
AcDbLine
 10
774.3211497944153
 20
828.5259664472423
 30
0.0
 11
777.2079011403634
 21
828.5259664472423
 31
0.0
  0
LINE
  5
292E
330
18
100
AcDbEntity
  8
MSL-115-S25-R-0
100
AcDbLine
 10
788.7645254673893
 20
845.0259664472422
 30
0.0
 11
754.7645254673893
 21
845.0259664472422
 31
0.0
  0
LINE
  5
292F
330
18
100
AcDbEntity
  8
MSL-115-S25-R-0
100
AcDbLine
 10
809.1247445858648
 20
888.7596277748702
 30
0.0
 11
769.1247445858648
 21
888.7596277748702
 31
0.0
  0
LINE
  5
2930
330
18
100
AcDbEntity
  8
MSL-115-S25-R-0
100
AcDbLine
 10
745.7645254673893
 20
840.1009664472422
 30
0.0
 11
742.7645254673893
 21
837.1009664472421
 31
0.0
  0
LINE
  5
2931
330
18
100
AcDbEntity
  8
MSL-115-S25-R-0
100
AcDbLine
 10
743.7645254673894
 20
844.6009664472422
 30
0.0
 11
742.7645254673893
 21
843.6009664472422
 31
0.0
  0
LINE
  5
2932
330
18
100
AcDbEntity
  8
MSL-115-S25-R-0
100
AcDbLine
 10
742.7645254673893
 20
845.1009664472421
 30
0.0
 11
754.7645254673893
 21
845.1009664472421
 31
0.0
  0
LINE
  5
2933
330
18
100
AcDbEntity
  8
MSL-115-S25-R-0
100
AcDbLine
 10
742.7645254673893
 20
837.1009664472421
 30
0.0
 11
742.7645254673893
 21
843.6009664472422
 31
0.0
  0
LINE
  5
2936
330
18
100
AcDbEntity
  8
MSL-115-S25-R-0
100
AcDbLine
 10
742.7645254673893
 20
845.1009664472421
 30
0.0
 11
742.2645254673893
 21
844.6009664472422
 31
0.0
  0
LINE
  5
2937
330
18
100
AcDbEntity
  8
MSL-115-S25-R-0
100
AcDbLine
 10
743.7645254673894
 20
844.6009664472422
 30
0.0
 11
763.7645254673893
 21
844.6009664472422
 31
0.0
  0
LINE
  5
2938
330
18
100
AcDbEntity
  8
MSL-115-S25-R-0
100
AcDbLine
 10
754.7645254673896
 20
844.6009664472425
 30
0.0
 11
754.7645254673896
 21
845.0259664472422
 31
0.0
  0
LINE
  5
2939
330
18
100
AcDbEntity
  8
MSL-115-S25-R-0
100
AcDbLine
 10
754.7645254673896
 20
845.1009664472421
 30
0.0
 11
754.7645254673896
 21
844.6009664472422
 31
0.0
  0
LINE
  5
293A
330
18
100
AcDbEntity
  8
MSL-115-S25-R-0
100
AcDbLine
 10
764.7645254673895
 20
843.6009664472422
 30
0.0
 11
763.7645254673896
 21
844.6009664472422
 31
0.0
  0
LINE
  5
293B
330
18
100
AcDbEntity
  8
MSL-115-S25-R-0
100
AcDbLine
 10
764.7645254673895
 20
843.6009664472422
 30
0.0
 11
764.7645254673895
 21
840.1009664472422
 31
0.0
  0
LINE
  5
293C
330
18
100
AcDbEntity
  8
MSL-115-S25-R-0
100
AcDbLine
 10
788.7645254673893
 20
840.1009664472422
 30
0.0
 11
788.7645254673893
 21
845.0259664472422
 31
0.0
  0
LINE
  5
293D
330
18
100
AcDbEntity
  8
MSL-115-S25-R-0
100
AcDbLine
 10
742.6247445858648
 20
937.7596277748702
 30
0.0
 11
769.1247445858648
 21
937.7596277748702
 31
0.0
  0
LINE
  5
293E
330
18
100
AcDbEntity
  8
MSL-115-S25-R-0
100
AcDbLine
 10
769.1247445858648
 20
949.7596277748701
 30
0.0
 11
742.6247445858648
 21
949.7596277748701
 31
0.0
  0
LINE
  5
293F
330
18
100
AcDbEntity
  8
MSL-115-S25-R-7A
 48
2.0
100
AcDbLine
 10
725.124744585865
 20
943.7596277748701
 30
0.0
 11
785.8159052532769
 21
943.7596277748701
 31
0.0
  0
LINE
  5
2940
330
18
100
AcDbEntity
  8
MSL-115-S25-R-0
100
AcDbLine
 10
742.6247445858648
 20
949.7596277748701
 30
0.0
 11
742.624744585865
 21
937.7596277748702
 31
0.0
  0
LINE
  5
2941
330
18
100
AcDbEntity
  8
MSL-115-S25-R-0
100
AcDbLine
 10
742.1247445858648
 20
949.2596277748701
 30
0.0
 11
742.1247445858648
 21
938.2596277748701
 31
0.0
  0
LINE
  5
2942
330
18
100
AcDbEntity
  8
MSL-115-S25-R-0
100
AcDbLine
 10
742.1247445858648
 20
938.2596277748701
 30
0.0
 11
742.6247445858648
 21
937.7596277748702
 31
0.0
  0
LINE
  5
2943
330
18
100
AcDbEntity
  8
MSL-115-S25-R-0
100
AcDbLine
 10
742.6247445858648
 20
949.7596277748701
 30
0.0
 11
742.1247445858648
 21
949.2596277748701
 31
0.0
  0
LINE
  5
2944
330
18
100
AcDbEntity
  8
MSL-115-S25-R-7A
 48
2.0
100
AcDbLine
 10
842.6247445858647
 20
1005.25962777487
 30
0.0
 11
842.6247445858647
 21
988.7596277748702
 31
0.0
  0
LINE
  5
2945
330
18
100
AcDbEntity
  8
MSL-115-S25-R-0
 48
2.0
100
AcDbLine
 10
822.6247445858648
 20
1002.75962777487
 30
0.0
 11
822.6247445858648
 21
990.7596277748702
 31
0.0
  0
LINE
  5
2946
330
18
100
AcDbEntity
  8
MSL-115-S25-R-0
 48
2.0
100
AcDbLine
 10
812.6247445858648
 20
1001.75962777487
 30
0.0
 11
812.6247445858648
 21
978.2596277748702
 31
0.0
  0
LINE
  5
2947
330
18
100
AcDbEntity
  8
MSL-115-S25-R-3A
 48
2.0
100
AcDbLine
 10
773.1247445858648
 20
971.2596277748701
 30
0.0
 11
773.1247445858648
 21
916.2596277748702
 31
0.0
  0
LINE
  5
2948
330
18
100
AcDbEntity
  8
MSL-115-S25-R-3A
 48
2.0
100
AcDbLine
 10
773.1247445858648
 20
916.2596277748702
 30
0.0
 11
769.1247445858648
 21
916.2596277748702
 31
0.0
  0
LINE
  5
2949
330
18
100
AcDbEntity
  8
MSL-115-S25-R-3A
 48
2.0
100
AcDbLine
 10
769.1247445858648
 20
971.2596277748701
 30
0.0
 11
773.1247445858648
 21
971.2596277748701
 31
0.0
  0
LINE
  5
294A
330
18
100
AcDbEntity
  8
MSL-115-S25-R-0
 48
2.0
100
AcDbLine
 10
822.6247445858648
 20
977.7596277748701
 30
0.0
 11
809.1247445858648
 21
977.7596277748701
 31
0.0
  0
LINE
  5
294B
330
18
100
AcDbEntity
  8
MSL-115-S25-R-0
 48
2.0
100
AcDbLine
 10
822.6247445858648
 20
978.2596277748702
 30
0.0
 11
812.6247445858648
 21
978.2596277748702
 31
0.0
  0
LINE
  5
294C
330
18
100
AcDbEntity
  8
MSL-115-S25-R-0
 48
2.0
100
AcDbLine
 10
812.6247445858648
 20
981.7596277748702
 30
0.0
 11
822.6247445858648
 21
981.7596277748702
 31
0.0
  0
LINE
  5
294D
330
18
100
AcDbEntity
  8
MSL-115-S25-R-0
 48
2.0
100
AcDbLine
 10
822.6247445858648
 20
980.7596277748702
 30
0.0
 11
812.6247445858648
 21
980.7596277748702
 31
0.0
  0
LINE
  5
294E
330
18
100
AcDbEntity
  8
MSL-115-S25-R-0
 48
2.0
100
AcDbLine
 10
822.6247445858648
 20
962.4865972512788
 30
0.0
 11
809.1247445858648
 21
962.4865972512788
 31
0.0
  0
LINE
  5
294F
330
18
100
AcDbEntity
  8
MSL-115-S25-R-0
 48
2.0
100
AcDbLine
 10
812.6247445858648
 20
980.7596277748702
 30
0.0
 11
812.6247445858648
 21
981.7596277748702
 31
0.0
  0
LINE
  5
2950
330
18
100
AcDbEntity
  8
MSL-115-S25-R-0
100
AcDbLine
 10
822.6247445858648
 20
956.7596277748696
 30
0.0
 11
822.6247445858648
 21
990.7596277748702
 31
0.0
  0
LINE
  5
2951
330
18
100
AcDbEntity
  8
MSL-115-S25-R-0
 48
2.0
100
AcDbLine
 10
822.6247445858648
 20
981.7596277748702
 30
0.0
 11
822.6247445858648
 21
980.7596277748702
 31
0.0
  0
LINE
  5
2952
330
18
100
AcDbEntity
  8
MSL-115-S25-R-0
 48
2.0
100
AcDbLine
 10
822.6247445858648
 20
980.7596277748702
 30
0.0
 11
822.6247445858648
 21
978.2596277748702
 31
0.0
  0
LINE
  5
2953
330
18
100
AcDbEntity
  8
MSL-115-S25-R-0
 48
2.0
100
AcDbLine
 10
822.6247445858648
 20
990.7596277748702
 30
0.0
 11
822.6247445858648
 21
981.7596277748702
 31
0.0
  0
LINE
  5
2954
330
18
100
AcDbEntity
  8
MSL-115-S25-R-0
100
AcDbLine
 10
809.1247445858648
 20
999.7596277748701
 30
0.0
 11
769.1247445858648
 21
999.7596277748701
 31
0.0
  0
LINE
  5
2955
330
18
100
AcDbEntity
  8
MSL-115-S25-R-0
100
AcDbLine
 10
769.1247445858648
 20
1002.75962777487
 30
0.0
 11
809.1247445858648
 21
1002.75962777487
 31
0.0
  0
LINE
  5
2956
330
18
100
AcDbEntity
  8
MSL-115-S25-R-0
100
AcDbLine
 10
769.1247445858648
 20
999.7596277748701
 30
0.0
 11
769.1247445858648
 21
1002.75962777487
 31
0.0
  0
LINE
  5
2957
330
18
100
AcDbEntity
  8
MSL-115-S25-R-0
 48
2.0
100
AcDbLine
 10
812.6247445858648
 20
1002.75962777487
 30
0.0
 11
822.6247445858648
 21
1002.75962777487
 31
0.0
  0
LINE
  5
2958
330
18
100
AcDbEntity
  8
MSL-115-S25-R-0
 48
2.0
100
AcDbLine
 10
822.6247445858648
 20
1001.75962777487
 30
0.0
 11
812.6247445858648
 21
1001.75962777487
 31
0.0
  0
LINE
  5
2959
330
18
100
AcDbEntity
  8
MSL-115-S25-R-0
 48
2.0
100
AcDbLine
 10
812.6247445858648
 20
1001.75962777487
 30
0.0
 11
812.6247445858648
 21
1002.75962777487
 31
0.0
  0
LINE
  5
295A
330
18
100
AcDbEntity
  8
MSL-115-S25-R-0
 48
2.0
100
AcDbLine
 10
822.6247445858648
 20
1002.75962777487
 30
0.0
 11
822.6247445858648
 21
1003.25962777487
 31
0.0
  0
LINE
  5
295B
330
18
100
AcDbEntity
  8
MSL-115-S25-R-0
100
AcDbLine
 10
980.7401407536577
 20
838.1177798929753
 30
0.0
 11
940.7401407536577
 21
838.1177798929753
 31
0.0
  0
LINE
  5
295C
330
18
100
AcDbEntity
  8
MSL-115-S25-R-0
100
AcDbLine
 10
940.7401407536577
 20
841.1177798929752
 30
0.0
 11
984.2401407536577
 21
841.1177798929752
 31
0.0
  0
LINE
  5
295D
330
18
100
AcDbEntity
  8
MSL-115-S25-R-7A
100
AcDbLine
 10
837.26452546739
 20
832.1010152753672
 30
0.0
 11
837.26452546739
 21
818.1010152753671
 31
0.0
  0
ARC
  5
295E
330
18
100
AcDbEntity
  8
MSL-115-S25-R-5
100
AcDbCircle
 10
836.9645254673901
 20
825.1010152753675
 30
0.0
 40
5.0
100
AcDbArc
 50
345.0000000000008
 51
284.9999999999949
  0
CIRCLE
  5
295F
330
18
100
AcDbEntity
  8
MSL-115-S25-R-0
100
AcDbCircle
 10
836.9645254673901
 20
825.1010152753675
 30
0.0
 40
4.25
  0
LINE
  5
2960
330
18
100
AcDbEntity
  8
MSL-115-S25-R-0
100
AcDbLine
 10
845.3211497944154
 20
751.1759664472424
 30
0.0
 11
848.2079011403637
 21
751.1759664472424
 31
0.0
  0
LINE
  5
2961
330
18
100
AcDbEntity
  8
MSL-115-S25-R-0
100
AcDbLine
 10
856.7645254673893
 20
757.6009664472421
 30
0.0
 11
857.2645254673894
 21
757.6009664472421
 31
0.0
  0
LINE
  5
2962
330
18
100
AcDbEntity
  8
MSL-115-S25-R-7A
100
AcDbLine
 10
830.2645254673901
 20
825.1010152753671
 30
0.0
 11
843.6645254673901
 21
825.1010152753671
 31
0.0
  0
CIRCLE
  5
2963
330
18
100
AcDbEntity
  8
MSL-115-S25-R-0
100
AcDbCircle
 10
846.7645254673895
 20
806.5259664472423
 30
0.0
 40
5.0
  0
CIRCLE
  5
2964
330
18
100
AcDbEntity
  8
MSL-115-S25-R-0
100
AcDbCircle
 10
846.7645254673895
 20
806.5259664472423
 30
0.0
 40
5.5
  0
LINE
  5
2965
330
18
100
AcDbEntity
  8
MSL-115-S25-R-0
100
AcDbLine
 10
843.8777741214412
 20
806.5259664472423
 30
0.0
 11
845.3211497944153
 21
809.0259664472423
 31
0.0
  0
LINE
  5
2966
330
18
100
AcDbEntity
  8
MSL-115-S25-R-0
100
AcDbLine
 10
848.2079011403634
 20
809.0259664472423
 30
0.0
 11
849.6512768133374
 21
806.5259664472423
 31
0.0
  0
LINE
  5
2967
330
18
100
AcDbEntity
  8
MSL-115-S25-R-0
100
AcDbLine
 10
857.2645254673894
 20
797.6009664472422
 30
0.0
 11
857.2645254673894
 21
815.9759664472421
 31
0.0
  0
LINE
  5
2968
330
18
100
AcDbEntity
  8
MSL-115-S25-R-0
100
AcDbLine
 10
849.6512768133374
 20
806.5259664472423
 30
0.0
 11
848.2079011403634
 21
804.0259664472424
 31
0.0
  0
LINE
  5
2969
330
18
100
AcDbEntity
  8
MSL-115-S25-R-0
100
AcDbLine
 10
848.2079011403634
 20
804.0259664472424
 30
0.0
 11
845.3211497944153
 21
804.0259664472424
 31
0.0
  0
LINE
  5
296A
330
18
100
AcDbEntity
  8
MSL-115-S25-R-0
100
AcDbLine
 10
845.3211497944153
 20
804.0259664472424
 30
0.0
 11
843.8777741214412
 21
806.5259664472423
 31
0.0
  0
LINE
  5
296B
330
18
100
AcDbEntity
  8
MSL-115-S25-R-0
100
AcDbLine
 10
856.7645254673893
 20
797.6009664472422
 30
0.0
 11
857.2645254673894
 21
797.6009664472422
 31
0.0
  0
LINE
  5
296C
330
18
100
AcDbEntity
  8
MSL-115-S25-R-0
100
AcDbLine
 10
845.3211497944153
 20
809.0259664472423
 30
0.0
 11
848.2079011403634
 21
809.0259664472423
 31
0.0
  0
LINE
  5
296D
330
18
100
AcDbEntity
  8
MSL-115-S25-R-0
100
AcDbLine
 10
857.2645254673894
 20
818.9759664472422
 30
0.0
 11
857.2645254673894
 21
815.9759664472421
 31
0.0
  0
LINE
  5
296E
330
18
100
AcDbEntity
  8
MSL-115-S25-R-0
100
AcDbLine
 10
856.7645254673893
 20
815.9759664472421
 30
0.0
 11
857.2645254673894
 21
815.9759664472421
 31
0.0
  0
LINE
  5
296F
330
18
100
AcDbEntity
  8
MSL-115-S25-R-0
100
AcDbLine
 10
857.2645254673894
 20
820.9021044472423
 30
0.0
 11
857.2645254673894
 21
818.9759664472422
 31
0.0
  0
ARC
  5
2970
330
18
100
AcDbEntity
  8
MSL-115-S25-R-0
100
AcDbCircle
 10
857.0645254673896
 20
820.9021044472423
 30
0.0
 40
0.2
100
AcDbArc
 50
0.0
 51
89.99999999999998
  0
LINE
  5
2971
330
18
100
AcDbEntity
  8
MSL-115-S25-R-0
100
AcDbLine
 10
856.7645254673893
 20
821.1021044472422
 30
0.0
 11
857.0645254673895
 21
821.1021044472422
 31
0.0
  0
LINE
  5
2972
330
18
100
AcDbEntity
  8
MSL-115-S25-R-0
100
AcDbLine
 10
940.7401407536577
 20
784.6177798929753
 30
0.0
 11
914.2401407536576
 21
784.6177798929753
 31
0.0
  0
LINE
  5
2973
330
18
100
AcDbEntity
  8
MSL-115-S25-R-0
100
AcDbLine
 10
914.2401407536576
 20
772.6177798929754
 30
0.0
 11
940.7401407536577
 21
772.6177798929754
 31
0.0
  0
LINE
  5
2974
330
18
100
AcDbEntity
  8
MSL-115-S25-R-0
100
AcDbLine
 10
914.2401407536576
 20
784.6177798929753
 30
0.0
 11
914.2401407536576
 21
772.6177798929754
 31
0.0
  0
LINE
  5
2975
330
18
100
AcDbEntity
  8
MSL-115-S25-R-0
100
AcDbLine
 10
913.7401407536577
 20
773.1177798929754
 30
0.0
 11
913.7401407536577
 21
784.1177798929753
 31
0.0
  0
LINE
  5
2976
330
18
100
AcDbEntity
  8
MSL-115-S25-R-0
100
AcDbLine
 10
913.7401407536577
 20
773.1177798929754
 30
0.0
 11
914.2401407536576
 21
772.6177798929754
 31
0.0
  0
LINE
  5
2977
330
18
100
AcDbEntity
  8
MSL-115-S25-R-0
100
AcDbLine
 10
914.2401407536576
 20
784.6177798929753
 30
0.0
 11
913.7401407536577
 21
784.1177798929753
 31
0.0
  0
LINE
  5
2978
330
18
100
AcDbEntity
  8
MSL-115-S25-R-0
100
AcDbLine
 10
857.2645254673894
 20
836.0759664472425
 30
0.0
 11
857.2645254673894
 21
840.1009664472422
 31
0.0
  0
LINE
  5
2979
330
18
100
AcDbEntity
  8
MSL-115-S25-R-0
100
AcDbLine
 10
857.2645254673894
 20
833.0759664472425
 30
0.0
 11
857.2645254673894
 21
831.2998284472424
 31
0.0
  0
ARC
  5
297A
330
18
100
AcDbEntity
  8
MSL-115-S25-R-0
100
AcDbCircle
 10
857.0645254673896
 20
831.2998284472422
 30
0.0
 40
0.2
100
AcDbArc
 50
270.0
 51
0.0
  0
LINE
  5
297B
330
18
100
AcDbEntity
  8
MSL-115-S25-R-0
100
AcDbLine
 10
857.0645254673895
 20
831.0998284472425
 30
0.0
 11
856.7645254673893
 21
831.0998284472425
 31
0.0
  0
LINE
  5
297C
330
18
100
AcDbEntity
  8
MSL-115-S25-R-0
100
AcDbLine
 10
856.7645254673893
 20
836.0759664472425
 30
0.0
 11
857.2645254673894
 21
836.0759664472425
 31
0.0
  0
LINE
  5
297D
330
18
100
AcDbEntity
  8
MSL-115-S25-R-0
100
AcDbLine
 10
857.2645254673894
 20
836.0759664472425
 30
0.0
 11
857.2645254673894
 21
833.0759664472425
 31
0.0
  0
LINE
  5
297E
330
18
100
AcDbEntity
  8
MSL-115-S25-R-0
100
AcDbLine
 10
857.2645254673894
 20
840.1009664472422
 30
0.0
 11
856.7645254673893
 21
840.1009664472422
 31
0.0
  0
LINE
  5
297F
330
18
100
AcDbEntity
  8
MSL-115-S25-R-0
100
AcDbLine
 10
940.7401407536577
 20
838.1177798929753
 30
0.0
 11
940.7401407536577
 21
841.1177798929752
 31
0.0
  0
LINE
  5
2981
330
18
100
AcDbEntity
  8
MSL-115-S25-R-0
 48
2.0
100
AcDbLine
 10
994.2401407536577
 20
788.6177798929753
 30
0.0
 11
994.2401407536577
 21
845.6177798929754
 31
0.0
  0
LINE
  5
2982
330
18
100
AcDbEntity
  8
MSL-115-S25-R-7A
 48
2.0
100
AcDbLine
 10
978.1953730038209
 20
827.042404399002
 30
0.0
 11
986.3427129490865
 21
827.042404399002
 31
0.0
  0
LINE
  5
2983
330
18
100
AcDbEntity
  8
MSL-115-S25-R-0
100
AcDbLine
 10
980.7401407536577
 20
819.0424043990017
 30
0.0
 11
984.2401407536577
 21
819.0424043990017
 31
0.0
  0
LINE
  5
2984
330
18
100
AcDbEntity
  8
MSL-115-S25-R-0
 48
2.0
100
AcDbLine
 10
994.2401407536577
 20
768.6177798929754
 30
0.0
 11
994.2401407536577
 21
788.6177798929753
 31
0.0
  0
LINE
  5
2985
330
18
100
AcDbEntity
  8
MSL-115-S25-R-0
 48
2.0
100
AcDbLine
 10
994.2401407536577
 20
788.6177798929753
 30
0.0
 11
994.2401407536577
 21
768.6177798929754
 31
0.0
  0
LINE
  5
2989
330
18
100
AcDbEntity
  8
MSL-115-S25-R-0
 48
2.0
100
AcDbLine
 10
994.2401407536577
 20
844.6177798929753
 30
0.0
 11
984.2401407536577
 21
844.6177798929753
 31
0.0
  0
LINE
  5
298A
330
18
100
AcDbEntity
  8
MSL-115-S25-R-0
 48
2.0
100
AcDbLine
 10
984.2401407536577
 20
845.6177798929754
 30
0.0
 11
994.2401407536577
 21
845.6177798929754
 31
0.0
  0
LINE
  5
298B
330
18
100
AcDbEntity
  8
MSL-115-S25-R-0
100
AcDbLine
 10
980.7401407536577
 20
835.0424043990015
 30
0.0
 11
984.2401407536577
 21
835.0424043990015
 31
0.0
  0
LINE
  5
298C
330
18
100
AcDbEntity
  8
MSL-115-S25-R-0
 48
2.0
100
AcDbLine
 10
984.2401407536577
 20
844.6177798929753
 30
0.0
 11
984.2401407536577
 21
845.6177798929754
 31
0.0
  0
LINE
  5
298D
330
18
100
AcDbEntity
  8
MSL-115-S25-R-0
 48
2.0
100
AcDbLine
 10
994.2401407536577
 20
845.6177798929754
 30
0.0
 11
994.2401407536577
 21
846.1177798929753
 31
0.0
  0
LINE
  5
298E
330
18
100
AcDbEntity
  8
MSL-115-S25-R-0
100
AcDbLine
 10
982.6247445858648
 20
983.7596277748698
 30
0.0
 11
892.6247445858647
 21
983.7596277748701
 31
0.0
  0
LINE
  5
298F
330
18
100
AcDbEntity
  8
MSL-115-S25-R-0
100
AcDbLine
 10
997.6247445858648
 20
977.7596277748701
 30
0.0
 11
867.6247445858647
 21
977.7596277748701
 31
0.0
  0
LINE
  5
2990
330
18
100
AcDbEntity
  8
MSL-115-S25-R-0
100
AcDbLine
 10
997.6247445858648
 20
962.4865972512788
 30
0.0
 11
867.6247445858647
 21
962.4865972512788
 31
0.0
  0
LINE
  5
2991
330
18
100
AcDbEntity
  8
MSL-115-S25-R-7A
 48
2.0
100
AcDbLine
 10
872.624744585865
 20
1005.25962777487
 30
0.0
 11
872.624744585865
 21
988.7596277748702
 31
0.0
  0
LINE
  5
2992
330
18
100
AcDbEntity
  8
MSL-115-S25-R-7A
 48
2.0
100
AcDbLine
 10
932.6247445858649
 20
1005.25962777487
 30
0.0
 11
932.6247445858649
 21
988.7596277748702
 31
0.0
  0
LINE
  5
2993
330
18
100
AcDbEntity
  8
MSL-115-S25-R-7A
 48
2.0
100
AcDbLine
 10
902.6285688783749
 20
1007.25942751793
 30
0.0
 11
902.60026715309
 21
988.7596277748702
 31
0.0
  0
LINE
  5
2994
330
18
100
AcDbEntity
  8
MSL-115-S25-R-0
100
AcDbLine
 10
867.6247445858647
 20
981.2596277748701
 30
0.0
 11
881.1247445858649
 21
981.2596277748701
 31
0.0
  0
LINE
  5
2995
330
18
100
AcDbEntity
  8
MSL-115-S25-R-0
100
AcDbLine
 10
892.6247445858649
 20
990.2596277748701
 30
0.0
 11
867.6247445858649
 21
990.2596277748701
 31
0.0
  0
LINE
  5
2996
330
18
100
AcDbEntity
  8
MSL-115-S25-R-0
100
AcDbLine
 10
867.6247445858647
 20
956.7596277748702
 30
0.0
 11
867.6247445858649
 21
990.7596277748702
 31
0.0
  0
LINE
  5
2997
330
18
100
AcDbEntity
  8
MSL-115-S25-R-0
100
AcDbLine
 10
882.6247445858648
 20
978.2596277748702
 30
0.0
 11
877.1247445858648
 21
978.2596277748702
 31
0.0
  0
ARC
  5
2998
330
18
100
AcDbEntity
  8
MSL-115-S25-R-0
100
AcDbCircle
 10
877.124744585865
 20
977.7596277748701
 30
0.0
 40
0.5
100
AcDbArc
 50
89.99999999999998
 51
180.0
  0
LINE
  5
2999
330
18
100
AcDbEntity
  8
MSL-115-S25-R-0
100
AcDbLine
 10
892.6247445858647
 20
977.7596277748701
 30
0.0
 11
892.6247445858647
 21
983.7596277748701
 31
0.0
  0
ARC
  5
299A
330
18
100
AcDbEntity
  8
MSL-115-S25-R-0
100
AcDbCircle
 10
881.1247445858651
 20
979.7596277748702
 30
0.0
 40
1.5
100
AcDbArc
 50
0.0
 51
89.99999999999998
  0
LINE
  5
299B
330
18
100
AcDbEntity
  8
MSL-115-S25-R-0
100
AcDbLine
 10
882.6247445858648
 20
979.7596277748702
 30
0.0
 11
882.6247445858648
 21
977.7596277748701
 31
0.0
  0
LINE
  5
299C
330
18
100
AcDbEntity
  8
MSL-115-S25-R-0
100
AcDbLine
 10
892.6247445858649
 20
990.2596277748701
 30
0.0
 11
892.6247445858647
 21
983.7596277748701
 31
0.0
  0
LINE
  5
299D
330
18
100
AcDbEntity
  8
MSL-115-S25-R-0
100
AcDbLine
 10
909.124744585865
 20
986.5596277748698
 30
0.0
 11
917.124744585865
 21
986.5596277748698
 31
0.0
  0
LINE
  5
299E
330
18
100
AcDbEntity
  8
MSL-115-S25-R-0
100
AcDbLine
 10
916.9247445858649
 20
986.7596277748701
 30
0.0
 11
909.3247445858647
 21
986.7596277748701
 31
0.0
  0
LINE
  5
299F
330
18
100
AcDbEntity
  8
MSL-115-S25-R-0
100
AcDbLine
 10
909.3247445858647
 20
986.7596277748701
 30
0.0
 11
909.124744585865
 21
986.5596277748698
 31
0.0
  0
LINE
  5
29A0
330
18
100
AcDbEntity
  8
MSL-115-S25-R-0
100
AcDbLine
 10
909.124744585865
 20
986.5596277748698
 30
0.0
 11
909.1247445858648
 21
983.7596277748701
 31
0.0
  0
LINE
  5
29A1
330
18
100
AcDbEntity
  8
MSL-115-S25-R-0
100
AcDbLine
 10
917.124744585865
 20
986.5596277748698
 30
0.0
 11
916.9247445858649
 21
986.7596277748701
 31
0.0
  0
LINE
  5
29A2
330
18
100
AcDbEntity
  8
MSL-115-S25-R-0
100
AcDbLine
 10
917.1247445858648
 20
983.7596277748701
 30
0.0
 11
917.124744585865
 21
986.5596277748698
 31
0.0
  0
LINE
  5
29A3
330
18
100
AcDbEntity
  8
MSL-115-S25-R-0
 48
2.0
100
AcDbLine
 10
895.60026715309
 20
1004.75962777487
 30
0.0
 11
909.6002671530897
 21
1004.75962777487
 31
0.0
  0
LINE
  5
29A4
330
18
100
AcDbEntity
  8
MSL-115-S25-R-0
 48
2.0
100
AcDbLine
 10
896.1002671530899
 20
1005.25962777487
 30
0.0
 11
909.1002671530898
 21
1005.25962777487
 31
0.0
  0
LINE
  5
29A5
330
18
100
AcDbEntity
  8
MSL-115-S25-R-0
 48
2.0
100
AcDbLine
 10
895.60026715309
 20
1004.75962777487
 30
0.0
 11
896.1002671530899
 21
1005.25962777487
 31
0.0
  0
LINE
  5
29A6
330
18
100
AcDbEntity
  8
MSL-115-S25-R-0
 48
2.0
100
AcDbLine
 10
895.6002671530896
 20
1003.25962777487
 30
0.0
 11
895.60026715309
 21
1004.75962777487
 31
0.0
  0
LINE
  5
29A7
330
18
100
AcDbEntity
  8
MSL-115-S25-R-0
 48
2.0
100
AcDbLine
 10
909.1002671530898
 20
1005.25962777487
 30
0.0
 11
909.6002671530897
 21
1004.75962777487
 31
0.0
  0
LINE
  5
29A8
330
18
100
AcDbEntity
  8
MSL-115-S25-R-0
 48
2.0
100
AcDbLine
 10
909.6002671530897
 20
1004.75962777487
 30
0.0
 11
909.6002671530898
 21
1003.25962777487
 31
0.0
  0
LINE
  5
29A9
330
18
100
AcDbEntity
  8
MSL-115-S25-R-7A
 48
2.0
100
AcDbLine
 10
1022.624744585865
 20
1005.25962777487
 30
0.0
 11
1022.624744585865
 21
988.7596277748702
 31
0.0
  0
LINE
  5
29AA
330
18
100
AcDbEntity
  8
MSL-115-S25-R-7A
 48
2.0
100
AcDbLine
 10
992.6247445858647
 20
1005.25962777487
 30
0.0
 11
992.6247445858647
 21
988.7596277748702
 31
0.0
  0
LINE
  5
29AB
330
18
100
AcDbEntity
  8
MSL-115-S25-R-7A
 48
2.0
100
AcDbLine
 10
962.624744585865
 20
1007.25962777487
 30
0.0
 11
962.624744585865
 21
988.7596277748702
 31
0.0
  0
LINE
  5
29AC
330
18
100
AcDbEntity
  8
MSL-115-S25-R-0
100
AcDbLine
 10
994.6247445858649
 20
983.7596277748698
 30
0.0
 11
982.6247445858648
 21
983.7596277748698
 31
0.0
  0
LINE
  5
29AD
330
18
100
AcDbEntity
  8
MSL-115-S25-R-0
100
AcDbLine
 10
982.6247445858648
 20
977.7596277748701
 30
0.0
 11
982.6247445858648
 21
983.7596277748698
 31
0.0
  0
LINE
  5
29AE
330
18
100
AcDbEntity
  8
MSL-115-S25-R-0
100
AcDbLine
 10
982.6247445858648
 20
977.7596277748701
 30
0.0
 11
982.6247445858648
 21
983.7596277748698
 31
0.0
  0
CIRCLE
  5
29AF
330
18
100
AcDbEntity
  8
MSL-115-S25-R-0
100
AcDbCircle
 10
1020.124744585865
 20
981.75962777487
 30
0.0
 40
4.0
  0
CIRCLE
  5
29B0
330
18
100
AcDbEntity
  8
MSL-115-S25-R-0
100
AcDbCircle
 10
1020.124744585865
 20
981.75962777487
 30
0.0
 40
3.000000000000002
  0
CIRCLE
  5
29B1
330
18
100
AcDbEntity
  8
MSL-115-S25-R-0
100
AcDbCircle
 10
1020.124744585865
 20
981.75962777487
 30
0.0
 40
3.75
  0
CIRCLE
  5
29B2
330
18
100
AcDbEntity
  8
MSL-115-S25-R-0
100
AcDbCircle
 10
1020.124744585865
 20
981.75962777487
 30
0.0
 40
4.099999999999999
  0
LINE
  5
29B3
330
18
100
AcDbEntity
  8
MSL-115-S25-R-0
100
AcDbLine
 10
997.6247445858648
 20
956.7596277748702
 30
0.0
 11
997.624744585865
 21
990.7596277748702
 31
0.0
  0
LINE
  5
29B4
330
18
100
AcDbEntity
  8
MSL-115-S25-R-0
100
AcDbLine
 10
994.6247445858649
 20
977.7596277748701
 30
0.0
 11
994.6247445858649
 21
983.7596277748698
 31
0.0
  0
CIRCLE
  5
29B5
330
18
100
AcDbEntity
  8
MSL-115-S25-R-0
100
AcDbCircle
 10
1020.124744585865
 20
969.7596277748701
 30
0.0
 40
1.500000000000001
  0
CIRCLE
  5
29B6
330
18
100
AcDbEntity
  8
MSL-115-S25-R-0
100
AcDbCircle
 10
1020.124744585865
 20
981.75962777487
 30
0.0
 40
1.60432736353769
  0
LINE
  5
29BD
330
18
100
AcDbEntity
  8
MSL-115-S25-R-0
100
AcDbLine
 10
1345.740140753657
 20
719.1177798929754
 30
0.0
 11
1345.740140753657
 21
838.1177798929753
 31
0.0
  0
LINE
  5
29BE
330
18
100
AcDbEntity
  8
MSL-115-S25-R-0
 48
2.0
100
AcDbLine
 10
1214.240140753657
 20
768.6177798929754
 30
0.0
 11
1214.240140753657
 21
711.1177798929753
 31
0.0
  0
LINE
  5
29BF
330
18
100
AcDbEntity
  8
MSL-115-S25-R-0
 48
2.0
100
AcDbLine
 10
1224.240140753657
 20
711.6177798929753
 30
0.0
 11
1224.240140753657
 21
845.6177798929754
 31
0.0
  0
LINE
  5
29C0
330
18
100
AcDbEntity
  8
MSL-115-S25-R-0
 48
2.0
100
AcDbLine
 10
1327.740140753657
 20
841.1177798929752
 30
0.0
 11
1327.740140753657
 21
716.1177798929753
 31
0.0
  0
LINE
  5
29C1
330
18
100
AcDbEntity
  8
MSL-115-S25-R-7A
 48
2.0
100
AcDbLine
 10
1221.740140753657
 20
730.1924043990017
 30
0.0
 11
1327.740140753657
 21
730.1924043990017
 31
0.0
  0
LINE
  5
29C2
330
18
100
AcDbEntity
  8
MSL-115-S25-R-0
 48
2.0
100
AcDbLine
 10
1224.240140753657
 20
716.1177798929753
 30
0.0
 11
1327.740140753657
 21
716.1177798929753
 31
0.0
  0
LINE
  5
29C3
330
18
100
AcDbEntity
  8
MSL-115-S25-R-0
 48
2.0
100
AcDbLine
 10
1224.240140753657
 20
722.1924043990017
 30
0.0
 11
1327.740140753657
 21
722.1924043990017
 31
0.0
  0
LINE
  5
29C4
330
18
100
AcDbEntity
  8
MSL-115-S25-R-0
 48
2.0
100
AcDbLine
 10
1224.240140753657
 20
738.1924043990017
 30
0.0
 11
1327.740140753657
 21
738.1924043990017
 31
0.0
  0
LINE
  5
29DB
330
18
100
AcDbEntity
  8
MSL-115-S25-R-0
 48
2.0
100
AcDbLine
 10
1214.240140753657
 20
712.6177798929753
 30
0.0
 11
1224.240140753657
 21
712.6177798929753
 31
0.0
  0
LINE
  5
29DC
330
18
100
AcDbEntity
  8
MSL-115-S25-R-0
 48
2.0
100
AcDbLine
 10
1224.240140753657
 20
711.6177798929753
 30
0.0
 11
1214.240140753657
 21
711.6177798929753
 31
0.0
  0
LINE
  5
29DD
330
18
100
AcDbEntity
  8
MSL-115-S25-R-0
100
AcDbLine
 10
1327.740140753657
 20
719.1177798929754
 30
0.0
 11
1345.740140753657
 21
719.1177798929754
 31
0.0
  0
LINE
  5
29DE
330
18
100
AcDbEntity
  8
MSL-115-S25-R-0
100
AcDbLine
 10
1345.740140753657
 20
716.1177798929753
 30
0.0
 11
1327.740140753657
 21
716.1177798929753
 31
0.0
  0
LINE
  5
29DF
330
18
100
AcDbEntity
  8
MSL-115-S25-R-0
100
AcDbLine
 10
1345.740140753657
 20
719.1177798929754
 30
0.0
 11
1345.740140753657
 21
716.1177798929753
 31
0.0
  0
CIRCLE
  5
29E0
330
18
100
AcDbEntity
  8
MSL-115-S25-R-7A
100
AcDbCircle
 10
1278.315140753658
 20
943.7596277748701
 30
0.0
 40
44.99999999999999
  0
LINE
  5
29E1
330
18
100
AcDbEntity
  8
MSL-115-S25-R-0
100
AcDbLine
 10
1218.815140753658
 20
1002.759627774869
 30
0.0
 11
1337.815140753658
 21
1002.759627774869
 31
0.0
  0
LINE
  5
29E2
330
18
100
AcDbEntity
  8
MSL-115-S25-R-0
100
AcDbLine
 10
1340.815140753657
 20
888.7596277748697
 30
0.0
 11
1215.815140753657
 21
888.7596277748697
 31
0.0
  0
LINE
  5
29E3
330
18
100
AcDbEntity
  8
MSL-115-S25-R-0
100
AcDbLine
 10
1265.815140753658
 20
1003.259627774869
 30
0.0
 11
1211.315140753658
 21
1003.259627774869
 31
0.0
  0
LINE
  5
29E4
330
18
100
AcDbEntity
  8
MSL-115-S25-R-0
100
AcDbLine
 10
1258.315140753658
 20
888.2596277748696
 30
0.0
 11
1239.940140753658
 21
888.2596277748696
 31
0.0
  0
LINE
  5
29E5
330
18
100
AcDbEntity
  8
MSL-115-S25-R-7A
 48
2.0
100
AcDbLine
 10
1221.740140753657
 20
827.042404399002
 30
0.0
 11
1327.740140753657
 21
827.042404399002
 31
0.0
  0
LINE
  5
29E6
330
18
100
AcDbEntity
  8
MSL-115-S25-R-0
 48
2.0
100
AcDbLine
 10
1224.240140753657
 20
819.042404399002
 30
0.0
 11
1327.740140753657
 21
819.0424043990017
 31
0.0
  0
LINE
  5
29E7
330
18
100
AcDbEntity
  8
MSL-115-S25-R-0
 48
2.0
100
AcDbLine
 10
1224.240140753657
 20
835.042404399002
 30
0.0
 11
1327.740140753657
 21
835.0424043990015
 31
0.0
  0
LINE
  5
29E8
330
18
100
AcDbEntity
  8
MSL-115-S25-R-0
 48
2.0
100
AcDbLine
 10
1224.240140753657
 20
841.1177798929752
 30
0.0
 11
1327.740140753657
 21
841.1177798929752
 31
0.0
  0
LINE
  5
29E9
330
18
100
AcDbEntity
  8
MSL-115-S25-R-0
100
AcDbLine
 10
1215.815140753657
 20
888.7596277748697
 30
0.0
 11
1215.815140753658
 21
999.7596277748696
 31
0.0
  0
LINE
  5
29EA
330
18
100
AcDbEntity
  8
MSL-115-S25-R-0
100
AcDbLine
 10
1174.124744585864
 20
888.7596277748702
 30
0.0
 11
1174.124744585864
 21
999.7596277748701
 31
0.0
  0
LINE
  5
29EB
330
18
100
AcDbEntity
  8
MSL-115-S25-R-0
 48
2.0
100
AcDbLine
 10
1156.124744585865
 20
888.2596277748701
 30
0.0
 11
1156.124744585864
 21
1002.75962777487
 31
0.0
  0
LINE
  5
29FD
330
18
100
AcDbEntity
  8
MSL-115-S25-R-0
 48
2.0
100
AcDbLine
 10
1214.240140753657
 20
846.1177798929753
 30
0.0
 11
1214.240140753657
 21
788.6177798929753
 31
0.0
  0
LINE
  5
2A05
330
18
100
AcDbEntity
  8
MSL-115-S25-R-0
 48
2.0
100
AcDbLine
 10
1214.240140753657
 20
788.6177798929753
 30
0.0
 11
1214.240140753657
 21
768.6177798929754
 31
0.0
  0
LINE
  5
2A06
330
18
100
AcDbEntity
  8
MSL-115-S25-R-0
 48
2.0
100
AcDbLine
 10
1214.240140753657
 20
768.6177798929754
 30
0.0
 11
1214.240140753657
 21
788.6177798929753
 31
0.0
  0
LINE
  5
2A07
330
18
100
AcDbEntity
  8
MSL-115-S25-R-0
100
AcDbLine
 10
1156.124744585865
 20
888.7596277748702
 30
0.0
 11
1174.124744585864
 21
888.7596277748702
 31
0.0
  0
LINE
  5
2A08
330
18
100
AcDbEntity
  8
MSL-115-S25-R-0
 48
2.0
100
AcDbLine
 10
1214.240140753657
 20
845.6177798929754
 30
0.0
 11
1224.240140753657
 21
845.6177798929754
 31
0.0
  0
LINE
  5
2A09
330
18
100
AcDbEntity
  8
MSL-115-S25-R-0
 48
2.0
100
AcDbLine
 10
1224.240140753657
 20
844.6177798929753
 30
0.0
 11
1214.240140753657
 21
844.6177798929753
 31
0.0
  0
LINE
  5
2A0A
330
18
100
AcDbEntity
  8
MSL-115-S25-R-0
100
AcDbLine
 10
1219.840140753658
 20
888.2596277748696
 30
0.0
 11
1215.815140753657
 21
888.2596277748696
 31
0.0
  0
LINE
  5
2A0B
330
18
100
AcDbEntity
  8
MSL-115-S25-R-0
100
AcDbLine
 10
1215.815140753657
 20
888.2596277748696
 30
0.0
 11
1215.815140753657
 21
888.7596277748697
 31
0.0
  0
LINE
  5
2A0C
330
18
100
AcDbEntity
  8
MSL-115-S25-R-7A
 48
2.0
100
AcDbLine
 10
1229.815169906958
 20
906.2436017942843
 30
0.0
 11
1229.815169906958
 21
883.5349519017011
 31
0.0
  0
LINE
  5
2A11
330
18
100
AcDbEntity
  8
MSL-115-S25-R-0
100
AcDbLine
 10
1224.616278753657
 20
888.2596277748696
 30
0.0
 11
1222.840140753658
 21
888.2596277748696
 31
0.0
  0
LINE
  5
2A13
330
18
100
AcDbEntity
  8
MSL-115-S25-R-0
100
AcDbLine
 10
1219.840140753658
 20
888.7596277748697
 30
0.0
 11
1219.840140753658
 21
888.2596277748696
 31
0.0
  0
LINE
  5
2A14
330
18
100
AcDbEntity
  8
MSL-115-S25-R-0
100
AcDbLine
 10
1222.840140753658
 20
888.2596277748696
 30
0.0
 11
1219.840140753658
 21
888.2596277748696
 31
0.0
  0
LINE
  5
2A15
330
18
100
AcDbEntity
  8
MSL-115-S25-R-0
100
AcDbLine
 10
1224.816278753658
 20
888.7596277748697
 30
0.0
 11
1224.816278753658
 21
888.4596277748695
 31
0.0
  0
ARC
  5
2A16
330
18
100
AcDbEntity
  8
MSL-115-S25-R-0
100
AcDbCircle
 10
1224.616278753658
 20
888.4596277748698
 30
0.0
 40
0.2
100
AcDbArc
 50
270.0
 51
0.0
  0
LINE
  5
2A18
330
18
100
AcDbEntity
  8
MSL-115-S25-R-0
100
AcDbLine
 10
1236.940140753658
 20
888.2596277748696
 30
0.0
 11
1235.014002753657
 21
888.2596277748696
 31
0.0
  0
LINE
  5
2A1A
330
18
100
AcDbEntity
  8
MSL-115-S25-R-0
100
AcDbLine
 10
1234.814002753657
 20
888.4596277748695
 30
0.0
 11
1234.814002753657
 21
888.7596277748697
 31
0.0
  0
ARC
  5
2A1B
330
18
100
AcDbEntity
  8
MSL-115-S25-R-0
100
AcDbCircle
 10
1235.014002753658
 20
888.4596277748698
 30
0.0
 40
0.2
100
AcDbArc
 50
180.0
 51
270.0
  0
LINE
  5
2A1D
330
18
100
AcDbEntity
  8
MSL-115-S25-R-0
100
AcDbLine
 10
1239.940140753658
 20
888.7596277748697
 30
0.0
 11
1239.940140753658
 21
888.2596277748696
 31
0.0
  0
LINE
  5
2A1E
330
18
100
AcDbEntity
  8
MSL-115-S25-R-0
100
AcDbLine
 10
1239.940140753658
 20
888.2596277748696
 30
0.0
 11
1236.940140753658
 21
888.2596277748696
 31
0.0
  0
LINE
  5
2A30
330
18
100
AcDbEntity
  8
MSL-115-S25-R-0
 48
2.0
100
AcDbLine
 10
1156.124744585864
 20
962.4865972512788
 30
0.0
 11
1042.624744585864
 21
962.4865972512788
 31
0.0
  0
LINE
  5
2A31
330
18
100
AcDbEntity
  8
MSL-115-S25-R-0
 48
2.0
100
AcDbLine
 10
1156.124744585864
 20
977.7596277748701
 30
0.0
 11
1042.624744585864
 21
977.7596277748701
 31
0.0
  0
LINE
  5
2A32
330
18
100
AcDbEntity
  8
MSL-115-S25-R-0
 48
2.0
100
AcDbLine
 10
1052.624744585864
 20
981.7596277748702
 30
0.0
 11
1052.624744585864
 21
1001.75962777487
 31
0.0
  0
LINE
  5
2A33
330
18
100
AcDbEntity
  8
MSL-115-S25-R-0
 48
2.0
100
AcDbLine
 10
1042.624744585864
 20
981.7596277748702
 30
0.0
 11
1042.624744585864
 21
1003.25962777487
 31
0.0
  0
LINE
  5
2A34
330
18
100
AcDbEntity
  8
MSL-115-S25-R-0
100
AcDbLine
 10
1042.624744585864
 20
956.7596277748702
 30
0.0
 11
1042.624744585864
 21
990.7596277748702
 31
0.0
  0
LINE
  5
2A35
330
18
100
AcDbEntity
  8
MSL-115-S25-R-0
 48
2.0
100
AcDbLine
 10
1042.624744585864
 20
980.7596277748702
 30
0.0
 11
1042.624744585864
 21
981.7596277748702
 31
0.0
  0
LINE
  5
2A36
330
18
100
AcDbEntity
  8
MSL-115-S25-R-0
 48
2.0
100
AcDbLine
 10
1052.624744585864
 20
981.7596277748702
 30
0.0
 11
1052.624744585864
 21
980.7596277748702
 31
0.0
  0
LINE
  5
2A37
330
18
100
AcDbEntity
  8
MSL-115-S25-R-0
 48
2.0
100
AcDbLine
 10
1052.624744585864
 20
980.7596277748702
 30
0.0
 11
1042.624744585864
 21
980.7596277748702
 31
0.0
  0
LINE
  5
2A38
330
18
100
AcDbEntity
  8
MSL-115-S25-R-0
 48
2.0
100
AcDbLine
 10
1042.624744585864
 20
981.7596277748702
 30
0.0
 11
1052.624744585864
 21
981.7596277748702
 31
0.0
  0
LINE
  5
2A39
330
18
100
AcDbEntity
  8
MSL-115-S25-R-0
 48
2.0
100
AcDbLine
 10
1042.624744585864
 20
1002.75962777487
 30
0.0
 11
1052.624744585864
 21
1002.75962777487
 31
0.0
  0
LINE
  5
2A3A
330
18
100
AcDbEntity
  8
MSL-115-S25-R-0
 48
2.0
100
AcDbLine
 10
1052.624744585864
 20
1001.75962777487
 30
0.0
 11
1042.624744585864
 21
1001.75962777487
 31
0.0
  0
LINE
  5
2A3B
330
18
100
AcDbEntity
  8
MSL-115-S25-R-0
 48
2.0
100
AcDbLine
 10
1052.624744585864
 20
1002.75962777487
 30
0.0
 11
1052.624744585864
 21
1001.75962777487
 31
0.0
  0
LINE
  5
2A3C
330
18
100
AcDbEntity
  8
MSL-115-S25-R-7A
 48
2.0
100
AcDbLine
 10
1233.315140753658
 20
1007.259627774869
 30
0.0
 11
1233.315140753658
 21
988.7596277748697
 31
0.0
  0
LINE
  5
2A3D
330
18
100
AcDbEntity
  8
MSL-115-S25-R-0
100
AcDbLine
 10
1211.315140753657
 20
981.7596277748696
 30
0.0
 11
1211.315140753658
 21
1001.759627774869
 31
0.0
  0
LINE
  5
2A3E
330
18
100
AcDbEntity
  8
MSL-115-S25-R-0
100
AcDbLine
 10
1210.815140753658
 20
1002.759627774869
 30
0.0
 11
1210.815140753658
 21
990.7596277748696
 31
0.0
  0
LINE
  5
2A3F
330
18
100
AcDbEntity
  8
MSL-115-S25-R-0
100
AcDbLine
 10
1210.890140753657
 20
956.7596277748696
 30
0.0
 11
1210.890140753658
 21
990.7596277748696
 31
0.0
  0
LINE
  5
2A40
330
18
100
AcDbEntity
  8
MSL-115-S25-R-0
100
AcDbLine
 10
1210.890140753657
 20
956.7596277748696
 30
0.0
 11
1215.815140753657
 21
956.7596277748696
 31
0.0
  0
LINE
  5
2A41
330
18
100
AcDbEntity
  8
MSL-115-S25-R-0
100
AcDbLine
 10
1211.315140753657
 20
981.7596277748696
 30
0.0
 11
1212.315140753658
 21
980.7596277748697
 31
0.0
  0
LINE
  5
2A42
330
18
100
AcDbEntity
  8
MSL-115-S25-R-0
100
AcDbLine
 10
1212.315140753658
 20
980.7596277748697
 30
0.0
 11
1215.815140753657
 21
980.7596277748697
 31
0.0
  0
LINE
  5
2A43
330
18
100
AcDbEntity
  8
MSL-115-S25-R-0
100
AcDbLine
 10
1210.890140753658
 20
990.7596277748696
 30
0.0
 11
1211.315140753658
 21
990.7596277748696
 31
0.0
  0
LINE
  5
2A44
330
18
100
AcDbEntity
  8
MSL-115-S25-R-0
100
AcDbLine
 10
1211.315140753658
 20
990.7596277748696
 30
0.0
 11
1210.815140753658
 21
990.7596277748696
 31
0.0
  0
LINE
  5
2A45
330
18
100
AcDbEntity
  8
MSL-115-S25-R-0
100
AcDbLine
 10
1229.890140753657
 20
972.6463791208177
 30
0.0
 11
1232.390140753657
 21
971.2030034478436
 31
0.0
  0
LINE
  5
2A46
330
18
100
AcDbEntity
  8
MSL-115-S25-R-0
100
AcDbLine
 10
1227.390140753657
 20
971.2030034478436
 30
0.0
 11
1229.890140753657
 21
972.6463791208177
 31
0.0
  0
CIRCLE
  5
2A47
330
18
100
AcDbEntity
  8
MSL-115-S25-R-0
100
AcDbCircle
 10
1229.890140753657
 20
969.7596277748701
 30
0.0
 40
5.0
  0
CIRCLE
  5
2A48
330
18
100
AcDbEntity
  8
MSL-115-S25-R-0
100
AcDbCircle
 10
1229.890140753657
 20
969.7596277748695
 30
0.0
 40
5.5
  0
LINE
  5
2A49
330
18
100
AcDbEntity
  8
MSL-115-S25-R-0
100
AcDbLine
 10
1232.390140753657
 20
968.3162521018955
 30
0.0
 11
1229.890140753657
 21
966.8728764289214
 31
0.0
  0
LINE
  5
2A4A
330
18
100
AcDbEntity
  8
MSL-115-S25-R-0
100
AcDbLine
 10
1229.890140753657
 20
966.8728764289214
 30
0.0
 11
1227.390140753657
 21
968.3162521018955
 31
0.0
  0
LINE
  5
2A4B
330
18
100
AcDbEntity
  8
MSL-115-S25-R-0
100
AcDbLine
 10
1227.390140753657
 20
968.3162521018955
 30
0.0
 11
1227.390140753657
 21
971.2030034478436
 31
0.0
  0
LINE
  5
2A4C
330
18
100
AcDbEntity
  8
MSL-115-S25-R-0
100
AcDbLine
 10
1232.390140753657
 20
971.2030034478436
 30
0.0
 11
1232.390140753657
 21
968.3162521018955
 31
0.0
  0
LINE
  5
2A4D
330
18
100
AcDbEntity
  8
MSL-115-S25-R-0
100
AcDbLine
 10
1174.124744585864
 20
999.7596277748701
 30
0.0
 11
1156.124744585864
 21
999.7596277748701
 31
0.0
  0
LINE
  5
2A4E
330
18
100
AcDbEntity
  8
MSL-115-S25-R-0
100
AcDbLine
 10
1156.124744585864
 20
1002.75962777487
 30
0.0
 11
1174.124744585864
 21
1002.75962777487
 31
0.0
  0
LINE
  5
2A4F
330
18
100
AcDbEntity
  8
MSL-115-S25-R-0
100
AcDbLine
 10
1174.124744585864
 20
1002.75962777487
 30
0.0
 11
1174.124744585864
 21
999.7596277748701
 31
0.0
  0
LINE
  5
2A50
330
18
100
AcDbEntity
  8
MSL-115-S25-R-0
100
AcDbLine
 10
1218.815140753658
 20
1002.759627774869
 30
0.0
 11
1215.815140753658
 21
999.7596277748696
 31
0.0
  0
LINE
  5
2A51
330
18
100
AcDbEntity
  8
MSL-115-S25-R-0
100
AcDbLine
 10
1212.315140753658
 20
1002.759627774869
 30
0.0
 11
1218.815140753658
 21
1002.759627774869
 31
0.0
  0
LINE
  5
2A52
330
18
100
AcDbEntity
  8
MSL-115-S25-R-0
100
AcDbLine
 10
1212.315140753658
 20
1002.759627774869
 30
0.0
 11
1211.315140753658
 21
1001.759627774869
 31
0.0
  0
LINE
  5
2A53
330
18
100
AcDbEntity
  8
MSL-115-S25-R-0
100
AcDbLine
 10
1211.315140753658
 20
1003.259627774869
 30
0.0
 11
1210.815140753658
 21
1002.759627774869
 31
0.0
  0
LINE
  5
2A54
330
18
100
AcDbEntity
  8
MSL-115-S25-R-0
 48
2.0
100
AcDbLine
 10
1226.815140753658
 20
1005.259627774869
 30
0.0
 11
1239.815140753657
 21
1005.259627774869
 31
0.0
  0
LINE
  5
2A55
330
18
100
AcDbEntity
  8
MSL-115-S25-R-0
 48
2.0
100
AcDbLine
 10
1226.315140753658
 20
1004.759627774869
 30
0.0
 11
1240.315140753658
 21
1004.759627774869
 31
0.0
  0
LINE
  5
2A56
330
18
100
AcDbEntity
  8
MSL-115-S25-R-0
 48
2.0
100
AcDbLine
 10
1226.315140753658
 20
1003.259627774869
 30
0.0
 11
1226.315140753658
 21
1004.759627774869
 31
0.0
  0
LINE
  5
2A57
330
18
100
AcDbEntity
  8
MSL-115-S25-R-0
 48
2.0
100
AcDbLine
 10
1226.315140753658
 20
1004.759627774869
 30
0.0
 11
1226.815140753658
 21
1005.259627774869
 31
0.0
  0
LINE
  5
2A58
330
18
100
AcDbEntity
  8
MSL-115-S25-R-0
 48
2.0
100
AcDbLine
 10
1240.315140753658
 20
1004.759627774869
 30
0.0
 11
1240.315140753658
 21
1003.259627774869
 31
0.0
  0
LINE
  5
2A59
330
18
100
AcDbEntity
  8
MSL-115-S25-R-0
 48
2.0
100
AcDbLine
 10
1240.315140753658
 20
1004.759627774869
 30
0.0
 11
1239.815140753657
 21
1005.259627774869
 31
0.0
  0
ARC
  5
2A5A
330
18
100
AcDbEntity
  8
MSL-115-S25-R-5
100
AcDbCircle
 10
1310.134945907052
 20
911.939822621475
 30
0.0
 40
4.0
100
AcDbArc
 50
344.9999999999992
 51
284.9999999999949
  0
ARC
  5
2A5B
330
18
100
AcDbEntity
  8
MSL-115-S25-R-5
100
AcDbCircle
 10
1246.495335600263
 20
911.939822621475
 30
0.0
 40
4.0
100
AcDbArc
 50
344.9999999999992
 51
284.9999999999949
  0
LINE
  5
2A5C
330
18
100
AcDbEntity
  8
MSL-115-S25-R-0
100
AcDbLine
 10
1340.815140753657
 20
999.7596277748696
 30
0.0
 11
1340.815140753657
 21
888.7596277748697
 31
0.0
  0
CIRCLE
  5
2A5D
330
18
100
AcDbEntity
  8
MSL-115-S25-R-0
100
AcDbCircle
 10
1310.134945907052
 20
911.939822621475
 30
0.0
 40
3.399999999999999
  0
CIRCLE
  5
2A5E
330
18
100
AcDbEntity
  8
MSL-115-S25-R-0
100
AcDbCircle
 10
1246.495335600263
 20
911.939822621475
 30
0.0
 40
3.399999999999999
  0
LINE
  5
2A5F
330
18
100
AcDbEntity
  8
MSL-115-S25-R-0
100
AcDbLine
 10
1345.740140753657
 20
838.1177798929753
 30
0.0
 11
1327.740140753657
 21
838.1177798929753
 31
0.0
  0
LINE
  5
2A60
330
18
100
AcDbEntity
  8
MSL-115-S25-R-0
100
AcDbLine
 10
1327.740140753657
 20
841.1177798929752
 30
0.0
 11
1345.740140753657
 21
841.1177798929752
 31
0.0
  0
LINE
  5
2A61
330
18
100
AcDbEntity
  8
MSL-115-S25-R-0
100
AcDbLine
 10
1258.315140753658
 20
888.7596277748697
 30
0.0
 11
1258.315140753658
 21
888.2596277748696
 31
0.0
  0
CIRCLE
  5
2A62
330
18
100
AcDbEntity
  8
MSL-115-S25-R-0
100
AcDbCircle
 10
1249.390140753658
 20
898.7596277748696
 30
0.0
 40
5.5
  0
CIRCLE
  5
2A63
330
18
100
AcDbEntity
  8
MSL-115-S25-R-0
100
AcDbCircle
 10
1249.390140753658
 20
898.7596277748696
 30
0.0
 40
5.0
  0
LINE
  5
2A64
330
18
100
AcDbEntity
  8
MSL-115-S25-R-0
100
AcDbLine
 10
1250.833516426631
 20
896.2596277748696
 30
0.0
 11
1247.946765080683
 21
896.2596277748696
 31
0.0
  0
LINE
  5
2A65
330
18
100
AcDbEntity
  8
MSL-115-S25-R-0
100
AcDbLine
 10
1247.946765080683
 20
901.2596277748697
 30
0.0
 11
1250.833516426631
 21
901.2596277748697
 31
0.0
  0
LINE
  5
2A66
330
18
100
AcDbEntity
  8
MSL-115-S25-R-0
100
AcDbLine
 10
1246.503389407709
 20
898.7596277748696
 30
0.0
 11
1247.946765080683
 21
901.2596277748697
 31
0.0
  0
LINE
  5
2A67
330
18
100
AcDbEntity
  8
MSL-115-S25-R-0
100
AcDbLine
 10
1247.946765080683
 20
896.2596277748696
 30
0.0
 11
1246.503389407709
 21
898.7596277748696
 31
0.0
  0
LINE
  5
2A68
330
18
100
AcDbEntity
  8
MSL-115-S25-R-0
100
AcDbLine
 10
1252.276892099605
 20
898.7596277748696
 30
0.0
 11
1250.833516426631
 21
896.2596277748696
 31
0.0
  0
LINE
  5
2A69
330
18
100
AcDbEntity
  8
MSL-115-S25-R-0
100
AcDbLine
 10
1250.833516426631
 20
901.2596277748697
 30
0.0
 11
1252.276892099605
 21
898.7596277748696
 31
0.0
  0
LINE
  5
2A6A
330
18
100
AcDbEntity
  8
MSL-115-S25-R-0
100
AcDbLine
 10
1319.690140753658
 20
888.2596277748696
 30
0.0
 11
1316.690140753657
 21
888.2596277748696
 31
0.0
  0
LINE
  5
2A6C
330
18
100
AcDbEntity
  8
MSL-115-S25-R-0
100
AcDbLine
 10
1298.315140753658
 20
888.2596277748696
 30
0.0
 11
1316.690140753657
 21
888.2596277748696
 31
0.0
  0
LINE
  5
2A6D
330
18
100
AcDbEntity
  8
MSL-115-S25-R-0
100
AcDbLine
 10
1298.315140753658
 20
888.7596277748697
 30
0.0
 11
1298.315140753658
 21
888.2596277748696
 31
0.0
  0
LINE
  5
2A6E
330
18
100
AcDbEntity
  8
MSL-115-S25-R-0
100
AcDbLine
 10
1316.690140753657
 20
888.7596277748697
 30
0.0
 11
1316.690140753657
 21
888.2596277748696
 31
0.0
  0
CIRCLE
  5
2A6F
330
18
100
AcDbEntity
  8
MSL-115-S25-R-0
100
AcDbCircle
 10
1307.240140753658
 20
898.7596277748696
 30
0.0
 40
5.0
  0
CIRCLE
  5
2A70
330
18
100
AcDbEntity
  8
MSL-115-S25-R-0
100
AcDbCircle
 10
1307.240140753658
 20
898.7596277748696
 30
0.0
 40
5.5
  0
LINE
  5
2A71
330
18
100
AcDbEntity
  8
MSL-115-S25-R-0
100
AcDbLine
 10
1309.740140753657
 20
897.3162521018956
 30
0.0
 11
1307.240140753657
 21
895.8728764289215
 31
0.0
  0
LINE
  5
2A72
330
18
100
AcDbEntity
  8
MSL-115-S25-R-0
100
AcDbLine
 10
1304.740140753657
 20
897.3162521018956
 30
0.0
 11
1304.740140753657
 21
900.2030034478437
 31
0.0
  0
LINE
  5
2A73
330
18
100
AcDbEntity
  8
MSL-115-S25-R-0
100
AcDbLine
 10
1309.740140753657
 20
900.2030034478437
 30
0.0
 11
1309.740140753657
 21
897.3162521018956
 31
0.0
  0
LINE
  5
2A74
330
18
100
AcDbEntity
  8
MSL-115-S25-R-0
100
AcDbLine
 10
1307.240140753657
 20
901.6463791208177
 30
0.0
 11
1309.740140753657
 21
900.2030034478437
 31
0.0
  0
LINE
  5
2A75
330
18
100
AcDbEntity
  8
MSL-115-S25-R-0
100
AcDbLine
 10
1304.740140753657
 20
900.2030034478437
 30
0.0
 11
1307.240140753657
 21
901.6463791208177
 31
0.0
  0
LINE
  5
2A76
330
18
100
AcDbEntity
  8
MSL-115-S25-R-0
100
AcDbLine
 10
1307.240140753657
 20
895.8728764289215
 30
0.0
 11
1304.740140753657
 21
897.3162521018956
 31
0.0
  0
LINE
  5
2A77
330
18
100
AcDbEntity
  8
MSL-115-S25-R-7A
 48
2.0
100
AcDbLine
 10
1326.815022139483
 20
906.2436017942843
 30
0.0
 11
1326.815022139483
 21
883.5349519017011
 31
0.0
  0
ARC
  5
2A7B
330
18
100
AcDbEntity
  8
MSL-115-S25-R-0
100
AcDbCircle
 10
1321.616278753658
 20
888.4596277748698
 30
0.0
 40
0.2
100
AcDbArc
 50
270.0
 51
0.0
  0
LINE
  5
2A7C
330
18
100
AcDbEntity
  8
MSL-115-S25-R-0
100
AcDbLine
 10
1321.816278753658
 20
888.7596277748697
 30
0.0
 11
1321.816278753658
 21
888.4596277748695
 31
0.0
  0
LINE
  5
2A7D
330
18
100
AcDbEntity
  8
MSL-115-S25-R-0
100
AcDbLine
 10
1321.616278753658
 20
888.2596277748696
 30
0.0
 11
1319.690140753658
 21
888.2596277748696
 31
0.0
  0
LINE
  5
2A80
330
18
100
AcDbEntity
  8
MSL-115-S25-R-0
100
AcDbLine
 10
1336.790140753657
 20
888.2596277748696
 30
0.0
 11
1333.790140753658
 21
888.2596277748696
 31
0.0
  0
ARC
  5
2A82
330
18
100
AcDbEntity
  8
MSL-115-S25-R-0
100
AcDbCircle
 10
1332.014002753657
 20
888.4596277748698
 30
0.0
 40
0.2
100
AcDbArc
 50
180.0
 51
270.0
  0
LINE
  5
2A83
330
18
100
AcDbEntity
  8
MSL-115-S25-R-0
100
AcDbLine
 10
1331.814002753658
 20
888.4596277748695
 30
0.0
 11
1331.814002753658
 21
888.7596277748697
 31
0.0
  0
LINE
  5
2A84
330
18
100
AcDbEntity
  8
MSL-115-S25-R-0
100
AcDbLine
 10
1333.790140753658
 20
888.2596277748696
 30
0.0
 11
1332.014002753658
 21
888.2596277748696
 31
0.0
  0
LINE
  5
2A86
330
18
100
AcDbEntity
  8
MSL-115-S25-R-0
100
AcDbLine
 10
1336.790140753657
 20
888.7596277748697
 30
0.0
 11
1336.790140753657
 21
888.2596277748696
 31
0.0
  0
LINE
  5
2A87
330
18
100
AcDbEntity
  8
MSL-115-S25-R-0
100
AcDbLine
 10
1340.815140753657
 20
888.2596277748696
 30
0.0
 11
1340.815140753657
 21
888.7596277748697
 31
0.0
  0
LINE
  5
2A88
330
18
100
AcDbEntity
  8
MSL-115-S25-R-0
100
AcDbLine
 10
1336.790140753657
 20
888.2596277748696
 30
0.0
 11
1340.815140753657
 21
888.2596277748696
 31
0.0
  0
LINE
  5
2A99
330
18
100
AcDbEntity
  8
MSL-115-S25-R-0
100
AcDbLine
 10
1345.740140753657
 20
841.1177798929752
 30
0.0
 11
1345.740140753657
 21
838.1177798929753
 31
0.0
  0
LINE
  5
2A9A
330
18
100
AcDbEntity
  8
MSL-115-S25-R-0
100
AcDbLine
 10
1337.815140753658
 20
1002.759627774869
 30
0.0
 11
1344.315140753657
 21
1002.759627774869
 31
0.0
  0
LINE
  5
2A9B
330
18
100
AcDbEntity
  8
MSL-115-S25-R-0
100
AcDbLine
 10
1340.815140753657
 20
980.7596277748697
 30
0.0
 11
1344.315140753657
 21
980.7596277748697
 31
0.0
  0
LINE
  5
2A9C
330
18
100
AcDbEntity
  8
MSL-115-S25-R-0
100
AcDbLine
 10
1340.815140753657
 20
956.7596277748696
 30
0.0
 11
1345.740140753657
 21
956.7596277748696
 31
0.0
  0
LINE
  5
2A9D
330
18
100
AcDbEntity
  8
MSL-115-S25-R-0
100
AcDbLine
 10
1345.315140753658
 20
1003.259627774869
 30
0.0
 11
1290.815140753657
 21
1003.259627774869
 31
0.0
  0
LINE
  5
2A9E
330
18
100
AcDbEntity
  8
MSL-115-S25-R-7A
 48
2.0
100
AcDbLine
 10
1323.315140753658
 20
1007.259627774869
 30
0.0
 11
1323.315140753658
 21
988.7596277748697
 31
0.0
  0
ARC
  5
2A9F
330
18
100
AcDbEntity
  8
MSL-115-S25-R-0
100
AcDbCircle
 10
1278.315140753658
 20
943.7596277748701
 30
0.0
 40
12.5
100
AcDbArc
 50
281.5369590328181
 51
348.4630409671834
  0
ARC
  5
2AA0
330
18
100
AcDbEntity
  8
MSL-115-S25-R-0
100
AcDbCircle
 10
1278.315140753658
 20
943.7596277748701
 30
0.0
 40
12.5
100
AcDbArc
 50
11.53695903281491
 51
78.46304096718185
  0
CIRCLE
  5
2AA1
330
18
100
AcDbEntity
  8
MSL-115-S25-R-0
100
AcDbCircle
 10
1278.315140753658
 20
943.7596277748696
 30
0.0
 40
20.0
  0
CIRCLE
  5
2AA2
330
18
100
AcDbEntity
  8
MSL-115-S25-R-0
100
AcDbCircle
 10
1278.315140753658
 20
943.7596277748696
 30
0.0
 40
27.5
  0
ARC
  5
2AA3
330
18
100
AcDbEntity
  8
MSL-115-S25-R-0
100
AcDbCircle
 10
1278.315140753658
 20
943.7596277748701
 30
0.0
 40
12.5
100
AcDbArc
 50
101.5369590328181
 51
168.463040967185
  0
CIRCLE
  5
2AA4
330
18
100
AcDbEntity
  8
MSL-115-S25-R-0
100
AcDbCircle
 10
1278.315140753658
 20
943.7596277748696
 30
0.0
 40
13.0
  0
LINE
  5
2AA5
330
18
100
AcDbEntity
  8
MSL-115-S25-R-0
100
AcDbLine
 10
1266.374035277195
 20
946.2596277748696
 30
0.0
 11
1267.815140753658
 21
946.2596277748696
 31
0.0
  0
ARC
  5
2AA6
330
18
100
AcDbEntity
  8
MSL-115-S25-R-0
100
AcDbCircle
 10
1278.315140753658
 20
943.7596277748701
 30
0.0
 40
12.5
100
AcDbArc
 50
191.5369590328165
 51
258.4630409671818
  0
LINE
  5
2AA7
330
18
100
AcDbEntity
  8
MSL-115-S25-R-0
100
AcDbLine
 10
1267.815140753658
 20
941.2596277748695
 30
0.0
 11
1266.374035277195
 21
941.2596277748695
 31
0.0
  0
LINE
  5
2AA8
330
18
100
AcDbEntity
  8
MSL-115-S25-R-0
100
AcDbLine
 10
1266.067692039742
 20
941.2596277748695
 30
0.0
 11
1266.374035277195
 21
941.2596277748695
 31
0.0
  0
LINE
  5
2AA9
330
18
100
AcDbEntity
  8
MSL-115-S25-R-0
100
AcDbLine
 10
1266.374035277195
 20
946.2596277748696
 30
0.0
 11
1266.067692039742
 21
946.2596277748696
 31
0.0
  0
LINE
  5
2AAA
330
18
100
AcDbEntity
  8
MSL-115-S25-R-0
100
AcDbLine
 10
1280.815140753658
 20
933.2596277748695
 30
0.0
 11
1280.815140753658
 21
931.8185222984073
 31
0.0
  0
LINE
  5
2AAB
330
18
100
AcDbEntity
  8
MSL-115-S25-R-0
100
AcDbLine
 10
1275.815140753658
 20
931.8185222984073
 30
0.0
 11
1275.815140753658
 21
933.2596277748695
 31
0.0
  0
CIRCLE
  5
2AAC
330
18
100
AcDbEntity
  8
MSL-115-S25-R-0
100
AcDbCircle
 10
1278.315140753658
 20
926.7596277748696
 30
0.0
 40
1.6
  0
LINE
  5
2AAD
330
18
100
AcDbEntity
  8
MSL-115-S25-R-0
100
AcDbLine
 10
1275.815140753658
 20
931.8185222984073
 30
0.0
 11
1275.815140753658
 21
931.512179060954
 31
0.0
  0
LINE
  5
2AAE
330
18
100
AcDbEntity
  8
MSL-115-S25-R-0
100
AcDbLine
 10
1280.815140753658
 20
931.512179060954
 30
0.0
 11
1280.815140753658
 21
931.8185222984073
 31
0.0
  0
LINE
  5
2AAF
330
18
100
AcDbEntity
  8
MSL-115-S25-R-0
100
AcDbLine
 10
1275.815140753658
 20
933.2596277748695
 30
0.0
 11
1280.815140753658
 21
933.2596277748695
 31
0.0
  0
ARC
  5
2AB0
330
18
100
AcDbEntity
  8
MSL-115-S25-R-5
100
AcDbCircle
 10
1278.315140753658
 20
943.7596277748701
 30
0.0
 40
6.958499999999999
100
AcDbArc
 50
344.9999999999992
 51
284.9999999999949
  0
CIRCLE
  5
2AB1
330
18
100
AcDbEntity
  8
MSL-115-S25-R-0
100
AcDbCircle
 10
1278.315140753658
 20
943.7596277748701
 30
0.0
 40
6.0
  0
CIRCLE
  5
2AB2
330
18
100
AcDbEntity
  8
MSL-115-S25-R-0
100
AcDbCircle
 10
1278.315140753658
 20
943.7596277748701
 30
0.0
 40
7.099999999999999
  0
CIRCLE
  5
2AB3
330
18
100
AcDbEntity
  8
MSL-115-S25-R-0
100
AcDbCircle
 10
1278.315140753658
 20
943.7596277748701
 30
0.0
 40
7.5
  0
LINE
  5
2AB4
330
18
100
AcDbEntity
  8
MSL-115-S25-R-0
100
AcDbLine
 10
1267.815140753658
 20
946.2596277748696
 30
0.0
 11
1267.815140753658
 21
941.2596277748695
 31
0.0
  0
LINE
  5
2AB5
330
18
100
AcDbEntity
  8
MSL-115-S25-R-0
100
AcDbLine
 10
1288.815140753658
 20
941.2596277748695
 30
0.0
 11
1288.815140753658
 21
946.2596277748696
 31
0.0
  0
LINE
  5
2AB6
330
18
100
AcDbEntity
  8
MSL-115-S25-R-0
100
AcDbLine
 10
1290.25624623012
 20
941.2596277748695
 30
0.0
 11
1288.815140753658
 21
941.2596277748695
 31
0.0
  0
LINE
  5
2AB7
330
18
100
AcDbEntity
  8
MSL-115-S25-R-0
100
AcDbLine
 10
1290.25624623012
 20
941.2596277748695
 30
0.0
 11
1290.562589467573
 21
941.2596277748695
 31
0.0
  0
LINE
  5
2AB8
330
18
100
AcDbEntity
  8
MSL-115-S25-R-0
100
AcDbLine
 10
1288.815140753658
 20
946.2596277748696
 30
0.0
 11
1290.25624623012
 21
946.2596277748696
 31
0.0
  0
LINE
  5
2AB9
330
18
100
AcDbEntity
  8
MSL-115-S25-R-0
100
AcDbLine
 10
1290.562589467573
 20
946.2596277748696
 30
0.0
 11
1290.25624623012
 21
946.2596277748696
 31
0.0
  0
ARC
  5
2ABA
330
18
100
AcDbEntity
  8
MSL-115-S25-R-5
100
AcDbCircle
 10
1246.495335600263
 20
975.5794329282647
 30
0.0
 40
4.0
100
AcDbArc
 50
344.9999999999992
 51
284.9999999999949
  0
CIRCLE
  5
2ABB
330
18
100
AcDbEntity
  8
MSL-115-S25-R-0
100
AcDbCircle
 10
1246.495335600263
 20
975.5794329282647
 30
0.0
 40
3.399999999999999
  0
LINE
  5
2ABC
330
18
100
AcDbEntity
  8
MSL-115-S25-R-0
100
AcDbLine
 10
1280.815140753658
 20
954.2596277748696
 30
0.0
 11
1275.815140753658
 21
954.2596277748696
 31
0.0
  0
CIRCLE
  5
2ABD
330
18
100
AcDbEntity
  8
MSL-115-S25-R-0
100
AcDbCircle
 10
1278.315140753658
 20
960.7596277748696
 30
0.0
 40
1.6
  0
LINE
  5
2ABE
330
18
100
AcDbEntity
  8
MSL-115-S25-R-0
100
AcDbLine
 10
1275.815140753658
 20
954.2596277748696
 30
0.0
 11
1275.815140753658
 21
955.700733251332
 31
0.0
  0
LINE
  5
2ABF
330
18
100
AcDbEntity
  8
MSL-115-S25-R-0
100
AcDbLine
 10
1275.815140753658
 20
956.0070764887852
 30
0.0
 11
1275.815140753658
 21
955.700733251332
 31
0.0
  0
LINE
  5
2AC0
330
18
100
AcDbEntity
  8
MSL-115-S25-R-0
100
AcDbLine
 10
1280.815140753658
 20
955.700733251332
 30
0.0
 11
1280.815140753658
 21
954.2596277748696
 31
0.0
  0
LINE
  5
2AC1
330
18
100
AcDbEntity
  8
MSL-115-S25-R-0
100
AcDbLine
 10
1280.815140753658
 20
955.700733251332
 30
0.0
 11
1280.815140753658
 21
956.0070764887852
 31
0.0
  0
ARC
  5
2AC2
330
18
100
AcDbEntity
  8
MSL-115-S25-R-5
100
AcDbCircle
 10
1310.134945907052
 20
975.5794329282647
 30
0.0
 40
4.0
100
AcDbArc
 50
344.9999999999992
 51
284.9999999999949
  0
CIRCLE
  5
2AC3
330
18
100
AcDbEntity
  8
MSL-115-S25-R-0
100
AcDbCircle
 10
1310.134945907052
 20
975.5794329282647
 30
0.0
 40
3.399999999999999
  0
LINE
  5
2AC4
330
18
100
AcDbEntity
  8
MSL-115-S25-R-0
100
AcDbLine
 10
1323.85338940771
 20
969.7596277748695
 30
0.0
 11
1325.296765080683
 21
972.2596277748696
 31
0.0
  0
CIRCLE
  5
2AC5
330
18
100
AcDbEntity
  8
MSL-115-S25-R-0
100
AcDbCircle
 10
1326.740140753658
 20
969.7596277748695
 30
0.0
 40
5.0
  0
LINE
  5
2AC6
330
18
100
AcDbEntity
  8
MSL-115-S25-R-0
100
AcDbLine
 10
1328.183516426631
 20
972.2596277748696
 30
0.0
 11
1329.626892099605
 21
969.7596277748695
 31
0.0
  0
CIRCLE
  5
2AC7
330
18
100
AcDbEntity
  8
MSL-115-S25-R-0
100
AcDbCircle
 10
1326.740140753658
 20
969.7596277748695
 30
0.0
 40
5.5
  0
LINE
  5
2AC8
330
18
100
AcDbEntity
  8
MSL-115-S25-R-0
100
AcDbLine
 10
1329.626892099605
 20
969.7596277748695
 30
0.0
 11
1328.183516426631
 21
967.2596277748695
 31
0.0
  0
LINE
  5
2AC9
330
18
100
AcDbEntity
  8
MSL-115-S25-R-0
100
AcDbLine
 10
1328.183516426631
 20
967.2596277748695
 30
0.0
 11
1325.296765080683
 21
967.2596277748695
 31
0.0
  0
LINE
  5
2ACA
330
18
100
AcDbEntity
  8
MSL-115-S25-R-0
100
AcDbLine
 10
1325.296765080683
 20
967.2596277748695
 30
0.0
 11
1323.85338940771
 21
969.7596277748695
 31
0.0
  0
LINE
  5
2ACB
330
18
100
AcDbEntity
  8
MSL-115-S25-R-0
100
AcDbLine
 10
1325.296765080683
 20
972.2596277748696
 30
0.0
 11
1328.183516426631
 21
972.2596277748696
 31
0.0
  0
LINE
  5
2ACC
330
18
100
AcDbEntity
  8
MSL-115-S25-R-0
100
AcDbLine
 10
1265.815140753658
 20
1002.759627774869
 30
0.0
 11
1265.815140753658
 21
1003.259627774869
 31
0.0
  0
LINE
  5
2ACD
330
18
100
AcDbEntity
  8
MSL-115-S25-R-0
100
AcDbLine
 10
1290.815140753657
 20
1003.259627774869
 30
0.0
 11
1290.815140753657
 21
1002.759627774869
 31
0.0
  0
LINE
  5
2AD2
330
18
100
AcDbEntity
  8
MSL-115-S25-R-0
100
AcDbLine
 10
1340.815140753657
 20
999.7596277748696
 30
0.0
 11
1337.815140753658
 21
1002.759627774869
 31
0.0
  0
LINE
  5
2AD5
330
18
100
AcDbEntity
  8
MSL-115-S25-R-0
100
AcDbLine
 10
1345.315140753658
 20
1001.759627774869
 30
0.0
 11
1345.315140753658
 21
981.7596277748696
 31
0.0
  0
LINE
  5
2AD6
330
18
100
AcDbEntity
  8
MSL-115-S25-R-0
100
AcDbLine
 10
1345.815140753658
 20
1002.759627774869
 30
0.0
 11
1345.815140753658
 21
990.7596277748696
 31
0.0
  0
LINE
  5
2AD7
330
18
100
AcDbEntity
  8
MSL-115-S25-R-0
100
AcDbLine
 10
1345.740140753657
 20
956.7596277748696
 30
0.0
 11
1345.740140753657
 21
990.7596277748696
 31
0.0
  0
LINE
  5
2AD8
330
18
100
AcDbEntity
  8
MSL-115-S25-R-0
100
AcDbLine
 10
1344.315140753657
 20
980.7596277748697
 30
0.0
 11
1345.315140753658
 21
981.7596277748696
 31
0.0
  0
LINE
  5
2AD9
330
18
100
AcDbEntity
  8
MSL-115-S25-R-0
100
AcDbLine
 10
1345.315140753658
 20
990.7596277748696
 30
0.0
 11
1345.740140753657
 21
990.7596277748696
 31
0.0
  0
LINE
  5
2ADA
330
18
100
AcDbEntity
  8
MSL-115-S25-R-0
100
AcDbLine
 10
1345.815140753658
 20
990.7596277748696
 30
0.0
 11
1345.315140753658
 21
990.7596277748696
 31
0.0
  0
LINE
  5
2ADB
330
18
100
AcDbEntity
  8
MSL-115-S25-R-0
100
AcDbLine
 10
1345.315140753658
 20
1001.759627774869
 30
0.0
 11
1344.315140753657
 21
1002.759627774869
 31
0.0
  0
LINE
  5
2ADC
330
18
100
AcDbEntity
  8
MSL-115-S25-R-0
100
AcDbLine
 10
1345.815140753658
 20
1002.759627774869
 30
0.0
 11
1345.315140753658
 21
1003.259627774869
 31
0.0
  0
LINE
  5
2CD8
330
18
100
AcDbEntity
  8
MSL-115-S25-R-7A
100
AcDbLine
 10
1278.315140753658
 20
943.7596277748701
 30
0.0
 11
1278.315140753658
 21
895.7596277748701
 31
0.0
1001
GENIUS_GENOREF_13
1005
2CDC
  0
LINE
  5
2CD9
330
18
100
AcDbEntity
  8
MSL-115-S25-R-7A
100
AcDbLine
 10
1278.315140753658
 20
943.7596277748701
 30
0.0
 11
1326.315140753658
 21
943.7596277748701
 31
0.0
1001
GENIUS_GENOREF_13
1005
2CDC
  0
LINE
  5
2CDA
330
18
100
AcDbEntity
  8
MSL-115-S25-R-7A
100
AcDbLine
 10
1278.315140753658
 20
943.7596277748701
 30
0.0
 11
1278.315140753658
 21
991.75962777487
 31
0.0
1001
GENIUS_GENOREF_13
1005
2CDC
  0
LINE
  5
2CDB
330
18
100
AcDbEntity
  8
MSL-115-S25-R-7A
100
AcDbLine
 10
1278.315140753658
 20
943.7596277748701
 30
0.0
 11
1230.315140753658
 21
943.7596277748701
 31
0.0
1001
GENIUS_GENOREF_13
1005
2CDC
  0
LINE
  5
31B9
330
18
100
AcDbEntity
  8
MSL-115-S25-R-7A
100
AcDbLine
 10
1314.202037611669
 20
979.6465246328814
 30
0.0
 11
1242.428243895647
 21
907.8727309168481
 31
0.0
1001
GENIUS_GENODEF_13
1002
{
1000
HIER
1070
     0
1002
}
1002
{
1000
MANEDIT
1070
     0
1002
}
1002
{
1000
NOSEL
1070
     0
1002
}
1002
{
1000
BEHIND
1070
     0
1002
}
1002
{
1000
OTHER
1070
     0
1002
}
1002
{
1000
REACTOR
1002
}
1001
GENIUS_GENOBJ-N-CEN_13
1002
{
1000
OWNER
1000
GEN
1002
}
  0
LINE
  5
31C6
330
18
100
AcDbEntity
  8
MSL-115-S25-R-7A
100
AcDbLine
 10
1242.428243895641
 20
979.6465246328757
 30
0.0
 11
1314.202037611674
 21
907.872730916854
 31
0.0
1001
GENIUS_GENOBJ-N-CEN_13
1002
{
1000
OWNER
1000
GEN
1002
}
1001
GENIUS_GENODEF_13
1002
{
1000
HIER
1070
     0
1002
}
1002
{
1000
MANEDIT
1070
     0
1002
}
1002
{
1000
NOSEL
1070
     0
1002
}
1002
{
1000
BEHIND
1070
     0
1002
}
1002
{
1000
OTHER
1070
     0
1002
}
1002
{
1000
REACTOR
1002
}
  0
LINE
  5
3B96
330
18
100
AcDbEntity
  8
MSL-115-S25-R-7A
 48
2.0
100
AcDbLine
 10
1008.240140753657
 20
823.6177798929752
 30
0.0
 11
1200.240140753657
 21
823.6177798929748
 31
0.0
  0
CIRCLE
  5
3B97
330
18
100
AcDbEntity
  8
MSL-115-S25-R-0
 48
2.0
100
AcDbCircle
 10
1014.240140753658
 20
823.6177798929752
 30
0.0
 40
3.399999999999999
  0
ARC
  5
3B98
330
18
100
AcDbEntity
  8
MSL-115-S25-R-5
 48
2.0
100
AcDbCircle
 10
1014.240140753658
 20
823.6177798929752
 30
0.0
 40
4.0
100
AcDbArc
 50
165.0000000000004
 51
104.9999999999999
  0
LINE
  5
3B99
330
18
100
AcDbEntity
  8
MSL-115-S25-R-7A
 48
2.0
100
AcDbLine
 10
1014.240140753657
 20
817.6177798929751
 30
0.0
 11
1014.240140753657
 21
829.617779892975
 31
0.0
  0
CIRCLE
  5
3B9A
330
18
100
AcDbEntity
  8
MSL-115-S25-R-0
 48
2.0
100
AcDbCircle
 10
1074.240140753657
 20
823.6177798929753
 30
0.0
 40
6.5
  0
CIRCLE
  5
3B9C
330
18
100
AcDbEntity
  8
MSL-115-S25-R-0
 48
2.0
100
AcDbCircle
 10
1134.240140753657
 20
823.6177798929752
 30
0.0
 40
3.399999999999999
  0
CIRCLE
  5
3B9D
330
18
100
AcDbEntity
  8
MSL-115-S25-R-0
 48
2.0
100
AcDbCircle
 10
1104.240140753657
 20
823.6177798929752
 30
0.0
 40
3.399999999999999
  0
CIRCLE
  5
3B9E
330
18
100
AcDbEntity
  8
MSL-115-S25-R-0
 48
2.0
100
AcDbCircle
 10
1044.240140753657
 20
823.6177798929752
 30
0.0
 40
3.399999999999999
  0
CIRCLE
  5
3B9F
330
18
100
AcDbEntity
  8
MSL-115-S25-R-0
 48
2.0
100
AcDbCircle
 10
1074.240140753657
 20
823.6177798929752
 30
0.0
 40
3.399999999999999
  0
CIRCLE
  5
3BA0
330
18
100
AcDbEntity
  8
MSL-115-S25-R-0
 48
2.0
100
AcDbCircle
 10
1164.240140753657
 20
823.6177798929752
 30
0.0
 40
3.399999999999999
  0
CIRCLE
  5
3BA1
330
18
100
AcDbEntity
  8
MSL-115-S25-R-0
 48
2.0
100
AcDbCircle
 10
1134.240140753657
 20
823.6177798929752
 30
0.0
 40
6.5
  0
ARC
  5
3BA2
330
18
100
AcDbEntity
  8
MSL-115-S25-R-5
 48
2.0
100
AcDbCircle
 10
1104.240140753657
 20
823.6177798929752
 30
0.0
 40
4.0
100
AcDbArc
 50
165.0000000000004
 51
105.0000000000003
  0
ARC
  5
3BA3
330
18
100
AcDbEntity
  8
MSL-115-S25-R-5
 48
2.0
100
AcDbCircle
 10
1044.240140753657
 20
823.6177798929752
 30
0.0
 40
4.0
100
AcDbArc
 50
165.0000000000004
 51
105.0000000000003
  0
ARC
  5
3BA4
330
18
100
AcDbEntity
  8
MSL-115-S25-R-5
 48
2.0
100
AcDbCircle
 10
1074.240140753657
 20
823.6177798929752
 30
0.0
 40
4.0
100
AcDbArc
 50
165.0000000000006
 51
105.0000000000003
  0
ARC
  5
3BA5
330
18
100
AcDbEntity
  8
MSL-115-S25-R-5
 48
2.0
100
AcDbCircle
 10
1164.240140753657
 20
823.6177798929752
 30
0.0
 40
4.0
100
AcDbArc
 50
165.0000000000019
 51
105.0000000000003
  0
ARC
  5
3BA6
330
18
100
AcDbEntity
  8
MSL-115-S25-R-5
 48
2.0
100
AcDbCircle
 10
1134.240140753657
 20
823.6177798929752
 30
0.0
 40
4.0
100
AcDbArc
 50
165.0000000000022
 51
105.0000000000003
  0
LINE
  5
3BA7
330
18
100
AcDbEntity
  8
MSL-115-S25-R-7A
 48
2.0
100
AcDbLine
 10
1044.240140753657
 20
817.6177798929751
 30
0.0
 11
1044.240140753657
 21
829.617779892975
 31
0.0
  0
LINE
  5
3BA8
330
18
100
AcDbEntity
  8
MSL-115-S25-R-7A
 48
2.0
100
AcDbLine
 10
1074.240140753657
 20
817.6177798929751
 30
0.0
 11
1074.240140753657
 21
829.617779892975
 31
0.0
  0
LINE
  5
3BA9
330
18
100
AcDbEntity
  8
MSL-115-S25-R-7A
 48
2.0
100
AcDbLine
 10
1104.240140753657
 20
817.6177798929749
 30
0.0
 11
1104.240140753657
 21
829.6177798929749
 31
0.0
  0
LINE
  5
3BAA
330
18
100
AcDbEntity
  8
MSL-115-S25-R-7A
 48
2.0
100
AcDbLine
 10
1134.240140753657
 20
815.6177798929748
 30
0.0
 11
1134.240140753657
 21
831.6177798929748
 31
0.0
  0
LINE
  5
3BAB
330
18
100
AcDbEntity
  8
MSL-115-S25-R-7A
 48
2.0
100
AcDbLine
 10
1164.240140753657
 20
817.6177798929749
 30
0.0
 11
1164.240140753657
 21
829.6177798929749
 31
0.0
  0
CIRCLE
  5
3BAC
330
18
100
AcDbEntity
  8
MSL-115-S25-R-0
 48
2.0
100
AcDbCircle
 10
1194.240140753657
 20
823.6177798929752
 30
0.0
 40
3.399999999999999
  0
ARC
  5
3BAD
330
18
100
AcDbEntity
  8
MSL-115-S25-R-5
 48
2.0
100
AcDbCircle
 10
1194.240140753657
 20
823.6177798929752
 30
0.0
 40
4.0
100
AcDbArc
 50
165.0000000000019
 51
104.9999999999987
  0
LINE
  5
3BAE
330
18
100
AcDbEntity
  8
MSL-115-S25-R-7A
 48
2.0
100
AcDbLine
 10
1194.240140753657
 20
817.6177798929749
 30
0.0
 11
1194.240140753657
 21
829.6177798929749
 31
0.0
  0
LINE
  5
3BB0
330
18
100
AcDbEntity
  8
MSL-115-S25-R-0
 48
2.0
100
AcDbLine
 10
994.2401407536577
 20
766.1177798929753
 30
0.0
 11
1214.240140753657
 21
766.1177798929751
 31
0.0
  0
LINE
  5
3BB4
330
18
100
AcDbEntity
  8
MSL-115-S25-R-7A
 48
2.0
100
AcDbLine
 10
1008.240140753657
 20
733.6177798929751
 30
0.0
 11
1200.240140753657
 21
733.6177798929749
 31
0.0
  0
CIRCLE
  5
3BB5
330
18
100
AcDbEntity
  8
MSL-115-S25-R-0
 48
2.0
100
AcDbCircle
 10
1014.240140753657
 20
733.6177798929751
 30
0.0
 40
3.399999999999999
  0
ARC
  5
3BB6
330
18
100
AcDbEntity
  8
MSL-115-S25-R-5
 48
2.0
100
AcDbCircle
 10
1014.240140753657
 20
733.6177798929751
 30
0.0
 40
4.0
100
AcDbArc
 50
165.0000000000004
 51
104.9999999999999
  0
LINE
  5
3BB7
330
18
100
AcDbEntity
  8
MSL-115-S25-R-7A
 48
2.0
100
AcDbLine
 10
1014.240140753657
 20
727.6177798929751
 30
0.0
 11
1014.240140753657
 21
739.6177798929751
 31
0.0
  0
CIRCLE
  5
3BBA
330
18
100
AcDbEntity
  8
MSL-115-S25-R-0
 48
2.0
100
AcDbCircle
 10
1104.240140753657
 20
733.6177798929749
 30
0.0
 40
3.399999999999999
  0
ARC
  5
3BBB
330
18
100
AcDbEntity
  8
MSL-115-S25-R-5
 48
2.0
100
AcDbCircle
 10
1104.240140753657
 20
733.6177798929749
 30
0.0
 40
4.0
100
AcDbArc
 50
165.0000000000004
 51
104.9999999999995
  0
CIRCLE
  5
3BBC
330
18
100
AcDbEntity
  8
MSL-115-S25-R-0
 48
2.0
100
AcDbCircle
 10
1044.240140753657
 20
733.6177798929751
 30
0.0
 40
3.399999999999999
  0
ARC
  5
3BBD
330
18
100
AcDbEntity
  8
MSL-115-S25-R-5
 48
2.0
100
AcDbCircle
 10
1044.240140753657
 20
733.6177798929751
 30
0.0
 40
4.0
100
AcDbArc
 50
165.0000000000004
 51
105.0000000000003
  0
LINE
  5
3BBE
330
18
100
AcDbEntity
  8
MSL-115-S25-R-7A
 48
2.0
100
AcDbLine
 10
1044.240140753657
 20
727.6177798929751
 30
0.0
 11
1044.240140753657
 21
739.6177798929751
 31
0.0
  0
LINE
  5
3BBF
330
18
100
AcDbEntity
  8
MSL-115-S25-R-7A
 48
2.0
100
AcDbLine
 10
1074.240140753657
 20
724.6177798929751
 30
0.0
 11
1074.240140753657
 21
740.6177798929751
 31
0.0
  0
CIRCLE
  5
3BC0
330
18
100
AcDbEntity
  8
MSL-115-S25-R-0
 48
2.0
100
AcDbCircle
 10
1074.240140753657
 20
733.6177798929751
 30
0.0
 40
3.399999999999999
  0
CIRCLE
  5
3BC1
330
18
100
AcDbEntity
  8
MSL-115-S25-R-0
 48
2.0
100
AcDbCircle
 10
1074.240140753657
 20
733.6177798929751
 30
0.0
 40
6.0
  0
ARC
  5
3BC2
330
18
100
AcDbEntity
  8
MSL-115-S25-R-5
 48
2.0
100
AcDbCircle
 10
1074.240140753657
 20
733.6177798929751
 30
0.0
 40
4.0
100
AcDbArc
 50
165.0000000000022
 51
105.0000000000003
  0
LINE
  5
3BC3
330
18
100
AcDbEntity
  8
MSL-115-S25-R-7A
 48
2.0
100
AcDbLine
 10
1104.240140753657
 20
727.6177798929749
 30
0.0
 11
1104.240140753657
 21
739.6177798929748
 31
0.0
  0
CIRCLE
  5
3BC4
330
18
100
AcDbEntity
  8
MSL-115-S25-R-0
 48
2.0
100
AcDbCircle
 10
1134.240140753657
 20
733.6177798929751
 30
0.0
 40
6.5
  0
CIRCLE
  5
3BC5
330
18
100
AcDbEntity
  8
MSL-115-S25-R-0
 48
2.0
100
AcDbCircle
 10
1134.240140753657
 20
733.6177798929749
 30
0.0
 40
3.399999999999999
  0
ARC
  5
3BC6
330
18
100
AcDbEntity
  8
MSL-115-S25-R-5
 48
2.0
100
AcDbCircle
 10
1134.240140753657
 20
733.6177798929749
 30
0.0
 40
4.0
100
AcDbArc
 50
165.0000000000006
 51
105.0000000000003
  0
LINE
  5
3BC7
330
18
100
AcDbEntity
  8
MSL-115-S25-R-7A
 48
2.0
100
AcDbLine
 10
1134.240140753657
 20
727.6177798929749
 30
0.0
 11
1134.240140753657
 21
739.6177798929748
 31
0.0
  0
CIRCLE
  5
3BC8
330
18
100
AcDbEntity
  8
MSL-115-S25-R-0
 48
2.0
100
AcDbCircle
 10
1164.240140753657
 20
733.6177798929749
 30
0.0
 40
3.399999999999999
  0
ARC
  5
3BC9
330
18
100
AcDbEntity
  8
MSL-115-S25-R-5
 48
2.0
100
AcDbCircle
 10
1164.240140753657
 20
733.6177798929749
 30
0.0
 40
4.0
100
AcDbArc
 50
165.0000000000004
 51
105.0000000000003
  0
LINE
  5
3BCA
330
18
100
AcDbEntity
  8
MSL-115-S25-R-7A
 48
2.0
100
AcDbLine
 10
1164.240140753657
 20
727.6177798929749
 30
0.0
 11
1164.240140753657
 21
739.6177798929748
 31
0.0
  0
CIRCLE
  5
3BCB
330
18
100
AcDbEntity
  8
MSL-115-S25-R-0
 48
2.0
100
AcDbCircle
 10
1194.240140753657
 20
733.6177798929749
 30
0.0
 40
3.399999999999999
  0
ARC
  5
3BCC
330
18
100
AcDbEntity
  8
MSL-115-S25-R-5
 48
2.0
100
AcDbCircle
 10
1194.240140753657
 20
733.6177798929749
 30
0.0
 40
4.0
100
AcDbArc
 50
165.0000000000004
 51
104.9999999999987
  0
LINE
  5
3BCD
330
18
100
AcDbEntity
  8
MSL-115-S25-R-7A
 48
2.0
100
AcDbLine
 10
1194.240140753657
 20
727.6177798929749
 30
0.0
 11
1194.240140753657
 21
739.6177798929748
 31
0.0
  0
LINE
  5
4325
330
18
100
AcDbEntity
  8
MSL-115-S25-R-3A
 48
2.0
100
AcDbLine
 10
1234.890140753658
 20
900.8049587748699
 30
0.0
 11
1230.655857753657
 21
900.8049587748699
 31
0.0
  0
LINE
  5
4329
330
18
100
AcDbEntity
  8
MSL-115-S25-R-3A
 48
2.0
100
AcDbLine
 10
1223.257700109895
 20
900.7463801311072
 30
0.0
 11
1219.82485739742
 21
897.3135374186325
 31
0.0
  0
LINE
  5
432A
330
18
100
AcDbEntity
  8
MSL-115-S25-R-3A
 48
2.0
100
AcDbLine
 10
1224.890140753657
 20
900.8049587748699
 30
0.0
 11
1223.399121466132
 21
900.8049587748699
 31
0.0
  0
LINE
  5
432B
330
18
100
AcDbEntity
  8
MSL-115-S25-R-3A
 48
2.0
100
AcDbLine
 10
1228.975647660833
 20
900.8049587748699
 30
0.0
 11
1224.890140753657
 21
900.8049587748699
 31
0.0
  0
LINE
  5
432C
330
18
100
AcDbEntity
  8
MSL-115-S25-R-3A
 48
2.0
100
AcDbLine
 10
1229.075647656348
 20
900.8317536915241
 30
0.0
 11
1229.715278758148
 21
901.2010448582193
 31
0.0
  0
ARC
  5
432D
330
18
100
AcDbEntity
  8
MSL-115-S25-R-3A
 48
2.0
100
AcDbCircle
 10
1228.975647660646
 20
901.0049587759525
 30
0.0
 40
0.2000000010826334
100
AcDbArc
 50
270.0000000533152
 51
299.9999984074325
  0
LINE
  5
432E
330
18
100
AcDbEntity
  8
MSL-115-S25-R-3A
 48
2.0
100
AcDbLine
 10
1229.915167624374
 20
901.2011088494007
 30
0.0
 11
1230.555968882941
 21
900.8316897003386
 31
0.0
  0
ARC
  5
432F
330
18
100
AcDbEntity
  8
MSL-115-S25-R-3A
 48
2.0
100
AcDbCircle
 10
1229.815278753657
 20
901.0278397748697
 30
0.0
 40
0.1999999483524664
100
AcDbArc
 50
60.03673740780758
 51
119.9999985145627
  0
ARC
  5
4330
330
18
100
AcDbEntity
  8
MSL-115-S25-R-3A
 48
2.0
100
AcDbCircle
 10
1230.65585775366
 20
901.0049587748758
 30
0.0
 40
0.1999999483587815
100
AcDbArc
 50
240.0367374079436
 51
269.999999999316
  0
ARC
  5
4331
330
18
100
AcDbEntity
  8
MSL-115-S25-R-3A
 48
2.0
100
AcDbCircle
 10
1224.616278753657
 20
892.0593487748696
 30
0.0
 40
0.2
100
AcDbArc
 50
0.0
 51
89.99999999999998
  0
LINE
  5
4332
330
18
100
AcDbEntity
  8
MSL-115-S25-R-3A
 48
2.0
100
AcDbLine
 10
1219.966278753658
 20
892.2593487748697
 30
0.0
 11
1224.616278753658
 21
892.2593487748697
 31
0.0
  0
ARC
  5
4333
330
18
100
AcDbEntity
  8
MSL-115-S25-R-3A
 48
2.0
100
AcDbCircle
 10
1219.966278753658
 20
892.4593487748698
 30
0.0
 40
0.2
100
AcDbArc
 50
180.0
 51
270.0
  0
LINE
  5
4334
330
18
100
AcDbEntity
  8
MSL-115-S25-R-3A
 48
2.0
100
AcDbLine
 10
1219.766278753658
 20
897.172116062395
 30
0.0
 11
1219.766278753658
 21
892.4593487748696
 31
0.0
  0
ARC
  5
4335
330
18
100
AcDbEntity
  8
MSL-115-S25-R-3A
 48
2.0
100
AcDbCircle
 10
1219.966278753658
 20
897.1721160623951
 30
0.0
 40
0.2
100
AcDbArc
 50
134.9999999999884
 51
180.0
  0
ARC
  5
4336
330
18
100
AcDbEntity
  8
MSL-115-S25-R-3A
 48
2.0
100
AcDbCircle
 10
1223.399121466132
 20
900.6049587748698
 30
0.0
 40
0.2
100
AcDbArc
 50
89.99999999999998
 51
134.9999999999884
  0
LINE
  5
4337
330
18
100
AcDbEntity
  8
MSL-115-S25-R-3A
 48
2.0
100
AcDbLine
 10
1224.816278753658
 20
892.0593487748696
 30
0.0
 11
1224.816278753658
 21
888.4596277748697
 31
0.0
  0
LINE
  5
433F
330
18
100
AcDbEntity
  8
MSL-115-S25-R-3A
 48
2.0
100
AcDbLine
 10
1236.231160041183
 20
900.8049587748699
 30
0.0
 11
1234.890140753658
 21
900.8049587748699
 31
0.0
  0
LINE
  5
4340
330
18
100
AcDbEntity
  8
MSL-115-S25-R-3A
 48
2.0
100
AcDbLine
 10
1239.805424109895
 20
897.3135374186325
 30
0.0
 11
1236.37258139742
 21
900.7463801311072
 31
0.0
  0
LINE
  5
4341
330
18
100
AcDbEntity
  8
MSL-115-S25-R-3A
 48
2.0
100
AcDbLine
 10
1239.864002753657
 20
892.4599067748697
 30
0.0
 11
1239.864002753657
 21
897.172116062395
 31
0.0
  0
ARC
  5
4342
330
18
100
AcDbEntity
  8
MSL-115-S25-R-3A
 48
2.0
100
AcDbCircle
 10
1239.664002753658
 20
892.4599067748697
 30
0.0
 40
0.2
100
AcDbArc
 50
270.0
 51
0.0
  0
LINE
  5
4343
330
18
100
AcDbEntity
  8
MSL-115-S25-R-3A
 48
2.0
100
AcDbLine
 10
1235.014002753658
 20
892.2599067748697
 30
0.0
 11
1239.664002753657
 21
892.2599067748697
 31
0.0
  0
ARC
  5
4344
330
18
100
AcDbEntity
  8
MSL-115-S25-R-3A
 48
2.0
100
AcDbCircle
 10
1235.014002753658
 20
892.0599067748696
 30
0.0
 40
0.2
100
AcDbArc
 50
89.99999999999998
 51
180.0
  0
ARC
  5
4345
330
18
100
AcDbEntity
  8
MSL-115-S25-R-3A
 48
2.0
100
AcDbCircle
 10
1236.231160041183
 20
900.6049587748698
 30
0.0
 40
0.2
100
AcDbArc
 50
45.00000000004604
 51
89.99999999999998
  0
LINE
  5
4346
330
18
100
AcDbEntity
  8
MSL-115-S25-R-3A
 48
2.0
100
AcDbLine
 10
1234.814002753657
 20
888.4596277748697
 30
0.0
 11
1234.814002753657
 21
892.0599067748696
 31
0.0
  0
LINE
  5
4357
330
18
100
AcDbEntity
  8
MSL-115-S25-R-3A
 48
2.0
100
AcDbLine
 10
1336.805424109895
 20
897.3135374186325
 30
0.0
 11
1333.37258139742
 21
900.7463801311072
 31
0.0
  0
LINE
  5
4358
330
18
100
AcDbEntity
  8
MSL-115-S25-R-3A
 48
2.0
100
AcDbLine
 10
1332.014002753657
 20
892.2593487748697
 30
0.0
 11
1336.664002753657
 21
892.2593487748697
 31
0.0
  0
LINE
  5
4376
330
18
100
AcDbEntity
  8
MSL-115-S25-R-3A
 48
2.0
100
AcDbLine
 10
1320.257700109895
 20
900.7463801311072
 30
0.0
 11
1316.82485739742
 21
897.3135374186325
 31
0.0
  0
ARC
  5
4377
330
18
100
AcDbEntity
  8
MSL-115-S25-R-3A
 48
2.0
100
AcDbCircle
 10
1316.966278753658
 20
897.1721160623951
 30
0.0
 40
0.2
100
AcDbArc
 50
135.000000000046
 51
180.0
  0
ARC
  5
4378
330
18
100
AcDbEntity
  8
MSL-115-S25-R-3A
 48
2.0
100
AcDbCircle
 10
1320.399121466132
 20
900.6049587748696
 30
0.0
 40
0.2
100
AcDbArc
 50
89.99999999999998
 51
134.9999999999309
  0
LINE
  5
4379
330
18
100
AcDbEntity
  8
MSL-115-S25-R-3A
 48
2.0
100
AcDbLine
 10
1325.974423753657
 20
900.8049587748697
 30
0.0
 11
1320.399121466132
 21
900.8049587748697
 31
0.0
  0
LINE
  5
437A
330
18
100
AcDbEntity
  8
MSL-115-S25-R-3A
 48
2.0
100
AcDbLine
 10
1326.074312624374
 20
900.8316897003386
 30
0.0
 11
1326.71511388294
 21
901.2011088494002
 31
0.0
  0
ARC
  5
437B
330
18
100
AcDbEntity
  8
MSL-115-S25-R-3A
 48
2.0
100
AcDbCircle
 10
1325.974423753657
 20
901.0049587748719
 30
0.0
 40
0.1999999483547963
100
AcDbArc
 50
270.0000000000651
 51
299.9632625920808
  0
ARC
  5
437C
330
18
100
AcDbEntity
  8
MSL-115-S25-R-3A
 48
2.0
100
AcDbCircle
 10
1326.815002753657
 20
901.0278397748697
 30
0.0
 40
0.1999999483524572
100
AcDbArc
 50
60.00000148543723
 51
119.9632625923741
  0
ARC
  5
437D
330
18
100
AcDbEntity
  8
MSL-115-S25-R-3A
 48
2.0
100
AcDbCircle
 10
1327.654633846482
 20
901.0049587748707
 30
0.0
 40
0.2000000000008941
100
AcDbArc
 50
240.0000014855127
 51
269.9999999999348
  0
LINE
  5
437E
330
18
100
AcDbEntity
  8
MSL-115-S25-R-3A
 48
2.0
100
AcDbLine
 10
1326.915002749167
 20
901.2010448582191
 30
0.0
 11
1327.554633850973
 21
900.8317536915201
 31
0.0
  0
LINE
  5
437F
330
18
100
AcDbEntity
  8
MSL-115-S25-R-3A
 48
2.0
100
AcDbLine
 10
1331.740140753657
 20
900.8049587748697
 30
0.0
 11
1327.654633846482
 21
900.8049587748697
 31
0.0
  0
LINE
  5
4380
330
18
100
AcDbEntity
  8
MSL-115-S25-R-3A
 48
2.0
100
AcDbLine
 10
1333.231160041183
 20
900.8049587748697
 30
0.0
 11
1331.740140753657
 21
900.8049587748697
 31
0.0
  0
ARC
  5
4381
330
18
100
AcDbEntity
  8
MSL-115-S25-R-3A
 48
2.0
100
AcDbCircle
 10
1333.231160041183
 20
900.6049587748696
 30
0.0
 40
0.2
100
AcDbArc
 50
45.00000000006906
 51
89.99999999999998
  0
ARC
  5
4382
330
18
100
AcDbEntity
  8
MSL-115-S25-R-3A
 48
2.0
100
AcDbCircle
 10
1332.014002753657
 20
892.0593487748696
 30
0.0
 40
0.2
100
AcDbArc
 50
89.99999999999998
 51
180.0
  0
LINE
  5
4383
330
18
100
AcDbEntity
  8
MSL-115-S25-R-3A
 48
2.0
100
AcDbLine
 10
1331.814002753658
 20
888.4596277748697
 30
0.0
 11
1331.814002753658
 21
892.0593487748694
 31
0.0
  0
ARC
  5
4384
330
18
100
AcDbEntity
  8
MSL-115-S25-R-3A
 48
2.0
100
AcDbCircle
 10
1321.616278753657
 20
892.0599067748696
 30
0.0
 40
0.2
100
AcDbArc
 50
0.0
 51
89.99999999999998
  0
LINE
  5
4385
330
18
100
AcDbEntity
  8
MSL-115-S25-R-3A
 48
2.0
100
AcDbLine
 10
1321.816278753657
 20
892.0599067748696
 30
0.0
 11
1321.816278753657
 21
888.4596277748697
 31
0.0
  0
LINE
  5
4386
330
18
100
AcDbEntity
  8
MSL-115-S25-R-3A
 48
2.0
100
AcDbLine
 10
1316.966278753658
 20
892.2599067748697
 30
0.0
 11
1321.616278753658
 21
892.2599067748697
 31
0.0
  0
ARC
  5
4387
330
18
100
AcDbEntity
  8
MSL-115-S25-R-3A
 48
2.0
100
AcDbCircle
 10
1316.966278753658
 20
892.4599067748697
 30
0.0
 40
0.2
100
AcDbArc
 50
180.0
 51
270.0
  0
LINE
  5
4388
330
18
100
AcDbEntity
  8
MSL-115-S25-R-3A
 48
2.0
100
AcDbLine
 10
1316.766278753657
 20
897.172116062395
 30
0.0
 11
1316.766278753657
 21
892.4599067748697
 31
0.0
  0
ARC
  5
438C
330
18
100
AcDbEntity
  8
MSL-115-S25-R-3A
 48
2.0
100
AcDbCircle
 10
1336.664002753657
 20
897.1721160623951
 30
0.0
 40
0.2
100
AcDbArc
 50
0.0
 51
45.00000000002301
  0
LINE
  5
438D
330
18
100
AcDbEntity
  8
MSL-115-S25-R-3A
 48
2.0
100
AcDbLine
 10
1336.864002753658
 20
892.4593487748696
 30
0.0
 11
1336.864002753658
 21
897.172116062395
 31
0.0
  0
ARC
  5
438E
330
18
100
AcDbEntity
  8
MSL-115-S25-R-3A
 48
2.0
100
AcDbCircle
 10
1336.664002753657
 20
892.4593487748696
 30
0.0
 40
0.2
100
AcDbArc
 50
270.0
 51
0.0
  0
MTEXT
  5
4397
330
18
100
AcDbEntity
  8
MSL-115-S25-R-6
100
AcDbMText
 10
811.9815205178223
 20
913.9713510148158
 30
0.0
 40
7.0
 41
120.7772276400867
 71
     1
 72
     5
  1
MSL 115-S25-R-100
1001
ACAD
1000
MTEXTBEGIN
1070
    73
1070
     1
1070
    44
1040
1.0
1070
    74
1070
     0
1000
MTEXTEND
  0
LINE
  5
446F
330
18
100
AcDbEntity
  8
MSL-115-S25-R-0
 48
2.0
100
AcDbLine
 10
740.7645254673894
 20
815.6009664472421
 30
0.0
 11
740.7645254673894
 21
829.6009664472421
 31
0.0
  0
LINE
  5
4470
330
18
100
AcDbEntity
  8
MSL-115-S25-R-0
 48
2.0
100
AcDbLine
 10
740.2645254673895
 20
816.1009664472421
 30
0.0
 11
740.2645254673895
 21
829.1009664472422
 31
0.0
  0
LINE
  5
4471
330
18
100
AcDbEntity
  8
MSL-115-S25-R-0
 48
2.0
100
AcDbLine
 10
740.7645254673894
 20
815.6009664472421
 30
0.0
 11
740.2645254673895
 21
816.1009664472421
 31
0.0
  0
LINE
  5
4472
330
18
100
AcDbEntity
  8
MSL-115-S25-R-0
 48
2.0
100
AcDbLine
 10
742.2645254673895
 20
815.6009664472421
 30
0.0
 11
740.7645254673894
 21
815.6009664472421
 31
0.0
  0
LINE
  5
4473
330
18
100
AcDbEntity
  8
MSL-115-S25-R-0
 48
2.0
100
AcDbLine
 10
740.7645254673894
 20
829.6009664472421
 30
0.0
 11
740.2645254673895
 21
829.1009664472422
 31
0.0
  0
LINE
  5
4474
330
18
100
AcDbEntity
  8
MSL-115-S25-R-0
 48
2.0
100
AcDbLine
 10
740.7645254673894
 20
829.6009664472421
 30
0.0
 11
742.2645254673895
 21
829.6009664472421
 31
0.0
  0
LINE
  5
449E
330
18
100
AcDbEntity
  8
MSL-115-S25-R-0
 48
2.0
100
AcDbLine
 10
955.6025619124127
 20
1004.75962777487
 30
0.0
 11
969.6025619124124
 21
1004.75962777487
 31
0.0
  0
LINE
  5
449F
330
18
100
AcDbEntity
  8
MSL-115-S25-R-0
 48
2.0
100
AcDbLine
 10
956.1025619124126
 20
1005.25962777487
 30
0.0
 11
969.1025619124125
 21
1005.25962777487
 31
0.0
  0
LINE
  5
44A0
330
18
100
AcDbEntity
  8
MSL-115-S25-R-0
 48
2.0
100
AcDbLine
 10
955.6025619124127
 20
1004.75962777487
 30
0.0
 11
956.1025619124126
 21
1005.25962777487
 31
0.0
  0
LINE
  5
44A1
330
18
100
AcDbEntity
  8
MSL-115-S25-R-0
 48
2.0
100
AcDbLine
 10
955.6025619124126
 20
1003.25962777487
 30
0.0
 11
955.6025619124127
 21
1004.75962777487
 31
0.0
  0
LINE
  5
44A2
330
18
100
AcDbEntity
  8
MSL-115-S25-R-0
 48
2.0
100
AcDbLine
 10
969.1025619124125
 20
1005.25962777487
 30
0.0
 11
969.6025619124124
 21
1004.75962777487
 31
0.0
  0
LINE
  5
44A3
330
18
100
AcDbEntity
  8
MSL-115-S25-R-0
 48
2.0
100
AcDbLine
 10
969.6025619124124
 20
1004.75962777487
 30
0.0
 11
969.6025619124126
 21
1003.25962777487
 31
0.0
  0
LINE
  5
44F6
330
18
100
AcDbEntity
  8
MSL-115-S25-R-0
 48
2.0
100
AcDbLine
 10
1316.315140753657
 20
1004.759627774869
 30
0.0
 11
1330.315140753658
 21
1004.759627774869
 31
0.0
  0
LINE
  5
44F7
330
18
100
AcDbEntity
  8
MSL-115-S25-R-0
 48
2.0
100
AcDbLine
 10
1316.815140753658
 20
1005.259627774869
 30
0.0
 11
1329.815140753658
 21
1005.259627774869
 31
0.0
  0
LINE
  5
44F8
330
18
100
AcDbEntity
  8
MSL-115-S25-R-0
 48
2.0
100
AcDbLine
 10
1316.315140753657
 20
1003.259627774869
 30
0.0
 11
1316.315140753657
 21
1004.759627774869
 31
0.0
  0
LINE
  5
44F9
330
18
100
AcDbEntity
  8
MSL-115-S25-R-0
 48
2.0
100
AcDbLine
 10
1316.315140753657
 20
1004.759627774869
 30
0.0
 11
1316.815140753658
 21
1005.259627774869
 31
0.0
  0
LINE
  5
44FA
330
18
100
AcDbEntity
  8
MSL-115-S25-R-0
 48
2.0
100
AcDbLine
 10
1330.315140753658
 20
1004.759627774869
 30
0.0
 11
1330.315140753658
 21
1003.259627774869
 31
0.0
  0
LINE
  5
44FB
330
18
100
AcDbEntity
  8
MSL-115-S25-R-0
 48
2.0
100
AcDbLine
 10
1330.315140753658
 20
1004.759627774869
 30
0.0
 11
1329.815140753658
 21
1005.259627774869
 31
0.0
  0
ENDSEC
  0
SECTION
  2
OBJECTS
  0
DICTIONARY
  5
C
330
0
100
AcDbDictionary
  3
ACAD_GROUP
350
D
  3
ACAD_LAYOUT
350
23DE
  3
ACAD_MLINESTYLE
350
E
  3
ACAD_PLOTSETTINGS
350
23DF
  3
ACAD_PLOTSTYLENAME
350
23DC
  3
ACDBHEADERROUNDTRIPXREC
350
4510
  3
ACDBVARIABLEDICTIONARY
350
D96
  3
ACMDICTIONARY
350
2423
  3
AMG
350
23E7
  3
AMGSNAPSETTINGS
350
24A6
  3
DWGPROPS
350
450D
  0
DICTIONARY
  5
2541
330
18
100
AcDbDictionary
280
     1
  3
ACAD_INDEX
360
4064
  3
ACAD_LAYOUTSELFREF
360
4532
  0
DICTIONARY
  5
3461
330
15
100
AcDbDictionary
280
     1
  3
ACAD_LAYOUTSELFREF
360
4531
  0
DICTIONARY
  5
D
102
{ACAD_REACTORS
330
C
102
}
330
C
100
AcDbDictionary
  0
DICTIONARY
  5
23DE
102
{ACAD_REACTORS
330
C
102
}
330
C
100
AcDbDictionary
  0
DICTIONARY
  5
E
102
{ACAD_REACTORS
330
C
102
}
330
C
100
AcDbDictionary
  3
STANDARD
350
1B
  0
DICTIONARY
  5
23DF
102
{ACAD_REACTORS
330
C
102
}
330
C
100
AcDbDictionary
  0
ACDBDICTIONARYWDFLT
  5
23DC
102
{ACAD_REACTORS
330
C
102
}
330
C
100
AcDbDictionary
281
     1
  3
Normal
350
23DD
100
AcDbDictionaryWithDefault
340
23DD
  0
DICTIONARY
  5
4510
102
{ACAD_REACTORS
330
C
102
}
330
C
100
AcDbDictionary
  3
CEPSNTYPE
350
451A
  3
DIMSTYLEDATA
350
451E
  3
FINGERPRINTGUID
350
451B
  3
HYPERLINKBASE
350
4513
  3
INSUNITS
350
4519
  3
LAYOUTDICT
350
4515
  3
LWETCUNION
350
4518
  3
PLOTSETDICT
350
4516
  3
PLOTSTYLNAMDICT
350
4517
  3
PSVPSCALE
350
451D
  3
PUCSBASE
350
4521
  3
PUCSORGBACK
350
4527
  3
PUCSORGBOTTOM
350
4523
  3
PUCSORGFRONT
350
4526
  3
PUCSORGLEFT
350
4524
  3
PUCSORGRIGHT
350
4525
  3
PUCSORGTOP
350
4522
  3
PUCSORTHOREF
350
451F
  3
PUCSORTHOVIEW
350
4520
  3
STYLESHEET
350
4514
  3
TSTACKALIGN
350
4511
  3
TSTACKSIZE
350
4512
  3
UCSBASE
350
452A
  3
UCSORGBACK
350
4530
  3
UCSORGBOTTOM
350
452C
  3
UCSORGFRONT
350
452F
  3
UCSORGLEFT
350
452D
  3
UCSORGRIGHT
350
452E
  3
UCSORGTOP
350
452B
  3
UCSORTHOREF
350
4528
  3
UCSORTHOVIEW
350
4529
  3
VERSIONGUID
350
451C
  0
DICTIONARY
  5
D96
102
{ACAD_REACTORS
330
C
102
}
330
C
100
AcDbDictionary
  3
INDEXCTL
350
2412
  3
SORTENTS
350
D97
  0
DICTIONARY
  5
2423
102
{ACAD_REACTORS
330
C
102
}
330
C
100
AcDbDictionary
  3
ACMSTDDICTIONARY
350
2428
  0
DICTIONARY
  5
23E7
102
{ACAD_REACTORS
330
C
102
}
330
C
100
AcDbDictionary
  3
ACMGSETTINGS
350
23E8
  0
DICTIONARY
  5
24A6
102
{ACAD_REACTORS
330
C
102
}
330
C
100
AcDbDictionary
  0
XRECORD
  5
450D
102
{ACAD_REACTORS
330
C
102
}
330
C
100
AcDbXrecord
  1
DWGPROPS COOKIE
  2

  3

  4

  6

  7

  8

  9

300
AmdtFileType=84
301
=
302
=
303
=
304
=
305
=
306
=
307
=
308
=
309
=
 40
0.1298345138888889
 41
2452422.648523437
 42
2452919.851234259
  1

 90
        1
  0
DICTIONARY
  5
4064
102
{ACAD_REACTORS
330
2541
102
}
330
2541
100
AcDbDictionary
  3
*A1
350
4065
  0
XRECORD
  5
4532
102
{ACAD_REACTORS
330
2541
102
}
330
2541
100
AcDbXrecord
340
18
  0
XRECORD
  5
4531
102
{ACAD_REACTORS
330
3461
102
}
330
3461
100
AcDbXrecord
340
15
  0
MLINESTYLE
  5
1B
102
{ACAD_REACTORS
330
E
102
}
330
E
100
AcDbMlineStyle
  2
STANDARD
 70
     0
  3

 62
     0
 51
90.0
 52
90.0
 71
     2
 49
0.5
 62
   256
  6
BYLAYER
 49
-0.5
 62
   256
  6
BYLAYER
  0
ACDBPLACEHOLDER
  5
23DD
102
{ACAD_REACTORS
330
23DC
102
}
330
23DC
100
AcDbPlaceHolder
280
     0
  0
XRECORD
  5
451A
102
{ACAD_REACTORS
330
4510
102
}
330
4510
100
AcDbXrecord
 90
        0
  0
XRECORD
  5
451E
102
{ACAD_REACTORS
330
4510
102
}
330
4510
100
AcDbXrecord
1000
DSTYLE
1002
{
1070
    79
 70
     2
1070
   371
 70
    -1
1070
   372
 70
    -1
1002
}
  0
XRECORD
  5
451B
102
{ACAD_REACTORS
330
4510
102
}
330
4510
100
AcDbXrecord
  1
{C383D40E-645C-40CB-8723-B6B7C8CBAED4}
  0
XRECORD
  5
4513
102
{ACAD_REACTORS
330
4510
102
}
330
4510
100
AcDbXrecord
  1

  0
XRECORD
  5
4519
102
{ACAD_REACTORS
330
4510
102
}
330
4510
100
AcDbXrecord
 90
        0
  0
XRECORD
  5
4515
102
{ACAD_REACTORS
330
4510
102
}
330
4510
100
AcDbXrecord
340
23DE
  0
XRECORD
  5
4518
102
{ACAD_REACTORS
330
4510
102
}
330
4510
100
AcDbXrecord
 90
    14877
  0
XRECORD
  5
4516
102
{ACAD_REACTORS
330
4510
102
}
330
4510
100
AcDbXrecord
340
23DF
  0
XRECORD
  5
4517
102
{ACAD_REACTORS
330
4510
102
}
330
4510
100
AcDbXrecord
340
23DC
  0
XRECORD
  5
451D
102
{ACAD_REACTORS
330
4510
102
}
330
4510
100
AcDbXrecord
 40
0.0
  0
XRECORD
  5
4521
102
{ACAD_REACTORS
330
4510
102
}
330
4510
100
AcDbXrecord
340
0
  0
XRECORD
  5
4527
102
{ACAD_REACTORS
330
4510
102
}
330
4510
100
AcDbXrecord
 10
0.0
 20
0.0
 30
0.0
  0
XRECORD
  5
4523
102
{ACAD_REACTORS
330
4510
102
}
330
4510
100
AcDbXrecord
 10
0.0
 20
0.0
 30
0.0
  0
XRECORD
  5
4526
102
{ACAD_REACTORS
330
4510
102
}
330
4510
100
AcDbXrecord
 10
0.0
 20
0.0
 30
0.0
  0
XRECORD
  5
4524
102
{ACAD_REACTORS
330
4510
102
}
330
4510
100
AcDbXrecord
 10
0.0
 20
0.0
 30
0.0
  0
XRECORD
  5
4525
102
{ACAD_REACTORS
330
4510
102
}
330
4510
100
AcDbXrecord
 10
0.0
 20
0.0
 30
0.0
  0
XRECORD
  5
4522
102
{ACAD_REACTORS
330
4510
102
}
330
4510
100
AcDbXrecord
 10
0.0
 20
0.0
 30
0.0
  0
XRECORD
  5
451F
102
{ACAD_REACTORS
330
4510
102
}
330
4510
100
AcDbXrecord
340
0
  0
XRECORD
  5
4520
102
{ACAD_REACTORS
330
4510
102
}
330
4510
100
AcDbXrecord
 70
     0
  0
XRECORD
  5
4514
102
{ACAD_REACTORS
330
4510
102
}
330
4510
100
AcDbXrecord
  1
lutz_1.ctb
  0
XRECORD
  5
4511
102
{ACAD_REACTORS
330
4510
102
}
330
4510
100
AcDbXrecord
 90
        1
  0
XRECORD
  5
4512
102
{ACAD_REACTORS
330
4510
102
}
330
4510
100
AcDbXrecord
 90
       70
  0
XRECORD
  5
452A
102
{ACAD_REACTORS
330
4510
102
}
330
4510
100
AcDbXrecord
340
0
  0
XRECORD
  5
4530
102
{ACAD_REACTORS
330
4510
102
}
330
4510
100
AcDbXrecord
 10
0.0
 20
0.0
 30
0.0
  0
XRECORD
  5
452C
102
{ACAD_REACTORS
330
4510
102
}
330
4510
100
AcDbXrecord
 10
0.0
 20
0.0
 30
0.0
  0
XRECORD
  5
452F
102
{ACAD_REACTORS
330
4510
102
}
330
4510
100
AcDbXrecord
 10
0.0
 20
0.0
 30
0.0
  0
XRECORD
  5
452D
102
{ACAD_REACTORS
330
4510
102
}
330
4510
100
AcDbXrecord
 10
0.0
 20
0.0
 30
0.0
  0
XRECORD
  5
452E
102
{ACAD_REACTORS
330
4510
102
}
330
4510
100
AcDbXrecord
 10
0.0
 20
0.0
 30
0.0
  0
XRECORD
  5
452B
102
{ACAD_REACTORS
330
4510
102
}
330
4510
100
AcDbXrecord
 10
0.0
 20
0.0
 30
0.0
  0
XRECORD
  5
4528
102
{ACAD_REACTORS
330
4510
102
}
330
4510
100
AcDbXrecord
340
0
  0
XRECORD
  5
4529
102
{ACAD_REACTORS
330
4510
102
}
330
4510
100
AcDbXrecord
 70
     0
  0
XRECORD
  5
451C
102
{ACAD_REACTORS
330
4510
102
}
330
4510
100
AcDbXrecord
  1
{2697FE66-38BC-41C1-A7C8-F6D205D5EF7D}
  0
DICTIONARYVAR
  5
2412
102
{ACAD_REACTORS
330
D96
102
}
330
D96
100
DictionaryVariables
280
     0
  1
1
  0
DICTIONARYVAR
  5
D97
102
{ACAD_REACTORS
330
D96
102
}
330
D96
100
DictionaryVariables
280
     0
  1
96
  0
DICTIONARY
  5
2428
102
{ACAD_REACTORS
330
2423
102
}
330
2423
100
AcDbDictionary
  0
DICTIONARY
  5
23E8
102
{ACAD_REACTORS
330
23E7
102
}
330
23E7
100
AcDbDictionary
  3
DWGSETTINGS
350
43A7
  0
LAYER_INDEX
  5
4065
102
{ACAD_REACTORS
330
4064
102
}
330
4064
100
AcDbIndex
 40
2452919.876163726
100
AcDbLayerIndex
  8
0
360
4066
 90
        0
  8
MSL-115-S25-R-0
360
4067
 90
      440
  8
MSL-115-S25-R-5
360
4068
 90
       23
  8
MSL-115-S25-R-7A
360
4069
 90
       52
  8
MSL-115-S25-R-3A
360
406A
 90
       51
  8
MSL-115-S25-R-6
360
406B
 90
        1
  8
Defpoints
360
44FC
 90
        0
  8
AM_BOR
360
44FD
 90
        0
  8
AM_5
360
44FE
 90
        0
  0
XRECORD
  5
43A7
102
{ACAD_REACTORS
330
23E8
102
}
330
23E8
100
AcDbXrecord
  1
VERSION
140
15.0
  1
PRODUCT
  2
AutoCAD Mechanical 2000
  0
IDBUFFER
  5
4066
330
0
100
AcDbIdBuffer
  0
IDBUFFER
  5
4067
330
0
100
AcDbIdBuffer
330
289F
330
28A7
330
28A8
330
28A9
330
28AA
330
28AB
330
28AC
330
28AD
330
28AE
330
28B0
330
28B1
330
28B2
330
28B3
330
28B4
330
28B5
330
28B6
330
28B7
330
28B8
330
28B9
330
28BA
330
28BB
330
28BC
330
28BD
330
28BE
330
28BF
330
28C0
330
28C1
330
28C3
330
28C4
330
28C5
330
28C6
330
28C7
330
28C8
330
28C9
330
28CA
330
28CB
330
28CC
330
28CD
330
28D0
330
28D1
330
28D2
330
28D3
330
28D4
330
28D5
330
28D7
330
28D8
330
28D9
330
28DA
330
28DB
330
28DC
330
28DD
330
28DE
330
28DF
330
28E0
330
28E1
330
28E5
330
28E6
330
28E7
330
28E8
330
28E9
330
28EA
330
28EB
330
28EC
330
28ED
330
28EE
330
28EF
330
28F0
330
28F1
330
28F2
330
28F3
330
28F4
330
28F5
330
28F6
330
28F7
330
28F8
330
28F9
330
28FB
330
28FF
330
2902
330
2903
330
2904
330
2906
330
2907
330
290B
330
290D
330
290E
330
290F
330
2910
330
2911
330
2917
330
2918
330
2919
330
291A
330
291B
330
291C
330
291D
330
291E
330
291F
330
2920
330
2921
330
2922
330
2923
330
2924
330
2925
330
2926
330
2927
330
2928
330
2929
330
292A
330
292B
330
292C
330
292D
330
292E
330
292F
330
2930
330
2931
330
2932
330
2933
330
2936
330
2937
330
2938
330
2939
330
293A
330
293B
330
293C
330
293D
330
293E
330
2940
330
2941
330
2942
330
2943
330
2945
330
2946
330
294A
330
294B
330
294C
330
294D
330
294E
330
294F
330
2950
330
2951
330
2952
330
2953
330
2954
330
2955
330
2956
330
2957
330
2958
330
2959
330
295A
330
295B
330
295C
330
295F
330
2960
330
2961
330
2963
330
2964
330
2965
330
2966
330
2967
330
2968
330
2969
330
296A
330
296B
330
296C
330
296D
330
296E
330
296F
330
2970
330
2971
330
2972
330
2973
330
2974
330
2975
330
2976
330
2977
330
2978
330
2979
330
297A
330
297B
330
297C
330
297D
330
297E
330
297F
330
2981
330
2983
330
2984
330
2985
330
2989
330
298A
330
298B
330
298C
330
298D
330
298E
330
298F
330
2990
330
2994
330
2995
330
2996
330
2997
330
2998
330
2999
330
299A
330
299B
330
299C
330
299D
330
299E
330
299F
330
29A0
330
29A1
330
29A2
330
29A3
330
29A4
330
29A5
330
29A6
330
29A7
330
29A8
330
29AC
330
29AD
330
29AE
330
29AF
330
29B0
330
29B1
330
29B2
330
29B3
330
29B4
330
29B5
330
29B6
330
29BD
330
29BE
330
29BF
330
29C0
330
29C2
330
29C3
330
29C4
330
29DB
330
29DC
330
29DD
330
29DE
330
29DF
330
29E1
330
29E2
330
29E3
330
29E4
330
29E6
330
29E7
330
29E8
330
29E9
330
29EA
330
29EB
330
29FD
330
2A05
330
2A06
330
2A07
330
2A08
330
2A09
330
2A0A
330
2A0B
330
2A11
330
2A13
330
2A14
330
2A15
330
2A16
330
2A18
330
2A1A
330
2A1B
330
2A1D
330
2A1E
330
2A30
330
2A31
330
2A32
330
2A33
330
2A34
330
2A35
330
2A36
330
2A37
330
2A38
330
2A39
330
2A3A
330
2A3B
330
2A3D
330
2A3E
330
2A3F
330
2A40
330
2A41
330
2A42
330
2A43
330
2A44
330
2A45
330
2A46
330
2A47
330
2A48
330
2A49
330
2A4A
330
2A4B
330
2A4C
330
2A4D
330
2A4E
330
2A4F
330
2A50
330
2A51
330
2A52
330
2A53
330
2A54
330
2A55
330
2A56
330
2A57
330
2A58
330
2A59
330
2A5C
330
2A5D
330
2A5E
330
2A5F
330
2A60
330
2A61
330
2A62
330
2A63
330
2A64
330
2A65
330
2A66
330
2A67
330
2A68
330
2A69
330
2A6A
330
2A6C
330
2A6D
330
2A6E
330
2A6F
330
2A70
330
2A71
330
2A72
330
2A73
330
2A74
330
2A75
330
2A76
330
2A7B
330
2A7C
330
2A7D
330
2A80
330
2A82
330
2A83
330
2A84
330
2A86
330
2A87
330
2A88
330
2A99
330
2A9A
330
2A9B
330
2A9C
330
2A9D
330
2A9F
330
2AA0
330
2AA1
330
2AA2
330
2AA3
330
2AA4
330
2AA5
330
2AA6
330
2AA7
330
2AA8
330
2AA9
330
2AAA
330
2AAB
330
2AAC
330
2AAD
330
2AAE
330
2AAF
330
2AB1
330
2AB2
330
2AB3
330
2AB4
330
2AB5
330
2AB6
330
2AB7
330
2AB8
330
2AB9
330
2ABB
330
2ABC
330
2ABD
330
2ABE
330
2ABF
330
2AC0
330
2AC1
330
2AC3
330
2AC4
330
2AC5
330
2AC6
330
2AC7
330
2AC8
330
2AC9
330
2ACA
330
2ACB
330
2ACC
330
2ACD
330
2AD2
330
2AD5
330
2AD6
330
2AD7
330
2AD8
330
2AD9
330
2ADA
330
2ADB
330
2ADC
330
3B97
330
3B9A
330
3B9C
330
3B9D
330
3B9E
330
3B9F
330
3BA0
330
3BA1
330
3BAC
330
3BB0
330
3BB5
330
3BBA
330
3BBC
330
3BC0
330
3BC1
330
3BC4
330
3BC5
330
3BC8
330
3BCB
330
446F
330
4470
330
4471
330
4472
330
4473
330
4474
330
449E
330
449F
330
44A0
330
44A1
330
44A2
330
44A3
330
44F6
330
44F7
330
44F8
330
44F9
330
44FA
330
44FB
  0
IDBUFFER
  5
4068
330
0
100
AcDbIdBuffer
330
28CF
330
28E3
330
290C
330
295E
330
2A5A
330
2A5B
330
2AB0
330
2ABA
330
2AC2
330
3B98
330
3BA2
330
3BA3
330
3BA4
330
3BA5
330
3BA6
330
3BAD
330
3BB6
330
3BBB
330
3BBD
330
3BC2
330
3BC6
330
3BC9
330
3BCC
  0
IDBUFFER
  5
4069
330
0
100
AcDbIdBuffer
330
28A2
330
28C2
330
28CE
330
28D6
330
28E2
330
28E4
330
28FA
330
2901
330
290A
330
2912
330
2915
330
2916
330
293F
330
2944
330
295D
330
2962
330
2982
330
2991
330
2992
330
2993
330
29A9
330
29AA
330
29AB
330
29C1
330
29E0
330
29E5
330
2A0C
330
2A3C
330
2A77
330
2A9E
330
2CD8
330
2CD9
330
2CDA
330
2CDB
330
31B9
330
31C6
330
3B96
330
3B99
330
3BA7
330
3BA8
330
3BA9
330
3BAA
330
3BAB
330
3BAE
330
3BB4
330
3BB7
330
3BBE
330
3BBF
330
3BC3
330
3BC7
330
3BCA
330
3BCD
  0
IDBUFFER
  5
406A
330
0
100
AcDbIdBuffer
330
2947
330
2948
330
2949
330
4325
330
4329
330
432A
330
432B
330
432C
330
432D
330
432E
330
432F
330
4330
330
4331
330
4332
330
4333
330
4334
330
4335
330
4336
330
4337
330
433F
330
4340
330
4341
330
4342
330
4343
330
4344
330
4345
330
4346
330
4357
330
4358
330
4376
330
4377
330
4378
330
4379
330
437A
330
437B
330
437C
330
437D
330
437E
330
437F
330
4380
330
4381
330
4382
330
4383
330
4384
330
4385
330
4386
330
4387
330
4388
330
438C
330
438D
330
438E
  0
IDBUFFER
  5
406B
330
0
100
AcDbIdBuffer
330
4397
  0
IDBUFFER
  5
44FC
330
0
100
AcDbIdBuffer
  0
IDBUFFER
  5
44FD
330
0
100
AcDbIdBuffer
  0
IDBUFFER
  5
44FE
330
0
100
AcDbIdBuffer
  0
ENDSEC
  0
EOF
