  0
SECTION
  2
HEADER
  9
$ACADVER
  1
AC1012
  9
$DWGCODEPAGE
  3
ansi_1252
  9
$INSBASE
 10
1102.670999
 20
372.970407
 30
0.0
  9
$EXTMIN
 10
1104.528611
 20
374.826942
 30
0.0
  9
$EXTMAX
 10
1424.744804
 20
650.522332
 30
0.0
  9
$LIMMIN
 10
0.0
 20
0.0
  9
$LIMMAX
 10
420.0
 20
297.0
  9
$ORTHOMODE
 70
     1
  9
$REGENMODE
 70
     1
  9
$FILLMODE
 70
     1
  9
$QTEXTMODE
 70
     0
  9
$MIRRTEXT
 70
     1
  9
$DRAGMODE
 70
     2
  9
$LTSCALE
 40
1.0
  9
$OSMODE
 70
    33
  9
$ATTMODE
 70
     1
  9
$TEXTSIZE
 40
3.5
  9
$TRACEWID
 40
1.0
  9
$TEXTSTYLE
  7
STANDARD
  9
$CLAYER
  8
MSL-1-40-0
  9
$CELTYPE
  6
BYLAYER
  9
$CECOLOR
 62
   256
  9
$CELTSCALE
 40
1.0
  9
$DELOBJ
 70
     1
  9
$DISPSILH
 70
     0
  9
$DIMSCALE
 40
1.0
  9
$DIMASZ
 40
2.5
  9
$DIMEXO
 40
1.0
  9
$DIMDLI
 40
10.0
  9
$DIMRND
 40
0.0
  9
$DIMDLE
 40
0.0
  9
$DIMEXE
 40
2.0
  9
$DIMTP
 40
0.1
  9
$DIMTM
 40
0.1
  9
$DIMTXT
 40
3.5
  9
$DIMCEN
 40
-2.0
  9
$DIMTSZ
 40
0.0
  9
$DIMTOL
 70
     0
  9
$DIMLIM
 70
     0
  9
$DIMTIH
 70
     0
  9
$DIMTOH
 70
     0
  9
$DIMSE1
 70
     0
  9
$DIMSE2
 70
     0
  9
$DIMTAD
 70
     1
  9
$DIMZIN
 70
     8
  9
$DIMBLK
  1

  9
$DIMASO
 70
     1
  9
$DIMSHO
 70
     1
  9
$DIMPOST
  1

  9
$DIMAPOST
  1

  9
$DIMALT
 70
     0
  9
$DIMALTD
 70
     2
  9
$DIMALTF
 40
25.4
  9
$DIMLFAC
 40
1.0
  9
$DIMTOFL
 70
     1
  9
$DIMTVP
 40
0.0
  9
$DIMTIX
 70
     0
  9
$DIMSOXD
 70
     0
  9
$DIMSAH
 70
     0
  9
$DIMBLK1
  1

  9
$DIMBLK2
  1

  9
$DIMSTYLE
  2
GEN-ISO
  9
$DIMCLRD
 70
     0
  9
$DIMCLRE
 70
     0
  9
$DIMCLRT
 70
     2
  9
$DIMTFAC
 40
1.0
  9
$DIMGAP
 40
1.5
  9
$DIMJUST
 70
     0
  9
$DIMSD1
 70
     0
  9
$DIMSD2
 70
     0
  9
$DIMTOLJ
 70
     0
  9
$DIMTZIN
 70
     8
  9
$DIMALTZ
 70
     8
  9
$DIMALTTZ
 70
     8
  9
$DIMFIT
 70
     3
  9
$DIMUPT
 70
     0
  9
$DIMUNIT
 70
     2
  9
$DIMDEC
 70
     2
  9
$DIMTDEC
 70
     5
  9
$DIMALTU
 70
     2
  9
$DIMALTTD
 70
     2
  9
$DIMTXSTY
  7
STANDARD
  9
$DIMAUNIT
 70
     0
  9
$LUNITS
 70
     2
  9
$LUPREC
 70
     4
  9
$SKETCHINC
 40
1.0
  9
$FILLETRAD
 40
0.0
  9
$AUNITS
 70
     0
  9
$AUPREC
 70
     0
  9
$MENU
  1
acad
  9
$ELEVATION
 40
0.0
  9
$PELEVATION
 40
0.0
  9
$THICKNESS
 40
0.0
  9
$LIMCHECK
 70
     0
  9
$BLIPMODE
 70
     0
  9
$CHAMFERA
 40
10.0
  9
$CHAMFERB
 40
10.0
  9
$CHAMFERC
 40
0.0
  9
$CHAMFERD
 40
0.0
  9
$SKPOLY
 70
     0
  9
$TDCREATE
 40
2450623.360398958
  9
$TDUPDATE
 40
2450624.424311458
  9
$TDINDWG
 40
0.1570939815
  9
$TDUSRTIMER
 40
0.1570939815
  9
$USRTIMER
 70
     1
  9
$ANGBASE
 50
0.0
  9
$ANGDIR
 70
     0
  9
$PDMODE
 70
     0
  9
$PDSIZE
 40
0.0
  9
$PLINEWID
 40
0.0
  9
$COORDS
 70
     2
  9
$SPLFRAME
 70
     0
  9
$SPLINETYPE
 70
     6
  9
$SPLINESEGS
 70
     8
  9
$ATTDIA
 70
     1
  9
$ATTREQ
 70
     1
  9
$HANDLING
 70
     1
  9
$HANDSEED
  5
373
  9
$SURFTAB1
 70
     6
  9
$SURFTAB2
 70
     6
  9
$SURFTYPE
 70
     6
  9
$SURFU
 70
     6
  9
$SURFV
 70
     6
  9
$UCSNAME
  2

  9
$UCSORG
 10
0.0
 20
0.0
 30
0.0
  9
$UCSXDIR
 10
1.0
 20
0.0
 30
0.0
  9
$UCSYDIR
 10
0.0
 20
1.0
 30
0.0
  9
$PUCSNAME
  2

  9
$PUCSORG
 10
0.0
 20
0.0
 30
0.0
  9
$PUCSXDIR
 10
1.0
 20
0.0
 30
0.0
  9
$PUCSYDIR
 10
0.0
 20
1.0
 30
0.0
  9
$USERI1
 70
     0
  9
$USERI2
 70
     0
  9
$USERI3
 70
     0
  9
$USERI4
 70
     0
  9
$USERI5
 70
     0
  9
$USERR1
 40
0.0
  9
$USERR2
 40
0.0
  9
$USERR3
 40
0.0
  9
$USERR4
 40
0.0
  9
$USERR5
 40
0.0
  9
$WORLDVIEW
 70
     1
  9
$SHADEDGE
 70
     3
  9
$SHADEDIF
 70
    70
  9
$TILEMODE
 70
     1
  9
$MAXACTVP
 70
    16
  9
$PINSBASE
 10
0.0
 20
0.0
 30
0.0
  9
$PLIMCHECK
 70
     0
  9
$PEXTMIN
 10
1.000000E+20
 20
1.000000E+20
 30
1.000000E+20
  9
$PEXTMAX
 10
-1.000000E+20
 20
-1.000000E+20
 30
-1.000000E+20
  9
$PLIMMIN
 10
0.0
 20
0.0
  9
$PLIMMAX
 10
420.0
 20
297.0
  9
$UNITMODE
 70
     0
  9
$VISRETAIN
 70
     0
  9
$PLINEGEN
 70
     0
  9
$PSLTSCALE
 70
     1
  9
$TREEDEPTH
 70
  3020
  9
$PICKSTYLE
 70
     1
  9
$CMLSTYLE
  2
STANDARD
  9
$CMLJUST
 70
     0
  9
$CMLSCALE
 40
1.0
  9
$SAVEIMAGES
 70
     0
  0
ENDSEC
  0
SECTION
  2
CLASSES
  0
ENDSEC
  0
SECTION
  2
TABLES
  0
TABLE
  2
VPORT
  5
12
100
AcDbSymbolTable
 70
     2
  0
VPORT
  5
372
100
AcDbSymbolTableRecord
100
AcDbViewportTableRecord
  2
*ACTIVE
 70
     0
 10
0.0
 20
0.0
 11
1.0
 21
1.0
 12
1334.950493
 22
512.674637
 13
0.0
 23
0.0
 14
1.0
 24
1.0
 15
10.0
 25
10.0
 16
0.0
 26
0.0
 36
1.0
 17
0.0
 27
0.0
 37
0.0
 40
344.619237
 41
1.671569
 42
50.0
 43
0.0
 44
0.0
 50
0.0
 51
0.0
 71
     0
 72
   100
 73
     1
 74
     0
 75
     0
 76
     0
 77
     0
 78
     0
  0
ENDTAB
  0
TABLE
  2
LTYPE
  5
E
100
AcDbSymbolTable
 70
     3
  0
LTYPE
  5
F
100
AcDbSymbolTableRecord
100
AcDbLinetypeTableRecord
  2
BYBLOCK
 70
     0
  3

 72
    65
 73
     0
 40
0.0
  0
LTYPE
  5
6
100
AcDbSymbolTableRecord
100
AcDbLinetypeTableRecord
  2
BYLAYER
 70
     0
  3

 72
    65
 73
     0
 40
0.0
  0
LTYPE
  5
5
100
AcDbSymbolTableRecord
100
AcDbLinetypeTableRecord
  2
CONTINUOUS
 70
    64
  3
Solid line
 72
    65
 73
     0
 40
0.0
  0
LTYPE
  5
26
100
AcDbSymbolTableRecord
100
AcDbLinetypeTableRecord
  2
GEN3
 70
    64
  3
-- -- -- -- -- -- -- -- -- -- -- -- -- -- --
 72
    65
 73
     2
 40
6.25
 49
5.0
 74
     0
 49
-1.25
 74
     0
  0
LTYPE
  5
22
100
AcDbSymbolTableRecord
100
AcDbLinetypeTableRecord
  2
GEN7A
 70
    64
  3
__ . __ . __
 72
    65
 73
     4
 40
7.5
 49
5.0
 74
     0
 49
-1.25
 74
     0
 49
0.0
 74
     0
 49
-1.25
 74
     0
  0
ENDTAB
  0
TABLE
  2
LAYER
  5
B
100
AcDbSymbolTable
 70
     5
  0
LAYER
  5
4
100
AcDbSymbolTableRecord
100
AcDbLayerTableRecord
  2
0
 70
    64
 62
     7
  6
CONTINUOUS
  0
LAYER
  5
25
100
AcDbSymbolTableRecord
100
AcDbLayerTableRecord
  2
MSL-1-40-3
 70
    64
 62
     6
  6
GEN3
  0
LAYER
  5
21
100
AcDbSymbolTableRecord
100
AcDbLayerTableRecord
  2
MSL-1-40-7
 70
    64
 62
     4
  6
GEN7A
  0
LAYER
  5
1B
100
AcDbSymbolTableRecord
100
AcDbLayerTableRecord
  2
MSL-1-40-0
 70
    64
 62
     7
  6
CONTINUOUS
  0
LAYER
  5
8E
100
AcDbSymbolTableRecord
100
AcDbLayerTableRecord
  2
MSL-1-40-4
 70
    64
 62
     3
  6
CONTINUOUS
  0
ENDTAB
  0
TABLE
  2
STYLE
  5
C
100
AcDbSymbolTable
 70
     1
  0
STYLE
  5
D
100
AcDbSymbolTableRecord
100
AcDbTextStyleTableRecord
  2
STANDARD
 70
    64
 40
0.0
 41
1.0
 50
0.0
 71
     0
 42
3.5
  3
ISOCP.SHX
  4

  0
ENDTAB
  0
TABLE
  2
VIEW
  5
10
100
AcDbSymbolTable
 70
     0
  0
ENDTAB
  0
TABLE
  2
UCS
  5
11
100
AcDbSymbolTable
 70
     0
  0
ENDTAB
  0
TABLE
  2
APPID
  5
14
100
AcDbSymbolTable
 70
     8
  0
APPID
  5
15
100
AcDbSymbolTableRecord
100
AcDbRegAppTableRecord
  2
ACAD
 70
    64
  0
APPID
  5
36B
100
AcDbSymbolTableRecord
100
AcDbRegAppTableRecord
  2
GENIUS_GENCFG_13
 70
     0
1001
GENIUS_GENCFG0_13
1000
GEN@INFO_POS@XLATE
1001
GENIUS_GENCFG1_13
1000
GEN@LAYER@DEFS
1001
GENIUS_GENCFG2_13
1000
GEN@LAYER@ENTSORT
1001
GENIUS_GENCFG3_13
1000
GEN@OSWIZ
1001
GENIUS_GENCFG4_13
1000
GEN
1001
GENIUS_GEVCFG0_13
1000
GEV
  0
APPID
  5
36C
100
AcDbSymbolTableRecord
100
AcDbRegAppTableRecord
  2
GENIUS_GENCFG0_13
 70
     0
1001
GENIUS_GENCFG_13
1071
881141927
1000
36C
1000
GEN@INFO_POS@XLATE
1070
     7
1000
GenCfgObject
1000
GenCfgShort
1000
GenCfgReal
1000
GenCfgBool
1000
GenCfgString
1000
GenCfgDim
1000
GenCfgAttrInf
1000
INFOPOINTS
1070
     0
1002
{
1000
GENINF13
1070
     0
1002
{
1000
2GENINF
1070
     4
1000
2
1002
{
1002
}
1000
3GENINF
1070
     4
1000
3
1002
{
1002
}
1000
4GENINF
1070
     4
1000
4
1002
{
1002
}
1000
5GENINF
1070
     4
1000
5
1002
{
1002
}
1000
6GENINF
1070
     4
1000
6
1002
{
1002
}
1000
7GENINF
1070
     4
1000
7
1002
{
1002
}
1000
8GENINF
1070
     4
1000
8
1002
{
1002
}
1000
9GENINF
1070
     4
1000
9
1002
{
1002
}
1000
10GENINF
1070
     4
1000
10
1002
{
1002
}
1000
11GENINF
1070
     4
1000
11
1002
{
1002
}
1000
12GENINF
1070
     4
1000
12
1002
{
1002
}
1000
13GENINF
1070
     4
1000
13
1002
{
1002
}
1000
14GENINF
1070
     4
1000
14
1002
{
1002
}
1000
15GENINF
1070
     4
1000
15
1002
{
1002
}
1000
16GENINF
1070
     4
1000
16
1002
{
1002
}
1000
17GENINF
1070
     4
1000
17
1002
{
1002
}
1000
18GENINF
1070
     4
1000
18
1002
{
1002
}
1000
19GENINF
1070
     4
1000
19
1002
{
1002
}
1000
20GENINF
1070
     4
1000
20
1002
{
1002
}
1000
21GENINF
1070
     4
1000
21
1002
{
1002
}
1000
22GENINF
1070
     4
1000
22
1002
{
1002
}
1000
23GENINF
1070
     4
1000
23
1002
{
1002
}
1000
24GENINF
1070
     4
1000
24
1002
{
1002
}
1000
0GENINF
1070
     4
1000
0
1002
{
1002
}
1002
}
1000
GENINFO
1070
     0
1002
{
1000
3GENINF
1070
     4
1000
3
1002
{
1002
}
1000
4GENINF
1070
     4
1000
4
1002
{
1002
}
1000
5GENINF
1070
     4
1000
5
1002
{
1002
}
1000
6GENINF
1070
     4
1000
6
1002
{
1002
}
1000
7GENINF
1070
     4
1000
7
1002
{
1002
}
1000
8GENINF
1070
     4
1000
8
1002
{
1002
}
1000
9GENINF
1070
     4
1000
9
1002
{
1002
}
1000
10GENINF
1070
     4
1000
10
1002
{
1002
}
1000
11GENINF
1070
     4
1000
11
1002
{
1002
}
1000
12GENINF
1070
     4
1000
12
1002
{
1002
}
1000
13GENINF
1070
     4
1000
13
1002
{
1002
}
1000
14GENINF
1070
     4
1000
14
1002
{
1002
}
1000
15GENINF
1070
     4
1000
15
1002
{
1002
}
1000
16GENINF
1070
     4
1000
16
1002
{
1002
}
1000
17GENINF
1070
     4
1000
17
1002
{
1002
}
1000
18GENINF
1070
     4
1000
18
1002
{
1002
}
1000
19GENINF
1070
     4
1000
19
1002
{
1002
}
1000
20GENINF
1070
     4
1000
20
1002
{
1002
}
1000
21GENINF
1070
     4
1000
21
1002
{
1002
}
1000
22GENINF
1070
     4
1000
22
1002
{
1002
}
1002
}
1000
DININFO
1070
     0
1002
{
1000
ST-NAME1
1070
     4
1000
5
1002
{
1002
}
1000
ST-NAME2
1070
     4
1000
6
1002
{
1002
}
1000
ST-NORM1
1070
     4
1000
7
1002
{
1002
}
1000
ST-NORM2
1070
     4
1000
8
1002
{
1002
}
1000
ST-MAT1
1070
     4
1000
9
1002
{
1002
}
1000
ST-MAT2
1070
     4
1000
10
1002
{
1002
}
1002
}
1002
}
1000
POS_NUMBERS
1070
     0
1002
{
1000
GENPOS13
1070
     0
1002
{
1000
1GENPOS
1070
     4
1000
1
1002
{
1002
}
1000
2GENPOS
1070
     4
1000
2
1002
{
1002
}
1000
3GENPOS
1070
     4
1000
3
1002
{
1002
}
1000
4GENPOS
1070
     4
1000
4
1002
{
1002
}
1000
5GENPOS
1070
     4
1000
5
1002
{
1002
}
1000
6GENPOS
1070
     4
1000
6
1002
{
1002
}
1000
7GENPOS
1070
     4
1000
7
1002
{
1002
}
1000
8GENPOS
1070
     4
1000
8
1002
{
1002
}
1000
9GENPOS
1070
     4
1000
9
1002
{
1002
}
1000
10GENPOS
1070
     4
1000
10
1002
{
1002
}
1000
11GENPOS
1070
     4
1000
11
1002
{
1002
}
1000
12GENPOS
1070
     4
1000
12
1002
{
1002
}
1000
13GENPOS
1070
     4
1000
13
1002
{
1002
}
1000
14GENPOS
1070
     4
1000
14
1002
{
1002
}
1000
15GENPOS
1070
     4
1000
15
1002
{
1002
}
1000
16GENPOS
1070
     4
1000
16
1002
{
1002
}
1000
17GENPOS
1070
     4
1000
17
1002
{
1002
}
1000
18GENPOS
1070
     4
1000
18
1002
{
1002
}
1000
19GENPOS
1070
     4
1000
19
1002
{
1002
}
1000
20GENPOS
1070
     4
1000
20
1002
{
1002
}
1000
21GENPOS
1070
     4
1000
21
1002
{
1002
}
1000
22GENPOS
1070
     4
1000
22
1002
{
1002
}
1000
23GENPOS
1070
     4
1000
23
1002
{
1002
}
1000
24GENPOS
1070
     4
1000
24
1002
{
1002
}
1000
0GENPOS
1070
     4
1000
0
1002
{
1002
}
1002
}
1000
GENPOS
1070
     0
1002
{
1000
1GENPOS
1070
     4
1000
1
1002
{
1002
}
1000
2GENPOS
1070
     4
1000
2
1002
{
1002
}
1000
3GENPOS
1070
     4
1000
3
1002
{
1002
}
1000
4GENPOS
1070
     4
1000
4
1002
{
1002
}
1000
5GENPOS
1070
     4
1000
5
1002
{
1002
}
1000
6GENPOS
1070
     4
1000
6
1002
{
1002
}
1000
7GENPOS
1070
     4
1000
7
1002
{
1002
}
1000
8GENPOS
1070
     4
1000
8
1002
{
1002
}
1000
9GENPOS
1070
     4
1000
9
1002
{
1002
}
1000
10GENPOS
1070
     4
1000
10
1002
{
1002
}
1000
11GENPOS
1070
     4
1000
11
1002
{
1002
}
1000
12GENPOS
1070
     4
1000
12
1002
{
1002
}
1000
13GENPOS
1070
     4
1000
13
1002
{
1002
}
1000
14GENPOS
1070
     4
1000
14
1002
{
1002
}
1000
15GENPOS
1070
     4
1000
15
1002
{
1002
}
1000
16GENPOS
1070
     4
1000
16
1002
{
1002
}
1000
17GENPOS
1070
     4
1000
17
1002
{
1002
}
1000
18GENPOS
1070
     4
1000
18
1002
{
1002
}
1000
19GENPOS
1070
     4
1000
19
1002
{
1002
}
1000
20GENPOS
1070
     4
1000
20
1002
{
1002
}
1000
21GENPOS
1070
     4
1000
21
1002
{
1002
}
1000
22GENPOS
1070
     4
1000
22
1002
{
1002
}
1000
23GENPOS
1070
     4
1000
23
1002
{
1002
}
1002
}
1000
DIN985
1070
     0
1002
{
1000
POSITION
1070
     4
1000
1
1002
{
1002
}
1000
MENGE
1070
     4
1000
2
1002
{
1002
}
1000
BLATT
1070
     4
1000
3
1002
{
1002
}
1000
BENENN
1070
     4
1000
5
1002
{
1002
}
1000
BENENN2
1070
     4
1000
6
1002
{
1002
}
1000
NORM
1070
     4
1000
7
1002
{
1002
}
1000
NORM2
1070
     4
1000
8
1002
{
1002
}
1000
WERKSTOFF
1070
     4
1000
9
1002
{
1002
}
1000
WERKSTOFF2
1070
     4
1000
10
1002
{
1002
}
1002
}
1000
DIN986
1070
     0
1002
{
1000
POSITION
1070
     4
1000
1
1002
{
1002
}
1000
MENGE
1070
     4
1000
2
1002
{
1002
}
1000
BLATT
1070
     4
1000
3
1002
{
1002
}
1000
BENENN
1070
     4
1000
5
1002
{
1002
}
1000
BENENN2
1070
     4
1000
6
1002
{
1002
}
1000
NORM
1070
     4
1000
7
1002
{
1002
}
1000
NORM2
1070
     4
1000
8
1002
{
1002
}
1000
WERKSTOFF
1070
     4
1000
9
1002
{
1002
}
1000
WERKSTOFF2
1070
     4
1000
10
1002
{
1002
}
1002
}
1000
DIN987
1070
     0
1002
{
1000
POSITION
1070
     4
1000
1
1002
{
1002
}
1000
MENGE
1070
     4
1000
2
1002
{
1002
}
1000
BLATT
1070
     4
1000
3
1002
{
1002
}
1000
BENENN
1070
     4
1000
5
1002
{
1002
}
1000
BENENN2
1070
     4
1000
6
1002
{
1002
}
1000
NORM
1070
     4
1000
7
1002
{
1002
}
1000
NORM2
1070
     4
1000
8
1002
{
1002
}
1000
WERKSTOFF
1070
     4
1000
9
1002
{
1002
}
1000
WERKSTOFF2
1070
     4
1000
10
1002
{
1002
}
1002
}
1002
}
  0
APPID
  5
36D
100
AcDbSymbolTableRecord
100
AcDbRegAppTableRecord
  2
GENIUS_GENCFG1_13
 70
     0
1001
GENIUS_GENCFG_13
1071
881141927
1000
36D
1000
GEN@LAYER@DEFS
1070
     9
1000
GenCfgObject
1000
GenCfgShort
1000
GenCfgReal
1000
GenCfgBool
1000
GenCfgString
1000
GenCfgDim
1000
GenCfgAttrInf
1000
GenCfgLaySection
1000
GenCfgLayer
1000
Basic
1070
     0
1002
{
1000
0
1070
     8
1000
0
1002
{
1000
Color
1070
     1
1070
     7
1002
{
1002
}
1000
LType
1070
     4
1000
CONTINUOUS
1002
{
1002
}
1000
Base
1070
     3
1070
     0
1002
{
1002
}
1002
}
1000
1
1070
     8
1000
1
1002
{
1000
Color
1070
     1
1070
    14
1002
{
1002
}
1000
LType
1070
     4
1000
CONTINUOUS
1002
{
1002
}
1000
Base
1070
     3
1070
     0
1002
{
1002
}
1002
}
1000
2
1070
     8
1000
2
1002
{
1000
Color
1070
     1
1070
     5
1002
{
1002
}
1000
LType
1070
     4
1000
CONTINUOUS
1002
{
1002
}
1000
Base
1070
     3
1070
     0
1002
{
1002
}
1002
}
1000
3
1070
     8
1000
3
1002
{
1000
Color
1070
     1
1070
     6
1002
{
1002
}
1000
LType
1070
     4
1000
GEN3
1002
{
1002
}
1000
Base
1070
     3
1070
     0
1002
{
1002
}
1002
}
1000
4
1070
     8
1000
4
1002
{
1000
Color
1070
     1
1070
     3
1002
{
1002
}
1000
LType
1070
     4
1000
CONTINUOUS
1002
{
1002
}
1000
Base
1070
     3
1070
     0
1002
{
1002
}
1002
}
1000
5
1070
     8
1000
5
1002
{
1000
Color
1070
     1
1070
     3
1002
{
1002
}
1000
LType
1070
     4
1000
CONTINUOUS
1002
{
1002
}
1000
Base
1070
     3
1070
     0
1002
{
1002
}
1002
}
1000
6
1070
     8
1000
6
1002
{
1000
Color
1070
     1
1070
     2
1002
{
1002
}
1000
LType
1070
     4
1000
CONTINUOUS
1002
{
1002
}
1000
Base
1070
     3
1070
     0
1002
{
1002
}
1002
}
1000
7
1070
     8
1000
7
1002
{
1000
Color
1070
     1
1070
     4
1002
{
1002
}
1000
LType
1070
     4
1000
GEN7
1002
{
1002
}
1000
Base
1070
     3
1070
     0
1002
{
1002
}
1002
}
1000
8
1070
     8
1000
8
1002
{
1000
Color
1070
     1
1070
     1
1002
{
1002
}
1000
LType
1070
     4
1000
CONTINUOUS
1002
{
1002
}
1000
Base
1070
     3
1070
     0
1002
{
1002
}
1002
}
1000
3A
1070
     8
1000
3A
1002
{
1000
Color
1070
     1
1070
     6
1002
{
1002
}
1000
LType
1070
     4
1000
GEN3A
1002
{
1002
}
1000
Base
1070
     3
1070
     0
1002
{
1002
}
1002
}
1000
7A
1070
     8
1000
7A
1002
{
1000
Color
1070
     1
1070
     4
1002
{
1002
}
1000
LType
1070
     4
1000
GEN7A
1002
{
1002
}
1000
Base
1070
     3
1070
     0
1002
{
1002
}
1002
}
1000
2A
1070
     8
1000
2A
1002
{
1000
Color
1070
     1
1070
     7
1002
{
1002
}
1000
LType
1070
     4
1000
GEN7
1002
{
1002
}
1000
Base
1070
     3
1070
     0
1002
{
1002
}
1002
}
1000
4A
1070
     8
1000
4A
1002
{
1000
Color
1070
     1
1070
     3
1002
{
1002
}
1000
LType
1070
     4
1000
GEN4A
1002
{
1002
}
1000
Base
1070
     3
1070
     0
1002
{
1002
}
1002
}
1000
9
1070
     8
1000
9
1002
{
1000
Color
1070
     1
1070
   253
1002
{
1002
}
1000
LType
1070
     4
1000
CONTINUOUS
1002
{
1002
}
1000
Base
1070
     3
1070
     0
1002
{
1002
}
1002
}
1002
}
1000
Standard
1070
     0
1002
{
1000
0N
1070
     8
1000
0N
1002
{
1000
Color
1070
     1
1070
     7
1002
{
1002
}
1000
LType
1070
     4
1000
CONTINUOUS
1002
{
1002
}
1000
Base
1070
     3
1070
     0
1002
{
1002
}
1002
}
1000
1N
1070
     8
1000
1N
1002
{
1000
Color
1070
     1
1070
    14
1002
{
1002
}
1000
LType
1070
     4
1000
CONTINUOUS
1002
{
1002
}
1000
Base
1070
     3
1070
     0
1002
{
1002
}
1002
}
1000
2N
1070
     8
1000
2N
1002
{
1000
Color
1070
     1
1070
     5
1002
{
1002
}
1000
LType
1070
     4
1000
CONTINUOUS
1002
{
1002
}
1000
Base
1070
     3
1070
     0
1002
{
1002
}
1002
}
1000
3N
1070
     8
1000
3N
1002
{
1000
Color
1070
     1
1070
     6
1002
{
1002
}
1000
LType
1070
     4
1000
GEN3
1002
{
1002
}
1000
Base
1070
     3
1070
     0
1002
{
1002
}
1002
}
1000
4N
1070
     8
1000
4N
1002
{
1000
Color
1070
     1
1070
     3
1002
{
1002
}
1000
LType
1070
     4
1000
CONTINUOUS
1002
{
1002
}
1000
Base
1070
     3
1070
     0
1002
{
1002
}
1002
}
1000
5N
1070
     8
1000
5N
1002
{
1000
Color
1070
     1
1070
     3
1002
{
1002
}
1000
LType
1070
     4
1000
CONTINUOUS
1002
{
1002
}
1000
Base
1070
     3
1070
     0
1002
{
1002
}
1002
}
1000
6N
1070
     8
1000
6N
1002
{
1000
Color
1070
     1
1070
     2
1002
{
1002
}
1000
LType
1070
     4
1000
CONTINUOUS
1002
{
1002
}
1000
Base
1070
     3
1070
     0
1002
{
1002
}
1002
}
1000
7N
1070
     8
1000
7N
1002
{
1000
Color
1070
     1
1070
     4
1002
{
1002
}
1000
LType
1070
     4
1000
GEN7
1002
{
1002
}
1000
Base
1070
     3
1070
     0
1002
{
1002
}
1002
}
1000
8N
1070
     8
1000
8N
1002
{
1000
Color
1070
     1
1070
     1
1002
{
1002
}
1000
LType
1070
     4
1000
CONTINUOUS
1002
{
1002
}
1000
Base
1070
     3
1070
     0
1002
{
1002
}
1002
}
1000
3AN
1070
     8
1000
3AN
1002
{
1000
Color
1070
     1
1070
     6
1002
{
1002
}
1000
LType
1070
     4
1000
GEN3A
1002
{
1002
}
1000
Base
1070
     3
1070
     0
1002
{
1002
}
1002
}
1000
7AN
1070
     8
1000
7AN
1002
{
1000
Color
1070
     1
1070
     4
1002
{
1002
}
1000
LType
1070
     4
1000
GEN7A
1002
{
1002
}
1000
Base
1070
     3
1070
     0
1002
{
1002
}
1002
}
1000
2AN
1070
     8
1000
2AN
1002
{
1000
Color
1070
     1
1070
     7
1002
{
1002
}
1000
LType
1070
     4
1000
GEN7
1002
{
1002
}
1000
Base
1070
     3
1070
     0
1002
{
1002
}
1002
}
1000
4AN
1070
     8
1000
4AN
1002
{
1000
Color
1070
     1
1070
     3
1002
{
1002
}
1000
LType
1070
     4
1000
GEN4A
1002
{
1002
}
1000
Base
1070
     3
1070
     0
1002
{
1002
}
1002
}
1000
9N
1070
     8
1000
9N
1002
{
1000
Color
1070
     1
1070
   253
1002
{
1002
}
1000
LType
1070
     4
1000
CONTINUOUS
1002
{
1002
}
1000
Base
1070
     3
1070
     0
1002
{
1002
}
1002
}
1002
}
1000
Extra
1070
     0
1002
{
1000
Klin
1070
     8
1000
KLIN
1002
{
1000
Color
1070
     1
1070
     1
1002
{
1002
}
1000
LType
1070
     4
1000
CONTINUOUS
1002
{
1002
}
1000
Base
1070
     3
1070
     1
1002
{
1002
}
1002
}
1000
Info
1070
     8
1000
INFO
1002
{
1000
Color
1070
     1
1070
     4
1002
{
1002
}
1000
LType
1070
     4
1000
CONTINUOUS
1002
{
1002
}
1000
Base
1070
     3
1070
     1
1002
{
1002
}
1002
}
1000
Rahm2
1070
     8
1000
RAHM2
1002
{
1000
Color
1070
     1
1070
     1
1002
{
1002
}
1000
LType
1070
     4
1000
CONTINUOUS
1002
{
1002
}
1000
Base
1070
     3
1070
     1
1002
{
1002
}
1002
}
1000
Rahm3
1070
     8
1000
RAHM3
1002
{
1000
Color
1070
     1
1070
     2
1002
{
1002
}
1000
LType
1070
     4
1000
CONTINUOUS
1002
{
1002
}
1000
Base
1070
     3
1070
     1
1002
{
1002
}
1002
}
1000
Rahm5
1070
     8
1000
RAHM5
1002
{
1000
Color
1070
     1
1070
     7
1002
{
1002
}
1000
LType
1070
     4
1000
CONTINUOUS
1002
{
1002
}
1000
Base
1070
     3
1070
     1
1002
{
1002
}
1002
}
1000
View
1070
     8
1000
VIEW
1002
{
1000
Color
1070
     1
1070
     1
1002
{
1002
}
1000
LType
1070
     4
1000
CONTINUOUS
1002
{
1002
}
1000
Base
1070
     3
1070
     1
1002
{
1002
}
1002
}
1000
Behind
1070
     8
1000
BEHIND
1002
{
1000
Color
1070
     1
1070
   253
1002
{
1002
}
1000
LType
1070
     4
1000
CONTINUOUS
1002
{
1002
}
1000
Base
1070
     3
1070
     1
1002
{
1002
}
1002
}
1002
}
  0
APPID
  5
36E
100
AcDbSymbolTableRecord
100
AcDbRegAppTableRecord
  2
GENIUS_GENCFG2_13
 70
     0
1001
GENIUS_GENCFG_13
1071
881141927
1000
36E
1000
GEN@LAYER@ENTSORT
1070
    10
1000
GenCfgObject
1000
GenCfgShort
1000
GenCfgReal
1000
GenCfgBool
1000
GenCfgString
1000
GenCfgDim
1000
GenCfgAttrInf
1000
GenCfgLaySection
1000
GenCfgLayer
1000
GenCfgEntSort
1000
ALTR
1070
     9
1000
4
1002
{
1000
Class
1070
     4
1000

1002
{
1002
}
1000
Color
1070
     1
1070
     7
1002
{
1002
}
1000
LType
1070
     4
1000
GEN3A
1002
{
1002
}
1002
}
1000
BELI
1070
     9
1000
4
1002
{
1000
Class
1070
     4
1000

1002
{
1002
}
1000
Color
1070
     1
1070
   256
1002
{
1002
}
1000
LType
1070
     4
1000
BYLAYER
1002
{
1002
}
1002
}
1000
BHNV
1070
     9
1000
9
1002
{
1000
Class
1070
     4
1000
INV
1002
{
1002
}
1000
Color
1070
     1
1070
   256
1002
{
1002
}
1000
LType
1070
     4
1000
BYLAYER
1002
{
1002
}
1002
}
1000
BHNVS
1070
     9
1000
BEHIND
1002
{
1000
Class
1070
     4
1000
INV
1002
{
1002
}
1000
Color
1070
     1
1070
   256
1002
{
1002
}
1000
LType
1070
     4
1000
BYLAYER
1002
{
1002
}
1002
}
1000
BLID
1070
     9
1000
4A
1002
{
1000
Class
1070
     4
1000

1002
{
1002
}
1000
Color
1070
     1
1070
   256
1002
{
1002
}
1000
LType
1070
     4
1000
BYLAYER
1002
{
1002
}
1002
}
1000
BOAP
1070
     9
1000
4A
1002
{
1000
Class
1070
     4
1000

1002
{
1002
}
1000
Color
1070
     1
1070
   256
1002
{
1002
}
1000
LType
1070
     4
1000
BYLAYER
1002
{
1002
}
1002
}
1000
BOR2
1070
     9
1000
RAHM2
1002
{
1000
Class
1070
     4
1000
SPZ,SYM
1002
{
1002
}
1000
Color
1070
     1
1070
   256
1002
{
1002
}
1000
LType
1070
     4
1000
BYLAYER
1002
{
1002
}
1002
}
1000
BOR3
1070
     9
1000
RAHM3
1002
{
1000
Class
1070
     4
1000
SPZ,SYM
1002
{
1002
}
1000
Color
1070
     1
1070
   256
1002
{
1002
}
1000
LType
1070
     4
1000
BYLAYER
1002
{
1002
}
1002
}
1000
BOR5
1070
     9
1000
RAHM5
1002
{
1000
Class
1070
     4
1000
SPZ,SYM
1002
{
1002
}
1000
Color
1070
     1
1070
   256
1002
{
1002
}
1000
LType
1070
     4
1000
BYLAYER
1002
{
1002
}
1002
}
1000
BOR7
1070
     9
1000
RAHM5
1002
{
1000
Class
1070
     4
1000
SPZ,SYM
1002
{
1002
}
1000
Color
1070
     1
1070
     7
1002
{
1002
}
1000
LType
1070
     4
1000
CONTINUOUS
1002
{
1002
}
1002
}
1000
BPAP
1070
     9
1000
4A
1002
{
1000
Class
1070
     4
1000

1002
{
1002
}
1000
Color
1070
     1
1070
   256
1002
{
1002
}
1000
LType
1070
     4
1000
BYLAYER
1002
{
1002
}
1002
}
1000
BPEX
1070
     9
1000
4A
1002
{
1000
Class
1070
     4
1000

1002
{
1002
}
1000
Color
1070
     1
1070
   256
1002
{
1002
}
1000
LType
1070
     4
1000
BYLAYER
1002
{
1002
}
1002
}
1000
BTDI
1070
     9
1000
5
1002
{
1000
Class
1070
     4
1000
DIM,SYM
1002
{
1002
}
1000
Color
1070
     1
1070
   256
1002
{
1002
}
1000
LType
1070
     4
1000
BYLAYER
1002
{
1002
}
1002
}
1000
CAL2
1070
     9
1000
4
1002
{
1000
Class
1070
     4
1000
SYM
1002
{
1002
}
1000
Color
1070
     1
1070
   256
1002
{
1002
}
1000
LType
1070
     4
1000
BYLAYER
1002
{
1002
}
1002
}
1000
CAL3
1070
     9
1000
4
1002
{
1000
Class
1070
     4
1000
SYM
1002
{
1002
}
1000
Color
1070
     1
1070
     2
1002
{
1002
}
1000
LType
1070
     4
1000
BYLAYER
1002
{
1002
}
1002
}
1000
CAL5
1070
     9
1000
4
1002
{
1000
Class
1070
     4
1000
SYM
1002
{
1002
}
1000
Color
1070
     1
1070
     7
1002
{
1002
}
1000
LType
1070
     4
1000
BYLAYER
1002
{
1002
}
1002
}
1000
CAL7
1070
     9
1000
4
1002
{
1000
Class
1070
     4
1000
SYM
1002
{
1002
}
1000
Color
1070
     1
1070
     5
1002
{
1002
}
1000
LType
1070
     4
1000
BYLAYER
1002
{
1002
}
1002
}
1000
CENN
1070
     9
1000
7A
1002
{
1000
Class
1070
     4
1000
CEN
1002
{
1002
}
1000
Color
1070
     1
1070
   256
1002
{
1002
}
1000
LType
1070
     4
1000
BYLAYER
1002
{
1002
}
1002
}
1000
CENW
1070
     9
1000
7
1002
{
1000
Class
1070
     4
1000
CEN
1002
{
1002
}
1000
Color
1070
     1
1070
   256
1002
{
1002
}
1000
LType
1070
     4
1000
BYLAYER
1002
{
1002
}
1002
}
1000
CLIN
1070
     9
1000
KLIN
1002
{
1000
Class
1070
     4
1000
SPZ
1002
{
1002
}
1000
Color
1070
     1
1070
   256
1002
{
1002
}
1000
LType
1070
     4
1000
BYLAYER
1002
{
1002
}
1002
}
1000
CON1
1070
     9
1000
0
1002
{
1000
Class
1070
     4
1000
CON,BGD
1002
{
1002
}
1000
Color
1070
     1
1070
   256
1002
{
1002
}
1000
LType
1070
     4
1000
BYLAYER
1002
{
1002
}
1002
}
1000
CON2
1070
     9
1000
1
1002
{
1000
Class
1070
     4
1000
CON,BGD
1002
{
1002
}
1000
Color
1070
     1
1070
   256
1002
{
1002
}
1000
LType
1070
     4
1000
BYLAYER
1002
{
1002
}
1002
}
1000
CON3
1070
     9
1000
2
1002
{
1000
Class
1070
     4
1000
CON,BGD
1002
{
1002
}
1000
Color
1070
     1
1070
   256
1002
{
1002
}
1000
LType
1070
     4
1000
BYLAYER
1002
{
1002
}
1002
}
1000
CON4
1070
     9
1000
2
1002
{
1000
Class
1070
     4
1000
CON,BGD
1002
{
1002
}
1000
Color
1070
     1
1070
   256
1002
{
1002
}
1000
LType
1070
     4
1000
BYLAYER
1002
{
1002
}
1002
}
1000
DERP
1070
     9
1000
4
1002
{
1000
Class
1070
     4
1000

1002
{
1002
}
1000
Color
1070
     1
1070
   256
1002
{
1002
}
1000
LType
1070
     4
1000
BYLAYER
1002
{
1002
}
1002
}
1000
DETA
1070
     9
1000
4
1002
{
1000
Class
1070
     4
1000

1002
{
1002
}
1000
Color
1070
     1
1070
   256
1002
{
1002
}
1000
LType
1070
     4
1000
BYLAYER
1002
{
1002
}
1002
}
1000
DIAG
1070
     9
1000
5
1002
{
1000
Class
1070
     4
1000
SYM
1002
{
1002
}
1000
Color
1070
     1
1070
   256
1002
{
1002
}
1000
LType
1070
     4
1000
BYLAYER
1002
{
1002
}
1002
}
1000
DILI
1070
     9
1000
5
1002
{
1000
Class
1070
     4
1000
DIM,SYM
1002
{
1002
}
1000
Color
1070
     1
1070
   256
1002
{
1002
}
1000
LType
1070
     4
1000
BYLAYER
1002
{
1002
}
1002
}
1000
DITX
1070
     9
1000
5
1002
{
1000
Class
1070
     4
1000
DIM,SYM
1002
{
1002
}
1000
Color
1070
     1
1070
     2
1002
{
1002
}
1000
LType
1070
     4
1000
CONTINUOUS
1002
{
1002
}
1002
}
1000
DITO2
1070
     9
1000
5
1002
{
1000
Class
1070
     4
1000
DIM,SYM
1002
{
1002
}
1000
Color
1070
     1
1070
     3
1002
{
1002
}
1000
LType
1070
     4
1000
BYLAYER
1002
{
1002
}
1002
}
1000
DITO3
1070
     9
1000
5
1002
{
1000
Class
1070
     4
1000
DIM,SYM
1002
{
1002
}
1000
Color
1070
     1
1070
     2
1002
{
1002
}
1000
LType
1070
     4
1000
BYLAYER
1002
{
1002
}
1002
}
1000
DIXL
1070
     9
1000
5
1002
{
1000
Class
1070
     4
1000
DIM,SYM
1002
{
1002
}
1000
Color
1070
     1
1070
   256
1002
{
1002
}
1000
LType
1070
     4
1000
BYLAYER
1002
{
1002
}
1002
}
1000
EXMP
1070
     9
1000
4A
1002
{
1000
Class
1070
     4
1000

1002
{
1002
}
1000
Color
1070
     1
1070
   256
1002
{
1002
}
1000
LType
1070
     4
1000
BYLAYER
1002
{
1002
}
1002
}
1000
FEMN
1070
     9
1000
8
1002
{
1000
Class
1070
     4
1000

1002
{
1002
}
1000
Color
1070
     1
1070
   256
1002
{
1002
}
1000
LType
1070
     4
1000
BYLAYER
1002
{
1002
}
1002
}
1000
FEMPN
1070
     9
1000
8
1002
{
1000
Class
1070
     4
1000
SYM
1002
{
1002
}
1000
Color
1070
     1
1070
     3
1002
{
1002
}
1000
LType
1070
     4
1000
BYLAYER
1002
{
1002
}
1002
}
1000
FEMSP
1070
     9
1000
4A
1002
{
1000
Class
1070
     4
1000

1002
{
1002
}
1000
Color
1070
     1
1070
   256
1002
{
1002
}
1000
LType
1070
     4
1000
CONTINUOUS
1002
{
1002
}
1002
}
1000
FEMST
1070
     9
1000
4A
1002
{
1000
Class
1070
     4
1000
SYM
1002
{
1002
}
1000
Color
1070
     1
1070
     3
1002
{
1002
}
1000
LType
1070
     4
1000
BYLAYER
1002
{
1002
}
1002
}
1000
FEMVN
1070
     9
1000
2
1002
{
1000
Class
1070
     4
1000
CON
1002
{
1002
}
1000
Color
1070
     1
1070
   256
1002
{
1002
}
1000
LType
1070
     4
1000
BYLAYER
1002
{
1002
}
1002
}
1000
FEMVT
1070
     9
1000
2
1002
{
1000
Class
1070
     4
1000
SYM
1002
{
1002
}
1000
Color
1070
     1
1070
     3
1002
{
1002
}
1000
LType
1070
     4
1000
BYLAYER
1002
{
1002
}
1002
}
1000
FLAT
1070
     9
1000
0
1002
{
1000
Class
1070
     4
1000

1002
{
1002
}
1000
Color
1070
     1
1070
   256
1002
{
1002
}
1000
LType
1070
     4
1000
BYLAYER
1002
{
1002
}
1002
}
1000
FRAR
1070
     9
1000
4A
1002
{
1000
Class
1070
     4
1000

1002
{
1002
}
1000
Color
1070
     1
1070
   256
1002
{
1002
}
1000
LType
1070
     4
1000
BYLAYER
1002
{
1002
}
1002
}
1000
GRLI
1070
     9
1000
5
1002
{
1000
Class
1070
     4
1000
SYM
1002
{
1002
}
1000
Color
1070
     1
1070
   256
1002
{
1002
}
1000
LType
1070
     4
1000
BYLAYER
1002
{
1002
}
1002
}
1000
GVLI
1070
     9
1000
4A
1002
{
1000
Class
1070
     4
1000

1002
{
1002
}
1000
Color
1070
     1
1070
   256
1002
{
1002
}
1000
LType
1070
     4
1000
BYLAYER
1002
{
1002
}
1002
}
1000
HATC
1070
     9
1000
8
1002
{
1000
Class
1070
     4
1000
HTC,BGD
1002
{
1002
}
1000
Color
1070
     1
1070
   256
1002
{
1002
}
1000
LType
1070
     4
1000
BYLAYER
1002
{
1002
}
1002
}
1000
HIDN
1070
     9
1000
3A
1002
{
1000
Class
1070
     4
1000
HID,BGD
1002
{
1002
}
1000
Color
1070
     1
1070
   256
1002
{
1002
}
1000
LType
1070
     4
1000
BYLAYER
1002
{
1002
}
1002
}
1000
HIDW
1070
     9
1000
3
1002
{
1000
Class
1070
     4
1000
HID,BGD
1002
{
1002
}
1000
Color
1070
     1
1070
   256
1002
{
1002
}
1000
LType
1070
     4
1000
BYLAYER
1002
{
1002
}
1002
}
1000
HLIN
1070
     9
1000
4
1002
{
1000
Class
1070
     4
1000
BGD
1002
{
1002
}
1000
Color
1070
     1
1070
   256
1002
{
1002
}
1000
LType
1070
     4
1000
BYLAYER
1002
{
1002
}
1002
}
1000
HOCN
1070
     9
1000
7A
1002
{
1000
Class
1070
     4
1000
CEN
1002
{
1002
}
1000
Color
1070
     1
1070
   256
1002
{
1002
}
1000
LType
1070
     4
1000
BYLAYER
1002
{
1002
}
1002
}
1000
HOCW
1070
     9
1000
7
1002
{
1000
Class
1070
     4
1000
CEN
1002
{
1002
}
1000
Color
1070
     1
1070
   256
1002
{
1002
}
1000
LType
1070
     4
1000
BYLAYER
1002
{
1002
}
1002
}
1000
INFO
1070
     9
1000
INFO
1002
{
1000
Class
1070
     4
1000
SPZ,SYM
1002
{
1002
}
1000
Color
1070
     1
1070
   256
1002
{
1002
}
1000
LType
1070
     4
1000
BYLAYER
1002
{
1002
}
1002
}
1000
LADI
1070
     9
1000
4
1002
{
1000
Class
1070
     4
1000
BGD
1002
{
1002
}
1000
Color
1070
     1
1070
   256
1002
{
1002
}
1000
LType
1070
     4
1000
BYLAYER
1002
{
1002
}
1002
}
1000
LEAD
1070
     9
1000
5
1002
{
1000
Class
1070
     4
1000
SYM
1002
{
1002
}
1000
Color
1070
     1
1070
   256
1002
{
1002
}
1000
LType
1070
     4
1000
BYLAYER
1002
{
1002
}
1002
}
1000
N_BHNV
1070
     9
1000
9N
1002
{
1000
Class
1070
     4
1000
INV
1002
{
1002
}
1000
Color
1070
     1
1070
   256
1002
{
1002
}
1000
LType
1070
     4
1000
BYLAYER
1002
{
1002
}
1002
}
1000
N_CON1
1070
     9
1000
0N
1002
{
1000
Class
1070
     4
1000
CON,BGD
1002
{
1002
}
1000
Color
1070
     1
1070
   256
1002
{
1002
}
1000
LType
1070
     4
1000
BYLAYER
1002
{
1002
}
1002
}
1000
N_CON2
1070
     9
1000
1N
1002
{
1000
Class
1070
     4
1000
CON,BGD
1002
{
1002
}
1000
Color
1070
     1
1070
   256
1002
{
1002
}
1000
LType
1070
     4
1000
BYLAYER
1002
{
1002
}
1002
}
1000
N_CON3
1070
     9
1000
2N
1002
{
1000
Class
1070
     4
1000
CON,BGD
1002
{
1002
}
1000
Color
1070
     1
1070
   256
1002
{
1002
}
1000
LType
1070
     4
1000
BYLAYER
1002
{
1002
}
1002
}
1000
N_CON4
1070
     9
1000
2N
1002
{
1000
Class
1070
     4
1000
CON,BGD
1002
{
1002
}
1000
Color
1070
     1
1070
   256
1002
{
1002
}
1000
LType
1070
     4
1000
BYLAYER
1002
{
1002
}
1002
}
1000
N_CENN
1070
     9
1000
7AN
1002
{
1000
Class
1070
     4
1000
CEN
1002
{
1002
}
1000
Color
1070
     1
1070
   256
1002
{
1002
}
1000
LType
1070
     4
1000
BYLAYER
1002
{
1002
}
1002
}
1000
N_CENW
1070
     9
1000
7N
1002
{
1000
Class
1070
     4
1000
CEN
1002
{
1002
}
1000
Color
1070
     1
1070
   256
1002
{
1002
}
1000
LType
1070
     4
1000
BYLAYER
1002
{
1002
}
1002
}
1000
N_DILI
1070
     9
1000
5N
1002
{
1000
Class
1070
     4
1000
DIM,SYM
1002
{
1002
}
1000
Color
1070
     1
1070
   256
1002
{
1002
}
1000
LType
1070
     4
1000
BYLAYER
1002
{
1002
}
1002
}
1000
N_DITX
1070
     9
1000
5N
1002
{
1000
Class
1070
     4
1000
DIM,SYM
1002
{
1002
}
1000
Color
1070
     1
1070
     2
1002
{
1002
}
1000
LType
1070
     4
1000
CONTINUOUS
1002
{
1002
}
1002
}
1000
N_DIXL
1070
     9
1000
5N
1002
{
1000
Class
1070
     4
1000
DIM,SYM
1002
{
1002
}
1000
Color
1070
     1
1070
   256
1002
{
1002
}
1000
LType
1070
     4
1000
BYLAYER
1002
{
1002
}
1002
}
1000
N_HATC
1070
     9
1000
8N
1002
{
1000
Class
1070
     4
1000
HTC,BGD
1002
{
1002
}
1000
Color
1070
     1
1070
   256
1002
{
1002
}
1000
LType
1070
     4
1000
BYLAYER
1002
{
1002
}
1002
}
1000
N_HIDN
1070
     9
1000
3AN
1002
{
1000
Class
1070
     4
1000
HID,BGD
1002
{
1002
}
1000
Color
1070
     1
1070
   256
1002
{
1002
}
1000
LType
1070
     4
1000
BYLAYER
1002
{
1002
}
1002
}
1000
N_HIDW
1070
     9
1000
3N
1002
{
1000
Class
1070
     4
1000
HID,BGD
1002
{
1002
}
1000
Color
1070
     1
1070
   256
1002
{
1002
}
1000
LType
1070
     4
1000
BYLAYER
1002
{
1002
}
1002
}
1000
N_PHAN
1070
     9
1000
4AN
1002
{
1000
Class
1070
     4
1000

1002
{
1002
}
1000
Color
1070
     1
1070
   256
1002
{
1002
}
1000
LType
1070
     4
1000
BYLAYER
1002
{
1002
}
1002
}
1000
N_POSL
1070
     9
1000
5N
1002
{
1000
Class
1070
     4
1000
SYM
1002
{
1002
}
1000
Color
1070
     1
1070
   256
1002
{
1002
}
1000
LType
1070
     4
1000
BYLAYER
1002
{
1002
}
1002
}
1000
N_TCON
1070
     9
1000
0N
1002
{
1000
Class
1070
     4
1000
CON,BGD
1002
{
1002
}
1000
Color
1070
     1
1070
   256
1002
{
1002
}
1000
LType
1070
     4
1000
BYLAYER
1002
{
1002
}
1002
}
1000
N_THLI
1070
     9
1000
4N
1002
{
1000
Class
1070
     4
1000
BGD
1002
{
1002
}
1000
Color
1070
     1
1070
   256
1002
{
1002
}
1000
LType
1070
     4
1000
BYLAYER
1002
{
1002
}
1002
}
1000
N_TLEN
1070
     9
1000
0N
1002
{
1000
Class
1070
     4
1000
CON,BGD
1002
{
1002
}
1000
Color
1070
     1
1070
   256
1002
{
1002
}
1000
LType
1070
     4
1000
BYLAYER
1002
{
1002
}
1002
}
1000
N_TXT3
1070
     9
1000
6N
1002
{
1000
Class
1070
     4
1000
SYM
1002
{
1002
}
1000
Color
1070
     1
1070
   256
1002
{
1002
}
1000
LType
1070
     4
1000
BYLAYER
1002
{
1002
}
1002
}
1000
N_VPLI
1070
     9
1000
2AN
1002
{
1000
Class
1070
     4
1000

1002
{
1002
}
1000
Color
1070
     1
1070
   256
1002
{
1002
}
1000
LType
1070
     4
1000
BYLAYER
1002
{
1002
}
1002
}
1000
PAL2
1070
     9
1000
RAHM2
1002
{
1000
Class
1070
     4
1000
SPZ,SYM
1002
{
1002
}
1000
Color
1070
     1
1070
   256
1002
{
1002
}
1000
LType
1070
     4
1000
BYLAYER
1002
{
1002
}
1002
}
1000
PAL3
1070
     9
1000
RAHM3
1002
{
1000
Class
1070
     4
1000
SPZ,SYM
1002
{
1002
}
1000
Color
1070
     1
1070
   256
1002
{
1002
}
1000
LType
1070
     4
1000
BYLAYER
1002
{
1002
}
1002
}
1000
PAL5
1070
     9
1000
RAHM5
1002
{
1000
Class
1070
     4
1000
SPZ,SYM
1002
{
1002
}
1000
Color
1070
     1
1070
   256
1002
{
1002
}
1000
LType
1070
     4
1000
BYLAYER
1002
{
1002
}
1002
}
1000
PAL7
1070
     9
1000
RAHM5
1002
{
1000
Class
1070
     4
1000
SPZ,SYM
1002
{
1002
}
1000
Color
1070
     1
1070
     7
1002
{
1002
}
1000
LType
1070
     4
1000
CONTINUOUS
1002
{
1002
}
1002
}
1000
PHAN
1070
     9
1000
4A
1002
{
1000
Class
1070
     4
1000

1002
{
1002
}
1000
Color
1070
     1
1070
   256
1002
{
1002
}
1000
LType
1070
     4
1000
BYLAYER
1002
{
1002
}
1002
}
1000
POSL
1070
     9
1000
5
1002
{
1000
Class
1070
     4
1000
SYM
1002
{
1002
}
1000
Color
1070
     1
1070
   256
1002
{
1002
}
1000
LType
1070
     4
1000
BYLAYER
1002
{
1002
}
1002
}
1000
POSN
1070
     9
1000
6
1002
{
1000
Class
1070
     4
1000
SYM
1002
{
1002
}
1000
Color
1070
     1
1070
     7
1002
{
1002
}
1000
LType
1070
     4
1000
BYLAYER
1002
{
1002
}
1002
}
1000
POSREF
1070
     9
1000
6
1002
{
1000
Class
1070
     4
1000
SYM
1002
{
1002
}
1000
Color
1070
     1
1070
     5
1002
{
1002
}
1000
LType
1070
     4
1000
BYLAYER
1002
{
1002
}
1002
}
1000
POSX
1070
     9
1000
5
1002
{
1000
Class
1070
     4
1000
SYM
1002
{
1002
}
1000
Color
1070
     1
1070
     2
1002
{
1002
}
1000
LType
1070
     4
1000
CONTINUOUS
1002
{
1002
}
1002
}
1000
PSEC
1070
     9
1000
4A
1002
{
1000
Class
1070
     4
1000

1002
{
1002
}
1000
Color
1070
     1
1070
   256
1002
{
1002
}
1000
LType
1070
     4
1000
BYLAYER
1002
{
1002
}
1002
}
1000
RCGN
1070
     9
1000
7A
1002
{
1000
Class
1070
     4
1000
CEN
1002
{
1002
}
1000
Color
1070
     1
1070
   256
1002
{
1002
}
1000
LType
1070
     4
1000
BYLAYER
1002
{
1002
}
1002
}
1000
RCGW
1070
     9
1000
7
1002
{
1000
Class
1070
     4
1000
CEN
1002
{
1002
}
1000
Color
1070
     1
1070
   256
1002
{
1002
}
1000
LType
1070
     4
1000
BYLAYER
1002
{
1002
}
1002
}
1000
RFDI
1070
     9
1000
4
1002
{
1000
Class
1070
     4
1000
BGD
1002
{
1002
}
1000
Color
1070
     1
1070
   256
1002
{
1002
}
1000
LType
1070
     4
1000
BYLAYER
1002
{
1002
}
1002
}
1000
RQTR
1070
     9
1000
4
1002
{
1000
Class
1070
     4
1000

1002
{
1002
}
1000
Color
1070
     1
1070
     7
1002
{
1002
}
1000
LType
1070
     4
1000
GEN7A
1002
{
1002
}
1002
}
1000
RSBO
1070
     9
1000
4
1002
{
1000
Class
1070
     4
1000
BGD
1002
{
1002
}
1000
Color
1070
     1
1070
   256
1002
{
1002
}
1000
LType
1070
     4
1000
BYLAYER
1002
{
1002
}
1002
}
1000
SBRK
1070
     9
1000
4
1002
{
1000
Class
1070
     4
1000
BGD
1002
{
1002
}
1000
Color
1070
     1
1070
   256
1002
{
1002
}
1000
LType
1070
     4
1000
BYLAYER
1002
{
1002
}
1002
}
1000
SCEN
1070
     9
1000
7
1002
{
1000
Class
1070
     4
1000

1002
{
1002
}
1000
Color
1070
     1
1070
   256
1002
{
1002
}
1000
LType
1070
     4
1000
CONTINUOUS
1002
{
1002
}
1002
}
1000
SECT
1070
     9
1000
4
1002
{
1000
Class
1070
     4
1000
BGD
1002
{
1002
}
1000
Color
1070
     1
1070
   256
1002
{
1002
}
1000
LType
1070
     4
1000
BYLAYER
1002
{
1002
}
1002
}
1000
SELN
1070
     9
1000
7A
1002
{
1000
Class
1070
     4
1000

1002
{
1002
}
1000
Color
1070
     1
1070
   256
1002
{
1002
}
1000
LType
1070
     4
1000
BYLAYER
1002
{
1002
}
1002
}
1000
SELW
1070
     9
1000
7
1002
{
1000
Class
1070
     4
1000

1002
{
1002
}
1000
Color
1070
     1
1070
   256
1002
{
1002
}
1000
LType
1070
     4
1000
BYLAYER
1002
{
1002
}
1002
}
1000
SSYS
1070
     9
1000
0
1002
{
1000
Class
1070
     4
1000

1002
{
1002
}
1000
Color
1070
     1
1070
   256
1002
{
1002
}
1000
LType
1070
     4
1000
BYLAYER
1002
{
1002
}
1002
}
1000
STLI
1070
     9
1000
4
1002
{
1000
Class
1070
     4
1000

1002
{
1002
}
1000
Color
1070
     1
1070
     7
1002
{
1002
}
1000
LType
1070
     4
1000
GEN3A
1002
{
1002
}
1002
}
1000
SYB1
1070
     9
1000
5
1002
{
1000
Class
1070
     4
1000
SYM
1002
{
1002
}
1000
Color
1070
     1
1070
   256
1002
{
1002
}
1000
LType
1070
     4
1000
BYLAYER
1002
{
1002
}
1002
}
1000
SYB2
1070
     9
1000
5
1002
{
1000
Class
1070
     4
1000
SYM
1002
{
1002
}
1000
Color
1070
     1
1070
   256
1002
{
1002
}
1000
LType
1070
     4
1000
BYLAYER
1002
{
1002
}
1002
}
1000
SYB3
1070
     9
1000
6
1002
{
1000
Class
1070
     4
1000
SYM
1002
{
1002
}
1000
Color
1070
     1
1070
   256
1002
{
1002
}
1000
LType
1070
     4
1000
CONTINUOUS
1002
{
1002
}
1002
}
1000
SYB5
1070
     9
1000
5
1002
{
1000
Class
1070
     4
1000
SYM
1002
{
1002
}
1000
Color
1070
     1
1070
     7
1002
{
1002
}
1000
LType
1070
     4
1000
BYLAYER
1002
{
1002
}
1002
}
1000
SYMN
1070
     9
1000
7A
1002
{
1000
Class
1070
     4
1000
CEN
1002
{
1002
}
1000
Color
1070
     1
1070
   256
1002
{
1002
}
1000
LType
1070
     4
1000
BYLAYER
1002
{
1002
}
1002
}
1000
SYMW
1070
     9
1000
7
1002
{
1000
Class
1070
     4
1000
CEN
1002
{
1002
}
1000
Color
1070
     1
1070
   256
1002
{
1002
}
1000
LType
1070
     4
1000
BYLAYER
1002
{
1002
}
1002
}
1000
TCON
1070
     9
1000
0
1002
{
1000
Class
1070
     4
1000
CON,BGD
1002
{
1002
}
1000
Color
1070
     1
1070
   256
1002
{
1002
}
1000
LType
1070
     4
1000
BYLAYER
1002
{
1002
}
1002
}
1000
THLI
1070
     9
1000
4
1002
{
1000
Class
1070
     4
1000
BGD
1002
{
1002
}
1000
Color
1070
     1
1070
   256
1002
{
1002
}
1000
LType
1070
     4
1000
BYLAYER
1002
{
1002
}
1002
}
1000
TIT2
1070
     9
1000
RAHM2
1002
{
1000
Class
1070
     4
1000
SPZ,SYM
1002
{
1002
}
1000
Color
1070
     1
1070
   256
1002
{
1002
}
1000
LType
1070
     4
1000
BYLAYER
1002
{
1002
}
1002
}
1000
TIT3
1070
     9
1000
RAHM3
1002
{
1000
Class
1070
     4
1000
SPZ,SYM
1002
{
1002
}
1000
Color
1070
     1
1070
   256
1002
{
1002
}
1000
LType
1070
     4
1000
BYLAYER
1002
{
1002
}
1002
}
1000
TIT5
1070
     9
1000
RAHM5
1002
{
1000
Class
1070
     4
1000
SPZ,SYM
1002
{
1002
}
1000
Color
1070
     1
1070
   256
1002
{
1002
}
1000
LType
1070
     4
1000
BYLAYER
1002
{
1002
}
1002
}
1000
TIT7
1070
     9
1000
RAHM5
1002
{
1000
Class
1070
     4
1000
SPZ,SYM
1002
{
1002
}
1000
Color
1070
     1
1070
     7
1002
{
1002
}
1000
LType
1070
     4
1000
CONTINUOUS
1002
{
1002
}
1002
}
1000
TLEN
1070
     9
1000
0
1002
{
1000
Class
1070
     4
1000
CON,BGD
1002
{
1002
}
1000
Color
1070
     1
1070
   256
1002
{
1002
}
1000
LType
1070
     4
1000
BYLAYER
1002
{
1002
}
1002
}
1000
TRKN
1070
     9
1000
7A
1002
{
1000
Class
1070
     4
1000

1002
{
1002
}
1000
Color
1070
     1
1070
   256
1002
{
1002
}
1000
LType
1070
     4
1000
BYLAYER
1002
{
1002
}
1002
}
1000
TRKW
1070
     9
1000
7
1002
{
1000
Class
1070
     4
1000

1002
{
1002
}
1000
Color
1070
     1
1070
   256
1002
{
1002
}
1000
LType
1070
     4
1000
BYLAYER
1002
{
1002
}
1002
}
1000
TRLI
1070
     9
1000
4
1002
{
1000
Class
1070
     4
1000
BGD
1002
{
1002
}
1000
Color
1070
     1
1070
   256
1002
{
1002
}
1000
LType
1070
     4
1000
BYLAYER
1002
{
1002
}
1002
}
1000
TXT1
1070
     9
1000
6
1002
{
1000
Class
1070
     4
1000
SYM
1002
{
1002
}
1000
Color
1070
     1
1070
     2
1002
{
1002
}
1000
LType
1070
     4
1000
BYLAYER
1002
{
1002
}
1002
}
1000
TXT2
1070
     9
1000
6
1002
{
1000
Class
1070
     4
1000
SYM
1002
{
1002
}
1000
Color
1070
     1
1070
     2
1002
{
1002
}
1000
LType
1070
     4
1000
BYLAYER
1002
{
1002
}
1002
}
1000
TXT3
1070
     9
1000
6
1002
{
1000
Class
1070
     4
1000
SYM
1002
{
1002
}
1000
Color
1070
     1
1070
   256
1002
{
1002
}
1000
LType
1070
     4
1000
BYLAYER
1002
{
1002
}
1002
}
1000
TXT5
1070
     9
1000
6
1002
{
1000
Class
1070
     4
1000
SYM
1002
{
1002
}
1000
Color
1070
     1
1070
     7
1002
{
1002
}
1000
LType
1070
     4
1000
BYLAYER
1002
{
1002
}
1002
}
1000
TXT7
1070
     9
1000
6
1002
{
1000
Class
1070
     4
1000
SYM
1002
{
1002
}
1000
Color
1070
     1
1070
     7
1002
{
1002
}
1000
LType
1070
     4
1000
BYLAYER
1002
{
1002
}
1002
}
1000
VIEW
1070
     9
1000
VIEW
1002
{
1000
Class
1070
     4
1000
SPZ
1002
{
1002
}
1000
Color
1070
     1
1070
   256
1002
{
1002
}
1000
LType
1070
     4
1000
BYLAYER
1002
{
1002
}
1002
}
1000
VPLI
1070
     9
1000
2A
1002
{
1000
Class
1070
     4
1000

1002
{
1002
}
1000
Color
1070
     1
1070
   256
1002
{
1002
}
1000
LType
1070
     4
1000
BYLAYER
1002
{
1002
}
1002
}
1000
ZIZA
1070
     9
1000
4
1002
{
1000
Class
1070
     4
1000
BGD
1002
{
1002
}
1000
Color
1070
     1
1070
   256
1002
{
1002
}
1000
LType
1070
     4
1000
GENZIGZAG
1002
{
1002
}
1002
}
  0
APPID
  5
36F
100
AcDbSymbolTableRecord
100
AcDbRegAppTableRecord
  2
GENIUS_GENCFG3_13
 70
     0
1001
GENIUS_GENCFG_13
1071
881141927
1000
36F
1000
GEN@OSWIZ
1070
    12
1000
GenCfgObject
1000
GenCfgShort
1000
GenCfgReal
1000
GenCfgBool
1000
GenCfgString
1000
GenCfgDim
1000
GenCfgAttrInf
1000
GenCfgLaySection
1000
GenCfgLayer
1000
GenCfgEntSort
1000
GenCfgLType
1000
GenCfgFilter
1000
AngleStep
1070
     0
1002
{
1000
M
1070
     2
1040
10.0
1002
{
1002
}
1000
I
1070
     2
1040
0.4
1002
{
1002
}
1002
}
1000
AngleIncr
1070
     2
1040
45.0
1002
{
1002
}
1000
Filter
1070
     0
1002
{
1000
HATCH
1070
    11
1002
{
1000
EntityType
1070
     4
1000
LINE
1002
{
1002
}
1000
Layer
1070
     4
1000
8,8N,*-8,*-8N
1002
{
1002
}
1000
Linetype
1070
     4
1000
*
1002
{
1002
}
1000
Color
1070
     4
1000
*
1002
{
1002
}
1002
}
1000
SYMBOLS
1070
    11
1002
{
1000
EntityType
1070
     4
1000
*
1002
{
1002
}
1000
Layer
1070
     4
1000
[5-6],[5-6]N,*-[5-6],*-[5-6]N
1002
{
1002
}
1000
Linetype
1070
     4
1000
*
1002
{
1002
}
1000
Color
1070
     4
1000
*
1002
{
1002
}
1002
}
1000
FEM
1070
    11
1002
{
1000
EntityType
1070
     4
1000
*
1002
{
1002
}
1000
Layer
1070
     4
1000
4A,4AN,*-4A,*-4AN
1002
{
1002
}
1000
Linetype
1070
     4
1000
*
1002
{
1002
}
1000
Color
1070
     4
1000
*
1002
{
1002
}
1002
}
1002
}
1000
IconSize
1070
     2
1040
1.0
1002
{
1002
}
1000
SnapColor
1070
     1
1070
     3
1002
{
1002
}
  0
APPID
  5
370
100
AcDbSymbolTableRecord
100
AcDbRegAppTableRecord
  2
GENIUS_GENCFG4_13
 70
     0
1001
GENIUS_GENCFG_13
1071
881141927
1000
370
1000
GEN
1070
    12
1000
GenCfgObject
1000
GenCfgShort
1000
GenCfgReal
1000
GenCfgBool
1000
GenCfgString
1000
GenCfgDim
1000
GenCfgAttrInf
1000
GenCfgLaySection
1000
GenCfgLayer
1000
GenCfgEntSort
1000
GenCfgLType
1000
GenCfgFilter
1000
Balloon
1070
     0
1002
{
1000
GenIF
1070
     1
1070
     0
1002
{
1002
}
1000
GenPosInc
1070
     1
1070
    10
1002
{
1002
}
1000
GenPosBlk
1070
     1
1070
     8
1002
{
1002
}
1000
GenPosVar
1070
     1
1070
     2
1002
{
1002
}
1000
GenZiCir
1070
     2
1040
1.5
1002
{
1002
}
1000
MaxCharForCenteredText
1070
     1
1070
    30
1002
{
1002
}
1000
Snap
1070
     0
1002
{
1000
ActivationRadius
1070
     2
1040
1.0
1002
{
1002
}
1000
M
1070
     0
1002
{
1000
SnapStepX
1070
     2
1040
20.0
1002
{
1002
}
1000
SnapStepY
1070
     2
1040
10.0
1002
{
1002
}
1002
}
1000
I
1070
     0
1002
{
1000
SnapStepX
1070
     2
1040
1.0
1002
{
1002
}
1000
SnapStepY
1070
     2
1040
0.5
1002
{
1002
}
1002
}
1002
}
1002
}
1000
Centerline
1070
     0
1002
{
1000
ScaleNot
1070
     3
1070
     1
1002
{
1002
}
1000
M
1070
     0
1002
{
1000
GenCenAng
1070
     4
1000
45|90|135
1002
{
1002
}
1000
GenCenDia
1070
     2
1040
10.0
1002
{
1002
}
1000
GenCenDias
1070
     4
1000
10|20|30
1002
{
1002
}
1000
GenCenDist
1070
     2
1040
3.0
1002
{
1002
}
1000
GenCenLen
1070
     2
1040
10.0
1002
{
1002
}
1000
GenCenOff
1070
     2
1040
10.0
1002
{
1002
}
1002
}
1000
I
1070
     0
1002
{
1000
GenCenAng
1070
     4
1000
45|90|135
1002
{
1002
}
1000
GenCenDia
1070
     2
1040
0.5
1002
{
1002
}
1000
GenCenDias
1070
     4
1000
0.5|1.0|1.5
1002
{
1002
}
1000
GenCenDist
1070
     2
1040
0.125
1002
{
1002
}
1000
GenCenLen
1070
     2
1040
0.5
1002
{
1002
}
1000
GenCenOff
1070
     2
1040
0.5
1002
{
1002
}
1002
}
1002
}
1000
CLine
1070
     0
1002
{
1000
CAngArray
1070
     4
1000
30|45|60
1002
{
1002
}
1000
Typ
1070
     4
1000
XLINE
1002
{
1002
}
1000
M
1070
     0
1002
{
1000
CLinArray
1070
     4
1000
60
1002
{
1002
}
1002
}
1000
I
1070
     0
1002
{
1000
CLinArray
1070
     4
1000
0.125|0.25|0.5
1002
{
1002
}
1002
}
1002
}
1000
Constraints
1070
     0
1002
{
1000
Color
1070
     0
1002
{
1000
Active_Frame
1070
     1
1070
     2
1002
{
1002
}
1000
Inactive_Frame
1070
     1
1070
     8
1002
{
1002
}
1002
}
1000
Debug
1070
     0
1002
{
1002
}
1000
Editor
1070
     0
1002
{
1002
}
1000
Frame
1070
     0
1002
{
1002
}
1000
Sys
1070
     0
1002
{
1002
}
1002
}
1000
Detail
1070
     0
1002
{
1002
}
1000
Dimension
1070
     5
1002
{
1000
DIMALT
1070
     1
1070
     0
1002
{
1002
}
1000
DIMALTD
1070
     1
1070
     2
1002
{
1002
}
1000
DIMALTTD
1070
     1
1070
     4
1002
{
1002
}
1000
DIMALTTZ
1070
     1
1070
     0
1002
{
1002
}
1000
DIMALTU
1070
     1
1070
     2
1002
{
1002
}
1000
DIMALTZ
1070
     1
1070
     0
1002
{
1002
}
1000
DIMAPOST
1070
     4
1000

1002
{
1002
}
1000
DIMAUNIT
1070
     1
1070
     0
1002
{
1002
}
1000
DIMBLK
1070
     4
1000

1002
{
1002
}
1000
DIMBLK1
1070
     4
1000

1002
{
1002
}
1000
DIMBLK2
1070
     4
1000

1002
{
1002
}
1000
DIMDLE
1070
     2
1040
0.0
1002
{
1002
}
1000
DIMFIT
1070
     1
1070
     3
1002
{
1002
}
1000
DIMJUST
1070
     1
1070
     0
1002
{
1002
}
1000
DIMLFAC
1070
     2
1040
1.0
1002
{
1002
}
1000
DIMLIM
1070
     1
1070
     0
1002
{
1002
}
1000
DIMPOST
1070
     4
1000
<>
1002
{
1002
}
1000
DIMRND
1070
     2
1040
0.0
1002
{
1002
}
1000
DIMSAH
1070
     1
1070
     0
1002
{
1002
}
1000
DIMSCALE
1070
     2
1040
1.0
1002
{
1002
}
1000
DIMSD1
1070
     1
1070
     0
1002
{
1002
}
1000
DIMSD2
1070
     1
1070
     0
1002
{
1002
}
1000
DIMSE1
1070
     1
1070
     0
1002
{
1002
}
1000
DIMSE2
1070
     1
1070
     0
1002
{
1002
}
1000
DIMSOXD
1070
     1
1070
     0
1002
{
1002
}
1000
DIMTAD
1070
     1
1070
     0
1002
{
1002
}
1000
DIMTFAC
1070
     2
1040
0.71
1002
{
1002
}
1000
DIMTIH
1070
     1
1070
     0
1002
{
1002
}
1000
DIMTIX
1070
     1
1070
     0
1002
{
1002
}
1000
DIMTM
1070
     2
1040
0.1
1002
{
1002
}
1000
DIMTOFL
1070
     1
1070
     0
1002
{
1002
}
1000
DIMTOH
1070
     1
1070
     0
1002
{
1002
}
1000
DIMTOL
1070
     1
1070
     0
1002
{
1002
}
1000
DIMTOLJ
1070
     1
1070
     1
1002
{
1002
}
1000
DIMTP
1070
     2
1040
0.1
1002
{
1002
}
1000
DIMTSZ
1070
     2
1040
0.0
1002
{
1002
}
1000
DIMTVP
1070
     2
1040
0.0
1002
{
1002
}
1000
DIMTXSTY
1070
     4
1000
STANDARD
1002
{
1002
}
1000
DIMTZIN
1070
     1
1070
     0
1002
{
1002
}
1000
DIMUNIT
1070
     1
1070
     2
1002
{
1002
}
1000
DIMUPT
1070
     1
1070
     0
1002
{
1002
}
1000
M
1070
     0
1002
{
1000
DIMALTF
1070
     2
1040
0.03937
1002
{
1002
}
1000
DIMASZ
1070
     2
1040
2.5
1002
{
1002
}
1000
DIMCEN
1070
     2
1040
0.0
1002
{
1002
}
1000
DIMDEC
1070
     1
1070
     2
1002
{
1002
}
1000
DIMDLI
1070
     2
1040
7.0
1002
{
1002
}
1000
DIMEXE
1070
     2
1040
1.0
1002
{
1002
}
1000
DIMEXO
1070
     2
1040
1.0
1002
{
1002
}
1000
DIMGAP
1070
     2
1040
0.6
1002
{
1002
}
1000
DIMTDEC
1070
     1
1070
     3
1002
{
1002
}
1000
DIMTXT
1070
     2
1040
3.5
1002
{
1002
}
1000
DIMZIN
1070
     1
1070
     8
1002
{
1002
}
1002
}
1000
I
1070
     0
1002
{
1000
DIMALTF
1070
     2
1040
25.4
1002
{
1002
}
1000
DIMASZ
1070
     2
1040
0.1
1002
{
1002
}
1000
DIMCEN
1070
     2
1040
0.0
1002
{
1002
}
1000
DIMDEC
1070
     1
1070
     4
1002
{
1002
}
1000
DIMDLI
1070
     2
1040
0.5
1002
{
1002
}
1000
DIMEXE
1070
     2
1040
0.1
1002
{
1002
}
1000
DIMEXO
1070
     2
1040
0.05
1002
{
1002
}
1000
DIMGAP
1070
     2
1040
0.06
1002
{
1002
}
1000
DIMTDEC
1070
     1
1070
     4
1002
{
1002
}
1000
DIMTXT
1070
     2
1040
0.12
1002
{
1002
}
1000
DIMZIN
1070
     1
1070
     7
1002
{
1002
}
1002
}
1000
GEN-ISO
1070
     5
1002
{
1000
NAME
1070
     4
1000
GEN-ISO
1002
{
1002
}
1000
DIMTAD
1070
     1
1070
     1
1002
{
1002
}
1000
DIMTOLJ
1070
     1
1070
     0
1002
{
1002
}
1000
DIMTOFL
1070
     1
1070
     1
1002
{
1002
}
1000
M
1070
     0
1002
{
1002
}
1000
I
1070
     0
1002
{
1002
}
1002
}
1000
GEN-ISO-POS
1070
     5
1002
{
1000
NAME
1070
     4
1000
GEN-ISO-POS
1002
{
1002
}
1000
DIMTOLJ
1070
     1
1070
     0
1002
{
1002
}
1000
M
1070
     0
1002
{
1000
DIMASZ
1070
     2
1040
2.5
1002
{
1002
}
1000
DIMGAP
1070
     2
1040
1.5
1002
{
1002
}
1000
DIMTXT
1070
     2
1040
5.0
1002
{
1002
}
1002
}
1000
I
1070
     0
1002
{
1000
DIMASZ
1070
     2
1040
0.1
1002
{
1002
}
1000
DIMGAP
1070
     2
1040
0.06
1002
{
1002
}
1000
DIMTXT
1070
     2
1040
0.2
1002
{
1002
}
1002
}
1000
DIMSCALE
1070
     2
1040
1.0
1002
{
1002
}
1002
}
1000
GEN-ISO-CIR
1070
     5
1002
{
1000
NAME
1070
     4
1000
GEN-ISO$3
1002
{
1002
}
1000
DIMFIT
1070
     1
1070
     0
1002
{
1002
}
1000
DIMTAD
1070
     1
1070
     1
1002
{
1002
}
1000
DIMTIH
1070
     1
1070
     0
1002
{
1002
}
1000
DIMTIX
1070
     1
1070
     0
1002
{
1002
}
1000
DIMTOH
1070
     1
1070
     1
1002
{
1002
}
1000
DIMTOLJ
1070
     1
1070
     0
1002
{
1002
}
1000
DIMTOFL
1070
     1
1070
     0
1002
{
1002
}
1000
DIMUPT
1070
     1
1070
     1
1002
{
1002
}
1000
M
1070
     0
1002
{
1002
}
1000
I
1070
     0
1002
{
1002
}
1002
}
1000
GEN-ISO-RAD
1070
     5
1002
{
1000
NAME
1070
     4
1000
GEN-ISO$4
1002
{
1002
}
1000
DIMFIT
1070
     1
1070
     0
1002
{
1002
}
1000
DIMTAD
1070
     1
1070
     1
1002
{
1002
}
1000
DIMTIH
1070
     1
1070
     0
1002
{
1002
}
1000
DIMTIX
1070
     1
1070
     0
1002
{
1002
}
1000
DIMTOH
1070
     1
1070
     1
1002
{
1002
}
1000
DIMTOLJ
1070
     1
1070
     0
1002
{
1002
}
1000
DIMTOFL
1070
     1
1070
     0
1002
{
1002
}
1000
DIMUPT
1070
     1
1070
     1
1002
{
1002
}
1000
M
1070
     0
1002
{
1002
}
1000
I
1070
     0
1002
{
1002
}
1002
}
1000
GEN-ISO-ORD
1070
     5
1002
{
1000
NAME
1070
     4
1000
GEN-ISO$6
1002
{
1002
}
1000
DIMTOLJ
1070
     1
1070
     0
1002
{
1002
}
1000
M
1070
     0
1002
{
1002
}
1000
I
1070
     0
1002
{
1002
}
1002
}
1000
GEN-ISO-AXE-F
1070
     5
1002
{
1000
NAME
1070
     4
1000
GEN-ISO-AXE-F
1002
{
1002
}
1000
DIMSE1
1070
     1
1070
     1
1002
{
1002
}
1000
DIMSE2
1070
     1
1070
     1
1002
{
1002
}
1000
DIMTAD
1070
     1
1070
     1
1002
{
1002
}
1000
DIMTOLJ
1070
     1
1070
     0
1002
{
1002
}
1000
DIMTOFL
1070
     1
1070
     1
1002
{
1002
}
1000
M
1070
     0
1002
{
1002
}
1000
I
1070
     0
1002
{
1002
}
1002
}
1000
GEN-ISO-AXE-H
1070
     5
1002
{
1000
DIMBLK1
1070
     4
1000
GENAXEH
1002
{
1002
}
1000
DIMLFAC
1070
     2
1040
2.0
1002
{
1002
}
1000
DIMSAH
1070
     1
1070
     1
1002
{
1002
}
1000
DIMSE1
1070
     1
1070
     1
1002
{
1002
}
1000
DIMSE2
1070
     1
1070
     1
1002
{
1002
}
1000
DIMTAD
1070
     1
1070
     1
1002
{
1002
}
1000
DIMTOLJ
1070
     1
1070
     0
1002
{
1002
}
1000
DIMTOFL
1070
     1
1070
     1
1002
{
1002
}
1000
M
1070
     0
1002
{
1002
}
1000
I
1070
     0
1002
{
1002
}
1002
}
1000
GEN-ANSI
1070
     5
1002
{
1000
NAME
1070
     4
1000
GEN-ANSI
1002
{
1002
}
1000
DIMTIH
1070
     1
1070
     1
1002
{
1002
}
1000
DIMTOH
1070
     1
1070
     1
1002
{
1002
}
1000
DIMTAD
1070
     1
1070
     0
1002
{
1002
}
1000
DIMTOLJ
1070
     1
1070
     1
1002
{
1002
}
1000
M
1070
     0
1002
{
1002
}
1000
I
1070
     0
1002
{
1002
}
1002
}
1000
GEN-ANSI-POS
1070
     5
1002
{
1000
NAME
1070
     4
1000
GEN-ANSI-POS
1002
{
1002
}
1000
DIMTOLJ
1070
     1
1070
     1
1002
{
1002
}
1000
M
1070
     0
1002
{
1000
DIMASZ
1070
     2
1040
2.5
1002
{
1002
}
1000
DIMGAP
1070
     2
1040
1.5
1002
{
1002
}
1000
DIMTXT
1070
     2
1040
5.0
1002
{
1002
}
1002
}
1000
I
1070
     0
1002
{
1000
DIMASZ
1070
     2
1040
0.1
1002
{
1002
}
1000
DIMGAP
1070
     2
1040
0.06
1002
{
1002
}
1000
DIMTXT
1070
     2
1040
0.2
1002
{
1002
}
1002
}
1002
}
1000
GEN-ANSI-CIR
1070
     5
1002
{
1000
NAME
1070
     4
1000
GEN-ANSI$3
1002
{
1002
}
1000
DIMFIT
1070
     1
1070
     0
1002
{
1002
}
1000
DIMTAD
1070
     1
1070
     0
1002
{
1002
}
1000
DIMTIH
1070
     1
1070
     1
1002
{
1002
}
1000
DIMTIX
1070
     1
1070
     0
1002
{
1002
}
1000
DIMTOFL
1070
     1
1070
     0
1002
{
1002
}
1000
DIMTOH
1070
     1
1070
     1
1002
{
1002
}
1000
DIMTOLJ
1070
     1
1070
     1
1002
{
1002
}
1000
DIMUPT
1070
     1
1070
     1
1002
{
1002
}
1000
M
1070
     0
1002
{
1002
}
1000
I
1070
     0
1002
{
1002
}
1002
}
1000
GEN-ANSI-RAD
1070
     5
1002
{
1000
NAME
1070
     4
1000
GEN-ANSI$4
1002
{
1002
}
1000
DIMFIT
1070
     1
1070
     0
1002
{
1002
}
1000
DIMTAD
1070
     1
1070
     0
1002
{
1002
}
1000
DIMTIH
1070
     1
1070
     1
1002
{
1002
}
1000
DIMTIX
1070
     1
1070
     0
1002
{
1002
}
1000
DIMTOFL
1070
     1
1070
     0
1002
{
1002
}
1000
DIMTOH
1070
     1
1070
     1
1002
{
1002
}
1000
DIMTOLJ
1070
     1
1070
     1
1002
{
1002
}
1000
DIMUPT
1070
     1
1070
     1
1002
{
1002
}
1000
M
1070
     0
1002
{
1002
}
1000
I
1070
     0
1002
{
1002
}
1002
}
1000
GEN-ANSI-ORD
1070
     5
1002
{
1000
NAME
1070
     4
1000
GEN-ANSI$6
1002
{
1002
}
1000
DIMTAD
1070
     1
1070
     0
1002
{
1002
}
1000
DIMTIH
1070
     1
1070
     1
1002
{
1002
}
1000
DIMTOH
1070
     1
1070
     1
1002
{
1002
}
1000
DIMTOLJ
1070
     1
1070
     1
1002
{
1002
}
1000
M
1070
     0
1002
{
1002
}
1000
I
1070
     0
1002
{
1002
}
1002
}
1000
GEN-ANSI-AXE-F
1070
     5
1002
{
1000
NAME
1070
     4
1000
GEN-ANSI-AXE-F
1002
{
1002
}
1000
DIMBLK1
1070
     4
1000
GENAXEH
1002
{
1002
}
1000
DIMSAH
1070
     1
1070
     1
1002
{
1002
}
1000
DIMSE1
1070
     1
1070
     1
1002
{
1002
}
1000
DIMSE2
1070
     1
1070
     1
1002
{
1002
}
1000
DIMTAD
1070
     1
1070
     0
1002
{
1002
}
1000
DIMTIH
1070
     1
1070
     1
1002
{
1002
}
1000
DIMTOH
1070
     1
1070
     1
1002
{
1002
}
1000
DIMTOLJ
1070
     1
1070
     1
1002
{
1002
}
1000
M
1070
     0
1002
{
1002
}
1000
I
1070
     0
1002
{
1002
}
1002
}
1000
GEN-ANSI-AXE-H
1070
     5
1002
{
1000
NAME
1070
     4
1000
GEN-ANSI-AXE-H
1002
{
1002
}
1000
DIMBLK1
1070
     4
1000
GENAXEH
1002
{
1002
}
1000
DIMLFAC
1070
     2
1040
2.0
1002
{
1002
}
1000
DIMSAH
1070
     1
1070
     1
1002
{
1002
}
1000
DIMSE1
1070
     1
1070
     1
1002
{
1002
}
1000
DIMSE2
1070
     1
1070
     1
1002
{
1002
}
1000
DIMTAD
1070
     1
1070
     0
1002
{
1002
}
1000
DIMTOFL
1070
     1
1070
     1
1002
{
1002
}
1000
DIMTOLJ
1070
     1
1070
     1
1002
{
1002
}
1000
M
1070
     0
1002
{
1002
}
1000
I
1070
     0
1002
{
1002
}
1002
}
1000
DIMZIN
1070
     1
1070
     8
1002
{
1002
}
1002
}
1000
DimSet
1070
     0
1002
{
1000
ChainSum
1070
     3
1070
     0
1002
{
1002
}
1000
DimDclTyp0
1070
     4
1000
dim23
1002
{
1002
}
1000
HorBra
1070
     3
1070
     0
1002
{
1002
}
1000
StrDia
1070
     4
1000
%%c<>
1002
{
1002
}
1000
StrRad
1070
     4
1000
R<>
1002
{
1002
}
1000
TextMinus
1070
     4
1000
<>
1002
{
1002
}
1000
TextPlus
1070
     4
1000
<>
1002
{
1002
}
1000
M
1070
     0
1002
{
1000
DimdliFirst
1070
     2
1040
10.0
1002
{
1002
}
1000
PointMakeDist
1070
     2
1040
10.0
1002
{
1002
}
1002
}
1000
I
1070
     0
1002
{
1000
DimdliFirst
1070
     2
1040
0.5
1002
{
1002
}
1000
PointMakeDist
1070
     2
1040
0.5
1002
{
1002
}
1002
}
1002
}
1000
Drawing
1070
     0
1002
{
1000
ChamferDimMode
1070
     1
1070
     2
1002
{
1002
}
1000
Gen_Fiso
1070
    -3
1040
1.0
1002
{
1002
}
1000
GenDimStil
1070
     4
1000
ISO
1002
{
1002
}
1000
GenDwgUScale
1070
     2
1040
1.0
1002
{
1002
}
1000
GenInch
1070
     4
1000
M
1002
{
1002
}
1000
GenPlotScale
1070
     4
1000
1:1
1002
{
1002
}
1000
Revisi
1070
     4
1000
0
1002
{
1002
}
1002
}
1000
DwgVar
1070
     0
1002
{
1000
M
1070
     0
1002
{
1002
}
1000
I
1070
     0
1002
{
1002
}
1002
}
1000
Hatch
1070
     0
1002
{
1000
GenHtcFlag
1070
     3
1070
     0
1002
{
1002
}
1002
}
1000
Info_Pos
1070
     0
1002
{
1000
DescrText
1070
     4
1000
5,6,7,8
1002
{
1002
}
1000
Attrib
1070
     0
1002
{
1000
0
1070
     6
1002
{
1000
Prompt
1070
     4
1000
(genmsg gendwg 103)
1002
{
1002
}
1000
Value
1070
     4
1000

1002
{
1002
}
1000
EditFlag
1070
     1
1070
     0
1002
{
1002
}
1002
}
1000
1
1070
     6
1002
{
1000
Prompt
1070
     4
1000
(genmsg gendwg 31)
1002
{
1002
}
1000
Value
1070
     4
1000
1
1002
{
1002
}
1000
EditFlag
1070
     1
1070
     1
1002
{
1002
}
1002
}
1000
2
1070
     6
1002
{
1000
Prompt
1070
     4
1000
(genmsg gendwg 32)
1002
{
1002
}
1000
Value
1070
     4
1000
1
1002
{
1002
}
1000
EditFlag
1070
     1
1070
     1
1002
{
1002
}
1002
}
1000
3
1070
     6
1002
{
1000
Prompt
1070
     4
1000
(genmsg gendwg 33)
1002
{
1002
}
1000
Value
1070
     4
1000

1002
{
1002
}
1000
EditFlag
1070
     1
1070
     1
1002
{
1002
}
1002
}
1000
4
1070
     6
1002
{
1000
Prompt
1070
     4
1000
(genmsg gendwg 34)
1002
{
1002
}
1000
Value
1070
     4
1000

1002
{
1002
}
1000
EditFlag
1070
     1
1070
     1
1002
{
1002
}
1002
}
1000
5
1070
     6
1002
{
1000
Prompt
1070
     4
1000
(genmsg gendwg 35)
1002
{
1002
}
1000
Value
1070
     4
1000

1002
{
1002
}
1000
EditFlag
1070
     1
1070
     1
1002
{
1002
}
1002
}
1000
6
1070
     6
1002
{
1000
Prompt
1070
     4
1000
(genmsg gendwg 36)
1002
{
1002
}
1000
Value
1070
     4
1000

1002
{
1002
}
1000
EditFlag
1070
     1
1070
     1
1002
{
1002
}
1002
}
1000
7
1070
     6
1002
{
1000
Prompt
1070
     4
1000
(genmsg gendwg 37)
1002
{
1002
}
1000
Value
1070
     4
1000

1002
{
1002
}
1000
EditFlag
1070
     1
1070
     1
1002
{
1002
}
1002
}
1000
8
1070
     6
1002
{
1000
Prompt
1070
     4
1000
(genmsg gendwg 38)
1002
{
1002
}
1000
Value
1070
     4
1000

1002
{
1002
}
1000
EditFlag
1070
     1
1070
     1
1002
{
1002
}
1002
}
1000
9
1070
     6
1002
{
1000
Prompt
1070
     4
1000
(genmsg gendwg 39)
1002
{
1002
}
1000
Value
1070
     4
1000

1002
{
1002
}
1000
EditFlag
1070
     1
1070
     1
1002
{
1002
}
1002
}
1000
10
1070
     6
1002
{
1000
Prompt
1070
     4
1000
(genmsg gendwg 40)
1002
{
1002
}
1000
Value
1070
     4
1000

1002
{
1002
}
1000
EditFlag
1070
     1
1070
     1
1002
{
1002
}
1002
}
1000
11
1070
     6
1002
{
1000
Prompt
1070
     4
1000
(genmsg gendwg 41)
1002
{
1002
}
1000
Value
1070
     4
1000

1002
{
1002
}
1000
EditFlag
1070
     1
1070
     1
1002
{
1002
}
1002
}
1000
12
1070
     6
1002
{
1000
Prompt
1070
     4
1000
(genmsg gendwg 42)
1002
{
1002
}
1000
Value
1070
     4
1000

1002
{
1002
}
1000
EditFlag
1070
     1
1070
     1
1002
{
1002
}
1002
}
1000
13
1070
     6
1002
{
1000
Prompt
1070
     4
1000
(genmsg gendwg 43)
1002
{
1002
}
1000
Value
1070
     4
1000

1002
{
1002
}
1000
EditFlag
1070
     1
1070
     1
1002
{
1002
}
1002
}
1000
14
1070
     6
1002
{
1000
Prompt
1070
     4
1000
(genmsg gendwg 44)
1002
{
1002
}
1000
Value
1070
     4
1000

1002
{
1002
}
1000
EditFlag
1070
     1
1070
     1
1002
{
1002
}
1002
}
1000
15
1070
     6
1002
{
1000
Prompt
1070
     4
1000
(genmsg gendwg 45)
1002
{
1002
}
1000
Value
1070
     4
1000

1002
{
1002
}
1000
EditFlag
1070
     1
1070
     1
1002
{
1002
}
1002
}
1000
16
1070
     6
1002
{
1000
Prompt
1070
     4
1000
(genmsg gendwg 46)
1002
{
1002
}
1000
Value
1070
     4
1000

1002
{
1002
}
1000
EditFlag
1070
     1
1070
     1
1002
{
1002
}
1002
}
1000
17
1070
     6
1002
{
1000
Prompt
1070
     4
1000
(genmsg gendwg 47)
1002
{
1002
}
1000
Value
1070
     4
1000

1002
{
1002
}
1000
EditFlag
1070
     1
1070
     1
1002
{
1002
}
1002
}
1000
18
1070
     6
1002
{
1000
Prompt
1070
     4
1000
(genmsg gendwg 48)
1002
{
1002
}
1000
Value
1070
     4
1000

1002
{
1002
}
1000
EditFlag
1070
     1
1070
     1
1002
{
1002
}
1002
}
1000
19
1070
     6
1002
{
1000
Prompt
1070
     4
1000
(genmsg gendwg 99)
1002
{
1002
}
1000
Value
1070
     4
1000

1002
{
1002
}
1000
EditFlag
1070
     1
1070
     1
1002
{
1002
}
1002
}
1000
20
1070
     6
1002
{
1000
Prompt
1070
     4
1000
(genmsg gendwg 100)
1002
{
1002
}
1000
Value
1070
     4
1000

1002
{
1002
}
1000
EditFlag
1070
     1
1070
     1
1002
{
1002
}
1002
}
1000
21
1070
     6
1002
{
1000
Prompt
1070
     4
1000
(genmsg gendwg 101)
1002
{
1002
}
1000
Value
1070
     4
1000

1002
{
1002
}
1000
EditFlag
1070
     1
1070
     1
1002
{
1002
}
1002
}
1000
22
1070
     6
1002
{
1000
Prompt
1070
     4
1000
(genmsg gendwg 102)
1002
{
1002
}
1000
Value
1070
     4
1000

1002
{
1002
}
1000
EditFlag
1070
     1
1070
     1
1002
{
1002
}
1002
}
1000
23
1070
     6
1002
{
1000
Prompt
1070
     4
1000
(genmsg gendwg 30)
1002
{
1002
}
1000
Value
1070
     4
1000

1002
{
1002
}
1000
EditFlag
1070
     1
1070
     1
1002
{
1002
}
1002
}
1000
24
1070
     6
1002
{
1000
Prompt
1070
     4
1000
(genmsg gendwg 104)
1002
{
1002
}
1000
Value
1070
     4
1000

1002
{
1002
}
1000
EditFlag
1070
     1
1070
     1
1002
{
1002
}
1002
}
1002
}
1000
Xlate
1070
     0
1002
{
1000
>
1002
}
1002
}
1000
Layer
1070
     7
1002
{
1000
Defs
1070
     0
1002
{
1000
>
1002
}
1000
EntSort
1070
     0
1002
{
1000
>
1002
}
1000
Match
1070
     0
1002
{
1002
}
1000
Settings
1070
     0
1002
{
1000
FocGrNC
1070
     3
1070
     0
1002
{
1002
}
1000
FocGrLo
1070
     3
1070
     0
1002
{
1002
}
1000
FocLoNC
1070
     3
1070
     0
1002
{
1002
}
1000
FocusCol
1070
     1
1070
   253
1002
{
1002
}
1000
GenStdLG
1070
     4
1000

1002
{
1002
}
1000
LayMatch
1070
     3
1070
     0
1002
{
1002
}
1000
LgOff
1070
     3
1070
     0
1002
{
1002
}
1000
CurLG
1070
    -5
1000
MSL-1-40
1002
{
1002
}
1002
}
1002
}
1000
LType
1070
     0
1002
{
1000
GEN3
1070
    10
1000
genius.lin
1002
{
1002
}
1000
GEN7
1070
    10
1000
genius.lin
1002
{
1002
}
1000
GEN4A
1070
    10
1000
genius.lin
1002
{
1002
}
1000
GEN3A
1070
    10
1000
genius.lin
1002
{
1002
}
1000
GEN7A
1070
    10
1000
genius.lin
1002
{
1002
}
1000
GENZIGZAG
1070
    10
1000
genius.lin
1002
{
1002
}
1002
}
1000
Objecter
1070
     0
1002
{
1000
CreateGroups
1070
     3
1070
     0
1002
{
1002
}
1000
LaySwitch
1070
     3
1070
     1
1002
{
1002
}
1000
LastObj
1070
    -5
1000
0
1002
{
1002
}
1002
}
1000
OSWiz
1070
     0
1002
{
1000
>
1002
}
1000
PaList
1070
     0
1002
{
1000
AutoUpdatePartList
1070
     3
1070
     0
1002
{
1002
}
1000
ReadInfoPoint
1070
     3
1070
     0
1002
{
1002
}
1000
ReadPosNr
1070
     3
1070
     1
1002
{
1002
}
1000
RevStr
1070
     4
1000
0
1002
{
1002
}
1002
}
1000
Paper
1070
     0
1002
{
1002
}
1000
PartDB
1070
     0
1002
{
1000
GenDbOwner
1070
     4
1000

1002
{
1002
}
1002
}
1000
System
1070
     0
1002
{
1000
Menu
1070
     4
1000
GEV
1002
{
1002
}
1002
}
1000
Title
1070
     0
1002
{
1000
MakeView
1070
     1
1070
     2
1002
{
1002
}
1002
}
  0
APPID
  5
371
100
AcDbSymbolTableRecord
100
AcDbRegAppTableRecord
  2
GENIUS_GEVCFG0_13
 70
     0
1001
GENIUS_GENCFG_13
1071
881141927
1000
371
1000
GEV
1070
     1
1000
GenCfgObject
1000
System
1070
     0
1002
{
1002
}
1000
VED
1070
     0
1002
{
1002
}
  0
ENDTAB
  0
TABLE
  2
DIMSTYLE
  5
16
100
AcDbSymbolTable
 70
     1
  0
DIMSTYLE
105
1D
100
AcDbSymbolTableRecord
100
AcDbDimStyleTableRecord
  2
GEN-ISO
 70
     0
  3

  4

  5

  6

  7

 40
1.0
 41
2.5
 42
1.0
 43
10.0
 44
2.0
 45
0.0
 46
0.0
 47
0.1
 48
0.1
140
3.5
141
-2.0
142
0.0
143
25.4
144
1.0
145
0.0
146
1.0
147
1.5
 71
     0
 72
     0
 73
     0
 74
     0
 75
     0
 76
     0
 77
     1
 78
     8
170
     0
171
     2
172
     1
173
     0
174
     0
175
     0
176
     0
177
     0
178
     2
270
     2
271
     2
272
     5
273
     2
274
     2
340
D
275
     0
280
     0
281
     0
282
     0
283
     0
284
     8
285
     8
286
     8
287
     3
288
     0
  0
ENDTAB
  0
TABLE
  2
BLOCK_RECORD
  5
1
100
AcDbSymbolTable
 70
     0
  0
BLOCK_RECORD
  5
2
100
AcDbSymbolTableRecord
100
AcDbBlockTableRecord
  2
*MODEL_SPACE
  0
BLOCK_RECORD
  5
8
100
AcDbSymbolTableRecord
100
AcDbBlockTableRecord
  2
*PAPER_SPACE
  0
ENDTAB
  0
ENDSEC
  0
SECTION
  2
BLOCKS
  0
BLOCK
  5
3
100
AcDbEntity
  8
0
100
AcDbBlockBegin
  2
*MODEL_SPACE
 70
     0
 10
0.0
 20
0.0
 30
0.0
  3
*MODEL_SPACE
  1

  0
ENDBLK
  5
7
100
AcDbEntity
  8
0
100
AcDbBlockEnd
  0
BLOCK
  5
9
100
AcDbEntity
 67
     1
  8
0
100
AcDbBlockBegin
  2
*PAPER_SPACE
 70
     0
 10
0.0
 20
0.0
 30
0.0
  3
*PAPER_SPACE
  1

  0
ENDBLK
  5
A
100
AcDbEntity
 67
     1
  8
0
100
AcDbBlockEnd
  0
ENDSEC
  0
SECTION
  2
ENTITIES
  0
LINE
  5
1E
100
AcDbEntity
  8
MSL-1-40-0
100
AcDbLine
 10
1159.032875
 20
538.232524
 30
0.0
 11
1157.032875
 21
535.532524
 31
0.0
  0
LINE
  5
1F
100
AcDbEntity
  8
MSL-1-40-0
100
AcDbLine
 10
1153.532875
 20
535.532524
 30
0.0
 11
1164.532875
 21
535.532524
 31
0.0
  0
LINE
  5
20
100
AcDbEntity
  8
MSL-1-40-7
100
AcDbLine
 10
1165.182875
 20
522.532524
 30
0.0
 11
1150.882875
 21
522.532524
 31
0.0
  0
LINE
  5
23
100
AcDbEntity
  8
MSL-1-40-7
100
AcDbLine
 10
1171.032875
 20
509.532524
 30
0.0
 11
1157.232875
 21
509.532524
 31
0.0
  0
LINE
  5
24
100
AcDbEntity
  8
MSL-1-40-3
100
AcDbLine
 10
1160.032875
 20
490.532524
 30
0.0
 11
1156.032875
 21
490.532524
 31
0.0
  0
LINE
  5
27
100
AcDbEntity
  8
MSL-1-40-3
100
AcDbLine
 10
1156.411875
 20
494.332524
 30
0.0
 11
1159.653875
 21
494.332524
 31
0.0
  0
LINE
  5
28
100
AcDbEntity
  8
MSL-1-40-3
100
AcDbLine
 10
1156.411875
 20
494.332524
 30
0.0
 11
1158.032875
 21
495.268409
 31
0.0
  0
LINE
  5
29
100
AcDbEntity
  8
MSL-1-40-7
100
AcDbLine
 10
1171.032875
 20
489.532524
 30
0.0
 11
1157.232875
 21
489.532524
 31
0.0
  0
CIRCLE
  5
2A
100
AcDbEntity
  8
MSL-1-40-0
100
AcDbCircle
 10
1160.032875
 20
499.532524
 30
0.0
 40
4.0
  0
ARC
  5
2B
100
AcDbEntity
  8
MSL-1-40-0
100
AcDbCircle
 10
1158.032875
 20
522.532524
 30
0.0
 40
6.5
100
AcDbArc
 50
67.380134
 51
112.619864
  0
LINE
  5
2C
100
AcDbEntity
  8
MSL-1-40-0
100
AcDbLine
 10
1155.42518
 20
528.532524
 30
0.0
 11
1158.032875
 21
530.038078
 31
0.0
  0
LINE
  5
2D
100
AcDbEntity
  8
MSL-1-40-7
100
AcDbLine
 10
1108.032875
 20
499.532524
 30
0.0
 11
1172.032875
 21
499.532524
 31
0.0
  0
LINE
  5
2E
100
AcDbEntity
  8
MSL-1-40-3
100
AcDbLine
 10
1110.032875
 20
484.532524
 30
0.0
 11
1170.032875
 21
484.532524
 31
0.0
  0
LINE
  5
2F
100
AcDbEntity
  8
MSL-1-40-0
100
AcDbLine
 10
1167.532875
 20
533.532524
 30
0.0
 11
1112.532875
 21
533.532524
 31
0.0
  0
LINE
  5
30
100
AcDbEntity
  8
MSL-1-40-0
100
AcDbLine
 10
1170.032875
 20
483.532524
 30
0.0
 11
1110.032875
 21
483.532524
 31
0.0
  0
LINE
  5
31
100
AcDbEntity
  8
MSL-1-40-0
100
AcDbLine
 10
1110.032875
 20
528.532524
 30
0.0
 11
1170.032875
 21
528.532524
 31
0.0
  0
LINE
  5
32
100
AcDbEntity
  8
MSL-1-40-0
100
AcDbLine
 10
1167.532875
 20
532.532524
 30
0.0
 11
1112.532875
 21
532.532524
 31
0.0
  0
LINE
  5
33
100
AcDbEntity
  8
MSL-1-40-0
100
AcDbLine
 10
1116.42518
 20
528.532524
 30
0.0
 11
1123.032875
 21
532.347479
 31
0.0
  0
ARC
  5
34
100
AcDbEntity
  8
MSL-1-40-0
100
AcDbCircle
 10
1123.032875
 20
522.532524
 30
0.0
 40
8.5
100
AcDbArc
 50
44.900872
 51
135.099127
  0
LINE
  5
35
100
AcDbEntity
  8
MSL-1-40-0
100
AcDbLine
 10
1123.032875
 20
532.347479
 30
0.0
 11
1129.64057
 21
528.532524
 31
0.0
  0
LINE
  5
36
100
AcDbEntity
  8
MSL-1-40-0
100
AcDbLine
 10
1110.532875
 20
532.532524
 30
0.0
 11
1110.532875
 21
528.532524
 31
0.0
  0
LINE
  5
37
100
AcDbEntity
  8
MSL-1-40-0
100
AcDbLine
 10
1111.532875
 20
531.532524
 30
0.0
 11
1111.532875
 21
528.532524
 31
0.0
  0
LINE
  5
38
100
AcDbEntity
  8
MSL-1-40-7
100
AcDbLine
 10
1123.032875
 20
534.808427
 30
0.0
 11
1123.032875
 21
510.731344
 31
0.0
  0
LINE
  5
39
100
AcDbEntity
  8
MSL-1-40-0
100
AcDbLine
 10
1106.032875
 20
531.032524
 30
0.0
 11
1106.032875
 21
523.032524
 31
0.0
  0
LINE
  5
3A
100
AcDbEntity
  8
MSL-1-40-7
100
AcDbLine
 10
1120.032875
 20
504.437819
 30
0.0
 11
1120.032875
 21
494.532524
 31
0.0
  0
CIRCLE
  5
3B
100
AcDbEntity
  8
MSL-1-40-0
100
AcDbCircle
 10
1120.032875
 20
499.532524
 30
0.0
 40
4.0
  0
LINE
  5
3C
100
AcDbEntity
  8
MSL-1-40-0
100
AcDbLine
 10
1110.032875
 20
483.532524
 30
0.0
 11
1110.032875
 21
528.532524
 31
0.0
  0
LINE
  5
3D
100
AcDbEntity
  8
MSL-1-40-7
100
AcDbLine
 10
1140.032875
 20
527.013225
 30
0.0
 11
1140.032875
 21
482.532524
 31
0.0
  0
LINE
  5
3E
100
AcDbEntity
  8
MSL-1-40-7
100
AcDbLine
 10
1132.632875
 20
499.532524
 30
0.0
 11
1127.432875
 21
499.532524
 31
0.0
  0
CIRCLE
  5
3F
100
AcDbEntity
  8
MSL-1-40-0
100
AcDbCircle
 10
1130.032875
 20
499.532524
 30
0.0
 40
2.0
  0
LINE
  5
40
100
AcDbEntity
  8
MSL-1-40-7
100
AcDbLine
 10
1135.232875
 20
489.532524
 30
0.0
 11
1124.832875
 21
489.532524
 31
0.0
  0
CIRCLE
  5
41
100
AcDbEntity
  8
MSL-1-40-0
100
AcDbCircle
 10
1130.032875
 20
489.532524
 30
0.0
 40
2.25
  0
CIRCLE
  5
42
100
AcDbEntity
  8
MSL-1-40-3
100
AcDbCircle
 10
1130.032875
 20
489.532524
 30
0.0
 40
4.0
  0
LINE
  5
43
100
AcDbEntity
  8
MSL-1-40-3
100
AcDbLine
 10
1117.032875
 20
491.532524
 30
0.0
 11
1117.032875
 21
487.532524
 31
0.0
  0
LINE
  5
44
100
AcDbEntity
  8
MSL-1-40-3
100
AcDbLine
 10
1120.832875
 20
487.911524
 30
0.0
 11
1120.832875
 21
491.153524
 31
0.0
  0
LINE
  5
45
100
AcDbEntity
  8
MSL-1-40-3
100
AcDbLine
 10
1120.832875
 20
491.153524
 30
0.0
 11
1121.76876
 21
489.532524
 31
0.0
  0
LINE
  5
46
100
AcDbEntity
  8
MSL-1-40-3
100
AcDbLine
 10
1120.411875
 20
483.532524
 30
0.0
 11
1120.411875
 21
494.332524
 31
0.0
  0
LINE
  5
47
100
AcDbEntity
  8
MSL-1-40-3
100
AcDbLine
 10
1120.032875
 20
483.532524
 30
0.0
 11
1120.032875
 21
490.532524
 31
0.0
  0
LINE
  5
48
100
AcDbEntity
  8
MSL-1-40-3
100
AcDbLine
 10
1123.653875
 20
483.532524
 30
0.0
 11
1123.653875
 21
494.332524
 31
0.0
  0
LINE
  5
49
100
AcDbEntity
  8
MSL-1-40-3
100
AcDbLine
 10
1124.032875
 20
483.532524
 30
0.0
 11
1124.032875
 21
490.532524
 31
0.0
  0
LINE
  5
4A
100
AcDbEntity
  8
MSL-1-40-7
100
AcDbLine
 10
1122.032875
 20
482.532524
 30
0.0
 11
1122.032875
 21
496.332524
 31
0.0
  0
LINE
  5
4B
100
AcDbEntity
  8
MSL-1-40-3
100
AcDbLine
 10
1110.032875
 20
487.911524
 30
0.0
 11
1120.832875
 21
487.911524
 31
0.0
  0
LINE
  5
4C
100
AcDbEntity
  8
MSL-1-40-3
100
AcDbLine
 10
1110.032875
 20
487.532524
 30
0.0
 11
1117.032875
 21
487.532524
 31
0.0
  0
LINE
  5
4D
100
AcDbEntity
  8
MSL-1-40-7
100
AcDbLine
 10
1109.032875
 20
489.532524
 30
0.0
 11
1122.832875
 21
489.532524
 31
0.0
  0
LINE
  5
4E
100
AcDbEntity
  8
MSL-1-40-3
100
AcDbLine
 10
1120.832875
 20
487.911524
 30
0.0
 11
1121.76876
 21
489.532524
 31
0.0
  0
LINE
  5
4F
100
AcDbEntity
  8
MSL-1-40-3
100
AcDbLine
 10
1110.032875
 20
491.153524
 30
0.0
 11
1120.832875
 21
491.153524
 31
0.0
  0
LINE
  5
50
100
AcDbEntity
  8
MSL-1-40-3
100
AcDbLine
 10
1110.032875
 20
491.532524
 30
0.0
 11
1117.032875
 21
491.532524
 31
0.0
  0
LINE
  5
51
100
AcDbEntity
  8
MSL-1-40-3
100
AcDbLine
 10
1124.032875
 20
490.532524
 30
0.0
 11
1120.032875
 21
490.532524
 31
0.0
  0
LINE
  5
52
100
AcDbEntity
  8
MSL-1-40-3
100
AcDbLine
 10
1120.411875
 20
494.332524
 30
0.0
 11
1123.653875
 21
494.332524
 31
0.0
  0
LINE
  5
53
100
AcDbEntity
  8
MSL-1-40-3
100
AcDbLine
 10
1120.411875
 20
494.332524
 30
0.0
 11
1122.032875
 21
495.268409
 31
0.0
  0
LINE
  5
54
100
AcDbEntity
  8
MSL-1-40-3
100
AcDbLine
 10
1123.653875
 20
494.332524
 30
0.0
 11
1122.032875
 21
495.268409
 31
0.0
  0
CIRCLE
  5
55
100
AcDbEntity
  8
MSL-1-40-0
100
AcDbCircle
 10
1150.032875
 20
489.532524
 30
0.0
 40
2.25
  0
LINE
  5
56
100
AcDbEntity
  8
MSL-1-40-7
100
AcDbLine
 10
1150.032875
 20
484.332524
 30
0.0
 11
1150.032875
 21
494.732524
 31
0.0
  0
CIRCLE
  5
57
100
AcDbEntity
  8
MSL-1-40-3
100
AcDbCircle
 10
1150.032875
 20
489.532524
 30
0.0
 40
4.0
  0
LINE
  5
58
100
AcDbEntity
  8
MSL-1-40-3
100
AcDbLine
 10
1156.411875
 20
483.532524
 30
0.0
 11
1156.411875
 21
494.332524
 31
0.0
  0
LINE
  5
59
100
AcDbEntity
  8
MSL-1-40-3
100
AcDbLine
 10
1156.032875
 20
483.532524
 30
0.0
 11
1156.032875
 21
490.532524
 31
0.0
  0
CIRCLE
  5
5A
100
AcDbEntity
  8
MSL-1-40-0
100
AcDbCircle
 10
1140.032875
 20
489.532524
 30
0.0
 40
2.0
  0
LINE
  5
5B
100
AcDbEntity
  8
MSL-1-40-7
100
AcDbLine
 10
1130.032875
 20
484.332524
 30
0.0
 11
1130.032875
 21
494.732524
 31
0.0
  0
LINE
  5
5C
100
AcDbEntity
  8
MSL-1-40-7
100
AcDbLine
 10
1155.232875
 20
489.532524
 30
0.0
 11
1144.832875
 21
489.532524
 31
0.0
  0
CIRCLE
  5
5D
100
AcDbEntity
  8
MSL-1-40-3
100
AcDbCircle
 10
1140.032875
 20
499.532524
 30
0.0
 40
2.0
  0
LINE
  5
5E
100
AcDbEntity
  8
MSL-1-40-7
100
AcDbLine
 10
1130.032875
 20
496.932524
 30
0.0
 11
1130.032875
 21
502.132524
 31
0.0
  0
LINE
  5
5F
100
AcDbEntity
  8
MSL-1-40-7
100
AcDbLine
 10
1152.632875
 20
499.532524
 30
0.0
 11
1147.432875
 21
499.532524
 31
0.0
  0
LINE
  5
60
100
AcDbEntity
  8
MSL-1-40-7
100
AcDbLine
 10
1150.032875
 20
496.932524
 30
0.0
 11
1150.032875
 21
502.132524
 31
0.0
  0
CIRCLE
  5
61
100
AcDbEntity
  8
MSL-1-40-0
100
AcDbCircle
 10
1150.032875
 20
499.532524
 30
0.0
 40
2.0
  0
CIRCLE
  5
62
100
AcDbEntity
  8
MSL-1-40-0
100
AcDbCircle
 10
1130.032875
 20
509.532524
 30
0.0
 40
2.25
  0
LINE
  5
63
100
AcDbEntity
  8
MSL-1-40-7
100
AcDbLine
 10
1135.232875
 20
509.532524
 30
0.0
 11
1124.832875
 21
509.532524
 31
0.0
  0
CIRCLE
  5
64
100
AcDbEntity
  8
MSL-1-40-3
100
AcDbCircle
 10
1130.032875
 20
509.532524
 30
0.0
 40
4.0
  0
LINE
  5
65
100
AcDbEntity
  8
MSL-1-40-7
100
AcDbLine
 10
1112.865736
 20
522.532524
 30
0.0
 11
1133.185736
 21
522.532524
 31
0.0
  0
ARC
  5
66
100
AcDbEntity
  8
MSL-1-40-0
100
AcDbCircle
 10
1107.532875
 20
516.532524
 30
0.0
 40
1.5
100
AcDbArc
 50
179.999998
 51
270.000001
  0
LINE
  5
67
100
AcDbEntity
  8
MSL-1-40-3
100
AcDbLine
 10
1110.032875
 20
507.911524
 30
0.0
 11
1120.832875
 21
507.911524
 31
0.0
  0
LINE
  5
68
100
AcDbEntity
  8
MSL-1-40-3
100
AcDbLine
 10
1110.032875
 20
507.532524
 30
0.0
 11
1117.032875
 21
507.532524
 31
0.0
  0
LINE
  5
69
100
AcDbEntity
  8
MSL-1-40-3
100
AcDbLine
 10
1110.032875
 20
511.153524
 30
0.0
 11
1120.832875
 21
511.153524
 31
0.0
  0
LINE
  5
6A
100
AcDbEntity
  8
MSL-1-40-3
100
AcDbLine
 10
1110.032875
 20
511.532524
 30
0.0
 11
1117.032875
 21
511.532524
 31
0.0
  0
LINE
  5
6B
100
AcDbEntity
  8
MSL-1-40-7
100
AcDbLine
 10
1109.032875
 20
509.532524
 30
0.0
 11
1122.832875
 21
509.532524
 31
0.0
  0
LINE
  5
6C
100
AcDbEntity
  8
MSL-1-40-0
100
AcDbLine
 10
1110.532875
 20
514.532524
 30
0.0
 11
1110.532875
 21
514.532524
 31
0.0
  0
LINE
  5
6D
100
AcDbEntity
  8
MSL-1-40-0
100
AcDbLine
 10
1107.532875
 20
515.032524
 30
0.0
 11
1110.032875
 21
515.032524
 31
0.0
  0
LINE
  5
6E
100
AcDbEntity
  8
MSL-1-40-3
100
AcDbLine
 10
1117.032875
 20
511.532524
 30
0.0
 11
1117.032875
 21
507.532524
 31
0.0
  0
LINE
  5
6F
100
AcDbEntity
  8
MSL-1-40-3
100
AcDbLine
 10
1120.832875
 20
507.911524
 30
0.0
 11
1120.832875
 21
511.153524
 31
0.0
  0
LINE
  5
70
100
AcDbEntity
  8
MSL-1-40-3
100
AcDbLine
 10
1120.832875
 20
511.153524
 30
0.0
 11
1121.76876
 21
509.532524
 31
0.0
  0
LINE
  5
71
100
AcDbEntity
  8
MSL-1-40-3
100
AcDbLine
 10
1120.832875
 20
507.911524
 30
0.0
 11
1121.76876
 21
509.532524
 31
0.0
  0
LINE
  5
72
100
AcDbEntity
  8
MSL-1-40-0
100
AcDbLine
 10
1107.532875
 20
526.032524
 30
0.0
 11
1110.032875
 21
526.032524
 31
0.0
  0
LINE
  5
73
100
AcDbEntity
  8
MSL-1-40-7
100
AcDbLine
 10
1112.698263
 20
527.032524
 30
0.0
 11
1104.528611
 21
527.032524
 31
0.0
  0
LINE
  5
74
100
AcDbEntity
  8
MSL-1-40-0
100
AcDbLine
 10
1106.032875
 20
524.532524
 30
0.0
 11
1106.032875
 21
516.532524
 31
0.0
  0
LINE
  5
75
100
AcDbEntity
  8
MSL-1-40-7
100
AcDbLine
 10
1112.698263
 20
520.532524
 30
0.0
 11
1104.528611
 21
520.532524
 31
0.0
  0
ARC
  5
76
100
AcDbEntity
  8
MSL-1-40-0
100
AcDbCircle
 10
1107.532875
 20
524.532524
 30
0.0
 40
1.5
100
AcDbArc
 50
89.999999
 51
180.000002
  0
CIRCLE
  5
77
100
AcDbEntity
  8
MSL-1-40-0
100
AcDbCircle
 10
1140.032875
 20
509.532524
 30
0.0
 40
2.0
  0
LINE
  5
78
100
AcDbEntity
  8
MSL-1-40-7
100
AcDbLine
 10
1130.032875
 20
504.332524
 30
0.0
 11
1130.032875
 21
514.732524
 31
0.0
  0
LINE
  5
79
100
AcDbEntity
  8
MSL-1-40-7
100
AcDbLine
 10
1130.032875
 20
504.332524
 30
0.0
 11
1130.032875
 21
514.732524
 31
0.0
  0
LINE
  5
7A
100
AcDbEntity
  8
MSL-1-40-7
100
AcDbLine
 10
1140.032875
 20
506.932524
 30
0.0
 11
1140.032875
 21
512.132524
 31
0.0
  0
LINE
  5
7B
100
AcDbEntity
  8
MSL-1-40-7
100
AcDbLine
 10
1142.632875
 20
509.532524
 30
0.0
 11
1137.432875
 21
509.532524
 31
0.0
  0
CIRCLE
  5
7C
100
AcDbEntity
  8
MSL-1-40-0
100
AcDbCircle
 10
1150.032875
 20
509.532524
 30
0.0
 40
2.25
  0
LINE
  5
7D
100
AcDbEntity
  8
MSL-1-40-7
100
AcDbLine
 10
1155.232875
 20
509.532524
 30
0.0
 11
1144.832875
 21
509.532524
 31
0.0
  0
LINE
  5
7E
100
AcDbEntity
  8
MSL-1-40-7
100
AcDbLine
 10
1150.032875
 20
504.332524
 30
0.0
 11
1150.032875
 21
514.732524
 31
0.0
  0
LINE
  5
7F
100
AcDbEntity
  8
MSL-1-40-7
100
AcDbLine
 10
1150.032875
 20
504.332524
 30
0.0
 11
1150.032875
 21
514.732524
 31
0.0
  0
CIRCLE
  5
80
100
AcDbEntity
  8
MSL-1-40-3
100
AcDbCircle
 10
1150.032875
 20
509.532524
 30
0.0
 40
4.0
  0
LINE
  5
81
100
AcDbEntity
  8
MSL-1-40-0
100
AcDbLine
 10
1115.532875
 20
535.532524
 30
0.0
 11
1126.532875
 21
535.532524
 31
0.0
  0
LINE
  5
82
100
AcDbEntity
  8
MSL-1-40-0
100
AcDbLine
 10
1115.532875
 20
533.532524
 30
0.0
 11
1115.532875
 21
535.532524
 31
0.0
  0
ARC
  5
83
100
AcDbEntity
  8
MSL-1-40-0
100
AcDbCircle
 10
1112.532875
 20
531.532524
 30
0.0
 40
1.0
100
AcDbArc
 50
89.999999
 51
179.999998
  0
ARC
  5
84
100
AcDbEntity
  8
MSL-1-40-0
100
AcDbCircle
 10
1112.532875
 20
531.532524
 30
0.0
 40
2.0
100
AcDbArc
 50
89.999999
 51
179.999998
  0
ARC
  5
85
100
AcDbEntity
  8
MSL-1-40-0
100
AcDbCircle
 10
1107.532875
 20
531.032524
 30
0.0
 40
1.5
100
AcDbArc
 50
89.999999
 51
179.999998
  0
LINE
  5
86
100
AcDbEntity
  8
MSL-1-40-0
100
AcDbLine
 10
1110.532875
 20
532.532524
 30
0.0
 11
1107.532875
 21
532.532524
 31
0.0
  0
LINE
  5
87
100
AcDbEntity
  8
MSL-1-40-0
100
AcDbLine
 10
1112.532875
 20
532.532524
 30
0.0
 11
1112.532875
 21
532.532524
 31
0.0
  0
LINE
  5
88
100
AcDbEntity
  8
MSL-1-40-0
100
AcDbLine
 10
1111.532875
 20
531.532524
 30
0.0
 11
1111.532875
 21
531.532524
 31
0.0
  0
LINE
  5
89
100
AcDbEntity
  8
MSL-1-40-0
100
AcDbLine
 10
1126.532875
 20
535.532524
 30
0.0
 11
1126.532875
 21
533.532524
 31
0.0
  0
LINE
  5
8A
100
AcDbEntity
  8
MSL-1-40-7
100
AcDbLine
 10
1121.032875
 20
539.907794
 30
0.0
 11
1121.032875
 21
531.13091
 31
0.0
  0
LINE
  5
8B
100
AcDbEntity
  8
MSL-1-40-0
100
AcDbLine
 10
1121.032875
 20
538.232524
 30
0.0
 11
1119.032875
 21
535.532524
 31
0.0
  0
LINE
  5
8C
100
AcDbEntity
  8
MSL-1-40-0
100
AcDbLine
 10
1123.032875
 20
535.532524
 30
0.0
 11
1121.032875
 21
538.232524
 31
0.0
  0
MTEXT
  5
8D
100
AcDbEntity
  8
MSL-1-40-4
100
AcDbMText
 10
1129.954309
 20
532.240037
 30
0.0
 40
3.5
 41
23.418615
 71
     1
 72
     1
  1
{MSL-1-40}
  0
LINE
  5
8F
100
AcDbEntity
  8
MSL-1-40-0
100
AcDbLine
 10
1153.532875
 20
533.532524
 30
0.0
 11
1153.532875
 21
535.532524
 31
0.0
  0
ARC
  5
90
100
AcDbEntity
  8
MSL-1-40-0
100
AcDbCircle
 10
1409.286653
 20
528.161689
 30
0.0
 40
2.293056
100
AcDbArc
 50
305.085848
 51
54.914152
  0
ARC
  5
91
100
AcDbEntity
  8
MSL-1-40-0
100
AcDbCircle
 10
1405.141873
 20
528.161689
 30
0.0
 40
2.562165
100
AcDbArc
 50
132.916662
 51
227.083338
  0
ARC
  5
92
100
AcDbEntity
  8
MSL-1-40-0
100
AcDbCircle
 10
1409.872764
 20
528.161689
 30
0.0
 40
2.293056
100
AcDbArc
 50
125.085847
 51
234.914153
  0
LINE
  5
93
100
AcDbEntity
  8
MSL-1-40-7
100
AcDbLine
 10
1289.079708
 20
527.032524
 30
0.0
 11
1289.079708
 21
533.482425
 31
0.0
  0
ARC
  5
94
100
AcDbEntity
  8
MSL-1-40-0
100
AcDbCircle
 10
1261.688389
 20
529.89374
 30
0.0
 40
3.108681
100
AcDbArc
 50
127.878142
 51
232.121858
  0
LINE
  5
95
100
AcDbEntity
  8
MSL-1-40-0
100
AcDbLine
 10
1256.579708
 20
529.532524
 30
0.0
 11
1255.579708
 21
528.532524
 31
0.0
  0
ARC
  5
96
100
AcDbEntity
  8
MSL-1-40-0
100
AcDbCircle
 10
1260.471028
 20
529.89374
 30
0.0
 40
3.108681
100
AcDbArc
 50
307.878144
 51
52.121856
  0
LINE
  5
97
100
AcDbEntity
  8
MSL-1-40-0
100
AcDbLine
 10
1158.032875
 20
530.038078
 30
0.0
 11
1160.64057
 21
528.532524
 31
0.0
  0
LINE
  5
98
100
AcDbEntity
  8
MSL-1-40-0
100
AcDbLine
 10
1169.532875
 20
528.532524
 30
0.0
 11
1169.532875
 21
531.532524
 31
0.0
  0
LINE
  5
99
100
AcDbEntity
  8
MSL-1-40-0
100
AcDbLine
 10
1168.532875
 20
528.532524
 30
0.0
 11
1168.532875
 21
531.532524
 31
0.0
  0
ARC
  5
9A
100
AcDbEntity
  8
MSL-1-40-0
100
AcDbCircle
 10
1359.471028
 20
529.89374
 30
0.0
 40
3.108681
100
AcDbArc
 50
307.878144
 51
52.121856
  0
LINE
  5
9B
100
AcDbEntity
  8
MSL-1-40-7
100
AcDbLine
 10
1158.032875
 20
530.45959
 30
0.0
 11
1158.032875
 21
514.657351
 31
0.0
  0
LINE
  5
9C
100
AcDbEntity
  8
MSL-1-40-0
100
AcDbLine
 10
1362.579708
 20
529.89374
 30
0.0
 11
1362.579708
 21
515.171308
 31
0.0
  0
LINE
  5
9D
100
AcDbEntity
  8
MSL-1-40-0
100
AcDbLine
 10
1256.579708
 20
529.532524
 30
0.0
 11
1256.579708
 21
515.532524
 31
0.0
  0
LINE
  5
9E
100
AcDbEntity
  8
MSL-1-40-0
100
AcDbLine
 10
1258.579708
 20
529.89374
 30
0.0
 11
1258.579708
 21
515.171308
 31
0.0
  0
LINE
  5
9F
100
AcDbEntity
  8
MSL-1-40-0
100
AcDbLine
 10
1406.579708
 20
530.038078
 30
0.0
 11
1406.579708
 21
515.026971
 31
0.0
  0
CIRCLE
  5
A0
100
AcDbEntity
  8
MSL-1-40-0
100
AcDbCircle
 10
1289.079708
 20
527.032524
 30
0.0
 40
5.5
  0
LINE
  5
A1
100
AcDbEntity
  8
MSL-1-40-0
100
AcDbLine
 10
1263.579708
 20
484.532524
 30
0.0
 11
1263.579708
 21
533.532524
 31
0.0
  0
LINE
  5
A2
100
AcDbEntity
  8
MSL-1-40-0
100
AcDbLine
 10
1359.579708
 20
533.532524
 30
0.0
 11
1359.579708
 21
484.532524
 31
0.0
  0
LINE
  5
A3
100
AcDbEntity
  8
MSL-1-40-0
100
AcDbLine
 10
1402.579708
 20
427.038306
 30
0.0
 11
1362.579708
 21
427.038306
 31
0.0
  0
LINE
  5
A4
100
AcDbEntity
  8
MSL-1-40-0
100
AcDbLine
 10
1362.579708
 20
435.038306
 30
0.0
 11
1402.606687
 21
435.038306
 31
0.0
  0
LINE
  5
A5
100
AcDbEntity
  8
MSL-1-40-0
100
AcDbLine
 10
1368.579708
 20
413.038306
 30
0.0
 11
1409.579708
 21
413.038306
 31
0.0
  0
LINE
  5
A6
100
AcDbEntity
  8
MSL-1-40-0
100
AcDbLine
 10
1368.579708
 20
409.038306
 30
0.0
 11
1409.579708
 21
409.038306
 31
0.0
  0
LINE
  5
A7
100
AcDbEntity
  8
MSL-1-40-0
100
AcDbLine
 10
1367.579708
 20
396.088306
 30
0.0
 11
1385.079708
 21
396.088306
 31
0.0
  0
LINE
  5
A8
100
AcDbEntity
  8
MSL-1-40-0
100
AcDbLine
 10
1385.079708
 20
391.988306
 30
0.0
 11
1367.579708
 21
391.988306
 31
0.0
  0
LINE
  5
A9
100
AcDbEntity
  8
MSL-1-40-0
100
AcDbLine
 10
1366.579708
 20
387.038306
 30
0.0
 11
1409.579708
 21
387.038306
 31
0.0
  0
LINE
  5
AA
100
AcDbEntity
  8
MSL-1-40-7
100
AcDbLine
 10
1424.744804
 20
499.532524
 30
0.0
 11
1239.579708
 21
499.532524
 31
0.0
  0
LINE
  5
AB
100
AcDbEntity
  8
MSL-1-40-7
100
AcDbLine
 10
1357.297638
 20
394.038306
 30
0.0
 11
1386.985378
 21
394.038306
 31
0.0
  0
LINE
  5
AC
100
AcDbEntity
  8
MSL-1-40-7
100
AcDbLine
 10
1424.459657
 20
411.038306
 30
0.0
 11
1237.460042
 21
411.038306
 31
0.0
  0
LINE
  5
AD
100
AcDbEntity
  8
MSL-1-40-7
100
AcDbLine
 10
1354.077539
 20
431.038306
 30
0.0
 11
1412.52596
 21
431.038306
 31
0.0
  0
LINE
  5
AE
100
AcDbEntity
  8
MSL-1-40-7
100
AcDbLine
 10
1354.077539
 20
391.038306
 30
0.0
 11
1412.52596
 21
391.038306
 31
0.0
  0
LINE
  5
AF
100
AcDbEntity
  8
MSL-1-40-0
100
AcDbLine
 10
1359.579708
 20
495.532524
 30
0.0
 11
1409.579708
 21
495.532524
 31
0.0
  0
LINE
  5
B0
100
AcDbEntity
  8
MSL-1-40-0
100
AcDbLine
 10
1359.579708
 20
503.532524
 30
0.0
 11
1409.579708
 21
503.532524
 31
0.0
  0
LINE
  5
B1
100
AcDbEntity
  8
MSL-1-40-0
100
AcDbLine
 10
1362.579708
 20
436.399522
 30
0.0
 11
1362.579708
 21
421.67709
 31
0.0
  0
CIRCLE
  5
B2
100
AcDbEntity
  8
MSL-1-40-0
100
AcDbCircle
 10
1330.579708
 20
430.038306
 30
0.0
 40
5.5
  0
LINE
  5
B3
100
AcDbEntity
  8
MSL-1-40-7
100
AcDbLine
 10
1250.579708
 20
426.038306
 30
0.0
 11
1250.579708
 21
432.038306
 31
0.0
  0
LINE
  5
B4
100
AcDbEntity
  8
MSL-1-40-0
100
AcDbLine
 10
1251.579708
 20
430.088306
 30
0.0
 11
1251.579708
 21
425.988306
 31
0.0
  0
LINE
  5
B5
100
AcDbEntity
  8
MSL-1-40-7
100
AcDbLine
 10
1330.579708
 20
430.038306
 30
0.0
 11
1330.579708
 21
422.721854
 31
0.0
  0
LINE
  5
B6
100
AcDbEntity
  8
MSL-1-40-0
100
AcDbLine
 10
1256.579708
 20
435.038306
 30
0.0
 11
1256.579708
 21
421.038306
 31
0.0
  0
LINE
  5
B7
100
AcDbEntity
  8
MSL-1-40-0
100
AcDbLine
 10
1263.579708
 20
435.399522
 30
0.0
 11
1263.579708
 21
420.67709
 31
0.0
  0
LINE
  5
B8
100
AcDbEntity
  8
MSL-1-40-0
100
AcDbLine
 10
1258.579708
 20
435.399522
 30
0.0
 11
1258.579708
 21
420.67709
 31
0.0
  0
LINE
  5
B9
100
AcDbEntity
  8
MSL-1-40-0
100
AcDbLine
 10
1251.579708
 20
441.038306
 30
0.0
 11
1251.579708
 21
381.038306
 31
0.0
  0
LINE
  5
BA
100
AcDbEntity
  8
MSL-1-40-0
100
AcDbLine
 10
1263.579708
 20
381.038306
 30
0.0
 11
1263.579708
 21
441.038306
 31
0.0
  0
LINE
  5
BB
100
AcDbEntity
  8
MSL-1-40-0
100
AcDbLine
 10
1241.579708
 20
441.038306
 30
0.0
 11
1241.579708
 21
381.038306
 31
0.0
  0
LINE
  5
BC
100
AcDbEntity
  8
MSL-1-40-0
100
AcDbLine
 10
1255.579708
 20
422.038306
 30
0.0
 11
1255.579708
 21
434.038306
 31
0.0
  0
ARC
  5
BD
100
AcDbEntity
  8
MSL-1-40-0
100
AcDbCircle
 10
1269.214431
 20
428.038306
 30
0.0
 40
10.634722
100
AcDbArc
 50
152.518771
 51
207.481229
  0
ARC
  5
BE
100
AcDbEntity
  8
MSL-1-40-0
100
AcDbCircle
 10
1252.944986
 20
428.038306
 30
0.0
 40
10.634722
100
AcDbArc
 50
332.518773
 51
27.481227
  0
LINE
  5
BF
100
AcDbEntity
  8
MSL-1-40-0
100
AcDbLine
 10
1359.579708
 20
441.038306
 30
0.0
 11
1359.579708
 21
381.038306
 31
0.0
  0
ARC
  5
C0
100
AcDbEntity
  8
MSL-1-40-0
100
AcDbCircle
 10
1351.944986
 20
429.038306
 30
0.0
 40
10.634722
100
AcDbArc
 50
332.518773
 51
27.481227
  0
LINE
  5
C1
100
AcDbEntity
  8
MSL-1-40-0
100
AcDbLine
 10
1263.579708
 20
423.038306
 30
0.0
 11
1283.579708
 21
423.038306
 31
0.0
  0
LINE
  5
C2
100
AcDbEntity
  8
MSL-1-40-0
100
AcDbLine
 10
1283.579708
 20
399.038306
 30
0.0
 11
1263.579708
 21
399.038306
 31
0.0
  0
MTEXT
  5
C3
100
AcDbEntity
  8
MSL-1-40-4
100
AcDbMText
 10
1264.897587
 20
385.704297
 30
0.0
 40
3.5
 41
23.418615
 71
     1
 72
     1
  1
{MSL-1-40}
  0
LINE
  5
C4
100
AcDbEntity
  8
MSL-1-40-0
100
AcDbLine
 10
1359.579708
 20
381.038306
 30
0.0
 11
1263.579708
 21
381.038306
 31
0.0
  0
LINE
  5
C5
100
AcDbEntity
  8
MSL-1-40-7
100
AcDbLine
 10
1246.95035
 20
391.038306
 30
0.0
 11
1268.941268
 21
391.038306
 31
0.0
  0
ARC
  5
C6
100
AcDbEntity
  8
MSL-1-40-0
100
AcDbCircle
 10
1263.688389
 20
400.399522
 30
0.0
 40
3.108681
100
AcDbArc
 50
127.878142
 51
232.121858
  0
LINE
  5
C7
100
AcDbEntity
  8
MSL-1-40-0
100
AcDbLine
 10
1253.579708
 20
400.54386
 30
0.0
 11
1253.579708
 21
425.988306
 31
0.0
  0
LINE
  5
C8
100
AcDbEntity
  8
MSL-1-40-7
100
AcDbLine
 10
1254.406888
 20
401.038306
 30
0.0
 11
1240.480183
 21
401.038306
 31
0.0
  0
ARC
  5
C9
100
AcDbEntity
  8
MSL-1-40-0
100
AcDbCircle
 10
1271.214431
 20
393.038306
 30
0.0
 40
10.634722
100
AcDbArc
 50
152.518771
 51
207.481229
  0
ARC
  5
CA
100
AcDbEntity
  8
MSL-1-40-0
100
AcDbCircle
 10
1258.017543
 20
387.409141
 30
0.0
 40
2.562165
100
AcDbArc
 50
312.916664
 51
47.083336
  0
ARC
  5
CB
100
AcDbEntity
  8
MSL-1-40-0
100
AcDbCircle
 10
1253.286653
 20
387.409141
 30
0.0
 40
2.293056
100
AcDbArc
 50
305.085848
 51
54.914152
  0
LINE
  5
CC
100
AcDbEntity
  8
MSL-1-40-0
100
AcDbLine
 10
1255.579708
 20
398.667471
 30
0.0
 11
1255.579708
 21
387.409141
 31
0.0
  0
LINE
  5
CD
100
AcDbEntity
  8
MSL-1-40-0
100
AcDbLine
 10
1260.579708
 20
385.67709
 30
0.0
 11
1260.579708
 21
400.399522
 31
0.0
  0
LINE
  5
CE
100
AcDbEntity
  8
MSL-1-40-0
100
AcDbLine
 10
1256.579708
 20
400.54386
 30
0.0
 11
1256.579708
 21
385.532753
 31
0.0
  0
LINE
  5
CF
100
AcDbEntity
  8
MSL-1-40-7
100
AcDbLine
 10
1245.579708
 20
380.038306
 30
0.0
 11
1245.579708
 21
393.838306
 31
0.0
  0
LINE
  5
D0
100
AcDbEntity
  8
MSL-1-40-3
100
AcDbLine
 10
1243.958708
 20
381.038306
 30
0.0
 11
1243.958708
 21
391.838306
 31
0.0
  0
LINE
  5
D1
100
AcDbEntity
  8
MSL-1-40-3
100
AcDbLine
 10
1247.200708
 20
381.038306
 30
0.0
 11
1247.200708
 21
391.838306
 31
0.0
  0
LINE
  5
D2
100
AcDbEntity
  8
MSL-1-40-0
100
AcDbLine
 10
1251.579708
 20
398.667471
 30
0.0
 11
1251.579708
 21
387.409141
 31
0.0
  0
ARC
  5
D3
100
AcDbEntity
  8
MSL-1-40-0
100
AcDbCircle
 10
1253.872764
 20
387.409141
 30
0.0
 40
2.293056
100
AcDbArc
 50
125.085847
 51
234.914153
  0
LINE
  5
D4
100
AcDbEntity
  8
MSL-1-40-0
100
AcDbLine
 10
1253.579708
 20
381.038306
 30
0.0
 11
1253.579708
 21
385.532753
 31
0.0
  0
LINE
  5
D5
100
AcDbEntity
  8
MSL-1-40-0
100
AcDbLine
 10
1254.604708
 20
385.532753
 30
0.0
 11
1252.554708
 21
385.532753
 31
0.0
  0
LINE
  5
D6
100
AcDbEntity
  8
MSL-1-40-3
100
AcDbLine
 10
1247.579708
 20
388.038306
 30
0.0
 11
1243.579708
 21
388.038306
 31
0.0
  0
LINE
  5
D7
100
AcDbEntity
  8
MSL-1-40-3
100
AcDbLine
 10
1243.579708
 20
381.038306
 30
0.0
 11
1243.579708
 21
388.038306
 31
0.0
  0
LINE
  5
D8
100
AcDbEntity
  8
MSL-1-40-3
100
AcDbLine
 10
1247.579708
 20
381.038306
 30
0.0
 11
1247.579708
 21
388.038306
 31
0.0
  0
LINE
  5
D9
100
AcDbEntity
  8
MSL-1-40-0
100
AcDbLine
 10
1241.579708
 20
381.038306
 30
0.0
 11
1253.579708
 21
381.038306
 31
0.0
  0
LINE
  5
DA
100
AcDbEntity
  8
MSL-1-40-0
100
AcDbLine
 10
1261.779708
 20
388.130829
 30
0.0
 11
1263.579708
 21
388.130829
 31
0.0
  0
LINE
  5
DB
100
AcDbEntity
  8
MSL-1-40-0
100
AcDbLine
 10
1261.779708
 20
383.223351
 30
0.0
 11
1263.579708
 21
383.223351
 31
0.0
  0
LINE
  5
DC
100
AcDbEntity
  8
MSL-1-40-0
100
AcDbLine
 10
1256.579708
 20
385.532753
 30
0.0
 11
1259.762208
 21
385.532753
 31
0.0
  0
ARC
  5
DD
100
AcDbEntity
  8
MSL-1-40-0
100
AcDbCircle
 10
1263.688389
 20
385.67709
 30
0.0
 40
3.108681
100
AcDbArc
 50
127.878142
 51
232.121858
  0
ARC
  5
DE
100
AcDbEntity
  8
MSL-1-40-0
100
AcDbCircle
 10
1247.869986
 20
393.038306
 30
0.0
 40
7.709722
100
AcDbArc
 50
330.872218
 51
29.127782
  0
ARC
  5
DF
100
AcDbEntity
  8
MSL-1-40-0
100
AcDbCircle
 10
1253.286653
 20
398.667471
 30
0.0
 40
2.293056
100
AcDbArc
 50
305.085848
 51
54.914152
  0
LINE
  5
E0
100
AcDbEntity
  8
MSL-1-40-7
100
AcDbLine
 10
1249.479649
 20
393.038306
 30
0.0
 11
1265.501604
 21
393.038306
 31
0.0
  0
LINE
  5
E1
100
AcDbEntity
  8
MSL-1-40-0
100
AcDbLine
 10
1254.604708
 20
400.54386
 30
0.0
 11
1252.554708
 21
400.54386
 31
0.0
  0
LINE
  5
E2
100
AcDbEntity
  8
MSL-1-40-0
100
AcDbLine
 10
1254.604708
 20
389.285529
 30
0.0
 11
1252.554708
 21
389.285529
 31
0.0
  0
LINE
  5
E3
100
AcDbEntity
  8
MSL-1-40-0
100
AcDbLine
 10
1254.604708
 20
396.791083
 30
0.0
 11
1252.554708
 21
396.791083
 31
0.0
  0
LINE
  5
E4
100
AcDbEntity
  8
MSL-1-40-3
100
AcDbLine
 10
1243.958708
 20
391.838306
 30
0.0
 11
1245.579708
 21
392.774191
 31
0.0
  0
LINE
  5
E5
100
AcDbEntity
  8
MSL-1-40-3
100
AcDbLine
 10
1243.958708
 20
391.838306
 30
0.0
 11
1247.200708
 21
391.838306
 31
0.0
  0
LINE
  5
E6
100
AcDbEntity
  8
MSL-1-40-3
100
AcDbLine
 10
1247.200708
 20
391.838306
 30
0.0
 11
1245.579708
 21
392.774191
 31
0.0
  0
LINE
  5
E7
100
AcDbEntity
  8
MSL-1-40-7
100
AcDbLine
 10
1250.579708
 20
390.038306
 30
0.0
 11
1250.579708
 21
396.038306
 31
0.0
  0
LINE
  5
E8
100
AcDbEntity
  8
MSL-1-40-7
100
AcDbLine
 10
1247.579708
 20
393.038306
 30
0.0
 11
1253.579708
 21
393.038306
 31
0.0
  0
ARC
  5
E9
100
AcDbEntity
  8
MSL-1-40-0
100
AcDbCircle
 10
1253.872764
 20
398.667471
 30
0.0
 40
2.293056
100
AcDbArc
 50
125.085847
 51
234.914153
  0
CIRCLE
  5
EA
100
AcDbEntity
  8
MSL-1-40-3
100
AcDbCircle
 10
1250.579708
 20
393.038306
 30
0.0
 40
1.621
  0
ARC
  5
EB
100
AcDbEntity
  8
MSL-1-40-3
100
AcDbCircle
 10
1250.579708
 20
393.038306
 30
0.0
 40
2.0
100
AcDbArc
 50
172.405357
 51
104.931417
  0
ARC
  5
EC
100
AcDbEntity
  8
MSL-1-40-0
100
AcDbCircle
 10
1259.289431
 20
393.038306
 30
0.0
 40
7.709722
100
AcDbArc
 50
150.872216
 51
209.127784
  0
LINE
  5
ED
100
AcDbEntity
  8
MSL-1-40-0
100
AcDbLine
 10
1259.762208
 20
400.54386
 30
0.0
 11
1256.579708
 21
400.54386
 31
0.0
  0
LINE
  5
EE
100
AcDbEntity
  8
MSL-1-40-0
100
AcDbLine
 10
1256.579708
 20
389.038306
 30
0.0
 11
1255.579708
 21
389.038306
 31
0.0
  0
LINE
  5
EF
100
AcDbEntity
  8
MSL-1-40-0
100
AcDbLine
 10
1256.579708
 20
397.038306
 30
0.0
 11
1255.579708
 21
397.038306
 31
0.0
  0
ARC
  5
F0
100
AcDbEntity
  8
MSL-1-40-0
100
AcDbCircle
 10
1251.557299
 20
393.038306
 30
0.0
 40
9.02241
100
AcDbArc
 50
335.421503
 51
24.578497
  0
LINE
  5
F1
100
AcDbEntity
  8
MSL-1-40-0
100
AcDbLine
 10
1259.762208
 20
389.285529
 30
0.0
 11
1256.579708
 21
389.285529
 31
0.0
  0
LINE
  5
F2
100
AcDbEntity
  8
MSL-1-40-0
100
AcDbLine
 10
1259.762208
 20
396.791083
 30
0.0
 11
1256.579708
 21
396.791083
 31
0.0
  0
LINE
  5
F3
100
AcDbEntity
  8
MSL-1-40-0
100
AcDbLine
 10
1261.779708
 20
397.945783
 30
0.0
 11
1263.579708
 21
397.945783
 31
0.0
  0
ARC
  5
F4
100
AcDbEntity
  8
MSL-1-40-0
100
AcDbCircle
 10
1258.017543
 20
398.667471
 30
0.0
 40
2.562165
100
AcDbArc
 50
312.916664
 51
47.083336
  0
LINE
  5
F5
100
AcDbEntity
  8
MSL-1-40-0
100
AcDbLine
 10
1260.579708
 20
400.399522
 30
0.0
 11
1260.579708
 21
389.909141
 31
0.0
  0
LINE
  5
F6
100
AcDbEntity
  8
MSL-1-40-7
100
AcDbLine
 10
1255.579708
 20
421.038306
 30
0.0
 11
1239.579708
 21
421.038306
 31
0.0
  0
LINE
  5
F7
100
AcDbEntity
  8
MSL-1-40-0
100
AcDbLine
 10
1255.579708
 20
418.038306
 30
0.0
 11
1255.579708
 21
404.038306
 31
0.0
  0
LINE
  5
F8
100
AcDbEntity
  8
MSL-1-40-0
100
AcDbLine
 10
1254.579708
 20
417.038306
 30
0.0
 11
1254.579708
 21
405.038306
 31
0.0
  0
LINE
  5
F9
100
AcDbEntity
  8
MSL-1-40-0
100
AcDbLine
 10
1254.579708
 20
405.038306
 30
0.0
 11
1255.579708
 21
404.038306
 31
0.0
  0
LINE
  5
FA
100
AcDbEntity
  8
MSL-1-40-0
100
AcDbLine
 10
1253.579708
 20
413.038306
 30
0.0
 11
1254.579708
 21
413.038306
 31
0.0
  0
LINE
  5
FB
100
AcDbEntity
  8
MSL-1-40-0
100
AcDbLine
 10
1253.579708
 20
409.038306
 30
0.0
 11
1254.579708
 21
409.038306
 31
0.0
  0
LINE
  5
FC
100
AcDbEntity
  8
MSL-1-40-0
100
AcDbLine
 10
1261.779708
 20
402.85326
 30
0.0
 11
1263.579708
 21
402.85326
 31
0.0
  0
LINE
  5
FD
100
AcDbEntity
  8
MSL-1-40-0
100
AcDbLine
 10
1255.579708
 20
404.038306
 30
0.0
 11
1263.579708
 21
404.038306
 31
0.0
  0
LINE
  5
FE
100
AcDbEntity
  8
MSL-1-40-0
100
AcDbLine
 10
1255.579708
 20
418.038306
 30
0.0
 11
1254.579708
 21
417.038306
 31
0.0
  0
LINE
  5
FF
100
AcDbEntity
  8
MSL-1-40-0
100
AcDbLine
 10
1251.579708
 20
425.988306
 30
0.0
 11
1255.579708
 21
425.988306
 31
0.0
  0
ARC
  5
100
100
AcDbEntity
  8
MSL-1-40-0
100
AcDbCircle
 10
1260.471028
 20
420.67709
 30
0.0
 40
3.108681
100
AcDbArc
 50
307.878144
 51
52.121856
  0
ARC
  5
101
100
AcDbEntity
  8
MSL-1-40-0
100
AcDbCircle
 10
1261.688389
 20
420.67709
 30
0.0
 40
3.108681
100
AcDbArc
 50
127.878142
 51
232.121858
  0
LINE
  5
102
100
AcDbEntity
  8
MSL-1-40-0
100
AcDbLine
 10
1259.779708
 20
418.223352
 30
0.0
 11
1262.379708
 21
418.223352
 31
0.0
  0
LINE
  5
103
100
AcDbEntity
  8
MSL-1-40-0
100
AcDbLine
 10
1263.579708
 20
418.038306
 30
0.0
 11
1255.579708
 21
418.038306
 31
0.0
  0
LINE
  5
104
100
AcDbEntity
  8
MSL-1-40-0
100
AcDbLine
 10
1258.558651
 20
421.038306
 30
0.0
 11
1256.579708
 21
421.038306
 31
0.0
  0
LINE
  5
105
100
AcDbEntity
  8
MSL-1-40-0
100
AcDbLine
 10
1256.579708
 20
421.038306
 30
0.0
 11
1255.579708
 21
422.038306
 31
0.0
  0
LINE
  5
106
100
AcDbEntity
  8
MSL-1-40-0
100
AcDbLine
 10
1259.779708
 20
423.130829
 30
0.0
 11
1262.379708
 21
423.130829
 31
0.0
  0
LINE
  5
107
100
AcDbEntity
  8
MSL-1-40-7
100
AcDbLine
 10
1299.579708
 20
382.990257
 30
0.0
 11
1299.579708
 21
374.826942
 31
0.0
  0
LINE
  5
108
100
AcDbEntity
  8
MSL-1-40-7
100
AcDbLine
 10
1289.079708
 20
382.990257
 30
0.0
 11
1289.079708
 21
374.983929
 31
0.0
  0
LINE
  5
109
100
AcDbEntity
  8
MSL-1-40-7
100
AcDbLine
 10
1318.579708
 20
421.038306
 30
0.0
 11
1324.579708
 21
421.038306
 31
0.0
  0
LINE
  5
10A
100
AcDbEntity
  8
MSL-1-40-7
100
AcDbLine
 10
1318.579708
 20
401.038306
 30
0.0
 11
1324.579708
 21
401.038306
 31
0.0
  0
LINE
  5
10B
100
AcDbEntity
  8
MSL-1-40-7
100
AcDbLine
 10
1311.579708
 20
401.038306
 30
0.0
 11
1311.579708
 21
404.161034
 31
0.0
  0
CIRCLE
  5
10C
100
AcDbEntity
  8
MSL-1-40-3
100
AcDbCircle
 10
1311.579708
 20
401.038306
 30
0.0
 40
2.0
  0
CIRCLE
  5
10D
100
AcDbEntity
  8
MSL-1-40-3
100
AcDbCircle
 10
1321.579708
 20
401.038306
 30
0.0
 40
1.621
  0
ARC
  5
10E
100
AcDbEntity
  8
MSL-1-40-3
100
AcDbCircle
 10
1321.579708
 20
401.038306
 30
0.0
 40
2.0
100
AcDbArc
 50
172.405357
 51
104.931417
  0
LINE
  5
10F
100
AcDbEntity
  8
MSL-1-40-7
100
AcDbLine
 10
1321.579708
 20
398.038306
 30
0.0
 11
1321.579708
 21
404.038306
 31
0.0
  0
CIRCLE
  5
110
100
AcDbEntity
  8
MSL-1-40-3
100
AcDbCircle
 10
1301.579708
 20
401.038306
 30
0.0
 40
1.621
  0
ARC
  5
111
100
AcDbEntity
  8
MSL-1-40-3
100
AcDbCircle
 10
1301.579708
 20
401.038306
 30
0.0
 40
2.0
100
AcDbArc
 50
172.405357
 51
104.931417
  0
LINE
  5
112
100
AcDbEntity
  8
MSL-1-40-0
100
AcDbLine
 10
1283.579708
 20
423.038306
 30
0.0
 11
1283.579708
 21
399.038306
 31
0.0
  0
LINE
  5
113
100
AcDbEntity
  8
MSL-1-40-7
100
AcDbLine
 10
1301.579708
 20
398.038306
 30
0.0
 11
1301.579708
 21
404.038306
 31
0.0
  0
LINE
  5
114
100
AcDbEntity
  8
MSL-1-40-7
100
AcDbLine
 10
1292.579708
 20
392.038306
 30
0.0
 11
1299.619518
 21
392.038306
 31
0.0
  0
LINE
  5
115
100
AcDbEntity
  8
MSL-1-40-0
100
AcDbLine
 10
1295.579708
 20
377.038306
 30
0.0
 11
1303.579708
 21
377.038306
 31
0.0
  0
CIRCLE
  5
116
100
AcDbEntity
  8
MSL-1-40-0
100
AcDbCircle
 10
1292.579708
 20
392.038306
 30
0.0
 40
5.5
  0
LINE
  5
117
100
AcDbEntity
  8
MSL-1-40-7
100
AcDbLine
 10
1292.579708
 20
392.038306
 30
0.0
 11
1292.579708
 21
384.998496
 31
0.0
  0
ARC
  5
118
100
AcDbEntity
  8
MSL-1-40-0
100
AcDbCircle
 10
1295.579708
 20
378.538306
 30
0.0
 40
1.5
100
AcDbArc
 50
213.55731
 51
270.000001
  0
LINE
  5
119
100
AcDbEntity
  8
MSL-1-40-0
100
AcDbLine
 10
1294.579708
 20
378.538306
 30
0.0
 11
1294.579708
 21
381.038306
 31
0.0
  0
LINE
  5
11A
100
AcDbEntity
  8
MSL-1-40-0
100
AcDbLine
 10
1283.579708
 20
381.038306
 30
0.0
 11
1283.579708
 21
378.538306
 31
0.0
  0
LINE
  5
11B
100
AcDbEntity
  8
MSL-1-40-0
100
AcDbLine
 10
1285.079708
 20
377.038306
 30
0.0
 11
1293.079708
 21
377.038306
 31
0.0
  0
ARC
  5
11C
100
AcDbEntity
  8
MSL-1-40-0
100
AcDbCircle
 10
1285.079708
 20
378.538306
 30
0.0
 40
1.5
100
AcDbArc
 50
179.999998
 51
270.000001
  0
ARC
  5
11D
100
AcDbEntity
  8
MSL-1-40-0
100
AcDbCircle
 10
1293.079708
 20
378.538306
 30
0.0
 40
1.5
100
AcDbArc
 50
270.000001
 51
0.0
  0
LINE
  5
11E
100
AcDbEntity
  8
MSL-1-40-7
100
AcDbLine
 10
1292.579708
 20
392.038306
 30
0.0
 11
1285.539899
 21
392.038306
 31
0.0
  0
LINE
  5
11F
100
AcDbEntity
  8
MSL-1-40-7
100
AcDbLine
 10
1292.579708
 20
392.038306
 30
0.0
 11
1292.579708
 21
399.078115
 31
0.0
  0
LINE
  5
120
100
AcDbEntity
  8
MSL-1-40-0
100
AcDbLine
 10
1305.079708
 20
378.538306
 30
0.0
 11
1305.079708
 21
381.038306
 31
0.0
  0
ARC
  5
121
100
AcDbEntity
  8
MSL-1-40-0
100
AcDbCircle
 10
1303.579708
 20
378.538306
 30
0.0
 40
1.5
100
AcDbArc
 50
270.000001
 51
0.0
  0
LINE
  5
122
100
AcDbEntity
  8
MSL-1-40-7
100
AcDbLine
 10
1311.579708
 20
401.038306
 30
0.0
 11
1308.45698
 21
401.038306
 31
0.0
  0
LINE
  5
123
100
AcDbEntity
  8
MSL-1-40-7
100
AcDbLine
 10
1298.579708
 20
401.038306
 30
0.0
 11
1304.579708
 21
401.038306
 31
0.0
  0
LINE
  5
124
100
AcDbEntity
  8
MSL-1-40-7
100
AcDbLine
 10
1311.579708
 20
401.038306
 30
0.0
 11
1314.702436
 21
401.038306
 31
0.0
  0
LINE
  5
125
100
AcDbEntity
  8
MSL-1-40-7
100
AcDbLine
 10
1311.579708
 20
401.038306
 30
0.0
 11
1311.579708
 21
397.915578
 31
0.0
  0
LINE
  5
126
100
AcDbEntity
  8
MSL-1-40-7
100
AcDbLine
 10
1272.879708
 20
407.788306
 30
0.0
 11
1272.879708
 21
414.288306
 31
0.0
  0
LINE
  5
127
100
AcDbEntity
  8
MSL-1-40-7
100
AcDbLine
 10
1272.879708
 20
411.038306
 30
0.0
 11
1276.129708
 21
411.038306
 31
0.0
  0
LINE
  5
128
100
AcDbEntity
  8
MSL-1-40-7
100
AcDbLine
 10
1276.129708
 20
411.038306
 30
0.0
 11
1269.629708
 21
411.038306
 31
0.0
  0
LINE
  5
129
100
AcDbEntity
  8
MSL-1-40-7
100
AcDbLine
 10
1272.879708
 20
411.038306
 30
0.0
 11
1272.879708
 21
407.788306
 31
0.0
  0
CIRCLE
  5
12A
100
AcDbEntity
  8
MSL-1-40-0
100
AcDbCircle
 10
1272.879708
 20
411.038306
 30
0.0
 40
2.1
  0
CIRCLE
  5
12B
100
AcDbEntity
  8
MSL-1-40-4
100
AcDbCircle
 10
1272.879708
 20
411.038306
 30
0.0
 40
2.5
  0
LINE
  5
12C
100
AcDbEntity
  8
MSL-1-40-7
100
AcDbLine
 10
1311.579708
 20
417.915578
 30
0.0
 11
1311.579708
 21
404.161034
 31
0.0
  0
CIRCLE
  5
12D
100
AcDbEntity
  8
MSL-1-40-3
100
AcDbCircle
 10
1311.579708
 20
421.038306
 30
0.0
 40
2.0
  0
LINE
  5
12E
100
AcDbEntity
  8
MSL-1-40-7
100
AcDbLine
 10
1311.579708
 20
421.038306
 30
0.0
 11
1308.45698
 21
421.038306
 31
0.0
  0
ARC
  5
12F
100
AcDbEntity
  8
MSL-1-40-3
100
AcDbCircle
 10
1301.579708
 20
421.038306
 30
0.0
 40
2.0
100
AcDbArc
 50
172.405357
 51
104.931417
  0
LINE
  5
130
100
AcDbEntity
  8
MSL-1-40-7
100
AcDbLine
 10
1298.579708
 20
421.038306
 30
0.0
 11
1304.579708
 21
421.038306
 31
0.0
  0
CIRCLE
  5
131
100
AcDbEntity
  8
MSL-1-40-3
100
AcDbCircle
 10
1301.579708
 20
421.038306
 30
0.0
 40
1.621
  0
LINE
  5
132
100
AcDbEntity
  8
MSL-1-40-7
100
AcDbLine
 10
1301.579708
 20
418.038306
 30
0.0
 11
1301.579708
 21
424.038306
 31
0.0
  0
LINE
  5
133
100
AcDbEntity
  8
MSL-1-40-7
100
AcDbLine
 10
1321.579708
 20
418.038306
 30
0.0
 11
1321.579708
 21
424.038306
 31
0.0
  0
LINE
  5
134
100
AcDbEntity
  8
MSL-1-40-7
100
AcDbLine
 10
1311.579708
 20
421.038306
 30
0.0
 11
1311.579708
 21
417.915578
 31
0.0
  0
LINE
  5
135
100
AcDbEntity
  8
MSL-1-40-7
100
AcDbLine
 10
1311.579708
 20
421.038306
 30
0.0
 11
1314.702436
 21
421.038306
 31
0.0
  0
LINE
  5
136
100
AcDbEntity
  8
MSL-1-40-7
100
AcDbLine
 10
1311.579708
 20
421.038306
 30
0.0
 11
1311.579708
 21
424.161034
 31
0.0
  0
ARC
  5
137
100
AcDbEntity
  8
MSL-1-40-3
100
AcDbCircle
 10
1321.579708
 20
421.038306
 30
0.0
 40
2.0
100
AcDbArc
 50
172.405357
 51
104.931417
  0
CIRCLE
  5
138
100
AcDbEntity
  8
MSL-1-40-3
100
AcDbCircle
 10
1321.579708
 20
421.038306
 30
0.0
 40
1.621
  0
ARC
  5
139
100
AcDbEntity
  8
MSL-1-40-0
100
AcDbCircle
 10
1361.471028
 20
401.399522
 30
0.0
 40
3.108681
100
AcDbArc
 50
307.878144
 51
52.121856
  0
ARC
  5
13A
100
AcDbEntity
  8
MSL-1-40-0
100
AcDbCircle
 10
1362.688389
 20
401.399522
 30
0.0
 40
3.108681
100
AcDbArc
 50
127.878142
 51
232.121858
  0
LINE
  5
13B
100
AcDbEntity
  8
MSL-1-40-0
100
AcDbLine
 10
1339.579708
 20
423.038306
 30
0.0
 11
1339.579708
 21
399.038306
 31
0.0
  0
LINE
  5
13C
100
AcDbEntity
  8
MSL-1-40-0
100
AcDbLine
 10
1339.579708
 20
399.038306
 30
0.0
 11
1359.579708
 21
399.038306
 31
0.0
  0
ARC
  5
13D
100
AcDbEntity
  8
MSL-1-40-0
100
AcDbCircle
 10
1361.471028
 20
386.67709
 30
0.0
 40
3.108681
100
AcDbArc
 50
307.878144
 51
52.121856
  0
LINE
  5
13E
100
AcDbEntity
  8
MSL-1-40-0
100
AcDbLine
 10
1366.579708
 20
401.038306
 30
0.0
 11
1366.579708
 21
387.038306
 31
0.0
  0
LINE
  5
13F
100
AcDbEntity
  8
MSL-1-40-0
100
AcDbLine
 10
1364.579708
 20
401.399522
 30
0.0
 11
1364.579708
 21
386.67709
 31
0.0
  0
LINE
  5
140
100
AcDbEntity
  8
MSL-1-40-0
100
AcDbLine
 10
1367.579708
 20
400.038306
 30
0.0
 11
1367.579708
 21
388.038306
 31
0.0
  0
ARC
  5
141
100
AcDbEntity
  8
MSL-1-40-0
100
AcDbCircle
 10
1362.688389
 20
386.67709
 30
0.0
 40
3.108681
100
AcDbArc
 50
127.878142
 51
232.121858
  0
LINE
  5
142
100
AcDbEntity
  8
MSL-1-40-0
100
AcDbLine
 10
1359.579708
 20
401.399522
 30
0.0
 11
1359.579708
 21
386.67709
 31
0.0
  0
LINE
  5
143
100
AcDbEntity
  8
MSL-1-40-0
100
AcDbLine
 10
1366.579708
 20
387.038306
 30
0.0
 11
1364.600766
 21
387.038306
 31
0.0
  0
LINE
  5
144
100
AcDbEntity
  8
MSL-1-40-0
100
AcDbLine
 10
1363.379708
 20
384.223352
 30
0.0
 11
1360.779708
 21
384.223352
 31
0.0
  0
LINE
  5
145
100
AcDbEntity
  8
MSL-1-40-0
100
AcDbLine
 10
1367.579708
 20
388.038306
 30
0.0
 11
1366.579708
 21
387.038306
 31
0.0
  0
LINE
  5
146
100
AcDbEntity
  8
MSL-1-40-0
100
AcDbLine
 10
1364.600766
 20
401.038306
 30
0.0
 11
1366.579708
 21
401.038306
 31
0.0
  0
ARC
  5
147
100
AcDbEntity
  8
MSL-1-40-0
100
AcDbCircle
 10
1353.944986
 20
394.038306
 30
0.0
 40
10.634722
100
AcDbArc
 50
332.518773
 51
27.481227
  0
ARC
  5
148
100
AcDbEntity
  8
MSL-1-40-0
100
AcDbCircle
 10
1370.214431
 20
394.038306
 30
0.0
 40
10.634722
100
AcDbArc
 50
152.518771
 51
207.481229
  0
LINE
  5
149
100
AcDbEntity
  8
MSL-1-40-0
100
AcDbLine
 10
1363.379708
 20
389.130829
 30
0.0
 11
1360.779708
 21
389.130829
 31
0.0
  0
LINE
  5
14A
100
AcDbEntity
  8
MSL-1-40-0
100
AcDbLine
 10
1363.379708
 20
398.945783
 30
0.0
 11
1360.779708
 21
398.945783
 31
0.0
  0
LINE
  5
14B
100
AcDbEntity
  8
MSL-1-40-0
100
AcDbLine
 10
1366.579708
 20
401.038306
 30
0.0
 11
1367.579708
 21
400.038306
 31
0.0
  0
LINE
  5
14C
100
AcDbEntity
  8
MSL-1-40-0
100
AcDbLine
 10
1359.579708
 20
423.038306
 30
0.0
 11
1339.579708
 21
423.038306
 31
0.0
  0
LINE
  5
14D
100
AcDbEntity
  8
MSL-1-40-7
100
AcDbLine
 10
1347.029708
 20
411.038306
 30
0.0
 11
1353.529708
 21
411.038306
 31
0.0
  0
CIRCLE
  5
14E
100
AcDbEntity
  8
MSL-1-40-4
100
AcDbCircle
 10
1350.279708
 20
411.038306
 30
0.0
 40
2.5
  0
LINE
  5
14F
100
AcDbEntity
  8
MSL-1-40-7
100
AcDbLine
 10
1350.279708
 20
414.288306
 30
0.0
 11
1350.279708
 21
407.788306
 31
0.0
  0
LINE
  5
150
100
AcDbEntity
  8
MSL-1-40-7
100
AcDbLine
 10
1350.279708
 20
411.038306
 30
0.0
 11
1350.279708
 21
414.288306
 31
0.0
  0
CIRCLE
  5
151
100
AcDbEntity
  8
MSL-1-40-0
100
AcDbCircle
 10
1350.279708
 20
411.038306
 30
0.0
 40
2.1
  0
LINE
  5
152
100
AcDbEntity
  8
MSL-1-40-7
100
AcDbLine
 10
1350.279708
 20
411.038306
 30
0.0
 11
1347.029708
 21
411.038306
 31
0.0
  0
LINE
  5
153
100
AcDbEntity
  8
MSL-1-40-0
100
AcDbLine
 10
1367.579708
 20
418.038306
 30
0.0
 11
1367.579708
 21
404.038306
 31
0.0
  0
LINE
  5
154
100
AcDbEntity
  8
MSL-1-40-0
100
AcDbLine
 10
1368.579708
 20
417.038306
 30
0.0
 11
1368.579708
 21
405.038306
 31
0.0
  0
LINE
  5
155
100
AcDbEntity
  8
MSL-1-40-0
100
AcDbLine
 10
1367.579708
 20
404.038306
 30
0.0
 11
1359.579708
 21
404.038306
 31
0.0
  0
LINE
  5
156
100
AcDbEntity
  8
MSL-1-40-0
100
AcDbLine
 10
1363.379708
 20
403.853261
 30
0.0
 11
1360.779708
 21
403.853261
 31
0.0
  0
LINE
  5
157
100
AcDbEntity
  8
MSL-1-40-0
100
AcDbLine
 10
1368.579708
 20
405.038306
 30
0.0
 11
1367.579708
 21
404.038306
 31
0.0
  0
LINE
  5
158
100
AcDbEntity
  8
MSL-1-40-0
100
AcDbLine
 10
1359.579708
 20
418.038306
 30
0.0
 11
1367.579708
 21
418.038306
 31
0.0
  0
LINE
  5
159
100
AcDbEntity
  8
MSL-1-40-0
100
AcDbLine
 10
1361.379708
 20
424.130829
 30
0.0
 11
1359.579708
 21
424.130829
 31
0.0
  0
LINE
  5
15A
100
AcDbEntity
  8
MSL-1-40-0
100
AcDbLine
 10
1361.379708
 20
419.223352
 30
0.0
 11
1359.579708
 21
419.223352
 31
0.0
  0
ARC
  5
15B
100
AcDbEntity
  8
MSL-1-40-0
100
AcDbCircle
 10
1359.471028
 20
421.67709
 30
0.0
 40
3.108681
100
AcDbArc
 50
307.878144
 51
52.121856
  0
LINE
  5
15C
100
AcDbEntity
  8
MSL-1-40-0
100
AcDbLine
 10
1367.579708
 20
418.038306
 30
0.0
 11
1368.579708
 21
417.038306
 31
0.0
  0
MTEXT
  5
15D
100
AcDbEntity
  8
MSL-1-40-4
100
AcDbMText
 10
1264.51798
 20
488.797984
 30
0.0
 40
3.5
 41
23.418615
 71
     1
 72
     1
  1
{MSL-1-40}
  0
LINE
  5
15E
100
AcDbEntity
  8
MSL-1-40-0
100
AcDbLine
 10
1263.579708
 20
514.532524
 30
0.0
 11
1359.579708
 21
514.532524
 31
0.0
  0
LINE
  5
15F
100
AcDbEntity
  8
MSL-1-40-0
100
AcDbLine
 10
1359.579708
 20
484.532524
 30
0.0
 11
1263.579708
 21
484.532524
 31
0.0
  0
LINE
  5
160
100
AcDbEntity
  8
MSL-1-40-0
100
AcDbLine
 10
1263.579708
 20
441.038306
 30
0.0
 11
1359.579708
 21
441.038306
 31
0.0
  0
LINE
  5
161
100
AcDbEntity
  8
MSL-1-40-7
100
AcDbLine
 10
1246.95035
 20
431.038306
 30
0.0
 11
1268.941268
 21
431.038306
 31
0.0
  0
LINE
  5
162
100
AcDbEntity
  8
MSL-1-40-0
100
AcDbLine
 10
1253.579708
 20
430.088306
 30
0.0
 11
1253.579708
 21
441.038306
 31
0.0
  0
LINE
  5
163
100
AcDbEntity
  8
MSL-1-40-7
100
AcDbLine
 10
1245.579708
 20
442.038306
 30
0.0
 11
1245.579708
 21
428.238306
 31
0.0
  0
LINE
  5
164
100
AcDbEntity
  8
MSL-1-40-3
100
AcDbLine
 10
1243.579708
 20
441.038306
 30
0.0
 11
1243.579708
 21
434.038306
 31
0.0
  0
LINE
  5
165
100
AcDbEntity
  8
MSL-1-40-3
100
AcDbLine
 10
1243.958708
 20
441.038306
 30
0.0
 11
1243.958708
 21
430.238306
 31
0.0
  0
LINE
  5
166
100
AcDbEntity
  8
MSL-1-40-3
100
AcDbLine
 10
1247.200708
 20
441.038306
 30
0.0
 11
1247.200708
 21
430.238306
 31
0.0
  0
LINE
  5
167
100
AcDbEntity
  8
MSL-1-40-3
100
AcDbLine
 10
1247.579708
 20
441.038306
 30
0.0
 11
1247.579708
 21
434.038306
 31
0.0
  0
LINE
  5
168
100
AcDbEntity
  8
MSL-1-40-0
100
AcDbLine
 10
1253.579708
 20
435.038306
 30
0.0
 11
1256.579708
 21
435.038306
 31
0.0
  0
LINE
  5
169
100
AcDbEntity
  8
MSL-1-40-7
100
AcDbLine
 10
1250.285399
 20
428.038306
 30
0.0
 11
1267.072384
 21
428.038306
 31
0.0
  0
LINE
  5
16A
100
AcDbEntity
  8
MSL-1-40-0
100
AcDbLine
 10
1255.579708
 20
430.088306
 30
0.0
 11
1251.579708
 21
430.088306
 31
0.0
  0
LINE
  5
16B
100
AcDbEntity
  8
MSL-1-40-3
100
AcDbLine
 10
1243.958708
 20
430.238306
 30
0.0
 11
1245.579708
 21
429.302421
 31
0.0
  0
LINE
  5
16C
100
AcDbEntity
  8
MSL-1-40-3
100
AcDbLine
 10
1247.200708
 20
430.238306
 30
0.0
 11
1245.579708
 21
429.302421
 31
0.0
  0
LINE
  5
16D
100
AcDbEntity
  8
MSL-1-40-3
100
AcDbLine
 10
1247.200708
 20
430.238306
 30
0.0
 11
1243.958708
 21
430.238306
 31
0.0
  0
LINE
  5
16E
100
AcDbEntity
  8
MSL-1-40-3
100
AcDbLine
 10
1243.579708
 20
434.038306
 30
0.0
 11
1247.579708
 21
434.038306
 31
0.0
  0
LINE
  5
16F
100
AcDbEntity
  8
MSL-1-40-7
100
AcDbLine
 10
1247.579708
 20
429.038306
 30
0.0
 11
1253.579708
 21
429.038306
 31
0.0
  0
ARC
  5
170
100
AcDbEntity
  8
MSL-1-40-3
100
AcDbCircle
 10
1250.579708
 20
429.038306
 30
0.0
 40
2.0
100
AcDbArc
 50
172.405357
 51
104.931417
  0
CIRCLE
  5
171
100
AcDbEntity
  8
MSL-1-40-3
100
AcDbCircle
 10
1250.579708
 20
429.038306
 30
0.0
 40
1.621
  0
LINE
  5
172
100
AcDbEntity
  8
MSL-1-40-0
100
AcDbLine
 10
1259.779708
 20
437.853261
 30
0.0
 11
1262.379708
 21
437.853261
 31
0.0
  0
LINE
  5
173
100
AcDbEntity
  8
MSL-1-40-0
100
AcDbLine
 10
1259.779708
 20
432.945783
 30
0.0
 11
1262.379708
 21
432.945783
 31
0.0
  0
LINE
  5
174
100
AcDbEntity
  8
MSL-1-40-0
100
AcDbLine
 10
1255.579708
 20
434.038306
 30
0.0
 11
1256.579708
 21
435.038306
 31
0.0
  0
LINE
  5
175
100
AcDbEntity
  8
MSL-1-40-0
100
AcDbLine
 10
1256.579708
 20
435.038306
 30
0.0
 11
1258.558651
 21
435.038306
 31
0.0
  0
ARC
  5
176
100
AcDbEntity
  8
MSL-1-40-0
100
AcDbCircle
 10
1260.471028
 20
435.399522
 30
0.0
 40
3.108681
100
AcDbArc
 50
307.878144
 51
52.121856
  0
ARC
  5
177
100
AcDbEntity
  8
MSL-1-40-0
100
AcDbCircle
 10
1261.688389
 20
435.399522
 30
0.0
 40
3.108681
100
AcDbArc
 50
127.878142
 51
232.121858
  0
LINE
  5
178
100
AcDbEntity
  8
MSL-1-40-0
100
AcDbLine
 10
1253.579708
 20
441.038306
 30
0.0
 11
1241.579708
 21
441.038306
 31
0.0
  0
LINE
  5
179
100
AcDbEntity
  8
MSL-1-40-7
100
AcDbLine
 10
1160.032875
 20
504.801622
 30
0.0
 11
1160.032875
 21
494.532524
 31
0.0
  0
LINE
  5
17A
100
AcDbEntity
  8
MSL-1-40-0
100
AcDbLine
 10
1170.032875
 20
528.532524
 30
0.0
 11
1170.032875
 21
483.532524
 31
0.0
  0
LINE
  5
17B
100
AcDbEntity
  8
MSL-1-40-3
100
AcDbLine
 10
1163.032875
 20
491.532524
 30
0.0
 11
1163.032875
 21
487.532524
 31
0.0
  0
LINE
  5
17C
100
AcDbEntity
  8
MSL-1-40-3
100
AcDbLine
 10
1159.232875
 20
487.911524
 30
0.0
 11
1159.232875
 21
491.153524
 31
0.0
  0
LINE
  5
17D
100
AcDbEntity
  8
MSL-1-40-3
100
AcDbLine
 10
1159.232875
 20
491.153524
 30
0.0
 11
1158.29699
 21
489.532524
 31
0.0
  0
LINE
  5
17E
100
AcDbEntity
  8
MSL-1-40-3
100
AcDbLine
 10
1159.653875
 20
483.532524
 30
0.0
 11
1159.653875
 21
494.332524
 31
0.0
  0
LINE
  5
17F
100
AcDbEntity
  8
MSL-1-40-3
100
AcDbLine
 10
1160.032875
 20
483.532524
 30
0.0
 11
1160.032875
 21
490.532524
 31
0.0
  0
LINE
  5
180
100
AcDbEntity
  8
MSL-1-40-7
100
AcDbLine
 10
1158.032875
 20
482.532524
 30
0.0
 11
1158.032875
 21
496.332524
 31
0.0
  0
LINE
  5
181
100
AcDbEntity
  8
MSL-1-40-3
100
AcDbLine
 10
1159.232875
 20
487.911524
 30
0.0
 11
1158.29699
 21
489.532524
 31
0.0
  0
LINE
  5
182
100
AcDbEntity
  8
MSL-1-40-3
100
AcDbLine
 10
1170.032875
 20
487.911524
 30
0.0
 11
1159.232875
 21
487.911524
 31
0.0
  0
LINE
  5
183
100
AcDbEntity
  8
MSL-1-40-3
100
AcDbLine
 10
1170.032875
 20
487.532524
 30
0.0
 11
1163.032875
 21
487.532524
 31
0.0
  0
LINE
  5
184
100
AcDbEntity
  8
MSL-1-40-3
100
AcDbLine
 10
1159.653875
 20
494.332524
 30
0.0
 11
1158.032875
 21
495.268409
 31
0.0
  0
LINE
  5
185
100
AcDbEntity
  8
MSL-1-40-3
100
AcDbLine
 10
1170.032875
 20
491.153524
 30
0.0
 11
1159.232875
 21
491.153524
 31
0.0
  0
LINE
  5
186
100
AcDbEntity
  8
MSL-1-40-3
100
AcDbLine
 10
1170.032875
 20
491.532524
 30
0.0
 11
1163.032875
 21
491.532524
 31
0.0
  0
LINE
  5
187
100
AcDbEntity
  8
MSL-1-40-3
100
AcDbLine
 10
1163.032875
 20
511.532524
 30
0.0
 11
1163.032875
 21
507.532524
 31
0.0
  0
LINE
  5
188
100
AcDbEntity
  8
MSL-1-40-3
100
AcDbLine
 10
1159.232875
 20
507.911524
 30
0.0
 11
1159.232875
 21
511.153524
 31
0.0
  0
LINE
  5
189
100
AcDbEntity
  8
MSL-1-40-3
100
AcDbLine
 10
1159.232875
 20
511.153524
 30
0.0
 11
1158.29699
 21
509.532524
 31
0.0
  0
LINE
  5
18A
100
AcDbEntity
  8
MSL-1-40-3
100
AcDbLine
 10
1159.232875
 20
507.911524
 30
0.0
 11
1158.29699
 21
509.532524
 31
0.0
  0
LINE
  5
18B
100
AcDbEntity
  8
MSL-1-40-3
100
AcDbLine
 10
1170.032875
 20
507.911524
 30
0.0
 11
1159.232875
 21
507.911524
 31
0.0
  0
LINE
  5
18C
100
AcDbEntity
  8
MSL-1-40-3
100
AcDbLine
 10
1170.032875
 20
507.532524
 30
0.0
 11
1163.032875
 21
507.532524
 31
0.0
  0
LINE
  5
18D
100
AcDbEntity
  8
MSL-1-40-3
100
AcDbLine
 10
1170.032875
 20
511.153524
 30
0.0
 11
1159.232875
 21
511.153524
 31
0.0
  0
LINE
  5
18E
100
AcDbEntity
  8
MSL-1-40-3
100
AcDbLine
 10
1170.032875
 20
511.532524
 30
0.0
 11
1163.032875
 21
511.532524
 31
0.0
  0
LINE
  5
18F
100
AcDbEntity
  8
MSL-1-40-0
100
AcDbLine
 10
1253.579708
 20
513.532524
 30
0.0
 11
1253.579708
 21
483.532524
 31
0.0
  0
LINE
  5
190
100
AcDbEntity
  8
MSL-1-40-0
100
AcDbLine
 10
1241.579708
 20
483.532524
 30
0.0
 11
1241.579708
 21
528.532524
 31
0.0
  0
LINE
  5
191
100
AcDbEntity
  8
MSL-1-40-7
100
AcDbLine
 10
1238.687708
 20
489.532524
 30
0.0
 11
1256.467708
 21
489.532524
 31
0.0
  0
LINE
  5
192
100
AcDbEntity
  8
MSL-1-40-3
100
AcDbLine
 10
1252.200708
 20
483.532524
 30
0.0
 11
1252.200708
 21
494.332524
 31
0.0
  0
LINE
  5
193
100
AcDbEntity
  8
MSL-1-40-3
100
AcDbLine
 10
1252.579708
 20
483.532524
 30
0.0
 11
1252.579708
 21
490.532524
 31
0.0
  0
ARC
  5
194
100
AcDbEntity
  8
MSL-1-40-4
100
AcDbCircle
 10
1245.579708
 20
489.532524
 30
0.0
 40
2.0
100
AcDbArc
 50
172.405357
 51
104.931417
  0
CIRCLE
  5
195
100
AcDbEntity
  8
MSL-1-40-0
100
AcDbCircle
 10
1245.579708
 20
489.532524
 30
0.0
 40
1.621
  0
LINE
  5
196
100
AcDbEntity
  8
MSL-1-40-7
100
AcDbLine
 10
1245.579708
 20
486.532524
 30
0.0
 11
1245.579708
 21
492.532524
 31
0.0
  0
LINE
  5
197
100
AcDbEntity
  8
MSL-1-40-3
100
AcDbLine
 10
1248.958708
 20
483.532524
 30
0.0
 11
1248.958708
 21
494.332524
 31
0.0
  0
LINE
  5
198
100
AcDbEntity
  8
MSL-1-40-3
100
AcDbLine
 10
1248.579708
 20
483.532524
 30
0.0
 11
1248.579708
 21
490.532524
 31
0.0
  0
LINE
  5
199
100
AcDbEntity
  8
MSL-1-40-7
100
AcDbLine
 10
1250.579708
 20
482.532524
 30
0.0
 11
1250.579708
 21
496.332524
 31
0.0
  0
LINE
  5
19A
100
AcDbEntity
  8
MSL-1-40-7
100
AcDbLine
 10
1242.579708
 20
489.532524
 30
0.0
 11
1248.579708
 21
489.532524
 31
0.0
  0
LINE
  5
19B
100
AcDbEntity
  8
MSL-1-40-0
100
AcDbLine
 10
1253.579708
 20
483.532524
 30
0.0
 11
1241.579708
 21
483.532524
 31
0.0
  0
LINE
  5
19C
100
AcDbEntity
  8
MSL-1-40-0
100
AcDbLine
 10
1253.579708
 20
495.532524
 30
0.0
 11
1263.579708
 21
495.532524
 31
0.0
  0
LINE
  5
19D
100
AcDbEntity
  8
MSL-1-40-0
100
AcDbLine
 10
1255.579708
 20
492.532524
 30
0.0
 11
1254.579708
 21
493.532524
 31
0.0
  0
LINE
  5
19E
100
AcDbEntity
  8
MSL-1-40-0
100
AcDbLine
 10
1254.579708
 20
493.532524
 30
0.0
 11
1254.579708
 21
495.532524
 31
0.0
  0
LINE
  5
19F
100
AcDbEntity
  8
MSL-1-40-3
100
AcDbLine
 10
1248.958708
 20
494.332524
 30
0.0
 11
1250.579708
 21
495.268409
 31
0.0
  0
LINE
  5
1A0
100
AcDbEntity
  8
MSL-1-40-3
100
AcDbLine
 10
1252.579708
 20
490.532524
 30
0.0
 11
1248.579708
 21
490.532524
 31
0.0
  0
LINE
  5
1A1
100
AcDbEntity
  8
MSL-1-40-3
100
AcDbLine
 10
1248.958708
 20
494.332524
 30
0.0
 11
1252.200708
 21
494.332524
 31
0.0
  0
LINE
  5
1A2
100
AcDbEntity
  8
MSL-1-40-3
100
AcDbLine
 10
1252.200708
 20
494.332524
 30
0.0
 11
1250.579708
 21
495.268409
 31
0.0
  0
LINE
  5
1A3
100
AcDbEntity
  8
MSL-1-40-0
100
AcDbLine
 10
1263.579708
 20
492.532524
 30
0.0
 11
1255.579708
 21
492.532524
 31
0.0
  0
LINE
  5
1A4
100
AcDbEntity
  8
MSL-1-40-0
100
AcDbLine
 10
1255.579708
 20
495.532524
 30
0.0
 11
1255.579708
 21
492.532524
 31
0.0
  0
LINE
  5
1A5
100
AcDbEntity
  8
MSL-1-40-7
100
AcDbLine
 10
1239.579708
 20
509.532524
 30
0.0
 11
1255.579708
 21
509.532524
 31
0.0
  0
ARC
  5
1A6
100
AcDbEntity
  8
MSL-1-40-0
100
AcDbCircle
 10
1261.688389
 20
515.171308
 30
0.0
 40
3.108681
100
AcDbArc
 50
127.878142
 51
232.121858
  0
LINE
  5
1A7
100
AcDbEntity
  8
MSL-1-40-0
100
AcDbLine
 10
1255.579708
 20
516.532524
 30
0.0
 11
1256.579708
 21
515.532524
 31
0.0
  0
ARC
  5
1A8
100
AcDbEntity
  8
MSL-1-40-0
100
AcDbCircle
 10
1260.471028
 20
515.171308
 30
0.0
 40
3.108681
100
AcDbArc
 50
307.878144
 51
52.121856
  0
LINE
  5
1A9
100
AcDbEntity
  8
MSL-1-40-0
100
AcDbLine
 10
1251.579708
 20
528.532524
 30
0.0
 11
1251.579708
 21
513.532524
 31
0.0
  0
LINE
  5
1AA
100
AcDbEntity
  8
MSL-1-40-0
100
AcDbLine
 10
1253.579708
 20
503.532524
 30
0.0
 11
1263.579708
 21
503.532524
 31
0.0
  0
LINE
  5
1AB
100
AcDbEntity
  8
MSL-1-40-0
100
AcDbLine
 10
1254.579708
 20
505.532524
 30
0.0
 11
1255.579708
 21
506.532524
 31
0.0
  0
LINE
  5
1AC
100
AcDbEntity
  8
MSL-1-40-0
100
AcDbLine
 10
1254.579708
 20
503.532524
 30
0.0
 11
1254.579708
 21
505.532524
 31
0.0
  0
LINE
  5
1AD
100
AcDbEntity
  8
MSL-1-40-7
100
AcDbLine
 10
1242.579708
 20
509.532524
 30
0.0
 11
1248.579708
 21
509.532524
 31
0.0
  0
ARC
  5
1AE
100
AcDbEntity
  8
MSL-1-40-4
100
AcDbCircle
 10
1245.579708
 20
509.532524
 30
0.0
 40
2.0
100
AcDbArc
 50
172.405357
 51
104.931417
  0
CIRCLE
  5
1AF
100
AcDbEntity
  8
MSL-1-40-0
100
AcDbCircle
 10
1245.579708
 20
509.532524
 30
0.0
 40
1.621
  0
LINE
  5
1B0
100
AcDbEntity
  8
MSL-1-40-7
100
AcDbLine
 10
1245.579708
 20
506.532524
 30
0.0
 11
1245.579708
 21
512.532524
 31
0.0
  0
LINE
  5
1B1
100
AcDbEntity
  8
MSL-1-40-0
100
AcDbLine
 10
1251.579708
 20
513.532524
 30
0.0
 11
1253.579708
 21
513.532524
 31
0.0
  0
LINE
  5
1B2
100
AcDbEntity
  8
MSL-1-40-0
100
AcDbLine
 10
1262.379708
 20
512.71757
 30
0.0
 11
1259.779708
 21
512.71757
 31
0.0
  0
LINE
  5
1B3
100
AcDbEntity
  8
MSL-1-40-0
100
AcDbLine
 10
1256.579708
 20
515.532524
 30
0.0
 11
1258.579708
 21
515.532524
 31
0.0
  0
LINE
  5
1B4
100
AcDbEntity
  8
MSL-1-40-0
100
AcDbLine
 10
1255.579708
 20
506.532524
 30
0.0
 11
1263.579708
 21
506.532524
 31
0.0
  0
LINE
  5
1B5
100
AcDbEntity
  8
MSL-1-40-0
100
AcDbLine
 10
1255.579708
 20
506.532524
 30
0.0
 11
1255.579708
 21
503.532524
 31
0.0
  0
LINE
  5
1B6
100
AcDbEntity
  8
MSL-1-40-0
100
AcDbLine
 10
1251.579708
 20
524.932524
 30
0.0
 11
1255.579708
 21
524.932524
 31
0.0
  0
LINE
  5
1B7
100
AcDbEntity
  8
MSL-1-40-7
100
AcDbLine
 10
1245.285399
 20
522.532524
 30
0.0
 11
1265.69093
 21
522.532524
 31
0.0
  0
LINE
  5
1B8
100
AcDbEntity
  8
MSL-1-40-0
100
AcDbLine
 10
1255.579708
 20
520.132524
 30
0.0
 11
1251.579708
 21
520.132524
 31
0.0
  0
LINE
  5
1B9
100
AcDbEntity
  8
MSL-1-40-0
100
AcDbLine
 10
1241.579708
 20
528.532524
 30
0.0
 11
1251.579708
 21
528.532524
 31
0.0
  0
LINE
  5
1BA
100
AcDbEntity
  8
MSL-1-40-0
100
AcDbLine
 10
1251.579708
 20
520.132524
 30
0.0
 11
1251.579708
 21
524.932524
 31
0.0
  0
LINE
  5
1BB
100
AcDbEntity
  8
MSL-1-40-0
100
AcDbLine
 10
1262.379708
 20
527.440002
 30
0.0
 11
1259.779708
 21
527.440002
 31
0.0
  0
LINE
  5
1BC
100
AcDbEntity
  8
MSL-1-40-0
100
AcDbLine
 10
1262.379708
 20
517.625047
 30
0.0
 11
1259.779708
 21
517.625047
 31
0.0
  0
ARC
  5
1BD
100
AcDbEntity
  8
MSL-1-40-0
100
AcDbCircle
 10
1252.944986
 20
522.532524
 30
0.0
 40
10.634722
100
AcDbArc
 50
332.518773
 51
27.481227
  0
ARC
  5
1BE
100
AcDbEntity
  8
MSL-1-40-0
100
AcDbCircle
 10
1269.214431
 20
522.532524
 30
0.0
 40
10.634722
100
AcDbArc
 50
152.518771
 51
207.481229
  0
LINE
  5
1BF
100
AcDbEntity
  8
MSL-1-40-0
100
AcDbLine
 10
1255.579708
 20
528.532524
 30
0.0
 11
1255.579708
 21
516.532524
 31
0.0
  0
LINE
  5
1C0
100
AcDbEntity
  8
MSL-1-40-7
100
AcDbLine
 10
1330.579708
 20
430.038306
 30
0.0
 11
1323.263257
 21
430.038306
 31
0.0
  0
LINE
  5
1C1
100
AcDbEntity
  8
MSL-1-40-7
100
AcDbLine
 10
1330.579708
 20
430.038306
 30
0.0
 11
1330.579708
 21
437.354757
 31
0.0
  0
LINE
  5
1C2
100
AcDbEntity
  8
MSL-1-40-7
100
AcDbLine
 10
1330.579708
 20
430.038306
 30
0.0
 11
1337.89616
 21
430.038306
 31
0.0
  0
LINE
  5
1C3
100
AcDbEntity
  8
MSL-1-40-7
100
AcDbLine
 10
1357.078073
 20
429.038306
 30
0.0
 11
1366.717124
 21
429.038306
 31
0.0
  0
LINE
  5
1C4
100
AcDbEntity
  8
MSL-1-40-0
100
AcDbLine
 10
1361.379708
 20
438.853261
 30
0.0
 11
1359.579708
 21
438.853261
 31
0.0
  0
LINE
  5
1C5
100
AcDbEntity
  8
MSL-1-40-0
100
AcDbLine
 10
1361.379708
 20
433.945783
 30
0.0
 11
1359.579708
 21
433.945783
 31
0.0
  0
ARC
  5
1C6
100
AcDbEntity
  8
MSL-1-40-0
100
AcDbCircle
 10
1359.471028
 20
436.399522
 30
0.0
 40
3.108681
100
AcDbArc
 50
307.878144
 51
52.121856
  0
LINE
  5
1C7
100
AcDbEntity
  8
MSL-1-40-7
100
AcDbLine
 10
1318.579708
 20
509.532524
 30
0.0
 11
1324.579708
 21
509.532524
 31
0.0
  0
LINE
  5
1C8
100
AcDbEntity
  8
MSL-1-40-7
100
AcDbLine
 10
1318.579708
 20
489.532524
 30
0.0
 11
1324.579708
 21
489.532524
 31
0.0
  0
LINE
  5
1C9
100
AcDbEntity
  8
MSL-1-40-7
100
AcDbLine
 10
1311.579708
 20
506.409796
 30
0.0
 11
1311.579708
 21
492.655252
 31
0.0
  0
LINE
  5
1CA
100
AcDbEntity
  8
MSL-1-40-7
100
AcDbLine
 10
1311.579708
 20
489.532524
 30
0.0
 11
1311.579708
 21
492.655252
 31
0.0
  0
CIRCLE
  5
1CB
100
AcDbEntity
  8
MSL-1-40-0
100
AcDbCircle
 10
1311.579708
 20
489.532524
 30
0.0
 40
2.0
  0
ARC
  5
1CC
100
AcDbEntity
  8
MSL-1-40-4
100
AcDbCircle
 10
1321.579708
 20
489.532524
 30
0.0
 40
2.0
100
AcDbArc
 50
172.405357
 51
104.931417
  0
CIRCLE
  5
1CD
100
AcDbEntity
  8
MSL-1-40-0
100
AcDbCircle
 10
1321.579708
 20
489.532524
 30
0.0
 40
1.621
  0
LINE
  5
1CE
100
AcDbEntity
  8
MSL-1-40-7
100
AcDbLine
 10
1321.579708
 20
486.532524
 30
0.0
 11
1321.579708
 21
492.532524
 31
0.0
  0
ARC
  5
1CF
100
AcDbEntity
  8
MSL-1-40-4
100
AcDbCircle
 10
1301.579708
 20
489.532524
 30
0.0
 40
2.0
100
AcDbArc
 50
172.405357
 51
104.931417
  0
CIRCLE
  5
1D0
100
AcDbEntity
  8
MSL-1-40-0
100
AcDbCircle
 10
1301.579708
 20
489.532524
 30
0.0
 40
1.621
  0
LINE
  5
1D1
100
AcDbEntity
  8
MSL-1-40-7
100
AcDbLine
 10
1301.579708
 20
486.532524
 30
0.0
 11
1301.579708
 21
492.532524
 31
0.0
  0
LINE
  5
1D2
100
AcDbEntity
  8
MSL-1-40-7
100
AcDbLine
 10
1311.579708
 20
489.532524
 30
0.0
 11
1308.45698
 21
489.532524
 31
0.0
  0
LINE
  5
1D3
100
AcDbEntity
  8
MSL-1-40-7
100
AcDbLine
 10
1298.579708
 20
489.532524
 30
0.0
 11
1304.579708
 21
489.532524
 31
0.0
  0
LINE
  5
1D4
100
AcDbEntity
  8
MSL-1-40-7
100
AcDbLine
 10
1311.579708
 20
489.532524
 30
0.0
 11
1314.702436
 21
489.532524
 31
0.0
  0
LINE
  5
1D5
100
AcDbEntity
  8
MSL-1-40-7
100
AcDbLine
 10
1311.579708
 20
489.532524
 30
0.0
 11
1311.579708
 21
486.409796
 31
0.0
  0
LINE
  5
1D6
100
AcDbEntity
  8
MSL-1-40-7
100
AcDbLine
 10
1299.579708
 20
520.532524
 30
0.0
 11
1292.850962
 21
520.532524
 31
0.0
  0
CIRCLE
  5
1D7
100
AcDbEntity
  8
MSL-1-40-0
100
AcDbCircle
 10
1299.579708
 20
520.532524
 30
0.0
 40
5.5
  0
LINE
  5
1D8
100
AcDbEntity
  8
MSL-1-40-7
100
AcDbLine
 10
1289.079708
 20
527.032524
 30
0.0
 11
1282.629808
 21
527.032524
 31
0.0
  0
LINE
  5
1D9
100
AcDbEntity
  8
MSL-1-40-7
100
AcDbLine
 10
1289.079708
 20
527.032524
 30
0.0
 11
1289.079708
 21
520.582623
 31
0.0
  0
LINE
  5
1DA
100
AcDbEntity
  8
MSL-1-40-7
100
AcDbLine
 10
1289.079708
 20
527.032524
 30
0.0
 11
1295.529609
 21
527.032524
 31
0.0
  0
LINE
  5
1DB
100
AcDbEntity
  8
MSL-1-40-7
100
AcDbLine
 10
1299.579708
 20
520.532524
 30
0.0
 11
1299.579708
 21
513.803778
 31
0.0
  0
CIRCLE
  5
1DC
100
AcDbEntity
  8
MSL-1-40-0
100
AcDbCircle
 10
1311.579708
 20
509.532524
 30
0.0
 40
2.0
  0
LINE
  5
1DD
100
AcDbEntity
  8
MSL-1-40-7
100
AcDbLine
 10
1311.579708
 20
509.532524
 30
0.0
 11
1308.45698
 21
509.532524
 31
0.0
  0
LINE
  5
1DE
100
AcDbEntity
  8
MSL-1-40-7
100
AcDbLine
 10
1298.579708
 20
509.532524
 30
0.0
 11
1304.579708
 21
509.532524
 31
0.0
  0
ARC
  5
1DF
100
AcDbEntity
  8
MSL-1-40-4
100
AcDbCircle
 10
1301.579708
 20
509.532524
 30
0.0
 40
2.0
100
AcDbArc
 50
172.405357
 51
104.931417
  0
CIRCLE
  5
1E0
100
AcDbEntity
  8
MSL-1-40-0
100
AcDbCircle
 10
1301.579708
 20
509.532524
 30
0.0
 40
1.621
  0
LINE
  5
1E1
100
AcDbEntity
  8
MSL-1-40-7
100
AcDbLine
 10
1301.579708
 20
506.532524
 30
0.0
 11
1301.579708
 21
512.532524
 31
0.0
  0
LINE
  5
1E2
100
AcDbEntity
  8
MSL-1-40-7
100
AcDbLine
 10
1321.579708
 20
506.532524
 30
0.0
 11
1321.579708
 21
512.532524
 31
0.0
  0
LINE
  5
1E3
100
AcDbEntity
  8
MSL-1-40-7
100
AcDbLine
 10
1311.579708
 20
509.532524
 30
0.0
 11
1311.579708
 21
506.409796
 31
0.0
  0
LINE
  5
1E4
100
AcDbEntity
  8
MSL-1-40-7
100
AcDbLine
 10
1311.579708
 20
509.532524
 30
0.0
 11
1314.702436
 21
509.532524
 31
0.0
  0
LINE
  5
1E5
100
AcDbEntity
  8
MSL-1-40-7
100
AcDbLine
 10
1311.579708
 20
509.532524
 30
0.0
 11
1311.579708
 21
512.655252
 31
0.0
  0
ARC
  5
1E6
100
AcDbEntity
  8
MSL-1-40-4
100
AcDbCircle
 10
1321.579708
 20
509.532524
 30
0.0
 40
2.0
100
AcDbArc
 50
172.405357
 51
104.931417
  0
CIRCLE
  5
1E7
100
AcDbEntity
  8
MSL-1-40-0
100
AcDbCircle
 10
1321.579708
 20
509.532524
 30
0.0
 40
1.621
  0
LINE
  5
1E8
100
AcDbEntity
  8
MSL-1-40-7
100
AcDbLine
 10
1299.579708
 20
520.532524
 30
0.0
 11
1306.308455
 21
520.532524
 31
0.0
  0
LINE
  5
1E9
100
AcDbEntity
  8
MSL-1-40-7
100
AcDbLine
 10
1299.579708
 20
520.532524
 30
0.0
 11
1299.579708
 21
527.26127
 31
0.0
  0
LINE
  5
1EA
100
AcDbEntity
  8
MSL-1-40-0
100
AcDbLine
 10
1359.579708
 20
492.532524
 30
0.0
 11
1367.579708
 21
492.532524
 31
0.0
  0
LINE
  5
1EB
100
AcDbEntity
  8
MSL-1-40-0
100
AcDbLine
 10
1367.579708
 20
492.532524
 30
0.0
 11
1368.579708
 21
493.532524
 31
0.0
  0
LINE
  5
1EC
100
AcDbEntity
  8
MSL-1-40-0
100
AcDbLine
 10
1368.579708
 20
493.532524
 30
0.0
 11
1368.579708
 21
495.532524
 31
0.0
  0
LINE
  5
1ED
100
AcDbEntity
  8
MSL-1-40-0
100
AcDbLine
 10
1367.579708
 20
495.532524
 30
0.0
 11
1367.579708
 21
492.532524
 31
0.0
  0
ARC
  5
1EE
100
AcDbEntity
  8
MSL-1-40-0
100
AcDbCircle
 10
1359.471028
 20
515.171308
 30
0.0
 40
3.108681
100
AcDbArc
 50
307.878144
 51
52.121856
  0
LINE
  5
1EF
100
AcDbEntity
  8
MSL-1-40-0
100
AcDbLine
 10
1367.579708
 20
506.532524
 30
0.0
 11
1359.579708
 21
506.532524
 31
0.0
  0
LINE
  5
1F0
100
AcDbEntity
  8
MSL-1-40-0
100
AcDbLine
 10
1361.379708
 20
512.717569
 30
0.0
 11
1359.579708
 21
512.717569
 31
0.0
  0
LINE
  5
1F1
100
AcDbEntity
  8
MSL-1-40-0
100
AcDbLine
 10
1367.579708
 20
506.532524
 30
0.0
 11
1367.579708
 21
503.532524
 31
0.0
  0
LINE
  5
1F2
100
AcDbEntity
  8
MSL-1-40-0
100
AcDbLine
 10
1368.579708
 20
505.532524
 30
0.0
 11
1367.579708
 21
506.532524
 31
0.0
  0
LINE
  5
1F3
100
AcDbEntity
  8
MSL-1-40-0
100
AcDbLine
 10
1368.579708
 20
503.532524
 30
0.0
 11
1368.579708
 21
505.532524
 31
0.0
  0
LINE
  5
1F4
100
AcDbEntity
  8
MSL-1-40-0
100
AcDbLine
 10
1361.379708
 20
527.440001
 30
0.0
 11
1359.579708
 21
527.440001
 31
0.0
  0
LINE
  5
1F5
100
AcDbEntity
  8
MSL-1-40-0
100
AcDbLine
 10
1361.379708
 20
517.625047
 30
0.0
 11
1359.579708
 21
517.625047
 31
0.0
  0
ARC
  5
1F6
100
AcDbEntity
  8
MSL-1-40-0
100
AcDbCircle
 10
1351.944986
 20
522.532524
 30
0.0
 40
10.634722
100
AcDbArc
 50
332.518773
 51
27.481227
  0
LINE
  5
1F7
100
AcDbEntity
  8
MSL-1-40-7
100
AcDbLine
 10
1356.873998
 20
522.532524
 30
0.0
 11
1364.752109
 21
522.532524
 31
0.0
  0
LINE
  5
1F8
100
AcDbEntity
  8
MSL-1-40-7
100
AcDbLine
 10
1412.579708
 20
426.038306
 30
0.0
 11
1412.579708
 21
432.038306
 31
0.0
  0
ARC
  5
1F9
100
AcDbEntity
  8
MSL-1-40-0
100
AcDbCircle
 10
1403.869986
 20
429.038306
 30
0.0
 40
7.709722
100
AcDbArc
 50
330.872218
 51
29.127782
  0
ARC
  5
1FA
100
AcDbEntity
  8
MSL-1-40-0
100
AcDbCircle
 10
1411.602118
 20
429.038306
 30
0.0
 40
9.02241
100
AcDbArc
 50
155.421502
 51
204.578498
  0
ARC
  5
1FB
100
AcDbEntity
  8
MSL-1-40-0
100
AcDbCircle
 10
1415.289431
 20
429.038306
 30
0.0
 40
7.709722
100
AcDbArc
 50
150.872216
 51
209.127784
  0
LINE
  5
1FC
100
AcDbEntity
  8
MSL-1-40-0
100
AcDbLine
 10
1411.579708
 20
441.038306
 30
0.0
 11
1411.579708
 21
381.038306
 31
0.0
  0
LINE
  5
1FD
100
AcDbEntity
  8
MSL-1-40-0
100
AcDbLine
 10
1421.579708
 20
381.038306
 30
0.0
 11
1421.579708
 21
441.038306
 31
0.0
  0
LINE
  5
1FE
100
AcDbEntity
  8
MSL-1-40-0
100
AcDbLine
 10
1406.579708
 20
436.54386
 30
0.0
 11
1406.579708
 21
421.532753
 31
0.0
  0
LINE
  5
1FF
100
AcDbEntity
  8
MSL-1-40-0
100
AcDbLine
 10
1402.579708
 20
434.667471
 30
0.0
 11
1402.579708
 21
423.409141
 31
0.0
  0
LINE
  5
200
100
AcDbEntity
  8
MSL-1-40-0
100
AcDbLine
 10
1411.579708
 20
434.667471
 30
0.0
 11
1411.579708
 21
423.409141
 31
0.0
  0
LINE
  5
201
100
AcDbEntity
  8
MSL-1-40-0
100
AcDbLine
 10
1407.579708
 20
434.667471
 30
0.0
 11
1407.579708
 21
423.409141
 31
0.0
  0
LINE
  5
202
100
AcDbEntity
  8
MSL-1-40-0
100
AcDbLine
 10
1409.579708
 20
421.532753
 30
0.0
 11
1409.579708
 21
381.038306
 31
0.0
  0
LINE
  5
203
100
AcDbEntity
  8
MSL-1-40-0
100
AcDbLine
 10
1385.079708
 20
395.038306
 30
0.0
 11
1409.579708
 21
395.038306
 31
0.0
  0
LINE
  5
204
100
AcDbEntity
  8
MSL-1-40-0
100
AcDbLine
 10
1385.079708
 20
396.088306
 30
0.0
 11
1385.079708
 21
391.988306
 31
0.0
  0
LINE
  5
205
100
AcDbEntity
  8
MSL-1-40-7
100
AcDbLine
 10
1417.579708
 20
380.038306
 30
0.0
 11
1417.579708
 21
393.838306
 31
0.0
  0
LINE
  5
206
100
AcDbEntity
  8
MSL-1-40-3
100
AcDbLine
 10
1415.958708
 20
381.038306
 30
0.0
 11
1415.958708
 21
391.838306
 31
0.0
  0
LINE
  5
207
100
AcDbEntity
  8
MSL-1-40-3
100
AcDbLine
 10
1419.200708
 20
381.038306
 30
0.0
 11
1419.200708
 21
391.838306
 31
0.0
  0
LINE
  5
208
100
AcDbEntity
  8
MSL-1-40-3
100
AcDbLine
 10
1419.579708
 20
388.038306
 30
0.0
 11
1415.579708
 21
388.038306
 31
0.0
  0
LINE
  5
209
100
AcDbEntity
  8
MSL-1-40-0
100
AcDbLine
 10
1409.579708
 20
381.038306
 30
0.0
 11
1421.579708
 21
381.038306
 31
0.0
  0
LINE
  5
20A
100
AcDbEntity
  8
MSL-1-40-3
100
AcDbLine
 10
1419.579708
 20
381.038306
 30
0.0
 11
1419.579708
 21
388.038306
 31
0.0
  0
LINE
  5
20B
100
AcDbEntity
  8
MSL-1-40-3
100
AcDbLine
 10
1415.579708
 20
381.038306
 30
0.0
 11
1415.579708
 21
388.038306
 31
0.0
  0
LINE
  5
20C
100
AcDbEntity
  8
MSL-1-40-7
100
AcDbLine
 10
1408.752529
 20
401.038306
 30
0.0
 11
1422.679234
 21
401.038306
 31
0.0
  0
LINE
  5
20D
100
AcDbEntity
  8
MSL-1-40-3
100
AcDbLine
 10
1415.958708
 20
391.838306
 30
0.0
 11
1419.200708
 21
391.838306
 31
0.0
  0
LINE
  5
20E
100
AcDbEntity
  8
MSL-1-40-3
100
AcDbLine
 10
1419.200708
 20
391.838306
 30
0.0
 11
1417.579708
 21
392.774191
 31
0.0
  0
LINE
  5
20F
100
AcDbEntity
  8
MSL-1-40-7
100
AcDbLine
 10
1409.579708
 20
393.038306
 30
0.0
 11
1415.579708
 21
393.038306
 31
0.0
  0
LINE
  5
210
100
AcDbEntity
  8
MSL-1-40-3
100
AcDbLine
 10
1415.958708
 20
391.838306
 30
0.0
 11
1417.579708
 21
392.774191
 31
0.0
  0
LINE
  5
211
100
AcDbEntity
  8
MSL-1-40-7
100
AcDbLine
 10
1412.579708
 20
390.038306
 30
0.0
 11
1412.579708
 21
396.038306
 31
0.0
  0
ARC
  5
212
100
AcDbEntity
  8
MSL-1-40-3
100
AcDbCircle
 10
1412.579708
 20
393.038306
 30
0.0
 40
2.0
100
AcDbArc
 50
172.405357
 51
104.931417
  0
CIRCLE
  5
213
100
AcDbEntity
  8
MSL-1-40-3
100
AcDbCircle
 10
1412.579708
 20
393.038306
 30
0.0
 40
1.621
  0
ARC
  5
214
100
AcDbEntity
  8
MSL-1-40-0
100
AcDbCircle
 10
1409.872764
 20
423.409141
 30
0.0
 40
2.293056
100
AcDbArc
 50
125.085847
 51
234.914153
  0
LINE
  5
215
100
AcDbEntity
  8
MSL-1-40-7
100
AcDbLine
 10
1407.579708
 20
421.038306
 30
0.0
 11
1423.579708
 21
421.038306
 31
0.0
  0
LINE
  5
216
100
AcDbEntity
  8
MSL-1-40-0
100
AcDbLine
 10
1403.397208
 20
425.285529
 30
0.0
 11
1406.579708
 21
425.285529
 31
0.0
  0
LINE
  5
217
100
AcDbEntity
  8
MSL-1-40-0
100
AcDbLine
 10
1406.579708
 20
425.038306
 30
0.0
 11
1407.579708
 21
425.038306
 31
0.0
  0
LINE
  5
218
100
AcDbEntity
  8
MSL-1-40-0
100
AcDbLine
 10
1406.579658
 20
425.038306
 30
0.0
 11
1406.593408
 21
425.038306
 31
0.0
  0
LINE
  5
219
100
AcDbEntity
  8
MSL-1-40-0
100
AcDbLine
 10
1406.579708
 20
421.532753
 30
0.0
 11
1403.397208
 21
421.532753
 31
0.0
  0
ARC
  5
21A
100
AcDbEntity
  8
MSL-1-40-0
100
AcDbCircle
 10
1405.141873
 20
423.409141
 30
0.0
 40
2.562165
100
AcDbArc
 50
132.916662
 51
227.083338
  0
ARC
  5
21B
100
AcDbEntity
  8
MSL-1-40-0
100
AcDbCircle
 10
1409.286653
 20
423.409141
 30
0.0
 40
2.293056
100
AcDbArc
 50
305.085848
 51
54.914152
  0
LINE
  5
21C
100
AcDbEntity
  8
MSL-1-40-0
100
AcDbLine
 10
1408.554708
 20
425.285529
 30
0.0
 11
1410.604708
 21
425.285529
 31
0.0
  0
LINE
  5
21D
100
AcDbEntity
  8
MSL-1-40-0
100
AcDbLine
 10
1408.554708
 20
421.532753
 30
0.0
 11
1410.604708
 21
421.532753
 31
0.0
  0
LINE
  5
21E
100
AcDbEntity
  8
MSL-1-40-7
100
AcDbLine
 10
1400.22205
 20
429.038306
 30
0.0
 11
1412.52596
 21
429.038306
 31
0.0
  0
ARC
  5
21F
100
AcDbEntity
  8
MSL-1-40-0
100
AcDbCircle
 10
1409.872764
 20
434.667471
 30
0.0
 40
2.293056
100
AcDbArc
 50
125.085847
 51
234.914153
  0
LINE
  5
220
100
AcDbEntity
  8
MSL-1-40-0
100
AcDbLine
 10
1403.397208
 20
436.54386
 30
0.0
 11
1406.579708
 21
436.54386
 31
0.0
  0
LINE
  5
221
100
AcDbEntity
  8
MSL-1-40-0
100
AcDbLine
 10
1403.397208
 20
432.791083
 30
0.0
 11
1406.579708
 21
432.791083
 31
0.0
  0
LINE
  5
222
100
AcDbEntity
  8
MSL-1-40-0
100
AcDbLine
 10
1406.579708
 20
433.038306
 30
0.0
 11
1407.579708
 21
433.038306
 31
0.0
  0
LINE
  5
223
100
AcDbEntity
  8
MSL-1-40-0
100
AcDbLine
 10
1406.593408
 20
433.038306
 30
0.0
 11
1406.579658
 21
433.038306
 31
0.0
  0
LINE
  5
224
100
AcDbEntity
  8
MSL-1-40-0
100
AcDbLine
 10
1406.593408
 20
433.038306
 30
0.0
 11
1406.593408
 21
433.038306
 31
0.0
  0
ARC
  5
225
100
AcDbEntity
  8
MSL-1-40-0
100
AcDbCircle
 10
1405.141873
 20
434.667471
 30
0.0
 40
2.562165
100
AcDbArc
 50
132.916662
 51
227.083338
  0
LINE
  5
226
100
AcDbEntity
  8
MSL-1-40-0
100
AcDbLine
 10
1409.579708
 20
441.038306
 30
0.0
 11
1409.579708
 21
436.54386
 31
0.0
  0
LINE
  5
227
100
AcDbEntity
  8
MSL-1-40-7
100
AcDbLine
 10
1417.579708
 20
442.038306
 30
0.0
 11
1417.579708
 21
428.238306
 31
0.0
  0
LINE
  5
228
100
AcDbEntity
  8
MSL-1-40-3
100
AcDbLine
 10
1419.200708
 20
441.038306
 30
0.0
 11
1419.200708
 21
430.238306
 31
0.0
  0
LINE
  5
229
100
AcDbEntity
  8
MSL-1-40-3
100
AcDbLine
 10
1419.579708
 20
441.038306
 30
0.0
 11
1419.579708
 21
434.038306
 31
0.0
  0
LINE
  5
22A
100
AcDbEntity
  8
MSL-1-40-3
100
AcDbLine
 10
1415.958708
 20
441.038306
 30
0.0
 11
1415.958708
 21
430.238306
 31
0.0
  0
LINE
  5
22B
100
AcDbEntity
  8
MSL-1-40-3
100
AcDbLine
 10
1415.579708
 20
441.038306
 30
0.0
 11
1415.579708
 21
434.038306
 31
0.0
  0
LINE
  5
22C
100
AcDbEntity
  8
MSL-1-40-3
100
AcDbLine
 10
1419.200708
 20
430.238306
 30
0.0
 11
1415.958708
 21
430.238306
 31
0.0
  0
LINE
  5
22D
100
AcDbEntity
  8
MSL-1-40-3
100
AcDbLine
 10
1419.200708
 20
430.238306
 30
0.0
 11
1417.579708
 21
429.302421
 31
0.0
  0
LINE
  5
22E
100
AcDbEntity
  8
MSL-1-40-3
100
AcDbLine
 10
1415.579708
 20
434.038306
 30
0.0
 11
1419.579708
 21
434.038306
 31
0.0
  0
LINE
  5
22F
100
AcDbEntity
  8
MSL-1-40-3
100
AcDbLine
 10
1415.958708
 20
430.238306
 30
0.0
 11
1417.579708
 21
429.302421
 31
0.0
  0
LINE
  5
230
100
AcDbEntity
  8
MSL-1-40-7
100
AcDbLine
 10
1409.579708
 20
429.038306
 30
0.0
 11
1415.579708
 21
429.038306
 31
0.0
  0
ARC
  5
231
100
AcDbEntity
  8
MSL-1-40-3
100
AcDbCircle
 10
1412.579708
 20
429.038306
 30
0.0
 40
2.0
100
AcDbArc
 50
172.405357
 51
104.931417
  0
CIRCLE
  5
232
100
AcDbEntity
  8
MSL-1-40-3
100
AcDbCircle
 10
1412.579708
 20
429.038306
 30
0.0
 40
1.621
  0
ARC
  5
233
100
AcDbEntity
  8
MSL-1-40-0
100
AcDbCircle
 10
1409.286653
 20
434.667471
 30
0.0
 40
2.293056
100
AcDbArc
 50
305.085848
 51
54.914152
  0
LINE
  5
234
100
AcDbEntity
  8
MSL-1-40-0
100
AcDbLine
 10
1408.554708
 20
432.791083
 30
0.0
 11
1410.604708
 21
432.791083
 31
0.0
  0
LINE
  5
235
100
AcDbEntity
  8
MSL-1-40-0
100
AcDbLine
 10
1408.554708
 20
436.54386
 30
0.0
 11
1410.604708
 21
436.54386
 31
0.0
  0
LINE
  5
236
100
AcDbEntity
  8
MSL-1-40-0
100
AcDbLine
 10
1421.579708
 20
441.038306
 30
0.0
 11
1409.579708
 21
441.038306
 31
0.0
  0
LINE
  5
237
100
AcDbEntity
  8
MSL-1-40-0
100
AcDbLine
 10
1409.579708
 20
483.532524
 30
0.0
 11
1409.579708
 21
513.532524
 31
0.0
  0
LINE
  5
238
100
AcDbEntity
  8
MSL-1-40-0
100
AcDbLine
 10
1421.579708
 20
528.532524
 30
0.0
 11
1421.579708
 21
483.532524
 31
0.0
  0
LINE
  5
239
100
AcDbEntity
  8
MSL-1-40-7
100
AcDbLine
 10
1407.066042
 20
489.532524
 30
0.0
 11
1423.999375
 21
489.532524
 31
0.0
  0
ARC
  5
23A
100
AcDbEntity
  8
MSL-1-40-4
100
AcDbCircle
 10
1417.579708
 20
489.532524
 30
0.0
 40
2.0
100
AcDbArc
 50
172.405357
 51
104.931417
  0
CIRCLE
  5
23B
100
AcDbEntity
  8
MSL-1-40-0
100
AcDbCircle
 10
1417.579708
 20
489.532524
 30
0.0
 40
1.621
  0
LINE
  5
23C
100
AcDbEntity
  8
MSL-1-40-3
100
AcDbLine
 10
1410.958708
 20
483.532524
 30
0.0
 11
1410.958708
 21
494.332524
 31
0.0
  0
LINE
  5
23D
100
AcDbEntity
  8
MSL-1-40-3
100
AcDbLine
 10
1410.579708
 20
483.532524
 30
0.0
 11
1410.579708
 21
490.532524
 31
0.0
  0
LINE
  5
23E
100
AcDbEntity
  8
MSL-1-40-3
100
AcDbLine
 10
1414.200708
 20
483.532524
 30
0.0
 11
1414.200708
 21
494.332524
 31
0.0
  0
LINE
  5
23F
100
AcDbEntity
  8
MSL-1-40-3
100
AcDbLine
 10
1414.579708
 20
483.532524
 30
0.0
 11
1414.579708
 21
490.532524
 31
0.0
  0
LINE
  5
240
100
AcDbEntity
  8
MSL-1-40-7
100
AcDbLine
 10
1412.579708
 20
482.532524
 30
0.0
 11
1412.579708
 21
496.332524
 31
0.0
  0
LINE
  5
241
100
AcDbEntity
  8
MSL-1-40-7
100
AcDbLine
 10
1417.579708
 20
486.532524
 30
0.0
 11
1417.579708
 21
492.532524
 31
0.0
  0
LINE
  5
242
100
AcDbEntity
  8
MSL-1-40-7
100
AcDbLine
 10
1414.579708
 20
489.532524
 30
0.0
 11
1420.579708
 21
489.532524
 31
0.0
  0
LINE
  5
243
100
AcDbEntity
  8
MSL-1-40-0
100
AcDbLine
 10
1421.579708
 20
483.532524
 30
0.0
 11
1409.579708
 21
483.532524
 31
0.0
  0
LINE
  5
244
100
AcDbEntity
  8
MSL-1-40-3
100
AcDbLine
 10
1414.579708
 20
490.532524
 30
0.0
 11
1410.579708
 21
490.532524
 31
0.0
  0
LINE
  5
245
100
AcDbEntity
  8
MSL-1-40-3
100
AcDbLine
 10
1410.958708
 20
494.332524
 30
0.0
 11
1414.200708
 21
494.332524
 31
0.0
  0
LINE
  5
246
100
AcDbEntity
  8
MSL-1-40-3
100
AcDbLine
 10
1410.958708
 20
494.332524
 30
0.0
 11
1412.579708
 21
495.268409
 31
0.0
  0
LINE
  5
247
100
AcDbEntity
  8
MSL-1-40-3
100
AcDbLine
 10
1414.200708
 20
494.332524
 30
0.0
 11
1412.579708
 21
495.268409
 31
0.0
  0
ARC
  5
248
100
AcDbEntity
  8
MSL-1-40-0
100
AcDbCircle
 10
1415.289431
 20
522.532524
 30
0.0
 40
7.709722
100
AcDbArc
 50
150.872216
 51
209.127784
  0
ARC
  5
249
100
AcDbEntity
  8
MSL-1-40-0
100
AcDbCircle
 10
1409.872764
 20
516.903359
 30
0.0
 40
2.293056
100
AcDbArc
 50
125.085847
 51
234.914153
  0
LINE
  5
24A
100
AcDbEntity
  8
MSL-1-40-7
100
AcDbLine
 10
1407.579708
 20
509.532524
 30
0.0
 11
1423.579708
 21
509.532524
 31
0.0
  0
LINE
  5
24B
100
AcDbEntity
  8
MSL-1-40-7
100
AcDbLine
 10
1400.751983
 20
522.532524
 30
0.0
 11
1422.961563
 21
522.532524
 31
0.0
  0
ARC
  5
24C
100
AcDbEntity
  8
MSL-1-40-0
100
AcDbCircle
 10
1405.141873
 20
516.903359
 30
0.0
 40
2.562165
100
AcDbArc
 50
132.916662
 51
227.083338
  0
LINE
  5
24D
100
AcDbEntity
  8
MSL-1-40-0
100
AcDbLine
 10
1406.579708
 20
515.026971
 30
0.0
 11
1403.397208
 21
515.026971
 31
0.0
  0
LINE
  5
24E
100
AcDbEntity
  8
MSL-1-40-0
100
AcDbLine
 10
1403.397208
 20
526.285301
 30
0.0
 11
1406.579708
 21
526.285301
 31
0.0
  0
LINE
  5
24F
100
AcDbEntity
  8
MSL-1-40-0
100
AcDbLine
 10
1406.579708
 20
526.532524
 30
0.0
 11
1407.579708
 21
526.532524
 31
0.0
  0
LINE
  5
250
100
AcDbEntity
  8
MSL-1-40-0
100
AcDbLine
 10
1403.397208
 20
518.779748
 30
0.0
 11
1406.579708
 21
518.779748
 31
0.0
  0
LINE
  5
251
100
AcDbEntity
  8
MSL-1-40-0
100
AcDbLine
 10
1406.579708
 20
518.532524
 30
0.0
 11
1407.579708
 21
518.532524
 31
0.0
  0
LINE
  5
252
100
AcDbEntity
  8
MSL-1-40-0
100
AcDbLine
 10
1407.579708
 20
528.161689
 30
0.0
 11
1407.579708
 21
516.903359
 31
0.0
  0
ARC
  5
253
100
AcDbEntity
  8
MSL-1-40-0
100
AcDbCircle
 10
1411.602118
 20
522.532524
 30
0.0
 40
9.02241
100
AcDbArc
 50
155.421502
 51
204.578498
  0
LINE
  5
254
100
AcDbEntity
  8
MSL-1-40-0
100
AcDbLine
 10
1402.579708
 20
528.161689
 30
0.0
 11
1402.579708
 21
516.903359
 31
0.0
  0
ARC
  5
255
100
AcDbEntity
  8
MSL-1-40-0
100
AcDbCircle
 10
1409.286653
 20
516.903359
 30
0.0
 40
2.293056
100
AcDbArc
 50
305.085848
 51
54.914152
  0
LINE
  5
256
100
AcDbEntity
  8
MSL-1-40-0
100
AcDbLine
 10
1411.579708
 20
513.532524
 30
0.0
 11
1411.579708
 21
528.532524
 31
0.0
  0
LINE
  5
257
100
AcDbEntity
  8
MSL-1-40-0
100
AcDbLine
 10
1409.579708
 20
513.532524
 30
0.0
 11
1411.579708
 21
513.532524
 31
0.0
  0
ARC
  5
258
100
AcDbEntity
  8
MSL-1-40-4
100
AcDbCircle
 10
1417.579708
 20
509.532524
 30
0.0
 40
2.0
100
AcDbArc
 50
172.405357
 51
104.931417
  0
CIRCLE
  5
259
100
AcDbEntity
  8
MSL-1-40-0
100
AcDbCircle
 10
1417.579708
 20
509.532524
 30
0.0
 40
1.621
  0
LINE
  5
25A
100
AcDbEntity
  8
MSL-1-40-7
100
AcDbLine
 10
1414.579708
 20
509.532524
 30
0.0
 11
1420.579708
 21
509.532524
 31
0.0
  0
LINE
  5
25B
100
AcDbEntity
  8
MSL-1-40-7
100
AcDbLine
 10
1417.579708
 20
506.532524
 30
0.0
 11
1417.579708
 21
512.532524
 31
0.0
  0
LINE
  5
25C
100
AcDbEntity
  8
MSL-1-40-0
100
AcDbLine
 10
1408.554708
 20
515.026971
 30
0.0
 11
1410.604708
 21
515.026971
 31
0.0
  0
LINE
  5
25D
100
AcDbEntity
  8
MSL-1-40-0
100
AcDbLine
 10
1411.579708
 20
528.532524
 30
0.0
 11
1421.579708
 21
528.532524
 31
0.0
  0
ARC
  5
25E
100
AcDbEntity
  8
MSL-1-40-0
100
AcDbCircle
 10
1403.869986
 20
522.532524
 30
0.0
 40
7.709722
100
AcDbArc
 50
330.872218
 51
29.127782
  0
LINE
  5
25F
100
AcDbEntity
  8
MSL-1-40-0
100
AcDbLine
 10
1411.579708
 20
528.161689
 30
0.0
 11
1411.579708
 21
516.903359
 31
0.0
  0
LINE
  5
260
100
AcDbEntity
  8
MSL-1-40-0
100
AcDbLine
 10
1408.554708
 20
526.285301
 30
0.0
 11
1410.604708
 21
526.285301
 31
0.0
  0
LINE
  5
261
100
AcDbEntity
  8
MSL-1-40-0
100
AcDbLine
 10
1408.554708
 20
518.779748
 30
0.0
 11
1410.604708
 21
518.779748
 31
0.0
  0
LINE
  5
262
100
AcDbEntity
  8
MSL-1-40-0
100
AcDbLine
 10
1385.079708
 20
628.910968
 30
0.0
 11
1367.579708
 21
628.910968
 31
0.0
  0
LINE
  5
263
100
AcDbEntity
  8
MSL-1-40-0
100
AcDbLine
 10
1409.579708
 20
612.310968
 30
0.0
 11
1368.579708
 21
612.310968
 31
0.0
  0
LINE
  5
264
100
AcDbEntity
  8
MSL-1-40-0
100
AcDbLine
 10
1368.579708
 20
616.310968
 30
0.0
 11
1409.579708
 21
616.310968
 31
0.0
  0
LINE
  5
265
100
AcDbEntity
  8
MSL-1-40-7
100
AcDbLine
 10
1386.954849
 20
631.310968
 30
0.0
 11
1357.69044
 21
631.310968
 31
0.0
  0
LINE
  5
266
100
AcDbEntity
  8
MSL-1-40-7
100
AcDbLine
 10
1239.579708
 20
614.310968
 30
0.0
 11
1424.602231
 21
614.310968
 31
0.0
  0
LINE
  5
267
100
AcDbEntity
  8
MSL-1-40-0
100
AcDbLine
 10
1409.579708
 20
590.310968
 30
0.0
 11
1359.579708
 21
590.310968
 31
0.0
  0
LINE
  5
268
100
AcDbEntity
  8
MSL-1-40-0
100
AcDbLine
 10
1359.579708
 20
598.310968
 30
0.0
 11
1409.579708
 21
598.310968
 31
0.0
  0
LINE
  5
269
100
AcDbEntity
  8
MSL-1-40-0
100
AcDbLine
 10
1359.579708
 20
638.310968
 30
0.0
 11
1409.579708
 21
638.310968
 31
0.0
  0
LINE
  5
26A
100
AcDbEntity
  8
MSL-1-40-0
100
AcDbLine
 10
1359.579708
 20
630.310968
 30
0.0
 11
1409.579708
 21
630.310968
 31
0.0
  0
LINE
  5
26B
100
AcDbEntity
  8
MSL-1-40-7
100
AcDbLine
 10
1412.52596
 20
634.310968
 30
0.0
 11
1354.377202
 21
634.310968
 31
0.0
  0
LINE
  5
26C
100
AcDbEntity
  8
MSL-1-40-7
100
AcDbLine
 10
1412.52596
 20
594.310968
 30
0.0
 11
1354.377202
 21
594.310968
 31
0.0
  0
ARC
  5
26D
100
AcDbEntity
  8
MSL-1-40-0
100
AcDbCircle
 10
1353.944986
 20
631.310968
 30
0.0
 40
10.634722
100
AcDbArc
 50
332.518773
 51
354.604415
  0
LINE
  5
26E
100
AcDbEntity
  8
MSL-1-40-0
100
AcDbLine
 10
1367.579708
 20
628.910968
 30
0.0
 11
1367.579708
 21
630.310968
 31
0.0
  0
LINE
  5
26F
100
AcDbEntity
  8
MSL-1-40-0
100
AcDbLine
 10
1366.579708
 20
630.310968
 30
0.0
 11
1366.579708
 21
624.310968
 31
0.0
  0
LINE
  5
270
100
AcDbEntity
  8
MSL-1-40-0
100
AcDbLine
 10
1364.579708
 20
630.310968
 30
0.0
 11
1364.579708
 21
624.259774
 31
0.0
  0
LINE
  5
271
100
AcDbEntity
  8
MSL-1-40-0
100
AcDbLine
 10
1367.579708
 20
630.310968
 30
0.0
 11
1367.579708
 21
625.310968
 31
0.0
  0
ARC
  5
272
100
AcDbEntity
  8
MSL-1-40-0
100
AcDbCircle
 10
1371.268056
 20
631.7625
 30
0.0
 40
11.778133
100
AcDbArc
 50
187.079105
 51
207.06471
  0
LINE
  5
273
100
AcDbEntity
  8
MSL-1-40-7
100
AcDbLine
 10
1321.579708
 20
629.937635
 30
0.0
 11
1321.579708
 21
645.617635
 31
0.0
  0
LINE
  5
274
100
AcDbEntity
  8
MSL-1-40-7
100
AcDbLine
 10
1301.579708
 20
629.937635
 30
0.0
 11
1301.579708
 21
645.617635
 31
0.0
  0
ARC
  5
275
100
AcDbEntity
  8
MSL-1-40-0
100
AcDbCircle
 10
1251.557299
 20
632.310968
 30
0.0
 40
9.02241
100
AcDbArc
 50
335.421503
 51
347.192845
  0
LINE
  5
276
100
AcDbEntity
  8
MSL-1-40-0
100
AcDbLine
 10
1260.579708
 20
630.310968
 30
0.0
 11
1260.579708
 21
626.681803
 31
0.0
  0
ARC
  5
277
100
AcDbEntity
  8
MSL-1-40-0
100
AcDbCircle
 10
1247.869986
 20
632.310968
 30
0.0
 40
7.709722
100
AcDbArc
 50
330.872218
 51
344.964782
  0
LINE
  5
278
100
AcDbEntity
  8
MSL-1-40-0
100
AcDbLine
 10
1255.579708
 20
626.681803
 30
0.0
 11
1255.579708
 21
630.310968
 31
0.0
  0
ARC
  5
279
100
AcDbEntity
  8
MSL-1-40-0
100
AcDbCircle
 10
1271.214431
 20
632.310968
 30
0.0
 40
10.634722
100
AcDbArc
 50
190.83978
 51
207.481229
  0
LINE
  5
27A
100
AcDbEntity
  8
MSL-1-40-7
100
AcDbLine
 10
1250.579708
 20
629.310968
 30
0.0
 11
1250.579708
 21
635.310968
 31
0.0
  0
LINE
  5
27B
100
AcDbEntity
  8
MSL-1-40-0
100
AcDbLine
 10
1263.579708
 20
644.310968
 30
0.0
 11
1263.579708
 21
584.310968
 31
0.0
  0
LINE
  5
27C
100
AcDbEntity
  8
MSL-1-40-0
100
AcDbLine
 10
1253.579708
 20
584.310968
 30
0.0
 11
1253.579708
 21
644.310968
 31
0.0
  0
LINE
  5
27D
100
AcDbEntity
  8
MSL-1-40-0
100
AcDbLine
 10
1241.579708
 20
644.310968
 30
0.0
 11
1241.579708
 21
584.310968
 31
0.0
  0
LINE
  5
27E
100
AcDbEntity
  8
MSL-1-40-0
100
AcDbLine
 10
1256.579708
 20
624.805415
 30
0.0
 11
1256.579708
 21
630.310968
 31
0.0
  0
LINE
  5
27F
100
AcDbEntity
  8
MSL-1-40-0
100
AcDbLine
 10
1260.579708
 20
624.949752
 30
0.0
 11
1260.579708
 21
630.310968
 31
0.0
  0
LINE
  5
280
100
AcDbEntity
  8
MSL-1-40-0
100
AcDbLine
 10
1359.579708
 20
584.310968
 30
0.0
 11
1359.579708
 21
644.310968
 31
0.0
  0
MTEXT
  5
281
100
AcDbEntity
  8
MSL-1-40-4
100
AcDbMText
 10
1264.400228
 20
588.830239
 30
0.0
 40
3.5
 41
23.418615
 71
     1
 72
     1
  1
{MSL-1-40}
  0
LINE
  5
282
100
AcDbEntity
  8
MSL-1-40-0
100
AcDbLine
 10
1263.579708
 20
584.310968
 30
0.0
 11
1359.579708
 21
584.310968
 31
0.0
  0
LINE
  5
283
100
AcDbEntity
  8
MSL-1-40-0
100
AcDbLine
 10
1263.579708
 20
533.532524
 30
0.0
 11
1359.579708
 21
533.532524
 31
0.0
  0
LINE
  5
284
100
AcDbEntity
  8
MSL-1-40-0
100
AcDbLine
 10
1164.532875
 20
535.532524
 30
0.0
 11
1164.532875
 21
533.532524
 31
0.0
  0
ARC
  5
285
100
AcDbEntity
  8
MSL-1-40-0
100
AcDbCircle
 10
1167.532875
 20
531.532524
 30
0.0
 40
1.0
100
AcDbArc
 50
0.0
 51
89.999999
  0
LINE
  5
286
100
AcDbEntity
  8
MSL-1-40-0
100
AcDbLine
 10
1168.532875
 20
531.532524
 30
0.0
 11
1168.532875
 21
531.532524
 31
0.0
  0
LINE
  5
287
100
AcDbEntity
  8
MSL-1-40-7
100
AcDbLine
 10
1159.032875
 20
539.907794
 30
0.0
 11
1159.032875
 21
531.13091
 31
0.0
  0
LINE
  5
288
100
AcDbEntity
  8
MSL-1-40-0
100
AcDbLine
 10
1161.032875
 20
535.532524
 30
0.0
 11
1159.032875
 21
538.232524
 31
0.0
  0
ARC
  5
289
100
AcDbEntity
  8
MSL-1-40-0
100
AcDbCircle
 10
1167.532875
 20
531.532524
 30
0.0
 40
2.0
100
AcDbArc
 50
0.0
 51
89.999999
  0
LINE
  5
28A
100
AcDbEntity
  8
MSL-1-40-0
100
AcDbLine
 10
1262.379708
 20
532.347479
 30
0.0
 11
1259.779708
 21
532.347479
 31
0.0
  0
LINE
  5
28B
100
AcDbEntity
  8
MSL-1-40-0
100
AcDbLine
 10
1258.579708
 20
529.532524
 30
0.0
 11
1256.579708
 21
529.532524
 31
0.0
  0
ARC
  5
28C
100
AcDbEntity
  8
MSL-1-40-0
100
AcDbCircle
 10
1261.688389
 20
604.672184
 30
0.0
 40
3.108681
100
AcDbArc
 50
127.878142
 51
232.121858
  0
ARC
  5
28D
100
AcDbEntity
  8
MSL-1-40-0
100
AcDbCircle
 10
1260.471028
 20
604.672184
 30
0.0
 40
3.108681
100
AcDbArc
 50
307.878144
 51
52.121856
  0
LINE
  5
28E
100
AcDbEntity
  8
MSL-1-40-7
100
AcDbLine
 10
1254.406888
 20
604.310968
 30
0.0
 11
1240.480183
 21
604.310968
 31
0.0
  0
LINE
  5
28F
100
AcDbEntity
  8
MSL-1-40-7
100
AcDbLine
 10
1268.216938
 20
594.310968
 30
0.0
 11
1239.579708
 21
594.310968
 31
0.0
  0
LINE
  5
290
100
AcDbEntity
  8
MSL-1-40-3
100
AcDbLine
 10
1243.958708
 20
584.310968
 30
0.0
 11
1243.958708
 21
595.110968
 31
0.0
  0
LINE
  5
291
100
AcDbEntity
  8
MSL-1-40-3
100
AcDbLine
 10
1247.200708
 20
584.310968
 30
0.0
 11
1247.200708
 21
595.110968
 31
0.0
  0
LINE
  5
292
100
AcDbEntity
  8
MSL-1-40-7
100
AcDbLine
 10
1245.579708
 20
583.310968
 30
0.0
 11
1245.579708
 21
597.110968
 31
0.0
  0
LINE
  5
293
100
AcDbEntity
  8
MSL-1-40-0
100
AcDbLine
 10
1263.579708
 20
590.310968
 30
0.0
 11
1253.579708
 21
590.310968
 31
0.0
  0
LINE
  5
294
100
AcDbEntity
  8
MSL-1-40-3
100
AcDbLine
 10
1247.579708
 20
591.310968
 30
0.0
 11
1243.579708
 21
591.310968
 31
0.0
  0
LINE
  5
295
100
AcDbEntity
  8
MSL-1-40-3
100
AcDbLine
 10
1243.579708
 20
584.310968
 30
0.0
 11
1243.579708
 21
591.310968
 31
0.0
  0
LINE
  5
296
100
AcDbEntity
  8
MSL-1-40-3
100
AcDbLine
 10
1247.579708
 20
584.310968
 30
0.0
 11
1247.579708
 21
591.310968
 31
0.0
  0
LINE
  5
297
100
AcDbEntity
  8
MSL-1-40-0
100
AcDbLine
 10
1241.579708
 20
584.310968
 30
0.0
 11
1253.579708
 21
584.310968
 31
0.0
  0
LINE
  5
298
100
AcDbEntity
  8
MSL-1-40-0
100
AcDbLine
 10
1259.779708
 20
587.496013
 30
0.0
 11
1262.379708
 21
587.496013
 31
0.0
  0
ARC
  5
299
100
AcDbEntity
  8
MSL-1-40-0
100
AcDbCircle
 10
1261.688389
 20
589.949752
 30
0.0
 40
3.108681
100
AcDbArc
 50
173.327391
 51
232.121858
  0
ARC
  5
29A
100
AcDbEntity
  8
MSL-1-40-0
100
AcDbCircle
 10
1260.418977
 20
589.995117
 30
0.0
 40
3.176474
100
AcDbArc
 50
308.116807
 51
5.706612
  0
LINE
  5
29B
100
AcDbEntity
  8
MSL-1-40-0
100
AcDbLine
 10
1253.579708
 20
598.310968
 30
0.0
 11
1263.579708
 21
598.310968
 31
0.0
  0
LINE
  5
29C
100
AcDbEntity
  8
MSL-1-40-0
100
AcDbLine
 10
1253.579708
 20
599.710968
 30
0.0
 11
1255.579708
 21
599.710968
 31
0.0
  0
LINE
  5
29D
100
AcDbEntity
  8
MSL-1-40-3
100
AcDbLine
 10
1241.579708
 20
602.060968
 30
0.0
 11
1241.579708
 21
602.060968
 31
0.0
  0
LINE
  5
29E
100
AcDbEntity
  8
MSL-1-40-3
100
AcDbLine
 10
1241.579708
 20
602.060968
 30
0.0
 11
1241.579708
 21
602.060968
 31
0.0
  0
LINE
  5
29F
100
AcDbEntity
  8
MSL-1-40-3
100
AcDbLine
 10
1241.579708
 20
602.060968
 30
0.0
 11
1241.579708
 21
602.060968
 31
0.0
  0
LINE
  5
2A0
100
AcDbEntity
  8
MSL-1-40-3
100
AcDbLine
 10
1243.958708
 20
595.110968
 30
0.0
 11
1247.200708
 21
595.110968
 31
0.0
  0
LINE
  5
2A1
100
AcDbEntity
  8
MSL-1-40-3
100
AcDbLine
 10
1243.958708
 20
595.110968
 30
0.0
 11
1245.579708
 21
596.046853
 31
0.0
  0
LINE
  5
2A2
100
AcDbEntity
  8
MSL-1-40-3
100
AcDbLine
 10
1247.200708
 20
595.110968
 30
0.0
 11
1245.579708
 21
596.046853
 31
0.0
  0
LINE
  5
2A3
100
AcDbEntity
  8
MSL-1-40-7
100
AcDbLine
 10
1250.579708
 20
593.310968
 30
0.0
 11
1250.579708
 21
599.310968
 31
0.0
  0
LINE
  5
2A4
100
AcDbEntity
  8
MSL-1-40-7
100
AcDbLine
 10
1247.579708
 20
596.310968
 30
0.0
 11
1253.579708
 21
596.310968
 31
0.0
  0
ARC
  5
2A5
100
AcDbEntity
  8
MSL-1-40-4
100
AcDbCircle
 10
1250.579708
 20
596.310968
 30
0.0
 40
2.0
100
AcDbArc
 50
172.405357
 51
104.931417
  0
CIRCLE
  5
2A6
100
AcDbEntity
  8
MSL-1-40-0
100
AcDbCircle
 10
1250.579708
 20
596.310968
 30
0.0
 40
1.621
  0
LINE
  5
2A7
100
AcDbEntity
  8
MSL-1-40-0
100
AcDbLine
 10
1262.379708
 20
602.218445
 30
0.0
 11
1259.779708
 21
602.218445
 31
0.0
  0
LINE
  5
2A8
100
AcDbEntity
  8
MSL-1-40-0
100
AcDbLine
 10
1255.579708
 20
603.310968
 30
0.0
 11
1256.579708
 21
604.310968
 31
0.0
  0
LINE
  5
2A9
100
AcDbEntity
  8
MSL-1-40-0
100
AcDbLine
 10
1256.579708
 20
604.310968
 30
0.0
 11
1258.579708
 21
604.310968
 31
0.0
  0
LINE
  5
2AA
100
AcDbEntity
  8
MSL-1-40-0
100
AcDbLine
 10
1255.579708
 20
599.710968
 30
0.0
 11
1255.579708
 21
598.310968
 31
0.0
  0
LINE
  5
2AB
100
AcDbEntity
  8
MSL-1-40-7
100
AcDbLine
 10
1257.318007
 20
597.310968
 30
0.0
 11
1265.387799
 21
597.310968
 31
0.0
  0
LINE
  5
2AC
100
AcDbEntity
  8
MSL-1-40-0
100
AcDbLine
 10
1256.579708
 20
598.310968
 30
0.0
 11
1256.579708
 21
604.310968
 31
0.0
  0
ARC
  5
2AD
100
AcDbEntity
  8
MSL-1-40-0
100
AcDbCircle
 10
1251.891361
 20
596.859436
 30
0.0
 40
11.778133
100
AcDbArc
 50
7.079103
 51
27.064708
  0
ARC
  5
2AE
100
AcDbEntity
  8
MSL-1-40-0
100
AcDbCircle
 10
1269.214431
 20
597.310968
 30
0.0
 40
10.634722
100
AcDbArc
 50
152.518771
 51
174.604413
  0
LINE
  5
2AF
100
AcDbEntity
  8
MSL-1-40-0
100
AcDbLine
 10
1258.579708
 20
598.310968
 30
0.0
 11
1258.579708
 21
604.362162
 31
0.0
  0
LINE
  5
2B0
100
AcDbEntity
  8
MSL-1-40-0
100
AcDbLine
 10
1255.579708
 20
598.310968
 30
0.0
 11
1255.579708
 21
603.310968
 31
0.0
  0
LINE
  5
2B1
100
AcDbEntity
  8
MSL-1-40-7
100
AcDbLine
 10
1255.579708
 20
624.310968
 30
0.0
 11
1239.579708
 21
624.310968
 31
0.0
  0
LINE
  5
2B2
100
AcDbEntity
  8
MSL-1-40-0
100
AcDbLine
 10
1255.579708
 20
621.310968
 30
0.0
 11
1255.579708
 21
607.310968
 31
0.0
  0
LINE
  5
2B3
100
AcDbEntity
  8
MSL-1-40-0
100
AcDbLine
 10
1254.579708
 20
608.310968
 30
0.0
 11
1254.579708
 21
620.310968
 31
0.0
  0
LINE
  5
2B4
100
AcDbEntity
  8
MSL-1-40-0
100
AcDbLine
 10
1255.579708
 20
607.310968
 30
0.0
 11
1254.579708
 21
608.310968
 31
0.0
  0
LINE
  5
2B5
100
AcDbEntity
  8
MSL-1-40-0
100
AcDbLine
 10
1253.579708
 20
616.310968
 30
0.0
 11
1254.579708
 21
616.310968
 31
0.0
  0
LINE
  5
2B6
100
AcDbEntity
  8
MSL-1-40-0
100
AcDbLine
 10
1254.579708
 20
612.310968
 30
0.0
 11
1253.579708
 21
612.310968
 31
0.0
  0
LINE
  5
2B7
100
AcDbEntity
  8
MSL-1-40-0
100
AcDbLine
 10
1262.379708
 20
607.125923
 30
0.0
 11
1259.779708
 21
607.125923
 31
0.0
  0
LINE
  5
2B8
100
AcDbEntity
  8
MSL-1-40-0
100
AcDbLine
 10
1263.579708
 20
607.310968
 30
0.0
 11
1255.579708
 21
607.310968
 31
0.0
  0
LINE
  5
2B9
100
AcDbEntity
  8
MSL-1-40-0
100
AcDbLine
 10
1254.579708
 20
620.310968
 30
0.0
 11
1255.579708
 21
621.310968
 31
0.0
  0
ARC
  5
2BA
100
AcDbEntity
  8
MSL-1-40-0
100
AcDbCircle
 10
1253.286653
 20
626.681803
 30
0.0
 40
2.293056
100
AcDbArc
 50
305.085848
 51
54.914152
  0
LINE
  5
2BB
100
AcDbEntity
  8
MSL-1-40-0
100
AcDbLine
 10
1253.579708
 20
628.558191
 30
0.0
 11
1254.604708
 21
628.558191
 31
0.0
  0
LINE
  5
2BC
100
AcDbEntity
  8
MSL-1-40-0
100
AcDbLine
 10
1254.604708
 20
624.805415
 30
0.0
 11
1253.579708
 21
624.805415
 31
0.0
  0
LINE
  5
2BD
100
AcDbEntity
  8
MSL-1-40-0
100
AcDbLine
 10
1261.779708
 20
627.403491
 30
0.0
 11
1263.579708
 21
627.403491
 31
0.0
  0
LINE
  5
2BE
100
AcDbEntity
  8
MSL-1-40-0
100
AcDbLine
 10
1259.762208
 20
628.558191
 30
0.0
 11
1256.579708
 21
628.558191
 31
0.0
  0
LINE
  5
2BF
100
AcDbEntity
  8
MSL-1-40-0
100
AcDbLine
 10
1256.579708
 20
628.310968
 30
0.0
 11
1255.579708
 21
628.310968
 31
0.0
  0
LINE
  5
2C0
100
AcDbEntity
  8
MSL-1-40-0
100
AcDbLine
 10
1263.579708
 20
622.496014
 30
0.0
 11
1261.779708
 21
622.496014
 31
0.0
  0
LINE
  5
2C1
100
AcDbEntity
  8
MSL-1-40-0
100
AcDbLine
 10
1255.579708
 20
621.310968
 30
0.0
 11
1263.579708
 21
621.310968
 31
0.0
  0
LINE
  5
2C2
100
AcDbEntity
  8
MSL-1-40-0
100
AcDbLine
 10
1259.762208
 20
624.805415
 30
0.0
 11
1256.579708
 21
624.805415
 31
0.0
  0
ARC
  5
2C3
100
AcDbEntity
  8
MSL-1-40-0
100
AcDbCircle
 10
1263.688389
 20
624.949752
 30
0.0
 40
3.108681
100
AcDbArc
 50
127.878142
 51
232.121858
  0
ARC
  5
2C4
100
AcDbEntity
  8
MSL-1-40-0
100
AcDbCircle
 10
1258.017543
 20
626.681803
 30
0.0
 40
2.562165
100
AcDbArc
 50
312.916664
 51
47.083336
  0
LINE
  5
2C5
100
AcDbEntity
  8
MSL-1-40-0
100
AcDbLine
 10
1287.079708
 20
535.532524
 30
0.0
 11
1298.079708
 21
535.532524
 31
0.0
  0
LINE
  5
2C6
100
AcDbEntity
  8
MSL-1-40-0
100
AcDbLine
 10
1287.079708
 20
533.532524
 30
0.0
 11
1287.079708
 21
535.532524
 31
0.0
  0
LINE
  5
2C7
100
AcDbEntity
  8
MSL-1-40-0
100
AcDbLine
 10
1292.579708
 20
538.232524
 30
0.0
 11
1290.579708
 21
535.532524
 31
0.0
  0
LINE
  5
2C8
100
AcDbEntity
  8
MSL-1-40-7
100
AcDbLine
 10
1292.579708
 20
539.907794
 30
0.0
 11
1292.579708
 21
531.13091
 31
0.0
  0
LINE
  5
2C9
100
AcDbEntity
  8
MSL-1-40-0
100
AcDbLine
 10
1294.579708
 20
535.532524
 30
0.0
 11
1292.579708
 21
538.232524
 31
0.0
  0
LINE
  5
2CA
100
AcDbEntity
  8
MSL-1-40-0
100
AcDbLine
 10
1298.079708
 20
535.532524
 30
0.0
 11
1298.079708
 21
533.532524
 31
0.0
  0
LINE
  5
2CB
100
AcDbEntity
  8
MSL-1-40-0
100
AcDbLine
 10
1336.079708
 20
535.532524
 30
0.0
 11
1336.079708
 21
533.532524
 31
0.0
  0
LINE
  5
2CC
100
AcDbEntity
  8
MSL-1-40-0
100
AcDbLine
 10
1325.079708
 20
533.532524
 30
0.0
 11
1325.079708
 21
535.532524
 31
0.0
  0
LINE
  5
2CD
100
AcDbEntity
  8
MSL-1-40-0
100
AcDbLine
 10
1330.579708
 20
538.232524
 30
0.0
 11
1328.579708
 21
535.532524
 31
0.0
  0
LINE
  5
2CE
100
AcDbEntity
  8
MSL-1-40-0
100
AcDbLine
 10
1332.579708
 20
535.532524
 30
0.0
 11
1330.579708
 21
538.232524
 31
0.0
  0
LINE
  5
2CF
100
AcDbEntity
  8
MSL-1-40-7
100
AcDbLine
 10
1330.579708
 20
539.907794
 30
0.0
 11
1330.579708
 21
531.13091
 31
0.0
  0
LINE
  5
2D0
100
AcDbEntity
  8
MSL-1-40-0
100
AcDbLine
 10
1325.079708
 20
535.532524
 30
0.0
 11
1336.079708
 21
535.532524
 31
0.0
  0
LINE
  5
2D1
100
AcDbEntity
  8
MSL-1-40-0
100
AcDbLine
 10
1361.379708
 20
532.347479
 30
0.0
 11
1359.579708
 21
532.347479
 31
0.0
  0
LINE
  5
2D2
100
AcDbEntity
  8
MSL-1-40-7
100
AcDbLine
 10
1318.579708
 20
624.310968
 30
0.0
 11
1324.579708
 21
624.310968
 31
0.0
  0
LINE
  5
2D3
100
AcDbEntity
  8
MSL-1-40-7
100
AcDbLine
 10
1318.579708
 20
604.310968
 30
0.0
 11
1324.579708
 21
604.310968
 31
0.0
  0
LINE
  5
2D4
100
AcDbEntity
  8
MSL-1-40-7
100
AcDbLine
 10
1321.579708
 20
601.310968
 30
0.0
 11
1321.579708
 21
607.310968
 31
0.0
  0
LINE
  5
2D5
100
AcDbEntity
  8
MSL-1-40-7
100
AcDbLine
 10
1311.579708
 20
604.310968
 30
0.0
 11
1311.579708
 21
607.433696
 31
0.0
  0
CIRCLE
  5
2D6
100
AcDbEntity
  8
MSL-1-40-0
100
AcDbCircle
 10
1311.579708
 20
604.310968
 30
0.0
 40
2.0
  0
ARC
  5
2D7
100
AcDbEntity
  8
MSL-1-40-4
100
AcDbCircle
 10
1321.579708
 20
604.310968
 30
0.0
 40
2.0
100
AcDbArc
 50
172.405357
 51
104.931417
  0
CIRCLE
  5
2D8
100
AcDbEntity
  8
MSL-1-40-0
100
AcDbCircle
 10
1321.579708
 20
604.310968
 30
0.0
 40
1.621
  0
ARC
  5
2D9
100
AcDbEntity
  8
MSL-1-40-4
100
AcDbCircle
 10
1301.579708
 20
604.310968
 30
0.0
 40
2.0
100
AcDbArc
 50
172.405357
 51
104.931417
  0
CIRCLE
  5
2DA
100
AcDbEntity
  8
MSL-1-40-0
100
AcDbCircle
 10
1301.579708
 20
604.310968
 30
0.0
 40
1.621
  0
LINE
  5
2DB
100
AcDbEntity
  8
MSL-1-40-7
100
AcDbLine
 10
1301.579708
 20
601.310968
 30
0.0
 11
1301.579708
 21
607.310968
 31
0.0
  0
LINE
  5
2DC
100
AcDbEntity
  8
MSL-1-40-7
100
AcDbLine
 10
1311.579708
 20
583.100311
 30
0.0
 11
1311.579708
 21
595.006561
 31
0.0
  0
LINE
  5
2DD
100
AcDbEntity
  8
MSL-1-40-7
100
AcDbLine
 10
1321.579708
 20
598.684301
 30
0.0
 11
1321.579708
 21
583.004301
 31
0.0
  0
LINE
  5
2DE
100
AcDbEntity
  8
MSL-1-40-7
100
AcDbLine
 10
1301.579708
 20
598.684301
 30
0.0
 11
1301.579708
 21
583.004301
 31
0.0
  0
LINE
  5
2DF
100
AcDbEntity
  8
MSL-1-40-7
100
AcDbLine
 10
1311.579708
 20
604.310968
 30
0.0
 11
1308.45698
 21
604.310968
 31
0.0
  0
LINE
  5
2E0
100
AcDbEntity
  8
MSL-1-40-7
100
AcDbLine
 10
1298.579708
 20
604.310968
 30
0.0
 11
1304.579708
 21
604.310968
 31
0.0
  0
LINE
  5
2E1
100
AcDbEntity
  8
MSL-1-40-7
100
AcDbLine
 10
1311.579708
 20
604.310968
 30
0.0
 11
1311.579708
 21
601.18824
 31
0.0
  0
LINE
  5
2E2
100
AcDbEntity
  8
MSL-1-40-7
100
AcDbLine
 10
1311.579708
 20
604.310968
 30
0.0
 11
1314.702436
 21
604.310968
 31
0.0
  0
LINE
  5
2E3
100
AcDbEntity
  8
MSL-1-40-7
100
AcDbLine
 10
1311.579708
 20
621.18824
 30
0.0
 11
1311.579708
 21
607.433696
 31
0.0
  0
LINE
  5
2E4
100
AcDbEntity
  8
MSL-1-40-7
100
AcDbLine
 10
1311.579708
 20
624.310968
 30
0.0
 11
1308.45698
 21
624.310968
 31
0.0
  0
CIRCLE
  5
2E5
100
AcDbEntity
  8
MSL-1-40-0
100
AcDbCircle
 10
1311.579708
 20
624.310968
 30
0.0
 40
2.0
  0
LINE
  5
2E6
100
AcDbEntity
  8
MSL-1-40-7
100
AcDbLine
 10
1298.579708
 20
624.310968
 30
0.0
 11
1304.579708
 21
624.310968
 31
0.0
  0
LINE
  5
2E7
100
AcDbEntity
  8
MSL-1-40-7
100
AcDbLine
 10
1301.579708
 20
621.310968
 30
0.0
 11
1301.579708
 21
627.310968
 31
0.0
  0
ARC
  5
2E8
100
AcDbEntity
  8
MSL-1-40-4
100
AcDbCircle
 10
1301.579708
 20
624.310968
 30
0.0
 40
2.0
100
AcDbArc
 50
172.405357
 51
104.931417
  0
CIRCLE
  5
2E9
100
AcDbEntity
  8
MSL-1-40-0
100
AcDbCircle
 10
1301.579708
 20
624.310968
 30
0.0
 40
1.621
  0
LINE
  5
2EA
100
AcDbEntity
  8
MSL-1-40-7
100
AcDbLine
 10
1321.579708
 20
621.310968
 30
0.0
 11
1321.579708
 21
627.310968
 31
0.0
  0
LINE
  5
2EB
100
AcDbEntity
  8
MSL-1-40-7
100
AcDbLine
 10
1311.579708
 20
624.310968
 30
0.0
 11
1311.579708
 21
621.18824
 31
0.0
  0
LINE
  5
2EC
100
AcDbEntity
  8
MSL-1-40-7
100
AcDbLine
 10
1311.579708
 20
624.310968
 30
0.0
 11
1314.702436
 21
624.310968
 31
0.0
  0
LINE
  5
2ED
100
AcDbEntity
  8
MSL-1-40-7
100
AcDbLine
 10
1311.579708
 20
624.310968
 30
0.0
 11
1311.579708
 21
627.433696
 31
0.0
  0
ARC
  5
2EE
100
AcDbEntity
  8
MSL-1-40-4
100
AcDbCircle
 10
1321.579708
 20
624.310968
 30
0.0
 40
2.0
100
AcDbArc
 50
172.405357
 51
104.931417
  0
CIRCLE
  5
2EF
100
AcDbEntity
  8
MSL-1-40-0
100
AcDbCircle
 10
1321.579708
 20
624.310968
 30
0.0
 40
1.621
  0
ARC
  5
2F0
100
AcDbEntity
  8
MSL-1-40-0
100
AcDbCircle
 10
1359.471028
 20
603.672184
 30
0.0
 40
3.108681
100
AcDbArc
 50
307.878144
 51
52.121856
  0
LINE
  5
2F1
100
AcDbEntity
  8
MSL-1-40-0
100
AcDbLine
 10
1362.579708
 20
590.310968
 30
0.0
 11
1362.579708
 21
588.949752
 31
0.0
  0
LINE
  5
2F2
100
AcDbEntity
  8
MSL-1-40-0
100
AcDbLine
 10
1361.379708
 20
586.496013
 30
0.0
 11
1359.579708
 21
586.496013
 31
0.0
  0
ARC
  5
2F3
100
AcDbEntity
  8
MSL-1-40-0
100
AcDbCircle
 10
1359.471028
 20
588.949752
 30
0.0
 40
3.108681
100
AcDbArc
 50
307.878144
 51
25.968433
  0
LINE
  5
2F4
100
AcDbEntity
  8
MSL-1-40-0
100
AcDbLine
 10
1362.579708
 20
603.672184
 30
0.0
 11
1362.579708
 21
598.310968
 31
0.0
  0
LINE
  5
2F5
100
AcDbEntity
  8
MSL-1-40-0
100
AcDbLine
 10
1361.379708
 20
601.218445
 30
0.0
 11
1359.579708
 21
601.218445
 31
0.0
  0
LINE
  5
2F6
100
AcDbEntity
  8
MSL-1-40-7
100
AcDbLine
 10
1363.605542
 20
596.310968
 30
0.0
 11
1356.995055
 21
596.310968
 31
0.0
  0
ARC
  5
2F7
100
AcDbEntity
  8
MSL-1-40-0
100
AcDbCircle
 10
1351.944986
 20
596.310968
 30
0.0
 40
10.634722
100
AcDbArc
 50
10.839779
 51
27.481227
  0
LINE
  5
2F8
100
AcDbEntity
  8
MSL-1-40-0
100
AcDbLine
 10
1367.579708
 20
621.310968
 30
0.0
 11
1367.579708
 21
607.310968
 31
0.0
  0
LINE
  5
2F9
100
AcDbEntity
  8
MSL-1-40-0
100
AcDbLine
 10
1368.579708
 20
608.310968
 30
0.0
 11
1368.579708
 21
620.310968
 31
0.0
  0
LINE
  5
2FA
100
AcDbEntity
  8
MSL-1-40-0
100
AcDbLine
 10
1359.579708
 20
607.310968
 30
0.0
 11
1367.579708
 21
607.310968
 31
0.0
  0
LINE
  5
2FB
100
AcDbEntity
  8
MSL-1-40-0
100
AcDbLine
 10
1359.579708
 20
606.125922
 30
0.0
 11
1361.379708
 21
606.125922
 31
0.0
  0
LINE
  5
2FC
100
AcDbEntity
  8
MSL-1-40-0
100
AcDbLine
 10
1367.579708
 20
607.310968
 30
0.0
 11
1368.579708
 21
608.310968
 31
0.0
  0
LINE
  5
2FD
100
AcDbEntity
  8
MSL-1-40-0
100
AcDbLine
 10
1366.579708
 20
624.310968
 30
0.0
 11
1364.558651
 21
624.310968
 31
0.0
  0
LINE
  5
2FE
100
AcDbEntity
  8
MSL-1-40-0
100
AcDbLine
 10
1367.579708
 20
621.310968
 30
0.0
 11
1359.579708
 21
621.310968
 31
0.0
  0
ARC
  5
2FF
100
AcDbEntity
  8
MSL-1-40-0
100
AcDbCircle
 10
1361.471028
 20
623.949752
 30
0.0
 40
3.108681
100
AcDbArc
 50
307.878144
 51
52.121856
  0
ARC
  5
300
100
AcDbEntity
  8
MSL-1-40-0
100
AcDbCircle
 10
1362.688389
 20
623.949752
 30
0.0
 40
3.108681
100
AcDbArc
 50
127.878142
 51
232.121858
  0
LINE
  5
301
100
AcDbEntity
  8
MSL-1-40-0
100
AcDbLine
 10
1360.779708
 20
621.496013
 30
0.0
 11
1363.379708
 21
621.496013
 31
0.0
  0
LINE
  5
302
100
AcDbEntity
  8
MSL-1-40-0
100
AcDbLine
 10
1360.779708
 20
626.403491
 30
0.0
 11
1363.379708
 21
626.403491
 31
0.0
  0
LINE
  5
303
100
AcDbEntity
  8
MSL-1-40-0
100
AcDbLine
 10
1368.579708
 20
620.310968
 30
0.0
 11
1367.579708
 21
621.310968
 31
0.0
  0
LINE
  5
304
100
AcDbEntity
  8
MSL-1-40-0
100
AcDbLine
 10
1367.579708
 20
625.310968
 30
0.0
 11
1366.579708
 21
624.310968
 31
0.0
  0
LINE
  5
305
100
AcDbEntity
  8
MSL-1-40-0
100
AcDbLine
 10
1359.579708
 20
644.310968
 30
0.0
 11
1263.579708
 21
644.310968
 31
0.0
  0
LINE
  5
306
100
AcDbEntity
  8
MSL-1-40-7
100
AcDbLine
 10
1268.216938
 20
634.310968
 30
0.0
 11
1239.579708
 21
634.310968
 31
0.0
  0
LINE
  5
307
100
AcDbEntity
  8
MSL-1-40-3
100
AcDbLine
 10
1247.200708
 20
644.310968
 30
0.0
 11
1247.200708
 21
633.510968
 31
0.0
  0
LINE
  5
308
100
AcDbEntity
  8
MSL-1-40-3
100
AcDbLine
 10
1243.958708
 20
644.310968
 30
0.0
 11
1243.958708
 21
633.510968
 31
0.0
  0
LINE
  5
309
100
AcDbEntity
  8
MSL-1-40-7
100
AcDbLine
 10
1245.579708
 20
645.310968
 30
0.0
 11
1245.579708
 21
631.510968
 31
0.0
  0
LINE
  5
30A
100
AcDbEntity
  8
MSL-1-40-3
100
AcDbLine
 10
1247.579708
 20
644.310968
 30
0.0
 11
1247.579708
 21
637.310968
 31
0.0
  0
LINE
  5
30B
100
AcDbEntity
  8
MSL-1-40-3
100
AcDbLine
 10
1243.579708
 20
644.310968
 30
0.0
 11
1243.579708
 21
637.310968
 31
0.0
  0
LINE
  5
30C
100
AcDbEntity
  8
MSL-1-40-0
100
AcDbLine
 10
1253.579708
 20
638.310968
 30
0.0
 11
1263.579708
 21
638.310968
 31
0.0
  0
ARC
  5
30D
100
AcDbEntity
  8
MSL-1-40-0
100
AcDbCircle
 10
1253.286653
 20
637.940133
 30
0.0
 40
2.293056
100
AcDbArc
 50
9.306794
 51
54.914152
  0
LINE
  5
30E
100
AcDbEntity
  8
MSL-1-40-0
100
AcDbLine
 10
1253.579708
 20
630.310968
 30
0.0
 11
1263.579708
 21
630.310968
 31
0.0
  0
LINE
  5
30F
100
AcDbEntity
  8
MSL-1-40-7
100
AcDbLine
 10
1266.131453
 20
632.310968
 30
0.0
 11
1250.83299
 21
632.310968
 31
0.0
  0
LINE
  5
310
100
AcDbEntity
  8
MSL-1-40-0
100
AcDbLine
 10
1253.579708
 20
639.816521
 30
0.0
 11
1254.604708
 21
639.816521
 31
0.0
  0
LINE
  5
311
100
AcDbEntity
  8
MSL-1-40-3
100
AcDbLine
 10
1247.200708
 20
633.510968
 30
0.0
 11
1243.958708
 21
633.510968
 31
0.0
  0
LINE
  5
312
100
AcDbEntity
  8
MSL-1-40-3
100
AcDbLine
 10
1247.200708
 20
633.510968
 30
0.0
 11
1245.579708
 21
632.575083
 31
0.0
  0
LINE
  5
313
100
AcDbEntity
  8
MSL-1-40-3
100
AcDbLine
 10
1243.958708
 20
633.510968
 30
0.0
 11
1245.579708
 21
632.575083
 31
0.0
  0
LINE
  5
314
100
AcDbEntity
  8
MSL-1-40-3
100
AcDbLine
 10
1243.579708
 20
637.310968
 30
0.0
 11
1247.579708
 21
637.310968
 31
0.0
  0
LINE
  5
315
100
AcDbEntity
  8
MSL-1-40-7
100
AcDbLine
 10
1247.579708
 20
632.310968
 30
0.0
 11
1253.579708
 21
632.310968
 31
0.0
  0
ARC
  5
316
100
AcDbEntity
  8
MSL-1-40-4
100
AcDbCircle
 10
1250.579708
 20
632.310968
 30
0.0
 40
2.0
100
AcDbArc
 50
172.405357
 51
104.931417
  0
CIRCLE
  5
317
100
AcDbEntity
  8
MSL-1-40-0
100
AcDbCircle
 10
1250.579708
 20
632.310968
 30
0.0
 40
1.621
  0
LINE
  5
318
100
AcDbEntity
  8
MSL-1-40-0
100
AcDbLine
 10
1261.779708
 20
642.125923
 30
0.0
 11
1263.579708
 21
642.125923
 31
0.0
  0
ARC
  5
319
100
AcDbEntity
  8
MSL-1-40-0
100
AcDbCircle
 10
1258.017543
 20
637.940133
 30
0.0
 40
2.562165
100
AcDbArc
 50
8.321933
 51
47.083336
  0
ARC
  5
31A
100
AcDbEntity
  8
MSL-1-40-0
100
AcDbCircle
 10
1263.688389
 20
639.672184
 30
0.0
 40
3.108681
100
AcDbArc
 50
127.878142
 51
205.968434
  0
LINE
  5
31B
100
AcDbEntity
  8
MSL-1-40-0
100
AcDbLine
 10
1260.579708
 20
638.310968
 30
0.0
 11
1260.579708
 21
639.672184
 31
0.0
  0
LINE
  5
31C
100
AcDbEntity
  8
MSL-1-40-0
100
AcDbLine
 10
1256.579708
 20
638.310968
 30
0.0
 11
1256.579708
 21
639.816521
 31
0.0
  0
LINE
  5
31D
100
AcDbEntity
  8
MSL-1-40-0
100
AcDbLine
 10
1256.579708
 20
639.816521
 30
0.0
 11
1259.762208
 21
639.816521
 31
0.0
  0
LINE
  5
31E
100
AcDbEntity
  8
MSL-1-40-0
100
AcDbLine
 10
1253.579708
 20
644.310968
 30
0.0
 11
1241.579708
 21
644.310968
 31
0.0
  0
LINE
  5
31F
100
AcDbEntity
  8
MSL-1-40-0
100
AcDbLine
 10
1295.579708
 20
648.310968
 30
0.0
 11
1303.579708
 21
648.310968
 31
0.0
  0
LINE
  5
320
100
AcDbEntity
  8
MSL-1-40-7
100
AcDbLine
 10
1289.079708
 20
642.359017
 30
0.0
 11
1289.079708
 21
650.365345
 31
0.0
  0
ARC
  5
321
100
AcDbEntity
  8
MSL-1-40-0
100
AcDbCircle
 10
1295.579708
 20
646.810968
 30
0.0
 40
1.5
100
AcDbArc
 50
89.999999
 51
146.44269
  0
LINE
  5
322
100
AcDbEntity
  8
MSL-1-40-0
100
AcDbLine
 10
1294.579708
 20
646.810968
 30
0.0
 11
1294.579708
 21
644.310968
 31
0.0
  0
LINE
  5
323
100
AcDbEntity
  8
MSL-1-40-0
100
AcDbLine
 10
1283.579708
 20
644.310968
 30
0.0
 11
1283.579708
 21
646.810968
 31
0.0
  0
LINE
  5
324
100
AcDbEntity
  8
MSL-1-40-0
100
AcDbLine
 10
1285.079708
 20
648.310968
 30
0.0
 11
1293.079708
 21
648.310968
 31
0.0
  0
ARC
  5
325
100
AcDbEntity
  8
MSL-1-40-0
100
AcDbCircle
 10
1285.079708
 20
646.810968
 30
0.0
 40
1.5
100
AcDbArc
 50
89.999999
 51
180.000002
  0
ARC
  5
326
100
AcDbEntity
  8
MSL-1-40-0
100
AcDbCircle
 10
1293.079708
 20
646.810968
 30
0.0
 40
1.5
100
AcDbArc
 50
0.0
 51
89.999999
  0
LINE
  5
327
100
AcDbEntity
  8
MSL-1-40-7
100
AcDbLine
 10
1311.579708
 20
645.521625
 30
0.0
 11
1311.579708
 21
633.615375
 31
0.0
  0
LINE
  5
328
100
AcDbEntity
  8
MSL-1-40-7
100
AcDbLine
 10
1299.579708
 20
642.359017
 30
0.0
 11
1299.579708
 21
650.522332
 31
0.0
  0
LINE
  5
329
100
AcDbEntity
  8
MSL-1-40-0
100
AcDbLine
 10
1305.079708
 20
646.810968
 30
0.0
 11
1305.079708
 21
644.310968
 31
0.0
  0
ARC
  5
32A
100
AcDbEntity
  8
MSL-1-40-0
100
AcDbCircle
 10
1303.579708
 20
646.810968
 30
0.0
 40
1.5
100
AcDbArc
 50
0.0
 51
89.999999
  0
LINE
  5
32B
100
AcDbEntity
  8
MSL-1-40-7
100
AcDbLine
 10
1301.579708
 20
645.617635
 30
0.0
 11
1301.579708
 21
644.310968
 31
0.0
  0
LINE
  5
32C
100
AcDbEntity
  8
MSL-1-40-7
100
AcDbLine
 10
1321.579708
 20
645.617635
 30
0.0
 11
1321.579708
 21
644.310968
 31
0.0
  0
ARC
  5
32D
100
AcDbEntity
  8
MSL-1-40-0
100
AcDbCircle
 10
1361.471028
 20
638.672184
 30
0.0
 40
3.108681
100
AcDbArc
 50
353.327393
 51
52.121856
  0
ARC
  5
32E
100
AcDbEntity
  8
MSL-1-40-0
100
AcDbCircle
 10
1362.74044
 20
638.626819
 30
0.0
 40
3.176474
100
AcDbArc
 50
128.116805
 51
185.706614
  0
LINE
  5
32F
100
AcDbEntity
  8
MSL-1-40-7
100
AcDbLine
 10
1357.903771
 20
631.310968
 30
0.0
 11
1366.105854
 21
631.310968
 31
0.0
  0
LINE
  5
330
100
AcDbEntity
  8
MSL-1-40-0
100
AcDbLine
 10
1363.379708
 20
641.125923
 30
0.0
 11
1360.779708
 21
641.125923
 31
0.0
  0
LINE
  5
331
100
AcDbEntity
  8
MSL-1-40-7
100
AcDbLine
 10
1412.579708
 20
629.310968
 30
0.0
 11
1412.579708
 21
635.310968
 31
0.0
  0
LINE
  5
332
100
AcDbEntity
  8
MSL-1-40-0
100
AcDbLine
 10
1385.079708
 20
630.310968
 30
0.0
 11
1385.079708
 21
628.910968
 31
0.0
  0
LINE
  5
333
100
AcDbEntity
  8
MSL-1-40-0
100
AcDbLine
 10
1421.579708
 20
644.310968
 30
0.0
 11
1421.579708
 21
584.310968
 31
0.0
  0
LINE
  5
334
100
AcDbEntity
  8
MSL-1-40-0
100
AcDbLine
 10
1409.579708
 20
584.310968
 30
0.0
 11
1409.579708
 21
644.310968
 31
0.0
  0
LINE
  5
335
100
AcDbEntity
  8
MSL-1-40-0
100
AcDbLine
 10
1403.397208
 20
530.038078
 30
0.0
 11
1406.579708
 21
530.038078
 31
0.0
  0
LINE
  5
336
100
AcDbEntity
  8
MSL-1-40-0
100
AcDbLine
 10
1408.554708
 20
530.038078
 30
0.0
 11
1410.604708
 21
530.038078
 31
0.0
  0
ARC
  5
337
100
AcDbEntity
  8
MSL-1-40-0
100
AcDbCircle
 10
1415.289431
 20
596.310968
 30
0.0
 40
7.709722
100
AcDbArc
 50
150.872216
 51
164.964781
  0
ARC
  5
338
100
AcDbEntity
  8
MSL-1-40-0
100
AcDbCircle
 10
1409.872764
 20
601.940133
 30
0.0
 40
2.293056
100
AcDbArc
 50
125.085847
 51
234.914153
  0
ARC
  5
339
100
AcDbEntity
  8
MSL-1-40-0
100
AcDbCircle
 10
1409.872764
 20
590.681803
 30
0.0
 40
2.293056
100
AcDbArc
 50
189.306796
 51
234.914153
  0
LINE
  5
33A
100
AcDbEntity
  8
MSL-1-40-7
100
AcDbLine
 10
1402.079708
 20
596.310968
 30
0.0
 11
1422.961563
 21
596.310968
 31
0.0
  0
LINE
  5
33B
100
AcDbEntity
  8
MSL-1-40-0
100
AcDbLine
 10
1406.579708
 20
588.805415
 30
0.0
 11
1403.397208
 21
588.805415
 31
0.0
  0
ARC
  5
33C
100
AcDbEntity
  8
MSL-1-40-0
100
AcDbCircle
 10
1405.141873
 20
590.681803
 30
0.0
 40
2.562165
100
AcDbArc
 50
188.321934
 51
227.083338
  0
LINE
  5
33D
100
AcDbEntity
  8
MSL-1-40-0
100
AcDbLine
 10
1406.579708
 20
590.310968
 30
0.0
 11
1406.579708
 21
588.805415
 31
0.0
  0
LINE
  5
33E
100
AcDbEntity
  8
MSL-1-40-0
100
AcDbLine
 10
1403.397208
 20
603.816521
 30
0.0
 11
1406.579708
 21
603.816521
 31
0.0
  0
LINE
  5
33F
100
AcDbEntity
  8
MSL-1-40-0
100
AcDbLine
 10
1406.579708
 20
600.310968
 30
0.0
 11
1407.579708
 21
600.310968
 31
0.0
  0
ARC
  5
340
100
AcDbEntity
  8
MSL-1-40-0
100
AcDbCircle
 10
1411.602118
 20
596.310968
 30
0.0
 40
9.02241
100
AcDbArc
 50
155.421502
 51
167.192843
  0
LINE
  5
341
100
AcDbEntity
  8
MSL-1-40-0
100
AcDbLine
 10
1403.397208
 20
600.063745
 30
0.0
 11
1406.579708
 21
600.063745
 31
0.0
  0
LINE
  5
342
100
AcDbEntity
  8
MSL-1-40-0
100
AcDbLine
 10
1407.579708
 20
601.940133
 30
0.0
 11
1407.579708
 21
598.310968
 31
0.0
  0
LINE
  5
343
100
AcDbEntity
  8
MSL-1-40-0
100
AcDbLine
 10
1402.579708
 20
598.310968
 30
0.0
 11
1402.579708
 21
601.940133
 31
0.0
  0
LINE
  5
344
100
AcDbEntity
  8
MSL-1-40-0
100
AcDbLine
 10
1406.579708
 20
603.816521
 30
0.0
 11
1406.579708
 21
598.310968
 31
0.0
  0
ARC
  5
345
100
AcDbEntity
  8
MSL-1-40-0
100
AcDbCircle
 10
1405.141873
 20
601.940133
 30
0.0
 40
2.562165
100
AcDbArc
 50
132.916662
 51
227.083338
  0
LINE
  5
346
100
AcDbEntity
  8
MSL-1-40-3
100
AcDbLine
 10
1415.958708
 20
584.310968
 30
0.0
 11
1415.958708
 21
595.110968
 31
0.0
  0
LINE
  5
347
100
AcDbEntity
  8
MSL-1-40-3
100
AcDbLine
 10
1419.200708
 20
584.310968
 30
0.0
 11
1419.200708
 21
595.110968
 31
0.0
  0
LINE
  5
348
100
AcDbEntity
  8
MSL-1-40-7
100
AcDbLine
 10
1417.579708
 20
583.310968
 30
0.0
 11
1417.579708
 21
597.110968
 31
0.0
  0
LINE
  5
349
100
AcDbEntity
  8
MSL-1-40-3
100
AcDbLine
 10
1419.579708
 20
591.310968
 30
0.0
 11
1415.579708
 21
591.310968
 31
0.0
  0
LINE
  5
34A
100
AcDbEntity
  8
MSL-1-40-0
100
AcDbLine
 10
1421.579708
 20
584.310968
 30
0.0
 11
1409.579708
 21
584.310968
 31
0.0
  0
LINE
  5
34B
100
AcDbEntity
  8
MSL-1-40-3
100
AcDbLine
 10
1415.579708
 20
584.310968
 30
0.0
 11
1415.579708
 21
591.310968
 31
0.0
  0
LINE
  5
34C
100
AcDbEntity
  8
MSL-1-40-3
100
AcDbLine
 10
1419.579708
 20
584.310968
 30
0.0
 11
1419.579708
 21
591.310968
 31
0.0
  0
LINE
  5
34D
100
AcDbEntity
  8
MSL-1-40-0
100
AcDbLine
 10
1409.579708
 20
588.805415
 30
0.0
 11
1408.554708
 21
588.805415
 31
0.0
  0
LINE
  5
34E
100
AcDbEntity
  8
MSL-1-40-7
100
AcDbLine
 10
1408.752529
 20
604.310968
 30
0.0
 11
1422.679234
 21
604.310968
 31
0.0
  0
LINE
  5
34F
100
AcDbEntity
  8
MSL-1-40-7
100
AcDbLine
 10
1412.579708
 20
593.310968
 30
0.0
 11
1412.579708
 21
599.310968
 31
0.0
  0
LINE
  5
350
100
AcDbEntity
  8
MSL-1-40-3
100
AcDbLine
 10
1415.958708
 20
595.110968
 30
0.0
 11
1419.200708
 21
595.110968
 31
0.0
  0
LINE
  5
351
100
AcDbEntity
  8
MSL-1-40-3
100
AcDbLine
 10
1419.200708
 20
595.110968
 30
0.0
 11
1417.579708
 21
596.046853
 31
0.0
  0
LINE
  5
352
100
AcDbEntity
  8
MSL-1-40-7
100
AcDbLine
 10
1409.579708
 20
596.310968
 30
0.0
 11
1415.579708
 21
596.310968
 31
0.0
  0
LINE
  5
353
100
AcDbEntity
  8
MSL-1-40-3
100
AcDbLine
 10
1415.958708
 20
595.110968
 30
0.0
 11
1417.579708
 21
596.046853
 31
0.0
  0
ARC
  5
354
100
AcDbEntity
  8
MSL-1-40-4
100
AcDbCircle
 10
1412.579708
 20
596.310968
 30
0.0
 40
2.0
100
AcDbArc
 50
172.405357
 51
104.931417
  0
CIRCLE
  5
355
100
AcDbEntity
  8
MSL-1-40-0
100
AcDbCircle
 10
1412.579708
 20
596.310968
 30
0.0
 40
1.621
  0
LINE
  5
356
100
AcDbEntity
  8
MSL-1-40-0
100
AcDbLine
 10
1421.579708
 20
598.310968
 30
0.0
 11
1421.579708
 21
598.310968
 31
0.0
  0
LINE
  5
357
100
AcDbEntity
  8
MSL-1-40-0
100
AcDbLine
 10
1408.554708
 20
603.816521
 30
0.0
 11
1409.579708
 21
603.816521
 31
0.0
  0
LINE
  5
358
100
AcDbEntity
  8
MSL-1-40-0
100
AcDbLine
 10
1409.579708
 20
600.063745
 30
0.0
 11
1408.554708
 21
600.063745
 31
0.0
  0
LINE
  5
359
100
AcDbEntity
  8
MSL-1-40-7
100
AcDbLine
 10
1407.579708
 20
624.310968
 30
0.0
 11
1423.579708
 21
624.310968
 31
0.0
  0
LINE
  5
35A
100
AcDbEntity
  8
MSL-1-40-3
100
AcDbLine
 10
1419.200708
 20
644.310968
 30
0.0
 11
1419.200708
 21
633.510968
 31
0.0
  0
LINE
  5
35B
100
AcDbEntity
  8
MSL-1-40-3
100
AcDbLine
 10
1415.958708
 20
644.310968
 30
0.0
 11
1415.958708
 21
633.510968
 31
0.0
  0
LINE
  5
35C
100
AcDbEntity
  8
MSL-1-40-7
100
AcDbLine
 10
1417.579708
 20
645.310968
 30
0.0
 11
1417.579708
 21
631.510968
 31
0.0
  0
LINE
  5
35D
100
AcDbEntity
  8
MSL-1-40-3
100
AcDbLine
 10
1415.579708
 20
644.310968
 30
0.0
 11
1415.579708
 21
637.310968
 31
0.0
  0
LINE
  5
35E
100
AcDbEntity
  8
MSL-1-40-3
100
AcDbLine
 10
1419.579708
 20
644.310968
 30
0.0
 11
1419.579708
 21
637.310968
 31
0.0
  0
LINE
  5
35F
100
AcDbEntity
  8
MSL-1-40-3
100
AcDbLine
 10
1419.200708
 20
633.510968
 30
0.0
 11
1415.958708
 21
633.510968
 31
0.0
  0
LINE
  5
360
100
AcDbEntity
  8
MSL-1-40-3
100
AcDbLine
 10
1419.200708
 20
633.510968
 30
0.0
 11
1417.579708
 21
632.575083
 31
0.0
  0
LINE
  5
361
100
AcDbEntity
  8
MSL-1-40-3
100
AcDbLine
 10
1415.958708
 20
633.510968
 30
0.0
 11
1417.579708
 21
632.575083
 31
0.0
  0
LINE
  5
362
100
AcDbEntity
  8
MSL-1-40-7
100
AcDbLine
 10
1409.579708
 20
632.310968
 30
0.0
 11
1415.579708
 21
632.310968
 31
0.0
  0
ARC
  5
363
100
AcDbEntity
  8
MSL-1-40-4
100
AcDbCircle
 10
1412.579708
 20
632.310968
 30
0.0
 40
2.0
100
AcDbArc
 50
172.405357
 51
104.931417
  0
CIRCLE
  5
364
100
AcDbEntity
  8
MSL-1-40-0
100
AcDbCircle
 10
1412.579708
 20
632.310968
 30
0.0
 40
1.621
  0
LINE
  5
365
100
AcDbEntity
  8
MSL-1-40-0
100
AcDbLine
 10
1421.579708
 20
630.310968
 30
0.0
 11
1421.579708
 21
630.310968
 31
0.0
  0
LINE
  5
366
100
AcDbEntity
  8
MSL-1-40-3
100
AcDbLine
 10
1415.579708
 20
637.310968
 30
0.0
 11
1419.579708
 21
637.310968
 31
0.0
  0
LINE
  5
367
100
AcDbEntity
  8
MSL-1-40-0
100
AcDbLine
 10
1409.579708
 20
644.310968
 30
0.0
 11
1421.579708
 21
644.310968
 31
0.0
  0
ENDSEC
  0
SECTION
  2
OBJECTS
  0
DICTIONARY
  5
1A
100
AcDbDictionary
  3
ACAD_GROUP
350
18
  3
ACAD_MLINESTYLE
350
19
  0
DICTIONARY
  5
18
102
{ACAD_REACTORS
330
1A
102
}
100
AcDbDictionary
  0
DICTIONARY
  5
19
102
{ACAD_REACTORS
330
1A
102
}
100
AcDbDictionary
  3
STANDARD
350
1C
  0
MLINESTYLE
  5
1C
102
{ACAD_REACTORS
330
19
102
}
100
AcDbMlineStyle
  2
STANDARD
 70
     0
  3

 62
     0
 51
90.0
 52
90.0
 71
     2
 49
0.5
 62
   256
  6
BYLAYER
 49
-0.5
 62
   256
  6
BYLAYER
  0
ENDSEC
  0
EOF
 