ISO-10303-21;
HEADER;
/****************************************************************
 * Generated by software with PDElib inside                    *
 * PDElib Version v51a, created Wed 07/06/2011                  *
 * ITI Transcendata (http://www.transcendata.com/)              *
 ****************************************************************/
FILE_DESCRIPTION((''),'2;1');
FILE_NAME('M:\\Module\\Internet-Daten\\MSL-F + MSF\\STEP\\MSF-40.stp','2012-10-05T14:20:32',('hartung_david'),(''),'Autodesk Inventor 2012','Autodesk Inventor 2012','');
FILE_SCHEMA(('AUTOMOTIVE_DESIGN { 1 0 10303 214 1 1 1 1 }'));
ENDSEC;
DATA;
#5=APPLICATION_CONTEXT('automotive design');
#6=APPLICATION_PROTOCOL_DEFINITION('International Standard','automotive_design',2001,#5);
#7=PRODUCT_CONTEXT('',#5,'mechanical');
#8=PRODUCT('MSF-40','MSF-40',$,(#7));
#9=PRODUCT_RELATED_PRODUCT_CATEGORY('part',$,(#8));
#10=PRODUCT_DEFINITION_FORMATION('',$,#8);
#11=PRODUCT_DEFINITION_CONTEXT('part definition',#5,'design');
#12=PRODUCT_DEFINITION('',$,#10,#11);
#18=(NAMED_UNIT(*)PLANE_ANGLE_UNIT()SI_UNIT($,.RADIAN.));
#19=DIMENSIONAL_EXPONENTS(0.0,0.0,0.0,0.0,0.0,0.0,0.0);
#20=PLANE_ANGLE_MEASURE_WITH_UNIT(PLANE_ANGLE_MEASURE(0.0174532925),#18);
#24=(CONVERSION_BASED_UNIT('DEGREE',#20)NAMED_UNIT(#19)PLANE_ANGLE_UNIT());
#28=(NAMED_UNIT(*)SI_UNIT($,.STERADIAN.)SOLID_ANGLE_UNIT());
#32=(LENGTH_UNIT()NAMED_UNIT(*)SI_UNIT(.MILLI.,.METRE.));
#34=UNCERTAINTY_MEASURE_WITH_UNIT(LENGTH_MEASURE(0.01),#32,'DISTANCE_ACCURACY_VALUE','');
#36=(GEOMETRIC_REPRESENTATION_CONTEXT(3)GLOBAL_UNCERTAINTY_ASSIGNED_CONTEXT((#34))GLOBAL_UNIT_ASSIGNED_CONTEXT((#24,#28,#32))REPRESENTATION_CONTEXT('None','None'));
#37=AXIS2_PLACEMENT_3D('',#38,#39,#40);
#38=CARTESIAN_POINT('',(0.0,0.0,0.0));
#39=DIRECTION('',(0.0,0.0,1.0));
#40=DIRECTION('',(1.0,0.0,0.0));
#41=SHAPE_REPRESENTATION('',(#37),#36);
#42=PRODUCT_DEFINITION_SHAPE('','',#12);
#43=SHAPE_DEFINITION_REPRESENTATION(#42,#41);
#49=(NAMED_UNIT(*)PLANE_ANGLE_UNIT()SI_UNIT($,.RADIAN.));
#50=DIMENSIONAL_EXPONENTS(0.0,0.0,0.0,0.0,0.0,0.0,0.0);
#51=PLANE_ANGLE_MEASURE_WITH_UNIT(PLANE_ANGLE_MEASURE(0.0174532925),#49);
#55=(CONVERSION_BASED_UNIT('DEGREE',#51)NAMED_UNIT(#50)PLANE_ANGLE_UNIT());
#59=(NAMED_UNIT(*)SI_UNIT($,.STERADIAN.)SOLID_ANGLE_UNIT());
#63=(LENGTH_UNIT()NAMED_UNIT(*)SI_UNIT(.MILLI.,.METRE.));
#65=UNCERTAINTY_MEASURE_WITH_UNIT(LENGTH_MEASURE(0.000001),#63,'DISTANCE_ACCURACY_VALUE','');
#67=(GEOMETRIC_REPRESENTATION_CONTEXT(3)GLOBAL_UNCERTAINTY_ASSIGNED_CONTEXT((#65))GLOBAL_UNIT_ASSIGNED_CONTEXT((#55,#59,#63))REPRESENTATION_CONTEXT('','3D'));
#68=CARTESIAN_POINT('',(0.0,292.1875,0.0));
#69=DIRECTION('',(0.0,-1.0,0.0));
#70=DIRECTION('',(1.0,0.0,0.0));
#71=AXIS2_PLACEMENT_3D('',#68,#69,#70);
#72=CYLINDRICAL_SURFACE('',#71,50.0);
#73=CARTESIAN_POINT('',(-50.0,300.0,6.123032E-015));
#74=VERTEX_POINT('',#73);
#75=CARTESIAN_POINT('',(0.0,300.0,0.0));
#76=DIRECTION('',(0.0,1.0,0.0));
#77=DIRECTION('',(1.0,0.0,0.0));
#78=AXIS2_PLACEMENT_3D('',#75,#76,#77);
#79=CIRCLE('',#78,50.0);
#80=EDGE_CURVE('',#74,#74,#79,.T.);
#81=ORIENTED_EDGE('',*,*,#80,.F.);
#82=EDGE_LOOP('',(#81));
#83=FACE_OUTER_BOUND('',#82,.T.);
#84=CARTESIAN_POINT('',(-50.0,284.375,6.123032E-015));
#85=VERTEX_POINT('',#84);
#86=CARTESIAN_POINT('',(0.0,284.375,0.0));
#87=DIRECTION('',(0.0,1.0,0.0));
#88=DIRECTION('',(1.0,0.0,0.0));
#89=AXIS2_PLACEMENT_3D('',#86,#87,#88);
#90=CIRCLE('',#89,50.0);
#91=EDGE_CURVE('',#85,#85,#90,.T.);
#92=ORIENTED_EDGE('',*,*,#91,.T.);
#93=EDGE_LOOP('',(#92));
#94=FACE_BOUND('',#93,.T.);
#95=ADVANCED_FACE('',(#83,#94),#72,.T.);
#96=CARTESIAN_POINT('',(0.0,258.59375,0.0));
#97=DIRECTION('',(0.0,-1.0,0.0));
#98=DIRECTION('',(1.0,0.0,0.0));
#99=AXIS2_PLACEMENT_3D('',#96,#97,#98);
#100=CYLINDRICAL_SURFACE('',#99,48.3333333333333);
#101=CARTESIAN_POINT('',(-48.3333333333333,284.375,5.918931E-015));
#102=VERTEX_POINT('',#101);
#103=CARTESIAN_POINT('',(0.0,284.375,0.0));
#104=DIRECTION('',(0.0,1.0,0.0));
#105=DIRECTION('',(1.0,0.0,0.0));
#106=AXIS2_PLACEMENT_3D('',#103,#104,#105);
#107=CIRCLE('',#106,48.3333333333333);
#108=EDGE_CURVE('',#102,#102,#107,.T.);
#109=ORIENTED_EDGE('',*,*,#108,.F.);
#110=EDGE_LOOP('',(#109));
#111=FACE_OUTER_BOUND('',#110,.T.);
#112=CARTESIAN_POINT('',(-48.3333333333333,232.8125,5.918931E-015));
#113=VERTEX_POINT('',#112);
#114=CARTESIAN_POINT('',(0.0,232.8125,0.0));
#115=DIRECTION('',(0.0,1.0,0.0));
#116=DIRECTION('',(1.0,0.0,0.0));
#117=AXIS2_PLACEMENT_3D('',#114,#115,#116);
#118=CIRCLE('',#117,48.3333333333333);
#119=EDGE_CURVE('',#113,#113,#118,.T.);
#120=ORIENTED_EDGE('',*,*,#119,.T.);
#121=EDGE_LOOP('',(#120));
#122=FACE_BOUND('',#121,.T.);
#123=ADVANCED_FACE('',(#111,#122),#100,.T.);
#124=CARTESIAN_POINT('',(0.0,247.5,0.0));
#125=DIRECTION('',(0.0,-1.0,0.0));
#126=DIRECTION('',(1.0,0.0,0.0));
#127=AXIS2_PLACEMENT_3D('',#124,#125,#126);
#128=CYLINDRICAL_SURFACE('',#127,5.7225);
#129=CARTESIAN_POINT('',(-5.7225,195.0,7.007810E-016));
#130=VERTEX_POINT('',#129);
#131=CARTESIAN_POINT('',(0.0,195.0,0.0));
#132=DIRECTION('',(0.0,1.0,0.0));
#133=DIRECTION('',(1.0,0.0,0.0));
#134=AXIS2_PLACEMENT_3D('',#131,#132,#133);
#135=CIRCLE('',#134,5.7225);
#136=EDGE_CURVE('',#130,#130,#135,.T.);
#137=ORIENTED_EDGE('',*,*,#136,.F.);
#138=EDGE_LOOP('',(#137));
#139=FACE_OUTER_BOUND('',#138,.T.);
#140=CARTESIAN_POINT('',(-5.7225,300.0,7.007810E-016));
#141=VERTEX_POINT('',#140);
#142=CARTESIAN_POINT('',(0.0,300.0,0.0));
#143=DIRECTION('',(0.0,-1.0,0.0));
#144=DIRECTION('',(1.0,0.0,0.0));
#145=AXIS2_PLACEMENT_3D('',#142,#143,#144);
#146=CIRCLE('',#145,5.7225);
#147=EDGE_CURVE('',#141,#141,#146,.T.);
#148=ORIENTED_EDGE('',*,*,#147,.F.);
#149=EDGE_LOOP('',(#148));
#150=FACE_BOUND('',#149,.T.);
#151=ADVANCED_FACE('',(#139,#150),#128,.F.);
#152=CARTESIAN_POINT('',(0.0,193.34805654228001,0.0));
#153=DIRECTION('',(0.0,1.0,0.0));
#154=DIRECTION('',(1.0,0.0,0.0));
#155=AXIS2_PLACEMENT_3D('',#152,#153,#154);
#156=CONICAL_SURFACE('',#155,2.86125,59.999999999982371);
#157=ORIENTED_EDGE('',*,*,#136,.T.);
#158=EDGE_LOOP('',(#157));
#159=FACE_OUTER_BOUND('',#158,.T.);
#160=ADVANCED_FACE('',(#159),#156,.F.);
#161=CARTESIAN_POINT('',(0.0,116.40625,0.0));
#162=DIRECTION('',(0.0,-1.0,0.0));
#163=DIRECTION('',(1.0,0.0,0.0));
#164=AXIS2_PLACEMENT_3D('',#161,#162,#163);
#165=CYLINDRICAL_SURFACE('',#164,50.0);
#166=CARTESIAN_POINT('',(-50.0,232.8125,6.123032E-015));
#167=VERTEX_POINT('',#166);
#168=CARTESIAN_POINT('',(0.0,232.8125,0.0));
#169=DIRECTION('',(0.0,1.0,0.0));
#170=DIRECTION('',(1.0,0.0,0.0));
#171=AXIS2_PLACEMENT_3D('',#168,#169,#170);
#172=CIRCLE('',#171,50.0);
#173=EDGE_CURVE('',#167,#167,#172,.T.);
#174=ORIENTED_EDGE('',*,*,#173,.F.);
#175=EDGE_LOOP('',(#174));
#176=FACE_OUTER_BOUND('',#175,.T.);
#177=CARTESIAN_POINT('',(2.479828E-015,69.75,50.0));
#178=VERTEX_POINT('',#177);
#179=CARTESIAN_POINT('',(-4.959656E-015,110.25,50.0));
#180=VERTEX_POINT('',#179);
#181=CARTESIAN_POINT('',(2.081668E-015,69.75,50.0));
#182=CARTESIAN_POINT('',(-1.286851606312224,69.75,50.0));
#183=CARTESIAN_POINT('',(-2.613063958517268,69.874648908580085,49.94907853933212));
#184=CARTESIAN_POINT('',(-5.241997565895737,70.394405866725279,49.741934137075603));
#185=CARTESIAN_POINT('',(-6.54475999096638,70.789356936515375,49.585839860895589));
#186=CARTESIAN_POINT('',(-9.0353957423578,71.827374783071079,49.192997687059801));
#187=CARTESIAN_POINT('',(-10.225512914876067,72.471266765976324,48.956208746217385));
#188=CARTESIAN_POINT('',(-12.422121713735777,73.952928765196717,48.445457798708318));
#189=CARTESIAN_POINT('',(-13.428637752545765,74.790813114490589,48.171932557910175));
#190=CARTESIAN_POINT('',(-15.210138447760176,76.572313809705008,47.639447239769154));
#191=CARTESIAN_POINT('',(-16.048144935813372,77.579287752631288,47.361115684823915));
#192=CARTESIAN_POINT('',(-17.529403663289656,79.77566355952365,46.833089179779478));
#193=CARTESIAN_POINT('',(-18.172810487285748,80.965087871665162,46.58392140010065));
#194=CARTESIAN_POINT('',(-19.210275407945719,83.454318784365157,46.165768027688543));
#195=CARTESIAN_POINT('',(-19.605155967695836,84.756388680416165,45.996935921360922));
#196=CARTESIAN_POINT('',(-20.125104448241665,87.385086821830456,45.771830046596776));
#197=CARTESIAN_POINT('',(-20.249999999999993,88.71177295350671,45.715834237165573));
#198=CARTESIAN_POINT('',(-20.25,91.288227046493262,45.715834237165573));
#199=CARTESIAN_POINT('',(-20.125104448241665,92.614913178169544,45.771830046596776));
#200=CARTESIAN_POINT('',(-19.605155967695836,95.243611319583835,45.996935921360922));
#201=CARTESIAN_POINT('',(-19.210275407945723,96.545681215634843,46.16576802768855));
#202=CARTESIAN_POINT('',(-18.172810487285748,99.034912128334852,46.583921400100657));
#203=CARTESIAN_POINT('',(-17.529403663289656,100.22433644047635,46.833089179779478));
#204=CARTESIAN_POINT('',(-16.048144935813365,102.42071224736873,47.361115684823915));
#205=CARTESIAN_POINT('',(-15.210138447760178,103.42768619029501,47.639447239769154));
#206=CARTESIAN_POINT('',(-13.428637752545768,105.20918688550941,48.171932557910182));
#207=CARTESIAN_POINT('',(-12.422121713735802,106.0470712348033,48.445457798708333));
#208=CARTESIAN_POINT('',(-10.22551291487609,107.52873323402368,48.956208746217399));
#209=CARTESIAN_POINT('',(-9.035395742357807,108.17262521692894,49.192997687059815));
#210=CARTESIAN_POINT('',(-6.544759990966393,109.21064306348461,49.585839860895589));
#211=CARTESIAN_POINT('',(-5.241997565895757,109.60559413327474,49.741934137075603));
#212=CARTESIAN_POINT('',(-2.613063958517282,110.12535109141993,49.94907853933212));
#213=CARTESIAN_POINT('',(-1.286851606312234,110.25,50.0));
#214=CARTESIAN_POINT('',(-4.302114E-015,110.25,50.0));
#215=B_SPLINE_CURVE_WITH_KNOTS('',3,(#181,#182,#183,#184,#185,#186,#187,#188,#189,#190,#191,#192,#193,#194,#195,#196,#197,#198,#199,#200,#201,#202,#203,#204,#205,#206,#207,#208,#209,#210,#211,#212,#213,#214),.UNSPECIFIED.,.F.,.U.,(4,2,2,2,2,2,2,2,2,2,2,2,2,2,2,2,4),(3.090094383366603,3.476149865260271,3.862205347153938,4.248260829047606,4.634316310941274,5.020784424889257,5.407252538837239,5.793720652785223,6.180188766733206,6.566656880681189,6.953124994629172,7.339593108577155,7.726061222525138,8.112116704418806,8.498172186312473,8.88422766820614,9.270283150099809),.UNSPECIFIED.);
#216=EDGE_CURVE('',#178,#180,#215,.T.);
#217=ORIENTED_EDGE('',*,*,#216,.T.);
#218=CARTESIAN_POINT('',(-4.302114E-015,110.25,50.0));
#219=CARTESIAN_POINT('',(1.286851606312225,110.25,50.0));
#220=CARTESIAN_POINT('',(2.613063958517277,110.12535109141993,49.94907853933212));
#221=CARTESIAN_POINT('',(5.241997565895754,109.60559413327474,49.741934137075603));
#222=CARTESIAN_POINT('',(6.544759990966391,109.21064306348461,49.585839860895589));
#223=CARTESIAN_POINT('',(9.035395742357807,108.17262521692891,49.192997687059815));
#224=CARTESIAN_POINT('',(10.225512914876072,107.52873323402369,48.956208746217399));
#225=CARTESIAN_POINT('',(12.422121713735784,106.04707123480331,48.445457798708333));
#226=CARTESIAN_POINT('',(13.428637752545765,105.20918688550941,48.171932557910182));
#227=CARTESIAN_POINT('',(15.210138447760171,103.42768619029499,47.639447239769154));
#228=CARTESIAN_POINT('',(16.048144935813376,102.4207122473687,47.361115684823915));
#229=CARTESIAN_POINT('',(17.529403663289656,100.22433644047635,46.833089179779478));
#230=CARTESIAN_POINT('',(18.172810487285748,99.034912128334852,46.583921400100657));
#231=CARTESIAN_POINT('',(19.210275407945723,96.545681215634843,46.165768027688543));
#232=CARTESIAN_POINT('',(19.60515596769584,95.243611319583792,45.996935921360915));
#233=CARTESIAN_POINT('',(20.125104448241661,92.614913178169502,45.771830046596769));
#234=CARTESIAN_POINT('',(20.25,91.288227046493262,45.715834237165573));
#235=CARTESIAN_POINT('',(20.25,90.0,45.715834237165573));
#236=CARTESIAN_POINT('',(20.25,88.711772953506738,45.715834237165573));
#237=CARTESIAN_POINT('',(20.125104448241661,87.385086821830456,45.771830046596769));
#238=CARTESIAN_POINT('',(19.60515596769584,84.756388680416194,45.996935921360915));
#239=CARTESIAN_POINT('',(19.210275407945726,83.454318784365199,46.165768027688543));
#240=CARTESIAN_POINT('',(18.172810487285766,80.96508787166519,46.58392140010065));
#241=CARTESIAN_POINT('',(17.529403663289671,79.775663559523665,46.833089179779478));
#242=CARTESIAN_POINT('',(16.048144935813383,77.579287752631302,47.361115684823922));
#243=CARTESIAN_POINT('',(15.210138447760176,76.572313809705008,47.639447239769154));
#244=CARTESIAN_POINT('',(13.428637752545766,74.790813114490589,48.171932557910182));
#245=CARTESIAN_POINT('',(12.42212171373578,73.952928765196702,48.445457798708318));
#246=CARTESIAN_POINT('',(10.225512914876075,72.471266765976324,48.956208746217385));
#247=CARTESIAN_POINT('',(9.035395742357807,71.827374783071093,49.192997687059815));
#248=CARTESIAN_POINT('',(6.544759990966382,70.789356936515375,49.585839860895589));
#249=CARTESIAN_POINT('',(5.241997565895742,70.394405866725279,49.741934137075603));
#250=CARTESIAN_POINT('',(2.613063958517273,69.874648908580085,49.94907853933212));
#251=CARTESIAN_POINT('',(1.286851606312229,69.75,50.0));
#252=CARTESIAN_POINT('',(2.081668E-015,69.75,50.0));
#253=B_SPLINE_CURVE_WITH_KNOTS('',3,(#218,#219,#220,#221,#222,#223,#224,#225,#226,#227,#228,#229,#230,#231,#232,#233,#234,#235,#236,#237,#238,#239,#240,#241,#242,#243,#244,#245,#246,#247,#248,#249,#250,#251,#252),.UNSPECIFIED.,.F.,.U.,(4,2,2,2,2,2,2,2,3,2,2,2,2,2,2,2,4),(9.270283150099809,9.656338631993478,10.042394113887145,10.428449595780812,10.814505077674479,11.200973191622461,11.587441305570444,11.973909419518428,12.36037753346641,12.746845647414393,13.133313761362377,13.519781875310359,13.906249989258342,14.292305471152009,14.678360953045678,15.064416434939346,15.450471916833013),.UNSPECIFIED.);
#254=EDGE_CURVE('',#180,#178,#253,.T.);
#255=ORIENTED_EDGE('',*,*,#254,.T.);
#256=EDGE_LOOP('',(#217,#255));
#257=FACE_BOUND('',#256,.T.);
#258=CARTESIAN_POINT('',(-50.0,0.0,6.123032E-015));
#259=VERTEX_POINT('',#258);
#260=CARTESIAN_POINT('',(0.0,0.0,0.0));
#261=DIRECTION('',(0.0,1.0,0.0));
#262=DIRECTION('',(1.0,0.0,0.0));
#263=AXIS2_PLACEMENT_3D('',#260,#261,#262);
#264=CIRCLE('',#263,50.0);
#265=EDGE_CURVE('',#259,#259,#264,.T.);
#266=ORIENTED_EDGE('',*,*,#265,.T.);
#267=EDGE_LOOP('',(#266));
#268=FACE_BOUND('',#267,.T.);
#269=CARTESIAN_POINT('',(-4.959656E-015,110.25,-50.0));
#270=VERTEX_POINT('',#269);
#271=CARTESIAN_POINT('',(2.479828E-015,69.75,-50.0));
#272=VERTEX_POINT('',#271);
#273=CARTESIAN_POINT('',(2.775558E-016,110.25,-50.0));
#274=CARTESIAN_POINT('',(-1.286851606312223,110.25,-50.0));
#275=CARTESIAN_POINT('',(-2.61306395851726,110.12535109141993,-49.94907853933212));
#276=CARTESIAN_POINT('',(-5.24199756589573,109.60559413327474,-49.741934137075603));
#277=CARTESIAN_POINT('',(-6.544759990966376,109.21064306348462,-49.585839860895589));
#278=CARTESIAN_POINT('',(-9.0353957423578,108.17262521692894,-49.192997687059794));
#279=CARTESIAN_POINT('',(-10.225512914876088,107.52873323402368,-48.956208746217399));
#280=CARTESIAN_POINT('',(-12.422121713735789,106.0470712348033,-48.445457798708333));
#281=CARTESIAN_POINT('',(-13.428637752545765,105.20918688550941,-48.171932557910182));
#282=CARTESIAN_POINT('',(-15.210138447760176,103.42768619029499,-47.639447239769154));
#283=CARTESIAN_POINT('',(-16.048144935813379,102.4207122473687,-47.361115684823929));
#284=CARTESIAN_POINT('',(-17.529403663289663,100.22433644047635,-46.833089179779492));
#285=CARTESIAN_POINT('',(-18.172810487285766,99.03491212833481,-46.58392140010065));
#286=CARTESIAN_POINT('',(-19.21027540794573,96.545681215634801,-46.165768027688543));
#287=CARTESIAN_POINT('',(-19.605155967695836,95.243611319583835,-45.996935921360929));
#288=CARTESIAN_POINT('',(-20.125104448241661,92.614913178169544,-45.77183004659679));
#289=CARTESIAN_POINT('',(-20.25,91.28822704649329,-45.715834237165573));
#290=CARTESIAN_POINT('',(-20.25,88.711772953506738,-45.715834237165573));
#291=CARTESIAN_POINT('',(-20.125104448241665,87.38508682183047,-45.771830046596769));
#292=CARTESIAN_POINT('',(-19.60515596769584,84.756388680416194,-45.996935921360915));
#293=CARTESIAN_POINT('',(-19.21027540794573,83.454318784365199,-46.165768027688543));
#294=CARTESIAN_POINT('',(-18.172810487285766,80.96508787166519,-46.58392140010065));
#295=CARTESIAN_POINT('',(-17.529403663289671,79.775663559523665,-46.833089179779478));
#296=CARTESIAN_POINT('',(-16.048144935813383,77.579287752631302,-47.361115684823922));
#297=CARTESIAN_POINT('',(-15.210138447760176,76.572313809704994,-47.639447239769154));
#298=CARTESIAN_POINT('',(-13.428637752545766,74.790813114490589,-48.171932557910182));
#299=CARTESIAN_POINT('',(-12.42212171373578,73.952928765196702,-48.445457798708318));
#300=CARTESIAN_POINT('',(-10.225512914876075,72.471266765976324,-48.956208746217385));
#301=CARTESIAN_POINT('',(-9.035395742357807,71.827374783071093,-49.192997687059815));
#302=CARTESIAN_POINT('',(-6.544759990966382,70.789356936515375,-49.585839860895589));
#303=CARTESIAN_POINT('',(-5.241997565895742,70.394405866725279,-49.741934137075603));
#304=CARTESIAN_POINT('',(-2.613063958517273,69.874648908580085,-49.94907853933212));
#305=CARTESIAN_POINT('',(-1.286851606312228,69.75,-50.0));
#306=CARTESIAN_POINT('',(-2.220446E-015,69.75,-50.0));
#307=B_SPLINE_CURVE_WITH_KNOTS('',3,(#273,#274,#275,#276,#277,#278,#279,#280,#281,#282,#283,#284,#285,#286,#287,#288,#289,#290,#291,#292,#293,#294,#295,#296,#297,#298,#299,#300,#301,#302,#303,#304,#305,#306),.UNSPECIFIED.,.F.,.U.,(4,2,2,2,2,2,2,2,2,2,2,2,2,2,2,2,4),(-9.270283150099811,-8.884227668206144,-8.498172186312475,-8.112116704418806,-7.726061222525138,-7.339593108577155,-6.953124994629173,-6.566656880681189,-6.180188766733206,-5.793720652785224,-5.40725253883724,-5.020784424889257,-4.634316310941275,-4.248260829047607,-3.862205347153939,-3.476149865260271,-3.090094383366603),.UNSPECIFIED.);
#308=EDGE_CURVE('',#270,#272,#307,.T.);
#309=ORIENTED_EDGE('',*,*,#308,.T.);
#310=CARTESIAN_POINT('',(-2.220446E-015,69.75,-50.0));
#311=CARTESIAN_POINT('',(1.286851606312224,69.75,-50.0));
#312=CARTESIAN_POINT('',(2.613063958517269,69.874648908580085,-49.94907853933212));
#313=CARTESIAN_POINT('',(5.241997565895739,70.394405866725279,-49.741934137075603));
#314=CARTESIAN_POINT('',(6.544759990966378,70.789356936515375,-49.585839860895589));
#315=CARTESIAN_POINT('',(9.035395742357801,71.827374783071093,-49.192997687059815));
#316=CARTESIAN_POINT('',(10.225512914876074,72.471266765976324,-48.956208746217385));
#317=CARTESIAN_POINT('',(12.422121713735779,73.952928765196702,-48.445457798708318));
#318=CARTESIAN_POINT('',(13.428637752545765,74.790813114490589,-48.171932557910182));
#319=CARTESIAN_POINT('',(15.210138447760176,76.572313809705008,-47.639447239769154));
#320=CARTESIAN_POINT('',(16.048144935813383,77.579287752631302,-47.361115684823922));
#321=CARTESIAN_POINT('',(17.529403663289671,79.775663559523665,-46.833089179779478));
#322=CARTESIAN_POINT('',(18.172810487285766,80.96508787166519,-46.58392140010065));
#323=CARTESIAN_POINT('',(19.210275407945726,83.454318784365199,-46.165768027688543));
#324=CARTESIAN_POINT('',(19.60515596769584,84.756388680416194,-45.996935921360915));
#325=CARTESIAN_POINT('',(20.125104448241661,87.385086821830456,-45.771830046596769));
#326=CARTESIAN_POINT('',(20.25,88.711772953506738,-45.715834237165573));
#327=CARTESIAN_POINT('',(20.25,90.0,-45.715834237165573));
#328=CARTESIAN_POINT('',(20.249999999999993,91.288227046493262,-45.715834237165573));
#329=CARTESIAN_POINT('',(20.125104448241661,92.614913178169544,-45.771830046596776));
#330=CARTESIAN_POINT('',(19.605155967695836,95.243611319583835,-45.996935921360922));
#331=CARTESIAN_POINT('',(19.210275407945719,96.545681215634829,-46.16576802768855));
#332=CARTESIAN_POINT('',(18.172810487285748,99.034912128334838,-46.583921400100657));
#333=CARTESIAN_POINT('',(17.529403663289656,100.22433644047635,-46.833089179779478));
#334=CARTESIAN_POINT('',(16.048144935813376,102.4207122473687,-47.361115684823915));
#335=CARTESIAN_POINT('',(15.210138447760178,103.42768619029499,-47.639447239769154));
#336=CARTESIAN_POINT('',(13.428637752545765,105.20918688550941,-48.171932557910182));
#337=CARTESIAN_POINT('',(12.422121713735791,106.0470712348033,-48.445457798708333));
#338=CARTESIAN_POINT('',(10.225512914876099,107.52873323402368,-48.956208746217399));
#339=CARTESIAN_POINT('',(9.035395742357807,108.17262521692889,-49.192997687059815));
#340=CARTESIAN_POINT('',(6.544759990966382,109.21064306348461,-49.585839860895589));
#341=CARTESIAN_POINT('',(5.241997565895737,109.60559413327474,-49.741934137075603));
#342=CARTESIAN_POINT('',(2.61306395851726,110.12535109141993,-49.94907853933212));
#343=CARTESIAN_POINT('',(1.286851606312223,110.25,-50.0));
#344=CARTESIAN_POINT('',(2.775558E-016,110.25,-50.0));
#345=B_SPLINE_CURVE_WITH_KNOTS('',3,(#310,#311,#312,#313,#314,#315,#316,#317,#318,#319,#320,#321,#322,#323,#324,#325,#326,#327,#328,#329,#330,#331,#332,#333,#334,#335,#336,#337,#338,#339,#340,#341,#342,#343,#344),.UNSPECIFIED.,.F.,.U.,(4,2,2,2,2,2,2,2,3,2,2,2,2,2,2,2,4),(-3.090094383366603,-2.704038901472935,-2.317983419579268,-1.9319279376856,-1.545872455791932,-1.159404341843949,-0.772936227895966,-0.386468113947983,0.0,0.386468113947984,0.772936227895967,1.159404341843949,1.545872455791933,1.9319279376856,2.317983419579269,2.704038901472938,3.090094383366605),.UNSPECIFIED.);
#346=EDGE_CURVE('',#272,#270,#345,.T.);
#347=ORIENTED_EDGE('',*,*,#346,.T.);
#348=EDGE_LOOP('',(#309,#347));
#349=FACE_BOUND('',#348,.T.);
#350=ADVANCED_FACE('',(#176,#257,#268,#349),#165,.T.);
#351=CARTESIAN_POINT('',(0.0,90.0,0.0));
#352=DIRECTION('',(0.0,0.0,-1.0));
#353=DIRECTION('',(0.0,1.0,0.0));
#354=AXIS2_PLACEMENT_3D('',#351,#352,#353);
#355=CYLINDRICAL_SURFACE('',#354,20.25);
#356=ORIENTED_EDGE('',*,*,#308,.F.);
#357=ORIENTED_EDGE('',*,*,#346,.F.);
#358=EDGE_LOOP('',(#356,#357));
#359=FACE_OUTER_BOUND('',#358,.T.);
#360=ORIENTED_EDGE('',*,*,#254,.F.);
#361=ORIENTED_EDGE('',*,*,#216,.F.);
#362=EDGE_LOOP('',(#360,#361));
#363=FACE_BOUND('',#362,.T.);
#364=ADVANCED_FACE('',(#359,#363),#355,.F.);
#365=CARTESIAN_POINT('',(25.0,0.0,-6.123032E-015));
#366=DIRECTION('',(0.0,-1.0,0.0));
#367=DIRECTION('',(0.0,0.0,-1.0));
#368=AXIS2_PLACEMENT_3D('',#365,#366,#367);
#369=PLANE('',#368);
#370=ORIENTED_EDGE('',*,*,#265,.F.);
#371=EDGE_LOOP('',(#370));
#372=FACE_OUTER_BOUND('',#371,.T.);
#373=ADVANCED_FACE('',(#372),#369,.T.);
#374=CARTESIAN_POINT('',(49.166666666666707,232.8125,-1.204196E-014));
#375=DIRECTION('',(0.0,1.0,0.0));
#376=DIRECTION('',(0.0,0.0,1.0));
#377=AXIS2_PLACEMENT_3D('',#374,#375,#376);
#378=PLANE('',#377);
#379=ORIENTED_EDGE('',*,*,#173,.T.);
#380=EDGE_LOOP('',(#379));
#381=FACE_OUTER_BOUND('',#380,.T.);
#382=ORIENTED_EDGE('',*,*,#119,.F.);
#383=EDGE_LOOP('',(#382));
#384=FACE_BOUND('',#383,.T.);
#385=ADVANCED_FACE('',(#381,#384),#378,.T.);
#386=CARTESIAN_POINT('',(49.166666666666707,284.375,-1.204196E-014));
#387=DIRECTION('',(0.0,-1.0,0.0));
#388=DIRECTION('',(0.0,0.0,-1.0));
#389=AXIS2_PLACEMENT_3D('',#386,#387,#388);
#390=PLANE('',#389);
#391=ORIENTED_EDGE('',*,*,#91,.F.);
#392=EDGE_LOOP('',(#391));
#393=FACE_OUTER_BOUND('',#392,.T.);
#394=ORIENTED_EDGE('',*,*,#108,.T.);
#395=EDGE_LOOP('',(#394));
#396=FACE_BOUND('',#395,.T.);
#397=ADVANCED_FACE('',(#393,#396),#390,.T.);
#398=CARTESIAN_POINT('',(25.0,300.0,-6.123032E-015));
#399=DIRECTION('',(0.0,1.0,0.0));
#400=DIRECTION('',(0.0,0.0,1.0));
#401=AXIS2_PLACEMENT_3D('',#398,#399,#400);
#402=PLANE('',#401);
#403=ORIENTED_EDGE('',*,*,#80,.T.);
#404=EDGE_LOOP('',(#403));
#405=FACE_OUTER_BOUND('',#404,.T.);
#406=ORIENTED_EDGE('',*,*,#147,.T.);
#407=EDGE_LOOP('',(#406));
#408=FACE_BOUND('',#407,.T.);
#409=ADVANCED_FACE('',(#405,#408),#402,.T.);
#410=CLOSED_SHELL('',(#95,#123,#151,#160,#350,#364,#373,#385,#397,#409));
#411=MANIFOLD_SOLID_BREP('1',#410);
#412=COLOUR_RGB('RGB(237,119,81)',0.800000011920929,0.800000011920929,0.800000011920929);
#413=FILL_AREA_STYLE_COLOUR('RGB(237,119,81)',#412);
#414=FILL_AREA_STYLE('RGB(237,119,81)',(#413));
#415=SURFACE_STYLE_FILL_AREA(#414);
#416=SURFACE_SIDE_STYLE('RGB(237,119,81)',(#415));
#417=SURFACE_STYLE_USAGE(.BOTH.,#416);
#418=PRESENTATION_STYLE_ASSIGNMENT((#417));
#419=STYLED_ITEM('',(#418),#411);
#420=MECHANICAL_DESIGN_GEOMETRIC_PRESENTATION_REPRESENTATION('',(#419),#36);
#421=ADVANCED_BREP_SHAPE_REPRESENTATION('ABSR',(#411),#36);
#422=SHAPE_REPRESENTATION_RELATIONSHIP('SRR','None',#421,#41);
ENDSEC;
END-ISO-10303-21;
