  0
SECTION
  2
HEADER
  9
$ACADVER
  1
AC1014
  9
$ACADMAINTVER
 70
     0
  9
$DWGCODEPAGE
  3
ANSI_1252
  9
$INSBASE
 10
0.0
 20
0.0
 30
0.0
  9
$EXTMIN
 10
316.040821
 20
53.938133
 30
0.0
  9
$EXTMAX
 10
1008.532672
 20
338.911888
 30
0.0
  9
$LIMMIN
 10
0.0
 20
0.0
  9
$LIMMAX
 10
420.0
 20
297.0
  9
$ORTHOMODE
 70
     1
  9
$REGENMODE
 70
     1
  9
$FILLMODE
 70
     1
  9
$QTEXTMODE
 70
     0
  9
$MIRRTEXT
 70
     1
  9
$DRAGMODE
 70
     2
  9
$LTSCALE
 40
1.0
  9
$OSMODE
 70
   109
  9
$ATTMODE
 70
     1
  9
$TEXTSIZE
 40
3.5
  9
$TRACEWID
 40
1.0
  9
$TEXTSTYLE
  7
STANDARD
  9
$CLAYER
  8
MSL-115-P40-S-6
  9
$CELTYPE
  6
BYLAYER
  9
$CECOLOR
 62
   256
  9
$CELTSCALE
 40
1.0
  9
$DELOBJ
 70
     1
  9
$DISPSILH
 70
     0
  9
$DIMSCALE
 40
1.0
  9
$DIMASZ
 40
7.0
  9
$DIMEXO
 40
0.0
  9
$DIMDLI
 40
10.0
  9
$DIMRND
 40
0.0
  9
$DIMDLE
 40
0.0
  9
$DIMEXE
 40
0.0
  9
$DIMTP
 40
0.1
  9
$DIMTM
 40
0.1
  9
$DIMTXT
 40
9.0
  9
$DIMCEN
 40
0.0
  9
$DIMTSZ
 40
0.0
  9
$DIMTOL
 70
     0
  9
$DIMLIM
 70
     0
  9
$DIMTIH
 70
     0
  9
$DIMTOH
 70
     0
  9
$DIMSE1
 70
     0
  9
$DIMSE2
 70
     0
  9
$DIMTAD
 70
     1
  9
$DIMZIN
 70
     8
  9
$DIMBLK
  1

  9
$DIMASO
 70
     1
  9
$DIMSHO
 70
     1
  9
$DIMPOST
  1

  9
$DIMAPOST
  1
"
  9
$DIMALT
 70
     0
  9
$DIMALTD
 70
     2
  9
$DIMALTF
 40
0.03937
  9
$DIMLFAC
 40
1.0
  9
$DIMTOFL
 70
     1
  9
$DIMTVP
 40
0.0
  9
$DIMTIX
 70
     0
  9
$DIMSOXD
 70
     0
  9
$DIMSAH
 70
     0
  9
$DIMBLK1
  1

  9
$DIMBLK2
  1

  9
$DIMSTYLE
  2
MASSBLATT
  9
$DIMCLRD
 70
     5
  9
$DIMCLRE
 70
     5
  9
$DIMCLRT
 70
     5
  9
$DIMTFAC
 40
0.71
  9
$DIMGAP
 40
1.5
  9
$DIMJUST
 70
     0
  9
$DIMSD1
 70
     0
  9
$DIMSD2
 70
     0
  9
$DIMTOLJ
 70
     0
  9
$DIMTZIN
 70
     8
  9
$DIMALTZ
 70
     0
  9
$DIMALTTZ
 70
     0
  9
$DIMFIT
 70
     3
  9
$DIMUPT
 70
     0
  9
$DIMUNIT
 70
     2
  9
$DIMDEC
 70
     2
  9
$DIMTDEC
 70
     2
  9
$DIMALTU
 70
     2
  9
$DIMALTTD
 70
     2
  9
$DIMTXSTY
  7
STANDARD
  9
$DIMAUNIT
 70
     0
  9
$LUNITS
 70
     2
  9
$LUPREC
 70
     4
  9
$SKETCHINC
 40
1.0
  9
$FILLETRAD
 40
0.0
  9
$AUNITS
 70
     0
  9
$AUPREC
 70
     0
  9
$MENU
  1
acad
  9
$ELEVATION
 40
0.0
  9
$PELEVATION
 40
0.0
  9
$THICKNESS
 40
0.0
  9
$LIMCHECK
 70
     0
  9
$BLIPMODE
 70
     0
  9
$CHAMFERA
 40
10.0
  9
$CHAMFERB
 40
10.0
  9
$CHAMFERC
 40
0.0
  9
$CHAMFERD
 40
0.0
  9
$SKPOLY
 70
     0
  9
$TDCREATE
 40
2452401.714449074
  9
$TDUPDATE
 40
2452912.323296863
  9
$TDINDWG
 40
0.2070029282
  9
$TDUSRTIMER
 40
0.2070029282
  9
$USRTIMER
 70
     1
  9
$ANGBASE
 50
0.0
  9
$ANGDIR
 70
     0
  9
$PDMODE
 70
     0
  9
$PDSIZE
 40
0.0
  9
$PLINEWID
 40
0.0
  9
$COORDS
 70
     1
  9
$SPLFRAME
 70
     0
  9
$SPLINETYPE
 70
     6
  9
$SPLINESEGS
 70
     8
  9
$ATTDIA
 70
     1
  9
$ATTREQ
 70
     1
  9
$HANDLING
 70
     1
  9
$HANDSEED
  5
54D2
  9
$SURFTAB1
 70
     6
  9
$SURFTAB2
 70
     6
  9
$SURFTYPE
 70
     6
  9
$SURFU
 70
     6
  9
$SURFV
 70
     6
  9
$UCSNAME
  2

  9
$UCSORG
 10
0.0
 20
0.0
 30
0.0
  9
$UCSXDIR
 10
1.0
 20
0.0
 30
0.0
  9
$UCSYDIR
 10
0.0
 20
1.0
 30
0.0
  9
$PUCSNAME
  2

  9
$PUCSORG
 10
0.0
 20
0.0
 30
0.0
  9
$PUCSXDIR
 10
1.0
 20
0.0
 30
0.0
  9
$PUCSYDIR
 10
0.0
 20
1.0
 30
0.0
  9
$USERI1
 70
     0
  9
$USERI2
 70
     0
  9
$USERI3
 70
     0
  9
$USERI4
 70
     0
  9
$USERI5
 70
     0
  9
$USERR1
 40
0.0
  9
$USERR2
 40
0.0
  9
$USERR3
 40
0.0
  9
$USERR4
 40
0.0
  9
$USERR5
 40
0.0
  9
$WORLDVIEW
 70
     1
  9
$SHADEDGE
 70
     3
  9
$SHADEDIF
 70
    70
  9
$TILEMODE
 70
     1
  9
$MAXACTVP
 70
    16
  9
$PINSBASE
 10
0.0
 20
0.0
 30
0.0
  9
$PLIMCHECK
 70
     0
  9
$PEXTMIN
 10
1.000000E+20
 20
1.000000E+20
 30
1.000000E+20
  9
$PEXTMAX
 10
-1.000000E+20
 20
-1.000000E+20
 30
-1.000000E+20
  9
$PLIMMIN
 10
0.0
 20
0.0
  9
$PLIMMAX
 10
420.0
 20
297.0
  9
$UNITMODE
 70
     0
  9
$VISRETAIN
 70
     0
  9
$PLINEGEN
 70
     0
  9
$PSLTSCALE
 70
     1
  9
$TREEDEPTH
 70
  3020
  9
$PICKSTYLE
 70
     0
  9
$CMLSTYLE
  2
STANDARD
  9
$CMLJUST
 70
     0
  9
$CMLSCALE
 40
1.0
  9
$PROXYGRAPHICS
 70
     1
  9
$MEASUREMENT
 70
     1
  0
ENDSEC
  0
SECTION
  2
CLASSES
  0
CLASS
  1
LWPOLYLINE
  2
AcDbPolyline
  3
"AutoCAD"
 90
        0
280
     0
281
     1
  0
CLASS
  1
XRECORD
  2
AcDbXrecord
  3
"<Built In>"
 90
        0
280
     0
281
     0
  0
CLASS
  1
OLE2FRAME
  2
AcDbOle2Frame
  3
""
 90
        0
280
     0
281
     1
  0
CLASS
  1
ACDBDICTIONARYWDFLT
  2
AcDbDictionaryWithDefault
  3
AutoCAD 2000
 90
        0
280
     0
281
     0
  0
CLASS
  1
ACDBPLACEHOLDER
  2
AcDbPlaceHolder
  3
AutoCAD 2000
 90
        0
280
     0
281
     0
  0
CLASS
  1
LAYOUT
  2
AcDbLayout
  3
AutoCAD 2000
 90
        0
280
     0
281
     0
  0
CLASS
  1
ACME_DOCUMENT
  2
AcMeDbDoc
  3
AcMeServices
 90
        0
280
     0
281
     0
  0
CLASS
  1
AMGSETTINGSOBJ
  2
AmgSettingsObj
  3
"AcadM|Product Description: AutoCAD Mechanical 2000|Company: Autodesk"
 90
        0
280
     0
281
     0
  0
CLASS
  1
AMGOBJPROPCFG
  2
AmgObjPropCfg
  3
"AmgLay|Product Description: AutoCAD Mechanical 2000|Company: Autodesk"
 90
        1
280
     0
281
     0
  0
CLASS
  1
ACMESCOPE
  2
AcMeScope
  3
AcMeServices
 90
        0
280
     0
281
     0
  0
CLASS
  1
ACMECOMMANDHISTORY
  2
AcMeCommandHistory
  3
AcMeServices
 90
        0
280
     0
281
     0
  0
CLASS
  1
DICTIONARYVAR
  2
AcDbDictionaryVar
  3
"AutoCAD"
 90
        0
280
     0
281
     0
  0
CLASS
  1
ACIMSYSVARMAN
  2
AcImSysVarManager
  3
AcMeServices
 90
        0
280
     0
281
     0
  0
CLASS
  1
ACIMREALSYSVAR
  2
AcImRealSysVar
  3
AcMeServices
 90
        0
280
     0
281
     0
  0
CLASS
  1
ACIMINTSYSVAR
  2
AcImIntSysVar
  3
AcMeServices
 90
        0
280
     0
281
     0
  0
CLASS
  1
ACMEDRAWINGMAN
  2
AcMeDrawingMan
  3
AcMeServices
 90
        0
280
     0
281
     0
  0
CLASS
  1
ACMEVIEW
  2
AcMeView
  3
AcMeServices
 90
        0
280
     0
281
     0
  0
CLASS
  1
ACDBENTITYCACHE
  2
AcMeEntityCache
  3
AcMeServices
 90
        0
280
     0
281
     0
  0
CLASS
  1
GSMANAGER
  2
AcMeGSManager
  3
AcMeServices
 90
        0
280
     0
281
     0
  0
CLASS
  1
AMDTINTERNALREACTOR
  2
AmdtInternalReactor
  3
AcMeServices
 90
        0
280
     0
281
     0
  0
CLASS
  1
ACMESTATEMGR
  2
AcMeStateMgr
  3
AcMeServices
 90
        0
280
     0
281
     0
  0
CLASS
  1
ACGREFMASTER
  2
AcGrefMaster
  3
AcAttribServices
 90
        0
280
     0
281
     0
  0
CLASS
  1
ACME_DATABASE
  2
AcMeDbDatabase
  3
AcMeServices
 90
        0
280
     0
281
     0
  0
CLASS
  1
ACRFINSADJUSTERMGR
  2
AcRfInsAdjusterMgr
  3
AcMeServices
 90
        0
280
     0
281
     0
  0
CLASS
  1
ACGREFMASTER
  2
AcGrefacadMaster
  3
AcGrefServices
 90
        0
280
     0
281
     0
  0
CLASS
  1
AMIMASTER
  2
AmiMaster
  3
AmiServices
 90
        0
280
     0
281
     0
  0
CLASS
  1
ACMDATADICTIONARY
  2
AcmDataDictionary
  3
"AcmSymBB|Product Description: AutoCAD Mechanical 2000|Company: Autodesk"
 90
        0
280
     0
281
     0
  0
CLASS
  1
ACMDATAENTRYBLOCK
  2
AcmDataEntryBlock
  3
"AcmSymBB|Product Description: AutoCAD Mechanical 2000|Company: Autodesk"
 90
        0
280
     0
281
     0
  0
CLASS
  1
ACMSTANDARDISO
  2
AcmStandardISO
  3
"Amdt_StdImp|Product Description: AutoCAD Mechanical 2000|Company: Autodesk"
 90
        0
280
     0
281
     0
  0
CLASS
  1
AMDTEDGESTANDARDISO
  2
AmdtEdgeStdISO
  3
"Amdt_StdImp|Product Description: AutoCAD Mechanical 2000|Company: Autodesk"
 90
        0
280
     0
281
     0
  0
CLASS
  1
ACMSURFSTANDARDISO
  2
AcmSurfTextStdISO
  3
"Amdt_StdImp|Product Description: AutoCAD Mechanical 2000|Company: Autodesk"
 90
        0
280
     0
281
     0
  0
CLASS
  1
ACMFCFSTANDARDISO
  2
AcmFCFStdISO
  3
"Amdt_StdImp|Product Description: AutoCAD Mechanical 2000|Company: Autodesk"
 90
        0
280
     0
281
     0
  0
CLASS
  1
ACMWELDSTANDARDISO
  2
AcmWeldingStdISO
  3
"Amdt_StdImp|Product Description: AutoCAD Mechanical 2000|Company: Autodesk"
 90
        0
280
     0
281
     0
  0
CLASS
  1
ACMIDSTANDARDISO
  2
AcmIdStdISO
  3
"Amdt_StdImp|Product Description: AutoCAD Mechanical 2000|Company: Autodesk"
 90
        0
280
     0
281
     0
  0
CLASS
  1
ACMDATUMSTANDARDISO
  2
AcmDatumStdISO
  3
"Amdt_StdImp|Product Description: AutoCAD Mechanical 2000|Company: Autodesk"
 90
        0
280
     0
281
     0
  0
CLASS
  1
ACMBOMSTANDARDISO
  2
AcmBOMStdISO
  3
"Amdt_StdImp|Product Description: AutoCAD Mechanical 2000|Company: Autodesk"
 90
        0
280
     0
281
     0
  0
CLASS
  1
"AcAmgLayStd"
  2
AcAmgLayStd
  3
"AcAmgLayStd|Product Description: AutoCAD Mechanical 2000|Company: Autodesk"
 90
        0
280
     0
281
     0
  0
CLASS
  1
"AcAmgDimStd"
  2
AcAmgDimStd
  3
"AcAmgDimStd|Product Description: AutoCAD Mechanical 2000|Company: Autodesk"
 90
        0
280
     0
281
     0
  0
CLASS
  1
AcAmgTitleStd
  2
AcAmgTitleStd
  3
"TITLEAPP"
 90
        0
280
     0
281
     0
  0
CLASS
  1
ACMDETAILSTANDARDISO
  2
AmdtDetailSymStdISO
  3
"Amdt_StdImp|Product Description: AutoCAD Mechanical 2000|Company: Autodesk"
 90
        0
280
     0
281
     0
  0
CLASS
  1
ACMSECTIONSTANDARDISO
  2
AmdtSectionSymStdISO
  3
"Amdt_StdImp|Product Description: AutoCAD Mechanical 2000|Company: Autodesk"
 90
        0
280
     0
281
     0
  0
CLASS
  1
ACMCENTERLINESTANDARDISO
  2
AmdtCenterLineStdISO
  3
"Amdt_StdImp|Product Description: AutoCAD Mechanical 2000|Company: Autodesk"
 90
        0
280
     0
281
     0
  0
CLASS
  1
ACMTHREADLINESTANDARDISO
  2
AmdtThreadLineStdISO
  3
"Amdt_StdImp|Product Description: AutoCAD Mechanical 2000|Company: Autodesk"
 90
        0
280
     0
281
     0
  0
CLASS
  1
ACIMSTRSYSVAR
  2
AcImStrSysVar
  3
AcMeServices
 90
        0
280
     0
281
     0
  0
CLASS
  1
ACAMGFILTERDAT
  2
AcAmgFilterDat
  3
"AcadM|Product Description: AutoCAD Mechanical 2000|Company: Autodesk"
 90
        0
280
     0
281
     0
  0
CLASS
  1
LAYER_INDEX
  2
AcDbLayerIndex
  3
"Acad"
 90
        0
280
     0
281
     0
  0
CLASS
  1
IDBUFFER
  2
AcDbIdBuffer
  3
"Acad"
 90
        0
280
     0
281
     0
  0
CLASS
  1
LONG_TRANSACTION
  2
AcDbLongTransaction
  3
AutoCAD 2000
 90
        0
280
     0
281
     0
  0
CLASS
  1
LWPOLYLINE
  2
AcDbPolyline
  3
"AutoCAD"
 90
        0
280
     0
281
     1
  0
CLASS
  1
HATCH
  2
AcDbHatch
  3
"ACAD_SEDONA"
 90
        0
280
     0
281
     1
  0
CLASS
  1
XRECORD
  2
AcDbXrecord
  3
"<Built In>"
 90
        0
280
     0
281
     0
  0
ENDSEC
  0
SECTION
  2
TABLES
  0
TABLE
  2
VPORT
  5
8
100
AcDbSymbolTable
 70
     1
  0
VPORT
  5
5475
102
{ACAD_XDICTIONARY
360
5482
102
}
100
AcDbSymbolTableRecord
100
AcDbViewportTableRecord
  2
*ACTIVE
 70
     0
 10
0.0
 20
0.0
 11
1.0
 21
1.0
 12
662.272765
 22
196.424718
 13
0.0
 23
0.0
 14
1.0
 24
1.0
 15
10.0
 25
10.0
 16
0.0
 26
0.0
 36
1.0
 17
0.0
 27
0.0
 37
0.0
 40
469.970359
 41
1.482168
 42
50.0
 43
0.0
 44
0.0
 50
0.0
 51
0.0
 71
     0
 72
   100
 73
     1
 74
     0
 75
     0
 76
     0
 77
     0
 78
     0
  0
ENDTAB
  0
TABLE
  2
LTYPE
  5
5
100
AcDbSymbolTable
 70
    14
  0
LTYPE
  5
12
100
AcDbSymbolTableRecord
100
AcDbLinetypeTableRecord
  2
BYBLOCK
 70
     0
  3

 72
    65
 73
     0
 40
0.0
  0
LTYPE
  5
13
100
AcDbSymbolTableRecord
100
AcDbLinetypeTableRecord
  2
BYLAYER
 70
     0
  3

 72
    65
 73
     0
 40
0.0
  0
LTYPE
  5
14
100
AcDbSymbolTableRecord
100
AcDbLinetypeTableRecord
  2
CONTINUOUS
 70
     0
  3
Solid line
 72
    65
 73
     0
 40
0.0
  0
LTYPE
  5
1E
100
AcDbSymbolTableRecord
100
AcDbLinetypeTableRecord
  2
GEN3A
 70
     0
  3
 - - - - -
 72
    65
 73
     2
 40
3.1
 49
2.5
 74
     0
 49
-0.6
 74
     0
  0
LTYPE
  5
20
100
AcDbSymbolTableRecord
100
AcDbLinetypeTableRecord
  2
GEN7A
 70
     0
  3
__ . __ . __
 72
    65
 73
     4
 40
7.5
 49
5.0
 74
     0
 49
-1.25
 74
     0
 49
0.0
 74
     0
 49
-1.25
 74
     0
  0
LTYPE
  5
385E
100
AcDbSymbolTableRecord
100
AcDbLinetypeTableRecord
  2
AM_ISO08W050
 70
     0
  3
____ . ____ . ____ . ____ . ____ . ____ . ____
 72
    65
 73
     4
 40
18.0
 49
12.0
 74
     0
 49
-1.5
 74
     0
 49
3.0
 74
     0
 49
-1.5
 74
     0
  0
LTYPE
  5
521A
100
AcDbSymbolTableRecord
100
AcDbLinetypeTableRecord
  2
AM_ISO02W050
 70
     0
  3
__ __ __ __ __ __ __ __ __ __ __ __ __ __ __
 72
    65
 73
     2
 40
7.5
 49
6.0
 74
     0
 49
-1.5
 74
     0
  0
LTYPE
  5
521B
100
AcDbSymbolTableRecord
100
AcDbLinetypeTableRecord
  2
AM_ISO09W050
 70
     0
  3
_____ . . _____ . . _____ . . ____ .. ____
 72
    65
 73
     6
 40
22.5
 49
12.0
 74
     0
 49
-1.5
 74
     0
 49
3.0
 74
     0
 49
-1.5
 74
     0
 49
3.0
 74
     0
 49
-1.5
 74
     0
  0
LTYPE
  5
521C
102
{ACAD_XDICTIONARY
360
547A
102
}
100
AcDbSymbolTableRecord
100
AcDbLinetypeTableRecord
  2
AMCONSTR
 70
     0
  3
_______________________
 72
    65
 73
     2
 40
9999.0
 49
9999.0
 74
     0
 49
0.0
 74
     0
  0
LTYPE
  5
521D
102
{ACAD_XDICTIONARY
360
547C
102
}
100
AcDbSymbolTableRecord
100
AcDbLinetypeTableRecord
  2
AM_ISO02W050X2
 70
     0
  3
 _ _ _ _ _ _ _ _ _ _ _ _
 72
    65
 73
     2
 40
3.75
 49
3.0
 74
     0
 49
-0.75
 74
     0
  0
LTYPE
  5
521E
102
{ACAD_XDICTIONARY
360
547E
102
}
100
AcDbSymbolTableRecord
100
AcDbLinetypeTableRecord
  2
AM_ISO08W050X2
 70
     0
  3
__ . __ . __ . __ . __ . __
 72
    65
 73
     4
 40
9.0
 49
6.0
 74
     0
 49
-0.75
 74
     0
 49
1.5
 74
     0
 49
-0.75
 74
     0
  0
LTYPE
  5
521F
102
{ACAD_XDICTIONARY
360
5480
102
}
100
AcDbSymbolTableRecord
100
AcDbLinetypeTableRecord
  2
AMZIGZAG
 70
     0
  3
/\/-/\/-/\/-/\/-/\/-/\/
 72
    65
 73
     2
 40
11.0001
 49
0.0001
 74
     4
 75
   135
340
5220
 46
0.04
 50
0.0
 44
0.0
 45
0.0
 49
-11.0
 74
     0
  0
LTYPE
  5
5248
100
AcDbSymbolTableRecord
100
AcDbLinetypeTableRecord
  2
ACISOWELD
 70
     0
  3
_ _ _ _ _
 72
    65
 73
     2
 40
2.0
 49
2.0
 74
     0
 49
-1.0
 74
     0
  0
LTYPE
  5
524B
100
AcDbSymbolTableRecord
100
AcDbLinetypeTableRecord
  2
ACISOTGB
 70
     0
  3
__ . . __ . .
 72
    65
 73
     6
 40
9.0
 49
4.0
 74
     0
 49
-1.0
 74
     0
 49
1.0
 74
     0
 49
-1.0
 74
     0
 49
1.0
 74
     0
 49
-1.0
 74
     0
  0
LTYPE
  5
524C
100
AcDbSymbolTableRecord
100
AcDbLinetypeTableRecord
  2
ACISOTGL
 70
     0
  3
_ _ _ _ _
 72
    65
 73
     2
 40
3.0
 49
2.0
 74
     0
 49
-1.0
 74
     0
  0
LTYPE
  5
52B5
100
AcDbSymbolTableRecord
100
AcDbLinetypeTableRecord
  2
CENTER
 70
     0
  3
__ . __
 72
    65
 73
     4
 40
7.0
 49
4.0
 74
     0
 49
-1.0
 74
     0
 49
1.0
 74
     0
 49
-1.0
 74
     0
  0
ENDTAB
  0
TABLE
  2
LAYER
  5
2
100
AcDbSymbolTable
 70
     8
  0
LAYER
  5
F
100
AcDbSymbolTableRecord
100
AcDbLayerTableRecord
  2
0
 70
     0
 62
     7
  6
CONTINUOUS
  0
LAYER
  5
386B
102
{ACAD_XDICTIONARY
360
54A9
102
}
100
AcDbSymbolTableRecord
100
AcDbLayerTableRecord
  2
MSL-115-P40-S-0
 70
     0
 62
     7
  6
CONTINUOUS
  0
LAYER
  5
386E
102
{ACAD_XDICTIONARY
360
54AB
102
}
100
AcDbSymbolTableRecord
100
AcDbLayerTableRecord
  2
MSL-115-P40-S-5
 70
     0
 62
     3
  6
CONTINUOUS
  0
LAYER
  5
3874
102
{ACAD_XDICTIONARY
360
54AD
102
}
100
AcDbSymbolTableRecord
100
AcDbLayerTableRecord
  2
MSL-115-P40-S-7
 70
     0
 62
     4
  6
GEN7A
  0
LAYER
  5
4A4F
100
AcDbSymbolTableRecord
100
AcDbLayerTableRecord
  2
MSL-115-R32-S-3A
 70
     0
 62
     6
  6
GEN3A
  0
LAYER
  5
51E6
100
AcDbSymbolTableRecord
100
AcDbLayerTableRecord
  2
MSL-115-P40-S-6
 70
     0
 62
     2
  6
CONTINUOUS
  0
LAYER
  5
51FC
102
{ACAD_XDICTIONARY
360
5478
102
}
100
AcDbSymbolTableRecord
100
AcDbLayerTableRecord
  2
DEFPOINTS
 70
     0
 62
     7
  6
CONTINUOUS
  0
LAYER
  5
5251
102
{ACAD_XDICTIONARY
360
54BB
102
}
100
AcDbSymbolTableRecord
100
AcDbLayerTableRecord
  2
AM_BOR
 70
     0
 62
     7
  6
CONTINUOUS
  0
ENDTAB
  0
TABLE
  2
STYLE
  5
3
100
AcDbSymbolTable
 70
     5
  0
STYLE
  5
10
100
AcDbSymbolTableRecord
100
AcDbTextStyleTableRecord
  2
STANDARD
 70
     0
 40
0.0
 41
1.0
 50
0.0
 71
     0
 42
3.5
  3
ISOCP.SHX
  4

  0
STYLE
  5
3880
100
AcDbSymbolTableRecord
100
AcDbTextStyleTableRecord
  2
ACISOTS
 70
     0
 40
1.0
 41
1.0
 50
0.0
 71
     0
 42
2.5
  3
isocp.shx
  4

  0
STYLE
  5
3881
100
AcDbSymbolTableRecord
100
AcDbTextStyleTableRecord
  2
ACDINTS
 70
     0
 40
1.0
 41
1.0
 50
0.0
 71
     0
 42
3.5
  3
isocp.shx
  4

  0
STYLE
  5
5220
100
AcDbSymbolTableRecord
100
AcDbTextStyleTableRecord
  2

 70
     1
 40
0.0
 41
1.0
 50
0.0
 71
     0
 42
2.5
  3
ltypeshp.shx
  4

  0
STYLE
  5
5246
100
AcDbSymbolTableRecord
100
AcDbTextStyleTableRecord
  2
ACISOGDT
 70
     0
 40
0.0
 41
1.0
 50
0.0
 71
     0
 42
2.5
  3
amgdt.shx
  4

  0
ENDTAB
  0
TABLE
  2
VIEW
  5
6
100
AcDbSymbolTable
 70
     0
  0
ENDTAB
  0
TABLE
  2
UCS
  5
7
100
AcDbSymbolTable
 70
     0
  0
ENDTAB
  0
TABLE
  2
APPID
  5
9
100
AcDbSymbolTable
 70
    28
  0
APPID
  5
11
100
AcDbSymbolTableRecord
100
AcDbRegAppTableRecord
  2
ACAD
 70
     0
  0
APPID
  5
3885
100
AcDbSymbolTableRecord
100
AcDbRegAppTableRecord
  2
GENIUS_GENOREF_13
 70
     0
  0
APPID
  5
3886
100
AcDbSymbolTableRecord
100
AcDbRegAppTableRecord
  2
GENIUS_GENDTOL_13
 70
     0
  0
APPID
  5
508D
100
AcDbSymbolTableRecord
100
AcDbRegAppTableRecord
  2
CONTENTBLOCKICON
 70
     0
  0
APPID
  5
51FD
100
AcDbSymbolTableRecord
100
AcDbRegAppTableRecord
  2
GENIUS_GENOENT_13
 70
     0
  0
APPID
  5
51FE
100
AcDbSymbolTableRecord
100
AcDbRegAppTableRecord
  2
GENIUS_GENCFG_13
 70
     0
  0
APPID
  5
51FF
100
AcDbSymbolTableRecord
100
AcDbRegAppTableRecord
  2
GENIUS_GEVCFG0_13
 70
     0
  0
APPID
  5
5200
100
AcDbSymbolTableRecord
100
AcDbRegAppTableRecord
  2
GENIUS_GENCFG0_13
 70
     0
  0
APPID
  5
5201
100
AcDbSymbolTableRecord
100
AcDbRegAppTableRecord
  2
GENIUS_GENCFG1_13
 70
     0
  0
APPID
  5
5202
100
AcDbSymbolTableRecord
100
AcDbRegAppTableRecord
  2
GENIUS_GENCFG2_13
 70
     0
  0
APPID
  5
5203
100
AcDbSymbolTableRecord
100
AcDbRegAppTableRecord
  2
GENIUS_GENCFG3_13
 70
     0
  0
APPID
  5
5204
100
AcDbSymbolTableRecord
100
AcDbRegAppTableRecord
  2
GENIUS_GENCFG4_13
 70
     0
  0
APPID
  5
5205
100
AcDbSymbolTableRecord
100
AcDbRegAppTableRecord
  2
GENIUS_GEFCFG0_13
 70
     0
  0
APPID
  5
5206
100
AcDbSymbolTableRecord
100
AcDbRegAppTableRecord
  2
MCAD_NO_VIS
 70
     0
  0
APPID
  5
5207
100
AcDbSymbolTableRecord
100
AcDbRegAppTableRecord
  2
ACAD_TEMP_GRAPHIC
 70
     0
  0
APPID
  5
5208
100
AcDbSymbolTableRecord
100
AcDbRegAppTableRecord
  2
GENIUS_GENODEF_13
 70
     0
  0
APPID
  5
5209
100
AcDbSymbolTableRecord
100
AcDbRegAppTableRecord
  2
GENIUS_GENOBJ-N-TIT_13
 70
     0
  0
APPID
  5
520A
100
AcDbSymbolTableRecord
100
AcDbRegAppTableRecord
  2
GENIUS_GENTITLE_13
 70
     0
  0
APPID
  5
520B
100
AcDbSymbolTableRecord
100
AcDbRegAppTableRecord
  2
GENIUS_GENOLIS_13
 70
     0
  0
APPID
  5
520C
100
AcDbSymbolTableRecord
100
AcDbRegAppTableRecord
  2
GENIUS_GENZVEED_13
 70
     0
  0
APPID
  5
520D
100
AcDbSymbolTableRecord
100
AcDbRegAppTableRecord
  2
GENIUS_GENSCREG_15
 70
     0
  0
APPID
  5
520E
100
AcDbSymbolTableRecord
100
AcDbRegAppTableRecord
  2
GENIUS_GENOBJ-N-SDF_13
 70
     0
  0
APPID
  5
520F
100
AcDbSymbolTableRecord
100
AcDbRegAppTableRecord
  2
GENIUS_GENREC_14
 70
     0
  0
APPID
  5
5210
100
AcDbSymbolTableRecord
100
AcDbRegAppTableRecord
  2
GENIUS_GENOBJ-N-REC_13
 70
     0
  0
APPID
  5
5211
100
AcDbSymbolTableRecord
100
AcDbRegAppTableRecord
  2
GENIUS_GENBLLY_14
 70
     0
  0
APPID
  5
5212
100
AcDbSymbolTableRecord
100
AcDbRegAppTableRecord
  2
GENIUS_GENDIMSH_14
 70
     0
  0
APPID
  5
5213
100
AcDbSymbolTableRecord
100
AcDbRegAppTableRecord
  2
ACATTRIBSERVICES
 70
     0
  0
APPID
  5
5214
100
AcDbSymbolTableRecord
100
AcDbRegAppTableRecord
  2
DCO15
 70
     0
  0
ENDTAB
  0
TABLE
  2
DIMSTYLE
  5
A
100
AcDbSymbolTable
 70
     8
  0
DIMSTYLE
105
3882
102
{ACAD_XDICTIONARY
360
5476
102
}
100
AcDbSymbolTableRecord
100
AcDbDimStyleTableRecord
  2
MASSBLATT
 70
     0
  3

  4
"
  5

  6

  7

 40
1.0
 41
7.0
 42
0.0
 43
10.0
 44
0.0
 45
0.0
 46
0.0
 47
0.1
 48
0.1
140
9.0
141
0.0
142
0.0
143
0.03937
144
1.0
145
0.0
146
0.71
147
1.5
 71
     0
 72
     0
 73
     0
 74
     0
 75
     0
 76
     0
 77
     1
 78
     8
170
     0
171
     2
172
     1
173
     0
174
     0
175
     0
176
     5
177
     5
178
     5
270
     2
271
     2
272
     2
273
     2
274
     2
340
10
275
     0
280
     0
281
     0
282
     0
283
     0
284
     8
285
     0
286
     0
287
     3
288
     0
  0
DIMSTYLE
105
52A7
102
{ACAD_XDICTIONARY
360
54BE
102
}
100
AcDbSymbolTableRecord
100
AcDbDimStyleTableRecord
  2
AM_ISO
 70
     0
  3

  4
"
  5

  6

  7

 40
1.0
 41
2.5
 42
1.0
 43
10.0
 44
1.0
 45
0.0
 46
0.0
 47
0.1
 48
0.1
140
3.5
141
0.0
142
0.0
143
0.03937
144
1.0
145
0.0
146
0.71
147
1.5
 71
     0
 72
     0
 73
     0
 74
     0
 75
     0
 76
     0
 77
     1
 78
     8
170
     0
171
     2
172
     1
173
     0
174
     0
175
     0
176
   256
177
   256
178
     2
270
     2
271
     2
272
     2
273
     2
274
     2
340
10
275
     0
280
     0
281
     0
282
     0
283
     0
284
     8
285
     0
286
     0
287
     3
288
     0
  0
DIMSTYLE
105
52A8
102
{ACAD_XDICTIONARY
360
54C0
102
}
100
AcDbSymbolTableRecord
100
AcDbDimStyleTableRecord
  2
AM_ISO$3
 70
     0
  3

  4
"
  5

  6

  7

 40
1.0
 41
2.5
 42
1.0
 43
10.0
 44
1.0
 45
0.0
 46
0.0
 47
0.1
 48
0.1
140
3.5
141
0.0
142
0.0
143
0.03937
144
1.0
145
0.0
146
0.71
147
1.5
 71
     0
 72
     0
 73
     0
 74
     1
 75
     0
 76
     0
 77
     1
 78
     8
170
     0
171
     2
172
     0
173
     0
174
     0
175
     0
176
   256
177
   256
178
     2
270
     2
271
     2
272
     3
273
     2
274
     4
340
10
275
     0
280
     0
281
     0
282
     0
283
     0
284
     0
285
     0
286
     0
287
     0
288
     1
  0
DIMSTYLE
105
52A9
102
{ACAD_XDICTIONARY
360
54C2
102
}
100
AcDbSymbolTableRecord
100
AcDbDimStyleTableRecord
  2
AM_ISO$4
 70
     0
  3

  4
"
  5

  6

  7

 40
1.0
 41
2.5
 42
1.0
 43
10.0
 44
1.0
 45
0.0
 46
0.0
 47
0.1
 48
0.1
140
3.5
141
0.0
142
0.0
143
0.03937
144
1.0
145
0.0
146
0.71
147
1.5
 71
     0
 72
     0
 73
     0
 74
     1
 75
     0
 76
     0
 77
     1
 78
     8
170
     0
171
     2
172
     0
173
     0
174
     0
175
     0
176
   256
177
   256
178
     2
270
     2
271
     2
272
     2
273
     2
274
     2
340
10
275
     0
280
     0
281
     0
282
     0
283
     0
284
     0
285
     0
286
     0
287
     3
288
     1
  0
DIMSTYLE
105
52AA
102
{ACAD_XDICTIONARY
360
54C4
102
}
100
AcDbSymbolTableRecord
100
AcDbDimStyleTableRecord
  2
AM_ISO$6
 70
     0
  3

  4
"
  5

  6

  7

 40
1.0
 41
2.5
 42
1.0
 43
10.0
 44
1.0
 45
0.0
 46
0.0
 47
0.1
 48
0.1
140
3.5
141
0.0
142
0.0
143
0.03937
144
1.0
145
0.0
146
0.71
147
1.5
 71
     0
 72
     0
 73
     0
 74
     0
 75
     0
 76
     0
 77
     0
 78
     8
170
     0
171
     2
172
     1
173
     0
174
     0
175
     0
176
   256
177
   256
178
     2
270
     2
271
     2
272
     3
273
     2
274
     4
340
10
275
     0
280
     0
281
     0
282
     0
283
     0
284
     0
285
     0
286
     0
287
     3
288
     0
  0
DIMSTYLE
105
52AB
102
{ACAD_XDICTIONARY
360
54C6
102
}
100
AcDbSymbolTableRecord
100
AcDbDimStyleTableRecord
  2
AM_ISO$7
 70
     0
  3

  4
"
  5

  6

  7

 40
1.0
 41
2.5
 42
1.0
 43
10.0
 44
1.0
 45
0.0
 46
0.0
 47
0.1
 48
0.1
140
5.0
141
0.0
142
0.0
143
0.03937
144
1.0
145
0.0
146
0.71
147
1.5
 71
     0
 72
     0
 73
     0
 74
     0
 75
     0
 76
     0
 77
     1
 78
     8
170
     0
171
     2
172
     1
173
     0
174
     0
175
     0
176
   256
177
   256
178
     2
270
     2
271
     2
272
     3
273
     2
274
     4
340
10
275
     0
280
     0
281
     0
282
     0
283
     0
284
     0
285
     0
286
     0
287
     3
288
     0
  0
DIMSTYLE
105
52AC
102
{ACAD_XDICTIONARY
360
54C8
102
}
100
AcDbSymbolTableRecord
100
AcDbDimStyleTableRecord
  2
AM_ISO$SF
 70
     0
  3

  4
"
  5

  6

  7

 40
1.0
 41
2.5
 42
1.0
 43
10.0
 44
1.0
 45
0.0
 46
0.0
 47
0.1
 48
0.1
140
3.5
141
0.0
142
0.0
143
0.03937
144
1.0
145
0.0
146
0.71
147
1.5
 71
     0
 72
     0
 73
     0
 74
     0
 75
     1
 76
     1
 77
     1
 78
     8
170
     0
171
     2
172
     1
173
     0
174
     0
175
     0
176
   256
177
   256
178
     2
270
     2
271
     2
272
     3
273
     2
274
     4
340
10
275
     0
280
     0
281
     0
282
     0
283
     0
284
     0
285
     0
286
     0
287
     3
288
     0
  0
DIMSTYLE
105
52AD
102
{ACAD_XDICTIONARY
360
54CA
102
}
100
AcDbSymbolTableRecord
100
AcDbDimStyleTableRecord
  2
AM_ISO$SH
 70
     0
  3

  4
"
  5

  6
GENAXEH
  7

 40
1.0
 41
2.5
 42
1.0
 43
10.0
 44
1.0
 45
0.0
 46
0.0
 47
0.1
 48
0.1
140
3.5
141
0.0
142
0.0
143
0.03937
144
2.0
145
0.0
146
0.71
147
1.5
 71
     0
 72
     0
 73
     0
 74
     0
 75
     1
 76
     1
 77
     1
 78
     8
170
     0
171
     2
172
     1
173
     1
174
     0
175
     0
176
   256
177
   256
178
     2
270
     2
271
     2
272
     3
273
     2
274
     4
340
10
275
     0
280
     0
281
     0
282
     0
283
     0
284
     0
285
     0
286
     0
287
     3
288
     0
  0
ENDTAB
  0
TABLE
  2
BLOCK_RECORD
  5
1
100
AcDbSymbolTable
 70
     5
  0
BLOCK_RECORD
  5
18
102
{ACAD_XDICTIONARY
360
546A
102
}
100
AcDbSymbolTableRecord
100
AcDbBlockTableRecord
  2
*MODEL_SPACE
  0
BLOCK_RECORD
  5
15
102
{ACAD_XDICTIONARY
360
54A6
102
}
100
AcDbSymbolTableRecord
100
AcDbBlockTableRecord
  2
*PAPER_SPACE
  0
BLOCK_RECORD
  5
524E
100
AcDbSymbolTableRecord
100
AcDbBlockTableRecord
  2
GENTPOS0
  0
BLOCK_RECORD
  5
526A
100
AcDbSymbolTableRecord
100
AcDbBlockTableRecord
  2
GENTPOS1
  0
BLOCK_RECORD
  5
5277
100
AcDbSymbolTableRecord
100
AcDbBlockTableRecord
  2
GENTPOS2
1001
CONTENTBLOCKICON
1071
        0
1004
2800000020000000200000000100080000000000000400000000000000000000000000000000000000000000000080000080000000808000800000008000800080800000C0C0C000C0DCC000F0CAA6000020400000206000002080000020A0000020C0000020E00000400000004020000040400000406000004080000040A0
1004
000040C0000040E00000600000006020000060400000606000006080000060A0000060C0000060E00000800000008020000080400000806000008080000080A0000080C0000080E00000A0000000A0200000A0400000A0600000A0800000A0A00000A0C00000A0E00000C0000000C0200000C0400000C0600000C0800000C0
1004
A00000C0C00000C0E00000E0000000E0200000E0400000E0600000E0800000E0A00000E0C00000E0E00040000000400020004000400040006000400080004000A0004000C0004000E00040200000402020004020400040206000402080004020A0004020C0004020E000404000004040200040404000404060004040800040
1004
40A0004040C0004040E00040600000406020004060400040606000406080004060A0004060C0004060E00040800000408020004080400040806000408080004080A0004080C0004080E00040A0000040A0200040A0400040A0600040A0800040A0A00040A0C00040A0E00040C0000040C0200040C0400040C0600040C08000
1004
40C0A00040C0C00040C0E00040E0000040E0200040E0400040E0600040E0800040E0A00040E0C00040E0E00080000000800020008000400080006000800080008000A0008000C0008000E00080200000802020008020400080206000802080008020A0008020C0008020E00080400000804020008040400080406000804080
1004
008040A0008040C0008040E00080600000806020008060400080606000806080008060A0008060C0008060E00080800000808020008080400080806000808080008080A0008080C0008080E00080A0000080A0200080A0400080A0600080A0800080A0A00080A0C00080A0E00080C0000080C0200080C0400080C0600080C0
1004
800080C0A00080C0C00080C0E00080E0000080E0200080E0400080E0600080E0800080E0A00080E0C00080E0E000C0000000C0002000C0004000C0006000C0008000C000A000C000C000C000E000C0200000C0202000C0204000C0206000C0208000C020A000C020C000C020E000C0400000C0402000C0404000C0406000C0
1004
408000C040A000C040C000C040E000C0600000C0602000C0604000C0606000C0608000C060A000C060C000C060E000C0800000C0802000C0804000C0806000C0808000C080A000C080C000C080E000C0A00000C0A02000C0A04000C0A06000C0A08000C0A0A000C0A0C000C0A0E000C0C00000C0C02000C0C04000C0C06000
1004
C0C08000C0C0A000F0FBFF00A4A0A000808080000000FF0000FF000000FFFF00FF000000FF00FF00FFFF0000FFFFFF0000000000000000000000000000000000000000000000000000000000000000000000000000000000000000000000000000000000000000000000000000000000000000000000000000000000000000
1004
00000000000000000000000000000000000000000000000000000000000000000000000000000000000000000000000000000000000000000000000000000000000000000000000000000000000000000000000000000000000000000000000000000000000000000000000000000000000000000000000000000000000000
1004
00000000000000000000000000000000000000000000000000000000000000000000000000000000000000000000000000000000000000000000000000000000000000000000000000000000000000000000000000000000000000000000000000000000000000000000000000000000000000000000000000000000000000
1004
00000000000000000000000000000000000000000000000000000000000000000000000000000000000000000000000000000000000000000000000000000000000000000000000000000000000000000000000000000000000000000000000000000000000000000000000000000000000000000000000000000000000000
1004
000000000000000000000000000000000000000000FFFBF9FBF9F9F9F9F9F9F9F9F9F9F9F9F9F9F9F9F9F9F9F9F9F9F9F9F9FF0000FFFBF9FBF9FBFBFB0000000000F9FBFBFB0000000000F9FBFBFB0000FBFF0000000000000000000000000000000000000000000000000000000000000000000000000000000000000000
1004
00000000000000000000000000000000000000000000000000000000000000000000000000000000000000000000000000000000000000000000000000000000000000000000000000000000000000000000000000000000000000000000000000000000000000000000000000000000000000000000000000000000000000
1004
00000000000000000000000000000000000000000000000000000000000000000000000000000000000000000000000000000000000000000000000000000000000000000000000000000000000000000000000000000000000000000000000000000000000000000000000000000000000000000000000000000000000000
1004
00000000000000000000000000000000000000000000000000000000000000000000000000000000000000000000000000000000000000000000000000000000000000000000000000000000000000000000000000000000000000000000000000000000000000000000000000000000000000000000000000000000000000
1004
0000000000000000000000000000000000000000000000000000000000000000000000000000000000000000000000000000000000000000
  0
BLOCK_RECORD
  5
5287
100
AcDbSymbolTableRecord
100
AcDbBlockTableRecord
  2
GENTPOS
  0
BLOCK_RECORD
  5
52AE
100
AcDbSymbolTableRecord
100
AcDbBlockTableRecord
  2
GENAXEH
  0
ENDTAB
  0
ENDSEC
  0
SECTION
  2
BLOCKS
  0
BLOCK
  5
44
100
AcDbEntity
  8
0
100
AcDbBlockBegin
  2
*MODEL_SPACE
 70
     0
 10
0.0
 20
0.0
 30
0.0
  3
*MODEL_SPACE
  1

  0
ENDBLK
  5
45
100
AcDbEntity
  8
0
100
AcDbBlockEnd
  0
BLOCK
  5
42
100
AcDbEntity
 67
     1
  8
0
100
AcDbBlockBegin
  2
*PAPER_SPACE
 70
     0
 10
0.0
 20
0.0
 30
0.0
  3
*PAPER_SPACE
  1

  0
ENDBLK
  5
43
100
AcDbEntity
 67
     1
  8
0
100
AcDbBlockEnd
  0
BLOCK
  5
5268
100
AcDbEntity
  8
0
100
AcDbBlockBegin
  2
GENTPOS0
 70
     0
 10
0.0
 20
0.0
 30
0.0
  3
GENTPOS0
  1

  0
LINE
  5
524F
100
AcDbEntity
  8
0
100
AcDbLine
 10
-182.884869
 20
0.0
 30
0.0
 11
0.0
 21
0.0
 31
0.0
  0
LINE
  5
5250
100
AcDbEntity
  8
AM_BOR
 62
     1
100
AcDbLine
 10
-159.884869
 20
4.5
 30
0.0
 11
0.0
 21
4.5
 31
0.0
1001
GENIUS_GENBLLY_14
1000
BOR2
1001
ACAD
1000
RTLwPs
1070
   135
  0
LINE
  5
5252
100
AcDbEntity
  8
AM_BOR
 62
     1
100
AcDbLine
 10
-182.884869
 20
9.0
 30
0.0
 11
0.0
 21
9.0
 31
0.0
1001
GENIUS_GENBLLY_14
1000
BOR2
1001
ACAD
1000
RTLwPs
1070
   135
  0
LINE
  5
5253
100
AcDbEntity
  8
0
100
AcDbLine
 10
-182.884869
 20
4.5
 30
0.0
 11
-182.884869
 21
9.0
 31
0.0
  0
LINE
  5
5254
100
AcDbEntity
  8
0
100
AcDbLine
 10
-182.884869
 20
0.0
 30
0.0
 11
-182.884869
 21
4.5
 31
0.0
  0
LINE
  5
5255
100
AcDbEntity
  8
AM_BOR
 62
     1
100
AcDbLine
 10
-159.884869
 20
4.5
 30
0.0
 11
-159.884869
 21
0.086259
 31
0.0
1001
GENIUS_GENBLLY_14
1000
BOR2
1001
ACAD
1000
RTLwPs
1070
   135
  0
LINE
  5
5256
100
AcDbEntity
  8
AM_BOR
 62
     1
100
AcDbLine
 10
-171.884869
 20
4.5
 30
0.0
 11
-171.884869
 21
0.086259
 31
0.0
1001
GENIUS_GENBLLY_14
1000
BOR2
1001
ACAD
1000
RTLwPs
1070
   135
  0
LINE
  5
5257
100
AcDbEntity
  8
AM_BOR
 62
     1
100
AcDbLine
 10
-171.884869
 20
9.0
 30
0.0
 11
-171.884869
 21
4.5
 31
0.0
1001
GENIUS_GENBLLY_14
1000
BOR2
1001
ACAD
1000
RTLwPs
1070
   135
  0
LINE
  5
5258
100
AcDbEntity
  8
AM_BOR
 62
     1
100
AcDbLine
 10
-159.884869
 20
9.0
 30
0.0
 11
-159.884869
 21
4.5
 31
0.0
1001
GENIUS_GENBLLY_14
1000
BOR2
1001
ACAD
1000
RTLwPs
1070
   135
  0
LINE
  5
5259
100
AcDbEntity
  8
AM_BOR
 62
     1
100
AcDbLine
 10
-99.164154
 20
4.5
 30
0.0
 11
-99.164154
 21
0.0
 31
0.0
1001
GENIUS_GENBLLY_14
1000
BOR2
1001
ACAD
1000
RTLwPs
1070
   135
  0
LINE
  5
525A
100
AcDbEntity
  8
AM_BOR
 62
     1
100
AcDbLine
 10
-99.164154
 20
9.0
 30
0.0
 11
-99.164154
 21
4.5
 31
0.0
1001
GENIUS_GENBLLY_14
1000
BOR2
1001
ACAD
1000
RTLwPs
1070
   135
  0
TEXT
  5
525B
100
AcDbEntity
  8
AM_BOR
 62
     1
100
AcDbText
 10
-40.533941
 20
5.76323
 30
0.0
 40
2.0
  1
(genmsg "gendwg" 39){20.2}
100
AcDbText
1001
GENIUS_GENBLLY_14
1000
BOR3
1001
ACAD
1000
RTLwPs
1070
   137
  0
TEXT
  5
525C
100
AcDbEntity
  8
AM_BOR
 62
     1
100
AcDbText
 10
-40.533941
 20
0.982144
 30
0.0
 40
2.0
  1
(genmsg "gendwg" 40){20.2}
100
AcDbText
1001
GENIUS_GENBLLY_14
1000
BOR3
1001
ACAD
1000
RTLwPs
1070
   137
  0
LINE
  5
525D
100
AcDbEntity
  8
AM_BOR
 62
     1
100
AcDbLine
 10
-42.513123
 20
4.5
 30
0.0
 11
-42.513123
 21
0.0
 31
0.0
1001
GENIUS_GENBLLY_14
1000
BOR2
1001
ACAD
1000
RTLwPs
1070
   135
  0
LINE
  5
525E
100
AcDbEntity
  8
AM_BOR
 62
     1
100
AcDbLine
 10
-42.513123
 20
9.0
 30
0.0
 11
-42.513123
 21
4.5
 31
0.0
1001
GENIUS_GENBLLY_14
1000
BOR2
1001
ACAD
1000
RTLwPs
1070
   135
  0
LINE
  5
525F
100
AcDbEntity
  8
0
100
AcDbLine
 10
0.0
 20
4.5
 30
0.0
 11
0.0
 21
9.0
 31
0.0
  0
LINE
  5
5260
100
AcDbEntity
  8
0
100
AcDbLine
 10
0.0
 20
0.0
 30
0.0
 11
0.0
 21
4.5
 31
0.0
  0
TEXT
  5
5261
100
AcDbEntity
  8
AM_BOR
 62
     1
100
AcDbText
 10
-98.203639
 20
5.608506
 30
0.0
 40
2.0
  1
(genmsg "gendwg" 37){27.5}
100
AcDbText
1001
GENIUS_GENBLLY_14
1000
BOR3
1001
ACAD
1000
RTLwPs
1070
   137
  0
TEXT
  5
5262
100
AcDbEntity
  8
AM_BOR
 62
     1
100
AcDbText
 10
-98.1387
 20
1.10005
 30
0.0
 40
2.0
  1
(genmsg "gendwg" 38){27.5}
100
AcDbText
1001
GENIUS_GENBLLY_14
1000
BOR3
1001
ACAD
1000
RTLwPs
1070
   137
  0
TEXT
  5
5263
100
AcDbEntity
  8
AM_BOR
 62
     1
100
AcDbText
 10
-159.193408
 20
5.534152
 30
0.0
 40
2.0
  1
(genmsg "gendwg" 35){22.7}
100
AcDbText
1001
GENIUS_GENBLLY_14
1000
BOR3
1001
ACAD
1000
RTLwPs
1070
   137
  0
TEXT
  5
5264
100
AcDbEntity
  8
AM_BOR
 62
     1
100
AcDbText
 10
-159.063529
 20
1.186796
 30
0.0
 40
2.0
  1
(genmsg "gendwg" 36){22.7}
100
AcDbText
1001
GENIUS_GENBLLY_14
1000
BOR3
1001
ACAD
1000
RTLwPs
1070
   137
  0
TEXT
  5
5265
100
AcDbEntity
  8
AM_BOR
 62
     1
100
AcDbText
 10
-182.063529
 20
5.864034
 30
0.0
 40
2.0
  1
(genmsg "gendwg" 29){7.6}
100
AcDbText
1001
GENIUS_GENBLLY_14
1000
BOR3
1001
ACAD
1000
RTLwPs
1070
   137
  0
TEXT
  5
5266
100
AcDbEntity
  8
AM_BOR
 62
     1
100
AcDbText
 10
-171.063529
 20
5.65096
 30
0.0
 40
2.0
  1
(genmsg "gendwg" 32){5.3}
100
AcDbText
1001
GENIUS_GENBLLY_14
1000
BOR3
1001
ACAD
1000
RTLwPs
1070
   137
  0
TEXT
  5
5267
100
AcDbEntity
  8
AM_BOR
 62
     1
100
AcDbText
 10
-8.7
 20
5.76323
 30
0.0
 40
2.0
  1
Länge
 72
     2
 11
-2.0
 21
5.76323
 31
0.0
100
AcDbText
1001
GENIUS_GENBLLY_14
1000
BOR3
1001
ACAD
1000
RTLwPs
1070
   137
  0
ENDBLK
  5
5269
100
AcDbEntity
  8
0
100
AcDbBlockEnd
  0
BLOCK
  5
5275
100
AcDbEntity
  8
0
100
AcDbBlockBegin
  2
GENTPOS1
 70
     2
 10
0.0
 20
0.0
 30
0.0
  3
GENTPOS1
  1

  0
LINE
  5
526B
100
AcDbEntity
  8
0
100
AcDbLine
 10
-182.884869
 20
0.0
 30
0.0
 11
-182.884869
 21
4.5
 31
0.0
  0
ATTDEF
  5
526C
100
AcDbEntity
  8
AM_BOR
 62
     2
100
AcDbText
 10
-158.950749
 20
1.462817
 30
0.0
 40
2.0
  1

100
AcDbAttributeDefinition
  3
(GENMSG "GENDWG" 35)
  2
6GENST{22.7}
 70
     0
1001
GENIUS_GENBLLY_14
1000
BOR3
1001
ACAD
1000
RTLwPs
1070
   137
  0
LINE
  5
526D
100
AcDbEntity
  8
AM_BOR
 62
     1
100
AcDbLine
 10
-171.884869
 20
4.5
 30
0.0
 11
-171.884869
 21
0.0
 31
0.0
1001
GENIUS_GENBLLY_14
1000
BOR2
1001
ACAD
1000
RTLwPs
1070
   135
  0
LINE
  5
526E
100
AcDbEntity
  8
AM_BOR
 62
     1
100
AcDbLine
 10
-159.884869
 20
4.5
 30
0.0
 11
-159.884869
 21
0.0
 31
0.0
1001
GENIUS_GENBLLY_14
1000
BOR2
1001
ACAD
1000
RTLwPs
1070
   135
  0
ATTDEF
  5
526F
100
AcDbEntity
  8
AM_BOR
 62
     2
100
AcDbText
 10
-98.306545
 20
1.462847
 30
0.0
 40
2.0
  1

100
AcDbAttributeDefinition
  3
(GENMSG "GENDWG" 37)
  2
8GENST{27.5}
 70
     0
1001
GENIUS_GENBLLY_14
1000
BOR3
1001
ACAD
1000
RTLwPs
1070
   137
  0
LINE
  5
5270
100
AcDbEntity
  8
AM_BOR
 62
     1
100
AcDbLine
 10
-99.164154
 20
4.5
 30
0.0
 11
-99.164154
 21
0.0
 31
0.0
1001
GENIUS_GENBLLY_14
1000
BOR2
1001
ACAD
1000
RTLwPs
1070
   135
  0
ATTDEF
  5
5271
100
AcDbEntity
  8
AM_BOR
 62
     2
100
AcDbText
 10
-41.188801
 20
1.453563
 30
0.0
 40
2.0
  1

100
AcDbAttributeDefinition
  3
(GENMSG "GENDWG" 39)
  2
10GENST{20.2}
 70
     0
1001
GENIUS_GENBLLY_14
1000
BOR3
1001
ACAD
1000
RTLwPs
1070
   137
  0
LINE
  5
5272
100
AcDbEntity
  8
AM_BOR
 62
     1
100
AcDbLine
 10
-42.513123
 20
4.5
 30
0.0
 11
-42.513123
 21
0.0
 31
0.0
1001
GENIUS_GENBLLY_14
1000
BOR2
1001
ACAD
1000
RTLwPs
1070
   135
  0
LINE
  5
5273
100
AcDbEntity
  8
0
100
AcDbLine
 10
0.0
 20
4.5
 30
0.0
 11
0.0
 21
0.0
 31
0.0
  0
LINE
  5
5274
100
AcDbEntity
  8
AM_BOR
 62
     1
100
AcDbLine
 10
-159.884869
 20
4.5
 30
0.0
 11
0.0
 21
4.5
 31
0.0
1001
GENIUS_GENBLLY_14
1000
BOR2
1001
ACAD
1000
RTLwPs
1070
   135
  0
ENDBLK
  5
5276
100
AcDbEntity
  8
0
100
AcDbBlockEnd
  0
BLOCK
  5
5285
100
AcDbEntity
  8
0
100
AcDbBlockBegin
  2
GENTPOS2
 70
     2
 10
0.0
 20
0.0
 30
0.0
  3
GENTPOS2
  1

  0
ATTDEF
  5
5278
100
AcDbEntity
  8
AM_BOR
 62
     2
100
AcDbText
 10
-181.98805
 20
-25.679014
 30
0.0
 40
2.0
  1

100
AcDbAttributeDefinition
  3

  2
ITEM
 70
     0
1001
GENIUS_GENBLLY_14
1000
BOR3
1001
ACAD
1000
RTLwPs
1070
   137
  0
ATTDEF
  5
5279
100
AcDbEntity
  8
AM_BOR
 62
     2
100
AcDbText
 10
-170.98805
 20
-25.679014
 30
0.0
 40
2.0
  1

100
AcDbAttributeDefinition
  3

  2
QTY
 70
     0
1001
GENIUS_GENBLLY_14
1000
BOR3
1001
ACAD
1000
RTLwPs
1070
   137
  0
ATTDEF
  5
527A
100
AcDbEntity
  8
AM_BOR
 62
     2
100
AcDbText
 10
-158.98805
 20
-25.679014
 30
0.0
 40
2.0
  1

100
AcDbAttributeDefinition
  3
(GENMSG "GENDWG" 36)
  2
5GENST{22.7}
 70
     0
1001
GENIUS_GENBLLY_14
1000
BOR3
1001
ACAD
1000
RTLwPs
1070
   137
  0
ATTDEF
  5
527B
100
AcDbEntity
  8
AM_BOR
 62
     2
100
AcDbText
 10
-98.12709
 20
-25.678984
 30
0.0
 40
2.0
  1

100
AcDbAttributeDefinition
  3
(GENMSG "GENDWG" 38)
  2
7GENST{27.5}
 70
     0
1001
GENIUS_GENBLLY_14
1000
BOR3
1001
ACAD
1000
RTLwPs
1070
   137
  0
ATTDEF
  5
527C
100
AcDbEntity
  8
AM_BOR
 62
     2
100
AcDbText
 10
-41.355437
 20
-25.484028
 30
0.0
 40
2.0
  1

100
AcDbAttributeDefinition
  3
(GENMSG "GENDWG" 40)
  2
9GENST{20.2}
 70
     0
1001
GENIUS_GENBLLY_14
1000
BOR3
1001
ACAD
1000
RTLwPs
1070
   137
  0
ATTDEF
  5
527D
100
AcDbEntity
  8
AM_BOR
 62
     2
100
AcDbText
 10
-2.0
 20
-25.546437
 30
0.0
 40
2.0
  1

 72
     2
 11
-2.0
 21
-25.546437
 31
0.0
100
AcDbAttributeDefinition
  3

  2
DIM
 70
     0
1001
GENIUS_GENBLLY_14
1000
BOR3
1001
ACAD
1000
RTLwPs
1070
   137
  0
LINE
  5
527E
100
AcDbEntity
  8
AM_BOR
 62
     1
100
AcDbLine
 10
-182.884869
 20
-22.5
 30
0.0
 11
0.0
 21
-22.5
 31
0.0
1001
GENIUS_GENBLLY_14
1000
BOR2
1001
ACAD
1000
RTLwPs
1070
   135
  0
LINE
  5
527F
100
AcDbEntity
  8
0
100
AcDbLine
 10
-182.884869
 20
-27.0
 30
0.0
 11
-182.884869
 21
-22.5
 31
0.0
  0
LINE
  5
5280
100
AcDbEntity
  8
AM_BOR
 62
     1
100
AcDbLine
 10
-171.884869
 20
-22.5
 30
0.0
 11
-171.884869
 21
-27.0
 31
0.0
1001
GENIUS_GENBLLY_14
1000
BOR2
1001
ACAD
1000
RTLwPs
1070
   135
  0
LINE
  5
5281
100
AcDbEntity
  8
AM_BOR
 62
     1
100
AcDbLine
 10
-159.884869
 20
-22.5
 30
0.0
 11
-159.884869
 21
-27.0
 31
0.0
1001
GENIUS_GENBLLY_14
1000
BOR2
1001
ACAD
1000
RTLwPs
1070
   135
  0
LINE
  5
5282
100
AcDbEntity
  8
AM_BOR
 62
     1
100
AcDbLine
 10
-99.164154
 20
-22.5
 30
0.0
 11
-99.164154
 21
-27.0
 31
0.0
1001
GENIUS_GENBLLY_14
1000
BOR2
1001
ACAD
1000
RTLwPs
1070
   135
  0
LINE
  5
5283
100
AcDbEntity
  8
AM_BOR
 62
     1
100
AcDbLine
 10
-42.513123
 20
-22.5
 30
0.0
 11
-42.513123
 21
-27.0
 31
0.0
1001
GENIUS_GENBLLY_14
1000
BOR2
1001
ACAD
1000
RTLwPs
1070
   135
  0
LINE
  5
5284
100
AcDbEntity
  8
0
100
AcDbLine
 10
0.0
 20
-22.5
 30
0.0
 11
0.0
 21
-27.0
 31
0.0
  0
ENDBLK
  5
5286
100
AcDbEntity
  8
0
100
AcDbBlockEnd
  0
BLOCK
  5
529A
100
AcDbEntity
  8
0
100
AcDbBlockBegin
  2
GENTPOS
 70
     2
 10
0.0
 20
0.0
 30
0.0
  3
GENTPOS
  1

  0
ATTDEF
  5
5288
100
AcDbEntity
  8
0
100
AcDbText
 10
0.0
 20
9.0
 30
0.0
 40
2.5
  1
4
100
AcDbAttributeDefinition
  3

  2
_ALWAYS
 70
     3
  0
INSERT
  5
5289
100
AcDbEntity
  8
0
100
AcDbBlockReference
  2
GENTPOS0
 10
0.0
 20
0.0
 30
0.0
  0
INSERT
  5
528A
100
AcDbEntity
  8
0
100
AcDbBlockReference
 66
     1
  2
GENTPOS1
 10
0.0
 20
9.0
 30
0.0
  0
ATTRIB
  5
528B
100
AcDbEntity
  8
AM_BOR
 62
     2
100
AcDbText
 10
-42.513123
 20
9.0
 30
0.0
 40
2.0
  1

100
AcDbAttribute
  2
3GENST{6.3}
 70
     0
1001
GENIUS_GENBLLY_14
1000
BOR3
1001
ACAD
1000
RTLwPs
1070
   137
  0
ATTRIB
  5
528C
100
AcDbEntity
  8
AM_BOR
 62
     2
100
AcDbText
 10
-99.164154
 20
9.0
 30
0.0
 40
2.0
  1

100
AcDbAttribute
  2
1GENST{7.6}
 70
     0
1001
GENIUS_GENBLLY_14
1000
BOR3
1001
ACAD
1000
RTLwPs
1070
   137
  0
ATTRIB
  5
528D
100
AcDbEntity
  8
AM_BOR
 62
     2
100
AcDbText
 10
-145.520749
 20
10.462817
 30
0.0
 40
2.0
  1

100
AcDbAttribute
  2
5GENST{22.7}
 70
     0
1001
GENIUS_GENBLLY_14
1000
BOR3
1001
ACAD
1000
RTLwPs
1070
   137
  0
ATTRIB
  5
528E
100
AcDbEntity
  8
AM_BOR
 62
     2
100
AcDbText
 10
-146.454869
 20
9.0
 30
0.0
 40
2.0
  1

100
AcDbAttribute
  2
2GENST{5.3}
 70
     0
1001
GENIUS_GENBLLY_14
1000
BOR3
1001
ACAD
1000
RTLwPs
1070
   137
  0
ATTRIB
  5
528F
100
AcDbEntity
  8
AM_BOR
 62
     2
100
AcDbText
 10
-98.306545
 20
10.462847
 30
0.0
 40
2.0
  1

100
AcDbAttribute
  2
7GENST{27.5}
 70
     0
1001
GENIUS_GENBLLY_14
1000
BOR3
1001
ACAD
1000
RTLwPs
1070
   137
  0
ATTRIB
  5
5290
100
AcDbEntity
  8
AM_BOR
 62
     2
100
AcDbText
 10
-41.188801
 20
10.453563
 30
0.0
 40
2.0
  1

100
AcDbAttribute
  2
9GENST{20.2}
 70
     0
1001
GENIUS_GENBLLY_14
1000
BOR3
1001
ACAD
1000
RTLwPs
1070
   137
  0
SEQEND
  5
5291
100
AcDbEntity
  8
0
  0
INSERT
  5
5292
100
AcDbEntity
  8
0
100
AcDbBlockReference
 66
     1
  2
GENTPOS2
 10
0.0
 20
40.5
 30
0.0
  0
ATTRIB
  5
5293
100
AcDbEntity
  8
AM_BOR
 62
     2
100
AcDbText
 10
-181.98805
 20
14.820986
 30
0.0
 40
2.0
  1

100
AcDbAttribute
  2
ITEM
 70
     0
1001
ACAD
1000
RTLwPs
1070
   137
  0
ATTRIB
  5
5294
100
AcDbEntity
  8
AM_BOR
 62
     2
100
AcDbText
 10
-170.98805
 20
14.820986
 30
0.0
 40
2.0
  1

100
AcDbAttribute
  2
QTY
 70
     0
1001
ACAD
1000
RTLwPs
1070
   137
  0
ATTRIB
  5
5295
100
AcDbEntity
  8
AM_BOR
 62
     2
100
AcDbText
 10
-158.98805
 20
14.820986
 30
0.0
 40
2.0
  1

100
AcDbAttribute
  2
5GENST{22.7}
 70
     0
1001
ACAD
1000
RTLwPs
1070
   137
  0
ATTRIB
  5
5296
100
AcDbEntity
  8
AM_BOR
 62
     2
100
AcDbText
 10
-98.12709
 20
14.821016
 30
0.0
 40
2.0
  1

100
AcDbAttribute
  2
7GENST{27.5}
 70
     0
1001
ACAD
1000
RTLwPs
1070
   137
  0
ATTRIB
  5
5297
100
AcDbEntity
  8
AM_BOR
 62
     2
100
AcDbText
 10
-41.355437
 20
15.015972
 30
0.0
 40
2.0
  1

100
AcDbAttribute
  2
9GENST{20.2}
 70
     0
1001
ACAD
1000
RTLwPs
1070
   137
  0
ATTRIB
  5
5298
100
AcDbEntity
  8
AM_BOR
 62
     2
100
AcDbText
 10
-2.0
 20
14.953563
 30
0.0
 40
2.0
  1

 72
     2
 11
-2.0
 21
14.953563
 31
0.0
100
AcDbAttribute
  2
DIM
 70
     0
1001
ACAD
1000
RTLwPs
1070
   137
  0
SEQEND
  5
5299
100
AcDbEntity
  8
0
  0
ENDBLK
  5
529B
100
AcDbEntity
  8
0
100
AcDbBlockEnd
  0
BLOCK
  5
52B0
100
AcDbEntity
  8
0
100
AcDbBlockBegin
  2
GENAXEH
 70
     0
 10
0.0
 20
0.0
 30
0.0
  3
GENAXEH
  1

  0
LINE
  5
52AF
100
AcDbEntity
  8
0
100
AcDbLine
 10
-1.0
 20
0.0
 30
0.0
 11
1.0
 21
0.0
 31
0.0
  0
ENDBLK
  5
52B1
100
AcDbEntity
  8
0
100
AcDbBlockEnd
  0
ENDSEC
  0
SECTION
  2
ENTITIES
  0
LINE
  5
31DB
100
AcDbEntity
  8
MSL-115-P40-S-7
100
AcDbLine
 10
989.532534
 20
234.4801
 30
0.0
 11
989.532534
 21
216.4801
 31
0.0
  0
LINE
  5
31DC
100
AcDbEntity
  8
MSL-115-P40-S-7
100
AcDbLine
 10
892.53281
 20
234.4801
 30
0.0
 11
892.53281
 21
216.4801
 31
0.0
  0
LINE
  5
3E38
100
AcDbEntity
  8
MSL-115-P40-S-7
100
AcDbLine
 10
767.241939
 20
280.411888
 30
0.0
 11
754.991939
 21
280.411888
 31
0.0
1001
GENIUS_GENOREF_13
1005
0
  0
LINE
  5
3E39
100
AcDbEntity
  8
MSL-115-P40-S-7
100
AcDbLine
 10
767.241939
 20
280.411888
 30
0.0
 11
767.241939
 21
292.661888
 31
0.0
1001
GENIUS_GENOREF_13
1005
0
  0
LINE
  5
3E3A
100
AcDbEntity
  8
MSL-115-P40-S-7
100
AcDbLine
 10
767.241939
 20
280.411888
 30
0.0
 11
779.491939
 21
280.411888
 31
0.0
1001
GENIUS_GENOREF_13
1005
0
  0
LINE
  5
3E3B
100
AcDbEntity
  8
MSL-115-P40-S-7
100
AcDbLine
 10
767.241939
 20
280.411888
 30
0.0
 11
767.241939
 21
268.161888
 31
0.0
1001
GENIUS_GENOREF_13
1005
0
  0
LINE
  5
3E3C
100
AcDbEntity
  8
MSL-115-P40-S-7
100
AcDbLine
 10
771.241939
 20
260.411888
 30
0.0
 11
758.991939
 21
260.411888
 31
0.0
1001
GENIUS_GENOREF_13
1005
0
  0
LINE
  5
3E3D
100
AcDbEntity
  8
MSL-115-P40-S-7
100
AcDbLine
 10
771.241939
 20
260.411888
 30
0.0
 11
771.241939
 21
272.661888
 31
0.0
1001
GENIUS_GENOREF_13
1005
0
  0
LINE
  5
3E3E
100
AcDbEntity
  8
MSL-115-P40-S-7
100
AcDbLine
 10
771.241939
 20
260.411888
 30
0.0
 11
783.491939
 21
260.411888
 31
0.0
1001
GENIUS_GENOREF_13
1005
0
  0
LINE
  5
3E3F
100
AcDbEntity
  8
MSL-115-P40-S-7
100
AcDbLine
 10
771.241939
 20
260.411888
 30
0.0
 11
771.241939
 21
248.161888
 31
0.0
1001
GENIUS_GENOREF_13
1005
0
  0
LINE
  5
3E63
100
AcDbEntity
  8
MSL-115-P40-S-7
 48
2.0
100
AcDbLine
 10
749.815347
 20
321.403392
 30
0.0
 11
774.757845
 21
321.403392
 31
0.0
  0
LINE
  5
3E6E
100
AcDbEntity
  8
MSL-115-P40-S-0
 48
2.0
100
AcDbLine
 10
792.875813
 20
61.938133
 30
0.0
 11
792.875813
 21
58.938133
 31
0.0
1001
ACAD
1000
RTLwPs
1070
   128
  0
LINE
  5
3E6F
100
AcDbEntity
  8
MSL-115-P40-S-0
 48
2.0
100
AcDbLine
 10
778.875813
 20
58.938133
 30
0.0
 11
778.875813
 21
61.938133
 31
0.0
1001
ACAD
1000
RTLwPs
1070
   128
  0
LINE
  5
3E70
100
AcDbEntity
  8
MSL-115-P40-S-0
 48
2.0
100
AcDbLine
 10
792.875813
 20
58.938133
 30
0.0
 11
778.875813
 21
58.938133
 31
0.0
1001
ACAD
1000
RTLwPs
1070
   128
  0
LINE
  5
3E71
100
AcDbEntity
  8
MSL-115-P40-S-0
 48
2.0
100
AcDbLine
 10
778.875813
 20
61.938133
 30
0.0
 11
792.875813
 21
61.938133
 31
0.0
1001
ACAD
1000
RTLwPs
1070
   128
  0
LINE
  5
3E72
100
AcDbEntity
  8
MSL-115-P40-S-0
 48
2.0
100
AcDbLine
 10
778.875813
 20
58.938133
 30
0.0
 11
761.375813
 21
58.938133
 31
0.0
1001
ACAD
1000
RTLwPs
1070
   128
  0
LINE
  5
3E73
100
AcDbEntity
  8
MSL-115-P40-S-0
 48
2.0
100
AcDbLine
 10
650.375813
 20
54.438133
 30
0.0
 11
650.375813
 21
53.938133
 31
0.0
1001
ACAD
1000
RTLwPs
1070
   128
  0
LINE
  5
3E74
100
AcDbEntity
  8
MSL-115-P40-S-0
 48
2.0
100
AcDbLine
 10
658.375813
 20
54.438133
 30
0.0
 11
650.375813
 21
54.438133
 31
0.0
1001
ACAD
1000
RTLwPs
1070
   128
  0
LINE
  5
3E75
100
AcDbEntity
  8
MSL-115-P40-S-0
 48
2.0
100
AcDbLine
 10
650.375813
 20
55.438133
 30
0.0
 11
658.375813
 21
55.438133
 31
0.0
1001
ACAD
1000
RTLwPs
1070
   128
  0
LINE
  5
3E76
100
AcDbEntity
  8
MSL-115-P40-S-0
 48
2.0
100
AcDbLine
 10
430.375813
 20
53.938133
 30
0.0
 11
430.375813
 21
54.438133
 31
0.0
1001
ACAD
1000
RTLwPs
1070
   128
  0
LINE
  5
3E77
100
AcDbEntity
  8
MSL-115-P40-S-0
 48
2.0
100
AcDbLine
 10
401.875813
 20
58.938133
 30
0.0
 11
401.875813
 21
61.938133
 31
0.0
1001
ACAD
1000
RTLwPs
1070
   128
  0
LINE
  5
3E78
100
AcDbEntity
  8
MSL-115-P40-S-0
 48
2.0
100
AcDbLine
 10
422.375813
 20
55.438133
 30
0.0
 11
430.375813
 21
55.438133
 31
0.0
1001
ACAD
1000
RTLwPs
1070
   128
  0
LINE
  5
3E79
100
AcDbEntity
  8
MSL-115-P40-S-0
 48
2.0
100
AcDbLine
 10
430.375813
 20
54.438133
 30
0.0
 11
422.375813
 21
54.438133
 31
0.0
1001
ACAD
1000
RTLwPs
1070
   128
  0
LINE
  5
3E7A
100
AcDbEntity
  8
MSL-115-P40-S-0
 48
2.0
100
AcDbLine
 10
387.875813
 20
61.938133
 30
0.0
 11
387.875813
 21
58.938133
 31
0.0
1001
ACAD
1000
RTLwPs
1070
   128
  0
LINE
  5
3E7B
100
AcDbEntity
  8
MSL-115-P40-S-0
 48
2.0
100
AcDbLine
 10
401.875813
 20
61.938133
 30
0.0
 11
387.875813
 21
61.938133
 31
0.0
1001
ACAD
1000
RTLwPs
1070
   128
  0
LINE
  5
3E7C
100
AcDbEntity
  8
MSL-115-P40-S-0
 48
2.0
100
AcDbLine
 10
387.875813
 20
58.938133
 30
0.0
 11
422.375813
 21
58.938133
 31
0.0
1001
ACAD
1000
RTLwPs
1070
   128
  0
LINE
  5
3E7D
100
AcDbEntity
  8
MSL-115-P40-S-0
 48
2.0
100
AcDbLine
 10
650.375813
 20
53.938133
 30
0.0
 11
430.375813
 21
53.938133
 31
0.0
1001
ACAD
1000
RTLwPs
1070
   128
  0
LINE
  5
3E7E
100
AcDbEntity
  8
MSL-115-P40-S-0
 48
2.0
100
AcDbLine
 10
430.375813
 20
54.438133
 30
0.0
 11
650.375813
 21
54.438133
 31
0.0
1001
ACAD
1000
RTLwPs
1070
   128
  0
LINE
  5
3E7F
100
AcDbEntity
  8
MSL-115-P40-S-0
 48
2.0
100
AcDbLine
 10
762.375813
 20
58.938133
 30
0.0
 11
658.875813
 21
58.938133
 31
0.0
  0
LINE
  5
3E80
100
AcDbEntity
  8
MSL-115-P40-S-0
100
AcDbLine
 10
658.375813
 20
64.156716
 30
0.0
 11
761.375813
 21
64.156716
 31
0.0
  0
LINE
  5
3E81
100
AcDbEntity
  8
MSL-115-P40-S-0
100
AcDbLine
 10
658.375813
 20
63.363133
 30
0.0
 11
761.375813
 21
63.363133
 31
0.0
  0
LINE
  5
3E82
100
AcDbEntity
  8
MSL-115-P40-S-0
100
AcDbLine
 10
1008.532672
 20
334.311888
 30
0.0
 11
1008.032672
 21
334.811888
 31
0.0
1001
ACAD
1000
RTLwPs
1070
   128
  0
LINE
  5
3E83
100
AcDbEntity
  8
MSL-115-P40-S-0
100
AcDbLine
 10
1000.532672
 20
334.211888
 30
0.0
 11
1003.532672
 21
331.211888
 31
0.0
1001
ACAD
1000
RTLwPs
1070
   128
  0
LINE
  5
3E84
100
AcDbEntity
  8
MSL-115-P40-S-0
100
AcDbLine
 10
1008.032672
 20
333.311888
 30
0.0
 11
1007.032672
 21
334.311888
 31
0.0
1001
ACAD
1000
RTLwPs
1070
   128
  0
LINE
  5
3E87
100
AcDbEntity
  8
MSL-115-P40-S-0
100
AcDbLine
 10
1007.032672
 20
312.311888
 30
0.0
 11
1003.532672
 21
312.311888
 31
0.0
1001
ACAD
1000
RTLwPs
1070
   128
  0
LINE
  5
3E88
100
AcDbEntity
  8
MSL-115-P40-S-0
100
AcDbLine
 10
1007.032672
 20
312.311888
 30
0.0
 11
1008.032672
 21
313.311888
 31
0.0
1001
ACAD
1000
RTLwPs
1070
   128
  0
LINE
  5
3E89
100
AcDbEntity
  8
MSL-115-P40-S-0
100
AcDbLine
 10
1007.032672
 20
309.411888
 30
0.0
 11
1003.532672
 21
309.411888
 31
0.0
1001
ACAD
1000
RTLwPs
1070
   128
  0
LINE
  5
3E8A
100
AcDbEntity
  8
MSL-115-P40-S-0
100
AcDbLine
 10
1008.532672
 20
309.811888
 30
0.0
 11
1003.532672
 21
309.811888
 31
0.0
1001
ACAD
1000
RTLwPs
1070
   128
  0
LINE
  5
3E8B
100
AcDbEntity
  8
MSL-115-P40-S-0
100
AcDbLine
 10
1006.732672
 20
309.811888
 30
0.0
 11
1007.532672
 21
309.011888
 31
0.0
1001
ACAD
1000
RTLwPs
1070
   128
  0
LINE
  5
3E8C
100
AcDbEntity
  8
MSL-115-P40-S-0
100
AcDbLine
 10
1007.532672
 20
293.311888
 30
0.0
 11
1007.032672
 21
292.811888
 31
0.0
1001
ACAD
1000
RTLwPs
1070
   128
  0
LINE
  5
3E8D
100
AcDbEntity
  8
MSL-115-P40-S-0
100
AcDbLine
 10
993.032672
 20
297.255264
 30
0.0
 11
993.032672
 21
294.368512
 31
0.0
1001
ACAD
1000
RTLwPs
1070
   128
  0
LINE
  5
3E8E
100
AcDbEntity
  8
MSL-115-P40-S-0
100
AcDbLine
 10
988.032672
 20
294.368512
 30
0.0
 11
988.032672
 21
297.255264
 31
0.0
1001
ACAD
1000
RTLwPs
1070
   128
  0
LINE
  5
3E8F
100
AcDbEntity
  8
MSL-115-P40-S-0
100
AcDbLine
 10
990.532672
 20
292.925137
 30
0.0
 11
988.032672
 21
294.368512
 31
0.0
1001
ACAD
1000
RTLwPs
1070
   128
  0
LINE
  5
3E90
100
AcDbEntity
  8
MSL-115-P40-S-0
100
AcDbLine
 10
993.032672
 20
294.368512
 30
0.0
 11
990.532672
 21
292.925137
 31
0.0
1001
ACAD
1000
RTLwPs
1070
   128
  0
LINE
  5
3E91
100
AcDbEntity
  8
MSL-115-P40-S-0
100
AcDbLine
 10
988.032672
 20
297.255264
 30
0.0
 11
990.532672
 21
298.698639
 31
0.0
1001
ACAD
1000
RTLwPs
1070
   128
  0
LINE
  5
3E92
100
AcDbEntity
  8
MSL-115-P40-S-0
100
AcDbLine
 10
990.532672
 20
298.698639
 30
0.0
 11
993.032672
 21
297.255264
 31
0.0
1001
ACAD
1000
RTLwPs
1070
   128
  0
LINE
  5
3E93
100
AcDbEntity
  8
MSL-115-P40-S-0
100
AcDbLine
 10
1003.532672
 20
290.011888
 30
0.0
 11
1004.232672
 21
290.011888
 31
0.0
1001
ACAD
1000
RTLwPs
1070
   128
  0
LINE
  5
3E94
100
AcDbEntity
  8
MSL-115-P40-S-0
100
AcDbLine
 10
1004.232672
 20
290.011888
 30
0.0
 11
1007.032672
 21
292.811888
 31
0.0
1001
ACAD
1000
RTLwPs
1070
   128
  0
LINE
  5
3E95
100
AcDbEntity
  8
MSL-115-P40-S-0
100
AcDbLine
 10
1007.532672
 20
309.011888
 30
0.0
 11
1007.532672
 21
293.311888
 31
0.0
1001
ACAD
1000
RTLwPs
1070
   128
  0
LINE
  5
3E96
100
AcDbEntity
  8
MSL-115-P40-S-0
100
AcDbLine
 10
1007.032672
 20
292.811888
 30
0.0
 11
1007.032672
 21
309.411888
 31
0.0
1001
ACAD
1000
RTLwPs
1070
   128
  0
LINE
  5
3E97
100
AcDbEntity
  8
MSL-115-P40-S-0
100
AcDbLine
 10
1008.532672
 20
334.311888
 30
0.0
 11
1008.532672
 21
309.811888
 31
0.0
1001
ACAD
1000
RTLwPs
1070
   128
  0
LINE
  5
3E98
100
AcDbEntity
  8
MSL-115-P40-S-0
100
AcDbLine
 10
1008.032672
 20
333.311888
 30
0.0
 11
1008.032672
 21
313.311888
 31
0.0
1001
ACAD
1000
RTLwPs
1070
   128
  0
LINE
  5
3E99
100
AcDbEntity
  8
MSL-115-P40-S-7
100
AcDbLine
 10
986.032672
 20
338.811888
 30
0.0
 11
986.032672
 21
323.311888
 31
0.0
  0
LINE
  5
3E9C
100
AcDbEntity
  8
MSL-115-P40-S-0
100
AcDbLine
 10
953.532672
 20
334.811888
 30
0.0
 11
953.532672
 21
334.311888
 31
0.0
1001
ACAD
1000
RTLwPs
1070
   128
  0
LINE
  5
3E9D
100
AcDbEntity
  8
MSL-115-P40-S-0
100
AcDbLine
 10
928.532672
 20
334.311888
 30
0.0
 11
928.532672
 21
334.811888
 31
0.0
1001
ACAD
1000
RTLwPs
1070
   128
  0
LINE
  5
3E9E
100
AcDbEntity
  8
MSL-115-P40-S-0
100
AcDbLine
 10
910.032672
 20
330.604193
 30
0.0
 11
916.032672
 21
334.068294
 31
0.0
1001
ACAD
1000
RTLwPs
1070
   128
  0
LINE
  5
3E9F
100
AcDbEntity
  8
MSL-115-P40-S-0
100
AcDbLine
 10
916.032672
 20
334.068294
 30
0.0
 11
922.032672
 21
330.604193
 31
0.0
1001
ACAD
1000
RTLwPs
1070
   128
  0
ARC
  5
3EA0
100
AcDbEntity
  8
MSL-115-P40-S-0
100
AcDbCircle
 10
916.032672
 20
320.211888
 30
0.0
 40
12.0
100
AcDbArc
 50
60.0
 51
120.0
1001
ACAD
1000
RTLwPs
1070
   128
  0
LINE
  5
3EA4
100
AcDbEntity
  8
MSL-115-P40-S-0
100
AcDbLine
 10
878.532672
 20
331.211888
 30
0.0
 11
881.532672
 21
334.211888
 31
0.0
1001
ACAD
1000
RTLwPs
1070
   128
  0
ARC
  5
3EA8
100
AcDbEntity
  8
MSL-115-P40-S-0
100
AcDbCircle
 10
943.032672
 20
325.711888
 30
0.0
 40
2.0
100
AcDbArc
 50
0.0
 51
90.0
1001
ACAD
1000
RTLwPs
1070
   128
  0
ARC
  5
3EA9
100
AcDbEntity
  8
MSL-115-P40-S-0
100
AcDbCircle
 10
939.032672
 20
325.711888
 30
0.0
 40
2.0
100
AcDbArc
 50
90.0
 51
180.0
1001
ACAD
1000
RTLwPs
1070
   128
  0
LINE
  5
3EAA
100
AcDbEntity
  8
MSL-115-P40-S-0
100
AcDbLine
 10
939.032672
 20
327.711888
 30
0.0
 11
943.032672
 21
327.711888
 31
0.0
1001
ACAD
1000
RTLwPs
1070
   128
  0
LINE
  5
3EAB
100
AcDbEntity
  8
MSL-115-P40-S-0
100
AcDbLine
 10
937.032672
 20
316.711888
 30
0.0
 11
945.032672
 21
316.711888
 31
0.0
1001
ACAD
1000
RTLwPs
1070
   128
  0
LINE
  5
3EAC
100
AcDbEntity
  8
MSL-115-P40-S-0
100
AcDbLine
 10
945.032672
 20
325.711888
 30
0.0
 11
945.032672
 21
316.711888
 31
0.0
1001
ACAD
1000
RTLwPs
1070
   128
  0
LINE
  5
3EAD
100
AcDbEntity
  8
MSL-115-P40-S-0
100
AcDbLine
 10
937.032672
 20
316.711888
 30
0.0
 11
937.032672
 21
325.711888
 31
0.0
1001
ACAD
1000
RTLwPs
1070
   128
  0
ARC
  5
3EAE
100
AcDbEntity
  8
MSL-115-P40-S-0
100
AcDbCircle
 10
941.032672
 20
321.211888
 30
0.0
 40
7.5
100
AcDbArc
 50
0.0
 51
238.21949
1001
ACAD
1000
RTLwPs
1070
   128
  0
ARC
  5
3EAF
100
AcDbEntity
  8
MSL-115-P40-S-0
100
AcDbCircle
 10
941.032672
 20
321.211888
 30
0.0
 40
7.5
100
AcDbArc
 50
301.78051
 51
0.0
1001
ACAD
1000
RTLwPs
1070
   128
  0
ARC
  5
3EB0
100
AcDbEntity
  8
MSL-115-P40-S-0
100
AcDbCircle
 10
941.032672
 20
321.211888
 30
0.0
 40
7.232051
100
AcDbArc
 50
0.0
 51
236.894677
1001
ACAD
1000
RTLwPs
1070
   128
  0
ARC
  5
3EB1
100
AcDbEntity
  8
MSL-115-P40-S-0
100
AcDbCircle
 10
941.032672
 20
321.211888
 30
0.0
 40
7.232051
100
AcDbArc
 50
303.105323
 51
0.0
1001
ACAD
1000
RTLwPs
1070
   128
  0
ARC
  5
3EB2
100
AcDbEntity
  8
MSL-115-P40-S-0
100
AcDbCircle
 10
941.032672
 20
321.211888
 30
0.0
 40
7.5
100
AcDbArc
 50
0.0
 51
238.21949
1001
ACAD
1000
RTLwPs
1070
   128
  0
ARC
  5
3EB3
100
AcDbEntity
  8
MSL-115-P40-S-0
100
AcDbCircle
 10
941.032672
 20
321.211888
 30
0.0
 40
7.5
100
AcDbArc
 50
301.78051
 51
0.0
1001
ACAD
1000
RTLwPs
1070
   128
  0
LINE
  5
3EB4
100
AcDbEntity
  8
MSL-115-P40-S-0
100
AcDbLine
 10
967.032672
 20
295.655264
 30
0.0
 11
967.032672
 21
292.768512
 31
0.0
1001
ACAD
1000
RTLwPs
1070
   128
  0
LINE
  5
3EB5
100
AcDbEntity
  8
MSL-115-P40-S-0
100
AcDbLine
 10
964.532672
 20
291.325137
 30
0.0
 11
962.032672
 21
292.768512
 31
0.0
1001
ACAD
1000
RTLwPs
1070
   128
  0
LINE
  5
3EB6
100
AcDbEntity
  8
MSL-115-P40-S-0
100
AcDbLine
 10
962.032672
 20
295.655264
 30
0.0
 11
964.532672
 21
297.098639
 31
0.0
1001
ACAD
1000
RTLwPs
1070
   128
  0
LINE
  5
3EB7
100
AcDbEntity
  8
MSL-115-P40-S-0
100
AcDbLine
 10
962.032672
 20
292.768512
 30
0.0
 11
962.032672
 21
295.655264
 31
0.0
1001
ACAD
1000
RTLwPs
1070
   128
  0
LINE
  5
3EB8
100
AcDbEntity
  8
MSL-115-P40-S-0
100
AcDbLine
 10
967.032672
 20
292.768512
 30
0.0
 11
964.532672
 21
291.325137
 31
0.0
1001
ACAD
1000
RTLwPs
1070
   128
  0
LINE
  5
3EB9
100
AcDbEntity
  8
MSL-115-P40-S-0
100
AcDbLine
 10
964.532672
 20
297.098639
 30
0.0
 11
967.032672
 21
295.655264
 31
0.0
1001
ACAD
1000
RTLwPs
1070
   128
  0
ARC
  5
3EBA
100
AcDbEntity
  8
MSL-115-P40-S-0
100
AcDbCircle
 10
941.032672
 20
298.911888
 30
0.0
 40
4.0
100
AcDbArc
 50
0.0
 51
44.427004
1001
ACAD
1000
RTLwPs
1070
   128
  0
LINE
  5
3EBB
100
AcDbEntity
  8
MSL-115-P40-S-0
100
AcDbLine
 10
937.082672
 20
301.711888
 30
0.0
 11
944.982672
 21
301.711888
 31
0.0
1001
ACAD
1000
RTLwPs
1070
   128
  0
ARC
  5
3EBC
100
AcDbEntity
  8
MSL-115-P40-S-0
100
AcDbCircle
 10
941.032672
 20
298.911888
 30
0.0
 40
4.0
100
AcDbArc
 50
135.572996
 51
247.975687
1001
ACAD
1000
RTLwPs
1070
   128
  0
ARC
  5
3EBD
100
AcDbEntity
  8
MSL-115-P40-S-0
100
AcDbCircle
 10
941.032672
 20
298.911888
 30
0.0
 40
4.0
100
AcDbArc
 50
292.024313
 51
0.0
1001
ACAD
1000
RTLwPs
1070
   128
  0
LINE
  5
3EBE
100
AcDbEntity
  8
MSL-115-P40-S-0
100
AcDbLine
 10
942.532672
 20
289.711888
 30
0.0
 11
939.532672
 21
289.711888
 31
0.0
1001
ACAD
1000
RTLwPs
1070
   128
  0
LINE
  5
3EBF
100
AcDbEntity
  8
MSL-115-P40-S-0
100
AcDbLine
 10
942.532672
 20
289.711888
 30
0.0
 11
942.532672
 21
301.711888
 31
0.0
1001
ACAD
1000
RTLwPs
1070
   128
  0
LINE
  5
3EC0
100
AcDbEntity
  8
MSL-115-P40-S-0
100
AcDbLine
 10
939.532672
 20
301.711888
 30
0.0
 11
939.532672
 21
289.711888
 31
0.0
1001
ACAD
1000
RTLwPs
1070
   128
  0
CIRCLE
  5
3EC1
100
AcDbEntity
  8
MSL-115-P40-S-0
100
AcDbCircle
 10
964.532672
 20
294.211888
 30
0.0
 40
5.5
1001
ACAD
1000
RTLwPs
1070
   128
  0
CIRCLE
  5
3EC2
100
AcDbEntity
  8
MSL-115-P40-S-0
100
AcDbCircle
 10
964.532672
 20
294.211888
 30
0.0
 40
5.0
1001
ACAD
1000
RTLwPs
1070
   128
  0
LINE
  5
3EC3
100
AcDbEntity
  8
MSL-115-P40-S-0
100
AcDbLine
 10
937.082672
 20
316.711888
 30
0.0
 11
937.082672
 21
301.711888
 31
0.0
1001
ACAD
1000
RTLwPs
1070
   128
  0
LINE
  5
3EC4
100
AcDbEntity
  8
MSL-115-P40-S-0
100
AcDbLine
 10
944.982672
 20
301.711888
 30
0.0
 11
944.982672
 21
316.711888
 31
0.0
1001
ACAD
1000
RTLwPs
1070
   128
  0
LINE
  5
3EC5
100
AcDbEntity
  8
MSL-115-P40-S-0
100
AcDbLine
 10
928.032672
 20
327.140091
 30
0.0
 11
928.032672
 21
320.211888
 31
0.0
1001
ACAD
1000
RTLwPs
1070
   128
  0
LINE
  5
3EC6
100
AcDbEntity
  8
MSL-115-P40-S-0
100
AcDbLine
 10
928.032672
 20
313.283685
 30
0.0
 11
922.032672
 21
309.819583
 31
0.0
1001
ACAD
1000
RTLwPs
1070
   128
  0
LINE
  5
3EC7
100
AcDbEntity
  8
MSL-115-P40-S-0
100
AcDbLine
 10
916.032672
 20
306.355481
 30
0.0
 11
910.032672
 21
309.819583
 31
0.0
1001
ACAD
1000
RTLwPs
1070
   128
  0
ARC
  5
3EC8
100
AcDbEntity
  8
MSL-115-P40-S-0
100
AcDbCircle
 10
916.032672
 20
320.211888
 30
0.0
 40
12.0
100
AcDbArc
 50
240.0
 51
300.0
1001
ACAD
1000
RTLwPs
1070
   128
  0
LINE
  5
3EC9
100
AcDbEntity
  8
MSL-115-P40-S-0
100
AcDbLine
 10
922.032672
 20
309.819583
 30
0.0
 11
916.032672
 21
306.355481
 31
0.0
1001
ACAD
1000
RTLwPs
1070
   128
  0
ARC
  5
3ECA
100
AcDbEntity
  8
MSL-115-P40-S-0
100
AcDbCircle
 10
916.032672
 20
320.211888
 30
0.0
 40
12.0
100
AcDbArc
 50
300.0
 51
0.0
1001
ACAD
1000
RTLwPs
1070
   128
  0
LINE
  5
3ECB
100
AcDbEntity
  8
MSL-115-P40-S-0
100
AcDbLine
 10
928.032672
 20
320.211888
 30
0.0
 11
928.032672
 21
313.283685
 31
0.0
1001
ACAD
1000
RTLwPs
1070
   128
  0
LINE
  5
3ECC
100
AcDbEntity
  8
MSL-115-P40-S-0
100
AcDbLine
 10
904.032672
 20
320.211888
 30
0.0
 11
904.032672
 21
327.140091
 31
0.0
1001
ACAD
1000
RTLwPs
1070
   128
  0
LINE
  5
3ECD
100
AcDbEntity
  8
MSL-115-P40-S-0
100
AcDbLine
 10
904.032672
 20
313.283685
 30
0.0
 11
904.032672
 21
320.211888
 31
0.0
1001
ACAD
1000
RTLwPs
1070
   128
  0
ARC
  5
3ECE
100
AcDbEntity
  8
MSL-115-P40-S-0
100
AcDbCircle
 10
916.032672
 20
320.211888
 30
0.0
 40
12.0
100
AcDbArc
 50
180.0
 51
240.0
1001
ACAD
1000
RTLwPs
1070
   128
  0
LINE
  5
3ECF
100
AcDbEntity
  8
MSL-115-P40-S-0
100
AcDbLine
 10
910.032672
 20
309.819583
 30
0.0
 11
904.032672
 21
313.283685
 31
0.0
1001
ACAD
1000
RTLwPs
1070
   128
  0
LINE
  5
3ED0
100
AcDbEntity
  8
MSL-115-P40-S-0
100
AcDbLine
 10
920.032672
 20
295.655264
 30
0.0
 11
920.032672
 21
292.768512
 31
0.0
1001
ACAD
1000
RTLwPs
1070
   128
  0
LINE
  5
3ED1
100
AcDbEntity
  8
MSL-115-P40-S-0
100
AcDbLine
 10
917.532672
 20
291.325137
 30
0.0
 11
915.032672
 21
292.768512
 31
0.0
1001
ACAD
1000
RTLwPs
1070
   128
  0
LINE
  5
3ED2
100
AcDbEntity
  8
MSL-115-P40-S-0
100
AcDbLine
 10
915.032672
 20
295.655264
 30
0.0
 11
917.532672
 21
297.098639
 31
0.0
1001
ACAD
1000
RTLwPs
1070
   128
  0
LINE
  5
3ED3
100
AcDbEntity
  8
MSL-115-P40-S-0
100
AcDbLine
 10
915.032672
 20
292.768512
 30
0.0
 11
915.032672
 21
295.655264
 31
0.0
1001
ACAD
1000
RTLwPs
1070
   128
  0
LINE
  5
3ED4
100
AcDbEntity
  8
MSL-115-P40-S-0
100
AcDbLine
 10
920.032672
 20
292.768512
 30
0.0
 11
917.532672
 21
291.325137
 31
0.0
1001
ACAD
1000
RTLwPs
1070
   128
  0
LINE
  5
3ED5
100
AcDbEntity
  8
MSL-115-P40-S-0
100
AcDbLine
 10
917.532672
 20
297.098639
 30
0.0
 11
920.032672
 21
295.655264
 31
0.0
1001
ACAD
1000
RTLwPs
1070
   128
  0
CIRCLE
  5
3ED6
100
AcDbEntity
  8
MSL-115-P40-S-0
100
AcDbCircle
 10
917.532672
 20
294.211888
 30
0.0
 40
5.5
1001
ACAD
1000
RTLwPs
1070
   128
  0
CIRCLE
  5
3ED7
100
AcDbEntity
  8
MSL-115-P40-S-0
100
AcDbCircle
 10
917.532672
 20
294.211888
 30
0.0
 40
5.0
1001
ACAD
1000
RTLwPs
1070
   128
  0
LINE
  5
3ED8
100
AcDbEntity
  8
MSL-115-P40-S-0
100
AcDbLine
 10
894.032672
 20
297.255264
 30
0.0
 11
894.032672
 21
294.368512
 31
0.0
1001
ACAD
1000
RTLwPs
1070
   128
  0
LINE
  5
3ED9
100
AcDbEntity
  8
MSL-115-P40-S-0
100
AcDbLine
 10
889.032672
 20
294.368512
 30
0.0
 11
889.032672
 21
297.255264
 31
0.0
1001
ACAD
1000
RTLwPs
1070
   128
  0
LINE
  5
3EDA
100
AcDbEntity
  8
MSL-115-P40-S-0
100
AcDbLine
 10
891.532672
 20
292.925137
 30
0.0
 11
889.032672
 21
294.368512
 31
0.0
1001
ACAD
1000
RTLwPs
1070
   128
  0
LINE
  5
3EDB
100
AcDbEntity
  8
MSL-115-P40-S-0
100
AcDbLine
 10
889.032672
 20
297.255264
 30
0.0
 11
891.532672
 21
298.698639
 31
0.0
1001
ACAD
1000
RTLwPs
1070
   128
  0
LINE
  5
3EDC
100
AcDbEntity
  8
MSL-115-P40-S-0
100
AcDbLine
 10
891.532672
 20
298.698639
 30
0.0
 11
894.032672
 21
297.255264
 31
0.0
1001
ACAD
1000
RTLwPs
1070
   128
  0
LINE
  5
3EDD
100
AcDbEntity
  8
MSL-115-P40-S-0
100
AcDbLine
 10
894.032672
 20
294.368512
 30
0.0
 11
891.532672
 21
292.925137
 31
0.0
1001
ACAD
1000
RTLwPs
1070
   128
  0
CIRCLE
  5
3EDE
100
AcDbEntity
  8
MSL-115-P40-S-0
100
AcDbCircle
 10
891.532672
 20
295.811888
 30
0.0
 40
5.5
1001
ACAD
1000
RTLwPs
1070
   128
  0
CIRCLE
  5
3EDF
100
AcDbEntity
  8
MSL-115-P40-S-0
100
AcDbCircle
 10
891.532672
 20
295.811888
 30
0.0
 40
5.0
1001
ACAD
1000
RTLwPs
1070
   128
  0
CIRCLE
  5
3EE0
100
AcDbEntity
  8
MSL-115-P40-S-0
100
AcDbCircle
 10
916.032672
 20
320.211888
 30
0.0
 40
9.0
1001
ACAD
1000
RTLwPs
1070
   128
  0
ARC
  5
3EE1
100
AcDbEntity
  8
MSL-115-P40-S-5
100
AcDbCircle
 10
916.032672
 20
320.211888
 30
0.0
 40
9.4
100
AcDbArc
 50
10.04188
 51
270.660774
1001
ACAD
1000
RTLwPs
1070
   128
  0
CIRCLE
  5
3EE2
100
AcDbEntity
  8
MSL-115-P40-S-0
100
AcDbCircle
 10
916.032672
 20
320.211888
 30
0.0
 40
10.0
1001
ACAD
1000
RTLwPs
1070
   128
  0
ARC
  5
3EE3
100
AcDbEntity
  8
MSL-115-P40-S-0
100
AcDbCircle
 10
916.032672
 20
320.211888
 30
0.0
 40
12.0
100
AcDbArc
 50
0.0
 51
60.0
1001
ACAD
1000
RTLwPs
1070
   128
  0
LINE
  5
3EE4
100
AcDbEntity
  8
MSL-115-P40-S-0
100
AcDbLine
 10
904.032672
 20
327.140091
 30
0.0
 11
910.032672
 21
330.604193
 31
0.0
1001
ACAD
1000
RTLwPs
1070
   128
  0
ARC
  5
3EE5
100
AcDbEntity
  8
MSL-115-P40-S-0
100
AcDbCircle
 10
916.032672
 20
320.211888
 30
0.0
 40
12.0
100
AcDbArc
 50
120.0
 51
180.0
1001
ACAD
1000
RTLwPs
1070
   128
  0
LINE
  5
3EE6
100
AcDbEntity
  8
MSL-115-P40-S-0
100
AcDbLine
 10
922.032672
 20
330.604193
 30
0.0
 11
928.032672
 21
327.140091
 31
0.0
1001
ACAD
1000
RTLwPs
1070
   128
  0
LINE
  5
3EE7
100
AcDbEntity
  8
MSL-115-P40-S-7
100
AcDbLine
 10
896.032672
 20
338.811888
 30
0.0
 11
896.032672
 21
323.311888
 31
0.0
  0
LINE
  5
3EE8
100
AcDbEntity
  8
MSL-115-P40-S-0
100
AcDbLine
 10
1008.032672
 20
334.811888
 30
0.0
 11
953.532672
 21
334.811888
 31
0.0
1001
ACAD
1000
RTLwPs
1070
   128
  0
LINE
  5
3EE9
100
AcDbEntity
  8
MSL-115-P40-S-0
100
AcDbLine
 10
881.532672
 20
334.211888
 30
0.0
 11
1000.532672
 21
334.211888
 31
0.0
1001
ACAD
1000
RTLwPs
1070
   128
  0
CIRCLE
  5
3EEA
100
AcDbEntity
  8
MSL-115-P40-S-0
100
AcDbCircle
 10
990.532672
 20
295.811888
 30
0.0
 40
5.5
1001
ACAD
1000
RTLwPs
1070
   128
  0
CIRCLE
  5
3EEB
100
AcDbEntity
  8
MSL-115-P40-S-0
100
AcDbCircle
 10
990.532672
 20
295.811888
 30
0.0
 40
5.0
1001
ACAD
1000
RTLwPs
1070
   128
  0
LINE
  5
3EF6
100
AcDbEntity
  8
MSL-115-P40-S-0
100
AcDbLine
 10
1003.532672
 20
219.811888
 30
0.0
 11
1003.532672
 21
220.211888
 31
0.0
1001
ACAD
1000
RTLwPs
1070
   128
  0
LINE
  5
3F01
100
AcDbEntity
  8
MSL-115-P40-S-0
100
AcDbLine
 10
999.507672
 20
219.811888
 30
0.0
 11
1003.532672
 21
219.811888
 31
0.0
1001
ACAD
1000
RTLwPs
1070
   128
  0
LINE
  5
3F03
100
AcDbEntity
  8
MSL-115-P40-S-7
100
AcDbLine
 10
989.532534
 20
234.5801
 30
0.0
 11
989.532534
 21
216.5801
 31
0.0
  0
LINE
  5
3F04
100
AcDbEntity
  8
MSL-115-P40-S-0
100
AcDbLine
 10
962.032672
 20
248.655264
 30
0.0
 11
964.532672
 21
250.098639
 31
0.0
1001
ACAD
1000
RTLwPs
1070
   128
  0
LINE
  5
3F05
100
AcDbEntity
  8
MSL-115-P40-S-0
100
AcDbLine
 10
964.532672
 20
250.098639
 30
0.0
 11
967.032672
 21
248.655264
 31
0.0
1001
ACAD
1000
RTLwPs
1070
   128
  0
LINE
  5
3F06
100
AcDbEntity
  8
MSL-115-P40-S-0
100
AcDbLine
 10
964.532672
 20
244.325137
 30
0.0
 11
962.032672
 21
245.768512
 31
0.0
1001
ACAD
1000
RTLwPs
1070
   128
  0
LINE
  5
3F07
100
AcDbEntity
  8
MSL-115-P40-S-0
100
AcDbLine
 10
967.032672
 20
245.768512
 30
0.0
 11
964.532672
 21
244.325137
 31
0.0
1001
ACAD
1000
RTLwPs
1070
   128
  0
LINE
  5
3F08
100
AcDbEntity
  8
MSL-115-P40-S-0
100
AcDbLine
 10
962.032672
 20
245.768512
 30
0.0
 11
962.032672
 21
248.655264
 31
0.0
1001
ACAD
1000
RTLwPs
1070
   128
  0
LINE
  5
3F09
100
AcDbEntity
  8
MSL-115-P40-S-0
100
AcDbLine
 10
967.032672
 20
248.655264
 30
0.0
 11
967.032672
 21
245.768512
 31
0.0
1001
ACAD
1000
RTLwPs
1070
   128
  0
LINE
  5
3F0C
100
AcDbEntity
  8
MSL-115-P40-S-0
100
AcDbLine
 10
967.457672
 20
231.755264
 30
0.0
 11
969.957672
 21
233.198639
 31
0.0
1001
ACAD
1000
RTLwPs
1070
   128
  0
LINE
  5
3F0D
100
AcDbEntity
  8
MSL-115-P40-S-0
100
AcDbLine
 10
969.957672
 20
233.198639
 30
0.0
 11
972.457672
 21
231.755264
 31
0.0
1001
ACAD
1000
RTLwPs
1070
   128
  0
LINE
  5
3F0E
100
AcDbEntity
  8
MSL-115-P40-S-0
100
AcDbLine
 10
972.457672
 20
231.755264
 30
0.0
 11
972.457672
 21
228.868512
 31
0.0
1001
ACAD
1000
RTLwPs
1070
   128
  0
LINE
  5
3F0F
100
AcDbEntity
  8
MSL-115-P40-S-0
100
AcDbLine
 10
967.457672
 20
228.868512
 30
0.0
 11
967.457672
 21
231.755264
 31
0.0
1001
ACAD
1000
RTLwPs
1070
   128
  0
CIRCLE
  5
3F10
100
AcDbEntity
  8
MSL-115-P40-S-0
100
AcDbCircle
 10
964.532672
 20
247.211888
 30
0.0
 40
5.5
1001
ACAD
1000
RTLwPs
1070
   128
  0
CIRCLE
  5
3F11
100
AcDbEntity
  8
MSL-115-P40-S-0
100
AcDbCircle
 10
964.532672
 20
247.211888
 30
0.0
 40
5.0
1001
ACAD
1000
RTLwPs
1070
   128
  0
LINE
  5
3F12
100
AcDbEntity
  8
MSL-115-P40-S-0
100
AcDbLine
 10
920.032672
 20
248.655264
 30
0.0
 11
920.032672
 21
245.768512
 31
0.0
1001
ACAD
1000
RTLwPs
1070
   128
  0
LINE
  5
3F13
100
AcDbEntity
  8
MSL-115-P40-S-0
100
AcDbLine
 10
915.032672
 20
248.655264
 30
0.0
 11
917.532672
 21
250.098639
 31
0.0
1001
ACAD
1000
RTLwPs
1070
   128
  0
LINE
  5
3F14
100
AcDbEntity
  8
MSL-115-P40-S-0
100
AcDbLine
 10
917.532672
 20
244.325137
 30
0.0
 11
915.032672
 21
245.768512
 31
0.0
1001
ACAD
1000
RTLwPs
1070
   128
  0
LINE
  5
3F15
100
AcDbEntity
  8
MSL-115-P40-S-0
100
AcDbLine
 10
915.032672
 20
245.768512
 30
0.0
 11
915.032672
 21
248.655264
 31
0.0
1001
ACAD
1000
RTLwPs
1070
   128
  0
CIRCLE
  5
3F16
100
AcDbEntity
  8
MSL-115-P40-S-0
100
AcDbCircle
 10
917.532672
 20
247.211888
 30
0.0
 40
5.5
1001
ACAD
1000
RTLwPs
1070
   128
  0
CIRCLE
  5
3F17
100
AcDbEntity
  8
MSL-115-P40-S-0
100
AcDbCircle
 10
917.532672
 20
247.211888
 30
0.0
 40
5.0
1001
ACAD
1000
RTLwPs
1070
   128
  0
LINE
  5
3F18
100
AcDbEntity
  8
MSL-115-P40-S-0
100
AcDbLine
 10
917.532672
 20
250.098639
 30
0.0
 11
920.032672
 21
248.655264
 31
0.0
1001
ACAD
1000
RTLwPs
1070
   128
  0
LINE
  5
3F19
100
AcDbEntity
  8
MSL-115-P40-S-0
100
AcDbLine
 10
920.032672
 20
245.768512
 30
0.0
 11
917.532672
 21
244.325137
 31
0.0
1001
ACAD
1000
RTLwPs
1070
   128
  0
LINE
  5
3F1A
100
AcDbEntity
  8
MSL-115-P40-S-0
100
AcDbLine
 10
914.607672
 20
231.755264
 30
0.0
 11
914.607672
 21
228.868512
 31
0.0
1001
ACAD
1000
RTLwPs
1070
   128
  0
LINE
  5
3F1B
100
AcDbEntity
  8
MSL-115-P40-S-0
100
AcDbLine
 10
909.607672
 20
231.755264
 30
0.0
 11
912.107672
 21
233.198639
 31
0.0
1001
ACAD
1000
RTLwPs
1070
   128
  0
LINE
  5
3F1C
100
AcDbEntity
  8
MSL-115-P40-S-0
100
AcDbLine
 10
909.607672
 20
228.868512
 30
0.0
 11
909.607672
 21
231.755264
 31
0.0
1001
ACAD
1000
RTLwPs
1070
   128
  0
LINE
  5
3F1D
100
AcDbEntity
  8
MSL-115-P40-S-0
100
AcDbLine
 10
912.107672
 20
233.198639
 30
0.0
 11
914.607672
 21
231.755264
 31
0.0
1001
ACAD
1000
RTLwPs
1070
   128
  0
LINE
  5
3F33
100
AcDbEntity
  8
MSL-115-P40-S-0
100
AcDbLine
 10
961.032672
 20
220.211888
 30
0.0
 11
961.032672
 21
219.811888
 31
0.0
1001
ACAD
1000
RTLwPs
1070
   128
  0
LINE
  5
3F34
100
AcDbEntity
  8
MSL-115-P40-S-0
100
AcDbLine
 10
961.032672
 20
219.811888
 30
0.0
 11
979.407672
 21
219.811888
 31
0.0
1001
ACAD
1000
RTLwPs
1070
   128
  0
LINE
  5
3F35
100
AcDbEntity
  8
MSL-115-P40-S-0
100
AcDbLine
 10
921.032672
 20
220.211888
 30
0.0
 11
921.032672
 21
219.811888
 31
0.0
1001
ACAD
1000
RTLwPs
1070
   128
  0
LINE
  5
3F48
100
AcDbEntity
  8
MSL-115-P40-S-0
100
AcDbLine
 10
882.557672
 20
219.811888
 30
0.0
 11
878.532672
 21
219.811888
 31
0.0
1001
ACAD
1000
RTLwPs
1070
   128
  0
LINE
  5
3F49
100
AcDbEntity
  8
MSL-115-P40-S-0
100
AcDbLine
 10
878.532672
 20
219.811888
 30
0.0
 11
878.532672
 21
220.211888
 31
0.0
1001
ACAD
1000
RTLwPs
1070
   128
  0
LINE
  5
3F4C
100
AcDbEntity
  8
MSL-115-P40-S-0
100
AcDbLine
 10
921.032672
 20
219.811888
 30
0.0
 11
902.657672
 21
219.811888
 31
0.0
1001
ACAD
1000
RTLwPs
1070
   128
  0
CIRCLE
  5
3F50
100
AcDbEntity
  8
MSL-115-P40-S-0
100
AcDbCircle
 10
912.107672
 20
230.311888
 30
0.0
 40
5.5
1001
ACAD
1000
RTLwPs
1070
   128
  0
CIRCLE
  5
3F51
100
AcDbEntity
  8
MSL-115-P40-S-0
100
AcDbCircle
 10
969.957672
 20
230.311888
 30
0.0
 40
5.5
1001
ACAD
1000
RTLwPs
1070
   128
  0
CIRCLE
  5
3F52
100
AcDbEntity
  8
MSL-115-P40-S-0
100
AcDbCircle
 10
912.107672
 20
230.311888
 30
0.0
 40
5.0
1001
ACAD
1000
RTLwPs
1070
   128
  0
LINE
  5
3F53
100
AcDbEntity
  8
MSL-115-P40-S-0
100
AcDbLine
 10
914.607672
 20
228.868512
 30
0.0
 11
912.107672
 21
227.425137
 31
0.0
1001
ACAD
1000
RTLwPs
1070
   128
  0
LINE
  5
3F54
100
AcDbEntity
  8
MSL-115-P40-S-0
100
AcDbLine
 10
912.107672
 20
227.425137
 30
0.0
 11
909.607672
 21
228.868512
 31
0.0
1001
ACAD
1000
RTLwPs
1070
   128
  0
LINE
  5
3F55
100
AcDbEntity
  8
MSL-115-P40-S-0
100
AcDbLine
 10
972.457672
 20
228.868512
 30
0.0
 11
969.957672
 21
227.425137
 31
0.0
1001
ACAD
1000
RTLwPs
1070
   128
  0
LINE
  5
3F56
100
AcDbEntity
  8
MSL-115-P40-S-0
100
AcDbLine
 10
969.957672
 20
227.425137
 30
0.0
 11
967.457672
 21
228.868512
 31
0.0
1001
ACAD
1000
RTLwPs
1070
   128
  0
CIRCLE
  5
3F57
100
AcDbEntity
  8
MSL-115-P40-S-0
100
AcDbCircle
 10
969.957672
 20
230.311888
 30
0.0
 40
5.0
1001
ACAD
1000
RTLwPs
1070
   128
  0
LINE
  5
3F58
100
AcDbEntity
  8
MSL-115-P40-S-7
100
AcDbLine
 10
892.53281
 20
234.5801
 30
0.0
 11
892.53281
 21
216.5801
 31
0.0
  0
LINE
  5
3F5A
100
AcDbEntity
  8
MSL-115-P40-S-0
100
AcDbLine
 10
1003.532672
 20
220.211888
 30
0.0
 11
878.532672
 21
220.211888
 31
0.0
1001
ACAD
1000
RTLwPs
1070
   128
  0
LINE
  5
3F5B
100
AcDbEntity
  8
MSL-115-P40-S-0
100
AcDbLine
 10
1003.532672
 20
331.211888
 30
0.0
 11
1003.532672
 21
220.211888
 31
0.0
1001
ACAD
1000
RTLwPs
1070
   128
  0
LINE
  5
3F5C
100
AcDbEntity
  8
MSL-115-P40-S-0
100
AcDbLine
 10
878.532672
 20
220.211888
 30
0.0
 11
878.532672
 21
331.211888
 31
0.0
1001
ACAD
1000
RTLwPs
1070
   128
  0
LINE
  5
3F5D
100
AcDbEntity
  8
MSL-115-P40-S-0
100
AcDbLine
 10
874.032672
 20
334.811888
 30
0.0
 11
873.532672
 21
334.311888
 31
0.0
1001
ACAD
1000
RTLwPs
1070
   128
  0
LINE
  5
3F5E
100
AcDbEntity
  8
MSL-115-P40-S-0
100
AcDbLine
 10
875.032672
 20
334.311888
 30
0.0
 11
874.032672
 21
333.311888
 31
0.0
1001
ACAD
1000
RTLwPs
1070
   128
  0
LINE
  5
3F5F
100
AcDbEntity
  8
MSL-115-P40-S-0
 48
2.0
100
AcDbLine
 10
841.241939
 20
330.411888
 30
0.0
 11
842.241939
 21
329.411888
 31
0.0
  0
LINE
  5
3F60
100
AcDbEntity
  8
MSL-115-P40-S-0
 48
2.0
100
AcDbLine
 10
792.741939
 20
330.804193
 30
0.0
 11
792.741939
 21
332.411888
 31
0.0
1001
ACAD
1000
RTLwPs
1070
   128
  0
LINE
  5
3F61
100
AcDbEntity
  8
MSL-115-P40-S-0
 48
2.0
100
AcDbLine
 10
787.417615
 20
334.268294
 30
0.0
 11
786.741939
 21
332.411888
 31
0.0
1001
ACAD
1000
RTLwPs
1070
   128
  0
LINE
  5
3F62
100
AcDbEntity
  8
MSL-115-P40-S-0
 48
2.0
100
AcDbLine
 10
792.066262
 20
334.268294
 30
0.0
 11
787.417615
 21
334.268294
 31
0.0
1001
ACAD
1000
RTLwPs
1070
   128
  0
ARC
  5
3F63
100
AcDbEntity
  8
MSL-115-P40-S-0
 48
2.0
100
AcDbCircle
 10
796.626119
 20
330.674219
 30
0.0
 40
9.885035
100
AcDbArc
 50
158.67932
 51
179.246625
1001
ACAD
1000
RTLwPs
1070
   128
  0
LINE
  5
3F64
100
AcDbEntity
  8
MSL-115-P40-S-0
 48
2.0
100
AcDbLine
 10
786.741939
 20
334.411888
 30
0.0
 11
786.741939
 21
331.411888
 31
0.0
1001
ACAD
1000
RTLwPs
1070
   128
  0
LINE
  5
3F65
100
AcDbEntity
  8
MSL-115-P40-S-0
 48
2.0
100
AcDbLine
 10
792.741939
 20
332.411888
 30
0.0
 11
792.066262
 21
334.268294
 31
0.0
1001
ACAD
1000
RTLwPs
1070
   128
  0
ARC
  5
3F66
100
AcDbEntity
  8
MSL-115-P40-S-0
 48
2.0
100
AcDbCircle
 10
782.863208
 20
330.675282
 30
0.0
 40
9.879572
100
AcDbArc
 50
0.747626
 51
21.326429
1001
ACAD
1000
RTLwPs
1070
   128
  0
LINE
  5
3F67
100
AcDbEntity
  8
MSL-115-P40-S-0
 48
2.0
100
AcDbLine
 10
772.741939
 20
331.411888
 30
0.0
 11
772.741939
 21
334.411888
 31
0.0
1001
ACAD
1000
RTLwPs
1070
   128
  0
LINE
  5
3F68
100
AcDbEntity
  8
MSL-115-P40-S-0
 48
2.0
100
AcDbLine
 10
772.741939
 20
334.411888
 30
0.0
 11
786.741939
 21
334.411888
 31
0.0
1001
ACAD
1000
RTLwPs
1070
   128
  0
LINE
  5
3F69
100
AcDbEntity
  8
MSL-115-P40-S-0
 48
2.0
100
AcDbLine
 10
786.741939
 20
331.411888
 30
0.0
 11
772.741939
 21
331.411888
 31
0.0
1001
ACAD
1000
RTLwPs
1070
   128
  0
LINE
  5
3F6A
100
AcDbEntity
  8
MSL-115-P40-S-0
 48
2.0
100
AcDbLine
 10
792.741939
 20
330.411888
 30
0.0
 11
841.241939
 21
330.411888
 31
0.0
  0
LINE
  5
3F6B
100
AcDbEntity
  8
MSL-115-P40-S-5
 48
2.0
100
AcDbLine
 10
841.741939
 20
329.911888
 30
0.0
 11
792.741939
 21
329.911888
 31
0.0
  0
LINE
  5
3F6C
100
AcDbEntity
  8
MSL-115-P40-S-0
100
AcDbLine
 10
874.032672
 20
313.311888
 30
0.0
 11
875.032672
 21
312.311888
 31
0.0
1001
ACAD
1000
RTLwPs
1070
   128
  0
LINE
  5
3F6D
100
AcDbEntity
  8
MSL-115-P40-S-0
100
AcDbLine
 10
875.332672
 20
309.811888
 30
0.0
 11
874.532672
 21
309.011888
 31
0.0
1001
ACAD
1000
RTLwPs
1070
   128
  0
LINE
  5
3F6E
100
AcDbEntity
  8
MSL-115-P40-S-0
 48
2.0
100
AcDbLine
 10
848.241939
 20
328.911888
 30
0.0
 11
848.241939
 21
320.411888
 31
0.0
  0
POLYLINE
  5
3F6F
100
AcDbEntity
  8
MSL-115-P40-S-0
 48
2.0
100
AcDb2dPolyline
 66
     1
 10
0.0
 20
0.0
 30
0.0
  0
VERTEX
  5
3F70
100
AcDbEntity
  8
MSL-115-P40-S-0
 48
2.0
100
AcDbVertex
100
AcDb2dVertex
 10
842.241939
 20
328.911888
 30
0.0
  0
VERTEX
  5
3F71
100
AcDbEntity
  8
MSL-115-P40-S-0
 48
2.0
100
AcDbVertex
100
AcDb2dVertex
 10
848.241939
 20
328.911888
 30
0.0
  0
VERTEX
  5
3F72
100
AcDbEntity
  8
MSL-115-P40-S-0
 48
2.0
100
AcDbVertex
100
AcDb2dVertex
 10
849.241939
 20
327.911888
 30
0.0
  0
VERTEX
  5
3F73
100
AcDbEntity
  8
MSL-115-P40-S-0
 48
2.0
100
AcDbVertex
100
AcDb2dVertex
 10
849.241939
 20
320.411888
 30
0.0
  0
SEQEND
  5
3F74
100
AcDbEntity
  8
MSL-115-P40-S-0
 48
2.0
  0
LINE
  5
3F75
100
AcDbEntity
  8
MSL-115-P40-S-0
 48
2.0
100
AcDbLine
 10
841.241939
 20
310.411888
 30
0.0
 11
842.241939
 21
311.411888
 31
0.0
  0
LINE
  5
3F76
100
AcDbEntity
  8
MSL-115-P40-S-0
 48
2.0
100
AcDbLine
 10
842.241939
 20
311.411888
 30
0.0
 11
842.241939
 21
320.411888
 31
0.0
  0
POLYLINE
  5
3F77
100
AcDbEntity
  8
MSL-115-P40-S-0
 48
2.0
100
AcDb2dPolyline
 66
     1
 10
0.0
 20
0.0
 30
0.0
  0
VERTEX
  5
3F78
100
AcDbEntity
  8
MSL-115-P40-S-0
 48
2.0
100
AcDbVertex
100
AcDb2dVertex
 10
842.241939
 20
311.911888
 30
0.0
  0
VERTEX
  5
3F79
100
AcDbEntity
  8
MSL-115-P40-S-0
 48
2.0
100
AcDbVertex
100
AcDb2dVertex
 10
848.241939
 20
311.911888
 30
0.0
  0
VERTEX
  5
3F7A
100
AcDbEntity
  8
MSL-115-P40-S-0
 48
2.0
100
AcDbVertex
100
AcDb2dVertex
 10
849.241939
 20
312.911888
 30
0.0
  0
VERTEX
  5
3F7B
100
AcDbEntity
  8
MSL-115-P40-S-0
 48
2.0
100
AcDbVertex
100
AcDb2dVertex
 10
849.241939
 20
320.411888
 30
0.0
  0
SEQEND
  5
3F7C
100
AcDbEntity
  8
MSL-115-P40-S-0
 48
2.0
  0
LINE
  5
3F7D
100
AcDbEntity
  8
MSL-115-P40-S-0
 48
2.0
100
AcDbLine
 10
848.241939
 20
311.911888
 30
0.0
 11
848.241939
 21
320.411888
 31
0.0
  0
LINE
  5
3F7E
100
AcDbEntity
  8
MSL-115-P40-S-0
100
AcDbLine
 10
874.532672
 20
293.311888
 30
0.0
 11
875.032672
 21
292.811888
 31
0.0
1001
ACAD
1000
RTLwPs
1070
   128
  0
LINE
  5
3F7F
100
AcDbEntity
  8
MSL-115-P40-S-0
100
AcDbLine
 10
877.832672
 20
290.011888
 30
0.0
 11
875.032672
 21
292.811888
 31
0.0
1001
ACAD
1000
RTLwPs
1070
   128
  0
LINE
  5
3F80
100
AcDbEntity
  8
MSL-115-P40-S-0
100
AcDbLine
 10
875.032672
 20
292.811888
 30
0.0
 11
875.032672
 21
309.411888
 31
0.0
1001
ACAD
1000
RTLwPs
1070
   128
  0
LINE
  5
3F81
100
AcDbEntity
  8
MSL-115-P40-S-0
100
AcDbLine
 10
874.532672
 20
309.011888
 30
0.0
 11
874.532672
 21
293.311888
 31
0.0
1001
ACAD
1000
RTLwPs
1070
   128
  0
LINE
  5
3F82
100
AcDbEntity
  8
MSL-115-P40-S-0
 48
2.0
100
AcDbLine
 10
825.241939
 20
327.911888
 30
0.0
 11
825.241939
 21
325.911888
 31
0.0
1001
ACAD
1000
RTLwPs
1070
   128
  0
LINE
  5
3F83
100
AcDbEntity
  8
MSL-115-P40-S-0
 48
2.0
100
AcDbLine
 10
816.741939
 20
325.911888
 30
0.0
 11
816.741939
 21
327.911888
 31
0.0
1001
ACAD
1000
RTLwPs
1070
   128
  0
LINE
  5
3F84
100
AcDbEntity
  8
MSL-115-P40-S-0
 48
2.0
100
AcDbLine
 10
816.741939
 20
327.911888
 30
0.0
 11
825.241939
 21
327.911888
 31
0.0
1001
ACAD
1000
RTLwPs
1070
   128
  0
LINE
  5
3F85
100
AcDbEntity
  8
MSL-115-P40-S-0
 48
2.0
100
AcDbLine
 10
816.741939
 20
316.911888
 30
0.0
 11
816.741939
 21
321.411888
 31
0.0
1001
ACAD
1000
RTLwPs
1070
   128
  0
LINE
  5
3F86
100
AcDbEntity
  8
MSL-115-P40-S-0
 48
2.0
100
AcDbLine
 10
825.241939
 20
316.911888
 30
0.0
 11
816.741939
 21
316.911888
 31
0.0
1001
ACAD
1000
RTLwPs
1070
   128
  0
LINE
  5
3F87
100
AcDbEntity
  8
MSL-115-P40-S-0
 48
2.0
100
AcDbLine
 10
816.741939
 20
321.411888
 30
0.0
 11
816.741939
 21
325.911888
 31
0.0
1001
ACAD
1000
RTLwPs
1070
   128
  0
LINE
  5
3F88
100
AcDbEntity
  8
MSL-115-P40-S-0
 48
2.0
100
AcDbLine
 10
825.241939
 20
316.911888
 30
0.0
 11
825.241939
 21
325.911888
 31
0.0
1001
ACAD
1000
RTLwPs
1070
   128
  0
LINE
  5
3F89
100
AcDbEntity
  8
MSL-115-P40-S-0
 48
2.0
100
AcDbLine
 10
808.241939
 20
324.911888
 30
0.0
 11
800.241939
 21
324.911888
 31
0.0
1001
ACAD
1000
RTLwPs
1070
   128
  0
LINE
  5
3F8A
100
AcDbEntity
  8
MSL-115-P40-S-0
 48
2.0
100
AcDbLine
 10
800.241939
 20
317.911888
 30
0.0
 11
808.241939
 21
317.911888
 31
0.0
1001
ACAD
1000
RTLwPs
1070
   128
  0
LINE
  5
3F8B
100
AcDbEntity
  8
MSL-115-P40-S-0
 48
2.0
100
AcDbLine
 10
808.241939
 20
317.411888
 30
0.0
 11
808.241939
 21
325.411888
 31
0.0
1001
ACAD
1000
RTLwPs
1070
   128
  0
LINE
  5
3F8C
100
AcDbEntity
  8
MSL-115-P40-S-0
 48
2.0
100
AcDbLine
 10
800.241939
 20
317.411888
 30
0.0
 11
800.241939
 21
325.411888
 31
0.0
1001
ACAD
1000
RTLwPs
1070
   128
  0
LINE
  5
3F8D
100
AcDbEntity
  8
MSL-115-P40-S-0
 48
2.0
100
AcDbLine
 10
816.741939
 20
325.411888
 30
0.0
 11
808.241939
 21
325.411888
 31
0.0
1001
ACAD
1000
RTLwPs
1070
   128
  0
LINE
  5
3F8E
100
AcDbEntity
  8
MSL-115-P40-S-0
 48
2.0
100
AcDbLine
 10
808.241939
 20
317.411888
 30
0.0
 11
816.741939
 21
317.411888
 31
0.0
1001
ACAD
1000
RTLwPs
1070
   128
  0
LINE
  5
3F8F
100
AcDbEntity
  8
MSL-115-P40-S-0
 48
2.0
100
AcDbLine
 10
792.066262
 20
327.340091
 30
0.0
 11
787.741939
 21
327.340091
 31
0.0
1001
ACAD
1000
RTLwPs
1070
   128
  0
ARC
  5
3F90
100
AcDbEntity
  8
MSL-115-P40-S-0
 48
2.0
100
AcDbCircle
 10
754.708002
 20
320.199657
 30
0.0
 40
38.034529
100
AcDbArc
 50
7.884652
 51
10.820663
1001
ACAD
1000
RTLwPs
1070
   128
  0
LINE
  5
3F91
100
AcDbEntity
  8
MSL-115-P40-S-0
 48
2.0
100
AcDbLine
 10
787.741939
 20
328.643939
 30
0.0
 11
786.741939
 21
328.911888
 31
0.0
1001
ACAD
1000
RTLwPs
1070
   128
  0
ARC
  5
3F92
100
AcDbEntity
  8
MSL-115-P40-S-0
 48
2.0
100
AcDbCircle
 10
824.968205
 20
320.642875
 30
0.0
 40
38.226964
100
AcDbArc
 50
189.907803
 51
190.794159
1001
ACAD
1000
RTLwPs
1070
   128
  0
LINE
  5
3F93
100
AcDbEntity
  8
MSL-115-P40-S-0
 48
2.0
100
AcDbLine
 10
792.066262
 20
313.483685
 30
0.0
 11
787.417615
 21
313.483685
 31
0.0
1001
ACAD
1000
RTLwPs
1070
   128
  0
LINE
  5
3F94
100
AcDbEntity
  8
MSL-115-P40-S-0
 48
2.0
100
AcDbLine
 10
786.741939
 20
313.911888
 30
0.0
 11
787.741939
 21
314.179837
 31
0.0
1001
ACAD
1000
RTLwPs
1070
   128
  0
LINE
  5
3F95
100
AcDbEntity
  8
MSL-115-P40-S-0
 48
2.0
100
AcDbLine
 10
792.741939
 20
310.019583
 30
0.0
 11
792.741939
 21
308.411888
 31
0.0
1001
ACAD
1000
RTLwPs
1070
   128
  0
LINE
  5
3F96
100
AcDbEntity
  8
MSL-115-P40-S-0
 48
2.0
100
AcDbLine
 10
792.066262
 20
306.555481
 30
0.0
 11
787.417615
 21
306.555481
 31
0.0
1001
ACAD
1000
RTLwPs
1070
   128
  0
LINE
  5
3F97
100
AcDbEntity
  8
MSL-115-P40-S-0
 48
2.0
100
AcDbLine
 10
786.741939
 20
308.411888
 30
0.0
 11
787.417615
 21
306.555481
 31
0.0
1001
ACAD
1000
RTLwPs
1070
   128
  0
ARC
  5
3F98
100
AcDbEntity
  8
MSL-115-P40-S-0
 48
2.0
100
AcDbCircle
 10
796.620669
 20
310.148493
 30
0.0
 40
9.879572
100
AcDbArc
 50
180.747626
 51
201.326429
1001
ACAD
1000
RTLwPs
1070
   128
  0
LINE
  5
3F99
100
AcDbEntity
  8
MSL-115-P40-S-0
 48
2.0
100
AcDbLine
 10
792.066262
 20
306.555481
 30
0.0
 11
792.741939
 21
308.411888
 31
0.0
1001
ACAD
1000
RTLwPs
1070
   128
  0
ARC
  5
3F9A
100
AcDbEntity
  8
MSL-115-P40-S-0
 48
2.0
100
AcDbCircle
 10
782.857758
 20
310.149556
 30
0.0
 40
9.885035
100
AcDbArc
 50
338.67932
 51
359.246625
1001
ACAD
1000
RTLwPs
1070
   128
  0
ARC
  5
3F9B
100
AcDbEntity
  8
MSL-115-P40-S-0
 48
2.0
100
AcDbCircle
 10
782.863208
 20
309.890673
 30
0.0
 40
9.879572
100
AcDbArc
 50
0.747626
 51
21.326429
1001
ACAD
1000
RTLwPs
1070
   128
  0
ARC
  5
3F9C
100
AcDbEntity
  8
MSL-115-P40-S-0
 48
2.0
100
AcDbCircle
 10
796.626119
 20
309.88961
 30
0.0
 40
9.885035
100
AcDbArc
 50
158.67932
 51
179.246625
1001
ACAD
1000
RTLwPs
1070
   128
  0
ARC
  5
3F9D
100
AcDbEntity
  8
MSL-115-P40-S-0
 48
2.0
100
AcDbCircle
 10
754.510369
 20
320.643392
 30
0.0
 40
38.232271
100
AcDbArc
 50
349.206568
 51
355.150266
1001
ACAD
1000
RTLwPs
1070
   128
  0
LINE
  5
3F9E
100
AcDbEntity
  8
MSL-115-P40-S-0
 48
2.0
100
AcDbLine
 10
792.741939
 20
317.411888
 30
0.0
 11
792.741939
 21
310.019583
 31
0.0
1001
ACAD
1000
RTLwPs
1070
   128
  0
LINE
  5
3F9F
100
AcDbEntity
  8
MSL-115-P40-S-0
 48
2.0
100
AcDbLine
 10
787.741939
 20
328.643939
 30
0.0
 11
787.741939
 21
314.179837
 31
0.0
1001
ACAD
1000
RTLwPs
1070
   128
  0
POLYLINE
  5
3FA0
100
AcDbEntity
  8
MSL-115-P40-S-0
 48
2.0
100
AcDb2dPolyline
 66
     1
 10
0.0
 20
0.0
 30
0.0
  0
VERTEX
  5
3FA1
100
AcDbEntity
  8
MSL-115-P40-S-0
 48
2.0
100
AcDbVertex
100
AcDb2dVertex
 10
792.741939
 20
310.411888
 30
0.0
  0
VERTEX
  5
3FA2
100
AcDbEntity
  8
MSL-115-P40-S-0
 48
2.0
100
AcDbVertex
100
AcDb2dVertex
 10
817.041939
 20
310.411888
 30
0.0
  0
SEQEND
  5
3FA3
100
AcDbEntity
  8
MSL-115-P40-S-0
 48
2.0
  0
LINE
  5
3FA4
100
AcDbEntity
  8
MSL-115-P40-S-5
 48
2.0
100
AcDbLine
 10
817.041939
 20
310.911888
 30
0.0
 11
792.741939
 21
310.911888
 31
0.0
  0
LINE
  5
3FA5
100
AcDbEntity
  8
MSL-115-P40-S-5
 48
2.0
100
AcDbLine
 10
787.741939
 20
318.176888
 30
0.0
 11
800.241939
 21
318.176888
 31
0.0
1001
ACAD
1000
RTLwPs
1070
   128
  0
LINE
  5
3FA6
100
AcDbEntity
  8
MSL-115-P40-S-5
 48
2.0
100
AcDbLine
 10
787.741939
 20
324.646888
 30
0.0
 11
800.241939
 21
324.646888
 31
0.0
1001
ACAD
1000
RTLwPs
1070
   128
  0
LINE
  5
3FA7
100
AcDbEntity
  8
MSL-115-P40-S-0
 48
2.0
100
AcDbLine
 10
787.741939
 20
317.411888
 30
0.0
 11
800.241939
 21
317.411888
 31
0.0
1001
ACAD
1000
RTLwPs
1070
   128
  0
LINE
  5
3FA8
100
AcDbEntity
  8
MSL-115-P40-S-0
 48
2.0
100
AcDbLine
 10
800.241939
 20
325.411888
 30
0.0
 11
787.741939
 21
325.411888
 31
0.0
1001
ACAD
1000
RTLwPs
1070
   128
  0
LINE
  5
3FA9
100
AcDbEntity
  8
MSL-115-P40-S-0
 48
2.0
100
AcDbLine
 10
817.041939
 20
301.911888
 30
0.0
 11
824.941939
 21
301.911888
 31
0.0
1001
ACAD
1000
RTLwPs
1070
   128
  0
LINE
  5
3FAA
100
AcDbEntity
  8
MSL-115-P40-S-0
 48
2.0
100
AcDbLine
 10
822.491939
 20
289.911888
 30
0.0
 11
819.491939
 21
289.911888
 31
0.0
1001
ACAD
1000
RTLwPs
1070
   128
  0
LINE
  5
3FAB
100
AcDbEntity
  8
MSL-115-P40-S-0
 48
2.0
100
AcDbLine
 10
819.491939
 20
301.911888
 30
0.0
 11
819.491939
 21
289.911888
 31
0.0
1001
ACAD
1000
RTLwPs
1070
   128
  0
LINE
  5
3FAC
100
AcDbEntity
  8
MSL-115-P40-S-0
 48
2.0
100
AcDbLine
 10
822.491939
 20
289.911888
 30
0.0
 11
822.491939
 21
301.911888
 31
0.0
1001
ACAD
1000
RTLwPs
1070
   128
  0
LINE
  5
3FAD
100
AcDbEntity
  8
MSL-115-P40-S-0
 48
2.0
100
AcDbLine
 10
824.941939
 20
301.911888
 30
0.0
 11
824.941939
 21
316.911888
 31
0.0
1001
ACAD
1000
RTLwPs
1070
   128
  0
LINE
  5
3FAE
100
AcDbEntity
  8
MSL-115-P40-S-0
 48
2.0
100
AcDbLine
 10
817.041939
 20
316.911888
 30
0.0
 11
817.041939
 21
301.911888
 31
0.0
1001
ACAD
1000
RTLwPs
1070
   128
  0
LINE
  5
3FAF
100
AcDbEntity
  8
MSL-115-P40-S-0
 48
2.0
100
AcDbLine
 10
824.941939
 20
310.411888
 30
0.0
 11
841.241939
 21
310.411888
 31
0.0
  0
LINE
  5
3FB0
100
AcDbEntity
  8
MSL-115-P40-S-5
 48
2.0
100
AcDbLine
 10
841.741939
 20
310.911888
 30
0.0
 11
824.941939
 21
310.911888
 31
0.0
  0
LINE
  5
3FB1
100
AcDbEntity
  8
MSL-115-P40-S-0
 48
2.0
100
AcDbLine
 10
842.241939
 20
329.411888
 30
0.0
 11
842.241939
 21
320.411888
 31
0.0
  0
LINE
  5
3FB2
100
AcDbEntity
  8
MSL-115-P40-S-0
 48
2.0
100
AcDbLine
 10
841.241939
 20
310.411888
 30
0.0
 11
841.241939
 21
330.411888
 31
0.0
  0
ARC
  5
3FB3
100
AcDbEntity
  8
MSL-115-P40-S-0
 48
2.0
100
AcDbCircle
 10
796.620669
 20
330.933103
 30
0.0
 40
9.879572
100
AcDbArc
 50
180.747626
 51
192.217249
1001
ACAD
1000
RTLwPs
1070
   128
  0
ARC
  5
3FB4
100
AcDbEntity
  8
MSL-115-P40-S-0
 48
2.0
100
AcDbCircle
 10
782.857758
 20
330.934166
 30
0.0
 40
9.885035
100
AcDbArc
 50
338.67932
 51
359.246625
1001
ACAD
1000
RTLwPs
1070
   128
  0
LINE
  5
3FB5
100
AcDbEntity
  8
MSL-115-P40-S-0
 48
2.0
100
AcDbLine
 10
792.741939
 20
330.804193
 30
0.0
 11
792.741939
 21
325.411888
 31
0.0
1001
ACAD
1000
RTLwPs
1070
   128
  0
LINE
  5
3FB6
100
AcDbEntity
  8
MSL-115-P40-S-0
 48
2.0
100
AcDbLine
 10
772.741939
 20
331.411888
 30
0.0
 11
772.741939
 21
312.911888
 31
0.0
1001
ACAD
1000
RTLwPs
1070
   128
  0
LINE
  5
3FB7
100
AcDbEntity
  8
MSL-115-P40-S-0
100
AcDbLine
 10
873.532672
 20
334.311888
 30
0.0
 11
873.532672
 21
309.811888
 31
0.0
1001
ACAD
1000
RTLwPs
1070
   128
  0
LINE
  5
3FB8
100
AcDbEntity
  8
MSL-115-P40-S-0
100
AcDbLine
 10
874.032672
 20
313.311888
 30
0.0
 11
874.032672
 21
333.311888
 31
0.0
1001
ACAD
1000
RTLwPs
1070
   128
  0
LINE
  5
3FB9
100
AcDbEntity
  8
MSL-115-P40-S-5
 48
2.0
100
AcDbLine
 10
769.95803
 20
329.911888
 30
0.0
 11
765.741939
 21
329.911888
 31
0.0
  0
ARC
  5
3FBA
100
AcDbEntity
  8
MSL-115-P40-S-0
 48
2.0
100
AcDbCircle
 10
780.376661
 20
321.411888
 30
0.0
 40
10.634722
100
AcDbArc
 50
152.518771
 51
207.481229
  0
POLYLINE
  5
3FBB
100
AcDbEntity
  8
MSL-115-P40-S-0
 48
2.0
100
AcDb2dPolyline
 66
     1
 10
0.0
 20
0.0
 30
0.0
  0
VERTEX
  5
3FBC
100
AcDbEntity
  8
MSL-115-P40-S-0
 48
2.0
100
AcDbVertex
100
AcDb2dVertex
 10
763.741939
 20
320.411888
 30
0.0
  0
VERTEX
  5
3FBD
100
AcDbEntity
  8
MSL-115-P40-S-0
 48
2.0
100
AcDbVertex
100
AcDb2dVertex
 10
763.741939
 20
328.911888
 30
0.0
  0
SEQEND
  5
3FBE
100
AcDbEntity
  8
MSL-115-P40-S-0
 48
2.0
  0
POLYLINE
  5
3FBF
100
AcDbEntity
  8
MSL-115-P40-S-0
 48
2.0
100
AcDb2dPolyline
 66
     1
 10
0.0
 20
0.0
 30
0.0
  0
VERTEX
  5
3FC0
100
AcDbEntity
  8
MSL-115-P40-S-0
 48
2.0
100
AcDbVertex
100
AcDb2dVertex
 10
763.241939
 20
320.411888
 30
0.0
  0
VERTEX
  5
3FC1
100
AcDbEntity
  8
MSL-115-P40-S-0
 48
2.0
100
AcDbVertex
100
AcDb2dVertex
 10
763.241939
 20
328.411888
 30
0.0
  0
VERTEX
  5
3FC2
100
AcDbEntity
  8
MSL-115-P40-S-0
 48
2.0
100
AcDbVertex
100
AcDb2dVertex
 10
763.741939
 20
328.911888
 30
0.0
  0
VERTEX
  5
3FC3
100
AcDbEntity
  8
MSL-115-P40-S-0
 48
2.0
100
AcDbVertex
100
AcDb2dVertex
 10
765.241939
 20
328.911888
 30
0.0
  0
SEQEND
  5
3FC4
100
AcDbEntity
  8
MSL-115-P40-S-0
 48
2.0
  0
ARC
  5
3FC5
100
AcDbEntity
  8
MSL-115-P40-S-0
 48
2.0
100
AcDbCircle
 10
772.850619
 20
314.050672
 30
0.0
 40
3.108681
100
AcDbArc
 50
127.878142
 51
201.489078
  0
LINE
  5
3FC6
100
AcDbEntity
  8
MSL-115-P40-S-0
 48
2.0
100
AcDbLine
 10
765.241939
 20
320.411888
 30
0.0
 11
765.241939
 21
312.911888
 31
0.0
  0
LINE
  5
3FC7
100
AcDbEntity
  8
MSL-115-P40-S-0
 48
2.0
100
AcDbLine
 10
766.241939
 20
312.911888
 30
0.0
 11
766.241939
 21
320.411888
 31
0.0
  0
POLYLINE
  5
3FC8
100
AcDbEntity
  8
MSL-115-P40-S-0
 48
2.0
100
AcDb2dPolyline
 66
     1
 10
0.0
 20
0.0
 30
0.0
  0
VERTEX
  5
3FC9
100
AcDbEntity
  8
MSL-115-P40-S-0
 48
2.0
100
AcDbVertex
100
AcDb2dVertex
 10
763.741939
 20
320.411888
 30
0.0
  0
VERTEX
  5
3FCA
100
AcDbEntity
  8
MSL-115-P40-S-0
 48
2.0
100
AcDbVertex
100
AcDb2dVertex
 10
763.741939
 20
312.911888
 30
0.0
  0
SEQEND
  5
3FCB
100
AcDbEntity
  8
MSL-115-P40-S-0
 48
2.0
  0
LINE
  5
3FCC
100
AcDbEntity
  8
MSL-115-P40-S-0
 48
2.0
100
AcDbLine
 10
763.241939
 20
320.411888
 30
0.0
 11
763.241939
 21
312.911888
 31
0.0
  0
LINE
  5
3FCD
100
AcDbEntity
  8
MSL-115-P40-S-0
100
AcDbLine
 10
769.741938
 20
328.773104
 30
0.0
 11
769.742076
 21
314.021376
 31
0.0
  0
POLYLINE
  5
3FCE
100
AcDbEntity
  8
MSL-115-P40-S-0
 48
2.0
100
AcDb2dPolyline
 66
     1
 10
0.0
 20
0.0
 30
0.0
  0
VERTEX
  5
3FCF
100
AcDbEntity
  8
MSL-115-P40-S-0
 48
2.0
100
AcDbVertex
100
AcDb2dVertex
 10
731.741939
 20
326.411888
 30
0.0
  0
VERTEX
  5
3FD0
100
AcDbEntity
  8
MSL-115-P40-S-0
 48
2.0
100
AcDbVertex
100
AcDb2dVertex
 10
734.741939
 20
328.911888
 30
0.0
  0
SEQEND
  5
3FD1
100
AcDbEntity
  8
MSL-115-P40-S-0
 48
2.0
  0
POLYLINE
  5
3FD2
100
AcDbEntity
  8
MSL-115-P40-S-0
 48
2.0
100
AcDb2dPolyline
 66
     1
 10
0.0
 20
0.0
 30
0.0
  0
VERTEX
  5
3FD3
100
AcDbEntity
  8
MSL-115-P40-S-0
 48
2.0
100
AcDbVertex
100
AcDb2dVertex
 10
741.741939
 20
320.411888
 30
0.0
  0
VERTEX
  5
3FD4
100
AcDbEntity
  8
MSL-115-P40-S-0
 48
2.0
100
AcDbVertex
100
AcDb2dVertex
 10
741.741939
 20
326.661888
 30
0.0
  0
SEQEND
  5
3FD5
100
AcDbEntity
  8
MSL-115-P40-S-0
 48
2.0
  0
POLYLINE
  5
3FD6
100
AcDbEntity
  8
MSL-115-P40-S-0
 48
2.0
100
AcDb2dPolyline
 66
     1
 10
0.0
 20
0.0
 30
0.0
  0
VERTEX
  5
3FD7
100
AcDbEntity
  8
MSL-115-P40-S-0
 48
2.0
100
AcDbVertex
100
AcDb2dVertex
 10
731.741939
 20
320.411888
 30
0.0
  0
VERTEX
  5
3FD8
100
AcDbEntity
  8
MSL-115-P40-S-0
 48
2.0
100
AcDbVertex
100
AcDb2dVertex
 10
731.741939
 20
326.411888
 30
0.0
  0
SEQEND
  5
3FD9
100
AcDbEntity
  8
MSL-115-P40-S-0
 48
2.0
  0
POLYLINE
  5
3FDA
100
AcDbEntity
  8
MSL-115-P40-S-0
 48
2.0
100
AcDb2dPolyline
 66
     1
 10
0.0
 20
0.0
 30
0.0
  0
VERTEX
  5
3FDB
100
AcDbEntity
  8
MSL-115-P40-S-0
 48
2.0
100
AcDbVertex
100
AcDb2dVertex
 10
734.741939
 20
320.411888
 30
0.0
  0
VERTEX
  5
3FDC
100
AcDbEntity
  8
MSL-115-P40-S-0
 48
2.0
100
AcDbVertex
100
AcDb2dVertex
 10
734.741939
 20
328.911888
 30
0.0
  0
SEQEND
  5
3FDD
100
AcDbEntity
  8
MSL-115-P40-S-0
 48
2.0
  0
POLYLINE
  5
3FDE
100
AcDbEntity
  8
MSL-115-P40-S-0
 48
2.0
100
AcDb2dPolyline
 66
     1
 10
0.0
 20
0.0
 30
0.0
  0
VERTEX
  5
3FDF
100
AcDbEntity
  8
MSL-115-P40-S-0
 48
2.0
100
AcDbVertex
100
AcDb2dVertex
 10
734.741939
 20
328.911888
 30
0.0
  0
VERTEX
  5
3FE0
100
AcDbEntity
  8
MSL-115-P40-S-0
 48
2.0
100
AcDbVertex
100
AcDb2dVertex
 10
738.741939
 20
328.911888
 30
0.0
  0
VERTEX
  5
3FE1
100
AcDbEntity
  8
MSL-115-P40-S-0
 48
2.0
100
AcDbVertex
100
AcDb2dVertex
 10
738.741939
 20
327.161888
 30
0.0
 42
0.414214
  0
VERTEX
  5
3FE2
100
AcDbEntity
  8
MSL-115-P40-S-0
 48
2.0
100
AcDbVertex
100
AcDb2dVertex
 10
739.241939
 20
326.661888
 30
0.0
  0
VERTEX
  5
3FE3
100
AcDbEntity
  8
MSL-115-P40-S-0
 48
2.0
100
AcDbVertex
100
AcDb2dVertex
 10
741.741939
 20
326.661888
 30
0.0
  0
VERTEX
  5
3FE4
100
AcDbEntity
  8
MSL-115-P40-S-0
 48
2.0
100
AcDbVertex
100
AcDb2dVertex
 10
742.241939
 20
326.161888
 30
0.0
  0
VERTEX
  5
3FE5
100
AcDbEntity
  8
MSL-115-P40-S-0
 48
2.0
100
AcDbVertex
100
AcDb2dVertex
 10
742.241939
 20
320.411888
 30
0.0
  0
SEQEND
  5
3FE6
100
AcDbEntity
  8
MSL-115-P40-S-0
 48
2.0
  0
POLYLINE
  5
3FE7
100
AcDbEntity
  8
MSL-115-P40-S-0
 48
2.0
100
AcDb2dPolyline
 66
     1
 10
0.0
 20
0.0
 30
0.0
  0
VERTEX
  5
3FE8
100
AcDbEntity
  8
MSL-115-P40-S-0
 48
2.0
100
AcDbVertex
100
AcDb2dVertex
 10
731.241939
 20
320.411888
 30
0.0
  0
VERTEX
  5
3FE9
100
AcDbEntity
  8
MSL-115-P40-S-0
 48
2.0
100
AcDbVertex
100
AcDb2dVertex
 10
731.241939
 20
317.661888
 30
0.0
  0
SEQEND
  5
3FEA
100
AcDbEntity
  8
MSL-115-P40-S-0
 48
2.0
  0
POLYLINE
  5
3FEB
100
AcDbEntity
  8
MSL-115-P40-S-0
 48
2.0
100
AcDb2dPolyline
 66
     1
 10
0.0
 20
0.0
 30
0.0
  0
VERTEX
  5
3FEC
100
AcDbEntity
  8
MSL-115-P40-S-0
 48
2.0
100
AcDbVertex
100
AcDb2dVertex
 10
731.241939
 20
320.411888
 30
0.0
  0
VERTEX
  5
3FED
100
AcDbEntity
  8
MSL-115-P40-S-0
 48
2.0
100
AcDbVertex
100
AcDb2dVertex
 10
731.241939
 20
323.161888
 30
0.0
  0
SEQEND
  5
3FEE
100
AcDbEntity
  8
MSL-115-P40-S-0
 48
2.0
  0
LINE
  5
3FEF
100
AcDbEntity
  8
MSL-115-P40-S-0
 48
2.0
100
AcDbLine
 10
731.741939
 20
323.661888
 30
0.0
 11
731.241939
 21
323.161888
 31
0.0
  0
LINE
  5
3FF0
100
AcDbEntity
  8
MSL-115-P40-S-0
 48
2.0
100
AcDbLine
 10
731.741939
 20
317.161888
 30
0.0
 11
731.241939
 21
317.661888
 31
0.0
  0
LINE
  5
3FF1
100
AcDbEntity
  8
MSL-115-P40-S-0
 48
2.0
100
AcDbLine
 10
741.741939
 20
314.161888
 30
0.0
 11
742.241939
 21
314.661888
 31
0.0
  0
LINE
  5
3FF2
100
AcDbEntity
  8
MSL-115-P40-S-0
 48
2.0
100
AcDbLine
 10
739.241939
 20
314.161888
 30
0.0
 11
741.741939
 21
314.161888
 31
0.0
  0
ARC
  5
3FF3
100
AcDbEntity
  8
MSL-115-P40-S-0
 48
2.0
100
AcDbCircle
 10
739.241939
 20
313.661888
 30
0.0
 40
0.5
100
AcDbArc
 50
90.0
 51
180.0
  0
LINE
  5
3FF4
100
AcDbEntity
  8
MSL-115-P40-S-0
 48
2.0
100
AcDbLine
 10
738.741939
 20
312.411888
 30
0.0
 11
738.741939
 21
313.661888
 31
0.0
  0
POLYLINE
  5
3FF5
100
AcDbEntity
  8
MSL-115-P40-S-0
 48
2.0
100
AcDb2dPolyline
 66
     1
 10
0.0
 20
0.0
 30
0.0
  0
VERTEX
  5
3FF6
100
AcDbEntity
  8
MSL-115-P40-S-0
 48
2.0
100
AcDbVertex
100
AcDb2dVertex
 10
731.741939
 20
314.411888
 30
0.0
  0
VERTEX
  5
3FF7
100
AcDbEntity
  8
MSL-115-P40-S-0
 48
2.0
100
AcDbVertex
100
AcDb2dVertex
 10
734.141939
 20
312.411888
 30
0.0
  0
SEQEND
  5
3FF8
100
AcDbEntity
  8
MSL-115-P40-S-0
 48
2.0
  0
LINE
  5
3FF9
100
AcDbEntity
  8
MSL-115-P40-S-0
100
AcDbLine
 10
734.141939
 20
312.411888
 30
0.0
 11
738.741939
 21
312.411888
 31
0.0
  0
LINE
  5
3FFA
100
AcDbEntity
  8
MSL-115-P40-S-0
 48
2.0
100
AcDbLine
 10
742.241939
 20
314.661888
 30
0.0
 11
742.241939
 21
320.411888
 31
0.0
  0
POLYLINE
  5
3FFB
100
AcDbEntity
  8
MSL-115-P40-S-0
 48
2.0
100
AcDb2dPolyline
 66
     1
 10
0.0
 20
0.0
 30
0.0
  0
VERTEX
  5
3FFC
100
AcDbEntity
  8
MSL-115-P40-S-0
 48
2.0
100
AcDbVertex
100
AcDb2dVertex
 10
741.741939
 20
320.411888
 30
0.0
  0
VERTEX
  5
3FFD
100
AcDbEntity
  8
MSL-115-P40-S-0
 48
2.0
100
AcDbVertex
100
AcDb2dVertex
 10
741.741939
 20
314.161888
 30
0.0
  0
SEQEND
  5
3FFE
100
AcDbEntity
  8
MSL-115-P40-S-0
 48
2.0
  0
LINE
  5
3FFF
100
AcDbEntity
  8
MSL-115-P40-S-5
 48
2.0
100
AcDbLine
 10
738.741939
 20
326.085288
 30
0.0
 11
738.741939
 21
314.699456
 31
0.0
  0
POLYLINE
  5
4000
100
AcDbEntity
  8
MSL-115-P40-S-0
 48
2.0
100
AcDb2dPolyline
 66
     1
 10
0.0
 20
0.0
 30
0.0
  0
VERTEX
  5
4001
100
AcDbEntity
  8
MSL-115-P40-S-0
 48
2.0
100
AcDbVertex
100
AcDb2dVertex
 10
731.741939
 20
320.411888
 30
0.0
  0
VERTEX
  5
4002
100
AcDbEntity
  8
MSL-115-P40-S-0
 48
2.0
100
AcDbVertex
100
AcDb2dVertex
 10
731.741939
 20
314.411888
 30
0.0
  0
SEQEND
  5
4003
100
AcDbEntity
  8
MSL-115-P40-S-0
 48
2.0
  0
POLYLINE
  5
4004
100
AcDbEntity
  8
MSL-115-P40-S-0
 48
2.0
100
AcDb2dPolyline
 66
     1
 10
0.0
 20
0.0
 30
0.0
  0
VERTEX
  5
4005
100
AcDbEntity
  8
MSL-115-P40-S-0
 48
2.0
100
AcDbVertex
100
AcDb2dVertex
 10
734.741939
 20
320.411888
 30
0.0
  0
VERTEX
  5
4006
100
AcDbEntity
  8
MSL-115-P40-S-0
 48
2.0
100
AcDbVertex
100
AcDb2dVertex
 10
734.741939
 20
312.411888
 30
0.0
  0
SEQEND
  5
4007
100
AcDbEntity
  8
MSL-115-P40-S-0
 48
2.0
  0
LINE
  5
4008
100
AcDbEntity
  8
MSL-115-P40-S-0
 48
2.0
100
AcDbLine
 10
763.241939
 20
322.811888
 30
0.0
 11
742.241939
 21
322.811888
 31
0.0
  0
LINE
  5
4009
100
AcDbEntity
  8
MSL-115-P40-S-0
 48
2.0
100
AcDbLine
 10
763.241939
 20
318.011888
 30
0.0
 11
742.241939
 21
318.011888
 31
0.0
  0
LINE
  5
400A
100
AcDbEntity
  8
MSL-115-P40-S-0
 48
2.0
100
AcDbLine
 10
770.741939
 20
281.910858
 30
0.0
 11
771.16039
 21
281.215468
 31
0.0
1001
ACAD
1000
RTLwPs
1070
   128
  0
ARC
  5
400B
100
AcDbEntity
  8
MSL-115-P40-S-0
 48
2.0
100
AcDbCircle
 10
667.179774
 20
327.032557
 30
0.0
 40
2.562165
100
AcDbArc
 50
312.916662
 51
47.083338
  0
LINE
  5
400C
100
AcDbEntity
  8
MSL-115-P40-S-0
 48
2.0
100
AcDbLine
 10
668.924439
 20
325.156169
 30
0.0
 11
665.741939
 21
325.156169
 31
0.0
  0
LINE
  5
400D
100
AcDbEntity
  8
MSL-115-P40-S-0
 48
2.0
100
AcDbLine
 10
668.924439
 20
328.908946
 30
0.0
 11
665.741939
 21
328.908946
 31
0.0
  0
LINE
  5
400E
100
AcDbEntity
  8
MSL-115-P40-S-0
 48
2.0
100
AcDbLine
 10
668.924439
 20
317.650615
 30
0.0
 11
665.741939
 21
317.650615
 31
0.0
  0
ARC
  5
400F
100
AcDbEntity
  8
MSL-115-P40-S-0
 48
2.0
100
AcDbCircle
 10
660.71953
 20
321.403392
 30
0.0
 40
9.02241
100
AcDbArc
 50
335.421502
 51
24.578498
  0
LINE
  5
4010
100
AcDbEntity
  8
MSL-115-P40-S-0
 48
2.0
100
AcDbLine
 10
665.741939
 20
313.897839
 30
0.0
 11
668.924439
 21
313.897839
 31
0.0
  0
LINE
  5
4011
100
AcDbEntity
  8
MSL-115-P40-S-0
 48
2.0
100
AcDbLine
 10
665.741939
 20
328.908946
 30
0.0
 11
665.741939
 21
313.897839
 31
0.0
  0
ARC
  5
4012
100
AcDbEntity
  8
MSL-115-P40-S-0
 48
2.0
100
AcDbCircle
 10
667.179774
 20
315.774227
 30
0.0
 40
2.562165
100
AcDbArc
 50
312.916662
 51
47.083338
  0
LINE
  5
4013
100
AcDbEntity
  8
MSL-115-P40-S-0
 48
2.0
100
AcDbLine
 10
669.741939
 20
327.032557
 30
0.0
 11
669.741939
 21
315.774227
 31
0.0
  0
ARC
  5
4014
100
AcDbEntity
  8
MSL-115-P40-S-0
 48
2.0
100
AcDbCircle
 10
772.850619
 20
328.773104
 30
0.0
 40
3.108681
100
AcDbArc
 50
127.878142
 51
232.121858
  0
POLYLINE
  5
4015
100
AcDbEntity
  8
MSL-115-P40-S-0
 48
2.0
100
AcDb2dPolyline
 66
     1
 10
0.0
 20
0.0
 30
0.0
  0
VERTEX
  5
4016
100
AcDbEntity
  8
MSL-115-P40-S-0
 48
2.0
100
AcDbVertex
100
AcDb2dVertex
 10
765.241939
 20
320.411888
 30
0.0
  0
VERTEX
  5
4017
100
AcDbEntity
  8
MSL-115-P40-S-0
 48
2.0
100
AcDbVertex
100
AcDb2dVertex
 10
765.241939
 20
329.411888
 30
0.0
  0
VERTEX
  5
4018
100
AcDbEntity
  8
MSL-115-P40-S-0
 48
2.0
100
AcDbVertex
100
AcDb2dVertex
 10
766.241939
 20
330.411888
 30
0.0
  0
VERTEX
  5
4019
100
AcDbEntity
  8
MSL-115-P40-S-0
 48
2.0
100
AcDbVertex
100
AcDb2dVertex
 10
770.208974
 20
330.411888
 30
0.0
  0
SEQEND
  5
401A
100
AcDbEntity
  8
MSL-115-P40-S-0
 48
2.0
  0
LINE
  5
401B
100
AcDbEntity
  8
MSL-115-P40-S-0
 48
2.0
100
AcDbLine
 10
766.241939
 20
330.411888
 30
0.0
 11
766.241939
 21
320.411888
 31
0.0
  0
LINE
  5
401C
100
AcDbEntity
  8
MSL-115-P40-S-0
 48
2.0
100
AcDbLine
 10
770.941938
 20
326.319365
 30
0.0
 11
772.741938
 21
326.319365
 31
0.0
  0
LINE
  5
401D
100
AcDbEntity
  8
MSL-115-P40-S-0
 48
2.0
100
AcDbLine
 10
770.941938
 20
331.226843
 30
0.0
 11
772.741938
 21
331.226843
 31
0.0
  0
LINE
  5
401E
100
AcDbEntity
  8
MSL-115-P40-S-0
 48
2.0
100
AcDbLine
 10
770.941938
 20
316.504411
 30
0.0
 11
772.741938
 21
316.504411
 31
0.0
  0
LINE
  5
401F
100
AcDbEntity
  8
MSL-115-P40-S-0
 48
2.0
100
AcDbLine
 10
772.741939
 20
312.911888
 30
0.0
 11
754.741939
 21
312.911888
 31
0.0
1001
ACAD
1000
RTLwPs
1070
   128
  0
LINE
  5
4020
100
AcDbEntity
  8
MSL-115-P40-S-7
 48
2.0
100
AcDbLine
 10
728.701217
 20
321.40764
 30
0.0
 11
827.727401
 21
321.40764
 31
0.0
  0
LINE
  5
4021
100
AcDbEntity
  8
MSL-115-P40-S-7
 48
2.0
100
AcDbLine
 10
728.741939
 20
320.411888
 30
0.0
 11
850.741939
 21
320.411888
 31
0.0
  0
ARC
  5
4022
100
AcDbEntity
  8
MSL-115-P40-S-5
 48
2.0
100
AcDbCircle
 10
771.241939
 20
260.411888
 30
0.0
 40
6.58
100
AcDbArc
 50
255.0
 51
195.0
1001
ACAD
1000
RTLwPs
1070
   128
  0
CIRCLE
  5
4023
100
AcDbEntity
  8
MSL-115-P40-S-0
 48
2.0
100
AcDbCircle
 10
771.241939
 20
260.411888
 30
0.0
 40
6.8
1001
ACAD
1000
RTLwPs
1070
   128
  0
CIRCLE
  5
4024
100
AcDbEntity
  8
MSL-115-P40-S-0
 48
2.0
100
AcDbCircle
 10
771.241939
 20
260.411888
 30
0.0
 40
4.0
1001
ACAD
1000
RTLwPs
1070
   128
  0
CIRCLE
  5
4025
100
AcDbEntity
  8
MSL-115-P40-S-0
 48
2.0
100
AcDbCircle
 10
771.241939
 20
260.411888
 30
0.0
 40
5.725
1001
ACAD
1000
RTLwPs
1070
   128
  0
CIRCLE
  5
4026
100
AcDbEntity
  8
MSL-115-P40-S-0
 48
2.0
100
AcDbCircle
 10
771.241939
 20
260.411888
 30
0.0
 40
9.25
1001
ACAD
1000
RTLwPs
1070
   128
  0
LINE
  5
4027
100
AcDbEntity
  8
MSL-115-P40-S-0
 48
2.0
100
AcDbLine
 10
786.741939
 20
220.411888
 30
0.0
 11
754.741939
 21
220.411888
 31
0.0
1001
ACAD
1000
RTLwPs
1070
   128
  0
CIRCLE
  5
4028
100
AcDbEntity
  8
MSL-115-P40-S-0
 48
2.0
100
AcDbCircle
 10
767.241939
 20
280.411888
 30
0.0
 40
4.0
1001
ACAD
1000
RTLwPs
1070
   128
  0
CIRCLE
  5
4029
100
AcDbEntity
  8
MSL-115-P40-S-0
 48
2.0
100
AcDbCircle
 10
767.241939
 20
280.411888
 30
0.0
 40
5.725
1001
ACAD
1000
RTLwPs
1070
   128
  0
ARC
  5
402A
100
AcDbEntity
  8
MSL-115-P40-S-5
 48
2.0
100
AcDbCircle
 10
767.241939
 20
280.411888
 30
0.0
 40
6.58
100
AcDbArc
 50
255.0
 51
195.0
1001
ACAD
1000
RTLwPs
1070
   128
  0
CIRCLE
  5
402B
100
AcDbEntity
  8
MSL-115-P40-S-0
 48
2.0
100
AcDbCircle
 10
767.241939
 20
280.411888
 30
0.0
 40
9.25
1001
ACAD
1000
RTLwPs
1070
   128
  0
CIRCLE
  5
402C
100
AcDbEntity
  8
MSL-115-P40-S-0
 48
2.0
100
AcDbCircle
 10
767.241939
 20
280.411888
 30
0.0
 40
6.8
1001
ACAD
1000
RTLwPs
1070
   128
  0
LINE
  5
402D
100
AcDbEntity
  8
MSL-115-P40-S-0
 48
2.0
100
AcDbLine
 10
786.741939
 20
331.411888
 30
0.0
 11
786.741939
 21
220.411888
 31
0.0
1001
ACAD
1000
RTLwPs
1070
   128
  0
LINE
  5
402E
100
AcDbEntity
  8
MSL-115-P40-S-0
 48
2.0
100
AcDbLine
 10
754.741939
 20
312.911888
 30
0.0
 11
754.741939
 21
219.911888
 31
0.0
1001
ACAD
1000
RTLwPs
1070
   128
  0
LINE
  5
402F
100
AcDbEntity
  8
MSL-115-P40-S-0
100
AcDbLine
 10
878.532672
 20
309.811888
 30
0.0
 11
873.532672
 21
309.811888
 31
0.0
1001
ACAD
1000
RTLwPs
1070
   128
  0
LINE
  5
4030
100
AcDbEntity
  8
MSL-115-P40-S-0
100
AcDbLine
 10
928.532672
 20
334.811888
 30
0.0
 11
874.032672
 21
334.811888
 31
0.0
1001
ACAD
1000
RTLwPs
1070
   128
  0
LINE
  5
4031
100
AcDbEntity
  8
MSL-115-P40-S-0
100
AcDbLine
 10
878.532672
 20
312.311888
 30
0.0
 11
875.032672
 21
312.311888
 31
0.0
1001
ACAD
1000
RTLwPs
1070
   128
  0
LINE
  5
4032
100
AcDbEntity
  8
MSL-115-P40-S-0
100
AcDbLine
 10
875.032672
 20
334.311888
 30
0.0
 11
1007.032672
 21
334.311888
 31
0.0
1001
ACAD
1000
RTLwPs
1070
   128
  0
LINE
  5
4033
100
AcDbEntity
  8
MSL-115-P40-S-0
100
AcDbLine
 10
878.532672
 20
290.011888
 30
0.0
 11
877.832672
 21
290.011888
 31
0.0
1001
ACAD
1000
RTLwPs
1070
   128
  0
LINE
  5
4034
100
AcDbEntity
  8
MSL-115-P40-S-0
100
AcDbLine
 10
878.532672
 20
309.411888
 30
0.0
 11
875.032672
 21
309.411888
 31
0.0
1001
ACAD
1000
RTLwPs
1070
   128
  0
LINE
  5
4035
100
AcDbEntity
  8
MSL-115-P40-S-0
 48
2.0
100
AcDbLine
 10
847.375813
 20
156.438133
 30
0.0
 11
848.375813
 21
155.438133
 31
0.0
  0
LINE
  5
4036
100
AcDbEntity
  8
MSL-115-P40-S-0
 48
2.0
100
AcDbLine
 10
792.875813
 20
183.938133
 30
0.0
 11
792.875813
 21
180.938133
 31
0.0
1001
ACAD
1000
RTLwPs
1070
   128
  0
LINE
  5
4037
100
AcDbEntity
  8
MSL-115-P40-S-0
 48
2.0
100
AcDbLine
 10
778.875813
 20
180.938133
 30
0.0
 11
778.875813
 21
183.938133
 31
0.0
1001
ACAD
1000
RTLwPs
1070
   128
  0
LINE
  5
4038
100
AcDbEntity
  8
MSL-115-P40-S-0
 48
2.0
100
AcDbLine
 10
778.875813
 20
183.938133
 30
0.0
 11
792.875813
 21
183.938133
 31
0.0
1001
ACAD
1000
RTLwPs
1070
   128
  0
LINE
  5
4039
100
AcDbEntity
  8
MSL-115-P40-S-0
 48
2.0
100
AcDbLine
 10
792.875813
 20
180.938133
 30
0.0
 11
778.875813
 21
180.938133
 31
0.0
1001
ACAD
1000
RTLwPs
1070
   128
  0
LINE
  5
403A
100
AcDbEntity
  8
MSL-115-P40-S-0
 48
2.0
100
AcDbLine
 10
792.875813
 20
158.438133
 30
0.0
 11
793.551489
 21
158.438133
 31
0.0
1001
ACAD
1000
RTLwPs
1070
   128
  0
LINE
  5
403B
100
AcDbEntity
  8
MSL-115-P40-S-0
 48
2.0
100
AcDbLine
 10
798.200136
 20
158.438133
 30
0.0
 11
793.551489
 21
158.438133
 31
0.0
1001
ACAD
1000
RTLwPs
1070
   128
  0
LINE
  5
403C
100
AcDbEntity
  8
MSL-115-P40-S-0
 48
2.0
100
AcDbLine
 10
798.200136
 20
158.438133
 30
0.0
 11
798.875813
 21
158.438133
 31
0.0
1001
ACAD
1000
RTLwPs
1070
   128
  0
ARC
  5
403D
100
AcDbEntity
  8
MSL-115-P40-S-0
 48
2.0
100
AcDbCircle
 10
821.726201
 20
152.227255
 30
0.0
 40
28.851159
100
AcDbArc
 50
167.568452
 51
179.581213
1001
ACAD
1000
RTLwPs
1070
   128
  0
ARC
  5
403E
100
AcDbEntity
  8
MSL-115-P40-S-0
 48
2.0
100
AcDbCircle
 10
770.045761
 20
152.229545
 30
0.0
 40
28.830806
100
AcDbArc
 50
0.414532
 51
12.435804
1001
ACAD
1000
RTLwPs
1070
   128
  0
LINE
  5
403F
100
AcDbEntity
  8
MSL-115-P40-S-0
 48
2.0
100
AcDbLine
 10
798.875813
 20
158.438133
 30
0.0
 11
798.875813
 21
152.438133
 31
0.0
1001
ACAD
1000
RTLwPs
1070
   128
  0
LINE
  5
4040
100
AcDbEntity
  8
MSL-115-P40-S-5
 48
2.0
100
AcDbLine
 10
847.875813
 20
155.938133
 30
0.0
 11
798.875813
 21
155.938133
 31
0.0
  0
LINE
  5
4041
100
AcDbEntity
  8
MSL-115-P40-S-0
 48
2.0
100
AcDbLine
 10
798.875813
 20
156.438133
 30
0.0
 11
847.375813
 21
156.438133
 31
0.0
  0
LINE
  5
4042
100
AcDbEntity
  8
MSL-115-P40-S-0
 48
2.0
100
AcDbLine
 10
847.375813
 20
136.438133
 30
0.0
 11
848.375813
 21
137.438133
 31
0.0
  0
LINE
  5
4043
100
AcDbEntity
  8
MSL-115-P40-S-0
 48
2.0
100
AcDbLine
 10
854.375813
 20
137.938133
 30
0.0
 11
854.375813
 21
146.438133
 31
0.0
  0
POLYLINE
  5
4044
100
AcDbEntity
  8
MSL-115-P40-S-0
 48
2.0
100
AcDb2dPolyline
 66
     1
 10
0.0
 20
0.0
 30
0.0
  0
VERTEX
  5
4045
100
AcDbEntity
  8
MSL-115-P40-S-0
 48
2.0
100
AcDbVertex
100
AcDb2dVertex
 10
848.375813
 20
137.938133
 30
0.0
  0
VERTEX
  5
4046
100
AcDbEntity
  8
MSL-115-P40-S-0
 48
2.0
100
AcDbVertex
100
AcDb2dVertex
 10
854.375813
 20
137.938133
 30
0.0
  0
VERTEX
  5
4047
100
AcDbEntity
  8
MSL-115-P40-S-0
 48
2.0
100
AcDbVertex
100
AcDb2dVertex
 10
855.375813
 20
138.938133
 30
0.0
  0
VERTEX
  5
4048
100
AcDbEntity
  8
MSL-115-P40-S-0
 48
2.0
100
AcDbVertex
100
AcDb2dVertex
 10
855.375813
 20
146.438133
 30
0.0
  0
SEQEND
  5
4049
100
AcDbEntity
  8
MSL-115-P40-S-0
 48
2.0
  0
LINE
  5
404A
100
AcDbEntity
  8
MSL-115-P40-S-0
 48
2.0
100
AcDbLine
 10
848.375813
 20
137.438133
 30
0.0
 11
848.375813
 21
146.438133
 31
0.0
  0
LINE
  5
404B
100
AcDbEntity
  8
MSL-115-P40-S-0
 48
2.0
100
AcDbLine
 10
798.200136
 20
146.438133
 30
0.0
 11
793.551489
 21
146.438133
 31
0.0
1001
ACAD
1000
RTLwPs
1070
   128
  0
ARC
  5
404C
100
AcDbEntity
  8
MSL-115-P40-S-0
 48
2.0
100
AcDbCircle
 10
821.726201
 20
140.227255
 30
0.0
 40
28.851159
100
AcDbArc
 50
167.568452
 51
179.581213
1001
ACAD
1000
RTLwPs
1070
   128
  0
ARC
  5
404D
100
AcDbEntity
  8
MSL-115-P40-S-0
 48
2.0
100
AcDbCircle
 10
770.045761
 20
140.229545
 30
0.0
 40
28.830806
100
AcDbArc
 50
0.414532
 51
12.435804
1001
ACAD
1000
RTLwPs
1070
   128
  0
LINE
  5
404E
100
AcDbEntity
  8
MSL-115-P40-S-0
 48
2.0
100
AcDbLine
 10
793.551489
 20
134.438133
 30
0.0
 11
792.875813
 21
134.438133
 31
0.0
1001
ACAD
1000
RTLwPs
1070
   128
  0
LINE
  5
404F
100
AcDbEntity
  8
MSL-115-P40-S-0
 48
2.0
100
AcDbLine
 10
798.200136
 20
134.438133
 30
0.0
 11
793.551489
 21
134.438133
 31
0.0
1001
ACAD
1000
RTLwPs
1070
   128
  0
LINE
  5
4050
100
AcDbEntity
  8
MSL-115-P40-S-0
 48
2.0
100
AcDbLine
 10
798.875813
 20
134.438133
 30
0.0
 11
798.200136
 21
134.438133
 31
0.0
1001
ACAD
1000
RTLwPs
1070
   128
  0
LINE
  5
4051
100
AcDbEntity
  8
MSL-115-P40-S-0
 48
2.0
100
AcDbLine
 10
793.875813
 20
128.670184
 30
0.0
 11
792.875813
 21
128.938133
 31
0.0
1001
ACAD
1000
RTLwPs
1070
   128
  0
ARC
  5
4052
100
AcDbEntity
  8
MSL-115-P40-S-0
 48
2.0
100
AcDbCircle
 10
821.705864
 20
140.64672
 30
0.0
 40
28.830806
100
AcDbArc
 50
180.414532
 51
192.435804
1001
ACAD
1000
RTLwPs
1070
   128
  0
ARC
  5
4053
100
AcDbEntity
  8
MSL-115-P40-S-0
 48
2.0
100
AcDbCircle
 10
770.025424
 20
140.64901
 30
0.0
 40
28.851159
100
AcDbArc
 50
347.568452
 51
359.581213
1001
ACAD
1000
RTLwPs
1070
   128
  0
LINE
  5
4054
100
AcDbEntity
  8
MSL-115-P40-S-0
 48
2.0
100
AcDbLine
 10
798.875813
 20
140.438133
 30
0.0
 11
798.875813
 21
134.438133
 31
0.0
1001
ACAD
1000
RTLwPs
1070
   128
  0
LINE
  5
4055
100
AcDbEntity
  8
MSL-115-P40-S-0
 48
2.0
100
AcDbLine
 10
831.375813
 20
125.438133
 30
0.0
 11
831.375813
 21
123.438133
 31
0.0
1001
ACAD
1000
RTLwPs
1070
   128
  0
LINE
  5
4056
100
AcDbEntity
  8
MSL-115-P40-S-0
 48
2.0
100
AcDbLine
 10
822.875813
 20
123.438133
 30
0.0
 11
822.875813
 21
125.438133
 31
0.0
1001
ACAD
1000
RTLwPs
1070
   128
  0
LINE
  5
4057
100
AcDbEntity
  8
MSL-115-P40-S-0
 48
2.0
100
AcDbLine
 10
822.875813
 20
125.438133
 30
0.0
 11
831.375813
 21
125.438133
 31
0.0
1001
ACAD
1000
RTLwPs
1070
   128
  0
LINE
  5
4058
100
AcDbEntity
  8
MSL-115-P40-S-0
 48
2.0
100
AcDbLine
 10
831.375813
 20
119.438133
 30
0.0
 11
831.375813
 21
117.438133
 31
0.0
1001
ACAD
1000
RTLwPs
1070
   128
  0
LINE
  5
4059
100
AcDbEntity
  8
MSL-115-P40-S-0
 48
2.0
100
AcDbLine
 10
822.875813
 20
117.438133
 30
0.0
 11
822.875813
 21
119.438133
 31
0.0
1001
ACAD
1000
RTLwPs
1070
   128
  0
LINE
  5
405A
100
AcDbEntity
  8
MSL-115-P40-S-0
 48
2.0
100
AcDbLine
 10
831.375813
 20
117.438133
 30
0.0
 11
822.875813
 21
117.438133
 31
0.0
1001
ACAD
1000
RTLwPs
1070
   128
  0
LINE
  5
405B
100
AcDbEntity
  8
MSL-115-P40-S-0
 48
2.0
100
AcDbLine
 10
831.375813
 20
119.438133
 30
0.0
 11
831.375813
 21
123.438133
 31
0.0
1001
ACAD
1000
RTLwPs
1070
   128
  0
LINE
  5
405C
100
AcDbEntity
  8
MSL-115-P40-S-0
 48
2.0
100
AcDbLine
 10
822.875813
 20
119.438133
 30
0.0
 11
822.875813
 21
123.438133
 31
0.0
1001
ACAD
1000
RTLwPs
1070
   128
  0
LINE
  5
405D
100
AcDbEntity
  8
MSL-115-P40-S-0
 48
2.0
100
AcDbLine
 10
814.375813
 20
124.938133
 30
0.0
 11
806.375813
 21
124.938133
 31
0.0
1001
ACAD
1000
RTLwPs
1070
   128
  0
LINE
  5
405E
100
AcDbEntity
  8
MSL-115-P40-S-0
 48
2.0
100
AcDbLine
 10
806.375813
 20
117.938133
 30
0.0
 11
814.375813
 21
117.938133
 31
0.0
1001
ACAD
1000
RTLwPs
1070
   128
  0
LINE
  5
405F
100
AcDbEntity
  8
MSL-115-P40-S-0
 48
2.0
100
AcDbLine
 10
814.375813
 20
117.438133
 30
0.0
 11
814.375813
 21
125.438133
 31
0.0
1001
ACAD
1000
RTLwPs
1070
   128
  0
LINE
  5
4060
100
AcDbEntity
  8
MSL-115-P40-S-0
 48
2.0
100
AcDbLine
 10
806.375813
 20
117.438133
 30
0.0
 11
806.375813
 21
125.438133
 31
0.0
1001
ACAD
1000
RTLwPs
1070
   128
  0
LINE
  5
4061
100
AcDbEntity
  8
MSL-115-P40-S-0
 48
2.0
100
AcDbLine
 10
822.875813
 20
125.438133
 30
0.0
 11
814.375813
 21
125.438133
 31
0.0
1001
ACAD
1000
RTLwPs
1070
   128
  0
LINE
  5
4062
100
AcDbEntity
  8
MSL-115-P40-S-0
 48
2.0
100
AcDbLine
 10
814.375813
 20
117.438133
 30
0.0
 11
822.875813
 21
117.438133
 31
0.0
1001
ACAD
1000
RTLwPs
1070
   128
  0
LINE
  5
4063
100
AcDbEntity
  8
MSL-115-P40-S-0
 48
2.0
100
AcDbLine
 10
792.875813
 20
113.938133
 30
0.0
 11
793.875813
 21
114.206082
 31
0.0
1001
ACAD
1000
RTLwPs
1070
   128
  0
LINE
  5
4064
100
AcDbEntity
  8
MSL-115-P40-S-0
 48
2.0
100
AcDbLine
 10
786.375813
 20
122.881508
 30
0.0
 11
787.625813
 21
122.159821
 31
0.0
1001
ACAD
1000
RTLwPs
1070
   128
  0
LINE
  5
4065
100
AcDbEntity
  8
MSL-115-P40-S-0
 48
2.0
100
AcDbLine
 10
787.625813
 20
122.159821
 30
0.0
 11
787.625813
 21
120.716445
 31
0.0
1001
ACAD
1000
RTLwPs
1070
   128
  0
LINE
  5
4066
100
AcDbEntity
  8
MSL-115-P40-S-0
 48
2.0
100
AcDbLine
 10
785.125813
 20
120.716445
 30
0.0
 11
785.125813
 21
122.159821
 31
0.0
1001
ACAD
1000
RTLwPs
1070
   128
  0
LINE
  5
4067
100
AcDbEntity
  8
MSL-115-P40-S-0
 48
2.0
100
AcDbLine
 10
785.125813
 20
122.159821
 30
0.0
 11
786.375813
 21
122.881508
 31
0.0
1001
ACAD
1000
RTLwPs
1070
   128
  0
LINE
  5
4068
100
AcDbEntity
  8
MSL-115-P40-S-0
 48
2.0
100
AcDbLine
 10
787.625813
 20
120.716445
 30
0.0
 11
786.375813
 21
119.994757
 31
0.0
1001
ACAD
1000
RTLwPs
1070
   128
  0
LINE
  5
4069
100
AcDbEntity
  8
MSL-115-P40-S-0
 48
2.0
100
AcDbLine
 10
786.375813
 20
119.994757
 30
0.0
 11
785.125813
 21
120.716445
 31
0.0
1001
ACAD
1000
RTLwPs
1070
   128
  0
ARC
  5
406A
100
AcDbEntity
  8
MSL-115-P40-S-5
 48
2.0
100
AcDbCircle
 10
786.375813
 20
121.438133
 30
0.0
 40
2.5
100
AcDbArc
 50
165.0
 51
105.0
1001
ACAD
1000
RTLwPs
1070
   128
  0
CIRCLE
  5
406B
100
AcDbEntity
  8
MSL-115-P40-S-0
 48
2.0
100
AcDbCircle
 10
786.375813
 20
121.438133
 30
0.0
 40
2.1
1001
ACAD
1000
RTLwPs
1070
   128
  0
LINE
  5
406C
100
AcDbEntity
  8
MSL-115-P40-S-5
 48
2.0
100
AcDbLine
 10
793.875813
 20
118.203133
 30
0.0
 11
806.375813
 21
118.203133
 31
0.0
1001
ACAD
1000
RTLwPs
1070
   128
  0
LINE
  5
406D
100
AcDbEntity
  8
MSL-115-P40-S-5
 48
2.0
100
AcDbLine
 10
793.875813
 20
124.673133
 30
0.0
 11
806.375813
 21
124.673133
 31
0.0
1001
ACAD
1000
RTLwPs
1070
   128
  0
LINE
  5
406E
100
AcDbEntity
  8
MSL-115-P40-S-0
 48
2.0
100
AcDbLine
 10
793.875813
 20
117.438133
 30
0.0
 11
806.375813
 21
117.438133
 31
0.0
1001
ACAD
1000
RTLwPs
1070
   128
  0
LINE
  5
406F
100
AcDbEntity
  8
MSL-115-P40-S-0
 48
2.0
100
AcDbLine
 10
806.375813
 20
125.438133
 30
0.0
 11
793.875813
 21
125.438133
 31
0.0
1001
ACAD
1000
RTLwPs
1070
   128
  0
LINE
  5
4070
100
AcDbEntity
  8
MSL-115-P40-S-0
 48
2.0
100
AcDbLine
 10
793.875813
 20
128.670184
 30
0.0
 11
793.875813
 21
114.206082
 31
0.0
1001
ACAD
1000
RTLwPs
1070
   128
  0
LINE
  5
4071
100
AcDbEntity
  8
MSL-115-P40-S-0
 48
2.0
100
AcDbLine
 10
798.875813
 20
136.438133
 30
0.0
 11
847.375813
 21
136.438133
 31
0.0
  0
LINE
  5
4072
100
AcDbEntity
  8
MSL-115-P40-S-5
 48
2.0
100
AcDbLine
 10
847.875813
 20
136.938133
 30
0.0
 11
798.875813
 21
136.938133
 31
0.0
  0
LINE
  5
4073
100
AcDbEntity
  8
MSL-115-P40-S-0
 48
2.0
100
AcDbLine
 10
848.375813
 20
155.438133
 30
0.0
 11
848.375813
 21
146.438133
 31
0.0
  0
POLYLINE
  5
4074
100
AcDbEntity
  8
MSL-115-P40-S-0
 48
2.0
100
AcDb2dPolyline
 66
     1
 10
0.0
 20
0.0
 30
0.0
  0
VERTEX
  5
4075
100
AcDbEntity
  8
MSL-115-P40-S-0
 48
2.0
100
AcDbVertex
100
AcDb2dVertex
 10
848.375813
 20
154.938133
 30
0.0
  0
VERTEX
  5
4076
100
AcDbEntity
  8
MSL-115-P40-S-0
 48
2.0
100
AcDbVertex
100
AcDb2dVertex
 10
854.375813
 20
154.938133
 30
0.0
  0
VERTEX
  5
4077
100
AcDbEntity
  8
MSL-115-P40-S-0
 48
2.0
100
AcDbVertex
100
AcDb2dVertex
 10
855.375813
 20
153.938133
 30
0.0
  0
VERTEX
  5
4078
100
AcDbEntity
  8
MSL-115-P40-S-0
 48
2.0
100
AcDbVertex
100
AcDb2dVertex
 10
855.375813
 20
146.438133
 30
0.0
  0
SEQEND
  5
4079
100
AcDbEntity
  8
MSL-115-P40-S-0
 48
2.0
  0
LINE
  5
407A
100
AcDbEntity
  8
MSL-115-P40-S-0
 48
2.0
100
AcDbLine
 10
854.375813
 20
154.938133
 30
0.0
 11
854.375813
 21
146.438133
 31
0.0
  0
LINE
  5
407B
100
AcDbEntity
  8
MSL-115-P40-S-0
 48
2.0
100
AcDbLine
 10
847.375813
 20
136.438133
 30
0.0
 11
847.375813
 21
156.438133
 31
0.0
  0
ARC
  5
407C
100
AcDbEntity
  8
MSL-115-P40-S-0
 48
2.0
100
AcDbCircle
 10
821.705864
 20
152.64672
 30
0.0
 40
28.830806
100
AcDbArc
 50
180.414532
 51
192.435804
1001
ACAD
1000
RTLwPs
1070
   128
  0
ARC
  5
407D
100
AcDbEntity
  8
MSL-115-P40-S-0
 48
2.0
100
AcDbCircle
 10
770.025424
 20
152.64901
 30
0.0
 40
28.851159
100
AcDbArc
 50
347.568452
 51
359.581213
1001
ACAD
1000
RTLwPs
1070
   128
  0
LINE
  5
407E
100
AcDbEntity
  8
MSL-115-P40-S-0
 48
2.0
100
AcDbLine
 10
798.875813
 20
152.438133
 30
0.0
 11
798.875813
 21
140.438133
 31
0.0
1001
ACAD
1000
RTLwPs
1070
   128
  0
LINE
  5
407F
100
AcDbEntity
  8
MSL-115-P40-S-0
 48
2.0
100
AcDbLine
 10
771.375813
 20
155.438133
 30
0.0
 11
760.875813
 21
155.438133
 31
0.0
1001
ACAD
1000
RTLwPs
1070
   128
  0
POLYLINE
  5
4080
100
AcDbEntity
  8
MSL-115-P40-S-0
 48
2.0
100
AcDb2dPolyline
 66
     1
 10
0.0
 20
0.0
 30
0.0
  0
VERTEX
  5
4081
100
AcDbEntity
  8
MSL-115-P40-S-0
 48
2.0
100
AcDbVertex
100
AcDb2dVertex
 10
737.875813
 20
152.438133
 30
0.0
  0
VERTEX
  5
4082
100
AcDbEntity
  8
MSL-115-P40-S-0
 48
2.0
100
AcDbVertex
100
AcDb2dVertex
 10
740.875813
 20
154.938133
 30
0.0
  0
SEQEND
  5
4083
100
AcDbEntity
  8
MSL-115-P40-S-0
 48
2.0
  0
LINE
  5
4084
100
AcDbEntity
  8
MSL-115-P40-S-0
 48
2.0
100
AcDbLine
 10
772.597501
 20
134.688133
 30
0.0
 11
773.319188
 21
133.438133
 31
0.0
1001
ACAD
1000
RTLwPs
1070
   128
  0
LINE
  5
4085
100
AcDbEntity
  8
MSL-115-P40-S-0
 48
2.0
100
AcDbLine
 10
770.432437
 20
133.438133
 30
0.0
 11
771.154125
 21
134.688133
 31
0.0
1001
ACAD
1000
RTLwPs
1070
   128
  0
LINE
  5
4086
100
AcDbEntity
  8
MSL-115-P40-S-0
 48
2.0
100
AcDbLine
 10
771.154125
 20
134.688133
 30
0.0
 11
772.597501
 21
134.688133
 31
0.0
1001
ACAD
1000
RTLwPs
1070
   128
  0
LINE
  5
4087
100
AcDbEntity
  8
MSL-115-P40-S-0
 48
2.0
100
AcDbLine
 10
775.875813
 20
129.938133
 30
0.0
 11
776.228154
 21
129.938133
 31
0.0
1001
ACAD
1000
RTLwPs
1070
   128
  0
LINE
  5
4088
100
AcDbEntity
  8
MSL-115-P40-S-0
 48
2.0
100
AcDbLine
 10
772.597501
 20
132.188133
 30
0.0
 11
771.154125
 21
132.188133
 31
0.0
1001
ACAD
1000
RTLwPs
1070
   128
  0
LINE
  5
4089
100
AcDbEntity
  8
MSL-115-P40-S-0
 48
2.0
100
AcDbLine
 10
771.154125
 20
132.188133
 30
0.0
 11
770.432437
 21
133.438133
 31
0.0
1001
ACAD
1000
RTLwPs
1070
   128
  0
CIRCLE
  5
408A
100
AcDbEntity
  8
MSL-115-P40-S-0
 48
2.0
100
AcDbCircle
 10
771.875813
 20
133.438133
 30
0.0
 40
2.75
1001
ACAD
1000
RTLwPs
1070
   128
  0
LINE
  5
408B
100
AcDbEntity
  8
MSL-115-P40-S-0
 48
2.0
100
AcDbLine
 10
773.319188
 20
133.438133
 30
0.0
 11
772.597501
 21
132.188133
 31
0.0
1001
ACAD
1000
RTLwPs
1070
   128
  0
LINE
  5
408C
100
AcDbEntity
  8
MSL-115-P40-S-0
 48
2.0
100
AcDbLine
 10
776.275813
 20
129.938133
 30
0.0
 11
776.275813
 21
136.438133
 31
0.0
1001
ACAD
1000
RTLwPs
1070
   128
  0
LINE
  5
408D
100
AcDbEntity
  8
MSL-115-P40-S-0
 48
2.0
100
AcDbLine
 10
776.875813
 20
136.438133
 30
0.0
 11
776.875813
 21
129.938133
 31
0.0
1001
ACAD
1000
RTLwPs
1070
   128
  0
CIRCLE
  5
408E
100
AcDbEntity
  8
MSL-115-P40-S-0
 48
2.0
100
AcDbCircle
 10
771.875813
 20
133.438133
 30
0.0
 40
3.0
1001
ACAD
1000
RTLwPs
1070
   128
  0
LINE
  5
408F
100
AcDbEntity
  8
MSL-115-P40-S-0
 48
2.0
100
AcDbLine
 10
769.775813
 20
138.038133
 30
0.0
 11
761.375813
 21
138.038133
 31
0.0
1001
ACAD
1000
RTLwPs
1070
   128
  0
LINE
  5
4090
100
AcDbEntity
  8
MSL-115-P40-S-0
 48
2.0
100
AcDbLine
 10
761.375813
 20
137.438133
 30
0.0
 11
771.375813
 21
137.438133
 31
0.0
1001
ACAD
1000
RTLwPs
1070
   128
  0
LINE
  5
4091
100
AcDbEntity
  8
MSL-115-P40-S-0
 48
2.0
100
AcDbLine
 10
772.375813
 20
136.438133
 30
0.0
 11
772.375813
 21
146.438133
 31
0.0
  0
POLYLINE
  5
4092
100
AcDbEntity
  8
MSL-115-P40-S-0
 48
2.0
100
AcDb2dPolyline
 66
     1
 10
0.0
 20
0.0
 30
0.0
  0
VERTEX
  5
4093
100
AcDbEntity
  8
MSL-115-P40-S-0
 48
2.0
100
AcDbVertex
100
AcDb2dVertex
 10
769.875813
 20
146.438133
 30
0.0
  0
VERTEX
  5
4094
100
AcDbEntity
  8
MSL-115-P40-S-0
 48
2.0
100
AcDbVertex
100
AcDb2dVertex
 10
769.875813
 20
137.938133
 30
0.0
  0
SEQEND
  5
4095
100
AcDbEntity
  8
MSL-115-P40-S-0
 48
2.0
  0
POLYLINE
  5
4096
100
AcDbEntity
  8
MSL-115-P40-S-0
 48
2.0
100
AcDb2dPolyline
 66
     1
 10
0.0
 20
0.0
 30
0.0
  0
VERTEX
  5
4097
100
AcDbEntity
  8
MSL-115-P40-S-0
 48
2.0
100
AcDbVertex
100
AcDb2dVertex
 10
769.375813
 20
146.438133
 30
0.0
  0
VERTEX
  5
4098
100
AcDbEntity
  8
MSL-115-P40-S-0
 48
2.0
100
AcDbVertex
100
AcDb2dVertex
 10
769.375813
 20
138.438133
 30
0.0
  0
VERTEX
  5
4099
100
AcDbEntity
  8
MSL-115-P40-S-0
 48
2.0
100
AcDbVertex
100
AcDb2dVertex
 10
769.875813
 20
137.938133
 30
0.0
  0
VERTEX
  5
409A
100
AcDbEntity
  8
MSL-115-P40-S-0
 48
2.0
100
AcDbVertex
100
AcDb2dVertex
 10
771.375813
 20
137.938133
 30
0.0
  0
SEQEND
  5
409B
100
AcDbEntity
  8
MSL-115-P40-S-0
 48
2.0
  0
POLYLINE
  5
409C
100
AcDbEntity
  8
MSL-115-P40-S-0
 48
2.0
100
AcDb2dPolyline
 66
     1
 10
0.0
 20
0.0
 30
0.0
  0
VERTEX
  5
409D
100
AcDbEntity
  8
MSL-115-P40-S-0
 48
2.0
100
AcDbVertex
100
AcDb2dVertex
 10
747.875813
 20
146.438133
 30
0.0
  0
VERTEX
  5
409E
100
AcDbEntity
  8
MSL-115-P40-S-0
 48
2.0
100
AcDbVertex
100
AcDb2dVertex
 10
747.875813
 20
140.188133
 30
0.0
  0
SEQEND
  5
409F
100
AcDbEntity
  8
MSL-115-P40-S-0
 48
2.0
  0
POLYLINE
  5
40A0
100
AcDbEntity
  8
MSL-115-P40-S-0
 48
2.0
100
AcDb2dPolyline
 66
     1
 10
0.0
 20
0.0
 30
0.0
  0
VERTEX
  5
40A1
100
AcDbEntity
  8
MSL-115-P40-S-0
 48
2.0
100
AcDbVertex
100
AcDb2dVertex
 10
737.875813
 20
146.438133
 30
0.0
  0
VERTEX
  5
40A2
100
AcDbEntity
  8
MSL-115-P40-S-0
 48
2.0
100
AcDbVertex
100
AcDb2dVertex
 10
737.875813
 20
140.438133
 30
0.0
  0
SEQEND
  5
40A3
100
AcDbEntity
  8
MSL-115-P40-S-0
 48
2.0
  0
POLYLINE
  5
40A4
100
AcDbEntity
  8
MSL-115-P40-S-0
 48
2.0
100
AcDb2dPolyline
 66
     1
 10
0.0
 20
0.0
 30
0.0
  0
VERTEX
  5
40A5
100
AcDbEntity
  8
MSL-115-P40-S-0
 48
2.0
100
AcDbVertex
100
AcDb2dVertex
 10
737.375813
 20
146.438133
 30
0.0
  0
VERTEX
  5
40A6
100
AcDbEntity
  8
MSL-115-P40-S-0
 48
2.0
100
AcDbVertex
100
AcDb2dVertex
 10
737.375813
 20
149.188133
 30
0.0
  0
SEQEND
  5
40A7
100
AcDbEntity
  8
MSL-115-P40-S-0
 48
2.0
  0
POLYLINE
  5
40A8
100
AcDbEntity
  8
MSL-115-P40-S-0
 48
2.0
100
AcDb2dPolyline
 66
     1
 10
0.0
 20
0.0
 30
0.0
  0
VERTEX
  5
40A9
100
AcDbEntity
  8
MSL-115-P40-S-0
 48
2.0
100
AcDbVertex
100
AcDb2dVertex
 10
737.375813
 20
146.438133
 30
0.0
  0
VERTEX
  5
40AA
100
AcDbEntity
  8
MSL-115-P40-S-0
 48
2.0
100
AcDbVertex
100
AcDb2dVertex
 10
737.375813
 20
143.688133
 30
0.0
  0
SEQEND
  5
40AB
100
AcDbEntity
  8
MSL-115-P40-S-0
 48
2.0
  0
LINE
  5
40AC
100
AcDbEntity
  8
MSL-115-P40-S-0
 48
2.0
100
AcDbLine
 10
737.875813
 20
149.688133
 30
0.0
 11
737.375813
 21
149.188133
 31
0.0
  0
LINE
  5
40AD
100
AcDbEntity
  8
MSL-115-P40-S-0
 48
2.0
100
AcDbLine
 10
737.875813
 20
143.188133
 30
0.0
 11
737.375813
 21
143.688133
 31
0.0
  0
POLYLINE
  5
40AE
100
AcDbEntity
  8
MSL-115-P40-S-0
 48
2.0
100
AcDb2dPolyline
 66
     1
 10
0.0
 20
0.0
 30
0.0
  0
VERTEX
  5
40AF
100
AcDbEntity
  8
MSL-115-P40-S-0
 48
2.0
100
AcDbVertex
100
AcDb2dVertex
 10
737.875813
 20
140.438133
 30
0.0
  0
VERTEX
  5
40B0
100
AcDbEntity
  8
MSL-115-P40-S-0
 48
2.0
100
AcDbVertex
100
AcDb2dVertex
 10
740.875813
 20
137.938133
 30
0.0
  0
SEQEND
  5
40B1
100
AcDbEntity
  8
MSL-115-P40-S-0
 48
2.0
  0
POLYLINE
  5
40B2
100
AcDbEntity
  8
MSL-115-P40-S-0
 48
2.0
100
AcDb2dPolyline
 66
     1
 10
0.0
 20
0.0
 30
0.0
  0
VERTEX
  5
40B3
100
AcDbEntity
  8
MSL-115-P40-S-0
 48
2.0
100
AcDbVertex
100
AcDb2dVertex
 10
740.875813
 20
146.438133
 30
0.0
  0
VERTEX
  5
40B4
100
AcDbEntity
  8
MSL-115-P40-S-0
 48
2.0
100
AcDbVertex
100
AcDb2dVertex
 10
740.875813
 20
137.938133
 30
0.0
  0
SEQEND
  5
40B5
100
AcDbEntity
  8
MSL-115-P40-S-0
 48
2.0
  0
POLYLINE
  5
40B6
100
AcDbEntity
  8
MSL-115-P40-S-0
 48
2.0
100
AcDb2dPolyline
 66
     1
 10
0.0
 20
0.0
 30
0.0
  0
VERTEX
  5
40B7
100
AcDbEntity
  8
MSL-115-P40-S-0
 48
2.0
100
AcDbVertex
100
AcDb2dVertex
 10
740.875813
 20
137.938133
 30
0.0
  0
VERTEX
  5
40B8
100
AcDbEntity
  8
MSL-115-P40-S-0
 48
2.0
100
AcDbVertex
100
AcDb2dVertex
 10
744.875813
 20
137.938133
 30
0.0
  0
VERTEX
  5
40B9
100
AcDbEntity
  8
MSL-115-P40-S-0
 48
2.0
100
AcDbVertex
100
AcDb2dVertex
 10
744.875813
 20
139.688133
 30
0.0
 42
-0.414214
  0
VERTEX
  5
40BA
100
AcDbEntity
  8
MSL-115-P40-S-0
 48
2.0
100
AcDbVertex
100
AcDb2dVertex
 10
745.375813
 20
140.188133
 30
0.0
  0
VERTEX
  5
40BB
100
AcDbEntity
  8
MSL-115-P40-S-0
 48
2.0
100
AcDbVertex
100
AcDb2dVertex
 10
747.875813
 20
140.188133
 30
0.0
  0
VERTEX
  5
40BC
100
AcDbEntity
  8
MSL-115-P40-S-0
 48
2.0
100
AcDbVertex
100
AcDb2dVertex
 10
748.375813
 20
140.688133
 30
0.0
  0
VERTEX
  5
40BD
100
AcDbEntity
  8
MSL-115-P40-S-0
 48
2.0
100
AcDbVertex
100
AcDb2dVertex
 10
748.375813
 20
146.438133
 30
0.0
  0
SEQEND
  5
40BE
100
AcDbEntity
  8
MSL-115-P40-S-0
 48
2.0
  0
LINE
  5
40BF
100
AcDbEntity
  8
MSL-115-P40-S-0
 48
2.0
100
AcDbLine
 10
769.375813
 20
148.838133
 30
0.0
 11
748.375813
 21
148.838133
 31
0.0
  0
LINE
  5
40C0
100
AcDbEntity
  8
MSL-115-P40-S-0
 48
2.0
100
AcDbLine
 10
769.375813
 20
144.038133
 30
0.0
 11
748.375813
 21
144.038133
 31
0.0
  0
ARC
  5
40C1
100
AcDbEntity
  8
MSL-115-P40-S-0
 48
2.0
100
AcDbCircle
 10
803.343751
 20
125.825723
 30
0.0
 40
27.468283
100
AcDbArc
 50
180.286999
 51
189.191397
1001
ACAD
1000
RTLwPs
1070
   128
  0
ARC
  5
40C2
100
AcDbEntity
  8
MSL-115-P40-S-0
 48
2.0
100
AcDbCircle
 10
803.353701
 20
117.049717
 30
0.0
 40
27.478237
100
AcDbArc
 50
170.810219
 51
179.711385
1001
ACAD
1000
RTLwPs
1070
   128
  0
LINE
  5
40C3
100
AcDbEntity
  8
MSL-115-P40-S-0
 48
2.0
100
AcDbLine
 10
775.875813
 20
125.688133
 30
0.0
 11
775.875813
 21
117.188133
 31
0.0
1001
ACAD
1000
RTLwPs
1070
   128
  0
LINE
  5
40C4
100
AcDbEntity
  8
MSL-115-P40-S-0
 48
2.0
100
AcDbLine
 10
776.228154
 20
112.938133
 30
0.0
 11
775.875813
 21
112.938133
 31
0.0
1001
ACAD
1000
RTLwPs
1070
   128
  0
LINE
  5
40C5
100
AcDbEntity
  8
MSL-115-P40-S-0
 48
2.0
100
AcDbLine
 10
765.154125
 20
110.688133
 30
0.0
 11
766.597501
 21
110.688133
 31
0.0
1001
ACAD
1000
RTLwPs
1070
   128
  0
LINE
  5
40C6
100
AcDbEntity
  8
MSL-115-P40-S-0
 48
2.0
100
AcDbLine
 10
767.319188
 20
109.438133
 30
0.0
 11
766.597501
 21
108.188133
 31
0.0
1001
ACAD
1000
RTLwPs
1070
   128
  0
LINE
  5
40C7
100
AcDbEntity
  8
MSL-115-P40-S-0
 48
2.0
100
AcDbLine
 10
766.597501
 20
108.188133
 30
0.0
 11
765.154125
 21
108.188133
 31
0.0
1001
ACAD
1000
RTLwPs
1070
   128
  0
LINE
  5
40C8
100
AcDbEntity
  8
MSL-115-P40-S-0
 48
2.0
100
AcDbLine
 10
766.597501
 20
110.688133
 30
0.0
 11
767.319188
 21
109.438133
 31
0.0
1001
ACAD
1000
RTLwPs
1070
   128
  0
LINE
  5
40C9
100
AcDbEntity
  8
MSL-115-P40-S-0
 48
2.0
100
AcDbLine
 10
776.275813
 20
105.438133
 30
0.0
 11
776.875813
 21
104.838133
 31
0.0
1001
ACAD
1000
RTLwPs
1070
   128
  0
LINE
  5
40CA
100
AcDbEntity
  8
MSL-115-P40-S-0
 48
2.0
100
AcDbLine
 10
776.275813
 20
105.438133
 30
0.0
 11
776.275813
 21
112.938133
 31
0.0
1001
ACAD
1000
RTLwPs
1070
   128
  0
LINE
  5
40CB
100
AcDbEntity
  8
MSL-115-P40-S-0
 48
2.0
100
AcDbLine
 10
776.875813
 20
112.938133
 30
0.0
 11
776.875813
 21
104.838133
 31
0.0
1001
ACAD
1000
RTLwPs
1070
   128
  0
LINE
  5
40CC
100
AcDbEntity
  8
MSL-115-P40-S-0
 48
2.0
100
AcDbLine
 10
765.154125
 20
108.188133
 30
0.0
 11
764.432437
 21
109.438133
 31
0.0
1001
ACAD
1000
RTLwPs
1070
   128
  0
LINE
  5
40CD
100
AcDbEntity
  8
MSL-115-P40-S-0
 48
2.0
100
AcDbLine
 10
761.375813
 20
105.438133
 30
0.0
 11
776.275813
 21
105.438133
 31
0.0
1001
ACAD
1000
RTLwPs
1070
   128
  0
LINE
  5
40CE
100
AcDbEntity
  8
MSL-115-P40-S-0
 48
2.0
100
AcDbLine
 10
776.875813
 20
104.838133
 30
0.0
 11
761.375813
 21
104.838133
 31
0.0
1001
ACAD
1000
RTLwPs
1070
   128
  0
LINE
  5
40CF
100
AcDbEntity
  8
MSL-115-P40-S-0
 48
2.0
100
AcDbLine
 10
764.432437
 20
109.438133
 30
0.0
 11
765.154125
 21
110.688133
 31
0.0
1001
ACAD
1000
RTLwPs
1070
   128
  0
CIRCLE
  5
40D0
100
AcDbEntity
  8
MSL-115-P40-S-0
 48
2.0
100
AcDbCircle
 10
765.875813
 20
109.438133
 30
0.0
 40
2.75
1001
ACAD
1000
RTLwPs
1070
   128
  0
CIRCLE
  5
40D1
100
AcDbEntity
  8
MSL-115-P40-S-0
 48
2.0
100
AcDbCircle
 10
765.875813
 20
109.438133
 30
0.0
 40
3.0
1001
ACAD
1000
RTLwPs
1070
   128
  0
ARC
  5
40D2
100
AcDbEntity
  8
MSL-115-P40-S-0
 48
2.0
100
AcDbCircle
 10
803.343751
 20
117.325723
 30
0.0
 40
27.468283
100
AcDbArc
 50
180.286999
 51
189.191397
1001
ACAD
1000
RTLwPs
1070
   128
  0
LINE
  5
40D3
100
AcDbEntity
  8
MSL-115-P40-S-0
 48
2.0
100
AcDbLine
 10
775.875813
 20
117.188133
 30
0.0
 11
775.875813
 21
112.938133
 31
0.0
1001
ACAD
1000
RTLwPs
1070
   128
  0
LINE
  5
40D4
100
AcDbEntity
  8
MSL-115-P40-S-0
 48
2.0
100
AcDbLine
 10
775.875813
 20
129.938133
 30
0.0
 11
775.875813
 21
125.688133
 31
0.0
1001
ACAD
1000
RTLwPs
1070
   128
  0
ARC
  5
40D5
100
AcDbEntity
  8
MSL-115-P40-S-0
 48
2.0
100
AcDbCircle
 10
803.353701
 20
125.549717
 30
0.0
 40
27.478237
100
AcDbArc
 50
170.810219
 51
179.711385
1001
ACAD
1000
RTLwPs
1070
   128
  0
LINE
  5
40D6
100
AcDbEntity
  8
MSL-115-P40-S-0
 48
2.0
100
AcDbLine
 10
671.875813
 20
128.943686
 30
0.0
 11
675.375813
 21
128.943686
 31
0.0
1001
ACAD
1000
RTLwPs
1070
   128
  0
LINE
  5
40D7
100
AcDbEntity
  8
MSL-115-P40-S-0
 48
2.0
100
AcDbLine
 10
675.375813
 20
128.943686
 30
0.0
 11
675.875813
 21
127.893686
 31
0.0
1001
ACAD
1000
RTLwPs
1070
   128
  0
LINE
  5
40D8
100
AcDbEntity
  8
MSL-115-P40-S-0
 48
2.0
100
AcDbLine
 10
671.875813
 20
125.19091
 30
0.0
 11
675.375813
 21
125.19091
 31
0.0
1001
ACAD
1000
RTLwPs
1070
   128
  0
LINE
  5
40D9
100
AcDbEntity
  8
MSL-115-P40-S-0
 48
2.0
100
AcDbLine
 10
675.375813
 20
113.932579
 30
0.0
 11
675.875813
 21
114.982579
 31
0.0
1001
ACAD
1000
RTLwPs
1070
   128
  0
LINE
  5
40DA
100
AcDbEntity
  8
MSL-115-P40-S-0
 48
2.0
100
AcDbLine
 10
671.875813
 20
117.685356
 30
0.0
 11
675.375813
 21
117.685356
 31
0.0
1001
ACAD
1000
RTLwPs
1070
   128
  0
LINE
  5
40DB
100
AcDbEntity
  8
MSL-115-P40-S-0
 48
2.0
100
AcDbLine
 10
671.875813
 20
113.932579
 30
0.0
 11
675.375813
 21
113.932579
 31
0.0
1001
ACAD
1000
RTLwPs
1070
   128
  0
ARC
  5
40DC
100
AcDbEntity
  8
MSL-115-P40-S-0
 48
2.0
100
AcDbCircle
 10
671.863146
 20
115.808968
 30
0.0
 40
3.982419
100
AcDbArc
 50
331.889858
 51
28.110142
1001
ACAD
1000
RTLwPs
1070
   128
  0
ARC
  5
40DD
100
AcDbEntity
  8
MSL-115-P40-S-0
 48
2.0
100
AcDbCircle
 10
660.714803
 20
121.438133
 30
0.0
 40
15.133689
100
AcDbArc
 50
345.642284
 51
14.357716
1001
ACAD
1000
RTLwPs
1070
   128
  0
ARC
  5
40DE
100
AcDbEntity
  8
MSL-115-P40-S-0
 48
2.0
100
AcDbCircle
 10
671.863146
 20
127.067298
 30
0.0
 40
3.982419
100
AcDbArc
 50
331.889858
 51
28.110142
1001
ACAD
1000
RTLwPs
1070
   128
  0
LINE
  5
40DF
100
AcDbEntity
  8
MSL-115-P40-S-0
 48
2.0
100
AcDbLine
 10
675.875813
 20
127.893686
 30
0.0
 11
675.875813
 21
114.982579
 31
0.0
  0
LINE
  5
40E0
100
AcDbEntity
  8
MSL-115-P40-S-0
 48
2.0
100
AcDbLine
 10
671.875813
 20
113.932579
 30
0.0
 11
671.875813
 21
128.943686
 31
0.0
1001
ACAD
1000
RTLwPs
1070
   128
  0
POLYLINE
  5
40E1
100
AcDbEntity
  8
MSL-115-P40-S-0
 48
2.0
100
AcDb2dPolyline
 66
     1
 10
0.0
 20
0.0
 30
0.0
  0
VERTEX
  5
40E2
100
AcDbEntity
  8
MSL-115-P40-S-0
 48
2.0
100
AcDbVertex
100
AcDb2dVertex
 10
769.875813
 20
146.438133
 30
0.0
  0
VERTEX
  5
40E3
100
AcDbEntity
  8
MSL-115-P40-S-0
 48
2.0
100
AcDbVertex
100
AcDb2dVertex
 10
769.875813
 20
154.938133
 30
0.0
  0
SEQEND
  5
40E4
100
AcDbEntity
  8
MSL-115-P40-S-0
 48
2.0
  0
POLYLINE
  5
40E5
100
AcDbEntity
  8
MSL-115-P40-S-0
 48
2.0
100
AcDb2dPolyline
 66
     1
 10
0.0
 20
0.0
 30
0.0
  0
VERTEX
  5
40E6
100
AcDbEntity
  8
MSL-115-P40-S-0
 48
2.0
100
AcDbVertex
100
AcDb2dVertex
 10
747.875813
 20
146.438133
 30
0.0
  0
VERTEX
  5
40E7
100
AcDbEntity
  8
MSL-115-P40-S-0
 48
2.0
100
AcDbVertex
100
AcDb2dVertex
 10
747.875813
 20
152.688133
 30
0.0
  0
SEQEND
  5
40E8
100
AcDbEntity
  8
MSL-115-P40-S-0
 48
2.0
  0
LINE
  5
40E9
100
AcDbEntity
  8
MSL-115-P40-S-5
 48
2.0
100
AcDbLine
 10
744.875813
 20
140.764733
 30
0.0
 11
744.875813
 21
152.150564
 31
0.0
  0
POLYLINE
  5
40EA
100
AcDbEntity
  8
MSL-115-P40-S-0
 48
2.0
100
AcDb2dPolyline
 66
     1
 10
0.0
 20
0.0
 30
0.0
  0
VERTEX
  5
40EB
100
AcDbEntity
  8
MSL-115-P40-S-0
 48
2.0
100
AcDbVertex
100
AcDb2dVertex
 10
769.375813
 20
146.438133
 30
0.0
  0
VERTEX
  5
40EC
100
AcDbEntity
  8
MSL-115-P40-S-0
 48
2.0
100
AcDbVertex
100
AcDb2dVertex
 10
769.375813
 20
154.438133
 30
0.0
  0
VERTEX
  5
40ED
100
AcDbEntity
  8
MSL-115-P40-S-0
 48
2.0
100
AcDbVertex
100
AcDb2dVertex
 10
769.875813
 20
154.938133
 30
0.0
  0
VERTEX
  5
40EE
100
AcDbEntity
  8
MSL-115-P40-S-0
 48
2.0
100
AcDbVertex
100
AcDb2dVertex
 10
771.375813
 20
154.938133
 30
0.0
  0
SEQEND
  5
40EF
100
AcDbEntity
  8
MSL-115-P40-S-0
 48
2.0
  0
LINE
  5
40F0
100
AcDbEntity
  8
MSL-115-P40-S-0
 48
2.0
100
AcDbLine
 10
772.375813
 20
156.438133
 30
0.0
 11
772.375813
 21
146.438133
 31
0.0
  0
LINE
  5
40F1
100
AcDbEntity
  8
MSL-115-P40-S-0
 48
2.0
100
AcDbLine
 10
760.875813
 20
183.938133
 30
0.0
 11
760.875813
 21
148.838133
 31
0.0
  0
POLYLINE
  5
40F2
100
AcDbEntity
  8
MSL-115-P40-S-0
 48
2.0
100
AcDb2dPolyline
 66
     1
 10
0.0
 20
0.0
 30
0.0
  0
VERTEX
  5
40F3
100
AcDbEntity
  8
MSL-115-P40-S-0
 48
2.0
100
AcDbVertex
100
AcDb2dVertex
 10
737.875813
 20
146.438133
 30
0.0
  0
VERTEX
  5
40F4
100
AcDbEntity
  8
MSL-115-P40-S-0
 48
2.0
100
AcDbVertex
100
AcDb2dVertex
 10
737.875813
 20
152.438133
 30
0.0
  0
SEQEND
  5
40F5
100
AcDbEntity
  8
MSL-115-P40-S-0
 48
2.0
  0
POLYLINE
  5
40F6
100
AcDbEntity
  8
MSL-115-P40-S-0
 48
2.0
100
AcDb2dPolyline
 66
     1
 10
0.0
 20
0.0
 30
0.0
  0
VERTEX
  5
40F7
100
AcDbEntity
  8
MSL-115-P40-S-0
 48
2.0
100
AcDbVertex
100
AcDb2dVertex
 10
740.875813
 20
146.438133
 30
0.0
  0
VERTEX
  5
40F8
100
AcDbEntity
  8
MSL-115-P40-S-0
 48
2.0
100
AcDbVertex
100
AcDb2dVertex
 10
740.875813
 20
154.938133
 30
0.0
  0
SEQEND
  5
40F9
100
AcDbEntity
  8
MSL-115-P40-S-0
 48
2.0
  0
POLYLINE
  5
40FA
100
AcDbEntity
  8
MSL-115-P40-S-0
 48
2.0
100
AcDb2dPolyline
 66
     1
 10
0.0
 20
0.0
 30
0.0
  0
VERTEX
  5
40FB
100
AcDbEntity
  8
MSL-115-P40-S-0
 48
2.0
100
AcDbVertex
100
AcDb2dVertex
 10
740.875813
 20
154.938133
 30
0.0
  0
VERTEX
  5
40FC
100
AcDbEntity
  8
MSL-115-P40-S-0
 48
2.0
100
AcDbVertex
100
AcDb2dVertex
 10
744.875813
 20
154.938133
 30
0.0
  0
VERTEX
  5
40FD
100
AcDbEntity
  8
MSL-115-P40-S-0
 48
2.0
100
AcDbVertex
100
AcDb2dVertex
 10
744.875813
 20
153.188133
 30
0.0
 42
0.414214
  0
VERTEX
  5
40FE
100
AcDbEntity
  8
MSL-115-P40-S-0
 48
2.0
100
AcDbVertex
100
AcDb2dVertex
 10
745.375813
 20
152.688133
 30
0.0
  0
VERTEX
  5
40FF
100
AcDbEntity
  8
MSL-115-P40-S-0
 48
2.0
100
AcDbVertex
100
AcDb2dVertex
 10
747.875813
 20
152.688133
 30
0.0
  0
VERTEX
  5
4100
100
AcDbEntity
  8
MSL-115-P40-S-0
 48
2.0
100
AcDbVertex
100
AcDb2dVertex
 10
748.375813
 20
152.188133
 30
0.0
  0
VERTEX
  5
4101
100
AcDbEntity
  8
MSL-115-P40-S-0
 48
2.0
100
AcDbVertex
100
AcDb2dVertex
 10
748.375813
 20
146.438133
 30
0.0
  0
SEQEND
  5
4102
100
AcDbEntity
  8
MSL-115-P40-S-0
 48
2.0
  0
LINE
  5
4103
100
AcDbEntity
  8
MSL-115-P40-S-5
 48
2.0
100
AcDbLine
 10
778.875813
 20
155.938133
 30
0.0
 11
771.875813
 21
155.938133
 31
0.0
  0
LINE
  5
4104
100
AcDbEntity
  8
MSL-115-P40-S-5
 48
2.0
100
AcDbLine
 10
778.875813
 20
136.938133
 30
0.0
 11
771.875813
 21
136.938133
 31
0.0
  0
LINE
  5
4105
100
AcDbEntity
  8
MSL-115-P40-S-0
 48
2.0
100
AcDbLine
 10
778.875813
 20
129.938133
 30
0.0
 11
776.228154
 21
129.938133
 31
0.0
1001
ACAD
1000
RTLwPs
1070
   128
  0
LINE
  5
4106
100
AcDbEntity
  8
MSL-115-P40-S-0
 48
2.0
100
AcDbLine
 10
778.875813
 20
121.438133
 30
0.0
 11
776.228154
 21
121.438133
 31
0.0
1001
ACAD
1000
RTLwPs
1070
   128
  0
LINE
  5
4107
100
AcDbEntity
  8
MSL-115-P40-S-0
 48
2.0
100
AcDbLine
 10
778.875813
 20
112.938133
 30
0.0
 11
776.228154
 21
112.938133
 31
0.0
1001
ACAD
1000
RTLwPs
1070
   128
  0
LINE
  5
4108
100
AcDbEntity
  8
MSL-115-P40-S-7
 48
2.0
100
AcDbLine
 10
738.375813
 20
146.438133
 30
0.0
 11
860.375813
 21
146.438133
 31
0.0
  0
POLYLINE
  5
4109
100
AcDbEntity
  8
MSL-115-P40-S-0
 48
2.0
100
AcDb2dPolyline
 66
     1
 10
0.0
 20
0.0
 30
0.0
  0
VERTEX
  5
410A
100
AcDbEntity
  8
MSL-115-P40-S-0
 48
2.0
100
AcDbVertex
100
AcDb2dVertex
 10
771.375813
 20
146.438133
 30
0.0
  0
VERTEX
  5
410B
100
AcDbEntity
  8
MSL-115-P40-S-0
 48
2.0
100
AcDbVertex
100
AcDb2dVertex
 10
771.375813
 20
155.438133
 30
0.0
  0
VERTEX
  5
410C
100
AcDbEntity
  8
MSL-115-P40-S-0
 48
2.0
100
AcDbVertex
100
AcDb2dVertex
 10
772.375813
 20
156.438133
 30
0.0
  0
VERTEX
  5
410D
100
AcDbEntity
  8
MSL-115-P40-S-0
 48
2.0
100
AcDbVertex
100
AcDb2dVertex
 10
778.875813
 20
156.438133
 30
0.0
  0
SEQEND
  5
410E
100
AcDbEntity
  8
MSL-115-P40-S-0
 48
2.0
  0
POLYLINE
  5
410F
100
AcDbEntity
  8
MSL-115-P40-S-0
 48
2.0
100
AcDb2dPolyline
 66
     1
 10
0.0
 20
0.0
 30
0.0
  0
VERTEX
  5
4110
100
AcDbEntity
  8
MSL-115-P40-S-0
 48
2.0
100
AcDbVertex
100
AcDb2dVertex
 10
771.375813
 20
146.438133
 30
0.0
  0
VERTEX
  5
4111
100
AcDbEntity
  8
MSL-115-P40-S-0
 48
2.0
100
AcDbVertex
100
AcDb2dVertex
 10
771.375813
 20
137.438133
 30
0.0
  0
VERTEX
  5
4112
100
AcDbEntity
  8
MSL-115-P40-S-0
 48
2.0
100
AcDbVertex
100
AcDb2dVertex
 10
772.375813
 20
136.438133
 30
0.0
  0
VERTEX
  5
4113
100
AcDbEntity
  8
MSL-115-P40-S-0
 48
2.0
100
AcDbVertex
100
AcDb2dVertex
 10
778.875813
 20
136.438133
 30
0.0
  0
SEQEND
  5
4114
100
AcDbEntity
  8
MSL-115-P40-S-0
 48
2.0
  0
LINE
  5
4115
100
AcDbEntity
  8
MSL-115-P40-S-0
 48
2.0
100
AcDbLine
 10
772.875813
 20
87.438133
 30
0.0
 11
761.375813
 21
87.438133
 31
0.0
1001
ACAD
1000
RTLwPs
1070
   128
  0
ARC
  5
4116
100
AcDbEntity
  8
MSL-115-P40-S-0
 48
2.0
100
AcDbCircle
 10
772.875813
 20
93.438133
 30
0.0
 40
6.0
100
AcDbArc
 50
270.0
 51
0.0
1001
ACAD
1000
RTLwPs
1070
   128
  0
LINE
  5
4117
100
AcDbEntity
  8
MSL-115-P40-S-0
 48
2.0
100
AcDbLine
 10
761.375813
 20
144.038133
 30
0.0
 11
761.375813
 21
58.938133
 31
0.0
  0
LINE
  5
4118
100
AcDbEntity
  8
MSL-115-P40-S-0
 48
2.0
100
AcDbLine
 10
778.875813
 20
180.938133
 30
0.0
 11
778.875813
 21
61.938133
 31
0.0
1001
ACAD
1000
RTLwPs
1070
   128
  0
LINE
  5
4119
100
AcDbEntity
  8
MSL-115-P40-S-0
 48
2.0
100
AcDbLine
 10
792.875813
 20
180.938133
 30
0.0
 11
792.875813
 21
61.938133
 31
0.0
1001
ACAD
1000
RTLwPs
1070
   128
  0
LINE
  5
411A
100
AcDbEntity
  8
MSL-115-P40-S-0
 48
2.0
100
AcDbLine
 10
657.766939
 20
328.913194
 30
0.0
 11
653.216939
 21
328.913194
 31
0.0
  0
LINE
  5
411B
100
AcDbEntity
  8
MSL-115-P40-S-0
100
AcDbLine
 10
644.241939
 20
334.911888
 30
0.0
 11
644.241939
 21
334.411888
 31
0.0
1001
ACAD
1000
RTLwPs
1070
   128
  0
LINE
  5
411C
100
AcDbEntity
  8
MSL-115-P40-S-0
100
AcDbLine
 10
652.241939
 20
333.411888
 30
0.0
 11
644.241939
 21
333.411888
 31
0.0
1001
ACAD
1000
RTLwPs
1070
   128
  0
LINE
  5
411D
100
AcDbEntity
  8
MSL-115-P40-S-0
100
AcDbLine
 10
644.241939
 20
334.411888
 30
0.0
 11
652.241939
 21
334.411888
 31
0.0
1001
ACAD
1000
RTLwPs
1070
   128
  0
LINE
  5
411E
100
AcDbEntity
  8
MSL-115-P40-S-0
100
AcDbLine
 10
510.766589
 20
336.411888
 30
0.0
 11
510.266589
 21
336.911888
 31
0.0
  0
LINE
  5
411F
100
AcDbEntity
  8
MSL-115-P40-S-0
100
AcDbLine
 10
510.766589
 20
336.411888
 30
0.0
 11
510.766589
 21
334.911888
 31
0.0
  0
LINE
  5
4120
100
AcDbEntity
  8
MSL-115-P40-S-0
100
AcDbLine
 10
497.766589
 20
336.411888
 30
0.0
 11
498.266589
 21
336.911888
 31
0.0
  0
LINE
  5
4121
100
AcDbEntity
  8
MSL-115-P40-S-0
100
AcDbLine
 10
497.766589
 20
334.911888
 30
0.0
 11
497.766589
 21
336.411888
 31
0.0
  0
LINE
  5
4122
100
AcDbEntity
  8
MSL-115-P40-S-0
100
AcDbLine
 10
497.766589
 20
336.411888
 30
0.0
 11
510.766589
 21
336.411888
 31
0.0
  0
LINE
  5
4123
100
AcDbEntity
  8
MSL-115-P40-S-0
100
AcDbLine
 10
498.266589
 20
336.911888
 30
0.0
 11
510.266589
 21
336.911888
 31
0.0
  0
LINE
  5
4124
100
AcDbEntity
  8
MSL-115-P40-S-0
 48
2.0
100
AcDbLine
 10
657.766939
 20
325.160417
 30
0.0
 11
653.216939
 21
325.160417
 31
0.0
  0
LINE
  5
4125
100
AcDbEntity
  8
MSL-115-P40-S-0
 48
2.0
100
AcDbLine
 10
657.766939
 20
317.654863
 30
0.0
 11
653.216939
 21
317.654863
 31
0.0
  0
ARC
  5
4126
100
AcDbEntity
  8
MSL-115-P40-S-0
 48
2.0
100
AcDbCircle
 10
651.032217
 20
321.40764
 30
0.0
 40
7.709722
100
AcDbArc
 50
330.872216
 51
29.127784
  0
LINE
  5
4127
100
AcDbEntity
  8
MSL-115-P40-S-0
 48
2.0
100
AcDbLine
 10
652.241939
 20
325.40764
 30
0.0
 11
652.241939
 21
317.40764
 31
0.0
  0
ARC
  5
4128
100
AcDbEntity
  8
MSL-115-P40-S-0
 48
2.0
100
AcDbCircle
 10
659.951662
 20
321.40764
 30
0.0
 40
7.709722
100
AcDbArc
 50
150.872218
 51
209.127782
  0
LINE
  5
4129
100
AcDbEntity
  8
MSL-115-P40-S-0
 48
2.0
100
AcDbLine
 10
657.766939
 20
313.902087
 30
0.0
 11
653.216939
 21
313.902087
 31
0.0
  0
LINE
  5
412A
100
AcDbEntity
  8
MSL-115-P40-S-0
100
AcDbLine
 10
644.241939
 20
313.411888
 30
0.0
 11
652.241939
 21
313.411888
 31
0.0
1001
ACAD
1000
RTLwPs
1070
   128
  0
LINE
  5
412B
100
AcDbEntity
  8
MSL-115-P40-S-0
100
AcDbLine
 10
652.241939
 20
312.411888
 30
0.0
 11
644.241939
 21
312.411888
 31
0.0
1001
ACAD
1000
RTLwPs
1070
   128
  0
ARC
  5
412C
100
AcDbEntity
  8
MSL-115-P40-S-0
 48
2.0
100
AcDbCircle
 10
656.448884
 20
315.778475
 30
0.0
 40
2.293056
100
AcDbArc
 50
305.085847
 51
54.914153
  0
LINE
  5
412D
100
AcDbEntity
  8
MSL-115-P40-S-0
 48
2.0
100
AcDbLine
 10
658.741939
 20
315.778475
 30
0.0
 11
658.741939
 21
327.036805
 31
0.0
  0
ARC
  5
412E
100
AcDbEntity
  8
MSL-115-P40-S-0
 48
2.0
100
AcDbCircle
 10
654.534995
 20
315.778475
 30
0.0
 40
2.293056
100
AcDbArc
 50
125.085848
 51
234.914152
  0
LINE
  5
412F
100
AcDbEntity
  8
MSL-115-P40-S-0
 48
2.0
100
AcDbLine
 10
652.241939
 20
315.778475
 30
0.0
 11
652.241939
 21
327.036805
 31
0.0
  0
LINE
  5
4130
100
AcDbEntity
  8
MSL-115-P40-S-0
100
AcDbLine
 10
634.241939
 20
309.911888
 30
0.0
 11
634.241939
 21
309.511888
 31
0.0
1001
ACAD
1000
RTLwPs
1070
   128
  0
LINE
  5
4131
100
AcDbEntity
  8
MSL-115-P40-S-0
100
AcDbLine
 10
633.091939
 20
309.911888
 30
0.0
 11
633.091939
 21
309.111888
 31
0.0
1001
ACAD
1000
RTLwPs
1070
   128
  0
LINE
  5
4132
100
AcDbEntity
  8
MSL-115-P40-S-0
100
AcDbLine
 10
633.091939
 20
309.511888
 30
0.0
 11
640.391939
 21
309.511888
 31
0.0
1001
ACAD
1000
RTLwPs
1070
   128
  0
LINE
  5
4133
100
AcDbEntity
  8
MSL-115-P40-S-0
100
AcDbLine
 10
640.191939
 20
290.111888
 30
0.0
 11
640.191939
 21
289.911888
 31
0.0
1001
ACAD
1000
RTLwPs
1070
   128
  0
LINE
  5
4134
100
AcDbEntity
  8
MSL-115-P40-S-0
100
AcDbLine
 10
640.391939
 20
292.911888
 30
0.0
 11
640.391939
 21
290.111888
 31
0.0
1001
ACAD
1000
RTLwPs
1070
   128
  0
LINE
  5
4135
100
AcDbEntity
  8
MSL-115-P40-S-0
100
AcDbLine
 10
633.091939
 20
293.411888
 30
0.0
 11
633.091939
 21
292.911888
 31
0.0
1001
ACAD
1000
RTLwPs
1070
   128
  0
LINE
  5
4136
100
AcDbEntity
  8
MSL-115-P40-S-0
100
AcDbLine
 10
633.091939
 20
292.911888
 30
0.0
 11
640.391939
 21
292.911888
 31
0.0
1001
ACAD
1000
RTLwPs
1070
   128
  0
LINE
  5
4137
100
AcDbEntity
  8
MSL-115-P40-S-0
100
AcDbLine
 10
633.091939
 20
309.111888
 30
0.0
 11
633.091939
 21
293.411888
 31
0.0
1001
ACAD
1000
RTLwPs
1070
   128
  0
LINE
  5
4138
100
AcDbEntity
  8
MSL-115-P40-S-0
100
AcDbLine
 10
640.391939
 20
309.511888
 30
0.0
 11
640.391939
 21
292.911888
 31
0.0
1001
ACAD
1000
RTLwPs
1070
   128
  0
LINE
  5
4139
100
AcDbEntity
  8
MSL-115-P40-S-0
100
AcDbLine
 10
607.391939
 20
309.911888
 30
0.0
 11
607.391939
 21
309.111888
 31
0.0
1001
ACAD
1000
RTLwPs
1070
   128
  0
LINE
  5
413A
100
AcDbEntity
  8
MSL-115-P40-S-0
100
AcDbLine
 10
607.391939
 20
309.511888
 30
0.0
 11
600.091939
 21
309.511888
 31
0.0
1001
ACAD
1000
RTLwPs
1070
   128
  0
LINE
  5
413B
100
AcDbEntity
  8
MSL-115-P40-S-0
100
AcDbLine
 10
607.391939
 20
293.411888
 30
0.0
 11
607.391939
 21
292.911888
 31
0.0
1001
ACAD
1000
RTLwPs
1070
   128
  0
LINE
  5
413C
100
AcDbEntity
  8
MSL-115-P40-S-0
100
AcDbLine
 10
607.391939
 20
292.911888
 30
0.0
 11
600.091939
 21
292.911888
 31
0.0
1001
ACAD
1000
RTLwPs
1070
   128
  0
LINE
  5
413D
100
AcDbEntity
  8
MSL-115-P40-S-0
100
AcDbLine
 10
600.291939
 20
289.911888
 30
0.0
 11
600.291939
 21
290.111888
 31
0.0
1001
ACAD
1000
RTLwPs
1070
   128
  0
LINE
  5
413E
100
AcDbEntity
  8
MSL-115-P40-S-0
100
AcDbLine
 10
600.091939
 20
290.111888
 30
0.0
 11
600.091939
 21
292.911888
 31
0.0
1001
ACAD
1000
RTLwPs
1070
   128
  0
LINE
  5
413F
100
AcDbEntity
  8
MSL-115-P40-S-0
100
AcDbLine
 10
600.091939
 20
292.911888
 30
0.0
 11
600.091939
 21
309.511888
 31
0.0
1001
ACAD
1000
RTLwPs
1070
   128
  0
LINE
  5
4140
100
AcDbEntity
  8
MSL-115-P40-S-0
100
AcDbLine
 10
607.391939
 20
309.111888
 30
0.0
 11
607.391939
 21
293.411888
 31
0.0
1001
ACAD
1000
RTLwPs
1070
   128
  0
LINE
  5
4141
100
AcDbEntity
  8
MSL-115-P40-S-0
100
AcDbLine
 10
633.091939
 20
309.111888
 30
0.0
 11
607.391939
 21
309.111888
 31
0.0
1001
ACAD
1000
RTLwPs
1070
   128
  0
LINE
  5
4142
100
AcDbEntity
  8
MSL-115-P40-S-0
100
AcDbLine
 10
633.091939
 20
293.411888
 30
0.0
 11
607.391939
 21
293.411888
 31
0.0
1001
ACAD
1000
RTLwPs
1070
   128
  0
LINE
  5
4143
100
AcDbEntity
  8
MSL-115-P40-S-0
100
AcDbLine
 10
640.391939
 20
290.111888
 30
0.0
 11
600.091939
 21
290.111888
 31
0.0
1001
ACAD
1000
RTLwPs
1070
   128
  0
LINE
  5
4144
100
AcDbEntity
  8
MSL-115-P40-S-0
100
AcDbLine
 10
640.191939
 20
289.911888
 30
0.0
 11
600.291939
 21
289.911888
 31
0.0
1001
ACAD
1000
RTLwPs
1070
   128
  0
LINE
  5
4145
100
AcDbEntity
  8
MSL-115-P40-S-0
100
AcDbLine
 10
644.241939
 20
334.411888
 30
0.0
 11
644.241939
 21
309.911888
 31
0.0
1001
ACAD
1000
RTLwPs
1070
   128
  0
LINE
  5
4146
100
AcDbEntity
  8
MSL-115-P40-S-0
 48
2.0
100
AcDbLine
 10
652.241939
 20
312.411888
 30
0.0
 11
652.241939
 21
334.411888
 31
0.0
1001
ACAD
1000
RTLwPs
1070
   128
  0
ARC
  5
4147
100
AcDbEntity
  8
MSL-115-P40-S-0
 48
2.0
100
AcDbCircle
 10
656.448884
 20
327.036805
 30
0.0
 40
2.293056
100
AcDbArc
 50
305.085847
 51
54.914153
  0
ARC
  5
4148
100
AcDbEntity
  8
MSL-115-P40-S-0
 48
2.0
100
AcDbCircle
 10
654.534995
 20
327.036805
 30
0.0
 40
2.293056
100
AcDbArc
 50
125.085848
 51
234.914152
  0
LINE
  5
4149
100
AcDbEntity
  8
MSL-115-P40-S-7
100
AcDbLine
 10
564.241939
 20
338.911888
 30
0.0
 11
564.241939
 21
307.911888
 31
0.0
  0
LINE
  5
414A
100
AcDbEntity
  8
MSL-115-P40-S-7
100
AcDbLine
 10
594.241939
 20
336.911888
 30
0.0
 11
594.241939
 21
307.911888
 31
0.0
  0
LINE
  5
414B
100
AcDbEntity
  8
MSL-115-P40-S-7
100
AcDbLine
 10
624.241939
 20
336.911888
 30
0.0
 11
624.241939
 21
307.911888
 31
0.0
  0
LINE
  5
4152
100
AcDbEntity
  8
MSL-115-P40-S-0
100
AcDbLine
 10
461.091939
 20
309.911888
 30
0.0
 11
461.091939
 21
309.111888
 31
0.0
1001
ACAD
1000
RTLwPs
1070
   128
  0
LINE
  5
4153
100
AcDbEntity
  8
MSL-115-P40-S-0
100
AcDbLine
 10
461.091939
 20
309.511888
 30
0.0
 11
468.391939
 21
309.511888
 31
0.0
1001
ACAD
1000
RTLwPs
1070
   128
  0
LINE
  5
4154
100
AcDbEntity
  8
MSL-115-P40-S-0
100
AcDbLine
 10
461.091939
 20
293.411888
 30
0.0
 11
461.091939
 21
292.911888
 31
0.0
1001
ACAD
1000
RTLwPs
1070
   128
  0
LINE
  5
4155
100
AcDbEntity
  8
MSL-115-P40-S-0
100
AcDbLine
 10
461.091939
 20
292.911888
 30
0.0
 11
468.391939
 21
292.911888
 31
0.0
1001
ACAD
1000
RTLwPs
1070
   128
  0
LINE
  5
4156
100
AcDbEntity
  8
MSL-115-P40-S-0
100
AcDbLine
 10
468.191939
 20
290.111888
 30
0.0
 11
468.191939
 21
289.911888
 31
0.0
1001
ACAD
1000
RTLwPs
1070
   128
  0
LINE
  5
4157
100
AcDbEntity
  8
MSL-115-P40-S-0
100
AcDbLine
 10
468.391939
 20
292.911888
 30
0.0
 11
468.391939
 21
290.111888
 31
0.0
1001
ACAD
1000
RTLwPs
1070
   128
  0
LINE
  5
4158
100
AcDbEntity
  8
MSL-115-P40-S-0
100
AcDbLine
 10
461.091939
 20
309.111888
 30
0.0
 11
461.091939
 21
293.411888
 31
0.0
1001
ACAD
1000
RTLwPs
1070
   128
  0
LINE
  5
4159
100
AcDbEntity
  8
MSL-115-P40-S-0
100
AcDbLine
 10
468.391939
 20
309.511888
 30
0.0
 11
468.391939
 21
292.911888
 31
0.0
1001
ACAD
1000
RTLwPs
1070
   128
  0
LINE
  5
415A
100
AcDbEntity
  8
MSL-115-P40-S-7
100
AcDbLine
 10
444.241939
 20
336.911888
 30
0.0
 11
444.241939
 21
307.911888
 31
0.0
  0
LINE
  5
415B
100
AcDbEntity
  8
MSL-115-P40-S-7
100
AcDbLine
 10
474.241939
 20
336.911888
 30
0.0
 11
474.241939
 21
307.911888
 31
0.0
  0
LINE
  5
415C
100
AcDbEntity
  8
MSL-115-P40-S-7
100
AcDbLine
 10
504.270241
 20
338.911688
 30
0.0
 11
504.241939
 21
307.911888
 31
0.0
  0
LINE
  5
415D
100
AcDbEntity
  8
MSL-115-P40-S-7
100
AcDbLine
 10
534.241939
 20
336.911888
 30
0.0
 11
534.241939
 21
307.911888
 31
0.0
  0
LINE
  5
415E
100
AcDbEntity
  8
MSL-115-P40-S-0
100
AcDbLine
 10
468.391939
 20
303.411888
 30
0.0
 11
600.091939
 21
303.411888
 31
0.0
1001
ACAD
1000
RTLwPs
1070
   128
  0
LINE
  5
415F
100
AcDbEntity
  8
MSL-115-P40-S-0
100
AcDbLine
 10
600.091939
 20
302.111888
 30
0.0
 11
468.391939
 21
302.111888
 31
0.0
1001
ACAD
1000
RTLwPs
1070
   128
  0
LINE
  5
4160
100
AcDbEntity
  8
MSL-115-P40-S-0
100
AcDbLine
 10
468.391939
 20
302.111888
 30
0.0
 11
600.091939
 21
302.111888
 31
0.0
  0
LINE
  5
4161
100
AcDbEntity
  8
MSL-115-P40-S-0
100
AcDbLine
 10
468.391939
 20
300.161322
 30
0.0
 11
600.091939
 21
300.161322
 31
0.0
  0
LINE
  5
4162
100
AcDbEntity
  8
MSL-115-P40-S-0
100
AcDbLine
 10
468.391939
 20
300.737058
 30
0.0
 11
600.091939
 21
300.737058
 31
0.0
  0
LINE
  5
4163
100
AcDbEntity
  8
MSL-115-P40-S-0
 48
2.0
100
AcDbLine
 10
410.716939
 20
328.917442
 30
0.0
 11
415.266939
 21
328.917442
 31
0.0
  0
LINE
  5
4164
100
AcDbEntity
  8
MSL-115-P40-S-0
 48
2.0
100
AcDbLine
 10
399.559439
 20
328.913194
 30
0.0
 11
402.741939
 21
328.913194
 31
0.0
  0
LINE
  5
4165
100
AcDbEntity
  8
MSL-115-P40-S-0
 48
2.0
100
AcDbLine
 10
402.241939
 20
330.411888
 30
0.0
 11
402.241939
 21
328.913194
 31
0.0
  0
LINE
  5
4166
100
AcDbEntity
  8
MSL-115-P40-S-0
 48
2.0
100
AcDbLine
 10
397.54194
 20
331.226843
 30
0.0
 11
395.74194
 21
331.226843
 31
0.0
  0
LINE
  5
4167
100
AcDbEntity
  8
MSL-115-P40-S-0
 48
2.0
100
AcDbLine
 10
395.741939
 20
331.411888
 30
0.0
 11
395.741939
 21
334.411888
 31
0.0
1001
ACAD
1000
RTLwPs
1070
   128
  0
LINE
  5
4168
100
AcDbEntity
  8
MSL-115-P40-S-5
 48
2.0
100
AcDbLine
 10
398.525847
 20
329.911888
 30
0.0
 11
402.741939
 21
329.911888
 31
0.0
  0
LINE
  5
4169
100
AcDbEntity
  8
MSL-115-P40-S-0
100
AcDbLine
 10
416.241939
 20
334.411888
 30
0.0
 11
424.241939
 21
334.411888
 31
0.0
1001
ACAD
1000
RTLwPs
1070
   128
  0
LINE
  5
416A
100
AcDbEntity
  8
MSL-115-P40-S-0
100
AcDbLine
 10
424.241939
 20
333.411888
 30
0.0
 11
416.241939
 21
333.411888
 31
0.0
1001
ACAD
1000
RTLwPs
1070
   128
  0
LINE
  5
416B
100
AcDbEntity
  8
MSL-115-P40-S-0
 48
2.0
100
AcDbLine
 10
381.741939
 20
332.411888
 30
0.0
 11
381.066262
 21
334.268294
 31
0.0
1001
ACAD
1000
RTLwPs
1070
   128
  0
ARC
  5
416C
100
AcDbEntity
  8
MSL-115-P40-S-0
 48
2.0
100
AcDbCircle
 10
371.863208
 20
330.675282
 30
0.0
 40
9.879572
100
AcDbArc
 50
0.747626
 51
21.326429
1001
ACAD
1000
RTLwPs
1070
   128
  0
LINE
  5
416D
100
AcDbEntity
  8
MSL-115-P40-S-0
 48
2.0
100
AcDbLine
 10
381.741939
 20
334.411888
 30
0.0
 11
381.741939
 21
331.411888
 31
0.0
1001
ACAD
1000
RTLwPs
1070
   128
  0
LINE
  5
416E
100
AcDbEntity
  8
MSL-115-P40-S-0
 48
2.0
100
AcDbLine
 10
376.417615
 20
334.268294
 30
0.0
 11
375.741939
 21
332.411888
 31
0.0
1001
ACAD
1000
RTLwPs
1070
   128
  0
ARC
  5
416F
100
AcDbEntity
  8
MSL-115-P40-S-0
 48
2.0
100
AcDbCircle
 10
385.626119
 20
330.674219
 30
0.0
 40
9.885035
100
AcDbArc
 50
158.67932
 51
179.246625
1001
ACAD
1000
RTLwPs
1070
   128
  0
LINE
  5
4170
100
AcDbEntity
  8
MSL-115-P40-S-0
 48
2.0
100
AcDbLine
 10
375.741939
 20
330.804193
 30
0.0
 11
375.741939
 21
332.411888
 31
0.0
1001
ACAD
1000
RTLwPs
1070
   128
  0
LINE
  5
4171
100
AcDbEntity
  8
MSL-115-P40-S-0
 48
2.0
100
AcDbLine
 10
376.417615
 20
334.268294
 30
0.0
 11
381.066262
 21
334.268294
 31
0.0
1001
ACAD
1000
RTLwPs
1070
   128
  0
LINE
  5
4172
100
AcDbEntity
  8
MSL-115-P40-S-0
 48
2.0
100
AcDbLine
 10
395.741939
 20
334.411888
 30
0.0
 11
381.741939
 21
334.411888
 31
0.0
1001
ACAD
1000
RTLwPs
1070
   128
  0
LINE
  5
4173
100
AcDbEntity
  8
MSL-115-P40-S-0
 48
2.0
100
AcDbLine
 10
381.741939
 20
331.411888
 30
0.0
 11
395.741939
 21
331.411888
 31
0.0
1001
ACAD
1000
RTLwPs
1070
   128
  0
LINE
  5
4174
100
AcDbEntity
  8
MSL-115-P40-S-0
100
AcDbLine
 10
435.391939
 20
309.911888
 30
0.0
 11
435.391939
 21
309.111888
 31
0.0
1001
ACAD
1000
RTLwPs
1070
   128
  0
LINE
  5
4175
100
AcDbEntity
  8
MSL-115-P40-S-0
100
AcDbLine
 10
435.391939
 20
309.511888
 30
0.0
 11
428.091939
 21
309.511888
 31
0.0
1001
ACAD
1000
RTLwPs
1070
   128
  0
POLYLINE
  5
4176
100
AcDbEntity
  8
MSL-115-P40-S-0
 48
2.0
100
AcDb2dPolyline
 66
     1
 10
0.0
 20
0.0
 30
0.0
  0
VERTEX
  5
4177
100
AcDbEntity
  8
MSL-115-P40-S-0
 48
2.0
100
AcDbVertex
100
AcDb2dVertex
 10
405.741939
 20
325.411888
 30
0.0
  0
VERTEX
  5
4178
100
AcDbEntity
  8
MSL-115-P40-S-0
 48
2.0
100
AcDbVertex
100
AcDb2dVertex
 10
405.741939
 20
326.661888
 30
0.0
  0
SEQEND
  5
4179
100
AcDbEntity
  8
MSL-115-P40-S-0
 48
2.0
  0
LINE
  5
417A
100
AcDbEntity
  8
MSL-115-P40-S-0
 48
2.0
100
AcDbLine
 10
410.716939
 20
325.164665
 30
0.0
 11
415.266939
 21
325.164665
 31
0.0
  0
LINE
  5
417B
100
AcDbEntity
  8
MSL-115-P40-S-0
 48
2.0
100
AcDbLine
 10
410.716939
 20
317.659111
 30
0.0
 11
415.266939
 21
317.659111
 31
0.0
  0
ARC
  5
417C
100
AcDbEntity
  8
MSL-115-P40-S-0
 48
2.0
100
AcDbCircle
 10
417.451661
 20
321.411888
 30
0.0
 40
7.709722
100
AcDbArc
 50
150.872216
 51
209.127784
  0
ARC
  5
417D
100
AcDbEntity
  8
MSL-115-P40-S-0
 48
2.0
100
AcDbCircle
 10
408.532216
 20
321.411888
 30
0.0
 40
7.709722
100
AcDbArc
 50
330.872218
 51
29.127782
  0
LINE
  5
417E
100
AcDbEntity
  8
MSL-115-P40-S-0
 48
2.0
100
AcDbLine
 10
399.559439
 20
325.160417
 30
0.0
 11
402.741939
 21
325.160417
 31
0.0
  0
POLYLINE
  5
417F
100
AcDbEntity
  8
MSL-115-P40-S-0
 48
2.0
100
AcDb2dPolyline
 66
     1
 10
0.0
 20
0.0
 30
0.0
  0
VERTEX
  5
4180
100
AcDbEntity
  8
MSL-115-P40-S-0
 48
2.0
100
AcDbVertex
100
AcDb2dVertex
 10
405.241939
 20
325.411888
 30
0.0
  0
VERTEX
  5
4181
100
AcDbEntity
  8
MSL-115-P40-S-0
 48
2.0
100
AcDbVertex
100
AcDb2dVertex
 10
405.241939
 20
328.411888
 30
0.0
  0
VERTEX
  5
4182
100
AcDbEntity
  8
MSL-115-P40-S-0
 48
2.0
100
AcDbVertex
100
AcDb2dVertex
 10
404.741939
 20
328.911888
 30
0.0
  0
VERTEX
  5
4183
100
AcDbEntity
  8
MSL-115-P40-S-0
 48
2.0
100
AcDbVertex
100
AcDb2dVertex
 10
403.241939
 20
328.911888
 30
0.0
  0
SEQEND
  5
4184
100
AcDbEntity
  8
MSL-115-P40-S-0
 48
2.0
  0
POLYLINE
  5
4185
100
AcDbEntity
  8
MSL-115-P40-S-0
 48
2.0
100
AcDb2dPolyline
 66
     1
 10
0.0
 20
0.0
 30
0.0
  0
VERTEX
  5
4186
100
AcDbEntity
  8
MSL-115-P40-S-0
 48
2.0
100
AcDbVertex
100
AcDb2dVertex
 10
404.741939
 20
325.411888
 30
0.0
  0
VERTEX
  5
4187
100
AcDbEntity
  8
MSL-115-P40-S-0
 48
2.0
100
AcDbVertex
100
AcDb2dVertex
 10
404.741939
 20
328.911888
 30
0.0
  0
SEQEND
  5
4188
100
AcDbEntity
  8
MSL-115-P40-S-0
 48
2.0
  0
LINE
  5
4189
100
AcDbEntity
  8
MSL-115-P40-S-0
 48
2.0
100
AcDbLine
 10
397.54194
 20
326.319365
 30
0.0
 11
395.74194
 21
326.319365
 31
0.0
  0
LINE
  5
418A
100
AcDbEntity
  8
MSL-115-P40-S-0
 48
2.0
100
AcDbLine
 10
399.559439
 20
317.654863
 30
0.0
 11
402.741939
 21
317.654863
 31
0.0
  0
LINE
  5
418B
100
AcDbEntity
  8
MSL-115-P40-S-0
 48
2.0
100
AcDbLine
 10
397.54194
 20
316.504411
 30
0.0
 11
395.74194
 21
316.504411
 31
0.0
  0
ARC
  5
418C
100
AcDbEntity
  8
MSL-115-P40-S-0
 48
2.0
100
AcDbCircle
 10
388.107217
 20
321.411888
 30
0.0
 40
10.634722
100
AcDbArc
 50
332.518771
 51
27.481229
  0
ARC
  5
418D
100
AcDbEntity
  8
MSL-115-P40-S-0
 48
2.0
100
AcDbCircle
 10
407.764348
 20
321.40764
 30
0.0
 40
9.02241
100
AcDbArc
 50
155.421502
 51
204.578498
  0
LINE
  5
418E
100
AcDbEntity
  8
MSL-115-P40-S-5
 48
2.0
100
AcDbLine
 10
402.741939
 20
324.661888
 30
0.0
 11
409.741939
 21
324.661888
 31
0.0
  0
LINE
  5
418F
100
AcDbEntity
  8
MSL-115-P40-S-0
 48
2.0
100
AcDbLine
 10
402.741939
 20
325.411888
 30
0.0
 11
409.741939
 21
325.411888
 31
0.0
  0
POLYLINE
  5
4190
100
AcDbEntity
  8
MSL-115-P40-S-0
 48
2.0
100
AcDb2dPolyline
 66
     1
 10
0.0
 20
0.0
 30
0.0
  0
VERTEX
  5
4191
100
AcDbEntity
  8
MSL-115-P40-S-0
 48
2.0
100
AcDbVertex
100
AcDb2dVertex
 10
410.741939
 20
328.911888
 30
0.0
  0
VERTEX
  5
4192
100
AcDbEntity
  8
MSL-115-P40-S-0
 48
2.0
100
AcDbVertex
100
AcDb2dVertex
 10
408.741939
 20
328.911888
 30
0.0
  0
VERTEX
  5
4193
100
AcDbEntity
  8
MSL-115-P40-S-0
 48
2.0
100
AcDbVertex
100
AcDb2dVertex
 10
408.741939
 20
327.161888
 30
0.0
 42
-0.414214
  0
VERTEX
  5
4194
100
AcDbEntity
  8
MSL-115-P40-S-0
 48
2.0
100
AcDbVertex
100
AcDb2dVertex
 10
408.241939
 20
326.661888
 30
0.0
  0
VERTEX
  5
4195
100
AcDbEntity
  8
MSL-115-P40-S-0
 48
2.0
100
AcDbVertex
100
AcDb2dVertex
 10
405.741939
 20
326.661888
 30
0.0
  0
VERTEX
  5
4196
100
AcDbEntity
  8
MSL-115-P40-S-0
 48
2.0
100
AcDbVertex
100
AcDb2dVertex
 10
405.241939
 20
326.161888
 30
0.0
  0
VERTEX
  5
4197
100
AcDbEntity
  8
MSL-115-P40-S-0
 48
2.0
100
AcDbVertex
100
AcDb2dVertex
 10
405.241939
 20
325.411888
 30
0.0
  0
SEQEND
  5
4198
100
AcDbEntity
  8
MSL-115-P40-S-0
 48
2.0
  0
LINE
  5
4199
100
AcDbEntity
  8
MSL-115-P40-S-5
 48
2.0
100
AcDbLine
 10
402.741939
 20
318.161888
 30
0.0
 11
409.741939
 21
318.161888
 31
0.0
  0
LINE
  5
419A
100
AcDbEntity
  8
MSL-115-P40-S-0
 48
2.0
100
AcDbLine
 10
409.741939
 20
317.411888
 30
0.0
 11
402.741939
 21
317.411888
 31
0.0
  0
POLYLINE
  5
419B
100
AcDbEntity
  8
MSL-115-P40-S-0
 48
2.0
100
AcDb2dPolyline
 66
     1
 10
0.0
 20
0.0
 30
0.0
  0
VERTEX
  5
419C
100
AcDbEntity
  8
MSL-115-P40-S-0
 48
2.0
100
AcDbVertex
100
AcDb2dVertex
 10
412.741939
 20
313.906335
 30
0.0
  0
VERTEX
  5
419D
100
AcDbEntity
  8
MSL-115-P40-S-0
 48
2.0
100
AcDbVertex
100
AcDb2dVertex
 10
412.741939
 20
312.911888
 30
0.0
  0
SEQEND
  5
419E
100
AcDbEntity
  8
MSL-115-P40-S-0
 48
2.0
  0
POLYLINE
  5
419F
100
AcDbEntity
  8
MSL-115-P40-S-0
 48
2.0
100
AcDb2dPolyline
 66
     1
 10
0.0
 20
0.0
 30
0.0
  0
VERTEX
  5
41A0
100
AcDbEntity
  8
MSL-115-P40-S-0
 48
2.0
100
AcDbVertex
100
AcDb2dVertex
 10
414.635275
 20
313.906335
 30
0.0
  0
VERTEX
  5
41A1
100
AcDbEntity
  8
MSL-115-P40-S-0
 48
2.0
100
AcDbVertex
100
AcDb2dVertex
 10
413.441939
 20
312.911888
 30
0.0
  0
SEQEND
  5
41A2
100
AcDbEntity
  8
MSL-115-P40-S-0
 48
2.0
  0
ARC
  5
41A3
100
AcDbEntity
  8
MSL-115-P40-S-0
 48
2.0
100
AcDbCircle
 10
408.241939
 20
313.661888
 30
0.0
 40
0.5
100
AcDbArc
 50
0.0
 51
90.0
  0
LINE
  5
41A4
100
AcDbEntity
  8
MSL-115-P40-S-0
 48
2.0
100
AcDbLine
 10
408.741939
 20
312.911888
 30
0.0
 11
408.741939
 21
313.661888
 31
0.0
  0
LINE
  5
41A5
100
AcDbEntity
  8
MSL-115-P40-S-0
 48
2.0
100
AcDbLine
 10
408.241939
 20
314.161888
 30
0.0
 11
405.741939
 21
314.161888
 31
0.0
  0
LINE
  5
41A6
100
AcDbEntity
  8
MSL-115-P40-S-0
 48
2.0
100
AcDbLine
 10
410.716939
 20
313.906335
 30
0.0
 11
415.266939
 21
313.906335
 31
0.0
  0
LINE
  5
41A7
100
AcDbEntity
  8
MSL-115-P40-S-0
 48
2.0
100
AcDbLine
 10
402.741939
 20
313.902087
 30
0.0
 11
399.559439
 21
313.902087
 31
0.0
  0
LINE
  5
41A8
100
AcDbEntity
  8
MSL-115-P40-S-0
 48
2.0
100
AcDbLine
 10
402.241939
 20
313.902087
 30
0.0
 11
402.241939
 21
312.911888
 31
0.0
  0
LINE
  5
41A9
100
AcDbEntity
  8
MSL-115-P40-S-0
 48
2.0
100
AcDbLine
 10
405.741939
 20
314.161888
 30
0.0
 11
405.241939
 21
314.661888
 31
0.0
  0
LINE
  5
41AA
100
AcDbEntity
  8
MSL-115-P40-S-0
 48
2.0
100
AcDbLine
 10
395.741939
 20
312.911888
 30
0.0
 11
413.741939
 21
312.911888
 31
0.0
1001
ACAD
1000
RTLwPs
1070
   128
  0
ARC
  5
41AB
100
AcDbEntity
  8
MSL-115-P40-S-0
 48
2.0
100
AcDbCircle
 10
412.034994
 20
315.782723
 30
0.0
 40
2.293056
100
AcDbArc
 50
125.085847
 51
234.914153
  0
ARC
  5
41AC
100
AcDbEntity
  8
MSL-115-P40-S-0
 48
2.0
100
AcDbCircle
 10
413.948883
 20
315.782723
 30
0.0
 40
2.293056
100
AcDbArc
 50
305.085848
 51
54.914152
  0
LINE
  5
41AD
100
AcDbEntity
  8
MSL-115-P40-S-5
 48
2.0
100
AcDbLine
 10
408.741939
 20
317.411888
 30
0.0
 11
408.741939
 21
314.699456
 31
0.0
  0
ARC
  5
41AE
100
AcDbEntity
  8
MSL-115-P40-S-0
 48
2.0
100
AcDbCircle
 10
395.633259
 20
314.050672
 30
0.0
 40
3.108681
100
AcDbArc
 50
338.510922
 51
52.121858
  0
ARC
  5
41AF
100
AcDbEntity
  8
MSL-115-P40-S-0
 48
2.0
100
AcDbCircle
 10
401.304104
 20
315.778475
 30
0.0
 40
2.562165
100
AcDbArc
 50
132.916662
 51
227.083338
  0
LINE
  5
41B0
100
AcDbEntity
  8
MSL-115-P40-S-0
 48
2.0
100
AcDbLine
 10
403.241939
 20
317.411888
 30
0.0
 11
403.241939
 21
312.911888
 31
0.0
  0
LINE
  5
41B1
100
AcDbEntity
  8
MSL-115-P40-S-0
 48
2.0
100
AcDbLine
 10
405.241939
 20
317.411888
 30
0.0
 11
405.241939
 21
312.911888
 31
0.0
  0
LINE
  5
41B2
100
AcDbEntity
  8
MSL-115-P40-S-0
 48
2.0
100
AcDbLine
 10
404.741939
 20
317.411888
 30
0.0
 11
404.741939
 21
312.911888
 31
0.0
  0
POLYLINE
  5
41B3
100
AcDbEntity
  8
MSL-115-P40-S-0
 48
2.0
100
AcDb2dPolyline
 66
     1
 10
0.0
 20
0.0
 30
0.0
  0
VERTEX
  5
41B4
100
AcDbEntity
  8
MSL-115-P40-S-0
 48
2.0
100
AcDbVertex
100
AcDb2dVertex
 10
405.741939
 20
317.411888
 30
0.0
  0
VERTEX
  5
41B5
100
AcDbEntity
  8
MSL-115-P40-S-0
 48
2.0
100
AcDbVertex
100
AcDb2dVertex
 10
405.741939
 20
314.161888
 30
0.0
  0
SEQEND
  5
41B6
100
AcDbEntity
  8
MSL-115-P40-S-0
 48
2.0
  0
LINE
  5
41B7
100
AcDbEntity
  8
MSL-115-P40-S-0
 48
2.0
100
AcDbLine
 10
398.74194
 20
328.773104
 30
0.0
 11
398.74194
 21
314.050672
 31
0.0
  0
LINE
  5
41B8
100
AcDbEntity
  8
MSL-115-P40-S-0
 48
2.0
100
AcDbLine
 10
398.741939
 20
327.036805
 30
0.0
 11
398.741939
 21
315.778475
 31
0.0
  0
LINE
  5
41B9
100
AcDbEntity
  8
MSL-115-P40-S-0
 48
2.0
100
AcDbLine
 10
409.741939
 20
315.782723
 30
0.0
 11
409.741939
 21
327.041053
 31
0.0
  0
LINE
  5
41BA
100
AcDbEntity
  8
MSL-115-P40-S-0
100
AcDbLine
 10
424.241939
 20
312.411888
 30
0.0
 11
416.241939
 21
312.411888
 31
0.0
1001
ACAD
1000
RTLwPs
1070
   128
  0
LINE
  5
41BB
100
AcDbEntity
  8
MSL-115-P40-S-0
100
AcDbLine
 10
416.241939
 20
313.411888
 30
0.0
 11
424.241939
 21
313.411888
 31
0.0
1001
ACAD
1000
RTLwPs
1070
   128
  0
LINE
  5
41BC
100
AcDbEntity
  8
MSL-115-P40-S-0
100
AcDbLine
 10
435.391939
 20
293.411888
 30
0.0
 11
435.391939
 21
292.911888
 31
0.0
1001
ACAD
1000
RTLwPs
1070
   128
  0
LINE
  5
41BD
100
AcDbEntity
  8
MSL-115-P40-S-0
100
AcDbLine
 10
435.391939
 20
292.911888
 30
0.0
 11
428.091939
 21
292.911888
 31
0.0
1001
ACAD
1000
RTLwPs
1070
   128
  0
LINE
  5
41BE
100
AcDbEntity
  8
MSL-115-P40-S-0
100
AcDbLine
 10
428.291939
 20
289.911888
 30
0.0
 11
428.291939
 21
290.111888
 31
0.0
1001
ACAD
1000
RTLwPs
1070
   128
  0
LINE
  5
41BF
100
AcDbEntity
  8
MSL-115-P40-S-0
100
AcDbLine
 10
428.091939
 20
290.111888
 30
0.0
 11
428.091939
 21
292.911888
 31
0.0
1001
ACAD
1000
RTLwPs
1070
   128
  0
LINE
  5
41C0
100
AcDbEntity
  8
MSL-115-P40-S-0
100
AcDbLine
 10
428.091939
 20
302.111888
 30
0.0
 11
413.741939
 21
302.111888
 31
0.0
1001
ACAD
1000
RTLwPs
1070
   128
  0
LINE
  5
41C1
100
AcDbEntity
  8
MSL-115-P40-S-0
100
AcDbLine
 10
428.091939
 20
302.111888
 30
0.0
 11
413.741939
 21
302.111888
 31
0.0
  0
LINE
  5
41C2
100
AcDbEntity
  8
MSL-115-P40-S-0
100
AcDbLine
 10
413.741939
 20
300.737058
 30
0.0
 11
428.091939
 21
300.737058
 31
0.0
  0
LINE
  5
41C3
100
AcDbEntity
  8
MSL-115-P40-S-0
100
AcDbLine
 10
413.741939
 20
300.161322
 30
0.0
 11
428.091939
 21
300.161322
 31
0.0
  0
LINE
  5
41C4
100
AcDbEntity
  8
MSL-115-P40-S-0
100
AcDbLine
 10
428.091939
 20
292.911888
 30
0.0
 11
428.091939
 21
309.511888
 31
0.0
1001
ACAD
1000
RTLwPs
1070
   128
  0
LINE
  5
41C5
100
AcDbEntity
  8
MSL-115-P40-S-0
100
AcDbLine
 10
435.391939
 20
309.111888
 30
0.0
 11
435.391939
 21
293.411888
 31
0.0
1001
ACAD
1000
RTLwPs
1070
   128
  0
LINE
  5
41C6
100
AcDbEntity
  8
MSL-115-P40-S-0
 48
2.0
100
AcDbLine
 10
381.741939
 20
328.911888
 30
0.0
 11
380.741939
 21
328.643939
 31
0.0
1001
ACAD
1000
RTLwPs
1070
   128
  0
ARC
  5
41C7
100
AcDbEntity
  8
MSL-115-P40-S-0
 48
2.0
100
AcDbCircle
 10
413.800168
 20
320.197288
 30
0.0
 40
38.058834
100
AcDbArc
 50
169.182699
 51
172.116948
1001
ACAD
1000
RTLwPs
1070
   128
  0
LINE
  5
41C8
100
AcDbEntity
  8
MSL-115-P40-S-0
 48
2.0
100
AcDbLine
 10
368.241939
 20
317.411888
 30
0.0
 11
368.241939
 21
325.411888
 31
0.0
1001
ACAD
1000
RTLwPs
1070
   128
  0
LINE
  5
41C9
100
AcDbEntity
  8
MSL-115-P40-S-0
 48
2.0
100
AcDbLine
 10
376.417615
 20
327.340091
 30
0.0
 11
380.741939
 21
327.340091
 31
0.0
1001
ACAD
1000
RTLwPs
1070
   128
  0
LINE
  5
41CA
100
AcDbEntity
  8
MSL-115-P40-S-5
 48
2.0
100
AcDbLine
 10
380.741939
 20
324.646888
 30
0.0
 11
368.241939
 21
324.646888
 31
0.0
1001
ACAD
1000
RTLwPs
1070
   128
  0
LINE
  5
41CB
100
AcDbEntity
  8
MSL-115-P40-S-5
 48
2.0
100
AcDbLine
 10
380.741939
 20
318.176888
 30
0.0
 11
368.241939
 21
318.176888
 31
0.0
1001
ACAD
1000
RTLwPs
1070
   128
  0
LINE
  5
41CC
100
AcDbEntity
  8
MSL-115-P40-S-0
 48
2.0
100
AcDbLine
 10
380.741939
 20
325.411888
 30
0.0
 11
368.241939
 21
325.411888
 31
0.0
1001
ACAD
1000
RTLwPs
1070
   128
  0
LINE
  5
41CD
100
AcDbEntity
  8
MSL-115-P40-S-0
 48
2.0
100
AcDbLine
 10
368.241939
 20
317.411888
 30
0.0
 11
380.741939
 21
317.411888
 31
0.0
1001
ACAD
1000
RTLwPs
1070
   128
  0
ARC
  5
41CE
100
AcDbEntity
  8
MSL-115-P40-S-0
 48
2.0
100
AcDbCircle
 10
343.510369
 20
320.643392
 30
0.0
 40
38.232271
100
AcDbArc
 50
349.206568
 51
350.092801
1001
ACAD
1000
RTLwPs
1070
   128
  0
LINE
  5
41CF
100
AcDbEntity
  8
MSL-115-P40-S-0
 48
2.0
100
AcDbLine
 10
380.741939
 20
314.179837
 30
0.0
 11
381.741939
 21
313.911888
 31
0.0
1001
ACAD
1000
RTLwPs
1070
   128
  0
LINE
  5
41D0
100
AcDbEntity
  8
MSL-115-P40-S-0
 48
2.0
100
AcDbLine
 10
381.066262
 20
306.555481
 30
0.0
 11
381.741939
 21
308.411888
 31
0.0
1001
ACAD
1000
RTLwPs
1070
   128
  0
ARC
  5
41D1
100
AcDbEntity
  8
MSL-115-P40-S-0
 48
2.0
100
AcDbCircle
 10
371.857758
 20
310.149556
 30
0.0
 40
9.885035
100
AcDbArc
 50
338.67932
 51
359.246625
1001
ACAD
1000
RTLwPs
1070
   128
  0
ARC
  5
41D2
100
AcDbEntity
  8
MSL-115-P40-S-0
 48
2.0
100
AcDbCircle
 10
371.863208
 20
309.890673
 30
0.0
 40
9.879572
100
AcDbArc
 50
0.747626
 51
21.326429
1001
ACAD
1000
RTLwPs
1070
   128
  0
LINE
  5
41D3
100
AcDbEntity
  8
MSL-115-P40-S-0
 48
2.0
100
AcDbLine
 10
375.741939
 20
308.411888
 30
0.0
 11
376.417615
 21
306.555481
 31
0.0
1001
ACAD
1000
RTLwPs
1070
   128
  0
LINE
  5
41D4
100
AcDbEntity
  8
MSL-115-P40-S-0
 48
2.0
100
AcDbLine
 10
375.741939
 20
310.019583
 30
0.0
 11
375.741939
 21
308.411888
 31
0.0
1001
ACAD
1000
RTLwPs
1070
   128
  0
ARC
  5
41D5
100
AcDbEntity
  8
MSL-115-P40-S-0
 48
2.0
100
AcDbCircle
 10
385.620669
 20
310.148493
 30
0.0
 40
9.879572
100
AcDbArc
 50
180.747626
 51
201.326429
1001
ACAD
1000
RTLwPs
1070
   128
  0
ARC
  5
41D6
100
AcDbEntity
  8
MSL-115-P40-S-0
 48
2.0
100
AcDbCircle
 10
385.626119
 20
309.88961
 30
0.0
 40
9.885035
100
AcDbArc
 50
158.67932
 51
179.246625
1001
ACAD
1000
RTLwPs
1070
   128
  0
LINE
  5
41D7
100
AcDbEntity
  8
MSL-115-P40-S-0
 48
2.0
100
AcDbLine
 10
376.417615
 20
313.483685
 30
0.0
 11
381.066262
 21
313.483685
 31
0.0
1001
ACAD
1000
RTLwPs
1070
   128
  0
LINE
  5
41D8
100
AcDbEntity
  8
MSL-115-P40-S-0
 48
2.0
100
AcDbLine
 10
376.417615
 20
306.555481
 30
0.0
 11
381.066262
 21
306.555481
 31
0.0
1001
ACAD
1000
RTLwPs
1070
   128
  0
LINE
  5
41D9
100
AcDbEntity
  8
MSL-115-P40-S-0
 48
2.0
100
AcDbLine
 10
380.741939
 20
314.179837
 30
0.0
 11
380.741939
 21
328.643939
 31
0.0
1001
ACAD
1000
RTLwPs
1070
   128
  0
LINE
  5
41DA
100
AcDbEntity
  8
MSL-115-P40-S-0
 48
2.0
100
AcDbLine
 10
375.741939
 20
310.019583
 30
0.0
 11
375.741939
 21
317.411888
 31
0.0
1001
ACAD
1000
RTLwPs
1070
   128
  0
ARC
  5
41DB
100
AcDbEntity
  8
MSL-115-P40-S-0
 48
2.0
100
AcDbCircle
 10
413.968205
 20
320.642875
 30
0.0
 40
38.226964
100
AcDbArc
 50
184.849687
 51
190.794159
1001
ACAD
1000
RTLwPs
1070
   128
  0
LINE
  5
41DC
100
AcDbEntity
  8
MSL-115-P40-S-0
 48
2.0
100
AcDbLine
 10
351.209325
 20
330.192648
 30
0.0
 11
351.209325
 21
328.192648
 31
0.0
1001
ACAD
1000
RTLwPs
1070
   128
  0
LINE
  5
41DD
100
AcDbEntity
  8
MSL-115-P40-S-0
 48
2.0
100
AcDbLine
 10
360.241939
 20
325.411888
 30
0.0
 11
351.741939
 21
325.411888
 31
0.0
1001
ACAD
1000
RTLwPs
1070
   128
  0
LINE
  5
41DE
100
AcDbEntity
  8
MSL-115-P40-S-0
 48
2.0
100
AcDbLine
 10
351.209325
 20
323.692648
 30
0.0
 11
351.209325
 21
319.192648
 31
0.0
1001
ACAD
1000
RTLwPs
1070
   128
  0
LINE
  5
41DF
100
AcDbEntity
  8
MSL-115-P40-S-0
 48
2.0
100
AcDbLine
 10
351.741939
 20
317.411888
 30
0.0
 11
360.241939
 21
317.411888
 31
0.0
1001
ACAD
1000
RTLwPs
1070
   128
  0
LINE
  5
41E0
100
AcDbEntity
  8
MSL-115-P40-S-0
 48
2.0
100
AcDbLine
 10
351.209325
 20
328.192648
 30
0.0
 11
351.209325
 21
323.692648
 31
0.0
1001
ACAD
1000
RTLwPs
1070
   128
  0
LINE
  5
41E1
100
AcDbEntity
  8
MSL-115-P40-S-0
 48
2.0
100
AcDbLine
 10
360.241939
 20
325.411888
 30
0.0
 11
360.241939
 21
317.411888
 31
0.0
1001
ACAD
1000
RTLwPs
1070
   128
  0
LINE
  5
41E2
100
AcDbEntity
  8
MSL-115-P40-S-0
 48
2.0
100
AcDbLine
 10
343.241939
 20
325.911888
 30
0.0
 11
343.241939
 21
327.911888
 31
0.0
1001
ACAD
1000
RTLwPs
1070
   128
  0
LINE
  5
41E3
100
AcDbEntity
  8
MSL-115-P40-S-0
 48
2.0
100
AcDbLine
 10
343.241939
 20
325.911888
 30
0.0
 11
343.241939
 21
316.911888
 31
0.0
1001
ACAD
1000
RTLwPs
1070
   128
  0
LINE
  5
41E4
100
AcDbEntity
  8
MSL-115-P40-S-0
 48
2.0
100
AcDbLine
 10
343.241939
 20
327.911888
 30
0.0
 11
351.741939
 21
327.911888
 31
0.0
1001
ACAD
1000
RTLwPs
1070
   128
  0
LINE
  5
41E5
100
AcDbEntity
  8
MSL-115-P40-S-0
 48
2.0
100
AcDbLine
 10
351.741939
 20
316.911888
 30
0.0
 11
343.241939
 21
316.911888
 31
0.0
1001
ACAD
1000
RTLwPs
1070
   128
  0
LINE
  5
41E6
100
AcDbEntity
  8
MSL-115-P40-S-0
 48
2.0
100
AcDbLine
 10
368.241939
 20
324.911888
 30
0.0
 11
360.241939
 21
324.911888
 31
0.0
1001
ACAD
1000
RTLwPs
1070
   128
  0
POLYLINE
  5
41E7
100
AcDbEntity
  8
MSL-115-P40-S-0
 48
2.0
100
AcDb2dPolyline
 66
     1
 10
0.0
 20
0.0
 30
0.0
  0
VERTEX
  5
41E8
100
AcDbEntity
  8
MSL-115-P40-S-0
 48
2.0
100
AcDbVertex
100
AcDb2dVertex
 10
375.741939
 20
310.411888
 30
0.0
  0
VERTEX
  5
41E9
100
AcDbEntity
  8
MSL-115-P40-S-0
 48
2.0
100
AcDbVertex
100
AcDb2dVertex
 10
351.441939
 20
310.411888
 30
0.0
  0
SEQEND
  5
41EA
100
AcDbEntity
  8
MSL-115-P40-S-0
 48
2.0
  0
LINE
  5
41EB
100
AcDbEntity
  8
MSL-115-P40-S-5
 48
2.0
100
AcDbLine
 10
351.441939
 20
310.911888
 30
0.0
 11
375.741939
 21
310.911888
 31
0.0
  0
LINE
  5
41EC
100
AcDbEntity
  8
MSL-115-P40-S-0
 48
2.0
100
AcDbLine
 10
360.241939
 20
317.911888
 30
0.0
 11
368.241939
 21
317.911888
 31
0.0
1001
ACAD
1000
RTLwPs
1070
   128
  0
LINE
  5
41ED
100
AcDbEntity
  8
MSL-115-P40-S-0
 48
2.0
100
AcDbLine
 10
343.541939
 20
301.911888
 30
0.0
 11
351.441939
 21
301.911888
 31
0.0
1001
ACAD
1000
RTLwPs
1070
   128
  0
LINE
  5
41EE
100
AcDbEntity
  8
MSL-115-P40-S-0
 48
2.0
100
AcDbLine
 10
348.991939
 20
289.911888
 30
0.0
 11
345.991939
 21
289.911888
 31
0.0
1001
ACAD
1000
RTLwPs
1070
   128
  0
LINE
  5
41EF
100
AcDbEntity
  8
MSL-115-P40-S-0
 48
2.0
100
AcDbLine
 10
345.991939
 20
301.911888
 30
0.0
 11
345.991939
 21
289.911888
 31
0.0
1001
ACAD
1000
RTLwPs
1070
   128
  0
LINE
  5
41F0
100
AcDbEntity
  8
MSL-115-P40-S-0
 48
2.0
100
AcDbLine
 10
348.459325
 20
292.192648
 30
0.0
 11
348.459325
 21
304.192648
 31
0.0
1001
ACAD
1000
RTLwPs
1070
   128
  0
LINE
  5
41F1
100
AcDbEntity
  8
MSL-115-P40-S-0
 48
2.0
100
AcDbLine
 10
350.909325
 20
304.192648
 30
0.0
 11
350.909325
 21
319.192648
 31
0.0
1001
ACAD
1000
RTLwPs
1070
   128
  0
LINE
  5
41F2
100
AcDbEntity
  8
MSL-115-P40-S-0
 48
2.0
100
AcDbLine
 10
343.541939
 20
316.911888
 30
0.0
 11
343.541939
 21
301.911888
 31
0.0
1001
ACAD
1000
RTLwPs
1070
   128
  0
LINE
  5
41F3
100
AcDbEntity
  8
MSL-115-P40-S-7
 48
2.0
100
AcDbLine
 10
339.743828
 20
321.40764
 30
0.0
 11
420.379435
 21
321.40764
 31
0.0
  0
ARC
  5
41F4
100
AcDbEntity
  8
MSL-115-P40-S-0
 48
2.0
100
AcDbCircle
 10
412.034994
 20
327.041053
 30
0.0
 40
2.293056
100
AcDbArc
 50
125.085847
 51
234.914153
  0
ARC
  5
41F5
100
AcDbEntity
  8
MSL-115-P40-S-0
 48
2.0
100
AcDbCircle
 10
413.948883
 20
327.041053
 30
0.0
 40
2.293056
100
AcDbArc
 50
305.085848
 51
54.914152
  0
ARC
  5
41F6
100
AcDbEntity
  8
MSL-115-P40-S-0
 48
2.0
100
AcDbCircle
 10
395.633259
 20
328.773104
 30
0.0
 40
3.108681
100
AcDbArc
 50
307.878142
 51
52.121858
  0
ARC
  5
41F7
100
AcDbEntity
  8
MSL-115-P40-S-0
 48
2.0
100
AcDbCircle
 10
401.304104
 20
327.036805
 30
0.0
 40
2.562165
100
AcDbArc
 50
132.916662
 51
227.083338
  0
POLYLINE
  5
41F8
100
AcDbEntity
  8
MSL-115-P40-S-0
 48
2.0
100
AcDb2dPolyline
 66
     1
 10
0.0
 20
0.0
 30
0.0
  0
VERTEX
  5
41F9
100
AcDbEntity
  8
MSL-115-P40-S-0
 48
2.0
100
AcDbVertex
100
AcDb2dVertex
 10
403.241939
 20
325.411888
 30
0.0
  0
VERTEX
  5
41FA
100
AcDbEntity
  8
MSL-115-P40-S-0
 48
2.0
100
AcDbVertex
100
AcDb2dVertex
 10
403.241939
 20
329.411888
 30
0.0
  0
VERTEX
  5
41FB
100
AcDbEntity
  8
MSL-115-P40-S-0
 48
2.0
100
AcDbVertex
100
AcDb2dVertex
 10
402.241939
 20
330.411888
 30
0.0
  0
VERTEX
  5
41FC
100
AcDbEntity
  8
MSL-115-P40-S-0
 48
2.0
100
AcDbVertex
100
AcDb2dVertex
 10
398.274903
 20
330.411888
 30
0.0
  0
SEQEND
  5
41FD
100
AcDbEntity
  8
MSL-115-P40-S-0
 48
2.0
  0
ARC
  5
41FE
100
AcDbEntity
  8
MSL-115-P40-S-0
 48
2.0
100
AcDbCircle
 10
371.857758
 20
330.934166
 30
0.0
 40
9.885035
100
AcDbArc
 50
347.786561
 51
359.246625
1001
ACAD
1000
RTLwPs
1070
   128
  0
LINE
  5
41FF
100
AcDbEntity
  8
MSL-115-P40-S-0
 48
2.0
100
AcDbLine
 10
395.741939
 20
331.411888
 30
0.0
 11
395.741939
 21
312.911888
 31
0.0
1001
ACAD
1000
RTLwPs
1070
   128
  0
LINE
  5
4200
100
AcDbEntity
  8
MSL-115-P40-S-0
 48
2.0
100
AcDbLine
 10
416.241939
 20
334.411888
 30
0.0
 11
416.241939
 21
312.411888
 31
0.0
1001
ACAD
1000
RTLwPs
1070
   128
  0
LINE
  5
4201
100
AcDbEntity
  8
MSL-115-P40-S-0
 48
2.0
100
AcDbLine
 10
375.741939
 20
325.411888
 30
0.0
 11
375.741939
 21
330.804193
 31
0.0
1001
ACAD
1000
RTLwPs
1070
   128
  0
ARC
  5
4202
100
AcDbEntity
  8
MSL-115-P40-S-0
 48
2.0
100
AcDbCircle
 10
385.620669
 20
330.933103
 30
0.0
 40
9.879572
100
AcDbArc
 50
180.747626
 51
201.326429
1001
ACAD
1000
RTLwPs
1070
   128
  0
LINE
  5
4203
100
AcDbEntity
  8
MSL-115-P40-S-0
100
AcDbLine
 10
424.241939
 20
334.911888
 30
0.0
 11
424.241939
 21
309.911888
 31
0.0
1001
ACAD
1000
RTLwPs
1070
   128
  0
LINE
  5
4204
100
AcDbEntity
  8
MSL-115-P40-S-0
100
AcDbLine
 10
402.741939
 20
328.913194
 30
0.0
 11
402.741939
 21
313.902087
 31
0.0
  0
LINE
  5
4205
100
AcDbEntity
  8
MSL-115-P40-S-0
 48
2.0
100
AcDbLine
 10
327.241939
 20
330.411888
 30
0.0
 11
326.241939
 21
329.411888
 31
0.0
  0
LINE
  5
4206
100
AcDbEntity
  8
MSL-115-P40-S-0
 48
2.0
100
AcDbLine
 10
320.241939
 20
328.911888
 30
0.0
 11
320.241939
 21
320.411888
 31
0.0
  0
POLYLINE
  5
4207
100
AcDbEntity
  8
MSL-115-P40-S-0
 48
2.0
100
AcDb2dPolyline
 66
     1
 10
0.0
 20
0.0
 30
0.0
  0
VERTEX
  5
4208
100
AcDbEntity
  8
MSL-115-P40-S-0
 48
2.0
100
AcDbVertex
100
AcDb2dVertex
 10
326.241939
 20
328.911888
 30
0.0
  0
VERTEX
  5
4209
100
AcDbEntity
  8
MSL-115-P40-S-0
 48
2.0
100
AcDbVertex
100
AcDb2dVertex
 10
320.241939
 20
328.911888
 30
0.0
  0
VERTEX
  5
420A
100
AcDbEntity
  8
MSL-115-P40-S-0
 48
2.0
100
AcDbVertex
100
AcDb2dVertex
 10
319.241939
 20
327.911888
 30
0.0
  0
VERTEX
  5
420B
100
AcDbEntity
  8
MSL-115-P40-S-0
 48
2.0
100
AcDbVertex
100
AcDb2dVertex
 10
319.241939
 20
320.411888
 30
0.0
  0
SEQEND
  5
420C
100
AcDbEntity
  8
MSL-115-P40-S-0
 48
2.0
  0
LINE
  5
420D
100
AcDbEntity
  8
MSL-115-P40-S-0
 48
2.0
100
AcDbLine
 10
327.241939
 20
310.411888
 30
0.0
 11
326.241939
 21
311.411888
 31
0.0
  0
POLYLINE
  5
420E
100
AcDbEntity
  8
MSL-115-P40-S-0
 48
2.0
100
AcDb2dPolyline
 66
     1
 10
0.0
 20
0.0
 30
0.0
  0
VERTEX
  5
420F
100
AcDbEntity
  8
MSL-115-P40-S-0
 48
2.0
100
AcDbVertex
100
AcDb2dVertex
 10
326.241939
 20
311.911888
 30
0.0
  0
VERTEX
  5
4210
100
AcDbEntity
  8
MSL-115-P40-S-0
 48
2.0
100
AcDbVertex
100
AcDb2dVertex
 10
320.241939
 20
311.911888
 30
0.0
  0
VERTEX
  5
4211
100
AcDbEntity
  8
MSL-115-P40-S-0
 48
2.0
100
AcDbVertex
100
AcDb2dVertex
 10
319.241939
 20
312.911888
 30
0.0
  0
VERTEX
  5
4212
100
AcDbEntity
  8
MSL-115-P40-S-0
 48
2.0
100
AcDbVertex
100
AcDb2dVertex
 10
319.241939
 20
320.411888
 30
0.0
  0
SEQEND
  5
4213
100
AcDbEntity
  8
MSL-115-P40-S-0
 48
2.0
  0
LINE
  5
4214
100
AcDbEntity
  8
MSL-115-P40-S-0
 48
2.0
100
AcDbLine
 10
320.241939
 20
311.911888
 30
0.0
 11
320.241939
 21
320.411888
 31
0.0
  0
LINE
  5
4215
100
AcDbEntity
  8
MSL-115-P40-S-0
 48
2.0
100
AcDbLine
 10
326.241939
 20
311.411888
 30
0.0
 11
326.241939
 21
320.411888
 31
0.0
  0
LINE
  5
4216
100
AcDbEntity
  8
MSL-115-P40-S-0
 48
2.0
100
AcDbLine
 10
326.241939
 20
329.411888
 30
0.0
 11
326.241939
 21
320.411888
 31
0.0
  0
LINE
  5
4217
100
AcDbEntity
  8
MSL-115-P40-S-0
 48
2.0
100
AcDbLine
 10
327.241939
 20
330.411888
 30
0.0
 11
327.241939
 21
310.411888
 31
0.0
  0
LINE
  5
4218
100
AcDbEntity
  8
MSL-115-P40-S-5
 48
2.0
100
AcDbLine
 10
326.741939
 20
329.911888
 30
0.0
 11
375.741939
 21
329.911888
 31
0.0
  0
LINE
  5
4219
100
AcDbEntity
  8
MSL-115-P40-S-5
 48
2.0
100
AcDbLine
 10
326.741939
 20
310.911888
 30
0.0
 11
343.541939
 21
310.911888
 31
0.0
  0
LINE
  5
421A
100
AcDbEntity
  8
MSL-115-P40-S-7
 48
2.0
100
AcDbLine
 10
316.040821
 20
320.411888
 30
0.0
 11
420.481759
 21
320.411888
 31
0.0
  0
LINE
  5
421B
100
AcDbEntity
  8
MSL-115-P40-S-0
 48
2.0
100
AcDbLine
 10
375.741939
 20
330.411888
 30
0.0
 11
327.241939
 21
330.411888
 31
0.0
  0
LINE
  5
421C
100
AcDbEntity
  8
MSL-115-P40-S-0
 48
2.0
100
AcDbLine
 10
343.541939
 20
310.411888
 30
0.0
 11
327.241939
 21
310.411888
 31
0.0
  0
LINE
  5
421D
100
AcDbEntity
  8
MSL-115-P40-S-0
 48
2.0
100
AcDbLine
 10
381.741939
 20
220.411888
 30
0.0
 11
413.741939
 21
220.411888
 31
0.0
1001
ACAD
1000
RTLwPs
1070
   128
  0
LINE
  5
421E
100
AcDbEntity
  8
MSL-115-P40-S-0
 48
2.0
100
AcDbLine
 10
381.741939
 20
331.411888
 30
0.0
 11
381.741939
 21
220.411888
 31
0.0
1001
ACAD
1000
RTLwPs
1070
   128
  0
LINE
  5
421F
100
AcDbEntity
  8
MSL-115-P40-S-0
 48
2.0
100
AcDbLine
 10
413.741939
 20
312.911888
 30
0.0
 11
413.741939
 21
219.911888
 31
0.0
1001
ACAD
1000
RTLwPs
1070
   128
  0
LINE
  5
4220
100
AcDbEntity
  8
MSL-115-P40-S-0
100
AcDbLine
 10
644.241939
 20
334.411888
 30
0.0
 11
424.241939
 21
334.411888
 31
0.0
1001
ACAD
1000
RTLwPs
1070
   128
  0
LINE
  5
4221
100
AcDbEntity
  8
MSL-115-P40-S-0
100
AcDbLine
 10
644.241939
 20
309.911888
 30
0.0
 11
424.241939
 21
309.911888
 31
0.0
1001
ACAD
1000
RTLwPs
1070
   128
  0
LINE
  5
4222
100
AcDbEntity
  8
MSL-115-P40-S-0
100
AcDbLine
 10
424.241939
 20
334.911888
 30
0.0
 11
644.241939
 21
334.911888
 31
0.0
1001
ACAD
1000
RTLwPs
1070
   128
  0
LINE
  5
4223
100
AcDbEntity
  8
MSL-115-P40-S-0
100
AcDbLine
 10
461.091939
 20
309.111888
 30
0.0
 11
435.391939
 21
309.111888
 31
0.0
1001
ACAD
1000
RTLwPs
1070
   128
  0
LINE
  5
4224
100
AcDbEntity
  8
MSL-115-P40-S-0
100
AcDbLine
 10
461.091939
 20
293.411888
 30
0.0
 11
435.391939
 21
293.411888
 31
0.0
1001
ACAD
1000
RTLwPs
1070
   128
  0
LINE
  5
4225
100
AcDbEntity
  8
MSL-115-P40-S-0
100
AcDbLine
 10
468.391939
 20
290.111888
 30
0.0
 11
428.091939
 21
290.111888
 31
0.0
1001
ACAD
1000
RTLwPs
1070
   128
  0
LINE
  5
4226
100
AcDbEntity
  8
MSL-115-P40-S-0
100
AcDbLine
 10
468.191939
 20
289.911888
 30
0.0
 11
428.291939
 21
289.911888
 31
0.0
1001
ACAD
1000
RTLwPs
1070
   128
  0
LINE
  5
4228
100
AcDbEntity
  8
MSL-115-P40-S-0
 48
2.0
100
AcDbLine
 10
658.375813
 20
187.438133
 30
0.0
 11
650.375813
 21
187.438133
 31
0.0
1001
ACAD
1000
RTLwPs
1070
   128
  0
LINE
  5
4229
100
AcDbEntity
  8
MSL-115-P40-S-0
 48
2.0
100
AcDbLine
 10
650.375813
 20
188.438133
 30
0.0
 11
658.375813
 21
188.438133
 31
0.0
1001
ACAD
1000
RTLwPs
1070
   128
  0
LINE
  5
422A
100
AcDbEntity
  8
MSL-115-P40-S-0
 48
2.0
100
AcDbLine
 10
650.375813
 20
188.938133
 30
0.0
 11
650.375813
 21
188.438133
 31
0.0
1001
ACAD
1000
RTLwPs
1070
   128
  0
CIRCLE
  5
422B
100
AcDbEntity
  8
MSL-115-P40-S-0
 48
2.0
100
AcDbCircle
 10
630.375813
 20
166.438133
 30
0.0
 40
3.4
1001
ACAD
1000
RTLwPs
1070
   128
  0
LINE
  5
422C
100
AcDbEntity
  8
MSL-115-P40-S-7
 48
2.0
100
AcDbLine
 10
444.375813
 20
166.438133
 30
0.0
 11
636.375813
 21
166.438133
 31
0.0
  0
LINE
  5
422D
100
AcDbEntity
  8
MSL-115-P40-S-7
 48
2.0
100
AcDbLine
 10
630.375813
 20
160.438133
 30
0.0
 11
630.375813
 21
172.438133
 31
0.0
  0
ARC
  5
422E
100
AcDbEntity
  8
MSL-115-P40-S-5
 48
2.0
100
AcDbCircle
 10
630.375813
 20
166.438133
 30
0.0
 40
4.0
100
AcDbArc
 50
165.0
 51
105.0
1001
ACAD
1000
RTLwPs
1070
   128
  0
CIRCLE
  5
4230
100
AcDbEntity
  8
MSL-115-P40-S-0
 48
2.0
100
AcDbCircle
 10
600.375813
 20
166.438133
 30
0.0
 40
3.4
1001
ACAD
1000
RTLwPs
1070
   128
  0
LINE
  5
4231
100
AcDbEntity
  8
MSL-115-P40-S-7
 48
2.0
100
AcDbLine
 10
600.375813
 20
160.438133
 30
0.0
 11
600.375813
 21
172.438133
 31
0.0
  0
ARC
  5
4232
100
AcDbEntity
  8
MSL-115-P40-S-5
 48
2.0
100
AcDbCircle
 10
600.375813
 20
166.438133
 30
0.0
 40
4.0
100
AcDbArc
 50
165.0
 51
105.0
1001
ACAD
1000
RTLwPs
1070
   128
  0
CIRCLE
  5
4233
100
AcDbEntity
  8
MSL-115-P40-S-0
 48
2.0
100
AcDbCircle
 10
570.375813
 20
166.438133
 30
0.0
 40
3.4
1001
ACAD
1000
RTLwPs
1070
   128
  0
LINE
  5
4235
100
AcDbEntity
  8
MSL-115-P40-S-7
 48
2.0
100
AcDbLine
 10
570.375813
 20
158.438133
 30
0.0
 11
570.375813
 21
174.438133
 31
0.0
  0
ARC
  5
4236
100
AcDbEntity
  8
MSL-115-P40-S-5
 48
2.0
100
AcDbCircle
 10
570.375813
 20
166.438133
 30
0.0
 40
4.0
100
AcDbArc
 50
165.0
 51
105.0
1001
ACAD
1000
RTLwPs
1070
   128
  0
CIRCLE
  5
4237
100
AcDbEntity
  8
MSL-115-P40-S-0
 48
2.0
100
AcDbCircle
 10
570.375813
 20
166.438133
 30
0.0
 40
6.5
1001
ACAD
1000
RTLwPs
1070
   128
  0
LINE
  5
4238
100
AcDbEntity
  8
MSL-115-P40-S-0
 48
2.0
100
AcDbLine
 10
658.385813
 20
127.938133
 30
0.0
 11
664.875813
 21
127.938133
 31
0.0
1001
ACAD
1000
RTLwPs
1070
   128
  0
LINE
  5
4239
100
AcDbEntity
  8
MSL-115-P40-S-0
 48
2.0
100
AcDbLine
 10
664.160259
 20
121.438133
 30
0.0
 11
659.391366
 21
121.438133
 31
0.0
1001
ACAD
1000
RTLwPs
1070
   128
  0
LINE
  5
423A
100
AcDbEntity
  8
MSL-115-P40-S-0
 48
2.0
100
AcDbLine
 10
664.875813
 20
114.938133
 30
0.0
 11
658.385813
 21
114.938133
 31
0.0
1001
ACAD
1000
RTLwPs
1070
   128
  0
SPLINE
  5
423B
100
AcDbEntity
  8
MSL-115-P40-S-0
 48
2.0
100
AcDbSpline
210
0.0
220
0.0
230
1.0
 70
    12
 71
     3
 72
     8
 73
     4
 74
     0
 42
0.0000001
 43
0.0000001
 40
0.0082372096853778
 40
0.0082372096853778
 40
0.0082372096853778
 40
0.0082372096853778
 40
0.0211928023405478
 40
0.0211928023405478
 40
0.0211928023405478
 40
0.0211928023405478
 10
663.8602591712281
 20
121.4381327594132
 30
0.0
 41
1.474474741479519
 10
665.1696602479867
 20
119.1701835669816
 30
0.0
 41
1.626542765701846
 10
665.1696602479867
 20
117.2060819518442
 30
0.0
 41
1.626542765701846
 10
663.8602591712279
 20
114.938132759413
 30
0.0
 41
1.47447474147952
1001
ACAD
1000
RTLwPs
1070
   128
  0
SPLINE
  5
423C
100
AcDbEntity
  8
MSL-115-P40-S-0
 48
2.0
100
AcDbSpline
210
0.0
220
0.0
230
-1.0
 70
    12
 71
     3
 72
     8
 73
     4
 74
     0
 42
0.0000001
 43
0.0000001
 40
0.0072887795577645
 40
0.0072887795577645
 40
0.0072887795577645
 40
0.0072887795577645
 40
0.0195796554543459
 40
0.0195796554543459
 40
0.0195796554543459
 40
0.0195796554543459
 10
659.3913661701575
 20
114.9381327594132
 30
0.0
 41
1.413010917473258
 10
658.0819650933989
 20
117.2060819518446
 30
0.0
 41
1.558739950585839
 10
658.0819650933989
 20
119.1701835669824
 30
0.0
 41
1.558739950585839
 10
659.3913661701578
 20
121.438132759413
 30
0.0
 41
1.413010917473258
1001
ACAD
1000
RTLwPs
1070
   128
  0
LINE
  5
423D
100
AcDbEntity
  8
MSL-115-P40-S-0
 48
2.0
100
AcDbLine
 10
664.875813
 20
127.928133
 30
0.0
 11
664.875813
 21
114.948133
 31
0.0
1001
ACAD
1000
RTLwPs
1070
   128
  0
SPLINE
  5
423E
100
AcDbEntity
  8
MSL-115-P40-S-0
 48
2.0
100
AcDbSpline
210
0.0
220
0.0
230
-1.0
 70
    12
 71
     3
 72
     8
 73
     4
 74
     0
 42
0.0000001
 43
0.0000001
 40
0.0072887795577645
 40
0.0072887795577645
 40
0.0072887795577645
 40
0.0072887795577645
 40
0.0195796554543459
 40
0.0195796554543459
 40
0.0195796554543459
 40
0.0195796554543459
 10
659.391366170158
 20
121.4381327594131
 30
0.0
 41
1.413010917473256
 10
658.0819650933992
 20
123.7060819518445
 30
0.0
 41
1.558739950585838
 10
658.0819650933992
 20
125.6701835669822
 30
0.0
 41
1.558739950585838
 10
659.391366170158
 20
127.9381327594136
 30
0.0
 41
1.413010917473256
1001
ACAD
1000
RTLwPs
1070
   128
  0
SPLINE
  5
423F
100
AcDbEntity
  8
MSL-115-P40-S-0
 48
2.0
100
AcDbSpline
210
0.0
220
0.0
230
1.0
 70
    12
 71
     3
 72
     8
 73
     4
 74
     0
 42
0.0000001
 43
0.0000001
 40
0.0082372096853778
 40
0.0082372096853778
 40
0.0082372096853778
 40
0.0082372096853778
 40
0.0211928023405478
 40
0.0211928023405478
 40
0.0211928023405478
 40
0.0211928023405478
 10
663.8602591712279
 20
127.9381327594133
 30
0.0
 41
1.47447474147952
 10
665.1696602479867
 20
125.6701835669816
 30
0.0
 41
1.626542765701846
 10
665.1696602479867
 20
123.7060819518436
 30
0.0
 41
1.626542765701846
 10
663.8602591712279
 20
121.4381327594131
 30
0.0
 41
1.47447474147952
1001
ACAD
1000
RTLwPs
1070
   128
  0
LINE
  5
4240
100
AcDbEntity
  8
MSL-115-P40-S-0
 48
2.0
100
AcDbLine
 10
650.375813
 20
111.438133
 30
0.0
 11
650.375813
 21
131.438133
 31
0.0
1001
ACAD
1000
RTLwPs
1070
   128
  0
LINE
  5
4241
100
AcDbEntity
  8
MSL-115-P40-S-0
 48
2.0
100
AcDbLine
 10
650.375813
 20
131.438133
 30
0.0
 11
650.375813
 21
111.438133
 31
0.0
1001
ACAD
1000
RTLwPs
1070
   128
  0
LINE
  5
4242
100
AcDbEntity
  8
MSL-115-P40-S-0
 48
2.0
100
AcDbLine
 10
650.375813
 20
188.438133
 30
0.0
 11
650.375813
 21
131.438133
 31
0.0
1001
ACAD
1000
RTLwPs
1070
   128
  0
CIRCLE
  5
4244
100
AcDbEntity
  8
MSL-115-P40-S-0
 48
2.0
100
AcDbCircle
 10
540.375813
 20
166.438133
 30
0.0
 40
3.4
1001
ACAD
1000
RTLwPs
1070
   128
  0
ARC
  5
4246
100
AcDbEntity
  8
MSL-115-P40-S-5
 48
2.0
100
AcDbCircle
 10
540.375813
 20
166.438133
 30
0.0
 40
4.0
100
AcDbArc
 50
165.0
 51
105.0
1001
ACAD
1000
RTLwPs
1070
   128
  0
CIRCLE
  5
4247
100
AcDbEntity
  8
MSL-115-P40-S-0
 48
2.0
100
AcDbCircle
 10
510.375813
 20
166.438133
 30
0.0
 40
3.4
1001
ACAD
1000
RTLwPs
1070
   128
  0
LINE
  5
4248
100
AcDbEntity
  8
MSL-115-P40-S-7
 48
2.0
100
AcDbLine
 10
510.375813
 20
158.438133
 30
0.0
 11
510.375813
 21
174.438133
 31
0.0
  0
LINE
  5
4249
100
AcDbEntity
  8
MSL-115-P40-S-7
 48
2.0
100
AcDbLine
 10
480.375813
 20
160.438133
 30
0.0
 11
480.375813
 21
172.438133
 31
0.0
  0
LINE
  5
424A
100
AcDbEntity
  8
MSL-115-P40-S-7
 48
2.0
100
AcDbLine
 10
450.375813
 20
160.438133
 30
0.0
 11
450.375813
 21
172.438133
 31
0.0
  0
ARC
  5
424C
100
AcDbEntity
  8
MSL-115-P40-S-5
 48
2.0
100
AcDbCircle
 10
480.375813
 20
166.438133
 30
0.0
 40
4.0
100
AcDbArc
 50
165.0
 51
105.0
1001
ACAD
1000
RTLwPs
1070
   128
  0
CIRCLE
  5
424D
100
AcDbEntity
  8
MSL-115-P40-S-0
 48
2.0
100
AcDbCircle
 10
480.375813
 20
166.438133
 30
0.0
 40
3.4
1001
ACAD
1000
RTLwPs
1070
   128
  0
ARC
  5
424F
100
AcDbEntity
  8
MSL-115-P40-S-5
 48
2.0
100
AcDbCircle
 10
510.375813
 20
166.438133
 30
0.0
 40
4.0
100
AcDbArc
 50
165.0
 51
105.0
1001
ACAD
1000
RTLwPs
1070
   128
  0
LINE
  5
4250
100
AcDbEntity
  8
MSL-115-P40-S-7
 48
2.0
100
AcDbLine
 10
444.375813
 20
76.438133
 30
0.0
 11
636.375813
 21
76.438133
 31
0.0
  0
LINE
  5
4251
100
AcDbEntity
  8
MSL-115-P40-S-7
 48
2.0
100
AcDbLine
 10
630.375813
 20
70.438133
 30
0.0
 11
630.375813
 21
82.438133
 31
0.0
  0
CIRCLE
  5
4252
100
AcDbEntity
  8
MSL-115-P40-S-0
 48
2.0
100
AcDbCircle
 10
630.375813
 20
76.438133
 30
0.0
 40
3.4
1001
ACAD
1000
RTLwPs
1070
   128
  0
ARC
  5
4253
100
AcDbEntity
  8
MSL-115-P40-S-5
 48
2.0
100
AcDbCircle
 10
630.375813
 20
76.438133
 30
0.0
 40
4.0
100
AcDbArc
 50
165.0
 51
105.0
1001
ACAD
1000
RTLwPs
1070
   128
  0
LINE
  5
4256
100
AcDbEntity
  8
MSL-115-P40-S-7
 48
2.0
100
AcDbLine
 10
600.375813
 20
70.438133
 30
0.0
 11
600.375813
 21
82.438133
 31
0.0
  0
ARC
  5
4257
100
AcDbEntity
  8
MSL-115-P40-S-5
 48
2.0
100
AcDbCircle
 10
600.375813
 20
76.438133
 30
0.0
 40
4.0
100
AcDbArc
 50
165.0
 51
105.0
1001
ACAD
1000
RTLwPs
1070
   128
  0
CIRCLE
  5
4258
100
AcDbEntity
  8
MSL-115-P40-S-0
 48
2.0
100
AcDbCircle
 10
600.375813
 20
76.438133
 30
0.0
 40
3.4
1001
ACAD
1000
RTLwPs
1070
   128
  0
LINE
  5
4259
100
AcDbEntity
  8
MSL-115-P40-S-7
 48
2.0
100
AcDbLine
 10
570.375813
 20
68.438133
 30
0.0
 11
570.375813
 21
84.438133
 31
0.0
  0
ARC
  5
425A
100
AcDbEntity
  8
MSL-115-P40-S-5
 48
2.0
100
AcDbCircle
 10
570.375813
 20
76.438133
 30
0.0
 40
4.0
100
AcDbArc
 50
165.0
 51
105.0
1001
ACAD
1000
RTLwPs
1070
   128
  0
CIRCLE
  5
425B
100
AcDbEntity
  8
MSL-115-P40-S-0
 48
2.0
100
AcDbCircle
 10
570.375813
 20
76.438133
 30
0.0
 40
3.4
1001
ACAD
1000
RTLwPs
1070
   128
  0
LINE
  5
425D
100
AcDbEntity
  8
MSL-115-P40-S-7
 48
2.0
100
AcDbLine
 10
540.375813
 20
70.438133
 30
0.0
 11
540.375813
 21
82.438133
 31
0.0
  0
ARC
  5
425E
100
AcDbEntity
  8
MSL-115-P40-S-5
 48
2.0
100
AcDbCircle
 10
540.375813
 20
76.438133
 30
0.0
 40
4.0
100
AcDbArc
 50
165.0
 51
105.0
1001
ACAD
1000
RTLwPs
1070
   128
  0
CIRCLE
  5
425F
100
AcDbEntity
  8
MSL-115-P40-S-0
 48
2.0
100
AcDbCircle
 10
540.375813
 20
76.438133
 30
0.0
 40
3.4
1001
ACAD
1000
RTLwPs
1070
   128
  0
LINE
  5
4260
100
AcDbEntity
  8
MSL-115-P40-S-7
 48
2.0
100
AcDbLine
 10
510.375813
 20
68.438133
 30
0.0
 11
510.375813
 21
84.438133
 31
0.0
  0
CIRCLE
  5
4261
100
AcDbEntity
  8
MSL-115-P40-S-0
 48
2.0
100
AcDbCircle
 10
510.375813
 20
76.438133
 30
0.0
 40
3.4
1001
ACAD
1000
RTLwPs
1070
   128
  0
LINE
  5
4263
100
AcDbEntity
  8
MSL-115-P40-S-7
 48
2.0
100
AcDbLine
 10
480.375813
 20
70.438133
 30
0.0
 11
480.375813
 21
82.438133
 31
0.0
  0
ARC
  5
4264
100
AcDbEntity
  8
MSL-115-P40-S-5
 48
2.0
100
AcDbCircle
 10
480.375813
 20
76.438133
 30
0.0
 40
4.0
100
AcDbArc
 50
165.0
 51
105.0
1001
ACAD
1000
RTLwPs
1070
   128
  0
CIRCLE
  5
4265
100
AcDbEntity
  8
MSL-115-P40-S-0
 48
2.0
100
AcDbCircle
 10
480.375813
 20
76.438133
 30
0.0
 40
3.4
1001
ACAD
1000
RTLwPs
1070
   128
  0
LINE
  5
4266
100
AcDbEntity
  8
MSL-115-P40-S-7
 48
2.0
100
AcDbLine
 10
450.375813
 20
70.438133
 30
0.0
 11
450.375813
 21
82.438133
 31
0.0
  0
ARC
  5
4268
100
AcDbEntity
  8
MSL-115-P40-S-5
 48
2.0
100
AcDbCircle
 10
510.375813
 20
76.438133
 30
0.0
 40
4.0
100
AcDbArc
 50
165.0
 51
105.0
1001
ACAD
1000
RTLwPs
1070
   128
  0
CIRCLE
  5
4269
100
AcDbEntity
  8
MSL-115-P40-S-0
 48
2.0
100
AcDbCircle
 10
510.375813
 20
76.438133
 30
0.0
 40
6.5
1001
ACAD
1000
RTLwPs
1070
   128
  0
LINE
  5
426A
100
AcDbEntity
  8
MSL-115-P40-S-0
 48
2.0
100
AcDbLine
 10
658.375813
 20
54.438133
 30
0.0
 11
658.375813
 21
188.438133
 31
0.0
1001
ACAD
1000
RTLwPs
1070
   128
  0
LINE
  5
426B
100
AcDbEntity
  8
MSL-115-P40-S-0
 48
2.0
100
AcDbLine
 10
650.375813
 20
111.438133
 30
0.0
 11
650.375813
 21
54.438133
 31
0.0
1001
ACAD
1000
RTLwPs
1070
   128
  0
LINE
  5
426C
100
AcDbEntity
  8
MSL-115-P40-S-0
 48
2.0
100
AcDbLine
 10
430.375813
 20
188.438133
 30
0.0
 11
430.375813
 21
188.938133
 31
0.0
1001
ACAD
1000
RTLwPs
1070
   128
  0
LINE
  5
426D
100
AcDbEntity
  8
MSL-115-P40-S-0
 48
2.0
100
AcDbLine
 10
419.875813
 20
177.863133
 30
0.0
 11
422.375813
 21
177.863133
 31
0.0
  0
LINE
  5
426E
100
AcDbEntity
  8
MSL-115-P40-S-0
 48
2.0
100
AcDbLine
 10
401.875813
 20
180.938133
 30
0.0
 11
401.875813
 21
183.938133
 31
0.0
1001
ACAD
1000
RTLwPs
1070
   128
  0
LINE
  5
426F
100
AcDbEntity
  8
MSL-115-P40-S-0
 48
2.0
100
AcDbLine
 10
422.375813
 20
188.438133
 30
0.0
 11
430.375813
 21
188.438133
 31
0.0
1001
ACAD
1000
RTLwPs
1070
   128
  0
LINE
  5
4270
100
AcDbEntity
  8
MSL-115-P40-S-0
 48
2.0
100
AcDbLine
 10
430.375813
 20
187.438133
 30
0.0
 11
422.375813
 21
187.438133
 31
0.0
1001
ACAD
1000
RTLwPs
1070
   128
  0
LINE
  5
4271
100
AcDbEntity
  8
MSL-115-P40-S-0
 48
2.0
100
AcDbLine
 10
419.875813
 20
161.863133
 30
0.0
 11
422.375813
 21
161.863133
 31
0.0
  0
POLYLINE
  5
4272
100
AcDbEntity
  8
MSL-115-P40-S-0
 48
2.0
100
AcDb2dPolyline
 66
     1
 10
0.0
 20
0.0
 30
0.0
  0
VERTEX
  5
4273
100
AcDbEntity
  8
MSL-115-P40-S-0
 48
2.0
100
AcDbVertex
100
AcDb2dVertex
 10
421.875813
 20
152.438133
 30
0.0
  0
VERTEX
  5
4274
100
AcDbEntity
  8
MSL-115-P40-S-0
 48
2.0
100
AcDbVertex
100
AcDb2dVertex
 10
418.875813
 20
154.938133
 30
0.0
  0
SEQEND
  5
4275
100
AcDbEntity
  8
MSL-115-P40-S-0
 48
2.0
  0
LINE
  5
4276
100
AcDbEntity
  8
MSL-115-P40-S-5
 48
2.0
100
AcDbLine
 10
401.875813
 20
155.938133
 30
0.0
 11
408.875813
 21
155.938133
 31
0.0
  0
LINE
  5
4277
100
AcDbEntity
  8
MSL-115-P40-S-0
 48
2.0
100
AcDbLine
 10
409.375813
 20
155.438133
 30
0.0
 11
419.875813
 21
155.438133
 31
0.0
1001
ACAD
1000
RTLwPs
1070
   128
  0
LINE
  5
4278
100
AcDbEntity
  8
MSL-115-P40-S-7
 48
2.0
100
AcDbLine
 10
413.448914
 20
169.863133
 30
0.0
 11
427.226808
 21
169.863133
 31
0.0
  0
LINE
  5
4279
100
AcDbEntity
  8
MSL-115-P40-S-0
 48
2.0
100
AcDbLine
 10
419.875813
 20
183.938133
 30
0.0
 11
419.875813
 21
154.104799
 31
0.0
  0
LINE
  5
427A
100
AcDbEntity
  8
MSL-115-P40-S-0
 48
2.0
100
AcDbLine
 10
387.875813
 20
183.938133
 30
0.0
 11
387.875813
 21
180.938133
 31
0.0
1001
ACAD
1000
RTLwPs
1070
   128
  0
LINE
  5
427B
100
AcDbEntity
  8
MSL-115-P40-S-0
 48
2.0
100
AcDbLine
 10
387.484981
 20
160.294539
 30
0.0
 11
384.875813
 21
160.294539
 31
0.0
  0
LINE
  5
427C
100
AcDbEntity
  8
MSL-115-P40-S-0
 48
2.0
100
AcDbLine
 10
387.484981
 20
153.366336
 30
0.0
 11
384.875813
 21
153.366336
 31
0.0
  0
ARC
  5
427D
100
AcDbEntity
  8
MSL-115-P40-S-0
 48
2.0
100
AcDbCircle
 10
372.328534
 20
156.830438
 30
0.0
 40
15.547279
100
AcDbArc
 50
347.125821
 51
12.874179
  0
ARC
  5
427E
100
AcDbEntity
  8
MSL-115-P40-S-0
 48
2.0
100
AcDbCircle
 10
397.423091
 20
156.830438
 30
0.0
 40
15.547279
100
AcDbArc
 50
167.125821
 51
192.874179
  0
LINE
  5
427F
100
AcDbEntity
  8
MSL-115-P40-S-0
 48
2.0
100
AcDbLine
 10
382.266645
 20
153.366336
 30
0.0
 11
384.875813
 21
153.366336
 31
0.0
  0
LINE
  5
4280
100
AcDbEntity
  8
MSL-115-P40-S-0
 48
2.0
100
AcDbLine
 10
382.266645
 20
160.294539
 30
0.0
 11
384.875813
 21
160.294539
 31
0.0
  0
LINE
  5
4281
100
AcDbEntity
  8
MSL-115-P40-S-0
 48
2.0
100
AcDbLine
 10
387.875813
 20
180.938133
 30
0.0
 11
401.875813
 21
180.938133
 31
0.0
1001
ACAD
1000
RTLwPs
1070
   128
  0
LINE
  5
4282
100
AcDbEntity
  8
MSL-115-P40-S-0
 48
2.0
100
AcDbLine
 10
422.375813
 20
183.938133
 30
0.0
 11
387.875813
 21
183.938133
 31
0.0
1001
ACAD
1000
RTLwPs
1070
   128
  0
POLYLINE
  5
4283
100
AcDbEntity
  8
MSL-115-P40-S-0
 48
2.0
100
AcDb2dPolyline
 66
     1
 10
0.0
 20
0.0
 30
0.0
  0
VERTEX
  5
4284
100
AcDbEntity
  8
MSL-115-P40-S-0
 48
2.0
100
AcDbVertex
100
AcDb2dVertex
 10
422.375813
 20
146.438133
 30
0.0
  0
VERTEX
  5
4285
100
AcDbEntity
  8
MSL-115-P40-S-0
 48
2.0
100
AcDbVertex
100
AcDb2dVertex
 10
422.375813
 20
149.188133
 30
0.0
  0
SEQEND
  5
4286
100
AcDbEntity
  8
MSL-115-P40-S-0
 48
2.0
  0
LINE
  5
4287
100
AcDbEntity
  8
MSL-115-P40-S-0
 48
2.0
100
AcDbLine
 10
421.875813
 20
149.688133
 30
0.0
 11
422.375813
 21
149.188133
 31
0.0
  0
LINE
  5
4288
100
AcDbEntity
  8
MSL-115-P40-S-0
 48
2.0
100
AcDbLine
 10
421.875813
 20
143.188133
 30
0.0
 11
422.375813
 21
143.688133
 31
0.0
  0
POLYLINE
  5
4289
100
AcDbEntity
  8
MSL-115-P40-S-0
 48
2.0
100
AcDb2dPolyline
 66
     1
 10
0.0
 20
0.0
 30
0.0
  0
VERTEX
  5
428A
100
AcDbEntity
  8
MSL-115-P40-S-0
 48
2.0
100
AcDbVertex
100
AcDb2dVertex
 10
422.375813
 20
146.438133
 30
0.0
  0
VERTEX
  5
428B
100
AcDbEntity
  8
MSL-115-P40-S-0
 48
2.0
100
AcDbVertex
100
AcDb2dVertex
 10
422.375813
 20
143.688133
 30
0.0
  0
SEQEND
  5
428C
100
AcDbEntity
  8
MSL-115-P40-S-0
 48
2.0
  0
LINE
  5
428D
100
AcDbEntity
  8
MSL-115-P40-S-0
 48
2.0
100
AcDbLine
 10
413.432437
 20
133.438133
 30
0.0
 11
414.154125
 21
134.688133
 31
0.0
1001
ACAD
1000
RTLwPs
1070
   128
  0
LINE
  5
428E
100
AcDbEntity
  8
MSL-115-P40-S-0
 48
2.0
100
AcDbLine
 10
414.154125
 20
134.688133
 30
0.0
 11
415.597501
 21
134.688133
 31
0.0
1001
ACAD
1000
RTLwPs
1070
   128
  0
LINE
  5
428F
100
AcDbEntity
  8
MSL-115-P40-S-0
 48
2.0
100
AcDbLine
 10
415.597501
 20
134.688133
 30
0.0
 11
416.319188
 21
133.438133
 31
0.0
1001
ACAD
1000
RTLwPs
1070
   128
  0
LINE
  5
4290
100
AcDbEntity
  8
MSL-115-P40-S-0
 48
2.0
100
AcDbLine
 10
415.597501
 20
132.188133
 30
0.0
 11
414.154125
 21
132.188133
 31
0.0
1001
ACAD
1000
RTLwPs
1070
   128
  0
LINE
  5
4291
100
AcDbEntity
  8
MSL-115-P40-S-0
 48
2.0
100
AcDbLine
 10
422.365813
 20
127.938133
 30
0.0
 11
415.875813
 21
127.938133
 31
0.0
1001
ACAD
1000
RTLwPs
1070
   128
  0
LINE
  5
4292
100
AcDbEntity
  8
MSL-115-P40-S-0
 48
2.0
100
AcDbLine
 10
419.875813
 20
138.771466
 30
0.0
 11
419.875813
 21
127.938133
 31
0.0
  0
LINE
  5
4293
100
AcDbEntity
  8
MSL-115-P40-S-0
 48
2.0
100
AcDbLine
 10
414.154125
 20
132.188133
 30
0.0
 11
413.432437
 21
133.438133
 31
0.0
1001
ACAD
1000
RTLwPs
1070
   128
  0
LINE
  5
4294
100
AcDbEntity
  8
MSL-115-P40-S-0
 48
2.0
100
AcDbLine
 10
416.319188
 20
133.438133
 30
0.0
 11
415.597501
 21
132.188133
 31
0.0
1001
ACAD
1000
RTLwPs
1070
   128
  0
CIRCLE
  5
4295
100
AcDbEntity
  8
MSL-115-P40-S-0
 48
2.0
100
AcDbCircle
 10
414.875813
 20
133.438133
 30
0.0
 40
2.75
1001
ACAD
1000
RTLwPs
1070
   128
  0
CIRCLE
  5
4296
100
AcDbEntity
  8
MSL-115-P40-S-0
 48
2.0
100
AcDbCircle
 10
414.875813
 20
133.438133
 30
0.0
 40
3.0
1001
ACAD
1000
RTLwPs
1070
   128
  0
LINE
  5
4297
100
AcDbEntity
  8
MSL-115-P40-S-5
 48
2.0
100
AcDbLine
 10
401.875813
 20
136.938133
 30
0.0
 11
408.875813
 21
136.938133
 31
0.0
  0
LINE
  5
4298
100
AcDbEntity
  8
MSL-115-P40-S-0
 48
2.0
100
AcDbLine
 10
408.875813
 20
128.943686
 30
0.0
 11
405.375813
 21
128.943686
 31
0.0
1001
ACAD
1000
RTLwPs
1070
   128
  0
LINE
  5
4299
100
AcDbEntity
  8
MSL-115-P40-S-0
 48
2.0
100
AcDbLine
 10
404.523472
 20
129.938133
 30
0.0
 11
404.875813
 21
129.938133
 31
0.0
1001
ACAD
1000
RTLwPs
1070
   128
  0
LINE
  5
429A
100
AcDbEntity
  8
MSL-115-P40-S-0
 48
2.0
100
AcDbLine
 10
401.875813
 20
129.938133
 30
0.0
 11
404.523472
 21
129.938133
 31
0.0
1001
ACAD
1000
RTLwPs
1070
   128
  0
LINE
  5
429B
100
AcDbEntity
  8
MSL-115-P40-S-0
 48
2.0
100
AcDbLine
 10
405.375813
 20
128.943686
 30
0.0
 11
404.875813
 21
127.893686
 31
0.0
1001
ACAD
1000
RTLwPs
1070
   128
  0
LINE
  5
429C
100
AcDbEntity
  8
MSL-115-P40-S-0
 48
2.0
100
AcDbLine
 10
404.475813
 20
136.438133
 30
0.0
 11
404.475813
 21
129.938133
 31
0.0
1001
ACAD
1000
RTLwPs
1070
   128
  0
LINE
  5
429D
100
AcDbEntity
  8
MSL-115-P40-S-0
 48
2.0
100
AcDbLine
 10
403.875813
 20
129.938133
 30
0.0
 11
403.875813
 21
136.438133
 31
0.0
1001
ACAD
1000
RTLwPs
1070
   128
  0
POLYLINE
  5
429E
100
AcDbEntity
  8
MSL-115-P40-S-0
 48
2.0
100
AcDb2dPolyline
 66
     1
 10
0.0
 20
0.0
 30
0.0
  0
VERTEX
  5
429F
100
AcDbEntity
  8
MSL-115-P40-S-0
 48
2.0
100
AcDbVertex
100
AcDb2dVertex
 10
421.875813
 20
140.438133
 30
0.0
  0
VERTEX
  5
42A0
100
AcDbEntity
  8
MSL-115-P40-S-0
 48
2.0
100
AcDbVertex
100
AcDb2dVertex
 10
418.875813
 20
137.938133
 30
0.0
  0
SEQEND
  5
42A1
100
AcDbEntity
  8
MSL-115-P40-S-0
 48
2.0
  0
POLYLINE
  5
42A2
100
AcDbEntity
  8
MSL-115-P40-S-0
 48
2.0
100
AcDb2dPolyline
 66
     1
 10
0.0
 20
0.0
 30
0.0
  0
VERTEX
  5
42A3
100
AcDbEntity
  8
MSL-115-P40-S-0
 48
2.0
100
AcDbVertex
100
AcDb2dVertex
 10
411.375813
 20
146.438133
 30
0.0
  0
VERTEX
  5
42A4
100
AcDbEntity
  8
MSL-115-P40-S-0
 48
2.0
100
AcDbVertex
100
AcDb2dVertex
 10
411.375813
 20
138.438133
 30
0.0
  0
VERTEX
  5
42A5
100
AcDbEntity
  8
MSL-115-P40-S-0
 48
2.0
100
AcDbVertex
100
AcDb2dVertex
 10
410.875813
 20
137.938133
 30
0.0
  0
VERTEX
  5
42A6
100
AcDbEntity
  8
MSL-115-P40-S-0
 48
2.0
100
AcDbVertex
100
AcDb2dVertex
 10
409.375813
 20
137.938133
 30
0.0
  0
SEQEND
  5
42A7
100
AcDbEntity
  8
MSL-115-P40-S-0
 48
2.0
  0
LINE
  5
42A8
100
AcDbEntity
  8
MSL-115-P40-S-0
 48
2.0
100
AcDbLine
 10
408.375813
 20
136.438133
 30
0.0
 11
408.375813
 21
146.438133
 31
0.0
  0
POLYLINE
  5
42A9
100
AcDbEntity
  8
MSL-115-P40-S-0
 48
2.0
100
AcDb2dPolyline
 66
     1
 10
0.0
 20
0.0
 30
0.0
  0
VERTEX
  5
42AA
100
AcDbEntity
  8
MSL-115-P40-S-0
 48
2.0
100
AcDbVertex
100
AcDb2dVertex
 10
410.875813
 20
146.438133
 30
0.0
  0
VERTEX
  5
42AB
100
AcDbEntity
  8
MSL-115-P40-S-0
 48
2.0
100
AcDbVertex
100
AcDb2dVertex
 10
410.875813
 20
137.938133
 30
0.0
  0
SEQEND
  5
42AC
100
AcDbEntity
  8
MSL-115-P40-S-0
 48
2.0
  0
POLYLINE
  5
42AD
100
AcDbEntity
  8
MSL-115-P40-S-0
 48
2.0
100
AcDb2dPolyline
 66
     1
 10
0.0
 20
0.0
 30
0.0
  0
VERTEX
  5
42AE
100
AcDbEntity
  8
MSL-115-P40-S-0
 48
2.0
100
AcDbVertex
100
AcDb2dVertex
 10
418.875813
 20
137.938133
 30
0.0
  0
VERTEX
  5
42AF
100
AcDbEntity
  8
MSL-115-P40-S-0
 48
2.0
100
AcDbVertex
100
AcDb2dVertex
 10
414.875813
 20
137.938133
 30
0.0
  0
VERTEX
  5
42B0
100
AcDbEntity
  8
MSL-115-P40-S-0
 48
2.0
100
AcDbVertex
100
AcDb2dVertex
 10
414.875813
 20
139.688133
 30
0.0
 42
0.414214
  0
VERTEX
  5
42B1
100
AcDbEntity
  8
MSL-115-P40-S-0
 48
2.0
100
AcDbVertex
100
AcDb2dVertex
 10
414.375813
 20
140.188133
 30
0.0
  0
VERTEX
  5
42B2
100
AcDbEntity
  8
MSL-115-P40-S-0
 48
2.0
100
AcDbVertex
100
AcDb2dVertex
 10
411.875813
 20
140.188133
 30
0.0
  0
VERTEX
  5
42B3
100
AcDbEntity
  8
MSL-115-P40-S-0
 48
2.0
100
AcDbVertex
100
AcDb2dVertex
 10
411.375813
 20
140.688133
 30
0.0
  0
VERTEX
  5
42B4
100
AcDbEntity
  8
MSL-115-P40-S-0
 48
2.0
100
AcDbVertex
100
AcDb2dVertex
 10
411.375813
 20
146.438133
 30
0.0
  0
SEQEND
  5
42B5
100
AcDbEntity
  8
MSL-115-P40-S-0
 48
2.0
  0
POLYLINE
  5
42B6
100
AcDbEntity
  8
MSL-115-P40-S-0
 48
2.0
100
AcDb2dPolyline
 66
     1
 10
0.0
 20
0.0
 30
0.0
  0
VERTEX
  5
42B7
100
AcDbEntity
  8
MSL-115-P40-S-0
 48
2.0
100
AcDbVertex
100
AcDb2dVertex
 10
409.375813
 20
146.438133
 30
0.0
  0
VERTEX
  5
42B8
100
AcDbEntity
  8
MSL-115-P40-S-0
 48
2.0
100
AcDbVertex
100
AcDb2dVertex
 10
409.375813
 20
137.438133
 30
0.0
  0
VERTEX
  5
42B9
100
AcDbEntity
  8
MSL-115-P40-S-0
 48
2.0
100
AcDbVertex
100
AcDb2dVertex
 10
408.375813
 20
136.438133
 30
0.0
  0
VERTEX
  5
42BA
100
AcDbEntity
  8
MSL-115-P40-S-0
 48
2.0
100
AcDbVertex
100
AcDb2dVertex
 10
401.875813
 20
136.438133
 30
0.0
  0
SEQEND
  5
42BB
100
AcDbEntity
  8
MSL-115-P40-S-0
 48
2.0
  0
LINE
  5
42BC
100
AcDbEntity
  8
MSL-115-P40-S-0
 48
2.0
100
AcDbLine
 10
416.891366
 20
121.438133
 30
0.0
 11
421.360259
 21
121.438133
 31
0.0
1001
ACAD
1000
RTLwPs
1070
   128
  0
LINE
  5
42BD
100
AcDbEntity
  8
MSL-115-P40-S-0
 48
2.0
100
AcDbLine
 10
415.875813
 20
114.938133
 30
0.0
 11
422.365813
 21
114.938133
 31
0.0
1001
ACAD
1000
RTLwPs
1070
   128
  0
SPLINE
  5
42BE
100
AcDbEntity
  8
MSL-115-P40-S-0
 48
2.0
100
AcDbSpline
210
0.0
220
0.0
230
-1.0
 70
    12
 71
     3
 72
     8
 73
     4
 74
     0
 42
0.0000001
 43
0.0000001
 40
0.0082372096853778
 40
0.0082372096853778
 40
0.0082372096853778
 40
0.0082372096853778
 40
0.0211928023405478
 40
0.0211928023405478
 40
0.0211928023405478
 40
0.0211928023405478
 10
416.8913661701578
 20
121.4381327594159
 30
0.0
 41
1.474474741479519
 10
415.5819650933993
 20
119.1701835669844
 30
0.0
 41
1.626542765701846
 10
415.5819650933993
 20
117.2060819518472
 30
0.0
 41
1.626542765701846
 10
416.891366170158
 20
114.938132759416
 30
0.0
 41
1.47447474147952
1001
ACAD
1000
RTLwPs
1070
   128
  0
SPLINE
  5
42BF
100
AcDbEntity
  8
MSL-115-P40-S-0
 48
2.0
100
AcDbSpline
210
0.0
220
0.0
230
1.0
 70
    12
 71
     3
 72
     8
 73
     4
 74
     0
 42
0.0000001
 43
0.0000001
 40
0.0072887795577645
 40
0.0072887795577645
 40
0.0072887795577645
 40
0.0072887795577645
 40
0.0195796554543459
 40
0.0195796554543459
 40
0.0195796554543459
 40
0.0195796554543459
 10
421.3602591712285
 20
114.938132759416
 30
0.0
 41
1.413010917473258
 10
422.669660247987
 20
117.2060819518472
 30
0.0
 41
1.558739950585839
 10
422.669660247987
 20
119.1701835669848
 30
0.0
 41
1.558739950585839
 10
421.3602591712279
 20
121.4381327594157
 30
0.0
 41
1.413010917473258
1001
ACAD
1000
RTLwPs
1070
   128
  0
LINE
  5
42C0
100
AcDbEntity
  8
MSL-115-P40-S-0
 48
2.0
100
AcDbLine
 10
408.875813
 20
125.19091
 30
0.0
 11
405.375813
 21
125.19091
 31
0.0
1001
ACAD
1000
RTLwPs
1070
   128
  0
LINE
  5
42C1
100
AcDbEntity
  8
MSL-115-P40-S-0
 48
2.0
100
AcDbLine
 10
401.875813
 20
121.438133
 30
0.0
 11
404.523472
 21
121.438133
 31
0.0
1001
ACAD
1000
RTLwPs
1070
   128
  0
ARC
  5
42C2
100
AcDbEntity
  8
MSL-115-P40-S-0
 48
2.0
100
AcDbCircle
 10
377.397925
 20
125.826548
 30
0.0
 40
27.478237
100
AcDbArc
 50
350.810219
 51
359.711385
1001
ACAD
1000
RTLwPs
1070
   128
  0
LINE
  5
42C3
100
AcDbEntity
  8
MSL-115-P40-S-0
 48
2.0
100
AcDbLine
 10
408.875813
 20
117.685356
 30
0.0
 11
405.375813
 21
117.685356
 31
0.0
1001
ACAD
1000
RTLwPs
1070
   128
  0
LINE
  5
42C4
100
AcDbEntity
  8
MSL-115-P40-S-0
 48
2.0
100
AcDbLine
 10
408.875813
 20
113.932579
 30
0.0
 11
405.375813
 21
113.932579
 31
0.0
1001
ACAD
1000
RTLwPs
1070
   128
  0
LINE
  5
42C5
100
AcDbEntity
  8
MSL-115-P40-S-0
 48
2.0
100
AcDbLine
 10
405.375813
 20
113.932579
 30
0.0
 11
404.875813
 21
114.982579
 31
0.0
1001
ACAD
1000
RTLwPs
1070
   128
  0
ARC
  5
42C6
100
AcDbEntity
  8
MSL-115-P40-S-0
 48
2.0
100
AcDbCircle
 10
408.888479
 20
115.808968
 30
0.0
 40
3.982419
100
AcDbArc
 50
151.889858
 51
208.110142
1001
ACAD
1000
RTLwPs
1070
   128
  0
ARC
  5
42C7
100
AcDbEntity
  8
MSL-115-P40-S-0
 48
2.0
100
AcDbCircle
 10
377.407875
 20
117.050542
 30
0.0
 40
27.468283
100
AcDbArc
 50
0.286999
 51
9.191397
1001
ACAD
1000
RTLwPs
1070
   128
  0
ARC
  5
42C8
100
AcDbEntity
  8
MSL-115-P40-S-0
 48
2.0
100
AcDbCircle
 10
420.036822
 20
121.438133
 30
0.0
 40
15.133689
100
AcDbArc
 50
165.642284
 51
194.357716
1001
ACAD
1000
RTLwPs
1070
   128
  0
LINE
  5
42C9
100
AcDbEntity
  8
MSL-115-P40-S-0
 48
2.0
100
AcDbLine
 10
415.875813
 20
125.438133
 30
0.0
 11
408.875813
 21
125.438133
 31
0.0
1001
ACAD
1000
RTLwPs
1070
   128
  0
LINE
  5
42CA
100
AcDbEntity
  8
MSL-115-P40-S-5
 48
2.0
100
AcDbLine
 10
408.875813
 20
124.688133
 30
0.0
 11
415.875813
 21
124.688133
 31
0.0
  0
LINE
  5
42CB
100
AcDbEntity
  8
MSL-115-P40-S-5
 48
2.0
100
AcDbLine
 10
408.875813
 20
118.188133
 30
0.0
 11
415.875813
 21
118.188133
 31
0.0
  0
LINE
  5
42CC
100
AcDbEntity
  8
MSL-115-P40-S-0
 48
2.0
100
AcDbLine
 10
408.875813
 20
117.438133
 30
0.0
 11
415.875813
 21
117.438133
 31
0.0
1001
ACAD
1000
RTLwPs
1070
   128
  0
LINE
  5
42CD
100
AcDbEntity
  8
MSL-115-P40-S-0
 48
2.0
100
AcDbLine
 10
408.154125
 20
110.688133
 30
0.0
 11
409.597501
 21
110.688133
 31
0.0
1001
ACAD
1000
RTLwPs
1070
   128
  0
LINE
  5
42CE
100
AcDbEntity
  8
MSL-115-P40-S-0
 48
2.0
100
AcDbLine
 10
410.319188
 20
109.438133
 30
0.0
 11
409.597501
 21
108.188133
 31
0.0
1001
ACAD
1000
RTLwPs
1070
   128
  0
LINE
  5
42CF
100
AcDbEntity
  8
MSL-115-P40-S-0
 48
2.0
100
AcDbLine
 10
409.597501
 20
108.188133
 30
0.0
 11
408.154125
 21
108.188133
 31
0.0
1001
ACAD
1000
RTLwPs
1070
   128
  0
LINE
  5
42D0
100
AcDbEntity
  8
MSL-115-P40-S-0
 48
2.0
100
AcDbLine
 10
408.154125
 20
108.188133
 30
0.0
 11
407.432437
 21
109.438133
 31
0.0
1001
ACAD
1000
RTLwPs
1070
   128
  0
LINE
  5
42D1
100
AcDbEntity
  8
MSL-115-P40-S-0
 48
2.0
100
AcDbLine
 10
409.597501
 20
110.688133
 30
0.0
 11
410.319188
 21
109.438133
 31
0.0
1001
ACAD
1000
RTLwPs
1070
   128
  0
LINE
  5
42D2
100
AcDbEntity
  8
MSL-115-P40-S-0
 48
2.0
100
AcDbLine
 10
407.432437
 20
109.438133
 30
0.0
 11
408.154125
 21
110.688133
 31
0.0
1001
ACAD
1000
RTLwPs
1070
   128
  0
LINE
  5
42D3
100
AcDbEntity
  8
MSL-115-P40-S-0
 48
2.0
100
AcDbLine
 10
404.875813
 20
112.938133
 30
0.0
 11
404.523472
 21
112.938133
 31
0.0
1001
ACAD
1000
RTLwPs
1070
   128
  0
LINE
  5
42D4
100
AcDbEntity
  8
MSL-115-P40-S-0
 48
2.0
100
AcDbLine
 10
401.875813
 20
112.938133
 30
0.0
 11
404.523472
 21
112.938133
 31
0.0
1001
ACAD
1000
RTLwPs
1070
   128
  0
LINE
  5
42D5
100
AcDbEntity
  8
MSL-115-P40-S-0
 48
2.0
100
AcDbLine
 10
404.475813
 20
105.438133
 30
0.0
 11
403.875813
 21
104.838133
 31
0.0
1001
ACAD
1000
RTLwPs
1070
   128
  0
CIRCLE
  5
42D6
100
AcDbEntity
  8
MSL-115-P40-S-0
 48
2.0
100
AcDbCircle
 10
408.875813
 20
109.438133
 30
0.0
 40
2.75
1001
ACAD
1000
RTLwPs
1070
   128
  0
LINE
  5
42D7
100
AcDbEntity
  8
MSL-115-P40-S-0
 48
2.0
100
AcDbLine
 10
404.475813
 20
112.938133
 30
0.0
 11
404.475813
 21
105.438133
 31
0.0
1001
ACAD
1000
RTLwPs
1070
   128
  0
LINE
  5
42D8
100
AcDbEntity
  8
MSL-115-P40-S-0
 48
2.0
100
AcDbLine
 10
403.875813
 20
104.838133
 30
0.0
 11
403.875813
 21
112.938133
 31
0.0
1001
ACAD
1000
RTLwPs
1070
   128
  0
LINE
  5
42D9
100
AcDbEntity
  8
MSL-115-P40-S-0
 48
2.0
100
AcDbLine
 10
419.875813
 20
104.838133
 30
0.0
 11
403.875813
 21
104.838133
 31
0.0
1001
ACAD
1000
RTLwPs
1070
   128
  0
LINE
  5
42DA
100
AcDbEntity
  8
MSL-115-P40-S-0
 48
2.0
100
AcDbLine
 10
404.475813
 20
105.438133
 30
0.0
 11
419.875813
 21
105.438133
 31
0.0
1001
ACAD
1000
RTLwPs
1070
   128
  0
CIRCLE
  5
42DB
100
AcDbEntity
  8
MSL-115-P40-S-0
 48
2.0
100
AcDbCircle
 10
408.875813
 20
109.438133
 30
0.0
 40
3.0
1001
ACAD
1000
RTLwPs
1070
   128
  0
ARC
  5
42DC
100
AcDbEntity
  8
MSL-115-P40-S-0
 48
2.0
100
AcDbCircle
 10
377.397925
 20
117.326548
 30
0.0
 40
27.478237
100
AcDbArc
 50
350.810219
 51
359.711385
1001
ACAD
1000
RTLwPs
1070
   128
  0
LINE
  5
42DD
100
AcDbEntity
  8
MSL-115-P40-S-0
 48
2.0
100
AcDbLine
 10
404.875813
 20
112.938133
 30
0.0
 11
404.875813
 21
117.188133
 31
0.0
1001
ACAD
1000
RTLwPs
1070
   128
  0
LINE
  5
42DE
100
AcDbEntity
  8
MSL-115-P40-S-0
 48
2.0
100
AcDbLine
 10
415.875813
 20
127.928133
 30
0.0
 11
415.875813
 21
114.948133
 31
0.0
1001
ACAD
1000
RTLwPs
1070
   128
  0
LINE
  5
42DF
100
AcDbEntity
  8
MSL-115-P40-S-0
 48
2.0
100
AcDbLine
 10
430.375813
 20
131.438133
 30
0.0
 11
430.375813
 21
111.438133
 31
0.0
1001
ACAD
1000
RTLwPs
1070
   128
  0
LINE
  5
42E0
100
AcDbEntity
  8
MSL-115-P40-S-0
 48
2.0
100
AcDbLine
 10
430.375813
 20
111.438133
 30
0.0
 11
430.375813
 21
131.438133
 31
0.0
1001
ACAD
1000
RTLwPs
1070
   128
  0
SPLINE
  5
42E1
100
AcDbEntity
  8
MSL-115-P40-S-0
 48
2.0
100
AcDbSpline
210
0.0
220
0.0
230
-1.0
 70
    12
 71
     3
 72
     8
 73
     4
 74
     0
 42
0.0000001
 43
0.0000001
 40
0.0082372096853778
 40
0.0082372096853778
 40
0.0082372096853778
 40
0.0082372096853778
 40
0.0211928023405478
 40
0.0211928023405478
 40
0.0211928023405478
 40
0.0211928023405478
 10
416.891366170158
 20
127.9381327594159
 30
0.0
 41
1.47447474147952
 10
415.5819650933998
 20
125.6701835669845
 30
0.0
 41
1.626542765701846
 10
415.5819650933993
 20
123.7060819518468
 30
0.0
 41
1.626542765701846
 10
416.891366170158
 20
121.4381327594157
 30
0.0
 41
1.47447474147952
1001
ACAD
1000
RTLwPs
1070
   128
  0
SPLINE
  5
42E2
100
AcDbEntity
  8
MSL-115-P40-S-0
 48
2.0
100
AcDbSpline
210
0.0
220
0.0
230
1.0
 70
    12
 71
     3
 72
     8
 73
     4
 74
     0
 42
0.0000001
 43
0.0000001
 40
0.0072887795577645
 40
0.0072887795577645
 40
0.0072887795577645
 40
0.0072887795577645
 40
0.0195796554543459
 40
0.0195796554543459
 40
0.0195796554543459
 40
0.0195796554543459
 10
421.360259171228
 20
121.4381327594159
 30
0.0
 41
1.413010917473256
 10
422.6696602479864
 20
123.7060819518471
 30
0.0
 41
1.558739950585838
 10
422.6696602479864
 20
125.6701835669849
 30
0.0
 41
1.558739950585838
 10
421.3602591712284
 20
127.9381327594163
 30
0.0
 41
1.413010917473256
1001
ACAD
1000
RTLwPs
1070
   128
  0
ARC
  5
42E3
100
AcDbEntity
  8
MSL-115-P40-S-0
 48
2.0
100
AcDbCircle
 10
408.888479
 20
127.067298
 30
0.0
 40
3.982419
100
AcDbArc
 50
151.889858
 51
208.110142
1001
ACAD
1000
RTLwPs
1070
   128
  0
ARC
  5
42E4
100
AcDbEntity
  8
MSL-115-P40-S-0
 48
2.0
100
AcDbCircle
 10
377.407875
 20
125.550542
 30
0.0
 40
27.468283
100
AcDbArc
 50
0.286999
 51
9.191397
1001
ACAD
1000
RTLwPs
1070
   128
  0
LINE
  5
42E5
100
AcDbEntity
  8
MSL-115-P40-S-0
 48
2.0
100
AcDbLine
 10
404.875813
 20
125.688133
 30
0.0
 11
404.875813
 21
129.938133
 31
0.0
1001
ACAD
1000
RTLwPs
1070
   128
  0
LINE
  5
42E6
100
AcDbEntity
  8
MSL-115-P40-S-0
 48
2.0
100
AcDbLine
 10
404.875813
 20
127.893686
 30
0.0
 11
404.875813
 21
114.982579
 31
0.0
  0
LINE
  5
42E7
100
AcDbEntity
  8
MSL-115-P40-S-0
 48
2.0
100
AcDbLine
 10
408.875813
 20
113.932579
 30
0.0
 11
408.875813
 21
128.943686
 31
0.0
1001
ACAD
1000
RTLwPs
1070
   128
  0
LINE
  5
42E8
100
AcDbEntity
  8
MSL-115-P40-S-0
 48
2.0
100
AcDbLine
 10
387.484981
 20
139.50993
 30
0.0
 11
384.875813
 21
139.50993
 31
0.0
  0
LINE
  5
42E9
100
AcDbEntity
  8
MSL-115-P40-S-0
 48
2.0
100
AcDbLine
 10
382.266645
 20
139.50993
 30
0.0
 11
384.875813
 21
139.50993
 31
0.0
  0
LINE
  5
42EA
100
AcDbEntity
  8
MSL-115-P40-S-0
 48
2.0
100
AcDbLine
 10
387.484981
 20
132.581726
 30
0.0
 11
384.875813
 21
132.581726
 31
0.0
  0
LINE
  5
42EB
100
AcDbEntity
  8
MSL-115-P40-S-0
 48
2.0
100
AcDbLine
 10
387.875813
 20
128.938133
 30
0.0
 11
386.875813
 21
128.670184
 31
0.0
1001
ACAD
1000
RTLwPs
1070
   128
  0
LINE
  5
42EC
100
AcDbEntity
  8
MSL-115-P40-S-0
 48
2.0
100
AcDbLine
 10
382.266645
 20
132.581726
 30
0.0
 11
384.875813
 21
132.581726
 31
0.0
  0
ARC
  5
42ED
100
AcDbEntity
  8
MSL-115-P40-S-0
 48
2.0
100
AcDbCircle
 10
372.328534
 20
136.045828
 30
0.0
 40
15.547279
100
AcDbArc
 50
347.125821
 51
12.874179
  0
ARC
  5
42EE
100
AcDbEntity
  8
MSL-115-P40-S-0
 48
2.0
100
AcDbCircle
 10
397.423091
 20
136.045828
 30
0.0
 40
15.547279
100
AcDbArc
 50
167.125821
 51
192.874179
  0
LINE
  5
42EF
100
AcDbEntity
  8
MSL-115-P40-S-0
 48
2.0
100
AcDbLine
 10
393.125813
 20
122.159821
 30
0.0
 11
394.375813
 21
122.881508
 31
0.0
1001
ACAD
1000
RTLwPs
1070
   128
  0
LINE
  5
42F0
100
AcDbEntity
  8
MSL-115-P40-S-0
 48
2.0
100
AcDbLine
 10
394.375813
 20
122.881508
 30
0.0
 11
395.625813
 21
122.159821
 31
0.0
1001
ACAD
1000
RTLwPs
1070
   128
  0
LINE
  5
42F1
100
AcDbEntity
  8
MSL-115-P40-S-0
 48
2.0
100
AcDbLine
 10
395.625813
 20
122.159821
 30
0.0
 11
395.625813
 21
120.716445
 31
0.0
1001
ACAD
1000
RTLwPs
1070
   128
  0
LINE
  5
42F2
100
AcDbEntity
  8
MSL-115-P40-S-0
 48
2.0
100
AcDbLine
 10
393.125813
 20
120.716445
 30
0.0
 11
393.125813
 21
122.159821
 31
0.0
1001
ACAD
1000
RTLwPs
1070
   128
  0
LINE
  5
42F3
100
AcDbEntity
  8
MSL-115-P40-S-0
 48
2.0
100
AcDbLine
 10
386.875813
 20
114.206082
 30
0.0
 11
387.875813
 21
113.938133
 31
0.0
1001
ACAD
1000
RTLwPs
1070
   128
  0
LINE
  5
42F4
100
AcDbEntity
  8
MSL-115-P40-S-0
 48
2.0
100
AcDbLine
 10
395.625813
 20
120.716445
 30
0.0
 11
394.375813
 21
119.994757
 31
0.0
1001
ACAD
1000
RTLwPs
1070
   128
  0
LINE
  5
42F5
100
AcDbEntity
  8
MSL-115-P40-S-0
 48
2.0
100
AcDbLine
 10
394.375813
 20
119.994757
 30
0.0
 11
393.125813
 21
120.716445
 31
0.0
1001
ACAD
1000
RTLwPs
1070
   128
  0
ARC
  5
42F6
100
AcDbEntity
  8
MSL-115-P40-S-5
 48
2.0
100
AcDbCircle
 10
394.375813
 20
121.438133
 30
0.0
 40
2.5
100
AcDbArc
 50
165.0
 51
105.0
1001
ACAD
1000
RTLwPs
1070
   128
  0
CIRCLE
  5
42F7
100
AcDbEntity
  8
MSL-115-P40-S-0
 48
2.0
100
AcDbCircle
 10
394.375813
 20
121.438133
 30
0.0
 40
2.1
1001
ACAD
1000
RTLwPs
1070
   128
  0
LINE
  5
42F8
100
AcDbEntity
  8
MSL-115-P40-S-0
 48
2.0
100
AcDbLine
 10
374.375813
 20
125.438133
 30
0.0
 11
374.375813
 21
117.438133
 31
0.0
1001
ACAD
1000
RTLwPs
1070
   128
  0
LINE
  5
42F9
100
AcDbEntity
  8
MSL-115-P40-S-5
 48
2.0
100
AcDbLine
 10
386.875813
 20
124.673133
 30
0.0
 11
374.375813
 21
124.673133
 31
0.0
1001
ACAD
1000
RTLwPs
1070
   128
  0
LINE
  5
42FA
100
AcDbEntity
  8
MSL-115-P40-S-5
 48
2.0
100
AcDbLine
 10
386.875813
 20
118.203133
 30
0.0
 11
374.375813
 21
118.203133
 31
0.0
1001
ACAD
1000
RTLwPs
1070
   128
  0
LINE
  5
42FB
100
AcDbEntity
  8
MSL-115-P40-S-0
 48
2.0
100
AcDbLine
 10
386.875813
 20
125.438133
 30
0.0
 11
374.375813
 21
125.438133
 31
0.0
1001
ACAD
1000
RTLwPs
1070
   128
  0
LINE
  5
42FC
100
AcDbEntity
  8
MSL-115-P40-S-0
 48
2.0
100
AcDbLine
 10
374.375813
 20
117.438133
 30
0.0
 11
386.875813
 21
117.438133
 31
0.0
1001
ACAD
1000
RTLwPs
1070
   128
  0
LINE
  5
42FD
100
AcDbEntity
  8
MSL-115-P40-S-0
 48
2.0
100
AcDbLine
 10
357.875813
 20
125.438133
 30
0.0
 11
357.875813
 21
123.438133
 31
0.0
1001
ACAD
1000
RTLwPs
1070
   128
  0
LINE
  5
42FE
100
AcDbEntity
  8
MSL-115-P40-S-0
 48
2.0
100
AcDbLine
 10
366.375813
 20
125.438133
 30
0.0
 11
357.875813
 21
125.438133
 31
0.0
1001
ACAD
1000
RTLwPs
1070
   128
  0
LINE
  5
42FF
100
AcDbEntity
  8
MSL-115-P40-S-0
 48
2.0
100
AcDbLine
 10
357.875813
 20
119.438133
 30
0.0
 11
357.875813
 21
117.438133
 31
0.0
1001
ACAD
1000
RTLwPs
1070
   128
  0
LINE
  5
4300
100
AcDbEntity
  8
MSL-115-P40-S-0
 48
2.0
100
AcDbLine
 10
357.875813
 20
117.438133
 30
0.0
 11
366.375813
 21
117.438133
 31
0.0
1001
ACAD
1000
RTLwPs
1070
   128
  0
LINE
  5
4301
100
AcDbEntity
  8
MSL-115-P40-S-0
 48
2.0
100
AcDbLine
 10
357.875813
 20
123.438133
 30
0.0
 11
357.875813
 21
119.438133
 31
0.0
1001
ACAD
1000
RTLwPs
1070
   128
  0
LINE
  5
4302
100
AcDbEntity
  8
MSL-115-P40-S-0
 48
2.0
100
AcDbLine
 10
366.375813
 20
125.438133
 30
0.0
 11
366.375813
 21
117.438133
 31
0.0
1001
ACAD
1000
RTLwPs
1070
   128
  0
LINE
  5
4303
100
AcDbEntity
  8
MSL-115-P40-S-0
 48
2.0
100
AcDbLine
 10
349.375813
 20
123.438133
 30
0.0
 11
349.375813
 21
125.438133
 31
0.0
1001
ACAD
1000
RTLwPs
1070
   128
  0
LINE
  5
4304
100
AcDbEntity
  8
MSL-115-P40-S-0
 48
2.0
100
AcDbLine
 10
349.375813
 20
117.438133
 30
0.0
 11
349.375813
 21
119.438133
 31
0.0
1001
ACAD
1000
RTLwPs
1070
   128
  0
LINE
  5
4305
100
AcDbEntity
  8
MSL-115-P40-S-0
 48
2.0
100
AcDbLine
 10
349.375813
 20
123.438133
 30
0.0
 11
349.375813
 21
119.438133
 31
0.0
1001
ACAD
1000
RTLwPs
1070
   128
  0
LINE
  5
4306
100
AcDbEntity
  8
MSL-115-P40-S-0
 48
2.0
100
AcDbLine
 10
357.875813
 20
117.438133
 30
0.0
 11
349.375813
 21
117.438133
 31
0.0
1001
ACAD
1000
RTLwPs
1070
   128
  0
LINE
  5
4307
100
AcDbEntity
  8
MSL-115-P40-S-0
 48
2.0
100
AcDbLine
 10
349.375813
 20
125.438133
 30
0.0
 11
357.875813
 21
125.438133
 31
0.0
1001
ACAD
1000
RTLwPs
1070
   128
  0
LINE
  5
4308
100
AcDbEntity
  8
MSL-115-P40-S-0
 48
2.0
100
AcDbLine
 10
374.375813
 20
124.938133
 30
0.0
 11
366.375813
 21
124.938133
 31
0.0
1001
ACAD
1000
RTLwPs
1070
   128
  0
LINE
  5
4309
100
AcDbEntity
  8
MSL-115-P40-S-0
 48
2.0
100
AcDbLine
 10
366.375813
 20
117.938133
 30
0.0
 11
374.375813
 21
117.938133
 31
0.0
1001
ACAD
1000
RTLwPs
1070
   128
  0
LINE
  5
430A
100
AcDbEntity
  8
MSL-115-P40-S-0
 48
2.0
100
AcDbLine
 10
386.875813
 20
114.206082
 30
0.0
 11
386.875813
 21
128.670184
 31
0.0
1001
ACAD
1000
RTLwPs
1070
   128
  0
LINE
  5
430B
100
AcDbEntity
  8
MSL-115-P40-S-5
 48
2.0
100
AcDbLine
 10
414.875813
 20
152.111533
 30
0.0
 11
414.875813
 21
140.725701
 31
0.0
  0
POLYLINE
  5
430C
100
AcDbEntity
  8
MSL-115-P40-S-0
 48
2.0
100
AcDb2dPolyline
 66
     1
 10
0.0
 20
0.0
 30
0.0
  0
VERTEX
  5
430D
100
AcDbEntity
  8
MSL-115-P40-S-0
 48
2.0
100
AcDbVertex
100
AcDb2dVertex
 10
418.875813
 20
154.938133
 30
0.0
  0
VERTEX
  5
430E
100
AcDbEntity
  8
MSL-115-P40-S-0
 48
2.0
100
AcDbVertex
100
AcDb2dVertex
 10
418.875813
 20
137.938133
 30
0.0
  0
SEQEND
  5
430F
100
AcDbEntity
  8
MSL-115-P40-S-0
 48
2.0
  0
POLYLINE
  5
4310
100
AcDbEntity
  8
MSL-115-P40-S-0
 48
2.0
100
AcDb2dPolyline
 66
     1
 10
0.0
 20
0.0
 30
0.0
  0
VERTEX
  5
4311
100
AcDbEntity
  8
MSL-115-P40-S-0
 48
2.0
100
AcDbVertex
100
AcDb2dVertex
 10
421.875813
 20
152.438133
 30
0.0
  0
VERTEX
  5
4312
100
AcDbEntity
  8
MSL-115-P40-S-0
 48
2.0
100
AcDbVertex
100
AcDb2dVertex
 10
421.875813
 20
140.438133
 30
0.0
  0
SEQEND
  5
4313
100
AcDbEntity
  8
MSL-115-P40-S-0
 48
2.0
  0
POLYLINE
  5
4314
100
AcDbEntity
  8
MSL-115-P40-S-0
 48
2.0
100
AcDb2dPolyline
 66
     1
 10
0.0
 20
0.0
 30
0.0
  0
VERTEX
  5
4315
100
AcDbEntity
  8
MSL-115-P40-S-0
 48
2.0
100
AcDbVertex
100
AcDb2dVertex
 10
411.375813
 20
146.438133
 30
0.0
  0
VERTEX
  5
4316
100
AcDbEntity
  8
MSL-115-P40-S-0
 48
2.0
100
AcDbVertex
100
AcDb2dVertex
 10
411.375813
 20
154.438133
 30
0.0
  0
VERTEX
  5
4317
100
AcDbEntity
  8
MSL-115-P40-S-0
 48
2.0
100
AcDbVertex
100
AcDb2dVertex
 10
410.875813
 20
154.938133
 30
0.0
  0
VERTEX
  5
4318
100
AcDbEntity
  8
MSL-115-P40-S-0
 48
2.0
100
AcDbVertex
100
AcDb2dVertex
 10
409.375813
 20
154.938133
 30
0.0
  0
SEQEND
  5
4319
100
AcDbEntity
  8
MSL-115-P40-S-0
 48
2.0
  0
POLYLINE
  5
431A
100
AcDbEntity
  8
MSL-115-P40-S-0
 48
2.0
100
AcDb2dPolyline
 66
     1
 10
0.0
 20
0.0
 30
0.0
  0
VERTEX
  5
431B
100
AcDbEntity
  8
MSL-115-P40-S-0
 48
2.0
100
AcDbVertex
100
AcDb2dVertex
 10
410.875813
 20
146.438133
 30
0.0
  0
VERTEX
  5
431C
100
AcDbEntity
  8
MSL-115-P40-S-0
 48
2.0
100
AcDbVertex
100
AcDb2dVertex
 10
410.875813
 20
154.938133
 30
0.0
  0
SEQEND
  5
431D
100
AcDbEntity
  8
MSL-115-P40-S-0
 48
2.0
  0
POLYLINE
  5
431E
100
AcDbEntity
  8
MSL-115-P40-S-0
 48
2.0
100
AcDb2dPolyline
 66
     1
 10
0.0
 20
0.0
 30
0.0
  0
VERTEX
  5
431F
100
AcDbEntity
  8
MSL-115-P40-S-0
 48
2.0
100
AcDbVertex
100
AcDb2dVertex
 10
411.875813
 20
140.188133
 30
0.0
  0
VERTEX
  5
4320
100
AcDbEntity
  8
MSL-115-P40-S-0
 48
2.0
100
AcDbVertex
100
AcDb2dVertex
 10
411.875813
 20
152.688133
 30
0.0
  0
SEQEND
  5
4321
100
AcDbEntity
  8
MSL-115-P40-S-0
 48
2.0
  0
ARC
  5
4322
100
AcDbEntity
  8
MSL-115-P40-S-0
 48
2.0
100
AcDbCircle
 10
326.272946
 20
146.438133
 30
0.0
 40
61.602867
100
AcDbArc
 50
353.542534
 51
6.457466
  0
POLYLINE
  5
4323
100
AcDbEntity
  8
MSL-115-P40-S-0
 48
2.0
100
AcDb2dPolyline
 66
     1
 10
0.0
 20
0.0
 30
0.0
  0
VERTEX
  5
4324
100
AcDbEntity
  8
MSL-115-P40-S-0
 48
2.0
100
AcDbVertex
100
AcDb2dVertex
 10
418.875813
 20
154.938133
 30
0.0
  0
VERTEX
  5
4325
100
AcDbEntity
  8
MSL-115-P40-S-0
 48
2.0
100
AcDbVertex
100
AcDb2dVertex
 10
414.875813
 20
154.938133
 30
0.0
  0
VERTEX
  5
4326
100
AcDbEntity
  8
MSL-115-P40-S-0
 48
2.0
100
AcDbVertex
100
AcDb2dVertex
 10
414.875813
 20
153.188133
 30
0.0
 42
-0.414214
  0
VERTEX
  5
4327
100
AcDbEntity
  8
MSL-115-P40-S-0
 48
2.0
100
AcDbVertex
100
AcDb2dVertex
 10
414.375813
 20
152.688133
 30
0.0
  0
VERTEX
  5
4328
100
AcDbEntity
  8
MSL-115-P40-S-0
 48
2.0
100
AcDbVertex
100
AcDb2dVertex
 10
411.875813
 20
152.688133
 30
0.0
  0
VERTEX
  5
4329
100
AcDbEntity
  8
MSL-115-P40-S-0
 48
2.0
100
AcDbVertex
100
AcDb2dVertex
 10
411.375813
 20
152.188133
 30
0.0
  0
VERTEX
  5
432A
100
AcDbEntity
  8
MSL-115-P40-S-0
 48
2.0
100
AcDbVertex
100
AcDb2dVertex
 10
411.375813
 20
146.438133
 30
0.0
  0
SEQEND
  5
432B
100
AcDbEntity
  8
MSL-115-P40-S-0
 48
2.0
  0
LINE
  5
432C
100
AcDbEntity
  8
MSL-115-P40-S-0
 48
2.0
100
AcDbLine
 10
408.375813
 20
156.438133
 30
0.0
 11
408.375813
 21
146.438133
 31
0.0
  0
LINE
  5
432D
100
AcDbEntity
  8
MSL-115-P40-S-0
 48
2.0
100
AcDbLine
 10
387.875813
 20
156.830438
 30
0.0
 11
387.875813
 21
136.045828
 31
0.0
  0
ARC
  5
432E
100
AcDbEntity
  8
MSL-115-P40-S-0
 48
2.0
100
AcDbCircle
 10
443.478679
 20
146.438133
 30
0.0
 40
61.602867
100
AcDbArc
 50
173.542534
 51
186.457466
  0
LINE
  5
432F
100
AcDbEntity
  8
MSL-115-P40-S-0
 48
2.0
100
AcDbLine
 10
381.875813
 20
156.830438
 30
0.0
 11
381.875813
 21
136.045828
 31
0.0
  0
LINE
  5
4330
100
AcDbEntity
  8
MSL-115-P40-S-0
 48
2.0
100
AcDbLine
 10
430.375813
 20
131.438133
 30
0.0
 11
430.375813
 21
188.438133
 31
0.0
1001
ACAD
1000
RTLwPs
1070
   128
  0
POLYLINE
  5
4331
100
AcDbEntity
  8
MSL-115-P40-S-0
 48
2.0
100
AcDb2dPolyline
 66
     1
 10
0.0
 20
0.0
 30
0.0
  0
VERTEX
  5
4332
100
AcDbEntity
  8
MSL-115-P40-S-0
 48
2.0
100
AcDbVertex
100
AcDb2dVertex
 10
409.375813
 20
146.438133
 30
0.0
  0
VERTEX
  5
4333
100
AcDbEntity
  8
MSL-115-P40-S-0
 48
2.0
100
AcDbVertex
100
AcDb2dVertex
 10
409.375813
 20
155.438133
 30
0.0
  0
VERTEX
  5
4334
100
AcDbEntity
  8
MSL-115-P40-S-0
 48
2.0
100
AcDbVertex
100
AcDb2dVertex
 10
408.375813
 20
156.438133
 30
0.0
  0
VERTEX
  5
4335
100
AcDbEntity
  8
MSL-115-P40-S-0
 48
2.0
100
AcDbVertex
100
AcDb2dVertex
 10
401.875813
 20
156.438133
 30
0.0
  0
SEQEND
  5
4336
100
AcDbEntity
  8
MSL-115-P40-S-0
 48
2.0
  0
LINE
  5
4337
100
AcDbEntity
  8
MSL-115-P40-S-0
 48
2.0
100
AcDbLine
 10
333.375813
 20
156.438133
 30
0.0
 11
332.375813
 21
155.438133
 31
0.0
  0
LINE
  5
4338
100
AcDbEntity
  8
MSL-115-P40-S-0
 48
2.0
100
AcDbLine
 10
333.375813
 20
136.438133
 30
0.0
 11
332.375813
 21
137.438133
 31
0.0
  0
POLYLINE
  5
4339
100
AcDbEntity
  8
MSL-115-P40-S-0
 48
2.0
100
AcDb2dPolyline
 66
     1
 10
0.0
 20
0.0
 30
0.0
  0
VERTEX
  5
433A
100
AcDbEntity
  8
MSL-115-P40-S-0
 48
2.0
100
AcDbVertex
100
AcDb2dVertex
 10
332.375813
 20
137.938133
 30
0.0
  0
VERTEX
  5
433B
100
AcDbEntity
  8
MSL-115-P40-S-0
 48
2.0
100
AcDbVertex
100
AcDb2dVertex
 10
326.375813
 20
137.938133
 30
0.0
  0
VERTEX
  5
433C
100
AcDbEntity
  8
MSL-115-P40-S-0
 48
2.0
100
AcDbVertex
100
AcDb2dVertex
 10
325.375813
 20
138.938133
 30
0.0
  0
VERTEX
  5
433D
100
AcDbEntity
  8
MSL-115-P40-S-0
 48
2.0
100
AcDbVertex
100
AcDb2dVertex
 10
325.375813
 20
146.438133
 30
0.0
  0
SEQEND
  5
433E
100
AcDbEntity
  8
MSL-115-P40-S-0
 48
2.0
  0
LINE
  5
433F
100
AcDbEntity
  8
MSL-115-P40-S-0
 48
2.0
100
AcDbLine
 10
326.375813
 20
137.938133
 30
0.0
 11
326.375813
 21
146.438133
 31
0.0
  0
LINE
  5
4340
100
AcDbEntity
  8
MSL-115-P40-S-0
 48
2.0
100
AcDbLine
 10
332.375813
 20
137.438133
 30
0.0
 11
332.375813
 21
146.438133
 31
0.0
  0
LINE
  5
4341
100
AcDbEntity
  8
MSL-115-P40-S-0
 48
2.0
100
AcDbLine
 10
332.375813
 20
155.438133
 30
0.0
 11
332.375813
 21
146.438133
 31
0.0
  0
POLYLINE
  5
4342
100
AcDbEntity
  8
MSL-115-P40-S-0
 48
2.0
100
AcDb2dPolyline
 66
     1
 10
0.0
 20
0.0
 30
0.0
  0
VERTEX
  5
4343
100
AcDbEntity
  8
MSL-115-P40-S-0
 48
2.0
100
AcDbVertex
100
AcDb2dVertex
 10
332.375813
 20
154.938133
 30
0.0
  0
VERTEX
  5
4344
100
AcDbEntity
  8
MSL-115-P40-S-0
 48
2.0
100
AcDbVertex
100
AcDb2dVertex
 10
326.375813
 20
154.938133
 30
0.0
  0
VERTEX
  5
4345
100
AcDbEntity
  8
MSL-115-P40-S-0
 48
2.0
100
AcDbVertex
100
AcDb2dVertex
 10
325.375813
 20
153.938133
 30
0.0
  0
VERTEX
  5
4346
100
AcDbEntity
  8
MSL-115-P40-S-0
 48
2.0
100
AcDbVertex
100
AcDb2dVertex
 10
325.375813
 20
146.438133
 30
0.0
  0
SEQEND
  5
4347
100
AcDbEntity
  8
MSL-115-P40-S-0
 48
2.0
  0
LINE
  5
4348
100
AcDbEntity
  8
MSL-115-P40-S-0
 48
2.0
100
AcDbLine
 10
326.375813
 20
154.938133
 30
0.0
 11
326.375813
 21
146.438133
 31
0.0
  0
LINE
  5
4349
100
AcDbEntity
  8
MSL-115-P40-S-0
 48
2.0
100
AcDbLine
 10
333.375813
 20
156.438133
 30
0.0
 11
333.375813
 21
136.438133
 31
0.0
  0
LINE
  5
434A
100
AcDbEntity
  8
MSL-115-P40-S-5
 48
2.0
100
AcDbLine
 10
332.875813
 20
155.938133
 30
0.0
 11
381.875813
 21
155.938133
 31
0.0
  0
LINE
  5
434B
100
AcDbEntity
  8
MSL-115-P40-S-5
 48
2.0
100
AcDbLine
 10
332.875813
 20
136.938133
 30
0.0
 11
381.875813
 21
136.938133
 31
0.0
  0
LINE
  5
434C
100
AcDbEntity
  8
MSL-115-P40-S-0
 48
2.0
100
AcDbLine
 10
381.875813
 20
156.438133
 30
0.0
 11
333.375813
 21
156.438133
 31
0.0
  0
LINE
  5
434D
100
AcDbEntity
  8
MSL-115-P40-S-0
 48
2.0
100
AcDbLine
 10
381.875813
 20
136.438133
 30
0.0
 11
333.375813
 21
136.438133
 31
0.0
  0
LINE
  5
434E
100
AcDbEntity
  8
MSL-115-P40-S-7
 48
2.0
100
AcDbLine
 10
322.174695
 20
146.438133
 30
0.0
 11
426.615633
 21
146.438133
 31
0.0
  0
LINE
  5
434F
100
AcDbEntity
  8
MSL-115-P40-S-0
 48
2.0
100
AcDbLine
 10
419.875813
 20
81.013133
 30
0.0
 11
422.375813
 21
81.013133
 31
0.0
  0
LINE
  5
4350
100
AcDbEntity
  8
MSL-115-P40-S-0
 48
2.0
100
AcDbLine
 10
407.875813
 20
87.438133
 30
0.0
 11
419.875813
 21
87.438133
 31
0.0
1001
ACAD
1000
RTLwPs
1070
   128
  0
ARC
  5
4351
100
AcDbEntity
  8
MSL-115-P40-S-0
 48
2.0
100
AcDbCircle
 10
407.875813
 20
93.438133
 30
0.0
 40
6.0
100
AcDbArc
 50
180.0
 51
270.0
1001
ACAD
1000
RTLwPs
1070
   128
  0
LINE
  5
4352
100
AcDbEntity
  8
MSL-115-P40-S-0
 48
2.0
100
AcDbLine
 10
419.875813
 20
65.013133
 30
0.0
 11
422.375813
 21
65.013133
 31
0.0
  0
LINE
  5
4353
100
AcDbEntity
  8
MSL-115-P40-S-7
 48
2.0
100
AcDbLine
 10
415.215312
 20
73.013133
 30
0.0
 11
427.226808
 21
73.013133
 31
0.0
  0
LINE
  5
4354
100
AcDbEntity
  8
MSL-115-P40-S-0
 48
2.0
100
AcDbLine
 10
419.875813
 20
114.938133
 30
0.0
 11
419.875813
 21
58.938133
 31
0.0
  0
LINE
  5
4355
100
AcDbEntity
  8
MSL-115-P40-S-0
 48
2.0
100
AcDbLine
 10
401.875813
 20
180.938133
 30
0.0
 11
401.875813
 21
61.938133
 31
0.0
1001
ACAD
1000
RTLwPs
1070
   128
  0
LINE
  5
4356
100
AcDbEntity
  8
MSL-115-P40-S-0
 48
2.0
100
AcDbLine
 10
387.875813
 20
180.938133
 30
0.0
 11
387.875813
 21
61.938133
 31
0.0
1001
ACAD
1000
RTLwPs
1070
   128
  0
LINE
  5
4357
100
AcDbEntity
  8
MSL-115-P40-S-0
 48
2.0
100
AcDbLine
 10
422.375813
 20
188.438133
 30
0.0
 11
422.375813
 21
54.438133
 31
0.0
1001
ACAD
1000
RTLwPs
1070
   128
  0
LINE
  5
4358
100
AcDbEntity
  8
MSL-115-P40-S-0
 48
2.0
100
AcDbLine
 10
430.375813
 20
54.438133
 30
0.0
 11
430.375813
 21
111.438133
 31
0.0
1001
ACAD
1000
RTLwPs
1070
   128
  0
ARC
  5
435A
100
AcDbEntity
  8
MSL-115-P40-S-5
 48
2.0
100
AcDbCircle
 10
450.375813
 20
166.438133
 30
0.0
 40
4.0
100
AcDbArc
 50
165.0
 51
105.0
1001
ACAD
1000
RTLwPs
1070
   128
  0
CIRCLE
  5
435B
100
AcDbEntity
  8
MSL-115-P40-S-0
 48
2.0
100
AcDbCircle
 10
450.375813
 20
166.438133
 30
0.0
 40
3.4
1001
ACAD
1000
RTLwPs
1070
   128
  0
LINE
  5
435C
100
AcDbEntity
  8
MSL-115-P40-S-0
 48
2.0
100
AcDbLine
 10
650.375813
 20
188.438133
 30
0.0
 11
430.375813
 21
188.438133
 31
0.0
1001
ACAD
1000
RTLwPs
1070
   128
  0
LINE
  5
435D
100
AcDbEntity
  8
MSL-115-P40-S-0
 48
2.0
100
AcDbLine
 10
430.375813
 20
108.938133
 30
0.0
 11
650.375813
 21
108.938133
 31
0.0
1001
ACAD
1000
RTLwPs
1070
   128
  0
LINE
  5
435E
100
AcDbEntity
  8
MSL-115-P40-S-0
 48
2.0
100
AcDbLine
 10
650.375813
 20
133.938133
 30
0.0
 11
430.375813
 21
133.938133
 31
0.0
1001
ACAD
1000
RTLwPs
1070
   128
  0
LINE
  5
435F
100
AcDbEntity
  8
MSL-115-P40-S-0
 48
2.0
100
AcDbLine
 10
430.375813
 20
188.938133
 30
0.0
 11
650.375813
 21
188.938133
 31
0.0
1001
ACAD
1000
RTLwPs
1070
   128
  0
ARC
  5
4361
100
AcDbEntity
  8
MSL-115-P40-S-5
 48
2.0
100
AcDbCircle
 10
450.375813
 20
76.438133
 30
0.0
 40
4.0
100
AcDbArc
 50
165.0
 51
105.0
1001
ACAD
1000
RTLwPs
1070
   128
  0
CIRCLE
  5
4362
100
AcDbEntity
  8
MSL-115-P40-S-0
 48
2.0
100
AcDbCircle
 10
450.375813
 20
76.438133
 30
0.0
 40
3.4
1001
ACAD
1000
RTLwPs
1070
   128
  0
LINE
  5
4363
100
AcDbEntity
  8
MSL-115-P40-S-0
 48
2.0
100
AcDbLine
 10
664.875813
 20
125.438133
 30
0.0
 11
671.875813
 21
125.438133
 31
0.0
1001
ACAD
1000
RTLwPs
1070
   128
  0
LINE
  5
4364
100
AcDbEntity
  8
MSL-115-P40-S-5
 48
2.0
100
AcDbLine
 10
671.875813
 20
124.688133
 30
0.0
 11
664.875813
 21
124.688133
 31
0.0
  0
LINE
  5
4365
100
AcDbEntity
  8
MSL-115-P40-S-0
 48
2.0
100
AcDbLine
 10
671.875813
 20
117.438133
 30
0.0
 11
664.875813
 21
117.438133
 31
0.0
1001
ACAD
1000
RTLwPs
1070
   128
  0
LINE
  5
4366
100
AcDbEntity
  8
MSL-115-P40-S-5
 48
2.0
100
AcDbLine
 10
671.875813
 20
118.188133
 30
0.0
 11
664.875813
 21
118.188133
 31
0.0
  0
LINE
  5
4367
100
AcDbEntity
  8
MSL-115-P40-S-0
 48
2.0
100
AcDbLine
 10
413.741939
 20
236.407423
 30
0.0
 11
754.741939
 21
236.407423
 31
0.0
1001
ACAD
1000
RTLwPs
1070
   128
  0
LINE
  5
4368
100
AcDbEntity
  8
MSL-115-P40-S-0
 48
2.0
100
AcDbLine
 10
754.741939
 20
281.911888
 30
0.0
 11
413.741939
 21
281.911888
 31
0.0
1001
ACAD
1000
RTLwPs
1070
   128
  0
LINE
  5
4369
100
AcDbEntity
  8
MSL-115-P40-S-0
 48
2.0
100
AcDbLine
 10
754.741939
 20
219.911888
 30
0.0
 11
413.741939
 21
219.911888
 31
0.0
1001
ACAD
1000
RTLwPs
1070
   128
  0
LINE
  5
436A
100
AcDbEntity
  8
MSL-115-P40-S-7
 48
2.0
100
AcDbLine
 10
348.946726
 20
121.438133
 30
0.0
 11
835.673106
 21
121.438133
 31
0.0
  0
LINE
  5
436B
100
AcDbEntity
  8
MSL-115-P40-S-0
 48
2.0
100
AcDbLine
 10
779.875813
 20
183.938133
 30
0.0
 11
658.875813
 21
183.938133
 31
0.0
1001
ACAD
1000
RTLwPs
1070
   128
  0
LINE
  5
436C
100
AcDbEntity
  8
MSL-115-P40-S-0
100
AcDbLine
 10
754.741939
 20
285.911888
 30
0.0
 11
413.741939
 21
285.911888
 31
0.0
1001
ACAD
1000
RTLwPs
1070
   128
  0
LINE
  5
436D
100
AcDbEntity
  8
MSL-115-P40-S-0
100
AcDbLine
 10
754.741939
 20
302.111888
 30
0.0
 11
640.891939
 21
302.111888
 31
0.0
1001
ACAD
1000
RTLwPs
1070
   128
  0
LINE
  5
436E
100
AcDbEntity
  8
MSL-115-P40-S-7
 48
2.0
100
AcDbLine
 10
649.815279
 20
321.403392
 30
0.0
 11
674.757777
 21
321.403392
 31
0.0
  0
LINE
  5
436F
100
AcDbEntity
  8
MSL-115-P40-S-0
 48
2.0
100
AcDbLine
 10
658.741939
 20
317.40764
 30
0.0
 11
665.741939
 21
317.40764
 31
0.0
  0
LINE
  5
4370
100
AcDbEntity
  8
MSL-115-P40-S-5
 48
2.0
100
AcDbLine
 10
658.741939
 20
318.153393
 30
0.0
 11
665.741939
 21
318.153393
 31
0.0
  0
LINE
  5
4371
100
AcDbEntity
  8
MSL-115-P40-S-0
 48
2.0
100
AcDbLine
 10
665.741939
 20
325.40764
 30
0.0
 11
658.741939
 21
325.40764
 31
0.0
  0
LINE
  5
4372
100
AcDbEntity
  8
MSL-115-P40-S-5
 48
2.0
100
AcDbLine
 10
658.741939
 20
324.653393
 30
0.0
 11
665.741939
 21
324.653393
 31
0.0
  0
LINE
  5
4373
100
AcDbEntity
  8
MSL-115-P40-S-0
100
AcDbLine
 10
640.391939
 20
302.111888
 30
0.0
 11
754.741939
 21
302.111888
 31
0.0
  0
LINE
  5
4374
100
AcDbEntity
  8
MSL-115-P40-S-0
100
AcDbLine
 10
754.741939
 20
300.737058
 30
0.0
 11
640.391939
 21
300.737058
 31
0.0
  0
LINE
  5
4375
100
AcDbEntity
  8
MSL-115-P40-S-0
100
AcDbLine
 10
754.741939
 20
300.161322
 30
0.0
 11
640.391939
 21
300.161322
 31
0.0
  0
LINE
  5
4376
100
AcDbEntity
  8
MSL-115-P40-S-0
100
AcDbLine
 10
658.375813
 20
163.139679
 30
0.0
 11
760.875813
 21
163.139679
 31
0.0
  0
LINE
  5
4377
100
AcDbEntity
  8
MSL-115-P40-S-0
100
AcDbLine
 10
658.375813
 20
162.363133
 30
0.0
 11
760.875813
 21
162.363133
 31
0.0
  0
LINE
  5
4378
100
AcDbEntity
  8
MSL-115-P40-S-7
100
AcDbLine
 10
655.160075
 20
169.863133
 30
0.0
 11
763.207363
 21
169.863133
 31
0.0
  0
LINE
  5
4379
100
AcDbEntity
  8
MSL-115-P40-S-0
100
AcDbLine
 10
658.375813
 20
177.296145
 30
0.0
 11
760.875813
 21
177.296145
 31
0.0
  0
LINE
  5
437A
100
AcDbEntity
  8
MSL-115-P40-S-0
100
AcDbLine
 10
658.375813
 20
176.586587
 30
0.0
 11
760.875813
 21
176.586587
 31
0.0
  0
LINE
  5
437B
100
AcDbEntity
  8
MSL-115-P40-S-0
100
AcDbLine
 10
658.375813
 20
78.363133
 30
0.0
 11
761.375813
 21
78.363133
 31
0.0
  0
LINE
  5
437C
100
AcDbEntity
  8
MSL-115-P40-S-7
100
AcDbLine
 10
655.160075
 20
70.863133
 30
0.0
 11
763.207363
 21
70.863133
 31
0.0
  0
LINE
  5
437D
100
AcDbEntity
  8
MSL-115-P40-S-0
100
AcDbLine
 10
658.375813
 20
77.580419
 30
0.0
 11
761.375813
 21
77.580419
 31
0.0
  0
MTEXT
  5
468D
100
AcDbEntity
  8
MSL-115-P40-S-5
100
AcDbMText
 10
598.688413
 20
227.042238
 30
0.0
 40
3.5
 41
0.0
 71
     7
 72
     5
  1

  7
ACISOTS
1001
ACAD
1000
MTEXTBEGIN
1070
    73
1070
     1
1070
    44
1040
1.0
1070
    74
1070
     0
1000
MTEXTEND
1000
MTEXTBEGIN
1070
    73
1070
     1
1070
    44
1040
1.0
1070
    74
1070
     0
1000
MTEXTEND
1000
MTEXTBEGIN
1070
    73
1070
     1
1070
    44
1040
1.0
1070
    74
1070
     0
1000
MTEXTEND
1000
MTEXTBEGIN
1070
    73
1070
     1
1070
    44
1040
1.0
1070
    74
1070
     0
1000
MTEXTEND
1000
MTEXTBEGIN
1070
    73
1070
     1
1070
    44
1040
1.0
1070
    74
1070
     0
1000
MTEXTEND
  0
MTEXT
  5
4692
100
AcDbEntity
  8
MSL-115-P40-S-5
100
AcDbMText
 10
713.703334
 20
-18.407846
 30
0.0
 40
3.5
 41
0.0
 71
     7
 72
     5
  1

  7
ACDINTS
1001
ACAD
1000
MTEXTBEGIN
1070
    73
1070
     1
1070
    44
1040
1.0
1070
    74
1070
     0
1000
MTEXTEND
  0
CIRCLE
  5
4CE9
100
AcDbEntity
  8
MSL-115-P40-S-0
 48
2.0
100
AcDbCircle
 10
570.375813
 20
76.438133
 30
0.0
 40
6.5
1001
ACAD
1000
RTLwPs
1070
   128
  0
CIRCLE
  5
4CEA
100
AcDbEntity
  8
MSL-115-P40-S-0
 48
2.0
100
AcDbCircle
 10
510.375813
 20
166.438133
 30
0.0
 40
6.5
1001
ACAD
1000
RTLwPs
1070
   128
  0
LINE
  5
4D4A
100
AcDbEntity
  8
MSL-115-P40-S-0
100
AcDbLine
 10
557.741939
 20
336.411888
 30
0.0
 11
570.741939
 21
336.411888
 31
0.0
  0
LINE
  5
4D4B
100
AcDbEntity
  8
MSL-115-P40-S-0
100
AcDbLine
 10
558.241939
 20
336.911888
 30
0.0
 11
570.241939
 21
336.911888
 31
0.0
  0
LINE
  5
4D4C
100
AcDbEntity
  8
MSL-115-P40-S-0
100
AcDbLine
 10
557.741939
 20
334.911888
 30
0.0
 11
557.741939
 21
336.411888
 31
0.0
  0
LINE
  5
4D4D
100
AcDbEntity
  8
MSL-115-P40-S-0
100
AcDbLine
 10
557.741939
 20
336.411888
 30
0.0
 11
558.241939
 21
336.911888
 31
0.0
  0
LINE
  5
4D4E
100
AcDbEntity
  8
MSL-115-P40-S-0
100
AcDbLine
 10
570.741939
 20
336.411888
 30
0.0
 11
570.741939
 21
334.911888
 31
0.0
  0
LINE
  5
4D4F
100
AcDbEntity
  8
MSL-115-P40-S-0
100
AcDbLine
 10
570.741939
 20
336.411888
 30
0.0
 11
570.241939
 21
336.911888
 31
0.0
  0
LINE
  5
4D50
100
AcDbEntity
  8
MSL-115-P40-S-0
100
AcDbLine
 10
890.032672
 20
336.811888
 30
0.0
 11
902.032672
 21
336.811888
 31
0.0
  0
LINE
  5
4D51
100
AcDbEntity
  8
MSL-115-P40-S-0
100
AcDbLine
 10
889.532672
 20
336.311888
 30
0.0
 11
902.532672
 21
336.311888
 31
0.0
  0
LINE
  5
4D52
100
AcDbEntity
  8
MSL-115-P40-S-0
100
AcDbLine
 10
889.532672
 20
336.311888
 30
0.0
 11
890.032672
 21
336.811888
 31
0.0
  0
LINE
  5
4D53
100
AcDbEntity
  8
MSL-115-P40-S-0
100
AcDbLine
 10
889.532672
 20
334.811888
 30
0.0
 11
889.532672
 21
336.311888
 31
0.0
  0
LINE
  5
4D54
100
AcDbEntity
  8
MSL-115-P40-S-0
100
AcDbLine
 10
902.532672
 20
336.311888
 30
0.0
 11
902.032672
 21
336.811888
 31
0.0
  0
LINE
  5
4D55
100
AcDbEntity
  8
MSL-115-P40-S-0
100
AcDbLine
 10
902.532672
 20
336.311888
 30
0.0
 11
902.532672
 21
334.811888
 31
0.0
  0
LINE
  5
4D56
100
AcDbEntity
  8
MSL-115-P40-S-0
100
AcDbLine
 10
980.032672
 20
336.811888
 30
0.0
 11
992.032672
 21
336.811888
 31
0.0
  0
LINE
  5
4D57
100
AcDbEntity
  8
MSL-115-P40-S-0
100
AcDbLine
 10
979.532672
 20
336.311888
 30
0.0
 11
992.532672
 21
336.311888
 31
0.0
  0
LINE
  5
4D58
100
AcDbEntity
  8
MSL-115-P40-S-0
100
AcDbLine
 10
979.532672
 20
336.311888
 30
0.0
 11
980.032672
 21
336.811888
 31
0.0
  0
LINE
  5
4D59
100
AcDbEntity
  8
MSL-115-P40-S-0
100
AcDbLine
 10
979.532672
 20
334.811888
 30
0.0
 11
979.532672
 21
336.311888
 31
0.0
  0
LINE
  5
4D5A
100
AcDbEntity
  8
MSL-115-P40-S-0
100
AcDbLine
 10
992.532672
 20
336.311888
 30
0.0
 11
992.032672
 21
336.811888
 31
0.0
  0
LINE
  5
4D5B
100
AcDbEntity
  8
MSL-115-P40-S-0
100
AcDbLine
 10
992.532672
 20
336.311888
 30
0.0
 11
992.532672
 21
334.811888
 31
0.0
  0
LINE
  5
5010
100
AcDbEntity
  8
MSL-115-P40-S-7
 48
2.0
100
AcDbLine
 10
540.375813
 20
160.438133
 30
0.0
 11
540.375813
 21
172.438133
 31
0.0
  0
LINE
  5
5011
100
AcDbEntity
  8
MSL-115-P40-S-7
 48
2.0
100
AcDbLine
 10
540.375813
 20
70.438133
 30
0.0
 11
540.375813
 21
82.438133
 31
0.0
  0
LINE
  5
509C
100
AcDbEntity
  8
MSL-115-R32-S-3A
100
AcDbLine
 10
887.33381
 20
223.711609
 30
0.0
 11
882.68381
 21
223.711609
 31
0.0
1001
ACAD
1000
RTLwPs
1070
   128
  0
LINE
  5
509D
100
AcDbEntity
  8
MSL-115-R32-S-3A
100
AcDbLine
 10
882.542388
 20
228.765797
 30
0.0
 11
885.975231
 21
232.19864
 31
0.0
1001
ACAD
1000
RTLwPs
1070
   128
  0
ARC
  5
50A0
100
AcDbEntity
  8
MSL-115-R32-S-3A
100
AcDbCircle
 10
882.68381
 20
223.911609
 30
0.0
 40
0.2
100
AcDbArc
 50
180.0
 51
270.0
1001
ACAD
1000
RTLwPs
1070
   128
  0
LINE
  5
50A1
100
AcDbEntity
  8
MSL-115-R32-S-3A
100
AcDbLine
 10
882.48381
 20
223.911609
 30
0.0
 11
882.48381
 21
228.624376
 31
0.0
1001
ACAD
1000
RTLwPs
1070
   128
  0
ARC
  5
50A2
100
AcDbEntity
  8
MSL-115-R32-S-3A
100
AcDbCircle
 10
882.68381
 20
228.624376
 30
0.0
 40
0.2
100
AcDbArc
 50
135.0
 51
180.0
1001
ACAD
1000
RTLwPs
1070
   128
  0
LINE
  5
50A7
100
AcDbEntity
  8
MSL-115-R32-S-3A
100
AcDbLine
 10
899.090112
 20
232.19864
 30
0.0
 11
902.522955
 21
228.765797
 31
0.0
1001
ACAD
1000
RTLwPs
1070
   128
  0
LINE
  5
50A8
100
AcDbEntity
  8
MSL-115-R32-S-3A
100
AcDbLine
 10
887.53381
 20
219.911888
 30
0.0
 11
887.53381
 21
223.511609
 31
0.0
1001
ACAD
1000
RTLwPs
1070
   128
  0
ARC
  5
50A9
100
AcDbEntity
  8
MSL-115-R32-S-3A
100
AcDbCircle
 10
887.33381
 20
223.511609
 30
0.0
 40
0.2
100
AcDbArc
 50
0.0
 51
90.0
1001
ACAD
1000
RTLwPs
1070
   128
  0
ARC
  5
50AB
100
AcDbEntity
  8
MSL-115-R32-S-3A
100
AcDbCircle
 10
902.381534
 20
228.624376
 30
0.0
 40
0.2
100
AcDbArc
 50
0.0
 51
45.0
1001
ACAD
1000
RTLwPs
1070
   128
  0
LINE
  5
50AC
100
AcDbEntity
  8
MSL-115-R32-S-3A
100
AcDbLine
 10
902.581534
 20
228.624376
 30
0.0
 11
902.581534
 21
223.912167
 31
0.0
1001
ACAD
1000
RTLwPs
1070
   128
  0
ARC
  5
50AD
100
AcDbEntity
  8
MSL-115-R32-S-3A
100
AcDbCircle
 10
902.381534
 20
223.912167
 30
0.0
 40
0.2
100
AcDbArc
 50
270.0
 51
0.0
1001
ACAD
1000
RTLwPs
1070
   128
  0
LINE
  5
50AE
100
AcDbEntity
  8
MSL-115-R32-S-3A
100
AcDbLine
 10
902.381534
 20
223.712167
 30
0.0
 11
897.731534
 21
223.712167
 31
0.0
1001
ACAD
1000
RTLwPs
1070
   128
  0
ARC
  5
50AF
100
AcDbEntity
  8
MSL-115-R32-S-3A
100
AcDbCircle
 10
897.731534
 20
223.512167
 30
0.0
 40
0.2
100
AcDbArc
 50
90.0
 51
180.0
1001
ACAD
1000
RTLwPs
1070
   128
  0
LINE
  5
50B0
100
AcDbEntity
  8
MSL-115-R32-S-3A
100
AcDbLine
 10
897.531534
 20
223.512167
 30
0.0
 11
897.531534
 21
219.911888
 31
0.0
1001
ACAD
1000
RTLwPs
1070
   128
  0
LINE
  5
50B2
100
AcDbEntity
  8
MSL-115-R32-S-3A
100
AcDbLine
 10
893.373389
 20
232.257219
 30
0.0
 11
898.948691
 21
232.257219
 31
0.0
1001
ACAD
1000
RTLwPs
1070
   128
  0
ARC
  5
50B3
100
AcDbEntity
  8
MSL-115-R32-S-3A
100
AcDbCircle
 10
886.116652
 20
232.057219
 30
0.0
 40
0.2
100
AcDbArc
 50
90.0
 51
135.0
1001
ACAD
1000
RTLwPs
1070
   128
  0
LINE
  5
50B4
100
AcDbEntity
  8
MSL-115-R32-S-3A
100
AcDbLine
 10
886.116652
 20
232.257219
 30
0.0
 11
891.693179
 21
232.257219
 31
0.0
1001
ACAD
1000
RTLwPs
1070
   128
  0
ARC
  5
50B5
100
AcDbEntity
  8
MSL-115-R32-S-3A
100
AcDbCircle
 10
891.693179
 20
232.457219
 30
0.0
 40
0.2
100
AcDbArc
 50
270.0
 51
299.999999
1001
ACAD
1000
RTLwPs
1070
   128
  0
LINE
  5
50B6
100
AcDbEntity
  8
MSL-115-R32-S-3A
100
AcDbLine
 10
891.793179
 20
232.284014
 30
0.0
 11
892.43281
 21
232.653305
 31
0.0
1001
ACAD
1000
RTLwPs
1070
   128
  0
ARC
  5
50B7
100
AcDbEntity
  8
MSL-115-R32-S-3A
100
AcDbCircle
 10
892.53281
 20
232.4801
 30
0.0
 40
0.2
100
AcDbArc
 50
60.036737
 51
119.99999
1001
ACAD
1000
RTLwPs
1070
   128
  0
LINE
  5
50B8
100
AcDbEntity
  8
MSL-115-R32-S-3A
100
AcDbLine
 10
892.632699
 20
232.653369
 30
0.0
 11
893.2735
 21
232.28395
 31
0.0
1001
ACAD
1000
RTLwPs
1070
   128
  0
ARC
  5
50B9
100
AcDbEntity
  8
MSL-115-R32-S-3A
100
AcDbCircle
 10
893.373389
 20
232.457219
 30
0.0
 40
0.2
100
AcDbArc
 50
240.036729
 51
270.0
1001
ACAD
1000
RTLwPs
1070
   128
  0
ARC
  5
50BA
100
AcDbEntity
  8
MSL-115-R32-S-3A
100
AcDbCircle
 10
898.948691
 20
232.057219
 30
0.0
 40
0.2
100
AcDbArc
 50
45.0
 51
90.0
1001
ACAD
1000
RTLwPs
1070
   128
  0
LINE
  5
5166
100
AcDbEntity
  8
MSL-115-R32-S-3A
100
AcDbLine
 10
999.381534
 20
223.711609
 30
0.0
 11
994.731534
 21
223.711609
 31
0.0
1001
ACAD
1000
RTLwPs
1070
   128
  0
LINE
  5
5167
100
AcDbEntity
  8
MSL-115-R32-S-3A
100
AcDbLine
 10
996.090112
 20
232.19864
 30
0.0
 11
999.522955
 21
228.765797
 31
0.0
1001
ACAD
1000
RTLwPs
1070
   128
  0
LINE
  5
5169
100
AcDbEntity
  8
MSL-115-R32-S-3A
100
AcDbLine
 10
979.542388
 20
228.765797
 30
0.0
 11
982.975231
 21
232.19864
 31
0.0
1001
ACAD
1000
RTLwPs
1070
   128
  0
LINE
  5
516A
100
AcDbEntity
  8
MSL-115-R32-S-3A
100
AcDbLine
 10
984.53381
 20
219.911888
 30
0.0
 11
984.53381
 21
223.512167
 31
0.0
1001
ACAD
1000
RTLwPs
1070
   128
  0
ARC
  5
516B
100
AcDbEntity
  8
MSL-115-R32-S-3A
100
AcDbCircle
 10
984.33381
 20
223.512167
 30
0.0
 40
0.2
100
AcDbArc
 50
0.0
 51
90.0
1001
ACAD
1000
RTLwPs
1070
   128
  0
LINE
  5
516C
100
AcDbEntity
  8
MSL-115-R32-S-3A
100
AcDbLine
 10
984.33381
 20
223.712167
 30
0.0
 11
979.68381
 21
223.712167
 31
0.0
1001
ACAD
1000
RTLwPs
1070
   128
  0
ARC
  5
516D
100
AcDbEntity
  8
MSL-115-R32-S-3A
100
AcDbCircle
 10
979.68381
 20
223.912167
 30
0.0
 40
0.2
100
AcDbArc
 50
180.0
 51
270.0
1001
ACAD
1000
RTLwPs
1070
   128
  0
LINE
  5
516E
100
AcDbEntity
  8
MSL-115-R32-S-3A
100
AcDbLine
 10
979.48381
 20
223.912167
 30
0.0
 11
979.48381
 21
228.624376
 31
0.0
1001
ACAD
1000
RTLwPs
1070
   128
  0
ARC
  5
516F
100
AcDbEntity
  8
MSL-115-R32-S-3A
100
AcDbCircle
 10
979.68381
 20
228.624376
 30
0.0
 40
0.2
100
AcDbArc
 50
135.0
 51
180.0
1001
ACAD
1000
RTLwPs
1070
   128
  0
LINE
  5
5171
100
AcDbEntity
  8
MSL-115-R32-S-3A
100
AcDbLine
 10
994.531534
 20
223.511609
 30
0.0
 11
994.531534
 21
219.911888
 31
0.0
1001
ACAD
1000
RTLwPs
1070
   128
  0
ARC
  5
5172
100
AcDbEntity
  8
MSL-115-R32-S-3A
100
AcDbCircle
 10
994.731534
 20
223.511609
 30
0.0
 40
0.2
100
AcDbArc
 50
90.0
 51
180.0
1001
ACAD
1000
RTLwPs
1070
   128
  0
LINE
  5
5174
100
AcDbEntity
  8
MSL-115-R32-S-3A
100
AcDbLine
 10
983.116652
 20
232.257219
 30
0.0
 11
988.691955
 21
232.257219
 31
0.0
1001
ACAD
1000
RTLwPs
1070
   128
  0
ARC
  5
5175
100
AcDbEntity
  8
MSL-115-R32-S-3A
100
AcDbCircle
 10
983.116652
 20
232.057219
 30
0.0
 40
0.2
100
AcDbArc
 50
90.0
 51
135.0
1001
ACAD
1000
RTLwPs
1070
   128
  0
ARC
  5
5176
100
AcDbEntity
  8
MSL-115-R32-S-3A
100
AcDbCircle
 10
988.691955
 20
232.457219
 30
0.0
 40
0.2
100
AcDbArc
 50
270.0
 51
299.963263
1001
ACAD
1000
RTLwPs
1070
   128
  0
LINE
  5
5177
100
AcDbEntity
  8
MSL-115-R32-S-3A
100
AcDbLine
 10
988.791844
 20
232.28395
 30
0.0
 11
989.432645
 21
232.653369
 31
0.0
1001
ACAD
1000
RTLwPs
1070
   128
  0
LINE
  5
5178
100
AcDbEntity
  8
MSL-115-R32-S-3A
100
AcDbLine
 10
990.372165
 20
232.257219
 30
0.0
 11
995.948691
 21
232.257219
 31
0.0
1001
ACAD
1000
RTLwPs
1070
   128
  0
ARC
  5
5179
100
AcDbEntity
  8
MSL-115-R32-S-3A
100
AcDbCircle
 10
995.948691
 20
232.057219
 30
0.0
 40
0.2
100
AcDbArc
 50
45.0
 51
90.0
1001
ACAD
1000
RTLwPs
1070
   128
  0
ARC
  5
517A
100
AcDbEntity
  8
MSL-115-R32-S-3A
100
AcDbCircle
 10
989.532534
 20
232.4801
 30
0.0
 40
0.2
100
AcDbArc
 50
60.000001
 51
119.963263
1001
ACAD
1000
RTLwPs
1070
   128
  0
LINE
  5
517B
100
AcDbEntity
  8
MSL-115-R32-S-3A
100
AcDbLine
 10
989.632534
 20
232.653305
 30
0.0
 11
990.272165
 21
232.284014
 31
0.0
1001
ACAD
1000
RTLwPs
1070
   128
  0
ARC
  5
517C
100
AcDbEntity
  8
MSL-115-R32-S-3A
100
AcDbCircle
 10
990.372165
 20
232.457219
 30
0.0
 40
0.2
100
AcDbArc
 50
240.000001
 51
270.0
1001
ACAD
1000
RTLwPs
1070
   128
  0
LINE
  5
517E
100
AcDbEntity
  8
MSL-115-R32-S-3A
100
AcDbLine
 10
999.581534
 20
228.624376
 30
0.0
 11
999.581534
 21
223.911609
 31
0.0
1001
ACAD
1000
RTLwPs
1070
   128
  0
ARC
  5
517F
100
AcDbEntity
  8
MSL-115-R32-S-3A
100
AcDbCircle
 10
999.381534
 20
223.911609
 30
0.0
 40
0.2
100
AcDbArc
 50
270.0
 51
0.0
1001
ACAD
1000
RTLwPs
1070
   128
  0
ARC
  5
5180
100
AcDbEntity
  8
MSL-115-R32-S-3A
100
AcDbCircle
 10
999.381534
 20
228.624376
 30
0.0
 40
0.2
100
AcDbArc
 50
0.0
 51
45.0
1001
ACAD
1000
RTLwPs
1070
   128
  0
MTEXT
  5
51E8
100
AcDbEntity
  8
MSL-115-P40-S-6
100
AcDbMText
 10
415.303075
 20
245.174836
 30
0.0
 40
7.0
 41
147.543
 71
     1
 72
     5
  1
MSL 115-P40-S-100
1001
ACAD
1000
MTEXTBEGIN
1070
    73
1070
     1
1070
    44
1040
1.0
1070
    74
1070
     0
1000
MTEXTEND
  0
ENDSEC
  0
SECTION
  2
OBJECTS
  0
DICTIONARY
  5
C
102
{ACAD_XDICTIONARY
360
54A4
102
}
100
AcDbDictionary
  3
ACAD_GROUP
350
D
  3
ACAD_LAYOUT
350
51F3
  3
ACAD_MLINESTYLE
350
E
  3
ACAD_PLOTSETTINGS
350
51F4
  3
ACAD_PLOTSTYLENAME
350
51F1
  3
ACDBHEADERROUNDTRIPXREC
350
5484
  3
ACDBVARIABLEDICTIONARY
350
5227
  3
ACGREF_MASTER
350
5234
  3
ACGREFACAD_MASTER
350
5237
  3
ACMDICTIONARY
350
5239
  3
AMG
350
51FA
  3
AMGSNAPSETTINGS
350
52BE
  3
AMI_MASTER
350
5238
  3
DWGPROPS
350
523C
  0
DICTIONARY
  5
5482
100
AcDbDictionary
280
     1
  3
ACAD_XREC_ROUNDTRIP
360
5483
  0
DICTIONARY
  5
547A
100
AcDbDictionary
280
     1
  3
ACAD_XREC_ROUNDTRIP
360
547B
  0
DICTIONARY
  5
547C
100
AcDbDictionary
280
     1
  3
ACAD_XREC_ROUNDTRIP
360
547D
  0
DICTIONARY
  5
547E
100
AcDbDictionary
280
     1
  3
ACAD_XREC_ROUNDTRIP
360
547F
  0
DICTIONARY
  5
5480
100
AcDbDictionary
280
     1
  3
ACAD_XREC_ROUNDTRIP
360
5481
  0
DICTIONARY
  5
54A9
100
AcDbDictionary
280
     1
  3
ACAD_XREC_ROUNDTRIP
360
54AA
  0
DICTIONARY
  5
54AB
100
AcDbDictionary
280
     1
  3
ACAD_XREC_ROUNDTRIP
360
54AC
  0
DICTIONARY
  5
54AD
100
AcDbDictionary
280
     1
  3
ACAD_XREC_ROUNDTRIP
360
54AE
  0
DICTIONARY
  5
5478
100
AcDbDictionary
280
     1
  3
ACAD_XREC_ROUNDTRIP
360
5479
  0
DICTIONARY
  5
54BB
100
AcDbDictionary
280
     1
  3
ACAD_XREC_ROUNDTRIP
360
54BC
  0
DICTIONARY
  5
5476
100
AcDbDictionary
280
     1
  3
ACAD_XREC_ROUNDTRIP
360
5477
  0
DICTIONARY
  5
54BE
100
AcDbDictionary
280
     1
  3
ACAD_XREC_ROUNDTRIP
360
54BF
  0
DICTIONARY
  5
54C0
100
AcDbDictionary
280
     1
  3
ACAD_XREC_ROUNDTRIP
360
54C1
  0
DICTIONARY
  5
54C2
100
AcDbDictionary
280
     1
  3
ACAD_XREC_ROUNDTRIP
360
54C3
  0
DICTIONARY
  5
54C4
100
AcDbDictionary
280
     1
  3
ACAD_XREC_ROUNDTRIP
360
54C5
  0
DICTIONARY
  5
54C6
100
AcDbDictionary
280
     1
  3
ACAD_XREC_ROUNDTRIP
360
54C7
  0
DICTIONARY
  5
54C8
100
AcDbDictionary
280
     1
  3
ACAD_XREC_ROUNDTRIP
360
54C9
  0
DICTIONARY
  5
54CA
100
AcDbDictionary
280
     1
  3
ACAD_XREC_ROUNDTRIP
360
54CB
  0
DICTIONARY
  5
546A
100
AcDbDictionary
280
     1
  3
ACAD_INDEX
360
546B
  3
ACAD_LAYOUTSELFREF
360
54A8
  0
DICTIONARY
  5
54A6
100
AcDbDictionary
280
     1
  3
ACAD_LAYOUTSELFREF
360
54A7
  0
DICTIONARY
  5
54A4
100
AcDbDictionary
280
     1
  3
ACAD_XREC_ROUNDTRIP
360
54A5
  0
DICTIONARY
  5
D
102
{ACAD_REACTORS
330
C
102
}
100
AcDbDictionary
  0
DICTIONARY
  5
51F3
102
{ACAD_XDICTIONARY
360
54AF
102
}
102
{ACAD_REACTORS
330
C
102
}
100
AcDbDictionary
  3
LAYOUT1
350
51F6
  3
MODEL
350
51F5
  0
DICTIONARY
  5
E
102
{ACAD_REACTORS
330
C
102
}
100
AcDbDictionary
  3
STANDARD
350
1B
  0
DICTIONARY
  5
51F4
102
{ACAD_REACTORS
330
C
102
}
100
AcDbDictionary
  0
ACAD_PROXY_OBJECT
  5
51F1
102
{ACAD_REACTORS
330
C
102
}
100
AcDbProxyObject
 90
      499
 91
      503
 93
       86
310
405010041939BDC9B585B0
350
51F2
340
51F2
 94
        0
  0
DICTIONARY
  5
5484
102
{ACAD_REACTORS
330
C
102
}
100
AcDbDictionary
  3
CEPSNTYPE
350
548E
  3
FINGERPRINTGUID
350
548F
  3
HYPERLINKBASE
350
5487
  3
INSUNITS
350
548D
  3
LAYOUTDICT
350
5489
  3
LWETCUNION
350
548C
  3
PLOTSETDICT
350
548A
  3
PLOTSTYLNAMDICT
350
548B
  3
PSVPSCALE
350
5491
  3
PUCSBASE
350
5494
  3
PUCSORGBACK
350
549A
  3
PUCSORGBOTTOM
350
5496
  3
PUCSORGFRONT
350
5499
  3
PUCSORGLEFT
350
5497
  3
PUCSORGRIGHT
350
5498
  3
PUCSORGTOP
350
5495
  3
PUCSORTHOREF
350
5492
  3
PUCSORTHOVIEW
350
5493
  3
STYLESHEET
350
5488
  3
TSTACKALIGN
350
5485
  3
TSTACKSIZE
350
5486
  3
UCSBASE
350
549D
  3
UCSORGBACK
350
54A3
  3
UCSORGBOTTOM
350
549F
  3
UCSORGFRONT
350
54A2
  3
UCSORGLEFT
350
54A0
  3
UCSORGRIGHT
350
54A1
  3
UCSORGTOP
350
549E
  3
UCSORTHOREF
350
549B
  3
UCSORTHOVIEW
350
549C
  3
VERSIONGUID
350
5490
  0
DICTIONARY
  5
5227
102
{ACAD_REACTORS
330
C
102
}
100
AcDbDictionary
  3
INDEXCTL
350
5228
  0
ACAD_PROXY_OBJECT
  5
5234
102
{ACAD_REACTORS
330
C
102
}
100
AcDbProxyObject
 90
      499
 91
      521
 93
       34
310
0400004283
 94
        0
  0
ACAD_PROXY_OBJECT
  5
5237
102
{ACAD_REACTORS
330
C
102
}
100
AcDbProxyObject
 90
      499
 91
      524
 93
      114
310
04000041C000000000000000000000
 94
        0
  0
DICTIONARY
  5
5239
102
{ACAD_XDICTIONARY
360
54B7
102
}
102
{ACAD_REACTORS
330
C
102
}
100
AcDbDictionary
  3
ACMSTDDICTIONARY
350
523E
  0
DICTIONARY
  5
51FA
102
{ACAD_XDICTIONARY
360
54B1
102
}
102
{ACAD_REACTORS
330
C
102
}
100
AcDbDictionary
  3
ACMGSETTINGS
350
51FB
  0
DICTIONARY
  5
52BE
102
{ACAD_XDICTIONARY
360
54CC
102
}
102
{ACAD_REACTORS
330
C
102
}
100
AcDbDictionary
  0
ACAD_PROXY_OBJECT
  5
5238
102
{ACAD_REACTORS
330
C
102
}
100
AcDbProxyObject
 90
      499
 91
      525
 93
       34
310
0500004280
 94
        0
  0
XRECORD
  5
523C
102
{ACAD_REACTORS
330
C
102
}
100
AcDbXrecord
  1
DWGPROPS COOKIE
  2

  3

  4

  6

  7

  8

  9

300
AmdtFileType=84
301
=
302
=
303
=
304
=
305
=
306
=
307
=
308
=
309
=
 40
0.20553
 41
2452401.714449
 42
2452452.421697
  1

 90
        1
  0
XRECORD
  5
5483
102
{ACAD_REACTORS
330
5482
102
}
100
AcDbXrecord
102
EXTNAMES
  1
*ACTIVE
  2
*Active
102
UCS
 74
     0
 71
     1
 10
0.0
 20
0.0
 30
0.0
 10
1.0
 20
0.0
 30
0.0
 10
0.0
 20
1.0
 30
0.0
146
0.0
 79
     0
102
VIEW
281
     0
  0
XRECORD
  5
547B
102
{ACAD_REACTORS
330
547A
102
}
100
AcDbXrecord
102
EXTNAMES
  1
AMCONSTR
  2
Amconstr
  0
XRECORD
  5
547D
102
{ACAD_REACTORS
330
547C
102
}
100
AcDbXrecord
102
EXTNAMES
  1
AM_ISO02W050X2
  2
AM_ISO02W050x2
  0
XRECORD
  5
547F
102
{ACAD_REACTORS
330
547E
102
}
100
AcDbXrecord
102
EXTNAMES
  1
AM_ISO08W050X2
  2
AM_ISO08W050x2
  0
XRECORD
  5
5481
102
{ACAD_REACTORS
330
5480
102
}
100
AcDbXrecord
102
EXTNAMES
  1
AMZIGZAG
  2
Amzigzag
  0
XRECORD
  5
54AA
102
{ACAD_REACTORS
330
54A9
102
}
100
AcDbXrecord
102
LINEWEIGHT
280
    11
  0
XRECORD
  5
54AC
102
{ACAD_REACTORS
330
54AB
102
}
100
AcDbXrecord
102
LINEWEIGHT
280
     7
  0
XRECORD
  5
54AE
102
{ACAD_REACTORS
330
54AD
102
}
100
AcDbXrecord
102
LINEWEIGHT
280
     7
  0
XRECORD
  5
5479
102
{ACAD_REACTORS
330
5478
102
}
100
AcDbXrecord
102
EXTNAMES
  1
DEFPOINTS
  2
Defpoints
102
PLOTBIT
280
     0
  0
XRECORD
  5
54BC
102
{ACAD_REACTORS
330
54BB
102
}
100
AcDbXrecord
102
LINEWEIGHT
280
    11
  0
XRECORD
  5
5477
102
{ACAD_REACTORS
330
5476
102
}
100
AcDbXrecord
102
EXTNAMES
  1
MASSBLATT
  2
Massblatt
102
ACADR14ROUNDTRIP
1000
DSTYLE
1002
{
1070
    79
 70
     2
1070
   371
 70
    -1
1070
   372
 70
    -1
1002
}
  0
XRECORD
  5
54BF
102
{ACAD_REACTORS
330
54BE
102
}
100
AcDbXrecord
102
ACADR14ROUNDTRIP
1000
DSTYLE
1002
{
1070
    79
 70
     2
1070
   371
 70
    -1
1070
   372
 70
    -1
1002
}
  0
XRECORD
  5
54C1
102
{ACAD_REACTORS
330
54C0
102
}
100
AcDbXrecord
102
ACADR14ROUNDTRIP
1000
DSTYLE
1002
{
1070
    79
 70
     2
1070
   289
 70
     0
1070
   371
 70
    -1
1070
   372
 70
    -1
1002
}
  0
XRECORD
  5
54C3
102
{ACAD_REACTORS
330
54C2
102
}
100
AcDbXrecord
102
ACADR14ROUNDTRIP
1000
DSTYLE
1002
{
1070
    79
 70
     2
1070
   371
 70
    -1
1070
   372
 70
    -1
1002
}
  0
XRECORD
  5
54C5
102
{ACAD_REACTORS
330
54C4
102
}
100
AcDbXrecord
102
ACADR14ROUNDTRIP
1000
DSTYLE
1002
{
1070
    79
 70
     2
1070
   371
 70
    -1
1070
   372
 70
    -1
1002
}
  0
XRECORD
  5
54C7
102
{ACAD_REACTORS
330
54C6
102
}
100
AcDbXrecord
102
ACADR14ROUNDTRIP
1000
DSTYLE
1002
{
1070
    79
 70
     2
1070
   371
 70
    -1
1070
   372
 70
    -1
1002
}
  0
XRECORD
  5
54C9
102
{ACAD_REACTORS
330
54C8
102
}
100
AcDbXrecord
102
ACADR14ROUNDTRIP
1000
DSTYLE
1002
{
1070
    79
 70
     2
1070
   371
 70
    -1
1070
   372
 70
    -1
1002
}
  0
XRECORD
  5
54CB
102
{ACAD_REACTORS
330
54CA
102
}
100
AcDbXrecord
102
ACADR14ROUNDTRIP
1000
DSTYLE
1002
{
1070
    79
 70
     2
1070
   343
340
52AE
1070
   371
 70
    -1
1070
   372
 70
    -1
1002
}
  0
DICTIONARY
  5
546B
102
{ACAD_REACTORS
330
546A
102
}
100
AcDbDictionary
  3
*A1
350
546C
  0
XRECORD
  5
54A8
102
{ACAD_REACTORS
330
546A
102
}
100
AcDbXrecord
340
18
  0
XRECORD
  5
54A7
102
{ACAD_REACTORS
330
54A6
102
}
100
AcDbXrecord
340
15
  0
XRECORD
  5
54A5
102
{ACAD_REACTORS
330
54A4
102
}
100
AcDbXrecord
102
EXTNAMES
  1
ACDBVARIABLEDICTIONARY
  2
AcDbVariableDictionary
  1
ACMDICTIONARY
  2
AcmDictionary
  1
ACMESYSVARMANAGER
  2
AcmeSysVarManager
  1
ACMSYSTEMVARIABLEMANAGER
  2
AcmSystemVariableManager
  0
DICTIONARY
  5
54AF
100
AcDbDictionary
280
     1
  3
ACAD_XREC_ROUNDTRIP
360
54B0
  0
ACAD_PROXY_OBJECT
  5
51F6
102
{ACAD_REACTORS
330
51F3
102
}
100
AcDbProxyObject
 90
      499
 91
      505
 93
     1068
310
90F4850204C617365724A657420344D562C00AAAAAA416AA5429B1D5D1E97CC4B98DD1891069074C61796F75743140501A800000000000000000000000000000000000000000101E900000000000241C902A6A6A10232D5E076BC5510408CB5781DAF154410232D5E076BC5510408CB5781DAF15C410232D5E076BC5710408
310
CB5781DAF15C40
330
15
330
0
340
0
340
0
 94
        0
  0
ACAD_PROXY_OBJECT
  5
51F5
102
{ACAD_REACTORS
330
51F3
102
}
100
AcDbProxyObject
 90
      499
 91
      505
 93
      644
310
90F4850204C617365724A657420344D562C01AAAAAAAAA5429B1D5D1E97CC4B98DD18A69054D6F64656C901A800000000000000000000000000000000000000000000A1000000000000008902A6A6AAAA0
330
18
330
0
340
0
340
0
 94
        0
  0
MLINESTYLE
  5
1B
102
{ACAD_REACTORS
330
E
102
}
100
AcDbMlineStyle
  2
STANDARD
 70
     0
  3

 62
     0
 51
90.0
 52
90.0
 71
     2
 49
0.5
 62
   256
  6
BYLAYER
 49
-0.5
 62
   256
  6
BYLAYER
  0
ACAD_PROXY_OBJECT
  5
51F2
102
{ACAD_REACTORS
330
51F1
102
}
100
AcDbProxyObject
 90
      499
 91
      504
 93
        0
 94
        0
  0
XRECORD
  5
548E
102
{ACAD_REACTORS
330
5484
102
}
100
AcDbXrecord
 90
        0
  0
XRECORD
  5
548F
102
{ACAD_REACTORS
330
5484
102
}
100
AcDbXrecord
  1
{084A69AF-6667-4508-B94E-7F26CC5D2D80}
  0
XRECORD
  5
5487
102
{ACAD_REACTORS
330
5484
102
}
100
AcDbXrecord
  1

  0
XRECORD
  5
548D
102
{ACAD_REACTORS
330
5484
102
}
100
AcDbXrecord
 90
        0
  0
XRECORD
  5
5489
102
{ACAD_REACTORS
330
5484
102
}
100
AcDbXrecord
340
51F3
  0
XRECORD
  5
548C
102
{ACAD_REACTORS
330
5484
102
}
100
AcDbXrecord
 90
    14877
  0
XRECORD
  5
548A
102
{ACAD_REACTORS
330
5484
102
}
100
AcDbXrecord
340
51F4
  0
XRECORD
  5
548B
102
{ACAD_REACTORS
330
5484
102
}
100
AcDbXrecord
340
51F1
  0
XRECORD
  5
5491
102
{ACAD_REACTORS
330
5484
102
}
100
AcDbXrecord
 40
0.0
  0
XRECORD
  5
5494
102
{ACAD_REACTORS
330
5484
102
}
100
AcDbXrecord
340
0
  0
XRECORD
  5
549A
102
{ACAD_REACTORS
330
5484
102
}
100
AcDbXrecord
 10
0.0
 20
0.0
 30
0.0
  0
XRECORD
  5
5496
102
{ACAD_REACTORS
330
5484
102
}
100
AcDbXrecord
 10
0.0
 20
0.0
 30
0.0
  0
XRECORD
  5
5499
102
{ACAD_REACTORS
330
5484
102
}
100
AcDbXrecord
 10
0.0
 20
0.0
 30
0.0
  0
XRECORD
  5
5497
102
{ACAD_REACTORS
330
5484
102
}
100
AcDbXrecord
 10
0.0
 20
0.0
 30
0.0
  0
XRECORD
  5
5498
102
{ACAD_REACTORS
330
5484
102
}
100
AcDbXrecord
 10
0.0
 20
0.0
 30
0.0
  0
XRECORD
  5
5495
102
{ACAD_REACTORS
330
5484
102
}
100
AcDbXrecord
 10
0.0
 20
0.0
 30
0.0
  0
XRECORD
  5
5492
102
{ACAD_REACTORS
330
5484
102
}
100
AcDbXrecord
340
0
  0
XRECORD
  5
5493
102
{ACAD_REACTORS
330
5484
102
}
100
AcDbXrecord
 70
     0
  0
XRECORD
  5
5488
102
{ACAD_REACTORS
330
5484
102
}
100
AcDbXrecord
  1

  0
XRECORD
  5
5485
102
{ACAD_REACTORS
330
5484
102
}
100
AcDbXrecord
 90
        1
  0
XRECORD
  5
5486
102
{ACAD_REACTORS
330
5484
102
}
100
AcDbXrecord
 90
       70
  0
XRECORD
  5
549D
102
{ACAD_REACTORS
330
5484
102
}
100
AcDbXrecord
340
0
  0
XRECORD
  5
54A3
102
{ACAD_REACTORS
330
5484
102
}
100
AcDbXrecord
 10
0.0
 20
0.0
 30
0.0
  0
XRECORD
  5
549F
102
{ACAD_REACTORS
330
5484
102
}
100
AcDbXrecord
 10
0.0
 20
0.0
 30
0.0
  0
XRECORD
  5
54A2
102
{ACAD_REACTORS
330
5484
102
}
100
AcDbXrecord
 10
0.0
 20
0.0
 30
0.0
  0
XRECORD
  5
54A0
102
{ACAD_REACTORS
330
5484
102
}
100
AcDbXrecord
 10
0.0
 20
0.0
 30
0.0
  0
XRECORD
  5
54A1
102
{ACAD_REACTORS
330
5484
102
}
100
AcDbXrecord
 10
0.0
 20
0.0
 30
0.0
  0
XRECORD
  5
549E
102
{ACAD_REACTORS
330
5484
102
}
100
AcDbXrecord
 10
0.0
 20
0.0
 30
0.0
  0
XRECORD
  5
549B
102
{ACAD_REACTORS
330
5484
102
}
100
AcDbXrecord
340
0
  0
XRECORD
  5
549C
102
{ACAD_REACTORS
330
5484
102
}
100
AcDbXrecord
 70
     0
  0
XRECORD
  5
5490
102
{ACAD_REACTORS
330
5484
102
}
100
AcDbXrecord
  1
{C29FCBBA-B38C-46A4-81A1-540ECB2DF7A2}
  0
DICTIONARYVAR
  5
5228
102
{ACAD_REACTORS
330
5227
102
}
100
DictionaryVariables
280
     0
  1
1
  0
DICTIONARY
  5
54B7
100
AcDbDictionary
280
     1
  3
ACAD_XREC_ROUNDTRIP
360
54B8
  0
DICTIONARY
  5
523E
102
{ACAD_REACTORS
330
5239
102
}
100
AcDbDictionary
  0
DICTIONARY
  5
54B1
100
AcDbDictionary
280
     1
  3
ACAD_XREC_ROUNDTRIP
360
54B2
  0
DICTIONARY
  5
51FB
102
{ACAD_REACTORS
330
51FA
102
}
100
AcDbDictionary
  3
DWGSETTINGS
350
5215
  0
DICTIONARY
  5
54CC
100
AcDbDictionary
280
     1
  3
ACAD_XREC_ROUNDTRIP
360
54CD
  0
LAYER_INDEX
  5
546C
102
{ACAD_REACTORS
330
546B
102
}
100
AcDbIndex
 40
2452912.323296863
100
AcDbLayerIndex
  8
0
360
546D
 90
     0
  8
MSL-115-P40-S-0
360
546E
 90
   857
  8
MSL-115-P40-S-5
360
546F
 90
    57
  8
MSL-115-P40-S-7
360
5470
 90
    51
  8
MSL-115-R32-S-3A
360
5471
 90
    46
  8
MSL-115-P40-S-6
360
5472
 90
     1
  8
Defpoints
360
5473
 90
     0
  8
AM_BOR
360
5474
 90
     0
  0
XRECORD
  5
54B0
102
{ACAD_REACTORS
330
54AF
102
}
100
AcDbXrecord
102
EXTNAMES
  1
LAYOUT1
  2
Layout1
  1
MODEL
  2
Model
  0
XRECORD
  5
54B8
102
{ACAD_REACTORS
330
54B7
102
}
100
AcDbXrecord
102
EXTNAMES
  1
ACMBOMDATA
  2
AcmBOMDATA
  1
ACMSTDDICTIONARY
  2
AcmStdDictionary
  0
XRECORD
  5
54B2
102
{ACAD_REACTORS
330
54B1
102
}
100
AcDbXrecord
102
EXTNAMES
  1
ACMGSETTINGS
  2
AcMgSettings
  0
XRECORD
  5
5215
102
{ACAD_REACTORS
330
51FB
102
}
100
AcDbXrecord
  1
VERSION
140
15.0
  1
PRODUCT
  2
AutoCAD Mechanical 2000
  0
XRECORD
  5
54CD
102
{ACAD_REACTORS
330
54CC
102
}
100
AcDbXrecord
102
EXTNAMES
  1
HATCH__1_
  2
HATCH (1)
  1
HATCH__2_
  2
HATCH (2)
  0
IDBUFFER
  5
546D
100
AcDbIdBuffer
  0
IDBUFFER
  5
546E
100
AcDbIdBuffer
330
4167
330
4169
330
416A
330
416B
330
416C
330
416D
330
416E
330
416F
330
4170
330
4171
330
4172
330
4173
330
4174
330
4175
330
4176
330
417A
330
417B
330
417C
330
417D
330
417E
330
417F
330
4185
330
4189
330
418A
330
418B
330
418C
330
418D
330
418F
330
4190
330
419A
330
419B
330
419F
330
41A3
330
41A4
330
41A5
330
41A6
330
41A7
330
41A8
330
41A9
330
41AA
330
41AB
330
41AC
330
41AE
330
41AF
330
41B0
330
41B1
330
41B2
330
41B3
330
41B7
330
41B8
330
41B9
330
41BA
330
41BB
330
41BC
330
41BD
330
41BE
330
41BF
330
41C0
330
41C1
330
41C2
330
41C3
330
41C4
330
41C5
330
41C6
330
41C7
330
41C8
330
41C9
330
41CC
330
41CD
330
41CE
330
41CF
330
41D0
330
41D1
330
41D2
330
41D3
330
41D4
330
41D5
330
41D6
330
41D7
330
41D8
330
41D9
330
41DA
330
41DB
330
41DC
330
41DD
330
41DE
330
41DF
330
41E0
330
41E1
330
41E2
330
41E3
330
41E4
330
41E5
330
41E6
330
41E7
330
41EC
330
41ED
330
41EE
330
41EF
330
41F0
330
41F1
330
41F2
330
41F4
330
41F5
330
41F6
330
41F7
330
41F8
330
41FE
330
41FF
330
4200
330
4201
330
4202
330
4203
330
4204
330
4205
330
4206
330
4207
330
420D
330
420E
330
4214
330
4215
330
4216
330
4217
330
421B
330
421C
330
421D
330
421E
330
421F
330
4220
330
4221
330
4222
330
4223
330
4224
330
4225
330
4226
330
4228
330
4229
330
422A
330
422B
330
4230
330
4233
330
4237
330
4238
330
4239
330
423A
330
423B
330
423C
330
423D
330
423E
330
423F
330
4240
330
4241
330
4242
330
4244
330
4247
330
424D
330
4252
330
4258
330
425B
330
425F
330
4261
330
4265
330
4269
330
426A
330
426B
330
426C
330
426D
330
426E
330
426F
330
4270
330
4271
330
4272
330
4277
330
4279
330
427A
330
427B
330
427C
330
427D
330
427E
330
427F
330
4280
330
4281
330
4282
330
4283
330
4287
330
4288
330
4289
330
428D
330
428E
330
428F
330
4290
330
4291
330
4292
330
4293
330
4294
330
4295
330
4296
330
4298
330
4299
330
429A
330
429B
330
429C
330
429D
330
429E
330
42A2
330
42A8
330
42A9
330
42AD
330
42B6
330
42BC
330
42BD
330
42BE
330
42BF
330
42C0
330
42C1
330
42C2
330
42C3
330
42C4
330
42C5
330
42C6
330
42C7
330
42C8
330
42C9
330
42CC
330
42CD
330
42CE
330
42CF
330
42D0
330
42D1
330
42D2
330
42D3
330
42D4
330
42D5
330
42D6
330
42D7
330
42D8
330
42D9
330
42DA
330
42DB
330
42DC
330
42DD
330
42DE
330
42DF
330
42E0
330
42E1
330
42E2
330
42E3
330
42E4
330
42E5
330
42E6
330
42E7
330
42E8
330
42E9
330
42EA
330
42EB
330
42EC
330
42ED
330
42EE
330
42EF
330
42F0
330
42F1
330
42F2
330
42F3
330
42F4
330
42F5
330
42F7
330
42F8
330
42FB
330
42FC
330
42FD
330
42FE
330
42FF
330
4300
330
4301
330
4302
330
4303
330
4304
330
4305
330
4306
330
4307
330
4308
330
4309
330
430A
330
430C
330
4310
330
4314
330
431A
330
431E
330
4322
330
4323
330
432C
330
432D
330
432E
330
432F
330
4330
330
4331
330
4337
330
4338
330
4339
330
433F
330
4340
330
4341
330
4342
330
4348
330
4349
330
434C
330
434D
330
434F
330
4350
330
4351
330
4352
330
4354
330
4355
330
4356
330
4357
330
4358
330
435B
330
435C
330
435D
330
435E
330
435F
330
4362
330
4363
330
4365
330
4367
330
4368
330
4369
330
436B
330
436C
330
436D
330
436F
330
4371
330
4373
330
4374
330
4375
330
4376
330
4377
330
4379
330
437A
330
437B
330
437D
330
4CE9
330
4CEA
330
4D4A
330
4D4B
330
4D4C
330
4D4D
330
4D4E
330
4D4F
330
4D50
330
4D51
330
4D52
330
4D53
330
4D54
330
4D55
330
4D56
330
4D57
330
4D58
330
4D59
330
4D5A
330
4D5B
330
3E6E
330
3E6F
330
3E70
330
3E71
330
3E72
330
3E73
330
3E74
330
3E75
330
3E76
330
3E77
330
3E78
330
3E79
330
3E7A
330
3E7B
330
3E7C
330
3E7D
330
3E7E
330
3E7F
330
3E80
330
3E81
330
3E82
330
3E83
330
3E84
330
3E87
330
3E88
330
3E89
330
3E8A
330
3E8B
330
3E8C
330
3E8D
330
3E8E
330
3E8F
330
3E90
330
3E91
330
3E92
330
3E93
330
3E94
330
3E95
330
3E96
330
3E97
330
3E98
330
3E9C
330
3E9D
330
3E9E
330
3E9F
330
3EA0
330
3EA4
330
3EA8
330
3EA9
330
3EAA
330
3EAB
330
3EAC
330
3EAD
330
3EAE
330
3EAF
330
3EB0
330
3EB1
330
3EB2
330
3EB3
330
3EB4
330
3EB5
330
3EB6
330
3EB7
330
3EB8
330
3EB9
330
3EBA
330
3EBB
330
3EBC
330
3EBD
330
3EBE
330
3EBF
330
3EC0
330
3EC1
330
3EC2
330
3EC3
330
3EC4
330
3EC5
330
3EC6
330
3EC7
330
3EC8
330
3EC9
330
3ECA
330
3ECB
330
3ECC
330
3ECD
330
3ECE
330
3ECF
330
3ED0
330
3ED1
330
3ED2
330
3ED3
330
3ED4
330
3ED5
330
3ED6
330
3ED7
330
3ED8
330
3ED9
330
3EDA
330
3EDB
330
3EDC
330
3EDD
330
3EDE
330
3EDF
330
3EE0
330
3EE2
330
3EE3
330
3EE4
330
3EE5
330
3EE6
330
3EE8
330
3EE9
330
3EEA
330
3EEB
330
3EF6
330
3F01
330
3F04
330
3F05
330
3F06
330
3F07
330
3F08
330
3F09
330
3F0C
330
3F0D
330
3F0E
330
3F0F
330
3F10
330
3F11
330
3F12
330
3F13
330
3F14
330
3F15
330
3F16
330
3F17
330
3F18
330
3F19
330
3F1A
330
3F1B
330
3F1C
330
3F1D
330
3F33
330
3F34
330
3F35
330
3F48
330
3F49
330
3F4C
330
3F50
330
3F51
330
3F52
330
3F53
330
3F54
330
3F55
330
3F56
330
3F57
330
3F5A
330
3F5B
330
3F5C
330
3F5D
330
3F5E
330
3F5F
330
3F60
330
3F61
330
3F62
330
3F63
330
3F64
330
3F65
330
3F66
330
3F67
330
3F68
330
3F69
330
3F6A
330
3F6C
330
3F6D
330
3F6E
330
3F6F
330
3F75
330
3F76
330
3F77
330
3F7D
330
3F7E
330
3F7F
330
3F80
330
3F81
330
3F82
330
3F83
330
3F84
330
3F85
330
3F86
330
3F87
330
3F88
330
3F89
330
3F8A
330
3F8B
330
3F8C
330
3F8D
330
3F8E
330
3F8F
330
3F90
330
3F91
330
3F92
330
3F93
330
3F94
330
3F95
330
3F96
330
3F97
330
3F98
330
3F99
330
3F9A
330
3F9B
330
3F9C
330
3F9D
330
3F9E
330
3F9F
330
3FA0
330
3FA7
330
3FA8
330
3FA9
330
3FAA
330
3FAB
330
3FAC
330
3FAD
330
3FAE
330
3FAF
330
3FB1
330
3FB2
330
3FB3
330
3FB4
330
3FB5
330
3FB6
330
3FB7
330
3FB8
330
3FBA
330
3FBB
330
3FBF
330
3FC5
330
3FC6
330
3FC7
330
3FC8
330
3FCC
330
3FCD
330
3FCE
330
3FD2
330
3FD6
330
3FDA
330
3FDE
330
3FE7
330
3FEB
330
3FEF
330
3FF0
330
3FF1
330
3FF2
330
3FF3
330
3FF4
330
3FF5
330
3FF9
330
3FFA
330
3FFB
330
4000
330
4004
330
4008
330
4009
330
400A
330
400B
330
400C
330
400D
330
400E
330
400F
330
4010
330
4011
330
4012
330
4013
330
4014
330
4015
330
401B
330
401C
330
401D
330
401E
330
401F
330
4023
330
4024
330
4025
330
4026
330
4027
330
4028
330
4029
330
402B
330
402C
330
402D
330
402E
330
402F
330
4030
330
4031
330
4032
330
4033
330
4034
330
4035
330
4036
330
4037
330
4038
330
4039
330
403A
330
403B
330
403C
330
403D
330
403E
330
403F
330
4041
330
4042
330
4043
330
4044
330
404A
330
404B
330
404C
330
404D
330
404E
330
404F
330
4050
330
4051
330
4052
330
4053
330
4054
330
4055
330
4056
330
4057
330
4058
330
4059
330
405A
330
405B
330
405C
330
405D
330
405E
330
405F
330
4060
330
4061
330
4062
330
4063
330
4064
330
4065
330
4066
330
4067
330
4068
330
4069
330
406B
330
406E
330
406F
330
4070
330
4071
330
4073
330
4074
330
407A
330
407B
330
407C
330
407D
330
407E
330
407F
330
4080
330
4084
330
4085
330
4086
330
4087
330
4088
330
4089
330
408A
330
408B
330
408C
330
408D
330
408E
330
408F
330
4090
330
4091
330
4092
330
4096
330
409C
330
40A0
330
40A4
330
40A8
330
40AC
330
40AD
330
40AE
330
40B2
330
40B6
330
40BF
330
40C0
330
40C1
330
40C2
330
40C3
330
40C4
330
40C5
330
40C6
330
40C7
330
40C8
330
40C9
330
40CA
330
40CB
330
40CC
330
40CD
330
40CE
330
40CF
330
40D0
330
40D1
330
40D2
330
40D3
330
40D4
330
40D5
330
40D6
330
40D7
330
40D8
330
40D9
330
40DA
330
40DB
330
40DC
330
40DD
330
40DE
330
40DF
330
40E0
330
40E1
330
40E5
330
40EA
330
40F0
330
40F1
330
40F2
330
40F6
330
40FA
330
4105
330
4106
330
4107
330
4109
330
410F
330
4115
330
4116
330
4117
330
4118
330
4119
330
411A
330
411B
330
411C
330
411D
330
411E
330
411F
330
4120
330
4121
330
4122
330
4123
330
4124
330
4125
330
4126
330
4127
330
4128
330
4129
330
412A
330
412B
330
412C
330
412D
330
412E
330
412F
330
4130
330
4131
330
4132
330
4133
330
4134
330
4135
330
4136
330
4137
330
4138
330
4139
330
413A
330
413B
330
413C
330
413D
330
413E
330
413F
330
4140
330
4141
330
4142
330
4143
330
4144
330
4145
330
4146
330
4147
330
4148
330
4152
330
4153
330
4154
330
4155
330
4156
330
4157
330
4158
330
4159
330
415E
330
415F
330
4160
330
4161
330
4162
330
4163
330
4164
330
4165
330
4166
  0
IDBUFFER
  5
546F
100
AcDbIdBuffer
330
434B
330
435A
330
4361
330
4364
330
4366
330
4370
330
4372
330
468D
330
4692
330
3EE1
330
3F6B
330
3FA4
330
3FA5
330
3FA6
330
3FB0
330
3FB9
330
3FFF
330
4022
330
402A
330
4040
330
406A
330
406C
330
406D
330
4072
330
40E9
330
4103
330
4104
330
4168
330
418E
330
4199
330
41AD
330
41CA
330
41CB
330
41EB
330
4218
330
4219
330
422E
330
4232
330
4236
330
4246
330
424C
330
424F
330
4253
330
4257
330
425A
330
425E
330
4264
330
4268
330
4276
330
4297
330
42CA
330
42CB
330
42F6
330
42F9
330
42FA
330
430B
330
434A
  0
IDBUFFER
  5
5470
100
AcDbIdBuffer
330
437C
330
5010
330
5011
330
31DB
330
31DC
330
3E38
330
3E39
330
3E3A
330
3E3B
330
3E3C
330
3E3D
330
3E3E
330
3E3F
330
3E63
330
3E99
330
3EE7
330
3F03
330
3F58
330
4020
330
4021
330
4108
330
4149
330
414A
330
414B
330
415A
330
415B
330
415C
330
415D
330
41F3
330
421A
330
422C
330
422D
330
4231
330
4235
330
4248
330
4249
330
424A
330
4250
330
4251
330
4256
330
4259
330
425D
330
4260
330
4263
330
4266
330
4278
330
434E
330
4353
330
436A
330
436E
330
4378
  0
IDBUFFER
  5
5471
100
AcDbIdBuffer
330
50B4
330
50B5
330
50B6
330
50B7
330
50B8
330
50B9
330
50BA
330
5166
330
5167
330
5169
330
516A
330
516B
330
516C
330
516D
330
516E
330
516F
330
5171
330
5172
330
5174
330
5175
330
5176
330
5177
330
5178
330
5179
330
517A
330
517B
330
517C
330
517E
330
517F
330
5180
330
509C
330
509D
330
50A0
330
50A1
330
50A2
330
50A7
330
50A8
330
50A9
330
50AB
330
50AC
330
50AD
330
50AE
330
50AF
330
50B0
330
50B2
330
50B3
  0
IDBUFFER
  5
5472
100
AcDbIdBuffer
330
51E8
  0
IDBUFFER
  5
5473
100
AcDbIdBuffer
  0
IDBUFFER
  5
5474
100
AcDbIdBuffer
  0
ENDSEC
  0
EOF
