  0
SECTION
  2
HEADER
  9
$ACADVER
  1
AC1015
  9
$ACADMAINTVER
 70
    20
  9
$DWGCODEPAGE
  3
ANSI_1252
  9
$INSBASE
 10
0.0
 20
0.0
 30
0.0
  9
$EXTMIN
 10
-19.47896957348439
 20
-166.1029458713777
 30
-0.00000001
  9
$EXTMAX
 10
636.5185175575755
 20
761.6649287854064
 30
0.00000001
  9
$LIMMIN
 10
0.0
 20
-317.204733
  9
$LIMMAX
 10
593.1901759999999
 20
594.0
  9
$ORTHOMODE
 70
     1
  9
$REGENMODE
 70
     1
  9
$FILLMODE
 70
     1
  9
$QTEXTMODE
 70
     0
  9
$MIRRTEXT
 70
     1
  9
$LTSCALE
 40
2.0
  9
$ATTMODE
 70
     1
  9
$TEXTSIZE
 40
7.0
  9
$TRACEWID
 40
1.0
  9
$TEXTSTYLE
  7
STANDARD
  9
$CLAYER
  8
DEFPOINTS
  9
$CELTYPE
  6
BYLAYER
  9
$CECOLOR
 62
   256
  9
$CELTSCALE
 40
1.0
  9
$DISPSILH
 70
     0
  9
$DIMSCALE
 40
1.0
  9
$DIMASZ
 40
2.0
  9
$DIMEXO
 40
1.0
  9
$DIMDLI
 40
4.0
  9
$DIMRND
 40
0.0
  9
$DIMDLE
 40
0.0
  9
$DIMEXE
 40
0.5
  9
$DIMTP
 40
0.1
  9
$DIMTM
 40
0.1
  9
$DIMTXT
 40
4.0
  9
$DIMCEN
 40
-2.0
  9
$DIMTSZ
 40
0.0
  9
$DIMTOL
 70
     0
  9
$DIMLIM
 70
     0
  9
$DIMTIH
 70
     0
  9
$DIMTOH
 70
     0
  9
$DIMSE1
 70
     0
  9
$DIMSE2
 70
     0
  9
$DIMTAD
 70
     1
  9
$DIMZIN
 70
     8
  9
$DIMBLK
  1

  9
$DIMASO
 70
     1
  9
$DIMSHO
 70
     1
  9
$DIMPOST
  1

  9
$DIMAPOST
  1

  9
$DIMALT
 70
     0
  9
$DIMALTD
 70
     2
  9
$DIMALTF
 40
25.4
  9
$DIMLFAC
 40
1.0
  9
$DIMTOFL
 70
     1
  9
$DIMTVP
 40
0.0
  9
$DIMTIX
 70
     0
  9
$DIMSOXD
 70
     0
  9
$DIMSAH
 70
     0
  9
$DIMBLK1
  1

  9
$DIMBLK2
  1

  9
$DIMSTYLE
  2
GEN-ISO
  9
$DIMCLRD
 70
     0
  9
$DIMCLRE
 70
     0
  9
$DIMCLRT
 70
   256
  9
$DIMTFAC
 40
1.0
  9
$DIMGAP
 40
1.5
  9
$DIMJUST
 70
     0
  9
$DIMSD1
 70
     0
  9
$DIMSD2
 70
     0
  9
$DIMTOLJ
 70
     0
  9
$DIMTZIN
 70
     8
  9
$DIMALTZ
 70
     8
  9
$DIMALTTZ
 70
     8
  9
$DIMUPT
 70
     0
  9
$DIMDEC
 70
     2
  9
$DIMTDEC
 70
     5
  9
$DIMALTU
 70
     2
  9
$DIMALTTD
 70
     2
  9
$DIMTXSTY
  7
STANDARD
  9
$DIMAUNIT
 70
     0
  9
$DIMADEC
 70
     0
  9
$DIMALTRND
 40
0.0
  9
$DIMAZIN
 70
     0
  9
$DIMDSEP
 70
    46
  9
$DIMATFIT
 70
     3
  9
$DIMFRAC
 70
     0
  9
$DIMLDRBLK
  1

  9
$DIMLUNIT
 70
     2
  9
$DIMLWD
 70
    -2
  9
$DIMLWE
 70
    -2
  9
$DIMTMOVE
 70
     0
  9
$LUNITS
 70
     2
  9
$LUPREC
 70
     4
  9
$SKETCHINC
 40
1.0
  9
$FILLETRAD
 40
0.0
  9
$AUNITS
 70
     0
  9
$AUPREC
 70
     0
  9
$MENU
  1
acad
  9
$ELEVATION
 40
0.0
  9
$PELEVATION
 40
0.0
  9
$THICKNESS
 40
0.0
  9
$LIMCHECK
 70
     0
  9
$CHAMFERA
 40
10.0
  9
$CHAMFERB
 40
10.0
  9
$CHAMFERC
 40
0.0
  9
$CHAMFERD
 40
0.0
  9
$SKPOLY
 70
     0
  9
$TDCREATE
 40
2452256.515739467
  9
$TDUCREATE
 40
2452256.432406135
  9
$TDUPDATE
 40
2456219.409661656
  9
$TDUUPDATE
 40
2456219.326328322
  9
$TDINDWG
 40
0.1775989699
  9
$TDUSRTIMER
 40
0.1775989699
  9
$USRTIMER
 70
     1
  9
$ANGBASE
 50
0.0
  9
$ANGDIR
 70
     0
  9
$PDMODE
 70
     0
  9
$PDSIZE
 40
0.0
  9
$PLINEWID
 40
0.0
  9
$SPLFRAME
 70
     0
  9
$SPLINETYPE
 70
     6
  9
$SPLINESEGS
 70
     8
  9
$HANDSEED
  5
381D
  9
$SURFTAB1
 70
     6
  9
$SURFTAB2
 70
     6
  9
$SURFTYPE
 70
     6
  9
$SURFU
 70
     6
  9
$SURFV
 70
     6
  9
$UCSBASE
  2

  9
$UCSNAME
  2

  9
$UCSORG
 10
0.0
 20
0.0
 30
0.0
  9
$UCSXDIR
 10
1.0
 20
0.0
 30
0.0
  9
$UCSYDIR
 10
0.0
 20
1.0
 30
0.0
  9
$UCSORTHOREF
  2

  9
$UCSORTHOVIEW
 70
     0
  9
$UCSORGTOP
 10
0.0
 20
0.0
 30
0.0
  9
$UCSORGBOTTOM
 10
0.0
 20
0.0
 30
0.0
  9
$UCSORGLEFT
 10
0.0
 20
0.0
 30
0.0
  9
$UCSORGRIGHT
 10
0.0
 20
0.0
 30
0.0
  9
$UCSORGFRONT
 10
0.0
 20
0.0
 30
0.0
  9
$UCSORGBACK
 10
0.0
 20
0.0
 30
0.0
  9
$PUCSBASE
  2

  9
$PUCSNAME
  2

  9
$PUCSORG
 10
0.0
 20
0.0
 30
0.0
  9
$PUCSXDIR
 10
1.0
 20
0.0
 30
0.0
  9
$PUCSYDIR
 10
0.0
 20
1.0
 30
0.0
  9
$PUCSORTHOREF
  2

  9
$PUCSORTHOVIEW
 70
     0
  9
$PUCSORGTOP
 10
0.0
 20
0.0
 30
0.0
  9
$PUCSORGBOTTOM
 10
0.0
 20
0.0
 30
0.0
  9
$PUCSORGLEFT
 10
0.0
 20
0.0
 30
0.0
  9
$PUCSORGRIGHT
 10
0.0
 20
0.0
 30
0.0
  9
$PUCSORGFRONT
 10
0.0
 20
0.0
 30
0.0
  9
$PUCSORGBACK
 10
0.0
 20
0.0
 30
0.0
  9
$USERI1
 70
     0
  9
$USERI2
 70
     0
  9
$USERI3
 70
     0
  9
$USERI4
 70
     0
  9
$USERI5
 70
     0
  9
$USERR1
 40
0.0
  9
$USERR2
 40
0.0
  9
$USERR3
 40
0.0
  9
$USERR4
 40
0.0
  9
$USERR5
 40
0.0
  9
$WORLDVIEW
 70
     1
  9
$SHADEDGE
 70
     3
  9
$SHADEDIF
 70
    70
  9
$TILEMODE
 70
     1
  9
$MAXACTVP
 70
    16
  9
$PINSBASE
 10
0.0
 20
0.0
 30
0.0
  9
$PLIMCHECK
 70
     0
  9
$PEXTMIN
 10
1.000000000000000E+20
 20
1.000000000000000E+20
 30
1.000000000000000E+20
  9
$PEXTMAX
 10
-1.000000000000000E+20
 20
-1.000000000000000E+20
 30
-1.000000000000000E+20
  9
$PLIMMIN
 10
0.0
 20
0.0
  9
$PLIMMAX
 10
420.0
 20
297.0
  9
$UNITMODE
 70
     0
  9
$VISRETAIN
 70
     0
  9
$PLINEGEN
 70
     0
  9
$PSLTSCALE
 70
     1
  9
$TREEDEPTH
 70
  3020
  9
$CMLSTYLE
  2
STANDARD
  9
$CMLJUST
 70
     0
  9
$CMLSCALE
 40
1.0
  9
$PROXYGRAPHICS
 70
     1
  9
$MEASUREMENT
 70
     1
  9
$CELWEIGHT
370
    -1
  9
$ENDCAPS
280
     0
  9
$JOINSTYLE
280
     0
  9
$LWDISPLAY
290
     0
  9
$INSUNITS
 70
     0
  9
$HYPERLINKBASE
  1

  9
$STYLESHEET
  1

  9
$XEDIT
290
     1
  9
$CEPSNTYPE
380
     0
  9
$PSTYLEMODE
290
     1
  9
$FINGERPRINTGUID
  2
{2220C6AD-DA16-4BD8-8E85-E27052111DD0}
  9
$VERSIONGUID
  2
{00DAA85E-745E-4A5D-8A50-0DF9185FD4E4}
  9
$EXTNAMES
290
     1
  9
$PSVPSCALE
 40
0.0
  9
$OLESTARTUP
290
     0
  0
ENDSEC
  0
SECTION
  2
CLASSES
  0
CLASS
  1
DICTIONARYVAR
  2
AcDbDictionaryVar
  3
ObjectDBX Classes
 90
        0
280
     0
281
     0
  0
CLASS
  1
ACDBDICTIONARYWDFLT
  2
AcDbDictionaryWithDefault
  3
ObjectDBX Classes
 90
        0
280
     0
281
     0
  0
CLASS
  1
ACDBPLACEHOLDER
  2
AcDbPlaceHolder
  3
ObjectDBX Classes
 90
        0
280
     0
281
     0
  0
CLASS
  1
LAYOUT
  2
AcDbLayout
  3
ObjectDBX Classes
 90
        0
280
     0
281
     0
  0
CLASS
  1
ACME_DOCUMENT
  2
AcMeDbDoc
  3
AcMeServices
 90
     1024
280
     0
281
     0
  0
CLASS
  1
AMGSETTINGSOBJ
  2
AmgSettingsObj
  3
"AcadM|Product Description: AutoCAD Mechanical|Company: Autodesk, Inc."
 90
     1024
280
     0
281
     0
  0
CLASS
  1
AMGOBJPROPCFG
  2
AmgObjPropCfg
  3
"AmgLay|Product Description: AutoCAD Mechanical|Company: Autodesk, Inc."
 90
     1025
280
     0
281
     0
  0
CLASS
  1
ACMESCOPE
  2
AcMeScope
  3
AcMeServices
 90
     1024
280
     0
281
     0
  0
CLASS
  1
ACMECOMMANDHISTORY
  2
AcMeCommandHistory
  3
AcMeServices
 90
     1024
280
     0
281
     0
  0
CLASS
  1
ACIMSYSVARMAN
  2
AcImSysVarManager
  3
AcMeServices
 90
     1024
280
     0
281
     0
  0
CLASS
  1
ACIMREALSYSVAR
  2
AcImRealSysVar
  3
AcMeServices
 90
     1024
280
     0
281
     0
  0
CLASS
  1
ACIMINTSYSVAR
  2
AcImIntSysVar
  3
AcMeServices
 90
     1024
280
     0
281
     0
  0
CLASS
  1
ACMEDRAWINGMAN
  2
AcMeDrawingMan
  3
AcMeServices
 90
     1024
280
     0
281
     0
  0
CLASS
  1
ACMEVIEW
  2
AcMeView
  3
AcMeServices
 90
     1024
280
     0
281
     0
  0
CLASS
  1
ACDBENTITYCACHE
  2
AcMeEntityCache
  3
AcMeServices
 90
     1024
280
     0
281
     0
  0
CLASS
  1
GSMANAGER
  2
AcMeGSManager
  3
AcMeServices
 90
     1024
280
     0
281
     0
  0
CLASS
  1
AMDTINTERNALREACTOR
  2
AmdtInternalReactor
  3
AcMeServices
 90
     1024
280
     0
281
     0
  0
CLASS
  1
ACMESTATEMGR
  2
AcMeStateMgr
  3
AcMeServices
 90
     1024
280
     0
281
     0
  0
CLASS
  1
ACGREFMASTER
  2
AcGrefMaster
  3
AcAttribServices
 90
     1024
280
     0
281
     0
  0
CLASS
  1
ACME_DATABASE
  2
AcMeDbDatabase
  3
AcMeServices
 90
     1024
280
     0
281
     0
  0
CLASS
  1
ACRFINSADJUSTERMGR
  2
AcRfInsAdjusterMgr
  3
AcMeServices
 90
     1024
280
     0
281
     0
  0
CLASS
  1
ACGREFACADMASTER
  2
AcGrefacadMaster
  3
AcGrefServices
 90
     1024
280
     0
281
     0
  0
CLASS
  1
AMIMASTER
  2
AmiMaster
  3
AmiServices
 90
     1024
280
     0
281
     0
  0
CLASS
  1
ACMDATADICTIONARY
  2
AcmDataDictionary
  3
"AcmSymBB|Product Description: AutoCAD Mechanical|Company: Autodesk, Inc."
 90
     1024
280
     0
281
     0
  0
CLASS
  1
ACMDATAENTRYBLOCK
  2
AcmDataEntryBlock
  3
AcmSymBB|Product Description: AutoCAD Mechanical|Company: Autodesk, Inc.
 90
     1024
280
     0
281
     0
  0
CLASS
  1
ACMSTANDARDISO
  2
AcmStandardISO
  3
"Amdt_StdImp|Product Description: AutoCAD Mechanical|Company: Autodesk, Inc."
 90
     1024
280
     0
281
     0
  0
CLASS
  1
AMDTEDGESTANDARDISO
  2
AmdtEdgeStdISO
  3
"Amdt_StdImp|Product Description: AutoCAD Mechanical|Company: Autodesk, Inc."
 90
     1024
280
     0
281
     0
  0
CLASS
  1
ACMSURFSTANDARDISO
  2
AcmSurfTextStdISO
  3
"Amdt_StdImp|Product Description: AutoCAD Mechanical|Company: Autodesk, Inc."
 90
     1024
280
     0
281
     0
  0
CLASS
  1
ACMFCFSTANDARDISO
  2
AcmFCFStdISO
  3
"Amdt_StdImp|Product Description: AutoCAD Mechanical|Company: Autodesk, Inc."
 90
     1024
280
     0
281
     0
  0
CLASS
  1
ACMWELDSTANDARDISO
  2
AcmWeldingStdISO
  3
"Amdt_StdImp|Product Description: AutoCAD Mechanical|Company: Autodesk, Inc."
 90
     1024
280
     0
281
     0
  0
CLASS
  1
ACMIDSTANDARDISO
  2
AcmIdStdISO
  3
"Amdt_StdImp|Product Description: AutoCAD Mechanical|Company: Autodesk, Inc."
 90
     1024
280
     0
281
     0
  0
CLASS
  1
ACMDATUMSTANDARDISO
  2
AcmDatumStdISO
  3
"Amdt_StdImp|Product Description: AutoCAD Mechanical|Company: Autodesk, Inc."
 90
     1024
280
     0
281
     0
  0
CLASS
  1
ACMBOMSTANDARDISO
  2
AcmBOMStdISO
  3
"Amdt_StdImp|Product Description: AutoCAD Mechanical|Company: Autodesk, Inc."
 90
     1024
280
     0
281
     0
  0
CLASS
  1
ACAMGLAYSTD
  2
AcAmgLayStd
  3
"AmgLay|Product Description: AutoCAD Mechanical|Company: Autodesk, Inc."
 90
     1024
280
     0
281
     0
  0
CLASS
  1
ACAMGDIMSTD
  2
AcAmgDimStd
  3
"AmgDim|Product Description: AutoCAD Mechanical|Company: Autodesk, Inc."
 90
     1024
280
     0
281
     0
  0
CLASS
  1
ACAMGTITLESTD
  2
AcAmgTitleStd
  3
"AmgTitle|Product Description: AutoCAD Mechanical|Company: Autodesk, Inc."
 90
     4095
280
     0
281
     0
  0
CLASS
  1
ACMDETAILSTANDARDISO
  2
AmdtDetailSymStdISO
  3
"Amdt_StdImp|Product Description: AutoCAD Mechanical|Company: Autodesk, Inc."
 90
     1024
280
     0
281
     0
  0
CLASS
  1
ACMSECTIONSTANDARDISO
  2
AmdtSectionSymStdISO
  3
"Amdt_StdImp|Product Description: AutoCAD Mechanical|Company: Autodesk, Inc."
 90
     1024
280
     0
281
     0
  0
CLASS
  1
ACMCENTERLINESTANDARDISO
  2
AmdtCenterLineStdISO
  3
"Amdt_StdImp|Product Description: AutoCAD Mechanical|Company: Autodesk, Inc."
 90
     1024
280
     0
281
     0
  0
CLASS
  1
ACMTHREADLINESTANDARDISO
  2
AmdtThreadLineStdISO
  3
"Amdt_StdImp|Product Description: AutoCAD Mechanical|Company: Autodesk, Inc."
 90
     1024
280
     0
281
     0
  0
CLASS
  1
ACIMSTRSYSVAR
  2
AcImStrSysVar
  3
AcMeServices
 90
     1024
280
     0
281
     0
  0
CLASS
  1
LAYER_INDEX
  2
AcDbLayerIndex
  3
ObjectDBX Classes
 90
    32768
280
     0
281
     0
  0
CLASS
  1
IDBUFFER
  2
AcDbIdBuffer
  3
ObjectDBX Classes
 90
    32768
280
     0
281
     0
  0
CLASS
  1
ACAMGFILTERDAT
  2
AcAmgFilterDat
  3
"AcadM|Product Description: AutoCAD Mechanical|Company: Autodesk, Inc."
 90
    33792
280
     0
281
     0
  0
CLASS
  1
AMDTFORMULAUPDATEDISPATCHER
  2
AmdtFormulaUpdateDispatcher
  3
AcMeServices
 90
     1024
280
     0
281
     0
  0
CLASS
  1
MATERIAL
  2
AcDbMaterial
  3
ObjectDBX Classes
 90
     1153
280
     0
281
     0
  0
CLASS
  1
VISUALSTYLE
  2
AcDbVisualStyle
  3
ObjectDBX Classes
 90
     4095
280
     0
281
     0
  0
CLASS
  1
TABLESTYLE
  2
AcDbTableStyle
  3
ObjectDBX Classes
 90
     4095
280
     0
281
     0
  0
CLASS
  1
SCALE
  2
AcDbScale
  3
ObjectDBX Classes
 90
     1153
280
     0
281
     0
  0
CLASS
  1
MLEADERSTYLE
  2
AcDbMLeaderStyle
  3
ACDB_MLEADERSTYLE_CLASS
 90
     4095
280
     0
281
     0
  0
CLASS
  1
AM_DRAWING_MGR
  2
AcDmDwgMgr
  3
AcMechDwgViewMgmt
 90
     1024
280
     0
281
     0
  0
CLASS
  1
AM_DWG_DOCUMENT
  2
AcDmDwgDocument
  3
AcMechDwgViewMgmt
 90
     1024
280
     0
281
     0
  0
CLASS
  1
AM_DWG_SHEET
  2
AcDmSheet
  3
AcMechDwgViewMgmt
 90
     1024
280
     0
281
     0
  0
CLASS
  1
AM_VIEWDIMPARMAP
  2
AcDmViewDimParMap
  3
AcMechDwgViewMgmt
 90
     1024
280
     0
281
     0
  0
CLASS
  1
AM_DWGMGR_NAME
  2
AcDmDwgMgrName
  3
AcMechDwgViewMgmt
 90
     1024
280
     0
281
     0
  0
CLASS
  1
AMDTMENUSTATEMGR
  2
AmdtMenuStateMgr
  3
McadcomServices
 90
     1024
280
     0
281
     0
  0
CLASS
  1
AMDTMCOMMENUSTATE
  2
AmdtMcomMenuState
  3
McadcomServices
 90
     1024
280
     0
281
     0
  0
CLASS
  1
MAPIAMMOUDLE
  2
MApiAmModule
  3
MApiAmServices
 90
     1024
280
     0
281
     0
  0
CLASS
  1
AMDTADMENUSTATE
  2
AmdtAdMenuState
  3
DesignerServices
 90
     1024
280
     0
281
     0
  0
CLASS
  1
ADAPPL
  2
AcAdAppl
  3
DesignerServices
 90
     1024
280
     0
281
     0
  0
CLASS
  1
DEPMGR
  2
AcAdDepMgr
  3
DesignerServices
 90
     1024
280
     0
281
     0
  0
CLASS
  1
PARAMMGR
  2
AcAdParamMgr
  3
DesignerServices
 90
     1024
280
     0
281
     0
  0
CLASS
  1
PARAMSCOPE
  2
AcAdParamScope
  3
DesignerServices
 90
     1024
280
     0
281
     0
  0
CLASS
  1
NAMEDAPPL
  2
AcAdNamedAppl
  3
DesignerServices
 90
     1024
280
     0
281
     0
  0
CLASS
  1
AMDTDMMENUSTATE
  2
AmdtDmMenuState
  3
AcMechDwgViewMgmt
 90
     1024
280
     0
281
     0
  0
CLASS
  1
AMDTAMMENUSTATE
  2
AmdtAmMenuState
  3
DesignerAssemblies
 90
     1024
280
     0
281
     0
  0
CLASS
  1
ACAMPROJECT
  2
AcAmProject
  3
DesignerAssemblies
 90
     1024
280
     0
281
     0
  0
CLASS
  1
ACAMGRCOMPDEF
  2
AcAmGrCompDef
  3
DesignerAssemblies
 90
     1024
280
     0
281
     0
  0
CLASS
  1
ACCMCONTEXT
  2
AcCmContext
  3
DesignerAssemblies
 90
     1024
280
     0
281
     0
  0
CLASS
  1
ACAMCOMPDEF
  2
AcAmCompDef
  3
DesignerAssemblies
 90
     1024
280
     0
281
     0
  0
CLASS
  1
ACAMCOMPDEFMGR
  2
AcAmCompDefMgr
  3
DesignerAssemblies
 90
     1024
280
     0
281
     0
  0
CLASS
  1
AMCONTEXTMGR
  2
AcAmContextMgr
  3
DesignerAssemblies
 90
     1024
280
     0
281
     0
  0
CLASS
  1
ACAMCONTEXTMODELER
  2
AcAmContextModeler
  3
DesignerAssemblies
 90
     1024
280
     0
281
     0
  0
CLASS
  1
ACRFATTGENMGR
  2
AcRfAttGeneralMgr
  3
AcAttribServices
 90
     1024
280
     0
281
     0
  0
CLASS
  1
ACRFOBJATTMGR
  2
AcRfObjAttGroupMgr
  3
AcAttribServices
 90
     1024
280
     0
281
     0
  0
CLASS
  1
ACRFMCADAPIATTHOLDER
  2
AcRfMCADAPIAttHolder
  3
AcAttribServices
 90
     1024
280
     0
281
     0
  0
CLASS
  1
AMDTSYSATTR
  2
AmdtSystemAttribute
  3
AcAttribServices
 90
     1024
280
     0
281
     0
  0
CLASS
  1
ACMNOTESTANDARDISO
  2
AmdtNoteStdISO
  3
"Amdt_StdImp|Product Description: AutoCAD Mechanical|Company: Autodesk, Inc."
 90
     1024
280
     0
281
     0
  0
CLASS
  1
AMDTNOTETEMPLATEDB
  2
AmdtNoteTemplateDB
  3
AcmSymBB|Product Description: AutoCAD Mechanical|Company: Autodesk, Inc.
 90
     1024
280
     0
281
     0
  0
CLASS
  1
ACMTAPERSTANDARDISO
  2
AcmTaperStdISO
  3
"Amdt_StdImp|Product Description: AutoCAD Mechanical|Company: Autodesk, Inc."
 90
     1024
280
     0
281
     0
  0
CLASS
  1
ACMANOOTATIONVIEWSTANDARDISO
  2
AmdtAnViewStdISO
  3
"Amdt_StdImp|Product Description: AutoCAD Mechanical|Company: Autodesk, Inc."
 90
     1024
280
     0
281
     0
  0
CLASS
  1
CATALOGSTATE
  2
AcAmCatalogState
  3
DesignerAssemblies
 90
     1024
280
     0
281
     0
  0
CLASS
  1
ACAMGRCOMPDEFSET
  2
AcAmGrCompDefSet
  3
DesignerAssemblies
 90
     1024
280
     0
281
     0
  0
CLASS
  1
AMDTBROWSERDBTAB
  2
AmdtBrowserDbTab
  3
McadcomServices
 90
     1024
280
     0
281
     0
  0
CLASS
  1
CBROWSERAPPOBJECT
  2
CBrowserAppObject
  3
McadcomServices
 90
     1024
280
     0
281
     0
  0
CLASS
  1
DM_PLACEHOLDER
  2
AcDmSelsetPlaceholder
  3
AcMechDwgViewMgmt
 90
     1024
280
     0
281
     0
  0
CLASS
  1
CAMSSTRUCTBTNSTATE
  2
StructBtnState
  3
DesignerAssemblies
 90
     1024
280
     0
281
     0
  0
CLASS
  1
CELLSTYLEMAP
  2
AcDbCellStyleMap
  3
ObjectDBX Classes
 90
     1152
280
     0
281
     0
  0
ENDSEC
  0
SECTION
  2
TABLES
  0
TABLE
  2
VPORT
  5
8
330
0
100
AcDbSymbolTable
 70
     1
  0
VPORT
  5
372D
330
8
100
AcDbSymbolTableRecord
100
AcDbViewportTableRecord
  2
*Active
 70
     0
 10
0.0
 20
0.0
 11
1.0
 21
1.0
 12
308.514390474485
 22
297.7725226900377
 13
0.0
 23
0.0
 14
1.0
 24
1.0
 15
10.0
 25
10.0
 16
0.0
 26
0.0
 36
1.0
 17
0.0
 27
0.0
 37
0.0
 40
933.6502651508784
 41
1.548186528497409
 42
50.0
 43
0.0
 44
0.0
 50
0.0
 51
0.0
 71
     0
 72
   100
 73
     1
 74
     0
 75
     0
 76
     0
 77
     0
 78
     0
281
     0
 65
     1
110
0.0
120
0.0
130
0.0
111
1.0
121
0.0
131
0.0
112
0.0
122
1.0
132
0.0
 79
     0
146
0.0
  0
ENDTAB
  0
TABLE
  2
LTYPE
  5
5
330
0
100
AcDbSymbolTable
 70
    17
  0
LTYPE
  5
12
330
5
100
AcDbSymbolTableRecord
100
AcDbLinetypeTableRecord
  2
BYBLOCK
 70
     0
  3

 72
    65
 73
     0
 40
0.0
  0
LTYPE
  5
13
330
5
100
AcDbSymbolTableRecord
100
AcDbLinetypeTableRecord
  2
BYLAYER
 70
     0
  3

 72
    65
 73
     0
 40
0.0
  0
LTYPE
  5
14
330
5
100
AcDbSymbolTableRecord
100
AcDbLinetypeTableRecord
  2
CONTINUOUS
 70
     0
  3
Solid line
 72
    65
 73
     0
 40
0.0
  0
LTYPE
  5
1D
330
5
100
AcDbSymbolTableRecord
100
AcDbLinetypeTableRecord
  2
GEN3
 70
     0
  3
-- -- -- -- -- -- -- -- -- -- -- -- -- -- --
 72
    65
 73
     2
 40
6.25
 49
5.0
 74
     0
 49
-1.25
 74
     0
  0
LTYPE
  5
1E
330
5
100
AcDbSymbolTableRecord
100
AcDbLinetypeTableRecord
  2
GEN3A
 70
     0
  3
 - - - - -
 72
    65
 73
     2
 40
3.1
 49
2.5
 74
     0
 49
-0.6
 74
     0
  0
LTYPE
  5
20
330
5
100
AcDbSymbolTableRecord
100
AcDbLinetypeTableRecord
  2
GEN7A
 70
     0
  3
__ . __ . __
 72
    65
 73
     4
 40
7.5
 49
5.0
 74
     0
 49
-1.25
 74
     0
 49
0.0
 74
     0
 49
-1.25
 74
     0
  0
LTYPE
  5
3506
330
5
100
AcDbSymbolTableRecord
100
AcDbLinetypeTableRecord
  2
AM_ISO02W050
 70
     0
  3
__ __ __ __ __ __ __ __ __ __ __ __ __ __ __
 72
    65
 73
     2
 40
7.5
 49
6.0
 74
     0
 49
-1.5
 74
     0
  0
LTYPE
  5
3507
330
5
100
AcDbSymbolTableRecord
100
AcDbLinetypeTableRecord
  2
AM_ISO08W050
 70
     0
  3
____ . ____ . ____ . ____ . ____ . ____ . ____
 72
    65
 73
     4
 40
18.0
 49
12.0
 74
     0
 49
-1.5
 74
     0
 49
3.0
 74
     0
 49
-1.5
 74
     0
  0
LTYPE
  5
3508
330
5
100
AcDbSymbolTableRecord
100
AcDbLinetypeTableRecord
  2
AM_ISO09W050
 70
     0
  3
_____ . . _____ . . _____ . . ____ .. ____
 72
    65
 73
     6
 40
22.5
 49
12.0
 74
     0
 49
-1.5
 74
     0
 49
3.0
 74
     0
 49
-1.5
 74
     0
 49
3.0
 74
     0
 49
-1.5
 74
     0
  0
LTYPE
  5
3509
330
5
100
AcDbSymbolTableRecord
100
AcDbLinetypeTableRecord
  2
Amconstr
 70
     0
  3
_______________________
 72
    65
 73
     2
 40
9999.0
 49
9999.0
 74
     0
 49
0.0
 74
     0
  0
LTYPE
  5
350A
330
5
100
AcDbSymbolTableRecord
100
AcDbLinetypeTableRecord
  2
AM_ISO02W050x2
 70
     0
  3
 _ _ _ _ _ _ _ _ _ _ _ _
 72
    65
 73
     2
 40
3.75
 49
3.0
 74
     0
 49
-0.75
 74
     0
  0
LTYPE
  5
350B
330
5
100
AcDbSymbolTableRecord
100
AcDbLinetypeTableRecord
  2
AM_ISO08W050x2
 70
     0
  3
__ . __ . __ . __ . __ . __
 72
    65
 73
     4
 40
9.0
 49
6.0
 74
     0
 49
-0.75
 74
     0
 49
1.5
 74
     0
 49
-0.75
 74
     0
  0
LTYPE
  5
350C
330
5
100
AcDbSymbolTableRecord
100
AcDbLinetypeTableRecord
  2
Amzigzag
 70
     0
  3
/\/-/\/-/\/-/\/-/\/-/\/
 72
    65
 73
     2
 40
11.0001
 49
0.0001
 74
     4
 75
   135
340
350D
 46
0.04
 50
0.0
 44
0.0
 45
0.0
 49
-11.0
 74
     0
  0
LTYPE
  5
3534
330
5
100
AcDbSymbolTableRecord
100
AcDbLinetypeTableRecord
  2
ACISOWELD
 70
     0
  3
_ _ _ _ _
 72
    65
 73
     2
 40
2.0
 49
2.0
 74
     0
 49
-1.0
 74
     0
  0
LTYPE
  5
3537
330
5
100
AcDbSymbolTableRecord
100
AcDbLinetypeTableRecord
  2
ACISOTGB
 70
     0
  3
__ . . __ . .
 72
    65
 73
     6
 40
9.0
 49
4.0
 74
     0
 49
-1.0
 74
     0
 49
1.0
 74
     0
 49
-1.0
 74
     0
 49
1.0
 74
     0
 49
-1.0
 74
     0
  0
LTYPE
  5
3538
330
5
100
AcDbSymbolTableRecord
100
AcDbLinetypeTableRecord
  2
ACISOTGL
 70
     0
  3
_ _ _ _ _
 72
    65
 73
     2
 40
3.0
 49
2.0
 74
     0
 49
-1.0
 74
     0
  0
LTYPE
  5
35A1
330
5
100
AcDbSymbolTableRecord
100
AcDbLinetypeTableRecord
  2
CENTER
 70
     0
  3
__ . __
 72
    65
 73
     4
 40
7.0
 49
4.0
 74
     0
 49
-1.0
 74
     0
 49
1.0
 74
     0
 49
-1.0
 74
     0
  0
LTYPE
  5
379C
330
5
100
AcDbSymbolTableRecord
100
AcDbLinetypeTableRecord
  2
HIDDEN
 70
     0
  3
Verdeckt
 72
    65
 73
     2
 40
9.525
 49
6.349999999999999
 74
     0
 49
-3.174999999999999
 74
     0
  0
LTYPE
  5
379D
330
5
100
AcDbSymbolTableRecord
100
AcDbLinetypeTableRecord
  2
PHANTOM2
 70
     0
  3
Phantom (.5x) ___ _ _ ___ _ _ ___ _ _ ___ _ _
 72
    65
 73
     6
 40
31.75
 49
15.875
 74
     0
 49
-3.174999999999999
 74
     0
 49
3.174999999999999
 74
     0
 49
-3.174999999999999
 74
     0
 49
3.174999999999999
 74
     0
 49
-3.174999999999999
 74
     0
  0
ENDTAB
  0
TABLE
  2
LAYER
  5
2
330
0
100
AcDbSymbolTable
 70
    12
  0
LAYER
  5
F
102
{ACAD_XDICTIONARY
360
37D6
102
}
330
2
100
AcDbSymbolTableRecord
100
AcDbLayerTableRecord
  2
0
 70
     0
 62
     7
  6
CONTINUOUS
370
    -3
390
34DF
  0
LAYER
  5
26
102
{ACAD_XDICTIONARY
360
37D8
102
}
330
2
100
AcDbSymbolTableRecord
100
AcDbLayerTableRecord
  2
2
 70
     0
 62
     5
  6
CONTINUOUS
370
    -3
390
34DF
  0
LAYER
  5
29
102
{ACAD_XDICTIONARY
360
37DA
102
}
330
2
100
AcDbSymbolTableRecord
100
AcDbLayerTableRecord
  2
3A
 70
     0
 62
     6
  6
GEN3A
370
    -3
390
34DF
  0
LAYER
  5
2B
102
{ACAD_XDICTIONARY
360
37DC
102
}
330
2
100
AcDbSymbolTableRecord
100
AcDbLayerTableRecord
  2
5
 70
     0
 62
     3
  6
CONTINUOUS
370
    -3
390
34DF
  0
LAYER
  5
2C
102
{ACAD_XDICTIONARY
360
37DE
102
}
330
2
100
AcDbSymbolTableRecord
100
AcDbLayerTableRecord
  2
6
 70
     0
 62
    -2
  6
CONTINUOUS
370
    -3
390
34DF
  0
LAYER
  5
2E
102
{ACAD_XDICTIONARY
360
37E0
102
}
330
2
100
AcDbSymbolTableRecord
100
AcDbLayerTableRecord
  2
8
 70
     0
 62
     1
  6
CONTINUOUS
370
    -3
390
34DF
  0
LAYER
  5
2F
102
{ACAD_XDICTIONARY
360
37E2
102
}
330
2
100
AcDbSymbolTableRecord
100
AcDbLayerTableRecord
  2
7A
 70
     0
 62
     9
  6
GEN7A
370
    -3
390
34DF
  0
LAYER
  5
30
330
2
100
AcDbSymbolTableRecord
100
AcDbLayerTableRecord
  2
DEFPOINTS
 70
     0
 62
     7
  6
CONTINUOUS
290
     0
370
    -3
390
34DF
  0
LAYER
  5
3335
102
{ACAD_XDICTIONARY
360
37E4
102
}
330
2
100
AcDbSymbolTableRecord
100
AcDbLayerTableRecord
  2
MSR_I5_6-7A
 70
     0
 62
     9
  6
GEN7A
370
    -3
390
34DF
  0
LAYER
  5
3336
102
{ACAD_XDICTIONARY
360
37E6
102
}
330
2
100
AcDbSymbolTableRecord
100
AcDbLayerTableRecord
  2
MSR_I5_6-3A
 70
     0
 62
     6
  6
GEN3A
370
    -3
390
34DF
  0
LAYER
  5
353D
102
{ACAD_XDICTIONARY
360
37E8
102
}
330
2
100
AcDbSymbolTableRecord
100
AcDbLayerTableRecord
  2
AM_BOR
 70
     0
 62
     7
  6
CONTINUOUS
370
    50
390
34DF
  0
LAYER
  5
35D4
102
{ACAD_XDICTIONARY
360
37EA
102
}
330
2
100
AcDbSymbolTableRecord
100
AcDbLayerTableRecord
  2
AM_5
 70
     0
 62
     3
  6
CONTINUOUS
370
    25
390
34DF
  0
ENDTAB
  0
TABLE
  2
STYLE
  5
3
330
0
100
AcDbSymbolTable
 70
     4
  0
STYLE
  5
10
330
3
100
AcDbSymbolTableRecord
100
AcDbTextStyleTableRecord
  2
STANDARD
 70
     0
 40
0.0
 41
1.0
 50
0.0
 71
     0
 42
7.0
  3
ISOCP.SHX
  4

  0
STYLE
  5
350D
330
3
100
AcDbSymbolTableRecord
100
AcDbTextStyleTableRecord
  2

 70
     1
 40
0.0
 41
1.0
 50
0.0
 71
     0
 42
2.5
  3
ltypeshp.shx
  4

  0
STYLE
  5
352E
330
3
100
AcDbSymbolTableRecord
100
AcDbTextStyleTableRecord
  2
ACISOTS
 70
     0
 40
1.0
 41
1.0
 50
0.0
 71
     0
 42
2.5
  3
isocp.shx
  4

  0
STYLE
  5
3532
330
3
100
AcDbSymbolTableRecord
100
AcDbTextStyleTableRecord
  2
ACISOGDT
 70
     0
 40
0.0
 41
1.0
 50
0.0
 71
     0
 42
2.5
  3
amgdt.shx
  4

  0
ENDTAB
  0
TABLE
  2
VIEW
  5
6
330
0
100
AcDbSymbolTable
 70
     0
  0
ENDTAB
  0
TABLE
  2
UCS
  5
7
330
0
100
AcDbSymbolTable
 70
     0
  0
ENDTAB
  0
TABLE
  2
APPID
  5
9
330
0
100
AcDbSymbolTable
 70
    44
  0
APPID
  5
11
330
9
100
AcDbSymbolTableRecord
100
AcDbRegAppTableRecord
  2
ACAD
 70
     0
  0
APPID
  5
22D4
330
9
100
AcDbSymbolTableRecord
100
AcDbRegAppTableRecord
  2
GENIUS_GENOENT_13
 70
     0
  0
APPID
  5
22D5
330
9
100
AcDbSymbolTableRecord
100
AcDbRegAppTableRecord
  2
GENIUS_GENODEF_13
 70
     0
  0
APPID
  5
22D6
330
9
100
AcDbSymbolTableRecord
100
AcDbRegAppTableRecord
  2
GENIUS_GENOBJ-N-HTC_13
 70
     0
  0
APPID
  5
22D7
330
9
100
AcDbSymbolTableRecord
100
AcDbRegAppTableRecord
  2
GENIUS_GENHATCH_13
 70
     0
  0
APPID
  5
22D8
330
9
100
AcDbSymbolTableRecord
100
AcDbRegAppTableRecord
  2
GENIUS_GENBH_13
 70
     0
  0
APPID
  5
22D9
330
9
100
AcDbSymbolTableRecord
100
AcDbRegAppTableRecord
  2
GENIUS_GENOBJ_13
 70
     0
  0
APPID
  5
22DA
330
9
100
AcDbSymbolTableRecord
100
AcDbRegAppTableRecord
  2
GENIUS_GENOLIS_13
 70
     0
  0
APPID
  5
22DB
330
9
100
AcDbSymbolTableRecord
100
AcDbRegAppTableRecord
  2
GENIUS_GENOREF_13
 70
     0
  0
APPID
  5
22DC
330
9
100
AcDbSymbolTableRecord
100
AcDbRegAppTableRecord
  2
GENIUS_GENOBJ-NBEHI-BHF_13
 70
     0
  0
APPID
  5
22DD
330
9
100
AcDbSymbolTableRecord
100
AcDbRegAppTableRecord
  2
GENIUS_GENOBJ-NBEHI-BHB_13
 70
     0
  0
APPID
  5
22DE
330
9
100
AcDbSymbolTableRecord
100
AcDbRegAppTableRecord
  2
GENIUS_GENOBJ-F-PART_13
 70
     0
  0
APPID
  5
22DF
330
9
100
AcDbSymbolTableRecord
100
AcDbRegAppTableRecord
  2
GENIUS_GEFSTDP_13
 70
     0
  0
APPID
  5
22E0
330
9
100
AcDbSymbolTableRecord
100
AcDbRegAppTableRecord
  2
GENIUS_GENOBJ-N-RSSYM_13
 70
     0
  0
APPID
  5
22E1
330
9
100
AcDbSymbolTableRecord
100
AcDbRegAppTableRecord
  2
GENIUS_GENSYMENT_13
 70
     0
  0
APPID
  5
22E2
330
9
100
AcDbSymbolTableRecord
100
AcDbRegAppTableRecord
  2
GENIUS_GENOBJ-N-CEN_13
 70
     0
  0
APPID
  5
34EB
330
9
100
AcDbSymbolTableRecord
100
AcDbRegAppTableRecord
  2
GENIUS_GENCFG_13
 70
     0
  0
APPID
  5
34EC
330
9
100
AcDbSymbolTableRecord
100
AcDbRegAppTableRecord
  2
GENIUS_GEVCFG0_13
 70
     0
  0
APPID
  5
34ED
330
9
100
AcDbSymbolTableRecord
100
AcDbRegAppTableRecord
  2
GENIUS_GENCFG0_13
 70
     0
  0
APPID
  5
34EE
330
9
100
AcDbSymbolTableRecord
100
AcDbRegAppTableRecord
  2
GENIUS_GENCFG1_13
 70
     0
  0
APPID
  5
34EF
330
9
100
AcDbSymbolTableRecord
100
AcDbRegAppTableRecord
  2
GENIUS_GENCFG2_13
 70
     0
  0
APPID
  5
34F0
330
9
100
AcDbSymbolTableRecord
100
AcDbRegAppTableRecord
  2
GENIUS_GENCFG3_13
 70
     0
  0
APPID
  5
34F1
330
9
100
AcDbSymbolTableRecord
100
AcDbRegAppTableRecord
  2
GENIUS_GENCFG4_13
 70
     0
  0
APPID
  5
34F2
330
9
100
AcDbSymbolTableRecord
100
AcDbRegAppTableRecord
  2
GENIUS_GEFCFG0_13
 70
     0
  0
APPID
  5
34F3
330
9
100
AcDbSymbolTableRecord
100
AcDbRegAppTableRecord
  2
MCAD_NO_VIS
 70
     0
  0
APPID
  5
34F4
330
9
100
AcDbSymbolTableRecord
100
AcDbRegAppTableRecord
  2
ACAD_TEMP_GRAPHIC
 70
     0
  0
APPID
  5
34F5
330
9
100
AcDbSymbolTableRecord
100
AcDbRegAppTableRecord
  2
GENIUS_GENOBJ-N-TIT_13
 70
     0
  0
APPID
  5
34F6
330
9
100
AcDbSymbolTableRecord
100
AcDbRegAppTableRecord
  2
GENIUS_GENTITLE_13
 70
     0
  0
APPID
  5
34F7
330
9
100
AcDbSymbolTableRecord
100
AcDbRegAppTableRecord
  2
GENIUS_GENZVEED_13
 70
     0
  0
APPID
  5
34F8
330
9
100
AcDbSymbolTableRecord
100
AcDbRegAppTableRecord
  2
GENIUS_GENSCREG_15
 70
     0
  0
APPID
  5
34F9
330
9
100
AcDbSymbolTableRecord
100
AcDbRegAppTableRecord
  2
GENIUS_GENOBJ-N-SDF_13
 70
     0
  0
APPID
  5
34FA
330
9
100
AcDbSymbolTableRecord
100
AcDbRegAppTableRecord
  2
GENIUS_GENREC_14
 70
     0
  0
APPID
  5
34FB
330
9
100
AcDbSymbolTableRecord
100
AcDbRegAppTableRecord
  2
GENIUS_GENOBJ-N-REC_13
 70
     0
  0
APPID
  5
34FC
330
9
100
AcDbSymbolTableRecord
100
AcDbRegAppTableRecord
  2
GENIUS_GENBLLY_14
 70
     0
  0
APPID
  5
34FD
330
9
100
AcDbSymbolTableRecord
100
AcDbRegAppTableRecord
  2
GENIUS_GENDTOL_13
 70
     0
  0
APPID
  5
34FE
330
9
100
AcDbSymbolTableRecord
100
AcDbRegAppTableRecord
  2
GENIUS_GENDIMSH_14
 70
     0
  0
APPID
  5
34FF
330
9
100
AcDbSymbolTableRecord
100
AcDbRegAppTableRecord
  2
ACATTRIBSERVICES
 70
     0
  0
APPID
  5
3500
330
9
100
AcDbSymbolTableRecord
100
AcDbRegAppTableRecord
  2
DCO15
 70
     0
  0
APPID
  5
3666
330
9
100
AcDbSymbolTableRecord
100
AcDbRegAppTableRecord
  2
CONTENTBLOCKICON
 70
     0
  0
APPID
  5
3770
330
9
100
AcDbSymbolTableRecord
100
AcDbRegAppTableRecord
  2
ACAD_MLEADERVER
 70
     0
  0
APPID
  5
379F
330
9
100
AcDbSymbolTableRecord
100
AcDbRegAppTableRecord
  2
AD_DRAW
 70
     0
  0
APPID
  5
37BE
330
9
100
AcDbSymbolTableRecord
100
AcDbRegAppTableRecord
  2
DESIGNERASSEMBLIES
 70
     0
  0
APPID
  5
37D0
330
9
100
AcDbSymbolTableRecord
100
AcDbRegAppTableRecord
  2
ACADM_DIM_EDIT
 70
     0
  0
APPID
  5
37D1
330
9
100
AcDbSymbolTableRecord
100
AcDbRegAppTableRecord
  2
AMDT_DM_ADJ
 70
     0
  0
ENDTAB
  0
TABLE
  2
DIMSTYLE
  5
A
330
0
100
AcDbSymbolTable
 70
     8
100
AcDbDimStyleTable
 71
     0
  0
DIMSTYLE
105
24
330
A
100
AcDbSymbolTableRecord
100
AcDbDimStyleTableRecord
  2
GEN-ISO
 70
     0
 40
2.0
 41
2.0
 42
1.0
 43
4.0
 44
0.5
 47
0.1
 48
0.1
 73
     0
 74
     0
 77
     1
 78
     8
140
4.0
141
-2.0
147
0.7
172
     1
178
   256
271
     2
272
     5
283
     0
284
     8
285
     8
286
     8
340
10
  0
DIMSTYLE
105
3593
330
A
100
AcDbSymbolTableRecord
100
AcDbDimStyleTableRecord
  2
AM_ISO
 70
     0
  4
"
 41
2.5
 42
1.0
 43
10.0
 44
1.0
 47
0.1
 48
0.1
 73
     0
 74
     0
 77
     1
 78
     8
 79
     2
140
3.5
141
0.0
143
0.0393701
146
0.71
147
1.5
172
     1
176
   256
177
   256
178
     2
271
     2
272
     2
283
     0
284
     8
340
10
371
    -1
372
    -1
  0
DIMSTYLE
105
3594
330
A
100
AcDbSymbolTableRecord
100
AcDbDimStyleTableRecord
  2
AM_ISO$3
 70
     0
  4
"
 41
2.5
 42
1.0
 43
10.0
 44
1.0
 47
0.1
 48
0.1
 73
     0
 77
     1
 78
     8
 79
     2
140
3.5
141
0.0
143
0.0393701
146
0.71
147
1.5
176
   256
177
   256
178
     2
271
     2
272
     3
274
     4
283
     0
288
     1
289
     0
340
10
371
    -1
372
    -1
  0
DIMSTYLE
105
3595
330
A
100
AcDbSymbolTableRecord
100
AcDbDimStyleTableRecord
  2
AM_ISO$4
 70
     0
  4
"
 41
2.5
 42
1.0
 43
10.0
 44
1.0
 47
0.1
 48
0.1
 73
     0
 77
     1
 78
     8
 79
     2
140
3.5
141
0.0
143
0.0393701
146
0.71
147
1.5
176
   256
177
   256
178
     2
271
     2
272
     2
283
     0
288
     1
340
10
371
    -1
372
    -1
  0
DIMSTYLE
105
3596
330
A
100
AcDbSymbolTableRecord
100
AcDbDimStyleTableRecord
  2
AM_ISO$6
 70
     0
  4
"
 41
2.5
 42
1.0
 43
10.0
 44
1.0
 47
0.1
 48
0.1
 73
     0
 74
     0
 78
     8
 79
     2
140
3.5
141
0.0
143
0.0393701
146
0.71
147
1.5
172
     1
176
   256
177
   256
178
     2
271
     2
272
     3
274
     4
283
     0
340
10
371
    -1
372
    -1
  0
DIMSTYLE
105
3597
330
A
100
AcDbSymbolTableRecord
100
AcDbDimStyleTableRecord
  2
AM_ISO$7
 70
     0
  4
"
 41
2.5
 42
1.0
 43
10.0
 44
1.0
 47
0.1
 48
0.1
 73
     0
 74
     0
 77
     1
 78
     8
 79
     2
140
5.0
141
0.0
143
0.0393701
146
0.71
147
1.5
172
     1
176
   256
177
   256
178
     2
271
     2
272
     3
274
     4
283
     0
340
10
371
    -1
372
    -1
  0
DIMSTYLE
105
3598
330
A
100
AcDbSymbolTableRecord
100
AcDbDimStyleTableRecord
  2
AM_ISO$SF
 70
     0
  4
"
 41
2.5
 42
1.0
 43
10.0
 44
1.0
 47
0.1
 48
0.1
 73
     0
 74
     0
 75
     1
 76
     1
 77
     1
 78
     8
 79
     2
140
3.5
141
0.0
143
0.0393701
146
0.71
147
1.5
172
     1
176
   256
177
   256
178
     2
271
     2
272
     3
274
     4
283
     0
340
10
371
    -1
372
    -1
  0
DIMSTYLE
105
3599
330
A
100
AcDbSymbolTableRecord
100
AcDbDimStyleTableRecord
  2
AM_ISO$SH
 70
     0
  4
"
 41
2.5
 42
1.0
 43
10.0
 44
1.0
 47
0.1
 48
0.1
 73
     0
 74
     0
 75
     1
 76
     1
 77
     1
 78
     8
 79
     2
140
3.5
141
0.0
143
0.0393701
144
2.0
146
0.71
147
1.5
172
     1
173
     1
176
   256
177
   256
178
     2
271
     2
272
     3
274
     4
283
     0
340
10
343
359A
371
    -1
372
    -1
  0
ENDTAB
  0
TABLE
  2
BLOCK_RECORD
  5
1
330
0
100
AcDbSymbolTable
 70
    29
  0
BLOCK_RECORD
  5
18
102
{ACAD_XDICTIONARY
360
35A6
102
}
330
1
100
AcDbSymbolTableRecord
100
AcDbBlockTableRecord
  2
*MODEL_SPACE
340
34E2
  0
BLOCK_RECORD
  5
15
102
{ACAD_XDICTIONARY
360
3653
102
}
330
1
100
AcDbSymbolTableRecord
100
AcDbBlockTableRecord
  2
*PAPER_SPACE
340
34E3
  0
BLOCK_RECORD
  5
353A
330
1
100
AcDbSymbolTableRecord
100
AcDbBlockTableRecord
  2
GENTPOS0
340
0
102
{BLKREFS
331
36EE
102
}
  0
BLOCK_RECORD
  5
3556
330
1
100
AcDbSymbolTableRecord
100
AcDbBlockTableRecord
  2
GENTPOS1
340
0
102
{BLKREFS
331
36EF
102
}
  0
BLOCK_RECORD
  5
3563
330
1
100
AcDbSymbolTableRecord
100
AcDbBlockTableRecord
  2
GENTPOS2
340
0
310
2800000020000000200000000100080000000000000400000000000000000000000000000000000000000000000080000080000000808000800000008000800080800000C0C0C000C0DCC000F0CAA6000020400000206000002080000020A0000020C0000020E00000400000004020000040400000406000004080000040A0
310
000040C0000040E00000600000006020000060400000606000006080000060A0000060C0000060E00000800000008020000080400000806000008080000080A0000080C0000080E00000A0000000A0200000A0400000A0600000A0800000A0A00000A0C00000A0E00000C0000000C0200000C0400000C0600000C0800000C0
310
A00000C0C00000C0E00000E0000000E0200000E0400000E0600000E0800000E0A00000E0C00000E0E00040000000400020004000400040006000400080004000A0004000C0004000E00040200000402020004020400040206000402080004020A0004020C0004020E000404000004040200040404000404060004040800040
310
40A0004040C0004040E00040600000406020004060400040606000406080004060A0004060C0004060E00040800000408020004080400040806000408080004080A0004080C0004080E00040A0000040A0200040A0400040A0600040A0800040A0A00040A0C00040A0E00040C0000040C0200040C0400040C0600040C08000
310
40C0A00040C0C00040C0E00040E0000040E0200040E0400040E0600040E0800040E0A00040E0C00040E0E00080000000800020008000400080006000800080008000A0008000C0008000E00080200000802020008020400080206000802080008020A0008020C0008020E00080400000804020008040400080406000804080
310
008040A0008040C0008040E00080600000806020008060400080606000806080008060A0008060C0008060E00080800000808020008080400080806000808080008080A0008080C0008080E00080A0000080A0200080A0400080A0600080A0800080A0A00080A0C00080A0E00080C0000080C0200080C0400080C0600080C0
310
800080C0A00080C0C00080C0E00080E0000080E0200080E0400080E0600080E0800080E0A00080E0C00080E0E000C0000000C0002000C0004000C0006000C0008000C000A000C000C000C000E000C0200000C0202000C0204000C0206000C0208000C020A000C020C000C020E000C0400000C0402000C0404000C0406000C0
310
408000C040A000C040C000C040E000C0600000C0602000C0604000C0606000C0608000C060A000C060C000C060E000C0800000C0802000C0804000C0806000C0808000C080A000C080C000C080E000C0A00000C0A02000C0A04000C0A06000C0A08000C0A0A000C0A0C000C0A0E000C0C00000C0C02000C0C04000C0C06000
310
C0C08000C0C0A000F0FBFF00A4A0A000808080000000FF0000FF000000FFFF00FF000000FF00FF00FFFF0000FFFFFF0000000000000000000000000000000000000000000000000000000000000000000000000000000000000000000000000000000000000000000000000000000000000000000000000000000000000000
310
00000000000000000000000000000000000000000000000000000000000000000000000000000000000000000000000000000000000000000000000000000000000000000000000000000000000000000000000000000000000000000000000000000000000000000000000000000000000000000000000000000000000000
310
00000000000000000000000000000000000000000000000000000000000000000000000000000000000000000000000000000000000000000000000000000000000000000000000000000000000000000000000000000000000000000000000000000000000000000000000000000000000000000000000000000000000000
310
00000000000000000000000000000000000000000000000000000000000000000000000000000000000000000000000000000000000000000000000000000000000000000000000000000000000000000000000000000000000000000000000000000000000000000000000000000000000000000000000000000000000000
310
000000000000000000000000000000000000000000FFFBF9FBF9F9F9F9F9F9F9F9F9F9F9F9F9F9F9F9F9F9F9F9F9F9F9F9F9FF0000FFFBF9FBF9FBFBFB0000000000F9FBFBFB0000000000F9FBFBFB0000FBFF0000000000000000000000000000000000000000000000000000000000000000000000000000000000000000
310
00000000000000000000000000000000000000000000000000000000000000000000000000000000000000000000000000000000000000000000000000000000000000000000000000000000000000000000000000000000000000000000000000000000000000000000000000000000000000000000000000000000000000
310
00000000000000000000000000000000000000000000000000000000000000000000000000000000000000000000000000000000000000000000000000000000000000000000000000000000000000000000000000000000000000000000000000000000000000000000000000000000000000000000000000000000000000
310
00000000000000000000000000000000000000000000000000000000000000000000000000000000000000000000000000000000000000000000000000000000000000000000000000000000000000000000000000000000000000000000000000000000000000000000000000000000000000000000000000000000000000
310
0000000000000000000000000000000000000000000000000000000000000000000000000000000000000000000000000000000000000000
102
{BLKREFS
331
36F7
102
}
  0
BLOCK_RECORD
  5
3573
330
1
100
AcDbSymbolTableRecord
100
AcDbBlockTableRecord
  2
GENTPOS
340
0
  0
BLOCK_RECORD
  5
359A
330
1
100
AcDbSymbolTableRecord
100
AcDbBlockTableRecord
  2
GENAXEH
340
0
  0
ENDTAB
  0
ENDSEC
  0
SECTION
  2
BLOCKS
  0
BLOCK
  5
44
330
18
100
AcDbEntity
  8
0
100
AcDbBlockBegin
  2
*MODEL_SPACE
 70
     0
 10
0.0
 20
0.0
 30
0.0
  3
*MODEL_SPACE
  1

  0
ENDBLK
  5
45
330
18
100
AcDbEntity
  8
0
100
AcDbBlockEnd
  0
BLOCK
  5
42
330
15
100
AcDbEntity
 67
     1
  8
0
100
AcDbBlockBegin
  2
*PAPER_SPACE
 70
     0
 10
0.0
 20
0.0
 30
0.0
  3
*PAPER_SPACE
  1

  0
ENDBLK
  5
43
330
15
100
AcDbEntity
 67
     1
  8
0
100
AcDbBlockEnd
  0
BLOCK
  5
36CD
330
353A
100
AcDbEntity
  8
0
100
AcDbBlockBegin
  2
GENTPOS0
 70
     0
 10
0.0
 20
0.0
 30
0.0
  3
GENTPOS0
  1

  0
LINE
  5
36B4
330
353A
100
AcDbEntity
  8
0
100
AcDbLine
 10
-182.8848688369858
 20
0.0000000000000178
 30
0.0
 11
-0.0000000000000015
 21
0.0
 31
0.0
  0
LINE
  5
36B5
330
353A
100
AcDbEntity
  8
AM_BOR
 62
     1
370
    25
100
AcDbLine
 10
-159.8848688369858
 20
4.500000000000026
 30
0.0
 11
0.0
 21
4.5
 31
0.0
1001
GENIUS_GENBLLY_14
1000
BOR2
  0
LINE
  5
36B7
330
353A
100
AcDbEntity
  8
AM_BOR
 62
     1
370
    25
100
AcDbLine
 10
-182.8848688369858
 20
9.000000000000017
 30
0.0
 11
0.0000000000000015
 21
8.999999999999971
 31
0.0
1001
GENIUS_GENBLLY_14
1000
BOR2
  0
LINE
  5
36B8
330
353A
100
AcDbEntity
  8
0
100
AcDbLine
 10
-182.8848688369858
 20
4.500000000000018
 30
0.0
 11
-182.8848688369858
 21
9.000000000000017
 31
0.0
  0
LINE
  5
36B9
330
353A
100
AcDbEntity
  8
0
100
AcDbLine
 10
-182.8848688369858
 20
0.0000000000000178
 30
0.0
 11
-182.8848688369858
 21
4.500000000000018
 31
0.0
  0
LINE
  5
36BA
330
353A
100
AcDbEntity
  8
AM_BOR
 62
     1
370
    25
100
AcDbLine
 10
-159.8848688369858
 20
4.500000000000028
 30
0.0
 11
-159.8848688369858
 21
0.0862588319893405
 31
0.0
1001
GENIUS_GENBLLY_14
1000
BOR2
  0
LINE
  5
36BB
330
353A
100
AcDbEntity
  8
AM_BOR
 62
     1
370
    25
100
AcDbLine
 10
-171.8848688369858
 20
4.500000000000049
 30
0.0
 11
-171.8848688369858
 21
0.0862588319893618
 31
0.0
1001
GENIUS_GENBLLY_14
1000
BOR2
  0
LINE
  5
36BC
330
353A
100
AcDbEntity
  8
AM_BOR
 62
     1
370
    25
100
AcDbLine
 10
-171.8848688369858
 20
9.000000000000078
 30
0.0
 11
-171.8848688369858
 21
4.500000000000078
 31
0.0
1001
GENIUS_GENBLLY_14
1000
BOR2
  0
LINE
  5
36BD
330
353A
100
AcDbEntity
  8
AM_BOR
 62
     1
370
    25
100
AcDbLine
 10
-159.8848688369858
 20
9.000000000000056
 30
0.0
 11
-159.8848688369858
 21
4.500000000000056
 31
0.0
1001
GENIUS_GENBLLY_14
1000
BOR2
  0
LINE
  5
36BE
330
353A
100
AcDbEntity
  8
AM_BOR
 62
     1
370
    25
100
AcDbLine
 10
-99.16415352220628
 20
4.500000000000028
 30
0.0
 11
-99.16415352220628
 21
0.0000000000000284
 31
0.0
1001
GENIUS_GENBLLY_14
1000
BOR2
  0
LINE
  5
36BF
330
353A
100
AcDbEntity
  8
AM_BOR
 62
     1
370
    25
100
AcDbLine
 10
-99.16415352220628
 20
9.000000000000028
 30
0.0
 11
-99.16415352220628
 21
4.500000000000028
 31
0.0
1001
GENIUS_GENBLLY_14
1000
BOR2
  0
TEXT
  5
36C0
330
353A
100
AcDbEntity
  8
AM_BOR
 62
     1
370
    35
100
AcDbText
 10
-40.5339414917006
 20
5.763229718930091
 30
0.0
 40
2.0
  1
(genmsg "gendwg" 39){20.2}
100
AcDbText
1001
GENIUS_GENBLLY_14
1000
BOR3
  0
TEXT
  5
36C1
330
353A
100
AcDbEntity
  8
AM_BOR
 62
     1
370
    35
100
AcDbText
 10
-40.5339414917006
 20
0.9821435911503897
 30
0.0
 40
2.0
  1
(genmsg "gendwg" 40){20.2}
100
AcDbText
1001
GENIUS_GENBLLY_14
1000
BOR3
  0
LINE
  5
36C2
330
353A
100
AcDbEntity
  8
AM_BOR
 62
     1
370
    25
100
AcDbLine
 10
-42.51312267027481
 20
4.500000000000056
 30
0.0
 11
-42.51312267027481
 21
0.0000000000000568
 31
0.0
1001
GENIUS_GENBLLY_14
1000
BOR2
  0
LINE
  5
36C3
330
353A
100
AcDbEntity
  8
AM_BOR
 62
     1
370
    25
100
AcDbLine
 10
-42.51312267027481
 20
9.000000000000028
 30
0.0
 11
-42.51312267027481
 21
4.500000000000028
 31
0.0
1001
GENIUS_GENBLLY_14
1000
BOR2
  0
LINE
  5
36C4
330
353A
100
AcDbEntity
  8
0
100
AcDbLine
 10
0.0
 20
4.5
 30
0.0
 11
0.0000000000000015
 21
9.0
 31
0.0
  0
LINE
  5
36C5
330
353A
100
AcDbEntity
  8
0
100
AcDbLine
 10
-0.0000000000000015
 20
0.0
 30
0.0
 11
0.0
 21
4.5
 31
0.0
  0
TEXT
  5
36C6
330
353A
100
AcDbEntity
  8
AM_BOR
 62
     1
370
    35
100
AcDbText
 10
-98.2036393615847
 20
5.608505873506747
 30
0.0
 40
2.0
  1
(genmsg "gendwg" 37){27.5}
100
AcDbText
1001
GENIUS_GENBLLY_14
1000
BOR3
  0
TEXT
  5
36C7
330
353A
100
AcDbEntity
  8
AM_BOR
 62
     1
370
    35
100
AcDbText
 10
-98.13869994507559
 20
1.100050017994508
 30
0.0
 40
2.0
  1
(genmsg "gendwg" 38){27.5}
100
AcDbText
1001
GENIUS_GENBLLY_14
1000
BOR3
  0
TEXT
  5
36C8
330
353A
100
AcDbEntity
  8
AM_BOR
 62
     1
370
    35
100
AcDbText
 10
-159.1934076074175
 20
5.534152162888322
 30
0.0
 40
2.0
  1
(genmsg "gendwg" 35){22.7}
100
AcDbText
1001
GENIUS_GENBLLY_14
1000
BOR3
  0
TEXT
  5
36C9
330
353A
100
AcDbEntity
  8
AM_BOR
 62
     1
370
    35
100
AcDbText
 10
-159.0635287743993
 20
1.186796013715994
 30
0.0
 40
2.0
  1
(genmsg "gendwg" 36){22.7}
100
AcDbText
1001
GENIUS_GENBLLY_14
1000
BOR3
  0
TEXT
  5
36CA
330
353A
100
AcDbEntity
  8
AM_BOR
 62
     1
370
    35
100
AcDbText
 10
-182.0635287743993
 20
5.864034458310133
 30
0.0
 40
2.0
  1
(genmsg "gendwg" 29){7.6}
100
AcDbText
1001
GENIUS_GENBLLY_14
1000
BOR3
  0
TEXT
  5
36CB
330
353A
100
AcDbEntity
  8
AM_BOR
 62
     1
370
    35
100
AcDbText
 10
-171.0635287743993
 20
5.650960109797129
 30
0.0
 40
2.0
  1
(genmsg "gendwg" 32){5.3}
100
AcDbText
1001
GENIUS_GENBLLY_14
1000
BOR3
  0
TEXT
  5
36CC
330
353A
100
AcDbEntity
  8
AM_BOR
 62
     1
370
    35
100
AcDbText
 10
-8.700000000000002
 20
5.763229718930091
 30
0.0
 40
2.0
  1
Länge
 72
     2
 11
-2.0
 21
5.763229718930091
 31
0.0
100
AcDbText
1001
GENIUS_GENBLLY_14
1000
BOR3
  0
ENDBLK
  5
36CE
330
353A
100
AcDbEntity
  8
0
100
AcDbBlockEnd
  0
BLOCK
  5
36DA
330
3556
100
AcDbEntity
  8
0
100
AcDbBlockBegin
  2
GENTPOS1
 70
     2
 10
0.0
 20
0.0
 30
0.0
  3
GENTPOS1
  1

  0
LINE
  5
36D0
330
3556
100
AcDbEntity
  8
0
100
AcDbLine
 10
-182.8848688369859
 20
0.0000000000000853
 30
0.0
 11
-182.8848688369859
 21
4.500000000000085
 31
0.0
  0
ATTDEF
  5
36D1
330
3556
100
AcDbEntity
  8
AM_BOR
 62
     2
370
    35
100
AcDbText
 10
-158.9507488793445
 20
1.462817121073982
 30
0.0
 40
2.0
  1

100
AcDbAttributeDefinition
  3
(GENMSG "GENDWG" 35)
  2
6GENST{22.7}
 70
     0
1001
GENIUS_GENBLLY_14
1000
BOR3
  0
LINE
  5
36D2
330
3556
100
AcDbEntity
  8
AM_BOR
 62
     1
370
    25
100
AcDbLine
 10
-171.8848688369858
 20
4.500000000000028
 30
0.0
 11
-171.8848688369858
 21
0.0000000000000284
 31
0.0
1001
GENIUS_GENBLLY_14
1000
BOR2
  0
LINE
  5
36D3
330
3556
100
AcDbEntity
  8
AM_BOR
 62
     1
370
    25
100
AcDbLine
 10
-159.8848688369858
 20
4.5
 30
0.0
 11
-159.8848688369858
 21
0.0
 31
0.0
1001
GENIUS_GENBLLY_14
1000
BOR2
  0
ATTDEF
  5
36D4
330
3556
100
AcDbEntity
  8
AM_BOR
 62
     2
370
    35
100
AcDbText
 10
-98.30654456084836
 20
1.462846717870263
 30
0.0
 40
2.0
  1

100
AcDbAttributeDefinition
  3
(GENMSG "GENDWG" 37)
  2
8GENST{27.5}
 70
     0
1001
GENIUS_GENBLLY_14
1000
BOR3
  0
LINE
  5
36D5
330
3556
100
AcDbEntity
  8
AM_BOR
 62
     1
370
    25
100
AcDbLine
 10
-99.16415352220633
 20
4.499999999999985
 30
0.0
 11
-99.16415352220633
 21
0.0
 31
0.0
1001
GENIUS_GENBLLY_14
1000
BOR2
  0
ATTDEF
  5
36D6
330
3556
100
AcDbEntity
  8
AM_BOR
 62
     2
370
    35
100
AcDbText
 10
-41.18880055791851
 20
1.453563055486227
 30
0.0
 40
2.0
  1

100
AcDbAttributeDefinition
  3
(GENMSG "GENDWG" 39)
  2
10GENST{20.2}
 70
     0
1001
GENIUS_GENBLLY_14
1000
BOR3
  0
LINE
  5
36D7
330
3556
100
AcDbEntity
  8
AM_BOR
 62
     1
370
    25
100
AcDbLine
 10
-42.51312267027481
 20
4.499999999999971
 30
0.0
 11
-42.51312267027481
 21
0.0
 31
0.0
1001
GENIUS_GENBLLY_14
1000
BOR2
  0
LINE
  5
36D8
330
3556
100
AcDbEntity
  8
0
100
AcDbLine
 10
0.0
 20
4.499999999999957
 30
0.0
 11
0.0
 21
0.0
 31
0.0
  0
LINE
  5
36D9
330
3556
100
AcDbEntity
  8
AM_BOR
 62
     1
370
    25
100
AcDbLine
 10
-159.8848688369858
 20
4.5
 30
0.0
 11
0.0
 21
4.50000000000017
 31
0.0
1001
GENIUS_GENBLLY_14
1000
BOR2
  0
ENDBLK
  5
36DB
330
3556
100
AcDbEntity
  8
0
100
AcDbBlockEnd
  0
BLOCK
  5
36EA
330
3563
100
AcDbEntity
  8
0
100
AcDbBlockBegin
  2
GENTPOS2
 70
     2
 10
0.0
 20
0.0
 30
0.0
  3
GENTPOS2
  1

  0
ATTDEF
  5
36DD
330
3563
100
AcDbEntity
  8
AM_BOR
 62
     2
370
    35
100
AcDbText
 10
-181.9880496049755
 20
-25.67901407093679
 30
0.0
 40
2.0
  1

100
AcDbAttributeDefinition
  3

  2
ITEM
 70
     0
1001
GENIUS_GENBLLY_14
1000
BOR3
  0
ATTDEF
  5
36DE
330
3563
100
AcDbEntity
  8
AM_BOR
 62
     2
370
    35
100
AcDbText
 10
-170.9880496049755
 20
-25.67901407093676
 30
0.0
 40
2.0
  1

100
AcDbAttributeDefinition
  3

  2
QTY
 70
     0
1001
GENIUS_GENBLLY_14
1000
BOR3
  0
ATTDEF
  5
36DF
330
3563
100
AcDbEntity
  8
AM_BOR
 62
     2
370
    35
100
AcDbText
 10
-158.9880496049755
 20
-25.67901407093679
 30
0.0
 40
2.0
  1

100
AcDbAttributeDefinition
  3
(GENMSG "GENDWG" 36)
  2
5GENST{22.7}
 70
     0
1001
GENIUS_GENBLLY_14
1000
BOR3
  0
ATTDEF
  5
36E0
330
3563
100
AcDbEntity
  8
AM_BOR
 62
     2
370
    35
100
AcDbText
 10
-98.12709024845236
 20
-25.67898447414051
 30
0.0
 40
2.0
  1

100
AcDbAttributeDefinition
  3
(GENMSG "GENDWG" 38)
  2
7GENST{27.5}
 70
     0
1001
GENIUS_GENBLLY_14
1000
BOR3
  0
ATTDEF
  5
36E1
330
3563
100
AcDbEntity
  8
AM_BOR
 62
     2
370
    35
100
AcDbText
 10
-41.3554367051451
 20
-25.48402756407573
 30
0.0
 40
2.0
  1

100
AcDbAttributeDefinition
  3
(GENMSG "GENDWG" 40)
  2
9GENST{20.2}
 70
     0
1001
GENIUS_GENBLLY_14
1000
BOR3
  0
ATTDEF
  5
36E2
330
3563
100
AcDbEntity
  8
AM_BOR
 62
     2
370
    35
100
AcDbText
 10
-2.000000000000113
 20
-25.54643694451362
 30
0.0
 40
2.0
  1

 72
     2
 11
-2.000000000000113
 21
-25.54643694451362
 31
0.0
100
AcDbAttributeDefinition
  3

  2
DIM
 70
     0
1001
GENIUS_GENBLLY_14
1000
BOR3
  0
LINE
  5
36E3
330
3563
100
AcDbEntity
  8
AM_BOR
 62
     1
370
    25
100
AcDbLine
 10
-182.8848688369859
 20
-22.49999999999984
 30
0.0
 11
-0.0000000000001137
 21
-22.49999999999984
 31
0.0
1001
GENIUS_GENBLLY_14
1000
BOR2
  0
LINE
  5
36E4
330
3563
100
AcDbEntity
  8
0
100
AcDbLine
 10
-182.8848688369859
 20
-26.99999999999985
 30
0.0
 11
-182.8848688369859
 21
-22.49999999999984
 31
0.0
  0
LINE
  5
36E5
330
3563
100
AcDbEntity
  8
AM_BOR
 62
     1
370
    25
100
AcDbLine
 10
-171.8848688369859
 20
-22.4999999999998
 30
0.0
 11
-171.8848688369859
 21
-26.9999999999998
 31
0.0
1001
GENIUS_GENBLLY_14
1000
BOR2
  0
LINE
  5
36E6
330
3563
100
AcDbEntity
  8
AM_BOR
 62
     1
370
    25
100
AcDbLine
 10
-159.8848688369859
 20
-22.49999999999984
 30
0.0
 11
-159.8848688369859
 21
-26.99999999999985
 31
0.0
1001
GENIUS_GENBLLY_14
1000
BOR2
  0
LINE
  5
36E7
330
3563
100
AcDbEntity
  8
AM_BOR
 62
     1
370
    25
100
AcDbLine
 10
-99.16415352220639
 20
-22.49999999999986
 30
0.0
 11
-99.16415352220639
 21
-26.99999999999985
 31
0.0
1001
GENIUS_GENBLLY_14
1000
BOR2
  0
LINE
  5
36E8
330
3563
100
AcDbEntity
  8
AM_BOR
 62
     1
370
    25
100
AcDbLine
 10
-42.51312267027486
 20
-22.49999999999987
 30
0.0
 11
-42.51312267027486
 21
-26.99999999999985
 31
0.0
1001
GENIUS_GENBLLY_14
1000
BOR2
  0
LINE
  5
36E9
330
3563
100
AcDbEntity
  8
0
100
AcDbLine
 10
-0.0000000000000568
 20
-22.49999999999989
 30
0.0
 11
-0.0000000000000568
 21
-26.99999999999985
 31
0.0
  0
ENDBLK
  5
36EB
330
3563
100
AcDbEntity
  8
0
100
AcDbBlockEnd
  0
BLOCK
  5
36FF
330
3573
100
AcDbEntity
  8
0
100
AcDbBlockBegin
  2
GENTPOS
 70
     2
 10
0.0
 20
0.0
 30
0.0
  3
GENTPOS
  1

  0
ATTDEF
  5
36ED
330
3573
100
AcDbEntity
  8
0
100
AcDbText
 10
0.0
 20
9.0
 30
0.0
 40
2.5
  1
4
100
AcDbAttributeDefinition
  3

  2
_ALWAYS
 70
     3
  0
INSERT
  5
36EE
330
3573
100
AcDbEntity
  8
0
100
AcDbBlockReference
  2
GENTPOS0
 10
0.0
 20
0.0
 30
0.0
  0
INSERT
  5
36EF
330
3573
100
AcDbEntity
  8
0
100
AcDbBlockReference
 66
     1
  2
GENTPOS1
 10
0.0000000000000015
 20
9.0
 30
0.0
  0
ATTRIB
  5
36F0
330
36EF
100
AcDbEntity
  8
AM_BOR
 62
     2
370
    35
100
AcDbText
 10
-42.51312267027481
 20
9.0
 30
0.0
 40
2.0
  1

100
AcDbAttribute
  2
3GENST{6.3}
 70
     0
1001
GENIUS_GENBLLY_14
1000
BOR3
  0
ATTRIB
  5
36F1
330
36EF
100
AcDbEntity
  8
AM_BOR
 62
     2
370
    35
100
AcDbText
 10
-99.16415352220633
 20
9.000000000000028
 30
0.0
 40
2.0
  1

100
AcDbAttribute
  2
1GENST{7.6}
 70
     0
1001
GENIUS_GENBLLY_14
1000
BOR3
  0
ATTRIB
  5
36F2
330
36EF
100
AcDbEntity
  8
AM_BOR
 62
     2
370
    35
100
AcDbText
 10
-145.5207488793445
 20
10.46281712107398
 30
0.0
 40
2.0
  1

100
AcDbAttribute
  2
5GENST{22.7}
 70
     0
1001
GENIUS_GENBLLY_14
1000
BOR3
  0
ATTRIB
  5
36F3
330
36EF
100
AcDbEntity
  8
AM_BOR
 62
     2
370
    35
100
AcDbText
 10
-146.4548688369858
 20
9.0
 30
0.0
 40
2.0
  1

100
AcDbAttribute
  2
2GENST{5.3}
 70
     0
1001
GENIUS_GENBLLY_14
1000
BOR3
  0
ATTRIB
  5
36F4
330
36EF
100
AcDbEntity
  8
AM_BOR
 62
     2
370
    35
100
AcDbText
 10
-98.30654456084836
 20
10.46284671787026
 30
0.0
 40
2.0
  1

100
AcDbAttribute
  2
7GENST{27.5}
 70
     0
1001
GENIUS_GENBLLY_14
1000
BOR3
  0
ATTRIB
  5
36F5
330
36EF
100
AcDbEntity
  8
AM_BOR
 62
     2
370
    35
100
AcDbText
 10
-41.18880055791851
 20
10.45356305548623
 30
0.0
 40
2.0
  1

100
AcDbAttribute
  2
9GENST{20.2}
 70
     0
1001
GENIUS_GENBLLY_14
1000
BOR3
  0
SEQEND
  5
36F6
330
36EF
100
AcDbEntity
  8
0
  0
INSERT
  5
36F7
330
3573
100
AcDbEntity
  8
0
100
AcDbBlockReference
 66
     1
  2
GENTPOS2
 10
0.0000000000000583
 20
40.50000000000001
 30
0.0
  0
ATTRIB
  5
36F8
330
36F7
100
AcDbEntity
  8
AM_BOR
 62
     2
370
    35
100
AcDbText
 10
-181.9880496049754
 20
14.82098592906323
 30
0.0
 40
2.0
  1

100
AcDbAttribute
  2
ITEM
 70
     0
  0
ATTRIB
  5
36F9
330
36F7
100
AcDbEntity
  8
AM_BOR
 62
     2
370
    35
100
AcDbText
 10
-170.9880496049754
 20
14.82098592906326
 30
0.0
 40
2.0
  1

100
AcDbAttribute
  2
QTY
 70
     0
  0
ATTRIB
  5
36FA
330
36F7
100
AcDbEntity
  8
AM_BOR
 62
     2
370
    35
100
AcDbText
 10
-158.9880496049754
 20
14.82098592906323
 30
0.0
 40
2.0
  1

100
AcDbAttribute
  2
5GENST{22.7}
 70
     0
  0
ATTRIB
  5
36FB
330
36F7
100
AcDbEntity
  8
AM_BOR
 62
     2
370
    35
100
AcDbText
 10
-98.12709024845231
 20
14.82101552585951
 30
0.0
 40
2.0
  1

100
AcDbAttribute
  2
7GENST{27.5}
 70
     0
  0
ATTRIB
  5
36FC
330
36F7
100
AcDbEntity
  8
AM_BOR
 62
     2
370
    35
100
AcDbText
 10
-41.35543670514505
 20
15.01597243592428
 30
0.0
 40
2.0
  1

100
AcDbAttribute
  2
9GENST{20.2}
 70
     0
  0
ATTRIB
  5
36FD
330
36F7
100
AcDbEntity
  8
AM_BOR
 62
     2
370
    35
100
AcDbText
 10
-2.000000000000055
 20
14.9535630554864
 30
0.0
 40
2.0
  1

 72
     2
 11
-2.000000000000055
 21
14.9535630554864
 31
0.0
100
AcDbAttribute
  2
DIM
 70
     0
  0
SEQEND
  5
36FE
330
36F7
100
AcDbEntity
  8
0
  0
ENDBLK
  5
3700
330
3573
100
AcDbEntity
  8
0
100
AcDbBlockEnd
  0
BLOCK
  5
3715
330
359A
100
AcDbEntity
  8
0
100
AcDbBlockBegin
  2
GENAXEH
 70
     0
 10
0.0
 20
0.0
 30
0.0
  3
GENAXEH
  1

  0
LINE
  5
3714
330
359A
100
AcDbEntity
  8
0
100
AcDbLine
 10
-1.0
 20
0.0
 30
0.0
 11
1.0
 21
0.0
 31
0.0
  0
ENDBLK
  5
3716
330
359A
100
AcDbEntity
  8
0
100
AcDbBlockEnd
  0
ENDSEC
  0
SECTION
  2
ENTITIES
  0
LINE
  5
1CE1
330
18
100
AcDbEntity
  8
7A
 48
2.0
100
AcDbLine
 10
109.648995156376
 20
505.1915137540657
 30
0.0
 11
161.9264568201288
 21
505.1915137540657
 31
0.0
  0
LINE
  5
1CE2
330
18
100
AcDbEntity
  8
0
 48
2.0
100
AcDbLine
 10
109.648995156376
 20
563.1915131160657
 30
0.0
 11
328.1489928078764
 21
563.1915131160657
 31
0.0
  0
LINE
  5
1CE3
330
18
100
AcDbEntity
  8
0
 48
2.0
100
AcDbLine
 10
109.648995156376
 20
447.1915143920656
 30
0.0
 11
328.1489928078764
 21
447.1915143920656
 31
0.0
  0
LINE
  5
1CE4
330
18
100
AcDbEntity
  8
0
 48
2.0
100
AcDbLine
 10
109.648995156376
 20
563.1915131160657
 30
0.0
 11
109.648995156376
 21
447.1915143920656
 31
0.0
  0
LINE
  5
1CE5
330
18
100
AcDbEntity
  8
0
 48
2.0
100
AcDbLine
 10
126.1489950298762
 20
563.1915131160657
 30
0.0
 11
126.1489950298762
 21
447.1915143920656
 31
0.0
  0
LINE
  5
1CE6
330
18
100
AcDbEntity
  8
0
 48
2.0
100
AcDbLine
 10
320.1489928958764
 20
563.1915131160657
 30
0.0
 11
320.1489928958763
 21
447.1915143920656
 31
0.0
  0
LINE
  5
1CE7
330
18
100
AcDbEntity
  8
0
 48
2.0
100
AcDbLine
 10
103.6489952223761
 20
542.2915133459655
 30
0.0
 11
103.6489952223761
 21
559.6120212311289
 31
0.0
  0
LINE
  5
1CEA
330
18
100
AcDbEntity
  8
7A
 48
2.0
100
AcDbLine
 10
98.64470842366428
 20
526.7004866097267
 30
0.0
 11
93.07643643440702
 21
557.7204463240653
 31
0.0
  0
LINE
  5
1CEB
330
18
100
AcDbEntity
  8
7A
 48
2.0
100
AcDbLine
 10
96.1840385021801
 20
526.2587813488307
 30
0.0
 11
90.61576651292284
 21
557.2787410631693
 31
0.0
  0
ARC
  5
1CEC
330
18
100
AcDbEntity
  8
0
 48
2.0
100
AcDbCircle
 10
139.2434288385666
 20
550.9517672885472
 30
0.0
 40
35.59443361619045
100
AcDbArc
 50
165.9183959270164
 51
194.0816040729835
  0
ARC
  5
1CED
330
18
100
AcDbEntity
  8
0
 48
2.0
100
AcDbCircle
 10
74.05456154018565
 20
550.9517672885472
 30
0.0
 40
35.59443361619045
100
AcDbArc
 50
345.9183959270164
 51
14.08160407298357
  0
LINE
  5
1CF0
330
18
100
AcDbEntity
  8
7A
 48
2.0
100
AcDbLine
 10
109.648995156376
 20
542.2915133459656
 30
0.0
 11
87.61601690002454
 21
542.2915133459656
 31
0.0
  0
LINE
  5
1CF1
330
18
100
AcDbEntity
  8
7A
 48
2.0
100
AcDbLine
 10
109.648995156376
 20
468.0915141621656
 30
0.0
 11
87.61601690002454
 21
468.0915141621656
 31
0.0
  0
LINE
  5
1CF2
330
18
100
AcDbEntity
  8
0
 48
2.0
100
AcDbLine
 10
95.72939763247223
 20
528.7915134944658
 30
0.0
 11
87.61601690002454
 21
528.7915134944658
 31
0.0
  0
LINE
  5
1CF3
330
18
100
AcDbEntity
  8
5
 48
2.0
100
AcDbLine
 10
95.50501500998962
 20
530.0415134807158
 30
0.0
 11
87.61601690002454
 21
530.0415134807158
 31
0.0
  0
LINE
  5
1CF4
330
18
100
AcDbEntity
  8
7A
 48
2.0
100
AcDbLine
 10
96.1840385021801
 20
452.0587821650307
 30
0.0
 11
90.61576651292284
 21
483.0787418793692
 31
0.0
  0
LINE
  5
1CF5
330
18
100
AcDbEntity
  8
5
 48
2.0
100
AcDbLine
 10
95.50501500998962
 20
455.8415142969157
 30
0.0
 11
87.61601690002454
 21
455.8415142969157
 31
0.0
  0
LINE
  5
1CF6
330
18
100
AcDbEntity
  8
0
 48
2.0
100
AcDbLine
 10
95.72939763247223
 20
454.5915143106657
 30
0.0
 11
87.61601690002454
 21
454.5915143106657
 31
0.0
  0
LINE
  5
1CF7
330
18
100
AcDbEntity
  8
0
 48
2.0
100
AcDbLine
 10
87.61601690002454
 20
454.5915143106657
 30
0.0
 11
87.61601690002454
 21
481.5915140136656
 31
0.0
  0
LINE
  5
1CF8
330
18
100
AcDbEntity
  8
5
 48
2.0
100
AcDbLine
 10
91.10711560933077
 20
480.3415140274156
 30
0.0
 11
87.61601690002454
 21
480.3415140274156
 31
0.0
  0
LINE
  5
1CF9
330
18
100
AcDbEntity
  8
0
 48
2.0
100
AcDbLine
 10
90.88273298684816
 20
481.5915140136657
 30
0.0
 11
87.61601690002454
 21
481.5915140136656
 31
0.0
  0
LINE
  5
1CFA
330
18
100
AcDbEntity
  8
0
 48
2.0
100
AcDbLine
 10
87.61601690002454
 20
528.7915134944658
 30
0.0
 11
87.61601690002454
 21
555.7915131974656
 31
0.0
  0
LINE
  5
1CFB
330
18
100
AcDbEntity
  8
0
 48
2.0
100
AcDbLine
 10
90.88273298684816
 20
555.7915131974657
 30
0.0
 11
87.61601690002454
 21
555.7915131974656
 31
0.0
  0
LINE
  5
1CFC
330
18
100
AcDbEntity
  8
5
 48
2.0
100
AcDbLine
 10
91.10711560933077
 20
554.5415132112156
 30
0.0
 11
87.61601690002454
 21
554.5415132112156
 31
0.0
  0
ARC
  5
1CFD
330
18
100
AcDbEntity
  8
0
 48
2.0
100
AcDbCircle
 10
74.05456154018565
 20
476.7517681047472
 30
0.0
 40
35.59443361619045
100
AcDbArc
 50
345.9183959270164
 51
14.08160407298357
  0
ARC
  5
1CFE
330
18
100
AcDbEntity
  8
0
 48
2.0
100
AcDbCircle
 10
139.2434288385666
 20
476.7517681047472
 30
0.0
 40
35.59443361619045
100
AcDbArc
 50
165.9183959270164
 51
194.0816040729835
  0
LINE
  5
1CFF
330
18
100
AcDbEntity
  8
0
 48
2.0
100
AcDbLine
 10
103.6489952223761
 20
468.0915141621656
 30
0.0
 11
103.6489952223761
 21
485.4120220473288
 31
0.0
  0
ARC
  5
1D00
330
18
100
AcDbEntity
  8
0
 48
2.0
100
AcDbCircle
 10
139.2434288385666
 20
459.431260219584
 30
0.0
 40
35.59443361619045
100
AcDbArc
 50
165.9183959270164
 51
194.0816040729835
  0
LINE
  5
1D01
330
18
100
AcDbEntity
  8
0
 48
2.0
100
AcDbLine
 10
109.648995156376
 20
450.7710062770025
 30
0.0
 11
103.6489952223761
 21
450.7710062770025
 31
0.0
  0
LINE
  5
1D02
330
18
100
AcDbEntity
  8
7A
 48
2.0
100
AcDbLine
 10
98.64470842366428
 20
452.5004874259268
 30
0.0
 11
93.07643643440702
 21
483.5204471402653
 31
0.0
  0
LINE
  5
1D03
330
18
100
AcDbEntity
  8
0
 48
2.0
100
AcDbLine
 10
103.6489952223761
 20
468.0915141621656
 30
0.0
 11
103.6489952223761
 21
450.7710062770025
 31
0.0
  0
LINE
  5
1D04
330
18
100
AcDbEntity
  8
5
 48
2.0
100
AcDbLine
 10
103.6489952223761
 20
455.8415142969157
 30
0.0
 11
98.04497372018932
 21
455.8415142969157
 31
0.0
  0
LINE
  5
1D05
330
18
100
AcDbEntity
  8
0
 48
2.0
100
AcDbLine
 10
103.6489952223761
 20
454.5915143106657
 30
0.0
 11
98.26935634267181
 21
454.5915143106657
 31
0.0
  0
LINE
  5
1D06
330
18
100
AcDbEntity
  8
5
 48
2.0
100
AcDbLine
 10
103.6489952223761
 20
480.3415140274156
 30
0.0
 11
93.64707431953036
 21
480.3415140274156
 31
0.0
  0
LINE
  5
1D07
330
18
100
AcDbEntity
  8
0
 48
2.0
100
AcDbLine
 10
103.6489952223761
 20
481.5915140136658
 30
0.0
 11
93.42269169704776
 21
481.5915140136657
 31
0.0
  0
ARC
  5
1D08
330
18
100
AcDbEntity
  8
0
 48
2.0
100
AcDbCircle
 10
74.05456154018565
 20
459.431260219584
 30
0.0
 40
35.59443361619045
100
AcDbArc
 50
345.9183959270164
 51
14.08160407298356
  0
LINE
  5
1D09
330
18
100
AcDbEntity
  8
0
 48
2.0
100
AcDbLine
 10
108.5793889272615
 20
468.0915141621656
 30
0.0
 11
104.7186014514906
 21
468.0915141621656
 31
0.0
  0
LINE
  5
1D0A
330
18
100
AcDbEntity
  8
0
 48
2.0
100
AcDbLine
 10
109.648995156376
 20
485.4120220473288
 30
0.0
 11
103.6489952223761
 21
485.4120220473288
 31
0.0
  0
LINE
  5
1D0B
330
18
100
AcDbEntity
  8
0
 48
2.0
100
AcDbLine
 10
109.648995156376
 20
524.9710054608024
 30
0.0
 11
103.6489952223761
 21
524.9710054608024
 31
0.0
  0
ARC
  5
1D0C
330
18
100
AcDbEntity
  8
0
 48
2.0
100
AcDbCircle
 10
139.2434288385666
 20
533.6312594033841
 30
0.0
 40
35.59443361619045
100
AcDbArc
 50
165.9183959270164
 51
194.0816040729835
  0
LINE
  5
1D0D
330
18
100
AcDbEntity
  8
0
 48
2.0
100
AcDbLine
 10
103.6489952223761
 20
542.2915133459656
 30
0.0
 11
103.6489952223761
 21
524.9710054608024
 31
0.0
  0
LINE
  5
1D0E
330
18
100
AcDbEntity
  8
0
 48
2.0
100
AcDbLine
 10
103.6489952223761
 20
528.7915134944658
 30
0.0
 11
98.26935634267181
 21
528.7915134944658
 31
0.0
  0
LINE
  5
1D0F
330
18
100
AcDbEntity
  8
5
 48
2.0
100
AcDbLine
 10
103.6489952223761
 20
530.0415134807158
 30
0.0
 11
98.04497372018932
 21
530.0415134807158
 31
0.0
  0
LINE
  5
1D10
330
18
100
AcDbEntity
  8
0
 48
2.0
100
AcDbLine
 10
103.6489952223761
 20
555.7915131974657
 30
0.0
 11
93.42269169704776
 21
555.7915131974657
 31
0.0
  0
LINE
  5
1D11
330
18
100
AcDbEntity
  8
5
 48
2.0
100
AcDbLine
 10
103.6489952223761
 20
554.5415132112156
 30
0.0
 11
93.64707431953036
 21
554.5415132112156
 31
0.0
  0
ARC
  5
1D12
330
18
100
AcDbEntity
  8
0
 48
2.0
100
AcDbCircle
 10
74.05456154018565
 20
533.6312594033841
 30
0.0
 40
35.59443361619045
100
AcDbArc
 50
345.9183959270164
 51
14.08160407298356
  0
LINE
  5
1D13
330
18
100
AcDbEntity
  8
0
 48
2.0
100
AcDbLine
 10
108.5793889272615
 20
542.2915133459656
 30
0.0
 11
104.7186014514906
 21
542.2915133459656
 31
0.0
  0
LINE
  5
1D83
330
18
100
AcDbEntity
  8
0
 48
2.0
100
AcDbLine
 10
109.648995156376
 20
559.6120212311289
 30
0.0
 11
103.6489952223761
 21
559.6120212311289
 31
0.0
  0
LINE
  5
1D84
330
18
100
AcDbEntity
  8
0
 48
2.0
100
AcDbLine
 10
328.1489928078764
 20
563.1915131160655
 30
0.0
 11
328.1489928078764
 21
447.1915143920656
 31
0.0
  0
ARC
  5
1DBE
330
18
100
AcDbEntity
  8
5
 48
2.0
100
AcDbCircle
 10
193.1489939628763
 20
535.1915137540657
 30
0.0
 40
5.0
100
AcDbArc
 50
172.405357
 51
104.931417
  0
LINE
  5
1DBF
330
18
100
AcDbEntity
  8
7A
 48
2.0
100
AcDbLine
 10
193.1489939628763
 20
527.6915137540656
 30
0.0
 11
193.1489939628763
 21
542.6915137540657
 31
0.0
  0
CIRCLE
  5
1DC0
330
18
100
AcDbEntity
  8
0
 48
2.0
100
AcDbCircle
 10
193.1489939628763
 20
535.1915137540657
 30
0.0
 40
4.187999999999999
  0
LINE
  5
1DC1
330
18
100
AcDbEntity
  8
7A
 48
2.0
100
AcDbLine
 10
185.6489939628763
 20
535.1915137540657
 30
0.0
 11
200.6489939628764
 21
535.1915137540657
 31
0.0
  0
CIRCLE
  5
1DC2
330
18
100
AcDbEntity
  8
0
 48
2.0
100
AcDbCircle
 10
253.1489939628764
 20
535.1915137540657
 30
0.0
 40
4.187999999999999
  0
LINE
  5
1DC3
330
18
100
AcDbEntity
  8
7A
 48
2.0
100
AcDbLine
 10
245.6489939628764
 20
535.1915137540657
 30
0.0
 11
260.6489939628764
 21
535.1915137540657
 31
0.0
  0
ARC
  5
1DC4
330
18
100
AcDbEntity
  8
5
 48
2.0
100
AcDbCircle
 10
253.1489939628764
 20
535.1915137540657
 30
0.0
 40
5.0
100
AcDbArc
 50
172.405357
 51
104.931417
  0
LINE
  5
1DC5
330
18
100
AcDbEntity
  8
7A
 48
2.0
100
AcDbLine
 10
253.1489939628764
 20
527.6915137540656
 30
0.0
 11
253.1489939628764
 21
542.6915137540657
 31
0.0
  0
CIRCLE
  5
1DC6
330
18
100
AcDbEntity
  8
0
 48
2.0
100
AcDbCircle
 10
193.1489939628763
 20
475.1915137540656
 30
0.0
 40
4.187999999999999
  0
LINE
  5
1DC7
330
18
100
AcDbEntity
  8
7A
 48
2.0
100
AcDbLine
 10
185.6489939628763
 20
475.1915137540656
 30
0.0
 11
200.6489939628764
 21
475.1915137540656
 31
0.0
  0
ARC
  5
1DC8
330
18
100
AcDbEntity
  8
5
 48
2.0
100
AcDbCircle
 10
193.1489939628763
 20
475.1915137540656
 30
0.0
 40
5.0
100
AcDbArc
 50
172.405357
 51
104.931417
  0
LINE
  5
1DC9
330
18
100
AcDbEntity
  8
7A
 48
2.0
100
AcDbLine
 10
193.1489939628763
 20
467.6915137540657
 30
0.0
 11
193.1489939628763
 21
482.6915137540656
 31
0.0
  0
ARC
  5
1DCA
330
18
100
AcDbEntity
  8
5
 48
2.0
100
AcDbCircle
 10
253.1489939628764
 20
475.1915137540656
 30
0.0
 40
5.0
100
AcDbArc
 50
172.405357
 51
104.931417
  0
LINE
  5
1DCB
330
18
100
AcDbEntity
  8
7A
 48
2.0
100
AcDbLine
 10
245.6489939628764
 20
475.1915137540656
 30
0.0
 11
260.6489939628764
 21
475.1915137540656
 31
0.0
  0
CIRCLE
  5
1DCC
330
18
100
AcDbEntity
  8
0
 48
2.0
100
AcDbCircle
 10
253.1489939628764
 20
475.1915137540656
 30
0.0
 40
4.187999999999999
  0
LINE
  5
1DCD
330
18
100
AcDbEntity
  8
7A
 48
2.0
100
AcDbLine
 10
253.1489939628764
 20
467.6915137540657
 30
0.0
 11
253.1489939628764
 21
482.6915137540656
 31
0.0
  0
CIRCLE
  5
1DCE
330
18
100
AcDbEntity
  8
0
 48
2.0
100
AcDbCircle
 10
223.1489939628764
 20
475.1915137540656
 30
0.0
 40
5.0
  0
LINE
  5
1DCF
330
18
100
AcDbEntity
  8
7A
 48
2.0
100
AcDbLine
 10
215.6489939628764
 20
475.1915137540656
 30
0.0
 11
230.6489939628764
 21
475.1915137540656
 31
0.0
  0
LINE
  5
1DD1
330
18
100
AcDbEntity
  8
7A
 48
2.0
100
AcDbLine
 10
223.1489939628764
 20
444.2383561515574
 30
0.0
 11
223.1489939628764
 21
565.9996795667657
 31
0.0
  0
LINE
  5
1DD2
330
18
100
AcDbEntity
  8
7A
 48
2.0
100
AcDbLine
 10
215.6489939628764
 20
535.1915137540657
 30
0.0
 11
230.6489939628764
 21
535.1915137540657
 31
0.0
  0
CIRCLE
  5
1DD3
330
18
100
AcDbEntity
  8
0
 48
2.0
100
AcDbCircle
 10
223.1489939628764
 20
535.1915137540657
 30
0.0
 40
5.0
  0
MTEXT
  5
2162
330
18
100
AcDbEntity
  8
8
 48
2.0
100
AcDbMText
 10
266.7584797504647
 20
251.7991200365577
 30
0.0
 40
8.0
 41
9.1568
 71
     1
 72
     5
  1
A
 73
     1
 44
1.0
1001
ACAD
1000
MTEXTBEGIN
1070
    73
1070
     1
1070
    44
1040
1.0
1070
    74
1070
     0
1000
MTEXTEND
  0
MTEXT
  5
2163
330
18
100
AcDbEntity
  8
8
 48
2.0
100
AcDbMText
 10
306.5960858001722
 20
251.7991200365577
 30
0.0
 40
8.0
 41
9.1568
 71
     1
 72
     5
  1
B
 73
     1
 44
1.0
1001
ACAD
1000
MTEXTBEGIN
1070
    73
1070
     1
1070
    44
1040
1.0
1070
    74
1070
     0
1000
MTEXTEND
  0
LINE
  5
2744
330
18
100
AcDbEntity
  8
6
 48
2.0
100
AcDbLine
 10
636.5185175575755
 20
-166.1029458713777
 30
0.0
 11
-19.47896957348439
 21
-166.1029458713777
 31
0.0
  0
LINE
  5
2745
330
18
100
AcDbEntity
  8
6
 48
2.0
100
AcDbLine
 10
636.5185175575755
 20
-166.1029458713777
 30
0.0
 11
636.5185175575755
 21
761.6649287854064
 31
0.0
  0
LINE
  5
2747
330
18
100
AcDbEntity
  8
6
 48
2.0
100
AcDbLine
 10
501.6885611405768
 20
-166.1029458713777
 30
0.0
 11
501.6885611405768
 21
761.6649287854064
 31
0.0
  0
LINE
  5
2748
330
18
100
AcDbEntity
  8
6
 48
2.0
100
AcDbLine
 10
-19.47896957348439
 20
-166.1029458713777
 30
0.0
 11
-19.47896957348439
 21
761.6649287854064
 31
0.0
  0
LINE
  5
2749
330
18
100
AcDbEntity
  8
6
 48
2.0
100
AcDbLine
 10
-19.47896957348439
 20
614.2336263555076
 30
0.0
 11
636.5185175575755
 21
614.2336263555076
 31
0.0
  0
LINE
  5
274A
330
18
100
AcDbEntity
  8
6
 48
2.0
100
AcDbLine
 10
-19.47896957348439
 20
761.6649287854064
 30
0.0
 11
636.5185175575755
 21
761.6649287854064
 31
0.0
  0
LINE
  5
2E21
330
18
100
AcDbEntity
  8
0
 48
2.0
100
AcDbLine
 10
103.6489952223762
 20
22.99075475585266
 30
0.0
 11
103.6489952223762
 21
40.31126264101589
 31
0.0
  0
LINE
  5
2E22
330
18
100
AcDbEntity
  8
0
 48
2.0
100
AcDbLine
 10
109.648995156376
 20
40.31126264101589
 30
0.0
 11
103.6489952223762
 21
40.31126264101589
 31
0.0
  0
LINE
  5
2E23
330
18
100
AcDbEntity
  8
0
 48
2.0
100
AcDbLine
 10
103.6489952223762
 20
22.99075475585272
 30
0.0
 11
103.6489952223762
 21
5.670246870689538
 31
0.0
  0
LINE
  5
2E24
330
18
100
AcDbEntity
  8
0
 48
2.0
100
AcDbLine
 10
108.5793889272617
 20
22.99075475585272
 30
0.0
 11
104.7186014514907
 21
22.99075475585272
 31
0.0
  0
LINE
  5
2E25
330
18
100
AcDbEntity
  8
0
 48
2.0
100
AcDbLine
 10
109.648995156376
 20
5.670246870689538
 30
0.0
 11
103.6489952223762
 21
5.670246870689538
 31
0.0
  0
ARC
  5
2E26
330
18
100
AcDbEntity
  8
0
 48
2.0
100
AcDbCircle
 10
74.05456154018577
 20
14.33050081327116
 30
0.0
 40
35.59443361619045
100
AcDbArc
 50
345.9183959270164
 51
14.08160407298356
  0
ARC
  5
2E27
330
18
100
AcDbEntity
  8
0
 48
2.0
100
AcDbCircle
 10
139.2434288385666
 20
14.33050081327116
 30
0.0
 40
35.59443361619045
100
AcDbArc
 50
165.9183959270164
 51
194.0816040729835
  0
ARC
  5
2E28
330
18
100
AcDbEntity
  8
0
 48
2.0
100
AcDbCircle
 10
139.2434288385666
 20
31.65100869843434
 30
0.0
 40
35.59443361619045
100
AcDbArc
 50
165.9183959270164
 51
194.0816040729835
  0
ARC
  5
2E29
330
18
100
AcDbEntity
  8
0
 48
2.0
100
AcDbCircle
 10
74.05456154018577
 20
31.65100869843434
 30
0.0
 40
35.59443361619045
100
AcDbArc
 50
345.9183959270164
 51
14.08160407298357
  0
ARC
  5
2E2A
330
18
100
AcDbEntity
  8
0
 48
2.0
100
AcDbCircle
 10
74.05456154018577
 20
105.8510078822343
 30
0.0
 40
35.59443361619045
100
AcDbArc
 50
345.9183959270164
 51
14.08160407298357
  0
ARC
  5
2E2B
330
18
100
AcDbEntity
  8
0
 48
2.0
100
AcDbCircle
 10
139.2434288385666
 20
105.8510078822343
 30
0.0
 40
35.59443361619045
100
AcDbArc
 50
165.9183959270164
 51
194.0816040729835
  0
ARC
  5
2E2C
330
18
100
AcDbEntity
  8
0
 48
2.0
100
AcDbCircle
 10
139.2434288385666
 20
88.53049999707115
 30
0.0
 40
35.59443361619045
100
AcDbArc
 50
165.9183959270164
 51
194.0816040729835
  0
ARC
  5
2E2D
330
18
100
AcDbEntity
  8
0
 48
2.0
100
AcDbCircle
 10
74.05456154018577
 20
88.53049999707115
 30
0.0
 40
35.59443361619045
100
AcDbArc
 50
345.9183959270164
 51
14.08160407298356
  0
CIRCLE
  5
2E2E
330
18
100
AcDbEntity
  8
0
 48
2.0
100
AcDbCircle
 10
554.0039903501547
 20
279.8239935842274
 30
0.0
 40
14.99999983500004
  0
CIRCLE
  5
2E2F
330
18
100
AcDbEntity
  8
0
 48
2.0
100
AcDbCircle
 10
479.8039911663545
 20
279.8239935842274
 30
0.0
 40
14.99999983500004
  0
ARC
  5
2E30
330
18
100
AcDbEntity
  8
0
 48
2.0
100
AcDbCircle
 10
99.9594732409837
 20
265.5243890234998
 30
0.0
 40
9.689521915392592
100
AcDbArc
 50
330.5327010457903
 51
29.46729895421047
  0
ARC
  5
2E31
330
18
100
AcDbEntity
  8
0
 48
2.0
100
AcDbCircle
 10
113.0885171405187
 20
265.5243890234998
 30
0.0
 40
9.689521915392592
100
AcDbArc
 50
150.5327010457895
 51
209.4672989542097
  0
ARC
  5
2E32
330
18
100
AcDbEntity
  8
0
 48
2.0
100
AcDbCircle
 10
99.9594732409837
 20
294.1235981449551
 30
0.0
 40
9.689521915392592
100
AcDbArc
 50
330.5327010457895
 51
29.46729895420977
  0
ARC
  5
2E33
330
18
100
AcDbEntity
  8
0
 48
2.0
100
AcDbCircle
 10
113.0885171405187
 20
294.1235981449551
 30
0.0
 40
9.689521915392592
100
AcDbArc
 50
150.5327010457902
 51
209.4672989542105
  0
ARC
  5
2E34
330
18
100
AcDbEntity
  8
0
 48
2.0
100
AcDbCircle
 10
72.77111173740286
 20
279.8239935842274
 30
0.0
 40
36.8778834189732
100
AcDbArc
 50
345.0187038581809
 51
14.9812961418194
  0
ARC
  5
2E35
330
18
100
AcDbEntity
  8
0
 48
2.0
100
AcDbCircle
 10
140.2768786440994
 20
279.8239935842274
 30
0.0
 40
36.8778834189732
100
AcDbArc
 50
165.0187038581806
 51
194.9812961418191
  0
LINE
  5
2E46
330
18
100
AcDbEntity
  8
0
 48
2.0
100
AcDbLine
 10
95.72939763247223
 20
9.490754904352797
 30
0.0
 11
87.61601690002454
 21
9.490754904352797
 31
0.0
  0
LINE
  5
2E47
330
18
100
AcDbEntity
  8
5
 48
2.0
100
AcDbLine
 10
95.50501500998974
 20
10.74075489060271
 30
0.0
 11
87.61601690002454
 21
10.74075489060283
 31
0.0
  0
LINE
  5
2E48
330
18
100
AcDbEntity
  8
0
 48
2.0
100
AcDbLine
 10
90.88273298684816
 20
36.49075460735281
 30
0.0
 11
87.61601690002454
 21
36.49075460735275
 31
0.0
  0
LINE
  5
2E49
330
18
100
AcDbEntity
  8
5
 48
2.0
100
AcDbLine
 10
91.10711560933077
 20
35.24075462110273
 30
0.0
 11
87.61601690002454
 21
35.24075462110273
 31
0.0
  0
LINE
  5
2E4A
330
18
100
AcDbEntity
  8
7A
 48
2.0
100
AcDbLine
 10
98.64470842366428
 20
7.399728019613917
 30
0.0
 11
93.07643643440702
 21
38.41968773395251
 31
0.0
  0
LINE
  5
2E4B
330
18
100
AcDbEntity
  8
7A
 48
2.0
100
AcDbLine
 10
96.1840385021801
 20
6.958022758717788
 30
0.0
 11
90.61576651292297
 21
37.97798247305639
 31
0.0
  0
LINE
  5
2E4C
330
18
100
AcDbEntity
  8
0
 48
2.0
100
AcDbLine
 10
103.6489952223762
 20
36.49075460735287
 30
0.0
 11
93.42269169704776
 21
36.49075460735281
 31
0.0
  0
LINE
  5
2E4D
330
18
100
AcDbEntity
  8
0
 48
2.0
100
AcDbLine
 10
103.6489952223762
 20
9.490754904352797
 30
0.0
 11
98.26935634267194
 21
9.490754904352797
 31
0.0
  0
LINE
  5
2E4E
330
18
100
AcDbEntity
  8
0
 48
2.0
100
AcDbLine
 10
87.61601690002454
 20
9.490754904352797
 30
0.0
 11
87.61601690002454
 21
36.49075460735275
 31
0.0
  0
LINE
  5
2E4F
330
18
100
AcDbEntity
  8
5
 48
2.0
100
AcDbLine
 10
103.6489952223762
 20
10.74075489060283
 30
0.0
 11
98.04497372018932
 21
10.74075489060271
 31
0.0
  0
LINE
  5
2E50
330
18
100
AcDbEntity
  8
5
 48
2.0
100
AcDbLine
 10
103.6489952223762
 20
35.24075462110273
 30
0.0
 11
93.64707431953048
 21
35.24075462110273
 31
0.0
  0
LINE
  5
2E51
330
18
100
AcDbEntity
  8
5
 48
2.0
100
AcDbLine
 10
103.6489952223762
 20
109.4407538049027
 30
0.0
 11
93.64707431953048
 21
109.4407538049027
 31
0.0
  0
LINE
  5
2E52
330
18
100
AcDbEntity
  8
5
 48
2.0
100
AcDbLine
 10
103.6489952223762
 20
84.94075407440282
 30
0.0
 11
98.04497372018932
 21
84.94075407440282
 31
0.0
  0
LINE
  5
2E53
330
18
100
AcDbEntity
  8
0
 48
2.0
100
AcDbLine
 10
87.61601690002454
 20
83.6907540881528
 30
0.0
 11
87.61601690002454
 21
110.6907537911527
 31
0.0
  0
LINE
  5
2E54
330
18
100
AcDbEntity
  8
0
 48
2.0
100
AcDbLine
 10
103.6489952223762
 20
83.6907540881528
 30
0.0
 11
98.26935634267194
 21
83.6907540881528
 31
0.0
  0
LINE
  5
2E55
330
18
100
AcDbEntity
  8
0
 48
2.0
100
AcDbLine
 10
103.6489952223762
 20
110.6907537911528
 30
0.0
 11
93.42269169704776
 21
110.6907537911528
 31
0.0
  0
LINE
  5
2E56
330
18
100
AcDbEntity
  8
7A
 48
2.0
100
AcDbLine
 10
96.1840385021801
 20
81.15802194251784
 30
0.0
 11
90.61576651292297
 21
112.1779816568564
 31
0.0
  0
LINE
  5
2E57
330
18
100
AcDbEntity
  8
7A
 48
2.0
100
AcDbLine
 10
98.64470842366428
 20
81.59972720341391
 30
0.0
 11
93.07643643440702
 21
112.6196869177524
 31
0.0
  0
LINE
  5
2E58
330
18
100
AcDbEntity
  8
5
 48
2.0
100
AcDbLine
 10
91.10711560933077
 20
109.4407538049027
 30
0.0
 11
87.61601690002454
 21
109.4407538049027
 31
0.0
  0
LINE
  5
2E59
330
18
100
AcDbEntity
  8
0
 48
2.0
100
AcDbLine
 10
90.88273298684816
 20
110.6907537911528
 30
0.0
 11
87.61601690002454
 21
110.6907537911527
 31
0.0
  0
LINE
  5
2E5A
330
18
100
AcDbEntity
  8
5
 48
2.0
100
AcDbLine
 10
95.50501500998974
 20
84.94075407440282
 30
0.0
 11
87.61601690002454
 21
84.94075407440282
 31
0.0
  0
LINE
  5
2E5B
330
18
100
AcDbEntity
  8
0
 48
2.0
100
AcDbLine
 10
95.72939763247223
 20
83.6907540881528
 30
0.0
 11
87.61601690002454
 21
83.6907540881528
 31
0.0
  0
LINE
  5
2E5C
330
18
100
AcDbEntity
  8
0
 48
2.0
100
AcDbLine
 10
95.4793976352222
 20
266.3239937327276
 30
0.0
 11
87.36601690277451
 21
266.3239937327276
 31
0.0
  0
LINE
  5
2E5D
330
18
100
AcDbEntity
  8
5
 48
2.0
100
AcDbLine
 10
95.2550150127397
 20
267.5739937189775
 30
0.0
 11
87.36601690277451
 21
267.5739937189775
 31
0.0
  0
LINE
  5
2E5E
330
18
100
AcDbEntity
  8
0
 48
2.0
100
AcDbLine
 10
90.63273298959826
 20
293.3239934357275
 30
0.0
 11
87.36601690277451
 21
293.3239934357274
 31
0.0
  0
LINE
  5
2E5F
330
18
100
AcDbEntity
  8
5
 48
2.0
100
AcDbLine
 10
90.85711561208086
 20
292.0739934494774
 30
0.0
 11
87.36601690277451
 21
292.0739934494774
 31
0.0
  0
LINE
  5
2E60
330
18
100
AcDbEntity
  8
7A
 48
2.0
100
AcDbLine
 10
98.39470842641436
 20
264.2329668479886
 30
0.0
 11
92.82643643715699
 21
295.2529265623272
 31
0.0
  0
LINE
  5
2E61
330
18
100
AcDbEntity
  8
7A
 48
2.0
100
AcDbLine
 10
95.93403850493018
 20
263.7912615870925
 30
0.0
 11
90.36576651567292
 21
294.8112213014312
 31
0.0
  0
LINE
  5
2E6B
330
18
100
AcDbEntity
  8
0
 48
2.0
100
AcDbLine
 10
471.9039907582543
 20
359.3239927097275
 30
0.0
 11
471.9039907582543
 21
335.8239927097276
 31
0.0
  0
LINE
  5
2E6C
330
18
100
AcDbEntity
  8
0
 48
2.0
100
AcDbLine
 10
472.9039907582541
 20
334.8239927097282
 30
0.0
 11
472.9039907582541
 21
335.8239927097276
 31
0.0
  0
LINE
  5
2E6D
330
18
100
AcDbEntity
  8
0
 48
2.0
100
AcDbLine
 10
471.9039907582543
 20
335.8239927097276
 30
0.0
 11
472.9039907582541
 21
335.8239927097276
 31
0.0
  0
LINE
  5
2E6E
330
18
100
AcDbEntity
  8
0
 48
2.0
100
AcDbLine
 10
480.9924480263743
 20
334.8239927097282
 30
0.0
 11
471.903990758255
 21
334.8239927097282
 31
0.0
  0
LINE
  5
2EA8
330
18
100
AcDbEntity
  8
0
 48
2.0
100
AcDbLine
 10
458.9039913962542
 20
226.3239939967278
 30
0.0
 11
458.9039913962547
 21
242.3239939967278
 31
0.0
  0
LINE
  5
2EA9
330
18
100
AcDbEntity
  8
5
 48
2.0
100
AcDbLine
 10
491.3966568061955
 20
241.2246605471408
 30
0.0
 11
491.446708689245
 21
241.2246605471408
 31
0.0
  0
LINE
  5
2F15
330
18
100
AcDbEntity
  8
0
 48
2.0
100
AcDbLine
 10
178.1489944578761
 20
2.09075498575271
 30
0.0
 11
328.1489928078765
 21
2.09075498575271
 31
0.0
  0
LINE
  5
2F16
330
18
100
AcDbEntity
  8
0
 48
2.0
100
AcDbLine
 10
561.9039902632543
 20
359.3239927097275
 30
0.0
 11
561.9039902632539
 21
335.8239929682276
 31
0.0
  0
LINE
  5
2F17
330
18
100
AcDbEntity
  8
0
 48
2.0
100
AcDbLine
 10
574.9039901202545
 20
226.3239941727276
 30
0.0
 11
458.9039913962542
 21
226.3239939967278
 31
0.0
  0
LINE
  5
2F18
330
18
100
AcDbEntity
  8
0
 48
2.0
100
AcDbLine
 10
109.648995156376
 20
2.09075498575271
 30
0.0
 11
178.1489944578761
 21
2.09075498575271
 31
0.0
  0
LINE
  5
2F19
330
18
100
AcDbEntity
  8
0
 48
2.0
100
AcDbLine
 10
109.648995156376
 20
118.0907537097528
 30
0.0
 11
328.1489928078765
 21
118.0907537097528
 31
0.0
  0
CIRCLE
  5
2F1A
330
18
100
AcDbEntity
  8
0
 48
2.0
100
AcDbCircle
 10
308.1489930278763
 20
257.8239938262278
 30
0.0
 40
1.34999998515
  0
LINE
  5
2F1B
330
18
100
AcDbEntity
  8
7A
 48
2.0
100
AcDbLine
 10
308.1489930278763
 20
254.3688972577241
 30
0.0
 11
308.1489930278763
 21
262.0688971730242
 31
0.0
  0
LINE
  5
2F1C
330
18
100
AcDbEntity
  8
7A
 48
2.0
100
AcDbLine
 10
312.5256028802401
 20
257.8239938262278
 30
0.0
 11
303.5256029792404
 21
257.8239938262278
 31
0.0
  0
ARC
  5
2F1D
330
18
100
AcDbEntity
  8
5
 48
2.0
100
AcDbCircle
 10
308.1489930278763
 20
257.8239938262278
 30
0.0
 40
4.999999944999999
100
AcDbArc
 50
180.0
 51
96.24246553400974
  0
CIRCLE
  5
2F1E
330
18
100
AcDbEntity
  8
0
 48
2.0
100
AcDbCircle
 10
308.1489930278763
 20
257.8239938262278
 30
0.0
 40
3.999999955999999
  0
POLYLINE
  5
2F1F
330
18
100
AcDbEntity
  8
0
 48
2.0
100
AcDb2dPolyline
 66
     1
 10
0.0
 20
0.0
 30
0.0
 70
     1
  0
VERTEX
  5
2F20
330
2F1F
100
AcDbEntity
  8
0
 48
2.0
100
AcDbVertex
100
AcDb2dVertex
 10
491.749290496577
 20
307.8239932762279
 30
0.0
  0
VERTEX
  5
2F21
330
2F1F
100
AcDbEntity
  8
0
 48
2.0
100
AcDbVertex
100
AcDb2dVertex
 10
490.5945899708995
 20
305.8239932982279
 30
0.0
  0
VERTEX
  5
2F22
330
2F1F
100
AcDbEntity
  8
0
 48
2.0
100
AcDbVertex
100
AcDb2dVertex
 10
491.749290496577
 20
303.8239933202278
 30
0.0
  0
VERTEX
  5
2F23
330
2F1F
100
AcDbEntity
  8
0
 48
2.0
100
AcDbVertex
100
AcDb2dVertex
 10
494.0586915479321
 20
303.8239933202278
 30
0.0
  0
VERTEX
  5
2F24
330
2F1F
100
AcDbEntity
  8
0
 48
2.0
100
AcDbVertex
100
AcDb2dVertex
 10
495.2133920736096
 20
305.8239932982279
 30
0.0
  0
VERTEX
  5
2F25
330
2F1F
100
AcDbEntity
  8
0
 48
2.0
100
AcDbVertex
100
AcDb2dVertex
 10
494.0586915479321
 20
307.8239932762279
 30
0.0
  0
SEQEND
  5
2F26
330
2F1F
100
AcDbEntity
  8
0
 48
2.0
  0
CIRCLE
  5
2F27
330
18
100
AcDbEntity
  8
0
 48
2.0
100
AcDbCircle
 10
492.9039910222548
 20
305.8239932982279
 30
0.0
 40
4.999999944999999
  0
LINE
  5
2F28
330
18
100
AcDbEntity
  8
7A
 48
2.0
100
AcDbLine
 10
487.4039910827543
 20
305.8239932982279
 30
0.0
 11
498.4039909617544
 21
305.8239932982276
 31
0.0
  0
CIRCLE
  5
2F29
330
18
100
AcDbEntity
  8
0
 48
2.0
100
AcDbCircle
 10
492.9039910222548
 20
305.8239932982276
 30
0.0
 40
5.499999939500001
  0
LINE
  5
2F2A
330
18
100
AcDbEntity
  8
7A
 48
2.0
100
AcDbLine
 10
540.9039904942546
 20
300.3239933587277
 30
0.0
 11
540.9039904942546
 21
311.3239932377277
 31
0.0
  0
LINE
  5
2F2B
330
18
100
AcDbEntity
  8
7A
 48
2.0
100
AcDbLine
 10
492.9039910222548
 20
300.3239933587277
 30
0.0
 11
492.9039910222548
 21
311.3239932377277
 31
0.0
  0
POLYLINE
  5
2F2C
330
18
100
AcDbEntity
  8
0
 48
2.0
100
AcDb2dPolyline
 66
     1
 10
0.0
 20
0.0
 30
0.0
 70
     1
  0
VERTEX
  5
2F2D
330
2F2C
100
AcDbEntity
  8
0
 48
2.0
100
AcDbVertex
100
AcDb2dVertex
 10
515.749290232577
 20
275.8239936282278
 30
0.0
  0
VERTEX
  5
2F2E
330
2F2C
100
AcDbEntity
  8
0
 48
2.0
100
AcDbVertex
100
AcDb2dVertex
 10
514.5945897068996
 20
273.8239936502278
 30
0.0
  0
VERTEX
  5
2F2F
330
2F2C
100
AcDbEntity
  8
0
 48
2.0
100
AcDbVertex
100
AcDb2dVertex
 10
515.749290232577
 20
271.8239936722277
 30
0.0
  0
VERTEX
  5
2F30
330
2F2C
100
AcDbEntity
  8
0
 48
2.0
100
AcDbVertex
100
AcDb2dVertex
 10
518.0586912839321
 20
271.8239936722277
 30
0.0
  0
VERTEX
  5
2F31
330
2F2C
100
AcDbEntity
  8
0
 48
2.0
100
AcDbVertex
100
AcDb2dVertex
 10
519.2133918096097
 20
273.8239936502278
 30
0.0
  0
VERTEX
  5
2F32
330
2F2C
100
AcDbEntity
  8
0
 48
2.0
100
AcDbVertex
100
AcDb2dVertex
 10
518.0586912839321
 20
275.8239936282278
 30
0.0
  0
SEQEND
  5
2F33
330
2F2C
100
AcDbEntity
  8
0
 48
2.0
  0
CIRCLE
  5
2F34
330
18
100
AcDbEntity
  8
0
 48
2.0
100
AcDbCircle
 10
516.9039907582543
 20
273.8239936502278
 30
0.0
 40
4.999999944999999
  0
LINE
  5
2F35
330
18
100
AcDbEntity
  8
7A
 48
2.0
100
AcDbLine
 10
511.4039908187544
 20
273.8239936502278
 30
0.0
 11
522.4039906977544
 21
273.8239936502277
 31
0.0
  0
CIRCLE
  5
2F36
330
18
100
AcDbEntity
  8
0
 48
2.0
100
AcDbCircle
 10
516.9039907582543
 20
273.8239936502277
 30
0.0
 40
5.499999939500001
  0
LINE
  5
2F37
330
18
100
AcDbEntity
  8
0
 48
2.0
100
AcDbLine
 10
109.648995156376
 20
35.09075462275274
 30
0.0
 11
159.1489946668762
 21
35.09075462275274
 31
0.0
  0
LINE
  5
2F38
330
18
100
AcDbEntity
  8
0
 48
2.0
100
AcDbLine
 10
109.648995156376
 20
85.0907540727527
 30
0.0
 11
159.1489946668762
 21
85.0907540727527
 31
0.0
  0
LINE
  5
2F39
330
18
100
AcDbEntity
  8
0
 48
2.0
100
AcDbLine
 10
541.9342614494662
 20
312.3239932267276
 30
0.0
 11
574.9039901202545
 21
300.3239933587277
 31
0.0
  0
LINE
  5
2F3A
330
18
100
AcDbEntity
  8
0
 48
2.0
100
AcDbLine
 10
561.9039902632546
 20
312.3239932267275
 30
0.0
 11
574.9039901202545
 21
300.3239933587276
 31
0.0
  0
LINE
  5
2F3B
330
18
100
AcDbEntity
  8
0
 48
2.0
100
AcDbLine
 10
471.9039912532545
 20
312.3239932267275
 30
0.0
 11
458.9039913962547
 21
300.3239933587277
 31
0.0
  0
LINE
  5
2F49
330
18
100
AcDbEntity
  8
0
 48
2.0
100
AcDbLine
 10
320.1489928958763
 20
226.3239941727277
 30
0.0
 11
126.1489950298762
 21
226.3239941727277
 31
0.0
  0
LINE
  5
2F68
330
18
100
AcDbEntity
  8
0
 48
2.0
100
AcDbLine
 10
320.1489928958763
 20
226.3239941727278
 30
0.0
 11
320.1489928958763
 21
242.3239939967278
 31
0.0
  0
LINE
  5
2F69
330
18
100
AcDbEntity
  8
0
 48
2.0
100
AcDbLine
 10
126.1489950298762
 20
226.3239941727278
 30
0.0
 11
126.1489950298762
 21
242.3239939967278
 31
0.0
  0
LINE
  5
2F6B
330
18
100
AcDbEntity
  8
0
 48
2.0
100
AcDbLine
 10
166.1489945898763
 20
118.0907537097528
 30
0.0
 11
166.1489945898763
 21
105.0907538527527
 31
0.0
  0
ARC
  5
2F6C
330
18
100
AcDbEntity
  8
5
 48
2.0
100
AcDbCircle
 10
269.1489934568764
 20
257.8239938262278
 30
0.0
 40
4.999999944999999
100
AcDbArc
 50
180.0
 51
96.24246553400974
  0
CIRCLE
  5
2F6D
330
18
100
AcDbEntity
  8
0
 48
2.0
100
AcDbCircle
 10
269.1489934568764
 20
257.8239938262278
 30
0.0
 40
3.999999955999999
  0
LINE
  5
2F6E
330
18
100
AcDbEntity
  8
0
 48
2.0
100
AcDbLine
 10
191.2500148281989
 20
312.3239932267274
 30
0.0
 11
109.648995156376
 21
312.3239932267275
 31
0.0
  0
LINE
  5
2F6F
330
18
100
AcDbEntity
  8
0
 48
2.0
100
AcDbLine
 10
471.9039912532545
 20
312.3239932267275
 30
0.0
 11
561.9039902632546
 21
312.3239932267275
 31
0.0
  0
LINE
  5
2F70
330
18
100
AcDbEntity
  8
0
 48
2.0
100
AcDbLine
 10
166.1489945898763
 20
300.3239933587278
 30
0.0
 11
166.1489945898763
 21
312.3239932267275
 31
0.0
  0
CIRCLE
  5
2F71
330
18
100
AcDbEntity
  8
0
 48
2.0
100
AcDbCircle
 10
551.4039903787545
 20
325.8239930782282
 30
0.0
 40
5.399999940599999
  0
ARC
  5
2F72
330
18
100
AcDbEntity
  8
5
 48
2.0
100
AcDbCircle
 10
551.4039903787545
 20
325.8239930782282
 30
0.0
 40
5.999999934
100
AcDbArc
 50
74.24595297586377
 51
13.91213192421388
  0
LINE
  5
2F73
330
18
100
AcDbEntity
  8
7A
 48
2.0
100
AcDbLine
 10
558.9095437956586
 20
325.8239930782282
 30
0.0
 11
543.8984369618506
 21
325.8239930782282
 31
0.0
  0
LINE
  5
2F74
330
18
100
AcDbEntity
  8
7A
 48
2.0
100
AcDbLine
 10
551.4039903787545
 20
319.3239931497283
 30
0.0
 11
551.4039903787545
 21
332.3239930067284
 31
0.0
  0
LINE
  5
2F75
330
18
100
AcDbEntity
  8
7A
 48
2.0
100
AcDbLine
 10
482.4039911377544
 20
319.3239931497282
 30
0.0
 11
482.4039911377544
 21
332.3239930067284
 31
0.0
  0
LINE
  5
2F76
330
18
100
AcDbEntity
  8
7A
 48
2.0
100
AcDbLine
 10
474.8984377208508
 20
325.8239930782281
 30
0.0
 11
490.9039910442545
 21
325.8239930782281
 31
0.0
  0
ARC
  5
2F77
330
18
100
AcDbEntity
  8
5
 48
2.0
100
AcDbCircle
 10
482.4039911377544
 20
325.8239930782281
 30
0.0
 40
5.999999934
100
AcDbArc
 50
166.0878680757863
 51
105.7540470241364
  0
CIRCLE
  5
2F78
330
18
100
AcDbEntity
  8
0
 48
2.0
100
AcDbCircle
 10
482.4039911377544
 20
325.8239930782281
 30
0.0
 40
5.399999940599999
  0
LINE
  5
2F79
330
18
100
AcDbEntity
  8
0
 48
2.0
100
AcDbLine
 10
561.9039902632546
 20
334.8239929792281
 30
0.0
 11
552.8155330951076
 21
334.8239929792281
 31
0.0
  0
LINE
  5
2F7C
330
18
100
AcDbEntity
  8
0
 48
2.0
100
AcDbLine
 10
471.9039912532544
 20
359.3239927097275
 30
0.0
 11
471.9039912532544
 21
335.8239929682276
 31
0.0
  0
LINE
  5
2F81
330
18
100
AcDbEntity
  8
0
 48
2.0
100
AcDbLine
 10
561.9039902632539
 20
335.8239929682276
 30
0.0
 11
471.9039912532544
 21
335.8239929682276
 31
0.0
  0
LINE
  5
2F88
330
18
100
AcDbEntity
  8
0
 48
2.0
100
AcDbLine
 10
561.9039902632543
 20
359.3239927097275
 30
0.0
 11
471.9039912532544
 21
359.3239927097275
 31
0.0
  0
LINE
  5
2F89
330
18
100
AcDbEntity
  8
0
 48
2.0
100
AcDbLine
 10
472.9039912422543
 20
334.8239929792281
 30
0.0
 11
472.9039912422543
 21
335.8239929682276
 31
0.0
  0
LINE
  5
2F8A
330
18
100
AcDbEntity
  8
0
 48
2.0
100
AcDbLine
 10
471.9039912532544
 20
335.8239929682276
 30
0.0
 11
472.9039912422543
 21
335.8239929682276
 31
0.0
  0
LINE
  5
2F8B
330
18
100
AcDbEntity
  8
0
 48
2.0
100
AcDbLine
 10
561.9039902632537
 20
335.8239929682277
 30
0.0
 11
560.903990274254
 21
335.8239929682277
 31
0.0
  0
LINE
  5
2F8C
330
18
100
AcDbEntity
  8
0
 48
2.0
100
AcDbLine
 10
560.903990274254
 20
334.8239929792281
 30
0.0
 11
560.903990274254
 21
335.8239929682277
 31
0.0
  0
LINE
  5
2F92
330
18
100
AcDbEntity
  8
0
 48
2.0
100
AcDbLine
 10
561.9039902632546
 20
316.8239931772281
 30
0.0
 11
552.8155330951074
 21
316.8239931772281
 31
0.0
  0
CIRCLE
  5
2F93
330
18
100
AcDbEntity
  8
0
 48
2.0
100
AcDbCircle
 10
516.9039907582543
 20
325.8239930782285
 30
0.0
 40
5.499999939500001
  0
POLYLINE
  5
2F94
330
18
100
AcDbEntity
  8
0
 48
2.0
100
AcDb2dPolyline
 66
     1
 10
0.0
 20
0.0
 30
0.0
 70
     1
  0
VERTEX
  5
2F95
330
2F94
100
AcDbEntity
  8
0
 48
2.0
100
AcDbVertex
100
AcDb2dVertex
 10
519.3619405681306
 20
327.2430910626149
 30
0.0
  0
VERTEX
  5
2F96
330
2F94
100
AcDbEntity
  8
0
 48
2.0
100
AcDbVertex
100
AcDb2dVertex
 10
516.9039907582543
 20
328.6621890470012
 30
0.0
  0
VERTEX
  5
2F97
330
2F94
100
AcDbEntity
  8
0
 48
2.0
100
AcDbVertex
100
AcDb2dVertex
 10
514.4460409483786
 20
327.2430910626149
 30
0.0
  0
VERTEX
  5
2F98
330
2F94
100
AcDbEntity
  8
0
 48
2.0
100
AcDbVertex
100
AcDb2dVertex
 10
514.4460409483786
 20
324.4048950938419
 30
0.0
  0
VERTEX
  5
2F99
330
2F94
100
AcDbEntity
  8
0
 48
2.0
100
AcDbVertex
100
AcDb2dVertex
 10
516.9039907582543
 20
322.9857971094553
 30
0.0
  0
VERTEX
  5
2F9A
330
2F94
100
AcDbEntity
  8
0
 48
2.0
100
AcDbVertex
100
AcDb2dVertex
 10
519.3619405681306
 20
324.4048950938419
 30
0.0
  0
SEQEND
  5
2F9B
330
2F94
100
AcDbEntity
  8
0
 48
2.0
  0
POLYLINE
  5
2F9C
330
18
100
AcDbEntity
  8
0
 48
2.0
100
AcDb2dPolyline
 66
     1
 10
0.0
 20
0.0
 30
0.0
 70
     1
  0
VERTEX
  5
2F9D
330
2F9C
100
AcDbEntity
  8
0
 48
2.0
100
AcDbVertex
100
AcDb2dVertex
 10
473.9039912312543
 20
330.7314703123578
 30
0.0
  0
VERTEX
  5
2F9E
330
2F9C
100
AcDbEntity
  8
0
 48
2.0
100
AcDbVertex
100
AcDb2dVertex
 10
482.4039911377544
 20
335.6389475464873
 30
0.0
  0
VERTEX
  5
2F9F
330
2F9C
100
AcDbEntity
  8
0
 48
2.0
100
AcDbVertex
100
AcDb2dVertex
 10
490.9039910442545
 20
330.7314703123578
 30
0.0
  0
VERTEX
  5
2FA0
330
2F9C
100
AcDbEntity
  8
0
 48
2.0
100
AcDbVertex
100
AcDb2dVertex
 10
490.9039910442547
 20
320.9165158440987
 30
0.0
  0
VERTEX
  5
2FA1
330
2F9C
100
AcDbEntity
  8
0
 48
2.0
100
AcDbVertex
100
AcDb2dVertex
 10
482.4039911377544
 20
316.009038609969
 30
0.0
  0
VERTEX
  5
2FA2
330
2F9C
100
AcDbEntity
  8
0
 48
2.0
100
AcDbVertex
100
AcDb2dVertex
 10
473.9039912312543
 20
320.9165158440986
 30
0.0
  0
SEQEND
  5
2FA3
330
2F9C
100
AcDbEntity
  8
0
 48
2.0
  0
LINE
  5
2FA4
330
18
100
AcDbEntity
  8
0
 48
2.0
100
AcDbLine
 10
492.9039910222545
 20
334.8239929792281
 30
0.0
 11
492.9039910222545
 21
316.8239931772281
 31
0.0
  0
LINE
  5
2FA5
330
18
100
AcDbEntity
  8
0
 48
2.0
100
AcDbLine
 10
540.9039904942542
 20
334.8239929792278
 30
0.0
 11
540.9039904942542
 21
316.8239931772281
 31
0.0
  0
POLYLINE
  5
2FA6
330
18
100
AcDbEntity
  8
0
 48
2.0
100
AcDb2dPolyline
 66
     1
 10
0.0
 20
0.0
 30
0.0
 70
     1
  0
VERTEX
  5
2FA7
330
2FA6
100
AcDbEntity
  8
0
 48
2.0
100
AcDbVertex
100
AcDb2dVertex
 10
559.9039902852545
 20
330.7314703123578
 30
0.0
  0
VERTEX
  5
2FA8
330
2FA6
100
AcDbEntity
  8
0
 48
2.0
100
AcDbVertex
100
AcDb2dVertex
 10
551.4039903787545
 20
335.6389475464873
 30
0.0
  0
VERTEX
  5
2FA9
330
2FA6
100
AcDbEntity
  8
0
 48
2.0
100
AcDbVertex
100
AcDb2dVertex
 10
542.9039904722544
 20
330.7314703123578
 30
0.0
  0
VERTEX
  5
2FAA
330
2FA6
100
AcDbEntity
  8
0
 48
2.0
100
AcDbVertex
100
AcDb2dVertex
 10
542.9039904722544
 20
320.9165158440987
 30
0.0
  0
VERTEX
  5
2FAB
330
2FA6
100
AcDbEntity
  8
0
 48
2.0
100
AcDbVertex
100
AcDb2dVertex
 10
551.4039903787545
 20
316.009038609969
 30
0.0
  0
VERTEX
  5
2FAC
330
2FA6
100
AcDbEntity
  8
0
 48
2.0
100
AcDbVertex
100
AcDb2dVertex
 10
559.9039902852545
 20
320.9165158440986
 30
0.0
  0
SEQEND
  5
2FAD
330
2FA6
100
AcDbEntity
  8
0
 48
2.0
  0
LINE
  5
2FAE
330
18
100
AcDbEntity
  8
0
 48
2.0
100
AcDbLine
 10
549.9924476624012
 20
334.8239929792281
 30
0.0
 11
483.8155338541078
 21
334.8239929792281
 31
0.0
  0
LINE
  5
2FAF
330
18
100
AcDbEntity
  8
0
 48
2.0
100
AcDbLine
 10
549.9924476624012
 20
316.8239931772281
 30
0.0
 11
483.8155338541078
 21
316.8239931772283
 31
0.0
  0
LINE
  5
2FB0
330
18
100
AcDbEntity
  8
0
 48
2.0
100
AcDbLine
 10
480.9924484214014
 20
334.8239929792281
 30
0.0
 11
471.9039912532545
 21
334.8239929792281
 31
0.0
  0
LINE
  5
2FB1
330
18
100
AcDbEntity
  8
0
 48
2.0
100
AcDbLine
 10
480.9924484214014
 20
316.8239931772283
 30
0.0
 11
471.9039912532545
 21
316.8239931772283
 31
0.0
  0
LINE
  5
2FB2
330
18
100
AcDbEntity
  8
7A
 48
2.0
100
AcDbLine
 10
511.4039908187544
 20
325.8239930782282
 30
0.0
 11
522.4039906977541
 21
325.8239930782285
 31
0.0
  0
LINE
  5
2FE3
330
18
100
AcDbEntity
  8
7A
 48
2.0
100
AcDbLine
 10
562.9039902522545
 20
248.8239939252279
 30
0.0
 11
573.9039901312546
 21
248.8239939252279
 31
0.0
  0
LINE
  5
2FE4
330
18
100
AcDbEntity
  8
7A
 48
2.0
100
AcDbLine
 10
568.4039901917547
 20
254.323993864728
 30
0.0
 11
568.4039901917549
 21
243.3239939857279
 31
0.0
  0
CIRCLE
  5
2FE5
330
18
100
AcDbEntity
  8
0
 48
2.0
100
AcDbCircle
 10
568.4039901917547
 20
248.8239939252279
 30
0.0
 40
5.499999939500001
  0
CIRCLE
  5
2FE6
330
18
100
AcDbEntity
  8
0
 48
2.0
100
AcDbCircle
 10
568.4039901917547
 20
248.8239939252279
 30
0.0
 40
4.999999944999999
  0
POLYLINE
  5
2FE7
330
18
100
AcDbEntity
  8
0
 48
2.0
100
AcDb2dPolyline
 66
     1
 10
0.0
 20
0.0
 30
0.0
 70
     1
  0
VERTEX
  5
2FE8
330
2FE7
100
AcDbEntity
  8
0
 48
2.0
100
AcDbVertex
100
AcDb2dVertex
 10
567.2492896660771
 20
250.8239939032278
 30
0.0
  0
VERTEX
  5
2FE9
330
2FE7
100
AcDbEntity
  8
0
 48
2.0
100
AcDbVertex
100
AcDb2dVertex
 10
566.0945891403994
 20
248.8239939252279
 30
0.0
  0
VERTEX
  5
2FEA
330
2FE7
100
AcDbEntity
  8
0
 48
2.0
100
AcDbVertex
100
AcDb2dVertex
 10
567.2492896660771
 20
246.8239939472279
 30
0.0
  0
VERTEX
  5
2FEB
330
2FE7
100
AcDbEntity
  8
0
 48
2.0
100
AcDbVertex
100
AcDb2dVertex
 10
569.5586907174322
 20
246.8239939472279
 30
0.0
  0
VERTEX
  5
2FEC
330
2FE7
100
AcDbEntity
  8
0
 48
2.0
100
AcDbVertex
100
AcDb2dVertex
 10
570.7133912431095
 20
248.8239939252279
 30
0.0
  0
VERTEX
  5
2FED
330
2FE7
100
AcDbEntity
  8
0
 48
2.0
100
AcDbVertex
100
AcDb2dVertex
 10
569.5586907174322
 20
250.8239939032278
 30
0.0
  0
SEQEND
  5
2FEE
330
2FE7
100
AcDbEntity
  8
0
 48
2.0
  0
CIRCLE
  5
2FEF
330
18
100
AcDbEntity
  8
0
 48
2.0
100
AcDbCircle
 10
465.403991324755
 20
248.8239939252277
 30
0.0
 40
5.499999939500001
  0
LINE
  5
2FF0
330
18
100
AcDbEntity
  8
7A
 48
2.0
100
AcDbLine
 10
465.403991324755
 20
254.3239938647277
 30
0.0
 11
465.403991324755
 21
243.3239939857277
 31
0.0
  0
LINE
  5
2FF1
330
18
100
AcDbEntity
  8
7A
 48
2.0
100
AcDbLine
 10
470.9039912642547
 20
248.8239939252277
 30
0.0
 11
459.9039913852548
 21
248.8239939252277
 31
0.0
  0
POLYLINE
  5
2FF2
330
18
100
AcDbEntity
  8
0
 48
2.0
100
AcDb2dPolyline
 66
     1
 10
0.0
 20
0.0
 30
0.0
 70
     1
  0
VERTEX
  5
2FF3
330
2FF2
100
AcDbEntity
  8
0
 48
2.0
100
AcDbVertex
100
AcDb2dVertex
 10
464.2492907990772
 20
250.8239939032277
 30
0.0
  0
VERTEX
  5
2FF4
330
2FF2
100
AcDbEntity
  8
0
 48
2.0
100
AcDbVertex
100
AcDb2dVertex
 10
463.0945902733997
 20
248.8239939252277
 30
0.0
  0
VERTEX
  5
2FF5
330
2FF2
100
AcDbEntity
  8
0
 48
2.0
100
AcDbVertex
100
AcDb2dVertex
 10
464.2492907990772
 20
246.8239939472277
 30
0.0
  0
VERTEX
  5
2FF6
330
2FF2
100
AcDbEntity
  8
0
 48
2.0
100
AcDbVertex
100
AcDb2dVertex
 10
466.5586918504323
 20
246.8239939472277
 30
0.0
  0
VERTEX
  5
2FF7
330
2FF2
100
AcDbEntity
  8
0
 48
2.0
100
AcDbVertex
100
AcDb2dVertex
 10
467.7133923761098
 20
248.8239939252277
 30
0.0
  0
VERTEX
  5
2FF8
330
2FF2
100
AcDbEntity
  8
0
 48
2.0
100
AcDbVertex
100
AcDb2dVertex
 10
466.5586918504323
 20
250.8239939032277
 30
0.0
  0
SEQEND
  5
2FF9
330
2FF2
100
AcDbEntity
  8
0
 48
2.0
  0
CIRCLE
  5
2FFA
330
18
100
AcDbEntity
  8
0
 48
2.0
100
AcDbCircle
 10
465.403991324755
 20
248.8239939252277
 30
0.0
 40
4.999999944999999
  0
CIRCLE
  5
2FFB
330
18
100
AcDbEntity
  8
0
 48
2.0
100
AcDbCircle
 10
540.9039904942546
 20
305.8239932982276
 30
0.0
 40
5.499999939500001
  0
LINE
  5
2FFC
330
18
100
AcDbEntity
  8
7A
 48
2.0
100
AcDbLine
 10
535.4039905547547
 20
305.8239932982279
 30
0.0
 11
546.4039904337546
 21
305.8239932982276
 31
0.0
  0
CIRCLE
  5
2FFD
330
18
100
AcDbEntity
  8
0
 48
2.0
100
AcDbCircle
 10
540.9039904942546
 20
305.8239932982279
 30
0.0
 40
4.999999944999999
  0
POLYLINE
  5
2FFE
330
18
100
AcDbEntity
  8
0
 48
2.0
100
AcDb2dPolyline
 66
     1
 10
0.0
 20
0.0
 30
0.0
 70
     1
  0
VERTEX
  5
2FFF
330
2FFE
100
AcDbEntity
  8
0
 48
2.0
100
AcDbVertex
100
AcDb2dVertex
 10
539.7492899685771
 20
307.8239932762279
 30
0.0
  0
VERTEX
  5
3000
330
2FFE
100
AcDbEntity
  8
0
 48
2.0
100
AcDbVertex
100
AcDb2dVertex
 10
538.5945894428994
 20
305.8239932982279
 30
0.0
  0
VERTEX
  5
3001
330
2FFE
100
AcDbEntity
  8
0
 48
2.0
100
AcDbVertex
100
AcDb2dVertex
 10
539.7492899685771
 20
303.8239933202278
 30
0.0
  0
VERTEX
  5
3002
330
2FFE
100
AcDbEntity
  8
0
 48
2.0
100
AcDbVertex
100
AcDb2dVertex
 10
542.0586910199319
 20
303.8239933202278
 30
0.0
  0
VERTEX
  5
3003
330
2FFE
100
AcDbEntity
  8
0
 48
2.0
100
AcDbVertex
100
AcDb2dVertex
 10
543.2133915456095
 20
305.8239932982279
 30
0.0
  0
VERTEX
  5
3004
330
2FFE
100
AcDbEntity
  8
0
 48
2.0
100
AcDbVertex
100
AcDb2dVertex
 10
542.0586910199319
 20
307.8239932762279
 30
0.0
  0
SEQEND
  5
3005
330
2FFE
100
AcDbEntity
  8
0
 48
2.0
  0
LINE
  5
3006
330
18
100
AcDbEntity
  8
7A
 48
2.0
100
AcDbLine
 10
126.1489950298762
 20
279.8239935842274
 30
0.0
 11
87.36601690277451
 21
279.8239935842274
 31
0.0
  0
LINE
  5
3007
330
18
100
AcDbEntity
  8
0
 48
2.0
100
AcDbLine
 10
169.1489945568764
 20
315.3239931937275
 30
0.0
 11
169.1489945568764
 21
334.8239929792278
 31
0.0
  0
LINE
  5
3008
330
18
100
AcDbEntity
  8
0
 48
2.0
100
AcDbLine
 10
191.1489943148764
 20
313.3239932157275
 30
0.0
 11
191.148994314876
 21
334.8239929792278
 31
0.0
  0
LINE
  5
3009
330
18
100
AcDbEntity
  8
0
 48
2.0
100
AcDbLine
 10
191.148994314876
 20
334.8239929792278
 30
0.0
 11
159.1489946668765
 21
334.8239929792278
 31
0.0
  0
LINE
  5
300A
330
18
100
AcDbEntity
  8
0
 48
2.0
100
AcDbLine
 10
178.1489944578764
 20
335.8239929682274
 30
0.0
 11
178.1489944578764
 21
341.0739934604772
 31
0.0
  0
LINE
  5
300B
330
18
100
AcDbEntity
  8
0
 48
2.0
100
AcDbLine
 10
268.1489934678765
 20
335.823992968227
 30
0.0
 11
268.1489934678765
 21
359.3239927097271
 31
0.0
  0
LINE
  5
300C
330
18
100
AcDbEntity
  8
0
 48
2.0
100
AcDbLine
 10
268.1489934678765
 20
359.323992709727
 30
0.0
 11
178.1489944578764
 21
359.3239927097271
 31
0.0
  0
LINE
  5
300D
330
18
100
AcDbEntity
  8
0
 48
2.0
100
AcDbLine
 10
267.1489934788767
 20
332.3239930067273
 30
0.0
 11
267.1489934788766
 21
335.8239929682273
 31
0.0
  0
LINE
  5
300E
330
18
100
AcDbEntity
  8
0
 48
2.0
100
AcDbLine
 10
268.1489934678764
 20
335.8239929682273
 30
0.0
 11
267.1489934788766
 21
335.8239929682273
 31
0.0
  0
LINE
  5
300F
330
18
100
AcDbEntity
  8
0
 48
2.0
100
AcDbLine
 10
250.6489936603767
 20
319.8239931442274
 30
0.0
 11
250.6489936603767
 21
331.8239930122274
 31
0.0
  0
LINE
  5
3010
330
18
100
AcDbEntity
  8
0
 48
2.0
100
AcDbLine
 10
267.1489934788767
 20
332.3239930067273
 30
0.0
 11
223.1489939628764
 21
332.3239930067273
 31
0.0
  0
LINE
  5
3011
330
18
100
AcDbEntity
  8
0
 48
2.0
100
AcDbLine
 10
267.1489934788767
 20
319.3239931497274
 30
0.0
 11
223.1489939628764
 21
319.3239931497274
 31
0.0
  0
ARC
  5
3012
330
18
100
AcDbEntity
  8
0
 48
2.0
100
AcDbCircle
 10
251.1489936548766
 20
331.8239930122274
 30
0.0
 40
0.4999999945
100
AcDbArc
 50
90.00000000000021
 51
180.0
  0
ARC
  5
3013
330
18
100
AcDbEntity
  8
0
 48
2.0
100
AcDbCircle
 10
251.1489936548766
 20
319.8239931442274
 30
0.0
 40
0.4999999945
100
AcDbArc
 50
180.0000000000002
 51
270.0
  0
ARC
  5
3014
330
18
100
AcDbEntity
  8
0
 48
2.0
100
AcDbCircle
 10
251.1489936548769
 20
319.8239931442274
 30
0.0
 40
0.4999999945
100
AcDbArc
 50
180.0000000000002
 51
270.0
  0
ARC
  5
3015
330
18
100
AcDbEntity
  8
0
 48
2.0
100
AcDbCircle
 10
195.1489942708761
 20
319.8239931442274
 30
0.0
 40
0.4999999945
100
AcDbArc
 50
270.0
 51
359.9999999999997
  0
ARC
  5
3016
330
18
100
AcDbEntity
  8
0
 48
2.0
100
AcDbCircle
 10
195.1489942708764
 20
319.8239931442274
 30
0.0
 40
0.4999999945
100
AcDbArc
 50
270.0
 51
359.9999999999997
  0
ARC
  5
3017
330
18
100
AcDbEntity
  8
0
 48
2.0
100
AcDbCircle
 10
195.1489942708764
 20
331.8239930122275
 30
0.0
 40
0.4999999945
100
AcDbArc
 50
360.0
 51
89.99999999999971
  0
LINE
  5
3018
330
18
100
AcDbEntity
  8
0
 48
2.0
100
AcDbLine
 10
191.148994314876
 20
319.3239931497274
 30
0.0
 11
223.1489939628764
 21
319.3239931497274
 31
0.0
  0
LINE
  5
3019
330
18
100
AcDbEntity
  8
0
 48
2.0
100
AcDbLine
 10
191.148994314876
 20
332.3239930067273
 30
0.0
 11
223.1489939628764
 21
332.3239930067273
 31
0.0
  0
LINE
  5
301A
330
18
100
AcDbEntity
  8
0
 48
2.0
100
AcDbLine
 10
178.1489944578767
 20
335.8239929682273
 30
0.0
 11
179.1489944468765
 21
335.8239929682273
 31
0.0
  0
LINE
  5
301B
330
18
100
AcDbEntity
  8
0
 48
2.0
100
AcDbLine
 10
179.1489944468765
 20
334.8239929792278
 30
0.0
 11
179.1489944468765
 21
335.8239929682273
 31
0.0
  0
LINE
  5
301C
330
18
100
AcDbEntity
  8
0
 48
2.0
100
AcDbLine
 10
268.1489934678764
 20
335.823992968227
 30
0.0
 11
178.1489944578767
 21
335.8239929682273
 31
0.0
  0
LINE
  5
301D
330
18
100
AcDbEntity
  8
5
 48
2.0
100
AcDbLine
 10
157.1489946888762
 20
320.323993138728
 30
0.0
 11
163.1489946228762
 21
320.323993138728
 31
0.0
  0
LINE
  5
301E
330
18
100
AcDbEntity
  8
5
 48
2.0
100
AcDbLine
 10
157.1489946888762
 20
331.3239930177275
 30
0.0
 11
163.1489946228762
 21
331.3239930177275
 31
0.0
  0
LINE
  5
301F
330
18
100
AcDbEntity
  8
0
 48
2.0
100
AcDbLine
 10
157.1489946888762
 20
319.8239931442278
 30
0.0
 11
163.1489946228762
 21
319.8239931442278
 31
0.0
  0
LINE
  5
3020
330
18
100
AcDbEntity
  8
0
 48
2.0
100
AcDbLine
 10
157.1489946888762
 20
331.8239930122278
 30
0.0
 11
163.1489946228762
 21
331.8239930122278
 31
0.0
  0
LINE
  5
3021
330
18
100
AcDbEntity
  8
0
 48
2.0
100
AcDbLine
 10
157.1489946888762
 20
318.3239931607277
 30
0.0
 11
157.1489946888762
 21
333.3239929957277
 31
0.0
  0
LINE
  5
3022
330
18
100
AcDbEntity
  8
0
 48
2.0
100
AcDbLine
 10
145.1489948208764
 20
322.071983057899
 30
0.0
 11
157.1489946888762
 21
322.071983057899
 31
0.0
  0
LINE
  5
3023
330
18
100
AcDbEntity
  8
0
 48
2.0
100
AcDbLine
 10
145.1489948208764
 20
329.5760030985566
 30
0.0
 11
157.1489946888762
 21
329.5760030985566
 31
0.0
  0
LINE
  5
3024
330
18
100
AcDbEntity
  8
0
 48
2.0
100
AcDbLine
 10
145.1489948208764
 20
333.3239929957277
 30
0.0
 11
157.1489946888762
 21
333.3239929957277
 31
0.0
  0
LINE
  5
3025
330
18
100
AcDbEntity
  8
0
 48
2.0
100
AcDbLine
 10
145.1489948208764
 20
318.3239931607277
 30
0.0
 11
157.1489946888762
 21
318.3239931607277
 31
0.0
  0
LINE
  5
3026
330
18
100
AcDbEntity
  8
0
 48
2.0
100
AcDbLine
 10
145.1489948208764
 20
318.3239931607277
 30
0.0
 11
145.1489948208764
 21
333.3239929957277
 31
0.0
  0
LINE
  5
3027
330
18
100
AcDbEntity
  8
0
 48
2.0
100
AcDbLine
 10
163.1489946228762
 20
316.8239931772279
 30
0.0
 11
163.1489946228762
 21
334.8239929792278
 31
0.0
  0
LINE
  5
3028
330
18
100
AcDbEntity
  8
7A
 48
2.0
100
AcDbLine
 10
145.1489948208764
 20
325.8239930782277
 30
0.0
 11
214.1489940618765
 21
325.8239930782277
 31
0.0
  0
LINE
  5
3029
330
18
100
AcDbEntity
  8
0
 48
2.0
100
AcDbLine
 10
214.1489940618765
 20
320.823993133228
 30
0.0
 11
214.1489940618765
 21
330.8239930232276
 31
0.0
  0
LINE
  5
302A
330
18
100
AcDbEntity
  8
0
 48
2.0
100
AcDbLine
 10
213.1489940728762
 20
319.8239931442281
 30
0.0
 11
213.1489940728766
 21
331.8239930122278
 31
0.0
  0
LINE
  5
302B
330
18
100
AcDbEntity
  8
0
 48
2.0
100
AcDbLine
 10
191.1489943148764
 20
331.8239930122278
 30
0.0
 11
213.1489940728762
 21
331.8239930122278
 31
0.0
  0
LINE
  5
302C
330
18
100
AcDbEntity
  8
5
 48
2.0
100
AcDbLine
 10
191.1489943148764
 20
331.3239930177275
 30
0.0
 11
213.1489940728762
 21
331.3239930177275
 31
0.0
  0
LINE
  5
302D
330
18
100
AcDbEntity
  8
0
 48
2.0
100
AcDbLine
 10
191.1489943148764
 20
319.8239931442281
 30
0.0
 11
213.1489940728762
 21
319.8239931442281
 31
0.0
  0
LINE
  5
302E
330
18
100
AcDbEntity
  8
5
 48
2.0
100
AcDbLine
 10
191.1489943148764
 20
320.323993138728
 30
0.0
 11
213.1489940728762
 21
320.323993138728
 31
0.0
  0
LINE
  5
302F
330
18
100
AcDbEntity
  8
0
 48
2.0
100
AcDbLine
 10
213.1489940728762
 20
330.8239930232276
 30
0.0
 11
214.1489940618765
 21
330.8239930232276
 31
0.0
  0
LINE
  5
3030
330
18
100
AcDbEntity
  8
0
 48
2.0
100
AcDbLine
 10
213.1489940728762
 20
320.823993133228
 30
0.0
 11
214.1489940618765
 21
320.823993133228
 31
0.0
  0
LINE
  5
3031
330
18
100
AcDbEntity
  8
0
 48
2.0
100
AcDbLine
 10
169.1489945568764
 20
316.8239931772279
 30
0.0
 11
159.1489946668765
 21
316.8239931772279
 31
0.0
  0
LINE
  5
3032
330
18
100
AcDbEntity
  8
0
 48
2.0
100
AcDbLine
 10
159.1489946668765
 20
316.8239931772279
 30
0.0
 11
159.1489946668765
 21
319.8239931442278
 31
0.0
  0
LINE
  5
3033
330
18
100
AcDbEntity
  8
0
 48
2.0
100
AcDbLine
 10
159.1489946668765
 20
331.8239930122278
 30
0.0
 11
159.1489946668765
 21
334.8239929792278
 31
0.0
  0
LINE
  5
3034
330
18
100
AcDbEntity
  8
0
 48
2.0
100
AcDbLine
 10
266.5641855110987
 20
319.8239931442274
 30
0.0
 11
266.5641855110987
 21
331.8239930122274
 31
0.0
  0
LINE
  5
3078
330
18
100
AcDbEntity
  8
0
 48
2.0
100
AcDbLine
 10
178.1489944578764
 20
339.3239929297267
 30
0.0
 11
214.8989940536268
 21
339.3239929297271
 31
0.0
  0
LINE
  5
3079
330
18
100
AcDbEntity
  8
0
 48
2.0
100
AcDbLine
 10
268.1489934678765
 20
339.3239929297276
 30
0.0
 11
214.8989940536268
 21
339.3239929297271
 31
0.0
  0
LINE
  5
3095
330
18
100
AcDbEntity
  8
0
 48
2.0
100
AcDbLine
 10
178.1489944578764
 20
341.0739934604772
 30
0.0
 11
178.1489944578764
 21
359.3239927097271
 31
0.0
  0
LINE
  5
3098
330
18
100
AcDbEntity
  8
0
 48
2.0
100
AcDbLine
 10
109.648995156376
 20
242.3239939967278
 30
0.0
 11
109.648995156376
 21
312.3239932267275
 31
0.0
  0
LINE
  5
309E
330
18
100
AcDbEntity
  8
0
 48
2.0
100
AcDbLine
 10
103.3989952251262
 20
293.3239934357276
 30
0.0
 11
93.17269169979772
 21
293.3239934357275
 31
0.0
  0
LINE
  5
309F
330
18
100
AcDbEntity
  8
0
 48
2.0
100
AcDbLine
 10
103.3989952251262
 20
266.3239937327276
 30
0.0
 11
98.01935634542202
 21
266.3239937327276
 31
0.0
  0
LINE
  5
30A0
330
18
100
AcDbEntity
  8
0
 48
2.0
100
AcDbLine
 10
108.3955256613116
 20
298.8901329985308
 30
0.0
 11
104.6524647201909
 21
298.8901329985308
 31
0.0
  0
LINE
  5
30A1
330
18
100
AcDbEntity
  8
0
 48
2.0
100
AcDbLine
 10
108.3955256613116
 20
260.757854169924
 30
0.0
 11
104.6524647201909
 21
260.757854169924
 31
0.0
  0
LINE
  5
30A2
330
18
100
AcDbEntity
  8
0
 48
2.0
100
AcDbLine
 10
108.3955256613112
 20
270.2909238770759
 30
0.0
 11
104.652464720191
 21
270.2909238770759
 31
0.0
  0
LINE
  5
30A3
330
18
100
AcDbEntity
  8
0
 48
2.0
100
AcDbLine
 10
108.3955256613114
 20
289.3570632913792
 30
0.0
 11
104.6524647201909
 21
289.3570632913792
 31
0.0
  0
LINE
  5
30A4
330
18
100
AcDbEntity
  8
0
 48
2.0
100
AcDbLine
 10
87.36601690277451
 20
266.3239937327276
 30
0.0
 11
87.36601690277451
 21
293.3239934357274
 31
0.0
  0
LINE
  5
30A5
330
18
100
AcDbEntity
  8
0
 48
2.0
100
AcDbLine
 10
103.3989952251262
 20
265.5243890234998
 30
0.0
 11
103.3989952251262
 21
294.1235981449551
 31
0.0
  0
LINE
  5
30A6
330
18
100
AcDbEntity
  8
5
 48
2.0
100
AcDbLine
 10
103.3989952251262
 20
267.5739937189775
 30
0.0
 11
97.7949737229393
 21
267.5739937189775
 31
0.0
  0
LINE
  5
30A7
330
18
100
AcDbEntity
  8
5
 48
2.0
100
AcDbLine
 10
103.3989952251262
 20
292.0739934494774
 30
0.0
 11
93.39707432228056
 21
292.0739934494774
 31
0.0
  0
LINE
  5
30A8
330
18
100
AcDbEntity
  8
7A
 48
2.0
100
AcDbLine
 10
274.5256033092402
 20
257.8239938262278
 30
0.0
 11
263.5256034082404
 21
257.8239938262278
 31
0.0
  0
CIRCLE
  5
30A9
330
18
100
AcDbEntity
  8
0
 48
2.0
100
AcDbCircle
 10
269.1489934568764
 20
257.8239938262278
 30
0.0
 40
1.34999998515
  0
LINE
  5
30AA
330
18
100
AcDbEntity
  8
7A
 48
2.0
100
AcDbLine
 10
269.1489934568764
 20
252.3239938757279
 30
0.0
 11
269.1489934568764
 21
263.3239937767278
 31
0.0
  0
LINE
  5
30E3
330
18
100
AcDbEntity
  8
5
 48
2.0
100
AcDbLine
 10
155.420414607249
 20
62.59075432025267
 30
0.0
 11
159.1489946668762
 21
62.59075432025267
 31
0.0
  0
LINE
  5
30E4
330
18
100
AcDbEntity
  8
5
 48
2.0
100
AcDbLine
 10
155.420414607249
 20
57.59075437525274
 30
0.0
 11
159.1489946668762
 21
57.59075437525274
 31
0.0
  0
LINE
  5
30E5
330
18
100
AcDbEntity
  8
0
 48
2.0
100
AcDbLine
 10
155.420414607249
 20
63.09075431475275
 30
0.0
 11
159.1489946668762
 21
63.09075431475275
 31
0.0
  0
LINE
  5
30E6
330
18
100
AcDbEntity
  8
0
 48
2.0
100
AcDbLine
 10
155.420414607249
 20
57.09075438075274
 30
0.0
 11
159.1489946668762
 21
57.09075438075274
 31
0.0
  0
ARC
  5
30E7
330
18
100
AcDbEntity
  8
0
 48
2.0
100
AcDbCircle
 10
149.4204146732488
 20
56.09075439175268
 30
0.0
 40
0.9999999889999999
100
AcDbArc
 50
180.0
 51
270.0
  0
ARC
  5
30E8
330
18
100
AcDbEntity
  8
0
 48
2.0
100
AcDbCircle
 10
149.4204146732488
 20
64.09075430375264
 30
0.0
 40
0.9999999889999999
100
AcDbArc
 50
89.99999999999998
 51
180.0
  0
LINE
  5
30E9
330
18
100
AcDbEntity
  8
0
 48
2.0
100
AcDbLine
 10
149.4204146732488
 20
65.09075429275267
 30
0.0
 11
155.420414607249
 21
65.09075429275267
 31
0.0
  0
LINE
  5
30EA
330
18
100
AcDbEntity
  8
0
 48
2.0
100
AcDbLine
 10
149.4204146732488
 20
55.09075440275274
 30
0.0
 11
155.420414607249
 21
55.09075440275274
 31
0.0
  0
LINE
  5
30EB
330
18
100
AcDbEntity
  8
0
 48
2.0
100
AcDbLine
 10
155.420414607249
 20
55.09075440275274
 30
0.0
 11
155.420414607249
 21
65.09075429275267
 31
0.0
  0
LINE
  5
30EC
330
18
100
AcDbEntity
  8
0
 48
2.0
100
AcDbLine
 10
159.1489946668762
 20
35.09075462275291
 30
0.0
 11
159.1489946668762
 21
85.09075407275247
 31
0.0
  0
LINE
  5
30ED
330
18
100
AcDbEntity
  8
0
 48
2.0
100
AcDbLine
 10
163.1489946228764
 20
85.09075407275247
 30
0.0
 11
163.1489946228764
 21
105.0907538527526
 31
0.0
  0
LINE
  5
30EE
330
18
100
AcDbEntity
  8
0
 48
2.0
100
AcDbLine
 10
159.1489946668762
 20
35.09075462275291
 30
0.0
 11
163.1489946228764
 21
35.09075462275291
 31
0.0
  0
LINE
  5
30EF
330
18
100
AcDbEntity
  8
0
 48
2.0
100
AcDbLine
 10
159.1489946668762
 20
85.09075407275247
 30
0.0
 11
163.1489946228764
 21
85.09075407275247
 31
0.0
  0
LINE
  5
30F0
330
18
100
AcDbEntity
  8
0
 48
2.0
100
AcDbLine
 10
163.1489946228764
 20
15.09075484275269
 30
0.0
 11
163.1489946228764
 21
35.09075462275291
 31
0.0
  0
LINE
  5
30F1
330
18
100
AcDbEntity
  8
7A
 48
2.0
100
AcDbLine
 10
145.1489948208761
 20
25.09075473275266
 30
0.0
 11
169.1489945568762
 21
25.09075473275266
 31
0.0
  0
LINE
  5
30FA
330
18
100
AcDbEntity
  8
0
 48
2.0
100
AcDbLine
 10
148.4204146842487
 20
64.09075430375264
 30
0.0
 11
148.4204146842487
 21
56.09075439175268
 31
0.0
  0
LINE
  5
30FB
330
18
100
AcDbEntity
  8
5
 48
2.0
100
AcDbLine
 10
157.1489946888762
 20
100.5907539022526
 30
0.0
 11
163.1489946228764
 21
100.5907539022526
 31
0.0
  0
LINE
  5
30FC
330
18
100
AcDbEntity
  8
5
 48
2.0
100
AcDbLine
 10
157.1489946888762
 20
89.59075402325272
 30
0.0
 11
163.1489946228764
 21
89.59075402325272
 31
0.0
  0
LINE
  5
30FD
330
18
100
AcDbEntity
  8
0
 48
2.0
100
AcDbLine
 10
157.1489946888762
 20
101.0907538967526
 30
0.0
 11
163.1489946228764
 21
101.0907538967526
 31
0.0
  0
LINE
  5
30FE
330
18
100
AcDbEntity
  8
0
 48
2.0
100
AcDbLine
 10
157.1489946888762
 20
89.09075402875265
 30
0.0
 11
163.1489946228764
 21
89.09075402875265
 31
0.0
  0
LINE
  5
30FF
330
18
100
AcDbEntity
  8
0
 48
2.0
100
AcDbLine
 10
157.1489946888762
 20
102.5907538802526
 30
0.0
 11
157.1489946888762
 21
87.59075404525265
 31
0.0
  0
LINE
  5
3100
330
18
100
AcDbEntity
  8
0
 48
2.0
100
AcDbLine
 10
145.1489948208761
 20
98.84276398308152
 30
0.0
 11
157.1489946888762
 21
98.84276398308152
 31
0.0
  0
LINE
  5
3101
330
18
100
AcDbEntity
  8
0
 48
2.0
100
AcDbLine
 10
145.1489948208761
 20
91.33874394242395
 30
0.0
 11
157.1489946888762
 21
91.33874394242395
 31
0.0
  0
LINE
  5
3102
330
18
100
AcDbEntity
  8
0
 48
2.0
100
AcDbLine
 10
145.1489948208761
 20
87.59075404525265
 30
0.0
 11
157.1489946888762
 21
87.59075404525265
 31
0.0
  0
LINE
  5
3103
330
18
100
AcDbEntity
  8
0
 48
2.0
100
AcDbLine
 10
145.1489948208761
 20
102.5907538802526
 30
0.0
 11
157.1489946888762
 21
102.5907538802526
 31
0.0
  0
LINE
  5
3104
330
18
100
AcDbEntity
  8
0
 48
2.0
100
AcDbLine
 10
145.1489948208761
 20
102.5907538802526
 30
0.0
 11
145.1489948208761
 21
87.59075404525265
 31
0.0
  0
LINE
  5
3105
330
18
100
AcDbEntity
  8
7A
 48
2.0
100
AcDbLine
 10
145.1489948208761
 20
95.09075396275267
 30
0.0
 11
169.1489945568762
 21
95.09075396275267
 31
0.0
  0
CIRCLE
  5
3106
330
18
100
AcDbEntity
  8
0
 48
2.0
100
AcDbCircle
 10
187.1489943588763
 20
24.09075474375266
 30
0.0
 40
6.499999928500001
  0
CIRCLE
  5
3108
330
18
100
AcDbEntity
  8
0
 48
2.0
100
AcDbCircle
 10
187.1489943588763
 20
96.09075395175256
 30
0.0
 40
4.499999950499999
  0
ARC
  5
3109
330
18
100
AcDbEntity
  8
5
 48
2.0
100
AcDbCircle
 10
187.1489943588763
 20
96.09075395175256
 30
0.0
 40
4.999999944999999
100
AcDbArc
 50
174.4541234288037
 51
97.31717655533872
  0
ARC
  5
310A
330
18
100
AcDbEntity
  8
5
 48
2.0
100
AcDbCircle
 10
259.1489935668763
 20
96.09075395175256
 30
0.0
 40
4.999999944999999
100
AcDbArc
 50
174.4541234288037
 51
97.31717655533872
  0
CIRCLE
  5
310B
330
18
100
AcDbEntity
  8
0
 48
2.0
100
AcDbCircle
 10
259.1489935668763
 20
96.09075395175256
 30
0.0
 40
4.499999950499999
  0
ARC
  5
310C
330
18
100
AcDbEntity
  8
5
 48
2.0
100
AcDbCircle
 10
259.1489935668763
 20
24.09075474375266
 30
0.0
 40
4.999999944999999
100
AcDbArc
 50
174.4541234288037
 51
97.31717655533872
  0
CIRCLE
  5
310D
330
18
100
AcDbEntity
  8
0
 48
2.0
100
AcDbCircle
 10
259.1489935668763
 20
24.09075474375266
 30
0.0
 40
4.499999950499999
  0
CIRCLE
  5
310E
330
18
100
AcDbEntity
  8
0
 48
2.0
100
AcDbCircle
 10
187.1489943588763
 20
24.09075474375266
 30
0.0
 40
4.499999950499999
  0
ARC
  5
310F
330
18
100
AcDbEntity
  8
5
 48
2.0
100
AcDbCircle
 10
187.1489943588763
 20
24.09075474375266
 30
0.0
 40
4.999999944999999
100
AcDbArc
 50
174.4541234288037
 51
97.31717655533872
  0
LINE
  5
3110
330
18
100
AcDbEntity
  8
0
 48
2.0
100
AcDbLine
 10
187.1489943588763
 20
96.09075395175256
 30
0.0
 11
187.1489943588763
 21
96.09075395175256
 31
0.0
  0
LINE
  5
3111
330
18
100
AcDbEntity
  8
7A
 48
2.0
100
AcDbLine
 10
259.1489935668763
 20
102.5907538802526
 30
0.0
 11
259.1489935668763
 21
89.59075402325266
 31
0.0
  0
LINE
  5
3112
330
18
100
AcDbEntity
  8
7A
 48
2.0
100
AcDbLine
 10
252.6489936383764
 20
96.09075395175256
 30
0.0
 11
265.6489934953762
 21
96.09075395175256
 31
0.0
  0
CIRCLE
  5
3113
330
18
100
AcDbEntity
  8
0
 48
2.0
100
AcDbCircle
 10
259.1489935668763
 20
96.09075395175256
 30
0.0
 40
6.499999928500001
  0
LINE
  5
3114
330
18
100
AcDbEntity
  8
7A
 48
2.0
100
AcDbLine
 10
259.1489935668763
 20
30.59075467225273
 30
0.0
 11
259.1489935668763
 21
17.59075481525269
 31
0.0
  0
LINE
  5
3115
330
18
100
AcDbEntity
  8
7A
 48
2.0
100
AcDbLine
 10
252.6489936383764
 20
24.09075474375266
 30
0.0
 11
265.6489934953762
 21
24.09075474375266
 31
0.0
  0
CIRCLE
  5
3116
330
18
100
AcDbEntity
  8
0
 48
2.0
100
AcDbCircle
 10
259.1489935668763
 20
24.09075474375266
 30
0.0
 40
6.499999928500001
  0
LINE
  5
3117
330
18
100
AcDbEntity
  8
7A
 48
2.0
100
AcDbLine
 10
187.1489943588763
 20
102.5907538802526
 30
0.0
 11
187.1489943588763
 21
89.59075402325266
 31
0.0
  0
LINE
  5
3118
330
18
100
AcDbEntity
  8
7A
 48
2.0
100
AcDbLine
 10
180.6489944303762
 20
96.09075395175256
 30
0.0
 11
193.6489942873761
 21
96.09075395175256
 31
0.0
  0
CIRCLE
  5
3119
330
18
100
AcDbEntity
  8
0
 48
2.0
100
AcDbCircle
 10
187.1489943588763
 20
96.09075395175256
 30
0.0
 40
6.499999928500001
  0
LINE
  5
311A
330
18
100
AcDbEntity
  8
7A
 48
2.0
100
AcDbLine
 10
180.6489944303762
 20
24.09075474375266
 30
0.0
 11
193.6489942873761
 21
24.09075474375266
 31
0.0
  0
LINE
  5
311B
330
18
100
AcDbEntity
  8
7A
 48
2.0
100
AcDbLine
 10
187.1489943588763
 20
30.59075467225273
 30
0.0
 11
187.1489943588763
 21
17.59075481525269
 31
0.0
  0
LINE
  5
311C
330
18
100
AcDbEntity
  8
0
 48
2.0
100
AcDbLine
 10
268.1489934678764
 20
105.0907538527526
 30
0.0
 11
268.1489934678764
 21
15.09075484275269
 31
0.0
  0
LINE
  5
311D
330
18
100
AcDbEntity
  8
0
 48
2.0
100
AcDbLine
 10
178.1489944578761
 20
105.0907538527526
 30
0.0
 11
178.1489944578761
 21
15.09075484275269
 31
0.0
  0
LINE
  5
311E
330
18
100
AcDbEntity
  8
0
 48
2.0
100
AcDbLine
 10
178.1489944578761
 20
15.09075484275269
 30
0.0
 11
268.1489934678764
 21
15.09075484275269
 31
0.0
  0
LINE
  5
311F
330
18
100
AcDbEntity
  8
0
 48
2.0
100
AcDbLine
 10
178.1489944578761
 20
105.0907538527526
 30
0.0
 11
268.1489934678764
 21
105.0907538527526
 31
0.0
  0
LINE
  5
3120
330
18
100
AcDbEntity
  8
7A
 48
2.0
100
AcDbLine
 10
187.1489943588764
 20
89.59075402325272
 30
0.0
 11
187.1489943588764
 21
102.5907538802526
 31
0.0
  0
LINE
  5
3121
330
18
100
AcDbEntity
  8
7A
 48
2.0
100
AcDbLine
 10
180.6489944303764
 20
96.09075395175274
 30
0.0
 11
193.6489942873763
 21
96.09075395175274
 31
0.0
  0
LINE
  5
3122
330
18
100
AcDbEntity
  8
7A
 48
2.0
100
AcDbLine
 10
265.6489934953766
 20
96.09075395175274
 30
0.0
 11
252.6489936383765
 21
96.09075395175274
 31
0.0
  0
LINE
  5
3123
330
18
100
AcDbEntity
  8
7A
 48
2.0
100
AcDbLine
 10
259.1489935668763
 20
89.59075402325272
 30
0.0
 11
259.1489935668763
 21
102.5907538802526
 31
0.0
  0
LINE
  5
3124
330
18
100
AcDbEntity
  8
7A
 48
2.0
100
AcDbLine
 10
259.1489935668763
 20
30.59075467225273
 30
0.0
 11
259.1489935668763
 21
17.59075481525269
 31
0.0
  0
LINE
  5
3125
330
18
100
AcDbEntity
  8
7A
 48
2.0
100
AcDbLine
 10
265.6489934953766
 20
24.09075474375277
 30
0.0
 11
252.6489936383765
 21
24.09075474375277
 31
0.0
  0
LINE
  5
3126
330
18
100
AcDbEntity
  8
7A
 48
2.0
100
AcDbLine
 10
180.6489944303764
 20
24.09075474375277
 30
0.0
 11
193.6489942873763
 21
24.09075474375277
 31
0.0
  0
LINE
  5
3127
330
18
100
AcDbEntity
  8
7A
 48
2.0
100
AcDbLine
 10
187.1489943588764
 20
30.59075467225273
 30
0.0
 11
187.1489943588764
 21
17.59075481525269
 31
0.0
  0
LINE
  5
3128
330
18
100
AcDbEntity
  8
0
 48
2.0
100
AcDbLine
 10
169.1489945568762
 20
105.0907538527526
 30
0.0
 11
169.1489945568762
 21
15.09075484275269
 31
0.0
  0
LINE
  5
3129
330
18
100
AcDbEntity
  8
7A
 48
2.0
100
AcDbLine
 10
223.1489939628763
 20
105.0907538527526
 30
0.0
 11
223.1489939628763
 21
15.09075484275269
 31
0.0
  0
LINE
  5
312A
330
18
100
AcDbEntity
  8
0
 48
2.0
100
AcDbLine
 10
109.648995156376
 20
300.3239933587279
 30
0.0
 11
328.1489928078763
 21
300.3239933587277
 31
0.0
  0
LINE
  5
312B
330
18
100
AcDbEntity
  8
0
 48
2.0
100
AcDbLine
 10
491.8737200670429
 20
312.3239932267276
 30
0.0
 11
458.9039913962547
 21
300.3239933587277
 31
0.0
  0
LINE
  5
312C
330
18
100
AcDbEntity
  8
0
 48
2.0
100
AcDbLine
 10
458.9039913962547
 20
300.3239933587278
 30
0.0
 11
458.9039913962547
 21
242.3239939967278
 31
0.0
  0
LINE
  5
312D
330
18
100
AcDbEntity
  8
0
 48
2.0
100
AcDbLine
 10
574.9039901202545
 20
300.3239933587276
 30
0.0
 11
574.9039901202545
 21
226.3239941727275
 31
0.0
  0
LINE
  5
312E
330
18
100
AcDbEntity
  8
7A
 48
2.0
100
AcDbLine
 10
516.9039907582543
 20
226.3239941727277
 30
0.0
 11
516.9039907582543
 21
345.8908357424889
 31
0.0
  0
LINE
  5
312F
330
18
100
AcDbEntity
  8
0
 48
2.0
100
AcDbLine
 10
267.6489934733764
 20
308.8239932652275
 30
0.0
 11
267.6489934733764
 21
319.3239931497278
 31
0.0
  0
LINE
  5
3130
330
18
100
AcDbEntity
  8
0
 48
2.0
100
AcDbLine
 10
328.1489928078765
 20
118.0907537097527
 30
0.0
 11
328.1489928078765
 21
2.09075498575271
 31
0.0
  0
LINE
  5
3131
330
18
100
AcDbEntity
  8
0
 48
2.0
100
AcDbLine
 10
328.1489928078763
 20
242.3239939967277
 30
0.0
 11
328.1489928078763
 21
308.3239932707276
 31
0.0
  0
LINE
  5
3132
330
18
100
AcDbEntity
  8
0
 48
2.0
100
AcDbLine
 10
267.6489934733764
 20
308.8239932652275
 30
0.0
 11
193.9695448120799
 21
308.8239932652275
 31
0.0
  0
ARC
  5
3133
330
18
100
AcDbEntity
  8
0
 48
2.0
100
AcDbCircle
 10
166.1489945898763
 20
315.3239931937275
 30
0.0
 40
2.999999967
100
AcDbArc
 50
270.0000000000001
 51
0.0
  0
LINE
  5
3134
330
18
100
AcDbEntity
  8
7A
 48
2.0
100
AcDbLine
 10
109.648995156376
 20
22.99075475585272
 30
0.0
 11
87.61601690002454
 21
22.99075475585272
 31
0.0
  0
LINE
  5
3135
330
18
100
AcDbEntity
  8
0
 48
2.0
100
AcDbLine
 10
109.648995156376
 20
79.87024605448954
 30
0.0
 11
103.6489952223762
 21
79.87024605448954
 31
0.0
  0
LINE
  5
3136
330
18
100
AcDbEntity
  8
0
 48
2.0
100
AcDbLine
 10
108.5793889272617
 20
97.19075393965272
 30
0.0
 11
104.7186014514907
 21
97.19075393965272
 31
0.0
  0
LINE
  5
3137
330
18
100
AcDbEntity
  8
7A
 48
2.0
100
AcDbLine
 10
109.648995156376
 20
97.19075393965272
 30
0.0
 11
87.61601690002454
 21
97.19075393965272
 31
0.0
  0
LINE
  5
3138
330
18
100
AcDbEntity
  8
0
 48
2.0
100
AcDbLine
 10
103.6489952223762
 20
97.19075393965272
 30
0.0
 11
103.6489952223762
 21
79.87024605448954
 31
0.0
  0
LINE
  5
3139
330
18
100
AcDbEntity
  8
0
 48
2.0
100
AcDbLine
 10
109.648995156376
 20
114.5112618248159
 30
0.0
 11
103.6489952223762
 21
114.5112618248159
 31
0.0
  0
LINE
  5
313A
330
18
100
AcDbEntity
  8
0
 48
2.0
100
AcDbLine
 10
103.6489952223762
 20
97.19075393965267
 30
0.0
 11
103.6489952223762
 21
114.5112618248159
 31
0.0
  0
LINE
  5
313B
330
18
100
AcDbEntity
  8
7A
 48
2.0
100
AcDbLine
 10
464.8039913313546
 20
279.8239935842274
 30
0.0
 11
494.8039910013546
 21
279.8239935842274
 31
0.0
  0
LINE
  5
313C
330
18
100
AcDbEntity
  8
7A
 48
2.0
100
AcDbLine
 10
569.0039901851546
 20
279.8239935842274
 30
0.0
 11
539.0039905151548
 21
279.8239935842274
 31
0.0
  0
POLYLINE
  5
313D
330
18
100
AcDbEntity
  8
0
 48
2.0
100
AcDb2dPolyline
 66
     1
 10
0.0
 20
0.0
 30
0.0
 70
     1
  0
VERTEX
  5
313E
330
313D
100
AcDbEntity
  8
0
 48
2.0
100
AcDbVertex
100
AcDb2dVertex
 10
539.0039905151548
 20
288.4842475268092
 30
0.0
  0
VERTEX
  5
313F
330
313D
100
AcDbEntity
  8
0
 48
2.0
100
AcDbVertex
100
AcDb2dVertex
 10
554.0039903501547
 20
297.1445014693907
 30
0.0
  0
VERTEX
  5
3140
330
313D
100
AcDbEntity
  8
0
 48
2.0
100
AcDbVertex
100
AcDb2dVertex
 10
569.0039901851546
 20
288.4842475268092
 30
0.0
  0
VERTEX
  5
3141
330
313D
100
AcDbEntity
  8
0
 48
2.0
100
AcDbVertex
100
AcDb2dVertex
 10
569.0039901851546
 20
271.1637396416459
 30
0.0
  0
VERTEX
  5
3142
330
313D
100
AcDbEntity
  8
0
 48
2.0
100
AcDbVertex
100
AcDb2dVertex
 10
554.0039903501549
 20
262.5034856990644
 30
0.0
  0
VERTEX
  5
3143
330
313D
100
AcDbEntity
  8
0
 48
2.0
100
AcDbVertex
100
AcDb2dVertex
 10
539.0039905151548
 20
271.1637396416459
 30
0.0
  0
SEQEND
  5
3144
330
313D
100
AcDbEntity
  8
0
 48
2.0
  0
POLYLINE
  5
3145
330
18
100
AcDbEntity
  8
0
 48
2.0
100
AcDb2dPolyline
 66
     1
 10
0.0
 20
0.0
 30
0.0
 70
     1
  0
VERTEX
  5
3146
330
3145
100
AcDbEntity
  8
0
 48
2.0
100
AcDbVertex
100
AcDb2dVertex
 10
494.8039910013546
 20
288.4842475268092
 30
0.0
  0
VERTEX
  5
3147
330
3145
100
AcDbEntity
  8
0
 48
2.0
100
AcDbVertex
100
AcDb2dVertex
 10
479.8039911663545
 20
297.1445014693907
 30
0.0
  0
VERTEX
  5
3148
330
3145
100
AcDbEntity
  8
0
 48
2.0
100
AcDbVertex
100
AcDb2dVertex
 10
464.8039913313546
 20
288.4842475268092
 30
0.0
  0
VERTEX
  5
3149
330
3145
100
AcDbEntity
  8
0
 48
2.0
100
AcDbVertex
100
AcDb2dVertex
 10
464.8039913313546
 20
271.1637396416459
 30
0.0
  0
VERTEX
  5
314A
330
3145
100
AcDbEntity
  8
0
 48
2.0
100
AcDbVertex
100
AcDb2dVertex
 10
479.8039911663545
 20
262.5034856990644
 30
0.0
  0
VERTEX
  5
314B
330
3145
100
AcDbEntity
  8
0
 48
2.0
100
AcDbVertex
100
AcDb2dVertex
 10
494.8039910013546
 20
271.1637396416459
 30
0.0
  0
SEQEND
  5
314C
330
3145
100
AcDbEntity
  8
0
 48
2.0
  0
CIRCLE
  5
314D
330
18
100
AcDbEntity
  8
0
 48
2.0
100
AcDbCircle
 10
554.0039903501547
 20
279.8239935842274
 30
0.0
 40
11.999999868
  0
CIRCLE
  5
314E
330
18
100
AcDbEntity
  8
0
 48
2.0
100
AcDbCircle
 10
479.8039911663545
 20
279.8239935842274
 30
0.0
 40
11.999999868
  0
ARC
  5
314F
330
18
100
AcDbEntity
  8
5
 48
2.0
100
AcDbCircle
 10
554.0039903501547
 20
279.8239935842274
 30
0.0
 40
12.4999998625
100
AcDbArc
 50
169.3224559977757
 51
97.9223891023075
  0
ARC
  5
3150
330
18
100
AcDbEntity
  8
5
 48
2.0
100
AcDbCircle
 10
479.8039911663545
 20
279.8239935842274
 30
0.0
 40
12.4999998625
100
AcDbArc
 50
169.5065327520681
 51
101.1339265843188
  0
LINE
  5
3151
330
18
100
AcDbEntity
  8
0
 48
2.0
100
AcDbLine
 10
574.9039901202545
 20
242.3239939967276
 30
0.0
 11
458.9039913962547
 21
242.3239939967278
 31
0.0
  0
LINE
  5
3152
330
18
100
AcDbEntity
  8
0
 48
2.0
100
AcDbLine
 10
561.9039902632546
 20
334.8239929792281
 30
0.0
 11
561.9039902632546
 21
312.3239932267275
 31
0.0
  0
LINE
  5
3153
330
18
100
AcDbEntity
  8
7A
 48
2.0
100
AcDbLine
 10
554.0039903501547
 20
262.5034856990644
 30
0.0
 11
554.0039903501547
 21
297.1445014693907
 31
0.0
  0
LINE
  5
3154
330
18
100
AcDbEntity
  8
7A
 48
2.0
100
AcDbLine
 10
479.8039911663545
 20
262.5034856990644
 30
0.0
 11
479.8039911663545
 21
297.1445014693907
 31
0.0
  0
LINE
  5
3155
330
18
100
AcDbEntity
  8
0
 48
2.0
100
AcDbLine
 10
471.9039912532545
 20
334.8239929792281
 30
0.0
 11
471.9039912532545
 21
312.3239932267275
 31
0.0
  0
LINE
  5
3156
330
18
100
AcDbEntity
  8
0
 48
2.0
100
AcDbLine
 10
328.1489928078763
 20
308.3239932707276
 30
0.0
 11
196.1489942598764
 21
308.3239932707276
 31
0.0
  0
LINE
  5
3157
330
18
100
AcDbEntity
  8
0
 48
2.0
100
AcDbLine
 10
250.6489936603764
 20
308.3239932707276
 30
0.0
 11
250.6489936603764
 21
308.8239932652275
 31
0.0
  0
LINE
  5
3158
330
18
100
AcDbEntity
  8
0
 48
2.0
100
AcDbLine
 10
195.6489942653761
 20
308.3490560849186
 30
0.0
 11
195.6489942653761
 21
308.8239932652275
 31
0.0
  0
LINE
  5
3159
330
18
100
AcDbEntity
  8
7A
 48
2.0
100
AcDbLine
 10
223.1489939628764
 20
226.3239941727277
 30
0.0
 11
223.1489939628764
 21
359.3239927097276
 31
0.0
  0
ARC
  5
315A
330
18
100
AcDbEntity
  8
0
 48
2.0
100
AcDbCircle
 10
196.1489942598764
 20
313.3239932157275
 30
0.0
 40
4.999999944999999
100
AcDbArc
 50
180.0
 51
270.0
  0
LINE
  5
315B
330
18
100
AcDbEntity
  8
0
 48
2.0
100
AcDbLine
 10
126.1489950298762
 20
242.3239939967278
 30
0.0
 11
126.1489950298762
 21
312.3239932267275
 31
0.0
  0
LINE
  5
315C
330
18
100
AcDbEntity
  8
0
 48
2.0
100
AcDbLine
 10
320.1489928958763
 20
242.3239939967278
 30
0.0
 11
320.1489928958763
 21
308.3239932707276
 31
0.0
  0
LINE
  5
315D
330
18
100
AcDbEntity
  8
0
 48
2.0
100
AcDbLine
 10
328.1489928078763
 20
242.3239939967278
 30
0.0
 11
109.648995156376
 21
242.3239939967278
 31
0.0
  0
LINE
  5
315E
330
18
100
AcDbEntity
  8
0
 48
2.0
100
AcDbLine
 10
320.1489928958765
 20
118.0907537097528
 30
0.0
 11
320.1489928958763
 21
2.09075498575271
 31
0.0
  0
LINE
  5
315F
330
18
100
AcDbEntity
  8
0
 48
2.0
100
AcDbLine
 10
126.1489950298762
 20
118.0907537097528
 30
0.0
 11
126.1489950298762
 21
2.09075498575271
 31
0.0
  0
LINE
  5
3160
330
18
100
AcDbEntity
  8
0
 48
2.0
100
AcDbLine
 10
109.648995156376
 20
118.0907537097528
 30
0.0
 11
109.648995156376
 21
2.09075498575271
 31
0.0
  0
LINE
  5
3161
330
18
100
AcDbEntity
  8
7A
 48
2.0
100
AcDbLine
 10
223.1489939628763
 20
105.0907538527527
 30
0.0
 11
223.1489939628763
 21
15.09075484275269
 31
0.0
  0
LINE
  5
3162
330
18
100
AcDbEntity
  8
7A
 48
2.0
100
AcDbLine
 10
109.648995156376
 20
60.09075434775275
 30
0.0
 11
187.259452672848
 21
60.09075434775275
 31
0.0
  0
LINE
  5
3163
330
18
100
AcDbEntity
  8
0
 48
2.0
100
AcDbLine
 10
163.1489946228762
 20
15.09075484275269
 30
0.0
 11
328.1489928078765
 21
15.09075484275269
 31
0.0
  0
LINE
  5
3164
330
18
100
AcDbEntity
  8
0
 48
2.0
100
AcDbLine
 10
163.1489946228764
 20
105.0907538527527
 30
0.0
 11
328.1489928078765
 21
105.0907538527527
 31
0.0
  0
LINE
  5
33E4
330
18
100
AcDbEntity
  8
7A
 48
2.0
100
AcDbLine
 10
516.9039907582543
 20
356.0163078253481
 30
0.0
 11
516.9039907582543
 21
359.3239927097275
 31
0.0
  0
LINE
  5
34A1
330
18
100
AcDbEntity
  8
7A
 48
2.0
100
AcDbLine
 10
174.1638683068013
 20
505.1915137540657
 30
0.0
 11
328.1489928078764
 21
505.1915137540657
 31
0.0
  0
LINE
  5
34A2
330
18
100
AcDbEntity
  8
7A
 48
2.0
100
AcDbLine
 10
260.1489934678764
 20
60.09075434775275
 30
0.0
 11
328.1489928078765
 21
60.09075434775275
 31
0.0
  0
LINE
  5
34A3
330
18
100
AcDbEntity
  8
7A
 48
2.0
100
AcDbLine
 10
193.5829578452448
 20
60.09075434775275
 30
0.0
 11
252.6210941505201
 21
60.09075434775275
 31
0.0
  0
CIRCLE
  5
35C7
330
18
100
AcDbEntity
  8
DEFPOINTS
100
AcDbCircle
 10
223.1020259978825
 20
60.09075434775275
 30
0.0
 40
9.5
  0
LINE
  5
35C9
330
18
100
AcDbEntity
  8
0
 48
2.0
100
AcDbLine
 10
145.1489948208761
 20
32.59075465025288
 30
0.0
 11
145.1489948208761
 21
17.59075481525289
 31
0.0
  0
LINE
  5
35CA
330
18
100
AcDbEntity
  8
0
 48
2.0
100
AcDbLine
 10
157.1489946888762
 20
32.59075465025288
 30
0.0
 11
157.1489946888762
 21
17.59075481525289
 31
0.0
  0
LINE
  5
35CB
330
18
100
AcDbEntity
  8
0
 48
2.0
100
AcDbLine
 10
145.1489948208761
 20
17.59075481525289
 30
0.0
 11
157.1489946888762
 21
17.59075481525289
 31
0.0
  0
LINE
  5
35CC
330
18
100
AcDbEntity
  8
0
 48
2.0
100
AcDbLine
 10
145.1489948208761
 20
21.33874471242419
 30
0.0
 11
157.1489946888762
 21
21.33874471242419
 31
0.0
  0
LINE
  5
35CD
330
18
100
AcDbEntity
  8
0
 48
2.0
100
AcDbLine
 10
157.1489946888762
 20
19.0907547987529
 30
0.0
 11
163.1489946228764
 21
19.0907547987529
 31
0.0
  0
LINE
  5
35CE
330
18
100
AcDbEntity
  8
5
 48
2.0
100
AcDbLine
 10
157.1489946888762
 20
19.59075479325295
 30
0.0
 11
163.1489946228764
 21
19.59075479325295
 31
0.0
  0
LINE
  5
35CF
330
18
100
AcDbEntity
  8
0
 48
2.0
100
AcDbLine
 10
145.1489948208761
 20
32.59075465025288
 30
0.0
 11
157.1489946888762
 21
32.59075465025288
 31
0.0
  0
LINE
  5
35D0
330
18
100
AcDbEntity
  8
0
 48
2.0
100
AcDbLine
 10
145.1489948208761
 20
28.84276475308175
 30
0.0
 11
157.1489946888762
 21
28.84276475308175
 31
0.0
  0
LINE
  5
35D1
330
18
100
AcDbEntity
  8
0
 48
2.0
100
AcDbLine
 10
157.1489946888762
 20
31.09075466675288
 30
0.0
 11
163.1489946228764
 21
31.09075466675288
 31
0.0
  0
LINE
  5
35D2
330
18
100
AcDbEntity
  8
5
 48
2.0
100
AcDbLine
 10
157.1489946888762
 20
30.59075467225287
 30
0.0
 11
163.1489946228764
 21
30.59075467225287
 31
0.0
  0
ENDSEC
  0
SECTION
  2
OBJECTS
  0
DICTIONARY
  5
C
330
0
100
AcDbDictionary
281
     1
  3
ACAD_COLOR
350
3759
  3
ACAD_GROUP
350
D
  3
ACAD_LAYOUT
350
34E0
  3
ACAD_MATERIAL
350
372F
  3
ACAD_MLEADERSTYLE
350
376E
  3
ACAD_MLINESTYLE
350
E
  3
ACAD_PLOTSETTINGS
350
34E1
  3
ACAD_PLOTSTYLENAME
350
34DE
  3
ACAD_SCALELIST
350
375C
  3
ACAD_TABLESTYLE
350
375A
  3
ACAD_VISUALSTYLE
350
3748
  3
ACDB_RECOMPOSE_DATA
350
37EF
  3
ACDBVARIABLEDICTIONARY
350
1A98
  3
AcmDictionary
350
3525
  3
AMG
350
34E9
  3
AMGSNAPSETTINGS
350
35B6
  3
DWGPROPS
350
3812
  0
DICTIONARY
  5
37D6
330
F
100
AcDbDictionary
280
     1
281
     1
  3
ADSK_XREC_LAYER_RECONCILED
360
37D7
  0
DICTIONARY
  5
37D8
330
26
100
AcDbDictionary
280
     1
281
     1
  3
ADSK_XREC_LAYER_RECONCILED
360
37D9
  0
DICTIONARY
  5
37DA
330
29
100
AcDbDictionary
280
     1
281
     1
  3
ADSK_XREC_LAYER_RECONCILED
360
37DB
  0
DICTIONARY
  5
37DC
330
2B
100
AcDbDictionary
280
     1
281
     1
  3
ADSK_XREC_LAYER_RECONCILED
360
37DD
  0
DICTIONARY
  5
37DE
330
2C
100
AcDbDictionary
280
     1
281
     1
  3
ADSK_XREC_LAYER_RECONCILED
360
37DF
  0
DICTIONARY
  5
37E0
330
2E
100
AcDbDictionary
280
     1
281
     1
  3
ADSK_XREC_LAYER_RECONCILED
360
37E1
  0
DICTIONARY
  5
37E2
330
2F
100
AcDbDictionary
280
     1
281
     1
  3
ADSK_XREC_LAYER_RECONCILED
360
37E3
  0
DICTIONARY
  5
37E4
330
3335
100
AcDbDictionary
280
     1
281
     1
  3
ADSK_XREC_LAYER_RECONCILED
360
37E5
  0
DICTIONARY
  5
37E6
330
3336
100
AcDbDictionary
280
     1
281
     1
  3
ADSK_XREC_LAYER_RECONCILED
360
37E7
  0
DICTIONARY
  5
37E8
330
353D
100
AcDbDictionary
280
     1
281
     1
  3
ADSK_XREC_LAYER_RECONCILED
360
37E9
  0
DICTIONARY
  5
37EA
330
35D4
100
AcDbDictionary
280
     1
281
     1
  3
ADSK_XREC_LAYER_RECONCILED
360
37EB
  0
DICTIONARY
  5
35A6
330
18
100
AcDbDictionary
280
     1
281
     1
  3
ACAD_LAYOUTSELFREF
360
3655
  0
DICTIONARY
  5
3653
330
15
100
AcDbDictionary
280
     1
281
     1
  3
ACAD_LAYOUTSELFREF
360
3654
  0
DICTIONARY
  5
3759
102
{ACAD_REACTORS
330
C
102
}
330
C
100
AcDbDictionary
281
     1
  0
DICTIONARY
  5
D
102
{ACAD_REACTORS
330
C
102
}
330
C
100
AcDbDictionary
281
     1
  0
DICTIONARY
  5
34E0
102
{ACAD_REACTORS
330
C
102
}
330
C
100
AcDbDictionary
281
     1
  3
Layout1
350
34E3
  3
Model
350
34E2
  0
DICTIONARY
  5
372F
102
{ACAD_REACTORS
330
C
102
}
330
C
100
AcDbDictionary
281
     1
  3
ByBlock
350
3738
  3
ByLayer
350
3730
  3
Global
350
3740
  0
DICTIONARY
  5
376E
102
{ACAD_REACTORS
330
C
102
}
330
C
100
AcDbDictionary
281
     1
  3
Standard
350
376F
  0
DICTIONARY
  5
E
102
{ACAD_REACTORS
330
C
102
}
330
C
100
AcDbDictionary
281
     1
  3
STANDARD
350
1B
  0
DICTIONARY
  5
34E1
102
{ACAD_REACTORS
330
C
102
}
330
C
100
AcDbDictionary
281
     1
  0
ACDBDICTIONARYWDFLT
  5
34DE
102
{ACAD_REACTORS
330
C
102
}
330
C
100
AcDbDictionary
281
     1
  3
Normal
350
34DF
100
AcDbDictionaryWithDefault
340
34DF
  0
DICTIONARY
  5
375C
102
{ACAD_REACTORS
330
C
102
}
330
C
100
AcDbDictionary
281
     1
  3
A0
350
375D
  3
A1
350
375E
  3
A2
350
375F
  3
A3
350
3760
  3
A4
350
3761
  3
A5
350
3762
  3
A6
350
3763
  3
A7
350
3764
  3
A8
350
3765
  3
A9
350
3766
  3
B0
350
3767
  3
B1
350
3768
  3
B2
350
3769
  3
B3
350
376A
  3
B4
350
376B
  3
B5
350
376C
  3
B6
350
376D
  0
DICTIONARY
  5
375A
102
{ACAD_REACTORS
330
C
102
}
330
C
100
AcDbDictionary
281
     1
  3
Standard
350
375B
  0
DICTIONARY
  5
3748
102
{ACAD_REACTORS
330
C
102
}
330
C
100
AcDbDictionary
281
     1
  3
2dWireframe
350
374E
  3
3D Hidden
350
3750
  3
3dWireframe
350
374F
  3
Basic
350
374D
  3
Brighten
350
3754
  3
ColorChange
350
3758
  3
Conceptual
350
3751
  3
Dim
350
3753
  3
Facepattern
350
3757
  3
Flat
350
3749
  3
FlatWithEdges
350
374A
  3
Gouraud
350
374B
  3
GouraudWithEdges
350
374C
  3
Linepattern
350
3756
  3
Realistic
350
3752
  3
Thicken
350
3755
  0
XRECORD
  5
37EF
102
{ACAD_REACTORS
330
C
102
}
330
C
100
AcDbXrecord
280
     1
 90
        1
330
375B
  0
DICTIONARY
  5
1A98
102
{ACAD_REACTORS
330
C
102
}
330
C
100
AcDbDictionary
281
     1
  3
CANNOSCALE
350
37F3
  3
CMLEADERSTYLE
350
37F1
  3
CTABLESTYLE
350
37F0
  3
DIMASSOC
350
3810
  3
INDEXCTL
350
3514
  3
LAYEREVAL
350
37F5
  3
LAYERNOTIFY
350
37F6
  3
LIGHTINGUNITS
350
37F4
  3
MSLTSCALE
350
37F2
  3
SORTENTS
350
1A99
  0
DICTIONARY
  5
3525
102
{ACAD_REACTORS
330
C
102
}
330
C
100
AcDbDictionary
281
     1
  3
AcmStdDictionary
350
352A
  3
AMDTSECTSYM_ARROWCOLOR
350
37CC
  0
DICTIONARY
  5
34E9
102
{ACAD_REACTORS
330
C
102
}
330
C
100
AcDbDictionary
281
     1
  0
DICTIONARY
  5
35B6
102
{ACAD_REACTORS
330
C
102
}
330
C
100
AcDbDictionary
281
     1
  0
XRECORD
  5
3812
102
{ACAD_REACTORS
330
C
102
}
330
C
100
AcDbXrecord
280
     1
  1
DWGPROPS COOKIE
  2

  3

  4

  6

  7

  8
bauer_sven
  9

300
AmdtFileType=84
301
=
302
=
303
=
304
=
305
=
306
=
307
=
308
=
309
=
 40
0.1775989236111111
 41
2452256.515739467
 42
2456219.409661656
  1

 90
        1
  0
XRECORD
  5
37D7
102
{ACAD_REACTORS
330
37D6
102
}
330
37D6
100
AcDbXrecord
280
     1
290
     1
  0
XRECORD
  5
37D9
102
{ACAD_REACTORS
330
37D8
102
}
330
37D8
100
AcDbXrecord
280
     1
290
     1
  0
XRECORD
  5
37DB
102
{ACAD_REACTORS
330
37DA
102
}
330
37DA
100
AcDbXrecord
280
     1
290
     1
  0
XRECORD
  5
37DD
102
{ACAD_REACTORS
330
37DC
102
}
330
37DC
100
AcDbXrecord
280
     1
290
     1
  0
XRECORD
  5
37DF
102
{ACAD_REACTORS
330
37DE
102
}
330
37DE
100
AcDbXrecord
280
     1
290
     1
  0
XRECORD
  5
37E1
102
{ACAD_REACTORS
330
37E0
102
}
330
37E0
100
AcDbXrecord
280
     1
290
     1
  0
XRECORD
  5
37E3
102
{ACAD_REACTORS
330
37E2
102
}
330
37E2
100
AcDbXrecord
280
     1
290
     1
  0
XRECORD
  5
37E5
102
{ACAD_REACTORS
330
37E4
102
}
330
37E4
100
AcDbXrecord
280
     1
290
     1
  0
XRECORD
  5
37E7
102
{ACAD_REACTORS
330
37E6
102
}
330
37E6
100
AcDbXrecord
280
     1
290
     1
  0
XRECORD
  5
37E9
102
{ACAD_REACTORS
330
37E8
102
}
330
37E8
100
AcDbXrecord
280
     1
290
     1
  0
XRECORD
  5
37EB
102
{ACAD_REACTORS
330
37EA
102
}
330
37EA
100
AcDbXrecord
280
     1
290
     1
  0
XRECORD
  5
3655
102
{ACAD_REACTORS
330
35A6
102
}
330
35A6
100
AcDbXrecord
280
     1
340
18
  0
XRECORD
  5
3654
102
{ACAD_REACTORS
330
3653
102
}
330
3653
100
AcDbXrecord
280
     1
340
15
  0
LAYOUT
  5
34E3
102
{ACAD_XDICTIONARY
360
3817
102
}
102
{ACAD_REACTORS
330
34E0
102
}
330
34E0
100
AcDbPlotSettings
  1

  2
HP LaserJet 2200 Series PCL 6
  4

  6

 40
0.0
 41
0.0
 42
0.0
 43
0.0
 44
0.0
 45
0.0
 46
0.0
 47
0.0
 48
0.0
 49
0.0
140
0.0
141
0.0
142
1.0
143
1.0
 70
   688
 72
     0
 73
     0
 74
     5
  7
lutz_1.ctb
 75
    16
147
1.0
148
0.0
149
0.0
100
AcDbLayout
  1
Layout1
 70
     1
 71
     1
 10
0.0
 20
0.0
 11
420.0
 21
297.0
 12
0.0
 22
0.0
 32
0.0
 14
1.000000000000000E+20
 24
1.000000000000000E+20
 34
1.000000000000000E+20
 15
-1.000000000000000E+20
 25
-1.000000000000000E+20
 35
-1.000000000000000E+20
146
0.0
 13
0.0
 23
0.0
 33
0.0
 16
1.0
 26
0.0
 36
0.0
 17
0.0
 27
1.0
 37
0.0
 76
     0
330
15
  0
LAYOUT
  5
34E2
102
{ACAD_XDICTIONARY
360
3815
102
}
102
{ACAD_REACTORS
330
34E0
102
}
330
34E0
100
AcDbPlotSettings
  1

  2
HP LaserJet 2200 Series PCL 6
  4

  6

 40
0.0
 41
0.0
 42
0.0
 43
0.0
 44
0.0
 45
0.0
 46
0.0
 47
0.0
 48
0.0
 49
0.0
140
0.0
141
0.0
142
1.0
143
1.0
 70
  1712
 72
     0
 73
     0
 74
     0
  7
lutz_1.ctb
 75
     0
147
1.0
148
0.0
149
0.0
100
AcDbLayout
  1
Model
 70
     1
 71
     0
 10
0.0
 20
0.0
 11
12.0
 21
9.0
 12
0.0
 22
0.0
 32
0.0
 14
0.0
 24
0.0
 34
0.0
 15
0.0
 25
0.0
 35
0.0
146
0.0
 13
0.0
 23
0.0
 33
0.0
 16
1.0
 26
0.0
 36
0.0
 17
0.0
 27
1.0
 37
0.0
 76
     0
330
18
331
372D
  0
MATERIAL
  5
3738
102
{ACAD_XDICTIONARY
360
3739
102
}
102
{ACAD_REACTORS
330
372F
102
}
330
372F
100
AcDbMaterial
  1
ByBlock
 72
     0
 43
0.0208333333333333
 43
0.0
 43
0.0
 43
0.0
 43
0.0
 43
0.0208333333333333
 43
0.0
 43
0.0
 43
0.0
 43
0.0
 43
1.0
 43
0.0
 43
0.0
 43
0.0
 43
0.0
 43
1.0
 77
     0
 47
0.0208333333333333
 47
0.0
 47
0.0
 47
0.0
 47
0.0
 47
0.0208333333333333
 47
0.0
 47
0.0
 47
0.0
 47
0.0
 47
1.0
 47
0.0
 47
0.0
 47
0.0
 47
0.0
 47
1.0
171
     0
 49
0.0208333333333333
 49
0.0
 49
0.0
 49
0.0
 49
0.0
 49
0.0208333333333333
 49
0.0
 49
0.0
 49
0.0
 49
0.0
 49
1.0
 49
0.0
 49
0.0
 49
0.0
 49
0.0
 49
1.0
175
     0
142
0.0208333333333333
142
0.0
142
0.0
142
0.0
142
0.0
142
0.0208333333333333
142
0.0
142
0.0
142
0.0
142
0.0
142
1.0
142
0.0
142
0.0
142
0.0
142
0.0
142
1.0
179
     0
144
0.0208333333333333
144
0.0
144
0.0
144
0.0
144
0.0
144
0.0208333333333333
144
0.0
144
0.0
144
0.0
144
0.0
144
1.0
144
0.0
144
0.0
144
0.0
144
0.0
144
1.0
147
0.0208333333333333
147
0.0
147
0.0
147
0.0
147
0.0
147
0.0208333333333333
147
0.0
147
0.0
147
0.0
147
0.0
147
1.0
147
0.0
147
0.0
147
0.0
147
0.0
147
1.0
  0
MATERIAL
  5
3730
102
{ACAD_XDICTIONARY
360
3731
102
}
102
{ACAD_REACTORS
330
372F
102
}
330
372F
100
AcDbMaterial
  1
ByLayer
 72
     0
 43
0.0208333333333333
 43
0.0
 43
0.0
 43
0.0
 43
0.0
 43
0.0208333333333333
 43
0.0
 43
0.0
 43
0.0
 43
0.0
 43
1.0
 43
0.0
 43
0.0
 43
0.0
 43
0.0
 43
1.0
 77
     0
 47
0.0208333333333333
 47
0.0
 47
0.0
 47
0.0
 47
0.0
 47
0.0208333333333333
 47
0.0
 47
0.0
 47
0.0
 47
0.0
 47
1.0
 47
0.0
 47
0.0
 47
0.0
 47
0.0
 47
1.0
171
     0
 49
0.0208333333333333
 49
0.0
 49
0.0
 49
0.0
 49
0.0
 49
0.0208333333333333
 49
0.0
 49
0.0
 49
0.0
 49
0.0
 49
1.0
 49
0.0
 49
0.0
 49
0.0
 49
0.0
 49
1.0
175
     0
142
0.0208333333333333
142
0.0
142
0.0
142
0.0
142
0.0
142
0.0208333333333333
142
0.0
142
0.0
142
0.0
142
0.0
142
1.0
142
0.0
142
0.0
142
0.0
142
0.0
142
1.0
179
     0
144
0.0208333333333333
144
0.0
144
0.0
144
0.0
144
0.0
144
0.0208333333333333
144
0.0
144
0.0
144
0.0
144
0.0
144
1.0
144
0.0
144
0.0
144
0.0
144
0.0
144
1.0
147
0.0208333333333333
147
0.0
147
0.0
147
0.0
147
0.0
147
0.0208333333333333
147
0.0
147
0.0
147
0.0
147
0.0
147
1.0
147
0.0
147
0.0
147
0.0
147
0.0
147
1.0
  0
MATERIAL
  5
3740
102
{ACAD_XDICTIONARY
360
3741
102
}
102
{ACAD_REACTORS
330
372F
102
}
330
372F
100
AcDbMaterial
  1
Global
 72
     0
 43
0.0208333333333333
 43
0.0
 43
0.0
 43
0.0
 43
0.0
 43
0.0208333333333333
 43
0.0
 43
0.0
 43
0.0
 43
0.0
 43
1.0
 43
0.0
 43
0.0
 43
0.0
 43
0.0
 43
1.0
 77
     0
 47
0.0208333333333333
 47
0.0
 47
0.0
 47
0.0
 47
0.0
 47
0.0208333333333333
 47
0.0
 47
0.0
 47
0.0
 47
0.0
 47
1.0
 47
0.0
 47
0.0
 47
0.0
 47
0.0
 47
1.0
171
     0
 49
0.0208333333333333
 49
0.0
 49
0.0
 49
0.0
 49
0.0
 49
0.0208333333333333
 49
0.0
 49
0.0
 49
0.0
 49
0.0
 49
1.0
 49
0.0
 49
0.0
 49
0.0
 49
0.0
 49
1.0
175
     0
142
0.0208333333333333
142
0.0
142
0.0
142
0.0
142
0.0
142
0.0208333333333333
142
0.0
142
0.0
142
0.0
142
0.0
142
1.0
142
0.0
142
0.0
142
0.0
142
0.0
142
1.0
179
     0
144
0.0208333333333333
144
0.0
144
0.0
144
0.0
144
0.0
144
0.0208333333333333
144
0.0
144
0.0
144
0.0
144
0.0
144
1.0
144
0.0
144
0.0
144
0.0
144
0.0
144
1.0
147
0.0208333333333333
147
0.0
147
0.0
147
0.0
147
0.0
147
0.0208333333333333
147
0.0
147
0.0
147
0.0
147
0.0
147
1.0
147
0.0
147
0.0
147
0.0
147
0.0
147
1.0
  0
MLEADERSTYLE
  5
376F
102
{ACAD_REACTORS
330
376E
102
}
330
376E
100
AcDbMLeaderStyle
170
     2
171
     1
172
     0
 90
        2
 40
0.0
 41
0.0
173
     1
 91
-1056964608
340
12
 92
       -2
290
     1
 42
2.0
291
     1
 43
0.36
  3
Standard
 44
4.0
300

342
10
174
     1
178
     6
175
     1
176
     0
 93
-1056964608
 45
4.0
292
     0
297
     0
 46
4.0
 94
-1056964608
 47
1.0
 49
1.0
140
1.0
293
     1
141
0.0
294
     1
177
     0
142
1.0
295
     0
296
     0
143
0.125
1001
ACAD_MLEADERVER
1070
     2
  0
MLINESTYLE
  5
1B
102
{ACAD_REACTORS
330
E
102
}
330
E
100
AcDbMlineStyle
  2
STANDARD
 70
     0
  3

 62
     0
 51
90.0
 52
90.0
 71
     2
 49
0.5
 62
   256
  6
BYLAYER
 49
-0.5
 62
   256
  6
BYLAYER
  0
ACDBPLACEHOLDER
  5
34DF
102
{ACAD_REACTORS
330
34DE
102
}
330
34DE
  0
SCALE
  5
375D
102
{ACAD_REACTORS
330
375C
102
}
330
375C
100
AcDbScale
 70
     0
300
1:1
140
1.0
141
1.0
290
     1
  0
SCALE
  5
375E
102
{ACAD_REACTORS
330
375C
102
}
330
375C
100
AcDbScale
 70
     0
300
1:2
140
1.0
141
2.0
290
     0
  0
SCALE
  5
375F
102
{ACAD_REACTORS
330
375C
102
}
330
375C
100
AcDbScale
 70
     0
300
1:4
140
1.0
141
4.0
290
     0
  0
SCALE
  5
3760
102
{ACAD_REACTORS
330
375C
102
}
330
375C
100
AcDbScale
 70
     0
300
1:5
140
1.0
141
5.0
290
     0
  0
SCALE
  5
3761
102
{ACAD_REACTORS
330
375C
102
}
330
375C
100
AcDbScale
 70
     0
300
1:8
140
1.0
141
8.0
290
     0
  0
SCALE
  5
3762
102
{ACAD_REACTORS
330
375C
102
}
330
375C
100
AcDbScale
 70
     0
300
1:10
140
1.0
141
10.0
290
     0
  0
SCALE
  5
3763
102
{ACAD_REACTORS
330
375C
102
}
330
375C
100
AcDbScale
 70
     0
300
1:16
140
1.0
141
16.0
290
     0
  0
SCALE
  5
3764
102
{ACAD_REACTORS
330
375C
102
}
330
375C
100
AcDbScale
 70
     0
300
1:20
140
1.0
141
20.0
290
     0
  0
SCALE
  5
3765
102
{ACAD_REACTORS
330
375C
102
}
330
375C
100
AcDbScale
 70
     0
300
1:30
140
1.0
141
30.0
290
     0
  0
SCALE
  5
3766
102
{ACAD_REACTORS
330
375C
102
}
330
375C
100
AcDbScale
 70
     0
300
1:40
140
1.0
141
40.0
290
     0
  0
SCALE
  5
3767
102
{ACAD_REACTORS
330
375C
102
}
330
375C
100
AcDbScale
 70
     0
300
1:50
140
1.0
141
50.0
290
     0
  0
SCALE
  5
3768
102
{ACAD_REACTORS
330
375C
102
}
330
375C
100
AcDbScale
 70
     0
300
1:100
140
1.0
141
100.0
290
     0
  0
SCALE
  5
3769
102
{ACAD_REACTORS
330
375C
102
}
330
375C
100
AcDbScale
 70
     0
300
2:1
140
2.0
141
1.0
290
     0
  0
SCALE
  5
376A
102
{ACAD_REACTORS
330
375C
102
}
330
375C
100
AcDbScale
 70
     0
300
4:1
140
4.0
141
1.0
290
     0
  0
SCALE
  5
376B
102
{ACAD_REACTORS
330
375C
102
}
330
375C
100
AcDbScale
 70
     0
300
8:1
140
8.0
141
1.0
290
     0
  0
SCALE
  5
376C
102
{ACAD_REACTORS
330
375C
102
}
330
375C
100
AcDbScale
 70
     0
300
10:1
140
10.0
141
1.0
290
     0
  0
SCALE
  5
376D
102
{ACAD_REACTORS
330
375C
102
}
330
375C
100
AcDbScale
 70
     0
300
100:1
140
100.0
141
1.0
290
     0
  0
TABLESTYLE
  5
375B
102
{ACAD_XDICTIONARY
360
37ED
102
}
102
{ACAD_REACTORS
330
375A
102
}
330
375A
100
AcDbTableStyle
  3
Standard
 70
     0
 71
     0
 40
1.5
 41
1.5
280
     0
281
     0
  7
STANDARD
140
4.5
170
     2
 62
     0
 63
     7
283
     0
274
    -2
284
     1
 64
     0
275
    -2
285
     1
 65
     0
276
    -2
286
     1
 66
     0
277
    -2
287
     1
 67
     0
278
    -2
288
     1
 68
     0
279
    -2
289
     1
 69
     0
  7
STANDARD
140
6.0
170
     5
 62
     0
 63
     7
283
     0
274
    -2
284
     1
 64
     0
275
    -2
285
     1
 65
     0
276
    -2
286
     1
 66
     0
277
    -2
287
     1
 67
     0
278
    -2
288
     1
 68
     0
279
    -2
289
     1
 69
     0
  7
STANDARD
140
4.5
170
     5
 62
     0
 63
     7
283
     0
274
    -2
284
     1
 64
     0
275
    -2
285
     1
 65
     0
276
    -2
286
     1
 66
     0
277
    -2
287
     1
 67
     0
278
    -2
288
     1
 68
     0
279
    -2
289
     1
 69
     0
  0
VISUALSTYLE
  5
374E
102
{ACAD_REACTORS
330
3748
102
}
330
3748
100
AcDbVisualStyle
  2
2dWireframe
 70
     4
 71
     0
 72
     2
 73
     0
 90
        0
 40
-0.6
 41
-30.0
 62
     5
 63
     7
 74
     1
 91
        4
 64
     7
 65
   257
 75
     1
175
     1
 42
1.0
 92
        0
 66
   257
 43
1.0
 76
     1
 77
     6
 78
     2
 67
     7
 79
     5
170
     0
171
     0
290
     0
174
     0
 93
        1
 44
0.0
173
     0
291
     0
 45
0.0
1001
ACAD
1000
AcDbSavedByObjectVersion
1070
     0
  0
VISUALSTYLE
  5
3750
102
{ACAD_REACTORS
330
3748
102
}
330
3748
100
AcDbVisualStyle
  2
3D Hidden
 70
     6
 71
     1
 72
     2
 73
     2
 90
        0
 40
-0.6
 41
-30.0
 62
     5
 63
     7
 74
     2
 91
        2
 64
     7
 65
   257
 75
     2
175
     1
 42
40.0
 92
        0
 66
   257
 43
1.0
 76
     1
 77
     6
 78
     2
 67
     7
 79
     3
170
     0
171
     0
290
     0
174
     0
 93
        1
 44
0.0
173
     0
291
     0
 45
0.0
1001
ACAD
1000
AcDbSavedByObjectVersion
1070
     0
  0
VISUALSTYLE
  5
374F
102
{ACAD_REACTORS
330
3748
102
}
330
3748
100
AcDbVisualStyle
  2
3dWireframe
 70
     5
 71
     0
 72
     2
 73
     0
 90
        0
 40
-0.6
 41
-30.0
 62
     5
 63
     7
 74
     1
 91
        4
 64
     7
 65
   257
 75
     1
175
     1
 42
1.0
 92
        0
 66
   257
 43
1.0
 76
     1
 77
     6
 78
     2
 67
     7
 79
     5
170
     0
171
     0
290
     0
174
     0
 93
        1
 44
0.0
173
     0
291
     0
 45
0.0
1001
ACAD
1000
AcDbSavedByObjectVersion
1070
     0
  0
VISUALSTYLE
  5
374D
102
{ACAD_REACTORS
330
3748
102
}
330
3748
100
AcDbVisualStyle
  2
Basic
 70
     7
 71
     1
 72
     0
 73
     1
 90
        0
 40
-0.6
 41
-30.0
 62
     5
 63
     7
 74
     0
 91
        4
 64
     7
 65
   257
 75
     1
175
     1
 42
1.0
 92
        8
 66
     7
 43
1.0
 76
     1
 77
     6
 78
     2
 67
     7
 79
     5
170
     0
171
     0
290
     0
174
     0
 93
        1
 44
0.0
173
     0
291
     1
 45
0.0
1001
ACAD
1000
AcDbSavedByObjectVersion
1070
     0
  0
VISUALSTYLE
  5
3754
102
{ACAD_REACTORS
330
3748
102
}
330
3748
100
AcDbVisualStyle
  2
Brighten
 70
    12
 71
     2
 72
     2
 73
     0
 90
        0
 40
-0.6
 41
-30.0
 62
     5
 63
     7
 74
     1
 91
        4
 64
     7
 65
   257
 75
     1
175
     1
 42
1.0
 92
        8
 66
     7
 43
1.0
 76
     1
 77
     6
 78
     2
 67
     7
 79
     5
170
     0
171
     0
290
     0
174
     0
 93
        1
 44
50.0
173
     0
291
     1
 45
0.0
1001
ACAD
1000
AcDbSavedByObjectVersion
1070
     0
  0
VISUALSTYLE
  5
3758
102
{ACAD_REACTORS
330
3748
102
}
330
3748
100
AcDbVisualStyle
  2
ColorChange
 70
    16
 71
     2
 72
     2
 73
     3
 90
        0
 40
-0.6
 41
-30.0
 62
     5
 63
     8
 74
     1
 91
        4
 64
     7
 65
   257
 75
     1
175
     1
 42
1.0
 92
        8
 66
     8
 43
1.0
 76
     1
 77
     6
 78
     2
 67
     7
 79
     5
170
     0
171
     0
290
     0
174
     0
 93
        1
 44
0.0
173
     0
291
     1
 45
0.0
1001
ACAD
1000
AcDbSavedByObjectVersion
1070
     0
  0
VISUALSTYLE
  5
3751
102
{ACAD_REACTORS
330
3748
102
}
330
3748
100
AcDbVisualStyle
  2
Conceptual
 70
     9
 71
     3
 72
     2
 73
     0
 90
        0
 40
-0.6
 41
-30.0
 62
     5
 63
     7
 74
     2
 91
        2
 64
     7
 65
   257
 75
     1
175
     1
 42
40.0
 92
        8
 66
     7
 43
1.0
 76
     1
 77
     6
 78
     2
 67
     7
 79
     3
170
     0
171
     0
290
     0
174
     0
 93
        1
 44
0.0
173
     0
291
     0
 45
0.0
1001
ACAD
1000
AcDbSavedByObjectVersion
1070
     0
  0
VISUALSTYLE
  5
3753
102
{ACAD_REACTORS
330
3748
102
}
330
3748
100
AcDbVisualStyle
  2
Dim
 70
    11
 71
     2
 72
     2
 73
     0
 90
        0
 40
-0.6
 41
-30.0
 62
     5
 63
     7
 74
     1
 91
        4
 64
     7
 65
   257
 75
     1
175
     1
 42
1.0
 92
        8
 66
     7
 43
1.0
 76
     1
 77
     6
 78
     2
 67
     7
 79
     5
170
     0
171
     0
290
     0
174
     0
 93
        1
 44
-50.0
173
     0
291
     1
 45
0.0
1001
ACAD
1000
AcDbSavedByObjectVersion
1070
     0
  0
VISUALSTYLE
  5
3757
102
{ACAD_REACTORS
330
3748
102
}
330
3748
100
AcDbVisualStyle
  2
Facepattern
 70
    15
 71
     2
 72
     2
 73
     0
 90
        0
 40
-0.6
 41
-30.0
 62
     5
 63
     7
 74
     1
 91
        4
 64
     7
 65
   257
 75
     1
175
     1
 42
1.0
 92
        8
 66
     7
 43
1.0
 76
     1
 77
     6
 78
     2
 67
     7
 79
     5
170
     0
171
     0
290
     0
174
     0
 93
        1
 44
0.0
173
     0
291
     1
 45
0.0
1001
ACAD
1000
AcDbSavedByObjectVersion
1070
     0
  0
VISUALSTYLE
  5
3749
102
{ACAD_REACTORS
330
3748
102
}
330
3748
100
AcDbVisualStyle
  2
Flat
 70
     0
 71
     2
 72
     1
 73
     1
 90
        2
 40
-0.6
 41
30.0
 62
     5
 63
     7
 74
     0
 91
        4
 64
     7
 65
   257
 75
     1
175
     1
 42
1.0
 92
        8
 66
     7
 43
1.0
 76
     1
 77
     6
 78
     2
 67
     7
 79
     5
170
     0
171
     0
290
     0
174
     0
 93
       13
 44
0.0
173
     0
291
     1
 45
0.0
1001
ACAD
1000
AcDbSavedByObjectVersion
1070
     0
  0
VISUALSTYLE
  5
374A
102
{ACAD_REACTORS
330
3748
102
}
330
3748
100
AcDbVisualStyle
  2
FlatWithEdges
 70
     1
 71
     2
 72
     1
 73
     1
 90
        2
 40
-0.6
 41
30.0
 62
     5
 63
     7
 74
     1
 91
        4
 64
     7
 65
   257
 75
     1
175
     1
 42
1.0
 92
        0
 66
   257
 43
1.0
 76
     1
 77
     6
 78
     2
 67
     7
 79
     5
170
     0
171
     0
290
     0
174
     0
 93
       13
 44
0.0
173
     0
291
     1
 45
0.0
1001
ACAD
1000
AcDbSavedByObjectVersion
1070
     0
  0
VISUALSTYLE
  5
374B
102
{ACAD_REACTORS
330
3748
102
}
330
3748
100
AcDbVisualStyle
  2
Gouraud
 70
     2
 71
     2
 72
     2
 73
     1
 90
        2
 40
-0.6
 41
30.0
 62
     5
 63
     7
 74
     0
 91
        4
 64
     7
 65
   257
 75
     1
175
     1
 42
1.0
 92
        0
 66
     7
 43
1.0
 76
     1
 77
     6
 78
     2
 67
     7
 79
     5
170
     0
171
     0
290
     0
174
     0
 93
       13
 44
0.0
173
     0
291
     1
 45
0.0
1001
ACAD
1000
AcDbSavedByObjectVersion
1070
     0
  0
VISUALSTYLE
  5
374C
102
{ACAD_REACTORS
330
3748
102
}
330
3748
100
AcDbVisualStyle
  2
GouraudWithEdges
 70
     3
 71
     2
 72
     2
 73
     1
 90
        2
 40
-0.6
 41
30.0
 62
     5
 63
     7
 74
     1
 91
        4
 64
     7
 65
   257
 75
     1
175
     1
 42
1.0
 92
        0
 66
   257
 43
1.0
 76
     1
 77
     6
 78
     2
 67
     7
 79
     5
170
     0
171
     0
290
     0
174
     0
 93
       13
 44
0.0
173
     0
291
     1
 45
0.0
1001
ACAD
1000
AcDbSavedByObjectVersion
1070
     0
  0
VISUALSTYLE
  5
3756
102
{ACAD_REACTORS
330
3748
102
}
330
3748
100
AcDbVisualStyle
  2
Linepattern
 70
    14
 71
     2
 72
     2
 73
     0
 90
        0
 40
-0.6
 41
-30.0
 62
     5
 63
     7
 74
     1
 91
        4
 64
     7
 65
   257
 75
     7
175
     7
 42
1.0
 92
        8
 66
     7
 43
1.0
 76
     1
 77
     6
 78
     2
 67
     7
 79
     5
170
     0
171
     0
290
     0
174
     0
 93
        1
 44
0.0
173
     0
291
     1
 45
0.0
1001
ACAD
1000
AcDbSavedByObjectVersion
1070
     0
  0
VISUALSTYLE
  5
3752
102
{ACAD_REACTORS
330
3748
102
}
330
3748
100
AcDbVisualStyle
  2
Realistic
 70
     8
 71
     2
 72
     2
 73
     0
 90
        0
 40
-0.6
 41
-30.0
 62
     5
 63
     7
 74
     1
 91
        0
 64
     7
 65
   257
 75
     1
175
     1
 42
1.0
 92
        8
 66
     8
 43
1.0
 76
     1
 77
     6
 78
     2
 67
     7
 79
     5
170
     0
171
     0
290
     0
174
     0
 93
       13
 44
0.0
173
     0
291
     0
 45
0.0
1001
ACAD
1000
AcDbSavedByObjectVersion
1070
     0
  0
VISUALSTYLE
  5
3755
102
{ACAD_REACTORS
330
3748
102
}
330
3748
100
AcDbVisualStyle
  2
Thicken
 70
    13
 71
     2
 72
     2
 73
     0
 90
        0
 40
-0.6
 41
-30.0
 62
     5
 63
     7
 74
     1
 91
        4
 64
     7
 65
   257
 75
     1
175
     1
 42
1.0
 92
       12
 66
     7
 43
1.0
 76
     1
 77
     6
 78
     2
 67
     7
 79
     5
170
     0
171
     0
290
     0
174
     0
 93
        1
 44
0.0
173
     0
291
     1
 45
0.0
1001
ACAD
1000
AcDbSavedByObjectVersion
1070
     0
  0
DICTIONARYVAR
  5
37F3
102
{ACAD_REACTORS
330
1A98
102
}
330
1A98
100
DictionaryVariables
280
     0
  1
1:1
  0
DICTIONARYVAR
  5
37F1
102
{ACAD_REACTORS
330
1A98
102
}
330
1A98
100
DictionaryVariables
280
     0
  1
STANDARD
  0
DICTIONARYVAR
  5
37F0
102
{ACAD_REACTORS
330
1A98
102
}
330
1A98
100
DictionaryVariables
280
     0
  1
STANDARD
  0
DICTIONARYVAR
  5
3810
102
{ACAD_REACTORS
330
1A98
102
}
330
1A98
100
DictionaryVariables
280
     0
  1
1
  0
DICTIONARYVAR
  5
3514
102
{ACAD_REACTORS
330
1A98
102
}
330
1A98
100
DictionaryVariables
280
     0
  1
0
  0
DICTIONARYVAR
  5
37F5
102
{ACAD_REACTORS
330
1A98
102
}
330
1A98
100
DictionaryVariables
280
     0
  1
1
  0
DICTIONARYVAR
  5
37F6
102
{ACAD_REACTORS
330
1A98
102
}
330
1A98
100
DictionaryVariables
280
     0
  1
15
  0
DICTIONARYVAR
  5
37F4
102
{ACAD_REACTORS
330
1A98
102
}
330
1A98
100
DictionaryVariables
280
     0
  1
0
  0
DICTIONARYVAR
  5
37F2
102
{ACAD_REACTORS
330
1A98
102
}
330
1A98
100
DictionaryVariables
280
     0
  1
0
  0
DICTIONARYVAR
  5
1A99
102
{ACAD_REACTORS
330
1A98
102
}
330
1A98
100
DictionaryVariables
280
     0
  1
96
  0
DICTIONARY
  5
352A
102
{ACAD_REACTORS
330
3525
102
}
330
3525
100
AcDbDictionary
281
     1
  0
XRECORD
  5
37CC
102
{ACAD_REACTORS
330
3525
102
}
330
3525
100
AcDbXrecord
280
     1
 90
-1023410169
  0
DICTIONARY
  5
3817
330
34E3
100
AcDbDictionary
280
     1
281
     1
  3
ACAD_XREC_ROUNDTRIP
360
3818
  0
DICTIONARY
  5
3815
330
34E2
100
AcDbDictionary
280
     1
281
     1
  3
ACAD_XREC_ROUNDTRIP
360
3816
  0
DICTIONARY
  5
3739
330
3738
100
AcDbDictionary
280
     1
281
     1
  3
ACAD_XREC_ROUNDTRIP
360
381A
  3
BUMPTILE
360
373B
  3
DIFFUSETILE
360
373A
  3
OPACITYTILE
360
373E
  3
REFLECTIONTILE
360
373D
  3
REFRACTIONTILE
360
373F
  3
SPECULARTILE
360
373C
  0
DICTIONARY
  5
3731
330
3730
100
AcDbDictionary
280
     1
281
     1
  3
ACAD_XREC_ROUNDTRIP
360
3819
  3
BUMPTILE
360
3733
  3
DIFFUSETILE
360
3732
  3
OPACITYTILE
360
3736
  3
REFLECTIONTILE
360
3735
  3
REFRACTIONTILE
360
3737
  3
SPECULARTILE
360
3734
  0
DICTIONARY
  5
3741
330
3740
100
AcDbDictionary
280
     1
281
     1
  3
ACAD_XREC_ROUNDTRIP
360
381B
  3
BUMPTILE
360
3743
  3
DIFFUSETILE
360
3742
  3
OPACITYTILE
360
3746
  3
REFLECTIONTILE
360
3745
  3
REFRACTIONTILE
360
3747
  3
SPECULARTILE
360
3744
  0
DICTIONARY
  5
37ED
330
375B
100
AcDbDictionary
280
     1
281
     1
  3
ACAD_ROUNDTRIP_2008_TABLESTYLE_CELLSTYLEMAP
360
3811
  3
ACAD_XREC_ROUNDTRIP
360
381C
  0
XRECORD
  5
3818
102
{ACAD_REACTORS
330
3817
102
}
330
3817
100
AcDbXrecord
280
     1
102
SHADEPLOT
 70
     0
102
SHADEPLOTRESLEVEL
 70
     2
102
SHADEPLOTCUSTOMDPI
 70
   300
  0
XRECORD
  5
3816
102
{ACAD_REACTORS
330
3815
102
}
330
3815
100
AcDbXrecord
280
     1
102
SHADEPLOT
 70
     0
102
SHADEPLOTRESLEVEL
 70
     2
102
SHADEPLOTCUSTOMDPI
 70
   300
  0
XRECORD
  5
381A
102
{ACAD_REACTORS
330
3739
102
}
330
3739
100
AcDbXrecord
280
     1
102
MATERIAL
148
0.0
149
0.0
149
0.0
 93
        0
 94
      127
282
     0
 72
     0
 77
     0
171
     0
175
     0
179
     0
273
     0
  0
XRECORD
  5
373B
102
{ACAD_REACTORS
330
3739
102
}
330
3739
100
AcDbXrecord
280
     1
270
     1
271
     1
  0
XRECORD
  5
373A
102
{ACAD_REACTORS
330
3739
102
}
330
3739
100
AcDbXrecord
280
     1
270
     1
271
     1
  0
XRECORD
  5
373E
102
{ACAD_REACTORS
330
3739
102
}
330
3739
100
AcDbXrecord
280
     1
270
     1
271
     1
  0
XRECORD
  5
373D
102
{ACAD_REACTORS
330
3739
102
}
330
3739
100
AcDbXrecord
280
     1
270
     1
271
     1
  0
XRECORD
  5
373F
102
{ACAD_REACTORS
330
3739
102
}
330
3739
100
AcDbXrecord
280
     1
270
     1
271
     1
  0
XRECORD
  5
373C
102
{ACAD_REACTORS
330
3739
102
}
330
3739
100
AcDbXrecord
280
     1
270
     1
271
     1
  0
XRECORD
  5
3819
102
{ACAD_REACTORS
330
3731
102
}
330
3731
100
AcDbXrecord
280
     1
102
MATERIAL
148
0.0
149
0.0
149
0.0
 93
        0
 94
      127
282
     0
 72
     0
 77
     0
171
     0
175
     0
179
     0
273
     0
  0
XRECORD
  5
3733
102
{ACAD_REACTORS
330
3731
102
}
330
3731
100
AcDbXrecord
280
     1
270
     1
271
     1
  0
XRECORD
  5
3732
102
{ACAD_REACTORS
330
3731
102
}
330
3731
100
AcDbXrecord
280
     1
270
     1
271
     1
  0
XRECORD
  5
3736
102
{ACAD_REACTORS
330
3731
102
}
330
3731
100
AcDbXrecord
280
     1
270
     1
271
     1
  0
XRECORD
  5
3735
102
{ACAD_REACTORS
330
3731
102
}
330
3731
100
AcDbXrecord
280
     1
270
     1
271
     1
  0
XRECORD
  5
3737
102
{ACAD_REACTORS
330
3731
102
}
330
3731
100
AcDbXrecord
280
     1
270
     1
271
     1
  0
XRECORD
  5
3734
102
{ACAD_REACTORS
330
3731
102
}
330
3731
100
AcDbXrecord
280
     1
270
     1
271
     1
  0
XRECORD
  5
381B
102
{ACAD_REACTORS
330
3741
102
}
330
3741
100
AcDbXrecord
280
     1
102
MATERIAL
148
0.0
149
0.0
149
0.0
 93
        0
 94
      127
282
     0
 72
     0
 77
     0
171
     0
175
     0
179
     0
273
     0
  0
XRECORD
  5
3743
102
{ACAD_REACTORS
330
3741
102
}
330
3741
100
AcDbXrecord
280
     1
270
     1
271
     1
  0
XRECORD
  5
3742
102
{ACAD_REACTORS
330
3741
102
}
330
3741
100
AcDbXrecord
280
     1
270
     1
271
     1
  0
XRECORD
  5
3746
102
{ACAD_REACTORS
330
3741
102
}
330
3741
100
AcDbXrecord
280
     1
270
     1
271
     1
  0
XRECORD
  5
3745
102
{ACAD_REACTORS
330
3741
102
}
330
3741
100
AcDbXrecord
280
     1
270
     1
271
     1
  0
XRECORD
  5
3747
102
{ACAD_REACTORS
330
3741
102
}
330
3741
100
AcDbXrecord
280
     1
270
     1
271
     1
  0
XRECORD
  5
3744
102
{ACAD_REACTORS
330
3741
102
}
330
3741
100
AcDbXrecord
280
     1
270
     1
271
     1
  0
CELLSTYLEMAP
  5
3811
102
{ACAD_REACTORS
330
37ED
102
}
330
37ED
100
AcDbCellStyleMap
 90
        3
300
CELLSTYLE
  1
TABLEFORMAT_BEGIN
 90
        5
170
     1
 91
        0
 92
    32768
 62
   257
 93
        1
300
CONTENTFORMAT
  1
CONTENTFORMAT_BEGIN
 90
        0
 91
        0
 92
      512
 93
        0
300

 40
0.0
140
1.0
 94
        5
 62
     0
340
10
144
6.0
309
CONTENTFORMAT_END
171
     1
301
MARGIN
  1
CELLMARGIN_BEGIN
 40
1.5
 40
1.5
 40
1.5
 40
1.5
 40
4.5
 40
4.5
309
CELLMARGIN_END
 94
        6
 95
        1
302
GRIDFORMAT
  1
GRIDFORMAT_BEGIN
 90
        0
 91
        1
 62
     0
 92
       -2
340
0
 93
        0
 40
1.125
309
GRIDFORMAT_END
 95
        2
302
GRIDFORMAT
  1
GRIDFORMAT_BEGIN
 90
        0
 91
        1
 62
     0
 92
       -2
340
0
 93
        0
 40
1.125
309
GRIDFORMAT_END
 95
        4
302
GRIDFORMAT
  1
GRIDFORMAT_BEGIN
 90
        0
 91
        1
 62
     0
 92
       -2
340
0
 93
        0
 40
1.125
309
GRIDFORMAT_END
 95
        8
302
GRIDFORMAT
  1
GRIDFORMAT_BEGIN
 90
        0
 91
        1
 62
     0
 92
       -2
340
0
 93
        0
 40
1.125
309
GRIDFORMAT_END
 95
       16
302
GRIDFORMAT
  1
GRIDFORMAT_BEGIN
 90
        0
 91
        1
 62
     0
 92
       -2
340
0
 93
        0
 40
1.125
309
GRIDFORMAT_END
 95
       32
302
GRIDFORMAT
  1
GRIDFORMAT_BEGIN
 90
        0
 91
        1
 62
     0
 92
       -2
340
0
 93
        0
 40
1.125
309
GRIDFORMAT_END
309
TABLEFORMAT_END
  1
CELLSTYLE_BEGIN
 90
        1
 91
        1
300
_TITLE
309
CELLSTYLE_END
300
CELLSTYLE
  1
TABLEFORMAT_BEGIN
 90
        5
170
     1
 91
        0
 92
        0
 62
   257
 93
        1
300
CONTENTFORMAT
  1
CONTENTFORMAT_BEGIN
 90
        0
 91
        0
 92
      512
 93
        0
300

 40
0.0
140
1.0
 94
        5
 62
     0
340
10
144
4.5
309
CONTENTFORMAT_END
171
     1
301
MARGIN
  1
CELLMARGIN_BEGIN
 40
1.5
 40
1.5
 40
1.5
 40
1.5
 40
4.5
 40
4.5
309
CELLMARGIN_END
 94
        6
 95
        1
302
GRIDFORMAT
  1
GRIDFORMAT_BEGIN
 90
        0
 91
        1
 62
     0
 92
       -2
340
0
 93
        0
 40
1.125
309
GRIDFORMAT_END
 95
        2
302
GRIDFORMAT
  1
GRIDFORMAT_BEGIN
 90
        0
 91
        1
 62
     0
 92
       -2
340
0
 93
        0
 40
1.125
309
GRIDFORMAT_END
 95
        4
302
GRIDFORMAT
  1
GRIDFORMAT_BEGIN
 90
        0
 91
        1
 62
     0
 92
       -2
340
0
 93
        0
 40
1.125
309
GRIDFORMAT_END
 95
        8
302
GRIDFORMAT
  1
GRIDFORMAT_BEGIN
 90
        0
 91
        1
 62
     0
 92
       -2
340
0
 93
        0
 40
1.125
309
GRIDFORMAT_END
 95
       16
302
GRIDFORMAT
  1
GRIDFORMAT_BEGIN
 90
        0
 91
        1
 62
     0
 92
       -2
340
0
 93
        0
 40
1.125
309
GRIDFORMAT_END
 95
       32
302
GRIDFORMAT
  1
GRIDFORMAT_BEGIN
 90
        0
 91
        1
 62
     0
 92
       -2
340
0
 93
        0
 40
1.125
309
GRIDFORMAT_END
309
TABLEFORMAT_END
  1
CELLSTYLE_BEGIN
 90
        2
 91
        1
300
_HEADER
309
CELLSTYLE_END
300
CELLSTYLE
  1
TABLEFORMAT_BEGIN
 90
        5
170
     1
 91
        0
 92
        0
 62
   257
 93
        1
300
CONTENTFORMAT
  1
CONTENTFORMAT_BEGIN
 90
        0
 91
        0
 92
      512
 93
        0
300

 40
0.0
140
1.0
 94
        2
 62
     0
340
10
144
4.5
309
CONTENTFORMAT_END
171
     1
301
MARGIN
  1
CELLMARGIN_BEGIN
 40
1.5
 40
1.5
 40
1.5
 40
1.5
 40
4.5
 40
4.5
309
CELLMARGIN_END
 94
        6
 95
        1
302
GRIDFORMAT
  1
GRIDFORMAT_BEGIN
 90
        0
 91
        1
 62
     0
 92
       -2
340
0
 93
        0
 40
1.125
309
GRIDFORMAT_END
 95
        2
302
GRIDFORMAT
  1
GRIDFORMAT_BEGIN
 90
        0
 91
        1
 62
     0
 92
       -2
340
0
 93
        0
 40
1.125
309
GRIDFORMAT_END
 95
        4
302
GRIDFORMAT
  1
GRIDFORMAT_BEGIN
 90
        0
 91
        1
 62
     0
 92
       -2
340
0
 93
        0
 40
1.125
309
GRIDFORMAT_END
 95
        8
302
GRIDFORMAT
  1
GRIDFORMAT_BEGIN
 90
        0
 91
        1
 62
     0
 92
       -2
340
0
 93
        0
 40
1.125
309
GRIDFORMAT_END
 95
       16
302
GRIDFORMAT
  1
GRIDFORMAT_BEGIN
 90
        0
 91
        1
 62
     0
 92
       -2
340
0
 93
        0
 40
1.125
309
GRIDFORMAT_END
 95
       32
302
GRIDFORMAT
  1
GRIDFORMAT_BEGIN
 90
        0
 91
        1
 62
     0
 92
       -2
340
0
 93
        0
 40
1.125
309
GRIDFORMAT_END
309
TABLEFORMAT_END
  1
CELLSTYLE_BEGIN
 90
        3
 91
        2
300
_DATA
309
CELLSTYLE_END
  0
XRECORD
  5
381C
102
{ACAD_REACTORS
330
37ED
102
}
330
37ED
100
AcDbXrecord
280
     1
102
ACAD_ROUNDTRIP_PRE2007_TABLESTYLE
 90
      512
 91
        0
  1

 92
      512
 93
        0
  2

 94
      512
 95
        0
  3

  0
ENDSEC
  0
EOF
