  0
SECTION
  2
HEADER
  9
$ACADVER
  1
AC1015
  9
$ACADMAINTVER
 70
    20
  9
$DWGCODEPAGE
  3
ANSI_1252
  9
$INSBASE
 10
0.0
 20
0.0
 30
0.0
  9
$EXTMIN
 10
-160.983516
 20
-280.2155773275707
 30
-0.00000001
  9
$EXTMAX
 10
229.8450019999936
 20
37.50000000000006
 30
0.00000001
  9
$LIMMIN
 10
0.0
 20
0.0
  9
$LIMMAX
 10
410.0
 20
287.0
  9
$ORTHOMODE
 70
     0
  9
$REGENMODE
 70
     1
  9
$FILLMODE
 70
     1
  9
$QTEXTMODE
 70
     0
  9
$MIRRTEXT
 70
     1
  9
$LTSCALE
 40
1.0
  9
$ATTMODE
 70
     1
  9
$TEXTSIZE
 40
3.5
  9
$TRACEWID
 40
0.05
  9
$TEXTSTYLE
  7
STANDARD
  9
$CLAYER
  8
0
  9
$CELTYPE
  6
BYLAYER
  9
$CECOLOR
 62
   256
  9
$CELTSCALE
 40
1.0
  9
$DISPSILH
 70
     0
  9
$DIMSCALE
 40
1.0
  9
$DIMASZ
 40
0.18
  9
$DIMEXO
 40
0.0625
  9
$DIMDLI
 40
0.38
  9
$DIMRND
 40
0.0
  9
$DIMDLE
 40
0.0
  9
$DIMEXE
 40
0.18
  9
$DIMTP
 40
0.0
  9
$DIMTM
 40
0.0
  9
$DIMTXT
 40
0.18
  9
$DIMCEN
 40
0.09
  9
$DIMTSZ
 40
0.0
  9
$DIMTOL
 70
     0
  9
$DIMLIM
 70
     0
  9
$DIMTIH
 70
     1
  9
$DIMTOH
 70
     1
  9
$DIMSE1
 70
     0
  9
$DIMSE2
 70
     0
  9
$DIMTAD
 70
     0
  9
$DIMZIN
 70
     0
  9
$DIMBLK
  1

  9
$DIMASO
 70
     1
  9
$DIMSHO
 70
     1
  9
$DIMPOST
  1

  9
$DIMAPOST
  1

  9
$DIMALT
 70
     0
  9
$DIMALTD
 70
     2
  9
$DIMALTF
 40
25.4
  9
$DIMLFAC
 40
1.0
  9
$DIMTOFL
 70
     0
  9
$DIMTVP
 40
0.0
  9
$DIMTIX
 70
     0
  9
$DIMSOXD
 70
     0
  9
$DIMSAH
 70
     0
  9
$DIMBLK1
  1

  9
$DIMBLK2
  1

  9
$DIMSTYLE
  2
STANDARD
  9
$DIMCLRD
 70
     0
  9
$DIMCLRE
 70
     0
  9
$DIMCLRT
 70
     0
  9
$DIMTFAC
 40
1.0
  9
$DIMGAP
 40
0.09
  9
$DIMJUST
 70
     0
  9
$DIMSD1
 70
     0
  9
$DIMSD2
 70
     0
  9
$DIMTOLJ
 70
     1
  9
$DIMTZIN
 70
     0
  9
$DIMALTZ
 70
     0
  9
$DIMALTTZ
 70
     0
  9
$DIMUPT
 70
     0
  9
$DIMDEC
 70
     4
  9
$DIMTDEC
 70
     4
  9
$DIMALTU
 70
     2
  9
$DIMALTTD
 70
     2
  9
$DIMTXSTY
  7
STANDARD
  9
$DIMAUNIT
 70
     0
  9
$DIMADEC
 70
     0
  9
$DIMALTRND
 40
0.0
  9
$DIMAZIN
 70
     0
  9
$DIMDSEP
 70
    46
  9
$DIMATFIT
 70
     3
  9
$DIMFRAC
 70
     0
  9
$DIMLDRBLK
  1

  9
$DIMLUNIT
 70
     2
  9
$DIMLWD
 70
    -2
  9
$DIMLWE
 70
    -2
  9
$DIMTMOVE
 70
     0
  9
$LUNITS
 70
     2
  9
$LUPREC
 70
     4
  9
$SKETCHINC
 40
0.1
  9
$FILLETRAD
 40
12.5
  9
$AUNITS
 70
     0
  9
$AUPREC
 70
     0
  9
$MENU
  1
acad
  9
$ELEVATION
 40
0.0
  9
$PELEVATION
 40
0.0
  9
$THICKNESS
 40
0.0
  9
$LIMCHECK
 70
     0
  9
$CHAMFERA
 40
12.5
  9
$CHAMFERB
 40
12.5
  9
$CHAMFERC
 40
0.0
  9
$CHAMFERD
 40
0.0
  9
$SKPOLY
 70
     0
  9
$TDCREATE
 40
2450848.675408912
  9
$TDUCREATE
 40
2450848.592075579
  9
$TDUPDATE
 40
2456226.382662338
  9
$TDUUPDATE
 40
2456226.299329005
  9
$TDINDWG
 40
0.0012015278
  9
$TDUSRTIMER
 40
0.0012015278
  9
$USRTIMER
 70
     1
  9
$ANGBASE
 50
0.0
  9
$ANGDIR
 70
     0
  9
$PDMODE
 70
     0
  9
$PDSIZE
 40
0.0
  9
$PLINEWID
 40
0.0
  9
$SPLFRAME
 70
     0
  9
$SPLINETYPE
 70
     6
  9
$SPLINESEGS
 70
     8
  9
$HANDSEED
  5
5AD
  9
$SURFTAB1
 70
     6
  9
$SURFTAB2
 70
     6
  9
$SURFTYPE
 70
     6
  9
$SURFU
 70
     6
  9
$SURFV
 70
     6
  9
$UCSBASE
  2

  9
$UCSNAME
  2

  9
$UCSORG
 10
0.0
 20
0.0
 30
0.0
  9
$UCSXDIR
 10
1.0
 20
0.0
 30
0.0
  9
$UCSYDIR
 10
0.0
 20
1.0
 30
0.0
  9
$UCSORTHOREF
  2

  9
$UCSORTHOVIEW
 70
     0
  9
$UCSORGTOP
 10
0.0
 20
0.0
 30
0.0
  9
$UCSORGBOTTOM
 10
0.0
 20
0.0
 30
0.0
  9
$UCSORGLEFT
 10
0.0
 20
0.0
 30
0.0
  9
$UCSORGRIGHT
 10
0.0
 20
0.0
 30
0.0
  9
$UCSORGFRONT
 10
0.0
 20
0.0
 30
0.0
  9
$UCSORGBACK
 10
0.0
 20
0.0
 30
0.0
  9
$PUCSBASE
  2

  9
$PUCSNAME
  2

  9
$PUCSORG
 10
0.0
 20
0.0
 30
0.0
  9
$PUCSXDIR
 10
1.0
 20
0.0
 30
0.0
  9
$PUCSYDIR
 10
0.0
 20
1.0
 30
0.0
  9
$PUCSORTHOREF
  2

  9
$PUCSORTHOVIEW
 70
     0
  9
$PUCSORGTOP
 10
0.0
 20
0.0
 30
0.0
  9
$PUCSORGBOTTOM
 10
0.0
 20
0.0
 30
0.0
  9
$PUCSORGLEFT
 10
0.0
 20
0.0
 30
0.0
  9
$PUCSORGRIGHT
 10
0.0
 20
0.0
 30
0.0
  9
$PUCSORGFRONT
 10
0.0
 20
0.0
 30
0.0
  9
$PUCSORGBACK
 10
0.0
 20
0.0
 30
0.0
  9
$USERI1
 70
     0
  9
$USERI2
 70
     0
  9
$USERI3
 70
     0
  9
$USERI4
 70
     0
  9
$USERI5
 70
     0
  9
$USERR1
 40
0.0
  9
$USERR2
 40
0.0
  9
$USERR3
 40
0.0
  9
$USERR4
 40
0.0
  9
$USERR5
 40
0.0
  9
$WORLDVIEW
 70
     1
  9
$SHADEDGE
 70
     3
  9
$SHADEDIF
 70
    70
  9
$TILEMODE
 70
     1
  9
$MAXACTVP
 70
    16
  9
$PINSBASE
 10
0.0
 20
0.0
 30
0.0
  9
$PLIMCHECK
 70
     0
  9
$PEXTMIN
 10
1.000000000000000E+20
 20
1.000000000000000E+20
 30
1.000000000000000E+20
  9
$PEXTMAX
 10
-1.000000000000000E+20
 20
-1.000000000000000E+20
 30
-1.000000000000000E+20
  9
$PLIMMIN
 10
0.0
 20
0.0
  9
$PLIMMAX
 10
12.0
 20
9.0
  9
$UNITMODE
 70
     0
  9
$VISRETAIN
 70
     0
  9
$PLINEGEN
 70
     0
  9
$PSLTSCALE
 70
     1
  9
$TREEDEPTH
 70
  3020
  9
$CMLSTYLE
  2
STANDARD
  9
$CMLJUST
 70
     0
  9
$CMLSCALE
 40
1.0
  9
$PROXYGRAPHICS
 70
     1
  9
$MEASUREMENT
 70
     1
  9
$CELWEIGHT
370
    -1
  9
$ENDCAPS
280
     0
  9
$JOINSTYLE
280
     0
  9
$LWDISPLAY
290
     0
  9
$INSUNITS
 70
     4
  9
$HYPERLINKBASE
  1

  9
$STYLESHEET
  1

  9
$XEDIT
290
     1
  9
$CEPSNTYPE
380
     0
  9
$PSTYLEMODE
290
     1
  9
$FINGERPRINTGUID
  2
{05E76357-A34C-4787-A9F4-C691ED547AA3}
  9
$VERSIONGUID
  2
{DDD791AA-BE44-4B39-BC2C-86F9F9E87055}
  9
$EXTNAMES
290
     1
  9
$PSVPSCALE
 40
0.0
  9
$OLESTARTUP
290
     0
  0
ENDSEC
  0
SECTION
  2
CLASSES
  0
CLASS
  1
ACDBDICTIONARYWDFLT
  2
AcDbDictionaryWithDefault
  3
ObjectDBX Classes
 90
        0
280
     0
281
     0
  0
CLASS
  1
MATERIAL
  2
AcDbMaterial
  3
ObjectDBX Classes
 90
     1153
280
     0
281
     0
  0
CLASS
  1
VISUALSTYLE
  2
AcDbVisualStyle
  3
ObjectDBX Classes
 90
     4095
280
     0
281
     0
  0
CLASS
  1
TABLESTYLE
  2
AcDbTableStyle
  3
ObjectDBX Classes
 90
     4095
280
     0
281
     0
  0
CLASS
  1
SCALE
  2
AcDbScale
  3
ObjectDBX Classes
 90
     1153
280
     0
281
     0
  0
CLASS
  1
MLEADERSTYLE
  2
AcDbMLeaderStyle
  3
ACDB_MLEADERSTYLE_CLASS
 90
     4095
280
     0
281
     0
  0
CLASS
  1
ACME_DOCUMENT
  2
AcMeDbDoc
  3
AcMeServices
 90
     1024
280
     0
281
     0
  0
CLASS
  1
AMGSETTINGSOBJ
  2
AmgSettingsObj
  3
"AcadM|Product Description: AutoCAD Mechanical|Company: Autodesk, Inc."
 90
     1024
280
     0
281
     0
  0
CLASS
  1
ACMESCOPE
  2
AcMeScope
  3
AcMeServices
 90
     1024
280
     0
281
     0
  0
CLASS
  1
ACMECOMMANDHISTORY
  2
AcMeCommandHistory
  3
AcMeServices
 90
     1024
280
     0
281
     0
  0
CLASS
  1
ACIMSYSVARMAN
  2
AcImSysVarManager
  3
AcMeServices
 90
     1024
280
     0
281
     0
  0
CLASS
  1
ACIMINTSYSVAR
  2
AcImIntSysVar
  3
AcMeServices
 90
     1024
280
     0
281
     0
  0
CLASS
  1
ACMEDRAWINGMAN
  2
AcMeDrawingMan
  3
AcMeServices
 90
     1024
280
     0
281
     0
  0
CLASS
  1
ACMEVIEW
  2
AcMeView
  3
AcMeServices
 90
     1024
280
     0
281
     0
  0
CLASS
  1
ACDBENTITYCACHE
  2
AcMeEntityCache
  3
AcMeServices
 90
     1024
280
     0
281
     0
  0
CLASS
  1
GSMANAGER
  2
AcMeGSManager
  3
AcMeServices
 90
     1024
280
     0
281
     0
  0
CLASS
  1
AMDTINTERNALREACTOR
  2
AmdtInternalReactor
  3
AcMeServices
 90
     1024
280
     0
281
     0
  0
CLASS
  1
ACMESTATEMGR
  2
AcMeStateMgr
  3
AcMeServices
 90
     1024
280
     0
281
     0
  0
CLASS
  1
ACGREFMASTER
  2
AcGrefMaster
  3
AcAttribServices
 90
     1024
280
     0
281
     0
  0
CLASS
  1
AM_DRAWING_MGR
  2
AcDmDwgMgr
  3
AcMechDwgViewMgmt
 90
     1024
280
     0
281
     0
  0
CLASS
  1
AM_DWG_DOCUMENT
  2
AcDmDwgDocument
  3
AcMechDwgViewMgmt
 90
     1024
280
     0
281
     0
  0
CLASS
  1
AM_DWG_SHEET
  2
AcDmSheet
  3
AcMechDwgViewMgmt
 90
     1024
280
     0
281
     0
  0
CLASS
  1
AM_VIEWDIMPARMAP
  2
AcDmViewDimParMap
  3
AcMechDwgViewMgmt
 90
     1024
280
     0
281
     0
  0
CLASS
  1
ACIMREALSYSVAR
  2
AcImRealSysVar
  3
AcMeServices
 90
     1024
280
     0
281
     0
  0
CLASS
  1
AM_DWGMGR_NAME
  2
AcDmDwgMgrName
  3
AcMechDwgViewMgmt
 90
     1024
280
     0
281
     0
  0
CLASS
  1
ACME_DATABASE
  2
AcMeDbDatabase
  3
AcMeServices
 90
     1024
280
     0
281
     0
  0
CLASS
  1
ACRFINSADJUSTERMGR
  2
AcRfInsAdjusterMgr
  3
AcMeServices
 90
     1024
280
     0
281
     0
  0
CLASS
  1
ACGREFACADMASTER
  2
AcGrefacadMaster
  3
AcGrefServices
 90
     1024
280
     0
281
     0
  0
CLASS
  1
AMDTMENUSTATEMGR
  2
AmdtMenuStateMgr
  3
McadcomServices
 90
     1024
280
     0
281
     0
  0
CLASS
  1
AMDTMCOMMENUSTATE
  2
AmdtMcomMenuState
  3
McadcomServices
 90
     1024
280
     0
281
     0
  0
CLASS
  1
AMIMASTER
  2
AmiMaster
  3
AmiServices
 90
     1024
280
     0
281
     0
  0
CLASS
  1
MAPIAMMOUDLE
  2
MApiAmModule
  3
MApiAmServices
 90
     1024
280
     0
281
     0
  0
CLASS
  1
ACIMSTRSYSVAR
  2
AcImStrSysVar
  3
AcMeServices
 90
     1024
280
     0
281
     0
  0
CLASS
  1
AMDTADMENUSTATE
  2
AmdtAdMenuState
  3
DesignerServices
 90
     1024
280
     0
281
     0
  0
CLASS
  1
ADAPPL
  2
AcAdAppl
  3
DesignerServices
 90
     1024
280
     0
281
     0
  0
CLASS
  1
DEPMGR
  2
AcAdDepMgr
  3
DesignerServices
 90
     1024
280
     0
281
     0
  0
CLASS
  1
PARAMMGR
  2
AcAdParamMgr
  3
DesignerServices
 90
     1024
280
     0
281
     0
  0
CLASS
  1
PARAMSCOPE
  2
AcAdParamScope
  3
DesignerServices
 90
     1024
280
     0
281
     0
  0
CLASS
  1
NAMEDAPPL
  2
AcAdNamedAppl
  3
DesignerServices
 90
     1024
280
     0
281
     0
  0
CLASS
  1
AMDTDMMENUSTATE
  2
AmdtDmMenuState
  3
AcMechDwgViewMgmt
 90
     1024
280
     0
281
     0
  0
CLASS
  1
AMDTAMMENUSTATE
  2
AmdtAmMenuState
  3
DesignerAssemblies
 90
     1024
280
     0
281
     0
  0
CLASS
  1
ACAMPROJECT
  2
AcAmProject
  3
DesignerAssemblies
 90
     1024
280
     0
281
     0
  0
CLASS
  1
ACAMGRCOMPDEF
  2
AcAmGrCompDef
  3
DesignerAssemblies
 90
     1024
280
     0
281
     0
  0
CLASS
  1
ACCMCONTEXT
  2
AcCmContext
  3
DesignerAssemblies
 90
     1024
280
     0
281
     0
  0
CLASS
  1
ACAMCOMPDEF
  2
AcAmCompDef
  3
DesignerAssemblies
 90
     1024
280
     0
281
     0
  0
CLASS
  1
ACAMCOMPDEFMGR
  2
AcAmCompDefMgr
  3
DesignerAssemblies
 90
     1024
280
     0
281
     0
  0
CLASS
  1
AMCONTEXTMGR
  2
AcAmContextMgr
  3
DesignerAssemblies
 90
     1024
280
     0
281
     0
  0
CLASS
  1
ACAMCONTEXTMODELER
  2
AcAmContextModeler
  3
DesignerAssemblies
 90
     1024
280
     0
281
     0
  0
CLASS
  1
ACMDATADICTIONARY
  2
AcmDataDictionary
  3
"AcmSymBB|Product Description: AutoCAD Mechanical|Company: Autodesk, Inc."
 90
     1024
280
     0
281
     0
  0
CLASS
  1
CATALOGSTATE
  2
AcAmCatalogState
  3
DesignerAssemblies
 90
     1024
280
     0
281
     0
  0
CLASS
  1
ACAMGRCOMPDEFSET
  2
AcAmGrCompDefSet
  3
DesignerAssemblies
 90
     1024
280
     0
281
     0
  0
CLASS
  1
AMDTBROWSERDBTAB
  2
AmdtBrowserDbTab
  3
McadcomServices
 90
     1024
280
     0
281
     0
  0
CLASS
  1
CBROWSERAPPOBJECT
  2
CBrowserAppObject
  3
McadcomServices
 90
     1024
280
     0
281
     0
  0
CLASS
  1
DM_PLACEHOLDER
  2
AcDmSelsetPlaceholder
  3
AcMechDwgViewMgmt
 90
     1024
280
     0
281
     0
  0
CLASS
  1
ACMSTANDARDANSI
  2
AcmStandardANSI
  3
"Amdt_StdImp|Product Description: AutoCAD Mechanical|Company: Autodesk, Inc."
 90
     1024
280
     0
281
     0
  0
CLASS
  1
ACMSURFSTANDARDANSI
  2
AcmSurfTextStdANSI
  3
"Amdt_StdImp|Product Description: AutoCAD Mechanical|Company: Autodesk, Inc."
 90
     1024
280
     0
281
     0
  0
CLASS
  1
ACMFCFSTANDARDANSI
  2
AcmFCFStdANSI
  3
"Amdt_StdImp|Product Description: AutoCAD Mechanical|Company: Autodesk, Inc."
 90
     1024
280
     0
281
     0
  0
CLASS
  1
ACMWELDSTANDARDANSI
  2
AcmWeldingStdANSI
  3
"Amdt_StdImp|Product Description: AutoCAD Mechanical|Company: Autodesk, Inc."
 90
     1024
280
     0
281
     0
  0
CLASS
  1
ACMIDSTANDARDANSI
  2
AcmIdStdANSI
  3
"Amdt_StdImp|Product Description: AutoCAD Mechanical|Company: Autodesk, Inc."
 90
     1024
280
     0
281
     0
  0
CLASS
  1
ACMDATUMSTANDARDANSI
  2
AcmDatumStdANSI
  3
"Amdt_StdImp|Product Description: AutoCAD Mechanical|Company: Autodesk, Inc."
 90
     1024
280
     0
281
     0
  0
CLASS
  1
ACMBOMSTANDARDANSI
  2
AcmBOMStdANSI
  3
"Amdt_StdImp|Product Description: AutoCAD Mechanical|Company: Autodesk, Inc."
 90
     1024
280
     0
281
     0
  0
CLASS
  1
ACMDETAILSTANDARDANSI
  2
AmdtDetailSymStdANSI
  3
"Amdt_StdImp|Product Description: AutoCAD Mechanical|Company: Autodesk, Inc."
 90
     1024
280
     0
281
     0
  0
CLASS
  1
ACMSECTIONSTANDARDANSI
  2
AmdtSectionSymStdANSI
  3
"Amdt_StdImp|Product Description: AutoCAD Mechanical|Company: Autodesk, Inc."
 90
     1024
280
     0
281
     0
  0
CLASS
  1
ACMCENTERLINESTANDARDANSI
  2
AmdtCenterLineStdANSI
  3
"Amdt_StdImp|Product Description: AutoCAD Mechanical|Company: Autodesk, Inc."
 90
     1024
280
     0
281
     0
  0
CLASS
  1
ACMTHREADLINESTANDARDANSI
  2
AmdtThreadLineStdANSI
  3
"Amdt_StdImp|Product Description: AutoCAD Mechanical|Company: Autodesk, Inc."
 90
     1024
280
     0
281
     0
  0
CLASS
  1
ACMNOTESTANDARDANSI
  2
AmdtNoteStdANSI
  3
"Amdt_StdImp|Product Description: AutoCAD Mechanical|Company: Autodesk, Inc."
 90
     1024
280
     0
281
     0
  0
CLASS
  1
ACMTAPERSTANDARDANSI
  2
AcmTaperStdANSI
  3
"Amdt_StdImp|Product Description: AutoCAD Mechanical|Company: Autodesk, Inc."
 90
     1024
280
     0
281
     0
  0
CLASS
  1
ACMANOOTATIONVIEWSTANDARDANSI
  2
AmdtAnViewStdANSI
  3
"Amdt_StdImp|Product Description: AutoCAD Mechanical|Company: Autodesk, Inc."
 90
     1024
280
     0
281
     0
  0
CLASS
  1
ACAMGLAYSTD
  2
AcAmgLayStd
  3
"AmgLay|Product Description: AutoCAD Mechanical|Company: Autodesk, Inc."
 90
     1024
280
     0
281
     0
  0
CLASS
  1
ACAMGDIMSTD
  2
AcAmgDimStd
  3
"AmgDim|Product Description: AutoCAD Mechanical|Company: Autodesk, Inc."
 90
     1024
280
     0
281
     0
  0
CLASS
  1
AMGOBJPROPCFG
  2
AmgObjPropCfg
  3
"AmgLay|Product Description: AutoCAD Mechanical|Company: Autodesk, Inc."
 90
     1025
280
     0
281
     0
  0
CLASS
  1
ACAMGHOLECHARTSTDANSI
  2
AcAmgHoleChartStdANSI
  3
AmgDim|Product Description: AutoCAD Mechanical|Company: Autodesk, Inc.
 90
     1024
280
     0
281
     0
  0
CLASS
  1
ACAMGTITLESTD
  2
AcAmgTitleStd
  3
"AmgTitle|Product Description: AutoCAD Mechanical|Company: Autodesk, Inc."
 90
     4095
280
     0
281
     0
  0
CLASS
  1
AMDTNOTETEMPLATEDB
  2
AmdtNoteTemplateDB
  3
AcmSymBB|Product Description: AutoCAD Mechanical|Company: Autodesk, Inc.
 90
     1024
280
     0
281
     0
  0
CLASS
  1
ACAMGFILTERDAT
  2
AcAmgFilterDat
  3
"AcadM|Product Description: AutoCAD Mechanical|Company: Autodesk, Inc."
 90
     1024
280
     0
281
     0
  0
CLASS
  1
DICTIONARYVAR
  2
AcDbDictionaryVar
  3
ObjectDBX Classes
 90
        0
280
     0
281
     0
  0
CLASS
  1
CELLSTYLEMAP
  2
AcDbCellStyleMap
  3
ObjectDBX Classes
 90
     1152
280
     0
281
     0
  0
CLASS
  1
ACDBPLACEHOLDER
  2
AcDbPlaceHolder
  3
ObjectDBX Classes
 90
        0
280
     0
281
     0
  0
CLASS
  1
LAYOUT
  2
AcDbLayout
  3
ObjectDBX Classes
 90
        0
280
     0
281
     0
  0
ENDSEC
  0
SECTION
  2
TABLES
  0
TABLE
  2
VPORT
  5
8
330
0
100
AcDbSymbolTable
 70
     1
  0
VPORT
  5
48C
330
8
100
AcDbSymbolTableRecord
100
AcDbViewportTableRecord
  2
*ACTIVE
 70
     0
 10
0.0
 20
0.0
 11
1.0
 21
1.0
 12
99.03491248488393
 22
-109.9921199688241
 13
0.0
 23
0.0
 14
5.0
 24
5.0
 15
50.0
 25
50.0
 16
0.0
 26
0.0
 36
1.0
 17
0.0
 27
0.0
 37
0.0
 40
419.8758090493858
 41
1.548186528497409
 42
50.0
 43
0.0
 44
0.0
 50
0.0
 51
0.0
 71
     0
 72
   100
 73
     1
 74
     0
 75
     0
 76
     0
 77
     0
 78
     0
281
     0
 65
     1
110
0.0
120
0.0
130
0.0
111
1.0
121
0.0
131
0.0
112
0.0
122
1.0
132
0.0
 79
     0
146
0.0
  0
ENDTAB
  0
TABLE
  2
LTYPE
  5
5
330
0
100
AcDbSymbolTable
 70
    22
  0
LTYPE
  5
14
330
5
100
AcDbSymbolTableRecord
100
AcDbLinetypeTableRecord
  2
BYBLOCK
 70
     0
  3

 72
    65
 73
     0
 40
0.0
  0
LTYPE
  5
15
330
5
100
AcDbSymbolTableRecord
100
AcDbLinetypeTableRecord
  2
BYLAYER
 70
     0
  3

 72
    65
 73
     0
 40
0.0
  0
LTYPE
  5
16
330
5
100
AcDbSymbolTableRecord
100
AcDbLinetypeTableRecord
  2
CONTINUOUS
 70
     0
  3
Solid line
 72
    65
 73
     0
 40
0.0
  0
LTYPE
  5
BA
330
5
100
AcDbSymbolTableRecord
100
AcDbLinetypeTableRecord
  2
GEN7
 70
     0
  3
____ . ____ . ____ . ____ . ____ . ____ . ____
 72
    65
 73
     4
 40
13.75
 49
10.0
 74
     0
 49
-1.25
 74
     0
 49
1.25
 74
     0
 49
-1.25
 74
     0
  0
LTYPE
  5
BB
330
5
100
AcDbSymbolTableRecord
100
AcDbLinetypeTableRecord
  2
GEN3
 70
     0
  3
-- -- -- -- -- -- -- -- -- -- -- -- -- -- --
 72
    65
 73
     2
 40
6.25
 49
5.0
 74
     0
 49
-1.25
 74
     0
  0
LTYPE
  5
BC
330
5
100
AcDbSymbolTableRecord
100
AcDbLinetypeTableRecord
  2
GEN4A
 70
     0
  3
_____ . . _____ . . _____ . . ____ .. ____
 72
    65
 73
     6
 40
16.25
 49
10.0
 74
     0
 49
-1.25
 74
     0
 49
1.25
 74
     0
 49
-1.25
 74
     0
 49
1.25
 74
     0
 49
-1.25
 74
     0
  0
LTYPE
  5
BD
330
5
100
AcDbSymbolTableRecord
100
AcDbLinetypeTableRecord
  2
GEN7A
 70
     0
  3
__ . __ . __
 72
    65
 73
     4
 40
6.875
 49
5.0
 74
     0
 49
-0.625
 74
     0
 49
0.625
 74
     0
 49
-0.625
 74
     0
  0
LTYPE
  5
51B
330
5
100
AcDbSymbolTableRecord
100
AcDbLinetypeTableRecord
  2
HIDDEN
 70
     0
  3
Verdeckt
 72
    65
 73
     2
 40
0.375
 49
0.25
 74
     0
 49
-0.125
 74
     0
  0
LTYPE
  5
51C
330
5
100
AcDbSymbolTableRecord
100
AcDbLinetypeTableRecord
  2
PHANTOM2
 70
     0
  3
Phantom (.5x) ___ _ _ ___ _ _ ___ _ _ ___ _ _
 72
    65
 73
     6
 40
1.25
 49
0.625
 74
     0
 49
-0.125
 74
     0
 49
0.125
 74
     0
 49
-0.125
 74
     0
 49
0.125
 74
     0
 49
-0.125
 74
     0
  0
LTYPE
  5
51D
330
5
100
AcDbSymbolTableRecord
100
AcDbLinetypeTableRecord
  2
CENTER
 70
     0
  3
Mitte ____ _ ____ _ ____ _ ____ _ ____ _ ____
 72
    65
 73
     4
 40
2.0
 49
1.25
 74
     0
 49
-0.25
 74
     0
 49
0.25
 74
     0
 49
-0.25
 74
     0
  0
LTYPE
  5
562
330
5
100
AcDbSymbolTableRecord
100
AcDbLinetypeTableRecord
  2
AM_ISO02W050
 70
     0
  3
__ __ __ __ __ __ __ __ __ __ __ __ __ __ __
 72
    65
 73
     2
 40
7.5
 49
6.0
 74
     0
 49
-1.5
 74
     0
  0
LTYPE
  5
563
330
5
100
AcDbSymbolTableRecord
100
AcDbLinetypeTableRecord
  2
AM_ISO08W050
 70
     0
  3
____ . ____ . ____ . ____ . ____ . ____ . ____
 72
    65
 73
     4
 40
18.0
 49
12.0
 74
     0
 49
-1.5
 74
     0
 49
3.0
 74
     0
 49
-1.5
 74
     0
  0
LTYPE
  5
564
330
5
100
AcDbSymbolTableRecord
100
AcDbLinetypeTableRecord
  2
AM_ISO09W050
 70
     0
  3
_____ . . _____ . . _____ . . ____ .. ____
 72
    65
 73
     6
 40
22.5
 49
12.0
 74
     0
 49
-1.5
 74
     0
 49
3.0
 74
     0
 49
-1.5
 74
     0
 49
3.0
 74
     0
 49
-1.5
 74
     0
  0
LTYPE
  5
565
330
5
100
AcDbSymbolTableRecord
100
AcDbLinetypeTableRecord
  2
Amconstr
 70
     0
  3
_______________________
 72
    65
 73
     2
 40
9999.0
 49
9999.0
 74
     0
 49
0.0
 74
     0
  0
LTYPE
  5
566
330
5
100
AcDbSymbolTableRecord
100
AcDbLinetypeTableRecord
  2
AM_ISO08W050x2
 70
     0
  3
__ . __ . __ . __ . __ . __
 72
    65
 73
     4
 40
9.0
 49
6.0
 74
     0
 49
-0.75
 74
     0
 49
1.5
 74
     0
 49
-0.75
 74
     0
  0
LTYPE
  5
567
330
5
100
AcDbSymbolTableRecord
100
AcDbLinetypeTableRecord
  2
AM_ISO02W050x2
 70
     0
  3
 _ _ _ _ _ _ _ _ _ _ _ _
 72
    65
 73
     2
 40
3.75
 49
3.0
 74
     0
 49
-0.75
 74
     0
  0
LTYPE
  5
56A
330
5
100
AcDbSymbolTableRecord
100
AcDbLinetypeTableRecord
  2
Amzigzag
 70
     0
  3
/\/-/\/-/\/-/\/-/\/-/\/
 72
    65
 73
     2
 40
11.0001
 49
0.0001
 74
     4
 75
   136
340
569
 46
0.04
 50
0.0
 44
0.0
 45
0.0
 49
-11.0
 74
     0
  0
LTYPE
  5
56B
330
5
100
AcDbSymbolTableRecord
100
AcDbLinetypeTableRecord
  2
CENTER2
 70
     0
  3
Center (.5x) ___ _ ___ _ ___ _ ___ _ ___ _ ___
 72
    65
 73
     4
 40
1.125
 49
0.75
 74
     0
 49
-0.125
 74
     0
 49
0.125
 74
     0
 49
-0.125
 74
     0
  0
LTYPE
  5
56C
330
5
100
AcDbSymbolTableRecord
100
AcDbLinetypeTableRecord
  2
HIDDEN2
 70
     0
  3
Hidden (.5x) _ _ _ _ _ _ _ _ _ _ _ _ _ _ _ _ _
 72
    65
 73
     2
 40
0.1875
 49
0.125
 74
     0
 49
-0.0625
 74
     0
  0
LTYPE
  5
56D
330
5
100
AcDbSymbolTableRecord
100
AcDbLinetypeTableRecord
  2
Amzigzag2
 70
     0
  3
/\/-/\/-/\/-/\/-/\/-/\/
 72
    65
 73
     2
 40
0.4401
 49
0.0001
 74
     4
 75
   136
340
569
 46
0.0016
 50
0.0
 44
0.0
 45
0.0
 49
-0.4400000000000001
 74
     0
  0
LTYPE
  5
57B
330
5
100
AcDbSymbolTableRecord
100
AcDbLinetypeTableRecord
  2
ACANSTGBM
 70
     0
  3
__ . . __ . .
 72
    65
 73
     6
 40
9.0
 49
4.0
 74
     0
 49
-1.0
 74
     0
 49
1.0
 74
     0
 49
-1.0
 74
     0
 49
1.0
 74
     0
 49
-1.0
 74
     0
  0
LTYPE
  5
57C
330
5
100
AcDbSymbolTableRecord
100
AcDbLinetypeTableRecord
  2
ACANSTGLM
 70
     0
  3
_ _ _ _ _
 72
    65
 73
     2
 40
3.0
 49
2.0
 74
     0
 49
-1.0
 74
     0
  0
LTYPE
  5
58A
330
5
100
AcDbSymbolTableRecord
100
AcDbLinetypeTableRecord
  2
gen3a
 70
     0
  3
 - - - - -
 72
    65
 73
     2
 40
3.125
 49
2.25
 74
     0
 49
-0.875
 74
     0
  0
LTYPE
  5
58B
330
5
100
AcDbSymbolTableRecord
100
AcDbLinetypeTableRecord
  2
genzigzag
 70
     0
  3
/\/-/\/-/\/-/\/-/\/-/\/
 72
    65
 73
     2
 40
12.0001
 49
0.0001
 74
     4
 75
   135
340
569
 46
2.0
 50
0.0
 44
0.0
 45
0.0
 49
-12.0
 74
     0
  0
ENDTAB
  0
TABLE
  2
LAYER
  5
2
330
0
100
AcDbSymbolTable
 70
    16
  0
LAYER
  5
F
330
2
100
AcDbSymbolTableRecord
100
AcDbLayerTableRecord
  2
0
 70
     0
 62
     7
  6
CONTINUOUS
370
    -3
390
48F
  0
LAYER
  5
BE
330
2
100
AcDbSymbolTableRecord
100
AcDbLayerTableRecord
  2
MSR_4-0
 70
     0
 62
     7
  6
CONTINUOUS
370
    -3
390
48F
  0
LAYER
  5
BF
330
2
100
AcDbSymbolTableRecord
100
AcDbLayerTableRecord
  2
MSR_4-2
 70
     0
 62
     5
  6
CONTINUOUS
370
    -3
390
48F
  0
LAYER
  5
C0
330
2
100
AcDbSymbolTableRecord
100
AcDbLayerTableRecord
  2
MSR_4-7
 70
     0
 62
     4
  6
GEN7
370
    -3
390
48F
  0
LAYER
  5
C1
330
2
100
AcDbSymbolTableRecord
100
AcDbLayerTableRecord
  2
MSR_4-3
 70
     0
 62
     6
  6
GEN3
370
    -3
390
48F
  0
LAYER
  5
C2
330
2
100
AcDbSymbolTableRecord
100
AcDbLayerTableRecord
  2
MSR_4-4
 70
     0
 62
     3
  6
CONTINUOUS
370
    -3
390
48F
  0
LAYER
  5
C3
330
2
100
AcDbSymbolTableRecord
100
AcDbLayerTableRecord
  2
MSR_4-8
 70
     0
 62
     1
  6
CONTINUOUS
370
    -3
390
48F
  0
LAYER
  5
C4
330
2
100
AcDbSymbolTableRecord
100
AcDbLayerTableRecord
  2
MSR_4-4A
 70
     0
 62
     3
  6
GEN4A
370
    -3
390
48F
  0
LAYER
  5
C5
330
2
100
AcDbSymbolTableRecord
100
AcDbLayerTableRecord
  2
GEV_FROZEN
 70
     1
 62
     7
  6
CONTINUOUS
370
    -3
390
48F
  0
LAYER
  5
C6
330
2
100
AcDbSymbolTableRecord
100
AcDbLayerTableRecord
  2
CENN
 70
     0
 62
     7
  6
CONTINUOUS
370
    -3
390
48F
  0
LAYER
  5
C7
330
2
100
AcDbSymbolTableRecord
100
AcDbLayerTableRecord
  2
BHMM
 70
     0
 62
     7
  6
CONTINUOUS
370
    -3
390
48F
  0
LAYER
  5
C8
330
2
100
AcDbSymbolTableRecord
100
AcDbLayerTableRecord
  2
THLI
 70
     0
 62
     7
  6
CONTINUOUS
370
    -3
390
48F
  0
LAYER
  5
C9
330
2
100
AcDbSymbolTableRecord
100
AcDbLayerTableRecord
  2
MSR_4-7A
 70
     0
 62
     4
  6
GEN7A
370
    -3
390
48F
  0
LAYER
  5
CA
330
2
100
AcDbSymbolTableRecord
100
AcDbLayerTableRecord
  2
MSR_4-6
 70
     0
 62
     2
  6
CONTINUOUS
370
    -3
390
48F
  0
LAYER
  5
CB
330
2
100
AcDbSymbolTableRecord
100
AcDbLayerTableRecord
  2
INFO
 70
     0
 62
     4
  6
CONTINUOUS
370
    -3
390
48F
  0
LAYER
  5
CC
330
2
100
AcDbSymbolTableRecord
100
AcDbLayerTableRecord
  2
MSR_4-0N
 70
     0
 62
     7
  6
CONTINUOUS
370
    -3
390
48F
  0
ENDTAB
  0
TABLE
  2
STYLE
  5
3
330
0
100
AcDbSymbolTable
 70
     4
  0
STYLE
  5
10
330
3
100
AcDbSymbolTableRecord
100
AcDbTextStyleTableRecord
  2
STANDARD
 70
     0
 40
0.0
 41
1.0
 50
0.0
 71
     0
 42
3.5
  3
ISOCP.SHX
  4

  0
STYLE
  5
569
330
3
100
AcDbSymbolTableRecord
100
AcDbTextStyleTableRecord
  2

 70
     1
 40
0.0
 41
1.0
 50
0.0
 71
     0
 42
3.5
  3
genltshp.shx
  4

  0
STYLE
  5
579
330
3
100
AcDbSymbolTableRecord
100
AcDbTextStyleTableRecord
  2
ACANSTS
 70
     0
 40
1.0
 41
1.0
 50
0.0
 71
     0
 42
3.5
  3
romans.shx
  4

  0
STYLE
  5
57A
330
3
100
AcDbSymbolTableRecord
100
AcDbTextStyleTableRecord
  2
ACANSGDT
 70
     0
 40
0.0
 41
1.0
 50
0.0
 71
     0
 42
3.5
  3
amgdt.shx
  4

  0
ENDTAB
  0
TABLE
  2
VIEW
  5
6
330
0
100
AcDbSymbolTable
 70
     0
  0
ENDTAB
  0
TABLE
  2
UCS
  5
7
330
0
100
AcDbSymbolTable
 70
     0
  0
ENDTAB
  0
TABLE
  2
APPID
  5
9
330
0
100
AcDbSymbolTable
 70
    52
  0
APPID
  5
11
330
9
100
AcDbSymbolTableRecord
100
AcDbRegAppTableRecord
  2
ACAD
 70
     0
  0
APPID
  5
29
330
9
100
AcDbSymbolTableRecord
100
AcDbRegAppTableRecord
  2
GENIUS_GENCFG_13
 70
     0
1001
GENIUS_GENCFG0_13
1000
GEN@INFO_POS@XLATE
1001
GENIUS_GENCFG1_13
1000
GEN@LAYER@DEFS
1001
GENIUS_GENCFG2_13
1000
GEN@LAYER@ENTSORT
1001
GENIUS_GENCFG3_13
1000
GEN@OSWIZ
1001
GENIUS_GENCFG4_13
1000
GEN
1001
GENIUS_GEVCFG0_13
1000
GEV
1001
GENIUS_GEFCFG0_13
1000
GEF
  0
APPID
  5
2A
330
9
100
AcDbSymbolTableRecord
100
AcDbRegAppTableRecord
  2
GENIUS_GENCFG0_13
 70
     0
1001
GENIUS_GENCFG_13
1071
862825278
1000
2A
1000
GEN@INFO_POS@XLATE
1070
     7
1000
GenCfgObject
1000
GenCfgShort
1000
GenCfgReal
1000
GenCfgBool
1000
GenCfgString
1000
GenCfgDim
1000
GenCfgAttrInf
1000
INFOPOINTS
1070
     0
1002
{
1000
GENINF13
1070
     0
1002
{
1000
2GENINF
1070
     4
1000
2
1002
{
1002
}
1000
3GENINF
1070
     4
1000
3
1002
{
1002
}
1000
4GENINF
1070
     4
1000
4
1002
{
1002
}
1000
5GENINF
1070
     4
1000
5
1002
{
1002
}
1000
6GENINF
1070
     4
1000
6
1002
{
1002
}
1000
7GENINF
1070
     4
1000
7
1002
{
1002
}
1000
8GENINF
1070
     4
1000
8
1002
{
1002
}
1000
9GENINF
1070
     4
1000
9
1002
{
1002
}
1000
10GENINF
1070
     4
1000
10
1002
{
1002
}
1000
11GENINF
1070
     4
1000
11
1002
{
1002
}
1000
12GENINF
1070
     4
1000
12
1002
{
1002
}
1000
13GENINF
1070
     4
1000
13
1002
{
1002
}
1000
14GENINF
1070
     4
1000
14
1002
{
1002
}
1000
15GENINF
1070
     4
1000
15
1002
{
1002
}
1000
16GENINF
1070
     4
1000
16
1002
{
1002
}
1000
17GENINF
1070
     4
1000
17
1002
{
1002
}
1000
18GENINF
1070
     4
1000
18
1002
{
1002
}
1000
19GENINF
1070
     4
1000
19
1002
{
1002
}
1000
20GENINF
1070
     4
1000
20
1002
{
1002
}
1000
21GENINF
1070
     4
1000
21
1002
{
1002
}
1000
22GENINF
1070
     4
1000
22
1002
{
1002
}
1000
23GENINF
1070
     4
1000
23
1002
{
1002
}
1000
24GENINF
1070
     4
1000
24
1002
{
1002
}
1000
0GENINF
1070
     4
1000
0
1002
{
1002
}
1002
}
1000
GENINFO
1070
     0
1002
{
1000
3GENINF
1070
     4
1000
3
1002
{
1002
}
1000
4GENINF
1070
     4
1000
4
1002
{
1002
}
1000
5GENINF
1070
     4
1000
5
1002
{
1002
}
1000
6GENINF
1070
     4
1000
6
1002
{
1002
}
1000
7GENINF
1070
     4
1000
7
1002
{
1002
}
1000
8GENINF
1070
     4
1000
8
1002
{
1002
}
1000
9GENINF
1070
     4
1000
9
1002
{
1002
}
1000
10GENINF
1070
     4
1000
10
1002
{
1002
}
1000
11GENINF
1070
     4
1000
11
1002
{
1002
}
1000
12GENINF
1070
     4
1000
12
1002
{
1002
}
1000
13GENINF
1070
     4
1000
13
1002
{
1002
}
1000
14GENINF
1070
     4
1000
14
1002
{
1002
}
1000
15GENINF
1070
     4
1000
15
1002
{
1002
}
1000
16GENINF
1070
     4
1000
16
1002
{
1002
}
1000
17GENINF
1070
     4
1000
17
1002
{
1002
}
1000
18GENINF
1070
     4
1000
18
1002
{
1002
}
1000
19GENINF
1070
     4
1000
19
1002
{
1002
}
1000
20GENINF
1070
     4
1000
20
1002
{
1002
}
1000
21GENINF
1070
     4
1000
21
1002
{
1002
}
1000
22GENINF
1070
     4
1000
22
1002
{
1002
}
1002
}
1000
DININFO
1070
     0
1002
{
1000
ST-NAME1
1070
     4
1000
5
1002
{
1002
}
1000
ST-NAME2
1070
     4
1000
6
1002
{
1002
}
1000
ST-NORM1
1070
     4
1000
7
1002
{
1002
}
1000
ST-NORM2
1070
     4
1000
8
1002
{
1002
}
1000
ST-MAT1
1070
     4
1000
9
1002
{
1002
}
1000
ST-MAT2
1070
     4
1000
10
1002
{
1002
}
1002
}
1002
}
1000
POS_NUMBERS
1070
     0
1002
{
1000
GENPOS13
1070
     0
1002
{
1000
1GENPOS
1070
     4
1000
1
1002
{
1002
}
1000
2GENPOS
1070
     4
1000
2
1002
{
1002
}
1000
3GENPOS
1070
     4
1000
3
1002
{
1002
}
1000
4GENPOS
1070
     4
1000
4
1002
{
1002
}
1000
5GENPOS
1070
     4
1000
5
1002
{
1002
}
1000
6GENPOS
1070
     4
1000
6
1002
{
1002
}
1000
7GENPOS
1070
     4
1000
7
1002
{
1002
}
1000
8GENPOS
1070
     4
1000
8
1002
{
1002
}
1000
9GENPOS
1070
     4
1000
9
1002
{
1002
}
1000
10GENPOS
1070
     4
1000
10
1002
{
1002
}
1000
11GENPOS
1070
     4
1000
11
1002
{
1002
}
1000
12GENPOS
1070
     4
1000
12
1002
{
1002
}
1000
13GENPOS
1070
     4
1000
13
1002
{
1002
}
1000
14GENPOS
1070
     4
1000
14
1002
{
1002
}
1000
15GENPOS
1070
     4
1000
15
1002
{
1002
}
1000
16GENPOS
1070
     4
1000
16
1002
{
1002
}
1000
17GENPOS
1070
     4
1000
17
1002
{
1002
}
1000
18GENPOS
1070
     4
1000
18
1002
{
1002
}
1000
19GENPOS
1070
     4
1000
19
1002
{
1002
}
1000
20GENPOS
1070
     4
1000
20
1002
{
1002
}
1000
21GENPOS
1070
     4
1000
21
1002
{
1002
}
1000
22GENPOS
1070
     4
1000
22
1002
{
1002
}
1000
23GENPOS
1070
     4
1000
23
1002
{
1002
}
1000
24GENPOS
1070
     4
1000
24
1002
{
1002
}
1000
0GENPOS
1070
     4
1000
0
1002
{
1002
}
1002
}
1000
GENPOS
1070
     0
1002
{
1000
1GENPOS
1070
     4
1000
1
1002
{
1002
}
1000
2GENPOS
1070
     4
1000
2
1002
{
1002
}
1000
3GENPOS
1070
     4
1000
3
1002
{
1002
}
1000
4GENPOS
1070
     4
1000
4
1002
{
1002
}
1000
5GENPOS
1070
     4
1000
5
1002
{
1002
}
1000
6GENPOS
1070
     4
1000
6
1002
{
1002
}
1000
7GENPOS
1070
     4
1000
7
1002
{
1002
}
1000
8GENPOS
1070
     4
1000
8
1002
{
1002
}
1000
9GENPOS
1070
     4
1000
9
1002
{
1002
}
1000
10GENPOS
1070
     4
1000
10
1002
{
1002
}
1000
11GENPOS
1070
     4
1000
11
1002
{
1002
}
1000
12GENPOS
1070
     4
1000
12
1002
{
1002
}
1000
13GENPOS
1070
     4
1000
13
1002
{
1002
}
1000
14GENPOS
1070
     4
1000
14
1002
{
1002
}
1000
15GENPOS
1070
     4
1000
15
1002
{
1002
}
1000
16GENPOS
1070
     4
1000
16
1002
{
1002
}
1000
17GENPOS
1070
     4
1000
17
1002
{
1002
}
1000
18GENPOS
1070
     4
1000
18
1002
{
1002
}
1000
19GENPOS
1070
     4
1000
19
1002
{
1002
}
1000
20GENPOS
1070
     4
1000
20
1002
{
1002
}
1000
21GENPOS
1070
     4
1000
21
1002
{
1002
}
1000
22GENPOS
1070
     4
1000
22
1002
{
1002
}
1000
23GENPOS
1070
     4
1000
23
1002
{
1002
}
1002
}
1000
DIN985
1070
     0
1002
{
1000
POSITION
1070
     4
1000
1
1002
{
1002
}
1000
MENGE
1070
     4
1000
2
1002
{
1002
}
1000
BLATT
1070
     4
1000
3
1002
{
1002
}
1000
BENENN
1070
     4
1000
5
1002
{
1002
}
1000
BENENN2
1070
     4
1000
6
1002
{
1002
}
1000
NORM
1070
     4
1000
7
1002
{
1002
}
1000
NORM2
1070
     4
1000
8
1002
{
1002
}
1000
WERKSTOFF
1070
     4
1000
9
1002
{
1002
}
1000
WERKSTOFF2
1070
     4
1000
10
1002
{
1002
}
1002
}
1000
DIN986
1070
     0
1002
{
1000
POSITION
1070
     4
1000
1
1002
{
1002
}
1000
MENGE
1070
     4
1000
2
1002
{
1002
}
1000
BLATT
1070
     4
1000
3
1002
{
1002
}
1000
BENENN
1070
     4
1000
5
1002
{
1002
}
1000
BENENN2
1070
     4
1000
6
1002
{
1002
}
1000
NORM
1070
     4
1000
7
1002
{
1002
}
1000
NORM2
1070
     4
1000
8
1002
{
1002
}
1000
WERKSTOFF
1070
     4
1000
9
1002
{
1002
}
1000
WERKSTOFF2
1070
     4
1000
10
1002
{
1002
}
1002
}
1000
DIN987
1070
     0
1002
{
1000
POSITION
1070
     4
1000
1
1002
{
1002
}
1000
MENGE
1070
     4
1000
2
1002
{
1002
}
1000
BLATT
1070
     4
1000
3
1002
{
1002
}
1000
BENENN
1070
     4
1000
5
1002
{
1002
}
1000
BENENN2
1070
     4
1000
6
1002
{
1002
}
1000
NORM
1070
     4
1000
7
1002
{
1002
}
1000
NORM2
1070
     4
1000
8
1002
{
1002
}
1000
WERKSTOFF
1070
     4
1000
9
1002
{
1002
}
1000
WERKSTOFF2
1070
     4
1000
10
1002
{
1002
}
1002
}
1002
}
  0
APPID
  5
2B
330
9
100
AcDbSymbolTableRecord
100
AcDbRegAppTableRecord
  2
GENIUS_GENCFG1_13
 70
     0
1001
GENIUS_GENCFG_13
1071
862825278
1000
2B
1000
GEN@LAYER@DEFS
1070
     9
1000
GenCfgObject
1000
GenCfgShort
1000
GenCfgReal
1000
GenCfgBool
1000
GenCfgString
1000
GenCfgDim
1000
GenCfgAttrInf
1000
GenCfgLaySection
1000
GenCfgLayer
1000
Basic
1070
     0
1002
{
1000
0
1070
     8
1000
0
1002
{
1000
Color
1070
     1
1070
     7
1002
{
1002
}
1000
LType
1070
     4
1000
CONTINUOUS
1002
{
1002
}
1000
Base
1070
     3
1070
     0
1002
{
1002
}
1002
}
1000
1
1070
     8
1000
1
1002
{
1000
Color
1070
     1
1070
    14
1002
{
1002
}
1000
LType
1070
     4
1000
CONTINUOUS
1002
{
1002
}
1000
Base
1070
     3
1070
     0
1002
{
1002
}
1002
}
1000
2
1070
     8
1000
2
1002
{
1000
Color
1070
     1
1070
     5
1002
{
1002
}
1000
LType
1070
     4
1000
CONTINUOUS
1002
{
1002
}
1000
Base
1070
     3
1070
     0
1002
{
1002
}
1002
}
1000
3
1070
     8
1000
3
1002
{
1000
Color
1070
     1
1070
     6
1002
{
1002
}
1000
LType
1070
     4
1000
GEN3
1002
{
1002
}
1000
Base
1070
     3
1070
     0
1002
{
1002
}
1002
}
1000
4
1070
     8
1000
4
1002
{
1000
Color
1070
     1
1070
     3
1002
{
1002
}
1000
LType
1070
     4
1000
CONTINUOUS
1002
{
1002
}
1000
Base
1070
     3
1070
     0
1002
{
1002
}
1002
}
1000
5
1070
     8
1000
5
1002
{
1000
Color
1070
     1
1070
     3
1002
{
1002
}
1000
LType
1070
     4
1000
CONTINUOUS
1002
{
1002
}
1000
Base
1070
     3
1070
     0
1002
{
1002
}
1002
}
1000
6
1070
     8
1000
6
1002
{
1000
Color
1070
     1
1070
     2
1002
{
1002
}
1000
LType
1070
     4
1000
CONTINUOUS
1002
{
1002
}
1000
Base
1070
     3
1070
     0
1002
{
1002
}
1002
}
1000
7
1070
     8
1000
7
1002
{
1000
Color
1070
     1
1070
     4
1002
{
1002
}
1000
LType
1070
     4
1000
GEN7
1002
{
1002
}
1000
Base
1070
     3
1070
     0
1002
{
1002
}
1002
}
1000
8
1070
     8
1000
8
1002
{
1000
Color
1070
     1
1070
     1
1002
{
1002
}
1000
LType
1070
     4
1000
CONTINUOUS
1002
{
1002
}
1000
Base
1070
     3
1070
     0
1002
{
1002
}
1002
}
1000
3A
1070
     8
1000
3A
1002
{
1000
Color
1070
     1
1070
     6
1002
{
1002
}
1000
LType
1070
     4
1000
GEN3A
1002
{
1002
}
1000
Base
1070
     3
1070
     0
1002
{
1002
}
1002
}
1000
7A
1070
     8
1000
7A
1002
{
1000
Color
1070
     1
1070
     4
1002
{
1002
}
1000
LType
1070
     4
1000
GEN7A
1002
{
1002
}
1000
Base
1070
     3
1070
     0
1002
{
1002
}
1002
}
1000
2A
1070
     8
1000
2A
1002
{
1000
Color
1070
     1
1070
     7
1002
{
1002
}
1000
LType
1070
     4
1000
GEN7
1002
{
1002
}
1000
Base
1070
     3
1070
     0
1002
{
1002
}
1002
}
1000
4A
1070
     8
1000
4A
1002
{
1000
Color
1070
     1
1070
     3
1002
{
1002
}
1000
LType
1070
     4
1000
GEN4A
1002
{
1002
}
1000
Base
1070
     3
1070
     0
1002
{
1002
}
1002
}
1000
9
1070
     8
1000
9
1002
{
1000
Color
1070
     1
1070
   253
1002
{
1002
}
1000
LType
1070
     4
1000
CONTINUOUS
1002
{
1002
}
1000
Base
1070
     3
1070
     0
1002
{
1002
}
1002
}
1002
}
1000
Standard
1070
     0
1002
{
1000
0N
1070
     8
1000
0N
1002
{
1000
Color
1070
     1
1070
     7
1002
{
1002
}
1000
LType
1070
     4
1000
CONTINUOUS
1002
{
1002
}
1000
Base
1070
     3
1070
     0
1002
{
1002
}
1002
}
1000
1N
1070
     8
1000
1N
1002
{
1000
Color
1070
     1
1070
    14
1002
{
1002
}
1000
LType
1070
     4
1000
CONTINUOUS
1002
{
1002
}
1000
Base
1070
     3
1070
     0
1002
{
1002
}
1002
}
1000
2N
1070
     8
1000
2N
1002
{
1000
Color
1070
     1
1070
     5
1002
{
1002
}
1000
LType
1070
     4
1000
CONTINUOUS
1002
{
1002
}
1000
Base
1070
     3
1070
     0
1002
{
1002
}
1002
}
1000
3N
1070
     8
1000
3N
1002
{
1000
Color
1070
     1
1070
     6
1002
{
1002
}
1000
LType
1070
     4
1000
GEN3
1002
{
1002
}
1000
Base
1070
     3
1070
     0
1002
{
1002
}
1002
}
1000
4N
1070
     8
1000
4N
1002
{
1000
Color
1070
     1
1070
     3
1002
{
1002
}
1000
LType
1070
     4
1000
CONTINUOUS
1002
{
1002
}
1000
Base
1070
     3
1070
     0
1002
{
1002
}
1002
}
1000
5N
1070
     8
1000
5N
1002
{
1000
Color
1070
     1
1070
     3
1002
{
1002
}
1000
LType
1070
     4
1000
CONTINUOUS
1002
{
1002
}
1000
Base
1070
     3
1070
     0
1002
{
1002
}
1002
}
1000
6N
1070
     8
1000
6N
1002
{
1000
Color
1070
     1
1070
     2
1002
{
1002
}
1000
LType
1070
     4
1000
CONTINUOUS
1002
{
1002
}
1000
Base
1070
     3
1070
     0
1002
{
1002
}
1002
}
1000
7N
1070
     8
1000
7N
1002
{
1000
Color
1070
     1
1070
     4
1002
{
1002
}
1000
LType
1070
     4
1000
GEN7
1002
{
1002
}
1000
Base
1070
     3
1070
     0
1002
{
1002
}
1002
}
1000
8N
1070
     8
1000
8N
1002
{
1000
Color
1070
     1
1070
     1
1002
{
1002
}
1000
LType
1070
     4
1000
CONTINUOUS
1002
{
1002
}
1000
Base
1070
     3
1070
     0
1002
{
1002
}
1002
}
1000
3AN
1070
     8
1000
3AN
1002
{
1000
Color
1070
     1
1070
     6
1002
{
1002
}
1000
LType
1070
     4
1000
GEN3A
1002
{
1002
}
1000
Base
1070
     3
1070
     0
1002
{
1002
}
1002
}
1000
7AN
1070
     8
1000
7AN
1002
{
1000
Color
1070
     1
1070
     4
1002
{
1002
}
1000
LType
1070
     4
1000
GEN7A
1002
{
1002
}
1000
Base
1070
     3
1070
     0
1002
{
1002
}
1002
}
1000
2AN
1070
     8
1000
2AN
1002
{
1000
Color
1070
     1
1070
     7
1002
{
1002
}
1000
LType
1070
     4
1000
GEN7
1002
{
1002
}
1000
Base
1070
     3
1070
     0
1002
{
1002
}
1002
}
1000
4AN
1070
     8
1000
4AN
1002
{
1000
Color
1070
     1
1070
     3
1002
{
1002
}
1000
LType
1070
     4
1000
GEN4A
1002
{
1002
}
1000
Base
1070
     3
1070
     0
1002
{
1002
}
1002
}
1000
9N
1070
     8
1000
9N
1002
{
1000
Color
1070
     1
1070
   253
1002
{
1002
}
1000
LType
1070
     4
1000
CONTINUOUS
1002
{
1002
}
1000
Base
1070
     3
1070
     0
1002
{
1002
}
1002
}
1002
}
1000
Extra
1070
     0
1002
{
1000
Klin
1070
     8
1000
KLIN
1002
{
1000
Color
1070
     1
1070
     1
1002
{
1002
}
1000
LType
1070
     4
1000
CONTINUOUS
1002
{
1002
}
1000
Base
1070
     3
1070
     1
1002
{
1002
}
1002
}
1000
Info
1070
     8
1000
INFO
1002
{
1000
Color
1070
     1
1070
     4
1002
{
1002
}
1000
LType
1070
     4
1000
CONTINUOUS
1002
{
1002
}
1000
Base
1070
     3
1070
     1
1002
{
1002
}
1002
}
1000
Rahm2
1070
     8
1000
RAHM2
1002
{
1000
Color
1070
     1
1070
     1
1002
{
1002
}
1000
LType
1070
     4
1000
CONTINUOUS
1002
{
1002
}
1000
Base
1070
     3
1070
     1
1002
{
1002
}
1002
}
1000
Rahm3
1070
     8
1000
RAHM3
1002
{
1000
Color
1070
     1
1070
     2
1002
{
1002
}
1000
LType
1070
     4
1000
CONTINUOUS
1002
{
1002
}
1000
Base
1070
     3
1070
     1
1002
{
1002
}
1002
}
1000
Rahm5
1070
     8
1000
RAHM5
1002
{
1000
Color
1070
     1
1070
     7
1002
{
1002
}
1000
LType
1070
     4
1000
CONTINUOUS
1002
{
1002
}
1000
Base
1070
     3
1070
     1
1002
{
1002
}
1002
}
1000
View
1070
     8
1000
VIEW
1002
{
1000
Color
1070
     1
1070
     1
1002
{
1002
}
1000
LType
1070
     4
1000
CONTINUOUS
1002
{
1002
}
1000
Base
1070
     3
1070
     1
1002
{
1002
}
1002
}
1000
Behind
1070
     8
1000
BEHIND
1002
{
1000
Color
1070
     1
1070
   253
1002
{
1002
}
1000
LType
1070
     4
1000
CONTINUOUS
1002
{
1002
}
1000
Base
1070
     3
1070
     1
1002
{
1002
}
1002
}
1002
}
  0
APPID
  5
2C
330
9
100
AcDbSymbolTableRecord
100
AcDbRegAppTableRecord
  2
GENIUS_GENCFG2_13
 70
     0
1001
GENIUS_GENCFG_13
1071
862825278
1000
2C
1000
GEN@LAYER@ENTSORT
1070
    10
1000
GenCfgObject
1000
GenCfgShort
1000
GenCfgReal
1000
GenCfgBool
1000
GenCfgString
1000
GenCfgDim
1000
GenCfgAttrInf
1000
GenCfgLaySection
1000
GenCfgLayer
1000
GenCfgEntSort
1000
ALTR
1070
     9
1000
4
1002
{
1000
Class
1070
     4
1000

1002
{
1002
}
1000
Color
1070
     1
1070
     7
1002
{
1002
}
1000
LType
1070
     4
1000
GEN3A
1002
{
1002
}
1002
}
1000
BELI
1070
     9
1000
4
1002
{
1000
Class
1070
     4
1000

1002
{
1002
}
1000
Color
1070
     1
1070
   256
1002
{
1002
}
1000
LType
1070
     4
1000
BYLAYER
1002
{
1002
}
1002
}
1000
BHNV
1070
     9
1000
9
1002
{
1000
Class
1070
     4
1000
INV
1002
{
1002
}
1000
Color
1070
     1
1070
   256
1002
{
1002
}
1000
LType
1070
     4
1000
BYLAYER
1002
{
1002
}
1002
}
1000
BHNVS
1070
     9
1000
BEHIND
1002
{
1000
Class
1070
     4
1000
INV
1002
{
1002
}
1000
Color
1070
     1
1070
   256
1002
{
1002
}
1000
LType
1070
     4
1000
BYLAYER
1002
{
1002
}
1002
}
1000
BLID
1070
     9
1000
4A
1002
{
1000
Class
1070
     4
1000

1002
{
1002
}
1000
Color
1070
     1
1070
   256
1002
{
1002
}
1000
LType
1070
     4
1000
BYLAYER
1002
{
1002
}
1002
}
1000
BOAP
1070
     9
1000
4A
1002
{
1000
Class
1070
     4
1000

1002
{
1002
}
1000
Color
1070
     1
1070
   256
1002
{
1002
}
1000
LType
1070
     4
1000
BYLAYER
1002
{
1002
}
1002
}
1000
BOR2
1070
     9
1000
RAHM2
1002
{
1000
Class
1070
     4
1000
SPZ,SYM
1002
{
1002
}
1000
Color
1070
     1
1070
   256
1002
{
1002
}
1000
LType
1070
     4
1000
BYLAYER
1002
{
1002
}
1002
}
1000
BOR3
1070
     9
1000
RAHM3
1002
{
1000
Class
1070
     4
1000
SPZ,SYM
1002
{
1002
}
1000
Color
1070
     1
1070
   256
1002
{
1002
}
1000
LType
1070
     4
1000
BYLAYER
1002
{
1002
}
1002
}
1000
BOR5
1070
     9
1000
RAHM5
1002
{
1000
Class
1070
     4
1000
SPZ,SYM
1002
{
1002
}
1000
Color
1070
     1
1070
   256
1002
{
1002
}
1000
LType
1070
     4
1000
BYLAYER
1002
{
1002
}
1002
}
1000
BOR7
1070
     9
1000
RAHM5
1002
{
1000
Class
1070
     4
1000
SPZ,SYM
1002
{
1002
}
1000
Color
1070
     1
1070
     7
1002
{
1002
}
1000
LType
1070
     4
1000
CONTINUOUS
1002
{
1002
}
1002
}
1000
BPAP
1070
     9
1000
4A
1002
{
1000
Class
1070
     4
1000

1002
{
1002
}
1000
Color
1070
     1
1070
   256
1002
{
1002
}
1000
LType
1070
     4
1000
BYLAYER
1002
{
1002
}
1002
}
1000
BPEX
1070
     9
1000
4A
1002
{
1000
Class
1070
     4
1000

1002
{
1002
}
1000
Color
1070
     1
1070
   256
1002
{
1002
}
1000
LType
1070
     4
1000
BYLAYER
1002
{
1002
}
1002
}
1000
BTDI
1070
     9
1000
5
1002
{
1000
Class
1070
     4
1000
DIM,SYM
1002
{
1002
}
1000
Color
1070
     1
1070
   256
1002
{
1002
}
1000
LType
1070
     4
1000
BYLAYER
1002
{
1002
}
1002
}
1000
CAL2
1070
     9
1000
4
1002
{
1000
Class
1070
     4
1000
SYM
1002
{
1002
}
1000
Color
1070
     1
1070
   256
1002
{
1002
}
1000
LType
1070
     4
1000
BYLAYER
1002
{
1002
}
1002
}
1000
CAL3
1070
     9
1000
4
1002
{
1000
Class
1070
     4
1000
SYM
1002
{
1002
}
1000
Color
1070
     1
1070
     2
1002
{
1002
}
1000
LType
1070
     4
1000
BYLAYER
1002
{
1002
}
1002
}
1000
CAL5
1070
     9
1000
4
1002
{
1000
Class
1070
     4
1000
SYM
1002
{
1002
}
1000
Color
1070
     1
1070
     7
1002
{
1002
}
1000
LType
1070
     4
1000
BYLAYER
1002
{
1002
}
1002
}
1000
CAL7
1070
     9
1000
4
1002
{
1000
Class
1070
     4
1000
SYM
1002
{
1002
}
1000
Color
1070
     1
1070
     5
1002
{
1002
}
1000
LType
1070
     4
1000
BYLAYER
1002
{
1002
}
1002
}
1000
CENN
1070
     9
1000
7A
1002
{
1000
Class
1070
     4
1000
CEN
1002
{
1002
}
1000
Color
1070
     1
1070
   256
1002
{
1002
}
1000
LType
1070
     4
1000
BYLAYER
1002
{
1002
}
1002
}
1000
CENW
1070
     9
1000
7
1002
{
1000
Class
1070
     4
1000
CEN
1002
{
1002
}
1000
Color
1070
     1
1070
   256
1002
{
1002
}
1000
LType
1070
     4
1000
BYLAYER
1002
{
1002
}
1002
}
1000
CLIN
1070
     9
1000
KLIN
1002
{
1000
Class
1070
     4
1000
SPZ
1002
{
1002
}
1000
Color
1070
     1
1070
   256
1002
{
1002
}
1000
LType
1070
     4
1000
BYLAYER
1002
{
1002
}
1002
}
1000
CON1
1070
     9
1000
0
1002
{
1000
Class
1070
     4
1000
CON,BGD
1002
{
1002
}
1000
Color
1070
     1
1070
   256
1002
{
1002
}
1000
LType
1070
     4
1000
BYLAYER
1002
{
1002
}
1002
}
1000
CON2
1070
     9
1000
1
1002
{
1000
Class
1070
     4
1000
CON,BGD
1002
{
1002
}
1000
Color
1070
     1
1070
   256
1002
{
1002
}
1000
LType
1070
     4
1000
BYLAYER
1002
{
1002
}
1002
}
1000
CON3
1070
     9
1000
2
1002
{
1000
Class
1070
     4
1000
CON,BGD
1002
{
1002
}
1000
Color
1070
     1
1070
   256
1002
{
1002
}
1000
LType
1070
     4
1000
BYLAYER
1002
{
1002
}
1002
}
1000
CON4
1070
     9
1000
2
1002
{
1000
Class
1070
     4
1000
CON,BGD
1002
{
1002
}
1000
Color
1070
     1
1070
   256
1002
{
1002
}
1000
LType
1070
     4
1000
BYLAYER
1002
{
1002
}
1002
}
1000
DERP
1070
     9
1000
4
1002
{
1000
Class
1070
     4
1000

1002
{
1002
}
1000
Color
1070
     1
1070
   256
1002
{
1002
}
1000
LType
1070
     4
1000
BYLAYER
1002
{
1002
}
1002
}
1000
DETA
1070
     9
1000
4
1002
{
1000
Class
1070
     4
1000

1002
{
1002
}
1000
Color
1070
     1
1070
   256
1002
{
1002
}
1000
LType
1070
     4
1000
BYLAYER
1002
{
1002
}
1002
}
1000
DIAG
1070
     9
1000
5
1002
{
1000
Class
1070
     4
1000
SYM
1002
{
1002
}
1000
Color
1070
     1
1070
   256
1002
{
1002
}
1000
LType
1070
     4
1000
BYLAYER
1002
{
1002
}
1002
}
1000
DILI
1070
     9
1000
5
1002
{
1000
Class
1070
     4
1000
DIM,SYM
1002
{
1002
}
1000
Color
1070
     1
1070
   256
1002
{
1002
}
1000
LType
1070
     4
1000
BYLAYER
1002
{
1002
}
1002
}
1000
DITX
1070
     9
1000
5
1002
{
1000
Class
1070
     4
1000
DIM,SYM
1002
{
1002
}
1000
Color
1070
     1
1070
     2
1002
{
1002
}
1000
LType
1070
     4
1000
CONTINUOUS
1002
{
1002
}
1002
}
1000
DITO2
1070
     9
1000
5
1002
{
1000
Class
1070
     4
1000
DIM,SYM
1002
{
1002
}
1000
Color
1070
     1
1070
     3
1002
{
1002
}
1000
LType
1070
     4
1000
BYLAYER
1002
{
1002
}
1002
}
1000
DITO3
1070
     9
1000
5
1002
{
1000
Class
1070
     4
1000
DIM,SYM
1002
{
1002
}
1000
Color
1070
     1
1070
     2
1002
{
1002
}
1000
LType
1070
     4
1000
BYLAYER
1002
{
1002
}
1002
}
1000
DIXL
1070
     9
1000
5
1002
{
1000
Class
1070
     4
1000
DIM,SYM
1002
{
1002
}
1000
Color
1070
     1
1070
   256
1002
{
1002
}
1000
LType
1070
     4
1000
BYLAYER
1002
{
1002
}
1002
}
1000
EXMP
1070
     9
1000
4A
1002
{
1000
Class
1070
     4
1000

1002
{
1002
}
1000
Color
1070
     1
1070
   256
1002
{
1002
}
1000
LType
1070
     4
1000
BYLAYER
1002
{
1002
}
1002
}
1000
FEMN
1070
     9
1000
8
1002
{
1000
Class
1070
     4
1000

1002
{
1002
}
1000
Color
1070
     1
1070
   256
1002
{
1002
}
1000
LType
1070
     4
1000
BYLAYER
1002
{
1002
}
1002
}
1000
FEMPN
1070
     9
1000
8
1002
{
1000
Class
1070
     4
1000
SYM
1002
{
1002
}
1000
Color
1070
     1
1070
     3
1002
{
1002
}
1000
LType
1070
     4
1000
BYLAYER
1002
{
1002
}
1002
}
1000
FEMSP
1070
     9
1000
4A
1002
{
1000
Class
1070
     4
1000

1002
{
1002
}
1000
Color
1070
     1
1070
   256
1002
{
1002
}
1000
LType
1070
     4
1000
CONTINUOUS
1002
{
1002
}
1002
}
1000
FEMST
1070
     9
1000
4A
1002
{
1000
Class
1070
     4
1000
SYM
1002
{
1002
}
1000
Color
1070
     1
1070
     3
1002
{
1002
}
1000
LType
1070
     4
1000
BYLAYER
1002
{
1002
}
1002
}
1000
FEMVN
1070
     9
1000
2
1002
{
1000
Class
1070
     4
1000
CON
1002
{
1002
}
1000
Color
1070
     1
1070
   256
1002
{
1002
}
1000
LType
1070
     4
1000
BYLAYER
1002
{
1002
}
1002
}
1000
FEMVT
1070
     9
1000
2
1002
{
1000
Class
1070
     4
1000
SYM
1002
{
1002
}
1000
Color
1070
     1
1070
     3
1002
{
1002
}
1000
LType
1070
     4
1000
BYLAYER
1002
{
1002
}
1002
}
1000
FLAT
1070
     9
1000
0
1002
{
1000
Class
1070
     4
1000

1002
{
1002
}
1000
Color
1070
     1
1070
   256
1002
{
1002
}
1000
LType
1070
     4
1000
BYLAYER
1002
{
1002
}
1002
}
1000
FRAR
1070
     9
1000
4A
1002
{
1000
Class
1070
     4
1000

1002
{
1002
}
1000
Color
1070
     1
1070
   256
1002
{
1002
}
1000
LType
1070
     4
1000
BYLAYER
1002
{
1002
}
1002
}
1000
GRLI
1070
     9
1000
5
1002
{
1000
Class
1070
     4
1000
SYM
1002
{
1002
}
1000
Color
1070
     1
1070
   256
1002
{
1002
}
1000
LType
1070
     4
1000
BYLAYER
1002
{
1002
}
1002
}
1000
GVLI
1070
     9
1000
4A
1002
{
1000
Class
1070
     4
1000

1002
{
1002
}
1000
Color
1070
     1
1070
   256
1002
{
1002
}
1000
LType
1070
     4
1000
BYLAYER
1002
{
1002
}
1002
}
1000
HATC
1070
     9
1000
8
1002
{
1000
Class
1070
     4
1000
HTC,BGD
1002
{
1002
}
1000
Color
1070
     1
1070
   256
1002
{
1002
}
1000
LType
1070
     4
1000
BYLAYER
1002
{
1002
}
1002
}
1000
HIDN
1070
     9
1000
3A
1002
{
1000
Class
1070
     4
1000
HID,BGD
1002
{
1002
}
1000
Color
1070
     1
1070
   256
1002
{
1002
}
1000
LType
1070
     4
1000
BYLAYER
1002
{
1002
}
1002
}
1000
HIDW
1070
     9
1000
3
1002
{
1000
Class
1070
     4
1000
HID,BGD
1002
{
1002
}
1000
Color
1070
     1
1070
   256
1002
{
1002
}
1000
LType
1070
     4
1000
BYLAYER
1002
{
1002
}
1002
}
1000
HLIN
1070
     9
1000
4
1002
{
1000
Class
1070
     4
1000
BGD
1002
{
1002
}
1000
Color
1070
     1
1070
   256
1002
{
1002
}
1000
LType
1070
     4
1000
BYLAYER
1002
{
1002
}
1002
}
1000
HOCN
1070
     9
1000
7A
1002
{
1000
Class
1070
     4
1000
CEN
1002
{
1002
}
1000
Color
1070
     1
1070
   256
1002
{
1002
}
1000
LType
1070
     4
1000
BYLAYER
1002
{
1002
}
1002
}
1000
HOCW
1070
     9
1000
7
1002
{
1000
Class
1070
     4
1000
CEN
1002
{
1002
}
1000
Color
1070
     1
1070
   256
1002
{
1002
}
1000
LType
1070
     4
1000
BYLAYER
1002
{
1002
}
1002
}
1000
INFO
1070
     9
1000
INFO
1002
{
1000
Class
1070
     4
1000
SPZ,SYM
1002
{
1002
}
1000
Color
1070
     1
1070
   256
1002
{
1002
}
1000
LType
1070
     4
1000
BYLAYER
1002
{
1002
}
1002
}
1000
LADI
1070
     9
1000
4
1002
{
1000
Class
1070
     4
1000
BGD
1002
{
1002
}
1000
Color
1070
     1
1070
   256
1002
{
1002
}
1000
LType
1070
     4
1000
BYLAYER
1002
{
1002
}
1002
}
1000
LEAD
1070
     9
1000
5
1002
{
1000
Class
1070
     4
1000
SYM
1002
{
1002
}
1000
Color
1070
     1
1070
   256
1002
{
1002
}
1000
LType
1070
     4
1000
BYLAYER
1002
{
1002
}
1002
}
1000
N_BHNV
1070
     9
1000
9N
1002
{
1000
Class
1070
     4
1000
INV
1002
{
1002
}
1000
Color
1070
     1
1070
   256
1002
{
1002
}
1000
LType
1070
     4
1000
BYLAYER
1002
{
1002
}
1002
}
1000
N_CON1
1070
     9
1000
0N
1002
{
1000
Class
1070
     4
1000
CON,BGD
1002
{
1002
}
1000
Color
1070
     1
1070
   256
1002
{
1002
}
1000
LType
1070
     4
1000
BYLAYER
1002
{
1002
}
1002
}
1000
N_CON2
1070
     9
1000
1N
1002
{
1000
Class
1070
     4
1000
CON,BGD
1002
{
1002
}
1000
Color
1070
     1
1070
   256
1002
{
1002
}
1000
LType
1070
     4
1000
BYLAYER
1002
{
1002
}
1002
}
1000
N_CON3
1070
     9
1000
2N
1002
{
1000
Class
1070
     4
1000
CON,BGD
1002
{
1002
}
1000
Color
1070
     1
1070
   256
1002
{
1002
}
1000
LType
1070
     4
1000
BYLAYER
1002
{
1002
}
1002
}
1000
N_CON4
1070
     9
1000
2N
1002
{
1000
Class
1070
     4
1000
CON,BGD
1002
{
1002
}
1000
Color
1070
     1
1070
   256
1002
{
1002
}
1000
LType
1070
     4
1000
BYLAYER
1002
{
1002
}
1002
}
1000
N_CENN
1070
     9
1000
7AN
1002
{
1000
Class
1070
     4
1000
CEN
1002
{
1002
}
1000
Color
1070
     1
1070
   256
1002
{
1002
}
1000
LType
1070
     4
1000
BYLAYER
1002
{
1002
}
1002
}
1000
N_CENW
1070
     9
1000
7N
1002
{
1000
Class
1070
     4
1000
CEN
1002
{
1002
}
1000
Color
1070
     1
1070
   256
1002
{
1002
}
1000
LType
1070
     4
1000
BYLAYER
1002
{
1002
}
1002
}
1000
N_DILI
1070
     9
1000
5N
1002
{
1000
Class
1070
     4
1000
DIM,SYM
1002
{
1002
}
1000
Color
1070
     1
1070
   256
1002
{
1002
}
1000
LType
1070
     4
1000
BYLAYER
1002
{
1002
}
1002
}
1000
N_DITX
1070
     9
1000
5N
1002
{
1000
Class
1070
     4
1000
DIM,SYM
1002
{
1002
}
1000
Color
1070
     1
1070
     2
1002
{
1002
}
1000
LType
1070
     4
1000
CONTINUOUS
1002
{
1002
}
1002
}
1000
N_DIXL
1070
     9
1000
5N
1002
{
1000
Class
1070
     4
1000
DIM,SYM
1002
{
1002
}
1000
Color
1070
     1
1070
   256
1002
{
1002
}
1000
LType
1070
     4
1000
BYLAYER
1002
{
1002
}
1002
}
1000
N_HATC
1070
     9
1000
8N
1002
{
1000
Class
1070
     4
1000
HTC,BGD
1002
{
1002
}
1000
Color
1070
     1
1070
   256
1002
{
1002
}
1000
LType
1070
     4
1000
BYLAYER
1002
{
1002
}
1002
}
1000
N_HIDN
1070
     9
1000
3AN
1002
{
1000
Class
1070
     4
1000
HID,BGD
1002
{
1002
}
1000
Color
1070
     1
1070
   256
1002
{
1002
}
1000
LType
1070
     4
1000
BYLAYER
1002
{
1002
}
1002
}
1000
N_HIDW
1070
     9
1000
3N
1002
{
1000
Class
1070
     4
1000
HID,BGD
1002
{
1002
}
1000
Color
1070
     1
1070
   256
1002
{
1002
}
1000
LType
1070
     4
1000
BYLAYER
1002
{
1002
}
1002
}
1000
N_PHAN
1070
     9
1000
4AN
1002
{
1000
Class
1070
     4
1000

1002
{
1002
}
1000
Color
1070
     1
1070
   256
1002
{
1002
}
1000
LType
1070
     4
1000
BYLAYER
1002
{
1002
}
1002
}
1000
N_POSL
1070
     9
1000
5N
1002
{
1000
Class
1070
     4
1000
SYM
1002
{
1002
}
1000
Color
1070
     1
1070
   256
1002
{
1002
}
1000
LType
1070
     4
1000
BYLAYER
1002
{
1002
}
1002
}
1000
N_TCON
1070
     9
1000
0N
1002
{
1000
Class
1070
     4
1000
CON,BGD
1002
{
1002
}
1000
Color
1070
     1
1070
   256
1002
{
1002
}
1000
LType
1070
     4
1000
BYLAYER
1002
{
1002
}
1002
}
1000
N_THLI
1070
     9
1000
4N
1002
{
1000
Class
1070
     4
1000
BGD
1002
{
1002
}
1000
Color
1070
     1
1070
   256
1002
{
1002
}
1000
LType
1070
     4
1000
BYLAYER
1002
{
1002
}
1002
}
1000
N_TLEN
1070
     9
1000
0N
1002
{
1000
Class
1070
     4
1000
CON,BGD
1002
{
1002
}
1000
Color
1070
     1
1070
   256
1002
{
1002
}
1000
LType
1070
     4
1000
BYLAYER
1002
{
1002
}
1002
}
1000
N_TXT3
1070
     9
1000
6N
1002
{
1000
Class
1070
     4
1000
SYM
1002
{
1002
}
1000
Color
1070
     1
1070
   256
1002
{
1002
}
1000
LType
1070
     4
1000
BYLAYER
1002
{
1002
}
1002
}
1000
N_VPLI
1070
     9
1000
2AN
1002
{
1000
Class
1070
     4
1000

1002
{
1002
}
1000
Color
1070
     1
1070
   256
1002
{
1002
}
1000
LType
1070
     4
1000
BYLAYER
1002
{
1002
}
1002
}
1000
PAL2
1070
     9
1000
RAHM2
1002
{
1000
Class
1070
     4
1000
SPZ,SYM
1002
{
1002
}
1000
Color
1070
     1
1070
   256
1002
{
1002
}
1000
LType
1070
     4
1000
BYLAYER
1002
{
1002
}
1002
}
1000
PAL3
1070
     9
1000
RAHM3
1002
{
1000
Class
1070
     4
1000
SPZ,SYM
1002
{
1002
}
1000
Color
1070
     1
1070
   256
1002
{
1002
}
1000
LType
1070
     4
1000
BYLAYER
1002
{
1002
}
1002
}
1000
PAL5
1070
     9
1000
RAHM5
1002
{
1000
Class
1070
     4
1000
SPZ,SYM
1002
{
1002
}
1000
Color
1070
     1
1070
   256
1002
{
1002
}
1000
LType
1070
     4
1000
BYLAYER
1002
{
1002
}
1002
}
1000
PAL7
1070
     9
1000
RAHM5
1002
{
1000
Class
1070
     4
1000
SPZ,SYM
1002
{
1002
}
1000
Color
1070
     1
1070
     7
1002
{
1002
}
1000
LType
1070
     4
1000
CONTINUOUS
1002
{
1002
}
1002
}
1000
PHAN
1070
     9
1000
4A
1002
{
1000
Class
1070
     4
1000

1002
{
1002
}
1000
Color
1070
     1
1070
   256
1002
{
1002
}
1000
LType
1070
     4
1000
BYLAYER
1002
{
1002
}
1002
}
1000
POSL
1070
     9
1000
5
1002
{
1000
Class
1070
     4
1000
SYM
1002
{
1002
}
1000
Color
1070
     1
1070
   256
1002
{
1002
}
1000
LType
1070
     4
1000
BYLAYER
1002
{
1002
}
1002
}
1000
POSN
1070
     9
1000
6
1002
{
1000
Class
1070
     4
1000
SYM
1002
{
1002
}
1000
Color
1070
     1
1070
     7
1002
{
1002
}
1000
LType
1070
     4
1000
BYLAYER
1002
{
1002
}
1002
}
1000
POSREF
1070
     9
1000
6
1002
{
1000
Class
1070
     4
1000
SYM
1002
{
1002
}
1000
Color
1070
     1
1070
     5
1002
{
1002
}
1000
LType
1070
     4
1000
BYLAYER
1002
{
1002
}
1002
}
1000
POSX
1070
     9
1000
5
1002
{
1000
Class
1070
     4
1000
SYM
1002
{
1002
}
1000
Color
1070
     1
1070
     2
1002
{
1002
}
1000
LType
1070
     4
1000
CONTINUOUS
1002
{
1002
}
1002
}
1000
PSEC
1070
     9
1000
4A
1002
{
1000
Class
1070
     4
1000

1002
{
1002
}
1000
Color
1070
     1
1070
   256
1002
{
1002
}
1000
LType
1070
     4
1000
BYLAYER
1002
{
1002
}
1002
}
1000
RCGN
1070
     9
1000
7A
1002
{
1000
Class
1070
     4
1000
CEN
1002
{
1002
}
1000
Color
1070
     1
1070
   256
1002
{
1002
}
1000
LType
1070
     4
1000
BYLAYER
1002
{
1002
}
1002
}
1000
RCGW
1070
     9
1000
7
1002
{
1000
Class
1070
     4
1000
CEN
1002
{
1002
}
1000
Color
1070
     1
1070
   256
1002
{
1002
}
1000
LType
1070
     4
1000
BYLAYER
1002
{
1002
}
1002
}
1000
RFDI
1070
     9
1000
4
1002
{
1000
Class
1070
     4
1000
BGD
1002
{
1002
}
1000
Color
1070
     1
1070
   256
1002
{
1002
}
1000
LType
1070
     4
1000
BYLAYER
1002
{
1002
}
1002
}
1000
RQTR
1070
     9
1000
4
1002
{
1000
Class
1070
     4
1000

1002
{
1002
}
1000
Color
1070
     1
1070
     7
1002
{
1002
}
1000
LType
1070
     4
1000
GEN7A
1002
{
1002
}
1002
}
1000
RSBO
1070
     9
1000
4
1002
{
1000
Class
1070
     4
1000
BGD
1002
{
1002
}
1000
Color
1070
     1
1070
   256
1002
{
1002
}
1000
LType
1070
     4
1000
BYLAYER
1002
{
1002
}
1002
}
1000
SBRK
1070
     9
1000
4
1002
{
1000
Class
1070
     4
1000
BGD
1002
{
1002
}
1000
Color
1070
     1
1070
   256
1002
{
1002
}
1000
LType
1070
     4
1000
BYLAYER
1002
{
1002
}
1002
}
1000
SCEN
1070
     9
1000
7
1002
{
1000
Class
1070
     4
1000

1002
{
1002
}
1000
Color
1070
     1
1070
   256
1002
{
1002
}
1000
LType
1070
     4
1000
CONTINUOUS
1002
{
1002
}
1002
}
1000
SECT
1070
     9
1000
4
1002
{
1000
Class
1070
     4
1000
BGD
1002
{
1002
}
1000
Color
1070
     1
1070
   256
1002
{
1002
}
1000
LType
1070
     4
1000
BYLAYER
1002
{
1002
}
1002
}
1000
SELN
1070
     9
1000
7A
1002
{
1000
Class
1070
     4
1000

1002
{
1002
}
1000
Color
1070
     1
1070
   256
1002
{
1002
}
1000
LType
1070
     4
1000
BYLAYER
1002
{
1002
}
1002
}
1000
SELW
1070
     9
1000
7
1002
{
1000
Class
1070
     4
1000

1002
{
1002
}
1000
Color
1070
     1
1070
   256
1002
{
1002
}
1000
LType
1070
     4
1000
BYLAYER
1002
{
1002
}
1002
}
1000
SSYS
1070
     9
1000
0
1002
{
1000
Class
1070
     4
1000

1002
{
1002
}
1000
Color
1070
     1
1070
   256
1002
{
1002
}
1000
LType
1070
     4
1000
BYLAYER
1002
{
1002
}
1002
}
1000
STLI
1070
     9
1000
4
1002
{
1000
Class
1070
     4
1000

1002
{
1002
}
1000
Color
1070
     1
1070
     7
1002
{
1002
}
1000
LType
1070
     4
1000
GEN3A
1002
{
1002
}
1002
}
1000
SYB1
1070
     9
1000
5
1002
{
1000
Class
1070
     4
1000
SYM
1002
{
1002
}
1000
Color
1070
     1
1070
   256
1002
{
1002
}
1000
LType
1070
     4
1000
BYLAYER
1002
{
1002
}
1002
}
1000
SYB2
1070
     9
1000
5
1002
{
1000
Class
1070
     4
1000
SYM
1002
{
1002
}
1000
Color
1070
     1
1070
   256
1002
{
1002
}
1000
LType
1070
     4
1000
BYLAYER
1002
{
1002
}
1002
}
1000
SYB3
1070
     9
1000
6
1002
{
1000
Class
1070
     4
1000
SYM
1002
{
1002
}
1000
Color
1070
     1
1070
   256
1002
{
1002
}
1000
LType
1070
     4
1000
CONTINUOUS
1002
{
1002
}
1002
}
1000
SYB5
1070
     9
1000
5
1002
{
1000
Class
1070
     4
1000
SYM
1002
{
1002
}
1000
Color
1070
     1
1070
     7
1002
{
1002
}
1000
LType
1070
     4
1000
BYLAYER
1002
{
1002
}
1002
}
1000
SYMN
1070
     9
1000
7A
1002
{
1000
Class
1070
     4
1000
CEN
1002
{
1002
}
1000
Color
1070
     1
1070
   256
1002
{
1002
}
1000
LType
1070
     4
1000
BYLAYER
1002
{
1002
}
1002
}
1000
SYMW
1070
     9
1000
7
1002
{
1000
Class
1070
     4
1000
CEN
1002
{
1002
}
1000
Color
1070
     1
1070
   256
1002
{
1002
}
1000
LType
1070
     4
1000
BYLAYER
1002
{
1002
}
1002
}
1000
TCON
1070
     9
1000
0
1002
{
1000
Class
1070
     4
1000
CON,BGD
1002
{
1002
}
1000
Color
1070
     1
1070
   256
1002
{
1002
}
1000
LType
1070
     4
1000
BYLAYER
1002
{
1002
}
1002
}
1000
THLI
1070
     9
1000
4
1002
{
1000
Class
1070
     4
1000
BGD
1002
{
1002
}
1000
Color
1070
     1
1070
   256
1002
{
1002
}
1000
LType
1070
     4
1000
BYLAYER
1002
{
1002
}
1002
}
1000
TIT2
1070
     9
1000
RAHM2
1002
{
1000
Class
1070
     4
1000
SPZ,SYM
1002
{
1002
}
1000
Color
1070
     1
1070
   256
1002
{
1002
}
1000
LType
1070
     4
1000
BYLAYER
1002
{
1002
}
1002
}
1000
TIT3
1070
     9
1000
RAHM3
1002
{
1000
Class
1070
     4
1000
SPZ,SYM
1002
{
1002
}
1000
Color
1070
     1
1070
   256
1002
{
1002
}
1000
LType
1070
     4
1000
BYLAYER
1002
{
1002
}
1002
}
1000
TIT5
1070
     9
1000
RAHM5
1002
{
1000
Class
1070
     4
1000
SPZ,SYM
1002
{
1002
}
1000
Color
1070
     1
1070
   256
1002
{
1002
}
1000
LType
1070
     4
1000
BYLAYER
1002
{
1002
}
1002
}
1000
TIT7
1070
     9
1000
RAHM5
1002
{
1000
Class
1070
     4
1000
SPZ,SYM
1002
{
1002
}
1000
Color
1070
     1
1070
     7
1002
{
1002
}
1000
LType
1070
     4
1000
CONTINUOUS
1002
{
1002
}
1002
}
1000
TLEN
1070
     9
1000
0
1002
{
1000
Class
1070
     4
1000
CON,BGD
1002
{
1002
}
1000
Color
1070
     1
1070
   256
1002
{
1002
}
1000
LType
1070
     4
1000
BYLAYER
1002
{
1002
}
1002
}
1000
TRKN
1070
     9
1000
7A
1002
{
1000
Class
1070
     4
1000

1002
{
1002
}
1000
Color
1070
     1
1070
   256
1002
{
1002
}
1000
LType
1070
     4
1000
BYLAYER
1002
{
1002
}
1002
}
1000
TRKW
1070
     9
1000
7
1002
{
1000
Class
1070
     4
1000

1002
{
1002
}
1000
Color
1070
     1
1070
   256
1002
{
1002
}
1000
LType
1070
     4
1000
BYLAYER
1002
{
1002
}
1002
}
1000
TRLI
1070
     9
1000
4
1002
{
1000
Class
1070
     4
1000
BGD
1002
{
1002
}
1000
Color
1070
     1
1070
   256
1002
{
1002
}
1000
LType
1070
     4
1000
BYLAYER
1002
{
1002
}
1002
}
1000
TXT1
1070
     9
1000
6
1002
{
1000
Class
1070
     4
1000
SYM
1002
{
1002
}
1000
Color
1070
     1
1070
     2
1002
{
1002
}
1000
LType
1070
     4
1000
BYLAYER
1002
{
1002
}
1002
}
1000
TXT2
1070
     9
1000
6
1002
{
1000
Class
1070
     4
1000
SYM
1002
{
1002
}
1000
Color
1070
     1
1070
     2
1002
{
1002
}
1000
LType
1070
     4
1000
BYLAYER
1002
{
1002
}
1002
}
1000
TXT3
1070
     9
1000
6
1002
{
1000
Class
1070
     4
1000
SYM
1002
{
1002
}
1000
Color
1070
     1
1070
   256
1002
{
1002
}
1000
LType
1070
     4
1000
BYLAYER
1002
{
1002
}
1002
}
1000
TXT5
1070
     9
1000
6
1002
{
1000
Class
1070
     4
1000
SYM
1002
{
1002
}
1000
Color
1070
     1
1070
     7
1002
{
1002
}
1000
LType
1070
     4
1000
BYLAYER
1002
{
1002
}
1002
}
1000
TXT7
1070
     9
1000
6
1002
{
1000
Class
1070
     4
1000
SYM
1002
{
1002
}
1000
Color
1070
     1
1070
     7
1002
{
1002
}
1000
LType
1070
     4
1000
BYLAYER
1002
{
1002
}
1002
}
1000
VIEW
1070
     9
1000
VIEW
1002
{
1000
Class
1070
     4
1000
SPZ
1002
{
1002
}
1000
Color
1070
     1
1070
   256
1002
{
1002
}
1000
LType
1070
     4
1000
BYLAYER
1002
{
1002
}
1002
}
1000
VPLI
1070
     9
1000
2A
1002
{
1000
Class
1070
     4
1000

1002
{
1002
}
1000
Color
1070
     1
1070
   256
1002
{
1002
}
1000
LType
1070
     4
1000
BYLAYER
1002
{
1002
}
1002
}
1000
ZIZA
1070
     9
1000
4
1002
{
1000
Class
1070
     4
1000
BGD
1002
{
1002
}
1000
Color
1070
     1
1070
   256
1002
{
1002
}
1000
LType
1070
     4
1000
GENZIGZAG
1002
{
1002
}
1002
}
  0
APPID
  5
2D
330
9
100
AcDbSymbolTableRecord
100
AcDbRegAppTableRecord
  2
GENIUS_GENCFG3_13
 70
     0
1001
GENIUS_GENCFG_13
1071
862825278
1000
2D
1000
GEN@OSWIZ
1070
    12
1000
GenCfgObject
1000
GenCfgShort
1000
GenCfgReal
1000
GenCfgBool
1000
GenCfgString
1000
GenCfgDim
1000
GenCfgAttrInf
1000
GenCfgLaySection
1000
GenCfgLayer
1000
GenCfgEntSort
1000
GenCfgLType
1000
GenCfgFilter
1000
AngleStep
1070
     0
1002
{
1000
M
1070
     2
1040
10.0
1002
{
1002
}
1000
I
1070
     2
1040
0.4
1002
{
1002
}
1002
}
1000
AngleIncr
1070
     2
1040
45.0
1002
{
1002
}
1000
Filter
1070
     0
1002
{
1000
HATCH
1070
    11
1002
{
1000
EntityType
1070
     4
1000
LINE
1002
{
1002
}
1000
Layer
1070
     4
1000
8,8N,*-8,*-8N
1002
{
1002
}
1000
Linetype
1070
     4
1000
*
1002
{
1002
}
1000
Color
1070
     4
1000
*
1002
{
1002
}
1002
}
1000
SYMBOLS
1070
    11
1002
{
1000
EntityType
1070
     4
1000
*
1002
{
1002
}
1000
Layer
1070
     4
1000
[5-6],[5-6]N,*-[5-6],*-[5-6]N
1002
{
1002
}
1000
Linetype
1070
     4
1000
*
1002
{
1002
}
1000
Color
1070
     4
1000
*
1002
{
1002
}
1002
}
1000
FEM
1070
    11
1002
{
1000
EntityType
1070
     4
1000
*
1002
{
1002
}
1000
Layer
1070
     4
1000
4A,4AN,*-4A,*-4AN
1002
{
1002
}
1000
Linetype
1070
     4
1000
*
1002
{
1002
}
1000
Color
1070
     4
1000
*
1002
{
1002
}
1002
}
1002
}
1000
IconSize
1070
     2
1040
1.0
1002
{
1002
}
1000
SnapColor
1070
     1
1070
     3
1002
{
1002
}
  0
APPID
  5
2E
330
9
100
AcDbSymbolTableRecord
100
AcDbRegAppTableRecord
  2
GENIUS_GENCFG4_13
 70
     0
1001
GENIUS_GENCFG_13
1071
886518850
1000
2E
1000
GEN
1070
     9
1000
GenCfgObject
1000
GenCfgShort
1000
GenCfgReal
1000
GenCfgBool
1000
GenCfgString
1000
GenCfgDim
1000
GenCfgAttrInf
1000
GenCfgLaySection
1000
GenCfgLType
1000
Balloon
1070
     0
1002
{
1000
GenIF
1070
     1
1070
     0
1002
{
1002
}
1000
GenPosInc
1070
     1
1070
    10
1002
{
1002
}
1000
GenPosBlk
1070
     1
1070
     8
1002
{
1002
}
1000
GenPosVar
1070
     1
1070
     2
1002
{
1002
}
1000
GenZiCir
1070
     2
1040
1.5
1002
{
1002
}
1000
MaxCharForCenteredText
1070
     1
1070
    30
1002
{
1002
}
1000
Snap
1070
     0
1002
{
1000
ActivationRadius
1070
     2
1040
1.0
1002
{
1002
}
1000
M
1070
     0
1002
{
1000
SnapStepX
1070
     2
1040
20.0
1002
{
1002
}
1000
SnapStepY
1070
     2
1040
10.0
1002
{
1002
}
1002
}
1000
I
1070
     0
1002
{
1000
SnapStepX
1070
     2
1040
1.0
1002
{
1002
}
1000
SnapStepY
1070
     2
1040
0.5
1002
{
1002
}
1002
}
1002
}
1002
}
1000
Centerline
1070
     0
1002
{
1000
ScaleNot
1070
     3
1070
     1
1002
{
1002
}
1000
M
1070
     0
1002
{
1000
GenCenAng
1070
     4
1000
45|90|135
1002
{
1002
}
1000
GenCenDia
1070
     2
1040
10.0
1002
{
1002
}
1000
GenCenDias
1070
     4
1000
10|20|30
1002
{
1002
}
1000
GenCenDist
1070
     2
1040
3.0
1002
{
1002
}
1000
GenCenLen
1070
     2
1040
10.0
1002
{
1002
}
1000
GenCenOff
1070
     2
1040
10.0
1002
{
1002
}
1002
}
1000
I
1070
     0
1002
{
1000
GenCenAng
1070
     4
1000
45|90|135
1002
{
1002
}
1000
GenCenDia
1070
     2
1040
0.5
1002
{
1002
}
1000
GenCenDias
1070
     4
1000
0.5|1.0|1.5
1002
{
1002
}
1000
GenCenDist
1070
     2
1040
0.125
1002
{
1002
}
1000
GenCenLen
1070
     2
1040
0.5
1002
{
1002
}
1000
GenCenOff
1070
     2
1040
0.5
1002
{
1002
}
1002
}
1002
}
1000
CLine
1070
     0
1002
{
1000
CAngArray
1070
     4
1000
30|45|60
1002
{
1002
}
1000
Typ
1070
     4
1000
XLINE
1002
{
1002
}
1000
M
1070
     0
1002
{
1000
CLinArray
1070
     4
1000
60
1002
{
1002
}
1002
}
1000
I
1070
     0
1002
{
1000
CLinArray
1070
     4
1000
0.125|0.25|0.5
1002
{
1002
}
1002
}
1002
}
1000
Constraints
1070
     0
1002
{
1000
Color
1070
     0
1002
{
1000
Active_Frame
1070
     1
1070
     2
1002
{
1002
}
1000
Inactive_Frame
1070
     1
1070
     8
1002
{
1002
}
1002
}
1000
Debug
1070
     0
1002
{
1002
}
1000
Editor
1070
     0
1002
{
1002
}
1000
Frame
1070
     0
1002
{
1002
}
1000
Sys
1070
     0
1002
{
1002
}
1002
}
1000
Detail
1070
     0
1002
{
1002
}
1000
Dimension
1070
     5
1002
{
1000
DIMALT
1070
     1
1070
     0
1002
{
1002
}
1000
DIMALTD
1070
     1
1070
     2
1002
{
1002
}
1000
DIMALTTD
1070
     1
1070
     4
1002
{
1002
}
1000
DIMALTTZ
1070
     1
1070
     0
1002
{
1002
}
1000
DIMALTU
1070
     1
1070
     2
1002
{
1002
}
1000
DIMALTZ
1070
     1
1070
     0
1002
{
1002
}
1000
DIMAPOST
1070
     4
1000

1002
{
1002
}
1000
DIMAUNIT
1070
     1
1070
     0
1002
{
1002
}
1000
DIMBLK
1070
     4
1000

1002
{
1002
}
1000
DIMBLK1
1070
     4
1000

1002
{
1002
}
1000
DIMBLK2
1070
     4
1000

1002
{
1002
}
1000
DIMDLE
1070
     2
1040
0.0
1002
{
1002
}
1000
DIMFIT
1070
     1
1070
     3
1002
{
1002
}
1000
DIMJUST
1070
     1
1070
     0
1002
{
1002
}
1000
DIMLFAC
1070
     2
1040
1.0
1002
{
1002
}
1000
DIMLIM
1070
     1
1070
     0
1002
{
1002
}
1000
DIMPOST
1070
     4
1000
<>
1002
{
1002
}
1000
DIMRND
1070
     2
1040
0.0
1002
{
1002
}
1000
DIMSAH
1070
     1
1070
     0
1002
{
1002
}
1000
DIMSCALE
1070
     2
1040
1.0
1002
{
1002
}
1000
DIMSD1
1070
     1
1070
     0
1002
{
1002
}
1000
DIMSD2
1070
     1
1070
     0
1002
{
1002
}
1000
DIMSE1
1070
     1
1070
     0
1002
{
1002
}
1000
DIMSE2
1070
     1
1070
     0
1002
{
1002
}
1000
DIMSOXD
1070
     1
1070
     0
1002
{
1002
}
1000
DIMTAD
1070
     1
1070
     0
1002
{
1002
}
1000
DIMTFAC
1070
     2
1040
0.71
1002
{
1002
}
1000
DIMTIH
1070
     1
1070
     0
1002
{
1002
}
1000
DIMTIX
1070
     1
1070
     0
1002
{
1002
}
1000
DIMTM
1070
     2
1040
0.1
1002
{
1002
}
1000
DIMTOFL
1070
     1
1070
     0
1002
{
1002
}
1000
DIMTOH
1070
     1
1070
     0
1002
{
1002
}
1000
DIMTOL
1070
     1
1070
     0
1002
{
1002
}
1000
DIMTOLJ
1070
     1
1070
     1
1002
{
1002
}
1000
DIMTP
1070
     2
1040
0.1
1002
{
1002
}
1000
DIMTSZ
1070
     2
1040
0.0
1002
{
1002
}
1000
DIMTVP
1070
     2
1040
0.0
1002
{
1002
}
1000
DIMTXSTY
1070
     4
1000
STANDARD
1002
{
1002
}
1000
DIMTZIN
1070
     1
1070
     0
1002
{
1002
}
1000
DIMUNIT
1070
     1
1070
     2
1002
{
1002
}
1000
DIMUPT
1070
     1
1070
     0
1002
{
1002
}
1000
M
1070
     0
1002
{
1000
DIMALTF
1070
     2
1040
0.0393701
1002
{
1002
}
1000
DIMASZ
1070
     2
1040
2.5
1002
{
1002
}
1000
DIMCEN
1070
     2
1040
0.0
1002
{
1002
}
1000
DIMDEC
1070
     1
1070
     2
1002
{
1002
}
1000
DIMDLI
1070
     2
1040
7.0
1002
{
1002
}
1000
DIMEXE
1070
     2
1040
1.0
1002
{
1002
}
1000
DIMEXO
1070
     2
1040
1.0
1002
{
1002
}
1000
DIMGAP
1070
     2
1040
0.6
1002
{
1002
}
1000
DIMTDEC
1070
     1
1070
     3
1002
{
1002
}
1000
DIMTXT
1070
     2
1040
3.5
1002
{
1002
}
1000
DIMZIN
1070
     1
1070
     8
1002
{
1002
}
1002
}
1000
I
1070
     0
1002
{
1000
DIMALTF
1070
     2
1040
25.4
1002
{
1002
}
1000
DIMASZ
1070
     2
1040
0.1
1002
{
1002
}
1000
DIMCEN
1070
     2
1040
0.0
1002
{
1002
}
1000
DIMDEC
1070
     1
1070
     4
1002
{
1002
}
1000
DIMDLI
1070
     2
1040
0.5
1002
{
1002
}
1000
DIMEXE
1070
     2
1040
0.1
1002
{
1002
}
1000
DIMEXO
1070
     2
1040
0.05
1002
{
1002
}
1000
DIMGAP
1070
     2
1040
0.06
1002
{
1002
}
1000
DIMTDEC
1070
     1
1070
     4
1002
{
1002
}
1000
DIMTXT
1070
     2
1040
0.12
1002
{
1002
}
1000
DIMZIN
1070
     1
1070
     7
1002
{
1002
}
1002
}
1000
GEN-ISO
1070
     5
1002
{
1000
NAME
1070
     4
1000
GEN-ISO
1002
{
1002
}
1000
DIMTAD
1070
     1
1070
     1
1002
{
1002
}
1000
DIMTOLJ
1070
     1
1070
     0
1002
{
1002
}
1000
DIMTOFL
1070
     1
1070
     1
1002
{
1002
}
1000
M
1070
     0
1002
{
1002
}
1000
I
1070
     0
1002
{
1002
}
1002
}
1000
GEN-ISO-POS
1070
     5
1002
{
1000
NAME
1070
     4
1000
GEN-ISO-POS
1002
{
1002
}
1000
DIMTOLJ
1070
     1
1070
     0
1002
{
1002
}
1000
M
1070
     0
1002
{
1000
DIMASZ
1070
     2
1040
2.5
1002
{
1002
}
1000
DIMGAP
1070
     2
1040
1.5
1002
{
1002
}
1000
DIMTXT
1070
     2
1040
5.0
1002
{
1002
}
1002
}
1000
I
1070
     0
1002
{
1000
DIMASZ
1070
     2
1040
0.1
1002
{
1002
}
1000
DIMGAP
1070
     2
1040
0.06
1002
{
1002
}
1000
DIMTXT
1070
     2
1040
0.2
1002
{
1002
}
1002
}
1000
DIMSCALE
1070
     2
1040
1.0
1002
{
1002
}
1002
}
1000
GEN-ISO-CIR
1070
     5
1002
{
1000
NAME
1070
     4
1000
GEN-ISO$3
1002
{
1002
}
1000
DIMFIT
1070
     1
1070
     0
1002
{
1002
}
1000
DIMTAD
1070
     1
1070
     1
1002
{
1002
}
1000
DIMTIH
1070
     1
1070
     0
1002
{
1002
}
1000
DIMTIX
1070
     1
1070
     0
1002
{
1002
}
1000
DIMTOH
1070
     1
1070
     1
1002
{
1002
}
1000
DIMTOLJ
1070
     1
1070
     0
1002
{
1002
}
1000
DIMTOFL
1070
     1
1070
     0
1002
{
1002
}
1000
DIMUPT
1070
     1
1070
     1
1002
{
1002
}
1000
M
1070
     0
1002
{
1002
}
1000
I
1070
     0
1002
{
1002
}
1002
}
1000
GEN-ISO-RAD
1070
     5
1002
{
1000
NAME
1070
     4
1000
GEN-ISO$4
1002
{
1002
}
1000
DIMFIT
1070
     1
1070
     0
1002
{
1002
}
1000
DIMTAD
1070
     1
1070
     1
1002
{
1002
}
1000
DIMTIH
1070
     1
1070
     0
1002
{
1002
}
1000
DIMTIX
1070
     1
1070
     0
1002
{
1002
}
1000
DIMTOH
1070
     1
1070
     1
1002
{
1002
}
1000
DIMTOLJ
1070
     1
1070
     0
1002
{
1002
}
1000
DIMTOFL
1070
     1
1070
     0
1002
{
1002
}
1000
DIMUPT
1070
     1
1070
     1
1002
{
1002
}
1000
M
1070
     0
1002
{
1002
}
1000
I
1070
     0
1002
{
1002
}
1002
}
1000
GEN-ISO-ORD
1070
     5
1002
{
1000
NAME
1070
     4
1000
GEN-ISO$6
1002
{
1002
}
1000
DIMTOLJ
1070
     1
1070
     0
1002
{
1002
}
1000
M
1070
     0
1002
{
1002
}
1000
I
1070
     0
1002
{
1002
}
1002
}
1000
GEN-ISO-AXE-F
1070
     5
1002
{
1000
NAME
1070
     4
1000
GEN-ISO-AXE-F
1002
{
1002
}
1000
DIMSE1
1070
     1
1070
     1
1002
{
1002
}
1000
DIMSE2
1070
     1
1070
     1
1002
{
1002
}
1000
DIMTAD
1070
     1
1070
     1
1002
{
1002
}
1000
DIMTOLJ
1070
     1
1070
     0
1002
{
1002
}
1000
DIMTOFL
1070
     1
1070
     1
1002
{
1002
}
1000
M
1070
     0
1002
{
1002
}
1000
I
1070
     0
1002
{
1002
}
1002
}
1000
GEN-ISO-AXE-H
1070
     5
1002
{
1000
DIMBLK1
1070
     4
1000
GENAXEH
1002
{
1002
}
1000
DIMLFAC
1070
     2
1040
2.0
1002
{
1002
}
1000
DIMSAH
1070
     1
1070
     1
1002
{
1002
}
1000
DIMSE1
1070
     1
1070
     1
1002
{
1002
}
1000
DIMSE2
1070
     1
1070
     1
1002
{
1002
}
1000
DIMTAD
1070
     1
1070
     1
1002
{
1002
}
1000
DIMTOLJ
1070
     1
1070
     0
1002
{
1002
}
1000
DIMTOFL
1070
     1
1070
     1
1002
{
1002
}
1000
M
1070
     0
1002
{
1002
}
1000
I
1070
     0
1002
{
1002
}
1002
}
1000
GEN-ANSI
1070
     5
1002
{
1000
NAME
1070
     4
1000
GEN-ANSI
1002
{
1002
}
1000
DIMTIH
1070
     1
1070
     1
1002
{
1002
}
1000
DIMTOH
1070
     1
1070
     1
1002
{
1002
}
1000
DIMTAD
1070
     1
1070
     0
1002
{
1002
}
1000
DIMTOLJ
1070
     1
1070
     1
1002
{
1002
}
1000
M
1070
     0
1002
{
1002
}
1000
I
1070
     0
1002
{
1002
}
1002
}
1000
GEN-ANSI-POS
1070
     5
1002
{
1000
NAME
1070
     4
1000
GEN-ANSI-POS
1002
{
1002
}
1000
DIMTOLJ
1070
     1
1070
     1
1002
{
1002
}
1000
M
1070
     0
1002
{
1000
DIMASZ
1070
     2
1040
2.5
1002
{
1002
}
1000
DIMGAP
1070
     2
1040
1.5
1002
{
1002
}
1000
DIMTXT
1070
     2
1040
5.0
1002
{
1002
}
1002
}
1000
I
1070
     0
1002
{
1000
DIMASZ
1070
     2
1040
0.1
1002
{
1002
}
1000
DIMGAP
1070
     2
1040
0.06
1002
{
1002
}
1000
DIMTXT
1070
     2
1040
0.2
1002
{
1002
}
1002
}
1002
}
1000
GEN-ANSI-CIR
1070
     5
1002
{
1000
NAME
1070
     4
1000
GEN-ANSI$3
1002
{
1002
}
1000
DIMFIT
1070
     1
1070
     0
1002
{
1002
}
1000
DIMTAD
1070
     1
1070
     0
1002
{
1002
}
1000
DIMTIH
1070
     1
1070
     1
1002
{
1002
}
1000
DIMTIX
1070
     1
1070
     0
1002
{
1002
}
1000
DIMTOFL
1070
     1
1070
     0
1002
{
1002
}
1000
DIMTOH
1070
     1
1070
     1
1002
{
1002
}
1000
DIMTOLJ
1070
     1
1070
     1
1002
{
1002
}
1000
DIMUPT
1070
     1
1070
     1
1002
{
1002
}
1000
M
1070
     0
1002
{
1002
}
1000
I
1070
     0
1002
{
1002
}
1002
}
1000
GEN-ANSI-RAD
1070
     5
1002
{
1000
NAME
1070
     4
1000
GEN-ANSI$4
1002
{
1002
}
1000
DIMFIT
1070
     1
1070
     0
1002
{
1002
}
1000
DIMTAD
1070
     1
1070
     0
1002
{
1002
}
1000
DIMTIH
1070
     1
1070
     1
1002
{
1002
}
1000
DIMTIX
1070
     1
1070
     0
1002
{
1002
}
1000
DIMTOFL
1070
     1
1070
     0
1002
{
1002
}
1000
DIMTOH
1070
     1
1070
     1
1002
{
1002
}
1000
DIMTOLJ
1070
     1
1070
     1
1002
{
1002
}
1000
DIMUPT
1070
     1
1070
     1
1002
{
1002
}
1000
M
1070
     0
1002
{
1002
}
1000
I
1070
     0
1002
{
1002
}
1002
}
1000
GEN-ANSI-ORD
1070
     5
1002
{
1000
NAME
1070
     4
1000
GEN-ANSI$6
1002
{
1002
}
1000
DIMTAD
1070
     1
1070
     0
1002
{
1002
}
1000
DIMTIH
1070
     1
1070
     1
1002
{
1002
}
1000
DIMTOH
1070
     1
1070
     1
1002
{
1002
}
1000
DIMTOLJ
1070
     1
1070
     1
1002
{
1002
}
1000
M
1070
     0
1002
{
1002
}
1000
I
1070
     0
1002
{
1002
}
1002
}
1000
GEN-ANSI-AXE-F
1070
     5
1002
{
1000
NAME
1070
     4
1000
GEN-ANSI-AXE-F
1002
{
1002
}
1000
DIMBLK1
1070
     4
1000
GENAXEH
1002
{
1002
}
1000
DIMSAH
1070
     1
1070
     1
1002
{
1002
}
1000
DIMSE1
1070
     1
1070
     1
1002
{
1002
}
1000
DIMSE2
1070
     1
1070
     1
1002
{
1002
}
1000
DIMTAD
1070
     1
1070
     0
1002
{
1002
}
1000
DIMTIH
1070
     1
1070
     1
1002
{
1002
}
1000
DIMTOH
1070
     1
1070
     1
1002
{
1002
}
1000
DIMTOLJ
1070
     1
1070
     1
1002
{
1002
}
1000
M
1070
     0
1002
{
1002
}
1000
I
1070
     0
1002
{
1002
}
1002
}
1000
GEN-ANSI-AXE-H
1070
     5
1002
{
1000
NAME
1070
     4
1000
GEN-ANSI-AXE-H
1002
{
1002
}
1000
DIMBLK1
1070
     4
1000
GENAXEH
1002
{
1002
}
1000
DIMLFAC
1070
     2
1040
2.0
1002
{
1002
}
1000
DIMSAH
1070
     1
1070
     1
1002
{
1002
}
1000
DIMSE1
1070
     1
1070
     1
1002
{
1002
}
1000
DIMSE2
1070
     1
1070
     1
1002
{
1002
}
1000
DIMTAD
1070
     1
1070
     0
1002
{
1002
}
1000
DIMTOFL
1070
     1
1070
     1
1002
{
1002
}
1000
DIMTOLJ
1070
     1
1070
     1
1002
{
1002
}
1000
M
1070
     0
1002
{
1002
}
1000
I
1070
     0
1002
{
1002
}
1002
}
1000
DIMZIN
1070
     1
1070
     8
1002
{
1002
}
1002
}
1000
DimSet
1070
     0
1002
{
1000
ChainSum
1070
     3
1070
     0
1002
{
1002
}
1000
DimDclTyp0
1070
     4
1000
dim23
1002
{
1002
}
1000
HorBra
1070
     3
1070
     0
1002
{
1002
}
1000
StrDia
1070
     4
1000
%%c<>
1002
{
1002
}
1000
StrRad
1070
     4
1000
R<>
1002
{
1002
}
1000
TextMinus
1070
     4
1000
<>
1002
{
1002
}
1000
TextPlus
1070
     4
1000
<>
1002
{
1002
}
1000
M
1070
     0
1002
{
1000
DimdliFirst
1070
     2
1040
10.0
1002
{
1002
}
1000
PointMakeDist
1070
     2
1040
10.0
1002
{
1002
}
1002
}
1000
I
1070
     0
1002
{
1000
DimdliFirst
1070
     2
1040
0.5
1002
{
1002
}
1000
PointMakeDist
1070
     2
1040
0.5
1002
{
1002
}
1002
}
1002
}
1000
Drawing
1070
     0
1002
{
1000
ChamferDimMode
1070
     1
1070
     2
1002
{
1002
}
1000
Gen_Fiso
1070
    -3
1040
1.0
1002
{
1002
}
1000
GenDimStil
1070
     4
1000
ISO
1002
{
1002
}
1000
GenDwgUScale
1070
     2
1040
1.0
1002
{
1002
}
1000
GenInch
1070
     4
1000
M
1002
{
1002
}
1000
GenPlotScale
1070
     4
1000
1:1
1002
{
1002
}
1000
Revisi
1070
     4
1000
0
1002
{
1002
}
1000
Version
1070
    -5
1000
13.1/May  9 1996
1002
{
1002
}
1000
Platform
1070
    -5
1000
WINNT
1002
{
1002
}
1002
}
1000
DwgVar
1070
     0
1002
{
1000
M
1070
     0
1002
{
1002
}
1000
I
1070
     0
1002
{
1002
}
1002
}
1000
Hatch
1070
     0
1002
{
1000
GenHtcFlag
1070
     3
1070
     0
1002
{
1002
}
1002
}
1000
Info_Pos
1070
     0
1002
{
1000
DescrText
1070
     4
1000
5,6,7,8
1002
{
1002
}
1000
Attrib
1070
     0
1002
{
1000
0
1070
     6
1002
{
1000
Prompt
1070
     4
1000
(genmsg gendwg 103)
1002
{
1002
}
1000
Value
1070
     4
1000

1002
{
1002
}
1000
EditFlag
1070
     1
1070
     0
1002
{
1002
}
1002
}
1000
1
1070
     6
1002
{
1000
Prompt
1070
     4
1000
(genmsg gendwg 31)
1002
{
1002
}
1000
Value
1070
     4
1000
1
1002
{
1002
}
1000
EditFlag
1070
     1
1070
     1
1002
{
1002
}
1002
}
1000
2
1070
     6
1002
{
1000
Prompt
1070
     4
1000
(genmsg gendwg 32)
1002
{
1002
}
1000
Value
1070
     4
1000
1
1002
{
1002
}
1000
EditFlag
1070
     1
1070
     1
1002
{
1002
}
1002
}
1000
3
1070
     6
1002
{
1000
Prompt
1070
     4
1000
(genmsg gendwg 33)
1002
{
1002
}
1000
Value
1070
     4
1000

1002
{
1002
}
1000
EditFlag
1070
     1
1070
     1
1002
{
1002
}
1002
}
1000
4
1070
     6
1002
{
1000
Prompt
1070
     4
1000
(genmsg gendwg 34)
1002
{
1002
}
1000
Value
1070
     4
1000

1002
{
1002
}
1000
EditFlag
1070
     1
1070
     1
1002
{
1002
}
1002
}
1000
5
1070
     6
1002
{
1000
Prompt
1070
     4
1000
(genmsg gendwg 35)
1002
{
1002
}
1000
Value
1070
     4
1000

1002
{
1002
}
1000
EditFlag
1070
     1
1070
     1
1002
{
1002
}
1002
}
1000
6
1070
     6
1002
{
1000
Prompt
1070
     4
1000
(genmsg gendwg 36)
1002
{
1002
}
1000
Value
1070
     4
1000

1002
{
1002
}
1000
EditFlag
1070
     1
1070
     1
1002
{
1002
}
1002
}
1000
7
1070
     6
1002
{
1000
Prompt
1070
     4
1000
(genmsg gendwg 37)
1002
{
1002
}
1000
Value
1070
     4
1000

1002
{
1002
}
1000
EditFlag
1070
     1
1070
     1
1002
{
1002
}
1002
}
1000
8
1070
     6
1002
{
1000
Prompt
1070
     4
1000
(genmsg gendwg 38)
1002
{
1002
}
1000
Value
1070
     4
1000

1002
{
1002
}
1000
EditFlag
1070
     1
1070
     1
1002
{
1002
}
1002
}
1000
9
1070
     6
1002
{
1000
Prompt
1070
     4
1000
(genmsg gendwg 39)
1002
{
1002
}
1000
Value
1070
     4
1000

1002
{
1002
}
1000
EditFlag
1070
     1
1070
     1
1002
{
1002
}
1002
}
1000
10
1070
     6
1002
{
1000
Prompt
1070
     4
1000
(genmsg gendwg 40)
1002
{
1002
}
1000
Value
1070
     4
1000

1002
{
1002
}
1000
EditFlag
1070
     1
1070
     1
1002
{
1002
}
1002
}
1000
11
1070
     6
1002
{
1000
Prompt
1070
     4
1000
(genmsg gendwg 41)
1002
{
1002
}
1000
Value
1070
     4
1000

1002
{
1002
}
1000
EditFlag
1070
     1
1070
     1
1002
{
1002
}
1002
}
1000
12
1070
     6
1002
{
1000
Prompt
1070
     4
1000
(genmsg gendwg 42)
1002
{
1002
}
1000
Value
1070
     4
1000

1002
{
1002
}
1000
EditFlag
1070
     1
1070
     1
1002
{
1002
}
1002
}
1000
13
1070
     6
1002
{
1000
Prompt
1070
     4
1000
(genmsg gendwg 43)
1002
{
1002
}
1000
Value
1070
     4
1000

1002
{
1002
}
1000
EditFlag
1070
     1
1070
     1
1002
{
1002
}
1002
}
1000
14
1070
     6
1002
{
1000
Prompt
1070
     4
1000
(genmsg gendwg 44)
1002
{
1002
}
1000
Value
1070
     4
1000

1002
{
1002
}
1000
EditFlag
1070
     1
1070
     1
1002
{
1002
}
1002
}
1000
15
1070
     6
1002
{
1000
Prompt
1070
     4
1000
(genmsg gendwg 45)
1002
{
1002
}
1000
Value
1070
     4
1000

1002
{
1002
}
1000
EditFlag
1070
     1
1070
     1
1002
{
1002
}
1002
}
1000
16
1070
     6
1002
{
1000
Prompt
1070
     4
1000
(genmsg gendwg 46)
1002
{
1002
}
1000
Value
1070
     4
1000

1002
{
1002
}
1000
EditFlag
1070
     1
1070
     1
1002
{
1002
}
1002
}
1000
17
1070
     6
1002
{
1000
Prompt
1070
     4
1000
(genmsg gendwg 47)
1002
{
1002
}
1000
Value
1070
     4
1000

1002
{
1002
}
1000
EditFlag
1070
     1
1070
     1
1002
{
1002
}
1002
}
1000
18
1070
     6
1002
{
1000
Prompt
1070
     4
1000
(genmsg gendwg 48)
1002
{
1002
}
1000
Value
1070
     4
1000

1002
{
1002
}
1000
EditFlag
1070
     1
1070
     1
1002
{
1002
}
1002
}
1000
19
1070
     6
1002
{
1000
Prompt
1070
     4
1000
(genmsg gendwg 99)
1002
{
1002
}
1000
Value
1070
     4
1000

1002
{
1002
}
1000
EditFlag
1070
     1
1070
     1
1002
{
1002
}
1002
}
1000
20
1070
     6
1002
{
1000
Prompt
1070
     4
1000
(genmsg gendwg 100)
1002
{
1002
}
1000
Value
1070
     4
1000

1002
{
1002
}
1000
EditFlag
1070
     1
1070
     1
1002
{
1002
}
1002
}
1000
21
1070
     6
1002
{
1000
Prompt
1070
     4
1000
(genmsg gendwg 101)
1002
{
1002
}
1000
Value
1070
     4
1000

1002
{
1002
}
1000
EditFlag
1070
     1
1070
     1
1002
{
1002
}
1002
}
1000
22
1070
     6
1002
{
1000
Prompt
1070
     4
1000
(genmsg gendwg 102)
1002
{
1002
}
1000
Value
1070
     4
1000

1002
{
1002
}
1000
EditFlag
1070
     1
1070
     1
1002
{
1002
}
1002
}
1000
23
1070
     6
1002
{
1000
Prompt
1070
     4
1000
(genmsg gendwg 30)
1002
{
1002
}
1000
Value
1070
     4
1000

1002
{
1002
}
1000
EditFlag
1070
     1
1070
     1
1002
{
1002
}
1002
}
1000
24
1070
     6
1002
{
1000
Prompt
1070
     4
1000
(genmsg gendwg 104)
1002
{
1002
}
1000
Value
1070
     4
1000

1002
{
1002
}
1000
EditFlag
1070
     1
1070
     1
1002
{
1002
}
1002
}
1002
}
1000
Xlate
1070
     0
1002
{
1000
>
1002
}
1002
}
1000
Layer
1070
     7
1002
{
1000
Defs
1070
     0
1002
{
1000
>
1002
}
1000
EntSort
1070
     0
1002
{
1000
>
1002
}
1000
Match
1070
     0
1002
{
1002
}
1000
Settings
1070
     0
1002
{
1000
FocGrNC
1070
     3
1070
     0
1002
{
1002
}
1000
FocGrLo
1070
     3
1070
     0
1002
{
1002
}
1000
FocLoNC
1070
     3
1070
     0
1002
{
1002
}
1000
FocusCol
1070
     1
1070
   253
1002
{
1002
}
1000
GenStdLG
1070
     4
1000

1002
{
1002
}
1000
LayMatch
1070
     3
1070
     0
1002
{
1002
}
1000
LgOff
1070
     3
1070
     0
1002
{
1002
}
1000
CurLG
1070
    -5
1000

1002
{
1002
}
1002
}
1002
}
1000
LType
1070
     0
1002
{
1000
GEN3
1070
     8
1000
genius.lin
1002
{
1002
}
1000
GEN7
1070
     8
1000
genius.lin
1002
{
1002
}
1000
GEN4A
1070
     8
1000
genius.lin
1002
{
1002
}
1000
GEN3A
1070
     8
1000
genius.lin
1002
{
1002
}
1000
GEN7A
1070
     8
1000
genius.lin
1002
{
1002
}
1000
GENZIGZAG
1070
     8
1000
genius.lin
1002
{
1002
}
1002
}
1000
Objecter
1070
     0
1002
{
1000
CreateGroups
1070
     3
1070
     0
1002
{
1002
}
1000
LaySwitch
1070
     3
1070
     1
1002
{
1002
}
1000
LastObj
1070
    -5
1000
449
1002
{
1002
}
1002
}
1000
OSWiz
1070
     0
1002
{
1000
>
1002
}
1000
PaList
1070
     0
1002
{
1000
AutoUpdatePartList
1070
     3
1070
     0
1002
{
1002
}
1000
ReadInfoPoint
1070
     3
1070
     0
1002
{
1002
}
1000
ReadPosNr
1070
     3
1070
     1
1002
{
1002
}
1000
RevStr
1070
     4
1000
0
1002
{
1002
}
1002
}
1000
Paper
1070
     0
1002
{
1002
}
1000
PartDB
1070
     0
1002
{
1000
GenDbOwner
1070
     4
1000

1002
{
1002
}
1002
}
1000
System
1070
     0
1002
{
1000
Menu
1070
     4
1000
GEV
1002
{
1002
}
1002
}
1000
Title
1070
     0
1002
{
1000
MakeView
1070
     1
1070
     2
1002
{
1002
}
1002
}
  0
APPID
  5
2F
330
9
100
AcDbSymbolTableRecord
100
AcDbRegAppTableRecord
  2
GENIUS_GEVCFG0_13
 70
     0
1001
GENIUS_GENCFG_13
1071
862825278
1000
2F
1000
GEV
1070
     1
1000
GenCfgObject
1000
System
1070
     0
1002
{
1002
}
1000
VED
1070
     0
1002
{
1002
}
  0
APPID
  5
33
330
9
100
AcDbSymbolTableRecord
100
AcDbRegAppTableRecord
  2
GENIUS_GEFCFG0_13
 70
     0
1001
GENIUS_GENCFG_13
1071
886518783
1000
33
1000
GEF
1070
     5
1000
GenCfgObject
1000
GenCfgString
1000
GenCfgReal
1000
GenCfgShort
1000
GenCfgBool
1000
System
1070
     0
1002
{
1002
}
1000
Prese
1070
     0
1002
{
1000
Funk
1070
     1
1000

1002
{
1002
}
1000
FunkDef
1070
     1
1000

1002
{
1002
}
1000
GefIso
1070
     1
1000
DIN
1002
{
1002
}
1002
}
1000
FEM
1070
     0
1002
{
1000
LayGroup
1070
     1
1000
FEM
1002
{
1002
}
1000
IncrCoef
1070
     2
1040
0.0
1002
{
1002
}
1002
}
1000
Shaft
1070
     0
1002
{
1000
Interrupt
1070
     3
1070
     0
1002
{
1002
}
1002
}
1000
PartDb
1070
     0
1002
{
1000
PartCreate
1070
     0
1002
{
1002
}
1002
}
1000
Symbol
1070
     0
1002
{
1000
WeldStyle
1070
     1
1000
ISO
1002
{
1002
}
1000
WeldSize
1070
     2
1040
1.0
1002
{
1002
}
1000
WeldFlag
1070
     4
1070
     1
1002
{
1002
}
1000
WeldOffset
1070
     4
1070
     1
1002
{
1002
}
1000
TolCType
1070
     1
1000
ISO
1002
{
1002
}
1000
TolCSize
1070
     2
1040
1.0
1002
{
1002
}
1000
STextureSize
1070
     2
1040
1.0
1002
{
1002
}
1000
SurfaceType
1070
     1
1000

1002
{
1002
}
1000
M
1070
     0
1002
{
1000
WeldWidth
1070
     2
1040
3.0
1002
{
1002
}
1002
}
1000
I
1070
     0
1002
{
1000
WeldWidth
1070
     2
1040
0.125
1002
{
1002
}
1002
}
1002
}
  0
APPID
  5
3C
330
9
100
AcDbSymbolTableRecord
100
AcDbRegAppTableRecord
  2
GENIUS_GENOENT_13
 70
     0
  0
APPID
  5
CE
330
9
100
AcDbSymbolTableRecord
100
AcDbRegAppTableRecord
  2
GENIUS_GENODEF_13
 70
     0
  0
APPID
  5
CF
330
9
100
AcDbSymbolTableRecord
100
AcDbRegAppTableRecord
  2
GENIUS_GENOBJ-N-HTC_13
 70
     0
  0
APPID
  5
D0
330
9
100
AcDbSymbolTableRecord
100
AcDbRegAppTableRecord
  2
GENIUS_GENHATCH_13
 70
     0
  0
APPID
  5
D1
330
9
100
AcDbSymbolTableRecord
100
AcDbRegAppTableRecord
  2
GEVID886411279
 70
     0
  0
APPID
  5
D2
330
9
100
AcDbSymbolTableRecord
100
AcDbRegAppTableRecord
  2
GEVPT
 70
     0
  0
APPID
  5
D3
330
9
100
AcDbSymbolTableRecord
100
AcDbRegAppTableRecord
  2
GEVIT
 70
     0
  0
APPID
  5
D4
330
9
100
AcDbSymbolTableRecord
100
AcDbRegAppTableRecord
  2
VCC
 70
     0
  0
APPID
  5
D5
330
9
100
AcDbSymbolTableRecord
100
AcDbRegAppTableRecord
  2
GENBH
 70
     0
  0
APPID
  5
D6
330
9
100
AcDbSymbolTableRecord
100
AcDbRegAppTableRecord
  2
GENIUS_GENBH_13
 70
     0
  0
APPID
  5
D7
330
9
100
AcDbSymbolTableRecord
100
AcDbRegAppTableRecord
  2
GENIUS_GENOBJ_13
 70
     0
  0
APPID
  5
D8
330
9
100
AcDbSymbolTableRecord
100
AcDbRegAppTableRecord
  2
GENIUS_GENOLIS_13
 70
     0
  0
APPID
  5
D9
330
9
100
AcDbSymbolTableRecord
100
AcDbRegAppTableRecord
  2
GENIUS_GENOREF_13
 70
     0
  0
APPID
  5
DA
330
9
100
AcDbSymbolTableRecord
100
AcDbRegAppTableRecord
  2
GENIUS_GENOBJ-NBEHI-BHF_13
 70
     0
  0
APPID
  5
DB
330
9
100
AcDbSymbolTableRecord
100
AcDbRegAppTableRecord
  2
GENIUS_GENOBJ-NBEHI-BHB_13
 70
     0
  0
APPID
  5
DC
330
9
100
AcDbSymbolTableRecord
100
AcDbRegAppTableRecord
  2
GENIUS_GENOBJ-F-PART_13
 70
     0
  0
APPID
  5
DD
330
9
100
AcDbSymbolTableRecord
100
AcDbRegAppTableRecord
  2
GENIUS_GEFSTDP_13
 70
     0
  0
APPID
  5
DE
330
9
100
AcDbSymbolTableRecord
100
AcDbRegAppTableRecord
  2
GENIUS_GEFPARTINS_13
 70
     0
  0
APPID
  5
DF
330
9
100
AcDbSymbolTableRecord
100
AcDbRegAppTableRecord
  2
GEVID886411280
 70
     0
  0
APPID
  5
E0
330
9
100
AcDbSymbolTableRecord
100
AcDbRegAppTableRecord
  2
GEVID886411281
 70
     0
  0
APPID
  5
E1
330
9
100
AcDbSymbolTableRecord
100
AcDbRegAppTableRecord
  2
GEVID886411282
 70
     0
  0
APPID
  5
E2
330
9
100
AcDbSymbolTableRecord
100
AcDbRegAppTableRecord
  2
GENIUS_GENINF13_13
 70
     0
  0
APPID
  5
E3
330
9
100
AcDbSymbolTableRecord
100
AcDbRegAppTableRecord
  2
GENIUS_GENOBJ-N-INFOPT_13
 70
     0
  0
APPID
  5
E4
330
9
100
AcDbSymbolTableRecord
100
AcDbRegAppTableRecord
  2
GENIUS_GENOBJ-N-RSSYM_13
 70
     0
  0
APPID
  5
E5
330
9
100
AcDbSymbolTableRecord
100
AcDbRegAppTableRecord
  2
GENIUS_GENSYMENT_13
 70
     0
  0
APPID
  5
E6
330
9
100
AcDbSymbolTableRecord
100
AcDbRegAppTableRecord
  2
GENIUS_GENSCSYM_13
 70
     0
  0
APPID
  5
44A
330
9
100
AcDbSymbolTableRecord
100
AcDbRegAppTableRecord
  2
GEVMK
 70
     0
  0
APPID
  5
45A
330
9
100
AcDbSymbolTableRecord
100
AcDbRegAppTableRecord
  2
GEVID886518791
 70
     0
  0
APPID
  5
46A
330
9
100
AcDbSymbolTableRecord
100
AcDbRegAppTableRecord
  2
GEVID886518792
 70
     0
  0
APPID
  5
47A
330
9
100
AcDbSymbolTableRecord
100
AcDbRegAppTableRecord
  2
GEVID886518793
 70
     0
  0
APPID
  5
48A
330
9
100
AcDbSymbolTableRecord
100
AcDbRegAppTableRecord
  2
GEVID886518794
 70
     0
  0
APPID
  5
4E1
330
9
100
AcDbSymbolTableRecord
100
AcDbRegAppTableRecord
  2
ACAD_MLEADERVER
 70
     0
  0
APPID
  5
4EE
330
9
100
AcDbSymbolTableRecord
100
AcDbRegAppTableRecord
  2
MCAD_NO_VIS
 70
     0
  0
APPID
  5
4EF
330
9
100
AcDbSymbolTableRecord
100
AcDbRegAppTableRecord
  2
ACAD_TEMP_GRAPHIC
 70
     0
  0
APPID
  5
51F
330
9
100
AcDbSymbolTableRecord
100
AcDbRegAppTableRecord
  2
AD_DRAW
 70
     0
  0
APPID
  5
522
330
9
100
AcDbSymbolTableRecord
100
AcDbRegAppTableRecord
  2
ACATTRIBSERVICES
 70
     0
  0
APPID
  5
543
330
9
100
AcDbSymbolTableRecord
100
AcDbRegAppTableRecord
  2
DESIGNERASSEMBLIES
 70
     0
  0
APPID
  5
549
330
9
100
AcDbSymbolTableRecord
100
AcDbRegAppTableRecord
  2
ACADM_DIM_EDIT
 70
     0
  0
APPID
  5
54A
330
9
100
AcDbSymbolTableRecord
100
AcDbRegAppTableRecord
  2
AMDT_DM_ADJ
 70
     0
  0
APPID
  5
5A7
330
9
100
AcDbSymbolTableRecord
100
AcDbRegAppTableRecord
  2
ACAD_DSTYLE_DIMARC_LENGTH_SYMBOL
 70
     0
  0
APPID
  5
5A8
330
9
100
AcDbSymbolTableRecord
100
AcDbRegAppTableRecord
  2
ACAD_DSTYLE_DIM_LINETYPE
 70
     0
  0
APPID
  5
5A9
330
9
100
AcDbSymbolTableRecord
100
AcDbRegAppTableRecord
  2
ACAD_DSTYLE_DIM_EXT1_LINETYPE
 70
     0
  0
APPID
  5
5AA
330
9
100
AcDbSymbolTableRecord
100
AcDbRegAppTableRecord
  2
ACAD_DSTYLE_DIM_EXT2_LINETYPE
 70
     0
  0
ENDTAB
  0
TABLE
  2
DIMSTYLE
  5
A
330
0
100
AcDbSymbolTable
 70
    14
100
AcDbDimStyleTable
 71
     0
  0
DIMSTYLE
105
1D
330
A
100
AcDbSymbolTableRecord
100
AcDbDimStyleTableRecord
  2
STANDARD
 70
     0
340
10
  0
DIMSTYLE
105
560
102
{ACAD_REACTORS
330
550
102
}
330
A
100
AcDbSymbolTableRecord
100
AcDbDimStyleTableRecord
  2
AM_ANSI
 70
     0
  4
"
 41
3.5
 42
1.0
 43
10.0
 44
1.0
 47
0.1
 48
0.1
 78
     8
 79
     2
140
3.5
141
0.0
143
0.0393701
146
0.71
147
1.5
176
   256
177
   256
178
     2
271
     2
272
     3
274
     4
284
     8
340
10
371
    -1
372
    -1
1001
ACAD_DSTYLE_DIMARC_LENGTH_SYMBOL
1070
   379
1070
     1
1001
ACAD_DSTYLE_DIM_LINETYPE
1070
   380
1005
14
1001
ACAD_DSTYLE_DIM_EXT1_LINETYPE
1070
   381
1005
14
1001
ACAD_DSTYLE_DIM_EXT2_LINETYPE
1070
   382
1005
14
  0
DIMSTYLE
105
56E
330
A
100
AcDbSymbolTableRecord
100
AcDbDimStyleTableRecord
  2
AM_ANSI$3
 70
     0
  4
"
 41
3.5
 42
1.0
 43
10.0
 44
1.0
 47
0.1
 48
0.1
 78
     8
 79
     2
140
3.5
141
0.0
143
0.0393701
146
0.71
147
1.5
176
   256
177
   256
178
     2
271
     2
272
     3
274
     4
284
     8
288
     1
289
     0
340
10
371
    -1
372
    -1
1001
ACAD_DSTYLE_DIMARC_LENGTH_SYMBOL
1070
   379
1070
     1
1001
ACAD_DSTYLE_DIM_LINETYPE
1070
   380
1005
14
1001
ACAD_DSTYLE_DIM_EXT1_LINETYPE
1070
   381
1005
14
1001
ACAD_DSTYLE_DIM_EXT2_LINETYPE
1070
   382
1005
14
  0
DIMSTYLE
105
56F
330
A
100
AcDbSymbolTableRecord
100
AcDbDimStyleTableRecord
  2
AM_ANSI$4
 70
     0
  4
"
 41
3.5
 42
1.0
 43
10.0
 44
1.0
 47
0.1
 48
0.1
 78
     8
 79
     2
140
3.5
141
0.0
143
0.0393701
146
0.71
147
1.5
176
   256
177
   256
178
     2
271
     2
272
     3
274
     4
284
     8
288
     1
289
     0
340
10
371
    -1
372
    -1
1001
ACAD_DSTYLE_DIMARC_LENGTH_SYMBOL
1070
   379
1070
     1
1001
ACAD_DSTYLE_DIM_LINETYPE
1070
   380
1005
14
1001
ACAD_DSTYLE_DIM_EXT1_LINETYPE
1070
   381
1005
14
1001
ACAD_DSTYLE_DIM_EXT2_LINETYPE
1070
   382
1005
14
  0
DIMSTYLE
105
570
330
A
100
AcDbSymbolTableRecord
100
AcDbDimStyleTableRecord
  2
AM_ANSI$7
 70
     0
  4
"
 41
3.5
 42
1.0
 43
10.0
 44
1.0
 47
0.1
 48
0.1
 78
     8
 79
     2
140
3.5
141
0.0
143
0.0393701
146
0.71
147
1.5
176
   256
177
   256
178
     2
271
     2
272
     3
274
     4
284
     8
340
10
371
    -1
372
    -1
1001
ACAD_DSTYLE_DIMARC_LENGTH_SYMBOL
1070
   379
1070
     1
1001
ACAD_DSTYLE_DIM_LINETYPE
1070
   380
1005
14
1001
ACAD_DSTYLE_DIM_EXT1_LINETYPE
1070
   381
1005
14
1001
ACAD_DSTYLE_DIM_EXT2_LINETYPE
1070
   382
1005
14
  0
DIMSTYLE
105
571
330
A
100
AcDbSymbolTableRecord
100
AcDbDimStyleTableRecord
  2
AM_ANSI$SF
 70
     0
  4
"
 41
3.5
 42
1.0
 43
10.0
 44
1.0
 47
0.1
 48
0.1
 75
     1
 76
     1
 78
     8
 79
     2
140
3.5
141
0.0
143
0.0393701
146
0.71
147
1.5
176
   256
177
   256
178
     2
271
     2
272
     3
274
     4
284
     8
340
10
371
    -1
372
    -1
1001
ACAD_DSTYLE_DIMARC_LENGTH_SYMBOL
1070
   379
1070
     1
1001
ACAD_DSTYLE_DIM_LINETYPE
1070
   380
1005
14
1001
ACAD_DSTYLE_DIM_EXT1_LINETYPE
1070
   381
1005
14
1001
ACAD_DSTYLE_DIM_EXT2_LINETYPE
1070
   382
1005
14
  0
DIMSTYLE
105
576
330
A
100
AcDbSymbolTableRecord
100
AcDbDimStyleTableRecord
  2
AM_ANSI$SH
 70
     0
  4
"
 41
3.5
 42
1.0
 43
10.0
 44
1.0
 47
0.1
 48
0.1
 75
     1
 76
     1
 78
     8
 79
     2
140
3.5
141
0.0
143
0.0393701
146
0.71
147
1.5
173
     1
176
   256
177
   256
178
     2
271
     2
272
     3
274
     4
284
     8
340
10
343
572
371
    -1
372
    -1
1001
ACAD_DSTYLE_DIMARC_LENGTH_SYMBOL
1070
   379
1070
     1
1001
ACAD_DSTYLE_DIM_LINETYPE
1070
   380
1005
14
1001
ACAD_DSTYLE_DIM_EXT1_LINETYPE
1070
   381
1005
14
1001
ACAD_DSTYLE_DIM_EXT2_LINETYPE
1070
   382
1005
14
  0
DIMSTYLE
105
583
330
A
100
AcDbSymbolTableRecord
100
AcDbDimStyleTableRecord
  2
GEN-ANSI
 70
     0
  3
<>
 41
2.5
 42
1.0
 43
7.0
 44
1.0
 47
0.1
 48
0.1
 78
     8
140
3.5
141
0.0
143
0.0393701
146
0.71
147
0.6
271
     2
272
     3
274
     4
340
10
  0
DIMSTYLE
105
584
330
A
100
AcDbSymbolTableRecord
100
AcDbDimStyleTableRecord
  2
GEN-ANSI$3
 70
     0
  3
<>
 41
2.5
 42
1.0
 43
7.0
 44
1.0
 47
0.1
 48
0.1
 78
     8
140
3.5
141
0.0
143
0.0393701
146
0.71
147
0.6
271
     2
272
     3
274
     4
288
     1
289
     0
340
10
  0
DIMSTYLE
105
585
330
A
100
AcDbSymbolTableRecord
100
AcDbDimStyleTableRecord
  2
GEN-ANSI$4
 70
     0
  3
<>
 41
2.5
 42
1.0
 43
7.0
 44
1.0
 47
0.1
 48
0.1
 78
     8
140
3.5
141
0.0
143
0.0393701
146
0.71
147
0.6
271
     2
272
     3
274
     4
288
     1
289
     0
340
10
  0
DIMSTYLE
105
586
330
A
100
AcDbSymbolTableRecord
100
AcDbDimStyleTableRecord
  2
GEN-ANSI$6
 70
     0
  3
<>
 41
2.5
 42
1.0
 43
7.0
 44
1.0
 47
0.1
 48
0.1
 78
     8
140
3.5
141
0.0
143
0.0393701
146
0.71
147
0.6
271
     2
272
     3
274
     4
340
10
  0
DIMSTYLE
105
587
330
A
100
AcDbSymbolTableRecord
100
AcDbDimStyleTableRecord
  2
GEN-ANSI-POS
 70
     0
  3
<>
 41
2.5
 42
1.0
 43
7.0
 44
1.0
 47
0.1
 48
0.1
 73
     0
 74
     0
 78
     8
140
5.0
141
0.0
143
0.0393701
146
0.71
147
1.5
271
     2
272
     3
274
     4
340
10
  0
DIMSTYLE
105
588
330
A
100
AcDbSymbolTableRecord
100
AcDbDimStyleTableRecord
  2
GEN-ANSI-AXE-F
 70
     0
  3
<>
 41
2.5
 42
1.0
 43
7.0
 44
1.0
 47
0.1
 48
0.1
 75
     1
 76
     1
 78
     8
140
3.5
141
0.0
143
0.0393701
146
0.71
147
0.6
173
     1
271
     2
272
     3
274
     4
340
10
343
572
  0
DIMSTYLE
105
589
330
A
100
AcDbSymbolTableRecord
100
AcDbDimStyleTableRecord
  2
GEN-ANSI-AXE-H
 70
     0
  3
<>
 41
2.5
 42
1.0
 43
7.0
 44
1.0
 47
0.1
 48
0.1
 73
     0
 74
     0
 75
     1
 76
     1
 78
     8
140
3.5
141
0.0
143
0.0393701
144
2.0
146
0.71
147
0.6
172
     1
173
     1
271
     2
272
     3
274
     4
340
10
343
572
  0
ENDTAB
  0
TABLE
  2
BLOCK_RECORD
  5
1
330
0
100
AcDbSymbolTable
 70
    13
  0
BLOCK_RECORD
  5
1A
330
1
100
AcDbSymbolTableRecord
100
AcDbBlockTableRecord
  2
*MODEL_SPACE
340
4E4
  0
BLOCK_RECORD
  5
17
330
1
100
AcDbSymbolTableRecord
100
AcDbBlockTableRecord
  2
*PAPER_SPACE
340
4E5
  0
BLOCK_RECORD
  5
40
330
1
100
AcDbSymbolTableRecord
100
AcDbBlockTableRecord
  2
*X0
340
0
102
{BLKREFS
331
3E0
102
}
  0
BLOCK_RECORD
  5
4C
330
1
100
AcDbSymbolTableRecord
100
AcDbBlockTableRecord
  2
*X1
340
0
102
{BLKREFS
331
3DF
102
}
  0
BLOCK_RECORD
  5
93
330
1
100
AcDbSymbolTableRecord
100
AcDbBlockTableRecord
  2
GENINF13
340
0
102
{BLKREFS
331
365
102
}
  0
BLOCK_RECORD
  5
44B
330
1
100
AcDbSymbolTableRecord
100
AcDbBlockTableRecord
  2
*U3
340
0
102
{BLKREFS
331
454
102
}
  0
BLOCK_RECORD
  5
452
330
1
100
AcDbSymbolTableRecord
100
AcDbBlockTableRecord
  2
*U4
340
0
102
{BLKREFS
331
303
102
}
  0
BLOCK_RECORD
  5
45B
330
1
100
AcDbSymbolTableRecord
100
AcDbBlockTableRecord
  2
*U5
340
0
102
{BLKREFS
331
464
102
}
  0
BLOCK_RECORD
  5
462
330
1
100
AcDbSymbolTableRecord
100
AcDbBlockTableRecord
  2
*U6
340
0
102
{BLKREFS
331
2CB
102
}
  0
BLOCK_RECORD
  5
46B
330
1
100
AcDbSymbolTableRecord
100
AcDbBlockTableRecord
  2
*U7
340
0
102
{BLKREFS
331
474
102
}
  0
BLOCK_RECORD
  5
472
330
1
100
AcDbSymbolTableRecord
100
AcDbBlockTableRecord
  2
*U8
340
0
102
{BLKREFS
331
38E
102
}
  0
BLOCK_RECORD
  5
47B
330
1
100
AcDbSymbolTableRecord
100
AcDbBlockTableRecord
  2
*U9
340
0
102
{BLKREFS
331
484
102
}
  0
BLOCK_RECORD
  5
482
330
1
100
AcDbSymbolTableRecord
100
AcDbBlockTableRecord
  2
*U10
340
0
102
{BLKREFS
331
398
102
}
  0
BLOCK_RECORD
  5
572
330
1
100
AcDbSymbolTableRecord
100
AcDbBlockTableRecord
  2
GENAXEH
340
0
  0
ENDTAB
  0
ENDSEC
  0
SECTION
  2
BLOCKS
  0
BLOCK
  5
1B
330
1A
100
AcDbEntity
  8
0
100
AcDbBlockBegin
  2
*MODEL_SPACE
 70
     0
 10
0.0
 20
0.0
 30
0.0
  3
*MODEL_SPACE
  1

  0
ENDBLK
  5
1C
330
1A
100
AcDbEntity
  8
0
100
AcDbBlockEnd
  0
BLOCK
  5
18
330
17
100
AcDbEntity
 67
     1
  8
0
100
AcDbBlockBegin
  2
*PAPER_SPACE
 70
     0
 10
0.0
 20
0.0
 30
0.0
  3
*PAPER_SPACE
  1

  0
ENDBLK
  5
19
330
17
100
AcDbEntity
 67
     1
  8
0
100
AcDbBlockEnd
  0
BLOCK
  5
4A
330
40
100
AcDbEntity
  8
0
100
AcDbBlockBegin
  2
*X0
 70
     1
 10
0.0
 20
0.0
 30
0.0
  3
*X0
  1
GEVFRAME
  0
LINE
  5
41
330
40
100
AcDbEntity
  8
0
  6
Continuous
 62
     0
100
AcDbLine
 10
397.0311792474502
 20
368.7469079999883
 30
0.0
 11
409.5007966617194
 21
381.2165254142576
 31
0.0
  0
LINE
  5
42
330
40
100
AcDbEntity
  8
0
  6
Continuous
 62
     0
100
AcDbLine
 10
396.5283080000009
 20
371.7795706584717
 30
0.0
 11
408.251924902403
 21
383.5031875608739
 31
0.0
  0
LINE
  5
43
330
40
100
AcDbEntity
  8
0
  6
Continuous
 62
     0
100
AcDbLine
 10
396.5283080000009
 20
375.3151045644045
 30
0.0
 11
405.4601114355882
 21
384.2469079999919
 31
0.0
  0
LINE
  5
44
330
40
100
AcDbEntity
  8
0
  6
Continuous
 62
     0
100
AcDbLine
 10
396.5283080000009
 20
378.8506384703372
 30
0.0
 11
401.9245775296542
 21
384.2469079999905
 31
0.0
  0
LINE
  5
45
330
40
100
AcDbEntity
  8
0
  6
Continuous
 62
     0
100
AcDbLine
 10
398.0283080000017
 20
383.8861723762708
 30
0.0
 11
398.3890436237201
 21
384.2469079999892
 31
0.0
  0
LINE
  5
46
330
40
100
AcDbEntity
  8
0
  6
Continuous
 62
     0
100
AcDbLine
 10
398.2783080000016
 20
366.458502846607
 30
0.0
 11
410.1323569801836
 21
378.312551826789
 31
0.0
  0
LINE
  5
47
330
40
100
AcDbEntity
  8
0
  6
Continuous
 62
     0
100
AcDbLine
 10
398.6022470593165
 20
363.2469079999891
 30
0.0
 11
409.5663832280194
 21
374.2110441686921
 31
0.0
  0
LINE
  5
48
330
40
100
AcDbEntity
  8
0
  6
Continuous
 62
     0
100
AcDbLine
 10
402.1377809652492
 20
363.2469079999891
 30
0.0
 11
409.5663832280194
 21
370.6755102627594
 31
0.0
  0
LINE
  5
49
330
40
100
AcDbEntity
  8
0
  6
Continuous
 62
     0
100
AcDbLine
 10
405.6733148711819
 20
363.2469079999891
 30
0.0
 11
409.1171123157378
 21
366.690705444545
 31
0.0
  0
ENDBLK
  5
4B
330
40
100
AcDbEntity
  8
0
100
AcDbBlockEnd
  0
BLOCK
  5
55
330
4C
100
AcDbEntity
  8
0
100
AcDbBlockBegin
  2
*X1
 70
     1
 10
0.0
 20
0.0
 30
0.0
  3
*X1
  1
GEVFRAME
  0
LINE
  5
4D
330
4C
100
AcDbEntity
  8
0
  6
Continuous
 62
     0
100
AcDbLine
 10
379.5283080000008
 20
368.9217062822026
 30
0.0
 11
389.5283080000008
 21
378.9217062822026
 31
0.0
  0
LINE
  5
4E
330
4C
100
AcDbEntity
  8
0
  6
Continuous
 62
     0
100
AcDbLine
 10
379.5283080000008
 20
372.4572401881354
 30
0.0
 11
389.2179758118544
 21
382.1469079999888
 31
0.0
  0
LINE
  5
4F
330
4C
100
AcDbEntity
  8
0
  6
Continuous
 62
     0
100
AcDbLine
 10
379.5283080000008
 20
375.9927740940681
 30
0.0
 11
387.7824419059218
 21
384.2469079999891
 31
0.0
  0
LINE
  5
50
330
4C
100
AcDbEntity
  8
0
  6
Continuous
 62
     0
100
AcDbLine
 10
379.5283080000008
 20
379.5283080000008
 30
0.0
 11
384.2469079999891
 21
384.2469079999891
 31
0.0
  0
LINE
  5
51
330
4C
100
AcDbEntity
  8
0
  6
Continuous
 62
     0
100
AcDbLine
 10
379.5283080000008
 20
383.0638419059336
 30
0.0
 11
380.7113740940564
 21
384.2469079999891
 31
0.0
  0
LINE
  5
52
330
4C
100
AcDbEntity
  8
0
  6
Continuous
 62
     0
100
AcDbLine
 10
379.5283080000008
 20
365.3861723762699
 30
0.0
 11
389.5283080000008
 21
375.38617237627
 31
0.0
  0
LINE
  5
53
330
4C
100
AcDbEntity
  8
0
  6
Continuous
 62
     0
100
AcDbLine
 10
380.9245775296528
 20
363.2469079999891
 30
0.0
 11
389.5283080000008
 21
371.8506384703372
 31
0.0
  0
LINE
  5
54
330
4C
100
AcDbEntity
  8
0
  6
Continuous
 62
     0
100
AcDbLine
 10
384.4601114355855
 20
363.2469079999891
 30
0.0
 11
387.778308
 21
366.5651045644034
 31
0.0
  0
ENDBLK
  5
56
330
4C
100
AcDbEntity
  8
0
100
AcDbBlockEnd
  0
BLOCK
  5
B8
330
93
100
AcDbEntity
  8
0
100
AcDbBlockBegin
  2
GENINF13
 70
     2
 10
0.0
 20
0.0
 30
0.0
  3
GENINF13
  1
GENINF13
  0
CIRCLE
  5
94
330
93
100
AcDbEntity
  8
INFO
100
AcDbCircle
 10
-0.1079460011883957
 20
1.312243585777231
 30
0.0
 40
0.3390668951753026
  0
CIRCLE
  5
95
330
93
100
AcDbEntity
  8
INFO
100
AcDbCircle
 10
0.0
 20
0.0
 30
0.0
 40
1.920194409963144
  0
LINE
  5
96
330
93
100
AcDbEntity
  8
INFO
100
AcDbLine
 10
0.4113437479737743
 20
0.7068303850037036
 30
0.0
 11
-0.7000060094186789
 21
0.7068303850037035
 31
0.0
  0
LINE
  5
97
330
93
100
AcDbEntity
  8
INFO
100
AcDbLine
 10
0.8299040409314978
 20
-1.341535205482386
 30
0.0
 11
0.8299040409314978
 21
-0.5553667224477728
 31
0.0
  0
LINE
  5
98
330
93
100
AcDbEntity
  8
INFO
100
AcDbLine
 10
0.8299040409314978
 20
-0.5553667224477728
 30
0.0
 11
0.4113437479737743
 21
-0.5553667224477728
 31
0.0
  0
LINE
  5
99
330
93
100
AcDbEntity
  8
INFO
100
AcDbLine
 10
0.4113437479737743
 20
-0.5553667224477728
 30
0.0
 11
0.4113437479737743
 21
0.7068303850037036
 31
0.0
  0
LINE
  5
9A
330
93
100
AcDbEntity
  8
INFO
100
AcDbLine
 10
-0.7000060094186789
 20
0.7068303850037035
 30
0.0
 11
-0.7000060094186788
 21
0.1226134319150372
 31
0.0
  0
LINE
  5
9B
330
93
100
AcDbEntity
  8
INFO
100
AcDbLine
 10
-0.7000060094186788
 20
0.1226134319150372
 30
0.0
 11
-0.3752609491200999
 21
0.1226134319150372
 31
0.0
  0
LINE
  5
9C
330
93
100
AcDbEntity
  8
INFO
100
AcDbLine
 10
-0.3752609491200999
 20
0.1226134319150372
 30
0.0
 11
-0.3752609491200999
 21
-0.5553667224477728
 31
0.0
  0
LINE
  5
9D
330
93
100
AcDbEntity
  8
INFO
100
AcDbLine
 10
-0.3752609491200999
 20
-0.5553667224477728
 30
0.0
 11
-0.8010378055452676
 21
-0.5553667224477728
 31
0.0
  0
LINE
  5
9E
330
93
100
AcDbEntity
  8
INFO
100
AcDbLine
 10
-0.8010378055452676
 20
-0.5553667224477728
 30
0.0
 11
-0.8010378055452676
 21
-1.341535205482386
 31
0.0
  0
LINE
  5
9F
330
93
100
AcDbEntity
  8
INFO
100
AcDbLine
 10
-0.8010378055452676
 20
-1.341535205482386
 30
0.0
 11
0.8299040409314978
 21
-1.341535205482386
 31
0.0
  0
ATTDEF
  5
A0
330
93
100
AcDbEntity
  8
INFO
100
AcDbText
 10
0.0
 20
0.0
 30
0.0
 40
1.0
  1
1
100
AcDbAttributeDefinition
  3
Menge
  2
2GENINF
 70
     1
  0
ATTDEF
  5
A1
330
93
100
AcDbEntity
  8
INFO
100
AcDbText
 10
0.0
 20
-1.5
 30
0.0
 40
1.0
  1

100
AcDbAttributeDefinition
  3
Stücklisten-Name
  2
3GENINF
 70
     1
  0
ATTDEF
  5
A2
330
93
100
AcDbEntity
  8
INFO
100
AcDbText
 10
0.0
 20
-3.0
 30
0.0
 40
1.0
  1

100
AcDbAttributeDefinition
  3
Stücklisten-Pfad
  2
4GENINF
 70
     1
  0
ATTDEF
  5
A3
330
93
100
AcDbEntity
  8
INFO
100
AcDbText
 10
0.0
 20
-4.5
 30
0.0
 40
1.0
  1

100
AcDbAttributeDefinition
  3
Beschreibung 1
  2
5GENINF
 70
     1
  0
ATTDEF
  5
A4
330
93
100
AcDbEntity
  8
INFO
100
AcDbText
 10
0.0
 20
-6.0
 30
0.0
 40
1.0
  1

100
AcDbAttributeDefinition
  3
Beschreibung 2
  2
6GENINF
 70
     1
  0
ATTDEF
  5
A5
330
93
100
AcDbEntity
  8
INFO
100
AcDbText
 10
0.0
 20
-7.5
 30
0.0
 40
1.0
  1

100
AcDbAttributeDefinition
  3
Norm/Lieferant 1
  2
7GENINF
 70
     1
  0
ATTDEF
  5
A6
330
93
100
AcDbEntity
  8
INFO
100
AcDbText
 10
0.0
 20
-9.0
 30
0.0
 40
1.0
  1

100
AcDbAttributeDefinition
  3
Norm/Lieferant 2
  2
8GENINF
 70
     1
  0
ATTDEF
  5
A7
330
93
100
AcDbEntity
  8
INFO
100
AcDbText
 10
0.0
 20
-10.5
 30
0.0
 40
1.0
  1

100
AcDbAttributeDefinition
  3
Material 1
  2
9GENINF
 70
     1
  0
ATTDEF
  5
A8
330
93
100
AcDbEntity
  8
INFO
100
AcDbText
 10
0.0
 20
-12.0
 30
0.0
 40
1.0
  1

100
AcDbAttributeDefinition
  3
Material 2
  2
10GENINF
 70
     1
  0
ATTDEF
  5
A9
330
93
100
AcDbEntity
  8
INFO
100
AcDbText
 10
0.0
 20
-13.5
 30
0.0
 40
1.0
  1

100
AcDbAttributeDefinition
  3
Identnummer
  2
11GENINF
 70
     1
  0
ATTDEF
  5
AA
330
93
100
AcDbEntity
  8
INFO
100
AcDbText
 10
0.0
 20
-15.0
 30
0.0
 40
1.0
  1

100
AcDbAttributeDefinition
  3
Gewicht
  2
12GENINF
 70
     1
  0
ATTDEF
  5
AB
330
93
100
AcDbEntity
  8
INFO
100
AcDbText
 10
0.0
 20
-16.5
 30
0.0
 40
1.0
  1

100
AcDbAttributeDefinition
  3
Preis
  2
13GENINF
 70
     1
  0
ATTDEF
  5
AC
330
93
100
AcDbEntity
  8
INFO
100
AcDbText
 10
0.0
 20
-18.0
 30
0.0
 40
1.0
  1

100
AcDbAttributeDefinition
  3
Abmessungen
  2
14GENINF
 70
     1
  0
ATTDEF
  5
AD
330
93
100
AcDbEntity
  8
INFO
100
AcDbText
 10
0.0
 20
-19.5
 30
0.0
 40
1.0
  1

100
AcDbAttributeDefinition
  3
User 1
  2
15GENINF
 70
     1
  0
ATTDEF
  5
AE
330
93
100
AcDbEntity
  8
INFO
100
AcDbText
 10
0.0
 20
-21.0
 30
0.0
 40
1.0
  1

100
AcDbAttributeDefinition
  3
User 2
  2
16GENINF
 70
     1
  0
ATTDEF
  5
AF
330
93
100
AcDbEntity
  8
INFO
100
AcDbText
 10
0.0
 20
-22.5
 30
0.0
 40
1.0
  1

100
AcDbAttributeDefinition
  3
User 3
  2
17GENINF
 70
     1
  0
ATTDEF
  5
B0
330
93
100
AcDbEntity
  8
INFO
100
AcDbText
 10
0.0
 20
-24.0
 30
0.0
 40
1.0
  1

100
AcDbAttributeDefinition
  3
User 4
  2
18GENINF
 70
     1
  0
ATTDEF
  5
B1
330
93
100
AcDbEntity
  8
INFO
100
AcDbText
 10
0.0
 20
-25.5
 30
0.0
 40
1.0
  1

100
AcDbAttributeDefinition
  3
User 5
  2
19GENINF
 70
     1
  0
ATTDEF
  5
B2
330
93
100
AcDbEntity
  8
INFO
100
AcDbText
 10
0.0
 20
-27.0
 30
0.0
 40
1.0
  1

100
AcDbAttributeDefinition
  3
User 6
  2
20GENINF
 70
     1
  0
ATTDEF
  5
B3
330
93
100
AcDbEntity
  8
INFO
100
AcDbText
 10
0.0
 20
-28.5
 30
0.0
 40
1.0
  1

100
AcDbAttributeDefinition
  3
User 7
  2
21GENINF
 70
     1
  0
ATTDEF
  5
B4
330
93
100
AcDbEntity
  8
INFO
100
AcDbText
 10
0.0
 20
-30.0
 30
0.0
 40
1.0
  1

100
AcDbAttributeDefinition
  3
User 8
  2
22GENINF
 70
     1
  0
ATTDEF
  5
B5
330
93
100
AcDbEntity
  8
INFO
100
AcDbText
 10
0.0
 20
-31.5
 30
0.0
 40
1.0
  1

100
AcDbAttributeDefinition
  3
Filter
  2
23GENINF
 70
     1
  0
ATTDEF
  5
B6
330
93
100
AcDbEntity
  8
INFO
100
AcDbText
 10
0.0
 20
-33.0
 30
0.0
 40
1.0
  1

100
AcDbAttributeDefinition
  3
Bemerkung
  2
24GENINF
 70
     1
  0
ATTDEF
  5
B7
330
93
100
AcDbEntity
  8
INFO
100
AcDbText
 10
0.0
 20
-34.5
 30
0.0
 40
1.0
  1

100
AcDbAttributeDefinition
  3
Genius Normteile ID
  2
0GENINF
 70
     1
  0
ENDBLK
  5
B9
330
93
100
AcDbEntity
  8
0
100
AcDbBlockEnd
  0
BLOCK
  5
44C
330
44B
100
AcDbEntity
  8
0
100
AcDbBlockBegin
  2
*U3
 70
     1
 10
0.0
 20
0.0
 30
0.0
  3
*U3
  1
*U
  0
LINE
  5
44D
330
44B
100
AcDbEntity
  8
CENN
100
AcDbLine
 10
0.0
 20
-7.0
 30
0.0
 11
0.0
 21
7.0
 31
0.0
  0
CIRCLE
  5
44E
330
44B
100
AcDbEntity
  8
BHMM
100
AcDbCircle
 10
0.0
 20
0.0
 30
0.0
 40
3.3235
  0
ARC
  5
44F
330
44B
100
AcDbEntity
  8
THLI
100
AcDbCircle
 10
0.0
 20
0.0
 30
0.0
 40
4.0
100
AcDbArc
 50
280.0
 51
210.0
  0
LINE
  5
450
330
44B
100
AcDbEntity
  8
CENN
100
AcDbLine
 10
-7.0
 20
0.0
 30
0.0
 11
7.0
 21
0.0
 31
0.0
  0
ENDBLK
  5
451
330
44B
100
AcDbEntity
  8
0
100
AcDbBlockEnd
  0
BLOCK
  5
453
330
452
100
AcDbEntity
  8
0
100
AcDbBlockBegin
  2
*U4
 70
     1
 10
0.0
 20
0.0
 30
0.0
  3
*U4
  1
*U
  0
INSERT
  5
454
330
452
100
AcDbEntity
  8
GEV_FROZEN
100
AcDbBlockReference
  2
*U3
 10
0.0
 20
0.0
 30
0.0
 41
0.1
 42
0.1
 43
0.1
1001
GENBH
1002
{
1000
-NOBRK
1002
}
  0
LINE
  5
455
330
452
100
AcDbEntity
  8
MSR_4-7A
100
AcDbLine
 10
0.0
 20
-7.0
 30
0.0
 11
0.0
 21
7.0
 31
0.0
  0
CIRCLE
  5
456
330
452
100
AcDbEntity
  8
MSR_4-2
100
AcDbCircle
 10
0.0
 20
0.0
 30
0.0
 40
3.3235
  0
ARC
  5
457
330
452
100
AcDbEntity
  8
MSR_4-4
100
AcDbCircle
 10
0.0
 20
0.0
 30
0.0
 40
4.0
100
AcDbArc
 50
280.0
 51
210.0
  0
LINE
  5
458
330
452
100
AcDbEntity
  8
MSR_4-7A
100
AcDbLine
 10
-7.0
 20
0.0
 30
0.0
 11
7.0
 21
0.0
 31
0.0
  0
ENDBLK
  5
459
330
452
100
AcDbEntity
  8
0
100
AcDbBlockEnd
  0
BLOCK
  5
45C
330
45B
100
AcDbEntity
  8
0
100
AcDbBlockBegin
  2
*U5
 70
     1
 10
0.0
 20
0.0
 30
0.0
  3
*U5
  1
*U
  0
LINE
  5
45D
330
45B
100
AcDbEntity
  8
CENN
100
AcDbLine
 10
0.0
 20
-7.0
 30
0.0
 11
0.0
 21
7.0
 31
0.0
  0
CIRCLE
  5
45E
330
45B
100
AcDbEntity
  8
BHMM
100
AcDbCircle
 10
0.0
 20
0.0
 30
0.0
 40
3.3235
  0
ARC
  5
45F
330
45B
100
AcDbEntity
  8
THLI
100
AcDbCircle
 10
0.0
 20
0.0
 30
0.0
 40
4.0
100
AcDbArc
 50
280.0
 51
210.0
  0
LINE
  5
460
330
45B
100
AcDbEntity
  8
CENN
100
AcDbLine
 10
-7.0
 20
0.0
 30
0.0
 11
7.0
 21
0.0
 31
0.0
  0
ENDBLK
  5
461
330
45B
100
AcDbEntity
  8
0
100
AcDbBlockEnd
  0
BLOCK
  5
463
330
462
100
AcDbEntity
  8
0
100
AcDbBlockBegin
  2
*U6
 70
     1
 10
0.0
 20
0.0
 30
0.0
  3
*U6
  1
*U
  0
INSERT
  5
464
330
462
100
AcDbEntity
  8
GEV_FROZEN
100
AcDbBlockReference
  2
*U5
 10
0.0
 20
0.0
 30
0.0
 41
0.1
 42
0.1
 43
0.1
1001
GENBH
1002
{
1000
-NOBRK
1002
}
  0
LINE
  5
465
330
462
100
AcDbEntity
  8
MSR_4-7A
100
AcDbLine
 10
0.0
 20
-7.0
 30
0.0
 11
0.0
 21
7.0
 31
0.0
  0
CIRCLE
  5
466
330
462
100
AcDbEntity
  8
MSR_4-2
100
AcDbCircle
 10
0.0
 20
0.0
 30
0.0
 40
3.3235
  0
ARC
  5
467
330
462
100
AcDbEntity
  8
MSR_4-4
100
AcDbCircle
 10
0.0
 20
0.0
 30
0.0
 40
4.0
100
AcDbArc
 50
280.0
 51
210.0
  0
LINE
  5
468
330
462
100
AcDbEntity
  8
MSR_4-7A
100
AcDbLine
 10
-7.0
 20
0.0
 30
0.0
 11
7.0
 21
0.0
 31
0.0
  0
ENDBLK
  5
469
330
462
100
AcDbEntity
  8
0
100
AcDbBlockEnd
  0
BLOCK
  5
46C
330
46B
100
AcDbEntity
  8
0
100
AcDbBlockBegin
  2
*U7
 70
     1
 10
0.0
 20
0.0
 30
0.0
  3
*U7
  1
*U
  0
LINE
  5
46D
330
46B
100
AcDbEntity
  8
CENN
100
AcDbLine
 10
0.0
 20
-7.0
 30
0.0
 11
0.0
 21
7.0
 31
0.0
  0
CIRCLE
  5
46E
330
46B
100
AcDbEntity
  8
BHMM
100
AcDbCircle
 10
0.0
 20
0.0
 30
0.0
 40
3.3235
  0
ARC
  5
46F
330
46B
100
AcDbEntity
  8
THLI
100
AcDbCircle
 10
0.0
 20
0.0
 30
0.0
 40
4.0
100
AcDbArc
 50
280.0
 51
210.0
  0
LINE
  5
470
330
46B
100
AcDbEntity
  8
CENN
100
AcDbLine
 10
-7.0
 20
0.0
 30
0.0
 11
7.0
 21
0.0
 31
0.0
  0
ENDBLK
  5
471
330
46B
100
AcDbEntity
  8
0
100
AcDbBlockEnd
  0
BLOCK
  5
473
330
472
100
AcDbEntity
  8
0
100
AcDbBlockBegin
  2
*U8
 70
     1
 10
0.0
 20
0.0
 30
0.0
  3
*U8
  1
*U
  0
INSERT
  5
474
330
472
100
AcDbEntity
  8
GEV_FROZEN
100
AcDbBlockReference
  2
*U7
 10
0.0
 20
0.0
 30
0.0
 41
0.1
 42
0.1
 43
0.1
1001
GENBH
1002
{
1000
-NOBRK
1002
}
  0
LINE
  5
475
330
472
100
AcDbEntity
  8
MSR_4-7A
100
AcDbLine
 10
0.0
 20
-7.0
 30
0.0
 11
0.0
 21
7.0
 31
0.0
  0
CIRCLE
  5
476
330
472
100
AcDbEntity
  8
MSR_4-2
100
AcDbCircle
 10
0.0
 20
0.0
 30
0.0
 40
3.3235
  0
ARC
  5
477
330
472
100
AcDbEntity
  8
MSR_4-4
100
AcDbCircle
 10
0.0
 20
0.0
 30
0.0
 40
4.0
100
AcDbArc
 50
280.0
 51
210.0
  0
LINE
  5
478
330
472
100
AcDbEntity
  8
MSR_4-7A
100
AcDbLine
 10
-7.0
 20
0.0
 30
0.0
 11
7.0
 21
0.0
 31
0.0
  0
ENDBLK
  5
479
330
472
100
AcDbEntity
  8
0
100
AcDbBlockEnd
  0
BLOCK
  5
47C
330
47B
100
AcDbEntity
  8
0
100
AcDbBlockBegin
  2
*U9
 70
     1
 10
0.0
 20
0.0
 30
0.0
  3
*U9
  1
*U
  0
LINE
  5
47D
330
47B
100
AcDbEntity
  8
CENN
100
AcDbLine
 10
0.0
 20
-7.0
 30
0.0
 11
0.0
 21
7.0
 31
0.0
  0
CIRCLE
  5
47E
330
47B
100
AcDbEntity
  8
BHMM
100
AcDbCircle
 10
0.0
 20
0.0
 30
0.0
 40
3.3235
  0
ARC
  5
47F
330
47B
100
AcDbEntity
  8
THLI
100
AcDbCircle
 10
0.0
 20
0.0
 30
0.0
 40
4.0
100
AcDbArc
 50
280.0
 51
210.0
  0
LINE
  5
480
330
47B
100
AcDbEntity
  8
CENN
100
AcDbLine
 10
-7.0
 20
0.0
 30
0.0
 11
7.0
 21
0.0
 31
0.0
  0
ENDBLK
  5
481
330
47B
100
AcDbEntity
  8
0
100
AcDbBlockEnd
  0
BLOCK
  5
483
330
482
100
AcDbEntity
  8
0
100
AcDbBlockBegin
  2
*U10
 70
     1
 10
0.0
 20
0.0
 30
0.0
  3
*U10
  1
*U
  0
INSERT
  5
484
330
482
100
AcDbEntity
  8
GEV_FROZEN
100
AcDbBlockReference
  2
*U9
 10
0.0
 20
0.0
 30
0.0
 41
0.1
 42
0.1
 43
0.1
1001
GENBH
1002
{
1000
-NOBRK
1002
}
  0
LINE
  5
485
330
482
100
AcDbEntity
  8
MSR_4-7A
100
AcDbLine
 10
0.0
 20
-7.0
 30
0.0
 11
0.0
 21
7.0
 31
0.0
  0
CIRCLE
  5
486
330
482
100
AcDbEntity
  8
MSR_4-2
100
AcDbCircle
 10
0.0
 20
0.0
 30
0.0
 40
3.3235
  0
ARC
  5
487
330
482
100
AcDbEntity
  8
MSR_4-4
100
AcDbCircle
 10
0.0
 20
0.0
 30
0.0
 40
4.0
100
AcDbArc
 50
280.0
 51
210.0
  0
LINE
  5
488
330
482
100
AcDbEntity
  8
MSR_4-7A
100
AcDbLine
 10
-7.0
 20
0.0
 30
0.0
 11
7.0
 21
0.0
 31
0.0
  0
ENDBLK
  5
489
330
482
100
AcDbEntity
  8
0
100
AcDbBlockEnd
  0
BLOCK
  5
574
330
572
100
AcDbEntity
  8
0
100
AcDbBlockBegin
  2
GENAXEH
 70
     0
 10
0.0
 20
0.0
 30
0.0
  3
GENAXEH
  1

  0
LINE
  5
573
330
572
100
AcDbEntity
  8
0
100
AcDbLine
 10
-1.0
 20
0.0
 30
0.0
 11
1.0
 21
0.0
 31
0.0
  0
ENDBLK
  5
575
330
572
100
AcDbEntity
  8
0
100
AcDbBlockEnd
  0
ENDSEC
  0
SECTION
  2
ENTITIES
  0
LINE
  5
29B
330
1A
100
AcDbEntity
  8
MSR_4-2
100
AcDbLine
 10
-37.52072200000004
 20
-280.2155773275707
 30
0.0
 11
37.47927799999997
 21
-280.2155773275707
 31
0.0
  0
LINE
  5
29C
330
1A
100
AcDbEntity
  8
MSR_4-2
100
AcDbLine
 10
-37.52072200000004
 20
-205.2155773275708
 30
0.0
 11
37.47927799999997
 21
-205.2155773275708
 31
0.0
  0
CIRCLE
  5
29E
330
1A
100
AcDbEntity
  8
MSR_4-0
100
AcDbCircle
 10
0.0
 20
0.0
 30
0.0
 40
8.0
  0
CIRCLE
  5
29F
330
1A
100
AcDbEntity
  8
MSR_4-2
100
AcDbCircle
 10
-0.0207220000000348
 20
-242.7155773275707
 30
0.0
 40
8.0
  0
LINE
  5
2A0
330
1A
100
AcDbEntity
  8
MSR_4-7
100
AcDbLine
 10
12.10274599999999
 20
0.0
 30
0.0
 11
-12.66225400000002
 21
0.0
 31
0.0
  0
LINE
  5
2A1
330
1A
100
AcDbEntity
  8
MSR_4-2
100
AcDbLine
 10
37.5
 20
-59.52523828095895
 30
0.0
 11
-37.50000000000006
 21
-59.52523828095895
 31
0.0
  0
LINE
  5
2A2
330
1A
100
AcDbEntity
  8
MSR_4-2
100
AcDbLine
 10
37.0
 20
-81.52523828095894
 30
0.0
 11
-28.50000000000006
 21
-81.52523828095894
 31
0.0
  0
LINE
  5
2A3
330
1A
100
AcDbEntity
  8
MSR_4-2
100
AcDbLine
 10
37.0
 20
-102.0252382809589
 30
0.0
 11
-27.50000000000006
 21
-102.0252382809589
 31
0.0
  0
LINE
  5
2A4
330
1A
100
AcDbEntity
  8
MSR_4-2
100
AcDbLine
 10
-28.50000000000006
 20
-93.52523828095895
 30
0.0
 11
37.0
 21
-93.52523828095895
 31
0.0
  0
LINE
  5
2A5
330
1A
100
AcDbEntity
  8
MSR_4-2
100
AcDbLine
 10
-37.50000000000006
 20
-80.52523828095894
 30
0.0
 11
37.5
 21
-80.52523828095894
 31
0.0
  0
LINE
  5
2A6
330
1A
100
AcDbEntity
  8
MSR_4-7
100
AcDbLine
 10
12.08202399999999
 20
-242.7155773275707
 30
0.0
 11
-12.68297599999999
 21
-242.7155773275707
 31
0.0
  0
LINE
  5
2A7
330
1A
100
AcDbEntity
  8
MSR_4-0
100
AcDbLine
 10
-66.50000000000665
 20
-152.5252382809589
 30
0.0
 11
66.49999999999335
 21
-152.5252382809589
 31
0.0
  0
LINE
  5
2A8
330
1A
100
AcDbEntity
  8
MSR_4-0
100
AcDbLine
 10
66.5
 20
-37.5
 30
0.0
 11
-76.00000000000003
 21
-37.5
 31
0.0
  0
LINE
  5
2A9
330
1A
100
AcDbEntity
  8
MSR_4-0
100
AcDbLine
 10
-76.00000000000003
 20
37.50000000000006
 30
0.0
 11
66.5
 21
37.50000000000006
 31
0.0
  0
LINE
  5
2AA
330
1A
100
AcDbEntity
  8
MSR_4-0
100
AcDbLine
 10
66.5
 20
-102.5252382809589
 30
0.0
 11
-26.00000000000006
 21
-102.5252382809589
 31
0.0
  0
LINE
  5
2AB
330
1A
100
AcDbEntity
  8
MSR_4-0
100
AcDbLine
 10
-76.00000000000665
 20
-164.5252382809589
 30
0.0
 11
66.49999999999335
 21
-164.5252382809589
 31
0.0
  0
LINE
  5
2AC
330
1A
100
AcDbEntity
  8
MSR_4-0
100
AcDbLine
 10
-67.50863600000002
 20
-280.2155773275707
 30
0.0
 11
-76.02072200000003
 21
-280.2155773275707
 31
0.0
  0
LINE
  5
2AD
330
1A
100
AcDbEntity
  8
MSR_4-7
100
AcDbLine
 10
-69.38874600000002
 20
-212.7155773275708
 30
0.0
 11
-46.52874600000001
 21
-212.7155773275708
 31
0.0
  0
LINE
  5
2AE
330
1A
100
AcDbEntity
  8
MSR_4-7
100
AcDbLine
 10
-69.38874600000002
 20
-272.7155753275707
 30
0.0
 11
-46.52874600000001
 21
-272.7155753275707
 31
0.0
  0
LINE
  5
2AF
330
1A
100
AcDbEntity
  8
MSR_4-0
100
AcDbLine
 10
-76.02072200000003
 20
-205.2155773275708
 30
0.0
 11
-37.52072200000004
 21
-205.2155773275708
 31
0.0
  0
ARC
  5
2B0
330
1A
100
AcDbEntity
  8
MSR_4-0
100
AcDbCircle
 10
-79.63001200000002
 20
-272.5882813275707
 30
0.0
 40
3.610541999999999
100
AcDbArc
 50
317.43533
 51
43.06174099999999
  0
ARC
  5
2B1
330
1A
100
AcDbEntity
  8
MSR_4-0
100
AcDbCircle
 10
-77.41143
 20
-272.5882813275707
 30
0.0
 40
3.610541999999999
100
AcDbArc
 50
136.93826
 51
222.564665
  0
LINE
  5
2B2
330
1A
100
AcDbEntity
  8
MSR_4-0
100
AcDbLine
 10
-81.02072200000003
 20
-272.4932073275708
 30
0.0
 11
-81.02072200000003
 21
-257.9379453275708
 31
0.0
  0
LINE
  5
2B3
330
1A
100
AcDbEntity
  8
MSR_4-0
100
AcDbLine
 10
-76.02072200000003
 20
-280.2155773275707
 30
0.0
 11
-76.02072200000003
 21
-205.2155773275708
 31
0.0
  0
LINE
  5
2B4
330
1A
100
AcDbEntity
  8
MSR_4-0
100
AcDbLine
 10
-80.07064600000001
 20
-275.0305313275708
 30
0.0
 11
-76.97079600000001
 21
-275.0305313275708
 31
0.0
  0
ARC
  5
2B5
330
1A
100
AcDbEntity
  8
MSR_4-0
100
AcDbCircle
 10
-88.90308599999997
 20
-220.2155753275708
 30
0.0
 40
12.882364
100
AcDbArc
 50
337.607746
 51
22.392251
  0
LINE
  5
2B6
330
1A
100
AcDbEntity
  8
MSR_4-0
100
AcDbLine
 10
-81.02072200000003
 20
-212.9379453275707
 30
0.0
 11
-81.02072200000003
 21
-227.4932073275707
 31
0.0
  0
ARC
  5
2B7
330
1A
100
AcDbEntity
  8
MSR_4-0
100
AcDbCircle
 10
-68.13835799999998
 20
-220.2155753275708
 30
0.0
 40
12.882364
100
AcDbArc
 50
157.607746
 51
202.392257
  0
LINE
  5
2B8
330
1A
100
AcDbEntity
  8
MSR_4-0
100
AcDbLine
 10
-76.97079600000001
 20
-255.4006213275707
 30
0.0
 11
-80.07064800000007
 21
-255.4006213275707
 31
0.0
  0
LINE
  5
2B9
330
1A
100
AcDbEntity
  8
MSR_4-0
100
AcDbLine
 10
-80.04936000000004
 20
-260.3080993275707
 30
0.0
 11
-76.99208400000003
 21
-260.3080993275707
 31
0.0
  0
LINE
  5
2BA
330
1A
100
AcDbEntity
  8
MSR_4-7
100
AcDbLine
 10
-85.26374600000002
 20
-265.2155773275707
 30
0.0
 11
-72.40499600000004
 21
-265.2155773275707
 31
0.0
  0
LINE
  5
2BB
330
1A
100
AcDbEntity
  8
MSR_4-0
100
AcDbLine
 10
-80.04936000000004
 20
-270.1230533275708
 30
0.0
 11
-76.99208400000003
 21
-270.1230533275708
 31
0.0
  0
ARC
  5
2BC
330
1A
100
AcDbEntity
  8
MSR_4-0
100
AcDbCircle
 10
-77.41143
 20
-257.8428713275707
 30
0.0
 40
3.610541999999999
100
AcDbArc
 50
137.435338
 51
223.061742
  0
ARC
  5
2BD
330
1A
100
AcDbEntity
  8
MSR_4-0
100
AcDbCircle
 10
-68.13835799999998
 20
-265.2155773275707
 30
0.0
 40
12.882364
100
AcDbArc
 50
157.607743
 51
202.392254
  0
ARC
  5
2BE
330
1A
100
AcDbEntity
  8
MSR_4-0
100
AcDbCircle
 10
-79.63001200000002
 20
-257.8428713275707
 30
0.0
 40
3.610541999999999
100
AcDbArc
 50
316.938254
 51
42.56466599999999
  0
ARC
  5
2BF
330
1A
100
AcDbEntity
  8
MSR_4-0
100
AcDbCircle
 10
-88.90308599999997
 20
-265.2155773275707
 30
0.0
 40
12.882364
100
AcDbArc
 50
337.607749
 51
22.392254
  0
LINE
  5
2C0
330
1A
100
AcDbEntity
  8
MSR_4-0
100
AcDbLine
 10
-80.04936000000004
 20
-225.1230533275708
 30
0.0
 11
-76.99208400000003
 21
-225.1230533275708
 31
0.0
  0
LINE
  5
2C1
330
1A
100
AcDbEntity
  8
MSR_4-0
100
AcDbLine
 10
-76.97079600000001
 20
-230.0305313275708
 30
0.0
 11
-80.07064800000007
 21
-230.0305313275708
 31
0.0
  0
ARC
  5
2C2
330
1A
100
AcDbEntity
  8
MSR_4-0
100
AcDbCircle
 10
-77.41143
 20
-227.5882813275708
 30
0.0
 40
3.610541999999999
100
AcDbArc
 50
136.938258
 51
222.564662
  0
ARC
  5
2C3
330
1A
100
AcDbEntity
  8
MSR_4-0
100
AcDbCircle
 10
-79.63001200000002
 20
-227.5882813275708
 30
0.0
 40
3.610541999999999
100
AcDbArc
 50
317.435334
 51
43.061746
  0
LINE
  5
2C4
330
1A
100
AcDbEntity
  8
MSR_4-0
100
AcDbLine
 10
-80.07064600000001
 20
-210.4006213275707
 30
0.0
 11
-76.97079600000001
 21
-210.4006213275707
 31
0.0
  0
LINE
  5
2C5
330
1A
100
AcDbEntity
  8
MSR_4-0
100
AcDbLine
 10
-80.04936000000004
 20
-215.3080993275708
 30
0.0
 11
-76.99208400000003
 21
-215.3080993275708
 31
0.0
  0
LINE
  5
2C6
330
1A
100
AcDbEntity
  8
MSR_4-7
100
AcDbLine
 10
-85.26374600000002
 20
-220.2155773275708
 30
0.0
 11
-72.40499600000004
 21
-220.2155773275708
 31
0.0
  0
ARC
  5
2C7
330
1A
100
AcDbEntity
  8
MSR_4-0
100
AcDbCircle
 10
-77.41143
 20
-212.8428713275708
 30
0.0
 40
3.610541999999999
100
AcDbArc
 50
137.435335
 51
223.0617399999999
  0
ARC
  5
2C8
330
1A
100
AcDbEntity
  8
MSR_4-0
100
AcDbCircle
 10
-79.63001200000002
 20
-212.8428713275708
 30
0.0
 40
3.610541999999999
100
AcDbArc
 50
316.938259
 51
42.56466999999999
  0
ARC
  5
2C9
330
1A
100
AcDbEntity
  8
MSR_4-0
100
AcDbCircle
 10
-67.36684400000001
 20
-272.7155753275707
 30
0.0
 40
11.853936
100
AcDbArc
 50
341.547393
 51
18.45261
  0
ARC
  5
2CA
330
1A
100
AcDbEntity
  8
MSR_4-0
100
AcDbCircle
 10
-55.52071800000004
 20
-272.7155753275707
 30
0.0
 40
12.000004
100
AcDbArc
 50
161.779946
 51
198.220059
  0
INSERT
  5
2CB
330
1A
100
AcDbEntity
  8
MSR_4-2
100
AcDbBlockReference
  2
*U6
 10
-24.02072200000004
 20
-266.7155773275707
 30
0.0
1001
GENIUS_GEFPARTINS_13
1002
{
1011
-24.02072200000004
1021
-266.7155773275707
1031
0.0
1013
1.0
1023
0.0
1033
0.0
1002
}
1001
VCC
1002
{
1000
-ID2
1000
-IE2
1000
-IK2
1000
-V$PV_GENSYSTEM"GEF\VAL\DI\0401\DI1616_D.DXF"
1002
}
1001
GEVIT
1002
{
1000
-BEHI2.00000001
1000
-BVCCT0
1000
-GRP0?
1000
-BAML2
1000
-BASK1
1000
-NT0
1000
-DOC
1005
45C
1000
-MYREF
1005
2CB
1002
}
1001
GEVPT
1002
{
1000
-V$PV_GENSYSTEM"GEF\VAL\DI\0401\DI1616_D.DXF"
1000
-GPGEF_PROCALC=1
1000
-GPGEF_FLIPY=1
1000
-GPGEF_FLIPX=1
1000
-GPGEF_SNK_ADD=0
1000
-GPGEVPROMPTX=Länge:
1000
-GPGEF_OANG=70
1000
-GPGEF_STANG=210
1000
-GPGEF_DRAG=1
1000
-GPGEF_CDIST=3
1000
-GPVCC_TABLE=C:\GENIUS\gef\val\di\0401\di1616.val
1000
-GPNND=8
1000
-GPPRE=M
1002
}
1001
GENIUS_GENOREF_13
1005
449
1005
448
1001
GEVMK
1002
{
1000
-CO
1000
-MYREF
1005
2CB
1002
}
1001
GEVID886518792
1002
{
1002
}
  0
LINE
  5
2CC
330
1A
100
AcDbEntity
  8
MSR_4-7
100
AcDbLine
 10
-24.02072200000004
 20
-260.1596213275708
 30
0.0
 11
-24.02072200000004
 21
-272.8993093275708
 31
0.0
1001
GENIUS_GENOREF_13
1005
447
  0
CIRCLE
  5
2CD
330
1A
100
AcDbEntity
  8
MSR_4-2
100
AcDbCircle
 10
-24.02072200000004
 20
-266.7155773275707
 30
0.0
 40
5.0
  0
LINE
  5
2CE
330
1A
100
AcDbEntity
  8
MSR_4-0
100
AcDbLine
 10
-49.52072200000003
 20
-280.2155773275707
 30
0.0
 11
-49.52072200000003
 21
-264.7155773275707
 31
0.0
  0
LINE
  5
2CF
330
1A
100
AcDbEntity
  8
MSR_4-0
100
AcDbLine
 10
-43.52072200000003
 20
-254.8881333275708
 30
0.0
 11
-43.52072200000003
 21
-280.2155773275707
 31
0.0
  0
LINE
  5
2D0
330
1A
100
AcDbEntity
  8
MSR_4-0
100
AcDbLine
 10
-55.52072200000004
 20
-266.9729853275708
 30
0.0
 11
-55.52072200000004
 21
-278.4581653275708
 31
0.0
  0
LINE
  5
2D1
330
1A
100
AcDbEntity
  8
MSR_4-0
100
AcDbLine
 10
-67.52072200000004
 20
-267.2074333275708
 30
0.0
 11
-67.52072200000004
 21
-278.4581653275708
 31
0.0
  0
LINE
  5
2D2
330
1A
100
AcDbEntity
  8
MSR_4-2
100
AcDbLine
 10
-37.52072200000004
 20
-280.2155773275707
 30
0.0
 11
-37.52072200000004
 21
-205.2155773275708
 31
0.0
  0
LINE
  5
2D3
330
1A
100
AcDbEntity
  8
MSR_4-0
100
AcDbLine
 10
-37.52072200000004
 20
-280.2155773275707
 30
0.0
 11
-67.50863600000002
 21
-280.2155773275707
 31
0.0
  0
LINE
  5
2D4
330
1A
100
AcDbEntity
  8
MSR_4-0
100
AcDbLine
 10
-55.52072200000004
 20
-277.7155753275707
 30
0.0
 11
-49.52072200000003
 21
-277.7155753275707
 31
0.0
  0
LINE
  5
2D5
330
1A
100
AcDbEntity
  8
MSR_4-4
100
AcDbLine
 10
-55.52072200000004
 20
-277.2155753275707
 30
0.0
 11
-49.52072200000003
 21
-277.2155753275707
 31
0.0
  0
LINE
  5
2D6
330
1A
100
AcDbEntity
  8
MSR_4-0
100
AcDbLine
 10
-66.91813800000005
 20
-280.2155753275707
 30
0.0
 11
-56.12330600000001
 21
-280.2155753275707
 31
0.0
  0
LINE
  5
2D7
330
1A
100
AcDbEntity
  8
MSR_4-0
100
AcDbLine
 10
-66.91907200000002
 20
-276.4675853275708
 30
0.0
 11
-56.12236999999999
 21
-276.4675853275708
 31
0.0
  0
LINE
  5
2D8
330
1A
100
AcDbEntity
  8
MSR_4-0
100
AcDbLine
 10
-67.50863600000002
 20
-280.2155773275707
 30
0.0
 11
-67.50863600000002
 21
-280.2155773275707
 31
0.0
  0
ARC
  5
2D9
330
1A
100
AcDbEntity
  8
MSR_4-0
100
AcDbCircle
 10
-64.31481400000001
 20
-278.3409313275707
 30
0.0
 40
3.20805
100
AcDbArc
 50
144.271067
 51
215.75754
  0
ARC
  5
2DA
330
1A
100
AcDbEntity
  8
MSR_4-0
100
AcDbCircle
 10
-58.726628
 20
-278.3409293275707
 30
0.0
 40
3.20805
100
AcDbArc
 50
324.242434
 51
35.72893
  0
LINE
  5
2DB
330
1A
100
AcDbEntity
  8
MSR_4-0
100
AcDbLine
 10
-66.52072200000003
 20
-220.2155773275708
 30
0.0
 11
-66.52072200000003
 21
-265.2155773275707
 31
0.0
  0
LINE
  5
2DC
330
1A
100
AcDbEntity
  8
MSR_4-0
100
AcDbLine
 10
-49.52072200000003
 20
-220.7155773275708
 30
0.0
 11
-49.52072200000003
 21
-205.2155773275708
 31
0.0
  0
LINE
  5
2DD
330
1A
100
AcDbEntity
  8
MSR_4-0
100
AcDbLine
 10
-43.52072200000003
 20
-205.2155773275708
 30
0.0
 11
-43.52072200000003
 21
-254.8881333275708
 31
0.0
  0
LINE
  5
2DE
330
1A
100
AcDbEntity
  8
MSR_4-0
100
AcDbLine
 10
-53.52072200000003
 20
-220.7155773275708
 30
0.0
 11
-49.52072200000003
 21
-220.7155773275708
 31
0.0
  0
LINE
  5
2DF
330
1A
100
AcDbEntity
  8
MSR_4-7
100
AcDbLine
 10
-64.46749600000003
 20
-242.7155773275707
 30
0.0
 11
-49.92925400000001
 21
-242.7155773275707
 31
0.0
  0
LINE
  5
2E0
330
1A
100
AcDbEntity
  8
MSR_4-0
100
AcDbLine
 10
-49.52072200000003
 20
-264.7155773275707
 30
0.0
 11
-53.52072200000003
 21
-264.7155773275707
 31
0.0
  0
LINE
  5
2E1
330
1A
100
AcDbEntity
  8
MSR_4-0
100
AcDbLine
 10
-55.52072200000004
 20
-267.7155753275707
 30
0.0
 11
-49.52072200000003
 21
-267.7155753275707
 31
0.0
  0
LINE
  5
2E2
330
1A
100
AcDbEntity
  8
MSR_4-4
100
AcDbLine
 10
-55.52072200000004
 20
-268.2155753275707
 30
0.0
 11
-49.52072200000003
 21
-268.2155753275707
 31
0.0
  0
LINE
  5
2E3
330
1A
100
AcDbEntity
  8
MSR_4-0
100
AcDbLine
 10
-56.52072200000003
 20
-237.2155773275707
 30
0.0
 11
-56.52072200000003
 21
-248.2155773275708
 31
0.0
  0
LINE
  5
2E4
330
1A
100
AcDbEntity
  8
MSR_4-0
100
AcDbLine
 10
-62.52072200000004
 20
-247.2155773275707
 30
0.0
 11
-62.52072200000004
 21
-242.7155773275707
 31
0.0
  0
LINE
  5
2E5
330
1A
100
AcDbEntity
  8
MSR_4-0
100
AcDbLine
 10
-53.52072200000003
 20
-257.7213893275707
 30
0.0
 11
-53.52072200000003
 21
-220.7155773275708
 31
0.0
  0
LINE
  5
2E6
330
1A
100
AcDbEntity
  8
MSR_4-0
100
AcDbLine
 10
-56.52072200000003
 20
-248.2155773275708
 30
0.0
 11
-61.52072200000003
 21
-248.2155773275708
 31
0.0
  0
LINE
  5
2E7
330
1A
100
AcDbEntity
  8
MSR_4-0
100
AcDbLine
 10
-66.52072200000003
 20
-265.2155773275707
 30
0.0
 11
-56.12330600000001
 21
-265.2155773275707
 31
0.0
  0
LINE
  5
2E8
330
1A
100
AcDbEntity
  8
MSR_4-0
100
AcDbLine
 10
-66.91907200000002
 20
-268.9635653275708
 30
0.0
 11
-56.12236999999999
 21
-268.9635653275708
 31
0.0
  0
ARC
  5
2E9
330
1A
100
AcDbEntity
  8
MSR_4-0
100
AcDbCircle
 10
-64.31481200000002
 20
-267.0902213275707
 30
0.0
 40
3.208051999999999
100
AcDbArc
 50
144.242468
 51
215.728892
  0
ARC
  5
2EA
330
1A
100
AcDbEntity
  8
MSR_4-0
100
AcDbCircle
 10
-61.52072200000003
 20
-247.2155773275707
 30
0.0
 40
1.0
100
AcDbArc
 50
180.0000029999999
 51
270.000003
  0
LINE
  5
2EB
330
1A
100
AcDbEntity
  8
MSR_4-0
100
AcDbLine
 10
-53.52072200000003
 20
-264.7155773275707
 30
0.0
 11
-53.52072200000003
 21
-257.7213893275707
 31
0.0
  0
ARC
  5
2EC
330
1A
100
AcDbEntity
  8
MSR_4-0
100
AcDbCircle
 10
-58.726628
 20
-267.0902213275707
 30
0.0
 40
3.20805
100
AcDbArc
 50
324.271069
 51
35.757539
  0
LINE
  5
2ED
330
1A
100
AcDbEntity
  8
MSR_4-0
100
AcDbLine
 10
-53.52072200000003
 20
-245.7155773275708
 30
0.0
 11
-56.52072200000003
 21
-245.7155773275708
 31
0.0
  0
LINE
  5
2EE
330
1A
100
AcDbEntity
  8
MSR_4-0
100
AcDbLine
 10
-61.52072200000003
 20
-237.2155773275707
 30
0.0
 11
-56.52072200000003
 21
-237.2155773275707
 31
0.0
  0
ARC
  5
2EF
330
1A
100
AcDbEntity
  8
MSR_4-0
100
AcDbCircle
 10
-61.52072200000003
 20
-238.2155773275707
 30
0.0
 40
1.0
100
AcDbArc
 50
90.0
 51
180.0000029999999
  0
LINE
  5
2F0
330
1A
100
AcDbEntity
  8
MSR_4-0
100
AcDbLine
 10
-62.52072200000004
 20
-242.7155773275707
 30
0.0
 11
-62.52072200000004
 21
-238.2155773275707
 31
0.0
  0
LINE
  5
2F1
330
1A
100
AcDbEntity
  8
MSR_4-0
100
AcDbLine
 10
-53.52072200000003
 20
-239.7155773275708
 30
0.0
 11
-56.52072200000003
 21
-239.7155773275708
 31
0.0
  0
LINE
  5
2F2
330
1A
100
AcDbEntity
  8
MSR_4-4
100
AcDbLine
 10
-53.52072200000003
 20
-240.2155773275707
 30
0.0
 11
-56.52072200000003
 21
-240.2155773275707
 31
0.0
  0
LINE
  5
2F3
330
1A
100
AcDbEntity
  8
MSR_4-4
100
AcDbLine
 10
-53.52072200000003
 20
-245.2155773275707
 30
0.0
 11
-56.52072200000003
 21
-245.2155773275707
 31
0.0
  0
LINE
  5
2F4
330
1A
100
AcDbEntity
  8
MSR_4-0
100
AcDbLine
 10
-55.52072200000004
 20
-207.7155773275708
 30
0.0
 11
-49.52072200000003
 21
-207.7155773275708
 31
0.0
  0
LINE
  5
2F5
330
1A
100
AcDbEntity
  8
MSR_4-4
100
AcDbLine
 10
-55.52072200000004
 20
-208.2155773275708
 30
0.0
 11
-49.52072200000003
 21
-208.2155773275708
 31
0.0
  0
LINE
  5
2F6
330
1A
100
AcDbEntity
  8
MSR_4-0
100
AcDbLine
 10
-55.52072200000004
 20
-217.7155773275708
 30
0.0
 11
-49.52072200000003
 21
-217.7155773275708
 31
0.0
  0
LINE
  5
2F7
330
1A
100
AcDbEntity
  8
MSR_4-4
100
AcDbLine
 10
-55.52072200000004
 20
-217.2155773275708
 30
0.0
 11
-49.52072200000003
 21
-217.2155773275708
 31
0.0
  0
LINE
  5
2F8
330
1A
100
AcDbEntity
  8
MSR_4-0
100
AcDbLine
 10
-66.91907200000002
 20
-208.9635673275707
 30
0.0
 11
-56.12236999999999
 21
-208.9635673275707
 31
0.0
  0
LINE
  5
2F9
330
1A
100
AcDbEntity
  8
MSR_4-0
100
AcDbLine
 10
-66.91907200000002
 20
-216.4675873275708
 30
0.0
 11
-56.12236999999999
 21
-216.4675873275708
 31
0.0
  0
LINE
  5
2FA
330
1A
100
AcDbEntity
  8
MSR_4-0
100
AcDbLine
 10
-66.91813800000005
 20
-220.2155773275708
 30
0.0
 11
-56.12330600000001
 21
-220.2155753275708
 31
0.0
  0
LINE
  5
2FB
330
1A
100
AcDbEntity
  8
MSR_4-0
100
AcDbLine
 10
-67.52072200000004
 20
-207.2074333275708
 30
0.0
 11
-67.52072200000004
 21
-218.4581673275707
 31
0.0
  0
ARC
  5
2FC
330
1A
100
AcDbEntity
  8
MSR_4-0
100
AcDbCircle
 10
-64.31481200000002
 20
-207.0902213275708
 30
0.0
 40
3.208051999999999
100
AcDbArc
 50
144.242468
 51
215.728892
  0
ARC
  5
2FD
330
1A
100
AcDbEntity
  8
MSR_4-0
100
AcDbCircle
 10
-55.52071800000004
 20
-212.7155753275708
 30
0.0
 40
12.000004
100
AcDbArc
 50
161.779946
 51
198.220059
  0
ARC
  5
2FE
330
1A
100
AcDbEntity
  8
MSR_4-0
100
AcDbCircle
 10
-64.31481400000001
 20
-218.3409313275708
 30
0.0
 40
3.20805
100
AcDbArc
 50
144.271067
 51
215.75754
  0
LINE
  5
2FF
330
1A
100
AcDbEntity
  8
MSR_4-0
100
AcDbLine
 10
-55.52072200000004
 20
-206.9729873275707
 30
0.0
 11
-55.52072200000004
 21
-218.4581673275707
 31
0.0
  0
ARC
  5
300
330
1A
100
AcDbEntity
  8
MSR_4-0
100
AcDbCircle
 10
-58.726628
 20
-207.0902213275708
 30
0.0
 40
3.20805
100
AcDbArc
 50
324.271069
 51
35.757539
  0
ARC
  5
301
330
1A
100
AcDbEntity
  8
MSR_4-0
100
AcDbCircle
 10
-67.36684400000001
 20
-212.7155773275708
 30
0.0
 40
11.853936
100
AcDbArc
 50
341.547393
 51
18.45261
  0
ARC
  5
302
330
1A
100
AcDbEntity
  8
MSR_4-0
100
AcDbCircle
 10
-58.726628
 20
-218.3409293275708
 30
0.0
 40
3.20805
100
AcDbArc
 50
324.242434
 51
35.72893
  0
INSERT
  5
303
330
1A
100
AcDbEntity
  8
MSR_4-2
100
AcDbBlockReference
  2
*U4
 10
-24.02072200000004
 20
-218.7155773275708
 30
0.0
1001
GENIUS_GEFPARTINS_13
1002
{
1011
-24.02072200000004
1021
-218.7155773275708
1031
0.0
1013
1.0
1023
0.0
1033
0.0
1002
}
1001
VCC
1002
{
1000
-ID1
1000
-IE1
1000
-IK1
1000
-V$PV_GENSYSTEM"GEF\VAL\DI\0401\DI1616_D.DXF"
1002
}
1001
GEVIT
1002
{
1000
-BEHI1.00000001
1000
-BVCCT0
1000
-GRP0?
1000
-BAML2
1000
-BASK1
1000
-NT0
1000
-DOC
1005
44C
1000
-MYREF
1005
303
1002
}
1001
GEVPT
1002
{
1000
-V$PV_GENSYSTEM"GEF\VAL\DI\0401\DI1616_D.DXF"
1000
-GPGEF_PROCALC=1
1000
-GPGEF_FLIPY=1
1000
-GPGEF_FLIPX=1
1000
-GPGEF_SNK_ADD=0
1000
-GPGEVPROMPTX=Länge:
1000
-GPGEF_OANG=70
1000
-GPGEF_STANG=210
1000
-GPGEF_DRAG=1
1000
-GPGEF_CDIST=3
1000
-GPVCC_TABLE=C:\GENIUS\gef\val\di\0401\di1616.val
1000
-GPNND=8
1000
-GPPRE=M
1002
}
1001
GENIUS_GENOREF_13
1005
446
1005
445
1001
GEVMK
1002
{
1000
-CO
1000
-MYREF
1005
303
1002
}
1001
GEVID886518791
1002
{
1002
}
  0
LINE
  5
304
330
1A
100
AcDbEntity
  8
MSR_4-7
100
AcDbLine
 10
-24.02072200000004
 20
-212.1596213275708
 30
0.0
 11
-24.02072200000004
 21
-224.8993093275707
 31
0.0
1001
GENIUS_GENOREF_13
1005
444
  0
CIRCLE
  5
305
330
1A
100
AcDbEntity
  8
MSR_4-2
100
AcDbCircle
 10
-24.02072200000004
 20
-218.7155773275708
 30
0.0
 40
5.0
  0
LINE
  5
306
330
1A
100
AcDbEntity
  8
MSR_4-7
100
AcDbLine
 10
-30.608496
 20
-266.7155773275707
 30
0.0
 11
-17.551308
 21
-266.7155773275707
 31
0.0
1001
GENIUS_GENOREF_13
1005
447
  0
LINE
  5
307
330
1A
100
AcDbEntity
  8
MSR_4-7
100
AcDbLine
 10
-0.0207220000000348
 20
-230.1601073275707
 30
0.0
 11
-0.0207220000000348
 21
-253.1517353275707
 31
0.0
  0
LINE
  5
308
330
1A
100
AcDbEntity
  8
MSR_4-7
100
AcDbLine
 10
-30.608496
 20
-218.7155773275708
 30
0.0
 11
-17.551308
 21
-218.7155773275708
 31
0.0
1001
GENIUS_GENOREF_13
1005
444
  0
LINE
  5
309
330
1A
100
AcDbEntity
  8
MSR_4-4A
100
AcDbLine
 10
-149.0
 20
-129.5252382809589
 30
0.0
 11
-81.00000000000006
 21
-129.525238280959
 31
0.0
  0
LINE
  5
30A
330
1A
100
AcDbEntity
  8
MSR_4-4A
100
AcDbLine
 10
-81.00000000000006
 20
-115.525238280959
 30
0.0
 11
-149.0
 21
-115.5252382809589
 31
0.0
  0
LINE
  5
30B
330
1A
100
AcDbEntity
  8
MSR_4-4A
100
AcDbLine
 10
-149.0
 20
-116.2752382809589
 30
0.0
 11
-81.00000000000006
 21
-116.2752382809589
 31
0.0
  0
LINE
  5
30C
330
1A
100
AcDbEntity
  8
MSR_4-4A
100
AcDbLine
 10
-149.0
 20
-128.7752382809589
 30
0.0
 11
-81.00000000000006
 21
-128.7752382809589
 31
0.0
  0
LINE
  5
30D
330
1A
100
AcDbEntity
  8
MSR_4-7
100
AcDbLine
 10
-74.61855400000001
 20
-122.5252382809589
 30
0.0
 11
-160.983516
 21
-122.5252382809589
 31
0.0
  0
LINE
  5
30E
330
1A
100
AcDbEntity
  8
MSR_4-4A
100
AcDbLine
 10
-156.0
 20
-116.7752382809589
 30
0.0
 11
-156.0
 21
-128.2752382809589
 31
0.0
  0
LINE
  5
30F
330
1A
100
AcDbEntity
  8
MSR_4-4A
100
AcDbLine
 10
-149.0
 20
-116.7752382809589
 30
0.0
 11
-149.0
 21
-128.2752382809589
 31
0.0
  0
LINE
  5
310
330
1A
100
AcDbEntity
  8
MSR_4-4A
100
AcDbLine
 10
-156.0
 20
-128.2752382809589
 30
0.0
 11
-149.0
 21
-128.2752382809589
 31
0.0
  0
LINE
  5
311
330
1A
100
AcDbEntity
  8
MSR_4-4A
100
AcDbLine
 10
-149.0
 20
-128.2752382809589
 30
0.0
 11
-149.0
 21
-129.5252382809589
 31
0.0
  0
LINE
  5
312
330
1A
100
AcDbEntity
  8
MSR_4-4A
100
AcDbLine
 10
-149.0
 20
-116.7752382809589
 30
0.0
 11
-156.0
 21
-116.7752382809589
 31
0.0
  0
LINE
  5
313
330
1A
100
AcDbEntity
  8
MSR_4-4A
100
AcDbLine
 10
-149.0
 20
-115.5252382809589
 30
0.0
 11
-149.0
 21
-116.7752382809589
 31
0.0
  0
LINE
  5
314
330
1A
100
AcDbEntity
  8
MSR_4-0
100
AcDbLine
 10
-81.00000000000003
 20
29.77762999999999
 30
0.0
 11
-81.00000000000003
 21
15.22237000000001
 31
0.0
  0
LINE
  5
315
330
1A
100
AcDbEntity
  8
MSR_4-0
100
AcDbLine
 10
-66.50000000000003
 20
37.50000000000006
 30
0.0
 11
-66.50000000000003
 21
-37.5
 31
0.0
  0
ARC
  5
316
330
1A
100
AcDbEntity
  8
MSR_4-0
100
AcDbCircle
 10
-79.60929000000001
 20
29.87270599999994
 30
0.0
 40
3.610541999999999
100
AcDbArc
 50
316.938259
 51
42.56466999999999
  0
ARC
  5
317
330
1A
100
AcDbEntity
  8
MSR_4-0
100
AcDbCircle
 10
-77.39070800000002
 20
29.87270599999994
 30
0.0
 40
3.610541999999999
100
AcDbArc
 50
137.435335
 51
223.0617399999999
  0
LINE
  5
318
330
1A
100
AcDbEntity
  8
MSR_4-0
100
AcDbLine
 10
-76.00000000000003
 20
-37.5
 30
0.0
 11
-76.00000000000003
 21
37.50000000000006
 31
0.0
  0
ARC
  5
319
330
1A
100
AcDbEntity
  8
MSR_4-0
100
AcDbCircle
 10
-57.50000000000006
 20
-84.27322828095901
 30
0.0
 40
12.0
100
AcDbArc
 50
161.7799399999999
 51
198.220062
  0
ARC
  5
31A
330
1A
100
AcDbEntity
  8
MSR_4-0
100
AcDbCircle
 10
-57.50000000000006
 20
-91.77724828095898
 30
0.0
 40
12.0
100
AcDbArc
 50
161.779938
 51
198.220063
  0
LINE
  5
31B
330
1A
100
AcDbEntity
  8
MSR_4-0
100
AcDbLine
 10
-66.50000000000005
 20
-102.5252382809589
 30
0.0
 11
-76.00000000000005
 21
-102.5252382809589
 31
0.0
  0
LINE
  5
31C
330
1A
100
AcDbEntity
  8
MSR_4-0
100
AcDbLine
 10
-76.00000000000665
 20
-152.5252382809589
 30
0.0
 11
-66.50000000000665
 21
-152.5252382809589
 31
0.0
  0
LINE
  5
31D
330
1A
100
AcDbEntity
  8
MSR_4-0
100
AcDbLine
 10
-69.50000000000006
 20
-95.52925828095903
 30
0.0
 11
-57.50000000000006
 21
-95.52925828095903
 31
0.0
  0
LINE
  5
31E
330
1A
100
AcDbEntity
  8
MSR_4-0
100
AcDbLine
 10
-57.50000000000006
 20
-80.52121828095897
 30
0.0
 11
-69.50000000000006
 21
-80.52121828095897
 31
0.0
  0
ARC
  5
31F
330
1A
100
AcDbEntity
  8
MSR_4-0
100
AcDbCircle
 10
-88.015512
 20
-118.2752382809589
 30
0.0
 40
12.015512
100
AcDbArc
 50
339.285635
 51
20.714368
  0
LINE
  5
320
330
1A
100
AcDbEntity
  8
MSR_4-0
100
AcDbLine
 10
-81.00000000000006
 20
-114.0252382809589
 30
0.0
 11
-81.00000000000006
 21
-131.0252382809589
 31
0.0
  0
ARC
  5
321
330
1A
100
AcDbEntity
  8
MSR_4-0
100
AcDbCircle
 10
-68.984486
 20
-118.2752382809589
 30
0.0
 40
12.015512
100
AcDbArc
 50
159.285632
 51
200.714369
  0
LINE
  5
322
330
1A
100
AcDbEntity
  8
MSR_4-0
100
AcDbLine
 10
-76.00000000000005
 20
-102.5252382809589
 30
0.0
 11
-76.00000000000005
 21
-152.5252382809589
 31
0.0
  0
LINE
  5
323
330
1A
100
AcDbEntity
  8
MSR_4-0
100
AcDbLine
 10
-76.00000000000665
 20
-152.5252382809589
 30
0.0
 11
-76.00000000000665
 21
-164.5252382809589
 31
0.0
  0
LINE
  5
324
330
1A
100
AcDbEntity
  8
MSR_4-0
100
AcDbLine
 10
-80.22326000000004
 20
-122.5252382809589
 30
0.0
 11
-76.77673800000002
 21
-122.5252382809589
 31
0.0
  0
LINE
  5
325
330
1A
100
AcDbEntity
  8
MSR_4-0
100
AcDbLine
 10
-81.00000000000006
 20
-131.0252382809589
 30
0.0
 11
-76.00000000000005
 21
-131.0252382809589
 31
0.0
  0
ARC
  5
326
330
1A
100
AcDbEntity
  8
MSR_4-0
100
AcDbCircle
 10
-68.984486
 20
-126.7752382809589
 30
0.0
 40
12.015512
100
AcDbArc
 50
159.285631
 51
200.714371
  0
ARC
  5
327
330
1A
100
AcDbEntity
  8
MSR_4-0
100
AcDbCircle
 10
-88.01551999999999
 20
-126.7752362809589
 30
0.0
 40
12.01552
100
AcDbArc
 50
339.285646
 51
20.714354
  0
LINE
  5
328
330
1A
100
AcDbEntity
  8
MSR_4-0
100
AcDbLine
 10
-76.00000000000005
 20
-114.0252382809589
 30
0.0
 11
-81.00000000000006
 21
-114.0252382809589
 31
0.0
  0
LINE
  5
329
330
1A
100
AcDbEntity
  8
MSR_4-0
100
AcDbLine
 10
-69.50000000000006
 20
-80.52121828095897
 30
0.0
 11
-69.50000000000006
 21
-95.52925828095903
 31
0.0
  0
ARC
  5
32A
330
1A
100
AcDbEntity
  8
MSR_4-0
100
AcDbCircle
 10
-88.88236400000002
 20
-22.5
 30
0.0
 40
12.882364
100
AcDbArc
 50
337.607749
 51
22.392254
  0
LINE
  5
32B
330
1A
100
AcDbEntity
  8
MSR_4-0
100
AcDbLine
 10
-81.00000000000003
 20
-29.77762999999999
 30
0.0
 11
-81.00000000000003
 21
-15.22237000000001
 31
0.0
  0
ARC
  5
32C
330
1A
100
AcDbEntity
  8
MSR_4-0
100
AcDbCircle
 10
-68.117636
 20
-22.5
 30
0.0
 40
12.882364
100
AcDbArc
 50
157.607743
 51
202.392254
  0
LINE
  5
32D
330
1A
100
AcDbEntity
  8
MSR_4-0
100
AcDbLine
 10
-80.02863800000003
 20
-27.40747599999997
 30
0.0
 11
-76.97136200000002
 21
-27.40747599999997
 31
0.0
  0
LINE
  5
32E
330
1A
100
AcDbEntity
  8
MSR_4-0
100
AcDbLine
 10
-80.04992400000004
 20
-32.314954
 30
0.0
 11
-76.95007400000003
 21
-32.314954
 31
0.0
  0
LINE
  5
32F
330
1A
100
AcDbEntity
  8
MSR_4-7
100
AcDbLine
 10
-85.24302400000001
 20
-22.5
 30
0.0
 11
-72.38427400000003
 21
-22.5
 31
0.0
  0
ARC
  5
330
330
1A
100
AcDbEntity
  8
MSR_4-0
100
AcDbCircle
 10
-77.39070800000002
 20
-29.872704
 30
0.0
 40
3.610541999999999
100
AcDbArc
 50
136.93826
 51
222.564665
  0
ARC
  5
331
330
1A
100
AcDbEntity
  8
MSR_4-0
100
AcDbCircle
 10
-79.60929000000001
 20
-29.872704
 30
0.0
 40
3.610541999999999
100
AcDbArc
 50
317.43533
 51
43.06174099999999
  0
LINE
  5
332
330
1A
100
AcDbEntity
  8
MSR_4-0
100
AcDbLine
 10
-76.95007400000003
 20
-12.685044
 30
0.0
 11
-80.04992600000003
 21
-12.685044
 31
0.0
  0
LINE
  5
333
330
1A
100
AcDbEntity
  8
MSR_4-0
100
AcDbLine
 10
-80.02863800000003
 20
-17.59252199999997
 30
0.0
 11
-76.97136200000002
 21
-17.59252199999997
 31
0.0
  0
ARC
  5
334
330
1A
100
AcDbEntity
  8
MSR_4-0
100
AcDbCircle
 10
-77.39070800000002
 20
-15.127294
 30
0.0
 40
3.610541999999999
100
AcDbArc
 50
137.435338
 51
223.061742
  0
ARC
  5
335
330
1A
100
AcDbEntity
  8
MSR_4-0
100
AcDbCircle
 10
-79.60929000000001
 20
-15.127294
 30
0.0
 40
3.610541999999999
100
AcDbArc
 50
316.938254
 51
42.56466599999999
  0
LINE
  5
336
330
1A
100
AcDbEntity
  8
MSR_4-0
100
AcDbLine
 10
-80.02863800000003
 20
27.40747800000003
 30
0.0
 11
-76.97136200000002
 21
27.40747800000003
 31
0.0
  0
LINE
  5
337
330
1A
100
AcDbEntity
  8
MSR_4-7
100
AcDbLine
 10
-85.24302400000001
 20
22.5
 30
0.0
 11
-72.38427400000003
 21
22.5
 31
0.0
  0
LINE
  5
338
330
1A
100
AcDbEntity
  8
MSR_4-0
100
AcDbLine
 10
-80.02863800000003
 20
17.59252400000002
 30
0.0
 11
-76.97136200000002
 21
17.59252400000002
 31
0.0
  0
LINE
  5
339
330
1A
100
AcDbEntity
  8
MSR_4-0
100
AcDbLine
 10
-76.95007400000003
 20
12.685046
 30
0.0
 11
-80.04992600000003
 21
12.685046
 31
0.0
  0
ARC
  5
33A
330
1A
100
AcDbEntity
  8
MSR_4-0
100
AcDbCircle
 10
-77.39070800000002
 20
15.127296
 30
0.0
 40
3.610541999999999
100
AcDbArc
 50
136.938258
 51
222.564662
  0
ARC
  5
33B
330
1A
100
AcDbEntity
  8
MSR_4-0
100
AcDbCircle
 10
-68.117636
 20
22.5
 30
0.0
 40
12.882364
100
AcDbArc
 50
157.607746
 51
202.392257
  0
ARC
  5
33C
330
1A
100
AcDbEntity
  8
MSR_4-0
100
AcDbCircle
 10
-79.60929000000001
 20
15.127296
 30
0.0
 40
3.610541999999999
100
AcDbArc
 50
317.435334
 51
43.061746
  0
ARC
  5
33D
330
1A
100
AcDbEntity
  8
MSR_4-0
100
AcDbCircle
 10
-88.88236400000002
 20
22.500002
 30
0.0
 40
12.882364
100
AcDbArc
 50
337.607746
 51
22.392251
  0
LINE
  5
33E
330
1A
100
AcDbEntity
  8
MSR_4-7
100
AcDbLine
 10
-24.00000000000006
 20
-57.445472280959
 30
0.0
 11
-24.00000000000006
 21
-80.52523828095894
 31
0.0
  0
LINE
  5
33F
330
1A
100
AcDbEntity
  8
MSR_4-2
100
AcDbLine
 10
-37.50000000000006
 20
-59.52523828095895
 30
0.0
 11
-37.50000000000006
 21
-80.52523828095894
 31
0.0
  0
LINE
  5
340
330
1A
100
AcDbEntity
  8
MSR_4-0
100
AcDbLine
 10
-28.50000000000006
 20
-81.02523828095895
 30
0.0
 11
-45.50000000000006
 21
-81.02523828095895
 31
0.0
  0
LINE
  5
341
330
1A
100
AcDbEntity
  8
MSR_4-7
100
AcDbLine
 10
-57.50000000000006
 20
-88.02523828095894
 30
0.0
 11
-2.5
 21
-88.02523828095894
 31
0.0
  0
LINE
  5
342
330
1A
100
AcDbEntity
  8
MSR_4-0
100
AcDbLine
 10
-66.50000000000005
 20
-102.5252382809589
 30
0.0
 11
-66.50000000000005
 21
-152.5252382809589
 31
0.0
  0
TEXT
  5
343
330
1A
100
AcDbEntity
  8
MSR_4-6
100
AcDbText
 10
-60.36461198799824
 20
-146.9371321444761
 30
0.0
 40
3.5
  1
MSR 4
100
AcDbText
  0
LINE
  5
344
330
1A
100
AcDbEntity
  8
MSR_4-0
100
AcDbLine
 10
-51.50000000000005
 20
-81.02523828095895
 30
0.0
 11
-55.50000000000006
 21
-81.02523828095895
 31
0.0
  0
LINE
  5
345
330
1A
100
AcDbEntity
  8
MSR_4-0
100
AcDbLine
 10
-55.50000000000006
 20
-96.02523828095895
 30
0.0
 11
-51.50000000000005
 21
-96.02523828095895
 31
0.0
  0
LINE
  5
346
330
1A
100
AcDbEntity
  8
MSR_4-0
100
AcDbLine
 10
-51.50000000000005
 20
-83.02523828095894
 30
0.0
 11
-57.50000000000006
 21
-83.02523828095894
 31
0.0
  0
LINE
  5
347
330
1A
100
AcDbEntity
  8
MSR_4-4
100
AcDbLine
 10
-51.50000000000005
 20
-83.52523828095895
 30
0.0
 11
-57.50000000000006
 21
-83.52523828095895
 31
0.0
  0
LINE
  5
348
330
1A
100
AcDbEntity
  8
MSR_4-0
100
AcDbLine
 10
-51.50000000000005
 20
-93.02523828095894
 30
0.0
 11
-57.50000000000006
 21
-93.02523828095894
 31
0.0
  0
LINE
  5
349
330
1A
100
AcDbEntity
  8
MSR_4-4
100
AcDbLine
 10
-51.50000000000005
 20
-92.52523828095894
 30
0.0
 11
-57.50000000000006
 21
-92.52523828095894
 31
0.0
  0
LINE
  5
34A
330
1A
100
AcDbEntity
  8
MSR_4-0
100
AcDbLine
 10
-48.00000000000006
 20
-102.5252382809589
 30
0.0
 11
-66.50000000000005
 21
-102.5252382809589
 31
0.0
  0
LINE
  5
34B
330
1A
100
AcDbEntity
  8
MSR_4-0
100
AcDbLine
 10
-55.50000000000006
 20
-93.02523828095894
 30
0.0
 11
-55.50000000000006
 21
-96.02523828095895
 31
0.0
  0
LINE
  5
34C
330
1A
100
AcDbEntity
  8
MSR_4-0
100
AcDbLine
 10
-68.89834999999999
 20
-88.02523828095894
 30
0.0
 11
-58.10164800000001
 21
-88.02523828095894
 31
0.0
  0
ARC
  5
34D
330
1A
100
AcDbEntity
  8
MSR_4-0
100
AcDbCircle
 10
-69.50000000000006
 20
-84.27322828095901
 30
0.0
 40
12.0
100
AcDbArc
 50
341.779943
 51
18.22006
  0
LINE
  5
34E
330
1A
100
AcDbEntity
  8
MSR_4-0
100
AcDbLine
 10
-57.50000000000006
 20
-95.52925828095903
 30
0.0
 11
-57.50000000000006
 21
-80.52121828095897
 31
0.0
  0
ARC
  5
34F
330
1A
100
AcDbEntity
  8
MSR_4-0
100
AcDbCircle
 10
-69.50001000000003
 20
-91.777246280959
 30
0.0
 40
12.000012
100
AcDbArc
 50
341.779954
 51
18.220042
  0
LINE
  5
350
330
1A
100
AcDbEntity
  8
MSR_4-0
100
AcDbLine
 10
-55.50000000000006
 20
-81.02523828095895
 30
0.0
 11
-55.50000000000006
 21
-83.02523828095894
 31
0.0
  0
LINE
  5
351
330
1A
100
AcDbEntity
  8
MSR_4-0
100
AcDbLine
 10
-51.50000000000005
 20
-81.02523828095895
 30
0.0
 11
-51.50000000000005
 21
-96.02523828095895
 31
0.0
  0
LINE
  5
352
330
1A
100
AcDbEntity
  8
MSR_4-0
100
AcDbLine
 10
-45.50000000000006
 20
-81.02523828095895
 30
0.0
 11
-45.50000000000006
 21
-100.0252382809589
 31
0.0
  0
LINE
  5
353
330
1A
100
AcDbEntity
  8
MSR_4-0
100
AcDbLine
 10
-51.50000000000005
 20
-96.02523828095895
 30
0.0
 11
-45.50000000000006
 21
-96.02523828095895
 31
0.0
  0
ARC
  5
354
330
1A
100
AcDbEntity
  8
MSR_4-0
100
AcDbCircle
 10
-48.00000000000006
 20
-100.0252382809589
 30
0.0
 40
2.5
100
AcDbArc
 50
270.000001
 51
0.0
  0
LINE
  5
355
330
1A
100
AcDbEntity
  8
MSR_4-0
100
AcDbLine
 10
-45.50000000000006
 20
-81.02523828095895
 30
0.0
 11
-51.50000000000005
 21
-81.02523828095895
 31
0.0
  0
LINE
  5
356
330
1A
100
AcDbEntity
  8
MSR_4-2
100
AcDbLine
 10
-37.00000000000006
 20
-81.02523828095895
 30
0.0
 11
-37.00000000000006
 21
-80.52523828095894
 31
0.0
  0
LINE
  5
357
330
1A
100
AcDbEntity
  8
MSR_4-7
100
AcDbLine
 10
0.0
 20
-81.52523828095894
 30
0.0
 11
0.0
 21
-166.368520280959
 31
0.0
  0
LINE
  5
358
330
1A
100
AcDbEntity
  8
MSR_4-7
100
AcDbLine
 10
-20.00000000000665
 20
-149.1895982809589
 30
0.0
 11
-20.00000000000665
 21
-166.430512280959
 31
0.0
  0
LINE
  5
359
330
1A
100
AcDbEntity
  8
MSR_4-0
100
AcDbLine
 10
-2.5
 20
-93.02523828095894
 30
0.0
 11
-28.50000000000006
 21
-93.02523828095894
 31
0.0
  0
LINE
  5
35A
330
1A
100
AcDbEntity
  8
MSR_4-0
100
AcDbLine
 10
-28.50000000000006
 20
-83.02523828095894
 30
0.0
 11
-2.5
 21
-83.02523828095894
 31
0.0
  0
LINE
  5
35B
330
1A
100
AcDbEntity
  8
MSR_4-4
100
AcDbLine
 10
-28.50000000000006
 20
-92.52523828095894
 30
0.0
 11
-2.5
 21
-92.52523828095894
 31
0.0
  0
LINE
  5
35C
330
1A
100
AcDbEntity
  8
MSR_4-4
100
AcDbLine
 10
-28.50000000000006
 20
-83.52523828095895
 30
0.0
 11
-2.5
 21
-83.52523828095895
 31
0.0
  0
LINE
  5
35D
330
1A
100
AcDbEntity
  8
MSR_4-0
100
AcDbLine
 10
-28.50000000000006
 20
-100.0252382809589
 30
0.0
 11
-28.50000000000006
 21
-81.02523828095895
 31
0.0
  0
LINE
  5
35E
330
1A
100
AcDbEntity
  8
MSR_4-2
100
AcDbLine
 10
-19.03463600000003
 20
-93.52523828095895
 30
0.0
 11
-19.03463600000003
 21
-102.0252382809589
 31
0.0
  0
ARC
  5
35F
330
1A
100
AcDbEntity
  8
MSR_4-0
100
AcDbCircle
 10
-26.00000000000006
 20
-100.0252382809589
 30
0.0
 40
2.5
100
AcDbArc
 50
179.999998
 51
270.000003
  0
ARC
  5
360
330
1A
100
AcDbEntity
  8
MSR_4-2
100
AcDbCircle
 10
-24.50000000000006
 20
-93.02523828095894
 30
0.0
 40
0.5
100
AcDbArc
 50
270.000001
 51
0.0
  0
LINE
  5
361
330
1A
100
AcDbEntity
  8
MSR_4-2
100
AcDbLine
 10
-24.00000000000006
 20
-82.02523828095895
 30
0.0
 11
-24.00000000000006
 21
-83.02523828095894
 31
0.0
  0
ARC
  5
362
330
1A
100
AcDbEntity
  8
MSR_4-2
100
AcDbCircle
 10
-24.50000000000006
 20
-82.02523828095895
 30
0.0
 40
0.5
100
AcDbArc
 50
0.0
 51
90.0
  0
LINE
  5
363
330
1A
100
AcDbEntity
  8
MSR_4-0
100
AcDbLine
 10
-2.5
 20
-83.02523828095894
 30
0.0
 11
-2.5
 21
-93.02523828095894
 31
0.0
  0
TEXT
  5
364
330
1A
100
AcDbEntity
  8
MSR_4-6
100
AcDbText
 10
-60.36461198799162
 20
-31.91189386351721
 30
0.0
 40
3.5
  1
MSR 4
100
AcDbText
  0
INSERT
  5
365
330
1A
100
AcDbEntity
  8
MSR_4-0N
100
AcDbBlockReference
 66
     1
  2
GENINF13
 10
-41.05324495005476
 20
-30.48920555099716
 30
0.0
1001
GENIUS_GENSCSYM_13
1002
{
1000
INSPT
1011
-41.05324495005476
1021
-30.48920555099716
1031
0.0
1002
}
1002
{
1000
SCALE
1042
1.0
1002
}
1002
{
1000
USEOLDBPT
1070
     0
1002
}
1001
GENIUS_GENOBJ-N-INFOPT_13
1002
{
1000
OWNER
1000
GEN
1002
}
1001
GENIUS_GENSYMENT_13
1002
{
1000
ENT
1005
365
1002
}
1001
GENIUS_GENODEF_13
1002
{
1000
HIER
1070
     0
1002
}
1002
{
1000
MANEDIT
1070
     0
1002
}
1002
{
1000
NOSEL
1070
     0
1002
}
1002
{
1000
BEHIND
1070
     0
1002
}
1002
{
1000
REACTOR
1002
}
1001
GENIUS_GENOBJ-N-RSSYM_13
1002
{
1000
OWNER
1000
GEN
1002
}
1001
GENIUS_GENINF13_13
1070
     1
  0
ATTRIB
  5
366
330
365
100
AcDbEntity
  8
INFO
100
AcDbText
 10
-41.05324495005476
 20
-30.48920555099716
 30
0.0
 40
1.0
  1
1
100
AcDbAttribute
  2
2GENINF
 70
     1
  0
ATTRIB
  5
367
330
365
100
AcDbEntity
  8
INFO
100
AcDbText
 10
-41.05324495005476
 20
-31.98920555099716
 30
0.0
 40
1.0
  1
<***aktuell***>
100
AcDbAttribute
  2
3GENINF
 70
     1
  0
ATTRIB
  5
368
330
365
100
AcDbEntity
  8
INFO
100
AcDbText
 10
-41.05324495005476
 20
-33.48920555099716
 30
0.0
 40
1.0
  1

100
AcDbAttribute
  2
4GENINF
 70
     1
  0
ATTRIB
  5
369
330
365
100
AcDbEntity
  8
INFO
100
AcDbText
 10
-41.05324495005476
 20
-34.98920555099716
 30
0.0
 40
1.0
  1
MSR 4
100
AcDbAttribute
  2
5GENINF
 70
     1
  0
ATTRIB
  5
36A
330
365
100
AcDbEntity
  8
INFO
100
AcDbText
 10
-41.05324495005476
 20
-36.48920555099716
 30
0.0
 40
1.0
  1

100
AcDbAttribute
  2
6GENINF
 70
     1
  0
ATTRIB
  5
36B
330
365
100
AcDbEntity
  8
INFO
100
AcDbText
 10
-41.05324495005476
 20
-37.98920555099716
 30
0.0
 40
1.0
  1
Fa. Mayer
100
AcDbAttribute
  2
7GENINF
 70
     1
  0
ATTRIB
  5
36C
330
365
100
AcDbEntity
  8
INFO
100
AcDbText
 10
-41.05324495005476
 20
-39.48920555099716
 30
0.0
 40
1.0
  1

100
AcDbAttribute
  2
8GENINF
 70
     1
  0
ATTRIB
  5
36D
330
365
100
AcDbEntity
  8
INFO
100
AcDbText
 10
-41.05324495005476
 20
-40.98920555099716
 30
0.0
 40
1.0
  1

100
AcDbAttribute
  2
9GENINF
 70
     1
  0
ATTRIB
  5
36E
330
365
100
AcDbEntity
  8
INFO
100
AcDbText
 10
-41.05324495005476
 20
-42.48920555099715
 30
0.0
 40
1.0
  1

100
AcDbAttribute
  2
10GENINF
 70
     1
  0
ATTRIB
  5
36F
330
365
100
AcDbEntity
  8
INFO
100
AcDbText
 10
-41.05324495005476
 20
-43.98920555099715
 30
0.0
 40
1.0
  1

100
AcDbAttribute
  2
11GENINF
 70
     1
  0
ATTRIB
  5
370
330
365
100
AcDbEntity
  8
INFO
100
AcDbText
 10
-41.05324495005476
 20
-45.48920555099715
 30
0.0
 40
1.0
  1

100
AcDbAttribute
  2
12GENINF
 70
     1
  0
ATTRIB
  5
371
330
365
100
AcDbEntity
  8
INFO
100
AcDbText
 10
-41.05324495005476
 20
-46.98920555099715
 30
0.0
 40
1.0
  1

100
AcDbAttribute
  2
13GENINF
 70
     1
  0
ATTRIB
  5
372
330
365
100
AcDbEntity
  8
INFO
100
AcDbText
 10
-41.05324495005476
 20
-48.48920555099716
 30
0.0
 40
1.0
  1

100
AcDbAttribute
  2
14GENINF
 70
     1
  0
ATTRIB
  5
373
330
365
100
AcDbEntity
  8
INFO
100
AcDbText
 10
-41.05324495005476
 20
-49.98920555099715
 30
0.0
 40
1.0
  1

100
AcDbAttribute
  2
15GENINF
 70
     1
  0
ATTRIB
  5
374
330
365
100
AcDbEntity
  8
INFO
100
AcDbText
 10
-41.05324495005476
 20
-51.48920555099715
 30
0.0
 40
1.0
  1

100
AcDbAttribute
  2
16GENINF
 70
     1
  0
ATTRIB
  5
375
330
365
100
AcDbEntity
  8
INFO
100
AcDbText
 10
-41.05324495005476
 20
-52.98920555099716
 30
0.0
 40
1.0
  1

100
AcDbAttribute
  2
17GENINF
 70
     1
  0
ATTRIB
  5
376
330
365
100
AcDbEntity
  8
INFO
100
AcDbText
 10
-41.05324495005476
 20
-54.48920555099715
 30
0.0
 40
1.0
  1

100
AcDbAttribute
  2
18GENINF
 70
     1
  0
ATTRIB
  5
377
330
365
100
AcDbEntity
  8
INFO
100
AcDbText
 10
-41.05324495005476
 20
-55.98920555099716
 30
0.0
 40
1.0
  1

100
AcDbAttribute
  2
19GENINF
 70
     1
  0
ATTRIB
  5
378
330
365
100
AcDbEntity
  8
INFO
100
AcDbText
 10
-41.05324495005476
 20
-57.48920555099715
 30
0.0
 40
1.0
  1

100
AcDbAttribute
  2
20GENINF
 70
     1
  0
ATTRIB
  5
379
330
365
100
AcDbEntity
  8
INFO
100
AcDbText
 10
-41.05324495005476
 20
-58.98920555099715
 30
0.0
 40
1.0
  1

100
AcDbAttribute
  2
21GENINF
 70
     1
  0
ATTRIB
  5
37A
330
365
100
AcDbEntity
  8
INFO
100
AcDbText
 10
-41.05324495005476
 20
-60.48920555099716
 30
0.0
 40
1.0
  1

100
AcDbAttribute
  2
22GENINF
 70
     1
  0
ATTRIB
  5
37B
330
365
100
AcDbEntity
  8
INFO
100
AcDbText
 10
-41.05324495005476
 20
-61.98920555099715
 30
0.0
 40
1.0
  1

100
AcDbAttribute
  2
23GENINF
 70
     1
  0
ATTRIB
  5
37C
330
365
100
AcDbEntity
  8
INFO
100
AcDbText
 10
-41.05324495005476
 20
-63.48920555099716
 30
0.0
 40
1.0
  1

100
AcDbAttribute
  2
24GENINF
 70
     1
  0
ATTRIB
  5
37D
330
365
100
AcDbEntity
  8
INFO
100
AcDbText
 10
-41.05324495005476
 20
-64.98920555099715
 30
0.0
 40
1.0
  1

100
AcDbAttribute
  2
0GENINF
 70
     1
  0
SEQEND
  5
37E
330
365
100
AcDbEntity
  8
MSR_4-0N
  0
LINE
  5
37F
330
1A
100
AcDbEntity
  8
MSR_4-7
100
AcDbLine
 10
-20.00000000000003
 20
-16.37141399999996
 30
0.0
 11
-20.00000000000003
 21
-24.40287799999999
 31
0.0
  0
CIRCLE
  5
380
330
1A
100
AcDbEntity
  8
MSR_4-0
100
AcDbCircle
 10
-20.00000000000003
 20
-20.0
 30
0.0
 40
2.5
  0
ARC
  5
381
330
1A
100
AcDbEntity
  8
MSR_4-4
100
AcDbCircle
 10
-20.00000000000003
 20
-20.0
 30
0.0
 40
3.000000000000056
100
AcDbArc
 50
90.0
 51
0.0
  0
LINE
  5
382
330
1A
100
AcDbEntity
  8
MSR_4-7
100
AcDbLine
 10
-23.62858400000002
 20
0.0
 30
0.0
 11
-15.59712000000002
 21
0.0
 31
0.0
  0
LINE
  5
383
330
1A
100
AcDbEntity
  8
MSR_4-7
100
AcDbLine
 10
-20.00000000000003
 20
4.590400000000045
 30
0.0
 11
-20.00000000000003
 21
-3.628583999999989
 31
0.0
  0
LINE
  5
384
330
1A
100
AcDbEntity
  8
MSR_4-7
100
AcDbLine
 10
-24.59040000000002
 20
-20.0
 30
0.0
 11
-16.37141400000001
 21
-20.0
 31
0.0
  0
ARC
  5
385
330
1A
100
AcDbEntity
  8
MSR_4-0
100
AcDbCircle
 10
-20.00000000000003
 20
0.0
 30
0.0
 40
3.0
100
AcDbArc
 50
179.999998
 51
270.000001
  0
CIRCLE
  5
386
330
1A
100
AcDbEntity
  8
MSR_4-0
100
AcDbCircle
 10
-20.00000000000003
 20
0.0
 30
0.0
 40
3.0
  0
ARC
  5
387
330
1A
100
AcDbEntity
  8
MSR_4-0
100
AcDbCircle
 10
-20.00000000000003
 20
0.0
 30
0.0
 40
3.0
100
AcDbArc
 50
0.0
 51
89.999999
  0
LINE
  5
388
330
1A
100
AcDbEntity
  8
MSR_4-7
100
AcDbLine
 10
-20.00000000000003
 20
23.6285860000001
 30
0.0
 11
-20.00000000000003
 21
15.59712200000001
 31
0.0
  0
LINE
  5
389
330
1A
100
AcDbEntity
  8
MSR_4-7
100
AcDbLine
 10
-24.59040000000002
 20
20.0
 30
0.0
 11
-16.37141400000001
 21
20.0
 31
0.0
  0
CIRCLE
  5
38A
330
1A
100
AcDbEntity
  8
MSR_4-0
100
AcDbCircle
 10
-20.00000000000003
 20
20.0
 30
0.0
 40
2.5
  0
ARC
  5
38B
330
1A
100
AcDbEntity
  8
MSR_4-4
100
AcDbCircle
 10
-20.00000000000003
 20
20.0
 30
0.0
 40
3.000000000000056
100
AcDbArc
 50
90.0
 51
0.0
  0
LINE
  5
38C
330
1A
100
AcDbEntity
  8
MSR_4-7
100
AcDbLine
 10
0.0
 20
12.55547000000001
 30
0.0
 11
0.0
 21
-10.43615999999997
 31
0.0
  0
LINE
  5
38D
330
1A
100
AcDbEntity
  8
MSR_4-0
100
AcDbLine
 10
-80.04992400000004
 20
32.314956
 30
0.0
 11
-76.95007400000003
 21
32.314956
 31
0.0
  0
INSERT
  5
38E
330
1A
100
AcDbEntity
  8
MSR_4-2
100
AcDbBlockReference
  2
*U8
 10
23.97927799999997
 20
-266.7155773275707
 30
0.0
1001
GENIUS_GEFPARTINS_13
1002
{
1011
23.97927799999997
1021
-266.7155773275707
1031
0.0
1013
1.0
1023
0.0
1033
0.0
1002
}
1001
VCC
1002
{
1000
-ID3
1000
-IE3
1000
-IK3
1000
-V$PV_GENSYSTEM"GEF\VAL\DI\0401\DI1616_D.DXF"
1002
}
1001
GEVIT
1002
{
1000
-BEHI3.00000001
1000
-BVCCT0
1000
-GRP0?
1000
-BAML2
1000
-BASK1
1000
-NT0
1000
-DOC
1005
46C
1000
-MYREF
1005
38E
1002
}
1001
GEVPT
1002
{
1000
-V$PV_GENSYSTEM"GEF\VAL\DI\0401\DI1616_D.DXF"
1000
-GPGEF_PROCALC=1
1000
-GPGEF_FLIPY=1
1000
-GPGEF_FLIPX=1
1000
-GPGEF_SNK_ADD=0
1000
-GPGEVPROMPTX=Länge:
1000
-GPGEF_OANG=70
1000
-GPGEF_STANG=210
1000
-GPGEF_DRAG=1
1000
-GPGEF_CDIST=3
1000
-GPVCC_TABLE=C:\GENIUS\gef\val\di\0401\di1616.val
1000
-GPNND=8
1000
-GPPRE=M
1002
}
1001
GENIUS_GENOREF_13
1005
443
1005
442
1001
GEVMK
1002
{
1000
-CO
1000
-MYREF
1005
38E
1002
}
1001
GEVID886518793
1002
{
1002
}
  0
LINE
  5
38F
330
1A
100
AcDbEntity
  8
MSR_4-7
100
AcDbLine
 10
23.97927799999997
 20
-260.1596213275708
 30
0.0
 11
23.97927799999997
 21
-272.8993093275708
 31
0.0
1001
GENIUS_GENOREF_13
1005
441
  0
CIRCLE
  5
390
330
1A
100
AcDbEntity
  8
MSR_4-2
100
AcDbCircle
 10
23.97927799999997
 20
-266.7155773275707
 30
0.0
 40
5.0
  0
LINE
  5
391
330
1A
100
AcDbEntity
  8
MSR_4-0
100
AcDbLine
 10
71.97927799999996
 20
-205.2155773275708
 30
0.0
 11
71.97927799999996
 21
-280.2155773275707
 31
0.0
  0
LINE
  5
392
330
1A
100
AcDbEntity
  8
MSR_4-0
100
AcDbLine
 10
66.47927799999997
 20
-205.2155773275708
 30
0.0
 11
66.47927799999997
 21
-280.2155773275707
 31
0.0
  0
LINE
  5
393
330
1A
100
AcDbEntity
  8
MSR_4-2
100
AcDbLine
 10
37.47927799999997
 20
-205.2155773275708
 30
0.0
 11
37.47927799999997
 21
-280.2155773275707
 31
0.0
  0
LINE
  5
394
330
1A
100
AcDbEntity
  8
MSR_4-0
100
AcDbLine
 10
66.47927799999997
 20
-280.2155773275707
 30
0.0
 11
37.47927799999991
 21
-280.2155773275707
 31
0.0
  0
TEXT
  5
395
330
1A
100
AcDbEntity
  8
MSR_4-6
100
AcDbText
 10
43.61466601200828
 20
-274.6274711910879
 30
0.0
 40
3.5
  1
MSR 4
100
AcDbText
  0
LINE
  5
396
330
1A
100
AcDbEntity
  8
MSR_4-0
100
AcDbLine
 10
71.97927799999996
 20
-280.2155773275707
 30
0.0
 11
66.47927799999997
 21
-280.2155773275707
 31
0.0
  0
LINE
  5
397
330
1A
100
AcDbEntity
  8
MSR_4-0
100
AcDbLine
 10
37.47927799999997
 20
-205.2155773275708
 30
0.0
 11
66.47927799999997
 21
-205.2155773275708
 31
0.0
  0
INSERT
  5
398
330
1A
100
AcDbEntity
  8
MSR_4-2
100
AcDbBlockReference
  2
*U10
 10
23.97927799999997
 20
-218.7155773275708
 30
0.0
1001
GENIUS_GEFPARTINS_13
1002
{
1011
23.97927799999997
1021
-218.7155773275708
1031
0.0
1013
1.0
1023
0.0
1033
0.0
1002
}
1001
VCC
1002
{
1000
-ID4
1000
-IE4
1000
-IK4
1000
-V$PV_GENSYSTEM"GEF\VAL\DI\0401\DI1616_D.DXF"
1002
}
1001
GEVIT
1002
{
1000
-BEHI4.00000001
1000
-BVCCT0
1000
-GRP0?
1000
-BAML2
1000
-BASK1
1000
-NT0
1000
-DOC
1005
47C
1000
-MYREF
1005
398
1002
}
1001
GEVPT
1002
{
1000
-V$PV_GENSYSTEM"GEF\VAL\DI\0401\DI1616_D.DXF"
1000
-GPGEF_PROCALC=1
1000
-GPGEF_FLIPY=1
1000
-GPGEF_FLIPX=1
1000
-GPGEF_SNK_ADD=0
1000
-GPGEVPROMPTX=Länge:
1000
-GPGEF_OANG=70
1000
-GPGEF_STANG=210
1000
-GPGEF_DRAG=1
1000
-GPGEF_CDIST=3
1000
-GPVCC_TABLE=C:\GENIUS\gef\val\di\0401\di1616.val
1000
-GPNND=8
1000
-GPPRE=M
1002
}
1001
GENIUS_GENOREF_13
1005
440
1005
43F
1001
GEVMK
1002
{
1000
-CO
1000
-MYREF
1005
398
1002
}
1001
GEVID886518794
1002
{
1002
}
  0
LINE
  5
399
330
1A
100
AcDbEntity
  8
MSR_4-7
100
AcDbLine
 10
23.97927799999997
 20
-212.1596213275708
 30
0.0
 11
23.97927799999997
 21
-224.8993093275707
 31
0.0
1001
GENIUS_GENOREF_13
1005
43E
  0
CIRCLE
  5
39A
330
1A
100
AcDbEntity
  8
MSR_4-2
100
AcDbCircle
 10
23.97927799999997
 20
-218.7155773275708
 30
0.0
 40
5.0
  0
LINE
  5
39B
330
1A
100
AcDbEntity
  8
MSR_4-7
100
AcDbLine
 10
17.39150399999999
 20
-266.7155773275707
 30
0.0
 11
30.44869199999999
 21
-266.7155773275707
 31
0.0
1001
GENIUS_GENOREF_13
1005
441
  0
LINE
  5
39C
330
1A
100
AcDbEntity
  8
MSR_4-7
100
AcDbLine
 10
17.39150399999999
 20
-218.7155773275708
 30
0.0
 11
30.44869199999999
 21
-218.7155773275708
 31
0.0
1001
GENIUS_GENOREF_13
1005
43E
  0
LINE
  5
39D
330
1A
100
AcDbEntity
  8
MSR_4-0
100
AcDbLine
 10
66.47927799999997
 20
-205.2155773275708
 30
0.0
 11
71.97927799999996
 21
-205.2155773275708
 31
0.0
  0
LINE
  5
39E
330
1A
100
AcDbEntity
  8
MSR_4-0
100
AcDbLine
 10
72.0
 20
37.50000000000006
 30
0.0
 11
72.0
 21
-37.5
 31
0.0
  0
LINE
  5
39F
330
1A
100
AcDbEntity
  8
MSR_4-0
100
AcDbLine
 10
66.5
 20
37.50000000000006
 30
0.0
 11
66.5
 21
-37.5
 31
0.0
  0
LINE
  5
3A0
330
1A
100
AcDbEntity
  8
MSR_4-2
100
AcDbLine
 10
37.5
 20
-80.52523828095894
 30
0.0
 11
37.5
 21
-59.52523828095895
 31
0.0
  0
LINE
  5
3A1
330
1A
100
AcDbEntity
  8
MSR_4-7
100
AcDbLine
 10
24.0
 20
-57.445472280959
 30
0.0
 11
24.0
 21
-80.52523828095894
 31
0.0
  0
LINE
  5
3A2
330
1A
100
AcDbEntity
  8
MSR_4-7
100
AcDbLine
 10
19.99999999999335
 20
-148.395848280959
 30
0.0
 11
19.99999999999335
 21
-166.430512280959
 31
0.0
  0
LINE
  5
3A3
330
1A
100
AcDbEntity
  8
MSR_4-7
100
AcDbLine
 10
27.5
 20
-137.0252382809589
 30
0.0
 11
32.5
 21
-137.0252382809589
 31
0.0
  0
CIRCLE
  5
3A4
330
1A
100
AcDbEntity
  8
MSR_4-0
100
AcDbCircle
 10
30.0
 20
-137.0252382809589
 30
0.0
 40
2.0
  0
ARC
  5
3A5
330
1A
100
AcDbEntity
  8
MSR_4-4
100
AcDbCircle
 10
30.0
 20
-137.0252382809589
 30
0.0
 40
2.5
100
AcDbArc
 50
177.542157
 51
94.61093400000001
  0
LINE
  5
3A6
330
1A
100
AcDbEntity
  8
MSR_4-7
100
AcDbLine
 10
30.0
 20
-134.5252382809589
 30
0.0
 11
30.0
 21
-139.5252382809589
 31
0.0
  0
LINE
  5
3A7
330
1A
100
AcDbEntity
  8
MSR_4-2
100
AcDbLine
 10
19.03463799999997
 20
-93.52523828095895
 30
0.0
 11
19.03463799999997
 21
-102.0252382809589
 31
0.0
  0
LINE
  5
3A8
330
1A
100
AcDbEntity
  8
MSR_4-2
100
AcDbLine
 10
37.0
 20
-93.52523828095895
 30
0.0
 11
37.0
 21
-102.0252382809589
 31
0.0
  0
LINE
  5
3A9
330
1A
100
AcDbEntity
  8
MSR_4-2
100
AcDbLine
 10
28.92656
 20
-93.52523828095895
 30
0.0
 11
28.92656
 21
-102.0252382809589
 31
0.0
  0
LINE
  5
3AA
330
1A
100
AcDbEntity
  8
MSR_4-2
100
AcDbLine
 10
24.0
 20
-82.02523828095895
 30
0.0
 11
24.0
 21
-93.02523828095894
 31
0.0
  0
ARC
  5
3AB
330
1A
100
AcDbEntity
  8
MSR_4-2
100
AcDbCircle
 10
24.5
 20
-93.02523828095894
 30
0.0
 40
0.5
100
AcDbArc
 50
180.0000029999999
 51
270.000001
  0
ARC
  5
3AC
330
1A
100
AcDbEntity
  8
MSR_4-2
100
AcDbCircle
 10
24.5
 20
-82.02523828095895
 30
0.0
 40
0.5
100
AcDbArc
 50
89.999999
 51
180.0000029999999
  0
LINE
  5
3AD
330
1A
100
AcDbEntity
  8
MSR_4-2
100
AcDbLine
 10
37.0
 20
-80.52523828095894
 30
0.0
 11
37.0
 21
-81.52523828095894
 31
0.0
  0
LINE
  5
3AE
330
1A
100
AcDbEntity
  8
MSR_4-0
100
AcDbLine
 10
66.50000000000005
 20
-152.5252382809589
 30
0.0
 11
66.5
 21
-102.5252382809589
 31
0.0
  0
LINE
  5
3AF
330
1A
100
AcDbEntity
  8
MSR_4-0
100
AcDbLine
 10
72.0
 20
-102.5252382809589
 30
0.0
 11
72.00000000000006
 21
-152.5252382809589
 31
0.0
  0
LINE
  5
3B0
330
1A
100
AcDbEntity
  8
MSR_4-7
100
AcDbLine
 10
47.5
 20
-141.0252382809589
 30
0.0
 11
52.5
 21
-141.0252382809589
 31
0.0
  0
CIRCLE
  5
3B1
330
1A
100
AcDbEntity
  8
MSR_4-0
100
AcDbCircle
 10
50.0
 20
-141.0252382809589
 30
0.0
 40
2.0
  0
ARC
  5
3B2
330
1A
100
AcDbEntity
  8
MSR_4-4
100
AcDbCircle
 10
50.0
 20
-141.0252382809589
 30
0.0
 40
2.5
100
AcDbArc
 50
177.542157
 51
94.61093400000001
  0
LINE
  5
3B3
330
1A
100
AcDbEntity
  8
MSR_4-7
100
AcDbLine
 10
50.0
 20
-138.5252382809589
 30
0.0
 11
50.0
 21
-143.5252382809589
 31
0.0
  0
LINE
  5
3B4
330
1A
100
AcDbEntity
  8
MSR_4-0
100
AcDbLine
 10
66.49999999999335
 20
-164.5252382809589
 30
0.0
 11
66.49999999999335
 21
-152.5252382809589
 31
0.0
  0
LINE
  5
3B5
330
1A
100
AcDbEntity
  8
MSR_4-0
100
AcDbLine
 10
71.99999999999334
 20
-152.5252382809589
 30
0.0
 11
66.49999999999335
 21
-152.5252382809589
 31
0.0
  0
LINE
  5
3B6
330
1A
100
AcDbEntity
  8
MSR_4-0
100
AcDbLine
 10
66.5
 20
-102.5252382809589
 30
0.0
 11
72.0
 21
-102.5252382809589
 31
0.0
  0
LINE
  5
3B7
330
1A
100
AcDbEntity
  8
MSR_4-7
100
AcDbLine
 10
20.0
 20
-16.37141399999996
 30
0.0
 11
20.0
 21
-24.40287799999999
 31
0.0
  0
CIRCLE
  5
3B8
330
1A
100
AcDbEntity
  8
MSR_4-0
100
AcDbCircle
 10
20.0
 20
-20.0
 30
0.0
 40
2.5
  0
ARC
  5
3B9
330
1A
100
AcDbEntity
  8
MSR_4-4
100
AcDbCircle
 10
20.0
 20
-20.0
 30
0.0
 40
3.000000000000056
100
AcDbArc
 50
90.0
 51
0.0
  0
LINE
  5
3BA
330
1A
100
AcDbEntity
  8
MSR_4-7
100
AcDbLine
 10
15.40959999999998
 20
20.0
 30
0.0
 11
23.62858599999999
 21
20.0
 31
0.0
  0
ARC
  5
3BB
330
1A
100
AcDbEntity
  8
MSR_4-0
100
AcDbCircle
 10
20.0
 20
0.0
 30
0.0
 40
3.0
100
AcDbArc
 50
179.999998
 51
270.000001
  0
LINE
  5
3BC
330
1A
100
AcDbEntity
  8
MSR_4-7
100
AcDbLine
 10
16.37141599999995
 20
0.0
 30
0.0
 11
24.40287999999998
 21
0.0
 31
0.0
  0
CIRCLE
  5
3BD
330
1A
100
AcDbEntity
  8
MSR_4-0
100
AcDbCircle
 10
20.0
 20
0.0
 30
0.0
 40
3.0
  0
CIRCLE
  5
3BE
330
1A
100
AcDbEntity
  8
MSR_4-0
100
AcDbCircle
 10
20.0
 20
20.0
 30
0.0
 40
2.5
  0
ARC
  5
3BF
330
1A
100
AcDbEntity
  8
MSR_4-4
100
AcDbCircle
 10
20.0
 20
20.0
 30
0.0
 40
3.000000000000056
100
AcDbArc
 50
90.0
 51
0.0
  0
LINE
  5
3C0
330
1A
100
AcDbEntity
  8
MSR_4-7
100
AcDbLine
 10
15.40959999999998
 20
-20.0
 30
0.0
 11
23.62858599999999
 21
-20.0
 31
0.0
  0
LINE
  5
3C1
330
1A
100
AcDbEntity
  8
MSR_4-7
100
AcDbLine
 10
20.0
 20
4.590400000000045
 30
0.0
 11
20.0
 21
-3.628583999999989
 31
0.0
  0
ARC
  5
3C2
330
1A
100
AcDbEntity
  8
MSR_4-0
100
AcDbCircle
 10
20.0
 20
0.0
 30
0.0
 40
3.0
100
AcDbArc
 50
0.0
 51
89.999999
  0
LINE
  5
3C3
330
1A
100
AcDbEntity
  8
MSR_4-7
100
AcDbLine
 10
20.0
 20
23.6285860000001
 30
0.0
 11
20.0
 21
15.59712200000001
 31
0.0
  0
LINE
  5
3C4
330
1A
100
AcDbEntity
  8
MSR_4-0
100
AcDbLine
 10
72.0
 20
-37.5
 30
0.0
 11
66.5
 21
-37.5
 31
0.0
  0
LINE
  5
3C5
330
1A
100
AcDbEntity
  8
MSR_4-0
100
AcDbLine
 10
66.5
 20
37.50000000000006
 30
0.0
 11
72.0
 21
37.50000000000006
 31
0.0
  0
LINE
  5
3C6
330
1A
100
AcDbEntity
  8
MSR_4-0
100
AcDbLine
 10
217.2161660000008
 20
-81.52523828096986
 30
0.0
 11
213.4633900000009
 21
-88.02523828096985
 31
0.0
  0
LINE
  5
3C7
330
1A
100
AcDbEntity
  8
MSR_4-0
100
AcDbLine
 10
213.4633900000009
 20
-88.02523828096985
 30
0.0
 11
217.2161660000008
 21
-94.52523828096985
 31
0.0
  0
LINE
  5
3C8
330
1A
100
AcDbEntity
  8
MSR_4-0
100
AcDbLine
 10
207.5614660000008
 20
-114.0252382809698
 30
0.0
 11
217.3764200000008
 21
-114.0252382809698
 31
0.0
  0
LINE
  5
3C9
330
1A
100
AcDbEntity
  8
MSR_4-0
100
AcDbLine
 10
215.9330460000008
 20
-122.5252382809698
 30
0.0
 11
214.2009940000008
 21
-125.5252382809698
 31
0.0
  0
LINE
  5
3CA
330
1A
100
AcDbEntity
  8
MSR_4-0
100
AcDbLine
 10
217.3764200000008
 20
-131.0252382809698
 30
0.0
 11
207.5614660000008
 21
-131.0252382809698
 31
0.0
  0
LINE
  5
3CB
330
1A
100
AcDbEntity
  8
MSR_4-7
100
AcDbLine
 10
199.9689440000008
 20
-122.5252382809698
 30
0.0
 11
224.9689440000008
 21
-122.5252382809698
 31
0.0
  0
LINE
  5
3CC
330
1A
100
AcDbEntity
  8
MSR_4-0
100
AcDbLine
 10
214.2009940000008
 20
-119.5252382809698
 30
0.0
 11
215.9330460000008
 21
-122.5252382809698
 31
0.0
  0
CIRCLE
  5
3CD
330
1A
100
AcDbEntity
  8
MSR_4-0
100
AcDbCircle
 10
212.4689440000008
 20
-122.5252382809698
 30
0.0
 40
7.0
  0
LINE
  5
3CE
330
1A
100
AcDbEntity
  8
MSR_4-0
100
AcDbLine
 10
213.4689440000008
 20
-102.5252382809698
 30
0.0
 11
228.4689440000008
 21
-114.5252382809698
 31
0.0
  0
LINE
  5
3CF
330
1A
100
AcDbEntity
  8
MSR_4-7
100
AcDbLine
 10
228.4744960000008
 20
-88.02523828096985
 30
0.0
 11
213.4633900000009
 21
-88.02523828096985
 31
0.0
  0
LINE
  5
3D0
330
1A
100
AcDbEntity
  8
MSR_4-0
100
AcDbLine
 10
228.4689440000008
 20
-152.5252382809589
 30
0.0
 11
153.4689440000008
 21
-152.5252382809589
 31
0.0
  0
LINE
  5
3D1
330
1A
100
AcDbEntity
  8
MSR_4-2
100
AcDbLine
 10
153.4689440000008
 20
-59.52523828096985
 30
0.0
 11
228.4689440000008
 21
-59.52523828096985
 31
0.0
  0
LINE
  5
3D2
330
1A
100
AcDbEntity
  8
MSR_4-2
100
AcDbLine
 10
228.4689440000008
 20
-80.52523828096985
 30
0.0
 11
153.4689440000008
 21
-80.52523828096985
 31
0.0
  0
LINE
  5
3D3
330
1A
100
AcDbEntity
  8
MSR_4-0
100
AcDbLine
 10
153.4689440000008
 20
-81.02523828096986
 30
0.0
 11
228.4689440000008
 21
-81.02523828096986
 31
0.0
  0
LINE
  5
3D4
330
1A
100
AcDbEntity
  8
MSR_4-0
100
AcDbLine
 10
228.4689440000008
 20
-96.02523828096986
 30
0.0
 11
153.4689440000008
 21
-96.02523828096986
 31
0.0
  0
LINE
  5
3D5
330
1A
100
AcDbEntity
  8
MSR_4-0
100
AcDbLine
 10
228.4689440000008
 20
-102.5252382809698
 30
0.0
 11
153.4689440000008
 21
-102.5252382809698
 31
0.0
  0
LINE
  5
3D6
330
1A
100
AcDbEntity
  8
MSR_4-0
100
AcDbLine
 10
153.4689440000008
 20
-164.5252382809698
 30
0.0
 11
228.4689440000008
 21
-164.5252382809698
 31
0.0
  0
LINE
  5
3D7
330
1A
100
AcDbEntity
  8
MSR_4-4
100
AcDbLine
 10
183.5070192280194
 20
-71.85344526541491
 30
0.0
 11
183.5070192280194
 21
-68.77395337971444
 31
0.0
  0
LINE
  5
3D8
330
1A
100
AcDbEntity
  8
MSR_4-7
100
AcDbLine
 10
214.9689440000008
 20
-57.50746428096983
 30
0.0
 11
214.9689440000008
 21
-80.5872302809699
 31
0.0
  0
LINE
  5
3D9
330
1A
100
AcDbEntity
  8
MSR_4-4
100
AcDbLine
 10
170.9689440000008
 20
-61.62523828096988
 30
0.0
 11
170.9689440000008
 21
-75.02523828096986
 31
0.0
  0
LINE
  5
3DA
330
1A
100
AcDbEntity
  8
MSR_4-2
100
AcDbLine
 10
170.4689440000008
 20
-61.62523828096988
 30
0.0
 11
170.4689440000008
 21
-75.02523828096986
 31
0.0
  0
LINE
  5
3DB
330
1A
100
AcDbEntity
  8
MSR_4-2
100
AcDbLine
 10
163.4689440000008
 20
-61.62523828096988
 30
0.0
 11
163.4689440000008
 21
-75.02523828096986
 31
0.0
  0
LINE
  5
3DC
330
1A
100
AcDbEntity
  8
MSR_4-4
100
AcDbLine
 10
162.9689440000008
 20
-61.62523828096988
 30
0.0
 11
162.9689440000008
 21
-75.02523828096986
 31
0.0
  0
LINE
  5
3DD
330
1A
100
AcDbEntity
  8
MSR_4-7
100
AcDbLine
 10
166.9689440000008
 20
-57.50746428096983
 30
0.0
 11
166.9689440000008
 21
-80.5872302809699
 31
0.0
  0
LINE
  5
3DE
330
1A
100
AcDbEntity
  8
MSR_4-2
100
AcDbLine
 10
153.4689440000008
 20
-80.52523828096985
 30
0.0
 11
153.4689440000008
 21
-59.52523828096985
 31
0.0
  0
INSERT
  5
3DF
330
1A
100
AcDbEntity
  8
MSR_4-8
100
AcDbBlockReference
  2
*X1
 10
-226.059364
 20
-443.7721462809589
 30
0.0
1001
GENIUS_GENODEF_13
1002
{
1000
HIER
1070
     0
1002
}
1002
{
1000
MANEDIT
1070
     0
1002
}
1002
{
1000
NOSEL
1070
     0
1002
}
1002
{
1000
BEHIND
1070
     0
1002
}
1002
{
1000
REACTOR
1002
}
1001
GENIUS_GENOBJ-N-HTC_13
1002
{
1000
OWNER
1000
GEN
1002
}
1001
GENIUS_GENHATCH_13
1002
{
1000
DATA
1040
45.0
1042
2.5
1000
_U
1070
     0
1011
158.0160529731299
1021
-70.31069136080663
1031
0.0
1002
}
1002
{
1000
UCS
1010
0.0
1020
0.0
1030
0.0
1010
1.0
1020
0.0
1030
0.0
1010
0.0
1020
1.0
1030
0.0
1002
}
1001
ACAD
1000
HATCH
1002
{
1070
    19
1000
_U
1040
2.5
1040
0.7853981633974483
1070
     0
1002
}
  0
INSERT
  5
3E0
330
1A
100
AcDbEntity
  8
MSR_4-8
100
AcDbBlockReference
  2
*X0
 10
-226.059364
 20
-443.7721462809589
 30
0.0
1001
GENIUS_GENODEF_13
1002
{
1000
HIER
1070
     0
1002
}
1002
{
1000
MANEDIT
1070
     0
1002
}
1002
{
1000
NOSEL
1070
     0
1002
}
1002
{
1000
BEHIND
1070
     0
1002
}
1002
{
1000
REACTOR
1002
}
1001
GENIUS_GENOBJ-N-HTC_13
1002
{
1000
OWNER
1000
GEN
1002
}
1001
GENIUS_GENHATCH_13
1002
{
1000
DATA
1040
45.0
1042
2.5
1000
_U
1070
     0
1011
180.1996678279549
1021
-71.58971920733887
1031
0.0
1002
}
1002
{
1000
UCS
1010
0.0
1020
0.0
1030
0.0
1010
1.0
1020
0.0
1030
0.0
1010
0.0
1020
1.0
1030
0.0
1002
}
1001
ACAD
1000
HATCH
1002
{
1070
    19
1000
_U
1040
2.5
1040
0.7853981633974483
1070
     0
1002
}
  0
LINE
  5
3E1
330
1A
100
AcDbEntity
  8
MSR_4-7
100
AcDbLine
 10
156.9689440000008
 20
-122.5252382809698
 30
0.0
 11
181.9689440000008
 21
-122.5252382809698
 31
0.0
  0
LINE
  5
3E2
330
1A
100
AcDbEntity
  8
MSR_4-0
100
AcDbLine
 10
171.2009940000008
 20
-119.5252382809698
 30
0.0
 11
172.9330460000008
 21
-122.5252382809698
 31
0.0
  0
LINE
  5
3E3
330
1A
100
AcDbEntity
  8
MSR_4-0
100
AcDbLine
 10
166.0048420000008
 20
-122.5252382809698
 30
0.0
 11
167.7368920000008
 21
-119.5252382809698
 31
0.0
  0
LINE
  5
3E4
330
1A
100
AcDbEntity
  8
MSR_4-7
100
AcDbLine
 10
169.4689440000008
 20
-110.0252382809698
 30
0.0
 11
169.4689440000008
 21
-135.0252382809698
 31
0.0
  0
CIRCLE
  5
3E5
330
1A
100
AcDbEntity
  8
MSR_4-0
100
AcDbCircle
 10
169.4689440000008
 20
-122.5252382809698
 30
0.0
 40
6.5
  0
LINE
  5
3E6
330
1A
100
AcDbEntity
  8
MSR_4-0
100
AcDbLine
 10
174.3764200000008
 20
-114.0252382809698
 30
0.0
 11
179.2838980000009
 21
-122.5252382809698
 31
0.0
  0
LINE
  5
3E7
330
1A
100
AcDbEntity
  8
MSR_4-0
100
AcDbLine
 10
159.6539880000008
 20
-122.5252382809698
 30
0.0
 11
164.5614660000008
 21
-114.0252382809698
 31
0.0
  0
LINE
  5
3E8
330
1A
100
AcDbEntity
  8
MSR_4-0
100
AcDbLine
 10
153.4689440000008
 20
-152.4632462809699
 30
0.0
 11
153.4689440000008
 21
-102.5252382809698
 31
0.0
  0
TEXT
  5
3E9
330
1A
100
AcDbEntity
  8
MSR_4-6
100
AcDbText
 10
159.6043320120092
 20
-146.8751401444871
 30
0.0
 40
3.5
  1
MSR 4
100
AcDbText
  0
LINE
  5
3EA
330
1A
100
AcDbEntity
  8
MSR_4-0
100
AcDbLine
 10
164.5614660000008
 20
-131.0252382809698
 30
0.0
 11
159.6539880000008
 21
-122.5252382809698
 31
0.0
  0
LINE
  5
3EB
330
1A
100
AcDbEntity
  8
MSR_4-0
100
AcDbLine
 10
153.4689440000008
 20
-152.4632462809699
 30
0.0
 11
153.4689440000008
 21
-164.5252382809698
 31
0.0
  0
LINE
  5
3EC
330
1A
100
AcDbEntity
  8
MSR_4-7
100
AcDbLine
 10
170.9689440000008
 20
-149.1276062809699
 30
0.0
 11
170.9689440000008
 21
-166.5252382809589
 31
0.0
  0
LINE
  5
3ED
330
1A
100
AcDbEntity
  8
MSR_4-0
100
AcDbLine
 10
171.2009940000008
 20
-125.5252382809698
 30
0.0
 11
167.7368920000008
 21
-125.5252382809698
 31
0.0
  0
LINE
  5
3EE
330
1A
100
AcDbEntity
  8
MSR_4-0
100
AcDbLine
 10
174.3764200000008
 20
-131.0252382809698
 30
0.0
 11
164.5614660000008
 21
-131.0252382809698
 31
0.0
  0
LINE
  5
3EF
330
1A
100
AcDbEntity
  8
MSR_4-0
100
AcDbLine
 10
167.7368920000008
 20
-125.5252382809698
 30
0.0
 11
166.0048420000008
 21
-122.5252382809698
 31
0.0
  0
LINE
  5
3F0
330
1A
100
AcDbEntity
  8
MSR_4-0
100
AcDbLine
 10
179.2838980000009
 20
-122.5252382809698
 30
0.0
 11
174.3764200000008
 21
-131.0252382809698
 31
0.0
  0
LINE
  5
3F1
330
1A
100
AcDbEntity
  8
MSR_4-0
100
AcDbLine
 10
172.9330460000008
 20
-122.5252382809698
 30
0.0
 11
171.2009940000008
 21
-125.5252382809698
 31
0.0
  0
LINE
  5
3F2
330
1A
100
AcDbEntity
  8
MSR_4-2
100
AcDbLine
 10
166.9689440000008
 20
-75.02523828096986
 30
0.0
 11
161.7189439999999
 21
-75.02523828097259
 31
0.0
  0
LINE
  5
3F3
330
1A
100
AcDbEntity
  8
MSR_4-0
100
AcDbLine
 10
157.2161660000008
 20
-81.52523828096986
 30
0.0
 11
164.7217200000008
 21
-81.52523828096986
 31
0.0
  0
LINE
  5
3F4
330
1A
100
AcDbEntity
  8
MSR_4-0
100
AcDbLine
 10
164.7217200000008
 20
-94.52523828096985
 30
0.0
 11
157.2161660000008
 21
-94.52523828096985
 31
0.0
  0
CIRCLE
  5
3F5
330
1A
100
AcDbEntity
  8
MSR_4-0
100
AcDbCircle
 10
160.9689440000008
 20
-88.02523828096985
 30
0.0
 40
5.0
  0
LINE
  5
3F6
330
1A
100
AcDbEntity
  8
MSR_4-7
100
AcDbLine
 10
153.4633900000008
 20
-88.02523828096985
 30
0.0
 11
168.4744960000008
 21
-88.02523828096985
 31
0.0
  0
LINE
  5
3F7
330
1A
100
AcDbEntity
  8
MSR_4-0
100
AcDbLine
 10
153.4689440000008
 20
-114.5252382809698
 30
0.0
 11
168.4689440000008
 21
-102.5252382809698
 31
0.0
  0
LINE
  5
3F8
330
1A
100
AcDbEntity
  8
MSR_4-0
100
AcDbLine
 10
153.4689440000008
 20
-96.02523828096986
 30
0.0
 11
153.4689440000008
 21
-81.02523828096986
 31
0.0
  0
LINE
  5
3F9
330
1A
100
AcDbEntity
  8
MSR_4-0
100
AcDbLine
 10
153.4689440000008
 20
-102.5252382809698
 30
0.0
 11
153.4689440000008
 21
-96.02523828096986
 31
0.0
  0
LINE
  5
3FA
330
1A
100
AcDbEntity
  8
MSR_4-0
100
AcDbLine
 10
153.4633900000008
 20
-88.02523828096985
 30
0.0
 11
157.2161660000008
 21
-81.52523828096986
 31
0.0
  0
LINE
  5
3FB
330
1A
100
AcDbEntity
  8
MSR_4-7
100
AcDbLine
 10
160.9689440000008
 20
-80.52523828096985
 30
0.0
 11
160.9689440000008
 21
-94.52523828096985
 31
0.0
  0
LINE
  5
3FC
330
1A
100
AcDbEntity
  8
MSR_4-0
100
AcDbLine
 10
157.2161660000008
 20
-94.52523828096985
 30
0.0
 11
153.4633900000008
 21
-88.02523828096985
 31
0.0
  0
LINE
  5
3FD
330
1A
100
AcDbEntity
  8
MSR_4-2
100
AcDbLine
 10
161.7189439999999
 20
-75.02523828097259
 30
0.0
 11
161.7189439999999
 21
-80.52523828096985
 31
0.0
  0
LINE
  5
3FE
330
1A
100
AcDbEntity
  8
MSR_4-0
100
AcDbLine
 10
168.9689440000008
 20
-81.02523828096986
 30
0.0
 11
168.9689440000008
 21
-96.02523828096986
 31
0.0
  0
LINE
  5
3FF
330
1A
100
AcDbEntity
  8
MSR_4-0
100
AcDbLine
 10
164.5614660000008
 20
-114.0252382809698
 30
0.0
 11
174.3764200000008
 21
-114.0252382809698
 31
0.0
  0
LINE
  5
400
330
1A
100
AcDbEntity
  8
MSR_4-0
100
AcDbLine
 10
167.7368920000008
 20
-119.5252382809698
 30
0.0
 11
171.2009940000008
 21
-119.5252382809698
 31
0.0
  0
LINE
  5
401
330
1A
100
AcDbEntity
  8
MSR_4-2
100
AcDbLine
 10
166.9689440000008
 20
-75.02523828096986
 30
0.0
 11
172.2189440000017
 21
-75.02523828097259
 31
0.0
  0
LINE
  5
402
330
1A
100
AcDbEntity
  8
MSR_4-0
100
AcDbLine
 10
164.7217200000008
 20
-81.52523828096986
 30
0.0
 11
168.4744960000008
 21
-88.02523828096985
 31
0.0
  0
LINE
  5
403
330
1A
100
AcDbEntity
  8
MSR_4-0
100
AcDbLine
 10
168.4744960000008
 20
-88.02523828096985
 30
0.0
 11
164.7217200000008
 21
-94.52523828096985
 31
0.0
  0
LINE
  5
404
330
1A
100
AcDbEntity
  8
MSR_4-2
100
AcDbLine
 10
172.2189440000017
 20
-75.02523828097259
 30
0.0
 11
172.2189440000017
 21
-80.52523828096985
 31
0.0
  0
LINE
  5
405
330
1A
100
AcDbEntity
  8
MSR_4-0
100
AcDbLine
 10
209.0048420000008
 20
-122.5252382809698
 30
0.0
 11
210.7368920000008
 21
-119.5252382809698
 31
0.0
  0
LINE
  5
406
330
1A
100
AcDbEntity
  8
MSR_4-7
100
AcDbLine
 10
212.4689440000008
 20
-110.0252382809698
 30
0.0
 11
212.4689440000008
 21
-135.0252382809698
 31
0.0
  0
LINE
  5
407
330
1A
100
AcDbEntity
  8
MSR_4-0
100
AcDbLine
 10
202.6539880000008
 20
-122.5252382809698
 30
0.0
 11
207.5614660000008
 21
-114.0252382809698
 31
0.0
  0
LINE
  5
408
330
1A
100
AcDbEntity
  8
MSR_4-7
100
AcDbLine
 10
183.0822620000008
 20
-142.5252382809698
 30
0.0
 11
198.7304760000008
 21
-142.5252382809698
 31
0.0
  0
LINE
  5
409
330
1A
100
AcDbEntity
  8
MSR_4-7
100
AcDbLine
 10
190.9689440000008
 20
-134.7206742809698
 30
0.0
 11
190.9689440000008
 21
-150.4255842809699
 31
0.0
  0
CIRCLE
  5
40A
330
1A
100
AcDbEntity
  8
MSR_4-0
100
AcDbCircle
 10
190.9689440000008
 20
-142.5252382809698
 30
0.0
 40
6.0
  0
LINE
  5
40B
330
1A
100
AcDbEntity
  8
MSR_4-7
100
AcDbLine
 10
210.9689440000008
 20
-148.3338562809699
 30
0.0
 11
210.9689440000008
 21
-166.5252382809589
 31
0.0
  0
LINE
  5
40C
330
1A
100
AcDbEntity
  8
MSR_4-0
100
AcDbLine
 10
207.5614660000008
 20
-131.0252382809698
 30
0.0
 11
202.6539880000008
 21
-122.5252382809698
 31
0.0
  0
LINE
  5
40D
330
1A
100
AcDbEntity
  8
MSR_4-0
100
AcDbLine
 10
214.2009940000008
 20
-125.5252382809698
 30
0.0
 11
210.7368920000008
 21
-125.5252382809698
 31
0.0
  0
LINE
  5
40E
330
1A
100
AcDbEntity
  8
MSR_4-0
100
AcDbLine
 10
210.7368920000008
 20
-125.5252382809698
 30
0.0
 11
209.0048420000008
 21
-122.5252382809698
 31
0.0
  0
LINE
  5
40F
330
1A
100
AcDbEntity
  8
MSR_4-7
100
AcDbLine
 10
183.3254420000008
 20
-88.02523828096985
 30
0.0
 11
198.3365500000008
 21
-88.02523828096985
 31
0.0
  0
LINE
  5
410
330
1A
100
AcDbEntity
  8
MSR_4-0
100
AcDbLine
 10
188.5329640000008
 20
-86.61882428096982
 30
0.0
 11
190.9689440000008
 21
-85.21241028096989
 31
0.0
  0
LINE
  5
411
330
1A
100
AcDbEntity
  8
MSR_4-0
100
AcDbLine
 10
190.9689440000008
 20
-90.83806428096982
 30
0.0
 11
188.5329640000008
 21
-89.4316502809699
 31
0.0
  0
CIRCLE
  5
412
330
1A
100
AcDbEntity
  8
MSR_4-0
100
AcDbCircle
 10
190.9689440000008
 20
-88.02523828096985
 30
0.0
 40
5.5
  0
LINE
  5
413
330
1A
100
AcDbEntity
  8
MSR_4-0
100
AcDbLine
 10
188.5329640000008
 20
-89.4316502809699
 30
0.0
 11
188.5329640000008
 21
-86.61882428096982
 31
0.0
  0
LINE
  5
414
330
1A
100
AcDbEntity
  8
MSR_4-4
100
AcDbLine
 10
183.5070192280194
 20
-74.55585673036563
 30
0.0
 11
183.5070192280194
 21
-71.85344526541491
 31
0.0
  0
LINE
  5
415
330
1A
100
AcDbEntity
  8
MSR_4-4
100
AcDbLine
 10
183.0039335706928
 20
-77.38396134473425
 30
0.0
 11
183.5070192280194
 21
-74.55585673036563
 31
0.0
  0
LINE
  5
416
330
1A
100
AcDbEntity
  8
MSR_4-4
100
AcDbLine
 10
181.9348725694204
 20
-80.52523828096623
 30
0.0
 11
183.0039335706928
 21
-77.38396134473425
 31
0.0
  0
LINE
  5
417
330
1A
100
AcDbEntity
  8
MSR_4-7
100
AcDbLine
 10
190.9689440000008
 20
-81.02523828096986
 30
0.0
 11
190.9689440000008
 21
-94.6929962809699
 31
0.0
  0
LINE
  5
418
330
1A
100
AcDbEntity
  8
MSR_4-0
100
AcDbLine
 10
190.9689440000008
 20
-85.21241028096989
 30
0.0
 11
193.4049220000008
 21
-86.61882428096982
 31
0.0
  0
LINE
  5
419
330
1A
100
AcDbEntity
  8
MSR_4-0
100
AcDbLine
 10
193.4049220000008
 20
-89.4316502809699
 30
0.0
 11
190.9689440000008
 21
-90.83806428096982
 31
0.0
  0
LINE
  5
41A
330
1A
100
AcDbEntity
  8
MSR_4-0
100
AcDbLine
 10
193.4049220000008
 20
-86.61882428096982
 30
0.0
 11
193.4049220000008
 21
-89.4316502809699
 31
0.0
  0
LINE
  5
41B
330
1A
100
AcDbEntity
  8
MSR_4-0
100
AcDbLine
 10
212.9689440000008
 20
-81.02523828096986
 30
0.0
 11
212.9689440000008
 21
-96.02523828096986
 31
0.0
  0
LINE
  5
41C
330
1A
100
AcDbEntity
  8
MSR_4-0
100
AcDbLine
 10
210.7368920000008
 20
-119.5252382809698
 30
0.0
 11
214.2009940000008
 21
-119.5252382809698
 31
0.0
  0
LINE
  5
41D
330
1A
100
AcDbEntity
  8
MSR_4-2
100
AcDbLine
 10
163.4689440000008
 20
-61.62523828096988
 30
0.0
 11
161.9689439999999
 21
-61.62523828097113
 31
0.0
  0
LINE
  5
41E
330
1A
100
AcDbEntity
  8
MSR_4-2
100
AcDbLine
 10
161.9689439999999
 20
-61.62523828097113
 30
0.0
 11
161.9689439999999
 21
-59.52523828096985
 31
0.0
  0
LINE
  5
41F
330
1A
100
AcDbEntity
  8
MSR_4-2
100
AcDbLine
 10
170.4689440000008
 20
-61.62523828096988
 30
0.0
 11
171.9689440000016
 21
-61.62523828097113
 31
0.0
  0
LINE
  5
420
330
1A
100
AcDbEntity
  8
MSR_4-2
100
AcDbLine
 10
163.4689440000008
 20
-61.62523828096988
 30
0.0
 11
170.4689440000008
 21
-61.62523828096988
 31
0.0
  0
LINE
  5
421
330
1A
100
AcDbEntity
  8
MSR_4-2
100
AcDbLine
 10
171.9689440000016
 20
-61.62523828097113
 30
0.0
 11
171.9689440000016
 21
-59.52523828096985
 31
0.0
  0
LINE
  5
422
330
1A
100
AcDbEntity
  8
MSR_4-4
100
AcDbLine
 10
184.0729929801836
 20
-64.18613786602219
 30
0.0
 11
183.3183629024125
 21
-62.23788821506747
 31
0.0
  0
LINE
  5
423
330
1A
100
AcDbEntity
  8
MSR_4-4
100
AcDbLine
 10
184.0729929801836
 20
-66.26008163889088
 30
0.0
 11
184.0729929801836
 21
-64.18613786602219
 31
0.0
  0
LINE
  5
424
330
1A
100
AcDbEntity
  8
MSR_4-4
100
AcDbLine
 10
182.0606455755333
 20
-60.03825032028505
 30
0.0
 11
181.6833297407571
 21
-59.52523828096622
 31
0.0
  0
LINE
  5
425
330
1A
100
AcDbEntity
  8
MSR_4-4
100
AcDbLine
 10
183.3183629024125
 20
-62.23788821506747
 30
0.0
 11
182.0606455755333
 21
-60.03825032028505
 31
0.0
  0
LINE
  5
426
330
1A
100
AcDbEntity
  8
MSR_4-4
100
AcDbLine
 10
183.5070192280194
 20
-68.77395337971444
 30
0.0
 11
184.0729929801836
 21
-66.26008163889088
 31
0.0
  0
LINE
  5
427
330
1A
100
AcDbEntity
  8
MSR_4-2
100
AcDbLine
 10
228.4689440000008
 20
-59.52523828096985
 30
0.0
 11
228.4689440000008
 21
-80.52523828096985
 31
0.0
  0
LINE
  5
428
330
1A
100
AcDbEntity
  8
MSR_4-0
100
AcDbLine
 10
217.3764200000008
 20
-114.0252382809698
 30
0.0
 11
222.2838980000009
 21
-122.5252382809698
 31
0.0
  0
LINE
  5
429
330
1A
100
AcDbEntity
  8
MSR_4-0
100
AcDbLine
 10
228.4689440000008
 20
-102.5252382809698
 30
0.0
 11
228.4689440000008
 21
-152.4632462809699
 31
0.0
  0
LINE
  5
42A
330
1A
100
AcDbEntity
  8
MSR_4-0
100
AcDbLine
 10
228.4689440000008
 20
-164.5252382809698
 30
0.0
 11
228.4689440000008
 21
-152.4632462809699
 31
0.0
  0
LINE
  5
42B
330
1A
100
AcDbEntity
  8
MSR_4-7
100
AcDbLine
 10
229.8450019999936
 20
-137.0252382809589
 30
0.0
 11
221.0859639999936
 21
-137.0252382809589
 31
0.0
  0
LINE
  5
42C
330
1A
100
AcDbEntity
  8
MSR_4-3
100
AcDbLine
 10
228.4745039999935
 20
-138.951326280959
 30
0.0
 11
222.4751859999936
 21
-138.951326280959
 31
0.0
  0
LINE
  5
42D
330
1A
100
AcDbEntity
  8
MSR_4-3
100
AcDbLine
 10
228.4745039999935
 20
-138.551326280959
 30
0.0
 11
222.4751859999936
 21
-138.551326280959
 31
0.0
  0
LINE
  5
42E
330
1A
100
AcDbEntity
  8
MSR_4-3
100
AcDbLine
 10
228.4745039999935
 20
-139.1513262809589
 30
0.0
 11
222.4751859999936
 21
-139.1513262809589
 31
0.0
  0
LINE
  5
42F
330
1A
100
AcDbEntity
  8
MSR_4-3
100
AcDbLine
 10
228.4745039999935
 20
-134.951326280959
 30
0.0
 11
222.4751859999936
 21
-134.951326280959
 31
0.0
  0
LINE
  5
430
330
1A
100
AcDbEntity
  8
MSR_4-3
100
AcDbLine
 10
228.4745039999935
 20
-134.551326280959
 30
0.0
 11
222.4751859999936
 21
-134.551326280959
 31
0.0
  0
LINE
  5
431
330
1A
100
AcDbEntity
  8
MSR_4-7
100
AcDbLine
 10
229.8450019999936
 20
-141.0252382809589
 30
0.0
 11
221.0859639999936
 21
-141.0252382809589
 31
0.0
  0
LINE
  5
432
330
1A
100
AcDbEntity
  8
MSR_4-3
100
AcDbLine
 10
228.4745039999935
 20
-139.551326280959
 30
0.0
 11
222.4751859999936
 21
-139.551326280959
 31
0.0
  0
LINE
  5
433
330
1A
100
AcDbEntity
  8
MSR_4-3
100
AcDbLine
 10
228.4745039999935
 20
-143.1513262809589
 30
0.0
 11
222.4751859999936
 21
-143.1513262809589
 31
0.0
  0
LINE
  5
434
330
1A
100
AcDbEntity
  8
MSR_4-3
100
AcDbLine
 10
228.4745039999935
 20
-143.551326280959
 30
0.0
 11
222.4751859999936
 21
-143.551326280959
 31
0.0
  0
LINE
  5
435
330
1A
100
AcDbEntity
  8
MSR_4-0
100
AcDbLine
 10
222.2838980000009
 20
-122.5252382809698
 30
0.0
 11
217.3764200000008
 21
-131.0252382809698
 31
0.0
  0
LINE
  5
436
330
1A
100
AcDbEntity
  8
MSR_4-0
100
AcDbLine
 10
228.4689440000008
 20
-81.02523828096986
 30
0.0
 11
228.4689440000008
 21
-96.02523828096986
 31
0.0
  0
LINE
  5
437
330
1A
100
AcDbEntity
  8
MSR_4-0
100
AcDbLine
 10
228.4689440000008
 20
-96.02523828096986
 30
0.0
 11
228.4689440000008
 21
-102.5252382809698
 31
0.0
  0
CIRCLE
  5
438
330
1A
100
AcDbEntity
  8
MSR_4-0
100
AcDbCircle
 10
220.9689440000008
 20
-88.02523828096985
 30
0.0
 40
4.5
  0
LINE
  5
439
330
1A
100
AcDbEntity
  8
MSR_4-0
100
AcDbLine
 10
224.7217200000008
 20
-81.52523828096986
 30
0.0
 11
217.2161660000008
 21
-81.52523828096986
 31
0.0
  0
LINE
  5
43A
330
1A
100
AcDbEntity
  8
MSR_4-0
100
AcDbLine
 10
217.2161660000008
 20
-94.52523828096985
 30
0.0
 11
224.7217200000008
 21
-94.52523828096985
 31
0.0
  0
LINE
  5
43B
330
1A
100
AcDbEntity
  8
MSR_4-7
100
AcDbLine
 10
220.9689440000008
 20
-80.52523828096985
 30
0.0
 11
220.9689440000008
 21
-94.52523828096985
 31
0.0
  0
LINE
  5
43C
330
1A
100
AcDbEntity
  8
MSR_4-0
100
AcDbLine
 10
228.4744960000008
 20
-88.02523828096985
 30
0.0
 11
224.7217200000008
 21
-81.52523828096986
 31
0.0
  0
LINE
  5
43D
330
1A
100
AcDbEntity
  8
MSR_4-0
100
AcDbLine
 10
224.7217200000008
 20
-94.52523828096985
 30
0.0
 11
228.4744960000008
 21
-88.02523828096985
 31
0.0
  0
POINT
  5
43E
330
1A
100
AcDbEntity
  8
0
 60
     1
100
AcDbPoint
 10
-226.059364
 20
-489.21225
 30
0.0
1001
GENIUS_GENBH_13
1002
{
1000
FGO
1005
440
1002
}
1001
GENIUS_GENODEF_13
1002
{
1000
HIER
1070
     1
1002
}
1002
{
1000
MANEDIT
1070
     0
1002
}
1002
{
1000
NOSEL
1070
     1
1002
}
1002
{
1000
BEHIND
1070
     0
1002
}
1002
{
1000
REACTOR
1002
}
1001
GENIUS_GENOBJ-NBEHI-BHB_13
1002
{
1000
OWNER
1000
GENBEHI
1002
}
1001
GENIUS_GENOENT_13
1002
{
1000
MYREF
1005
43E
1002
}
1002
{
1000
GRP
1005
0
1002
}
1001
GENIUS_GENOLIS_13
1002
{
1000
ENT
1005
399
1005
39C
1002
}
  0
POINT
  5
43F
330
1A
100
AcDbEntity
  8
0
 60
     1
100
AcDbPoint
 10
-226.059364
 20
-489.21225
 30
0.0
1001
GENIUS_GENODEF_13
1002
{
1000
HIER
1070
   200
1002
}
1002
{
1000
MANEDIT
1070
     0
1002
}
1002
{
1000
NOSEL
1070
     0
1002
}
1002
{
1000
BEHIND
1070
     0
1002
}
1002
{
1000
REACTOR
1002
}
1001
GENIUS_GENOBJ-F-PART_13
1002
{
1000
OWNER
1000
GEF
1002
}
1001
GENIUS_GEFSTDP_13
1002
{
1000
SUG
1000
M
1040
8.0
1002
}
1002
{
1000
DSC
1000
DSC
1002
{
1000
~DESCR
1000
 
1000
~STDRT
1002
}
1002
}
1002
{
1000
KEY
1000
THRT
1002
}
1002
{
1000
INS
1002
{
1040
250.038642
1040
170.528444
1040
0.0
1002
}
1002
}
1002
{
1000
ANG
1040
0.0
1002
}
1002
{
1000
VCC
1002
{
1000
$PRE=M
1000
$NND=8.000000000000000E+00
1000
-RBDESCR
1000
-RBSTDRT
1000
-RBGD1
1000
-RBLOTI
1000
-V$PV_GENSYSTEM"gef\val\di\0401\di1616_d.dxf"
1000
$VCC_TABLE=$PV_GENSYSTEM"gef\val\di\0401\di1616.val"
1000
$GEF_CDIST=3.000000000000000E+00
1000
$GEF_DRAG=1
1000
$GEF_STANG=2.100000000000000E+02
1000
$GEF_OANG=7.000000000000000E+01
1000
$GEVPROMPTX= Länge: 
1000
$GEF_SNK_ADD=0.000000000000000E+00
1000
$GEF_FLIPX=1
1000
$GEF_FLIPY=1
1000
-GRPNAME0?
1000
-GRPNAME1?
1000
-BAML2
1000
$GEF_PROCALC=1
1002
}
1002
}
1002
{
1000
LST
1002
{
1002
{
1000
GROUP
1000
0401
1002
}
1002
{
1000
VIEW
1000
D
1002
}
1002
{
1000
SFILE
1000
$PV_GENSYSTEM"gef\val\di\0401\di1616_d.dxf"
1002
}
1002
{
1000
ST1
1000
$PV_GENSYSTEM"gef\val\di\0401\di1616.val"
1002
}
1002
{
1000
GENASSO
1000
 
1002
}
1002
}
1002
}
1002
{
1000
RET
1002
{
1002
{
1000
LOTI
1002
}
1002
{
1000
GD1
1000
6.647
1002
}
1002
{
1000
STDRT
1000
DIN 13 - M8
1002
}
1002
{
1000
DESCR
1000
Metrisches ISO-Gewinde
1002
}
1002
}
1002
}
1002
{
1000
SYSTEM
1040
1.0
1002
}
1002
{
1000
INFEL
1002
{
1002
}
1002
}
1001
GENIUS_GENOENT_13
1002
{
1000
MYREF
1005
43F
1002
}
1002
{
1000
GRP
1005
0
1002
}
1001
GENIUS_GENOLIS_13
1002
{
1000
ENT
1005
398
1002
}
  0
POINT
  5
440
330
1A
100
AcDbEntity
  8
0
 60
     1
100
AcDbPoint
 10
-226.059364
 20
-489.21225
 30
0.0
1001
GENIUS_GENBH_13
1002
{
1000
BGO
1005
43E
1002
}
1002
{
1000
FGLEVEL
1040
4.000000009999999
1002
}
1002
{
1000
FLAGS
1070
    36
1002
}
1002
{
1000
OIUMAP
1000
OIU
1002
}
1002
{
1000
MODIFY
1070
     0
1002
}
1001
GENIUS_GENODEF_13
1002
{
1000
HIER
1070
     1
1002
}
1002
{
1000
MANEDIT
1070
     0
1002
}
1002
{
1000
NOSEL
1070
     1
1002
}
1002
{
1000
BEHIND
1070
     0
1002
}
1002
{
1000
REACTOR
1002
}
1001
GENIUS_GENOBJ-NBEHI-BHF_13
1002
{
1000
OWNER
1000
GENBEHI
1002
}
1001
GENIUS_GENOENT_13
1002
{
1000
MYREF
1005
440
1002
}
1002
{
1000
GRP
1005
0
1002
}
1001
GENIUS_GENOLIS_13
1002
{
1000
ENT
1005
398
1002
}
  0
POINT
  5
441
330
1A
100
AcDbEntity
  8
0
 60
     1
100
AcDbPoint
 10
-226.059364
 20
-489.21225
 30
0.0
1001
GENIUS_GENBH_13
1002
{
1000
FGO
1005
443
1002
}
1001
GENIUS_GENODEF_13
1002
{
1000
HIER
1070
     1
1002
}
1002
{
1000
MANEDIT
1070
     0
1002
}
1002
{
1000
NOSEL
1070
     1
1002
}
1002
{
1000
BEHIND
1070
     0
1002
}
1002
{
1000
REACTOR
1002
}
1001
GENIUS_GENOBJ-NBEHI-BHB_13
1002
{
1000
OWNER
1000
GENBEHI
1002
}
1001
GENIUS_GENOENT_13
1002
{
1000
MYREF
1005
441
1002
}
1002
{
1000
GRP
1005
0
1002
}
1001
GENIUS_GENOLIS_13
1002
{
1000
ENT
1005
39B
1005
38F
1002
}
  0
POINT
  5
442
330
1A
100
AcDbEntity
  8
0
 60
     1
100
AcDbPoint
 10
-226.059364
 20
-489.21225
 30
0.0
1001
GENIUS_GENODEF_13
1002
{
1000
HIER
1070
   200
1002
}
1002
{
1000
MANEDIT
1070
     0
1002
}
1002
{
1000
NOSEL
1070
     0
1002
}
1002
{
1000
BEHIND
1070
     0
1002
}
1002
{
1000
REACTOR
1002
}
1001
GENIUS_GENOBJ-F-PART_13
1002
{
1000
OWNER
1000
GEF
1002
}
1001
GENIUS_GEFSTDP_13
1002
{
1000
SUG
1000
M
1040
8.0
1002
}
1002
{
1000
DSC
1000
DSC
1002
{
1000
~DESCR
1000
 
1000
~STDRT
1002
}
1002
}
1002
{
1000
KEY
1000
THRT
1002
}
1002
{
1000
INS
1002
{
1040
250.038642
1040
122.528444
1040
0.0
1002
}
1002
}
1002
{
1000
ANG
1040
0.0
1002
}
1002
{
1000
VCC
1002
{
1000
$PRE=M
1000
$NND=8.000000000000000E+00
1000
-RBDESCR
1000
-RBSTDRT
1000
-RBGD1
1000
-RBLOTI
1000
-V$PV_GENSYSTEM"gef\val\di\0401\di1616_d.dxf"
1000
$VCC_TABLE=$PV_GENSYSTEM"gef\val\di\0401\di1616.val"
1000
$GEF_CDIST=3.000000000000000E+00
1000
$GEF_DRAG=1
1000
$GEF_STANG=2.100000000000000E+02
1000
$GEF_OANG=7.000000000000000E+01
1000
$GEVPROMPTX= Länge: 
1000
$GEF_SNK_ADD=0.000000000000000E+00
1000
$GEF_FLIPX=1
1000
$GEF_FLIPY=1
1000
-GRPNAME0?
1000
-GRPNAME1?
1000
-BAML2
1000
$GEF_PROCALC=1
1002
}
1002
}
1002
{
1000
LST
1002
{
1002
{
1000
GROUP
1000
0401
1002
}
1002
{
1000
VIEW
1000
D
1002
}
1002
{
1000
SFILE
1000
$PV_GENSYSTEM"gef\val\di\0401\di1616_d.dxf"
1002
}
1002
{
1000
ST1
1000
$PV_GENSYSTEM"gef\val\di\0401\di1616.val"
1002
}
1002
{
1000
GENASSO
1000
 
1002
}
1002
}
1002
}
1002
{
1000
RET
1002
{
1002
{
1000
LOTI
1002
}
1002
{
1000
GD1
1000
6.647
1002
}
1002
{
1000
STDRT
1000
DIN 13 - M8
1002
}
1002
{
1000
DESCR
1000
Metrisches ISO-Gewinde
1002
}
1002
}
1002
}
1002
{
1000
SYSTEM
1040
1.0
1002
}
1002
{
1000
INFEL
1002
{
1002
}
1002
}
1001
GENIUS_GENOENT_13
1002
{
1000
MYREF
1005
442
1002
}
1002
{
1000
GRP
1005
0
1002
}
1001
GENIUS_GENOLIS_13
1002
{
1000
ENT
1005
38E
1002
}
  0
POINT
  5
443
330
1A
100
AcDbEntity
  8
0
 60
     1
100
AcDbPoint
 10
-226.059364
 20
-489.21225
 30
0.0
1001
GENIUS_GENBH_13
1002
{
1000
BGO
1005
441
1002
}
1002
{
1000
FGLEVEL
1040
3.000000009999999
1002
}
1002
{
1000
FLAGS
1070
    36
1002
}
1002
{
1000
OIUMAP
1000
OIU
1002
}
1002
{
1000
MODIFY
1070
     0
1002
}
1001
GENIUS_GENODEF_13
1002
{
1000
HIER
1070
     1
1002
}
1002
{
1000
MANEDIT
1070
     0
1002
}
1002
{
1000
NOSEL
1070
     1
1002
}
1002
{
1000
BEHIND
1070
     0
1002
}
1002
{
1000
REACTOR
1002
}
1001
GENIUS_GENOBJ-NBEHI-BHF_13
1002
{
1000
OWNER
1000
GENBEHI
1002
}
1001
GENIUS_GENOENT_13
1002
{
1000
MYREF
1005
443
1002
}
1002
{
1000
GRP
1005
0
1002
}
1001
GENIUS_GENOLIS_13
1002
{
1000
ENT
1005
38E
1002
}
  0
POINT
  5
444
330
1A
100
AcDbEntity
  8
0
 60
     1
100
AcDbPoint
 10
-226.059364
 20
-489.21225
 30
0.0
1001
GENIUS_GENBH_13
1002
{
1000
FGO
1005
446
1002
}
1001
GENIUS_GENODEF_13
1002
{
1000
HIER
1070
     1
1002
}
1002
{
1000
MANEDIT
1070
     0
1002
}
1002
{
1000
NOSEL
1070
     1
1002
}
1002
{
1000
BEHIND
1070
     0
1002
}
1002
{
1000
REACTOR
1002
}
1001
GENIUS_GENOBJ-NBEHI-BHB_13
1002
{
1000
OWNER
1000
GENBEHI
1002
}
1001
GENIUS_GENOENT_13
1002
{
1000
MYREF
1005
444
1002
}
1002
{
1000
GRP
1005
0
1002
}
1001
GENIUS_GENOLIS_13
1002
{
1000
ENT
1005
304
1005
308
1002
}
  0
POINT
  5
445
330
1A
100
AcDbEntity
  8
0
 60
     1
100
AcDbPoint
 10
-226.059364
 20
-489.21225
 30
0.0
1001
GENIUS_GENODEF_13
1002
{
1000
HIER
1070
   200
1002
}
1002
{
1000
MANEDIT
1070
     0
1002
}
1002
{
1000
NOSEL
1070
     0
1002
}
1002
{
1000
BEHIND
1070
     0
1002
}
1002
{
1000
REACTOR
1002
}
1001
GENIUS_GENOBJ-F-PART_13
1002
{
1000
OWNER
1000
GEF
1002
}
1001
GENIUS_GEFSTDP_13
1002
{
1000
DSC
1000
DSC
1002
{
1000
~DESCR
1000
 
1000
~STDRT
1002
}
1002
}
1002
{
1000
SUG
1000
M
1040
8.0
1002
}
1002
{
1000
KEY
1000
THRT
1002
}
1002
{
1000
INS
1002
{
1040
202.038642
1040
170.528444
1040
0.0
1002
}
1002
}
1002
{
1000
ANG
1040
0.0
1002
}
1002
{
1000
VCC
1002
{
1000
$PRE=M
1000
$NND=8.000000000000000E+00
1000
-RBDESCR
1000
-RBSTDRT
1000
-RBGD1
1000
-RBLOTI
1000
-V$PV_GENSYSTEM"gef\val\di\0401\di1616_d.dxf"
1000
$VCC_TABLE=$PV_GENSYSTEM"gef\val\di\0401\di1616.val"
1000
$GEF_CDIST=3.000000000000000E+00
1000
$GEF_DRAG=1
1000
$GEF_STANG=2.100000000000000E+02
1000
$GEF_OANG=7.000000000000000E+01
1000
$GEVPROMPTX= Länge: 
1000
$GEF_SNK_ADD=0.000000000000000E+00
1000
$GEF_FLIPX=1
1000
$GEF_FLIPY=1
1000
-GRPNAME0?
1000
-GRPNAME1?
1000
-BAML2
1000
$GEF_PROCALC=1
1002
}
1002
}
1002
{
1000
LST
1002
{
1002
{
1000
GROUP
1000
0401
1002
}
1002
{
1000
VIEW
1000
D
1002
}
1002
{
1000
SFILE
1000
$PV_GENSYSTEM"gef\val\di\0401\di1616_d.dxf"
1002
}
1002
{
1000
ST1
1000
$PV_GENSYSTEM"gef\val\di\0401\di1616.val"
1002
}
1002
{
1000
GENASSO
1000
 
1002
}
1002
}
1002
}
1002
{
1000
RET
1002
{
1002
{
1000
LOTI
1002
}
1002
{
1000
GD1
1000
6.647
1002
}
1002
{
1000
STDRT
1000
DIN 13 - M8
1002
}
1002
{
1000
DESCR
1000
Metrisches ISO-Gewinde
1002
}
1002
}
1002
}
1002
{
1000
SYSTEM
1040
1.0
1002
}
1002
{
1000
INFEL
1002
{
1002
}
1002
}
1001
GENIUS_GENOENT_13
1002
{
1000
MYREF
1005
445
1002
}
1002
{
1000
GRP
1005
0
1002
}
1001
GENIUS_GENOLIS_13
1002
{
1000
ENT
1005
303
1002
}
  0
POINT
  5
446
330
1A
100
AcDbEntity
  8
0
 60
     1
100
AcDbPoint
 10
-226.059364
 20
-489.21225
 30
0.0
1001
GENIUS_GENBH_13
1002
{
1000
BGO
1005
444
1002
}
1002
{
1000
FGLEVEL
1040
1.000000009999999
1002
}
1002
{
1000
FLAGS
1070
    36
1002
}
1002
{
1000
OIUMAP
1000
OIU
1002
}
1002
{
1000
MODIFY
1070
     0
1002
}
1001
GENIUS_GENODEF_13
1002
{
1000
HIER
1070
     1
1002
}
1002
{
1000
MANEDIT
1070
     0
1002
}
1002
{
1000
NOSEL
1070
     1
1002
}
1002
{
1000
BEHIND
1070
     0
1002
}
1002
{
1000
REACTOR
1002
}
1001
GENIUS_GENOBJ-NBEHI-BHF_13
1002
{
1000
OWNER
1000
GENBEHI
1002
}
1001
GENIUS_GENOENT_13
1002
{
1000
MYREF
1005
446
1002
}
1002
{
1000
GRP
1005
0
1002
}
1001
GENIUS_GENOLIS_13
1002
{
1000
ENT
1005
303
1002
}
  0
POINT
  5
447
330
1A
100
AcDbEntity
  8
0
 60
     1
100
AcDbPoint
 10
-226.059364
 20
-489.21225
 30
0.0
1001
GENIUS_GENBH_13
1002
{
1000
FGO
1005
449
1002
}
1001
GENIUS_GENODEF_13
1002
{
1000
HIER
1070
     1
1002
}
1002
{
1000
MANEDIT
1070
     0
1002
}
1002
{
1000
NOSEL
1070
     1
1002
}
1002
{
1000
BEHIND
1070
     0
1002
}
1002
{
1000
REACTOR
1002
}
1001
GENIUS_GENOBJ-NBEHI-BHB_13
1002
{
1000
OWNER
1000
GENBEHI
1002
}
1001
GENIUS_GENOENT_13
1002
{
1000
MYREF
1005
447
1002
}
1002
{
1000
GRP
1005
0
1002
}
1001
GENIUS_GENOLIS_13
1002
{
1000
ENT
1005
306
1005
2CC
1002
}
  0
POINT
  5
448
330
1A
100
AcDbEntity
  8
0
 60
     1
100
AcDbPoint
 10
-226.059364
 20
-489.21225
 30
0.0
1001
GENIUS_GENODEF_13
1002
{
1000
HIER
1070
   200
1002
}
1002
{
1000
MANEDIT
1070
     0
1002
}
1002
{
1000
NOSEL
1070
     0
1002
}
1002
{
1000
BEHIND
1070
     0
1002
}
1002
{
1000
REACTOR
1002
}
1001
GENIUS_GENOBJ-F-PART_13
1002
{
1000
OWNER
1000
GEF
1002
}
1001
GENIUS_GEFSTDP_13
1002
{
1000
SUG
1000
M
1040
8.0
1002
}
1002
{
1000
DSC
1000
DSC
1002
{
1000
~DESCR
1000
 
1000
~STDRT
1002
}
1002
}
1002
{
1000
KEY
1000
THRT
1002
}
1002
{
1000
INS
1002
{
1040
202.038642
1040
122.528444
1040
0.0
1002
}
1002
}
1002
{
1000
ANG
1040
0.0
1002
}
1002
{
1000
VCC
1002
{
1000
$PRE=M
1000
$NND=8.000000000000000E+00
1000
-RBDESCR
1000
-RBSTDRT
1000
-RBGD1
1000
-RBLOTI
1000
-V$PV_GENSYSTEM"gef\val\di\0401\di1616_d.dxf"
1000
$VCC_TABLE=$PV_GENSYSTEM"gef\val\di\0401\di1616.val"
1000
$GEF_CDIST=3.000000000000000E+00
1000
$GEF_DRAG=1
1000
$GEF_STANG=2.100000000000000E+02
1000
$GEF_OANG=7.000000000000000E+01
1000
$GEVPROMPTX= Länge: 
1000
$GEF_SNK_ADD=0.000000000000000E+00
1000
$GEF_FLIPX=1
1000
$GEF_FLIPY=1
1000
-GRPNAME0?
1000
-GRPNAME1?
1000
-BAML2
1000
$GEF_PROCALC=1
1002
}
1002
}
1002
{
1000
LST
1002
{
1002
{
1000
GROUP
1000
0401
1002
}
1002
{
1000
VIEW
1000
D
1002
}
1002
{
1000
SFILE
1000
$PV_GENSYSTEM"gef\val\di\0401\di1616_d.dxf"
1002
}
1002
{
1000
ST1
1000
$PV_GENSYSTEM"gef\val\di\0401\di1616.val"
1002
}
1002
{
1000
GENASSO
1000
 
1002
}
1002
}
1002
}
1002
{
1000
RET
1002
{
1002
{
1000
LOTI
1002
}
1002
{
1000
GD1
1000
6.647
1002
}
1002
{
1000
STDRT
1000
DIN 13 - M8
1002
}
1002
{
1000
DESCR
1000
Metrisches ISO-Gewinde
1002
}
1002
}
1002
}
1002
{
1000
SYSTEM
1040
1.0
1002
}
1002
{
1000
INFEL
1002
{
1002
}
1002
}
1001
GENIUS_GENOENT_13
1002
{
1000
MYREF
1005
448
1002
}
1002
{
1000
GRP
1005
0
1002
}
1001
GENIUS_GENOLIS_13
1002
{
1000
ENT
1005
2CB
1002
}
  0
POINT
  5
449
330
1A
100
AcDbEntity
  8
0
 60
     1
100
AcDbPoint
 10
-226.059364
 20
-489.21225
 30
0.0
1001
GENIUS_GENBH_13
1002
{
1000
BGO
1005
447
1002
}
1002
{
1000
FGLEVEL
1040
2.000000009999999
1002
}
1002
{
1000
FLAGS
1070
    36
1002
}
1002
{
1000
OIUMAP
1000
OIU
1002
}
1002
{
1000
MODIFY
1070
     0
1002
}
1001
GENIUS_GENODEF_13
1002
{
1000
HIER
1070
     1
1002
}
1002
{
1000
MANEDIT
1070
     0
1002
}
1002
{
1000
NOSEL
1070
     1
1002
}
1002
{
1000
BEHIND
1070
     0
1002
}
1002
{
1000
REACTOR
1002
}
1001
GENIUS_GENOBJ-NBEHI-BHF_13
1002
{
1000
OWNER
1000
GENBEHI
1002
}
1001
GENIUS_GENOENT_13
1002
{
1000
MYREF
1005
449
1002
}
1002
{
1000
GRP
1005
0
1002
}
1001
GENIUS_GENOLIS_13
1002
{
1000
ENT
1005
2CB
1002
}
  0
ENDSEC
  0
SECTION
  2
OBJECTS
  0
DICTIONARY
  5
C
330
0
100
AcDbDictionary
281
     1
  3
ACAD_COLOR
350
4BA
  3
ACAD_GROUP
350
D
  3
ACAD_LAYOUT
350
4E2
  3
ACAD_MATERIAL
350
490
  3
ACAD_MLEADERSTYLE
350
4DF
  3
ACAD_MLINESTYLE
350
E
  3
ACAD_PLOTSETTINGS
350
4E3
  3
ACAD_PLOTSTYLENAME
350
48E
  3
ACAD_SCALELIST
350
4BD
  3
ACAD_TABLESTYLE
350
4BB
  3
ACAD_VISUALSTYLE
350
4A9
  3
ACDB_RECOMPOSE_DATA
350
59D
  3
AcDbVariableDictionary
350
594
  3
AcmDictionary
350
544
  3
AcmSystemVariableManager
350
5AB
  3
AMG
350
4E9
  3
AMGSNAPSETTINGS
350
58D
  3
DWGPROPS
350
59E
  0
DICTIONARY
  5
4BA
102
{ACAD_REACTORS
330
C
102
}
330
C
100
AcDbDictionary
281
     1
  0
DICTIONARY
  5
D
102
{ACAD_REACTORS
330
C
102
}
330
C
100
AcDbDictionary
281
     1
  0
DICTIONARY
  5
4E2
102
{ACAD_REACTORS
330
C
102
}
330
C
100
AcDbDictionary
281
     1
  3
Layout1
350
4E5
  3
Model
350
4E4
  0
DICTIONARY
  5
490
102
{ACAD_REACTORS
330
C
102
}
330
C
100
AcDbDictionary
281
     1
  3
ByBlock
350
499
  3
ByLayer
350
491
  3
Global
350
4A1
  0
DICTIONARY
  5
4DF
102
{ACAD_REACTORS
330
C
102
}
330
C
100
AcDbDictionary
281
     1
  3
Standard
350
4E0
  0
DICTIONARY
  5
E
102
{ACAD_REACTORS
330
C
102
}
330
C
100
AcDbDictionary
281
     1
  3
STANDARD
350
13
  0
DICTIONARY
  5
4E3
102
{ACAD_REACTORS
330
C
102
}
330
C
100
AcDbDictionary
281
     1
  0
ACDBDICTIONARYWDFLT
  5
48E
102
{ACAD_REACTORS
330
C
102
}
330
C
100
AcDbDictionary
281
     1
  3
Normal
350
48F
100
AcDbDictionaryWithDefault
340
48F
  0
DICTIONARY
  5
4BD
102
{ACAD_REACTORS
330
C
102
}
330
C
100
AcDbDictionary
281
     1
  3
A0
350
4BE
  3
A1
350
4BF
  3
A2
350
4C0
  3
A3
350
4C1
  3
A4
350
4C2
  3
A5
350
4C3
  3
A6
350
4C4
  3
A7
350
4C5
  3
A8
350
4C6
  3
A9
350
4C7
  3
B0
350
4C8
  3
B1
350
4C9
  3
B2
350
4CA
  3
B3
350
4CB
  3
B4
350
4CC
  3
B5
350
4CD
  3
B6
350
4CE
  3
B7
350
4CF
  3
B8
350
4D0
  3
B9
350
4D1
  3
C0
350
4D2
  3
C1
350
4D3
  3
C2
350
4D4
  3
C3
350
4D5
  3
C4
350
4D6
  3
C5
350
4D7
  3
C6
350
4D8
  3
C7
350
4D9
  3
C8
350
4DA
  3
C9
350
4DB
  3
D0
350
4DC
  3
D1
350
4DD
  3
D2
350
4DE
  0
DICTIONARY
  5
4BB
102
{ACAD_REACTORS
330
C
102
}
330
C
100
AcDbDictionary
281
     1
  3
Standard
350
4BC
  0
DICTIONARY
  5
4A9
102
{ACAD_REACTORS
330
C
102
}
330
C
100
AcDbDictionary
281
     1
  3
2dWireframe
350
4AF
  3
3D Hidden
350
4B1
  3
3dWireframe
350
4B0
  3
Basic
350
4AE
  3
Brighten
350
4B5
  3
ColorChange
350
4B9
  3
Conceptual
350
4B2
  3
Dim
350
4B4
  3
Facepattern
350
4B8
  3
Flat
350
4AA
  3
FlatWithEdges
350
4AB
  3
Gouraud
350
4AC
  3
GouraudWithEdges
350
4AD
  3
Linepattern
350
4B7
  3
Realistic
350
4B3
  3
Thicken
350
4B6
  0
XRECORD
  5
59D
102
{ACAD_REACTORS
330
C
102
}
330
C
100
AcDbXrecord
280
     1
 90
        1
330
4BC
  0
DICTIONARY
  5
594
102
{ACAD_REACTORS
330
C
102
}
330
C
100
AcDbDictionary
281
     1
  3
CANNOSCALE
350
597
  3
CMLEADERSTYLE
350
596
  3
CTABLESTYLE
350
595
  3
DIMASSOC
350
59A
  3
INDEXCTL
350
599
  3
SORTENTS
350
598
  0
DICTIONARY
  5
544
102
{ACAD_REACTORS
330
C
102
}
330
C
100
AcDbDictionary
281
     1
  3
AcmStdDictionary
350
54F
  0
DICTIONARY
  5
4E9
102
{ACAD_REACTORS
330
C
102
}
330
C
100
AcDbDictionary
281
     1
  0
DICTIONARY
  5
58D
102
{ACAD_REACTORS
330
C
102
}
330
C
100
AcDbDictionary
281
     1
  0
XRECORD
  5
59E
102
{ACAD_REACTORS
330
C
102
}
330
C
100
AcDbXrecord
280
     1
  1
DWGPROPS COOKIE
  2

  3

  4

  6

  7

  8
bauer_sven
  9

300
=
301
=
302
=
303
=
304
=
305
=
306
=
307
=
308
=
309
=
 40
0.0012014930555556
 41
2450848.675408912
 42
2456226.382662338
  1

 90
        0
  0
LAYOUT
  5
4E5
102
{ACAD_XDICTIONARY
360
5A5
102
}
102
{ACAD_REACTORS
330
4E2
102
}
330
4E2
100
AcDbPlotSettings
  1

  2
iR 2570CN-010
  4

  6

 40
0.0
 41
0.0
 42
0.0
 43
0.0
 44
0.0
 45
0.0
 46
0.0
 47
0.0
 48
0.0
 49
0.0
140
0.0
141
0.0
142
1.0
143
1.0
 70
   688
 72
     0
 73
     0
 74
     5
  7

 75
    16
147
1.0
148
0.0
149
0.0
100
AcDbLayout
  1
Layout1
 70
     1
 71
     1
 10
0.0
 20
0.0
 11
12.0
 21
9.0
 12
0.0
 22
0.0
 32
0.0
 14
1.000000000000000E+20
 24
1.000000000000000E+20
 34
1.000000000000000E+20
 15
-1.000000000000000E+20
 25
-1.000000000000000E+20
 35
-1.000000000000000E+20
146
0.0
 13
0.0
 23
0.0
 33
0.0
 16
1.0
 26
0.0
 36
0.0
 17
0.0
 27
1.0
 37
0.0
 76
     0
330
17
  0
LAYOUT
  5
4E4
102
{ACAD_XDICTIONARY
360
5A3
102
}
102
{ACAD_REACTORS
330
4E2
102
}
330
4E2
100
AcDbPlotSettings
  1

  2
iR 2570CN-010
  4

  6

 40
0.0
 41
0.0
 42
0.0
 43
0.0
 44
0.0
 45
0.0
 46
0.0
 47
0.0
 48
0.0
 49
0.0
140
0.0
141
0.0
142
1.0
143
1.0
 70
  1712
 72
     0
 73
     0
 74
     0
  7

 75
     0
147
1.0
148
0.0
149
0.0
100
AcDbLayout
  1
Model
 70
     1
 71
     0
 10
0.0
 20
0.0
 11
12.0
 21
9.0
 12
0.0
 22
0.0
 32
0.0
 14
0.0
 24
0.0
 34
0.0
 15
0.0
 25
0.0
 35
0.0
146
0.0
 13
0.0
 23
0.0
 33
0.0
 16
1.0
 26
0.0
 36
0.0
 17
0.0
 27
1.0
 37
0.0
 76
     0
330
1A
331
48C
  0
MATERIAL
  5
499
102
{ACAD_XDICTIONARY
360
49A
102
}
102
{ACAD_REACTORS
330
490
102
}
330
490
100
AcDbMaterial
  1
ByBlock
 72
     0
 43
0.0208333333333333
 43
0.0
 43
0.0
 43
0.0
 43
0.0
 43
0.0208333333333333
 43
0.0
 43
0.0
 43
0.0
 43
0.0
 43
1.0
 43
0.0
 43
0.0
 43
0.0
 43
0.0
 43
1.0
 77
     0
 47
0.0208333333333333
 47
0.0
 47
0.0
 47
0.0
 47
0.0
 47
0.0208333333333333
 47
0.0
 47
0.0
 47
0.0
 47
0.0
 47
1.0
 47
0.0
 47
0.0
 47
0.0
 47
0.0
 47
1.0
171
     0
 49
0.0208333333333333
 49
0.0
 49
0.0
 49
0.0
 49
0.0
 49
0.0208333333333333
 49
0.0
 49
0.0
 49
0.0
 49
0.0
 49
1.0
 49
0.0
 49
0.0
 49
0.0
 49
0.0
 49
1.0
175
     0
142
0.0208333333333333
142
0.0
142
0.0
142
0.0
142
0.0
142
0.0208333333333333
142
0.0
142
0.0
142
0.0
142
0.0
142
1.0
142
0.0
142
0.0
142
0.0
142
0.0
142
1.0
179
     0
144
0.0208333333333333
144
0.0
144
0.0
144
0.0
144
0.0
144
0.0208333333333333
144
0.0
144
0.0
144
0.0
144
0.0
144
1.0
144
0.0
144
0.0
144
0.0
144
0.0
144
1.0
147
0.0208333333333333
147
0.0
147
0.0
147
0.0
147
0.0
147
0.0208333333333333
147
0.0
147
0.0
147
0.0
147
0.0
147
1.0
147
0.0
147
0.0
147
0.0
147
0.0
147
1.0
  0
MATERIAL
  5
491
102
{ACAD_XDICTIONARY
360
492
102
}
102
{ACAD_REACTORS
330
490
102
}
330
490
100
AcDbMaterial
  1
ByLayer
 72
     0
 43
0.0208333333333333
 43
0.0
 43
0.0
 43
0.0
 43
0.0
 43
0.0208333333333333
 43
0.0
 43
0.0
 43
0.0
 43
0.0
 43
1.0
 43
0.0
 43
0.0
 43
0.0
 43
0.0
 43
1.0
 77
     0
 47
0.0208333333333333
 47
0.0
 47
0.0
 47
0.0
 47
0.0
 47
0.0208333333333333
 47
0.0
 47
0.0
 47
0.0
 47
0.0
 47
1.0
 47
0.0
 47
0.0
 47
0.0
 47
0.0
 47
1.0
171
     0
 49
0.0208333333333333
 49
0.0
 49
0.0
 49
0.0
 49
0.0
 49
0.0208333333333333
 49
0.0
 49
0.0
 49
0.0
 49
0.0
 49
1.0
 49
0.0
 49
0.0
 49
0.0
 49
0.0
 49
1.0
175
     0
142
0.0208333333333333
142
0.0
142
0.0
142
0.0
142
0.0
142
0.0208333333333333
142
0.0
142
0.0
142
0.0
142
0.0
142
1.0
142
0.0
142
0.0
142
0.0
142
0.0
142
1.0
179
     0
144
0.0208333333333333
144
0.0
144
0.0
144
0.0
144
0.0
144
0.0208333333333333
144
0.0
144
0.0
144
0.0
144
0.0
144
1.0
144
0.0
144
0.0
144
0.0
144
0.0
144
1.0
147
0.0208333333333333
147
0.0
147
0.0
147
0.0
147
0.0
147
0.0208333333333333
147
0.0
147
0.0
147
0.0
147
0.0
147
1.0
147
0.0
147
0.0
147
0.0
147
0.0
147
1.0
  0
MATERIAL
  5
4A1
102
{ACAD_XDICTIONARY
360
4A2
102
}
102
{ACAD_REACTORS
330
490
102
}
330
490
100
AcDbMaterial
  1
Global
 72
     0
 43
0.0208333333333333
 43
0.0
 43
0.0
 43
0.0
 43
0.0
 43
0.0208333333333333
 43
0.0
 43
0.0
 43
0.0
 43
0.0
 43
1.0
 43
0.0
 43
0.0
 43
0.0
 43
0.0
 43
1.0
 77
     0
 47
0.0208333333333333
 47
0.0
 47
0.0
 47
0.0
 47
0.0
 47
0.0208333333333333
 47
0.0
 47
0.0
 47
0.0
 47
0.0
 47
1.0
 47
0.0
 47
0.0
 47
0.0
 47
0.0
 47
1.0
171
     0
 49
0.0208333333333333
 49
0.0
 49
0.0
 49
0.0
 49
0.0
 49
0.0208333333333333
 49
0.0
 49
0.0
 49
0.0
 49
0.0
 49
1.0
 49
0.0
 49
0.0
 49
0.0
 49
0.0
 49
1.0
175
     0
142
0.0208333333333333
142
0.0
142
0.0
142
0.0
142
0.0
142
0.0208333333333333
142
0.0
142
0.0
142
0.0
142
0.0
142
1.0
142
0.0
142
0.0
142
0.0
142
0.0
142
1.0
179
     0
144
0.0208333333333333
144
0.0
144
0.0
144
0.0
144
0.0
144
0.0208333333333333
144
0.0
144
0.0
144
0.0
144
0.0
144
1.0
144
0.0
144
0.0
144
0.0
144
0.0
144
1.0
147
0.0208333333333333
147
0.0
147
0.0
147
0.0
147
0.0
147
0.0208333333333333
147
0.0
147
0.0
147
0.0
147
0.0
147
1.0
147
0.0
147
0.0
147
0.0
147
0.0
147
1.0
  0
MLEADERSTYLE
  5
4E0
102
{ACAD_REACTORS
330
4DF
102
}
330
4DF
100
AcDbMLeaderStyle
170
     2
171
     1
172
     0
 90
        2
 40
0.0
 41
0.0
173
     1
 91
-1056964608
340
14
 92
       -2
290
     1
 42
0.09
291
     1
 43
0.36
  3
Standard
 44
0.18
300

342
10
174
     1
178
     6
175
     1
176
     0
 93
-1056964608
 45
0.18
292
     0
297
     0
 46
0.18
 94
-1056964608
 47
1.0
 49
1.0
140
1.0
293
     1
141
0.0
294
     1
177
     0
142
1.0
295
     0
296
     0
143
0.125
1001
ACAD_MLEADERVER
1070
     2
  0
MLINESTYLE
  5
13
102
{ACAD_REACTORS
330
E
102
}
330
E
100
AcDbMlineStyle
  2
STANDARD
 70
     0
  3

 62
     0
 51
90.0
 52
90.0
 71
     2
 49
0.5
 62
   256
  6
BYLAYER
 49
-0.5
 62
   256
  6
BYLAYER
  0
ACDBPLACEHOLDER
  5
48F
102
{ACAD_REACTORS
330
48E
102
}
330
48E
  0
SCALE
  5
4BE
102
{ACAD_REACTORS
330
4BD
102
}
330
4BD
100
AcDbScale
 70
     0
300
1:1
140
1.0
141
1.0
290
     1
  0
SCALE
  5
4BF
102
{ACAD_REACTORS
330
4BD
102
}
330
4BD
100
AcDbScale
 70
     0
300
1:2
140
1.0
141
2.0
290
     0
  0
SCALE
  5
4C0
102
{ACAD_REACTORS
330
4BD
102
}
330
4BD
100
AcDbScale
 70
     0
300
1:4
140
1.0
141
4.0
290
     0
  0
SCALE
  5
4C1
102
{ACAD_REACTORS
330
4BD
102
}
330
4BD
100
AcDbScale
 70
     0
300
1:5
140
1.0
141
5.0
290
     0
  0
SCALE
  5
4C2
102
{ACAD_REACTORS
330
4BD
102
}
330
4BD
100
AcDbScale
 70
     0
300
1:8
140
1.0
141
8.0
290
     0
  0
SCALE
  5
4C3
102
{ACAD_REACTORS
330
4BD
102
}
330
4BD
100
AcDbScale
 70
     0
300
1:10
140
1.0
141
10.0
290
     0
  0
SCALE
  5
4C4
102
{ACAD_REACTORS
330
4BD
102
}
330
4BD
100
AcDbScale
 70
     0
300
1:16
140
1.0
141
16.0
290
     0
  0
SCALE
  5
4C5
102
{ACAD_REACTORS
330
4BD
102
}
330
4BD
100
AcDbScale
 70
     0
300
1:20
140
1.0
141
20.0
290
     0
  0
SCALE
  5
4C6
102
{ACAD_REACTORS
330
4BD
102
}
330
4BD
100
AcDbScale
 70
     0
300
1:30
140
1.0
141
30.0
290
     0
  0
SCALE
  5
4C7
102
{ACAD_REACTORS
330
4BD
102
}
330
4BD
100
AcDbScale
 70
     0
300
1:40
140
1.0
141
40.0
290
     0
  0
SCALE
  5
4C8
102
{ACAD_REACTORS
330
4BD
102
}
330
4BD
100
AcDbScale
 70
     0
300
1:50
140
1.0
141
50.0
290
     0
  0
SCALE
  5
4C9
102
{ACAD_REACTORS
330
4BD
102
}
330
4BD
100
AcDbScale
 70
     0
300
1:100
140
1.0
141
100.0
290
     0
  0
SCALE
  5
4CA
102
{ACAD_REACTORS
330
4BD
102
}
330
4BD
100
AcDbScale
 70
     0
300
2:1
140
2.0
141
1.0
290
     0
  0
SCALE
  5
4CB
102
{ACAD_REACTORS
330
4BD
102
}
330
4BD
100
AcDbScale
 70
     0
300
4:1
140
4.0
141
1.0
290
     0
  0
SCALE
  5
4CC
102
{ACAD_REACTORS
330
4BD
102
}
330
4BD
100
AcDbScale
 70
     0
300
8:1
140
8.0
141
1.0
290
     0
  0
SCALE
  5
4CD
102
{ACAD_REACTORS
330
4BD
102
}
330
4BD
100
AcDbScale
 70
     0
300
10:1
140
10.0
141
1.0
290
     0
  0
SCALE
  5
4CE
102
{ACAD_REACTORS
330
4BD
102
}
330
4BD
100
AcDbScale
 70
     0
300
100:1
140
100.0
141
1.0
290
     0
  0
SCALE
  5
4CF
102
{ACAD_REACTORS
330
4BD
102
}
330
4BD
100
AcDbScale
 70
     0
300
1/128" = 1'-0"
140
0.0078125
141
12.0
290
     0
  0
SCALE
  5
4D0
102
{ACAD_REACTORS
330
4BD
102
}
330
4BD
100
AcDbScale
 70
     0
300
1/64" = 1'-0"
140
0.015625
141
12.0
290
     0
  0
SCALE
  5
4D1
102
{ACAD_REACTORS
330
4BD
102
}
330
4BD
100
AcDbScale
 70
     0
300
1/32" = 1'-0"
140
0.03125
141
12.0
290
     0
  0
SCALE
  5
4D2
102
{ACAD_REACTORS
330
4BD
102
}
330
4BD
100
AcDbScale
 70
     0
300
1/16" = 1'-0"
140
0.0625
141
12.0
290
     0
  0
SCALE
  5
4D3
102
{ACAD_REACTORS
330
4BD
102
}
330
4BD
100
AcDbScale
 70
     0
300
3/32" = 1'-0"
140
0.09375
141
12.0
290
     0
  0
SCALE
  5
4D4
102
{ACAD_REACTORS
330
4BD
102
}
330
4BD
100
AcDbScale
 70
     0
300
1/8" = 1'-0"
140
0.125
141
12.0
290
     0
  0
SCALE
  5
4D5
102
{ACAD_REACTORS
330
4BD
102
}
330
4BD
100
AcDbScale
 70
     0
300
3/16" = 1'-0"
140
0.1875
141
12.0
290
     0
  0
SCALE
  5
4D6
102
{ACAD_REACTORS
330
4BD
102
}
330
4BD
100
AcDbScale
 70
     0
300
1/4" = 1'-0"
140
0.25
141
12.0
290
     0
  0
SCALE
  5
4D7
102
{ACAD_REACTORS
330
4BD
102
}
330
4BD
100
AcDbScale
 70
     0
300
3/8" = 1'-0"
140
0.375
141
12.0
290
     0
  0
SCALE
  5
4D8
102
{ACAD_REACTORS
330
4BD
102
}
330
4BD
100
AcDbScale
 70
     0
300
1/2" = 1'-0"
140
0.5
141
12.0
290
     0
  0
SCALE
  5
4D9
102
{ACAD_REACTORS
330
4BD
102
}
330
4BD
100
AcDbScale
 70
     0
300
3/4" = 1'-0"
140
0.75
141
12.0
290
     0
  0
SCALE
  5
4DA
102
{ACAD_REACTORS
330
4BD
102
}
330
4BD
100
AcDbScale
 70
     0
300
1" = 1'-0"
140
1.0
141
12.0
290
     0
  0
SCALE
  5
4DB
102
{ACAD_REACTORS
330
4BD
102
}
330
4BD
100
AcDbScale
 70
     0
300
1-1/2" = 1'-0"
140
1.5
141
12.0
290
     0
  0
SCALE
  5
4DC
102
{ACAD_REACTORS
330
4BD
102
}
330
4BD
100
AcDbScale
 70
     0
300
3" = 1'-0"
140
3.0
141
12.0
290
     0
  0
SCALE
  5
4DD
102
{ACAD_REACTORS
330
4BD
102
}
330
4BD
100
AcDbScale
 70
     0
300
6" = 1'-0"
140
6.0
141
12.0
290
     0
  0
SCALE
  5
4DE
102
{ACAD_REACTORS
330
4BD
102
}
330
4BD
100
AcDbScale
 70
     0
300
1'-0" = 1'-0"
140
12.0
141
12.0
290
     0
  0
TABLESTYLE
  5
4BC
102
{ACAD_XDICTIONARY
360
59B
102
}
102
{ACAD_REACTORS
330
4BB
102
}
330
4BB
100
AcDbTableStyle
  3
Standard
 70
     0
 71
     0
 40
0.06
 41
0.06
280
     0
281
     0
  7
STANDARD
140
0.18
170
     2
 62
     0
 63
     7
283
     0
274
    -2
284
     1
 64
     0
275
    -2
285
     1
 65
     0
276
    -2
286
     1
 66
     0
277
    -2
287
     1
 67
     0
278
    -2
288
     1
 68
     0
279
    -2
289
     1
 69
     0
  7
STANDARD
140
0.25
170
     5
 62
     0
 63
     7
283
     0
274
    -2
284
     1
 64
     0
275
    -2
285
     1
 65
     0
276
    -2
286
     1
 66
     0
277
    -2
287
     1
 67
     0
278
    -2
288
     1
 68
     0
279
    -2
289
     1
 69
     0
  7
STANDARD
140
0.18
170
     5
 62
     0
 63
     7
283
     0
274
    -2
284
     1
 64
     0
275
    -2
285
     1
 65
     0
276
    -2
286
     1
 66
     0
277
    -2
287
     1
 67
     0
278
    -2
288
     1
 68
     0
279
    -2
289
     1
 69
     0
  0
VISUALSTYLE
  5
4AF
102
{ACAD_REACTORS
330
4A9
102
}
330
4A9
100
AcDbVisualStyle
  2
2dWireframe
 70
     4
 71
     0
 72
     2
 73
     0
 90
        0
 40
-0.6
 41
-30.0
 62
     5
 63
     7
 74
     1
 91
        4
 64
     7
 65
   257
 75
     1
175
     1
 42
1.0
 92
        0
 66
   257
 43
1.0
 76
     1
 77
     6
 78
     2
 67
     7
 79
     5
170
     0
171
     0
290
     0
174
     0
 93
        1
 44
0.0
173
     0
291
     0
 45
0.0
1001
ACAD
1000
AcDbSavedByObjectVersion
1070
     0
  0
VISUALSTYLE
  5
4B1
102
{ACAD_REACTORS
330
4A9
102
}
330
4A9
100
AcDbVisualStyle
  2
3D Hidden
 70
     6
 71
     1
 72
     2
 73
     2
 90
        0
 40
-0.6
 41
-30.0
 62
     5
 63
     7
 74
     2
 91
        2
 64
     7
 65
   257
 75
     2
175
     1
 42
40.0
 92
        0
 66
   257
 43
1.0
 76
     1
 77
     6
 78
     2
 67
     7
 79
     3
170
     0
171
     0
290
     0
174
     0
 93
        1
 44
0.0
173
     0
291
     0
 45
0.0
1001
ACAD
1000
AcDbSavedByObjectVersion
1070
     0
  0
VISUALSTYLE
  5
4B0
102
{ACAD_REACTORS
330
4A9
102
}
330
4A9
100
AcDbVisualStyle
  2
3dWireframe
 70
     5
 71
     0
 72
     2
 73
     0
 90
        0
 40
-0.6
 41
-30.0
 62
     5
 63
     7
 74
     1
 91
        4
 64
     7
 65
   257
 75
     1
175
     1
 42
1.0
 92
        0
 66
   257
 43
1.0
 76
     1
 77
     6
 78
     2
 67
     7
 79
     5
170
     0
171
     0
290
     0
174
     0
 93
        1
 44
0.0
173
     0
291
     0
 45
0.0
1001
ACAD
1000
AcDbSavedByObjectVersion
1070
     0
  0
VISUALSTYLE
  5
4AE
102
{ACAD_REACTORS
330
4A9
102
}
330
4A9
100
AcDbVisualStyle
  2
Basic
 70
     7
 71
     1
 72
     0
 73
     1
 90
        0
 40
-0.6
 41
-30.0
 62
     5
 63
     7
 74
     0
 91
        4
 64
     7
 65
   257
 75
     1
175
     1
 42
1.0
 92
        8
 66
     7
 43
1.0
 76
     1
 77
     6
 78
     2
 67
     7
 79
     5
170
     0
171
     0
290
     0
174
     0
 93
        1
 44
0.0
173
     0
291
     1
 45
0.0
1001
ACAD
1000
AcDbSavedByObjectVersion
1070
     0
  0
VISUALSTYLE
  5
4B5
102
{ACAD_REACTORS
330
4A9
102
}
330
4A9
100
AcDbVisualStyle
  2
Brighten
 70
    12
 71
     2
 72
     2
 73
     0
 90
        0
 40
-0.6
 41
-30.0
 62
     5
 63
     7
 74
     1
 91
        4
 64
     7
 65
   257
 75
     1
175
     1
 42
1.0
 92
        8
 66
     7
 43
1.0
 76
     1
 77
     6
 78
     2
 67
     7
 79
     5
170
     0
171
     0
290
     0
174
     0
 93
        1
 44
50.0
173
     0
291
     1
 45
0.0
1001
ACAD
1000
AcDbSavedByObjectVersion
1070
     0
  0
VISUALSTYLE
  5
4B9
102
{ACAD_REACTORS
330
4A9
102
}
330
4A9
100
AcDbVisualStyle
  2
ColorChange
 70
    16
 71
     2
 72
     2
 73
     3
 90
        0
 40
-0.6
 41
-30.0
 62
     5
 63
     8
 74
     1
 91
        4
 64
     7
 65
   257
 75
     1
175
     1
 42
1.0
 92
        8
 66
     8
 43
1.0
 76
     1
 77
     6
 78
     2
 67
     7
 79
     5
170
     0
171
     0
290
     0
174
     0
 93
        1
 44
0.0
173
     0
291
     1
 45
0.0
1001
ACAD
1000
AcDbSavedByObjectVersion
1070
     0
  0
VISUALSTYLE
  5
4B2
102
{ACAD_REACTORS
330
4A9
102
}
330
4A9
100
AcDbVisualStyle
  2
Conceptual
 70
     9
 71
     3
 72
     2
 73
     0
 90
        0
 40
-0.6
 41
-30.0
 62
     5
 63
     7
 74
     2
 91
        2
 64
     7
 65
   257
 75
     1
175
     1
 42
40.0
 92
        8
 66
     7
 43
1.0
 76
     1
 77
     6
 78
     2
 67
     7
 79
     3
170
     0
171
     0
290
     0
174
     0
 93
        1
 44
0.0
173
     0
291
     0
 45
0.0
1001
ACAD
1000
AcDbSavedByObjectVersion
1070
     0
  0
VISUALSTYLE
  5
4B4
102
{ACAD_REACTORS
330
4A9
102
}
330
4A9
100
AcDbVisualStyle
  2
Dim
 70
    11
 71
     2
 72
     2
 73
     0
 90
        0
 40
-0.6
 41
-30.0
 62
     5
 63
     7
 74
     1
 91
        4
 64
     7
 65
   257
 75
     1
175
     1
 42
1.0
 92
        8
 66
     7
 43
1.0
 76
     1
 77
     6
 78
     2
 67
     7
 79
     5
170
     0
171
     0
290
     0
174
     0
 93
        1
 44
-50.0
173
     0
291
     1
 45
0.0
1001
ACAD
1000
AcDbSavedByObjectVersion
1070
     0
  0
VISUALSTYLE
  5
4B8
102
{ACAD_REACTORS
330
4A9
102
}
330
4A9
100
AcDbVisualStyle
  2
Facepattern
 70
    15
 71
     2
 72
     2
 73
     0
 90
        0
 40
-0.6
 41
-30.0
 62
     5
 63
     7
 74
     1
 91
        4
 64
     7
 65
   257
 75
     1
175
     1
 42
1.0
 92
        8
 66
     7
 43
1.0
 76
     1
 77
     6
 78
     2
 67
     7
 79
     5
170
     0
171
     0
290
     0
174
     0
 93
        1
 44
0.0
173
     0
291
     1
 45
0.0
1001
ACAD
1000
AcDbSavedByObjectVersion
1070
     0
  0
VISUALSTYLE
  5
4AA
102
{ACAD_REACTORS
330
4A9
102
}
330
4A9
100
AcDbVisualStyle
  2
Flat
 70
     0
 71
     2
 72
     1
 73
     1
 90
        2
 40
-0.6
 41
30.0
 62
     5
 63
     7
 74
     0
 91
        4
 64
     7
 65
   257
 75
     1
175
     1
 42
1.0
 92
        8
 66
     7
 43
1.0
 76
     1
 77
     6
 78
     2
 67
     7
 79
     5
170
     0
171
     0
290
     0
174
     0
 93
       13
 44
0.0
173
     0
291
     1
 45
0.0
1001
ACAD
1000
AcDbSavedByObjectVersion
1070
     0
  0
VISUALSTYLE
  5
4AB
102
{ACAD_REACTORS
330
4A9
102
}
330
4A9
100
AcDbVisualStyle
  2
FlatWithEdges
 70
     1
 71
     2
 72
     1
 73
     1
 90
        2
 40
-0.6
 41
30.0
 62
     5
 63
     7
 74
     1
 91
        4
 64
     7
 65
   257
 75
     1
175
     1
 42
1.0
 92
        0
 66
   257
 43
1.0
 76
     1
 77
     6
 78
     2
 67
     7
 79
     5
170
     0
171
     0
290
     0
174
     0
 93
       13
 44
0.0
173
     0
291
     1
 45
0.0
1001
ACAD
1000
AcDbSavedByObjectVersion
1070
     0
  0
VISUALSTYLE
  5
4AC
102
{ACAD_REACTORS
330
4A9
102
}
330
4A9
100
AcDbVisualStyle
  2
Gouraud
 70
     2
 71
     2
 72
     2
 73
     1
 90
        2
 40
-0.6
 41
30.0
 62
     5
 63
     7
 74
     0
 91
        4
 64
     7
 65
   257
 75
     1
175
     1
 42
1.0
 92
        0
 66
     7
 43
1.0
 76
     1
 77
     6
 78
     2
 67
     7
 79
     5
170
     0
171
     0
290
     0
174
     0
 93
       13
 44
0.0
173
     0
291
     1
 45
0.0
1001
ACAD
1000
AcDbSavedByObjectVersion
1070
     0
  0
VISUALSTYLE
  5
4AD
102
{ACAD_REACTORS
330
4A9
102
}
330
4A9
100
AcDbVisualStyle
  2
GouraudWithEdges
 70
     3
 71
     2
 72
     2
 73
     1
 90
        2
 40
-0.6
 41
30.0
 62
     5
 63
     7
 74
     1
 91
        4
 64
     7
 65
   257
 75
     1
175
     1
 42
1.0
 92
        0
 66
   257
 43
1.0
 76
     1
 77
     6
 78
     2
 67
     7
 79
     5
170
     0
171
     0
290
     0
174
     0
 93
       13
 44
0.0
173
     0
291
     1
 45
0.0
1001
ACAD
1000
AcDbSavedByObjectVersion
1070
     0
  0
VISUALSTYLE
  5
4B7
102
{ACAD_REACTORS
330
4A9
102
}
330
4A9
100
AcDbVisualStyle
  2
Linepattern
 70
    14
 71
     2
 72
     2
 73
     0
 90
        0
 40
-0.6
 41
-30.0
 62
     5
 63
     7
 74
     1
 91
        4
 64
     7
 65
   257
 75
     7
175
     7
 42
1.0
 92
        8
 66
     7
 43
1.0
 76
     1
 77
     6
 78
     2
 67
     7
 79
     5
170
     0
171
     0
290
     0
174
     0
 93
        1
 44
0.0
173
     0
291
     1
 45
0.0
1001
ACAD
1000
AcDbSavedByObjectVersion
1070
     0
  0
VISUALSTYLE
  5
4B3
102
{ACAD_REACTORS
330
4A9
102
}
330
4A9
100
AcDbVisualStyle
  2
Realistic
 70
     8
 71
     2
 72
     2
 73
     0
 90
        0
 40
-0.6
 41
-30.0
 62
     5
 63
     7
 74
     1
 91
        0
 64
     7
 65
   257
 75
     1
175
     1
 42
1.0
 92
        8
 66
     8
 43
1.0
 76
     1
 77
     6
 78
     2
 67
     7
 79
     5
170
     0
171
     0
290
     0
174
     0
 93
       13
 44
0.0
173
     0
291
     0
 45
0.0
1001
ACAD
1000
AcDbSavedByObjectVersion
1070
     0
  0
VISUALSTYLE
  5
4B6
102
{ACAD_REACTORS
330
4A9
102
}
330
4A9
100
AcDbVisualStyle
  2
Thicken
 70
    13
 71
     2
 72
     2
 73
     0
 90
        0
 40
-0.6
 41
-30.0
 62
     5
 63
     7
 74
     1
 91
        4
 64
     7
 65
   257
 75
     1
175
     1
 42
1.0
 92
       12
 66
     7
 43
1.0
 76
     1
 77
     6
 78
     2
 67
     7
 79
     5
170
     0
171
     0
290
     0
174
     0
 93
        1
 44
0.0
173
     0
291
     1
 45
0.0
1001
ACAD
1000
AcDbSavedByObjectVersion
1070
     0
  0
DICTIONARYVAR
  5
597
102
{ACAD_REACTORS
330
594
102
}
330
594
100
DictionaryVariables
280
     0
  1
1:1
  0
DICTIONARYVAR
  5
596
102
{ACAD_REACTORS
330
594
102
}
330
594
100
DictionaryVariables
280
     0
  1
STANDARD
  0
DICTIONARYVAR
  5
595
102
{ACAD_REACTORS
330
594
102
}
330
594
100
DictionaryVariables
280
     0
  1
STANDARD
  0
DICTIONARYVAR
  5
59A
102
{ACAD_REACTORS
330
594
102
}
330
594
100
DictionaryVariables
280
     0
  1
1
  0
DICTIONARYVAR
  5
599
102
{ACAD_REACTORS
330
594
102
}
330
594
100
DictionaryVariables
280
     0
  1
0
  0
DICTIONARYVAR
  5
598
102
{ACAD_REACTORS
330
594
102
}
330
594
100
DictionaryVariables
280
     0
  1
127
  0
DICTIONARY
  5
54F
102
{ACAD_REACTORS
330
544
102
}
330
544
100
AcDbDictionary
281
     1
  0
DICTIONARY
  5
5A5
330
4E5
100
AcDbDictionary
280
     1
281
     1
  3
ACAD_XREC_ROUNDTRIP
360
5A6
  0
DICTIONARY
  5
5A3
330
4E4
100
AcDbDictionary
280
     1
281
     1
  3
ACAD_XREC_ROUNDTRIP
360
5A4
  0
DICTIONARY
  5
49A
330
499
100
AcDbDictionary
280
     1
281
     1
  3
ACAD_XREC_ROUNDTRIP
360
5A0
  3
BUMPTILE
360
49C
  3
DIFFUSETILE
360
49B
  3
OPACITYTILE
360
49F
  3
REFLECTIONTILE
360
49E
  3
REFRACTIONTILE
360
4A0
  3
SPECULARTILE
360
49D
  0
DICTIONARY
  5
492
330
491
100
AcDbDictionary
280
     1
281
     1
  3
ACAD_XREC_ROUNDTRIP
360
59F
  3
BUMPTILE
360
494
  3
DIFFUSETILE
360
493
  3
OPACITYTILE
360
497
  3
REFLECTIONTILE
360
496
  3
REFRACTIONTILE
360
498
  3
SPECULARTILE
360
495
  0
DICTIONARY
  5
4A2
330
4A1
100
AcDbDictionary
280
     1
281
     1
  3
ACAD_XREC_ROUNDTRIP
360
5A1
  3
BUMPTILE
360
4A4
  3
DIFFUSETILE
360
4A3
  3
OPACITYTILE
360
4A7
  3
REFLECTIONTILE
360
4A6
  3
REFRACTIONTILE
360
4A8
  3
SPECULARTILE
360
4A5
  0
DICTIONARY
  5
59B
330
4BC
100
AcDbDictionary
280
     1
281
     1
  3
ACAD_ROUNDTRIP_2008_TABLESTYLE_CELLSTYLEMAP
360
59C
  3
ACAD_XREC_ROUNDTRIP
360
5A2
  0
XRECORD
  5
5A6
102
{ACAD_REACTORS
330
5A5
102
}
330
5A5
100
AcDbXrecord
280
     1
102
SHADEPLOT
 70
     0
102
SHADEPLOTRESLEVEL
 70
     2
102
SHADEPLOTCUSTOMDPI
 70
   300
  0
XRECORD
  5
5A4
102
{ACAD_REACTORS
330
5A3
102
}
330
5A3
100
AcDbXrecord
280
     1
102
SHADEPLOT
 70
     0
102
SHADEPLOTRESLEVEL
 70
     2
102
SHADEPLOTCUSTOMDPI
 70
   300
  0
XRECORD
  5
5A0
102
{ACAD_REACTORS
330
49A
102
}
330
49A
100
AcDbXrecord
280
     1
102
MATERIAL
148
0.0
149
0.0
149
0.0
 93
        0
 94
      127
282
     0
 72
     0
 77
     0
171
     0
175
     0
179
     0
273
     0
  0
XRECORD
  5
49C
102
{ACAD_REACTORS
330
49A
102
}
330
49A
100
AcDbXrecord
280
     1
270
     1
271
     1
  0
XRECORD
  5
49B
102
{ACAD_REACTORS
330
49A
102
}
330
49A
100
AcDbXrecord
280
     1
270
     1
271
     1
  0
XRECORD
  5
49F
102
{ACAD_REACTORS
330
49A
102
}
330
49A
100
AcDbXrecord
280
     1
270
     1
271
     1
  0
XRECORD
  5
49E
102
{ACAD_REACTORS
330
49A
102
}
330
49A
100
AcDbXrecord
280
     1
270
     1
271
     1
  0
XRECORD
  5
4A0
102
{ACAD_REACTORS
330
49A
102
}
330
49A
100
AcDbXrecord
280
     1
270
     1
271
     1
  0
XRECORD
  5
49D
102
{ACAD_REACTORS
330
49A
102
}
330
49A
100
AcDbXrecord
280
     1
270
     1
271
     1
  0
XRECORD
  5
59F
102
{ACAD_REACTORS
330
492
102
}
330
492
100
AcDbXrecord
280
     1
102
MATERIAL
148
0.0
149
0.0
149
0.0
 93
        0
 94
      127
282
     0
 72
     0
 77
     0
171
     0
175
     0
179
     0
273
     0
  0
XRECORD
  5
494
102
{ACAD_REACTORS
330
492
102
}
330
492
100
AcDbXrecord
280
     1
270
     1
271
     1
  0
XRECORD
  5
493
102
{ACAD_REACTORS
330
492
102
}
330
492
100
AcDbXrecord
280
     1
270
     1
271
     1
  0
XRECORD
  5
497
102
{ACAD_REACTORS
330
492
102
}
330
492
100
AcDbXrecord
280
     1
270
     1
271
     1
  0
XRECORD
  5
496
102
{ACAD_REACTORS
330
492
102
}
330
492
100
AcDbXrecord
280
     1
270
     1
271
     1
  0
XRECORD
  5
498
102
{ACAD_REACTORS
330
492
102
}
330
492
100
AcDbXrecord
280
     1
270
     1
271
     1
  0
XRECORD
  5
495
102
{ACAD_REACTORS
330
492
102
}
330
492
100
AcDbXrecord
280
     1
270
     1
271
     1
  0
XRECORD
  5
5A1
102
{ACAD_REACTORS
330
4A2
102
}
330
4A2
100
AcDbXrecord
280
     1
102
MATERIAL
148
0.0
149
0.0
149
0.0
 93
        0
 94
      127
282
     0
 72
     0
 77
     0
171
     0
175
     0
179
     0
273
     0
  0
XRECORD
  5
4A4
102
{ACAD_REACTORS
330
4A2
102
}
330
4A2
100
AcDbXrecord
280
     1
270
     1
271
     1
  0
XRECORD
  5
4A3
102
{ACAD_REACTORS
330
4A2
102
}
330
4A2
100
AcDbXrecord
280
     1
270
     1
271
     1
  0
XRECORD
  5
4A7
102
{ACAD_REACTORS
330
4A2
102
}
330
4A2
100
AcDbXrecord
280
     1
270
     1
271
     1
  0
XRECORD
  5
4A6
102
{ACAD_REACTORS
330
4A2
102
}
330
4A2
100
AcDbXrecord
280
     1
270
     1
271
     1
  0
XRECORD
  5
4A8
102
{ACAD_REACTORS
330
4A2
102
}
330
4A2
100
AcDbXrecord
280
     1
270
     1
271
     1
  0
XRECORD
  5
4A5
102
{ACAD_REACTORS
330
4A2
102
}
330
4A2
100
AcDbXrecord
280
     1
270
     1
271
     1
  0
CELLSTYLEMAP
  5
59C
102
{ACAD_REACTORS
330
59B
102
}
330
59B
100
AcDbCellStyleMap
 90
        3
300
CELLSTYLE
  1
TABLEFORMAT_BEGIN
 90
        5
170
     1
 91
        0
 92
    32768
 62
   257
 93
        1
300
CONTENTFORMAT
  1
CONTENTFORMAT_BEGIN
 90
        0
 91
        0
 92
      512
 93
        0
300

 40
0.0
140
1.0
 94
        5
 62
     0
340
10
144
0.25
309
CONTENTFORMAT_END
171
     0
 94
        0
309
TABLEFORMAT_END
  1
CELLSTYLE_BEGIN
 90
        1
 91
        1
300
_TITLE
309
CELLSTYLE_END
300
CELLSTYLE
  1
TABLEFORMAT_BEGIN
 90
        5
170
     1
 91
        0
 92
        0
 62
   257
 93
        1
300
CONTENTFORMAT
  1
CONTENTFORMAT_BEGIN
 90
        0
 91
        0
 92
      512
 93
        0
300

 40
0.0
140
1.0
 94
        5
 62
     0
340
10
144
0.18
309
CONTENTFORMAT_END
171
     0
 94
        0
309
TABLEFORMAT_END
  1
CELLSTYLE_BEGIN
 90
        2
 91
        1
300
_HEADER
309
CELLSTYLE_END
300
CELLSTYLE
  1
TABLEFORMAT_BEGIN
 90
        5
170
     1
 91
        0
 92
        0
 62
   257
 93
        1
300
CONTENTFORMAT
  1
CONTENTFORMAT_BEGIN
 90
        0
 91
        0
 92
      512
 93
        0
300

 40
0.0
140
1.0
 94
        2
 62
     0
340
10
144
0.18
309
CONTENTFORMAT_END
171
     0
 94
        0
309
TABLEFORMAT_END
  1
CELLSTYLE_BEGIN
 90
        3
 91
        2
300
_DATA
309
CELLSTYLE_END
  0
XRECORD
  5
5A2
102
{ACAD_REACTORS
330
59B
102
}
330
59B
100
AcDbXrecord
280
     1
102
ACAD_ROUNDTRIP_PRE2007_TABLESTYLE
 90
      512
 91
        0
  1

 92
      512
 93
        0
  2

 94
      512
 95
        0
  3

  0
ENDSEC
  0
EOF
