  0
SECTION
  2
HEADER
  9
$ACADVER
  1
AC1009
  9
$INSBASE
 10
0.0
 20
0.0
 30
0.0
  9
$EXTMIN
 10
-298.03016722581151
 20
-121.0301672258129
 30
0.0
  9
$EXTMAX
 10
35.0
 20
59.69904757742475
 30
0.0
  9
$LIMMIN
 10
0.0
 20
0.0
  9
$LIMMAX
 10
410.0
 20
287.0
  9
$ORTHOMODE
 70
     0
  9
$REGENMODE
 70
     1
  9
$FILLMODE
 70
     1
  9
$QTEXTMODE
 70
     0
  9
$MIRRTEXT
 70
     1
  9
$DRAGMODE
 70
     2
  9
$LTSCALE
 40
1.0
  9
$OSMODE
 70
   549
  9
$ATTMODE
 70
     1
  9
$TEXTSIZE
 40
3.5
  9
$TRACEWID
 40
0.05
  9
$TEXTSTYLE
  7
STANDARD
  9
$CLAYER
  8
0
  9
$CELTYPE
  6
BYLAYER
  9
$CECOLOR
 62
   256
  9
$DIMSCALE
 40
1.0
  9
$DIMASZ
 40
2.5
  9
$DIMEXO
 40
1.0
  9
$DIMDLI
 40
7.0
  9
$DIMRND
 40
0.0
  9
$DIMDLE
 40
0.0
  9
$DIMEXE
 40
1.0
  9
$DIMTP
 40
0.1
  9
$DIMTM
 40
0.1
  9
$DIMTXT
 40
3.5
  9
$DIMCEN
 40
0.0
  9
$DIMTSZ
 40
0.0
  9
$DIMTOL
 70
     0
  9
$DIMLIM
 70
     0
  9
$DIMTIH
 70
     0
  9
$DIMTOH
 70
     0
  9
$DIMSE1
 70
     0
  9
$DIMSE2
 70
     0
  9
$DIMTAD
 70
     1
  9
$DIMZIN
 70
     0
  9
$DIMBLK
  1

  9
$DIMASO
 70
     1
  9
$DIMSHO
 70
     1
  9
$DIMPOST
  1
<>
  9
$DIMAPOST
  1

  9
$DIMALT
 70
     0
  9
$DIMALTD
 70
     2
  9
$DIMALTF
 40
0.0393701
  9
$DIMLFAC
 40
1.0
  9
$DIMTOFL
 70
     1
  9
$DIMTVP
 40
0.0
  9
$DIMTIX
 70
     0
  9
$DIMSOXD
 70
     0
  9
$DIMSAH
 70
     0
  9
$DIMBLK1
  1

  9
$DIMBLK2
  1

  9
$DIMSTYLE
  2
GEN-ISO
  9
$DIMCLRD
 70
   256
  9
$DIMCLRE
 70
   256
  9
$DIMCLRT
 70
     2
  9
$DIMTFAC
 40
0.71
  9
$DIMGAP
 40
0.6
  9
$LUNITS
 70
     2
  9
$LUPREC
 70
     2
  9
$SKETCHINC
 40
0.1
  9
$FILLETRAD
 40
12.5
  9
$AUNITS
 70
     0
  9
$AUPREC
 70
     0
  9
$MENU
  1
acad
  9
$ELEVATION
 40
0.0
  9
$PELEVATION
 40
0.0
  9
$THICKNESS
 40
0.0
  9
$LIMCHECK
 70
     0
  9
$BLIPMODE
 70
     0
  9
$CHAMFERA
 40
12.5
  9
$CHAMFERB
 40
12.5
  9
$SKPOLY
 70
     0
  9
$TDCREATE
 40
2450823.6015945598
  9
$TDUPDATE
 40
2455100.658688691
  9
$TDINDWG
 40
0.0093549306
  9
$TDUSRTIMER
 40
0.0093549306
  9
$USRTIMER
 70
     1
  9
$ANGBASE
 50
0.0
  9
$ANGDIR
 70
     0
  9
$PDMODE
 70
     0
  9
$PDSIZE
 40
16.203005588691362
  9
$PLINEWID
 40
0.0
  9
$COORDS
 70
     0
  9
$SPLFRAME
 70
     0
  9
$SPLINETYPE
 70
     6
  9
$SPLINESEGS
 70
     8
  9
$ATTDIA
 70
     1
  9
$ATTREQ
 70
     1
  9
$HANDLING
 70
-16383
  9
$HANDSEED
  5
173E
  9
$SURFTAB1
 70
     6
  9
$SURFTAB2
 70
     6
  9
$SURFTYPE
 70
     6
  9
$SURFU
 70
     6
  9
$SURFV
 70
     6
  9
$UCSNAME
  2

  9
$UCSORG
 10
0.0
 20
0.0
 30
0.0
  9
$UCSXDIR
 10
1.0
 20
0.0
 30
0.0
  9
$UCSYDIR
 10
0.0
 20
1.0
 30
0.0
  9
$PUCSNAME
  2

  9
$PUCSORG
 10
0.0
 20
0.0
 30
0.0
  9
$PUCSXDIR
 10
1.0
 20
0.0
 30
0.0
  9
$PUCSYDIR
 10
0.0
 20
1.0
 30
0.0
  9
$USERI1
 70
     0
  9
$USERI2
 70
     0
  9
$USERI3
 70
     0
  9
$USERI4
 70
     0
  9
$USERI5
 70
     0
  9
$USERR1
 40
0.0
  9
$USERR2
 40
0.0
  9
$USERR3
 40
0.0
  9
$USERR4
 40
0.0
  9
$USERR5
 40
0.0
  9
$WORLDVIEW
 70
     1
  9
$SHADEDGE
 70
     3
  9
$SHADEDIF
 70
    70
  9
$TILEMODE
 70
     1
  9
$MAXACTVP
 70
    16
  9
$PLIMCHECK
 70
     0
  9
$PEXTMIN
 10
1.0000000000000000E+020
 20
1.0000000000000000E+020
 30
1.0000000000000000E+020
  9
$PEXTMAX
 10
-1.0000000000000000E+020
 20
-1.0000000000000000E+020
 30
-1.0000000000000000E+020
  9
$PLIMMIN
 10
0.0
 20
0.0
  9
$PLIMMAX
 10
12.0
 20
9.0
  9
$UNITMODE
 70
     0
  9
$VISRETAIN
 70
     0
  9
$PLINEGEN
 70
     0
  9
$PSLTSCALE
 70
     1
  0
ENDSEC
  0
SECTION
  2
TABLES
  0
TABLE
  2
VPORT
 70
     3
  0
VPORT
  2
*ACTIVE
 70
     0
 10
0.0
 20
0.0
 11
1.0
 21
1.0
 12
-89.00981044635958
 22
-19.29807801949222
 13
0.0
 23
0.0
 14
5.0
 24
5.0
 15
50.0
 25
50.0
 16
0.0
 26
0.0
 36
1.0
 17
0.0
 27
0.0
 37
0.0
 40
254.3365678883959
 41
1.8999999999999999
 42
50.0
 43
0.0
 44
0.0
 50
0.0
 51
0.0
 71
     0
 72
   100
 73
     1
 74
     0
 75
     0
 76
     0
 77
     0
 78
     0
  0
ENDTAB
  0
TABLE
  2
LTYPE
 70
    18
  0
LTYPE
  2
CONTINUOUS
 70
     0
  3
Solid line
 72
    65
 73
     0
 40
0.0
  0
LTYPE
  2
GEN7
 70
     0
  3
____ . ____ . ____ . ____ . ____ . ____ . ____
 72
    65
 73
     4
 40
13.75
 49
10.0
 49
-1.25
 49
1.25
 49
-1.25
  0
LTYPE
  2
GEN3
 70
     0
  3
-- -- -- -- -- -- -- -- -- -- -- -- -- -- --
 72
    65
 73
     2
 40
6.25
 49
5.0
 49
-1.25
  0
LTYPE
  2
GEN7A
 70
     0
  3
__ . __ . __
 72
    65
 73
     4
 40
6.875
 49
5.0
 49
-0.625
 49
0.625
 49
-0.625
  0
LTYPE
  2
GEN3A
 70
     0
  3
 - - - - -
 72
    65
 73
     2
 40
3.125
 49
2.5
 49
-0.625
  0
LTYPE
  2
GEN4A
 70
     0
  3
_____ . . _____ . . _____ . . ____ .. ____
 72
    65
 73
     6
 40
16.25
 49
10.0
 49
-1.25
 49
1.25
 49
-1.25
 49
1.25
 49
-1.25
  0
LTYPE
  2
ACISOWELD
 70
     0
  3
_ _ _ _ _
 72
    65
 73
     2
 40
2.0
 49
2.0
 49
-1.0
  0
LTYPE
  2
ACISOTGB
 70
     0
  3
__ . . __ . .
 72
    65
 73
     6
 40
9.0
 49
4.0
 49
-1.0
 49
1.0
 49
-1.0
 49
1.0
 49
-1.0
  0
LTYPE
  2
ACISOTGL
 70
     0
  3
_ _ _ _ _
 72
    65
 73
     2
 40
3.0
 49
2.0
 49
-1.0
  0
LTYPE
  2
AM_ISO02W050
 70
     0
  3
__ __ __ __ __ __ __ __ __ __ __ __ __ __ __
 72
    65
 73
     2
 40
7.5
 49
6.0
 49
-1.5
  0
LTYPE
  2
AM_ISO08W050
 70
     0
  3
____ . ____ . ____ . ____ . ____ . ____ . ____
 72
    65
 73
     4
 40
18.0
 49
12.0
 49
-1.5
 49
3.0
 49
-1.5
  0
LTYPE
  2
AM_ISO09W050
 70
     0
  3
_____ . . _____ . . _____ . . ____ .. ____
 72
    65
 73
     6
 40
22.5
 49
12.0
 49
-1.5
 49
3.0
 49
-1.5
 49
3.0
 49
-1.5
  0
LTYPE
  2
AMCONSTR
 70
     0
  3
_______________________
 72
    65
 73
     2
 40
9999.0
 49
9999.0
 49
0.0
  0
LTYPE
  2
AM_ISO02W050X2
 70
     0
  3
 _ _ _ _ _ _ _ _ _ _ _ _
 72
    65
 73
     2
 40
3.75
 49
3.0
 49
-0.75
  0
LTYPE
  2
AM_ISO08W050X2
 70
     0
  3
__ . __ . __ . __ . __ . __
 72
    65
 73
     4
 40
9.0
 49
6.0
 49
-0.75
 49
1.5
 49
-0.75
  0
LTYPE
  2
AMZIGZAG
 70
     0
  3
/\/-/\/-/\/-/\/-/\/-/\/
 72
    65
 73
     2
 40
11.000099999999991
 49
0.0001
 49
-11.0
  0
LTYPE
  2
CENTER
 70
     0
  3
__ . __
 72
    65
 73
     4
 40
7.0
 49
4.0
 49
-1.0
 49
1.0
 49
-1.0
  0
LTYPE
  2
GENZIGZAG
 70
     0
  3
/\/-/\/-/\/-/\/-/\/-/\/
 72
    65
 73
     2
 40
12.0001
 49
0.0001
 49
-12.0
  0
ENDTAB
  0
TABLE
  2
LAYER
 70
    43
  0
LAYER
  2
0
 70
     0
 62
     7
  6
CONTINUOUS
  0
LAYER
  2
ZYL_32_ISO6431-0
 70
     0
 62
     7
  6
CONTINUOUS
  0
LAYER
  2
ZYL_32_ISO6431-7
 70
     0
 62
     4
  6
GEN7
  0
LAYER
  2
ZYL_32_ISO6431-4
 70
     0
 62
     3
  6
CONTINUOUS
  0
LAYER
  2
ZYL_32_ISO6431-3
 70
     0
 62
     6
  6
GEN3
  0
LAYER
  2
MSL_F12_32-0
 70
     0
 62
     7
  6
CONTINUOUS
  0
LAYER
  2
MSL_F12_32-7
 70
     0
 62
     4
  6
GEN7
  0
LAYER
  2
VCCNULL
 70
     0
 62
    -5
  6
CONTINUOUS
  0
LAYER
  2
MSL_F12_32-3
 70
     0
 62
     6
  6
GEN3
  0
LAYER
  2
MSL_F12_32-4
 70
     0
 62
     3
  6
CONTINUOUS
  0
LAYER
  2
KPKT
 70
     0
 62
   162
  6
CONTINUOUS
  0
LAYER
  2
GEV_FROZEN
 70
     1
 62
     7
  6
CONTINUOUS
  0
LAYER
  2
-BHMU
 70
     0
 62
     7
  6
CONTINUOUS
  0
LAYER
  2
BHMM
 70
     0
 62
     7
  6
CONTINUOUS
  0
LAYER
  2
CENN
 70
     0
 62
     7
  6
CONTINUOUS
  0
LAYER
  2
BHII
 70
     0
 62
     7
  6
CONTINUOUS
  0
LAYER
  2
THLI
 70
     0
 62
     7
  6
CONTINUOUS
  0
LAYER
  2
HIDN
 70
     0
 62
     7
  6
CONTINUOUS
  0
LAYER
  2
CON1
 70
     0
 62
     7
  6
CONTINUOUS
  0
LAYER
  2
-BHHH
 70
     0
 62
     7
  6
CONTINUOUS
  0
LAYER
  2
-BHHU
 70
     0
 62
     7
  6
CONTINUOUS
  0
LAYER
  2
MSL_F12_32-7A
 70
     0
 62
     4
  6
GEN7A
  0
LAYER
  2
MSL_F12_32-0N
 70
     0
 62
     7
  6
CONTINUOUS
  0
LAYER
  2
MSL_F12_32-7AN
 70
     0
 62
     4
  6
GEN7A
  0
LAYER
  2
MSL_F12_32-4N
 70
     0
 62
     3
  6
CONTINUOUS
  0
LAYER
  2
MSL_F12_32-3AN
 70
     0
 62
     6
  6
GEN3A
  0
LAYER
  2
MSL_F12_32-3N
 70
     0
 62
     6
  6
GEN3
  0
LAYER
  2
INFO
 70
     0
 62
     4
  6
CONTINUOUS
  0
LAYER
  2
MSL_F12_32-3A
 70
     0
 62
     6
  6
GEN3A
  0
LAYER
  2
MSF12-0
 70
     0
 62
     7
  6
CONTINUOUS
  0
LAYER
  2
MSF12-8
 70
     0
 62
     1
  6
CONTINUOUS
  0
LAYER
  2
MSF12-4
 70
     0
 62
     3
  6
CONTINUOUS
  0
LAYER
  2
MSF12-6
 70
     0
 62
     2
  6
CONTINUOUS
  0
LAYER
  2
MSF12-7
 70
     0
 62
     4
  6
GEN7
  0
LAYER
  2
MSF12-3
 70
     0
 62
     6
  6
GEN3
  0
LAYER
  2
MSF12-4A
 70
     0
 62
     3
  6
GEN4A
  0
LAYER
  2
MSF12-0N
 70
     0
 62
     7
  6
CONTINUOUS
  0
LAYER
  2
ZYL_32_ISO6431-3A
 70
     0
 62
     6
  6
GEN3A
  0
LAYER
  2
ZYL_32_ISO6431-7A
 70
     0
 62
     4
  6
GEN7A
  0
LAYER
  2
ZYL_32_ISO6431-6
 70
     0
 62
     2
  6
CONTINUOUS
  0
LAYER
  2
ZYL_32_ISO6431-4A
 70
     0
 62
     3
  6
GEN4A
  0
LAYER
  2
DEFPOINTS
 70
     0
 62
     7
  6
CONTINUOUS
  0
LAYER
  2
AM_BOR
 70
     0
 62
     7
  6
CONTINUOUS
  0
ENDTAB
  0
TABLE
  2
STYLE
 70
     5
  0
STYLE
  2
STANDARD
 70
     0
 40
0.0
 41
1.0
 50
0.0
 71
     0
 42
3.5
  3
ISOCP.SHX
  4

  0
STYLE
  2
ACISOTS
 70
     0
 40
1.0
 41
1.0
 50
0.0
 71
     0
 42
2.5
  3
isocp.shx
  4

  0
STYLE
  2
ACISOGDT
 70
     0
 40
0.0
 41
1.0
 50
0.0
 71
     0
 42
2.5
  3
amgdt.shx
  4

  0
STYLE
  2

 70
     1
 40
0.0
 41
1.0
 50
0.0
 71
     0
 42
2.5
  3
ltypeshp.shx
  4

  0
STYLE
  2

 70
     1
 40
0.0
 41
1.0
 50
0.0
 71
     0
 42
3.5
  3
genltshp.shx
  4

  0
ENDTAB
  0
TABLE
  2
VIEW
 70
     0
  0
ENDTAB
  0
TABLE
  2
UCS
 70
     0
  0
ENDTAB
  0
TABLE
  2
APPID
 70
    94
  0
APPID
  2
ACAD
 70
     0
  0
APPID
  2
GENIUS_GENCFG_13
 70
     0
  0
APPID
  2
GENIUS_GENCFG0_13
 70
     0
  0
APPID
  2
GENIUS_GENCFG1_13
 70
     0
  0
APPID
  2
GENIUS_GENCFG2_13
 70
     0
  0
APPID
  2
GENIUS_GENCFG3_13
 70
     0
  0
APPID
  2
GENIUS_GENCFG4_13
 70
     0
  0
APPID
  2
GENIUS_GEVCFG0_13
 70
     0
  0
APPID
  2
GENIUS_GEFCFG0_13
 70
     0
  0
APPID
  2
GENIUS_GENOENT_13
 70
     0
  0
APPID
  2
GENIUS_GENODEF_13
 70
     0
  0
APPID
  2
GENIUS_GENOBJ-N-CEN_13
 70
     0
  0
APPID
  2
GENIUS_GENFIL_13
 70
     0
  0
APPID
  2
GENIUS_GENOBJ-N-CHA_13
 70
     0
  0
APPID
  2
GENIUS_GENBH_13
 70
     0
  0
APPID
  2
GENIUS_GENOBJ_13
 70
     0
  0
APPID
  2
GENIUS_GENOLIS_13
 70
     0
  0
APPID
  2
GENIUS_GENOREF_13
 70
     0
  0
APPID
  2
GENIUS_GENOBJ-NBEHI-BHF_13
 70
     0
  0
APPID
  2
GENIUS_GENOBJ-NBEHI-BHB_13
 70
     0
  0
APPID
  2
GEVID884180406
 70
     0
  0
APPID
  2
GEVCON
 70
     0
  0
APPID
  2
VCC
 70
     0
  0
APPID
  2
GEVPT
 70
     0
  0
APPID
  2
GEVIT
 70
     0
  0
APPID
  2
GENBH
 70
     0
  0
APPID
  2
GEVMK
 70
     0
  0
APPID
  2
GENIUS_GENOBJ-F-PART_13
 70
     0
  0
APPID
  2
GENIUS_GEFSTDP_13
 70
     0
  0
APPID
  2
GENIUS_GEFPARTINS_13
 70
     0
  0
APPID
  2
GENIUS_GENINF13_13
 70
     0
  0
APPID
  2
GENIUS_GENOBJ-N-INFOPT_13
 70
     0
  0
APPID
  2
GENIUS_GENOBJ-N-RSSYM_13
 70
     0
  0
APPID
  2
GENIUS_GENSYMENT_13
 70
     0
  0
APPID
  2
GENIUS_GENSCSYM_13
 70
     0
  0
APPID
  2
GEVID884184196
 70
     0
  0
APPID
  2
GEVID884184197
 70
     0
  0
APPID
  2
GEVID884184198
 70
     0
  0
APPID
  2
GEVID884184199
 70
     0
  0
APPID
  2
GEVID884184200
 70
     0
  0
APPID
  2
GEVID884184201
 70
     0
  0
APPID
  2
GEVID884184202
 70
     0
  0
APPID
  2
GEVID884184203
 70
     0
  0
APPID
  2
GEVID884184204
 70
     0
  0
APPID
  2
GENIUS_GENOBJ-N-REC_13
 70
     0
  0
APPID
  2
GEVID884185978
 70
     0
  0
APPID
  2
GEVID884185979
 70
     0
  0
APPID
  2
GEVID884185980
 70
     0
  0
APPID
  2
GEVID884185981
 70
     0
  0
APPID
  2
GEVID884352441
 70
     0
  0
APPID
  2
GEVID884352442
 70
     0
  0
APPID
  2
GEVID884352443
 70
     0
  0
APPID
  2
GEVID884352444
 70
     0
  0
APPID
  2
GEVID884352445
 70
     0
  0
APPID
  2
GEVID884352446
 70
     0
  0
APPID
  2
GEVID884352447
 70
     0
  0
APPID
  2
GEVID884352448
 70
     0
  0
APPID
  2
GEVID884352449
 70
     0
  0
APPID
  2
GEVID884352450
 70
     0
  0
APPID
  2
GEVID884352451
 70
     0
  0
APPID
  2
GEVID884352452
 70
     0
  0
APPID
  2
GEVID884352453
 70
     0
  0
APPID
  2
GEVID884352454
 70
     0
  0
APPID
  2
GENIUS_GENOBJ-N-RSBK_13
 70
     0
  0
APPID
  2
GENIUS_GENOBJ-N-LIB_13
 70
     0
  0
APPID
  2
GENIUS_GENSCALE_13
 70
     0
  0
APPID
  2
GEVID884352783
 70
     0
  0
APPID
  2
GEVID884352784
 70
     0
  0
APPID
  2
GEVID884352785
 70
     0
  0
APPID
  2
GEVID884352786
 70
     0
  0
APPID
  2
GEVID884352787
 70
     0
  0
APPID
  2
GEVID884352788
 70
     0
  0
APPID
  2
GEVID884352789
 70
     0
  0
APPID
  2
GEVID884352790
 70
     0
  0
APPID
  2
GEVID884352791
 70
     0
  0
APPID
  2
GEVID884352792
 70
     0
  0
APPID
  2
GEVID884352793
 70
     0
  0
APPID
  2
GEVID884352794
 70
     0
  0
APPID
  2
GEVID884352795
 70
     0
  0
APPID
  2
GEVID884352796
 70
     0
  0
APPID
  2
MCAD_NO_VIS
 70
     0
  0
APPID
  2
ACAD_TEMP_GRAPHIC
 70
     0
  0
APPID
  2
ACATTRIBSERVICES
 70
     0
  0
APPID
  2
GENIUS_GENOBJ-N-TIT_13
 70
     0
  0
APPID
  2
GENIUS_GENTITLE_13
 70
     0
  0
APPID
  2
GENIUS_GENZVEED_13
 70
     0
  0
APPID
  2
GENIUS_GENSCREG_15
 70
     0
  0
APPID
  2
GENIUS_GENOBJ-N-SDF_13
 70
     0
  0
APPID
  2
GENIUS_GENREC_14
 70
     0
  0
APPID
  2
GENIUS_GENBLLY_14
 70
     0
  0
APPID
  2
GENIUS_GENDTOL_13
 70
     0
  0
APPID
  2
GENIUS_GENDIMSH_14
 70
     0
  0
APPID
  2
DCO15
 70
     0
  0
APPID
  2
CONTENTBLOCKICON
 70
     0
  0
ENDTAB
  0
TABLE
  2
DIMSTYLE
 70
    15
  0
DIMSTYLE
  2
STANDARD
 70
     0
  3

  4

  5

  6

  7

 40
1.0
 41
0.18
 42
0.0625
 43
0.38
 44
0.18
 45
0.0
 46
0.0
 47
0.0
 48
0.0
140
0.18
141
0.09
142
0.0
143
25.399999999999999
144
1.0
145
0.0
146
1.0
147
0.09
 71
     0
 72
     0
 73
     1
 74
     1
 75
     0
 76
     0
 77
     0
 78
     0
170
     0
171
     2
172
     0
173
     0
174
     0
175
     0
176
     0
177
     0
178
     0
  0
DIMSTYLE
  2
GEN-ISO
 70
     0
  3
<>
  4

  5

  6

  7

 40
1.0
 41
2.5
 42
1.0
 43
7.0
 44
1.0
 45
0.0
 46
0.0
 47
0.1
 48
0.1
140
3.5
141
0.0
142
0.0
143
0.0393701
144
1.0
145
0.0
146
0.71
147
0.6
 71
     0
 72
     0
 73
     0
 74
     0
 75
     0
 76
     0
 77
     1
 78
     8
170
     0
171
     2
172
     1
173
     0
174
     0
175
     0
176
   256
177
   256
178
     2
  0
DIMSTYLE
  2
AM_ISO
 70
     0
  3

  4
"
  5

  6

  7

 40
1.0
 41
2.5
 42
1.0
 43
10.0
 44
1.0
 45
0.0
 46
0.0
 47
0.1
 48
0.1
140
3.5
141
0.0
142
0.0
143
0.0393701
144
1.0
145
0.0
146
0.71
147
1.5
 71
     0
 72
     0
 73
     0
 74
     0
 75
     0
 76
     0
 77
     1
 78
     8
170
     0
171
     2
172
     1
173
     0
174
     0
175
     0
176
   256
177
   256
178
     2
  0
DIMSTYLE
  2
AM_ISO$3
 70
     0
  3

  4
"
  5

  6

  7

 40
1.0
 41
2.5
 42
1.0
 43
10.0
 44
1.0
 45
0.0
 46
0.0
 47
0.1
 48
0.1
140
3.5
141
0.0
142
0.0
143
0.0393701
144
1.0
145
0.0
146
0.71
147
1.5
 71
     0
 72
     0
 73
     0
 74
     1
 75
     0
 76
     0
 77
     1
 78
     8
170
     0
171
     2
172
     0
173
     0
174
     0
175
     0
176
   256
177
   256
178
     2
  0
DIMSTYLE
  2
AM_ISO$4
 70
     0
  3

  4
"
  5

  6

  7

 40
1.0
 41
2.5
 42
1.0
 43
10.0
 44
1.0
 45
0.0
 46
0.0
 47
0.1
 48
0.1
140
3.5
141
0.0
142
0.0
143
0.0393701
144
1.0
145
0.0
146
0.71
147
1.5
 71
     0
 72
     0
 73
     0
 74
     1
 75
     0
 76
     0
 77
     1
 78
     8
170
     0
171
     2
172
     0
173
     0
174
     0
175
     0
176
   256
177
   256
178
     2
  0
DIMSTYLE
  2
AM_ISO$6
 70
     0
  3

  4
"
  5

  6

  7

 40
1.0
 41
2.5
 42
1.0
 43
10.0
 44
1.0
 45
0.0
 46
0.0
 47
0.1
 48
0.1
140
3.5
141
0.0
142
0.0
143
0.0393701
144
1.0
145
0.0
146
0.71
147
1.5
 71
     0
 72
     0
 73
     0
 74
     0
 75
     0
 76
     0
 77
     0
 78
     8
170
     0
171
     2
172
     1
173
     0
174
     0
175
     0
176
   256
177
   256
178
     2
  0
DIMSTYLE
  2
AM_ISO$7
 70
     0
  3

  4
"
  5

  6

  7

 40
1.0
 41
2.5
 42
1.0
 43
10.0
 44
1.0
 45
0.0
 46
0.0
 47
0.1
 48
0.1
140
5.0
141
0.0
142
0.0
143
0.0393701
144
1.0
145
0.0
146
0.71
147
1.5
 71
     0
 72
     0
 73
     0
 74
     0
 75
     0
 76
     0
 77
     1
 78
     8
170
     0
171
     2
172
     1
173
     0
174
     0
175
     0
176
   256
177
   256
178
     2
  0
DIMSTYLE
  2
AM_ISO$SF
 70
     0
  3

  4
"
  5

  6

  7

 40
1.0
 41
2.5
 42
1.0
 43
10.0
 44
1.0
 45
0.0
 46
0.0
 47
0.1
 48
0.1
140
3.5
141
0.0
142
0.0
143
0.0393701
144
1.0
145
0.0
146
0.71
147
1.5
 71
     0
 72
     0
 73
     0
 74
     0
 75
     1
 76
     1
 77
     1
 78
     8
170
     0
171
     2
172
     1
173
     0
174
     0
175
     0
176
   256
177
   256
178
     2
  0
DIMSTYLE
  2
AM_ISO$SH
 70
     0
  3

  4
"
  5

  6
GENAXEH
  7

 40
1.0
 41
2.5
 42
1.0
 43
10.0
 44
1.0
 45
0.0
 46
0.0
 47
0.1
 48
0.1
140
3.5
141
0.0
142
0.0
143
0.0393701
144
2.0
145
0.0
146
0.71
147
1.5
 71
     0
 72
     0
 73
     0
 74
     0
 75
     1
 76
     1
 77
     1
 78
     8
170
     0
171
     2
172
     1
173
     1
174
     0
175
     0
176
   256
177
   256
178
     2
  0
DIMSTYLE
  2
GEN-ISO$3
 70
     0
  3
<>
  4

  5

  6

  7

 40
1.0
 41
2.5
 42
1.0
 43
7.0
 44
1.0
 45
0.0
 46
0.0
 47
0.1
 48
0.1
140
3.5
141
0.0
142
0.0
143
0.0393701
144
1.0
145
0.0
146
0.71
147
0.6
 71
     0
 72
     0
 73
     0
 74
     1
 75
     0
 76
     0
 77
     1
 78
     8
170
     0
171
     2
172
     0
173
     0
174
     0
175
     0
176
     0
177
     0
178
     0
  0
DIMSTYLE
  2
GEN-ISO$4
 70
     0
  3
<>
  4

  5

  6

  7

 40
1.0
 41
2.5
 42
1.0
 43
7.0
 44
1.0
 45
0.0
 46
0.0
 47
0.1
 48
0.1
140
3.5
141
0.0
142
0.0
143
0.0393701
144
1.0
145
0.0
146
0.71
147
0.6
 71
     0
 72
     0
 73
     0
 74
     1
 75
     0
 76
     0
 77
     1
 78
     8
170
     0
171
     2
172
     0
173
     0
174
     0
175
     0
176
     0
177
     0
178
     0
  0
DIMSTYLE
  2
GEN-ISO$6
 70
     0
  3
<>
  4

  5

  6

  7

 40
1.0
 41
2.5
 42
1.0
 43
7.0
 44
1.0
 45
0.0
 46
0.0
 47
0.1
 48
0.1
140
3.5
141
0.0
142
0.0
143
0.0393701
144
1.0
145
0.0
146
0.71
147
0.6
 71
     0
 72
     0
 73
     0
 74
     0
 75
     0
 76
     0
 77
     0
 78
     8
170
     0
171
     2
172
     0
173
     0
174
     0
175
     0
176
     0
177
     0
178
     0
  0
DIMSTYLE
  2
GEN-ISO-POS
 70
     0
  3
<>
  4

  5

  6

  7

 40
1.0
 41
2.5
 42
1.0
 43
7.0
 44
1.0
 45
0.0
 46
0.0
 47
0.1
 48
0.1
140
5.0
141
0.0
142
0.0
143
0.0393701
144
1.0
145
0.0
146
0.71
147
1.5
 71
     0
 72
     0
 73
     0
 74
     0
 75
     0
 76
     0
 77
     0
 78
     8
170
     0
171
     2
172
     0
173
     0
174
     0
175
     0
176
     0
177
     0
178
     0
  0
DIMSTYLE
  2
GEN-ISO-AXE-F
 70
     0
  3
<>
  4

  5

  6

  7

 40
1.0
 41
2.5
 42
1.0
 43
7.0
 44
1.0
 45
0.0
 46
0.0
 47
0.1
 48
0.1
140
3.5
141
0.0
142
0.0
143
0.0393701
144
1.0
145
0.0
146
0.71
147
0.6
 71
     0
 72
     0
 73
     0
 74
     0
 75
     1
 76
     1
 77
     1
 78
     8
170
     0
171
     2
172
     1
173
     0
174
     0
175
     0
176
     0
177
     0
178
     0
  0
DIMSTYLE
  2
GEN-ISO-AXE-H
 70
     0
  3
<>
  4

  5

  6
GENAXEH
  7

 40
1.0
 41
2.5
 42
1.0
 43
7.0
 44
1.0
 45
0.0
 46
0.0
 47
0.1
 48
0.1
140
3.5
141
0.0
142
0.0
143
0.0393701
144
2.0
145
0.0
146
0.71
147
0.6
 71
     0
 72
     0
 73
     0
 74
     0
 75
     1
 76
     1
 77
     1
 78
     8
170
     0
171
     2
172
     1
173
     1
174
     0
175
     0
176
     0
177
     0
178
     0
  0
ENDTAB
  0
ENDSEC
  0
SECTION
  2
BLOCKS
  0
BLOCK
  8
0
  2
$MODEL_SPACE
 70
     0
 10
0.0
 20
0.0
 30
0.0
  3
$MODEL_SPACE
  1

  0
ENDBLK
  5
1C
  8
0
  0
BLOCK
 67
     1
  8
0
  2
$PAPER_SPACE
 70
     0
 10
0.0
 20
0.0
 30
0.0
  3
$PAPER_SPACE
  1

  0
ENDBLK
  5
19
 67
     1
  8
0
  0
BLOCK
  8
0
  2
VCCIKPKT
 70
     0
 10
0.0
 20
0.0
 30
0.0
  3
VCCIKPKT
  1

  0
LINE
  5
41
  8
KPKT
 62
     4
 10
1.0
 20
1.0
 30
0.0
 11
-1.0
 21
1.0
 31
0.0
  0
LINE
  5
42
  8
KPKT
 62
     4
 10
-1.0
 20
-1.0
 30
0.0
 11
1.0
 21
1.0
 31
0.0
  0
LINE
  5
43
  8
KPKT
 62
     4
 10
-1.0
 20
-1.0
 30
0.0
 11
1.0
 21
-1.0
 31
0.0
  0
LINE
  5
44
  8
KPKT
 62
     4
 10
-1.0
 20
1.0
 30
0.0
 11
1.0
 21
-1.0
 31
0.0
  0
CIRCLE
  5
45
  8
KPKT
 62
     4
 10
0.0
 20
0.0
 30
0.0
 40
1.4142135623730949
  0
LINE
  5
46
  8
KPKT
 62
     4
 10
-1.0
 20
1.0
 30
0.0
 11
-1.0
 21
-1.0
 31
0.0
  0
LINE
  5
47
  8
KPKT
 62
     4
 10
1.0
 20
-1.0
 30
0.0
 11
1.0
 21
1.0
 31
0.0
  0
ENDBLK
  5
49
  8
0
  0
BLOCK
  8
0
  2
VCCISYMB
 70
     0
 10
0.0
 20
0.0
 30
0.0
  3
VCCISYMB
  1

  0
LINE
  5
4B
  8
VCCNULL
 10
4.0
 20
0.0
 30
0.0
 11
3.1999999999998181
 21
-0.1999999999998181
 31
0.0
  0
LINE
  5
4C
  8
VCCNULL
 10
4.0
 20
0.0
 30
0.0
 11
3.1999999999998181
 21
0.1999999999998181
 31
0.0
  0
LINE
  5
4D
  8
VCCNULL
 10
0.0
 20
2.0
 30
0.0
 11
0.1999999999998181
 21
1.1999999999998181
 31
0.0
  0
LINE
  5
4E
  8
VCCNULL
 10
0.0
 20
2.0
 30
0.0
 11
-0.1999999999998181
 21
1.1999999999998181
 31
0.0
  0
LINE
  5
4F
  8
VCCNULL
 10
0.0
 20
2.0
 30
0.0
 11
0.0
 21
0.0
 31
0.0
  0
LINE
  5
50
  8
VCCNULL
 10
0.0
 20
0.0
 30
0.0
 11
4.0
 21
0.0
 31
0.0
  0
ENDBLK
  5
52
  8
0
  0
BLOCK
  8
0
  2
GENINF13
 70
     2
 10
0.0
 20
0.0
 30
0.0
  3
GENINF13
  1
GENINF13
  0
CIRCLE
  5
54
  8
INFO
 10
-0.1079460011883957
 20
1.312243585777231
 30
0.0
 40
0.3390668951753026
  0
CIRCLE
  5
55
  8
INFO
 10
0.0
 20
0.0
 30
0.0
 40
1.9201944099631441
  0
LINE
  5
56
  8
INFO
 10
0.4113437479737743
 20
0.7068303850037037
 30
0.0
 11
-0.7000060094186789
 21
0.7068303850037035
 31
0.0
  0
LINE
  5
57
  8
INFO
 10
0.8299040409314978
 20
-1.3415352054823859
 30
0.0
 11
0.8299040409314978
 21
-0.5553667224477729
 31
0.0
  0
LINE
  5
58
  8
INFO
 10
0.8299040409314978
 20
-0.5553667224477729
 30
0.0
 11
0.4113437479737743
 21
-0.5553667224477729
 31
0.0
  0
LINE
  5
59
  8
INFO
 10
0.4113437479737743
 20
-0.5553667224477729
 30
0.0
 11
0.4113437479737743
 21
0.7068303850037037
 31
0.0
  0
LINE
  5
5A
  8
INFO
 10
-0.7000060094186789
 20
0.7068303850037035
 30
0.0
 11
-0.7000060094186789
 21
0.1226134319150372
 31
0.0
  0
LINE
  5
5B
  8
INFO
 10
-0.7000060094186789
 20
0.1226134319150372
 30
0.0
 11
-0.3752609491200999
 21
0.1226134319150372
 31
0.0
  0
LINE
  5
5C
  8
INFO
 10
-0.3752609491200999
 20
0.1226134319150372
 30
0.0
 11
-0.3752609491200999
 21
-0.5553667224477729
 31
0.0
  0
LINE
  5
5D
  8
INFO
 10
-0.3752609491200999
 20
-0.5553667224477729
 30
0.0
 11
-0.8010378055452676
 21
-0.5553667224477729
 31
0.0
  0
LINE
  5
5E
  8
INFO
 10
-0.8010378055452676
 20
-0.5553667224477729
 30
0.0
 11
-0.8010378055452676
 21
-1.3415352054823859
 31
0.0
  0
LINE
  5
5F
  8
INFO
 10
-0.8010378055452676
 20
-1.3415352054823859
 30
0.0
 11
0.8299040409314978
 21
-1.3415352054823859
 31
0.0
  0
ATTDEF
  5
60
  8
INFO
 10
0.0
 20
0.0
 30
0.0
 40
1.0
  1
1
  3
Menge
  2
2GENINF
 70
     1
  0
ATTDEF
  5
61
  8
INFO
 10
0.0
 20
-1.5
 30
0.0
 40
1.0
  1

  3
Stücklisten-Name
  2
3GENINF
 70
     1
  0
ATTDEF
  5
62
  8
INFO
 10
0.0
 20
-3.0
 30
0.0
 40
1.0
  1

  3
Stücklisten-Pfad
  2
4GENINF
 70
     1
  0
ATTDEF
  5
63
  8
INFO
 10
0.0
 20
-4.5
 30
0.0
 40
1.0
  1

  3
Beschreibung 1
  2
5GENINF
 70
     1
  0
ATTDEF
  5
64
  8
INFO
 10
0.0
 20
-6.0
 30
0.0
 40
1.0
  1

  3
Beschreibung 2
  2
6GENINF
 70
     1
  0
ATTDEF
  5
65
  8
INFO
 10
0.0
 20
-7.5
 30
0.0
 40
1.0
  1

  3
Norm/Lieferant 1
  2
7GENINF
 70
     1
  0
ATTDEF
  5
66
  8
INFO
 10
0.0
 20
-9.0
 30
0.0
 40
1.0
  1

  3
Norm/Lieferant 2
  2
8GENINF
 70
     1
  0
ATTDEF
  5
67
  8
INFO
 10
0.0
 20
-10.5
 30
0.0
 40
1.0
  1

  3
Material 1
  2
9GENINF
 70
     1
  0
ATTDEF
  5
68
  8
INFO
 10
0.0
 20
-12.0
 30
0.0
 40
1.0
  1

  3
Material 2
  2
10GENINF
 70
     1
  0
ATTDEF
  5
69
  8
INFO
 10
0.0
 20
-13.5
 30
0.0
 40
1.0
  1

  3
Identnummer
  2
11GENINF
 70
     1
  0
ATTDEF
  5
6A
  8
INFO
 10
0.0
 20
-15.0
 30
0.0
 40
1.0
  1

  3
Gewicht
  2
12GENINF
 70
     1
  0
ATTDEF
  5
6B
  8
INFO
 10
0.0
 20
-16.5
 30
0.0
 40
1.0
  1

  3
Preis
  2
13GENINF
 70
     1
  0
ATTDEF
  5
6C
  8
INFO
 10
0.0
 20
-18.0
 30
0.0
 40
1.0
  1

  3
Abmessungen
  2
14GENINF
 70
     1
  0
ATTDEF
  5
6D
  8
INFO
 10
0.0
 20
-19.5
 30
0.0
 40
1.0
  1

  3
User 1
  2
15GENINF
 70
     1
  0
ATTDEF
  5
6E
  8
INFO
 10
0.0
 20
-21.0
 30
0.0
 40
1.0
  1

  3
User 2
  2
16GENINF
 70
     1
  0
ATTDEF
  5
6F
  8
INFO
 10
0.0
 20
-22.5
 30
0.0
 40
1.0
  1

  3
User 3
  2
17GENINF
 70
     1
  0
ATTDEF
  5
70
  8
INFO
 10
0.0
 20
-24.0
 30
0.0
 40
1.0
  1

  3
User 4
  2
18GENINF
 70
     1
  0
ATTDEF
  5
71
  8
INFO
 10
0.0
 20
-25.5
 30
0.0
 40
1.0
  1

  3
User 5
  2
19GENINF
 70
     1
  0
ATTDEF
  5
72
  8
INFO
 10
0.0
 20
-27.0
 30
0.0
 40
1.0
  1

  3
User 6
  2
20GENINF
 70
     1
  0
ATTDEF
  5
73
  8
INFO
 10
0.0
 20
-28.5
 30
0.0
 40
1.0
  1

  3
User 7
  2
21GENINF
 70
     1
  0
ATTDEF
  5
74
  8
INFO
 10
0.0
 20
-30.0
 30
0.0
 40
1.0
  1

  3
User 8
  2
22GENINF
 70
     1
  0
ATTDEF
  5
75
  8
INFO
 10
0.0
 20
-31.5
 30
0.0
 40
1.0
  1

  3
Filter
  2
23GENINF
 70
     1
  0
ATTDEF
  5
76
  8
INFO
 10
0.0
 20
-33.0
 30
0.0
 40
1.0
  1

  3
Bemerkung
  2
24GENINF
 70
     1
  0
ATTDEF
  5
77
  8
INFO
 10
0.0
 20
-34.5
 30
0.0
 40
1.0
  1

  3
Genius Normteile ID
  2
0GENINF
 70
     1
  0
ENDBLK
  5
79
  8
0
  0
BLOCK
  8
0
  2
*U3
 70
     1
 10
0.0
 20
0.0
 30
0.0
  3
*U3
  1
*U
  0
LINE
  5
BB1
  8
-BHMU
 10
7.9999999999985896
 20
-3.2999999999999989
 30
0.0
 11
7.9999999999985887
 21
3.3000000000000012
 31
0.0
  0
LINE
  5
BB2
  8
-BHMU
 10
-0.0000000000000008
 20
3.2999999999999989
 30
0.0
 11
0.0
 21
-3.2999999999999989
 31
0.0
  0
LINE
  5
BB3
  8
BHMM
 10
0.0
 20
-3.2999999999999989
 30
0.0
 11
7.9999999999985896
 21
-3.2999999999999989
 31
0.0
  0
LINE
  5
BB4
  8
CENN
 10
10.99999999999859
 20
0.0
 30
0.0
 11
-3.0
 21
0.0
 31
0.0
  0
LINE
  5
BB5
  8
BHMM
 10
-0.0000000000000008
 20
3.2999999999999989
 30
0.0
 11
7.9999999999985887
 21
3.3000000000000012
 31
0.0
  0
ENDBLK
  5
BB7
  8
0
  0
BLOCK
  8
0
  2
*U4
 70
     1
 10
0.0
 20
0.0
 30
0.0
  3
*U4
  1
*U
  0
LINE
  5
BB9
  8
CENN
 10
-9.0
 20
0.0
 30
0.0
 11
23.0
 21
0.0
 31
0.0
  0
LINE
  5
BBA
  8
BHII
 10
0.0
 20
-3.0
 30
0.0
 11
19.386565000000001
 21
-2.9999999999999991
 31
0.0
  0
LINE
  5
BBB
  8
BHII
 10
0.0
 20
3.0
 30
0.0
 11
19.386565000000001
 21
2.9999999999999991
 31
0.0
  0
LINE
  5
BBC
  8
THLI
 10
2.5
 20
2.386565
 30
0.0
 11
20.0
 21
2.386565
 31
0.0
  0
LINE
  5
BBD
  8
THLI
 10
2.5
 20
-2.386565
 30
0.0
 11
20.0
 21
-2.386565
 31
0.0
  0
ARC
  5
BBE
  8
HIDN
 10
-7.083541661352311
 20
0.0000000000000001
 30
0.0
 40
4.3312499999999989
 50
340.52877936550931
 51
19.471220634490692
  0
ARC
  5
BBF
  8
HIDN
 10
-3.927994788345194
 20
-2.165624999999999
 30
0.0
 40
1.1757031269928819
 50
322.12112050828108
 51
37.878879491718862
  0
ARC
  5
BC0
  8
HIDN
 10
-3.927994788345194
 20
2.165624999999999
 30
0.0
 40
1.1757031269928819
 50
322.12112050828108
 51
37.87887949171887
  0
LINE
  5
BC1
  8
BHII
 10
-6.0
 20
-4.4000000000000021
 30
0.0
 11
-5.4000000000000004
 21
-5.0
 31
0.0
  0
LINE
  5
BC2
  8
BHII
 10
0.0
 20
3.0
 30
0.0
 11
0.0
 21
5.0
 31
0.0
  0
LINE
  5
BC3
  8
BHII
 10
-5.4000000000000004
 20
5.0
 30
0.0
 11
0.0
 21
5.0
 31
0.0
  0
LINE
  5
BC4
  8
BHII
 10
-6.0
 20
4.4000000000000021
 30
0.0
 11
-5.4000000000000004
 21
5.0
 31
0.0
  0
LINE
  5
BC5
  8
BHII
 10
-5.4000000000000004
 20
-5.0
 30
0.0
 11
0.0
 21
-5.0
 31
0.0
  0
LINE
  5
BC6
  8
BHII
 10
0.0
 20
-5.0
 30
0.0
 11
0.0
 21
-3.0
 31
0.0
  0
LINE
  5
BC7
  8
BHII
 10
-6.0
 20
-4.4000000000000021
 30
0.0
 11
-6.0
 21
4.4000000000000021
 31
0.0
  0
LINE
  5
BC8
  8
CON1
 10
-5.4000000000000004
 20
5.0
 30
0.0
 11
-5.4000000000000004
 21
-5.0
 31
0.0
  0
LINE
  5
BC9
  8
HIDN
 10
-3.0
 20
2.8875000000000002
 30
0.0
 11
-1.332901097714956
 21
0.0
 31
0.0
  0
LINE
  5
BCA
  8
HIDN
 10
-3.0
 20
-2.8875000000000002
 30
0.0
 11
-1.332901097714956
 21
0.0
 31
0.0
  0
LINE
  5
BCB
  8
HIDN
 10
-6.0
 20
2.8875000000000002
 30
0.0
 11
-3.0
 21
2.8875000000000002
 31
0.0
  0
LINE
  5
BCC
  8
HIDN
 10
-6.0
 20
1.4437500000000001
 30
0.0
 11
-3.0
 21
1.443749999999999
 31
0.0
  0
LINE
  5
BCD
  8
HIDN
 10
-6.0
 20
-1.4437500000000001
 30
0.0
 11
-3.0
 21
-1.443749999999999
 31
0.0
  0
LINE
  5
BCE
  8
HIDN
 10
-6.0
 20
-2.8875000000000002
 30
0.0
 11
-3.0
 21
-2.8875000000000002
 31
0.0
  0
LINE
  5
BCF
  8
CON1
 10
0.0
 20
-3.0
 30
0.0
 11
0.0
 21
3.0
 31
0.0
  0
LINE
  5
BD0
  8
THLI
 10
-0.0000000000000004
 20
3.0
 30
0.0
 11
2.5
 21
2.386565
 31
0.0
  0
LINE
  5
BD1
  8
THLI
 10
-0.0000000000000004
 20
-3.0
 30
0.0
 11
2.5
 21
-2.386565
 31
0.0
  0
LINE
  5
BD2
  8
CON1
 10
2.5
 20
-3.0
 30
0.0
 11
2.5
 21
3.0
 31
0.0
  0
LINE
  5
BD3
  8
BHII
 10
20.0
 20
2.386565
 30
0.0
 11
19.386565000000001
 21
2.9999999999999991
 31
0.0
  0
LINE
  5
BD4
  8
BHII
 10
20.0
 20
-2.386565
 30
0.0
 11
19.386565000000001
 21
-2.9999999999999991
 31
0.0
  0
LINE
  5
BD5
  8
BHII
 10
20.0
 20
-2.386565
 30
0.0
 11
20.0
 21
2.386565
 31
0.0
  0
LINE
  5
BD6
  8
CON1
 10
19.386565000000001
 20
-2.9999999999999991
 30
0.0
 11
19.386565000000001
 21
2.9999999999999991
 31
0.0
  0
ENDBLK
  5
BD8
  8
0
  0
BLOCK
  8
0
  2
*U5
 70
     1
 10
0.0
 20
0.0
 30
0.0
  3
*U5
  1
*U
  0
INSERT
  5
BDA
  8
GEV_FROZEN
  2
*U3
 10
0.0
 20
0.0
 30
0.0
 41
0.1
 42
0.1
 43
0.1
1001
GENBH
1002
{
1000
-NOBRK
1002
}
  0
LINE
  5
BDB
  8
MSL_F12_32-0
 10
0.0
 20
-3.2999999999999989
 30
0.0
 11
7.9999999999985896
 21
-3.2999999999999989
 31
0.0
  0
LINE
  5
BDC
  8
MSL_F12_32-7A
 10
10.99999999999859
 20
0.0
 30
0.0
 11
-3.0
 21
0.0
 31
0.0
  0
LINE
  5
BDD
  8
MSL_F12_32-0
 10
-0.0000000000000008
 20
3.2999999999999989
 30
0.0
 11
7.9999999999985887
 21
3.3000000000000012
 31
0.0
  0
ENDBLK
  5
BDF
  8
0
  0
BLOCK
  8
0
  2
*U6
 70
     1
 10
0.0
 20
0.0
 30
0.0
  3
*U6
  1
*U
  0
INSERT
  5
BE1
  8
GEV_FROZEN
  2
*U4
 10
0.0
 20
0.0
 30
0.0
 41
0.1
 42
0.1
 43
0.1
1001
GENBH
1002
{
1000
-NOBRK
1002
}
  0
LINE
  5
BE2
  8
MSL_F12_32-7AN
 10
-9.0
 20
0.0
 30
0.0
 11
23.0
 21
0.0
 31
0.0
  0
LINE
  5
BE3
  8
MSL_F12_32-0N
 10
0.0
 20
-3.0
 30
0.0
 11
19.386565000000001
 21
-2.9999999999999991
 31
0.0
  0
LINE
  5
BE4
  8
MSL_F12_32-0N
 10
0.0
 20
3.0
 30
0.0
 11
19.386565000000001
 21
2.9999999999999991
 31
0.0
  0
LINE
  5
BE5
  8
MSL_F12_32-4N
 10
2.5
 20
2.386565
 30
0.0
 11
20.0
 21
2.386565
 31
0.0
  0
LINE
  5
BE6
  8
MSL_F12_32-4N
 10
2.5
 20
-2.386565
 30
0.0
 11
20.0
 21
-2.386565
 31
0.0
  0
ARC
  5
BE7
  8
MSL_F12_32-3AN
 10
-7.083541661352311
 20
0.0000000000000001
 30
0.0
 40
4.3312499999999989
 50
340.52877936550931
 51
19.471220634490692
  0
ARC
  5
BE8
  8
MSL_F12_32-3AN
 10
-3.927994788345194
 20
-2.165624999999999
 30
0.0
 40
1.1757031269928819
 50
322.12112050828108
 51
37.878879491718862
  0
ARC
  5
BE9
  8
MSL_F12_32-3AN
 10
-3.927994788345194
 20
2.165624999999999
 30
0.0
 40
1.1757031269928819
 50
322.12112050828108
 51
37.87887949171887
  0
LINE
  5
BEA
  8
MSL_F12_32-0N
 10
-6.0
 20
-4.4000000000000021
 30
0.0
 11
-5.4000000000000004
 21
-5.0
 31
0.0
  0
LINE
  5
BEB
  8
MSL_F12_32-0N
 10
0.0
 20
3.0
 30
0.0
 11
0.0
 21
5.0
 31
0.0
  0
LINE
  5
BEC
  8
MSL_F12_32-0N
 10
-5.4000000000000004
 20
5.0
 30
0.0
 11
0.0
 21
5.0
 31
0.0
  0
LINE
  5
BED
  8
MSL_F12_32-0N
 10
-6.0
 20
4.4000000000000021
 30
0.0
 11
-5.4000000000000004
 21
5.0
 31
0.0
  0
LINE
  5
BEE
  8
MSL_F12_32-0N
 10
-5.4000000000000004
 20
-5.0
 30
0.0
 11
0.0
 21
-5.0
 31
0.0
  0
LINE
  5
BEF
  8
MSL_F12_32-0N
 10
0.0
 20
-5.0
 30
0.0
 11
0.0
 21
-3.0
 31
0.0
  0
LINE
  5
BF0
  8
MSL_F12_32-0N
 10
-6.0
 20
-4.4000000000000021
 30
0.0
 11
-6.0
 21
4.4000000000000021
 31
0.0
  0
LINE
  5
BF1
  8
MSL_F12_32-0N
 10
-5.4000000000000004
 20
5.0
 30
0.0
 11
-5.4000000000000004
 21
-5.0
 31
0.0
  0
LINE
  5
BF2
  8
MSL_F12_32-3AN
 10
-3.0
 20
2.8875000000000002
 30
0.0
 11
-1.332901097714956
 21
0.0
 31
0.0
  0
LINE
  5
BF3
  8
MSL_F12_32-3AN
 10
-3.0
 20
-2.8875000000000002
 30
0.0
 11
-1.332901097714956
 21
0.0
 31
0.0
  0
LINE
  5
BF4
  8
MSL_F12_32-3AN
 10
-6.0
 20
2.8875000000000002
 30
0.0
 11
-3.0
 21
2.8875000000000002
 31
0.0
  0
LINE
  5
BF5
  8
MSL_F12_32-3AN
 10
-6.0
 20
1.4437500000000001
 30
0.0
 11
-3.0
 21
1.443749999999999
 31
0.0
  0
LINE
  5
BF6
  8
MSL_F12_32-3AN
 10
-6.0
 20
-1.4437500000000001
 30
0.0
 11
-3.0
 21
-1.443749999999999
 31
0.0
  0
LINE
  5
BF7
  8
MSL_F12_32-3AN
 10
-6.0
 20
-2.8875000000000002
 30
0.0
 11
-3.0
 21
-2.8875000000000002
 31
0.0
  0
LINE
  5
BF8
  8
MSL_F12_32-0N
 10
0.0
 20
-3.0
 30
0.0
 11
0.0
 21
3.0
 31
0.0
  0
LINE
  5
BF9
  8
MSL_F12_32-4N
 10
-0.0000000000000004
 20
3.0
 30
0.0
 11
2.5
 21
2.386565
 31
0.0
  0
LINE
  5
BFA
  8
MSL_F12_32-4N
 10
-0.0000000000000004
 20
-3.0
 30
0.0
 11
2.5
 21
-2.386565
 31
0.0
  0
LINE
  5
BFB
  8
MSL_F12_32-0N
 10
2.5
 20
-3.0
 30
0.0
 11
2.5
 21
3.0
 31
0.0
  0
LINE
  5
BFC
  8
MSL_F12_32-0N
 10
20.0
 20
2.386565
 30
0.0
 11
19.386565000000001
 21
2.9999999999999991
 31
0.0
  0
LINE
  5
BFD
  8
MSL_F12_32-0N
 10
20.0
 20
-2.386565
 30
0.0
 11
19.386565000000001
 21
-2.9999999999999991
 31
0.0
  0
LINE
  5
BFE
  8
MSL_F12_32-0N
 10
20.0
 20
-2.386565
 30
0.0
 11
20.0
 21
2.386565
 31
0.0
  0
LINE
  5
BFF
  8
MSL_F12_32-0N
 10
19.386565000000001
 20
-2.9999999999999991
 30
0.0
 11
19.386565000000001
 21
2.9999999999999991
 31
0.0
  0
ENDBLK
  5
C01
  8
0
  0
BLOCK
  8
0
  2
*U7
 70
     1
 10
0.0
 20
0.0
 30
0.0
  3
*U7
  1
*U
  0
INSERT
  5
13D6
  8
CON1
  2
VCCIKPKT
 10
15.58749999999857
 20
6.4999999999999991
 30
0.0
1001
GENIUS_GENOREF_13
1005
0
1001
VCC
1002
{
1000
-KP1
1000
-ID36
1002
}
1001
GEVCON
1002
{
1000
-DIS
1070
     3
1000
-ANG
1070
     3
1002
}
  0
INSERT
  5
13D7
  8
CON1
  2
VCCIKPKT
 10
15.58749999999857
 20
6.4999999999999991
 30
0.0
1001
GENIUS_GENOREF_13
1005
0
1001
VCC
1002
{
1000
-KP0
1000
-ID37
1002
}
1001
GEVCON
1002
{
1000
-DIS
1070
     0
1000
-ANG
1070
     0
1002
}
  0
ENDBLK
  5
13D8
  8
0
  0
BLOCK
  8
0
  2
*U8
 70
     1
 10
0.0
 20
0.0
 30
0.0
  3
*U8
  1
*U
  0
INSERT
  5
13DB
  8
GEV_FROZEN
  2
*U7
 10
0.0
 20
0.0
 30
0.0
 41
0.1
 42
0.1
 43
0.1
1001
GENBH
1002
{
1000
-NOBRK
1002
}
  0
INSERT
  5
13DC
  8
MSL_F12_32-0N
  2
VCCISYMB
 10
0.0
 20
0.0
 30
0.0
1001
GENBH
1002
{
1000
-NOBRK
1002
}
  0
ENDBLK
  5
13DD
  8
0
  0
BLOCK
  8
0
  2
*U9
 70
     1
 10
0.0
 20
0.0
 30
0.0
  3
*U9
  1
*U
  0
LINE
  5
13E0
  8
-BHHH
 10
0.0
 20
3.2999999999999972
 30
0.0
 11
7.9999999999985931
 21
3.2999999999999972
 31
0.0
  0
LINE
  5
13E1
  8
-BHHH
 10
0.0
 20
-3.2999999999999972
 30
0.0
 11
7.9999999999985931
 21
-3.2999999999999972
 31
0.0
  0
LINE
  5
13E2
  8
-BHHU
 10
0.0
 20
3.2999999999999972
 30
0.0
 11
0.0
 21
-3.2999999999999972
 31
0.0
  0
LINE
  5
13E3
  8
-BHHU
 10
7.9999999999985931
 20
3.2999999999999972
 30
0.0
 11
7.9999999999985931
 21
-3.2999999999999972
 31
0.0
  0
ENDBLK
  5
13E4
  8
0
  0
BLOCK
  8
0
  2
*U10
 70
     1
 10
0.0
 20
0.0
 30
0.0
  3
*U10
  1
*U
  0
INSERT
  5
13E7
  8
GEV_FROZEN
  2
*U9
 10
0.0
 20
0.0
 30
0.0
 41
0.1
 42
0.1
 43
0.1
1001
GENBH
1002
{
1000
-NOBRK
1002
}
  0
INSERT
  5
13E8
  8
MSL_F12_32-0
  2
VCCISYMB
 10
0.0
 20
0.0
 30
0.0
1001
GENBH
1002
{
1000
-NOBRK
1002
}
  0
ENDBLK
  5
13E9
  8
0
  0
BLOCK
  8
0
  2
*U11
 70
     1
 10
0.0
 20
0.0
 30
0.0
  3
*U11
  1
*U
  0
LINE
  5
13EC
  8
-BHMU
 10
7.9999999999985896
 20
-3.2999999999999989
 30
0.0
 11
7.9999999999985887
 21
3.3000000000000012
 31
0.0
  0
LINE
  5
13ED
  8
-BHMU
 10
-0.0000000000000008
 20
3.2999999999999989
 30
0.0
 11
0.0
 21
-3.2999999999999989
 31
0.0
  0
LINE
  5
13EE
  8
BHMM
 10
0.0
 20
-3.2999999999999989
 30
0.0
 11
7.9999999999985896
 21
-3.2999999999999989
 31
0.0
  0
LINE
  5
13EF
  8
CENN
 10
10.99999999999859
 20
0.0
 30
0.0
 11
-3.0
 21
0.0
 31
0.0
  0
LINE
  5
13F0
  8
BHMM
 10
-0.0000000000000008
 20
3.2999999999999989
 30
0.0
 11
7.9999999999985887
 21
3.3000000000000012
 31
0.0
  0
ENDBLK
  5
13F1
  8
0
  0
BLOCK
  8
0
  2
*U12
 70
     1
 10
0.0
 20
0.0
 30
0.0
  3
*U12
  1
*U
  0
INSERT
  5
13F4
  8
GEV_FROZEN
  2
*U11
 10
0.0
 20
0.0
 30
0.0
 41
0.1
 42
0.1
 43
0.1
1001
GENBH
1002
{
1000
-NOBRK
1002
}
  0
LINE
  5
13F5
  8
MSL_F12_32-3
 10
0.0
 20
-3.2999999999999998
 30
0.0
 11
7.9999999999985887
 21
-3.2999999999999998
 31
0.0
1001
GENIUS_GENBH_13
1002
{
1000
OE
1000
CON1
1002
}
  0
LINE
  5
13F6
  8
MSL_F12_32-7A
 10
10.99999999999859
 20
0.0
 30
0.0
 11
-3.0
 21
0.0
 31
0.0
  0
LINE
  5
13F7
  8
MSL_F12_32-3
 10
0.0
 20
3.299999999999998
 30
0.0
 11
7.9999999999985887
 21
3.2999999999999998
 31
0.0
1001
GENIUS_GENBH_13
1002
{
1000
OE
1000
CON1
1002
}
  0
INSERT
  5
13F8
  8
0
  2
*U5
 10
0.0
 20
0.0
 30
0.0
1001
GENIUS_GENOLIS_13
1002
{
1000
ENT
1002
}
1001
GENIUS_GENOENT_13
1002
{
1000
MYREF
1005
0
1002
}
  0
ENDBLK
  5
13F9
  8
0
  0
BLOCK
  8
0
  2
*U13
 70
     1
 10
0.0
 20
0.0
 30
0.0
  3
*U13
  1
*U
  0
LINE
  5
13FC
  8
CENN
 10
-9.0
 20
0.0
 30
0.0
 11
23.0
 21
0.0
 31
0.0
  0
LINE
  5
13FD
  8
BHII
 10
0.0
 20
-3.0
 30
0.0
 11
19.386565000000001
 21
-2.9999999999999991
 31
0.0
  0
LINE
  5
13FE
  8
BHII
 10
0.0
 20
3.0
 30
0.0
 11
19.386565000000001
 21
2.9999999999999991
 31
0.0
  0
LINE
  5
13FF
  8
THLI
 10
2.5
 20
2.386565
 30
0.0
 11
20.0
 21
2.386565
 31
0.0
  0
LINE
  5
1400
  8
THLI
 10
2.5
 20
-2.386565
 30
0.0
 11
20.0
 21
-2.386565
 31
0.0
  0
ARC
  5
1401
  8
HIDN
 10
-7.083541661352311
 20
0.0000000000000001
 30
0.0
 40
4.3312499999999989
 50
340.52877936550931
 51
19.471220634490692
  0
ARC
  5
1402
  8
HIDN
 10
-3.927994788345194
 20
-2.165624999999999
 30
0.0
 40
1.1757031269928819
 50
322.12112050828108
 51
37.878879491718862
  0
ARC
  5
1403
  8
HIDN
 10
-3.927994788345194
 20
2.165624999999999
 30
0.0
 40
1.1757031269928819
 50
322.12112050828108
 51
37.87887949171887
  0
LINE
  5
1404
  8
BHII
 10
-6.0
 20
-4.4000000000000021
 30
0.0
 11
-5.4000000000000004
 21
-5.0
 31
0.0
  0
LINE
  5
1405
  8
BHII
 10
0.0
 20
3.0
 30
0.0
 11
0.0
 21
5.0
 31
0.0
  0
LINE
  5
1406
  8
BHII
 10
-5.4000000000000004
 20
5.0
 30
0.0
 11
0.0
 21
5.0
 31
0.0
  0
LINE
  5
1407
  8
BHII
 10
-6.0
 20
4.4000000000000021
 30
0.0
 11
-5.4000000000000004
 21
5.0
 31
0.0
  0
LINE
  5
1408
  8
BHII
 10
-5.4000000000000004
 20
-5.0
 30
0.0
 11
0.0
 21
-5.0
 31
0.0
  0
LINE
  5
1409
  8
BHII
 10
0.0
 20
-5.0
 30
0.0
 11
0.0
 21
-3.0
 31
0.0
  0
LINE
  5
140A
  8
BHII
 10
-6.0
 20
-4.4000000000000021
 30
0.0
 11
-6.0
 21
4.4000000000000021
 31
0.0
  0
LINE
  5
140B
  8
CON1
 10
-5.4000000000000004
 20
5.0
 30
0.0
 11
-5.4000000000000004
 21
-5.0
 31
0.0
  0
LINE
  5
140C
  8
HIDN
 10
-3.0
 20
2.8875000000000002
 30
0.0
 11
-1.332901097714956
 21
0.0
 31
0.0
  0
LINE
  5
140D
  8
HIDN
 10
-3.0
 20
-2.8875000000000002
 30
0.0
 11
-1.332901097714956
 21
0.0
 31
0.0
  0
LINE
  5
140E
  8
HIDN
 10
-6.0
 20
2.8875000000000002
 30
0.0
 11
-3.0
 21
2.8875000000000002
 31
0.0
  0
LINE
  5
140F
  8
HIDN
 10
-6.0
 20
1.4437500000000001
 30
0.0
 11
-3.0
 21
1.443749999999999
 31
0.0
  0
LINE
  5
1410
  8
HIDN
 10
-6.0
 20
-1.4437500000000001
 30
0.0
 11
-3.0
 21
-1.443749999999999
 31
0.0
  0
LINE
  5
1411
  8
HIDN
 10
-6.0
 20
-2.8875000000000002
 30
0.0
 11
-3.0
 21
-2.8875000000000002
 31
0.0
  0
LINE
  5
1412
  8
CON1
 10
0.0
 20
-3.0
 30
0.0
 11
0.0
 21
3.0
 31
0.0
  0
LINE
  5
1413
  8
THLI
 10
-0.0000000000000004
 20
3.0
 30
0.0
 11
2.5
 21
2.386565
 31
0.0
  0
LINE
  5
1414
  8
THLI
 10
-0.0000000000000004
 20
-3.0
 30
0.0
 11
2.5
 21
-2.386565
 31
0.0
  0
LINE
  5
1415
  8
CON1
 10
2.5
 20
-3.0
 30
0.0
 11
2.5
 21
3.0
 31
0.0
  0
LINE
  5
1416
  8
BHII
 10
20.0
 20
2.386565
 30
0.0
 11
19.386565000000001
 21
2.9999999999999991
 31
0.0
  0
LINE
  5
1417
  8
BHII
 10
20.0
 20
-2.386565
 30
0.0
 11
19.386565000000001
 21
-2.9999999999999991
 31
0.0
  0
LINE
  5
1418
  8
BHII
 10
20.0
 20
-2.386565
 30
0.0
 11
20.0
 21
2.386565
 31
0.0
  0
LINE
  5
1419
  8
CON1
 10
19.386565000000001
 20
-2.9999999999999991
 30
0.0
 11
19.386565000000001
 21
2.9999999999999991
 31
0.0
  0
ENDBLK
  5
141A
  8
0
  0
BLOCK
  8
0
  2
*U14
 70
     1
 10
18.00000000000141
 20
-16.25
 30
0.0
  3
*U14
  1
*U
  0
INSERT
  5
141D
  8
GEV_FROZEN
  2
*U13
 10
18.00000000000141
 20
-16.25
 30
0.0
 41
0.1
 42
0.1
 43
0.1
1001
GENBH
1002
{
1000
-NOBRK
1002
}
  0
LINE
  5
141E
  8
MSL_F12_32-7AN
 10
9.0000000000014104
 20
-16.25
 30
0.0
 11
41.0000000000014
 21
-16.25
 31
0.0
  0
LINE
  5
141F
  8
MSL_F12_32-3N
 10
18.00000000000141
 20
-19.25
 30
0.0
 11
26.0
 21
-19.25
 31
0.0
1001
GENIUS_GENBH_13
1002
{
1000
OE
1000
N_CON1
1002
}
  0
LINE
  5
1420
  8
MSL_F12_32-3
 10
26.0
 20
-19.25
 30
0.0
 11
37.386565000001411
 21
-19.25
 31
0.0
  0
LINE
  5
1421
  8
MSL_F12_32-3N
 10
18.00000000000141
 20
-13.25
 30
0.0
 11
26.0
 21
-13.25
 31
0.0
1001
GENIUS_GENBH_13
1002
{
1000
OE
1000
N_CON1
1002
}
  0
LINE
  5
1422
  8
MSL_F12_32-3
 10
26.0
 20
-13.25
 30
0.0
 11
37.386565000001411
 21
-13.25
 31
0.0
  0
LINE
  5
1423
  8
MSL_F12_32-3N
 10
20.50000000000141
 20
-13.86343499999999
 30
0.0
 11
26.0
 21
-13.86343499999999
 31
0.0
1001
GENIUS_GENBH_13
1002
{
1000
OE
1000
N_THLI
1002
}
  0
LINE
  5
1424
  8
MSL_F12_32-3
 10
26.0
 20
-13.86343499999999
 30
0.0
 11
38.000000000001407
 21
-13.86343499999999
 31
0.0
  0
LINE
  5
1425
  8
MSL_F12_32-3N
 10
20.50000000000141
 20
-18.636565000000001
 30
0.0
 11
26.0
 21
-18.636565000000001
 31
0.0
1001
GENIUS_GENBH_13
1002
{
1000
OE
1000
N_THLI
1002
}
  0
LINE
  5
1426
  8
MSL_F12_32-3
 10
26.0
 20
-18.636565000000001
 30
0.0
 11
38.000000000001407
 21
-18.636565000000001
 31
0.0
  0
ARC
  5
1427
  8
MSL_F12_32-3AN
 10
10.91645833864909
 20
-16.25
 30
0.0
 40
4.3312499999999989
 50
340.52877936550942
 51
19.471220634490638
  0
ARC
  5
1428
  8
MSL_F12_32-3AN
 10
14.07200521165621
 20
-18.415624999999999
 30
0.0
 40
1.175703126992881
 50
322.12112050828108
 51
37.87887949171872
  0
ARC
  5
1429
  8
MSL_F12_32-3AN
 10
14.07200521165621
 20
-14.084374999999991
 30
0.0
 40
1.1757031269928819
 50
322.12112050828108
 51
37.878879491718777
  0
LINE
  5
142A
  8
MSL_F12_32-0N
 10
12.00000000000141
 20
-20.649999999999999
 30
0.0
 11
12.60000000000141
 21
-21.25
 31
0.0
  0
LINE
  5
142B
  8
MSL_F12_32-0N
 10
18.00000000000141
 20
-13.25
 30
0.0
 11
18.00000000000141
 21
-11.25
 31
0.0
  0
LINE
  5
142C
  8
MSL_F12_32-0N
 10
12.60000000000141
 20
-11.25
 30
0.0
 11
18.00000000000141
 21
-11.25
 31
0.0
  0
LINE
  5
142D
  8
MSL_F12_32-0N
 10
12.00000000000141
 20
-11.849999999999991
 30
0.0
 11
12.60000000000141
 21
-11.25
 31
0.0
  0
LINE
  5
142E
  8
MSL_F12_32-0N
 10
12.60000000000141
 20
-21.25
 30
0.0
 11
18.00000000000141
 21
-21.25
 31
0.0
  0
LINE
  5
142F
  8
MSL_F12_32-0N
 10
18.00000000000141
 20
-21.25
 30
0.0
 11
18.00000000000141
 21
-19.25
 31
0.0
  0
LINE
  5
1430
  8
MSL_F12_32-0N
 10
12.00000000000141
 20
-20.649999999999999
 30
0.0
 11
12.00000000000141
 21
-11.849999999999991
 31
0.0
  0
LINE
  5
1431
  8
MSL_F12_32-0N
 10
12.60000000000141
 20
-11.25
 30
0.0
 11
12.60000000000141
 21
-21.25
 31
0.0
  0
LINE
  5
1432
  8
MSL_F12_32-3AN
 10
15.00000000000141
 20
-13.362500000000001
 30
0.0
 11
16.667098902286451
 21
-16.25
 31
0.0
  0
LINE
  5
1433
  8
MSL_F12_32-3AN
 10
15.00000000000141
 20
-19.137499999999999
 30
0.0
 11
16.667098902286451
 21
-16.25
 31
0.0
  0
LINE
  5
1434
  8
MSL_F12_32-3AN
 10
12.00000000000141
 20
-13.362500000000001
 30
0.0
 11
15.00000000000141
 21
-13.362500000000001
 31
0.0
  0
LINE
  5
1435
  8
MSL_F12_32-3AN
 10
12.00000000000141
 20
-14.80625
 30
0.0
 11
15.00000000000141
 21
-14.80625
 31
0.0
  0
LINE
  5
1436
  8
MSL_F12_32-3AN
 10
12.00000000000141
 20
-17.693750000000001
 30
0.0
 11
15.00000000000141
 21
-17.693750000000001
 31
0.0
  0
LINE
  5
1437
  8
MSL_F12_32-3AN
 10
12.00000000000141
 20
-19.137499999999999
 30
0.0
 11
15.00000000000141
 21
-19.137499999999999
 31
0.0
  0
LINE
  5
1438
  8
MSL_F12_32-0N
 10
18.00000000000141
 20
-19.25
 30
0.0
 11
18.00000000000141
 21
-13.25
 31
0.0
  0
LINE
  5
1439
  8
MSL_F12_32-3N
 10
18.00000000000141
 20
-13.25
 30
0.0
 11
20.50000000000141
 21
-13.86343499999999
 31
0.0
1001
GENIUS_GENBH_13
1002
{
1000
OE
1000
N_THLI
1002
}
  0
LINE
  5
143A
  8
MSL_F12_32-3N
 10
18.00000000000141
 20
-19.25
 30
0.0
 11
20.50000000000141
 21
-18.636565000000001
 31
0.0
1001
GENIUS_GENBH_13
1002
{
1000
OE
1000
N_THLI
1002
}
  0
LINE
  5
143B
  8
MSL_F12_32-3N
 10
20.50000000000141
 20
-19.25
 30
0.0
 11
20.50000000000141
 21
-13.25
 31
0.0
1001
GENIUS_GENBH_13
1002
{
1000
OE
1000
N_CON1
1002
}
  0
LINE
  5
143C
  8
MSL_F12_32-3
 10
38.000000000001407
 20
-13.86343499999999
 30
0.0
 11
37.386565000001411
 21
-13.25
 31
0.0
  0
LINE
  5
143D
  8
MSL_F12_32-3
 10
38.000000000001407
 20
-18.636565000000001
 30
0.0
 11
37.386565000001411
 21
-19.25
 31
0.0
  0
LINE
  5
143E
  8
MSL_F12_32-3
 10
38.000000000001407
 20
-18.636565000000001
 30
0.0
 11
38.000000000001407
 21
-13.86343499999999
 31
0.0
  0
LINE
  5
143F
  8
MSL_F12_32-3
 10
37.386565000001411
 20
-19.25
 30
0.0
 11
37.386565000001411
 21
-13.25
 31
0.0
  0
INSERT
  5
1440
  8
0
  2
*U6
 10
18.00000000000141
 20
-16.25
 30
0.0
1001
GENIUS_GENOLIS_13
1002
{
1000
ENT
1002
}
1001
GENIUS_GENOENT_13
1002
{
1000
MYREF
1005
0
1002
}
  0
ENDBLK
  5
1441
  8
0
  0
BLOCK
  8
0
  2
*U15
 70
     1
 10
0.0
 20
0.0
 30
0.0
  3
*U15
  1
*U
  0
INSERT
  5
1445
  8
CON1
  2
VCCIKPKT
 10
15.58749999999857
 20
6.4999999999999991
 30
0.0
1001
GENIUS_GENOREF_13
1005
0
1001
VCC
1002
{
1000
-KP1
1000
-ID36
1002
}
1001
GEVCON
1002
{
1000
-DIS
1070
     3
1000
-ANG
1070
     3
1002
}
  0
INSERT
  5
1446
  8
CON1
  2
VCCIKPKT
 10
15.58749999999857
 20
6.4999999999999991
 30
0.0
1001
GENIUS_GENOREF_13
1005
0
1001
VCC
1002
{
1000
-KP0
1000
-ID37
1002
}
1001
GEVCON
1002
{
1000
-DIS
1070
     0
1000
-ANG
1070
     0
1002
}
  0
ENDBLK
  5
1447
  8
0
  0
BLOCK
  8
0
  2
*U16
 70
     1
 10
0.0
 20
0.0
 30
0.0
  3
*U16
  1
*U
  0
INSERT
  5
144A
  8
GEV_FROZEN
  2
*U15
 10
0.0
 20
0.0
 30
0.0
 41
0.1
 42
0.1
 43
0.1
1001
GENBH
1002
{
1000
-NOBRK
1002
}
  0
INSERT
  5
144B
  8
MSL_F12_32-0N
  2
VCCISYMB
 10
0.0
 20
0.0
 30
0.0
1001
GENBH
1002
{
1000
-NOBRK
1002
}
  0
ENDBLK
  5
144C
  8
0
  0
BLOCK
  8
0
  2
*U17
 70
     1
 10
0.0
 20
0.0
 30
0.0
  3
*U17
  1
*U
  0
LINE
  5
144F
  8
-BHHH
 10
0.0
 20
3.2999999999999972
 30
0.0
 11
7.9999999999985931
 21
3.2999999999999972
 31
0.0
  0
LINE
  5
1450
  8
-BHHH
 10
0.0
 20
-3.2999999999999972
 30
0.0
 11
7.9999999999985931
 21
-3.2999999999999972
 31
0.0
  0
LINE
  5
1451
  8
-BHHU
 10
0.0
 20
3.2999999999999972
 30
0.0
 11
0.0
 21
-3.2999999999999972
 31
0.0
  0
LINE
  5
1452
  8
-BHHU
 10
7.9999999999985931
 20
3.2999999999999972
 30
0.0
 11
7.9999999999985931
 21
-3.2999999999999972
 31
0.0
  0
ENDBLK
  5
1453
  8
0
  0
BLOCK
  8
0
  2
*U18
 70
     1
 10
0.0
 20
0.0
 30
0.0
  3
*U18
  1
*U
  0
INSERT
  5
1456
  8
GEV_FROZEN
  2
*U17
 10
0.0
 20
0.0
 30
0.0
 41
0.1
 42
0.1
 43
0.1
1001
GENBH
1002
{
1000
-NOBRK
1002
}
  0
INSERT
  5
1457
  8
MSL_F12_32-0
  2
VCCISYMB
 10
0.0
 20
0.0
 30
0.0
1001
GENBH
1002
{
1000
-NOBRK
1002
}
  0
ENDBLK
  5
1458
  8
0
  0
BLOCK
  8
0
  2
*U19
 70
     1
 10
0.0
 20
0.0
 30
0.0
  3
*U19
  1
*U
  0
LINE
  5
145B
  8
-BHMU
 10
7.9999999999985896
 20
-3.2999999999999989
 30
0.0
 11
7.9999999999985887
 21
3.3000000000000012
 31
0.0
  0
LINE
  5
145C
  8
-BHMU
 10
-0.0000000000000008
 20
3.2999999999999989
 30
0.0
 11
0.0
 21
-3.2999999999999989
 31
0.0
  0
LINE
  5
145D
  8
BHMM
 10
0.0
 20
-3.2999999999999989
 30
0.0
 11
7.9999999999985896
 21
-3.2999999999999989
 31
0.0
  0
LINE
  5
145E
  8
CENN
 10
10.99999999999859
 20
0.0
 30
0.0
 11
-3.0
 21
0.0
 31
0.0
  0
LINE
  5
145F
  8
BHMM
 10
-0.0000000000000008
 20
3.2999999999999989
 30
0.0
 11
7.9999999999985887
 21
3.3000000000000012
 31
0.0
  0
ENDBLK
  5
1460
  8
0
  0
BLOCK
  8
0
  2
*U20
 70
     1
 10
0.0
 20
0.0
 30
0.0
  3
*U20
  1
*U
  0
INSERT
  5
1463
  8
GEV_FROZEN
  2
*U19
 10
0.0
 20
0.0
 30
0.0
 41
0.1
 42
0.1
 43
0.1
1001
GENBH
1002
{
1000
-NOBRK
1002
}
  0
LINE
  5
1464
  8
MSL_F12_32-3
 10
0.0
 20
-3.2999999999999998
 30
0.0
 11
7.9999999999985887
 21
-3.2999999999999998
 31
0.0
1001
GENIUS_GENBH_13
1002
{
1000
OE
1000
CON1
1002
}
  0
LINE
  5
1465
  8
MSL_F12_32-7A
 10
10.99999999999859
 20
0.0
 30
0.0
 11
-3.0
 21
0.0
 31
0.0
  0
LINE
  5
1466
  8
MSL_F12_32-3
 10
0.0
 20
3.299999999999998
 30
0.0
 11
7.9999999999985887
 21
3.2999999999999998
 31
0.0
1001
GENIUS_GENBH_13
1002
{
1000
OE
1000
CON1
1002
}
  0
INSERT
  5
1467
  8
0
  2
*U5
 10
0.0
 20
0.0
 30
0.0
1001
GENIUS_GENOLIS_13
1002
{
1000
ENT
1002
}
1001
GENIUS_GENOENT_13
1002
{
1000
MYREF
1005
0
1002
}
  0
ENDBLK
  5
1468
  8
0
  0
BLOCK
  8
0
  2
*U21
 70
     1
 10
0.0
 20
0.0
 30
0.0
  3
*U21
  1
*U
  0
LINE
  5
146B
  8
CENN
 10
-9.0
 20
0.0
 30
0.0
 11
23.0
 21
0.0
 31
0.0
  0
LINE
  5
146C
  8
BHII
 10
0.0
 20
-3.0
 30
0.0
 11
19.386565000000001
 21
-2.9999999999999991
 31
0.0
  0
LINE
  5
146D
  8
BHII
 10
0.0
 20
3.0
 30
0.0
 11
19.386565000000001
 21
2.9999999999999991
 31
0.0
  0
LINE
  5
146E
  8
THLI
 10
2.5
 20
2.386565
 30
0.0
 11
20.0
 21
2.386565
 31
0.0
  0
LINE
  5
146F
  8
THLI
 10
2.5
 20
-2.386565
 30
0.0
 11
20.0
 21
-2.386565
 31
0.0
  0
ARC
  5
1470
  8
HIDN
 10
-7.083541661352311
 20
0.0000000000000001
 30
0.0
 40
4.3312499999999989
 50
340.52877936550931
 51
19.471220634490692
  0
ARC
  5
1471
  8
HIDN
 10
-3.927994788345194
 20
-2.165624999999999
 30
0.0
 40
1.1757031269928819
 50
322.12112050828108
 51
37.878879491718862
  0
ARC
  5
1472
  8
HIDN
 10
-3.927994788345194
 20
2.165624999999999
 30
0.0
 40
1.1757031269928819
 50
322.12112050828108
 51
37.87887949171887
  0
LINE
  5
1473
  8
BHII
 10
-6.0
 20
-4.4000000000000021
 30
0.0
 11
-5.4000000000000004
 21
-5.0
 31
0.0
  0
LINE
  5
1474
  8
BHII
 10
0.0
 20
3.0
 30
0.0
 11
0.0
 21
5.0
 31
0.0
  0
LINE
  5
1475
  8
BHII
 10
-5.4000000000000004
 20
5.0
 30
0.0
 11
0.0
 21
5.0
 31
0.0
  0
LINE
  5
1476
  8
BHII
 10
-6.0
 20
4.4000000000000021
 30
0.0
 11
-5.4000000000000004
 21
5.0
 31
0.0
  0
LINE
  5
1477
  8
BHII
 10
-5.4000000000000004
 20
-5.0
 30
0.0
 11
0.0
 21
-5.0
 31
0.0
  0
LINE
  5
1478
  8
BHII
 10
0.0
 20
-5.0
 30
0.0
 11
0.0
 21
-3.0
 31
0.0
  0
LINE
  5
1479
  8
BHII
 10
-6.0
 20
-4.4000000000000021
 30
0.0
 11
-6.0
 21
4.4000000000000021
 31
0.0
  0
LINE
  5
147A
  8
CON1
 10
-5.4000000000000004
 20
5.0
 30
0.0
 11
-5.4000000000000004
 21
-5.0
 31
0.0
  0
LINE
  5
147B
  8
HIDN
 10
-3.0
 20
2.8875000000000002
 30
0.0
 11
-1.332901097714956
 21
0.0
 31
0.0
  0
LINE
  5
147C
  8
HIDN
 10
-3.0
 20
-2.8875000000000002
 30
0.0
 11
-1.332901097714956
 21
0.0
 31
0.0
  0
LINE
  5
147D
  8
HIDN
 10
-6.0
 20
2.8875000000000002
 30
0.0
 11
-3.0
 21
2.8875000000000002
 31
0.0
  0
LINE
  5
147E
  8
HIDN
 10
-6.0
 20
1.4437500000000001
 30
0.0
 11
-3.0
 21
1.443749999999999
 31
0.0
  0
LINE
  5
147F
  8
HIDN
 10
-6.0
 20
-1.4437500000000001
 30
0.0
 11
-3.0
 21
-1.443749999999999
 31
0.0
  0
LINE
  5
1480
  8
HIDN
 10
-6.0
 20
-2.8875000000000002
 30
0.0
 11
-3.0
 21
-2.8875000000000002
 31
0.0
  0
LINE
  5
1481
  8
CON1
 10
0.0
 20
-3.0
 30
0.0
 11
0.0
 21
3.0
 31
0.0
  0
LINE
  5
1482
  8
THLI
 10
-0.0000000000000004
 20
3.0
 30
0.0
 11
2.5
 21
2.386565
 31
0.0
  0
LINE
  5
1483
  8
THLI
 10
-0.0000000000000004
 20
-3.0
 30
0.0
 11
2.5
 21
-2.386565
 31
0.0
  0
LINE
  5
1484
  8
CON1
 10
2.5
 20
-3.0
 30
0.0
 11
2.5
 21
3.0
 31
0.0
  0
LINE
  5
1485
  8
BHII
 10
20.0
 20
2.386565
 30
0.0
 11
19.386565000000001
 21
2.9999999999999991
 31
0.0
  0
LINE
  5
1486
  8
BHII
 10
20.0
 20
-2.386565
 30
0.0
 11
19.386565000000001
 21
-2.9999999999999991
 31
0.0
  0
LINE
  5
1487
  8
BHII
 10
20.0
 20
-2.386565
 30
0.0
 11
20.0
 21
2.386565
 31
0.0
  0
LINE
  5
1488
  8
CON1
 10
19.386565000000001
 20
-2.9999999999999991
 30
0.0
 11
19.386565000000001
 21
2.9999999999999991
 31
0.0
  0
ENDBLK
  5
1489
  8
0
  0
BLOCK
  8
0
  2
*U22
 70
     1
 10
18.00000000000141
 20
-16.25
 30
0.0
  3
*U22
  1
*U
  0
INSERT
  5
148C
  8
GEV_FROZEN
  2
*U21
 10
18.00000000000141
 20
-16.25
 30
0.0
 41
0.1
 42
0.1
 43
0.1
1001
GENBH
1002
{
1000
-NOBRK
1002
}
  0
LINE
  5
148D
  8
MSL_F12_32-7AN
 10
9.0000000000014104
 20
-16.25
 30
0.0
 11
41.0000000000014
 21
-16.25
 31
0.0
  0
LINE
  5
148E
  8
MSL_F12_32-3N
 10
18.00000000000141
 20
-19.25
 30
0.0
 11
26.0
 21
-19.25
 31
0.0
1001
GENIUS_GENBH_13
1002
{
1000
OE
1000
N_CON1
1002
}
  0
LINE
  5
148F
  8
MSL_F12_32-3
 10
26.0
 20
-19.25
 30
0.0
 11
37.386565000001411
 21
-19.25
 31
0.0
  0
LINE
  5
1490
  8
MSL_F12_32-3N
 10
18.00000000000141
 20
-13.25
 30
0.0
 11
26.0
 21
-13.25
 31
0.0
1001
GENIUS_GENBH_13
1002
{
1000
OE
1000
N_CON1
1002
}
  0
LINE
  5
1491
  8
MSL_F12_32-3
 10
26.0
 20
-13.25
 30
0.0
 11
37.386565000001411
 21
-13.25
 31
0.0
  0
LINE
  5
1492
  8
MSL_F12_32-3N
 10
20.50000000000141
 20
-13.86343499999999
 30
0.0
 11
26.0
 21
-13.86343499999999
 31
0.0
1001
GENIUS_GENBH_13
1002
{
1000
OE
1000
N_THLI
1002
}
  0
LINE
  5
1493
  8
MSL_F12_32-3
 10
26.0
 20
-13.86343499999999
 30
0.0
 11
38.000000000001407
 21
-13.86343499999999
 31
0.0
  0
LINE
  5
1494
  8
MSL_F12_32-3N
 10
20.50000000000141
 20
-18.636565000000001
 30
0.0
 11
26.0
 21
-18.636565000000001
 31
0.0
1001
GENIUS_GENBH_13
1002
{
1000
OE
1000
N_THLI
1002
}
  0
LINE
  5
1495
  8
MSL_F12_32-3
 10
26.0
 20
-18.636565000000001
 30
0.0
 11
38.000000000001407
 21
-18.636565000000001
 31
0.0
  0
ARC
  5
1496
  8
MSL_F12_32-3AN
 10
10.91645833864909
 20
-16.25
 30
0.0
 40
4.3312499999999989
 50
340.52877936550942
 51
19.471220634490638
  0
ARC
  5
1497
  8
MSL_F12_32-3AN
 10
14.07200521165621
 20
-18.415624999999999
 30
0.0
 40
1.175703126992881
 50
322.12112050828108
 51
37.87887949171872
  0
ARC
  5
1498
  8
MSL_F12_32-3AN
 10
14.07200521165621
 20
-14.084374999999991
 30
0.0
 40
1.1757031269928819
 50
322.12112050828108
 51
37.878879491718777
  0
LINE
  5
1499
  8
MSL_F12_32-0N
 10
12.00000000000141
 20
-20.649999999999999
 30
0.0
 11
12.60000000000141
 21
-21.25
 31
0.0
  0
LINE
  5
149A
  8
MSL_F12_32-0N
 10
18.00000000000141
 20
-13.25
 30
0.0
 11
18.00000000000141
 21
-11.25
 31
0.0
  0
LINE
  5
149B
  8
MSL_F12_32-0N
 10
12.60000000000141
 20
-11.25
 30
0.0
 11
18.00000000000141
 21
-11.25
 31
0.0
  0
LINE
  5
149C
  8
MSL_F12_32-0N
 10
12.00000000000141
 20
-11.849999999999991
 30
0.0
 11
12.60000000000141
 21
-11.25
 31
0.0
  0
LINE
  5
149D
  8
MSL_F12_32-0N
 10
12.60000000000141
 20
-21.25
 30
0.0
 11
18.00000000000141
 21
-21.25
 31
0.0
  0
LINE
  5
149E
  8
MSL_F12_32-0N
 10
18.00000000000141
 20
-21.25
 30
0.0
 11
18.00000000000141
 21
-19.25
 31
0.0
  0
LINE
  5
149F
  8
MSL_F12_32-0N
 10
12.00000000000141
 20
-20.649999999999999
 30
0.0
 11
12.00000000000141
 21
-11.849999999999991
 31
0.0
  0
LINE
  5
14A0
  8
MSL_F12_32-0N
 10
12.60000000000141
 20
-11.25
 30
0.0
 11
12.60000000000141
 21
-21.25
 31
0.0
  0
LINE
  5
14A1
  8
MSL_F12_32-3AN
 10
15.00000000000141
 20
-13.362500000000001
 30
0.0
 11
16.667098902286451
 21
-16.25
 31
0.0
  0
LINE
  5
14A2
  8
MSL_F12_32-3AN
 10
15.00000000000141
 20
-19.137499999999999
 30
0.0
 11
16.667098902286451
 21
-16.25
 31
0.0
  0
LINE
  5
14A3
  8
MSL_F12_32-3AN
 10
12.00000000000141
 20
-13.362500000000001
 30
0.0
 11
15.00000000000141
 21
-13.362500000000001
 31
0.0
  0
LINE
  5
14A4
  8
MSL_F12_32-3AN
 10
12.00000000000141
 20
-14.80625
 30
0.0
 11
15.00000000000141
 21
-14.80625
 31
0.0
  0
LINE
  5
14A5
  8
MSL_F12_32-3AN
 10
12.00000000000141
 20
-17.693750000000001
 30
0.0
 11
15.00000000000141
 21
-17.693750000000001
 31
0.0
  0
LINE
  5
14A6
  8
MSL_F12_32-3AN
 10
12.00000000000141
 20
-19.137499999999999
 30
0.0
 11
15.00000000000141
 21
-19.137499999999999
 31
0.0
  0
LINE
  5
14A7
  8
MSL_F12_32-0N
 10
18.00000000000141
 20
-19.25
 30
0.0
 11
18.00000000000141
 21
-13.25
 31
0.0
  0
LINE
  5
14A8
  8
MSL_F12_32-3N
 10
18.00000000000141
 20
-13.25
 30
0.0
 11
20.50000000000141
 21
-13.86343499999999
 31
0.0
1001
GENIUS_GENBH_13
1002
{
1000
OE
1000
N_THLI
1002
}
  0
LINE
  5
14A9
  8
MSL_F12_32-3N
 10
18.00000000000141
 20
-19.25
 30
0.0
 11
20.50000000000141
 21
-18.636565000000001
 31
0.0
1001
GENIUS_GENBH_13
1002
{
1000
OE
1000
N_THLI
1002
}
  0
LINE
  5
14AA
  8
MSL_F12_32-3N
 10
20.50000000000141
 20
-19.25
 30
0.0
 11
20.50000000000141
 21
-13.25
 31
0.0
1001
GENIUS_GENBH_13
1002
{
1000
OE
1000
N_CON1
1002
}
  0
LINE
  5
14AB
  8
MSL_F12_32-3
 10
38.000000000001407
 20
-13.86343499999999
 30
0.0
 11
37.386565000001411
 21
-13.25
 31
0.0
  0
LINE
  5
14AC
  8
MSL_F12_32-3
 10
38.000000000001407
 20
-18.636565000000001
 30
0.0
 11
37.386565000001411
 21
-19.25
 31
0.0
  0
LINE
  5
14AD
  8
MSL_F12_32-3
 10
38.000000000001407
 20
-18.636565000000001
 30
0.0
 11
38.000000000001407
 21
-13.86343499999999
 31
0.0
  0
LINE
  5
14AE
  8
MSL_F12_32-3
 10
37.386565000001411
 20
-19.25
 30
0.0
 11
37.386565000001411
 21
-13.25
 31
0.0
  0
INSERT
  5
14AF
  8
0
  2
*U6
 10
18.00000000000141
 20
-16.25
 30
0.0
1001
GENIUS_GENOLIS_13
1002
{
1000
ENT
1002
}
1001
GENIUS_GENOENT_13
1002
{
1000
MYREF
1005
0
1002
}
  0
ENDBLK
  5
14B0
  8
0
  0
BLOCK
  8
0
  2
*U23
 70
     1
 10
0.0
 20
0.0
 30
0.0
  3
*U23
  1
*U
  0
LINE
  5
14B4
  8
-BHMU
 10
13.000000000000201
 20
2.458499999999999
 30
0.0
 11
13.000000000000201
 21
-2.458499999999999
 31
0.0
  0
LINE
  5
14B5
  8
-BHMU
 10
0.0
 20
2.458499999999999
 30
0.0
 11
0.0
 21
-2.458499999999999
 31
0.0
  0
LINE
  5
14B6
  8
BHMM
 10
0.0
 20
-2.458499999999999
 30
0.0
 11
13.000000000000201
 21
-2.458499999999999
 31
0.0
  0
LINE
  5
14B7
  8
THLI
 10
0.0
 20
-3.0
 30
0.0
 11
13.00000000000019
 21
-3.0
 31
0.0
  0
LINE
  5
14B8
  8
CENN
 10
-3.0
 20
0.0
 30
0.0
 11
16.000000000000199
 21
0.0
 31
0.0
  0
LINE
  5
14B9
  8
BHMM
 10
0.0
 20
2.458499999999999
 30
0.0
 11
13.000000000000201
 21
2.458499999999999
 31
0.0
  0
LINE
  5
14BA
  8
THLI
 10
0.0
 20
3.0
 30
0.0
 11
13.00000000000019
 21
3.0
 31
0.0
  0
ENDBLK
  5
14BB
  8
0
  0
BLOCK
  8
0
  2
*U24
 70
     1
 10
0.0
 20
0.0
 30
0.0
  3
*U24
  1
*U
  0
INSERT
  5
14BE
  8
GEV_FROZEN
  2
*U23
 10
0.0
 20
0.0
 30
0.0
 41
0.1
 42
0.1
 43
0.1
1001
GENBH
1002
{
1000
-NOBRK
1002
}
  0
LINE
  5
14BF
  8
MSL_F12_32-3A
 10
0.0
 20
-2.458499999999999
 30
0.0
 11
13.000000000000201
 21
-2.458499999999999
 31
0.0
  0
LINE
  5
14C0
  8
MSL_F12_32-3A
 10
0.0
 20
-3.0
 30
0.0
 11
13.00000000000019
 21
-3.0
 31
0.0
  0
LINE
  5
14C1
  8
MSL_F12_32-7A
 10
-3.0
 20
0.0
 30
0.0
 11
16.000000000000199
 21
0.0
 31
0.0
  0
LINE
  5
14C2
  8
MSL_F12_32-3A
 10
0.0
 20
2.458499999999999
 30
0.0
 11
13.000000000000201
 21
2.458499999999999
 31
0.0
  0
LINE
  5
14C3
  8
MSL_F12_32-3A
 10
0.0
 20
3.0
 30
0.0
 11
13.00000000000019
 21
3.0
 31
0.0
  0
ENDBLK
  5
14C4
  8
0
  0
BLOCK
  8
0
  2
*U25
 70
     1
 10
0.0
 20
0.0
 30
0.0
  3
*U25
  1
*U
  0
LINE
  5
14C8
  8
-BHMU
 10
13.0
 20
2.458499999999999
 30
0.0
 11
13.0
 21
-2.458499999999999
 31
0.0
  0
LINE
  5
14C9
  8
-BHMU
 10
0.0
 20
2.458499999999999
 30
0.0
 11
0.0
 21
-2.458499999999999
 31
0.0
  0
LINE
  5
14CA
  8
BHMM
 10
0.0
 20
-2.458499999999999
 30
0.0
 11
13.0
 21
-2.458499999999999
 31
0.0
  0
LINE
  5
14CB
  8
THLI
 10
0.0
 20
-3.0
 30
0.0
 11
12.999999999999989
 21
-3.0
 31
0.0
  0
LINE
  5
14CC
  8
CENN
 10
-3.0
 20
0.0
 30
0.0
 11
16.0
 21
0.0
 31
0.0
  0
LINE
  5
14CD
  8
BHMM
 10
0.0
 20
2.458499999999999
 30
0.0
 11
13.0
 21
2.458499999999999
 31
0.0
  0
LINE
  5
14CE
  8
THLI
 10
0.0
 20
3.0
 30
0.0
 11
12.999999999999989
 21
3.0
 31
0.0
  0
ENDBLK
  5
14CF
  8
0
  0
BLOCK
  8
0
  2
*U26
 70
     1
 10
0.0
 20
0.0
 30
0.0
  3
*U26
  1
*U
  0
INSERT
  5
14D2
  8
GEV_FROZEN
  2
*U25
 10
0.0
 20
0.0
 30
0.0
 41
0.1
 42
0.1
 43
0.1
1001
GENBH
1002
{
1000
-NOBRK
1002
}
  0
LINE
  5
14D3
  8
MSL_F12_32-3A
 10
0.0
 20
-2.458499999999999
 30
0.0
 11
13.0
 21
-2.458499999999999
 31
0.0
  0
LINE
  5
14D4
  8
MSL_F12_32-3A
 10
0.0
 20
-3.0
 30
0.0
 11
12.999999999999989
 21
-3.0
 31
0.0
  0
LINE
  5
14D5
  8
MSL_F12_32-7A
 10
-3.0
 20
0.0
 30
0.0
 11
16.0
 21
0.0
 31
0.0
  0
LINE
  5
14D6
  8
MSL_F12_32-3A
 10
0.0
 20
2.458499999999999
 30
0.0
 11
13.0
 21
2.458499999999999
 31
0.0
  0
LINE
  5
14D7
  8
MSL_F12_32-3A
 10
0.0
 20
3.0
 30
0.0
 11
12.999999999999989
 21
3.0
 31
0.0
  0
ENDBLK
  5
14D8
  8
0
  0
BLOCK
  8
0
  2
*U27
 70
     1
 10
0.0
 20
0.0
 30
0.0
  3
*U27
  1
*U
  0
INSERT
  5
14DC
  8
CON1
  2
VCCIKPKT
 10
15.58749999999857
 20
6.4999999999999991
 30
0.0
1001
GENIUS_GENOREF_13
1005
0
1001
VCC
1002
{
1000
-KP1
1000
-ID36
1002
}
1001
GEVCON
1002
{
1000
-DIS
1070
     3
1000
-ANG
1070
     3
1002
}
  0
INSERT
  5
14DD
  8
CON1
  2
VCCIKPKT
 10
15.58749999999857
 20
6.4999999999999991
 30
0.0
1001
GENIUS_GENOREF_13
1005
0
1001
VCC
1002
{
1000
-KP0
1000
-ID37
1002
}
1001
GEVCON
1002
{
1000
-DIS
1070
     0
1000
-ANG
1070
     0
1002
}
  0
ENDBLK
  5
14DE
  8
0
  0
BLOCK
  8
0
  2
*U28
 70
     1
 10
0.0
 20
0.0
 30
0.0
  3
*U28
  1
*U
  0
INSERT
  5
14E1
  8
GEV_FROZEN
  2
*U27
 10
0.0
 20
0.0
 30
0.0
 41
0.1
 42
0.1
 43
0.1
1001
GENBH
1002
{
1000
-NOBRK
1002
}
  0
INSERT
  5
14E2
  8
MSL_F12_32-0N
  2
VCCISYMB
 10
0.0
 20
0.0
 30
0.0
1001
GENBH
1002
{
1000
-NOBRK
1002
}
  0
ENDBLK
  5
14E3
  8
0
  0
BLOCK
  8
0
  2
*U29
 70
     1
 10
0.0
 20
0.0
 30
0.0
  3
*U29
  1
*U
  0
LINE
  5
14E6
  8
-BHHH
 10
0.0
 20
3.2999999999999972
 30
0.0
 11
7.9999999999985931
 21
3.2999999999999972
 31
0.0
  0
LINE
  5
14E7
  8
-BHHH
 10
0.0
 20
-3.2999999999999972
 30
0.0
 11
7.9999999999985931
 21
-3.2999999999999972
 31
0.0
  0
LINE
  5
14E8
  8
-BHHU
 10
0.0
 20
3.2999999999999972
 30
0.0
 11
0.0
 21
-3.2999999999999972
 31
0.0
  0
LINE
  5
14E9
  8
-BHHU
 10
7.9999999999985931
 20
3.2999999999999972
 30
0.0
 11
7.9999999999985931
 21
-3.2999999999999972
 31
0.0
  0
ENDBLK
  5
14EA
  8
0
  0
BLOCK
  8
0
  2
*U30
 70
     1
 10
0.0
 20
0.0
 30
0.0
  3
*U30
  1
*U
  0
INSERT
  5
14ED
  8
GEV_FROZEN
  2
*U29
 10
0.0
 20
0.0
 30
0.0
 41
0.1
 42
0.1
 43
0.1
1001
GENBH
1002
{
1000
-NOBRK
1002
}
  0
INSERT
  5
14EE
  8
MSL_F12_32-0
  2
VCCISYMB
 10
0.0
 20
0.0
 30
0.0
1001
GENBH
1002
{
1000
-NOBRK
1002
}
  0
ENDBLK
  5
14EF
  8
0
  0
BLOCK
  8
0
  2
*U31
 70
     1
 10
0.0
 20
0.0
 30
0.0
  3
*U31
  1
*U
  0
LINE
  5
14F2
  8
-BHMU
 10
7.9999999999985896
 20
-3.2999999999999989
 30
0.0
 11
7.9999999999985887
 21
3.3000000000000012
 31
0.0
  0
LINE
  5
14F3
  8
-BHMU
 10
-0.0000000000000008
 20
3.2999999999999989
 30
0.0
 11
0.0
 21
-3.2999999999999989
 31
0.0
  0
LINE
  5
14F4
  8
BHMM
 10
0.0
 20
-3.2999999999999989
 30
0.0
 11
7.9999999999985896
 21
-3.2999999999999989
 31
0.0
  0
LINE
  5
14F5
  8
CENN
 10
10.99999999999859
 20
0.0
 30
0.0
 11
-3.0
 21
0.0
 31
0.0
  0
LINE
  5
14F6
  8
BHMM
 10
-0.0000000000000008
 20
3.2999999999999989
 30
0.0
 11
7.9999999999985887
 21
3.3000000000000012
 31
0.0
  0
ENDBLK
  5
14F7
  8
0
  0
BLOCK
  8
0
  2
*U32
 70
     1
 10
0.0
 20
0.0
 30
0.0
  3
*U32
  1
*U
  0
INSERT
  5
14FA
  8
GEV_FROZEN
  2
*U31
 10
0.0
 20
0.0
 30
0.0
 41
0.1
 42
0.1
 43
0.1
1001
GENBH
1002
{
1000
-NOBRK
1002
}
  0
LINE
  5
14FB
  8
MSL_F12_32-3
 10
0.0
 20
-3.2999999999999998
 30
0.0
 11
7.9999999999985887
 21
-3.2999999999999998
 31
0.0
1001
GENIUS_GENBH_13
1002
{
1000
OE
1000
CON1
1002
}
  0
LINE
  5
14FC
  8
MSL_F12_32-7A
 10
10.99999999999859
 20
0.0
 30
0.0
 11
-3.0
 21
0.0
 31
0.0
  0
LINE
  5
14FD
  8
MSL_F12_32-3
 10
0.0
 20
3.299999999999998
 30
0.0
 11
7.9999999999985887
 21
3.2999999999999998
 31
0.0
1001
GENIUS_GENBH_13
1002
{
1000
OE
1000
CON1
1002
}
  0
INSERT
  5
14FE
  8
0
  2
*U5
 10
0.0
 20
0.0
 30
0.0
1001
GENIUS_GENOLIS_13
1002
{
1000
ENT
1002
}
1001
GENIUS_GENOENT_13
1002
{
1000
MYREF
1005
0
1002
}
  0
ENDBLK
  5
14FF
  8
0
  0
BLOCK
  8
0
  2
*U33
 70
     1
 10
0.0
 20
0.0
 30
0.0
  3
*U33
  1
*U
  0
LINE
  5
1502
  8
CENN
 10
-9.0
 20
0.0
 30
0.0
 11
23.0
 21
0.0
 31
0.0
  0
LINE
  5
1503
  8
BHII
 10
0.0
 20
-3.0
 30
0.0
 11
19.386565000000001
 21
-2.9999999999999991
 31
0.0
  0
LINE
  5
1504
  8
BHII
 10
0.0
 20
3.0
 30
0.0
 11
19.386565000000001
 21
2.9999999999999991
 31
0.0
  0
LINE
  5
1505
  8
THLI
 10
2.5
 20
2.386565
 30
0.0
 11
20.0
 21
2.386565
 31
0.0
  0
LINE
  5
1506
  8
THLI
 10
2.5
 20
-2.386565
 30
0.0
 11
20.0
 21
-2.386565
 31
0.0
  0
ARC
  5
1507
  8
HIDN
 10
-7.083541661352311
 20
0.0000000000000001
 30
0.0
 40
4.3312499999999989
 50
340.52877936550931
 51
19.471220634490692
  0
ARC
  5
1508
  8
HIDN
 10
-3.927994788345194
 20
-2.165624999999999
 30
0.0
 40
1.1757031269928819
 50
322.12112050828108
 51
37.878879491718862
  0
ARC
  5
1509
  8
HIDN
 10
-3.927994788345194
 20
2.165624999999999
 30
0.0
 40
1.1757031269928819
 50
322.12112050828108
 51
37.87887949171887
  0
LINE
  5
150A
  8
BHII
 10
-6.0
 20
-4.4000000000000021
 30
0.0
 11
-5.4000000000000004
 21
-5.0
 31
0.0
  0
LINE
  5
150B
  8
BHII
 10
0.0
 20
3.0
 30
0.0
 11
0.0
 21
5.0
 31
0.0
  0
LINE
  5
150C
  8
BHII
 10
-5.4000000000000004
 20
5.0
 30
0.0
 11
0.0
 21
5.0
 31
0.0
  0
LINE
  5
150D
  8
BHII
 10
-6.0
 20
4.4000000000000021
 30
0.0
 11
-5.4000000000000004
 21
5.0
 31
0.0
  0
LINE
  5
150E
  8
BHII
 10
-5.4000000000000004
 20
-5.0
 30
0.0
 11
0.0
 21
-5.0
 31
0.0
  0
LINE
  5
150F
  8
BHII
 10
0.0
 20
-5.0
 30
0.0
 11
0.0
 21
-3.0
 31
0.0
  0
LINE
  5
1510
  8
BHII
 10
-6.0
 20
-4.4000000000000021
 30
0.0
 11
-6.0
 21
4.4000000000000021
 31
0.0
  0
LINE
  5
1511
  8
CON1
 10
-5.4000000000000004
 20
5.0
 30
0.0
 11
-5.4000000000000004
 21
-5.0
 31
0.0
  0
LINE
  5
1512
  8
HIDN
 10
-3.0
 20
2.8875000000000002
 30
0.0
 11
-1.332901097714956
 21
0.0
 31
0.0
  0
LINE
  5
1513
  8
HIDN
 10
-3.0
 20
-2.8875000000000002
 30
0.0
 11
-1.332901097714956
 21
0.0
 31
0.0
  0
LINE
  5
1514
  8
HIDN
 10
-6.0
 20
2.8875000000000002
 30
0.0
 11
-3.0
 21
2.8875000000000002
 31
0.0
  0
LINE
  5
1515
  8
HIDN
 10
-6.0
 20
1.4437500000000001
 30
0.0
 11
-3.0
 21
1.443749999999999
 31
0.0
  0
LINE
  5
1516
  8
HIDN
 10
-6.0
 20
-1.4437500000000001
 30
0.0
 11
-3.0
 21
-1.443749999999999
 31
0.0
  0
LINE
  5
1517
  8
HIDN
 10
-6.0
 20
-2.8875000000000002
 30
0.0
 11
-3.0
 21
-2.8875000000000002
 31
0.0
  0
LINE
  5
1518
  8
CON1
 10
0.0
 20
-3.0
 30
0.0
 11
0.0
 21
3.0
 31
0.0
  0
LINE
  5
1519
  8
THLI
 10
-0.0000000000000004
 20
3.0
 30
0.0
 11
2.5
 21
2.386565
 31
0.0
  0
LINE
  5
151A
  8
THLI
 10
-0.0000000000000004
 20
-3.0
 30
0.0
 11
2.5
 21
-2.386565
 31
0.0
  0
LINE
  5
151B
  8
CON1
 10
2.5
 20
-3.0
 30
0.0
 11
2.5
 21
3.0
 31
0.0
  0
LINE
  5
151C
  8
BHII
 10
20.0
 20
2.386565
 30
0.0
 11
19.386565000000001
 21
2.9999999999999991
 31
0.0
  0
LINE
  5
151D
  8
BHII
 10
20.0
 20
-2.386565
 30
0.0
 11
19.386565000000001
 21
-2.9999999999999991
 31
0.0
  0
LINE
  5
151E
  8
BHII
 10
20.0
 20
-2.386565
 30
0.0
 11
20.0
 21
2.386565
 31
0.0
  0
LINE
  5
151F
  8
CON1
 10
19.386565000000001
 20
-2.9999999999999991
 30
0.0
 11
19.386565000000001
 21
2.9999999999999991
 31
0.0
  0
ENDBLK
  5
1520
  8
0
  0
BLOCK
  8
0
  2
*U34
 70
     1
 10
18.00000000000141
 20
-16.25
 30
0.0
  3
*U34
  1
*U
  0
INSERT
  5
1523
  8
GEV_FROZEN
  2
*U33
 10
18.00000000000141
 20
-16.25
 30
0.0
 41
0.1
 42
0.1
 43
0.1
1001
GENBH
1002
{
1000
-NOBRK
1002
}
  0
LINE
  5
1524
  8
MSL_F12_32-7AN
 10
9.0000000000014104
 20
-16.25
 30
0.0
 11
41.0000000000014
 21
-16.25
 31
0.0
  0
LINE
  5
1525
  8
MSL_F12_32-3N
 10
18.00000000000141
 20
-19.25
 30
0.0
 11
26.0
 21
-19.25
 31
0.0
1001
GENIUS_GENBH_13
1002
{
1000
OE
1000
N_CON1
1002
}
  0
LINE
  5
1526
  8
MSL_F12_32-3
 10
26.0
 20
-19.25
 30
0.0
 11
37.386565000001411
 21
-19.25
 31
0.0
  0
LINE
  5
1527
  8
MSL_F12_32-3N
 10
18.00000000000141
 20
-13.25
 30
0.0
 11
26.0
 21
-13.25
 31
0.0
1001
GENIUS_GENBH_13
1002
{
1000
OE
1000
N_CON1
1002
}
  0
LINE
  5
1528
  8
MSL_F12_32-3
 10
26.0
 20
-13.25
 30
0.0
 11
37.386565000001411
 21
-13.25
 31
0.0
  0
LINE
  5
1529
  8
MSL_F12_32-3N
 10
20.50000000000141
 20
-13.86343499999999
 30
0.0
 11
26.0
 21
-13.86343499999999
 31
0.0
1001
GENIUS_GENBH_13
1002
{
1000
OE
1000
N_THLI
1002
}
  0
LINE
  5
152A
  8
MSL_F12_32-3
 10
26.0
 20
-13.86343499999999
 30
0.0
 11
38.000000000001407
 21
-13.86343499999999
 31
0.0
  0
LINE
  5
152B
  8
MSL_F12_32-3N
 10
20.50000000000141
 20
-18.636565000000001
 30
0.0
 11
26.0
 21
-18.636565000000001
 31
0.0
1001
GENIUS_GENBH_13
1002
{
1000
OE
1000
N_THLI
1002
}
  0
LINE
  5
152C
  8
MSL_F12_32-3
 10
26.0
 20
-18.636565000000001
 30
0.0
 11
38.000000000001407
 21
-18.636565000000001
 31
0.0
  0
ARC
  5
152D
  8
MSL_F12_32-3AN
 10
10.91645833864909
 20
-16.25
 30
0.0
 40
4.3312499999999989
 50
340.52877936550942
 51
19.471220634490638
  0
ARC
  5
152E
  8
MSL_F12_32-3AN
 10
14.07200521165621
 20
-18.415624999999999
 30
0.0
 40
1.175703126992881
 50
322.12112050828108
 51
37.87887949171872
  0
ARC
  5
152F
  8
MSL_F12_32-3AN
 10
14.07200521165621
 20
-14.084374999999991
 30
0.0
 40
1.1757031269928819
 50
322.12112050828108
 51
37.878879491718777
  0
LINE
  5
1530
  8
MSL_F12_32-0N
 10
12.00000000000141
 20
-20.649999999999999
 30
0.0
 11
12.60000000000141
 21
-21.25
 31
0.0
  0
LINE
  5
1531
  8
MSL_F12_32-0N
 10
18.00000000000141
 20
-13.25
 30
0.0
 11
18.00000000000141
 21
-11.25
 31
0.0
  0
LINE
  5
1532
  8
MSL_F12_32-0N
 10
12.60000000000141
 20
-11.25
 30
0.0
 11
18.00000000000141
 21
-11.25
 31
0.0
  0
LINE
  5
1533
  8
MSL_F12_32-0N
 10
12.00000000000141
 20
-11.849999999999991
 30
0.0
 11
12.60000000000141
 21
-11.25
 31
0.0
  0
LINE
  5
1534
  8
MSL_F12_32-0N
 10
12.60000000000141
 20
-21.25
 30
0.0
 11
18.00000000000141
 21
-21.25
 31
0.0
  0
LINE
  5
1535
  8
MSL_F12_32-0N
 10
18.00000000000141
 20
-21.25
 30
0.0
 11
18.00000000000141
 21
-19.25
 31
0.0
  0
LINE
  5
1536
  8
MSL_F12_32-0N
 10
12.00000000000141
 20
-20.649999999999999
 30
0.0
 11
12.00000000000141
 21
-11.849999999999991
 31
0.0
  0
LINE
  5
1537
  8
MSL_F12_32-0N
 10
12.60000000000141
 20
-11.25
 30
0.0
 11
12.60000000000141
 21
-21.25
 31
0.0
  0
LINE
  5
1538
  8
MSL_F12_32-3AN
 10
15.00000000000141
 20
-13.362500000000001
 30
0.0
 11
16.667098902286451
 21
-16.25
 31
0.0
  0
LINE
  5
1539
  8
MSL_F12_32-3AN
 10
15.00000000000141
 20
-19.137499999999999
 30
0.0
 11
16.667098902286451
 21
-16.25
 31
0.0
  0
LINE
  5
153A
  8
MSL_F12_32-3AN
 10
12.00000000000141
 20
-13.362500000000001
 30
0.0
 11
15.00000000000141
 21
-13.362500000000001
 31
0.0
  0
LINE
  5
153B
  8
MSL_F12_32-3AN
 10
12.00000000000141
 20
-14.80625
 30
0.0
 11
15.00000000000141
 21
-14.80625
 31
0.0
  0
LINE
  5
153C
  8
MSL_F12_32-3AN
 10
12.00000000000141
 20
-17.693750000000001
 30
0.0
 11
15.00000000000141
 21
-17.693750000000001
 31
0.0
  0
LINE
  5
153D
  8
MSL_F12_32-3AN
 10
12.00000000000141
 20
-19.137499999999999
 30
0.0
 11
15.00000000000141
 21
-19.137499999999999
 31
0.0
  0
LINE
  5
153E
  8
MSL_F12_32-0N
 10
18.00000000000141
 20
-19.25
 30
0.0
 11
18.00000000000141
 21
-13.25
 31
0.0
  0
LINE
  5
153F
  8
MSL_F12_32-3N
 10
18.00000000000141
 20
-13.25
 30
0.0
 11
20.50000000000141
 21
-13.86343499999999
 31
0.0
1001
GENIUS_GENBH_13
1002
{
1000
OE
1000
N_THLI
1002
}
  0
LINE
  5
1540
  8
MSL_F12_32-3N
 10
18.00000000000141
 20
-19.25
 30
0.0
 11
20.50000000000141
 21
-18.636565000000001
 31
0.0
1001
GENIUS_GENBH_13
1002
{
1000
OE
1000
N_THLI
1002
}
  0
LINE
  5
1541
  8
MSL_F12_32-3N
 10
20.50000000000141
 20
-19.25
 30
0.0
 11
20.50000000000141
 21
-13.25
 31
0.0
1001
GENIUS_GENBH_13
1002
{
1000
OE
1000
N_CON1
1002
}
  0
LINE
  5
1542
  8
MSL_F12_32-3
 10
38.000000000001407
 20
-13.86343499999999
 30
0.0
 11
37.386565000001411
 21
-13.25
 31
0.0
  0
LINE
  5
1543
  8
MSL_F12_32-3
 10
38.000000000001407
 20
-18.636565000000001
 30
0.0
 11
37.386565000001411
 21
-19.25
 31
0.0
  0
LINE
  5
1544
  8
MSL_F12_32-3
 10
38.000000000001407
 20
-18.636565000000001
 30
0.0
 11
38.000000000001407
 21
-13.86343499999999
 31
0.0
  0
LINE
  5
1545
  8
MSL_F12_32-3
 10
37.386565000001411
 20
-19.25
 30
0.0
 11
37.386565000001411
 21
-13.25
 31
0.0
  0
INSERT
  5
1546
  8
0
  2
*U6
 10
18.00000000000141
 20
-16.25
 30
0.0
1001
GENIUS_GENOLIS_13
1002
{
1000
ENT
1002
}
1001
GENIUS_GENOENT_13
1002
{
1000
MYREF
1005
0
1002
}
  0
ENDBLK
  5
1547
  8
0
  0
BLOCK
  8
0
  2
*U35
 70
     1
 10
0.0
 20
0.0
 30
0.0
  3
*U35
  1
*U
  0
INSERT
  5
154B
  8
CON1
  2
VCCIKPKT
 10
15.58749999999857
 20
6.4999999999999991
 30
0.0
1001
GENIUS_GENOREF_13
1005
0
1001
VCC
1002
{
1000
-KP1
1000
-ID36
1002
}
1001
GEVCON
1002
{
1000
-DIS
1070
     3
1000
-ANG
1070
     3
1002
}
  0
INSERT
  5
154C
  8
CON1
  2
VCCIKPKT
 10
15.58749999999857
 20
6.4999999999999991
 30
0.0
1001
GENIUS_GENOREF_13
1005
0
1001
VCC
1002
{
1000
-KP0
1000
-ID37
1002
}
1001
GEVCON
1002
{
1000
-DIS
1070
     0
1000
-ANG
1070
     0
1002
}
  0
ENDBLK
  5
154D
  8
0
  0
BLOCK
  8
0
  2
*U36
 70
     1
 10
0.0
 20
0.0
 30
0.0
  3
*U36
  1
*U
  0
INSERT
  5
1550
  8
GEV_FROZEN
  2
*U35
 10
0.0
 20
0.0
 30
0.0
 41
0.1
 42
0.1
 43
0.1
1001
GENBH
1002
{
1000
-NOBRK
1002
}
  0
INSERT
  5
1551
  8
MSL_F12_32-0N
  2
VCCISYMB
 10
0.0
 20
0.0
 30
0.0
1001
GENBH
1002
{
1000
-NOBRK
1002
}
  0
ENDBLK
  5
1552
  8
0
  0
BLOCK
  8
0
  2
*U37
 70
     1
 10
0.0
 20
0.0
 30
0.0
  3
*U37
  1
*U
  0
LINE
  5
1555
  8
-BHHH
 10
0.0
 20
3.2999999999999972
 30
0.0
 11
7.9999999999985931
 21
3.2999999999999972
 31
0.0
  0
LINE
  5
1556
  8
-BHHH
 10
0.0
 20
-3.2999999999999972
 30
0.0
 11
7.9999999999985931
 21
-3.2999999999999972
 31
0.0
  0
LINE
  5
1557
  8
-BHHU
 10
0.0
 20
3.2999999999999972
 30
0.0
 11
0.0
 21
-3.2999999999999972
 31
0.0
  0
LINE
  5
1558
  8
-BHHU
 10
7.9999999999985931
 20
3.2999999999999972
 30
0.0
 11
7.9999999999985931
 21
-3.2999999999999972
 31
0.0
  0
ENDBLK
  5
1559
  8
0
  0
BLOCK
  8
0
  2
*U38
 70
     1
 10
0.0
 20
0.0
 30
0.0
  3
*U38
  1
*U
  0
INSERT
  5
155C
  8
GEV_FROZEN
  2
*U37
 10
0.0
 20
0.0
 30
0.0
 41
0.1
 42
0.1
 43
0.1
1001
GENBH
1002
{
1000
-NOBRK
1002
}
  0
INSERT
  5
155D
  8
MSL_F12_32-0
  2
VCCISYMB
 10
0.0
 20
0.0
 30
0.0
1001
GENBH
1002
{
1000
-NOBRK
1002
}
  0
ENDBLK
  5
155E
  8
0
  0
BLOCK
  8
0
  2
*U39
 70
     1
 10
0.0
 20
0.0
 30
0.0
  3
*U39
  1
*U
  0
LINE
  5
1561
  8
CENN
 10
-9.0
 20
0.0
 30
0.0
 11
23.0
 21
0.0
 31
0.0
  0
LINE
  5
1562
  8
BHII
 10
0.0
 20
-3.0
 30
0.0
 11
19.386565000000001
 21
-2.9999999999999991
 31
0.0
  0
LINE
  5
1563
  8
BHII
 10
0.0
 20
3.0
 30
0.0
 11
19.386565000000001
 21
2.9999999999999991
 31
0.0
  0
LINE
  5
1564
  8
THLI
 10
2.5
 20
2.386565
 30
0.0
 11
20.0
 21
2.386565
 31
0.0
  0
LINE
  5
1565
  8
THLI
 10
2.5
 20
-2.386565
 30
0.0
 11
20.0
 21
-2.386565
 31
0.0
  0
ARC
  5
1566
  8
HIDN
 10
-7.083541661352311
 20
0.0000000000000001
 30
0.0
 40
4.3312499999999989
 50
340.52877936550931
 51
19.471220634490692
  0
ARC
  5
1567
  8
HIDN
 10
-3.927994788345194
 20
-2.165624999999999
 30
0.0
 40
1.1757031269928819
 50
322.12112050828108
 51
37.878879491718862
  0
ARC
  5
1568
  8
HIDN
 10
-3.927994788345194
 20
2.165624999999999
 30
0.0
 40
1.1757031269928819
 50
322.12112050828108
 51
37.87887949171887
  0
LINE
  5
1569
  8
BHII
 10
-6.0
 20
-4.4000000000000021
 30
0.0
 11
-5.4000000000000004
 21
-5.0
 31
0.0
  0
LINE
  5
156A
  8
BHII
 10
0.0
 20
3.0
 30
0.0
 11
0.0
 21
5.0
 31
0.0
  0
LINE
  5
156B
  8
BHII
 10
-5.4000000000000004
 20
5.0
 30
0.0
 11
0.0
 21
5.0
 31
0.0
  0
LINE
  5
156C
  8
BHII
 10
-6.0
 20
4.4000000000000021
 30
0.0
 11
-5.4000000000000004
 21
5.0
 31
0.0
  0
LINE
  5
156D
  8
BHII
 10
-5.4000000000000004
 20
-5.0
 30
0.0
 11
0.0
 21
-5.0
 31
0.0
  0
LINE
  5
156E
  8
BHII
 10
0.0
 20
-5.0
 30
0.0
 11
0.0
 21
-3.0
 31
0.0
  0
LINE
  5
156F
  8
BHII
 10
-6.0
 20
-4.4000000000000021
 30
0.0
 11
-6.0
 21
4.4000000000000021
 31
0.0
  0
LINE
  5
1570
  8
CON1
 10
-5.4000000000000004
 20
5.0
 30
0.0
 11
-5.4000000000000004
 21
-5.0
 31
0.0
  0
LINE
  5
1571
  8
HIDN
 10
-3.0
 20
2.8875000000000002
 30
0.0
 11
-1.332901097714956
 21
0.0
 31
0.0
  0
LINE
  5
1572
  8
HIDN
 10
-3.0
 20
-2.8875000000000002
 30
0.0
 11
-1.332901097714956
 21
0.0
 31
0.0
  0
LINE
  5
1573
  8
HIDN
 10
-6.0
 20
2.8875000000000002
 30
0.0
 11
-3.0
 21
2.8875000000000002
 31
0.0
  0
LINE
  5
1574
  8
HIDN
 10
-6.0
 20
1.4437500000000001
 30
0.0
 11
-3.0
 21
1.443749999999999
 31
0.0
  0
LINE
  5
1575
  8
HIDN
 10
-6.0
 20
-1.4437500000000001
 30
0.0
 11
-3.0
 21
-1.443749999999999
 31
0.0
  0
LINE
  5
1576
  8
HIDN
 10
-6.0
 20
-2.8875000000000002
 30
0.0
 11
-3.0
 21
-2.8875000000000002
 31
0.0
  0
LINE
  5
1577
  8
CON1
 10
0.0
 20
-3.0
 30
0.0
 11
0.0
 21
3.0
 31
0.0
  0
LINE
  5
1578
  8
THLI
 10
-0.0000000000000004
 20
3.0
 30
0.0
 11
2.5
 21
2.386565
 31
0.0
  0
LINE
  5
1579
  8
THLI
 10
-0.0000000000000004
 20
-3.0
 30
0.0
 11
2.5
 21
-2.386565
 31
0.0
  0
LINE
  5
157A
  8
CON1
 10
2.5
 20
-3.0
 30
0.0
 11
2.5
 21
3.0
 31
0.0
  0
LINE
  5
157B
  8
BHII
 10
20.0
 20
2.386565
 30
0.0
 11
19.386565000000001
 21
2.9999999999999991
 31
0.0
  0
LINE
  5
157C
  8
BHII
 10
20.0
 20
-2.386565
 30
0.0
 11
19.386565000000001
 21
-2.9999999999999991
 31
0.0
  0
LINE
  5
157D
  8
BHII
 10
20.0
 20
-2.386565
 30
0.0
 11
20.0
 21
2.386565
 31
0.0
  0
LINE
  5
157E
  8
CON1
 10
19.386565000000001
 20
-2.9999999999999991
 30
0.0
 11
19.386565000000001
 21
2.9999999999999991
 31
0.0
  0
ENDBLK
  5
157F
  8
0
  0
BLOCK
  8
0
  2
*U40
 70
     1
 10
18.00000000000141
 20
-16.25
 30
0.0
  3
*U40
  1
*U
  0
INSERT
  5
1582
  8
GEV_FROZEN
  2
*U39
 10
18.00000000000141
 20
-16.25
 30
0.0
 41
0.1
 42
0.1
 43
0.1
1001
GENBH
1002
{
1000
-NOBRK
1002
}
  0
LINE
  5
1583
  8
MSL_F12_32-7AN
 10
9.0000000000014104
 20
-16.25
 30
0.0
 11
41.0000000000014
 21
-16.25
 31
0.0
  0
LINE
  5
1584
  8
MSL_F12_32-3N
 10
18.00000000000141
 20
-19.25
 30
0.0
 11
26.0
 21
-19.25
 31
0.0
1001
GENIUS_GENBH_13
1002
{
1000
OE
1000
N_CON1
1002
}
  0
LINE
  5
1585
  8
MSL_F12_32-3
 10
26.0
 20
-19.25
 30
0.0
 11
37.386565000001411
 21
-19.25
 31
0.0
  0
LINE
  5
1586
  8
MSL_F12_32-3N
 10
18.00000000000141
 20
-13.25
 30
0.0
 11
26.0
 21
-13.25
 31
0.0
1001
GENIUS_GENBH_13
1002
{
1000
OE
1000
N_CON1
1002
}
  0
LINE
  5
1587
  8
MSL_F12_32-3
 10
26.0
 20
-13.25
 30
0.0
 11
37.386565000001411
 21
-13.25
 31
0.0
  0
LINE
  5
1588
  8
MSL_F12_32-3N
 10
20.50000000000141
 20
-13.86343499999999
 30
0.0
 11
26.0
 21
-13.86343499999999
 31
0.0
1001
GENIUS_GENBH_13
1002
{
1000
OE
1000
N_THLI
1002
}
  0
LINE
  5
1589
  8
MSL_F12_32-3
 10
26.0
 20
-13.86343499999999
 30
0.0
 11
38.000000000001407
 21
-13.86343499999999
 31
0.0
  0
LINE
  5
158A
  8
MSL_F12_32-3N
 10
20.50000000000141
 20
-18.636565000000001
 30
0.0
 11
26.0
 21
-18.636565000000001
 31
0.0
1001
GENIUS_GENBH_13
1002
{
1000
OE
1000
N_THLI
1002
}
  0
LINE
  5
158B
  8
MSL_F12_32-3
 10
26.0
 20
-18.636565000000001
 30
0.0
 11
38.000000000001407
 21
-18.636565000000001
 31
0.0
  0
ARC
  5
158C
  8
MSL_F12_32-3AN
 10
10.91645833864909
 20
-16.25
 30
0.0
 40
4.3312499999999989
 50
340.52877936550942
 51
19.471220634490638
  0
ARC
  5
158D
  8
MSL_F12_32-3AN
 10
14.07200521165621
 20
-18.415624999999999
 30
0.0
 40
1.175703126992881
 50
322.12112050828108
 51
37.87887949171872
  0
ARC
  5
158E
  8
MSL_F12_32-3AN
 10
14.07200521165621
 20
-14.084374999999991
 30
0.0
 40
1.1757031269928819
 50
322.12112050828108
 51
37.878879491718777
  0
LINE
  5
158F
  8
MSL_F12_32-0N
 10
12.00000000000141
 20
-20.649999999999999
 30
0.0
 11
12.60000000000141
 21
-21.25
 31
0.0
  0
LINE
  5
1590
  8
MSL_F12_32-0N
 10
18.00000000000141
 20
-13.25
 30
0.0
 11
18.00000000000141
 21
-11.25
 31
0.0
  0
LINE
  5
1591
  8
MSL_F12_32-0N
 10
12.60000000000141
 20
-11.25
 30
0.0
 11
18.00000000000141
 21
-11.25
 31
0.0
  0
LINE
  5
1592
  8
MSL_F12_32-0N
 10
12.00000000000141
 20
-11.849999999999991
 30
0.0
 11
12.60000000000141
 21
-11.25
 31
0.0
  0
LINE
  5
1593
  8
MSL_F12_32-0N
 10
12.60000000000141
 20
-21.25
 30
0.0
 11
18.00000000000141
 21
-21.25
 31
0.0
  0
LINE
  5
1594
  8
MSL_F12_32-0N
 10
18.00000000000141
 20
-21.25
 30
0.0
 11
18.00000000000141
 21
-19.25
 31
0.0
  0
LINE
  5
1595
  8
MSL_F12_32-0N
 10
12.00000000000141
 20
-20.649999999999999
 30
0.0
 11
12.00000000000141
 21
-11.849999999999991
 31
0.0
  0
LINE
  5
1596
  8
MSL_F12_32-0N
 10
12.60000000000141
 20
-11.25
 30
0.0
 11
12.60000000000141
 21
-21.25
 31
0.0
  0
LINE
  5
1597
  8
MSL_F12_32-3AN
 10
15.00000000000141
 20
-13.362500000000001
 30
0.0
 11
16.667098902286451
 21
-16.25
 31
0.0
  0
LINE
  5
1598
  8
MSL_F12_32-3AN
 10
15.00000000000141
 20
-19.137499999999999
 30
0.0
 11
16.667098902286451
 21
-16.25
 31
0.0
  0
LINE
  5
1599
  8
MSL_F12_32-3AN
 10
12.00000000000141
 20
-13.362500000000001
 30
0.0
 11
15.00000000000141
 21
-13.362500000000001
 31
0.0
  0
LINE
  5
159A
  8
MSL_F12_32-3AN
 10
12.00000000000141
 20
-14.80625
 30
0.0
 11
15.00000000000141
 21
-14.80625
 31
0.0
  0
LINE
  5
159B
  8
MSL_F12_32-3AN
 10
12.00000000000141
 20
-17.693750000000001
 30
0.0
 11
15.00000000000141
 21
-17.693750000000001
 31
0.0
  0
LINE
  5
159C
  8
MSL_F12_32-3AN
 10
12.00000000000141
 20
-19.137499999999999
 30
0.0
 11
15.00000000000141
 21
-19.137499999999999
 31
0.0
  0
LINE
  5
159D
  8
MSL_F12_32-0N
 10
18.00000000000141
 20
-19.25
 30
0.0
 11
18.00000000000141
 21
-13.25
 31
0.0
  0
LINE
  5
159E
  8
MSL_F12_32-3N
 10
18.00000000000141
 20
-13.25
 30
0.0
 11
20.50000000000141
 21
-13.86343499999999
 31
0.0
1001
GENIUS_GENBH_13
1002
{
1000
OE
1000
N_THLI
1002
}
  0
LINE
  5
159F
  8
MSL_F12_32-3N
 10
18.00000000000141
 20
-19.25
 30
0.0
 11
20.50000000000141
 21
-18.636565000000001
 31
0.0
1001
GENIUS_GENBH_13
1002
{
1000
OE
1000
N_THLI
1002
}
  0
LINE
  5
15A0
  8
MSL_F12_32-3N
 10
20.50000000000141
 20
-19.25
 30
0.0
 11
20.50000000000141
 21
-13.25
 31
0.0
1001
GENIUS_GENBH_13
1002
{
1000
OE
1000
N_CON1
1002
}
  0
LINE
  5
15A1
  8
MSL_F12_32-3
 10
38.000000000001407
 20
-13.86343499999999
 30
0.0
 11
37.386565000001411
 21
-13.25
 31
0.0
  0
LINE
  5
15A2
  8
MSL_F12_32-3
 10
38.000000000001407
 20
-18.636565000000001
 30
0.0
 11
37.386565000001411
 21
-19.25
 31
0.0
  0
LINE
  5
15A3
  8
MSL_F12_32-3
 10
38.000000000001407
 20
-18.636565000000001
 30
0.0
 11
38.000000000001407
 21
-13.86343499999999
 31
0.0
  0
LINE
  5
15A4
  8
MSL_F12_32-3
 10
37.386565000001411
 20
-19.25
 30
0.0
 11
37.386565000001411
 21
-13.25
 31
0.0
  0
INSERT
  5
15A5
  8
0
  2
*U6
 10
18.00000000000141
 20
-16.25
 30
0.0
1001
GENIUS_GENOLIS_13
1002
{
1000
ENT
1002
}
1001
GENIUS_GENOENT_13
1002
{
1000
MYREF
1005
0
1002
}
  0
ENDBLK
  5
15A6
  8
0
  0
BLOCK
  8
0
  2
*U41
 70
     1
 10
0.0
 20
0.0
 30
0.0
  3
*U41
  1
*U
  0
LINE
  5
15A9
  8
-BHMU
 10
7.9999999999985896
 20
-3.2999999999999989
 30
0.0
 11
7.9999999999985887
 21
3.3000000000000012
 31
0.0
  0
LINE
  5
15AA
  8
-BHMU
 10
-0.0000000000000008
 20
3.2999999999999989
 30
0.0
 11
0.0
 21
-3.2999999999999989
 31
0.0
  0
LINE
  5
15AB
  8
BHMM
 10
0.0
 20
-3.2999999999999989
 30
0.0
 11
7.9999999999985896
 21
-3.2999999999999989
 31
0.0
  0
LINE
  5
15AC
  8
CENN
 10
10.99999999999859
 20
0.0
 30
0.0
 11
-3.0
 21
0.0
 31
0.0
  0
LINE
  5
15AD
  8
BHMM
 10
-0.0000000000000008
 20
3.2999999999999989
 30
0.0
 11
7.9999999999985887
 21
3.3000000000000012
 31
0.0
  0
ENDBLK
  5
15AE
  8
0
  0
BLOCK
  8
0
  2
*U42
 70
     1
 10
0.0
 20
0.0
 30
0.0
  3
*U42
  1
*U
  0
INSERT
  5
15B1
  8
GEV_FROZEN
  2
*U41
 10
0.0
 20
0.0
 30
0.0
 41
0.1
 42
0.1
 43
0.1
1001
GENBH
1002
{
1000
-NOBRK
1002
}
  0
LINE
  5
15B2
  8
MSL_F12_32-3
 10
0.0
 20
-3.2999999999999998
 30
0.0
 11
7.9999999999985887
 21
-3.2999999999999998
 31
0.0
1001
GENIUS_GENBH_13
1002
{
1000
OE
1000
CON1
1002
}
  0
LINE
  5
15B3
  8
MSL_F12_32-7A
 10
10.99999999999859
 20
0.0
 30
0.0
 11
-3.0
 21
0.0
 31
0.0
  0
LINE
  5
15B4
  8
MSL_F12_32-3
 10
0.0
 20
3.299999999999998
 30
0.0
 11
7.9999999999985887
 21
3.2999999999999998
 31
0.0
1001
GENIUS_GENBH_13
1002
{
1000
OE
1000
CON1
1002
}
  0
INSERT
  5
15B5
  8
0
  2
*U5
 10
0.0
 20
0.0
 30
0.0
1001
GENIUS_GENOLIS_13
1002
{
1000
ENT
1002
}
1001
GENIUS_GENOENT_13
1002
{
1000
MYREF
1005
0
1002
}
  0
ENDBLK
  5
15B6
  8
0
  0
BLOCK
  8
0
  2
*U43
 70
     1
 10
0.0
 20
0.0
 30
0.0
  3
*U43
  1
*U
  0
LINE
  5
15BA
  8
-BHMU
 10
13.000000000000201
 20
2.458499999999999
 30
0.0
 11
13.000000000000201
 21
-2.458499999999999
 31
0.0
  0
LINE
  5
15BB
  8
-BHMU
 10
0.0
 20
2.458499999999999
 30
0.0
 11
0.0
 21
-2.458499999999999
 31
0.0
  0
LINE
  5
15BC
  8
BHMM
 10
0.0
 20
-2.458499999999999
 30
0.0
 11
13.000000000000201
 21
-2.458499999999999
 31
0.0
  0
LINE
  5
15BD
  8
THLI
 10
0.0
 20
-3.0
 30
0.0
 11
13.00000000000019
 21
-3.0
 31
0.0
  0
LINE
  5
15BE
  8
CENN
 10
-3.0
 20
0.0
 30
0.0
 11
16.000000000000199
 21
0.0
 31
0.0
  0
LINE
  5
15BF
  8
BHMM
 10
0.0
 20
2.458499999999999
 30
0.0
 11
13.000000000000201
 21
2.458499999999999
 31
0.0
  0
LINE
  5
15C0
  8
THLI
 10
0.0
 20
3.0
 30
0.0
 11
13.00000000000019
 21
3.0
 31
0.0
  0
ENDBLK
  5
15C1
  8
0
  0
BLOCK
  8
0
  2
*U44
 70
     1
 10
0.0
 20
0.0
 30
0.0
  3
*U44
  1
*U
  0
INSERT
  5
15C4
  8
GEV_FROZEN
  2
*U43
 10
0.0
 20
0.0
 30
0.0
 41
0.1
 42
0.1
 43
0.1
1001
GENBH
1002
{
1000
-NOBRK
1002
}
  0
LINE
  5
15C5
  8
MSL_F12_32-3A
 10
0.0
 20
-2.458499999999999
 30
0.0
 11
13.000000000000201
 21
-2.458499999999999
 31
0.0
  0
LINE
  5
15C6
  8
MSL_F12_32-3A
 10
0.0
 20
-3.0
 30
0.0
 11
13.00000000000019
 21
-3.0
 31
0.0
  0
LINE
  5
15C7
  8
MSL_F12_32-7A
 10
-3.0
 20
0.0
 30
0.0
 11
16.000000000000199
 21
0.0
 31
0.0
  0
LINE
  5
15C8
  8
MSL_F12_32-3A
 10
0.0
 20
2.458499999999999
 30
0.0
 11
13.000000000000201
 21
2.458499999999999
 31
0.0
  0
LINE
  5
15C9
  8
MSL_F12_32-3A
 10
0.0
 20
3.0
 30
0.0
 11
13.00000000000019
 21
3.0
 31
0.0
  0
ENDBLK
  5
15CA
  8
0
  0
BLOCK
  8
0
  2
*U45
 70
     1
 10
0.0
 20
0.0
 30
0.0
  3
*U45
  1
*U
  0
LINE
  5
15CE
  8
-BHMU
 10
13.0
 20
2.458499999999999
 30
0.0
 11
13.0
 21
-2.458499999999999
 31
0.0
  0
LINE
  5
15CF
  8
-BHMU
 10
0.0
 20
2.458499999999999
 30
0.0
 11
0.0
 21
-2.458499999999999
 31
0.0
  0
LINE
  5
15D0
  8
BHMM
 10
0.0
 20
-2.458499999999999
 30
0.0
 11
13.0
 21
-2.458499999999999
 31
0.0
  0
LINE
  5
15D1
  8
THLI
 10
0.0
 20
-3.0
 30
0.0
 11
12.999999999999989
 21
-3.0
 31
0.0
  0
LINE
  5
15D2
  8
CENN
 10
-3.0
 20
0.0
 30
0.0
 11
16.0
 21
0.0
 31
0.0
  0
LINE
  5
15D3
  8
BHMM
 10
0.0
 20
2.458499999999999
 30
0.0
 11
13.0
 21
2.458499999999999
 31
0.0
  0
LINE
  5
15D4
  8
THLI
 10
0.0
 20
3.0
 30
0.0
 11
12.999999999999989
 21
3.0
 31
0.0
  0
ENDBLK
  5
15D5
  8
0
  0
BLOCK
  8
0
  2
*U46
 70
     1
 10
0.0
 20
0.0
 30
0.0
  3
*U46
  1
*U
  0
INSERT
  5
15D8
  8
GEV_FROZEN
  2
*U45
 10
0.0
 20
0.0
 30
0.0
 41
0.1
 42
0.1
 43
0.1
1001
GENBH
1002
{
1000
-NOBRK
1002
}
  0
LINE
  5
15D9
  8
MSL_F12_32-3A
 10
0.0
 20
-2.458499999999999
 30
0.0
 11
13.0
 21
-2.458499999999999
 31
0.0
  0
LINE
  5
15DA
  8
MSL_F12_32-3A
 10
0.0
 20
-3.0
 30
0.0
 11
12.999999999999989
 21
-3.0
 31
0.0
  0
LINE
  5
15DB
  8
MSL_F12_32-7A
 10
-3.0
 20
0.0
 30
0.0
 11
16.0
 21
0.0
 31
0.0
  0
LINE
  5
15DC
  8
MSL_F12_32-3A
 10
0.0
 20
2.458499999999999
 30
0.0
 11
13.0
 21
2.458499999999999
 31
0.0
  0
LINE
  5
15DD
  8
MSL_F12_32-3A
 10
0.0
 20
3.0
 30
0.0
 11
12.999999999999989
 21
3.0
 31
0.0
  0
ENDBLK
  5
15DE
  8
0
  0
BLOCK
  8
0
  2
*U47
 70
     1
 10
0.0
 20
0.0
 30
0.0
  3
*U47
  1
*U
  0
LINE
  5
15E2
  8
-BHMU
 10
5.0
 20
4.2832249999999989
 30
0.0
 11
5.0
 21
-4.2832249999999989
 31
0.0
  0
LINE
  5
15E3
  8
-BHMU
 10
0.0
 20
4.2832249999999989
 30
0.0
 11
0.0
 21
-4.2832249999999989
 31
0.0
  0
LINE
  5
15E4
  8
BHMM
 10
0.0
 20
-4.2832249999999989
 30
0.0
 11
5.0
 21
-4.2832249999999989
 31
0.0
  0
LINE
  5
15E5
  8
THLI
 10
0.0
 20
-4.863999999999999
 30
0.0
 11
5.0
 21
-4.863999999999999
 31
0.0
  0
LINE
  5
15E6
  8
CENN
 10
-3.0
 20
0.0
 30
0.0
 11
8.0
 21
0.0
 31
0.0
  0
LINE
  5
15E7
  8
BHMM
 10
0.0
 20
4.2832249999999989
 30
0.0
 11
5.0
 21
4.2832249999999989
 31
0.0
  0
LINE
  5
15E8
  8
THLI
 10
0.0
 20
4.863999999999999
 30
0.0
 11
5.0
 21
4.863999999999999
 31
0.0
  0
ENDBLK
  5
15E9
  8
0
  0
BLOCK
  8
0
  2
*U48
 70
     1
 10
0.0
 20
0.0
 30
0.0
  3
*U48
  1
*U
  0
INSERT
  5
15EC
  8
GEV_FROZEN
  2
*U47
 10
0.0
 20
0.0
 30
0.0
 41
0.1
 42
0.1
 43
0.1
1001
GENBH
1002
{
1000
-NOBRK
1002
}
  0
LINE
  5
15ED
  8
ZYL_32_ISO6431-3A
 10
0.0
 20
-4.2832249999999989
 30
0.0
 11
5.0
 21
-4.2832249999999989
 31
0.0
  0
LINE
  5
15EE
  8
ZYL_32_ISO6431-3A
 10
0.0
 20
-4.863999999999999
 30
0.0
 11
5.0
 21
-4.863999999999999
 31
0.0
  0
LINE
  5
15EF
  8
ZYL_32_ISO6431-7A
 10
-3.0
 20
0.0
 30
0.0
 11
8.0
 21
0.0
 31
0.0
  0
LINE
  5
15F0
  8
ZYL_32_ISO6431-3A
 10
0.0
 20
4.2832249999999989
 30
0.0
 11
5.0
 21
4.2832249999999989
 31
0.0
  0
LINE
  5
15F1
  8
ZYL_32_ISO6431-3A
 10
0.0
 20
4.863999999999999
 30
0.0
 11
5.0
 21
4.863999999999999
 31
0.0
  0
ENDBLK
  5
15F2
  8
0
  0
BLOCK
  8
0
  2
*U49
 70
     1
 10
0.0
 20
0.0
 30
0.0
  3
*U49
  1
*U
  0
LINE
  5
15F6
  8
-BHMU
 10
5.0
 20
4.2832249999999989
 30
0.0
 11
5.0
 21
-4.2832249999999989
 31
0.0
  0
LINE
  5
15F7
  8
-BHMU
 10
0.0
 20
4.2832249999999989
 30
0.0
 11
0.0
 21
-4.2832249999999989
 31
0.0
  0
LINE
  5
15F8
  8
BHMM
 10
0.0
 20
-4.2832249999999989
 30
0.0
 11
5.0
 21
-4.2832249999999989
 31
0.0
  0
LINE
  5
15F9
  8
THLI
 10
0.0
 20
-4.863999999999999
 30
0.0
 11
5.0
 21
-4.863999999999999
 31
0.0
  0
LINE
  5
15FA
  8
CENN
 10
-3.0
 20
0.0
 30
0.0
 11
8.0
 21
0.0
 31
0.0
  0
LINE
  5
15FB
  8
BHMM
 10
0.0
 20
4.2832249999999989
 30
0.0
 11
5.0
 21
4.2832249999999989
 31
0.0
  0
LINE
  5
15FC
  8
THLI
 10
0.0
 20
4.863999999999999
 30
0.0
 11
5.0
 21
4.863999999999999
 31
0.0
  0
ENDBLK
  5
15FD
  8
0
  0
BLOCK
  8
0
  2
*U50
 70
     1
 10
0.0
 20
0.0
 30
0.0
  3
*U50
  1
*U
  0
INSERT
  5
1600
  8
GEV_FROZEN
  2
*U49
 10
0.0
 20
0.0
 30
0.0
 41
0.1
 42
0.1
 43
0.1
1001
GENBH
1002
{
1000
-NOBRK
1002
}
  0
LINE
  5
1601
  8
ZYL_32_ISO6431-3A
 10
0.0
 20
-4.2832249999999989
 30
0.0
 11
5.0
 21
-4.2832249999999989
 31
0.0
  0
LINE
  5
1602
  8
ZYL_32_ISO6431-3A
 10
0.0
 20
-4.863999999999999
 30
0.0
 11
5.0
 21
-4.863999999999999
 31
0.0
  0
LINE
  5
1603
  8
ZYL_32_ISO6431-7A
 10
-3.0
 20
0.0
 30
0.0
 11
8.0
 21
0.0
 31
0.0
  0
LINE
  5
1604
  8
ZYL_32_ISO6431-3A
 10
0.0
 20
4.2832249999999989
 30
0.0
 11
5.0
 21
4.2832249999999989
 31
0.0
  0
LINE
  5
1605
  8
ZYL_32_ISO6431-3A
 10
0.0
 20
4.863999999999999
 30
0.0
 11
5.0
 21
4.863999999999999
 31
0.0
  0
ENDBLK
  5
1606
  8
0
  0
BLOCK
  8
0
  2
*U51
 70
     1
 10
0.0
 20
0.0
 30
0.0
  3
*U51
  1
*U
  0
LINE
  5
160A
  8
CENN
 10
0.0
 20
-6.0
 30
0.0
 11
0.0
 21
5.9999999999999991
 31
0.0
  0
CIRCLE
  5
160B
  8
BHMM
 10
0.0
 20
0.0
 30
0.0
 40
2.458499999999999
  0
ARC
  5
160C
  8
THLI
 10
0.0
 20
0.0
 30
0.0
 40
3.0
 50
280.0
 51
209.99999999999989
  0
LINE
  5
160D
  8
CENN
 10
-5.9999999999999991
 20
0.0
 30
0.0
 11
5.9999999999999991
 21
0.0
 31
0.0
  0
ENDBLK
  5
160E
  8
0
  0
BLOCK
  8
0
  2
*U52
 70
     1
 10
0.0
 20
0.0
 30
0.0
  3
*U52
  1
*U
  0
INSERT
  5
1611
  8
GEV_FROZEN
  2
*U51
 10
0.0
 20
0.0
 30
0.0
 41
0.1
 42
0.1
 43
0.1
1001
GENBH
1002
{
1000
-NOBRK
1002
}
  0
LINE
  5
1612
  8
MSL_F12_32-7A
 10
0.0
 20
-6.0
 30
0.0
 11
0.0
 21
5.9999999999999991
 31
0.0
  0
CIRCLE
  5
1613
  8
MSL_F12_32-0
 10
0.0
 20
0.0
 30
0.0
 40
2.458499999999999
  0
ARC
  5
1614
  8
MSL_F12_32-4
 10
0.0
 20
0.0
 30
0.0
 40
3.0
 50
280.0
 51
209.99999999999989
  0
LINE
  5
1615
  8
MSL_F12_32-7A
 10
-5.9999999999999991
 20
0.0
 30
0.0
 11
5.9999999999999991
 21
0.0
 31
0.0
  0
ENDBLK
  5
1616
  8
0
  0
BLOCK
  8
0
  2
*U53
 70
     1
 10
0.0
 20
0.0
 30
0.0
  3
*U53
  1
*U
  0
LINE
  5
161A
  8
CENN
 10
0.0
 20
-6.0
 30
0.0
 11
0.0
 21
5.9999999999999991
 31
0.0
  0
CIRCLE
  5
161B
  8
BHMM
 10
0.0
 20
0.0
 30
0.0
 40
2.458499999999999
  0
ARC
  5
161C
  8
THLI
 10
0.0
 20
0.0
 30
0.0
 40
3.0
 50
280.0
 51
209.99999999999989
  0
LINE
  5
161D
  8
CENN
 10
-5.9999999999999991
 20
0.0
 30
0.0
 11
5.9999999999999991
 21
0.0
 31
0.0
  0
ENDBLK
  5
161E
  8
0
  0
BLOCK
  8
0
  2
*U54
 70
     1
 10
0.0
 20
0.0
 30
0.0
  3
*U54
  1
*U
  0
INSERT
  5
1621
  8
GEV_FROZEN
  2
*U53
 10
0.0
 20
0.0
 30
0.0
 41
0.1
 42
0.1
 43
0.1
1001
GENBH
1002
{
1000
-NOBRK
1002
}
  0
LINE
  5
1622
  8
MSL_F12_32-7A
 10
0.0
 20
-6.0
 30
0.0
 11
0.0
 21
5.9999999999999991
 31
0.0
  0
CIRCLE
  5
1623
  8
MSL_F12_32-0
 10
0.0
 20
0.0
 30
0.0
 40
2.458499999999999
  0
ARC
  5
1624
  8
MSL_F12_32-4
 10
0.0
 20
0.0
 30
0.0
 40
3.0
 50
280.0
 51
209.99999999999989
  0
LINE
  5
1625
  8
MSL_F12_32-7A
 10
-5.9999999999999991
 20
0.0
 30
0.0
 11
5.9999999999999991
 21
0.0
 31
0.0
  0
ENDBLK
  5
1626
  8
0
  0
BLOCK
  8
0
  2
*U55
 70
     1
 10
0.0
 20
0.0
 30
0.0
  3
*U55
  1
*U
  0
LINE
  5
162A
  8
CENN
 10
0.0
 20
-6.0
 30
0.0
 11
0.0
 21
5.9999999999999991
 31
0.0
  0
CIRCLE
  5
162B
  8
BHMM
 10
0.0
 20
0.0
 30
0.0
 40
2.458499999999999
  0
ARC
  5
162C
  8
THLI
 10
0.0
 20
0.0
 30
0.0
 40
3.0
 50
280.0
 51
209.99999999999989
  0
LINE
  5
162D
  8
CENN
 10
-5.9999999999999991
 20
0.0
 30
0.0
 11
5.9999999999999991
 21
0.0
 31
0.0
  0
ENDBLK
  5
162E
  8
0
  0
BLOCK
  8
0
  2
*U56
 70
     1
 10
0.0
 20
0.0
 30
0.0
  3
*U56
  1
*U
  0
INSERT
  5
1631
  8
GEV_FROZEN
  2
*U55
 10
0.0
 20
0.0
 30
0.0
 41
0.1
 42
0.1
 43
0.1
1001
GENBH
1002
{
1000
-NOBRK
1002
}
  0
LINE
  5
1632
  8
MSL_F12_32-7A
 10
0.0
 20
-6.0
 30
0.0
 11
0.0
 21
5.9999999999999991
 31
0.0
  0
CIRCLE
  5
1633
  8
MSL_F12_32-0
 10
0.0
 20
0.0
 30
0.0
 40
2.458499999999999
  0
ARC
  5
1634
  8
MSL_F12_32-4
 10
0.0
 20
0.0
 30
0.0
 40
3.0
 50
280.0
 51
209.99999999999989
  0
LINE
  5
1635
  8
MSL_F12_32-7A
 10
-5.9999999999999991
 20
0.0
 30
0.0
 11
5.9999999999999991
 21
0.0
 31
0.0
  0
ENDBLK
  5
1636
  8
0
  0
BLOCK
  8
0
  2
*U57
 70
     1
 10
0.0
 20
0.0
 30
0.0
  3
*U57
  1
*U
  0
LINE
  5
163A
  8
CENN
 10
0.0
 20
-6.0
 30
0.0
 11
0.0
 21
5.9999999999999991
 31
0.0
  0
CIRCLE
  5
163B
  8
BHMM
 10
0.0
 20
0.0
 30
0.0
 40
2.458499999999999
  0
ARC
  5
163C
  8
THLI
 10
0.0
 20
0.0
 30
0.0
 40
3.0
 50
280.0
 51
209.99999999999989
  0
LINE
  5
163D
  8
CENN
 10
-5.9999999999999991
 20
0.0
 30
0.0
 11
5.9999999999999991
 21
0.0
 31
0.0
  0
ENDBLK
  5
163E
  8
0
  0
BLOCK
  8
0
  2
*U58
 70
     1
 10
0.0
 20
0.0
 30
0.0
  3
*U58
  1
*U
  0
INSERT
  5
1641
  8
GEV_FROZEN
  2
*U57
 10
0.0
 20
0.0
 30
0.0
 41
0.1
 42
0.1
 43
0.1
1001
GENBH
1002
{
1000
-NOBRK
1002
}
  0
LINE
  5
1642
  8
MSL_F12_32-7A
 10
0.0
 20
-6.0
 30
0.0
 11
0.0
 21
5.9999999999999991
 31
0.0
  0
CIRCLE
  5
1643
  8
MSL_F12_32-0
 10
0.0
 20
0.0
 30
0.0
 40
2.458499999999999
  0
ARC
  5
1644
  8
MSL_F12_32-4
 10
0.0
 20
0.0
 30
0.0
 40
3.0
 50
280.0
 51
209.99999999999989
  0
LINE
  5
1645
  8
MSL_F12_32-7A
 10
-5.9999999999999991
 20
0.0
 30
0.0
 11
5.9999999999999991
 21
0.0
 31
0.0
  0
ENDBLK
  5
1646
  8
0
  0
BLOCK
  8
0
  2
GENTPOS0
 70
     0
 10
0.0
 20
0.0
 30
0.0
  3
GENTPOS0
  1

  0
LINE
  5
1695
  8
0
 10
-182.88486883698579
 20
0.0000000000000178
 30
0.0
 11
-0.0000000000000015
 21
0.0
 31
0.0
  0
LINE
  5
1696
  8
AM_BOR
 62
     1
 10
-159.88486883698579
 20
4.5000000000000258
 30
0.0
 11
0.0
 21
4.5
 31
0.0
1001
GENIUS_GENBLLY_14
1000
BOR2
  0
LINE
  5
1698
  8
AM_BOR
 62
     1
 10
-182.88486883698579
 20
9.0000000000000178
 30
0.0
 11
0.0000000000000015
 21
8.9999999999999716
 31
0.0
1001
GENIUS_GENBLLY_14
1000
BOR2
  0
LINE
  5
1699
  8
0
 10
-182.88486883698579
 20
4.5000000000000178
 30
0.0
 11
-182.88486883698579
 21
9.0000000000000178
 31
0.0
  0
LINE
  5
169A
  8
0
 10
-182.88486883698579
 20
0.0000000000000178
 30
0.0
 11
-182.88486883698579
 21
4.5000000000000178
 31
0.0
  0
LINE
  5
169B
  8
AM_BOR
 62
     1
 10
-159.88486883698579
 20
4.5000000000000284
 30
0.0
 11
-159.88486883698579
 21
0.0862588319893405
 31
0.0
1001
GENIUS_GENBLLY_14
1000
BOR2
  0
LINE
  5
169C
  8
AM_BOR
 62
     1
 10
-171.88486883698579
 20
4.5000000000000488
 30
0.0
 11
-171.88486883698579
 21
0.0862588319893618
 31
0.0
1001
GENIUS_GENBLLY_14
1000
BOR2
  0
LINE
  5
169D
  8
AM_BOR
 62
     1
 10
-171.88486883698579
 20
9.0000000000000782
 30
0.0
 11
-171.88486883698579
 21
4.5000000000000782
 31
0.0
1001
GENIUS_GENBLLY_14
1000
BOR2
  0
LINE
  5
169E
  8
AM_BOR
 62
     1
 10
-159.88486883698579
 20
9.0000000000000568
 30
0.0
 11
-159.88486883698579
 21
4.500000000000056
 31
0.0
1001
GENIUS_GENBLLY_14
1000
BOR2
  0
LINE
  5
169F
  8
AM_BOR
 62
     1
 10
-99.164153522206277
 20
4.5000000000000284
 30
0.0
 11
-99.164153522206277
 21
0.0000000000000284
 31
0.0
1001
GENIUS_GENBLLY_14
1000
BOR2
  0
LINE
  5
16A0
  8
AM_BOR
 62
     1
 10
-99.164153522206277
 20
9.0000000000000284
 30
0.0
 11
-99.164153522206277
 21
4.5000000000000284
 31
0.0
1001
GENIUS_GENBLLY_14
1000
BOR2
  0
TEXT
  5
16A1
  8
AM_BOR
 62
     1
 10
-40.533941491700602
 20
5.7632297189300914
 30
0.0
 40
2.0
  1
(genmsg "gendwg" 39){20.2}
1001
GENIUS_GENBLLY_14
1000
BOR3
  0
TEXT
  5
16A2
  8
AM_BOR
 62
     1
 10
-40.533941491700602
 20
0.9821435911503897
 30
0.0
 40
2.0
  1
(genmsg "gendwg" 40){20.2}
1001
GENIUS_GENBLLY_14
1000
BOR3
  0
LINE
  5
16A3
  8
AM_BOR
 62
     1
 10
-42.513122670274811
 20
4.500000000000056
 30
0.0
 11
-42.513122670274811
 21
0.0000000000000568
 31
0.0
1001
GENIUS_GENBLLY_14
1000
BOR2
  0
LINE
  5
16A4
  8
AM_BOR
 62
     1
 10
-42.513122670274811
 20
9.0000000000000284
 30
0.0
 11
-42.513122670274811
 21
4.5000000000000284
 31
0.0
1001
GENIUS_GENBLLY_14
1000
BOR2
  0
LINE
  5
16A5
  8
0
 10
0.0
 20
4.5
 30
0.0
 11
0.0000000000000015
 21
9.0
 31
0.0
  0
LINE
  5
16A6
  8
0
 10
-0.0000000000000015
 20
0.0
 30
0.0
 11
0.0
 21
4.5
 31
0.0
  0
TEXT
  5
16A7
  8
AM_BOR
 62
     1
 10
-98.203639361584706
 20
5.608505873506747
 30
0.0
 40
2.0
  1
(genmsg "gendwg" 37){27.5}
1001
GENIUS_GENBLLY_14
1000
BOR3
  0
TEXT
  5
16A8
  8
AM_BOR
 62
     1
 10
-98.138699945075587
 20
1.1000500179945081
 30
0.0
 40
2.0
  1
(genmsg "gendwg" 38){27.5}
1001
GENIUS_GENBLLY_14
1000
BOR3
  0
TEXT
  5
16A9
  8
AM_BOR
 62
     1
 10
-159.1934076074175
 20
5.5341521628883221
 30
0.0
 40
2.0
  1
(genmsg "gendwg" 35){22.7}
1001
GENIUS_GENBLLY_14
1000
BOR3
  0
TEXT
  5
16AA
  8
AM_BOR
 62
     1
 10
-159.06352877439929
 20
1.1867960137159941
 30
0.0
 40
2.0
  1
(genmsg "gendwg" 36){22.7}
1001
GENIUS_GENBLLY_14
1000
BOR3
  0
TEXT
  5
16AB
  8
AM_BOR
 62
     1
 10
-182.06352877439929
 20
5.8640344583101331
 30
0.0
 40
2.0
  1
(genmsg "gendwg" 29){7.6}
1001
GENIUS_GENBLLY_14
1000
BOR3
  0
TEXT
  5
16AC
  8
AM_BOR
 62
     1
 10
-171.06352877439929
 20
5.6509601097971291
 30
0.0
 40
2.0
  1
(genmsg "gendwg" 32){5.3}
1001
GENIUS_GENBLLY_14
1000
BOR3
  0
TEXT
  5
16AD
  8
AM_BOR
 62
     1
 10
-8.7000000000000028
 20
5.7632297189300914
 30
0.0
 40
2.0
  1
Länge
 72
     2
 11
-2.0
 21
5.7632297189300914
 31
0.0
1001
GENIUS_GENBLLY_14
1000
BOR3
  0
ENDBLK
  5
16AF
  8
0
  0
BLOCK
  8
0
  2
GENTPOS1
 70
     2
 10
0.0
 20
0.0
 30
0.0
  3
GENTPOS1
  1

  0
LINE
  5
16B1
  8
0
 10
-182.8848688369859
 20
0.0000000000000853
 30
0.0
 11
-182.8848688369859
 21
4.5000000000000853
 31
0.0
  0
ATTDEF
  5
16B2
  8
AM_BOR
 62
     2
 10
-158.9507488793445
 20
1.462817121073982
 30
0.0
 40
2.0
  1

  3
(GENMSG "GENDWG" 35)
  2
6GENST{22.7}
 70
     0
1001
GENIUS_GENBLLY_14
1000
BOR3
  0
LINE
  5
16B3
  8
AM_BOR
 62
     1
 10
-171.88486883698579
 20
4.5000000000000284
 30
0.0
 11
-171.88486883698579
 21
0.0000000000000284
 31
0.0
1001
GENIUS_GENBLLY_14
1000
BOR2
  0
LINE
  5
16B4
  8
AM_BOR
 62
     1
 10
-159.88486883698579
 20
4.5
 30
0.0
 11
-159.88486883698579
 21
0.0
 31
0.0
1001
GENIUS_GENBLLY_14
1000
BOR2
  0
ATTDEF
  5
16B5
  8
AM_BOR
 62
     2
 10
-98.306544560848366
 20
1.4628467178702631
 30
0.0
 40
2.0
  1

  3
(GENMSG "GENDWG" 37)
  2
8GENST{27.5}
 70
     0
1001
GENIUS_GENBLLY_14
1000
BOR3
  0
LINE
  5
16B6
  8
AM_BOR
 62
     1
 10
-99.164153522206334
 20
4.4999999999999849
 30
0.0
 11
-99.164153522206334
 21
0.0
 31
0.0
1001
GENIUS_GENBLLY_14
1000
BOR2
  0
ATTDEF
  5
16B7
  8
AM_BOR
 62
     2
 10
-41.188800557918512
 20
1.4535630554862271
 30
0.0
 40
2.0
  1

  3
(GENMSG "GENDWG" 39)
  2
10GENST{20.2}
 70
     0
1001
GENIUS_GENBLLY_14
1000
BOR3
  0
LINE
  5
16B8
  8
AM_BOR
 62
     1
 10
-42.513122670274811
 20
4.4999999999999707
 30
0.0
 11
-42.513122670274811
 21
0.0
 31
0.0
1001
GENIUS_GENBLLY_14
1000
BOR2
  0
LINE
  5
16B9
  8
0
 10
0.0
 20
4.4999999999999574
 30
0.0
 11
0.0
 21
0.0
 31
0.0
  0
LINE
  5
16BA
  8
AM_BOR
 62
     1
 10
-159.88486883698579
 20
4.5
 30
0.0
 11
0.0
 21
4.5000000000001696
 31
0.0
1001
GENIUS_GENBLLY_14
1000
BOR2
  0
ENDBLK
  5
16BC
  8
0
  0
BLOCK
  8
0
  2
GENTPOS2
 70
     2
 10
0.0
 20
0.0
 30
0.0
  3
GENTPOS2
  1

  0
ATTDEF
  5
16BE
  8
AM_BOR
 62
     2
 10
-181.98804960497549
 20
-25.67901407093678
 30
0.0
 40
2.0
  1

  3

  2
ITEM
 70
     0
1001
GENIUS_GENBLLY_14
1000
BOR3
  0
ATTDEF
  5
16BF
  8
AM_BOR
 62
     2
 10
-170.98804960497549
 20
-25.679014070936759
 30
0.0
 40
2.0
  1

  3

  2
QTY
 70
     0
1001
GENIUS_GENBLLY_14
1000
BOR3
  0
ATTDEF
  5
16C0
  8
AM_BOR
 62
     2
 10
-158.98804960497549
 20
-25.67901407093678
 30
0.0
 40
2.0
  1

  3
(GENMSG "GENDWG" 36)
  2
5GENST{22.7}
 70
     0
1001
GENIUS_GENBLLY_14
1000
BOR3
  0
ATTDEF
  5
16C1
  8
AM_BOR
 62
     2
 10
-98.127090248452362
 20
-25.678984474140499
 30
0.0
 40
2.0
  1

  3
(GENMSG "GENDWG" 38)
  2
7GENST{27.5}
 70
     0
1001
GENIUS_GENBLLY_14
1000
BOR3
  0
ATTDEF
  5
16C2
  8
AM_BOR
 62
     2
 10
-41.355436705145102
 20
-25.484027564075731
 30
0.0
 40
2.0
  1

  3
(GENMSG "GENDWG" 40)
  2
9GENST{20.2}
 70
     0
1001
GENIUS_GENBLLY_14
1000
BOR3
  0
ATTDEF
  5
16C3
  8
AM_BOR
 62
     2
 10
-2.0000000000001128
 20
-25.546436944513609
 30
0.0
 40
2.0
  1

 72
     2
 11
-2.0000000000001128
 21
-25.546436944513609
 31
0.0
  3

  2
DIM
 70
     0
1001
GENIUS_GENBLLY_14
1000
BOR3
  0
LINE
  5
16C4
  8
AM_BOR
 62
     1
 10
-182.8848688369859
 20
-22.49999999999984
 30
0.0
 11
-0.0000000000001137
 21
-22.49999999999984
 31
0.0
1001
GENIUS_GENBLLY_14
1000
BOR2
  0
LINE
  5
16C5
  8
0
 10
-182.8848688369859
 20
-26.99999999999984
 30
0.0
 11
-182.8848688369859
 21
-22.49999999999984
 31
0.0
  0
LINE
  5
16C6
  8
AM_BOR
 62
     1
 10
-171.8848688369859
 20
-22.499999999999801
 30
0.0
 11
-171.8848688369859
 21
-26.999999999999801
 31
0.0
1001
GENIUS_GENBLLY_14
1000
BOR2
  0
LINE
  5
16C7
  8
AM_BOR
 62
     1
 10
-159.8848688369859
 20
-22.49999999999984
 30
0.0
 11
-159.8848688369859
 21
-26.99999999999984
 31
0.0
1001
GENIUS_GENBLLY_14
1000
BOR2
  0
LINE
  5
16C8
  8
AM_BOR
 62
     1
 10
-99.164153522206391
 20
-22.499999999999851
 30
0.0
 11
-99.164153522206391
 21
-26.99999999999984
 31
0.0
1001
GENIUS_GENBLLY_14
1000
BOR2
  0
LINE
  5
16C9
  8
AM_BOR
 62
     1
 10
-42.513122670274861
 20
-22.499999999999869
 30
0.0
 11
-42.513122670274861
 21
-26.99999999999984
 31
0.0
1001
GENIUS_GENBLLY_14
1000
BOR2
  0
LINE
  5
16CA
  8
0
 10
-0.0000000000000568
 20
-22.499999999999879
 30
0.0
 11
-0.0000000000000568
 21
-26.99999999999984
 31
0.0
  0
ENDBLK
  5
16CC
  8
0
  0
BLOCK
  8
0
  2
GENTPOS
 70
     2
 10
0.0
 20
0.0
 30
0.0
  3
GENTPOS
  1

  0
ATTDEF
  5
16CE
  8
0
 10
0.0
 20
9.0
 30
0.0
 40
2.5
  1
4
  3

  2
_ALWAYS
 70
     3
  0
INSERT
  5
16CF
  8
0
  2
GENTPOS0
 10
0.0
 20
0.0
 30
0.0
  0
INSERT
  5
16D0
  8
0
 66
     1
  2
GENTPOS1
 10
0.0000000000000015
 20
9.0
 30
0.0
  0
ATTRIB
  5
16D1
  8
AM_BOR
 62
     2
 10
-42.513122670274811
 20
9.0
 30
0.0
 40
2.0
  1

  2
3GENST{6.3}
 70
     0
1001
GENIUS_GENBLLY_14
1000
BOR3
  0
ATTRIB
  5
16D2
  8
AM_BOR
 62
     2
 10
-99.164153522206334
 20
9.0000000000000284
 30
0.0
 40
2.0
  1

  2
1GENST{7.6}
 70
     0
1001
GENIUS_GENBLLY_14
1000
BOR3
  0
ATTRIB
  5
16D3
  8
AM_BOR
 62
     2
 10
-145.5207488793445
 20
10.46281712107398
 30
0.0
 40
2.0
  1

  2
5GENST{22.7}
 70
     0
1001
GENIUS_GENBLLY_14
1000
BOR3
  0
ATTRIB
  5
16D4
  8
AM_BOR
 62
     2
 10
-146.45486883698581
 20
9.0
 30
0.0
 40
2.0
  1

  2
2GENST{5.3}
 70
     0
1001
GENIUS_GENBLLY_14
1000
BOR3
  0
ATTRIB
  5
16D5
  8
AM_BOR
 62
     2
 10
-98.306544560848366
 20
10.46284671787026
 30
0.0
 40
2.0
  1

  2
7GENST{27.5}
 70
     0
1001
GENIUS_GENBLLY_14
1000
BOR3
  0
ATTRIB
  5
16D6
  8
AM_BOR
 62
     2
 10
-41.188800557918512
 20
10.453563055486219
 30
0.0
 40
2.0
  1

  2
9GENST{20.2}
 70
     0
1001
GENIUS_GENBLLY_14
1000
BOR3
  0
SEQEND
  5
16D7
  8
0
  0
INSERT
  5
16D8
  8
0
 66
     1
  2
GENTPOS2
 10
0.0000000000000583
 20
40.500000000000007
 30
0.0
  0
ATTRIB
  5
16D9
  8
AM_BOR
 62
     2
 10
-181.9880496049754
 20
14.82098592906322
 30
0.0
 40
2.0
  1

  2
ITEM
 70
     0
  0
ATTRIB
  5
16DA
  8
AM_BOR
 62
     2
 10
-170.9880496049754
 20
14.82098592906326
 30
0.0
 40
2.0
  1

  2
QTY
 70
     0
  0
ATTRIB
  5
16DB
  8
AM_BOR
 62
     2
 10
-158.9880496049754
 20
14.82098592906322
 30
0.0
 40
2.0
  1

  2
5GENST{22.7}
 70
     0
  0
ATTRIB
  5
16DC
  8
AM_BOR
 62
     2
 10
-98.127090248452305
 20
14.821015525859501
 30
0.0
 40
2.0
  1

  2
7GENST{27.5}
 70
     0
  0
ATTRIB
  5
16DD
  8
AM_BOR
 62
     2
 10
-41.355436705145053
 20
15.015972435924279
 30
0.0
 40
2.0
  1

  2
9GENST{20.2}
 70
     0
  0
ATTRIB
  5
16DE
  8
AM_BOR
 62
     2
 10
-2.0000000000000551
 20
14.95356305548639
 30
0.0
 40
2.0
  1

 72
     2
 11
-2.0000000000000551
 21
14.95356305548639
 31
0.0
  2
DIM
 70
     0
  0
SEQEND
  5
16DF
  8
0
  0
ENDBLK
  5
16E1
  8
0
  0
BLOCK
  8
0
  2
GENAXEH
 70
     0
 10
0.0
 20
0.0
 30
0.0
  3
GENAXEH
  1

  0
LINE
  5
16F6
  8
0
 10
-1.0
 20
0.0
 30
0.0
 11
1.0
 21
0.0
 31
0.0
  0
ENDBLK
  5
16F8
  8
0
  0
ENDSEC
  0
SECTION
  2
ENTITIES
  0
LINE
  5
1122
  8
MSF12-0
 10
-10.0
 20
44.500000000000021
 30
0.0
 11
10.0
 21
44.500000000000021
 31
0.0
  0
POLYLINE
  5
1123
  8
MSF12-4
 66
     1
 10
0.0
 20
0.0
 30
0.0
  0
VERTEX
  5
1124
  8
MSF12-4
 10
-7.0270549999999607
 20
44.500000000000021
 30
0.0
  0
VERTEX
  5
1125
  8
MSF12-4
 10
-6.2994509999999764
 20
43.253471999999981
 30
0.0
  0
VERTEX
  5
1126
  8
MSF12-4
 10
-7.093201000000021
 20
41.269096999999981
 30
0.0
  0
VERTEX
  5
1127
  8
MSF12-4
 10
-6.6301799999999949
 20
40.144618000000008
 30
0.0
  0
VERTEX
  5
1128
  8
MSF12-4
 10
-6.1671589999999687
 20
39.483159999999998
 30
0.0
  0
VERTEX
  5
1129
  8
MSF12-4
 10
-6.1010139999999629
 20
37.895659999999992
 30
0.0
  0
VERTEX
  5
112A
  8
MSF12-4
 10
-5.1749719999999684
 20
35.911284999999992
 30
0.0
  0
VERTEX
  5
112B
  8
MSF12-4
 10
-3.8520549999999498
 20
35.977430999999989
 30
0.0
  0
VERTEX
  5
112C
  8
MSF12-4
 10
-1.2723679999999711
 20
35.315971999999981
 30
0.0
  0
VERTEX
  5
112D
  8
MSF12-4
 10
1.241174
 20
35.382117999999991
 30
0.0
  0
VERTEX
  5
112E
  8
MSF12-4
 10
4.2838820000000046
 20
36.109721999999998
 30
0.0
  0
VERTEX
  5
112F
  8
MSF12-4
 10
5.0776319999999942
 20
39.086284999999968
 30
0.0
  0
VERTEX
  5
1130
  8
MSF12-4
 10
3.5562780000000198
 20
40.409202000000022
 30
0.0
  0
VERTEX
  5
1131
  8
MSF12-4
 10
4.0854450000000488
 20
42.856596999999987
 30
0.0
  0
VERTEX
  5
1132
  8
MSF12-4
 10
5.2760700000000043
 20
44.500000000000021
 30
0.0
  0
SEQEND
  5
1133
  8
MSF12-4
  0
LINE
  5
1134
  8
MSF12-8
 10
2.0
 20
35.957378999999968
 30
0.0
 11
5.058987000000001
 21
39.016365
 31
0.0
  0
LINE
  5
1135
  8
ZYL_32_ISO6431-4A
 10
-4.90748000000002
 20
8.5
 30
0.0
 11
4.9074699999999893
 21
8.5
 31
0.0
  0
LINE
  5
1136
  8
ZYL_32_ISO6431-3
 10
-10.0
 20
25.000000000000028
 30
0.0
 11
10.0
 21
25.0
 31
0.0
  0
CIRCLE
  5
1137
  8
ZYL_32_ISO6431-4A
 10
0.0
 20
0.0
 30
0.0
 40
5.0
  0
LINE
  5
1138
  8
ZYL_32_ISO6431-4A
 10
-4.90748000000002
 20
-8.5
 30
0.0
 11
4.90748000000002
 21
-8.5
 31
0.0
  0
CIRCLE
  5
1139
  8
ZYL_32_ISO6431-4A
 10
0.0
 20
0.0
 30
0.0
 40
5.0625
  0
LINE
  5
113A
  8
ZYL_32_ISO6431-4A
 10
0.0
 20
-25.0
 30
0.0
 11
16.25
 21
-25.0
 31
0.0
  0
CIRCLE
  5
113B
  8
ZYL_32_ISO6431-4A
 10
0.0
 20
0.0
 30
0.0
 40
8.5
  0
CIRCLE
  5
113C
  8
ZYL_32_ISO6431-4A
 10
0.0
 20
0.0
 30
0.0
 40
6.0
  0
CIRCLE
  5
113D
  8
MSL_F12_32-0
 10
0.0000000000048885
 20
0.0
 30
0.0
 40
14.999999999999829
  0
POLYLINE
  5
113E
  8
MSF12-3
 66
     1
 10
0.0
 20
0.0
 30
0.0
1001
GENIUS_GENBH_13
1002
{
1000
OE
1000
CON1
1002
}
  0
VERTEX
  5
113F
  8
MSF12-3
 10
10.0
 20
-17.500000000003009
 30
0.0
  0
VERTEX
  5
1140
  8
MSF12-3
 10
-10.0
 20
-17.5
 30
0.0
  0
VERTEX
  5
1141
  8
MSF12-3
 10
-10.0
 20
0.0
 30
0.0
  0
VERTEX
  5
1142
  8
MSF12-3
 10
-10.0
 20
22.499999999999169
 30
0.0
  0
SEQEND
  5
1143
  8
MSF12-3
  0
CIRCLE
  5
1144
  8
MSL_F12_32-3
 10
0.0
 20
0.0
 30
0.0
 40
17.500000000001819
  0
LINE
  5
1145
  8
ZYL_32_ISO6431-7
 10
-35.0
 20
-0.000001529900004
 30
0.0
 11
35.0
 21
0.000001529900004
 31
0.0
  0
POLYLINE
  5
1146
  8
MSL_F12_32-0
 66
     1
 10
0.0
 20
0.0
 30
0.0
 70
     1
1001
GENIUS_GENODEF_13
1002
{
1000
HIER
1070
     0
1002
}
1002
{
1000
MANEDIT
1070
     0
1002
}
1002
{
1000
NOSEL
1070
     0
1002
}
1002
{
1000
BEHIND
1070
     0
1002
}
1002
{
1000
REACTOR
1002
}
1001
GENIUS_GENOBJ-N-REC_13
1002
{
1000
OWNER
1000
GEN
1002
}
  0
VERTEX
  5
1147
  8
MSL_F12_32-0
 10
-21.499999999996358
 20
-22.499999999999279
 30
0.0
  0
VERTEX
  5
1148
  8
MSL_F12_32-0
 10
21.500000000003642
 20
-22.499999999999279
 30
0.0
  0
VERTEX
  5
1149
  8
MSL_F12_32-0
 10
22.500000000003631
 20
-21.499999999999279
 30
0.0
  0
VERTEX
  5
114A
  8
MSL_F12_32-0
 10
22.500000000003631
 20
21.499999999999972
 30
0.0
  0
VERTEX
  5
114B
  8
MSL_F12_32-0
 10
21.500000000003642
 20
22.499999999999972
 30
0.0
  0
VERTEX
  5
114C
  8
MSL_F12_32-0
 10
-21.499999999996302
 20
22.5
 30
0.0
  0
VERTEX
  5
114D
  8
MSL_F12_32-0
 10
-22.499999999996302
 20
21.499999999999989
 30
0.0
  0
VERTEX
  5
114E
  8
MSL_F12_32-0
 10
-22.499999999996358
 20
-21.499999999999279
 30
0.0
  0
SEQEND
  5
114F
  8
MSL_F12_32-0
  0
INSERT
  5
1151
  8
MSL_F12_32-0
  2
*U46
 10
-255.03016722581
 20
-16.249998847757439
 30
0.0
 50
0.0000000000020982
1001
GENIUS_GEFPARTINS_13
1002
{
1011
-255.03016722581
1021
0.0
1031
0.0
1021
-16.249998847757439
1031
0.0
1013
1.0
1023
0.0
1033
0.0
1023
0.0000000000000366
1033
0.0
1002
}
1001
GEVPT
1002
{
1000
-V$PV_GENSYSTEM"GEF\VAL\DI\0401\DI1616_V.DXF"
1000
-FIXPLOTI=1.300000000000000E+01
1000
-GPGEVBHOP=2
1000
-GPGEF_PROCALC=1
1000
-GPGEF_FLIPY=1
1000
-GPGEF_FLIPX=1
1000
-GPGEF_SNK_ADD=0
1000
-GPGEVPROMPTX=Länge:
1000
-GPGEF_OANG=70
1000
-GPGEF_STANG=210
1000
-GPGEF_DRAG=1
1000
-GPGEF_CDIST=3
1000
-GPVCC_TABLE=C:\GENIUS\gef\val\di\0401\di1616.val
1000
-GPNND=6
1000
-GPPRE=M
1002
}
1001
GENIUS_GENOREF_13
1005
13CB
1001
VCC
1002
{
1000
-ID22
1000
-IE4
1000
-IK22
1000
-V$PV_GENSYSTEM"GEF\VAL\DI\0401\DI1616_V.DXF"
1002
}
1001
GEVIT
1002
{
1000
-BEHI3.00000001
1000
-BVCCT0
1000
-T2
1000
-GRP0MSL_F12_32-0
1000
-BAML2
1000
-BASK1
1000
-NT0
1000
-DOC
1005
15CD
1000
-MYREF
1005
1151
1002
}
1001
GEVMK
1002
{
1000
-CO
1000
-MYREF
1005
1151
1002
}
1001
GEVID884352790
1002
{
1002
}
  0
INSERT
  5
1152
  8
MSL_F12_32-0
  2
*U44
 10
-255.03016722581151
 20
16.2500011522473
 30
0.0
 50
0.0000000000020825
1001
GENIUS_GEFPARTINS_13
1002
{
1011
-255.03016722581151
1021
0.0
1031
0.0
1021
16.2500011522473
1031
0.0
1013
1.0
1023
0.0
1033
0.0
1023
0.0000000000000363
1033
0.0
1002
}
1001
GEVPT
1002
{
1000
-V$PV_GENSYSTEM"GEF\VAL\DI\0401\DI1616_V.DXF"
1000
-FIXPLOTI=1.300000000000023E+01
1000
-GPGEVBHOP=2
1000
-GPGEF_PROCALC=1
1000
-GPGEF_FLIPY=1
1000
-GPGEF_FLIPX=1
1000
-GPGEF_SNK_ADD=0
1000
-GPGEVPROMPTX=Länge:
1000
-GPGEF_OANG=70
1000
-GPGEF_STANG=210
1000
-GPGEF_DRAG=1
1000
-GPGEF_CDIST=3
1000
-GPVCC_TABLE=C:\GENIUS\gef\val\di\0401\di1616.val
1000
-GPNND=6
1000
-GPPRE=M
1002
}
1001
GENIUS_GENOREF_13
1005
13CA
1001
VCC
1002
{
1000
-ID21
1000
-IE3
1000
-IK21
1000
-V$PV_GENSYSTEM"GEF\VAL\DI\0401\DI1616_V.DXF"
1002
}
1001
GEVIT
1002
{
1000
-BEHI2.00000001
1000
-BVCCT0
1000
-T2
1000
-GRP0MSL_F12_32-0
1000
-BAML2
1000
-BASK1
1000
-NT0
1000
-DOC
1005
15B9
1000
-MYREF
1005
1152
1002
}
1001
GEVMK
1002
{
1000
-CO
1000
-MYREF
1005
1152
1002
}
1001
GEVID884352789
1002
{
1002
}
  0
INSERT
  5
1153
  8
MSL_F12_32-0
  2
*U26
 10
-255.03016722581
 20
-112.2801672258129
 30
0.0
 50
0.0000000000020982
1001
GENIUS_GEFPARTINS_13
1002
{
1011
-255.03016722581
1021
0.0
1031
0.0
1021
-112.2801672258129
1031
0.0
1013
1.0
1023
0.0
1033
0.0
1023
0.0000000000000366
1033
0.0
1002
}
1001
VCC
1002
{
1000
-ID18
1000
-IE4
1000
-IK18
1000
-V$PV_GENSYSTEM"GEF\VAL\DI\0401\DI1616_V.DXF"
1002
}
1001
GEVIT
1002
{
1000
-BEHI3.00000001
1000
-BVCCT0
1000
-T2
1000
-GRP0MSL_F12_32-0
1000
-BAML2
1000
-BASK1
1000
-NT0
1000
-DOC
1005
14C7
1000
-MYREF
1005
1153
1002
}
1001
GEVPT
1002
{
1000
-V$PV_GENSYSTEM"GEF\VAL\DI\0401\DI1616_V.DXF"
1000
-FIXPLOTI=1.300000000000000E+01
1000
-GPGEVBHOP=2
1000
-GPGEF_PROCALC=1
1000
-GPGEF_FLIPY=1
1000
-GPGEF_FLIPX=1
1000
-GPGEF_SNK_ADD=0
1000
-GPGEVPROMPTX=Länge:
1000
-GPGEF_OANG=70
1000
-GPGEF_STANG=210
1000
-GPGEF_DRAG=1
1000
-GPGEF_CDIST=3
1000
-GPVCC_TABLE=C:\GENIUS\gef\val\di\0401\di1616.val
1000
-GPNND=6
1000
-GPPRE=M
1002
}
1001
GENIUS_GENOREF_13
1005
13C9
1001
GEVMK
1002
{
1000
-CO
1000
-MYREF
1005
1153
1002
}
1001
GEVID884352786
1002
{
1002
}
  0
INSERT
  5
1154
  8
MSL_F12_32-0
  2
*U24
 10
-255.0301672258114
 20
-79.780167225808214
 30
0.0
 50
0.0000000000020825
1001
GENIUS_GEFPARTINS_13
1002
{
1011
-255.0301672258114
1021
0.0
1031
0.0
1021
-79.780167225808214
1031
0.0
1013
1.0
1023
0.0
1033
0.0
1023
0.0000000000000363
1033
0.0
1002
}
1001
VCC
1002
{
1000
-ID17
1000
-IE3
1000
-IK17
1000
-V$PV_GENSYSTEM"GEF\VAL\DI\0401\DI1616_V.DXF"
1002
}
1001
GEVIT
1002
{
1000
-BEHI2.00000001
1000
-BVCCT0
1000
-T2
1000
-GRP0MSL_F12_32-0
1000
-BAML2
1000
-BASK1
1000
-NT0
1000
-DOC
1005
14B3
1000
-MYREF
1005
1154
1002
}
1001
GEVPT
1002
{
1000
-V$PV_GENSYSTEM"GEF\VAL\DI\0401\DI1616_V.DXF"
1000
-FIXPLOTI=1.300000000000023E+01
1000
-GPGEVBHOP=2
1000
-GPGEF_PROCALC=1
1000
-GPGEF_FLIPY=1
1000
-GPGEF_FLIPX=1
1000
-GPGEF_SNK_ADD=0
1000
-GPGEVPROMPTX=Länge:
1000
-GPGEF_OANG=70
1000
-GPGEF_STANG=210
1000
-GPGEF_DRAG=1
1000
-GPGEF_CDIST=3
1000
-GPVCC_TABLE=C:\GENIUS\gef\val\di\0401\di1616.val
1000
-GPNND=6
1000
-GPPRE=M
1002
}
1001
GENIUS_GENOREF_13
1005
13C8
1001
GEVMK
1002
{
1000
-CO
1000
-MYREF
1005
1154
1002
}
1001
GEVID884352785
1002
{
1002
}
  0
LINE
  5
1155
  8
MSL_F12_32-3
 10
-249.5301672258112
 20
7.50000115224256
 30
0.0
 11
-227.5301672258112
 21
7.5000011522437537
 31
0.0
  0
LINE
  5
1156
  8
MSF12-7
 10
-252.24444422581149
 20
0.0000011522433851
 30
0.0
 11
-225.43333322581151
 21
0.0000011522433851
 31
0.0
  0
LINE
  5
1157
  8
MSL_F12_32-3
 10
-249.53016722581069
 20
-7.4999988477564719
 30
0.0
 11
-227.53016722581069
 21
-7.4999988477562454
 31
0.0
  0
LINE
  5
1158
  8
ZYL_32_ISO6431-3
 10
-226.03016722581151
 20
6.00000115224256
 30
0.0
 11
-265.03016722581089
 21
6.00000115224256
 31
0.0
1001
GENIUS_GENBH_13
1002
{
1000
OE
1000
CON1
1002
}
1001
GENIUS_GENOREF_13
1005
13C7
  0
LINE
  5
1159
  8
ZYL_32_ISO6431-3
 10
-265.03016722581049
 20
-5.9999988477574391
 30
0.0
 11
-226.03016722581151
 21
-5.9999988477574391
 31
0.0
1001
GENIUS_GENBH_13
1002
{
1000
OE
1000
CON1
1002
}
1001
GENIUS_GENOREF_13
1005
13C7
  0
LINE
  5
115A
  8
MSL_F12_32-7
 10
-268.03016722580958
 20
0.0000011522424472
 30
0.0
 11
-204.03016722581151
 21
0.0000011522444936
 31
0.0
1001
GENIUS_GENODEF_13
1002
{
1000
HIER
1070
     0
1002
}
1002
{
1000
MANEDIT
1070
     0
1002
}
1002
{
1000
NOSEL
1070
     0
1002
}
1002
{
1000
BEHIND
1070
     0
1002
}
1002
{
1000
REACTOR
1002
}
1001
GENIUS_GENOBJ-N-CEN_13
1002
{
1000
OWNER
1000
GEN
1002
}
  0
LINE
  5
115B
  8
MSL_F12_32-0
 10
-242.03016722580981
 20
-22.499998847755759
 30
0.0
 11
-255.03016722580981
 21
-22.499998847756689
 31
0.0
  0
LINE
  5
115C
  8
MSL_F12_32-0
 10
-242.03016722581151
 20
22.500001152242561
 30
0.0
 11
-255.03016722581151
 21
22.500001152242561
 31
0.0
  0
LINE
  5
115D
  8
MSF12-7
 10
-251.3730832258114
 20
-96.030167225811155
 30
0.0
 11
-225.6555832258114
 21
-96.030167225811155
 31
0.0
  0
LINE
  5
115E
  8
MSL_F12_32-3
 10
-249.5301672258112
 20
-88.53016722581296
 30
0.0
 11
-227.5301672258112
 21
-88.530167225811795
 31
0.0
  0
LINE
  5
115F
  8
MSL_F12_32-3
 10
-249.53016722581069
 20
-103.53016722581189
 30
0.0
 11
-227.53016722581069
 21
-103.5301672258117
 31
0.0
  0
LINE
  5
1160
  8
ZYL_32_ISO6431-3
 10
-265.03016722581037
 20
-102.0301672258129
 30
0.0
 11
-226.0301672258114
 21
-102.0301672258129
 31
0.0
1001
GENIUS_GENBH_13
1002
{
1000
OE
1000
CON1
1002
}
1001
GENIUS_GENOREF_13
1005
13C6
  0
LINE
  5
1161
  8
MSL_F12_32-7
 10
-268.03016722580958
 20
-96.030167225813074
 30
0.0
 11
-204.0301672258114
 21
-96.030167225811013
 31
0.0
1001
GENIUS_GENODEF_13
1002
{
1000
HIER
1070
     0
1002
}
1002
{
1000
MANEDIT
1070
     0
1002
}
1002
{
1000
NOSEL
1070
     0
1002
}
1002
{
1000
BEHIND
1070
     0
1002
}
1002
{
1000
REACTOR
1002
}
1001
GENIUS_GENOBJ-N-CEN_13
1002
{
1000
OWNER
1000
GEN
1002
}
  0
LINE
  5
1162
  8
ZYL_32_ISO6431-3
 10
-226.0301672258114
 20
-90.03016722581296
 30
0.0
 11
-265.03016722581089
 21
-90.03016722581296
 31
0.0
1001
GENIUS_GENBH_13
1002
{
1000
OE
1000
CON1
1002
}
1001
GENIUS_GENOREF_13
1005
13C6
  0
LINE
  5
1163
  8
MSL_F12_32-0
 10
-242.03016722580969
 20
-118.5301672258112
 30
0.0
 11
-255.03016722580981
 21
-118.53016722581221
 31
0.0
  0
LINE
  5
1164
  8
MSL_F12_32-0
 10
-242.0301672258114
 20
-73.53016722581296
 30
0.0
 11
-255.0301672258114
 21
-73.53016722581296
 31
0.0
  0
LINE
  5
1165
  8
MSL_F12_32-0
 10
-265.0301672258102
 20
-109.0301672258129
 30
0.0
 11
-265.03016722580958
 21
-96.03016722581296
 31
0.0
  0
LINE
  5
1166
  8
MSL_F12_32-0
 10
-255.03016722580981
 20
-118.53016722581221
 30
0.0
 11
-255.0301672258114
 21
-73.53016722581296
 31
0.0
  0
LINE
  5
1167
  8
MSL_F12_32-0
 10
-263.03016722581049
 20
-111.0301672258128
 30
0.0
 11
-263.03016722581049
 21
-81.03016722581296
 31
0.0
  0
LINE
  5
1168
  8
MSL_F12_32-0
 10
-255.0301672258104
 20
-111.03016722581221
 30
0.0
 11
-263.03016722581049
 21
-111.0301672258128
 31
0.0
  0
LINE
  5
1169
  8
MSL_F12_32-0
 10
-265.0301672258102
 20
-109.0301672258129
 30
0.0
 11
-263.03016722581049
 21
-111.0301672258128
 31
0.0
1001
GENIUS_GENODEF_13
1002
{
1000
HIER
1070
     0
1002
}
1002
{
1000
MANEDIT
1070
     0
1002
}
1002
{
1000
NOSEL
1070
     0
1002
}
1002
{
1000
BEHIND
1070
     0
1002
}
1002
{
1000
REACTOR
1002
}
1001
GENIUS_GENOBJ-N-CHA_13
1002
{
1000
OWNER
1000
GEN
1002
}
1001
GENIUS_GENFIL_13
1070
     1
1040
12.5
1040
12.5
1040
2.0
1040
0.7853981633974483
1002
{
1002
}
  0
LINE
  5
116A
  8
ZYL_32_ISO6431-7
 10
-298.0301672258114
 20
-96.03016722581296
 30
0.0
 11
-268.03016722580958
 21
-96.03016722581296
 31
0.0
  0
LINE
  5
116B
  8
ZYL_32_ISO6431-4
 10
-281.5337472258114
 20
-100.2633772258129
 30
0.0
 11
-273.0301672258114
 21
-100.2633772258129
 31
0.0
1001
GENIUS_GENOREF_13
1005
13C5
  0
LINE
  5
116C
  8
ZYL_32_ISO6431-4A
 10
-273.0301672258114
 20
-101.0301672258129
 30
0.0
 11
-281.5337472258114
 21
-101.0301672258129
 31
0.0
1001
GENIUS_GENOREF_13
1005
13C5
  0
LINE
  5
116D
  8
ZYL_32_ISO6431-4
 10
-281.5337472258114
 20
-91.79695722581296
 30
0.0
 11
-273.0301672258114
 21
-91.79695722581296
 31
0.0
1001
GENIUS_GENOREF_13
1005
13C5
  0
LINE
  5
116E
  8
ZYL_32_ISO6431-4A
 10
-273.0301672258114
 20
-91.03016722581296
 30
0.0
 11
-281.5337472258114
 21
-91.03016722581296
 31
0.0
1001
GENIUS_GENOREF_13
1005
13C5
  0
ARC
  5
116F
  8
ZYL_32_ISO6431-4A
 10
-316.22946722581139
 20
-96.03016722581296
 30
0.0
 40
34.695700000000002
 50
0.8594370000000001
 51
8.1316100000000002
  0
ARC
  5
1170
  8
ZYL_32_ISO6431-4A
 10
-251.8308672258114
 20
-96.03016722581296
 30
0.0
 40
34.695700000000002
 50
171.86799999999991
 51
179.14099999999991
  0
LINE
  5
1171
  8
ZYL_32_ISO6431-4A
 10
-294.26336722581141
 20
-91.03016722581296
 30
0.0
 11
-294.26336722581141
 21
-101.0301672258129
 31
0.0
  0
LINE
  5
1172
  8
ZYL_32_ISO6431-4A
 10
-286.52656722581139
 20
-88.668737225812961
 30
0.0
 11
-286.52656722581139
 21
-96.03016722581296
 31
0.0
1001
GENIUS_GENOREF_13
1005
13C4
  0
LINE
  5
1173
  8
ZYL_32_ISO6431-4A
 10
-281.5337472258114
 20
-88.668737225812961
 30
0.0
 11
-281.5337472258114
 21
-96.03016722581296
 31
0.0
1001
GENIUS_GENOREF_13
1005
13C4
  0
LINE
  5
1174
  8
ZYL_32_ISO6431-4A
 10
-295.0301672258114
 20
-91.79695722581296
 30
0.0
 11
-295.0301672258114
 21
-100.2633772258129
 31
0.0
  0
ARC
  5
1175
  8
ZYL_32_ISO6431-4A
 10
-316.22946722581139
 20
-96.03016722581296
 30
0.0
 40
34.695700000000002
 50
351.86838999999992
 51
359.14056299999999
  0
LINE
  5
1176
  8
ZYL_32_ISO6431-4A
 10
-281.5337472258114
 20
-103.3915972258129
 30
0.0
 11
-281.5337472258114
 21
-96.03016722581296
 31
0.0
1001
GENIUS_GENOREF_13
1005
13C4
  0
LINE
  5
1177
  8
ZYL_32_ISO6431-4A
 10
-286.52656722581139
 20
-103.3915972258129
 30
0.0
 11
-286.52656722581139
 21
-96.03016722581296
 31
0.0
1001
GENIUS_GENOREF_13
1005
13C4
  0
ARC
  5
1178
  8
ZYL_32_ISO6431-4A
 10
-251.8308672258114
 20
-96.03016722581296
 30
0.0
 40
34.695700000000002
 50
180.85900000000001
 51
188.13200000000001
  0
LINE
  5
1179
  8
ZYL_32_ISO6431-4A
 10
-295.0301672258114
 20
-100.2633772258129
 30
0.0
 11
-294.26336722581141
 21
-101.0301672258129
 31
0.0
  0
LINE
  5
117A
  8
ZYL_32_ISO6431-4A
 10
-286.52656722581139
 20
-101.0301672258129
 30
0.0
 11
-294.26336722581141
 21
-101.0301672258129
 31
0.0
1001
GENIUS_GENOREF_13
1005
13C5
  0
LINE
  5
117B
  8
ZYL_32_ISO6431-4A
 10
-286.17776722581141
 20
-100.9377872258129
 30
0.0
 11
-284.0301672258114
 21
-100.9377872258129
 31
0.0
  0
LINE
  5
117C
  8
ZYL_32_ISO6431-4A
 10
-281.88258722581139
 20
-100.9377872258129
 30
0.0
 11
-284.0301672258114
 21
-100.9377872258129
 31
0.0
  0
ARC
  5
117D
  8
ZYL_32_ISO6431-4A
 10
-290.6014672258114
 20
-103.3915972258129
 30
0.0
 40
9.0677199999999996
 50
344.28149999999988
 51
0.0
1001
GENIUS_GENOREF_13
1005
13C4
  0
LINE
  5
117E
  8
ZYL_32_ISO6431-4A
 10
-286.17776722581141
 20
-105.84540722581291
 30
0.0
 11
-284.0301672258114
 21
-105.84540722581291
 31
0.0
  0
LINE
  5
117F
  8
ZYL_32_ISO6431-4A
 10
-281.88258722581139
 20
-105.84540722581291
 30
0.0
 11
-284.0301672258114
 21
-105.84540722581291
 31
0.0
1001
GENIUS_GENOREF_13
1005
13C4
  0
ARC
  5
1180
  8
ZYL_32_ISO6431-4A
 10
-290.6014672258114
 20
-103.3915972258129
 30
0.0
 40
9.0576000000000008
 50
0.0
 51
15.71849999999999
  0
ARC
  5
1181
  8
ZYL_32_ISO6431-4A
 10
-277.45886722581139
 20
-103.3915972258129
 30
0.0
 40
9.0677199999999996
 50
164.28099999999989
 51
180.0
  0
ARC
  5
1182
  8
ZYL_32_ISO6431-4A
 10
-277.45886722581139
 20
-103.3915972258129
 30
0.0
 40
9.0576000000000008
 50
180.0
 51
195.71899999999999
1001
GENIUS_GENOREF_13
1005
13C4
  0
LINE
  5
1183
  8
ZYL_32_ISO6431-3
 10
-281.5337472258114
 20
-101.0301672258129
 30
0.0
 11
-286.52656722581139
 21
-101.0301672258129
 31
0.0
1001
GENIUS_GENBH_13
1002
{
1000
OE
1000
CON1
1002
}
1001
GENIUS_GENOREF_13
1005
13C5
  0
LINE
  5
1184
  8
ZYL_32_ISO6431-4
 10
-295.0301672258114
 20
-100.2633772258129
 30
0.0
 11
-286.52656722581139
 21
-100.2633772258129
 31
0.0
1001
GENIUS_GENOREF_13
1005
13C5
  0
LINE
  5
1185
  8
ZYL_32_ISO6431-4A
 10
-281.53764722581138
 20
-96.550583225812971
 30
0.0
 11
-281.5337472258114
 21
-96.03016722581296
 31
0.0
  0
LINE
  5
1186
  8
ZYL_32_ISO6431-4A
 10
-286.5226672258114
 20
-96.550583225812971
 30
0.0
 11
-286.52656722581139
 21
-96.03016722581296
 31
0.0
  0
LINE
  5
1187
  8
ZYL_32_ISO6431-3
 10
-286.52656722581139
 20
-100.2633772258129
 30
0.0
 11
-281.5337472258114
 21
-100.2633772258129
 31
0.0
1001
GENIUS_GENBH_13
1002
{
1000
OE
1000
BELI
1002
}
1001
GENIUS_GENOREF_13
1005
13C5
  0
LINE
  5
1188
  8
ZYL_32_ISO6431-4A
 10
-281.53764722581138
 20
-95.509751225812977
 30
0.0
 11
-281.5337472258114
 21
-96.03016722581296
 31
0.0
  0
LINE
  5
1189
  8
ZYL_32_ISO6431-4A
 10
-286.5226672258114
 20
-95.509751225812977
 30
0.0
 11
-286.52656722581139
 21
-96.03016722581296
 31
0.0
  0
LINE
  5
118A
  8
ZYL_32_ISO6431-4A
 10
-286.52656722581139
 20
-91.03016722581296
 30
0.0
 11
-294.26336722581141
 21
-91.03016722581296
 31
0.0
1001
GENIUS_GENOREF_13
1005
13C5
  0
LINE
  5
118B
  8
ZYL_32_ISO6431-4
 10
-295.0301672258114
 20
-91.79695722581296
 30
0.0
 11
-286.52656722581139
 21
-91.79695722581296
 31
0.0
1001
GENIUS_GENOREF_13
1005
13C5
  0
LINE
  5
118C
  8
ZYL_32_ISO6431-4A
 10
-295.0301672258114
 20
-91.79695722581296
 30
0.0
 11
-294.26336722581141
 21
-91.03016722581296
 31
0.0
  0
ARC
  5
118D
  8
ZYL_32_ISO6431-4A
 10
-290.6014672258114
 20
-88.668737225812961
 30
0.0
 40
9.0576000000000008
 50
0.0
 51
15.71849999999999
1001
GENIUS_GENOREF_13
1005
13C4
  0
LINE
  5
118E
  8
ZYL_32_ISO6431-4A
 10
-286.17776722581141
 20
-86.214927225812957
 30
0.0
 11
-284.0301672258114
 21
-86.214927225812957
 31
0.0
1001
GENIUS_GENOREF_13
1005
13C4
  0
LINE
  5
118F
  8
ZYL_32_ISO6431-4A
 10
-281.88258722581139
 20
-86.214927225812957
 30
0.0
 11
-284.0301672258114
 21
-86.214927225812957
 31
0.0
1001
GENIUS_GENOREF_13
1005
13C4
  0
LINE
  5
1190
  8
ZYL_32_ISO6431-4A
 10
-286.17776722581141
 20
-91.122547225812966
 30
0.0
 11
-284.0301672258114
 21
-91.122547225812966
 31
0.0
  0
LINE
  5
1191
  8
ZYL_32_ISO6431-4A
 10
-281.88258722581139
 20
-91.122547225812966
 30
0.0
 11
-284.0301672258114
 21
-91.122547225812966
 31
0.0
  0
ARC
  5
1192
  8
ZYL_32_ISO6431-4A
 10
-290.6014672258114
 20
-88.668737225812961
 30
0.0
 40
9.0677199999999996
 50
344.28149999999988
 51
0.0
  0
ARC
  5
1193
  8
ZYL_32_ISO6431-4A
 10
-277.45886722581139
 20
-88.668737225812961
 30
0.0
 40
9.0576000000000008
 50
180.0
 51
195.71899999999999
  0
LINE
  5
1194
  8
ZYL_32_ISO6431-3
 10
-286.52656722581139
 20
-91.79695722581296
 30
0.0
 11
-281.5337472258114
 21
-91.79695722581296
 31
0.0
1001
GENIUS_GENBH_13
1002
{
1000
OE
1000
BELI
1002
}
1001
GENIUS_GENOREF_13
1005
13C5
  0
LINE
  5
1195
  8
ZYL_32_ISO6431-3
 10
-281.5337472258114
 20
-91.03016722581296
 30
0.0
 11
-286.52656722581139
 21
-91.03016722581296
 31
0.0
1001
GENIUS_GENBH_13
1002
{
1000
OE
1000
CON1
1002
}
1001
GENIUS_GENOREF_13
1005
13C5
  0
ARC
  5
1196
  8
ZYL_32_ISO6431-4A
 10
-277.45886722581139
 20
-88.668737225812961
 30
0.0
 40
9.0677199999999996
 50
164.28099999999989
 51
180.0
1001
GENIUS_GENOREF_13
1005
13C4
  0
LINE
  5
1197
  8
MSL_F12_32-3
 10
-249.5301672258112
 20
-87.030167225812946
 30
0.0
 11
-249.5301672258106
 21
-105.03016722581189
 31
0.0
  0
LINE
  5
1198
  8
ZYL_32_ISO6431-4A
 10
-273.0301672258114
 20
-90.03016722581296
 30
0.0
 11
-273.0301672258114
 21
-102.0301672258129
 31
0.0
  0
LINE
  5
1199
  8
MSL_F12_32-0
 10
-265.03016722581123
 20
-83.030167225812946
 30
0.0
 11
-265.03016722580958
 21
-96.03016722581296
 31
0.0
  0
LINE
  5
119A
  8
ZYL_32_ISO6431-4A
 10
-273.0301672258114
 20
-102.0301672258129
 30
0.0
 11
-265.03016722581037
 21
-102.0301672258129
 31
0.0
1001
GENIUS_GENOREF_13
1005
13C6
  0
LINE
  5
119B
  8
ZYL_32_ISO6431-4A
 10
-273.0301672258114
 20
-92.71354722581296
 30
0.0
 11
-269.0301672258114
 21
-92.71354722581296
 31
0.0
  0
LINE
  5
119C
  8
ZYL_32_ISO6431-4A
 10
-273.0301672258114
 20
-99.34678722581296
 30
0.0
 11
-269.0301672258114
 21
-99.34678722581296
 31
0.0
  0
LINE
  5
119D
  8
ZYL_32_ISO6431-4A
 10
-269.0301672258114
 20
-92.71354722581296
 30
0.0
 11
-273.0301672258114
 21
-99.34678722581296
 31
0.0
  0
LINE
  5
119E
  8
ZYL_32_ISO6431-4A
 10
-273.0301672258114
 20
-92.71354722581296
 30
0.0
 11
-269.0301672258114
 21
-99.34678722581296
 31
0.0
  0
LINE
  5
119F
  8
ZYL_32_ISO6431-4A
 10
-269.0301672258114
 20
-92.71354722581296
 30
0.0
 11
-269.0301672258114
 21
-99.34678722581296
 31
0.0
  0
LINE
  5
11A0
  8
MSL_F12_32-3
 10
-265.03016722581083
 20
-105.0301672258129
 30
0.0
 11
-249.5301672258106
 21
-105.03016722581189
 31
0.0
  0
LINE
  5
11A1
  8
ZYL_32_ISO6431-4A
 10
-265.03016722581089
 20
-90.03016722581296
 30
0.0
 11
-273.0301672258114
 21
-90.03016722581296
 31
0.0
1001
GENIUS_GENOREF_13
1005
13C6
  0
LINE
  5
11A2
  8
MSL_F12_32-3
 10
-265.0301672258114
 20
-87.030167225812974
 30
0.0
 11
-249.5301672258112
 21
-87.030167225812946
 31
0.0
  0
LINE
  5
11A3
  8
MSL_F12_32-0
 10
-255.0301672258114
 20
-81.03016722581296
 30
0.0
 11
-263.03016722581162
 21
-81.03016722581296
 31
0.0
  0
LINE
  5
11A4
  8
MSL_F12_32-0
 10
-265.03016722581123
 20
-83.030167225812946
 30
0.0
 11
-263.03016722581162
 21
-81.03016722581296
 31
0.0
1001
GENIUS_GENODEF_13
1002
{
1000
HIER
1070
     0
1002
}
1002
{
1000
MANEDIT
1070
     0
1002
}
1002
{
1000
NOSEL
1070
     0
1002
}
1002
{
1000
BEHIND
1070
     0
1002
}
1002
{
1000
REACTOR
1002
}
1001
GENIUS_GENOBJ-N-CHA_13
1002
{
1000
OWNER
1000
GEN
1002
}
1001
GENIUS_GENFIL_13
1070
     1
1040
12.5
1040
12.5
1040
2.0
1040
0.7853981633974483
1002
{
1002
}
  0
LINE
  5
11A5
  8
MSL_F12_32-0
 10
-255.03016722580981
 20
-22.499998847756689
 30
0.0
 11
-255.03016722581151
 21
22.500001152242561
 31
0.0
  0
LINE
  5
11A6
  8
MSL_F12_32-0
 10
-265.03016722581032
 20
-12.99999884775743
 30
0.0
 11
-265.03016722580958
 21
0.0000011522425609
 31
0.0
  0
LINE
  5
11A7
  8
MSL_F12_32-0
 10
-263.0301672258106
 20
-14.99999884775729
 30
0.0
 11
-263.0301672258106
 21
15.000001152242559
 31
0.0
  0
LINE
  5
11A8
  8
MSL_F12_32-0
 10
-255.0301672258104
 20
-14.9999988477567
 30
0.0
 11
-263.0301672258106
 21
-14.99999884775729
 31
0.0
  0
LINE
  5
11A9
  8
MSL_F12_32-0
 10
-265.03016722581032
 20
-12.99999884775743
 30
0.0
 11
-263.0301672258106
 21
-14.99999884775729
 31
0.0
1001
GENIUS_GENODEF_13
1002
{
1000
HIER
1070
     0
1002
}
1002
{
1000
MANEDIT
1070
     0
1002
}
1002
{
1000
NOSEL
1070
     0
1002
}
1002
{
1000
BEHIND
1070
     0
1002
}
1002
{
1000
REACTOR
1002
}
1001
GENIUS_GENOBJ-N-CHA_13
1002
{
1000
OWNER
1000
GEN
1002
}
1001
GENIUS_GENFIL_13
1070
     1
1040
12.5
1040
12.5
1040
2.0
1040
0.7853981633974483
1002
{
1002
}
  0
LINE
  5
11AA
  8
ZYL_32_ISO6431-7
 10
-298.03016722581151
 20
0.0000011522425609
 30
0.0
 11
-268.03016722580958
 21
0.0000011522425609
 31
0.0
  0
LINE
  5
11AB
  8
ZYL_32_ISO6431-4A
 10
-273.03016722581151
 20
5.00000115224256
 30
0.0
 11
-281.53374722581151
 21
5.00000115224256
 31
0.0
1001
GENIUS_GENOREF_13
1005
13C3
  0
LINE
  5
11AC
  8
ZYL_32_ISO6431-4
 10
-281.53374722581151
 20
4.2332111522425464
 30
0.0
 11
-273.03016722581151
 21
4.2332111522425464
 31
0.0
1001
GENIUS_GENOREF_13
1005
13C3
  0
LINE
  5
11AD
  8
ZYL_32_ISO6431-4A
 10
-273.03016722581151
 20
-4.9999988477574391
 30
0.0
 11
-281.53374722581151
 21
-4.9999988477574391
 31
0.0
1001
GENIUS_GENOREF_13
1005
13C3
  0
LINE
  5
11AE
  8
ZYL_32_ISO6431-4
 10
-281.53374722581151
 20
-4.2332088477574237
 30
0.0
 11
-273.03016722581151
 21
-4.2332088477574237
 31
0.0
1001
GENIUS_GENOREF_13
1005
13C3
  0
LINE
  5
11AF
  8
ZYL_32_ISO6431-4A
 10
-294.26336722581152
 20
5.00000115224256
 30
0.0
 11
-294.26336722581152
 21
-4.9999988477574391
 31
0.0
  0
LINE
  5
11B0
  8
ZYL_32_ISO6431-4A
 10
-295.03016722581151
 20
4.2332111522425464
 30
0.0
 11
-295.03016722581151
 21
-4.2332088477574237
 31
0.0
  0
ARC
  5
11B1
  8
ZYL_32_ISO6431-4A
 10
-307.59754344410999
 20
4.2500011522404861
 30
0.0
 40
26.063796218298521
 50
350.61536226875802
 51
9.3846377312421048
  0
ARC
  5
11B2
  8
ZYL_32_ISO6431-4A
 10
-260.46022614799813
 20
4.2500011522404861
 30
0.0
 40
26.066346485247941
 50
170.61628873728759
 51
189.38371126271241
  0
LINE
  5
11B3
  8
ZYL_32_ISO6431-4A
 10
-281.53374722581151
 20
8.5000011522425591
 30
0.0
 11
-281.53374722581151
 21
0.0000011522425609
 31
0.0
1001
GENIUS_GENOREF_13
1005
13C2
  0
LINE
  5
11B4
  8
ZYL_32_ISO6431-4A
 10
-286.52656722581139
 20
8.5000011522425591
 30
0.0
 11
-286.52656722581139
 21
0.0000011522425609
 31
0.0
1001
GENIUS_GENOREF_13
1005
13C2
  0
ARC
  5
11B5
  8
ZYL_32_ISO6431-4A
 10
-260.46022614799813
 20
-4.2499988477553643
 30
0.0
 40
26.066346485247941
 50
170.6162887372875
 51
189.38371126271241
  0
ARC
  5
11B6
  8
ZYL_32_ISO6431-4A
 10
-307.59754344410999
 20
-4.2499988477553643
 30
0.0
 40
26.063796218298521
 50
350.61536226875791
 51
9.3846377312420053
  0
LINE
  5
11B7
  8
ZYL_32_ISO6431-4A
 10
-281.53374722581151
 20
-8.4999988477574391
 30
0.0
 11
-281.53374722581151
 21
0.0000011522425609
 31
0.0
1001
GENIUS_GENOREF_13
1005
13C2
  0
LINE
  5
11B8
  8
ZYL_32_ISO6431-4A
 10
-286.52656722581139
 20
-8.4999988477574391
 30
0.0
 11
-286.52656722581139
 21
0.0000011522425609
 31
0.0
1001
GENIUS_GENOREF_13
1005
13C2
  0
LINE
  5
11B9
  8
ZYL_32_ISO6431-4A
 10
-295.03016722581151
 20
-4.2332088477574237
 30
0.0
 11
-294.26336722581152
 21
-4.9999988477574391
 31
0.0
  0
LINE
  5
11BA
  8
ZYL_32_ISO6431-4A
 10
-286.52656722581139
 20
-4.9999988477574391
 30
0.0
 11
-294.26336722581152
 21
-4.9999988477574391
 31
0.0
1001
GENIUS_GENOREF_13
1005
13C3
  0
LINE
  5
11BB
  8
ZYL_32_ISO6431-3
 10
-281.53374722581151
 20
-4.9999988477574391
 30
0.0
 11
-286.52656722581139
 21
-4.9999988477574391
 31
0.0
1001
GENIUS_GENBH_13
1002
{
1000
OE
1000
CON1
1002
}
1001
GENIUS_GENOREF_13
1005
13C3
  0
LINE
  5
11BC
  8
ZYL_32_ISO6431-4A
 10
-281.53374722581151
 20
-8.4999988477574391
 30
0.0
 11
-284.03016722581151
 21
-8.4999988477574391
 31
0.0
1001
GENIUS_GENOREF_13
1005
13C2
  0
LINE
  5
11BD
  8
ZYL_32_ISO6431-4A
 10
-286.52656722581139
 20
-8.4999988477574391
 30
0.0
 11
-284.03016722581151
 21
-8.4999988477574391
 31
0.0
  0
LINE
  5
11BE
  8
ZYL_32_ISO6431-4
 10
-295.03016722581151
 20
-4.2332088477574237
 30
0.0
 11
-286.52656722581139
 21
-4.2332088477574237
 31
0.0
1001
GENIUS_GENOREF_13
1005
13C3
  0
LINE
  5
11BF
  8
ZYL_32_ISO6431-4A
 10
-281.53764722581138
 20
0.5204171522425725
 30
0.0
 11
-281.53374722581151
 21
0.0000011522425609
 31
0.0
  0
LINE
  5
11C0
  8
ZYL_32_ISO6431-4A
 10
-286.17776722581152
 20
0.0000011522425609
 30
0.0
 11
-284.03016722581151
 21
0.0000011522425609
 31
0.0
  0
LINE
  5
11C1
  8
ZYL_32_ISO6431-4A
 10
-281.88258722581139
 20
0.0000011522425609
 30
0.0
 11
-284.03016722581151
 21
0.0000011522425609
 31
0.0
  0
LINE
  5
11C2
  8
ZYL_32_ISO6431-4A
 10
-281.53764722581138
 20
-0.5204148477574507
 30
0.0
 11
-281.53374722581151
 21
0.0000011522425609
 31
0.0
  0
LINE
  5
11C3
  8
ZYL_32_ISO6431-4A
 10
-286.52266722581152
 20
0.5204171522425725
 30
0.0
 11
-286.52656722581139
 21
0.0000011522425609
 31
0.0
  0
LINE
  5
11C4
  8
ZYL_32_ISO6431-4A
 10
-286.52266722581152
 20
-0.5204148477574507
 30
0.0
 11
-286.52656722581139
 21
0.0000011522425609
 31
0.0
  0
LINE
  5
11C5
  8
ZYL_32_ISO6431-3
 10
-286.52656722581139
 20
-4.2332088477574237
 30
0.0
 11
-281.53374722581151
 21
-4.2332088477574237
 31
0.0
1001
GENIUS_GENBH_13
1002
{
1000
OE
1000
BELI
1002
}
1001
GENIUS_GENOREF_13
1005
13C3
  0
LINE
  5
11C6
  8
ZYL_32_ISO6431-4A
 10
-286.52656722581139
 20
5.00000115224256
 30
0.0
 11
-294.26336722581152
 21
5.00000115224256
 31
0.0
1001
GENIUS_GENOREF_13
1005
13C3
  0
LINE
  5
11C7
  8
ZYL_32_ISO6431-4
 10
-295.03016722581151
 20
4.2332111522425464
 30
0.0
 11
-286.52656722581139
 21
4.2332111522425464
 31
0.0
1001
GENIUS_GENOREF_13
1005
13C3
  0
LINE
  5
11C8
  8
ZYL_32_ISO6431-4A
 10
-295.03016722581151
 20
4.2332111522425464
 30
0.0
 11
-294.26336722581152
 21
5.00000115224256
 31
0.0
  0
LINE
  5
11C9
  8
ZYL_32_ISO6431-4A
 10
-281.53374722581151
 20
8.5000011522425591
 30
0.0
 11
-284.03016722581151
 21
8.5000011522425591
 31
0.0
1001
GENIUS_GENOREF_13
1005
13C2
  0
LINE
  5
11CA
  8
ZYL_32_ISO6431-4A
 10
-286.52656722581139
 20
8.5000011522425591
 30
0.0
 11
-284.03016722581151
 21
8.5000011522425591
 31
0.0
1001
GENIUS_GENOREF_13
1005
13C2
  0
LINE
  5
11CB
  8
ZYL_32_ISO6431-3
 10
-281.53374722581151
 20
5.00000115224256
 30
0.0
 11
-286.52656722581139
 21
5.00000115224256
 31
0.0
1001
GENIUS_GENBH_13
1002
{
1000
OE
1000
CON1
1002
}
1001
GENIUS_GENOREF_13
1005
13C3
  0
LINE
  5
11CC
  8
ZYL_32_ISO6431-3
 10
-286.52656722581139
 20
4.2332111522425464
 30
0.0
 11
-281.53374722581151
 21
4.2332111522425464
 31
0.0
1001
GENIUS_GENBH_13
1002
{
1000
OE
1000
BELI
1002
}
1001
GENIUS_GENOREF_13
1005
13C3
  0
LINE
  5
11CD
  8
ZYL_32_ISO6431-4A
 10
-269.03016722581151
 20
3.3166211522425608
 30
0.0
 11
-269.03016722581151
 21
-3.316618847757439
 31
0.0
  0
LINE
  5
11CE
  8
ZYL_32_ISO6431-4A
 10
-273.03016722581151
 20
3.3166211522425608
 30
0.0
 11
-269.03016722581151
 21
-3.316618847757439
 31
0.0
  0
LINE
  5
11CF
  8
ZYL_32_ISO6431-4A
 10
-269.03016722581151
 20
3.3166211522425608
 30
0.0
 11
-273.03016722581151
 21
-3.316618847757439
 31
0.0
  0
LINE
  5
11D0
  8
MSL_F12_32-3
 10
-249.53016722581131
 20
9.0000011522425591
 30
0.0
 11
-249.53016722581069
 21
-8.9999988477564727
 31
0.0
  0
LINE
  5
11D1
  8
MSL_F12_32-0
 10
-265.03016722581123
 20
13.000001152242559
 30
0.0
 11
-265.03016722580958
 21
0.0000011522425609
 31
0.0
  0
LINE
  5
11D2
  8
ZYL_32_ISO6431-4A
 10
-273.03016722581151
 20
6.00000115224256
 30
0.0
 11
-273.03016722581151
 21
-5.9999988477574391
 31
0.0
  0
LINE
  5
11D3
  8
ZYL_32_ISO6431-4A
 10
-273.03016722581151
 20
-5.9999988477574391
 30
0.0
 11
-265.03016722581049
 21
-5.9999988477574391
 31
0.0
1001
GENIUS_GENOREF_13
1005
13C7
  0
LINE
  5
11D4
  8
ZYL_32_ISO6431-4A
 10
-273.03016722581151
 20
-3.316618847757439
 30
0.0
 11
-269.03016722581151
 21
-3.316618847757439
 31
0.0
  0
LINE
  5
11D5
  8
MSL_F12_32-3
 10
-265.03016722581089
 20
-8.9999988477574391
 30
0.0
 11
-249.53016722581069
 21
-8.9999988477564727
 31
0.0
  0
LINE
  5
11D6
  8
ZYL_32_ISO6431-4A
 10
-265.03016722581089
 20
6.00000115224256
 30
0.0
 11
-273.03016722581151
 21
6.00000115224256
 31
0.0
1001
GENIUS_GENOREF_13
1005
13C7
  0
LINE
  5
11D7
  8
ZYL_32_ISO6431-4A
 10
-273.03016722581151
 20
3.3166211522425608
 30
0.0
 11
-269.03016722581151
 21
3.3166211522425608
 31
0.0
  0
LINE
  5
11D8
  8
MSL_F12_32-3
 10
-265.03016722581151
 20
9.0000011522425591
 30
0.0
 11
-249.53016722581131
 21
9.0000011522425591
 31
0.0
  0
LINE
  5
11D9
  8
MSL_F12_32-0
 10
-255.03016722581151
 20
15.000001152242559
 30
0.0
 11
-263.03016722581168
 21
15.000001152242559
 31
0.0
  0
LINE
  5
11DA
  8
MSL_F12_32-0
 10
-265.03016722581123
 20
13.000001152242559
 30
0.0
 11
-263.03016722581168
 21
15.000001152242559
 31
0.0
1001
GENIUS_GENODEF_13
1002
{
1000
HIER
1070
     0
1002
}
1002
{
1000
MANEDIT
1070
     0
1002
}
1002
{
1000
NOSEL
1070
     0
1002
}
1002
{
1000
BEHIND
1070
     0
1002
}
1002
{
1000
REACTOR
1002
}
1001
GENIUS_GENOBJ-N-CHA_13
1002
{
1000
OWNER
1000
GEN
1002
}
1001
GENIUS_GENFIL_13
1070
     1
1040
12.5
1040
12.5
1040
2.0
1040
0.7853981633974483
1002
{
1002
}
  0
LINE
  5
11DB
  8
ZYL_32_ISO6431-4A
 10
-113.0301672258114
 20
-73.78016722581296
 30
0.0
 11
-123.0301672258114
 21
-73.78016722581296
 31
0.0
  0
LINE
  5
11DC
  8
ZYL_32_ISO6431-3
 10
-113.0301672258114
 20
-82.780167225812974
 30
0.0
 11
-130.0301672258114
 21
-82.780167225812974
 31
0.0
  0
LINE
  5
11DD
  8
ZYL_32_ISO6431-7
 10
-110.0301672258114
 20
-79.78016722581296
 30
0.0
 11
-130.0301672258114
 21
-79.78016722581296
 31
0.0
  0
LINE
  5
11DE
  8
ZYL_32_ISO6431-3
 10
-113.0301672258114
 20
-76.78016722581296
 30
0.0
 11
-130.0301672258114
 21
-76.78016722581296
 31
0.0
  0
LINE
  5
11DF
  8
ZYL_32_ISO6431-3
 10
-113.0301672258114
 20
-77.393667225812962
 30
0.0
 11
-130.0301672258114
 21
-77.393667225812962
 31
0.0
  0
LINE
  5
11E0
  8
ZYL_32_ISO6431-3
 10
-113.0301672258114
 20
-82.166667225812958
 30
0.0
 11
-130.0301672258114
 21
-82.166667225812958
 31
0.0
  0
LINE
  5
11E1
  8
ZYL_32_ISO6431-4A
 10
-123.0301672258114
 20
-86.28016722581296
 30
0.0
 11
-113.0301672258114
 21
-86.28016722581296
 31
0.0
  0
LINE
  5
11E2
  8
ZYL_32_ISO6431-4A
 10
-113.0301672258114
 20
-85.780167225812946
 30
0.0
 11
-123.0301672258114
 21
-85.780167225812946
 31
0.0
  0
LINE
  5
11E3
  8
ZYL_32_ISO6431-7
 10
-120.0341672258114
 20
-99.030167225812974
 30
0.0
 11
-132.02616722581141
 21
-99.030167225812974
 31
0.0
  0
ARC
  5
11E4
  8
ZYL_32_ISO6431-4
 10
-126.0301672258114
 20
-99.030167225812974
 30
0.0
 40
4.863999999999999
 50
160.0
 51
70.0
  0
CIRCLE
  5
11E5
  8
ZYL_32_ISO6431-4A
 10
-126.0301672258114
 20
-99.030167225812974
 30
0.0
 40
4.2830000000000004
  0
LINE
  5
11E6
  8
ZYL_32_ISO6431-4A
 10
-123.0301672258114
 20
-105.7801672258129
 30
0.0
 11
-113.0301672258114
 21
-105.7801672258129
 31
0.0
  0
LINE
  5
11E7
  8
ZYL_32_ISO6431-4A
 10
-113.0301672258114
 20
-106.2801672258129
 30
0.0
 11
-123.0301672258114
 21
-106.2801672258129
 31
0.0
  0
LINE
  5
11E8
  8
ZYL_32_ISO6431-7
 10
-110.0301672258114
 20
-112.2801672258129
 30
0.0
 11
-130.0301672258114
 21
-112.2801672258129
 31
0.0
  0
LINE
  5
11E9
  8
ZYL_32_ISO6431-3
 10
-113.0301672258114
 20
-115.2801672258129
 30
0.0
 11
-130.0301672258114
 21
-115.2801672258129
 31
0.0
  0
LINE
  5
11EA
  8
ZYL_32_ISO6431-3
 10
-113.0301672258114
 20
-114.6666672258129
 30
0.0
 11
-130.0301672258114
 21
-114.6666672258129
 31
0.0
  0
LINE
  5
11EB
  8
ZYL_32_ISO6431-3
 10
-113.0301672258114
 20
-109.2801672258129
 30
0.0
 11
-130.0301672258114
 21
-109.2801672258129
 31
0.0
  0
LINE
  5
11EC
  8
ZYL_32_ISO6431-3
 10
-113.0301672258114
 20
-109.89366722581291
 30
0.0
 11
-130.0301672258114
 21
-109.89366722581291
 31
0.0
  0
LINE
  5
11ED
  8
ZYL_32_ISO6431-4A
 10
-113.0301672258114
 20
-118.2801672258129
 30
0.0
 11
-123.0301672258114
 21
-118.2801672258129
 31
0.0
  0
LINE
  5
11EE
  8
ZYL_32_ISO6431-7
 10
-204.0301672258114
 20
-96.03016722581296
 30
0.0
 11
-106.0301672258114
 21
-96.03016722581296
 31
0.0
  0
LINE
  5
11EF
  8
ZYL_32_ISO6431-4A
 10
-113.0301672258114
 20
-71.03016722581296
 30
0.0
 11
-139.0301672258114
 21
-71.03016722581296
 31
0.0
  0
LINE
  5
11F0
  8
ZYL_32_ISO6431-4A
 10
-139.0301672258114
 20
-121.0301672258129
 30
0.0
 11
-113.0301672258114
 21
-121.0301672258129
 31
0.0
  0
LINE
  5
11F1
  8
ZYL_32_ISO6431-4A
 10
-123.0301672258114
 20
-121.0301672258129
 30
0.0
 11
-123.0301672258114
 21
-105.7801672258129
 31
0.0
  0
LINE
  5
11F2
  8
ZYL_32_ISO6431-4A
 10
-139.0301672258114
 20
-74.03016722581296
 30
0.0
 11
-139.0301672258114
 21
-118.0301672258129
 31
0.0
  0
INSERT
  5
11F3
  8
MSL_F12_32-0N
  2
*U14
 10
-215.03016722581
 20
-112.2801672258129
 30
0.0
1001
GENIUS_GEFPARTINS_13
1002
{
1011
-215.03016722581
1021
0.0
1031
0.0
1021
-112.2801672258129
1031
0.0
1013
1.0
1023
0.0
1033
0.0
1023
0.0
1033
0.0
1002
}
1001
GENIUS_GENBH_13
1002
{
1000
REFI
1005
0
1002
}
1001
VCC
1002
{
1002
}
1001
GEVIT
1002
{
1000
-BEHI1.00000003
1000
-BVCCT0
1000
-GRP0?
1000
-BAML2
1000
-BASK1
1000
-NT1
1000
-DOC
1005
13FB
1000
-MYREF
1005
11F3
1002
}
1001
GEVPT
1002
{
1000
-V$PV_GENSYSTEM"GEF\VAL\DI\0101\DI2401_V.DXF"
1000
-FIXP$VCC_TABLE=C:\GENIUS\gef\val\di\0101\di2401.val
1000
-FIXP$TABLE=C:\GENIUS\gef\val\di\0101\di2401.val
1000
-FIXPNLGMIN=13.9999999999986
1000
-FIXPSHLMAX=7.99999999999859
1000
-FIXPKFDYN=0
1000
-INPPVCCTAB_DYN1=21.480267,0.333499,0,0
1000
-GPGEF_PROCALC=1
1000
-GPGEF_SNK_ADD=0
1000
-GPGEVPROMPTX=Länge:
1000
-GPGEF_OANG=70
1000
-GPGEF_STANG=210
1000
-GPGEF_DRAG=1
1000
-GPGEF_CDIST=3
1000
-GPGL2=0
1000
-GPGL1=0
1000
-GPGEF_FLIPY=2
1000
-GPGEF_FLIPX=2
1000
-GPHIDE=0
1000
-GPGEVBHOP=2
1000
-GPSELMODE=1
1000
-GPPTC=1
1000
-GPPRE=M
1000
-GPEGR=1
1000
-GPTPU=1
1000
-GPNND=6
1002
}
1001
GENIUS_GENOREF_13
1005
13C1
1005
13C0
1005
13BF
1001
GEVMK
1002
{
1000
-CO
1000
-MYREF
1005
11F3
1002
}
1001
GEVID884352783
1002
{
1000
-ID26
1002
}
  0
LINE
  5
11F4
  8
ZYL_32_ISO6431-4A
 10
-197.0301672258114
 20
-121.0301672258129
 30
0.0
 11
-197.0301672258114
 21
-105.7801672258129
 31
0.0
  0
LINE
  5
11F5
  8
MSL_F12_32-0
 10
-242.0301672258102
 20
-105.39766422340909
 30
0.0
 11
-242.03016722580969
 21
-118.5301672258112
 31
0.0
  0
LINE
  5
11F6
  8
MSF12-7
 10
-238.5301672258114
 20
-82.619472225811137
 30
0.0
 11
-238.5301672258114
 21
-108.9719722258111
 31
0.0
  0
LINE
  5
11F7
  8
ZYL_32_ISO6431-4A
 10
-181.0301672258114
 20
-74.03016722581296
 30
0.0
 11
-181.0301672258114
 21
-118.0301672258129
 31
0.0
  0
LINE
  5
11F8
  8
MSL_F12_32-3
 10
-227.53016722581049
 20
-111.0301672258105
 30
0.0
 11
-227.5301672258114
 21
-81.03016722581296
 31
0.0
  0
LINE
  5
11F9
  8
MSL_F12_32-0
 10
-207.0301672258114
 20
-118.5301672258111
 30
0.0
 11
-207.0301672258114
 21
-73.530167225811141
 31
0.0
  0
LINE
  5
11FA
  8
MSL_F12_32-0
 10
-215.0301672258114
 20
-73.530167225811141
 30
0.0
 11
-215.03016722580981
 21
-118.5301672258117
 31
0.0
  0
LINE
  5
11FB
  8
ZYL_32_ISO6431-3
 10
-217.5301672258114
 20
-81.03016722581296
 30
0.0
 11
-217.5301672258114
 21
-111.0301672258129
 31
0.0
1001
GENIUS_GENBH_13
1002
{
1000
OE
1000
CON1
1002
}
1001
GENIUS_GENOREF_13
1005
13C6
  0
LINE
  5
11FC
  8
ZYL_32_ISO6431-4A
 10
-207.0301672258114
 20
-81.03016722581296
 30
0.0
 11
-207.0301672258114
 21
-111.0301672258129
 31
0.0
  0
LINE
  5
11FD
  8
ZYL_32_ISO6431-3
 10
-226.0301672258114
 20
-81.525167225812964
 30
0.0
 11
-226.0301672258114
 21
-110.5351672258129
 31
0.0
1001
GENIUS_GENBH_13
1002
{
1000
OE
1000
CON1
1002
}
1001
GENIUS_GENOREF_13
1005
13C6
  0
LINE
  5
11FE
  8
ZYL_32_ISO6431-4A
 10
-207.0301672258114
 20
-121.0301672258129
 30
0.0
 11
-181.0301672258114
 21
-121.0301672258129
 31
0.0
  0
LINE
  5
11FF
  8
ZYL_32_ISO6431-3
 10
-226.0301672258114
 20
-110.5351672258129
 30
0.0
 11
-217.5301672258114
 21
-111.0301672258129
 31
0.0
1001
GENIUS_GENBH_13
1002
{
1000
OE
1000
CON1
1002
}
1001
GENIUS_GENOREF_13
1005
13C6
  0
LINE
  5
1200
  8
MSL_F12_32-7AN
 10
-192.03016722581
 20
-112.2801672258129
 30
0.0
 11
-224.03016722581
 21
-112.2801672258129
 31
0.0
1001
GENIUS_GEFPARTINS_13
1002
{
1011
-215.03016722581
1021
0.0
1031
0.0
1021
-112.2801672258129
1031
0.0
1013
1.0
1023
0.0
1033
0.0
1023
0.0
1033
0.0
1002
}
1001
GENIUS_GENOREF_13
1005
13BF
  0
LINE
  5
1201
  8
MSL_F12_32-3
 10
-207.03016722581049
 20
-111.03016722580919
 30
0.0
 11
-227.53016722581049
 21
-111.0301672258105
 31
0.0
  0
LINE
  5
1202
  8
MSL_F12_32-0
 10
-221.03016722581
 20
-113.53016722581199
 30
0.0
 11
-242.03016722581009
 21
-113.5301672258131
 31
0.0
  0
LINE
  5
1203
  8
ZYL_32_ISO6431-4A
 10
-207.0301672258114
 20
-118.2801672258129
 30
0.0
 11
-197.0301672258114
 21
-118.2801672258129
 31
0.0
  0
LINE
  5
1204
  8
MSL_F12_32-3
 10
-207.0301672258114
 20
-109.89366722581291
 30
0.0
 11
-190.0301672258114
 21
-109.89366722581291
 31
0.0
  0
LINE
  5
1205
  8
MSL_F12_32-3
 10
-207.0301672258114
 20
-109.2801672258129
 30
0.0
 11
-190.0301672258114
 21
-109.2801672258129
 31
0.0
  0
LINE
  5
1206
  8
MSL_F12_32-3
 10
-207.0301672258114
 20
-114.6666672258129
 30
0.0
 11
-190.0301672258114
 21
-114.6666672258129
 31
0.0
  0
LINE
  5
1207
  8
MSL_F12_32-3
 10
-207.0301672258114
 20
-115.2801672258129
 30
0.0
 11
-190.0301672258114
 21
-115.2801672258129
 31
0.0
  0
LINE
  5
1208
  8
ZYL_32_ISO6431-7
 10
-210.0301672258114
 20
-112.2801672258129
 30
0.0
 11
-190.0301672258114
 21
-112.2801672258129
 31
0.0
  0
LINE
  5
1209
  8
ZYL_32_ISO6431-4A
 10
-207.0301672258114
 20
-111.0301672258129
 30
0.0
 11
-207.0301672258114
 21
-121.0301672258129
 31
0.0
  0
LINE
  5
120A
  8
MSL_F12_32-0
 10
-207.03016722580981
 20
-118.5301672258111
 30
0.0
 11
-215.03016722580981
 21
-118.5301672258117
 31
0.0
  0
INSERT
  5
120B
  8
MSL_F12_32-0
  2
*U12
 10
-215.03016722581
 20
-112.2801672258129
 30
0.0
1001
GENIUS_GEFPARTINS_13
1002
{
1011
-215.03016722581
1021
0.0
1031
0.0
1021
-112.2801672258129
1031
0.0
1013
1.0
1023
0.0
1033
0.0
1023
0.0
1033
0.0
1002
}
1001
GENIUS_GENBH_13
1002
{
1000
REFI
1005
0
1002
}
1001
VCC
1002
{
1002
}
1001
GEVIT
1002
{
1000
-BEHI1.00000002
1000
-BVCCT0
1000
-GRP0MSL_F12_32-0
1000
-BAML2
1000
-BASK1
1000
-NT0
1000
-DOC
1005
13EB
1000
-MYREF
1005
120B
1002
}
1001
GEVPT
1002
{
1000
-V$PV_GENSYSTEM"GEF\VAL\DI\0301\DI1602_V.DXF"
1000
-FIXP$VCC_TABLE=C:\GENIUS\gef\val\di\0301\di1602.val
1000
-FIXP$TABLE=C:\GENIUS\gef\val\di\0301\di1602.val
1000
-FIXPLOTI=7.99999999999859
1000
-GPGEF_PROCALC=1
1000
-GPGEF_SNK_ADD=0
1000
-GPGEVPROMPTX=Länge:
1000
-GPGEF_OANG=70
1000
-GPGEF_STANG=210
1000
-GPGEF_DRAG=1
1000
-GPGEF_CDIST=3
1000
-GPGL2=0
1000
-GPGL1=0
1000
-GPGEF_FLIPY=2
1000
-GPGEF_FLIPX=2
1000
-GPHIDE=0
1000
-GPGEVBHOP=2
1000
-GPSELMODE=1
1000
-GPPTC=1
1000
-GPPRE=M
1000
-GPEGR=1
1000
-GPTPU=1
1000
-GPNND=6
1002
}
1001
GENIUS_GENOREF_13
1005
13BE
1005
13BD
1005
13C0
1005
13BF
1001
GEVMK
1002
{
1000
-CO
1000
-MYREF
1005
120B
1002
}
1001
GEVID884352783
1002
{
1000
-ID31
1002
}
  0
LINE
  5
120C
  8
ZYL_32_ISO6431-4A
 10
-181.0301672258114
 20
-118.0301672258129
 30
0.0
 11
-139.0301672258114
 21
-118.0301672258129
 31
0.0
  0
LINE
  5
120D
  8
ZYL_32_ISO6431-4A
 10
-139.0301672258114
 20
-112.5295672258129
 30
0.0
 11
-181.0301672258114
 21
-112.5295672258129
 31
0.0
  0
LINE
  5
120E
  8
ZYL_32_ISO6431-4A
 10
-181.0301672258114
 20
-121.0301672258129
 30
0.0
 11
-181.0301672258114
 21
-118.0301672258129
 31
0.0
  0
LINE
  5
120F
  8
ZYL_32_ISO6431-4A
 10
-139.0301672258114
 20
-118.0301672258129
 30
0.0
 11
-139.0301672258114
 21
-121.0301672258129
 31
0.0
  0
LINE
  5
1210
  8
ZYL_32_ISO6431-4A
 10
-181.0301672258114
 20
-71.03016722581296
 30
0.0
 11
-207.0301672258114
 21
-71.03016722581296
 31
0.0
  0
LINE
  5
1211
  8
ZYL_32_ISO6431-4A
 10
-185.77746722581139
 20
-85.870367225812956
 30
0.0
 11
-191.3899672258114
 21
-91.482857225812964
 31
0.0
  0
CIRCLE
  5
1212
  8
ZYL_32_ISO6431-4A
 10
-188.23016722581141
 20
-89.030167225812974
 30
0.0
 40
4.0
  0
LINE
  5
1213
  8
ZYL_32_ISO6431-4A
 10
-185.0703672258114
 20
-86.577477225812956
 30
0.0
 11
-190.68286722581141
 21
-92.189967225812964
 31
0.0
  0
INSERT
  5
1214
  8
MSL_F12_32-0N
  2
*U22
 10
-215.030167225811
 20
-79.780167225809805
 30
0.0
 41
-1.0
 50
180.00000000000361
1001
GENIUS_GEFPARTINS_13
1002
{
1011
-215.030167225811
1021
0.0
1031
0.0
1021
-79.780167225809805
1031
0.0
1013
1.0
1023
0.0
1033
0.0
1023
0.0000000000000639
1033
0.0
1002
}
1001
GENIUS_GENBH_13
1002
{
1000
REFI
1005
0
1002
}
1001
GEVPT
1002
{
1000
-V$PV_GENSYSTEM"GEF\VAL\DI\0101\DI2401_V.DXF"
1000
-FIXP$VCC_TABLE=C:\GENIUS\gef\val\di\0101\di2401.val
1000
-FIXP$TABLE=C:\GENIUS\gef\val\di\0101\di2401.val
1000
-FIXPNLGMIN=13.9999999999986
1000
-FIXPSHLMAX=7.99999999999859
1000
-FIXPKFDYN=0
1000
-INPPVCCTAB_DYN1=21.480267,0.333499,0,0
1000
-GPGEF_PROCALC=1
1000
-GPGEF_SNK_ADD=0
1000
-GPGEVPROMPTX=Länge:
1000
-GPGEF_OANG=70
1000
-GPGEF_STANG=210
1000
-GPGEF_DRAG=1
1000
-GPGEF_CDIST=3
1000
-GPGL2=0
1000
-GPGL1=0
1000
-GPGEF_FLIPY=2
1000
-GPGEF_FLIPX=2
1000
-GPHIDE=0
1000
-GPGEVBHOP=2
1000
-GPSELMODE=1
1000
-GPPTC=1
1000
-GPPRE=M
1000
-GPEGR=1
1000
-GPTPU=1
1000
-GPNND=6
1002
}
1001
GENIUS_GENOREF_13
1005
13BC
1005
13BB
1005
13BA
1001
VCC
1002
{
1002
}
1001
GEVIT
1002
{
1000
-BEHI1.00000003
1000
-BVCCT0
1000
-GRP0?
1000
-BAML2
1000
-BASK1
1000
-NT1
1000
-DOC
1005
146A
1000
-MYREF
1005
1214
1002
}
1001
GEVMK
1002
{
1000
-CO
1000
-MYREF
1005
1214
1002
}
1001
GEVID884352784
1002
{
1000
-ID26
1002
}
  0
LINE
  5
1215
  8
ZYL_32_ISO6431-4A
 10
-207.0301672258114
 20
-71.03016722581296
 30
0.0
 11
-207.0301672258114
 21
-81.03016722581296
 31
0.0
  0
LINE
  5
1216
  8
MSL_F12_32-0
 10
-242.0301672258114
 20
-73.53016722581296
 30
0.0
 11
-242.03016722581091
 21
-86.662670228213344
 31
0.0
  0
LINE
  5
1217
  8
ZYL_32_ISO6431-4A
 10
-197.0301672258114
 20
-71.03016722581296
 30
0.0
 11
-197.0301672258114
 21
-86.28016722581296
 31
0.0
  0
LINE
  5
1218
  8
ZYL_32_ISO6431-3
 10
-217.5301672258114
 20
-81.03016722581296
 30
0.0
 11
-226.0301672258114
 21
-81.525167225812964
 31
0.0
1001
GENIUS_GENBH_13
1002
{
1000
OE
1000
CON1
1002
}
1001
GENIUS_GENOREF_13
1005
13C6
  0
LINE
  5
1219
  8
MSL_F12_32-7AN
 10
-192.030167225811
 20
-79.780167225808313
 30
0.0
 11
-224.03016722581111
 21
-79.780167225810374
 31
0.0
1001
GENIUS_GEFPARTINS_13
1002
{
1011
-215.030167225811
1021
0.0
1031
0.0
1021
-79.780167225809805
1031
0.0
1013
1.0
1023
0.0
1033
0.0
1023
0.0000000000000639
1033
0.0
1002
}
1001
GENIUS_GENOREF_13
1005
13BA
  0
LINE
  5
121A
  8
MSL_F12_32-3
 10
-207.0301672258114
 20
-81.03016722581296
 30
0.0
 11
-227.5301672258114
 21
-81.03016722581296
 31
0.0
  0
CIRCLE
  5
121B
  8
MSF12-0
 10
-238.5301672258114
 20
-96.030167225811155
 30
0.0
 40
10.0
  0
LINE
  5
121C
  8
MSF12-3
 10
-246.5301672258114
 20
-102.0301672258111
 30
0.0
 11
-230.5301672258114
 21
-102.0301672258111
 31
0.0
  0
CIRCLE
  5
121D
  8
MSF12-0
 10
-238.5301672258114
 20
-96.030167225811155
 30
0.0
 40
2.0
  0
ARC
  5
121E
  8
MSF12-4
 10
-238.5301672258114
 20
-96.030167225811155
 30
0.0
 40
2.5
 50
270.0
 51
180.0
  0
LINE
  5
121F
  8
MSL_F12_32-0
 10
-221.030167225811
 20
-78.530167225811141
 30
0.0
 11
-242.0301672258114
 21
-78.530167225811141
 31
0.0
  0
LINE
  5
1220
  8
MSF12-3
 10
-246.5301672258114
 20
-90.030167225811127
 30
0.0
 11
-230.5301672258114
 21
-90.030167225811127
 31
0.0
  0
LINE
  5
1221
  8
ZYL_32_ISO6431-4A
 10
-207.0301672258114
 20
-106.2801672258129
 30
0.0
 11
-197.0301672258114
 21
-106.2801672258129
 31
0.0
  0
LINE
  5
1222
  8
ZYL_32_ISO6431-4A
 10
-197.0301672258114
 20
-105.7801672258129
 30
0.0
 11
-207.0301672258114
 21
-105.7801672258129
 31
0.0
  0
LINE
  5
1223
  8
ZYL_32_ISO6431-7
 10
-194.0301672258114
 20
-93.033967225812944
 30
0.0
 11
-194.0301672258114
 21
-105.0263672258129
 31
0.0
  0
ARC
  5
1224
  8
ZYL_32_ISO6431-4
 10
-194.0301672258114
 20
-99.030167225812974
 30
0.0
 40
4.863999999999999
 50
110.0
 51
20.0
  0
CIRCLE
  5
1225
  8
ZYL_32_ISO6431-4A
 10
-194.0301672258114
 20
-99.030167225812974
 30
0.0
 40
4.2830000000000004
  0
LINE
  5
1226
  8
ZYL_32_ISO6431-7
 10
-200.02636722581141
 20
-99.030167225812974
 30
0.0
 11
-188.03396722581141
 21
-99.030167225812974
 31
0.0
  0
LINE
  5
1227
  8
MSL_F12_32-3
 10
-207.03016722581231
 20
-82.166667225809306
 30
0.0
 11
-190.03016722581231
 21
-82.166667225808212
 31
0.0
  0
LINE
  5
1228
  8
MSL_F12_32-3
 10
-207.03016722581259
 20
-77.393667225809295
 30
0.0
 11
-190.03016722581259
 21
-77.393667225808201
 31
0.0
  0
LINE
  5
1229
  8
MSL_F12_32-3
 10
-207.03016722581259
 20
-76.780167225809294
 30
0.0
 11
-190.03016722581259
 21
-76.780167225808214
 31
0.0
  0
LINE
  5
122A
  8
ZYL_32_ISO6431-7
 10
-210.03016722581251
 20
-79.780167225809492
 30
0.0
 11
-190.03016722581239
 21
-79.780167225808214
 31
0.0
  0
LINE
  5
122B
  8
MSL_F12_32-3
 10
-207.03016722581231
 20
-82.780167225809294
 30
0.0
 11
-190.03016722581231
 21
-82.780167225808199
 31
0.0
  0
LINE
  5
122C
  8
ZYL_32_ISO6431-4A
 10
-207.0301672258114
 20
-85.780167225812946
 30
0.0
 11
-197.0301672258114
 21
-85.780167225812946
 31
0.0
  0
LINE
  5
122D
  8
ZYL_32_ISO6431-4A
 10
-197.0301672258114
 20
-86.28016722581296
 30
0.0
 11
-207.0301672258114
 21
-86.28016722581296
 31
0.0
  0
INSERT
  5
122E
  8
MSL_F12_32-0
  2
*U20
 10
-215.030167225811
 20
-79.780167225809805
 30
0.0
 41
-1.0
 50
180.00000000000361
1001
GENIUS_GEFPARTINS_13
1002
{
1011
-215.030167225811
1021
0.0
1031
0.0
1021
-79.780167225809805
1031
0.0
1013
1.0
1023
0.0
1033
0.0
1023
0.0000000000000639
1033
0.0
1002
}
1001
GENIUS_GENBH_13
1002
{
1000
REFI
1005
0
1002
}
1001
GEVPT
1002
{
1000
-V$PV_GENSYSTEM"GEF\VAL\DI\0301\DI1602_V.DXF"
1000
-FIXP$VCC_TABLE=C:\GENIUS\gef\val\di\0301\di1602.val
1000
-FIXP$TABLE=C:\GENIUS\gef\val\di\0301\di1602.val
1000
-FIXPLOTI=7.99999999999859
1000
-GPGEF_PROCALC=1
1000
-GPGEF_SNK_ADD=0
1000
-GPGEVPROMPTX=Länge:
1000
-GPGEF_OANG=70
1000
-GPGEF_STANG=210
1000
-GPGEF_DRAG=1
1000
-GPGEF_CDIST=3
1000
-GPGL2=0
1000
-GPGL1=0
1000
-GPGEF_FLIPY=2
1000
-GPGEF_FLIPX=2
1000
-GPHIDE=0
1000
-GPGEVBHOP=2
1000
-GPSELMODE=1
1000
-GPPTC=1
1000
-GPPRE=M
1000
-GPEGR=1
1000
-GPTPU=1
1000
-GPNND=6
1002
}
1001
GENIUS_GENOREF_13
1005
13B9
1005
13B8
1005
13BB
1005
13BA
1001
VCC
1002
{
1002
}
1001
GEVIT
1002
{
1000
-BEHI1.00000002
1000
-BVCCT0
1000
-GRP0MSL_F12_32-0
1000
-BAML2
1000
-BASK1
1000
-NT0
1000
-DOC
1005
145A
1000
-MYREF
1005
122E
1002
}
1001
GEVMK
1002
{
1000
-CO
1000
-MYREF
1005
122E
1002
}
1001
GEVID884352784
1002
{
1000
-ID31
1002
}
  0
LINE
  5
122F
  8
ZYL_32_ISO6431-4A
 10
-207.0301672258114
 20
-73.78016722581296
 30
0.0
 11
-197.0301672258114
 21
-73.78016722581296
 31
0.0
  0
LINE
  5
1230
  8
MSL_F12_32-0
 10
-207.0301672258114
 20
-73.530167225811141
 30
0.0
 11
-215.0301672258114
 21
-73.530167225811141
 31
0.0
  0
LINE
  5
1231
  8
ZYL_32_ISO6431-4A
 10
-123.0301672258114
 20
-71.03016722581296
 30
0.0
 11
-123.0301672258114
 21
-86.28016722581296
 31
0.0
  0
LINE
  5
1232
  8
ZYL_32_ISO6431-4A
 10
-139.0301672258114
 20
-79.530767225812951
 30
0.0
 11
-181.0301672258114
 21
-79.530767225812951
 31
0.0
  0
CIRCLE
  5
1233
  8
ZYL_32_ISO6431-4A
 10
-131.83016722581141
 20
-89.030167225812974
 30
0.0
 40
4.0
  0
LINE
  5
1234
  8
ZYL_32_ISO6431-7
 10
-126.0301672258114
 20
-93.033967225812944
 30
0.0
 11
-126.0301672258114
 21
-105.0263672258129
 31
0.0
  0
LINE
  5
1235
  8
ZYL_32_ISO6431-4A
 10
-134.9901672258114
 20
-86.577477225812956
 30
0.0
 11
-129.37716722581141
 21
-92.189967225812964
 31
0.0
  0
LINE
  5
1236
  8
ZYL_32_ISO6431-4A
 10
-134.28316722581141
 20
-85.870367225812956
 30
0.0
 11
-128.67016722581141
 21
-91.482857225812964
 31
0.0
  0
LINE
  5
1237
  8
ZYL_32_ISO6431-4A
 10
-139.0301672258114
 20
-74.03016722581296
 30
0.0
 11
-181.0301672258114
 21
-74.03016722581296
 31
0.0
  0
LINE
  5
1238
  8
ZYL_32_ISO6431-4A
 10
-181.0301672258114
 20
-74.03016722581296
 30
0.0
 11
-181.0301672258114
 21
-71.03016722581296
 31
0.0
  0
LINE
  5
1239
  8
ZYL_32_ISO6431-4A
 10
-139.0301672258114
 20
-71.03016722581296
 30
0.0
 11
-139.0301672258114
 21
-74.03016722581296
 31
0.0
  0
LINE
  5
123A
  8
ZYL_32_ISO6431-4A
 10
-113.0301672258114
 20
-81.03016722581296
 30
0.0
 11
-113.0301672258114
 21
-111.0301672258129
 31
0.0
  0
LINE
  5
123B
  8
ZYL_32_ISO6431-4A
 10
-109.0301672258114
 20
-111.0301672258129
 30
0.0
 11
-109.0301672258114
 21
-96.03016722581296
 31
0.0
  0
LINE
  5
123C
  8
ZYL_32_ISO6431-4A
 10
-113.0301672258114
 20
-121.0301672258129
 30
0.0
 11
-113.0301672258114
 21
-111.0301672258129
 31
0.0
  0
LINE
  5
123D
  8
ZYL_32_ISO6431-4A
 10
-113.0301672258114
 20
-111.0301672258129
 30
0.0
 11
-109.0301672258114
 21
-111.0301672258129
 31
0.0
  0
LINE
  5
123E
  8
ZYL_32_ISO6431-4A
 10
-113.0301672258114
 20
-81.03016722581296
 30
0.0
 11
-113.0301672258114
 21
-71.03016722581296
 31
0.0
  0
LINE
  5
123F
  8
ZYL_32_ISO6431-4A
 10
-109.0301672258114
 20
-96.03016722581296
 30
0.0
 11
-109.0301672258114
 21
-81.03016722581296
 31
0.0
  0
LINE
  5
1240
  8
ZYL_32_ISO6431-4A
 10
-109.0301672258114
 20
-81.03016722581296
 30
0.0
 11
-113.0301672258114
 21
-81.03016722581296
 31
0.0
  0
LINE
  5
1241
  8
ZYL_32_ISO6431-3
 10
-113.0301672258115
 20
19.250001152242561
 30
0.0
 11
-130.03016722581151
 21
19.250001152242561
 31
0.0
  0
LINE
  5
1242
  8
ZYL_32_ISO6431-4A
 10
-113.0301672258115
 20
22.250001152242561
 30
0.0
 11
-123.0301672258115
 21
22.250001152242561
 31
0.0
  0
LINE
  5
1243
  8
ZYL_32_ISO6431-3
 10
-113.0301672258115
 20
13.250001152242559
 30
0.0
 11
-130.03016722581151
 21
13.250001152242559
 31
0.0
  0
LINE
  5
1244
  8
ZYL_32_ISO6431-3
 10
-113.0301672258115
 20
13.86350115224255
 30
0.0
 11
-130.03016722581151
 21
13.86350115224255
 31
0.0
  0
LINE
  5
1245
  8
ZYL_32_ISO6431-7
 10
-110.0301672258115
 20
16.250001152242561
 30
0.0
 11
-130.03016722581151
 21
16.250001152242561
 31
0.0
  0
LINE
  5
1246
  8
ZYL_32_ISO6431-4A
 10
-123.0301672258115
 20
9.7500011522425591
 30
0.0
 11
-113.0301672258115
 21
9.7500011522425591
 31
0.0
  0
LINE
  5
1247
  8
ZYL_32_ISO6431-4A
 10
-113.0301672258115
 20
10.250001152242559
 30
0.0
 11
-123.0301672258115
 21
10.250001152242559
 31
0.0
  0
LINE
  5
1248
  8
ZYL_32_ISO6431-3
 10
-113.0301672258115
 20
18.63650115224257
 30
0.0
 11
-130.03016722581151
 21
18.63650115224257
 31
0.0
  0
LINE
  5
1249
  8
ZYL_32_ISO6431-4A
 10
-123.0301672258115
 20
-9.7499988477574391
 30
0.0
 11
-113.0301672258115
 21
-9.7499988477574391
 31
0.0
  0
LINE
  5
124A
  8
ZYL_32_ISO6431-4A
 10
-113.0301672258115
 20
-10.24999884775743
 30
0.0
 11
-123.0301672258115
 21
-10.24999884775743
 31
0.0
  0
LINE
  5
124B
  8
ZYL_32_ISO6431-3
 10
-113.0301672258115
 20
-13.249998847757441
 30
0.0
 11
-130.03016722581151
 21
-13.249998847757441
 31
0.0
  0
LINE
  5
124C
  8
ZYL_32_ISO6431-3
 10
-113.0301672258115
 20
-13.86349884775742
 30
0.0
 11
-130.03016722581151
 21
-13.86349884775742
 31
0.0
  0
LINE
  5
124D
  8
ZYL_32_ISO6431-7
 10
-110.0301672258115
 20
-16.249998847757439
 30
0.0
 11
-130.03016722581151
 21
-16.249998847757439
 31
0.0
  0
LINE
  5
124E
  8
ZYL_32_ISO6431-3
 10
-113.0301672258115
 20
-19.249998847757428
 30
0.0
 11
-130.03016722581151
 21
-19.249998847757428
 31
0.0
  0
LINE
  5
124F
  8
ZYL_32_ISO6431-3
 10
-113.0301672258115
 20
-18.636498847757451
 30
0.0
 11
-130.03016722581151
 21
-18.636498847757451
 31
0.0
  0
LINE
  5
1250
  8
ZYL_32_ISO6431-4A
 10
-113.0301672258115
 20
-22.249998847757439
 30
0.0
 11
-123.0301672258115
 21
-22.249998847757439
 31
0.0
  0
INSERT
  5
1251
  8
ZYL_32_ISO6431-0
  2
*U50
 10
-126.0301672258115
 20
25.000001152242561
 30
0.0
 50
270.0
1001
GENIUS_GEFPARTINS_13
1002
{
1011
-126.0301672258115
1021
0.0
1031
0.0
1021
25.000001152242561
1031
0.0
1013
-0.0000000000000002
1023
0.0
1033
0.0
1023
-1.0
1033
0.0
1002
}
1001
VCC
1002
{
1000
-ID24
1000
-IE10
1000
-IK24
1000
-V$PV_GENSYSTEM"GEF\VAL\DI\0405\DI1627_V.DXF"
1002
}
1001
GEVIT
1002
{
1000
-BEHI5.00000001
1000
-BVCCT0
1000
-T2
1000
-GRP0ZYL_32_ISO6431-0
1000
-BAML2
1000
-BASK1
1000
-NT0
1000
-DOC
1005
15F5
1000
-MYREF
1005
1251
1002
}
1001
GEVPT
1002
{
1000
-V$PV_GENSYSTEM"GEF\VAL\DI\0405\DI1627_V.DXF"
1000
-FIXPLOTI=5.000000000000000E+00
1000
-GPGEVBHOP=2
1000
-GPGEF_PROCALC=1
1000
-GPGEF_FLIPY=1
1000
-GPGEF_FLIPX=1
1000
-GPGEF_SNK_ADD=0
1000
-GPGEVPROMPTX=Länge:
1000
-GPGEF_OANG=70
1000
-GPGEF_STANG=210
1000
-GPGEF_DRAG=1
1000
-GPGEF_CDIST=3
1000
-GPVCC_TABLE=C:\GENIUS\gef\val\di\0405\di1627.val
1000
-GPNM1=1/8
1000
-GPPRE=G
1002
}
1001
GENIUS_GENOREF_13
1005
13B7
1001
GEVMK
1002
{
1000
-CO
1000
-MYREF
1005
1251
1002
}
1001
GEVID884352792
1002
{
1002
}
  0
LINE
  5
1252
  8
ZYL_32_ISO6431-7
 10
-204.03016722581151
 20
0.0000011522425609
 30
0.0
 11
-106.0301672258115
 21
0.0000011522425609
 31
0.0
  0
LINE
  5
1253
  8
ZYL_32_ISO6431-4A
 10
-113.0301672258115
 20
25.000001152242561
 30
0.0
 11
-139.03016722581151
 21
25.000001152242561
 31
0.0
  0
LINE
  5
1254
  8
ZYL_32_ISO6431-4A
 10
-139.03016722581151
 20
-24.999998847757439
 30
0.0
 11
-113.0301672258115
 21
-24.999998847757439
 31
0.0
  0
LINE
  5
1255
  8
ZYL_32_ISO6431-4A
 10
-123.0301672258115
 20
25.000001152242561
 30
0.0
 11
-123.0301672258115
 21
9.7500011522425591
 31
0.0
  0
LINE
  5
1256
  8
ZYL_32_ISO6431-4A
 10
-139.03016722581151
 20
22.000001152242561
 30
0.0
 11
-139.03016722581151
 21
-21.999998847757428
 31
0.0
  0
INSERT
  5
1257
  8
ZYL_32_ISO6431-0
  2
*U48
 10
-194.03016722581151
 20
25.000001152242561
 30
0.0
 50
270.0
1001
GENIUS_GEFPARTINS_13
1002
{
1011
-194.03016722581151
1021
0.0
1031
0.0
1021
25.000001152242561
1031
0.0
1013
-0.0000000000000002
1023
0.0
1033
0.0
1023
-1.0
1033
0.0
1002
}
1001
VCC
1002
{
1000
-ID23
1000
-IE9
1000
-IK23
1000
-V$PV_GENSYSTEM"GEF\VAL\DI\0405\DI1627_V.DXF"
1002
}
1001
GEVIT
1002
{
1000
-BEHI4.00000001
1000
-BVCCT0
1000
-T2
1000
-GRP0ZYL_32_ISO6431-0
1000
-BAML2
1000
-BASK1
1000
-NT0
1000
-DOC
1005
15E1
1000
-MYREF
1005
1257
1002
}
1001
GEVPT
1002
{
1000
-V$PV_GENSYSTEM"GEF\VAL\DI\0405\DI1627_V.DXF"
1000
-FIXPLOTI=5.000000000000000E+00
1000
-GPGEVBHOP=2
1000
-GPGEF_PROCALC=1
1000
-GPGEF_FLIPY=1
1000
-GPGEF_FLIPX=1
1000
-GPGEF_SNK_ADD=0
1000
-GPGEVPROMPTX=Länge:
1000
-GPGEF_OANG=70
1000
-GPGEF_STANG=210
1000
-GPGEF_DRAG=1
1000
-GPGEF_CDIST=3
1000
-GPVCC_TABLE=C:\GENIUS\gef\val\di\0405\di1627.val
1000
-GPNM1=1/8
1000
-GPPRE=G
1002
}
1001
GENIUS_GENOREF_13
1005
13B6
1001
GEVMK
1002
{
1000
-CO
1000
-MYREF
1005
1257
1002
}
1001
GEVID884352791
1002
{
1002
}
  0
INSERT
  5
1258
  8
MSL_F12_32-0
  2
*U42
 10
-215.03016722581111
 20
16.250001152245709
 30
0.0
 41
-1.0
 50
180.00000000000361
1001
GENIUS_GEFPARTINS_13
1002
{
1011
-215.03016722581111
1021
0.0
1031
0.0
1021
16.250001152245709
1031
0.0
1013
1.0
1023
0.0
1033
0.0
1023
0.0000000000000639
1033
0.0
1002
}
1001
GENIUS_GENBH_13
1002
{
1000
REFI
1005
0
1002
}
1001
GEVPT
1002
{
1000
-V$PV_GENSYSTEM"GEF\VAL\DI\0301\DI1602_V.DXF"
1000
-FIXP$VCC_TABLE=C:\GENIUS\gef\val\di\0301\di1602.val
1000
-FIXP$TABLE=C:\GENIUS\gef\val\di\0301\di1602.val
1000
-FIXPLOTI=7.99999999999859
1000
-GPGEF_PROCALC=1
1000
-GPGEF_SNK_ADD=0
1000
-GPGEVPROMPTX=Länge:
1000
-GPGEF_OANG=70
1000
-GPGEF_STANG=210
1000
-GPGEF_DRAG=1
1000
-GPGEF_CDIST=3
1000
-GPGL2=0
1000
-GPGL1=0
1000
-GPGEF_FLIPY=2
1000
-GPGEF_FLIPX=2
1000
-GPHIDE=0
1000
-GPGEVBHOP=2
1000
-GPSELMODE=1
1000
-GPPTC=1
1000
-GPPRE=M
1000
-GPEGR=1
1000
-GPTPU=1
1000
-GPNND=6
1002
}
1001
GENIUS_GENOREF_13
1005
13B5
1005
13B4
1005
13B3
1005
13B2
1001
VCC
1002
{
1002
}
1001
GEVIT
1002
{
1000
-BEHI1.00000002
1000
-BVCCT0
1000
-GRP0MSL_F12_32-0
1000
-BAML2
1000
-BASK1
1000
-NT0
1000
-DOC
1005
15A8
1000
-MYREF
1005
1258
1002
}
1001
GEVMK
1002
{
1000
-CO
1000
-MYREF
1005
1258
1002
}
1001
GEVID884352788
1002
{
1000
-ID31
1002
}
  0
INSERT
  5
1259
  8
MSL_F12_32-0N
  2
*U40
 10
-215.03016722581111
 20
16.250001152245709
 30
0.0
 41
-1.0
 50
180.00000000000361
1001
GENIUS_GEFPARTINS_13
1002
{
1011
-215.03016722581111
1021
0.0
1031
0.0
1021
16.250001152245709
1031
0.0
1013
1.0
1023
0.0
1033
0.0
1023
0.0000000000000639
1033
0.0
1002
}
1001
GENIUS_GENBH_13
1002
{
1000
REFI
1005
0
1002
}
1001
GEVPT
1002
{
1000
-V$PV_GENSYSTEM"GEF\VAL\DI\0101\DI2401_V.DXF"
1000
-FIXP$VCC_TABLE=C:\GENIUS\gef\val\di\0101\di2401.val
1000
-FIXP$TABLE=C:\GENIUS\gef\val\di\0101\di2401.val
1000
-FIXPNLGMIN=13.9999999999986
1000
-FIXPSHLMAX=7.99999999999859
1000
-FIXPKFDYN=0
1000
-INPPVCCTAB_DYN1=21.480267,0.333499,0,0
1000
-GPGEF_PROCALC=1
1000
-GPGEF_SNK_ADD=0
1000
-GPGEVPROMPTX=Länge:
1000
-GPGEF_OANG=70
1000
-GPGEF_STANG=210
1000
-GPGEF_DRAG=1
1000
-GPGEF_CDIST=3
1000
-GPGL2=0
1000
-GPGL1=0
1000
-GPGEF_FLIPY=2
1000
-GPGEF_FLIPX=2
1000
-GPHIDE=0
1000
-GPGEVBHOP=2
1000
-GPSELMODE=1
1000
-GPPTC=1
1000
-GPPRE=M
1000
-GPEGR=1
1000
-GPTPU=1
1000
-GPNND=6
1002
}
1001
GENIUS_GENOREF_13
1005
13B1
1005
13B3
1005
13B2
1001
VCC
1002
{
1002
}
1001
GEVIT
1002
{
1000
-BEHI1.00000003
1000
-BVCCT0
1000
-GRP0?
1000
-BAML2
1000
-BASK1
1000
-NT1
1000
-DOC
1005
1560
1000
-MYREF
1005
1259
1002
}
1001
GEVMK
1002
{
1000
-CO
1000
-MYREF
1005
1259
1002
}
1001
GEVID884352788
1002
{
1000
-ID26
1002
}
  0
LINE
  5
125A
  8
ZYL_32_ISO6431-4A
 10
-207.03016722581151
 20
25.000001152242561
 30
0.0
 11
-207.03016722581151
 21
15.000001152242559
 31
0.0
  0
LINE
  5
125B
  8
ZYL_32_ISO6431-4A
 10
-197.03016722581151
 20
25.000001152242561
 30
0.0
 11
-197.03016722581151
 21
9.7500011522425591
 31
0.0
  0
LINE
  5
125C
  8
MSF12-0
 10
-228.5301672258114
 20
44.500001152243406
 30
0.0
 11
-228.5301672258114
 21
17.500001152244369
 31
0.0
1001
GENIUS_GENOREF_13
1005
0
  0
LINE
  5
125D
  8
MSL_F12_32-0
 10
-242.03016722580981
 20
-22.499998847755759
 30
0.0
 11
-242.03016722581151
 21
22.500001152242561
 31
0.0
  0
LINE
  5
125E
  8
ZYL_32_ISO6431-4A
 10
-181.03016722581151
 20
22.000001152242561
 30
0.0
 11
-181.03016722581151
 21
-21.999998847757428
 31
0.0
  0
LINE
  5
125F
  8
MSL_F12_32-0
 10
-207.03016722581151
 20
-22.49999884775562
 30
0.0
 11
-207.03016722581151
 21
22.500001152244369
 31
0.0
  0
LINE
  5
1260
  8
MSL_F12_32-0
 10
-215.03016722581151
 20
22.500001152244369
 30
0.0
 11
-215.03016722580981
 21
-22.499998847756181
 31
0.0
  0
LINE
  5
1261
  8
MSF12-3
 10
-248.53016722581151
 20
6.0000011522433851
 30
0.0
 11
-248.53016722581151
 21
22.500001152242561
 31
0.0
1001
GENIUS_GENBH_13
1002
{
1000
OE
1000
CON1
1002
}
1001
GENIUS_GENOREF_13
1005
0
  0
LINE
  5
1262
  8
MSF12-7
 10
-238.53016722581151
 20
59.69904757742475
 30
0.0
 11
-238.53016722581151
 21
-20.154553847756599
 31
0.0
  0
LINE
  5
1263
  8
ZYL_32_ISO6431-4A
 10
-207.03016722581151
 20
-24.999998847757439
 30
0.0
 11
-181.03016722581151
 21
-24.999998847757439
 31
0.0
  0
INSERT
  5
1264
  8
MSL_F12_32-0N
  2
*U34
 10
-215.03016722581
 20
-16.249998847757439
 30
0.0
1001
GENIUS_GEFPARTINS_13
1002
{
1011
-215.03016722581
1021
0.0
1031
0.0
1021
-16.249998847757439
1031
0.0
1013
1.0
1023
0.0
1033
0.0
1023
0.0
1033
0.0
1002
}
1001
GENIUS_GENBH_13
1002
{
1000
REFI
1005
0
1002
}
1001
GEVPT
1002
{
1000
-V$PV_GENSYSTEM"GEF\VAL\DI\0101\DI2401_V.DXF"
1000
-FIXP$VCC_TABLE=C:\GENIUS\gef\val\di\0101\di2401.val
1000
-FIXP$TABLE=C:\GENIUS\gef\val\di\0101\di2401.val
1000
-FIXPNLGMIN=13.9999999999986
1000
-FIXPSHLMAX=7.99999999999859
1000
-FIXPKFDYN=0
1000
-INPPVCCTAB_DYN1=21.480267,0.333499,0,0
1000
-GPGEF_PROCALC=1
1000
-GPGEF_SNK_ADD=0
1000
-GPGEVPROMPTX=Länge:
1000
-GPGEF_OANG=70
1000
-GPGEF_STANG=210
1000
-GPGEF_DRAG=1
1000
-GPGEF_CDIST=3
1000
-GPGL2=0
1000
-GPGL1=0
1000
-GPGEF_FLIPY=2
1000
-GPGEF_FLIPX=2
1000
-GPHIDE=0
1000
-GPGEVBHOP=2
1000
-GPSELMODE=1
1000
-GPPTC=1
1000
-GPPRE=M
1000
-GPEGR=1
1000
-GPTPU=1
1000
-GPNND=6
1002
}
1001
GENIUS_GENOREF_13
1005
13B0
1005
13AF
1005
13AE
1001
VCC
1002
{
1002
}
1001
GEVIT
1002
{
1000
-BEHI1.00000003
1000
-BVCCT0
1000
-GRP0?
1000
-BAML2
1000
-BASK1
1000
-NT1
1000
-DOC
1005
1501
1000
-MYREF
1005
1264
1002
}
1001
GEVMK
1002
{
1000
-CO
1000
-MYREF
1005
1264
1002
}
1001
GEVID884352787
1002
{
1000
-ID26
1002
}
  0
LINE
  5
1265
  8
ZYL_32_ISO6431-4A
 10
-197.03016722581151
 20
-24.999998847757439
 30
0.0
 11
-197.03016722581151
 21
-9.7499988477574391
 31
0.0
  0
POLYLINE
  5
1266
  8
MSF12-3
 66
     1
 10
0.0
 20
0.0
 30
0.0
1001
GENIUS_GENBH_13
1002
{
1000
OE
1000
CON1
1002
}
1001
GENIUS_GENOREF_13
1005
0
  0
VERTEX
  5
1267
  8
MSF12-3
 10
-228.5301672258114
 20
-5.999998847756614
 30
0.0
  0
VERTEX
  5
1268
  8
MSF12-3
 10
-228.5301672258114
 20
-17.499998847756611
 30
0.0
  0
SEQEND
  5
1269
  8
MSF12-3
  0
LINE
  5
126A
  8
ZYL_32_ISO6431-4A
 10
-207.03016722581151
 20
15.000001152242559
 30
0.0
 11
-207.03016722581151
 21
-14.999998847757441
 31
0.0
  0
LINE
  5
126B
  8
MSL_F12_32-3
 10
-227.53016722581049
 20
-14.99999884775505
 30
0.0
 11
-227.53016722581151
 21
15.000001152242559
 31
0.0
  0
LINE
  5
126C
  8
ZYL_32_ISO6431-3
 10
-226.03016722581151
 20
14.505001152242549
 30
0.0
 11
-226.03016722581151
 21
-14.504998847757429
 31
0.0
1001
GENIUS_GENBH_13
1002
{
1000
OE
1000
CON1
1002
}
1001
GENIUS_GENOREF_13
1005
13C7
  0
LINE
  5
126D
  8
ZYL_32_ISO6431-3
 10
-217.53016722581151
 20
15.000001152242559
 30
0.0
 11
-217.53016722581151
 21
-14.999998847757441
 31
0.0
1001
GENIUS_GENBH_13
1002
{
1000
OE
1000
CON1
1002
}
1001
GENIUS_GENOREF_13
1005
13C7
  0
POLYLINE
  5
126E
  8
MSF12-3
 66
     1
 10
0.0
 20
0.0
 30
0.0
1001
GENIUS_GENBH_13
1002
{
1000
OE
1000
CON1
1002
}
1001
GENIUS_GENOREF_13
1005
0
  0
VERTEX
  5
126F
  8
MSF12-3
 10
-242.03016722581009
 20
-17.499998847757581
 30
0.0
  0
VERTEX
  5
1270
  8
MSF12-3
 10
-248.53016722581151
 20
-17.499998847756611
 30
0.0
  0
VERTEX
  5
1271
  8
MSF12-3
 10
-248.53016722581151
 20
-5.999998847756614
 30
0.0
  0
SEQEND
  5
1272
  8
MSF12-3
  0
LINE
  5
1273
  8
ZYL_32_ISO6431-3
 10
-226.03016722581151
 20
-14.504998847757429
 30
0.0
 11
-217.53016722581151
 21
-14.999998847757441
 31
0.0
1001
GENIUS_GENBH_13
1002
{
1000
OE
1000
CON1
1002
}
1001
GENIUS_GENOREF_13
1005
13C7
  0
LINE
  5
1274
  8
MSL_F12_32-7AN
 10
-192.03016722581009
 20
-16.249998847757439
 30
0.0
 11
-224.03016722581
 21
-16.249998847757439
 31
0.0
1001
GENIUS_GEFPARTINS_13
1002
{
1011
-215.03016722581
1021
0.0
1031
0.0
1021
-16.249998847757439
1031
0.0
1013
1.0
1023
0.0
1033
0.0
1023
0.0
1033
0.0
1002
}
1001
GENIUS_GENOREF_13
1005
13AE
  0
LINE
  5
1275
  8
MSL_F12_32-3
 10
-207.03016722581049
 20
-14.999998847753769
 30
0.0
 11
-227.53016722581049
 21
-14.99999884775505
 31
0.0
  0
LINE
  5
1276
  8
MSL_F12_32-0
 10
-221.03016722581009
 20
-17.499998847756501
 30
0.0
 11
-242.03016722581009
 21
-17.499998847757581
 31
0.0
  0
LINE
  5
1277
  8
MSL_F12_32-3
 10
-207.03016722581151
 20
-13.86349884775742
 30
0.0
 11
-190.03016722581151
 21
-13.86349884775742
 31
0.0
  0
LINE
  5
1278
  8
MSL_F12_32-3
 10
-207.03016722581151
 20
-13.249998847757441
 30
0.0
 11
-190.03016722581151
 21
-13.249998847757441
 31
0.0
  0
LINE
  5
1279
  8
ZYL_32_ISO6431-7
 10
-210.0301672258114
 20
-16.249998847757439
 30
0.0
 11
-190.03016722581151
 21
-16.249998847757439
 31
0.0
  0
LINE
  5
127A
  8
ZYL_32_ISO6431-4A
 10
-207.03016722581151
 20
-22.249998847757439
 30
0.0
 11
-197.03016722581151
 21
-22.249998847757439
 31
0.0
  0
LINE
  5
127B
  8
MSL_F12_32-3
 10
-207.03016722581151
 20
-18.636498847757451
 30
0.0
 11
-190.03016722581151
 21
-18.636498847757451
 31
0.0
  0
LINE
  5
127C
  8
MSL_F12_32-3
 10
-207.03016722581151
 20
-19.249998847757428
 30
0.0
 11
-190.03016722581151
 21
-19.249998847757428
 31
0.0
  0
LINE
  5
127D
  8
ZYL_32_ISO6431-4A
 10
-207.03016722581151
 20
-14.999998847757441
 30
0.0
 11
-207.03016722581151
 21
-24.999998847757439
 31
0.0
  0
LINE
  5
127E
  8
MSL_F12_32-0
 10
-207.03016722580981
 20
-22.49999884775562
 30
0.0
 11
-215.03016722580981
 21
-22.499998847756181
 31
0.0
  0
INSERT
  5
127F
  8
MSL_F12_32-0
  2
*U32
 10
-215.03016722581
 20
-16.249998847757439
 30
0.0
1001
GENIUS_GEFPARTINS_13
1002
{
1011
-215.03016722581
1021
0.0
1031
0.0
1021
-16.249998847757439
1031
0.0
1013
1.0
1023
0.0
1033
0.0
1023
0.0
1033
0.0
1002
}
1001
GENIUS_GENBH_13
1002
{
1000
REFI
1005
0
1002
}
1001
GEVPT
1002
{
1000
-V$PV_GENSYSTEM"GEF\VAL\DI\0301\DI1602_V.DXF"
1000
-FIXP$VCC_TABLE=C:\GENIUS\gef\val\di\0301\di1602.val
1000
-FIXP$TABLE=C:\GENIUS\gef\val\di\0301\di1602.val
1000
-FIXPLOTI=7.99999999999859
1000
-GPGEF_PROCALC=1
1000
-GPGEF_SNK_ADD=0
1000
-GPGEVPROMPTX=Länge:
1000
-GPGEF_OANG=70
1000
-GPGEF_STANG=210
1000
-GPGEF_DRAG=1
1000
-GPGEF_CDIST=3
1000
-GPGL2=0
1000
-GPGL1=0
1000
-GPGEF_FLIPY=2
1000
-GPGEF_FLIPX=2
1000
-GPHIDE=0
1000
-GPGEVBHOP=2
1000
-GPSELMODE=1
1000
-GPPTC=1
1000
-GPPRE=M
1000
-GPEGR=1
1000
-GPTPU=1
1000
-GPNND=6
1002
}
1001
GENIUS_GENOREF_13
1005
13AD
1005
13AC
1005
13AF
1005
13AE
1001
VCC
1002
{
1002
}
1001
GEVIT
1002
{
1000
-BEHI1.00000002
1000
-BVCCT0
1000
-GRP0MSL_F12_32-0
1000
-BAML2
1000
-BASK1
1000
-NT0
1000
-DOC
1005
14F1
1000
-MYREF
1005
127F
1002
}
1001
GEVMK
1002
{
1000
-CO
1000
-MYREF
1005
127F
1002
}
1001
GEVID884352787
1002
{
1000
-ID31
1002
}
  0
LINE
  5
1280
  8
ZYL_32_ISO6431-3
 10
-217.53016722581151
 20
15.000001152242559
 30
0.0
 11
-226.03016722581151
 21
14.505001152242549
 31
0.0
1001
GENIUS_GENBH_13
1002
{
1000
OE
1000
CON1
1002
}
1001
GENIUS_GENOREF_13
1005
13C7
  0
LINE
  5
1281
  8
MSL_F12_32-7AN
 10
-192.03016722581111
 20
16.25000115224719
 30
0.0
 11
-224.03016722581111
 21
16.25000115224514
 31
0.0
1001
GENIUS_GEFPARTINS_13
1002
{
1011
-215.03016722581111
1021
0.0
1031
0.0
1021
16.250001152245709
1031
0.0
1013
1.0
1023
0.0
1033
0.0
1023
0.0000000000000639
1033
0.0
1002
}
1001
GENIUS_GENOREF_13
1005
13B2
  0
LINE
  5
1282
  8
MSL_F12_32-3
 10
-207.03016722581151
 20
15.000001152242559
 30
0.0
 11
-227.53016722581151
 21
15.000001152242559
 31
0.0
  0
POLYLINE
  5
1283
  8
MSF12-3
 66
     1
 10
0.0
 20
0.0
 30
0.0
1001
GENIUS_GENBH_13
1002
{
1000
OE
1000
CON1
1002
}
1001
GENIUS_GENOREF_13
1005
0
  0
VERTEX
  5
1284
  8
MSF12-3
 10
-228.5301672258114
 20
-5.999998847756614
 30
0.0
  0
VERTEX
  5
1285
  8
MSF12-3
 10
-228.6609732258114
 20
-5.9871518477566212
 30
0.0
  0
VERTEX
  5
1286
  8
MSF12-3
 10
-228.79121922581149
 20
-5.9486678477566102
 30
0.0
  0
VERTEX
  5
1287
  8
MSF12-3
 10
-228.92034722581141
 20
-5.8847098477565956
 30
0.0
  0
VERTEX
  5
1288
  8
MSF12-3
 10
-229.0478052258114
 20
-5.7955538477566222
 30
0.0
  0
VERTEX
  5
1289
  8
MSF12-3
 10
-229.1730462258115
 20
-5.6815798477566091
 30
0.0
  0
VERTEX
  5
128A
  8
MSF12-3
 10
-229.2955332258114
 20
-5.5432758477566031
 30
0.0
  0
VERTEX
  5
128B
  8
MSF12-3
 10
-229.4147442258114
 20
-5.3812348477565868
 30
0.0
  0
VERTEX
  5
128C
  8
MSF12-3
 10
-229.5301672258114
 20
-5.1961508477566261
 30
0.0
  0
VERTEX
  5
128D
  8
MSF12-3
 10
-229.6413072258114
 20
-4.988815847756598
 30
0.0
  0
VERTEX
  5
128E
  8
MSF12-3
 10
-229.74768922581151
 20
-4.7601188477566154
 30
0.0
  0
VERTEX
  5
128F
  8
MSF12-3
 10
-229.84885822581151
 20
-4.5110378477565973
 30
0.0
  0
VERTEX
  5
1290
  8
MSF12-3
 10
-229.9443802258115
 20
-4.2426388477566093
 30
0.0
  0
VERTEX
  5
1291
  8
MSF12-3
 10
-230.0338462258114
 20
-3.9560738477566129
 30
0.0
  0
VERTEX
  5
1292
  8
MSF12-3
 10
-230.1168732258115
 20
-3.6525668477566171
 30
0.0
  0
VERTEX
  5
1293
  8
MSF12-3
 10
-230.1931062258115
 20
-3.3334198477566011
 30
0.0
  0
VERTEX
  5
1294
  8
MSF12-3
 10
-230.26221722581141
 20
-2.999998847756614
 30
0.0
  0
VERTEX
  5
1295
  8
MSF12-3
 10
-230.32391222581151
 20
-2.6537308477566048
 30
0.0
  0
VERTEX
  5
1296
  8
MSF12-3
 10
-230.37792622581151
 20
-2.29609884775661
 30
0.0
  0
VERTEX
  5
1297
  8
MSF12-3
 10
-230.4240272258115
 20
-1.928635847756595
 30
0.0
  0
VERTEX
  5
1298
  8
MSF12-3
 10
-230.46201822581151
 20
-1.552912847756601
 30
0.0
  0
VERTEX
  5
1299
  8
MSF12-3
 10
-230.49173722581151
 20
-1.1705408477565979
 30
0.0
  0
VERTEX
  5
129A
  8
MSF12-3
 10
-230.51305622581151
 20
-0.7831558477566319
 30
0.0
  0
VERTEX
  5
129B
  8
MSF12-3
 10
-230.5258842258115
 20
-0.3924178477566045
 30
0.0
  0
VERTEX
  5
129C
  8
MSF12-3
 10
-230.5301672258114
 20
0.0000011522433851
 30
0.0
  0
VERTEX
  5
129D
  8
MSF12-3
 10
-230.5258842258115
 20
0.3924201522433748
 30
0.0
  0
VERTEX
  5
129E
  8
MSF12-3
 10
-230.51305622581151
 20
0.7831581522434022
 30
0.0
  0
VERTEX
  5
129F
  8
MSF12-3
 10
-230.49173722581151
 20
1.170543152243368
 30
0.0
  0
VERTEX
  5
12A0
  8
MSF12-3
 10
-230.46201822581151
 20
1.5529151522433999
 30
0.0
  0
VERTEX
  5
12A1
  8
MSF12-3
 10
-230.4240272258115
 20
1.928638152243394
 30
0.0
  0
VERTEX
  5
12A2
  8
MSF12-3
 10
-230.37792622581151
 20
2.2961021522433782
 30
0.0
  0
VERTEX
  5
12A3
  8
MSF12-3
 10
-230.32391222581151
 20
2.653733152243404
 30
0.0
  0
VERTEX
  5
12A4
  8
MSF12-3
 10
-230.26221722581141
 20
3.0000011522433851
 30
0.0
  0
VERTEX
  5
12A5
  8
MSF12-3
 10
-230.1931062258115
 20
3.3334231522433981
 30
0.0
  0
VERTEX
  5
12A6
  8
MSF12-3
 10
-230.1168732258115
 20
3.652570152243384
 30
0.0
  0
VERTEX
  5
12A7
  8
MSF12-3
 10
-230.0338462258114
 20
3.9560761522433832
 30
0.0
  0
VERTEX
  5
12A8
  8
MSF12-3
 10
-229.9443802258115
 20
4.242642152243377
 30
0.0
  0
VERTEX
  5
12A9
  8
MSF12-3
 10
-229.84885822581151
 20
4.5110401522433961
 30
0.0
  0
VERTEX
  5
12AA
  8
MSF12-3
 10
-229.74768922581151
 20
4.7601211522433848
 30
0.0
  0
VERTEX
  5
12AB
  8
MSF12-3
 10
-229.6413072258114
 20
4.9888191522433942
 30
0.0
  0
VERTEX
  5
12AC
  8
MSF12-3
 10
-229.5301672258114
 20
5.1961541522433938
 30
0.0
  0
VERTEX
  5
12AD
  8
MSF12-3
 10
-229.4147442258114
 20
5.3812381522434123
 30
0.0
  0
VERTEX
  5
12AE
  8
MSF12-3
 10
-229.2955332258114
 20
5.5432781522434018
 30
0.0
  0
VERTEX
  5
12AF
  8
MSF12-3
 10
-229.1730462258115
 20
5.6815821522434069
 30
0.0
  0
VERTEX
  5
12B0
  8
MSF12-3
 10
-229.0478052258114
 20
5.7955561522433916
 30
0.0
  0
VERTEX
  5
12B1
  8
MSF12-3
 10
-228.92034722581141
 20
5.8847131522433918
 30
0.0
  0
VERTEX
  5
12B2
  8
MSF12-3
 10
-228.79121922581149
 20
5.9486701522433796
 30
0.0
  0
VERTEX
  5
12B3
  8
MSF12-3
 10
-228.6609732258114
 20
5.987155152243389
 30
0.0
  0
VERTEX
  5
12B4
  8
MSF12-3
 10
-228.5301672258114
 20
6.0000011522433851
 30
0.0
  0
SEQEND
  5
12B5
  8
MSF12-3
  0
POLYLINE
  5
12B6
  8
MSF12-3
 66
     1
 10
0.0
 20
0.0
 30
0.0
1001
GENIUS_GENBH_13
1002
{
1000
OE
1000
CON1
1002
}
1001
GENIUS_GENOREF_13
1005
0
  0
VERTEX
  5
12B7
  8
MSF12-3
 10
-248.53016722581151
 20
-5.999998847756614
 30
0.0
  0
VERTEX
  5
12B8
  8
MSF12-3
 10
-248.39936022581151
 20
-5.9871518477566212
 30
0.0
  0
VERTEX
  5
12B9
  8
MSF12-3
 10
-248.26911422581151
 20
-5.9486678477566102
 30
0.0
  0
VERTEX
  5
12BA
  8
MSF12-3
 10
-248.13998622581141
 20
-5.8847098477565956
 30
0.0
  0
VERTEX
  5
12BB
  8
MSF12-3
 10
-248.01252922581139
 20
-5.7955538477566222
 30
0.0
  0
VERTEX
  5
12BC
  8
MSF12-3
 10
-247.8872882258114
 20
-5.6815798477566091
 30
0.0
  0
VERTEX
  5
12BD
  8
MSF12-3
 10
-247.7648002258114
 20
-5.5432758477566031
 30
0.0
  0
VERTEX
  5
12BE
  8
MSF12-3
 10
-247.64558922581151
 20
-5.3812348477565868
 30
0.0
  0
VERTEX
  5
12BF
  8
MSF12-3
 10
-247.53016722581151
 20
-5.1961508477566261
 30
0.0
  0
VERTEX
  5
12C0
  8
MSF12-3
 10
-247.41902622581139
 20
-4.988815847756598
 30
0.0
  0
VERTEX
  5
12C1
  8
MSF12-3
 10
-247.3126442258114
 20
-4.7601188477566154
 30
0.0
  0
VERTEX
  5
12C2
  8
MSF12-3
 10
-247.21147522581151
 20
-4.5110378477565973
 30
0.0
  0
VERTEX
  5
12C3
  8
MSF12-3
 10
-247.1159532258115
 20
-4.2426388477566093
 30
0.0
  0
VERTEX
  5
12C4
  8
MSF12-3
 10
-247.02648722581139
 20
-3.9560738477566129
 30
0.0
  0
VERTEX
  5
12C5
  8
MSF12-3
 10
-246.94346022581149
 20
-3.6525668477566171
 30
0.0
  0
VERTEX
  5
12C6
  8
MSF12-3
 10
-246.8672272258114
 20
-3.3334198477566011
 30
0.0
  0
VERTEX
  5
12C7
  8
MSF12-3
 10
-246.79811622581141
 20
-2.999998847756614
 30
0.0
  0
VERTEX
  5
12C8
  8
MSF12-3
 10
-246.7364212258114
 20
-2.6537308477566048
 30
0.0
  0
VERTEX
  5
12C9
  8
MSF12-3
 10
-246.6824082258114
 20
-2.29609884775661
 30
0.0
  0
VERTEX
  5
12CA
  8
MSF12-3
 10
-246.63630622581141
 20
-1.928635847756595
 30
0.0
  0
VERTEX
  5
12CB
  8
MSF12-3
 10
-246.59831522581149
 20
-1.552912847756601
 30
0.0
  0
VERTEX
  5
12CC
  8
MSF12-3
 10
-246.56859622581149
 20
-1.1705408477565979
 30
0.0
  0
VERTEX
  5
12CD
  8
MSF12-3
 10
-246.54727722581151
 20
-0.7831558477566319
 30
0.0
  0
VERTEX
  5
12CE
  8
MSF12-3
 10
-246.5344492258115
 20
-0.3924178477566045
 30
0.0
  0
VERTEX
  5
12CF
  8
MSF12-3
 10
-246.53016722581151
 20
0.0000011522433851
 30
0.0
  0
VERTEX
  5
12D0
  8
MSF12-3
 10
-246.5344492258115
 20
0.3924201522433748
 30
0.0
  0
VERTEX
  5
12D1
  8
MSF12-3
 10
-246.54727722581151
 20
0.7831581522434022
 30
0.0
  0
VERTEX
  5
12D2
  8
MSF12-3
 10
-246.56859622581149
 20
1.170543152243368
 30
0.0
  0
VERTEX
  5
12D3
  8
MSF12-3
 10
-246.59831522581149
 20
1.5529151522433999
 30
0.0
  0
VERTEX
  5
12D4
  8
MSF12-3
 10
-246.63630622581141
 20
1.928638152243394
 30
0.0
  0
VERTEX
  5
12D5
  8
MSF12-3
 10
-246.6824082258114
 20
2.2961021522433782
 30
0.0
  0
VERTEX
  5
12D6
  8
MSF12-3
 10
-246.7364212258114
 20
2.653733152243404
 30
0.0
  0
VERTEX
  5
12D7
  8
MSF12-3
 10
-246.79811622581141
 20
3.0000011522433851
 30
0.0
  0
VERTEX
  5
12D8
  8
MSF12-3
 10
-246.8672272258114
 20
3.3334231522433981
 30
0.0
  0
VERTEX
  5
12D9
  8
MSF12-3
 10
-246.94346022581149
 20
3.652570152243384
 30
0.0
  0
VERTEX
  5
12DA
  8
MSF12-3
 10
-247.02648722581139
 20
3.9560761522433832
 30
0.0
  0
VERTEX
  5
12DB
  8
MSF12-3
 10
-247.1159532258115
 20
4.242642152243377
 30
0.0
  0
VERTEX
  5
12DC
  8
MSF12-3
 10
-247.21147522581151
 20
4.5110401522433961
 30
0.0
  0
VERTEX
  5
12DD
  8
MSF12-3
 10
-247.3126442258114
 20
4.7601211522433848
 30
0.0
  0
VERTEX
  5
12DE
  8
MSF12-3
 10
-247.41902622581139
 20
4.9888191522433942
 30
0.0
  0
VERTEX
  5
12DF
  8
MSF12-3
 10
-247.53016722581151
 20
5.1961541522433938
 30
0.0
  0
VERTEX
  5
12E0
  8
MSF12-3
 10
-247.64558922581151
 20
5.3812381522434123
 30
0.0
  0
VERTEX
  5
12E1
  8
MSF12-3
 10
-247.7648002258114
 20
5.5432781522434018
 30
0.0
  0
VERTEX
  5
12E2
  8
MSF12-3
 10
-247.8872882258114
 20
5.6815821522434069
 30
0.0
  0
VERTEX
  5
12E3
  8
MSF12-3
 10
-248.01252922581139
 20
5.7955561522433916
 30
0.0
  0
VERTEX
  5
12E4
  8
MSF12-3
 10
-248.13998622581141
 20
5.8847131522433918
 30
0.0
  0
VERTEX
  5
12E5
  8
MSF12-3
 10
-248.26911422581151
 20
5.9486701522433796
 30
0.0
  0
VERTEX
  5
12E6
  8
MSF12-3
 10
-248.39936022581151
 20
5.987155152243389
 30
0.0
  0
VERTEX
  5
12E7
  8
MSF12-3
 10
-248.53016722581151
 20
6.0000011522433851
 30
0.0
  0
SEQEND
  5
12E8
  8
MSF12-3
  0
LINE
  5
12E9
  8
MSL_F12_32-0
 10
-221.03016722581111
 20
17.500001152244369
 30
0.0
 11
-242.03016722581151
 21
17.500001152244369
 31
0.0
  0
LINE
  5
12EA
  8
MSF12-3
 10
-228.5301672258114
 20
17.500001152244369
 30
0.0
 11
-228.5301672258114
 21
6.0000011522433851
 31
0.0
1001
GENIUS_GENBH_13
1002
{
1000
OE
1000
CON1
1002
}
1001
GENIUS_GENOREF_13
1005
0
  0
LINE
  5
12EB
  8
ZYL_32_ISO6431-4A
 10
-207.03016722581151
 20
-10.24999884775743
 30
0.0
 11
-197.03016722581151
 21
-10.24999884775743
 31
0.0
  0
LINE
  5
12EC
  8
ZYL_32_ISO6431-4A
 10
-197.03016722581151
 20
-9.7499988477574391
 30
0.0
 11
-207.03016722581151
 21
-9.7499988477574391
 31
0.0
  0
LINE
  5
12ED
  8
ZYL_32_ISO6431-4A
 10
-207.03016722581151
 20
10.250001152242559
 30
0.0
 11
-197.03016722581151
 21
10.250001152242559
 31
0.0
  0
LINE
  5
12EE
  8
ZYL_32_ISO6431-4A
 10
-197.03016722581151
 20
9.7500011522425591
 30
0.0
 11
-207.03016722581151
 21
9.7500011522425591
 31
0.0
  0
LINE
  5
12EF
  8
MSL_F12_32-3
 10
-207.0301672258127
 20
18.636501152246211
 30
0.0
 11
-190.0301672258127
 21
18.636501152247309
 31
0.0
  0
LINE
  5
12F0
  8
MSL_F12_32-3
 10
-207.03016722581231
 20
13.25000115224622
 30
0.0
 11
-190.03016722581231
 21
13.2500011522473
 31
0.0
  0
LINE
  5
12F1
  8
MSL_F12_32-3
 10
-207.03016722581231
 20
13.86350115224624
 30
0.0
 11
-190.03016722581231
 21
13.86350115224732
 31
0.0
  0
LINE
  5
12F2
  8
ZYL_32_ISO6431-7
 10
-210.03016722581251
 20
16.250001152246028
 30
0.0
 11
-190.03016722581251
 21
16.2500011522473
 31
0.0
  0
LINE
  5
12F3
  8
ZYL_32_ISO6431-4A
 10
-123.0301672258115
 20
-24.999998847757439
 30
0.0
 11
-123.0301672258115
 21
-9.7499988477574391
 31
0.0
  0
TEXT
  5
12F4
  8
ZYL_32_ISO6431-6
 10
-175.257815810305
 20
-12.96013641011799
 30
0.0
 40
1.5
  1
Zylinder %%c32 DIN/ISO 6431
  0
LINE
  5
12F5
  8
ZYL_32_ISO6431-4A
 10
-181.03016722581151
 20
-21.999998847757428
 30
0.0
 11
-139.03016722581151
 21
-21.999998847757428
 31
0.0
  0
LINE
  5
12F6
  8
ZYL_32_ISO6431-4A
 10
-139.03016722581151
 20
-16.49939884775744
 30
0.0
 11
-181.03016722581151
 21
-16.49939884775744
 31
0.0
  0
TEXT
  5
12F7
  8
ZYL_32_ISO6431-6
 10
-175.257815810305
 20
-15.568462557960711
 30
0.0
 40
1.5
  1
Kolbenstange um 40mm verlängert
  0
LINE
  5
12F8
  8
ZYL_32_ISO6431-4A
 10
-181.03016722581151
 20
-24.999998847757439
 30
0.0
 11
-181.03016722581151
 21
-21.999998847757428
 31
0.0
  0
LINE
  5
12F9
  8
ZYL_32_ISO6431-4A
 10
-139.03016722581151
 20
-21.999998847757428
 30
0.0
 11
-139.03016722581151
 21
-24.999998847757439
 31
0.0
  0
LINE
  5
12FA
  8
ZYL_32_ISO6431-4A
 10
-139.03016722581151
 20
16.499401152242559
 30
0.0
 11
-181.03016722581151
 21
16.499401152242559
 31
0.0
  0
LINE
  5
12FB
  8
ZYL_32_ISO6431-4A
 10
-181.03016722581151
 20
25.000001152242561
 30
0.0
 11
-207.03016722581151
 21
25.000001152242561
 31
0.0
  0
LINE
  5
12FC
  8
MSF12-4A
 10
-234.53016722581151
 20
44.500001152243406
 30
0.0
 11
-234.53016722581211
 21
54.500001152243406
 31
0.0
  0
LINE
  5
12FD
  8
MSF12-4A
 10
-242.53016722581151
 20
44.500001152243406
 30
0.0
 11
-242.5301672258108
 21
54.500001152243406
 31
0.0
  0
LINE
  5
12FE
  8
MSF12-0
 10
-248.53016722581151
 20
22.500001152242561
 30
0.0
 11
-248.53016722581151
 21
44.500001152243406
 31
0.0
1001
GENIUS_GENOREF_13
1005
0
  0
INSERT
  5
12FF
  8
MSF12-0N
 66
     1
  2
GENINF13
 10
-234.7245479224116
 20
30.207411364697521
 30
0.0
1001
GENIUS_GENSCSYM_13
1002
{
1000
INSPT
1011
-234.7245479224116
1021
0.0
1031
0.0
1021
30.207411364697521
1031
0.0
1002
}
1002
{
1000
SCALE
1042
1.0
1002
}
1002
{
1000
USEOLDBPT
1070
     0
1002
}
1001
GENIUS_GENOBJ-N-INFOPT_13
1002
{
1000
OWNER
1000
GEN
1002
}
1001
GENIUS_GENSYMENT_13
1002
{
1000
ENT
1005
12FF
1002
}
1001
GENIUS_GENODEF_13
1002
{
1000
HIER
1070
     0
1002
}
1002
{
1000
MANEDIT
1070
     0
1002
}
1002
{
1000
NOSEL
1070
     0
1002
}
1002
{
1000
BEHIND
1070
     0
1002
}
1002
{
1000
REACTOR
1002
}
1001
GENIUS_GENOBJ-N-RSSYM_13
1002
{
1000
OWNER
1000
GEN
1002
}
1001
GENIUS_GENINF13_13
1070
     1
  0
ATTRIB
  5
1300
  8
INFO
 10
-234.7245479224116
 20
30.207411364697521
 30
0.0
 40
1.0
  1
1
  2
2GENINF
 70
     1
  0
ATTRIB
  5
1301
  8
INFO
 10
-234.7245479224116
 20
28.707411364697521
 30
0.0
 40
1.0
  1
<***aktuell***>
  2
3GENINF
 70
     1
  0
ATTRIB
  5
1302
  8
INFO
 10
-234.7245479224116
 20
27.207411364697521
 30
0.0
 40
1.0
  1

  2
4GENINF
 70
     1
  0
ATTRIB
  5
1303
  8
INFO
 10
-234.7245479224116
 20
25.707411364697521
 30
0.0
 40
1.0
  1
MSL-F12/32#
  2
5GENINF
 70
     1
  0
ATTRIB
  5
1304
  8
INFO
 10
-234.7245479224116
 20
24.207411364697521
 30
0.0
 40
1.0
  1

  2
6GENINF
 70
     1
  0
ATTRIB
  5
1305
  8
INFO
 10
-234.7245479224116
 20
22.707411364697521
 30
0.0
 40
1.0
  1
Fa. Mayer
  2
7GENINF
 70
     1
  0
ATTRIB
  5
1306
  8
INFO
 10
-234.7245479224116
 20
21.207411364697521
 30
0.0
 40
1.0
  1

  2
8GENINF
 70
     1
  0
ATTRIB
  5
1307
  8
INFO
 10
-234.7245479224116
 20
19.707411364697521
 30
0.0
 40
1.0
  1

  2
9GENINF
 70
     1
  0
ATTRIB
  5
1308
  8
INFO
 10
-234.7245479224116
 20
18.207411364697521
 30
0.0
 40
1.0
  1

  2
10GENINF
 70
     1
  0
ATTRIB
  5
1309
  8
INFO
 10
-234.7245479224116
 20
16.707411364697521
 30
0.0
 40
1.0
  1

  2
11GENINF
 70
     1
  0
ATTRIB
  5
130A
  8
INFO
 10
-234.7245479224116
 20
15.207411364697521
 30
0.0
 40
1.0
  1

  2
12GENINF
 70
     1
  0
ATTRIB
  5
130B
  8
INFO
 10
-234.7245479224116
 20
13.707411364697521
 30
0.0
 40
1.0
  1

  2
13GENINF
 70
     1
  0
ATTRIB
  5
130C
  8
INFO
 10
-234.7245479224116
 20
12.207411364697521
 30
0.0
 40
1.0
  1

  2
14GENINF
 70
     1
  0
ATTRIB
  5
130D
  8
INFO
 10
-234.7245479224116
 20
10.707411364697521
 30
0.0
 40
1.0
  1

  2
15GENINF
 70
     1
  0
ATTRIB
  5
130E
  8
INFO
 10
-234.7245479224116
 20
9.2074113646975206
 30
0.0
 40
1.0
  1

  2
16GENINF
 70
     1
  0
ATTRIB
  5
130F
  8
INFO
 10
-234.7245479224116
 20
7.7074113646975198
 30
0.0
 40
1.0
  1

  2
17GENINF
 70
     1
  0
ATTRIB
  5
1310
  8
INFO
 10
-234.7245479224116
 20
6.2074113646975198
 30
0.0
 40
1.0
  1

  2
18GENINF
 70
     1
  0
ATTRIB
  5
1311
  8
INFO
 10
-234.7245479224116
 20
4.7074113646975198
 30
0.0
 40
1.0
  1

  2
19GENINF
 70
     1
  0
ATTRIB
  5
1312
  8
INFO
 10
-234.7245479224116
 20
3.2074113646975202
 30
0.0
 40
1.0
  1

  2
20GENINF
 70
     1
  0
ATTRIB
  5
1313
  8
INFO
 10
-234.7245479224116
 20
1.70741136469752
 30
0.0
 40
1.0
  1

  2
21GENINF
 70
     1
  0
ATTRIB
  5
1314
  8
INFO
 10
-234.7245479224116
 20
0.2074113646975206
 30
0.0
 40
1.0
  1

  2
22GENINF
 70
     1
  0
ATTRIB
  5
1315
  8
INFO
 10
-234.7245479224116
 20
-1.2925886353024789
 30
0.0
 40
1.0
  1

  2
23GENINF
 70
     1
  0
ATTRIB
  5
1316
  8
INFO
 10
-234.7245479224116
 20
-2.7925886353024789
 30
0.0
 40
1.0
  1

  2
24GENINF
 70
     1
  0
ATTRIB
  5
1317
  8
INFO
 10
-234.7245479224116
 20
-4.2925886353024794
 30
0.0
 40
1.0
  1

  2
0GENINF
 70
     1
  0
SEQEND
  5
1318
  8
MSF12-0N
  0
TEXT
  5
1319
  8
MSF12-6
 10
-247.3250166298449
 20
32.13241673949414
 30
0.0
 40
1.25
  1
MSL-F12/32
 41
0.825
  0
LINE
  5
131A
  8
MSF12-0
 10
-248.53016722581151
 20
44.500001152243406
 30
0.0
 11
-228.5301672258114
 21
44.500001152243406
 31
0.0
  0
POLYLINE
  5
131B
  8
MSF12-4
 66
     1
 10
0.0
 20
0.0
 30
0.0
  0
VERTEX
  5
131C
  8
MSF12-4
 10
-245.55722222581139
 20
44.500001152243406
 30
0.0
  0
VERTEX
  5
131D
  8
MSF12-4
 10
-244.8296182258114
 20
43.253473152243373
 30
0.0
  0
VERTEX
  5
131E
  8
MSF12-4
 10
-245.6233682258115
 20
41.269098152243373
 30
0.0
  0
VERTEX
  5
131F
  8
MSF12-4
 10
-245.16034722581151
 20
40.144619152243394
 30
0.0
  0
VERTEX
  5
1320
  8
MSF12-4
 10
-244.69732622581151
 20
39.483161152243383
 30
0.0
  0
VERTEX
  5
1321
  8
MSF12-4
 10
-244.6311812258115
 20
37.89566115224337
 30
0.0
  0
VERTEX
  5
1322
  8
MSF12-4
 10
-243.70513922581139
 20
35.911286152243378
 30
0.0
  0
VERTEX
  5
1323
  8
MSF12-4
 10
-242.3822222258114
 20
35.977432152243381
 30
0.0
  0
VERTEX
  5
1324
  8
MSF12-4
 10
-239.8025352258114
 20
35.315973152243373
 30
0.0
  0
VERTEX
  5
1325
  8
MSF12-4
 10
-237.2889932258114
 20
35.382119152243369
 30
0.0
  0
VERTEX
  5
1326
  8
MSF12-4
 10
-234.2462852258115
 20
36.10972315224339
 30
0.0
  0
VERTEX
  5
1327
  8
MSF12-4
 10
-233.45253522581149
 20
39.08628615224336
 30
0.0
  0
VERTEX
  5
1328
  8
MSF12-4
 10
-234.9738892258114
 20
40.4092031522434
 30
0.0
  0
VERTEX
  5
1329
  8
MSF12-4
 10
-234.4447222258114
 20
42.856598152243372
 30
0.0
  0
VERTEX
  5
132A
  8
MSF12-4
 10
-233.25409722581151
 20
44.500001152243406
 30
0.0
  0
SEQEND
  5
132B
  8
MSF12-4
  0
LINE
  5
132C
  8
MSF12-8
 10
-236.53016722581151
 20
42.321341152243399
 30
0.0
 11
-234.35150622581151
 21
44.500001152243406
 31
0.0
  0
LINE
  5
132D
  8
MSF12-4
 10
-236.03016722581151
 20
44.500001152243406
 30
0.0
 11
-236.03016722581151
 21
35.68314315224341
 31
0.0
  0
LINE
  5
132E
  8
MSF12-0
 10
-236.53016722581151
 20
44.500001152243406
 30
0.0
 11
-236.53016722581151
 21
35.563578152243423
 31
0.0
  0
LINE
  5
132F
  8
MSF12-4
 10
-241.0301672258114
 20
35.63075115224342
 30
0.0
 11
-241.0301672258114
 21
44.500001152243406
 31
0.0
  0
LINE
  5
1330
  8
MSF12-0
 10
-240.53016722581151
 20
35.502546152243383
 30
0.0
 11
-240.53016722581151
 21
44.500001152243406
 31
0.0
  0
LINE
  5
1331
  8
MSF12-8
 10
-245.12349522581141
 20
40.091973152243384
 30
0.0
 11
-240.71546722581149
 21
44.500001152243406
 31
0.0
  0
LINE
  5
1332
  8
MSF12-8
 10
-245.32715322581149
 20
42.009635152243391
 30
0.0
 11
-242.83678722581141
 21
44.500001152243406
 31
0.0
  0
LINE
  5
1333
  8
MSF12-8
 10
-242.89996222581141
 20
35.951545152243398
 30
0.0
 11
-240.53016722581151
 21
38.321341152243399
 31
0.0
  0
LINE
  5
1334
  8
MSF12-8
 10
-244.6538732258114
 20
38.440275152243402
 30
0.0
 11
-240.53016722581151
 21
42.5639811522434
 31
0.0
  0
LINE
  5
1335
  8
MSF12-8
 10
-244.1367222258115
 20
36.836106152243381
 30
0.0
 11
-240.53016722581151
 21
40.442661152243367
 31
0.0
  0
LINE
  5
1336
  8
MSF12-4A
 10
-238.5301672258108
 20
41.000001152243406
 30
0.0
 11
-240.2801672258108
 21
41.000001152242753
 31
0.0
  0
LINE
  5
1337
  8
MSF12-4A
 10
-238.53016722581211
 20
41.000001152243406
 30
0.0
 11
-236.78016722581211
 21
41.000001152242753
 31
0.0
  0
LINE
  5
1338
  8
MSF12-4A
 10
-241.03016722581259
 20
41.750001152243406
 30
0.0
 11
-238.53016722581151
 21
41.750001152243406
 31
0.0
  0
LINE
  5
1339
  8
MSF12-4A
 10
-240.2801672258108
 20
41.000001152242753
 30
0.0
 11
-241.03016722581259
 21
41.750001152243406
 31
0.0
  0
LINE
  5
133A
  8
MSF12-8
 10
-236.53016722581151
 20
40.200020152243411
 30
0.0
 11
-234.60227622581141
 21
42.127910152243402
 31
0.0
  0
LINE
  5
133B
  8
MSF12-4A
 10
-236.78016722581211
 20
41.000001152242753
 30
0.0
 11
-236.03016722581029
 21
41.750001152243406
 31
0.0
  0
LINE
  5
133C
  8
MSF12-4A
 10
-236.03016722581029
 20
41.750001152243406
 30
0.0
 11
-238.53016722581151
 21
41.750001152243406
 31
0.0
  0
LINE
  5
133D
  8
MSF12-8
 10
-234.25971422581139
 20
36.10651215224339
 30
0.0
 11
-234.24256922581151
 21
36.123657152243368
 31
0.0
  0
LINE
  5
133E
  8
MSF12-8
 10
-241.0852992258115
 20
35.644887152243399
 30
0.0
 11
-240.53016722581151
 21
36.200020152243411
 31
0.0
  0
LINE
  5
133F
  8
MSF12-8
 10
-236.53016722581151
 20
38.078700152243378
 30
0.0
 11
-234.55976922581141
 21
40.049098152243367
 31
0.0
  0
LINE
  5
1340
  8
MSF12-8
 10
-236.53016722581151
 20
35.95738015224336
 30
0.0
 11
-233.47118022581151
 21
39.016366152243393
 31
0.0
  0
LINE
  5
1341
  8
MSF12-8
 10
-245.3364072258114
 20
44.12170215224338
 30
0.0
 11
-244.9581082258114
 21
44.500001152243406
 31
0.0
  0
LINE
  5
1342
  8
MSF12-8
 10
-236.53016722581151
 20
44.442661152243367
 30
0.0
 11
-236.4728262258115
 21
44.500001152243406
 31
0.0
  0
LINE
  5
1343
  8
ZYL_32_ISO6431-4A
 10
-207.03016722581151
 20
22.250001152242561
 30
0.0
 11
-197.03016722581151
 21
22.250001152242561
 31
0.0
  0
LINE
  5
1344
  8
MSL_F12_32-3
 10
-207.0301672258127
 20
19.25000115224622
 30
0.0
 11
-190.0301672258127
 21
19.2500011522473
 31
0.0
  0
LINE
  5
1345
  8
MSL_F12_32-0
 10
-207.03016722581151
 20
22.500001152244369
 30
0.0
 11
-215.03016722581151
 21
22.500001152244369
 31
0.0
  0
LINE
  5
1346
  8
MSF12-4A
 10
-242.5301672258108
 20
57.500001152243421
 30
0.0
 11
-238.5301672258108
 21
57.500001152243421
 31
0.0
  0
LINE
  5
1347
  8
MSF12-4A
 10
-241.53016722581151
 20
54.500001152240941
 30
0.0
 11
-235.53016722581151
 21
54.500001152244948
 31
0.0
  0
LINE
  5
1348
  8
MSF12-4A
 10
-241.5301672258108
 20
55.500001152243406
 30
0.0
 11
-235.53016722581211
 21
55.500001152247421
 31
0.0
  0
LINE
  5
1349
  8
MSF12-4A
 10
-241.5301672258108
 20
55.500001152243406
 30
0.0
 11
-242.53016722581151
 21
55.500001152244579
 31
0.0
  0
LINE
  5
134A
  8
MSF12-4A
 10
-242.5301672258108
 20
54.500001152243406
 30
0.0
 11
-241.53016722581151
 21
54.500001152240941
 31
0.0
  0
LINE
  5
134B
  8
MSF12-4A
 10
-241.53016722581151
 20
54.500001152240941
 30
0.0
 11
-241.5301672258108
 21
55.500001152243406
 31
0.0
  0
LINE
  5
134C
  8
MSF12-4A
 10
-242.53016722581151
 20
55.500001152244579
 30
0.0
 11
-242.5301672258108
 21
57.500001152243421
 31
0.0
  0
LINE
  5
134D
  8
MSF12-4A
 10
-235.53016722581151
 20
54.500001152240941
 30
0.0
 11
-235.53016722581211
 21
55.500001152243406
 31
0.0
  0
LINE
  5
134E
  8
MSF12-4A
 10
-235.53016722581211
 20
55.500001152243406
 30
0.0
 11
-234.53016722581151
 21
55.500001152244579
 31
0.0
  0
LINE
  5
134F
  8
MSF12-4A
 10
-234.53016722581211
 20
54.500001152243406
 30
0.0
 11
-235.53016722581151
 21
54.500001152240941
 31
0.0
  0
LINE
  5
1350
  8
MSF12-4A
 10
-234.53016722581151
 20
55.500001152244579
 30
0.0
 11
-234.53016722581211
 21
57.500001152243421
 31
0.0
  0
LINE
  5
1351
  8
MSF12-4A
 10
-234.53016722581211
 20
57.500001152243421
 30
0.0
 11
-238.53016722581211
 21
57.500001152243421
 31
0.0
  0
LINE
  5
1352
  8
ZYL_32_ISO6431-4A
 10
-139.03016722581151
 20
22.000001152242561
 30
0.0
 11
-181.03016722581151
 21
22.000001152242561
 31
0.0
  0
LINE
  5
1353
  8
ZYL_32_ISO6431-4A
 10
-181.03016722581151
 20
22.000001152242561
 30
0.0
 11
-181.03016722581151
 21
25.000001152242561
 31
0.0
  0
LINE
  5
1354
  8
ZYL_32_ISO6431-4A
 10
-139.03016722581151
 20
25.000001152242561
 30
0.0
 11
-139.03016722581151
 21
22.000001152242561
 31
0.0
  0
LINE
  5
1355
  8
ZYL_32_ISO6431-4A
 10
-113.0301672258115
 20
15.000001152242559
 30
0.0
 11
-113.0301672258115
 21
25.000001152242561
 31
0.0
  0
INSERT
  5
1356
  8
MSL_F12_32-0
  2
*U54
 10
-16.25
 20
16.250000000004629
 30
0.0
1001
GENIUS_GEFPARTINS_13
1002
{
1011
-16.25
1021
0.0
1031
0.0
1021
16.250000000004629
1031
0.0
1013
1.0
1023
0.0
1033
0.0
1023
0.0
1033
0.0
1002
}
1001
VCC
1002
{
1000
-ID26
1000
-IE12
1000
-IK26
1000
-V$PV_GENSYSTEM"GEF\VAL\DI\0401\DI1616_D.DXF"
1002
}
1001
GEVIT
1002
{
1000
-BEHI7.00000001
1000
-BVCCT0
1000
-GRP0?
1000
-BAML2
1000
-BASK1
1000
-NT0
1000
-DOC
1005
1619
1000
-MYREF
1005
1356
1002
}
1001
GEVPT
1002
{
1000
-V$PV_GENSYSTEM"GEF\VAL\DI\0401\DI1616_D.DXF"
1000
-GPGEF_PROCALC=1
1000
-GPGEF_FLIPY=1
1000
-GPGEF_FLIPX=1
1000
-GPGEF_SNK_ADD=0
1000
-GPGEVPROMPTX=Länge:
1000
-GPGEF_OANG=70
1000
-GPGEF_STANG=210
1000
-GPGEF_DRAG=1
1000
-GPGEF_CDIST=3
1000
-GPVCC_TABLE=C:\GENIUS\gef\val\di\0401\di1616.val
1000
-GPNND=6
1000
-GPPRE=M
1002
}
1001
GENIUS_GENOREF_13
1005
13AB
1005
13AA
1001
GEVMK
1002
{
1000
-CO
1000
-MYREF
1005
1356
1002
}
1001
GEVID884352794
1002
{
1002
}
  0
ARC
  5
1357
  8
ZYL_32_ISO6431-4A
 10
-16.25
 20
16.25
 30
0.0
 40
8.75
 50
90.0
 51
180.0
  0
LINE
  5
1358
  8
ZYL_32_ISO6431-7
 10
0.0000015298999756
 20
-35.0
 30
0.0
 11
-0.0000015298999756
 21
35.0
 31
0.0
  0
LINE
  5
1359
  8
MSF12-7
 10
0.0
 20
59.699046425181372
 30
0.0
 11
0.0
 21
-20.154554999999981
 31
0.0
  0
LINE
  5
135A
  8
ZYL_32_ISO6431-4A
 10
-113.0301672258115
 20
15.000001152242559
 30
0.0
 11
-113.0301672258115
 21
-14.999998847757441
 31
0.0
  0
LINE
  5
135B
  8
ZYL_32_ISO6431-4A
 10
-109.0301672258115
 20
-14.999998847757441
 30
0.0
 11
-109.0301672258115
 21
0.0000011522425609
 31
0.0
  0
LINE
  5
135C
  8
ZYL_32_ISO6431-4A
 10
-113.0301672258115
 20
-24.999998847757439
 30
0.0
 11
-113.0301672258115
 21
-14.999998847757441
 31
0.0
  0
LINE
  5
135D
  8
ZYL_32_ISO6431-4A
 10
-113.0301672258115
 20
-14.999998847757441
 30
0.0
 11
-109.0301672258115
 21
-14.999998847757441
 31
0.0
  0
LINE
  5
135E
  8
ZYL_32_ISO6431-4A
 10
-109.0301672258115
 20
0.0000011522425609
 30
0.0
 11
-109.0301672258115
 21
15.000001152242559
 31
0.0
  0
LINE
  5
135F
  8
ZYL_32_ISO6431-4A
 10
-109.0301672258115
 20
15.000001152242559
 30
0.0
 11
-113.0301672258115
 21
15.000001152242559
 31
0.0
  0
INSERT
  5
1360
  8
MSL_F12_32-0
  2
*U56
 10
-16.25
 20
-16.25000000000011
 30
0.0
1001
GENIUS_GEFPARTINS_13
1002
{
1011
-16.25
1021
0.0
1031
0.0
1021
-16.25000000000011
1031
0.0
1013
1.0
1023
0.0
1033
0.0
1023
0.0
1033
0.0
1002
}
1001
VCC
1002
{
1000
-ID27
1000
-IE13
1000
-IK27
1000
-V$PV_GENSYSTEM"GEF\VAL\DI\0401\DI1616_D.DXF"
1002
}
1001
GEVIT
1002
{
1000
-BEHI8.00000001
1000
-BVCCT0
1000
-GRP0?
1000
-BAML2
1000
-BASK1
1000
-NT0
1000
-DOC
1005
1629
1000
-MYREF
1005
1360
1002
}
1001
GEVPT
1002
{
1000
-V$PV_GENSYSTEM"GEF\VAL\DI\0401\DI1616_D.DXF"
1000
-GPGEF_PROCALC=1
1000
-GPGEF_FLIPY=1
1000
-GPGEF_FLIPX=1
1000
-GPGEF_SNK_ADD=0
1000
-GPGEVPROMPTX=Länge:
1000
-GPGEF_OANG=70
1000
-GPGEF_STANG=210
1000
-GPGEF_DRAG=1
1000
-GPGEF_CDIST=3
1000
-GPVCC_TABLE=C:\GENIUS\gef\val\di\0401\di1616.val
1000
-GPNND=6
1000
-GPPRE=M
1002
}
1001
GENIUS_GENOREF_13
1005
13A9
1005
13A8
1001
GEVMK
1002
{
1000
-CO
1000
-MYREF
1005
1360
1002
}
1001
GEVID884352795
1002
{
1002
}
  0
LINE
  5
1361
  8
ZYL_32_ISO6431-4A
 10
-25.0
 20
0.0
 30
0.0
 11
-25.0
 21
-16.25
 31
0.0
  0
LINE
  5
1362
  8
ZYL_32_ISO6431-4A
 10
0.0
 20
-25.0
 30
0.0
 11
-16.25
 21
-25.0
 31
0.0
  0
ARC
  5
1363
  8
ZYL_32_ISO6431-4A
 10
-16.25
 20
-16.25
 30
0.0
 40
8.75
 50
180.0
 51
270.0
  0
ARC
  5
1364
  8
ZYL_32_ISO6431-4
 10
0.0
 20
0.0
 30
0.0
 40
4.2332099999999988
 50
200.0
 51
110.0
  0
LINE
  5
1365
  8
ZYL_32_ISO6431-4A
 10
-25.0
 20
0.0
 30
0.0
 11
-25.0
 21
16.25
 31
0.0
  0
LINE
  5
1366
  8
ZYL_32_ISO6431-4A
 10
-4.90748000000002
 20
8.5
 30
0.0
 11
-9.8149500000000103
 21
-0.0000004290249933
 31
0.0
  0
LINE
  5
1367
  8
ZYL_32_ISO6431-4A
 10
-9.8149500000000103
 20
-0.0000004290249933
 30
0.0
 11
-4.90748000000002
 21
-8.5
 31
0.0
  0
LINE
  5
1368
  8
ZYL_32_ISO6431-4A
 10
-3.3166199999999999
 20
-5.0
 30
0.0
 11
3.3166199999999999
 21
-5.0
 31
0.0
  0
LINE
  5
1369
  8
ZYL_32_ISO6431-4A
 10
-3.3166199999999999
 20
5.0
 30
0.0
 11
3.3166199999999999
 21
5.0
 31
0.0
  0
LINE
  5
136A
  8
MSF12-4A
 10
4.0
 20
44.500000000000021
 30
0.0
 11
3.999999999999317
 21
54.500000000000021
 31
0.0
  0
LINE
  5
136B
  8
MSF12-4A
 10
-4.0
 20
44.500000000000021
 30
0.0
 11
-3.999999999999317
 21
54.500000000000021
 31
0.0
  0
LINE
  5
136C
  8
MSF12-0
 10
-10.0
 20
22.499999999999169
 30
0.0
 11
-10.0
 21
44.500000000000021
 31
0.0
  0
LINE
  5
136D
  8
ZYL_32_ISO6431-4A
 10
-10.00000000000005
 20
25.000000000000028
 30
0.0
 11
-16.25
 21
25.0
 31
0.0
  0
LINE
  5
136E
  8
ZYL_32_ISO6431-7
 10
3.0
 20
28.0
 30
0.0
 11
3.0
 21
20.135999999999989
 31
0.0
  0
LINE
  5
136F
  8
ZYL_32_ISO6431-3
 10
-1.863999999999975
 20
25.0
 30
0.0
 11
-1.863999999999975
 21
20.135999999999989
 31
0.0
  0
LINE
  5
1370
  8
ZYL_32_ISO6431-3
 10
-1.283000000000015
 20
25.0
 30
0.0
 11
-1.283000000000015
 21
20.135999999999989
 31
0.0
  0
LINE
  5
1371
  8
MSF12-8
 10
2.0
 20
42.321340000000021
 30
0.0
 11
4.1786610000000328
 21
44.500000000000021
 31
0.0
  0
LINE
  5
1372
  8
MSF12-8
 10
-6.7969860000000031
 20
42.009633999999998
 30
0.0
 11
-4.3066199999999517
 21
44.500000000000021
 31
0.0
  0
LINE
  5
1373
  8
MSF12-8
 10
-6.5933279999999854
 20
40.091971999999998
 30
0.0
 11
-2.1852999999999829
 21
44.500000000000021
 31
0.0
  0
LINE
  5
1374
  8
MSF12-4
 10
2.5
 20
44.500000000000021
 30
0.0
 11
2.5
 21
35.683142000000032
 31
0.0
  0
LINE
  5
1375
  8
MSF12-0
 10
2.0
 20
44.500000000000021
 30
0.0
 11
2.0
 21
35.563577000000031
 31
0.0
  0
LINE
  5
1376
  8
MSF12-4
 10
-2.5
 20
35.630750000000027
 30
0.0
 11
-2.5
 21
44.500000000000021
 31
0.0
  0
LINE
  5
1377
  8
MSF12-0
 10
-2.0
 20
35.502544999999991
 30
0.0
 11
-2.0
 21
44.500000000000021
 31
0.0
  0
LINE
  5
1378
  8
MSF12-8
 10
-4.3697949999999528
 20
35.951544000000013
 30
0.0
 11
-2.0
 21
38.321340000000021
 31
0.0
  0
LINE
  5
1379
  8
MSF12-8
 10
-5.6065549999999567
 20
36.836105000000003
 30
0.0
 11
-2.0
 21
40.442659999999989
 31
0.0
  0
LINE
  5
137A
  8
MSF12-8
 10
-6.1237059999999701
 20
38.440274000000009
 30
0.0
 11
-2.0
 21
42.563980000000008
 31
0.0
  0
LINE
  5
137B
  8
MSF12-8
 10
2.0
 20
40.200019000000033
 30
0.0
 11
3.9278910000000451
 21
42.12790900000001
 31
0.0
  0
LINE
  5
137C
  8
MSF12-4A
 10
1.749999999999317
 20
40.999999999999368
 30
0.0
 11
2.500000000001136
 21
41.750000000000028
 31
0.0
  0
LINE
  5
137D
  8
MSF12-4A
 10
-2.500000000001136
 20
41.750000000000028
 30
0.0
 11
0.0
 21
41.750000000000028
 31
0.0
  0
LINE
  5
137E
  8
MSF12-4A
 10
0.0000000000006821
 20
41.000000000000028
 30
0.0
 11
-1.749999999999317
 21
40.999999999999368
 31
0.0
  0
LINE
  5
137F
  8
MSF12-4A
 10
-1.749999999999317
 20
40.999999999999368
 30
0.0
 11
-2.500000000001136
 21
41.750000000000028
 31
0.0
  0
LINE
  5
1380
  8
MSF12-4A
 10
2.500000000001136
 20
41.750000000000028
 30
0.0
 11
0.0
 21
41.750000000000028
 31
0.0
  0
LINE
  5
1381
  8
MSF12-4A
 10
-0.0000000000006821
 20
41.000000000000028
 30
0.0
 11
1.749999999999317
 21
40.999999999999368
 31
0.0
  0
LINE
  5
1382
  8
MSF12-8
 10
4.2704530000000309
 20
36.106511000000012
 30
0.0
 11
4.2875980000000018
 21
36.123655999999983
 31
0.0
  0
LINE
  5
1383
  8
MSF12-8
 10
-2.5551319999999569
 20
35.644886000000007
 30
0.0
 11
-2.0
 21
36.200019000000019
 31
0.0
  0
LINE
  5
1384
  8
MSF12-8
 10
2.0
 20
38.078699
 30
0.0
 11
3.9703980000000452
 21
40.049096999999982
 31
0.0
  0
LINE
  5
1385
  8
MSF12-8
 10
-6.8062400000000016
 20
44.121700999999987
 30
0.0
 11
-6.4279409999999748
 21
44.500000000000021
 31
0.0
  0
LINE
  5
1386
  8
MSF12-8
 10
2.0
 20
44.442659999999982
 30
0.0
 11
2.0573410000000081
 21
44.500000000000021
 31
0.0
  0
LINE
  5
1387
  8
MSF12-4A
 10
-2.999999999999317
 20
55.500000000000028
 30
0.0
 11
-4.0
 21
55.500000000001187
 31
0.0
  0
LINE
  5
1388
  8
MSF12-4A
 10
-3.999999999999317
 20
54.500000000000021
 30
0.0
 11
-3.0
 21
54.499999999997549
 31
0.0
  0
LINE
  5
1389
  8
MSF12-4A
 10
-3.999999999999317
 20
57.500000000000028
 30
0.0
 11
0.0000000000006821
 21
57.500000000000028
 31
0.0
  0
LINE
  5
138A
  8
MSF12-4A
 10
-4.0
 20
55.500000000001187
 30
0.0
 11
-3.999999999999317
 21
57.500000000000028
 31
0.0
  0
LINE
  5
138B
  8
MSF12-4A
 10
3.999999999999317
 20
57.500000000000028
 30
0.0
 11
-0.0000000000006821
 21
57.500000000000028
 31
0.0
  0
LINE
  5
138C
  8
MSF12-4A
 10
2.999999999999317
 20
55.500000000000028
 30
0.0
 11
4.0
 21
55.500000000001187
 31
0.0
  0
LINE
  5
138D
  8
MSF12-4A
 10
3.999999999999317
 20
54.500000000000021
 30
0.0
 11
3.0
 21
54.499999999997549
 31
0.0
  0
LINE
  5
138E
  8
MSF12-4A
 10
3.0
 20
54.499999999997549
 30
0.0
 11
2.999999999999317
 21
55.500000000000028
 31
0.0
  0
LINE
  5
138F
  8
MSF12-4A
 10
-3.0
 20
54.499999999997549
 30
0.0
 11
-2.999999999999317
 21
55.500000000000028
 31
0.0
  0
LINE
  5
1390
  8
MSF12-4A
 10
-3.0
 20
54.499999999997549
 30
0.0
 11
3.0
 21
54.500000000001563
 31
0.0
  0
LINE
  5
1391
  8
MSF12-4A
 10
-2.999999999999317
 20
55.500000000000028
 30
0.0
 11
2.999999999999317
 21
55.500000000004029
 31
0.0
  0
LINE
  5
1392
  8
MSF12-4A
 10
4.0
 20
55.500000000001187
 30
0.0
 11
3.999999999999317
 21
57.500000000000028
 31
0.0
  0
INSERT
  5
1393
  8
MSL_F12_32-0
  2
*U52
 10
16.250000000004999
 20
16.250000000004629
 30
0.0
1001
GENIUS_GEFPARTINS_13
1002
{
1011
16.250000000004999
1021
0.0
1031
0.0
1021
16.250000000004629
1031
0.0
1013
1.0
1023
0.0
1033
0.0
1023
0.0
1033
0.0
1002
}
1001
VCC
1002
{
1000
-ID25
1000
-IE11
1000
-IK25
1000
-V$PV_GENSYSTEM"GEF\VAL\DI\0401\DI1616_D.DXF"
1002
}
1001
GEVIT
1002
{
1000
-BEHI6.00000001
1000
-BVCCT0
1000
-GRP0?
1000
-BAML2
1000
-BASK1
1000
-NT0
1000
-DOC
1005
1609
1000
-MYREF
1005
1393
1002
}
1001
GEVPT
1002
{
1000
-V$PV_GENSYSTEM"GEF\VAL\DI\0401\DI1616_D.DXF"
1000
-GPGEF_PROCALC=1
1000
-GPGEF_FLIPY=1
1000
-GPGEF_FLIPX=1
1000
-GPGEF_SNK_ADD=0
1000
-GPGEVPROMPTX=Länge:
1000
-GPGEF_OANG=70
1000
-GPGEF_STANG=210
1000
-GPGEF_DRAG=1
1000
-GPGEF_CDIST=3
1000
-GPVCC_TABLE=C:\GENIUS\gef\val\di\0401\di1616.val
1000
-GPNND=6
1000
-GPPRE=M
1002
}
1001
GENIUS_GENOREF_13
1005
13A7
1005
13A6
1001
GEVMK
1002
{
1000
-CO
1000
-MYREF
1005
1393
1002
}
1001
GEVID884352793
1002
{
1002
}
  0
POLYLINE
  5
1394
  8
MSF12-3
 66
     1
 10
0.0
 20
0.0
 30
0.0
1001
GENIUS_GENBH_13
1002
{
1000
OE
1000
CON1
1002
}
  0
VERTEX
  5
1395
  8
MSF12-3
 10
10.00000000000005
 20
22.5
 30
0.0
  0
VERTEX
  5
1396
  8
MSF12-3
 10
10.0
 20
0.0
 30
0.0
  0
VERTEX
  5
1397
  8
MSF12-3
 10
10.0
 20
-17.5
 30
0.0
  0
SEQEND
  5
1398
  8
MSF12-3
  0
ARC
  5
1399
  8
ZYL_32_ISO6431-4A
 10
16.25
 20
16.25
 30
0.0
 40
8.75
 50
0.0
 51
90.0
  0
INSERT
  5
139A
  8
MSL_F12_32-0
  2
*U58
 10
16.250000000004999
 20
-16.25000000000011
 30
0.0
1001
GENIUS_GEFPARTINS_13
1002
{
1011
16.250000000004999
1021
0.0
1031
0.0
1021
-16.25000000000011
1031
0.0
1013
1.0
1023
0.0
1033
0.0
1023
0.0
1033
0.0
1002
}
1001
VCC
1002
{
1000
-ID28
1000
-IE14
1000
-IK28
1000
-V$PV_GENSYSTEM"GEF\VAL\DI\0401\DI1616_D.DXF"
1002
}
1001
GEVIT
1002
{
1000
-BEHI9.00000001
1000
-BVCCT0
1000
-GRP0?
1000
-BAML2
1000
-BASK1
1000
-NT0
1000
-DOC
1005
1639
1000
-MYREF
1005
139A
1002
}
1001
GEVPT
1002
{
1000
-V$PV_GENSYSTEM"GEF\VAL\DI\0401\DI1616_D.DXF"
1000
-GPGEF_PROCALC=1
1000
-GPGEF_FLIPY=1
1000
-GPGEF_FLIPX=1
1000
-GPGEF_SNK_ADD=0
1000
-GPGEVPROMPTX=Länge:
1000
-GPGEF_OANG=70
1000
-GPGEF_STANG=210
1000
-GPGEF_DRAG=1
1000
-GPGEF_CDIST=3
1000
-GPVCC_TABLE=C:\GENIUS\gef\val\di\0401\di1616.val
1000
-GPNND=6
1000
-GPPRE=M
1002
}
1001
GENIUS_GENOREF_13
1005
13A5
1005
13A4
1001
GEVMK
1002
{
1000
-CO
1000
-MYREF
1005
139A
1002
}
1001
GEVID884352796
1002
{
1002
}
  0
LINE
  5
139B
  8
ZYL_32_ISO6431-4A
 10
25.0
 20
0.0
 30
0.0
 11
25.0
 21
-16.25
 31
0.0
  0
ARC
  5
139C
  8
ZYL_32_ISO6431-4A
 10
16.25
 20
-16.25
 30
0.0
 40
8.75
 50
270.0
 51
0.0
  0
LINE
  5
139D
  8
ZYL_32_ISO6431-4A
 10
25.0
 20
0.0
 30
0.0
 11
25.0
 21
16.25
 31
0.0
  0
LINE
  5
139E
  8
ZYL_32_ISO6431-4A
 10
9.8149500000000103
 20
0.0000001170419921
 30
0.0
 11
4.9074699999999893
 21
8.5
 31
0.0
  0
LINE
  5
139F
  8
ZYL_32_ISO6431-4A
 10
4.90748000000002
 20
-8.5
 30
0.0
 11
9.8149500000000103
 21
0.0000001170419921
 31
0.0
  0
LINE
  5
13A0
  8
MSF12-0
 10
10.0
 20
44.500000000000021
 30
0.0
 11
10.0
 21
22.499999999999972
 31
0.0
  0
LINE
  5
13A1
  8
ZYL_32_ISO6431-4A
 10
10.0
 20
25.000000000000028
 30
0.0
 11
16.25
 21
25.0
 31
0.0
  0
LINE
  5
13A2
  8
ZYL_32_ISO6431-3
 10
7.863999999999975
 20
25.0
 30
0.0
 11
7.863999999999975
 21
20.135999999999989
 31
0.0
  0
LINE
  5
13A3
  8
ZYL_32_ISO6431-3
 10
7.2830000000000146
 20
25.0
 30
0.0
 11
7.2830000000000146
 21
20.135999999999989
 31
0.0
  0
POINT
  5
13A4
  8
0
 10
-391.2988440456694
 20
-183.19470366461539
 30
0.0
1001
GENIUS_GENODEF_13
1002
{
1000
HIER
1070
   200
1002
}
1002
{
1000
MANEDIT
1070
     0
1002
}
1002
{
1000
NOSEL
1070
     0
1002
}
1002
{
1000
BEHIND
1070
     0
1002
}
1002
{
1000
REACTOR
1002
}
1001
GENIUS_GENOBJ-F-PART_13
1002
{
1000
OWNER
1000
GEF
1002
}
1001
GENIUS_GEFSTDP_13
1002
{
1000
SUG
1000
M
1040
6.0
1002
}
1002
{
1000
DSC
1000
DSC
1002
{
1000
~DESCR
1000
 
1000
~STDRT
1002
}
1002
}
1002
{
1000
KEY
1000
THRT
1002
}
1002
{
1000
INS
1002
{
1040
433.90905696288741
1040
166.94470481685789
1040
0.0
1002
}
1002
}
1002
{
1000
ANG
1040
0.0
1002
}
1002
{
1000
VCC
1002
{
1000
$PRE=M
1000
$NND=6.000000000000000E+00
1000
-RBDESCR
1000
-RBSTDRT
1000
-RBGD1
1000
-RBLOTI
1000
-V$PV_GENSYSTEM"gef\val\di\0401\di1616_d.dxf"
1000
$VCC_TABLE=$PV_GENSYSTEM"gef\val\di\0401\di1616.val"
1000
$GEF_CDIST=3.000000000000000E+00
1000
$GEF_DRAG=1
1000
$GEF_STANG=2.100000000000000E+02
1000
$GEF_OANG=7.000000000000000E+01
1000
$GEVPROMPTX= Länge: 
1000
$GEF_SNK_ADD=0.000000000000000E+00
1000
$GEF_FLIPX=1
1000
$GEF_FLIPY=1
1000
-GRPNAME0?
1000
-GRPNAME1?
1000
-BAML2
1000
$GEF_PROCALC=1
1002
}
1002
}
1002
{
1000
LST
1002
{
1002
{
1000
GROUP
1000
0401
1002
}
1002
{
1000
VIEW
1000
D
1002
}
1002
{
1000
SFILE
1000
$PV_GENSYSTEM"gef\val\di\0401\di1616_d.dxf"
1002
}
1002
{
1000
ST1
1000
$PV_GENSYSTEM"gef\val\di\0401\di1616.val"
1002
}
1002
{
1000
GENASSO
1000
 
1002
}
1002
}
1002
}
1002
{
1000
RET
1002
{
1002
{
1000
LOTI
1002
}
1002
{
1000
GD1
1000
4.917
1002
}
1002
{
1000
STDRT
1000
DIN 13 - M6
1002
}
1002
{
1000
DESCR
1000
Metrisches ISO-Gewinde
1002
}
1002
}
1002
}
1002
{
1000
SYSTEM
1040
1.0
1002
}
1002
{
1000
INFEL
1002
{
1002
}
1002
}
1001
GENIUS_GENOENT_13
1002
{
1000
MYREF
1005
13A4
1002
}
1002
{
1000
GRP
1005
0
1002
}
1001
GENIUS_GENOLIS_13
1002
{
1000
ENT
1005
139A
1002
}
  0
POINT
  5
13A5
  8
0
 10
-391.2988440456694
 20
-183.19470366461539
 30
0.0
1001
GENIUS_GENBH_13
1002
{
1000
BGO
1005
0
1002
}
1002
{
1000
FGLEVEL
1040
9.0000000100000008
1002
}
1002
{
1000
FLAGS
1070
    36
1002
}
1002
{
1000
OIUMAP
1000
OIU
1002
}
1002
{
1000
MODIFY
1070
     0
1002
}
1001
GENIUS_GENODEF_13
1002
{
1000
HIER
1070
     1
1002
}
1002
{
1000
MANEDIT
1070
     0
1002
}
1002
{
1000
NOSEL
1070
     1
1002
}
1002
{
1000
BEHIND
1070
     0
1002
}
1002
{
1000
REACTOR
1002
}
1001
GENIUS_GENOBJ-NBEHI-BHF_13
1002
{
1000
OWNER
1000
GENBEHI
1002
}
1001
GENIUS_GENOENT_13
1002
{
1000
MYREF
1005
13A5
1002
}
1002
{
1000
GRP
1005
0
1002
}
1001
GENIUS_GENOLIS_13
1002
{
1000
ENT
1005
139A
1002
}
  0
POINT
  5
13A6
  8
0
 10
-391.2988440456694
 20
-183.19470366461539
 30
0.0
1001
GENIUS_GENODEF_13
1002
{
1000
HIER
1070
   200
1002
}
1002
{
1000
MANEDIT
1070
     0
1002
}
1002
{
1000
NOSEL
1070
     0
1002
}
1002
{
1000
BEHIND
1070
     0
1002
}
1002
{
1000
REACTOR
1002
}
1001
GENIUS_GENOBJ-F-PART_13
1002
{
1000
OWNER
1000
GEF
1002
}
1001
GENIUS_GEFSTDP_13
1002
{
1000
DSC
1000
DSC
1002
{
1000
~DESCR
1000
 
1000
~STDRT
1002
}
1002
}
1002
{
1000
SUG
1000
M
1040
6.0
1002
}
1002
{
1000
KEY
1000
THRT
1002
}
1002
{
1000
INS
1002
{
1040
433.90905696288741
1040
199.4447048168627
1040
0.0
1002
}
1002
}
1002
{
1000
ANG
1040
0.0
1002
}
1002
{
1000
VCC
1002
{
1000
$PRE=M
1000
$NND=6.000000000000000E+00
1000
-RBDESCR
1000
-RBSTDRT
1000
-RBGD1
1000
-RBLOTI
1000
-V$PV_GENSYSTEM"gef\val\di\0401\di1616_d.dxf"
1000
$VCC_TABLE=$PV_GENSYSTEM"gef\val\di\0401\di1616.val"
1000
$GEF_CDIST=3.000000000000000E+00
1000
$GEF_DRAG=1
1000
$GEF_STANG=2.100000000000000E+02
1000
$GEF_OANG=7.000000000000000E+01
1000
$GEVPROMPTX= Länge: 
1000
$GEF_SNK_ADD=0.000000000000000E+00
1000
$GEF_FLIPX=1
1000
$GEF_FLIPY=1
1000
-GRPNAME0?
1000
-GRPNAME1?
1000
-BAML2
1000
$GEF_PROCALC=1
1002
}
1002
}
1002
{
1000
LST
1002
{
1002
{
1000
GROUP
1000
0401
1002
}
1002
{
1000
VIEW
1000
D
1002
}
1002
{
1000
SFILE
1000
$PV_GENSYSTEM"gef\val\di\0401\di1616_d.dxf"
1002
}
1002
{
1000
ST1
1000
$PV_GENSYSTEM"gef\val\di\0401\di1616.val"
1002
}
1002
{
1000
GENASSO
1000
 
1002
}
1002
}
1002
}
1002
{
1000
RET
1002
{
1002
{
1000
LOTI
1002
}
1002
{
1000
GD1
1000
4.917
1002
}
1002
{
1000
STDRT
1000
DIN 13 - M6
1002
}
1002
{
1000
DESCR
1000
Metrisches ISO-Gewinde
1002
}
1002
}
1002
}
1002
{
1000
SYSTEM
1040
1.0
1002
}
1002
{
1000
INFEL
1002
{
1002
}
1002
}
1001
GENIUS_GENOENT_13
1002
{
1000
MYREF
1005
13A6
1002
}
1002
{
1000
GRP
1005
0
1002
}
1001
GENIUS_GENOLIS_13
1002
{
1000
ENT
1005
1393
1002
}
  0
POINT
  5
13A7
  8
0
 10
-391.2988440456694
 20
-183.19470366461539
 30
0.0
1001
GENIUS_GENBH_13
1002
{
1000
BGO
1005
0
1002
}
1002
{
1000
FGLEVEL
1040
6.0000000099999991
1002
}
1002
{
1000
FLAGS
1070
    36
1002
}
1002
{
1000
OIUMAP
1000
OIU
1002
}
1002
{
1000
MODIFY
1070
     0
1002
}
1001
GENIUS_GENODEF_13
1002
{
1000
HIER
1070
     1
1002
}
1002
{
1000
MANEDIT
1070
     0
1002
}
1002
{
1000
NOSEL
1070
     1
1002
}
1002
{
1000
BEHIND
1070
     0
1002
}
1002
{
1000
REACTOR
1002
}
1001
GENIUS_GENOBJ-NBEHI-BHF_13
1002
{
1000
OWNER
1000
GENBEHI
1002
}
1001
GENIUS_GENOENT_13
1002
{
1000
MYREF
1005
13A7
1002
}
1002
{
1000
GRP
1005
0
1002
}
1001
GENIUS_GENOLIS_13
1002
{
1000
ENT
1005
1393
1002
}
  0
POINT
  5
13A8
  8
0
 10
-391.2988440456694
 20
-183.19470366461539
 30
0.0
1001
GENIUS_GENODEF_13
1002
{
1000
HIER
1070
   200
1002
}
1002
{
1000
MANEDIT
1070
     0
1002
}
1002
{
1000
NOSEL
1070
     0
1002
}
1002
{
1000
BEHIND
1070
     0
1002
}
1002
{
1000
REACTOR
1002
}
1001
GENIUS_GENOBJ-F-PART_13
1002
{
1000
OWNER
1000
GEF
1002
}
1001
GENIUS_GEFSTDP_13
1002
{
1000
SUG
1000
M
1040
6.0
1002
}
1002
{
1000
DSC
1000
DSC
1002
{
1000
~DESCR
1000
 
1000
~STDRT
1002
}
1002
}
1002
{
1000
KEY
1000
THRT
1002
}
1002
{
1000
INS
1002
{
1040
401.4090569628824
1040
166.94470481685789
1040
0.0
1002
}
1002
}
1002
{
1000
ANG
1040
0.0
1002
}
1002
{
1000
VCC
1002
{
1000
$PRE=M
1000
$NND=6.000000000000000E+00
1000
-RBDESCR
1000
-RBSTDRT
1000
-RBGD1
1000
-RBLOTI
1000
-V$PV_GENSYSTEM"gef\val\di\0401\di1616_d.dxf"
1000
$VCC_TABLE=$PV_GENSYSTEM"gef\val\di\0401\di1616.val"
1000
$GEF_CDIST=3.000000000000000E+00
1000
$GEF_DRAG=1
1000
$GEF_STANG=2.100000000000000E+02
1000
$GEF_OANG=7.000000000000000E+01
1000
$GEVPROMPTX= Länge: 
1000
$GEF_SNK_ADD=0.000000000000000E+00
1000
$GEF_FLIPX=1
1000
$GEF_FLIPY=1
1000
-GRPNAME0?
1000
-GRPNAME1?
1000
-BAML2
1000
$GEF_PROCALC=1
1002
}
1002
}
1002
{
1000
LST
1002
{
1002
{
1000
GROUP
1000
0401
1002
}
1002
{
1000
VIEW
1000
D
1002
}
1002
{
1000
SFILE
1000
$PV_GENSYSTEM"gef\val\di\0401\di1616_d.dxf"
1002
}
1002
{
1000
ST1
1000
$PV_GENSYSTEM"gef\val\di\0401\di1616.val"
1002
}
1002
{
1000
GENASSO
1000
 
1002
}
1002
}
1002
}
1002
{
1000
RET
1002
{
1002
{
1000
LOTI
1002
}
1002
{
1000
GD1
1000
4.917
1002
}
1002
{
1000
STDRT
1000
DIN 13 - M6
1002
}
1002
{
1000
DESCR
1000
Metrisches ISO-Gewinde
1002
}
1002
}
1002
}
1002
{
1000
SYSTEM
1040
1.0
1002
}
1002
{
1000
INFEL
1002
{
1002
}
1002
}
1001
GENIUS_GENOENT_13
1002
{
1000
MYREF
1005
13A8
1002
}
1002
{
1000
GRP
1005
0
1002
}
1001
GENIUS_GENOLIS_13
1002
{
1000
ENT
1005
1360
1002
}
  0
POINT
  5
13A9
  8
0
 10
-391.2988440456694
 20
-183.19470366461539
 30
0.0
1001
GENIUS_GENBH_13
1002
{
1000
BGO
1005
0
1002
}
1002
{
1000
FGLEVEL
1040
8.0000000100000008
1002
}
1002
{
1000
FLAGS
1070
    36
1002
}
1002
{
1000
OIUMAP
1000
OIU
1002
}
1002
{
1000
MODIFY
1070
     0
1002
}
1001
GENIUS_GENODEF_13
1002
{
1000
HIER
1070
     1
1002
}
1002
{
1000
MANEDIT
1070
     0
1002
}
1002
{
1000
NOSEL
1070
     1
1002
}
1002
{
1000
BEHIND
1070
     0
1002
}
1002
{
1000
REACTOR
1002
}
1001
GENIUS_GENOBJ-NBEHI-BHF_13
1002
{
1000
OWNER
1000
GENBEHI
1002
}
1001
GENIUS_GENOENT_13
1002
{
1000
MYREF
1005
13A9
1002
}
1002
{
1000
GRP
1005
0
1002
}
1001
GENIUS_GENOLIS_13
1002
{
1000
ENT
1005
1360
1002
}
  0
POINT
  5
13AA
  8
0
 10
-391.2988440456694
 20
-183.19470366461539
 30
0.0
1001
GENIUS_GENODEF_13
1002
{
1000
HIER
1070
   200
1002
}
1002
{
1000
MANEDIT
1070
     0
1002
}
1002
{
1000
NOSEL
1070
     0
1002
}
1002
{
1000
BEHIND
1070
     0
1002
}
1002
{
1000
REACTOR
1002
}
1001
GENIUS_GENOBJ-F-PART_13
1002
{
1000
OWNER
1000
GEF
1002
}
1001
GENIUS_GEFSTDP_13
1002
{
1000
SUG
1000
M
1040
6.0
1002
}
1002
{
1000
DSC
1000
DSC
1002
{
1000
~DESCR
1000
 
1000
~STDRT
1002
}
1002
}
1002
{
1000
KEY
1000
THRT
1002
}
1002
{
1000
INS
1002
{
1040
401.4090569628824
1040
199.4447048168627
1040
0.0
1002
}
1002
}
1002
{
1000
ANG
1040
0.0
1002
}
1002
{
1000
VCC
1002
{
1000
$PRE=M
1000
$NND=6.000000000000000E+00
1000
-RBDESCR
1000
-RBSTDRT
1000
-RBGD1
1000
-RBLOTI
1000
-V$PV_GENSYSTEM"gef\val\di\0401\di1616_d.dxf"
1000
$VCC_TABLE=$PV_GENSYSTEM"gef\val\di\0401\di1616.val"
1000
$GEF_CDIST=3.000000000000000E+00
1000
$GEF_DRAG=1
1000
$GEF_STANG=2.100000000000000E+02
1000
$GEF_OANG=7.000000000000000E+01
1000
$GEVPROMPTX= Länge: 
1000
$GEF_SNK_ADD=0.000000000000000E+00
1000
$GEF_FLIPX=1
1000
$GEF_FLIPY=1
1000
-GRPNAME0?
1000
-GRPNAME1?
1000
-BAML2
1000
$GEF_PROCALC=1
1002
}
1002
}
1002
{
1000
LST
1002
{
1002
{
1000
GROUP
1000
0401
1002
}
1002
{
1000
VIEW
1000
D
1002
}
1002
{
1000
SFILE
1000
$PV_GENSYSTEM"gef\val\di\0401\di1616_d.dxf"
1002
}
1002
{
1000
ST1
1000
$PV_GENSYSTEM"gef\val\di\0401\di1616.val"
1002
}
1002
{
1000
GENASSO
1000
 
1002
}
1002
}
1002
}
1002
{
1000
RET
1002
{
1002
{
1000
LOTI
1002
}
1002
{
1000
GD1
1000
4.917
1002
}
1002
{
1000
STDRT
1000
DIN 13 - M6
1002
}
1002
{
1000
DESCR
1000
Metrisches ISO-Gewinde
1002
}
1002
}
1002
}
1002
{
1000
SYSTEM
1040
1.0
1002
}
1002
{
1000
INFEL
1002
{
1002
}
1002
}
1001
GENIUS_GENOENT_13
1002
{
1000
MYREF
1005
13AA
1002
}
1002
{
1000
GRP
1005
0
1002
}
1001
GENIUS_GENOLIS_13
1002
{
1000
ENT
1005
1356
1002
}
  0
POINT
  5
13AB
  8
0
 10
-391.2988440456694
 20
-183.19470366461539
 30
0.0
1001
GENIUS_GENBH_13
1002
{
1000
BGO
1005
0
1002
}
1002
{
1000
FGLEVEL
1040
7.0000000099999991
1002
}
1002
{
1000
FLAGS
1070
    36
1002
}
1002
{
1000
OIUMAP
1000
OIU
1002
}
1002
{
1000
MODIFY
1070
     0
1002
}
1001
GENIUS_GENODEF_13
1002
{
1000
HIER
1070
     1
1002
}
1002
{
1000
MANEDIT
1070
     0
1002
}
1002
{
1000
NOSEL
1070
     1
1002
}
1002
{
1000
BEHIND
1070
     0
1002
}
1002
{
1000
REACTOR
1002
}
1001
GENIUS_GENOBJ-NBEHI-BHF_13
1002
{
1000
OWNER
1000
GENBEHI
1002
}
1001
GENIUS_GENOENT_13
1002
{
1000
MYREF
1005
13AB
1002
}
1002
{
1000
GRP
1005
0
1002
}
1001
GENIUS_GENOLIS_13
1002
{
1000
ENT
1005
1356
1002
}
  0
POINT
  5
13AC
  8
0
 10
-233.0301672258114
 20
-96.03016722581296
 30
0.0
1001
GENIUS_GENBH_13
1002
{
1000
FGO
1005
13B0
1002
}
1001
GENIUS_GENODEF_13
1002
{
1000
HIER
1070
     1
1002
}
1002
{
1000
MANEDIT
1070
     0
1002
}
1002
{
1000
NOSEL
1070
     1
1002
}
1002
{
1000
BEHIND
1070
     1
1002
}
1002
{
1000
REACTOR
1002
}
1001
GENIUS_GENOBJ-NBEHI-BHB_13
1002
{
1000
OWNER
1000
GENBEHI
1002
}
1001
GENIUS_GENOENT_13
1002
{
1000
MYREF
1005
13AC
1002
}
1002
{
1000
GRP
1005
0
1002
}
1001
GENIUS_GENOLIS_13
1002
{
1000
ENT
1005
127F
1005
13CD
1002
}
  0
POINT
  5
13AD
  8
0
 10
-233.0301672258114
 20
-96.03016722581296
 30
0.0
1001
GENIUS_GENBH_13
1002
{
1000
BGO
1005
0
1002
}
1002
{
1000
FGLEVEL
1040
1.0000000200000001
1002
}
1002
{
1000
FLAGS
1070
    36
1002
}
1002
{
1000
OIUMAP
1000
OIU
1002
}
1002
{
1000
MODIFY
1070
     0
1002
}
1001
GENIUS_GENODEF_13
1002
{
1000
HIER
1070
     1
1002
}
1002
{
1000
MANEDIT
1070
     0
1002
}
1002
{
1000
NOSEL
1070
     1
1002
}
1002
{
1000
BEHIND
1070
     1
1002
}
1002
{
1000
REACTOR
1002
}
1001
GENIUS_GENOBJ-NBEHI-BHF_13
1002
{
1000
OWNER
1000
GENBEHI
1002
}
1001
GENIUS_GENOENT_13
1002
{
1000
MYREF
1005
13AD
1002
}
1002
{
1000
GRP
1005
0
1002
}
1001
GENIUS_GENOLIS_13
1002
{
1000
ENT
1005
127F
1002
}
  0
POINT
  5
13AE
  8
0
 10
-233.0301672258114
 20
-96.03016722581296
 30
0.0
1001
GENIUS_GENODEF_13
1002
{
1000
HIER
1070
   200
1002
}
1002
{
1000
MANEDIT
1070
     0
1002
}
1002
{
1000
NOSEL
1070
     0
1002
}
1002
{
1000
BEHIND
1070
     0
1002
}
1002
{
1000
REACTOR
1002
}
1001
GENIUS_GEFSTDP_13
1002
{
1000
DSC
1002
{
1002
{
1002
}
1002
}
1002
}
1002
{
1000
SCP
1002
{
1000
TYPE
1000
SCP
1002
}
1002
{
1000
GMODE
1070
     1
1002
}
1002
{
1000
DMODE
1070
     0
1002
}
1002
{
1000
SSIZE
1002
{
1002
{
1000
NND
1000
TPU
1000
PTC
1000
CON
1000
EGR
1000
PRE
1002
}
1002
{
1040
6.0
1040
1.0
1040
1.0
1000
x
1000
1
1000
M
1002
}
1002
}
1002
}
1002
{
1000
ASIZE
1002
{
1002
{
1000
NND
1000
TPU
1000
EGR
1000
PRE
1000
PTC
1002
}
1002
{
1040
6.0
1040
1.0
1000
1
1000
M
1040
1.0
1002
}
1002
}
1002
}
1002
{
1000
VIEW
1070
     2
1002
}
1002
{
1000
1
1002
{
1002
{
1000
SFILE
1000
$PV_GENSYSTEM"gef\val\di\0101\di2401_v.dxf"
1002
}
1002
{
1000
ST1
1000
$PV_GENSYSTEM"gef\val\di\0101\di2401.val"
1002
}
1002
{
1000
ASSO
1000
DIN_912
1002
}
1002
{
1000
VIEW
1000
V
1002
}
1002
{
1000
SSTATUS
1000
~T
1002
}
1002
{
1000
GROUP
1000
0101
1002
}
1002
}
1002
}
1002
{
1000
4
1002
{
1002
{
1000
SFILE
1000
$PV_GENSYSTEM"gef\val\di\0301\di1602_v.dxf"
1002
}
1002
{
1000
ST1
1000
$PV_GENSYSTEM"gef\val\di\0301\di1602.val"
1002
}
1002
{
1000
ASSO
1000
 
1002
}
1002
{
1000
VIEW
1000
V
1002
}
1002
{
1000
SSTATUS
1000
~T
1002
}
1002
{
1000
GROUP
1000
0301
1002
}
1002
}
1002
}
1002
}
1002
{
1000
DSC1
1000
DSC1
1002
{
1000
~DESCR1
1000
 
1000
~BORE1
1000
 x 
1000
~GL1
1002
}
1002
}
1002
{
1000
DSC2
1000
DSC2
1002
{
1000
~DESCR2
1000
 
1000
~BORE2
1000
 x 
1000
~GL2
1002
}
1002
}
1002
{
1000
KEY
1000
SCP
1002
}
1002
{
1000
INS
1002
{
1040
18.00000000000141
1040
-16.25
1040
0.0
1002
}
1002
}
1002
{
1000
ANG
1040
0.0
1002
}
1002
{
1000
VCC
1002
{
1000
$NND=6.000000000000000E+00
1000
$TPU=1.000000000000000E+00
1000
$EGR=1
1000
$PRE=M
1000
$PTC=1.000000000000000E+00
1000
$SELMODE=1
1000
-V$PV_GENSYSTEM"gef\val\sys\dudus_s.dxf
1000
-LPHIDE=1
1000
$GEVBHOP=2
1000
-LPSPOCK1=C:\GENIUS\GEF\VAL\SYS\SPOCK2_S.DXF
1000
$HIDE=0
1000
-LPPART1=1
1000
-LPTABLE1=$PV_GENSYSTEM"gef\val\di\0101\di2401.val"
1000
-LPDXF1=$PV_GENSYSTEM"gef\val\di\0101\di2401_v.dxf"
1000
-LPSCRID=2
1000
-LPPART2=0
1000
-LPTABLE2=$PV_GENSYSTEM"gef\val\sys\mrbean.val
1000
-LPPART3=0
1000
-LPTABLE3=$PV_GENSYSTEM"gef\val\sys\mrbean.val
1000
-LPPART4=1
1000
-LPTABLE4=$PV_GENSYSTEM"gef\val\di\0301\di1602.val"
1000
-LPDXF4=$PV_GENSYSTEM"gef\val\di\0301\di1602_v.dxf"
1000
-LPPART5=0
1000
-LPPART6=0
1000
-LPPART7=0
1000
-LPPART8=0
1000
-LPPART9=0
1000
-LPPART10=0
1000
$GEF_FLIPX=2
1000
$GEF_FLIPY=2
1000
$GL1=0
1000
$GL2=0
1000
-GRPNAME1MSL_F12_32-0
1000
-LPGL1=7.999999999998590E+00
1000
-LPGL2=0
1000
-GRPNAME2ZYL_32_ISO6431-0
1000
-RBSTDRD
1000
-RBDESCR1
1000
-RBDESCR2
1000
-RBBORE1
1000
-RBBORE2
1000
-RBGL1
1000
-RBGL2
1000
-RBBORED
1000
-RBHEADD
1000
-RBCDEP
1000
-RBCANG
1000
$GEF_CDIST=3.000000000000000E+00
1000
$GEF_DRAG=1
1000
$GEF_STANG=2.100000000000000E+02
1000
$GEF_OANG=7.000000000000000E+01
1000
$GEVPROMPTX= Länge: 
1000
$GEF_SNK_ADD=0.000000000000000E+00
1000
-GRPNAME0?
1000
-BAML2
1000
$GEF_PROCALC=1
1002
}
1002
}
1002
{
1000
LST
1002
{
1002
{
1002
}
1002
}
1002
}
1002
{
1000
RET
1002
{
1002
{
1000
CANG
1002
}
1002
{
1000
CDEP
1002
}
1002
{
1000
HEADD
1002
}
1002
{
1000
BORED
1002
}
1002
{
1000
GL2
1000
0
1002
}
1002
{
1000
GL1
1000
7.99999999999859
1002
}
1002
{
1000
BORE2
1002
}
1002
{
1000
BORE1
1000
DIN EN 20273 - M6 - H13
1002
}
1002
{
1000
DESCR2
1002
}
1002
{
1000
DESCR1
1000
Durchgangsloch
1002
}
1002
{
1000
STDRD
1002
}
1002
}
1002
}
1002
{
1000
SYSTEM
1040
1.0
1002
}
1002
{
1000
INFEL
1002
{
1005
0
1002
}
1002
}
1001
GENIUS_GENOBJ-F-PART_13
1002
{
1000
OWNER
1000
GEF
1002
}
1001
GENIUS_GENOENT_13
1002
{
1000
MYREF
1005
13AE
1002
}
1002
{
1000
GRP
1005
0
1002
}
1001
GENIUS_GENOLIS_13
1002
{
1000
ENT
1005
1274
1005
13CD
1005
13CC
1005
1264
1005
127F
1002
}
  0
POINT
  5
13AF
  8
0
 10
-233.0301672258114
 20
-96.03016722581296
 30
0.0
1001
GENIUS_GENBH_13
1002
{
1000
FGO
1005
0
1002
}
1001
GENIUS_GENODEF_13
1002
{
1000
HIER
1070
     1
1002
}
1002
{
1000
MANEDIT
1070
     0
1002
}
1002
{
1000
NOSEL
1070
     1
1002
}
1002
{
1000
BEHIND
1070
     0
1002
}
1002
{
1000
REACTOR
1002
}
1001
GENIUS_GENOBJ-NBEHI-BHB_13
1002
{
1000
OWNER
1000
GENBEHI
1002
}
1001
GENIUS_GENOENT_13
1002
{
1000
MYREF
1005
13AF
1002
}
1002
{
1000
GRP
1005
0
1002
}
1001
GENIUS_GENOLIS_13
1002
{
1000
ENT
1005
1264
1005
127F
1005
13CD
1002
}
  0
POINT
  5
13B0
  8
0
 10
-233.0301672258114
 20
-96.03016722581296
 30
0.0
1001
GENIUS_GENBH_13
1002
{
1000
BGO
1005
13AC
1002
}
1002
{
1000
FGLEVEL
1040
1.00000003
1002
}
1002
{
1000
FLAGS
1070
    36
1002
}
1002
{
1000
OIUMAP
1000
OIU
1002
}
1002
{
1000
MODIFY
1070
     0
1002
}
1001
GENIUS_GENODEF_13
1002
{
1000
HIER
1070
     1
1002
}
1002
{
1000
MANEDIT
1070
     0
1002
}
1002
{
1000
NOSEL
1070
     1
1002
}
1002
{
1000
BEHIND
1070
     1
1002
}
1002
{
1000
REACTOR
1002
}
1001
GENIUS_GENOBJ-NBEHI-BHF_13
1002
{
1000
OWNER
1000
GENBEHI
1002
}
1001
GENIUS_GENOENT_13
1002
{
1000
MYREF
1005
13B0
1002
}
1002
{
1000
GRP
1005
0
1002
}
1001
GENIUS_GENOLIS_13
1002
{
1000
ENT
1005
1264
1002
}
  0
POINT
  5
13B1
  8
0
 10
-233.0301672258114
 20
-96.03016722581296
 30
0.0
1001
GENIUS_GENBH_13
1002
{
1000
BGO
1005
13B4
1002
}
1002
{
1000
FGLEVEL
1040
1.00000003
1002
}
1002
{
1000
FLAGS
1070
    36
1002
}
1002
{
1000
OIUMAP
1000
OIU
1002
}
1002
{
1000
MODIFY
1070
     0
1002
}
1001
GENIUS_GENODEF_13
1002
{
1000
HIER
1070
     1
1002
}
1002
{
1000
MANEDIT
1070
     0
1002
}
1002
{
1000
NOSEL
1070
     1
1002
}
1002
{
1000
BEHIND
1070
     1
1002
}
1002
{
1000
REACTOR
1002
}
1001
GENIUS_GENOBJ-NBEHI-BHF_13
1002
{
1000
OWNER
1000
GENBEHI
1002
}
1001
GENIUS_GENOENT_13
1002
{
1000
MYREF
1005
13B1
1002
}
1002
{
1000
GRP
1005
0
1002
}
1001
GENIUS_GENOLIS_13
1002
{
1000
ENT
1005
1259
1002
}
  0
POINT
  5
13B2
  8
0
 10
-233.0301672258114
 20
-96.03016722581296
 30
0.0
1001
GENIUS_GENODEF_13
1002
{
1000
HIER
1070
   200
1002
}
1002
{
1000
MANEDIT
1070
     0
1002
}
1002
{
1000
NOSEL
1070
     0
1002
}
1002
{
1000
BEHIND
1070
     0
1002
}
1002
{
1000
REACTOR
1002
}
1001
GENIUS_GEFSTDP_13
1002
{
1000
DSC
1002
{
1002
{
1002
}
1002
}
1002
}
1002
{
1000
SCP
1002
{
1000
TYPE
1000
SCP
1002
}
1002
{
1000
GMODE
1070
     1
1002
}
1002
{
1000
DMODE
1070
     0
1002
}
1002
{
1000
SSIZE
1002
{
1002
{
1000
NND
1000
TPU
1000
PTC
1000
CON
1000
EGR
1000
PRE
1002
}
1002
{
1040
6.0
1040
1.0
1040
1.0
1000
x
1000
1
1000
M
1002
}
1002
}
1002
}
1002
{
1000
ASIZE
1002
{
1002
{
1000
NND
1000
TPU
1000
EGR
1000
PRE
1000
PTC
1002
}
1002
{
1040
6.0
1040
1.0
1000
1
1000
M
1040
1.0
1002
}
1002
}
1002
}
1002
{
1000
VIEW
1070
     2
1002
}
1002
{
1000
1
1002
{
1002
{
1000
SFILE
1000
$PV_GENSYSTEM"gef\val\di\0101\di2401_v.dxf"
1002
}
1002
{
1000
ST1
1000
$PV_GENSYSTEM"gef\val\di\0101\di2401.val"
1002
}
1002
{
1000
ASSO
1000
DIN_912
1002
}
1002
{
1000
VIEW
1000
V
1002
}
1002
{
1000
SSTATUS
1000
~T
1002
}
1002
{
1000
GROUP
1000
0101
1002
}
1002
}
1002
}
1002
{
1000
4
1002
{
1002
{
1000
SFILE
1000
$PV_GENSYSTEM"gef\val\di\0301\di1602_v.dxf"
1002
}
1002
{
1000
ST1
1000
$PV_GENSYSTEM"gef\val\di\0301\di1602.val"
1002
}
1002
{
1000
ASSO
1000
 
1002
}
1002
{
1000
VIEW
1000
V
1002
}
1002
{
1000
SSTATUS
1000
~T
1002
}
1002
{
1000
GROUP
1000
0301
1002
}
1002
}
1002
}
1002
}
1002
{
1000
DSC1
1000
DSC1
1002
{
1000
~DESCR1
1000
 
1000
~BORE1
1000
 x 
1000
~GL1
1002
}
1002
}
1002
{
1000
DSC2
1000
DSC2
1002
{
1000
~DESCR2
1000
 
1000
~BORE2
1000
 x 
1000
~GL2
1002
}
1002
}
1002
{
1000
KEY
1000
SCP
1002
}
1002
{
1000
INS
1002
{
1040
18.00000000000141
1040
-16.25
1040
0.0
1002
}
1002
}
1002
{
1000
ANG
1040
0.0
1002
}
1002
{
1000
VCC
1002
{
1000
$NND=6.000000000000000E+00
1000
$TPU=1.000000000000000E+00
1000
$EGR=1
1000
$PRE=M
1000
$PTC=1.000000000000000E+00
1000
$SELMODE=1
1000
-V$PV_GENSYSTEM"gef\val\sys\dudus_s.dxf
1000
-LPHIDE=1
1000
$GEVBHOP=2
1000
-LPSPOCK1=C:\GENIUS\GEF\VAL\SYS\SPOCK2_S.DXF
1000
$HIDE=0
1000
-LPPART1=1
1000
-LPTABLE1=$PV_GENSYSTEM"gef\val\di\0101\di2401.val"
1000
-LPDXF1=$PV_GENSYSTEM"gef\val\di\0101\di2401_v.dxf"
1000
-LPSCRID=2
1000
-LPPART2=0
1000
-LPTABLE2=$PV_GENSYSTEM"gef\val\sys\mrbean.val
1000
-LPPART3=0
1000
-LPTABLE3=$PV_GENSYSTEM"gef\val\sys\mrbean.val
1000
-LPPART4=1
1000
-LPTABLE4=$PV_GENSYSTEM"gef\val\di\0301\di1602.val"
1000
-LPDXF4=$PV_GENSYSTEM"gef\val\di\0301\di1602_v.dxf"
1000
-LPPART5=0
1000
-LPPART6=0
1000
-LPPART7=0
1000
-LPPART8=0
1000
-LPPART9=0
1000
-LPPART10=0
1000
$GEF_FLIPX=2
1000
$GEF_FLIPY=2
1000
$GL1=0
1000
$GL2=0
1000
-GRPNAME1MSL_F12_32-0
1000
-LPGL1=7.999999999998590E+00
1000
-LPGL2=0
1000
-GRPNAME2ZYL_32_ISO6431-0
1000
-RBSTDRD
1000
-RBDESCR1
1000
-RBDESCR2
1000
-RBBORE1
1000
-RBBORE2
1000
-RBGL1
1000
-RBGL2
1000
-RBBORED
1000
-RBHEADD
1000
-RBCDEP
1000
-RBCANG
1000
$GEF_CDIST=3.000000000000000E+00
1000
$GEF_DRAG=1
1000
$GEF_STANG=2.100000000000000E+02
1000
$GEF_OANG=7.000000000000000E+01
1000
$GEVPROMPTX= Länge: 
1000
$GEF_SNK_ADD=0.000000000000000E+00
1000
-GRPNAME0?
1000
-BAML2
1000
$GEF_PROCALC=1
1002
}
1002
}
1002
{
1000
LST
1002
{
1002
{
1002
}
1002
}
1002
}
1002
{
1000
RET
1002
{
1002
{
1000
CANG
1002
}
1002
{
1000
CDEP
1002
}
1002
{
1000
HEADD
1002
}
1002
{
1000
BORED
1002
}
1002
{
1000
GL2
1000
0
1002
}
1002
{
1000
GL1
1000
7.99999999999859
1002
}
1002
{
1000
BORE2
1002
}
1002
{
1000
BORE1
1000
DIN EN 20273 - M6 - H13
1002
}
1002
{
1000
DESCR2
1002
}
1002
{
1000
DESCR1
1000
Durchgangsloch
1002
}
1002
{
1000
STDRD
1002
}
1002
}
1002
}
1002
{
1000
SYSTEM
1040
1.0
1002
}
1002
{
1000
INFEL
1002
{
1005
0
1002
}
1002
}
1001
GENIUS_GENOBJ-F-PART_13
1002
{
1000
OWNER
1000
GEF
1002
}
1001
GENIUS_GENOENT_13
1002
{
1000
MYREF
1005
13B2
1002
}
1002
{
1000
GRP
1005
0
1002
}
1001
GENIUS_GENOLIS_13
1002
{
1000
ENT
1005
1281
1005
13CF
1005
13CE
1005
1259
1005
1258
1002
}
  0
POINT
  5
13B3
  8
0
 10
-233.0301672258114
 20
-96.03016722581296
 30
0.0
1001
GENIUS_GENBH_13
1002
{
1000
FGO
1005
0
1002
}
1001
GENIUS_GENODEF_13
1002
{
1000
HIER
1070
     1
1002
}
1002
{
1000
MANEDIT
1070
     0
1002
}
1002
{
1000
NOSEL
1070
     1
1002
}
1002
{
1000
BEHIND
1070
     0
1002
}
1002
{
1000
REACTOR
1002
}
1001
GENIUS_GENOBJ-NBEHI-BHB_13
1002
{
1000
OWNER
1000
GENBEHI
1002
}
1001
GENIUS_GENOENT_13
1002
{
1000
MYREF
1005
13B3
1002
}
1002
{
1000
GRP
1005
0
1002
}
1001
GENIUS_GENOLIS_13
1002
{
1000
ENT
1005
1259
1005
1258
1005
13CF
1002
}
  0
POINT
  5
13B4
  8
0
 10
-233.0301672258114
 20
-96.03016722581296
 30
0.0
1001
GENIUS_GENBH_13
1002
{
1000
FGO
1005
13B1
1002
}
1001
GENIUS_GENODEF_13
1002
{
1000
HIER
1070
     1
1002
}
1002
{
1000
MANEDIT
1070
     0
1002
}
1002
{
1000
NOSEL
1070
     1
1002
}
1002
{
1000
BEHIND
1070
     1
1002
}
1002
{
1000
REACTOR
1002
}
1001
GENIUS_GENOBJ-NBEHI-BHB_13
1002
{
1000
OWNER
1000
GENBEHI
1002
}
1001
GENIUS_GENOENT_13
1002
{
1000
MYREF
1005
13B4
1002
}
1002
{
1000
GRP
1005
0
1002
}
1001
GENIUS_GENOLIS_13
1002
{
1000
ENT
1005
1258
1005
13CF
1002
}
  0
POINT
  5
13B5
  8
0
 10
-233.0301672258114
 20
-96.03016722581296
 30
0.0
1001
GENIUS_GENBH_13
1002
{
1000
BGO
1005
0
1002
}
1002
{
1000
FGLEVEL
1040
1.0000000200000001
1002
}
1002
{
1000
FLAGS
1070
    36
1002
}
1002
{
1000
OIUMAP
1000
OIU
1002
}
1002
{
1000
MODIFY
1070
     0
1002
}
1001
GENIUS_GENODEF_13
1002
{
1000
HIER
1070
     1
1002
}
1002
{
1000
MANEDIT
1070
     0
1002
}
1002
{
1000
NOSEL
1070
     1
1002
}
1002
{
1000
BEHIND
1070
     1
1002
}
1002
{
1000
REACTOR
1002
}
1001
GENIUS_GENOBJ-NBEHI-BHF_13
1002
{
1000
OWNER
1000
GENBEHI
1002
}
1001
GENIUS_GENOENT_13
1002
{
1000
MYREF
1005
13B5
1002
}
1002
{
1000
GRP
1005
0
1002
}
1001
GENIUS_GENOLIS_13
1002
{
1000
ENT
1005
1258
1002
}
  0
POINT
  5
13B6
  8
0
 10
-233.0301672258114
 20
-96.03016722581296
 30
0.0
1001
GENIUS_GENODEF_13
1002
{
1000
HIER
1070
   200
1002
}
1002
{
1000
MANEDIT
1070
     0
1002
}
1002
{
1000
NOSEL
1070
     0
1002
}
1002
{
1000
BEHIND
1070
     0
1002
}
1002
{
1000
REACTOR
1002
}
1001
GENIUS_GENOBJ-F-PART_13
1002
{
1000
OWNER
1000
GEF
1002
}
1001
GENIUS_GEFSTDP_13
1002
{
1000
DSC
1000
DSC
1002
{
1000
~DESCR
1000
 
1000
~STDRT
1000
(gefmsg "gefcall" 409)
1000
~LOTI
1002
}
1002
}
1002
{
1000
SUG
1000
G
1000
1/8
1002
}
1002
{
1000
KEY
1000
THPF
1002
}
1002
{
1000
INS
1002
{
1040
38.99999999999995
1040
121.03016837805551
1040
0.0
1002
}
1002
}
1002
{
1000
ANG
1040
4.7123889803846888
1002
}
1002
{
1000
VCC
1002
{
1000
-LPLOTI=5.000000000000000E+00
1000
$PRE=G
1000
$NM1=1/8
1000
-GRPNAME0ZYL_32_ISO6431-0
1000
-RBDESCR
1000
-RBSTDRT
1000
-RBLOTI
1000
-RBGD1
1000
-V$PV_GENSYSTEM"gef\val\di\0405\di1627_v.dxf"
1000
$VCC_TABLE=$PV_GENSYSTEM"gef\val\di\0405\di1627.val"
1000
$GEF_CDIST=3.000000000000000E+00
1000
$GEF_DRAG=1
1000
$GEF_STANG=2.100000000000000E+02
1000
$GEF_OANG=7.000000000000000E+01
1000
$GEVPROMPTX= Länge: 
1000
$GEF_SNK_ADD=0.000000000000000E+00
1000
$GEF_FLIPX=1
1000
$GEF_FLIPY=1
1000
-GRPNAME1?
1000
-BAML2
1000
$GEF_PROCALC=1
1000
$GEVBHOP=2
1002
}
1002
}
1002
{
1000
LST
1002
{
1002
{
1000
GROUP
1000
0405
1002
}
1002
{
1000
VIEW
1000
V
1002
}
1002
{
1000
SFILE
1000
$PV_GENSYSTEM"gef\val\di\0405\di1627_v.dxf"
1002
}
1002
{
1000
ST1
1000
$PV_GENSYSTEM"gef\val\di\0405\di1627.val"
1002
}
1002
{
1000
GENASSO
1000
 
1002
}
1002
}
1002
}
1002
{
1000
RET
1002
{
1002
{
1000
GD1
1000
8.56645
1002
}
1002
{
1000
LOTI
1000
5.000000000000000E+00
1002
}
1002
{
1000
STDRT
1000
ISO 228 - G 1/8
1002
}
1002
{
1000
DESCR
1000
Rohrgewinde
1002
}
1002
}
1002
}
1002
{
1000
SYSTEM
1040
1.0
1002
}
1002
{
1000
INFEL
1002
{
1002
}
1002
}
1001
GENIUS_GENOENT_13
1002
{
1000
MYREF
1005
13B6
1002
}
1002
{
1000
GRP
1005
0
1002
}
1001
GENIUS_GENOLIS_13
1002
{
1000
ENT
1005
1257
1002
}
  0
POINT
  5
13B7
  8
0
 10
-233.0301672258114
 20
-96.03016722581296
 30
0.0
1001
GENIUS_GENODEF_13
1002
{
1000
HIER
1070
   200
1002
}
1002
{
1000
MANEDIT
1070
     0
1002
}
1002
{
1000
NOSEL
1070
     0
1002
}
1002
{
1000
BEHIND
1070
     0
1002
}
1002
{
1000
REACTOR
1002
}
1001
GENIUS_GENOBJ-F-PART_13
1002
{
1000
OWNER
1000
GEF
1002
}
1001
GENIUS_GEFSTDP_13
1002
{
1000
SUG
1000
G
1000
1/8
1002
}
1002
{
1000
DSC
1000
DSC
1002
{
1000
~DESCR
1000
 
1000
~STDRT
1000
(gefmsg "gefcall" 409)
1000
~LOTI
1002
}
1002
}
1002
{
1000
KEY
1000
THPF
1002
}
1002
{
1000
INS
1002
{
1040
116.9999999999999
1040
121.03016837805551
1040
0.0
1002
}
1002
}
1002
{
1000
ANG
1040
4.7123889803846888
1002
}
1002
{
1000
VCC
1002
{
1000
-LPLOTI=5.000000000000000E+00
1000
$PRE=G
1000
$NM1=1/8
1000
-GRPNAME0ZYL_32_ISO6431-0
1000
-RBDESCR
1000
-RBSTDRT
1000
-RBLOTI
1000
-RBGD1
1000
-V$PV_GENSYSTEM"gef\val\di\0405\di1627_v.dxf"
1000
$VCC_TABLE=$PV_GENSYSTEM"gef\val\di\0405\di1627.val"
1000
$GEF_CDIST=3.000000000000000E+00
1000
$GEF_DRAG=1
1000
$GEF_STANG=2.100000000000000E+02
1000
$GEF_OANG=7.000000000000000E+01
1000
$GEVPROMPTX= Länge: 
1000
$GEF_SNK_ADD=0.000000000000000E+00
1000
$GEF_FLIPX=1
1000
$GEF_FLIPY=1
1000
-GRPNAME1?
1000
-BAML2
1000
$GEF_PROCALC=1
1000
$GEVBHOP=2
1002
}
1002
}
1002
{
1000
LST
1002
{
1002
{
1000
GROUP
1000
0405
1002
}
1002
{
1000
VIEW
1000
V
1002
}
1002
{
1000
SFILE
1000
$PV_GENSYSTEM"gef\val\di\0405\di1627_v.dxf"
1002
}
1002
{
1000
ST1
1000
$PV_GENSYSTEM"gef\val\di\0405\di1627.val"
1002
}
1002
{
1000
GENASSO
1000
 
1002
}
1002
}
1002
}
1002
{
1000
RET
1002
{
1002
{
1000
GD1
1000
8.56645
1002
}
1002
{
1000
LOTI
1000
5.000000000000000E+00
1002
}
1002
{
1000
STDRT
1000
ISO 228 - G 1/8
1002
}
1002
{
1000
DESCR
1000
Rohrgewinde
1002
}
1002
}
1002
}
1002
{
1000
SYSTEM
1040
1.0
1002
}
1002
{
1000
INFEL
1002
{
1002
}
1002
}
1001
GENIUS_GENOENT_13
1002
{
1000
MYREF
1005
13B7
1002
}
1002
{
1000
GRP
1005
0
1002
}
1001
GENIUS_GENOLIS_13
1002
{
1000
ENT
1005
1251
1002
}
  0
POINT
  5
13B8
  8
0
 10
-233.0301672258114
 20
-96.03016722581296
 30
0.0
1001
GENIUS_GENBH_13
1002
{
1000
FGO
1005
13BC
1002
}
1001
GENIUS_GENODEF_13
1002
{
1000
HIER
1070
     1
1002
}
1002
{
1000
MANEDIT
1070
     0
1002
}
1002
{
1000
NOSEL
1070
     1
1002
}
1002
{
1000
BEHIND
1070
     1
1002
}
1002
{
1000
REACTOR
1002
}
1001
GENIUS_GENOBJ-NBEHI-BHB_13
1002
{
1000
OWNER
1000
GENBEHI
1002
}
1001
GENIUS_GENOENT_13
1002
{
1000
MYREF
1005
13B8
1002
}
1002
{
1000
GRP
1005
0
1002
}
1001
GENIUS_GENOLIS_13
1002
{
1000
ENT
1005
122E
1005
13D1
1002
}
  0
POINT
  5
13B9
  8
0
 10
-233.0301672258114
 20
-96.03016722581296
 30
0.0
1001
GENIUS_GENBH_13
1002
{
1000
BGO
1005
0
1002
}
1002
{
1000
FGLEVEL
1040
1.0000000200000001
1002
}
1002
{
1000
FLAGS
1070
    36
1002
}
1002
{
1000
OIUMAP
1000
OIU
1002
}
1002
{
1000
MODIFY
1070
     0
1002
}
1001
GENIUS_GENODEF_13
1002
{
1000
HIER
1070
     1
1002
}
1002
{
1000
MANEDIT
1070
     0
1002
}
1002
{
1000
NOSEL
1070
     1
1002
}
1002
{
1000
BEHIND
1070
     1
1002
}
1002
{
1000
REACTOR
1002
}
1001
GENIUS_GENOBJ-NBEHI-BHF_13
1002
{
1000
OWNER
1000
GENBEHI
1002
}
1001
GENIUS_GENOENT_13
1002
{
1000
MYREF
1005
13B9
1002
}
1002
{
1000
GRP
1005
0
1002
}
1001
GENIUS_GENOLIS_13
1002
{
1000
ENT
1005
122E
1002
}
  0
POINT
  5
13BA
  8
0
 10
-233.0301672258114
 20
-96.03016722581296
 30
0.0
1001
GENIUS_GENODEF_13
1002
{
1000
HIER
1070
   200
1002
}
1002
{
1000
MANEDIT
1070
     0
1002
}
1002
{
1000
NOSEL
1070
     0
1002
}
1002
{
1000
BEHIND
1070
     0
1002
}
1002
{
1000
REACTOR
1002
}
1001
GENIUS_GEFSTDP_13
1002
{
1000
DSC
1002
{
1002
{
1002
}
1002
}
1002
}
1002
{
1000
SCP
1002
{
1000
TYPE
1000
SCP
1002
}
1002
{
1000
GMODE
1070
     1
1002
}
1002
{
1000
DMODE
1070
     0
1002
}
1002
{
1000
SSIZE
1002
{
1002
{
1000
NND
1000
TPU
1000
PTC
1000
CON
1000
EGR
1000
PRE
1002
}
1002
{
1040
6.0
1040
1.0
1040
1.0
1000
x
1000
1
1000
M
1002
}
1002
}
1002
}
1002
{
1000
ASIZE
1002
{
1002
{
1000
NND
1000
TPU
1000
EGR
1000
PRE
1000
PTC
1002
}
1002
{
1040
6.0
1040
1.0
1000
1
1000
M
1040
1.0
1002
}
1002
}
1002
}
1002
{
1000
VIEW
1070
     2
1002
}
1002
{
1000
1
1002
{
1002
{
1000
SFILE
1000
$PV_GENSYSTEM"gef\val\di\0101\di2401_v.dxf"
1002
}
1002
{
1000
ST1
1000
$PV_GENSYSTEM"gef\val\di\0101\di2401.val"
1002
}
1002
{
1000
ASSO
1000
DIN_912
1002
}
1002
{
1000
VIEW
1000
V
1002
}
1002
{
1000
SSTATUS
1000
~T
1002
}
1002
{
1000
GROUP
1000
0101
1002
}
1002
}
1002
}
1002
{
1000
4
1002
{
1002
{
1000
SFILE
1000
$PV_GENSYSTEM"gef\val\di\0301\di1602_v.dxf"
1002
}
1002
{
1000
ST1
1000
$PV_GENSYSTEM"gef\val\di\0301\di1602.val"
1002
}
1002
{
1000
ASSO
1000
 
1002
}
1002
{
1000
VIEW
1000
V
1002
}
1002
{
1000
SSTATUS
1000
~T
1002
}
1002
{
1000
GROUP
1000
0301
1002
}
1002
}
1002
}
1002
}
1002
{
1000
DSC1
1000
DSC1
1002
{
1000
~DESCR1
1000
 
1000
~BORE1
1000
 x 
1000
~GL1
1002
}
1002
}
1002
{
1000
DSC2
1000
DSC2
1002
{
1000
~DESCR2
1000
 
1000
~BORE2
1000
 x 
1000
~GL2
1002
}
1002
}
1002
{
1000
KEY
1000
SCP
1002
}
1002
{
1000
INS
1002
{
1040
18.00000000000141
1040
-16.25
1040
0.0
1002
}
1002
}
1002
{
1000
ANG
1040
0.0
1002
}
1002
{
1000
VCC
1002
{
1000
$NND=6.000000000000000E+00
1000
$TPU=1.000000000000000E+00
1000
$EGR=1
1000
$PRE=M
1000
$PTC=1.000000000000000E+00
1000
$SELMODE=1
1000
-V$PV_GENSYSTEM"gef\val\sys\dudus_s.dxf
1000
-LPHIDE=1
1000
$GEVBHOP=2
1000
-LPSPOCK1=C:\GENIUS\GEF\VAL\SYS\SPOCK2_S.DXF
1000
$HIDE=0
1000
-LPPART1=1
1000
-LPTABLE1=$PV_GENSYSTEM"gef\val\di\0101\di2401.val"
1000
-LPDXF1=$PV_GENSYSTEM"gef\val\di\0101\di2401_v.dxf"
1000
-LPSCRID=2
1000
-LPPART2=0
1000
-LPTABLE2=$PV_GENSYSTEM"gef\val\sys\mrbean.val
1000
-LPPART3=0
1000
-LPTABLE3=$PV_GENSYSTEM"gef\val\sys\mrbean.val
1000
-LPPART4=1
1000
-LPTABLE4=$PV_GENSYSTEM"gef\val\di\0301\di1602.val"
1000
-LPDXF4=$PV_GENSYSTEM"gef\val\di\0301\di1602_v.dxf"
1000
-LPPART5=0
1000
-LPPART6=0
1000
-LPPART7=0
1000
-LPPART8=0
1000
-LPPART9=0
1000
-LPPART10=0
1000
$GEF_FLIPX=2
1000
$GEF_FLIPY=2
1000
$GL1=0
1000
$GL2=0
1000
-GRPNAME1MSL_F12_32-0
1000
-LPGL1=7.999999999998590E+00
1000
-LPGL2=0
1000
-GRPNAME2ZYL_32_ISO6431-0
1000
-RBSTDRD
1000
-RBDESCR1
1000
-RBDESCR2
1000
-RBBORE1
1000
-RBBORE2
1000
-RBGL1
1000
-RBGL2
1000
-RBBORED
1000
-RBHEADD
1000
-RBCDEP
1000
-RBCANG
1000
$GEF_CDIST=3.000000000000000E+00
1000
$GEF_DRAG=1
1000
$GEF_STANG=2.100000000000000E+02
1000
$GEF_OANG=7.000000000000000E+01
1000
$GEVPROMPTX= Länge: 
1000
$GEF_SNK_ADD=0.000000000000000E+00
1000
-GRPNAME0?
1000
-BAML2
1000
$GEF_PROCALC=1
1002
}
1002
}
1002
{
1000
LST
1002
{
1002
{
1002
}
1002
}
1002
}
1002
{
1000
RET
1002
{
1002
{
1000
CANG
1002
}
1002
{
1000
CDEP
1002
}
1002
{
1000
HEADD
1002
}
1002
{
1000
BORED
1002
}
1002
{
1000
GL2
1000
0
1002
}
1002
{
1000
GL1
1000
7.99999999999859
1002
}
1002
{
1000
BORE2
1002
}
1002
{
1000
BORE1
1000
DIN EN 20273 - M6 - H13
1002
}
1002
{
1000
DESCR2
1002
}
1002
{
1000
DESCR1
1000
Durchgangsloch
1002
}
1002
{
1000
STDRD
1002
}
1002
}
1002
}
1002
{
1000
SYSTEM
1040
1.0
1002
}
1002
{
1000
INFEL
1002
{
1005
0
1002
}
1002
}
1001
GENIUS_GENOBJ-F-PART_13
1002
{
1000
OWNER
1000
GEF
1002
}
1001
GENIUS_GENOENT_13
1002
{
1000
MYREF
1005
13BA
1002
}
1002
{
1000
GRP
1005
0
1002
}
1001
GENIUS_GENOLIS_13
1002
{
1000
ENT
1005
1219
1005
13D1
1005
13D0
1005
1214
1005
122E
1002
}
  0
POINT
  5
13BB
  8
0
 10
-233.0301672258114
 20
-96.03016722581296
 30
0.0
1001
GENIUS_GENBH_13
1002
{
1000
FGO
1005
0
1002
}
1001
GENIUS_GENODEF_13
1002
{
1000
HIER
1070
     1
1002
}
1002
{
1000
MANEDIT
1070
     0
1002
}
1002
{
1000
NOSEL
1070
     1
1002
}
1002
{
1000
BEHIND
1070
     0
1002
}
1002
{
1000
REACTOR
1002
}
1001
GENIUS_GENOBJ-NBEHI-BHB_13
1002
{
1000
OWNER
1000
GENBEHI
1002
}
1001
GENIUS_GENOENT_13
1002
{
1000
MYREF
1005
13BB
1002
}
1002
{
1000
GRP
1005
0
1002
}
1001
GENIUS_GENOLIS_13
1002
{
1000
ENT
1005
1214
1005
122E
1005
13D1
1002
}
  0
POINT
  5
13BC
  8
0
 10
-233.0301672258114
 20
-96.03016722581296
 30
0.0
1001
GENIUS_GENBH_13
1002
{
1000
BGO
1005
13B8
1002
}
1002
{
1000
FGLEVEL
1040
1.00000003
1002
}
1002
{
1000
FLAGS
1070
    36
1002
}
1002
{
1000
OIUMAP
1000
OIU
1002
}
1002
{
1000
MODIFY
1070
     0
1002
}
1001
GENIUS_GENODEF_13
1002
{
1000
HIER
1070
     1
1002
}
1002
{
1000
MANEDIT
1070
     0
1002
}
1002
{
1000
NOSEL
1070
     1
1002
}
1002
{
1000
BEHIND
1070
     1
1002
}
1002
{
1000
REACTOR
1002
}
1001
GENIUS_GENOBJ-NBEHI-BHF_13
1002
{
1000
OWNER
1000
GENBEHI
1002
}
1001
GENIUS_GENOENT_13
1002
{
1000
MYREF
1005
13BC
1002
}
1002
{
1000
GRP
1005
0
1002
}
1001
GENIUS_GENOLIS_13
1002
{
1000
ENT
1005
1214
1002
}
  0
POINT
  5
13BD
  8
0
 10
-233.0301672258114
 20
-96.03016722581296
 30
0.0
1001
GENIUS_GENBH_13
1002
{
1000
FGO
1005
13C1
1002
}
1001
GENIUS_GENODEF_13
1002
{
1000
HIER
1070
     1
1002
}
1002
{
1000
MANEDIT
1070
     0
1002
}
1002
{
1000
NOSEL
1070
     1
1002
}
1002
{
1000
BEHIND
1070
     1
1002
}
1002
{
1000
REACTOR
1002
}
1001
GENIUS_GENOBJ-NBEHI-BHB_13
1002
{
1000
OWNER
1000
GENBEHI
1002
}
1001
GENIUS_GENOENT_13
1002
{
1000
MYREF
1005
13BD
1002
}
1002
{
1000
GRP
1005
0
1002
}
1001
GENIUS_GENOLIS_13
1002
{
1000
ENT
1005
120B
1005
13D3
1002
}
  0
POINT
  5
13BE
  8
0
 10
-233.0301672258114
 20
-96.03016722581296
 30
0.0
1001
GENIUS_GENBH_13
1002
{
1000
BGO
1005
0
1002
}
1002
{
1000
FGLEVEL
1040
1.0000000200000001
1002
}
1002
{
1000
FLAGS
1070
    36
1002
}
1002
{
1000
OIUMAP
1000
OIU
1002
}
1002
{
1000
MODIFY
1070
     0
1002
}
1001
GENIUS_GENODEF_13
1002
{
1000
HIER
1070
     1
1002
}
1002
{
1000
MANEDIT
1070
     0
1002
}
1002
{
1000
NOSEL
1070
     1
1002
}
1002
{
1000
BEHIND
1070
     1
1002
}
1002
{
1000
REACTOR
1002
}
1001
GENIUS_GENOBJ-NBEHI-BHF_13
1002
{
1000
OWNER
1000
GENBEHI
1002
}
1001
GENIUS_GENOENT_13
1002
{
1000
MYREF
1005
13BE
1002
}
1002
{
1000
GRP
1005
0
1002
}
1001
GENIUS_GENOLIS_13
1002
{
1000
ENT
1005
120B
1002
}
  0
POINT
  5
13BF
  8
0
 10
-233.0301672258114
 20
-96.03016722581296
 30
0.0
1001
GENIUS_GENODEF_13
1002
{
1000
HIER
1070
   200
1002
}
1002
{
1000
MANEDIT
1070
     0
1002
}
1002
{
1000
NOSEL
1070
     0
1002
}
1002
{
1000
BEHIND
1070
     0
1002
}
1002
{
1000
REACTOR
1002
}
1001
GENIUS_GEFSTDP_13
1002
{
1000
DSC
1002
{
1002
{
1002
}
1002
}
1002
}
1002
{
1000
SCP
1002
{
1000
TYPE
1000
SCP
1002
}
1002
{
1000
GMODE
1070
     1
1002
}
1002
{
1000
DMODE
1070
     0
1002
}
1002
{
1000
SSIZE
1002
{
1002
{
1000
NND
1000
TPU
1000
PTC
1000
CON
1000
EGR
1000
PRE
1002
}
1002
{
1040
6.0
1040
1.0
1040
1.0
1000
x
1000
1
1000
M
1002
}
1002
}
1002
}
1002
{
1000
ASIZE
1002
{
1002
{
1000
NND
1000
TPU
1000
EGR
1000
PRE
1000
PTC
1002
}
1002
{
1040
6.0
1040
1.0
1000
1
1000
M
1040
1.0
1002
}
1002
}
1002
}
1002
{
1000
VIEW
1070
     2
1002
}
1002
{
1000
1
1002
{
1002
{
1000
SFILE
1000
$PV_GENSYSTEM"gef\val\di\0101\di2401_v.dxf"
1002
}
1002
{
1000
ST1
1000
$PV_GENSYSTEM"gef\val\di\0101\di2401.val"
1002
}
1002
{
1000
ASSO
1000
DIN_912
1002
}
1002
{
1000
VIEW
1000
V
1002
}
1002
{
1000
SSTATUS
1000
~T
1002
}
1002
{
1000
GROUP
1000
0101
1002
}
1002
}
1002
}
1002
{
1000
4
1002
{
1002
{
1000
SFILE
1000
$PV_GENSYSTEM"gef\val\di\0301\di1602_v.dxf"
1002
}
1002
{
1000
ST1
1000
$PV_GENSYSTEM"gef\val\di\0301\di1602.val"
1002
}
1002
{
1000
ASSO
1000
 
1002
}
1002
{
1000
VIEW
1000
V
1002
}
1002
{
1000
SSTATUS
1000
~T
1002
}
1002
{
1000
GROUP
1000
0301
1002
}
1002
}
1002
}
1002
}
1002
{
1000
DSC1
1000
DSC1
1002
{
1000
~DESCR1
1000
 
1000
~BORE1
1000
 x 
1000
~GL1
1002
}
1002
}
1002
{
1000
DSC2
1000
DSC2
1002
{
1000
~DESCR2
1000
 
1000
~BORE2
1000
 x 
1000
~GL2
1002
}
1002
}
1002
{
1000
KEY
1000
SCP
1002
}
1002
{
1000
INS
1002
{
1040
18.00000000000141
1040
-16.25
1040
0.0
1002
}
1002
}
1002
{
1000
ANG
1040
0.0
1002
}
1002
{
1000
VCC
1002
{
1000
$NND=6.000000000000000E+00
1000
$TPU=1.000000000000000E+00
1000
$EGR=1
1000
$PRE=M
1000
$PTC=1.000000000000000E+00
1000
$SELMODE=1
1000
-V$PV_GENSYSTEM"gef\val\sys\dudus_s.dxf
1000
-LPHIDE=1
1000
$GEVBHOP=2
1000
-LPSPOCK1=C:\GENIUS\GEF\VAL\SYS\SPOCK2_S.DXF
1000
$HIDE=0
1000
-LPPART1=1
1000
-LPTABLE1=$PV_GENSYSTEM"gef\val\di\0101\di2401.val"
1000
-LPDXF1=$PV_GENSYSTEM"gef\val\di\0101\di2401_v.dxf"
1000
-LPSCRID=2
1000
-LPPART2=0
1000
-LPTABLE2=$PV_GENSYSTEM"gef\val\sys\mrbean.val
1000
-LPPART3=0
1000
-LPTABLE3=$PV_GENSYSTEM"gef\val\sys\mrbean.val
1000
-LPPART4=1
1000
-LPTABLE4=$PV_GENSYSTEM"gef\val\di\0301\di1602.val"
1000
-LPDXF4=$PV_GENSYSTEM"gef\val\di\0301\di1602_v.dxf"
1000
-LPPART5=0
1000
-LPPART6=0
1000
-LPPART7=0
1000
-LPPART8=0
1000
-LPPART9=0
1000
-LPPART10=0
1000
$GEF_FLIPX=2
1000
$GEF_FLIPY=2
1000
$GL1=0
1000
$GL2=0
1000
-GRPNAME1MSL_F12_32-0
1000
-LPGL1=7.999999999998590E+00
1000
-LPGL2=0
1000
-GRPNAME2ZYL_32_ISO6431-0
1000
-RBSTDRD
1000
-RBDESCR1
1000
-RBDESCR2
1000
-RBBORE1
1000
-RBBORE2
1000
-RBGL1
1000
-RBGL2
1000
-RBBORED
1000
-RBHEADD
1000
-RBCDEP
1000
-RBCANG
1000
$GEF_CDIST=3.000000000000000E+00
1000
$GEF_DRAG=1
1000
$GEF_STANG=2.100000000000000E+02
1000
$GEF_OANG=7.000000000000000E+01
1000
$GEVPROMPTX= Länge: 
1000
$GEF_SNK_ADD=0.000000000000000E+00
1000
-GRPNAME0?
1000
-BAML2
1000
$GEF_PROCALC=1
1002
}
1002
}
1002
{
1000
LST
1002
{
1002
{
1002
}
1002
}
1002
}
1002
{
1000
RET
1002
{
1002
{
1000
CANG
1002
}
1002
{
1000
CDEP
1002
}
1002
{
1000
HEADD
1002
}
1002
{
1000
BORED
1002
}
1002
{
1000
GL2
1000
0
1002
}
1002
{
1000
GL1
1000
7.99999999999859
1002
}
1002
{
1000
BORE2
1002
}
1002
{
1000
BORE1
1000
DIN EN 20273 - M6 - H13
1002
}
1002
{
1000
DESCR2
1002
}
1002
{
1000
DESCR1
1000
Durchgangsloch
1002
}
1002
{
1000
STDRD
1002
}
1002
}
1002
}
1002
{
1000
SYSTEM
1040
1.0
1002
}
1002
{
1000
INFEL
1002
{
1005
0
1002
}
1002
}
1001
GENIUS_GENOBJ-F-PART_13
1002
{
1000
OWNER
1000
GEF
1002
}
1001
GENIUS_GENOENT_13
1002
{
1000
MYREF
1005
13BF
1002
}
1002
{
1000
GRP
1005
0
1002
}
1001
GENIUS_GENOLIS_13
1002
{
1000
ENT
1005
1200
1005
13D3
1005
13D2
1005
11F3
1005
120B
1002
}
  0
POINT
  5
13C0
  8
0
 10
-233.0301672258114
 20
-96.03016722581296
 30
0.0
1001
GENIUS_GENBH_13
1002
{
1000
FGO
1005
0
1002
}
1001
GENIUS_GENODEF_13
1002
{
1000
HIER
1070
     1
1002
}
1002
{
1000
MANEDIT
1070
     0
1002
}
1002
{
1000
NOSEL
1070
     1
1002
}
1002
{
1000
BEHIND
1070
     0
1002
}
1002
{
1000
REACTOR
1002
}
1001
GENIUS_GENOBJ-NBEHI-BHB_13
1002
{
1000
OWNER
1000
GENBEHI
1002
}
1001
GENIUS_GENOENT_13
1002
{
1000
MYREF
1005
13C0
1002
}
1002
{
1000
GRP
1005
0
1002
}
1001
GENIUS_GENOLIS_13
1002
{
1000
ENT
1005
11F3
1005
120B
1005
13D3
1002
}
  0
POINT
  5
13C1
  8
0
 10
-233.0301672258114
 20
-96.03016722581296
 30
0.0
1001
GENIUS_GENBH_13
1002
{
1000
BGO
1005
13BD
1002
}
1002
{
1000
FGLEVEL
1040
1.00000003
1002
}
1002
{
1000
FLAGS
1070
    36
1002
}
1002
{
1000
OIUMAP
1000
OIU
1002
}
1002
{
1000
MODIFY
1070
     0
1002
}
1001
GENIUS_GENODEF_13
1002
{
1000
HIER
1070
     1
1002
}
1002
{
1000
MANEDIT
1070
     0
1002
}
1002
{
1000
NOSEL
1070
     1
1002
}
1002
{
1000
BEHIND
1070
     1
1002
}
1002
{
1000
REACTOR
1002
}
1001
GENIUS_GENOBJ-NBEHI-BHF_13
1002
{
1000
OWNER
1000
GENBEHI
1002
}
1001
GENIUS_GENOENT_13
1002
{
1000
MYREF
1005
13C1
1002
}
1002
{
1000
GRP
1005
0
1002
}
1001
GENIUS_GENOLIS_13
1002
{
1000
ENT
1005
11F3
1002
}
  0
POINT
  5
13C2
  8
0
 10
-233.0301672258114
 20
-96.03016722581296
 30
0.0
1001
GENIUS_GENBH_13
1002
{
1000
BGO
1005
13C3
1002
}
1002
{
1000
FLAGS
1070
   164
1002
}
1002
{
1000
MODIFY
1002
{
1000
I
1000
H
1002
}
1002
}
1001
GENIUS_GENODEF_13
1002
{
1000
HIER
1070
     1
1002
}
1002
{
1000
MANEDIT
1070
     1
1002
}
1002
{
1000
NOSEL
1070
     1
1002
}
1002
{
1000
BEHIND
1070
     0
1002
}
1002
{
1000
REACTOR
1002
}
1001
GENIUS_GENOBJ-NBEHI-BHF_13
1002
{
1000
OWNER
1000
GENBEHI
1002
}
1001
GENIUS_GENOENT_13
1002
{
1000
MYREF
1005
13C2
1002
}
1002
{
1000
GRP
1005
0
1002
}
1001
GENIUS_GENOLIS_13
1002
{
1000
ENT
1005
11CA
1005
11C9
1005
11B3
1005
11B7
1005
11BC
1005
11B8
1005
11B4
1002
}
  0
POINT
  5
13C3
  8
0
 10
-233.0301672258114
 20
-96.03016722581296
 30
0.0
1001
GENIUS_GENBH_13
1002
{
1000
FGO
1005
13C2
1002
}
1001
GENIUS_GENODEF_13
1002
{
1000
HIER
1070
     1
1002
}
1002
{
1000
MANEDIT
1070
     0
1002
}
1002
{
1000
NOSEL
1070
     1
1002
}
1002
{
1000
BEHIND
1070
     0
1002
}
1002
{
1000
REACTOR
1002
}
1001
GENIUS_GENOBJ-NBEHI-BHB_13
1002
{
1000
OWNER
1000
GENBEHI
1002
}
1001
GENIUS_GENOENT_13
1002
{
1000
MYREF
1005
13C3
1002
}
1002
{
1000
GRP
1005
0
1002
}
1001
GENIUS_GENOLIS_13
1002
{
1000
ENT
1005
11BA
1005
11BB
1005
11AE
1005
11C5
1005
11AC
1005
11CC
1005
11C6
1005
11CB
1005
11AD
1005
11BE
1005
11C7
1005
11AB
1002
}
  0
POINT
  5
13C4
  8
0
 10
-233.0301672258114
 20
-96.03016722581296
 30
0.0
1001
GENIUS_GENBH_13
1002
{
1000
BGO
1005
13C5
1002
}
1002
{
1000
FLAGS
1070
   164
1002
}
1002
{
1000
MODIFY
1002
{
1000
I
1000
H
1002
}
1002
}
1001
GENIUS_GENODEF_13
1002
{
1000
HIER
1070
     1
1002
}
1002
{
1000
MANEDIT
1070
     0
1002
}
1002
{
1000
NOSEL
1070
     1
1002
}
1002
{
1000
BEHIND
1070
     0
1002
}
1002
{
1000
REACTOR
1002
}
1001
GENIUS_GENOBJ-NBEHI-BHF_13
1002
{
1000
OWNER
1000
GENBEHI
1002
}
1001
GENIUS_GENOENT_13
1002
{
1000
MYREF
1005
13C4
1002
}
1002
{
1000
GRP
1005
0
1002
}
1001
GENIUS_GENOLIS_13
1002
{
1000
ENT
1005
118E
1005
1196
1005
118F
1005
118D
1005
1173
1005
1176
1005
117F
1005
117D
1005
1182
1005
1177
1005
1172
1002
}
  0
POINT
  5
13C5
  8
0
 10
-233.0301672258114
 20
-96.03016722581296
 30
0.0
1001
GENIUS_GENBH_13
1002
{
1000
FGO
1005
13C4
1002
}
1001
GENIUS_GENODEF_13
1002
{
1000
HIER
1070
     1
1002
}
1002
{
1000
MANEDIT
1070
     0
1002
}
1002
{
1000
NOSEL
1070
     1
1002
}
1002
{
1000
BEHIND
1070
     0
1002
}
1002
{
1000
REACTOR
1002
}
1001
GENIUS_GENOBJ-NBEHI-BHB_13
1002
{
1000
OWNER
1000
GENBEHI
1002
}
1001
GENIUS_GENOENT_13
1002
{
1000
MYREF
1005
13C5
1002
}
1002
{
1000
GRP
1005
0
1002
}
1001
GENIUS_GENOLIS_13
1002
{
1000
ENT
1005
117A
1005
1183
1005
116B
1005
1187
1005
116D
1005
1194
1005
118A
1005
1195
1005
116C
1005
1184
1005
118B
1005
116E
1002
}
  0
POINT
  5
13C6
  8
0
 10
-233.0301672258114
 20
-96.03016722581296
 30
0.0
1001
GENIUS_GENBH_13
1002
{
1000
FGO
1005
0
1002
}
1001
GENIUS_GENODEF_13
1002
{
1000
HIER
1070
     1
1002
}
1002
{
1000
MANEDIT
1070
     0
1002
}
1002
{
1000
NOSEL
1070
     1
1002
}
1002
{
1000
BEHIND
1070
     0
1002
}
1002
{
1000
REACTOR
1002
}
1001
GENIUS_GENOBJ-NBEHI-BHB_13
1002
{
1000
OWNER
1000
GENBEHI
1002
}
1001
GENIUS_GENOENT_13
1002
{
1000
MYREF
1005
13C6
1002
}
1002
{
1000
GRP
1005
0
1002
}
1001
GENIUS_GENOLIS_13
1002
{
1000
ENT
1005
1160
1005
11A1
1005
11FF
1005
119A
1005
1218
1005
11FD
1005
11FB
1005
1162
1002
}
  0
POINT
  5
13C7
  8
0
 10
-233.0301672258114
 20
-96.03016722581296
 30
0.0
1001
GENIUS_GENBH_13
1002
{
1000
FGO
1005
0
1002
}
1001
GENIUS_GENODEF_13
1002
{
1000
HIER
1070
     1
1002
}
1002
{
1000
MANEDIT
1070
     0
1002
}
1002
{
1000
NOSEL
1070
     1
1002
}
1002
{
1000
BEHIND
1070
     0
1002
}
1002
{
1000
REACTOR
1002
}
1001
GENIUS_GENOBJ-NBEHI-BHB_13
1002
{
1000
OWNER
1000
GENBEHI
1002
}
1001
GENIUS_GENOENT_13
1002
{
1000
MYREF
1005
13C7
1002
}
1002
{
1000
GRP
1005
0
1002
}
1001
GENIUS_GENOLIS_13
1002
{
1000
ENT
1005
1159
1005
11D6
1005
1273
1005
11D3
1005
1280
1005
126C
1005
126D
1005
1158
1002
}
  0
POINT
  5
13C8
  8
0
 10
-233.0301672258114
 20
-96.03016722581296
 30
0.0
1001
GENIUS_GENODEF_13
1002
{
1000
HIER
1070
   200
1002
}
1002
{
1000
MANEDIT
1070
     0
1002
}
1002
{
1000
NOSEL
1070
     0
1002
}
1002
{
1000
BEHIND
1070
     0
1002
}
1002
{
1000
REACTOR
1002
}
1001
GENIUS_GENOBJ-F-PART_13
1002
{
1000
OWNER
1000
GEF
1002
}
1001
GENIUS_GEFSTDP_13
1002
{
1000
DSC
1000
DSC
1002
{
1000
~DESCR
1000
 
1000
~STDRT
1000
(gefmsg "gefcall" 409)
1000
~LOTI
1002
}
1002
}
1002
{
1000
SUG
1000
M
1040
6.0
1002
}
1002
{
1000
KEY
1000
THRF
1002
}
1002
{
1000
INS
1002
{
1040
-22.0
1040
16.25000000000475
1040
0.0
1002
}
1002
}
1002
{
1000
ANG
1040
0.0000000000000363
1002
}
1002
{
1000
VCC
1002
{
1000
-LPLOTI=1.300000000000023E+01
1000
$PRE=M
1000
$NND=6.000000000000000E+00
1000
-GRPNAME0MSL_F12_32-0
1000
-RBDESCR
1000
-RBSTDRT
1000
-RBLOTI
1000
-RBGD1
1000
-V$PV_GENSYSTEM"gef\val\di\0401\di1616_v.dxf"
1000
$VCC_TABLE=$PV_GENSYSTEM"gef\val\di\0401\di1616.val"
1000
$GEF_CDIST=3.000000000000000E+00
1000
$GEF_DRAG=1
1000
$GEF_STANG=2.100000000000000E+02
1000
$GEF_OANG=7.000000000000000E+01
1000
$GEVPROMPTX= Länge: 
1000
$GEF_SNK_ADD=0.000000000000000E+00
1000
$GEF_FLIPX=1
1000
$GEF_FLIPY=1
1000
-GRPNAME1?
1000
-BAML2
1000
$GEF_PROCALC=1
1000
$GEVBHOP=2
1002
}
1002
}
1002
{
1000
LST
1002
{
1002
{
1000
GROUP
1000
0401
1002
}
1002
{
1000
VIEW
1000
V
1002
}
1002
{
1000
SFILE
1000
$PV_GENSYSTEM"gef\val\di\0401\di1616_v.dxf"
1002
}
1002
{
1000
ST1
1000
$PV_GENSYSTEM"gef\val\di\0401\di1616.val"
1002
}
1002
{
1000
GENASSO
1000
 
1002
}
1002
}
1002
}
1002
{
1000
RET
1002
{
1002
{
1000
GD1
1000
4.917
1002
}
1002
{
1000
LOTI
1000
1.300000000000023E+01
1002
}
1002
{
1000
STDRT
1000
DIN 13 - M6
1002
}
1002
{
1000
DESCR
1000
Metrisches ISO-Gewinde
1002
}
1002
}
1002
}
1002
{
1000
SYSTEM
1040
1.0
1002
}
1002
{
1000
INFEL
1002
{
1002
}
1002
}
1001
GENIUS_GENOENT_13
1002
{
1000
MYREF
1005
13C8
1002
}
1002
{
1000
GRP
1005
0
1002
}
1001
GENIUS_GENOLIS_13
1002
{
1000
ENT
1005
1154
1002
}
  0
POINT
  5
13C9
  8
0
 10
-233.0301672258114
 20
-96.03016722581296
 30
0.0
1001
GENIUS_GENODEF_13
1002
{
1000
HIER
1070
   200
1002
}
1002
{
1000
MANEDIT
1070
     0
1002
}
1002
{
1000
NOSEL
1070
     0
1002
}
1002
{
1000
BEHIND
1070
     0
1002
}
1002
{
1000
REACTOR
1002
}
1001
GENIUS_GENOBJ-F-PART_13
1002
{
1000
OWNER
1000
GEF
1002
}
1001
GENIUS_GEFSTDP_13
1002
{
1000
SUG
1000
M
1040
6.0
1002
}
1002
{
1000
DSC
1000
DSC
1002
{
1000
~DESCR
1000
 
1000
~STDRT
1000
(gefmsg "gefcall" 409)
1000
~LOTI
1002
}
1002
}
1002
{
1000
KEY
1000
THRF
1002
}
1002
{
1000
INS
1002
{
1040
-21.999999999998579
1040
-16.25
1040
0.0
1002
}
1002
}
1002
{
1000
ANG
1040
0.0000000000000366
1002
}
1002
{
1000
VCC
1002
{
1000
-LPLOTI=1.300000000000000E+01
1000
$PRE=M
1000
$NND=6.000000000000000E+00
1000
-GRPNAME0MSL_F12_32-0
1000
-RBDESCR
1000
-RBSTDRT
1000
-RBLOTI
1000
-RBGD1
1000
-V$PV_GENSYSTEM"gef\val\di\0401\di1616_v.dxf"
1000
$VCC_TABLE=$PV_GENSYSTEM"gef\val\di\0401\di1616.val"
1000
$GEF_CDIST=3.000000000000000E+00
1000
$GEF_DRAG=1
1000
$GEF_STANG=2.100000000000000E+02
1000
$GEF_OANG=7.000000000000000E+01
1000
$GEVPROMPTX= Länge: 
1000
$GEF_SNK_ADD=0.000000000000000E+00
1000
$GEF_FLIPX=1
1000
$GEF_FLIPY=1
1000
-GRPNAME1?
1000
-BAML2
1000
$GEF_PROCALC=1
1000
$GEVBHOP=2
1002
}
1002
}
1002
{
1000
LST
1002
{
1002
{
1000
GROUP
1000
0401
1002
}
1002
{
1000
VIEW
1000
V
1002
}
1002
{
1000
SFILE
1000
$PV_GENSYSTEM"gef\val\di\0401\di1616_v.dxf"
1002
}
1002
{
1000
ST1
1000
$PV_GENSYSTEM"gef\val\di\0401\di1616.val"
1002
}
1002
{
1000
GENASSO
1000
 
1002
}
1002
}
1002
}
1002
{
1000
RET
1002
{
1002
{
1000
GD1
1000
4.917
1002
}
1002
{
1000
LOTI
1000
1.300000000000000E+01
1002
}
1002
{
1000
STDRT
1000
DIN 13 - M6
1002
}
1002
{
1000
DESCR
1000
Metrisches ISO-Gewinde
1002
}
1002
}
1002
}
1002
{
1000
SYSTEM
1040
1.0
1002
}
1002
{
1000
INFEL
1002
{
1002
}
1002
}
1001
GENIUS_GENOENT_13
1002
{
1000
MYREF
1005
13C9
1002
}
1002
{
1000
GRP
1005
0
1002
}
1001
GENIUS_GENOLIS_13
1002
{
1000
ENT
1005
1153
1002
}
  0
POINT
  5
13CA
  8
0
 10
-233.0301672258114
 20
-96.03016722581296
 30
0.0
1001
GENIUS_GENODEF_13
1002
{
1000
HIER
1070
   200
1002
}
1002
{
1000
MANEDIT
1070
     0
1002
}
1002
{
1000
NOSEL
1070
     0
1002
}
1002
{
1000
BEHIND
1070
     0
1002
}
1002
{
1000
REACTOR
1002
}
1001
GENIUS_GENOBJ-F-PART_13
1002
{
1000
OWNER
1000
GEF
1002
}
1001
GENIUS_GEFSTDP_13
1002
{
1000
DSC
1000
DSC
1002
{
1000
~DESCR
1000
 
1000
~STDRT
1000
(gefmsg "gefcall" 409)
1000
~LOTI
1002
}
1002
}
1002
{
1000
SUG
1000
M
1040
6.0
1002
}
1002
{
1000
KEY
1000
THRF
1002
}
1002
{
1000
INS
1002
{
1040
-22.0
1040
16.25000000000475
1040
0.0
1002
}
1002
}
1002
{
1000
ANG
1040
0.0000000000000363
1002
}
1002
{
1000
VCC
1002
{
1000
-LPLOTI=1.300000000000023E+01
1000
$PRE=M
1000
$NND=6.000000000000000E+00
1000
-GRPNAME0MSL_F12_32-0
1000
-RBDESCR
1000
-RBSTDRT
1000
-RBLOTI
1000
-RBGD1
1000
-V$PV_GENSYSTEM"gef\val\di\0401\di1616_v.dxf"
1000
$VCC_TABLE=$PV_GENSYSTEM"gef\val\di\0401\di1616.val"
1000
$GEF_CDIST=3.000000000000000E+00
1000
$GEF_DRAG=1
1000
$GEF_STANG=2.100000000000000E+02
1000
$GEF_OANG=7.000000000000000E+01
1000
$GEVPROMPTX= Länge: 
1000
$GEF_SNK_ADD=0.000000000000000E+00
1000
$GEF_FLIPX=1
1000
$GEF_FLIPY=1
1000
-GRPNAME1?
1000
-BAML2
1000
$GEF_PROCALC=1
1000
$GEVBHOP=2
1002
}
1002
}
1002
{
1000
LST
1002
{
1002
{
1000
GROUP
1000
0401
1002
}
1002
{
1000
VIEW
1000
V
1002
}
1002
{
1000
SFILE
1000
$PV_GENSYSTEM"gef\val\di\0401\di1616_v.dxf"
1002
}
1002
{
1000
ST1
1000
$PV_GENSYSTEM"gef\val\di\0401\di1616.val"
1002
}
1002
{
1000
GENASSO
1000
 
1002
}
1002
}
1002
}
1002
{
1000
RET
1002
{
1002
{
1000
GD1
1000
4.917
1002
}
1002
{
1000
LOTI
1000
1.300000000000023E+01
1002
}
1002
{
1000
STDRT
1000
DIN 13 - M6
1002
}
1002
{
1000
DESCR
1000
Metrisches ISO-Gewinde
1002
}
1002
}
1002
}
1002
{
1000
SYSTEM
1040
1.0
1002
}
1002
{
1000
INFEL
1002
{
1002
}
1002
}
1001
GENIUS_GENOENT_13
1002
{
1000
MYREF
1005
13CA
1002
}
1002
{
1000
GRP
1005
0
1002
}
1001
GENIUS_GENOLIS_13
1002
{
1000
ENT
1005
1152
1002
}
  0
POINT
  5
13CB
  8
0
 10
-233.0301672258114
 20
-96.03016722581296
 30
0.0
1001
GENIUS_GENODEF_13
1002
{
1000
HIER
1070
   200
1002
}
1002
{
1000
MANEDIT
1070
     0
1002
}
1002
{
1000
NOSEL
1070
     0
1002
}
1002
{
1000
BEHIND
1070
     0
1002
}
1002
{
1000
REACTOR
1002
}
1001
GENIUS_GENOBJ-F-PART_13
1002
{
1000
OWNER
1000
GEF
1002
}
1001
GENIUS_GEFSTDP_13
1002
{
1000
SUG
1000
M
1040
6.0
1002
}
1002
{
1000
DSC
1000
DSC
1002
{
1000
~DESCR
1000
 
1000
~STDRT
1000
(gefmsg "gefcall" 409)
1000
~LOTI
1002
}
1002
}
1002
{
1000
KEY
1000
THRF
1002
}
1002
{
1000
INS
1002
{
1040
-21.999999999998579
1040
-16.25
1040
0.0
1002
}
1002
}
1002
{
1000
ANG
1040
0.0000000000000366
1002
}
1002
{
1000
VCC
1002
{
1000
-LPLOTI=1.300000000000000E+01
1000
$PRE=M
1000
$NND=6.000000000000000E+00
1000
-GRPNAME0MSL_F12_32-0
1000
-RBDESCR
1000
-RBSTDRT
1000
-RBLOTI
1000
-RBGD1
1000
-V$PV_GENSYSTEM"gef\val\di\0401\di1616_v.dxf"
1000
$VCC_TABLE=$PV_GENSYSTEM"gef\val\di\0401\di1616.val"
1000
$GEF_CDIST=3.000000000000000E+00
1000
$GEF_DRAG=1
1000
$GEF_STANG=2.100000000000000E+02
1000
$GEF_OANG=7.000000000000000E+01
1000
$GEVPROMPTX= Länge: 
1000
$GEF_SNK_ADD=0.000000000000000E+00
1000
$GEF_FLIPX=1
1000
$GEF_FLIPY=1
1000
-GRPNAME1?
1000
-BAML2
1000
$GEF_PROCALC=1
1000
$GEVBHOP=2
1002
}
1002
}
1002
{
1000
LST
1002
{
1002
{
1000
GROUP
1000
0401
1002
}
1002
{
1000
VIEW
1000
V
1002
}
1002
{
1000
SFILE
1000
$PV_GENSYSTEM"gef\val\di\0401\di1616_v.dxf"
1002
}
1002
{
1000
ST1
1000
$PV_GENSYSTEM"gef\val\di\0401\di1616.val"
1002
}
1002
{
1000
GENASSO
1000
 
1002
}
1002
}
1002
}
1002
{
1000
RET
1002
{
1002
{
1000
GD1
1000
4.917
1002
}
1002
{
1000
LOTI
1000
1.300000000000000E+01
1002
}
1002
{
1000
STDRT
1000
DIN 13 - M6
1002
}
1002
{
1000
DESCR
1000
Metrisches ISO-Gewinde
1002
}
1002
}
1002
}
1002
{
1000
SYSTEM
1040
1.0
1002
}
1002
{
1000
INFEL
1002
{
1002
}
1002
}
1001
GENIUS_GENOENT_13
1002
{
1000
MYREF
1005
13CB
1002
}
1002
{
1000
GRP
1005
0
1002
}
1001
GENIUS_GENOLIS_13
1002
{
1000
ENT
1005
1151
1002
}
  0
INSERT
  5
13CC
  8
MSL_F12_32-0
  2
*U30
 10
-215.03016722581
 20
-16.249998847757439
 30
0.0
1001
GENIUS_GEFPARTINS_13
1002
{
1011
-215.03016722581
1021
0.0
1031
0.0
1021
-16.249998847757439
1031
0.0
1013
1.0
1023
0.0
1033
0.0
1023
0.0
1033
0.0
1002
}
1001
GEVPT
1002
{
1000
-V$PV_GENSYSTEM"GEF\VAL\SYS\SPOCK2_S.DXF"
1000
-FIXPL=7.99999999999859
1000
-FIXPH=3.3
1000
-GPGEF_PROCALC=1
1000
-GPGEF_SNK_ADD=0
1000
-GPGEVPROMPTX=Länge:
1000
-GPGEF_OANG=70
1000
-GPGEF_STANG=210
1000
-GPGEF_DRAG=1
1000
-GPGEF_CDIST=3
1000
-GPGL2=0
1000
-GPGL1=0
1000
-GPGEF_FLIPY=2
1000
-GPGEF_FLIPX=2
1000
-GPHIDE=0
1000
-GPGEVBHOP=2
1000
-GPSELMODE=1
1000
-GPPTC=1
1000
-GPPRE=M
1000
-GPEGR=1
1000
-GPTPU=1
1000
-GPNND=6
1002
}
1001
GENIUS_GENOREF_13
1005
0
1005
13AE
1001
VCC
1002
{
1002
}
1001
GEVIT
1002
{
1000
-BEHI1.00000004
1000
-BVCCT0
1000
-GRP0MSL_F12_32-0
1000
-BAML2
1000
-BASK1
1000
-NT0
1000
-DOC
1005
14E5
1000
-MYREF
1005
13CC
1002
}
1001
GEVMK
1002
{
1000
-CO
1000
-MYREF
1005
13CC
1002
}
1001
GEVID884352787
1002
{
1000
-ID54
1002
}
  0
INSERT
  5
13CD
  8
MSL_F12_32-0N
  2
*U28
 10
-215.03016722581
 20
-16.249998847757439
 30
0.0
1001
GENIUS_GEFPARTINS_13
1002
{
1011
-215.03016722581
1021
0.0
1031
0.0
1021
-16.249998847757439
1031
0.0
1013
1.0
1023
0.0
1033
0.0
1023
0.0
1033
0.0
1002
}
1001
GEVPT
1002
{
1000
-V$PV_GENSYSTEM"GEF\VAL\SYS\DUDUS_S.DXF"
1000
-FIXPGL2=0
1000
-FIXPPART10=0
1000
-FIXPPART9=0
1000
-FIXPPART8=0
1000
-FIXPPART7=0
1000
-FIXPPART6=0
1000
-FIXPPART5=0
1000
-FIXPDXF4=C:\GENIUS\gef\val\di\0301\di1602_v.dxf
1000
-FIXPTABLE4=C:\GENIUS\gef\val\di\0301\di1602.val
1000
-FIXPPART4=1
1000
-FIXPTABLE3=C:\GENIUS\gef\val\sys\mrbean.val
1000
-FIXPPART3=0
1000
-FIXPTABLE2=C:\GENIUS\gef\val\sys\mrbean.val
1000
-FIXPPART2=0
1000
-FIXPSCRID=2
1000
-FIXPDXF1=C:\GENIUS\gef\val\di\0101\di2401_v.dxf
1000
-FIXPTABLE1=C:\GENIUS\gef\val\di\0101\di2401.val
1000
-FIXPPART1=1
1000
-FIXPSPOCK1=C:\GENIUS\GEF\VAL\SYS\SPOCK2_S.DXF
1000
-FIXPHIDE=1
1000
-FIXPGL1=7.99999999999859
1000
-GPGEF_PROCALC=1
1000
-GPGEF_SNK_ADD=0
1000
-GPGEVPROMPTX=Länge:
1000
-GPGEF_OANG=70
1000
-GPGEF_STANG=210
1000
-GPGEF_DRAG=1
1000
-GPGEF_CDIST=3
1000
-GPGL2=0
1000
-GPGL1=0
1000
-GPGEF_FLIPY=2
1000
-GPGEF_FLIPX=2
1000
-GPHIDE=0
1000
-GPGEVBHOP=2
1000
-GPSELMODE=1
1000
-GPPTC=1
1000
-GPPRE=M
1000
-GPEGR=1
1000
-GPTPU=1
1000
-GPNND=6
1002
}
1001
GENIUS_GENOREF_13
1005
0
1005
13AC
1005
13AF
1005
13AE
1001
VCC
1002
{
1000
-ID19
1000
-IE1
1000
-IK19
1000
-V$PV_GENSYSTEM"GEF\VAL\SYS\DUDUS_S.DXF"
1002
}
1001
GEVIT
1002
{
1000
-BEHI1.00000001
1000
-BVCCT0
1000
-GRP0?
1000
-BAML2
1000
-BASK1
1000
-DOC
1005
14DB
1000
-MYREF
1005
13CD
1002
}
1001
GEVMK
1002
{
1000
-CO
1000
-MYREF
1005
13CD
1002
}
1001
GEVID884352787
1002
{
1002
}
  0
INSERT
  5
13CE
  8
MSL_F12_32-0
  2
*U38
 10
-215.03016722581111
 20
16.250001152245709
 30
0.0
 41
-1.0
 50
180.00000000000361
1001
GENIUS_GEFPARTINS_13
1002
{
1011
-215.03016722581111
1021
0.0
1031
0.0
1021
16.250001152245709
1031
0.0
1013
1.0
1023
0.0
1033
0.0
1023
0.0000000000000639
1033
0.0
1002
}
1001
GEVPT
1002
{
1000
-V$PV_GENSYSTEM"GEF\VAL\SYS\SPOCK2_S.DXF"
1000
-FIXPL=7.99999999999859
1000
-FIXPH=3.3
1000
-GPGEF_PROCALC=1
1000
-GPGEF_SNK_ADD=0
1000
-GPGEVPROMPTX=Länge:
1000
-GPGEF_OANG=70
1000
-GPGEF_STANG=210
1000
-GPGEF_DRAG=1
1000
-GPGEF_CDIST=3
1000
-GPGL2=0
1000
-GPGL1=0
1000
-GPGEF_FLIPY=2
1000
-GPGEF_FLIPX=2
1000
-GPHIDE=0
1000
-GPGEVBHOP=2
1000
-GPSELMODE=1
1000
-GPPTC=1
1000
-GPPRE=M
1000
-GPEGR=1
1000
-GPTPU=1
1000
-GPNND=6
1002
}
1001
GENIUS_GENOREF_13
1005
0
1005
13B2
1001
VCC
1002
{
1002
}
1001
GEVIT
1002
{
1000
-BEHI1.00000004
1000
-BVCCT0
1000
-GRP0MSL_F12_32-0
1000
-BAML2
1000
-BASK1
1000
-NT0
1000
-DOC
1005
1554
1000
-MYREF
1005
13CE
1002
}
1001
GEVMK
1002
{
1000
-CO
1000
-MYREF
1005
13CE
1002
}
1001
GEVID884352788
1002
{
1000
-ID54
1002
}
  0
INSERT
  5
13CF
  8
MSL_F12_32-0N
  2
*U36
 10
-215.03016722581111
 20
16.250001152245709
 30
0.0
 41
-1.0
 50
180.00000000000361
1001
GENIUS_GEFPARTINS_13
1002
{
1011
-215.03016722581111
1021
0.0
1031
0.0
1021
16.250001152245709
1031
0.0
1013
1.0
1023
0.0
1033
0.0
1023
0.0000000000000639
1033
0.0
1002
}
1001
GEVPT
1002
{
1000
-V$PV_GENSYSTEM"GEF\VAL\SYS\DUDUS_S.DXF"
1000
-FIXPGL2=0
1000
-FIXPPART10=0
1000
-FIXPPART9=0
1000
-FIXPPART8=0
1000
-FIXPPART7=0
1000
-FIXPPART6=0
1000
-FIXPPART5=0
1000
-FIXPDXF4=C:\GENIUS\gef\val\di\0301\di1602_v.dxf
1000
-FIXPTABLE4=C:\GENIUS\gef\val\di\0301\di1602.val
1000
-FIXPPART4=1
1000
-FIXPTABLE3=C:\GENIUS\gef\val\sys\mrbean.val
1000
-FIXPPART3=0
1000
-FIXPTABLE2=C:\GENIUS\gef\val\sys\mrbean.val
1000
-FIXPPART2=0
1000
-FIXPSCRID=2
1000
-FIXPDXF1=C:\GENIUS\gef\val\di\0101\di2401_v.dxf
1000
-FIXPTABLE1=C:\GENIUS\gef\val\di\0101\di2401.val
1000
-FIXPPART1=1
1000
-FIXPSPOCK1=C:\GENIUS\GEF\VAL\SYS\SPOCK2_S.DXF
1000
-FIXPHIDE=1
1000
-FIXPGL1=7.99999999999859
1000
-GPGEF_PROCALC=1
1000
-GPGEF_SNK_ADD=0
1000
-GPGEVPROMPTX=Länge:
1000
-GPGEF_OANG=70
1000
-GPGEF_STANG=210
1000
-GPGEF_DRAG=1
1000
-GPGEF_CDIST=3
1000
-GPGL2=0
1000
-GPGL1=0
1000
-GPGEF_FLIPY=2
1000
-GPGEF_FLIPX=2
1000
-GPHIDE=0
1000
-GPGEVBHOP=2
1000
-GPSELMODE=1
1000
-GPPTC=1
1000
-GPPRE=M
1000
-GPEGR=1
1000
-GPTPU=1
1000
-GPNND=6
1002
}
1001
GENIUS_GENOREF_13
1005
0
1005
13B4
1005
13B3
1005
13B2
1001
VCC
1002
{
1000
-ID20
1000
-IE1
1000
-IK20
1000
-V$PV_GENSYSTEM"GEF\VAL\SYS\DUDUS_S.DXF"
1002
}
1001
GEVIT
1002
{
1000
-BEHI1.00000001
1000
-BVCCT0
1000
-GRP0?
1000
-BAML2
1000
-BASK1
1000
-DOC
1005
154A
1000
-MYREF
1005
13CF
1002
}
1001
GEVMK
1002
{
1000
-CO
1000
-MYREF
1005
13CF
1002
}
1001
GEVID884352788
1002
{
1002
}
  0
INSERT
  5
13D0
  8
MSL_F12_32-0
  2
*U18
 10
-215.030167225811
 20
-79.780167225809805
 30
0.0
 41
-1.0
 50
180.00000000000361
1001
GENIUS_GEFPARTINS_13
1002
{
1011
-215.030167225811
1021
0.0
1031
0.0
1021
-79.780167225809805
1031
0.0
1013
1.0
1023
0.0
1033
0.0
1023
0.0000000000000639
1033
0.0
1002
}
1001
GEVPT
1002
{
1000
-V$PV_GENSYSTEM"GEF\VAL\SYS\SPOCK2_S.DXF"
1000
-FIXPL=7.99999999999859
1000
-FIXPH=3.3
1000
-GPGEF_PROCALC=1
1000
-GPGEF_SNK_ADD=0
1000
-GPGEVPROMPTX=Länge:
1000
-GPGEF_OANG=70
1000
-GPGEF_STANG=210
1000
-GPGEF_DRAG=1
1000
-GPGEF_CDIST=3
1000
-GPGL2=0
1000
-GPGL1=0
1000
-GPGEF_FLIPY=2
1000
-GPGEF_FLIPX=2
1000
-GPHIDE=0
1000
-GPGEVBHOP=2
1000
-GPSELMODE=1
1000
-GPPTC=1
1000
-GPPRE=M
1000
-GPEGR=1
1000
-GPTPU=1
1000
-GPNND=6
1002
}
1001
GENIUS_GENOREF_13
1005
0
1005
13BA
1001
VCC
1002
{
1002
}
1001
GEVIT
1002
{
1000
-BEHI1.00000004
1000
-BVCCT0
1000
-GRP0MSL_F12_32-0
1000
-BAML2
1000
-BASK1
1000
-NT0
1000
-DOC
1005
144E
1000
-MYREF
1005
13D0
1002
}
1001
GEVMK
1002
{
1000
-CO
1000
-MYREF
1005
13D0
1002
}
1001
GEVID884352784
1002
{
1000
-ID54
1002
}
  0
INSERT
  5
13D1
  8
MSL_F12_32-0N
  2
*U16
 10
-215.030167225811
 20
-79.780167225809805
 30
0.0
 41
-1.0
 50
180.00000000000361
1001
GENIUS_GEFPARTINS_13
1002
{
1011
-215.030167225811
1021
0.0
1031
0.0
1021
-79.780167225809805
1031
0.0
1013
1.0
1023
0.0
1033
0.0
1023
0.0000000000000639
1033
0.0
1002
}
1001
GEVPT
1002
{
1000
-V$PV_GENSYSTEM"GEF\VAL\SYS\DUDUS_S.DXF"
1000
-FIXPGL2=0
1000
-FIXPPART10=0
1000
-FIXPPART9=0
1000
-FIXPPART8=0
1000
-FIXPPART7=0
1000
-FIXPPART6=0
1000
-FIXPPART5=0
1000
-FIXPDXF4=C:\GENIUS\gef\val\di\0301\di1602_v.dxf
1000
-FIXPTABLE4=C:\GENIUS\gef\val\di\0301\di1602.val
1000
-FIXPPART4=1
1000
-FIXPTABLE3=C:\GENIUS\gef\val\sys\mrbean.val
1000
-FIXPPART3=0
1000
-FIXPTABLE2=C:\GENIUS\gef\val\sys\mrbean.val
1000
-FIXPPART2=0
1000
-FIXPSCRID=2
1000
-FIXPDXF1=C:\GENIUS\gef\val\di\0101\di2401_v.dxf
1000
-FIXPTABLE1=C:\GENIUS\gef\val\di\0101\di2401.val
1000
-FIXPPART1=1
1000
-FIXPSPOCK1=C:\GENIUS\GEF\VAL\SYS\SPOCK2_S.DXF
1000
-FIXPHIDE=1
1000
-FIXPGL1=7.99999999999859
1000
-GPGEF_PROCALC=1
1000
-GPGEF_SNK_ADD=0
1000
-GPGEVPROMPTX=Länge:
1000
-GPGEF_OANG=70
1000
-GPGEF_STANG=210
1000
-GPGEF_DRAG=1
1000
-GPGEF_CDIST=3
1000
-GPGL2=0
1000
-GPGL1=0
1000
-GPGEF_FLIPY=2
1000
-GPGEF_FLIPX=2
1000
-GPHIDE=0
1000
-GPGEVBHOP=2
1000
-GPSELMODE=1
1000
-GPPTC=1
1000
-GPPRE=M
1000
-GPEGR=1
1000
-GPTPU=1
1000
-GPNND=6
1002
}
1001
GENIUS_GENOREF_13
1005
0
1005
13B8
1005
13BB
1005
13BA
1001
VCC
1002
{
1000
-ID16
1000
-IE1
1000
-IK16
1000
-V$PV_GENSYSTEM"GEF\VAL\SYS\DUDUS_S.DXF"
1002
}
1001
GEVIT
1002
{
1000
-BEHI1.00000001
1000
-BVCCT0
1000
-GRP0?
1000
-BAML2
1000
-BASK1
1000
-DOC
1005
1444
1000
-MYREF
1005
13D1
1002
}
1001
GEVMK
1002
{
1000
-CO
1000
-MYREF
1005
13D1
1002
}
1001
GEVID884352784
1002
{
1002
}
  0
INSERT
  5
13D2
  8
MSL_F12_32-0
  2
*U10
 10
-215.03016722581
 20
-112.2801672258129
 30
0.0
1001
GENIUS_GEFPARTINS_13
1002
{
1011
-215.03016722581
1021
0.0
1031
0.0
1021
-112.2801672258129
1031
0.0
1013
1.0
1023
0.0
1033
0.0
1023
0.0
1033
0.0
1002
}
1001
VCC
1002
{
1002
}
1001
GEVIT
1002
{
1000
-BEHI1.00000004
1000
-BVCCT0
1000
-GRP0MSL_F12_32-0
1000
-BAML2
1000
-BASK1
1000
-NT0
1000
-DOC
1005
13DF
1000
-MYREF
1005
13D2
1002
}
1001
GEVPT
1002
{
1000
-V$PV_GENSYSTEM"GEF\VAL\SYS\SPOCK2_S.DXF"
1000
-FIXPL=7.99999999999859
1000
-FIXPH=3.3
1000
-GPGEF_PROCALC=1
1000
-GPGEF_SNK_ADD=0
1000
-GPGEVPROMPTX=Länge:
1000
-GPGEF_OANG=70
1000
-GPGEF_STANG=210
1000
-GPGEF_DRAG=1
1000
-GPGEF_CDIST=3
1000
-GPGL2=0
1000
-GPGL1=0
1000
-GPGEF_FLIPY=2
1000
-GPGEF_FLIPX=2
1000
-GPHIDE=0
1000
-GPGEVBHOP=2
1000
-GPSELMODE=1
1000
-GPPTC=1
1000
-GPPRE=M
1000
-GPEGR=1
1000
-GPTPU=1
1000
-GPNND=6
1002
}
1001
GENIUS_GENOREF_13
1005
0
1005
13BF
1001
GEVMK
1002
{
1000
-CO
1000
-MYREF
1005
13D2
1002
}
1001
GEVID884352783
1002
{
1000
-ID54
1002
}
  0
INSERT
  5
13D3
  8
MSL_F12_32-0N
  2
*U8
 10
-215.03016722581
 20
-112.2801672258129
 30
0.0
1001
GENIUS_GEFPARTINS_13
1002
{
1011
-215.03016722581
1021
0.0
1031
0.0
1021
-112.2801672258129
1031
0.0
1013
1.0
1023
0.0
1033
0.0
1023
0.0
1033
0.0
1002
}
1001
VCC
1002
{
1000
-ID15
1000
-IE1
1000
-IK15
1000
-V$PV_GENSYSTEM"GEF\VAL\SYS\DUDUS_S.DXF"
1002
}
1001
GEVIT
1002
{
1000
-BEHI1.00000001
1000
-BVCCT0
1000
-GRP0?
1000
-BAML2
1000
-BASK1
1000
-DOC
1005
13D5
1000
-MYREF
1005
13D3
1002
}
1001
GEVPT
1002
{
1000
-V$PV_GENSYSTEM"GEF\VAL\SYS\DUDUS_S.DXF"
1000
-FIXPGL2=0
1000
-FIXPPART10=0
1000
-FIXPPART9=0
1000
-FIXPPART8=0
1000
-FIXPPART7=0
1000
-FIXPPART6=0
1000
-FIXPPART5=0
1000
-FIXPDXF4=C:\GENIUS\gef\val\di\0301\di1602_v.dxf
1000
-FIXPTABLE4=C:\GENIUS\gef\val\di\0301\di1602.val
1000
-FIXPPART4=1
1000
-FIXPTABLE3=C:\GENIUS\gef\val\sys\mrbean.val
1000
-FIXPPART3=0
1000
-FIXPTABLE2=C:\GENIUS\gef\val\sys\mrbean.val
1000
-FIXPPART2=0
1000
-FIXPSCRID=2
1000
-FIXPDXF1=C:\GENIUS\gef\val\di\0101\di2401_v.dxf
1000
-FIXPTABLE1=C:\GENIUS\gef\val\di\0101\di2401.val
1000
-FIXPPART1=1
1000
-FIXPSPOCK1=C:\GENIUS\GEF\VAL\SYS\SPOCK2_S.DXF
1000
-FIXPHIDE=1
1000
-FIXPGL1=7.99999999999859
1000
-GPGEF_PROCALC=1
1000
-GPGEF_SNK_ADD=0
1000
-GPGEVPROMPTX=Länge:
1000
-GPGEF_OANG=70
1000
-GPGEF_STANG=210
1000
-GPGEF_DRAG=1
1000
-GPGEF_CDIST=3
1000
-GPGL2=0
1000
-GPGL1=0
1000
-GPGEF_FLIPY=2
1000
-GPGEF_FLIPX=2
1000
-GPHIDE=0
1000
-GPGEVBHOP=2
1000
-GPSELMODE=1
1000
-GPPTC=1
1000
-GPPRE=M
1000
-GPEGR=1
1000
-GPTPU=1
1000
-GPNND=6
1002
}
1001
GENIUS_GENOREF_13
1005
0
1005
13BD
1005
13C0
1005
13BF
1001
GEVMK
1002
{
1000
-CO
1000
-MYREF
1005
13D3
1002
}
1001
GEVID884352783
1002
{
1002
}
  0
ENDSEC
  0
EOF
