  0
SECTION
  2
HEADER
  9
$ACADVER
  1
AC1015
  9
$ACADMAINTVER
 70
    20
  9
$DWGCODEPAGE
  3
ANSI_1252
  9
$INSBASE
 10
0.0
 20
0.0
 30
0.0
  9
$EXTMIN
 10
-19.47896957348439
 20
-166.1029458713777
 30
-0.00000001
  9
$EXTMAX
 10
636.5185175575755
 20
761.6649287854064
 30
0.00000001
  9
$LIMMIN
 10
0.0
 20
-317.204733
  9
$LIMMAX
 10
593.1901759999999
 20
594.0
  9
$ORTHOMODE
 70
     1
  9
$REGENMODE
 70
     1
  9
$FILLMODE
 70
     1
  9
$QTEXTMODE
 70
     0
  9
$MIRRTEXT
 70
     1
  9
$LTSCALE
 40
2.0
  9
$ATTMODE
 70
     1
  9
$TEXTSIZE
 40
7.0
  9
$TRACEWID
 40
1.0
  9
$TEXTSTYLE
  7
STANDARD
  9
$CLAYER
  8
DEFPOINTS
  9
$CELTYPE
  6
BYLAYER
  9
$CECOLOR
 62
   256
  9
$CELTSCALE
 40
1.0
  9
$DISPSILH
 70
     0
  9
$DIMSCALE
 40
2.0
  9
$DIMASZ
 40
2.0
  9
$DIMEXO
 40
1.0
  9
$DIMDLI
 40
4.0
  9
$DIMRND
 40
0.0
  9
$DIMDLE
 40
0.0
  9
$DIMEXE
 40
0.5
  9
$DIMTP
 40
0.1
  9
$DIMTM
 40
0.1
  9
$DIMTXT
 40
4.0
  9
$DIMCEN
 40
-2.0
  9
$DIMTSZ
 40
0.0
  9
$DIMTOL
 70
     0
  9
$DIMLIM
 70
     0
  9
$DIMTIH
 70
     0
  9
$DIMTOH
 70
     0
  9
$DIMSE1
 70
     0
  9
$DIMSE2
 70
     0
  9
$DIMTAD
 70
     1
  9
$DIMZIN
 70
     8
  9
$DIMBLK
  1

  9
$DIMASO
 70
     1
  9
$DIMSHO
 70
     1
  9
$DIMPOST
  1

  9
$DIMAPOST
  1

  9
$DIMALT
 70
     0
  9
$DIMALTD
 70
     2
  9
$DIMALTF
 40
25.4
  9
$DIMLFAC
 40
1.0
  9
$DIMTOFL
 70
     1
  9
$DIMTVP
 40
0.0
  9
$DIMTIX
 70
     0
  9
$DIMSOXD
 70
     0
  9
$DIMSAH
 70
     0
  9
$DIMBLK1
  1

  9
$DIMBLK2
  1

  9
$DIMSTYLE
  2
GEN-ISO
  9
$DIMCLRD
 70
     0
  9
$DIMCLRE
 70
     0
  9
$DIMCLRT
 70
   256
  9
$DIMTFAC
 40
1.0
  9
$DIMGAP
 40
1.5
  9
$DIMJUST
 70
     0
  9
$DIMSD1
 70
     0
  9
$DIMSD2
 70
     0
  9
$DIMTOLJ
 70
     0
  9
$DIMTZIN
 70
     8
  9
$DIMALTZ
 70
     8
  9
$DIMALTTZ
 70
     8
  9
$DIMUPT
 70
     0
  9
$DIMDEC
 70
     2
  9
$DIMTDEC
 70
     5
  9
$DIMALTU
 70
     2
  9
$DIMALTTD
 70
     2
  9
$DIMTXSTY
  7
STANDARD
  9
$DIMAUNIT
 70
     0
  9
$DIMADEC
 70
     0
  9
$DIMALTRND
 40
0.0
  9
$DIMAZIN
 70
     0
  9
$DIMDSEP
 70
    46
  9
$DIMATFIT
 70
     3
  9
$DIMFRAC
 70
     0
  9
$DIMLDRBLK
  1

  9
$DIMLUNIT
 70
     2
  9
$DIMLWD
 70
    -2
  9
$DIMLWE
 70
    -2
  9
$DIMTMOVE
 70
     0
  9
$LUNITS
 70
     2
  9
$LUPREC
 70
     4
  9
$SKETCHINC
 40
1.0
  9
$FILLETRAD
 40
0.0
  9
$AUNITS
 70
     0
  9
$AUPREC
 70
     0
  9
$MENU
  1
acad
  9
$ELEVATION
 40
0.0
  9
$PELEVATION
 40
0.0
  9
$THICKNESS
 40
0.0
  9
$LIMCHECK
 70
     0
  9
$CHAMFERA
 40
10.0
  9
$CHAMFERB
 40
10.0
  9
$CHAMFERC
 40
0.0
  9
$CHAMFERD
 40
0.0
  9
$SKPOLY
 70
     0
  9
$TDCREATE
 40
2452256.515739467
  9
$TDUCREATE
 40
2452256.432406135
  9
$TDUPDATE
 40
2456219.410037581
  9
$TDUUPDATE
 40
2456219.326704248
  9
$TDINDWG
 40
0.1659139931
  9
$TDUSRTIMER
 40
0.1659139931
  9
$USRTIMER
 70
     1
  9
$ANGBASE
 50
0.0
  9
$ANGDIR
 70
     0
  9
$PDMODE
 70
     0
  9
$PDSIZE
 40
0.0
  9
$PLINEWID
 40
0.0
  9
$SPLFRAME
 70
     0
  9
$SPLINETYPE
 70
     6
  9
$SPLINESEGS
 70
     8
  9
$HANDSEED
  5
361B
  9
$SURFTAB1
 70
     6
  9
$SURFTAB2
 70
     6
  9
$SURFTYPE
 70
     6
  9
$SURFU
 70
     6
  9
$SURFV
 70
     6
  9
$UCSBASE
  2

  9
$UCSNAME
  2

  9
$UCSORG
 10
0.0
 20
0.0
 30
0.0
  9
$UCSXDIR
 10
1.0
 20
0.0
 30
0.0
  9
$UCSYDIR
 10
0.0
 20
1.0
 30
0.0
  9
$UCSORTHOREF
  2

  9
$UCSORTHOVIEW
 70
     0
  9
$UCSORGTOP
 10
0.0
 20
0.0
 30
0.0
  9
$UCSORGBOTTOM
 10
0.0
 20
0.0
 30
0.0
  9
$UCSORGLEFT
 10
0.0
 20
0.0
 30
0.0
  9
$UCSORGRIGHT
 10
0.0
 20
0.0
 30
0.0
  9
$UCSORGFRONT
 10
0.0
 20
0.0
 30
0.0
  9
$UCSORGBACK
 10
0.0
 20
0.0
 30
0.0
  9
$PUCSBASE
  2

  9
$PUCSNAME
  2

  9
$PUCSORG
 10
0.0
 20
0.0
 30
0.0
  9
$PUCSXDIR
 10
1.0
 20
0.0
 30
0.0
  9
$PUCSYDIR
 10
0.0
 20
1.0
 30
0.0
  9
$PUCSORTHOREF
  2

  9
$PUCSORTHOVIEW
 70
     0
  9
$PUCSORGTOP
 10
0.0
 20
0.0
 30
0.0
  9
$PUCSORGBOTTOM
 10
0.0
 20
0.0
 30
0.0
  9
$PUCSORGLEFT
 10
0.0
 20
0.0
 30
0.0
  9
$PUCSORGRIGHT
 10
0.0
 20
0.0
 30
0.0
  9
$PUCSORGFRONT
 10
0.0
 20
0.0
 30
0.0
  9
$PUCSORGBACK
 10
0.0
 20
0.0
 30
0.0
  9
$USERI1
 70
     0
  9
$USERI2
 70
     0
  9
$USERI3
 70
     0
  9
$USERI4
 70
     0
  9
$USERI5
 70
     0
  9
$USERR1
 40
0.0
  9
$USERR2
 40
0.0
  9
$USERR3
 40
0.0
  9
$USERR4
 40
0.0
  9
$USERR5
 40
0.0
  9
$WORLDVIEW
 70
     1
  9
$SHADEDGE
 70
     3
  9
$SHADEDIF
 70
    70
  9
$TILEMODE
 70
     1
  9
$MAXACTVP
 70
    16
  9
$PINSBASE
 10
0.0
 20
0.0
 30
0.0
  9
$PLIMCHECK
 70
     0
  9
$PEXTMIN
 10
1.000000000000000E+20
 20
1.000000000000000E+20
 30
1.000000000000000E+20
  9
$PEXTMAX
 10
-1.000000000000000E+20
 20
-1.000000000000000E+20
 30
-1.000000000000000E+20
  9
$PLIMMIN
 10
0.0
 20
0.0
  9
$PLIMMAX
 10
420.0
 20
297.0
  9
$UNITMODE
 70
     0
  9
$VISRETAIN
 70
     0
  9
$PLINEGEN
 70
     0
  9
$PSLTSCALE
 70
     1
  9
$TREEDEPTH
 70
  3020
  9
$CMLSTYLE
  2
STANDARD
  9
$CMLJUST
 70
     0
  9
$CMLSCALE
 40
1.0
  9
$PROXYGRAPHICS
 70
     1
  9
$MEASUREMENT
 70
     1
  9
$CELWEIGHT
370
    -1
  9
$ENDCAPS
280
     0
  9
$JOINSTYLE
280
     0
  9
$LWDISPLAY
290
     0
  9
$INSUNITS
 70
     0
  9
$HYPERLINKBASE
  1

  9
$STYLESHEET
  1

  9
$XEDIT
290
     1
  9
$CEPSNTYPE
380
     0
  9
$PSTYLEMODE
290
     1
  9
$FINGERPRINTGUID
  2
{9D0C531D-E33A-4201-8449-BEEEEEE15972}
  9
$VERSIONGUID
  2
{F68BCF50-F989-421F-8B29-CD960ADF83FD}
  9
$EXTNAMES
290
     1
  9
$PSVPSCALE
 40
0.0
  9
$OLESTARTUP
290
     0
  0
ENDSEC
  0
SECTION
  2
CLASSES
  0
CLASS
  1
DICTIONARYVAR
  2
AcDbDictionaryVar
  3
ObjectDBX Classes
 90
        0
280
     0
281
     0
  0
CLASS
  1
ACDBDICTIONARYWDFLT
  2
AcDbDictionaryWithDefault
  3
ObjectDBX Classes
 90
        0
280
     0
281
     0
  0
CLASS
  1
MATERIAL
  2
AcDbMaterial
  3
ObjectDBX Classes
 90
     1153
280
     0
281
     0
  0
CLASS
  1
VISUALSTYLE
  2
AcDbVisualStyle
  3
ObjectDBX Classes
 90
     4095
280
     0
281
     0
  0
CLASS
  1
TABLESTYLE
  2
AcDbTableStyle
  3
ObjectDBX Classes
 90
     4095
280
     0
281
     0
  0
CLASS
  1
SCALE
  2
AcDbScale
  3
ObjectDBX Classes
 90
     1153
280
     0
281
     0
  0
CLASS
  1
MLEADERSTYLE
  2
AcDbMLeaderStyle
  3
ACDB_MLEADERSTYLE_CLASS
 90
     4095
280
     0
281
     0
  0
CLASS
  1
ACME_DOCUMENT
  2
AcMeDbDoc
  3
AcMeServices
 90
     1024
280
     0
281
     0
  0
CLASS
  1
AMGSETTINGSOBJ
  2
AmgSettingsObj
  3
"AcadM|Product Description: AutoCAD Mechanical|Company: Autodesk, Inc."
 90
     1024
280
     0
281
     0
  0
CLASS
  1
ACMESCOPE
  2
AcMeScope
  3
AcMeServices
 90
     1024
280
     0
281
     0
  0
CLASS
  1
ACMECOMMANDHISTORY
  2
AcMeCommandHistory
  3
AcMeServices
 90
     1024
280
     0
281
     0
  0
CLASS
  1
ACIMSYSVARMAN
  2
AcImSysVarManager
  3
AcMeServices
 90
     1024
280
     0
281
     0
  0
CLASS
  1
ACIMINTSYSVAR
  2
AcImIntSysVar
  3
AcMeServices
 90
     1024
280
     0
281
     0
  0
CLASS
  1
ACMEDRAWINGMAN
  2
AcMeDrawingMan
  3
AcMeServices
 90
     1024
280
     0
281
     0
  0
CLASS
  1
ACMEVIEW
  2
AcMeView
  3
AcMeServices
 90
     1024
280
     0
281
     0
  0
CLASS
  1
ACDBENTITYCACHE
  2
AcMeEntityCache
  3
AcMeServices
 90
     1024
280
     0
281
     0
  0
CLASS
  1
GSMANAGER
  2
AcMeGSManager
  3
AcMeServices
 90
     1024
280
     0
281
     0
  0
CLASS
  1
AMDTINTERNALREACTOR
  2
AmdtInternalReactor
  3
AcMeServices
 90
     1024
280
     0
281
     0
  0
CLASS
  1
ACMESTATEMGR
  2
AcMeStateMgr
  3
AcMeServices
 90
     1024
280
     0
281
     0
  0
CLASS
  1
ACGREFMASTER
  2
AcGrefMaster
  3
AcAttribServices
 90
     1024
280
     0
281
     0
  0
CLASS
  1
AM_DRAWING_MGR
  2
AcDmDwgMgr
  3
AcMechDwgViewMgmt
 90
     1024
280
     0
281
     0
  0
CLASS
  1
AM_DWG_DOCUMENT
  2
AcDmDwgDocument
  3
AcMechDwgViewMgmt
 90
     1024
280
     0
281
     0
  0
CLASS
  1
AM_DWG_SHEET
  2
AcDmSheet
  3
AcMechDwgViewMgmt
 90
     1024
280
     0
281
     0
  0
CLASS
  1
AM_VIEWDIMPARMAP
  2
AcDmViewDimParMap
  3
AcMechDwgViewMgmt
 90
     1024
280
     0
281
     0
  0
CLASS
  1
ACIMREALSYSVAR
  2
AcImRealSysVar
  3
AcMeServices
 90
     1024
280
     0
281
     0
  0
CLASS
  1
AM_DWGMGR_NAME
  2
AcDmDwgMgrName
  3
AcMechDwgViewMgmt
 90
     1024
280
     0
281
     0
  0
CLASS
  1
ACME_DATABASE
  2
AcMeDbDatabase
  3
AcMeServices
 90
     1024
280
     0
281
     0
  0
CLASS
  1
ACRFINSADJUSTERMGR
  2
AcRfInsAdjusterMgr
  3
AcMeServices
 90
     1024
280
     0
281
     0
  0
CLASS
  1
ACGREFACADMASTER
  2
AcGrefacadMaster
  3
AcGrefServices
 90
     1024
280
     0
281
     0
  0
CLASS
  1
AMDTMENUSTATEMGR
  2
AmdtMenuStateMgr
  3
McadcomServices
 90
     1024
280
     0
281
     0
  0
CLASS
  1
AMDTMCOMMENUSTATE
  2
AmdtMcomMenuState
  3
McadcomServices
 90
     1024
280
     0
281
     0
  0
CLASS
  1
AMIMASTER
  2
AmiMaster
  3
AmiServices
 90
     1024
280
     0
281
     0
  0
CLASS
  1
MAPIAMMOUDLE
  2
MApiAmModule
  3
MApiAmServices
 90
     1024
280
     0
281
     0
  0
CLASS
  1
ACIMSTRSYSVAR
  2
AcImStrSysVar
  3
AcMeServices
 90
     1024
280
     0
281
     0
  0
CLASS
  1
AMDTADMENUSTATE
  2
AmdtAdMenuState
  3
DesignerServices
 90
     1024
280
     0
281
     0
  0
CLASS
  1
ADAPPL
  2
AcAdAppl
  3
DesignerServices
 90
     1024
280
     0
281
     0
  0
CLASS
  1
DEPMGR
  2
AcAdDepMgr
  3
DesignerServices
 90
     1024
280
     0
281
     0
  0
CLASS
  1
PARAMMGR
  2
AcAdParamMgr
  3
DesignerServices
 90
     1024
280
     0
281
     0
  0
CLASS
  1
PARAMSCOPE
  2
AcAdParamScope
  3
DesignerServices
 90
     1024
280
     0
281
     0
  0
CLASS
  1
NAMEDAPPL
  2
AcAdNamedAppl
  3
DesignerServices
 90
     1024
280
     0
281
     0
  0
CLASS
  1
AMDTDMMENUSTATE
  2
AmdtDmMenuState
  3
AcMechDwgViewMgmt
 90
     1024
280
     0
281
     0
  0
CLASS
  1
AMDTAMMENUSTATE
  2
AmdtAmMenuState
  3
DesignerAssemblies
 90
     1024
280
     0
281
     0
  0
CLASS
  1
ACAMPROJECT
  2
AcAmProject
  3
DesignerAssemblies
 90
     1024
280
     0
281
     0
  0
CLASS
  1
ACAMGRCOMPDEF
  2
AcAmGrCompDef
  3
DesignerAssemblies
 90
     1024
280
     0
281
     0
  0
CLASS
  1
ACCMCONTEXT
  2
AcCmContext
  3
DesignerAssemblies
 90
     1024
280
     0
281
     0
  0
CLASS
  1
ACAMCOMPDEF
  2
AcAmCompDef
  3
DesignerAssemblies
 90
     1024
280
     0
281
     0
  0
CLASS
  1
ACAMCOMPDEFMGR
  2
AcAmCompDefMgr
  3
DesignerAssemblies
 90
     1024
280
     0
281
     0
  0
CLASS
  1
AMCONTEXTMGR
  2
AcAmContextMgr
  3
DesignerAssemblies
 90
     1024
280
     0
281
     0
  0
CLASS
  1
ACAMCONTEXTMODELER
  2
AcAmContextModeler
  3
DesignerAssemblies
 90
     1024
280
     0
281
     0
  0
CLASS
  1
ACMDATADICTIONARY
  2
AcmDataDictionary
  3
"AcmSymBB|Product Description: AutoCAD Mechanical|Company: Autodesk, Inc."
 90
     1024
280
     0
281
     0
  0
CLASS
  1
CATALOGSTATE
  2
AcAmCatalogState
  3
DesignerAssemblies
 90
     1024
280
     0
281
     0
  0
CLASS
  1
ACAMGRCOMPDEFSET
  2
AcAmGrCompDefSet
  3
DesignerAssemblies
 90
     1024
280
     0
281
     0
  0
CLASS
  1
AMDTBROWSERDBTAB
  2
AmdtBrowserDbTab
  3
McadcomServices
 90
     1024
280
     0
281
     0
  0
CLASS
  1
CBROWSERAPPOBJECT
  2
CBrowserAppObject
  3
McadcomServices
 90
     1024
280
     0
281
     0
  0
CLASS
  1
DM_PLACEHOLDER
  2
AcDmSelsetPlaceholder
  3
AcMechDwgViewMgmt
 90
     1024
280
     0
281
     0
  0
CLASS
  1
ACMSTANDARDDIN
  2
AcmStandardDIN
  3
"Amdt_StdImp|Product Description: AutoCAD Mechanical|Company: Autodesk, Inc."
 90
     1024
280
     0
281
     0
  0
CLASS
  1
AMDTEDGESTANDARDDIN13715
  2
AmdtEdgeStdDIN13715
  3
"Amdt_StdImp|Product Description: AutoCAD Mechanical|Company: Autodesk, Inc."
 90
     1024
280
     0
281
     0
  0
CLASS
  1
ACMSURFSTANDARDDIN2002
  2
AcmSurfTextStdDIN2002
  3
"Amdt_StdImp|Product Description: AutoCAD Mechanical|Company: Autodesk, Inc."
 90
     1024
280
     0
281
     0
  0
CLASS
  1
ACMFCFSTANDARDDIN
  2
AcmFCFStdDIN
  3
"Amdt_StdImp|Product Description: AutoCAD Mechanical|Company: Autodesk, Inc."
 90
     1024
280
     0
281
     0
  0
CLASS
  1
ACMWELDSTANDARDDIN
  2
AcmWeldingStdDIN
  3
"Amdt_StdImp|Product Description: AutoCAD Mechanical|Company: Autodesk, Inc."
 90
     1024
280
     0
281
     0
  0
CLASS
  1
ACMIDSTANDARDDIN
  2
AcmIdStdDIN
  3
"Amdt_StdImp|Product Description: AutoCAD Mechanical|Company: Autodesk, Inc."
 90
     1024
280
     0
281
     0
  0
CLASS
  1
ACMDATUMSTANDARDDIN
  2
AcmDatumStdDIN
  3
"Amdt_StdImp|Product Description: AutoCAD Mechanical|Company: Autodesk, Inc."
 90
     1024
280
     0
281
     0
  0
CLASS
  1
ACMBOMSTANDARDDIN
  2
AcmBOMStdDIN
  3
"Amdt_StdImp|Product Description: AutoCAD Mechanical|Company: Autodesk, Inc."
 90
     1024
280
     0
281
     0
  0
CLASS
  1
ACMDETAILSTANDARDDIN
  2
AmdtDetailSymStdDIN
  3
"Amdt_StdImp|Product Description: AutoCAD Mechanical|Company: Autodesk, Inc."
 90
     1024
280
     0
281
     0
  0
CLASS
  1
ACMSECTIONSTANDARDDIN
  2
AmdtSectionSymStdDIN
  3
"Amdt_StdImp|Product Description: AutoCAD Mechanical|Company: Autodesk, Inc."
 90
     1024
280
     0
281
     0
  0
CLASS
  1
ACMCENTERLINESTANDARDDIN
  2
AmdtCenterLineStdDIN
  3
"Amdt_StdImp|Product Description: AutoCAD Mechanical|Company: Autodesk, Inc."
 90
     1024
280
     0
281
     0
  0
CLASS
  1
ACMTHREADLINESTANDARDDIN
  2
AmdtThreadLineStdDIN
  3
"Amdt_StdImp|Product Description: AutoCAD Mechanical|Company: Autodesk, Inc."
 90
     1024
280
     0
281
     0
  0
CLASS
  1
ACMNOTESTANDARDDIN
  2
AmdtNoteStdDIN
  3
"Amdt_StdImp|Product Description: AutoCAD Mechanical|Company: Autodesk, Inc."
 90
     1024
280
     0
281
     0
  0
CLASS
  1
ACMTAPERSTANDARDDIN
  2
AcmTaperStdDIN
  3
"Amdt_StdImp|Product Description: AutoCAD Mechanical|Company: Autodesk, Inc."
 90
     1024
280
     0
281
     0
  0
CLASS
  1
ACMANOOTATIONVIEWSTANDARDDIN
  2
AmdtAnViewStdDIN
  3
"Amdt_StdImp|Product Description: AutoCAD Mechanical|Company: Autodesk, Inc."
 90
     1024
280
     0
281
     0
  0
CLASS
  1
ACAMGLAYSTD
  2
AcAmgLayStd
  3
"AmgLay|Product Description: AutoCAD Mechanical|Company: Autodesk, Inc."
 90
     1024
280
     0
281
     0
  0
CLASS
  1
ACAMGDIMSTD
  2
AcAmgDimStd
  3
"AmgDim|Product Description: AutoCAD Mechanical|Company: Autodesk, Inc."
 90
     1024
280
     0
281
     0
  0
CLASS
  1
AMGOBJPROPCFG
  2
AmgObjPropCfg
  3
"AmgLay|Product Description: AutoCAD Mechanical|Company: Autodesk, Inc."
 90
     1025
280
     0
281
     0
  0
CLASS
  1
ACAMGHOLECHARTSTDDIN
  2
AcAmgHoleChartStdDIN
  3
AmgDim|Product Description: AutoCAD Mechanical|Company: Autodesk, Inc.
 90
     1024
280
     0
281
     0
  0
CLASS
  1
ACAMGTITLESTD
  2
AcAmgTitleStd
  3
"AmgTitle|Product Description: AutoCAD Mechanical|Company: Autodesk, Inc."
 90
     4095
280
     0
281
     0
  0
CLASS
  1
AMDTNOTETEMPLATEDB
  2
AmdtNoteTemplateDB
  3
AcmSymBB|Product Description: AutoCAD Mechanical|Company: Autodesk, Inc.
 90
     1024
280
     0
281
     0
  0
CLASS
  1
ACAMGFILTERDAT
  2
AcAmgFilterDat
  3
"AcadM|Product Description: AutoCAD Mechanical|Company: Autodesk, Inc."
 90
     1024
280
     0
281
     0
  0
CLASS
  1
CAMSSTRUCTBTNSTATE
  2
StructBtnState
  3
DesignerAssemblies
 90
     1024
280
     0
281
     0
  0
CLASS
  1
CELLSTYLEMAP
  2
AcDbCellStyleMap
  3
ObjectDBX Classes
 90
     1152
280
     0
281
     0
  0
CLASS
  1
ACDBPLACEHOLDER
  2
AcDbPlaceHolder
  3
ObjectDBX Classes
 90
        0
280
     0
281
     0
  0
CLASS
  1
LAYOUT
  2
AcDbLayout
  3
ObjectDBX Classes
 90
        0
280
     0
281
     0
  0
ENDSEC
  0
SECTION
  2
TABLES
  0
TABLE
  2
VPORT
  5
8
330
0
100
AcDbSymbolTable
 70
     1
  0
VPORT
  5
34DC
330
8
100
AcDbSymbolTableRecord
100
AcDbViewportTableRecord
  2
*ACTIVE
 70
     0
 10
0.0
 20
0.0
 11
1.0
 21
1.0
 12
572.4457250619852
 22
56.61423801063699
 13
0.0
 23
0.0
 14
1.0
 24
1.0
 15
10.0
 25
10.0
 16
0.0
 26
0.0
 36
1.0
 17
0.0
 27
0.0
 37
0.0
 40
1129.133846902705
 41
1.548186528497409
 42
50.0
 43
0.0
 44
0.0
 50
0.0
 51
0.0
 71
     0
 72
   100
 73
     1
 74
     0
 75
     0
 76
     0
 77
     0
 78
     0
281
     0
 65
     1
110
0.0
120
0.0
130
0.0
111
1.0
121
0.0
131
0.0
112
0.0
122
1.0
132
0.0
 79
     0
146
0.0
  0
ENDTAB
  0
TABLE
  2
LTYPE
  5
5
330
0
100
AcDbSymbolTable
 70
    22
  0
LTYPE
  5
12
330
5
100
AcDbSymbolTableRecord
100
AcDbLinetypeTableRecord
  2
BYBLOCK
 70
     0
  3

 72
    65
 73
     0
 40
0.0
  0
LTYPE
  5
13
330
5
100
AcDbSymbolTableRecord
100
AcDbLinetypeTableRecord
  2
BYLAYER
 70
     0
  3

 72
    65
 73
     0
 40
0.0
  0
LTYPE
  5
14
330
5
100
AcDbSymbolTableRecord
100
AcDbLinetypeTableRecord
  2
CONTINUOUS
 70
     0
  3
Solid line
 72
    65
 73
     0
 40
0.0
  0
LTYPE
  5
1D
330
5
100
AcDbSymbolTableRecord
100
AcDbLinetypeTableRecord
  2
GEN3
 70
     0
  3
-- -- -- -- -- -- -- -- -- -- -- -- -- -- --
 72
    65
 73
     2
 40
6.25
 49
5.0
 74
     0
 49
-1.25
 74
     0
  0
LTYPE
  5
1E
330
5
100
AcDbSymbolTableRecord
100
AcDbLinetypeTableRecord
  2
GEN3A
 70
     0
  3
 - - - - -
 72
    65
 73
     2
 40
3.1
 49
2.5
 74
     0
 49
-0.6
 74
     0
  0
LTYPE
  5
20
330
5
100
AcDbSymbolTableRecord
100
AcDbLinetypeTableRecord
  2
GEN7A
 70
     0
  3
__ . __ . __
 72
    65
 73
     4
 40
7.5
 49
5.0
 74
     0
 49
-1.25
 74
     0
 49
0.0
 74
     0
 49
-1.25
 74
     0
  0
LTYPE
  5
355D
330
5
100
AcDbSymbolTableRecord
100
AcDbLinetypeTableRecord
  2
HIDDEN
 70
     0
  3
Verdeckt
 72
    65
 73
     2
 40
9.525
 49
6.349999999999999
 74
     0
 49
-3.174999999999999
 74
     0
  0
LTYPE
  5
355E
330
5
100
AcDbSymbolTableRecord
100
AcDbLinetypeTableRecord
  2
PHANTOM2
 70
     0
  3
Phantom (.5x) ___ _ _ ___ _ _ ___ _ _ ___ _ _
 72
    65
 73
     6
 40
31.75
 49
15.875
 74
     0
 49
-3.174999999999999
 74
     0
 49
3.174999999999999
 74
     0
 49
-3.174999999999999
 74
     0
 49
3.174999999999999
 74
     0
 49
-3.174999999999999
 74
     0
  0
LTYPE
  5
355F
330
5
100
AcDbSymbolTableRecord
100
AcDbLinetypeTableRecord
  2
CENTER
 70
     0
  3
Mitte ____ _ ____ _ ____ _ ____ _ ____ _ ____
 72
    65
 73
     4
 40
50.8
 49
31.75
 74
     0
 49
-6.349999999999999
 74
     0
 49
6.349999999999999
 74
     0
 49
-6.349999999999999
 74
     0
  0
LTYPE
  5
35A5
330
5
100
AcDbSymbolTableRecord
100
AcDbLinetypeTableRecord
  2
AM_ISO02W050
 70
     0
  3
__ __ __ __ __ __ __ __ __ __ __ __ __ __ __
 72
    65
 73
     2
 40
7.5
 49
6.0
 74
     0
 49
-1.5
 74
     0
  0
LTYPE
  5
35A6
330
5
100
AcDbSymbolTableRecord
100
AcDbLinetypeTableRecord
  2
AM_ISO08W050
 70
     0
  3
____ . ____ . ____ . ____ . ____ . ____ . ____
 72
    65
 73
     4
 40
18.0
 49
12.0
 74
     0
 49
-1.5
 74
     0
 49
3.0
 74
     0
 49
-1.5
 74
     0
  0
LTYPE
  5
35A7
330
5
100
AcDbSymbolTableRecord
100
AcDbLinetypeTableRecord
  2
AM_ISO09W050
 70
     0
  3
_____ . . _____ . . _____ . . ____ .. ____
 72
    65
 73
     6
 40
22.5
 49
12.0
 74
     0
 49
-1.5
 74
     0
 49
3.0
 74
     0
 49
-1.5
 74
     0
 49
3.0
 74
     0
 49
-1.5
 74
     0
  0
LTYPE
  5
35A8
330
5
100
AcDbSymbolTableRecord
100
AcDbLinetypeTableRecord
  2
Amconstr
 70
     0
  3
_______________________
 72
    65
 73
     2
 40
9999.0
 49
9999.0
 74
     0
 49
0.0
 74
     0
  0
LTYPE
  5
35A9
330
5
100
AcDbSymbolTableRecord
100
AcDbLinetypeTableRecord
  2
AM_ISO08W050x2
 70
     0
  3
__ . __ . __ . __ . __ . __
 72
    65
 73
     4
 40
9.0
 49
6.0
 74
     0
 49
-0.75
 74
     0
 49
1.5
 74
     0
 49
-0.75
 74
     0
  0
LTYPE
  5
35AA
330
5
100
AcDbSymbolTableRecord
100
AcDbLinetypeTableRecord
  2
AM_ISO02W050x2
 70
     0
  3
 _ _ _ _ _ _ _ _ _ _ _ _
 72
    65
 73
     2
 40
3.75
 49
3.0
 74
     0
 49
-0.75
 74
     0
  0
LTYPE
  5
35AD
330
5
100
AcDbSymbolTableRecord
100
AcDbLinetypeTableRecord
  2
Amzigzag
 70
     0
  3
/\/-/\/-/\/-/\/-/\/-/\/
 72
    65
 73
     2
 40
11.0001
 49
0.0001
 74
     4
 75
   136
340
35AC
 46
0.04
 50
0.0
 44
0.0
 45
0.0
 49
-11.0
 74
     0
  0
LTYPE
  5
35AE
330
5
100
AcDbSymbolTableRecord
100
AcDbLinetypeTableRecord
  2
AM_DIN_F_W050
 70
     0
  3
__ __ __ __ __ __ __ __ __ __ __ __ __ __ __
 72
    65
 73
     2
 40
6.25
 49
4.75
 74
     0
 49
-1.5
 74
     0
  0
LTYPE
  5
35AF
330
5
100
AcDbSymbolTableRecord
100
AcDbLinetypeTableRecord
  2
AM_DIN_G_W050
 70
     0
  3
____ . ____ . ____ . ____ . ____ . ____ . ____
 72
    65
 73
     4
 40
13.75
 49
9.75
 74
     0
 49
-1.5
 74
     0
 49
1.0
 74
     0
 49
-1.5
 74
     0
  0
LTYPE
  5
35B0
330
5
100
AcDbSymbolTableRecord
100
AcDbLinetypeTableRecord
  2
AM_DIN_K_W050
 70
     0
  3
_____ . . _____ . . _____ . . ____ .. ____
 72
    65
 73
     6
 40
16.25
 49
9.75
 74
     0
 49
-1.5
 74
     0
 49
1.0
 74
     0
 49
-1.5
 74
     0
 49
1.0
 74
     0
 49
-1.5
 74
     0
  0
LTYPE
  5
35B1
330
5
100
AcDbSymbolTableRecord
100
AcDbLinetypeTableRecord
  2
AM_DIN_G_W050x2
 70
     0
  3
__ . __ . __ . __ . __ . __
 72
    65
 73
     4
 40
6.875
 49
4.75
 74
     0
 49
-0.875
 74
     0
 49
0.375
 74
     0
 49
-0.875
 74
     0
  0
LTYPE
  5
35B2
330
5
100
AcDbSymbolTableRecord
100
AcDbLinetypeTableRecord
  2
AM_DIN_F_W050x2
 70
     0
  3
 _ _ _ _ _ _ _ _ _ _ _ _
 72
    65
 73
     2
 40
3.125
 49
2.25
 74
     0
 49
-0.875
 74
     0
  0
LTYPE
  5
35C1
330
5
100
AcDbSymbolTableRecord
100
AcDbLinetypeTableRecord
  2
ACDINWELD
 70
     0
  3
_ _ _ _ _
 72
    65
 73
     2
 40
2.0
 49
2.0
 74
     0
 49
-1.0
 74
     0
  0
LTYPE
  5
35C2
330
5
100
AcDbSymbolTableRecord
100
AcDbLinetypeTableRecord
  2
ACDINTGB
 70
     0
  3
__ . . __ . .
 72
    65
 73
     6
 40
9.0
 49
4.0
 74
     0
 49
-1.0
 74
     0
 49
1.0
 74
     0
 49
-1.0
 74
     0
 49
1.0
 74
     0
 49
-1.0
 74
     0
  0
LTYPE
  5
35C3
330
5
100
AcDbSymbolTableRecord
100
AcDbLinetypeTableRecord
  2
ACDINTGL
 70
     0
  3
_ _ _ _ _
 72
    65
 73
     2
 40
3.0
 49
2.0
 74
     0
 49
-1.0
 74
     0
  0
ENDTAB
  0
TABLE
  2
LAYER
  5
2
330
0
100
AcDbSymbolTable
 70
    10
  0
LAYER
  5
F
102
{ACAD_XDICTIONARY
360
35D1
102
}
330
2
100
AcDbSymbolTableRecord
100
AcDbLayerTableRecord
  2
0
 70
     0
 62
     7
  6
CONTINUOUS
370
    -3
390
34DF
  0
LAYER
  5
26
102
{ACAD_XDICTIONARY
360
35D3
102
}
330
2
100
AcDbSymbolTableRecord
100
AcDbLayerTableRecord
  2
2
 70
     0
 62
     5
  6
CONTINUOUS
370
    -3
390
34DF
  0
LAYER
  5
29
102
{ACAD_XDICTIONARY
360
35D5
102
}
330
2
100
AcDbSymbolTableRecord
100
AcDbLayerTableRecord
  2
3A
 70
     0
 62
     6
  6
GEN3A
370
    -3
390
34DF
  0
LAYER
  5
2B
102
{ACAD_XDICTIONARY
360
35D7
102
}
330
2
100
AcDbSymbolTableRecord
100
AcDbLayerTableRecord
  2
5
 70
     0
 62
     3
  6
CONTINUOUS
370
    -3
390
34DF
  0
LAYER
  5
2C
102
{ACAD_XDICTIONARY
360
35D9
102
}
330
2
100
AcDbSymbolTableRecord
100
AcDbLayerTableRecord
  2
6
 70
     1
 62
     2
  6
CONTINUOUS
370
    -3
390
34DF
  0
LAYER
  5
2E
102
{ACAD_XDICTIONARY
360
35DB
102
}
330
2
100
AcDbSymbolTableRecord
100
AcDbLayerTableRecord
  2
8
 70
     0
 62
     1
  6
CONTINUOUS
370
    -3
390
34DF
  0
LAYER
  5
2F
102
{ACAD_XDICTIONARY
360
35DD
102
}
330
2
100
AcDbSymbolTableRecord
100
AcDbLayerTableRecord
  2
7A
 70
     0
 62
     9
  6
GEN7A
370
    -3
390
34DF
  0
LAYER
  5
30
330
2
100
AcDbSymbolTableRecord
100
AcDbLayerTableRecord
  2
DEFPOINTS
 70
     0
 62
     7
  6
CONTINUOUS
290
     0
370
    -3
390
34DF
  0
LAYER
  5
3335
102
{ACAD_XDICTIONARY
360
35DF
102
}
330
2
100
AcDbSymbolTableRecord
100
AcDbLayerTableRecord
  2
MSR_I5_6-7A
 70
     0
 62
     9
  6
GEN7A
370
    -3
390
34DF
  0
LAYER
  5
3336
102
{ACAD_XDICTIONARY
360
35E1
102
}
330
2
100
AcDbSymbolTableRecord
100
AcDbLayerTableRecord
  2
MSR_I5_6-3A
 70
     0
 62
     6
  6
GEN3A
370
    -3
390
34DF
  0
ENDTAB
  0
TABLE
  2
STYLE
  5
3
330
0
100
AcDbSymbolTable
 70
     4
  0
STYLE
  5
10
330
3
100
AcDbSymbolTableRecord
100
AcDbTextStyleTableRecord
  2
STANDARD
 70
     0
 40
0.0
 41
1.0
 50
0.0
 71
     0
 42
7.0
  3
ISOCP.SHX
  4

  0
STYLE
  5
35AC
330
3
100
AcDbSymbolTableRecord
100
AcDbTextStyleTableRecord
  2

 70
     1
 40
0.0
 41
1.0
 50
0.0
 71
     0
 42
7.0
  3
genltshp.shx
  4

  0
STYLE
  5
35BF
330
3
100
AcDbSymbolTableRecord
100
AcDbTextStyleTableRecord
  2
ACDINTS
 70
     0
 40
1.0
 41
1.0
 50
0.0
 71
     0
 42
7.0
  3
isocp.shx
  4

  0
STYLE
  5
35C0
330
3
100
AcDbSymbolTableRecord
100
AcDbTextStyleTableRecord
  2
ACDINGDT
 70
     0
 40
0.0
 41
1.0
 50
0.0
 71
     0
 42
7.0
  3
amgdt.shx
  4

  0
ENDTAB
  0
TABLE
  2
VIEW
  5
6
330
0
100
AcDbSymbolTable
 70
     0
  0
ENDTAB
  0
TABLE
  2
UCS
  5
7
330
0
100
AcDbSymbolTable
 70
     0
  0
ENDTAB
  0
TABLE
  2
APPID
  5
9
330
0
100
AcDbSymbolTable
 70
    28
  0
APPID
  5
11
330
9
100
AcDbSymbolTableRecord
100
AcDbRegAppTableRecord
  2
ACAD
 70
     0
  0
APPID
  5
22D4
330
9
100
AcDbSymbolTableRecord
100
AcDbRegAppTableRecord
  2
GENIUS_GENOENT_13
 70
     0
  0
APPID
  5
22D5
330
9
100
AcDbSymbolTableRecord
100
AcDbRegAppTableRecord
  2
GENIUS_GENODEF_13
 70
     0
  0
APPID
  5
22D6
330
9
100
AcDbSymbolTableRecord
100
AcDbRegAppTableRecord
  2
GENIUS_GENOBJ-N-HTC_13
 70
     0
  0
APPID
  5
22D7
330
9
100
AcDbSymbolTableRecord
100
AcDbRegAppTableRecord
  2
GENIUS_GENHATCH_13
 70
     0
  0
APPID
  5
22D8
330
9
100
AcDbSymbolTableRecord
100
AcDbRegAppTableRecord
  2
GENIUS_GENBH_13
 70
     0
  0
APPID
  5
22D9
330
9
100
AcDbSymbolTableRecord
100
AcDbRegAppTableRecord
  2
GENIUS_GENOBJ_13
 70
     0
  0
APPID
  5
22DA
330
9
100
AcDbSymbolTableRecord
100
AcDbRegAppTableRecord
  2
GENIUS_GENOLIS_13
 70
     0
  0
APPID
  5
22DB
330
9
100
AcDbSymbolTableRecord
100
AcDbRegAppTableRecord
  2
GENIUS_GENOREF_13
 70
     0
  0
APPID
  5
22DC
330
9
100
AcDbSymbolTableRecord
100
AcDbRegAppTableRecord
  2
GENIUS_GENOBJ-NBEHI-BHF_13
 70
     0
  0
APPID
  5
22DD
330
9
100
AcDbSymbolTableRecord
100
AcDbRegAppTableRecord
  2
GENIUS_GENOBJ-NBEHI-BHB_13
 70
     0
  0
APPID
  5
22DE
330
9
100
AcDbSymbolTableRecord
100
AcDbRegAppTableRecord
  2
GENIUS_GENOBJ-F-PART_13
 70
     0
  0
APPID
  5
22DF
330
9
100
AcDbSymbolTableRecord
100
AcDbRegAppTableRecord
  2
GENIUS_GEFSTDP_13
 70
     0
  0
APPID
  5
22E0
330
9
100
AcDbSymbolTableRecord
100
AcDbRegAppTableRecord
  2
GENIUS_GENOBJ-N-RSSYM_13
 70
     0
  0
APPID
  5
22E1
330
9
100
AcDbSymbolTableRecord
100
AcDbRegAppTableRecord
  2
GENIUS_GENSYMENT_13
 70
     0
  0
APPID
  5
22E2
330
9
100
AcDbSymbolTableRecord
100
AcDbRegAppTableRecord
  2
GENIUS_GENOBJ-N-CEN_13
 70
     0
  0
APPID
  5
3521
330
9
100
AcDbSymbolTableRecord
100
AcDbRegAppTableRecord
  2
ACAD_MLEADERVER
 70
     0
  0
APPID
  5
3530
330
9
100
AcDbSymbolTableRecord
100
AcDbRegAppTableRecord
  2
MCAD_NO_VIS
 70
     0
  0
APPID
  5
3531
330
9
100
AcDbSymbolTableRecord
100
AcDbRegAppTableRecord
  2
ACAD_TEMP_GRAPHIC
 70
     0
  0
APPID
  5
3561
330
9
100
AcDbSymbolTableRecord
100
AcDbRegAppTableRecord
  2
AD_DRAW
 70
     0
  0
APPID
  5
3564
330
9
100
AcDbSymbolTableRecord
100
AcDbRegAppTableRecord
  2
ACATTRIBSERVICES
 70
     0
  0
APPID
  5
3585
330
9
100
AcDbSymbolTableRecord
100
AcDbRegAppTableRecord
  2
DESIGNERASSEMBLIES
 70
     0
  0
APPID
  5
358B
330
9
100
AcDbSymbolTableRecord
100
AcDbRegAppTableRecord
  2
ACADM_DIM_EDIT
 70
     0
  0
APPID
  5
358C
330
9
100
AcDbSymbolTableRecord
100
AcDbRegAppTableRecord
  2
AMDT_DM_ADJ
 70
     0
  0
APPID
  5
3615
330
9
100
AcDbSymbolTableRecord
100
AcDbRegAppTableRecord
  2
ACAD_DSTYLE_DIMJOGGED_JOGANGLE_SYMBOL
 70
     0
  0
APPID
  5
3616
330
9
100
AcDbSymbolTableRecord
100
AcDbRegAppTableRecord
  2
ACAD_DSTYLE_DIM_LINETYPE
 70
     0
  0
APPID
  5
3617
330
9
100
AcDbSymbolTableRecord
100
AcDbRegAppTableRecord
  2
ACAD_DSTYLE_DIM_EXT1_LINETYPE
 70
     0
  0
APPID
  5
3618
330
9
100
AcDbSymbolTableRecord
100
AcDbRegAppTableRecord
  2
ACAD_DSTYLE_DIM_EXT2_LINETYPE
 70
     0
  0
ENDTAB
  0
TABLE
  2
DIMSTYLE
  5
A
330
0
100
AcDbSymbolTable
 70
     8
100
AcDbDimStyleTable
 71
     0
  0
DIMSTYLE
105
24
330
A
100
AcDbSymbolTableRecord
100
AcDbDimStyleTableRecord
  2
GEN-ISO
 70
     0
 40
2.0
 41
2.0
 42
1.0
 43
4.0
 44
0.5
 47
0.1
 48
0.1
 73
     0
 74
     0
 77
     1
 78
     8
140
4.0
141
-2.0
147
0.7
172
     1
178
   256
271
     2
272
     5
283
     0
284
     8
285
     8
286
     8
340
10
  0
DIMSTYLE
105
35A3
102
{ACAD_REACTORS
330
3592
102
}
330
A
100
AcDbSymbolTableRecord
100
AcDbDimStyleTableRecord
  2
AM_DIN
 70
     0
  4
"
 41
3.5
 42
1.0
 43
10.0
 44
1.0
 47
0.1
 48
0.1
 73
     0
 74
     0
 77
     1
 78
     8
 79
     2
140
3.5
141
0.0
143
0.0393701
146
0.71
147
1.5
172
     1
176
   256
177
   256
178
     2
271
     2
272
     3
274
     4
283
     0
284
     8
340
10
371
    -1
372
    -1
1001
ACAD_DSTYLE_DIMJOGGED_JOGANGLE_SYMBOL
1070
   384
1040
1.570796326794896
1001
ACAD_DSTYLE_DIM_LINETYPE
1070
   380
1005
12
1001
ACAD_DSTYLE_DIM_EXT1_LINETYPE
1070
   381
1005
12
1001
ACAD_DSTYLE_DIM_EXT2_LINETYPE
1070
   382
1005
12
  0
DIMSTYLE
105
35B3
330
A
100
AcDbSymbolTableRecord
100
AcDbDimStyleTableRecord
  2
AM_DIN$3
 70
     0
  4
"
 41
3.5
 42
1.0
 43
10.0
 44
1.0
 47
0.1
 48
0.1
 73
     0
 77
     1
 78
     8
 79
     2
140
3.5
141
0.0
143
0.0393701
146
0.71
147
1.5
176
   256
177
   256
178
     2
271
     2
272
     3
274
     4
283
     0
284
     8
288
     1
289
     0
340
10
371
    -1
372
    -1
1001
ACAD_DSTYLE_DIMJOGGED_JOGANGLE_SYMBOL
1070
   384
1040
1.570796326794896
1001
ACAD_DSTYLE_DIM_LINETYPE
1070
   380
1005
12
1001
ACAD_DSTYLE_DIM_EXT1_LINETYPE
1070
   381
1005
12
1001
ACAD_DSTYLE_DIM_EXT2_LINETYPE
1070
   382
1005
12
  0
DIMSTYLE
105
35B4
330
A
100
AcDbSymbolTableRecord
100
AcDbDimStyleTableRecord
  2
AM_DIN$4
 70
     0
  4
"
 41
3.5
 42
1.0
 43
10.0
 44
1.0
 47
0.1
 48
0.1
 73
     0
 77
     1
 78
     8
 79
     2
140
3.5
141
0.0
143
0.0393701
146
0.71
147
1.5
176
   256
177
   256
178
     2
271
     2
272
     3
274
     4
283
     0
284
     8
288
     1
289
     0
340
10
371
    -1
372
    -1
1001
ACAD_DSTYLE_DIMJOGGED_JOGANGLE_SYMBOL
1070
   384
1040
1.570796326794896
1001
ACAD_DSTYLE_DIM_LINETYPE
1070
   380
1005
12
1001
ACAD_DSTYLE_DIM_EXT1_LINETYPE
1070
   381
1005
12
1001
ACAD_DSTYLE_DIM_EXT2_LINETYPE
1070
   382
1005
12
  0
DIMSTYLE
105
35B5
330
A
100
AcDbSymbolTableRecord
100
AcDbDimStyleTableRecord
  2
AM_DIN$6
 70
     0
  4
"
 41
3.5
 42
1.0
 43
10.0
 44
1.0
 47
0.1
 48
0.1
 73
     0
 74
     0
 78
     8
 79
     2
140
3.5
141
0.0
143
0.0393701
146
0.71
147
1.5
172
     1
176
   256
177
   256
178
     2
271
     2
272
     3
274
     4
283
     0
284
     8
340
10
371
    -1
372
    -1
1001
ACAD_DSTYLE_DIMJOGGED_JOGANGLE_SYMBOL
1070
   384
1040
1.570796326794896
1001
ACAD_DSTYLE_DIM_LINETYPE
1070
   380
1005
12
1001
ACAD_DSTYLE_DIM_EXT1_LINETYPE
1070
   381
1005
12
1001
ACAD_DSTYLE_DIM_EXT2_LINETYPE
1070
   382
1005
12
  0
DIMSTYLE
105
35B6
330
A
100
AcDbSymbolTableRecord
100
AcDbDimStyleTableRecord
  2
AM_DIN$7
 70
     0
  4
"
 41
3.5
 42
1.0
 43
10.0
 44
1.0
 47
0.1
 48
0.1
 73
     0
 74
     0
 77
     1
 78
     8
 79
     2
140
3.5
141
0.0
143
0.0393701
146
0.71
147
1.5
172
     1
176
   256
177
   256
178
     2
271
     2
272
     3
274
     4
283
     0
284
     8
340
10
371
    -1
372
    -1
1001
ACAD_DSTYLE_DIMJOGGED_JOGANGLE_SYMBOL
1070
   384
1040
1.570796326794896
1001
ACAD_DSTYLE_DIM_LINETYPE
1070
   380
1005
12
1001
ACAD_DSTYLE_DIM_EXT1_LINETYPE
1070
   381
1005
12
1001
ACAD_DSTYLE_DIM_EXT2_LINETYPE
1070
   382
1005
12
  0
DIMSTYLE
105
35B7
330
A
100
AcDbSymbolTableRecord
100
AcDbDimStyleTableRecord
  2
AM_DIN$SF
 70
     0
  4
"
 41
3.5
 42
1.0
 43
10.0
 44
1.0
 47
0.1
 48
0.1
 73
     0
 74
     0
 75
     1
 76
     1
 77
     1
 78
     8
 79
     2
140
3.5
141
0.0
143
0.0393701
146
0.71
147
1.5
172
     1
176
   256
177
   256
178
     2
271
     2
272
     3
274
     4
283
     0
284
     8
340
10
371
    -1
372
    -1
1001
ACAD_DSTYLE_DIMJOGGED_JOGANGLE_SYMBOL
1070
   384
1040
1.570796326794896
1001
ACAD_DSTYLE_DIM_LINETYPE
1070
   380
1005
12
1001
ACAD_DSTYLE_DIM_EXT1_LINETYPE
1070
   381
1005
12
1001
ACAD_DSTYLE_DIM_EXT2_LINETYPE
1070
   382
1005
12
  0
DIMSTYLE
105
35BC
330
A
100
AcDbSymbolTableRecord
100
AcDbDimStyleTableRecord
  2
AM_DIN$SH
 70
     0
  4
"
 41
3.5
 42
1.0
 43
10.0
 44
1.0
 47
0.1
 48
0.1
 73
     0
 74
     0
 75
     1
 76
     1
 77
     1
 78
     8
 79
     2
140
3.5
141
0.0
143
0.0393701
144
2.0
146
0.71
147
1.5
172
     1
173
     1
176
   256
177
   256
178
     2
271
     2
272
     3
274
     4
283
     0
284
     8
340
10
343
35B8
371
    -1
372
    -1
1001
ACAD_DSTYLE_DIMJOGGED_JOGANGLE_SYMBOL
1070
   384
1040
1.570796326794896
1001
ACAD_DSTYLE_DIM_LINETYPE
1070
   380
1005
12
1001
ACAD_DSTYLE_DIM_EXT1_LINETYPE
1070
   381
1005
12
1001
ACAD_DSTYLE_DIM_EXT2_LINETYPE
1070
   382
1005
12
  0
ENDTAB
  0
TABLE
  2
BLOCK_RECORD
  5
1
330
0
100
AcDbSymbolTable
 70
    29
  0
BLOCK_RECORD
  5
18
330
1
100
AcDbSymbolTableRecord
100
AcDbBlockTableRecord
  2
*MODEL_SPACE
340
3524
  0
BLOCK_RECORD
  5
15
330
1
100
AcDbSymbolTableRecord
100
AcDbBlockTableRecord
  2
*PAPER_SPACE
340
3525
  0
BLOCK_RECORD
  5
35B8
330
1
100
AcDbSymbolTableRecord
100
AcDbBlockTableRecord
  2
GENAXEH
340
0
  0
ENDTAB
  0
ENDSEC
  0
SECTION
  2
BLOCKS
  0
BLOCK
  5
44
330
18
100
AcDbEntity
  8
0
100
AcDbBlockBegin
  2
*MODEL_SPACE
 70
     0
 10
0.0
 20
0.0
 30
0.0
  3
*MODEL_SPACE
  1

  0
ENDBLK
  5
45
330
18
100
AcDbEntity
  8
0
100
AcDbBlockEnd
  0
BLOCK
  5
42
330
15
100
AcDbEntity
 67
     1
  8
0
100
AcDbBlockBegin
  2
*PAPER_SPACE
 70
     0
 10
0.0
 20
0.0
 30
0.0
  3
*PAPER_SPACE
  1

  0
ENDBLK
  5
43
330
15
100
AcDbEntity
 67
     1
  8
0
100
AcDbBlockEnd
  0
BLOCK
  5
35BA
330
35B8
100
AcDbEntity
  8
0
100
AcDbBlockBegin
  2
GENAXEH
 70
     0
 10
0.0
 20
0.0
 30
0.0
  3
GENAXEH
  1

  0
LINE
  5
35B9
330
35B8
100
AcDbEntity
  8
0
100
AcDbLine
 10
-1.0
 20
0.0
 30
0.0
 11
1.0
 21
0.0
 31
0.0
  0
ENDBLK
  5
35BB
330
35B8
100
AcDbEntity
  8
0
100
AcDbBlockEnd
  0
ENDSEC
  0
SECTION
  2
ENTITIES
  0
LINE
  5
1CE1
330
18
100
AcDbEntity
  8
7A
 48
2.0
100
AcDbLine
 10
109.648995156376
 20
505.1915137540657
 30
0.0
 11
161.9264568201288
 21
505.1915137540657
 31
0.0
  0
LINE
  5
1CE2
330
18
100
AcDbEntity
  8
0
 48
2.0
100
AcDbLine
 10
109.648995156376
 20
563.1915131160657
 30
0.0
 11
328.1489928078764
 21
563.1915131160657
 31
0.0
  0
LINE
  5
1CE3
330
18
100
AcDbEntity
  8
0
 48
2.0
100
AcDbLine
 10
109.648995156376
 20
447.1915143920656
 30
0.0
 11
328.1489928078764
 21
447.1915143920656
 31
0.0
  0
LINE
  5
1CE4
330
18
100
AcDbEntity
  8
0
 48
2.0
100
AcDbLine
 10
109.648995156376
 20
563.1915131160657
 30
0.0
 11
109.648995156376
 21
447.1915143920656
 31
0.0
  0
LINE
  5
1CE5
330
18
100
AcDbEntity
  8
0
 48
2.0
100
AcDbLine
 10
126.1489950298762
 20
563.1915131160657
 30
0.0
 11
126.1489950298762
 21
447.1915143920656
 31
0.0
  0
LINE
  5
1CE6
330
18
100
AcDbEntity
  8
0
 48
2.0
100
AcDbLine
 10
320.1489928958764
 20
563.1915131160657
 30
0.0
 11
320.1489928958763
 21
447.1915143920656
 31
0.0
  0
LINE
  5
1CE7
330
18
100
AcDbEntity
  8
0
 48
2.0
100
AcDbLine
 10
103.6489952223761
 20
542.2915133459655
 30
0.0
 11
103.6489952223761
 21
559.6120212311289
 31
0.0
  0
LINE
  5
1CEA
330
18
100
AcDbEntity
  8
7A
 48
2.0
100
AcDbLine
 10
98.64470842366428
 20
526.7004866097267
 30
0.0
 11
93.07643643440702
 21
557.7204463240653
 31
0.0
  0
LINE
  5
1CEB
330
18
100
AcDbEntity
  8
7A
 48
2.0
100
AcDbLine
 10
96.1840385021801
 20
526.2587813488307
 30
0.0
 11
90.61576651292284
 21
557.2787410631693
 31
0.0
  0
ARC
  5
1CEC
330
18
100
AcDbEntity
  8
0
 48
2.0
100
AcDbCircle
 10
139.2434288385666
 20
550.9517672885472
 30
0.0
 40
35.59443361619045
100
AcDbArc
 50
165.9183959270164
 51
194.0816040729835
  0
ARC
  5
1CED
330
18
100
AcDbEntity
  8
0
 48
2.0
100
AcDbCircle
 10
74.05456154018565
 20
550.9517672885472
 30
0.0
 40
35.59443361619045
100
AcDbArc
 50
345.9183959270164
 51
14.08160407298357
  0
LINE
  5
1CF0
330
18
100
AcDbEntity
  8
7A
 48
2.0
100
AcDbLine
 10
109.648995156376
 20
542.2915133459656
 30
0.0
 11
87.61601690002454
 21
542.2915133459656
 31
0.0
  0
LINE
  5
1CF1
330
18
100
AcDbEntity
  8
7A
 48
2.0
100
AcDbLine
 10
109.648995156376
 20
468.0915141621656
 30
0.0
 11
87.61601690002454
 21
468.0915141621656
 31
0.0
  0
LINE
  5
1CF2
330
18
100
AcDbEntity
  8
0
 48
2.0
100
AcDbLine
 10
95.72939763247223
 20
528.7915134944658
 30
0.0
 11
87.61601690002454
 21
528.7915134944658
 31
0.0
  0
LINE
  5
1CF3
330
18
100
AcDbEntity
  8
5
 48
2.0
100
AcDbLine
 10
95.50501500998962
 20
530.0415134807158
 30
0.0
 11
87.61601690002454
 21
530.0415134807158
 31
0.0
  0
LINE
  5
1CF4
330
18
100
AcDbEntity
  8
7A
 48
2.0
100
AcDbLine
 10
96.1840385021801
 20
452.0587821650307
 30
0.0
 11
90.61576651292284
 21
483.0787418793692
 31
0.0
  0
LINE
  5
1CF5
330
18
100
AcDbEntity
  8
5
 48
2.0
100
AcDbLine
 10
95.50501500998962
 20
455.8415142969157
 30
0.0
 11
87.61601690002454
 21
455.8415142969157
 31
0.0
  0
LINE
  5
1CF6
330
18
100
AcDbEntity
  8
0
 48
2.0
100
AcDbLine
 10
95.72939763247223
 20
454.5915143106657
 30
0.0
 11
87.61601690002454
 21
454.5915143106657
 31
0.0
  0
LINE
  5
1CF7
330
18
100
AcDbEntity
  8
0
 48
2.0
100
AcDbLine
 10
87.61601690002454
 20
454.5915143106657
 30
0.0
 11
87.61601690002454
 21
481.5915140136656
 31
0.0
  0
LINE
  5
1CF8
330
18
100
AcDbEntity
  8
5
 48
2.0
100
AcDbLine
 10
91.10711560933077
 20
480.3415140274156
 30
0.0
 11
87.61601690002454
 21
480.3415140274156
 31
0.0
  0
LINE
  5
1CF9
330
18
100
AcDbEntity
  8
0
 48
2.0
100
AcDbLine
 10
90.88273298684816
 20
481.5915140136657
 30
0.0
 11
87.61601690002454
 21
481.5915140136656
 31
0.0
  0
LINE
  5
1CFA
330
18
100
AcDbEntity
  8
0
 48
2.0
100
AcDbLine
 10
87.61601690002454
 20
528.7915134944658
 30
0.0
 11
87.61601690002454
 21
555.7915131974656
 31
0.0
  0
LINE
  5
1CFB
330
18
100
AcDbEntity
  8
0
 48
2.0
100
AcDbLine
 10
90.88273298684816
 20
555.7915131974657
 30
0.0
 11
87.61601690002454
 21
555.7915131974656
 31
0.0
  0
LINE
  5
1CFC
330
18
100
AcDbEntity
  8
5
 48
2.0
100
AcDbLine
 10
91.10711560933077
 20
554.5415132112156
 30
0.0
 11
87.61601690002454
 21
554.5415132112156
 31
0.0
  0
ARC
  5
1CFD
330
18
100
AcDbEntity
  8
0
 48
2.0
100
AcDbCircle
 10
74.05456154018565
 20
476.7517681047472
 30
0.0
 40
35.59443361619045
100
AcDbArc
 50
345.9183959270164
 51
14.08160407298357
  0
ARC
  5
1CFE
330
18
100
AcDbEntity
  8
0
 48
2.0
100
AcDbCircle
 10
139.2434288385666
 20
476.7517681047472
 30
0.0
 40
35.59443361619045
100
AcDbArc
 50
165.9183959270164
 51
194.0816040729835
  0
LINE
  5
1CFF
330
18
100
AcDbEntity
  8
0
 48
2.0
100
AcDbLine
 10
103.6489952223761
 20
468.0915141621656
 30
0.0
 11
103.6489952223761
 21
485.4120220473288
 31
0.0
  0
ARC
  5
1D00
330
18
100
AcDbEntity
  8
0
 48
2.0
100
AcDbCircle
 10
139.2434288385666
 20
459.431260219584
 30
0.0
 40
35.59443361619045
100
AcDbArc
 50
165.9183959270164
 51
194.0816040729835
  0
LINE
  5
1D01
330
18
100
AcDbEntity
  8
0
 48
2.0
100
AcDbLine
 10
109.648995156376
 20
450.7710062770025
 30
0.0
 11
103.6489952223761
 21
450.7710062770025
 31
0.0
  0
LINE
  5
1D02
330
18
100
AcDbEntity
  8
7A
 48
2.0
100
AcDbLine
 10
98.64470842366428
 20
452.5004874259268
 30
0.0
 11
93.07643643440702
 21
483.5204471402653
 31
0.0
  0
LINE
  5
1D03
330
18
100
AcDbEntity
  8
0
 48
2.0
100
AcDbLine
 10
103.6489952223761
 20
468.0915141621656
 30
0.0
 11
103.6489952223761
 21
450.7710062770025
 31
0.0
  0
LINE
  5
1D04
330
18
100
AcDbEntity
  8
5
 48
2.0
100
AcDbLine
 10
103.6489952223761
 20
455.8415142969157
 30
0.0
 11
98.04497372018932
 21
455.8415142969157
 31
0.0
  0
LINE
  5
1D05
330
18
100
AcDbEntity
  8
0
 48
2.0
100
AcDbLine
 10
103.6489952223761
 20
454.5915143106657
 30
0.0
 11
98.26935634267181
 21
454.5915143106657
 31
0.0
  0
LINE
  5
1D06
330
18
100
AcDbEntity
  8
5
 48
2.0
100
AcDbLine
 10
103.6489952223761
 20
480.3415140274156
 30
0.0
 11
93.64707431953036
 21
480.3415140274156
 31
0.0
  0
LINE
  5
1D07
330
18
100
AcDbEntity
  8
0
 48
2.0
100
AcDbLine
 10
103.6489952223761
 20
481.5915140136658
 30
0.0
 11
93.42269169704776
 21
481.5915140136657
 31
0.0
  0
ARC
  5
1D08
330
18
100
AcDbEntity
  8
0
 48
2.0
100
AcDbCircle
 10
74.05456154018565
 20
459.431260219584
 30
0.0
 40
35.59443361619045
100
AcDbArc
 50
345.9183959270164
 51
14.08160407298356
  0
LINE
  5
1D09
330
18
100
AcDbEntity
  8
0
 48
2.0
100
AcDbLine
 10
108.5793889272615
 20
468.0915141621656
 30
0.0
 11
104.7186014514906
 21
468.0915141621656
 31
0.0
  0
LINE
  5
1D0A
330
18
100
AcDbEntity
  8
0
 48
2.0
100
AcDbLine
 10
109.648995156376
 20
485.4120220473288
 30
0.0
 11
103.6489952223761
 21
485.4120220473288
 31
0.0
  0
LINE
  5
1D0B
330
18
100
AcDbEntity
  8
0
 48
2.0
100
AcDbLine
 10
109.648995156376
 20
524.9710054608024
 30
0.0
 11
103.6489952223761
 21
524.9710054608024
 31
0.0
  0
ARC
  5
1D0C
330
18
100
AcDbEntity
  8
0
 48
2.0
100
AcDbCircle
 10
139.2434288385666
 20
533.6312594033841
 30
0.0
 40
35.59443361619045
100
AcDbArc
 50
165.9183959270164
 51
194.0816040729835
  0
LINE
  5
1D0D
330
18
100
AcDbEntity
  8
0
 48
2.0
100
AcDbLine
 10
103.6489952223761
 20
542.2915133459656
 30
0.0
 11
103.6489952223761
 21
524.9710054608024
 31
0.0
  0
LINE
  5
1D0E
330
18
100
AcDbEntity
  8
0
 48
2.0
100
AcDbLine
 10
103.6489952223761
 20
528.7915134944658
 30
0.0
 11
98.26935634267181
 21
528.7915134944658
 31
0.0
  0
LINE
  5
1D0F
330
18
100
AcDbEntity
  8
5
 48
2.0
100
AcDbLine
 10
103.6489952223761
 20
530.0415134807158
 30
0.0
 11
98.04497372018932
 21
530.0415134807158
 31
0.0
  0
LINE
  5
1D10
330
18
100
AcDbEntity
  8
0
 48
2.0
100
AcDbLine
 10
103.6489952223761
 20
555.7915131974657
 30
0.0
 11
93.42269169704776
 21
555.7915131974657
 31
0.0
  0
LINE
  5
1D11
330
18
100
AcDbEntity
  8
5
 48
2.0
100
AcDbLine
 10
103.6489952223761
 20
554.5415132112156
 30
0.0
 11
93.64707431953036
 21
554.5415132112156
 31
0.0
  0
ARC
  5
1D12
330
18
100
AcDbEntity
  8
0
 48
2.0
100
AcDbCircle
 10
74.05456154018565
 20
533.6312594033841
 30
0.0
 40
35.59443361619045
100
AcDbArc
 50
345.9183959270164
 51
14.08160407298356
  0
LINE
  5
1D13
330
18
100
AcDbEntity
  8
0
 48
2.0
100
AcDbLine
 10
108.5793889272615
 20
542.2915133459656
 30
0.0
 11
104.7186014514906
 21
542.2915133459656
 31
0.0
  0
LINE
  5
1D83
330
18
100
AcDbEntity
  8
0
 48
2.0
100
AcDbLine
 10
109.648995156376
 20
559.6120212311289
 30
0.0
 11
103.6489952223761
 21
559.6120212311289
 31
0.0
  0
LINE
  5
1D84
330
18
100
AcDbEntity
  8
0
 48
2.0
100
AcDbLine
 10
328.1489928078764
 20
563.1915131160655
 30
0.0
 11
328.1489928078764
 21
447.1915143920656
 31
0.0
  0
ARC
  5
1DBE
330
18
100
AcDbEntity
  8
5
 48
2.0
100
AcDbCircle
 10
193.1489939628763
 20
535.1915137540657
 30
0.0
 40
5.0
100
AcDbArc
 50
172.405357
 51
104.931417
  0
LINE
  5
1DBF
330
18
100
AcDbEntity
  8
7A
 48
2.0
100
AcDbLine
 10
193.1489939628763
 20
527.6915137540656
 30
0.0
 11
193.1489939628763
 21
542.6915137540657
 31
0.0
  0
CIRCLE
  5
1DC0
330
18
100
AcDbEntity
  8
0
 48
2.0
100
AcDbCircle
 10
193.1489939628763
 20
535.1915137540657
 30
0.0
 40
4.187999999999999
  0
LINE
  5
1DC1
330
18
100
AcDbEntity
  8
7A
 48
2.0
100
AcDbLine
 10
185.6489939628763
 20
535.1915137540657
 30
0.0
 11
200.6489939628764
 21
535.1915137540657
 31
0.0
  0
CIRCLE
  5
1DC2
330
18
100
AcDbEntity
  8
0
 48
2.0
100
AcDbCircle
 10
253.1489939628764
 20
535.1915137540657
 30
0.0
 40
4.187999999999999
  0
LINE
  5
1DC3
330
18
100
AcDbEntity
  8
7A
 48
2.0
100
AcDbLine
 10
245.6489939628764
 20
535.1915137540657
 30
0.0
 11
260.6489939628764
 21
535.1915137540657
 31
0.0
  0
ARC
  5
1DC4
330
18
100
AcDbEntity
  8
5
 48
2.0
100
AcDbCircle
 10
253.1489939628764
 20
535.1915137540657
 30
0.0
 40
5.0
100
AcDbArc
 50
172.405357
 51
104.931417
  0
LINE
  5
1DC5
330
18
100
AcDbEntity
  8
7A
 48
2.0
100
AcDbLine
 10
253.1489939628764
 20
527.6915137540656
 30
0.0
 11
253.1489939628764
 21
542.6915137540657
 31
0.0
  0
CIRCLE
  5
1DC6
330
18
100
AcDbEntity
  8
0
 48
2.0
100
AcDbCircle
 10
193.1489939628763
 20
475.1915137540656
 30
0.0
 40
4.187999999999999
  0
LINE
  5
1DC7
330
18
100
AcDbEntity
  8
7A
 48
2.0
100
AcDbLine
 10
185.6489939628763
 20
475.1915137540656
 30
0.0
 11
200.6489939628764
 21
475.1915137540656
 31
0.0
  0
ARC
  5
1DC8
330
18
100
AcDbEntity
  8
5
 48
2.0
100
AcDbCircle
 10
193.1489939628763
 20
475.1915137540656
 30
0.0
 40
5.0
100
AcDbArc
 50
172.405357
 51
104.931417
  0
LINE
  5
1DC9
330
18
100
AcDbEntity
  8
7A
 48
2.0
100
AcDbLine
 10
193.1489939628763
 20
467.6915137540657
 30
0.0
 11
193.1489939628763
 21
482.6915137540656
 31
0.0
  0
ARC
  5
1DCA
330
18
100
AcDbEntity
  8
5
 48
2.0
100
AcDbCircle
 10
253.1489939628764
 20
475.1915137540656
 30
0.0
 40
5.0
100
AcDbArc
 50
172.405357
 51
104.931417
  0
LINE
  5
1DCB
330
18
100
AcDbEntity
  8
7A
 48
2.0
100
AcDbLine
 10
245.6489939628764
 20
475.1915137540656
 30
0.0
 11
260.6489939628764
 21
475.1915137540656
 31
0.0
  0
CIRCLE
  5
1DCC
330
18
100
AcDbEntity
  8
0
 48
2.0
100
AcDbCircle
 10
253.1489939628764
 20
475.1915137540656
 30
0.0
 40
4.187999999999999
  0
LINE
  5
1DCD
330
18
100
AcDbEntity
  8
7A
 48
2.0
100
AcDbLine
 10
253.1489939628764
 20
467.6915137540657
 30
0.0
 11
253.1489939628764
 21
482.6915137540656
 31
0.0
  0
CIRCLE
  5
1DCE
330
18
100
AcDbEntity
  8
0
 48
2.0
100
AcDbCircle
 10
223.1489939628764
 20
475.1915137540656
 30
0.0
 40
5.0
  0
LINE
  5
1DCF
330
18
100
AcDbEntity
  8
7A
 48
2.0
100
AcDbLine
 10
215.6489939628764
 20
475.1915137540656
 30
0.0
 11
230.6489939628764
 21
475.1915137540656
 31
0.0
  0
LINE
  5
1DD1
330
18
100
AcDbEntity
  8
7A
 48
2.0
100
AcDbLine
 10
223.1489939628764
 20
444.2383561515574
 30
0.0
 11
223.1489939628764
 21
565.9996795667657
 31
0.0
  0
LINE
  5
1DD2
330
18
100
AcDbEntity
  8
7A
 48
2.0
100
AcDbLine
 10
215.6489939628764
 20
535.1915137540657
 30
0.0
 11
230.6489939628764
 21
535.1915137540657
 31
0.0
  0
CIRCLE
  5
1DD3
330
18
100
AcDbEntity
  8
0
 48
2.0
100
AcDbCircle
 10
223.1489939628764
 20
535.1915137540657
 30
0.0
 40
5.0
  0
MTEXT
  5
2162
330
18
100
AcDbEntity
  8
8
 48
2.0
100
AcDbMText
 10
266.7584797504647
 20
251.7991200365577
 30
0.0
 40
8.0
 41
9.1568
 71
     1
 72
     5
  1
A
 73
     1
 44
1.0
1001
ACAD
1000
MTEXTBEGIN
1070
    73
1070
     1
1070
    44
1040
1.0
1070
    74
1070
     0
1000
MTEXTEND
  0
MTEXT
  5
2163
330
18
100
AcDbEntity
  8
8
 48
2.0
100
AcDbMText
 10
306.5960858001722
 20
251.7991200365577
 30
0.0
 40
8.0
 41
9.1568
 71
     1
 72
     5
  1
B
 73
     1
 44
1.0
1001
ACAD
1000
MTEXTBEGIN
1070
    73
1070
     1
1070
    44
1040
1.0
1070
    74
1070
     0
1000
MTEXTEND
  0
LINE
  5
2744
330
18
100
AcDbEntity
  8
6
 48
2.0
100
AcDbLine
 10
636.5185175575755
 20
-166.1029458713777
 30
0.0
 11
-19.47896957348439
 21
-166.1029458713777
 31
0.0
  0
LINE
  5
2745
330
18
100
AcDbEntity
  8
6
 48
2.0
100
AcDbLine
 10
636.5185175575755
 20
-166.1029458713777
 30
0.0
 11
636.5185175575755
 21
761.6649287854064
 31
0.0
  0
LINE
  5
2747
330
18
100
AcDbEntity
  8
6
 48
2.0
100
AcDbLine
 10
501.6885611405768
 20
-166.1029458713777
 30
0.0
 11
501.6885611405768
 21
761.6649287854064
 31
0.0
  0
LINE
  5
2748
330
18
100
AcDbEntity
  8
6
 48
2.0
100
AcDbLine
 10
-19.47896957348439
 20
-166.1029458713777
 30
0.0
 11
-19.47896957348439
 21
761.6649287854064
 31
0.0
  0
LINE
  5
2749
330
18
100
AcDbEntity
  8
6
 48
2.0
100
AcDbLine
 10
-19.47896957348439
 20
614.2336263555076
 30
0.0
 11
636.5185175575755
 21
614.2336263555076
 31
0.0
  0
LINE
  5
274A
330
18
100
AcDbEntity
  8
6
 48
2.0
100
AcDbLine
 10
-19.47896957348439
 20
761.6649287854064
 30
0.0
 11
636.5185175575755
 21
761.6649287854064
 31
0.0
  0
LINE
  5
2E21
330
18
100
AcDbEntity
  8
0
 48
2.0
100
AcDbLine
 10
103.6489952223762
 20
22.99075475585266
 30
0.0
 11
103.6489952223762
 21
40.31126264101589
 31
0.0
  0
LINE
  5
2E22
330
18
100
AcDbEntity
  8
0
 48
2.0
100
AcDbLine
 10
109.648995156376
 20
40.31126264101589
 30
0.0
 11
103.6489952223762
 21
40.31126264101589
 31
0.0
  0
LINE
  5
2E23
330
18
100
AcDbEntity
  8
0
 48
2.0
100
AcDbLine
 10
103.6489952223762
 20
22.99075475585272
 30
0.0
 11
103.6489952223762
 21
5.670246870689538
 31
0.0
  0
LINE
  5
2E24
330
18
100
AcDbEntity
  8
0
 48
2.0
100
AcDbLine
 10
108.5793889272617
 20
22.99075475585272
 30
0.0
 11
104.7186014514907
 21
22.99075475585272
 31
0.0
  0
LINE
  5
2E25
330
18
100
AcDbEntity
  8
0
 48
2.0
100
AcDbLine
 10
109.648995156376
 20
5.670246870689538
 30
0.0
 11
103.6489952223762
 21
5.670246870689538
 31
0.0
  0
ARC
  5
2E26
330
18
100
AcDbEntity
  8
0
 48
2.0
100
AcDbCircle
 10
74.05456154018577
 20
14.33050081327116
 30
0.0
 40
35.59443361619045
100
AcDbArc
 50
345.9183959270164
 51
14.08160407298356
  0
ARC
  5
2E27
330
18
100
AcDbEntity
  8
0
 48
2.0
100
AcDbCircle
 10
139.2434288385666
 20
14.33050081327116
 30
0.0
 40
35.59443361619045
100
AcDbArc
 50
165.9183959270164
 51
194.0816040729835
  0
ARC
  5
2E28
330
18
100
AcDbEntity
  8
0
 48
2.0
100
AcDbCircle
 10
139.2434288385666
 20
31.65100869843434
 30
0.0
 40
35.59443361619045
100
AcDbArc
 50
165.9183959270164
 51
194.0816040729835
  0
ARC
  5
2E29
330
18
100
AcDbEntity
  8
0
 48
2.0
100
AcDbCircle
 10
74.05456154018577
 20
31.65100869843434
 30
0.0
 40
35.59443361619045
100
AcDbArc
 50
345.9183959270164
 51
14.08160407298357
  0
ARC
  5
2E2A
330
18
100
AcDbEntity
  8
0
 48
2.0
100
AcDbCircle
 10
74.05456154018577
 20
105.8510078822343
 30
0.0
 40
35.59443361619045
100
AcDbArc
 50
345.9183959270164
 51
14.08160407298357
  0
ARC
  5
2E2B
330
18
100
AcDbEntity
  8
0
 48
2.0
100
AcDbCircle
 10
139.2434288385666
 20
105.8510078822343
 30
0.0
 40
35.59443361619045
100
AcDbArc
 50
165.9183959270164
 51
194.0816040729835
  0
ARC
  5
2E2C
330
18
100
AcDbEntity
  8
0
 48
2.0
100
AcDbCircle
 10
139.2434288385666
 20
88.53049999707115
 30
0.0
 40
35.59443361619045
100
AcDbArc
 50
165.9183959270164
 51
194.0816040729835
  0
ARC
  5
2E2D
330
18
100
AcDbEntity
  8
0
 48
2.0
100
AcDbCircle
 10
74.05456154018577
 20
88.53049999707115
 30
0.0
 40
35.59443361619045
100
AcDbArc
 50
345.9183959270164
 51
14.08160407298356
  0
CIRCLE
  5
2E2E
330
18
100
AcDbEntity
  8
0
 48
2.0
100
AcDbCircle
 10
554.0039903501547
 20
279.8239935842274
 30
0.0
 40
14.99999983500004
  0
CIRCLE
  5
2E2F
330
18
100
AcDbEntity
  8
0
 48
2.0
100
AcDbCircle
 10
479.8039911663545
 20
279.8239935842274
 30
0.0
 40
14.99999983500004
  0
ARC
  5
2E30
330
18
100
AcDbEntity
  8
0
 48
2.0
100
AcDbCircle
 10
99.9594732409837
 20
265.5243890234998
 30
0.0
 40
9.689521915392592
100
AcDbArc
 50
330.5327010457903
 51
29.46729895421047
  0
ARC
  5
2E31
330
18
100
AcDbEntity
  8
0
 48
2.0
100
AcDbCircle
 10
113.0885171405187
 20
265.5243890234998
 30
0.0
 40
9.689521915392592
100
AcDbArc
 50
150.5327010457895
 51
209.4672989542097
  0
ARC
  5
2E32
330
18
100
AcDbEntity
  8
0
 48
2.0
100
AcDbCircle
 10
99.9594732409837
 20
294.1235981449551
 30
0.0
 40
9.689521915392592
100
AcDbArc
 50
330.5327010457895
 51
29.46729895420977
  0
ARC
  5
2E33
330
18
100
AcDbEntity
  8
0
 48
2.0
100
AcDbCircle
 10
113.0885171405187
 20
294.1235981449551
 30
0.0
 40
9.689521915392592
100
AcDbArc
 50
150.5327010457902
 51
209.4672989542105
  0
ARC
  5
2E34
330
18
100
AcDbEntity
  8
0
 48
2.0
100
AcDbCircle
 10
72.77111173740286
 20
279.8239935842274
 30
0.0
 40
36.8778834189732
100
AcDbArc
 50
345.0187038581809
 51
14.9812961418194
  0
ARC
  5
2E35
330
18
100
AcDbEntity
  8
0
 48
2.0
100
AcDbCircle
 10
140.2768786440994
 20
279.8239935842274
 30
0.0
 40
36.8778834189732
100
AcDbArc
 50
165.0187038581806
 51
194.9812961418191
  0
LINE
  5
2E46
330
18
100
AcDbEntity
  8
0
 48
2.0
100
AcDbLine
 10
95.72939763247223
 20
9.490754904352797
 30
0.0
 11
87.61601690002454
 21
9.490754904352797
 31
0.0
  0
LINE
  5
2E47
330
18
100
AcDbEntity
  8
5
 48
2.0
100
AcDbLine
 10
95.50501500998974
 20
10.74075489060271
 30
0.0
 11
87.61601690002454
 21
10.74075489060283
 31
0.0
  0
LINE
  5
2E48
330
18
100
AcDbEntity
  8
0
 48
2.0
100
AcDbLine
 10
90.88273298684816
 20
36.49075460735281
 30
0.0
 11
87.61601690002454
 21
36.49075460735275
 31
0.0
  0
LINE
  5
2E49
330
18
100
AcDbEntity
  8
5
 48
2.0
100
AcDbLine
 10
91.10711560933077
 20
35.24075462110273
 30
0.0
 11
87.61601690002454
 21
35.24075462110273
 31
0.0
  0
LINE
  5
2E4A
330
18
100
AcDbEntity
  8
7A
 48
2.0
100
AcDbLine
 10
98.64470842366428
 20
7.399728019613917
 30
0.0
 11
93.07643643440702
 21
38.41968773395251
 31
0.0
  0
LINE
  5
2E4B
330
18
100
AcDbEntity
  8
7A
 48
2.0
100
AcDbLine
 10
96.1840385021801
 20
6.958022758717788
 30
0.0
 11
90.61576651292297
 21
37.97798247305639
 31
0.0
  0
LINE
  5
2E4C
330
18
100
AcDbEntity
  8
0
 48
2.0
100
AcDbLine
 10
103.6489952223762
 20
36.49075460735287
 30
0.0
 11
93.42269169704776
 21
36.49075460735281
 31
0.0
  0
LINE
  5
2E4D
330
18
100
AcDbEntity
  8
0
 48
2.0
100
AcDbLine
 10
103.6489952223762
 20
9.490754904352797
 30
0.0
 11
98.26935634267194
 21
9.490754904352797
 31
0.0
  0
LINE
  5
2E4E
330
18
100
AcDbEntity
  8
0
 48
2.0
100
AcDbLine
 10
87.61601690002454
 20
9.490754904352797
 30
0.0
 11
87.61601690002454
 21
36.49075460735275
 31
0.0
  0
LINE
  5
2E4F
330
18
100
AcDbEntity
  8
5
 48
2.0
100
AcDbLine
 10
103.6489952223762
 20
10.74075489060283
 30
0.0
 11
98.04497372018932
 21
10.74075489060271
 31
0.0
  0
LINE
  5
2E50
330
18
100
AcDbEntity
  8
5
 48
2.0
100
AcDbLine
 10
103.6489952223762
 20
35.24075462110273
 30
0.0
 11
93.64707431953048
 21
35.24075462110273
 31
0.0
  0
LINE
  5
2E51
330
18
100
AcDbEntity
  8
5
 48
2.0
100
AcDbLine
 10
103.6489952223762
 20
109.4407538049027
 30
0.0
 11
93.64707431953048
 21
109.4407538049027
 31
0.0
  0
LINE
  5
2E52
330
18
100
AcDbEntity
  8
5
 48
2.0
100
AcDbLine
 10
103.6489952223762
 20
84.94075407440282
 30
0.0
 11
98.04497372018932
 21
84.94075407440282
 31
0.0
  0
LINE
  5
2E53
330
18
100
AcDbEntity
  8
0
 48
2.0
100
AcDbLine
 10
87.61601690002454
 20
83.6907540881528
 30
0.0
 11
87.61601690002454
 21
110.6907537911527
 31
0.0
  0
LINE
  5
2E54
330
18
100
AcDbEntity
  8
0
 48
2.0
100
AcDbLine
 10
103.6489952223762
 20
83.6907540881528
 30
0.0
 11
98.26935634267194
 21
83.6907540881528
 31
0.0
  0
LINE
  5
2E55
330
18
100
AcDbEntity
  8
0
 48
2.0
100
AcDbLine
 10
103.6489952223762
 20
110.6907537911528
 30
0.0
 11
93.42269169704776
 21
110.6907537911528
 31
0.0
  0
LINE
  5
2E56
330
18
100
AcDbEntity
  8
7A
 48
2.0
100
AcDbLine
 10
96.1840385021801
 20
81.15802194251784
 30
0.0
 11
90.61576651292297
 21
112.1779816568564
 31
0.0
  0
LINE
  5
2E57
330
18
100
AcDbEntity
  8
7A
 48
2.0
100
AcDbLine
 10
98.64470842366428
 20
81.59972720341391
 30
0.0
 11
93.07643643440702
 21
112.6196869177524
 31
0.0
  0
LINE
  5
2E58
330
18
100
AcDbEntity
  8
5
 48
2.0
100
AcDbLine
 10
91.10711560933077
 20
109.4407538049027
 30
0.0
 11
87.61601690002454
 21
109.4407538049027
 31
0.0
  0
LINE
  5
2E59
330
18
100
AcDbEntity
  8
0
 48
2.0
100
AcDbLine
 10
90.88273298684816
 20
110.6907537911528
 30
0.0
 11
87.61601690002454
 21
110.6907537911527
 31
0.0
  0
LINE
  5
2E5A
330
18
100
AcDbEntity
  8
5
 48
2.0
100
AcDbLine
 10
95.50501500998974
 20
84.94075407440282
 30
0.0
 11
87.61601690002454
 21
84.94075407440282
 31
0.0
  0
LINE
  5
2E5B
330
18
100
AcDbEntity
  8
0
 48
2.0
100
AcDbLine
 10
95.72939763247223
 20
83.6907540881528
 30
0.0
 11
87.61601690002454
 21
83.6907540881528
 31
0.0
  0
LINE
  5
2E5C
330
18
100
AcDbEntity
  8
0
 48
2.0
100
AcDbLine
 10
95.4793976352222
 20
266.3239937327276
 30
0.0
 11
87.36601690277451
 21
266.3239937327276
 31
0.0
  0
LINE
  5
2E5D
330
18
100
AcDbEntity
  8
5
 48
2.0
100
AcDbLine
 10
95.2550150127397
 20
267.5739937189775
 30
0.0
 11
87.36601690277451
 21
267.5739937189775
 31
0.0
  0
LINE
  5
2E5E
330
18
100
AcDbEntity
  8
0
 48
2.0
100
AcDbLine
 10
90.63273298959826
 20
293.3239934357275
 30
0.0
 11
87.36601690277451
 21
293.3239934357274
 31
0.0
  0
LINE
  5
2E5F
330
18
100
AcDbEntity
  8
5
 48
2.0
100
AcDbLine
 10
90.85711561208086
 20
292.0739934494774
 30
0.0
 11
87.36601690277451
 21
292.0739934494774
 31
0.0
  0
LINE
  5
2E60
330
18
100
AcDbEntity
  8
7A
 48
2.0
100
AcDbLine
 10
98.39470842641436
 20
264.2329668479886
 30
0.0
 11
92.82643643715699
 21
295.2529265623272
 31
0.0
  0
LINE
  5
2E61
330
18
100
AcDbEntity
  8
7A
 48
2.0
100
AcDbLine
 10
95.93403850493018
 20
263.7912615870925
 30
0.0
 11
90.36576651567292
 21
294.8112213014312
 31
0.0
  0
LINE
  5
2E6B
330
18
100
AcDbEntity
  8
0
 48
2.0
100
AcDbLine
 10
471.9039907582543
 20
359.3239927097275
 30
0.0
 11
471.9039907582543
 21
335.8239927097276
 31
0.0
  0
LINE
  5
2E6C
330
18
100
AcDbEntity
  8
0
 48
2.0
100
AcDbLine
 10
472.9039907582541
 20
334.8239927097282
 30
0.0
 11
472.9039907582541
 21
335.8239927097276
 31
0.0
  0
LINE
  5
2E6D
330
18
100
AcDbEntity
  8
0
 48
2.0
100
AcDbLine
 10
471.9039907582543
 20
335.8239927097276
 30
0.0
 11
472.9039907582541
 21
335.8239927097276
 31
0.0
  0
LINE
  5
2E6E
330
18
100
AcDbEntity
  8
0
 48
2.0
100
AcDbLine
 10
480.9924480263743
 20
334.8239927097282
 30
0.0
 11
471.903990758255
 21
334.8239927097282
 31
0.0
  0
LINE
  5
2EA8
330
18
100
AcDbEntity
  8
0
 48
2.0
100
AcDbLine
 10
458.9039913962542
 20
226.3239939967278
 30
0.0
 11
458.9039913962547
 21
242.3239939967278
 31
0.0
  0
LINE
  5
2EA9
330
18
100
AcDbEntity
  8
5
 48
2.0
100
AcDbLine
 10
491.3966568061955
 20
241.2246605471408
 30
0.0
 11
491.446708689245
 21
241.2246605471408
 31
0.0
  0
LINE
  5
2F15
330
18
100
AcDbEntity
  8
0
 48
2.0
100
AcDbLine
 10
268.1489934678764
 20
2.09075498575271
 30
0.0
 11
328.1489928078765
 21
2.09075498575271
 31
0.0
  0
LINE
  5
2F16
330
18
100
AcDbEntity
  8
0
 48
2.0
100
AcDbLine
 10
561.9039902632539
 20
345.6704061589637
 30
0.0
 11
561.9039902632539
 21
335.8239929682276
 31
0.0
  0
LINE
  5
2F17
330
18
100
AcDbEntity
  8
0
 48
2.0
100
AcDbLine
 10
574.9039901202545
 20
226.3239941727276
 30
0.0
 11
458.9039913962542
 21
226.3239939967278
 31
0.0
  0
LINE
  5
2F18
330
18
100
AcDbEntity
  8
0
 48
2.0
100
AcDbLine
 10
109.648995156376
 20
2.09075498575271
 30
0.0
 11
178.1489944578761
 21
2.09075498575271
 31
0.0
  0
LINE
  5
2F19
330
18
100
AcDbEntity
  8
0
 48
2.0
100
AcDbLine
 10
109.648995156376
 20
118.0907537097528
 30
0.0
 11
328.1489928078765
 21
118.0907537097528
 31
0.0
  0
CIRCLE
  5
2F1A
330
18
100
AcDbEntity
  8
0
 48
2.0
100
AcDbCircle
 10
308.1489930278763
 20
257.8239938262278
 30
0.0
 40
1.34999998515
  0
LINE
  5
2F1B
330
18
100
AcDbEntity
  8
7A
 48
2.0
100
AcDbLine
 10
308.1489930278763
 20
254.3688972577241
 30
0.0
 11
308.1489930278763
 21
262.0688971730242
 31
0.0
  0
LINE
  5
2F1C
330
18
100
AcDbEntity
  8
7A
 48
2.0
100
AcDbLine
 10
312.5256028802401
 20
257.8239938262278
 30
0.0
 11
303.5256029792404
 21
257.8239938262278
 31
0.0
  0
ARC
  5
2F1D
330
18
100
AcDbEntity
  8
5
 48
2.0
100
AcDbCircle
 10
308.1489930278763
 20
257.8239938262278
 30
0.0
 40
4.999999944999999
100
AcDbArc
 50
180.0
 51
96.24246553400974
  0
CIRCLE
  5
2F1E
330
18
100
AcDbEntity
  8
0
 48
2.0
100
AcDbCircle
 10
308.1489930278763
 20
257.8239938262278
 30
0.0
 40
3.999999955999999
  0
POLYLINE
  5
2F1F
330
18
100
AcDbEntity
  8
0
 48
2.0
100
AcDb2dPolyline
 66
     1
 10
0.0
 20
0.0
 30
0.0
 70
     1
  0
VERTEX
  5
2F20
330
2F1F
100
AcDbEntity
  8
0
 48
2.0
100
AcDbVertex
100
AcDb2dVertex
 10
491.749290496577
 20
307.8239932762279
 30
0.0
  0
VERTEX
  5
2F21
330
2F1F
100
AcDbEntity
  8
0
 48
2.0
100
AcDbVertex
100
AcDb2dVertex
 10
490.5945899708995
 20
305.8239932982279
 30
0.0
  0
VERTEX
  5
2F22
330
2F1F
100
AcDbEntity
  8
0
 48
2.0
100
AcDbVertex
100
AcDb2dVertex
 10
491.749290496577
 20
303.8239933202278
 30
0.0
  0
VERTEX
  5
2F23
330
2F1F
100
AcDbEntity
  8
0
 48
2.0
100
AcDbVertex
100
AcDb2dVertex
 10
494.0586915479321
 20
303.8239933202278
 30
0.0
  0
VERTEX
  5
2F24
330
2F1F
100
AcDbEntity
  8
0
 48
2.0
100
AcDbVertex
100
AcDb2dVertex
 10
495.2133920736096
 20
305.8239932982279
 30
0.0
  0
VERTEX
  5
2F25
330
2F1F
100
AcDbEntity
  8
0
 48
2.0
100
AcDbVertex
100
AcDb2dVertex
 10
494.0586915479321
 20
307.8239932762279
 30
0.0
  0
SEQEND
  5
2F26
330
2F1F
100
AcDbEntity
  8
0
 48
2.0
  0
CIRCLE
  5
2F27
330
18
100
AcDbEntity
  8
0
 48
2.0
100
AcDbCircle
 10
492.9039910222548
 20
305.8239932982279
 30
0.0
 40
4.999999944999999
  0
LINE
  5
2F28
330
18
100
AcDbEntity
  8
7A
 48
2.0
100
AcDbLine
 10
487.4039910827543
 20
305.8239932982279
 30
0.0
 11
498.4039909617544
 21
305.8239932982276
 31
0.0
  0
CIRCLE
  5
2F29
330
18
100
AcDbEntity
  8
0
 48
2.0
100
AcDbCircle
 10
492.9039910222548
 20
305.8239932982276
 30
0.0
 40
5.499999939500001
  0
LINE
  5
2F2A
330
18
100
AcDbEntity
  8
7A
 48
2.0
100
AcDbLine
 10
540.9039904942546
 20
300.3239933587277
 30
0.0
 11
540.9039904942546
 21
311.3239932377277
 31
0.0
  0
LINE
  5
2F2B
330
18
100
AcDbEntity
  8
7A
 48
2.0
100
AcDbLine
 10
492.9039910222548
 20
300.3239933587277
 30
0.0
 11
492.9039910222548
 21
311.3239932377277
 31
0.0
  0
POLYLINE
  5
2F2C
330
18
100
AcDbEntity
  8
0
 48
2.0
100
AcDb2dPolyline
 66
     1
 10
0.0
 20
0.0
 30
0.0
 70
     1
  0
VERTEX
  5
2F2D
330
2F2C
100
AcDbEntity
  8
0
 48
2.0
100
AcDbVertex
100
AcDb2dVertex
 10
515.749290232577
 20
275.8239936282278
 30
0.0
  0
VERTEX
  5
2F2E
330
2F2C
100
AcDbEntity
  8
0
 48
2.0
100
AcDbVertex
100
AcDb2dVertex
 10
514.5945897068996
 20
273.8239936502278
 30
0.0
  0
VERTEX
  5
2F2F
330
2F2C
100
AcDbEntity
  8
0
 48
2.0
100
AcDbVertex
100
AcDb2dVertex
 10
515.749290232577
 20
271.8239936722277
 30
0.0
  0
VERTEX
  5
2F30
330
2F2C
100
AcDbEntity
  8
0
 48
2.0
100
AcDbVertex
100
AcDb2dVertex
 10
518.0586912839321
 20
271.8239936722277
 30
0.0
  0
VERTEX
  5
2F31
330
2F2C
100
AcDbEntity
  8
0
 48
2.0
100
AcDbVertex
100
AcDb2dVertex
 10
519.2133918096097
 20
273.8239936502278
 30
0.0
  0
VERTEX
  5
2F32
330
2F2C
100
AcDbEntity
  8
0
 48
2.0
100
AcDbVertex
100
AcDb2dVertex
 10
518.0586912839321
 20
275.8239936282278
 30
0.0
  0
SEQEND
  5
2F33
330
2F2C
100
AcDbEntity
  8
0
 48
2.0
  0
CIRCLE
  5
2F34
330
18
100
AcDbEntity
  8
0
 48
2.0
100
AcDbCircle
 10
516.9039907582543
 20
273.8239936502278
 30
0.0
 40
4.999999944999999
  0
LINE
  5
2F35
330
18
100
AcDbEntity
  8
7A
 48
2.0
100
AcDbLine
 10
511.4039908187544
 20
273.8239936502278
 30
0.0
 11
522.4039906977544
 21
273.8239936502277
 31
0.0
  0
CIRCLE
  5
2F36
330
18
100
AcDbEntity
  8
0
 48
2.0
100
AcDbCircle
 10
516.9039907582543
 20
273.8239936502277
 30
0.0
 40
5.499999939500001
  0
LINE
  5
2F37
330
18
100
AcDbEntity
  8
0
 48
2.0
100
AcDbLine
 10
109.648995156376
 20
35.09075462275274
 30
0.0
 11
159.1489946668762
 21
35.09075462275274
 31
0.0
  0
LINE
  5
2F38
330
18
100
AcDbEntity
  8
0
 48
2.0
100
AcDbLine
 10
109.648995156376
 20
85.0907540727527
 30
0.0
 11
159.1489946668762
 21
85.0907540727527
 31
0.0
  0
LINE
  5
2F39
330
18
100
AcDbEntity
  8
0
 48
2.0
100
AcDbLine
 10
541.9342614494662
 20
312.3239932267276
 30
0.0
 11
574.9039901202545
 21
300.3239933587277
 31
0.0
  0
LINE
  5
2F3A
330
18
100
AcDbEntity
  8
0
 48
2.0
100
AcDbLine
 10
561.9039902632546
 20
312.3239932267275
 30
0.0
 11
574.9039901202545
 21
300.3239933587276
 31
0.0
  0
LINE
  5
2F3B
330
18
100
AcDbEntity
  8
0
 48
2.0
100
AcDbLine
 10
471.9039912532545
 20
312.3239932267275
 30
0.0
 11
458.9039913962547
 21
300.3239933587277
 31
0.0
  0
LINE
  5
2F3C
330
18
100
AcDbEntity
  8
7A
 48
2.0
100
AcDbLine
 10
222.1489939738764
 20
234.8239940792278
 30
0.0
 11
231.1489938748765
 21
234.8239940792278
 31
0.0
  0
LINE
  5
2F3D
330
18
100
AcDbEntity
  8
7A
 48
2.0
100
AcDbLine
 10
226.6489939243763
 20
229.8239941342278
 30
0.0
 11
226.6489939243763
 21
241.3239940077277
 31
0.0
  0
CIRCLE
  5
2F3E
330
18
100
AcDbEntity
  8
0
 48
2.0
100
AcDbCircle
 10
226.6489939243763
 20
236.8239940572278
 30
0.0
 40
1.34999998515
  0
LINE
  5
2F3F
330
18
100
AcDbEntity
  8
7A
 48
2.0
100
AcDbLine
 10
268.6489934623764
 20
229.8239941342278
 30
0.0
 11
268.6489934623764
 21
239.8239940242277
 31
0.0
  0
LINE
  5
2F40
330
18
100
AcDbEntity
  8
7A
 48
2.0
100
AcDbLine
 10
264.0889935125365
 20
234.8239940792278
 30
0.0
 11
273.0889934135365
 21
234.8239940792278
 31
0.0
  0
LINE
  5
2F41
330
18
100
AcDbEntity
  8
7A
 48
2.0
100
AcDbLine
 10
293.6489931873764
 20
228.8239941452278
 30
0.0
 11
293.6489931873764
 21
242.3239939967278
 31
0.0
  0
CIRCLE
  5
2F42
330
18
100
AcDbEntity
  8
0
 48
2.0
100
AcDbCircle
 10
293.6489931873764
 20
232.8239941012277
 30
0.0
 40
1.34999998515
  0
CIRCLE
  5
2F43
330
18
100
AcDbEntity
  8
0
 48
2.0
100
AcDbCircle
 10
152.6489947383763
 20
232.8239941012277
 30
0.0
 40
1.34999998515
  0
LINE
  5
2F44
330
18
100
AcDbEntity
  8
7A
 48
2.0
100
AcDbLine
 10
152.6489947383763
 20
228.8239941452277
 30
0.0
 11
152.6489947383763
 21
242.3239939967278
 31
0.0
  0
LINE
  5
2F45
330
18
100
AcDbEntity
  8
7A
 48
2.0
100
AcDbLine
 10
177.6489944633763
 20
229.8239941342275
 30
0.0
 11
177.6489944633763
 21
241.3239940077277
 31
0.0
  0
CIRCLE
  5
2F46
330
18
100
AcDbEntity
  8
0
 48
2.0
100
AcDbCircle
 10
177.6489944633763
 20
236.8239940572276
 30
0.0
 40
1.34999998515
  0
CIRCLE
  5
2F47
330
18
100
AcDbEntity
  8
0
 48
2.0
100
AcDbCircle
 10
202.6489941883764
 20
236.8239940572276
 30
0.0
 40
1.34999998515
  0
LINE
  5
2F48
330
18
100
AcDbEntity
  8
7A
 48
2.0
100
AcDbLine
 10
202.6489941883764
 20
229.8239941342278
 30
0.0
 11
202.6489941883764
 21
241.3239940077277
 31
0.0
  0
LINE
  5
2F49
330
18
100
AcDbEntity
  8
0
 48
2.0
100
AcDbLine
 10
320.1489928958763
 20
226.3239941727277
 30
0.0
 11
126.1489950298762
 21
226.3239941727277
 31
0.0
  0
LINE
  5
2F4A
330
18
100
AcDbEntity
  8
7A
 48
2.0
100
AcDbLine
 10
294.9989931725265
 20
232.8239941012277
 30
0.0
 11
292.2989932022265
 21
232.8239941012277
 31
0.0
  0
ARC
  5
2F4B
330
18
100
AcDbEntity
  8
5
 48
2.0
100
AcDbCircle
 10
202.6489941883764
 20
234.8239940792277
 30
0.0
 40
4.999999944999999
100
AcDbArc
 50
180.0
 51
96.24246553400974
  0
CIRCLE
  5
2F4C
330
18
100
AcDbEntity
  8
0
 48
2.0
100
AcDbCircle
 10
202.6489941883764
 20
234.8239940792277
 30
0.0
 40
3.999999955999999
  0
CIRCLE
  5
2F4D
330
18
100
AcDbEntity
  8
0
 48
2.0
100
AcDbCircle
 10
226.6489939243763
 20
234.8239940792278
 30
0.0
 40
3.999999955999999
  0
ARC
  5
2F4E
330
18
100
AcDbEntity
  8
5
 48
2.0
100
AcDbCircle
 10
226.6489939243763
 20
234.8239940792278
 30
0.0
 40
4.999999944999999
100
AcDbArc
 50
180.0
 51
96.24246553400974
  0
CIRCLE
  5
2F4F
330
18
100
AcDbEntity
  8
0
 48
2.0
100
AcDbCircle
 10
177.6489944633763
 20
234.8239940792277
 30
0.0
 40
3.999999955999999
  0
ARC
  5
2F50
330
18
100
AcDbEntity
  8
5
 48
2.0
100
AcDbCircle
 10
177.6489944633763
 20
234.8239940792277
 30
0.0
 40
4.999999944999999
100
AcDbArc
 50
180.0
 51
96.24246553400974
  0
CIRCLE
  5
2F51
330
18
100
AcDbEntity
  8
0
 48
2.0
100
AcDbCircle
 10
152.6489947383763
 20
234.8239940792277
 30
0.0
 40
3.999999955999999
  0
ARC
  5
2F52
330
18
100
AcDbEntity
  8
5
 48
2.0
100
AcDbCircle
 10
152.6489947383763
 20
234.8239940792277
 30
0.0
 40
4.999999944999999
100
AcDbArc
 50
180.0
 51
96.24246553400974
  0
CIRCLE
  5
2F53
330
18
100
AcDbEntity
  8
0
 48
2.0
100
AcDbCircle
 10
268.6489934623764
 20
234.8239940792278
 30
0.0
 40
3.999999955999999
  0
ARC
  5
2F54
330
18
100
AcDbEntity
  8
5
 48
2.0
100
AcDbCircle
 10
268.6489934623764
 20
234.8239940792278
 30
0.0
 40
4.999999944999999
100
AcDbArc
 50
180.0
 51
96.24246553400974
  0
CIRCLE
  5
2F55
330
18
100
AcDbEntity
  8
0
 48
2.0
100
AcDbCircle
 10
293.6489931873764
 20
234.8239940792278
 30
0.0
 40
3.999999955999999
  0
ARC
  5
2F56
330
18
100
AcDbEntity
  8
5
 48
2.0
100
AcDbCircle
 10
293.6489931873764
 20
234.8239940792278
 30
0.0
 40
4.999999944999999
100
AcDbArc
 50
180.0
 51
96.24246553400974
  0
CIRCLE
  5
2F57
330
18
100
AcDbEntity
  8
0
 48
2.0
100
AcDbCircle
 10
268.6489934623764
 20
236.8239940572278
 30
0.0
 40
1.34999998515
  0
LINE
  5
2F58
330
18
100
AcDbEntity
  8
7A
 48
2.0
100
AcDbLine
 10
153.9989947235264
 20
232.8239941012277
 30
0.0
 11
151.2989947532265
 21
232.8239941012277
 31
0.0
  0
LINE
  5
2F59
330
18
100
AcDbEntity
  8
7A
 48
2.0
100
AcDbLine
 10
157.6489946833765
 20
234.8239940792277
 30
0.0
 11
147.6489947933764
 21
234.8239940792277
 31
0.0
  0
LINE
  5
2F5A
330
18
100
AcDbEntity
  8
7A
 48
2.0
100
AcDbLine
 10
178.9989944485264
 20
236.8239940572278
 30
0.0
 11
176.2989944782265
 21
236.8239940572278
 31
0.0
  0
LINE
  5
2F5B
330
18
100
AcDbEntity
  8
7A
 48
2.0
100
AcDbLine
 10
182.6489944083764
 20
234.8239940792277
 30
0.0
 11
172.6489945183763
 21
234.8239940792277
 31
0.0
  0
LINE
  5
2F5C
330
18
100
AcDbEntity
  8
7A
 48
2.0
100
AcDbLine
 10
269.9989934475265
 20
236.8239940572278
 30
0.0
 11
267.2989934772265
 21
236.8239940572278
 31
0.0
  0
LINE
  5
2F5D
330
18
100
AcDbEntity
  8
7A
 48
2.0
100
AcDbLine
 10
273.6489934073763
 20
234.8239940792278
 30
0.0
 11
263.6489935173764
 21
234.8239940792278
 31
0.0
  0
LINE
  5
2F5E
330
18
100
AcDbEntity
  8
7A
 48
2.0
100
AcDbLine
 10
227.9989939095266
 20
236.8239940572278
 30
0.0
 11
225.2989939392264
 21
236.8239940572278
 31
0.0
  0
LINE
  5
2F5F
330
18
100
AcDbEntity
  8
7A
 48
2.0
100
AcDbLine
 10
231.6489938693765
 20
234.8239940792277
 30
0.0
 11
221.6489939793764
 21
234.8239940792277
 31
0.0
  0
LINE
  5
2F60
330
18
100
AcDbEntity
  8
7A
 48
2.0
100
AcDbLine
 10
203.9989941735264
 20
236.8239940572278
 30
0.0
 11
201.2989942032263
 21
236.8239940572278
 31
0.0
  0
LINE
  5
2F61
330
18
100
AcDbEntity
  8
7A
 48
2.0
100
AcDbLine
 10
207.6489941333763
 20
234.8239940792277
 30
0.0
 11
197.6489942433765
 21
234.8239940792277
 31
0.0
  0
LINE
  5
2F62
330
18
100
AcDbEntity
  8
7A
 48
2.0
100
AcDbLine
 10
298.6489931323763
 20
234.8239940792278
 30
0.0
 11
288.6489932423764
 21
234.8239940792278
 31
0.0
  0
LINE
  5
2F68
330
18
100
AcDbEntity
  8
0
 48
2.0
100
AcDbLine
 10
320.1489928958763
 20
226.3239941727278
 30
0.0
 11
320.1489928958763
 21
242.3239939967278
 31
0.0
  0
LINE
  5
2F69
330
18
100
AcDbEntity
  8
0
 48
2.0
100
AcDbLine
 10
126.1489950298762
 20
226.3239941727278
 30
0.0
 11
126.1489950298762
 21
242.3239939967278
 31
0.0
  0
LINE
  5
2F6A
330
18
100
AcDbEntity
  8
0
 48
2.0
100
AcDbLine
 10
166.1489945898763
 20
15.09075484275269
 30
0.0
 11
166.1489945898763
 21
2.09075498575271
 31
0.0
  0
LINE
  5
2F6B
330
18
100
AcDbEntity
  8
0
 48
2.0
100
AcDbLine
 10
166.1489945898763
 20
118.0907537097528
 30
0.0
 11
166.1489945898763
 21
105.0907538527527
 31
0.0
  0
ARC
  5
2F6C
330
18
100
AcDbEntity
  8
5
 48
2.0
100
AcDbCircle
 10
269.1489934568764
 20
257.8239938262278
 30
0.0
 40
4.999999944999999
100
AcDbArc
 50
180.0
 51
96.24246553400974
  0
CIRCLE
  5
2F6D
330
18
100
AcDbEntity
  8
0
 48
2.0
100
AcDbCircle
 10
269.1489934568764
 20
257.8239938262278
 30
0.0
 40
3.999999955999999
  0
LINE
  5
2F6E
330
18
100
AcDbEntity
  8
0
 48
2.0
100
AcDbLine
 10
191.2500148281989
 20
312.3239932267274
 30
0.0
 11
109.648995156376
 21
312.3239932267275
 31
0.0
  0
LINE
  5
2F6F
330
18
100
AcDbEntity
  8
0
 48
2.0
100
AcDbLine
 10
471.9039912532545
 20
312.3239932267275
 30
0.0
 11
561.9039902632546
 21
312.3239932267275
 31
0.0
  0
LINE
  5
2F70
330
18
100
AcDbEntity
  8
0
 48
2.0
100
AcDbLine
 10
166.1489945898763
 20
300.3239933587278
 30
0.0
 11
166.1489945898763
 21
312.3239932267275
 31
0.0
  0
CIRCLE
  5
2F71
330
18
100
AcDbEntity
  8
0
 48
2.0
100
AcDbCircle
 10
551.4039903787545
 20
325.8239930782282
 30
0.0
 40
5.399999940599999
  0
ARC
  5
2F72
330
18
100
AcDbEntity
  8
5
 48
2.0
100
AcDbCircle
 10
551.4039903787545
 20
325.8239930782282
 30
0.0
 40
5.999999934
100
AcDbArc
 50
74.24595297586377
 51
13.91213192421388
  0
LINE
  5
2F73
330
18
100
AcDbEntity
  8
7A
 48
2.0
100
AcDbLine
 10
558.9095437956586
 20
325.8239930782282
 30
0.0
 11
543.8984369618506
 21
325.8239930782282
 31
0.0
  0
LINE
  5
2F74
330
18
100
AcDbEntity
  8
7A
 48
2.0
100
AcDbLine
 10
551.4039903787545
 20
319.3239931497283
 30
0.0
 11
551.4039903787545
 21
332.3239930067284
 31
0.0
  0
LINE
  5
2F75
330
18
100
AcDbEntity
  8
7A
 48
2.0
100
AcDbLine
 10
482.4039911377544
 20
319.3239931497282
 30
0.0
 11
482.4039911377544
 21
332.3239930067284
 31
0.0
  0
LINE
  5
2F76
330
18
100
AcDbEntity
  8
7A
 48
2.0
100
AcDbLine
 10
474.8984377208508
 20
325.8239930782281
 30
0.0
 11
490.9039910442545
 21
325.8239930782281
 31
0.0
  0
ARC
  5
2F77
330
18
100
AcDbEntity
  8
5
 48
2.0
100
AcDbCircle
 10
482.4039911377544
 20
325.8239930782281
 30
0.0
 40
5.999999934
100
AcDbArc
 50
166.0878680757863
 51
105.7540470241364
  0
CIRCLE
  5
2F78
330
18
100
AcDbEntity
  8
0
 48
2.0
100
AcDbCircle
 10
482.4039911377544
 20
325.8239930782281
 30
0.0
 40
5.399999940599999
  0
LINE
  5
2F79
330
18
100
AcDbEntity
  8
0
 48
2.0
100
AcDbLine
 10
561.9039902632546
 20
334.8239929792281
 30
0.0
 11
552.8155330951076
 21
334.8239929792281
 31
0.0
  0
LINE
  5
2F7A
330
18
100
AcDbEntity
  8
7A
 48
2.0
100
AcDbLine
 10
530.0633139701654
 20
342.1739928983774
 30
0.0
 11
493.5039910156545
 21
342.1739928983774
 31
0.0
  0
LINE
  5
2F7B
330
18
100
AcDbEntity
  8
0
 48
2.0
100
AcDbLine
 10
561.9039902632543
 20
359.3239927097275
 30
0.0
 11
561.9039902632539
 21
351.9204060902136
 31
0.0
  0
LINE
  5
2F7C
330
18
100
AcDbEntity
  8
0
 48
2.0
100
AcDbLine
 10
471.9039912532544
 20
359.3239927097275
 30
0.0
 11
471.9039912532544
 21
335.8239929682276
 31
0.0
  0
ARC
  5
2F7D
330
18
100
AcDbEntity
  8
5
 48
2.0
100
AcDbCircle
 10
527.8133140669151
 20
342.1739928983774
 30
0.0
 40
2.499999892500001
100
AcDbArc
 50
76.19316535021043
 51
14.94964620181143
  0
CIRCLE
  5
2F7E
330
18
100
AcDbEntity
  8
0
 48
2.0
100
AcDbCircle
 10
527.8133140669151
 20
342.1739928983774
 30
0.0
 40
2.249999903250001
  0
LINE
  5
2F7F
330
18
100
AcDbEntity
  8
7A
 48
2.0
100
AcDbLine
 10
497.903990967254
 20
346.573992849977
 30
0.0
 11
497.903990967254
 21
337.7739929467781
 31
0.0
  0
LINE
  5
2F80
330
18
100
AcDbEntity
  8
7A
 48
2.0
100
AcDbLine
 10
527.8133140669151
 20
346.5739928499779
 30
0.0
 11
527.8133140669151
 21
337.7739929467769
 31
0.0
  0
LINE
  5
2F81
330
18
100
AcDbEntity
  8
0
 48
2.0
100
AcDbLine
 10
561.9039902632539
 20
335.8239929682276
 30
0.0
 11
471.9039912532544
 21
335.8239929682276
 31
0.0
  0
LINE
  5
2F82
330
18
100
AcDbEntity
  8
7A
 48
2.0
100
AcDbLine
 10
529.1633140520652
 20
342.1739928983774
 30
0.0
 11
526.4633140817655
 21
342.1739928983774
 31
0.0
  0
CIRCLE
  5
2F83
330
18
100
AcDbEntity
  8
0
 48
2.0
100
AcDbCircle
 10
497.903990967254
 20
342.1739928983774
 30
0.0
 40
1.34999998515
  0
CIRCLE
  5
2F84
330
18
100
AcDbEntity
  8
0
 48
2.0
100
AcDbCircle
 10
516.9039907582539
 20
342.1739928983774
 30
0.0
 40
1.34999998515
  0
CIRCLE
  5
2F85
330
18
100
AcDbEntity
  8
0
 48
2.0
100
AcDbCircle
 10
527.8133140669151
 20
342.1739928983774
 30
0.0
 40
1.34999998515
  0
LINE
  5
2F86
330
18
100
AcDbEntity
  8
7A
 48
2.0
100
AcDbLine
 10
518.2539907434041
 20
342.1739928983774
 30
0.0
 11
515.553990773104
 21
342.1739928983774
 31
0.0
  0
LINE
  5
2F87
330
18
100
AcDbEntity
  8
7A
 48
2.0
100
AcDbLine
 10
499.2539909524041
 20
342.1739928983774
 30
0.0
 11
496.5539909821041
 21
342.1739928983774
 31
0.0
  0
LINE
  5
2F88
330
18
100
AcDbEntity
  8
0
 48
2.0
100
AcDbLine
 10
561.9039902632543
 20
359.3239927097275
 30
0.0
 11
471.9039912532544
 21
359.3239927097275
 31
0.0
  0
LINE
  5
2F89
330
18
100
AcDbEntity
  8
0
 48
2.0
100
AcDbLine
 10
472.9039912422543
 20
334.8239929792281
 30
0.0
 11
472.9039912422543
 21
335.8239929682276
 31
0.0
  0
LINE
  5
2F8A
330
18
100
AcDbEntity
  8
0
 48
2.0
100
AcDbLine
 10
471.9039912532544
 20
335.8239929682276
 30
0.0
 11
472.9039912422543
 21
335.8239929682276
 31
0.0
  0
LINE
  5
2F8B
330
18
100
AcDbEntity
  8
0
 48
2.0
100
AcDbLine
 10
561.9039902632537
 20
335.8239929682277
 30
0.0
 11
560.903990274254
 21
335.8239929682277
 31
0.0
  0
LINE
  5
2F8C
330
18
100
AcDbEntity
  8
0
 48
2.0
100
AcDbLine
 10
560.903990274254
 20
334.8239929792281
 30
0.0
 11
560.903990274254
 21
335.8239929682277
 31
0.0
  0
CIRCLE
  5
2F8D
330
18
100
AcDbEntity
  8
0
 48
2.0
100
AcDbCircle
 10
516.9039907582539
 20
342.1739928983774
 30
0.0
 40
2.249999903250001
  0
ARC
  5
2F8E
330
18
100
AcDbEntity
  8
5
 48
2.0
100
AcDbCircle
 10
516.9039907582539
 20
342.1739928983774
 30
0.0
 40
2.499999892500001
100
AcDbArc
 50
76.19316535021043
 51
14.94964620181143
  0
CIRCLE
  5
2F8F
330
18
100
AcDbEntity
  8
0
 48
2.0
100
AcDbCircle
 10
497.903990967254
 20
342.1739928983774
 30
0.0
 40
1.34999998515
  0
ARC
  5
2F90
330
18
100
AcDbEntity
  8
5
 48
2.0
100
AcDbCircle
 10
497.903990967254
 20
342.1739928983774
 30
0.0
 40
2.499999892500001
100
AcDbArc
 50
76.19316535021043
 51
14.94964620181143
  0
CIRCLE
  5
2F91
330
18
100
AcDbEntity
  8
0
 48
2.0
100
AcDbCircle
 10
497.903990967254
 20
342.1739928983774
 30
0.0
 40
2.249999903250001
  0
LINE
  5
2F92
330
18
100
AcDbEntity
  8
0
 48
2.0
100
AcDbLine
 10
561.9039902632546
 20
316.8239931772281
 30
0.0
 11
552.8155330951074
 21
316.8239931772281
 31
0.0
  0
CIRCLE
  5
2F93
330
18
100
AcDbEntity
  8
0
 48
2.0
100
AcDbCircle
 10
516.9039907582543
 20
325.8239930782285
 30
0.0
 40
5.499999939500001
  0
POLYLINE
  5
2F94
330
18
100
AcDbEntity
  8
0
 48
2.0
100
AcDb2dPolyline
 66
     1
 10
0.0
 20
0.0
 30
0.0
 70
     1
  0
VERTEX
  5
2F95
330
2F94
100
AcDbEntity
  8
0
 48
2.0
100
AcDbVertex
100
AcDb2dVertex
 10
519.3619405681306
 20
327.2430910626149
 30
0.0
  0
VERTEX
  5
2F96
330
2F94
100
AcDbEntity
  8
0
 48
2.0
100
AcDbVertex
100
AcDb2dVertex
 10
516.9039907582543
 20
328.6621890470012
 30
0.0
  0
VERTEX
  5
2F97
330
2F94
100
AcDbEntity
  8
0
 48
2.0
100
AcDbVertex
100
AcDb2dVertex
 10
514.4460409483786
 20
327.2430910626149
 30
0.0
  0
VERTEX
  5
2F98
330
2F94
100
AcDbEntity
  8
0
 48
2.0
100
AcDbVertex
100
AcDb2dVertex
 10
514.4460409483786
 20
324.4048950938419
 30
0.0
  0
VERTEX
  5
2F99
330
2F94
100
AcDbEntity
  8
0
 48
2.0
100
AcDbVertex
100
AcDb2dVertex
 10
516.9039907582543
 20
322.9857971094553
 30
0.0
  0
VERTEX
  5
2F9A
330
2F94
100
AcDbEntity
  8
0
 48
2.0
100
AcDbVertex
100
AcDb2dVertex
 10
519.3619405681306
 20
324.4048950938419
 30
0.0
  0
SEQEND
  5
2F9B
330
2F94
100
AcDbEntity
  8
0
 48
2.0
  0
POLYLINE
  5
2F9C
330
18
100
AcDbEntity
  8
0
 48
2.0
100
AcDb2dPolyline
 66
     1
 10
0.0
 20
0.0
 30
0.0
 70
     1
  0
VERTEX
  5
2F9D
330
2F9C
100
AcDbEntity
  8
0
 48
2.0
100
AcDbVertex
100
AcDb2dVertex
 10
473.9039912312543
 20
330.7314703123578
 30
0.0
  0
VERTEX
  5
2F9E
330
2F9C
100
AcDbEntity
  8
0
 48
2.0
100
AcDbVertex
100
AcDb2dVertex
 10
482.4039911377544
 20
335.6389475464873
 30
0.0
  0
VERTEX
  5
2F9F
330
2F9C
100
AcDbEntity
  8
0
 48
2.0
100
AcDbVertex
100
AcDb2dVertex
 10
490.9039910442545
 20
330.7314703123578
 30
0.0
  0
VERTEX
  5
2FA0
330
2F9C
100
AcDbEntity
  8
0
 48
2.0
100
AcDbVertex
100
AcDb2dVertex
 10
490.9039910442547
 20
320.9165158440987
 30
0.0
  0
VERTEX
  5
2FA1
330
2F9C
100
AcDbEntity
  8
0
 48
2.0
100
AcDbVertex
100
AcDb2dVertex
 10
482.4039911377544
 20
316.009038609969
 30
0.0
  0
VERTEX
  5
2FA2
330
2F9C
100
AcDbEntity
  8
0
 48
2.0
100
AcDbVertex
100
AcDb2dVertex
 10
473.9039912312543
 20
320.9165158440986
 30
0.0
  0
SEQEND
  5
2FA3
330
2F9C
100
AcDbEntity
  8
0
 48
2.0
  0
LINE
  5
2FA4
330
18
100
AcDbEntity
  8
0
 48
2.0
100
AcDbLine
 10
492.9039910222545
 20
334.8239929792281
 30
0.0
 11
492.9039910222545
 21
316.8239931772281
 31
0.0
  0
LINE
  5
2FA5
330
18
100
AcDbEntity
  8
0
 48
2.0
100
AcDbLine
 10
540.9039904942542
 20
334.8239929792278
 30
0.0
 11
540.9039904942542
 21
316.8239931772281
 31
0.0
  0
POLYLINE
  5
2FA6
330
18
100
AcDbEntity
  8
0
 48
2.0
100
AcDb2dPolyline
 66
     1
 10
0.0
 20
0.0
 30
0.0
 70
     1
  0
VERTEX
  5
2FA7
330
2FA6
100
AcDbEntity
  8
0
 48
2.0
100
AcDbVertex
100
AcDb2dVertex
 10
559.9039902852545
 20
330.7314703123578
 30
0.0
  0
VERTEX
  5
2FA8
330
2FA6
100
AcDbEntity
  8
0
 48
2.0
100
AcDbVertex
100
AcDb2dVertex
 10
551.4039903787545
 20
335.6389475464873
 30
0.0
  0
VERTEX
  5
2FA9
330
2FA6
100
AcDbEntity
  8
0
 48
2.0
100
AcDbVertex
100
AcDb2dVertex
 10
542.9039904722544
 20
330.7314703123578
 30
0.0
  0
VERTEX
  5
2FAA
330
2FA6
100
AcDbEntity
  8
0
 48
2.0
100
AcDbVertex
100
AcDb2dVertex
 10
542.9039904722544
 20
320.9165158440987
 30
0.0
  0
VERTEX
  5
2FAB
330
2FA6
100
AcDbEntity
  8
0
 48
2.0
100
AcDbVertex
100
AcDb2dVertex
 10
551.4039903787545
 20
316.009038609969
 30
0.0
  0
VERTEX
  5
2FAC
330
2FA6
100
AcDbEntity
  8
0
 48
2.0
100
AcDbVertex
100
AcDb2dVertex
 10
559.9039902852545
 20
320.9165158440986
 30
0.0
  0
SEQEND
  5
2FAD
330
2FA6
100
AcDbEntity
  8
0
 48
2.0
  0
LINE
  5
2FAE
330
18
100
AcDbEntity
  8
0
 48
2.0
100
AcDbLine
 10
549.9924476624012
 20
334.8239929792281
 30
0.0
 11
483.8155338541078
 21
334.8239929792281
 31
0.0
  0
LINE
  5
2FAF
330
18
100
AcDbEntity
  8
0
 48
2.0
100
AcDbLine
 10
549.9924476624012
 20
316.8239931772281
 30
0.0
 11
483.8155338541078
 21
316.8239931772283
 31
0.0
  0
LINE
  5
2FB0
330
18
100
AcDbEntity
  8
0
 48
2.0
100
AcDbLine
 10
480.9924484214014
 20
334.8239929792281
 30
0.0
 11
471.9039912532545
 21
334.8239929792281
 31
0.0
  0
LINE
  5
2FB1
330
18
100
AcDbEntity
  8
0
 48
2.0
100
AcDbLine
 10
480.9924484214014
 20
316.8239931772283
 30
0.0
 11
471.9039912532545
 21
316.8239931772283
 31
0.0
  0
LINE
  5
2FB2
330
18
100
AcDbEntity
  8
7A
 48
2.0
100
AcDbLine
 10
511.4039908187544
 20
325.8239930782282
 30
0.0
 11
522.4039906977541
 21
325.8239930782285
 31
0.0
  0
LINE
  5
2FB3
330
18
100
AcDbEntity
  8
7A
 48
2.0
100
AcDbLine
 10
545.9039904392543
 20
349.5211734739378
 30
0.0
 11
536.9039905382542
 21
349.5211734739378
 31
0.0
  0
LINE
  5
2FB4
330
18
100
AcDbEntity
  8
7A
 48
2.0
100
AcDbLine
 10
541.4039904887543
 20
354.5211734189378
 30
0.0
 11
541.4039904887543
 21
345.0211735234378
 31
0.0
  0
LINE
  5
2FB5
330
18
100
AcDbEntity
  8
7A
 48
2.0
100
AcDbLine
 10
549.4868941684967
 20
349.5211734739378
 30
0.0
 11
533.3210868090113
 21
349.5211734739378
 31
0.0
  0
LINE
  5
2FB6
330
18
100
AcDbEntity
  8
7A
 48
2.0
100
AcDbLine
 10
541.403990488754
 20
342.5211735509378
 30
0.0
 11
541.4039904887543
 21
356.5211733969377
 31
0.0
  0
LINE
  5
2FB7
330
18
100
AcDbEntity
  8
0
 48
2.0
100
AcDbLine
 10
579.9039900652537
 20
356.5739927399775
 30
0.0
 11
579.9039900652537
 21
351.2831469541999
 31
0.0
  0
LINE
  5
2FB8
330
18
100
AcDbEntity
  8
0
 48
2.0
100
AcDbLine
 10
561.9039902632534
 20
338.5739929379776
 30
0.0
 11
579.9039900652537
 21
338.5739929379776
 31
0.0
  0
LINE
  5
2FB9
330
18
100
AcDbEntity
  8
0
 48
2.0
100
AcDbLine
 10
561.9039902632534
 20
356.5739927399775
 30
0.0
 11
579.9039900652537
 21
356.5739927399775
 31
0.0
  0
LINE
  5
2FBA
330
18
100
AcDbEntity
  8
0
 48
2.0
100
AcDbLine
 10
601.9039876232534
 20
353.0739922284777
 30
0.0
 11
601.9039876232534
 21
342.0739934494777
 31
0.0
  0
LINE
  5
2FBB
330
18
100
AcDbEntity
  8
7A
 48
2.0
100
AcDbLine
 10
601.9039876232534
 20
347.5739928389776
 30
0.0
 11
579.9039900652537
 21
347.5739928389776
 31
0.0
  0
LINE
  5
2FBC
330
18
100
AcDbEntity
  8
0
 48
2.0
100
AcDbLine
 10
585.4039894547538
 20
354.5739920619776
 30
0.0
 11
579.9039900652537
 21
354.5739920619776
 31
0.0
  0
LINE
  5
2FBD
330
18
100
AcDbEntity
  8
7A
 48
2.0
100
AcDbLine
 10
596.4039882337537
 20
353.9248450951187
 30
0.0
 11
596.4039882337537
 21
341.2231405828364
 31
0.0
  0
LINE
  5
2FBE
330
18
100
AcDbEntity
  8
0
 48
2.0
100
AcDbLine
 10
601.9039876232534
 20
342.0739934494777
 30
0.0
 11
597.8777086285419
 21
342.0739934494777
 31
0.0
  0
LINE
  5
2FBF
330
18
100
AcDbEntity
  8
0
 48
2.0
100
AcDbLine
 10
585.4039894547538
 20
354.5739920619776
 30
0.0
 11
585.4039894547538
 21
351.0884289043342
 31
0.0
  0
LINE
  5
2FC0
330
18
100
AcDbEntity
  8
0
 48
2.0
100
AcDbLine
 10
601.9039876232534
 20
353.0739922284777
 30
0.0
 11
597.8777086285417
 21
353.0739922284777
 31
0.0
  0
LINE
  5
2FC1
330
18
100
AcDbEntity
  8
0
 48
2.0
100
AcDbLine
 10
594.9302678389654
 20
342.0739934494777
 30
0.0
 11
585.4039894547538
 21
342.0739934494777
 31
0.0
  0
POLYLINE
  5
2FC2
330
18
100
AcDbEntity
  8
0
 48
2.0
100
AcDb2dPolyline
 66
     1
 10
0.0
 20
0.0
 30
0.0
  0
VERTEX
  5
2FC3
330
2FC2
100
AcDbEntity
  8
0
 48
2.0
100
AcDbVertex
100
AcDb2dVertex
 10
601.9039876232534
 20
350.7494189670483
 30
0.0
  0
VERTEX
  5
2FC4
330
2FC2
100
AcDbEntity
  8
0
 48
2.0
100
AcDbVertex
100
AcDb2dVertex
 10
596.4039882337537
 20
353.9248450951187
 30
0.0
  0
VERTEX
  5
2FC5
330
2FC2
100
AcDbEntity
  8
0
 48
2.0
100
AcDbVertex
100
AcDb2dVertex
 10
590.9039888442539
 20
350.7494189670483
 30
0.0
  0
SEQEND
  5
2FC6
330
2FC2
100
AcDbEntity
  8
0
 48
2.0
  0
LINE
  5
2FC7
330
18
100
AcDbEntity
  8
0
 48
2.0
100
AcDbLine
 10
585.4039894547538
 20
340.5739936159777
 30
0.0
 11
579.9039900652537
 21
340.5739936159777
 31
0.0
  0
LINE
  5
2FC8
330
18
100
AcDbEntity
  8
0
 48
2.0
100
AcDbLine
 10
594.9302678389654
 20
353.0739922284777
 30
0.0
 11
585.4039894547538
 21
353.0739922284777
 31
0.0
  0
LINE
  5
2FC9
330
18
100
AcDbEntity
  8
0
 48
2.0
100
AcDbLine
 10
579.9039900652537
 20
345.0331470229498
 30
0.0
 11
579.9039900652537
 21
338.5739929379776
 31
0.0
  0
LINE
  5
2FCA
330
18
100
AcDbEntity
  8
0
 48
2.0
100
AcDbLine
 10
585.4039894547538
 20
344.8384289730841
 30
0.0
 11
585.4039894547538
 21
340.5739936159777
 31
0.0
  0
ARC
  5
2FCB
330
18
100
AcDbEntity
  8
0
 48
2.0
100
AcDbCircle
 10
541.4039904887543
 20
349.5211734739378
 30
0.0
 40
8.749999903749998
100
AcDbArc
 50
18.88350453821654
 51
337.0612714528015
  0
ARC
  5
2FCC
330
18
100
AcDbEntity
  8
0
 48
2.0
100
AcDbCircle
 10
541.4039904887543
 20
349.5211734739378
 30
0.0
 40
3.124999965625
100
AcDbArc
 50
85.94477599101811
 51
269.9999999999909
  0
ARC
  5
2FCD
330
18
100
AcDbEntity
  8
0
 48
2.0
100
AcDbCircle
 10
596.4039882337537
 20
347.5739928389776
 30
0.0
 40
3.124999965625
100
AcDbArc
 50
265.9447759910272
 51
90.00000000000129
  0
LINE
  5
2FCE
330
18
100
AcDbEntity
  8
0
 48
2.0
100
AcDbLine
 10
596.4039882337537
 20
350.6989928046026
 30
0.0
 11
541.4039904887543
 21
352.6461734395628
 31
0.0
  0
LINE
  5
2FCF
330
18
100
AcDbEntity
  8
0
 48
2.0
100
AcDbLine
 10
541.4039904887543
 20
346.3961735083129
 30
0.0
 11
596.4039882337537
 21
344.4489928733527
 31
0.0
  0
POLYLINE
  5
2FD0
330
18
100
AcDbEntity
  8
0
 48
2.0
100
AcDb2dPolyline
 66
     1
 10
0.0
 20
0.0
 30
0.0
  0
VERTEX
  5
2FD1
330
2FD0
100
AcDbEntity
  8
0
 48
2.0
100
AcDbVertex
100
AcDb2dVertex
 10
590.9039888442539
 20
344.6437109232182
 30
0.0
  0
VERTEX
  5
2FD2
330
2FD0
100
AcDbEntity
  8
0
 48
2.0
100
AcDbVertex
100
AcDb2dVertex
 10
590.9039888442539
 20
344.3985667109068
 30
0.0
  0
VERTEX
  5
2FD3
330
2FD0
100
AcDbEntity
  8
0
 48
2.0
100
AcDbVertex
100
AcDb2dVertex
 10
596.4039882337537
 20
341.2231405828364
 30
0.0
  0
VERTEX
  5
2FD4
330
2FD0
100
AcDbEntity
  8
0
 48
2.0
100
AcDbVertex
100
AcDb2dVertex
 10
601.9039876232534
 20
344.3985667109068
 30
0.0
  0
VERTEX
  5
2FD5
330
2FD0
100
AcDbEntity
  8
0
 48
2.0
100
AcDbVertex
100
AcDb2dVertex
 10
601.9039876232534
 20
350.7494189670483
 30
0.0
  0
SEQEND
  5
2FD6
330
2FD0
100
AcDbEntity
  8
0
 48
2.0
  0
CIRCLE
  5
2FD7
330
18
100
AcDbEntity
  8
0
 48
2.0
100
AcDbCircle
 10
516.9039907582543
 20
250.3239939087277
 30
0.0
 40
5.999999934
  0
LINE
  5
2FD8
330
18
100
AcDbEntity
  8
7A
 48
2.0
100
AcDbLine
 10
522.9039906922544
 20
250.3239939087277
 30
0.0
 11
510.9039908242548
 21
250.3239939087277
 31
0.0
  0
CIRCLE
  5
2FD9
330
18
100
AcDbEntity
  8
0
 48
2.0
100
AcDbCircle
 10
516.9039907582543
 20
250.3239939087277
 30
0.0
 40
5.374999940874999
  0
CIRCLE
  5
2FDA
330
18
100
AcDbEntity
  8
0
 48
2.0
100
AcDbCircle
 10
516.9039907582543
 20
250.3239939087277
 30
0.0
 40
4.124999954625002
  0
CIRCLE
  5
2FDB
330
18
100
AcDbEntity
  8
0
 48
2.0
100
AcDbCircle
 10
516.9039907582543
 20
253.0613572064708
 30
0.0
 40
0.624999993125
  0
CIRCLE
  5
2FDC
330
18
100
AcDbEntity
  8
0
 48
2.0
100
AcDbCircle
 10
516.9039907582543
 20
250.3239939087277
 30
0.0
 40
0.624999993125
  0
CIRCLE
  5
2FDD
330
18
100
AcDbEntity
  8
0
 48
2.0
100
AcDbCircle
 10
514.7638339531261
 20
252.030712008853
 30
0.0
 40
0.624999993125
  0
CIRCLE
  5
2FDE
330
18
100
AcDbEntity
  8
0
 48
2.0
100
AcDbCircle
 10
514.2352588735024
 20
249.7148732711363
 30
0.0
 40
0.624999993125
  0
CIRCLE
  5
2FDF
330
18
100
AcDbEntity
  8
0
 48
2.0
100
AcDbCircle
 10
515.7162933353068
 20
247.8577147973224
 30
0.0
 40
0.624999993125
  0
CIRCLE
  5
2FE0
330
18
100
AcDbEntity
  8
0
 48
2.0
100
AcDbCircle
 10
518.0916881812025
 20
247.8577147973224
 30
0.0
 40
0.624999993125
  0
CIRCLE
  5
2FE1
330
18
100
AcDbEntity
  8
0
 48
2.0
100
AcDbCircle
 10
519.5727226430062
 20
249.7148732711363
 30
0.0
 40
0.624999993125
  0
CIRCLE
  5
2FE2
330
18
100
AcDbEntity
  8
0
 48
2.0
100
AcDbCircle
 10
519.0441475633824
 20
252.030712008853
 30
0.0
 40
0.624999993125
  0
LINE
  5
2FE3
330
18
100
AcDbEntity
  8
7A
 48
2.0
100
AcDbLine
 10
562.9039902522545
 20
248.8239939252279
 30
0.0
 11
573.9039901312546
 21
248.8239939252279
 31
0.0
  0
LINE
  5
2FE4
330
18
100
AcDbEntity
  8
7A
 48
2.0
100
AcDbLine
 10
568.4039901917547
 20
254.323993864728
 30
0.0
 11
568.4039901917549
 21
243.3239939857279
 31
0.0
  0
CIRCLE
  5
2FE5
330
18
100
AcDbEntity
  8
0
 48
2.0
100
AcDbCircle
 10
568.4039901917547
 20
248.8239939252279
 30
0.0
 40
5.499999939500001
  0
CIRCLE
  5
2FE6
330
18
100
AcDbEntity
  8
0
 48
2.0
100
AcDbCircle
 10
568.4039901917547
 20
248.8239939252279
 30
0.0
 40
4.999999944999999
  0
POLYLINE
  5
2FE7
330
18
100
AcDbEntity
  8
0
 48
2.0
100
AcDb2dPolyline
 66
     1
 10
0.0
 20
0.0
 30
0.0
 70
     1
  0
VERTEX
  5
2FE8
330
2FE7
100
AcDbEntity
  8
0
 48
2.0
100
AcDbVertex
100
AcDb2dVertex
 10
567.2492896660771
 20
250.8239939032278
 30
0.0
  0
VERTEX
  5
2FE9
330
2FE7
100
AcDbEntity
  8
0
 48
2.0
100
AcDbVertex
100
AcDb2dVertex
 10
566.0945891403994
 20
248.8239939252279
 30
0.0
  0
VERTEX
  5
2FEA
330
2FE7
100
AcDbEntity
  8
0
 48
2.0
100
AcDbVertex
100
AcDb2dVertex
 10
567.2492896660771
 20
246.8239939472279
 30
0.0
  0
VERTEX
  5
2FEB
330
2FE7
100
AcDbEntity
  8
0
 48
2.0
100
AcDbVertex
100
AcDb2dVertex
 10
569.5586907174322
 20
246.8239939472279
 30
0.0
  0
VERTEX
  5
2FEC
330
2FE7
100
AcDbEntity
  8
0
 48
2.0
100
AcDbVertex
100
AcDb2dVertex
 10
570.7133912431095
 20
248.8239939252279
 30
0.0
  0
VERTEX
  5
2FED
330
2FE7
100
AcDbEntity
  8
0
 48
2.0
100
AcDbVertex
100
AcDb2dVertex
 10
569.5586907174322
 20
250.8239939032278
 30
0.0
  0
SEQEND
  5
2FEE
330
2FE7
100
AcDbEntity
  8
0
 48
2.0
  0
CIRCLE
  5
2FEF
330
18
100
AcDbEntity
  8
0
 48
2.0
100
AcDbCircle
 10
465.403991324755
 20
248.8239939252277
 30
0.0
 40
5.499999939500001
  0
LINE
  5
2FF0
330
18
100
AcDbEntity
  8
7A
 48
2.0
100
AcDbLine
 10
465.403991324755
 20
254.3239938647277
 30
0.0
 11
465.403991324755
 21
243.3239939857277
 31
0.0
  0
LINE
  5
2FF1
330
18
100
AcDbEntity
  8
7A
 48
2.0
100
AcDbLine
 10
470.9039912642547
 20
248.8239939252277
 30
0.0
 11
459.9039913852548
 21
248.8239939252277
 31
0.0
  0
POLYLINE
  5
2FF2
330
18
100
AcDbEntity
  8
0
 48
2.0
100
AcDb2dPolyline
 66
     1
 10
0.0
 20
0.0
 30
0.0
 70
     1
  0
VERTEX
  5
2FF3
330
2FF2
100
AcDbEntity
  8
0
 48
2.0
100
AcDbVertex
100
AcDb2dVertex
 10
464.2492907990772
 20
250.8239939032277
 30
0.0
  0
VERTEX
  5
2FF4
330
2FF2
100
AcDbEntity
  8
0
 48
2.0
100
AcDbVertex
100
AcDb2dVertex
 10
463.0945902733997
 20
248.8239939252277
 30
0.0
  0
VERTEX
  5
2FF5
330
2FF2
100
AcDbEntity
  8
0
 48
2.0
100
AcDbVertex
100
AcDb2dVertex
 10
464.2492907990772
 20
246.8239939472277
 30
0.0
  0
VERTEX
  5
2FF6
330
2FF2
100
AcDbEntity
  8
0
 48
2.0
100
AcDbVertex
100
AcDb2dVertex
 10
466.5586918504323
 20
246.8239939472277
 30
0.0
  0
VERTEX
  5
2FF7
330
2FF2
100
AcDbEntity
  8
0
 48
2.0
100
AcDbVertex
100
AcDb2dVertex
 10
467.7133923761098
 20
248.8239939252277
 30
0.0
  0
VERTEX
  5
2FF8
330
2FF2
100
AcDbEntity
  8
0
 48
2.0
100
AcDbVertex
100
AcDb2dVertex
 10
466.5586918504323
 20
250.8239939032277
 30
0.0
  0
SEQEND
  5
2FF9
330
2FF2
100
AcDbEntity
  8
0
 48
2.0
  0
CIRCLE
  5
2FFA
330
18
100
AcDbEntity
  8
0
 48
2.0
100
AcDbCircle
 10
465.403991324755
 20
248.8239939252277
 30
0.0
 40
4.999999944999999
  0
CIRCLE
  5
2FFB
330
18
100
AcDbEntity
  8
0
 48
2.0
100
AcDbCircle
 10
540.9039904942546
 20
305.8239932982276
 30
0.0
 40
5.499999939500001
  0
LINE
  5
2FFC
330
18
100
AcDbEntity
  8
7A
 48
2.0
100
AcDbLine
 10
535.4039905547547
 20
305.8239932982279
 30
0.0
 11
546.4039904337546
 21
305.8239932982276
 31
0.0
  0
CIRCLE
  5
2FFD
330
18
100
AcDbEntity
  8
0
 48
2.0
100
AcDbCircle
 10
540.9039904942546
 20
305.8239932982279
 30
0.0
 40
4.999999944999999
  0
POLYLINE
  5
2FFE
330
18
100
AcDbEntity
  8
0
 48
2.0
100
AcDb2dPolyline
 66
     1
 10
0.0
 20
0.0
 30
0.0
 70
     1
  0
VERTEX
  5
2FFF
330
2FFE
100
AcDbEntity
  8
0
 48
2.0
100
AcDbVertex
100
AcDb2dVertex
 10
539.7492899685771
 20
307.8239932762279
 30
0.0
  0
VERTEX
  5
3000
330
2FFE
100
AcDbEntity
  8
0
 48
2.0
100
AcDbVertex
100
AcDb2dVertex
 10
538.5945894428994
 20
305.8239932982279
 30
0.0
  0
VERTEX
  5
3001
330
2FFE
100
AcDbEntity
  8
0
 48
2.0
100
AcDbVertex
100
AcDb2dVertex
 10
539.7492899685771
 20
303.8239933202278
 30
0.0
  0
VERTEX
  5
3002
330
2FFE
100
AcDbEntity
  8
0
 48
2.0
100
AcDbVertex
100
AcDb2dVertex
 10
542.0586910199319
 20
303.8239933202278
 30
0.0
  0
VERTEX
  5
3003
330
2FFE
100
AcDbEntity
  8
0
 48
2.0
100
AcDbVertex
100
AcDb2dVertex
 10
543.2133915456095
 20
305.8239932982279
 30
0.0
  0
VERTEX
  5
3004
330
2FFE
100
AcDbEntity
  8
0
 48
2.0
100
AcDbVertex
100
AcDb2dVertex
 10
542.0586910199319
 20
307.8239932762279
 30
0.0
  0
SEQEND
  5
3005
330
2FFE
100
AcDbEntity
  8
0
 48
2.0
  0
LINE
  5
3006
330
18
100
AcDbEntity
  8
7A
 48
2.0
100
AcDbLine
 10
126.1489950298762
 20
279.8239935842274
 30
0.0
 11
87.36601690277451
 21
279.8239935842274
 31
0.0
  0
LINE
  5
3007
330
18
100
AcDbEntity
  8
0
 48
2.0
100
AcDbLine
 10
169.1489945568764
 20
315.3239931937275
 30
0.0
 11
169.1489945568764
 21
334.8239929792278
 31
0.0
  0
LINE
  5
3008
330
18
100
AcDbEntity
  8
0
 48
2.0
100
AcDbLine
 10
191.1489943148764
 20
313.3239932157275
 30
0.0
 11
191.148994314876
 21
334.8239929792278
 31
0.0
  0
LINE
  5
3009
330
18
100
AcDbEntity
  8
0
 48
2.0
100
AcDbLine
 10
191.148994314876
 20
334.8239929792278
 30
0.0
 11
159.1489946668765
 21
334.8239929792278
 31
0.0
  0
LINE
  5
300A
330
18
100
AcDbEntity
  8
0
 48
2.0
100
AcDbLine
 10
178.1489944578764
 20
335.8239929682274
 30
0.0
 11
178.1489944578764
 21
341.0739934604772
 31
0.0
  0
LINE
  5
300B
330
18
100
AcDbEntity
  8
0
 48
2.0
100
AcDbLine
 10
268.1489934678765
 20
335.823992968227
 30
0.0
 11
268.1489934678765
 21
359.3239927097271
 31
0.0
  0
LINE
  5
300C
330
18
100
AcDbEntity
  8
0
 48
2.0
100
AcDbLine
 10
268.1489934678765
 20
359.323992709727
 30
0.0
 11
178.1489944578764
 21
359.3239927097271
 31
0.0
  0
LINE
  5
300D
330
18
100
AcDbEntity
  8
0
 48
2.0
100
AcDbLine
 10
267.1489934788767
 20
332.3239930067273
 30
0.0
 11
267.1489934788766
 21
335.8239929682273
 31
0.0
  0
LINE
  5
300E
330
18
100
AcDbEntity
  8
0
 48
2.0
100
AcDbLine
 10
268.1489934678764
 20
335.8239929682273
 30
0.0
 11
267.1489934788766
 21
335.8239929682273
 31
0.0
  0
LINE
  5
300F
330
18
100
AcDbEntity
  8
0
 48
2.0
100
AcDbLine
 10
250.6489936603767
 20
319.8239931442274
 30
0.0
 11
250.6489936603767
 21
331.8239930122274
 31
0.0
  0
LINE
  5
3010
330
18
100
AcDbEntity
  8
0
 48
2.0
100
AcDbLine
 10
267.1489934788767
 20
332.3239930067273
 30
0.0
 11
223.1489939628764
 21
332.3239930067273
 31
0.0
  0
LINE
  5
3011
330
18
100
AcDbEntity
  8
0
 48
2.0
100
AcDbLine
 10
267.1489934788767
 20
319.3239931497274
 30
0.0
 11
223.1489939628764
 21
319.3239931497274
 31
0.0
  0
ARC
  5
3012
330
18
100
AcDbEntity
  8
0
 48
2.0
100
AcDbCircle
 10
251.1489936548766
 20
331.8239930122274
 30
0.0
 40
0.4999999945
100
AcDbArc
 50
90.00000000000021
 51
180.0
  0
ARC
  5
3013
330
18
100
AcDbEntity
  8
0
 48
2.0
100
AcDbCircle
 10
251.1489936548766
 20
319.8239931442274
 30
0.0
 40
0.4999999945
100
AcDbArc
 50
180.0000000000002
 51
270.0
  0
ARC
  5
3014
330
18
100
AcDbEntity
  8
0
 48
2.0
100
AcDbCircle
 10
251.1489936548769
 20
319.8239931442274
 30
0.0
 40
0.4999999945
100
AcDbArc
 50
180.0000000000002
 51
270.0
  0
ARC
  5
3015
330
18
100
AcDbEntity
  8
0
 48
2.0
100
AcDbCircle
 10
195.1489942708761
 20
319.8239931442274
 30
0.0
 40
0.4999999945
100
AcDbArc
 50
270.0
 51
359.9999999999997
  0
ARC
  5
3016
330
18
100
AcDbEntity
  8
0
 48
2.0
100
AcDbCircle
 10
195.1489942708764
 20
319.8239931442274
 30
0.0
 40
0.4999999945
100
AcDbArc
 50
270.0
 51
359.9999999999997
  0
ARC
  5
3017
330
18
100
AcDbEntity
  8
0
 48
2.0
100
AcDbCircle
 10
195.1489942708764
 20
331.8239930122275
 30
0.0
 40
0.4999999945
100
AcDbArc
 50
360.0
 51
89.99999999999971
  0
LINE
  5
3018
330
18
100
AcDbEntity
  8
0
 48
2.0
100
AcDbLine
 10
191.148994314876
 20
319.3239931497274
 30
0.0
 11
223.1489939628764
 21
319.3239931497274
 31
0.0
  0
LINE
  5
3019
330
18
100
AcDbEntity
  8
0
 48
2.0
100
AcDbLine
 10
191.148994314876
 20
332.3239930067273
 30
0.0
 11
223.1489939628764
 21
332.3239930067273
 31
0.0
  0
LINE
  5
301A
330
18
100
AcDbEntity
  8
0
 48
2.0
100
AcDbLine
 10
178.1489944578767
 20
335.8239929682273
 30
0.0
 11
179.1489944468765
 21
335.8239929682273
 31
0.0
  0
LINE
  5
301B
330
18
100
AcDbEntity
  8
0
 48
2.0
100
AcDbLine
 10
179.1489944468765
 20
334.8239929792278
 30
0.0
 11
179.1489944468765
 21
335.8239929682273
 31
0.0
  0
LINE
  5
301C
330
18
100
AcDbEntity
  8
0
 48
2.0
100
AcDbLine
 10
268.1489934678764
 20
335.823992968227
 30
0.0
 11
178.1489944578767
 21
335.8239929682273
 31
0.0
  0
LINE
  5
301D
330
18
100
AcDbEntity
  8
5
 48
2.0
100
AcDbLine
 10
157.1489946888762
 20
320.323993138728
 30
0.0
 11
163.1489946228762
 21
320.323993138728
 31
0.0
  0
LINE
  5
301E
330
18
100
AcDbEntity
  8
5
 48
2.0
100
AcDbLine
 10
157.1489946888762
 20
331.3239930177275
 30
0.0
 11
163.1489946228762
 21
331.3239930177275
 31
0.0
  0
LINE
  5
301F
330
18
100
AcDbEntity
  8
0
 48
2.0
100
AcDbLine
 10
157.1489946888762
 20
319.8239931442278
 30
0.0
 11
163.1489946228762
 21
319.8239931442278
 31
0.0
  0
LINE
  5
3020
330
18
100
AcDbEntity
  8
0
 48
2.0
100
AcDbLine
 10
157.1489946888762
 20
331.8239930122278
 30
0.0
 11
163.1489946228762
 21
331.8239930122278
 31
0.0
  0
LINE
  5
3021
330
18
100
AcDbEntity
  8
0
 48
2.0
100
AcDbLine
 10
157.1489946888762
 20
318.3239931607277
 30
0.0
 11
157.1489946888762
 21
333.3239929957277
 31
0.0
  0
LINE
  5
3022
330
18
100
AcDbEntity
  8
0
 48
2.0
100
AcDbLine
 10
145.1489948208764
 20
322.071983057899
 30
0.0
 11
157.1489946888762
 21
322.071983057899
 31
0.0
  0
LINE
  5
3023
330
18
100
AcDbEntity
  8
0
 48
2.0
100
AcDbLine
 10
145.1489948208764
 20
329.5760030985566
 30
0.0
 11
157.1489946888762
 21
329.5760030985566
 31
0.0
  0
LINE
  5
3024
330
18
100
AcDbEntity
  8
0
 48
2.0
100
AcDbLine
 10
145.1489948208764
 20
333.3239929957277
 30
0.0
 11
157.1489946888762
 21
333.3239929957277
 31
0.0
  0
LINE
  5
3025
330
18
100
AcDbEntity
  8
0
 48
2.0
100
AcDbLine
 10
145.1489948208764
 20
318.3239931607277
 30
0.0
 11
157.1489946888762
 21
318.3239931607277
 31
0.0
  0
LINE
  5
3026
330
18
100
AcDbEntity
  8
0
 48
2.0
100
AcDbLine
 10
145.1489948208764
 20
318.3239931607277
 30
0.0
 11
145.1489948208764
 21
333.3239929957277
 31
0.0
  0
LINE
  5
3027
330
18
100
AcDbEntity
  8
0
 48
2.0
100
AcDbLine
 10
163.1489946228762
 20
316.8239931772279
 30
0.0
 11
163.1489946228762
 21
334.8239929792278
 31
0.0
  0
LINE
  5
3028
330
18
100
AcDbEntity
  8
7A
 48
2.0
100
AcDbLine
 10
145.1489948208764
 20
325.8239930782277
 30
0.0
 11
214.1489940618765
 21
325.8239930782277
 31
0.0
  0
LINE
  5
3029
330
18
100
AcDbEntity
  8
0
 48
2.0
100
AcDbLine
 10
214.1489940618765
 20
320.823993133228
 30
0.0
 11
214.1489940618765
 21
330.8239930232276
 31
0.0
  0
LINE
  5
302A
330
18
100
AcDbEntity
  8
0
 48
2.0
100
AcDbLine
 10
213.1489940728762
 20
319.8239931442281
 30
0.0
 11
213.1489940728766
 21
331.8239930122278
 31
0.0
  0
LINE
  5
302B
330
18
100
AcDbEntity
  8
0
 48
2.0
100
AcDbLine
 10
191.1489943148764
 20
331.8239930122278
 30
0.0
 11
213.1489940728762
 21
331.8239930122278
 31
0.0
  0
LINE
  5
302C
330
18
100
AcDbEntity
  8
5
 48
2.0
100
AcDbLine
 10
191.1489943148764
 20
331.3239930177275
 30
0.0
 11
213.1489940728762
 21
331.3239930177275
 31
0.0
  0
LINE
  5
302D
330
18
100
AcDbEntity
  8
0
 48
2.0
100
AcDbLine
 10
191.1489943148764
 20
319.8239931442281
 30
0.0
 11
213.1489940728762
 21
319.8239931442281
 31
0.0
  0
LINE
  5
302E
330
18
100
AcDbEntity
  8
5
 48
2.0
100
AcDbLine
 10
191.1489943148764
 20
320.323993138728
 30
0.0
 11
213.1489940728762
 21
320.323993138728
 31
0.0
  0
LINE
  5
302F
330
18
100
AcDbEntity
  8
0
 48
2.0
100
AcDbLine
 10
213.1489940728762
 20
330.8239930232276
 30
0.0
 11
214.1489940618765
 21
330.8239930232276
 31
0.0
  0
LINE
  5
3030
330
18
100
AcDbEntity
  8
0
 48
2.0
100
AcDbLine
 10
213.1489940728762
 20
320.823993133228
 30
0.0
 11
214.1489940618765
 21
320.823993133228
 31
0.0
  0
LINE
  5
3031
330
18
100
AcDbEntity
  8
0
 48
2.0
100
AcDbLine
 10
169.1489945568764
 20
316.8239931772279
 30
0.0
 11
159.1489946668765
 21
316.8239931772279
 31
0.0
  0
LINE
  5
3032
330
18
100
AcDbEntity
  8
0
 48
2.0
100
AcDbLine
 10
159.1489946668765
 20
316.8239931772279
 30
0.0
 11
159.1489946668765
 21
319.8239931442278
 31
0.0
  0
LINE
  5
3033
330
18
100
AcDbEntity
  8
0
 48
2.0
100
AcDbLine
 10
159.1489946668765
 20
331.8239930122278
 30
0.0
 11
159.1489946668765
 21
334.8239929792278
 31
0.0
  0
LINE
  5
3034
330
18
100
AcDbEntity
  8
0
 48
2.0
100
AcDbLine
 10
266.5641855110987
 20
319.8239931442274
 30
0.0
 11
266.5641855110987
 21
331.8239930122274
 31
0.0
  0
LINE
  5
3035
330
18
100
AcDbEntity
  8
7A
 48
2.0
100
AcDbLine
 10
179.3989944441264
 20
353.8239927702272
 30
0.0
 11
182.3989944111265
 21
353.8239927702272
 31
0.0
  0
LINE
  5
3036
330
18
100
AcDbEntity
  8
7A
 48
2.0
100
AcDbLine
 10
180.8989944276263
 20
352.3239927867272
 30
0.0
 11
180.8989944276263
 21
355.3239927537273
 31
0.0
  0
LINE
  5
3037
330
18
100
AcDbEntity
  8
7A
 48
2.0
100
AcDbLine
 10
265.3989934981264
 20
340.3559527806852
 30
0.0
 11
265.3989934981264
 21
343.3559527476853
 31
0.0
  0
LINE
  5
3038
330
18
100
AcDbEntity
  8
7A
 48
2.0
100
AcDbLine
 10
263.8989935146266
 20
341.8559527641853
 30
0.0
 11
266.8989934816267
 21
341.8559527641853
 31
0.0
  0
POLYLINE
  5
3039
330
18
100
AcDbEntity
  8
0
 48
2.0
100
AcDb2dPolyline
 66
     1
 10
0.0
 20
0.0
 30
0.0
 70
     1
  0
VERTEX
  5
303A
330
3039
100
AcDbEntity
  8
0
 48
2.0
100
AcDbVertex
100
AcDb2dVertex
 10
264.5329681038687
 20
343.3559527476853
 30
0.0
  0
VERTEX
  5
303B
330
3039
100
AcDbEntity
  8
0
 48
2.0
100
AcDbVertex
100
AcDb2dVertex
 10
263.6669427096101
 20
341.8559527641853
 30
0.0
  0
VERTEX
  5
303C
330
3039
100
AcDbEntity
  8
0
 48
2.0
100
AcDbVertex
100
AcDb2dVertex
 10
264.5329681038687
 20
340.3559527806852
 30
0.0
  0
VERTEX
  5
303D
330
3039
100
AcDbEntity
  8
0
 48
2.0
100
AcDbVertex
100
AcDb2dVertex
 10
266.2650188923848
 20
340.3559527806852
 30
0.0
  0
VERTEX
  5
303E
330
3039
100
AcDbEntity
  8
0
 48
2.0
100
AcDbVertex
100
AcDb2dVertex
 10
267.1310442866428
 20
341.8559527641853
 30
0.0
  0
VERTEX
  5
303F
330
3039
100
AcDbEntity
  8
0
 48
2.0
100
AcDbVertex
100
AcDb2dVertex
 10
266.2650188923848
 20
343.3559527476853
 30
0.0
  0
SEQEND
  5
3040
330
3039
100
AcDbEntity
  8
0
 48
2.0
  0
CIRCLE
  5
3041
330
18
100
AcDbEntity
  8
0
 48
2.0
100
AcDbCircle
 10
265.3989934981264
 20
341.8559527641853
 30
0.0
 40
2.499999972499999
  0
LINE
  5
3042
330
18
100
AcDbEntity
  8
7A
 48
2.0
100
AcDbLine
 10
268.3989934651263
 20
341.8559527641853
 30
0.0
 11
262.398993531127
 21
341.8559527641853
 31
0.0
  0
LINE
  5
3043
330
18
100
AcDbEntity
  8
7A
 48
2.0
100
AcDbLine
 10
265.3989934981264
 20
338.8559527971856
 30
0.0
 11
265.3989934981264
 21
344.8559527311851
 31
0.0
  0
LINE
  5
3044
330
18
100
AcDbEntity
  8
7A
 48
2.0
100
AcDbLine
 10
180.8989944276263
 20
350.8239928032275
 30
0.0
 11
180.8989944276263
 21
356.8239927372271
 31
0.0
  0
LINE
  5
3045
330
18
100
AcDbEntity
  8
7A
 48
2.0
100
AcDbLine
 10
183.898994394626
 20
353.8239927702272
 30
0.0
 11
177.8989944606267
 21
353.8239927702272
 31
0.0
  0
ARC
  5
3046
330
18
100
AcDbEntity
  8
0
 48
2.0
100
AcDbCircle
 10
180.8989944276263
 20
353.8239927702272
 30
0.0
 40
2.499999972499999
100
AcDbArc
 50
315.5729783485601
 51
224.4270216514399
  0
POLYLINE
  5
3047
330
18
100
AcDbEntity
  8
0
 48
2.0
100
AcDb2dPolyline
 66
     1
 10
0.0
 20
0.0
 30
0.0
 70
     1
  0
VERTEX
  5
3048
330
3047
100
AcDbEntity
  8
0
 48
2.0
100
AcDbVertex
100
AcDb2dVertex
 10
180.0329690333684
 20
355.3239927537273
 30
0.0
  0
VERTEX
  5
3049
330
3047
100
AcDbEntity
  8
0
 48
2.0
100
AcDbVertex
100
AcDb2dVertex
 10
179.1669436391103
 20
353.8239927702272
 30
0.0
  0
VERTEX
  5
304A
330
3047
100
AcDbEntity
  8
0
 48
2.0
100
AcDbVertex
100
AcDb2dVertex
 10
180.0329690333684
 20
352.3239927867272
 30
0.0
  0
VERTEX
  5
304B
330
3047
100
AcDbEntity
  8
0
 48
2.0
100
AcDbVertex
100
AcDb2dVertex
 10
181.7650198218846
 20
352.3239927867272
 30
0.0
  0
VERTEX
  5
304C
330
3047
100
AcDbEntity
  8
0
 48
2.0
100
AcDbVertex
100
AcDb2dVertex
 10
182.6310452161428
 20
353.8239927702272
 30
0.0
  0
VERTEX
  5
304D
330
3047
100
AcDbEntity
  8
0
 48
2.0
100
AcDbVertex
100
AcDb2dVertex
 10
181.7650198218846
 20
355.3239927537273
 30
0.0
  0
SEQEND
  5
304E
330
3047
100
AcDbEntity
  8
0
 48
2.0
  0
LINE
  5
304F
330
18
100
AcDbEntity
  8
7A
 48
2.0
100
AcDbLine
 10
172.861106596102
 20
346.5739928499773
 30
0.0
 11
194.3989942791263
 21
346.5739928499773
 31
0.0
  0
CIRCLE
  5
3050
330
18
100
AcDbEntity
  8
0
 48
2.0
100
AcDbCircle
 10
192.3989943011263
 20
354.0739927674767
 30
0.0
 40
1.4999999835
  0
CIRCLE
  5
3051
330
18
100
AcDbEntity
  8
0
 48
2.0
100
AcDbCircle
 10
196.8989942516266
 20
354.0739927674767
 30
0.0
 40
1.4999999835
  0
CIRCLE
  5
3052
330
18
100
AcDbEntity
  8
0
 48
2.0
100
AcDbCircle
 10
205.8989941526265
 20
354.0739927674767
 30
0.0
 40
1.4999999835
  0
CIRCLE
  5
3053
330
18
100
AcDbEntity
  8
0
 48
2.0
100
AcDbCircle
 10
220.8989939876265
 20
354.0739927674767
 30
0.0
 40
1.4999999835
  0
CIRCLE
  5
3054
330
18
100
AcDbEntity
  8
0
 48
2.0
100
AcDbCircle
 10
229.8989938886266
 20
354.0739927674767
 30
0.0
 40
1.4999999835
  0
CIRCLE
  5
3055
330
18
100
AcDbEntity
  8
0
 48
2.0
100
AcDbCircle
 10
237.3989938061267
 20
350.0739928114772
 30
0.0
 40
5.999999934
  0
CIRCLE
  5
3056
330
18
100
AcDbEntity
  8
0
 48
2.0
100
AcDbCircle
 10
225.3989939381264
 20
346.5739928499773
 30
0.0
 40
5.999999934
  0
CIRCLE
  5
3057
330
18
100
AcDbEntity
  8
0
 48
2.0
100
AcDbCircle
 10
213.3989940701265
 20
350.0739928114772
 30
0.0
 40
5.999999934
  0
ARC
  5
3058
330
18
100
AcDbEntity
  8
0
 48
2.0
100
AcDbCircle
 10
188.3989943451264
 20
346.5739928499773
 30
0.0
 40
5.999999934
100
AcDbArc
 50
246.4435225492073
 51
293.5564774507927
  0
CIRCLE
  5
3059
330
18
100
AcDbEntity
  8
0
 48
2.0
100
AcDbCircle
 10
201.3989942021267
 20
346.5739928499773
 30
0.0
 40
5.999999934
  0
LINE
  5
305A
330
18
100
AcDbEntity
  8
0
 48
2.0
100
AcDbLine
 10
173.6111065878522
 20
341.0739934604772
 30
0.0
 11
194.8611041541023
 21
341.0739934604772
 31
0.0
  0
LINE
  5
305B
330
18
100
AcDbEntity
  8
0
 48
2.0
100
AcDbLine
 10
173.6111065878522
 20
352.0739922394772
 30
0.0
 11
194.8611041541023
 21
352.0739922394772
 31
0.0
  0
LINE
  5
305C
330
18
100
AcDbEntity
  8
0
 48
2.0
100
AcDbLine
 10
194.8611041541023
 20
341.0739934604772
 30
0.0
 11
194.8611041541023
 21
352.0739922394772
 31
0.0
  0
LINE
  5
305D
330
18
100
AcDbEntity
  8
0
 48
2.0
100
AcDbLine
 10
173.6111065878521
 20
341.0739934604772
 30
0.0
 11
173.6111065878521
 21
352.0739922394772
 31
0.0
  0
LINE
  5
305E
330
18
100
AcDbEntity
  8
0
 48
2.0
100
AcDbLine
 10
177.6322889526232
 20
341.0739934604772
 30
0.0
 11
177.6322889526232
 21
352.0739922394772
 31
0.0
  0
ARC
  5
305F
330
18
100
AcDbEntity
  8
0
 48
2.0
100
AcDbCircle
 10
188.3989943451264
 20
346.5739928499773
 30
0.0
 40
5.999999934
100
AcDbArc
 50
66.44352254920616
 51
113.5564774507938
  0
ARC
  5
3060
330
18
100
AcDbEntity
  8
5
 48
2.0
100
AcDbCircle
 10
237.3989938061267
 20
350.0739928114772
 30
0.0
 40
4.499999950499999
100
AcDbArc
 50
180.5578617921275
 51
93.20174739729468
  0
CIRCLE
  5
3061
330
18
100
AcDbEntity
  8
0
 48
2.0
100
AcDbCircle
 10
237.3989938061267
 20
350.0739928114772
 30
0.0
 40
3.999999955999999
  0
CIRCLE
  5
3062
330
18
100
AcDbEntity
  8
0
 48
2.0
100
AcDbCircle
 10
237.3989938061267
 20
350.0739928114772
 30
0.0
 40
2.999999967
  0
CIRCLE
  5
3063
330
18
100
AcDbEntity
  8
0
 48
2.0
100
AcDbCircle
 10
237.3702862341529
 20
348.0600331257129
 30
0.0
 40
0.4999999945
  0
CIRCLE
  5
3064
330
18
100
AcDbEntity
  8
0
 48
2.0
100
AcDbCircle
 10
239.3688473535145
 20
350.494153188496
 30
0.0
 40
0.4999999945
  0
CIRCLE
  5
3065
330
18
100
AcDbEntity
  8
0
 48
2.0
100
AcDbCircle
 10
235.4419163301931
 20
350.5501288149119
 30
0.0
 40
0.4999999945
  0
CIRCLE
  5
3066
330
18
100
AcDbEntity
  8
0
 48
2.0
100
AcDbCircle
 10
223.4419164621932
 20
347.0501288534119
 30
0.0
 40
0.4999999945
  0
CIRCLE
  5
3067
330
18
100
AcDbEntity
  8
0
 48
2.0
100
AcDbCircle
 10
227.3688474855146
 20
346.994153226996
 30
0.0
 40
0.4999999945
  0
CIRCLE
  5
3068
330
18
100
AcDbEntity
  8
0
 48
2.0
100
AcDbCircle
 10
225.3702863661531
 20
344.5600331642129
 30
0.0
 40
0.4999999945
  0
CIRCLE
  5
3069
330
18
100
AcDbEntity
  8
0
 48
2.0
100
AcDbCircle
 10
225.3989939381264
 20
346.5739928499773
 30
0.0
 40
2.999999967
  0
CIRCLE
  5
306A
330
18
100
AcDbEntity
  8
0
 48
2.0
100
AcDbCircle
 10
225.3989939381264
 20
346.5739928499773
 30
0.0
 40
3.999999955999999
  0
ARC
  5
306B
330
18
100
AcDbEntity
  8
5
 48
2.0
100
AcDbCircle
 10
225.3989939381264
 20
346.5739928499773
 30
0.0
 40
4.499999950499999
100
AcDbArc
 50
180.5578617921275
 51
93.20174739729468
  0
ARC
  5
306C
330
18
100
AcDbEntity
  8
5
 48
2.0
100
AcDbCircle
 10
213.3989940701265
 20
350.0739928114772
 30
0.0
 40
4.499999950499999
100
AcDbArc
 50
180.5578617921275
 51
93.20174739729468
  0
CIRCLE
  5
306D
330
18
100
AcDbEntity
  8
0
 48
2.0
100
AcDbCircle
 10
213.3989940701265
 20
350.0739928114772
 30
0.0
 40
3.999999955999999
  0
CIRCLE
  5
306E
330
18
100
AcDbEntity
  8
0
 48
2.0
100
AcDbCircle
 10
213.3989940701265
 20
350.0739928114772
 30
0.0
 40
2.999999967
  0
CIRCLE
  5
306F
330
18
100
AcDbEntity
  8
0
 48
2.0
100
AcDbCircle
 10
213.3702864981529
 20
348.0600331257129
 30
0.0
 40
0.4999999945
  0
CIRCLE
  5
3070
330
18
100
AcDbEntity
  8
0
 48
2.0
100
AcDbCircle
 10
215.3688476175144
 20
350.494153188496
 30
0.0
 40
0.4999999945
  0
CIRCLE
  5
3071
330
18
100
AcDbEntity
  8
0
 48
2.0
100
AcDbCircle
 10
211.4419165941929
 20
350.5501288149119
 30
0.0
 40
0.4999999945
  0
ARC
  5
3072
330
18
100
AcDbEntity
  8
5
 48
2.0
100
AcDbCircle
 10
201.3989942021267
 20
346.5739928499773
 30
0.0
 40
4.499999950499999
100
AcDbArc
 50
180.5578617921275
 51
93.20174739729468
  0
CIRCLE
  5
3073
330
18
100
AcDbEntity
  8
0
 48
2.0
100
AcDbCircle
 10
201.3989942021267
 20
346.5739928499773
 30
0.0
 40
3.999999955999999
  0
CIRCLE
  5
3074
330
18
100
AcDbEntity
  8
0
 48
2.0
100
AcDbCircle
 10
201.3989942021267
 20
346.5739928499773
 30
0.0
 40
2.999999967
  0
CIRCLE
  5
3075
330
18
100
AcDbEntity
  8
0
 48
2.0
100
AcDbCircle
 10
201.370286630153
 20
344.5600331642129
 30
0.0
 40
0.4999999945
  0
CIRCLE
  5
3076
330
18
100
AcDbEntity
  8
0
 48
2.0
100
AcDbCircle
 10
203.3688477495145
 20
346.994153226996
 30
0.0
 40
0.4999999945
  0
CIRCLE
  5
3077
330
18
100
AcDbEntity
  8
0
 48
2.0
100
AcDbCircle
 10
199.4419167261929
 20
347.0501288534119
 30
0.0
 40
0.4999999945
  0
LINE
  5
3078
330
18
100
AcDbEntity
  8
0
 48
2.0
100
AcDbLine
 10
178.1489944578764
 20
339.3239929297267
 30
0.0
 11
214.8989940536268
 21
339.3239929297271
 31
0.0
  0
LINE
  5
3079
330
18
100
AcDbEntity
  8
0
 48
2.0
100
AcDbLine
 10
268.1489934678765
 20
339.3239929297276
 30
0.0
 11
214.8989940536268
 21
339.3239929297271
 31
0.0
  0
LINE
  5
307A
330
18
100
AcDbEntity
  8
0
 48
2.0
100
AcDbLine
 10
268.1489934678765
 20
357.3239927317272
 30
0.0
 11
174.3989944991265
 21
357.3239927317266
 31
0.0
  0
ARC
  5
307B
330
18
100
AcDbEntity
  8
5
 48
2.0
100
AcDbCircle
 10
249.3989936741265
 20
346.5739928499773
 30
0.0
 40
4.499999950499999
100
AcDbArc
 50
180.5578617921275
 51
93.20174739729468
  0
CIRCLE
  5
307C
330
18
100
AcDbEntity
  8
0
 48
2.0
100
AcDbCircle
 10
249.3989936741265
 20
346.5739928499773
 30
0.0
 40
3.999999955999999
  0
CIRCLE
  5
307D
330
18
100
AcDbEntity
  8
0
 48
2.0
100
AcDbCircle
 10
249.3989936741265
 20
346.5739928499773
 30
0.0
 40
2.999999967
  0
CIRCLE
  5
307E
330
18
100
AcDbEntity
  8
0
 48
2.0
100
AcDbCircle
 10
249.370286102153
 20
344.5600331642129
 30
0.0
 40
0.4999999945
  0
CIRCLE
  5
307F
330
18
100
AcDbEntity
  8
0
 48
2.0
100
AcDbCircle
 10
251.3688472215144
 20
346.994153226996
 30
0.0
 40
0.4999999945
  0
CIRCLE
  5
3080
330
18
100
AcDbEntity
  8
0
 48
2.0
100
AcDbCircle
 10
247.4419161981932
 20
347.0501288534119
 30
0.0
 40
0.4999999945
  0
CIRCLE
  5
3081
330
18
100
AcDbEntity
  8
0
 48
2.0
100
AcDbCircle
 10
259.441916066193
 20
350.5501288149119
 30
0.0
 40
0.4999999945
  0
CIRCLE
  5
3082
330
18
100
AcDbEntity
  8
0
 48
2.0
100
AcDbCircle
 10
263.3688470895145
 20
350.494153188496
 30
0.0
 40
0.4999999945
  0
CIRCLE
  5
3083
330
18
100
AcDbEntity
  8
0
 48
2.0
100
AcDbCircle
 10
261.3702859701532
 20
348.0600331257129
 30
0.0
 40
0.4999999945
  0
CIRCLE
  5
3084
330
18
100
AcDbEntity
  8
0
 48
2.0
100
AcDbCircle
 10
261.3989935421266
 20
350.0739928114772
 30
0.0
 40
2.999999967
  0
CIRCLE
  5
3085
330
18
100
AcDbEntity
  8
0
 48
2.0
100
AcDbCircle
 10
261.3989935421266
 20
350.0739928114772
 30
0.0
 40
3.999999955999999
  0
ARC
  5
3086
330
18
100
AcDbEntity
  8
5
 48
2.0
100
AcDbCircle
 10
261.3989935421266
 20
350.0739928114772
 30
0.0
 40
4.499999950499999
100
AcDbArc
 50
180.5578617921275
 51
93.20174739729468
  0
CIRCLE
  5
3087
330
18
100
AcDbEntity
  8
0
 48
2.0
100
AcDbCircle
 10
249.3989936741265
 20
346.5739928499773
 30
0.0
 40
5.999999934
  0
CIRCLE
  5
3088
330
18
100
AcDbEntity
  8
0
 48
2.0
100
AcDbCircle
 10
261.3989935421266
 20
350.0739928114772
 30
0.0
 40
5.999999934
  0
CIRCLE
  5
3089
330
18
100
AcDbEntity
  8
0
 48
2.0
100
AcDbCircle
 10
253.8989936246265
 20
354.0739927674767
 30
0.0
 40
1.4999999835
  0
CIRCLE
  5
308A
330
18
100
AcDbEntity
  8
0
 48
2.0
100
AcDbCircle
 10
244.8989937236265
 20
354.0739927674767
 30
0.0
 40
1.4999999835
  0
ARC
  5
308B
330
18
100
AcDbEntity
  8
0
 48
2.0
100
AcDbCircle
 10
265.3989934981264
 20
341.8559527641853
 30
0.0
 40
2.999999967
100
AcDbArc
 50
90.0
 51
180.0000000000005
  0
LINE
  5
308C
330
18
100
AcDbEntity
  8
0
 48
2.0
100
AcDbLine
 10
262.3989935311265
 20
341.8559527641853
 30
0.0
 11
262.3989935311265
 21
339.3239929297276
 31
0.0
  0
LINE
  5
308D
330
18
100
AcDbEntity
  8
0
 48
2.0
100
AcDbLine
 10
265.3989934981264
 20
344.8559527311853
 30
0.0
 11
268.1489934678765
 21
344.8559527311853
 31
0.0
  0
ARC
  5
308E
330
18
100
AcDbEntity
  8
0
 48
2.0
100
AcDbCircle
 10
180.8989944276263
 20
353.8239927702272
 30
0.0
 40
2.999999967
100
AcDbArc
 50
324.3146523548168
 51
0.0000000000005428
  0
LINE
  5
308F
330
18
100
AcDbEntity
  8
0
 48
2.0
100
AcDbLine
 10
183.8989943946267
 20
353.8239927702272
 30
0.0
 11
183.8989943946263
 21
357.3239927317266
 31
0.0
  0
LINE
  5
3090
330
18
100
AcDbEntity
  8
0
 48
2.0
100
AcDbLine
 10
174.3989944991265
 20
352.0739922394772
 30
0.0
 11
174.3989944991265
 21
357.3239927317266
 31
0.0
  0
ARC
  5
3091
330
18
100
AcDbEntity
  8
0
 48
2.0
100
AcDbCircle
 10
152.967667359806
 20
346.5739928499771
 30
0.0
 40
2.74999996975
100
AcDbArc
 50
90.0
 51
270.0000000000002
  0
LINE
  5
3092
330
18
100
AcDbEntity
  8
0
 48
2.0
100
AcDbLine
 10
173.6111065878521
 20
343.8239928802273
 30
0.0
 11
152.967667359806
 21
343.8239928802271
 31
0.0
  0
LINE
  5
3093
330
18
100
AcDbEntity
  8
0
 48
2.0
100
AcDbLine
 10
173.6111065878521
 20
349.3239928197273
 30
0.0
 11
152.967667359806
 21
349.3239928197272
 31
0.0
  0
LINE
  5
3094
330
18
100
AcDbEntity
  8
0
 48
2.0
100
AcDbLine
 10
152.8412055112612
 20
349.3175793268453
 30
0.0
 11
173.4846447393074
 21
351.4168361931954
 31
0.0
  0
LINE
  5
3095
330
18
100
AcDbEntity
  8
0
 48
2.0
100
AcDbLine
 10
178.1489944578764
 20
352.0739922394772
 30
0.0
 11
178.1489944578764
 21
359.3239927097271
 31
0.0
  0
LINE
  5
3098
330
18
100
AcDbEntity
  8
0
 48
2.0
100
AcDbLine
 10
109.648995156376
 20
242.3239939967278
 30
0.0
 11
109.648995156376
 21
312.3239932267275
 31
0.0
  0
LINE
  5
309E
330
18
100
AcDbEntity
  8
0
 48
2.0
100
AcDbLine
 10
103.3989952251262
 20
293.3239934357276
 30
0.0
 11
93.17269169979772
 21
293.3239934357275
 31
0.0
  0
LINE
  5
309F
330
18
100
AcDbEntity
  8
0
 48
2.0
100
AcDbLine
 10
103.3989952251262
 20
266.3239937327276
 30
0.0
 11
98.01935634542202
 21
266.3239937327276
 31
0.0
  0
LINE
  5
30A0
330
18
100
AcDbEntity
  8
0
 48
2.0
100
AcDbLine
 10
108.3955256613116
 20
298.8901329985308
 30
0.0
 11
104.6524647201909
 21
298.8901329985308
 31
0.0
  0
LINE
  5
30A1
330
18
100
AcDbEntity
  8
0
 48
2.0
100
AcDbLine
 10
108.3955256613116
 20
260.757854169924
 30
0.0
 11
104.6524647201909
 21
260.757854169924
 31
0.0
  0
LINE
  5
30A2
330
18
100
AcDbEntity
  8
0
 48
2.0
100
AcDbLine
 10
108.3955256613112
 20
270.2909238770759
 30
0.0
 11
104.652464720191
 21
270.2909238770759
 31
0.0
  0
LINE
  5
30A3
330
18
100
AcDbEntity
  8
0
 48
2.0
100
AcDbLine
 10
108.3955256613114
 20
289.3570632913792
 30
0.0
 11
104.6524647201909
 21
289.3570632913792
 31
0.0
  0
LINE
  5
30A4
330
18
100
AcDbEntity
  8
0
 48
2.0
100
AcDbLine
 10
87.36601690277451
 20
266.3239937327276
 30
0.0
 11
87.36601690277451
 21
293.3239934357274
 31
0.0
  0
LINE
  5
30A5
330
18
100
AcDbEntity
  8
0
 48
2.0
100
AcDbLine
 10
103.3989952251262
 20
265.5243890234998
 30
0.0
 11
103.3989952251262
 21
294.1235981449551
 31
0.0
  0
LINE
  5
30A6
330
18
100
AcDbEntity
  8
5
 48
2.0
100
AcDbLine
 10
103.3989952251262
 20
267.5739937189775
 30
0.0
 11
97.7949737229393
 21
267.5739937189775
 31
0.0
  0
LINE
  5
30A7
330
18
100
AcDbEntity
  8
5
 48
2.0
100
AcDbLine
 10
103.3989952251262
 20
292.0739934494774
 30
0.0
 11
93.39707432228056
 21
292.0739934494774
 31
0.0
  0
LINE
  5
30A8
330
18
100
AcDbEntity
  8
7A
 48
2.0
100
AcDbLine
 10
273.5256033092402
 20
257.8239938262278
 30
0.0
 11
264.5256034082404
 21
257.8239938262278
 31
0.0
  0
CIRCLE
  5
30A9
330
18
100
AcDbEntity
  8
0
 48
2.0
100
AcDbCircle
 10
269.1489934568764
 20
257.8239938262278
 30
0.0
 40
1.34999998515
  0
LINE
  5
30AA
330
18
100
AcDbEntity
  8
7A
 48
2.0
100
AcDbLine
 10
269.1489934568764
 20
253.3239938757279
 30
0.0
 11
269.1489934568764
 21
262.3239937767278
 31
0.0
  0
LINE
  5
30B1
330
18
100
AcDbEntity
  8
0
 48
2.0
100
AcDbLine
 10
169.1489945568762
 20
32.14300519731092
 30
0.0
 11
169.1489945568762
 21
15.09075484275269
 31
0.0
  0
LINE
  5
30B2
330
18
100
AcDbEntity
  8
0
 48
2.0
100
AcDbLine
 10
152.1532138927315
 20
17.59075481525269
 30
0.0
 11
157.1489946888762
 21
17.59075481525269
 31
0.0
  0
LINE
  5
30B3
330
18
100
AcDbEntity
  8
0
 48
2.0
100
AcDbLine
 10
154.1008153232501
 20
21.33874471242399
 30
0.0
 11
157.1489946888762
 21
21.33874471242399
 31
0.0
  0
LINE
  5
30B4
330
18
100
AcDbEntity
  8
0
 48
2.0
100
AcDbLine
 10
157.1489946888762
 20
32.50907872322523
 30
0.0
 11
157.1489946888762
 21
32.59075465025268
 31
0.0
  0
ARC
  5
30B5
330
18
100
AcDbEntity
  8
0
 48
2.0
100
AcDbCircle
 10
175.0152788113421
 20
8.090755744753266
 30
0.0
 40
30.25654648874601
100
AcDbArc
 50
91.21741990848294
 51
265.3207515787108
  0
ARC
  5
30B6
330
18
100
AcDbEntity
  8
0
 48
2.0
100
AcDbCircle
 10
175.0152788113421
 20
8.090755744753266
 30
0.0
 40
24.75730184576371
100
AcDbArc
 50
91.35784156977415
 51
264.7797057293053
  0
LINE
  5
30B7
330
18
100
AcDbEntity
  8
0
 48
2.0
100
AcDbLine
 10
178.1489944578761
 20
44.34075452100279
 30
0.0
 11
174.3989944991263
 21
44.34075452100279
 31
0.0
  0
LINE
  5
30B8
330
18
100
AcDbEntity
  8
0
 48
2.0
100
AcDbLine
 10
178.1489944578761
 20
26.84075471350281
 30
0.0
 11
174.3989944991263
 21
26.84075471350281
 31
0.0
  0
LINE
  5
30B9
330
18
100
AcDbEntity
  8
0
 48
2.0
100
AcDbLine
 10
174.3989944991263
 20
44.34075452100279
 30
0.0
 11
174.3989944991263
 21
26.84075471350281
 31
0.0
  0
LINE
  5
30D5
330
18
100
AcDbEntity
  8
0
 48
2.0
100
AcDbLine
 10
178.1489944578761
 20
-2.909244959246279
 30
0.0
 11
268.1489934678765
 21
-2.909244959247075
 31
0.0
  0
LINE
  5
30D6
330
18
100
AcDbEntity
  8
7A
 48
2.0
100
AcDbLine
 10
178.1489944578761
 20
35.5907546172528
 30
0.0
 11
174.3989944991263
 21
35.5907546172528
 31
0.0
  0
LINE
  5
30D7
330
18
100
AcDbEntity
  8
0
 48
2.0
100
AcDbLine
 10
172.6489961683758
 20
-24.90924251724653
 30
0.0
 11
172.6489961683758
 21
-13.9092437382464
 31
0.0
  0
LINE
  5
30D8
330
18
100
AcDbEntity
  8
0
 48
2.0
100
AcDbLine
 10
183.6489949473758
 20
-13.9092437382464
 30
0.0
 11
183.6489949473758
 21
-8.409244348746483
 31
0.0
  0
LINE
  5
30D9
330
18
100
AcDbEntity
  8
0
 48
2.0
100
AcDbLine
 10
182.1489951138756
 20
-8.409244348746483
 30
0.0
 11
196.1489935598761
 21
-8.409244348746483
 31
0.0
  0
LINE
  5
30DA
330
18
100
AcDbEntity
  8
0
 48
2.0
100
AcDbLine
 10
194.6489937263759
 20
-24.90924251724653
 30
0.0
 11
194.6489937263759
 21
-8.409244348746483
 31
0.0
  0
LINE
  5
30DB
330
18
100
AcDbEntity
  8
0
 48
2.0
100
AcDbLine
 10
172.6489961683758
 20
-13.9092437382464
 30
0.0
 11
183.6489949473758
 21
-13.9092437382464
 31
0.0
  0
LINE
  5
30DC
330
18
100
AcDbEntity
  8
7A
 48
2.0
100
AcDbLine
 10
172.6489961683758
 20
-19.40924312774638
 30
0.0
 11
189.1489943368758
 21
-19.40924312774638
 31
0.0
  0
LINE
  5
30DD
330
18
100
AcDbEntity
  8
0
 48
2.0
100
AcDbLine
 10
196.1489935598761
 20
-8.409244348746483
 30
0.0
 11
196.1489935598761
 21
-2.90924495924645
 31
0.0
  0
LINE
  5
30DE
330
18
100
AcDbEntity
  8
0
 48
2.0
100
AcDbLine
 10
182.1489951138756
 20
-8.409244348746483
 30
0.0
 11
182.1489951138756
 21
-2.90924495924645
 31
0.0
  0
LINE
  5
30DF
330
18
100
AcDbEntity
  8
0
 48
2.0
100
AcDbLine
 10
182.1489951138756
 20
-2.90924495924645
 30
0.0
 11
196.1489935598761
 21
-2.90924495924645
 31
0.0
  0
LINE
  5
30E0
330
18
100
AcDbEntity
  8
7A
 48
2.0
100
AcDbLine
 10
189.1489943368758
 20
-19.40924312774638
 30
0.0
 11
189.1489943368758
 21
-2.90924495924645
 31
0.0
  0
LINE
  5
30E1
330
18
100
AcDbEntity
  8
0
 48
2.0
100
AcDbLine
 10
172.6489961683758
 20
-24.90924251724653
 30
0.0
 11
194.6489937263759
 21
-24.90924251724653
 31
0.0
  0
LINE
  5
30E2
330
18
100
AcDbEntity
  8
0
 48
2.0
100
AcDbLine
 10
175.6315631235578
 20
-24.90924251724653
 30
0.0
 11
175.6315631235578
 21
-13.9092437382464
 31
0.0
  0
LINE
  5
30E3
330
18
100
AcDbEntity
  8
5
 48
2.0
100
AcDbLine
 10
155.420414607249
 20
62.59075432025267
 30
0.0
 11
159.1489946668762
 21
62.59075432025267
 31
0.0
  0
LINE
  5
30E4
330
18
100
AcDbEntity
  8
5
 48
2.0
100
AcDbLine
 10
155.420414607249
 20
57.59075437525274
 30
0.0
 11
159.1489946668762
 21
57.59075437525274
 31
0.0
  0
LINE
  5
30E5
330
18
100
AcDbEntity
  8
0
 48
2.0
100
AcDbLine
 10
155.420414607249
 20
63.09075431475275
 30
0.0
 11
159.1489946668762
 21
63.09075431475275
 31
0.0
  0
LINE
  5
30E6
330
18
100
AcDbEntity
  8
0
 48
2.0
100
AcDbLine
 10
155.420414607249
 20
57.09075438075274
 30
0.0
 11
159.1489946668762
 21
57.09075438075274
 31
0.0
  0
ARC
  5
30E7
330
18
100
AcDbEntity
  8
0
 48
2.0
100
AcDbCircle
 10
149.4204146732488
 20
56.09075439175268
 30
0.0
 40
0.9999999889999999
100
AcDbArc
 50
180.0
 51
270.0
  0
ARC
  5
30E8
330
18
100
AcDbEntity
  8
0
 48
2.0
100
AcDbCircle
 10
149.4204146732488
 20
64.09075430375264
 30
0.0
 40
0.9999999889999999
100
AcDbArc
 50
89.99999999999998
 51
180.0
  0
LINE
  5
30E9
330
18
100
AcDbEntity
  8
0
 48
2.0
100
AcDbLine
 10
149.4204146732488
 20
65.09075429275267
 30
0.0
 11
155.420414607249
 21
65.09075429275267
 31
0.0
  0
LINE
  5
30EA
330
18
100
AcDbEntity
  8
0
 48
2.0
100
AcDbLine
 10
149.4204146732488
 20
55.09075440275274
 30
0.0
 11
155.420414607249
 21
55.09075440275274
 31
0.0
  0
LINE
  5
30EB
330
18
100
AcDbEntity
  8
0
 48
2.0
100
AcDbLine
 10
155.420414607249
 20
55.09075440275274
 30
0.0
 11
155.420414607249
 21
65.09075429275267
 31
0.0
  0
LINE
  5
30EC
330
18
100
AcDbEntity
  8
0
 48
2.0
100
AcDbLine
 10
159.1489946668762
 20
35.09075462275291
 30
0.0
 11
159.1489946668762
 21
85.09075407275247
 31
0.0
  0
LINE
  5
30ED
330
18
100
AcDbEntity
  8
0
 48
2.0
100
AcDbLine
 10
163.1489946228764
 20
85.09075407275247
 30
0.0
 11
163.1489946228764
 21
105.0907538527526
 31
0.0
  0
LINE
  5
30EE
330
18
100
AcDbEntity
  8
0
 48
2.0
100
AcDbLine
 10
159.1489946668762
 20
35.09075462275291
 30
0.0
 11
161.3602919562161
 21
35.09075462275291
 31
0.0
  0
LINE
  5
30EF
330
18
100
AcDbEntity
  8
0
 48
2.0
100
AcDbLine
 10
159.1489946668762
 20
85.09075407275247
 30
0.0
 11
163.1489946228764
 21
85.09075407275247
 31
0.0
  0
LINE
  5
30F0
330
18
100
AcDbEntity
  8
0
 48
2.0
100
AcDbLine
 10
163.1489946228764
 20
15.09075484275269
 30
0.0
 11
163.1489946228764
 21
29.81896998892944
 31
0.0
  0
LINE
  5
30F1
330
18
100
AcDbEntity
  8
7A
 48
2.0
100
AcDbLine
 10
145.1489948208761
 20
25.09075473275266
 30
0.0
 11
169.1489945568762
 21
25.09075473275266
 31
0.0
  0
LINE
  5
30F2
330
18
100
AcDbEntity
  8
0
 48
2.0
100
AcDbLine
 10
145.1489948208761
 20
17.59075481525269
 30
0.0
 11
145.1489948208761
 21
32.59075465025268
 31
0.0
  0
LINE
  5
30F3
330
18
100
AcDbEntity
  8
0
 48
2.0
100
AcDbLine
 10
145.1489948208761
 20
17.59075481525269
 30
0.0
 11
146.2888341464316
 21
17.59075481525269
 31
0.0
  0
LINE
  5
30F4
330
18
100
AcDbEntity
  8
0
 48
2.0
100
AcDbLine
 10
145.1489948208761
 20
32.59075465025268
 30
0.0
 11
157.1489946888762
 21
32.59075465025268
 31
0.0
  0
LINE
  5
30F5
330
18
100
AcDbEntity
  8
0
 48
2.0
100
AcDbLine
 10
145.1489948208761
 20
28.8427647530815
 30
0.0
 11
152.9968154784044
 21
28.8427647530815
 31
0.0
  0
LINE
  5
30F6
330
18
100
AcDbEntity
  8
0
 48
2.0
100
AcDbLine
 10
145.1489948208761
 20
21.33874471242399
 30
0.0
 11
147.8132679713669
 21
21.33874471242399
 31
0.0
  0
LINE
  5
30F7
330
18
100
AcDbEntity
  8
0
 48
2.0
100
AcDbLine
 10
157.1489946888762
 20
17.59075481525269
 30
0.0
 11
157.1489946888762
 21
25.22901371741722
 31
0.0
  0
LINE
  5
30F8
330
18
100
AcDbEntity
  8
0
 48
2.0
100
AcDbLine
 10
157.1489946888762
 20
19.09075479875275
 30
0.0
 11
163.1489946228764
 21
19.09075479875275
 31
0.0
  0
LINE
  5
30F9
330
18
100
AcDbEntity
  8
5
 48
2.0
100
AcDbLine
 10
157.1489946888762
 20
19.59075479325275
 30
0.0
 11
163.1489946228764
 21
19.59075479325275
 31
0.0
  0
LINE
  5
30FA
330
18
100
AcDbEntity
  8
0
 48
2.0
100
AcDbLine
 10
148.4204146842487
 20
64.09075430375264
 30
0.0
 11
148.4204146842487
 21
56.09075439175268
 31
0.0
  0
LINE
  5
30FB
330
18
100
AcDbEntity
  8
5
 48
2.0
100
AcDbLine
 10
157.1489946888762
 20
100.5907539022526
 30
0.0
 11
163.1489946228764
 21
100.5907539022526
 31
0.0
  0
LINE
  5
30FC
330
18
100
AcDbEntity
  8
5
 48
2.0
100
AcDbLine
 10
157.1489946888762
 20
89.59075402325272
 30
0.0
 11
163.1489946228764
 21
89.59075402325272
 31
0.0
  0
LINE
  5
30FD
330
18
100
AcDbEntity
  8
0
 48
2.0
100
AcDbLine
 10
157.1489946888762
 20
101.0907538967526
 30
0.0
 11
163.1489946228764
 21
101.0907538967526
 31
0.0
  0
LINE
  5
30FE
330
18
100
AcDbEntity
  8
0
 48
2.0
100
AcDbLine
 10
157.1489946888762
 20
89.09075402875265
 30
0.0
 11
163.1489946228764
 21
89.09075402875265
 31
0.0
  0
LINE
  5
30FF
330
18
100
AcDbEntity
  8
0
 48
2.0
100
AcDbLine
 10
157.1489946888762
 20
102.5907538802526
 30
0.0
 11
157.1489946888762
 21
87.59075404525265
 31
0.0
  0
LINE
  5
3100
330
18
100
AcDbEntity
  8
0
 48
2.0
100
AcDbLine
 10
145.1489948208761
 20
98.84276398308152
 30
0.0
 11
157.1489946888762
 21
98.84276398308152
 31
0.0
  0
LINE
  5
3101
330
18
100
AcDbEntity
  8
0
 48
2.0
100
AcDbLine
 10
145.1489948208761
 20
91.33874394242395
 30
0.0
 11
157.1489946888762
 21
91.33874394242395
 31
0.0
  0
LINE
  5
3102
330
18
100
AcDbEntity
  8
0
 48
2.0
100
AcDbLine
 10
145.1489948208761
 20
87.59075404525265
 30
0.0
 11
157.1489946888762
 21
87.59075404525265
 31
0.0
  0
LINE
  5
3103
330
18
100
AcDbEntity
  8
0
 48
2.0
100
AcDbLine
 10
145.1489948208761
 20
102.5907538802526
 30
0.0
 11
157.1489946888762
 21
102.5907538802526
 31
0.0
  0
LINE
  5
3104
330
18
100
AcDbEntity
  8
0
 48
2.0
100
AcDbLine
 10
145.1489948208761
 20
102.5907538802526
 30
0.0
 11
145.1489948208761
 21
87.59075404525265
 31
0.0
  0
LINE
  5
3105
330
18
100
AcDbEntity
  8
7A
 48
2.0
100
AcDbLine
 10
145.1489948208761
 20
95.09075396275267
 30
0.0
 11
169.1489945568762
 21
95.09075396275267
 31
0.0
  0
CIRCLE
  5
3106
330
18
100
AcDbEntity
  8
0
 48
2.0
100
AcDbCircle
 10
187.1489943588763
 20
24.09075474375266
 30
0.0
 40
6.499999928500001
  0
CIRCLE
  5
3108
330
18
100
AcDbEntity
  8
0
 48
2.0
100
AcDbCircle
 10
187.1489943588763
 20
96.09075395175256
 30
0.0
 40
4.499999950499999
  0
ARC
  5
3109
330
18
100
AcDbEntity
  8
5
 48
2.0
100
AcDbCircle
 10
187.1489943588763
 20
96.09075395175256
 30
0.0
 40
4.999999944999999
100
AcDbArc
 50
174.4541234288037
 51
97.31717655533872
  0
ARC
  5
310A
330
18
100
AcDbEntity
  8
5
 48
2.0
100
AcDbCircle
 10
259.1489935668763
 20
96.09075395175256
 30
0.0
 40
4.999999944999999
100
AcDbArc
 50
174.4541234288037
 51
97.31717655533872
  0
CIRCLE
  5
310B
330
18
100
AcDbEntity
  8
0
 48
2.0
100
AcDbCircle
 10
259.1489935668763
 20
96.09075395175256
 30
0.0
 40
4.499999950499999
  0
ARC
  5
310C
330
18
100
AcDbEntity
  8
5
 48
2.0
100
AcDbCircle
 10
259.1489935668763
 20
24.09075474375266
 30
0.0
 40
4.999999944999999
100
AcDbArc
 50
174.4541234288037
 51
97.31717655533872
  0
CIRCLE
  5
310D
330
18
100
AcDbEntity
  8
0
 48
2.0
100
AcDbCircle
 10
259.1489935668763
 20
24.09075474375266
 30
0.0
 40
4.499999950499999
  0
CIRCLE
  5
310E
330
18
100
AcDbEntity
  8
0
 48
2.0
100
AcDbCircle
 10
187.1489943588763
 20
24.09075474375266
 30
0.0
 40
4.499999950499999
  0
ARC
  5
310F
330
18
100
AcDbEntity
  8
5
 48
2.0
100
AcDbCircle
 10
187.1489943588763
 20
24.09075474375266
 30
0.0
 40
4.999999944999999
100
AcDbArc
 50
174.4541234288037
 51
97.31717655533872
  0
LINE
  5
3110
330
18
100
AcDbEntity
  8
0
 48
2.0
100
AcDbLine
 10
187.1489943588763
 20
96.09075395175256
 30
0.0
 11
187.1489943588763
 21
96.09075395175256
 31
0.0
  0
LINE
  5
3111
330
18
100
AcDbEntity
  8
7A
 48
2.0
100
AcDbLine
 10
259.1489935668763
 20
102.5907538802526
 30
0.0
 11
259.1489935668763
 21
89.59075402325266
 31
0.0
  0
LINE
  5
3112
330
18
100
AcDbEntity
  8
7A
 48
2.0
100
AcDbLine
 10
252.6489936383764
 20
96.09075395175256
 30
0.0
 11
265.6489934953762
 21
96.09075395175256
 31
0.0
  0
CIRCLE
  5
3113
330
18
100
AcDbEntity
  8
0
 48
2.0
100
AcDbCircle
 10
259.1489935668763
 20
96.09075395175256
 30
0.0
 40
6.499999928500001
  0
LINE
  5
3114
330
18
100
AcDbEntity
  8
7A
 48
2.0
100
AcDbLine
 10
259.1489935668763
 20
30.59075467225273
 30
0.0
 11
259.1489935668763
 21
17.59075481525269
 31
0.0
  0
LINE
  5
3115
330
18
100
AcDbEntity
  8
7A
 48
2.0
100
AcDbLine
 10
252.6489936383764
 20
24.09075474375266
 30
0.0
 11
265.6489934953762
 21
24.09075474375266
 31
0.0
  0
CIRCLE
  5
3116
330
18
100
AcDbEntity
  8
0
 48
2.0
100
AcDbCircle
 10
259.1489935668763
 20
24.09075474375266
 30
0.0
 40
6.499999928500001
  0
LINE
  5
3117
330
18
100
AcDbEntity
  8
7A
 48
2.0
100
AcDbLine
 10
187.1489943588763
 20
102.5907538802526
 30
0.0
 11
187.1489943588763
 21
89.59075402325266
 31
0.0
  0
LINE
  5
3118
330
18
100
AcDbEntity
  8
7A
 48
2.0
100
AcDbLine
 10
180.6489944303762
 20
96.09075395175256
 30
0.0
 11
193.6489942873761
 21
96.09075395175256
 31
0.0
  0
CIRCLE
  5
3119
330
18
100
AcDbEntity
  8
0
 48
2.0
100
AcDbCircle
 10
187.1489943588763
 20
96.09075395175256
 30
0.0
 40
6.499999928500001
  0
LINE
  5
311A
330
18
100
AcDbEntity
  8
7A
 48
2.0
100
AcDbLine
 10
180.6489944303762
 20
24.09075474375266
 30
0.0
 11
193.6489942873761
 21
24.09075474375266
 31
0.0
  0
LINE
  5
311B
330
18
100
AcDbEntity
  8
7A
 48
2.0
100
AcDbLine
 10
187.1489943588763
 20
30.59075467225273
 30
0.0
 11
187.1489943588763
 21
17.59075481525269
 31
0.0
  0
LINE
  5
311C
330
18
100
AcDbEntity
  8
0
 48
2.0
100
AcDbLine
 10
268.1489934678764
 20
105.0907538527526
 30
0.0
 11
268.1489934678764
 21
2.09075498575271
 31
0.0
  0
LINE
  5
311D
330
18
100
AcDbEntity
  8
0
 48
2.0
100
AcDbLine
 10
178.1489944578761
 20
105.0907538527526
 30
0.0
 11
178.1489944578761
 21
2.09075498575271
 31
0.0
  0
LINE
  5
311E
330
18
100
AcDbEntity
  8
0
 48
2.0
100
AcDbLine
 10
178.1489944578761
 20
15.09075484275269
 30
0.0
 11
268.1489934678764
 21
15.09075484275269
 31
0.0
  0
LINE
  5
311F
330
18
100
AcDbEntity
  8
0
 48
2.0
100
AcDbLine
 10
178.1489944578761
 20
105.0907538527526
 30
0.0
 11
268.1489934678764
 21
105.0907538527526
 31
0.0
  0
LINE
  5
3120
330
18
100
AcDbEntity
  8
7A
 48
2.0
100
AcDbLine
 10
187.1489943588764
 20
89.59075402325272
 30
0.0
 11
187.1489943588764
 21
102.5907538802526
 31
0.0
  0
LINE
  5
3121
330
18
100
AcDbEntity
  8
7A
 48
2.0
100
AcDbLine
 10
180.6489944303764
 20
96.09075395175274
 30
0.0
 11
193.6489942873763
 21
96.09075395175274
 31
0.0
  0
LINE
  5
3122
330
18
100
AcDbEntity
  8
7A
 48
2.0
100
AcDbLine
 10
265.6489934953766
 20
96.09075395175274
 30
0.0
 11
252.6489936383765
 21
96.09075395175274
 31
0.0
  0
LINE
  5
3123
330
18
100
AcDbEntity
  8
7A
 48
2.0
100
AcDbLine
 10
259.1489935668763
 20
89.59075402325272
 30
0.0
 11
259.1489935668763
 21
102.5907538802526
 31
0.0
  0
LINE
  5
3124
330
18
100
AcDbEntity
  8
7A
 48
2.0
100
AcDbLine
 10
259.1489935668763
 20
30.59075467225273
 30
0.0
 11
259.1489935668763
 21
17.59075481525269
 31
0.0
  0
LINE
  5
3125
330
18
100
AcDbEntity
  8
7A
 48
2.0
100
AcDbLine
 10
265.6489934953766
 20
24.09075474375277
 30
0.0
 11
252.6489936383765
 21
24.09075474375277
 31
0.0
  0
LINE
  5
3126
330
18
100
AcDbEntity
  8
7A
 48
2.0
100
AcDbLine
 10
180.6489944303764
 20
24.09075474375277
 30
0.0
 11
193.6489942873763
 21
24.09075474375277
 31
0.0
  0
LINE
  5
3127
330
18
100
AcDbEntity
  8
7A
 48
2.0
100
AcDbLine
 10
187.1489943588764
 20
30.59075467225273
 30
0.0
 11
187.1489943588764
 21
17.59075481525269
 31
0.0
  0
LINE
  5
3128
330
18
100
AcDbEntity
  8
0
 48
2.0
100
AcDbLine
 10
169.1489945568762
 20
105.0907538527526
 30
0.0
 11
169.1489945568762
 21
37.7731632359164
 31
0.0
  0
LINE
  5
3129
330
18
100
AcDbEntity
  8
7A
 48
2.0
100
AcDbLine
 10
223.1489939628763
 20
105.0907538527526
 30
0.0
 11
223.1489939628763
 21
15.09075484275269
 31
0.0
  0
LINE
  5
312A
330
18
100
AcDbEntity
  8
0
 48
2.0
100
AcDbLine
 10
109.648995156376
 20
300.3239933587279
 30
0.0
 11
328.1489928078763
 21
300.3239933587277
 31
0.0
  0
LINE
  5
312B
330
18
100
AcDbEntity
  8
0
 48
2.0
100
AcDbLine
 10
491.8737200670429
 20
312.3239932267276
 30
0.0
 11
458.9039913962547
 21
300.3239933587277
 31
0.0
  0
LINE
  5
312C
330
18
100
AcDbEntity
  8
0
 48
2.0
100
AcDbLine
 10
458.9039913962547
 20
300.3239933587278
 30
0.0
 11
458.9039913962547
 21
242.3239939967278
 31
0.0
  0
LINE
  5
312D
330
18
100
AcDbEntity
  8
0
 48
2.0
100
AcDbLine
 10
574.9039901202545
 20
300.3239933587276
 30
0.0
 11
574.9039901202545
 21
226.3239941727275
 31
0.0
  0
LINE
  5
312E
330
18
100
AcDbEntity
  8
7A
 48
2.0
100
AcDbLine
 10
516.9039907582543
 20
226.3239941727277
 30
0.0
 11
516.9039907582543
 21
345.8908357424889
 31
0.0
  0
LINE
  5
312F
330
18
100
AcDbEntity
  8
0
 48
2.0
100
AcDbLine
 10
267.6489934733764
 20
308.8239932652275
 30
0.0
 11
267.6489934733764
 21
319.3239931497278
 31
0.0
  0
LINE
  5
3130
330
18
100
AcDbEntity
  8
0
 48
2.0
100
AcDbLine
 10
328.1489928078765
 20
118.0907537097527
 30
0.0
 11
328.1489928078765
 21
2.09075498575271
 31
0.0
  0
LINE
  5
3131
330
18
100
AcDbEntity
  8
0
 48
2.0
100
AcDbLine
 10
328.1489928078763
 20
242.3239939967277
 30
0.0
 11
328.1489928078763
 21
308.3239932707276
 31
0.0
  0
LINE
  5
3132
330
18
100
AcDbEntity
  8
0
 48
2.0
100
AcDbLine
 10
267.6489934733764
 20
308.8239932652275
 30
0.0
 11
193.9695448120799
 21
308.8239932652275
 31
0.0
  0
ARC
  5
3133
330
18
100
AcDbEntity
  8
0
 48
2.0
100
AcDbCircle
 10
166.1489945898763
 20
315.3239931937275
 30
0.0
 40
2.999999967
100
AcDbArc
 50
270.0000000000001
 51
0.0
  0
LINE
  5
3134
330
18
100
AcDbEntity
  8
7A
 48
2.0
100
AcDbLine
 10
109.648995156376
 20
22.99075475585272
 30
0.0
 11
87.61601690002454
 21
22.99075475585272
 31
0.0
  0
LINE
  5
3135
330
18
100
AcDbEntity
  8
0
 48
2.0
100
AcDbLine
 10
109.648995156376
 20
79.87024605448954
 30
0.0
 11
103.6489952223762
 21
79.87024605448954
 31
0.0
  0
LINE
  5
3136
330
18
100
AcDbEntity
  8
0
 48
2.0
100
AcDbLine
 10
108.5793889272617
 20
97.19075393965272
 30
0.0
 11
104.7186014514907
 21
97.19075393965272
 31
0.0
  0
LINE
  5
3137
330
18
100
AcDbEntity
  8
7A
 48
2.0
100
AcDbLine
 10
109.648995156376
 20
97.19075393965272
 30
0.0
 11
87.61601690002454
 21
97.19075393965272
 31
0.0
  0
LINE
  5
3138
330
18
100
AcDbEntity
  8
0
 48
2.0
100
AcDbLine
 10
103.6489952223762
 20
97.19075393965272
 30
0.0
 11
103.6489952223762
 21
79.87024605448954
 31
0.0
  0
LINE
  5
3139
330
18
100
AcDbEntity
  8
0
 48
2.0
100
AcDbLine
 10
109.648995156376
 20
114.5112618248159
 30
0.0
 11
103.6489952223762
 21
114.5112618248159
 31
0.0
  0
LINE
  5
313A
330
18
100
AcDbEntity
  8
0
 48
2.0
100
AcDbLine
 10
103.6489952223762
 20
97.19075393965267
 30
0.0
 11
103.6489952223762
 21
114.5112618248159
 31
0.0
  0
LINE
  5
313B
330
18
100
AcDbEntity
  8
7A
 48
2.0
100
AcDbLine
 10
464.8039913313546
 20
279.8239935842274
 30
0.0
 11
494.8039910013546
 21
279.8239935842274
 31
0.0
  0
LINE
  5
313C
330
18
100
AcDbEntity
  8
7A
 48
2.0
100
AcDbLine
 10
569.0039901851546
 20
279.8239935842274
 30
0.0
 11
539.0039905151548
 21
279.8239935842274
 31
0.0
  0
POLYLINE
  5
313D
330
18
100
AcDbEntity
  8
0
 48
2.0
100
AcDb2dPolyline
 66
     1
 10
0.0
 20
0.0
 30
0.0
 70
     1
  0
VERTEX
  5
313E
330
313D
100
AcDbEntity
  8
0
 48
2.0
100
AcDbVertex
100
AcDb2dVertex
 10
539.0039905151548
 20
288.4842475268092
 30
0.0
  0
VERTEX
  5
313F
330
313D
100
AcDbEntity
  8
0
 48
2.0
100
AcDbVertex
100
AcDb2dVertex
 10
554.0039903501547
 20
297.1445014693907
 30
0.0
  0
VERTEX
  5
3140
330
313D
100
AcDbEntity
  8
0
 48
2.0
100
AcDbVertex
100
AcDb2dVertex
 10
569.0039901851546
 20
288.4842475268092
 30
0.0
  0
VERTEX
  5
3141
330
313D
100
AcDbEntity
  8
0
 48
2.0
100
AcDbVertex
100
AcDb2dVertex
 10
569.0039901851546
 20
271.1637396416459
 30
0.0
  0
VERTEX
  5
3142
330
313D
100
AcDbEntity
  8
0
 48
2.0
100
AcDbVertex
100
AcDb2dVertex
 10
554.0039903501549
 20
262.5034856990644
 30
0.0
  0
VERTEX
  5
3143
330
313D
100
AcDbEntity
  8
0
 48
2.0
100
AcDbVertex
100
AcDb2dVertex
 10
539.0039905151548
 20
271.1637396416459
 30
0.0
  0
SEQEND
  5
3144
330
313D
100
AcDbEntity
  8
0
 48
2.0
  0
POLYLINE
  5
3145
330
18
100
AcDbEntity
  8
0
 48
2.0
100
AcDb2dPolyline
 66
     1
 10
0.0
 20
0.0
 30
0.0
 70
     1
  0
VERTEX
  5
3146
330
3145
100
AcDbEntity
  8
0
 48
2.0
100
AcDbVertex
100
AcDb2dVertex
 10
494.8039910013546
 20
288.4842475268092
 30
0.0
  0
VERTEX
  5
3147
330
3145
100
AcDbEntity
  8
0
 48
2.0
100
AcDbVertex
100
AcDb2dVertex
 10
479.8039911663545
 20
297.1445014693907
 30
0.0
  0
VERTEX
  5
3148
330
3145
100
AcDbEntity
  8
0
 48
2.0
100
AcDbVertex
100
AcDb2dVertex
 10
464.8039913313546
 20
288.4842475268092
 30
0.0
  0
VERTEX
  5
3149
330
3145
100
AcDbEntity
  8
0
 48
2.0
100
AcDbVertex
100
AcDb2dVertex
 10
464.8039913313546
 20
271.1637396416459
 30
0.0
  0
VERTEX
  5
314A
330
3145
100
AcDbEntity
  8
0
 48
2.0
100
AcDbVertex
100
AcDb2dVertex
 10
479.8039911663545
 20
262.5034856990644
 30
0.0
  0
VERTEX
  5
314B
330
3145
100
AcDbEntity
  8
0
 48
2.0
100
AcDbVertex
100
AcDb2dVertex
 10
494.8039910013546
 20
271.1637396416459
 30
0.0
  0
SEQEND
  5
314C
330
3145
100
AcDbEntity
  8
0
 48
2.0
  0
CIRCLE
  5
314D
330
18
100
AcDbEntity
  8
0
 48
2.0
100
AcDbCircle
 10
554.0039903501547
 20
279.8239935842274
 30
0.0
 40
11.999999868
  0
CIRCLE
  5
314E
330
18
100
AcDbEntity
  8
0
 48
2.0
100
AcDbCircle
 10
479.8039911663545
 20
279.8239935842274
 30
0.0
 40
11.999999868
  0
ARC
  5
314F
330
18
100
AcDbEntity
  8
5
 48
2.0
100
AcDbCircle
 10
554.0039903501547
 20
279.8239935842274
 30
0.0
 40
12.4999998625
100
AcDbArc
 50
169.3224559977757
 51
97.9223891023075
  0
ARC
  5
3150
330
18
100
AcDbEntity
  8
5
 48
2.0
100
AcDbCircle
 10
479.8039911663545
 20
279.8239935842274
 30
0.0
 40
12.4999998625
100
AcDbArc
 50
169.5065327520681
 51
101.1339265843188
  0
LINE
  5
3151
330
18
100
AcDbEntity
  8
0
 48
2.0
100
AcDbLine
 10
574.9039901202545
 20
242.3239939967276
 30
0.0
 11
458.9039913962547
 21
242.3239939967278
 31
0.0
  0
LINE
  5
3152
330
18
100
AcDbEntity
  8
0
 48
2.0
100
AcDbLine
 10
561.9039902632546
 20
334.8239929792281
 30
0.0
 11
561.9039902632546
 21
312.3239932267275
 31
0.0
  0
LINE
  5
3153
330
18
100
AcDbEntity
  8
7A
 48
2.0
100
AcDbLine
 10
554.0039903501547
 20
262.5034856990644
 30
0.0
 11
554.0039903501547
 21
297.1445014693907
 31
0.0
  0
LINE
  5
3154
330
18
100
AcDbEntity
  8
7A
 48
2.0
100
AcDbLine
 10
479.8039911663545
 20
262.5034856990644
 30
0.0
 11
479.8039911663545
 21
297.1445014693907
 31
0.0
  0
LINE
  5
3155
330
18
100
AcDbEntity
  8
0
 48
2.0
100
AcDbLine
 10
471.9039912532545
 20
334.8239929792281
 30
0.0
 11
471.9039912532545
 21
312.3239932267275
 31
0.0
  0
LINE
  5
3156
330
18
100
AcDbEntity
  8
0
 48
2.0
100
AcDbLine
 10
328.1489928078763
 20
308.3239932707276
 30
0.0
 11
196.1489942598764
 21
308.3239932707276
 31
0.0
  0
LINE
  5
3157
330
18
100
AcDbEntity
  8
0
 48
2.0
100
AcDbLine
 10
250.6489936603764
 20
308.3239932707276
 30
0.0
 11
250.6489936603764
 21
308.8239932652275
 31
0.0
  0
LINE
  5
3158
330
18
100
AcDbEntity
  8
0
 48
2.0
100
AcDbLine
 10
195.6489942653761
 20
308.3490560849186
 30
0.0
 11
195.6489942653761
 21
308.8239932652275
 31
0.0
  0
LINE
  5
3159
330
18
100
AcDbEntity
  8
7A
 48
2.0
100
AcDbLine
 10
223.1489939628764
 20
226.3239941727277
 30
0.0
 11
223.1489939628764
 21
359.3239927097276
 31
0.0
  0
ARC
  5
315A
330
18
100
AcDbEntity
  8
0
 48
2.0
100
AcDbCircle
 10
196.1489942598764
 20
313.3239932157275
 30
0.0
 40
4.999999944999999
100
AcDbArc
 50
180.0
 51
270.0
  0
LINE
  5
315B
330
18
100
AcDbEntity
  8
0
 48
2.0
100
AcDbLine
 10
126.1489950298762
 20
242.3239939967278
 30
0.0
 11
126.1489950298762
 21
312.3239932267275
 31
0.0
  0
LINE
  5
315C
330
18
100
AcDbEntity
  8
0
 48
2.0
100
AcDbLine
 10
320.1489928958763
 20
242.3239939967278
 30
0.0
 11
320.1489928958763
 21
308.3239932707276
 31
0.0
  0
LINE
  5
315D
330
18
100
AcDbEntity
  8
0
 48
2.0
100
AcDbLine
 10
328.1489928078763
 20
242.3239939967278
 30
0.0
 11
109.648995156376
 21
242.3239939967278
 31
0.0
  0
LINE
  5
315E
330
18
100
AcDbEntity
  8
0
 48
2.0
100
AcDbLine
 10
320.1489928958765
 20
118.0907537097528
 30
0.0
 11
320.1489928958763
 21
2.09075498575271
 31
0.0
  0
LINE
  5
315F
330
18
100
AcDbEntity
  8
0
 48
2.0
100
AcDbLine
 10
126.1489950298762
 20
118.0907537097528
 30
0.0
 11
126.1489950298762
 21
2.09075498575271
 31
0.0
  0
LINE
  5
3160
330
18
100
AcDbEntity
  8
0
 48
2.0
100
AcDbLine
 10
109.648995156376
 20
118.0907537097528
 30
0.0
 11
109.648995156376
 21
2.09075498575271
 31
0.0
  0
LINE
  5
3161
330
18
100
AcDbEntity
  8
7A
 48
2.0
100
AcDbLine
 10
223.1489939628763
 20
105.0907538527527
 30
0.0
 11
223.1489939628763
 21
15.09075484275269
 31
0.0
  0
LINE
  5
3162
330
18
100
AcDbEntity
  8
7A
 48
2.0
100
AcDbLine
 10
109.648995156376
 20
60.09075434775275
 30
0.0
 11
187.259452672848
 21
60.09075434775275
 31
0.0
  0
LINE
  5
3163
330
18
100
AcDbEntity
  8
0
 48
2.0
100
AcDbLine
 10
163.1489946228762
 20
15.09075484275269
 30
0.0
 11
328.1489928078765
 21
15.09075484275269
 31
0.0
  0
LINE
  5
3164
330
18
100
AcDbEntity
  8
0
 48
2.0
100
AcDbLine
 10
163.1489946228764
 20
105.0907538527527
 30
0.0
 11
328.1489928078765
 21
105.0907538527527
 31
0.0
  0
LINE
  5
335F
330
18
100
AcDbEntity
  8
MSR_I5_6-7A
100
AcDbLine
 10
175.1489934678764
 20
49.09075434775258
 30
0.0
 11
186.1489934678764
 21
49.09075434775258
 31
0.0
  0
LINE
  5
3360
330
18
100
AcDbEntity
  8
MSR_I5_6-7A
100
AcDbLine
 10
175.1489934678764
 20
60.09075434775275
 30
0.0
 11
186.1489934678764
 21
60.09075434775275
 31
0.0
  0
LINE
  5
3361
330
18
100
AcDbEntity
  8
MSR_I5_6-7A
100
AcDbLine
 10
175.1489934678764
 20
79.0907543477526
 30
0.0
 11
186.1489934678764
 21
79.0907543477526
 31
0.0
  0
LINE
  5
3362
330
18
100
AcDbEntity
  8
MSR_I5_6-3A
 48
2.0
100
AcDbLine
 10
178.1489934678764
 20
51.59075434775258
 30
0.0
 11
183.1489934678764
 21
51.59075434775258
 31
0.0
  0
LINE
  5
3363
330
18
100
AcDbEntity
  8
MSR_I5_6-3A
 48
2.0
100
AcDbLine
 10
178.1489934678764
 20
51.15775434775258
 30
0.0
 11
183.1489934678764
 21
51.15775434775258
 31
0.0
  0
LINE
  5
3364
330
18
100
AcDbEntity
  8
MSR_I5_6-3A
 48
2.0
100
AcDbLine
 10
178.1489934678764
 20
46.59075434775258
 30
0.0
 11
183.1489934678764
 21
46.59075434775258
 31
0.0
  0
LINE
  5
3365
330
18
100
AcDbEntity
  8
MSR_I5_6-3A
 48
2.0
100
AcDbLine
 10
178.1489934678764
 20
47.02375434775257
 30
0.0
 11
183.1489934678764
 21
47.02375434775257
 31
0.0
  0
LINE
  5
3366
330
18
100
AcDbEntity
  8
MSR_I5_6-3A
 48
2.0
100
AcDbLine
 10
178.1489934678764
 20
62.59075434775275
 30
0.0
 11
183.1489934678764
 21
62.59075434775275
 31
0.0
  0
LINE
  5
3367
330
18
100
AcDbEntity
  8
MSR_I5_6-3A
 48
2.0
100
AcDbLine
 10
178.1489934678764
 20
62.15775434775276
 30
0.0
 11
183.1489934678764
 21
62.15775434775276
 31
0.0
  0
LINE
  5
3368
330
18
100
AcDbEntity
  8
MSR_I5_6-3A
 48
2.0
100
AcDbLine
 10
178.1489934678764
 20
57.59075434775275
 30
0.0
 11
183.1489934678764
 21
57.59075434775275
 31
0.0
  0
LINE
  5
3369
330
18
100
AcDbEntity
  8
MSR_I5_6-3A
 48
2.0
100
AcDbLine
 10
178.1489934678764
 20
58.02375434775274
 30
0.0
 11
183.1489934678764
 21
58.02375434775274
 31
0.0
  0
LINE
  5
336A
330
18
100
AcDbEntity
  8
MSR_I5_6-3A
 48
2.0
100
AcDbLine
 10
178.1489934678764
 20
81.5907543477526
 30
0.0
 11
183.1489934678764
 21
81.5907543477526
 31
0.0
  0
LINE
  5
336B
330
18
100
AcDbEntity
  8
MSR_I5_6-3A
 48
2.0
100
AcDbLine
 10
178.1489934678764
 20
81.15775434775262
 30
0.0
 11
183.1489934678764
 21
81.15775434775262
 31
0.0
  0
LINE
  5
336C
330
18
100
AcDbEntity
  8
MSR_I5_6-3A
 48
2.0
100
AcDbLine
 10
178.1489934678764
 20
76.5907543477526
 30
0.0
 11
183.1489934678764
 21
76.5907543477526
 31
0.0
  0
LINE
  5
336D
330
18
100
AcDbEntity
  8
MSR_I5_6-3A
 48
2.0
100
AcDbLine
 10
178.1489934678764
 20
77.0237543477526
 30
0.0
 11
183.1489934678764
 21
77.0237543477526
 31
0.0
  0
LINE
  5
3371
330
18
100
AcDbEntity
  8
MSR_I5_6-7A
100
AcDbLine
 10
271.1489934678671
 20
40.09075434775257
 30
0.0
 11
260.1489934678671
 21
40.09075434775257
 31
0.0
  0
LINE
  5
3372
330
18
100
AcDbEntity
  8
MSR_I5_6-7A
100
AcDbLine
 10
271.1489934678764
 20
60.09075434775258
 30
0.0
 11
260.1489934678764
 21
60.09075434775258
 31
0.0
  0
LINE
  5
3373
330
18
100
AcDbEntity
  8
MSR_I5_6-7A
100
AcDbLine
 10
271.1489934678764
 20
80.0907543477526
 30
0.0
 11
260.1489934678764
 21
80.0907543477526
 31
0.0
  0
LINE
  5
3375
330
18
100
AcDbEntity
  8
MSR_I5_6-3A
 48
2.0
100
AcDbLine
 10
268.148993467867
 20
37.59075434775258
 30
0.0
 11
263.1489934678671
 21
37.59075434775258
 31
0.0
  0
LINE
  5
3376
330
18
100
AcDbEntity
  8
MSR_I5_6-3A
 48
2.0
100
AcDbLine
 10
268.148993467867
 20
38.02375434775257
 30
0.0
 11
263.1489934678671
 21
38.02375434775257
 31
0.0
  0
LINE
  5
3377
330
18
100
AcDbEntity
  8
MSR_I5_6-3A
 48
2.0
100
AcDbLine
 10
268.148993467867
 20
42.59075434775257
 30
0.0
 11
263.1489934678671
 21
42.59075434775257
 31
0.0
  0
LINE
  5
3378
330
18
100
AcDbEntity
  8
MSR_I5_6-3A
 48
2.0
100
AcDbLine
 10
268.148993467867
 20
42.15775434775259
 30
0.0
 11
263.1489934678671
 21
42.15775434775259
 31
0.0
  0
LINE
  5
337A
330
18
100
AcDbEntity
  8
MSR_I5_6-3A
 48
2.0
100
AcDbLine
 10
268.1489934678764
 20
57.59075434775258
 30
0.0
 11
263.1489934678764
 21
57.59075434775258
 31
0.0
  0
LINE
  5
337B
330
18
100
AcDbEntity
  8
MSR_I5_6-3A
 48
2.0
100
AcDbLine
 10
268.1489934678764
 20
58.02375434775257
 30
0.0
 11
263.1489934678764
 21
58.02375434775257
 31
0.0
  0
LINE
  5
337C
330
18
100
AcDbEntity
  8
MSR_I5_6-3A
 48
2.0
100
AcDbLine
 10
268.1489934678764
 20
62.59075434775261
 30
0.0
 11
263.1489934678764
 21
62.59075434775261
 31
0.0
  0
LINE
  5
337D
330
18
100
AcDbEntity
  8
MSR_I5_6-3A
 48
2.0
100
AcDbLine
 10
268.1489934678764
 20
62.15775434775261
 30
0.0
 11
263.1489934678764
 21
62.15775434775261
 31
0.0
  0
LINE
  5
337F
330
18
100
AcDbEntity
  8
MSR_I5_6-3A
 48
2.0
100
AcDbLine
 10
268.1489934678764
 20
77.59075434775261
 30
0.0
 11
263.1489934678764
 21
77.59075434775261
 31
0.0
  0
LINE
  5
3380
330
18
100
AcDbEntity
  8
MSR_I5_6-3A
 48
2.0
100
AcDbLine
 10
268.1489934678764
 20
78.0237543477526
 30
0.0
 11
263.1489934678764
 21
78.0237543477526
 31
0.0
  0
LINE
  5
3381
330
18
100
AcDbEntity
  8
MSR_I5_6-3A
 48
2.0
100
AcDbLine
 10
268.1489934678764
 20
82.5907543477526
 30
0.0
 11
263.1489934678764
 21
82.5907543477526
 31
0.0
  0
LINE
  5
3382
330
18
100
AcDbEntity
  8
MSR_I5_6-3A
 48
2.0
100
AcDbLine
 10
268.1489934678764
 20
82.15775434775261
 30
0.0
 11
263.1489934678764
 21
82.15775434775261
 31
0.0
  0
LINE
  5
33E4
330
18
100
AcDbEntity
  8
7A
 48
2.0
100
AcDbLine
 10
516.9039907582543
 20
356.0163078253481
 30
0.0
 11
516.9039907582543
 21
359.3239927097275
 31
0.0
  0
LINE
  5
3414
330
18
100
AcDbEntity
  8
7A
 48
2.0
100
AcDbLine
 10
567.0601351775503
 20
234.8239940792278
 30
0.0
 11
576.5732903104868
 21
234.8239940792278
 31
0.0
  0
LINE
  5
3415
330
18
100
AcDbEntity
  8
MSR_I5_6-3A
 48
2.0
100
AcDbLine
 10
570.2959028918849
 20
239.7943472533354
 30
0.0
 11
574.9039901202545
 21
239.7943472533354
 31
0.0
  0
LINE
  5
3416
330
18
100
AcDbEntity
  8
MSR_I5_6-3A
 48
2.0
100
AcDbLine
 10
570.2959028918849
 20
238.8239940352278
 30
0.0
 11
574.9039901202545
 21
238.8239940352278
 31
0.0
  0
LINE
  5
3417
330
18
100
AcDbEntity
  8
MSR_I5_6-3A
 48
2.0
100
AcDbLine
 10
570.2959028918849
 20
230.8239941232277
 30
0.0
 11
574.9039901202545
 21
230.8239941232277
 31
0.0
  0
LINE
  5
3418
330
18
100
AcDbEntity
  8
MSR_I5_6-3A
 48
2.0
100
AcDbLine
 10
570.2959028918849
 20
229.8239941342278
 30
0.0
 11
574.9039901202545
 21
229.8239941342278
 31
0.0
  0
ARC
  5
344D
330
18
100
AcDbEntity
  8
0
 48
2.0
100
AcDbCircle
 10
175.0152788113415
 20
557.191512357066
 30
0.0
 40
24.75730184576371
100
AcDbArc
 50
95.22029427069474
 51
165.9745553501522
  0
ARC
  5
344E
330
18
100
AcDbEntity
  8
0
 48
2.0
100
AcDbCircle
 10
175.0152788113415
 20
557.191512357066
 30
0.0
 40
30.25654648874601
100
AcDbArc
 50
94.67924842128919
 51
168.6443037946901
  0
LINE
  5
344F
330
18
100
AcDbEntity
  8
7A
 48
2.0
100
AcDbLine
 10
189.1489943368752
 20
584.6915112295658
 30
0.0
 11
189.1489943368752
 21
568.191513061066
 31
0.0
  0
LINE
  5
3450
330
18
100
AcDbEntity
  8
0
 48
2.0
100
AcDbLine
 10
182.1489951138751
 20
573.6915124505659
 30
0.0
 11
182.1489951138751
 21
568.191513061066
 31
0.0
  0
LINE
  5
3451
330
18
100
AcDbEntity
  8
0
 48
2.0
100
AcDbLine
 10
196.1489935598755
 20
573.6915124505659
 30
0.0
 11
196.1489935598755
 21
568.191513061066
 31
0.0
  0
LINE
  5
3452
330
18
100
AcDbEntity
  8
0
 48
2.0
100
AcDbLine
 10
172.6489961683752
 20
590.1915106190659
 30
0.0
 11
194.6489937263753
 21
590.1915106190659
 31
0.0
  0
LINE
  5
3453
330
18
100
AcDbEntity
  8
7A
 48
2.0
100
AcDbLine
 10
172.6489961683752
 20
584.6915112295658
 30
0.0
 11
189.1489943368752
 21
584.6915112295658
 31
0.0
  0
LINE
  5
3454
330
18
100
AcDbEntity
  8
0
 48
2.0
100
AcDbLine
 10
172.6489961683752
 20
579.1915118400659
 30
0.0
 11
183.6489949473753
 21
579.1915118400659
 31
0.0
  0
LINE
  5
3455
330
18
100
AcDbEntity
  8
0
 48
2.0
100
AcDbLine
 10
172.6489961683752
 20
590.1915106190659
 30
0.0
 11
172.6489961683752
 21
579.1915118400659
 31
0.0
  0
LINE
  5
3456
330
18
100
AcDbEntity
  8
0
 48
2.0
100
AcDbLine
 10
182.1489951138751
 20
573.6915124505659
 30
0.0
 11
196.1489935598755
 21
573.6915124505659
 31
0.0
  0
LINE
  5
3457
330
18
100
AcDbEntity
  8
0
 48
2.0
100
AcDbLine
 10
175.6315631235572
 20
590.1915106190659
 30
0.0
 11
175.6315631235572
 21
579.1915118400659
 31
0.0
  0
LINE
  5
3458
330
18
100
AcDbEntity
  8
0
 48
2.0
100
AcDbLine
 10
183.6489949473753
 20
579.1915118400659
 30
0.0
 11
183.6489949473753
 21
573.6915124505659
 31
0.0
  0
LINE
  5
3459
330
18
100
AcDbEntity
  8
0
 48
2.0
100
AcDbLine
 10
194.6489937263753
 20
590.1915106190659
 30
0.0
 11
194.6489937263753
 21
573.6915124505659
 31
0.0
  0
LINE
  5
345A
330
18
100
AcDbEntity
  8
0
 48
2.0
100
AcDbLine
 10
182.1489951138751
 20
568.191513061066
 30
0.0
 11
196.1489935598755
 21
568.191513061066
 31
0.0
  0
LINE
  5
345B
330
18
100
AcDbEntity
  8
0
 48
2.0
100
AcDbLine
 10
268.1489934678764
 20
2.09075498575271
 30
0.0
 11
268.1489934678764
 21
-2.909244959247075
 31
0.0
  0
LINE
  5
345C
330
18
100
AcDbEntity
  8
0
 48
2.0
100
AcDbLine
 10
178.1489944578761
 20
2.09075498575271
 30
0.0
 11
178.1489944578761
 21
-2.909244959246279
 31
0.0
  0
LINE
  5
345D
330
18
100
AcDbEntity
  8
0
 48
2.0
100
AcDbLine
 10
161.9975147873881
 20
563.1915131160673
 30
0.0
 11
161.9975147873882
 21
568.1915130610662
 31
0.0
  0
LINE
  5
345E
330
18
100
AcDbEntity
  8
0
 48
2.0
100
AcDbLine
 10
161.9975147873882
 20
568.1915130610662
 30
0.0
 11
251.9975137973886
 21
568.1915130610654
 31
0.0
  0
LINE
  5
345F
330
18
100
AcDbEntity
  8
0
 48
2.0
100
AcDbLine
 10
251.9975137973883
 20
563.1915131160657
 30
0.0
 11
251.9975137973885
 21
568.1915130610654
 31
0.0
  0
LINE
  5
34A1
330
18
100
AcDbEntity
  8
7A
 48
2.0
100
AcDbLine
 10
174.1638683068013
 20
505.1915137540657
 30
0.0
 11
328.1489928078764
 21
505.1915137540657
 31
0.0
  0
LINE
  5
34A2
330
18
100
AcDbEntity
  8
7A
 48
2.0
100
AcDbLine
 10
260.1489934678764
 20
60.09075434775275
 30
0.0
 11
328.1489928078765
 21
60.09075434775275
 31
0.0
  0
LINE
  5
34A3
330
18
100
AcDbEntity
  8
7A
 48
2.0
100
AcDbLine
 10
193.5829578452448
 20
60.09075434775275
 30
0.0
 11
252.6210941505201
 21
60.09075434775275
 31
0.0
  0
ENDSEC
  0
SECTION
  2
OBJECTS
  0
DICTIONARY
  5
C
330
0
100
AcDbDictionary
281
     1
  3
ACAD_COLOR
350
350A
  3
ACAD_GROUP
350
D
  3
ACAD_LAYOUT
350
3522
  3
ACAD_MATERIAL
350
34E0
  3
ACAD_MLEADERSTYLE
350
351F
  3
ACAD_MLINESTYLE
350
E
  3
ACAD_PLOTSETTINGS
350
3523
  3
ACAD_PLOTSTYLENAME
350
34DE
  3
ACAD_SCALELIST
350
350D
  3
ACAD_TABLESTYLE
350
350B
  3
ACAD_VISUALSTYLE
350
34F9
  3
ACDB_RECOMPOSE_DATA
350
35E6
  3
ACDBVARIABLEDICTIONARY
350
1A98
  3
AcmDictionary
350
3586
  3
AcmSystemVariableManager
350
3619
  3
AMG
350
352B
  3
AMGSNAPSETTINGS
350
35CA
  3
DWGPROPS
350
360A
  0
DICTIONARY
  5
35D1
330
F
100
AcDbDictionary
280
     1
281
     1
  3
ADSK_XREC_LAYER_RECONCILED
360
35D2
  0
DICTIONARY
  5
35D3
330
26
100
AcDbDictionary
280
     1
281
     1
  3
ADSK_XREC_LAYER_RECONCILED
360
35D4
  0
DICTIONARY
  5
35D5
330
29
100
AcDbDictionary
280
     1
281
     1
  3
ADSK_XREC_LAYER_RECONCILED
360
35D6
  0
DICTIONARY
  5
35D7
330
2B
100
AcDbDictionary
280
     1
281
     1
  3
ADSK_XREC_LAYER_RECONCILED
360
35D8
  0
DICTIONARY
  5
35D9
330
2C
100
AcDbDictionary
280
     1
281
     1
  3
ADSK_XREC_LAYER_RECONCILED
360
35DA
  0
DICTIONARY
  5
35DB
330
2E
100
AcDbDictionary
280
     1
281
     1
  3
ADSK_XREC_LAYER_RECONCILED
360
35DC
  0
DICTIONARY
  5
35DD
330
2F
100
AcDbDictionary
280
     1
281
     1
  3
ADSK_XREC_LAYER_RECONCILED
360
35DE
  0
DICTIONARY
  5
35DF
330
3335
100
AcDbDictionary
280
     1
281
     1
  3
ADSK_XREC_LAYER_RECONCILED
360
35E0
  0
DICTIONARY
  5
35E1
330
3336
100
AcDbDictionary
280
     1
281
     1
  3
ADSK_XREC_LAYER_RECONCILED
360
35E2
  0
DICTIONARY
  5
350A
102
{ACAD_REACTORS
330
C
102
}
330
C
100
AcDbDictionary
281
     1
  0
DICTIONARY
  5
D
102
{ACAD_REACTORS
330
C
102
}
330
C
100
AcDbDictionary
281
     1
  0
DICTIONARY
  5
3522
102
{ACAD_REACTORS
330
C
102
}
330
C
100
AcDbDictionary
281
     1
  3
Layout1
350
3525
  3
Model
350
3524
  0
DICTIONARY
  5
34E0
102
{ACAD_REACTORS
330
C
102
}
330
C
100
AcDbDictionary
281
     1
  3
ByBlock
350
34E9
  3
ByLayer
350
34E1
  3
Global
350
34F1
  0
DICTIONARY
  5
351F
102
{ACAD_REACTORS
330
C
102
}
330
C
100
AcDbDictionary
281
     1
  3
Standard
350
3520
  0
DICTIONARY
  5
E
102
{ACAD_REACTORS
330
C
102
}
330
C
100
AcDbDictionary
281
     1
  3
STANDARD
350
1B
  0
DICTIONARY
  5
3523
102
{ACAD_REACTORS
330
C
102
}
330
C
100
AcDbDictionary
281
     1
  0
ACDBDICTIONARYWDFLT
  5
34DE
102
{ACAD_REACTORS
330
C
102
}
330
C
100
AcDbDictionary
281
     1
  3
Normal
350
34DF
100
AcDbDictionaryWithDefault
340
34DF
  0
DICTIONARY
  5
350D
102
{ACAD_REACTORS
330
C
102
}
330
C
100
AcDbDictionary
281
     1
  3
A0
350
350E
  3
A1
350
350F
  3
A2
350
3510
  3
A3
350
3511
  3
A4
350
3512
  3
A5
350
3513
  3
A6
350
3514
  3
A7
350
3515
  3
A8
350
3516
  3
A9
350
3517
  3
B0
350
3518
  3
B1
350
3519
  3
B2
350
351A
  3
B3
350
351B
  3
B4
350
351C
  3
B5
350
351D
  3
B6
350
351E
  0
DICTIONARY
  5
350B
102
{ACAD_REACTORS
330
C
102
}
330
C
100
AcDbDictionary
281
     1
  3
Standard
350
350C
  0
DICTIONARY
  5
34F9
102
{ACAD_REACTORS
330
C
102
}
330
C
100
AcDbDictionary
281
     1
  3
2dWireframe
350
34FF
  3
3D Hidden
350
3501
  3
3dWireframe
350
3500
  3
Basic
350
34FE
  3
Brighten
350
3505
  3
ColorChange
350
3509
  3
Conceptual
350
3502
  3
Dim
350
3504
  3
Facepattern
350
3508
  3
Flat
350
34FA
  3
FlatWithEdges
350
34FB
  3
Gouraud
350
34FC
  3
GouraudWithEdges
350
34FD
  3
Linepattern
350
3507
  3
Realistic
350
3503
  3
Thicken
350
3506
  0
XRECORD
  5
35E6
102
{ACAD_REACTORS
330
C
102
}
330
C
100
AcDbXrecord
280
     1
 90
        1
330
350C
  0
DICTIONARY
  5
1A98
102
{ACAD_REACTORS
330
C
102
}
330
C
100
AcDbDictionary
281
     1
  3
CANNOSCALE
350
35EA
  3
CMLEADERSTYLE
350
35E8
  3
CTABLESTYLE
350
35E7
  3
DIMASSOC
350
3608
  3
INDEXCTL
350
3607
  3
LAYEREVAL
350
35EC
  3
LAYERNOTIFY
350
35ED
  3
LIGHTINGUNITS
350
35EB
  3
MSLTSCALE
350
35E9
  3
SORTENTS
350
1A99
  0
DICTIONARY
  5
3586
102
{ACAD_REACTORS
330
C
102
}
330
C
100
AcDbDictionary
281
     1
  3
AcmStdDictionary
350
3591
  0
DICTIONARY
  5
352B
102
{ACAD_REACTORS
330
C
102
}
330
C
100
AcDbDictionary
281
     1
  0
DICTIONARY
  5
35CA
102
{ACAD_REACTORS
330
C
102
}
330
C
100
AcDbDictionary
281
     1
  0
XRECORD
  5
360A
102
{ACAD_REACTORS
330
C
102
}
330
C
100
AcDbXrecord
280
     1
  1
DWGPROPS COOKIE
  2

  3

  4

  6

  7

  8
bauer_sven
  9

300
=
301
=
302
=
303
=
304
=
305
=
306
=
307
=
308
=
309
=
 40
0.1659139351851852
 41
2452256.515739467
 42
2456219.410037581
  1

 90
        0
  0
XRECORD
  5
35D2
102
{ACAD_REACTORS
330
35D1
102
}
330
35D1
100
AcDbXrecord
280
     1
290
     1
  0
XRECORD
  5
35D4
102
{ACAD_REACTORS
330
35D3
102
}
330
35D3
100
AcDbXrecord
280
     1
290
     1
  0
XRECORD
  5
35D6
102
{ACAD_REACTORS
330
35D5
102
}
330
35D5
100
AcDbXrecord
280
     1
290
     1
  0
XRECORD
  5
35D8
102
{ACAD_REACTORS
330
35D7
102
}
330
35D7
100
AcDbXrecord
280
     1
290
     1
  0
XRECORD
  5
35DA
102
{ACAD_REACTORS
330
35D9
102
}
330
35D9
100
AcDbXrecord
280
     1
290
     1
  0
XRECORD
  5
35DC
102
{ACAD_REACTORS
330
35DB
102
}
330
35DB
100
AcDbXrecord
280
     1
290
     1
  0
XRECORD
  5
35DE
102
{ACAD_REACTORS
330
35DD
102
}
330
35DD
100
AcDbXrecord
280
     1
290
     1
  0
XRECORD
  5
35E0
102
{ACAD_REACTORS
330
35DF
102
}
330
35DF
100
AcDbXrecord
280
     1
290
     1
  0
XRECORD
  5
35E2
102
{ACAD_REACTORS
330
35E1
102
}
330
35E1
100
AcDbXrecord
280
     1
290
     1
  0
LAYOUT
  5
3525
102
{ACAD_XDICTIONARY
360
3613
102
}
102
{ACAD_REACTORS
330
3522
102
}
330
3522
100
AcDbPlotSettings
  1

  2
iR 2570CN-010
  4

  6

 40
0.0
 41
0.0
 42
0.0
 43
0.0
 44
0.0
 45
0.0
 46
0.0
 47
0.0
 48
0.0
 49
0.0
140
0.0
141
0.0
142
1.0
143
1.0
 70
   688
 72
     0
 73
     0
 74
     5
  7

 75
    16
147
1.0
148
0.0
149
0.0
100
AcDbLayout
  1
Layout1
 70
     1
 71
     1
 10
0.0
 20
0.0
 11
420.0
 21
297.0
 12
0.0
 22
0.0
 32
0.0
 14
1.000000000000000E+20
 24
1.000000000000000E+20
 34
1.000000000000000E+20
 15
-1.000000000000000E+20
 25
-1.000000000000000E+20
 35
-1.000000000000000E+20
146
0.0
 13
0.0
 23
0.0
 33
0.0
 16
1.0
 26
0.0
 36
0.0
 17
0.0
 27
1.0
 37
0.0
 76
     0
330
15
  0
LAYOUT
  5
3524
102
{ACAD_XDICTIONARY
360
3611
102
}
102
{ACAD_REACTORS
330
3522
102
}
330
3522
100
AcDbPlotSettings
  1

  2
iR 2570CN-010
  4

  6

 40
0.0
 41
0.0
 42
0.0
 43
0.0
 44
0.0
 45
0.0
 46
0.0
 47
0.0
 48
0.0
 49
0.0
140
0.0
141
0.0
142
1.0
143
1.0
 70
  1712
 72
     0
 73
     0
 74
     0
  7

 75
     0
147
1.0
148
0.0
149
0.0
100
AcDbLayout
  1
Model
 70
     1
 71
     0
 10
0.0
 20
0.0
 11
12.0
 21
9.0
 12
0.0
 22
0.0
 32
0.0
 14
0.0
 24
0.0
 34
0.0
 15
0.0
 25
0.0
 35
0.0
146
0.0
 13
0.0
 23
0.0
 33
0.0
 16
1.0
 26
0.0
 36
0.0
 17
0.0
 27
1.0
 37
0.0
 76
     0
330
18
331
34DC
  0
MATERIAL
  5
34E9
102
{ACAD_XDICTIONARY
360
34EA
102
}
102
{ACAD_REACTORS
330
34E0
102
}
330
34E0
100
AcDbMaterial
  1
ByBlock
 72
     0
 43
0.0208333333333333
 43
0.0
 43
0.0
 43
0.0
 43
0.0
 43
0.0208333333333333
 43
0.0
 43
0.0
 43
0.0
 43
0.0
 43
1.0
 43
0.0
 43
0.0
 43
0.0
 43
0.0
 43
1.0
 77
     0
 47
0.0208333333333333
 47
0.0
 47
0.0
 47
0.0
 47
0.0
 47
0.0208333333333333
 47
0.0
 47
0.0
 47
0.0
 47
0.0
 47
1.0
 47
0.0
 47
0.0
 47
0.0
 47
0.0
 47
1.0
171
     0
 49
0.0208333333333333
 49
0.0
 49
0.0
 49
0.0
 49
0.0
 49
0.0208333333333333
 49
0.0
 49
0.0
 49
0.0
 49
0.0
 49
1.0
 49
0.0
 49
0.0
 49
0.0
 49
0.0
 49
1.0
175
     0
142
0.0208333333333333
142
0.0
142
0.0
142
0.0
142
0.0
142
0.0208333333333333
142
0.0
142
0.0
142
0.0
142
0.0
142
1.0
142
0.0
142
0.0
142
0.0
142
0.0
142
1.0
179
     0
144
0.0208333333333333
144
0.0
144
0.0
144
0.0
144
0.0
144
0.0208333333333333
144
0.0
144
0.0
144
0.0
144
0.0
144
1.0
144
0.0
144
0.0
144
0.0
144
0.0
144
1.0
147
0.0208333333333333
147
0.0
147
0.0
147
0.0
147
0.0
147
0.0208333333333333
147
0.0
147
0.0
147
0.0
147
0.0
147
1.0
147
0.0
147
0.0
147
0.0
147
0.0
147
1.0
  0
MATERIAL
  5
34E1
102
{ACAD_XDICTIONARY
360
34E2
102
}
102
{ACAD_REACTORS
330
34E0
102
}
330
34E0
100
AcDbMaterial
  1
ByLayer
 72
     0
 43
0.0208333333333333
 43
0.0
 43
0.0
 43
0.0
 43
0.0
 43
0.0208333333333333
 43
0.0
 43
0.0
 43
0.0
 43
0.0
 43
1.0
 43
0.0
 43
0.0
 43
0.0
 43
0.0
 43
1.0
 77
     0
 47
0.0208333333333333
 47
0.0
 47
0.0
 47
0.0
 47
0.0
 47
0.0208333333333333
 47
0.0
 47
0.0
 47
0.0
 47
0.0
 47
1.0
 47
0.0
 47
0.0
 47
0.0
 47
0.0
 47
1.0
171
     0
 49
0.0208333333333333
 49
0.0
 49
0.0
 49
0.0
 49
0.0
 49
0.0208333333333333
 49
0.0
 49
0.0
 49
0.0
 49
0.0
 49
1.0
 49
0.0
 49
0.0
 49
0.0
 49
0.0
 49
1.0
175
     0
142
0.0208333333333333
142
0.0
142
0.0
142
0.0
142
0.0
142
0.0208333333333333
142
0.0
142
0.0
142
0.0
142
0.0
142
1.0
142
0.0
142
0.0
142
0.0
142
0.0
142
1.0
179
     0
144
0.0208333333333333
144
0.0
144
0.0
144
0.0
144
0.0
144
0.0208333333333333
144
0.0
144
0.0
144
0.0
144
0.0
144
1.0
144
0.0
144
0.0
144
0.0
144
0.0
144
1.0
147
0.0208333333333333
147
0.0
147
0.0
147
0.0
147
0.0
147
0.0208333333333333
147
0.0
147
0.0
147
0.0
147
0.0
147
1.0
147
0.0
147
0.0
147
0.0
147
0.0
147
1.0
  0
MATERIAL
  5
34F1
102
{ACAD_XDICTIONARY
360
34F2
102
}
102
{ACAD_REACTORS
330
34E0
102
}
330
34E0
100
AcDbMaterial
  1
Global
 72
     0
 43
0.0208333333333333
 43
0.0
 43
0.0
 43
0.0
 43
0.0
 43
0.0208333333333333
 43
0.0
 43
0.0
 43
0.0
 43
0.0
 43
1.0
 43
0.0
 43
0.0
 43
0.0
 43
0.0
 43
1.0
 77
     0
 47
0.0208333333333333
 47
0.0
 47
0.0
 47
0.0
 47
0.0
 47
0.0208333333333333
 47
0.0
 47
0.0
 47
0.0
 47
0.0
 47
1.0
 47
0.0
 47
0.0
 47
0.0
 47
0.0
 47
1.0
171
     0
 49
0.0208333333333333
 49
0.0
 49
0.0
 49
0.0
 49
0.0
 49
0.0208333333333333
 49
0.0
 49
0.0
 49
0.0
 49
0.0
 49
1.0
 49
0.0
 49
0.0
 49
0.0
 49
0.0
 49
1.0
175
     0
142
0.0208333333333333
142
0.0
142
0.0
142
0.0
142
0.0
142
0.0208333333333333
142
0.0
142
0.0
142
0.0
142
0.0
142
1.0
142
0.0
142
0.0
142
0.0
142
0.0
142
1.0
179
     0
144
0.0208333333333333
144
0.0
144
0.0
144
0.0
144
0.0
144
0.0208333333333333
144
0.0
144
0.0
144
0.0
144
0.0
144
1.0
144
0.0
144
0.0
144
0.0
144
0.0
144
1.0
147
0.0208333333333333
147
0.0
147
0.0
147
0.0
147
0.0
147
0.0208333333333333
147
0.0
147
0.0
147
0.0
147
0.0
147
1.0
147
0.0
147
0.0
147
0.0
147
0.0
147
1.0
  0
MLEADERSTYLE
  5
3520
102
{ACAD_REACTORS
330
351F
102
}
330
351F
100
AcDbMLeaderStyle
170
     2
171
     1
172
     0
 90
        2
 40
0.0
 41
0.0
173
     1
 91
-1056964608
340
12
 92
       -2
290
     1
 42
2.0
291
     1
 43
0.36
  3
Standard
 44
4.0
300

342
10
174
     1
178
     6
175
     1
176
     0
 93
-1056964608
 45
4.0
292
     0
297
     0
 46
4.0
 94
-1056964608
 47
1.0
 49
1.0
140
1.0
293
     1
141
0.0
294
     1
177
     0
142
1.0
295
     0
296
     0
143
0.125
1001
ACAD_MLEADERVER
1070
     2
  0
MLINESTYLE
  5
1B
102
{ACAD_REACTORS
330
E
102
}
330
E
100
AcDbMlineStyle
  2
STANDARD
 70
     0
  3

 62
     0
 51
90.0
 52
90.0
 71
     2
 49
0.5
 62
   256
  6
BYLAYER
 49
-0.5
 62
   256
  6
BYLAYER
  0
ACDBPLACEHOLDER
  5
34DF
102
{ACAD_REACTORS
330
34DE
102
}
330
34DE
  0
SCALE
  5
350E
102
{ACAD_REACTORS
330
350D
102
}
330
350D
100
AcDbScale
 70
     0
300
1:1
140
1.0
141
1.0
290
     1
  0
SCALE
  5
350F
102
{ACAD_REACTORS
330
350D
102
}
330
350D
100
AcDbScale
 70
     0
300
1:2
140
1.0
141
2.0
290
     0
  0
SCALE
  5
3510
102
{ACAD_REACTORS
330
350D
102
}
330
350D
100
AcDbScale
 70
     0
300
1:4
140
1.0
141
4.0
290
     0
  0
SCALE
  5
3511
102
{ACAD_REACTORS
330
350D
102
}
330
350D
100
AcDbScale
 70
     0
300
1:5
140
1.0
141
5.0
290
     0
  0
SCALE
  5
3512
102
{ACAD_REACTORS
330
350D
102
}
330
350D
100
AcDbScale
 70
     0
300
1:8
140
1.0
141
8.0
290
     0
  0
SCALE
  5
3513
102
{ACAD_REACTORS
330
350D
102
}
330
350D
100
AcDbScale
 70
     0
300
1:10
140
1.0
141
10.0
290
     0
  0
SCALE
  5
3514
102
{ACAD_REACTORS
330
350D
102
}
330
350D
100
AcDbScale
 70
     0
300
1:16
140
1.0
141
16.0
290
     0
  0
SCALE
  5
3515
102
{ACAD_REACTORS
330
350D
102
}
330
350D
100
AcDbScale
 70
     0
300
1:20
140
1.0
141
20.0
290
     0
  0
SCALE
  5
3516
102
{ACAD_REACTORS
330
350D
102
}
330
350D
100
AcDbScale
 70
     0
300
1:30
140
1.0
141
30.0
290
     0
  0
SCALE
  5
3517
102
{ACAD_REACTORS
330
350D
102
}
330
350D
100
AcDbScale
 70
     0
300
1:40
140
1.0
141
40.0
290
     0
  0
SCALE
  5
3518
102
{ACAD_REACTORS
330
350D
102
}
330
350D
100
AcDbScale
 70
     0
300
1:50
140
1.0
141
50.0
290
     0
  0
SCALE
  5
3519
102
{ACAD_REACTORS
330
350D
102
}
330
350D
100
AcDbScale
 70
     0
300
1:100
140
1.0
141
100.0
290
     0
  0
SCALE
  5
351A
102
{ACAD_REACTORS
330
350D
102
}
330
350D
100
AcDbScale
 70
     0
300
2:1
140
2.0
141
1.0
290
     0
  0
SCALE
  5
351B
102
{ACAD_REACTORS
330
350D
102
}
330
350D
100
AcDbScale
 70
     0
300
4:1
140
4.0
141
1.0
290
     0
  0
SCALE
  5
351C
102
{ACAD_REACTORS
330
350D
102
}
330
350D
100
AcDbScale
 70
     0
300
8:1
140
8.0
141
1.0
290
     0
  0
SCALE
  5
351D
102
{ACAD_REACTORS
330
350D
102
}
330
350D
100
AcDbScale
 70
     0
300
10:1
140
10.0
141
1.0
290
     0
  0
SCALE
  5
351E
102
{ACAD_REACTORS
330
350D
102
}
330
350D
100
AcDbScale
 70
     0
300
100:1
140
100.0
141
1.0
290
     0
  0
TABLESTYLE
  5
350C
102
{ACAD_XDICTIONARY
360
35E4
102
}
102
{ACAD_REACTORS
330
350B
102
}
330
350B
100
AcDbTableStyle
  3
Standard
 70
     0
 71
     0
 40
1.5
 41
1.5
280
     0
281
     0
  7
STANDARD
140
4.5
170
     2
 62
     0
 63
     7
283
     0
274
    -2
284
     1
 64
     0
275
    -2
285
     1
 65
     0
276
    -2
286
     1
 66
     0
277
    -2
287
     1
 67
     0
278
    -2
288
     1
 68
     0
279
    -2
289
     1
 69
     0
  7
STANDARD
140
6.0
170
     5
 62
     0
 63
     7
283
     0
274
    -2
284
     1
 64
     0
275
    -2
285
     1
 65
     0
276
    -2
286
     1
 66
     0
277
    -2
287
     1
 67
     0
278
    -2
288
     1
 68
     0
279
    -2
289
     1
 69
     0
  7
STANDARD
140
4.5
170
     5
 62
     0
 63
     7
283
     0
274
    -2
284
     1
 64
     0
275
    -2
285
     1
 65
     0
276
    -2
286
     1
 66
     0
277
    -2
287
     1
 67
     0
278
    -2
288
     1
 68
     0
279
    -2
289
     1
 69
     0
  0
VISUALSTYLE
  5
34FF
102
{ACAD_REACTORS
330
34F9
102
}
330
34F9
100
AcDbVisualStyle
  2
2dWireframe
 70
     4
 71
     0
 72
     2
 73
     0
 90
        0
 40
-0.6
 41
-30.0
 62
     5
 63
     7
 74
     1
 91
        4
 64
     7
 65
   257
 75
     1
175
     1
 42
1.0
 92
        0
 66
   257
 43
1.0
 76
     1
 77
     6
 78
     2
 67
     7
 79
     5
170
     0
171
     0
290
     0
174
     0
 93
        1
 44
0.0
173
     0
291
     0
 45
0.0
1001
ACAD
1000
AcDbSavedByObjectVersion
1070
     0
  0
VISUALSTYLE
  5
3501
102
{ACAD_REACTORS
330
34F9
102
}
330
34F9
100
AcDbVisualStyle
  2
3D Hidden
 70
     6
 71
     1
 72
     2
 73
     2
 90
        0
 40
-0.6
 41
-30.0
 62
     5
 63
     7
 74
     2
 91
        2
 64
     7
 65
   257
 75
     2
175
     1
 42
40.0
 92
        0
 66
   257
 43
1.0
 76
     1
 77
     6
 78
     2
 67
     7
 79
     3
170
     0
171
     0
290
     0
174
     0
 93
        1
 44
0.0
173
     0
291
     0
 45
0.0
1001
ACAD
1000
AcDbSavedByObjectVersion
1070
     0
  0
VISUALSTYLE
  5
3500
102
{ACAD_REACTORS
330
34F9
102
}
330
34F9
100
AcDbVisualStyle
  2
3dWireframe
 70
     5
 71
     0
 72
     2
 73
     0
 90
        0
 40
-0.6
 41
-30.0
 62
     5
 63
     7
 74
     1
 91
        4
 64
     7
 65
   257
 75
     1
175
     1
 42
1.0
 92
        0
 66
   257
 43
1.0
 76
     1
 77
     6
 78
     2
 67
     7
 79
     5
170
     0
171
     0
290
     0
174
     0
 93
        1
 44
0.0
173
     0
291
     0
 45
0.0
1001
ACAD
1000
AcDbSavedByObjectVersion
1070
     0
  0
VISUALSTYLE
  5
34FE
102
{ACAD_REACTORS
330
34F9
102
}
330
34F9
100
AcDbVisualStyle
  2
Basic
 70
     7
 71
     1
 72
     0
 73
     1
 90
        0
 40
-0.6
 41
-30.0
 62
     5
 63
     7
 74
     0
 91
        4
 64
     7
 65
   257
 75
     1
175
     1
 42
1.0
 92
        8
 66
     7
 43
1.0
 76
     1
 77
     6
 78
     2
 67
     7
 79
     5
170
     0
171
     0
290
     0
174
     0
 93
        1
 44
0.0
173
     0
291
     1
 45
0.0
1001
ACAD
1000
AcDbSavedByObjectVersion
1070
     0
  0
VISUALSTYLE
  5
3505
102
{ACAD_REACTORS
330
34F9
102
}
330
34F9
100
AcDbVisualStyle
  2
Brighten
 70
    12
 71
     2
 72
     2
 73
     0
 90
        0
 40
-0.6
 41
-30.0
 62
     5
 63
     7
 74
     1
 91
        4
 64
     7
 65
   257
 75
     1
175
     1
 42
1.0
 92
        8
 66
     7
 43
1.0
 76
     1
 77
     6
 78
     2
 67
     7
 79
     5
170
     0
171
     0
290
     0
174
     0
 93
        1
 44
50.0
173
     0
291
     1
 45
0.0
1001
ACAD
1000
AcDbSavedByObjectVersion
1070
     0
  0
VISUALSTYLE
  5
3509
102
{ACAD_REACTORS
330
34F9
102
}
330
34F9
100
AcDbVisualStyle
  2
ColorChange
 70
    16
 71
     2
 72
     2
 73
     3
 90
        0
 40
-0.6
 41
-30.0
 62
     5
 63
     8
 74
     1
 91
        4
 64
     7
 65
   257
 75
     1
175
     1
 42
1.0
 92
        8
 66
     8
 43
1.0
 76
     1
 77
     6
 78
     2
 67
     7
 79
     5
170
     0
171
     0
290
     0
174
     0
 93
        1
 44
0.0
173
     0
291
     1
 45
0.0
1001
ACAD
1000
AcDbSavedByObjectVersion
1070
     0
  0
VISUALSTYLE
  5
3502
102
{ACAD_REACTORS
330
34F9
102
}
330
34F9
100
AcDbVisualStyle
  2
Conceptual
 70
     9
 71
     3
 72
     2
 73
     0
 90
        0
 40
-0.6
 41
-30.0
 62
     5
 63
     7
 74
     2
 91
        2
 64
     7
 65
   257
 75
     1
175
     1
 42
40.0
 92
        8
 66
     7
 43
1.0
 76
     1
 77
     6
 78
     2
 67
     7
 79
     3
170
     0
171
     0
290
     0
174
     0
 93
        1
 44
0.0
173
     0
291
     0
 45
0.0
1001
ACAD
1000
AcDbSavedByObjectVersion
1070
     0
  0
VISUALSTYLE
  5
3504
102
{ACAD_REACTORS
330
34F9
102
}
330
34F9
100
AcDbVisualStyle
  2
Dim
 70
    11
 71
     2
 72
     2
 73
     0
 90
        0
 40
-0.6
 41
-30.0
 62
     5
 63
     7
 74
     1
 91
        4
 64
     7
 65
   257
 75
     1
175
     1
 42
1.0
 92
        8
 66
     7
 43
1.0
 76
     1
 77
     6
 78
     2
 67
     7
 79
     5
170
     0
171
     0
290
     0
174
     0
 93
        1
 44
-50.0
173
     0
291
     1
 45
0.0
1001
ACAD
1000
AcDbSavedByObjectVersion
1070
     0
  0
VISUALSTYLE
  5
3508
102
{ACAD_REACTORS
330
34F9
102
}
330
34F9
100
AcDbVisualStyle
  2
Facepattern
 70
    15
 71
     2
 72
     2
 73
     0
 90
        0
 40
-0.6
 41
-30.0
 62
     5
 63
     7
 74
     1
 91
        4
 64
     7
 65
   257
 75
     1
175
     1
 42
1.0
 92
        8
 66
     7
 43
1.0
 76
     1
 77
     6
 78
     2
 67
     7
 79
     5
170
     0
171
     0
290
     0
174
     0
 93
        1
 44
0.0
173
     0
291
     1
 45
0.0
1001
ACAD
1000
AcDbSavedByObjectVersion
1070
     0
  0
VISUALSTYLE
  5
34FA
102
{ACAD_REACTORS
330
34F9
102
}
330
34F9
100
AcDbVisualStyle
  2
Flat
 70
     0
 71
     2
 72
     1
 73
     1
 90
        2
 40
-0.6
 41
30.0
 62
     5
 63
     7
 74
     0
 91
        4
 64
     7
 65
   257
 75
     1
175
     1
 42
1.0
 92
        8
 66
     7
 43
1.0
 76
     1
 77
     6
 78
     2
 67
     7
 79
     5
170
     0
171
     0
290
     0
174
     0
 93
       13
 44
0.0
173
     0
291
     1
 45
0.0
1001
ACAD
1000
AcDbSavedByObjectVersion
1070
     0
  0
VISUALSTYLE
  5
34FB
102
{ACAD_REACTORS
330
34F9
102
}
330
34F9
100
AcDbVisualStyle
  2
FlatWithEdges
 70
     1
 71
     2
 72
     1
 73
     1
 90
        2
 40
-0.6
 41
30.0
 62
     5
 63
     7
 74
     1
 91
        4
 64
     7
 65
   257
 75
     1
175
     1
 42
1.0
 92
        0
 66
   257
 43
1.0
 76
     1
 77
     6
 78
     2
 67
     7
 79
     5
170
     0
171
     0
290
     0
174
     0
 93
       13
 44
0.0
173
     0
291
     1
 45
0.0
1001
ACAD
1000
AcDbSavedByObjectVersion
1070
     0
  0
VISUALSTYLE
  5
34FC
102
{ACAD_REACTORS
330
34F9
102
}
330
34F9
100
AcDbVisualStyle
  2
Gouraud
 70
     2
 71
     2
 72
     2
 73
     1
 90
        2
 40
-0.6
 41
30.0
 62
     5
 63
     7
 74
     0
 91
        4
 64
     7
 65
   257
 75
     1
175
     1
 42
1.0
 92
        0
 66
     7
 43
1.0
 76
     1
 77
     6
 78
     2
 67
     7
 79
     5
170
     0
171
     0
290
     0
174
     0
 93
       13
 44
0.0
173
     0
291
     1
 45
0.0
1001
ACAD
1000
AcDbSavedByObjectVersion
1070
     0
  0
VISUALSTYLE
  5
34FD
102
{ACAD_REACTORS
330
34F9
102
}
330
34F9
100
AcDbVisualStyle
  2
GouraudWithEdges
 70
     3
 71
     2
 72
     2
 73
     1
 90
        2
 40
-0.6
 41
30.0
 62
     5
 63
     7
 74
     1
 91
        4
 64
     7
 65
   257
 75
     1
175
     1
 42
1.0
 92
        0
 66
   257
 43
1.0
 76
     1
 77
     6
 78
     2
 67
     7
 79
     5
170
     0
171
     0
290
     0
174
     0
 93
       13
 44
0.0
173
     0
291
     1
 45
0.0
1001
ACAD
1000
AcDbSavedByObjectVersion
1070
     0
  0
VISUALSTYLE
  5
3507
102
{ACAD_REACTORS
330
34F9
102
}
330
34F9
100
AcDbVisualStyle
  2
Linepattern
 70
    14
 71
     2
 72
     2
 73
     0
 90
        0
 40
-0.6
 41
-30.0
 62
     5
 63
     7
 74
     1
 91
        4
 64
     7
 65
   257
 75
     7
175
     7
 42
1.0
 92
        8
 66
     7
 43
1.0
 76
     1
 77
     6
 78
     2
 67
     7
 79
     5
170
     0
171
     0
290
     0
174
     0
 93
        1
 44
0.0
173
     0
291
     1
 45
0.0
1001
ACAD
1000
AcDbSavedByObjectVersion
1070
     0
  0
VISUALSTYLE
  5
3503
102
{ACAD_REACTORS
330
34F9
102
}
330
34F9
100
AcDbVisualStyle
  2
Realistic
 70
     8
 71
     2
 72
     2
 73
     0
 90
        0
 40
-0.6
 41
-30.0
 62
     5
 63
     7
 74
     1
 91
        0
 64
     7
 65
   257
 75
     1
175
     1
 42
1.0
 92
        8
 66
     8
 43
1.0
 76
     1
 77
     6
 78
     2
 67
     7
 79
     5
170
     0
171
     0
290
     0
174
     0
 93
       13
 44
0.0
173
     0
291
     0
 45
0.0
1001
ACAD
1000
AcDbSavedByObjectVersion
1070
     0
  0
VISUALSTYLE
  5
3506
102
{ACAD_REACTORS
330
34F9
102
}
330
34F9
100
AcDbVisualStyle
  2
Thicken
 70
    13
 71
     2
 72
     2
 73
     0
 90
        0
 40
-0.6
 41
-30.0
 62
     5
 63
     7
 74
     1
 91
        4
 64
     7
 65
   257
 75
     1
175
     1
 42
1.0
 92
       12
 66
     7
 43
1.0
 76
     1
 77
     6
 78
     2
 67
     7
 79
     5
170
     0
171
     0
290
     0
174
     0
 93
        1
 44
0.0
173
     0
291
     1
 45
0.0
1001
ACAD
1000
AcDbSavedByObjectVersion
1070
     0
  0
DICTIONARYVAR
  5
35EA
102
{ACAD_REACTORS
330
1A98
102
}
330
1A98
100
DictionaryVariables
280
     0
  1
1:1
  0
DICTIONARYVAR
  5
35E8
102
{ACAD_REACTORS
330
1A98
102
}
330
1A98
100
DictionaryVariables
280
     0
  1
STANDARD
  0
DICTIONARYVAR
  5
35E7
102
{ACAD_REACTORS
330
1A98
102
}
330
1A98
100
DictionaryVariables
280
     0
  1
STANDARD
  0
DICTIONARYVAR
  5
3608
102
{ACAD_REACTORS
330
1A98
102
}
330
1A98
100
DictionaryVariables
280
     0
  1
1
  0
DICTIONARYVAR
  5
3607
102
{ACAD_REACTORS
330
1A98
102
}
330
1A98
100
DictionaryVariables
280
     0
  1
0
  0
DICTIONARYVAR
  5
35EC
102
{ACAD_REACTORS
330
1A98
102
}
330
1A98
100
DictionaryVariables
280
     0
  1
1
  0
DICTIONARYVAR
  5
35ED
102
{ACAD_REACTORS
330
1A98
102
}
330
1A98
100
DictionaryVariables
280
     0
  1
15
  0
DICTIONARYVAR
  5
35EB
102
{ACAD_REACTORS
330
1A98
102
}
330
1A98
100
DictionaryVariables
280
     0
  1
0
  0
DICTIONARYVAR
  5
35E9
102
{ACAD_REACTORS
330
1A98
102
}
330
1A98
100
DictionaryVariables
280
     0
  1
0
  0
DICTIONARYVAR
  5
1A99
102
{ACAD_REACTORS
330
1A98
102
}
330
1A98
100
DictionaryVariables
280
     0
  1
96
  0
DICTIONARY
  5
3591
102
{ACAD_REACTORS
330
3586
102
}
330
3586
100
AcDbDictionary
281
     1
  0
DICTIONARY
  5
3613
330
3525
100
AcDbDictionary
280
     1
281
     1
  3
ACAD_XREC_ROUNDTRIP
360
3614
  0
DICTIONARY
  5
3611
330
3524
100
AcDbDictionary
280
     1
281
     1
  3
ACAD_XREC_ROUNDTRIP
360
3612
  0
DICTIONARY
  5
34EA
330
34E9
100
AcDbDictionary
280
     1
281
     1
  3
ACAD_XREC_ROUNDTRIP
360
360E
  3
BUMPTILE
360
34EC
  3
DIFFUSETILE
360
34EB
  3
OPACITYTILE
360
34EF
  3
REFLECTIONTILE
360
34EE
  3
REFRACTIONTILE
360
34F0
  3
SPECULARTILE
360
34ED
  0
DICTIONARY
  5
34E2
330
34E1
100
AcDbDictionary
280
     1
281
     1
  3
ACAD_XREC_ROUNDTRIP
360
360D
  3
BUMPTILE
360
34E4
  3
DIFFUSETILE
360
34E3
  3
OPACITYTILE
360
34E7
  3
REFLECTIONTILE
360
34E6
  3
REFRACTIONTILE
360
34E8
  3
SPECULARTILE
360
34E5
  0
DICTIONARY
  5
34F2
330
34F1
100
AcDbDictionary
280
     1
281
     1
  3
ACAD_XREC_ROUNDTRIP
360
360F
  3
BUMPTILE
360
34F4
  3
DIFFUSETILE
360
34F3
  3
OPACITYTILE
360
34F7
  3
REFLECTIONTILE
360
34F6
  3
REFRACTIONTILE
360
34F8
  3
SPECULARTILE
360
34F5
  0
DICTIONARY
  5
35E4
330
350C
100
AcDbDictionary
280
     1
281
     1
  3
ACAD_ROUNDTRIP_2008_TABLESTYLE_CELLSTYLEMAP
360
3609
  3
ACAD_XREC_ROUNDTRIP
360
3610
  0
XRECORD
  5
3614
102
{ACAD_REACTORS
330
3613
102
}
330
3613
100
AcDbXrecord
280
     1
102
SHADEPLOT
 70
     0
102
SHADEPLOTRESLEVEL
 70
     2
102
SHADEPLOTCUSTOMDPI
 70
   300
  0
XRECORD
  5
3612
102
{ACAD_REACTORS
330
3611
102
}
330
3611
100
AcDbXrecord
280
     1
102
SHADEPLOT
 70
     0
102
SHADEPLOTRESLEVEL
 70
     2
102
SHADEPLOTCUSTOMDPI
 70
   300
  0
XRECORD
  5
360E
102
{ACAD_REACTORS
330
34EA
102
}
330
34EA
100
AcDbXrecord
280
     1
102
MATERIAL
148
0.0
149
0.0
149
0.0
 93
        0
 94
      127
282
     0
 72
     0
 77
     0
171
     0
175
     0
179
     0
273
     0
  0
XRECORD
  5
34EC
102
{ACAD_REACTORS
330
34EA
102
}
330
34EA
100
AcDbXrecord
280
     1
270
     1
271
     1
  0
XRECORD
  5
34EB
102
{ACAD_REACTORS
330
34EA
102
}
330
34EA
100
AcDbXrecord
280
     1
270
     1
271
     1
  0
XRECORD
  5
34EF
102
{ACAD_REACTORS
330
34EA
102
}
330
34EA
100
AcDbXrecord
280
     1
270
     1
271
     1
  0
XRECORD
  5
34EE
102
{ACAD_REACTORS
330
34EA
102
}
330
34EA
100
AcDbXrecord
280
     1
270
     1
271
     1
  0
XRECORD
  5
34F0
102
{ACAD_REACTORS
330
34EA
102
}
330
34EA
100
AcDbXrecord
280
     1
270
     1
271
     1
  0
XRECORD
  5
34ED
102
{ACAD_REACTORS
330
34EA
102
}
330
34EA
100
AcDbXrecord
280
     1
270
     1
271
     1
  0
XRECORD
  5
360D
102
{ACAD_REACTORS
330
34E2
102
}
330
34E2
100
AcDbXrecord
280
     1
102
MATERIAL
148
0.0
149
0.0
149
0.0
 93
        0
 94
      127
282
     0
 72
     0
 77
     0
171
     0
175
     0
179
     0
273
     0
  0
XRECORD
  5
34E4
102
{ACAD_REACTORS
330
34E2
102
}
330
34E2
100
AcDbXrecord
280
     1
270
     1
271
     1
  0
XRECORD
  5
34E3
102
{ACAD_REACTORS
330
34E2
102
}
330
34E2
100
AcDbXrecord
280
     1
270
     1
271
     1
  0
XRECORD
  5
34E7
102
{ACAD_REACTORS
330
34E2
102
}
330
34E2
100
AcDbXrecord
280
     1
270
     1
271
     1
  0
XRECORD
  5
34E6
102
{ACAD_REACTORS
330
34E2
102
}
330
34E2
100
AcDbXrecord
280
     1
270
     1
271
     1
  0
XRECORD
  5
34E8
102
{ACAD_REACTORS
330
34E2
102
}
330
34E2
100
AcDbXrecord
280
     1
270
     1
271
     1
  0
XRECORD
  5
34E5
102
{ACAD_REACTORS
330
34E2
102
}
330
34E2
100
AcDbXrecord
280
     1
270
     1
271
     1
  0
XRECORD
  5
360F
102
{ACAD_REACTORS
330
34F2
102
}
330
34F2
100
AcDbXrecord
280
     1
102
MATERIAL
148
0.0
149
0.0
149
0.0
 93
        0
 94
      127
282
     0
 72
     0
 77
     0
171
     0
175
     0
179
     0
273
     0
  0
XRECORD
  5
34F4
102
{ACAD_REACTORS
330
34F2
102
}
330
34F2
100
AcDbXrecord
280
     1
270
     1
271
     1
  0
XRECORD
  5
34F3
102
{ACAD_REACTORS
330
34F2
102
}
330
34F2
100
AcDbXrecord
280
     1
270
     1
271
     1
  0
XRECORD
  5
34F7
102
{ACAD_REACTORS
330
34F2
102
}
330
34F2
100
AcDbXrecord
280
     1
270
     1
271
     1
  0
XRECORD
  5
34F6
102
{ACAD_REACTORS
330
34F2
102
}
330
34F2
100
AcDbXrecord
280
     1
270
     1
271
     1
  0
XRECORD
  5
34F8
102
{ACAD_REACTORS
330
34F2
102
}
330
34F2
100
AcDbXrecord
280
     1
270
     1
271
     1
  0
XRECORD
  5
34F5
102
{ACAD_REACTORS
330
34F2
102
}
330
34F2
100
AcDbXrecord
280
     1
270
     1
271
     1
  0
CELLSTYLEMAP
  5
3609
102
{ACAD_REACTORS
330
35E4
102
}
330
35E4
100
AcDbCellStyleMap
 90
        3
300
CELLSTYLE
  1
TABLEFORMAT_BEGIN
 90
        5
170
     1
 91
        0
 92
    32768
 62
   257
 93
        1
300
CONTENTFORMAT
  1
CONTENTFORMAT_BEGIN
 90
        0
 91
        0
 92
      512
 93
        0
300

 40
0.0
140
1.0
 94
        5
 62
     0
340
10
144
6.0
309
CONTENTFORMAT_END
171
     1
301
MARGIN
  1
CELLMARGIN_BEGIN
 40
1.5
 40
1.5
 40
1.5
 40
1.5
 40
4.5
 40
4.5
309
CELLMARGIN_END
 94
        6
 95
        1
302
GRIDFORMAT
  1
GRIDFORMAT_BEGIN
 90
        0
 91
        1
 62
     0
 92
       -2
340
0
 93
        0
 40
1.125
309
GRIDFORMAT_END
 95
        2
302
GRIDFORMAT
  1
GRIDFORMAT_BEGIN
 90
        0
 91
        1
 62
     0
 92
       -2
340
0
 93
        0
 40
1.125
309
GRIDFORMAT_END
 95
        4
302
GRIDFORMAT
  1
GRIDFORMAT_BEGIN
 90
        0
 91
        1
 62
     0
 92
       -2
340
0
 93
        0
 40
1.125
309
GRIDFORMAT_END
 95
        8
302
GRIDFORMAT
  1
GRIDFORMAT_BEGIN
 90
        0
 91
        1
 62
     0
 92
       -2
340
0
 93
        0
 40
1.125
309
GRIDFORMAT_END
 95
       16
302
GRIDFORMAT
  1
GRIDFORMAT_BEGIN
 90
        0
 91
        1
 62
     0
 92
       -2
340
0
 93
        0
 40
1.125
309
GRIDFORMAT_END
 95
       32
302
GRIDFORMAT
  1
GRIDFORMAT_BEGIN
 90
        0
 91
        1
 62
     0
 92
       -2
340
0
 93
        0
 40
1.125
309
GRIDFORMAT_END
309
TABLEFORMAT_END
  1
CELLSTYLE_BEGIN
 90
        1
 91
        1
300
_TITLE
309
CELLSTYLE_END
300
CELLSTYLE
  1
TABLEFORMAT_BEGIN
 90
        5
170
     1
 91
        0
 92
        0
 62
   257
 93
        1
300
CONTENTFORMAT
  1
CONTENTFORMAT_BEGIN
 90
        0
 91
        0
 92
      512
 93
        0
300

 40
0.0
140
1.0
 94
        5
 62
     0
340
10
144
4.5
309
CONTENTFORMAT_END
171
     1
301
MARGIN
  1
CELLMARGIN_BEGIN
 40
1.5
 40
1.5
 40
1.5
 40
1.5
 40
4.5
 40
4.5
309
CELLMARGIN_END
 94
        6
 95
        1
302
GRIDFORMAT
  1
GRIDFORMAT_BEGIN
 90
        0
 91
        1
 62
     0
 92
       -2
340
0
 93
        0
 40
1.125
309
GRIDFORMAT_END
 95
        2
302
GRIDFORMAT
  1
GRIDFORMAT_BEGIN
 90
        0
 91
        1
 62
     0
 92
       -2
340
0
 93
        0
 40
1.125
309
GRIDFORMAT_END
 95
        4
302
GRIDFORMAT
  1
GRIDFORMAT_BEGIN
 90
        0
 91
        1
 62
     0
 92
       -2
340
0
 93
        0
 40
1.125
309
GRIDFORMAT_END
 95
        8
302
GRIDFORMAT
  1
GRIDFORMAT_BEGIN
 90
        0
 91
        1
 62
     0
 92
       -2
340
0
 93
        0
 40
1.125
309
GRIDFORMAT_END
 95
       16
302
GRIDFORMAT
  1
GRIDFORMAT_BEGIN
 90
        0
 91
        1
 62
     0
 92
       -2
340
0
 93
        0
 40
1.125
309
GRIDFORMAT_END
 95
       32
302
GRIDFORMAT
  1
GRIDFORMAT_BEGIN
 90
        0
 91
        1
 62
     0
 92
       -2
340
0
 93
        0
 40
1.125
309
GRIDFORMAT_END
309
TABLEFORMAT_END
  1
CELLSTYLE_BEGIN
 90
        2
 91
        1
300
_HEADER
309
CELLSTYLE_END
300
CELLSTYLE
  1
TABLEFORMAT_BEGIN
 90
        5
170
     1
 91
        0
 92
        0
 62
   257
 93
        1
300
CONTENTFORMAT
  1
CONTENTFORMAT_BEGIN
 90
        0
 91
        0
 92
      512
 93
        0
300

 40
0.0
140
1.0
 94
        2
 62
     0
340
10
144
4.5
309
CONTENTFORMAT_END
171
     1
301
MARGIN
  1
CELLMARGIN_BEGIN
 40
1.5
 40
1.5
 40
1.5
 40
1.5
 40
4.5
 40
4.5
309
CELLMARGIN_END
 94
        6
 95
        1
302
GRIDFORMAT
  1
GRIDFORMAT_BEGIN
 90
        0
 91
        1
 62
     0
 92
       -2
340
0
 93
        0
 40
1.125
309
GRIDFORMAT_END
 95
        2
302
GRIDFORMAT
  1
GRIDFORMAT_BEGIN
 90
        0
 91
        1
 62
     0
 92
       -2
340
0
 93
        0
 40
1.125
309
GRIDFORMAT_END
 95
        4
302
GRIDFORMAT
  1
GRIDFORMAT_BEGIN
 90
        0
 91
        1
 62
     0
 92
       -2
340
0
 93
        0
 40
1.125
309
GRIDFORMAT_END
 95
        8
302
GRIDFORMAT
  1
GRIDFORMAT_BEGIN
 90
        0
 91
        1
 62
     0
 92
       -2
340
0
 93
        0
 40
1.125
309
GRIDFORMAT_END
 95
       16
302
GRIDFORMAT
  1
GRIDFORMAT_BEGIN
 90
        0
 91
        1
 62
     0
 92
       -2
340
0
 93
        0
 40
1.125
309
GRIDFORMAT_END
 95
       32
302
GRIDFORMAT
  1
GRIDFORMAT_BEGIN
 90
        0
 91
        1
 62
     0
 92
       -2
340
0
 93
        0
 40
1.125
309
GRIDFORMAT_END
309
TABLEFORMAT_END
  1
CELLSTYLE_BEGIN
 90
        3
 91
        2
300
_DATA
309
CELLSTYLE_END
  0
XRECORD
  5
3610
102
{ACAD_REACTORS
330
35E4
102
}
330
35E4
100
AcDbXrecord
280
     1
102
ACAD_ROUNDTRIP_PRE2007_TABLESTYLE
 90
      512
 91
        0
  1

 92
      512
 93
        0
  2

 94
      512
 95
        0
  3

  0
ENDSEC
  0
EOF
