ISO-10303-21;
HEADER;
/****************************************************************
 * Generated by software with PDElib inside                    *
 * PDElib Version v51a, created Wed 07/06/2011                  *
 * ITI Transcendata (http://www.transcendata.com/)              *
 ****************************************************************/
FILE_DESCRIPTION((''),'2;1');
FILE_NAME('M:\\biblioth\\02-3D-Bibliothek-Inv.10\\M\\Mayer-73271-Holzmaden\\Module\\100-Stossdaempfer\\MSL-S3\\MSL-S3.stp','2012-11-22T13:25:05',('hartung_david'),(''),'Autodesk Inventor 2012','Autodesk Inventor 2012','');
FILE_SCHEMA(('AUTOMOTIVE_DESIGN { 1 0 10303 214 1 1 1 1 }'));
ENDSEC;
DATA;
#5=APPLICATION_CONTEXT('automotive design');
#6=APPLICATION_PROTOCOL_DEFINITION('International Standard','automotive_design',2001,#5);
#7=PRODUCT_CONTEXT('',#5,'mechanical');
#8=PRODUCT('MSL-S3-1-00-ZUS','MSL-S3-1-00-ZUS',$,(#7));
#9=PRODUCT_RELATED_PRODUCT_CATEGORY('part',$,(#8));
#10=PRODUCT_DEFINITION_FORMATION('',$,#8);
#11=PRODUCT_DEFINITION_CONTEXT('part definition',#5,'design');
#12=PRODUCT_DEFINITION('',$,#10,#11);
#18=(NAMED_UNIT(*)PLANE_ANGLE_UNIT()SI_UNIT($,.RADIAN.));
#19=DIMENSIONAL_EXPONENTS(0.0,0.0,0.0,0.0,0.0,0.0,0.0);
#20=PLANE_ANGLE_MEASURE_WITH_UNIT(PLANE_ANGLE_MEASURE(0.0174532925),#18);
#24=(CONVERSION_BASED_UNIT('DEGREE',#20)NAMED_UNIT(#19)PLANE_ANGLE_UNIT());
#28=(NAMED_UNIT(*)SI_UNIT($,.STERADIAN.)SOLID_ANGLE_UNIT());
#32=(LENGTH_UNIT()NAMED_UNIT(*)SI_UNIT(.MILLI.,.METRE.));
#34=UNCERTAINTY_MEASURE_WITH_UNIT(LENGTH_MEASURE(0.01),#32,'DISTANCE_ACCURACY_VALUE','');
#36=(GEOMETRIC_REPRESENTATION_CONTEXT(3)GLOBAL_UNCERTAINTY_ASSIGNED_CONTEXT((#34))GLOBAL_UNIT_ASSIGNED_CONTEXT((#24,#28,#32))REPRESENTATION_CONTEXT('None','None'));
#37=AXIS2_PLACEMENT_3D('',#38,#39,#40);
#38=CARTESIAN_POINT('',(0.0,0.0,0.0));
#39=DIRECTION('',(0.0,0.0,1.0));
#40=DIRECTION('',(1.0,0.0,0.0));
#41=SHAPE_REPRESENTATION('',(#37,#286,#419,#605),#36);
#42=PRODUCT_DEFINITION_SHAPE('','',#12);
#43=SHAPE_DEFINITION_REPRESENTATION(#42,#41);
#44=APPLICATION_CONTEXT('automotive design');
#45=APPLICATION_PROTOCOL_DEFINITION('International Standard','automotive_design',2001,#44);
#46=PRODUCT_CONTEXT('',#44,'mechanical');
#47=PRODUCT('MSL-S3-1-01-Koerper','MSL-S3-1-01-Koerper',$,(#46));
#48=PRODUCT_RELATED_PRODUCT_CATEGORY('part',$,(#47));
#49=PRODUCT_DEFINITION_FORMATION('',$,#47);
#50=PRODUCT_DEFINITION_CONTEXT('part definition',#44,'design');
#51=PRODUCT_DEFINITION('',$,#49,#50);
#57=(NAMED_UNIT(*)PLANE_ANGLE_UNIT()SI_UNIT($,.RADIAN.));
#58=DIMENSIONAL_EXPONENTS(0.0,0.0,0.0,0.0,0.0,0.0,0.0);
#59=PLANE_ANGLE_MEASURE_WITH_UNIT(PLANE_ANGLE_MEASURE(0.0174532925),#57);
#63=(CONVERSION_BASED_UNIT('DEGREE',#59)NAMED_UNIT(#58)PLANE_ANGLE_UNIT());
#67=(NAMED_UNIT(*)SI_UNIT($,.STERADIAN.)SOLID_ANGLE_UNIT());
#71=(LENGTH_UNIT()NAMED_UNIT(*)SI_UNIT(.MILLI.,.METRE.));
#73=UNCERTAINTY_MEASURE_WITH_UNIT(LENGTH_MEASURE(0.01),#71,'DISTANCE_ACCURACY_VALUE','');
#75=(GEOMETRIC_REPRESENTATION_CONTEXT(3)GLOBAL_UNCERTAINTY_ASSIGNED_CONTEXT((#73))GLOBAL_UNIT_ASSIGNED_CONTEXT((#63,#67,#71))REPRESENTATION_CONTEXT('None','None'));
#76=AXIS2_PLACEMENT_3D('',#77,#78,#79);
#77=CARTESIAN_POINT('',(0.0,0.0,0.0));
#78=DIRECTION('',(0.0,0.0,1.0));
#79=DIRECTION('',(1.0,0.0,0.0));
#80=SHAPE_REPRESENTATION('',(#76),#75);
#81=PRODUCT_DEFINITION_SHAPE('','',#51);
#82=SHAPE_DEFINITION_REPRESENTATION(#81,#80);
#88=(NAMED_UNIT(*)PLANE_ANGLE_UNIT()SI_UNIT($,.RADIAN.));
#89=DIMENSIONAL_EXPONENTS(0.0,0.0,0.0,0.0,0.0,0.0,0.0);
#90=PLANE_ANGLE_MEASURE_WITH_UNIT(PLANE_ANGLE_MEASURE(0.0174532925),#88);
#94=(CONVERSION_BASED_UNIT('DEGREE',#90)NAMED_UNIT(#89)PLANE_ANGLE_UNIT());
#98=(NAMED_UNIT(*)SI_UNIT($,.STERADIAN.)SOLID_ANGLE_UNIT());
#102=(LENGTH_UNIT()NAMED_UNIT(*)SI_UNIT(.MILLI.,.METRE.));
#104=UNCERTAINTY_MEASURE_WITH_UNIT(LENGTH_MEASURE(0.000001),#102,'DISTANCE_ACCURACY_VALUE','');
#106=(GEOMETRIC_REPRESENTATION_CONTEXT(3)GLOBAL_UNCERTAINTY_ASSIGNED_CONTEXT((#104))GLOBAL_UNIT_ASSIGNED_CONTEXT((#94,#98,#102))REPRESENTATION_CONTEXT('','3D'));
#107=CARTESIAN_POINT('',(0.0,0.0,110.00000000000001));
#108=DIRECTION('',(0.0,0.0,-1.0));
#109=DIRECTION('',(-1.0,0.0,0.0));
#110=AXIS2_PLACEMENT_3D('',#107,#108,#109);
#111=CONICAL_SURFACE('',#110,11.500000000000007,45.000000000000007);
#112=CARTESIAN_POINT('',(10.500000000000011,-1.285837E-015,111.00000000000001));
#113=VERTEX_POINT('',#112);
#114=CARTESIAN_POINT('',(0.0,0.0,111.00000000000001));
#115=DIRECTION('',(0.0,0.0,-1.0));
#116=DIRECTION('',(-1.0,0.0,0.0));
#117=AXIS2_PLACEMENT_3D('',#114,#115,#116);
#118=CIRCLE('',#117,10.500000000000011);
#119=EDGE_CURVE('',#113,#113,#118,.T.);
#120=ORIENTED_EDGE('',*,*,#119,.T.);
#121=EDGE_LOOP('',(#120));
#122=FACE_OUTER_BOUND('',#121,.T.);
#123=CARTESIAN_POINT('',(12.500000000000004,1.530758E-015,109.00000000000003));
#124=VERTEX_POINT('',#123);
#125=CARTESIAN_POINT('',(0.0,0.0,109.00000000000003));
#126=DIRECTION('',(0.0,0.0,1.0));
#127=DIRECTION('',(-1.0,0.0,0.0));
#128=AXIS2_PLACEMENT_3D('',#125,#126,#127);
#129=CIRCLE('',#128,12.500000000000004);
#130=EDGE_CURVE('',#124,#124,#129,.T.);
#131=ORIENTED_EDGE('',*,*,#130,.T.);
#132=EDGE_LOOP('',(#131));
#133=FACE_BOUND('',#132,.T.);
#134=ADVANCED_FACE('',(#122,#133),#111,.T.);
#135=CARTESIAN_POINT('',(6.250000000000005,0.0,111.00000000000001));
#136=DIRECTION('',(0.0,0.0,1.0));
#137=DIRECTION('',(1.0,0.0,0.0));
#138=AXIS2_PLACEMENT_3D('',#135,#136,#137);
#139=PLANE('',#138);
#140=ORIENTED_EDGE('',*,*,#119,.F.);
#141=EDGE_LOOP('',(#140));
#142=FACE_OUTER_BOUND('',#141,.T.);
#143=CARTESIAN_POINT('',(4.0,0.0,111.00000000000001));
#144=VERTEX_POINT('',#143);
#145=CARTESIAN_POINT('',(0.0,0.0,111.00000000000001));
#146=DIRECTION('',(0.0,0.0,-1.0));
#147=DIRECTION('',(1.0,0.0,0.0));
#148=AXIS2_PLACEMENT_3D('',#145,#146,#147);
#149=CIRCLE('',#148,4.0);
#150=EDGE_CURVE('',#144,#144,#149,.T.);
#151=ORIENTED_EDGE('',*,*,#150,.T.);
#152=EDGE_LOOP('',(#151));
#153=FACE_BOUND('',#152,.T.);
#154=ADVANCED_FACE('',(#142,#153),#139,.T.);
#155=CARTESIAN_POINT('',(0.0,0.0,55.500000000000007));
#156=DIRECTION('',(0.0,0.0,-1.0));
#157=DIRECTION('',(1.0,0.0,0.0));
#158=AXIS2_PLACEMENT_3D('',#155,#156,#157);
#159=CYLINDRICAL_SURFACE('',#158,12.500000000000004);
#160=CARTESIAN_POINT('',(0.0,12.500000000000002,9.0));
#161=VERTEX_POINT('',#160);
#162=CARTESIAN_POINT('',(0.0,0.0,9.000000000000004));
#163=DIRECTION('',(0.0,0.0,1.0));
#164=DIRECTION('',(1.0,0.0,0.0));
#165=AXIS2_PLACEMENT_3D('',#162,#163,#164);
#166=CIRCLE('',#165,12.500000000000004);
#167=EDGE_CURVE('',#161,#161,#166,.T.);
#168=ORIENTED_EDGE('',*,*,#167,.T.);
#169=EDGE_LOOP('',(#168));
#170=FACE_OUTER_BOUND('',#169,.T.);
#171=ORIENTED_EDGE('',*,*,#130,.F.);
#172=EDGE_LOOP('',(#171));
#173=FACE_BOUND('',#172,.T.);
#174=ADVANCED_FACE('',(#170,#173),#159,.T.);
#175=CARTESIAN_POINT('',(0.0,0.0,1.999999999999999));
#176=DIRECTION('',(0.0,0.0,-1.0));
#177=DIRECTION('',(-1.0,0.0,0.0));
#178=AXIS2_PLACEMENT_3D('',#175,#176,#177);
#179=TOROIDAL_SURFACE('',#178,9.000000000000002,2.0);
#180=CARTESIAN_POINT('',(0.0,11.0,1.999999999999999));
#181=VERTEX_POINT('',#180);
#182=CARTESIAN_POINT('',(0.0,0.0,1.999999999999999));
#183=DIRECTION('',(0.0,0.0,-1.0));
#184=DIRECTION('',(0.0,-1.0,0.0));
#185=AXIS2_PLACEMENT_3D('',#182,#183,#184);
#186=CIRCLE('',#185,11.0);
#187=EDGE_CURVE('',#181,#181,#186,.T.);
#188=ORIENTED_EDGE('',*,*,#187,.T.);
#189=EDGE_LOOP('',(#188));
#190=FACE_OUTER_BOUND('',#189,.T.);
#191=CARTESIAN_POINT('',(-2.204291E-015,9.000000000000002,-1.387779E-015));
#192=VERTEX_POINT('',#191);
#193=CARTESIAN_POINT('',(0.0,0.0,-1.387779E-015));
#194=DIRECTION('',(0.0,0.0,1.0));
#195=DIRECTION('',(0.0,-1.0,0.0));
#196=AXIS2_PLACEMENT_3D('',#193,#194,#195);
#197=CIRCLE('',#196,9.000000000000002);
#198=EDGE_CURVE('',#192,#192,#197,.T.);
#199=ORIENTED_EDGE('',*,*,#198,.T.);
#200=EDGE_LOOP('',(#199));
#201=FACE_BOUND('',#200,.T.);
#202=ADVANCED_FACE('',(#190,#201),#179,.T.);
#203=CARTESIAN_POINT('',(0.0,0.0,3.749999999999998));
#204=DIRECTION('',(0.0,0.0,1.0));
#205=DIRECTION('',(0.0,1.0,0.0));
#206=AXIS2_PLACEMENT_3D('',#203,#204,#205);
#207=CYLINDRICAL_SURFACE('',#206,11.0);
#208=CARTESIAN_POINT('',(0.0,11.0,7.499999999999996));
#209=VERTEX_POINT('',#208);
#210=CARTESIAN_POINT('',(0.0,0.0,7.499999999999996));
#211=DIRECTION('',(0.0,0.0,1.0));
#212=DIRECTION('',(0.0,1.0,0.0));
#213=AXIS2_PLACEMENT_3D('',#210,#211,#212);
#214=CIRCLE('',#213,11.0);
#215=EDGE_CURVE('',#209,#209,#214,.T.);
#216=ORIENTED_EDGE('',*,*,#215,.F.);
#217=EDGE_LOOP('',(#216));
#218=FACE_OUTER_BOUND('',#217,.T.);
#219=ORIENTED_EDGE('',*,*,#187,.F.);
#220=EDGE_LOOP('',(#219));
#221=FACE_BOUND('',#220,.T.);
#222=ADVANCED_FACE('',(#218,#221),#207,.T.);
#223=CARTESIAN_POINT('',(6.25,0.0,-1.387779E-015));
#224=DIRECTION('',(0.0,0.0,-1.0));
#225=DIRECTION('',(-1.0,0.0,0.0));
#226=AXIS2_PLACEMENT_3D('',#223,#224,#225);
#227=PLANE('',#226);
#228=ORIENTED_EDGE('',*,*,#198,.F.);
#229=EDGE_LOOP('',(#228));
#230=FACE_OUTER_BOUND('',#229,.T.);
#231=ADVANCED_FACE('',(#230),#227,.T.);
#232=CARTESIAN_POINT('',(0.0,0.0,8.249999999999996));
#233=DIRECTION('',(0.0,0.0,1.0));
#234=DIRECTION('',(0.0,1.0,0.0));
#235=AXIS2_PLACEMENT_3D('',#232,#233,#234);
#236=CONICAL_SURFACE('',#235,11.750000000000004,44.999999999999943);
#237=ORIENTED_EDGE('',*,*,#215,.T.);
#238=EDGE_LOOP('',(#237));
#239=FACE_OUTER_BOUND('',#238,.T.);
#240=ORIENTED_EDGE('',*,*,#167,.F.);
#241=EDGE_LOOP('',(#240));
#242=FACE_BOUND('',#241,.T.);
#243=ADVANCED_FACE('',(#239,#242),#236,.T.);
#244=CARTESIAN_POINT('',(0.0,0.0,98.0));
#245=DIRECTION('',(0.0,0.0,1.0));
#246=DIRECTION('',(1.0,0.0,0.0));
#247=AXIS2_PLACEMENT_3D('',#244,#245,#246);
#248=CYLINDRICAL_SURFACE('',#247,4.0);
#249=ORIENTED_EDGE('',*,*,#150,.F.);
#250=EDGE_LOOP('',(#249));
#251=FACE_OUTER_BOUND('',#250,.T.);
#252=CARTESIAN_POINT('',(4.0,0.0,85.000000000000014));
#253=VERTEX_POINT('',#252);
#254=CARTESIAN_POINT('',(0.0,0.0,85.000000000000014));
#255=DIRECTION('',(0.0,0.0,1.0));
#256=DIRECTION('',(1.0,0.0,0.0));
#257=AXIS2_PLACEMENT_3D('',#254,#255,#256);
#258=CIRCLE('',#257,4.0);
#259=EDGE_CURVE('',#253,#253,#258,.T.);
#260=ORIENTED_EDGE('',*,*,#259,.F.);
#261=EDGE_LOOP('',(#260));
#262=FACE_BOUND('',#261,.T.);
#263=ADVANCED_FACE('',(#251,#262),#248,.F.);
#264=CARTESIAN_POINT('',(0.0,0.0,85.000000000000014));
#265=DIRECTION('',(0.0,0.0,1.0));
#266=DIRECTION('',(1.0,0.0,0.0));
#267=AXIS2_PLACEMENT_3D('',#264,#265,#266);
#268=PLANE('',#267);
#269=ORIENTED_EDGE('',*,*,#259,.T.);
#270=EDGE_LOOP('',(#269));
#271=FACE_OUTER_BOUND('',#270,.T.);
#272=ADVANCED_FACE('',(#271),#268,.T.);
#273=CLOSED_SHELL('',(#134,#154,#174,#202,#222,#231,#243,#263,#272));
#274=MANIFOLD_SOLID_BREP('Volumenk\S\vrper1',#273);
#275=DRAUGHTING_PRE_DEFINED_COLOUR('black');
#276=FILL_AREA_STYLE_COLOUR('Schwarz',#275);
#277=FILL_AREA_STYLE('Schwarz',(#276));
#278=SURFACE_STYLE_FILL_AREA(#277);
#279=SURFACE_SIDE_STYLE('Schwarz',(#278));
#280=SURFACE_STYLE_USAGE(.BOTH.,#279);
#281=PRESENTATION_STYLE_ASSIGNMENT((#280));
#282=STYLED_ITEM('',(#281),#274);
#283=MECHANICAL_DESIGN_GEOMETRIC_PRESENTATION_REPRESENTATION('',(#282,#416,#602),#36);
#284=ADVANCED_BREP_SHAPE_REPRESENTATION('ABSR',(#274),#75);
#285=SHAPE_REPRESENTATION_RELATIONSHIP('SRR','None',#284,#80);
#286=AXIS2_PLACEMENT_3D('',#287,#288,#289);
#287=CARTESIAN_POINT('',(0.0,0.0,0.0));
#288=DIRECTION('',(0.0,0.0,1.0));
#289=DIRECTION('',(1.0,0.0,0.0));
#290=NEXT_ASSEMBLY_USAGE_OCCURRENCE('MSL-S3-1-01-Koerper:1','MSL-S3-1-01-Koerper:1','MSL-S3-1-01-Koerper:1',#12,#51,'MSL-S3-1-01-Koerper:1');
#291=PRODUCT_DEFINITION_SHAPE('MSL-S3-1-01-Koerper:1','MSL-S3-1-01-Koerper:1',#290);
#292=ITEM_DEFINED_TRANSFORMATION('MSL-S3-1-01-Koerper:1','MSL-S3-1-01-Koerper:1',#76,#286);
#296=(REPRESENTATION_RELATIONSHIP('MSL-S3-1-01-Koerper:1','MSL-S3-1-01-Koerper:1',#80,#41)REPRESENTATION_RELATIONSHIP_WITH_TRANSFORMATION(#292)SHAPE_REPRESENTATION_RELATIONSHIP());
#297=CONTEXT_DEPENDENT_SHAPE_REPRESENTATION(#296,#291);
#298=APPLICATION_CONTEXT('automotive design');
#299=APPLICATION_PROTOCOL_DEFINITION('International Standard','automotive_design',2001,#298);
#300=PRODUCT_CONTEXT('',#298,'mechanical');
#301=PRODUCT('MSL-S3-1-02-Stoessel','MSL-S3-1-02-Stoessel',$,(#300));
#302=PRODUCT_RELATED_PRODUCT_CATEGORY('part',$,(#301));
#303=PRODUCT_DEFINITION_FORMATION('',$,#301);
#304=PRODUCT_DEFINITION_CONTEXT('part definition',#298,'design');
#305=PRODUCT_DEFINITION('',$,#303,#304);
#311=(NAMED_UNIT(*)PLANE_ANGLE_UNIT()SI_UNIT($,.RADIAN.));
#312=DIMENSIONAL_EXPONENTS(0.0,0.0,0.0,0.0,0.0,0.0,0.0);
#313=PLANE_ANGLE_MEASURE_WITH_UNIT(PLANE_ANGLE_MEASURE(0.0174532925),#311);
#317=(CONVERSION_BASED_UNIT('DEGREE',#313)NAMED_UNIT(#312)PLANE_ANGLE_UNIT());
#321=(NAMED_UNIT(*)SI_UNIT($,.STERADIAN.)SOLID_ANGLE_UNIT());
#325=(LENGTH_UNIT()NAMED_UNIT(*)SI_UNIT(.MILLI.,.METRE.));
#327=UNCERTAINTY_MEASURE_WITH_UNIT(LENGTH_MEASURE(0.01),#325,'DISTANCE_ACCURACY_VALUE','');
#329=(GEOMETRIC_REPRESENTATION_CONTEXT(3)GLOBAL_UNCERTAINTY_ASSIGNED_CONTEXT((#327))GLOBAL_UNIT_ASSIGNED_CONTEXT((#317,#321,#325))REPRESENTATION_CONTEXT('None','None'));
#330=AXIS2_PLACEMENT_3D('',#331,#332,#333);
#331=CARTESIAN_POINT('',(0.0,0.0,0.0));
#332=DIRECTION('',(0.0,0.0,1.0));
#333=DIRECTION('',(1.0,0.0,0.0));
#334=SHAPE_REPRESENTATION('',(#330),#329);
#335=PRODUCT_DEFINITION_SHAPE('','',#305);
#336=SHAPE_DEFINITION_REPRESENTATION(#335,#334);
#342=(NAMED_UNIT(*)PLANE_ANGLE_UNIT()SI_UNIT($,.RADIAN.));
#343=DIMENSIONAL_EXPONENTS(0.0,0.0,0.0,0.0,0.0,0.0,0.0);
#344=PLANE_ANGLE_MEASURE_WITH_UNIT(PLANE_ANGLE_MEASURE(0.0174532925),#342);
#348=(CONVERSION_BASED_UNIT('DEGREE',#344)NAMED_UNIT(#343)PLANE_ANGLE_UNIT());
#352=(NAMED_UNIT(*)SI_UNIT($,.STERADIAN.)SOLID_ANGLE_UNIT());
#356=(LENGTH_UNIT()NAMED_UNIT(*)SI_UNIT(.MILLI.,.METRE.));
#358=UNCERTAINTY_MEASURE_WITH_UNIT(LENGTH_MEASURE(0.000001),#356,'DISTANCE_ACCURACY_VALUE','');
#360=(GEOMETRIC_REPRESENTATION_CONTEXT(3)GLOBAL_UNCERTAINTY_ASSIGNED_CONTEXT((#358))GLOBAL_UNIT_ASSIGNED_CONTEXT((#348,#352,#356))REPRESENTATION_CONTEXT('','3D'));
#361=CARTESIAN_POINT('',(2.000000000000004,0.0,32.0));
#362=DIRECTION('',(0.0,0.0,1.0));
#363=DIRECTION('',(1.0,0.0,0.0));
#364=AXIS2_PLACEMENT_3D('',#361,#362,#363);
#365=PLANE('',#364);
#366=CARTESIAN_POINT('',(4.000000000000004,0.0,32.0));
#367=VERTEX_POINT('',#366);
#368=CARTESIAN_POINT('',(0.0,0.0,32.0));
#369=DIRECTION('',(0.0,0.0,-1.0));
#370=DIRECTION('',(1.0,0.0,0.0));
#371=AXIS2_PLACEMENT_3D('',#368,#369,#370);
#372=CIRCLE('',#371,4.000000000000004);
#373=EDGE_CURVE('',#367,#367,#372,.T.);
#374=ORIENTED_EDGE('',*,*,#373,.F.);
#375=EDGE_LOOP('',(#374));
#376=FACE_OUTER_BOUND('',#375,.T.);
#377=ADVANCED_FACE('',(#376),#365,.T.);
#378=CARTESIAN_POINT('',(0.0,0.0,16.0));
#379=DIRECTION('',(0.0,0.0,-1.0));
#380=DIRECTION('',(1.0,0.0,0.0));
#381=AXIS2_PLACEMENT_3D('',#378,#379,#380);
#382=CYLINDRICAL_SURFACE('',#381,4.000000000000002);
#383=CARTESIAN_POINT('',(3.999999999999999,0.0,0.0));
#384=VERTEX_POINT('',#383);
#385=CARTESIAN_POINT('',(0.0,0.0,0.0));
#386=DIRECTION('',(0.0,0.0,-1.0));
#387=DIRECTION('',(1.0,0.0,0.0));
#388=AXIS2_PLACEMENT_3D('',#385,#386,#387);
#389=CIRCLE('',#388,3.999999999999999);
#390=EDGE_CURVE('',#384,#384,#389,.T.);
#391=ORIENTED_EDGE('',*,*,#390,.F.);
#392=EDGE_LOOP('',(#391));
#393=FACE_OUTER_BOUND('',#392,.T.);
#394=ORIENTED_EDGE('',*,*,#373,.T.);
#395=EDGE_LOOP('',(#394));
#396=FACE_BOUND('',#395,.T.);
#397=ADVANCED_FACE('',(#393,#396),#382,.T.);
#398=CARTESIAN_POINT('',(2.000000000000001,0.0,-2.775558E-016));
#399=DIRECTION('',(0.0,0.0,-1.0));
#400=DIRECTION('',(-1.0,0.0,0.0));
#401=AXIS2_PLACEMENT_3D('',#398,#399,#400);
#402=PLANE('',#401);
#403=ORIENTED_EDGE('',*,*,#390,.T.);
#404=EDGE_LOOP('',(#403));
#405=FACE_OUTER_BOUND('',#404,.T.);
#406=ADVANCED_FACE('',(#405),#402,.T.);
#407=CLOSED_SHELL('',(#377,#397,#406));
#408=MANIFOLD_SOLID_BREP('Volumenk\S\vrper1',#407);
#409=DRAUGHTING_PRE_DEFINED_COLOUR('white');
#410=FILL_AREA_STYLE_COLOUR('Chrom',#409);
#411=FILL_AREA_STYLE('Chrom',(#410));
#412=SURFACE_STYLE_FILL_AREA(#411);
#413=SURFACE_SIDE_STYLE('Chrom',(#412));
#414=SURFACE_STYLE_USAGE(.BOTH.,#413);
#415=PRESENTATION_STYLE_ASSIGNMENT((#414));
#416=STYLED_ITEM('',(#415),#408);
#417=ADVANCED_BREP_SHAPE_REPRESENTATION('ABSR',(#408),#329);
#418=SHAPE_REPRESENTATION_RELATIONSHIP('SRR','None',#417,#334);
#419=AXIS2_PLACEMENT_3D('',#420,#421,#422);
#420=CARTESIAN_POINT('',(1.018863E-030,-1.688580E-030,111.00000000000001));
#421=DIRECTION('',(-1.048522E-016,-3.184409E-031,1.0));
#422=DIRECTION('',(-0.516625023765553,0.856211764004237,-5.416929E-017));
#423=NEXT_ASSEMBLY_USAGE_OCCURRENCE('MSL-S3-1-02-Stoessel:1','MSL-S3-1-02-Stoessel:1','MSL-S3-1-02-Stoessel:1',#12,#305,'MSL-S3-1-02-Stoessel:1');
#424=PRODUCT_DEFINITION_SHAPE('MSL-S3-1-02-Stoessel:1','MSL-S3-1-02-Stoessel:1',#423);
#425=ITEM_DEFINED_TRANSFORMATION('MSL-S3-1-02-Stoessel:1','MSL-S3-1-02-Stoessel:1',#330,#419);
#429=(REPRESENTATION_RELATIONSHIP('MSL-S3-1-02-Stoessel:1','MSL-S3-1-02-Stoessel:1',#334,#41)REPRESENTATION_RELATIONSHIP_WITH_TRANSFORMATION(#425)SHAPE_REPRESENTATION_RELATIONSHIP());
#430=CONTEXT_DEPENDENT_SHAPE_REPRESENTATION(#429,#424);
#431=APPLICATION_CONTEXT('automotive design');
#432=APPLICATION_PROTOCOL_DEFINITION('International Standard','automotive_design',2001,#431);
#433=PRODUCT_CONTEXT('',#431,'mechanical');
#434=PRODUCT('MSL-S3-1-03-Kappe','MSL-S3-1-03-Kappe',$,(#433));
#435=PRODUCT_RELATED_PRODUCT_CATEGORY('part',$,(#434));
#436=PRODUCT_DEFINITION_FORMATION('',$,#434);
#437=PRODUCT_DEFINITION_CONTEXT('part definition',#431,'design');
#438=PRODUCT_DEFINITION('',$,#436,#437);
#444=(NAMED_UNIT(*)PLANE_ANGLE_UNIT()SI_UNIT($,.RADIAN.));
#445=DIMENSIONAL_EXPONENTS(0.0,0.0,0.0,0.0,0.0,0.0,0.0);
#446=PLANE_ANGLE_MEASURE_WITH_UNIT(PLANE_ANGLE_MEASURE(0.0174532925),#444);
#450=(CONVERSION_BASED_UNIT('DEGREE',#446)NAMED_UNIT(#445)PLANE_ANGLE_UNIT());
#454=(NAMED_UNIT(*)SI_UNIT($,.STERADIAN.)SOLID_ANGLE_UNIT());
#458=(LENGTH_UNIT()NAMED_UNIT(*)SI_UNIT(.MILLI.,.METRE.));
#460=UNCERTAINTY_MEASURE_WITH_UNIT(LENGTH_MEASURE(0.01),#458,'DISTANCE_ACCURACY_VALUE','');
#462=(GEOMETRIC_REPRESENTATION_CONTEXT(3)GLOBAL_UNCERTAINTY_ASSIGNED_CONTEXT((#460))GLOBAL_UNIT_ASSIGNED_CONTEXT((#450,#454,#458))REPRESENTATION_CONTEXT('None','None'));
#463=AXIS2_PLACEMENT_3D('',#464,#465,#466);
#464=CARTESIAN_POINT('',(0.0,0.0,0.0));
#465=DIRECTION('',(0.0,0.0,1.0));
#466=DIRECTION('',(1.0,0.0,0.0));
#467=SHAPE_REPRESENTATION('',(#463),#462);
#468=PRODUCT_DEFINITION_SHAPE('','',#438);
#469=SHAPE_DEFINITION_REPRESENTATION(#468,#467);
#475=(NAMED_UNIT(*)PLANE_ANGLE_UNIT()SI_UNIT($,.RADIAN.));
#476=DIMENSIONAL_EXPONENTS(0.0,0.0,0.0,0.0,0.0,0.0,0.0);
#477=PLANE_ANGLE_MEASURE_WITH_UNIT(PLANE_ANGLE_MEASURE(0.0174532925),#475);
#481=(CONVERSION_BASED_UNIT('DEGREE',#477)NAMED_UNIT(#476)PLANE_ANGLE_UNIT());
#485=(NAMED_UNIT(*)SI_UNIT($,.STERADIAN.)SOLID_ANGLE_UNIT());
#489=(LENGTH_UNIT()NAMED_UNIT(*)SI_UNIT(.MILLI.,.METRE.));
#491=UNCERTAINTY_MEASURE_WITH_UNIT(LENGTH_MEASURE(0.000001),#489,'DISTANCE_ACCURACY_VALUE','');
#493=(GEOMETRIC_REPRESENTATION_CONTEXT(3)GLOBAL_UNCERTAINTY_ASSIGNED_CONTEXT((#491))GLOBAL_UNIT_ASSIGNED_CONTEXT((#481,#485,#489))REPRESENTATION_CONTEXT('','3D'));
#494=CARTESIAN_POINT('',(0.0,0.0,9.0));
#495=DIRECTION('',(0.0,0.0,1.0));
#496=DIRECTION('',(1.0,0.0,0.0));
#497=AXIS2_PLACEMENT_3D('',#494,#495,#496);
#498=CYLINDRICAL_SURFACE('',#497,4.0);
#499=CARTESIAN_POINT('',(4.0,0.0,12.0));
#500=VERTEX_POINT('',#499);
#501=CARTESIAN_POINT('',(0.0,0.0,12.0));
#502=DIRECTION('',(0.0,0.0,-1.0));
#503=DIRECTION('',(1.0,0.0,0.0));
#504=AXIS2_PLACEMENT_3D('',#501,#502,#503);
#505=CIRCLE('',#504,4.0);
#506=EDGE_CURVE('',#500,#500,#505,.T.);
#507=ORIENTED_EDGE('',*,*,#506,.F.);
#508=EDGE_LOOP('',(#507));
#509=FACE_OUTER_BOUND('',#508,.T.);
#510=CARTESIAN_POINT('',(4.0,0.0,5.999999999999998));
#511=VERTEX_POINT('',#510);
#512=CARTESIAN_POINT('',(0.0,0.0,5.999999999999998));
#513=DIRECTION('',(0.0,0.0,1.0));
#514=DIRECTION('',(1.0,0.0,0.0));
#515=AXIS2_PLACEMENT_3D('',#512,#513,#514);
#516=CIRCLE('',#515,4.0);
#517=EDGE_CURVE('',#511,#511,#516,.T.);
#518=ORIENTED_EDGE('',*,*,#517,.F.);
#519=EDGE_LOOP('',(#518));
#520=FACE_BOUND('',#519,.T.);
#521=ADVANCED_FACE('',(#509,#520),#498,.F.);
#522=CARTESIAN_POINT('',(0.0,0.0,5.999999999999998));
#523=DIRECTION('',(0.0,0.0,1.0));
#524=DIRECTION('',(1.0,0.0,0.0));
#525=AXIS2_PLACEMENT_3D('',#522,#523,#524);
#526=PLANE('',#525);
#527=ORIENTED_EDGE('',*,*,#517,.T.);
#528=EDGE_LOOP('',(#527));
#529=FACE_OUTER_BOUND('',#528,.T.);
#530=ADVANCED_FACE('',(#529),#526,.T.);
#531=CARTESIAN_POINT('',(0.0,0.0,0.500000000000901));
#532=DIRECTION('',(0.0,0.0,1.0));
#533=DIRECTION('',(-1.0,0.0,0.0));
#534=AXIS2_PLACEMENT_3D('',#531,#532,#533);
#535=CONICAL_SURFACE('',#534,10.999999999999998,45.000000000000071);
#536=CARTESIAN_POINT('',(11.5,-1.408297E-015,0.999999999999998));
#537=VERTEX_POINT('',#536);
#538=CARTESIAN_POINT('',(0.0,0.0,1.000000000001803));
#539=DIRECTION('',(-1.569775E-013,0.0,-1.0));
#540=DIRECTION('',(-1.0,0.0,1.569775E-013));
#541=AXIS2_PLACEMENT_3D('',#538,#539,#540);
#542=CIRCLE('',#541,11.5);
#543=EDGE_CURVE('',#537,#537,#542,.T.);
#544=ORIENTED_EDGE('',*,*,#543,.T.);
#545=EDGE_LOOP('',(#544));
#546=FACE_OUTER_BOUND('',#545,.T.);
#547=CARTESIAN_POINT('',(10.499999999999998,1.285837E-015,-1.387779E-015));
#548=VERTEX_POINT('',#547);
#549=CARTESIAN_POINT('',(0.0,0.0,-1.387779E-015));
#550=DIRECTION('',(0.0,0.0,1.0));
#551=DIRECTION('',(-1.0,0.0,0.0));
#552=AXIS2_PLACEMENT_3D('',#549,#550,#551);
#553=CIRCLE('',#552,10.499999999999998);
#554=EDGE_CURVE('',#548,#548,#553,.T.);
#555=ORIENTED_EDGE('',*,*,#554,.T.);
#556=EDGE_LOOP('',(#555));
#557=FACE_BOUND('',#556,.T.);
#558=ADVANCED_FACE('',(#546,#557),#535,.T.);
#559=CARTESIAN_POINT('',(0.0,0.0,5.999999999999998));
#560=DIRECTION('',(0.0,0.0,-1.0));
#561=DIRECTION('',(1.0,0.0,-1.569775E-013));
#562=AXIS2_PLACEMENT_3D('',#559,#560,#561);
#563=CYLINDRICAL_SURFACE('',#562,11.5);
#564=CARTESIAN_POINT('',(11.5,0.0,12.0));
#565=VERTEX_POINT('',#564);
#566=CARTESIAN_POINT('',(0.0,0.0,12.0));
#567=DIRECTION('',(-1.569775E-013,0.0,-1.0));
#568=DIRECTION('',(1.0,0.0,-1.569775E-013));
#569=AXIS2_PLACEMENT_3D('',#566,#567,#568);
#570=CIRCLE('',#569,11.5);
#571=EDGE_CURVE('',#565,#565,#570,.T.);
#572=ORIENTED_EDGE('',*,*,#571,.T.);
#573=EDGE_LOOP('',(#572));
#574=FACE_OUTER_BOUND('',#573,.T.);
#575=ORIENTED_EDGE('',*,*,#543,.F.);
#576=EDGE_LOOP('',(#575));
#577=FACE_BOUND('',#576,.T.);
#578=ADVANCED_FACE('',(#574,#577),#563,.T.);
#579=CARTESIAN_POINT('',(5.750000000000001,0.0,-1.387779E-015));
#580=DIRECTION('',(0.0,0.0,-1.0));
#581=DIRECTION('',(-1.0,0.0,0.0));
#582=AXIS2_PLACEMENT_3D('',#579,#580,#581);
#583=PLANE('',#582);
#584=ORIENTED_EDGE('',*,*,#554,.F.);
#585=EDGE_LOOP('',(#584));
#586=FACE_OUTER_BOUND('',#585,.T.);
#587=ADVANCED_FACE('',(#586),#583,.T.);
#588=CARTESIAN_POINT('',(5.75,0.0,12.0));
#589=DIRECTION('',(0.0,0.0,1.0));
#590=DIRECTION('',(1.0,0.0,0.0));
#591=AXIS2_PLACEMENT_3D('',#588,#589,#590);
#592=PLANE('',#591);
#593=ORIENTED_EDGE('',*,*,#571,.F.);
#594=EDGE_LOOP('',(#593));
#595=FACE_OUTER_BOUND('',#594,.T.);
#596=ORIENTED_EDGE('',*,*,#506,.T.);
#597=EDGE_LOOP('',(#596));
#598=FACE_BOUND('',#597,.T.);
#599=ADVANCED_FACE('',(#595,#598),#592,.T.);
#600=CLOSED_SHELL('',(#521,#530,#558,#578,#587,#599));
#601=MANIFOLD_SOLID_BREP('Volumenk\S\vrper1',#600);
#602=STYLED_ITEM('',(#415),#601);
#603=ADVANCED_BREP_SHAPE_REPRESENTATION('ABSR',(#601),#462);
#604=SHAPE_REPRESENTATION_RELATIONSHIP('SRR','None',#603,#467);
#605=AXIS2_PLACEMENT_3D('',#606,#607,#608);
#606=CARTESIAN_POINT('',(-3.984385E-015,-1.214406E-029,149.0));
#607=DIRECTION('',(2.097045E-016,4.379058E-047,-1.0));
#608=DIRECTION('',(1.0,-4.321349E-063,2.097045E-016));
#609=NEXT_ASSEMBLY_USAGE_OCCURRENCE('MSL-S3-1-03-Kappe:1','MSL-S3-1-03-Kappe:1','MSL-S3-1-03-Kappe:1',#12,#438,'MSL-S3-1-03-Kappe:1');
#610=PRODUCT_DEFINITION_SHAPE('MSL-S3-1-03-Kappe:1','MSL-S3-1-03-Kappe:1',#609);
#611=ITEM_DEFINED_TRANSFORMATION('MSL-S3-1-03-Kappe:1','MSL-S3-1-03-Kappe:1',#463,#605);
#615=(REPRESENTATION_RELATIONSHIP('MSL-S3-1-03-Kappe:1','MSL-S3-1-03-Kappe:1',#467,#41)REPRESENTATION_RELATIONSHIP_WITH_TRANSFORMATION(#611)SHAPE_REPRESENTATION_RELATIONSHIP());
#616=CONTEXT_DEPENDENT_SHAPE_REPRESENTATION(#615,#610);
ENDSEC;
END-ISO-10303-21;
