  0
SECTION
  2
HEADER
  9
$ACADVER
  1
AC1014
  9
$ACADMAINTVER
 70
     9
  9
$DWGCODEPAGE
  3
ANSI_1252
  9
$INSBASE
 10
0.0
 20
0.0
 30
0.0
  9
$EXTMIN
 10
818.0919484196618
 20
503.7719190962489
 30
0.0
  9
$EXTMAX
 10
1475.641941683725
 20
796.085574483036
 30
0.0
  9
$LIMMIN
 10
0.0
 20
0.0
  9
$LIMMAX
 10
398.0
 20
282.0
  9
$ORTHOMODE
 70
     1
  9
$REGENMODE
 70
     1
  9
$FILLMODE
 70
     1
  9
$QTEXTMODE
 70
     0
  9
$MIRRTEXT
 70
     0
  9
$DRAGMODE
 70
     2
  9
$LTSCALE
 40
1.0
  9
$OSMODE
 70
   559
  9
$ATTMODE
 70
     1
  9
$TEXTSIZE
 40
3.5
  9
$TRACEWID
 40
1.0
  9
$TEXTSTYLE
  7
STANDARD
  9
$CLAYER
  8
MSL-115-R32-S-6
  9
$CELTYPE
  6
BYLAYER
  9
$CECOLOR
 62
   256
  9
$CELTSCALE
 40
1.0
  9
$DELOBJ
 70
     1
  9
$DISPSILH
 70
     0
  9
$DIMSCALE
 40
1.0
  9
$DIMASZ
 40
7.0
  9
$DIMEXO
 40
0.5
  9
$DIMDLI
 40
3.0
  9
$DIMRND
 40
0.0
  9
$DIMDLE
 40
0.0
  9
$DIMEXE
 40
0.0
  9
$DIMTP
 40
0.1
  9
$DIMTM
 40
0.1
  9
$DIMTXT
 40
9.0
  9
$DIMCEN
 40
0.0
  9
$DIMTSZ
 40
0.0
  9
$DIMTOL
 70
     0
  9
$DIMLIM
 70
     0
  9
$DIMTIH
 70
     0
  9
$DIMTOH
 70
     0
  9
$DIMSE1
 70
     0
  9
$DIMSE2
 70
     0
  9
$DIMTAD
 70
     1
  9
$DIMZIN
 70
     8
  9
$DIMBLK
  1

  9
$DIMASO
 70
     1
  9
$DIMSHO
 70
     1
  9
$DIMPOST
  1

  9
$DIMAPOST
  1
"
  9
$DIMALT
 70
     0
  9
$DIMALTD
 70
     2
  9
$DIMALTF
 40
0.0393701
  9
$DIMLFAC
 40
1.0
  9
$DIMTOFL
 70
     1
  9
$DIMTVP
 40
0.0
  9
$DIMTIX
 70
     0
  9
$DIMSOXD
 70
     0
  9
$DIMSAH
 70
     0
  9
$DIMBLK1
  1

  9
$DIMBLK2
  1

  9
$DIMSTYLE
  2
MASSBLATT
  9
$DIMCLRD
 70
     5
  9
$DIMCLRE
 70
     5
  9
$DIMCLRT
 70
     5
  9
$DIMTFAC
 40
0.71
  9
$DIMGAP
 40
1.5
  9
$DIMJUST
 70
     0
  9
$DIMSD1
 70
     0
  9
$DIMSD2
 70
     0
  9
$DIMTOLJ
 70
     0
  9
$DIMTZIN
 70
     8
  9
$DIMALTZ
 70
     0
  9
$DIMALTTZ
 70
     0
  9
$DIMFIT
 70
     3
  9
$DIMUPT
 70
     0
  9
$DIMUNIT
 70
     2
  9
$DIMDEC
 70
     2
  9
$DIMTDEC
 70
     2
  9
$DIMALTU
 70
     2
  9
$DIMALTTD
 70
     2
  9
$DIMTXSTY
  7
STANDARD
  9
$DIMAUNIT
 70
     0
  9
$LUNITS
 70
     2
  9
$LUPREC
 70
     4
  9
$SKETCHINC
 40
1.0
  9
$FILLETRAD
 40
10.0
  9
$AUNITS
 70
     0
  9
$AUPREC
 70
     0
  9
$MENU
  1
acad
  9
$ELEVATION
 40
0.0
  9
$PELEVATION
 40
0.0
  9
$THICKNESS
 40
0.0
  9
$LIMCHECK
 70
     0
  9
$BLIPMODE
 70
     0
  9
$CHAMFERA
 40
10.0
  9
$CHAMFERB
 40
10.0
  9
$CHAMFERC
 40
0.0
  9
$CHAMFERD
 40
0.0
  9
$SKPOLY
 70
     0
  9
$TDCREATE
 40
2452422.582981771
  9
$TDUPDATE
 40
2452919.875768947
  9
$TDINDWG
 40
0.2918435069
  9
$TDUSRTIMER
 40
0.2918433912
  9
$USRTIMER
 70
     1
  9
$ANGBASE
 50
0.0
  9
$ANGDIR
 70
     0
  9
$PDMODE
 70
     0
  9
$PDSIZE
 40
0.0
  9
$PLINEWID
 40
0.0
  9
$COORDS
 70
     2
  9
$SPLFRAME
 70
     0
  9
$SPLINETYPE
 70
     6
  9
$SPLINESEGS
 70
     8
  9
$ATTDIA
 70
     1
  9
$ATTREQ
 70
     1
  9
$HANDLING
 70
-16383
  9
$HANDSEED
  5
5833
  9
$SURFTAB1
 70
     6
  9
$SURFTAB2
 70
     6
  9
$SURFTYPE
 70
     6
  9
$SURFU
 70
     6
  9
$SURFV
 70
     6
  9
$UCSNAME
  2

  9
$UCSORG
 10
0.0
 20
0.0
 30
0.0
  9
$UCSXDIR
 10
1.0
 20
0.0
 30
0.0
  9
$UCSYDIR
 10
0.0
 20
1.0
 30
0.0
  9
$PUCSNAME
  2

  9
$PUCSORG
 10
0.0
 20
0.0
 30
0.0
  9
$PUCSXDIR
 10
1.0
 20
0.0
 30
0.0
  9
$PUCSYDIR
 10
0.0
 20
1.0
 30
0.0
  9
$USERI1
 70
     0
  9
$USERI2
 70
     0
  9
$USERI3
 70
     0
  9
$USERI4
 70
     0
  9
$USERI5
 70
     0
  9
$USERR1
 40
0.0
  9
$USERR2
 40
0.0
  9
$USERR3
 40
0.0
  9
$USERR4
 40
0.0
  9
$USERR5
 40
0.0
  9
$WORLDVIEW
 70
     1
  9
$SHADEDGE
 70
     3
  9
$SHADEDIF
 70
    70
  9
$TILEMODE
 70
     1
  9
$MAXACTVP
 70
    16
  9
$PINSBASE
 10
0.0
 20
0.0
 30
0.0
  9
$PLIMCHECK
 70
     0
  9
$PEXTMIN
 10
1.000000000000000E+20
 20
1.000000000000000E+20
 30
1.000000000000000E+20
  9
$PEXTMAX
 10
-1.000000000000000E+20
 20
-1.000000000000000E+20
 30
-1.000000000000000E+20
  9
$PLIMMIN
 10
0.0
 20
0.0
  9
$PLIMMAX
 10
420.0
 20
297.0
  9
$UNITMODE
 70
     0
  9
$VISRETAIN
 70
     0
  9
$PLINEGEN
 70
     0
  9
$PSLTSCALE
 70
     1
  9
$TREEDEPTH
 70
  3020
  9
$PICKSTYLE
 70
     1
  9
$CMLSTYLE
  2
STANDARD
  9
$CMLJUST
 70
     0
  9
$CMLSCALE
 40
1.0
  9
$PROXYGRAPHICS
 70
     1
  9
$MEASUREMENT
 70
     1
  0
ENDSEC
  0
SECTION
  2
CLASSES
  0
CLASS
  1
DICTIONARYVAR
  2
AcDbDictionaryVar
  3
AutoCAD 2000
 90
        0
280
     0
281
     0
  0
CLASS
  1
HATCH
  2
AcDbHatch
  3
AutoCAD 2000
 90
        0
280
     0
281
     1
  0
CLASS
  1
OLE2FRAME
  2
AcDbOle2Frame
  3
AutoCAD 2000
 90
        0
280
     0
281
     1
  0
CLASS
  1
ACDBDICTIONARYWDFLT
  2
AcDbDictionaryWithDefault
  3
AutoCAD 2000
 90
        0
280
     0
281
     0
  0
CLASS
  1
ACDBPLACEHOLDER
  2
AcDbPlaceHolder
  3
AutoCAD 2000
 90
        0
280
     0
281
     0
  0
CLASS
  1
LAYOUT
  2
AcDbLayout
  3
AutoCAD 2000
 90
        0
280
     0
281
     0
  0
CLASS
  1
ACME_DOCUMENT
  2
AcMeDbDoc
  3
AcMeServices
 90
        0
280
     0
281
     0
  0
CLASS
  1
AMGSETTINGSOBJ
  2
AmgSettingsObj
  3
"AcadM|Product Description: AutoCAD Mechanical 2000|Company: Autodesk"
 90
        0
280
     0
281
     0
  0
CLASS
  1
AMGOBJPROPCFG
  2
AmgObjPropCfg
  3
"AmgLay|Product Description: AutoCAD Mechanical 2000|Company: Autodesk"
 90
        1
280
     0
281
     0
  0
CLASS
  1
ACMESCOPE
  2
AcMeScope
  3
AcMeServices
 90
        0
280
     0
281
     0
  0
CLASS
  1
ACMECOMMANDHISTORY
  2
AcMeCommandHistory
  3
AcMeServices
 90
        0
280
     0
281
     0
  0
CLASS
  1
ACIMSYSVARMAN
  2
AcImSysVarManager
  3
AcMeServices
 90
        0
280
     0
281
     0
  0
CLASS
  1
ACIMREALSYSVAR
  2
AcImRealSysVar
  3
AcMeServices
 90
        0
280
     0
281
     0
  0
CLASS
  1
ACIMINTSYSVAR
  2
AcImIntSysVar
  3
AcMeServices
 90
        0
280
     0
281
     0
  0
CLASS
  1
ACMEDRAWINGMAN
  2
AcMeDrawingMan
  3
AcMeServices
 90
        0
280
     0
281
     0
  0
CLASS
  1
ACMEVIEW
  2
AcMeView
  3
AcMeServices
 90
        0
280
     0
281
     0
  0
CLASS
  1
ACDBENTITYCACHE
  2
AcMeEntityCache
  3
AcMeServices
 90
        0
280
     0
281
     0
  0
CLASS
  1
GSMANAGER
  2
AcMeGSManager
  3
AcMeServices
 90
        0
280
     0
281
     0
  0
CLASS
  1
AMDTINTERNALREACTOR
  2
AmdtInternalReactor
  3
AcMeServices
 90
        0
280
     0
281
     0
  0
CLASS
  1
ACMESTATEMGR
  2
AcMeStateMgr
  3
AcMeServices
 90
        0
280
     0
281
     0
  0
CLASS
  1
ACGREFMASTER
  2
AcGrefMaster
  3
AcAttribServices
 90
        0
280
     0
281
     0
  0
CLASS
  1
ACME_DATABASE
  2
AcMeDbDatabase
  3
AcMeServices
 90
        0
280
     0
281
     0
  0
CLASS
  1
ACRFINSADJUSTERMGR
  2
AcRfInsAdjusterMgr
  3
AcMeServices
 90
        0
280
     0
281
     0
  0
CLASS
  1
ACGREFMASTER
  2
AcGrefacadMaster
  3
AcGrefServices
 90
        0
280
     0
281
     0
  0
CLASS
  1
AMIMASTER
  2
AmiMaster
  3
AmiServices
 90
        0
280
     0
281
     0
  0
CLASS
  1
ACMDATADICTIONARY
  2
AcmDataDictionary
  3
"AcmSymBB|Product Description: AutoCAD Mechanical 2000|Company: Autodesk"
 90
        0
280
     0
281
     0
  0
CLASS
  1
ACMDATAENTRYBLOCK
  2
AcmDataEntryBlock
  3
"AcmSymBB|Product Description: AutoCAD Mechanical 2000|Company: Autodesk"
 90
        0
280
     0
281
     0
  0
CLASS
  1
ACMSTANDARDISO
  2
AcmStandardISO
  3
"Amdt_StdImp|Product Description: AutoCAD Mechanical 2000|Company: Autodesk"
 90
        0
280
     0
281
     0
  0
CLASS
  1
AMDTEDGESTANDARDISO
  2
AmdtEdgeStdISO
  3
"Amdt_StdImp|Product Description: AutoCAD Mechanical 2000|Company: Autodesk"
 90
        0
280
     0
281
     0
  0
CLASS
  1
ACMSURFSTANDARDISO
  2
AcmSurfTextStdISO
  3
"Amdt_StdImp|Product Description: AutoCAD Mechanical 2000|Company: Autodesk"
 90
        0
280
     0
281
     0
  0
CLASS
  1
ACMFCFSTANDARDISO
  2
AcmFCFStdISO
  3
"Amdt_StdImp|Product Description: AutoCAD Mechanical 2000|Company: Autodesk"
 90
        0
280
     0
281
     0
  0
CLASS
  1
ACMWELDSTANDARDISO
  2
AcmWeldingStdISO
  3
"Amdt_StdImp|Product Description: AutoCAD Mechanical 2000|Company: Autodesk"
 90
        0
280
     0
281
     0
  0
CLASS
  1
ACMIDSTANDARDISO
  2
AcmIdStdISO
  3
"Amdt_StdImp|Product Description: AutoCAD Mechanical 2000|Company: Autodesk"
 90
        0
280
     0
281
     0
  0
CLASS
  1
ACMDATUMSTANDARDISO
  2
AcmDatumStdISO
  3
"Amdt_StdImp|Product Description: AutoCAD Mechanical 2000|Company: Autodesk"
 90
        0
280
     0
281
     0
  0
CLASS
  1
ACMBOMSTANDARDISO
  2
AcmBOMStdISO
  3
"Amdt_StdImp|Product Description: AutoCAD Mechanical 2000|Company: Autodesk"
 90
        0
280
     0
281
     0
  0
CLASS
  1
"AcAmgLayStd"
  2
AcAmgLayStd
  3
"AcAmgLayStd|Product Description: AutoCAD Mechanical 2000|Company: Autodesk"
 90
        0
280
     0
281
     0
  0
CLASS
  1
"AcAmgDimStd"
  2
AcAmgDimStd
  3
"AcAmgDimStd|Product Description: AutoCAD Mechanical 2000|Company: Autodesk"
 90
        0
280
     0
281
     0
  0
CLASS
  1
AcAmgTitleStd
  2
AcAmgTitleStd
  3
"TITLEAPP"
 90
        0
280
     0
281
     0
  0
CLASS
  1
ACMDETAILSTANDARDISO
  2
AmdtDetailSymStdISO
  3
"Amdt_StdImp|Product Description: AutoCAD Mechanical 2000|Company: Autodesk"
 90
        0
280
     0
281
     0
  0
CLASS
  1
ACMSECTIONSTANDARDISO
  2
AmdtSectionSymStdISO
  3
"Amdt_StdImp|Product Description: AutoCAD Mechanical 2000|Company: Autodesk"
 90
        0
280
     0
281
     0
  0
CLASS
  1
ACMCENTERLINESTANDARDISO
  2
AmdtCenterLineStdISO
  3
"Amdt_StdImp|Product Description: AutoCAD Mechanical 2000|Company: Autodesk"
 90
        0
280
     0
281
     0
  0
CLASS
  1
ACMTHREADLINESTANDARDISO
  2
AmdtThreadLineStdISO
  3
"Amdt_StdImp|Product Description: AutoCAD Mechanical 2000|Company: Autodesk"
 90
        0
280
     0
281
     0
  0
CLASS
  1
ACIMSTRSYSVAR
  2
AcImStrSysVar
  3
AcMeServices
 90
        0
280
     0
281
     0
  0
CLASS
  1
ACAMGFILTERDAT
  2
AcAmgFilterDat
  3
"AcadM|Product Description: AutoCAD Mechanical 2000|Company: Autodesk"
 90
        0
280
     0
281
     0
  0
CLASS
  1
LAYER_INDEX
  2
AcDbLayerIndex
  3
AutoCAD 2000
 90
        0
280
     0
281
     0
  0
CLASS
  1
IDBUFFER
  2
AcDbIdBuffer
  3
AutoCAD 2000
 90
        0
280
     0
281
     0
  0
CLASS
  1
ACMSTANDARDDIN
  2
AcmStandardDIN
  3
"Amdt_StdImp|Product Description: AutoCAD Mechanical 2000|Company: Autodesk"
 90
        0
280
     0
281
     0
  0
CLASS
  1
AMDTEDGESTANDARDDIN
  2
AmdtEdgeStdDIN
  3
"Amdt_StdImp|Product Description: AutoCAD Mechanical 2000|Company: Autodesk"
 90
        0
280
     0
281
     0
  0
CLASS
  1
ACMSURFSTANDARDDIN
  2
AcmSurfTextStdDIN
  3
"Amdt_StdImp|Product Description: AutoCAD Mechanical 2000|Company: Autodesk"
 90
        0
280
     0
281
     0
  0
CLASS
  1
ACMFCFSTANDARDDIN
  2
AcmFCFStdDIN
  3
"Amdt_StdImp|Product Description: AutoCAD Mechanical 2000|Company: Autodesk"
 90
        0
280
     0
281
     0
  0
CLASS
  1
ACMWELDSTANDARDDIN
  2
AcmWeldingStdDIN
  3
"Amdt_StdImp|Product Description: AutoCAD Mechanical 2000|Company: Autodesk"
 90
        0
280
     0
281
     0
  0
CLASS
  1
ACMIDSTANDARDDIN
  2
AcmIdStdDIN
  3
"Amdt_StdImp|Product Description: AutoCAD Mechanical 2000|Company: Autodesk"
 90
        0
280
     0
281
     0
  0
CLASS
  1
ACMDATUMSTANDARDDIN
  2
AcmDatumStdDIN
  3
"Amdt_StdImp|Product Description: AutoCAD Mechanical 2000|Company: Autodesk"
 90
        0
280
     0
281
     0
  0
CLASS
  1
ACMBOMSTANDARDDIN
  2
AcmBOMStdDIN
  3
"Amdt_StdImp|Product Description: AutoCAD Mechanical 2000|Company: Autodesk"
 90
        0
280
     0
281
     0
  0
CLASS
  1
ACMDETAILSTANDARDDIN
  2
AmdtDetailSymStdDIN
  3
"Amdt_StdImp|Product Description: AutoCAD Mechanical 2000|Company: Autodesk"
 90
        0
280
     0
281
     0
  0
CLASS
  1
ACMSECTIONSTANDARDDIN
  2
AmdtSectionSymStdDIN
  3
"Amdt_StdImp|Product Description: AutoCAD Mechanical 2000|Company: Autodesk"
 90
        0
280
     0
281
     0
  0
CLASS
  1
ACMCENTERLINESTANDARDDIN
  2
AmdtCenterLineStdDIN
  3
"Amdt_StdImp|Product Description: AutoCAD Mechanical 2000|Company: Autodesk"
 90
        0
280
     0
281
     0
  0
CLASS
  1
AMDTFORMULAUPDATEDISPATCHER
  2
AmdtFormulaUpdateDispatcher
  3
AcMeServices
 90
        0
280
     0
281
     0
  0
CLASS
  1
AMDTNOTE
  2
AmdtNote
  3
"AcmSymBB|Product Description: AutoCAD Mechanical 2000|Company: Autodesk"
 90
     1023
280
     0
281
     1
  0
CLASS
  1
ACDBCIRCARCRES
  2
AcDbCircArcRes
  3
AcGrefServices
 90
        0
280
     0
281
     0
  0
CLASS
  1
LONG_TRANSACTION
  2
AcDbLongTransaction
  3
AutoCAD 2000
 90
        0
280
     0
281
     0
  0
CLASS
  1
LWPOLYLINE
  2
AcDbPolyline
  3
AutoCAD 2000
 90
        0
280
     0
281
     1
  0
CLASS
  1
HATCH
  2
AcDbHatch
  3
AutoCAD 2000
 90
        0
280
     0
281
     1
  0
CLASS
  1
XRECORD
  2
AcDbXrecord
  3
AutoCAD 2000
 90
        0
280
     0
281
     0
  0
CLASS
  1
LONG_TRANSACTION
  2
AcDbLongTransaction
  3
AutoCAD 2000
 90
        0
280
     0
281
     0
  0
CLASS
  1
LWPOLYLINE
  2
AcDbPolyline
  3
AutoCAD 2000
 90
        0
280
     0
281
     1
  0
CLASS
  1
HATCH
  2
AcDbHatch
  3
AutoCAD 2000
 90
        0
280
     0
281
     1
  0
CLASS
  1
XRECORD
  2
AcDbXrecord
  3
AutoCAD 2000
 90
        0
280
     0
281
     0
  0
CLASS
  1
LONG_TRANSACTION
  2
AcDbLongTransaction
  3
AutoCAD 2000
 90
        0
280
     0
281
     0
  0
CLASS
  1
LWPOLYLINE
  2
AcDbPolyline
  3
AutoCAD 2000
 90
        0
280
     0
281
     1
  0
CLASS
  1
HATCH
  2
AcDbHatch
  3
AutoCAD 2000
 90
        0
280
     0
281
     1
  0
CLASS
  1
XRECORD
  2
AcDbXrecord
  3
AutoCAD 2000
 90
        0
280
     0
281
     0
  0
ENDSEC
  0
SECTION
  2
TABLES
  0
TABLE
  2
VPORT
  5
8
330
0
100
AcDbSymbolTable
 70
     3
  0
VPORT
  5
580E
330
8
100
AcDbSymbolTableRecord
100
AcDbViewportTableRecord
  2
*ACTIVE
 70
     0
 10
0.0
 20
0.0
 11
1.0
 21
1.0
 12
1146.868364164258
 22
649.9369287965871
 13
0.0
 23
0.0
 14
2.5
 24
2.5
 15
10.0
 25
10.0
 16
0.0
 26
0.0
 36
1.0
 17
0.0
 27
0.0
 37
0.0
 40
405.7656139995425
 41
1.631304347826086
 42
50.0
 43
0.0
 44
0.0
 50
0.0
 51
0.0
 71
     0
 72
   100
 73
     1
 74
     0
 75
     0
 76
     0
 77
     0
 78
     0
  0
ENDTAB
  0
TABLE
  2
LTYPE
  5
5
330
0
100
AcDbSymbolTable
 70
    13
  0
LTYPE
  5
12
330
5
100
AcDbSymbolTableRecord
100
AcDbLinetypeTableRecord
  2
BYBLOCK
 70
     0
  3

 72
    65
 73
     0
 40
0.0
  0
LTYPE
  5
13
330
5
100
AcDbSymbolTableRecord
100
AcDbLinetypeTableRecord
  2
BYLAYER
 70
     0
  3

 72
    65
 73
     0
 40
0.0
  0
LTYPE
  5
14
330
5
100
AcDbSymbolTableRecord
100
AcDbLinetypeTableRecord
  2
CONTINUOUS
 70
     0
  3
Solid line
 72
    65
 73
     0
 40
0.0
  0
LTYPE
  5
2405
330
5
100
AcDbSymbolTableRecord
100
AcDbLinetypeTableRecord
  2
AM_ISO08W050
 70
     0
  3
____ . ____ . ____ . ____ . ____ . ____ . ____
 72
    65
 73
     4
 40
18.0
 49
12.0
 74
     0
 49
-1.5
 74
     0
 49
3.0
 74
     0
 49
-1.5
 74
     0
  0
LTYPE
  5
47B1
330
5
100
AcDbSymbolTableRecord
100
AcDbLinetypeTableRecord
  2
GEN3A
 70
     0
  3
 - - - - -
 72
    65
 73
     2
 40
3.1
 49
2.5
 74
     0
 49
-0.6
 74
     0
  0
LTYPE
  5
5539
330
5
100
AcDbSymbolTableRecord
100
AcDbLinetypeTableRecord
  2
AM_ISO02W050
 70
     0
  3
__ __ __ __ __ __ __ __ __ __ __ __ __ __ __
 72
    65
 73
     2
 40
7.5
 49
6.0
 74
     0
 49
-1.5
 74
     0
  0
LTYPE
  5
553A
330
5
100
AcDbSymbolTableRecord
100
AcDbLinetypeTableRecord
  2
AM_ISO09W050
 70
     0
  3
_____ . . _____ . . _____ . . ____ .. ____
 72
    65
 73
     6
 40
22.5
 49
12.0
 74
     0
 49
-1.5
 74
     0
 49
3.0
 74
     0
 49
-1.5
 74
     0
 49
3.0
 74
     0
 49
-1.5
 74
     0
  0
LTYPE
  5
553B
330
5
100
AcDbSymbolTableRecord
100
AcDbLinetypeTableRecord
  2
AMCONSTR
 70
     0
  3
_______________________
 72
    65
 73
     2
 40
9999.0
 49
9999.0
 74
     0
 49
0.0
 74
     0
  0
LTYPE
  5
553C
330
5
100
AcDbSymbolTableRecord
100
AcDbLinetypeTableRecord
  2
AM_ISO02W050X2
 70
     0
  3
 _ _ _ _ _ _ _ _ _ _ _ _
 72
    65
 73
     2
 40
3.75
 49
3.0
 74
     0
 49
-0.75
 74
     0
  0
LTYPE
  5
553D
330
5
100
AcDbSymbolTableRecord
100
AcDbLinetypeTableRecord
  2
AM_ISO08W050X2
 70
     0
  3
__ . __ . __ . __ . __ . __
 72
    65
 73
     4
 40
9.0
 49
6.0
 74
     0
 49
-0.75
 74
     0
 49
1.5
 74
     0
 49
-0.75
 74
     0
  0
LTYPE
  5
553E
330
5
100
AcDbSymbolTableRecord
100
AcDbLinetypeTableRecord
  2
AMZIGZAG
 70
     0
  3
/\/-/\/-/\/-/\/-/\/-/\/
 72
    65
 73
     2
 40
11.00009999999999
 49
0.0001
 74
     4
 75
   135
340
553F
 46
0.04
 50
0.0
 44
0.0
 45
0.0
 49
-11.0
 74
     0
  0
LTYPE
  5
5560
330
5
100
AcDbSymbolTableRecord
100
AcDbLinetypeTableRecord
  2
ACISOWELD
 70
     0
  3
_ _ _ _ _
 72
    65
 73
     2
 40
2.0
 49
2.0
 74
     0
 49
-1.0
 74
     0
  0
LTYPE
  5
5563
330
5
100
AcDbSymbolTableRecord
100
AcDbLinetypeTableRecord
  2
ACISOTGB
 70
     0
  3
__ . . __ . .
 72
    65
 73
     6
 40
9.0
 49
4.0
 74
     0
 49
-1.0
 74
     0
 49
1.0
 74
     0
 49
-1.0
 74
     0
 49
1.0
 74
     0
 49
-1.0
 74
     0
  0
LTYPE
  5
5564
330
5
100
AcDbSymbolTableRecord
100
AcDbLinetypeTableRecord
  2
ACISOTGL
 70
     0
  3
_ _ _ _ _
 72
    65
 73
     2
 40
3.0
 49
2.0
 74
     0
 49
-1.0
 74
     0
  0
LTYPE
  5
55CD
330
5
100
AcDbSymbolTableRecord
100
AcDbLinetypeTableRecord
  2
CENTER
 70
     0
  3
__ . __
 72
    65
 73
     4
 40
7.0
 49
4.0
 74
     0
 49
-1.0
 74
     0
 49
1.0
 74
     0
 49
-1.0
 74
     0
  0
ENDTAB
  0
TABLE
  2
LAYER
  5
2
330
0
100
AcDbSymbolTable
 70
    10
  0
LAYER
  5
F
330
2
100
AcDbSymbolTableRecord
100
AcDbLayerTableRecord
  2
0
 70
     0
 62
     7
  6
CONTINUOUS
  0
LAYER
  5
259E
330
2
100
AcDbSymbolTableRecord
100
AcDbLayerTableRecord
  2
MSL-115-R32-S-5
 70
     0
 62
     3
  6
CONTINUOUS
  0
LAYER
  5
287E
330
2
100
AcDbSymbolTableRecord
100
AcDbLayerTableRecord
  2
MSL-115-R32-S-0
 70
     0
 62
     7
  6
CONTINUOUS
  0
LAYER
  5
2881
330
2
100
AcDbSymbolTableRecord
100
AcDbLayerTableRecord
  2
MSL-115-R32-S-7A
 70
     0
 62
     4
  6
AM_ISO08W050
  0
LAYER
  5
47B2
330
2
100
AcDbSymbolTableRecord
100
AcDbLayerTableRecord
  2
MSL-115-R32-S-3A
 70
     0
 62
     6
  6
GEN3A
  0
LAYER
  5
5524
330
2
100
AcDbSymbolTableRecord
100
AcDbLayerTableRecord
  2
MSL-115-R32-S-6
 70
     0
 62
     2
  6
CONTINUOUS
  0
LAYER
  5
5533
330
2
100
AcDbSymbolTableRecord
100
AcDbLayerTableRecord
  2
DEFPOINTS
 70
     0
 62
     7
  6
CONTINUOUS
  0
LAYER
  5
5569
330
2
100
AcDbSymbolTableRecord
100
AcDbLayerTableRecord
  2
AM_BOR
 70
     0
 62
     7
  6
CONTINUOUS
  0
LAYER
  5
55D3
330
2
100
AcDbSymbolTableRecord
100
AcDbLayerTableRecord
  2
AM_5
 70
     0
 62
     3
  6
CONTINUOUS
  0
LAYER
  5
56E5
330
2
100
AcDbSymbolTableRecord
100
AcDbLayerTableRecord
  2
AM_CL
 70
     0
 62
     1
  6
AMCONSTR
  0
ENDTAB
  0
TABLE
  2
STYLE
  5
3
330
0
100
AcDbSymbolTable
 70
     5
  0
STYLE
  5
10
330
3
100
AcDbSymbolTableRecord
100
AcDbTextStyleTableRecord
  2
STANDARD
 70
     0
 40
0.0
 41
1.0
 50
0.0
 71
     0
 42
3.5
  3
isocp.shx
  4

  0
STYLE
  5
261B
330
3
100
AcDbSymbolTableRecord
100
AcDbTextStyleTableRecord
  2
ACDINTS
 70
     0
 40
1.0
 41
1.0
 50
0.0
 71
     0
 42
3.5
  3
isocp.shx
  4

  0
STYLE
  5
553F
330
3
100
AcDbSymbolTableRecord
100
AcDbTextStyleTableRecord
  2

 70
     1
 40
0.0
 41
1.0
 50
0.0
 71
     0
 42
2.5
  3
ltypeshp.shx
  4

  0
STYLE
  5
555A
330
3
100
AcDbSymbolTableRecord
100
AcDbTextStyleTableRecord
  2
ACISOTS
 70
     0
 40
1.0
 41
1.0
 50
0.0
 71
     0
 42
2.5
  3
isocp.shx
  4

  0
STYLE
  5
555E
330
3
100
AcDbSymbolTableRecord
100
AcDbTextStyleTableRecord
  2
ACISOGDT
 70
     0
 40
0.0
 41
1.0
 50
0.0
 71
     0
 42
2.5
  3
amgdt.shx
  4

  0
ENDTAB
  0
TABLE
  2
VIEW
  5
6
330
0
100
AcDbSymbolTable
 70
     0
  0
ENDTAB
  0
TABLE
  2
UCS
  5
7
330
0
100
AcDbSymbolTable
 70
     0
  0
ENDTAB
  0
TABLE
  2
APPID
  5
9
330
0
100
AcDbSymbolTable
 70
    61
  0
APPID
  5
11
330
9
100
AcDbSymbolTableRecord
100
AcDbRegAppTableRecord
  2
ACAD
 70
     0
  0
APPID
  5
9A7
330
9
100
AcDbSymbolTableRecord
100
AcDbRegAppTableRecord
  2
GENIUS_GENOENT_13
 70
     0
  0
APPID
  5
9A8
330
9
100
AcDbSymbolTableRecord
100
AcDbRegAppTableRecord
  2
GENIUS_GENOBJ_13
 70
     0
  0
APPID
  5
9A9
330
9
100
AcDbSymbolTableRecord
100
AcDbRegAppTableRecord
  2
GENIUS_GENODEF_13
 70
     0
  0
APPID
  5
9AA
330
9
100
AcDbSymbolTableRecord
100
AcDbRegAppTableRecord
  2
GENIUS_GENOLIS_13
 70
     0
  0
APPID
  5
9AB
330
9
100
AcDbSymbolTableRecord
100
AcDbRegAppTableRecord
  2
GENIUS_GENOREF_13
 70
     0
  0
APPID
  5
9AC
330
9
100
AcDbSymbolTableRecord
100
AcDbRegAppTableRecord
  2
GENIUS_GENOBJ-N-CRS_13
 70
     0
  0
APPID
  5
9AD
330
9
100
AcDbSymbolTableRecord
100
AcDbRegAppTableRecord
  2
GENIUS_GENBH_13
 70
     0
  0
APPID
  5
9AE
330
9
100
AcDbSymbolTableRecord
100
AcDbRegAppTableRecord
  2
GENIUS_GENOBJ-NBEHI-BHF_13
 70
     0
  0
APPID
  5
9AF
330
9
100
AcDbSymbolTableRecord
100
AcDbRegAppTableRecord
  2
GENIUS_GENOBJ-NBEHI-BHB_13
 70
     0
  0
APPID
  5
9B0
330
9
100
AcDbSymbolTableRecord
100
AcDbRegAppTableRecord
  2
GENIUS_GENINF13_13
 70
     0
  0
APPID
  5
9B1
330
9
100
AcDbSymbolTableRecord
100
AcDbRegAppTableRecord
  2
GENIUS_GENOBJ-N-INFOPT_13
 70
     0
  0
APPID
  5
9B2
330
9
100
AcDbSymbolTableRecord
100
AcDbRegAppTableRecord
  2
GENIUS_GENOBJ-N-RSSYM_13
 70
     0
  0
APPID
  5
9B3
330
9
100
AcDbSymbolTableRecord
100
AcDbRegAppTableRecord
  2
GENIUS_GENSYMENT_13
 70
     0
  0
APPID
  5
9B4
330
9
100
AcDbSymbolTableRecord
100
AcDbRegAppTableRecord
  2
GENIUS_GENSCSYM_13
 70
     0
  0
APPID
  5
9B5
330
9
100
AcDbSymbolTableRecord
100
AcDbRegAppTableRecord
  2
GEVPT
 70
     0
  0
APPID
  5
9B6
330
9
100
AcDbSymbolTableRecord
100
AcDbRegAppTableRecord
  2
GEVIT
 70
     0
  0
APPID
  5
9B7
330
9
100
AcDbSymbolTableRecord
100
AcDbRegAppTableRecord
  2
VCC
 70
     0
  0
APPID
  5
9B8
330
9
100
AcDbSymbolTableRecord
100
AcDbRegAppTableRecord
  2
GENBH
 70
     0
  0
APPID
  5
9B9
330
9
100
AcDbSymbolTableRecord
100
AcDbRegAppTableRecord
  2
GEVMK
 70
     0
  0
APPID
  5
9BA
330
9
100
AcDbSymbolTableRecord
100
AcDbRegAppTableRecord
  2
GENIUS_GENOBJ-F-PART_13
 70
     0
  0
APPID
  5
9BB
330
9
100
AcDbSymbolTableRecord
100
AcDbRegAppTableRecord
  2
GENIUS_GEFSTDP_13
 70
     0
  0
APPID
  5
9BC
330
9
100
AcDbSymbolTableRecord
100
AcDbRegAppTableRecord
  2
GENIUS_GEFPARTINS_13
 70
     0
  0
APPID
  5
9BD
330
9
100
AcDbSymbolTableRecord
100
AcDbRegAppTableRecord
  2
GEVID885282451
 70
     0
  0
APPID
  5
9BE
330
9
100
AcDbSymbolTableRecord
100
AcDbRegAppTableRecord
  2
GEVID885282452
 70
     0
  0
APPID
  5
9BF
330
9
100
AcDbSymbolTableRecord
100
AcDbRegAppTableRecord
  2
GEVID885282453
 70
     0
  0
APPID
  5
9C0
330
9
100
AcDbSymbolTableRecord
100
AcDbRegAppTableRecord
  2
GEVID885282454
 70
     0
  0
APPID
  5
9C1
330
9
100
AcDbSymbolTableRecord
100
AcDbRegAppTableRecord
  2
GEVID885282455
 70
     0
  0
APPID
  5
9C2
330
9
100
AcDbSymbolTableRecord
100
AcDbRegAppTableRecord
  2
GEVID885282456
 70
     0
  0
APPID
  5
9C3
330
9
100
AcDbSymbolTableRecord
100
AcDbRegAppTableRecord
  2
GEVID885282457
 70
     0
  0
APPID
  5
9C4
330
9
100
AcDbSymbolTableRecord
100
AcDbRegAppTableRecord
  2
GEVID885282458
 70
     0
  0
APPID
  5
9C5
330
9
100
AcDbSymbolTableRecord
100
AcDbRegAppTableRecord
  2
GEVID885282459
 70
     0
  0
APPID
  5
9C6
330
9
100
AcDbSymbolTableRecord
100
AcDbRegAppTableRecord
  2
GEVID885282460
 70
     0
  0
APPID
  5
9C7
330
9
100
AcDbSymbolTableRecord
100
AcDbRegAppTableRecord
  2
GEVID885282461
 70
     0
  0
APPID
  5
9C8
330
9
100
AcDbSymbolTableRecord
100
AcDbRegAppTableRecord
  2
GEVID885282462
 70
     0
  0
APPID
  5
1880
330
9
100
AcDbSymbolTableRecord
100
AcDbRegAppTableRecord
  2
GENIUS_GENOBJ-N-CEN_13
 70
     0
  0
APPID
  5
23E9
330
9
100
AcDbSymbolTableRecord
100
AcDbRegAppTableRecord
  2
GENIUS_GENCFG_13
 70
     0
  0
APPID
  5
23EA
330
9
100
AcDbSymbolTableRecord
100
AcDbRegAppTableRecord
  2
GENIUS_GEVCFG0_13
 70
     0
  0
APPID
  5
23EB
330
9
100
AcDbSymbolTableRecord
100
AcDbRegAppTableRecord
  2
GENIUS_GENCFG0_13
 70
     0
  0
APPID
  5
23EC
330
9
100
AcDbSymbolTableRecord
100
AcDbRegAppTableRecord
  2
GENIUS_GENCFG1_13
 70
     0
  0
APPID
  5
23ED
330
9
100
AcDbSymbolTableRecord
100
AcDbRegAppTableRecord
  2
GENIUS_GENCFG2_13
 70
     0
  0
APPID
  5
23EE
330
9
100
AcDbSymbolTableRecord
100
AcDbRegAppTableRecord
  2
GENIUS_GENCFG3_13
 70
     0
  0
APPID
  5
23EF
330
9
100
AcDbSymbolTableRecord
100
AcDbRegAppTableRecord
  2
GENIUS_GENCFG4_13
 70
     0
  0
APPID
  5
23F0
330
9
100
AcDbSymbolTableRecord
100
AcDbRegAppTableRecord
  2
GENIUS_GEFCFG0_13
 70
     0
  0
APPID
  5
23F1
330
9
100
AcDbSymbolTableRecord
100
AcDbRegAppTableRecord
  2
MCAD_NO_VIS
 70
     0
  0
APPID
  5
23F2
330
9
100
AcDbSymbolTableRecord
100
AcDbRegAppTableRecord
  2
ACAD_TEMP_GRAPHIC
 70
     0
  0
APPID
  5
23F3
330
9
100
AcDbSymbolTableRecord
100
AcDbRegAppTableRecord
  2
GENIUS_GENOBJ-N-TIT_13
 70
     0
  0
APPID
  5
23F4
330
9
100
AcDbSymbolTableRecord
100
AcDbRegAppTableRecord
  2
GENIUS_GENTITLE_13
 70
     0
  0
APPID
  5
23F5
330
9
100
AcDbSymbolTableRecord
100
AcDbRegAppTableRecord
  2
GENIUS_GENZVEED_13
 70
     0
  0
APPID
  5
23F6
330
9
100
AcDbSymbolTableRecord
100
AcDbRegAppTableRecord
  2
GENIUS_GENSCREG_15
 70
     0
  0
APPID
  5
23F7
330
9
100
AcDbSymbolTableRecord
100
AcDbRegAppTableRecord
  2
GENIUS_GENOBJ-N-SDF_13
 70
     0
  0
APPID
  5
23F8
330
9
100
AcDbSymbolTableRecord
100
AcDbRegAppTableRecord
  2
GENIUS_GENREC_14
 70
     0
  0
APPID
  5
23F9
330
9
100
AcDbSymbolTableRecord
100
AcDbRegAppTableRecord
  2
GENIUS_GENOBJ-N-REC_13
 70
     0
  0
APPID
  5
23FA
330
9
100
AcDbSymbolTableRecord
100
AcDbRegAppTableRecord
  2
GENIUS_GENBLLY_14
 70
     0
  0
APPID
  5
23FB
330
9
100
AcDbSymbolTableRecord
100
AcDbRegAppTableRecord
  2
GENIUS_GENDTOL_13
 70
     0
  0
APPID
  5
23FC
330
9
100
AcDbSymbolTableRecord
100
AcDbRegAppTableRecord
  2
GENIUS_GENDIMSH_14
 70
     0
  0
APPID
  5
23FD
330
9
100
AcDbSymbolTableRecord
100
AcDbRegAppTableRecord
  2
ACATTRIBSERVICES
 70
     0
  0
APPID
  5
23FE
330
9
100
AcDbSymbolTableRecord
100
AcDbRegAppTableRecord
  2
DCO15
 70
     0
  0
APPID
  5
252F
330
9
100
AcDbSymbolTableRecord
100
AcDbRegAppTableRecord
  2
GENIUS_GENTRA_14
 70
     0
  0
APPID
  5
3756
330
9
100
AcDbSymbolTableRecord
100
AcDbRegAppTableRecord
  2
CONTENTBLOCKICON
 70
     0
  0
APPID
  5
4CBE
330
9
100
AcDbSymbolTableRecord
100
AcDbRegAppTableRecord
  2
CONTENTBLOCKDESCRIPTION
 70
     0
  0
ENDTAB
  0
TABLE
  2
DIMSTYLE
  5
A
330
0
100
AcDbSymbolTable
 70
     9
  0
DIMSTYLE
105
117
330
A
100
AcDbSymbolTableRecord
100
AcDbDimStyleTableRecord
  2
STANDARD
 70
     0
  3

  4

  5

  6

  7

 40
1.0
 41
0.18
 42
0.0625
 43
0.38
 44
0.18
 45
0.0
 46
0.0
 47
0.0
 48
0.0
140
0.18
141
0.09
142
0.0
143
25.4
144
1.0
145
0.0
146
1.0
147
0.09
 71
     0
 72
     0
 73
     1
 74
     1
 75
     0
 76
     0
 77
     0
 78
     0
170
     0
171
     2
172
     0
173
     0
174
     0
175
     0
176
     0
177
     0
178
     0
270
     2
271
     4
272
     4
273
     2
274
     2
340
10
275
     0
280
     0
281
     0
282
     0
283
     1
284
     0
285
     0
286
     0
287
     3
288
     0
  0
DIMSTYLE
105
255C
330
A
100
AcDbSymbolTableRecord
100
AcDbDimStyleTableRecord
  2
MASSBLATT
 70
     0
  3

  4
"
  5

  6

  7

 40
1.0
 41
7.0
 42
0.5
 43
3.0
 44
0.0
 45
0.0
 46
0.0
 47
0.1
 48
0.1
140
9.0
141
0.0
142
0.0
143
0.0393701
144
1.0
145
0.0
146
0.71
147
1.5
 71
     0
 72
     0
 73
     0
 74
     0
 75
     0
 76
     0
 77
     1
 78
     8
170
     0
171
     2
172
     1
173
     0
174
     0
175
     0
176
     5
177
     5
178
     5
270
     2
271
     2
272
     2
273
     2
274
     2
340
10
275
     0
280
     0
281
     0
282
     0
283
     0
284
     8
285
     0
286
     0
287
     3
288
     0
  0
DIMSTYLE
105
55BF
330
A
100
AcDbSymbolTableRecord
100
AcDbDimStyleTableRecord
  2
AM_ISO
 70
     0
  3

  4
"
  5

  6

  7

 40
1.0
 41
2.5
 42
1.0
 43
10.0
 44
1.0
 45
0.0
 46
0.0
 47
0.1
 48
0.1
140
3.5
141
0.0
142
0.0
143
0.0393701
144
1.0
145
0.0
146
0.71
147
1.5
 71
     0
 72
     0
 73
     0
 74
     0
 75
     0
 76
     0
 77
     1
 78
     8
170
     0
171
     2
172
     1
173
     0
174
     0
175
     0
176
   256
177
   256
178
     2
270
     2
271
     2
272
     2
273
     2
274
     2
340
10
275
     0
280
     0
281
     0
282
     0
283
     0
284
     8
285
     0
286
     0
287
     3
288
     0
  0
DIMSTYLE
105
55C0
330
A
100
AcDbSymbolTableRecord
100
AcDbDimStyleTableRecord
  2
AM_ISO$3
 70
     0
  3

  4
"
  5

  6

  7

 40
1.0
 41
2.5
 42
1.0
 43
10.0
 44
1.0
 45
0.0
 46
0.0
 47
0.1
 48
0.1
140
3.5
141
0.0
142
0.0
143
0.0393701
144
1.0
145
0.0
146
0.71
147
1.5
 71
     0
 72
     0
 73
     0
 74
     1
 75
     0
 76
     0
 77
     1
 78
     8
170
     0
171
     2
172
     0
173
     0
174
     0
175
     0
176
   256
177
   256
178
     2
270
     2
271
     2
272
     3
273
     2
274
     4
340
10
275
     0
280
     0
281
     0
282
     0
283
     0
284
     0
285
     0
286
     0
287
     0
288
     1
  0
DIMSTYLE
105
55C1
330
A
100
AcDbSymbolTableRecord
100
AcDbDimStyleTableRecord
  2
AM_ISO$4
 70
     0
  3

  4
"
  5

  6

  7

 40
1.0
 41
2.5
 42
1.0
 43
10.0
 44
1.0
 45
0.0
 46
0.0
 47
0.1
 48
0.1
140
3.5
141
0.0
142
0.0
143
0.0393701
144
1.0
145
0.0
146
0.71
147
1.5
 71
     0
 72
     0
 73
     0
 74
     1
 75
     0
 76
     0
 77
     1
 78
     8
170
     0
171
     2
172
     0
173
     0
174
     0
175
     0
176
   256
177
   256
178
     2
270
     2
271
     2
272
     2
273
     2
274
     2
340
10
275
     0
280
     0
281
     0
282
     0
283
     0
284
     0
285
     0
286
     0
287
     3
288
     1
  0
DIMSTYLE
105
55C2
330
A
100
AcDbSymbolTableRecord
100
AcDbDimStyleTableRecord
  2
AM_ISO$6
 70
     0
  3

  4
"
  5

  6

  7

 40
1.0
 41
2.5
 42
1.0
 43
10.0
 44
1.0
 45
0.0
 46
0.0
 47
0.1
 48
0.1
140
3.5
141
0.0
142
0.0
143
0.0393701
144
1.0
145
0.0
146
0.71
147
1.5
 71
     0
 72
     0
 73
     0
 74
     0
 75
     0
 76
     0
 77
     0
 78
     8
170
     0
171
     2
172
     1
173
     0
174
     0
175
     0
176
   256
177
   256
178
     2
270
     2
271
     2
272
     3
273
     2
274
     4
340
10
275
     0
280
     0
281
     0
282
     0
283
     0
284
     0
285
     0
286
     0
287
     3
288
     0
  0
DIMSTYLE
105
55C3
330
A
100
AcDbSymbolTableRecord
100
AcDbDimStyleTableRecord
  2
AM_ISO$7
 70
     0
  3

  4
"
  5

  6

  7

 40
1.0
 41
2.5
 42
1.0
 43
10.0
 44
1.0
 45
0.0
 46
0.0
 47
0.1
 48
0.1
140
5.0
141
0.0
142
0.0
143
0.0393701
144
1.0
145
0.0
146
0.71
147
1.5
 71
     0
 72
     0
 73
     0
 74
     0
 75
     0
 76
     0
 77
     1
 78
     8
170
     0
171
     2
172
     1
173
     0
174
     0
175
     0
176
   256
177
   256
178
     2
270
     2
271
     2
272
     3
273
     2
274
     4
340
10
275
     0
280
     0
281
     0
282
     0
283
     0
284
     0
285
     0
286
     0
287
     3
288
     0
  0
DIMSTYLE
105
55C4
330
A
100
AcDbSymbolTableRecord
100
AcDbDimStyleTableRecord
  2
AM_ISO$SF
 70
     0
  3

  4
"
  5

  6

  7

 40
1.0
 41
2.5
 42
1.0
 43
10.0
 44
1.0
 45
0.0
 46
0.0
 47
0.1
 48
0.1
140
3.5
141
0.0
142
0.0
143
0.0393701
144
1.0
145
0.0
146
0.71
147
1.5
 71
     0
 72
     0
 73
     0
 74
     0
 75
     1
 76
     1
 77
     1
 78
     8
170
     0
171
     2
172
     1
173
     0
174
     0
175
     0
176
   256
177
   256
178
     2
270
     2
271
     2
272
     3
273
     2
274
     4
340
10
275
     0
280
     0
281
     0
282
     0
283
     0
284
     0
285
     0
286
     0
287
     3
288
     0
  0
DIMSTYLE
105
55C5
330
A
100
AcDbSymbolTableRecord
100
AcDbDimStyleTableRecord
  2
AM_ISO$SH
 70
     0
  3

  4
"
  5

  6
GENAXEH
  7

 40
1.0
 41
2.5
 42
1.0
 43
10.0
 44
1.0
 45
0.0
 46
0.0
 47
0.1
 48
0.1
140
3.5
141
0.0
142
0.0
143
0.0393701
144
2.0
145
0.0
146
0.71
147
1.5
 71
     0
 72
     0
 73
     0
 74
     0
 75
     1
 76
     1
 77
     1
 78
     8
170
     0
171
     2
172
     1
173
     1
174
     0
175
     0
176
   256
177
   256
178
     2
270
     2
271
     2
272
     3
273
     2
274
     4
340
10
275
     0
280
     0
281
     0
282
     0
283
     0
284
     0
285
     0
286
     0
287
     3
288
     0
  0
ENDTAB
  0
TABLE
  2
BLOCK_RECORD
  5
1
330
0
100
AcDbSymbolTable
 70
     5
  0
BLOCK_RECORD
  5
18
102
{ACAD_XDICTIONARY
360
2541
102
}
330
1
100
AcDbSymbolTableRecord
100
AcDbBlockTableRecord
  2
*MODEL_SPACE
  0
BLOCK_RECORD
  5
15
102
{ACAD_XDICTIONARY
360
3741
102
}
330
1
100
AcDbSymbolTableRecord
100
AcDbBlockTableRecord
  2
*PAPER_SPACE
  0
BLOCK_RECORD
  5
5566
330
1
100
AcDbSymbolTableRecord
100
AcDbBlockTableRecord
  2
GENTPOS0
  0
BLOCK_RECORD
  5
5582
330
1
100
AcDbSymbolTableRecord
100
AcDbBlockTableRecord
  2
GENTPOS1
  0
BLOCK_RECORD
  5
558F
330
1
100
AcDbSymbolTableRecord
100
AcDbBlockTableRecord
  2
GENTPOS2
1001
CONTENTBLOCKICON
1071
        0
1004
2800000020000000200000000100080000000000000400000000000000000000000000000000000000000000000080000080000000808000800000008000800080800000C0C0C000C0DCC000F0CAA6000020400000206000002080000020A0000020C0000020E00000400000004020000040400000406000004080000040A0
1004
000040C0000040E00000600000006020000060400000606000006080000060A0000060C0000060E00000800000008020000080400000806000008080000080A0000080C0000080E00000A0000000A0200000A0400000A0600000A0800000A0A00000A0C00000A0E00000C0000000C0200000C0400000C0600000C0800000C0
1004
A00000C0C00000C0E00000E0000000E0200000E0400000E0600000E0800000E0A00000E0C00000E0E00040000000400020004000400040006000400080004000A0004000C0004000E00040200000402020004020400040206000402080004020A0004020C0004020E000404000004040200040404000404060004040800040
1004
40A0004040C0004040E00040600000406020004060400040606000406080004060A0004060C0004060E00040800000408020004080400040806000408080004080A0004080C0004080E00040A0000040A0200040A0400040A0600040A0800040A0A00040A0C00040A0E00040C0000040C0200040C0400040C0600040C08000
1004
40C0A00040C0C00040C0E00040E0000040E0200040E0400040E0600040E0800040E0A00040E0C00040E0E00080000000800020008000400080006000800080008000A0008000C0008000E00080200000802020008020400080206000802080008020A0008020C0008020E00080400000804020008040400080406000804080
1004
008040A0008040C0008040E00080600000806020008060400080606000806080008060A0008060C0008060E00080800000808020008080400080806000808080008080A0008080C0008080E00080A0000080A0200080A0400080A0600080A0800080A0A00080A0C00080A0E00080C0000080C0200080C0400080C0600080C0
1004
800080C0A00080C0C00080C0E00080E0000080E0200080E0400080E0600080E0800080E0A00080E0C00080E0E000C0000000C0002000C0004000C0006000C0008000C000A000C000C000C000E000C0200000C0202000C0204000C0206000C0208000C020A000C020C000C020E000C0400000C0402000C0404000C0406000C0
1004
408000C040A000C040C000C040E000C0600000C0602000C0604000C0606000C0608000C060A000C060C000C060E000C0800000C0802000C0804000C0806000C0808000C080A000C080C000C080E000C0A00000C0A02000C0A04000C0A06000C0A08000C0A0A000C0A0C000C0A0E000C0C00000C0C02000C0C04000C0C06000
1004
C0C08000C0C0A000F0FBFF00A4A0A000808080000000FF0000FF000000FFFF00FF000000FF00FF00FFFF0000FFFFFF0000000000000000000000000000000000000000000000000000000000000000000000000000000000000000000000000000000000000000000000000000000000000000000000000000000000000000
1004
00000000000000000000000000000000000000000000000000000000000000000000000000000000000000000000000000000000000000000000000000000000000000000000000000000000000000000000000000000000000000000000000000000000000000000000000000000000000000000000000000000000000000
1004
00000000000000000000000000000000000000000000000000000000000000000000000000000000000000000000000000000000000000000000000000000000000000000000000000000000000000000000000000000000000000000000000000000000000000000000000000000000000000000000000000000000000000
1004
00000000000000000000000000000000000000000000000000000000000000000000000000000000000000000000000000000000000000000000000000000000000000000000000000000000000000000000000000000000000000000000000000000000000000000000000000000000000000000000000000000000000000
1004
000000000000000000000000000000000000000000FFFBF9FBF9F9F9F9F9F9F9F9F9F9F9F9F9F9F9F9F9F9F9F9F9F9F9F9F9FF0000FFFBF9FBF9FBFBFB0000000000F9FBFBFB0000000000F9FBFBFB0000FBFF0000000000000000000000000000000000000000000000000000000000000000000000000000000000000000
1004
00000000000000000000000000000000000000000000000000000000000000000000000000000000000000000000000000000000000000000000000000000000000000000000000000000000000000000000000000000000000000000000000000000000000000000000000000000000000000000000000000000000000000
1004
00000000000000000000000000000000000000000000000000000000000000000000000000000000000000000000000000000000000000000000000000000000000000000000000000000000000000000000000000000000000000000000000000000000000000000000000000000000000000000000000000000000000000
1004
00000000000000000000000000000000000000000000000000000000000000000000000000000000000000000000000000000000000000000000000000000000000000000000000000000000000000000000000000000000000000000000000000000000000000000000000000000000000000000000000000000000000000
1004
0000000000000000000000000000000000000000000000000000000000000000000000000000000000000000000000000000000000000000
  0
BLOCK_RECORD
  5
559F
330
1
100
AcDbSymbolTableRecord
100
AcDbBlockTableRecord
  2
GENTPOS
  0
BLOCK_RECORD
  5
55C6
330
1
100
AcDbSymbolTableRecord
100
AcDbBlockTableRecord
  2
GENAXEH
  0
ENDTAB
  0
ENDSEC
  0
SECTION
  2
BLOCKS
  0
BLOCK
  5
44
330
18
100
AcDbEntity
  8
0
100
AcDbBlockBegin
  2
*MODEL_SPACE
 70
     0
 10
0.0
 20
0.0
 30
0.0
  3
*MODEL_SPACE
  1

  0
ENDBLK
  5
45
330
18
100
AcDbEntity
  8
0
100
AcDbBlockEnd
  0
BLOCK
  5
42
330
15
100
AcDbEntity
 67
     1
  8
0
100
AcDbBlockBegin
  2
*PAPER_SPACE
 70
     0
 10
0.0
 20
0.0
 30
0.0
  3
*PAPER_SPACE
  1

  0
ENDBLK
  5
43
330
15
100
AcDbEntity
 67
     1
  8
0
100
AcDbBlockEnd
  0
BLOCK
  5
5580
330
5566
100
AcDbEntity
  8
0
100
AcDbBlockBegin
  2
GENTPOS0
 70
     0
 10
0.0
 20
0.0
 30
0.0
  3
GENTPOS0
  1

  0
LINE
  5
5567
330
5566
100
AcDbEntity
  8
0
100
AcDbLine
 10
-182.8848688369858
 20
0.0000000000000178
 30
0.0
 11
-0.0000000000000015
 21
0.0
 31
0.0
  0
LINE
  5
5568
330
5566
100
AcDbEntity
  8
AM_BOR
 62
     1
100
AcDbLine
 10
-159.8848688369858
 20
4.500000000000026
 30
0.0
 11
0.0
 21
4.5
 31
0.0
1001
GENIUS_GENBLLY_14
1000
BOR2
  0
LINE
  5
556A
330
5566
100
AcDbEntity
  8
AM_BOR
 62
     1
100
AcDbLine
 10
-182.8848688369858
 20
9.000000000000017
 30
0.0
 11
0.0000000000000015
 21
8.999999999999971
 31
0.0
1001
GENIUS_GENBLLY_14
1000
BOR2
  0
LINE
  5
556B
330
5566
100
AcDbEntity
  8
0
100
AcDbLine
 10
-182.8848688369858
 20
4.500000000000018
 30
0.0
 11
-182.8848688369858
 21
9.000000000000017
 31
0.0
  0
LINE
  5
556C
330
5566
100
AcDbEntity
  8
0
100
AcDbLine
 10
-182.8848688369858
 20
0.0000000000000178
 30
0.0
 11
-182.8848688369858
 21
4.500000000000018
 31
0.0
  0
LINE
  5
556D
330
5566
100
AcDbEntity
  8
AM_BOR
 62
     1
100
AcDbLine
 10
-159.8848688369858
 20
4.500000000000028
 30
0.0
 11
-159.8848688369858
 21
0.0862588319893405
 31
0.0
1001
GENIUS_GENBLLY_14
1000
BOR2
  0
LINE
  5
556E
330
5566
100
AcDbEntity
  8
AM_BOR
 62
     1
100
AcDbLine
 10
-171.8848688369858
 20
4.500000000000049
 30
0.0
 11
-171.8848688369858
 21
0.0862588319893618
 31
0.0
1001
GENIUS_GENBLLY_14
1000
BOR2
  0
LINE
  5
556F
330
5566
100
AcDbEntity
  8
AM_BOR
 62
     1
100
AcDbLine
 10
-171.8848688369858
 20
9.000000000000078
 30
0.0
 11
-171.8848688369858
 21
4.500000000000078
 31
0.0
1001
GENIUS_GENBLLY_14
1000
BOR2
  0
LINE
  5
5570
330
5566
100
AcDbEntity
  8
AM_BOR
 62
     1
100
AcDbLine
 10
-159.8848688369858
 20
9.000000000000056
 30
0.0
 11
-159.8848688369858
 21
4.500000000000056
 31
0.0
1001
GENIUS_GENBLLY_14
1000
BOR2
  0
LINE
  5
5571
330
5566
100
AcDbEntity
  8
AM_BOR
 62
     1
100
AcDbLine
 10
-99.16415352220628
 20
4.500000000000028
 30
0.0
 11
-99.16415352220628
 21
0.0000000000000284
 31
0.0
1001
GENIUS_GENBLLY_14
1000
BOR2
  0
LINE
  5
5572
330
5566
100
AcDbEntity
  8
AM_BOR
 62
     1
100
AcDbLine
 10
-99.16415352220628
 20
9.000000000000028
 30
0.0
 11
-99.16415352220628
 21
4.500000000000028
 31
0.0
1001
GENIUS_GENBLLY_14
1000
BOR2
  0
TEXT
  5
5573
330
5566
100
AcDbEntity
  8
AM_BOR
 62
     1
100
AcDbText
 10
-40.5339414917006
 20
5.763229718930091
 30
0.0
 40
2.0
  1
(genmsg "gendwg" 39){20.2}
100
AcDbText
1001
GENIUS_GENBLLY_14
1000
BOR3
  0
TEXT
  5
5574
330
5566
100
AcDbEntity
  8
AM_BOR
 62
     1
100
AcDbText
 10
-40.5339414917006
 20
0.9821435911503897
 30
0.0
 40
2.0
  1
(genmsg "gendwg" 40){20.2}
100
AcDbText
1001
GENIUS_GENBLLY_14
1000
BOR3
  0
LINE
  5
5575
330
5566
100
AcDbEntity
  8
AM_BOR
 62
     1
100
AcDbLine
 10
-42.51312267027481
 20
4.500000000000056
 30
0.0
 11
-42.51312267027481
 21
0.0000000000000568
 31
0.0
1001
GENIUS_GENBLLY_14
1000
BOR2
  0
LINE
  5
5576
330
5566
100
AcDbEntity
  8
AM_BOR
 62
     1
100
AcDbLine
 10
-42.51312267027481
 20
9.000000000000028
 30
0.0
 11
-42.51312267027481
 21
4.500000000000028
 31
0.0
1001
GENIUS_GENBLLY_14
1000
BOR2
  0
LINE
  5
5577
330
5566
100
AcDbEntity
  8
0
100
AcDbLine
 10
0.0
 20
4.5
 30
0.0
 11
0.0000000000000015
 21
9.0
 31
0.0
  0
LINE
  5
5578
330
5566
100
AcDbEntity
  8
0
100
AcDbLine
 10
-0.0000000000000015
 20
0.0
 30
0.0
 11
0.0
 21
4.5
 31
0.0
  0
TEXT
  5
5579
330
5566
100
AcDbEntity
  8
AM_BOR
 62
     1
100
AcDbText
 10
-98.2036393615847
 20
5.608505873506747
 30
0.0
 40
2.0
  1
(genmsg "gendwg" 37){27.5}
100
AcDbText
1001
GENIUS_GENBLLY_14
1000
BOR3
  0
TEXT
  5
557A
330
5566
100
AcDbEntity
  8
AM_BOR
 62
     1
100
AcDbText
 10
-98.13869994507559
 20
1.100050017994508
 30
0.0
 40
2.0
  1
(genmsg "gendwg" 38){27.5}
100
AcDbText
1001
GENIUS_GENBLLY_14
1000
BOR3
  0
TEXT
  5
557B
330
5566
100
AcDbEntity
  8
AM_BOR
 62
     1
100
AcDbText
 10
-159.1934076074175
 20
5.534152162888322
 30
0.0
 40
2.0
  1
(genmsg "gendwg" 35){22.7}
100
AcDbText
1001
GENIUS_GENBLLY_14
1000
BOR3
  0
TEXT
  5
557C
330
5566
100
AcDbEntity
  8
AM_BOR
 62
     1
100
AcDbText
 10
-159.0635287743993
 20
1.186796013715994
 30
0.0
 40
2.0
  1
(genmsg "gendwg" 36){22.7}
100
AcDbText
1001
GENIUS_GENBLLY_14
1000
BOR3
  0
TEXT
  5
557D
330
5566
100
AcDbEntity
  8
AM_BOR
 62
     1
100
AcDbText
 10
-182.0635287743993
 20
5.864034458310133
 30
0.0
 40
2.0
  1
(genmsg "gendwg" 29){7.6}
100
AcDbText
1001
GENIUS_GENBLLY_14
1000
BOR3
  0
TEXT
  5
557E
330
5566
100
AcDbEntity
  8
AM_BOR
 62
     1
100
AcDbText
 10
-171.0635287743993
 20
5.650960109797129
 30
0.0
 40
2.0
  1
(genmsg "gendwg" 32){5.3}
100
AcDbText
1001
GENIUS_GENBLLY_14
1000
BOR3
  0
TEXT
  5
557F
330
5566
100
AcDbEntity
  8
AM_BOR
 62
     1
100
AcDbText
 10
-8.700000000000002
 20
5.763229718930091
 30
0.0
 40
2.0
  1
Länge
 72
     2
 11
-2.0
 21
5.763229718930091
 31
0.0
100
AcDbText
1001
GENIUS_GENBLLY_14
1000
BOR3
  0
ENDBLK
  5
5581
330
5566
100
AcDbEntity
  8
0
100
AcDbBlockEnd
  0
BLOCK
  5
558D
330
5582
100
AcDbEntity
  8
0
100
AcDbBlockBegin
  2
GENTPOS1
 70
     2
 10
0.0
 20
0.0
 30
0.0
  3
GENTPOS1
  1

  0
LINE
  5
5583
330
5582
100
AcDbEntity
  8
0
100
AcDbLine
 10
-182.8848688369859
 20
0.0000000000000853
 30
0.0
 11
-182.8848688369859
 21
4.500000000000085
 31
0.0
  0
ATTDEF
  5
5584
330
5582
100
AcDbEntity
  8
AM_BOR
 62
     2
100
AcDbText
 10
-158.9507488793445
 20
1.462817121073982
 30
0.0
 40
2.0
  1

100
AcDbAttributeDefinition
  3
(GENMSG "GENDWG" 35)
  2
6GENST{22.7}
 70
     0
1001
GENIUS_GENBLLY_14
1000
BOR3
  0
LINE
  5
5585
330
5582
100
AcDbEntity
  8
AM_BOR
 62
     1
100
AcDbLine
 10
-171.8848688369858
 20
4.500000000000028
 30
0.0
 11
-171.8848688369858
 21
0.0000000000000284
 31
0.0
1001
GENIUS_GENBLLY_14
1000
BOR2
  0
LINE
  5
5586
330
5582
100
AcDbEntity
  8
AM_BOR
 62
     1
100
AcDbLine
 10
-159.8848688369858
 20
4.5
 30
0.0
 11
-159.8848688369858
 21
0.0
 31
0.0
1001
GENIUS_GENBLLY_14
1000
BOR2
  0
ATTDEF
  5
5587
330
5582
100
AcDbEntity
  8
AM_BOR
 62
     2
100
AcDbText
 10
-98.30654456084836
 20
1.462846717870263
 30
0.0
 40
2.0
  1

100
AcDbAttributeDefinition
  3
(GENMSG "GENDWG" 37)
  2
8GENST{27.5}
 70
     0
1001
GENIUS_GENBLLY_14
1000
BOR3
  0
LINE
  5
5588
330
5582
100
AcDbEntity
  8
AM_BOR
 62
     1
100
AcDbLine
 10
-99.16415352220633
 20
4.499999999999985
 30
0.0
 11
-99.16415352220633
 21
0.0
 31
0.0
1001
GENIUS_GENBLLY_14
1000
BOR2
  0
ATTDEF
  5
5589
330
5582
100
AcDbEntity
  8
AM_BOR
 62
     2
100
AcDbText
 10
-41.18880055791851
 20
1.453563055486227
 30
0.0
 40
2.0
  1

100
AcDbAttributeDefinition
  3
(GENMSG "GENDWG" 39)
  2
10GENST{20.2}
 70
     0
1001
GENIUS_GENBLLY_14
1000
BOR3
  0
LINE
  5
558A
330
5582
100
AcDbEntity
  8
AM_BOR
 62
     1
100
AcDbLine
 10
-42.51312267027481
 20
4.499999999999971
 30
0.0
 11
-42.51312267027481
 21
0.0
 31
0.0
1001
GENIUS_GENBLLY_14
1000
BOR2
  0
LINE
  5
558B
330
5582
100
AcDbEntity
  8
0
100
AcDbLine
 10
0.0
 20
4.499999999999957
 30
0.0
 11
0.0
 21
0.0
 31
0.0
  0
LINE
  5
558C
330
5582
100
AcDbEntity
  8
AM_BOR
 62
     1
100
AcDbLine
 10
-159.8848688369858
 20
4.5
 30
0.0
 11
0.0
 21
4.50000000000017
 31
0.0
1001
GENIUS_GENBLLY_14
1000
BOR2
  0
ENDBLK
  5
558E
330
5582
100
AcDbEntity
  8
0
100
AcDbBlockEnd
  0
BLOCK
  5
559D
330
558F
100
AcDbEntity
  8
0
100
AcDbBlockBegin
  2
GENTPOS2
 70
     2
 10
0.0
 20
0.0
 30
0.0
  3
GENTPOS2
  1

  0
ATTDEF
  5
5590
330
558F
100
AcDbEntity
  8
AM_BOR
 62
     2
100
AcDbText
 10
-181.9880496049755
 20
-25.67901407093678
 30
0.0
 40
2.0
  1

100
AcDbAttributeDefinition
  3

  2
ITEM
 70
     0
1001
GENIUS_GENBLLY_14
1000
BOR3
  0
ATTDEF
  5
5591
330
558F
100
AcDbEntity
  8
AM_BOR
 62
     2
100
AcDbText
 10
-170.9880496049755
 20
-25.67901407093676
 30
0.0
 40
2.0
  1

100
AcDbAttributeDefinition
  3

  2
QTY
 70
     0
1001
GENIUS_GENBLLY_14
1000
BOR3
  0
ATTDEF
  5
5592
330
558F
100
AcDbEntity
  8
AM_BOR
 62
     2
100
AcDbText
 10
-158.9880496049755
 20
-25.67901407093678
 30
0.0
 40
2.0
  1

100
AcDbAttributeDefinition
  3
(GENMSG "GENDWG" 36)
  2
5GENST{22.7}
 70
     0
1001
GENIUS_GENBLLY_14
1000
BOR3
  0
ATTDEF
  5
5593
330
558F
100
AcDbEntity
  8
AM_BOR
 62
     2
100
AcDbText
 10
-98.12709024845236
 20
-25.6789844741405
 30
0.0
 40
2.0
  1

100
AcDbAttributeDefinition
  3
(GENMSG "GENDWG" 38)
  2
7GENST{27.5}
 70
     0
1001
GENIUS_GENBLLY_14
1000
BOR3
  0
ATTDEF
  5
5594
330
558F
100
AcDbEntity
  8
AM_BOR
 62
     2
100
AcDbText
 10
-41.3554367051451
 20
-25.48402756407573
 30
0.0
 40
2.0
  1

100
AcDbAttributeDefinition
  3
(GENMSG "GENDWG" 40)
  2
9GENST{20.2}
 70
     0
1001
GENIUS_GENBLLY_14
1000
BOR3
  0
ATTDEF
  5
5595
330
558F
100
AcDbEntity
  8
AM_BOR
 62
     2
100
AcDbText
 10
-2.000000000000113
 20
-25.54643694451361
 30
0.0
 40
2.0
  1

 72
     2
 11
-2.000000000000113
 21
-25.54643694451361
 31
0.0
100
AcDbAttributeDefinition
  3

  2
DIM
 70
     0
1001
GENIUS_GENBLLY_14
1000
BOR3
  0
LINE
  5
5596
330
558F
100
AcDbEntity
  8
AM_BOR
 62
     1
100
AcDbLine
 10
-182.8848688369859
 20
-22.49999999999984
 30
0.0
 11
-0.0000000000001137
 21
-22.49999999999984
 31
0.0
1001
GENIUS_GENBLLY_14
1000
BOR2
  0
LINE
  5
5597
330
558F
100
AcDbEntity
  8
0
100
AcDbLine
 10
-182.8848688369859
 20
-26.99999999999984
 30
0.0
 11
-182.8848688369859
 21
-22.49999999999984
 31
0.0
  0
LINE
  5
5598
330
558F
100
AcDbEntity
  8
AM_BOR
 62
     1
100
AcDbLine
 10
-171.8848688369859
 20
-22.4999999999998
 30
0.0
 11
-171.8848688369859
 21
-26.9999999999998
 31
0.0
1001
GENIUS_GENBLLY_14
1000
BOR2
  0
LINE
  5
5599
330
558F
100
AcDbEntity
  8
AM_BOR
 62
     1
100
AcDbLine
 10
-159.8848688369859
 20
-22.49999999999984
 30
0.0
 11
-159.8848688369859
 21
-26.99999999999984
 31
0.0
1001
GENIUS_GENBLLY_14
1000
BOR2
  0
LINE
  5
559A
330
558F
100
AcDbEntity
  8
AM_BOR
 62
     1
100
AcDbLine
 10
-99.16415352220639
 20
-22.49999999999985
 30
0.0
 11
-99.16415352220639
 21
-26.99999999999984
 31
0.0
1001
GENIUS_GENBLLY_14
1000
BOR2
  0
LINE
  5
559B
330
558F
100
AcDbEntity
  8
AM_BOR
 62
     1
100
AcDbLine
 10
-42.51312267027486
 20
-22.49999999999987
 30
0.0
 11
-42.51312267027486
 21
-26.99999999999984
 31
0.0
1001
GENIUS_GENBLLY_14
1000
BOR2
  0
LINE
  5
559C
330
558F
100
AcDbEntity
  8
0
100
AcDbLine
 10
-0.0000000000000568
 20
-22.49999999999988
 30
0.0
 11
-0.0000000000000568
 21
-26.99999999999984
 31
0.0
  0
ENDBLK
  5
559E
330
558F
100
AcDbEntity
  8
0
100
AcDbBlockEnd
  0
BLOCK
  5
55B2
330
559F
100
AcDbEntity
  8
0
100
AcDbBlockBegin
  2
GENTPOS
 70
     2
 10
0.0
 20
0.0
 30
0.0
  3
GENTPOS
  1

  0
ATTDEF
  5
55A0
330
559F
100
AcDbEntity
  8
0
100
AcDbText
 10
0.0
 20
9.0
 30
0.0
 40
2.5
  1
4
100
AcDbAttributeDefinition
  3

  2
_ALWAYS
 70
     3
  0
INSERT
  5
55A1
330
559F
100
AcDbEntity
  8
0
100
AcDbBlockReference
  2
GENTPOS0
 10
0.0
 20
0.0
 30
0.0
  0
INSERT
  5
55A2
330
559F
100
AcDbEntity
  8
0
100
AcDbBlockReference
 66
     1
  2
GENTPOS1
 10
0.0000000000000015
 20
9.0
 30
0.0
  0
ATTRIB
  5
55A3
330
55A2
100
AcDbEntity
  8
AM_BOR
 62
     2
100
AcDbText
 10
-42.51312267027481
 20
9.0
 30
0.0
 40
2.0
  1

100
AcDbAttribute
  2
3GENST{6.3}
 70
     0
1001
GENIUS_GENBLLY_14
1000
BOR3
  0
ATTRIB
  5
55A4
330
55A2
100
AcDbEntity
  8
AM_BOR
 62
     2
100
AcDbText
 10
-99.16415352220633
 20
9.000000000000028
 30
0.0
 40
2.0
  1

100
AcDbAttribute
  2
1GENST{7.6}
 70
     0
1001
GENIUS_GENBLLY_14
1000
BOR3
  0
ATTRIB
  5
55A5
330
55A2
100
AcDbEntity
  8
AM_BOR
 62
     2
100
AcDbText
 10
-145.5207488793445
 20
10.46281712107398
 30
0.0
 40
2.0
  1

100
AcDbAttribute
  2
5GENST{22.7}
 70
     0
1001
GENIUS_GENBLLY_14
1000
BOR3
  0
ATTRIB
  5
55A6
330
55A2
100
AcDbEntity
  8
AM_BOR
 62
     2
100
AcDbText
 10
-146.4548688369858
 20
9.0
 30
0.0
 40
2.0
  1

100
AcDbAttribute
  2
2GENST{5.3}
 70
     0
1001
GENIUS_GENBLLY_14
1000
BOR3
  0
ATTRIB
  5
55A7
330
55A2
100
AcDbEntity
  8
AM_BOR
 62
     2
100
AcDbText
 10
-98.30654456084836
 20
10.46284671787026
 30
0.0
 40
2.0
  1

100
AcDbAttribute
  2
7GENST{27.5}
 70
     0
1001
GENIUS_GENBLLY_14
1000
BOR3
  0
ATTRIB
  5
55A8
330
55A2
100
AcDbEntity
  8
AM_BOR
 62
     2
100
AcDbText
 10
-41.18880055791851
 20
10.45356305548622
 30
0.0
 40
2.0
  1

100
AcDbAttribute
  2
9GENST{20.2}
 70
     0
1001
GENIUS_GENBLLY_14
1000
BOR3
  0
SEQEND
  5
55A9
330
55A2
100
AcDbEntity
  8
0
  0
INSERT
  5
55AA
330
559F
100
AcDbEntity
  8
0
100
AcDbBlockReference
 66
     1
  2
GENTPOS2
 10
0.0000000000000583
 20
40.50000000000001
 30
0.0
  0
ATTRIB
  5
55AB
330
55AA
100
AcDbEntity
  8
AM_BOR
 62
     2
100
AcDbText
 10
-181.9880496049754
 20
14.82098592906322
 30
0.0
 40
2.0
  1

100
AcDbAttribute
  2
ITEM
 70
     0
  0
ATTRIB
  5
55AC
330
55AA
100
AcDbEntity
  8
AM_BOR
 62
     2
100
AcDbText
 10
-170.9880496049754
 20
14.82098592906326
 30
0.0
 40
2.0
  1

100
AcDbAttribute
  2
QTY
 70
     0
  0
ATTRIB
  5
55AD
330
55AA
100
AcDbEntity
  8
AM_BOR
 62
     2
100
AcDbText
 10
-158.9880496049754
 20
14.82098592906322
 30
0.0
 40
2.0
  1

100
AcDbAttribute
  2
5GENST{22.7}
 70
     0
  0
ATTRIB
  5
55AE
330
55AA
100
AcDbEntity
  8
AM_BOR
 62
     2
100
AcDbText
 10
-98.12709024845231
 20
14.8210155258595
 30
0.0
 40
2.0
  1

100
AcDbAttribute
  2
7GENST{27.5}
 70
     0
  0
ATTRIB
  5
55AF
330
55AA
100
AcDbEntity
  8
AM_BOR
 62
     2
100
AcDbText
 10
-41.35543670514505
 20
15.01597243592428
 30
0.0
 40
2.0
  1

100
AcDbAttribute
  2
9GENST{20.2}
 70
     0
  0
ATTRIB
  5
55B0
330
55AA
100
AcDbEntity
  8
AM_BOR
 62
     2
100
AcDbText
 10
-2.000000000000055
 20
14.95356305548639
 30
0.0
 40
2.0
  1

 72
     2
 11
-2.000000000000055
 21
14.95356305548639
 31
0.0
100
AcDbAttribute
  2
DIM
 70
     0
  0
SEQEND
  5
55B1
330
55AA
100
AcDbEntity
  8
0
  0
ENDBLK
  5
55B3
330
559F
100
AcDbEntity
  8
0
100
AcDbBlockEnd
  0
BLOCK
  5
55C8
330
55C6
100
AcDbEntity
  8
0
100
AcDbBlockBegin
  2
GENAXEH
 70
     0
 10
0.0
 20
0.0
 30
0.0
  3
GENAXEH
  1

  0
LINE
  5
55C7
330
55C6
100
AcDbEntity
  8
0
100
AcDbLine
 10
-1.0
 20
0.0
 30
0.0
 11
1.0
 21
0.0
 31
0.0
  0
ENDBLK
  5
55C9
330
55C6
100
AcDbEntity
  8
0
100
AcDbBlockEnd
  0
ENDSEC
  0
SECTION
  2
ENTITIES
  0
LINE
  5
2AB2
330
18
100
AcDbEntity
  8
MSL-115-R32-S-0
100
AcDbLine
 10
1124.67538139326
 20
503.7719190962489
 30
0.0
 11
904.6753813932607
 21
503.7719190962495
 31
0.0
  0
LINE
  5
2AB3
330
18
100
AcDbEntity
  8
MSL-115-R32-S-0
100
AcDbLine
 10
1124.67538139326
 20
583.7719190962489
 30
0.0
 11
904.6753813932607
 21
583.7719190962495
 31
0.0
  0
LINE
  5
2AB4
330
18
100
AcDbEntity
  8
MSL-115-R32-S-0
100
AcDbLine
 10
1124.67538139326
 20
638.2719190962493
 30
0.0
 11
904.6753813932607
 21
638.2719190962496
 31
0.0
  0
LINE
  5
2AB5
330
18
100
AcDbEntity
  8
MSL-115-R32-S-0
100
AcDbLine
 10
904.6753813932607
 20
558.7719190962495
 30
0.0
 11
1124.67538139326
 21
558.7719190962493
 31
0.0
  0
LINE
  5
2AB6
330
18
100
AcDbEntity
  8
MSL-115-R32-S-0
100
AcDbLine
 10
904.6753813932607
 20
504.2719190962495
 30
0.0
 11
1124.67538139326
 21
504.2719190962489
 31
0.0
  0
LINE
  5
2AB7
330
18
100
AcDbEntity
  8
MSL-115-R32-S-0
100
AcDbLine
 10
904.6753813932607
 20
638.7719190962496
 30
0.0
 11
1124.67538139326
 21
638.7719190962489
 31
0.0
  0
LINE
  5
2AB8
330
18
100
AcDbEntity
  8
MSL-115-R32-S-0
100
AcDbLine
 10
1232.17538139326
 20
741.015962874174
 30
0.0
 11
897.1753813932608
 21
741.015962874174
 31
0.0
  0
LINE
  5
2AB9
330
18
100
AcDbEntity
  8
MSL-115-R32-S-0
100
AcDbLine
 10
1232.17538139326
 20
675.0159628741739
 30
0.0
 11
897.1753813932608
 21
675.0159628741742
 31
0.0
  0
LINE
  5
2ABA
330
18
100
AcDbEntity
  8
MSL-115-R32-S-0
100
AcDbLine
 10
1232.17538139326
 20
737.015962874174
 30
0.0
 11
897.1753813932608
 21
737.015962874174
 31
0.0
  0
LINE
  5
2ABB
330
18
100
AcDbEntity
  8
MSL-115-R32-S-0
100
AcDbLine
 10
897.1753813932608
 20
691.511497874174
 30
0.0
 11
1232.17538139326
 21
691.511497874174
 31
0.0
  0
LINE
  5
2ABC
330
18
100
AcDbEntity
  8
MSL-115-R32-S-0
100
AcDbLine
 10
1080.52538139326
 20
757.2159628741738
 30
0.0
 11
948.8253813932608
 21
757.2159628741738
 31
0.0
  0
LINE
  5
2ABD
330
18
100
AcDbEntity
  8
MSL-115-R32-S-0
100
AcDbLine
 10
1232.17538139326
 20
742.0159628741741
 30
0.0
 11
897.1753813932608
 21
742.0159628741741
 31
0.0
  0
LINE
  5
2ABE
330
18
100
AcDbEntity
  8
MSL-115-R32-S-0
100
AcDbLine
 10
904.6753813932607
 20
790.0159628741736
 30
0.0
 11
1124.675381393261
 21
790.015962874174
 31
0.0
  0
LINE
  5
2ABF
330
18
100
AcDbEntity
  8
MSL-115-R32-S-0
100
AcDbLine
 10
1124.67538139326
 20
765.015962874174
 30
0.0
 11
904.6753813932607
 21
765.0159628741736
 31
0.0
  0
LINE
  5
2AC0
330
18
100
AcDbEntity
  8
MSL-115-R32-S-0
100
AcDbLine
 10
1124.675381393261
 20
789.515962874174
 30
0.0
 11
904.6753813932607
 21
789.5159628741736
 31
0.0
  0
LINE
  5
2AC1
330
18
100
AcDbEntity
  8
MSL-115-R32-S-0
100
AcDbLine
 10
948.8253813932608
 20
762.2559628741747
 30
0.0
 11
1080.52538139326
 21
762.2559628741742
 31
0.0
  0
LINE
  5
2AC2
330
18
100
AcDbEntity
  8
MSL-115-R32-S-0
100
AcDbLine
 10
994.6753813932607
 20
759.7559628741743
 30
0.0
 11
1034.67538139326
 21
759.7559628741743
 31
0.0
  0
ARC
  5
2AC7
330
18
100
AcDbEntity
  8
MSL-115-R32-S-0
100
AcDbCircle
 10
869.4865565583151
 20
570.5085042315308
 30
0.0
 40
48.76341486471867
100
AcDbArc
 50
63.59400307457086
 51
89.19062131672806
  0
LINE
  5
2AC8
330
18
100
AcDbEntity
  8
MSL-115-R32-S-0
100
AcDbLine
 10
850.1753813932607
 20
510.7719190962495
 30
0.0
 11
850.1753813932607
 21
631.7719190962495
 31
0.0
  0
LINE
  5
2AC9
330
18
100
AcDbEntity
  8
MSL-115-R32-S-0
100
AcDbLine
 10
870.1753813932608
 20
510.7719190962495
 30
0.0
 11
870.1753813932608
 21
631.7719190962495
 31
0.0
  0
LINE
  5
2ACA
330
18
100
AcDbEntity
  8
MSL-115-R32-S-0
100
AcDbLine
 10
822.1753813932608
 20
633.7719190962495
 30
0.0
 11
822.1753813932608
 21
508.7719190962495
 31
0.0
  0
LINE
  5
2ACB
330
18
100
AcDbEntity
  8
MSL-115-R32-S-0
100
AcDbLine
 10
896.6753813932607
 20
637.2719190962495
 30
0.0
 11
896.6753813932607
 21
505.2719190962496
 31
0.0
  0
LINE
  5
2AD0
330
18
100
AcDbEntity
  8
MSL-115-R32-S-0
100
AcDbLine
 10
904.6753813932607
 20
581.2719190962496
 30
0.0
 11
904.6753813932607
 21
638.2719190962496
 31
0.0
  0
ARC
  5
2AD5
330
18
100
AcDbEntity
  8
MSL-115-R32-S-0
100
AcDbCircle
 10
869.4865565583151
 20
572.0353339609678
 30
0.0
 40
48.76341486471868
100
AcDbArc
 50
270.8093786832719
 51
296.4059969254291
  0
ARC
  5
2AD6
330
18
100
AcDbEntity
  8
MSL-115-R32-S-0
100
AcDbCircle
 10
869.4865565583151
 20
494.5085042315304
 30
0.0
 40
48.76341486471867
100
AcDbArc
 50
63.59400307457086
 51
89.19062131672806
  0
ARC
  5
2AD7
330
18
100
AcDbEntity
  8
MSL-115-R32-S-0
100
AcDbCircle
 10
869.4865565583151
 20
532.5085042315309
 30
0.0
 40
48.76341486471868
100
AcDbArc
 50
63.59400307457086
 51
89.19062131672806
  0
ARC
  5
2AD8
330
18
100
AcDbEntity
  8
MSL-115-R32-S-0
100
AcDbCircle
 10
869.4865565583151
 20
610.0353339609678
 30
0.0
 40
48.76341486471868
100
AcDbArc
 50
270.8093786832719
 51
296.4059969254291
  0
ARC
  5
2AD9
330
18
100
AcDbEntity
  8
MSL-115-R32-S-0
100
AcDbCircle
 10
869.4865565583151
 20
648.0353339609678
 30
0.0
 40
48.76341486471868
100
AcDbArc
 50
270.8093786832719
 51
296.4059969254291
  0
LINE
  5
2ADA
330
18
100
AcDbEntity
  8
MSL-115-R32-S-0
100
AcDbLine
 10
870.1753813932608
 20
508.7719190962495
 30
0.0
 11
896.6753813932607
 21
508.7719190962495
 31
0.0
  0
LINE
  5
2ADB
330
18
100
AcDbEntity
  8
MSL-115-R32-S-0
100
AcDbLine
 10
822.1753813932608
 20
508.7719190962495
 30
0.0
 11
850.1753813932607
 21
508.7719190962495
 31
0.0
  0
LINE
  5
2ADC
330
18
100
AcDbEntity
  8
MSL-115-R32-S-0
100
AcDbLine
 10
850.1753813932607
 20
510.7719190962495
 30
0.0
 11
870.1753813932608
 21
510.7719190962495
 31
0.0
  0
LINE
  5
2ADD
330
18
100
AcDbEntity
  8
MSL-115-R32-S-0
100
AcDbLine
 10
870.1753813932608
 20
508.7719190962495
 30
0.0
 11
850.1753813932607
 21
508.7719190962495
 31
0.0
  0
LINE
  5
2ADE
330
18
100
AcDbEntity
  8
MSL-115-R32-S-0
100
AcDbLine
 10
850.1753813932607
 20
508.7719190962495
 30
0.0
 11
850.1753813932607
 21
510.7719190962495
 31
0.0
  0
LINE
  5
2ADF
330
18
100
AcDbEntity
  8
MSL-115-R32-S-0
100
AcDbLine
 10
870.1753813932608
 20
510.7719190962495
 30
0.0
 11
870.1753813932608
 21
508.7719190962495
 31
0.0
  0
CIRCLE
  5
2AE0
330
18
100
AcDbEntity
  8
MSL-115-R32-S-0
100
AcDbCircle
 10
860.1753813932608
 20
541.2719190962493
 30
0.0
 40
5.5
  0
CIRCLE
  5
2AE1
330
18
100
AcDbEntity
  8
MSL-115-R32-S-0
100
AcDbCircle
 10
860.1753813932608
 20
541.2719190962493
 30
0.0
 40
5.0
  0
LINE
  5
2AE2
330
18
100
AcDbEntity
  8
MSL-115-R32-S-0
100
AcDbLine
 10
861.6187570662347
 20
538.7719190962496
 30
0.0
 11
863.0621327392089
 21
541.2719190962495
 31
0.0
  0
LINE
  5
2AE3
330
18
100
AcDbEntity
  8
MSL-115-R32-S-0
100
AcDbLine
 10
857.2886300473125
 20
541.2719190962495
 30
0.0
 11
858.7320057202866
 21
538.7719190962496
 31
0.0
  0
LINE
  5
2AE4
330
18
100
AcDbEntity
  8
MSL-115-R32-S-0
100
AcDbLine
 10
858.7320057202866
 20
538.7719190962496
 30
0.0
 11
861.6187570662347
 21
538.7719190962496
 31
0.0
  0
LINE
  5
2AE5
330
18
100
AcDbEntity
  8
MSL-115-R32-S-0
100
AcDbLine
 10
863.0621327392089
 20
541.2719190962495
 30
0.0
 11
861.6187570662347
 21
543.7719190962496
 31
0.0
  0
LINE
  5
2AE6
330
18
100
AcDbEntity
  8
MSL-115-R32-S-0
100
AcDbLine
 10
858.7320057202866
 20
543.7719190962496
 30
0.0
 11
857.2886300473125
 21
541.2719190962495
 31
0.0
  0
LINE
  5
2AE7
330
18
100
AcDbEntity
  8
MSL-115-R32-S-0
100
AcDbLine
 10
861.6187570662347
 20
543.7719190962496
 30
0.0
 11
858.7320057202866
 21
543.7719190962496
 31
0.0
  0
CIRCLE
  5
2AE8
330
18
100
AcDbEntity
  8
MSL-115-R32-S-0
100
AcDbCircle
 10
860.1753813932608
 20
601.2719190962493
 30
0.0
 40
5.0
  0
CIRCLE
  5
2AE9
330
18
100
AcDbEntity
  8
MSL-115-R32-S-0
100
AcDbCircle
 10
860.1753813932608
 20
601.2719190962493
 30
0.0
 40
5.5
  0
LINE
  5
2AEA
330
18
100
AcDbEntity
  8
MSL-115-R32-S-0
100
AcDbLine
 10
858.7320057202866
 20
603.7719190962495
 30
0.0
 11
857.2886300473125
 21
601.2719190962496
 31
0.0
  0
LINE
  5
2AEB
330
18
100
AcDbEntity
  8
MSL-115-R32-S-0
100
AcDbLine
 10
861.6187570662347
 20
598.7719190962495
 30
0.0
 11
863.0621327392089
 21
601.2719190962496
 31
0.0
  0
LINE
  5
2AEC
330
18
100
AcDbEntity
  8
MSL-115-R32-S-0
100
AcDbLine
 10
863.0621327392089
 20
601.2719190962496
 30
0.0
 11
861.6187570662347
 21
603.7719190962495
 31
0.0
  0
LINE
  5
2AED
330
18
100
AcDbEntity
  8
MSL-115-R32-S-0
100
AcDbLine
 10
857.2886300473125
 20
601.2719190962496
 30
0.0
 11
858.7320057202866
 21
598.7719190962495
 31
0.0
  0
LINE
  5
2AEE
330
18
100
AcDbEntity
  8
MSL-115-R32-S-0
100
AcDbLine
 10
858.7320057202866
 20
598.7719190962495
 30
0.0
 11
861.6187570662347
 21
598.7719190962495
 31
0.0
  0
LINE
  5
2AEF
330
18
100
AcDbEntity
  8
MSL-115-R32-S-0
100
AcDbLine
 10
861.6187570662347
 20
603.7719190962495
 30
0.0
 11
858.7320057202866
 21
603.7719190962495
 31
0.0
  0
LINE
  5
2AF0
330
18
100
AcDbEntity
  8
MSL-115-R32-S-0
100
AcDbLine
 10
904.6753813932607
 20
504.2719190962495
 30
0.0
 11
904.6753813932607
 21
561.2719190962495
 31
0.0
  0
LINE
  5
2AF3
330
18
100
AcDbEntity
  8
MSL-115-R32-S-0
100
AcDbLine
 10
891.1730577474797
 20
538.1841987931632
 30
0.0
 11
891.1730577474797
 21
528.3596393993355
 31
0.0
  0
ARC
  5
2AF4
330
18
100
AcDbEntity
  8
MSL-115-R32-S-0
100
AcDbCircle
 10
888.6555835624534
 20
533.2719190962493
 30
0.0
 40
5.519797830807496
100
AcDbArc
 50
297.1345007562882
 51
62.86549924371168
  0
LINE
  5
2AF5
330
18
100
AcDbEntity
  8
MSL-115-R32-S-0
100
AcDbLine
 10
896.6753813932607
 20
505.2719190962496
 30
0.0
 11
904.6753813932607
 21
505.2719190962496
 31
0.0
  0
LINE
  5
2AF6
330
18
100
AcDbEntity
  8
MSL-115-R32-S-0
100
AcDbLine
 10
904.6753813932607
 20
504.2719190962495
 30
0.0
 11
896.6753813932607
 21
504.2719190962495
 31
0.0
  0
LINE
  5
2AF7
330
18
100
AcDbEntity
  8
MSL-115-R32-S-0
100
AcDbLine
 10
896.6753813932607
 20
504.2719190962495
 30
0.0
 11
896.6753813932607
 21
505.2719190962496
 31
0.0
  0
LINE
  5
2AF8
330
18
100
AcDbEntity
  8
MSL-115-R32-S-0
100
AcDbLine
 10
904.6753813932607
 20
503.7719190962495
 30
0.0
 11
904.6753813932607
 21
504.2719190962495
 31
0.0
  0
LINE
  5
2B03
330
18
100
AcDbEntity
  8
MSL-115-R32-S-0
100
AcDbLine
 10
891.1730577474797
 20
576.1841987931632
 30
0.0
 11
891.1730577474797
 21
566.3596393993355
 31
0.0
  0
ARC
  5
2B04
330
18
100
AcDbEntity
  8
MSL-115-R32-S-0
100
AcDbCircle
 10
888.6555835624534
 20
571.2719190962493
 30
0.0
 40
5.519797830807495
100
AcDbArc
 50
297.1345007562882
 51
62.86549924371168
  0
LINE
  5
2B05
330
18
100
AcDbEntity
  8
MSL-115-R32-S-0
100
AcDbLine
 10
904.6753813932607
 20
581.2719190962496
 30
0.0
 11
904.6753813932607
 21
561.2719190962495
 31
0.0
  0
LINE
  5
2B06
330
18
100
AcDbEntity
  8
MSL-115-R32-S-0
100
AcDbLine
 10
904.6753813932607
 20
561.2719190962495
 30
0.0
 11
904.6753813932607
 21
581.2719190962496
 31
0.0
  0
LINE
  5
2B07
330
18
100
AcDbEntity
  8
MSL-115-R32-S-0
100
AcDbLine
 10
891.1730577474797
 20
614.1841987931631
 30
0.0
 11
891.1730577474797
 21
604.3596393993355
 31
0.0
  0
ARC
  5
2B08
330
18
100
AcDbEntity
  8
MSL-115-R32-S-0
100
AcDbCircle
 10
888.6555835624534
 20
609.2719190962493
 30
0.0
 40
5.519797830807496
100
AcDbArc
 50
297.1345007562882
 51
62.86549924371168
  0
LINE
  5
2B09
330
18
100
AcDbEntity
  8
MSL-115-R32-S-7A
100
AcDbLine
 10
864.6753813932607
 20
689.0159628741745
 30
0.0
 11
864.6753813932607
 21
735.0159628741745
 31
0.0
  0
LINE
  5
2B0A
330
18
100
AcDbEntity
  8
MSL-115-R32-S-0
100
AcDbLine
 10
897.1753813932608
 20
767.5159628741745
 30
0.0
 11
897.1753813932608
 21
675.5159628741746
 31
0.0
  0
LINE
  5
2B0B
330
18
100
AcDbEntity
  8
MSL-115-R32-S-0
100
AcDbLine
 10
822.1753813932608
 20
767.5159628741745
 30
0.0
 11
822.1753813932608
 21
675.5159628741746
 31
0.0
  0
CIRCLE
  5
2B0C
330
18
100
AcDbEntity
  8
MSL-115-R32-S-0
100
AcDbCircle
 10
864.6753813932608
 20
712.0159628741745
 30
0.0
 40
21.0
  0
LINE
  5
2B0D
330
18
100
AcDbEntity
  8
MSL-115-R32-S-7A
100
AcDbLine
 10
841.6753813932608
 20
712.0159628741745
 30
0.0
 11
887.6753813932607
 21
712.0159628741745
 31
0.0
  0
LINE
  5
2B0E
330
18
100
AcDbEntity
  8
MSL-115-R32-S-0
100
AcDbLine
 10
870.1753813932608
 20
633.7719190962495
 30
0.0
 11
896.6753813932607
 21
633.7719190962495
 31
0.0
  0
LINE
  5
2B0F
330
18
100
AcDbEntity
  8
MSL-115-R32-S-0
100
AcDbLine
 10
822.1753813932608
 20
675.5159628741746
 30
0.0
 11
897.1753813932608
 21
675.5159628741746
 31
0.0
  0
LINE
  5
2B10
330
18
100
AcDbEntity
  8
MSL-115-R32-S-0
100
AcDbLine
 10
822.1753813932608
 20
633.7719190962495
 30
0.0
 11
850.1753813932607
 21
633.7719190962495
 31
0.0
  0
LINE
  5
2B11
330
18
100
AcDbEntity
  8
MSL-115-R32-S-0
100
AcDbLine
 10
850.1753813932607
 20
631.7719190962495
 30
0.0
 11
850.1753813932607
 21
633.7719190962495
 31
0.0
  0
LINE
  5
2B12
330
18
100
AcDbEntity
  8
MSL-115-R32-S-0
100
AcDbLine
 10
870.1753813932608
 20
633.7719190962495
 30
0.0
 11
870.1753813932608
 21
631.7719190962495
 31
0.0
  0
LINE
  5
2B13
330
18
100
AcDbEntity
  8
MSL-115-R32-S-0
100
AcDbLine
 10
870.1753813932608
 20
631.7719190962495
 30
0.0
 11
850.1753813932607
 21
631.7719190962495
 31
0.0
  0
LINE
  5
2B14
330
18
100
AcDbEntity
  8
MSL-115-R32-S-0
100
AcDbLine
 10
850.1753813932607
 20
633.7719190962495
 30
0.0
 11
870.1753813932608
 21
633.7719190962495
 31
0.0
  0
LINE
  5
2B15
330
18
100
AcDbEntity
  8
MSL-115-R32-S-7A
100
AcDbLine
 10
833.6753813932608
 20
687.0159628741745
 30
0.0
 11
845.6753813932607
 21
687.0159628741745
 31
0.0
  0
CIRCLE
  5
2B16
330
18
100
AcDbEntity
  8
MSL-115-R32-S-0
100
AcDbCircle
 10
839.6753813932608
 20
687.0159628741745
 30
0.0
 40
3.399999999999999
  0
ARC
  5
2B17
330
18
100
AcDbEntity
  8
MSL-115-R32-S-5
100
AcDbCircle
 10
839.6753813932608
 20
687.0159628741745
 30
0.0
 40
4.0
100
AcDbArc
 50
255.0000000000055
 51
195.0000000000007
  0
LINE
  5
2B18
330
18
100
AcDbEntity
  8
MSL-115-R32-S-7A
100
AcDbLine
 10
839.6753813932607
 20
681.0159628741745
 30
0.0
 11
839.6753813932607
 21
693.0159628741745
 31
0.0
  0
ARC
  5
2B19
330
18
100
AcDbEntity
  8
MSL-115-R32-S-0
100
AcDbCircle
 10
864.6753813932608
 20
712.015962874175
 30
0.0
 40
9.5
100
AcDbArc
 50
108.4084801705832
 51
71.59151982941667
  0
LINE
  5
2B1A
330
18
100
AcDbEntity
  8
MSL-115-R32-S-0
100
AcDbLine
 10
861.6753813932607
 20
724.3159628741747
 30
0.0
 11
867.6753813932608
 21
724.3159628741747
 31
0.0
  0
LINE
  5
2B1B
330
18
100
AcDbEntity
  8
MSL-115-R32-S-0
100
AcDbLine
 10
861.6753813932607
 20
721.0298410628344
 30
0.0
 11
861.6753813932607
 21
724.3159628741747
 31
0.0
  0
LINE
  5
2B1C
330
18
100
AcDbEntity
  8
MSL-115-R32-S-0
100
AcDbLine
 10
867.6753813932608
 20
724.3159628741747
 30
0.0
 11
867.6753813932608
 21
721.0298410628344
 31
0.0
  0
LINE
  5
2B1D
330
18
100
AcDbEntity
  8
MSL-115-R32-S-0
100
AcDbLine
 10
896.6753813932607
 20
638.2719190962496
 30
0.0
 11
904.6753813932607
 21
638.2719190962496
 31
0.0
  0
LINE
  5
2B1E
330
18
100
AcDbEntity
  8
MSL-115-R32-S-0
100
AcDbLine
 10
904.6753813932607
 20
637.2719190962495
 30
0.0
 11
896.6753813932607
 21
637.2719190962495
 31
0.0
  0
LINE
  5
2B1F
330
18
100
AcDbEntity
  8
MSL-115-R32-S-0
100
AcDbLine
 10
896.6753813932607
 20
637.2719190962495
 30
0.0
 11
896.6753813932607
 21
638.2719190962496
 31
0.0
  0
LINE
  5
2B20
330
18
100
AcDbEntity
  8
MSL-115-R32-S-0
100
AcDbLine
 10
904.6753813932607
 20
638.2719190962496
 30
0.0
 11
904.6753813932607
 21
638.7719190962496
 31
0.0
  0
LINE
  5
2B22
330
18
100
AcDbEntity
  8
MSL-115-R32-S-7A
100
AcDbLine
 10
889.6753813932607
 20
681.0159628741745
 30
0.0
 11
889.6753813932607
 21
693.0159628741745
 31
0.0
  0
LINE
  5
2B23
330
18
100
AcDbEntity
  8
MSL-115-R32-S-0
100
AcDbLine
 10
897.1753813932608
 20
675.0159628741742
 30
0.0
 11
897.1753813932608
 21
691.3114978741742
 31
0.0
  0
LINE
  5
2B24
330
18
100
AcDbEntity
  8
MSL-115-R32-S-7A
100
AcDbLine
 10
883.6753813932608
 20
687.0159628741745
 30
0.0
 11
895.6753813932607
 21
687.0159628741745
 31
0.0
  0
CIRCLE
  5
2B25
330
18
100
AcDbEntity
  8
MSL-115-R32-S-0
100
AcDbCircle
 10
889.6753813932608
 20
687.0159628741745
 30
0.0
 40
3.399999999999999
  0
ARC
  5
2B26
330
18
100
AcDbEntity
  8
MSL-115-R32-S-5
100
AcDbCircle
 10
889.6753813932608
 20
687.0159628741745
 30
0.0
 40
4.0
100
AcDbArc
 50
255.0000000000055
 51
195.0000000000007
  0
LINE
  5
2B27
330
18
100
AcDbEntity
  8
MSL-115-R32-S-0
100
AcDbLine
 10
822.1753813932608
 20
767.5159628741745
 30
0.0
 11
897.1753813932608
 21
767.5159628741745
 31
0.0
  0
ARC
  5
2B28
330
18
100
AcDbEntity
  8
MSL-115-R32-S-0
100
AcDbCircle
 10
869.4865565583151
 20
739.252548009456
 30
0.0
 40
48.76341486471868
100
AcDbArc
 50
63.59400307457086
 51
89.19062131672806
  0
ARC
  5
2B29
330
18
100
AcDbEntity
  8
MSL-115-R32-S-0
100
AcDbCircle
 10
869.4865565583151
 20
816.7793777388935
 30
0.0
 40
48.76341486471868
100
AcDbArc
 50
270.8093786832719
 51
296.4059969254291
  0
LINE
  5
2B2A
330
18
100
AcDbEntity
  8
MSL-115-R32-S-0
100
AcDbLine
 10
850.1753813932607
 20
767.5159628741745
 30
0.0
 11
850.1753813932607
 21
786.5159628741745
 31
0.0
  0
LINE
  5
2B2B
330
18
100
AcDbEntity
  8
MSL-115-R32-S-0
100
AcDbLine
 10
870.1753813932608
 20
767.5159628741745
 30
0.0
 11
870.1753813932608
 21
786.5159628741745
 31
0.0
  0
LINE
  5
2B2C
330
18
100
AcDbEntity
  8
MSL-115-R32-S-7A
100
AcDbLine
 10
833.6753813932608
 20
737.0159628741745
 30
0.0
 11
845.6753813932607
 21
737.0159628741745
 31
0.0
  0
CIRCLE
  5
2B2D
330
18
100
AcDbEntity
  8
MSL-115-R32-S-0
100
AcDbCircle
 10
839.6753813932608
 20
737.0159628741745
 30
0.0
 40
3.399999999999999
  0
ARC
  5
2B2E
330
18
100
AcDbEntity
  8
MSL-115-R32-S-5
100
AcDbCircle
 10
839.6753813932608
 20
737.0159628741745
 30
0.0
 40
4.0
100
AcDbArc
 50
255.0000000000055
 51
195.0000000000007
  0
LINE
  5
2B2F
330
18
100
AcDbEntity
  8
MSL-115-R32-S-7A
100
AcDbLine
 10
839.6753813932607
 20
731.0159628741745
 30
0.0
 11
839.6753813932607
 21
743.0159628741745
 31
0.0
  0
LINE
  5
2B30
330
18
100
AcDbEntity
  8
MSL-115-R32-S-0
100
AcDbLine
 10
870.1753813932608
 20
767.5159628741745
 30
0.0
 11
850.1753813932607
 21
767.5159628741745
 31
0.0
  0
LINE
  5
2B31
330
18
100
AcDbEntity
  8
MSL-115-R32-S-0
100
AcDbLine
 10
870.1753813932608
 20
786.5159628741745
 30
0.0
 11
850.1753813932607
 21
786.5159628741745
 31
0.0
  0
LINE
  5
2B32
330
18
100
AcDbEntity
  8
MSL-115-R32-S-0
100
AcDbLine
 10
850.1753813932607
 20
788.5159628741745
 30
0.0
 11
870.1753813932608
 21
788.5159628741745
 31
0.0
  0
LINE
  5
2B33
330
18
100
AcDbEntity
  8
MSL-115-R32-S-0
100
AcDbLine
 10
850.1753813932607
 20
786.5159628741745
 30
0.0
 11
850.1753813932607
 21
788.5159628741745
 31
0.0
  0
LINE
  5
2B34
330
18
100
AcDbEntity
  8
MSL-115-R32-S-0
100
AcDbLine
 10
870.1753813932608
 20
788.5159628741745
 30
0.0
 11
870.1753813932608
 21
786.5159628741745
 31
0.0
  0
LINE
  5
2B35
330
18
100
AcDbEntity
  8
MSL-115-R32-S-7A
100
AcDbLine
 10
924.6753813932611
 20
795.8355744830361
 30
0.0
 11
924.6753813932611
 21
762.2559628741742
 31
0.0
  0
LINE
  5
2B36
330
18
100
AcDbEntity
  8
MSL-115-R32-S-7A
100
AcDbLine
 10
954.6753813932607
 20
795.8355744830361
 30
0.0
 11
954.6753813932607
 21
762.2559628741742
 31
0.0
  0
LINE
  5
2B37
330
18
100
AcDbEntity
  8
MSL-115-R32-S-7A
100
AcDbLine
 10
984.6753813932608
 20
795.8355744830361
 30
0.0
 11
984.6753813932608
 21
762.2559628741742
 31
0.0
  0
LINE
  5
2B38
330
18
100
AcDbEntity
  8
MSL-115-R32-S-7A
100
AcDbLine
 10
1014.67538139326
 20
795.8355744830361
 30
0.0
 11
1014.67538139326
 21
762.2559628741742
 31
0.0
  0
LINE
  5
2B39
330
18
100
AcDbEntity
  8
MSL-115-R32-S-0
100
AcDbLine
 10
904.6753813932607
 20
789.5159628741736
 30
0.0
 11
904.6753813932607
 21
765.0159628741736
 31
0.0
  0
LINE
  5
2B3A
330
18
100
AcDbEntity
  8
MSL-115-R32-S-0
100
AcDbLine
 10
896.6753813932607
 20
788.5159628741736
 30
0.0
 11
896.6753813932607
 21
770.5159628741736
 31
0.0
  0
LINE
  5
2B3B
330
18
100
AcDbEntity
  8
MSL-115-R32-S-0
100
AcDbLine
 10
994.6753813932607
 20
761.7559628741743
 30
0.0
 11
948.8253813932608
 21
761.7559628741743
 31
0.0
  0
LINE
  5
2B3C
330
18
100
AcDbEntity
  8
MSL-115-R32-S-0
100
AcDbLine
 10
915.8253813932608
 20
764.2159628741739
 30
0.0
 11
915.8253813932608
 21
748.5159628741736
 31
0.0
  0
LINE
  5
2B3D
330
18
100
AcDbEntity
  8
MSL-115-R32-S-0
100
AcDbLine
 10
941.5253813932606
 20
764.2159628741739
 30
0.0
 11
941.5253813932606
 21
748.5159628741736
 31
0.0
  0
LINE
  5
2B3E
330
18
100
AcDbEntity
  8
MSL-115-R32-S-0
100
AcDbLine
 10
948.8253813932608
 20
764.6159628741735
 30
0.0
 11
948.8253813932608
 21
748.0159628741736
 31
0.0
  0
LINE
  5
2B3F
330
18
100
AcDbEntity
  8
MSL-115-R32-S-0
100
AcDbLine
 10
908.5253813932606
 20
748.0159628741736
 30
0.0
 11
908.5253813932606
 21
764.6159628741735
 31
0.0
  0
LINE
  5
2B40
330
18
100
AcDbEntity
  8
MSL-115-R32-S-0
100
AcDbLine
 10
915.8253813932608
 20
748.0159628741736
 30
0.0
 11
908.5253813932606
 21
748.0159628741736
 31
0.0
  0
LINE
  5
2B41
330
18
100
AcDbEntity
  8
MSL-115-R32-S-0
100
AcDbLine
 10
948.6253813932606
 20
745.0159628741736
 30
0.0
 11
908.7253813932607
 21
745.0159628741736
 31
0.0
  0
LINE
  5
2B42
330
18
100
AcDbEntity
  8
MSL-115-R32-S-0
100
AcDbLine
 10
948.8253813932608
 20
745.2159628741739
 30
0.0
 11
908.5253813932606
 21
745.2159628741739
 31
0.0
  0
LINE
  5
2B43
330
18
100
AcDbEntity
  8
MSL-115-R32-S-7A
100
AcDbLine
 10
889.6753813932607
 20
731.0159628741745
 30
0.0
 11
889.6753813932607
 21
743.0159628741745
 31
0.0
  0
LINE
  5
2B44
330
18
100
AcDbEntity
  8
MSL-115-R32-S-0
100
AcDbLine
 10
897.1753813932608
 20
737.2159628741739
 30
0.0
 11
897.1753813932608
 21
741.015962874174
 31
0.0
  0
ARC
  5
2B45
330
18
100
AcDbEntity
  8
MSL-115-R32-S-5
100
AcDbCircle
 10
889.6753813932608
 20
737.0159628741745
 30
0.0
 40
4.0
100
AcDbArc
 50
255.0000000000055
 51
195.0000000000007
  0
LINE
  5
2B46
330
18
100
AcDbEntity
  8
MSL-115-R32-S-7A
100
AcDbLine
 10
883.6753813932608
 20
737.0159628741745
 30
0.0
 11
895.6753813932607
 21
737.0159628741745
 31
0.0
  0
CIRCLE
  5
2B47
330
18
100
AcDbEntity
  8
MSL-115-R32-S-0
100
AcDbCircle
 10
889.6753813932608
 20
737.0159628741745
 30
0.0
 40
3.399999999999999
  0
LINE
  5
2B48
330
18
100
AcDbEntity
  8
MSL-115-R32-S-0
100
AcDbLine
 10
908.5253813932606
 20
745.2159628741739
 30
0.0
 11
908.5253813932606
 21
748.0159628741736
 31
0.0
  0
LINE
  5
2B49
330
18
100
AcDbEntity
  8
MSL-115-R32-S-0
100
AcDbLine
 10
908.7253813932607
 20
745.0159628741736
 30
0.0
 11
908.7253813932607
 21
745.2159628741739
 31
0.0
  0
LINE
  5
2B4A
330
18
100
AcDbEntity
  8
MSL-115-R32-S-0
100
AcDbLine
 10
941.5253813932606
 20
748.5159628741736
 30
0.0
 11
915.8253813932608
 21
748.5159628741736
 31
0.0
  0
LINE
  5
2B4B
330
18
100
AcDbEntity
  8
MSL-115-R32-S-0
100
AcDbLine
 10
915.8253813932608
 20
748.5159628741736
 30
0.0
 11
915.8253813932608
 21
748.0159628741736
 31
0.0
  0
LINE
  5
2B4C
330
18
100
AcDbEntity
  8
MSL-115-R32-S-0
100
AcDbLine
 10
948.8253813932608
 20
748.0159628741736
 30
0.0
 11
948.8253813932608
 21
745.2159628741739
 31
0.0
  0
LINE
  5
2B4D
330
18
100
AcDbEntity
  8
MSL-115-R32-S-0
100
AcDbLine
 10
948.6253813932606
 20
745.2159628741739
 30
0.0
 11
948.6253813932606
 21
745.0159628741736
 31
0.0
  0
LINE
  5
2B4E
330
18
100
AcDbEntity
  8
MSL-115-R32-S-0
100
AcDbLine
 10
941.5253813932606
 20
748.0159628741736
 30
0.0
 11
948.8253813932608
 21
748.0159628741736
 31
0.0
  0
LINE
  5
2B4F
330
18
100
AcDbEntity
  8
MSL-115-R32-S-0
100
AcDbLine
 10
941.5253813932606
 20
748.5159628741736
 30
0.0
 11
941.5253813932606
 21
748.0159628741736
 31
0.0
  0
LINE
  5
2B50
330
18
100
AcDbEntity
  8
MSL-115-R32-S-0
100
AcDbLine
 10
915.8253813932608
 20
764.6159628741735
 30
0.0
 11
908.5253813932606
 21
764.6159628741735
 31
0.0
  0
LINE
  5
2B51
330
18
100
AcDbEntity
  8
MSL-115-R32-S-0
100
AcDbLine
 10
896.6753813932607
 20
769.5159628741736
 30
0.0
 11
896.6753813932607
 21
770.5159628741736
 31
0.0
  0
LINE
  5
2B52
330
18
100
AcDbEntity
  8
MSL-115-R32-S-0
100
AcDbLine
 10
904.6753813932609
 20
762.2559628741747
 30
0.0
 11
904.6753813932609
 21
765.0159628741736
 31
0.0
  0
LINE
  5
2B53
330
18
100
AcDbEntity
  8
MSL-115-R32-S-0
100
AcDbLine
 10
905.675381393261
 20
765.0159628741736
 30
0.0
 11
905.675381393261
 21
762.2559628741747
 31
0.0
  0
LINE
  5
2B54
330
18
100
AcDbEntity
  8
MSL-115-R32-S-0
100
AcDbLine
 10
908.5253813932606
 20
757.2159628741738
 30
0.0
 11
897.1753813932608
 21
757.2159628741738
 31
0.0
  0
LINE
  5
2B55
330
18
100
AcDbEntity
  8
MSL-115-R32-S-0
100
AcDbLine
 10
905.675381393261
 20
762.2559628741747
 30
0.0
 11
908.5253813932606
 21
762.2559628741747
 31
0.0
  0
LINE
  5
2B56
330
18
100
AcDbEntity
  8
MSL-115-R32-S-0
100
AcDbLine
 10
905.675381393261
 20
762.2559628741747
 30
0.0
 11
904.6753813932609
 21
762.2559628741747
 31
0.0
  0
LINE
  5
2B57
330
18
100
AcDbEntity
  8
MSL-115-R32-S-0
100
AcDbLine
 10
904.6753813932609
 20
759.7559628741747
 30
0.0
 11
908.5253813932606
 21
759.7559628741747
 31
0.0
  0
LINE
  5
2B58
330
18
100
AcDbEntity
  8
MSL-115-R32-S-0
100
AcDbLine
 10
904.6753813932609
 20
759.7559628741747
 30
0.0
 11
904.6753813932609
 21
762.2559628741747
 31
0.0
  0
LINE
  5
2B59
330
18
100
AcDbEntity
  8
MSL-115-R32-S-0
100
AcDbLine
 10
904.6753813932607
 20
769.5159628741736
 30
0.0
 11
896.6753813932607
 21
769.5159628741736
 31
0.0
  0
ARC
  5
2B5A
330
18
100
AcDbEntity
  8
MSL-115-R32-S-0
100
AcDbCircle
 10
888.6555835624534
 20
778.0159628741745
 30
0.0
 40
5.519797830807495
100
AcDbArc
 50
297.1345007562882
 51
0.0
  0
LINE
  5
2B5B
330
18
100
AcDbEntity
  8
MSL-115-R32-S-0
100
AcDbLine
 10
891.1730577474797
 20
782.9282425710886
 30
0.0
 11
891.1730577474797
 21
773.1036831772605
 31
0.0
  0
ARC
  5
2B5C
330
18
100
AcDbEntity
  8
MSL-115-R32-S-0
100
AcDbCircle
 10
888.6555835624534
 20
778.0159628741745
 30
0.0
 40
5.519797830807495
100
AcDbArc
 50
0.0
 51
62.86549924371168
  0
LINE
  5
2B5D
330
18
100
AcDbEntity
  8
MSL-115-R32-S-0
100
AcDbLine
 10
896.6753813932607
 20
770.5159628741736
 30
0.0
 11
904.6753813932607
 21
770.5159628741736
 31
0.0
  0
LINE
  5
2B5E
330
18
100
AcDbEntity
  8
MSL-115-R32-S-0
100
AcDbLine
 10
941.5253813932606
 20
764.2159628741739
 30
0.0
 11
915.8253813932608
 21
764.2159628741739
 31
0.0
  0
LINE
  5
2B5F
330
18
100
AcDbEntity
  8
MSL-115-R32-S-0
100
AcDbLine
 10
915.8253813932608
 20
765.015962874174
 30
0.0
 11
915.8253813932608
 21
764.2159628741739
 31
0.0
  0
LINE
  5
2B60
330
18
100
AcDbEntity
  8
MSL-115-R32-S-0
100
AcDbLine
 10
941.5253813932606
 20
764.6159628741735
 30
0.0
 11
948.8253813932608
 21
764.6159628741735
 31
0.0
  0
LINE
  5
2B61
330
18
100
AcDbEntity
  8
MSL-115-R32-S-0
100
AcDbLine
 10
941.5253813932606
 20
765.015962874174
 30
0.0
 11
941.5253813932606
 21
764.2159628741739
 31
0.0
  0
LINE
  5
2B62
330
18
100
AcDbEntity
  8
MSL-115-R32-S-0
100
AcDbLine
 10
994.6753813932607
 20
761.7559628741743
 30
0.0
 11
994.6753813932607
 21
757.2159628741738
 31
0.0
  0
LINE
  5
2B63
330
18
100
AcDbEntity
  8
MSL-115-R32-S-0
100
AcDbLine
 10
904.6753813932607
 20
788.5159628741736
 30
0.0
 11
896.6753813932607
 21
788.5159628741736
 31
0.0
  0
LINE
  5
2B64
330
18
100
AcDbEntity
  8
MSL-115-R32-S-0
100
AcDbLine
 10
896.6753813932607
 20
789.5159628741736
 30
0.0
 11
904.6753813932607
 21
789.5159628741736
 31
0.0
  0
LINE
  5
2B65
330
18
100
AcDbEntity
  8
MSL-115-R32-S-0
100
AcDbLine
 10
896.6753813932607
 20
788.5159628741736
 30
0.0
 11
896.6753813932607
 21
789.5159628741736
 31
0.0
  0
LINE
  5
2B66
330
18
100
AcDbEntity
  8
MSL-115-R32-S-0
100
AcDbLine
 10
904.6753813932607
 20
789.5159628741736
 30
0.0
 11
904.6753813932607
 21
790.0159628741736
 31
0.0
  0
LINE
  5
2B67
330
18
100
AcDbEntity
  8
MSL-115-R32-S-0
100
AcDbLine
 10
991.1753813932609
 20
791.5159628741736
 30
0.0
 11
991.1753813932609
 21
790.0159628741739
 31
0.0
  0
LINE
  5
2B68
330
18
100
AcDbEntity
  8
MSL-115-R32-S-0
100
AcDbLine
 10
978.1753813932608
 20
790.0159628741736
 30
0.0
 11
978.1753813932608
 21
791.5159628741736
 31
0.0
  0
LINE
  5
2B69
330
18
100
AcDbEntity
  8
MSL-115-R32-S-0
100
AcDbLine
 10
978.1753813932608
 20
791.5159628741736
 30
0.0
 11
991.1753813932609
 21
791.5159628741736
 31
0.0
  0
LINE
  5
2B6A
330
18
100
AcDbEntity
  8
MSL-115-R32-S-0
100
AcDbLine
 10
978.6753813932609
 20
792.0159628741736
 30
0.0
 11
990.6753813932608
 21
792.0159628741736
 31
0.0
  0
LINE
  5
2B6B
330
18
100
AcDbEntity
  8
MSL-115-R32-S-0
100
AcDbLine
 10
978.6753813932609
 20
792.0159628741736
 30
0.0
 11
978.1753813932608
 21
791.5159628741736
 31
0.0
  0
LINE
  5
2B6C
330
18
100
AcDbEntity
  8
MSL-115-R32-S-0
100
AcDbLine
 10
990.6753813932608
 20
792.0159628741736
 30
0.0
 11
991.1753813932609
 21
791.5159628741736
 31
0.0
  0
LINE
  5
2B6D
330
18
100
AcDbEntity
  8
MSL-115-R32-S-0
100
AcDbLine
 10
1232.17538139326
 20
633.7719190962493
 30
0.0
 11
1232.17538139326
 21
508.7719190962489
 31
0.0
  0
ARC
  5
2B71
330
18
100
AcDbEntity
  8
MSL-115-R32-S-0
100
AcDbCircle
 10
1259.864206228206
 20
570.5085042315308
 30
0.0
 40
48.76341486471868
100
AcDbArc
 50
90.80937868327191
 51
116.405996925429
  0
LINE
  5
2B72
330
18
100
AcDbEntity
  8
MSL-115-R32-S-0
100
AcDbLine
 10
1259.17538139326
 20
631.7719190962493
 30
0.0
 11
1259.17538139326
 21
510.7719190962488
 31
0.0
  0
LINE
  5
2B73
330
18
100
AcDbEntity
  8
MSL-115-R32-S-0
100
AcDbLine
 10
1279.17538139326
 20
631.7719190962493
 30
0.0
 11
1279.17538139326
 21
510.7719190962488
 31
0.0
  0
LINE
  5
2B74
330
18
100
AcDbEntity
  8
MSL-115-R32-S-0
100
AcDbLine
 10
1307.17538139326
 20
508.7719190962489
 30
0.0
 11
1307.17538139326
 21
633.7719190962493
 31
0.0
  0
LINE
  5
2B75
330
18
100
AcDbEntity
  8
MSL-115-R32-S-0
100
AcDbLine
 10
1132.67538139326
 20
505.2719190962489
 30
0.0
 11
1132.67538139326
 21
637.2719190962489
 31
0.0
  0
LINE
  5
2B7A
330
18
100
AcDbEntity
  8
MSL-115-R32-S-0
100
AcDbLine
 10
1124.67538139326
 20
638.2719190962493
 30
0.0
 11
1124.67538139326
 21
581.2719190962488
 31
0.0
  0
LINE
  5
2B7E
330
18
100
AcDbEntity
  8
MSL-115-R32-S-7A
100
AcDbLine
 10
1129.459643516614
 20
521.7719190962489
 30
0.0
 11
1235.506931378178
 21
521.7719190962489
 31
0.0
  0
LINE
  5
2B7F
330
18
100
AcDbEntity
  8
MSL-115-R32-S-0
100
AcDbLine
 10
1132.67538139326
 20
614.0484651337114
 30
0.0
 11
1232.17538139326
 21
614.0484651337114
 31
0.0
  0
LINE
  5
2B80
330
18
100
AcDbEntity
  8
MSL-115-R32-S-0
100
AcDbLine
 10
1132.67538139326
 20
613.2719190962493
 30
0.0
 11
1232.17538139326
 21
613.2719190962493
 31
0.0
  0
LINE
  5
2B81
330
18
100
AcDbEntity
  8
MSL-115-R32-S-0
100
AcDbLine
 10
1132.67538139326
 20
529.2719190962493
 30
0.0
 11
1232.17538139326
 21
529.2719190962493
 31
0.0
  0
LINE
  5
2B82
330
18
100
AcDbEntity
  8
MSL-115-R32-S-0
100
AcDbLine
 10
1132.67538139326
 20
528.4892054853676
 30
0.0
 11
1232.17538139326
 21
528.4892054853676
 31
0.0
  0
LINE
  5
2B83
330
18
100
AcDbEntity
  8
MSL-115-R32-S-0
100
AcDbLine
 10
1132.67538139326
 20
515.0655022205669
 30
0.0
 11
1232.17538139326
 21
515.0655022205669
 31
0.0
  0
LINE
  5
2B84
330
18
100
AcDbEntity
  8
MSL-115-R32-S-0
100
AcDbLine
 10
1132.67538139326
 20
514.2719190962488
 30
0.0
 11
1232.17538139326
 21
514.2719190962488
 31
0.0
  0
LINE
  5
2B85
330
18
100
AcDbEntity
  8
MSL-115-R32-S-0
100
AcDbLine
 10
1259.17538139326
 20
508.7719190962489
 30
0.0
 11
1132.67538139326
 21
508.7719190962489
 31
0.0
  0
LINE
  5
2B86
330
18
100
AcDbEntity
  8
MSL-115-R32-S-0
100
AcDbLine
 10
1124.67538139326
 20
561.2719190962493
 30
0.0
 11
1124.67538139326
 21
504.2719190962489
 31
0.0
  0
LINE
  5
2B90
330
18
100
AcDbEntity
  8
MSL-115-R32-S-0
100
AcDbLine
 10
1132.67538139326
 20
504.2719190962489
 30
0.0
 11
1124.67538139326
 21
504.2719190962489
 31
0.0
  0
LINE
  5
2B91
330
18
100
AcDbEntity
  8
MSL-115-R32-S-0
100
AcDbLine
 10
1124.67538139326
 20
505.2719190962489
 30
0.0
 11
1132.67538139326
 21
505.2719190962489
 31
0.0
  0
LINE
  5
2B92
330
18
100
AcDbEntity
  8
MSL-115-R32-S-0
100
AcDbLine
 10
1124.67538139326
 20
504.2719190962489
 30
0.0
 11
1124.67538139326
 21
503.7719190962489
 31
0.0
  0
LINE
  5
2B93
330
18
100
AcDbEntity
  8
MSL-115-R32-S-0
100
AcDbLine
 10
1132.67538139326
 20
505.2719190962489
 30
0.0
 11
1132.67538139326
 21
504.2719190962489
 31
0.0
  0
LINE
  5
2B94
330
18
100
AcDbEntity
  8
MSL-115-R32-S-0
100
AcDbLine
 10
1124.67538139326
 20
561.2719190962493
 30
0.0
 11
1124.67538139326
 21
581.2719190962488
 31
0.0
  0
LINE
  5
2B95
330
18
100
AcDbEntity
  8
MSL-115-R32-S-0
100
AcDbLine
 10
1124.67538139326
 20
581.2719190962488
 30
0.0
 11
1124.67538139326
 21
561.2719190962488
 31
0.0
  0
ARC
  5
2B96
330
18
100
AcDbEntity
  8
MSL-115-R32-S-0
100
AcDbCircle
 10
1259.864206228206
 20
610.0353339609678
 30
0.0
 40
48.76341486471868
100
AcDbArc
 50
243.5940030745708
 51
269.1906213167281
  0
LINE
  5
2B97
330
18
100
AcDbEntity
  8
MSL-115-R32-S-0
100
AcDbLine
 10
1259.17538139326
 20
510.7719190962488
 30
0.0
 11
1279.17538139326
 21
510.7719190962488
 31
0.0
  0
LINE
  5
2B98
330
18
100
AcDbEntity
  8
MSL-115-R32-S-0
100
AcDbLine
 10
1279.17538139326
 20
508.7719190962489
 30
0.0
 11
1259.17538139326
 21
508.7719190962489
 31
0.0
  0
LINE
  5
2B99
330
18
100
AcDbEntity
  8
MSL-115-R32-S-0
100
AcDbLine
 10
1238.177705039041
 20
528.3596393993352
 30
0.0
 11
1238.177705039041
 21
538.1841987931629
 31
0.0
  0
ARC
  5
2B9A
330
18
100
AcDbEntity
  8
MSL-115-R32-S-0
100
AcDbCircle
 10
1240.695179224068
 20
533.2719190962493
 30
0.0
 40
5.519797830807496
100
AcDbArc
 50
117.1345007562882
 51
242.8654992437116
  0
LINE
  5
2B9B
330
18
100
AcDbEntity
  8
MSL-115-R32-S-0
100
AcDbLine
 10
1259.17538139326
 20
508.7719190962489
 30
0.0
 11
1259.17538139326
 21
510.7719190962488
 31
0.0
  0
ARC
  5
2B9C
330
18
100
AcDbEntity
  8
MSL-115-R32-S-0
100
AcDbCircle
 10
1259.864206228206
 20
572.0353339609678
 30
0.0
 40
48.76341486471868
100
AcDbArc
 50
243.5940030745708
 51
269.1906213167281
  0
ARC
  5
2B9D
330
18
100
AcDbEntity
  8
MSL-115-R32-S-0
100
AcDbCircle
 10
1259.864206228206
 20
494.5085042315304
 30
0.0
 40
48.76341486471868
100
AcDbArc
 50
90.80937868327191
 51
116.405996925429
  0
LINE
  5
2B9E
330
18
100
AcDbEntity
  8
MSL-115-R32-S-0
100
AcDbLine
 10
1307.17538139326
 20
508.7719190962489
 30
0.0
 11
1279.17538139326
 21
508.7719190962489
 31
0.0
  0
LINE
  5
2B9F
330
18
100
AcDbEntity
  8
MSL-115-R32-S-0
100
AcDbLine
 10
1279.17538139326
 20
510.7719190962488
 30
0.0
 11
1279.17538139326
 21
508.7719190962489
 31
0.0
  0
CIRCLE
  5
2BA0
330
18
100
AcDbEntity
  8
MSL-115-R32-S-0
100
AcDbCircle
 10
1269.17538139326
 20
541.2719190962493
 30
0.0
 40
5.5
  0
LINE
  5
2BA1
330
18
100
AcDbEntity
  8
MSL-115-R32-S-0
100
AcDbLine
 10
1270.618757066235
 20
538.7719190962493
 30
0.0
 11
1272.062132739208
 21
541.2719190962493
 31
0.0
  0
LINE
  5
2BA2
330
18
100
AcDbEntity
  8
MSL-115-R32-S-0
100
AcDbLine
 10
1266.288630047312
 20
541.2719190962493
 30
0.0
 11
1267.732005720286
 21
538.7719190962493
 31
0.0
  0
CIRCLE
  5
2BA3
330
18
100
AcDbEntity
  8
MSL-115-R32-S-0
100
AcDbCircle
 10
1269.17538139326
 20
541.2719190962493
 30
0.0
 40
5.0
  0
LINE
  5
2BA4
330
18
100
AcDbEntity
  8
MSL-115-R32-S-0
100
AcDbLine
 10
1267.732005720286
 20
538.7719190962493
 30
0.0
 11
1270.618757066235
 21
538.7719190962493
 31
0.0
  0
LINE
  5
2BA5
330
18
100
AcDbEntity
  8
MSL-115-R32-S-0
100
AcDbLine
 10
1272.062132739208
 20
541.2719190962493
 30
0.0
 11
1270.618757066235
 21
543.7719190962493
 31
0.0
  0
LINE
  5
2BA6
330
18
100
AcDbEntity
  8
MSL-115-R32-S-0
100
AcDbLine
 10
1267.732005720286
 20
543.7719190962493
 30
0.0
 11
1266.288630047312
 21
541.2719190962493
 31
0.0
  0
LINE
  5
2BA7
330
18
100
AcDbEntity
  8
MSL-115-R32-S-0
100
AcDbLine
 10
1270.618757066235
 20
543.7719190962493
 30
0.0
 11
1267.732005720286
 21
543.7719190962493
 31
0.0
  0
ARC
  5
2BA8
330
18
100
AcDbEntity
  8
MSL-115-R32-S-0
100
AcDbCircle
 10
1240.695179224068
 20
571.2719190962493
 30
0.0
 40
5.519797830807494
100
AcDbArc
 50
117.1345007562882
 51
242.8654992437116
  0
LINE
  5
2BA9
330
18
100
AcDbEntity
  8
MSL-115-R32-S-0
100
AcDbLine
 10
1238.177705039041
 20
566.3596393993352
 30
0.0
 11
1238.177705039041
 21
576.184198793163
 31
0.0
  0
ARC
  5
2BAA
330
18
100
AcDbEntity
  8
MSL-115-R32-S-0
100
AcDbCircle
 10
1259.864206228206
 20
532.5085042315304
 30
0.0
 40
48.76341486471868
100
AcDbArc
 50
90.80937868327191
 51
116.405996925429
  0
ARC
  5
2BAB
330
18
100
AcDbEntity
  8
MSL-115-R32-S-0
100
AcDbCircle
 10
1240.695179224068
 20
609.2719190962493
 30
0.0
 40
5.519797830807496
100
AcDbArc
 50
117.1345007562882
 51
242.8654992437116
  0
LINE
  5
2BAC
330
18
100
AcDbEntity
  8
MSL-115-R32-S-0
100
AcDbLine
 10
1238.177705039041
 20
604.3596393993352
 30
0.0
 11
1238.177705039041
 21
614.184198793163
 31
0.0
  0
ARC
  5
2BAD
330
18
100
AcDbEntity
  8
MSL-115-R32-S-0
100
AcDbCircle
 10
1259.864206228206
 20
648.0353339609678
 30
0.0
 40
48.76341486471868
100
AcDbArc
 50
243.5940030745708
 51
269.1906213167281
  0
CIRCLE
  5
2BAE
330
18
100
AcDbEntity
  8
MSL-115-R32-S-0
100
AcDbCircle
 10
1269.17538139326
 20
601.2719190962493
 30
0.0
 40
5.0
  0
CIRCLE
  5
2BAF
330
18
100
AcDbEntity
  8
MSL-115-R32-S-0
100
AcDbCircle
 10
1269.17538139326
 20
601.2719190962493
 30
0.0
 40
5.5
  0
LINE
  5
2BB0
330
18
100
AcDbEntity
  8
MSL-115-R32-S-0
100
AcDbLine
 10
1270.618757066235
 20
598.7719190962494
 30
0.0
 11
1272.062132739208
 21
601.2719190962493
 31
0.0
  0
LINE
  5
2BB1
330
18
100
AcDbEntity
  8
MSL-115-R32-S-0
100
AcDbLine
 10
1272.062132739208
 20
601.2719190962493
 30
0.0
 11
1270.618757066235
 21
603.7719190962493
 31
0.0
  0
LINE
  5
2BB2
330
18
100
AcDbEntity
  8
MSL-115-R32-S-0
100
AcDbLine
 10
1267.732005720286
 20
603.7719190962493
 30
0.0
 11
1266.288630047312
 21
601.2719190962493
 31
0.0
  0
LINE
  5
2BB3
330
18
100
AcDbEntity
  8
MSL-115-R32-S-0
100
AcDbLine
 10
1266.288630047312
 20
601.2719190962493
 30
0.0
 11
1267.732005720286
 21
598.7719190962494
 31
0.0
  0
LINE
  5
2BB4
330
18
100
AcDbEntity
  8
MSL-115-R32-S-0
100
AcDbLine
 10
1270.618757066235
 20
603.7719190962493
 30
0.0
 11
1267.732005720286
 21
603.7719190962493
 31
0.0
  0
LINE
  5
2BB5
330
18
100
AcDbEntity
  8
MSL-115-R32-S-0
100
AcDbLine
 10
1267.732005720286
 20
598.7719190962494
 30
0.0
 11
1270.618757066235
 21
598.7719190962494
 31
0.0
  0
LINE
  5
2BB6
330
18
100
AcDbEntity
  8
MSL-115-R32-S-7A
100
AcDbLine
 10
1264.67538139326
 20
689.0159628741741
 30
0.0
 11
1264.67538139326
 21
735.0159628741741
 31
0.0
  0
CIRCLE
  5
2BB7
330
18
100
AcDbEntity
  8
MSL-115-R32-S-0
100
AcDbCircle
 10
1264.675381393261
 20
712.0159628741739
 30
0.0
 40
21.0
  0
LINE
  5
2BB8
330
18
100
AcDbEntity
  8
MSL-115-R32-S-0
100
AcDbLine
 10
1232.17538139326
 20
675.0159628741739
 30
0.0
 11
1232.17538139326
 21
767.5159628741741
 31
0.0
  0
LINE
  5
2BB9
330
18
100
AcDbEntity
  8
MSL-115-R32-S-0
100
AcDbLine
 10
1307.17538139326
 20
675.5159628741739
 30
0.0
 11
1307.17538139326
 21
767.5159628741741
 31
0.0
  0
LINE
  5
2BBA
330
18
100
AcDbEntity
  8
MSL-115-R32-S-7A
100
AcDbLine
 10
1129.459643516614
 20
620.7719190962493
 30
0.0
 11
1235.506931378178
 21
620.7719190962493
 31
0.0
  0
LINE
  5
2BBB
330
18
100
AcDbEntity
  8
MSL-115-R32-S-0
100
AcDbLine
 10
1132.67538139326
 20
628.2049317981414
 30
0.0
 11
1232.17538139326
 21
628.2049317981418
 31
0.0
  0
LINE
  5
2BBC
330
18
100
AcDbEntity
  8
MSL-115-R32-S-0
100
AcDbLine
 10
1132.67538139326
 20
627.4953730587867
 30
0.0
 11
1232.17538139326
 21
627.4953730587867
 31
0.0
  0
LINE
  5
2BBD
330
18
100
AcDbEntity
  8
MSL-115-R32-S-0
100
AcDbLine
 10
1259.17538139326
 20
633.7719190962493
 30
0.0
 11
1132.67538139326
 21
633.7719190962493
 31
0.0
  0
LINE
  5
2BBE
330
18
100
AcDbEntity
  8
MSL-115-R32-S-0
100
AcDbLine
 10
1132.67538139326
 20
637.2719190962489
 30
0.0
 11
1124.67538139326
 21
637.2719190962489
 31
0.0
  0
LINE
  5
2BBF
330
18
100
AcDbEntity
  8
MSL-115-R32-S-0
100
AcDbLine
 10
1124.67538139326
 20
638.2719190962489
 30
0.0
 11
1132.67538139326
 21
638.2719190962489
 31
0.0
  0
LINE
  5
2BC0
330
18
100
AcDbEntity
  8
MSL-115-R32-S-0
100
AcDbLine
 10
1124.67538139326
 20
638.7719190962493
 30
0.0
 11
1124.67538139326
 21
638.2719190962493
 31
0.0
  0
LINE
  5
2BC1
330
18
100
AcDbEntity
  8
MSL-115-R32-S-0
100
AcDbLine
 10
1132.67538139326
 20
638.2719190962489
 30
0.0
 11
1132.67538139326
 21
637.2719190962489
 31
0.0
  0
LINE
  5
2BC2
330
18
100
AcDbEntity
  8
MSL-115-R32-S-0
100
AcDbLine
 10
1279.17538139326
 20
631.7719190962493
 30
0.0
 11
1259.17538139326
 21
631.7719190962493
 31
0.0
  0
LINE
  5
2BC3
330
18
100
AcDbEntity
  8
MSL-115-R32-S-0
100
AcDbLine
 10
1259.17538139326
 20
633.7719190962493
 30
0.0
 11
1279.17538139326
 21
633.7719190962493
 31
0.0
  0
LINE
  5
2BC4
330
18
100
AcDbEntity
  8
MSL-115-R32-S-0
100
AcDbLine
 10
1259.17538139326
 20
631.7719190962493
 30
0.0
 11
1259.17538139326
 21
633.7719190962493
 31
0.0
  0
LINE
  5
2BC5
330
18
100
AcDbEntity
  8
MSL-115-R32-S-0
100
AcDbLine
 10
1307.17538139326
 20
633.7719190962493
 30
0.0
 11
1279.17538139326
 21
633.7719190962493
 31
0.0
  0
LINE
  5
2BC6
330
18
100
AcDbEntity
  8
MSL-115-R32-S-0
100
AcDbLine
 10
1279.17538139326
 20
633.7719190962493
 30
0.0
 11
1279.17538139326
 21
631.7719190962493
 31
0.0
  0
LINE
  5
2BC7
330
18
100
AcDbEntity
  8
MSL-115-R32-S-7A
100
AcDbLine
 10
1241.67538139326
 20
712.015962874174
 30
0.0
 11
1287.67538139326
 21
712.015962874174
 31
0.0
  0
LINE
  5
2BC8
330
18
100
AcDbEntity
  8
MSL-115-R32-S-0
100
AcDbLine
 10
1307.17538139326
 20
675.5159628741739
 30
0.0
 11
1232.17538139326
 21
675.5159628741739
 31
0.0
  0
ARC
  5
2BC9
330
18
100
AcDbEntity
  8
MSL-115-R32-S-0
100
AcDbCircle
 10
1264.675381393261
 20
712.0159628741739
 30
0.0
 40
9.5
100
AcDbArc
 50
108.4084801705832
 51
71.59151982941667
  0
LINE
  5
2BCA
330
18
100
AcDbEntity
  8
MSL-115-R32-S-7A
100
AcDbLine
 10
1239.67538139326
 20
681.015962874174
 30
0.0
 11
1239.67538139326
 21
693.0159628741741
 31
0.0
  0
LINE
  5
2BCB
330
18
100
AcDbEntity
  8
MSL-115-R32-S-7A
100
AcDbLine
 10
1233.67538139326
 20
687.015962874174
 30
0.0
 11
1245.67538139326
 21
687.015962874174
 31
0.0
  0
CIRCLE
  5
2BCC
330
18
100
AcDbEntity
  8
MSL-115-R32-S-0
100
AcDbCircle
 10
1239.675381393261
 20
687.0159628741739
 30
0.0
 40
3.399999999999999
  0
ARC
  5
2BCD
330
18
100
AcDbEntity
  8
MSL-115-R32-S-5
100
AcDbCircle
 10
1239.675381393261
 20
687.0159628741739
 30
0.0
 40
4.0
100
AcDbArc
 50
255.0000000000046
 51
195.0000000000007
  0
LINE
  5
2BCE
330
18
100
AcDbEntity
  8
MSL-115-R32-S-7A
100
AcDbLine
 10
1289.67538139326
 20
681.015962874174
 30
0.0
 11
1289.67538139326
 21
693.0159628741741
 31
0.0
  0
CIRCLE
  5
2BCF
330
18
100
AcDbEntity
  8
MSL-115-R32-S-0
100
AcDbCircle
 10
1289.675381393261
 20
687.0159628741739
 30
0.0
 40
3.399999999999999
  0
ARC
  5
2BD0
330
18
100
AcDbEntity
  8
MSL-115-R32-S-5
100
AcDbCircle
 10
1289.675381393261
 20
687.0159628741739
 30
0.0
 40
4.0
100
AcDbArc
 50
255.0000000000055
 51
195.0000000000007
  0
LINE
  5
2BD1
330
18
100
AcDbEntity
  8
MSL-115-R32-S-7A
100
AcDbLine
 10
1283.67538139326
 20
687.015962874174
 30
0.0
 11
1295.67538139326
 21
687.015962874174
 31
0.0
  0
LINE
  5
2BD2
330
18
100
AcDbEntity
  8
MSL-115-R32-S-0
100
AcDbLine
 10
1267.67538139326
 20
724.3159628741742
 30
0.0
 11
1267.67538139326
 21
721.029841062834
 31
0.0
  0
LINE
  5
2BD3
330
18
100
AcDbEntity
  8
MSL-115-R32-S-0
100
AcDbLine
 10
1261.67538139326
 20
721.029841062834
 30
0.0
 11
1261.67538139326
 21
724.3159628741742
 31
0.0
  0
LINE
  5
2BD4
330
18
100
AcDbEntity
  8
MSL-115-R32-S-0
100
AcDbLine
 10
1261.67538139326
 20
724.3159628741742
 30
0.0
 11
1267.67538139326
 21
724.3159628741742
 31
0.0
  0
LINE
  5
2BD5
330
18
100
AcDbEntity
  8
MSL-115-R32-S-0
100
AcDbLine
 10
1232.17538139326
 20
757.2159628741738
 30
0.0
 11
1120.82538139326
 21
757.2159628741738
 31
0.0
  0
LINE
  5
2BD6
330
18
100
AcDbEntity
  8
MSL-115-R32-S-7A
100
AcDbLine
 10
1104.67538139326
 20
795.8355744830361
 30
0.0
 11
1104.67538139326
 21
762.2559628741742
 31
0.0
  0
LINE
  5
2BD7
330
18
100
AcDbEntity
  8
MSL-115-R32-S-7A
100
AcDbLine
 10
1074.675381393261
 20
795.8355744830361
 30
0.0
 11
1074.67538139326
 21
762.2559628741742
 31
0.0
  0
LINE
  5
2BD8
330
18
100
AcDbEntity
  8
MSL-115-R32-S-7A
100
AcDbLine
 10
1044.67538139326
 20
795.8355744830361
 30
0.0
 11
1044.67538139326
 21
762.2559628741742
 31
0.0
  0
LINE
  5
2BD9
330
18
100
AcDbEntity
  8
MSL-115-R32-S-0
100
AcDbLine
 10
1124.675381393261
 20
789.515962874174
 30
0.0
 11
1124.67538139326
 21
765.015962874174
 31
0.0
  0
LINE
  5
2BDA
330
18
100
AcDbEntity
  8
MSL-115-R32-S-0
100
AcDbLine
 10
1132.67538139326
 20
770.515962874174
 30
0.0
 11
1132.675381393261
 21
788.5159628741741
 31
0.0
  0
LINE
  5
2BDB
330
18
100
AcDbEntity
  8
MSL-115-R32-S-0
100
AcDbLine
 10
1120.62538139326
 20
745.015962874174
 30
0.0
 11
1080.72538139326
 21
745.015962874174
 31
0.0
  0
LINE
  5
2BDC
330
18
100
AcDbEntity
  8
MSL-115-R32-S-0
100
AcDbLine
 10
1120.82538139326
 20
745.2159628741739
 30
0.0
 11
1080.525381393261
 21
745.2159628741739
 31
0.0
  0
LINE
  5
2BDD
330
18
100
AcDbEntity
  8
MSL-115-R32-S-0
100
AcDbLine
 10
1113.52538139326
 20
748.515962874174
 30
0.0
 11
1087.825381393261
 21
748.515962874174
 31
0.0
  0
LINE
  5
2BDE
330
18
100
AcDbEntity
  8
MSL-115-R32-S-0
100
AcDbLine
 10
1113.52538139326
 20
764.2159628741739
 30
0.0
 11
1087.825381393261
 21
764.2159628741739
 31
0.0
  0
LINE
  5
2BDF
330
18
100
AcDbEntity
  8
MSL-115-R32-S-0
100
AcDbLine
 10
1087.825381393261
 20
764.2159628741739
 30
0.0
 11
1087.825381393261
 21
748.515962874174
 31
0.0
  0
LINE
  5
2BE0
330
18
100
AcDbEntity
  8
MSL-115-R32-S-0
100
AcDbLine
 10
1080.52538139326
 20
748.015962874174
 30
0.0
 11
1080.52538139326
 21
764.615962874174
 31
0.0
  0
LINE
  5
2BE1
330
18
100
AcDbEntity
  8
MSL-115-R32-S-0
100
AcDbLine
 10
1087.825381393261
 20
748.015962874174
 30
0.0
 11
1080.52538139326
 21
748.015962874174
 31
0.0
  0
LINE
  5
2BE2
330
18
100
AcDbEntity
  8
MSL-115-R32-S-0
100
AcDbLine
 10
1080.52538139326
 20
745.2159628741739
 30
0.0
 11
1080.52538139326
 21
748.015962874174
 31
0.0
  0
LINE
  5
2BE3
330
18
100
AcDbEntity
  8
MSL-115-R32-S-0
100
AcDbLine
 10
1080.72538139326
 20
745.015962874174
 30
0.0
 11
1080.72538139326
 21
745.2159628741739
 31
0.0
  0
LINE
  5
2BE4
330
18
100
AcDbEntity
  8
MSL-115-R32-S-0
100
AcDbLine
 10
1087.825381393261
 20
748.515962874174
 30
0.0
 11
1087.825381393261
 21
748.015962874174
 31
0.0
  0
LINE
  5
2BE5
330
18
100
AcDbEntity
  8
MSL-115-R32-S-0
100
AcDbLine
 10
1080.52538139326
 20
761.7559628741743
 30
0.0
 11
1034.67538139326
 21
761.7559628741743
 31
0.0
  0
LINE
  5
2BE6
330
18
100
AcDbEntity
  8
MSL-115-R32-S-0
100
AcDbLine
 10
1034.67538139326
 20
761.7559628741743
 30
0.0
 11
1034.67538139326
 21
757.2159628741738
 31
0.0
  0
LINE
  5
2BE7
330
18
100
AcDbEntity
  8
MSL-115-R32-S-0
100
AcDbLine
 10
1087.825381393261
 20
764.615962874174
 30
0.0
 11
1080.52538139326
 21
764.615962874174
 31
0.0
  0
LINE
  5
2BE8
330
18
100
AcDbEntity
  8
MSL-115-R32-S-0
100
AcDbLine
 10
1087.825381393261
 20
765.015962874174
 30
0.0
 11
1087.825381393261
 21
764.2159628741739
 31
0.0
  0
LINE
  5
2BE9
330
18
100
AcDbEntity
  8
MSL-115-R32-S-0
100
AcDbLine
 10
1113.52538139326
 20
764.2159628741739
 30
0.0
 11
1113.52538139326
 21
748.515962874174
 31
0.0
  0
LINE
  5
2BEA
330
18
100
AcDbEntity
  8
MSL-115-R32-S-0
100
AcDbLine
 10
1120.82538139326
 20
764.615962874174
 30
0.0
 11
1120.82538139326
 21
748.015962874174
 31
0.0
  0
LINE
  5
2BEB
330
18
100
AcDbEntity
  8
MSL-115-R32-S-0
100
AcDbLine
 10
1120.82538139326
 20
748.015962874174
 30
0.0
 11
1120.82538139326
 21
745.2159628741739
 31
0.0
  0
LINE
  5
2BEC
330
18
100
AcDbEntity
  8
MSL-115-R32-S-0
100
AcDbLine
 10
1120.62538139326
 20
745.2159628741739
 30
0.0
 11
1120.62538139326
 21
745.015962874174
 31
0.0
  0
LINE
  5
2BED
330
18
100
AcDbEntity
  8
MSL-115-R32-S-0
100
AcDbLine
 10
1113.52538139326
 20
748.015962874174
 30
0.0
 11
1120.82538139326
 21
748.015962874174
 31
0.0
  0
LINE
  5
2BEE
330
18
100
AcDbEntity
  8
MSL-115-R32-S-0
100
AcDbLine
 10
1113.52538139326
 20
748.515962874174
 30
0.0
 11
1113.52538139326
 21
748.015962874174
 31
0.0
  0
LINE
  5
2BEF
330
18
100
AcDbEntity
  8
MSL-115-R32-S-0
100
AcDbLine
 10
1132.67538139326
 20
770.515962874174
 30
0.0
 11
1132.67538139326
 21
769.515962874174
 31
0.0
  0
LINE
  5
2BF0
330
18
100
AcDbEntity
  8
MSL-115-R32-S-0
100
AcDbLine
 10
1132.67538139326
 20
769.515962874174
 30
0.0
 11
1124.67538139326
 21
769.515962874174
 31
0.0
  0
LINE
  5
2BF1
330
18
100
AcDbEntity
  8
MSL-115-R32-S-0
100
AcDbLine
 10
1123.67538139326
 20
762.2559628741738
 30
0.0
 11
1123.67538139326
 21
765.015962874174
 31
0.0
  0
LINE
  5
2BF2
330
18
100
AcDbEntity
  8
MSL-115-R32-S-0
100
AcDbLine
 10
1124.67538139326
 20
765.015962874174
 30
0.0
 11
1124.67538139326
 21
762.2559628741738
 31
0.0
  0
LINE
  5
2BF3
330
18
100
AcDbEntity
  8
MSL-115-R32-S-0
100
AcDbLine
 10
1120.82538139326
 20
762.2559628741738
 30
0.0
 11
1123.67538139326
 21
762.2559628741738
 31
0.0
  0
LINE
  5
2BF4
330
18
100
AcDbEntity
  8
MSL-115-R32-S-0
100
AcDbLine
 10
1124.67538139326
 20
762.2559628741738
 30
0.0
 11
1123.67538139326
 21
762.2559628741738
 31
0.0
  0
LINE
  5
2BF5
330
18
100
AcDbEntity
  8
MSL-115-R32-S-0
100
AcDbLine
 10
1124.67538139326
 20
759.7559628741739
 30
0.0
 11
1124.67538139326
 21
762.2559628741738
 31
0.0
  0
LINE
  5
2BF6
330
18
100
AcDbEntity
  8
MSL-115-R32-S-0
100
AcDbLine
 10
1120.82538139326
 20
759.7559628741739
 30
0.0
 11
1124.67538139326
 21
759.7559628741739
 31
0.0
  0
LINE
  5
2BF7
330
18
100
AcDbEntity
  8
MSL-115-R32-S-0
100
AcDbLine
 10
1113.52538139326
 20
764.615962874174
 30
0.0
 11
1120.82538139326
 21
764.615962874174
 31
0.0
  0
LINE
  5
2BF8
330
18
100
AcDbEntity
  8
MSL-115-R32-S-0
100
AcDbLine
 10
1113.52538139326
 20
765.015962874174
 30
0.0
 11
1113.52538139326
 21
764.2159628741739
 31
0.0
  0
LINE
  5
2BF9
330
18
100
AcDbEntity
  8
MSL-115-R32-S-0
100
AcDbLine
 10
1124.67538139326
 20
770.515962874174
 30
0.0
 11
1132.67538139326
 21
770.515962874174
 31
0.0
  0
LINE
  5
2BFA
330
18
100
AcDbEntity
  8
MSL-115-R32-S-0
100
AcDbLine
 10
1038.175381393261
 20
791.5159628741741
 30
0.0
 11
1051.175381393261
 21
791.5159628741736
 31
0.0
  0
LINE
  5
2BFB
330
18
100
AcDbEntity
  8
MSL-115-R32-S-0
100
AcDbLine
 10
1038.675381393261
 20
792.0159628741741
 30
0.0
 11
1050.667231676248
 21
792.0159628741736
 31
0.0
  0
LINE
  5
2BFC
330
18
100
AcDbEntity
  8
MSL-115-R32-S-0
100
AcDbLine
 10
1038.175381393261
 20
790.0159628741736
 30
0.0
 11
1038.175381393261
 21
791.5159628741741
 31
0.0
  0
LINE
  5
2BFD
330
18
100
AcDbEntity
  8
MSL-115-R32-S-0
100
AcDbLine
 10
1038.175381393261
 20
791.5159628741741
 30
0.0
 11
1038.675381393261
 21
792.0159628741741
 31
0.0
  0
LINE
  5
2BFE
330
18
100
AcDbEntity
  8
MSL-115-R32-S-0
100
AcDbLine
 10
1051.175381393261
 20
791.5159628741736
 30
0.0
 11
1051.175381393261
 21
790.0159628741736
 31
0.0
  0
LINE
  5
2BFF
330
18
100
AcDbEntity
  8
MSL-115-R32-S-0
100
AcDbLine
 10
1050.667231676248
 20
792.0159628741736
 30
0.0
 11
1051.175381393261
 21
791.5159628741736
 31
0.0
  0
LINE
  5
2C00
330
18
100
AcDbEntity
  8
MSL-115-R32-S-0
100
AcDbLine
 10
1124.675381393261
 20
789.515962874174
 30
0.0
 11
1132.675381393261
 21
789.515962874174
 31
0.0
  0
LINE
  5
2C01
330
18
100
AcDbEntity
  8
MSL-115-R32-S-0
100
AcDbLine
 10
1132.675381393261
 20
788.5159628741741
 30
0.0
 11
1124.675381393261
 21
788.5159628741741
 31
0.0
  0
LINE
  5
2C02
330
18
100
AcDbEntity
  8
MSL-115-R32-S-0
100
AcDbLine
 10
1124.675381393261
 20
790.015962874174
 30
0.0
 11
1124.675381393261
 21
789.515962874174
 31
0.0
  0
LINE
  5
2C03
330
18
100
AcDbEntity
  8
MSL-115-R32-S-0
100
AcDbLine
 10
1132.675381393261
 20
789.515962874174
 30
0.0
 11
1132.675381393261
 21
788.5159628741741
 31
0.0
  0
LINE
  5
2C04
330
18
100
AcDbEntity
  8
MSL-115-R32-S-0
100
AcDbLine
 10
1279.175381393261
 20
786.515962874174
 30
0.0
 11
1279.17538139326
 21
767.5159628741741
 31
0.0
  0
LINE
  5
2C05
330
18
100
AcDbEntity
  8
MSL-115-R32-S-0
100
AcDbLine
 10
1259.175381393261
 20
786.515962874174
 30
0.0
 11
1259.17538139326
 21
767.5159628741741
 31
0.0
  0
ARC
  5
2C06
330
18
100
AcDbEntity
  8
MSL-115-R32-S-0
100
AcDbCircle
 10
1259.864206228207
 20
739.2525480094555
 30
0.0
 40
48.76341486471868
100
AcDbArc
 50
90.80937868327191
 51
116.405996925429
  0
LINE
  5
2C07
330
18
100
AcDbEntity
  8
MSL-115-R32-S-0
100
AcDbLine
 10
1307.17538139326
 20
767.5159628741741
 30
0.0
 11
1232.17538139326
 21
767.5159628741741
 31
0.0
  0
LINE
  5
2C08
330
18
100
AcDbEntity
  8
MSL-115-R32-S-0
100
AcDbLine
 10
1259.17538139326
 20
767.5159628741741
 30
0.0
 11
1279.17538139326
 21
767.5159628741741
 31
0.0
  0
LINE
  5
2C09
330
18
100
AcDbEntity
  8
MSL-115-R32-S-7A
100
AcDbLine
 10
1239.67538139326
 20
731.015962874174
 30
0.0
 11
1239.67538139326
 21
743.0159628741741
 31
0.0
  0
ARC
  5
2C0A
330
18
100
AcDbEntity
  8
MSL-115-R32-S-5
100
AcDbCircle
 10
1239.675381393261
 20
737.0159628741739
 30
0.0
 40
4.0
100
AcDbArc
 50
255.0000000000046
 51
195.0000000000007
  0
LINE
  5
2C0B
330
18
100
AcDbEntity
  8
MSL-115-R32-S-7A
100
AcDbLine
 10
1233.67538139326
 20
737.015962874174
 30
0.0
 11
1245.67538139326
 21
737.015962874174
 31
0.0
  0
CIRCLE
  5
2C0C
330
18
100
AcDbEntity
  8
MSL-115-R32-S-0
100
AcDbCircle
 10
1239.675381393261
 20
737.0159628741739
 30
0.0
 40
3.399999999999999
  0
ARC
  5
2C0D
330
18
100
AcDbEntity
  8
MSL-115-R32-S-0
100
AcDbCircle
 10
1259.864206228207
 20
816.7793777388924
 30
0.0
 40
48.76341486471868
100
AcDbArc
 50
243.5940030745708
 51
269.1906213167281
  0
ARC
  5
2C0E
330
18
100
AcDbEntity
  8
MSL-115-R32-S-0
100
AcDbCircle
 10
1240.695179224068
 20
778.0159628741739
 30
0.0
 40
5.519797830807496
100
AcDbArc
 50
117.1345007562882
 51
242.8654992437116
  0
LINE
  5
2C0F
330
18
100
AcDbEntity
  8
MSL-115-R32-S-0
100
AcDbLine
 10
1238.177705039042
 20
773.1036831772599
 30
0.0
 11
1238.177705039042
 21
782.9282425710877
 31
0.0
  0
LINE
  5
2C10
330
18
100
AcDbEntity
  8
MSL-115-R32-S-7A
100
AcDbLine
 10
1289.67538139326
 20
731.015962874174
 30
0.0
 11
1289.67538139326
 21
743.0159628741741
 31
0.0
  0
ARC
  5
2C11
330
18
100
AcDbEntity
  8
MSL-115-R32-S-5
100
AcDbCircle
 10
1289.675381393261
 20
737.0159628741739
 30
0.0
 40
4.0
100
AcDbArc
 50
255.0000000000055
 51
195.0000000000007
  0
LINE
  5
2C12
330
18
100
AcDbEntity
  8
MSL-115-R32-S-7A
100
AcDbLine
 10
1283.67538139326
 20
737.015962874174
 30
0.0
 11
1295.67538139326
 21
737.015962874174
 31
0.0
  0
CIRCLE
  5
2C13
330
18
100
AcDbEntity
  8
MSL-115-R32-S-0
100
AcDbCircle
 10
1289.675381393261
 20
737.0159628741739
 30
0.0
 40
3.399999999999999
  0
LINE
  5
2C14
330
18
100
AcDbEntity
  8
MSL-115-R32-S-0
100
AcDbLine
 10
1279.175381393261
 20
786.515962874174
 30
0.0
 11
1259.175381393261
 21
786.515962874174
 31
0.0
  0
LINE
  5
2C15
330
18
100
AcDbEntity
  8
MSL-115-R32-S-0
100
AcDbLine
 10
1259.175381393261
 20
788.5159628741741
 30
0.0
 11
1279.175381393261
 21
788.5159628741741
 31
0.0
  0
LINE
  5
2C16
330
18
100
AcDbEntity
  8
MSL-115-R32-S-0
100
AcDbLine
 10
1259.175381393261
 20
786.515962874174
 30
0.0
 11
1259.175381393261
 21
788.5159628741741
 31
0.0
  0
LINE
  5
2C17
330
18
100
AcDbEntity
  8
MSL-115-R32-S-0
100
AcDbLine
 10
1279.175381393261
 20
788.5159628741741
 30
0.0
 11
1279.175381393261
 21
786.515962874174
 31
0.0
  0
LINE
  5
2C18
330
18
100
AcDbEntity
  8
MSL-115-R32-S-0
100
AcDbLine
 10
1470.641941683724
 20
767.7659628741739
 30
0.0
 11
1470.641941683724
 21
675.7659628741739
 31
0.0
  0
LINE
  5
2C19
330
18
100
AcDbEntity
  8
MSL-115-R32-S-0
100
AcDbLine
 10
1345.641941683724
 20
675.7659628741739
 30
0.0
 11
1345.641941683724
 21
767.7659628741739
 31
0.0
  0
LINE
  5
2C1A
330
18
100
AcDbEntity
  8
MSL-115-R32-S-7A
100
AcDbLine
 10
1438.641941683724
 20
695.265962874174
 30
0.0
 11
1452.641941683724
 21
695.265962874174
 31
0.0
  0
ARC
  5
2C1B
330
18
100
AcDbEntity
  8
MSL-115-R32-S-5
100
AcDbCircle
 10
1445.641941683725
 20
695.265962874174
 30
0.0
 40
5.0
100
AcDbArc
 50
255.0000000000055
 51
195.0000000000007
  0
LINE
  5
2C1C
330
18
100
AcDbEntity
  8
MSL-115-R32-S-0
100
AcDbLine
 10
1470.641941683724
 20
675.7659628741739
 30
0.0
 11
1345.641941683724
 21
675.7659628741739
 31
0.0
  0
CIRCLE
  5
2C1D
330
18
100
AcDbEntity
  8
MSL-115-R32-S-0
100
AcDbCircle
 10
1445.641941683725
 20
695.265962874174
 30
0.0
 40
4.25
  0
LINE
  5
2C1E
330
18
100
AcDbEntity
  8
MSL-115-R32-S-0
100
AcDbLine
 10
1428.141941683724
 20
675.2659628741739
 30
0.0
 11
1446.516941683724
 21
675.2659628741739
 31
0.0
  0
LINE
  5
2C1F
330
18
100
AcDbEntity
  8
MSL-115-R32-S-7A
100
AcDbLine
 10
1363.641941683724
 20
695.265962874174
 30
0.0
 11
1377.641941683724
 21
695.265962874174
 31
0.0
  0
ARC
  5
2C20
330
18
100
AcDbEntity
  8
MSL-115-R32-S-5
100
AcDbCircle
 10
1370.641941683724
 20
695.265962874174
 30
0.0
 40
5.0
100
AcDbArc
 50
255.0000000000055
 51
195.0000000000007
  0
CIRCLE
  5
2C21
330
18
100
AcDbEntity
  8
MSL-115-R32-S-0
100
AcDbCircle
 10
1370.641941683724
 20
695.265962874174
 30
0.0
 40
4.25
  0
LINE
  5
2C22
330
18
100
AcDbEntity
  8
MSL-115-R32-S-0
100
AcDbLine
 10
1369.766941683725
 20
675.2659628741739
 30
0.0
 11
1366.766941683724
 21
675.2659628741739
 31
0.0
  0
LINE
  5
2C25
330
18
100
AcDbEntity
  8
MSL-115-R32-S-7A
100
AcDbLine
 10
1359.642079683724
 20
691.0341748741739
 30
0.0
 11
1359.642079683724
 21
673.2215104716884
 31
0.0
  0
LINE
  5
2C27
330
18
100
AcDbEntity
  8
MSL-115-R32-S-0
100
AcDbLine
 10
1349.666941683724
 20
675.2659628741739
 30
0.0
 11
1345.641941683724
 21
675.2659628741739
 31
0.0
  0
LINE
  5
2C28
330
18
100
AcDbEntity
  8
MSL-115-R32-S-0
100
AcDbLine
 10
1345.641941683724
 20
675.2659628741739
 30
0.0
 11
1345.641941683724
 21
675.7659628741744
 31
0.0
  0
LINE
  5
2C29
330
18
100
AcDbEntity
  8
MSL-115-R32-S-0
100
AcDbLine
 10
1354.643079683724
 20
675.7659628741739
 30
0.0
 11
1354.643079683724
 21
675.4659628741737
 31
0.0
  0
LINE
  5
2C2A
330
18
100
AcDbEntity
  8
MSL-115-R32-S-0
100
AcDbLine
 10
1364.640803683724
 20
675.4659628741737
 30
0.0
 11
1364.640803683724
 21
675.7659628741739
 31
0.0
  0
LINE
  5
2C2B
330
18
100
AcDbEntity
  8
MSL-115-R32-S-0
100
AcDbLine
 10
1349.666941683724
 20
675.7659628741739
 30
0.0
 11
1349.666941683724
 21
675.2659628741739
 31
0.0
  0
ARC
  5
2C2E
330
18
100
AcDbEntity
  8
MSL-115-R32-S-0
100
AcDbCircle
 10
1354.443079683725
 20
675.4659628741737
 30
0.0
 40
0.2
100
AcDbArc
 50
270.0
 51
0.0
  0
LINE
  5
2C2F
330
18
100
AcDbEntity
  8
MSL-115-R32-S-0
100
AcDbLine
 10
1354.443079683724
 20
675.2659628741739
 30
0.0
 11
1352.666941683724
 21
675.2659628741739
 31
0.0
  0
LINE
  5
2C30
330
18
100
AcDbEntity
  8
MSL-115-R32-S-0
100
AcDbLine
 10
1352.666941683724
 20
675.2659628741739
 30
0.0
 11
1349.666941683724
 21
675.2659628741739
 31
0.0
  0
ARC
  5
2C31
330
18
100
AcDbEntity
  8
MSL-115-R32-S-0
100
AcDbCircle
 10
1364.840803683724
 20
675.4659628741737
 30
0.0
 40
0.2
100
AcDbArc
 50
180.0
 51
270.0
  0
LINE
  5
2C32
330
18
100
AcDbEntity
  8
MSL-115-R32-S-0
100
AcDbLine
 10
1366.766941683724
 20
675.2659628741739
 30
0.0
 11
1364.840803683724
 21
675.2659628741739
 31
0.0
  0
LINE
  5
2C42
330
18
100
AcDbEntity
  8
MSL-115-R32-S-7A
100
AcDbLine
 10
1370.641941683724
 20
688.2659628741739
 30
0.0
 11
1370.641941683724
 21
702.2659628741739
 31
0.0
  0
CIRCLE
  5
2C43
330
18
100
AcDbEntity
  8
MSL-115-R32-S-0
100
AcDbCircle
 10
1379.216941683725
 20
685.7659628741739
 30
0.0
 40
5.0
  0
CIRCLE
  5
2C44
330
18
100
AcDbEntity
  8
MSL-115-R32-S-0
100
AcDbCircle
 10
1379.216941683725
 20
685.7659628741739
 30
0.0
 40
5.5
  0
LINE
  5
2C46
330
18
100
AcDbEntity
  8
MSL-115-R32-S-0
100
AcDbLine
 10
1388.141941683724
 20
675.2659628741739
 30
0.0
 11
1369.766941683725
 21
675.2659628741739
 31
0.0
  0
LINE
  5
2C47
330
18
100
AcDbEntity
  8
MSL-115-R32-S-0
100
AcDbLine
 10
1369.766941683725
 20
675.7659628741739
 30
0.0
 11
1369.766941683725
 21
675.2659628741739
 31
0.0
  0
LINE
  5
2C49
330
18
100
AcDbEntity
  8
MSL-115-R32-S-0
100
AcDbLine
 10
1388.141941683724
 20
675.7659628741739
 30
0.0
 11
1388.141941683724
 21
675.2659628741739
 31
0.0
  0
LINE
  5
2C4A
330
18
100
AcDbEntity
  8
MSL-115-R32-S-0
100
AcDbLine
 10
1376.716941683724
 20
687.209338547148
 30
0.0
 11
1379.216941683724
 21
688.6527142201221
 31
0.0
  0
LINE
  5
2C4B
330
18
100
AcDbEntity
  8
MSL-115-R32-S-0
100
AcDbLine
 10
1379.216941683724
 20
682.8792115282258
 30
0.0
 11
1376.716941683724
 21
684.3225872011998
 31
0.0
  0
LINE
  5
2C4C
330
18
100
AcDbEntity
  8
MSL-115-R32-S-0
100
AcDbLine
 10
1376.716941683724
 20
684.3225872011998
 30
0.0
 11
1376.716941683724
 21
687.209338547148
 31
0.0
  0
LINE
  5
2C4E
330
18
100
AcDbEntity
  8
MSL-115-R32-S-0
100
AcDbLine
 10
1381.716941683724
 20
684.3225872011998
 30
0.0
 11
1379.216941683724
 21
682.8792115282258
 31
0.0
  0
LINE
  5
2C4F
330
18
100
AcDbEntity
  8
MSL-115-R32-S-0
100
AcDbLine
 10
1379.216941683724
 20
688.6527142201221
 30
0.0
 11
1381.716941683724
 21
687.209338547148
 31
0.0
  0
LINE
  5
2C50
330
18
100
AcDbEntity
  8
MSL-115-R32-S-0
100
AcDbLine
 10
1381.716941683724
 20
687.209338547148
 30
0.0
 11
1381.716941683724
 21
684.3225872011998
 31
0.0
  0
CIRCLE
  5
2C51
330
18
100
AcDbEntity
  8
MSL-115-R32-S-0
100
AcDbCircle
 10
1437.066941683725
 20
685.7659628741739
 30
0.0
 40
5.0
  0
CIRCLE
  5
2C52
330
18
100
AcDbEntity
  8
MSL-115-R32-S-0
100
AcDbCircle
 10
1437.066941683725
 20
685.7659628741739
 30
0.0
 40
5.5
  0
LINE
  5
2C53
330
18
100
AcDbEntity
  8
MSL-115-R32-S-0
100
AcDbLine
 10
1428.141941683724
 20
675.7659628741739
 30
0.0
 11
1428.141941683724
 21
675.2659628741739
 31
0.0
  0
LINE
  5
2C54
330
18
100
AcDbEntity
  8
MSL-115-R32-S-0
100
AcDbLine
 10
1434.180190337777
 20
685.7659628741739
 30
0.0
 11
1435.62356601075
 21
688.2659628741739
 31
0.0
  0
LINE
  5
2C55
330
18
100
AcDbEntity
  8
MSL-115-R32-S-0
100
AcDbLine
 10
1435.62356601075
 20
683.265962874174
 30
0.0
 11
1434.180190337777
 21
685.7659628741739
 31
0.0
  0
LINE
  5
2C56
330
18
100
AcDbEntity
  8
MSL-115-R32-S-0
100
AcDbLine
 10
1435.62356601075
 20
688.2659628741739
 30
0.0
 11
1438.510317356699
 21
688.2659628741739
 31
0.0
  0
LINE
  5
2C57
330
18
100
AcDbEntity
  8
MSL-115-R32-S-0
100
AcDbLine
 10
1438.510317356699
 20
688.2659628741739
 30
0.0
 11
1439.953693029673
 21
685.7659628741739
 31
0.0
  0
LINE
  5
2C58
330
18
100
AcDbEntity
  8
MSL-115-R32-S-0
100
AcDbLine
 10
1439.953693029673
 20
685.7659628741739
 30
0.0
 11
1438.510317356699
 21
683.265962874174
 31
0.0
  0
LINE
  5
2C59
330
18
100
AcDbEntity
  8
MSL-115-R32-S-0
100
AcDbLine
 10
1438.510317356699
 20
683.265962874174
 30
0.0
 11
1435.62356601075
 21
683.265962874174
 31
0.0
  0
LINE
  5
2C5A
330
18
100
AcDbEntity
  8
MSL-115-R32-S-7A
100
AcDbLine
 10
1445.641941683724
 20
688.2659628741739
 30
0.0
 11
1445.641941683724
 21
702.2659628741739
 31
0.0
  0
LINE
  5
2C5B
330
18
100
AcDbEntity
  8
MSL-115-R32-S-7A
100
AcDbLine
 10
1456.641803683724
 20
691.0341748741739
 30
0.0
 11
1456.641803683724
 21
673.2215104716884
 31
0.0
  0
LINE
  5
2C5E
330
18
100
AcDbEntity
  8
MSL-115-R32-S-0
100
AcDbLine
 10
1466.616941683724
 20
675.2659628741739
 30
0.0
 11
1463.616941683724
 21
675.2659628741739
 31
0.0
  0
LINE
  5
2C60
330
18
100
AcDbEntity
  8
MSL-115-R32-S-0
100
AcDbLine
 10
1451.643079683724
 20
675.7659628741739
 30
0.0
 11
1451.643079683724
 21
675.4659628741737
 31
0.0
  0
LINE
  5
2C61
330
18
100
AcDbEntity
  8
MSL-115-R32-S-0
100
AcDbLine
 10
1461.640803683724
 20
675.4659628741737
 30
0.0
 11
1461.640803683724
 21
675.7659628741739
 31
0.0
  0
LINE
  5
2C62
330
18
100
AcDbEntity
  8
MSL-115-R32-S-0
100
AcDbLine
 10
1446.516941683724
 20
675.7659628741739
 30
0.0
 11
1446.516941683724
 21
675.2659628741739
 31
0.0
  0
LINE
  5
2C65
330
18
100
AcDbEntity
  8
MSL-115-R32-S-0
100
AcDbLine
 10
1449.516941683724
 20
675.2659628741739
 30
0.0
 11
1446.516941683724
 21
675.2659628741739
 31
0.0
  0
ARC
  5
2C66
330
18
100
AcDbEntity
  8
MSL-115-R32-S-0
100
AcDbCircle
 10
1451.443079683725
 20
675.4659628741737
 30
0.0
 40
0.2
100
AcDbArc
 50
270.0
 51
0.0
  0
LINE
  5
2C67
330
18
100
AcDbEntity
  8
MSL-115-R32-S-0
100
AcDbLine
 10
1451.443079683724
 20
675.2659628741739
 30
0.0
 11
1449.516941683724
 21
675.2659628741739
 31
0.0
  0
ARC
  5
2C68
330
18
100
AcDbEntity
  8
MSL-115-R32-S-0
100
AcDbCircle
 10
1461.840803683725
 20
675.4659628741737
 30
0.0
 40
0.2
100
AcDbArc
 50
180.0
 51
270.0
  0
LINE
  5
2C69
330
18
100
AcDbEntity
  8
MSL-115-R32-S-0
100
AcDbLine
 10
1463.616941683724
 20
675.2659628741739
 30
0.0
 11
1461.840803683724
 21
675.2659628741739
 31
0.0
  0
LINE
  5
2C6E
330
18
100
AcDbEntity
  8
MSL-115-R32-S-0
100
AcDbLine
 10
1470.641941683724
 20
675.2659628741739
 30
0.0
 11
1470.641941683724
 21
675.7659628741744
 31
0.0
  0
LINE
  5
2C6F
330
18
100
AcDbEntity
  8
MSL-115-R32-S-0
100
AcDbLine
 10
1466.616941683724
 20
675.7659628741739
 30
0.0
 11
1466.616941683724
 21
675.2659628741739
 31
0.0
  0
LINE
  5
2C70
330
18
100
AcDbEntity
  8
MSL-115-R32-S-0
100
AcDbLine
 10
1466.616941683724
 20
675.2659628741739
 30
0.0
 11
1470.641941683724
 21
675.2659628741739
 31
0.0
  0
LINE
  5
2C7F
330
18
100
AcDbEntity
  8
MSL-115-R32-S-7A
100
AcDbLine
 10
1441.141941683724
 20
778.265962874174
 30
0.0
 11
1451.141941683724
 21
778.265962874174
 31
0.0
  0
ARC
  5
2C80
330
18
100
AcDbEntity
  8
MSL-115-R32-S-5
100
AcDbCircle
 10
1446.141941683725
 20
778.265962874174
 30
0.0
 40
3.0
100
AcDbArc
 50
255.0000000000055
 51
195.0000000000007
  0
LINE
  5
2C81
330
18
100
AcDbEntity
  8
MSL-115-R32-S-0
100
AcDbLine
 10
1468.641941683724
 20
788.7659628741739
 30
0.0
 11
1347.641941683724
 21
788.7659628741739
 31
0.0
  0
CIRCLE
  5
2C82
330
18
100
AcDbEntity
  8
MSL-115-R32-S-0
100
AcDbCircle
 10
1446.141941683725
 20
778.265962874174
 30
0.0
 40
2.5
  0
LINE
  5
2C83
330
18
100
AcDbEntity
  8
MSL-115-R32-S-0
100
AcDbLine
 10
1345.641941683724
 20
767.7659628741739
 30
0.0
 11
1470.641941683724
 21
767.7659628741739
 31
0.0
  0
LINE
  5
2C84
330
18
100
AcDbEntity
  8
MSL-115-R32-S-0
100
AcDbLine
 10
1342.141941683724
 20
789.7659628741739
 30
0.0
 11
1474.141941683724
 21
789.7659628741739
 31
0.0
  0
LINE
  5
2C85
330
18
100
AcDbEntity
  8
MSL-115-R32-S-0
100
AcDbLine
 10
1475.141941683724
 20
790.2659628741739
 30
0.0
 11
1420.641941683724
 21
790.2659628741739
 31
0.0
  0
LINE
  5
2C86
330
18
100
AcDbEntity
  8
MSL-115-R32-S-0
100
AcDbLine
 10
1345.641941683724
 20
786.765962874174
 30
0.0
 11
1345.641941683724
 21
767.7659628741739
 31
0.0
  0
LINE
  5
2C87
330
18
100
AcDbEntity
  8
MSL-115-R32-S-0
100
AcDbLine
 10
1341.141941683724
 20
770.765962874174
 30
0.0
 11
1341.141941683724
 21
788.7659628741739
 31
0.0
  0
LINE
  5
2C88
330
18
100
AcDbEntity
  8
MSL-115-R32-S-0
100
AcDbLine
 10
1340.641941683724
 20
789.7659628741739
 30
0.0
 11
1340.641941683724
 21
765.2659628741739
 31
0.0
  0
LINE
  5
2C89
330
18
100
AcDbEntity
  8
MSL-115-R32-S-7A
100
AcDbLine
 10
1365.141941683724
 20
778.265962874174
 30
0.0
 11
1375.141941683724
 21
778.265962874174
 31
0.0
  0
ARC
  5
2C8A
330
18
100
AcDbEntity
  8
MSL-115-R32-S-5
100
AcDbCircle
 10
1370.141941683725
 20
778.265962874174
 30
0.0
 40
3.0
100
AcDbArc
 50
255.0000000000055
 51
195.0000000000007
  0
CIRCLE
  5
2C8B
330
18
100
AcDbEntity
  8
MSL-115-R32-S-0
100
AcDbCircle
 10
1370.141941683725
 20
778.265962874174
 30
0.0
 40
2.5
  0
CIRCLE
  5
2C8C
330
18
100
AcDbEntity
  8
MSL-115-R32-S-0
100
AcDbCircle
 10
1358.641941683725
 20
751.2659628741739
 30
0.0
 40
5.0
  0
CIRCLE
  5
2C8D
330
18
100
AcDbEntity
  8
MSL-115-R32-S-0
100
AcDbCircle
 10
1358.641941683725
 20
751.2659628741739
 30
0.0
 40
5.5
  0
LINE
  5
2C8E
330
18
100
AcDbEntity
  8
MSL-115-R32-S-0
100
AcDbLine
 10
1342.141941683724
 20
764.8659628741738
 30
0.0
 11
1342.141941683724
 21
748.2659628741739
 31
0.0
  0
LINE
  5
2C8F
330
18
100
AcDbEntity
  8
MSL-115-R32-S-0
100
AcDbLine
 10
1341.641941683724
 20
764.4659628741737
 30
0.0
 11
1341.641941683724
 21
748.7659628741739
 31
0.0
  0
LINE
  5
2C90
330
18
100
AcDbEntity
  8
MSL-115-R32-S-0
100
AcDbLine
 10
1342.141941683724
 20
748.2659628741739
 30
0.0
 11
1344.941941683724
 21
745.4659628741738
 31
0.0
  0
LINE
  5
2C91
330
18
100
AcDbEntity
  8
MSL-115-R32-S-0
100
AcDbLine
 10
1344.941941683724
 20
745.4659628741738
 30
0.0
 11
1345.641941683724
 21
745.4659628741738
 31
0.0
  0
LINE
  5
2C92
330
18
100
AcDbEntity
  8
MSL-115-R32-S-0
100
AcDbLine
 10
1341.641941683724
 20
748.7659628741739
 30
0.0
 11
1342.141941683724
 21
748.2659628741739
 31
0.0
  0
LINE
  5
2C93
330
18
100
AcDbEntity
  8
MSL-115-R32-S-0
100
AcDbLine
 10
1357.19856601075
 20
753.765962874174
 30
0.0
 11
1360.085317356698
 21
753.765962874174
 31
0.0
  0
LINE
  5
2C94
330
18
100
AcDbEntity
  8
MSL-115-R32-S-0
100
AcDbLine
 10
1360.085317356698
 20
748.7659628741739
 30
0.0
 11
1357.19856601075
 21
748.7659628741739
 31
0.0
  0
LINE
  5
2C95
330
18
100
AcDbEntity
  8
MSL-115-R32-S-0
100
AcDbLine
 10
1355.755190337776
 20
751.2659628741739
 30
0.0
 11
1357.19856601075
 21
753.765962874174
 31
0.0
  0
LINE
  5
2C96
330
18
100
AcDbEntity
  8
MSL-115-R32-S-0
100
AcDbLine
 10
1357.19856601075
 20
748.7659628741739
 30
0.0
 11
1355.755190337776
 21
751.2659628741739
 31
0.0
  0
LINE
  5
2C97
330
18
100
AcDbEntity
  8
MSL-115-R32-S-0
100
AcDbLine
 10
1360.085317356698
 20
753.765962874174
 30
0.0
 11
1361.528693029673
 21
751.2659628741739
 31
0.0
  0
LINE
  5
2C98
330
18
100
AcDbEntity
  8
MSL-115-R32-S-0
100
AcDbLine
 10
1361.528693029673
 20
751.2659628741739
 30
0.0
 11
1360.085317356698
 21
748.7659628741739
 31
0.0
  0
LINE
  5
2C99
330
18
100
AcDbEntity
  8
MSL-115-R32-S-0
100
AcDbLine
 10
1341.141941683724
 20
770.765962874174
 30
0.0
 11
1342.141941683724
 21
769.765962874174
 31
0.0
  0
LINE
  5
2C9A
330
18
100
AcDbEntity
  8
MSL-115-R32-S-0
100
AcDbLine
 10
1345.641941683724
 20
764.8659628741738
 30
0.0
 11
1342.141941683724
 21
764.8659628741738
 31
0.0
  0
LINE
  5
2C9B
330
18
100
AcDbEntity
  8
MSL-115-R32-S-0
100
AcDbLine
 10
1342.441941683724
 20
765.2659628741739
 30
0.0
 11
1341.641941683724
 21
764.4659628741737
 31
0.0
  0
LINE
  5
2C9C
330
18
100
AcDbEntity
  8
MSL-115-R32-S-0
100
AcDbLine
 10
1345.641941683724
 20
769.765962874174
 30
0.0
 11
1342.141941683724
 21
769.765962874174
 31
0.0
  0
LINE
  5
2C9D
330
18
100
AcDbEntity
  8
MSL-115-R32-S-0
100
AcDbLine
 10
1345.641941683724
 20
765.2659628741739
 30
0.0
 11
1340.641941683724
 21
765.2659628741739
 31
0.0
  0
LINE
  5
2C9E
330
18
100
AcDbEntity
  8
MSL-115-R32-S-7A
100
AcDbLine
 10
1430.641941683724
 20
749.765962874174
 30
0.0
 11
1430.641941683724
 21
763.7659628741739
 31
0.0
  0
LINE
  5
2C9F
330
18
100
AcDbEntity
  8
MSL-115-R32-S-7A
100
AcDbLine
 10
1385.641941683724
 20
749.765962874174
 30
0.0
 11
1385.641941683724
 21
763.7659628741739
 31
0.0
  0
ARC
  5
2CA0
330
18
100
AcDbEntity
  8
MSL-115-R32-S-5
100
AcDbCircle
 10
1385.641941683725
 20
756.7659628741739
 30
0.0
 40
5.0
100
AcDbArc
 50
255.0000000000055
 51
195.0000000000007
  0
ARC
  5
2CA1
330
18
100
AcDbEntity
  8
MSL-115-R32-S-5
100
AcDbCircle
 10
1430.641941683725
 20
756.7659628741739
 30
0.0
 40
5.0
100
AcDbArc
 50
255.0000000000055
 51
195.0000000000007
  0
CIRCLE
  5
2CA2
330
18
100
AcDbEntity
  8
MSL-115-R32-S-0
100
AcDbCircle
 10
1385.641941683725
 20
756.7659628741739
 30
0.0
 40
4.25
  0
CIRCLE
  5
2CA3
330
18
100
AcDbEntity
  8
MSL-115-R32-S-0
100
AcDbCircle
 10
1430.641941683725
 20
756.7659628741739
 30
0.0
 40
4.25
  0
LINE
  5
2CA4
330
18
100
AcDbEntity
  8
MSL-115-R32-S-7A
100
AcDbLine
 10
1403.141941683724
 20
778.265962874174
 30
0.0
 11
1413.141941683725
 21
778.265962874174
 31
0.0
  0
ARC
  5
2CA5
330
18
100
AcDbEntity
  8
MSL-115-R32-S-5
100
AcDbCircle
 10
1408.141941683725
 20
778.265962874174
 30
0.0
 40
3.0
100
AcDbArc
 50
255.0000000000055
 51
195.0000000000007
  0
CIRCLE
  5
2CA6
330
18
100
AcDbEntity
  8
MSL-115-R32-S-0
100
AcDbCircle
 10
1408.141941683725
 20
778.265962874174
 30
0.0
 40
2.5
  0
LINE
  5
2CA7
330
18
100
AcDbEntity
  8
MSL-115-R32-S-7A
100
AcDbLine
 10
1378.641941683724
 20
756.7659628741739
 30
0.0
 11
1392.641941683725
 21
756.7659628741739
 31
0.0
  0
LINE
  5
2CA8
330
18
100
AcDbEntity
  8
MSL-115-R32-S-7A
100
AcDbLine
 10
1370.141941683725
 20
773.2659628741739
 30
0.0
 11
1370.141941683725
 21
783.265962874174
 31
0.0
  0
LINE
  5
2CA9
330
18
100
AcDbEntity
  8
MSL-115-R32-S-7A
100
AcDbLine
 10
1423.641941683724
 20
756.7659628741739
 30
0.0
 11
1437.641941683724
 21
756.7659628741739
 31
0.0
  0
LINE
  5
2CAA
330
18
100
AcDbEntity
  8
MSL-115-R32-S-7A
100
AcDbLine
 10
1408.141941683724
 20
773.2659628741739
 30
0.0
 11
1408.141941683724
 21
783.265962874174
 31
0.0
  0
LINE
  5
2CAB
330
18
100
AcDbEntity
  8
MSL-115-R32-S-0
100
AcDbLine
 10
1459.141941683724
 20
792.2659628741739
 30
0.0
 11
1459.641941683725
 21
791.765962874174
 31
0.0
  0
LINE
  5
2CAC
330
18
100
AcDbEntity
  8
MSL-115-R32-S-0
100
AcDbLine
 10
1446.641941683724
 20
791.7659628741744
 30
0.0
 11
1459.641941683725
 21
791.765962874174
 31
0.0
  0
LINE
  5
2CAD
330
18
100
AcDbEntity
  8
MSL-115-R32-S-0
100
AcDbLine
 10
1395.641941683724
 20
790.2659628741739
 30
0.0
 11
1341.141941683724
 21
790.2659628741739
 31
0.0
  0
LINE
  5
2CAE
330
18
100
AcDbEntity
  8
MSL-115-R32-S-0
100
AcDbLine
 10
1347.641941683724
 20
788.7659628741739
 30
0.0
 11
1345.641941683724
 21
786.765962874174
 31
0.0
  0
LINE
  5
2CAF
330
18
100
AcDbEntity
  8
MSL-115-R32-S-0
100
AcDbLine
 10
1342.141941683724
 20
789.7659628741739
 30
0.0
 11
1341.141941683724
 21
788.7659628741739
 31
0.0
  0
LINE
  5
2CB0
330
18
100
AcDbEntity
  8
MSL-115-R32-S-0
100
AcDbLine
 10
1341.141941683724
 20
790.2659628741739
 30
0.0
 11
1340.641941683724
 21
789.7659628741739
 31
0.0
  0
LINE
  5
2CB1
330
18
100
AcDbEntity
  8
MSL-115-R32-S-7A
100
AcDbLine
 10
1363.141941683724
 20
796.085574483036
 30
0.0
 11
1363.141941683724
 21
785.0849953526876
 31
0.0
  0
LINE
  5
2CB2
330
18
100
AcDbEntity
  8
MSL-115-R32-S-0
100
AcDbLine
 10
1446.641941683724
 20
790.2659628741739
 30
0.0
 11
1446.641941683724
 21
791.7659628741744
 31
0.0
  0
LINE
  5
2CB3
330
18
100
AcDbEntity
  8
MSL-115-R32-S-0
100
AcDbLine
 10
1447.141941683725
 20
792.2659628741744
 30
0.0
 11
1459.141941683724
 21
792.2659628741739
 31
0.0
  0
LINE
  5
2CB4
330
18
100
AcDbEntity
  8
MSL-115-R32-S-0
100
AcDbLine
 10
1446.641941683724
 20
791.7659628741744
 30
0.0
 11
1447.141941683725
 21
792.2659628741744
 31
0.0
  0
LINE
  5
2CB5
330
18
100
AcDbEntity
  8
MSL-115-R32-S-0
100
AcDbLine
 10
1459.641941683725
 20
791.765962874174
 30
0.0
 11
1459.641941683725
 21
790.2659628741739
 31
0.0
  0
LINE
  5
2CB6
330
18
100
AcDbEntity
  8
MSL-115-R32-S-0
100
AcDbLine
 10
1395.641941683724
 20
789.7659628741739
 30
0.0
 11
1395.641941683724
 21
790.2659628741739
 31
0.0
  0
LINE
  5
2CB7
330
18
100
AcDbEntity
  8
MSL-115-R32-S-0
100
AcDbLine
 10
1420.641941683724
 20
790.2659628741739
 30
0.0
 11
1420.641941683724
 21
789.7659628741739
 31
0.0
  0
LINE
  5
2CB8
330
18
100
AcDbEntity
  8
MSL-115-R32-S-7A
100
AcDbLine
 10
1453.141941683725
 20
796.085574483036
 30
0.0
 11
1453.141941683725
 21
784.2625740412841
 31
0.0
  0
LINE
  5
2CB9
330
18
100
AcDbEntity
  8
MSL-115-R32-S-0
100
AcDbLine
 10
1470.641941683724
 20
767.7659628741739
 30
0.0
 11
1470.641941683724
 21
786.765962874174
 31
0.0
  0
LINE
  5
2CBA
330
18
100
AcDbEntity
  8
MSL-115-R32-S-0
100
AcDbLine
 10
1475.141941683724
 20
788.7659628741739
 30
0.0
 11
1475.141941683724
 21
770.765962874174
 31
0.0
  0
LINE
  5
2CBB
330
18
100
AcDbEntity
  8
MSL-115-R32-S-0
100
AcDbLine
 10
1475.641941683725
 20
789.7659628741739
 30
0.0
 11
1475.641941683725
 21
765.2659628741739
 31
0.0
  0
CIRCLE
  5
2CBC
330
18
100
AcDbEntity
  8
MSL-115-R32-S-0
100
AcDbCircle
 10
1457.641941683725
 20
751.2659628741738
 30
0.0
 40
5.0
  0
CIRCLE
  5
2CBD
330
18
100
AcDbEntity
  8
MSL-115-R32-S-0
100
AcDbCircle
 10
1457.641941683725
 20
751.2659628741738
 30
0.0
 40
5.5
  0
LINE
  5
2CBE
330
18
100
AcDbEntity
  8
MSL-115-R32-S-0
100
AcDbLine
 10
1474.141941683724
 20
748.2659628741735
 30
0.0
 11
1474.141941683724
 21
764.8659628741734
 31
0.0
  0
LINE
  5
2CBF
330
18
100
AcDbEntity
  8
MSL-115-R32-S-0
100
AcDbLine
 10
1474.641941683724
 20
764.4659628741737
 30
0.0
 11
1474.641941683724
 21
748.7659628741734
 31
0.0
  0
LINE
  5
2CC0
330
18
100
AcDbEntity
  8
MSL-115-R32-S-0
100
AcDbLine
 10
1456.19856601075
 20
753.765962874174
 30
0.0
 11
1459.085317356699
 21
753.765962874174
 31
0.0
  0
LINE
  5
2CC1
330
18
100
AcDbEntity
  8
MSL-115-R32-S-0
100
AcDbLine
 10
1459.085317356699
 20
753.765962874174
 30
0.0
 11
1460.528693029672
 21
751.2659628741739
 31
0.0
  0
LINE
  5
2CC2
330
18
100
AcDbEntity
  8
MSL-115-R32-S-0
100
AcDbLine
 10
1456.19856601075
 20
748.7659628741739
 30
0.0
 11
1454.755190337776
 21
751.2659628741739
 31
0.0
  0
LINE
  5
2CC3
330
18
100
AcDbEntity
  8
MSL-115-R32-S-0
100
AcDbLine
 10
1454.755190337776
 20
751.2659628741739
 30
0.0
 11
1456.19856601075
 21
753.765962874174
 31
0.0
  0
LINE
  5
2CC4
330
18
100
AcDbEntity
  8
MSL-115-R32-S-0
100
AcDbLine
 10
1459.085317356699
 20
748.7659628741739
 30
0.0
 11
1456.19856601075
 21
748.7659628741739
 31
0.0
  0
LINE
  5
2CC5
330
18
100
AcDbEntity
  8
MSL-115-R32-S-0
100
AcDbLine
 10
1460.528693029672
 20
751.2659628741739
 30
0.0
 11
1459.085317356699
 21
748.7659628741739
 31
0.0
  0
LINE
  5
2CC6
330
18
100
AcDbEntity
  8
MSL-115-R32-S-0
100
AcDbLine
 10
1471.341941683724
 20
745.4659628741738
 30
0.0
 11
1474.141941683724
 21
748.2659628741735
 31
0.0
  0
LINE
  5
2CC7
330
18
100
AcDbEntity
  8
MSL-115-R32-S-0
100
AcDbLine
 10
1470.641941683724
 20
745.4659628741738
 30
0.0
 11
1471.341941683724
 21
745.4659628741738
 31
0.0
  0
LINE
  5
2CC8
330
18
100
AcDbEntity
  8
MSL-115-R32-S-0
100
AcDbLine
 10
1474.641941683724
 20
748.7659628741734
 30
0.0
 11
1474.141941683724
 21
748.2659628741735
 31
0.0
  0
LINE
  5
2CC9
330
18
100
AcDbEntity
  8
MSL-115-R32-S-0
100
AcDbLine
 10
1474.141941683724
 20
769.765962874174
 30
0.0
 11
1475.141941683724
 21
770.765962874174
 31
0.0
  0
LINE
  5
2CCA
330
18
100
AcDbEntity
  8
MSL-115-R32-S-0
100
AcDbLine
 10
1474.141941683724
 20
764.8659628741734
 30
0.0
 11
1470.641941683724
 21
764.8659628741734
 31
0.0
  0
LINE
  5
2CCB
330
18
100
AcDbEntity
  8
MSL-115-R32-S-0
100
AcDbLine
 10
1474.141941683724
 20
769.765962874174
 30
0.0
 11
1470.641941683724
 21
769.765962874174
 31
0.0
  0
LINE
  5
2CCC
330
18
100
AcDbEntity
  8
MSL-115-R32-S-0
100
AcDbLine
 10
1475.641941683725
 20
765.2659628741739
 30
0.0
 11
1470.641941683724
 21
765.2659628741739
 31
0.0
  0
LINE
  5
2CCD
330
18
100
AcDbEntity
  8
MSL-115-R32-S-0
100
AcDbLine
 10
1473.841941683724
 20
765.2659628741739
 30
0.0
 11
1474.641941683724
 21
764.4659628741737
 31
0.0
  0
LINE
  5
2CCE
330
18
100
AcDbEntity
  8
MSL-115-R32-S-7A
100
AcDbLine
 10
1446.141941683724
 20
773.2659628741739
 30
0.0
 11
1446.141941683724
 21
783.265962874174
 31
0.0
  0
LINE
  5
2CD5
330
18
100
AcDbEntity
  8
MSL-115-R32-S-0
100
AcDbLine
 10
1470.641941683724
 20
786.765962874174
 30
0.0
 11
1468.641941683724
 21
788.7659628741739
 31
0.0
  0
LINE
  5
2CD6
330
18
100
AcDbEntity
  8
MSL-115-R32-S-0
100
AcDbLine
 10
1475.141941683724
 20
788.7659628741739
 30
0.0
 11
1474.141941683724
 21
789.7659628741739
 31
0.0
  0
LINE
  5
2CD7
330
18
100
AcDbEntity
  8
MSL-115-R32-S-0
100
AcDbLine
 10
1475.641941683725
 20
789.7659628741739
 30
0.0
 11
1475.141941683724
 21
790.2659628741739
 31
0.0
  0
LINE
  5
2D97
330
18
100
AcDbEntity
  8
MSL-115-R32-S-0
100
AcDbLine
 10
1279.175381393261
 20
777.9224712900949
 30
0.0
 11
1279.175381393261
 21
776.9224712900949
 31
0.0
  0
MTEXT
  5
3D8B
330
18
100
AcDbEntity
  8
MSL-115-R32-S-5
100
AcDbMText
 10
813.1169399501963
 20
852.3505107292789
 30
0.0
 40
3.5
 41
0.0
 71
     9
 72
     5
  1

  7
ACDINTS
1001
ACAD
1000
MTEXTBEGIN
1070
    73
1070
     1
1070
    44
1040
1.0
1070
    74
1070
     0
1000
MTEXTEND
1000
MTEXTBEGIN
1070
    73
1070
     1
1070
    44
1040
1.0
1070
    74
1070
     0
1000
MTEXTEND
  0
MTEXT
  5
3D90
330
18
100
AcDbEntity
  8
MSL-115-R32-S-5
100
AcDbMText
 10
1109.359257768186
 20
651.0040130381355
 30
0.0
 40
3.5
 41
0.0
 71
     7
 72
     5
  1

  7
ACDINTS
1001
ACAD
1000
MTEXTBEGIN
1070
    73
1070
     1
1070
    44
1040
1.0
1070
    74
1070
     0
1000
MTEXTEND
  0
LINE
  5
47BA
330
18
100
AcDbEntity
  8
MSL-115-R32-S-7A
100
AcDbLine
 10
818.0919484196618
 20
571.2719190962493
 30
0.0
 11
1310.506931378178
 21
571.2719190962491
 31
0.0
  0
CIRCLE
  5
4E16
330
18
100
AcDbEntity
  8
MSL-115-R32-S-0
 48
2.0
100
AcDbCircle
 10
924.6753813932611
 20
616.2719190962495
 30
0.0
 40
3.399999999999999
  0
ARC
  5
4E17
330
18
100
AcDbEntity
  8
MSL-115-R32-S-5
 48
2.0
100
AcDbCircle
 10
924.6753813932611
 20
616.2719190962495
 30
0.0
 40
4.0
100
AcDbArc
 50
164.9999999999992
 51
104.9999999999944
  0
LINE
  5
4E18
330
18
100
AcDbEntity
  8
MSL-115-R32-S-7A
 48
2.0
100
AcDbLine
 10
918.6753813932611
 20
616.2719190962493
 30
0.0
 11
1110.67538139326
 21
616.2719190962491
 31
0.0
  0
LINE
  5
4E19
330
18
100
AcDbEntity
  8
MSL-115-R32-S-7A
 48
2.0
100
AcDbLine
 10
924.6753813932611
 20
610.2719190962493
 30
0.0
 11
924.6753813932611
 21
622.2719190962493
 31
0.0
  0
LINE
  5
4E1A
330
18
100
AcDbEntity
  8
MSL-115-R32-S-7A
 48
2.0
100
AcDbLine
 10
954.675381393261
 20
610.2719190962493
 30
0.0
 11
954.675381393261
 21
622.2719190962493
 31
0.0
  0
CIRCLE
  5
4E1B
330
18
100
AcDbEntity
  8
MSL-115-R32-S-0
 48
2.0
100
AcDbCircle
 10
954.675381393261
 20
616.2719190962495
 30
0.0
 40
3.399999999999999
  0
ARC
  5
4E1C
330
18
100
AcDbEntity
  8
MSL-115-R32-S-5
 48
2.0
100
AcDbCircle
 10
954.675381393261
 20
616.2719190962495
 30
0.0
 40
4.0
100
AcDbArc
 50
164.9999999999992
 51
104.9999999999944
  0
CIRCLE
  5
4E1D
330
18
100
AcDbEntity
  8
MSL-115-R32-S-0
 48
2.0
100
AcDbCircle
 10
984.6753813932611
 20
616.2719190962495
 30
0.0
 40
6.5
  0
LINE
  5
4E1E
330
18
100
AcDbEntity
  8
MSL-115-R32-S-7A
 48
2.0
100
AcDbLine
 10
984.6753813932611
 20
608.2719190962493
 30
0.0
 11
984.6753813932611
 21
624.2719190962493
 31
0.0
  0
ARC
  5
4E1F
330
18
100
AcDbEntity
  8
MSL-115-R32-S-5
 48
2.0
100
AcDbCircle
 10
984.6753813932611
 20
616.2719190962495
 30
0.0
 40
4.0
100
AcDbArc
 50
164.9999999999992
 51
104.9999999999944
  0
CIRCLE
  5
4E20
330
18
100
AcDbEntity
  8
MSL-115-R32-S-0
 48
2.0
100
AcDbCircle
 10
984.6753813932611
 20
616.2719190962495
 30
0.0
 40
3.399999999999999
  0
ARC
  5
4E22
330
18
100
AcDbEntity
  8
MSL-115-R32-S-5
 48
2.0
100
AcDbCircle
 10
1044.67538139326
 20
616.2719190962495
 30
0.0
 40
4.0
100
AcDbArc
 50
165.0000000000055
 51
104.9999999999944
  0
LINE
  5
4E23
330
18
100
AcDbEntity
  8
MSL-115-R32-S-7A
 48
2.0
100
AcDbLine
 10
1044.67538139326
 20
608.2719190962493
 30
0.0
 11
1044.67538139326
 21
624.2719190962493
 31
0.0
  0
ARC
  5
4E24
330
18
100
AcDbEntity
  8
MSL-115-R32-S-5
 48
2.0
100
AcDbCircle
 10
1014.675381393261
 20
616.2719190962495
 30
0.0
 40
4.0
100
AcDbArc
 50
164.9999999999992
 51
104.9999999999944
  0
CIRCLE
  5
4E25
330
18
100
AcDbEntity
  8
MSL-115-R32-S-0
 48
2.0
100
AcDbCircle
 10
1014.675381393261
 20
616.2719190962495
 30
0.0
 40
3.399999999999999
  0
CIRCLE
  5
4E26
330
18
100
AcDbEntity
  8
MSL-115-R32-S-0
 48
2.0
100
AcDbCircle
 10
1044.67538139326
 20
616.2719190962495
 30
0.0
 40
3.399999999999999
  0
LINE
  5
4E27
330
18
100
AcDbEntity
  8
MSL-115-R32-S-7A
 48
2.0
100
AcDbLine
 10
1074.67538139326
 20
610.2719190962491
 30
0.0
 11
1074.67538139326
 21
622.2719190962491
 31
0.0
  0
ARC
  5
4E28
330
18
100
AcDbEntity
  8
MSL-115-R32-S-5
 48
2.0
100
AcDbCircle
 10
1074.67538139326
 20
616.2719190962491
 30
0.0
 40
4.0
100
AcDbArc
 50
164.9999999999992
 51
104.9999999999944
  0
CIRCLE
  5
4E29
330
18
100
AcDbEntity
  8
MSL-115-R32-S-0
 48
2.0
100
AcDbCircle
 10
1074.67538139326
 20
616.2719190962491
 30
0.0
 40
3.399999999999999
  0
LINE
  5
4E2A
330
18
100
AcDbEntity
  8
MSL-115-R32-S-7A
 48
2.0
100
AcDbLine
 10
1104.67538139326
 20
610.2719190962491
 30
0.0
 11
1104.67538139326
 21
622.2719190962491
 31
0.0
  0
ARC
  5
4E2B
330
18
100
AcDbEntity
  8
MSL-115-R32-S-5
 48
2.0
100
AcDbCircle
 10
1104.67538139326
 20
616.2719190962491
 30
0.0
 40
4.0
100
AcDbArc
 50
164.9999999999992
 51
104.9999999999944
  0
CIRCLE
  5
4E2C
330
18
100
AcDbEntity
  8
MSL-115-R32-S-0
 48
2.0
100
AcDbCircle
 10
1104.67538139326
 20
616.2719190962491
 30
0.0
 40
3.399999999999999
  0
CIRCLE
  5
4E2D
330
18
100
AcDbEntity
  8
MSL-115-R32-S-0
 48
2.0
100
AcDbCircle
 10
924.6753813932611
 20
526.2719190962496
 30
0.0
 40
3.399999999999999
  0
ARC
  5
4E2E
330
18
100
AcDbEntity
  8
MSL-115-R32-S-5
 48
2.0
100
AcDbCircle
 10
924.6753813932611
 20
526.2719190962496
 30
0.0
 40
4.0
100
AcDbArc
 50
164.9999999999992
 51
104.9999999999944
  0
LINE
  5
4E2F
330
18
100
AcDbEntity
  8
MSL-115-R32-S-7A
 48
2.0
100
AcDbLine
 10
918.6753813932611
 20
526.2719190962493
 30
0.0
 11
1110.67538139326
 21
526.2719190962491
 31
0.0
  0
LINE
  5
4E30
330
18
100
AcDbEntity
  8
MSL-115-R32-S-7A
 48
2.0
100
AcDbLine
 10
924.6753813932611
 20
520.2719190962493
 30
0.0
 11
924.6753813932611
 21
532.2719190962494
 31
0.0
  0
LINE
  5
4E31
330
18
100
AcDbEntity
  8
MSL-115-R32-S-7A
 48
2.0
100
AcDbLine
 10
954.675381393261
 20
520.2719190962493
 30
0.0
 11
954.675381393261
 21
532.2719190962494
 31
0.0
  0
CIRCLE
  5
4E32
330
18
100
AcDbEntity
  8
MSL-115-R32-S-0
 48
2.0
100
AcDbCircle
 10
954.675381393261
 20
526.2719190962496
 30
0.0
 40
3.399999999999999
  0
ARC
  5
4E33
330
18
100
AcDbEntity
  8
MSL-115-R32-S-5
 48
2.0
100
AcDbCircle
 10
954.675381393261
 20
526.2719190962496
 30
0.0
 40
4.0
100
AcDbArc
 50
164.9999999999992
 51
104.9999999999944
  0
LINE
  5
4E35
330
18
100
AcDbEntity
  8
MSL-115-R32-S-7A
 48
2.0
100
AcDbLine
 10
984.6753813932611
 20
518.2719190962489
 30
0.0
 11
984.6753813932611
 21
534.2719190962489
 31
0.0
  0
ARC
  5
4E36
330
18
100
AcDbEntity
  8
MSL-115-R32-S-5
 48
2.0
100
AcDbCircle
 10
984.6753813932611
 20
526.2719190962496
 30
0.0
 40
4.0
100
AcDbArc
 50
165.0000000000055
 51
104.9999999999944
  0
CIRCLE
  5
4E37
330
18
100
AcDbEntity
  8
MSL-115-R32-S-0
 48
2.0
100
AcDbCircle
 10
984.6753813932611
 20
526.2719190962496
 30
0.0
 40
3.399999999999999
  0
ARC
  5
4E39
330
18
100
AcDbEntity
  8
MSL-115-R32-S-5
 48
2.0
100
AcDbCircle
 10
1044.67538139326
 20
526.2719190962491
 30
0.0
 40
4.0
100
AcDbArc
 50
164.9999999999992
 51
104.9999999999944
  0
LINE
  5
4E3B
330
18
100
AcDbEntity
  8
MSL-115-R32-S-7A
 48
2.0
100
AcDbLine
 10
1044.67538139326
 20
518.2719190962489
 30
0.0
 11
1044.67538139326
 21
534.2719190962489
 31
0.0
  0
CIRCLE
  5
4E3C
330
18
100
AcDbEntity
  8
MSL-115-R32-S-0
 48
2.0
100
AcDbCircle
 10
1014.67538139326
 20
526.2719190962491
 30
0.0
 40
3.399999999999999
  0
ARC
  5
4E3D
330
18
100
AcDbEntity
  8
MSL-115-R32-S-5
 48
2.0
100
AcDbCircle
 10
1014.67538139326
 20
526.2719190962491
 30
0.0
 40
4.0
100
AcDbArc
 50
164.9999999999992
 51
104.9999999999944
  0
CIRCLE
  5
4E3E
330
18
100
AcDbEntity
  8
MSL-115-R32-S-0
 48
2.0
100
AcDbCircle
 10
1044.67538139326
 20
526.2719190962491
 30
0.0
 40
3.399999999999999
  0
LINE
  5
4E3F
330
18
100
AcDbEntity
  8
MSL-115-R32-S-7A
 48
2.0
100
AcDbLine
 10
1074.67538139326
 20
520.2719190962491
 30
0.0
 11
1074.67538139326
 21
532.2719190962491
 31
0.0
  0
CIRCLE
  5
4E40
330
18
100
AcDbEntity
  8
MSL-115-R32-S-0
 48
2.0
100
AcDbCircle
 10
1074.67538139326
 20
526.2719190962491
 30
0.0
 40
3.399999999999999
  0
ARC
  5
4E41
330
18
100
AcDbEntity
  8
MSL-115-R32-S-5
 48
2.0
100
AcDbCircle
 10
1074.67538139326
 20
526.2719190962491
 30
0.0
 40
4.0
100
AcDbArc
 50
164.9999999999992
 51
104.9999999999944
  0
LINE
  5
4E42
330
18
100
AcDbEntity
  8
MSL-115-R32-S-7A
 48
2.0
100
AcDbLine
 10
1104.67538139326
 20
520.2719190962491
 30
0.0
 11
1104.67538139326
 21
532.2719190962491
 31
0.0
  0
ARC
  5
4E43
330
18
100
AcDbEntity
  8
MSL-115-R32-S-5
 48
2.0
100
AcDbCircle
 10
1104.67538139326
 20
526.2719190962491
 30
0.0
 40
4.0
100
AcDbArc
 50
164.9999999999992
 51
104.9999999999944
  0
CIRCLE
  5
4E44
330
18
100
AcDbEntity
  8
MSL-115-R32-S-0
 48
2.0
100
AcDbCircle
 10
1104.67538139326
 20
526.2719190962491
 30
0.0
 40
3.399999999999999
  0
LINE
  5
5371
330
18
100
AcDbEntity
  8
MSL-115-R32-S-7A
 48
2.0
100
AcDbLine
 10
1014.675381393261
 20
610.2719190962496
 30
0.0
 11
1014.675381393261
 21
622.2719190962496
 31
0.0
  0
LINE
  5
5372
330
18
100
AcDbEntity
  8
MSL-115-R32-S-7A
 48
2.0
100
AcDbLine
 10
1014.675381393261
 20
520.2719190962495
 30
0.0
 11
1014.675381393261
 21
532.2719190962495
 31
0.0
  0
LINE
  5
5373
330
18
100
AcDbEntity
  8
MSL-115-R32-S-3A
 48
3.0
100
AcDbLine
 10
855.3983468750423
 20
536.2719194314743
 30
0.0
 11
855.3983468750423
 21
606.2719194314743
 31
0.0
  0
LINE
  5
5374
330
18
100
AcDbEntity
  8
MSL-115-R32-S-3A
 48
3.0
100
AcDbLine
 10
874.4253345326821
 20
536.2719194314743
 30
0.0
 11
874.4253345326823
 21
606.2719194314743
 31
0.0
  0
LINE
  5
5375
330
18
100
AcDbEntity
  8
MSL-115-R32-S-3A
 48
3.0
100
AcDbLine
 10
855.6614563440222
 20
606.2719194314743
 30
0.0
 11
874.1753345326822
 21
606.2719194314743
 31
0.0
  0
LINE
  5
5376
330
18
100
AcDbEntity
  8
MSL-115-R32-S-3A
 48
3.0
100
AcDbLine
 10
843.6753345326822
 20
633.7719194314743
 30
0.0
 11
885.6753345326822
 21
633.7719194314743
 31
0.0
  0
LINE
  5
5377
330
18
100
AcDbEntity
  8
MSL-115-R32-S-3A
 48
3.0
100
AcDbLine
 10
843.6753345326822
 20
621.2719194314743
 30
0.0
 11
885.675334532682
 21
621.2719194314743
 31
0.0
  0
LINE
  5
5378
330
18
100
AcDbEntity
  8
MSL-115-R32-S-3A
 48
3.0
100
AcDbLine
 10
843.6753345326822
 20
633.7719194314743
 30
0.0
 11
843.6753345326822
 21
621.2719194314743
 31
0.0
  0
LINE
  5
5379
330
18
100
AcDbEntity
  8
MSL-115-R32-S-3A
 48
3.0
100
AcDbLine
 10
843.6753345326822
 20
632.8683900659752
 30
0.0
 11
842.8721973189054
 21
633.7719194314743
 31
0.0
  0
LINE
  5
537A
330
18
100
AcDbEntity
  8
MSL-115-R32-S-3A
 48
3.0
100
AcDbLine
 10
855.6614563440222
 20
621.2719194314743
 30
0.0
 11
855.6614563440222
 21
606.2719194314743
 31
0.0
  0
LINE
  5
537B
330
18
100
AcDbEntity
  8
MSL-115-R32-S-3A
 48
3.0
100
AcDbLine
 10
855.3983468750423
 20
606.2719194314743
 30
0.0
 11
855.6614563440222
 21
606.2719194314743
 31
0.0
  0
LINE
  5
537C
330
18
100
AcDbEntity
  8
MSL-115-R32-S-3A
 48
3.0
100
AcDbLine
 10
885.675334532682
 20
621.2719194314743
 30
0.0
 11
885.675334532682
 21
633.7719194314743
 31
0.0
  0
LINE
  5
537D
330
18
100
AcDbEntity
  8
MSL-115-R32-S-3A
 48
3.0
100
AcDbLine
 10
874.1753345326822
 20
606.2719194314743
 30
0.0
 11
874.1753345326822
 21
621.2719194314743
 31
0.0
  0
LINE
  5
537E
330
18
100
AcDbEntity
  8
MSL-115-R32-S-3A
 48
3.0
100
AcDbLine
 10
874.4253345326821
 20
606.2719194314743
 30
0.0
 11
874.1753345326822
 21
606.2719194314743
 31
0.0
  0
LINE
  5
537F
330
18
100
AcDbEntity
  8
MSL-115-R32-S-3A
 48
3.0
100
AcDbLine
 10
855.6614563440222
 20
536.2719194314743
 30
0.0
 11
874.1753345326822
 21
536.2719194314743
 31
0.0
  0
LINE
  5
5380
330
18
100
AcDbEntity
  8
MSL-115-R32-S-3A
 48
3.0
100
AcDbLine
 10
885.675334532682
 20
508.7719194314742
 30
0.0
 11
843.675334532682
 21
508.7719194314742
 31
0.0
  0
LINE
  5
5381
330
18
100
AcDbEntity
  8
MSL-115-R32-S-3A
 48
3.0
100
AcDbLine
 10
885.675334532682
 20
521.2719194314742
 30
0.0
 11
843.675334532682
 21
521.2719194314742
 31
0.0
  0
LINE
  5
5382
330
18
100
AcDbEntity
  8
MSL-115-R32-S-3A
 48
3.0
100
AcDbLine
 10
843.675334532682
 20
521.2719194314742
 30
0.0
 11
843.675334532682
 21
508.7719194314742
 31
0.0
  0
LINE
  5
5383
330
18
100
AcDbEntity
  8
MSL-115-R32-S-3A
 48
3.0
100
AcDbLine
 10
855.6614563440222
 20
536.2719194314743
 30
0.0
 11
855.6614563440222
 21
521.2719194314742
 31
0.0
  0
LINE
  5
5384
330
18
100
AcDbEntity
  8
MSL-115-R32-S-3A
 48
3.0
100
AcDbLine
 10
855.6614563440222
 20
536.2719194314743
 30
0.0
 11
855.3983468750423
 21
536.2719194314743
 31
0.0
  0
LINE
  5
5385
330
18
100
AcDbEntity
  8
MSL-115-R32-S-3A
 48
3.0
100
AcDbLine
 10
885.675334532682
 20
508.7719194314742
 30
0.0
 11
885.675334532682
 21
521.2719194314742
 31
0.0
  0
LINE
  5
5386
330
18
100
AcDbEntity
  8
MSL-115-R32-S-3A
 48
3.0
100
AcDbLine
 10
874.175334532682
 20
521.2719194314742
 30
0.0
 11
874.175334532682
 21
536.2719194314743
 31
0.0
  0
LINE
  5
5387
330
18
100
AcDbEntity
  8
MSL-115-R32-S-3A
 48
3.0
100
AcDbLine
 10
874.175334532682
 20
536.2719194314743
 30
0.0
 11
874.4253345326821
 21
536.2719194314743
 31
0.0
  0
LINE
  5
5388
330
18
100
AcDbEntity
  8
MSL-115-R32-S-3A
 48
3.0
100
AcDbLine
 10
1255.398346875042
 20
536.2719194314743
 30
0.0
 11
1255.398346875042
 21
606.2719194314743
 31
0.0
  0
LINE
  5
5389
330
18
100
AcDbEntity
  8
MSL-115-R32-S-3A
 48
3.0
100
AcDbLine
 10
1274.425334532682
 20
536.2719194314743
 30
0.0
 11
1274.425334532682
 21
606.2719194314743
 31
0.0
  0
LINE
  5
538A
330
18
100
AcDbEntity
  8
MSL-115-R32-S-3A
 48
3.0
100
AcDbLine
 10
1255.661456344022
 20
606.2719194314743
 30
0.0
 11
1274.175334532682
 21
606.2719194314743
 31
0.0
  0
LINE
  5
538B
330
18
100
AcDbEntity
  8
MSL-115-R32-S-3A
 48
3.0
100
AcDbLine
 10
1243.675334532682
 20
633.7719194314743
 30
0.0
 11
1285.675334532682
 21
633.7719194314743
 31
0.0
  0
LINE
  5
538C
330
18
100
AcDbEntity
  8
MSL-115-R32-S-3A
 48
3.0
100
AcDbLine
 10
1243.675334532682
 20
621.2719194314743
 30
0.0
 11
1285.675334532682
 21
621.2719194314743
 31
0.0
  0
LINE
  5
538D
330
18
100
AcDbEntity
  8
MSL-115-R32-S-3A
 48
3.0
100
AcDbLine
 10
1243.675334532682
 20
633.7719194314743
 30
0.0
 11
1243.675334532682
 21
621.2719194314743
 31
0.0
  0
LINE
  5
538E
330
18
100
AcDbEntity
  8
MSL-115-R32-S-3A
 48
3.0
100
AcDbLine
 10
1243.675334532682
 20
632.8683900659752
 30
0.0
 11
1242.872197318905
 21
633.7719194314743
 31
0.0
  0
LINE
  5
538F
330
18
100
AcDbEntity
  8
MSL-115-R32-S-3A
 48
3.0
100
AcDbLine
 10
1255.661456344022
 20
621.2719194314743
 30
0.0
 11
1255.661456344022
 21
606.2719194314743
 31
0.0
  0
LINE
  5
5390
330
18
100
AcDbEntity
  8
MSL-115-R32-S-3A
 48
3.0
100
AcDbLine
 10
1255.398346875042
 20
606.2719194314743
 30
0.0
 11
1255.661456344022
 21
606.2719194314743
 31
0.0
  0
LINE
  5
5391
330
18
100
AcDbEntity
  8
MSL-115-R32-S-3A
 48
3.0
100
AcDbLine
 10
1285.675334532682
 20
621.2719194314743
 30
0.0
 11
1285.675334532682
 21
633.7719194314743
 31
0.0
  0
LINE
  5
5392
330
18
100
AcDbEntity
  8
MSL-115-R32-S-3A
 48
3.0
100
AcDbLine
 10
1274.175334532682
 20
606.2719194314743
 30
0.0
 11
1274.175334532682
 21
621.2719194314743
 31
0.0
  0
LINE
  5
5393
330
18
100
AcDbEntity
  8
MSL-115-R32-S-3A
 48
3.0
100
AcDbLine
 10
1274.425334532682
 20
606.2719194314743
 30
0.0
 11
1274.175334532682
 21
606.2719194314743
 31
0.0
  0
LINE
  5
5394
330
18
100
AcDbEntity
  8
MSL-115-R32-S-3A
 48
3.0
100
AcDbLine
 10
1255.661456344022
 20
536.2719194314743
 30
0.0
 11
1274.175334532682
 21
536.2719194314743
 31
0.0
  0
LINE
  5
5395
330
18
100
AcDbEntity
  8
MSL-115-R32-S-3A
 48
3.0
100
AcDbLine
 10
1285.675334532682
 20
508.7719194314742
 30
0.0
 11
1243.675334532682
 21
508.7719194314742
 31
0.0
  0
LINE
  5
5396
330
18
100
AcDbEntity
  8
MSL-115-R32-S-3A
 48
3.0
100
AcDbLine
 10
1285.675334532682
 20
521.2719194314742
 30
0.0
 11
1243.675334532682
 21
521.2719194314742
 31
0.0
  0
LINE
  5
5397
330
18
100
AcDbEntity
  8
MSL-115-R32-S-3A
 48
3.0
100
AcDbLine
 10
1243.675334532682
 20
521.2719194314742
 30
0.0
 11
1243.675334532682
 21
508.7719194314742
 31
0.0
  0
LINE
  5
5398
330
18
100
AcDbEntity
  8
MSL-115-R32-S-3A
 48
3.0
100
AcDbLine
 10
1255.661456344022
 20
536.2719194314743
 30
0.0
 11
1255.661456344022
 21
521.2719194314742
 31
0.0
  0
LINE
  5
5399
330
18
100
AcDbEntity
  8
MSL-115-R32-S-3A
 48
3.0
100
AcDbLine
 10
1255.661456344022
 20
536.2719194314743
 30
0.0
 11
1255.398346875042
 21
536.2719194314743
 31
0.0
  0
LINE
  5
539A
330
18
100
AcDbEntity
  8
MSL-115-R32-S-3A
 48
3.0
100
AcDbLine
 10
1285.675334532682
 20
508.7719194314742
 30
0.0
 11
1285.675334532682
 21
521.2719194314742
 31
0.0
  0
LINE
  5
539B
330
18
100
AcDbEntity
  8
MSL-115-R32-S-3A
 48
3.0
100
AcDbLine
 10
1274.175334532682
 20
521.2719194314742
 30
0.0
 11
1274.175334532682
 21
536.2719194314743
 31
0.0
  0
LINE
  5
539C
330
18
100
AcDbEntity
  8
MSL-115-R32-S-3A
 48
3.0
100
AcDbLine
 10
1274.175334532682
 20
536.2719194314743
 30
0.0
 11
1274.425334532682
 21
536.2719194314743
 31
0.0
  0
LINE
  5
53AE
330
18
100
AcDbEntity
  8
MSL-115-R32-S-3A
100
AcDbLine
 10
1354.443079683725
 20
679.2656838741739
 30
0.0
 11
1349.793079683725
 21
679.2656838741739
 31
0.0
  0
LINE
  5
53AF
330
18
100
AcDbEntity
  8
MSL-115-R32-S-3A
100
AcDbLine
 10
1349.651658327488
 20
684.3198725179365
 30
0.0
 11
1353.084501039963
 21
687.7527152304112
 31
0.0
  0
ARC
  5
53B2
330
18
100
AcDbEntity
  8
MSL-115-R32-S-3A
100
AcDbCircle
 10
1349.793079683725
 20
679.4656838741741
 30
0.0
 40
0.2
100
AcDbArc
 50
180.0
 51
270.0
  0
LINE
  5
53B3
330
18
100
AcDbEntity
  8
MSL-115-R32-S-3A
100
AcDbLine
 10
1349.593079683725
 20
679.4656838741738
 30
0.0
 11
1349.593079683725
 21
684.1784511616992
 31
0.0
  0
ARC
  5
53B4
330
18
100
AcDbEntity
  8
MSL-115-R32-S-3A
100
AcDbCircle
 10
1349.793079683725
 20
684.1784511616995
 30
0.0
 40
0.2
100
AcDbArc
 50
134.999999999997
 51
180.0
  0
LINE
  5
53B9
330
18
100
AcDbEntity
  8
MSL-115-R32-S-3A
100
AcDbLine
 10
1366.199382327488
 20
687.7527152304112
 30
0.0
 11
1369.632225039962
 21
684.3198725179365
 31
0.0
  0
LINE
  5
53BA
330
18
100
AcDbEntity
  8
MSL-115-R32-S-3A
100
AcDbLine
 10
1354.643079683725
 20
675.465962874174
 30
0.0
 11
1354.643079683725
 21
679.0656838741738
 31
0.0
  0
ARC
  5
53BB
330
18
100
AcDbEntity
  8
MSL-115-R32-S-3A
100
AcDbCircle
 10
1354.443079683725
 20
679.0656838741742
 30
0.0
 40
0.2
100
AcDbArc
 50
0.0
 51
89.99999999999998
  0
ARC
  5
53BD
330
18
100
AcDbEntity
  8
MSL-115-R32-S-3A
100
AcDbCircle
 10
1369.490803683725
 20
684.1784511616995
 30
0.0
 40
0.2
100
AcDbArc
 50
0.0
 51
44.99999999999999
  0
LINE
  5
53BE
330
18
100
AcDbEntity
  8
MSL-115-R32-S-3A
100
AcDbLine
 10
1369.690803683725
 20
684.1784511616992
 30
0.0
 11
1369.690803683725
 21
679.4662418741738
 31
0.0
  0
ARC
  5
53BF
330
18
100
AcDbEntity
  8
MSL-115-R32-S-3A
100
AcDbCircle
 10
1369.490803683725
 20
679.4662418741741
 30
0.0
 40
0.2
100
AcDbArc
 50
270.0
 51
0.0
  0
LINE
  5
53C0
330
18
100
AcDbEntity
  8
MSL-115-R32-S-3A
100
AcDbLine
 10
1369.490803683725
 20
679.2662418741738
 30
0.0
 11
1364.840803683725
 21
679.2662418741738
 31
0.0
  0
ARC
  5
53C1
330
18
100
AcDbEntity
  8
MSL-115-R32-S-3A
100
AcDbCircle
 10
1364.840803683725
 20
679.0662418741741
 30
0.0
 40
0.2
100
AcDbArc
 50
89.99999999999998
 51
180.0
  0
LINE
  5
53C2
330
18
100
AcDbEntity
  8
MSL-115-R32-S-3A
100
AcDbLine
 10
1364.640803683725
 20
679.066241874174
 30
0.0
 11
1364.640803683725
 21
675.465962874174
 31
0.0
  0
LINE
  5
53C4
330
18
100
AcDbEntity
  8
MSL-115-R32-S-3A
100
AcDbLine
 10
1360.482658683725
 20
687.8112939258214
 30
0.0
 11
1366.05796097125
 21
687.811293874174
 31
0.0
  0
ARC
  5
53C5
330
18
100
AcDbEntity
  8
MSL-115-R32-S-3A
100
AcDbCircle
 10
1353.2259223962
 20
687.6112938741742
 30
0.0
 40
0.2
100
AcDbArc
 50
89.99999999999998
 51
134.999999999997
  0
LINE
  5
53C6
330
18
100
AcDbEntity
  8
MSL-115-R32-S-3A
100
AcDbLine
 10
1353.2259223962
 20
687.811293874174
 30
0.0
 11
1358.8024485909
 21
687.811293874174
 31
0.0
  0
ARC
  5
53C7
330
18
100
AcDbEntity
  8
MSL-115-R32-S-3A
100
AcDbCircle
 10
1358.8024485909
 20
688.0112938741741
 30
0.0
 40
0.2
100
AcDbArc
 50
270.0
 51
299.9999985145571
  0
LINE
  5
53C8
330
18
100
AcDbEntity
  8
MSL-115-R32-S-3A
100
AcDbLine
 10
1358.90244858641
 20
687.8380887908244
 30
0.0
 11
1359.54207971404
 21
688.2073799724328
 31
0.0
  0
ARC
  5
53C9
330
18
100
AcDbEntity
  8
MSL-115-R32-S-3A
100
AcDbCircle
 10
1359.642079683725
 20
688.0341748741741
 30
0.0
 40
0.1999999483524582
100
AcDbArc
 50
60.03673740766107
 51
119.999989972115
  0
LINE
  5
53CA
330
18
100
AcDbEntity
  8
MSL-115-R32-S-3A
100
AcDbLine
 10
1359.741968580237
 20
688.2074439934497
 30
0.0
 11
1360.382769787213
 21
687.8380248145135
 31
0.0
  0
ARC
  5
53CB
330
18
100
AcDbEntity
  8
MSL-115-R32-S-3A
100
AcDbCircle
 10
1360.482658683725
 20
688.0112938741741
 30
0.0
 40
0.1999999483524664
100
AcDbArc
 50
240.0367288778802
 51
270.0
  0
ARC
  5
53CC
330
18
100
AcDbEntity
  8
MSL-115-R32-S-3A
100
AcDbCircle
 10
1366.05796097125
 20
687.6112938741742
 30
0.0
 40
0.2
100
AcDbArc
 50
44.99999999999999
 51
89.99999999999998
  0
LINE
  5
5478
330
18
100
AcDbEntity
  8
MSL-115-R32-S-3A
100
AcDbLine
 10
1466.490803683725
 20
679.2656838741739
 30
0.0
 11
1461.840803683725
 21
679.2656838741739
 31
0.0
  0
LINE
  5
5479
330
18
100
AcDbEntity
  8
MSL-115-R32-S-3A
100
AcDbLine
 10
1463.199382327488
 20
687.7527152304112
 30
0.0
 11
1466.632225039963
 21
684.3198725179365
 31
0.0
  0
LINE
  5
547B
330
18
100
AcDbEntity
  8
MSL-115-R32-S-3A
100
AcDbLine
 10
1446.651658327488
 20
684.3198725179365
 30
0.0
 11
1450.084501039962
 21
687.7527152304112
 31
0.0
  0
LINE
  5
547C
330
18
100
AcDbEntity
  8
MSL-115-R32-S-3A
100
AcDbLine
 10
1451.643079683725
 20
675.465962874174
 30
0.0
 11
1451.643079683725
 21
679.066241874174
 31
0.0
  0
ARC
  5
547D
330
18
100
AcDbEntity
  8
MSL-115-R32-S-3A
100
AcDbCircle
 10
1451.443079683725
 20
679.0662418741741
 30
0.0
 40
0.2
100
AcDbArc
 50
0.0
 51
89.99999999999998
  0
LINE
  5
547E
330
18
100
AcDbEntity
  8
MSL-115-R32-S-3A
100
AcDbLine
 10
1451.443079683725
 20
679.2662418741738
 30
0.0
 11
1446.793079683725
 21
679.2662418741738
 31
0.0
  0
ARC
  5
547F
330
18
100
AcDbEntity
  8
MSL-115-R32-S-3A
100
AcDbCircle
 10
1446.793079683725
 20
679.4662418741741
 30
0.0
 40
0.2
100
AcDbArc
 50
180.0
 51
270.0
  0
LINE
  5
5480
330
18
100
AcDbEntity
  8
MSL-115-R32-S-3A
100
AcDbLine
 10
1446.593079683725
 20
679.4662418741738
 30
0.0
 11
1446.593079683725
 21
684.1784511616992
 31
0.0
  0
ARC
  5
5481
330
18
100
AcDbEntity
  8
MSL-115-R32-S-3A
100
AcDbCircle
 10
1446.793079683725
 20
684.1784511616995
 30
0.0
 40
0.2
100
AcDbArc
 50
135.0
 51
180.0
  0
LINE
  5
5483
330
18
100
AcDbEntity
  8
MSL-115-R32-S-3A
100
AcDbLine
 10
1461.640803683725
 20
679.0656838741738
 30
0.0
 11
1461.640803683725
 21
675.465962874174
 31
0.0
  0
ARC
  5
5484
330
18
100
AcDbEntity
  8
MSL-115-R32-S-3A
100
AcDbCircle
 10
1461.840803683725
 20
679.065683874174
 30
0.0
 40
0.2
100
AcDbArc
 50
89.99999999999998
 51
180.0
  0
LINE
  5
5486
330
18
100
AcDbEntity
  8
MSL-115-R32-S-3A
100
AcDbLine
 10
1450.2259223962
 20
687.811293874174
 30
0.0
 11
1455.801224683725
 21
687.811293874174
 31
0.0
  0
ARC
  5
5487
330
18
100
AcDbEntity
  8
MSL-115-R32-S-3A
100
AcDbCircle
 10
1450.2259223962
 20
687.6112938741742
 30
0.0
 40
0.2
100
AcDbArc
 50
89.99999999999998
 51
135.0
  0
ARC
  5
5488
330
18
100
AcDbEntity
  8
MSL-115-R32-S-3A
100
AcDbCircle
 10
1455.801224683725
 20
688.011293874174
 30
0.0
 40
0.1999999483524664
100
AcDbArc
 50
270.0
 51
299.9632625923347
  0
LINE
  5
5489
330
18
100
AcDbEntity
  8
MSL-115-R32-S-3A
100
AcDbLine
 10
1455.901113580237
 20
687.8380247548982
 30
0.0
 11
1456.541914813008
 21
688.207443948705
 31
0.0
  0
LINE
  5
548A
330
18
100
AcDbEntity
  8
MSL-115-R32-S-3A
100
AcDbLine
 10
1457.48143477655
 20
687.811293874174
 30
0.0
 11
1463.057960971251
 21
687.811293874174
 31
0.0
  0
ARC
  5
548B
330
18
100
AcDbEntity
  8
MSL-115-R32-S-3A
100
AcDbCircle
 10
1463.057960971251
 20
687.6112938741742
 30
0.0
 40
0.2
100
AcDbArc
 50
44.99999999999423
 51
89.99999999999998
  0
ARC
  5
548C
330
18
100
AcDbEntity
  8
MSL-115-R32-S-3A
100
AcDbCircle
 10
1456.641803683725
 20
688.0341748741741
 30
0.0
 40
0.1999999483524582
100
AcDbArc
 50
60.00000148545131
 51
119.9632625923388
  0
LINE
  5
548D
330
18
100
AcDbEntity
  8
MSL-115-R32-S-3A
100
AcDbLine
 10
1456.741803653411
 20
688.2073799127954
 30
0.0
 11
1457.381434781041
 21
687.8380887908244
 31
0.0
  0
ARC
  5
548E
330
18
100
AcDbEntity
  8
MSL-115-R32-S-3A
100
AcDbCircle
 10
1457.48143477655
 20
688.011293874174
 30
0.0
 40
0.2
100
AcDbArc
 50
240.0000014854499
 51
270.0
  0
LINE
  5
5490
330
18
100
AcDbEntity
  8
MSL-115-R32-S-3A
100
AcDbLine
 10
1466.690803683725
 20
684.1784511616992
 30
0.0
 11
1466.690803683725
 21
679.4656838741738
 31
0.0
  0
ARC
  5
5491
330
18
100
AcDbEntity
  8
MSL-115-R32-S-3A
100
AcDbCircle
 10
1466.490803683725
 20
679.4656838741741
 30
0.0
 40
0.2
100
AcDbArc
 50
270.0
 51
0.0
  0
ARC
  5
5492
330
18
100
AcDbEntity
  8
MSL-115-R32-S-3A
100
AcDbCircle
 10
1466.490803683725
 20
684.1784511616995
 30
0.0
 40
0.2
100
AcDbArc
 50
0.0
 51
44.99999999999999
  0
MTEXT
  5
5525
330
18
100
AcDbEntity
  8
MSL-115-R32-S-6
100
AcDbMText
 10
899.2670363753628
 20
699.9503384020743
 30
0.0
 40
7.0
 41
85.41104217451808
 71
     1
 72
     5
  1
MSL 115-R32-S-100
1001
ACAD
1000
MTEXTBEGIN
1070
    73
1070
     1
1070
    44
1040
1.0
1070
    74
1070
     0
1000
MTEXTEND
  0
CIRCLE
  5
5661
330
18
100
AcDbEntity
  8
MSL-115-R32-S-0
 48
2.0
100
AcDbCircle
 10
1044.67538139326
 20
616.2719190962499
 30
0.0
 40
6.5
  0
CIRCLE
  5
5662
330
18
100
AcDbEntity
  8
MSL-115-R32-S-0
 48
2.0
100
AcDbCircle
 10
1044.67538139326
 20
526.2719190962498
 30
0.0
 40
6.5
  0
CIRCLE
  5
5663
330
18
100
AcDbEntity
  8
MSL-115-R32-S-0
 48
2.0
100
AcDbCircle
 10
984.6753813932611
 20
526.2719190962502
 30
0.0
 40
6.5
  0
LINE
  5
5752
330
18
100
AcDbEntity
  8
MSL-115-R32-S-0
100
AcDbLine
 10
1356.641941683724
 20
791.7659628741744
 30
0.0
 11
1369.641941683724
 21
791.765962874174
 31
0.0
  0
LINE
  5
5753
330
18
100
AcDbEntity
  8
MSL-115-R32-S-0
100
AcDbLine
 10
1357.141941683724
 20
792.2659628741744
 30
0.0
 11
1369.141941683724
 21
792.2659628741739
 31
0.0
  0
LINE
  5
5754
330
18
100
AcDbEntity
  8
MSL-115-R32-S-0
100
AcDbLine
 10
1356.641941683724
 20
790.2659628741739
 30
0.0
 11
1356.641941683724
 21
791.7659628741744
 31
0.0
  0
LINE
  5
5755
330
18
100
AcDbEntity
  8
MSL-115-R32-S-0
100
AcDbLine
 10
1356.641941683724
 20
791.7659628741744
 30
0.0
 11
1357.141941683724
 21
792.2659628741744
 31
0.0
  0
LINE
  5
5756
330
18
100
AcDbEntity
  8
MSL-115-R32-S-0
100
AcDbLine
 10
1369.141941683724
 20
792.2659628741739
 30
0.0
 11
1369.641941683724
 21
791.765962874174
 31
0.0
  0
LINE
  5
5757
330
18
100
AcDbEntity
  8
MSL-115-R32-S-0
100
AcDbLine
 10
1369.641941683724
 20
791.765962874174
 30
0.0
 11
1369.641941683724
 21
790.2659628741739
 31
0.0
  0
ENDSEC
  0
SECTION
  2
OBJECTS
  0
DICTIONARY
  5
C
330
0
100
AcDbDictionary
  3
ACAD_GROUP
350
D
  3
ACAD_LAYOUT
350
23DE
  3
ACAD_MLINESTYLE
350
E
  3
ACAD_PLOTSETTINGS
350
23DF
  3
ACAD_PLOTSTYLENAME
350
23DC
  3
ACDBHEADERROUNDTRIPXREC
350
580F
  3
ACDBVARIABLEDICTIONARY
350
D96
  3
ACMDICTIONARY
350
2423
  3
AMG
350
23E7
  3
AMGSNAPSETTINGS
350
24A6
  3
DWGPROPS
350
580C
  0
DICTIONARY
  5
2541
330
18
100
AcDbDictionary
280
     1
  3
ACAD_INDEX
360
4F2E
  3
ACAD_LAYOUTSELFREF
360
5831
  0
DICTIONARY
  5
3741
330
15
100
AcDbDictionary
280
     1
  3
ACAD_LAYOUTSELFREF
360
5830
  0
DICTIONARY
  5
D
102
{ACAD_REACTORS
330
C
102
}
330
C
100
AcDbDictionary
  0
DICTIONARY
  5
23DE
102
{ACAD_REACTORS
330
C
102
}
330
C
100
AcDbDictionary
  0
DICTIONARY
  5
E
102
{ACAD_REACTORS
330
C
102
}
330
C
100
AcDbDictionary
  3
STANDARD
350
1B
  0
DICTIONARY
  5
23DF
102
{ACAD_REACTORS
330
C
102
}
330
C
100
AcDbDictionary
  0
ACDBDICTIONARYWDFLT
  5
23DC
102
{ACAD_REACTORS
330
C
102
}
330
C
100
AcDbDictionary
281
     1
  3
Normal
350
23DD
100
AcDbDictionaryWithDefault
340
23DD
  0
DICTIONARY
  5
580F
102
{ACAD_REACTORS
330
C
102
}
330
C
100
AcDbDictionary
  3
CEPSNTYPE
350
5819
  3
DIMSTYLEDATA
350
581D
  3
FINGERPRINTGUID
350
581A
  3
HYPERLINKBASE
350
5812
  3
INSUNITS
350
5818
  3
LAYOUTDICT
350
5814
  3
LWETCUNION
350
5817
  3
PLOTSETDICT
350
5815
  3
PLOTSTYLNAMDICT
350
5816
  3
PSVPSCALE
350
581C
  3
PUCSBASE
350
5820
  3
PUCSORGBACK
350
5826
  3
PUCSORGBOTTOM
350
5822
  3
PUCSORGFRONT
350
5825
  3
PUCSORGLEFT
350
5823
  3
PUCSORGRIGHT
350
5824
  3
PUCSORGTOP
350
5821
  3
PUCSORTHOREF
350
581E
  3
PUCSORTHOVIEW
350
581F
  3
STYLESHEET
350
5813
  3
TSTACKALIGN
350
5810
  3
TSTACKSIZE
350
5811
  3
UCSBASE
350
5829
  3
UCSORGBACK
350
582F
  3
UCSORGBOTTOM
350
582B
  3
UCSORGFRONT
350
582E
  3
UCSORGLEFT
350
582C
  3
UCSORGRIGHT
350
582D
  3
UCSORGTOP
350
582A
  3
UCSORTHOREF
350
5827
  3
UCSORTHOVIEW
350
5828
  3
VERSIONGUID
350
581B
  0
DICTIONARY
  5
D96
102
{ACAD_REACTORS
330
C
102
}
330
C
100
AcDbDictionary
  3
INDEXCTL
350
2412
  3
SORTENTS
350
D97
  0
DICTIONARY
  5
2423
102
{ACAD_REACTORS
330
C
102
}
330
C
100
AcDbDictionary
  3
ACMSTDDICTIONARY
350
2428
  0
DICTIONARY
  5
23E7
102
{ACAD_REACTORS
330
C
102
}
330
C
100
AcDbDictionary
  3
ACMGSETTINGS
350
23E8
  0
DICTIONARY
  5
24A6
102
{ACAD_REACTORS
330
C
102
}
330
C
100
AcDbDictionary
  0
XRECORD
  5
580C
102
{ACAD_REACTORS
330
C
102
}
330
C
100
AcDbXrecord
  1
DWGPROPS COOKIE
  2

  3

  4

  6

  7

  8

  9

300
AmdtFileType=84
301
=
302
=
303
=
304
=
305
=
306
=
307
=
308
=
309
=
 40
0.2916751388888889
 41
2452422.582981771
 42
2452919.868208912
  1

 90
        1
  0
DICTIONARY
  5
4F2E
102
{ACAD_REACTORS
330
2541
102
}
330
2541
100
AcDbDictionary
  3
*A1
350
4F2F
  0
XRECORD
  5
5831
102
{ACAD_REACTORS
330
2541
102
}
330
2541
100
AcDbXrecord
340
18
  0
XRECORD
  5
5830
102
{ACAD_REACTORS
330
3741
102
}
330
3741
100
AcDbXrecord
340
15
  0
MLINESTYLE
  5
1B
102
{ACAD_REACTORS
330
E
102
}
330
E
100
AcDbMlineStyle
  2
STANDARD
 70
     0
  3

 62
     0
 51
90.0
 52
90.0
 71
     2
 49
0.5
 62
   256
  6
BYLAYER
 49
-0.5
 62
   256
  6
BYLAYER
  0
ACDBPLACEHOLDER
  5
23DD
102
{ACAD_REACTORS
330
23DC
102
}
330
23DC
100
AcDbPlaceHolder
280
     0
  0
XRECORD
  5
5819
102
{ACAD_REACTORS
330
580F
102
}
330
580F
100
AcDbXrecord
 90
        0
  0
XRECORD
  5
581D
102
{ACAD_REACTORS
330
580F
102
}
330
580F
100
AcDbXrecord
1000
DSTYLE
1002
{
1070
    79
 70
     2
1070
   371
 70
    -1
1070
   372
 70
    -1
1002
}
  0
XRECORD
  5
581A
102
{ACAD_REACTORS
330
580F
102
}
330
580F
100
AcDbXrecord
  1
{C383D40E-645C-40CB-8723-B6B7C8CBAED4}
  0
XRECORD
  5
5812
102
{ACAD_REACTORS
330
580F
102
}
330
580F
100
AcDbXrecord
  1

  0
XRECORD
  5
5818
102
{ACAD_REACTORS
330
580F
102
}
330
580F
100
AcDbXrecord
 90
        0
  0
XRECORD
  5
5814
102
{ACAD_REACTORS
330
580F
102
}
330
580F
100
AcDbXrecord
340
23DE
  0
XRECORD
  5
5817
102
{ACAD_REACTORS
330
580F
102
}
330
580F
100
AcDbXrecord
 90
    14877
  0
XRECORD
  5
5815
102
{ACAD_REACTORS
330
580F
102
}
330
580F
100
AcDbXrecord
340
23DF
  0
XRECORD
  5
5816
102
{ACAD_REACTORS
330
580F
102
}
330
580F
100
AcDbXrecord
340
23DC
  0
XRECORD
  5
581C
102
{ACAD_REACTORS
330
580F
102
}
330
580F
100
AcDbXrecord
 40
0.0
  0
XRECORD
  5
5820
102
{ACAD_REACTORS
330
580F
102
}
330
580F
100
AcDbXrecord
340
0
  0
XRECORD
  5
5826
102
{ACAD_REACTORS
330
580F
102
}
330
580F
100
AcDbXrecord
 10
0.0
 20
0.0
 30
0.0
  0
XRECORD
  5
5822
102
{ACAD_REACTORS
330
580F
102
}
330
580F
100
AcDbXrecord
 10
0.0
 20
0.0
 30
0.0
  0
XRECORD
  5
5825
102
{ACAD_REACTORS
330
580F
102
}
330
580F
100
AcDbXrecord
 10
0.0
 20
0.0
 30
0.0
  0
XRECORD
  5
5823
102
{ACAD_REACTORS
330
580F
102
}
330
580F
100
AcDbXrecord
 10
0.0
 20
0.0
 30
0.0
  0
XRECORD
  5
5824
102
{ACAD_REACTORS
330
580F
102
}
330
580F
100
AcDbXrecord
 10
0.0
 20
0.0
 30
0.0
  0
XRECORD
  5
5821
102
{ACAD_REACTORS
330
580F
102
}
330
580F
100
AcDbXrecord
 10
0.0
 20
0.0
 30
0.0
  0
XRECORD
  5
581E
102
{ACAD_REACTORS
330
580F
102
}
330
580F
100
AcDbXrecord
340
0
  0
XRECORD
  5
581F
102
{ACAD_REACTORS
330
580F
102
}
330
580F
100
AcDbXrecord
 70
     0
  0
XRECORD
  5
5813
102
{ACAD_REACTORS
330
580F
102
}
330
580F
100
AcDbXrecord
  1
lutz_1.ctb
  0
XRECORD
  5
5810
102
{ACAD_REACTORS
330
580F
102
}
330
580F
100
AcDbXrecord
 90
        1
  0
XRECORD
  5
5811
102
{ACAD_REACTORS
330
580F
102
}
330
580F
100
AcDbXrecord
 90
       70
  0
XRECORD
  5
5829
102
{ACAD_REACTORS
330
580F
102
}
330
580F
100
AcDbXrecord
340
0
  0
XRECORD
  5
582F
102
{ACAD_REACTORS
330
580F
102
}
330
580F
100
AcDbXrecord
 10
0.0
 20
0.0
 30
0.0
  0
XRECORD
  5
582B
102
{ACAD_REACTORS
330
580F
102
}
330
580F
100
AcDbXrecord
 10
0.0
 20
0.0
 30
0.0
  0
XRECORD
  5
582E
102
{ACAD_REACTORS
330
580F
102
}
330
580F
100
AcDbXrecord
 10
0.0
 20
0.0
 30
0.0
  0
XRECORD
  5
582C
102
{ACAD_REACTORS
330
580F
102
}
330
580F
100
AcDbXrecord
 10
0.0
 20
0.0
 30
0.0
  0
XRECORD
  5
582D
102
{ACAD_REACTORS
330
580F
102
}
330
580F
100
AcDbXrecord
 10
0.0
 20
0.0
 30
0.0
  0
XRECORD
  5
582A
102
{ACAD_REACTORS
330
580F
102
}
330
580F
100
AcDbXrecord
 10
0.0
 20
0.0
 30
0.0
  0
XRECORD
  5
5827
102
{ACAD_REACTORS
330
580F
102
}
330
580F
100
AcDbXrecord
340
0
  0
XRECORD
  5
5828
102
{ACAD_REACTORS
330
580F
102
}
330
580F
100
AcDbXrecord
 70
     0
  0
XRECORD
  5
581B
102
{ACAD_REACTORS
330
580F
102
}
330
580F
100
AcDbXrecord
  1
{08BB24E6-27C6-41CC-90BF-7EB85A2B99B9}
  0
DICTIONARYVAR
  5
2412
102
{ACAD_REACTORS
330
D96
102
}
330
D96
100
DictionaryVariables
280
     0
  1
1
  0
DICTIONARYVAR
  5
D97
102
{ACAD_REACTORS
330
D96
102
}
330
D96
100
DictionaryVariables
280
     0
  1
96
  0
DICTIONARY
  5
2428
102
{ACAD_REACTORS
330
2423
102
}
330
2423
100
AcDbDictionary
  0
DICTIONARY
  5
23E8
102
{ACAD_REACTORS
330
23E7
102
}
330
23E7
100
AcDbDictionary
  3
DWGSETTINGS
350
5534
  0
LAYER_INDEX
  5
4F2F
102
{ACAD_REACTORS
330
4F2E
102
}
330
4F2E
100
AcDbIndex
 40
2452919.875768947
100
AcDbLayerIndex
  8
0
360
4F30
 90
        0
  8
MSL-115-R32-S-5
360
4F31
 90
       31
  8
MSL-115-R32-S-0
360
4F32
 90
      417
  8
MSL-115-R32-S-7A
360
4F33
 90
       64
  8
MSL-115-R32-S-3A
360
4F34
 90
       88
  8
MSL-115-R32-S-6
360
4F35
 90
        1
  8
Defpoints
360
564B
 90
        0
  8
AM_BOR
360
564C
 90
        0
  8
AM_5
360
564D
 90
        0
  8
AM_CL
360
5758
 90
        0
  0
XRECORD
  5
5534
102
{ACAD_REACTORS
330
23E8
102
}
330
23E8
100
AcDbXrecord
  1
VERSION
140
15.0
  1
PRODUCT
  2
AutoCAD Mechanical 2000
  0
IDBUFFER
  5
4F30
330
0
100
AcDbIdBuffer
  0
IDBUFFER
  5
4F31
330
0
100
AcDbIdBuffer
330
2B17
330
2B26
330
2B2E
330
2B45
330
2BCD
330
2BD0
330
2C0A
330
2C11
330
2C1B
330
2C20
330
2C80
330
2C8A
330
2CA0
330
2CA1
330
2CA5
330
3D8B
330
3D90
330
4E17
330
4E1C
330
4E1F
330
4E22
330
4E24
330
4E28
330
4E2B
330
4E2E
330
4E33
330
4E36
330
4E39
330
4E3D
330
4E41
330
4E43
  0
IDBUFFER
  5
4F32
330
0
100
AcDbIdBuffer
330
5661
330
5662
330
5663
330
5752
330
5753
330
5754
330
5755
330
5756
330
5757
330
2AB2
330
2AB3
330
2AB4
330
2AB5
330
2AB6
330
2AB7
330
2AB8
330
2AB9
330
2ABA
330
2ABB
330
2ABC
330
2ABD
330
2ABE
330
2ABF
330
2AC0
330
2AC1
330
2AC2
330
2AC7
330
2AC8
330
2AC9
330
2ACA
330
2ACB
330
2AD0
330
2AD5
330
2AD6
330
2AD7
330
2AD8
330
2AD9
330
2ADA
330
2ADB
330
2ADC
330
2ADD
330
2ADE
330
2ADF
330
2AE0
330
2AE1
330
2AE2
330
2AE3
330
2AE4
330
2AE5
330
2AE6
330
2AE7
330
2AE8
330
2AE9
330
2AEA
330
2AEB
330
2AEC
330
2AED
330
2AEE
330
2AEF
330
2AF0
330
2AF3
330
2AF4
330
2AF5
330
2AF6
330
2AF7
330
2AF8
330
2B03
330
2B04
330
2B05
330
2B06
330
2B07
330
2B08
330
2B0A
330
2B0B
330
2B0C
330
2B0E
330
2B0F
330
2B10
330
2B11
330
2B12
330
2B13
330
2B14
330
2B16
330
2B19
330
2B1A
330
2B1B
330
2B1C
330
2B1D
330
2B1E
330
2B1F
330
2B20
330
2B23
330
2B25
330
2B27
330
2B28
330
2B29
330
2B2A
330
2B2B
330
2B2D
330
2B30
330
2B31
330
2B32
330
2B33
330
2B34
330
2B39
330
2B3A
330
2B3B
330
2B3C
330
2B3D
330
2B3E
330
2B3F
330
2B40
330
2B41
330
2B42
330
2B44
330
2B47
330
2B48
330
2B49
330
2B4A
330
2B4B
330
2B4C
330
2B4D
330
2B4E
330
2B4F
330
2B50
330
2B51
330
2B52
330
2B53
330
2B54
330
2B55
330
2B56
330
2B57
330
2B58
330
2B59
330
2B5A
330
2B5B
330
2B5C
330
2B5D
330
2B5E
330
2B5F
330
2B60
330
2B61
330
2B62
330
2B63
330
2B64
330
2B65
330
2B66
330
2B67
330
2B68
330
2B69
330
2B6A
330
2B6B
330
2B6C
330
2B6D
330
2B71
330
2B72
330
2B73
330
2B74
330
2B75
330
2B7A
330
2B7F
330
2B80
330
2B81
330
2B82
330
2B83
330
2B84
330
2B85
330
2B86
330
2B90
330
2B91
330
2B92
330
2B93
330
2B94
330
2B95
330
2B96
330
2B97
330
2B98
330
2B99
330
2B9A
330
2B9B
330
2B9C
330
2B9D
330
2B9E
330
2B9F
330
2BA0
330
2BA1
330
2BA2
330
2BA3
330
2BA4
330
2BA5
330
2BA6
330
2BA7
330
2BA8
330
2BA9
330
2BAA
330
2BAB
330
2BAC
330
2BAD
330
2BAE
330
2BAF
330
2BB0
330
2BB1
330
2BB2
330
2BB3
330
2BB4
330
2BB5
330
2BB7
330
2BB8
330
2BB9
330
2BBB
330
2BBC
330
2BBD
330
2BBE
330
2BBF
330
2BC0
330
2BC1
330
2BC2
330
2BC3
330
2BC4
330
2BC5
330
2BC6
330
2BC8
330
2BC9
330
2BCC
330
2BCF
330
2BD2
330
2BD3
330
2BD4
330
2BD5
330
2BD9
330
2BDA
330
2BDB
330
2BDC
330
2BDD
330
2BDE
330
2BDF
330
2BE0
330
2BE1
330
2BE2
330
2BE3
330
2BE4
330
2BE5
330
2BE6
330
2BE7
330
2BE8
330
2BE9
330
2BEA
330
2BEB
330
2BEC
330
2BED
330
2BEE
330
2BEF
330
2BF0
330
2BF1
330
2BF2
330
2BF3
330
2BF4
330
2BF5
330
2BF6
330
2BF7
330
2BF8
330
2BF9
330
2BFA
330
2BFB
330
2BFC
330
2BFD
330
2BFE
330
2BFF
330
2C00
330
2C01
330
2C02
330
2C03
330
2C04
330
2C05
330
2C06
330
2C07
330
2C08
330
2C0C
330
2C0D
330
2C0E
330
2C0F
330
2C13
330
2C14
330
2C15
330
2C16
330
2C17
330
2C18
330
2C19
330
2C1C
330
2C1D
330
2C1E
330
2C21
330
2C22
330
2C27
330
2C28
330
2C29
330
2C2A
330
2C2B
330
2C2E
330
2C2F
330
2C30
330
2C31
330
2C32
330
2C43
330
2C44
330
2C46
330
2C47
330
2C49
330
2C4A
330
2C4B
330
2C4C
330
2C4E
330
2C4F
330
2C50
330
2C51
330
2C52
330
2C53
330
2C54
330
2C55
330
2C56
330
2C57
330
2C58
330
2C59
330
2C5E
330
2C60
330
2C61
330
2C62
330
2C65
330
2C66
330
2C67
330
2C68
330
2C69
330
2C6E
330
2C6F
330
2C70
330
2C81
330
2C82
330
2C83
330
2C84
330
2C85
330
2C86
330
2C87
330
2C88
330
2C8B
330
2C8C
330
2C8D
330
2C8E
330
2C8F
330
2C90
330
2C91
330
2C92
330
2C93
330
2C94
330
2C95
330
2C96
330
2C97
330
2C98
330
2C99
330
2C9A
330
2C9B
330
2C9C
330
2C9D
330
2CA2
330
2CA3
330
2CA6
330
2CAB
330
2CAC
330
2CAD
330
2CAE
330
2CAF
330
2CB0
330
2CB2
330
2CB3
330
2CB4
330
2CB5
330
2CB6
330
2CB7
330
2CB9
330
2CBA
330
2CBB
330
2CBC
330
2CBD
330
2CBE
330
2CBF
330
2CC0
330
2CC1
330
2CC2
330
2CC3
330
2CC4
330
2CC5
330
2CC6
330
2CC7
330
2CC8
330
2CC9
330
2CCA
330
2CCB
330
2CCC
330
2CCD
330
4E44
330
4E40
330
4E3E
330
4E3C
330
4E37
330
4E32
330
2CD5
330
2CD6
330
2CD7
330
2D97
330
4E16
330
4E1B
330
4E1D
330
4E20
330
4E2D
330
4E25
330
4E26
330
4E29
330
4E2C
  0
IDBUFFER
  5
4F33
330
0
100
AcDbIdBuffer
330
2B09
330
2B0D
330
2B15
330
2B18
330
2B22
330
2B24
330
2B2C
330
2B2F
330
2B35
330
2B36
330
2B37
330
2B38
330
2B43
330
2B46
330
2B7E
330
2BB6
330
2BBA
330
2BC7
330
2BCA
330
2BCB
330
2BCE
330
2BD1
330
2BD6
330
2BD7
330
2BD8
330
2C09
330
2C0B
330
2C10
330
2C12
330
2C1A
330
2C1F
330
2C25
330
2C42
330
2C5A
330
2C5B
330
2C7F
330
2C89
330
2C9E
330
2C9F
330
2CA4
330
2CA7
330
2CA8
330
2CA9
330
2CAA
330
2CB1
330
2CB8
330
2CCE
330
47BA
330
4E18
330
4E19
330
4E1A
330
4E1E
330
4E23
330
4E27
330
4E2A
330
4E2F
330
4E30
330
4E31
330
4E35
330
4E3B
330
4E3F
330
4E42
330
5371
330
5372
  0
IDBUFFER
  5
4F34
330
0
100
AcDbIdBuffer
330
5373
330
5374
330
5375
330
5376
330
5377
330
5378
330
5379
330
537A
330
537B
330
537C
330
537D
330
537E
330
537F
330
5380
330
5381
330
5382
330
5383
330
5384
330
5385
330
5386
330
5387
330
5388
330
5389
330
538A
330
538B
330
538C
330
538D
330
538E
330
538F
330
5390
330
5391
330
5392
330
5393
330
5394
330
5395
330
5396
330
5397
330
5398
330
5399
330
539A
330
539B
330
539C
330
53AE
330
53AF
330
53B2
330
53B3
330
53B4
330
53B9
330
53BA
330
53BB
330
53BD
330
53BE
330
53BF
330
53C0
330
53C1
330
53C2
330
53C4
330
53C5
330
53C6
330
53C7
330
53C8
330
53C9
330
53CA
330
53CB
330
53CC
330
5478
330
5479
330
547B
330
547C
330
547D
330
547E
330
547F
330
5480
330
5481
330
5483
330
5484
330
5486
330
5487
330
5488
330
5489
330
548A
330
548B
330
548C
330
548D
330
548E
330
5490
330
5491
330
5492
  0
IDBUFFER
  5
4F35
330
0
100
AcDbIdBuffer
330
5525
  0
IDBUFFER
  5
564B
330
0
100
AcDbIdBuffer
  0
IDBUFFER
  5
564C
330
0
100
AcDbIdBuffer
  0
IDBUFFER
  5
564D
330
0
100
AcDbIdBuffer
  0
IDBUFFER
  5
5758
330
0
100
AcDbIdBuffer
  0
ENDSEC
  0
EOF
