  0
SECTION
  2
HEADER
  9
$ACADVER
  1
AC1009
  9
$INSBASE
 10
0.0
 20
0.0
 30
0.0
  9
$EXTMIN
 10
213.47419627724591
 20
97.432108269242576
 30
0.0
  9
$EXTMAX
 10
554.2906285623817
 20
312.23837642438349
 30
0.0
  9
$LIMMIN
 10
0.0
 20
0.0
  9
$LIMMAX
 10
410.0
 20
287.0
  9
$ORTHOMODE
 70
     0
  9
$REGENMODE
 70
     1
  9
$FILLMODE
 70
     1
  9
$QTEXTMODE
 70
     0
  9
$MIRRTEXT
 70
     1
  9
$DRAGMODE
 70
     2
  9
$LTSCALE
 40
1.0
  9
$OSMODE
 70
   549
  9
$ATTMODE
 70
     1
  9
$TEXTSIZE
 40
1.5
  9
$TRACEWID
 40
0.05
  9
$TEXTSTYLE
  7
STANDARD
  9
$CLAYER
  8
ZYL_40_ISO6431-0
  9
$CELTYPE
  6
BYLAYER
  9
$CECOLOR
 62
   256
  9
$DIMSCALE
 40
1.0
  9
$DIMASZ
 40
2.5
  9
$DIMEXO
 40
1.0
  9
$DIMDLI
 40
7.0
  9
$DIMRND
 40
0.0
  9
$DIMDLE
 40
0.0
  9
$DIMEXE
 40
1.0
  9
$DIMTP
 40
0.1
  9
$DIMTM
 40
0.1
  9
$DIMTXT
 40
3.5
  9
$DIMCEN
 40
0.0
  9
$DIMTSZ
 40
0.0
  9
$DIMTOL
 70
     0
  9
$DIMLIM
 70
     0
  9
$DIMTIH
 70
     0
  9
$DIMTOH
 70
     0
  9
$DIMSE1
 70
     0
  9
$DIMSE2
 70
     0
  9
$DIMTAD
 70
     1
  9
$DIMZIN
 70
     0
  9
$DIMBLK
  1

  9
$DIMASO
 70
     1
  9
$DIMSHO
 70
     1
  9
$DIMPOST
  1
<>
  9
$DIMAPOST
  1

  9
$DIMALT
 70
     0
  9
$DIMALTD
 70
     2
  9
$DIMALTF
 40
0.0393701
  9
$DIMLFAC
 40
1.0
  9
$DIMTOFL
 70
     1
  9
$DIMTVP
 40
0.0
  9
$DIMTIX
 70
     0
  9
$DIMSOXD
 70
     0
  9
$DIMSAH
 70
     0
  9
$DIMBLK1
  1

  9
$DIMBLK2
  1

  9
$DIMSTYLE
  2
GEN-ISO
  9
$DIMCLRD
 70
   256
  9
$DIMCLRE
 70
   256
  9
$DIMCLRT
 70
     2
  9
$DIMTFAC
 40
0.71
  9
$DIMGAP
 40
0.6
  9
$LUNITS
 70
     2
  9
$LUPREC
 70
     2
  9
$SKETCHINC
 40
0.1
  9
$FILLETRAD
 40
12.5
  9
$AUNITS
 70
     0
  9
$AUPREC
 70
     0
  9
$MENU
  1
acad
  9
$ELEVATION
 40
0.0
  9
$PELEVATION
 40
0.0
  9
$THICKNESS
 40
0.0
  9
$LIMCHECK
 70
     0
  9
$BLIPMODE
 70
     0
  9
$CHAMFERA
 40
12.5
  9
$CHAMFERB
 40
12.5
  9
$SKPOLY
 70
     0
  9
$TDCREATE
 40
2450823.450887118
  9
$TDUPDATE
 40
2455100.660521192
  9
$TDINDWG
 40
0.1507708912
  9
$TDUSRTIMER
 40
0.1507708912
  9
$USRTIMER
 70
     1
  9
$ANGBASE
 50
0.0
  9
$ANGDIR
 70
     0
  9
$PDMODE
 70
     0
  9
$PDSIZE
 40
0.0
  9
$PLINEWID
 40
0.0
  9
$COORDS
 70
     0
  9
$SPLFRAME
 70
     0
  9
$SPLINETYPE
 70
     6
  9
$SPLINESEGS
 70
     8
  9
$ATTDIA
 70
     1
  9
$ATTREQ
 70
     1
  9
$HANDLING
 70
-16383
  9
$HANDSEED
  5
1184
  9
$SURFTAB1
 70
     6
  9
$SURFTAB2
 70
     6
  9
$SURFTYPE
 70
     6
  9
$SURFU
 70
     6
  9
$SURFV
 70
     6
  9
$UCSNAME
  2

  9
$UCSORG
 10
0.0
 20
0.0
 30
0.0
  9
$UCSXDIR
 10
1.0
 20
0.0
 30
0.0
  9
$UCSYDIR
 10
0.0
 20
1.0
 30
0.0
  9
$PUCSNAME
  2

  9
$PUCSORG
 10
0.0
 20
0.0
 30
0.0
  9
$PUCSXDIR
 10
1.0
 20
0.0
 30
0.0
  9
$PUCSYDIR
 10
0.0
 20
1.0
 30
0.0
  9
$USERI1
 70
     0
  9
$USERI2
 70
     0
  9
$USERI3
 70
     0
  9
$USERI4
 70
     0
  9
$USERI5
 70
     0
  9
$USERR1
 40
0.0
  9
$USERR2
 40
0.0
  9
$USERR3
 40
0.0
  9
$USERR4
 40
0.0
  9
$USERR5
 40
0.0
  9
$WORLDVIEW
 70
     1
  9
$SHADEDGE
 70
     3
  9
$SHADEDIF
 70
    70
  9
$TILEMODE
 70
     1
  9
$MAXACTVP
 70
    16
  9
$PLIMCHECK
 70
     0
  9
$PEXTMIN
 10
1.0000000000000000E+020
 20
1.0000000000000000E+020
 30
1.0000000000000000E+020
  9
$PEXTMAX
 10
-1.0000000000000000E+020
 20
-1.0000000000000000E+020
 30
-1.0000000000000000E+020
  9
$PLIMMIN
 10
0.0
 20
0.0
  9
$PLIMMAX
 10
12.0
 20
9.0
  9
$UNITMODE
 70
     0
  9
$VISRETAIN
 70
     0
  9
$PLINEGEN
 70
     0
  9
$PSLTSCALE
 70
     1
  0
ENDSEC
  0
SECTION
  2
TABLES
  0
TABLE
  2
VPORT
 70
     3
  0
VPORT
  2
*ACTIVE
 70
     0
 10
0.0
 20
0.0
 11
1.0
 21
1.0
 12
342.25813072252743
 22
243.2559675425168
 13
0.0
 23
0.0
 14
5.0
 24
5.0
 15
50.0
 25
50.0
 16
0.0
 26
0.0
 36
1.0
 17
0.0
 27
0.0
 37
0.0
 40
140.09185840754799
 41
1.8999999999999999
 42
50.0
 43
0.0
 44
0.0
 50
0.0
 51
0.0
 71
     0
 72
 10000
 73
     1
 74
     0
 75
     0
 76
     0
 77
     0
 78
     0
  0
ENDTAB
  0
TABLE
  2
LTYPE
 70
    18
  0
LTYPE
  2
CONTINUOUS
 70
     0
  3
Solid line
 72
    65
 73
     0
 40
0.0
  0
LTYPE
  2
GEN7
 70
     0
  3
____ . ____ . ____ . ____ . ____ . ____ . ____
 72
    65
 73
     4
 40
13.75
 49
10.0
 49
-1.25
 49
1.25
 49
-1.25
  0
LTYPE
  2
GEN7A
 70
     0
  3
__ . __ . __
 72
    65
 73
     4
 40
6.875
 49
5.0
 49
-0.625
 49
0.625
 49
-0.625
  0
LTYPE
  2
GEN3
 70
     0
  3
-- -- -- -- -- -- -- -- -- -- -- -- -- -- --
 72
    65
 73
     2
 40
6.25
 49
5.0
 49
-1.25
  0
LTYPE
  2
GEN3A
 70
     0
  3
 - - - - -
 72
    65
 73
     2
 40
3.125
 49
2.5
 49
-0.625
  0
LTYPE
  2
GEN4A
 70
     0
  3
_____ . . _____ . . _____ . . ____ .. ____
 72
    65
 73
     6
 40
16.25
 49
10.0
 49
-1.25
 49
1.25
 49
-1.25
 49
1.25
 49
-1.25
  0
LTYPE
  2
ACISOWELD
 70
     0
  3
_ _ _ _ _
 72
    65
 73
     2
 40
2.0
 49
2.0
 49
-1.0
  0
LTYPE
  2
ACISOTGB
 70
     0
  3
__ . . __ . .
 72
    65
 73
     6
 40
9.0
 49
4.0
 49
-1.0
 49
1.0
 49
-1.0
 49
1.0
 49
-1.0
  0
LTYPE
  2
ACISOTGL
 70
     0
  3
_ _ _ _ _
 72
    65
 73
     2
 40
3.0
 49
2.0
 49
-1.0
  0
LTYPE
  2
AM_ISO02W050
 70
     0
  3
__ __ __ __ __ __ __ __ __ __ __ __ __ __ __
 72
    65
 73
     2
 40
7.5
 49
6.0
 49
-1.5
  0
LTYPE
  2
AM_ISO08W050
 70
     0
  3
____ . ____ . ____ . ____ . ____ . ____ . ____
 72
    65
 73
     4
 40
18.0
 49
12.0
 49
-1.5
 49
3.0
 49
-1.5
  0
LTYPE
  2
AM_ISO09W050
 70
     0
  3
_____ . . _____ . . _____ . . ____ .. ____
 72
    65
 73
     6
 40
22.5
 49
12.0
 49
-1.5
 49
3.0
 49
-1.5
 49
3.0
 49
-1.5
  0
LTYPE
  2
AMCONSTR
 70
     0
  3
_______________________
 72
    65
 73
     2
 40
9999.0
 49
9999.0
 49
0.0
  0
LTYPE
  2
AM_ISO02W050X2
 70
     0
  3
 _ _ _ _ _ _ _ _ _ _ _ _
 72
    65
 73
     2
 40
3.75
 49
3.0
 49
-0.75
  0
LTYPE
  2
AM_ISO08W050X2
 70
     0
  3
__ . __ . __ . __ . __ . __
 72
    65
 73
     4
 40
9.0
 49
6.0
 49
-0.75
 49
1.5
 49
-0.75
  0
LTYPE
  2
AMZIGZAG
 70
     0
  3
/\/-/\/-/\/-/\/-/\/-/\/
 72
    65
 73
     2
 40
11.000099999999991
 49
0.0001
 49
-11.0
  0
LTYPE
  2
CENTER
 70
     0
  3
__ . __
 72
    65
 73
     4
 40
7.0
 49
4.0
 49
-1.0
 49
1.0
 49
-1.0
  0
LTYPE
  2
GENZIGZAG
 70
     0
  3
/\/-/\/-/\/-/\/-/\/-/\/
 72
    65
 73
     2
 40
12.0001
 49
0.0001
 49
-12.0
  0
ENDTAB
  0
TABLE
  2
LAYER
 70
    42
  0
LAYER
  2
0
 70
     0
 62
     7
  6
CONTINUOUS
  0
LAYER
  2
MSL_F16_40-0
 70
     0
 62
     7
  6
CONTINUOUS
  0
LAYER
  2
MSL_F16_40-7
 70
     0
 62
     4
  6
GEN7
  0
LAYER
  2
KPKT
 70
     0
 62
   162
  6
CONTINUOUS
  0
LAYER
  2
VCCNULL
 70
     0
 62
    -5
  6
CONTINUOUS
  0
LAYER
  2
GEV_FROZEN
 70
     1
 62
     7
  6
CONTINUOUS
  0
LAYER
  2
CENN
 70
     0
 62
     7
  6
CONTINUOUS
  0
LAYER
  2
BHMM
 70
     0
 62
     7
  6
CONTINUOUS
  0
LAYER
  2
THLI
 70
     0
 62
     7
  6
CONTINUOUS
  0
LAYER
  2
MSL_F16_40-7A
 70
     0
 62
     4
  6
GEN7A
  0
LAYER
  2
MSL_F16_40-4
 70
     0
 62
     3
  6
CONTINUOUS
  0
LAYER
  2
MSL_F16_40-7AN
 70
     0
 62
     4
  6
GEN7A
  0
LAYER
  2
MSL_F16_40-3
 70
     0
 62
     6
  6
GEN3
  0
LAYER
  2
-BHMU
 70
     0
 62
     7
  6
CONTINUOUS
  0
LAYER
  2
MSL_F16_40-3A
 70
     0
 62
     6
  6
GEN3A
  0
LAYER
  2
MSL_F16_40-5
 70
     0
 62
     3
  6
CONTINUOUS
  0
LAYER
  2
ZYL_40_ISO6431-0
 70
     0
 62
     7
  6
CONTINUOUS
  0
LAYER
  2
ZYL_40_ISO6431-3
 70
     0
 62
     6
  6
GEN3
  0
LAYER
  2
ZYL_40_ISO6431-7
 70
     0
 62
     4
  6
GEN7
  0
LAYER
  2
ZYL_40_ISO6431-4
 70
     0
 62
     3
  6
CONTINUOUS
  0
LAYER
  2
BHII
 70
     0
 62
     7
  6
CONTINUOUS
  0
LAYER
  2
HIDN
 70
     0
 62
     7
  6
CONTINUOUS
  0
LAYER
  2
CON1
 70
     0
 62
     7
  6
CONTINUOUS
  0
LAYER
  2
-BHHH
 70
     0
 62
     7
  6
CONTINUOUS
  0
LAYER
  2
-BHHU
 70
     0
 62
     7
  6
CONTINUOUS
  0
LAYER
  2
MSL_F16_40-0N
 70
     0
 62
     7
  6
CONTINUOUS
  0
LAYER
  2
MSL_F16_40-4N
 70
     0
 62
     3
  6
CONTINUOUS
  0
LAYER
  2
MSL_F16_40-3AN
 70
     0
 62
     6
  6
GEN3A
  0
LAYER
  2
MSL_F16_40-3N
 70
     0
 62
     6
  6
GEN3
  0
LAYER
  2
INFO
 70
     0
 62
     4
  6
CONTINUOUS
  0
LAYER
  2
MSF16-0
 70
     0
 62
     7
  6
CONTINUOUS
  0
LAYER
  2
MSF16-8
 70
     0
 62
     1
  6
CONTINUOUS
  0
LAYER
  2
MSF16-4
 70
     0
 62
     3
  6
CONTINUOUS
  0
LAYER
  2
MSF16-6
 70
     0
 62
     2
  6
CONTINUOUS
  0
LAYER
  2
MSF16-7
 70
     0
 62
     4
  6
GEN7
  0
LAYER
  2
MSF16-3
 70
     0
 62
     6
  6
GEN3
  0
LAYER
  2
MSF16-4A
 70
     0
 62
     3
  6
GEN4A
  0
LAYER
  2
MSF16-0N
 70
     0
 62
     7
  6
CONTINUOUS
  0
LAYER
  2
ZYL_40_ISO6431-6
 70
     0
 62
     2
  6
CONTINUOUS
  0
LAYER
  2
ZYL_40_ISO6431-4A
 70
     0
 62
     3
  6
GEN4A
  0
LAYER
  2
DEFPOINTS
 70
     0
 62
     7
  6
CONTINUOUS
  0
LAYER
  2
AM_BOR
 70
     0
 62
     7
  6
CONTINUOUS
  0
ENDTAB
  0
TABLE
  2
STYLE
 70
     5
  0
STYLE
  2
STANDARD
 70
     0
 40
0.0
 41
1.0
 50
0.0
 71
     0
 42
1.5
  3
ISOCP.SHX
  4

  0
STYLE
  2
ACISOTS
 70
     0
 40
1.0
 41
1.0
 50
0.0
 71
     0
 42
2.5
  3
isocp.shx
  4

  0
STYLE
  2
ACISOGDT
 70
     0
 40
0.0
 41
1.0
 50
0.0
 71
     0
 42
2.5
  3
amgdt.shx
  4

  0
STYLE
  2

 70
     1
 40
0.0
 41
1.0
 50
0.0
 71
     0
 42
2.5
  3
ltypeshp.shx
  4

  0
STYLE
  2

 70
     1
 40
0.0
 41
1.0
 50
0.0
 71
     0
 42
1.5
  3
genltshp.shx
  4

  0
ENDTAB
  0
TABLE
  2
VIEW
 70
     0
  0
ENDTAB
  0
TABLE
  2
UCS
 70
     0
  0
ENDTAB
  0
TABLE
  2
APPID
 70
    76
  0
APPID
  2
ACAD
 70
     0
  0
APPID
  2
GENIUS_GENCFG_13
 70
     0
  0
APPID
  2
GENIUS_GENCFG0_13
 70
     0
  0
APPID
  2
GENIUS_GENCFG1_13
 70
     0
  0
APPID
  2
GENIUS_GENCFG2_13
 70
     0
  0
APPID
  2
GENIUS_GENCFG3_13
 70
     0
  0
APPID
  2
GENIUS_GENCFG4_13
 70
     0
  0
APPID
  2
GENIUS_GEVCFG0_13
 70
     0
  0
APPID
  2
GENIUS_GEFCFG0_13
 70
     0
  0
APPID
  2
GENIUS_GENOENT_13
 70
     0
  0
APPID
  2
GENIUS_GENODEF_13
 70
     0
  0
APPID
  2
GENIUS_GENOBJ-N-CEN_13
 70
     0
  0
APPID
  2
GEV_VCCNULL_SWITCH_OFF
 70
     0
  0
APPID
  2
GEVID884340777
 70
     0
  0
APPID
  2
GEVDC
 70
     0
  0
APPID
  2
GEVRADREF
 70
     0
  0
APPID
  2
GEVPT
 70
     0
  0
APPID
  2
GEVIT
 70
     0
  0
APPID
  2
VCC
 70
     0
  0
APPID
  2
GENBH
 70
     0
  0
APPID
  2
GEVMK
 70
     0
  0
APPID
  2
GENIUS_GENBH_13
 70
     0
  0
APPID
  2
GENIUS_GENOBJ_13
 70
     0
  0
APPID
  2
GENIUS_GENOLIS_13
 70
     0
  0
APPID
  2
GENIUS_GENOREF_13
 70
     0
  0
APPID
  2
GENIUS_GENOBJ-NBEHI-BHF_13
 70
     0
  0
APPID
  2
GENIUS_GENOBJ-NBEHI-BHB_13
 70
     0
  0
APPID
  2
GENIUS_GENOBJ-F-PART_13
 70
     0
  0
APPID
  2
GENIUS_GEFSTDP_13
 70
     0
  0
APPID
  2
GENIUS_GEFPARTINS_13
 70
     0
  0
APPID
  2
GEVID884340778
 70
     0
  0
APPID
  2
GEVID884340779
 70
     0
  0
APPID
  2
GENIUS_GENHINW_13
 70
     0
  0
APPID
  2
GENIUS_GENOBJ-N-LEADER_13
 70
     0
  0
APPID
  2
GENIUS_GENDTOL_13
 70
     0
  0
APPID
  2
GENIUS_GENDREL_13
 70
     0
  0
APPID
  2
GEVID884340780
 70
     0
  0
APPID
  2
GEVCON
 70
     0
  0
APPID
  2
GENIUS_GENINF13_13
 70
     0
  0
APPID
  2
GENIUS_GENOBJ-N-INFOPT_13
 70
     0
  0
APPID
  2
GENIUS_GENOBJ-N-RSSYM_13
 70
     0
  0
APPID
  2
GENIUS_GENSYMENT_13
 70
     0
  0
APPID
  2
GENIUS_GENSCSYM_13
 70
     0
  0
APPID
  2
GENIUS_GEFINFNAM_13
 70
     0
  0
APPID
  2
GEVID884347572
 70
     0
  0
APPID
  2
GEVID884347755
 70
     0
  0
APPID
  2
GEVID884347756
 70
     0
  0
APPID
  2
GEVID884347757
 70
     0
  0
APPID
  2
GEVID884347758
 70
     0
  0
APPID
  2
GEVID884347759
 70
     0
  0
APPID
  2
GEVID881587467
 70
     0
  0
APPID
  2
GEVID881587468
 70
     0
  0
APPID
  2
GENIUS_GENOBJ-N-HTC_13
 70
     0
  0
APPID
  2
GENIUS_GENHATCH_13
 70
     0
  0
APPID
  2
GEVID884348322
 70
     0
  0
APPID
  2
GEVID884348323
 70
     0
  0
APPID
  2
GEVID884348352
 70
     0
  0
APPID
  2
GENIUS_GENREC_13
 70
     0
  0
APPID
  2
GENIUS_GENOBJ-N-REC_13
 70
     0
  0
APPID
  2
GEVID884349214
 70
     0
  0
APPID
  2
GEVID884349215
 70
     0
  0
APPID
  2
GEVID884349216
 70
     0
  0
APPID
  2
GEVID884349217
 70
     0
  0
APPID
  2
MCAD_NO_VIS
 70
     0
  0
APPID
  2
ACAD_TEMP_GRAPHIC
 70
     0
  0
APPID
  2
ACATTRIBSERVICES
 70
     0
  0
APPID
  2
GENIUS_GENOBJ-N-TIT_13
 70
     0
  0
APPID
  2
GENIUS_GENTITLE_13
 70
     0
  0
APPID
  2
GENIUS_GENZVEED_13
 70
     0
  0
APPID
  2
GENIUS_GENSCREG_15
 70
     0
  0
APPID
  2
GENIUS_GENOBJ-N-SDF_13
 70
     0
  0
APPID
  2
GENIUS_GENREC_14
 70
     0
  0
APPID
  2
GENIUS_GENBLLY_14
 70
     0
  0
APPID
  2
GENIUS_GENDIMSH_14
 70
     0
  0
APPID
  2
DCO15
 70
     0
  0
APPID
  2
CONTENTBLOCKICON
 70
     0
  0
ENDTAB
  0
TABLE
  2
DIMSTYLE
 70
    15
  0
DIMSTYLE
  2
STANDARD
 70
     0
  3

  4

  5

  6

  7

 40
1.0
 41
0.18
 42
0.0625
 43
0.38
 44
0.18
 45
0.0
 46
0.0
 47
0.0
 48
0.0
140
0.18
141
0.09
142
0.0
143
25.399999999999999
144
1.0
145
0.0
146
1.0
147
0.09
 71
     0
 72
     0
 73
     1
 74
     1
 75
     0
 76
     0
 77
     0
 78
     0
170
     0
171
     2
172
     0
173
     0
174
     0
175
     0
176
     0
177
     0
178
     0
  0
DIMSTYLE
  2
GEN-ISO
 70
     0
  3
<>
  4

  5

  6

  7

 40
1.0
 41
2.5
 42
1.0
 43
7.0
 44
1.0
 45
0.0
 46
0.0
 47
0.1
 48
0.1
140
3.5
141
0.0
142
0.0
143
0.0393701
144
1.0
145
0.0
146
0.71
147
0.6
 71
     0
 72
     0
 73
     0
 74
     0
 75
     0
 76
     0
 77
     1
 78
     8
170
     0
171
     2
172
     1
173
     0
174
     0
175
     0
176
   256
177
   256
178
     2
  0
DIMSTYLE
  2
AM_ISO
 70
     0
  3

  4
"
  5

  6

  7

 40
1.0
 41
2.5
 42
1.0
 43
10.0
 44
1.0
 45
0.0
 46
0.0
 47
0.1
 48
0.1
140
3.5
141
0.0
142
0.0
143
0.0393701
144
1.0
145
0.0
146
0.71
147
1.5
 71
     0
 72
     0
 73
     0
 74
     0
 75
     0
 76
     0
 77
     1
 78
     8
170
     0
171
     2
172
     1
173
     0
174
     0
175
     0
176
   256
177
   256
178
     2
  0
DIMSTYLE
  2
AM_ISO$3
 70
     0
  3

  4
"
  5

  6

  7

 40
1.0
 41
2.5
 42
1.0
 43
10.0
 44
1.0
 45
0.0
 46
0.0
 47
0.1
 48
0.1
140
3.5
141
0.0
142
0.0
143
0.0393701
144
1.0
145
0.0
146
0.71
147
1.5
 71
     0
 72
     0
 73
     0
 74
     1
 75
     0
 76
     0
 77
     1
 78
     8
170
     0
171
     2
172
     0
173
     0
174
     0
175
     0
176
   256
177
   256
178
     2
  0
DIMSTYLE
  2
AM_ISO$4
 70
     0
  3

  4
"
  5

  6

  7

 40
1.0
 41
2.5
 42
1.0
 43
10.0
 44
1.0
 45
0.0
 46
0.0
 47
0.1
 48
0.1
140
3.5
141
0.0
142
0.0
143
0.0393701
144
1.0
145
0.0
146
0.71
147
1.5
 71
     0
 72
     0
 73
     0
 74
     1
 75
     0
 76
     0
 77
     1
 78
     8
170
     0
171
     2
172
     0
173
     0
174
     0
175
     0
176
   256
177
   256
178
     2
  0
DIMSTYLE
  2
AM_ISO$6
 70
     0
  3

  4
"
  5

  6

  7

 40
1.0
 41
2.5
 42
1.0
 43
10.0
 44
1.0
 45
0.0
 46
0.0
 47
0.1
 48
0.1
140
3.5
141
0.0
142
0.0
143
0.0393701
144
1.0
145
0.0
146
0.71
147
1.5
 71
     0
 72
     0
 73
     0
 74
     0
 75
     0
 76
     0
 77
     0
 78
     8
170
     0
171
     2
172
     1
173
     0
174
     0
175
     0
176
   256
177
   256
178
     2
  0
DIMSTYLE
  2
AM_ISO$7
 70
     0
  3

  4
"
  5

  6

  7

 40
1.0
 41
2.5
 42
1.0
 43
10.0
 44
1.0
 45
0.0
 46
0.0
 47
0.1
 48
0.1
140
5.0
141
0.0
142
0.0
143
0.0393701
144
1.0
145
0.0
146
0.71
147
1.5
 71
     0
 72
     0
 73
     0
 74
     0
 75
     0
 76
     0
 77
     1
 78
     8
170
     0
171
     2
172
     1
173
     0
174
     0
175
     0
176
   256
177
   256
178
     2
  0
DIMSTYLE
  2
AM_ISO$SF
 70
     0
  3

  4
"
  5

  6

  7

 40
1.0
 41
2.5
 42
1.0
 43
10.0
 44
1.0
 45
0.0
 46
0.0
 47
0.1
 48
0.1
140
3.5
141
0.0
142
0.0
143
0.0393701
144
1.0
145
0.0
146
0.71
147
1.5
 71
     0
 72
     0
 73
     0
 74
     0
 75
     1
 76
     1
 77
     1
 78
     8
170
     0
171
     2
172
     1
173
     0
174
     0
175
     0
176
   256
177
   256
178
     2
  0
DIMSTYLE
  2
AM_ISO$SH
 70
     0
  3

  4
"
  5

  6
GENAXEH
  7

 40
1.0
 41
2.5
 42
1.0
 43
10.0
 44
1.0
 45
0.0
 46
0.0
 47
0.1
 48
0.1
140
3.5
141
0.0
142
0.0
143
0.0393701
144
2.0
145
0.0
146
0.71
147
1.5
 71
     0
 72
     0
 73
     0
 74
     0
 75
     1
 76
     1
 77
     1
 78
     8
170
     0
171
     2
172
     1
173
     1
174
     0
175
     0
176
   256
177
   256
178
     2
  0
DIMSTYLE
  2
GEN-ISO$3
 70
     0
  3
<>
  4

  5

  6

  7

 40
1.0
 41
2.5
 42
1.0
 43
7.0
 44
1.0
 45
0.0
 46
0.0
 47
0.1
 48
0.1
140
3.5
141
0.0
142
0.0
143
0.0393701
144
1.0
145
0.0
146
0.71
147
0.6
 71
     0
 72
     0
 73
     0
 74
     1
 75
     0
 76
     0
 77
     1
 78
     8
170
     0
171
     2
172
     0
173
     0
174
     0
175
     0
176
     0
177
     0
178
     0
  0
DIMSTYLE
  2
GEN-ISO$4
 70
     0
  3
<>
  4

  5

  6

  7

 40
1.0
 41
2.5
 42
1.0
 43
7.0
 44
1.0
 45
0.0
 46
0.0
 47
0.1
 48
0.1
140
3.5
141
0.0
142
0.0
143
0.0393701
144
1.0
145
0.0
146
0.71
147
0.6
 71
     0
 72
     0
 73
     0
 74
     1
 75
     0
 76
     0
 77
     1
 78
     8
170
     0
171
     2
172
     0
173
     0
174
     0
175
     0
176
     0
177
     0
178
     0
  0
DIMSTYLE
  2
GEN-ISO$6
 70
     0
  3
<>
  4

  5

  6

  7

 40
1.0
 41
2.5
 42
1.0
 43
7.0
 44
1.0
 45
0.0
 46
0.0
 47
0.1
 48
0.1
140
3.5
141
0.0
142
0.0
143
0.0393701
144
1.0
145
0.0
146
0.71
147
0.6
 71
     0
 72
     0
 73
     0
 74
     0
 75
     0
 76
     0
 77
     0
 78
     8
170
     0
171
     2
172
     0
173
     0
174
     0
175
     0
176
     0
177
     0
178
     0
  0
DIMSTYLE
  2
GEN-ISO-POS
 70
     0
  3
<>
  4

  5

  6

  7

 40
1.0
 41
2.5
 42
1.0
 43
7.0
 44
1.0
 45
0.0
 46
0.0
 47
0.1
 48
0.1
140
5.0
141
0.0
142
0.0
143
0.0393701
144
1.0
145
0.0
146
0.71
147
1.5
 71
     0
 72
     0
 73
     0
 74
     0
 75
     0
 76
     0
 77
     0
 78
     8
170
     0
171
     2
172
     0
173
     0
174
     0
175
     0
176
     0
177
     0
178
     0
  0
DIMSTYLE
  2
GEN-ISO-AXE-F
 70
     0
  3
<>
  4

  5

  6

  7

 40
1.0
 41
2.5
 42
1.0
 43
7.0
 44
1.0
 45
0.0
 46
0.0
 47
0.1
 48
0.1
140
3.5
141
0.0
142
0.0
143
0.0393701
144
1.0
145
0.0
146
0.71
147
0.6
 71
     0
 72
     0
 73
     0
 74
     0
 75
     1
 76
     1
 77
     1
 78
     8
170
     0
171
     2
172
     1
173
     0
174
     0
175
     0
176
     0
177
     0
178
     0
  0
DIMSTYLE
  2
GEN-ISO-AXE-H
 70
     0
  3
<>
  4

  5

  6
GENAXEH
  7

 40
1.0
 41
2.5
 42
1.0
 43
7.0
 44
1.0
 45
0.0
 46
0.0
 47
0.1
 48
0.1
140
3.5
141
0.0
142
0.0
143
0.0393701
144
2.0
145
0.0
146
0.71
147
0.6
 71
     0
 72
     0
 73
     0
 74
     0
 75
     1
 76
     1
 77
     1
 78
     8
170
     0
171
     2
172
     1
173
     1
174
     0
175
     0
176
     0
177
     0
178
     0
  0
ENDTAB
  0
ENDSEC
  0
SECTION
  2
BLOCKS
  0
BLOCK
  8
0
  2
$MODEL_SPACE
 70
     0
 10
0.0
 20
0.0
 30
0.0
  3
$MODEL_SPACE
  1

  0
ENDBLK
  5
1C
  8
0
  0
BLOCK
 67
     1
  8
0
  2
$PAPER_SPACE
 70
     0
 10
0.0
 20
0.0
 30
0.0
  3
$PAPER_SPACE
  1

  0
ENDBLK
  5
19
 67
     1
  8
0
  0
BLOCK
  8
0
  2
VCCIKPKT
 70
     0
 10
0.0
 20
0.0
 30
0.0
  3
VCCIKPKT
  1

  0
LINE
  5
86
  8
KPKT
 62
     4
 10
1.0
 20
1.0
 30
0.0
 11
-1.0
 21
1.0
 31
0.0
  0
LINE
  5
87
  8
KPKT
 62
     4
 10
-1.0
 20
-1.0
 30
0.0
 11
1.0
 21
1.0
 31
0.0
  0
LINE
  5
88
  8
KPKT
 62
     4
 10
-1.0
 20
-1.0
 30
0.0
 11
1.0
 21
-1.0
 31
0.0
  0
LINE
  5
89
  8
KPKT
 62
     4
 10
-1.0
 20
1.0
 30
0.0
 11
1.0
 21
-1.0
 31
0.0
  0
CIRCLE
  5
8A
  8
KPKT
 62
     4
 10
0.0
 20
0.0
 30
0.0
 40
1.4142135623730949
  0
LINE
  5
8B
  8
KPKT
 62
     4
 10
-1.0
 20
1.0
 30
0.0
 11
-1.0
 21
-1.0
 31
0.0
  0
LINE
  5
8C
  8
KPKT
 62
     4
 10
1.0
 20
-1.0
 30
0.0
 11
1.0
 21
1.0
 31
0.0
  0
ENDBLK
  5
8E
  8
0
  0
BLOCK
  8
0
  2
VCCISYMB
 70
     0
 10
0.0
 20
0.0
 30
0.0
  3
VCCISYMB
  1

  0
LINE
  5
92
  8
VCCNULL
 10
4.0
 20
0.0
 30
0.0
 11
3.1999999999998181
 21
-0.1999999999998181
 31
0.0
  0
LINE
  5
93
  8
VCCNULL
 10
4.0
 20
0.0
 30
0.0
 11
3.1999999999998181
 21
0.1999999999998181
 31
0.0
  0
LINE
  5
94
  8
VCCNULL
 10
0.0
 20
2.0
 30
0.0
 11
0.1999999999998181
 21
1.1999999999998181
 31
0.0
  0
LINE
  5
95
  8
VCCNULL
 10
0.0
 20
2.0
 30
0.0
 11
-0.1999999999998181
 21
1.1999999999998181
 31
0.0
  0
LINE
  5
96
  8
VCCNULL
 10
0.0
 20
2.0
 30
0.0
 11
0.0
 21
0.0
 31
0.0
  0
LINE
  5
97
  8
VCCNULL
 10
0.0
 20
0.0
 30
0.0
 11
4.0
 21
0.0
 31
0.0
  0
ENDBLK
  5
99
  8
0
  0
BLOCK
  8
0
  2
*U2
 70
     1
 10
0.0
 20
0.0
 30
0.0
  3
*U2
  1
*U
  0
LINE
  5
BB
  8
CENN
 10
0.0
 20
-7.863999999999999
 30
0.0
 11
0.0
 21
7.863999999999999
 31
0.0
  0
CIRCLE
  5
BC
  8
BHMM
 10
0.0
 20
0.0
 30
0.0
 40
4.2832249999999989
  0
ARC
  5
BD
  8
THLI
 10
0.0
 20
0.0
 30
0.0
 40
4.863999999999999
 50
280.0
 51
209.99999999999989
  0
LINE
  5
BE
  8
CENN
 10
-7.863999999999999
 20
0.0
 30
0.0
 11
7.863999999999999
 21
0.0
 31
0.0
  0
ENDBLK
  5
BF
  8
0
  0
BLOCK
  8
0
  2
*U3
 70
     1
 10
0.0
 20
0.0
 30
0.0
  3
*U3
  1
*U
  0
LINE
  5
111
  8
-BHMU
 10
13.0
 20
2.458499999999999
 30
0.0
 11
13.0
 21
-2.458499999999999
 31
0.0
  0
LINE
  5
112
  8
-BHMU
 10
0.0
 20
2.458499999999999
 30
0.0
 11
0.0
 21
-2.458499999999999
 31
0.0
  0
LINE
  5
113
  8
BHMM
 10
0.0
 20
-2.458499999999999
 30
0.0
 11
13.0
 21
-2.458499999999999
 31
0.0
  0
LINE
  5
114
  8
THLI
 10
0.0
 20
-3.0
 30
0.0
 11
12.999999999999989
 21
-3.0
 31
0.0
  0
LINE
  5
115
  8
CENN
 10
-3.0
 20
0.0
 30
0.0
 11
16.0
 21
0.0
 31
0.0
  0
LINE
  5
116
  8
BHMM
 10
0.0
 20
2.458499999999999
 30
0.0
 11
13.0
 21
2.458499999999999
 31
0.0
  0
LINE
  5
117
  8
THLI
 10
0.0
 20
3.0
 30
0.0
 11
12.999999999999989
 21
3.0
 31
0.0
  0
ENDBLK
  5
118
  8
0
  0
BLOCK
  8
0
  2
*U4
 70
     1
 10
0.0
 20
0.0
 30
0.0
  3
*U4
  1
*U
  0
INSERT
  5
11D
  8
GEV_FROZEN
  2
*U3
 10
0.0
 20
0.0
 30
0.0
 41
0.1
 42
0.1
 43
0.1
1001
GENBH
1002
{
1000
-NOBRK
1002
}
  0
LINE
  5
11E
  8
MSL_F16_40-3A
 10
0.0
 20
-2.458499999999999
 30
0.0
 11
13.0
 21
-2.458499999999999
 31
0.0
  0
LINE
  5
11F
  8
MSL_F16_40-3A
 10
0.0
 20
-3.0
 30
0.0
 11
12.999999999999989
 21
-3.0
 31
0.0
  0
LINE
  5
120
  8
MSL_F16_40-7A
 10
-3.0
 20
0.0
 30
0.0
 11
16.0
 21
0.0
 31
0.0
  0
LINE
  5
121
  8
MSL_F16_40-3A
 10
0.0
 20
2.458499999999999
 30
0.0
 11
13.0
 21
2.458499999999999
 31
0.0
  0
LINE
  5
122
  8
MSL_F16_40-3A
 10
0.0
 20
3.0
 30
0.0
 11
12.999999999999989
 21
3.0
 31
0.0
  0
ENDBLK
  5
123
  8
0
  0
BLOCK
  8
0
  2
*U5
 70
     1
 10
0.0
 20
0.0
 30
0.0
  3
*U5
  1
*U
  0
LINE
  5
12B
  8
-BHMU
 10
13.000000000001799
 20
2.458499999999999
 30
0.0
 11
13.000000000001799
 21
-2.458499999999999
 31
0.0
  0
LINE
  5
12C
  8
-BHMU
 10
0.0
 20
2.458499999999999
 30
0.0
 11
0.0
 21
-2.458499999999999
 31
0.0
  0
LINE
  5
12D
  8
BHMM
 10
0.0
 20
-2.458499999999999
 30
0.0
 11
13.000000000001799
 21
-2.458499999999999
 31
0.0
  0
LINE
  5
12E
  8
THLI
 10
0.0
 20
-3.0
 30
0.0
 11
13.000000000001799
 21
-3.0
 31
0.0
  0
LINE
  5
12F
  8
CENN
 10
-3.0
 20
0.0
 30
0.0
 11
16.000000000001791
 21
0.0
 31
0.0
  0
LINE
  5
130
  8
BHMM
 10
0.0
 20
2.458499999999999
 30
0.0
 11
13.000000000001799
 21
2.458499999999999
 31
0.0
  0
LINE
  5
131
  8
THLI
 10
0.0
 20
3.0
 30
0.0
 11
13.000000000001799
 21
3.0
 31
0.0
  0
ENDBLK
  5
132
  8
0
  0
BLOCK
  8
0
  2
*U6
 70
     1
 10
0.0
 20
0.0
 30
0.0
  3
*U6
  1
*U
  0
INSERT
  5
135
  8
GEV_FROZEN
  2
*U5
 10
0.0
 20
0.0
 30
0.0
 41
0.1
 42
0.1
 43
0.1
1001
GENBH
1002
{
1000
-NOBRK
1002
}
  0
LINE
  5
136
  8
MSL_F16_40-3A
 10
0.0
 20
-2.458499999999999
 30
0.0
 11
13.000000000001799
 21
-2.458499999999999
 31
0.0
  0
LINE
  5
137
  8
MSL_F16_40-3A
 10
0.0
 20
-3.0
 30
0.0
 11
13.000000000001799
 21
-3.0
 31
0.0
  0
LINE
  5
138
  8
MSL_F16_40-7A
 10
-3.0
 20
0.0
 30
0.0
 11
16.000000000001791
 21
0.0
 31
0.0
  0
LINE
  5
139
  8
MSL_F16_40-3A
 10
0.0
 20
2.458499999999999
 30
0.0
 11
13.000000000001799
 21
2.458499999999999
 31
0.0
  0
LINE
  5
13A
  8
MSL_F16_40-3A
 10
0.0
 20
3.0
 30
0.0
 11
13.000000000001799
 21
3.0
 31
0.0
  0
ENDBLK
  5
13B
  8
0
  0
BLOCK
  8
0
  2
*U7
 70
     1
 10
0.0
 20
0.0
 30
0.0
  3
*U7
  1
*U
  0
LINE
  5
59D
  8
-BHMU
 10
8.0000000000000018
 20
-3.2999999999999989
 30
0.0
 11
8.0000000000000018
 21
3.3000000000000012
 31
0.0
  0
LINE
  5
59E
  8
-BHMU
 10
-0.0000000000000008
 20
3.2999999999999989
 30
0.0
 11
0.0
 21
-3.2999999999999989
 31
0.0
  0
LINE
  5
59F
  8
BHMM
 10
0.0
 20
-3.2999999999999989
 30
0.0
 11
8.0000000000000018
 21
-3.2999999999999989
 31
0.0
  0
LINE
  5
5A0
  8
CENN
 10
11.0
 20
0.0
 30
0.0
 11
-3.0
 21
0.0
 31
0.0
  0
LINE
  5
5A1
  8
BHMM
 10
-0.0000000000000008
 20
3.2999999999999989
 30
0.0
 11
8.0000000000000018
 21
3.3000000000000012
 31
0.0
  0
ENDBLK
  5
5A2
  8
0
  0
BLOCK
  8
0
  2
*U8
 70
     1
 10
0.0
 20
0.0
 30
0.0
  3
*U8
  1
*U
  0
LINE
  5
5A8
  8
CENN
 10
-9.0
 20
0.0
 30
0.0
 11
23.0
 21
0.0
 31
0.0
  0
LINE
  5
5A9
  8
BHII
 10
0.0
 20
-3.0
 30
0.0
 11
19.386565000000001
 21
-2.9999999999999991
 31
0.0
  0
LINE
  5
5AA
  8
BHII
 10
0.0
 20
3.0
 30
0.0
 11
19.386565000000001
 21
2.9999999999999991
 31
0.0
  0
LINE
  5
5AB
  8
THLI
 10
2.5
 20
2.386565
 30
0.0
 11
20.0
 21
2.386565
 31
0.0
  0
LINE
  5
5AC
  8
THLI
 10
2.5
 20
-2.386565
 30
0.0
 11
20.0
 21
-2.386565
 31
0.0
  0
ARC
  5
5AD
  8
HIDN
 10
-7.083541661352311
 20
0.0000000000000001
 30
0.0
 40
4.3312499999999989
 50
340.52877936550931
 51
19.471220634490692
  0
ARC
  5
5AE
  8
HIDN
 10
-3.927994788345194
 20
-2.165624999999999
 30
0.0
 40
1.1757031269928819
 50
322.12112050828108
 51
37.878879491718862
  0
ARC
  5
5AF
  8
HIDN
 10
-3.927994788345194
 20
2.165624999999999
 30
0.0
 40
1.1757031269928819
 50
322.12112050828108
 51
37.87887949171887
  0
LINE
  5
5B0
  8
BHII
 10
-6.0
 20
-4.4000000000000021
 30
0.0
 11
-5.4000000000000004
 21
-5.0
 31
0.0
  0
LINE
  5
5B1
  8
BHII
 10
0.0
 20
3.0
 30
0.0
 11
0.0
 21
5.0
 31
0.0
  0
LINE
  5
5B2
  8
BHII
 10
-5.4000000000000004
 20
5.0
 30
0.0
 11
0.0
 21
5.0
 31
0.0
  0
LINE
  5
5B3
  8
BHII
 10
-6.0
 20
4.4000000000000021
 30
0.0
 11
-5.4000000000000004
 21
5.0
 31
0.0
  0
LINE
  5
5B4
  8
BHII
 10
-5.4000000000000004
 20
-5.0
 30
0.0
 11
0.0
 21
-5.0
 31
0.0
  0
LINE
  5
5B5
  8
BHII
 10
0.0
 20
-5.0
 30
0.0
 11
0.0
 21
-3.0
 31
0.0
  0
LINE
  5
5B6
  8
BHII
 10
-6.0
 20
-4.4000000000000021
 30
0.0
 11
-6.0
 21
4.4000000000000021
 31
0.0
  0
LINE
  5
5B7
  8
CON1
 10
-5.4000000000000004
 20
5.0
 30
0.0
 11
-5.4000000000000004
 21
-5.0
 31
0.0
  0
LINE
  5
5B8
  8
HIDN
 10
-3.0
 20
2.8875000000000002
 30
0.0
 11
-1.332901097714956
 21
0.0
 31
0.0
  0
LINE
  5
5B9
  8
HIDN
 10
-3.0
 20
-2.8875000000000002
 30
0.0
 11
-1.332901097714956
 21
0.0
 31
0.0
  0
LINE
  5
5BA
  8
HIDN
 10
-6.0
 20
2.8875000000000002
 30
0.0
 11
-3.0
 21
2.8875000000000002
 31
0.0
  0
LINE
  5
5BB
  8
HIDN
 10
-6.0
 20
1.4437500000000001
 30
0.0
 11
-3.0
 21
1.443749999999999
 31
0.0
  0
LINE
  5
5BC
  8
HIDN
 10
-6.0
 20
-1.4437500000000001
 30
0.0
 11
-3.0
 21
-1.443749999999999
 31
0.0
  0
LINE
  5
5BD
  8
HIDN
 10
-6.0
 20
-2.8875000000000002
 30
0.0
 11
-3.0
 21
-2.8875000000000002
 31
0.0
  0
LINE
  5
5BE
  8
CON1
 10
0.0
 20
-3.0
 30
0.0
 11
0.0
 21
3.0
 31
0.0
  0
LINE
  5
5BF
  8
THLI
 10
-0.0000000000000004
 20
3.0
 30
0.0
 11
2.5
 21
2.386565
 31
0.0
  0
LINE
  5
5C0
  8
THLI
 10
-0.0000000000000004
 20
-3.0
 30
0.0
 11
2.5
 21
-2.386565
 31
0.0
  0
LINE
  5
5C1
  8
CON1
 10
2.5
 20
-3.0
 30
0.0
 11
2.5
 21
3.0
 31
0.0
  0
LINE
  5
5C2
  8
BHII
 10
20.0
 20
2.386565
 30
0.0
 11
19.386565000000001
 21
2.9999999999999991
 31
0.0
  0
LINE
  5
5C3
  8
BHII
 10
20.0
 20
-2.386565
 30
0.0
 11
19.386565000000001
 21
-2.9999999999999991
 31
0.0
  0
LINE
  5
5C4
  8
BHII
 10
20.0
 20
-2.386565
 30
0.0
 11
20.0
 21
2.386565
 31
0.0
  0
LINE
  5
5C5
  8
CON1
 10
19.386565000000001
 20
-2.9999999999999991
 30
0.0
 11
19.386565000000001
 21
2.9999999999999991
 31
0.0
  0
ENDBLK
  5
5C6
  8
0
  0
BLOCK
  8
0
  2
*U9
 70
     1
 10
0.0
 20
0.0
 30
0.0
  3
*U9
  1
*U
  0
LINE
  5
5CB
  8
-BHHH
 10
0.0
 20
3.2999999999999972
 30
0.0
 11
8.0
 21
3.2999999999999972
 31
0.0
  0
LINE
  5
5CC
  8
-BHHH
 10
0.0
 20
-3.2999999999999972
 30
0.0
 11
8.0
 21
-3.2999999999999972
 31
0.0
  0
LINE
  5
5CD
  8
-BHHU
 10
0.0
 20
3.2999999999999972
 30
0.0
 11
0.0
 21
-3.2999999999999972
 31
0.0
  0
LINE
  5
5CE
  8
-BHHU
 10
8.0
 20
3.2999999999999972
 30
0.0
 11
8.0
 21
-3.2999999999999972
 31
0.0
  0
ENDBLK
  5
5CF
  8
0
  0
BLOCK
  8
0
  2
*U10
 70
     1
 10
0.0
 20
0.0
 30
0.0
  3
*U10
  1
*U
  0
INSERT
  5
5D2
  8
CON1
  2
VCCIKPKT
 10
15.58749999999997
 20
6.4999999999999991
 30
0.0
1001
GENIUS_GENOREF_13
1005
0
1001
VCC
1002
{
1000
-KP1
1000
-ID36
1002
}
1001
GEVCON
1002
{
1000
-DIS
1070
     3
1000
-ANG
1070
     3
1002
}
  0
INSERT
  5
5D3
  8
CON1
  2
VCCIKPKT
 10
15.58749999999997
 20
6.4999999999999991
 30
0.0
1001
GENIUS_GENOREF_13
1005
0
1001
VCC
1002
{
1000
-KP0
1000
-ID37
1002
}
1001
GEVCON
1002
{
1000
-DIS
1070
     0
1000
-ANG
1070
     0
1002
}
  0
ENDBLK
  5
5D4
  8
0
  0
BLOCK
  8
0
  2
*U11
 70
     1
 10
0.0
 20
0.0
 30
0.0
  3
*U11
  1
*U
  0
INSERT
  5
5D7
  8
GEV_FROZEN
  2
*U7
 10
0.0
 20
0.0
 30
0.0
 41
0.1
 42
0.1
 43
0.1
1001
GENBH
1002
{
1000
-NOBRK
1002
}
  0
LINE
  5
5D8
  8
MSL_F16_40-0
 10
0.0
 20
-3.2999999999999989
 30
0.0
 11
8.0000000000000018
 21
-3.2999999999999989
 31
0.0
  0
LINE
  5
5D9
  8
MSL_F16_40-7A
 10
11.0
 20
0.0
 30
0.0
 11
-3.0
 21
0.0
 31
0.0
  0
LINE
  5
5DA
  8
MSL_F16_40-0
 10
-0.0000000000000008
 20
3.2999999999999989
 30
0.0
 11
8.0000000000000018
 21
3.3000000000000012
 31
0.0
  0
ENDBLK
  5
5DB
  8
0
  0
BLOCK
  8
0
  2
*U12
 70
     1
 10
0.0
 20
0.0
 30
0.0
  3
*U12
  1
*U
  0
INSERT
  5
5E2
  8
GEV_FROZEN
  2
*U8
 10
0.0
 20
0.0
 30
0.0
 41
0.1
 42
0.1
 43
0.1
1001
GENBH
1002
{
1000
-NOBRK
1002
}
  0
LINE
  5
5E3
  8
MSL_F16_40-7AN
 10
-9.0
 20
0.0
 30
0.0
 11
23.0
 21
0.0
 31
0.0
  0
LINE
  5
5E4
  8
MSL_F16_40-0N
 10
0.0
 20
-3.0
 30
0.0
 11
19.386565000000001
 21
-2.9999999999999991
 31
0.0
  0
LINE
  5
5E5
  8
MSL_F16_40-0N
 10
0.0
 20
3.0
 30
0.0
 11
19.386565000000001
 21
2.9999999999999991
 31
0.0
  0
LINE
  5
5E6
  8
MSL_F16_40-4N
 10
2.5
 20
2.386565
 30
0.0
 11
20.0
 21
2.386565
 31
0.0
  0
LINE
  5
5E7
  8
MSL_F16_40-4N
 10
2.5
 20
-2.386565
 30
0.0
 11
20.0
 21
-2.386565
 31
0.0
  0
ARC
  5
5E8
  8
MSL_F16_40-3AN
 10
-7.083541661352311
 20
0.0000000000000001
 30
0.0
 40
4.3312499999999989
 50
340.52877936550931
 51
19.471220634490692
  0
ARC
  5
5E9
  8
MSL_F16_40-3AN
 10
-3.927994788345194
 20
-2.165624999999999
 30
0.0
 40
1.1757031269928819
 50
322.12112050828108
 51
37.878879491718862
  0
ARC
  5
5EA
  8
MSL_F16_40-3AN
 10
-3.927994788345194
 20
2.165624999999999
 30
0.0
 40
1.1757031269928819
 50
322.12112050828108
 51
37.87887949171887
  0
LINE
  5
5EB
  8
MSL_F16_40-0N
 10
-6.0
 20
-4.4000000000000021
 30
0.0
 11
-5.4000000000000004
 21
-5.0
 31
0.0
  0
LINE
  5
5EC
  8
MSL_F16_40-0N
 10
0.0
 20
3.0
 30
0.0
 11
0.0
 21
5.0
 31
0.0
  0
LINE
  5
5ED
  8
MSL_F16_40-0N
 10
-5.4000000000000004
 20
5.0
 30
0.0
 11
0.0
 21
5.0
 31
0.0
  0
LINE
  5
5EE
  8
MSL_F16_40-0N
 10
-6.0
 20
4.4000000000000021
 30
0.0
 11
-5.4000000000000004
 21
5.0
 31
0.0
  0
LINE
  5
5EF
  8
MSL_F16_40-0N
 10
-5.4000000000000004
 20
-5.0
 30
0.0
 11
0.0
 21
-5.0
 31
0.0
  0
LINE
  5
5F0
  8
MSL_F16_40-0N
 10
0.0
 20
-5.0
 30
0.0
 11
0.0
 21
-3.0
 31
0.0
  0
LINE
  5
5F1
  8
MSL_F16_40-0N
 10
-6.0
 20
-4.4000000000000021
 30
0.0
 11
-6.0
 21
4.4000000000000021
 31
0.0
  0
LINE
  5
5F2
  8
MSL_F16_40-0N
 10
-5.4000000000000004
 20
5.0
 30
0.0
 11
-5.4000000000000004
 21
-5.0
 31
0.0
  0
LINE
  5
5F3
  8
MSL_F16_40-3AN
 10
-3.0
 20
2.8875000000000002
 30
0.0
 11
-1.332901097714956
 21
0.0
 31
0.0
  0
LINE
  5
5F4
  8
MSL_F16_40-3AN
 10
-3.0
 20
-2.8875000000000002
 30
0.0
 11
-1.332901097714956
 21
0.0
 31
0.0
  0
LINE
  5
5F5
  8
MSL_F16_40-3AN
 10
-6.0
 20
2.8875000000000002
 30
0.0
 11
-3.0
 21
2.8875000000000002
 31
0.0
  0
LINE
  5
5F6
  8
MSL_F16_40-3AN
 10
-6.0
 20
1.4437500000000001
 30
0.0
 11
-3.0
 21
1.443749999999999
 31
0.0
  0
LINE
  5
5F7
  8
MSL_F16_40-3AN
 10
-6.0
 20
-1.4437500000000001
 30
0.0
 11
-3.0
 21
-1.443749999999999
 31
0.0
  0
LINE
  5
5F8
  8
MSL_F16_40-3AN
 10
-6.0
 20
-2.8875000000000002
 30
0.0
 11
-3.0
 21
-2.8875000000000002
 31
0.0
  0
LINE
  5
5F9
  8
MSL_F16_40-0N
 10
0.0
 20
-3.0
 30
0.0
 11
0.0
 21
3.0
 31
0.0
  0
LINE
  5
5FA
  8
MSL_F16_40-4N
 10
-0.0000000000000004
 20
3.0
 30
0.0
 11
2.5
 21
2.386565
 31
0.0
  0
LINE
  5
5FB
  8
MSL_F16_40-4N
 10
-0.0000000000000004
 20
-3.0
 30
0.0
 11
2.5
 21
-2.386565
 31
0.0
  0
LINE
  5
5FC
  8
MSL_F16_40-0N
 10
2.5
 20
-3.0
 30
0.0
 11
2.5
 21
3.0
 31
0.0
  0
LINE
  5
5FD
  8
MSL_F16_40-0N
 10
20.0
 20
2.386565
 30
0.0
 11
19.386565000000001
 21
2.9999999999999991
 31
0.0
  0
LINE
  5
5FE
  8
MSL_F16_40-0N
 10
20.0
 20
-2.386565
 30
0.0
 11
19.386565000000001
 21
-2.9999999999999991
 31
0.0
  0
LINE
  5
5FF
  8
MSL_F16_40-0N
 10
20.0
 20
-2.386565
 30
0.0
 11
20.0
 21
2.386565
 31
0.0
  0
LINE
  5
600
  8
MSL_F16_40-0N
 10
19.386565000000001
 20
-2.9999999999999991
 30
0.0
 11
19.386565000000001
 21
2.9999999999999991
 31
0.0
  0
ENDBLK
  5
601
  8
0
  0
BLOCK
  8
0
  2
*U13
 70
     1
 10
0.0
 20
0.0
 30
0.0
  3
*U13
  1
*U
  0
INSERT
  5
605
  8
GEV_FROZEN
  2
*U9
 10
0.0
 20
0.0
 30
0.0
 41
0.1
 42
0.1
 43
0.1
1001
GENBH
1002
{
1000
-NOBRK
1002
}
  0
INSERT
  5
606
  8
MSL_F16_40-0
  2
VCCISYMB
 10
0.0
 20
0.0
 30
0.0
1001
GENBH
1002
{
1000
-NOBRK
1002
}
  0
ENDBLK
  5
607
  8
0
  0
BLOCK
  8
0
  2
*U14
 70
     1
 10
0.0
 20
0.0
 30
0.0
  3
*U14
  1
*U
  0
INSERT
  5
60B
  8
GEV_FROZEN
  2
*U10
 10
0.0
 20
0.0
 30
0.0
 41
0.1
 42
0.1
 43
0.1
1001
GENBH
1002
{
1000
-NOBRK
1002
}
  0
INSERT
  5
60C
  8
MSL_F16_40-0N
  2
VCCISYMB
 10
0.0
 20
0.0
 30
0.0
1001
GENBH
1002
{
1000
-NOBRK
1002
}
  0
ENDBLK
  5
60D
  8
0
  0
BLOCK
  8
0
  2
*U15
 70
     1
 10
0.0
 20
0.0
 30
0.0
  3
*U15
  1
*U
1001
GENIUS_GENBH_13
1002
{
1000
BMBH
1070
     1
1002
}
  0
INSERT
  5
615
  8
GEV_FROZEN
  2
*U7
 10
0.0
 20
0.0
 30
0.0
 41
0.1
 42
0.1
 43
0.1
1001
GENBH
1002
{
1000
-NOBRK
1002
}
  0
LINE
  5
616
  8
MSL_F16_40-3
 10
0.0
 20
-3.3000000000000109
 30
0.0
 11
8.0
 21
-3.3000000000000109
 31
0.0
1001
GENIUS_GENBH_13
1002
{
1000
OE
1000
CON1
1002
}
  0
LINE
  5
617
  8
MSL_F16_40-7A
 10
11.0
 20
0.0
 30
0.0
 11
-3.0
 21
0.0
 31
0.0
  0
LINE
  5
618
  8
MSL_F16_40-3
 10
0.0
 20
3.3000000000000109
 30
0.0
 11
8.0
 21
3.3000000000000109
 31
0.0
1001
GENIUS_GENBH_13
1002
{
1000
OE
1000
CON1
1002
}
  0
INSERT
  5
619
  8
0
  2
*U11
 10
0.0
 20
0.0
 30
0.0
1001
GENIUS_GENOLIS_13
1002
{
1000
ENT
1002
}
1001
GENIUS_GENOENT_13
1002
{
1000
MYREF
1005
0
1002
}
  0
ENDBLK
  5
61A
  8
0
  0
BLOCK
  8
0
  2
GENINF13
 70
     2
 10
0.0
 20
0.0
 30
0.0
  3
GENINF13
  1
GENINF13
  0
CIRCLE
  5
659
  8
INFO
 10
-0.1079460011883957
 20
1.312243585777231
 30
0.0
 40
0.3390668951753026
  0
CIRCLE
  5
65A
  8
INFO
 10
0.0
 20
0.0
 30
0.0
 40
1.9201944099631441
  0
LINE
  5
65B
  8
INFO
 10
0.4113437479737743
 20
0.7068303850037037
 30
0.0
 11
-0.7000060094186789
 21
0.7068303850037035
 31
0.0
  0
LINE
  5
65C
  8
INFO
 10
0.8299040409314978
 20
-1.3415352054823859
 30
0.0
 11
0.8299040409314978
 21
-0.5553667224477729
 31
0.0
  0
LINE
  5
65D
  8
INFO
 10
0.8299040409314978
 20
-0.5553667224477729
 30
0.0
 11
0.4113437479737743
 21
-0.5553667224477729
 31
0.0
  0
LINE
  5
65E
  8
INFO
 10
0.4113437479737743
 20
-0.5553667224477729
 30
0.0
 11
0.4113437479737743
 21
0.7068303850037037
 31
0.0
  0
LINE
  5
65F
  8
INFO
 10
-0.7000060094186789
 20
0.7068303850037035
 30
0.0
 11
-0.7000060094186789
 21
0.1226134319150372
 31
0.0
  0
LINE
  5
660
  8
INFO
 10
-0.7000060094186789
 20
0.1226134319150372
 30
0.0
 11
-0.3752609491200999
 21
0.1226134319150372
 31
0.0
  0
LINE
  5
661
  8
INFO
 10
-0.3752609491200999
 20
0.1226134319150372
 30
0.0
 11
-0.3752609491200999
 21
-0.5553667224477729
 31
0.0
  0
LINE
  5
662
  8
INFO
 10
-0.3752609491200999
 20
-0.5553667224477729
 30
0.0
 11
-0.8010378055452676
 21
-0.5553667224477729
 31
0.0
  0
LINE
  5
663
  8
INFO
 10
-0.8010378055452676
 20
-0.5553667224477729
 30
0.0
 11
-0.8010378055452676
 21
-1.3415352054823859
 31
0.0
  0
LINE
  5
664
  8
INFO
 10
-0.8010378055452676
 20
-1.3415352054823859
 30
0.0
 11
0.8299040409314978
 21
-1.3415352054823859
 31
0.0
  0
ATTDEF
  5
665
  8
INFO
 10
0.0
 20
0.0
 30
0.0
 40
1.0
  1
1
  3
Menge
  2
2GENINF
 70
     1
  0
ATTDEF
  5
666
  8
INFO
 10
0.0
 20
-1.5
 30
0.0
 40
1.0
  1

  3
Stücklisten-Name
  2
3GENINF
 70
     1
  0
ATTDEF
  5
667
  8
INFO
 10
0.0
 20
-3.0
 30
0.0
 40
1.0
  1

  3
Stücklisten-Pfad
  2
4GENINF
 70
     1
  0
ATTDEF
  5
668
  8
INFO
 10
0.0
 20
-4.5
 30
0.0
 40
1.0
  1

  3
Beschreibung 1
  2
5GENINF
 70
     1
  0
ATTDEF
  5
669
  8
INFO
 10
0.0
 20
-6.0
 30
0.0
 40
1.0
  1

  3
Beschreibung 2
  2
6GENINF
 70
     1
  0
ATTDEF
  5
66A
  8
INFO
 10
0.0
 20
-7.5
 30
0.0
 40
1.0
  1

  3
Norm/Lieferant 1
  2
7GENINF
 70
     1
  0
ATTDEF
  5
66B
  8
INFO
 10
0.0
 20
-9.0
 30
0.0
 40
1.0
  1

  3
Norm/Lieferant 2
  2
8GENINF
 70
     1
  0
ATTDEF
  5
66C
  8
INFO
 10
0.0
 20
-10.5
 30
0.0
 40
1.0
  1

  3
Material 1
  2
9GENINF
 70
     1
  0
ATTDEF
  5
66D
  8
INFO
 10
0.0
 20
-12.0
 30
0.0
 40
1.0
  1

  3
Material 2
  2
10GENINF
 70
     1
  0
ATTDEF
  5
66E
  8
INFO
 10
0.0
 20
-13.5
 30
0.0
 40
1.0
  1

  3
Identnummer
  2
11GENINF
 70
     1
  0
ATTDEF
  5
66F
  8
INFO
 10
0.0
 20
-15.0
 30
0.0
 40
1.0
  1

  3
Gewicht
  2
12GENINF
 70
     1
  0
ATTDEF
  5
670
  8
INFO
 10
0.0
 20
-16.5
 30
0.0
 40
1.0
  1

  3
Preis
  2
13GENINF
 70
     1
  0
ATTDEF
  5
671
  8
INFO
 10
0.0
 20
-18.0
 30
0.0
 40
1.0
  1

  3
Abmessungen
  2
14GENINF
 70
     1
  0
ATTDEF
  5
672
  8
INFO
 10
0.0
 20
-19.5
 30
0.0
 40
1.0
  1

  3
User 1
  2
15GENINF
 70
     1
  0
ATTDEF
  5
673
  8
INFO
 10
0.0
 20
-21.0
 30
0.0
 40
1.0
  1

  3
User 2
  2
16GENINF
 70
     1
  0
ATTDEF
  5
674
  8
INFO
 10
0.0
 20
-22.5
 30
0.0
 40
1.0
  1

  3
User 3
  2
17GENINF
 70
     1
  0
ATTDEF
  5
675
  8
INFO
 10
0.0
 20
-24.0
 30
0.0
 40
1.0
  1

  3
User 4
  2
18GENINF
 70
     1
  0
ATTDEF
  5
676
  8
INFO
 10
0.0
 20
-25.5
 30
0.0
 40
1.0
  1

  3
User 5
  2
19GENINF
 70
     1
  0
ATTDEF
  5
677
  8
INFO
 10
0.0
 20
-27.0
 30
0.0
 40
1.0
  1

  3
User 6
  2
20GENINF
 70
     1
  0
ATTDEF
  5
678
  8
INFO
 10
0.0
 20
-28.5
 30
0.0
 40
1.0
  1

  3
User 7
  2
21GENINF
 70
     1
  0
ATTDEF
  5
679
  8
INFO
 10
0.0
 20
-30.0
 30
0.0
 40
1.0
  1

  3
User 8
  2
22GENINF
 70
     1
  0
ATTDEF
  5
67A
  8
INFO
 10
0.0
 20
-31.5
 30
0.0
 40
1.0
  1

  3
Filter
  2
23GENINF
 70
     1
  0
ATTDEF
  5
67B
  8
INFO
 10
0.0
 20
-33.0
 30
0.0
 40
1.0
  1

  3
Bemerkung
  2
24GENINF
 70
     1
  0
ATTDEF
  5
67C
  8
INFO
 10
0.0
 20
-34.5
 30
0.0
 40
1.0
  1

  3
Genius Normteile ID
  2
0GENINF
 70
     1
  0
ENDBLK
  5
67D
  8
0
  0
BLOCK
  8
0
  2
*U17
 70
     1
 10
306.47419627724952
 20
143.93210826924249
 30
0.0
  3
*U17
  1
*U
  0
INSERT
  5
6C6
  8
GEV_FROZEN
  2
*U8
 10
306.47419627724952
 20
143.93210826924249
 30
0.0
 41
0.1
 42
0.1
 43
0.1
1001
GENBH
1002
{
1000
-NOBRK
1002
}
  0
LINE
  5
6C7
  8
MSL_F16_40-7AN
 10
297.47419627724952
 20
143.93210826924249
 30
0.0
 11
329.47419627724952
 21
143.93210826924249
 31
0.0
  0
LINE
  5
6C8
  8
MSL_F16_40-3N
 10
306.47419627724952
 20
140.93210826924249
 30
0.0
 11
314.47419627724952
 21
140.93210826924249
 31
0.0
1001
GENIUS_GENBH_13
1002
{
1000
OE
1000
N_CON1
1002
}
  0
LINE
  5
6C9
  8
MSL_F16_40-3
 10
314.47419627724952
 20
140.93210826924249
 30
0.0
 11
325.86076127724948
 21
140.93210826924249
 31
0.0
  0
LINE
  5
6CA
  8
MSL_F16_40-3N
 10
306.47419627724952
 20
146.93210826924249
 30
0.0
 11
314.47419627724952
 21
146.93210826924249
 31
0.0
1001
GENIUS_GENBH_13
1002
{
1000
OE
1000
N_CON1
1002
}
  0
LINE
  5
6CB
  8
MSL_F16_40-3
 10
314.47419627724952
 20
146.93210826924249
 30
0.0
 11
325.86076127724948
 21
146.93210826924249
 31
0.0
  0
LINE
  5
6CC
  8
MSL_F16_40-3N
 10
308.97419627724958
 20
146.31867326924251
 30
0.0
 11
314.47419627724952
 21
146.31867326924251
 31
0.0
1001
GENIUS_GENBH_13
1002
{
1000
OE
1000
N_THLI
1002
}
  0
LINE
  5
6CD
  8
MSL_F16_40-3
 10
314.47419627724952
 20
146.31867326924251
 30
0.0
 11
326.47419627724952
 21
146.31867326924251
 31
0.0
  0
LINE
  5
6CE
  8
MSL_F16_40-3N
 10
308.97419627724958
 20
141.5455432692425
 30
0.0
 11
314.47419627724952
 21
141.5455432692425
 31
0.0
1001
GENIUS_GENBH_13
1002
{
1000
OE
1000
N_THLI
1002
}
  0
LINE
  5
6CF
  8
MSL_F16_40-3
 10
314.47419627724952
 20
141.5455432692425
 30
0.0
 11
326.47419627724952
 21
141.5455432692425
 31
0.0
  0
ARC
  5
6D0
  8
MSL_F16_40-3AN
 10
299.39065461589729
 20
143.93210826924249
 30
0.0
 40
4.3312499999999732
 50
340.52877936550919
 51
19.47122063449072
  0
ARC
  5
6D1
  8
MSL_F16_40-3AN
 10
302.54620148890427
 20
141.76648326924251
 30
0.0
 40
1.1757031269928839
 50
322.12112050828148
 51
37.878879491719481
  0
ARC
  5
6D2
  8
MSL_F16_40-3AN
 10
302.54620148890427
 20
146.0977332692425
 30
0.0
 40
1.1757031269928671
 50
322.12112050828051
 51
37.878879491718379
  0
LINE
  5
6D3
  8
MSL_F16_40-0N
 10
300.47419627724952
 20
139.53210826924251
 30
0.0
 11
301.07419627724948
 21
138.93210826924249
 31
0.0
  0
LINE
  5
6D4
  8
MSL_F16_40-0N
 10
306.47419627724952
 20
146.93210826924249
 30
0.0
 11
306.47419627724952
 21
148.93210826924249
 31
0.0
  0
LINE
  5
6D5
  8
MSL_F16_40-0N
 10
301.07419627724948
 20
148.93210826924249
 30
0.0
 11
306.47419627724952
 21
148.93210826924249
 31
0.0
  0
LINE
  5
6D6
  8
MSL_F16_40-0N
 10
300.47419627724952
 20
148.3321082692425
 30
0.0
 11
301.07419627724948
 21
148.93210826924249
 31
0.0
  0
LINE
  5
6D7
  8
MSL_F16_40-0N
 10
301.07419627724948
 20
138.93210826924249
 30
0.0
 11
306.47419627724952
 21
138.93210826924249
 31
0.0
  0
LINE
  5
6D8
  8
MSL_F16_40-0N
 10
306.47419627724952
 20
138.93210826924249
 30
0.0
 11
306.47419627724952
 21
140.93210826924249
 31
0.0
  0
LINE
  5
6D9
  8
MSL_F16_40-0N
 10
300.47419627724952
 20
139.53210826924251
 30
0.0
 11
300.47419627724952
 21
148.3321082692425
 31
0.0
  0
LINE
  5
6DA
  8
MSL_F16_40-0N
 10
301.07419627724948
 20
148.93210826924249
 30
0.0
 11
301.07419627724948
 21
138.93210826924249
 31
0.0
  0
LINE
  5
6DB
  8
MSL_F16_40-3AN
 10
303.47419627724952
 20
146.81960826924251
 30
0.0
 11
305.14129517953461
 21
143.93210826924249
 31
0.0
  0
LINE
  5
6DC
  8
MSL_F16_40-3AN
 10
303.47419627724952
 20
141.0446082692425
 30
0.0
 11
305.14129517953461
 21
143.93210826924249
 31
0.0
  0
LINE
  5
6DD
  8
MSL_F16_40-3AN
 10
300.47419627724952
 20
146.81960826924251
 30
0.0
 11
303.47419627724952
 21
146.81960826924251
 31
0.0
  0
LINE
  5
6DE
  8
MSL_F16_40-3AN
 10
300.47419627724952
 20
145.37585826924251
 30
0.0
 11
303.47419627724952
 21
145.37585826924251
 31
0.0
  0
LINE
  5
6DF
  8
MSL_F16_40-3AN
 10
300.47419627724952
 20
142.4883582692425
 30
0.0
 11
303.47419627724952
 21
142.4883582692425
 31
0.0
  0
LINE
  5
6E0
  8
MSL_F16_40-3AN
 10
300.47419627724952
 20
141.0446082692425
 30
0.0
 11
303.47419627724952
 21
141.0446082692425
 31
0.0
  0
LINE
  5
6E1
  8
MSL_F16_40-0N
 10
306.47419627724952
 20
140.93210826924249
 30
0.0
 11
306.47419627724952
 21
146.93210826924249
 31
0.0
  0
LINE
  5
6E2
  8
MSL_F16_40-3N
 10
306.47419627724952
 20
146.93210826924249
 30
0.0
 11
308.97419627724958
 21
146.31867326924251
 31
0.0
1001
GENIUS_GENBH_13
1002
{
1000
OE
1000
N_THLI
1002
}
  0
LINE
  5
6E3
  8
MSL_F16_40-3N
 10
306.47419627724952
 20
140.93210826924249
 30
0.0
 11
308.97419627724958
 21
141.5455432692425
 31
0.0
1001
GENIUS_GENBH_13
1002
{
1000
OE
1000
N_THLI
1002
}
  0
LINE
  5
6E4
  8
MSL_F16_40-3N
 10
308.97419627724958
 20
140.93210826924249
 30
0.0
 11
308.97419627724958
 21
146.93210826924249
 31
0.0
1001
GENIUS_GENBH_13
1002
{
1000
OE
1000
N_CON1
1002
}
  0
LINE
  5
6E5
  8
MSL_F16_40-3
 10
326.47419627724952
 20
146.31867326924251
 30
0.0
 11
325.86076127724948
 21
146.93210826924249
 31
0.0
  0
LINE
  5
6E6
  8
MSL_F16_40-3
 10
326.47419627724952
 20
141.5455432692425
 30
0.0
 11
325.86076127724948
 21
140.93210826924249
 31
0.0
  0
LINE
  5
6E7
  8
MSL_F16_40-3
 10
326.47419627724952
 20
141.5455432692425
 30
0.0
 11
326.47419627724952
 21
146.31867326924251
 31
0.0
  0
LINE
  5
6E8
  8
MSL_F16_40-3
 10
325.86076127724948
 20
140.93210826924249
 30
0.0
 11
325.86076127724948
 21
146.93210826924249
 31
0.0
  0
INSERT
  5
6E9
  8
0
  2
*U12
 10
306.47419627724952
 20
143.93210826924249
 30
0.0
1001
GENIUS_GENOLIS_13
1002
{
1000
ENT
1002
}
1001
GENIUS_GENOENT_13
1002
{
1000
MYREF
1005
0
1002
}
  0
ENDBLK
  5
6EA
  8
0
  0
BLOCK
  8
0
  2
*U18
 70
     1
 10
0.0
 20
0.0
 30
0.0
  3
*U18
  1
*U
  0
LINE
  5
703
  8
-BHHH
 10
0.0
 20
3.2999999999999972
 30
0.0
 11
8.0
 21
3.2999999999999972
 31
0.0
  0
LINE
  5
704
  8
-BHHH
 10
0.0
 20
-3.2999999999999972
 30
0.0
 11
8.0
 21
-3.2999999999999972
 31
0.0
  0
LINE
  5
705
  8
-BHHU
 10
0.0
 20
3.2999999999999972
 30
0.0
 11
0.0
 21
-3.2999999999999972
 31
0.0
  0
LINE
  5
706
  8
-BHHU
 10
8.0
 20
3.2999999999999972
 30
0.0
 11
8.0
 21
-3.2999999999999972
 31
0.0
  0
ENDBLK
  5
707
  8
0
  0
BLOCK
  8
0
  2
*U19
 70
     1
 10
0.0
 20
0.0
 30
0.0
  3
*U19
  1
*U
  0
INSERT
  5
70A
  8
GEV_FROZEN
  2
*U18
 10
0.0
 20
0.0
 30
0.0
 41
0.1
 42
0.1
 43
0.1
1001
GENBH
1002
{
1000
-NOBRK
1002
}
  0
INSERT
  5
70B
  8
MSL_F16_40-0
  2
VCCISYMB
 10
0.0
 20
0.0
 30
0.0
1001
GENBH
1002
{
1000
-NOBRK
1002
}
  0
ENDBLK
  5
70C
  8
0
  0
BLOCK
  8
0
  2
*U20
 70
     1
 10
0.0
 20
0.0
 30
0.0
  3
*U20
  1
*U
  0
INSERT
  5
70F
  8
CON1
  2
VCCIKPKT
 10
15.58749999999997
 20
6.4999999999999991
 30
0.0
1001
GENIUS_GENOREF_13
1005
0
1001
VCC
1002
{
1000
-KP1
1000
-ID36
1002
}
1001
GEVCON
1002
{
1000
-DIS
1070
     3
1000
-ANG
1070
     3
1002
}
  0
INSERT
  5
710
  8
CON1
  2
VCCIKPKT
 10
15.58749999999997
 20
6.4999999999999991
 30
0.0
1001
GENIUS_GENOREF_13
1005
0
1001
VCC
1002
{
1000
-KP0
1000
-ID37
1002
}
1001
GEVCON
1002
{
1000
-DIS
1070
     0
1000
-ANG
1070
     0
1002
}
  0
ENDBLK
  5
711
  8
0
  0
BLOCK
  8
0
  2
*U21
 70
     1
 10
0.0
 20
0.0
 30
0.0
  3
*U21
  1
*U
  0
INSERT
  5
714
  8
GEV_FROZEN
  2
*U20
 10
0.0
 20
0.0
 30
0.0
 41
0.1
 42
0.1
 43
0.1
1001
GENBH
1002
{
1000
-NOBRK
1002
}
  0
INSERT
  5
715
  8
MSL_F16_40-0N
  2
VCCISYMB
 10
0.0
 20
0.0
 30
0.0
1001
GENBH
1002
{
1000
-NOBRK
1002
}
  0
ENDBLK
  5
716
  8
0
  0
BLOCK
  8
0
  2
*U22
 70
     1
 10
0.0
 20
0.0
 30
0.0
  3
*U22
  1
*U
  0
LINE
  5
719
  8
-BHMU
 10
8.0000000000000018
 20
-3.2999999999999989
 30
0.0
 11
8.0000000000000018
 21
3.3000000000000012
 31
0.0
  0
LINE
  5
71A
  8
-BHMU
 10
-0.0000000000000008
 20
3.2999999999999989
 30
0.0
 11
0.0
 21
-3.2999999999999989
 31
0.0
  0
LINE
  5
71B
  8
BHMM
 10
0.0
 20
-3.2999999999999989
 30
0.0
 11
8.0000000000000018
 21
-3.2999999999999989
 31
0.0
  0
LINE
  5
71C
  8
CENN
 10
11.0
 20
0.0
 30
0.0
 11
-3.0
 21
0.0
 31
0.0
  0
LINE
  5
71D
  8
BHMM
 10
-0.0000000000000008
 20
3.2999999999999989
 30
0.0
 11
8.0000000000000018
 21
3.3000000000000012
 31
0.0
  0
ENDBLK
  5
71E
  8
0
  0
BLOCK
  8
0
  2
*U23
 70
     1
 10
0.0
 20
0.0
 30
0.0
  3
*U23
  1
*U
  0
INSERT
  5
721
  8
GEV_FROZEN
  2
*U22
 10
0.0
 20
0.0
 30
0.0
 41
0.1
 42
0.1
 43
0.1
1001
GENBH
1002
{
1000
-NOBRK
1002
}
  0
LINE
  5
722
  8
MSL_F16_40-3
 10
0.0
 20
-3.3000000000000109
 30
0.0
 11
8.0
 21
-3.3000000000000109
 31
0.0
1001
GENIUS_GENBH_13
1002
{
1000
OE
1000
CON1
1002
}
  0
LINE
  5
723
  8
MSL_F16_40-7A
 10
11.0
 20
0.0
 30
0.0
 11
-3.0
 21
0.0
 31
0.0
  0
LINE
  5
724
  8
MSL_F16_40-3
 10
0.0
 20
3.3000000000000109
 30
0.0
 11
8.0
 21
3.3000000000000109
 31
0.0
1001
GENIUS_GENBH_13
1002
{
1000
OE
1000
CON1
1002
}
  0
INSERT
  5
725
  8
0
  2
*U11
 10
0.0
 20
0.0
 30
0.0
1001
GENIUS_GENOLIS_13
1002
{
1000
ENT
1002
}
1001
GENIUS_GENOENT_13
1002
{
1000
MYREF
1005
0
1002
}
  0
ENDBLK
  5
726
  8
0
  0
BLOCK
  8
0
  2
*U24
 70
     1
 10
0.0
 20
0.0
 30
0.0
  3
*U24
  1
*U
  0
LINE
  5
729
  8
CENN
 10
-9.0
 20
0.0
 30
0.0
 11
23.0
 21
0.0
 31
0.0
  0
LINE
  5
72A
  8
BHII
 10
0.0
 20
-3.0
 30
0.0
 11
19.386565000000001
 21
-2.9999999999999991
 31
0.0
  0
LINE
  5
72B
  8
BHII
 10
0.0
 20
3.0
 30
0.0
 11
19.386565000000001
 21
2.9999999999999991
 31
0.0
  0
LINE
  5
72C
  8
THLI
 10
2.5
 20
2.386565
 30
0.0
 11
20.0
 21
2.386565
 31
0.0
  0
LINE
  5
72D
  8
THLI
 10
2.5
 20
-2.386565
 30
0.0
 11
20.0
 21
-2.386565
 31
0.0
  0
ARC
  5
72E
  8
HIDN
 10
-7.083541661352311
 20
0.0000000000000001
 30
0.0
 40
4.3312499999999989
 50
340.52877936550931
 51
19.471220634490692
  0
ARC
  5
72F
  8
HIDN
 10
-3.927994788345194
 20
-2.165624999999999
 30
0.0
 40
1.1757031269928819
 50
322.12112050828108
 51
37.878879491718862
  0
ARC
  5
730
  8
HIDN
 10
-3.927994788345194
 20
2.165624999999999
 30
0.0
 40
1.1757031269928819
 50
322.12112050828108
 51
37.87887949171887
  0
LINE
  5
731
  8
BHII
 10
-6.0
 20
-4.4000000000000021
 30
0.0
 11
-5.4000000000000004
 21
-5.0
 31
0.0
  0
LINE
  5
732
  8
BHII
 10
0.0
 20
3.0
 30
0.0
 11
0.0
 21
5.0
 31
0.0
  0
LINE
  5
733
  8
BHII
 10
-5.4000000000000004
 20
5.0
 30
0.0
 11
0.0
 21
5.0
 31
0.0
  0
LINE
  5
734
  8
BHII
 10
-6.0
 20
4.4000000000000021
 30
0.0
 11
-5.4000000000000004
 21
5.0
 31
0.0
  0
LINE
  5
735
  8
BHII
 10
-5.4000000000000004
 20
-5.0
 30
0.0
 11
0.0
 21
-5.0
 31
0.0
  0
LINE
  5
736
  8
BHII
 10
0.0
 20
-5.0
 30
0.0
 11
0.0
 21
-3.0
 31
0.0
  0
LINE
  5
737
  8
BHII
 10
-6.0
 20
-4.4000000000000021
 30
0.0
 11
-6.0
 21
4.4000000000000021
 31
0.0
  0
LINE
  5
738
  8
CON1
 10
-5.4000000000000004
 20
5.0
 30
0.0
 11
-5.4000000000000004
 21
-5.0
 31
0.0
  0
LINE
  5
739
  8
HIDN
 10
-3.0
 20
2.8875000000000002
 30
0.0
 11
-1.332901097714956
 21
0.0
 31
0.0
  0
LINE
  5
73A
  8
HIDN
 10
-3.0
 20
-2.8875000000000002
 30
0.0
 11
-1.332901097714956
 21
0.0
 31
0.0
  0
LINE
  5
73B
  8
HIDN
 10
-6.0
 20
2.8875000000000002
 30
0.0
 11
-3.0
 21
2.8875000000000002
 31
0.0
  0
LINE
  5
73C
  8
HIDN
 10
-6.0
 20
1.4437500000000001
 30
0.0
 11
-3.0
 21
1.443749999999999
 31
0.0
  0
LINE
  5
73D
  8
HIDN
 10
-6.0
 20
-1.4437500000000001
 30
0.0
 11
-3.0
 21
-1.443749999999999
 31
0.0
  0
LINE
  5
73E
  8
HIDN
 10
-6.0
 20
-2.8875000000000002
 30
0.0
 11
-3.0
 21
-2.8875000000000002
 31
0.0
  0
LINE
  5
73F
  8
CON1
 10
0.0
 20
-3.0
 30
0.0
 11
0.0
 21
3.0
 31
0.0
  0
LINE
  5
740
  8
THLI
 10
-0.0000000000000004
 20
3.0
 30
0.0
 11
2.5
 21
2.386565
 31
0.0
  0
LINE
  5
741
  8
THLI
 10
-0.0000000000000004
 20
-3.0
 30
0.0
 11
2.5
 21
-2.386565
 31
0.0
  0
LINE
  5
742
  8
CON1
 10
2.5
 20
-3.0
 30
0.0
 11
2.5
 21
3.0
 31
0.0
  0
LINE
  5
743
  8
BHII
 10
20.0
 20
2.386565
 30
0.0
 11
19.386565000000001
 21
2.9999999999999991
 31
0.0
  0
LINE
  5
744
  8
BHII
 10
20.0
 20
-2.386565
 30
0.0
 11
19.386565000000001
 21
-2.9999999999999991
 31
0.0
  0
LINE
  5
745
  8
BHII
 10
20.0
 20
-2.386565
 30
0.0
 11
20.0
 21
2.386565
 31
0.0
  0
LINE
  5
746
  8
CON1
 10
19.386565000000001
 20
-2.9999999999999991
 30
0.0
 11
19.386565000000001
 21
2.9999999999999991
 31
0.0
  0
ENDBLK
  5
747
  8
0
  0
BLOCK
  8
0
  2
*U25
 70
     1
 10
306.47419627724952
 20
143.93210826924249
 30
0.0
  3
*U25
  1
*U
  0
INSERT
  5
74A
  8
GEV_FROZEN
  2
*U24
 10
306.47419627724952
 20
143.93210826924249
 30
0.0
 41
0.1
 42
0.1
 43
0.1
1001
GENBH
1002
{
1000
-NOBRK
1002
}
  0
LINE
  5
74B
  8
MSL_F16_40-7AN
 10
297.47419627724952
 20
143.93210826924249
 30
0.0
 11
329.47419627724952
 21
143.93210826924249
 31
0.0
  0
LINE
  5
74C
  8
MSL_F16_40-3N
 10
306.47419627724952
 20
140.93210826924249
 30
0.0
 11
314.47419627724952
 21
140.93210826924249
 31
0.0
1001
GENIUS_GENBH_13
1002
{
1000
OE
1000
N_CON1
1002
}
  0
LINE
  5
74D
  8
MSL_F16_40-3
 10
314.47419627724952
 20
140.93210826924249
 30
0.0
 11
325.86076127724948
 21
140.93210826924249
 31
0.0
  0
LINE
  5
74E
  8
MSL_F16_40-3N
 10
306.47419627724952
 20
146.93210826924249
 30
0.0
 11
314.47419627724952
 21
146.93210826924249
 31
0.0
1001
GENIUS_GENBH_13
1002
{
1000
OE
1000
N_CON1
1002
}
  0
LINE
  5
74F
  8
MSL_F16_40-3
 10
314.47419627724952
 20
146.93210826924249
 30
0.0
 11
325.86076127724948
 21
146.93210826924249
 31
0.0
  0
LINE
  5
750
  8
MSL_F16_40-3N
 10
308.97419627724958
 20
146.31867326924251
 30
0.0
 11
314.47419627724952
 21
146.31867326924251
 31
0.0
1001
GENIUS_GENBH_13
1002
{
1000
OE
1000
N_THLI
1002
}
  0
LINE
  5
751
  8
MSL_F16_40-3
 10
314.47419627724952
 20
146.31867326924251
 30
0.0
 11
326.47419627724952
 21
146.31867326924251
 31
0.0
  0
LINE
  5
752
  8
MSL_F16_40-3N
 10
308.97419627724958
 20
141.5455432692425
 30
0.0
 11
314.47419627724952
 21
141.5455432692425
 31
0.0
1001
GENIUS_GENBH_13
1002
{
1000
OE
1000
N_THLI
1002
}
  0
LINE
  5
753
  8
MSL_F16_40-3
 10
314.47419627724952
 20
141.5455432692425
 30
0.0
 11
326.47419627724952
 21
141.5455432692425
 31
0.0
  0
ARC
  5
754
  8
MSL_F16_40-3AN
 10
299.39065461589729
 20
143.93210826924249
 30
0.0
 40
4.3312499999999732
 50
340.52877936550919
 51
19.47122063449072
  0
ARC
  5
755
  8
MSL_F16_40-3AN
 10
302.54620148890427
 20
141.76648326924251
 30
0.0
 40
1.1757031269928839
 50
322.12112050828148
 51
37.878879491719481
  0
ARC
  5
756
  8
MSL_F16_40-3AN
 10
302.54620148890427
 20
146.0977332692425
 30
0.0
 40
1.1757031269928671
 50
322.12112050828051
 51
37.878879491718379
  0
LINE
  5
757
  8
MSL_F16_40-0N
 10
300.47419627724952
 20
139.53210826924251
 30
0.0
 11
301.07419627724948
 21
138.93210826924249
 31
0.0
  0
LINE
  5
758
  8
MSL_F16_40-0N
 10
306.47419627724952
 20
146.93210826924249
 30
0.0
 11
306.47419627724952
 21
148.93210826924249
 31
0.0
  0
LINE
  5
759
  8
MSL_F16_40-0N
 10
301.07419627724948
 20
148.93210826924249
 30
0.0
 11
306.47419627724952
 21
148.93210826924249
 31
0.0
  0
LINE
  5
75A
  8
MSL_F16_40-0N
 10
300.47419627724952
 20
148.3321082692425
 30
0.0
 11
301.07419627724948
 21
148.93210826924249
 31
0.0
  0
LINE
  5
75B
  8
MSL_F16_40-0N
 10
301.07419627724948
 20
138.93210826924249
 30
0.0
 11
306.47419627724952
 21
138.93210826924249
 31
0.0
  0
LINE
  5
75C
  8
MSL_F16_40-0N
 10
306.47419627724952
 20
138.93210826924249
 30
0.0
 11
306.47419627724952
 21
140.93210826924249
 31
0.0
  0
LINE
  5
75D
  8
MSL_F16_40-0N
 10
300.47419627724952
 20
139.53210826924251
 30
0.0
 11
300.47419627724952
 21
148.3321082692425
 31
0.0
  0
LINE
  5
75E
  8
MSL_F16_40-0N
 10
301.07419627724948
 20
148.93210826924249
 30
0.0
 11
301.07419627724948
 21
138.93210826924249
 31
0.0
  0
LINE
  5
75F
  8
MSL_F16_40-3AN
 10
303.47419627724952
 20
146.81960826924251
 30
0.0
 11
305.14129517953461
 21
143.93210826924249
 31
0.0
  0
LINE
  5
760
  8
MSL_F16_40-3AN
 10
303.47419627724952
 20
141.0446082692425
 30
0.0
 11
305.14129517953461
 21
143.93210826924249
 31
0.0
  0
LINE
  5
761
  8
MSL_F16_40-3AN
 10
300.47419627724952
 20
146.81960826924251
 30
0.0
 11
303.47419627724952
 21
146.81960826924251
 31
0.0
  0
LINE
  5
762
  8
MSL_F16_40-3AN
 10
300.47419627724952
 20
145.37585826924251
 30
0.0
 11
303.47419627724952
 21
145.37585826924251
 31
0.0
  0
LINE
  5
763
  8
MSL_F16_40-3AN
 10
300.47419627724952
 20
142.4883582692425
 30
0.0
 11
303.47419627724952
 21
142.4883582692425
 31
0.0
  0
LINE
  5
764
  8
MSL_F16_40-3AN
 10
300.47419627724952
 20
141.0446082692425
 30
0.0
 11
303.47419627724952
 21
141.0446082692425
 31
0.0
  0
LINE
  5
765
  8
MSL_F16_40-0N
 10
306.47419627724952
 20
140.93210826924249
 30
0.0
 11
306.47419627724952
 21
146.93210826924249
 31
0.0
  0
LINE
  5
766
  8
MSL_F16_40-3N
 10
306.47419627724952
 20
146.93210826924249
 30
0.0
 11
308.97419627724958
 21
146.31867326924251
 31
0.0
1001
GENIUS_GENBH_13
1002
{
1000
OE
1000
N_THLI
1002
}
  0
LINE
  5
767
  8
MSL_F16_40-3N
 10
306.47419627724952
 20
140.93210826924249
 30
0.0
 11
308.97419627724958
 21
141.5455432692425
 31
0.0
1001
GENIUS_GENBH_13
1002
{
1000
OE
1000
N_THLI
1002
}
  0
LINE
  5
768
  8
MSL_F16_40-3N
 10
308.97419627724958
 20
140.93210826924249
 30
0.0
 11
308.97419627724958
 21
146.93210826924249
 31
0.0
1001
GENIUS_GENBH_13
1002
{
1000
OE
1000
N_CON1
1002
}
  0
LINE
  5
769
  8
MSL_F16_40-3
 10
326.47419627724952
 20
146.31867326924251
 30
0.0
 11
325.86076127724948
 21
146.93210826924249
 31
0.0
  0
LINE
  5
76A
  8
MSL_F16_40-3
 10
326.47419627724952
 20
141.5455432692425
 30
0.0
 11
325.86076127724948
 21
140.93210826924249
 31
0.0
  0
LINE
  5
76B
  8
MSL_F16_40-3
 10
326.47419627724952
 20
141.5455432692425
 30
0.0
 11
326.47419627724952
 21
146.31867326924251
 31
0.0
  0
LINE
  5
76C
  8
MSL_F16_40-3
 10
325.86076127724948
 20
140.93210826924249
 30
0.0
 11
325.86076127724948
 21
146.93210826924249
 31
0.0
  0
INSERT
  5
76D
  8
0
  2
*U12
 10
306.47419627724952
 20
143.93210826924249
 30
0.0
1001
GENIUS_GENOLIS_13
1002
{
1000
ENT
1002
}
1001
GENIUS_GENOENT_13
1002
{
1000
MYREF
1005
0
1002
}
  0
ENDBLK
  5
76E
  8
0
  0
BLOCK
  8
0
  2
*U26
 70
     1
 10
0.0
 20
0.0
 30
0.0
  3
*U26
  1
*U
  0
LINE
  5
8C0
  8
-BHMU
 10
13.0
 20
2.458499999999999
 30
0.0
 11
13.0
 21
-2.458499999999999
 31
0.0
  0
LINE
  5
8C1
  8
-BHMU
 10
0.0
 20
2.458499999999999
 30
0.0
 11
0.0
 21
-2.458499999999999
 31
0.0
  0
LINE
  5
8C2
  8
BHMM
 10
0.0
 20
-2.458499999999999
 30
0.0
 11
13.0
 21
-2.458499999999999
 31
0.0
  0
LINE
  5
8C3
  8
THLI
 10
0.0
 20
-3.0
 30
0.0
 11
12.999999999999989
 21
-3.0
 31
0.0
  0
LINE
  5
8C4
  8
CENN
 10
-3.0
 20
0.0
 30
0.0
 11
16.0
 21
0.0
 31
0.0
  0
LINE
  5
8C5
  8
BHMM
 10
0.0
 20
2.458499999999999
 30
0.0
 11
13.0
 21
2.458499999999999
 31
0.0
  0
LINE
  5
8C6
  8
THLI
 10
0.0
 20
3.0
 30
0.0
 11
12.999999999999989
 21
3.0
 31
0.0
  0
ENDBLK
  5
8C7
  8
0
  0
BLOCK
  8
0
  2
*U27
 70
     1
 10
0.0
 20
0.0
 30
0.0
  3
*U27
  1
*U
  0
INSERT
  5
8CA
  8
GEV_FROZEN
  2
*U26
 10
0.0
 20
0.0
 30
0.0
 41
0.1
 42
0.1
 43
0.1
1001
GENBH
1002
{
1000
-NOBRK
1002
}
  0
LINE
  5
8CB
  8
MSL_F16_40-3A
 10
0.0
 20
-2.458499999999999
 30
0.0
 11
13.0
 21
-2.458499999999999
 31
0.0
  0
LINE
  5
8CC
  8
MSL_F16_40-3A
 10
0.0
 20
-3.0
 30
0.0
 11
12.999999999999989
 21
-3.0
 31
0.0
  0
LINE
  5
8CD
  8
MSL_F16_40-7A
 10
-3.0
 20
0.0
 30
0.0
 11
16.0
 21
0.0
 31
0.0
  0
LINE
  5
8CE
  8
MSL_F16_40-3A
 10
0.0
 20
2.458499999999999
 30
0.0
 11
13.0
 21
2.458499999999999
 31
0.0
  0
LINE
  5
8CF
  8
MSL_F16_40-3A
 10
0.0
 20
3.0
 30
0.0
 11
12.999999999999989
 21
3.0
 31
0.0
  0
ENDBLK
  5
8D0
  8
0
  0
BLOCK
  8
0
  2
*U28
 70
     1
 10
0.0
 20
0.0
 30
0.0
  3
*U28
  1
*U
  0
LINE
  5
8D4
  8
-BHMU
 10
13.000000000001799
 20
2.458499999999999
 30
0.0
 11
13.000000000001799
 21
-2.458499999999999
 31
0.0
  0
LINE
  5
8D5
  8
-BHMU
 10
0.0
 20
2.458499999999999
 30
0.0
 11
0.0
 21
-2.458499999999999
 31
0.0
  0
LINE
  5
8D6
  8
BHMM
 10
0.0
 20
-2.458499999999999
 30
0.0
 11
13.000000000001799
 21
-2.458499999999999
 31
0.0
  0
LINE
  5
8D7
  8
THLI
 10
0.0
 20
-3.0
 30
0.0
 11
13.000000000001799
 21
-3.0
 31
0.0
  0
LINE
  5
8D8
  8
CENN
 10
-3.0
 20
0.0
 30
0.0
 11
16.000000000001791
 21
0.0
 31
0.0
  0
LINE
  5
8D9
  8
BHMM
 10
0.0
 20
2.458499999999999
 30
0.0
 11
13.000000000001799
 21
2.458499999999999
 31
0.0
  0
LINE
  5
8DA
  8
THLI
 10
0.0
 20
3.0
 30
0.0
 11
13.000000000001799
 21
3.0
 31
0.0
  0
ENDBLK
  5
8DB
  8
0
  0
BLOCK
  8
0
  2
*U29
 70
     1
 10
0.0
 20
0.0
 30
0.0
  3
*U29
  1
*U
  0
INSERT
  5
8DE
  8
GEV_FROZEN
  2
*U28
 10
0.0
 20
0.0
 30
0.0
 41
0.1
 42
0.1
 43
0.1
1001
GENBH
1002
{
1000
-NOBRK
1002
}
  0
LINE
  5
8DF
  8
MSL_F16_40-3A
 10
0.0
 20
-2.458499999999999
 30
0.0
 11
13.000000000001799
 21
-2.458499999999999
 31
0.0
  0
LINE
  5
8E0
  8
MSL_F16_40-3A
 10
0.0
 20
-3.0
 30
0.0
 11
13.000000000001799
 21
-3.0
 31
0.0
  0
LINE
  5
8E1
  8
MSL_F16_40-7A
 10
-3.0
 20
0.0
 30
0.0
 11
16.000000000001791
 21
0.0
 31
0.0
  0
LINE
  5
8E2
  8
MSL_F16_40-3A
 10
0.0
 20
2.458499999999999
 30
0.0
 11
13.000000000001799
 21
2.458499999999999
 31
0.0
  0
LINE
  5
8E3
  8
MSL_F16_40-3A
 10
0.0
 20
3.0
 30
0.0
 11
13.000000000001799
 21
3.0
 31
0.0
  0
ENDBLK
  5
8E4
  8
0
  0
BLOCK
  8
0
  2
*U30
 70
     1
 10
0.0
 20
0.0
 30
0.0
  3
*U30
  1
*U
  0
LINE
  5
8E8
  8
-BHHH
 10
0.0
 20
3.2999999999999972
 30
0.0
 11
8.0
 21
3.2999999999999972
 31
0.0
  0
LINE
  5
8E9
  8
-BHHH
 10
0.0
 20
-3.2999999999999972
 30
0.0
 11
8.0
 21
-3.2999999999999972
 31
0.0
  0
LINE
  5
8EA
  8
-BHHU
 10
0.0
 20
3.2999999999999972
 30
0.0
 11
0.0
 21
-3.2999999999999972
 31
0.0
  0
LINE
  5
8EB
  8
-BHHU
 10
8.0
 20
3.2999999999999972
 30
0.0
 11
8.0
 21
-3.2999999999999972
 31
0.0
  0
ENDBLK
  5
8EC
  8
0
  0
BLOCK
  8
0
  2
*U31
 70
     1
 10
0.0
 20
0.0
 30
0.0
  3
*U31
  1
*U
  0
INSERT
  5
8EF
  8
GEV_FROZEN
  2
*U30
 10
0.0
 20
0.0
 30
0.0
 41
0.1
 42
0.1
 43
0.1
1001
GENBH
1002
{
1000
-NOBRK
1002
}
  0
INSERT
  5
8F0
  8
MSL_F16_40-0
  2
VCCISYMB
 10
0.0
 20
0.0
 30
0.0
1001
GENBH
1002
{
1000
-NOBRK
1002
}
  0
ENDBLK
  5
8F1
  8
0
  0
BLOCK
  8
0
  2
*U32
 70
     1
 10
0.0
 20
0.0
 30
0.0
  3
*U32
  1
*U
  0
INSERT
  5
8F4
  8
CON1
  2
VCCIKPKT
 10
15.58749999999997
 20
6.4999999999999991
 30
0.0
1001
GENIUS_GENOREF_13
1005
0
1001
VCC
1002
{
1000
-KP1
1000
-ID36
1002
}
1001
GEVCON
1002
{
1000
-DIS
1070
     3
1000
-ANG
1070
     3
1002
}
  0
INSERT
  5
8F5
  8
CON1
  2
VCCIKPKT
 10
15.58749999999997
 20
6.4999999999999991
 30
0.0
1001
GENIUS_GENOREF_13
1005
0
1001
VCC
1002
{
1000
-KP0
1000
-ID37
1002
}
1001
GEVCON
1002
{
1000
-DIS
1070
     0
1000
-ANG
1070
     0
1002
}
  0
ENDBLK
  5
8F6
  8
0
  0
BLOCK
  8
0
  2
*U33
 70
     1
 10
0.0
 20
0.0
 30
0.0
  3
*U33
  1
*U
  0
INSERT
  5
8F9
  8
GEV_FROZEN
  2
*U32
 10
0.0
 20
0.0
 30
0.0
 41
0.1
 42
0.1
 43
0.1
1001
GENBH
1002
{
1000
-NOBRK
1002
}
  0
INSERT
  5
8FA
  8
MSL_F16_40-0N
  2
VCCISYMB
 10
0.0
 20
0.0
 30
0.0
1001
GENBH
1002
{
1000
-NOBRK
1002
}
  0
ENDBLK
  5
8FB
  8
0
  0
BLOCK
  8
0
  2
*U34
 70
     1
 10
0.0
 20
0.0
 30
0.0
  3
*U34
  1
*U
  0
LINE
  5
8FE
  8
-BHMU
 10
8.0000000000000018
 20
-3.2999999999999989
 30
0.0
 11
8.0000000000000018
 21
3.3000000000000012
 31
0.0
  0
LINE
  5
8FF
  8
-BHMU
 10
-0.0000000000000008
 20
3.2999999999999989
 30
0.0
 11
0.0
 21
-3.2999999999999989
 31
0.0
  0
LINE
  5
900
  8
BHMM
 10
0.0
 20
-3.2999999999999989
 30
0.0
 11
8.0000000000000018
 21
-3.2999999999999989
 31
0.0
  0
LINE
  5
901
  8
CENN
 10
11.0
 20
0.0
 30
0.0
 11
-3.0
 21
0.0
 31
0.0
  0
LINE
  5
902
  8
BHMM
 10
-0.0000000000000008
 20
3.2999999999999989
 30
0.0
 11
8.0000000000000018
 21
3.3000000000000012
 31
0.0
  0
ENDBLK
  5
903
  8
0
  0
BLOCK
  8
0
  2
*U35
 70
     1
 10
0.0
 20
0.0
 30
0.0
  3
*U35
  1
*U
  0
INSERT
  5
906
  8
GEV_FROZEN
  2
*U34
 10
0.0
 20
0.0
 30
0.0
 41
0.1
 42
0.1
 43
0.1
1001
GENBH
1002
{
1000
-NOBRK
1002
}
  0
LINE
  5
907
  8
MSL_F16_40-3
 10
0.0
 20
-3.3000000000000109
 30
0.0
 11
8.0
 21
-3.3000000000000109
 31
0.0
1001
GENIUS_GENBH_13
1002
{
1000
OE
1000
CON1
1002
}
  0
LINE
  5
908
  8
MSL_F16_40-7A
 10
11.0
 20
0.0
 30
0.0
 11
-3.0
 21
0.0
 31
0.0
  0
LINE
  5
909
  8
MSL_F16_40-3
 10
0.0
 20
3.3000000000000109
 30
0.0
 11
8.0
 21
3.3000000000000109
 31
0.0
1001
GENIUS_GENBH_13
1002
{
1000
OE
1000
CON1
1002
}
  0
INSERT
  5
90A
  8
0
  2
*U11
 10
0.0
 20
0.0
 30
0.0
1001
GENIUS_GENOLIS_13
1002
{
1000
ENT
1002
}
1001
GENIUS_GENOENT_13
1002
{
1000
MYREF
1005
0
1002
}
  0
ENDBLK
  5
90B
  8
0
  0
BLOCK
  8
0
  2
*U36
 70
     1
 10
0.0
 20
0.0
 30
0.0
  3
*U36
  1
*U
  0
LINE
  5
90E
  8
CENN
 10
-9.0
 20
0.0
 30
0.0
 11
23.0
 21
0.0
 31
0.0
  0
LINE
  5
90F
  8
BHII
 10
0.0
 20
-3.0
 30
0.0
 11
19.386565000000001
 21
-2.9999999999999991
 31
0.0
  0
LINE
  5
910
  8
BHII
 10
0.0
 20
3.0
 30
0.0
 11
19.386565000000001
 21
2.9999999999999991
 31
0.0
  0
LINE
  5
911
  8
THLI
 10
2.5
 20
2.386565
 30
0.0
 11
20.0
 21
2.386565
 31
0.0
  0
LINE
  5
912
  8
THLI
 10
2.5
 20
-2.386565
 30
0.0
 11
20.0
 21
-2.386565
 31
0.0
  0
ARC
  5
913
  8
HIDN
 10
-7.083541661352311
 20
0.0000000000000001
 30
0.0
 40
4.3312499999999989
 50
340.52877936550931
 51
19.471220634490692
  0
ARC
  5
914
  8
HIDN
 10
-3.927994788345194
 20
-2.165624999999999
 30
0.0
 40
1.1757031269928819
 50
322.12112050828108
 51
37.878879491718862
  0
ARC
  5
915
  8
HIDN
 10
-3.927994788345194
 20
2.165624999999999
 30
0.0
 40
1.1757031269928819
 50
322.12112050828108
 51
37.87887949171887
  0
LINE
  5
916
  8
BHII
 10
-6.0
 20
-4.4000000000000021
 30
0.0
 11
-5.4000000000000004
 21
-5.0
 31
0.0
  0
LINE
  5
917
  8
BHII
 10
0.0
 20
3.0
 30
0.0
 11
0.0
 21
5.0
 31
0.0
  0
LINE
  5
918
  8
BHII
 10
-5.4000000000000004
 20
5.0
 30
0.0
 11
0.0
 21
5.0
 31
0.0
  0
LINE
  5
919
  8
BHII
 10
-6.0
 20
4.4000000000000021
 30
0.0
 11
-5.4000000000000004
 21
5.0
 31
0.0
  0
LINE
  5
91A
  8
BHII
 10
-5.4000000000000004
 20
-5.0
 30
0.0
 11
0.0
 21
-5.0
 31
0.0
  0
LINE
  5
91B
  8
BHII
 10
0.0
 20
-5.0
 30
0.0
 11
0.0
 21
-3.0
 31
0.0
  0
LINE
  5
91C
  8
BHII
 10
-6.0
 20
-4.4000000000000021
 30
0.0
 11
-6.0
 21
4.4000000000000021
 31
0.0
  0
LINE
  5
91D
  8
CON1
 10
-5.4000000000000004
 20
5.0
 30
0.0
 11
-5.4000000000000004
 21
-5.0
 31
0.0
  0
LINE
  5
91E
  8
HIDN
 10
-3.0
 20
2.8875000000000002
 30
0.0
 11
-1.332901097714956
 21
0.0
 31
0.0
  0
LINE
  5
91F
  8
HIDN
 10
-3.0
 20
-2.8875000000000002
 30
0.0
 11
-1.332901097714956
 21
0.0
 31
0.0
  0
LINE
  5
920
  8
HIDN
 10
-6.0
 20
2.8875000000000002
 30
0.0
 11
-3.0
 21
2.8875000000000002
 31
0.0
  0
LINE
  5
921
  8
HIDN
 10
-6.0
 20
1.4437500000000001
 30
0.0
 11
-3.0
 21
1.443749999999999
 31
0.0
  0
LINE
  5
922
  8
HIDN
 10
-6.0
 20
-1.4437500000000001
 30
0.0
 11
-3.0
 21
-1.443749999999999
 31
0.0
  0
LINE
  5
923
  8
HIDN
 10
-6.0
 20
-2.8875000000000002
 30
0.0
 11
-3.0
 21
-2.8875000000000002
 31
0.0
  0
LINE
  5
924
  8
CON1
 10
0.0
 20
-3.0
 30
0.0
 11
0.0
 21
3.0
 31
0.0
  0
LINE
  5
925
  8
THLI
 10
-0.0000000000000004
 20
3.0
 30
0.0
 11
2.5
 21
2.386565
 31
0.0
  0
LINE
  5
926
  8
THLI
 10
-0.0000000000000004
 20
-3.0
 30
0.0
 11
2.5
 21
-2.386565
 31
0.0
  0
LINE
  5
927
  8
CON1
 10
2.5
 20
-3.0
 30
0.0
 11
2.5
 21
3.0
 31
0.0
  0
LINE
  5
928
  8
BHII
 10
20.0
 20
2.386565
 30
0.0
 11
19.386565000000001
 21
2.9999999999999991
 31
0.0
  0
LINE
  5
929
  8
BHII
 10
20.0
 20
-2.386565
 30
0.0
 11
19.386565000000001
 21
-2.9999999999999991
 31
0.0
  0
LINE
  5
92A
  8
BHII
 10
20.0
 20
-2.386565
 30
0.0
 11
20.0
 21
2.386565
 31
0.0
  0
LINE
  5
92B
  8
CON1
 10
19.386565000000001
 20
-2.9999999999999991
 30
0.0
 11
19.386565000000001
 21
2.9999999999999991
 31
0.0
  0
ENDBLK
  5
92C
  8
0
  0
BLOCK
  8
0
  2
*U37
 70
     1
 10
306.47419627724952
 20
143.93210826924249
 30
0.0
  3
*U37
  1
*U
  0
INSERT
  5
92F
  8
GEV_FROZEN
  2
*U36
 10
306.47419627724952
 20
143.93210826924249
 30
0.0
 41
0.1
 42
0.1
 43
0.1
1001
GENBH
1002
{
1000
-NOBRK
1002
}
  0
LINE
  5
930
  8
MSL_F16_40-7AN
 10
297.47419627724952
 20
143.93210826924249
 30
0.0
 11
329.47419627724952
 21
143.93210826924249
 31
0.0
  0
LINE
  5
931
  8
MSL_F16_40-3N
 10
306.47419627724952
 20
140.93210826924249
 30
0.0
 11
314.47419627724952
 21
140.93210826924249
 31
0.0
1001
GENIUS_GENBH_13
1002
{
1000
OE
1000
N_CON1
1002
}
  0
LINE
  5
932
  8
MSL_F16_40-3
 10
314.47419627724952
 20
140.93210826924249
 30
0.0
 11
325.86076127724948
 21
140.93210826924249
 31
0.0
  0
LINE
  5
933
  8
MSL_F16_40-3N
 10
306.47419627724952
 20
146.93210826924249
 30
0.0
 11
314.47419627724952
 21
146.93210826924249
 31
0.0
1001
GENIUS_GENBH_13
1002
{
1000
OE
1000
N_CON1
1002
}
  0
LINE
  5
934
  8
MSL_F16_40-3
 10
314.47419627724952
 20
146.93210826924249
 30
0.0
 11
325.86076127724948
 21
146.93210826924249
 31
0.0
  0
LINE
  5
935
  8
MSL_F16_40-3N
 10
308.97419627724958
 20
146.31867326924251
 30
0.0
 11
314.47419627724952
 21
146.31867326924251
 31
0.0
1001
GENIUS_GENBH_13
1002
{
1000
OE
1000
N_THLI
1002
}
  0
LINE
  5
936
  8
MSL_F16_40-3
 10
314.47419627724952
 20
146.31867326924251
 30
0.0
 11
326.47419627724952
 21
146.31867326924251
 31
0.0
  0
LINE
  5
937
  8
MSL_F16_40-3N
 10
308.97419627724958
 20
141.5455432692425
 30
0.0
 11
314.47419627724952
 21
141.5455432692425
 31
0.0
1001
GENIUS_GENBH_13
1002
{
1000
OE
1000
N_THLI
1002
}
  0
LINE
  5
938
  8
MSL_F16_40-3
 10
314.47419627724952
 20
141.5455432692425
 30
0.0
 11
326.47419627724952
 21
141.5455432692425
 31
0.0
  0
ARC
  5
939
  8
MSL_F16_40-3AN
 10
299.39065461589729
 20
143.93210826924249
 30
0.0
 40
4.3312499999999732
 50
340.52877936550919
 51
19.47122063449072
  0
ARC
  5
93A
  8
MSL_F16_40-3AN
 10
302.54620148890427
 20
141.76648326924251
 30
0.0
 40
1.1757031269928839
 50
322.12112050828148
 51
37.878879491719481
  0
ARC
  5
93B
  8
MSL_F16_40-3AN
 10
302.54620148890427
 20
146.0977332692425
 30
0.0
 40
1.1757031269928671
 50
322.12112050828051
 51
37.878879491718379
  0
LINE
  5
93C
  8
MSL_F16_40-0N
 10
300.47419627724952
 20
139.53210826924251
 30
0.0
 11
301.07419627724948
 21
138.93210826924249
 31
0.0
  0
LINE
  5
93D
  8
MSL_F16_40-0N
 10
306.47419627724952
 20
146.93210826924249
 30
0.0
 11
306.47419627724952
 21
148.93210826924249
 31
0.0
  0
LINE
  5
93E
  8
MSL_F16_40-0N
 10
301.07419627724948
 20
148.93210826924249
 30
0.0
 11
306.47419627724952
 21
148.93210826924249
 31
0.0
  0
LINE
  5
93F
  8
MSL_F16_40-0N
 10
300.47419627724952
 20
148.3321082692425
 30
0.0
 11
301.07419627724948
 21
148.93210826924249
 31
0.0
  0
LINE
  5
940
  8
MSL_F16_40-0N
 10
301.07419627724948
 20
138.93210826924249
 30
0.0
 11
306.47419627724952
 21
138.93210826924249
 31
0.0
  0
LINE
  5
941
  8
MSL_F16_40-0N
 10
306.47419627724952
 20
138.93210826924249
 30
0.0
 11
306.47419627724952
 21
140.93210826924249
 31
0.0
  0
LINE
  5
942
  8
MSL_F16_40-0N
 10
300.47419627724952
 20
139.53210826924251
 30
0.0
 11
300.47419627724952
 21
148.3321082692425
 31
0.0
  0
LINE
  5
943
  8
MSL_F16_40-0N
 10
301.07419627724948
 20
148.93210826924249
 30
0.0
 11
301.07419627724948
 21
138.93210826924249
 31
0.0
  0
LINE
  5
944
  8
MSL_F16_40-3AN
 10
303.47419627724952
 20
146.81960826924251
 30
0.0
 11
305.14129517953461
 21
143.93210826924249
 31
0.0
  0
LINE
  5
945
  8
MSL_F16_40-3AN
 10
303.47419627724952
 20
141.0446082692425
 30
0.0
 11
305.14129517953461
 21
143.93210826924249
 31
0.0
  0
LINE
  5
946
  8
MSL_F16_40-3AN
 10
300.47419627724952
 20
146.81960826924251
 30
0.0
 11
303.47419627724952
 21
146.81960826924251
 31
0.0
  0
LINE
  5
947
  8
MSL_F16_40-3AN
 10
300.47419627724952
 20
145.37585826924251
 30
0.0
 11
303.47419627724952
 21
145.37585826924251
 31
0.0
  0
LINE
  5
948
  8
MSL_F16_40-3AN
 10
300.47419627724952
 20
142.4883582692425
 30
0.0
 11
303.47419627724952
 21
142.4883582692425
 31
0.0
  0
LINE
  5
949
  8
MSL_F16_40-3AN
 10
300.47419627724952
 20
141.0446082692425
 30
0.0
 11
303.47419627724952
 21
141.0446082692425
 31
0.0
  0
LINE
  5
94A
  8
MSL_F16_40-0N
 10
306.47419627724952
 20
140.93210826924249
 30
0.0
 11
306.47419627724952
 21
146.93210826924249
 31
0.0
  0
LINE
  5
94B
  8
MSL_F16_40-3N
 10
306.47419627724952
 20
146.93210826924249
 30
0.0
 11
308.97419627724958
 21
146.31867326924251
 31
0.0
1001
GENIUS_GENBH_13
1002
{
1000
OE
1000
N_THLI
1002
}
  0
LINE
  5
94C
  8
MSL_F16_40-3N
 10
306.47419627724952
 20
140.93210826924249
 30
0.0
 11
308.97419627724958
 21
141.5455432692425
 31
0.0
1001
GENIUS_GENBH_13
1002
{
1000
OE
1000
N_THLI
1002
}
  0
LINE
  5
94D
  8
MSL_F16_40-3N
 10
308.97419627724958
 20
140.93210826924249
 30
0.0
 11
308.97419627724958
 21
146.93210826924249
 31
0.0
1001
GENIUS_GENBH_13
1002
{
1000
OE
1000
N_CON1
1002
}
  0
LINE
  5
94E
  8
MSL_F16_40-3
 10
326.47419627724952
 20
146.31867326924251
 30
0.0
 11
325.86076127724948
 21
146.93210826924249
 31
0.0
  0
LINE
  5
94F
  8
MSL_F16_40-3
 10
326.47419627724952
 20
141.5455432692425
 30
0.0
 11
325.86076127724948
 21
140.93210826924249
 31
0.0
  0
LINE
  5
950
  8
MSL_F16_40-3
 10
326.47419627724952
 20
141.5455432692425
 30
0.0
 11
326.47419627724952
 21
146.31867326924251
 31
0.0
  0
LINE
  5
951
  8
MSL_F16_40-3
 10
325.86076127724948
 20
140.93210826924249
 30
0.0
 11
325.86076127724948
 21
146.93210826924249
 31
0.0
  0
INSERT
  5
952
  8
0
  2
*U12
 10
306.47419627724952
 20
143.93210826924249
 30
0.0
1001
GENIUS_GENOLIS_13
1002
{
1000
ENT
1002
}
1001
GENIUS_GENOENT_13
1002
{
1000
MYREF
1005
0
1002
}
  0
ENDBLK
  5
953
  8
0
  0
BLOCK
  8
0
  2
*U38
 70
     1
 10
0.0
 20
0.0
 30
0.0
  3
*U38
  1
*U
  0
LINE
  5
957
  8
-BHHH
 10
0.0
 20
3.2999999999999972
 30
0.0
 11
8.0
 21
3.2999999999999972
 31
0.0
  0
LINE
  5
958
  8
-BHHH
 10
0.0
 20
-3.2999999999999972
 30
0.0
 11
8.0
 21
-3.2999999999999972
 31
0.0
  0
LINE
  5
959
  8
-BHHU
 10
0.0
 20
3.2999999999999972
 30
0.0
 11
0.0
 21
-3.2999999999999972
 31
0.0
  0
LINE
  5
95A
  8
-BHHU
 10
8.0
 20
3.2999999999999972
 30
0.0
 11
8.0
 21
-3.2999999999999972
 31
0.0
  0
ENDBLK
  5
95B
  8
0
  0
BLOCK
  8
0
  2
*U39
 70
     1
 10
0.0
 20
0.0
 30
0.0
  3
*U39
  1
*U
  0
INSERT
  5
95E
  8
GEV_FROZEN
  2
*U38
 10
0.0
 20
0.0
 30
0.0
 41
0.1
 42
0.1
 43
0.1
1001
GENBH
1002
{
1000
-NOBRK
1002
}
  0
INSERT
  5
95F
  8
MSL_F16_40-0
  2
VCCISYMB
 10
0.0
 20
0.0
 30
0.0
1001
GENBH
1002
{
1000
-NOBRK
1002
}
  0
ENDBLK
  5
960
  8
0
  0
BLOCK
  8
0
  2
*U40
 70
     1
 10
0.0
 20
0.0
 30
0.0
  3
*U40
  1
*U
  0
INSERT
  5
963
  8
CON1
  2
VCCIKPKT
 10
15.58749999999997
 20
6.4999999999999991
 30
0.0
1001
GENIUS_GENOREF_13
1005
0
1001
VCC
1002
{
1000
-KP1
1000
-ID36
1002
}
1001
GEVCON
1002
{
1000
-DIS
1070
     3
1000
-ANG
1070
     3
1002
}
  0
INSERT
  5
964
  8
CON1
  2
VCCIKPKT
 10
15.58749999999997
 20
6.4999999999999991
 30
0.0
1001
GENIUS_GENOREF_13
1005
0
1001
VCC
1002
{
1000
-KP0
1000
-ID37
1002
}
1001
GEVCON
1002
{
1000
-DIS
1070
     0
1000
-ANG
1070
     0
1002
}
  0
ENDBLK
  5
965
  8
0
  0
BLOCK
  8
0
  2
*U41
 70
     1
 10
0.0
 20
0.0
 30
0.0
  3
*U41
  1
*U
  0
INSERT
  5
968
  8
GEV_FROZEN
  2
*U40
 10
0.0
 20
0.0
 30
0.0
 41
0.1
 42
0.1
 43
0.1
1001
GENBH
1002
{
1000
-NOBRK
1002
}
  0
INSERT
  5
969
  8
MSL_F16_40-0N
  2
VCCISYMB
 10
0.0
 20
0.0
 30
0.0
1001
GENBH
1002
{
1000
-NOBRK
1002
}
  0
ENDBLK
  5
96A
  8
0
  0
BLOCK
  8
0
  2
*U42
 70
     1
 10
0.0
 20
0.0
 30
0.0
  3
*U42
  1
*U
  0
LINE
  5
96D
  8
CENN
 10
-9.0
 20
0.0
 30
0.0
 11
23.0
 21
0.0
 31
0.0
  0
LINE
  5
96E
  8
BHII
 10
0.0
 20
-3.0
 30
0.0
 11
19.386565000000001
 21
-2.9999999999999991
 31
0.0
  0
LINE
  5
96F
  8
BHII
 10
0.0
 20
3.0
 30
0.0
 11
19.386565000000001
 21
2.9999999999999991
 31
0.0
  0
LINE
  5
970
  8
THLI
 10
2.5
 20
2.386565
 30
0.0
 11
20.0
 21
2.386565
 31
0.0
  0
LINE
  5
971
  8
THLI
 10
2.5
 20
-2.386565
 30
0.0
 11
20.0
 21
-2.386565
 31
0.0
  0
ARC
  5
972
  8
HIDN
 10
-7.083541661352311
 20
0.0000000000000001
 30
0.0
 40
4.3312499999999989
 50
340.52877936550931
 51
19.471220634490692
  0
ARC
  5
973
  8
HIDN
 10
-3.927994788345194
 20
-2.165624999999999
 30
0.0
 40
1.1757031269928819
 50
322.12112050828108
 51
37.878879491718862
  0
ARC
  5
974
  8
HIDN
 10
-3.927994788345194
 20
2.165624999999999
 30
0.0
 40
1.1757031269928819
 50
322.12112050828108
 51
37.87887949171887
  0
LINE
  5
975
  8
BHII
 10
-6.0
 20
-4.4000000000000021
 30
0.0
 11
-5.4000000000000004
 21
-5.0
 31
0.0
  0
LINE
  5
976
  8
BHII
 10
0.0
 20
3.0
 30
0.0
 11
0.0
 21
5.0
 31
0.0
  0
LINE
  5
977
  8
BHII
 10
-5.4000000000000004
 20
5.0
 30
0.0
 11
0.0
 21
5.0
 31
0.0
  0
LINE
  5
978
  8
BHII
 10
-6.0
 20
4.4000000000000021
 30
0.0
 11
-5.4000000000000004
 21
5.0
 31
0.0
  0
LINE
  5
979
  8
BHII
 10
-5.4000000000000004
 20
-5.0
 30
0.0
 11
0.0
 21
-5.0
 31
0.0
  0
LINE
  5
97A
  8
BHII
 10
0.0
 20
-5.0
 30
0.0
 11
0.0
 21
-3.0
 31
0.0
  0
LINE
  5
97B
  8
BHII
 10
-6.0
 20
-4.4000000000000021
 30
0.0
 11
-6.0
 21
4.4000000000000021
 31
0.0
  0
LINE
  5
97C
  8
CON1
 10
-5.4000000000000004
 20
5.0
 30
0.0
 11
-5.4000000000000004
 21
-5.0
 31
0.0
  0
LINE
  5
97D
  8
HIDN
 10
-3.0
 20
2.8875000000000002
 30
0.0
 11
-1.332901097714956
 21
0.0
 31
0.0
  0
LINE
  5
97E
  8
HIDN
 10
-3.0
 20
-2.8875000000000002
 30
0.0
 11
-1.332901097714956
 21
0.0
 31
0.0
  0
LINE
  5
97F
  8
HIDN
 10
-6.0
 20
2.8875000000000002
 30
0.0
 11
-3.0
 21
2.8875000000000002
 31
0.0
  0
LINE
  5
980
  8
HIDN
 10
-6.0
 20
1.4437500000000001
 30
0.0
 11
-3.0
 21
1.443749999999999
 31
0.0
  0
LINE
  5
981
  8
HIDN
 10
-6.0
 20
-1.4437500000000001
 30
0.0
 11
-3.0
 21
-1.443749999999999
 31
0.0
  0
LINE
  5
982
  8
HIDN
 10
-6.0
 20
-2.8875000000000002
 30
0.0
 11
-3.0
 21
-2.8875000000000002
 31
0.0
  0
LINE
  5
983
  8
CON1
 10
0.0
 20
-3.0
 30
0.0
 11
0.0
 21
3.0
 31
0.0
  0
LINE
  5
984
  8
THLI
 10
-0.0000000000000004
 20
3.0
 30
0.0
 11
2.5
 21
2.386565
 31
0.0
  0
LINE
  5
985
  8
THLI
 10
-0.0000000000000004
 20
-3.0
 30
0.0
 11
2.5
 21
-2.386565
 31
0.0
  0
LINE
  5
986
  8
CON1
 10
2.5
 20
-3.0
 30
0.0
 11
2.5
 21
3.0
 31
0.0
  0
LINE
  5
987
  8
BHII
 10
20.0
 20
2.386565
 30
0.0
 11
19.386565000000001
 21
2.9999999999999991
 31
0.0
  0
LINE
  5
988
  8
BHII
 10
20.0
 20
-2.386565
 30
0.0
 11
19.386565000000001
 21
-2.9999999999999991
 31
0.0
  0
LINE
  5
989
  8
BHII
 10
20.0
 20
-2.386565
 30
0.0
 11
20.0
 21
2.386565
 31
0.0
  0
LINE
  5
98A
  8
CON1
 10
19.386565000000001
 20
-2.9999999999999991
 30
0.0
 11
19.386565000000001
 21
2.9999999999999991
 31
0.0
  0
ENDBLK
  5
98B
  8
0
  0
BLOCK
  8
0
  2
*U43
 70
     1
 10
306.47419627724952
 20
143.93210826924249
 30
0.0
  3
*U43
  1
*U
  0
INSERT
  5
98E
  8
GEV_FROZEN
  2
*U42
 10
306.47419627724952
 20
143.93210826924249
 30
0.0
 41
0.1
 42
0.1
 43
0.1
1001
GENBH
1002
{
1000
-NOBRK
1002
}
  0
LINE
  5
98F
  8
MSL_F16_40-7AN
 10
297.47419627724952
 20
143.93210826924249
 30
0.0
 11
329.47419627724952
 21
143.93210826924249
 31
0.0
  0
LINE
  5
990
  8
MSL_F16_40-3N
 10
306.47419627724952
 20
140.93210826924249
 30
0.0
 11
314.47419627724952
 21
140.93210826924249
 31
0.0
1001
GENIUS_GENBH_13
1002
{
1000
OE
1000
N_CON1
1002
}
  0
LINE
  5
991
  8
MSL_F16_40-3
 10
314.47419627724952
 20
140.93210826924249
 30
0.0
 11
325.86076127724948
 21
140.93210826924249
 31
0.0
  0
LINE
  5
992
  8
MSL_F16_40-3N
 10
306.47419627724952
 20
146.93210826924249
 30
0.0
 11
314.47419627724952
 21
146.93210826924249
 31
0.0
1001
GENIUS_GENBH_13
1002
{
1000
OE
1000
N_CON1
1002
}
  0
LINE
  5
993
  8
MSL_F16_40-3
 10
314.47419627724952
 20
146.93210826924249
 30
0.0
 11
325.86076127724948
 21
146.93210826924249
 31
0.0
  0
LINE
  5
994
  8
MSL_F16_40-3N
 10
308.97419627724958
 20
146.31867326924251
 30
0.0
 11
314.47419627724952
 21
146.31867326924251
 31
0.0
1001
GENIUS_GENBH_13
1002
{
1000
OE
1000
N_THLI
1002
}
  0
LINE
  5
995
  8
MSL_F16_40-3
 10
314.47419627724952
 20
146.31867326924251
 30
0.0
 11
326.47419627724952
 21
146.31867326924251
 31
0.0
  0
LINE
  5
996
  8
MSL_F16_40-3N
 10
308.97419627724958
 20
141.5455432692425
 30
0.0
 11
314.47419627724952
 21
141.5455432692425
 31
0.0
1001
GENIUS_GENBH_13
1002
{
1000
OE
1000
N_THLI
1002
}
  0
LINE
  5
997
  8
MSL_F16_40-3
 10
314.47419627724952
 20
141.5455432692425
 30
0.0
 11
326.47419627724952
 21
141.5455432692425
 31
0.0
  0
ARC
  5
998
  8
MSL_F16_40-3AN
 10
299.39065461589729
 20
143.93210826924249
 30
0.0
 40
4.3312499999999732
 50
340.52877936550919
 51
19.47122063449072
  0
ARC
  5
999
  8
MSL_F16_40-3AN
 10
302.54620148890427
 20
141.76648326924251
 30
0.0
 40
1.1757031269928839
 50
322.12112050828148
 51
37.878879491719481
  0
ARC
  5
99A
  8
MSL_F16_40-3AN
 10
302.54620148890427
 20
146.0977332692425
 30
0.0
 40
1.1757031269928671
 50
322.12112050828051
 51
37.878879491718379
  0
LINE
  5
99B
  8
MSL_F16_40-0N
 10
300.47419627724952
 20
139.53210826924251
 30
0.0
 11
301.07419627724948
 21
138.93210826924249
 31
0.0
  0
LINE
  5
99C
  8
MSL_F16_40-0N
 10
306.47419627724952
 20
146.93210826924249
 30
0.0
 11
306.47419627724952
 21
148.93210826924249
 31
0.0
  0
LINE
  5
99D
  8
MSL_F16_40-0N
 10
301.07419627724948
 20
148.93210826924249
 30
0.0
 11
306.47419627724952
 21
148.93210826924249
 31
0.0
  0
LINE
  5
99E
  8
MSL_F16_40-0N
 10
300.47419627724952
 20
148.3321082692425
 30
0.0
 11
301.07419627724948
 21
148.93210826924249
 31
0.0
  0
LINE
  5
99F
  8
MSL_F16_40-0N
 10
301.07419627724948
 20
138.93210826924249
 30
0.0
 11
306.47419627724952
 21
138.93210826924249
 31
0.0
  0
LINE
  5
9A0
  8
MSL_F16_40-0N
 10
306.47419627724952
 20
138.93210826924249
 30
0.0
 11
306.47419627724952
 21
140.93210826924249
 31
0.0
  0
LINE
  5
9A1
  8
MSL_F16_40-0N
 10
300.47419627724952
 20
139.53210826924251
 30
0.0
 11
300.47419627724952
 21
148.3321082692425
 31
0.0
  0
LINE
  5
9A2
  8
MSL_F16_40-0N
 10
301.07419627724948
 20
148.93210826924249
 30
0.0
 11
301.07419627724948
 21
138.93210826924249
 31
0.0
  0
LINE
  5
9A3
  8
MSL_F16_40-3AN
 10
303.47419627724952
 20
146.81960826924251
 30
0.0
 11
305.14129517953461
 21
143.93210826924249
 31
0.0
  0
LINE
  5
9A4
  8
MSL_F16_40-3AN
 10
303.47419627724952
 20
141.0446082692425
 30
0.0
 11
305.14129517953461
 21
143.93210826924249
 31
0.0
  0
LINE
  5
9A5
  8
MSL_F16_40-3AN
 10
300.47419627724952
 20
146.81960826924251
 30
0.0
 11
303.47419627724952
 21
146.81960826924251
 31
0.0
  0
LINE
  5
9A6
  8
MSL_F16_40-3AN
 10
300.47419627724952
 20
145.37585826924251
 30
0.0
 11
303.47419627724952
 21
145.37585826924251
 31
0.0
  0
LINE
  5
9A7
  8
MSL_F16_40-3AN
 10
300.47419627724952
 20
142.4883582692425
 30
0.0
 11
303.47419627724952
 21
142.4883582692425
 31
0.0
  0
LINE
  5
9A8
  8
MSL_F16_40-3AN
 10
300.47419627724952
 20
141.0446082692425
 30
0.0
 11
303.47419627724952
 21
141.0446082692425
 31
0.0
  0
LINE
  5
9A9
  8
MSL_F16_40-0N
 10
306.47419627724952
 20
140.93210826924249
 30
0.0
 11
306.47419627724952
 21
146.93210826924249
 31
0.0
  0
LINE
  5
9AA
  8
MSL_F16_40-3N
 10
306.47419627724952
 20
146.93210826924249
 30
0.0
 11
308.97419627724958
 21
146.31867326924251
 31
0.0
1001
GENIUS_GENBH_13
1002
{
1000
OE
1000
N_THLI
1002
}
  0
LINE
  5
9AB
  8
MSL_F16_40-3N
 10
306.47419627724952
 20
140.93210826924249
 30
0.0
 11
308.97419627724958
 21
141.5455432692425
 31
0.0
1001
GENIUS_GENBH_13
1002
{
1000
OE
1000
N_THLI
1002
}
  0
LINE
  5
9AC
  8
MSL_F16_40-3N
 10
308.97419627724958
 20
140.93210826924249
 30
0.0
 11
308.97419627724958
 21
146.93210826924249
 31
0.0
1001
GENIUS_GENBH_13
1002
{
1000
OE
1000
N_CON1
1002
}
  0
LINE
  5
9AD
  8
MSL_F16_40-3
 10
326.47419627724952
 20
146.31867326924251
 30
0.0
 11
325.86076127724948
 21
146.93210826924249
 31
0.0
  0
LINE
  5
9AE
  8
MSL_F16_40-3
 10
326.47419627724952
 20
141.5455432692425
 30
0.0
 11
325.86076127724948
 21
140.93210826924249
 31
0.0
  0
LINE
  5
9AF
  8
MSL_F16_40-3
 10
326.47419627724952
 20
141.5455432692425
 30
0.0
 11
326.47419627724952
 21
146.31867326924251
 31
0.0
  0
LINE
  5
9B0
  8
MSL_F16_40-3
 10
325.86076127724948
 20
140.93210826924249
 30
0.0
 11
325.86076127724948
 21
146.93210826924249
 31
0.0
  0
INSERT
  5
9B1
  8
0
  2
*U12
 10
306.47419627724952
 20
143.93210826924249
 30
0.0
1001
GENIUS_GENOLIS_13
1002
{
1000
ENT
1002
}
1001
GENIUS_GENOENT_13
1002
{
1000
MYREF
1005
0
1002
}
  0
ENDBLK
  5
9B2
  8
0
  0
BLOCK
  8
0
  2
*U44
 70
     1
 10
0.0
 20
0.0
 30
0.0
  3
*U44
  1
*U
  0
LINE
  5
9B5
  8
-BHMU
 10
8.0000000000000018
 20
-3.2999999999999989
 30
0.0
 11
8.0000000000000018
 21
3.3000000000000012
 31
0.0
  0
LINE
  5
9B6
  8
-BHMU
 10
-0.0000000000000008
 20
3.2999999999999989
 30
0.0
 11
0.0
 21
-3.2999999999999989
 31
0.0
  0
LINE
  5
9B7
  8
BHMM
 10
0.0
 20
-3.2999999999999989
 30
0.0
 11
8.0000000000000018
 21
-3.2999999999999989
 31
0.0
  0
LINE
  5
9B8
  8
CENN
 10
11.0
 20
0.0
 30
0.0
 11
-3.0
 21
0.0
 31
0.0
  0
LINE
  5
9B9
  8
BHMM
 10
-0.0000000000000008
 20
3.2999999999999989
 30
0.0
 11
8.0000000000000018
 21
3.3000000000000012
 31
0.0
  0
ENDBLK
  5
9BA
  8
0
  0
BLOCK
  8
0
  2
*U45
 70
     1
 10
0.0
 20
0.0
 30
0.0
  3
*U45
  1
*U
  0
INSERT
  5
9BD
  8
GEV_FROZEN
  2
*U44
 10
0.0
 20
0.0
 30
0.0
 41
0.1
 42
0.1
 43
0.1
1001
GENBH
1002
{
1000
-NOBRK
1002
}
  0
LINE
  5
9BE
  8
MSL_F16_40-3
 10
0.0
 20
-3.3000000000000109
 30
0.0
 11
8.0
 21
-3.3000000000000109
 31
0.0
1001
GENIUS_GENBH_13
1002
{
1000
OE
1000
CON1
1002
}
  0
LINE
  5
9BF
  8
MSL_F16_40-7A
 10
11.0
 20
0.0
 30
0.0
 11
-3.0
 21
0.0
 31
0.0
  0
LINE
  5
9C0
  8
MSL_F16_40-3
 10
0.0
 20
3.3000000000000109
 30
0.0
 11
8.0
 21
3.3000000000000109
 31
0.0
1001
GENIUS_GENBH_13
1002
{
1000
OE
1000
CON1
1002
}
  0
INSERT
  5
9C1
  8
0
  2
*U11
 10
0.0
 20
0.0
 30
0.0
1001
GENIUS_GENOLIS_13
1002
{
1000
ENT
1002
}
1001
GENIUS_GENOENT_13
1002
{
1000
MYREF
1005
0
1002
}
  0
ENDBLK
  5
9C2
  8
0
  0
BLOCK
  8
0
  2
*U46
 70
     1
 10
278.47419627724952
 20
124.932108269244
 30
0.0
  3
*U46
  1
*U
  0
INSERT
  5
A17
  8
GEV_FROZEN
  2
*U2
 10
278.47419627724952
 20
124.932108269244
 30
0.0
 41
0.1
 42
0.1
 43
0.1
1001
GENBH
1002
{
1000
-NOBRK
1002
}
  0
LINE
  5
A18
  8
MSL_F16_40-7A
 10
278.47419627724952
 20
112.06810826924399
 30
0.0
 11
278.47419627724952
 21
137.796108269244
 31
0.0
  0
CIRCLE
  5
A19
  8
MSL_F16_40-0
 10
278.47419627724952
 20
124.932108269244
 30
0.0
 40
4.2832249999999989
  0
ARC
  5
A1A
  8
MSL_F16_40-4
 10
278.47419627724952
 20
124.932108269244
 30
0.0
 40
4.863999999999999
 50
280.0
 51
209.99999999999989
  0
LINE
  5
A1B
  8
MSL_F16_40-7A
 10
270.6101962772496
 20
124.932108269244
 30
0.0
 11
286.33819627724949
 21
124.932108269244
 31
0.0
  0
ENDBLK
  5
A1C
  8
0
  0
BLOCK
  8
0
  2
*X47
 70
     1
 10
0.0
 20
0.0
 30
0.0
  3
*X47
  1
*U
  0
LINE
  5
A43
  8
0
 62
     0
 10
-6.9551457413695914
 20
77.897668001016086
 30
0.0
 11
-4.2832250000036396
 21
80.569588742382052
 31
0.0
  0
LINE
  5
A44
  8
0
 62
     0
 10
-8.3961152630355791
 20
79.992232385282847
 30
0.0
 11
-4.2832250000036396
 21
84.105122648314804
 31
0.0
  0
LINE
  5
A45
  8
0
 62
     0
 10
-8.6748153605261589
 20
83.249066193725014
 30
0.0
 11
-6.9596850854872416
 21
84.96419646876393
 31
0.0
  0
LINE
  5
A46
  8
0
 62
     0
 10
-4.542930058385191
 20
76.774349778067744
 30
0.0
 11
-4.2832250000036396
 21
77.034054836449329
 31
0.0
  0
ENDBLK
  5
A48
  8
0
  0
BLOCK
  8
0
  2
*X48
 70
     1
 10
0.0
 20
0.0
 30
0.0
  3
*X48
  1
*U
  0
LINE
  5
A4A
  8
0
 62
     0
 10
4.2832249999963627
 20
78.529437024583842
 30
0.0
 11
9.6093053924008824
 21
83.855517416988363
 31
0.0
  0
LINE
  5
A4B
  8
0
 62
     0
 10
4.2832249999963627
 20
82.064970930516566
 30
0.0
 11
7.1824505382438346
 21
84.964196468764044
 31
0.0
  0
ENDBLK
  5
A4D
  8
0
  0
BLOCK
  8
0
  2
*U49
 70
     1
 10
0.0
 20
0.0
 30
0.0
  3
*U49
  1
*U
  0
LINE
  5
C62
  8
-BHMU
 10
8.0
 20
4.2832249999999989
 30
0.0
 11
8.0
 21
-4.2832249999999989
 31
0.0
  0
LINE
  5
C63
  8
-BHMU
 10
0.0
 20
4.2832249999999989
 30
0.0
 11
0.0
 21
-4.2832249999999989
 31
0.0
  0
LINE
  5
C64
  8
BHMM
 10
0.0
 20
-4.2832249999999989
 30
0.0
 11
8.0
 21
-4.2832249999999989
 31
0.0
  0
LINE
  5
C65
  8
THLI
 10
0.0
 20
-4.863999999999999
 30
0.0
 11
7.9999999999999982
 21
-4.863999999999999
 31
0.0
  0
LINE
  5
C66
  8
CENN
 10
-3.0
 20
0.0
 30
0.0
 11
11.0
 21
0.0
 31
0.0
  0
LINE
  5
C67
  8
BHMM
 10
0.0
 20
4.2832249999999989
 30
0.0
 11
8.0
 21
4.2832249999999989
 31
0.0
  0
LINE
  5
C68
  8
THLI
 10
0.0
 20
4.863999999999999
 30
0.0
 11
7.9999999999999982
 21
4.863999999999999
 31
0.0
  0
ENDBLK
  5
C69
  8
0
  0
BLOCK
  8
0
  2
*U50
 70
     1
 10
-0.000000000003638
 20
84.964196468764797
 30
0.0
  3
*U50
  1
*U
  0
INSERT
  5
C6C
  8
GEV_FROZEN
  2
*U49
 10
-0.000000000003638
 20
84.964196468764797
 30
0.0
 41
0.1
 42
0.1
 43
0.1
1001
GENBH
1002
{
1000
-NOBRK
1002
}
  0
LINE
  5
C6D
  8
MSF16-0
 10
-0.000000000003638
 20
80.680971468764795
 30
0.0
 11
8.3015671754750286
 21
80.680971468764795
 31
0.0
  0
LINE
  5
C6E
  8
MSF16-4
 10
-0.000000000003638
 20
80.100196468764807
 30
0.0
 11
8.0669832660323237
 21
80.100196468764807
 31
0.0
  0
LINE
  5
C6F
  8
MSF16-0
 10
-0.000000000003638
 20
89.247421468764799
 30
0.0
 11
8.4423378826265747
 21
89.247421468764799
 31
0.0
  0
LINE
  5
C70
  8
MSF16-4
 10
-0.000000000003638
 20
89.828196468764816
 30
0.0
 11
8.1046801316451536
 21
89.828196468764816
 31
0.0
  0
ENDBLK
  5
C71
  8
0
  0
BLOCK
  8
0
  2
*U51
 70
     1
 10
0.0
 20
0.0
 30
0.0
  3
*U51
  1
*U
  0
LINE
  5
D63
  8
-BHMU
 10
8.0
 20
4.2832249999999989
 30
0.0
 11
8.0
 21
-4.2832249999999989
 31
0.0
  0
LINE
  5
D64
  8
-BHMU
 10
0.0
 20
4.2832249999999989
 30
0.0
 11
0.0
 21
-4.2832249999999989
 31
0.0
  0
LINE
  5
D65
  8
BHMM
 10
0.0
 20
-4.2832249999999989
 30
0.0
 11
8.0
 21
-4.2832249999999989
 31
0.0
  0
LINE
  5
D66
  8
THLI
 10
0.0
 20
-4.863999999999999
 30
0.0
 11
7.9999999999999982
 21
-4.863999999999999
 31
0.0
  0
LINE
  5
D67
  8
CENN
 10
-3.0
 20
0.0
 30
0.0
 11
11.0
 21
0.0
 31
0.0
  0
LINE
  5
D68
  8
BHMM
 10
0.0
 20
4.2832249999999989
 30
0.0
 11
8.0
 21
4.2832249999999989
 31
0.0
  0
LINE
  5
D69
  8
THLI
 10
0.0
 20
4.863999999999999
 30
0.0
 11
7.9999999999999982
 21
4.863999999999999
 31
0.0
  0
ENDBLK
  5
D6A
  8
0
  0
BLOCK
  8
0
  2
*U52
 70
     1
 10
-0.000000000003638
 20
84.964196468764797
 30
0.0
  3
*U52
  1
*U
  0
INSERT
  5
D6D
  8
GEV_FROZEN
  2
*U51
 10
-0.000000000003638
 20
84.964196468764797
 30
0.0
 41
0.1
 42
0.1
 43
0.1
1001
GENBH
1002
{
1000
-NOBRK
1002
}
  0
LINE
  5
D6E
  8
MSF16-0
 10
-0.000000000003638
 20
80.680971468764795
 30
0.0
 11
8.3015671754750286
 21
80.680971468764795
 31
0.0
  0
LINE
  5
D6F
  8
MSF16-4
 10
-0.000000000003638
 20
80.100196468764807
 30
0.0
 11
8.0669832660323237
 21
80.100196468764807
 31
0.0
  0
LINE
  5
D70
  8
MSF16-0
 10
-0.000000000003638
 20
89.247421468764799
 30
0.0
 11
8.4423378826265747
 21
89.247421468764799
 31
0.0
  0
LINE
  5
D71
  8
MSF16-4
 10
-0.000000000003638
 20
89.828196468764816
 30
0.0
 11
8.1046801316451536
 21
89.828196468764816
 31
0.0
  0
ENDBLK
  5
D72
  8
0
  0
BLOCK
  8
0
  2
*U53
 70
     1
 10
0.0
 20
0.0
 30
0.0
  3
*U53
  1
*U
  0
LINE
  5
DDF
  8
CENN
 10
0.0
 20
-6.0
 30
0.0
 11
0.0
 21
5.9999999999999991
 31
0.0
  0
CIRCLE
  5
DE0
  8
BHMM
 10
0.0
 20
0.0
 30
0.0
 40
2.458499999999999
  0
ARC
  5
DE1
  8
THLI
 10
0.0
 20
0.0
 30
0.0
 40
3.0
 50
280.0
 51
209.99999999999989
  0
LINE
  5
DE2
  8
CENN
 10
-5.9999999999999991
 20
0.0
 30
0.0
 11
5.9999999999999991
 21
0.0
 31
0.0
  0
ENDBLK
  5
DE3
  8
0
  0
BLOCK
  8
0
  2
*U54
 70
     1
 10
0.0
 20
0.0
 30
0.0
  3
*U54
  1
*U
  0
INSERT
  5
DE6
  8
GEV_FROZEN
  2
*U53
 10
0.0
 20
0.0
 30
0.0
 41
0.1
 42
0.1
 43
0.1
1001
GENBH
1002
{
1000
-NOBRK
1002
}
  0
LINE
  5
DE7
  8
MSL_F16_40-7A
 10
0.0
 20
-6.0
 30
0.0
 11
0.0
 21
5.9999999999999991
 31
0.0
  0
CIRCLE
  5
DE8
  8
MSL_F16_40-0
 10
0.0
 20
0.0
 30
0.0
 40
2.458499999999999
  0
ARC
  5
DE9
  8
MSL_F16_40-4
 10
0.0
 20
0.0
 30
0.0
 40
3.0
 50
280.0
 51
209.99999999999989
  0
LINE
  5
DEA
  8
MSL_F16_40-7A
 10
-5.9999999999999991
 20
0.0
 30
0.0
 11
5.9999999999999991
 21
0.0
 31
0.0
  0
ENDBLK
  5
DEB
  8
0
  0
BLOCK
  8
0
  2
*U55
 70
     1
 10
0.0
 20
0.0
 30
0.0
  3
*U55
  1
*U
  0
LINE
  5
DF4
  8
CENN
 10
0.0
 20
-6.0
 30
0.0
 11
0.0
 21
5.9999999999999991
 31
0.0
  0
CIRCLE
  5
DF5
  8
BHMM
 10
0.0
 20
0.0
 30
0.0
 40
2.458499999999999
  0
ARC
  5
DF6
  8
THLI
 10
0.0
 20
0.0
 30
0.0
 40
3.0
 50
280.0
 51
209.99999999999989
  0
LINE
  5
DF7
  8
CENN
 10
-5.9999999999999991
 20
0.0
 30
0.0
 11
5.9999999999999991
 21
0.0
 31
0.0
  0
ENDBLK
  5
DF8
  8
0
  0
BLOCK
  8
0
  2
*U56
 70
     1
 10
0.0
 20
0.0
 30
0.0
  3
*U56
  1
*U
  0
INSERT
  5
DFB
  8
GEV_FROZEN
  2
*U55
 10
0.0
 20
0.0
 30
0.0
 41
0.1
 42
0.1
 43
0.1
1001
GENBH
1002
{
1000
-NOBRK
1002
}
  0
LINE
  5
DFC
  8
MSL_F16_40-7A
 10
0.0
 20
-6.0
 30
0.0
 11
0.0
 21
5.9999999999999991
 31
0.0
  0
CIRCLE
  5
DFD
  8
MSL_F16_40-0
 10
0.0
 20
0.0
 30
0.0
 40
2.458499999999999
  0
ARC
  5
DFE
  8
MSL_F16_40-4
 10
0.0
 20
0.0
 30
0.0
 40
3.0
 50
280.0
 51
209.99999999999989
  0
LINE
  5
DFF
  8
MSL_F16_40-7A
 10
-5.9999999999999991
 20
0.0
 30
0.0
 11
5.9999999999999991
 21
0.0
 31
0.0
  0
ENDBLK
  5
E00
  8
0
  0
BLOCK
  8
0
  2
*U57
 70
     1
 10
0.0
 20
0.0
 30
0.0
  3
*U57
  1
*U
  0
LINE
  5
E09
  8
CENN
 10
0.0
 20
-6.0
 30
0.0
 11
0.0
 21
5.9999999999999991
 31
0.0
  0
CIRCLE
  5
E0A
  8
BHMM
 10
0.0
 20
0.0
 30
0.0
 40
2.458499999999999
  0
ARC
  5
E0B
  8
THLI
 10
0.0
 20
0.0
 30
0.0
 40
3.0
 50
280.0
 51
209.99999999999989
  0
LINE
  5
E0C
  8
CENN
 10
-5.9999999999999991
 20
0.0
 30
0.0
 11
5.9999999999999991
 21
0.0
 31
0.0
  0
ENDBLK
  5
E0D
  8
0
  0
BLOCK
  8
0
  2
*U58
 70
     1
 10
0.0
 20
0.0
 30
0.0
  3
*U58
  1
*U
  0
INSERT
  5
E10
  8
GEV_FROZEN
  2
*U57
 10
0.0
 20
0.0
 30
0.0
 41
0.1
 42
0.1
 43
0.1
1001
GENBH
1002
{
1000
-NOBRK
1002
}
  0
LINE
  5
E11
  8
MSL_F16_40-7A
 10
0.0
 20
-6.0
 30
0.0
 11
0.0
 21
5.9999999999999991
 31
0.0
  0
CIRCLE
  5
E12
  8
MSL_F16_40-0
 10
0.0
 20
0.0
 30
0.0
 40
2.458499999999999
  0
ARC
  5
E13
  8
MSL_F16_40-4
 10
0.0
 20
0.0
 30
0.0
 40
3.0
 50
280.0
 51
209.99999999999989
  0
LINE
  5
E14
  8
MSL_F16_40-7A
 10
-5.9999999999999991
 20
0.0
 30
0.0
 11
5.9999999999999991
 21
0.0
 31
0.0
  0
ENDBLK
  5
E15
  8
0
  0
BLOCK
  8
0
  2
*U59
 70
     1
 10
0.0
 20
0.0
 30
0.0
  3
*U59
  1
*U
  0
LINE
  5
E1E
  8
CENN
 10
0.0
 20
-6.0
 30
0.0
 11
0.0
 21
5.9999999999999991
 31
0.0
  0
CIRCLE
  5
E1F
  8
BHMM
 10
0.0
 20
0.0
 30
0.0
 40
2.458499999999999
  0
ARC
  5
E20
  8
THLI
 10
0.0
 20
0.0
 30
0.0
 40
3.0
 50
280.0
 51
209.99999999999989
  0
LINE
  5
E21
  8
CENN
 10
-5.9999999999999991
 20
0.0
 30
0.0
 11
5.9999999999999991
 21
0.0
 31
0.0
  0
ENDBLK
  5
E22
  8
0
  0
BLOCK
  8
0
  2
*U60
 70
     1
 10
0.0
 20
0.0
 30
0.0
  3
*U60
  1
*U
  0
INSERT
  5
E25
  8
GEV_FROZEN
  2
*U59
 10
0.0
 20
0.0
 30
0.0
 41
0.1
 42
0.1
 43
0.1
1001
GENBH
1002
{
1000
-NOBRK
1002
}
  0
LINE
  5
E26
  8
MSL_F16_40-7A
 10
0.0
 20
-6.0
 30
0.0
 11
0.0
 21
5.9999999999999991
 31
0.0
  0
CIRCLE
  5
E27
  8
MSL_F16_40-0
 10
0.0
 20
0.0
 30
0.0
 40
2.458499999999999
  0
ARC
  5
E28
  8
MSL_F16_40-4
 10
0.0
 20
0.0
 30
0.0
 40
3.0
 50
280.0
 51
209.99999999999989
  0
LINE
  5
E29
  8
MSL_F16_40-7A
 10
-5.9999999999999991
 20
0.0
 30
0.0
 11
5.9999999999999991
 21
0.0
 31
0.0
  0
ENDBLK
  5
E2A
  8
0
  0
BLOCK
  8
0
  2
GENTPOS0
 70
     0
 10
0.0
 20
0.0
 30
0.0
  3
GENTPOS0
  1

  0
LINE
  5
FCA
  8
0
 10
-182.88486883698579
 20
0.0000000000000178
 30
0.0
 11
-0.0000000000000015
 21
0.0
 31
0.0
  0
LINE
  5
FCB
  8
AM_BOR
 62
     1
 10
-159.88486883698579
 20
4.5000000000000258
 30
0.0
 11
0.0
 21
4.5
 31
0.0
1001
GENIUS_GENBLLY_14
1000
BOR2
  0
LINE
  5
FCD
  8
AM_BOR
 62
     1
 10
-182.88486883698579
 20
9.0000000000000178
 30
0.0
 11
0.0000000000000015
 21
8.9999999999999716
 31
0.0
1001
GENIUS_GENBLLY_14
1000
BOR2
  0
LINE
  5
FCE
  8
0
 10
-182.88486883698579
 20
4.5000000000000178
 30
0.0
 11
-182.88486883698579
 21
9.0000000000000178
 31
0.0
  0
LINE
  5
FCF
  8
0
 10
-182.88486883698579
 20
0.0000000000000178
 30
0.0
 11
-182.88486883698579
 21
4.5000000000000178
 31
0.0
  0
LINE
  5
FD0
  8
AM_BOR
 62
     1
 10
-159.88486883698579
 20
4.5000000000000284
 30
0.0
 11
-159.88486883698579
 21
0.0862588319893405
 31
0.0
1001
GENIUS_GENBLLY_14
1000
BOR2
  0
LINE
  5
FD1
  8
AM_BOR
 62
     1
 10
-171.88486883698579
 20
4.5000000000000488
 30
0.0
 11
-171.88486883698579
 21
0.0862588319893618
 31
0.0
1001
GENIUS_GENBLLY_14
1000
BOR2
  0
LINE
  5
FD2
  8
AM_BOR
 62
     1
 10
-171.88486883698579
 20
9.0000000000000782
 30
0.0
 11
-171.88486883698579
 21
4.5000000000000782
 31
0.0
1001
GENIUS_GENBLLY_14
1000
BOR2
  0
LINE
  5
FD3
  8
AM_BOR
 62
     1
 10
-159.88486883698579
 20
9.0000000000000568
 30
0.0
 11
-159.88486883698579
 21
4.500000000000056
 31
0.0
1001
GENIUS_GENBLLY_14
1000
BOR2
  0
LINE
  5
FD4
  8
AM_BOR
 62
     1
 10
-99.164153522206277
 20
4.5000000000000284
 30
0.0
 11
-99.164153522206277
 21
0.0000000000000284
 31
0.0
1001
GENIUS_GENBLLY_14
1000
BOR2
  0
LINE
  5
FD5
  8
AM_BOR
 62
     1
 10
-99.164153522206277
 20
9.0000000000000284
 30
0.0
 11
-99.164153522206277
 21
4.5000000000000284
 31
0.0
1001
GENIUS_GENBLLY_14
1000
BOR2
  0
TEXT
  5
FD6
  8
AM_BOR
 62
     1
 10
-40.533941491700602
 20
5.7632297189300914
 30
0.0
 40
2.0
  1
(genmsg "gendwg" 39){20.2}
1001
GENIUS_GENBLLY_14
1000
BOR3
  0
TEXT
  5
FD7
  8
AM_BOR
 62
     1
 10
-40.533941491700602
 20
0.9821435911503897
 30
0.0
 40
2.0
  1
(genmsg "gendwg" 40){20.2}
1001
GENIUS_GENBLLY_14
1000
BOR3
  0
LINE
  5
FD8
  8
AM_BOR
 62
     1
 10
-42.513122670274811
 20
4.500000000000056
 30
0.0
 11
-42.513122670274811
 21
0.0000000000000568
 31
0.0
1001
GENIUS_GENBLLY_14
1000
BOR2
  0
LINE
  5
FD9
  8
AM_BOR
 62
     1
 10
-42.513122670274811
 20
9.0000000000000284
 30
0.0
 11
-42.513122670274811
 21
4.5000000000000284
 31
0.0
1001
GENIUS_GENBLLY_14
1000
BOR2
  0
LINE
  5
FDA
  8
0
 10
0.0
 20
4.5
 30
0.0
 11
0.0000000000000015
 21
9.0
 31
0.0
  0
LINE
  5
FDB
  8
0
 10
-0.0000000000000015
 20
0.0
 30
0.0
 11
0.0
 21
4.5
 31
0.0
  0
TEXT
  5
FDC
  8
AM_BOR
 62
     1
 10
-98.203639361584706
 20
5.608505873506747
 30
0.0
 40
2.0
  1
(genmsg "gendwg" 37){27.5}
1001
GENIUS_GENBLLY_14
1000
BOR3
  0
TEXT
  5
FDD
  8
AM_BOR
 62
     1
 10
-98.138699945075587
 20
1.1000500179945081
 30
0.0
 40
2.0
  1
(genmsg "gendwg" 38){27.5}
1001
GENIUS_GENBLLY_14
1000
BOR3
  0
TEXT
  5
FDE
  8
AM_BOR
 62
     1
 10
-159.1934076074175
 20
5.5341521628883221
 30
0.0
 40
2.0
  1
(genmsg "gendwg" 35){22.7}
1001
GENIUS_GENBLLY_14
1000
BOR3
  0
TEXT
  5
FDF
  8
AM_BOR
 62
     1
 10
-159.06352877439929
 20
1.1867960137159941
 30
0.0
 40
2.0
  1
(genmsg "gendwg" 36){22.7}
1001
GENIUS_GENBLLY_14
1000
BOR3
  0
TEXT
  5
FE0
  8
AM_BOR
 62
     1
 10
-182.06352877439929
 20
5.8640344583101331
 30
0.0
 40
2.0
  1
(genmsg "gendwg" 29){7.6}
1001
GENIUS_GENBLLY_14
1000
BOR3
  0
TEXT
  5
FE1
  8
AM_BOR
 62
     1
 10
-171.06352877439929
 20
5.6509601097971291
 30
0.0
 40
2.0
  1
(genmsg "gendwg" 32){5.3}
1001
GENIUS_GENBLLY_14
1000
BOR3
  0
TEXT
  5
FE2
  8
AM_BOR
 62
     1
 10
-8.7000000000000028
 20
5.7632297189300914
 30
0.0
 40
2.0
  1
Länge
 72
     2
 11
-2.0
 21
5.7632297189300914
 31
0.0
1001
GENIUS_GENBLLY_14
1000
BOR3
  0
ENDBLK
  5
FE4
  8
0
  0
BLOCK
  8
0
  2
GENTPOS1
 70
     2
 10
0.0
 20
0.0
 30
0.0
  3
GENTPOS1
  1

  0
LINE
  5
FE6
  8
0
 10
-182.8848688369859
 20
0.0000000000000853
 30
0.0
 11
-182.8848688369859
 21
4.5000000000000853
 31
0.0
  0
ATTDEF
  5
FE7
  8
AM_BOR
 62
     2
 10
-158.9507488793445
 20
1.462817121073982
 30
0.0
 40
2.0
  1

  3
(GENMSG "GENDWG" 35)
  2
6GENST{22.7}
 70
     0
1001
GENIUS_GENBLLY_14
1000
BOR3
  0
LINE
  5
FE8
  8
AM_BOR
 62
     1
 10
-171.88486883698579
 20
4.5000000000000284
 30
0.0
 11
-171.88486883698579
 21
0.0000000000000284
 31
0.0
1001
GENIUS_GENBLLY_14
1000
BOR2
  0
LINE
  5
FE9
  8
AM_BOR
 62
     1
 10
-159.88486883698579
 20
4.5
 30
0.0
 11
-159.88486883698579
 21
0.0
 31
0.0
1001
GENIUS_GENBLLY_14
1000
BOR2
  0
ATTDEF
  5
FEA
  8
AM_BOR
 62
     2
 10
-98.306544560848366
 20
1.4628467178702631
 30
0.0
 40
2.0
  1

  3
(GENMSG "GENDWG" 37)
  2
8GENST{27.5}
 70
     0
1001
GENIUS_GENBLLY_14
1000
BOR3
  0
LINE
  5
FEB
  8
AM_BOR
 62
     1
 10
-99.164153522206334
 20
4.4999999999999849
 30
0.0
 11
-99.164153522206334
 21
0.0
 31
0.0
1001
GENIUS_GENBLLY_14
1000
BOR2
  0
ATTDEF
  5
FEC
  8
AM_BOR
 62
     2
 10
-41.188800557918512
 20
1.4535630554862271
 30
0.0
 40
2.0
  1

  3
(GENMSG "GENDWG" 39)
  2
10GENST{20.2}
 70
     0
1001
GENIUS_GENBLLY_14
1000
BOR3
  0
LINE
  5
FED
  8
AM_BOR
 62
     1
 10
-42.513122670274811
 20
4.4999999999999707
 30
0.0
 11
-42.513122670274811
 21
0.0
 31
0.0
1001
GENIUS_GENBLLY_14
1000
BOR2
  0
LINE
  5
FEE
  8
0
 10
0.0
 20
4.4999999999999574
 30
0.0
 11
0.0
 21
0.0
 31
0.0
  0
LINE
  5
FEF
  8
AM_BOR
 62
     1
 10
-159.88486883698579
 20
4.5
 30
0.0
 11
0.0
 21
4.5000000000001696
 31
0.0
1001
GENIUS_GENBLLY_14
1000
BOR2
  0
ENDBLK
  5
FF1
  8
0
  0
BLOCK
  8
0
  2
GENTPOS2
 70
     2
 10
0.0
 20
0.0
 30
0.0
  3
GENTPOS2
  1

  0
ATTDEF
  5
FF3
  8
AM_BOR
 62
     2
 10
-181.98804960497549
 20
-25.67901407093678
 30
0.0
 40
2.0
  1

  3

  2
ITEM
 70
     0
1001
GENIUS_GENBLLY_14
1000
BOR3
  0
ATTDEF
  5
FF4
  8
AM_BOR
 62
     2
 10
-170.98804960497549
 20
-25.679014070936759
 30
0.0
 40
2.0
  1

  3

  2
QTY
 70
     0
1001
GENIUS_GENBLLY_14
1000
BOR3
  0
ATTDEF
  5
FF5
  8
AM_BOR
 62
     2
 10
-158.98804960497549
 20
-25.67901407093678
 30
0.0
 40
2.0
  1

  3
(GENMSG "GENDWG" 36)
  2
5GENST{22.7}
 70
     0
1001
GENIUS_GENBLLY_14
1000
BOR3
  0
ATTDEF
  5
FF6
  8
AM_BOR
 62
     2
 10
-98.127090248452362
 20
-25.678984474140499
 30
0.0
 40
2.0
  1

  3
(GENMSG "GENDWG" 38)
  2
7GENST{27.5}
 70
     0
1001
GENIUS_GENBLLY_14
1000
BOR3
  0
ATTDEF
  5
FF7
  8
AM_BOR
 62
     2
 10
-41.355436705145102
 20
-25.484027564075731
 30
0.0
 40
2.0
  1

  3
(GENMSG "GENDWG" 40)
  2
9GENST{20.2}
 70
     0
1001
GENIUS_GENBLLY_14
1000
BOR3
  0
ATTDEF
  5
FF8
  8
AM_BOR
 62
     2
 10
-2.0000000000001128
 20
-25.546436944513609
 30
0.0
 40
2.0
  1

 72
     2
 11
-2.0000000000001128
 21
-25.546436944513609
 31
0.0
  3

  2
DIM
 70
     0
1001
GENIUS_GENBLLY_14
1000
BOR3
  0
LINE
  5
FF9
  8
AM_BOR
 62
     1
 10
-182.8848688369859
 20
-22.49999999999984
 30
0.0
 11
-0.0000000000001137
 21
-22.49999999999984
 31
0.0
1001
GENIUS_GENBLLY_14
1000
BOR2
  0
LINE
  5
FFA
  8
0
 10
-182.8848688369859
 20
-26.99999999999984
 30
0.0
 11
-182.8848688369859
 21
-22.49999999999984
 31
0.0
  0
LINE
  5
FFB
  8
AM_BOR
 62
     1
 10
-171.8848688369859
 20
-22.499999999999801
 30
0.0
 11
-171.8848688369859
 21
-26.999999999999801
 31
0.0
1001
GENIUS_GENBLLY_14
1000
BOR2
  0
LINE
  5
FFC
  8
AM_BOR
 62
     1
 10
-159.8848688369859
 20
-22.49999999999984
 30
0.0
 11
-159.8848688369859
 21
-26.99999999999984
 31
0.0
1001
GENIUS_GENBLLY_14
1000
BOR2
  0
LINE
  5
FFD
  8
AM_BOR
 62
     1
 10
-99.164153522206391
 20
-22.499999999999851
 30
0.0
 11
-99.164153522206391
 21
-26.99999999999984
 31
0.0
1001
GENIUS_GENBLLY_14
1000
BOR2
  0
LINE
  5
FFE
  8
AM_BOR
 62
     1
 10
-42.513122670274861
 20
-22.499999999999869
 30
0.0
 11
-42.513122670274861
 21
-26.99999999999984
 31
0.0
1001
GENIUS_GENBLLY_14
1000
BOR2
  0
LINE
  5
FFF
  8
0
 10
-0.0000000000000568
 20
-22.499999999999879
 30
0.0
 11
-0.0000000000000568
 21
-26.99999999999984
 31
0.0
  0
ENDBLK
  5
1001
  8
0
  0
BLOCK
  8
0
  2
GENTPOS
 70
     2
 10
0.0
 20
0.0
 30
0.0
  3
GENTPOS
  1

  0
ATTDEF
  5
1003
  8
0
 10
0.0
 20
9.0
 30
0.0
 40
2.5
  1
4
  3

  2
_ALWAYS
 70
     3
  0
INSERT
  5
1004
  8
0
  2
GENTPOS0
 10
0.0
 20
0.0
 30
0.0
  0
INSERT
  5
1005
  8
0
 66
     1
  2
GENTPOS1
 10
0.0000000000000015
 20
9.0
 30
0.0
  0
ATTRIB
  5
1006
  8
AM_BOR
 62
     2
 10
-42.513122670274811
 20
9.0
 30
0.0
 40
2.0
  1

  2
3GENST{6.3}
 70
     0
1001
GENIUS_GENBLLY_14
1000
BOR3
  0
ATTRIB
  5
1007
  8
AM_BOR
 62
     2
 10
-99.164153522206334
 20
9.0000000000000284
 30
0.0
 40
2.0
  1

  2
1GENST{7.6}
 70
     0
1001
GENIUS_GENBLLY_14
1000
BOR3
  0
ATTRIB
  5
1008
  8
AM_BOR
 62
     2
 10
-145.5207488793445
 20
10.46281712107398
 30
0.0
 40
2.0
  1

  2
5GENST{22.7}
 70
     0
1001
GENIUS_GENBLLY_14
1000
BOR3
  0
ATTRIB
  5
1009
  8
AM_BOR
 62
     2
 10
-146.45486883698581
 20
9.0
 30
0.0
 40
2.0
  1

  2
2GENST{5.3}
 70
     0
1001
GENIUS_GENBLLY_14
1000
BOR3
  0
ATTRIB
  5
100A
  8
AM_BOR
 62
     2
 10
-98.306544560848366
 20
10.46284671787026
 30
0.0
 40
2.0
  1

  2
7GENST{27.5}
 70
     0
1001
GENIUS_GENBLLY_14
1000
BOR3
  0
ATTRIB
  5
100B
  8
AM_BOR
 62
     2
 10
-41.188800557918512
 20
10.453563055486219
 30
0.0
 40
2.0
  1

  2
9GENST{20.2}
 70
     0
1001
GENIUS_GENBLLY_14
1000
BOR3
  0
SEQEND
  5
100C
  8
0
  0
INSERT
  5
100D
  8
0
 66
     1
  2
GENTPOS2
 10
0.0000000000000583
 20
40.500000000000007
 30
0.0
  0
ATTRIB
  5
100E
  8
AM_BOR
 62
     2
 10
-181.9880496049754
 20
14.82098592906322
 30
0.0
 40
2.0
  1

  2
ITEM
 70
     0
  0
ATTRIB
  5
100F
  8
AM_BOR
 62
     2
 10
-170.9880496049754
 20
14.82098592906326
 30
0.0
 40
2.0
  1

  2
QTY
 70
     0
  0
ATTRIB
  5
1010
  8
AM_BOR
 62
     2
 10
-158.9880496049754
 20
14.82098592906322
 30
0.0
 40
2.0
  1

  2
5GENST{22.7}
 70
     0
  0
ATTRIB
  5
1011
  8
AM_BOR
 62
     2
 10
-98.127090248452305
 20
14.821015525859501
 30
0.0
 40
2.0
  1

  2
7GENST{27.5}
 70
     0
  0
ATTRIB
  5
1012
  8
AM_BOR
 62
     2
 10
-41.355436705145053
 20
15.015972435924279
 30
0.0
 40
2.0
  1

  2
9GENST{20.2}
 70
     0
  0
ATTRIB
  5
1013
  8
AM_BOR
 62
     2
 10
-2.0000000000000551
 20
14.95356305548639
 30
0.0
 40
2.0
  1

 72
     2
 11
-2.0000000000000551
 21
14.95356305548639
 31
0.0
  2
DIM
 70
     0
  0
SEQEND
  5
1014
  8
0
  0
ENDBLK
  5
1016
  8
0
  0
BLOCK
  8
0
  2
GENAXEH
 70
     0
 10
0.0
 20
0.0
 30
0.0
  3
GENAXEH
  1

  0
LINE
  5
102B
  8
0
 10
-1.0
 20
0.0
 30
0.0
 11
1.0
 21
0.0
 31
0.0
  0
ENDBLK
  5
102D
  8
0
  0
BLOCK
  8
0
  2
*U66
 70
     1
 10
0.0
 20
0.0
 30
0.0
  3
*U66
  1

  0
TEXT
  5
1079
  8
ZYL_40_ISO6431-0
 10
343.21188074849692
 20
214.74552896387871
 30
0.0
 40
1.25
  1
Zylinder 
  0
TEXT
  5
107A
  8
ZYL_40_ISO6431-0
 10
349.83688074849692
 20
214.74552896387871
 30
0.0
 40
1.25
  1
\U+2205
  0
TEXT
  5
107B
  8
ZYL_40_ISO6431-0
 10
350.96188074849692
 20
214.74552896387871
 30
0.0
 40
1.25
  1
40 DIN/ISO 6431
  0
TEXT
  5
107C
  8
ZYL_40_ISO6431-0
 10
343.21188074849692
 20
212.6621956305454
 30
0.0
 40
1.25
  1
Kolbenstange um 44mm verlängert
  0
ENDBLK
  5
107E
  8
0
  0
ENDSEC
  0
SECTION
  2
ENTITIES
  0
LINE
  5
4D
  8
MSL_F16_40-0
 10
314.47419627724952
 20
124.93210826924251
 30
0.0
 11
314.47419627724952
 21
99.932108269242576
 31
0.0
  0
LINE
  5
4E
  8
MSL_F16_40-0
 10
314.47419627724952
 20
124.93210826924251
 30
0.0
 11
314.47419627724952
 21
149.93210826924249
 31
0.0
  0
LINE
  5
52
  8
MSL_F16_40-0
 10
314.47419627724952
 20
99.932108269242576
 30
0.0
 11
306.47419627724952
 21
99.932108269242576
 31
0.0
  0
LINE
  5
53
  8
MSL_F16_40-0
 10
314.47419627724952
 20
149.93210826924249
 30
0.0
 11
306.47419627724952
 21
149.93210826924249
 31
0.0
  0
LINE
  5
58
  8
MSL_F16_40-0
 10
306.47419627724952
 20
149.93210826924249
 30
0.0
 11
306.47419627724952
 21
99.932108269242576
 31
0.0
  0
LINE
  5
5C
  8
MSL_F16_40-0
 10
300.47419627724952
 20
104.93210826924251
 30
0.0
 11
272.47419627724952
 21
104.93210826924251
 31
0.0
  0
LINE
  5
5D
  8
MSL_F16_40-0
 10
300.47419627724952
 20
144.93210826924249
 30
0.0
 11
272.47419627724952
 21
144.93210826924249
 31
0.0
  0
LINE
  5
61
  8
MSL_F16_40-0
 10
272.47419627724952
 20
99.932108269242576
 30
0.0
 11
272.47419627724952
 21
114.5398034238307
 31
0.0
  0
LINE
  5
66
  8
MSL_F16_40-0
 10
272.47419627724952
 20
99.932108269242576
 30
0.0
 11
259.47419627724952
 21
99.932108269242576
 31
0.0
  0
LINE
  5
67
  8
MSL_F16_40-0
 10
272.47419627724952
 20
149.93210826924249
 30
0.0
 11
259.47419627724952
 21
149.93210826924249
 31
0.0
  0
LINE
  5
6C
  8
MSL_F16_40-0
 10
259.47419627724952
 20
149.93210826924249
 30
0.0
 11
259.47419627724952
 21
99.932108269242576
 31
0.0
  0
LINE
  5
70
  8
MSL_F16_40-0
 10
259.47419627724952
 20
107.43210826924251
 30
0.0
 11
249.4741962772496
 21
107.43210826924251
 31
0.0
  0
LINE
  5
71
  8
MSL_F16_40-0
 10
259.47419627724952
 20
142.43210826924249
 30
0.0
 11
249.47419627724949
 21
142.43210826924249
 31
0.0
  0
LINE
  5
73
  8
MSL_F16_40-0
 10
249.4741962772496
 20
107.43210826924251
 30
0.0
 11
249.4741962772496
 21
124.93210826924251
 31
0.0
  0
LINE
  5
74
  8
MSL_F16_40-0
 10
249.47419627724949
 20
142.43210826924249
 30
0.0
 11
249.47419627724949
 21
124.93210826924251
 31
0.0
  0
LINE
  5
78
  8
MSL_F16_40-7
 10
246.4741962772496
 20
124.93210826924251
 30
0.0
 11
317.47419627724588
 21
124.93210826924251
 31
0.0
1001
GENIUS_GENODEF_13
1002
{
1000
HIER
1070
     0
1002
}
1002
{
1000
MANEDIT
1070
     0
1002
}
1002
{
1000
NOSEL
1070
     0
1002
}
1002
{
1000
BEHIND
1070
     0
1002
}
1002
{
1000
REACTOR
1002
}
1001
GENIUS_GENOBJ-N-CEN_13
1002
{
1000
OWNER
1000
GEN
1002
}
1001
GENIUS_GENOREF_13
1005
D8
  0
CIRCLE
  5
81
  8
MSL_F16_40-0
 10
278.47419627724952
 20
124.932108269244
 30
0.0
 40
12.0
  0
LINE
  5
82
  8
MSL_F16_40-0
 10
272.47419627724952
 20
135.32441311465729
 30
0.0
 11
272.47419627724952
 21
149.93210826924249
 31
0.0
  0
POINT
  5
D6
  8
0
 10
0.0
 20
0.0
 30
0.0
1001
GENIUS_GENBH_13
1002
{
1000
BGO
1005
D8
1002
}
1002
{
1000
FGLEVEL
1040
1.0000000099999991
1002
}
1002
{
1000
FLAGS
1070
    36
1002
}
1002
{
1000
OIUMAP
1000
OIU
1002
}
1002
{
1000
MODIFY
1070
     0
1002
}
1001
GENIUS_GENODEF_13
1002
{
1000
HIER
1070
     1
1002
}
1002
{
1000
MANEDIT
1070
     0
1002
}
1002
{
1000
NOSEL
1070
     1
1002
}
1002
{
1000
BEHIND
1070
     0
1002
}
1002
{
1000
REACTOR
1002
}
1001
GENIUS_GENOBJ-NBEHI-BHF_13
1002
{
1000
OWNER
1000
GENBEHI
1002
}
1001
GENIUS_GENOENT_13
1002
{
1000
MYREF
1005
D6
1002
}
1002
{
1000
GRP
1005
0
1002
}
1001
GENIUS_GENOLIS_13
1002
{
1000
ENT
1005
A1D
1002
}
  0
POINT
  5
D8
  8
0
 10
0.0
 20
0.0
 30
0.0
1001
GENIUS_GENBH_13
1002
{
1000
FGO
1005
D6
1002
}
1001
GENIUS_GENODEF_13
1002
{
1000
HIER
1070
     1
1002
}
1002
{
1000
MANEDIT
1070
     0
1002
}
1002
{
1000
NOSEL
1070
     1
1002
}
1002
{
1000
BEHIND
1070
     0
1002
}
1002
{
1000
REACTOR
1002
}
1001
GENIUS_GENOBJ-NBEHI-BHB_13
1002
{
1000
OWNER
1000
GENBEHI
1002
}
1001
GENIUS_GENOENT_13
1002
{
1000
MYREF
1005
D8
1002
}
1002
{
1000
GRP
1005
0
1002
}
1001
GENIUS_GENOLIS_13
1002
{
1000
ENT
1005
78
1005
43
1005
7C
1002
}
  0
POINT
  5
DC
  8
0
 10
0.0
 20
0.0
 30
0.0
1001
GENIUS_GENODEF_13
1002
{
1000
HIER
1070
   200
1002
}
1002
{
1000
MANEDIT
1070
     0
1002
}
1002
{
1000
NOSEL
1070
     0
1002
}
1002
{
1000
BEHIND
1070
     0
1002
}
1002
{
1000
REACTOR
1002
}
1001
GENIUS_GENOBJ-F-PART_13
1002
{
1000
OWNER
1000
GEF
1002
}
1001
GENIUS_GEFSTDP_13
1002
{
1000
DSC
1000
DSC
1002
{
1000
~DESCR
1000
 
1000
~STDRT
1002
}
1002
}
1002
{
1000
SUG
1000
G
1000
1/8
1002
}
1002
{
1000
KEY
1000
THPT
1002
}
1002
{
1000
INS
1002
{
1040
278.47419627724952
1040
124.932108269244
1040
0.0
1002
}
1002
}
1002
{
1000
ANG
1040
0.0
1002
}
1002
{
1000
VCC
1002
{
1000
$PRE=G
1000
$NM1=1/8
1000
-RBDESCR
1000
-RBSTDRT
1000
-RBGD1
1000
-RBLOTI
1000
-V$PV_GENSYSTEM"gef\val\di\0405\di1627_d.dxf"
1000
$VCC_TABLE=$PV_GENSYSTEM"gef\val\di\0405\di1627.val"
1000
$GEF_CDIST=3.000000000000000E+00
1000
$GEF_DRAG=1
1000
$GEF_STANG=2.100000000000000E+02
1000
$GEF_OANG=7.000000000000000E+01
1000
$GEVPROMPTX= Länge: 
1000
$GEF_SNK_ADD=0.000000000000000E+00
1000
$GEF_FLIPX=1
1000
$GEF_FLIPY=1
1000
-GRPNAME0?
1000
-GRPNAME1?
1000
-BAML2
1000
$GEF_PROCALC=1
1002
}
1002
}
1002
{
1000
LST
1002
{
1002
{
1000
GROUP
1000
0405
1002
}
1002
{
1000
VIEW
1000
D
1002
}
1002
{
1000
SFILE
1000
$PV_GENSYSTEM"gef\val\di\0405\di1627_d.dxf"
1002
}
1002
{
1000
ST1
1000
$PV_GENSYSTEM"gef\val\di\0405\di1627.val"
1002
}
1002
{
1000
GENASSO
1000
 
1002
}
1002
}
1002
}
1002
{
1000
RET
1002
{
1002
{
1000
LOTI
1002
}
1002
{
1000
GD1
1000
8.56645
1002
}
1002
{
1000
STDRT
1000
ISO 228 - G 1/8
1002
}
1002
{
1000
DESCR
1000
Rohrgewinde
1002
}
1002
}
1002
}
1002
{
1000
SYSTEM
1040
1.0
1002
}
1002
{
1000
INFEL
1002
{
1002
}
1002
}
1001
GENIUS_GENOENT_13
1002
{
1000
MYREF
1005
DC
1002
}
1002
{
1000
GRP
1005
0
1002
}
1001
GENIUS_GENOLIS_13
1002
{
1000
ENT
1005
A1D
1002
}
  0
LINE
  5
F0
  8
MSL_F16_40-3
 10
314.47419627724952
 20
107.43210826924251
 30
0.0
 11
291.97419627724952
 21
107.43210826924251
 31
0.0
  0
LINE
  5
F1
  8
MSL_F16_40-3
 10
314.47419627724952
 20
142.43210826924249
 30
0.0
 11
291.97419627724952
 21
142.43210826924249
 31
0.0
  0
LINE
  5
F6
  8
MSL_F16_40-3
 10
291.97419627724952
 20
142.43210826924249
 30
0.0
 11
291.97419627724952
 21
107.43210826924251
 31
0.0
  0
LINE
  5
FA
  8
MSL_F16_40-3
 10
291.97419627724952
 20
114.93210826924251
 30
0.0
 11
285.10744585795811
 21
114.93210826924251
 31
0.0
  0
LINE
  5
FB
  8
MSL_F16_40-3
 10
291.97419627724952
 20
134.93210826924249
 30
0.0
 11
285.1074458579626
 21
134.93210826924249
 31
0.0
  0
LINE
  5
102
  8
MSL_F16_40-3
 10
265.47419627724952
 20
113.93210826924251
 30
0.0
 11
249.47419627724949
 21
113.93210826924251
 31
0.0
  0
LINE
  5
103
  8
MSL_F16_40-3
 10
265.47419627724952
 20
135.93210826924249
 30
0.0
 11
249.47419627724949
 21
135.93210826924249
 31
0.0
  0
INSERT
  5
124
  8
MSL_F16_40-0
  2
*U4
 10
259.47419627724952
 20
105.93210826924251
 30
0.0
1001
GENIUS_GEFPARTINS_13
1002
{
1011
259.47419627724952
1021
0.0
1031
0.0
1021
105.93210826924251
1031
0.0
1013
1.0
1023
0.0
1033
0.0
1023
0.0
1033
0.0
1002
}
1001
VCC
1002
{
1000
-ID2
1000
-IE2
1000
-IK2
1000
-V$PV_GENSYSTEM"GEF\VAL\DI\0401\DI1616_V.DXF"
1002
}
1001
GEVIT
1002
{
1000
-BEHI2.00000001
1000
-BVCCT0
1000
-T2
1000
-GRP0MSL_F16_40-0
1000
-BAML2
1000
-BASK1
1000
-NT0
1000
-DOC
1005
110
1000
-MYREF
1005
124
1002
}
1001
GEVPT
1002
{
1000
-V$PV_GENSYSTEM"GEF\VAL\DI\0401\DI1616_V.DXF"
1000
-FIXPLOTI=1.300000000000000E+01
1000
-GPGEVBHOP=2
1000
-GPGEF_PROCALC=1
1000
-GPGEF_FLIPY=1
1000
-GPGEF_FLIPX=1
1000
-GPGEF_SNK_ADD=0
1000
-GPGEVPROMPTX=Länge:
1000
-GPGEF_OANG=70
1000
-GPGEF_STANG=210
1000
-GPGEF_DRAG=1
1000
-GPGEF_CDIST=3
1000
-GPVCC_TABLE=C:\GENIUS\gef\val\di\0401\di1616.val
1000
-GPNND=6
1000
-GPPRE=M
1002
}
1001
GEVID884340778
1002
{
1002
}
1001
GENIUS_GENOREF_13
1005
125
  0
POINT
  5
125
  8
0
 10
0.0
 20
0.0
 30
0.0
1001
GENIUS_GENODEF_13
1002
{
1000
HIER
1070
   200
1002
}
1002
{
1000
MANEDIT
1070
     0
1002
}
1002
{
1000
NOSEL
1070
     0
1002
}
1002
{
1000
BEHIND
1070
     0
1002
}
1002
{
1000
REACTOR
1002
}
1001
GENIUS_GENOBJ-F-PART_13
1002
{
1000
OWNER
1000
GEF
1002
}
1001
GENIUS_GEFSTDP_13
1002
{
1000
DSC
1000
DSC
1002
{
1000
~DESCR
1000
 
1000
~STDRT
1000
(gefmsg "gefcall" 409)
1000
~LOTI
1002
}
1002
}
1002
{
1000
SUG
1000
M
1040
6.0
1002
}
1002
{
1000
KEY
1000
THRF
1002
}
1002
{
1000
INS
1002
{
1040
259.47419627724952
1040
105.93210826924251
1040
0.0
1002
}
1002
}
1002
{
1000
ANG
1040
0.0
1002
}
1002
{
1000
VCC
1002
{
1000
-LPLOTI=1.300000000000000E+01
1000
$PRE=M
1000
$NND=6.000000000000000E+00
1000
-GRPNAME0MSL_F16_40-0
1000
-RBDESCR
1000
-RBSTDRT
1000
-RBLOTI
1000
-RBGD1
1000
-V$PV_GENSYSTEM"gef\val\di\0401\di1616_v.dxf"
1000
$VCC_TABLE=$PV_GENSYSTEM"gef\val\di\0401\di1616.val"
1000
$GEF_CDIST=3.000000000000000E+00
1000
$GEF_DRAG=1
1000
$GEF_STANG=2.100000000000000E+02
1000
$GEF_OANG=7.000000000000000E+01
1000
$GEVPROMPTX= Länge: 
1000
$GEF_SNK_ADD=0.000000000000000E+00
1000
$GEF_FLIPX=1
1000
$GEF_FLIPY=1
1000
-GRPNAME1?
1000
-BAML2
1000
$GEF_PROCALC=1
1000
$GEVBHOP=2
1002
}
1002
}
1002
{
1000
LST
1002
{
1002
{
1000
GROUP
1000
0401
1002
}
1002
{
1000
VIEW
1000
V
1002
}
1002
{
1000
SFILE
1000
$PV_GENSYSTEM"gef\val\di\0401\di1616_v.dxf"
1002
}
1002
{
1000
ST1
1000
$PV_GENSYSTEM"gef\val\di\0401\di1616.val"
1002
}
1002
{
1000
GENASSO
1000
 
1002
}
1002
}
1002
}
1002
{
1000
RET
1002
{
1002
{
1000
GD1
1000
4.917
1002
}
1002
{
1000
LOTI
1000
1.300000000000000E+01
1002
}
1002
{
1000
STDRT
1000
DIN 13 - M6
1002
}
1002
{
1000
DESCR
1000
Metrisches ISO-Gewinde
1002
}
1002
}
1002
}
1002
{
1000
SYSTEM
1040
1.0
1002
}
1002
{
1000
INFEL
1002
{
1002
}
1002
}
1001
GENIUS_GENOENT_13
1002
{
1000
MYREF
1005
125
1002
}
1002
{
1000
GRP
1005
0
1002
}
1001
GENIUS_GENOLIS_13
1002
{
1000
ENT
1005
124
1002
}
  0
INSERT
  5
13C
  8
MSL_F16_40-0
  2
*U6
 10
259.4741962772477
 20
143.93210826924249
 30
0.0
1001
GENIUS_GEFPARTINS_13
1002
{
1011
259.4741962772477
1021
0.0
1031
0.0
1021
143.93210826924249
1031
0.0
1013
1.0
1023
0.0
1033
0.0
1023
0.0
1033
0.0
1002
}
1001
VCC
1002
{
1000
-ID3
1000
-IE3
1000
-IK3
1000
-V$PV_GENSYSTEM"GEF\VAL\DI\0401\DI1616_V.DXF"
1002
}
1001
GEVIT
1002
{
1000
-BEHI3.00000001
1000
-BVCCT0
1000
-T2
1000
-GRP0MSL_F16_40-0
1000
-BAML2
1000
-BASK1
1000
-NT0
1000
-DOC
1005
12A
1000
-MYREF
1005
13C
1002
}
1001
GEVPT
1002
{
1000
-V$PV_GENSYSTEM"GEF\VAL\DI\0401\DI1616_V.DXF"
1000
-FIXPLOTI=1.300000000000182E+01
1000
-GPGEVBHOP=2
1000
-GPGEF_PROCALC=1
1000
-GPGEF_FLIPY=1
1000
-GPGEF_FLIPX=1
1000
-GPGEF_SNK_ADD=0
1000
-GPGEVPROMPTX=Länge:
1000
-GPGEF_OANG=70
1000
-GPGEF_STANG=210
1000
-GPGEF_DRAG=1
1000
-GPGEF_CDIST=3
1000
-GPVCC_TABLE=C:\GENIUS\gef\val\di\0401\di1616.val
1000
-GPNND=6
1000
-GPPRE=M
1002
}
1001
GEVID884340779
1002
{
1002
}
1001
GENIUS_GENOREF_13
1005
13D
  0
POINT
  5
13D
  8
0
 10
0.0
 20
0.0
 30
0.0
1001
GENIUS_GENODEF_13
1002
{
1000
HIER
1070
   200
1002
}
1002
{
1000
MANEDIT
1070
     0
1002
}
1002
{
1000
NOSEL
1070
     0
1002
}
1002
{
1000
BEHIND
1070
     0
1002
}
1002
{
1000
REACTOR
1002
}
1001
GENIUS_GENOBJ-F-PART_13
1002
{
1000
OWNER
1000
GEF
1002
}
1001
GENIUS_GEFSTDP_13
1002
{
1000
SUG
1000
M
1040
6.0
1002
}
1002
{
1000
DSC
1000
DSC
1002
{
1000
~DESCR
1000
 
1000
~STDRT
1000
(gefmsg "gefcall" 409)
1000
~LOTI
1002
}
1002
}
1002
{
1000
KEY
1000
THRF
1002
}
1002
{
1000
INS
1002
{
1040
259.4741962772477
1040
143.93210826924249
1040
0.0
1002
}
1002
}
1002
{
1000
ANG
1040
0.0
1002
}
1002
{
1000
VCC
1002
{
1000
-LPLOTI=1.300000000000182E+01
1000
$PRE=M
1000
$NND=6.000000000000000E+00
1000
-GRPNAME0MSL_F16_40-0
1000
-RBDESCR
1000
-RBSTDRT
1000
-RBLOTI
1000
-RBGD1
1000
-V$PV_GENSYSTEM"gef\val\di\0401\di1616_v.dxf"
1000
$VCC_TABLE=$PV_GENSYSTEM"gef\val\di\0401\di1616.val"
1000
$GEF_CDIST=3.000000000000000E+00
1000
$GEF_DRAG=1
1000
$GEF_STANG=2.100000000000000E+02
1000
$GEF_OANG=7.000000000000000E+01
1000
$GEVPROMPTX= Länge: 
1000
$GEF_SNK_ADD=0.000000000000000E+00
1000
$GEF_FLIPX=1
1000
$GEF_FLIPY=1
1000
-GRPNAME1?
1000
-BAML2
1000
$GEF_PROCALC=1
1000
$GEVBHOP=2
1002
}
1002
}
1002
{
1000
LST
1002
{
1002
{
1000
GROUP
1000
0401
1002
}
1002
{
1000
VIEW
1000
V
1002
}
1002
{
1000
SFILE
1000
$PV_GENSYSTEM"gef\val\di\0401\di1616_v.dxf"
1002
}
1002
{
1000
ST1
1000
$PV_GENSYSTEM"gef\val\di\0401\di1616.val"
1002
}
1002
{
1000
GENASSO
1000
 
1002
}
1002
}
1002
}
1002
{
1000
RET
1002
{
1002
{
1000
GD1
1000
4.917
1002
}
1002
{
1000
LOTI
1000
1.300000000000182E+01
1002
}
1002
{
1000
STDRT
1000
DIN 13 - M6
1002
}
1002
{
1000
DESCR
1000
Metrisches ISO-Gewinde
1002
}
1002
}
1002
}
1002
{
1000
SYSTEM
1040
1.0
1002
}
1002
{
1000
INFEL
1002
{
1002
}
1002
}
1001
GENIUS_GENOENT_13
1002
{
1000
MYREF
1005
13D
1002
}
1002
{
1000
GRP
1005
0
1002
}
1001
GENIUS_GENOLIS_13
1002
{
1000
ENT
1005
13C
1002
}
  0
LINE
  5
14A
  8
MSL_F16_40-3
 10
252.47419627724949
 20
135.93210826924249
 30
0.0
 11
252.47419627724949
 21
113.93210826924251
 31
0.0
  0
LINE
  5
14C
  8
MSL_F16_40-3
 10
265.47419627724952
 20
113.93210826924251
 30
0.0
 11
265.47419627724952
 21
135.93210826924249
 31
0.0
  0
LINE
  5
443
  8
ZYL_40_ISO6431-4A
 10
488.2906285623817
 20
231.62331857086329
 30
0.0
 11
488.2906285623817
 21
250.62331857086329
 31
0.0
  0
LINE
  5
444
  8
ZYL_40_ISO6431-3
 10
515.79062856238158
 20
259.12331857086332
 30
0.0
 11
503.7906285623817
 21
259.12331857086332
 31
0.0
1001
GENIUS_GENBH_13
1002
{
1000
OE
1000
CON1
1002
}
1001
GENIUS_GENOREF_13
1005
E3E
  0
ARC
  5
445
  8
ZYL_40_ISO6431-4A
 10
496.7906285623817
 20
250.62331857086329
 30
0.0
 40
8.5
 50
90.0
 51
180.0
  0
LINE
  5
446
  8
ZYL_40_ISO6431-3
 10
515.79062856238158
 20
259.12331857086332
 30
0.0
 11
527.79062856238158
 21
259.12331857086332
 31
0.0
1001
GENIUS_GENBH_13
1002
{
1000
OE
1000
CON1
1002
}
1001
GENIUS_GENOREF_13
1005
E3E
  0
LINE
  5
447
  8
ZYL_40_ISO6431-4A
 10
543.2906285623817
 20
231.62331857086329
 30
0.0
 11
543.2906285623817
 21
250.62331857086329
 31
0.0
  0
ARC
  5
448
  8
ZYL_40_ISO6431-4A
 10
534.7906285623817
 20
250.62331857086329
 30
0.0
 40
8.5
 50
0.0
 51
90.0
  0
LINE
  5
449
  8
ZYL_40_ISO6431-4A
 10
543.2906285623817
 20
231.62331857086329
 30
0.0
 11
543.2906285623817
 21
212.62331857086329
 31
0.0
  0
LINE
  5
44A
  8
ZYL_40_ISO6431-4A
 10
515.79062856238158
 20
204.12331857086329
 30
0.0
 11
534.7906285623817
 21
204.12331857086329
 31
0.0
  0
ARC
  5
44B
  8
ZYL_40_ISO6431-4A
 10
534.7906285623817
 20
212.62331857086329
 30
0.0
 40
8.5
 50
270.0
 51
0.0
  0
LINE
  5
44C
  8
ZYL_40_ISO6431-4A
 10
515.79062856238158
 20
204.12331857086329
 30
0.0
 11
496.7906285623817
 21
204.12331857086329
 31
0.0
  0
LINE
  5
44D
  8
ZYL_40_ISO6431-4A
 10
488.2906285623817
 20
231.62331857086329
 30
0.0
 11
488.2906285623817
 21
212.62331857086329
 31
0.0
  0
ARC
  5
44E
  8
ZYL_40_ISO6431-4A
 10
496.7906285623817
 20
212.62331857086329
 30
0.0
 40
8.5
 50
180.0
 51
270.0
  0
CIRCLE
  5
44F
  8
ZYL_40_ISO6431-4A
 10
515.79062856238158
 20
231.62331857086329
 30
0.0
 40
8.0
  0
CIRCLE
  5
450
  8
ZYL_40_ISO6431-4A
 10
515.79062856238158
 20
231.62331857086329
 30
0.0
 40
6.0
  0
ARC
  5
451
  8
ZYL_40_ISO6431-4
 10
515.79062856238158
 20
231.62331857086329
 30
0.0
 40
5.2332099999999988
 50
200.0
 51
110.0
  0
LINE
  5
452
  8
ZYL_40_ISO6431-4A
 10
511.12693856238172
 20
238.12331857086329
 30
0.0
 11
520.45431856238156
 21
238.12331857086329
 31
0.0
  0
LINE
  5
453
  8
ZYL_40_ISO6431-4A
 10
511.12693856238172
 20
225.12331857086329
 30
0.0
 11
520.45431856238156
 21
225.12331857086329
 31
0.0
  0
CIRCLE
  5
454
  8
MSL_F16_40-0
 10
515.79062856238158
 20
231.62331857086329
 30
0.0
 40
17.5
  0
LINE
  5
456
  8
ZYL_40_ISO6431-7
 10
477.29062856238158
 20
231.62331688797329
 30
0.0
 11
554.2906285623817
 21
231.62332025375329
 31
0.0
  0
LINE
  5
457
  8
ZYL_40_ISO6431-7
 10
515.79063024527159
 20
193.12331857086329
 30
0.0
 11
515.79062687949158
 21
270.12331857086338
 31
0.0
  0
LINE
  5
478
  8
ZYL_40_ISO6431-7
 10
519.29062856238158
 20
262.12331857086332
 30
0.0
 11
519.29062856238158
 21
252.54481857086341
 31
0.0
  0
LINE
  5
479
  8
ZYL_40_ISO6431-3
 10
512.71212856238174
 20
259.12331857086332
 30
0.0
 11
512.71212856238174
 21
252.54481857086341
 31
0.0
  0
LINE
  5
47A
  8
ZYL_40_ISO6431-3
 10
513.56812856238162
 20
259.12331857086332
 30
0.0
 11
513.56812856238162
 21
252.54481857086341
 31
0.0
  0
LINE
  5
47B
  8
ZYL_40_ISO6431-3
 10
525.86912856238155
 20
259.12331857086332
 30
0.0
 11
525.86912856238155
 21
252.54481857086341
 31
0.0
  0
LINE
  5
47C
  8
ZYL_40_ISO6431-3
 10
525.01312856238155
 20
259.12331857086332
 30
0.0
 11
525.01312856238155
 21
252.54481857086341
 31
0.0
  0
LINE
  5
47D
  8
ZYL_40_ISO6431-4A
 10
510.3057985623816
 20
241.12331857086329
 30
0.0
 11
504.8209285623816
 21
231.6233180913643
 31
0.0
  0
LINE
  5
47E
  8
ZYL_40_ISO6431-4A
 10
504.8209285623816
 20
231.6233180913643
 30
0.0
 11
510.3057985623816
 21
222.12331857086329
 31
0.0
  0
LINE
  5
47F
  8
ZYL_40_ISO6431-4A
 10
510.3057985623816
 20
222.12331857086329
 30
0.0
 11
521.27545856238169
 21
222.12331857086329
 31
0.0
  0
LINE
  5
480
  8
ZYL_40_ISO6431-4A
 10
521.27545856238169
 20
222.12331857086329
 30
0.0
 11
526.76032856238169
 21
231.62331870167529
 31
0.0
  0
LINE
  5
481
  8
ZYL_40_ISO6431-4A
 10
526.76032856238169
 20
231.62331870167529
 30
0.0
 11
521.27544856238171
 21
241.12331857086329
 31
0.0
  0
LINE
  5
482
  8
ZYL_40_ISO6431-4A
 10
510.3057985623816
 20
241.12331857086329
 30
0.0
 11
521.27544856238171
 21
241.12331857086329
 31
0.0
  0
CIRCLE
  5
483
  8
ZYL_40_ISO6431-4A
 10
515.79062856238158
 20
231.62331857086329
 30
0.0
 40
9.5
  0
CIRCLE
  5
484
  8
ZYL_40_ISO6431-4A
 10
515.79062856238158
 20
231.62331857086329
 30
0.0
 40
6.0625
  0
LINE
  5
488
  8
ZYL_40_ISO6431-4A
 10
423.47419627724958
 20
124.93210826924251
 30
0.0
 11
423.47419627724958
 21
142.43210826924249
 31
0.0
  0
LINE
  5
489
  8
ZYL_40_ISO6431-4A
 10
423.47419627724958
 20
142.43210826924249
 30
0.0
 11
419.47419627724958
 21
142.43210826924249
 31
0.0
  0
LINE
  5
48A
  8
ZYL_40_ISO6431-4A
 10
419.47419627724958
 20
142.43210826924249
 30
0.0
 11
419.47419627724958
 21
152.43210826924249
 31
0.0
  0
LINE
  5
48B
  8
ZYL_40_ISO6431-4A
 10
419.47419627724958
 20
152.43210826924249
 30
0.0
 11
393.47419627724952
 21
152.43210826924249
 31
0.0
  0
LINE
  5
48C
  8
ZYL_40_ISO6431-4A
 10
393.47419627724952
 20
152.43210826924249
 30
0.0
 11
393.47419627724952
 21
150.43210826924249
 31
0.0
  0
LINE
  5
48D
  8
ZYL_40_ISO6431-4A
 10
393.47419627724952
 20
150.43210826924249
 30
0.0
 11
340.47419627724952
 21
150.43210826924249
 31
0.0
  0
LINE
  5
48E
  8
ZYL_40_ISO6431-4A
 10
340.47419627724952
 20
150.43210826924249
 30
0.0
 11
340.47419627724952
 21
152.43210826924249
 31
0.0
  0
LINE
  5
48F
  8
ZYL_40_ISO6431-4A
 10
340.47419627724952
 20
152.43210826924249
 30
0.0
 11
314.47419627724952
 21
152.43210826924249
 31
0.0
  0
LINE
  5
490
  8
ZYL_40_ISO6431-4A
 10
314.47419627724952
 20
152.43210826924249
 30
0.0
 11
314.47419627724952
 21
149.93210826924249
 31
0.0
  0
LINE
  5
492
  8
ZYL_40_ISO6431-3
 10
303.97419627724952
 20
142.43210826924249
 30
0.0
 11
292.97419627724952
 21
141.93710826924249
 31
0.0
1001
GENIUS_GENBH_13
1002
{
1000
OE
1000
CON1
1002
}
1001
GENIUS_GENOREF_13
1005
579
  0
LINE
  5
493
  8
ZYL_40_ISO6431-3
 10
292.97419627724952
 20
141.93710826924249
 30
0.0
 11
292.97419627724952
 21
107.9271082692425
 31
0.0
1001
GENIUS_GENBH_13
1002
{
1000
OE
1000
CON1
1002
}
1001
GENIUS_GENOREF_13
1005
579
  0
LINE
  5
494
  8
ZYL_40_ISO6431-3
 10
292.97419627724952
 20
107.9271082692425
 30
0.0
 11
303.97419627724952
 21
107.43210826924251
 31
0.0
1001
GENIUS_GENBH_13
1002
{
1000
OE
1000
CON1
1002
}
1001
GENIUS_GENOREF_13
1005
579
  0
LINE
  5
496
  8
ZYL_40_ISO6431-4A
 10
314.47419627724952
 20
99.932108269242576
 30
0.0
 11
314.47419627724952
 21
97.432108269242576
 31
0.0
  0
LINE
  5
497
  8
ZYL_40_ISO6431-4A
 10
314.47419627724952
 20
97.432108269242576
 30
0.0
 11
340.47419627724952
 21
97.432108269242576
 31
0.0
  0
LINE
  5
498
  8
ZYL_40_ISO6431-4A
 10
340.47419627724952
 20
97.432108269242576
 30
0.0
 11
340.47419627724952
 21
99.432108269242576
 31
0.0
  0
LINE
  5
499
  8
ZYL_40_ISO6431-4A
 10
340.47419627724952
 20
99.432108269242576
 30
0.0
 11
393.47419627724952
 21
99.432108269242576
 31
0.0
  0
LINE
  5
49A
  8
ZYL_40_ISO6431-4A
 10
393.47419627724952
 20
99.432108269242576
 30
0.0
 11
393.47419627724952
 21
97.432108269242576
 31
0.0
  0
LINE
  5
49B
  8
ZYL_40_ISO6431-4A
 10
393.47419627724952
 20
97.432108269242576
 30
0.0
 11
419.47419627724958
 21
97.432108269242576
 31
0.0
  0
LINE
  5
49C
  8
ZYL_40_ISO6431-4A
 10
419.47419627724958
 20
97.432108269242576
 30
0.0
 11
419.47419627724958
 21
107.43210826924251
 31
0.0
  0
LINE
  5
49D
  8
ZYL_40_ISO6431-4A
 10
419.47419627724958
 20
107.43210826924251
 30
0.0
 11
423.47419627724958
 21
107.43210826924251
 31
0.0
  0
LINE
  5
49E
  8
ZYL_40_ISO6431-4A
 10
423.47419627724958
 20
107.43210826924251
 30
0.0
 11
423.47419627724958
 21
124.93210826924251
 31
0.0
  0
LINE
  5
49F
  8
ZYL_40_ISO6431-4A
 10
419.47419627724958
 20
142.43210826924249
 30
0.0
 11
419.47419627724958
 21
107.43210826924251
 31
0.0
  0
LINE
  5
4A0
  8
ZYL_40_ISO6431-4A
 10
393.47419627724952
 20
150.43210826924249
 30
0.0
 11
393.47419627724952
 21
99.432108269242576
 31
0.0
  0
LINE
  5
4A1
  8
ZYL_40_ISO6431-4A
 10
340.47419627724952
 20
150.43210826924249
 30
0.0
 11
340.47419627724952
 21
99.432108269242576
 31
0.0
  0
LINE
  5
4A3
  8
ZYL_40_ISO6431-3
 10
303.97419627724952
 20
142.43210826924249
 30
0.0
 11
303.97419627724952
 21
107.43210826924251
 31
0.0
1001
GENIUS_GENBH_13
1002
{
1000
OE
1000
CON1
1002
}
1001
GENIUS_GENOREF_13
1005
579
  0
LINE
  5
4A4
  8
ZYL_40_ISO6431-4A
 10
393.47419627724952
 20
104.7354082692425
 30
0.0
 11
340.47419627724952
 21
104.7354082692425
 31
0.0
  0
LINE
  5
4A5
  8
ZYL_40_ISO6431-4A
 10
393.47419627724952
 20
145.12880826924251
 30
0.0
 11
340.47419627724952
 21
145.12880826924251
 31
0.0
  0
LINE
  5
4A6
  8
ZYL_40_ISO6431-4A
 10
240.47419627724949
 20
130.93210826924249
 30
0.0
 11
231.4701962772495
 21
130.93210826924249
 31
0.0
1001
GENIUS_GENOREF_13
1005
A0F
  0
LINE
  5
4A7
  8
ZYL_40_ISO6431-4A
 10
240.47419627724949
 20
118.93210826924251
 30
0.0
 11
231.4701962772495
 21
118.93210826924251
 31
0.0
1001
GENIUS_GENOREF_13
1005
A0F
  0
LINE
  5
4A8
  8
ZYL_40_ISO6431-4A
 10
216.47419627724949
 20
130.1653182692425
 30
0.0
 11
217.24099627724951
 21
130.93210826924249
 31
0.0
  0
LINE
  5
4A9
  8
ZYL_40_ISO6431-4A
 10
216.47419627724949
 20
119.69889826924251
 30
0.0
 11
217.24099627724951
 21
118.93210826924251
 31
0.0
  0
LINE
  5
4AA
  8
ZYL_40_ISO6431-4A
 10
216.47419627724949
 20
130.1653182692425
 30
0.0
 11
216.47419627724949
 21
119.69889826924251
 31
0.0
  0
LINE
  5
4AB
  8
ZYL_40_ISO6431-4
 10
216.47419627724949
 20
130.1653182692425
 30
0.0
 11
225.47819627724951
 21
130.1653182692425
 31
0.0
1001
GENIUS_GENOREF_13
1005
A0F
  0
LINE
  5
4AC
  8
ZYL_40_ISO6431-4
 10
216.47419627724949
 20
119.69889826924251
 30
0.0
 11
225.47819627724951
 21
119.69889826924251
 31
0.0
1001
GENIUS_GENOREF_13
1005
A0F
  0
LINE
  5
4AD
  8
ZYL_40_ISO6431-4
 10
217.24099627724951
 20
130.93210826924249
 30
0.0
 11
217.24099627724951
 21
118.93210826924251
 31
0.0
  0
LINE
  5
4AE
  8
ZYL_40_ISO6431-3
 10
292.97419627724952
 20
132.93210826924249
 30
0.0
 11
249.4741962772496
 21
132.93210826924249
 31
0.0
1001
GENIUS_GENBH_13
1002
{
1000
OE
1000
CON1
1002
}
1001
GENIUS_GENOREF_13
1005
579
  0
LINE
  5
4AF
  8
ZYL_40_ISO6431-4A
 10
240.47419627724949
 20
132.93210826924249
 30
0.0
 11
240.47419627724949
 21
116.93210826924251
 31
0.0
  0
LINE
  5
4B0
  8
ZYL_40_ISO6431-4A
 10
240.47419627724949
 20
116.93210826924251
 30
0.0
 11
249.4741962772496
 21
116.93210826924251
 31
0.0
1001
GENIUS_GENOREF_13
1005
579
  0
LINE
  5
4B1
  8
ZYL_40_ISO6431-4A
 10
240.47419627724949
 20
129.59579826924249
 30
0.0
 11
245.80752627724951
 21
129.59579826924249
 31
0.0
  0
LINE
  5
4B2
  8
ZYL_40_ISO6431-4A
 10
240.47419627724949
 20
120.2684182692425
 30
0.0
 11
245.80752627724951
 21
120.2684182692425
 31
0.0
  0
LINE
  5
4B3
  8
ZYL_40_ISO6431-4A
 10
245.80752627724951
 20
129.59579826924249
 30
0.0
 11
245.80752627724951
 21
120.2684182692425
 31
0.0
  0
LINE
  5
4B4
  8
ZYL_40_ISO6431-4
 10
240.47419627724949
 20
129.59579826924249
 30
0.0
 11
245.80752627724951
 21
120.2684182692425
 31
0.0
  0
LINE
  5
4B5
  8
ZYL_40_ISO6431-4
 10
245.80752627724951
 20
129.59579826924249
 30
0.0
 11
240.47419627724949
 21
120.2684182692425
 31
0.0
  0
LINE
  5
4B6
  8
ZYL_40_ISO6431-7
 10
213.47419627724949
 20
124.93210826924251
 30
0.0
 11
426.47419627724952
 21
124.93210826924251
 31
0.0
  0
LINE
  5
4B7
  8
ZYL_40_ISO6431-4A
 10
324.47419627724952
 20
152.43210826924249
 30
0.0
 11
324.47419627724952
 21
137.43210826924249
 31
0.0
  0
LINE
  5
4B8
  8
ZYL_40_ISO6431-4A
 10
409.47419627724952
 20
152.43210826924249
 30
0.0
 11
409.47419627724952
 21
137.43210826924249
 31
0.0
  0
LINE
  5
4B9
  8
ZYL_40_ISO6431-4A
 10
409.47419627724952
 20
97.432108269242576
 30
0.0
 11
409.47419627724952
 21
112.43210826924251
 31
0.0
  0
LINE
  5
4BA
  8
ZYL_40_ISO6431-4A
 10
324.47419627724952
 20
97.432108269242576
 30
0.0
 11
324.47419627724952
 21
112.43210826924251
 31
0.0
  0
LINE
  5
4BB
  8
ZYL_40_ISO6431-4A
 10
324.47419627724952
 20
137.43210826924249
 30
0.0
 11
314.47419627724952
 21
137.43210826924249
 31
0.0
  0
LINE
  5
4BC
  8
ZYL_40_ISO6431-4A
 10
409.47419627724952
 20
137.43210826924249
 30
0.0
 11
419.47419627724958
 21
137.43210826924249
 31
0.0
  0
LINE
  5
4BD
  8
ZYL_40_ISO6431-4A
 10
409.47419627724952
 20
112.43210826924251
 30
0.0
 11
419.47419627724958
 21
112.43210826924251
 31
0.0
  0
LINE
  5
4BE
  8
ZYL_40_ISO6431-4A
 10
324.47419627724952
 20
112.43210826924251
 30
0.0
 11
314.47419627724952
 21
112.43210826924251
 31
0.0
  0
LINE
  5
4BF
  8
ZYL_40_ISO6431-7
 10
311.47419627724952
 20
143.93210826924249
 30
0.0
 11
330.97419627724952
 21
143.93210826924249
 31
0.0
  0
LINE
  5
4C0
  8
ZYL_40_ISO6431-7
 10
422.47419627724958
 20
143.93210826924249
 30
0.0
 11
402.97419627724952
 21
143.93210826924249
 31
0.0
  0
LINE
  5
4C1
  8
ZYL_40_ISO6431-7
 10
422.47419627724958
 20
105.93210826924251
 30
0.0
 11
402.97419627724952
 21
105.93210826924251
 31
0.0
  0
LINE
  5
4C3
  8
MSL_F16_40-3
 10
314.47419627724952
 20
146.93210826924249
 30
0.0
 11
330.97419627724952
 21
146.93210826924249
 31
0.0
  0
LINE
  5
4C4
  8
ZYL_40_ISO6431-3
 10
419.47419627724958
 20
146.93210826924249
 30
0.0
 11
402.97419627724952
 21
146.93210826924249
 31
0.0
  0
LINE
  5
4C5
  8
ZYL_40_ISO6431-3
 10
419.47419627724958
 20
102.93210826924251
 30
0.0
 11
402.97419627724952
 21
102.93210826924251
 31
0.0
  0
LINE
  5
4C7
  8
MSL_F16_40-3
 10
314.47419627724952
 20
146.3186082692425
 30
0.0
 11
330.97419627724952
 21
146.3186082692425
 31
0.0
  0
LINE
  5
4C8
  8
ZYL_40_ISO6431-3
 10
419.47419627724958
 20
146.3186082692425
 30
0.0
 11
402.97419627724952
 21
146.3186082692425
 31
0.0
  0
LINE
  5
4C9
  8
ZYL_40_ISO6431-3
 10
419.47419627724958
 20
103.54560826924251
 30
0.0
 11
402.97419627724952
 21
103.54560826924251
 31
0.0
  0
LINE
  5
4CB
  8
MSL_F16_40-3
 10
314.47419627724952
 20
140.93210826924249
 30
0.0
 11
330.97419627724952
 21
140.93210826924249
 31
0.0
  0
LINE
  5
4CC
  8
ZYL_40_ISO6431-3
 10
419.47419627724958
 20
140.93210826924249
 30
0.0
 11
402.97419627724952
 21
140.93210826924249
 31
0.0
  0
LINE
  5
4CD
  8
ZYL_40_ISO6431-3
 10
419.47419627724958
 20
108.93210826924251
 30
0.0
 11
402.97419627724952
 21
108.93210826924251
 31
0.0
  0
LINE
  5
4CF
  8
MSL_F16_40-3
 10
314.47419627724952
 20
141.54560826924251
 30
0.0
 11
330.97419627724952
 21
141.54560826924251
 31
0.0
  0
LINE
  5
4D0
  8
ZYL_40_ISO6431-3
 10
419.47419627724958
 20
141.54560826924251
 30
0.0
 11
402.97419627724952
 21
141.54560826924251
 31
0.0
  0
LINE
  5
4D1
  8
ZYL_40_ISO6431-3
 10
419.47419627724958
 20
108.3186082692425
 30
0.0
 11
402.97419627724952
 21
108.3186082692425
 31
0.0
  0
LINE
  5
4D3
  8
ZYL_40_ISO6431-4A
 10
314.47419627724952
 20
137.93210826924249
 30
0.0
 11
324.47419627724952
 21
137.93210826924249
 31
0.0
  0
LINE
  5
4D4
  8
ZYL_40_ISO6431-4A
 10
419.47419627724958
 20
137.93210826924249
 30
0.0
 11
409.47419627724952
 21
137.93210826924249
 31
0.0
  0
LINE
  5
4D5
  8
ZYL_40_ISO6431-4A
 10
419.47419627724958
 20
111.93210826924251
 30
0.0
 11
409.47419627724952
 21
111.93210826924251
 31
0.0
  0
LINE
  5
4D6
  8
ZYL_40_ISO6431-4A
 10
314.47419627724952
 20
111.93210826924251
 30
0.0
 11
324.47419627724952
 21
111.93210826924251
 31
0.0
  0
LINE
  5
4D7
  8
ZYL_40_ISO6431-4A
 10
314.47419627724952
 20
149.93210826924249
 30
0.0
 11
324.47419627724952
 21
149.93210826924249
 31
0.0
  0
LINE
  5
4D8
  8
ZYL_40_ISO6431-4A
 10
419.47419627724958
 20
149.93210826924249
 30
0.0
 11
409.47419627724952
 21
149.93210826924249
 31
0.0
  0
LINE
  5
4D9
  8
ZYL_40_ISO6431-4A
 10
419.47419627724958
 20
99.932108269242576
 30
0.0
 11
409.47419627724952
 21
99.932108269242576
 31
0.0
  0
LINE
  5
4DA
  8
ZYL_40_ISO6431-4A
 10
314.47419627724952
 20
99.932108269242576
 30
0.0
 11
324.47419627724952
 21
99.932108269242576
 31
0.0
  0
CIRCLE
  5
4DB
  8
ZYL_40_ISO6431-4A
 10
328.47419627724952
 20
121.43210826924251
 30
0.0
 40
5.7225000000000001
  0
CIRCLE
  5
4DC
  8
ZYL_40_ISO6431-4A
 10
405.47419627724952
 20
121.43210826924251
 30
0.0
 40
5.7225000000000001
  0
ARC
  5
4DD
  8
ZYL_40_ISO6431-4
 10
328.47419627724952
 20
121.43210826924251
 30
0.0
 40
6.5785
 50
110.0
 51
20.0
  0
ARC
  5
4DE
  8
ZYL_40_ISO6431-4
 10
405.47419627724952
 20
121.43210826924251
 30
0.0
 40
6.5785
 50
160.0
 51
70.0
  0
LINE
  5
4DF
  8
ZYL_40_ISO6431-7
 10
328.47419627724952
 20
129.4436082692425
 30
0.0
 11
328.47419627724952
 21
113.42060826924251
 31
0.0
  0
LINE
  5
4E0
  8
ZYL_40_ISO6431-7
 10
405.47419627724952
 20
129.4436082692425
 30
0.0
 11
405.47419627724952
 21
113.42060826924251
 31
0.0
  0
LINE
  5
4E1
  8
ZYL_40_ISO6431-7
 10
320.46269627724951
 20
121.43210826924251
 30
0.0
 11
336.48569627724959
 21
121.43210826924251
 31
0.0
  0
LINE
  5
4E2
  8
ZYL_40_ISO6431-7
 10
413.48619627724952
 20
121.43210826924251
 30
0.0
 11
397.46319627724949
 21
121.43210826924251
 31
0.0
  0
LINE
  5
4E3
  8
ZYL_40_ISO6431-4A
 10
337.72389627724959
 20
138.49800826924249
 30
0.0
 11
330.70829627724947
 21
131.4823582692425
 31
0.0
  0
LINE
  5
4E4
  8
ZYL_40_ISO6431-4A
 10
396.22419627724952
 20
138.49800826924249
 30
0.0
 11
403.24019627724948
 21
131.4823582692425
 31
0.0
  0
LINE
  5
4E5
  8
ZYL_40_ISO6431-4A
 10
336.84009627724947
 20
139.3818082692425
 30
0.0
 11
329.82449627724952
 21
132.3662482692425
 31
0.0
  0
LINE
  5
4E6
  8
ZYL_40_ISO6431-4A
 10
397.10819627724948
 20
139.3818082692425
 30
0.0
 11
404.1241962772495
 21
132.3662482692425
 31
0.0
  0
CIRCLE
  5
4E7
  8
ZYL_40_ISO6431-4A
 10
333.77419627724947
 20
135.43210826924249
 30
0.0
 40
5.0
  0
CIRCLE
  5
4E8
  8
ZYL_40_ISO6431-4A
 10
400.17419627724951
 20
135.43210826924249
 30
0.0
 40
5.0
  0
LINE
  5
4E9
  8
ZYL_40_ISO6431-4A
 10
231.08031627724949
 20
135.90210826924249
 30
0.0
 11
228.47419627724949
 21
135.90210826924249
 31
0.0
1001
GENIUS_GENOREF_13
1005
A0E
  0
LINE
  5
4EA
  8
ZYL_40_ISO6431-4A
 10
225.86809627724949
 20
135.90210826924249
 30
0.0
 11
228.47419627724949
 21
135.90210826924249
 31
0.0
1001
GENIUS_GENOREF_13
1005
A0E
  0
LINE
  5
4EB
  8
ZYL_40_ISO6431-4A
 10
225.86809627724949
 20
113.96210826924251
 30
0.0
 11
228.47419627724949
 21
113.96210826924251
 31
0.0
1001
GENIUS_GENOREF_13
1005
A0E
  0
LINE
  5
4EC
  8
ZYL_40_ISO6431-4A
 10
231.08031627724949
 20
113.96210826924251
 30
0.0
 11
228.47419627724949
 21
113.96210826924251
 31
0.0
1001
GENIUS_GENOREF_13
1005
A0E
  0
LINE
  5
4ED
  8
ZYL_40_ISO6431-4A
 10
231.08031627724949
 20
130.4170982692425
 30
0.0
 11
228.47419627724949
 21
130.4170982692425
 31
0.0
  0
LINE
  5
4EE
  8
ZYL_40_ISO6431-4A
 10
225.86809627724949
 20
130.4170982692425
 30
0.0
 11
228.47419627724949
 21
130.4170982692425
 31
0.0
  0
LINE
  5
4EF
  8
ZYL_40_ISO6431-4A
 10
225.86809627724949
 20
119.44711826924249
 30
0.0
 11
228.47419627724949
 21
119.44711826924249
 31
0.0
  0
LINE
  5
4F0
  8
ZYL_40_ISO6431-4A
 10
231.08031627724949
 20
119.44711826924249
 30
0.0
 11
228.47419627724949
 21
119.44711826924249
 31
0.0
  0
ARC
  5
4F1
  8
ZYL_40_ISO6431-4A
 10
192.69259627724949
 20
124.93210826924251
 30
0.0
 40
38.7776
 50
0.8594370000000001
 51
8.1316100000000002
  0
ARC
  5
4F2
  8
ZYL_40_ISO6431-4A
 10
264.25579627724949
 20
124.93210826924251
 30
0.0
 40
38.7776
 50
171.86799999999991
 51
179.14099999999991
  0
ARC
  5
4F3
  8
ZYL_40_ISO6431-4A
 10
264.25579627724949
 20
124.93210826924251
 30
0.0
 40
38.7776
 50
180.85900000000001
 51
188.13200000000001
  0
ARC
  5
4F4
  8
ZYL_40_ISO6431-4A
 10
192.69259627724949
 20
124.93210826924251
 30
0.0
 40
38.7776
 50
351.86838999999992
 51
359.14056299999999
  0
LINE
  5
4F5
  8
ZYL_40_ISO6431-4A
 10
231.46583627724959
 20
125.51375026924249
 30
0.0
 11
231.4701962772495
 21
124.93210826924251
 31
0.0
  0
LINE
  5
4F6
  8
ZYL_40_ISO6431-4A
 10
225.48259627724951
 20
125.51375026924249
 30
0.0
 11
225.47819627724951
 21
124.93210826924251
 31
0.0
  0
LINE
  5
4F7
  8
ZYL_40_ISO6431-4A
 10
225.48259627724951
 20
124.3504662692425
 30
0.0
 11
225.47819627724951
 21
124.93210826924251
 31
0.0
  0
LINE
  5
4F8
  8
ZYL_40_ISO6431-4A
 10
231.46583627724959
 20
124.3504662692425
 30
0.0
 11
231.4701962772495
 21
124.93210826924251
 31
0.0
  0
ARC
  5
4F9
  8
ZYL_40_ISO6431-4A
 10
221.33569627724961
 20
133.15958826924251
 30
0.0
 40
10.13449999999999
 50
344.28149999999988
 51
0.0
  0
ARC
  5
4FA
  8
ZYL_40_ISO6431-4A
 10
235.61270627724949
 20
133.15958826924251
 30
0.0
 40
10.123200000000001
 50
180.0
 51
195.71899999999999
  0
ARC
  5
4FB
  8
ZYL_40_ISO6431-4A
 10
235.61270627724949
 20
116.70462826924251
 30
0.0
 40
10.13449999999999
 50
164.28099999999989
 51
180.0
  0
ARC
  5
4FC
  8
ZYL_40_ISO6431-4A
 10
221.33569627724961
 20
116.70462826924251
 30
0.0
 40
10.123200000000001
 50
0.0
 51
15.71849999999999
  0
ARC
  5
4FD
  8
ZYL_40_ISO6431-4A
 10
221.33569627724961
 20
133.15958826924251
 30
0.0
 40
10.123200000000001
 50
0.0
 51
15.71849999999999
1001
GENIUS_GENOREF_13
1005
A0E
  0
ARC
  5
4FE
  8
ZYL_40_ISO6431-4A
 10
235.61270627724949
 20
133.15958826924251
 30
0.0
 40
10.13449999999999
 50
164.28099999999989
 51
180.0
1001
GENIUS_GENOREF_13
1005
A0E
  0
ARC
  5
4FF
  8
ZYL_40_ISO6431-4A
 10
235.61270627724949
 20
116.70462826924251
 30
0.0
 40
10.123200000000001
 50
180.0
 51
195.71899999999999
1001
GENIUS_GENOREF_13
1005
A0E
  0
ARC
  5
500
  8
ZYL_40_ISO6431-4A
 10
221.33569627724961
 20
116.70462826924251
 30
0.0
 40
10.13449999999999
 50
344.28149999999988
 51
0.0
1001
GENIUS_GENOREF_13
1005
A0E
  0
LINE
  5
501
  8
ZYL_40_ISO6431-4A
 10
231.4701962772495
 20
133.15958826924251
 30
0.0
 11
231.4701962772495
 21
124.93210826924251
 31
0.0
1001
GENIUS_GENOREF_13
1005
A0E
  0
LINE
  5
502
  8
ZYL_40_ISO6431-4A
 10
225.47819627724951
 20
133.15958826924251
 30
0.0
 11
225.47819627724951
 21
124.93210826924251
 31
0.0
1001
GENIUS_GENOREF_13
1005
A0E
  0
LINE
  5
503
  8
ZYL_40_ISO6431-4A
 10
225.47819627724951
 20
116.70462826924251
 30
0.0
 11
225.47819627724951
 21
124.93210826924251
 31
0.0
1001
GENIUS_GENOREF_13
1005
A0E
  0
LINE
  5
504
  8
ZYL_40_ISO6431-4A
 10
231.4701962772495
 20
116.70462826924251
 30
0.0
 11
231.4701962772495
 21
124.93210826924251
 31
0.0
1001
GENIUS_GENOREF_13
1005
A0E
  0
LINE
  5
576
  8
ZYL_40_ISO6431-3
 10
249.4741962772496
 20
116.93210826924251
 30
0.0
 11
292.97419627724952
 21
116.93210826924251
 31
0.0
1001
GENIUS_GENBH_13
1002
{
1000
OE
1000
CON1
1002
}
1001
GENIUS_GENOREF_13
1005
579
  0
LINE
  5
577
  8
ZYL_40_ISO6431-4A
 10
249.4741962772496
 20
132.93210826924249
 30
0.0
 11
240.47419627724949
 21
132.93210826924249
 31
0.0
1001
GENIUS_GENOREF_13
1005
579
  0
POINT
  5
579
  8
0
 10
0.0
 20
0.0
 30
0.0
1001
GENIUS_GENBH_13
1002
{
1000
FGO
1005
578
1002
}
1001
GENIUS_GENODEF_13
1002
{
1000
HIER
1070
     1
1002
}
1002
{
1000
MANEDIT
1070
     0
1002
}
1002
{
1000
NOSEL
1070
     1
1002
}
1002
{
1000
BEHIND
1070
     0
1002
}
1002
{
1000
REACTOR
1002
}
1001
GENIUS_GENOBJ-NBEHI-BHB_13
1002
{
1000
OWNER
1000
GENBEHI
1002
}
1001
GENIUS_GENOENT_13
1002
{
1000
MYREF
1005
579
1002
}
1002
{
1000
GRP
1005
0
1002
}
1001
GENIUS_GENOLIS_13
1002
{
1000
ENT
1005
577
1005
576
1005
494
1005
492
1005
4A3
1005
493
1005
4AE
1005
4B0
1002
}
  0
POLYLINE
  5
581
  8
MSL_F16_40-5
 66
     1
 10
0.0
 20
0.0
 30
0.0
 41
0.8367130454073241
1001
GENIUS_GENHINW_13
1000
UCSORG
1010
0.0
1020
0.0
1030
0.0
1000
UCSXDIR
1010
1.0
1020
0.0
1030
0.0
1000
UCSYDIR
1010
0.0
1020
1.0
1030
0.0
1000
HEADTYPE
1070
     8
1000
ENDTYPE
1070
   100
1000
PSTA
1011
249.4741962772496
1021
0.0
1031
0.0
1021
132.93210826924249
1031
0.0
1000
PVERTEX
1011
252.47419627724949
1021
0.0
1031
0.0
1021
135.93210826924249
1031
0.0
1000
TEXTVERHOR
1070
     0
1000
TYPE
1070
     2
1000
GENZICIR
1040
1.5
1000
OBJ_USEPSTA
1070
     0
1000
ENDLAYER
1000
POSL
1000
TEXTLAYER
1000
POSN
1001
GENIUS_GENOREF_13
1005
586
  0
VERTEX
  5
582
  8
MSL_F16_40-5
 10
249.4741962772496
 20
132.93210826924249
 30
0.0
  0
VERTEX
  5
583
  8
MSL_F16_40-5
 10
251.2419632302159
 20
134.6998752222089
 30
0.0
 41
0.0
  0
VERTEX
  5
584
  8
MSL_F16_40-5
 10
252.47419627724949
 20
135.93210826924249
 30
0.0
 41
0.0
  0
SEQEND
  5
585
  8
MSL_F16_40-5
  0
POINT
  5
586
  8
0
 62
     7
 10
0.0
 20
0.0
 30
0.0
1001
GENIUS_GENODEF_13
1002
{
1000
HIER
1070
   100
1002
}
1002
{
1000
MANEDIT
1070
     0
1002
}
1002
{
1000
NOSEL
1070
     0
1002
}
1002
{
1000
BEHIND
1070
     0
1002
}
1002
{
1000
REACTOR
1002
}
1001
GENIUS_GENOBJ-N-LEADER_13
1002
{
1000
OWNER
1000
GEN
1002
}
1001
GENIUS_GENOENT_13
1002
{
1000
MYREF
1005
586
1002
}
1002
{
1000
GRP
1005
0
1002
}
1001
GENIUS_GENOLIS_13
1002
{
1000
ENT
1005
581
1002
}
  0
POLYLINE
  5
588
  8
MSL_F16_40-5
 66
     1
 10
0.0
 20
0.0
 30
0.0
 41
0.8367130454073241
1001
GENIUS_GENHINW_13
1000
UCSORG
1010
0.0
1020
0.0
1030
0.0
1000
UCSXDIR
1010
1.0
1020
0.0
1030
0.0
1000
UCSYDIR
1010
0.0
1020
1.0
1030
0.0
1000
HEADTYPE
1070
     8
1000
ENDTYPE
1070
   100
1000
PSTA
1011
249.4741962772496
1021
0.0
1031
0.0
1021
116.93210826924251
1031
0.0
1000
PVERTEX
1011
252.47419627724949
1021
0.0
1031
0.0
1021
113.93210826924251
1031
0.0
1000
TEXTVERHOR
1070
     0
1000
TYPE
1070
     2
1000
GENZICIR
1040
1.5
1000
OBJ_USEPSTA
1070
     0
1000
ENDLAYER
1000
POSL
1000
TEXTLAYER
1000
POSN
1001
GENIUS_GENOREF_13
1005
58D
  0
VERTEX
  5
589
  8
MSL_F16_40-5
 10
249.4741962772496
 20
116.93210826924251
 30
0.0
  0
VERTEX
  5
58A
  8
MSL_F16_40-5
 10
251.2419632302159
 20
115.16434131627609
 30
0.0
 41
0.0
  0
VERTEX
  5
58B
  8
MSL_F16_40-5
 10
252.47419627724949
 20
113.93210826924251
 30
0.0
 41
0.0
  0
SEQEND
  5
58C
  8
MSL_F16_40-5
  0
POINT
  5
58D
  8
0
 62
     7
 10
0.0
 20
0.0
 30
0.0
1001
GENIUS_GENODEF_13
1002
{
1000
HIER
1070
   100
1002
}
1002
{
1000
MANEDIT
1070
     0
1002
}
1002
{
1000
NOSEL
1070
     0
1002
}
1002
{
1000
BEHIND
1070
     0
1002
}
1002
{
1000
REACTOR
1002
}
1001
GENIUS_GENOBJ-N-LEADER_13
1002
{
1000
OWNER
1000
GEN
1002
}
1001
GENIUS_GENOENT_13
1002
{
1000
MYREF
1005
58D
1002
}
1002
{
1000
GRP
1005
0
1002
}
1001
GENIUS_GENOLIS_13
1002
{
1000
ENT
1005
588
1002
}
  0
LINE
  5
58E
  8
MSL_F16_40-3
 10
271.84094669654093
 20
114.93210826924251
 30
0.0
 11
265.47419627724952
 21
114.93210826924251
 31
0.0
  0
LINE
  5
58F
  8
MSL_F16_40-3
 10
271.84094669653649
 20
134.93210826924249
 30
0.0
 11
265.47419627724952
 21
134.93210826924249
 31
0.0
  0
INSERT
  5
5DC
  8
MSL_F16_40-0
  2
*U15
 10
306.47419627724952
 20
143.93210826924249
 30
0.0
1001
GENIUS_GEFPARTINS_13
1002
{
1011
306.47419627724952
1021
0.0
1031
0.0
1021
143.93210826924249
1031
0.0
1013
1.0
1023
0.0
1033
0.0
1023
0.0
1033
0.0
1002
}
1001
GENIUS_GENBH_13
1002
{
1000
REFI
1005
619
1002
}
1001
VCC
1002
{
1002
}
1001
GEVIT
1002
{
1000
-BEHI4.00000002
1000
-BVCCT0
1000
-GRP0MSL_F16_40-0
1000
-BAML2
1000
-BASK1
1000
-NT0
1000
-DOC
1005
59C
1000
-MYREF
1005
5DC
1002
}
1001
GEVPT
1002
{
1000
-V$PV_GENSYSTEM"GEF\VAL\DI\0301\DI1602_V.DXF"
1000
-FIXP$VCC_TABLE=C:\GENIUS\gef\val\di\0301\di1602.val
1000
-FIXP$TABLE=C:\GENIUS\gef\val\di\0301\di1602.val
1000
-FIXPLOTI=8
1000
-GPGEF_PROCALC=1
1000
-GPGEF_SNK_ADD=0
1000
-GPGEVPROMPTX=Länge:
1000
-GPGEF_OANG=70
1000
-GPGEF_STANG=210
1000
-GPGEF_DRAG=1
1000
-GPGEF_CDIST=3
1000
-GPGL2=0
1000
-GPGL1=0
1000
-GPGEF_FLIPY=2
1000
-GPGEF_FLIPX=2
1000
-GPHIDE=0
1000
-GPGEVBHOP=2
1000
-GPSELMODE=1
1000
-GPPTC=1
1000
-GPPRE=M
1000
-GPEGR=1
1000
-GPTPU=1
1000
-GPNND=6
1002
}
1001
GEVID884340780
1002
{
1000
-ID31
1002
}
1001
GENIUS_GENOREF_13
1005
60F
1005
612
1005
644
1005
646
  0
INSERT
  5
608
  8
MSL_F16_40-0
  2
*U13
 10
306.47419627724952
 20
143.93210826924249
 30
0.0
1001
GENIUS_GEFPARTINS_13
1002
{
1011
306.47419627724952
1021
0.0
1031
0.0
1021
143.93210826924249
1031
0.0
1013
1.0
1023
0.0
1033
0.0
1023
0.0
1033
0.0
1002
}
1001
VCC
1002
{
1002
}
1001
GEVIT
1002
{
1000
-BEHI4.00000004
1000
-BVCCT0
1000
-GRP0MSL_F16_40-0
1000
-BAML2
1000
-BASK1
1000
-NT0
1000
-DOC
1005
5CA
1000
-MYREF
1005
608
1002
}
1001
GEVPT
1002
{
1000
-V$PV_GENSYSTEM"GEF\VAL\SYS\SPOCK2_S.DXF"
1000
-FIXPL=8
1000
-FIXPH=3.3
1000
-GPGEF_PROCALC=1
1000
-GPGEF_SNK_ADD=0
1000
-GPGEVPROMPTX=Länge:
1000
-GPGEF_OANG=70
1000
-GPGEF_STANG=210
1000
-GPGEF_DRAG=1
1000
-GPGEF_CDIST=3
1000
-GPGL2=0
1000
-GPGL1=0
1000
-GPGEF_FLIPY=2
1000
-GPGEF_FLIPX=2
1000
-GPHIDE=0
1000
-GPGEVBHOP=2
1000
-GPSELMODE=1
1000
-GPPTC=1
1000
-GPPRE=M
1000
-GPEGR=1
1000
-GPTPU=1
1000
-GPNND=6
1002
}
1001
GEVID884340780
1002
{
1000
-ID54
1002
}
1001
GENIUS_GENOREF_13
1005
643
1005
646
  0
INSERT
  5
60E
  8
MSL_F16_40-0N
  2
*U14
 10
306.47419627724952
 20
143.93210826924249
 30
0.0
1001
GENIUS_GEFPARTINS_13
1002
{
1011
306.47419627724952
1021
0.0
1031
0.0
1021
143.93210826924249
1031
0.0
1013
1.0
1023
0.0
1033
0.0
1023
0.0
1033
0.0
1002
}
1001
VCC
1002
{
1000
-ID4
1000
-IE4
1000
-IK4
1000
-V$PV_GENSYSTEM"GEF\VAL\SYS\DUDUS_S.DXF"
1002
}
1001
GEVIT
1002
{
1000
-BEHI4.00000001
1000
-BVCCT0
1000
-GRP0?
1000
-BAML2
1000
-BASK1
1000
-DOC
1005
5D1
1000
-MYREF
1005
60E
1002
}
1001
GEVPT
1002
{
1000
-V$PV_GENSYSTEM"GEF\VAL\SYS\DUDUS_S.DXF"
1000
-FIXPGL2=0
1000
-FIXPPART10=0
1000
-FIXPPART9=0
1000
-FIXPPART8=0
1000
-FIXPPART7=0
1000
-FIXPPART6=0
1000
-FIXPPART5=0
1000
-FIXPDXF4=C:\GENIUS\gef\val\di\0301\di1602_v.dxf
1000
-FIXPTABLE4=C:\GENIUS\gef\val\di\0301\di1602.val
1000
-FIXPPART4=1
1000
-FIXPTABLE3=C:\GENIUS\gef\val\sys\mrbean.val
1000
-FIXPPART3=0
1000
-FIXPTABLE2=C:\GENIUS\gef\val\sys\mrbean.val
1000
-FIXPPART2=0
1000
-FIXPSCRID=2
1000
-FIXPDXF1=C:\GENIUS\gef\val\di\0101\di2401_v.dxf
1000
-FIXPTABLE1=C:\GENIUS\gef\val\di\0101\di2401.val
1000
-FIXPPART1=1
1000
-FIXPSPOCK1=C:\GENIUS\GEF\VAL\SYS\SPOCK2_S.DXF
1000
-FIXPHIDE=1
1000
-FIXPGL1=8
1000
-GPGEF_PROCALC=1
1000
-GPGEF_SNK_ADD=0
1000
-GPGEVPROMPTX=Länge:
1000
-GPGEF_OANG=70
1000
-GPGEF_STANG=210
1000
-GPGEF_DRAG=1
1000
-GPGEF_CDIST=3
1000
-GPGL2=0
1000
-GPGL1=0
1000
-GPGEF_FLIPY=2
1000
-GPGEF_FLIPX=2
1000
-GPHIDE=0
1000
-GPGEVBHOP=2
1000
-GPSELMODE=1
1000
-GPPTC=1
1000
-GPPRE=M
1000
-GPEGR=1
1000
-GPTPU=1
1000
-GPNND=6
1002
}
1001
GEVID884340780
1002
{
1002
}
1001
GENIUS_GENOREF_13
1005
610
1005
612
1005
644
1005
646
  0
POINT
  5
60F
  8
0
 10
0.0
 20
0.0
 30
0.0
1001
GENIUS_GENBH_13
1002
{
1000
BGO
1005
610
1002
}
1002
{
1000
FGLEVEL
1040
4.000000019999999
1002
}
1002
{
1000
FLAGS
1070
    36
1002
}
1002
{
1000
OIUMAP
1000
OIU
1002
}
1002
{
1000
MODIFY
1070
     0
1002
}
1001
GENIUS_GENODEF_13
1002
{
1000
HIER
1070
     1
1002
}
1002
{
1000
MANEDIT
1070
     0
1002
}
1002
{
1000
NOSEL
1070
     1
1002
}
1002
{
1000
BEHIND
1070
     1
1002
}
1002
{
1000
REACTOR
1002
}
1001
GENIUS_GENOBJ-NBEHI-BHF_13
1002
{
1000
OWNER
1000
GENBEHI
1002
}
1001
GENIUS_GENOENT_13
1002
{
1000
MYREF
1005
60F
1002
}
1002
{
1000
GRP
1005
0
1002
}
1001
GENIUS_GENOLIS_13
1002
{
1000
ENT
1005
5DC
1002
}
  0
POINT
  5
610
  8
0
 10
0.0
 20
0.0
 30
0.0
1001
GENIUS_GENBH_13
1002
{
1000
FGO
1005
60F
1002
}
1001
GENIUS_GENODEF_13
1002
{
1000
HIER
1070
     1
1002
}
1002
{
1000
MANEDIT
1070
     0
1002
}
1002
{
1000
NOSEL
1070
     1
1002
}
1002
{
1000
BEHIND
1070
     0
1002
}
1002
{
1000
REACTOR
1002
}
1001
GENIUS_GENOBJ-NBEHI-BHB_13
1002
{
1000
OWNER
1000
GENBEHI
1002
}
1001
GENIUS_GENOENT_13
1002
{
1000
MYREF
1005
610
1002
}
1002
{
1000
GRP
1005
0
1002
}
1001
GENIUS_GENOLIS_13
1002
{
1000
ENT
1005
60E
1002
}
  0
POINT
  5
611
  8
0
 10
0.0
 20
0.0
 30
0.0
1001
GENIUS_GENBH_13
1002
{
1000
BGO
1005
612
1002
}
1002
{
1000
FGLEVEL
1040
4.0000000299999989
1002
}
1002
{
1000
FLAGS
1070
    36
1002
}
1002
{
1000
OIUMAP
1000
OIU
1002
}
1002
{
1000
MODIFY
1070
     0
1002
}
1001
GENIUS_GENODEF_13
1002
{
1000
HIER
1070
     1
1002
}
1002
{
1000
MANEDIT
1070
     0
1002
}
1002
{
1000
NOSEL
1070
     1
1002
}
1002
{
1000
BEHIND
1070
     1
1002
}
1002
{
1000
REACTOR
1002
}
1001
GENIUS_GENOBJ-NBEHI-BHF_13
1002
{
1000
OWNER
1000
GENBEHI
1002
}
1001
GENIUS_GENOENT_13
1002
{
1000
MYREF
1005
611
1002
}
1002
{
1000
GRP
1005
0
1002
}
1001
GENIUS_GENOLIS_13
1002
{
1000
ENT
1005
6EB
1002
}
  0
POINT
  5
612
  8
0
 10
0.0
 20
0.0
 30
0.0
1001
GENIUS_GENBH_13
1002
{
1000
FGO
1005
611
1002
}
1001
GENIUS_GENODEF_13
1002
{
1000
HIER
1070
     1
1002
}
1002
{
1000
MANEDIT
1070
     0
1002
}
1002
{
1000
NOSEL
1070
     1
1002
}
1002
{
1000
BEHIND
1070
     1
1002
}
1002
{
1000
REACTOR
1002
}
1001
GENIUS_GENOBJ-NBEHI-BHB_13
1002
{
1000
OWNER
1000
GENBEHI
1002
}
1001
GENIUS_GENOENT_13
1002
{
1000
MYREF
1005
612
1002
}
1002
{
1000
GRP
1005
0
1002
}
1001
GENIUS_GENOLIS_13
1002
{
1000
ENT
1005
5DC
1005
60E
1002
}
  0
POINT
  5
643
  8
0
 10
0.0
 20
0.0
 30
0.0
1001
GENIUS_GENBH_13
1002
{
1000
BGO
1005
644
1002
}
1002
{
1000
FGLEVEL
1040
4.0000000399999989
1002
}
1002
{
1000
FLAGS
1070
    36
1002
}
1002
{
1000
OIUMAP
1000
OIU
1002
}
1002
{
1000
MODIFY
1070
     0
1002
}
1001
GENIUS_GENODEF_13
1002
{
1000
HIER
1070
     1
1002
}
1002
{
1000
MANEDIT
1070
     0
1002
}
1002
{
1000
NOSEL
1070
     1
1002
}
1002
{
1000
BEHIND
1070
     0
1002
}
1002
{
1000
REACTOR
1002
}
1001
GENIUS_GENOBJ-NBEHI-BHF_13
1002
{
1000
OWNER
1000
GENBEHI
1002
}
1001
GENIUS_GENOENT_13
1002
{
1000
MYREF
1005
643
1002
}
1002
{
1000
GRP
1005
0
1002
}
1001
GENIUS_GENOLIS_13
1002
{
1000
ENT
1005
608
1002
}
  0
POINT
  5
644
  8
0
 10
0.0
 20
0.0
 30
0.0
1001
GENIUS_GENBH_13
1002
{
1000
FGO
1005
643
1002
}
1001
GENIUS_GENODEF_13
1002
{
1000
HIER
1070
     1
1002
}
1002
{
1000
MANEDIT
1070
     0
1002
}
1002
{
1000
NOSEL
1070
     1
1002
}
1002
{
1000
BEHIND
1070
     0
1002
}
1002
{
1000
REACTOR
1002
}
1001
GENIUS_GENOBJ-NBEHI-BHB_13
1002
{
1000
OWNER
1000
GENBEHI
1002
}
1001
GENIUS_GENOENT_13
1002
{
1000
MYREF
1005
644
1002
}
1002
{
1000
GRP
1005
0
1002
}
1001
GENIUS_GENOLIS_13
1002
{
1000
ENT
1005
6EB
1005
5DC
1005
60E
1002
}
  0
LINE
  5
645
  8
MSL_F16_40-7AN
 10
329.47419627724952
 20
143.93210826924249
 30
0.0
 11
297.47419627724952
 21
143.93210826924249
 31
0.0
1001
GENIUS_GEFPARTINS_13
1002
{
1011
306.47419627724952
1021
0.0
1031
0.0
1021
143.93210826924249
1031
0.0
1013
1.0
1023
0.0
1033
0.0
1023
0.0
1033
0.0
1002
}
1001
GENIUS_GENOREF_13
1005
646
  0
POINT
  5
646
  8
0
 10
0.0
 20
0.0
 30
0.0
1001
GENIUS_GENODEF_13
1002
{
1000
HIER
1070
   200
1002
}
1002
{
1000
MANEDIT
1070
     0
1002
}
1002
{
1000
NOSEL
1070
     0
1002
}
1002
{
1000
BEHIND
1070
     0
1002
}
1002
{
1000
REACTOR
1002
}
1001
GENIUS_GEFSTDP_13
1002
{
1000
DSC
1002
{
1002
{
1002
}
1002
}
1002
}
1002
{
1000
SCP
1002
{
1000
TYPE
1000
SCP
1002
}
1002
{
1000
GMODE
1070
     1
1002
}
1002
{
1000
DMODE
1070
     0
1002
}
1002
{
1000
SSIZE
1002
{
1002
{
1000
NND
1000
TPU
1000
PTC
1000
CON
1000
EGR
1000
PRE
1002
}
1002
{
1040
6.0
1040
1.0
1040
1.0
1000
x
1000
1
1000
M
1002
}
1002
}
1002
}
1002
{
1000
ASIZE
1002
{
1002
{
1000
NND
1000
TPU
1000
EGR
1000
PRE
1000
PTC
1002
}
1002
{
1040
6.0
1040
1.0
1000
1
1000
M
1040
1.0
1002
}
1002
}
1002
}
1002
{
1000
VIEW
1070
     2
1002
}
1002
{
1000
1
1002
{
1002
{
1000
SFILE
1000
$PV_GENSYSTEM"gef\val\di\0101\di2401_v.dxf"
1002
}
1002
{
1000
ST1
1000
$PV_GENSYSTEM"gef\val\di\0101\di2401.val"
1002
}
1002
{
1000
ASSO
1000
DIN_912
1002
}
1002
{
1000
VIEW
1000
V
1002
}
1002
{
1000
SSTATUS
1000
~T
1002
}
1002
{
1000
GROUP
1000
0101
1002
}
1002
}
1002
}
1002
{
1000
4
1002
{
1002
{
1000
SFILE
1000
$PV_GENSYSTEM"gef\val\di\0301\di1602_v.dxf"
1002
}
1002
{
1000
ST1
1000
$PV_GENSYSTEM"gef\val\di\0301\di1602.val"
1002
}
1002
{
1000
ASSO
1000
 
1002
}
1002
{
1000
VIEW
1000
V
1002
}
1002
{
1000
SSTATUS
1000
~T
1002
}
1002
{
1000
GROUP
1000
0301
1002
}
1002
}
1002
}
1002
}
1002
{
1000
DSC1
1000
DSC1
1002
{
1000
~DESCR1
1000
 
1000
~BORE1
1000
 x 
1000
~GL1
1002
}
1002
}
1002
{
1000
DSC2
1000
DSC2
1002
{
1000
~DESCR2
1000
 
1000
~BORE2
1000
 x 
1000
~GL2
1002
}
1002
}
1002
{
1000
KEY
1000
SCP
1002
}
1002
{
1000
INS
1002
{
1040
306.47419627724952
1040
143.93210826924249
1040
0.0
1002
}
1002
}
1002
{
1000
ANG
1040
0.0
1002
}
1002
{
1000
VCC
1002
{
1000
$NND=6.000000000000000E+00
1000
$TPU=1.000000000000000E+00
1000
$EGR=1
1000
$PRE=M
1000
$PTC=1.000000000000000E+00
1000
$SELMODE=1
1000
-V$PV_GENSYSTEM"gef\val\sys\dudus_s.dxf
1000
-LPHIDE=1
1000
$GEVBHOP=2
1000
-LPSPOCK1=C:\GENIUS\GEF\VAL\SYS\SPOCK2_S.DXF
1000
$HIDE=0
1000
-LPPART1=1
1000
-LPTABLE1=$PV_GENSYSTEM"gef\val\di\0101\di2401.val"
1000
-LPDXF1=$PV_GENSYSTEM"gef\val\di\0101\di2401_v.dxf"
1000
-LPSCRID=2
1000
-LPPART2=0
1000
-LPTABLE2=$PV_GENSYSTEM"gef\val\sys\mrbean.val
1000
-LPPART3=0
1000
-LPTABLE3=$PV_GENSYSTEM"gef\val\sys\mrbean.val
1000
-LPPART4=1
1000
-LPTABLE4=$PV_GENSYSTEM"gef\val\di\0301\di1602.val"
1000
-LPDXF4=$PV_GENSYSTEM"gef\val\di\0301\di1602_v.dxf"
1000
-LPPART5=0
1000
-LPPART6=0
1000
-LPPART7=0
1000
-LPPART8=0
1000
-LPPART9=0
1000
-LPPART10=0
1000
$GEF_FLIPX=2
1000
$GEF_FLIPY=2
1000
$GL1=0
1000
$GL2=0
1000
-GRPNAME1MSL_F16_40-0
1000
-LPGL1=8.000000000000000E+00
1000
-LPGL2=0
1000
-GRPNAME2MSL_F16_40-0
1000
-RBSTDRD
1000
-RBDESCR1
1000
-RBDESCR2
1000
-RBBORE1
1000
-RBBORE2
1000
-RBGL1
1000
-RBGL2
1000
-RBBORED
1000
-RBHEADD
1000
-RBCDEP
1000
-RBCANG
1000
$GEF_CDIST=3.000000000000000E+00
1000
$GEF_DRAG=1
1000
$GEF_STANG=2.100000000000000E+02
1000
$GEF_OANG=7.000000000000000E+01
1000
$GEVPROMPTX= Länge: 
1000
$GEF_SNK_ADD=0.000000000000000E+00
1000
-GRPNAME0?
1000
-BAML2
1000
$GEF_PROCALC=1
1002
}
1002
}
1002
{
1000
LST
1002
{
1002
{
1002
}
1002
}
1002
}
1002
{
1000
RET
1002
{
1002
{
1000
CANG
1002
}
1002
{
1000
CDEP
1002
}
1002
{
1000
HEADD
1002
}
1002
{
1000
BORED
1002
}
1002
{
1000
GL2
1000
0
1002
}
1002
{
1000
GL1
1000
8
1002
}
1002
{
1000
BORE2
1002
}
1002
{
1000
BORE1
1000
DIN EN 20273 - M6 - H13
1002
}
1002
{
1000
DESCR2
1002
}
1002
{
1000
DESCR1
1000
Durchgangsloch
1002
}
1002
{
1000
STDRD
1002
}
1002
}
1002
}
1002
{
1000
SYSTEM
1040
1.0
1002
}
1002
{
1000
INFEL
1002
{
1005
67F
1002
}
1002
}
1001
GENIUS_GENOBJ-F-PART_13
1002
{
1000
OWNER
1000
GEF
1002
}
1001
GENIUS_GENOENT_13
1002
{
1000
MYREF
1005
646
1002
}
1002
{
1000
GRP
1005
0
1002
}
1001
GENIUS_GENOLIS_13
1002
{
1000
ENT
1005
645
1005
60E
1005
608
1005
6EB
1005
5DC
1002
}
  0
INSERT
  5
6EB
  8
MSL_F16_40-0N
  2
*U17
 10
306.47419627724952
 20
143.93210826924249
 30
0.0
1001
GENIUS_GEFPARTINS_13
1002
{
1011
306.47419627724952
1021
0.0
1031
0.0
1021
143.93210826924249
1031
0.0
1013
1.0
1023
0.0
1033
0.0
1023
0.0
1033
0.0
1002
}
1001
GENIUS_GENBH_13
1002
{
1000
REFI
1005
641
1002
}
1001
VCC
1002
{
1002
}
1001
GEVIT
1002
{
1000
-BEHI4.00000003
1000
-BVCCT0
1000
-GRP0?
1000
-BAML2
1000
-BASK1
1000
-NT1
1000
-DOC
1005
5A7
1000
-MYREF
1005
6EB
1002
}
1001
GEVPT
1002
{
1000
-V$PV_GENSYSTEM"GEF\VAL\DI\0101\DI2401_V.DXF"
1000
-FIXP$VCC_TABLE=C:\GENIUS\gef\val\di\0101\di2401.val
1000
-FIXP$TABLE=C:\GENIUS\gef\val\di\0101\di2401.val
1000
-FIXPNLGMIN=14
1000
-FIXPSHLMAX=8
1000
-FIXPKFDYN=0
1000
-INPPVCCTAB_DYN1=23.302441,2.404929,0,0
1000
-GPGEF_PROCALC=1
1000
-GPGEF_SNK_ADD=0
1000
-GPGEVPROMPTX=Länge:
1000
-GPGEF_OANG=70
1000
-GPGEF_STANG=210
1000
-GPGEF_DRAG=1
1000
-GPGEF_CDIST=3
1000
-GPGL2=0
1000
-GPGL1=0
1000
-GPGEF_FLIPY=2
1000
-GPGEF_FLIPX=2
1000
-GPHIDE=0
1000
-GPGEVBHOP=2
1000
-GPSELMODE=1
1000
-GPPTC=1
1000
-GPPRE=M
1000
-GPEGR=1
1000
-GPTPU=1
1000
-GPNND=6
1002
}
1001
GEVID884340780
1002
{
1000
-ID26
1002
}
1001
GENIUS_GENOREF_13
1005
611
1005
644
1005
646
  0
INSERT
  5
6F0
  8
MSL_F16_40-0N
  2
*U25
 10
306.47419627724952
 20
105.93210826924251
 30
0.0
 41
-1.0
 50
180.0
1001
GENIUS_GEFPARTINS_13
1002
{
1011
306.47419627724952
1021
0.0
1031
0.0
1021
105.93210826924251
1031
0.0
1013
1.0
1023
0.0
1033
0.0
1023
0.0
1033
0.0
1002
}
1001
GENIUS_GENBH_13
1002
{
1000
REFI
1005
641
1002
}
1001
GEVPT
1002
{
1000
-V$PV_GENSYSTEM"GEF\VAL\DI\0101\DI2401_V.DXF"
1000
-FIXP$VCC_TABLE=C:\GENIUS\gef\val\di\0101\di2401.val
1000
-FIXP$TABLE=C:\GENIUS\gef\val\di\0101\di2401.val
1000
-FIXPNLGMIN=14
1000
-FIXPSHLMAX=8
1000
-FIXPKFDYN=0
1000
-INPPVCCTAB_DYN1=23.302441,2.404929,0,0
1000
-GPGEF_PROCALC=1
1000
-GPGEF_SNK_ADD=0
1000
-GPGEVPROMPTX=Länge:
1000
-GPGEF_OANG=70
1000
-GPGEF_STANG=210
1000
-GPGEF_DRAG=1
1000
-GPGEF_CDIST=3
1000
-GPGL2=0
1000
-GPGL1=0
1000
-GPGEF_FLIPY=2
1000
-GPGEF_FLIPX=2
1000
-GPHIDE=0
1000
-GPGEVBHOP=2
1000
-GPSELMODE=1
1000
-GPPTC=1
1000
-GPPRE=M
1000
-GPEGR=1
1000
-GPTPU=1
1000
-GPNND=6
1002
}
1001
GENIUS_GENOREF_13
1005
700
1005
6FF
1005
6FE
1001
VCC
1002
{
1002
}
1001
GEVIT
1002
{
1000
-BEHI4.00000003
1000
-BVCCT0
1000
-GRP0?
1000
-BAML2
1000
-BASK1
1000
-NT1
1000
-DOC
1005
728
1000
-MYREF
1005
6F0
1002
}
1001
GEVMK
1002
{
1000
-CO
1000
-MYREF
1005
6F0
1002
}
1001
GEVID884347572
1002
{
1000
-ID26
1002
}
  0
INSERT
  5
6F1
  8
MSL_F16_40-0
  2
*U23
 10
306.47419627724952
 20
105.93210826924251
 30
0.0
 41
-1.0
 50
180.0
1001
GENIUS_GEFPARTINS_13
1002
{
1011
306.47419627724952
1021
0.0
1031
0.0
1021
105.93210826924251
1031
0.0
1013
1.0
1023
0.0
1033
0.0
1023
0.0
1033
0.0
1002
}
1001
GENIUS_GENBH_13
1002
{
1000
REFI
1005
619
1002
}
1001
GEVPT
1002
{
1000
-V$PV_GENSYSTEM"GEF\VAL\DI\0301\DI1602_V.DXF"
1000
-FIXP$VCC_TABLE=C:\GENIUS\gef\val\di\0301\di1602.val
1000
-FIXP$TABLE=C:\GENIUS\gef\val\di\0301\di1602.val
1000
-FIXPLOTI=8
1000
-GPGEF_PROCALC=1
1000
-GPGEF_SNK_ADD=0
1000
-GPGEVPROMPTX=Länge:
1000
-GPGEF_OANG=70
1000
-GPGEF_STANG=210
1000
-GPGEF_DRAG=1
1000
-GPGEF_CDIST=3
1000
-GPGL2=0
1000
-GPGL1=0
1000
-GPGEF_FLIPY=2
1000
-GPGEF_FLIPX=2
1000
-GPHIDE=0
1000
-GPGEVBHOP=2
1000
-GPSELMODE=1
1000
-GPPTC=1
1000
-GPPRE=M
1000
-GPEGR=1
1000
-GPTPU=1
1000
-GPNND=6
1002
}
1001
GENIUS_GENOREF_13
1005
6FD
1005
6FC
1005
6FF
1005
6FE
1001
VCC
1002
{
1002
}
1001
GEVIT
1002
{
1000
-BEHI4.00000002
1000
-BVCCT0
1000
-GRP0MSL_F16_40-0
1000
-BAML2
1000
-BASK1
1000
-NT0
1000
-DOC
1005
718
1000
-MYREF
1005
6F1
1002
}
1001
GEVMK
1002
{
1000
-CO
1000
-MYREF
1005
6F1
1002
}
1001
GEVID884347572
1002
{
1000
-ID31
1002
}
  0
LINE
  5
6F2
  8
MSL_F16_40-3
 10
314.47419627724952
 20
102.93210826924251
 30
0.0
 11
330.97419627724952
 21
102.93210826924251
 31
0.0
  0
LINE
  5
6F3
  8
MSL_F16_40-3
 10
314.47419627724952
 20
103.54560826924251
 30
0.0
 11
330.97419627724952
 21
103.54560826924251
 31
0.0
  0
LINE
  5
6F4
  8
MSL_F16_40-3
 10
314.47419627724952
 20
108.3186082692425
 30
0.0
 11
330.97419627724952
 21
108.3186082692425
 31
0.0
  0
LINE
  5
6F5
  8
MSL_F16_40-3
 10
314.47419627724952
 20
108.93210826924251
 30
0.0
 11
330.97419627724952
 21
108.93210826924251
 31
0.0
  0
LINE
  5
6F6
  8
MSL_F16_40-7AN
 10
329.47419627724952
 20
105.93210826924251
 30
0.0
 11
297.47419627724952
 21
105.93210826924251
 31
0.0
1001
GENIUS_GEFPARTINS_13
1002
{
1011
306.47419627724952
1021
0.0
1031
0.0
1021
105.93210826924251
1031
0.0
1013
1.0
1023
0.0
1033
0.0
1023
0.0
1033
0.0
1002
}
1001
GENIUS_GENOREF_13
1005
6FE
  0
LINE
  5
6F7
  8
ZYL_40_ISO6431-7
 10
311.47419627724952
 20
105.93210826924251
 30
0.0
 11
330.97419627724952
 21
105.93210826924251
 31
0.0
  0
INSERT
  5
6F8
  8
MSL_F16_40-0N
  2
*U21
 10
306.47419627724952
 20
105.93210826924251
 30
0.0
 41
-1.0
 50
180.0
1001
GENIUS_GEFPARTINS_13
1002
{
1011
306.47419627724952
1021
0.0
1031
0.0
1021
105.93210826924251
1031
0.0
1013
1.0
1023
0.0
1033
0.0
1023
0.0
1033
0.0
1002
}
1001
GEVPT
1002
{
1000
-V$PV_GENSYSTEM"GEF\VAL\SYS\DUDUS_S.DXF"
1000
-FIXPGL2=0
1000
-FIXPPART10=0
1000
-FIXPPART9=0
1000
-FIXPPART8=0
1000
-FIXPPART7=0
1000
-FIXPPART6=0
1000
-FIXPPART5=0
1000
-FIXPDXF4=C:\GENIUS\gef\val\di\0301\di1602_v.dxf
1000
-FIXPTABLE4=C:\GENIUS\gef\val\di\0301\di1602.val
1000
-FIXPPART4=1
1000
-FIXPTABLE3=C:\GENIUS\gef\val\sys\mrbean.val
1000
-FIXPPART3=0
1000
-FIXPTABLE2=C:\GENIUS\gef\val\sys\mrbean.val
1000
-FIXPPART2=0
1000
-FIXPSCRID=2
1000
-FIXPDXF1=C:\GENIUS\gef\val\di\0101\di2401_v.dxf
1000
-FIXPTABLE1=C:\GENIUS\gef\val\di\0101\di2401.val
1000
-FIXPPART1=1
1000
-FIXPSPOCK1=C:\GENIUS\GEF\VAL\SYS\SPOCK2_S.DXF
1000
-FIXPHIDE=1
1000
-FIXPGL1=8
1000
-GPGEF_PROCALC=1
1000
-GPGEF_SNK_ADD=0
1000
-GPGEVPROMPTX=Länge:
1000
-GPGEF_OANG=70
1000
-GPGEF_STANG=210
1000
-GPGEF_DRAG=1
1000
-GPGEF_CDIST=3
1000
-GPGL2=0
1000
-GPGL1=0
1000
-GPGEF_FLIPY=2
1000
-GPGEF_FLIPX=2
1000
-GPHIDE=0
1000
-GPGEVBHOP=2
1000
-GPSELMODE=1
1000
-GPPTC=1
1000
-GPPRE=M
1000
-GPEGR=1
1000
-GPTPU=1
1000
-GPNND=6
1002
}
1001
GENIUS_GENOREF_13
1005
6FB
1005
6FC
1005
6FF
1005
6FE
1001
VCC
1002
{
1000
-ID5
1000
-IE4
1000
-IK5
1000
-V$PV_GENSYSTEM"GEF\VAL\SYS\DUDUS_S.DXF"
1002
}
1001
GEVIT
1002
{
1000
-BEHI4.00000001
1000
-BVCCT0
1000
-GRP0?
1000
-BAML2
1000
-BASK1
1000
-DOC
1005
70E
1000
-MYREF
1005
6F8
1002
}
1001
GEVMK
1002
{
1000
-CO
1000
-MYREF
1005
6F8
1002
}
1001
GEVID884347572
1002
{
1002
}
  0
INSERT
  5
6F9
  8
MSL_F16_40-0
  2
*U19
 10
306.47419627724952
 20
105.93210826924251
 30
0.0
 41
-1.0
 50
180.0
1001
GENIUS_GEFPARTINS_13
1002
{
1011
306.47419627724952
1021
0.0
1031
0.0
1021
105.93210826924251
1031
0.0
1013
1.0
1023
0.0
1033
0.0
1023
0.0
1033
0.0
1002
}
1001
GEVPT
1002
{
1000
-V$PV_GENSYSTEM"GEF\VAL\SYS\SPOCK2_S.DXF"
1000
-FIXPL=8
1000
-FIXPH=3.3
1000
-GPGEF_PROCALC=1
1000
-GPGEF_SNK_ADD=0
1000
-GPGEVPROMPTX=Länge:
1000
-GPGEF_OANG=70
1000
-GPGEF_STANG=210
1000
-GPGEF_DRAG=1
1000
-GPGEF_CDIST=3
1000
-GPGL2=0
1000
-GPGL1=0
1000
-GPGEF_FLIPY=2
1000
-GPGEF_FLIPX=2
1000
-GPHIDE=0
1000
-GPGEVBHOP=2
1000
-GPSELMODE=1
1000
-GPPTC=1
1000
-GPPRE=M
1000
-GPEGR=1
1000
-GPTPU=1
1000
-GPNND=6
1002
}
1001
GENIUS_GENOREF_13
1005
6FA
1005
6FE
1001
VCC
1002
{
1002
}
1001
GEVIT
1002
{
1000
-BEHI4.00000004
1000
-BVCCT0
1000
-GRP0MSL_F16_40-0
1000
-BAML2
1000
-BASK1
1000
-NT0
1000
-DOC
1005
702
1000
-MYREF
1005
6F9
1002
}
1001
GEVMK
1002
{
1000
-CO
1000
-MYREF
1005
6F9
1002
}
1001
GEVID884347572
1002
{
1000
-ID54
1002
}
  0
POINT
  5
6FA
  8
0
 10
0.0
 20
0.0
 30
0.0
1001
GENIUS_GENBH_13
1002
{
1000
BGO
1005
6FF
1002
}
1002
{
1000
FGLEVEL
1040
4.0000000399999989
1002
}
1002
{
1000
FLAGS
1070
    36
1002
}
1002
{
1000
OIUMAP
1000
OIU
1002
}
1002
{
1000
MODIFY
1070
     0
1002
}
1001
GENIUS_GENODEF_13
1002
{
1000
HIER
1070
     1
1002
}
1002
{
1000
MANEDIT
1070
     0
1002
}
1002
{
1000
NOSEL
1070
     1
1002
}
1002
{
1000
BEHIND
1070
     0
1002
}
1002
{
1000
REACTOR
1002
}
1001
GENIUS_GENOBJ-NBEHI-BHF_13
1002
{
1000
OWNER
1000
GENBEHI
1002
}
1001
GENIUS_GENOENT_13
1002
{
1000
MYREF
1005
6FA
1002
}
1002
{
1000
GRP
1005
0
1002
}
1001
GENIUS_GENOLIS_13
1002
{
1000
ENT
1005
6F9
1002
}
  0
POINT
  5
6FB
  8
0
 10
0.0
 20
0.0
 30
0.0
1001
GENIUS_GENBH_13
1002
{
1000
FGO
1005
6FD
1002
}
1001
GENIUS_GENODEF_13
1002
{
1000
HIER
1070
     1
1002
}
1002
{
1000
MANEDIT
1070
     0
1002
}
1002
{
1000
NOSEL
1070
     1
1002
}
1002
{
1000
BEHIND
1070
     0
1002
}
1002
{
1000
REACTOR
1002
}
1001
GENIUS_GENOBJ-NBEHI-BHB_13
1002
{
1000
OWNER
1000
GENBEHI
1002
}
1001
GENIUS_GENOENT_13
1002
{
1000
MYREF
1005
6FB
1002
}
1002
{
1000
GRP
1005
0
1002
}
1001
GENIUS_GENOLIS_13
1002
{
1000
ENT
1005
6F8
1002
}
  0
POINT
  5
6FC
  8
0
 10
0.0
 20
0.0
 30
0.0
1001
GENIUS_GENBH_13
1002
{
1000
FGO
1005
700
1002
}
1001
GENIUS_GENODEF_13
1002
{
1000
HIER
1070
     1
1002
}
1002
{
1000
MANEDIT
1070
     0
1002
}
1002
{
1000
NOSEL
1070
     1
1002
}
1002
{
1000
BEHIND
1070
     1
1002
}
1002
{
1000
REACTOR
1002
}
1001
GENIUS_GENOBJ-NBEHI-BHB_13
1002
{
1000
OWNER
1000
GENBEHI
1002
}
1001
GENIUS_GENOENT_13
1002
{
1000
MYREF
1005
6FC
1002
}
1002
{
1000
GRP
1005
0
1002
}
1001
GENIUS_GENOLIS_13
1002
{
1000
ENT
1005
6F1
1005
6F8
1002
}
  0
POINT
  5
6FD
  8
0
 10
0.0
 20
0.0
 30
0.0
1001
GENIUS_GENBH_13
1002
{
1000
BGO
1005
6FB
1002
}
1002
{
1000
FGLEVEL
1040
4.000000019999999
1002
}
1002
{
1000
FLAGS
1070
    36
1002
}
1002
{
1000
OIUMAP
1000
OIU
1002
}
1002
{
1000
MODIFY
1070
     0
1002
}
1001
GENIUS_GENODEF_13
1002
{
1000
HIER
1070
     1
1002
}
1002
{
1000
MANEDIT
1070
     0
1002
}
1002
{
1000
NOSEL
1070
     1
1002
}
1002
{
1000
BEHIND
1070
     1
1002
}
1002
{
1000
REACTOR
1002
}
1001
GENIUS_GENOBJ-NBEHI-BHF_13
1002
{
1000
OWNER
1000
GENBEHI
1002
}
1001
GENIUS_GENOENT_13
1002
{
1000
MYREF
1005
6FD
1002
}
1002
{
1000
GRP
1005
0
1002
}
1001
GENIUS_GENOLIS_13
1002
{
1000
ENT
1005
6F1
1002
}
  0
POINT
  5
6FE
  8
0
 10
0.0
 20
0.0
 30
0.0
1001
GENIUS_GENODEF_13
1002
{
1000
HIER
1070
   200
1002
}
1002
{
1000
MANEDIT
1070
     0
1002
}
1002
{
1000
NOSEL
1070
     0
1002
}
1002
{
1000
BEHIND
1070
     0
1002
}
1002
{
1000
REACTOR
1002
}
1001
GENIUS_GEFSTDP_13
1002
{
1000
DSC
1002
{
1002
{
1002
}
1002
}
1002
}
1002
{
1000
SCP
1002
{
1000
TYPE
1000
SCP
1002
}
1002
{
1000
GMODE
1070
     1
1002
}
1002
{
1000
DMODE
1070
     0
1002
}
1002
{
1000
SSIZE
1002
{
1002
{
1000
NND
1000
TPU
1000
PTC
1000
CON
1000
EGR
1000
PRE
1002
}
1002
{
1040
6.0
1040
1.0
1040
1.0
1000
x
1000
1
1000
M
1002
}
1002
}
1002
}
1002
{
1000
ASIZE
1002
{
1002
{
1000
NND
1000
TPU
1000
EGR
1000
PRE
1000
PTC
1002
}
1002
{
1040
6.0
1040
1.0
1000
1
1000
M
1040
1.0
1002
}
1002
}
1002
}
1002
{
1000
VIEW
1070
     2
1002
}
1002
{
1000
1
1002
{
1002
{
1000
SFILE
1000
$PV_GENSYSTEM"gef\val\di\0101\di2401_v.dxf"
1002
}
1002
{
1000
ST1
1000
$PV_GENSYSTEM"gef\val\di\0101\di2401.val"
1002
}
1002
{
1000
ASSO
1000
DIN_912
1002
}
1002
{
1000
VIEW
1000
V
1002
}
1002
{
1000
SSTATUS
1000
~T
1002
}
1002
{
1000
GROUP
1000
0101
1002
}
1002
}
1002
}
1002
{
1000
4
1002
{
1002
{
1000
SFILE
1000
$PV_GENSYSTEM"gef\val\di\0301\di1602_v.dxf"
1002
}
1002
{
1000
ST1
1000
$PV_GENSYSTEM"gef\val\di\0301\di1602.val"
1002
}
1002
{
1000
ASSO
1000
 
1002
}
1002
{
1000
VIEW
1000
V
1002
}
1002
{
1000
SSTATUS
1000
~T
1002
}
1002
{
1000
GROUP
1000
0301
1002
}
1002
}
1002
}
1002
}
1002
{
1000
DSC1
1000
DSC1
1002
{
1000
~DESCR1
1000
 
1000
~BORE1
1000
 x 
1000
~GL1
1002
}
1002
}
1002
{
1000
DSC2
1000
DSC2
1002
{
1000
~DESCR2
1000
 
1000
~BORE2
1000
 x 
1000
~GL2
1002
}
1002
}
1002
{
1000
KEY
1000
SCP
1002
}
1002
{
1000
INS
1002
{
1040
306.47419627724952
1040
143.93210826924249
1040
0.0
1002
}
1002
}
1002
{
1000
ANG
1040
0.0
1002
}
1002
{
1000
VCC
1002
{
1000
$NND=6.000000000000000E+00
1000
$TPU=1.000000000000000E+00
1000
$EGR=1
1000
$PRE=M
1000
$PTC=1.000000000000000E+00
1000
$SELMODE=1
1000
-V$PV_GENSYSTEM"gef\val\sys\dudus_s.dxf
1000
-LPHIDE=1
1000
$GEVBHOP=2
1000
-LPSPOCK1=C:\GENIUS\GEF\VAL\SYS\SPOCK2_S.DXF
1000
$HIDE=0
1000
-LPPART1=1
1000
-LPTABLE1=$PV_GENSYSTEM"gef\val\di\0101\di2401.val"
1000
-LPDXF1=$PV_GENSYSTEM"gef\val\di\0101\di2401_v.dxf"
1000
-LPSCRID=2
1000
-LPPART2=0
1000
-LPTABLE2=$PV_GENSYSTEM"gef\val\sys\mrbean.val
1000
-LPPART3=0
1000
-LPTABLE3=$PV_GENSYSTEM"gef\val\sys\mrbean.val
1000
-LPPART4=1
1000
-LPTABLE4=$PV_GENSYSTEM"gef\val\di\0301\di1602.val"
1000
-LPDXF4=$PV_GENSYSTEM"gef\val\di\0301\di1602_v.dxf"
1000
-LPPART5=0
1000
-LPPART6=0
1000
-LPPART7=0
1000
-LPPART8=0
1000
-LPPART9=0
1000
-LPPART10=0
1000
$GEF_FLIPX=2
1000
$GEF_FLIPY=2
1000
$GL1=0
1000
$GL2=0
1000
-GRPNAME1MSL_F16_40-0
1000
-LPGL1=8.000000000000000E+00
1000
-LPGL2=0
1000
-GRPNAME2MSL_F16_40-0
1000
-RBSTDRD
1000
-RBDESCR1
1000
-RBDESCR2
1000
-RBBORE1
1000
-RBBORE2
1000
-RBGL1
1000
-RBGL2
1000
-RBBORED
1000
-RBHEADD
1000
-RBCDEP
1000
-RBCANG
1000
$GEF_CDIST=3.000000000000000E+00
1000
$GEF_DRAG=1
1000
$GEF_STANG=2.100000000000000E+02
1000
$GEF_OANG=7.000000000000000E+01
1000
$GEVPROMPTX= Länge: 
1000
$GEF_SNK_ADD=0.000000000000000E+00
1000
-GRPNAME0?
1000
-BAML2
1000
$GEF_PROCALC=1
1002
}
1002
}
1002
{
1000
LST
1002
{
1002
{
1002
}
1002
}
1002
}
1002
{
1000
RET
1002
{
1002
{
1000
CANG
1002
}
1002
{
1000
CDEP
1002
}
1002
{
1000
HEADD
1002
}
1002
{
1000
BORED
1002
}
1002
{
1000
GL2
1000
0
1002
}
1002
{
1000
GL1
1000
8
1002
}
1002
{
1000
BORE2
1002
}
1002
{
1000
BORE1
1000
DIN EN 20273 - M6 - H13
1002
}
1002
{
1000
DESCR2
1002
}
1002
{
1000
DESCR1
1000
Durchgangsloch
1002
}
1002
{
1000
STDRD
1002
}
1002
}
1002
}
1002
{
1000
SYSTEM
1040
1.0
1002
}
1002
{
1000
INFEL
1002
{
1005
67F
1002
}
1002
}
1001
GENIUS_GENOBJ-F-PART_13
1002
{
1000
OWNER
1000
GEF
1002
}
1001
GENIUS_GENOENT_13
1002
{
1000
MYREF
1005
6FE
1002
}
1002
{
1000
GRP
1005
0
1002
}
1001
GENIUS_GENOLIS_13
1002
{
1000
ENT
1005
6F6
1005
6F8
1005
6F9
1005
6F0
1005
6F1
1002
}
  0
POINT
  5
6FF
  8
0
 10
0.0
 20
0.0
 30
0.0
1001
GENIUS_GENBH_13
1002
{
1000
FGO
1005
6FA
1002
}
1001
GENIUS_GENODEF_13
1002
{
1000
HIER
1070
     1
1002
}
1002
{
1000
MANEDIT
1070
     0
1002
}
1002
{
1000
NOSEL
1070
     1
1002
}
1002
{
1000
BEHIND
1070
     0
1002
}
1002
{
1000
REACTOR
1002
}
1001
GENIUS_GENOBJ-NBEHI-BHB_13
1002
{
1000
OWNER
1000
GENBEHI
1002
}
1001
GENIUS_GENOENT_13
1002
{
1000
MYREF
1005
6FF
1002
}
1002
{
1000
GRP
1005
0
1002
}
1001
GENIUS_GENOLIS_13
1002
{
1000
ENT
1005
6F0
1005
6F1
1005
6F8
1002
}
  0
POINT
  5
700
  8
0
 10
0.0
 20
0.0
 30
0.0
1001
GENIUS_GENBH_13
1002
{
1000
BGO
1005
6FC
1002
}
1002
{
1000
FGLEVEL
1040
4.0000000299999989
1002
}
1002
{
1000
FLAGS
1070
    36
1002
}
1002
{
1000
OIUMAP
1000
OIU
1002
}
1002
{
1000
MODIFY
1070
     0
1002
}
1001
GENIUS_GENODEF_13
1002
{
1000
HIER
1070
     1
1002
}
1002
{
1000
MANEDIT
1070
     0
1002
}
1002
{
1000
NOSEL
1070
     1
1002
}
1002
{
1000
BEHIND
1070
     1
1002
}
1002
{
1000
REACTOR
1002
}
1001
GENIUS_GENOBJ-NBEHI-BHF_13
1002
{
1000
OWNER
1000
GENBEHI
1002
}
1001
GENIUS_GENOENT_13
1002
{
1000
MYREF
1005
700
1002
}
1002
{
1000
GRP
1005
0
1002
}
1001
GENIUS_GENOLIS_13
1002
{
1000
ENT
1005
6F0
1002
}
  0
LINE
  5
7E5
  8
ZYL_40_ISO6431-4A
 10
423.47419627724588
 20
231.62331688797329
 30
0.0
 11
423.47419627724588
 21
249.1233168879734
 31
0.0
  0
LINE
  5
7E6
  8
ZYL_40_ISO6431-4A
 10
419.47419627724588
 20
249.1233168879734
 30
0.0
 11
419.47419627724588
 21
214.12331688797329
 31
0.0
  0
LINE
  5
7E7
  8
ZYL_40_ISO6431-3
 10
303.97419627724588
 20
249.1233168879734
 30
0.0
 11
303.97419627724588
 21
214.12331688797329
 31
0.0
1001
GENIUS_GENBH_13
1002
{
1000
OE
1000
CON1
1002
}
1001
GENIUS_GENOREF_13
1005
8AD
  0
LINE
  5
7E8
  8
ZYL_40_ISO6431-3
 10
292.97419627724588
 20
248.62831688797331
 30
0.0
 11
292.97419627724588
 21
214.61831688797329
 31
0.0
1001
GENIUS_GENBH_13
1002
{
1000
OE
1000
CON1
1002
}
1001
GENIUS_GENOREF_13
1005
8AD
  0
LINE
  5
7EA
  8
MSL_F16_40-0
 10
249.47419627724591
 20
249.1233168879734
 30
0.0
 11
249.47419627724591
 21
231.62331688797329
 31
0.0
  0
LINE
  5
7ED
  8
ZYL_40_ISO6431-4A
 10
231.47019627724589
 20
241.12331857086329
 30
0.0
 11
231.47019627724589
 21
231.62331688797329
 31
0.0
1001
GENIUS_GENOREF_13
1005
A02
  0
LINE
  5
7EE
  8
ZYL_40_ISO6431-4A
 10
225.4781962772459
 20
241.12331857086329
 30
0.0
 11
225.4781962772459
 21
231.62331688797329
 31
0.0
1001
GENIUS_GENOREF_13
1005
A02
  0
LINE
  5
7EF
  8
ZYL_40_ISO6431-4A
 10
240.47419627724591
 20
239.62331688797329
 30
0.0
 11
240.47419627724591
 21
223.62331688797329
 31
0.0
  0
LINE
  5
7F1
  8
MSL_F16_40-0
 10
314.47419627724588
 20
231.62331688797329
 30
0.0
 11
314.47419627724588
 21
256.62331688797332
 31
0.0
  0
LINE
  5
7F2
  8
ZYL_40_ISO6431-4A
 10
340.47419627724588
 20
257.12331688797332
 30
0.0
 11
340.47419627724588
 21
206.12331688797329
 31
0.0
  0
LINE
  5
7F3
  8
ZYL_40_ISO6431-4A
 10
393.47419627724588
 20
257.12331688797332
 30
0.0
 11
393.47419627724588
 21
206.12331688797329
 31
0.0
  0
LINE
  5
7F4
  8
MSL_F16_40-0
 10
306.47419627724588
 20
256.62331688797332
 30
0.0
 11
306.47419627724588
 21
206.62331688797329
 31
0.0
  0
LINE
  5
7F5
  8
MSL_F16_40-0
 10
259.47419627724588
 20
256.62331688797332
 30
0.0
 11
259.47419627724588
 21
206.62331688797329
 31
0.0
  0
LINE
  5
7F6
  8
ZYL_40_ISO6431-4A
 10
216.47419627724591
 20
236.8565268879733
 30
0.0
 11
216.47419627724591
 21
226.39010688797339
 31
0.0
  0
LINE
  5
7F7
  8
ZYL_40_ISO6431-4
 10
217.2409962772459
 20
237.62331688797329
 30
0.0
 11
217.2409962772459
 21
225.62331688797329
 31
0.0
  0
LINE
  5
7F8
  8
ZYL_40_ISO6431-4A
 10
393.47419627724588
 20
211.4266168879733
 30
0.0
 11
340.47419627724588
 21
211.4266168879733
 31
0.0
  0
LINE
  5
7F9
  8
ZYL_40_ISO6431-4A
 10
340.47419627724588
 20
206.12331688797329
 30
0.0
 11
393.47419627724588
 21
206.12331688797329
 31
0.0
  0
LINE
  5
7FA
  8
ZYL_40_ISO6431-7
 10
213.47419627724591
 20
231.62331688797329
 30
0.0
 11
225.4781962772459
 21
231.62331688797329
 31
0.0
  0
LINE
  5
7FB
  8
MSL_F16_40-0
 10
300.47419627724588
 20
211.62331688797329
 30
0.0
 11
272.47419627724588
 21
211.62331688797329
 31
0.0
  0
LINE
  5
7FC
  8
ZYL_40_ISO6431-3
 10
249.47419627724591
 20
223.62331688797329
 30
0.0
 11
292.97419627724588
 21
223.62331688797329
 31
0.0
1001
GENIUS_GENBH_13
1002
{
1000
OE
1000
CON1
1002
}
1001
GENIUS_GENOREF_13
1005
8AD
  0
LINE
  5
7FD
  8
MSL_F16_40-7
 10
246.47419627724591
 20
231.62331688797329
 30
0.0
 11
317.4741962772423
 21
231.62331688797329
 31
0.0
1001
GENIUS_GENODEF_13
1002
{
1000
HIER
1070
     0
1002
}
1002
{
1000
MANEDIT
1070
     0
1002
}
1002
{
1000
NOSEL
1070
     0
1002
}
1002
{
1000
BEHIND
1070
     0
1002
}
1002
{
1000
REACTOR
1002
}
1001
GENIUS_GENOBJ-N-CEN_13
1002
{
1000
OWNER
1000
GEN
1002
}
1001
GENIUS_GENOREF_13
1005
8AA
  0
LINE
  5
7FE
  8
ZYL_40_ISO6431-4A
 10
240.47419627724591
 20
236.28700688797329
 30
0.0
 11
245.8075262772459
 21
236.28700688797329
 31
0.0
  0
LINE
  5
7FF
  8
ZYL_40_ISO6431-4A
 10
240.47419627724591
 20
223.62331688797329
 30
0.0
 11
249.47419627724591
 21
223.62331688797329
 31
0.0
1001
GENIUS_GENOREF_13
1005
8AD
  0
LINE
  5
800
  8
ZYL_40_ISO6431-4A
 10
240.47419627724591
 20
226.95962688797329
 30
0.0
 11
245.8075262772459
 21
226.95962688797329
 31
0.0
  0
LINE
  5
801
  8
ZYL_40_ISO6431-4
 10
240.47419627724591
 20
236.28700688797329
 30
0.0
 11
245.8075262772459
 21
226.95962688797329
 31
0.0
  0
LINE
  5
802
  8
ZYL_40_ISO6431-4
 10
245.8075262772459
 20
236.28700688797329
 30
0.0
 11
240.47419627724591
 21
226.95962688797329
 31
0.0
  0
LINE
  5
803
  8
ZYL_40_ISO6431-4A
 10
240.47419627724591
 20
225.62331688797329
 30
0.0
 11
231.47019627724589
 21
225.62331688797329
 31
0.0
1001
GENIUS_GENOREF_13
1005
A03
  0
LINE
  5
804
  8
ZYL_40_ISO6431-4
 10
216.47419627724591
 20
226.39010688797339
 30
0.0
 11
225.4781962772459
 21
226.39010688797339
 31
0.0
1001
GENIUS_GENOREF_13
1005
A03
  0
LINE
  5
805
  8
ZYL_40_ISO6431-4A
 10
216.47419627724591
 20
226.39010688797339
 30
0.0
 11
217.2409962772459
 21
225.62331688797329
 31
0.0
  0
LINE
  5
808
  8
ZYL_40_ISO6431-4A
 10
231.47019627724589
 20
222.12331857086329
 30
0.0
 11
231.47019627724589
 21
231.62331688797329
 31
0.0
1001
GENIUS_GENOREF_13
1005
A02
  0
LINE
  5
809
  8
ZYL_40_ISO6431-4A
 10
225.4781962772459
 20
222.12331857086329
 30
0.0
 11
225.4781962772459
 21
231.62331688797329
 31
0.0
1001
GENIUS_GENOREF_13
1005
A02
  0
LINE
  5
810
  8
ZYL_40_ISO6431-4A
 10
225.8680962772487
 20
231.62331688797329
 30
0.0
 11
228.47419627724861
 21
231.62331688797329
 31
0.0
  0
LINE
  5
811
  8
ZYL_40_ISO6431-4A
 10
231.08031627724861
 20
231.62331688797329
 30
0.0
 11
228.47419627724861
 21
231.62331688797329
 31
0.0
  0
LINE
  5
812
  8
ZYL_40_ISO6431-4A
 10
225.4825962772459
 20
232.20495888797331
 30
0.0
 11
225.4781962772459
 21
231.62331688797329
 31
0.0
  0
LINE
  5
813
  8
ZYL_40_ISO6431-4A
 10
225.4825962772459
 20
231.0416748879733
 30
0.0
 11
225.4781962772459
 21
231.62331688797329
 31
0.0
  0
LINE
  5
814
  8
ZYL_40_ISO6431-4A
 10
231.4658362772459
 20
232.20495888797331
 30
0.0
 11
231.47019627724589
 21
231.62331688797329
 31
0.0
  0
LINE
  5
815
  8
ZYL_40_ISO6431-4A
 10
231.4658362772459
 20
231.0416748879733
 30
0.0
 11
231.47019627724589
 21
231.62331688797329
 31
0.0
  0
LINE
  5
816
  8
MSL_F16_40-0
 10
272.47419627724588
 20
206.62331688797329
 30
0.0
 11
272.47419627724588
 21
256.62331688797332
 31
0.0
  0
INSERT
  5
817
  8
MSL_F16_40-0
  2
*U27
 10
259.47419627724588
 20
212.62331688797329
 30
0.0
1001
GENIUS_GEFPARTINS_13
1002
{
1011
259.47419627724588
1021
0.0
1031
0.0
1021
212.62331688797329
1031
0.0
1013
1.0
1023
0.0
1033
0.0
1023
0.0
1033
0.0
1002
}
1001
GEVPT
1002
{
1000
-V$PV_GENSYSTEM"GEF\VAL\DI\0401\DI1616_V.DXF"
1000
-FIXPLOTI=1.300000000000000E+01
1000
-GPGEVBHOP=2
1000
-GPGEF_PROCALC=1
1000
-GPGEF_FLIPY=1
1000
-GPGEF_FLIPX=1
1000
-GPGEF_SNK_ADD=0
1000
-GPGEVPROMPTX=Länge:
1000
-GPGEF_OANG=70
1000
-GPGEF_STANG=210
1000
-GPGEF_DRAG=1
1000
-GPGEF_CDIST=3
1000
-GPVCC_TABLE=C:\GENIUS\gef\val\di\0401\di1616.val
1000
-GPNND=6
1000
-GPPRE=M
1002
}
1001
GENIUS_GENOREF_13
1005
8A9
1001
VCC
1002
{
1000
-ID7
1000
-IE2
1000
-IK7
1000
-V$PV_GENSYSTEM"GEF\VAL\DI\0401\DI1616_V.DXF"
1002
}
1001
GEVIT
1002
{
1000
-BEHI2.00000001
1000
-BVCCT0
1000
-T2
1000
-GRP0MSL_F16_40-0
1000
-BAML2
1000
-BASK1
1000
-NT0
1000
-DOC
1005
8BF
1000
-MYREF
1005
817
1002
}
1001
GEVMK
1002
{
1000
-CO
1000
-MYREF
1005
817
1002
}
1001
GEVID884347756
1002
{
1002
}
  0
LINE
  5
818
  8
MSL_F16_40-0
 10
272.47419627724588
 20
206.62331688797329
 30
0.0
 11
259.47419627724588
 21
206.62331688797329
 31
0.0
  0
LINE
  5
819
  8
MSL_F16_40-0
 10
259.47419627724588
 20
214.12331688797329
 30
0.0
 11
249.47419627724591
 21
214.12331688797329
 31
0.0
  0
LINE
  5
81A
  8
MSL_F16_40-3
 10
265.47419627724588
 20
220.62331688797329
 30
0.0
 11
249.47419627724591
 21
220.62331688797329
 31
0.0
  0
LINE
  5
81B
  8
MSL_F16_40-0
 10
249.47419627724591
 20
214.12331688797329
 30
0.0
 11
249.47419627724591
 21
231.62331688797329
 31
0.0
  0
POLYLINE
  5
81C
  8
MSL_F16_40-5
 66
     1
 10
0.0
 20
0.0
 30
0.0
 41
0.8367130454073241
1001
GENIUS_GENHINW_13
1000
UCSORG
1010
0.0
1020
0.0
1030
0.0
1000
UCSXDIR
1010
1.0
1020
0.0
1030
0.0
1000
UCSYDIR
1010
0.0
1020
1.0
1030
0.0
1000
HEADTYPE
1070
     8
1000
ENDTYPE
1070
   100
1000
PSTA
1011
249.47419627724591
1021
0.0
1031
0.0
1021
223.62331688797329
1031
0.0
1000
PVERTEX
1011
252.47419627724591
1021
0.0
1031
0.0
1021
220.62331688797329
1031
0.0
1000
TEXTVERHOR
1070
     0
1000
TYPE
1070
     2
1000
GENZICIR
1040
1.5
1000
OBJ_USEPSTA
1070
     0
1000
ENDLAYER
1000
POSL
1000
TEXTLAYER
1000
POSN
1001
GENIUS_GENOREF_13
1005
8A8
  0
VERTEX
  5
81D
  8
MSL_F16_40-5
 10
249.47419627724591
 20
223.62331688797329
 30
0.0
  0
VERTEX
  5
81E
  8
MSL_F16_40-5
 10
251.24196323021229
 20
221.85554993500699
 30
0.0
 41
0.0
  0
VERTEX
  5
81F
  8
MSL_F16_40-5
 10
252.47419627724591
 20
220.62331688797329
 30
0.0
 41
0.0
  0
SEQEND
  5
820
  8
MSL_F16_40-5
  0
LINE
  5
822
  8
ZYL_40_ISO6431-4A
 10
245.8075262772459
 20
236.28700688797329
 30
0.0
 11
245.8075262772459
 21
226.95962688797329
 31
0.0
  0
LINE
  5
823
  8
MSL_F16_40-3
 10
265.47419627724588
 20
221.62331688797329
 30
0.0
 11
291.97419627724588
 21
221.62331688797329
 31
0.0
  0
LINE
  5
824
  8
MSL_F16_40-3
 10
265.47419627724588
 20
220.62331688797329
 30
0.0
 11
265.47419627724588
 21
242.62331688797329
 31
0.0
  0
INSERT
  5
825
  8
MSL_F16_40-0
  2
*U45
 10
306.47419627724588
 20
212.62331688797329
 30
0.0
 41
-1.0
 50
180.0
1001
GENIUS_GEFPARTINS_13
1002
{
1011
306.47419627724588
1021
0.0
1031
0.0
1021
212.62331688797329
1031
0.0
1013
1.0
1023
0.0
1033
0.0
1023
0.0
1033
0.0
1002
}
1001
GENIUS_GENBH_13
1002
{
1000
REFI
1005
619
1002
}
1001
GEVPT
1002
{
1000
-V$PV_GENSYSTEM"GEF\VAL\DI\0301\DI1602_V.DXF"
1000
-FIXP$VCC_TABLE=C:\GENIUS\gef\val\di\0301\di1602.val
1000
-FIXP$TABLE=C:\GENIUS\gef\val\di\0301\di1602.val
1000
-FIXPLOTI=8
1000
-GPGEF_PROCALC=1
1000
-GPGEF_SNK_ADD=0
1000
-GPGEVPROMPTX=Länge:
1000
-GPGEF_OANG=70
1000
-GPGEF_STANG=210
1000
-GPGEF_DRAG=1
1000
-GPGEF_CDIST=3
1000
-GPGL2=0
1000
-GPGL1=0
1000
-GPGEF_FLIPY=2
1000
-GPGEF_FLIPX=2
1000
-GPHIDE=0
1000
-GPGEVBHOP=2
1000
-GPSELMODE=1
1000
-GPPTC=1
1000
-GPPRE=M
1000
-GPEGR=1
1000
-GPTPU=1
1000
-GPNND=6
1002
}
1001
GENIUS_GENOREF_13
1005
8A7
1005
8A6
1005
8A5
1005
8A4
1001
VCC
1002
{
1002
}
1001
GEVIT
1002
{
1000
-BEHI4.00000002
1000
-BVCCT0
1000
-GRP0MSL_F16_40-0
1000
-BAML2
1000
-BASK1
1000
-NT0
1000
-DOC
1005
9B4
1000
-MYREF
1005
825
1002
}
1001
GEVMK
1002
{
1000
-CO
1000
-MYREF
1005
825
1002
}
1001
GEVID884347759
1002
{
1000
-ID31
1002
}
  0
LINE
  5
826
  8
MSL_F16_40-0
 10
314.47419627724588
 20
206.62331688797329
 30
0.0
 11
306.47419627724588
 21
206.62331688797329
 31
0.0
  0
LINE
  5
827
  8
MSL_F16_40-3
 10
314.47419627724588
 20
214.12331688797329
 30
0.0
 11
291.97419627724588
 21
214.12331688797329
 31
0.0
  0
LINE
  5
828
  8
ZYL_40_ISO6431-7
 10
311.47419627724588
 20
212.62331688797329
 30
0.0
 11
330.97419627724588
 21
212.62331688797329
 31
0.0
  0
LINE
  5
829
  8
MSL_F16_40-7AN
 10
329.47419627724588
 20
212.62331688797329
 30
0.0
 11
297.47419627724588
 21
212.62331688797329
 31
0.0
1001
GENIUS_GEFPARTINS_13
1002
{
1011
306.47419627724588
1021
0.0
1031
0.0
1021
212.62331688797329
1031
0.0
1013
1.0
1023
0.0
1033
0.0
1023
0.0
1033
0.0
1002
}
1001
GENIUS_GENOREF_13
1005
8A4
  0
INSERT
  5
82A
  8
MSL_F16_40-0N
  2
*U43
 10
306.47419627724588
 20
212.62331688797329
 30
0.0
 41
-1.0
 50
180.0
1001
GENIUS_GEFPARTINS_13
1002
{
1011
306.47419627724588
1021
0.0
1031
0.0
1021
212.62331688797329
1031
0.0
1013
1.0
1023
0.0
1033
0.0
1023
0.0
1033
0.0
1002
}
1001
GENIUS_GENBH_13
1002
{
1000
REFI
1005
641
1002
}
1001
GEVPT
1002
{
1000
-V$PV_GENSYSTEM"GEF\VAL\DI\0101\DI2401_V.DXF"
1000
-FIXP$VCC_TABLE=C:\GENIUS\gef\val\di\0101\di2401.val
1000
-FIXP$TABLE=C:\GENIUS\gef\val\di\0101\di2401.val
1000
-FIXPNLGMIN=14
1000
-FIXPSHLMAX=8
1000
-FIXPKFDYN=0
1000
-INPPVCCTAB_DYN1=23.302441,2.404929,0,0
1000
-GPGEF_PROCALC=1
1000
-GPGEF_SNK_ADD=0
1000
-GPGEVPROMPTX=Länge:
1000
-GPGEF_OANG=70
1000
-GPGEF_STANG=210
1000
-GPGEF_DRAG=1
1000
-GPGEF_CDIST=3
1000
-GPGL2=0
1000
-GPGL1=0
1000
-GPGEF_FLIPY=2
1000
-GPGEF_FLIPX=2
1000
-GPHIDE=0
1000
-GPGEVBHOP=2
1000
-GPSELMODE=1
1000
-GPPTC=1
1000
-GPPRE=M
1000
-GPEGR=1
1000
-GPTPU=1
1000
-GPNND=6
1002
}
1001
GENIUS_GENOREF_13
1005
8A3
1005
8A5
1005
8A4
1001
VCC
1002
{
1002
}
1001
GEVIT
1002
{
1000
-BEHI4.00000003
1000
-BVCCT0
1000
-GRP0?
1000
-BAML2
1000
-BASK1
1000
-NT1
1000
-DOC
1005
96C
1000
-MYREF
1005
82A
1002
}
1001
GEVMK
1002
{
1000
-CO
1000
-MYREF
1005
82A
1002
}
1001
GEVID884347759
1002
{
1000
-ID26
1002
}
  0
LINE
  5
82B
  8
ZYL_40_ISO6431-3
 10
292.97419627724588
 20
214.61831688797329
 30
0.0
 11
303.97419627724588
 21
214.12331688797329
 31
0.0
1001
GENIUS_GENBH_13
1002
{
1000
OE
1000
CON1
1002
}
1001
GENIUS_GENOREF_13
1005
8AD
  0
LINE
  5
82E
  8
MSL_F16_40-0
 10
314.47419627724588
 20
231.62331688797329
 30
0.0
 11
314.47419627724588
 21
206.62331688797329
 31
0.0
  0
LINE
  5
82F
  8
ZYL_40_ISO6431-4A
 10
324.47419627724588
 20
204.12331688797329
 30
0.0
 11
324.47419627724588
 21
219.12331688797329
 31
0.0
  0
LINE
  5
830
  8
ZYL_40_ISO6431-4A
 10
314.47419627724588
 20
204.12331688797329
 30
0.0
 11
340.47419627724588
 21
204.12331688797329
 31
0.0
  0
LINE
  5
831
  8
MSL_F16_40-3
 10
314.47419627724588
 20
210.2368168879733
 30
0.0
 11
330.97419627724588
 21
210.2368168879733
 31
0.0
  0
LINE
  5
832
  8
MSL_F16_40-3
 10
314.47419627724588
 20
209.62331688797329
 30
0.0
 11
330.97419627724588
 21
209.62331688797329
 31
0.0
  0
LINE
  5
833
  8
ZYL_40_ISO6431-4A
 10
314.47419627724588
 20
206.62331688797329
 30
0.0
 11
324.47419627724588
 21
206.62331688797329
 31
0.0
  0
LINE
  5
834
  8
ZYL_40_ISO6431-4A
 10
314.47419627724588
 20
206.62331688797329
 30
0.0
 11
314.47419627724588
 21
204.12331688797329
 31
0.0
  0
LINE
  5
835
  8
ZYL_40_ISO6431-4A
 10
340.47419627724588
 20
204.12331688797329
 30
0.0
 11
340.47419627724588
 21
206.12331688797329
 31
0.0
  0
LINE
  5
83A
  8
MSL_F16_40-3
 10
314.47419627724588
 20
215.62331688797329
 30
0.0
 11
330.97419627724588
 21
215.62331688797329
 31
0.0
  0
LINE
  5
83B
  8
MSL_F16_40-3
 10
314.47419627724588
 20
215.00981688797339
 30
0.0
 11
330.97419627724588
 21
215.00981688797339
 31
0.0
  0
LINE
  5
83C
  8
ZYL_40_ISO6431-4A
 10
314.47419627724588
 20
218.62331688797329
 30
0.0
 11
324.47419627724588
 21
218.62331688797329
 31
0.0
  0
LINE
  5
83D
  8
ZYL_40_ISO6431-4A
 10
324.47419627724588
 20
219.12331688797329
 30
0.0
 11
314.47419627724588
 21
219.12331688797329
 31
0.0
  0
LINE
  5
840
  8
ZYL_40_ISO6431-4A
 10
419.47419627724588
 20
218.62331688797329
 30
0.0
 11
409.47419627724588
 21
218.62331688797329
 31
0.0
  0
LINE
  5
841
  8
ZYL_40_ISO6431-4A
 10
409.47419627724588
 20
219.12331688797329
 30
0.0
 11
419.47419627724588
 21
219.12331688797329
 31
0.0
  0
LINE
  5
842
  8
ZYL_40_ISO6431-4A
 10
419.47419627724588
 20
206.62331688797329
 30
0.0
 11
409.47419627724588
 21
206.62331688797329
 31
0.0
  0
LINE
  5
843
  8
ZYL_40_ISO6431-3
 10
419.47419627724588
 20
215.00981688797339
 30
0.0
 11
402.97419627724588
 21
215.00981688797339
 31
0.0
  0
LINE
  5
844
  8
ZYL_40_ISO6431-3
 10
419.47419627724588
 20
215.62331688797329
 30
0.0
 11
402.97419627724588
 21
215.62331688797329
 31
0.0
  0
LINE
  5
845
  8
ZYL_40_ISO6431-3
 10
419.47419627724588
 20
210.2368168879733
 30
0.0
 11
402.97419627724588
 21
210.2368168879733
 31
0.0
  0
LINE
  5
846
  8
ZYL_40_ISO6431-3
 10
419.47419627724588
 20
209.62331688797329
 30
0.0
 11
402.97419627724588
 21
209.62331688797329
 31
0.0
  0
LINE
  5
847
  8
ZYL_40_ISO6431-7
 10
422.47419627724588
 20
212.62331688797329
 30
0.0
 11
402.97419627724588
 21
212.62331688797329
 31
0.0
  0
LINE
  5
848
  8
ZYL_40_ISO6431-4A
 10
393.47419627724588
 20
204.12331688797329
 30
0.0
 11
419.47419627724588
 21
204.12331688797329
 31
0.0
  0
LINE
  5
849
  8
ZYL_40_ISO6431-4A
 10
409.47419627724588
 20
204.12331688797329
 30
0.0
 11
409.47419627724588
 21
219.12331688797329
 31
0.0
  0
LINE
  5
84A
  8
ZYL_40_ISO6431-4A
 10
393.47419627724588
 20
206.12331688797329
 30
0.0
 11
393.47419627724588
 21
204.12331688797329
 31
0.0
  0
LINE
  5
84D
  8
ZYL_40_ISO6431-4A
 10
419.47419627724588
 20
204.12331688797329
 30
0.0
 11
419.47419627724588
 21
214.12331688797329
 31
0.0
  0
LINE
  5
84E
  8
ZYL_40_ISO6431-4A
 10
423.47419627724588
 20
214.12331688797329
 30
0.0
 11
423.47419627724588
 21
231.62331688797329
 31
0.0
  0
LINE
  5
84F
  8
ZYL_40_ISO6431-4A
 10
419.47419627724588
 20
214.12331688797329
 30
0.0
 11
423.47419627724588
 21
214.12331688797329
 31
0.0
  0
LINE
  5
850
  8
ZYL_40_ISO6431-4A
 10
393.47419627724588
 20
251.82001688797331
 30
0.0
 11
340.47419627724588
 21
251.82001688797331
 31
0.0
  0
LINE
  5
851
  8
ZYL_40_ISO6431-4A
 10
393.47419627724588
 20
257.12331688797332
 30
0.0
 11
340.47419627724588
 21
257.12331688797332
 31
0.0
  0
LINE
  5
852
  8
MSL_F16_40-0
 10
300.47419627724588
 20
251.62331688797329
 30
0.0
 11
272.47419627724588
 21
251.62331688797329
 31
0.0
  0
LINE
  5
853
  8
ZYL_40_ISO6431-3
 10
292.97419627724588
 20
239.62331688797329
 30
0.0
 11
249.47419627724591
 21
239.62331688797329
 31
0.0
1001
GENIUS_GENBH_13
1002
{
1000
OE
1000
CON1
1002
}
1001
GENIUS_GENOREF_13
1005
8AD
  0
LINE
  5
854
  8
ZYL_40_ISO6431-4A
 10
249.47419627724591
 20
239.62331688797329
 30
0.0
 11
240.47419627724591
 21
239.62331688797329
 31
0.0
1001
GENIUS_GENOREF_13
1005
8AD
  0
LINE
  5
855
  8
ZYL_40_ISO6431-4A
 10
240.47419627724591
 20
237.62331688797329
 30
0.0
 11
231.47019627724589
 21
237.62331688797329
 31
0.0
1001
GENIUS_GENOREF_13
1005
A03
  0
LINE
  5
856
  8
ZYL_40_ISO6431-4
 10
216.47419627724591
 20
236.8565268879733
 30
0.0
 11
225.4781962772459
 21
236.8565268879733
 31
0.0
1001
GENIUS_GENOREF_13
1005
A03
  0
LINE
  5
857
  8
ZYL_40_ISO6431-4A
 10
216.47419627724591
 20
236.8565268879733
 30
0.0
 11
217.2409962772459
 21
237.62331688797329
 31
0.0
  0
LINE
  5
860
  8
MSL_F16_40-0
 10
259.47419627724588
 20
249.1233168879734
 30
0.0
 11
249.47419627724591
 21
249.1233168879734
 31
0.0
  0
LINE
  5
861
  8
MSL_F16_40-3
 10
265.47419627724588
 20
242.62331688797329
 30
0.0
 11
249.47419627724591
 21
242.62331688797329
 31
0.0
  0
INSERT
  5
862
  8
MSL_F16_40-0
  2
*U29
 10
259.47419627724412
 20
250.62331688797329
 30
0.0
1001
GENIUS_GEFPARTINS_13
1002
{
1011
259.47419627724412
1021
0.0
1031
0.0
1021
250.62331688797329
1031
0.0
1013
1.0
1023
0.0
1033
0.0
1023
0.0
1033
0.0
1002
}
1001
GEVPT
1002
{
1000
-V$PV_GENSYSTEM"GEF\VAL\DI\0401\DI1616_V.DXF"
1000
-FIXPLOTI=1.300000000000182E+01
1000
-GPGEVBHOP=2
1000
-GPGEF_PROCALC=1
1000
-GPGEF_FLIPY=1
1000
-GPGEF_FLIPX=1
1000
-GPGEF_SNK_ADD=0
1000
-GPGEVPROMPTX=Länge:
1000
-GPGEF_OANG=70
1000
-GPGEF_STANG=210
1000
-GPGEF_DRAG=1
1000
-GPGEF_CDIST=3
1000
-GPVCC_TABLE=C:\GENIUS\gef\val\di\0401\di1616.val
1000
-GPNND=6
1000
-GPPRE=M
1002
}
1001
GENIUS_GENOREF_13
1005
8A2
1001
VCC
1002
{
1000
-ID8
1000
-IE3
1000
-IK8
1000
-V$PV_GENSYSTEM"GEF\VAL\DI\0401\DI1616_V.DXF"
1002
}
1001
GEVIT
1002
{
1000
-BEHI3.00000001
1000
-BVCCT0
1000
-T2
1000
-GRP0MSL_F16_40-0
1000
-BAML2
1000
-BASK1
1000
-NT0
1000
-DOC
1005
8D3
1000
-MYREF
1005
862
1002
}
1001
GEVMK
1002
{
1000
-CO
1000
-MYREF
1005
862
1002
}
1001
GEVID884347757
1002
{
1002
}
  0
POLYLINE
  5
863
  8
MSL_F16_40-5
 66
     1
 10
0.0
 20
0.0
 30
0.0
 41
0.8367130454073241
1001
GENIUS_GENHINW_13
1000
UCSORG
1010
0.0
1020
0.0
1030
0.0
1000
UCSXDIR
1010
1.0
1020
0.0
1030
0.0
1000
UCSYDIR
1010
0.0
1020
1.0
1030
0.0
1000
HEADTYPE
1070
     8
1000
ENDTYPE
1070
   100
1000
PSTA
1011
249.47419627724591
1021
0.0
1031
0.0
1021
239.62331688797329
1031
0.0
1000
PVERTEX
1011
252.47419627724591
1021
0.0
1031
0.0
1021
242.62331688797329
1031
0.0
1000
TEXTVERHOR
1070
     0
1000
TYPE
1070
     2
1000
GENZICIR
1040
1.5
1000
OBJ_USEPSTA
1070
     0
1000
ENDLAYER
1000
POSL
1000
TEXTLAYER
1000
POSN
1001
GENIUS_GENOREF_13
1005
8A1
  0
VERTEX
  5
864
  8
MSL_F16_40-5
 10
249.47419627724591
 20
239.62331688797329
 30
0.0
  0
VERTEX
  5
865
  8
MSL_F16_40-5
 10
251.24196323021229
 20
241.3910838409397
 30
0.0
 41
0.0
  0
VERTEX
  5
866
  8
MSL_F16_40-5
 10
252.47419627724591
 20
242.62331688797329
 30
0.0
 41
0.0
  0
SEQEND
  5
867
  8
MSL_F16_40-5
  0
LINE
  5
868
  8
MSL_F16_40-3
 10
252.47419627724591
 20
242.62331688797329
 30
0.0
 11
252.47419627724591
 21
220.62331688797329
 31
0.0
  0
LINE
  5
86A
  8
MSL_F16_40-3
 10
265.47419627724588
 20
241.62331688797329
 30
0.0
 11
291.97419627724588
 21
241.62331688797329
 31
0.0
  0
LINE
  5
86C
  8
MSL_F16_40-0
 10
272.47419627724588
 20
256.62331688797332
 30
0.0
 11
259.47419627724588
 21
256.62331688797332
 31
0.0
  0
LINE
  5
86D
  8
MSL_F16_40-0
 10
314.47419627724588
 20
256.62331688797332
 30
0.0
 11
306.47419627724588
 21
256.62331688797332
 31
0.0
  0
LINE
  5
86E
  8
MSL_F16_40-7AN
 10
329.47419627724588
 20
250.62331688797329
 30
0.0
 11
297.47419627724588
 21
250.62331688797329
 31
0.0
1001
GENIUS_GEFPARTINS_13
1002
{
1011
306.47419627724588
1021
0.0
1031
0.0
1021
250.62331688797329
1031
0.0
1013
1.0
1023
0.0
1033
0.0
1023
0.0
1033
0.0
1002
}
1001
GENIUS_GENOREF_13
1005
8A0
  0
LINE
  5
86F
  8
ZYL_40_ISO6431-7
 10
311.47419627724588
 20
250.62331688797329
 30
0.0
 11
330.97419627724588
 21
250.62331688797329
 31
0.0
  0
LINE
  5
870
  8
MSL_F16_40-3
 10
314.47419627724588
 20
249.1233168879734
 30
0.0
 11
291.97419627724588
 21
249.1233168879734
 31
0.0
  0
INSERT
  5
871
  8
MSL_F16_40-0N
  2
*U37
 10
306.47419627724588
 20
250.62331688797329
 30
0.0
1001
GENIUS_GEFPARTINS_13
1002
{
1011
306.47419627724588
1021
0.0
1031
0.0
1021
250.62331688797329
1031
0.0
1013
1.0
1023
0.0
1033
0.0
1023
0.0
1033
0.0
1002
}
1001
GENIUS_GENBH_13
1002
{
1000
REFI
1005
641
1002
}
1001
GEVPT
1002
{
1000
-V$PV_GENSYSTEM"GEF\VAL\DI\0101\DI2401_V.DXF"
1000
-FIXP$VCC_TABLE=C:\GENIUS\gef\val\di\0101\di2401.val
1000
-FIXP$TABLE=C:\GENIUS\gef\val\di\0101\di2401.val
1000
-FIXPNLGMIN=14
1000
-FIXPSHLMAX=8
1000
-FIXPKFDYN=0
1000
-INPPVCCTAB_DYN1=23.302441,2.404929,0,0
1000
-GPGEF_PROCALC=1
1000
-GPGEF_SNK_ADD=0
1000
-GPGEVPROMPTX=Länge:
1000
-GPGEF_OANG=70
1000
-GPGEF_STANG=210
1000
-GPGEF_DRAG=1
1000
-GPGEF_CDIST=3
1000
-GPGL2=0
1000
-GPGL1=0
1000
-GPGEF_FLIPY=2
1000
-GPGEF_FLIPX=2
1000
-GPHIDE=0
1000
-GPGEVBHOP=2
1000
-GPSELMODE=1
1000
-GPPTC=1
1000
-GPPRE=M
1000
-GPEGR=1
1000
-GPTPU=1
1000
-GPNND=6
1002
}
1001
GENIUS_GENOREF_13
1005
89F
1005
89E
1005
8A0
1001
VCC
1002
{
1002
}
1001
GEVIT
1002
{
1000
-BEHI4.00000003
1000
-BVCCT0
1000
-GRP0?
1000
-BAML2
1000
-BASK1
1000
-NT1
1000
-DOC
1005
90D
1000
-MYREF
1005
871
1002
}
1001
GEVMK
1002
{
1000
-CO
1000
-MYREF
1005
871
1002
}
1001
GEVID884347758
1002
{
1000
-ID26
1002
}
  0
INSERT
  5
872
  8
MSL_F16_40-0
  2
*U35
 10
306.47419627724588
 20
250.62331688797329
 30
0.0
1001
GENIUS_GEFPARTINS_13
1002
{
1011
306.47419627724588
1021
0.0
1031
0.0
1021
250.62331688797329
1031
0.0
1013
1.0
1023
0.0
1033
0.0
1023
0.0
1033
0.0
1002
}
1001
GENIUS_GENBH_13
1002
{
1000
REFI
1005
619
1002
}
1001
GEVPT
1002
{
1000
-V$PV_GENSYSTEM"GEF\VAL\DI\0301\DI1602_V.DXF"
1000
-FIXP$VCC_TABLE=C:\GENIUS\gef\val\di\0301\di1602.val
1000
-FIXP$TABLE=C:\GENIUS\gef\val\di\0301\di1602.val
1000
-FIXPLOTI=8
1000
-GPGEF_PROCALC=1
1000
-GPGEF_SNK_ADD=0
1000
-GPGEVPROMPTX=Länge:
1000
-GPGEF_OANG=70
1000
-GPGEF_STANG=210
1000
-GPGEF_DRAG=1
1000
-GPGEF_CDIST=3
1000
-GPGL2=0
1000
-GPGL1=0
1000
-GPGEF_FLIPY=2
1000
-GPGEF_FLIPX=2
1000
-GPHIDE=0
1000
-GPGEVBHOP=2
1000
-GPSELMODE=1
1000
-GPPTC=1
1000
-GPPRE=M
1000
-GPEGR=1
1000
-GPTPU=1
1000
-GPNND=6
1002
}
1001
GENIUS_GENOREF_13
1005
89D
1005
89C
1005
89E
1005
8A0
1001
VCC
1002
{
1002
}
1001
GEVIT
1002
{
1000
-BEHI4.00000002
1000
-BVCCT0
1000
-GRP0MSL_F16_40-0
1000
-BAML2
1000
-BASK1
1000
-NT0
1000
-DOC
1005
8FD
1000
-MYREF
1005
872
1002
}
1001
GEVMK
1002
{
1000
-CO
1000
-MYREF
1005
872
1002
}
1001
GEVID884347758
1002
{
1000
-ID31
1002
}
  0
LINE
  5
873
  8
ZYL_40_ISO6431-3
 10
303.97419627724588
 20
249.1233168879734
 30
0.0
 11
292.97419627724588
 21
248.62831688797331
 31
0.0
1001
GENIUS_GENBH_13
1002
{
1000
OE
1000
CON1
1002
}
1001
GENIUS_GENOREF_13
1005
8AD
  0
LINE
  5
874
  8
MSL_F16_40-3
 10
291.97419627724588
 20
249.1233168879734
 30
0.0
 11
291.97419627724588
 21
214.12331688797329
 31
0.0
  0
LINE
  5
876
  8
ZYL_40_ISO6431-4A
 10
340.47419627724588
 20
259.12331688797332
 30
0.0
 11
314.47419627724588
 21
259.12331688797332
 31
0.0
  0
LINE
  5
87A
  8
ZYL_40_ISO6431-4A
 10
324.47419627724588
 20
259.12331688797332
 30
0.0
 11
324.47419627724588
 21
244.12331688797329
 31
0.0
  0
LINE
  5
87B
  8
MSL_F16_40-3
 10
314.47419627724588
 20
248.2368168879733
 30
0.0
 11
330.97419627724588
 21
248.2368168879733
 31
0.0
  0
LINE
  5
87C
  8
MSL_F16_40-3
 10
314.47419627724588
 20
247.62331688797329
 30
0.0
 11
330.97419627724588
 21
247.62331688797329
 31
0.0
  0
LINE
  5
87D
  8
ZYL_40_ISO6431-4A
 10
314.47419627724588
 20
244.62331688797329
 30
0.0
 11
324.47419627724588
 21
244.62331688797329
 31
0.0
  0
LINE
  5
87E
  8
ZYL_40_ISO6431-4A
 10
324.47419627724588
 20
244.12331688797329
 30
0.0
 11
314.47419627724588
 21
244.12331688797329
 31
0.0
  0
LINE
  5
87F
  8
MSL_F16_40-3
 10
314.47419627724588
 20
253.0098168879733
 30
0.0
 11
330.97419627724588
 21
253.0098168879733
 31
0.0
  0
LINE
  5
880
  8
MSL_F16_40-3
 10
314.47419627724588
 20
253.62331688797329
 30
0.0
 11
330.97419627724588
 21
253.62331688797329
 31
0.0
  0
LINE
  5
881
  8
ZYL_40_ISO6431-4A
 10
314.47419627724588
 20
256.62331688797332
 30
0.0
 11
324.47419627724588
 21
256.62331688797332
 31
0.0
  0
LINE
  5
882
  8
ZYL_40_ISO6431-4A
 10
314.47419627724588
 20
259.12331688797332
 30
0.0
 11
314.47419627724588
 21
256.62331688797332
 31
0.0
  0
LINE
  5
883
  8
ZYL_40_ISO6431-4A
 10
340.47419627724588
 20
257.12331688797332
 30
0.0
 11
340.47419627724588
 21
259.12331688797332
 31
0.0
  0
LINE
  5
884
  8
ZYL_40_ISO6431-4A
 10
419.47419627724588
 20
256.62331688797332
 30
0.0
 11
409.47419627724588
 21
256.62331688797332
 31
0.0
  0
LINE
  5
885
  8
ZYL_40_ISO6431-3
 10
419.47419627724588
 20
253.0098168879733
 30
0.0
 11
402.97419627724588
 21
253.0098168879733
 31
0.0
  0
LINE
  5
886
  8
ZYL_40_ISO6431-3
 10
419.47419627724588
 20
253.62331688797329
 30
0.0
 11
402.97419627724588
 21
253.62331688797329
 31
0.0
  0
LINE
  5
887
  8
ZYL_40_ISO6431-7
 10
422.47419627724588
 20
250.62331688797329
 30
0.0
 11
402.97419627724588
 21
250.62331688797329
 31
0.0
  0
LINE
  5
888
  8
ZYL_40_ISO6431-4A
 10
419.47419627724588
 20
259.12331688797332
 30
0.0
 11
393.47419627724588
 21
259.12331688797332
 31
0.0
  0
LINE
  5
889
  8
ZYL_40_ISO6431-3
 10
419.47419627724588
 20
248.2368168879733
 30
0.0
 11
402.97419627724588
 21
248.2368168879733
 31
0.0
  0
LINE
  5
88A
  8
ZYL_40_ISO6431-3
 10
419.47419627724588
 20
247.62331688797329
 30
0.0
 11
402.97419627724588
 21
247.62331688797329
 31
0.0
  0
LINE
  5
88B
  8
ZYL_40_ISO6431-4A
 10
419.47419627724588
 20
244.62331688797329
 30
0.0
 11
409.47419627724588
 21
244.62331688797329
 31
0.0
  0
LINE
  5
88C
  8
ZYL_40_ISO6431-4A
 10
409.47419627724588
 20
244.12331688797329
 30
0.0
 11
419.47419627724588
 21
244.12331688797329
 31
0.0
  0
LINE
  5
88D
  8
ZYL_40_ISO6431-4A
 10
393.47419627724588
 20
259.12331688797332
 30
0.0
 11
393.47419627724588
 21
257.12331688797332
 31
0.0
  0
LINE
  5
88E
  8
ZYL_40_ISO6431-4A
 10
409.47419627724588
 20
259.12331688797332
 30
0.0
 11
409.47419627724588
 21
244.12331688797329
 31
0.0
  0
LINE
  5
892
  8
ZYL_40_ISO6431-4A
 10
423.47419627724588
 20
249.1233168879734
 30
0.0
 11
419.47419627724588
 21
249.1233168879734
 31
0.0
  0
LINE
  5
893
  8
ZYL_40_ISO6431-4A
 10
419.47419627724588
 20
249.1233168879734
 30
0.0
 11
419.47419627724588
 21
259.12331688797332
 31
0.0
  0
INSERT
  5
894
  8
MSL_F16_40-0N
  2
*U41
 10
306.47419627724588
 20
212.62331688797329
 30
0.0
 41
-1.0
 50
180.0
1001
GENIUS_GEFPARTINS_13
1002
{
1011
306.47419627724588
1021
0.0
1031
0.0
1021
212.62331688797329
1031
0.0
1013
1.0
1023
0.0
1033
0.0
1023
0.0
1033
0.0
1002
}
1001
GEVPT
1002
{
1000
-V$PV_GENSYSTEM"GEF\VAL\SYS\DUDUS_S.DXF"
1000
-FIXPGL2=0
1000
-FIXPPART10=0
1000
-FIXPPART9=0
1000
-FIXPPART8=0
1000
-FIXPPART7=0
1000
-FIXPPART6=0
1000
-FIXPPART5=0
1000
-FIXPDXF4=C:\GENIUS\gef\val\di\0301\di1602_v.dxf
1000
-FIXPTABLE4=C:\GENIUS\gef\val\di\0301\di1602.val
1000
-FIXPPART4=1
1000
-FIXPTABLE3=C:\GENIUS\gef\val\sys\mrbean.val
1000
-FIXPPART3=0
1000
-FIXPTABLE2=C:\GENIUS\gef\val\sys\mrbean.val
1000
-FIXPPART2=0
1000
-FIXPSCRID=2
1000
-FIXPDXF1=C:\GENIUS\gef\val\di\0101\di2401_v.dxf
1000
-FIXPTABLE1=C:\GENIUS\gef\val\di\0101\di2401.val
1000
-FIXPPART1=1
1000
-FIXPSPOCK1=C:\GENIUS\GEF\VAL\SYS\SPOCK2_S.DXF
1000
-FIXPHIDE=1
1000
-FIXPGL1=8
1000
-GPGEF_PROCALC=1
1000
-GPGEF_SNK_ADD=0
1000
-GPGEVPROMPTX=Länge:
1000
-GPGEF_OANG=70
1000
-GPGEF_STANG=210
1000
-GPGEF_DRAG=1
1000
-GPGEF_CDIST=3
1000
-GPGL2=0
1000
-GPGL1=0
1000
-GPGEF_FLIPY=2
1000
-GPGEF_FLIPX=2
1000
-GPHIDE=0
1000
-GPGEVBHOP=2
1000
-GPSELMODE=1
1000
-GPPTC=1
1000
-GPPRE=M
1000
-GPEGR=1
1000
-GPTPU=1
1000
-GPNND=6
1002
}
1001
GENIUS_GENOREF_13
1005
89B
1005
8A6
1005
8A5
1005
8A4
1001
VCC
1002
{
1000
-ID10
1000
-IE4
1000
-IK10
1000
-V$PV_GENSYSTEM"GEF\VAL\SYS\DUDUS_S.DXF"
1002
}
1001
GEVIT
1002
{
1000
-BEHI4.00000001
1000
-BVCCT0
1000
-GRP0?
1000
-BAML2
1000
-BASK1
1000
-DOC
1005
962
1000
-MYREF
1005
894
1002
}
1001
GEVMK
1002
{
1000
-CO
1000
-MYREF
1005
894
1002
}
1001
GEVID884347759
1002
{
1002
}
  0
INSERT
  5
895
  8
MSL_F16_40-0
  2
*U39
 10
306.47419627724588
 20
212.62331688797329
 30
0.0
 41
-1.0
 50
180.0
1001
GENIUS_GEFPARTINS_13
1002
{
1011
306.47419627724588
1021
0.0
1031
0.0
1021
212.62331688797329
1031
0.0
1013
1.0
1023
0.0
1033
0.0
1023
0.0
1033
0.0
1002
}
1001
GEVPT
1002
{
1000
-V$PV_GENSYSTEM"GEF\VAL\SYS\SPOCK2_S.DXF"
1000
-FIXPL=8
1000
-FIXPH=3.3
1000
-GPGEF_PROCALC=1
1000
-GPGEF_SNK_ADD=0
1000
-GPGEVPROMPTX=Länge:
1000
-GPGEF_OANG=70
1000
-GPGEF_STANG=210
1000
-GPGEF_DRAG=1
1000
-GPGEF_CDIST=3
1000
-GPGL2=0
1000
-GPGL1=0
1000
-GPGEF_FLIPY=2
1000
-GPGEF_FLIPX=2
1000
-GPHIDE=0
1000
-GPGEVBHOP=2
1000
-GPSELMODE=1
1000
-GPPTC=1
1000
-GPPRE=M
1000
-GPEGR=1
1000
-GPTPU=1
1000
-GPNND=6
1002
}
1001
GENIUS_GENOREF_13
1005
89A
1005
8A4
1001
VCC
1002
{
1002
}
1001
GEVIT
1002
{
1000
-BEHI4.00000004
1000
-BVCCT0
1000
-GRP0MSL_F16_40-0
1000
-BAML2
1000
-BASK1
1000
-NT0
1000
-DOC
1005
956
1000
-MYREF
1005
895
1002
}
1001
GEVMK
1002
{
1000
-CO
1000
-MYREF
1005
895
1002
}
1001
GEVID884347759
1002
{
1000
-ID54
1002
}
  0
INSERT
  5
896
  8
MSL_F16_40-0N
  2
*U33
 10
306.47419627724588
 20
250.62331688797329
 30
0.0
1001
GENIUS_GEFPARTINS_13
1002
{
1011
306.47419627724588
1021
0.0
1031
0.0
1021
250.62331688797329
1031
0.0
1013
1.0
1023
0.0
1033
0.0
1023
0.0
1033
0.0
1002
}
1001
GEVPT
1002
{
1000
-V$PV_GENSYSTEM"GEF\VAL\SYS\DUDUS_S.DXF"
1000
-FIXPGL2=0
1000
-FIXPPART10=0
1000
-FIXPPART9=0
1000
-FIXPPART8=0
1000
-FIXPPART7=0
1000
-FIXPPART6=0
1000
-FIXPPART5=0
1000
-FIXPDXF4=C:\GENIUS\gef\val\di\0301\di1602_v.dxf
1000
-FIXPTABLE4=C:\GENIUS\gef\val\di\0301\di1602.val
1000
-FIXPPART4=1
1000
-FIXPTABLE3=C:\GENIUS\gef\val\sys\mrbean.val
1000
-FIXPPART3=0
1000
-FIXPTABLE2=C:\GENIUS\gef\val\sys\mrbean.val
1000
-FIXPPART2=0
1000
-FIXPSCRID=2
1000
-FIXPDXF1=C:\GENIUS\gef\val\di\0101\di2401_v.dxf
1000
-FIXPTABLE1=C:\GENIUS\gef\val\di\0101\di2401.val
1000
-FIXPPART1=1
1000
-FIXPSPOCK1=C:\GENIUS\GEF\VAL\SYS\SPOCK2_S.DXF
1000
-FIXPHIDE=1
1000
-FIXPGL1=8
1000
-GPGEF_PROCALC=1
1000
-GPGEF_SNK_ADD=0
1000
-GPGEVPROMPTX=Länge:
1000
-GPGEF_OANG=70
1000
-GPGEF_STANG=210
1000
-GPGEF_DRAG=1
1000
-GPGEF_CDIST=3
1000
-GPGL2=0
1000
-GPGL1=0
1000
-GPGEF_FLIPY=2
1000
-GPGEF_FLIPX=2
1000
-GPHIDE=0
1000
-GPGEVBHOP=2
1000
-GPSELMODE=1
1000
-GPPTC=1
1000
-GPPRE=M
1000
-GPEGR=1
1000
-GPTPU=1
1000
-GPNND=6
1002
}
1001
GENIUS_GENOREF_13
1005
899
1005
89C
1005
89E
1005
8A0
1001
VCC
1002
{
1000
-ID9
1000
-IE4
1000
-IK9
1000
-V$PV_GENSYSTEM"GEF\VAL\SYS\DUDUS_S.DXF"
1002
}
1001
GEVIT
1002
{
1000
-BEHI4.00000001
1000
-BVCCT0
1000
-GRP0?
1000
-BAML2
1000
-BASK1
1000
-DOC
1005
8F3
1000
-MYREF
1005
896
1002
}
1001
GEVMK
1002
{
1000
-CO
1000
-MYREF
1005
896
1002
}
1001
GEVID884347758
1002
{
1002
}
  0
INSERT
  5
897
  8
MSL_F16_40-0
  2
*U31
 10
306.47419627724588
 20
250.62331688797329
 30
0.0
1001
GENIUS_GEFPARTINS_13
1002
{
1011
306.47419627724588
1021
0.0
1031
0.0
1021
250.62331688797329
1031
0.0
1013
1.0
1023
0.0
1033
0.0
1023
0.0
1033
0.0
1002
}
1001
GEVPT
1002
{
1000
-V$PV_GENSYSTEM"GEF\VAL\SYS\SPOCK2_S.DXF"
1000
-FIXPL=8
1000
-FIXPH=3.3
1000
-GPGEF_PROCALC=1
1000
-GPGEF_SNK_ADD=0
1000
-GPGEVPROMPTX=Länge:
1000
-GPGEF_OANG=70
1000
-GPGEF_STANG=210
1000
-GPGEF_DRAG=1
1000
-GPGEF_CDIST=3
1000
-GPGL2=0
1000
-GPGL1=0
1000
-GPGEF_FLIPY=2
1000
-GPGEF_FLIPX=2
1000
-GPHIDE=0
1000
-GPGEVBHOP=2
1000
-GPSELMODE=1
1000
-GPPTC=1
1000
-GPPRE=M
1000
-GPEGR=1
1000
-GPTPU=1
1000
-GPNND=6
1002
}
1001
GENIUS_GENOREF_13
1005
898
1005
8A0
1001
VCC
1002
{
1002
}
1001
GEVIT
1002
{
1000
-BEHI4.00000004
1000
-BVCCT0
1000
-GRP0MSL_F16_40-0
1000
-BAML2
1000
-BASK1
1000
-NT0
1000
-DOC
1005
8E7
1000
-MYREF
1005
897
1002
}
1001
GEVMK
1002
{
1000
-CO
1000
-MYREF
1005
897
1002
}
1001
GEVID884347758
1002
{
1000
-ID54
1002
}
  0
POINT
  5
898
  8
0
 10
0.0
 20
0.0
 30
0.0
1001
GENIUS_GENBH_13
1002
{
1000
BGO
1005
89E
1002
}
1002
{
1000
FGLEVEL
1040
4.0000000399999989
1002
}
1002
{
1000
FLAGS
1070
    36
1002
}
1002
{
1000
OIUMAP
1000
OIU
1002
}
1002
{
1000
MODIFY
1070
     0
1002
}
1001
GENIUS_GENODEF_13
1002
{
1000
HIER
1070
     1
1002
}
1002
{
1000
MANEDIT
1070
     0
1002
}
1002
{
1000
NOSEL
1070
     1
1002
}
1002
{
1000
BEHIND
1070
     0
1002
}
1002
{
1000
REACTOR
1002
}
1001
GENIUS_GENOBJ-NBEHI-BHF_13
1002
{
1000
OWNER
1000
GENBEHI
1002
}
1001
GENIUS_GENOENT_13
1002
{
1000
MYREF
1005
898
1002
}
1002
{
1000
GRP
1005
0
1002
}
1001
GENIUS_GENOLIS_13
1002
{
1000
ENT
1005
897
1002
}
  0
POINT
  5
899
  8
0
 10
0.0
 20
0.0
 30
0.0
1001
GENIUS_GENBH_13
1002
{
1000
FGO
1005
89D
1002
}
1001
GENIUS_GENODEF_13
1002
{
1000
HIER
1070
     1
1002
}
1002
{
1000
MANEDIT
1070
     0
1002
}
1002
{
1000
NOSEL
1070
     1
1002
}
1002
{
1000
BEHIND
1070
     0
1002
}
1002
{
1000
REACTOR
1002
}
1001
GENIUS_GENOBJ-NBEHI-BHB_13
1002
{
1000
OWNER
1000
GENBEHI
1002
}
1001
GENIUS_GENOENT_13
1002
{
1000
MYREF
1005
899
1002
}
1002
{
1000
GRP
1005
0
1002
}
1001
GENIUS_GENOLIS_13
1002
{
1000
ENT
1005
896
1002
}
  0
POINT
  5
89A
  8
0
 10
0.0
 20
0.0
 30
0.0
1001
GENIUS_GENBH_13
1002
{
1000
BGO
1005
8A5
1002
}
1002
{
1000
FGLEVEL
1040
4.0000000399999989
1002
}
1002
{
1000
FLAGS
1070
    36
1002
}
1002
{
1000
OIUMAP
1000
OIU
1002
}
1002
{
1000
MODIFY
1070
     0
1002
}
1001
GENIUS_GENODEF_13
1002
{
1000
HIER
1070
     1
1002
}
1002
{
1000
MANEDIT
1070
     0
1002
}
1002
{
1000
NOSEL
1070
     1
1002
}
1002
{
1000
BEHIND
1070
     0
1002
}
1002
{
1000
REACTOR
1002
}
1001
GENIUS_GENOBJ-NBEHI-BHF_13
1002
{
1000
OWNER
1000
GENBEHI
1002
}
1001
GENIUS_GENOENT_13
1002
{
1000
MYREF
1005
89A
1002
}
1002
{
1000
GRP
1005
0
1002
}
1001
GENIUS_GENOLIS_13
1002
{
1000
ENT
1005
895
1002
}
  0
POINT
  5
89B
  8
0
 10
0.0
 20
0.0
 30
0.0
1001
GENIUS_GENBH_13
1002
{
1000
FGO
1005
8A7
1002
}
1001
GENIUS_GENODEF_13
1002
{
1000
HIER
1070
     1
1002
}
1002
{
1000
MANEDIT
1070
     0
1002
}
1002
{
1000
NOSEL
1070
     1
1002
}
1002
{
1000
BEHIND
1070
     0
1002
}
1002
{
1000
REACTOR
1002
}
1001
GENIUS_GENOBJ-NBEHI-BHB_13
1002
{
1000
OWNER
1000
GENBEHI
1002
}
1001
GENIUS_GENOENT_13
1002
{
1000
MYREF
1005
89B
1002
}
1002
{
1000
GRP
1005
0
1002
}
1001
GENIUS_GENOLIS_13
1002
{
1000
ENT
1005
894
1002
}
  0
POINT
  5
89C
  8
0
 10
0.0
 20
0.0
 30
0.0
1001
GENIUS_GENBH_13
1002
{
1000
FGO
1005
89F
1002
}
1001
GENIUS_GENODEF_13
1002
{
1000
HIER
1070
     1
1002
}
1002
{
1000
MANEDIT
1070
     0
1002
}
1002
{
1000
NOSEL
1070
     1
1002
}
1002
{
1000
BEHIND
1070
     1
1002
}
1002
{
1000
REACTOR
1002
}
1001
GENIUS_GENOBJ-NBEHI-BHB_13
1002
{
1000
OWNER
1000
GENBEHI
1002
}
1001
GENIUS_GENOENT_13
1002
{
1000
MYREF
1005
89C
1002
}
1002
{
1000
GRP
1005
0
1002
}
1001
GENIUS_GENOLIS_13
1002
{
1000
ENT
1005
872
1005
896
1002
}
  0
POINT
  5
89D
  8
0
 10
0.0
 20
0.0
 30
0.0
1001
GENIUS_GENBH_13
1002
{
1000
BGO
1005
899
1002
}
1002
{
1000
FGLEVEL
1040
4.000000019999999
1002
}
1002
{
1000
FLAGS
1070
    36
1002
}
1002
{
1000
OIUMAP
1000
OIU
1002
}
1002
{
1000
MODIFY
1070
     0
1002
}
1001
GENIUS_GENODEF_13
1002
{
1000
HIER
1070
     1
1002
}
1002
{
1000
MANEDIT
1070
     0
1002
}
1002
{
1000
NOSEL
1070
     1
1002
}
1002
{
1000
BEHIND
1070
     1
1002
}
1002
{
1000
REACTOR
1002
}
1001
GENIUS_GENOBJ-NBEHI-BHF_13
1002
{
1000
OWNER
1000
GENBEHI
1002
}
1001
GENIUS_GENOENT_13
1002
{
1000
MYREF
1005
89D
1002
}
1002
{
1000
GRP
1005
0
1002
}
1001
GENIUS_GENOLIS_13
1002
{
1000
ENT
1005
872
1002
}
  0
POINT
  5
89E
  8
0
 10
0.0
 20
0.0
 30
0.0
1001
GENIUS_GENBH_13
1002
{
1000
FGO
1005
898
1002
}
1001
GENIUS_GENODEF_13
1002
{
1000
HIER
1070
     1
1002
}
1002
{
1000
MANEDIT
1070
     0
1002
}
1002
{
1000
NOSEL
1070
     1
1002
}
1002
{
1000
BEHIND
1070
     0
1002
}
1002
{
1000
REACTOR
1002
}
1001
GENIUS_GENOBJ-NBEHI-BHB_13
1002
{
1000
OWNER
1000
GENBEHI
1002
}
1001
GENIUS_GENOENT_13
1002
{
1000
MYREF
1005
89E
1002
}
1002
{
1000
GRP
1005
0
1002
}
1001
GENIUS_GENOLIS_13
1002
{
1000
ENT
1005
871
1005
872
1005
896
1002
}
  0
POINT
  5
89F
  8
0
 10
0.0
 20
0.0
 30
0.0
1001
GENIUS_GENBH_13
1002
{
1000
BGO
1005
89C
1002
}
1002
{
1000
FGLEVEL
1040
4.0000000299999989
1002
}
1002
{
1000
FLAGS
1070
    36
1002
}
1002
{
1000
OIUMAP
1000
OIU
1002
}
1002
{
1000
MODIFY
1070
     0
1002
}
1001
GENIUS_GENODEF_13
1002
{
1000
HIER
1070
     1
1002
}
1002
{
1000
MANEDIT
1070
     0
1002
}
1002
{
1000
NOSEL
1070
     1
1002
}
1002
{
1000
BEHIND
1070
     1
1002
}
1002
{
1000
REACTOR
1002
}
1001
GENIUS_GENOBJ-NBEHI-BHF_13
1002
{
1000
OWNER
1000
GENBEHI
1002
}
1001
GENIUS_GENOENT_13
1002
{
1000
MYREF
1005
89F
1002
}
1002
{
1000
GRP
1005
0
1002
}
1001
GENIUS_GENOLIS_13
1002
{
1000
ENT
1005
871
1002
}
  0
POINT
  5
8A0
  8
0
 10
0.0
 20
0.0
 30
0.0
1001
GENIUS_GENODEF_13
1002
{
1000
HIER
1070
   200
1002
}
1002
{
1000
MANEDIT
1070
     0
1002
}
1002
{
1000
NOSEL
1070
     0
1002
}
1002
{
1000
BEHIND
1070
     0
1002
}
1002
{
1000
REACTOR
1002
}
1001
GENIUS_GEFSTDP_13
1002
{
1000
DSC
1002
{
1002
{
1002
}
1002
}
1002
}
1002
{
1000
SCP
1002
{
1000
TYPE
1000
SCP
1002
}
1002
{
1000
GMODE
1070
     1
1002
}
1002
{
1000
DMODE
1070
     0
1002
}
1002
{
1000
SSIZE
1002
{
1002
{
1000
NND
1000
TPU
1000
PTC
1000
CON
1000
EGR
1000
PRE
1002
}
1002
{
1040
6.0
1040
1.0
1040
1.0
1000
x
1000
1
1000
M
1002
}
1002
}
1002
}
1002
{
1000
ASIZE
1002
{
1002
{
1000
NND
1000
TPU
1000
EGR
1000
PRE
1000
PTC
1002
}
1002
{
1040
6.0
1040
1.0
1000
1
1000
M
1040
1.0
1002
}
1002
}
1002
}
1002
{
1000
VIEW
1070
     2
1002
}
1002
{
1000
1
1002
{
1002
{
1000
SFILE
1000
$PV_GENSYSTEM"gef\val\di\0101\di2401_v.dxf"
1002
}
1002
{
1000
ST1
1000
$PV_GENSYSTEM"gef\val\di\0101\di2401.val"
1002
}
1002
{
1000
ASSO
1000
DIN_912
1002
}
1002
{
1000
VIEW
1000
V
1002
}
1002
{
1000
SSTATUS
1000
~T
1002
}
1002
{
1000
GROUP
1000
0101
1002
}
1002
}
1002
}
1002
{
1000
4
1002
{
1002
{
1000
SFILE
1000
$PV_GENSYSTEM"gef\val\di\0301\di1602_v.dxf"
1002
}
1002
{
1000
ST1
1000
$PV_GENSYSTEM"gef\val\di\0301\di1602.val"
1002
}
1002
{
1000
ASSO
1000
 
1002
}
1002
{
1000
VIEW
1000
V
1002
}
1002
{
1000
SSTATUS
1000
~T
1002
}
1002
{
1000
GROUP
1000
0301
1002
}
1002
}
1002
}
1002
}
1002
{
1000
DSC1
1000
DSC1
1002
{
1000
~DESCR1
1000
 
1000
~BORE1
1000
 x 
1000
~GL1
1002
}
1002
}
1002
{
1000
DSC2
1000
DSC2
1002
{
1000
~DESCR2
1000
 
1000
~BORE2
1000
 x 
1000
~GL2
1002
}
1002
}
1002
{
1000
KEY
1000
SCP
1002
}
1002
{
1000
INS
1002
{
1040
306.47419627724952
1040
143.93210826924249
1040
0.0
1002
}
1002
}
1002
{
1000
ANG
1040
0.0
1002
}
1002
{
1000
VCC
1002
{
1000
$NND=6.000000000000000E+00
1000
$TPU=1.000000000000000E+00
1000
$EGR=1
1000
$PRE=M
1000
$PTC=1.000000000000000E+00
1000
$SELMODE=1
1000
-V$PV_GENSYSTEM"gef\val\sys\dudus_s.dxf
1000
-LPHIDE=1
1000
$GEVBHOP=2
1000
-LPSPOCK1=C:\GENIUS\GEF\VAL\SYS\SPOCK2_S.DXF
1000
$HIDE=0
1000
-LPPART1=1
1000
-LPTABLE1=$PV_GENSYSTEM"gef\val\di\0101\di2401.val"
1000
-LPDXF1=$PV_GENSYSTEM"gef\val\di\0101\di2401_v.dxf"
1000
-LPSCRID=2
1000
-LPPART2=0
1000
-LPTABLE2=$PV_GENSYSTEM"gef\val\sys\mrbean.val
1000
-LPPART3=0
1000
-LPTABLE3=$PV_GENSYSTEM"gef\val\sys\mrbean.val
1000
-LPPART4=1
1000
-LPTABLE4=$PV_GENSYSTEM"gef\val\di\0301\di1602.val"
1000
-LPDXF4=$PV_GENSYSTEM"gef\val\di\0301\di1602_v.dxf"
1000
-LPPART5=0
1000
-LPPART6=0
1000
-LPPART7=0
1000
-LPPART8=0
1000
-LPPART9=0
1000
-LPPART10=0
1000
$GEF_FLIPX=2
1000
$GEF_FLIPY=2
1000
$GL1=0
1000
$GL2=0
1000
-GRPNAME1MSL_F16_40-0
1000
-LPGL1=8.000000000000000E+00
1000
-LPGL2=0
1000
-GRPNAME2MSL_F16_40-0
1000
-RBSTDRD
1000
-RBDESCR1
1000
-RBDESCR2
1000
-RBBORE1
1000
-RBBORE2
1000
-RBGL1
1000
-RBGL2
1000
-RBBORED
1000
-RBHEADD
1000
-RBCDEP
1000
-RBCANG
1000
$GEF_CDIST=3.000000000000000E+00
1000
$GEF_DRAG=1
1000
$GEF_STANG=2.100000000000000E+02
1000
$GEF_OANG=7.000000000000000E+01
1000
$GEVPROMPTX= Länge: 
1000
$GEF_SNK_ADD=0.000000000000000E+00
1000
-GRPNAME0?
1000
-BAML2
1000
$GEF_PROCALC=1
1002
}
1002
}
1002
{
1000
LST
1002
{
1002
{
1002
}
1002
}
1002
}
1002
{
1000
RET
1002
{
1002
{
1000
CANG
1002
}
1002
{
1000
CDEP
1002
}
1002
{
1000
HEADD
1002
}
1002
{
1000
BORED
1002
}
1002
{
1000
GL2
1000
0
1002
}
1002
{
1000
GL1
1000
8
1002
}
1002
{
1000
BORE2
1002
}
1002
{
1000
BORE1
1000
DIN EN 20273 - M6 - H13
1002
}
1002
{
1000
DESCR2
1002
}
1002
{
1000
DESCR1
1000
Durchgangsloch
1002
}
1002
{
1000
STDRD
1002
}
1002
}
1002
}
1002
{
1000
SYSTEM
1040
1.0
1002
}
1002
{
1000
INFEL
1002
{
1005
67F
1002
}
1002
}
1001
GENIUS_GENOBJ-F-PART_13
1002
{
1000
OWNER
1000
GEF
1002
}
1001
GENIUS_GENOENT_13
1002
{
1000
MYREF
1005
8A0
1002
}
1002
{
1000
GRP
1005
0
1002
}
1001
GENIUS_GENOLIS_13
1002
{
1000
ENT
1005
86E
1005
896
1005
897
1005
871
1005
872
1002
}
  0
POINT
  5
8A1
  8
0
 62
     7
 10
0.0
 20
0.0
 30
0.0
1001
GENIUS_GENODEF_13
1002
{
1000
HIER
1070
   100
1002
}
1002
{
1000
MANEDIT
1070
     0
1002
}
1002
{
1000
NOSEL
1070
     0
1002
}
1002
{
1000
BEHIND
1070
     0
1002
}
1002
{
1000
REACTOR
1002
}
1001
GENIUS_GENOBJ-N-LEADER_13
1002
{
1000
OWNER
1000
GEN
1002
}
1001
GENIUS_GENOENT_13
1002
{
1000
MYREF
1005
8A1
1002
}
1002
{
1000
GRP
1005
0
1002
}
1001
GENIUS_GENOLIS_13
1002
{
1000
ENT
1005
863
1002
}
  0
POINT
  5
8A2
  8
0
 10
0.0
 20
0.0
 30
0.0
1001
GENIUS_GENODEF_13
1002
{
1000
HIER
1070
   200
1002
}
1002
{
1000
MANEDIT
1070
     0
1002
}
1002
{
1000
NOSEL
1070
     0
1002
}
1002
{
1000
BEHIND
1070
     0
1002
}
1002
{
1000
REACTOR
1002
}
1001
GENIUS_GENOBJ-F-PART_13
1002
{
1000
OWNER
1000
GEF
1002
}
1001
GENIUS_GEFSTDP_13
1002
{
1000
SUG
1000
M
1040
6.0
1002
}
1002
{
1000
DSC
1000
DSC
1002
{
1000
~DESCR
1000
 
1000
~STDRT
1000
(gefmsg "gefcall" 409)
1000
~LOTI
1002
}
1002
}
1002
{
1000
KEY
1000
THRF
1002
}
1002
{
1000
INS
1002
{
1040
259.4741962772477
1040
143.93210826924249
1040
0.0
1002
}
1002
}
1002
{
1000
ANG
1040
0.0
1002
}
1002
{
1000
VCC
1002
{
1000
-LPLOTI=1.300000000000182E+01
1000
$PRE=M
1000
$NND=6.000000000000000E+00
1000
-GRPNAME0MSL_F16_40-0
1000
-RBDESCR
1000
-RBSTDRT
1000
-RBLOTI
1000
-RBGD1
1000
-V$PV_GENSYSTEM"gef\val\di\0401\di1616_v.dxf"
1000
$VCC_TABLE=$PV_GENSYSTEM"gef\val\di\0401\di1616.val"
1000
$GEF_CDIST=3.000000000000000E+00
1000
$GEF_DRAG=1
1000
$GEF_STANG=2.100000000000000E+02
1000
$GEF_OANG=7.000000000000000E+01
1000
$GEVPROMPTX= Länge: 
1000
$GEF_SNK_ADD=0.000000000000000E+00
1000
$GEF_FLIPX=1
1000
$GEF_FLIPY=1
1000
-GRPNAME1?
1000
-BAML2
1000
$GEF_PROCALC=1
1000
$GEVBHOP=2
1002
}
1002
}
1002
{
1000
LST
1002
{
1002
{
1000
GROUP
1000
0401
1002
}
1002
{
1000
VIEW
1000
V
1002
}
1002
{
1000
SFILE
1000
$PV_GENSYSTEM"gef\val\di\0401\di1616_v.dxf"
1002
}
1002
{
1000
ST1
1000
$PV_GENSYSTEM"gef\val\di\0401\di1616.val"
1002
}
1002
{
1000
GENASSO
1000
 
1002
}
1002
}
1002
}
1002
{
1000
RET
1002
{
1002
{
1000
GD1
1000
4.917
1002
}
1002
{
1000
LOTI
1000
1.300000000000182E+01
1002
}
1002
{
1000
STDRT
1000
DIN 13 - M6
1002
}
1002
{
1000
DESCR
1000
Metrisches ISO-Gewinde
1002
}
1002
}
1002
}
1002
{
1000
SYSTEM
1040
1.0
1002
}
1002
{
1000
INFEL
1002
{
1002
}
1002
}
1001
GENIUS_GENOENT_13
1002
{
1000
MYREF
1005
8A2
1002
}
1002
{
1000
GRP
1005
0
1002
}
1001
GENIUS_GENOLIS_13
1002
{
1000
ENT
1005
862
1002
}
  0
POINT
  5
8A3
  8
0
 10
0.0
 20
0.0
 30
0.0
1001
GENIUS_GENBH_13
1002
{
1000
BGO
1005
8A6
1002
}
1002
{
1000
FGLEVEL
1040
4.0000000299999989
1002
}
1002
{
1000
FLAGS
1070
    36
1002
}
1002
{
1000
OIUMAP
1000
OIU
1002
}
1002
{
1000
MODIFY
1070
     0
1002
}
1001
GENIUS_GENODEF_13
1002
{
1000
HIER
1070
     1
1002
}
1002
{
1000
MANEDIT
1070
     0
1002
}
1002
{
1000
NOSEL
1070
     1
1002
}
1002
{
1000
BEHIND
1070
     1
1002
}
1002
{
1000
REACTOR
1002
}
1001
GENIUS_GENOBJ-NBEHI-BHF_13
1002
{
1000
OWNER
1000
GENBEHI
1002
}
1001
GENIUS_GENOENT_13
1002
{
1000
MYREF
1005
8A3
1002
}
1002
{
1000
GRP
1005
0
1002
}
1001
GENIUS_GENOLIS_13
1002
{
1000
ENT
1005
82A
1002
}
  0
POINT
  5
8A4
  8
0
 10
0.0
 20
0.0
 30
0.0
1001
GENIUS_GENODEF_13
1002
{
1000
HIER
1070
   200
1002
}
1002
{
1000
MANEDIT
1070
     0
1002
}
1002
{
1000
NOSEL
1070
     0
1002
}
1002
{
1000
BEHIND
1070
     0
1002
}
1002
{
1000
REACTOR
1002
}
1001
GENIUS_GEFSTDP_13
1002
{
1000
DSC
1002
{
1002
{
1002
}
1002
}
1002
}
1002
{
1000
SCP
1002
{
1000
TYPE
1000
SCP
1002
}
1002
{
1000
GMODE
1070
     1
1002
}
1002
{
1000
DMODE
1070
     0
1002
}
1002
{
1000
SSIZE
1002
{
1002
{
1000
NND
1000
TPU
1000
PTC
1000
CON
1000
EGR
1000
PRE
1002
}
1002
{
1040
6.0
1040
1.0
1040
1.0
1000
x
1000
1
1000
M
1002
}
1002
}
1002
}
1002
{
1000
ASIZE
1002
{
1002
{
1000
NND
1000
TPU
1000
EGR
1000
PRE
1000
PTC
1002
}
1002
{
1040
6.0
1040
1.0
1000
1
1000
M
1040
1.0
1002
}
1002
}
1002
}
1002
{
1000
VIEW
1070
     2
1002
}
1002
{
1000
1
1002
{
1002
{
1000
SFILE
1000
$PV_GENSYSTEM"gef\val\di\0101\di2401_v.dxf"
1002
}
1002
{
1000
ST1
1000
$PV_GENSYSTEM"gef\val\di\0101\di2401.val"
1002
}
1002
{
1000
ASSO
1000
DIN_912
1002
}
1002
{
1000
VIEW
1000
V
1002
}
1002
{
1000
SSTATUS
1000
~T
1002
}
1002
{
1000
GROUP
1000
0101
1002
}
1002
}
1002
}
1002
{
1000
4
1002
{
1002
{
1000
SFILE
1000
$PV_GENSYSTEM"gef\val\di\0301\di1602_v.dxf"
1002
}
1002
{
1000
ST1
1000
$PV_GENSYSTEM"gef\val\di\0301\di1602.val"
1002
}
1002
{
1000
ASSO
1000
 
1002
}
1002
{
1000
VIEW
1000
V
1002
}
1002
{
1000
SSTATUS
1000
~T
1002
}
1002
{
1000
GROUP
1000
0301
1002
}
1002
}
1002
}
1002
}
1002
{
1000
DSC1
1000
DSC1
1002
{
1000
~DESCR1
1000
 
1000
~BORE1
1000
 x 
1000
~GL1
1002
}
1002
}
1002
{
1000
DSC2
1000
DSC2
1002
{
1000
~DESCR2
1000
 
1000
~BORE2
1000
 x 
1000
~GL2
1002
}
1002
}
1002
{
1000
KEY
1000
SCP
1002
}
1002
{
1000
INS
1002
{
1040
306.47419627724952
1040
143.93210826924249
1040
0.0
1002
}
1002
}
1002
{
1000
ANG
1040
0.0
1002
}
1002
{
1000
VCC
1002
{
1000
$NND=6.000000000000000E+00
1000
$TPU=1.000000000000000E+00
1000
$EGR=1
1000
$PRE=M
1000
$PTC=1.000000000000000E+00
1000
$SELMODE=1
1000
-V$PV_GENSYSTEM"gef\val\sys\dudus_s.dxf
1000
-LPHIDE=1
1000
$GEVBHOP=2
1000
-LPSPOCK1=C:\GENIUS\GEF\VAL\SYS\SPOCK2_S.DXF
1000
$HIDE=0
1000
-LPPART1=1
1000
-LPTABLE1=$PV_GENSYSTEM"gef\val\di\0101\di2401.val"
1000
-LPDXF1=$PV_GENSYSTEM"gef\val\di\0101\di2401_v.dxf"
1000
-LPSCRID=2
1000
-LPPART2=0
1000
-LPTABLE2=$PV_GENSYSTEM"gef\val\sys\mrbean.val
1000
-LPPART3=0
1000
-LPTABLE3=$PV_GENSYSTEM"gef\val\sys\mrbean.val
1000
-LPPART4=1
1000
-LPTABLE4=$PV_GENSYSTEM"gef\val\di\0301\di1602.val"
1000
-LPDXF4=$PV_GENSYSTEM"gef\val\di\0301\di1602_v.dxf"
1000
-LPPART5=0
1000
-LPPART6=0
1000
-LPPART7=0
1000
-LPPART8=0
1000
-LPPART9=0
1000
-LPPART10=0
1000
$GEF_FLIPX=2
1000
$GEF_FLIPY=2
1000
$GL1=0
1000
$GL2=0
1000
-GRPNAME1MSL_F16_40-0
1000
-LPGL1=8.000000000000000E+00
1000
-LPGL2=0
1000
-GRPNAME2MSL_F16_40-0
1000
-RBSTDRD
1000
-RBDESCR1
1000
-RBDESCR2
1000
-RBBORE1
1000
-RBBORE2
1000
-RBGL1
1000
-RBGL2
1000
-RBBORED
1000
-RBHEADD
1000
-RBCDEP
1000
-RBCANG
1000
$GEF_CDIST=3.000000000000000E+00
1000
$GEF_DRAG=1
1000
$GEF_STANG=2.100000000000000E+02
1000
$GEF_OANG=7.000000000000000E+01
1000
$GEVPROMPTX= Länge: 
1000
$GEF_SNK_ADD=0.000000000000000E+00
1000
-GRPNAME0?
1000
-BAML2
1000
$GEF_PROCALC=1
1002
}
1002
}
1002
{
1000
LST
1002
{
1002
{
1002
}
1002
}
1002
}
1002
{
1000
RET
1002
{
1002
{
1000
CANG
1002
}
1002
{
1000
CDEP
1002
}
1002
{
1000
HEADD
1002
}
1002
{
1000
BORED
1002
}
1002
{
1000
GL2
1000
0
1002
}
1002
{
1000
GL1
1000
8
1002
}
1002
{
1000
BORE2
1002
}
1002
{
1000
BORE1
1000
DIN EN 20273 - M6 - H13
1002
}
1002
{
1000
DESCR2
1002
}
1002
{
1000
DESCR1
1000
Durchgangsloch
1002
}
1002
{
1000
STDRD
1002
}
1002
}
1002
}
1002
{
1000
SYSTEM
1040
1.0
1002
}
1002
{
1000
INFEL
1002
{
1005
67F
1002
}
1002
}
1001
GENIUS_GENOBJ-F-PART_13
1002
{
1000
OWNER
1000
GEF
1002
}
1001
GENIUS_GENOENT_13
1002
{
1000
MYREF
1005
8A4
1002
}
1002
{
1000
GRP
1005
0
1002
}
1001
GENIUS_GENOLIS_13
1002
{
1000
ENT
1005
829
1005
894
1005
895
1005
82A
1005
825
1002
}
  0
POINT
  5
8A5
  8
0
 10
0.0
 20
0.0
 30
0.0
1001
GENIUS_GENBH_13
1002
{
1000
FGO
1005
89A
1002
}
1001
GENIUS_GENODEF_13
1002
{
1000
HIER
1070
     1
1002
}
1002
{
1000
MANEDIT
1070
     0
1002
}
1002
{
1000
NOSEL
1070
     1
1002
}
1002
{
1000
BEHIND
1070
     0
1002
}
1002
{
1000
REACTOR
1002
}
1001
GENIUS_GENOBJ-NBEHI-BHB_13
1002
{
1000
OWNER
1000
GENBEHI
1002
}
1001
GENIUS_GENOENT_13
1002
{
1000
MYREF
1005
8A5
1002
}
1002
{
1000
GRP
1005
0
1002
}
1001
GENIUS_GENOLIS_13
1002
{
1000
ENT
1005
82A
1005
825
1005
894
1002
}
  0
POINT
  5
8A6
  8
0
 10
0.0
 20
0.0
 30
0.0
1001
GENIUS_GENBH_13
1002
{
1000
FGO
1005
8A3
1002
}
1001
GENIUS_GENODEF_13
1002
{
1000
HIER
1070
     1
1002
}
1002
{
1000
MANEDIT
1070
     0
1002
}
1002
{
1000
NOSEL
1070
     1
1002
}
1002
{
1000
BEHIND
1070
     1
1002
}
1002
{
1000
REACTOR
1002
}
1001
GENIUS_GENOBJ-NBEHI-BHB_13
1002
{
1000
OWNER
1000
GENBEHI
1002
}
1001
GENIUS_GENOENT_13
1002
{
1000
MYREF
1005
8A6
1002
}
1002
{
1000
GRP
1005
0
1002
}
1001
GENIUS_GENOLIS_13
1002
{
1000
ENT
1005
825
1005
894
1002
}
  0
POINT
  5
8A7
  8
0
 10
0.0
 20
0.0
 30
0.0
1001
GENIUS_GENBH_13
1002
{
1000
BGO
1005
89B
1002
}
1002
{
1000
FGLEVEL
1040
4.000000019999999
1002
}
1002
{
1000
FLAGS
1070
    36
1002
}
1002
{
1000
OIUMAP
1000
OIU
1002
}
1002
{
1000
MODIFY
1070
     0
1002
}
1001
GENIUS_GENODEF_13
1002
{
1000
HIER
1070
     1
1002
}
1002
{
1000
MANEDIT
1070
     0
1002
}
1002
{
1000
NOSEL
1070
     1
1002
}
1002
{
1000
BEHIND
1070
     1
1002
}
1002
{
1000
REACTOR
1002
}
1001
GENIUS_GENOBJ-NBEHI-BHF_13
1002
{
1000
OWNER
1000
GENBEHI
1002
}
1001
GENIUS_GENOENT_13
1002
{
1000
MYREF
1005
8A7
1002
}
1002
{
1000
GRP
1005
0
1002
}
1001
GENIUS_GENOLIS_13
1002
{
1000
ENT
1005
825
1002
}
  0
POINT
  5
8A8
  8
0
 62
     7
 10
0.0
 20
0.0
 30
0.0
1001
GENIUS_GENODEF_13
1002
{
1000
HIER
1070
   100
1002
}
1002
{
1000
MANEDIT
1070
     0
1002
}
1002
{
1000
NOSEL
1070
     0
1002
}
1002
{
1000
BEHIND
1070
     0
1002
}
1002
{
1000
REACTOR
1002
}
1001
GENIUS_GENOBJ-N-LEADER_13
1002
{
1000
OWNER
1000
GEN
1002
}
1001
GENIUS_GENOENT_13
1002
{
1000
MYREF
1005
8A8
1002
}
1002
{
1000
GRP
1005
0
1002
}
1001
GENIUS_GENOLIS_13
1002
{
1000
ENT
1005
81C
1002
}
  0
POINT
  5
8A9
  8
0
 10
0.0
 20
0.0
 30
0.0
1001
GENIUS_GENODEF_13
1002
{
1000
HIER
1070
   200
1002
}
1002
{
1000
MANEDIT
1070
     0
1002
}
1002
{
1000
NOSEL
1070
     0
1002
}
1002
{
1000
BEHIND
1070
     0
1002
}
1002
{
1000
REACTOR
1002
}
1001
GENIUS_GENOBJ-F-PART_13
1002
{
1000
OWNER
1000
GEF
1002
}
1001
GENIUS_GEFSTDP_13
1002
{
1000
DSC
1000
DSC
1002
{
1000
~DESCR
1000
 
1000
~STDRT
1000
(gefmsg "gefcall" 409)
1000
~LOTI
1002
}
1002
}
1002
{
1000
SUG
1000
M
1040
6.0
1002
}
1002
{
1000
KEY
1000
THRF
1002
}
1002
{
1000
INS
1002
{
1040
259.47419627724952
1040
105.93210826924251
1040
0.0
1002
}
1002
}
1002
{
1000
ANG
1040
0.0
1002
}
1002
{
1000
VCC
1002
{
1000
-LPLOTI=1.300000000000000E+01
1000
$PRE=M
1000
$NND=6.000000000000000E+00
1000
-GRPNAME0MSL_F16_40-0
1000
-RBDESCR
1000
-RBSTDRT
1000
-RBLOTI
1000
-RBGD1
1000
-V$PV_GENSYSTEM"gef\val\di\0401\di1616_v.dxf"
1000
$VCC_TABLE=$PV_GENSYSTEM"gef\val\di\0401\di1616.val"
1000
$GEF_CDIST=3.000000000000000E+00
1000
$GEF_DRAG=1
1000
$GEF_STANG=2.100000000000000E+02
1000
$GEF_OANG=7.000000000000000E+01
1000
$GEVPROMPTX= Länge: 
1000
$GEF_SNK_ADD=0.000000000000000E+00
1000
$GEF_FLIPX=1
1000
$GEF_FLIPY=1
1000
-GRPNAME1?
1000
-BAML2
1000
$GEF_PROCALC=1
1000
$GEVBHOP=2
1002
}
1002
}
1002
{
1000
LST
1002
{
1002
{
1000
GROUP
1000
0401
1002
}
1002
{
1000
VIEW
1000
V
1002
}
1002
{
1000
SFILE
1000
$PV_GENSYSTEM"gef\val\di\0401\di1616_v.dxf"
1002
}
1002
{
1000
ST1
1000
$PV_GENSYSTEM"gef\val\di\0401\di1616.val"
1002
}
1002
{
1000
GENASSO
1000
 
1002
}
1002
}
1002
}
1002
{
1000
RET
1002
{
1002
{
1000
GD1
1000
4.917
1002
}
1002
{
1000
LOTI
1000
1.300000000000000E+01
1002
}
1002
{
1000
STDRT
1000
DIN 13 - M6
1002
}
1002
{
1000
DESCR
1000
Metrisches ISO-Gewinde
1002
}
1002
}
1002
}
1002
{
1000
SYSTEM
1040
1.0
1002
}
1002
{
1000
INFEL
1002
{
1002
}
1002
}
1001
GENIUS_GENOENT_13
1002
{
1000
MYREF
1005
8A9
1002
}
1002
{
1000
GRP
1005
0
1002
}
1001
GENIUS_GENOLIS_13
1002
{
1000
ENT
1005
817
1002
}
  0
POINT
  5
8AA
  8
0
 10
0.0
 20
0.0
 30
0.0
1001
GENIUS_GENBH_13
1002
{
1000
FGO
1005
8AC
1002
}
1001
GENIUS_GENODEF_13
1002
{
1000
HIER
1070
     1
1002
}
1002
{
1000
MANEDIT
1070
     0
1002
}
1002
{
1000
NOSEL
1070
     1
1002
}
1002
{
1000
BEHIND
1070
     0
1002
}
1002
{
1000
REACTOR
1002
}
1001
GENIUS_GENOBJ-NBEHI-BHB_13
1002
{
1000
OWNER
1000
GENBEHI
1002
}
1001
GENIUS_GENOENT_13
1002
{
1000
MYREF
1005
8AA
1002
}
1002
{
1000
GRP
1005
0
1002
}
1001
GENIUS_GENOLIS_13
1002
{
1000
ENT
1005
7FD
1005
43
1005
7C
1002
}
  0
POINT
  5
8AD
  8
0
 10
0.0
 20
0.0
 30
0.0
1001
GENIUS_GENBH_13
1002
{
1000
FGO
1005
578
1002
}
1001
GENIUS_GENODEF_13
1002
{
1000
HIER
1070
     1
1002
}
1002
{
1000
MANEDIT
1070
     0
1002
}
1002
{
1000
NOSEL
1070
     1
1002
}
1002
{
1000
BEHIND
1070
     0
1002
}
1002
{
1000
REACTOR
1002
}
1001
GENIUS_GENOBJ-NBEHI-BHB_13
1002
{
1000
OWNER
1000
GENBEHI
1002
}
1001
GENIUS_GENOENT_13
1002
{
1000
MYREF
1005
8AD
1002
}
1002
{
1000
GRP
1005
0
1002
}
1001
GENIUS_GENOLIS_13
1002
{
1000
ENT
1005
854
1005
7FC
1005
82B
1005
873
1005
7E7
1005
7E8
1005
853
1005
7FF
1002
}
  0
LINE
  5
9CA
  8
ZYL_40_ISO6431-7
 10
405.47419627724952
 20
262.12331688797332
 30
0.0
 11
405.47419627724952
 21
252.54481688797341
 31
0.0
  0
LINE
  5
9CB
  8
ZYL_40_ISO6431-3
 10
399.75169627724949
 20
259.12331688797332
 30
0.0
 11
399.75169627724949
 21
252.54481688797341
 31
0.0
  0
LINE
  5
9CC
  8
ZYL_40_ISO6431-3
 10
398.89569627724961
 20
259.12331688797332
 30
0.0
 11
398.89569627724961
 21
252.54481688797341
 31
0.0
  0
LINE
  5
9CD
  8
ZYL_40_ISO6431-3
 10
412.05269627724948
 20
259.12331688797332
 30
0.0
 11
412.05269627724948
 21
252.54481688797341
 31
0.0
  0
LINE
  5
9CE
  8
ZYL_40_ISO6431-3
 10
411.19669627724949
 20
259.12331688797332
 30
0.0
 11
411.19669627724949
 21
252.54481688797341
 31
0.0
  0
LINE
  5
9CF
  8
ZYL_40_ISO6431-7
 10
328.47419627724952
 20
262.12331688797337
 30
0.0
 11
328.47419627724952
 21
252.5448168879735
 31
0.0
  0
LINE
  5
9D0
  8
ZYL_40_ISO6431-3
 10
322.75169627724961
 20
259.12331688797337
 30
0.0
 11
322.75169627724961
 21
252.5448168879735
 31
0.0
  0
LINE
  5
9D1
  8
ZYL_40_ISO6431-3
 10
321.89569627724961
 20
259.12331688797337
 30
0.0
 11
321.89569627724961
 21
252.5448168879735
 31
0.0
  0
LINE
  5
9D2
  8
ZYL_40_ISO6431-3
 10
335.05269627724948
 20
259.12331688797337
 30
0.0
 11
335.05269627724948
 21
252.5448168879735
 31
0.0
  0
LINE
  5
9D3
  8
ZYL_40_ISO6431-3
 10
334.19669627724949
 20
259.12331688797337
 30
0.0
 11
334.19669627724949
 21
252.5448168879735
 31
0.0
  0
LINE
  5
9DD
  8
ZYL_40_ISO6431-7
 10
231.47019627724589
 20
231.62331688797329
 30
0.0
 11
426.47419627724588
 21
231.62331688797329
 31
0.0
  0
LINE
  5
9E7
  8
ZYL_40_ISO6431-4A
 10
225.4781962772459
 20
241.12331857086329
 30
0.0
 11
231.47019627724589
 21
241.12331857086329
 31
0.0
1001
GENIUS_GENOREF_13
1005
A02
  0
LINE
  5
9EB
  8
ZYL_40_ISO6431-4A
 10
225.4781962772459
 20
222.12331857086329
 30
0.0
 11
231.47019627724589
 21
222.12331857086329
 31
0.0
1001
GENIUS_GENOREF_13
1005
A02
  0
ARC
  5
9F0
  8
ZYL_40_ISO6431-4A
 10
254.60685747710241
 20
236.3733177294267
 30
0.0
 40
29.128661199856491
 50
170.6148846620975
 51
189.38511533793579
  0
ARC
  5
9F6
  8
ZYL_40_ISO6431-4A
 10
202.34153507739941
 20
236.3733177294516
 30
0.0
 40
29.128661199856491
 50
350.61488466200962
 51
9.3851153378479744
  0
ARC
  5
9F8
  8
ZYL_40_ISO6431-4A
 10
254.60685747710241
 20
226.87331604651999
 30
0.0
 40
29.128661199856491
 50
170.6148846620641
 51
189.38511533790239
  0
ARC
  5
9F9
  8
ZYL_40_ISO6431-4A
 10
202.34153507739941
 20
226.87331604649509
 30
0.0
 40
29.128661199856491
 50
350.61488466215201
 51
9.3851153379903955
  0
LINE
  5
9FA
  8
ZYL_40_ISO6431-3
 10
225.4781962772459
 20
236.8565268879733
 30
0.0
 11
231.47019627724589
 21
236.8565268879733
 31
0.0
1001
GENIUS_GENBH_13
1002
{
1000
OE
1000
BELI
1002
}
1001
GENIUS_GENOREF_13
1005
A03
  0
LINE
  5
9FB
  8
ZYL_40_ISO6431-4
 10
231.47019627724589
 20
236.8565268879733
 30
0.0
 11
240.47419627724591
 21
236.8565268879733
 31
0.0
1001
GENIUS_GENOREF_13
1005
A03
  0
LINE
  5
9FC
  8
ZYL_40_ISO6431-3
 10
231.47019627724589
 20
237.62331688797329
 30
0.0
 11
225.4781962772459
 21
237.62331688797329
 31
0.0
1001
GENIUS_GENBH_13
1002
{
1000
OE
1000
CON1
1002
}
1001
GENIUS_GENOREF_13
1005
A03
  0
LINE
  5
9FD
  8
ZYL_40_ISO6431-4A
 10
225.4781962772459
 20
237.62331688797329
 30
0.0
 11
217.2409962772459
 21
237.62331688797329
 31
0.0
1001
GENIUS_GENOREF_13
1005
A03
  0
LINE
  5
9FE
  8
ZYL_40_ISO6431-3
 10
225.4781962772459
 20
226.39010688797339
 30
0.0
 11
231.47019627724589
 21
226.39010688797339
 31
0.0
1001
GENIUS_GENBH_13
1002
{
1000
OE
1000
BELI
1002
}
1001
GENIUS_GENOREF_13
1005
A03
  0
LINE
  5
9FF
  8
ZYL_40_ISO6431-4
 10
231.47019627724589
 20
226.39010688797339
 30
0.0
 11
240.47419627724591
 21
226.39010688797339
 31
0.0
1001
GENIUS_GENOREF_13
1005
A03
  0
LINE
  5
A00
  8
ZYL_40_ISO6431-3
 10
231.47019627724589
 20
225.62331688797329
 30
0.0
 11
225.4781962772459
 21
225.62331688797329
 31
0.0
1001
GENIUS_GENBH_13
1002
{
1000
OE
1000
CON1
1002
}
1001
GENIUS_GENOREF_13
1005
A03
  0
LINE
  5
A01
  8
ZYL_40_ISO6431-4A
 10
225.4781962772459
 20
225.62331688797329
 30
0.0
 11
217.2409962772459
 21
225.62331688797329
 31
0.0
1001
GENIUS_GENOREF_13
1005
A03
  0
POINT
  5
A02
  8
0
 10
0.0
 20
0.0
 30
0.0
1001
GENIUS_GENBH_13
1002
{
1000
BGO
1005
A03
1002
}
1002
{
1000
FLAGS
1070
   164
1002
}
1002
{
1000
MODIFY
1002
{
1000
I
1000
H
1002
}
1002
}
1001
GENIUS_GENODEF_13
1002
{
1000
HIER
1070
     1
1002
}
1002
{
1000
MANEDIT
1070
     0
1002
}
1002
{
1000
NOSEL
1070
     1
1002
}
1002
{
1000
BEHIND
1070
     0
1002
}
1002
{
1000
REACTOR
1002
}
1001
GENIUS_GENOBJ-NBEHI-BHF_13
1002
{
1000
OWNER
1000
GENBEHI
1002
}
1001
GENIUS_GENOENT_13
1002
{
1000
MYREF
1005
A02
1002
}
1002
{
1000
GRP
1005
0
1002
}
1001
GENIUS_GENOLIS_13
1002
{
1000
ENT
1005
9E7
1005
7EE
1005
7ED
1005
808
1005
809
1005
9EB
1002
}
  0
POINT
  5
A03
  8
0
 10
0.0
 20
0.0
 30
0.0
1001
GENIUS_GENBH_13
1002
{
1000
FGO
1005
A02
1002
}
1001
GENIUS_GENODEF_13
1002
{
1000
HIER
1070
     1
1002
}
1002
{
1000
MANEDIT
1070
     0
1002
}
1002
{
1000
NOSEL
1070
     1
1002
}
1002
{
1000
BEHIND
1070
     0
1002
}
1002
{
1000
REACTOR
1002
}
1001
GENIUS_GENOBJ-NBEHI-BHB_13
1002
{
1000
OWNER
1000
GENBEHI
1002
}
1001
GENIUS_GENOENT_13
1002
{
1000
MYREF
1005
A03
1002
}
1002
{
1000
GRP
1005
0
1002
}
1001
GENIUS_GENOLIS_13
1002
{
1000
ENT
1005
A01
1005
A00
1005
9FF
1005
9FE
1005
9FD
1005
9FC
1005
9FB
1005
9FA
1005
803
1005
804
1005
855
1005
856
1002
}
  0
LINE
  5
A06
  8
ZYL_40_ISO6431-3
 10
225.47819627724951
 20
130.1653182692425
 30
0.0
 11
231.4701962772495
 21
130.1653182692425
 31
0.0
1001
GENIUS_GENBH_13
1002
{
1000
OE
1000
BELI
1002
}
1001
GENIUS_GENOREF_13
1005
A0F
  0
LINE
  5
A07
  8
ZYL_40_ISO6431-4
 10
231.4701962772495
 20
130.1653182692425
 30
0.0
 11
240.47419627724949
 21
130.1653182692425
 31
0.0
1001
GENIUS_GENOREF_13
1005
A0F
  0
LINE
  5
A08
  8
ZYL_40_ISO6431-3
 10
231.4701962772495
 20
130.93210826924249
 30
0.0
 11
225.47819627724951
 21
130.93210826924249
 31
0.0
1001
GENIUS_GENBH_13
1002
{
1000
OE
1000
CON1
1002
}
1001
GENIUS_GENOREF_13
1005
A0F
  0
LINE
  5
A09
  8
ZYL_40_ISO6431-4A
 10
225.47819627724951
 20
130.93210826924249
 30
0.0
 11
217.24099627724951
 21
130.93210826924249
 31
0.0
1001
GENIUS_GENOREF_13
1005
A0F
  0
LINE
  5
A0A
  8
ZYL_40_ISO6431-3
 10
225.47819627724951
 20
119.69889826924251
 30
0.0
 11
231.4701962772495
 21
119.69889826924251
 31
0.0
1001
GENIUS_GENBH_13
1002
{
1000
OE
1000
BELI
1002
}
1001
GENIUS_GENOREF_13
1005
A0F
  0
LINE
  5
A0B
  8
ZYL_40_ISO6431-4
 10
231.4701962772495
 20
119.69889826924251
 30
0.0
 11
240.47419627724949
 21
119.69889826924251
 31
0.0
1001
GENIUS_GENOREF_13
1005
A0F
  0
LINE
  5
A0C
  8
ZYL_40_ISO6431-3
 10
231.4701962772495
 20
118.93210826924251
 30
0.0
 11
225.47819627724951
 21
118.93210826924251
 31
0.0
1001
GENIUS_GENBH_13
1002
{
1000
OE
1000
CON1
1002
}
1001
GENIUS_GENOREF_13
1005
A0F
  0
LINE
  5
A0D
  8
ZYL_40_ISO6431-4A
 10
225.47819627724951
 20
118.93210826924251
 30
0.0
 11
217.24099627724951
 21
118.93210826924251
 31
0.0
1001
GENIUS_GENOREF_13
1005
A0F
  0
POINT
  5
A0E
  8
0
 10
0.0
 20
0.0
 30
0.0
1001
GENIUS_GENBH_13
1002
{
1000
BGO
1005
A0F
1002
}
1002
{
1000
FLAGS
1070
   164
1002
}
1002
{
1000
MODIFY
1002
{
1000
I
1000
H
1002
}
1002
}
1001
GENIUS_GENODEF_13
1002
{
1000
HIER
1070
     1
1002
}
1002
{
1000
MANEDIT
1070
     0
1002
}
1002
{
1000
NOSEL
1070
     1
1002
}
1002
{
1000
BEHIND
1070
     0
1002
}
1002
{
1000
REACTOR
1002
}
1001
GENIUS_GENOBJ-NBEHI-BHF_13
1002
{
1000
OWNER
1000
GENBEHI
1002
}
1001
GENIUS_GENOENT_13
1002
{
1000
MYREF
1005
A0E
1002
}
1002
{
1000
GRP
1005
0
1002
}
1001
GENIUS_GENOLIS_13
1002
{
1000
ENT
1005
503
1005
4FF
1005
4EB
1005
4EC
1005
500
1005
504
1005
501
1005
4FD
1005
4E9
1005
4EA
1005
4FE
1005
502
1002
}
  0
POINT
  5
A0F
  8
0
 10
0.0
 20
0.0
 30
0.0
1001
GENIUS_GENBH_13
1002
{
1000
FGO
1005
A0E
1002
}
1001
GENIUS_GENODEF_13
1002
{
1000
HIER
1070
     1
1002
}
1002
{
1000
MANEDIT
1070
     0
1002
}
1002
{
1000
NOSEL
1070
     1
1002
}
1002
{
1000
BEHIND
1070
     0
1002
}
1002
{
1000
REACTOR
1002
}
1001
GENIUS_GENOBJ-NBEHI-BHB_13
1002
{
1000
OWNER
1000
GENBEHI
1002
}
1001
GENIUS_GENOENT_13
1002
{
1000
MYREF
1005
A0F
1002
}
1002
{
1000
GRP
1005
0
1002
}
1001
GENIUS_GENOLIS_13
1002
{
1000
ENT
1005
A0D
1005
A0C
1005
A0B
1005
A0A
1005
A09
1005
A08
1005
A07
1005
A06
1005
4A7
1005
4AC
1005
4A6
1005
4AB
1002
}
  0
INSERT
  5
A1D
  8
MSL_F16_40-0
  2
*U46
 10
278.47419627724952
 20
124.932108269244
 30
0.0
1001
GENIUS_GEFPARTINS_13
1002
{
1011
278.47419627724952
1021
0.0
1031
0.0
1021
124.932108269244
1031
0.0
1013
1.0
1023
0.0
1033
0.0
1023
0.0
1033
0.0
1002
}
1001
VCC
1002
{
1000
-ID1
1000
-IE1
1000
-IK1
1000
-V$PV_GENSYSTEM"GEF\VAL\DI\0405\DI1627_D.DXF"
1002
}
1001
GEVIT
1002
{
1000
-BEHI1.00000001
1000
-BVCCT0
1000
-GRP0?
1000
-BAML2
1000
-BASK1
1000
-NT0
1000
-DOC
1005
BA
1000
-MYREF
1005
A1D
1002
}
1001
GEVPT
1002
{
1000
-V$PV_GENSYSTEM"GEF\VAL\DI\0405\DI1627_D.DXF"
1000
-GPGEF_PROCALC=1
1000
-GPGEF_FLIPY=1
1000
-GPGEF_FLIPX=1
1000
-GPGEF_SNK_ADD=0
1000
-GPGEVPROMPTX=Länge:
1000
-GPGEF_OANG=70
1000
-GPGEF_STANG=210
1000
-GPGEF_DRAG=1
1000
-GPGEF_CDIST=3
1000
-GPVCC_TABLE=C:\GENIUS\gef\val\di\0405\di1627.val
1000
-GPNM1=1/8
1000
-GPPRE=G
1002
}
1001
GEVID884340777
1002
{
1002
}
1001
GENIUS_GENOREF_13
1005
D6
1005
DC
  0
LINE
  5
B5C
  8
MSF16-3
 10
527.79062856238158
 20
209.62331857086329
 30
0.0
 11
503.7906285623817
 21
209.62331857086329
 31
0.0
1001
GENIUS_GENBH_13
1002
{
1000
OE
1000
CON1
1002
}
1001
GENIUS_GENOREF_13
1005
E3A
  0
LINE
  5
B5E
  8
MSF16-4A
 10
520.5406285623817
 20
296.62331857086338
 30
0.0
 11
515.79062856238158
 21
296.62331857086338
 31
0.0
  0
LINE
  5
B5F
  8
MSF16-4A
 10
520.5406285623817
 20
306.62331857086531
 30
0.0
 11
511.0406285623817
 21
306.62331857086531
 31
0.0
  0
LINE
  5
B60
  8
MSF16-4A
 10
511.0406285623817
 20
307.62331857086338
 30
0.0
 11
520.5406285623817
 21
307.62331857086338
 31
0.0
  0
LINE
  5
B61
  8
MSF16-4A
 10
515.79062856238158
 20
309.62331857086338
 30
0.0
 11
520.5406285623817
 21
309.62331857086531
 31
0.0
  0
LINE
  5
B62
  8
MSF16-4A
 10
520.65462856237934
 20
289.37331857086338
 30
0.0
 11
515.79062856238158
 21
289.37331857086338
 31
0.0
  0
LINE
  5
B63
  8
MSF16-4A
 10
515.79062856238158
 20
288.62331857086338
 30
0.0
 11
519.90462856237934
 21
288.62331857086338
 31
0.0
  0
INSERT
  5
B64
  8
MSF16-0
  2
*U50
 10
515.79062856237795
 20
292.6233185708648
 30
0.0
 50
270.0
1001
GENIUS_GEFPARTINS_13
1002
{
1011
515.79062856237795
1021
0.0
1031
0.0
1021
292.6233185708648
1031
0.0
1013
-0.0000000000000002
1023
0.0
1033
0.0
1023
-1.0
1033
0.0
1002
}
1001
VCC
1002
{
1000
-ID12
1000
-IE2
1000
-IK12
1000
-V$PV_GENSYSTEM"GEF\VAL\DI\0405\DI1627_V.DXF"
1002
}
1001
GEVIT
1002
{
1000
-BEHI2.00000001
1000
-BVCCT0
1000
-GRP0MSF16-0
1000
-BAML2
1000
-BASK1
1000
-NT0
1000
-DOC
1005
C61
1000
-MYREF
1005
B64
1002
}
1001
GEVPT
1002
{
1000
-V$PV_GENSYSTEM"GEF\VAL\DI\0405\DI1627_V.DXF"
1000
-FIXPLOTI=8.000000000000000E+00
1000
-GPGEF_PROCALC=1
1000
-GPGEF_FLIPY=1
1000
-GPGEF_FLIPX=1
1000
-GPGEF_SNK_ADD=0
1000
-GPGEVPROMPTX=Länge:
1000
-GPGEF_OANG=70
1000
-GPGEF_STANG=210
1000
-GPGEF_DRAG=1
1000
-GPGEF_CDIST=3
1000
-GPVCC_TABLE=C:\GENIUS\gef\val\di\0405\di1627.val
1000
-GPNM1=1/8
1000
-GPPRE=G
1002
}
1001
GENIUS_GENOREF_13
1005
C4F
1005
C4E
1001
GEVMK
1002
{
1000
-CO
1000
-MYREF
1005
B64
1002
}
1001
GEVID884348323
1002
{
1002
}
  0
POLYLINE
  5
B65
  8
MSF16-0
 66
     1
 10
0.0
 20
0.0
 30
0.0
 70
     4
 75
     6
  0
VERTEX
  5
B66
  8
MSF16-0
 10
507.16326511124061
 20
292.62331857086332
 30
0.0
 70
    16
  0
VERTEX
  5
B67
  8
MSF16-0
 10
507.16326511124061
 20
292.62331857086332
 30
0.0
 70
     8
  0
VERTEX
  5
B68
  8
MSF16-0
 10
507.11771779489999
 20
291.26652550825332
 30
0.0
 70
     8
  0
VERTEX
  5
B69
  8
MSF16-0
 10
507.11191596655561
 20
290.17494796525358
 30
0.0
 70
     8
  0
VERTEX
  5
B6A
  8
MSF16-0
 10
507.13907381295058
 20
289.31472418781527
 30
0.0
 70
     8
  0
VERTEX
  5
B6B
  8
MSF16-0
 10
507.19240552082778
 20
288.6519924218893
 30
0.0
 70
     8
  0
VERTEX
  5
B6C
  8
MSF16-0
 10
507.26512527693012
 20
288.1528909134264
 30
0.0
 70
     8
  0
VERTEX
  5
B6D
  8
MSF16-0
 10
507.35044726800049
 20
287.7835579083773
 30
0.0
 70
     8
  0
VERTEX
  5
B6E
  8
MSF16-0
 10
507.44158568078183
 20
287.51013165269319
 30
0.0
 70
     8
  0
VERTEX
  5
B6F
  8
MSF16-0
 10
507.53175470201688
 20
287.29875039232462
 30
0.0
 70
     8
  0
VERTEX
  5
B70
  8
MSF16-0
 10
507.6156373087922
 20
287.12046206028452
 30
0.0
 70
     8
  0
VERTEX
  5
B71
  8
MSF16-0
 10
507.69379163956671
 20
286.9659533378325
 30
0.0
 70
     8
  0
VERTEX
  5
B72
  8
MSF16-0
 10
507.76824462314312
 20
286.83082059329018
 30
0.0
 70
     8
  0
VERTEX
  5
B73
  8
MSF16-0
 10
507.84102318832362
 20
286.71066019497943
 30
0.0
 70
     8
  0
VERTEX
  5
B74
  8
MSF16-0
 10
507.91415426391092
 20
286.60106851122151
 30
0.0
 70
     8
  0
VERTEX
  5
B75
  8
MSF16-0
 10
507.98966477870732
 20
286.4976419103383
 30
0.0
 70
     8
  0
VERTEX
  5
B76
  8
MSF16-0
 10
508.06958166151549
 20
286.39597676065131
 30
0.0
 70
     8
  0
VERTEX
  5
B77
  8
MSF16-0
 10
508.15593184113777
 20
286.29166943048222
 30
0.0
 70
     8
  0
VERTEX
  5
B78
  8
MSF16-0
 10
508.25014004285919
 20
286.18140251725077
 30
0.0
 70
     8
  0
VERTEX
  5
B79
  8
MSF16-0
 10
508.3512221778941
 20
286.06620353476927
 30
0.0
 70
     8
  0
VERTEX
  5
B7A
  8
MSF16-0
 10
508.45759195393941
 20
285.94818622594852
 30
0.0
 70
     8
  0
VERTEX
  5
B7B
  8
MSF16-0
 10
508.56766307869191
 20
285.82946433369909
 30
0.0
 70
     8
  0
VERTEX
  5
B7C
  8
MSF16-0
 10
508.67984925984882
 20
285.71215160093141
 30
0.0
 70
     8
  0
VERTEX
  5
B7D
  8
MSF16-0
 10
508.79256420510649
 20
285.59836177055621
 30
0.0
 70
     8
  0
VERTEX
  5
B7E
  8
MSF16-0
 10
508.9042216221622
 20
285.4902085854842
 30
0.0
 70
     8
  0
VERTEX
  5
B7F
  8
MSF16-0
 10
509.01323521871279
 20
285.38980578862578
 30
0.0
 70
     8
  0
VERTEX
  5
B80
  8
MSF16-0
 10
509.11850936049012
 20
285.29878764807893
 30
0.0
 70
     8
  0
VERTEX
  5
B81
  8
MSF16-0
 10
509.22091104536668
 20
285.21687053269039
 30
0.0
 70
     8
  0
VERTEX
  5
B82
  8
MSF16-0
 10
509.32179792925012
 20
285.14329133649449
 30
0.0
 70
     8
  0
VERTEX
  5
B83
  8
MSF16-0
 10
509.42252766804802
 20
285.07728695352552
 30
0.0
 70
     8
  0
VERTEX
  5
B84
  8
MSF16-0
 10
509.52445791766797
 20
285.0180942778174
 30
0.0
 70
     8
  0
VERTEX
  5
B85
  8
MSF16-0
 10
509.62894633401783
 20
284.96495020340433
 30
0.0
 70
     8
  0
VERTEX
  5
B86
  8
MSF16-0
 10
509.73735057300479
 20
284.91709162432062
 30
0.0
 70
     8
  0
VERTEX
  5
B87
  8
MSF16-0
 10
509.85102829053659
 20
284.8737554346003
 30
0.0
 70
     8
  0
VERTEX
  5
B88
  8
MSF16-0
 10
509.97104893003387
 20
284.8340707575465
 30
0.0
 70
     8
  0
VERTEX
  5
B89
  8
MSF16-0
 10
510.09732908496801
 20
284.79673563353822
 30
0.0
 70
     8
  0
VERTEX
  5
B8A
  8
MSF16-0
 10
510.22949713632357
 20
284.76034033222322
 30
0.0
 70
     8
  0
VERTEX
  5
B8B
  8
MSF16-0
 10
510.36718146508508
 20
284.72347512324927
 30
0.0
 70
     8
  0
VERTEX
  5
B8C
  8
MSF16-0
 10
510.51001045223711
 20
284.68473027626442
 30
0.0
 70
     8
  0
VERTEX
  5
B8D
  8
MSF16-0
 10
510.65761247876389
 20
284.64269606091642
 30
0.0
 70
     8
  0
VERTEX
  5
B8E
  8
MSF16-0
 10
510.80961592565012
 20
284.5959627468531
 30
0.0
 70
     8
  0
VERTEX
  5
B8F
  8
MSF16-0
 10
510.96564917388002
 20
284.54312060372229
 30
0.0
 70
     8
  0
VERTEX
  5
B90
  8
MSF16-0
 10
511.12525884687591
 20
284.48322981113557
 30
0.0
 70
     8
  0
VERTEX
  5
B91
  8
MSF16-0
 10
511.2876645378102
 20
284.41723018855947
 30
0.0
 70
     8
  0
VERTEX
  5
B92
  8
MSF16-0
 10
511.452004082293
 20
284.34653146542422
 30
0.0
 70
     8
  0
VERTEX
  5
B93
  8
MSF16-0
 10
511.61741531593429
 20
284.27254337116
 30
0.0
 70
     8
  0
VERTEX
  5
B94
  8
MSF16-0
 10
511.78303607434418
 20
284.19667563519681
 30
0.0
 70
     8
  0
VERTEX
  5
B95
  8
MSF16-0
 10
511.94800419313287
 20
284.12033798696513
 30
0.0
 70
     8
  0
VERTEX
  5
B96
  8
MSF16-0
 10
512.11145750791036
 20
284.04494015589512
 30
0.0
 70
     8
  0
VERTEX
  5
B97
  8
MSF16-0
 10
512.27253385428673
 20
283.9718918714168
 30
0.0
 70
     8
  0
VERTEX
  5
B98
  8
MSF16-0
 10
512.43095243946652
 20
283.90234830493711
 30
0.0
 70
     8
  0
VERTEX
  5
B99
  8
MSF16-0
 10
512.58875795703273
 20
283.83644639576897
 30
0.0
 70
     8
  0
VERTEX
  5
B9A
  8
MSF16-0
 10
512.74857647216265
 20
283.77406852520232
 30
0.0
 70
     8
  0
VERTEX
  5
B9B
  8
MSF16-0
 10
512.91303405003384
 20
283.71509707452668
 30
0.0
 70
     8
  0
VERTEX
  5
B9C
  8
MSF16-0
 10
513.08475675582395
 20
283.65941442503163
 30
0.0
 70
     8
  0
VERTEX
  5
B9D
  8
MSF16-0
 10
513.26637065470993
 20
283.60690295800703
 30
0.0
 70
     8
  0
VERTEX
  5
B9E
  8
MSF16-0
 10
513.46050181186945
 20
283.55744505474229
 30
0.0
 70
     8
  0
VERTEX
  5
B9F
  8
MSF16-0
 10
513.66977629248015
 20
283.51092309652728
 30
0.0
 70
     8
  0
VERTEX
  5
BA0
  8
MSF16-0
 10
513.89588878935444
 20
283.46747392799102
 30
0.0
 70
     8
  0
VERTEX
  5
BA1
  8
MSF16-0
 10
514.13680850584694
 20
283.4282522471197
 30
0.0
 70
     8
  0
VERTEX
  5
BA2
  8
MSF16-0
 10
514.38957327294736
 20
283.39466721523939
 30
0.0
 70
     8
  0
VERTEX
  5
BA3
  8
MSF16-0
 10
514.65122092164552
 20
283.36812799367573
 30
0.0
 70
     8
  0
VERTEX
  5
BA4
  8
MSF16-0
 10
514.91878928293056
 20
283.35004374375433
 30
0.0
 70
     8
  0
VERTEX
  5
BA5
  8
MSF16-0
 10
515.189316187793
 20
283.34182362680122
 30
0.0
 70
     8
  0
VERTEX
  5
BA6
  8
MSF16-0
 10
515.45983946722208
 20
283.34487680414202
 30
0.0
 70
     8
  0
VERTEX
  5
BA7
  8
MSF16-0
 10
515.72739695220753
 20
283.36061243710247
 30
0.0
 70
     8
  0
VERTEX
  5
BA8
  8
MSF16-0
 10
515.98927946848914
 20
283.38979382132402
 30
0.0
 70
     8
  0
VERTEX
  5
BA9
  8
MSF16-0
 10
516.24378982080646
 20
283.4306007897099
 30
0.0
 70
     8
  0
VERTEX
  5
BAA
  8
MSF16-0
 10
516.48948380864908
 20
283.48056730947923
 30
0.0
 70
     8
  0
VERTEX
  5
BAB
  8
MSF16-0
 10
516.72491723150642
 20
283.53722734785072
 30
0.0
 70
     8
  0
VERTEX
  5
BAC
  8
MSF16-0
 10
516.94864588886821
 20
283.59811487204348
 30
0.0
 70
     8
  0
VERTEX
  5
BAD
  8
MSF16-0
 10
517.15922558022385
 20
283.66076384927629
 30
0.0
 70
     8
  0
VERTEX
  5
BAE
  8
MSF16-0
 10
517.35521210506295
 20
283.72270824676821
 30
0.0
 70
     8
  0
VERTEX
  5
BAF
  8
MSF16-0
 10
517.53516126287525
 20
283.78148203173822
 30
0.0
 70
     8
  0
VERTEX
  5
BB0
  8
MSF16-0
 10
517.69823375230715
 20
283.83508889200061
 30
0.0
 70
     8
  0
VERTEX
  5
BB1
  8
MSF16-0
 10
517.84600986863495
 20
283.88341139775241
 30
0.0
 70
     8
  0
VERTEX
  5
BB2
  8
MSF16-0
 10
517.9806748062914
 20
283.92680183978592
 30
0.0
 70
     8
  0
VERTEX
  5
BB3
  8
MSF16-0
 10
518.10441375970993
 20
283.96561250889363
 30
0.0
 70
     8
  0
VERTEX
  5
BB4
  8
MSF16-0
 10
518.21941192332338
 20
284.00019569586789
 30
0.0
 70
     8
  0
VERTEX
  5
BB5
  8
MSF16-0
 10
518.32785449156518
 20
284.03090369150129
 30
0.0
 70
     8
  0
VERTEX
  5
BB6
  8
MSF16-0
 10
518.43192665886829
 20
284.05808878658598
 30
0.0
 70
     8
  0
VERTEX
  5
BB7
  8
MSF16-0
 10
518.53381361966603
 20
284.08210327191472
 30
0.0
 70
     8
  0
VERTEX
  5
BB8
  8
MSF16-0
 10
518.63539512130501
 20
284.1032407228401
 30
0.0
 70
     8
  0
VERTEX
  5
BB9
  8
MSF16-0
 10
518.73732912278751
 20
284.121559852958
 30
0.0
 70
     8
  0
VERTEX
  5
BBA
  8
MSF16-0
 10
518.83996813602914
 20
284.13706066042431
 30
0.0
 70
     8
  0
VERTEX
  5
BBB
  8
MSF16-0
 10
518.94366467294572
 20
284.1497431433952
 30
0.0
 70
     8
  0
VERTEX
  5
BBC
  8
MSF16-0
 10
519.04877124545294
 20
284.15960730002672
 30
0.0
 70
     8
  0
VERTEX
  5
BBD
  8
MSF16-0
 10
519.15564036546664
 20
284.16665312847499
 30
0.0
 70
     8
  0
VERTEX
  5
BBE
  8
MSF16-0
 10
519.26462454490263
 20
284.17088062689618
 30
0.0
 70
     8
  0
VERTEX
  5
BBF
  8
MSF16-0
 10
519.37607629567663
 20
284.17228979344628
 30
0.0
 70
     8
  0
VERTEX
  5
BC0
  8
MSF16-0
 10
519.49001034576906
 20
284.17113509054292
 30
0.0
 70
     8
  0
VERTEX
  5
BC1
  8
MSF16-0
 10
519.60509028741944
 20
284.1686888376484
 30
0.0
 70
     8
  0
VERTEX
  5
BC2
  8
MSF16-0
 10
519.71964192893142
 20
284.16647781848673
 30
0.0
 70
     8
  0
VERTEX
  5
BC3
  8
MSF16-0
 10
519.83199107860878
 20
284.16602881678187
 30
0.0
 70
     8
  0
VERTEX
  5
BC4
  8
MSF16-0
 10
519.94046354475597
 20
284.16886861625773
 30
0.0
 70
     8
  0
VERTEX
  5
BC5
  8
MSF16-0
 10
520.04338513567654
 20
284.1765240006381
 30
0.0
 70
     8
  0
VERTEX
  5
BC6
  8
MSF16-0
 10
520.13908165967462
 20
284.19052175364692
 30
0.0
 70
     8
  0
VERTEX
  5
BC7
  8
MSF16-0
 10
520.22587892505396
 20
284.21238865900813
 30
0.0
 70
     8
  0
VERTEX
  5
BC8
  8
MSF16-0
 10
520.30324824328022
 20
284.24354372925359
 30
0.0
 70
     8
  0
VERTEX
  5
BC9
  8
MSF16-0
 10
520.37524293846525
 20
284.28497489214698
 30
0.0
 70
     8
  0
VERTEX
  5
BCA
  8
MSF16-0
 10
520.44706183788253
 20
284.33756230426019
 30
0.0
 70
     8
  0
VERTEX
  5
BCB
  8
MSF16-0
 10
520.52390376880544
 20
284.40218612216478
 30
0.0
 70
     8
  0
VERTEX
  5
BCC
  8
MSF16-0
 10
520.61096755850735
 20
284.4797265024327
 30
0.0
 70
     8
  0
VERTEX
  5
BCD
  8
MSF16-0
 10
520.71345203426188
 20
284.57106360163561
 30
0.0
 70
     8
  0
VERTEX
  5
BCE
  8
MSF16-0
 10
520.83655602334261
 20
284.67707757634508
 30
0.0
 70
     8
  0
VERTEX
  5
BCF
  8
MSF16-0
 10
520.9854783530227
 20
284.79864858313289
 30
0.0
 70
     8
  0
VERTEX
  5
BD0
  8
MSF16-0
 10
521.16353802931815
 20
284.93601110240832
 30
0.0
 70
     8
  0
VERTEX
  5
BD1
  8
MSF16-0
 10
521.36653477321443
 20
285.0868169099295
 30
0.0
 70
     8
  0
VERTEX
  5
BD2
  8
MSF16-0
 10
521.58838848443918
 20
285.24807210529229
 30
0.0
 70
     8
  0
VERTEX
  5
BD3
  8
MSF16-0
 10
521.82301906272039
 20
285.41678278809241
 30
0.0
 70
     8
  0
VERTEX
  5
BD4
  8
MSF16-0
 10
522.06434640778593
 20
285.58995505792541
 30
0.0
 70
     8
  0
VERTEX
  5
BD5
  8
MSF16-0
 10
522.30629041936345
 20
285.76459501438723
 30
0.0
 70
     8
  0
VERTEX
  5
BD6
  8
MSF16-0
 10
522.54277099718092
 20
285.93770875707338
 30
0.0
 70
     8
  0
VERTEX
  5
BD7
  8
MSF16-0
 10
522.76770804096611
 20
286.1063023855798
 30
0.0
 70
     8
  0
VERTEX
  5
BD8
  8
MSF16-0
 10
522.97619632872113
 20
286.26830174273709
 30
0.0
 70
     8
  0
VERTEX
  5
BD9
  8
MSF16-0
 10
523.16803015154517
 20
286.4253116443162
 30
0.0
 70
     8
  0
VERTEX
  5
BDA
  8
MSF16-0
 10
523.344178678812
 20
286.57985664932312
 30
0.0
 70
     8
  0
VERTEX
  5
BDB
  8
MSF16-0
 10
523.50561107989529
 20
286.73446131676383
 30
0.0
 70
     8
  0
VERTEX
  5
BDC
  8
MSF16-0
 10
523.65329652416824
 20
286.89165020564423
 30
0.0
 70
     8
  0
VERTEX
  5
BDD
  8
MSF16-0
 10
523.78820418100452
 20
287.05394787497028
 30
0.0
 70
     8
  0
VERTEX
  5
BDE
  8
MSF16-0
 10
523.91130321977766
 20
287.22387888374811
 30
0.0
 70
     8
  0
VERTEX
  5
BDF
  8
MSF16-0
 10
524.02356280986146
 20
287.40396779098359
 30
0.0
 70
     8
  0
VERTEX
  5
BE0
  8
MSF16-0
 10
524.12602559908669
 20
287.59596610536312
 30
0.0
 70
     8
  0
VERTEX
  5
BE1
  8
MSF16-0
 10
524.22002814911389
 20
287.79853313429578
 30
0.0
 70
     8
  0
VERTEX
  5
BE2
  8
MSF16-0
 10
524.30698050006072
 20
288.00955513487082
 30
0.0
 70
     8
  0
VERTEX
  5
BE3
  8
MSF16-0
 10
524.3882926920453
 20
288.22691836417761
 30
0.0
 70
     8
  0
VERTEX
  5
BE4
  8
MSF16-0
 10
524.46537476518517
 20
288.44850907930561
 30
0.0
 70
     8
  0
VERTEX
  5
BE5
  8
MSF16-0
 10
524.53963675959869
 20
288.67221353734419
 30
0.0
 70
     8
  0
VERTEX
  5
BE6
  8
MSF16-0
 10
524.61248871540317
 20
288.89591799538289
 30
0.0
 70
     8
  0
VERTEX
  5
BE7
  8
MSF16-0
 10
524.68534067271685
 20
289.11750871051089
 30
0.0
 70
     8
  0
VERTEX
  5
BE8
  8
MSF16-0
 10
524.75922078576082
 20
289.33526826669038
 30
0.0
 70
     8
  0
VERTEX
  5
BE9
  8
MSF16-0
 10
524.83362966516916
 20
289.54906455537332
 30
0.0
 70
     8
  0
VERTEX
  5
BEA
  8
MSF16-0
 10
524.90768603567994
 20
289.75916179488468
 30
0.0
 70
     8
  0
VERTEX
  5
BEB
  8
MSF16-0
 10
524.98050862203081
 20
289.96582420354929
 30
0.0
 70
     8
  0
VERTEX
  5
BEC
  8
MSF16-0
 10
525.05121614895927
 20
290.16931599969189
 30
0.0
 70
     8
  0
VERTEX
  5
BED
  8
MSF16-0
 10
525.1189273412034
 20
290.36990140163721
 30
0.0
 70
     8
  0
VERTEX
  5
BEE
  8
MSF16-0
 10
525.18276092350061
 20
290.5678446277102
 30
0.0
 70
     8
  0
VERTEX
  5
BEF
  8
MSF16-0
 10
525.24183562058863
 20
290.7634098962356
 30
0.0
 70
     8
  0
VERTEX
  5
BF0
  8
MSF16-0
 10
525.29518203161547
 20
290.95754362631777
 30
0.0
 70
     8
  0
VERTEX
  5
BF1
  8
MSF16-0
 10
525.34147825337106
 20
291.15392104017963
 30
0.0
 70
     8
  0
VERTEX
  5
BF2
  8
MSF16-0
 10
525.3793142570554
 20
291.35689956082371
 30
0.0
 70
     8
  0
VERTEX
  5
BF3
  8
MSF16-0
 10
525.4072800138681
 20
291.57083661125239
 30
0.0
 70
     8
  0
VERTEX
  5
BF4
  8
MSF16-0
 10
525.4239654950095
 20
291.80008961446822
 30
0.0
 70
     8
  0
VERTEX
  5
BF5
  8
MSF16-0
 10
525.42796067167944
 20
292.04901599347369
 30
0.0
 70
     8
  0
VERTEX
  5
BF6
  8
MSF16-0
 10
525.41785551507803
 20
292.32197317127122
 30
0.0
 70
     8
  0
VERTEX
  5
BF7
  8
MSF16-0
 10
525.39223999640524
 20
292.62331857086338
 30
0.0
 70
     8
  0
VERTEX
  5
BF8
  8
MSF16-0
 10
506.9827797829974
 20
288.62148370748992
 30
0.0
 70
    16
  0
VERTEX
  5
BF9
  8
MSF16-0
 10
507.61447688658438
 20
286.99812915214812
 30
0.0
 70
    16
  0
VERTEX
  5
BFA
  8
MSF16-0
 10
508.06568943456028
 20
286.36682476019462
 30
0.0
 70
    16
  0
VERTEX
  5
BFB
  8
MSF16-0
 10
509.05835642200162
 20
285.28458838996681
 30
0.0
 70
    16
  0
VERTEX
  5
BFC
  8
MSF16-0
 10
509.7802961897101
 20
284.83365641169252
 30
0.0
 70
    16
  0
VERTEX
  5
BFD
  8
MSF16-0
 10
510.92662856237803
 20
284.6233185708648
 30
0.0
 70
    16
  0
VERTEX
  5
BFE
  8
MSF16-0
 10
512.30708460405799
 20
283.93179292718202
 30
0.0
 70
    16
  0
VERTEX
  5
BFF
  8
MSF16-0
 10
513.4802361471103
 20
283.48086094890772
 30
0.0
 70
    16
  0
VERTEX
  5
C00
  8
MSF16-0
 10
515.79062856238158
 20
283.21030185635078
 30
0.0
 70
    16
  0
VERTEX
  5
C01
  8
MSF16-0
 10
517.72163131660795
 20
283.84160624830417
 30
0.0
 70
    16
  0
VERTEX
  5
C02
  8
MSF16-0
 10
518.53381374843798
 20
284.11216534086122
 30
0.0
 70
    16
  0
VERTEX
  5
C03
  8
MSF16-0
 10
519.345995407636
 20
284.20235201973901
 30
0.0
 70
    16
  0
VERTEX
  5
C04
  8
MSF16-0
 10
520.33866239507745
 20
284.11216534086122
 30
0.0
 70
    16
  0
VERTEX
  5
C05
  8
MSF16-0
 10
520.65462856237798
 20
284.6233185708648
 30
0.0
 70
    16
  0
VERTEX
  5
C06
  8
MSF16-0
 10
522.95569347354683
 20
286.1864518744772
 30
0.0
 70
    16
  0
VERTEX
  5
C07
  8
MSF16-0
 10
524.12884578923138
 20
287.26868824470512
 30
0.0
 70
    16
  0
VERTEX
  5
C08
  8
MSF16-0
 10
524.67030022869665
 20
289.16260189260379
 30
0.0
 70
    16
  0
VERTEX
  5
C09
  8
MSF16-0
 10
525.30199733228358
 20
290.78595644794552
 30
0.0
 70
    16
  0
VERTEX
  5
C0A
  8
MSF16-0
 10
525.48248188789466
 20
291.77800661133369
 30
0.0
 70
    16
  0
VERTEX
  5
C0B
  8
MSF16-0
 10
525.39223999640524
 20
292.62331857086338
 30
0.0
 70
    16
  0
SEQEND
  5
C0C
  8
MSF16-0
  0
LINE
  5
C0D
  8
MSF16-0
 10
503.7906285623817
 20
292.62331857086332
 30
0.0
 11
527.79062856238158
 21
292.62331857086338
 31
0.0
1001
GENIUS_GENOREF_13
1005
C4D
1005
E3D
  0
LINE
  5
C14
  8
MSF16-7
 10
515.79062856238158
 20
312.23837642438349
 30
0.0
 11
515.79062856238158
 21
206.96876357086339
 31
0.0
1001
GENIUS_GENOREF_13
1005
C4D
  0
LINE
  5
C16
  8
MSF16-3
 10
503.7906285623817
 20
209.62331857086329
 30
0.0
 11
503.7906285623817
 21
256.62331857086332
 31
0.0
1001
GENIUS_GENBH_13
1002
{
1000
OE
1000
CON1
1002
}
1001
GENIUS_GENOREF_13
1005
E3A
  0
LINE
  5
C32
  8
MSF16-4A
 10
511.0406285623817
 20
306.62331857086531
 30
0.0
 11
511.0406285623817
 21
296.62331857086338
 31
0.0
  0
INSERT
  5
C33
  8
MSF16-8
  2
*X47
 10
515.79062856238158
 20
207.65912210210001
 30
0.0
1001
GENIUS_GENODEF_13
1002
{
1000
HIER
1070
     0
1002
}
1002
{
1000
MANEDIT
1070
     0
1002
}
1002
{
1000
NOSEL
1070
     0
1002
}
1002
{
1000
BEHIND
1070
     0
1002
}
1002
{
1000
REACTOR
1002
}
1001
GENIUS_GENOBJ-N-HTC_13
1002
{
1000
OWNER
1000
GEN
1002
}
1001
GENIUS_GENHATCH_13
1002
{
1000
DATA
1040
45.0
1042
2.5
1000
_U
1070
     0
1011
509.09843130708322
1021
0.0
1031
0.0
1021
288.4837547548704
1031
0.0
1002
}
1002
{
1000
UCS
1010
0.0
1020
0.0
1030
0.0
1010
1.0
1020
0.0
1030
0.0
1010
0.0
1020
1.0
1030
0.0
1002
}
1001
ACAD
1000
HATCH
1002
{
1070
    19
1000
_U
1040
2.5
1040
0.7853981633974483
1070
     0
1002
}
  0
LINE
  5
C34
  8
MSF16-4A
 10
510.92662856238388
 20
289.37331857086338
 30
0.0
 11
515.79062856238158
 21
289.37331857086338
 31
0.0
  0
LINE
  5
C35
  8
MSF16-4A
 10
515.79062856238158
 20
288.62331857086338
 30
0.0
 11
511.67662856238388
 21
288.62331857086338
 31
0.0
  0
LINE
  5
C36
  8
MSF16-4A
 10
511.67662856238388
 20
288.62331857086338
 30
0.0
 11
510.92662856238388
 21
289.37331857086338
 31
0.0
  0
LINE
  5
C37
  8
MSF16-4A
 10
511.0406285623817
 20
296.62331857086338
 30
0.0
 11
515.79062856238158
 21
296.62331857086338
 31
0.0
  0
LINE
  5
C38
  8
MSF16-4A
 10
510.92662856238019
 20
296.62331857086531
 30
0.0
 11
511.0406285623817
 21
296.62331857086889
 31
0.0
  0
LINE
  5
C39
  8
MSF16-4A
 10
511.50740356238532
 20
292.62331857086889
 30
0.0
 11
511.50740356238532
 21
296.62331857086338
 31
0.0
  0
LINE
  5
C3A
  8
MSF16-4A
 10
510.9266285623853
 20
292.62331857086889
 30
0.0
 11
510.92662856238019
 21
296.62331857086531
 31
0.0
  0
LINE
  5
C3B
  8
MSF16-4A
 10
515.79062856238158
 20
309.62331857086338
 30
0.0
 11
511.0406285623817
 21
309.62331857086531
 31
0.0
  0
LINE
  5
C3C
  8
MSF16-4A
 10
512.0406285623817
 20
307.62331857086531
 30
0.0
 11
512.04062856237795
 21
306.62331857086338
 31
0.0
  0
LINE
  5
C3D
  8
MSF16-4A
 10
511.0406285623817
 20
309.62331857086531
 30
0.0
 11
511.0406285623817
 21
307.62331857086338
 31
0.0
  0
LINE
  5
C41
  8
MSF16-0
 10
527.79062856238158
 20
292.62331857086332
 30
0.0
 11
527.79062856238158
 21
256.62331857086332
 31
0.0
1001
GENIUS_GENOREF_13
1005
E3A
1005
E3D
  0
LINE
  5
C42
  8
MSF16-4A
 10
520.5406285623817
 20
306.62331857086531
 30
0.0
 11
520.5406285623817
 21
296.62331857086338
 31
0.0
  0
INSERT
  5
C43
  8
MSF16-8
  2
*X48
 10
515.79062856238158
 20
207.65912210210001
 30
0.0
1001
GENIUS_GENODEF_13
1002
{
1000
HIER
1070
     0
1002
}
1002
{
1000
MANEDIT
1070
     0
1002
}
1002
{
1000
NOSEL
1070
     0
1002
}
1002
{
1000
BEHIND
1070
     0
1002
}
1002
{
1000
REACTOR
1002
}
1001
GENIUS_GENOBJ-N-HTC_13
1002
{
1000
OWNER
1000
GEN
1002
}
1001
GENIUS_GENHATCH_13
1002
{
1000
DATA
1040
45.0
1042
2.5
1000
_U
1070
     0
1011
522.39088468166051
1021
0.0
1031
0.0
1021
289.81609302513141
1031
0.0
1002
}
1002
{
1000
UCS
1010
0.0
1020
0.0
1030
0.0
1010
1.0
1020
0.0
1030
0.0
1010
0.0
1020
1.0
1030
0.0
1002
}
1001
ACAD
1000
HATCH
1002
{
1070
    19
1000
_U
1040
2.5
1040
0.7853981633974483
1070
     0
1002
}
  0
LINE
  5
C44
  8
MSF16-4A
 10
519.90462856237934
 20
288.62331857086338
 30
0.0
 11
520.65462856237934
 21
289.37331857086338
 31
0.0
  0
LINE
  5
C45
  8
MSF16-4A
 10
520.65462856238298
 20
296.62331857086531
 30
0.0
 11
520.5406285623817
 21
296.62331857086889
 31
0.0
  0
LINE
  5
C46
  8
MSF16-4A
 10
520.07385356237808
 20
292.62331857086889
 30
0.0
 11
520.07385356237808
 21
296.62331857086338
 31
0.0
  0
LINE
  5
C47
  8
MSF16-4A
 10
520.65462856237798
 20
292.62331857086889
 30
0.0
 11
520.65462856238298
 21
296.62331857086531
 31
0.0
  0
LINE
  5
C48
  8
MSF16-4A
 10
519.5406285623817
 20
307.62331857086531
 30
0.0
 11
519.54062856238534
 21
306.62331857086338
 31
0.0
  0
LINE
  5
C49
  8
MSF16-4A
 10
520.5406285623817
 20
309.62331857086531
 30
0.0
 11
520.5406285623817
 21
307.62331857086338
 31
0.0
  0
POINT
  5
C4D
  8
0
 10
141.0865876650349
 20
322.86633333241838
 30
0.0
1001
GENIUS_GENBH_13
1002
{
1000
FGO
1005
C4F
1002
}
1001
GENIUS_GENODEF_13
1002
{
1000
HIER
1070
     1
1002
}
1002
{
1000
MANEDIT
1070
     0
1002
}
1002
{
1000
NOSEL
1070
     1
1002
}
1002
{
1000
BEHIND
1070
     0
1002
}
1002
{
1000
REACTOR
1002
}
1001
GENIUS_GENOBJ-NBEHI-BHB_13
1002
{
1000
OWNER
1000
GENBEHI
1002
}
1001
GENIUS_GENOENT_13
1002
{
1000
MYREF
1005
C4D
1002
}
1002
{
1000
GRP
1005
0
1002
}
1001
GENIUS_GENOLIS_13
1002
{
1000
ENT
1005
C14
1005
C0D
1002
}
  0
POINT
  5
C4E
  8
0
 10
141.0865876650349
 20
322.86633333241838
 30
0.0
1001
GENIUS_GENODEF_13
1002
{
1000
HIER
1070
   200
1002
}
1002
{
1000
MANEDIT
1070
     0
1002
}
1002
{
1000
NOSEL
1070
     0
1002
}
1002
{
1000
BEHIND
1070
     0
1002
}
1002
{
1000
REACTOR
1002
}
1001
GENIUS_GENOBJ-F-PART_13
1002
{
1000
OWNER
1000
GEF
1002
}
1001
GENIUS_GEFSTDP_13
1002
{
1000
DSC
1000
DSC
1002
{
1000
~DESCR
1000
 
1000
~STDRT
1000
(gefmsg "gefcall" 409)
1000
~LOTI
1002
}
1002
}
1002
{
1000
SUG
1000
G
1000
1/8
1002
}
1002
{
1000
KEY
1000
THPF
1002
}
1002
{
1000
INS
1002
{
1040
-0.000000000003638
1040
84.964196468764797
1040
0.0
1002
}
1002
}
1002
{
1000
ANG
1040
4.7123889803846888
1002
}
1002
{
1000
VCC
1002
{
1000
-LPLOTI=8.000000000000000E+00
1000
$PRE=G
1000
$NM1=1/8
1000
-GRPNAME0MSF16-0
1000
-RBDESCR
1000
-RBSTDRT
1000
-RBLOTI
1000
-RBGD1
1000
-V$PV_GENSYSTEM"gef\val\di\0405\di1627_v.dxf"
1000
$VCC_TABLE=$PV_GENSYSTEM"gef\val\di\0405\di1627.val"
1000
$GEF_CDIST=3.000000000000000E+00
1000
$GEF_DRAG=1
1000
$GEF_STANG=2.100000000000000E+02
1000
$GEF_OANG=7.000000000000000E+01
1000
$GEVPROMPTX= Länge: 
1000
$GEF_SNK_ADD=0.000000000000000E+00
1000
$GEF_FLIPX=1
1000
$GEF_FLIPY=1
1000
-GRPNAME1?
1000
-BAML2
1000
$GEF_PROCALC=1
1002
}
1002
}
1002
{
1000
LST
1002
{
1002
{
1000
GROUP
1000
0405
1002
}
1002
{
1000
VIEW
1000
V
1002
}
1002
{
1000
SFILE
1000
$PV_GENSYSTEM"gef\val\di\0405\di1627_v.dxf"
1002
}
1002
{
1000
ST1
1000
$PV_GENSYSTEM"gef\val\di\0405\di1627.val"
1002
}
1002
{
1000
GENASSO
1000
 
1002
}
1002
}
1002
}
1002
{
1000
RET
1002
{
1002
{
1000
GD1
1000
8.56645
1002
}
1002
{
1000
LOTI
1000
8.000000000000000E+00
1002
}
1002
{
1000
STDRT
1000
ISO 228 - G 1/8
1002
}
1002
{
1000
DESCR
1000
Rohrgewinde
1002
}
1002
}
1002
}
1002
{
1000
SYSTEM
1040
1.0
1002
}
1002
{
1000
INFEL
1002
{
1002
}
1002
}
1001
GENIUS_GENOENT_13
1002
{
1000
MYREF
1005
C4E
1002
}
1002
{
1000
GRP
1005
0
1002
}
1001
GENIUS_GENOLIS_13
1002
{
1000
ENT
1005
B64
1002
}
  0
POINT
  5
C4F
  8
0
 10
141.0865876650349
 20
322.86633333241838
 30
0.0
1001
GENIUS_GENBH_13
1002
{
1000
BGO
1005
C4D
1002
}
1002
{
1000
FGLEVEL
1040
2.0000000099999991
1002
}
1002
{
1000
FLAGS
1070
    36
1002
}
1002
{
1000
OIUMAP
1000
OIU
1002
}
1002
{
1000
MODIFY
1070
     0
1002
}
1001
GENIUS_GENODEF_13
1002
{
1000
HIER
1070
     1
1002
}
1002
{
1000
MANEDIT
1070
     0
1002
}
1002
{
1000
NOSEL
1070
     1
1002
}
1002
{
1000
BEHIND
1070
     0
1002
}
1002
{
1000
REACTOR
1002
}
1001
GENIUS_GENOBJ-NBEHI-BHF_13
1002
{
1000
OWNER
1000
GENBEHI
1002
}
1001
GENIUS_GENOENT_13
1002
{
1000
MYREF
1005
C4F
1002
}
1002
{
1000
GRP
1005
0
1002
}
1001
GENIUS_GENOLIS_13
1002
{
1000
ENT
1005
B64
1002
}
  0
LINE
  5
C74
  8
MSF16-7
 10
278.47419627724952
 20
312.23837474149371
 30
0.0
 11
278.47419627724952
 21
206.9687618879735
 31
0.0
1001
GENIUS_GENOREF_13
1005
D60
  0
LINE
  5
C75
  8
MSF16-4A
 10
283.22419627724952
 20
306.62331688797542
 30
0.0
 11
283.22419627724952
 21
296.62331688797349
 31
0.0
  0
LINE
  5
C76
  8
MSF16-4A
 10
273.72419627724952
 20
306.62331688797542
 30
0.0
 11
273.72419627724952
 21
296.62331688797349
 31
0.0
  0
LINE
  5
C77
  8
MSF16-0
 10
290.47419627724952
 20
292.62331688797337
 30
0.0
 11
290.47419627724952
 21
251.62331688797329
 31
0.0
1001
GENIUS_GENOREF_13
1005
D93
  0
LINE
  5
C78
  8
MSF16-3
 10
266.47419627724952
 20
239.62331688797349
 30
0.0
 11
266.47419627724952
 21
256.62331688797332
 31
0.0
1001
GENIUS_GENBH_13
1002
{
1000
OE
1000
CON1
1002
}
1001
GENIUS_GENOREF_13
1005
D93
  0
TEXT
  5
C79
  8
MSF16-6
 10
269.03796383381911
 20
272.06600659582392
 30
0.0
 40
1.25
  1
MSL-F16/40
 41
0.825
  0
LINE
  5
C7A
  8
MSF16-7
 10
264.75991927724948
 20
231.62331688797349
 30
0.0
 11
291.57103027724952
 21
231.62331688797349
 31
0.0
  0
LINE
  5
C7B
  8
MSF16-0
 10
290.47419627724952
 20
209.6233168879734
 30
0.0
 11
272.47419627724588
 21
209.6233168879734
 31
0.0
1001
GENIUS_GENOREF_13
1005
D93
  0
LINE
  5
C7C
  8
MSF16-3
 10
266.47419627724952
 20
223.62331688797349
 30
0.0
 11
290.47419627724952
 21
223.62331688797349
 31
0.0
  0
LINE
  5
C7D
  8
MSF16-3
 10
266.47419627724952
 20
239.62331688797349
 30
0.0
 11
290.47419627724952
 21
239.62331688797349
 31
0.0
  0
POLYLINE
  5
C7E
  8
MSF16-3
 10
266.47419627724952
 20
223.62331688797349
 30
0.0
 66
     1
 70
     8
  0
VERTEX
  8
0
  5
1080
 10
266.474
 20
223.623
 30
0.000000
  70
    32
  0
VERTEX
  8
0
  5
1081
 10
266.549
 20
223.626
 30
0.000000
  70
    32
  0
VERTEX
  8
0
  5
1082
 10
266.624
 20
223.633
 30
0.000000
  70
    32
  0
VERTEX
  8
0
  5
1083
 10
266.699
 20
223.645
 30
0.000000
  70
    32
  0
VERTEX
  8
0
  5
1084
 10
266.774
 20
223.662
 30
0.000000
  70
    32
  0
VERTEX
  8
0
  5
1085
 10
266.848
 20
223.683
 30
0.000000
  70
    32
  0
VERTEX
  8
0
  5
1086
 10
266.923
 20
223.710
 30
0.000000
  70
    32
  0
VERTEX
  8
0
  5
1087
 10
266.997
 20
223.741
 30
0.000000
  70
    32
  0
VERTEX
  8
0
  5
1088
 10
267.070
 20
223.777
 30
0.000000
  70
    32
  0
VERTEX
  8
0
  5
1089
 10
267.144
 20
223.818
 30
0.000000
  70
    32
  0
VERTEX
  8
0
  5
108A
 10
267.217
 20
223.863
 30
0.000000
  70
    32
  0
VERTEX
  8
0
  5
108B
 10
267.289
 20
223.913
 30
0.000000
  70
    32
  0
VERTEX
  8
0
  5
108C
 10
267.361
 20
223.968
 30
0.000000
  70
    32
  0
VERTEX
  8
0
  5
108D
 10
267.433
 20
224.027
 30
0.000000
  70
    32
  0
VERTEX
  8
0
  5
108E
 10
267.504
 20
224.091
 30
0.000000
  70
    32
  0
VERTEX
  8
0
  5
108F
 10
267.574
 20
224.159
 30
0.000000
  70
    32
  0
VERTEX
  8
0
  5
1090
 10
267.644
 20
224.232
 30
0.000000
  70
    32
  0
VERTEX
  8
0
  5
1091
 10
267.713
 20
224.310
 30
0.000000
  70
    32
  0
VERTEX
  8
0
  5
1092
 10
267.781
 20
224.391
 30
0.000000
  70
    32
  0
VERTEX
  8
0
  5
1093
 10
267.848
 20
224.478
 30
0.000000
  70
    32
  0
VERTEX
  8
0
  5
1094
 10
267.915
 20
224.568
 30
0.000000
  70
    32
  0
VERTEX
  8
0
  5
1095
 10
267.980
 20
224.663
 30
0.000000
  70
    32
  0
VERTEX
  8
0
  5
1096
 10
268.045
 20
224.761
 30
0.000000
  70
    32
  0
VERTEX
  8
0
  5
1097
 10
268.109
 20
224.864
 30
0.000000
  70
    32
  0
VERTEX
  8
0
  5
1098
 10
268.172
 20
224.972
 30
0.000000
  70
    32
  0
VERTEX
  8
0
  5
1099
 10
268.234
 20
225.083
 30
0.000000
  70
    32
  0
VERTEX
  8
0
  5
109A
 10
268.294
 20
225.198
 30
0.000000
  70
    32
  0
VERTEX
  8
0
  5
109B
 10
268.354
 20
225.317
 30
0.000000
  70
    32
  0
VERTEX
  8
0
  5
109C
 10
268.413
 20
225.439
 30
0.000000
  70
    32
  0
VERTEX
  8
0
  5
109D
 10
268.470
 20
225.566
 30
0.000000
  70
    32
  0
VERTEX
  8
0
  5
109E
 10
268.526
 20
225.696
 30
0.000000
  70
    32
  0
VERTEX
  8
0
  5
109F
 10
268.581
 20
225.829
 30
0.000000
  70
    32
  0
VERTEX
  8
0
  5
10A0
 10
268.635
 20
225.966
 30
0.000000
  70
    32
  0
VERTEX
  8
0
  5
10A1
 10
268.687
 20
226.107
 30
0.000000
  70
    32
  0
VERTEX
  8
0
  5
10A2
 10
268.738
 20
226.251
 30
0.000000
  70
    32
  0
VERTEX
  8
0
  5
10A3
 10
268.788
 20
226.398
 30
0.000000
  70
    32
  0
VERTEX
  8
0
  5
10A4
 10
268.836
 20
226.548
 30
0.000000
  70
    32
  0
VERTEX
  8
0
  5
10A5
 10
268.883
 20
226.701
 30
0.000000
  70
    32
  0
VERTEX
  8
0
  5
10A6
 10
268.929
 20
226.858
 30
0.000000
  70
    32
  0
VERTEX
  8
0
  5
10A7
 10
268.973
 20
227.017
 30
0.000000
  70
    32
  0
VERTEX
  8
0
  5
10A8
 10
269.015
 20
227.179
 30
0.000000
  70
    32
  0
VERTEX
  8
0
  5
10A9
 10
269.056
 20
227.343
 30
0.000000
  70
    32
  0
VERTEX
  8
0
  5
10AA
 10
269.095
 20
227.510
 30
0.000000
  70
    32
  0
VERTEX
  8
0
  5
10AB
 10
269.133
 20
227.680
 30
0.000000
  70
    32
  0
VERTEX
  8
0
  5
10AC
 10
269.169
 20
227.852
 30
0.000000
  70
    32
  0
VERTEX
  8
0
  5
10AD
 10
269.204
 20
228.026
 30
0.000000
  70
    32
  0
VERTEX
  8
0
  5
10AE
 10
269.237
 20
228.203
 30
0.000000
  70
    32
  0
VERTEX
  8
0
  5
10AF
 10
269.268
 20
228.381
 30
0.000000
  70
    32
  0
VERTEX
  8
0
  5
10B0
 10
269.297
 20
228.562
 30
0.000000
  70
    32
  0
VERTEX
  8
0
  5
10B1
 10
269.325
 20
228.744
 30
0.000000
  70
    32
  0
VERTEX
  8
0
  5
10B2
 10
269.351
 20
228.928
 30
0.000000
  70
    32
  0
VERTEX
  8
0
  5
10B3
 10
269.376
 20
229.114
 30
0.000000
  70
    32
  0
VERTEX
  8
0
  5
10B4
 10
269.398
 20
229.301
 30
0.000000
  70
    32
  0
VERTEX
  8
0
  5
10B5
 10
269.419
 20
229.490
 30
0.000000
  70
    32
  0
VERTEX
  8
0
  5
10B6
 10
269.438
 20
229.679
 30
0.000000
  70
    32
  0
VERTEX
  8
0
  5
10B7
 10
269.456
 20
229.871
 30
0.000000
  70
    32
  0
VERTEX
  8
0
  5
10B8
 10
269.471
 20
230.063
 30
0.000000
  70
    32
  0
VERTEX
  8
0
  5
10B9
 10
269.485
 20
230.256
 30
0.000000
  70
    32
  0
VERTEX
  8
0
  5
10BA
 10
269.497
 20
230.449
 30
0.000000
  70
    32
  0
VERTEX
  8
0
  5
10BB
 10
269.507
 20
230.644
 30
0.000000
  70
    32
  0
VERTEX
  8
0
  5
10BC
 10
269.515
 20
230.839
 30
0.000000
  70
    32
  0
VERTEX
  8
0
  5
10BD
 10
269.522
 20
231.035
 30
0.000000
  70
    32
  0
VERTEX
  8
0
  5
10BE
 10
269.526
 20
231.231
 30
0.000000
  70
    32
  0
VERTEX
  8
0
  5
10BF
 10
269.529
 20
231.427
 30
0.000000
  70
    32
  0
VERTEX
  8
0
  5
10C0
 10
269.530
 20
231.623
 30
0.000000
  70
    32
  0
VERTEX
  8
0
  5
10C1
 10
269.529
 20
231.820
 30
0.000000
  70
    32
  0
VERTEX
  8
0
  5
10C2
 10
269.526
 20
232.016
 30
0.000000
  70
    32
  0
VERTEX
  8
0
  5
10C3
 10
269.522
 20
232.212
 30
0.000000
  70
    32
  0
VERTEX
  8
0
  5
10C4
 10
269.515
 20
232.407
 30
0.000000
  70
    32
  0
VERTEX
  8
0
  5
10C5
 10
269.507
 20
232.603
 30
0.000000
  70
    32
  0
VERTEX
  8
0
  5
10C6
 10
269.497
 20
232.797
 30
0.000000
  70
    32
  0
VERTEX
  8
0
  5
10C7
 10
269.485
 20
232.991
 30
0.000000
  70
    32
  0
VERTEX
  8
0
  5
10C8
 10
269.471
 20
233.184
 30
0.000000
  70
    32
  0
VERTEX
  8
0
  5
10C9
 10
269.456
 20
233.376
 30
0.000000
  70
    32
  0
VERTEX
  8
0
  5
10CA
 10
269.438
 20
233.567
 30
0.000000
  70
    32
  0
VERTEX
  8
0
  5
10CB
 10
269.419
 20
233.757
 30
0.000000
  70
    32
  0
VERTEX
  8
0
  5
10CC
 10
269.398
 20
233.946
 30
0.000000
  70
    32
  0
VERTEX
  8
0
  5
10CD
 10
269.376
 20
234.133
 30
0.000000
  70
    32
  0
VERTEX
  8
0
  5
10CE
 10
269.351
 20
234.318
 30
0.000000
  70
    32
  0
VERTEX
  8
0
  5
10CF
 10
269.325
 20
234.502
 30
0.000000
  70
    32
  0
VERTEX
  8
0
  5
10D0
 10
269.297
 20
234.685
 30
0.000000
  70
    32
  0
VERTEX
  8
0
  5
10D1
 10
269.268
 20
234.865
 30
0.000000
  70
    32
  0
VERTEX
  8
0
  5
10D2
 10
269.237
 20
235.044
 30
0.000000
  70
    32
  0
VERTEX
  8
0
  5
10D3
 10
269.204
 20
235.220
 30
0.000000
  70
    32
  0
VERTEX
  8
0
  5
10D4
 10
269.169
 20
235.394
 30
0.000000
  70
    32
  0
VERTEX
  8
0
  5
10D5
 10
269.133
 20
235.567
 30
0.000000
  70
    32
  0
VERTEX
  8
0
  5
10D6
 10
269.095
 20
235.736
 30
0.000000
  70
    32
  0
VERTEX
  8
0
  5
10D7
 10
269.056
 20
235.903
 30
0.000000
  70
    32
  0
VERTEX
  8
0
  5
10D8
 10
269.015
 20
236.068
 30
0.000000
  70
    32
  0
VERTEX
  8
0
  5
10D9
 10
268.973
 20
236.230
 30
0.000000
  70
    32
  0
VERTEX
  8
0
  5
10DA
 10
268.929
 20
236.389
 30
0.000000
  70
    32
  0
VERTEX
  8
0
  5
10DB
 10
268.883
 20
236.545
 30
0.000000
  70
    32
  0
VERTEX
  8
0
  5
10DC
 10
268.836
 20
236.698
 30
0.000000
  70
    32
  0
VERTEX
  8
0
  5
10DD
 10
268.788
 20
236.849
 30
0.000000
  70
    32
  0
VERTEX
  8
0
  5
10DE
 10
268.738
 20
236.996
 30
0.000000
  70
    32
  0
VERTEX
  8
0
  5
10DF
 10
268.687
 20
237.140
 30
0.000000
  70
    32
  0
VERTEX
  8
0
  5
10E0
 10
268.635
 20
237.280
 30
0.000000
  70
    32
  0
VERTEX
  8
0
  5
10E1
 10
268.581
 20
237.417
 30
0.000000
  70
    32
  0
VERTEX
  8
0
  5
10E2
 10
268.526
 20
237.551
 30
0.000000
  70
    32
  0
VERTEX
  8
0
  5
10E3
 10
268.470
 20
237.681
 30
0.000000
  70
    32
  0
VERTEX
  8
0
  5
10E4
 10
268.413
 20
237.807
 30
0.000000
  70
    32
  0
VERTEX
  8
0
  5
10E5
 10
268.354
 20
237.930
 30
0.000000
  70
    32
  0
VERTEX
  8
0
  5
10E6
 10
268.294
 20
238.049
 30
0.000000
  70
    32
  0
VERTEX
  8
0
  5
10E7
 10
268.234
 20
238.164
 30
0.000000
  70
    32
  0
VERTEX
  8
0
  5
10E8
 10
268.172
 20
238.275
 30
0.000000
  70
    32
  0
VERTEX
  8
0
  5
10E9
 10
268.109
 20
238.382
 30
0.000000
  70
    32
  0
VERTEX
  8
0
  5
10EA
 10
268.045
 20
238.485
 30
0.000000
  70
    32
  0
VERTEX
  8
0
  5
10EB
 10
267.980
 20
238.584
 30
0.000000
  70
    32
  0
VERTEX
  8
0
  5
10EC
 10
267.915
 20
238.679
 30
0.000000
  70
    32
  0
VERTEX
  8
0
  5
10ED
 10
267.848
 20
238.769
 30
0.000000
  70
    32
  0
VERTEX
  8
0
  5
10EE
 10
267.781
 20
238.855
 30
0.000000
  70
    32
  0
VERTEX
  8
0
  5
10EF
 10
267.713
 20
238.937
 30
0.000000
  70
    32
  0
VERTEX
  8
0
  5
10F0
 10
267.644
 20
239.014
 30
0.000000
  70
    32
  0
VERTEX
  8
0
  5
10F1
 10
267.574
 20
239.087
 30
0.000000
  70
    32
  0
VERTEX
  8
0
  5
10F2
 10
267.504
 20
239.156
 30
0.000000
  70
    32
  0
VERTEX
  8
0
  5
10F3
 10
267.433
 20
239.220
 30
0.000000
  70
    32
  0
VERTEX
  8
0
  5
10F4
 10
267.361
 20
239.279
 30
0.000000
  70
    32
  0
VERTEX
  8
0
  5
10F5
 10
267.289
 20
239.334
 30
0.000000
  70
    32
  0
VERTEX
  8
0
  5
10F6
 10
267.217
 20
239.384
 30
0.000000
  70
    32
  0
VERTEX
  8
0
  5
10F7
 10
267.144
 20
239.429
 30
0.000000
  70
    32
  0
VERTEX
  8
0
  5
10F8
 10
267.070
 20
239.470
 30
0.000000
  70
    32
  0
VERTEX
  8
0
  5
10F9
 10
266.997
 20
239.506
 30
0.000000
  70
    32
  0
VERTEX
  8
0
  5
10FA
 10
266.923
 20
239.537
 30
0.000000
  70
    32
  0
VERTEX
  8
0
  5
10FB
 10
266.848
 20
239.563
 30
0.000000
  70
    32
  0
VERTEX
  8
0
  5
10FC
 10
266.774
 20
239.585
 30
0.000000
  70
    32
  0
VERTEX
  8
0
  5
10FD
 10
266.699
 20
239.602
 30
0.000000
  70
    32
  0
VERTEX
  8
0
  5
10FE
 10
266.624
 20
239.614
 30
0.000000
  70
    32
  0
VERTEX
  8
0
  5
10FF
 10
266.549
 20
239.621
 30
0.000000
  70
    32
  0
VERTEX
  8
0
  5
1100
 10
266.474
 20
239.623
 30
0.000000
  70
    32
  0
SEQEND
  8
0
  5
1101
  0
LINE
  5
C7F
  8
MSF16-3
 10
266.47419627724952
 20
209.6233168879734
 30
0.0
 11
266.47419627724952
 21
223.62331688797349
 31
0.0
1001
GENIUS_GENBH_13
1002
{
1000
OE
1000
CON1
1002
}
1001
GENIUS_GENOREF_13
1005
D93
  0
POLYLINE
  5
C80
  8
MSF16-3
 10
290.47419627724952
 20
223.62331688797349
 30
0.0
 66
     1
 70
     8
  0
VERTEX
  8
0
  5
1102
 10
290.474
 20
223.623
 30
0.000000
  70
    32
  0
VERTEX
  8
0
  5
1103
 10
290.399
 20
223.626
 30
0.000000
  70
    32
  0
VERTEX
  8
0
  5
1104
 10
290.324
 20
223.633
 30
0.000000
  70
    32
  0
VERTEX
  8
0
  5
1105
 10
290.249
 20
223.645
 30
0.000000
  70
    32
  0
VERTEX
  8
0
  5
1106
 10
290.175
 20
223.662
 30
0.000000
  70
    32
  0
VERTEX
  8
0
  5
1107
 10
290.100
 20
223.683
 30
0.000000
  70
    32
  0
VERTEX
  8
0
  5
1108
 10
290.026
 20
223.710
 30
0.000000
  70
    32
  0
VERTEX
  8
0
  5
1109
 10
289.952
 20
223.741
 30
0.000000
  70
    32
  0
VERTEX
  8
0
  5
110A
 10
289.878
 20
223.777
 30
0.000000
  70
    32
  0
VERTEX
  8
0
  5
110B
 10
289.805
 20
223.818
 30
0.000000
  70
    32
  0
VERTEX
  8
0
  5
110C
 10
289.732
 20
223.863
 30
0.000000
  70
    32
  0
VERTEX
  8
0
  5
110D
 10
289.659
 20
223.913
 30
0.000000
  70
    32
  0
VERTEX
  8
0
  5
110E
 10
289.587
 20
223.968
 30
0.000000
  70
    32
  0
VERTEX
  8
0
  5
110F
 10
289.516
 20
224.027
 30
0.000000
  70
    32
  0
VERTEX
  8
0
  5
1110
 10
289.445
 20
224.091
 30
0.000000
  70
    32
  0
VERTEX
  8
0
  5
1111
 10
289.374
 20
224.159
 30
0.000000
  70
    32
  0
VERTEX
  8
0
  5
1112
 10
289.305
 20
224.232
 30
0.000000
  70
    32
  0
VERTEX
  8
0
  5
1113
 10
289.236
 20
224.310
 30
0.000000
  70
    32
  0
VERTEX
  8
0
  5
1114
 10
289.168
 20
224.391
 30
0.000000
  70
    32
  0
VERTEX
  8
0
  5
1115
 10
289.100
 20
224.478
 30
0.000000
  70
    32
  0
VERTEX
  8
0
  5
1116
 10
289.034
 20
224.568
 30
0.000000
  70
    32
  0
VERTEX
  8
0
  5
1117
 10
288.968
 20
224.663
 30
0.000000
  70
    32
  0
VERTEX
  8
0
  5
1118
 10
288.903
 20
224.761
 30
0.000000
  70
    32
  0
VERTEX
  8
0
  5
1119
 10
288.839
 20
224.864
 30
0.000000
  70
    32
  0
VERTEX
  8
0
  5
111A
 10
288.777
 20
224.972
 30
0.000000
  70
    32
  0
VERTEX
  8
0
  5
111B
 10
288.715
 20
225.083
 30
0.000000
  70
    32
  0
VERTEX
  8
0
  5
111C
 10
288.654
 20
225.198
 30
0.000000
  70
    32
  0
VERTEX
  8
0
  5
111D
 10
288.594
 20
225.317
 30
0.000000
  70
    32
  0
VERTEX
  8
0
  5
111E
 10
288.536
 20
225.439
 30
0.000000
  70
    32
  0
VERTEX
  8
0
  5
111F
 10
288.478
 20
225.566
 30
0.000000
  70
    32
  0
VERTEX
  8
0
  5
1120
 10
288.422
 20
225.696
 30
0.000000
  70
    32
  0
VERTEX
  8
0
  5
1121
 10
288.367
 20
225.829
 30
0.000000
  70
    32
  0
VERTEX
  8
0
  5
1122
 10
288.313
 20
225.966
 30
0.000000
  70
    32
  0
VERTEX
  8
0
  5
1123
 10
288.261
 20
226.107
 30
0.000000
  70
    32
  0
VERTEX
  8
0
  5
1124
 10
288.210
 20
226.251
 30
0.000000
  70
    32
  0
VERTEX
  8
0
  5
1125
 10
288.160
 20
226.398
 30
0.000000
  70
    32
  0
VERTEX
  8
0
  5
1126
 10
288.112
 20
226.548
 30
0.000000
  70
    32
  0
VERTEX
  8
0
  5
1127
 10
288.065
 20
226.701
 30
0.000000
  70
    32
  0
VERTEX
  8
0
  5
1128
 10
288.020
 20
226.858
 30
0.000000
  70
    32
  0
VERTEX
  8
0
  5
1129
 10
287.976
 20
227.017
 30
0.000000
  70
    32
  0
VERTEX
  8
0
  5
112A
 10
287.933
 20
227.179
 30
0.000000
  70
    32
  0
VERTEX
  8
0
  5
112B
 10
287.893
 20
227.343
 30
0.000000
  70
    32
  0
VERTEX
  8
0
  5
112C
 10
287.853
 20
227.510
 30
0.000000
  70
    32
  0
VERTEX
  8
0
  5
112D
 10
287.815
 20
227.680
 30
0.000000
  70
    32
  0
VERTEX
  8
0
  5
112E
 10
287.779
 20
227.852
 30
0.000000
  70
    32
  0
VERTEX
  8
0
  5
112F
 10
287.745
 20
228.026
 30
0.000000
  70
    32
  0
VERTEX
  8
0
  5
1130
 10
287.712
 20
228.203
 30
0.000000
  70
    32
  0
VERTEX
  8
0
  5
1131
 10
287.681
 20
228.381
 30
0.000000
  70
    32
  0
VERTEX
  8
0
  5
1132
 10
287.651
 20
228.562
 30
0.000000
  70
    32
  0
VERTEX
  8
0
  5
1133
 10
287.623
 20
228.744
 30
0.000000
  70
    32
  0
VERTEX
  8
0
  5
1134
 10
287.597
 20
228.928
 30
0.000000
  70
    32
  0
VERTEX
  8
0
  5
1135
 10
287.573
 20
229.114
 30
0.000000
  70
    32
  0
VERTEX
  8
0
  5
1136
 10
287.550
 20
229.301
 30
0.000000
  70
    32
  0
VERTEX
  8
0
  5
1137
 10
287.529
 20
229.490
 30
0.000000
  70
    32
  0
VERTEX
  8
0
  5
1138
 10
287.510
 20
229.679
 30
0.000000
  70
    32
  0
VERTEX
  8
0
  5
1139
 10
287.493
 20
229.871
 30
0.000000
  70
    32
  0
VERTEX
  8
0
  5
113A
 10
287.477
 20
230.063
 30
0.000000
  70
    32
  0
VERTEX
  8
0
  5
113B
 10
287.463
 20
230.256
 30
0.000000
  70
    32
  0
VERTEX
  8
0
  5
113C
 10
287.452
 20
230.449
 30
0.000000
  70
    32
  0
VERTEX
  8
0
  5
113D
 10
287.441
 20
230.644
 30
0.000000
  70
    32
  0
VERTEX
  8
0
  5
113E
 10
287.433
 20
230.839
 30
0.000000
  70
    32
  0
VERTEX
  8
0
  5
113F
 10
287.427
 20
231.035
 30
0.000000
  70
    32
  0
VERTEX
  8
0
  5
1140
 10
287.422
 20
231.231
 30
0.000000
  70
    32
  0
VERTEX
  8
0
  5
1141
 10
287.419
 20
231.427
 30
0.000000
  70
    32
  0
VERTEX
  8
0
  5
1142
 10
287.418
 20
231.623
 30
0.000000
  70
    32
  0
VERTEX
  8
0
  5
1143
 10
287.419
 20
231.820
 30
0.000000
  70
    32
  0
VERTEX
  8
0
  5
1144
 10
287.422
 20
232.016
 30
0.000000
  70
    32
  0
VERTEX
  8
0
  5
1145
 10
287.427
 20
232.212
 30
0.000000
  70
    32
  0
VERTEX
  8
0
  5
1146
 10
287.433
 20
232.407
 30
0.000000
  70
    32
  0
VERTEX
  8
0
  5
1147
 10
287.441
 20
232.603
 30
0.000000
  70
    32
  0
VERTEX
  8
0
  5
1148
 10
287.452
 20
232.797
 30
0.000000
  70
    32
  0
VERTEX
  8
0
  5
1149
 10
287.463
 20
232.991
 30
0.000000
  70
    32
  0
VERTEX
  8
0
  5
114A
 10
287.477
 20
233.184
 30
0.000000
  70
    32
  0
VERTEX
  8
0
  5
114B
 10
287.493
 20
233.376
 30
0.000000
  70
    32
  0
VERTEX
  8
0
  5
114C
 10
287.510
 20
233.567
 30
0.000000
  70
    32
  0
VERTEX
  8
0
  5
114D
 10
287.529
 20
233.757
 30
0.000000
  70
    32
  0
VERTEX
  8
0
  5
114E
 10
287.550
 20
233.946
 30
0.000000
  70
    32
  0
VERTEX
  8
0
  5
114F
 10
287.573
 20
234.133
 30
0.000000
  70
    32
  0
VERTEX
  8
0
  5
1150
 10
287.597
 20
234.318
 30
0.000000
  70
    32
  0
VERTEX
  8
0
  5
1151
 10
287.623
 20
234.502
 30
0.000000
  70
    32
  0
VERTEX
  8
0
  5
1152
 10
287.651
 20
234.685
 30
0.000000
  70
    32
  0
VERTEX
  8
0
  5
1153
 10
287.681
 20
234.865
 30
0.000000
  70
    32
  0
VERTEX
  8
0
  5
1154
 10
287.712
 20
235.044
 30
0.000000
  70
    32
  0
VERTEX
  8
0
  5
1155
 10
287.745
 20
235.220
 30
0.000000
  70
    32
  0
VERTEX
  8
0
  5
1156
 10
287.779
 20
235.394
 30
0.000000
  70
    32
  0
VERTEX
  8
0
  5
1157
 10
287.815
 20
235.567
 30
0.000000
  70
    32
  0
VERTEX
  8
0
  5
1158
 10
287.853
 20
235.736
 30
0.000000
  70
    32
  0
VERTEX
  8
0
  5
1159
 10
287.893
 20
235.903
 30
0.000000
  70
    32
  0
VERTEX
  8
0
  5
115A
 10
287.933
 20
236.068
 30
0.000000
  70
    32
  0
VERTEX
  8
0
  5
115B
 10
287.976
 20
236.230
 30
0.000000
  70
    32
  0
VERTEX
  8
0
  5
115C
 10
288.020
 20
236.389
 30
0.000000
  70
    32
  0
VERTEX
  8
0
  5
115D
 10
288.065
 20
236.545
 30
0.000000
  70
    32
  0
VERTEX
  8
0
  5
115E
 10
288.112
 20
236.698
 30
0.000000
  70
    32
  0
VERTEX
  8
0
  5
115F
 10
288.160
 20
236.849
 30
0.000000
  70
    32
  0
VERTEX
  8
0
  5
1160
 10
288.210
 20
236.996
 30
0.000000
  70
    32
  0
VERTEX
  8
0
  5
1161
 10
288.261
 20
237.140
 30
0.000000
  70
    32
  0
VERTEX
  8
0
  5
1162
 10
288.313
 20
237.280
 30
0.000000
  70
    32
  0
VERTEX
  8
0
  5
1163
 10
288.367
 20
237.417
 30
0.000000
  70
    32
  0
VERTEX
  8
0
  5
1164
 10
288.422
 20
237.551
 30
0.000000
  70
    32
  0
VERTEX
  8
0
  5
1165
 10
288.478
 20
237.681
 30
0.000000
  70
    32
  0
VERTEX
  8
0
  5
1166
 10
288.536
 20
237.807
 30
0.000000
  70
    32
  0
VERTEX
  8
0
  5
1167
 10
288.594
 20
237.930
 30
0.000000
  70
    32
  0
VERTEX
  8
0
  5
1168
 10
288.654
 20
238.049
 30
0.000000
  70
    32
  0
VERTEX
  8
0
  5
1169
 10
288.715
 20
238.164
 30
0.000000
  70
    32
  0
VERTEX
  8
0
  5
116A
 10
288.777
 20
238.275
 30
0.000000
  70
    32
  0
VERTEX
  8
0
  5
116B
 10
288.839
 20
238.382
 30
0.000000
  70
    32
  0
VERTEX
  8
0
  5
116C
 10
288.903
 20
238.485
 30
0.000000
  70
    32
  0
VERTEX
  8
0
  5
116D
 10
288.968
 20
238.584
 30
0.000000
  70
    32
  0
VERTEX
  8
0
  5
116E
 10
289.034
 20
238.679
 30
0.000000
  70
    32
  0
VERTEX
  8
0
  5
116F
 10
289.100
 20
238.769
 30
0.000000
  70
    32
  0
VERTEX
  8
0
  5
1170
 10
289.168
 20
238.855
 30
0.000000
  70
    32
  0
VERTEX
  8
0
  5
1171
 10
289.236
 20
238.937
 30
0.000000
  70
    32
  0
VERTEX
  8
0
  5
1172
 10
289.305
 20
239.014
 30
0.000000
  70
    32
  0
VERTEX
  8
0
  5
1173
 10
289.374
 20
239.087
 30
0.000000
  70
    32
  0
VERTEX
  8
0
  5
1174
 10
289.445
 20
239.156
 30
0.000000
  70
    32
  0
VERTEX
  8
0
  5
1175
 10
289.516
 20
239.220
 30
0.000000
  70
    32
  0
VERTEX
  8
0
  5
1176
 10
289.587
 20
239.279
 30
0.000000
  70
    32
  0
VERTEX
  8
0
  5
1177
 10
289.659
 20
239.334
 30
0.000000
  70
    32
  0
VERTEX
  8
0
  5
1178
 10
289.732
 20
239.384
 30
0.000000
  70
    32
  0
VERTEX
  8
0
  5
1179
 10
289.805
 20
239.429
 30
0.000000
  70
    32
  0
VERTEX
  8
0
  5
117A
 10
289.878
 20
239.470
 30
0.000000
  70
    32
  0
VERTEX
  8
0
  5
117B
 10
289.952
 20
239.506
 30
0.000000
  70
    32
  0
VERTEX
  8
0
  5
117C
 10
290.026
 20
239.537
 30
0.000000
  70
    32
  0
VERTEX
  8
0
  5
117D
 10
290.100
 20
239.563
 30
0.000000
  70
    32
  0
VERTEX
  8
0
  5
117E
 10
290.175
 20
239.585
 30
0.000000
  70
    32
  0
VERTEX
  8
0
  5
117F
 10
290.249
 20
239.602
 30
0.000000
  70
    32
  0
VERTEX
  8
0
  5
1180
 10
290.324
 20
239.614
 30
0.000000
  70
    32
  0
VERTEX
  8
0
  5
1181
 10
290.399
 20
239.621
 30
0.000000
  70
    32
  0
VERTEX
  8
0
  5
1182
 10
290.474
 20
239.623
 30
0.000000
  70
    32
  0
SEQEND
  8
0
  5
1183
  0
LINE
  5
C81
  8
MSF16-3
 10
290.47419627724952
 20
223.62331688797349
 30
0.0
 11
290.47419627724952
 21
211.62331688797329
 31
0.0
1001
GENIUS_GENBH_13
1002
{
1000
OE
1000
CON1
1002
}
1001
GENIUS_GENOREF_13
1005
D93
  0
INSERT
  5
C82
  8
MSF16-8
  2
*X48
 10
278.47419627724952
 20
207.6591204192101
 30
0.0
1001
GENIUS_GENODEF_13
1002
{
1000
HIER
1070
     0
1002
}
1002
{
1000
MANEDIT
1070
     0
1002
}
1002
{
1000
NOSEL
1070
     0
1002
}
1002
{
1000
BEHIND
1070
     0
1002
}
1002
{
1000
REACTOR
1002
}
1001
GENIUS_GENOBJ-N-HTC_13
1002
{
1000
OWNER
1000
GEN
1002
}
1001
GENIUS_GENHATCH_13
1002
{
1000
DATA
1040
45.0
1042
2.5
1000
_U
1070
     0
1011
285.0744523965285
1021
0.0
1031
0.0
1021
289.81609134224152
1031
0.0
1002
}
1002
{
1000
UCS
1010
0.0
1020
0.0
1030
0.0
1010
1.0
1020
0.0
1030
0.0
1010
0.0
1020
1.0
1030
0.0
1002
}
1001
ACAD
1000
HATCH
1002
{
1070
    19
1000
_U
1040
2.5
1040
0.7853981633974483
1070
     0
1002
}
  0
LINE
  5
C83
  8
MSF16-0
 10
266.47419627724952
 20
292.62331688797337
 30
0.0
 11
290.47419627724952
 21
292.62331688797349
 31
0.0
1001
GENIUS_GENOREF_13
1005
D60
  0
POLYLINE
  5
C84
  8
MSF16-0
 66
     1
 10
0.0
 20
0.0
 30
0.0
 70
     4
 75
     6
  0
VERTEX
  5
C85
  8
MSF16-0
 10
269.84683282610848
 20
292.62331688797337
 30
0.0
 70
    16
  0
VERTEX
  5
C86
  8
MSF16-0
 10
269.84683282610848
 20
292.62331688797337
 30
0.0
 70
     8
  0
VERTEX
  5
C87
  8
MSF16-0
 10
269.80128550976781
 20
291.26652382536338
 30
0.0
 70
     8
  0
VERTEX
  5
C88
  8
MSF16-0
 10
269.79548368142349
 20
290.17494628236381
 30
0.0
 70
     8
  0
VERTEX
  5
C89
  8
MSF16-0
 10
269.82264152781852
 20
289.3147225049255
 30
0.0
 70
     8
  0
VERTEX
  5
C8A
  8
MSF16-0
 10
269.87597323569571
 20
288.65199073899942
 30
0.0
 70
     8
  0
VERTEX
  5
C8B
  8
MSF16-0
 10
269.948692991798
 20
288.15288923053652
 30
0.0
 70
     8
  0
VERTEX
  5
C8C
  8
MSF16-0
 10
270.03401498286831
 20
287.78355622548742
 30
0.0
 70
     8
  0
VERTEX
  5
C8D
  8
MSF16-0
 10
270.1251533956497
 20
287.51012996980319
 30
0.0
 70
     8
  0
VERTEX
  5
C8E
  8
MSF16-0
 10
270.21532241688482
 20
287.29874870943479
 30
0.0
 70
     8
  0
VERTEX
  5
C8F
  8
MSF16-0
 10
270.29920502366002
 20
287.12046037739458
 30
0.0
 70
     8
  0
VERTEX
  5
C90
  8
MSF16-0
 10
270.37735935443459
 20
286.96595165494261
 30
0.0
 70
     8
  0
VERTEX
  5
C91
  8
MSF16-0
 10
270.45181233801088
 20
286.8308189104003
 30
0.0
 70
     8
  0
VERTEX
  5
C92
  8
MSF16-0
 10
270.52459090319149
 20
286.71065851208948
 30
0.0
 70
     8
  0
VERTEX
  5
C93
  8
MSF16-0
 10
270.59772197877868
 20
286.60106682833162
 30
0.0
 70
     8
  0
VERTEX
  5
C94
  8
MSF16-0
 10
270.6732324935752
 20
286.49764022744841
 30
0.0
 70
     8
  0
VERTEX
  5
C95
  8
MSF16-0
 10
270.75314937638342
 20
286.39597507776142
 30
0.0
 70
     8
  0
VERTEX
  5
C96
  8
MSF16-0
 10
270.83949955600571
 20
286.29166774759238
 30
0.0
 70
     8
  0
VERTEX
  5
C97
  8
MSF16-0
 10
270.93370775772712
 20
286.18140083436077
 30
0.0
 70
     8
  0
VERTEX
  5
C98
  8
MSF16-0
 10
271.03478989276198
 20
286.06620185187938
 30
0.0
 70
     8
  0
VERTEX
  5
C99
  8
MSF16-0
 10
271.14115966880729
 20
285.94818454305857
 30
0.0
 70
     8
  0
VERTEX
  5
C9A
  8
MSF16-0
 10
271.2512307935599
 20
285.82946265080921
 30
0.0
 70
     8
  0
VERTEX
  5
C9B
  8
MSF16-0
 10
271.36341697471659
 20
285.71214991804152
 30
0.0
 70
     8
  0
VERTEX
  5
C9C
  8
MSF16-0
 10
271.47613191997442
 20
285.59836008766632
 30
0.0
 70
     8
  0
VERTEX
  5
C9D
  8
MSF16-0
 10
271.58778933703007
 20
285.49020690259431
 30
0.0
 70
     8
  0
VERTEX
  5
C9E
  8
MSF16-0
 10
271.69680293358061
 20
285.38980410573578
 30
0.0
 70
     8
  0
VERTEX
  5
C9F
  8
MSF16-0
 10
271.80207707535789
 20
285.29878596518898
 30
0.0
 70
     8
  0
VERTEX
  5
CA0
  8
MSF16-0
 10
271.9044787602345
 20
285.21686884980051
 30
0.0
 70
     8
  0
VERTEX
  5
CA1
  8
MSF16-0
 10
272.005365644118
 20
285.14328965360471
 30
0.0
 70
     8
  0
VERTEX
  5
CA2
  8
MSF16-0
 10
272.1060953829159
 20
285.07728527063563
 30
0.0
 70
     8
  0
VERTEX
  5
CA3
  8
MSF16-0
 10
272.20802563253591
 20
285.01809259492751
 30
0.0
 70
     8
  0
VERTEX
  5
CA4
  8
MSF16-0
 10
272.3125140488857
 20
284.96494852051438
 30
0.0
 70
     8
  0
VERTEX
  5
CA5
  8
MSF16-0
 10
272.42091828787272
 20
284.91708994143067
 30
0.0
 70
     8
  0
VERTEX
  5
CA6
  8
MSF16-0
 10
272.53459600540452
 20
284.87375375171041
 30
0.0
 70
     8
  0
VERTEX
  5
CA7
  8
MSF16-0
 10
272.65461664490181
 20
284.83406907465661
 30
0.0
 70
     8
  0
VERTEX
  5
CA8
  8
MSF16-0
 10
272.78089679983589
 20
284.79673395064827
 30
0.0
 70
     8
  0
VERTEX
  5
CA9
  8
MSF16-0
 10
272.91306485119151
 20
284.76033864933328
 30
0.0
 70
     8
  0
VERTEX
  5
CAA
  8
MSF16-0
 10
273.05074917995302
 20
284.7234734403595
 30
0.0
 70
     8
  0
VERTEX
  5
CAB
  8
MSF16-0
 10
273.19357816710499
 20
284.68472859337459
 30
0.0
 70
     8
  0
VERTEX
  5
CAC
  8
MSF16-0
 10
273.34118019363171
 20
284.64269437802648
 30
0.0
 70
     8
  0
VERTEX
  5
CAD
  8
MSF16-0
 10
273.49318364051788
 20
284.59596106396322
 30
0.0
 70
     8
  0
VERTEX
  5
CAE
  8
MSF16-0
 10
273.6492168887479
 20
284.5431189208324
 30
0.0
 70
     8
  0
VERTEX
  5
CAF
  8
MSF16-0
 10
273.80882656174379
 20
284.48322812824568
 30
0.0
 70
     8
  0
VERTEX
  5
CB0
  8
MSF16-0
 10
273.97123225267808
 20
284.41722850566958
 30
0.0
 70
     8
  0
VERTEX
  5
CB1
  8
MSF16-0
 10
274.13557179716088
 20
284.34652978253439
 30
0.0
 70
     8
  0
VERTEX
  5
CB2
  8
MSF16-0
 10
274.30098303080217
 20
284.27254168827
 30
0.0
 70
     8
  0
VERTEX
  5
CB3
  8
MSF16-0
 10
274.46660378921212
 20
284.19667395230692
 30
0.0
 70
     8
  0
VERTEX
  5
CB4
  8
MSF16-0
 10
274.63157190800081
 20
284.12033630407529
 30
0.0
 70
     8
  0
VERTEX
  5
CB5
  8
MSF16-0
 10
274.79502522277818
 20
284.04493847300517
 30
0.0
 70
     8
  0
VERTEX
  5
CB6
  8
MSF16-0
 10
274.95610156915461
 20
283.97189018852691
 30
0.0
 70
     8
  0
VERTEX
  5
CB7
  8
MSF16-0
 10
275.11452015433429
 20
283.90234662204722
 30
0.0
 70
     8
  0
VERTEX
  5
CB8
  8
MSF16-0
 10
275.2723256719006
 20
283.8364447128792
 30
0.0
 70
     8
  0
VERTEX
  5
CB9
  8
MSF16-0
 10
275.43214418703059
 20
283.77406684231249
 30
0.0
 70
     8
  0
VERTEX
  5
CBA
  8
MSF16-0
 10
275.59660176490178
 20
283.71509539163679
 30
0.0
 70
     8
  0
VERTEX
  5
CBB
  8
MSF16-0
 10
275.76832447069171
 20
283.6594127421418
 30
0.0
 70
     8
  0
VERTEX
  5
CBC
  8
MSF16-0
 10
275.94993836957781
 20
283.60690127511708
 30
0.0
 70
     8
  0
VERTEX
  5
CBD
  8
MSF16-0
 10
276.14406952673738
 20
283.5574433718524
 30
0.0
 70
     8
  0
VERTEX
  5
CBE
  8
MSF16-0
 10
276.35334400734803
 20
283.51092141363739
 30
0.0
 70
     8
  0
VERTEX
  5
CBF
  8
MSF16-0
 10
276.57945650422238
 20
283.46747224510108
 30
0.0
 70
     8
  0
VERTEX
  5
CC0
  8
MSF16-0
 10
276.82037622071488
 20
283.42825056422981
 30
0.0
 70
     8
  0
VERTEX
  5
CC1
  8
MSF16-0
 10
277.07314098781529
 20
283.39466553234951
 30
0.0
 70
     8
  0
VERTEX
  5
CC2
  8
MSF16-0
 10
277.33478863651328
 20
283.36812631078578
 30
0.0
 70
     8
  0
VERTEX
  5
CC3
  8
MSF16-0
 10
277.60235699779861
 20
283.3500420608645
 30
0.0
 70
     8
  0
VERTEX
  5
CC4
  8
MSF16-0
 10
277.87288390266082
 20
283.34182194391133
 30
0.0
 70
     8
  0
VERTEX
  5
CC5
  8
MSF16-0
 10
278.14340718208979
 20
283.34487512125207
 30
0.0
 70
     8
  0
VERTEX
  5
CC6
  8
MSF16-0
 10
278.4109646670754
 20
283.3606107542127
 30
0.0
 70
     8
  0
VERTEX
  5
CC7
  8
MSF16-0
 10
278.67284718335702
 20
283.38979213843407
 30
0.0
 70
     8
  0
VERTEX
  5
CC8
  8
MSF16-0
 10
278.92735753567428
 20
283.43059910682013
 30
0.0
 70
     8
  0
VERTEX
  5
CC9
  8
MSF16-0
 10
279.1730515235169
 20
283.48056562658928
 30
0.0
 70
     8
  0
VERTEX
  5
CCA
  8
MSF16-0
 10
279.4084849463743
 20
283.53722566496089
 30
0.0
 70
     8
  0
VERTEX
  5
CCB
  8
MSF16-0
 10
279.63221360373598
 20
283.59811318915348
 30
0.0
 70
     8
  0
VERTEX
  5
CCC
  8
MSF16-0
 10
279.84279329509178
 20
283.66076216638641
 30
0.0
 70
     8
  0
VERTEX
  5
CCD
  8
MSF16-0
 10
280.03877981993088
 20
283.72270656387832
 30
0.0
 70
     8
  0
VERTEX
  5
CCE
  8
MSF16-0
 10
280.21872897774313
 20
283.78148034884828
 30
0.0
 70
     8
  0
VERTEX
  5
CCF
  8
MSF16-0
 10
280.38180146717508
 20
283.83508720911072
 30
0.0
 70
     8
  0
VERTEX
  5
CD0
  8
MSF16-0
 10
280.52957758350283
 20
283.88340971486252
 30
0.0
 70
     8
  0
VERTEX
  5
CD1
  8
MSF16-0
 10
280.66424252115928
 20
283.92680015689598
 30
0.0
 70
     8
  0
VERTEX
  5
CD2
  8
MSF16-0
 10
280.7879814745778
 20
283.9656108260038
 30
0.0
 70
     8
  0
VERTEX
  5
CD3
  8
MSF16-0
 10
280.90297963819131
 20
284.00019401297811
 30
0.0
 70
     8
  0
VERTEX
  5
CD4
  8
MSF16-0
 10
281.01142220643311
 20
284.03090200861141
 30
0.0
 70
     8
  0
VERTEX
  5
CD5
  8
MSF16-0
 10
281.11549437373628
 20
284.05808710369621
 30
0.0
 70
     8
  0
VERTEX
  5
CD6
  8
MSF16-0
 10
281.21738133453391
 20
284.08210158902477
 30
0.0
 70
     8
  0
VERTEX
  5
CD7
  8
MSF16-0
 10
281.318962836173
 20
284.10323903995021
 30
0.0
 70
     8
  0
VERTEX
  5
CD8
  8
MSF16-0
 10
281.42089683765528
 20
284.12155817006811
 30
0.0
 70
     8
  0
VERTEX
  5
CD9
  8
MSF16-0
 10
281.52353585089702
 20
284.13705897753442
 30
0.0
 70
     8
  0
VERTEX
  5
CDA
  8
MSF16-0
 10
281.62723238781348
 20
284.14974146050531
 30
0.0
 70
     8
  0
VERTEX
  5
CDB
  8
MSF16-0
 10
281.73233896032082
 20
284.15960561713678
 30
0.0
 70
     8
  0
VERTEX
  5
CDC
  8
MSF16-0
 10
281.83920808033452
 20
284.16665144558522
 30
0.0
 70
     8
  0
VERTEX
  5
CDD
  8
MSF16-0
 10
281.94819225977039
 20
284.1708789440064
 30
0.0
 70
     8
  0
VERTEX
  5
CDE
  8
MSF16-0
 10
282.0596440105445
 20
284.17228811055651
 30
0.0
 70
     8
  0
VERTEX
  5
CDF
  8
MSF16-0
 10
282.173578060637
 20
284.17113340765297
 30
0.0
 70
     8
  0
VERTEX
  5
CE0
  8
MSF16-0
 10
282.28865800228732
 20
284.16868715475852
 30
0.0
 70
     8
  0
VERTEX
  5
CE1
  8
MSF16-0
 10
282.40320964379919
 20
284.16647613559689
 30
0.0
 70
     8
  0
VERTEX
  5
CE2
  8
MSF16-0
 10
282.51555879347671
 20
284.16602713389199
 30
0.0
 70
     8
  0
VERTEX
  5
CE3
  8
MSF16-0
 10
282.62403125962379
 20
284.16886693336778
 30
0.0
 70
     8
  0
VERTEX
  5
CE4
  8
MSF16-0
 10
282.72695285054442
 20
284.17652231774821
 30
0.0
 70
     8
  0
VERTEX
  5
CE5
  8
MSF16-0
 10
282.82264937454238
 20
284.19052007075697
 30
0.0
 70
     8
  0
VERTEX
  5
CE6
  8
MSF16-0
 10
282.90944663992178
 20
284.21238697611818
 30
0.0
 70
     8
  0
VERTEX
  5
CE7
  8
MSF16-0
 10
282.9868159581481
 20
284.24354204636359
 30
0.0
 70
     8
  0
VERTEX
  5
CE8
  8
MSF16-0
 10
283.05881065333313
 20
284.28497320925709
 30
0.0
 70
     8
  0
VERTEX
  5
CE9
  8
MSF16-0
 10
283.13062955275029
 20
284.3375606213703
 30
0.0
 70
     8
  0
VERTEX
  5
CEA
  8
MSF16-0
 10
283.20747148367332
 20
284.402184439275
 30
0.0
 70
     8
  0
VERTEX
  5
CEB
  8
MSF16-0
 10
283.29453527337529
 20
284.47972481954281
 30
0.0
 70
     8
  0
VERTEX
  5
CEC
  8
MSF16-0
 10
283.39701974912981
 20
284.57106191874573
 30
0.0
 70
     8
  0
VERTEX
  5
CED
  8
MSF16-0
 10
283.52012373821037
 20
284.67707589345508
 30
0.0
 70
     8
  0
VERTEX
  5
CEE
  8
MSF16-0
 10
283.66904606789058
 20
284.798646900243
 30
0.0
 70
     8
  0
VERTEX
  5
CEF
  8
MSF16-0
 10
283.84710574418602
 20
284.93600941951843
 30
0.0
 70
     8
  0
VERTEX
  5
CF0
  8
MSF16-0
 10
284.05010248808219
 20
285.08681522703972
 30
0.0
 70
     8
  0
VERTEX
  5
CF1
  8
MSF16-0
 10
284.271956199307
 20
285.24807042240241
 30
0.0
 70
     8
  0
VERTEX
  5
CF2
  8
MSF16-0
 10
284.50658677758832
 20
285.41678110520252
 30
0.0
 70
     8
  0
VERTEX
  5
CF3
  8
MSF16-0
 10
284.74791412265381
 20
285.58995337503552
 30
0.0
 70
     8
  0
VERTEX
  5
CF4
  8
MSF16-0
 10
284.98985813423133
 20
285.76459333149728
 30
0.0
 70
     8
  0
VERTEX
  5
CF5
  8
MSF16-0
 10
285.22633871204869
 20
285.93770707418349
 30
0.0
 70
     8
  0
VERTEX
  5
CF6
  8
MSF16-0
 10
285.45127575583388
 20
286.10630070268991
 30
0.0
 70
     8
  0
VERTEX
  5
CF7
  8
MSF16-0
 10
285.65976404358889
 20
286.26830005984721
 30
0.0
 70
     8
  0
VERTEX
  5
CF8
  8
MSF16-0
 10
285.85159786641321
 20
286.42530996142631
 30
0.0
 70
     8
  0
VERTEX
  5
CF9
  8
MSF16-0
 10
286.02774639367999
 20
286.57985496643317
 30
0.0
 70
     8
  0
VERTEX
  5
CFA
  8
MSF16-0
 10
286.18917879476311
 20
286.73445963387388
 30
0.0
 70
     8
  0
VERTEX
  5
CFB
  8
MSF16-0
 10
286.33686423903612
 20
286.89164852275428
 30
0.0
 70
     8
  0
VERTEX
  5
CFC
  8
MSF16-0
 10
286.47177189587228
 20
287.0539461920805
 30
0.0
 70
     8
  0
VERTEX
  5
CFD
  8
MSF16-0
 10
286.5948709346456
 20
287.22387720085823
 30
0.0
 70
     8
  0
VERTEX
  5
CFE
  8
MSF16-0
 10
286.70713052472928
 20
287.40396610809358
 30
0.0
 70
     8
  0
VERTEX
  5
CFF
  8
MSF16-0
 10
286.80959331395462
 20
287.59596442247329
 30
0.0
 70
     8
  0
VERTEX
  5
D00
  8
MSF16-0
 10
286.90359586398159
 20
287.79853145140589
 30
0.0
 70
     8
  0
VERTEX
  5
D01
  8
MSF16-0
 10
286.99054821492859
 20
288.00955345198088
 30
0.0
 70
     8
  0
VERTEX
  5
D02
  8
MSF16-0
 10
287.07186040691312
 20
288.22691668128772
 30
0.0
 70
     8
  0
VERTEX
  5
D03
  8
MSF16-0
 10
287.14894248005322
 20
288.44850739641572
 30
0.0
 70
     8
  0
VERTEX
  5
D04
  8
MSF16-0
 10
287.22320447446663
 20
288.67221185445442
 30
0.0
 70
     8
  0
VERTEX
  5
D05
  8
MSF16-0
 10
287.29605643027111
 20
288.895916312493
 30
0.0
 70
     8
  0
VERTEX
  5
D06
  8
MSF16-0
 10
287.36890838758478
 20
289.117507027621
 30
0.0
 70
     8
  0
VERTEX
  5
D07
  8
MSF16-0
 10
287.44278850062869
 20
289.33526658380038
 30
0.0
 70
     8
  0
VERTEX
  5
D08
  8
MSF16-0
 10
287.51719738003709
 20
289.54906287248338
 30
0.0
 70
     8
  0
VERTEX
  5
D09
  8
MSF16-0
 10
287.59125375054782
 20
289.75916011199479
 30
0.0
 70
     8
  0
VERTEX
  5
D0A
  8
MSF16-0
 10
287.66407633689857
 20
289.9658225206594
 30
0.0
 70
     8
  0
VERTEX
  5
D0B
  8
MSF16-0
 10
287.7347838638272
 20
290.16931431680189
 30
0.0
 70
     8
  0
VERTEX
  5
D0C
  8
MSF16-0
 10
287.80249505607122
 20
290.36989971874732
 30
0.0
 70
     8
  0
VERTEX
  5
D0D
  8
MSF16-0
 10
287.86632863836837
 20
290.56784294482031
 30
0.0
 70
     8
  0
VERTEX
  5
D0E
  8
MSF16-0
 10
287.92540333545651
 20
290.76340821334571
 30
0.0
 70
     8
  0
VERTEX
  5
D0F
  8
MSF16-0
 10
287.9787497464834
 20
290.95754194342788
 30
0.0
 70
     8
  0
VERTEX
  5
D10
  8
MSF16-0
 10
288.025045968239
 20
291.15391935728968
 30
0.0
 70
     8
  0
VERTEX
  5
D11
  8
MSF16-0
 10
288.06288197192322
 20
291.35689787793382
 30
0.0
 70
     8
  0
VERTEX
  5
D12
  8
MSF16-0
 10
288.09084772873598
 20
291.5708349283625
 30
0.0
 70
     8
  0
VERTEX
  5
D13
  8
MSF16-0
 10
288.10753320987737
 20
291.80008793157828
 30
0.0
 70
     8
  0
VERTEX
  5
D14
  8
MSF16-0
 10
288.11152838654732
 20
292.0490143105838
 30
0.0
 70
     8
  0
VERTEX
  5
D15
  8
MSF16-0
 10
288.10142322994591
 20
292.32197148838128
 30
0.0
 70
     8
  0
VERTEX
  5
D16
  8
MSF16-0
 10
288.075807711273
 20
292.62331688797349
 30
0.0
 70
     8
  0
VERTEX
  5
D17
  8
MSF16-0
 10
269.66634749786527
 20
288.62148202460003
 30
0.0
 70
    16
  0
VERTEX
  5
D18
  8
MSF16-0
 10
270.2980446014522
 20
286.99812746925818
 30
0.0
 70
    16
  0
VERTEX
  5
D19
  8
MSF16-0
 10
270.74925714942822
 20
286.36682307730467
 30
0.0
 70
    16
  0
VERTEX
  5
D1A
  8
MSF16-0
 10
271.74192413686939
 20
285.28458670707693
 30
0.0
 70
    16
  0
VERTEX
  5
D1B
  8
MSF16-0
 10
272.46386390457798
 20
284.83365472880268
 30
0.0
 70
    16
  0
VERTEX
  5
D1C
  8
MSF16-0
 10
273.6101962772459
 20
284.62331688797491
 30
0.0
 70
    16
  0
VERTEX
  5
D1D
  8
MSF16-0
 10
274.99065231892581
 20
283.93179124429219
 30
0.0
 70
    16
  0
VERTEX
  5
D1E
  8
MSF16-0
 10
276.16380386197818
 20
283.48085926601789
 30
0.0
 70
    16
  0
VERTEX
  5
D1F
  8
MSF16-0
 10
278.47419627724952
 20
283.21030017346089
 30
0.0
 70
    16
  0
VERTEX
  5
D20
  8
MSF16-0
 10
280.40519903147577
 20
283.8416045654144
 30
0.0
 70
    16
  0
VERTEX
  5
D21
  8
MSF16-0
 10
281.21738146330591
 20
284.11216365797128
 30
0.0
 70
    16
  0
VERTEX
  5
D22
  8
MSF16-0
 10
282.02956312250399
 20
284.20235033684912
 30
0.0
 70
    16
  0
VERTEX
  5
D23
  8
MSF16-0
 10
283.02223010994533
 20
284.11216365797128
 30
0.0
 70
    16
  0
VERTEX
  5
D24
  8
MSF16-0
 10
283.33819627724591
 20
284.62331688797491
 30
0.0
 70
    16
  0
VERTEX
  5
D25
  8
MSF16-0
 10
285.63926118841459
 20
286.18645019158731
 30
0.0
 70
    16
  0
VERTEX
  5
D26
  8
MSF16-0
 10
286.8124135040992
 20
287.26868656181517
 30
0.0
 70
    16
  0
VERTEX
  5
D27
  8
MSF16-0
 10
287.35386794356452
 20
289.16260020971379
 30
0.0
 70
    16
  0
VERTEX
  5
D28
  8
MSF16-0
 10
287.98556504715151
 20
290.78595476505558
 30
0.0
 70
    16
  0
VERTEX
  5
D29
  8
MSF16-0
 10
288.16604960276248
 20
291.77800492844392
 30
0.0
 70
    16
  0
VERTEX
  5
D2A
  8
MSF16-0
 10
288.075807711273
 20
292.62331688797349
 30
0.0
 70
    16
  0
SEQEND
  5
D2B
  8
MSF16-0
  0
INSERT
  5
D2C
  8
MSF16-0N
 66
     1
  2
GENINF13
 10
285.13256179404999
 20
261.01215424423913
 30
0.0
1001
GENIUS_GENSCSYM_13
1002
{
1000
INSPT
1011
285.13256179404999
1021
0.0
1031
0.0
1021
261.01215424423913
1031
0.0
1002
}
1002
{
1000
SCALE
1042
1.0
1002
}
1002
{
1000
USEOLDBPT
1070
     0
1002
}
1001
GENIUS_GENOBJ-N-INFOPT_13
1002
{
1000
OWNER
1000
GEN
1002
}
1001
GENIUS_GENSYMENT_13
1002
{
1000
ENT
1005
D2C
1002
}
1001
GENIUS_GENODEF_13
1002
{
1000
HIER
1070
     0
1002
}
1002
{
1000
MANEDIT
1070
     0
1002
}
1002
{
1000
NOSEL
1070
     0
1002
}
1002
{
1000
BEHIND
1070
     0
1002
}
1002
{
1000
REACTOR
1002
}
1001
GENIUS_GENOBJ-N-RSSYM_13
1002
{
1000
OWNER
1000
GEN
1002
}
1001
GENIUS_GENINF13_13
1070
     1
  0
ATTRIB
  5
D2D
  8
INFO
 10
285.13256179404999
 20
261.01215424423913
 30
0.0
 40
1.0
  1
1
  2
2GENINF
 70
     1
  0
ATTRIB
  5
D2E
  8
INFO
 10
285.13256179404999
 20
259.51215424423913
 30
0.0
 40
1.0
  1
<***aktuell***>
  2
3GENINF
 70
     1
  0
ATTRIB
  5
D2F
  8
INFO
 10
285.13256179404999
 20
258.01215424423918
 30
0.0
 40
1.0
  1

  2
4GENINF
 70
     1
  0
ATTRIB
  5
D30
  8
INFO
 10
285.13256179404999
 20
256.51215424423913
 30
0.0
 40
1.0
  1
MSL-F16/40#
  2
5GENINF
 70
     1
  0
ATTRIB
  5
D31
  8
INFO
 10
285.13256179404999
 20
255.0121542442391
 30
0.0
 40
1.0
  1

  2
6GENINF
 70
     1
  0
ATTRIB
  5
D32
  8
INFO
 10
285.13256179404999
 20
253.51215424423921
 30
0.0
 40
1.0
  1
Fa. Mayer
  2
7GENINF
 70
     1
  0
ATTRIB
  5
D33
  8
INFO
 10
285.13256179404999
 20
252.0121542442391
 30
0.0
 40
1.0
  1

  2
8GENINF
 70
     1
  0
ATTRIB
  5
D34
  8
INFO
 10
285.13256179404999
 20
250.5121542442391
 30
0.0
 40
1.0
  1

  2
9GENINF
 70
     1
  0
ATTRIB
  5
D35
  8
INFO
 10
285.13256179404999
 20
249.0121542442391
 30
0.0
 40
1.0
  1

  2
10GENINF
 70
     1
  0
ATTRIB
  5
D36
  8
INFO
 10
285.13256179404999
 20
247.51215424423921
 30
0.0
 40
1.0
  1

  2
11GENINF
 70
     1
  0
ATTRIB
  5
D37
  8
INFO
 10
285.13256179404999
 20
246.0121542442391
 30
0.0
 40
1.0
  1

  2
12GENINF
 70
     1
  0
ATTRIB
  5
D38
  8
INFO
 10
285.13256179404999
 20
244.5121542442391
 30
0.0
 40
1.0
  1

  2
13GENINF
 70
     1
  0
ATTRIB
  5
D39
  8
INFO
 10
285.13256179404999
 20
243.01215424423921
 30
0.0
 40
1.0
  1

  2
14GENINF
 70
     1
  0
ATTRIB
  5
D3A
  8
INFO
 10
285.13256179404999
 20
241.5121542442391
 30
0.0
 40
1.0
  1

  2
15GENINF
 70
     1
  0
ATTRIB
  5
D3B
  8
INFO
 10
285.13256179404999
 20
240.0121542442391
 30
0.0
 40
1.0
  1

  2
16GENINF
 70
     1
  0
ATTRIB
  5
D3C
  8
INFO
 10
285.13256179404999
 20
238.5121542442391
 30
0.0
 40
1.0
  1

  2
17GENINF
 70
     1
  0
ATTRIB
  5
D3D
  8
INFO
 10
285.13256179404999
 20
237.01215424423921
 30
0.0
 40
1.0
  1

  2
18GENINF
 70
     1
  0
ATTRIB
  5
D3E
  8
INFO
 10
285.13256179404999
 20
235.5121542442391
 30
0.0
 40
1.0
  1

  2
19GENINF
 70
     1
  0
ATTRIB
  5
D3F
  8
INFO
 10
285.13256179404999
 20
234.0121542442391
 30
0.0
 40
1.0
  1

  2
20GENINF
 70
     1
  0
ATTRIB
  5
D40
  8
INFO
 10
285.13256179404999
 20
232.51215424423921
 30
0.0
 40
1.0
  1

  2
21GENINF
 70
     1
  0
ATTRIB
  5
D41
  8
INFO
 10
285.13256179404999
 20
231.0121542442391
 30
0.0
 40
1.0
  1

  2
22GENINF
 70
     1
  0
ATTRIB
  5
D42
  8
INFO
 10
285.13256179404999
 20
229.5121542442391
 30
0.0
 40
1.0
  1

  2
23GENINF
 70
     1
  0
ATTRIB
  5
D43
  8
INFO
 10
285.13256179404999
 20
228.0121542442391
 30
0.0
 40
1.0
  1

  2
24GENINF
 70
     1
  0
ATTRIB
  5
D44
  8
INFO
 10
285.13256179404999
 20
226.51215424423921
 30
0.0
 40
1.0
  1

  2
0GENINF
 70
     1
  0
SEQEND
  5
D45
  8
MSF16-0N
  0
INSERT
  5
D46
  8
MSF16-0
  2
*U52
 10
278.47419627724588
 20
292.62331688797491
 30
0.0
 50
270.0
1001
GENIUS_GEFPARTINS_13
1002
{
1011
278.47419627724588
1021
0.0
1031
0.0
1021
292.62331688797491
1031
0.0
1013
-0.0000000000000002
1023
0.0
1033
0.0
1023
-1.0
1033
0.0
1002
}
1001
GEVPT
1002
{
1000
-V$PV_GENSYSTEM"GEF\VAL\DI\0405\DI1627_V.DXF"
1000
-FIXPLOTI=8.000000000000000E+00
1000
-GPGEF_PROCALC=1
1000
-GPGEF_FLIPY=1
1000
-GPGEF_FLIPX=1
1000
-GPGEF_SNK_ADD=0
1000
-GPGEVPROMPTX=Länge:
1000
-GPGEF_OANG=70
1000
-GPGEF_STANG=210
1000
-GPGEF_DRAG=1
1000
-GPGEF_CDIST=3
1000
-GPVCC_TABLE=C:\GENIUS\gef\val\di\0405\di1627.val
1000
-GPNM1=1/8
1000
-GPPRE=G
1002
}
1001
GENIUS_GENOREF_13
1005
D5F
1005
D5E
1001
VCC
1002
{
1000
-ID13
1000
-IE2
1000
-IK13
1000
-V$PV_GENSYSTEM"GEF\VAL\DI\0405\DI1627_V.DXF"
1002
}
1001
GEVIT
1002
{
1000
-BEHI2.00000001
1000
-BVCCT0
1000
-GRP0MSF16-0
1000
-BAML2
1000
-BASK1
1000
-NT0
1000
-DOC
1005
D62
1000
-MYREF
1005
D46
1002
}
1001
GEVMK
1002
{
1000
-CO
1000
-MYREF
1005
D46
1002
}
1001
GEVID884348352
1002
{
1002
}
  0
INSERT
  5
D47
  8
MSF16-8
  2
*X47
 10
278.47419627724952
 20
207.6591204192101
 30
0.0
1001
GENIUS_GENODEF_13
1002
{
1000
HIER
1070
     0
1002
}
1002
{
1000
MANEDIT
1070
     0
1002
}
1002
{
1000
NOSEL
1070
     0
1002
}
1002
{
1000
BEHIND
1070
     0
1002
}
1002
{
1000
REACTOR
1002
}
1001
GENIUS_GENOBJ-N-HTC_13
1002
{
1000
OWNER
1000
GEN
1002
}
1001
GENIUS_GENHATCH_13
1002
{
1000
DATA
1040
45.0
1042
2.5
1000
_U
1070
     0
1011
271.78199902195109
1021
0.0
1031
0.0
1021
288.48375307198052
1031
0.0
1002
}
1002
{
1000
UCS
1010
0.0
1020
0.0
1030
0.0
1010
1.0
1020
0.0
1030
0.0
1010
0.0
1020
1.0
1030
0.0
1002
}
1001
ACAD
1000
HATCH
1002
{
1070
    19
1000
_U
1040
2.5
1040
0.7853981633974483
1070
     0
1002
}
  0
LINE
  5
D48
  8
MSF16-4A
 10
273.72419627724952
 20
296.62331688797349
 30
0.0
 11
278.47419627724952
 21
296.62331688797349
 31
0.0
  0
LINE
  5
D49
  8
MSF16-4A
 10
274.36019627725182
 20
288.6233168879736
 30
0.0
 11
273.61019627725182
 21
289.37331688797349
 31
0.0
  0
LINE
  5
D4A
  8
MSF16-4A
 10
273.61019627725182
 20
289.37331688797349
 30
0.0
 11
278.47419627724952
 21
289.37331688797349
 31
0.0
  0
LINE
  5
D4B
  8
MSF16-4A
 10
273.61019627725318
 20
292.623316887979
 30
0.0
 11
273.61019627724812
 21
296.62331688797548
 31
0.0
  0
LINE
  5
D4C
  8
MSF16-4A
 10
273.61019627724812
 20
296.62331688797548
 30
0.0
 11
273.72419627724952
 21
296.623316887979
 31
0.0
  0
LINE
  5
D4D
  8
MSF16-4A
 10
278.47419627724952
 20
288.62331688797349
 30
0.0
 11
282.58819627724728
 21
288.6233168879736
 31
0.0
  0
LINE
  5
D4E
  8
MSF16-4A
 10
283.33819627724728
 20
289.37331688797349
 30
0.0
 11
278.47419627724952
 21
289.37331688797349
 31
0.0
  0
LINE
  5
D4F
  8
MSF16-4A
 10
278.47419627724952
 20
288.62331688797349
 30
0.0
 11
274.36019627725182
 21
288.6233168879736
 31
0.0
  0
LINE
  5
D50
  8
MSF16-4A
 10
282.58819627724728
 20
288.6233168879736
 30
0.0
 11
283.33819627724728
 21
289.37331688797349
 31
0.0
  0
LINE
  5
D51
  8
MSF16-4A
 10
283.22419627724952
 20
296.62331688797349
 30
0.0
 11
278.47419627724952
 21
296.62331688797349
 31
0.0
  0
LINE
  5
D52
  8
MSF16-4A
 10
274.19097127725308
 20
292.623316887979
 30
0.0
 11
274.19097127725308
 21
296.62331688797349
 31
0.0
  0
LINE
  5
D53
  8
MSF16-4A
 10
283.33819627724591
 20
292.623316887979
 30
0.0
 11
283.33819627725092
 21
296.62331688797548
 31
0.0
  0
LINE
  5
D54
  8
MSF16-4A
 10
282.7574212772459
 20
292.623316887979
 30
0.0
 11
282.7574212772459
 21
296.62331688797349
 31
0.0
  0
LINE
  5
D55
  8
MSF16-4A
 10
283.33819627725092
 20
296.62331688797548
 30
0.0
 11
283.22419627724952
 21
296.623316887979
 31
0.0
  0
LINE
  5
D56
  8
MSF16-4A
 10
283.22419627724952
 20
309.62331688797542
 30
0.0
 11
283.22419627724952
 21
307.62331688797349
 31
0.0
  0
LINE
  5
D57
  8
MSF16-4A
 10
273.72419627724952
 20
309.62331688797542
 30
0.0
 11
273.72419627724952
 21
307.62331688797349
 31
0.0
  0
LINE
  5
D58
  8
MSF16-4A
 10
273.72419627724952
 20
307.62331688797349
 30
0.0
 11
283.22419627724952
 21
307.62331688797349
 31
0.0
  0
LINE
  5
D59
  8
MSF16-4A
 10
283.22419627724952
 20
306.62331688797542
 30
0.0
 11
273.72419627724952
 21
306.62331688797542
 31
0.0
  0
LINE
  5
D5A
  8
MSF16-4A
 10
274.72419627724952
 20
307.62331688797542
 30
0.0
 11
274.72419627724588
 21
306.62331688797349
 31
0.0
  0
LINE
  5
D5B
  8
MSF16-4A
 10
282.22419627724958
 20
307.62331688797542
 30
0.0
 11
282.22419627725321
 21
306.62331688797349
 31
0.0
  0
LINE
  5
D5C
  8
MSF16-4A
 10
278.47419627724952
 20
309.62331688797349
 30
0.0
 11
273.72419627724952
 21
309.62331688797542
 31
0.0
  0
LINE
  5
D5D
  8
MSF16-4A
 10
278.47419627724952
 20
309.62331688797349
 30
0.0
 11
283.22419627724952
 21
309.62331688797542
 31
0.0
  0
POINT
  5
D5E
  8
0
 10
141.0865876650349
 20
322.86633333241838
 30
0.0
1001
GENIUS_GENODEF_13
1002
{
1000
HIER
1070
   200
1002
}
1002
{
1000
MANEDIT
1070
     0
1002
}
1002
{
1000
NOSEL
1070
     0
1002
}
1002
{
1000
BEHIND
1070
     0
1002
}
1002
{
1000
REACTOR
1002
}
1001
GENIUS_GENOBJ-F-PART_13
1002
{
1000
OWNER
1000
GEF
1002
}
1001
GENIUS_GEFSTDP_13
1002
{
1000
DSC
1000
DSC
1002
{
1000
~DESCR
1000
 
1000
~STDRT
1000
(gefmsg "gefcall" 409)
1000
~LOTI
1002
}
1002
}
1002
{
1000
SUG
1000
G
1000
1/8
1002
}
1002
{
1000
KEY
1000
THPF
1002
}
1002
{
1000
INS
1002
{
1040
-0.000000000003638
1040
84.964196468764797
1040
0.0
1002
}
1002
}
1002
{
1000
ANG
1040
4.7123889803846888
1002
}
1002
{
1000
VCC
1002
{
1000
-LPLOTI=8.000000000000000E+00
1000
$PRE=G
1000
$NM1=1/8
1000
-GRPNAME0MSF16-0
1000
-RBDESCR
1000
-RBSTDRT
1000
-RBLOTI
1000
-RBGD1
1000
-V$PV_GENSYSTEM"gef\val\di\0405\di1627_v.dxf"
1000
$VCC_TABLE=$PV_GENSYSTEM"gef\val\di\0405\di1627.val"
1000
$GEF_CDIST=3.000000000000000E+00
1000
$GEF_DRAG=1
1000
$GEF_STANG=2.100000000000000E+02
1000
$GEF_OANG=7.000000000000000E+01
1000
$GEVPROMPTX= Länge: 
1000
$GEF_SNK_ADD=0.000000000000000E+00
1000
$GEF_FLIPX=1
1000
$GEF_FLIPY=1
1000
-GRPNAME1?
1000
-BAML2
1000
$GEF_PROCALC=1
1002
}
1002
}
1002
{
1000
LST
1002
{
1002
{
1000
GROUP
1000
0405
1002
}
1002
{
1000
VIEW
1000
V
1002
}
1002
{
1000
SFILE
1000
$PV_GENSYSTEM"gef\val\di\0405\di1627_v.dxf"
1002
}
1002
{
1000
ST1
1000
$PV_GENSYSTEM"gef\val\di\0405\di1627.val"
1002
}
1002
{
1000
GENASSO
1000
 
1002
}
1002
}
1002
}
1002
{
1000
RET
1002
{
1002
{
1000
GD1
1000
8.56645
1002
}
1002
{
1000
LOTI
1000
8.000000000000000E+00
1002
}
1002
{
1000
STDRT
1000
ISO 228 - G 1/8
1002
}
1002
{
1000
DESCR
1000
Rohrgewinde
1002
}
1002
}
1002
}
1002
{
1000
SYSTEM
1040
1.0
1002
}
1002
{
1000
INFEL
1002
{
1002
}
1002
}
1001
GENIUS_GENOENT_13
1002
{
1000
MYREF
1005
D5E
1002
}
1002
{
1000
GRP
1005
0
1002
}
1001
GENIUS_GENOLIS_13
1002
{
1000
ENT
1005
D46
1002
}
  0
POINT
  5
D5F
  8
0
 10
141.0865876650349
 20
322.86633333241838
 30
0.0
1001
GENIUS_GENBH_13
1002
{
1000
BGO
1005
D60
1002
}
1002
{
1000
FGLEVEL
1040
2.0000000099999991
1002
}
1002
{
1000
FLAGS
1070
    36
1002
}
1002
{
1000
OIUMAP
1000
OIU
1002
}
1002
{
1000
MODIFY
1070
     0
1002
}
1001
GENIUS_GENODEF_13
1002
{
1000
HIER
1070
     1
1002
}
1002
{
1000
MANEDIT
1070
     0
1002
}
1002
{
1000
NOSEL
1070
     1
1002
}
1002
{
1000
BEHIND
1070
     0
1002
}
1002
{
1000
REACTOR
1002
}
1001
GENIUS_GENOBJ-NBEHI-BHF_13
1002
{
1000
OWNER
1000
GENBEHI
1002
}
1001
GENIUS_GENOENT_13
1002
{
1000
MYREF
1005
D5F
1002
}
1002
{
1000
GRP
1005
0
1002
}
1001
GENIUS_GENOLIS_13
1002
{
1000
ENT
1005
D46
1002
}
  0
POINT
  5
D60
  8
0
 10
141.0865876650349
 20
322.86633333241838
 30
0.0
1001
GENIUS_GENBH_13
1002
{
1000
FGO
1005
D5F
1002
}
1001
GENIUS_GENODEF_13
1002
{
1000
HIER
1070
     1
1002
}
1002
{
1000
MANEDIT
1070
     0
1002
}
1002
{
1000
NOSEL
1070
     1
1002
}
1002
{
1000
BEHIND
1070
     0
1002
}
1002
{
1000
REACTOR
1002
}
1001
GENIUS_GENOBJ-NBEHI-BHB_13
1002
{
1000
OWNER
1000
GENBEHI
1002
}
1001
GENIUS_GENOENT_13
1002
{
1000
MYREF
1005
D60
1002
}
1002
{
1000
GRP
1005
0
1002
}
1001
GENIUS_GENOLIS_13
1002
{
1000
ENT
1005
C74
1005
C83
1002
}
  0
LINE
  5
D8E
  8
MSF16-0
 10
266.47419627724952
 20
256.62331688797332
 30
0.0
 11
266.47419627724952
 21
292.62331688797337
 31
0.0
1001
GENIUS_GENOREF_13
1005
D93
  0
LINE
  5
D90
  8
MSF16-0
 10
290.47419627724952
 20
211.62331688797329
 30
0.0
 11
290.47419627724952
 21
209.6233168879734
 31
0.0
1001
GENIUS_GENOREF_13
1005
D93
  0
LINE
  5
D91
  8
MSF16-3
 10
290.47419627724952
 20
251.62331688797329
 30
0.0
 11
290.47419627724952
 21
239.62331688797349
 31
0.0
1001
GENIUS_GENBH_13
1002
{
1000
OE
1000
CON1
1002
}
1001
GENIUS_GENOREF_13
1005
D93
  0
POINT
  5
D93
  8
0
 10
0.0
 20
0.0
 30
0.0
1001
GENIUS_GENBH_13
1002
{
1000
FGO
1005
D92
1002
}
1001
GENIUS_GENODEF_13
1002
{
1000
HIER
1070
     1
1002
}
1002
{
1000
MANEDIT
1070
     1
1002
}
1002
{
1000
NOSEL
1070
     1
1002
}
1002
{
1000
BEHIND
1070
     0
1002
}
1002
{
1000
REACTOR
1002
}
1001
GENIUS_GENOBJ-NBEHI-BHB_13
1002
{
1000
OWNER
1000
GENBEHI
1002
}
1001
GENIUS_GENOENT_13
1002
{
1000
MYREF
1005
D93
1002
}
1002
{
1000
GRP
1005
0
1002
}
1001
GENIUS_GENOLIS_13
1002
{
1000
ENT
1005
D91
1005
D90
1005
D8E
1005
C77
1005
C80
1005
C81
1005
C7B
1005
C7F
1005
C7E
1005
C78
1002
}
  0
POLYLINE
  5
DB9
  8
MSL_F16_40-0
 66
     1
 10
0.0
 20
0.0
 30
0.0
1001
GENIUS_GENODEF_13
1002
{
1000
HIER
1070
     0
1002
}
1002
{
1000
MANEDIT
1070
     0
1002
}
1002
{
1000
NOSEL
1070
     0
1002
}
1002
{
1000
BEHIND
1070
     0
1002
}
1002
{
1000
REACTOR
1002
}
1001
GENIUS_GENOBJ-N-REC_13
1002
{
1000
OWNER
1000
GEN
1002
}
1001
GENIUS_GENREC_13
1070
     4
1070
     2
1070
     4
1001
GENIUS_GENOREF_13
1005
E39
  0
VERTEX
  5
DBA
  8
MSL_F16_40-0
 10
492.74719131877578
 20
206.62331857086329
 30
0.0
  0
VERTEX
  5
DBB
  8
MSL_F16_40-0
 10
538.83406580598751
 20
206.62331857086329
 30
0.0
  0
SEQEND
  5
DBC
  8
MSL_F16_40-0
  0
POLYLINE
  5
DC8
  8
MSL_F16_40-0
 66
     1
 10
0.0
 20
0.0
 30
0.0
1001
GENIUS_GENODEF_13
1002
{
1000
HIER
1070
     0
1002
}
1002
{
1000
MANEDIT
1070
     0
1002
}
1002
{
1000
NOSEL
1070
     0
1002
}
1002
{
1000
BEHIND
1070
     0
1002
}
1002
{
1000
REACTOR
1002
}
1001
GENIUS_GENOBJ-N-REC_13
1002
{
1000
OWNER
1000
GEN
1002
}
1001
GENIUS_GENREC_13
1070
     4
1070
     2
1070
     4
1001
GENIUS_GENOREF_13
1005
E39
  0
VERTEX
  5
DC9
  8
MSL_F16_40-0
 10
490.79062856238158
 20
254.66675581446921
 30
0.0
  0
VERTEX
  5
DCA
  8
MSL_F16_40-0
 10
490.79062856238158
 20
208.57988132725751
 30
0.0
  0
SEQEND
  5
DCB
  8
MSL_F16_40-0
  0
POLYLINE
  5
DCC
  8
MSL_F16_40-0
 66
     1
 10
0.0
 20
0.0
 30
0.0
1001
GENIUS_GENODEF_13
1002
{
1000
HIER
1070
     0
1002
}
1002
{
1000
MANEDIT
1070
     0
1002
}
1002
{
1000
NOSEL
1070
     0
1002
}
1002
{
1000
BEHIND
1070
     0
1002
}
1002
{
1000
REACTOR
1002
}
1001
GENIUS_GENOBJ-N-REC_13
1002
{
1000
OWNER
1000
GEN
1002
}
1001
GENIUS_GENREC_13
1070
     4
1070
     2
1070
     4
1001
GENIUS_GENOREF_13
1005
E39
  0
VERTEX
  5
DCD
  8
MSL_F16_40-0
 10
540.79062856238158
 20
208.57988132725751
 30
0.0
  0
VERTEX
  5
DCE
  8
MSL_F16_40-0
 10
540.79062856238158
 20
254.66675581446921
 30
0.0
  0
SEQEND
  5
DCF
  8
MSL_F16_40-0
  0
POLYLINE
  5
DD0
  8
MSL_F16_40-0
 66
     1
 10
0.0
 20
0.0
 30
0.0
1001
GENIUS_GENODEF_13
1002
{
1000
HIER
1070
     0
1002
}
1002
{
1000
MANEDIT
1070
     0
1002
}
1002
{
1000
NOSEL
1070
     0
1002
}
1002
{
1000
BEHIND
1070
     0
1002
}
1002
{
1000
REACTOR
1002
}
1001
GENIUS_GENOBJ-N-REC_13
1002
{
1000
OWNER
1000
GEN
1002
}
1001
GENIUS_GENREC_13
1070
     4
1070
     2
1070
     4
1001
GENIUS_GENOREF_13
1005
E39
  0
VERTEX
  5
DD1
  8
MSL_F16_40-0
 10
538.83406580598751
 20
256.62331857086332
 30
0.0
  0
VERTEX
  5
DD2
  8
MSL_F16_40-0
 10
492.74719131877578
 20
256.62331857086332
 30
0.0
  0
SEQEND
  5
DD3
  8
MSL_F16_40-0
  0
ARC
  5
DD7
  8
MSL_F16_40-0
 10
515.79062856265216
 20
231.62331857060391
 30
0.0
 40
34.000000000374691
 50
132.667929678528
 51
137.33207450587889
1001
GENIUS_GENOREF_13
1005
E39
  0
ARC
  5
DD8
  8
MSL_F16_40-0
 10
515.79062856264113
 20
231.62331857113381
 30
0.0
 40
34.000000000374691
 50
222.667929678528
 51
227.33207450587889
1001
GENIUS_GENOREF_13
1005
E39
  0
ARC
  5
DD9
  8
MSL_F16_40-0
 10
515.79062856211124
 20
231.62331857112281
 30
0.0
 40
34.000000000374691
 50
312.66792967852803
 51
317.33207450587901
1001
GENIUS_GENOREF_13
1005
E39
  0
ARC
  5
DDA
  8
MSL_F16_40-0
 10
515.79062856212215
 20
231.62331857059289
 30
0.0
 40
34.000000000374691
 50
42.667929678528033
 51
47.332074505879
1001
GENIUS_GENOREF_13
1005
E39
  0
INSERT
  5
DEC
  8
MSL_F16_40-0
  2
*U54
 10
496.7906285623817
 20
250.6233185708588
 30
0.0
1001
GENIUS_GEFPARTINS_13
1002
{
1011
496.7906285623817
1021
0.0
1031
0.0
1021
250.6233185708588
1031
0.0
1013
1.0
1023
0.0
1033
0.0
1023
0.0
1033
0.0
1002
}
1001
VCC
1002
{
1000
-ID14
1000
-IE5
1000
-IK14
1000
-V$PV_GENSYSTEM"GEF\VAL\DI\0401\DI1616_D.DXF"
1002
}
1001
GEVIT
1002
{
1000
-BEHI5.00000001
1000
-BVCCT0
1000
-GRP0?
1000
-BAML2
1000
-BASK1
1000
-NT0
1000
-DOC
1005
DDE
1000
-MYREF
1005
DEC
1002
}
1001
GEVPT
1002
{
1000
-V$PV_GENSYSTEM"GEF\VAL\DI\0401\DI1616_D.DXF"
1000
-GPGEF_PROCALC=1
1000
-GPGEF_FLIPY=1
1000
-GPGEF_FLIPX=1
1000
-GPGEF_SNK_ADD=0
1000
-GPGEVPROMPTX=Länge:
1000
-GPGEF_OANG=70
1000
-GPGEF_STANG=210
1000
-GPGEF_DRAG=1
1000
-GPGEF_CDIST=3
1000
-GPVCC_TABLE=C:\GENIUS\gef\val\di\0401\di1616.val
1000
-GPNND=6
1000
-GPPRE=M
1002
}
1001
GEVID884349214
1002
{
1002
}
1001
GENIUS_GENOREF_13
1005
DED
1005
DEF
  0
POINT
  5
DED
  8
0
 10
0.0
 20
0.0
 30
0.0
1001
GENIUS_GENBH_13
1002
{
1000
BGO
1005
DEE
1002
}
1002
{
1000
FGLEVEL
1040
5.0000000099999991
1002
}
1002
{
1000
FLAGS
1070
    36
1002
}
1002
{
1000
OIUMAP
1000
OIU
1002
}
1002
{
1000
MODIFY
1070
     0
1002
}
1001
GENIUS_GENODEF_13
1002
{
1000
HIER
1070
     1
1002
}
1002
{
1000
MANEDIT
1070
     0
1002
}
1002
{
1000
NOSEL
1070
     1
1002
}
1002
{
1000
BEHIND
1070
     0
1002
}
1002
{
1000
REACTOR
1002
}
1001
GENIUS_GENOBJ-NBEHI-BHF_13
1002
{
1000
OWNER
1000
GENBEHI
1002
}
1001
GENIUS_GENOENT_13
1002
{
1000
MYREF
1005
DED
1002
}
1002
{
1000
GRP
1005
0
1002
}
1001
GENIUS_GENOLIS_13
1002
{
1000
ENT
1005
DEC
1002
}
  0
POINT
  5
DEE
  8
0
 10
0.0
 20
0.0
 30
0.0
1001
GENIUS_GENBH_13
1002
{
1000
FGO
1005
DED
1002
}
1001
GENIUS_GENODEF_13
1002
{
1000
HIER
1070
     1
1002
}
1002
{
1000
MANEDIT
1070
     0
1002
}
1002
{
1000
NOSEL
1070
     1
1002
}
1002
{
1000
BEHIND
1070
     0
1002
}
1002
{
1000
REACTOR
1002
}
1001
GENIUS_GENOBJ-NBEHI-BHB_13
1002
{
1000
OWNER
1000
GENBEHI
1002
}
1001
GENIUS_GENOENT_13
1002
{
1000
MYREF
1005
DEE
1002
}
1002
{
1000
GRP
1005
0
1002
}
1001
GENIUS_GENOLIS_13
1002
{
1000
ENT
1005
D9A
1005
D9C
1002
}
  0
POINT
  5
DEF
  8
0
 10
0.0
 20
0.0
 30
0.0
1001
GENIUS_GENODEF_13
1002
{
1000
HIER
1070
   200
1002
}
1002
{
1000
MANEDIT
1070
     0
1002
}
1002
{
1000
NOSEL
1070
     0
1002
}
1002
{
1000
BEHIND
1070
     0
1002
}
1002
{
1000
REACTOR
1002
}
1001
GENIUS_GENOBJ-F-PART_13
1002
{
1000
OWNER
1000
GEF
1002
}
1001
GENIUS_GEFSTDP_13
1002
{
1000
DSC
1000
DSC
1002
{
1000
~DESCR
1000
 
1000
~STDRT
1002
}
1002
}
1002
{
1000
SUG
1000
M
1040
6.0
1002
}
1002
{
1000
KEY
1000
THRT
1002
}
1002
{
1000
INS
1002
{
1040
496.7906285623817
1040
250.6233185708588
1040
0.0
1002
}
1002
}
1002
{
1000
ANG
1040
0.0
1002
}
1002
{
1000
VCC
1002
{
1000
$PRE=M
1000
$NND=6.000000000000000E+00
1000
-RBDESCR
1000
-RBSTDRT
1000
-RBGD1
1000
-RBLOTI
1000
-V$PV_GENSYSTEM"gef\val\di\0401\di1616_d.dxf"
1000
$VCC_TABLE=$PV_GENSYSTEM"gef\val\di\0401\di1616.val"
1000
$GEF_CDIST=3.000000000000000E+00
1000
$GEF_DRAG=1
1000
$GEF_STANG=2.100000000000000E+02
1000
$GEF_OANG=7.000000000000000E+01
1000
$GEVPROMPTX= Länge: 
1000
$GEF_SNK_ADD=0.000000000000000E+00
1000
$GEF_FLIPX=1
1000
$GEF_FLIPY=1
1000
-GRPNAME0?
1000
-GRPNAME1?
1000
-BAML2
1000
$GEF_PROCALC=1
1002
}
1002
}
1002
{
1000
LST
1002
{
1002
{
1000
GROUP
1000
0401
1002
}
1002
{
1000
VIEW
1000
D
1002
}
1002
{
1000
SFILE
1000
$PV_GENSYSTEM"gef\val\di\0401\di1616_d.dxf"
1002
}
1002
{
1000
ST1
1000
$PV_GENSYSTEM"gef\val\di\0401\di1616.val"
1002
}
1002
{
1000
GENASSO
1000
 
1002
}
1002
}
1002
}
1002
{
1000
RET
1002
{
1002
{
1000
LOTI
1002
}
1002
{
1000
GD1
1000
4.917
1002
}
1002
{
1000
STDRT
1000
DIN 13 - M6
1002
}
1002
{
1000
DESCR
1000
Metrisches ISO-Gewinde
1002
}
1002
}
1002
}
1002
{
1000
SYSTEM
1040
1.0
1002
}
1002
{
1000
INFEL
1002
{
1002
}
1002
}
1001
GENIUS_GENOENT_13
1002
{
1000
MYREF
1005
DEF
1002
}
1002
{
1000
GRP
1005
0
1002
}
1001
GENIUS_GENOLIS_13
1002
{
1000
ENT
1005
DEC
1002
}
  0
INSERT
  5
E01
  8
MSL_F16_40-0
  2
*U56
 10
534.7906285623817
 20
250.62331857086241
 30
0.0
1001
GENIUS_GEFPARTINS_13
1002
{
1011
534.7906285623817
1021
0.0
1031
0.0
1021
250.62331857086241
1031
0.0
1013
1.0
1023
0.0
1033
0.0
1023
0.0
1033
0.0
1002
}
1001
VCC
1002
{
1000
-ID15
1000
-IE6
1000
-IK15
1000
-V$PV_GENSYSTEM"GEF\VAL\DI\0401\DI1616_D.DXF"
1002
}
1001
GEVIT
1002
{
1000
-BEHI6.00000001
1000
-BVCCT0
1000
-GRP0?
1000
-BAML2
1000
-BASK1
1000
-NT0
1000
-DOC
1005
DF3
1000
-MYREF
1005
E01
1002
}
1001
GEVPT
1002
{
1000
-V$PV_GENSYSTEM"GEF\VAL\DI\0401\DI1616_D.DXF"
1000
-GPGEF_PROCALC=1
1000
-GPGEF_FLIPY=1
1000
-GPGEF_FLIPX=1
1000
-GPGEF_SNK_ADD=0
1000
-GPGEVPROMPTX=Länge:
1000
-GPGEF_OANG=70
1000
-GPGEF_STANG=210
1000
-GPGEF_DRAG=1
1000
-GPGEF_CDIST=3
1000
-GPVCC_TABLE=C:\GENIUS\gef\val\di\0401\di1616.val
1000
-GPNND=6
1000
-GPPRE=M
1002
}
1001
GEVID884349215
1002
{
1002
}
1001
GENIUS_GENOREF_13
1005
E02
1005
E04
  0
POINT
  5
E02
  8
0
 10
0.0
 20
0.0
 30
0.0
1001
GENIUS_GENBH_13
1002
{
1000
BGO
1005
E03
1002
}
1002
{
1000
FGLEVEL
1040
6.0000000099999991
1002
}
1002
{
1000
FLAGS
1070
    36
1002
}
1002
{
1000
OIUMAP
1000
OIU
1002
}
1002
{
1000
MODIFY
1070
     0
1002
}
1001
GENIUS_GENODEF_13
1002
{
1000
HIER
1070
     1
1002
}
1002
{
1000
MANEDIT
1070
     0
1002
}
1002
{
1000
NOSEL
1070
     1
1002
}
1002
{
1000
BEHIND
1070
     0
1002
}
1002
{
1000
REACTOR
1002
}
1001
GENIUS_GENOBJ-NBEHI-BHF_13
1002
{
1000
OWNER
1000
GENBEHI
1002
}
1001
GENIUS_GENOENT_13
1002
{
1000
MYREF
1005
E02
1002
}
1002
{
1000
GRP
1005
0
1002
}
1001
GENIUS_GENOLIS_13
1002
{
1000
ENT
1005
E01
1002
}
  0
POINT
  5
E03
  8
0
 10
0.0
 20
0.0
 30
0.0
1001
GENIUS_GENBH_13
1002
{
1000
FGO
1005
E02
1002
}
1001
GENIUS_GENODEF_13
1002
{
1000
HIER
1070
     1
1002
}
1002
{
1000
MANEDIT
1070
     0
1002
}
1002
{
1000
NOSEL
1070
     1
1002
}
1002
{
1000
BEHIND
1070
     0
1002
}
1002
{
1000
REACTOR
1002
}
1001
GENIUS_GENOBJ-NBEHI-BHB_13
1002
{
1000
OWNER
1000
GENBEHI
1002
}
1001
GENIUS_GENOENT_13
1002
{
1000
MYREF
1005
E03
1002
}
1002
{
1000
GRP
1005
0
1002
}
1001
GENIUS_GENOLIS_13
1002
{
1000
ENT
1005
D9D
1005
D9C
1002
}
  0
POINT
  5
E04
  8
0
 10
0.0
 20
0.0
 30
0.0
1001
GENIUS_GENODEF_13
1002
{
1000
HIER
1070
   200
1002
}
1002
{
1000
MANEDIT
1070
     0
1002
}
1002
{
1000
NOSEL
1070
     0
1002
}
1002
{
1000
BEHIND
1070
     0
1002
}
1002
{
1000
REACTOR
1002
}
1001
GENIUS_GENOBJ-F-PART_13
1002
{
1000
OWNER
1000
GEF
1002
}
1001
GENIUS_GEFSTDP_13
1002
{
1000
SUG
1000
M
1040
6.0
1002
}
1002
{
1000
DSC
1000
DSC
1002
{
1000
~DESCR
1000
 
1000
~STDRT
1002
}
1002
}
1002
{
1000
KEY
1000
THRT
1002
}
1002
{
1000
INS
1002
{
1040
534.7906285623817
1040
250.62331857086241
1040
0.0
1002
}
1002
}
1002
{
1000
ANG
1040
0.0
1002
}
1002
{
1000
VCC
1002
{
1000
$PRE=M
1000
$NND=6.000000000000000E+00
1000
-RBDESCR
1000
-RBSTDRT
1000
-RBGD1
1000
-RBLOTI
1000
-V$PV_GENSYSTEM"gef\val\di\0401\di1616_d.dxf"
1000
$VCC_TABLE=$PV_GENSYSTEM"gef\val\di\0401\di1616.val"
1000
$GEF_CDIST=3.000000000000000E+00
1000
$GEF_DRAG=1
1000
$GEF_STANG=2.100000000000000E+02
1000
$GEF_OANG=7.000000000000000E+01
1000
$GEVPROMPTX= Länge: 
1000
$GEF_SNK_ADD=0.000000000000000E+00
1000
$GEF_FLIPX=1
1000
$GEF_FLIPY=1
1000
-GRPNAME0?
1000
-GRPNAME1?
1000
-BAML2
1000
$GEF_PROCALC=1
1002
}
1002
}
1002
{
1000
LST
1002
{
1002
{
1000
GROUP
1000
0401
1002
}
1002
{
1000
VIEW
1000
D
1002
}
1002
{
1000
SFILE
1000
$PV_GENSYSTEM"gef\val\di\0401\di1616_d.dxf"
1002
}
1002
{
1000
ST1
1000
$PV_GENSYSTEM"gef\val\di\0401\di1616.val"
1002
}
1002
{
1000
GENASSO
1000
 
1002
}
1002
}
1002
}
1002
{
1000
RET
1002
{
1002
{
1000
LOTI
1002
}
1002
{
1000
GD1
1000
4.917
1002
}
1002
{
1000
STDRT
1000
DIN 13 - M6
1002
}
1002
{
1000
DESCR
1000
Metrisches ISO-Gewinde
1002
}
1002
}
1002
}
1002
{
1000
SYSTEM
1040
1.0
1002
}
1002
{
1000
INFEL
1002
{
1002
}
1002
}
1001
GENIUS_GENOENT_13
1002
{
1000
MYREF
1005
E04
1002
}
1002
{
1000
GRP
1005
0
1002
}
1001
GENIUS_GENOLIS_13
1002
{
1000
ENT
1005
E01
1002
}
  0
INSERT
  5
E16
  8
MSL_F16_40-0
  2
*U58
 10
534.79062856237931
 20
212.62331857086329
 30
0.0
1001
GENIUS_GEFPARTINS_13
1002
{
1011
534.79062856237931
1021
0.0
1031
0.0
1021
212.62331857086329
1031
0.0
1013
1.0
1023
0.0
1033
0.0
1023
0.0
1033
0.0
1002
}
1001
VCC
1002
{
1000
-ID16
1000
-IE7
1000
-IK16
1000
-V$PV_GENSYSTEM"GEF\VAL\DI\0401\DI1616_D.DXF"
1002
}
1001
GEVIT
1002
{
1000
-BEHI7.00000001
1000
-BVCCT0
1000
-GRP0?
1000
-BAML2
1000
-BASK1
1000
-NT0
1000
-DOC
1005
E08
1000
-MYREF
1005
E16
1002
}
1001
GEVPT
1002
{
1000
-V$PV_GENSYSTEM"GEF\VAL\DI\0401\DI1616_D.DXF"
1000
-GPGEF_PROCALC=1
1000
-GPGEF_FLIPY=1
1000
-GPGEF_FLIPX=1
1000
-GPGEF_SNK_ADD=0
1000
-GPGEVPROMPTX=Länge:
1000
-GPGEF_OANG=70
1000
-GPGEF_STANG=210
1000
-GPGEF_DRAG=1
1000
-GPGEF_CDIST=3
1000
-GPVCC_TABLE=C:\GENIUS\gef\val\di\0401\di1616.val
1000
-GPNND=6
1000
-GPPRE=M
1002
}
1001
GEVID884349216
1002
{
1002
}
1001
GENIUS_GENOREF_13
1005
E17
1005
E19
  0
POINT
  5
E17
  8
0
 10
0.0
 20
0.0
 30
0.0
1001
GENIUS_GENBH_13
1002
{
1000
BGO
1005
E18
1002
}
1002
{
1000
FGLEVEL
1040
7.0000000099999991
1002
}
1002
{
1000
FLAGS
1070
    36
1002
}
1002
{
1000
OIUMAP
1000
OIU
1002
}
1002
{
1000
MODIFY
1070
     0
1002
}
1001
GENIUS_GENODEF_13
1002
{
1000
HIER
1070
     1
1002
}
1002
{
1000
MANEDIT
1070
     0
1002
}
1002
{
1000
NOSEL
1070
     1
1002
}
1002
{
1000
BEHIND
1070
     0
1002
}
1002
{
1000
REACTOR
1002
}
1001
GENIUS_GENOBJ-NBEHI-BHF_13
1002
{
1000
OWNER
1000
GENBEHI
1002
}
1001
GENIUS_GENOENT_13
1002
{
1000
MYREF
1005
E17
1002
}
1002
{
1000
GRP
1005
0
1002
}
1001
GENIUS_GENOLIS_13
1002
{
1000
ENT
1005
E16
1002
}
  0
POINT
  5
E18
  8
0
 10
0.0
 20
0.0
 30
0.0
1001
GENIUS_GENBH_13
1002
{
1000
FGO
1005
E17
1002
}
1001
GENIUS_GENODEF_13
1002
{
1000
HIER
1070
     1
1002
}
1002
{
1000
MANEDIT
1070
     0
1002
}
1002
{
1000
NOSEL
1070
     1
1002
}
1002
{
1000
BEHIND
1070
     0
1002
}
1002
{
1000
REACTOR
1002
}
1001
GENIUS_GENOBJ-NBEHI-BHB_13
1002
{
1000
OWNER
1000
GENBEHI
1002
}
1001
GENIUS_GENOENT_13
1002
{
1000
MYREF
1005
E18
1002
}
1002
{
1000
GRP
1005
0
1002
}
1001
GENIUS_GENOLIS_13
1002
{
1000
ENT
1005
D99
1005
D9D
1002
}
  0
POINT
  5
E19
  8
0
 10
0.0
 20
0.0
 30
0.0
1001
GENIUS_GENODEF_13
1002
{
1000
HIER
1070
   200
1002
}
1002
{
1000
MANEDIT
1070
     0
1002
}
1002
{
1000
NOSEL
1070
     0
1002
}
1002
{
1000
BEHIND
1070
     0
1002
}
1002
{
1000
REACTOR
1002
}
1001
GENIUS_GENOBJ-F-PART_13
1002
{
1000
OWNER
1000
GEF
1002
}
1001
GENIUS_GEFSTDP_13
1002
{
1000
SUG
1000
M
1040
6.0
1002
}
1002
{
1000
DSC
1000
DSC
1002
{
1000
~DESCR
1000
 
1000
~STDRT
1002
}
1002
}
1002
{
1000
KEY
1000
THRT
1002
}
1002
{
1000
INS
1002
{
1040
534.79062856237931
1040
212.62331857086329
1040
0.0
1002
}
1002
}
1002
{
1000
ANG
1040
0.0
1002
}
1002
{
1000
VCC
1002
{
1000
$PRE=M
1000
$NND=6.000000000000000E+00
1000
-RBDESCR
1000
-RBSTDRT
1000
-RBGD1
1000
-RBLOTI
1000
-V$PV_GENSYSTEM"gef\val\di\0401\di1616_d.dxf"
1000
$VCC_TABLE=$PV_GENSYSTEM"gef\val\di\0401\di1616.val"
1000
$GEF_CDIST=3.000000000000000E+00
1000
$GEF_DRAG=1
1000
$GEF_STANG=2.100000000000000E+02
1000
$GEF_OANG=7.000000000000000E+01
1000
$GEVPROMPTX= Länge: 
1000
$GEF_SNK_ADD=0.000000000000000E+00
1000
$GEF_FLIPX=1
1000
$GEF_FLIPY=1
1000
-GRPNAME0?
1000
-GRPNAME1?
1000
-BAML2
1000
$GEF_PROCALC=1
1002
}
1002
}
1002
{
1000
LST
1002
{
1002
{
1000
GROUP
1000
0401
1002
}
1002
{
1000
VIEW
1000
D
1002
}
1002
{
1000
SFILE
1000
$PV_GENSYSTEM"gef\val\di\0401\di1616_d.dxf"
1002
}
1002
{
1000
ST1
1000
$PV_GENSYSTEM"gef\val\di\0401\di1616.val"
1002
}
1002
{
1000
GENASSO
1000
 
1002
}
1002
}
1002
}
1002
{
1000
RET
1002
{
1002
{
1000
LOTI
1002
}
1002
{
1000
GD1
1000
4.917
1002
}
1002
{
1000
STDRT
1000
DIN 13 - M6
1002
}
1002
{
1000
DESCR
1000
Metrisches ISO-Gewinde
1002
}
1002
}
1002
}
1002
{
1000
SYSTEM
1040
1.0
1002
}
1002
{
1000
INFEL
1002
{
1002
}
1002
}
1001
GENIUS_GENOENT_13
1002
{
1000
MYREF
1005
E19
1002
}
1002
{
1000
GRP
1005
0
1002
}
1001
GENIUS_GENOLIS_13
1002
{
1000
ENT
1005
E16
1002
}
  0
INSERT
  5
E2B
  8
MSL_F16_40-0
  2
*U60
 10
496.79062856238301
 20
212.62331857086329
 30
0.0
1001
GENIUS_GEFPARTINS_13
1002
{
1011
496.79062856238301
1021
0.0
1031
0.0
1021
212.62331857086329
1031
0.0
1013
1.0
1023
0.0
1033
0.0
1023
0.0
1033
0.0
1002
}
1001
VCC
1002
{
1000
-ID17
1000
-IE8
1000
-IK17
1000
-V$PV_GENSYSTEM"GEF\VAL\DI\0401\DI1616_D.DXF"
1002
}
1001
GEVIT
1002
{
1000
-BEHI8.00000001
1000
-BVCCT0
1000
-GRP0?
1000
-BAML2
1000
-BASK1
1000
-NT0
1000
-DOC
1005
E1D
1000
-MYREF
1005
E2B
1002
}
1001
GEVPT
1002
{
1000
-V$PV_GENSYSTEM"GEF\VAL\DI\0401\DI1616_D.DXF"
1000
-GPGEF_PROCALC=1
1000
-GPGEF_FLIPY=1
1000
-GPGEF_FLIPX=1
1000
-GPGEF_SNK_ADD=0
1000
-GPGEVPROMPTX=Länge:
1000
-GPGEF_OANG=70
1000
-GPGEF_STANG=210
1000
-GPGEF_DRAG=1
1000
-GPGEF_CDIST=3
1000
-GPVCC_TABLE=C:\GENIUS\gef\val\di\0401\di1616.val
1000
-GPNND=6
1000
-GPPRE=M
1002
}
1001
GEVID884349217
1002
{
1002
}
1001
GENIUS_GENOREF_13
1005
E2C
1005
E2E
  0
POINT
  5
E2C
  8
0
 10
0.0
 20
0.0
 30
0.0
1001
GENIUS_GENBH_13
1002
{
1000
BGO
1005
E2D
1002
}
1002
{
1000
FGLEVEL
1040
8.0000000100000008
1002
}
1002
{
1000
FLAGS
1070
    36
1002
}
1002
{
1000
OIUMAP
1000
OIU
1002
}
1002
{
1000
MODIFY
1070
     0
1002
}
1001
GENIUS_GENODEF_13
1002
{
1000
HIER
1070
     1
1002
}
1002
{
1000
MANEDIT
1070
     0
1002
}
1002
{
1000
NOSEL
1070
     1
1002
}
1002
{
1000
BEHIND
1070
     0
1002
}
1002
{
1000
REACTOR
1002
}
1001
GENIUS_GENOBJ-NBEHI-BHF_13
1002
{
1000
OWNER
1000
GENBEHI
1002
}
1001
GENIUS_GENOENT_13
1002
{
1000
MYREF
1005
E2C
1002
}
1002
{
1000
GRP
1005
0
1002
}
1001
GENIUS_GENOLIS_13
1002
{
1000
ENT
1005
E2B
1002
}
  0
POINT
  5
E2D
  8
0
 10
0.0
 20
0.0
 30
0.0
1001
GENIUS_GENBH_13
1002
{
1000
FGO
1005
E2C
1002
}
1001
GENIUS_GENODEF_13
1002
{
1000
HIER
1070
     1
1002
}
1002
{
1000
MANEDIT
1070
     0
1002
}
1002
{
1000
NOSEL
1070
     1
1002
}
1002
{
1000
BEHIND
1070
     0
1002
}
1002
{
1000
REACTOR
1002
}
1001
GENIUS_GENOBJ-NBEHI-BHB_13
1002
{
1000
OWNER
1000
GENBEHI
1002
}
1001
GENIUS_GENOENT_13
1002
{
1000
MYREF
1005
E2D
1002
}
1002
{
1000
GRP
1005
0
1002
}
1001
GENIUS_GENOLIS_13
1002
{
1000
ENT
1005
D9A
1005
D99
1002
}
  0
POINT
  5
E2E
  8
0
 10
0.0
 20
0.0
 30
0.0
1001
GENIUS_GENODEF_13
1002
{
1000
HIER
1070
   200
1002
}
1002
{
1000
MANEDIT
1070
     0
1002
}
1002
{
1000
NOSEL
1070
     0
1002
}
1002
{
1000
BEHIND
1070
     0
1002
}
1002
{
1000
REACTOR
1002
}
1001
GENIUS_GENOBJ-F-PART_13
1002
{
1000
OWNER
1000
GEF
1002
}
1001
GENIUS_GEFSTDP_13
1002
{
1000
SUG
1000
M
1040
6.0
1002
}
1002
{
1000
DSC
1000
DSC
1002
{
1000
~DESCR
1000
 
1000
~STDRT
1002
}
1002
}
1002
{
1000
KEY
1000
THRT
1002
}
1002
{
1000
INS
1002
{
1040
496.79062856238301
1040
212.62331857086329
1040
0.0
1002
}
1002
}
1002
{
1000
ANG
1040
0.0
1002
}
1002
{
1000
VCC
1002
{
1000
$PRE=M
1000
$NND=6.000000000000000E+00
1000
-RBDESCR
1000
-RBSTDRT
1000
-RBGD1
1000
-RBLOTI
1000
-V$PV_GENSYSTEM"gef\val\di\0401\di1616_d.dxf"
1000
$VCC_TABLE=$PV_GENSYSTEM"gef\val\di\0401\di1616.val"
1000
$GEF_CDIST=3.000000000000000E+00
1000
$GEF_DRAG=1
1000
$GEF_STANG=2.100000000000000E+02
1000
$GEF_OANG=7.000000000000000E+01
1000
$GEVPROMPTX= Länge: 
1000
$GEF_SNK_ADD=0.000000000000000E+00
1000
$GEF_FLIPX=1
1000
$GEF_FLIPY=1
1000
-GRPNAME0?
1000
-GRPNAME1?
1000
-BAML2
1000
$GEF_PROCALC=1
1002
}
1002
}
1002
{
1000
LST
1002
{
1002
{
1000
GROUP
1000
0401
1002
}
1002
{
1000
VIEW
1000
D
1002
}
1002
{
1000
SFILE
1000
$PV_GENSYSTEM"gef\val\di\0401\di1616_d.dxf"
1002
}
1002
{
1000
ST1
1000
$PV_GENSYSTEM"gef\val\di\0401\di1616.val"
1002
}
1002
{
1000
GENASSO
1000
 
1002
}
1002
}
1002
}
1002
{
1000
RET
1002
{
1002
{
1000
LOTI
1002
}
1002
{
1000
GD1
1000
4.917
1002
}
1002
{
1000
STDRT
1000
DIN 13 - M6
1002
}
1002
{
1000
DESCR
1000
Metrisches ISO-Gewinde
1002
}
1002
}
1002
}
1002
{
1000
SYSTEM
1040
1.0
1002
}
1002
{
1000
INFEL
1002
{
1002
}
1002
}
1001
GENIUS_GENOENT_13
1002
{
1000
MYREF
1005
E2E
1002
}
1002
{
1000
GRP
1005
0
1002
}
1001
GENIUS_GENOLIS_13
1002
{
1000
ENT
1005
E2B
1002
}
  0
CIRCLE
  5
E32
  8
MSL_F16_40-3
 10
515.79062856238158
 20
231.62331857086329
 30
0.0
 40
20.0
  0
LINE
  5
E37
  8
MSF16-3
 10
527.79062856238158
 20
256.62331857086332
 30
0.0
 11
527.79062856238158
 21
209.62331857086329
 31
0.0
1001
GENIUS_GENBH_13
1002
{
1000
OE
1000
CON1
1002
}
1001
GENIUS_GENOREF_13
1005
E3A
  0
LINE
  5
E38
  8
MSF16-0
 10
503.7906285623817
 20
256.62331857086332
 30
0.0
 11
503.7906285623817
 21
292.62331857086332
 31
0.0
1001
GENIUS_GENOREF_13
1005
E3A
1005
E3D
  0
POINT
  5
E39
  8
0
 10
0.0
 20
0.0
 30
0.0
1001
GENIUS_GENBH_13
1002
{
1000
BGO
1005
E3A
1002
}
1002
{
1000
FLAGS
1070
   164
1002
}
1002
{
1000
MODIFY
1002
{
1000
I
1000
H
1002
}
1002
}
1001
GENIUS_GENODEF_13
1002
{
1000
HIER
1070
     1
1002
}
1002
{
1000
MANEDIT
1070
     0
1002
}
1002
{
1000
NOSEL
1070
     1
1002
}
1002
{
1000
BEHIND
1070
     0
1002
}
1002
{
1000
REACTOR
1002
}
1001
GENIUS_GENOBJ-NBEHI-BHF_13
1002
{
1000
OWNER
1000
GENBEHI
1002
}
1001
GENIUS_GENOENT_13
1002
{
1000
MYREF
1005
E39
1002
}
1002
{
1000
GRP
1005
0
1002
}
1001
GENIUS_GENOLIS_13
1002
{
1000
ENT
1005
DDA
1005
DCC
1005
DD9
1005
DB9
1005
DD8
1005
DC8
1005
DD7
1005
DD0
1002
}
  0
POINT
  5
E3A
  8
0
 10
0.0
 20
0.0
 30
0.0
1001
GENIUS_GENBH_13
1002
{
1000
FGO
1005
E39
1002
}
1001
GENIUS_GENODEF_13
1002
{
1000
HIER
1070
     1
1002
}
1002
{
1000
MANEDIT
1070
     0
1002
}
1002
{
1000
NOSEL
1070
     1
1002
}
1002
{
1000
BEHIND
1070
     0
1002
}
1002
{
1000
REACTOR
1002
}
1001
GENIUS_GENOBJ-NBEHI-BHB_13
1002
{
1000
OWNER
1000
GENBEHI
1002
}
1001
GENIUS_GENOENT_13
1002
{
1000
MYREF
1005
E3A
1002
}
1002
{
1000
GRP
1005
0
1002
}
1001
GENIUS_GENOLIS_13
1002
{
1000
ENT
1005
E38
1005
E37
1005
C16
1005
B5C
1005
C41
1002
}
  0
LINE
  5
E3B
  8
ZYL_40_ISO6431-4A
 10
527.79062856238158
 20
259.12331857086332
 30
0.0
 11
534.7906285623817
 21
259.12331857086332
 31
0.0
1001
GENIUS_GENOREF_13
1005
E3E
  0
LINE
  5
E3C
  8
ZYL_40_ISO6431-4A
 10
503.7906285623817
 20
259.12331857086332
 30
0.0
 11
496.7906285623817
 21
259.12331857086332
 31
0.0
1001
GENIUS_GENOREF_13
1005
E3E
  0
POINT
  5
E3D
  8
0
 10
0.0
 20
0.0
 30
0.0
1001
GENIUS_GENBH_13
1002
{
1000
BGO
1005
E3E
1002
}
1002
{
1000
FLAGS
1070
   164
1002
}
1002
{
1000
MODIFY
1002
{
1000
I
1000
H
1002
}
1002
}
1001
GENIUS_GENODEF_13
1002
{
1000
HIER
1070
     1
1002
}
1002
{
1000
MANEDIT
1070
     0
1002
}
1002
{
1000
NOSEL
1070
     1
1002
}
1002
{
1000
BEHIND
1070
     0
1002
}
1002
{
1000
REACTOR
1002
}
1001
GENIUS_GENOBJ-NBEHI-BHF_13
1002
{
1000
OWNER
1000
GENBEHI
1002
}
1001
GENIUS_GENOENT_13
1002
{
1000
MYREF
1005
E3D
1002
}
1002
{
1000
GRP
1005
0
1002
}
1001
GENIUS_GENOLIS_13
1002
{
1000
ENT
1005
C41
1005
C0D
1005
E38
1002
}
  0
POINT
  5
E3E
  8
0
 10
0.0
 20
0.0
 30
0.0
1001
GENIUS_GENBH_13
1002
{
1000
FGO
1005
E3D
1002
}
1001
GENIUS_GENODEF_13
1002
{
1000
HIER
1070
     1
1002
}
1002
{
1000
MANEDIT
1070
     0
1002
}
1002
{
1000
NOSEL
1070
     1
1002
}
1002
{
1000
BEHIND
1070
     0
1002
}
1002
{
1000
REACTOR
1002
}
1001
GENIUS_GENOBJ-NBEHI-BHB_13
1002
{
1000
OWNER
1000
GENBEHI
1002
}
1001
GENIUS_GENOENT_13
1002
{
1000
MYREF
1005
E3E
1002
}
1002
{
1000
GRP
1005
0
1002
}
1001
GENIUS_GENOLIS_13
1002
{
1000
ENT
1005
E3C
1005
E3B
1005
444
1005
446
1002
}
  0
INSERT
  5
E7F
  8
ZYL_40_ISO6431-0
  2
*U66
 10
0.0
 20
0.0
 30
0.0
  0
ENDSEC
  0
EOF
