  0
SECTION
  2
HEADER
  9
$ACADVER
  1
AC1012
  9
$DWGCODEPAGE
  3
ansi_1252
  9
$INSBASE
 10
1062.866923
 20
299.00765
 30
0.0
  9
$EXTMIN
 10
1066.35169
 20
305.973436
 30
0.0
  9
$EXTMAX
 10
2079.256748
 20
888.894897
 30
0.0
  9
$LIMMIN
 10
0.0
 20
0.0
  9
$LIMMAX
 10
420.0
 20
297.0
  9
$ORTHOMODE
 70
     1
  9
$REGENMODE
 70
     1
  9
$FILLMODE
 70
     1
  9
$QTEXTMODE
 70
     0
  9
$MIRRTEXT
 70
     1
  9
$DRAGMODE
 70
     2
  9
$LTSCALE
 40
1.0
  9
$OSMODE
 70
    33
  9
$ATTMODE
 70
     1
  9
$TEXTSIZE
 40
3.5
  9
$TRACEWID
 40
1.0
  9
$TEXTSTYLE
  7
STANDARD
  9
$CLAYER
  8
MSL-5-300-0
  9
$CELTYPE
  6
BYLAYER
  9
$CECOLOR
 62
   256
  9
$CELTSCALE
 40
1.0
  9
$DELOBJ
 70
     1
  9
$DISPSILH
 70
     0
  9
$DIMSCALE
 40
1.0
  9
$DIMASZ
 40
2.5
  9
$DIMEXO
 40
1.0
  9
$DIMDLI
 40
10.0
  9
$DIMRND
 40
0.0
  9
$DIMDLE
 40
0.0
  9
$DIMEXE
 40
2.0
  9
$DIMTP
 40
0.1
  9
$DIMTM
 40
0.1
  9
$DIMTXT
 40
3.5
  9
$DIMCEN
 40
-2.0
  9
$DIMTSZ
 40
0.0
  9
$DIMTOL
 70
     0
  9
$DIMLIM
 70
     0
  9
$DIMTIH
 70
     0
  9
$DIMTOH
 70
     0
  9
$DIMSE1
 70
     0
  9
$DIMSE2
 70
     0
  9
$DIMTAD
 70
     1
  9
$DIMZIN
 70
     8
  9
$DIMBLK
  1

  9
$DIMASO
 70
     1
  9
$DIMSHO
 70
     1
  9
$DIMPOST
  1

  9
$DIMAPOST
  1

  9
$DIMALT
 70
     0
  9
$DIMALTD
 70
     2
  9
$DIMALTF
 40
25.4
  9
$DIMLFAC
 40
1.0
  9
$DIMTOFL
 70
     1
  9
$DIMTVP
 40
0.0
  9
$DIMTIX
 70
     0
  9
$DIMSOXD
 70
     0
  9
$DIMSAH
 70
     0
  9
$DIMBLK1
  1

  9
$DIMBLK2
  1

  9
$DIMSTYLE
  2
GEN-ISO
  9
$DIMCLRD
 70
     2
  9
$DIMCLRE
 70
     2
  9
$DIMCLRT
 70
     3
  9
$DIMTFAC
 40
1.0
  9
$DIMGAP
 40
1.5
  9
$DIMJUST
 70
     0
  9
$DIMSD1
 70
     0
  9
$DIMSD2
 70
     0
  9
$DIMTOLJ
 70
     0
  9
$DIMTZIN
 70
     8
  9
$DIMALTZ
 70
     8
  9
$DIMALTTZ
 70
     8
  9
$DIMFIT
 70
     3
  9
$DIMUPT
 70
     0
  9
$DIMUNIT
 70
     2
  9
$DIMDEC
 70
     2
  9
$DIMTDEC
 70
     5
  9
$DIMALTU
 70
     2
  9
$DIMALTTD
 70
     2
  9
$DIMTXSTY
  7
STANDARD
  9
$DIMAUNIT
 70
     0
  9
$LUNITS
 70
     2
  9
$LUPREC
 70
     4
  9
$SKETCHINC
 40
1.0
  9
$FILLETRAD
 40
0.0
  9
$AUNITS
 70
     0
  9
$AUPREC
 70
     0
  9
$MENU
  1
acad
  9
$ELEVATION
 40
0.0
  9
$PELEVATION
 40
0.0
  9
$THICKNESS
 40
0.0
  9
$LIMCHECK
 70
     0
  9
$BLIPMODE
 70
     0
  9
$CHAMFERA
 40
10.0
  9
$CHAMFERB
 40
10.0
  9
$CHAMFERC
 40
0.0
  9
$CHAMFERD
 40
0.0
  9
$SKPOLY
 70
     0
  9
$TDCREATE
 40
2450634.331109143
  9
$TDUPDATE
 40
2450787.483330254
  9
$TDINDWG
 40
0.1038609144
  9
$TDUSRTIMER
 40
0.1038609144
  9
$USRTIMER
 70
     1
  9
$ANGBASE
 50
0.0
  9
$ANGDIR
 70
     0
  9
$PDMODE
 70
     0
  9
$PDSIZE
 40
0.0
  9
$PLINEWID
 40
0.0
  9
$COORDS
 70
     2
  9
$SPLFRAME
 70
     0
  9
$SPLINETYPE
 70
     6
  9
$SPLINESEGS
 70
     8
  9
$ATTDIA
 70
     1
  9
$ATTREQ
 70
     1
  9
$HANDLING
 70
     1
  9
$HANDSEED
  5
549
  9
$SURFTAB1
 70
     6
  9
$SURFTAB2
 70
     6
  9
$SURFTYPE
 70
     6
  9
$SURFU
 70
     6
  9
$SURFV
 70
     6
  9
$UCSNAME
  2

  9
$UCSORG
 10
0.0
 20
0.0
 30
0.0
  9
$UCSXDIR
 10
1.0
 20
0.0
 30
0.0
  9
$UCSYDIR
 10
0.0
 20
1.0
 30
0.0
  9
$PUCSNAME
  2

  9
$PUCSORG
 10
0.0
 20
0.0
 30
0.0
  9
$PUCSXDIR
 10
1.0
 20
0.0
 30
0.0
  9
$PUCSYDIR
 10
0.0
 20
1.0
 30
0.0
  9
$USERI1
 70
     0
  9
$USERI2
 70
     0
  9
$USERI3
 70
     0
  9
$USERI4
 70
     0
  9
$USERI5
 70
     0
  9
$USERR1
 40
0.0
  9
$USERR2
 40
0.0
  9
$USERR3
 40
0.0
  9
$USERR4
 40
0.0
  9
$USERR5
 40
0.0
  9
$WORLDVIEW
 70
     1
  9
$SHADEDGE
 70
     3
  9
$SHADEDIF
 70
    70
  9
$TILEMODE
 70
     1
  9
$MAXACTVP
 70
    16
  9
$PINSBASE
 10
0.0
 20
0.0
 30
0.0
  9
$PLIMCHECK
 70
     0
  9
$PEXTMIN
 10
1.000000E+20
 20
1.000000E+20
 30
1.000000E+20
  9
$PEXTMAX
 10
-1.000000E+20
 20
-1.000000E+20
 30
-1.000000E+20
  9
$PLIMMIN
 10
0.0
 20
0.0
  9
$PLIMMAX
 10
420.0
 20
297.0
  9
$UNITMODE
 70
     0
  9
$VISRETAIN
 70
     0
  9
$PLINEGEN
 70
     0
  9
$PSLTSCALE
 70
     1
  9
$TREEDEPTH
 70
  3020
  9
$PICKSTYLE
 70
     1
  9
$CMLSTYLE
  2
STANDARD
  9
$CMLJUST
 70
     0
  9
$CMLSCALE
 40
1.0
  9
$SAVEIMAGES
 70
     0
  0
ENDSEC
  0
SECTION
  2
CLASSES
  0
ENDSEC
  0
SECTION
  2
TABLES
  0
TABLE
  2
VPORT
  5
12
100
AcDbSymbolTable
 70
     3
  0
VPORT
  5
548
100
AcDbSymbolTableRecord
100
AcDbViewportTableRecord
  2
*ACTIVE
 70
     0
 10
0.0
 20
0.0
 11
1.0
 21
1.0
 12
1572.804219
 22
608.953835
 13
0.0
 23
0.0
 14
1.0
 24
1.0
 15
2.0
 25
2.0
 16
0.0
 26
0.0
 36
1.0
 17
0.0
 27
0.0
 37
0.0
 40
757.450997
 41
1.671569
 42
50.0
 43
0.0
 44
0.0
 50
0.0
 51
0.0
 71
     0
 72
   100
 73
     1
 74
     0
 75
     0
 76
     0
 77
     0
 78
     0
  0
ENDTAB
  0
TABLE
  2
LTYPE
  5
E
100
AcDbSymbolTable
 70
     3
  0
LTYPE
  5
F
100
AcDbSymbolTableRecord
100
AcDbLinetypeTableRecord
  2
BYBLOCK
 70
     0
  3

 72
    65
 73
     0
 40
0.0
  0
LTYPE
  5
6
100
AcDbSymbolTableRecord
100
AcDbLinetypeTableRecord
  2
BYLAYER
 70
     0
  3

 72
    65
 73
     0
 40
0.0
  0
LTYPE
  5
5
100
AcDbSymbolTableRecord
100
AcDbLinetypeTableRecord
  2
CONTINUOUS
 70
    64
  3
Solid line
 72
    65
 73
     0
 40
0.0
  0
LTYPE
  5
3C
100
AcDbSymbolTableRecord
100
AcDbLinetypeTableRecord
  2
GEN3
 70
    64
  3
-- -- -- -- -- -- -- -- -- -- -- -- -- -- --
 72
    65
 73
     2
 40
6.25
 49
5.0
 74
     0
 49
-1.25
 74
     0
  0
LTYPE
  5
29
100
AcDbSymbolTableRecord
100
AcDbLinetypeTableRecord
  2
GEN7A
 70
    64
  3
__ . __ . __
 72
    65
 73
     4
 40
7.5
 49
5.0
 74
     0
 49
-1.25
 74
     0
 49
0.0
 74
     0
 49
-1.25
 74
     0
  0
ENDTAB
  0
TABLE
  2
LAYER
  5
B
100
AcDbSymbolTable
 70
     7
  0
LAYER
  5
4
100
AcDbSymbolTableRecord
100
AcDbLayerTableRecord
  2
0
 70
    64
 62
     7
  6
CONTINUOUS
  0
LAYER
  5
45
100
AcDbSymbolTableRecord
100
AcDbLayerTableRecord
  2
5
 70
    64
 62
     3
  6
CONTINUOUS
  0
LAYER
  5
1B
100
AcDbSymbolTableRecord
100
AcDbLayerTableRecord
  2
MSL-5-300-0
 70
    64
 62
     7
  6
CONTINUOUS
  0
LAYER
  5
3B
100
AcDbSymbolTableRecord
100
AcDbLayerTableRecord
  2
MSL-5-300-3
 70
    64
 62
     6
  6
GEN3
  0
LAYER
  5
86
100
AcDbSymbolTableRecord
100
AcDbLayerTableRecord
  2
MSL-5-300-4
 70
    64
 62
     3
  6
CONTINUOUS
  0
LAYER
  5
28
100
AcDbSymbolTableRecord
100
AcDbLayerTableRecord
  2
MSL-5-300-7
 70
    64
 62
     4
  6
GEN7A
  0
ENDTAB
  0
TABLE
  2
STYLE
  5
C
100
AcDbSymbolTable
 70
     1
  0
STYLE
  5
D
100
AcDbSymbolTableRecord
100
AcDbTextStyleTableRecord
  2
STANDARD
 70
    64
 40
0.0
 41
1.0
 50
0.0
 71
     0
 42
3.5
  3
ISOCP.SHX
  4

  0
ENDTAB
  0
TABLE
  2
VIEW
  5
10
100
AcDbSymbolTable
 70
     0
  0
ENDTAB
  0
TABLE
  2
UCS
  5
11
100
AcDbSymbolTable
 70
     0
  0
ENDTAB
  0
TABLE
  2
APPID
  5
14
100
AcDbSymbolTable
 70
     9
  0
APPID
  5
15
100
AcDbSymbolTableRecord
100
AcDbRegAppTableRecord
  2
ACAD
 70
    64
  0
APPID
  5
53E
100
AcDbSymbolTableRecord
100
AcDbRegAppTableRecord
  2
GENIUS_GENCFG_13
 70
     0
1001
GENIUS_GEFCFG0_13
1000
GEF
1001
GENIUS_GENCFG0_13
1000
GEN@INFO_POS@XLATE
1001
GENIUS_GENCFG1_13
1000
GEN@LAYER@DEFS
1001
GENIUS_GENCFG2_13
1000
GEN@LAYER@ENTSORT
1001
GENIUS_GENCFG3_13
1000
GEN@OSWIZ
1001
GENIUS_GENCFG4_13
1000
GEN
1001
GENIUS_GEVCFG0_13
1000
GEV
  0
APPID
  5
53F
100
AcDbSymbolTableRecord
100
AcDbRegAppTableRecord
  2
GENIUS_GEFCFG0_13
 70
     0
1001
GENIUS_GENCFG_13
1071
881231638
1000
53F
1000
GEF
1070
     5
1000
GenCfgObject
1000
GenCfgString
1000
GenCfgReal
1000
GenCfgShort
1000
GenCfgBool
1000
System
1070
     0
1002
{
1002
}
1000
Prese
1070
     0
1002
{
1000
Funk
1070
     1
1000

1002
{
1002
}
1000
FunkDef
1070
     1
1000

1002
{
1002
}
1000
GefIso
1070
     1
1000
DIN
1002
{
1002
}
1002
}
1000
FEM
1070
     0
1002
{
1000
LayGroup
1070
     1
1000
FEM
1002
{
1002
}
1000
IncrCoef
1070
     2
1040
0.0
1002
{
1002
}
1002
}
1000
Shaft
1070
     0
1002
{
1000
Interrupt
1070
     3
1070
     0
1002
{
1002
}
1002
}
1000
PartDb
1070
     0
1002
{
1000
PartCreate
1070
     0
1002
{
1002
}
1002
}
1000
Symbol
1070
     0
1002
{
1000
WeldStyle
1070
     1
1000
ISO
1002
{
1002
}
1000
WeldSize
1070
     2
1040
1.0
1002
{
1002
}
1000
WeldFlag
1070
     4
1070
     1
1002
{
1002
}
1000
WeldOffset
1070
     4
1070
     1
1002
{
1002
}
1000
TolCType
1070
     1
1000
ISO
1002
{
1002
}
1000
TolCSize
1070
     2
1040
1.0
1002
{
1002
}
1000
STextureSize
1070
     2
1040
1.0
1002
{
1002
}
1000
SurfaceType
1070
     1
1000

1002
{
1002
}
1000
M
1070
     0
1002
{
1000
WeldWidth
1070
     2
1040
3.0
1002
{
1002
}
1002
}
1000
I
1070
     0
1002
{
1000
WeldWidth
1070
     2
1040
0.125
1002
{
1002
}
1002
}
1002
}
  0
APPID
  5
540
100
AcDbSymbolTableRecord
100
AcDbRegAppTableRecord
  2
GENIUS_GENCFG0_13
 70
     0
1001
GENIUS_GENCFG_13
1071
881231638
1000
540
1000
GEN@INFO_POS@XLATE
1070
     7
1000
GenCfgObject
1000
GenCfgShort
1000
GenCfgReal
1000
GenCfgBool
1000
GenCfgString
1000
GenCfgDim
1000
GenCfgAttrInf
1000
INFOPOINTS
1070
     0
1002
{
1000
GENINF13
1070
     0
1002
{
1000
2GENINF
1070
     4
1000
2
1002
{
1002
}
1000
3GENINF
1070
     4
1000
3
1002
{
1002
}
1000
4GENINF
1070
     4
1000
4
1002
{
1002
}
1000
5GENINF
1070
     4
1000
5
1002
{
1002
}
1000
6GENINF
1070
     4
1000
6
1002
{
1002
}
1000
7GENINF
1070
     4
1000
7
1002
{
1002
}
1000
8GENINF
1070
     4
1000
8
1002
{
1002
}
1000
9GENINF
1070
     4
1000
9
1002
{
1002
}
1000
10GENINF
1070
     4
1000
10
1002
{
1002
}
1000
11GENINF
1070
     4
1000
11
1002
{
1002
}
1000
12GENINF
1070
     4
1000
12
1002
{
1002
}
1000
13GENINF
1070
     4
1000
13
1002
{
1002
}
1000
14GENINF
1070
     4
1000
14
1002
{
1002
}
1000
15GENINF
1070
     4
1000
15
1002
{
1002
}
1000
16GENINF
1070
     4
1000
16
1002
{
1002
}
1000
17GENINF
1070
     4
1000
17
1002
{
1002
}
1000
18GENINF
1070
     4
1000
18
1002
{
1002
}
1000
19GENINF
1070
     4
1000
19
1002
{
1002
}
1000
20GENINF
1070
     4
1000
20
1002
{
1002
}
1000
21GENINF
1070
     4
1000
21
1002
{
1002
}
1000
22GENINF
1070
     4
1000
22
1002
{
1002
}
1000
23GENINF
1070
     4
1000
23
1002
{
1002
}
1000
24GENINF
1070
     4
1000
24
1002
{
1002
}
1000
0GENINF
1070
     4
1000
0
1002
{
1002
}
1002
}
1000
GENINFO
1070
     0
1002
{
1000
3GENINF
1070
     4
1000
3
1002
{
1002
}
1000
4GENINF
1070
     4
1000
4
1002
{
1002
}
1000
5GENINF
1070
     4
1000
5
1002
{
1002
}
1000
6GENINF
1070
     4
1000
6
1002
{
1002
}
1000
7GENINF
1070
     4
1000
7
1002
{
1002
}
1000
8GENINF
1070
     4
1000
8
1002
{
1002
}
1000
9GENINF
1070
     4
1000
9
1002
{
1002
}
1000
10GENINF
1070
     4
1000
10
1002
{
1002
}
1000
11GENINF
1070
     4
1000
11
1002
{
1002
}
1000
12GENINF
1070
     4
1000
12
1002
{
1002
}
1000
13GENINF
1070
     4
1000
13
1002
{
1002
}
1000
14GENINF
1070
     4
1000
14
1002
{
1002
}
1000
15GENINF
1070
     4
1000
15
1002
{
1002
}
1000
16GENINF
1070
     4
1000
16
1002
{
1002
}
1000
17GENINF
1070
     4
1000
17
1002
{
1002
}
1000
18GENINF
1070
     4
1000
18
1002
{
1002
}
1000
19GENINF
1070
     4
1000
19
1002
{
1002
}
1000
20GENINF
1070
     4
1000
20
1002
{
1002
}
1000
21GENINF
1070
     4
1000
21
1002
{
1002
}
1000
22GENINF
1070
     4
1000
22
1002
{
1002
}
1002
}
1000
DININFO
1070
     0
1002
{
1000
ST-NAME1
1070
     4
1000
5
1002
{
1002
}
1000
ST-NAME2
1070
     4
1000
6
1002
{
1002
}
1000
ST-NORM1
1070
     4
1000
7
1002
{
1002
}
1000
ST-NORM2
1070
     4
1000
8
1002
{
1002
}
1000
ST-MAT1
1070
     4
1000
9
1002
{
1002
}
1000
ST-MAT2
1070
     4
1000
10
1002
{
1002
}
1002
}
1002
}
1000
POS_NUMBERS
1070
     0
1002
{
1000
GENPOS13
1070
     0
1002
{
1000
1GENPOS
1070
     4
1000
1
1002
{
1002
}
1000
2GENPOS
1070
     4
1000
2
1002
{
1002
}
1000
3GENPOS
1070
     4
1000
3
1002
{
1002
}
1000
4GENPOS
1070
     4
1000
4
1002
{
1002
}
1000
5GENPOS
1070
     4
1000
5
1002
{
1002
}
1000
6GENPOS
1070
     4
1000
6
1002
{
1002
}
1000
7GENPOS
1070
     4
1000
7
1002
{
1002
}
1000
8GENPOS
1070
     4
1000
8
1002
{
1002
}
1000
9GENPOS
1070
     4
1000
9
1002
{
1002
}
1000
10GENPOS
1070
     4
1000
10
1002
{
1002
}
1000
11GENPOS
1070
     4
1000
11
1002
{
1002
}
1000
12GENPOS
1070
     4
1000
12
1002
{
1002
}
1000
13GENPOS
1070
     4
1000
13
1002
{
1002
}
1000
14GENPOS
1070
     4
1000
14
1002
{
1002
}
1000
15GENPOS
1070
     4
1000
15
1002
{
1002
}
1000
16GENPOS
1070
     4
1000
16
1002
{
1002
}
1000
17GENPOS
1070
     4
1000
17
1002
{
1002
}
1000
18GENPOS
1070
     4
1000
18
1002
{
1002
}
1000
19GENPOS
1070
     4
1000
19
1002
{
1002
}
1000
20GENPOS
1070
     4
1000
20
1002
{
1002
}
1000
21GENPOS
1070
     4
1000
21
1002
{
1002
}
1000
22GENPOS
1070
     4
1000
22
1002
{
1002
}
1000
23GENPOS
1070
     4
1000
23
1002
{
1002
}
1000
24GENPOS
1070
     4
1000
24
1002
{
1002
}
1000
0GENPOS
1070
     4
1000
0
1002
{
1002
}
1002
}
1000
GENPOS
1070
     0
1002
{
1000
1GENPOS
1070
     4
1000
1
1002
{
1002
}
1000
2GENPOS
1070
     4
1000
2
1002
{
1002
}
1000
3GENPOS
1070
     4
1000
3
1002
{
1002
}
1000
4GENPOS
1070
     4
1000
4
1002
{
1002
}
1000
5GENPOS
1070
     4
1000
5
1002
{
1002
}
1000
6GENPOS
1070
     4
1000
6
1002
{
1002
}
1000
7GENPOS
1070
     4
1000
7
1002
{
1002
}
1000
8GENPOS
1070
     4
1000
8
1002
{
1002
}
1000
9GENPOS
1070
     4
1000
9
1002
{
1002
}
1000
10GENPOS
1070
     4
1000
10
1002
{
1002
}
1000
11GENPOS
1070
     4
1000
11
1002
{
1002
}
1000
12GENPOS
1070
     4
1000
12
1002
{
1002
}
1000
13GENPOS
1070
     4
1000
13
1002
{
1002
}
1000
14GENPOS
1070
     4
1000
14
1002
{
1002
}
1000
15GENPOS
1070
     4
1000
15
1002
{
1002
}
1000
16GENPOS
1070
     4
1000
16
1002
{
1002
}
1000
17GENPOS
1070
     4
1000
17
1002
{
1002
}
1000
18GENPOS
1070
     4
1000
18
1002
{
1002
}
1000
19GENPOS
1070
     4
1000
19
1002
{
1002
}
1000
20GENPOS
1070
     4
1000
20
1002
{
1002
}
1000
21GENPOS
1070
     4
1000
21
1002
{
1002
}
1000
22GENPOS
1070
     4
1000
22
1002
{
1002
}
1000
23GENPOS
1070
     4
1000
23
1002
{
1002
}
1002
}
1000
DIN985
1070
     0
1002
{
1000
POSITION
1070
     4
1000
1
1002
{
1002
}
1000
MENGE
1070
     4
1000
2
1002
{
1002
}
1000
BLATT
1070
     4
1000
3
1002
{
1002
}
1000
BENENN
1070
     4
1000
5
1002
{
1002
}
1000
BENENN2
1070
     4
1000
6
1002
{
1002
}
1000
NORM
1070
     4
1000
7
1002
{
1002
}
1000
NORM2
1070
     4
1000
8
1002
{
1002
}
1000
WERKSTOFF
1070
     4
1000
9
1002
{
1002
}
1000
WERKSTOFF2
1070
     4
1000
10
1002
{
1002
}
1002
}
1000
DIN986
1070
     0
1002
{
1000
POSITION
1070
     4
1000
1
1002
{
1002
}
1000
MENGE
1070
     4
1000
2
1002
{
1002
}
1000
BLATT
1070
     4
1000
3
1002
{
1002
}
1000
BENENN
1070
     4
1000
5
1002
{
1002
}
1000
BENENN2
1070
     4
1000
6
1002
{
1002
}
1000
NORM
1070
     4
1000
7
1002
{
1002
}
1000
NORM2
1070
     4
1000
8
1002
{
1002
}
1000
WERKSTOFF
1070
     4
1000
9
1002
{
1002
}
1000
WERKSTOFF2
1070
     4
1000
10
1002
{
1002
}
1002
}
1000
DIN987
1070
     0
1002
{
1000
POSITION
1070
     4
1000
1
1002
{
1002
}
1000
MENGE
1070
     4
1000
2
1002
{
1002
}
1000
BLATT
1070
     4
1000
3
1002
{
1002
}
1000
BENENN
1070
     4
1000
5
1002
{
1002
}
1000
BENENN2
1070
     4
1000
6
1002
{
1002
}
1000
NORM
1070
     4
1000
7
1002
{
1002
}
1000
NORM2
1070
     4
1000
8
1002
{
1002
}
1000
WERKSTOFF
1070
     4
1000
9
1002
{
1002
}
1000
WERKSTOFF2
1070
     4
1000
10
1002
{
1002
}
1002
}
1002
}
  0
APPID
  5
541
100
AcDbSymbolTableRecord
100
AcDbRegAppTableRecord
  2
GENIUS_GENCFG1_13
 70
     0
1001
GENIUS_GENCFG_13
1071
881231638
1000
541
1000
GEN@LAYER@DEFS
1070
     9
1000
GenCfgObject
1000
GenCfgShort
1000
GenCfgReal
1000
GenCfgBool
1000
GenCfgString
1000
GenCfgDim
1000
GenCfgAttrInf
1000
GenCfgLaySection
1000
GenCfgLayer
1000
Basic
1070
     0
1002
{
1000
0
1070
     8
1000
0
1002
{
1000
Color
1070
     1
1070
     7
1002
{
1002
}
1000
LType
1070
     4
1000
CONTINUOUS
1002
{
1002
}
1000
Base
1070
     3
1070
     0
1002
{
1002
}
1002
}
1000
1
1070
     8
1000
1
1002
{
1000
Color
1070
     1
1070
    14
1002
{
1002
}
1000
LType
1070
     4
1000
CONTINUOUS
1002
{
1002
}
1000
Base
1070
     3
1070
     0
1002
{
1002
}
1002
}
1000
2
1070
     8
1000
2
1002
{
1000
Color
1070
     1
1070
     5
1002
{
1002
}
1000
LType
1070
     4
1000
CONTINUOUS
1002
{
1002
}
1000
Base
1070
     3
1070
     0
1002
{
1002
}
1002
}
1000
3
1070
     8
1000
3
1002
{
1000
Color
1070
     1
1070
     6
1002
{
1002
}
1000
LType
1070
     4
1000
GEN3
1002
{
1002
}
1000
Base
1070
     3
1070
     0
1002
{
1002
}
1002
}
1000
4
1070
     8
1000
4
1002
{
1000
Color
1070
     1
1070
     3
1002
{
1002
}
1000
LType
1070
     4
1000
CONTINUOUS
1002
{
1002
}
1000
Base
1070
     3
1070
     0
1002
{
1002
}
1002
}
1000
5
1070
     8
1000
5
1002
{
1000
Color
1070
     1
1070
     3
1002
{
1002
}
1000
LType
1070
     4
1000
CONTINUOUS
1002
{
1002
}
1000
Base
1070
     3
1070
     0
1002
{
1002
}
1002
}
1000
6
1070
     8
1000
6
1002
{
1000
Color
1070
     1
1070
     2
1002
{
1002
}
1000
LType
1070
     4
1000
CONTINUOUS
1002
{
1002
}
1000
Base
1070
     3
1070
     0
1002
{
1002
}
1002
}
1000
7
1070
     8
1000
7
1002
{
1000
Color
1070
     1
1070
     4
1002
{
1002
}
1000
LType
1070
     4
1000
GEN7
1002
{
1002
}
1000
Base
1070
     3
1070
     0
1002
{
1002
}
1002
}
1000
8
1070
     8
1000
8
1002
{
1000
Color
1070
     1
1070
     1
1002
{
1002
}
1000
LType
1070
     4
1000
CONTINUOUS
1002
{
1002
}
1000
Base
1070
     3
1070
     0
1002
{
1002
}
1002
}
1000
3A
1070
     8
1000
3A
1002
{
1000
Color
1070
     1
1070
     6
1002
{
1002
}
1000
LType
1070
     4
1000
GEN3A
1002
{
1002
}
1000
Base
1070
     3
1070
     0
1002
{
1002
}
1002
}
1000
7A
1070
     8
1000
7A
1002
{
1000
Color
1070
     1
1070
     4
1002
{
1002
}
1000
LType
1070
     4
1000
GEN7A
1002
{
1002
}
1000
Base
1070
     3
1070
     0
1002
{
1002
}
1002
}
1000
2A
1070
     8
1000
2A
1002
{
1000
Color
1070
     1
1070
     7
1002
{
1002
}
1000
LType
1070
     4
1000
GEN7
1002
{
1002
}
1000
Base
1070
     3
1070
     0
1002
{
1002
}
1002
}
1000
4A
1070
     8
1000
4A
1002
{
1000
Color
1070
     1
1070
     3
1002
{
1002
}
1000
LType
1070
     4
1000
GEN4A
1002
{
1002
}
1000
Base
1070
     3
1070
     0
1002
{
1002
}
1002
}
1000
9
1070
     8
1000
9
1002
{
1000
Color
1070
     1
1070
   253
1002
{
1002
}
1000
LType
1070
     4
1000
CONTINUOUS
1002
{
1002
}
1000
Base
1070
     3
1070
     0
1002
{
1002
}
1002
}
1002
}
1000
Standard
1070
     0
1002
{
1000
0N
1070
     8
1000
0N
1002
{
1000
Color
1070
     1
1070
     7
1002
{
1002
}
1000
LType
1070
     4
1000
CONTINUOUS
1002
{
1002
}
1000
Base
1070
     3
1070
     0
1002
{
1002
}
1002
}
1000
1N
1070
     8
1000
1N
1002
{
1000
Color
1070
     1
1070
    14
1002
{
1002
}
1000
LType
1070
     4
1000
CONTINUOUS
1002
{
1002
}
1000
Base
1070
     3
1070
     0
1002
{
1002
}
1002
}
1000
2N
1070
     8
1000
2N
1002
{
1000
Color
1070
     1
1070
     5
1002
{
1002
}
1000
LType
1070
     4
1000
CONTINUOUS
1002
{
1002
}
1000
Base
1070
     3
1070
     0
1002
{
1002
}
1002
}
1000
3N
1070
     8
1000
3N
1002
{
1000
Color
1070
     1
1070
     6
1002
{
1002
}
1000
LType
1070
     4
1000
GEN3
1002
{
1002
}
1000
Base
1070
     3
1070
     0
1002
{
1002
}
1002
}
1000
4N
1070
     8
1000
4N
1002
{
1000
Color
1070
     1
1070
     3
1002
{
1002
}
1000
LType
1070
     4
1000
CONTINUOUS
1002
{
1002
}
1000
Base
1070
     3
1070
     0
1002
{
1002
}
1002
}
1000
5N
1070
     8
1000
5N
1002
{
1000
Color
1070
     1
1070
     3
1002
{
1002
}
1000
LType
1070
     4
1000
CONTINUOUS
1002
{
1002
}
1000
Base
1070
     3
1070
     0
1002
{
1002
}
1002
}
1000
6N
1070
     8
1000
6N
1002
{
1000
Color
1070
     1
1070
     2
1002
{
1002
}
1000
LType
1070
     4
1000
CONTINUOUS
1002
{
1002
}
1000
Base
1070
     3
1070
     0
1002
{
1002
}
1002
}
1000
7N
1070
     8
1000
7N
1002
{
1000
Color
1070
     1
1070
     4
1002
{
1002
}
1000
LType
1070
     4
1000
GEN7
1002
{
1002
}
1000
Base
1070
     3
1070
     0
1002
{
1002
}
1002
}
1000
8N
1070
     8
1000
8N
1002
{
1000
Color
1070
     1
1070
     1
1002
{
1002
}
1000
LType
1070
     4
1000
CONTINUOUS
1002
{
1002
}
1000
Base
1070
     3
1070
     0
1002
{
1002
}
1002
}
1000
3AN
1070
     8
1000
3AN
1002
{
1000
Color
1070
     1
1070
     6
1002
{
1002
}
1000
LType
1070
     4
1000
GEN3A
1002
{
1002
}
1000
Base
1070
     3
1070
     0
1002
{
1002
}
1002
}
1000
7AN
1070
     8
1000
7AN
1002
{
1000
Color
1070
     1
1070
     4
1002
{
1002
}
1000
LType
1070
     4
1000
GEN7A
1002
{
1002
}
1000
Base
1070
     3
1070
     0
1002
{
1002
}
1002
}
1000
2AN
1070
     8
1000
2AN
1002
{
1000
Color
1070
     1
1070
     7
1002
{
1002
}
1000
LType
1070
     4
1000
GEN7
1002
{
1002
}
1000
Base
1070
     3
1070
     0
1002
{
1002
}
1002
}
1000
4AN
1070
     8
1000
4AN
1002
{
1000
Color
1070
     1
1070
     3
1002
{
1002
}
1000
LType
1070
     4
1000
GEN4A
1002
{
1002
}
1000
Base
1070
     3
1070
     0
1002
{
1002
}
1002
}
1000
9N
1070
     8
1000
9N
1002
{
1000
Color
1070
     1
1070
   253
1002
{
1002
}
1000
LType
1070
     4
1000
CONTINUOUS
1002
{
1002
}
1000
Base
1070
     3
1070
     0
1002
{
1002
}
1002
}
1002
}
1000
Extra
1070
     0
1002
{
1000
Klin
1070
     8
1000
KLIN
1002
{
1000
Color
1070
     1
1070
     1
1002
{
1002
}
1000
LType
1070
     4
1000
CONTINUOUS
1002
{
1002
}
1000
Base
1070
     3
1070
     1
1002
{
1002
}
1002
}
1000
Info
1070
     8
1000
INFO
1002
{
1000
Color
1070
     1
1070
     4
1002
{
1002
}
1000
LType
1070
     4
1000
CONTINUOUS
1002
{
1002
}
1000
Base
1070
     3
1070
     1
1002
{
1002
}
1002
}
1000
Rahm2
1070
     8
1000
RAHM2
1002
{
1000
Color
1070
     1
1070
     1
1002
{
1002
}
1000
LType
1070
     4
1000
CONTINUOUS
1002
{
1002
}
1000
Base
1070
     3
1070
     1
1002
{
1002
}
1002
}
1000
Rahm3
1070
     8
1000
RAHM3
1002
{
1000
Color
1070
     1
1070
     2
1002
{
1002
}
1000
LType
1070
     4
1000
CONTINUOUS
1002
{
1002
}
1000
Base
1070
     3
1070
     1
1002
{
1002
}
1002
}
1000
Rahm5
1070
     8
1000
RAHM5
1002
{
1000
Color
1070
     1
1070
     7
1002
{
1002
}
1000
LType
1070
     4
1000
CONTINUOUS
1002
{
1002
}
1000
Base
1070
     3
1070
     1
1002
{
1002
}
1002
}
1000
View
1070
     8
1000
VIEW
1002
{
1000
Color
1070
     1
1070
     1
1002
{
1002
}
1000
LType
1070
     4
1000
CONTINUOUS
1002
{
1002
}
1000
Base
1070
     3
1070
     1
1002
{
1002
}
1002
}
1000
Behind
1070
     8
1000
BEHIND
1002
{
1000
Color
1070
     1
1070
   253
1002
{
1002
}
1000
LType
1070
     4
1000
CONTINUOUS
1002
{
1002
}
1000
Base
1070
     3
1070
     1
1002
{
1002
}
1002
}
1002
}
  0
APPID
  5
542
100
AcDbSymbolTableRecord
100
AcDbRegAppTableRecord
  2
GENIUS_GENCFG2_13
 70
     0
1001
GENIUS_GENCFG_13
1071
881231638
1000
542
1000
GEN@LAYER@ENTSORT
1070
    10
1000
GenCfgObject
1000
GenCfgShort
1000
GenCfgReal
1000
GenCfgBool
1000
GenCfgString
1000
GenCfgDim
1000
GenCfgAttrInf
1000
GenCfgLaySection
1000
GenCfgLayer
1000
GenCfgEntSort
1000
ALTR
1070
     9
1000
4
1002
{
1000
Class
1070
     4
1000

1002
{
1002
}
1000
Color
1070
     1
1070
     7
1002
{
1002
}
1000
LType
1070
     4
1000
GEN3A
1002
{
1002
}
1002
}
1000
BELI
1070
     9
1000
4
1002
{
1000
Class
1070
     4
1000

1002
{
1002
}
1000
Color
1070
     1
1070
   256
1002
{
1002
}
1000
LType
1070
     4
1000
BYLAYER
1002
{
1002
}
1002
}
1000
BHNV
1070
     9
1000
9
1002
{
1000
Class
1070
     4
1000
INV
1002
{
1002
}
1000
Color
1070
     1
1070
   256
1002
{
1002
}
1000
LType
1070
     4
1000
BYLAYER
1002
{
1002
}
1002
}
1000
BHNVS
1070
     9
1000
BEHIND
1002
{
1000
Class
1070
     4
1000
INV
1002
{
1002
}
1000
Color
1070
     1
1070
   256
1002
{
1002
}
1000
LType
1070
     4
1000
BYLAYER
1002
{
1002
}
1002
}
1000
BLID
1070
     9
1000
4A
1002
{
1000
Class
1070
     4
1000

1002
{
1002
}
1000
Color
1070
     1
1070
   256
1002
{
1002
}
1000
LType
1070
     4
1000
BYLAYER
1002
{
1002
}
1002
}
1000
BOAP
1070
     9
1000
4A
1002
{
1000
Class
1070
     4
1000

1002
{
1002
}
1000
Color
1070
     1
1070
   256
1002
{
1002
}
1000
LType
1070
     4
1000
BYLAYER
1002
{
1002
}
1002
}
1000
BOR2
1070
     9
1000
RAHM2
1002
{
1000
Class
1070
     4
1000
SPZ,SYM
1002
{
1002
}
1000
Color
1070
     1
1070
   256
1002
{
1002
}
1000
LType
1070
     4
1000
BYLAYER
1002
{
1002
}
1002
}
1000
BOR3
1070
     9
1000
RAHM3
1002
{
1000
Class
1070
     4
1000
SPZ,SYM
1002
{
1002
}
1000
Color
1070
     1
1070
   256
1002
{
1002
}
1000
LType
1070
     4
1000
BYLAYER
1002
{
1002
}
1002
}
1000
BOR5
1070
     9
1000
RAHM5
1002
{
1000
Class
1070
     4
1000
SPZ,SYM
1002
{
1002
}
1000
Color
1070
     1
1070
   256
1002
{
1002
}
1000
LType
1070
     4
1000
BYLAYER
1002
{
1002
}
1002
}
1000
BOR7
1070
     9
1000
RAHM5
1002
{
1000
Class
1070
     4
1000
SPZ,SYM
1002
{
1002
}
1000
Color
1070
     1
1070
     7
1002
{
1002
}
1000
LType
1070
     4
1000
CONTINUOUS
1002
{
1002
}
1002
}
1000
BPAP
1070
     9
1000
4A
1002
{
1000
Class
1070
     4
1000

1002
{
1002
}
1000
Color
1070
     1
1070
   256
1002
{
1002
}
1000
LType
1070
     4
1000
BYLAYER
1002
{
1002
}
1002
}
1000
BPEX
1070
     9
1000
4A
1002
{
1000
Class
1070
     4
1000

1002
{
1002
}
1000
Color
1070
     1
1070
   256
1002
{
1002
}
1000
LType
1070
     4
1000
BYLAYER
1002
{
1002
}
1002
}
1000
BTDI
1070
     9
1000
5
1002
{
1000
Class
1070
     4
1000
DIM,SYM
1002
{
1002
}
1000
Color
1070
     1
1070
   256
1002
{
1002
}
1000
LType
1070
     4
1000
BYLAYER
1002
{
1002
}
1002
}
1000
CAL2
1070
     9
1000
4
1002
{
1000
Class
1070
     4
1000
SYM
1002
{
1002
}
1000
Color
1070
     1
1070
   256
1002
{
1002
}
1000
LType
1070
     4
1000
BYLAYER
1002
{
1002
}
1002
}
1000
CAL3
1070
     9
1000
4
1002
{
1000
Class
1070
     4
1000
SYM
1002
{
1002
}
1000
Color
1070
     1
1070
     2
1002
{
1002
}
1000
LType
1070
     4
1000
BYLAYER
1002
{
1002
}
1002
}
1000
CAL5
1070
     9
1000
4
1002
{
1000
Class
1070
     4
1000
SYM
1002
{
1002
}
1000
Color
1070
     1
1070
     7
1002
{
1002
}
1000
LType
1070
     4
1000
BYLAYER
1002
{
1002
}
1002
}
1000
CAL7
1070
     9
1000
4
1002
{
1000
Class
1070
     4
1000
SYM
1002
{
1002
}
1000
Color
1070
     1
1070
     5
1002
{
1002
}
1000
LType
1070
     4
1000
BYLAYER
1002
{
1002
}
1002
}
1000
CENN
1070
     9
1000
7A
1002
{
1000
Class
1070
     4
1000
CEN
1002
{
1002
}
1000
Color
1070
     1
1070
   256
1002
{
1002
}
1000
LType
1070
     4
1000
BYLAYER
1002
{
1002
}
1002
}
1000
CENW
1070
     9
1000
7
1002
{
1000
Class
1070
     4
1000
CEN
1002
{
1002
}
1000
Color
1070
     1
1070
   256
1002
{
1002
}
1000
LType
1070
     4
1000
BYLAYER
1002
{
1002
}
1002
}
1000
CLIN
1070
     9
1000
KLIN
1002
{
1000
Class
1070
     4
1000
SPZ
1002
{
1002
}
1000
Color
1070
     1
1070
   256
1002
{
1002
}
1000
LType
1070
     4
1000
BYLAYER
1002
{
1002
}
1002
}
1000
CON1
1070
     9
1000
0
1002
{
1000
Class
1070
     4
1000
CON,BGD
1002
{
1002
}
1000
Color
1070
     1
1070
   256
1002
{
1002
}
1000
LType
1070
     4
1000
BYLAYER
1002
{
1002
}
1002
}
1000
CON2
1070
     9
1000
1
1002
{
1000
Class
1070
     4
1000
CON,BGD
1002
{
1002
}
1000
Color
1070
     1
1070
   256
1002
{
1002
}
1000
LType
1070
     4
1000
BYLAYER
1002
{
1002
}
1002
}
1000
CON3
1070
     9
1000
2
1002
{
1000
Class
1070
     4
1000
CON,BGD
1002
{
1002
}
1000
Color
1070
     1
1070
   256
1002
{
1002
}
1000
LType
1070
     4
1000
BYLAYER
1002
{
1002
}
1002
}
1000
CON4
1070
     9
1000
2
1002
{
1000
Class
1070
     4
1000
CON,BGD
1002
{
1002
}
1000
Color
1070
     1
1070
   256
1002
{
1002
}
1000
LType
1070
     4
1000
BYLAYER
1002
{
1002
}
1002
}
1000
DERP
1070
     9
1000
4
1002
{
1000
Class
1070
     4
1000

1002
{
1002
}
1000
Color
1070
     1
1070
   256
1002
{
1002
}
1000
LType
1070
     4
1000
BYLAYER
1002
{
1002
}
1002
}
1000
DETA
1070
     9
1000
4
1002
{
1000
Class
1070
     4
1000

1002
{
1002
}
1000
Color
1070
     1
1070
   256
1002
{
1002
}
1000
LType
1070
     4
1000
BYLAYER
1002
{
1002
}
1002
}
1000
DIAG
1070
     9
1000
5
1002
{
1000
Class
1070
     4
1000
SYM
1002
{
1002
}
1000
Color
1070
     1
1070
   256
1002
{
1002
}
1000
LType
1070
     4
1000
BYLAYER
1002
{
1002
}
1002
}
1000
DILI
1070
     9
1000
5
1002
{
1000
Class
1070
     4
1000
DIM,SYM
1002
{
1002
}
1000
Color
1070
     1
1070
   256
1002
{
1002
}
1000
LType
1070
     4
1000
BYLAYER
1002
{
1002
}
1002
}
1000
DITX
1070
     9
1000
5
1002
{
1000
Class
1070
     4
1000
DIM,SYM
1002
{
1002
}
1000
Color
1070
     1
1070
     2
1002
{
1002
}
1000
LType
1070
     4
1000
CONTINUOUS
1002
{
1002
}
1002
}
1000
DITO2
1070
     9
1000
5
1002
{
1000
Class
1070
     4
1000
DIM,SYM
1002
{
1002
}
1000
Color
1070
     1
1070
     3
1002
{
1002
}
1000
LType
1070
     4
1000
BYLAYER
1002
{
1002
}
1002
}
1000
DITO3
1070
     9
1000
5
1002
{
1000
Class
1070
     4
1000
DIM,SYM
1002
{
1002
}
1000
Color
1070
     1
1070
     2
1002
{
1002
}
1000
LType
1070
     4
1000
BYLAYER
1002
{
1002
}
1002
}
1000
DIXL
1070
     9
1000
5
1002
{
1000
Class
1070
     4
1000
DIM,SYM
1002
{
1002
}
1000
Color
1070
     1
1070
   256
1002
{
1002
}
1000
LType
1070
     4
1000
BYLAYER
1002
{
1002
}
1002
}
1000
EXMP
1070
     9
1000
4A
1002
{
1000
Class
1070
     4
1000

1002
{
1002
}
1000
Color
1070
     1
1070
   256
1002
{
1002
}
1000
LType
1070
     4
1000
BYLAYER
1002
{
1002
}
1002
}
1000
FEMN
1070
     9
1000
8
1002
{
1000
Class
1070
     4
1000

1002
{
1002
}
1000
Color
1070
     1
1070
   256
1002
{
1002
}
1000
LType
1070
     4
1000
BYLAYER
1002
{
1002
}
1002
}
1000
FEMPN
1070
     9
1000
8
1002
{
1000
Class
1070
     4
1000
SYM
1002
{
1002
}
1000
Color
1070
     1
1070
     3
1002
{
1002
}
1000
LType
1070
     4
1000
BYLAYER
1002
{
1002
}
1002
}
1000
FEMSP
1070
     9
1000
4A
1002
{
1000
Class
1070
     4
1000

1002
{
1002
}
1000
Color
1070
     1
1070
   256
1002
{
1002
}
1000
LType
1070
     4
1000
CONTINUOUS
1002
{
1002
}
1002
}
1000
FEMST
1070
     9
1000
4A
1002
{
1000
Class
1070
     4
1000
SYM
1002
{
1002
}
1000
Color
1070
     1
1070
     3
1002
{
1002
}
1000
LType
1070
     4
1000
BYLAYER
1002
{
1002
}
1002
}
1000
FEMVN
1070
     9
1000
2
1002
{
1000
Class
1070
     4
1000
CON
1002
{
1002
}
1000
Color
1070
     1
1070
   256
1002
{
1002
}
1000
LType
1070
     4
1000
BYLAYER
1002
{
1002
}
1002
}
1000
FEMVT
1070
     9
1000
2
1002
{
1000
Class
1070
     4
1000
SYM
1002
{
1002
}
1000
Color
1070
     1
1070
     3
1002
{
1002
}
1000
LType
1070
     4
1000
BYLAYER
1002
{
1002
}
1002
}
1000
FLAT
1070
     9
1000
0
1002
{
1000
Class
1070
     4
1000

1002
{
1002
}
1000
Color
1070
     1
1070
   256
1002
{
1002
}
1000
LType
1070
     4
1000
BYLAYER
1002
{
1002
}
1002
}
1000
FRAR
1070
     9
1000
4A
1002
{
1000
Class
1070
     4
1000

1002
{
1002
}
1000
Color
1070
     1
1070
   256
1002
{
1002
}
1000
LType
1070
     4
1000
BYLAYER
1002
{
1002
}
1002
}
1000
GRLI
1070
     9
1000
5
1002
{
1000
Class
1070
     4
1000
SYM
1002
{
1002
}
1000
Color
1070
     1
1070
   256
1002
{
1002
}
1000
LType
1070
     4
1000
BYLAYER
1002
{
1002
}
1002
}
1000
GVLI
1070
     9
1000
4A
1002
{
1000
Class
1070
     4
1000

1002
{
1002
}
1000
Color
1070
     1
1070
   256
1002
{
1002
}
1000
LType
1070
     4
1000
BYLAYER
1002
{
1002
}
1002
}
1000
HATC
1070
     9
1000
8
1002
{
1000
Class
1070
     4
1000
HTC,BGD
1002
{
1002
}
1000
Color
1070
     1
1070
   256
1002
{
1002
}
1000
LType
1070
     4
1000
BYLAYER
1002
{
1002
}
1002
}
1000
HIDN
1070
     9
1000
3A
1002
{
1000
Class
1070
     4
1000
HID,BGD
1002
{
1002
}
1000
Color
1070
     1
1070
   256
1002
{
1002
}
1000
LType
1070
     4
1000
BYLAYER
1002
{
1002
}
1002
}
1000
HIDW
1070
     9
1000
3
1002
{
1000
Class
1070
     4
1000
HID,BGD
1002
{
1002
}
1000
Color
1070
     1
1070
   256
1002
{
1002
}
1000
LType
1070
     4
1000
BYLAYER
1002
{
1002
}
1002
}
1000
HLIN
1070
     9
1000
4
1002
{
1000
Class
1070
     4
1000
BGD
1002
{
1002
}
1000
Color
1070
     1
1070
   256
1002
{
1002
}
1000
LType
1070
     4
1000
BYLAYER
1002
{
1002
}
1002
}
1000
HOCN
1070
     9
1000
7A
1002
{
1000
Class
1070
     4
1000
CEN
1002
{
1002
}
1000
Color
1070
     1
1070
   256
1002
{
1002
}
1000
LType
1070
     4
1000
BYLAYER
1002
{
1002
}
1002
}
1000
HOCW
1070
     9
1000
7
1002
{
1000
Class
1070
     4
1000
CEN
1002
{
1002
}
1000
Color
1070
     1
1070
   256
1002
{
1002
}
1000
LType
1070
     4
1000
BYLAYER
1002
{
1002
}
1002
}
1000
INFO
1070
     9
1000
INFO
1002
{
1000
Class
1070
     4
1000
SPZ,SYM
1002
{
1002
}
1000
Color
1070
     1
1070
   256
1002
{
1002
}
1000
LType
1070
     4
1000
BYLAYER
1002
{
1002
}
1002
}
1000
LADI
1070
     9
1000
4
1002
{
1000
Class
1070
     4
1000
BGD
1002
{
1002
}
1000
Color
1070
     1
1070
   256
1002
{
1002
}
1000
LType
1070
     4
1000
BYLAYER
1002
{
1002
}
1002
}
1000
LEAD
1070
     9
1000
5
1002
{
1000
Class
1070
     4
1000
SYM
1002
{
1002
}
1000
Color
1070
     1
1070
   256
1002
{
1002
}
1000
LType
1070
     4
1000
BYLAYER
1002
{
1002
}
1002
}
1000
N_BHNV
1070
     9
1000
9N
1002
{
1000
Class
1070
     4
1000
INV
1002
{
1002
}
1000
Color
1070
     1
1070
   256
1002
{
1002
}
1000
LType
1070
     4
1000
BYLAYER
1002
{
1002
}
1002
}
1000
N_CON1
1070
     9
1000
0N
1002
{
1000
Class
1070
     4
1000
CON,BGD
1002
{
1002
}
1000
Color
1070
     1
1070
   256
1002
{
1002
}
1000
LType
1070
     4
1000
BYLAYER
1002
{
1002
}
1002
}
1000
N_CON2
1070
     9
1000
1N
1002
{
1000
Class
1070
     4
1000
CON,BGD
1002
{
1002
}
1000
Color
1070
     1
1070
   256
1002
{
1002
}
1000
LType
1070
     4
1000
BYLAYER
1002
{
1002
}
1002
}
1000
N_CON3
1070
     9
1000
2N
1002
{
1000
Class
1070
     4
1000
CON,BGD
1002
{
1002
}
1000
Color
1070
     1
1070
   256
1002
{
1002
}
1000
LType
1070
     4
1000
BYLAYER
1002
{
1002
}
1002
}
1000
N_CON4
1070
     9
1000
2N
1002
{
1000
Class
1070
     4
1000
CON,BGD
1002
{
1002
}
1000
Color
1070
     1
1070
   256
1002
{
1002
}
1000
LType
1070
     4
1000
BYLAYER
1002
{
1002
}
1002
}
1000
N_CENN
1070
     9
1000
7AN
1002
{
1000
Class
1070
     4
1000
CEN
1002
{
1002
}
1000
Color
1070
     1
1070
   256
1002
{
1002
}
1000
LType
1070
     4
1000
BYLAYER
1002
{
1002
}
1002
}
1000
N_CENW
1070
     9
1000
7N
1002
{
1000
Class
1070
     4
1000
CEN
1002
{
1002
}
1000
Color
1070
     1
1070
   256
1002
{
1002
}
1000
LType
1070
     4
1000
BYLAYER
1002
{
1002
}
1002
}
1000
N_DILI
1070
     9
1000
5N
1002
{
1000
Class
1070
     4
1000
DIM,SYM
1002
{
1002
}
1000
Color
1070
     1
1070
   256
1002
{
1002
}
1000
LType
1070
     4
1000
BYLAYER
1002
{
1002
}
1002
}
1000
N_DITX
1070
     9
1000
5N
1002
{
1000
Class
1070
     4
1000
DIM,SYM
1002
{
1002
}
1000
Color
1070
     1
1070
     2
1002
{
1002
}
1000
LType
1070
     4
1000
CONTINUOUS
1002
{
1002
}
1002
}
1000
N_DIXL
1070
     9
1000
5N
1002
{
1000
Class
1070
     4
1000
DIM,SYM
1002
{
1002
}
1000
Color
1070
     1
1070
   256
1002
{
1002
}
1000
LType
1070
     4
1000
BYLAYER
1002
{
1002
}
1002
}
1000
N_HATC
1070
     9
1000
8N
1002
{
1000
Class
1070
     4
1000
HTC,BGD
1002
{
1002
}
1000
Color
1070
     1
1070
   256
1002
{
1002
}
1000
LType
1070
     4
1000
BYLAYER
1002
{
1002
}
1002
}
1000
N_HIDN
1070
     9
1000
3AN
1002
{
1000
Class
1070
     4
1000
HID,BGD
1002
{
1002
}
1000
Color
1070
     1
1070
   256
1002
{
1002
}
1000
LType
1070
     4
1000
BYLAYER
1002
{
1002
}
1002
}
1000
N_HIDW
1070
     9
1000
3N
1002
{
1000
Class
1070
     4
1000
HID,BGD
1002
{
1002
}
1000
Color
1070
     1
1070
   256
1002
{
1002
}
1000
LType
1070
     4
1000
BYLAYER
1002
{
1002
}
1002
}
1000
N_PHAN
1070
     9
1000
4AN
1002
{
1000
Class
1070
     4
1000

1002
{
1002
}
1000
Color
1070
     1
1070
   256
1002
{
1002
}
1000
LType
1070
     4
1000
BYLAYER
1002
{
1002
}
1002
}
1000
N_POSL
1070
     9
1000
5N
1002
{
1000
Class
1070
     4
1000
SYM
1002
{
1002
}
1000
Color
1070
     1
1070
   256
1002
{
1002
}
1000
LType
1070
     4
1000
BYLAYER
1002
{
1002
}
1002
}
1000
N_TCON
1070
     9
1000
0N
1002
{
1000
Class
1070
     4
1000
CON,BGD
1002
{
1002
}
1000
Color
1070
     1
1070
   256
1002
{
1002
}
1000
LType
1070
     4
1000
BYLAYER
1002
{
1002
}
1002
}
1000
N_THLI
1070
     9
1000
4N
1002
{
1000
Class
1070
     4
1000
BGD
1002
{
1002
}
1000
Color
1070
     1
1070
   256
1002
{
1002
}
1000
LType
1070
     4
1000
BYLAYER
1002
{
1002
}
1002
}
1000
N_TLEN
1070
     9
1000
0N
1002
{
1000
Class
1070
     4
1000
CON,BGD
1002
{
1002
}
1000
Color
1070
     1
1070
   256
1002
{
1002
}
1000
LType
1070
     4
1000
BYLAYER
1002
{
1002
}
1002
}
1000
N_TXT3
1070
     9
1000
6N
1002
{
1000
Class
1070
     4
1000
SYM
1002
{
1002
}
1000
Color
1070
     1
1070
   256
1002
{
1002
}
1000
LType
1070
     4
1000
BYLAYER
1002
{
1002
}
1002
}
1000
N_VPLI
1070
     9
1000
2AN
1002
{
1000
Class
1070
     4
1000

1002
{
1002
}
1000
Color
1070
     1
1070
   256
1002
{
1002
}
1000
LType
1070
     4
1000
BYLAYER
1002
{
1002
}
1002
}
1000
PAL2
1070
     9
1000
RAHM2
1002
{
1000
Class
1070
     4
1000
SPZ,SYM
1002
{
1002
}
1000
Color
1070
     1
1070
   256
1002
{
1002
}
1000
LType
1070
     4
1000
BYLAYER
1002
{
1002
}
1002
}
1000
PAL3
1070
     9
1000
RAHM3
1002
{
1000
Class
1070
     4
1000
SPZ,SYM
1002
{
1002
}
1000
Color
1070
     1
1070
   256
1002
{
1002
}
1000
LType
1070
     4
1000
BYLAYER
1002
{
1002
}
1002
}
1000
PAL5
1070
     9
1000
RAHM5
1002
{
1000
Class
1070
     4
1000
SPZ,SYM
1002
{
1002
}
1000
Color
1070
     1
1070
   256
1002
{
1002
}
1000
LType
1070
     4
1000
BYLAYER
1002
{
1002
}
1002
}
1000
PAL7
1070
     9
1000
RAHM5
1002
{
1000
Class
1070
     4
1000
SPZ,SYM
1002
{
1002
}
1000
Color
1070
     1
1070
     7
1002
{
1002
}
1000
LType
1070
     4
1000
CONTINUOUS
1002
{
1002
}
1002
}
1000
PHAN
1070
     9
1000
4A
1002
{
1000
Class
1070
     4
1000

1002
{
1002
}
1000
Color
1070
     1
1070
   256
1002
{
1002
}
1000
LType
1070
     4
1000
BYLAYER
1002
{
1002
}
1002
}
1000
POSL
1070
     9
1000
5
1002
{
1000
Class
1070
     4
1000
SYM
1002
{
1002
}
1000
Color
1070
     1
1070
   256
1002
{
1002
}
1000
LType
1070
     4
1000
BYLAYER
1002
{
1002
}
1002
}
1000
POSN
1070
     9
1000
6
1002
{
1000
Class
1070
     4
1000
SYM
1002
{
1002
}
1000
Color
1070
     1
1070
     7
1002
{
1002
}
1000
LType
1070
     4
1000
BYLAYER
1002
{
1002
}
1002
}
1000
POSREF
1070
     9
1000
6
1002
{
1000
Class
1070
     4
1000
SYM
1002
{
1002
}
1000
Color
1070
     1
1070
     5
1002
{
1002
}
1000
LType
1070
     4
1000
BYLAYER
1002
{
1002
}
1002
}
1000
POSX
1070
     9
1000
5
1002
{
1000
Class
1070
     4
1000
SYM
1002
{
1002
}
1000
Color
1070
     1
1070
     2
1002
{
1002
}
1000
LType
1070
     4
1000
CONTINUOUS
1002
{
1002
}
1002
}
1000
PSEC
1070
     9
1000
4A
1002
{
1000
Class
1070
     4
1000

1002
{
1002
}
1000
Color
1070
     1
1070
   256
1002
{
1002
}
1000
LType
1070
     4
1000
BYLAYER
1002
{
1002
}
1002
}
1000
RCGN
1070
     9
1000
7A
1002
{
1000
Class
1070
     4
1000
CEN
1002
{
1002
}
1000
Color
1070
     1
1070
   256
1002
{
1002
}
1000
LType
1070
     4
1000
BYLAYER
1002
{
1002
}
1002
}
1000
RCGW
1070
     9
1000
7
1002
{
1000
Class
1070
     4
1000
CEN
1002
{
1002
}
1000
Color
1070
     1
1070
   256
1002
{
1002
}
1000
LType
1070
     4
1000
BYLAYER
1002
{
1002
}
1002
}
1000
RFDI
1070
     9
1000
4
1002
{
1000
Class
1070
     4
1000
BGD
1002
{
1002
}
1000
Color
1070
     1
1070
   256
1002
{
1002
}
1000
LType
1070
     4
1000
BYLAYER
1002
{
1002
}
1002
}
1000
RQTR
1070
     9
1000
4
1002
{
1000
Class
1070
     4
1000

1002
{
1002
}
1000
Color
1070
     1
1070
     7
1002
{
1002
}
1000
LType
1070
     4
1000
GEN7A
1002
{
1002
}
1002
}
1000
RSBO
1070
     9
1000
4
1002
{
1000
Class
1070
     4
1000
BGD
1002
{
1002
}
1000
Color
1070
     1
1070
   256
1002
{
1002
}
1000
LType
1070
     4
1000
BYLAYER
1002
{
1002
}
1002
}
1000
SBRK
1070
     9
1000
4
1002
{
1000
Class
1070
     4
1000
BGD
1002
{
1002
}
1000
Color
1070
     1
1070
   256
1002
{
1002
}
1000
LType
1070
     4
1000
BYLAYER
1002
{
1002
}
1002
}
1000
SCEN
1070
     9
1000
7
1002
{
1000
Class
1070
     4
1000

1002
{
1002
}
1000
Color
1070
     1
1070
   256
1002
{
1002
}
1000
LType
1070
     4
1000
CONTINUOUS
1002
{
1002
}
1002
}
1000
SECT
1070
     9
1000
4
1002
{
1000
Class
1070
     4
1000
BGD
1002
{
1002
}
1000
Color
1070
     1
1070
   256
1002
{
1002
}
1000
LType
1070
     4
1000
BYLAYER
1002
{
1002
}
1002
}
1000
SELN
1070
     9
1000
7A
1002
{
1000
Class
1070
     4
1000

1002
{
1002
}
1000
Color
1070
     1
1070
   256
1002
{
1002
}
1000
LType
1070
     4
1000
BYLAYER
1002
{
1002
}
1002
}
1000
SELW
1070
     9
1000
7
1002
{
1000
Class
1070
     4
1000

1002
{
1002
}
1000
Color
1070
     1
1070
   256
1002
{
1002
}
1000
LType
1070
     4
1000
BYLAYER
1002
{
1002
}
1002
}
1000
SSYS
1070
     9
1000
0
1002
{
1000
Class
1070
     4
1000

1002
{
1002
}
1000
Color
1070
     1
1070
   256
1002
{
1002
}
1000
LType
1070
     4
1000
BYLAYER
1002
{
1002
}
1002
}
1000
STLI
1070
     9
1000
4
1002
{
1000
Class
1070
     4
1000

1002
{
1002
}
1000
Color
1070
     1
1070
     7
1002
{
1002
}
1000
LType
1070
     4
1000
GEN3A
1002
{
1002
}
1002
}
1000
SYB1
1070
     9
1000
5
1002
{
1000
Class
1070
     4
1000
SYM
1002
{
1002
}
1000
Color
1070
     1
1070
   256
1002
{
1002
}
1000
LType
1070
     4
1000
BYLAYER
1002
{
1002
}
1002
}
1000
SYB2
1070
     9
1000
5
1002
{
1000
Class
1070
     4
1000
SYM
1002
{
1002
}
1000
Color
1070
     1
1070
   256
1002
{
1002
}
1000
LType
1070
     4
1000
BYLAYER
1002
{
1002
}
1002
}
1000
SYB3
1070
     9
1000
6
1002
{
1000
Class
1070
     4
1000
SYM
1002
{
1002
}
1000
Color
1070
     1
1070
   256
1002
{
1002
}
1000
LType
1070
     4
1000
CONTINUOUS
1002
{
1002
}
1002
}
1000
SYB5
1070
     9
1000
5
1002
{
1000
Class
1070
     4
1000
SYM
1002
{
1002
}
1000
Color
1070
     1
1070
     7
1002
{
1002
}
1000
LType
1070
     4
1000
BYLAYER
1002
{
1002
}
1002
}
1000
SYMN
1070
     9
1000
7A
1002
{
1000
Class
1070
     4
1000
CEN
1002
{
1002
}
1000
Color
1070
     1
1070
   256
1002
{
1002
}
1000
LType
1070
     4
1000
BYLAYER
1002
{
1002
}
1002
}
1000
SYMW
1070
     9
1000
7
1002
{
1000
Class
1070
     4
1000
CEN
1002
{
1002
}
1000
Color
1070
     1
1070
   256
1002
{
1002
}
1000
LType
1070
     4
1000
BYLAYER
1002
{
1002
}
1002
}
1000
TCON
1070
     9
1000
0
1002
{
1000
Class
1070
     4
1000
CON,BGD
1002
{
1002
}
1000
Color
1070
     1
1070
   256
1002
{
1002
}
1000
LType
1070
     4
1000
BYLAYER
1002
{
1002
}
1002
}
1000
THLI
1070
     9
1000
4
1002
{
1000
Class
1070
     4
1000
BGD
1002
{
1002
}
1000
Color
1070
     1
1070
   256
1002
{
1002
}
1000
LType
1070
     4
1000
BYLAYER
1002
{
1002
}
1002
}
1000
TIT2
1070
     9
1000
RAHM2
1002
{
1000
Class
1070
     4
1000
SPZ,SYM
1002
{
1002
}
1000
Color
1070
     1
1070
   256
1002
{
1002
}
1000
LType
1070
     4
1000
BYLAYER
1002
{
1002
}
1002
}
1000
TIT3
1070
     9
1000
RAHM3
1002
{
1000
Class
1070
     4
1000
SPZ,SYM
1002
{
1002
}
1000
Color
1070
     1
1070
   256
1002
{
1002
}
1000
LType
1070
     4
1000
BYLAYER
1002
{
1002
}
1002
}
1000
TIT5
1070
     9
1000
RAHM5
1002
{
1000
Class
1070
     4
1000
SPZ,SYM
1002
{
1002
}
1000
Color
1070
     1
1070
   256
1002
{
1002
}
1000
LType
1070
     4
1000
BYLAYER
1002
{
1002
}
1002
}
1000
TIT7
1070
     9
1000
RAHM5
1002
{
1000
Class
1070
     4
1000
SPZ,SYM
1002
{
1002
}
1000
Color
1070
     1
1070
     7
1002
{
1002
}
1000
LType
1070
     4
1000
CONTINUOUS
1002
{
1002
}
1002
}
1000
TLEN
1070
     9
1000
0
1002
{
1000
Class
1070
     4
1000
CON,BGD
1002
{
1002
}
1000
Color
1070
     1
1070
   256
1002
{
1002
}
1000
LType
1070
     4
1000
BYLAYER
1002
{
1002
}
1002
}
1000
TRKN
1070
     9
1000
7A
1002
{
1000
Class
1070
     4
1000

1002
{
1002
}
1000
Color
1070
     1
1070
   256
1002
{
1002
}
1000
LType
1070
     4
1000
BYLAYER
1002
{
1002
}
1002
}
1000
TRKW
1070
     9
1000
7
1002
{
1000
Class
1070
     4
1000

1002
{
1002
}
1000
Color
1070
     1
1070
   256
1002
{
1002
}
1000
LType
1070
     4
1000
BYLAYER
1002
{
1002
}
1002
}
1000
TRLI
1070
     9
1000
4
1002
{
1000
Class
1070
     4
1000
BGD
1002
{
1002
}
1000
Color
1070
     1
1070
   256
1002
{
1002
}
1000
LType
1070
     4
1000
BYLAYER
1002
{
1002
}
1002
}
1000
TXT1
1070
     9
1000
6
1002
{
1000
Class
1070
     4
1000
SYM
1002
{
1002
}
1000
Color
1070
     1
1070
     2
1002
{
1002
}
1000
LType
1070
     4
1000
BYLAYER
1002
{
1002
}
1002
}
1000
TXT2
1070
     9
1000
6
1002
{
1000
Class
1070
     4
1000
SYM
1002
{
1002
}
1000
Color
1070
     1
1070
     2
1002
{
1002
}
1000
LType
1070
     4
1000
BYLAYER
1002
{
1002
}
1002
}
1000
TXT3
1070
     9
1000
6
1002
{
1000
Class
1070
     4
1000
SYM
1002
{
1002
}
1000
Color
1070
     1
1070
   256
1002
{
1002
}
1000
LType
1070
     4
1000
BYLAYER
1002
{
1002
}
1002
}
1000
TXT5
1070
     9
1000
6
1002
{
1000
Class
1070
     4
1000
SYM
1002
{
1002
}
1000
Color
1070
     1
1070
     7
1002
{
1002
}
1000
LType
1070
     4
1000
BYLAYER
1002
{
1002
}
1002
}
1000
TXT7
1070
     9
1000
6
1002
{
1000
Class
1070
     4
1000
SYM
1002
{
1002
}
1000
Color
1070
     1
1070
     7
1002
{
1002
}
1000
LType
1070
     4
1000
BYLAYER
1002
{
1002
}
1002
}
1000
VIEW
1070
     9
1000
VIEW
1002
{
1000
Class
1070
     4
1000
SPZ
1002
{
1002
}
1000
Color
1070
     1
1070
   256
1002
{
1002
}
1000
LType
1070
     4
1000
BYLAYER
1002
{
1002
}
1002
}
1000
VPLI
1070
     9
1000
2A
1002
{
1000
Class
1070
     4
1000

1002
{
1002
}
1000
Color
1070
     1
1070
   256
1002
{
1002
}
1000
LType
1070
     4
1000
BYLAYER
1002
{
1002
}
1002
}
1000
ZIZA
1070
     9
1000
4
1002
{
1000
Class
1070
     4
1000
BGD
1002
{
1002
}
1000
Color
1070
     1
1070
   256
1002
{
1002
}
1000
LType
1070
     4
1000
GENZIGZAG
1002
{
1002
}
1002
}
  0
APPID
  5
543
100
AcDbSymbolTableRecord
100
AcDbRegAppTableRecord
  2
GENIUS_GENCFG3_13
 70
     0
1001
GENIUS_GENCFG_13
1071
881231638
1000
543
1000
GEN@OSWIZ
1070
    12
1000
GenCfgObject
1000
GenCfgShort
1000
GenCfgReal
1000
GenCfgBool
1000
GenCfgString
1000
GenCfgDim
1000
GenCfgAttrInf
1000
GenCfgLaySection
1000
GenCfgLayer
1000
GenCfgEntSort
1000
GenCfgLType
1000
GenCfgFilter
1000
AngleStep
1070
     0
1002
{
1000
M
1070
     2
1040
10.0
1002
{
1002
}
1000
I
1070
     2
1040
0.4
1002
{
1002
}
1002
}
1000
AngleIncr
1070
     2
1040
45.0
1002
{
1002
}
1000
Filter
1070
     0
1002
{
1000
HATCH
1070
    11
1002
{
1000
EntityType
1070
     4
1000
LINE
1002
{
1002
}
1000
Layer
1070
     4
1000
8,8N,*-8,*-8N
1002
{
1002
}
1000
Linetype
1070
     4
1000
*
1002
{
1002
}
1000
Color
1070
     4
1000
*
1002
{
1002
}
1002
}
1000
SYMBOLS
1070
    11
1002
{
1000
EntityType
1070
     4
1000
*
1002
{
1002
}
1000
Layer
1070
     4
1000
[5-6],[5-6]N,*-[5-6],*-[5-6]N
1002
{
1002
}
1000
Linetype
1070
     4
1000
*
1002
{
1002
}
1000
Color
1070
     4
1000
*
1002
{
1002
}
1002
}
1000
FEM
1070
    11
1002
{
1000
EntityType
1070
     4
1000
*
1002
{
1002
}
1000
Layer
1070
     4
1000
4A,4AN,*-4A,*-4AN
1002
{
1002
}
1000
Linetype
1070
     4
1000
*
1002
{
1002
}
1000
Color
1070
     4
1000
*
1002
{
1002
}
1002
}
1002
}
1000
IconSize
1070
     2
1040
1.0
1002
{
1002
}
1000
SnapColor
1070
     1
1070
     3
1002
{
1002
}
  0
APPID
  5
544
100
AcDbSymbolTableRecord
100
AcDbRegAppTableRecord
  2
GENIUS_GENCFG4_13
 70
     0
1001
GENIUS_GENCFG_13
1071
881231759
1000
544
1000
GEN
1070
     9
1000
GenCfgObject
1000
GenCfgShort
1000
GenCfgReal
1000
GenCfgBool
1000
GenCfgString
1000
GenCfgDim
1000
GenCfgAttrInf
1000
GenCfgLaySection
1000
GenCfgLType
1000
Balloon
1070
     0
1002
{
1000
GenIF
1070
     1
1070
     0
1002
{
1002
}
1000
GenPosInc
1070
     1
1070
    10
1002
{
1002
}
1000
GenPosBlk
1070
     1
1070
     8
1002
{
1002
}
1000
GenPosVar
1070
     1
1070
     2
1002
{
1002
}
1000
GenZiCir
1070
     2
1040
1.5
1002
{
1002
}
1000
MaxCharForCenteredText
1070
     1
1070
    30
1002
{
1002
}
1000
Snap
1070
     0
1002
{
1000
ActivationRadius
1070
     2
1040
1.0
1002
{
1002
}
1000
M
1070
     0
1002
{
1000
SnapStepX
1070
     2
1040
20.0
1002
{
1002
}
1000
SnapStepY
1070
     2
1040
10.0
1002
{
1002
}
1002
}
1000
I
1070
     0
1002
{
1000
SnapStepX
1070
     2
1040
1.0
1002
{
1002
}
1000
SnapStepY
1070
     2
1040
0.5
1002
{
1002
}
1002
}
1002
}
1002
}
1000
Centerline
1070
     0
1002
{
1000
ScaleNot
1070
     3
1070
     1
1002
{
1002
}
1000
M
1070
     0
1002
{
1000
GenCenAng
1070
     4
1000
45|90|135
1002
{
1002
}
1000
GenCenDia
1070
     2
1040
10.0
1002
{
1002
}
1000
GenCenDias
1070
     4
1000
10|20|30
1002
{
1002
}
1000
GenCenDist
1070
     2
1040
3.0
1002
{
1002
}
1000
GenCenLen
1070
     2
1040
10.0
1002
{
1002
}
1000
GenCenOff
1070
     2
1040
10.0
1002
{
1002
}
1002
}
1000
I
1070
     0
1002
{
1000
GenCenAng
1070
     4
1000
45|90|135
1002
{
1002
}
1000
GenCenDia
1070
     2
1040
0.5
1002
{
1002
}
1000
GenCenDias
1070
     4
1000
0.5|1.0|1.5
1002
{
1002
}
1000
GenCenDist
1070
     2
1040
0.125
1002
{
1002
}
1000
GenCenLen
1070
     2
1040
0.5
1002
{
1002
}
1000
GenCenOff
1070
     2
1040
0.5
1002
{
1002
}
1002
}
1002
}
1000
CLine
1070
     0
1002
{
1000
CAngArray
1070
     4
1000
30|45|60
1002
{
1002
}
1000
Typ
1070
     4
1000
XLINE
1002
{
1002
}
1000
M
1070
     0
1002
{
1000
CLinArray
1070
     4
1000
60
1002
{
1002
}
1002
}
1000
I
1070
     0
1002
{
1000
CLinArray
1070
     4
1000
0.125|0.25|0.5
1002
{
1002
}
1002
}
1002
}
1000
Constraints
1070
     0
1002
{
1000
Color
1070
     0
1002
{
1000
Active_Frame
1070
     1
1070
     2
1002
{
1002
}
1000
Inactive_Frame
1070
     1
1070
     8
1002
{
1002
}
1002
}
1000
Debug
1070
     0
1002
{
1002
}
1000
Editor
1070
     0
1002
{
1002
}
1000
Frame
1070
     0
1002
{
1002
}
1000
Sys
1070
     0
1002
{
1002
}
1002
}
1000
Detail
1070
     0
1002
{
1002
}
1000
Dimension
1070
     5
1002
{
1000
DIMALT
1070
     1
1070
     0
1002
{
1002
}
1000
DIMALTD
1070
     1
1070
     2
1002
{
1002
}
1000
DIMALTTD
1070
     1
1070
     4
1002
{
1002
}
1000
DIMALTTZ
1070
     1
1070
     0
1002
{
1002
}
1000
DIMALTU
1070
     1
1070
     2
1002
{
1002
}
1000
DIMALTZ
1070
     1
1070
     0
1002
{
1002
}
1000
DIMAPOST
1070
     4
1000

1002
{
1002
}
1000
DIMAUNIT
1070
     1
1070
     0
1002
{
1002
}
1000
DIMBLK
1070
     4
1000

1002
{
1002
}
1000
DIMBLK1
1070
     4
1000

1002
{
1002
}
1000
DIMBLK2
1070
     4
1000

1002
{
1002
}
1000
DIMDLE
1070
     2
1040
0.0
1002
{
1002
}
1000
DIMFIT
1070
     1
1070
     3
1002
{
1002
}
1000
DIMJUST
1070
     1
1070
     0
1002
{
1002
}
1000
DIMLFAC
1070
     2
1040
1.0
1002
{
1002
}
1000
DIMLIM
1070
     1
1070
     0
1002
{
1002
}
1000
DIMPOST
1070
     4
1000
<>
1002
{
1002
}
1000
DIMRND
1070
     2
1040
0.0
1002
{
1002
}
1000
DIMSAH
1070
     1
1070
     0
1002
{
1002
}
1000
DIMSCALE
1070
     2
1040
1.0
1002
{
1002
}
1000
DIMSD1
1070
     1
1070
     0
1002
{
1002
}
1000
DIMSD2
1070
     1
1070
     0
1002
{
1002
}
1000
DIMSE1
1070
     1
1070
     0
1002
{
1002
}
1000
DIMSE2
1070
     1
1070
     0
1002
{
1002
}
1000
DIMSOXD
1070
     1
1070
     0
1002
{
1002
}
1000
DIMTAD
1070
     1
1070
     0
1002
{
1002
}
1000
DIMTFAC
1070
     2
1040
0.71
1002
{
1002
}
1000
DIMTIH
1070
     1
1070
     0
1002
{
1002
}
1000
DIMTIX
1070
     1
1070
     0
1002
{
1002
}
1000
DIMTM
1070
     2
1040
0.1
1002
{
1002
}
1000
DIMTOFL
1070
     1
1070
     0
1002
{
1002
}
1000
DIMTOH
1070
     1
1070
     0
1002
{
1002
}
1000
DIMTOL
1070
     1
1070
     0
1002
{
1002
}
1000
DIMTOLJ
1070
     1
1070
     1
1002
{
1002
}
1000
DIMTP
1070
     2
1040
0.1
1002
{
1002
}
1000
DIMTSZ
1070
     2
1040
0.0
1002
{
1002
}
1000
DIMTVP
1070
     2
1040
0.0
1002
{
1002
}
1000
DIMTXSTY
1070
     4
1000
STANDARD
1002
{
1002
}
1000
DIMTZIN
1070
     1
1070
     0
1002
{
1002
}
1000
DIMUNIT
1070
     1
1070
     2
1002
{
1002
}
1000
DIMUPT
1070
     1
1070
     0
1002
{
1002
}
1000
M
1070
     0
1002
{
1000
DIMALTF
1070
     2
1040
0.03937
1002
{
1002
}
1000
DIMASZ
1070
     2
1040
2.5
1002
{
1002
}
1000
DIMCEN
1070
     2
1040
0.0
1002
{
1002
}
1000
DIMDEC
1070
     1
1070
     2
1002
{
1002
}
1000
DIMDLI
1070
     2
1040
7.0
1002
{
1002
}
1000
DIMEXE
1070
     2
1040
1.0
1002
{
1002
}
1000
DIMEXO
1070
     2
1040
1.0
1002
{
1002
}
1000
DIMGAP
1070
     2
1040
0.6
1002
{
1002
}
1000
DIMTDEC
1070
     1
1070
     3
1002
{
1002
}
1000
DIMTXT
1070
     2
1040
3.5
1002
{
1002
}
1000
DIMZIN
1070
     1
1070
     8
1002
{
1002
}
1002
}
1000
I
1070
     0
1002
{
1000
DIMALTF
1070
     2
1040
25.4
1002
{
1002
}
1000
DIMASZ
1070
     2
1040
0.1
1002
{
1002
}
1000
DIMCEN
1070
     2
1040
0.0
1002
{
1002
}
1000
DIMDEC
1070
     1
1070
     4
1002
{
1002
}
1000
DIMDLI
1070
     2
1040
0.5
1002
{
1002
}
1000
DIMEXE
1070
     2
1040
0.1
1002
{
1002
}
1000
DIMEXO
1070
     2
1040
0.05
1002
{
1002
}
1000
DIMGAP
1070
     2
1040
0.06
1002
{
1002
}
1000
DIMTDEC
1070
     1
1070
     4
1002
{
1002
}
1000
DIMTXT
1070
     2
1040
0.12
1002
{
1002
}
1000
DIMZIN
1070
     1
1070
     7
1002
{
1002
}
1002
}
1000
GEN-ISO
1070
     5
1002
{
1000
NAME
1070
     4
1000
GEN-ISO
1002
{
1002
}
1000
DIMTAD
1070
     1
1070
     1
1002
{
1002
}
1000
DIMTOLJ
1070
     1
1070
     0
1002
{
1002
}
1000
DIMTOFL
1070
     1
1070
     1
1002
{
1002
}
1000
M
1070
     0
1002
{
1002
}
1000
I
1070
     0
1002
{
1002
}
1002
}
1000
GEN-ISO-POS
1070
     5
1002
{
1000
NAME
1070
     4
1000
GEN-ISO-POS
1002
{
1002
}
1000
DIMTOLJ
1070
     1
1070
     0
1002
{
1002
}
1000
M
1070
     0
1002
{
1000
DIMASZ
1070
     2
1040
2.5
1002
{
1002
}
1000
DIMGAP
1070
     2
1040
1.5
1002
{
1002
}
1000
DIMTXT
1070
     2
1040
5.0
1002
{
1002
}
1002
}
1000
I
1070
     0
1002
{
1000
DIMASZ
1070
     2
1040
0.1
1002
{
1002
}
1000
DIMGAP
1070
     2
1040
0.06
1002
{
1002
}
1000
DIMTXT
1070
     2
1040
0.2
1002
{
1002
}
1002
}
1000
DIMSCALE
1070
     2
1040
1.0
1002
{
1002
}
1002
}
1000
GEN-ISO-CIR
1070
     5
1002
{
1000
NAME
1070
     4
1000
GEN-ISO$3
1002
{
1002
}
1000
DIMFIT
1070
     1
1070
     0
1002
{
1002
}
1000
DIMTAD
1070
     1
1070
     1
1002
{
1002
}
1000
DIMTIH
1070
     1
1070
     0
1002
{
1002
}
1000
DIMTIX
1070
     1
1070
     0
1002
{
1002
}
1000
DIMTOH
1070
     1
1070
     1
1002
{
1002
}
1000
DIMTOLJ
1070
     1
1070
     0
1002
{
1002
}
1000
DIMTOFL
1070
     1
1070
     0
1002
{
1002
}
1000
DIMUPT
1070
     1
1070
     1
1002
{
1002
}
1000
M
1070
     0
1002
{
1002
}
1000
I
1070
     0
1002
{
1002
}
1002
}
1000
GEN-ISO-RAD
1070
     5
1002
{
1000
NAME
1070
     4
1000
GEN-ISO$4
1002
{
1002
}
1000
DIMFIT
1070
     1
1070
     0
1002
{
1002
}
1000
DIMTAD
1070
     1
1070
     1
1002
{
1002
}
1000
DIMTIH
1070
     1
1070
     0
1002
{
1002
}
1000
DIMTIX
1070
     1
1070
     0
1002
{
1002
}
1000
DIMTOH
1070
     1
1070
     1
1002
{
1002
}
1000
DIMTOLJ
1070
     1
1070
     0
1002
{
1002
}
1000
DIMTOFL
1070
     1
1070
     0
1002
{
1002
}
1000
DIMUPT
1070
     1
1070
     1
1002
{
1002
}
1000
M
1070
     0
1002
{
1002
}
1000
I
1070
     0
1002
{
1002
}
1002
}
1000
GEN-ISO-ORD
1070
     5
1002
{
1000
NAME
1070
     4
1000
GEN-ISO$6
1002
{
1002
}
1000
DIMTOLJ
1070
     1
1070
     0
1002
{
1002
}
1000
M
1070
     0
1002
{
1002
}
1000
I
1070
     0
1002
{
1002
}
1002
}
1000
GEN-ISO-AXE-F
1070
     5
1002
{
1000
NAME
1070
     4
1000
GEN-ISO-AXE-F
1002
{
1002
}
1000
DIMSE1
1070
     1
1070
     1
1002
{
1002
}
1000
DIMSE2
1070
     1
1070
     1
1002
{
1002
}
1000
DIMTAD
1070
     1
1070
     1
1002
{
1002
}
1000
DIMTOLJ
1070
     1
1070
     0
1002
{
1002
}
1000
DIMTOFL
1070
     1
1070
     1
1002
{
1002
}
1000
M
1070
     0
1002
{
1002
}
1000
I
1070
     0
1002
{
1002
}
1002
}
1000
GEN-ISO-AXE-H
1070
     5
1002
{
1000
DIMBLK1
1070
     4
1000
GENAXEH
1002
{
1002
}
1000
DIMLFAC
1070
     2
1040
2.0
1002
{
1002
}
1000
DIMSAH
1070
     1
1070
     1
1002
{
1002
}
1000
DIMSE1
1070
     1
1070
     1
1002
{
1002
}
1000
DIMSE2
1070
     1
1070
     1
1002
{
1002
}
1000
DIMTAD
1070
     1
1070
     1
1002
{
1002
}
1000
DIMTOLJ
1070
     1
1070
     0
1002
{
1002
}
1000
DIMTOFL
1070
     1
1070
     1
1002
{
1002
}
1000
M
1070
     0
1002
{
1002
}
1000
I
1070
     0
1002
{
1002
}
1002
}
1000
GEN-ANSI
1070
     5
1002
{
1000
NAME
1070
     4
1000
GEN-ANSI
1002
{
1002
}
1000
DIMTIH
1070
     1
1070
     1
1002
{
1002
}
1000
DIMTOH
1070
     1
1070
     1
1002
{
1002
}
1000
DIMTAD
1070
     1
1070
     0
1002
{
1002
}
1000
DIMTOLJ
1070
     1
1070
     1
1002
{
1002
}
1000
M
1070
     0
1002
{
1002
}
1000
I
1070
     0
1002
{
1002
}
1002
}
1000
GEN-ANSI-POS
1070
     5
1002
{
1000
NAME
1070
     4
1000
GEN-ANSI-POS
1002
{
1002
}
1000
DIMTOLJ
1070
     1
1070
     1
1002
{
1002
}
1000
M
1070
     0
1002
{
1000
DIMASZ
1070
     2
1040
2.5
1002
{
1002
}
1000
DIMGAP
1070
     2
1040
1.5
1002
{
1002
}
1000
DIMTXT
1070
     2
1040
5.0
1002
{
1002
}
1002
}
1000
I
1070
     0
1002
{
1000
DIMASZ
1070
     2
1040
0.1
1002
{
1002
}
1000
DIMGAP
1070
     2
1040
0.06
1002
{
1002
}
1000
DIMTXT
1070
     2
1040
0.2
1002
{
1002
}
1002
}
1002
}
1000
GEN-ANSI-CIR
1070
     5
1002
{
1000
NAME
1070
     4
1000
GEN-ANSI$3
1002
{
1002
}
1000
DIMFIT
1070
     1
1070
     0
1002
{
1002
}
1000
DIMTAD
1070
     1
1070
     0
1002
{
1002
}
1000
DIMTIH
1070
     1
1070
     1
1002
{
1002
}
1000
DIMTIX
1070
     1
1070
     0
1002
{
1002
}
1000
DIMTOFL
1070
     1
1070
     0
1002
{
1002
}
1000
DIMTOH
1070
     1
1070
     1
1002
{
1002
}
1000
DIMTOLJ
1070
     1
1070
     1
1002
{
1002
}
1000
DIMUPT
1070
     1
1070
     1
1002
{
1002
}
1000
M
1070
     0
1002
{
1002
}
1000
I
1070
     0
1002
{
1002
}
1002
}
1000
GEN-ANSI-RAD
1070
     5
1002
{
1000
NAME
1070
     4
1000
GEN-ANSI$4
1002
{
1002
}
1000
DIMFIT
1070
     1
1070
     0
1002
{
1002
}
1000
DIMTAD
1070
     1
1070
     0
1002
{
1002
}
1000
DIMTIH
1070
     1
1070
     1
1002
{
1002
}
1000
DIMTIX
1070
     1
1070
     0
1002
{
1002
}
1000
DIMTOFL
1070
     1
1070
     0
1002
{
1002
}
1000
DIMTOH
1070
     1
1070
     1
1002
{
1002
}
1000
DIMTOLJ
1070
     1
1070
     1
1002
{
1002
}
1000
DIMUPT
1070
     1
1070
     1
1002
{
1002
}
1000
M
1070
     0
1002
{
1002
}
1000
I
1070
     0
1002
{
1002
}
1002
}
1000
GEN-ANSI-ORD
1070
     5
1002
{
1000
NAME
1070
     4
1000
GEN-ANSI$6
1002
{
1002
}
1000
DIMTAD
1070
     1
1070
     0
1002
{
1002
}
1000
DIMTIH
1070
     1
1070
     1
1002
{
1002
}
1000
DIMTOH
1070
     1
1070
     1
1002
{
1002
}
1000
DIMTOLJ
1070
     1
1070
     1
1002
{
1002
}
1000
M
1070
     0
1002
{
1002
}
1000
I
1070
     0
1002
{
1002
}
1002
}
1000
GEN-ANSI-AXE-F
1070
     5
1002
{
1000
NAME
1070
     4
1000
GEN-ANSI-AXE-F
1002
{
1002
}
1000
DIMBLK1
1070
     4
1000
GENAXEH
1002
{
1002
}
1000
DIMSAH
1070
     1
1070
     1
1002
{
1002
}
1000
DIMSE1
1070
     1
1070
     1
1002
{
1002
}
1000
DIMSE2
1070
     1
1070
     1
1002
{
1002
}
1000
DIMTAD
1070
     1
1070
     0
1002
{
1002
}
1000
DIMTIH
1070
     1
1070
     1
1002
{
1002
}
1000
DIMTOH
1070
     1
1070
     1
1002
{
1002
}
1000
DIMTOLJ
1070
     1
1070
     1
1002
{
1002
}
1000
M
1070
     0
1002
{
1002
}
1000
I
1070
     0
1002
{
1002
}
1002
}
1000
GEN-ANSI-AXE-H
1070
     5
1002
{
1000
NAME
1070
     4
1000
GEN-ANSI-AXE-H
1002
{
1002
}
1000
DIMBLK1
1070
     4
1000
GENAXEH
1002
{
1002
}
1000
DIMLFAC
1070
     2
1040
2.0
1002
{
1002
}
1000
DIMSAH
1070
     1
1070
     1
1002
{
1002
}
1000
DIMSE1
1070
     1
1070
     1
1002
{
1002
}
1000
DIMSE2
1070
     1
1070
     1
1002
{
1002
}
1000
DIMTAD
1070
     1
1070
     0
1002
{
1002
}
1000
DIMTOFL
1070
     1
1070
     1
1002
{
1002
}
1000
DIMTOLJ
1070
     1
1070
     1
1002
{
1002
}
1000
M
1070
     0
1002
{
1002
}
1000
I
1070
     0
1002
{
1002
}
1002
}
1000
DIMZIN
1070
     1
1070
     8
1002
{
1002
}
1002
}
1000
DimSet
1070
     0
1002
{
1000
ChainSum
1070
     3
1070
     0
1002
{
1002
}
1000
DimDclTyp0
1070
     4
1000
dim23
1002
{
1002
}
1000
HorBra
1070
     3
1070
     0
1002
{
1002
}
1000
StrDia
1070
     4
1000
%%c<>
1002
{
1002
}
1000
StrRad
1070
     4
1000
R<>
1002
{
1002
}
1000
TextMinus
1070
     4
1000
<>
1002
{
1002
}
1000
TextPlus
1070
     4
1000
<>
1002
{
1002
}
1000
M
1070
     0
1002
{
1000
DimdliFirst
1070
     2
1040
10.0
1002
{
1002
}
1000
PointMakeDist
1070
     2
1040
10.0
1002
{
1002
}
1002
}
1000
I
1070
     0
1002
{
1000
DimdliFirst
1070
     2
1040
0.5
1002
{
1002
}
1000
PointMakeDist
1070
     2
1040
0.5
1002
{
1002
}
1002
}
1002
}
1000
Drawing
1070
     0
1002
{
1000
ChamferDimMode
1070
     1
1070
     2
1002
{
1002
}
1000
Gen_Fiso
1070
    -3
1040
1.0
1002
{
1002
}
1000
GenDimStil
1070
     4
1000
ISO
1002
{
1002
}
1000
GenDwgUScale
1070
     2
1040
1.0
1002
{
1002
}
1000
GenInch
1070
     4
1000
M
1002
{
1002
}
1000
GenPlotScale
1070
     4
1000
1:1
1002
{
1002
}
1000
Revisi
1070
     4
1000
0
1002
{
1002
}
1000
Version
1070
    -5
1000
13.1/May  9 1996
1002
{
1002
}
1000
Platform
1070
    -5
1000
WINNT
1002
{
1002
}
1002
}
1000
DwgVar
1070
     0
1002
{
1000
M
1070
     0
1002
{
1002
}
1000
I
1070
     0
1002
{
1002
}
1002
}
1000
Hatch
1070
     0
1002
{
1000
GenHtcFlag
1070
     3
1070
     0
1002
{
1002
}
1002
}
1000
Info_Pos
1070
     0
1002
{
1000
DescrText
1070
     4
1000
5,6,7,8
1002
{
1002
}
1000
Attrib
1070
     0
1002
{
1000
0
1070
     6
1002
{
1000
Prompt
1070
     4
1000
(genmsg gendwg 103)
1002
{
1002
}
1000
Value
1070
     4
1000

1002
{
1002
}
1000
EditFlag
1070
     1
1070
     0
1002
{
1002
}
1002
}
1000
1
1070
     6
1002
{
1000
Prompt
1070
     4
1000
(genmsg gendwg 31)
1002
{
1002
}
1000
Value
1070
     4
1000
1
1002
{
1002
}
1000
EditFlag
1070
     1
1070
     1
1002
{
1002
}
1002
}
1000
2
1070
     6
1002
{
1000
Prompt
1070
     4
1000
(genmsg gendwg 32)
1002
{
1002
}
1000
Value
1070
     4
1000
1
1002
{
1002
}
1000
EditFlag
1070
     1
1070
     1
1002
{
1002
}
1002
}
1000
3
1070
     6
1002
{
1000
Prompt
1070
     4
1000
(genmsg gendwg 33)
1002
{
1002
}
1000
Value
1070
     4
1000

1002
{
1002
}
1000
EditFlag
1070
     1
1070
     1
1002
{
1002
}
1002
}
1000
4
1070
     6
1002
{
1000
Prompt
1070
     4
1000
(genmsg gendwg 34)
1002
{
1002
}
1000
Value
1070
     4
1000

1002
{
1002
}
1000
EditFlag
1070
     1
1070
     1
1002
{
1002
}
1002
}
1000
5
1070
     6
1002
{
1000
Prompt
1070
     4
1000
(genmsg gendwg 35)
1002
{
1002
}
1000
Value
1070
     4
1000

1002
{
1002
}
1000
EditFlag
1070
     1
1070
     1
1002
{
1002
}
1002
}
1000
6
1070
     6
1002
{
1000
Prompt
1070
     4
1000
(genmsg gendwg 36)
1002
{
1002
}
1000
Value
1070
     4
1000

1002
{
1002
}
1000
EditFlag
1070
     1
1070
     1
1002
{
1002
}
1002
}
1000
7
1070
     6
1002
{
1000
Prompt
1070
     4
1000
(genmsg gendwg 37)
1002
{
1002
}
1000
Value
1070
     4
1000

1002
{
1002
}
1000
EditFlag
1070
     1
1070
     1
1002
{
1002
}
1002
}
1000
8
1070
     6
1002
{
1000
Prompt
1070
     4
1000
(genmsg gendwg 38)
1002
{
1002
}
1000
Value
1070
     4
1000

1002
{
1002
}
1000
EditFlag
1070
     1
1070
     1
1002
{
1002
}
1002
}
1000
9
1070
     6
1002
{
1000
Prompt
1070
     4
1000
(genmsg gendwg 39)
1002
{
1002
}
1000
Value
1070
     4
1000

1002
{
1002
}
1000
EditFlag
1070
     1
1070
     1
1002
{
1002
}
1002
}
1000
10
1070
     6
1002
{
1000
Prompt
1070
     4
1000
(genmsg gendwg 40)
1002
{
1002
}
1000
Value
1070
     4
1000

1002
{
1002
}
1000
EditFlag
1070
     1
1070
     1
1002
{
1002
}
1002
}
1000
11
1070
     6
1002
{
1000
Prompt
1070
     4
1000
(genmsg gendwg 41)
1002
{
1002
}
1000
Value
1070
     4
1000

1002
{
1002
}
1000
EditFlag
1070
     1
1070
     1
1002
{
1002
}
1002
}
1000
12
1070
     6
1002
{
1000
Prompt
1070
     4
1000
(genmsg gendwg 42)
1002
{
1002
}
1000
Value
1070
     4
1000

1002
{
1002
}
1000
EditFlag
1070
     1
1070
     1
1002
{
1002
}
1002
}
1000
13
1070
     6
1002
{
1000
Prompt
1070
     4
1000
(genmsg gendwg 43)
1002
{
1002
}
1000
Value
1070
     4
1000

1002
{
1002
}
1000
EditFlag
1070
     1
1070
     1
1002
{
1002
}
1002
}
1000
14
1070
     6
1002
{
1000
Prompt
1070
     4
1000
(genmsg gendwg 44)
1002
{
1002
}
1000
Value
1070
     4
1000

1002
{
1002
}
1000
EditFlag
1070
     1
1070
     1
1002
{
1002
}
1002
}
1000
15
1070
     6
1002
{
1000
Prompt
1070
     4
1000
(genmsg gendwg 45)
1002
{
1002
}
1000
Value
1070
     4
1000

1002
{
1002
}
1000
EditFlag
1070
     1
1070
     1
1002
{
1002
}
1002
}
1000
16
1070
     6
1002
{
1000
Prompt
1070
     4
1000
(genmsg gendwg 46)
1002
{
1002
}
1000
Value
1070
     4
1000

1002
{
1002
}
1000
EditFlag
1070
     1
1070
     1
1002
{
1002
}
1002
}
1000
17
1070
     6
1002
{
1000
Prompt
1070
     4
1000
(genmsg gendwg 47)
1002
{
1002
}
1000
Value
1070
     4
1000

1002
{
1002
}
1000
EditFlag
1070
     1
1070
     1
1002
{
1002
}
1002
}
1000
18
1070
     6
1002
{
1000
Prompt
1070
     4
1000
(genmsg gendwg 48)
1002
{
1002
}
1000
Value
1070
     4
1000

1002
{
1002
}
1000
EditFlag
1070
     1
1070
     1
1002
{
1002
}
1002
}
1000
19
1070
     6
1002
{
1000
Prompt
1070
     4
1000
(genmsg gendwg 99)
1002
{
1002
}
1000
Value
1070
     4
1000

1002
{
1002
}
1000
EditFlag
1070
     1
1070
     1
1002
{
1002
}
1002
}
1000
20
1070
     6
1002
{
1000
Prompt
1070
     4
1000
(genmsg gendwg 100)
1002
{
1002
}
1000
Value
1070
     4
1000

1002
{
1002
}
1000
EditFlag
1070
     1
1070
     1
1002
{
1002
}
1002
}
1000
21
1070
     6
1002
{
1000
Prompt
1070
     4
1000
(genmsg gendwg 101)
1002
{
1002
}
1000
Value
1070
     4
1000

1002
{
1002
}
1000
EditFlag
1070
     1
1070
     1
1002
{
1002
}
1002
}
1000
22
1070
     6
1002
{
1000
Prompt
1070
     4
1000
(genmsg gendwg 102)
1002
{
1002
}
1000
Value
1070
     4
1000

1002
{
1002
}
1000
EditFlag
1070
     1
1070
     1
1002
{
1002
}
1002
}
1000
23
1070
     6
1002
{
1000
Prompt
1070
     4
1000
(genmsg gendwg 30)
1002
{
1002
}
1000
Value
1070
     4
1000

1002
{
1002
}
1000
EditFlag
1070
     1
1070
     1
1002
{
1002
}
1002
}
1000
24
1070
     6
1002
{
1000
Prompt
1070
     4
1000
(genmsg gendwg 104)
1002
{
1002
}
1000
Value
1070
     4
1000

1002
{
1002
}
1000
EditFlag
1070
     1
1070
     1
1002
{
1002
}
1002
}
1002
}
1000
Xlate
1070
     0
1002
{
1000
>
1002
}
1002
}
1000
Layer
1070
     7
1002
{
1000
Defs
1070
     0
1002
{
1000
>
1002
}
1000
EntSort
1070
     0
1002
{
1000
>
1002
}
1000
Match
1070
     0
1002
{
1002
}
1000
Settings
1070
     0
1002
{
1000
FocGrNC
1070
     3
1070
     0
1002
{
1002
}
1000
FocGrLo
1070
     3
1070
     0
1002
{
1002
}
1000
FocLoNC
1070
     3
1070
     0
1002
{
1002
}
1000
FocusCol
1070
     1
1070
   253
1002
{
1002
}
1000
GenStdLG
1070
     4
1000

1002
{
1002
}
1000
LayMatch
1070
     3
1070
     0
1002
{
1002
}
1000
LgOff
1070
     3
1070
     0
1002
{
1002
}
1000
CurLG
1070
    -5
1000
MSL-5-300
1002
{
1002
}
1002
}
1002
}
1000
LType
1070
     0
1002
{
1000
GEN3
1070
     8
1000
genius.lin
1002
{
1002
}
1000
GEN7
1070
     8
1000
genius.lin
1002
{
1002
}
1000
GEN4A
1070
     8
1000
genius.lin
1002
{
1002
}
1000
GEN3A
1070
     8
1000
genius.lin
1002
{
1002
}
1000
GEN7A
1070
     8
1000
genius.lin
1002
{
1002
}
1000
GENZIGZAG
1070
     8
1000
genius.lin
1002
{
1002
}
1002
}
1000
Objecter
1070
     0
1002
{
1000
CreateGroups
1070
     3
1070
     0
1002
{
1002
}
1000
LaySwitch
1070
     3
1070
     1
1002
{
1002
}
1000
LastObj
1070
    -5
1000
0
1002
{
1002
}
1002
}
1000
OSWiz
1070
     0
1002
{
1000
>
1002
}
1000
PaList
1070
     0
1002
{
1000
AutoUpdatePartList
1070
     3
1070
     0
1002
{
1002
}
1000
ReadInfoPoint
1070
     3
1070
     0
1002
{
1002
}
1000
ReadPosNr
1070
     3
1070
     1
1002
{
1002
}
1000
RevStr
1070
     4
1000
0
1002
{
1002
}
1002
}
1000
Paper
1070
     0
1002
{
1000
Layer
1070
    -5
1000
KLIN
1002
{
1002
}
1002
}
1000
PartDB
1070
     0
1002
{
1000
GenDbOwner
1070
     4
1000

1002
{
1002
}
1002
}
1000
System
1070
     0
1002
{
1000
Menu
1070
     4
1000
GEV
1002
{
1002
}
1002
}
1000
Title
1070
     0
1002
{
1000
MakeView
1070
     1
1070
     2
1002
{
1002
}
1002
}
  0
APPID
  5
545
100
AcDbSymbolTableRecord
100
AcDbRegAppTableRecord
  2
GENIUS_GEVCFG0_13
 70
     0
1001
GENIUS_GENCFG_13
1071
881231638
1000
545
1000
GEV
1070
     1
1000
GenCfgObject
1000
System
1070
     0
1002
{
1002
}
1000
VED
1070
     0
1002
{
1002
}
  0
ENDTAB
  0
TABLE
  2
DIMSTYLE
  5
16
100
AcDbSymbolTable
 70
     1
  0
DIMSTYLE
105
1D
100
AcDbSymbolTableRecord
100
AcDbDimStyleTableRecord
  2
GEN-ISO
 70
     0
  3

  4

  5

  6

  7

 40
1.0
 41
2.5
 42
1.0
 43
10.0
 44
2.0
 45
0.0
 46
0.0
 47
0.1
 48
0.1
140
3.5
141
-2.0
142
0.0
143
25.4
144
1.0
145
0.0
146
1.0
147
1.5
 71
     0
 72
     0
 73
     0
 74
     0
 75
     0
 76
     0
 77
     1
 78
     8
170
     0
171
     2
172
     1
173
     0
174
     0
175
     0
176
     0
177
     0
178
     2
270
     2
271
     2
272
     5
273
     2
274
     2
340
D
275
     0
280
     0
281
     0
282
     0
283
     0
284
     8
285
     8
286
     8
287
     3
288
     0
  0
ENDTAB
  0
TABLE
  2
BLOCK_RECORD
  5
1
100
AcDbSymbolTable
 70
     0
  0
BLOCK_RECORD
  5
2
100
AcDbSymbolTableRecord
100
AcDbBlockTableRecord
  2
*MODEL_SPACE
  0
BLOCK_RECORD
  5
8
100
AcDbSymbolTableRecord
100
AcDbBlockTableRecord
  2
*PAPER_SPACE
  0
ENDTAB
  0
ENDSEC
  0
SECTION
  2
BLOCKS
  0
BLOCK
  5
3
100
AcDbEntity
  8
0
100
AcDbBlockBegin
  2
*MODEL_SPACE
 70
     0
 10
0.0
 20
0.0
 30
0.0
  3
*MODEL_SPACE
  1

  0
ENDBLK
  5
7
100
AcDbEntity
  8
0
100
AcDbBlockEnd
  0
BLOCK
  5
9
100
AcDbEntity
 67
     1
  8
0
100
AcDbBlockBegin
  2
*PAPER_SPACE
 70
     0
 10
0.0
 20
0.0
 30
0.0
  3
*PAPER_SPACE
  1

  0
ENDBLK
  5
A
100
AcDbEntity
 67
     1
  8
0
100
AcDbBlockEnd
  0
ENDSEC
  0
SECTION
  2
ENTITIES
  0
LINE
  5
1E
100
AcDbEntity
  8
MSL-5-300-0
100
AcDbLine
 10
2050.922694
 20
445.891342
 30
0.0
 11
2050.922694
 21
434.633011
 31
0.0
  0
LINE
  5
1F
100
AcDbEntity
  8
MSL-5-300-0
100
AcDbLine
 10
2046.922694
 20
445.891342
 30
0.0
 11
2046.922694
 21
434.633011
 31
0.0
  0
ARC
  5
20
100
AcDbEntity
  8
MSL-5-300-0
100
AcDbCircle
 10
2049.21575
 20
445.891342
 30
0.0
 40
2.293056
100
AcDbArc
 50
125.085847
 51
234.914153
  0
ARC
  5
21
100
AcDbEntity
  8
MSL-5-300-0
100
AcDbCircle
 10
2048.629638
 20
445.891342
 30
0.0
 40
2.293056
100
AcDbArc
 50
305.085848
 51
54.914152
  0
ARC
  5
22
100
AcDbEntity
  8
MSL-5-300-0
100
AcDbCircle
 10
2033.484859
 20
445.891342
 30
0.0
 40
2.562165
100
AcDbArc
 50
132.916662
 51
227.083338
  0
LINE
  5
23
100
AcDbEntity
  8
MSL-5-300-0
100
AcDbLine
 10
2030.922694
 20
434.633011
 30
0.0
 11
2030.922694
 21
445.891342
 31
0.0
  0
LINE
  5
24
100
AcDbEntity
  8
MSL-5-300-0
100
AcDbLine
 10
2034.922694
 20
432.756623
 30
0.0
 11
2034.922694
 21
447.76773
 31
0.0
  0
ARC
  5
25
100
AcDbEntity
  8
MSL-5-300-0
100
AcDbCircle
 10
1720.287972
 20
440.262177
 30
0.0
 40
10.634722
100
AcDbArc
 50
332.518773
 51
27.481227
  0
LINE
  5
26
100
AcDbEntity
  8
MSL-5-300-0
100
AcDbLine
 10
1730.922694
 20
447.623392
 30
0.0
 11
1730.922694
 21
432.900961
 31
0.0
  0
LINE
  5
27
100
AcDbEntity
  8
MSL-5-300-7
100
AcDbLine
 10
1683.922694
 20
440.262177
 30
0.0
 11
1683.922694
 21
447.646042
 31
0.0
  0
CIRCLE
  5
2A
100
AcDbEntity
  8
MSL-5-300-0
100
AcDbCircle
 10
1683.922694
 20
440.262177
 30
0.0
 40
5.5
  0
LINE
  5
2B
100
AcDbEntity
  8
MSL-5-300-0
100
AcDbLine
 10
1320.922694
 20
446.762177
 30
0.0
 11
1320.922694
 21
425.762177
 31
0.0
  0
LINE
  5
2C
100
AcDbEntity
  8
MSL-5-300-0
100
AcDbLine
 10
1321.922694
 20
447.762177
 30
0.0
 11
1321.922694
 21
424.762177
 31
0.0
  0
LINE
  5
2D
100
AcDbEntity
  8
MSL-5-300-0
100
AcDbLine
 10
1335.422694
 20
447.762177
 30
0.0
 11
1335.422694
 21
424.762177
 31
0.0
  0
LINE
  5
2E
100
AcDbEntity
  8
MSL-5-300-0
100
AcDbLine
 10
1334.422694
 20
424.762177
 30
0.0
 11
1334.422694
 21
447.762177
 31
0.0
  0
ARC
  5
2F
100
AcDbEntity
  8
MSL-5-300-0
100
AcDbCircle
 10
1327.097694
 20
436.262177
 30
0.0
 40
16.825
100
AcDbArc
 50
329.020901
 51
30.979099
  0
ARC
  5
30
100
AcDbEntity
  8
MSL-5-300-0
100
AcDbCircle
 10
1352.747694
 20
436.262177
 30
0.0
 40
16.825
100
AcDbArc
 50
149.0209
 51
210.9791
  0
LINE
  5
31
100
AcDbEntity
  8
MSL-5-300-0
100
AcDbLine
 10
1343.922694
 20
313.262177
 30
0.0
 11
1343.922694
 21
463.262177
 31
0.0
  0
LINE
  5
32
100
AcDbEntity
  8
MSL-5-300-0
100
AcDbLine
 10
1295.922694
 20
463.262177
 30
0.0
 11
1295.922694
 21
313.262177
 31
0.0
  0
LINE
  5
33
100
AcDbEntity
  8
MSL-5-300-0
100
AcDbLine
 10
1320.922694
 20
313.262177
 30
0.0
 11
1320.922694
 21
463.262177
 31
0.0
  0
LINE
  5
34
100
AcDbEntity
  8
MSL-5-300-0
100
AcDbLine
 10
1335.922694
 20
449.252558
 30
0.0
 11
1335.922694
 21
423.271795
 31
0.0
  0
LINE
  5
35
100
AcDbEntity
  8
MSL-5-300-0
100
AcDbLine
 10
1343.922694
 20
449.252558
 30
0.0
 11
1343.922694
 21
423.271795
 31
0.0
  0
LINE
  5
36
100
AcDbEntity
  8
MSL-5-300-0
100
AcDbLine
 10
1727.922694
 20
463.262177
 30
0.0
 11
1727.922694
 21
313.262177
 31
0.0
  0
LINE
  5
37
100
AcDbEntity
  8
MSL-5-300-0
100
AcDbLine
 10
2050.922694
 20
313.262177
 30
0.0
 11
2050.922694
 21
463.262177
 31
0.0
  0
LINE
  5
38
100
AcDbEntity
  8
MSL-5-300-0
100
AcDbLine
 10
2075.922694
 20
463.262177
 30
0.0
 11
2075.922694
 21
313.262177
 31
0.0
  0
LINE
  5
39
100
AcDbEntity
  8
MSL-5-300-7
100
AcDbLine
 10
1303.922694
 20
434.844305
 30
0.0
 11
1303.922694
 21
466.262248
 31
0.0
  0
LINE
  5
3A
100
AcDbEntity
  8
MSL-5-300-3
100
AcDbLine
 10
1308.110694
 20
463.262248
 30
0.0
 11
1308.110694
 21
440.262248
 31
0.0
  0
LINE
  5
3D
100
AcDbEntity
  8
MSL-5-300-3
100
AcDbLine
 10
1299.734694
 20
463.262248
 30
0.0
 11
1299.734694
 21
440.262248
 31
0.0
  0
LINE
  5
3E
100
AcDbEntity
  8
MSL-5-300-7
100
AcDbLine
 10
2067.922694
 20
434.844305
 30
0.0
 11
2067.922694
 21
466.262248
 31
0.0
  0
LINE
  5
3F
100
AcDbEntity
  8
MSL-5-300-3
100
AcDbLine
 10
2072.110694
 20
463.262248
 30
0.0
 11
2072.110694
 21
440.262248
 31
0.0
  0
LINE
  5
40
100
AcDbEntity
  8
MSL-5-300-3
100
AcDbLine
 10
2063.734694
 20
463.262248
 30
0.0
 11
2063.734694
 21
440.262248
 31
0.0
  0
LINE
  5
41
100
AcDbEntity
  8
MSL-5-300-7
100
AcDbLine
 10
1683.922694
 20
440.262177
 30
0.0
 11
1691.30656
 21
440.262177
 31
0.0
  0
LINE
  5
42
100
AcDbEntity
  8
MSL-5-300-0
100
AcDbLine
 10
1343.922694
 20
313.262177
 30
0.0
 11
1727.922694
 21
313.262177
 31
0.0
  0
LINE
  5
43
100
AcDbEntity
  8
MSL-5-300-7
100
AcDbLine
 10
1348.922694
 20
388.262248
 30
0.0
 11
1366.922694
 21
388.262248
 31
0.0
  0
MTEXT
  5
44
100
AcDbEntity
  8
5
100
AcDbMText
 10
1347.472106
 20
320.315706
 30
0.0
 40
3.5
 41
22.192126
 71
     1
 72
     1
  1
{MSL-5-300}
  0
LINE
  5
46
100
AcDbEntity
  8
MSL-5-300-0
100
AcDbLine
 10
1343.922694
 20
409.262177
 30
0.0
 11
1372.422694
 21
409.262177
 31
0.0
  0
LINE
  5
47
100
AcDbEntity
  8
MSL-5-300-0
100
AcDbLine
 10
1372.422694
 20
367.262177
 30
0.0
 11
1343.922694
 21
367.262177
 31
0.0
  0
LINE
  5
48
100
AcDbEntity
  8
MSL-5-300-0
100
AcDbLine
 10
1324.922694
 20
375.762177
 30
0.0
 11
1325.922694
 21
374.762177
 31
0.0
  0
LINE
  5
49
100
AcDbEntity
  8
MSL-5-300-0
100
AcDbLine
 10
1325.922694
 20
401.762177
 30
0.0
 11
1325.922694
 21
374.762177
 31
0.0
  0
ARC
  5
4A
100
AcDbEntity
  8
MSL-5-300-0
100
AcDbCircle
 10
1351.557416
 20
336.262177
 30
0.0
 40
10.634722
100
AcDbArc
 50
152.518771
 51
207.481229
  0
LINE
  5
4B
100
AcDbEntity
  8
MSL-5-300-7
100
AcDbLine
 10
1303.922694
 20
341.680191
 30
0.0
 11
1303.922694
 21
310.262248
 31
0.0
  0
LINE
  5
4C
100
AcDbEntity
  8
MSL-5-300-0
100
AcDbLine
 10
1324.922694
 20
330.633011
 30
0.0
 11
1324.922694
 21
341.891342
 31
0.0
  0
LINE
  5
4D
100
AcDbEntity
  8
MSL-5-300-0
100
AcDbLine
 10
1320.922694
 20
330.633011
 30
0.0
 11
1320.922694
 21
341.891342
 31
0.0
  0
LINE
  5
4E
100
AcDbEntity
  8
MSL-5-300-0
100
AcDbLine
 10
1340.922694
 20
341.891342
 30
0.0
 11
1340.922694
 21
330.633011
 31
0.0
  0
LINE
  5
4F
100
AcDbEntity
  8
MSL-5-300-0
100
AcDbLine
 10
1336.922694
 20
343.76773
 30
0.0
 11
1336.922694
 21
328.756623
 31
0.0
  0
LINE
  5
50
100
AcDbEntity
  8
MSL-5-300-0
100
AcDbLine
 10
1340.922694
 20
328.900961
 30
0.0
 11
1340.922694
 21
343.623392
 31
0.0
  0
ARC
  5
51
100
AcDbEntity
  8
MSL-5-300-0
100
AcDbCircle
 10
1322.629638
 20
341.891342
 30
0.0
 40
2.293056
100
AcDbArc
 50
305.085848
 51
54.914152
  0
ARC
  5
52
100
AcDbEntity
  8
MSL-5-300-0
100
AcDbCircle
 10
1323.21575
 20
341.891342
 30
0.0
 40
2.293056
100
AcDbArc
 50
125.085847
 51
234.914153
  0
ARC
  5
53
100
AcDbEntity
  8
MSL-5-300-0
100
AcDbCircle
 10
1338.360529
 20
341.891342
 30
0.0
 40
2.562165
100
AcDbArc
 50
312.916664
 51
47.083336
  0
ARC
  5
54
100
AcDbEntity
  8
MSL-5-300-3
100
AcDbCircle
 10
1312.922694
 20
340.262248
 30
0.0
 40
5.0
100
AcDbArc
 50
280.0
 51
210.0
  0
CIRCLE
  5
55
100
AcDbEntity
  8
MSL-5-300-3
100
AcDbCircle
 10
1312.922694
 20
340.262248
 30
0.0
 40
4.188
  0
LINE
  5
56
100
AcDbEntity
  8
MSL-5-300-7
100
AcDbLine
 10
1312.922694
 20
332.262177
 30
0.0
 11
1312.922694
 21
348.262177
 31
0.0
  0
LINE
  5
57
100
AcDbEntity
  8
MSL-5-300-0
100
AcDbLine
 10
1321.897694
 20
332.5094
 30
0.0
 11
1323.947694
 21
332.5094
 31
0.0
  0
LINE
  5
58
100
AcDbEntity
  8
MSL-5-300-0
100
AcDbLine
 10
1321.897694
 20
328.756623
 30
0.0
 11
1323.947694
 21
328.756623
 31
0.0
  0
LINE
  5
59
100
AcDbEntity
  8
MSL-5-300-0
100
AcDbLine
 10
1321.897694
 20
340.014953
 30
0.0
 11
1323.947694
 21
340.014953
 31
0.0
  0
LINE
  5
5A
100
AcDbEntity
  8
MSL-5-300-0
100
AcDbLine
 10
1343.922694
 20
323.762177
 30
0.0
 11
1320.922694
 21
323.762177
 31
0.0
  0
LINE
  5
5B
100
AcDbEntity
  8
MSL-5-300-7
100
AcDbLine
 10
1352.927687
 20
336.262177
 30
0.0
 11
1312.752632
 21
336.262177
 31
0.0
  0
LINE
  5
5C
100
AcDbEntity
  8
MSL-5-300-3
100
AcDbLine
 10
1308.110694
 20
313.262248
 30
0.0
 11
1308.110694
 21
336.262248
 31
0.0
  0
LINE
  5
5D
100
AcDbEntity
  8
MSL-5-300-3
100
AcDbLine
 10
1299.734694
 20
313.262248
 30
0.0
 11
1299.734694
 21
336.262248
 31
0.0
  0
LINE
  5
5E
100
AcDbEntity
  8
MSL-5-300-3
100
AcDbLine
 10
1308.922694
 20
313.262248
 30
0.0
 11
1308.922694
 21
330.262248
 31
0.0
  0
LINE
  5
5F
100
AcDbEntity
  8
MSL-5-300-3
100
AcDbLine
 10
1298.922694
 20
313.262248
 30
0.0
 11
1298.922694
 21
330.262248
 31
0.0
  0
LINE
  5
60
100
AcDbEntity
  8
MSL-5-300-0
100
AcDbLine
 10
1295.922694
 20
313.262177
 30
0.0
 11
1320.922694
 21
313.262177
 31
0.0
  0
LINE
  5
61
100
AcDbEntity
  8
MSL-5-300-3
100
AcDbLine
 10
1308.922694
 20
330.262248
 30
0.0
 11
1298.922694
 21
330.262248
 31
0.0
  0
LINE
  5
62
100
AcDbEntity
  8
MSL-5-300-3
100
AcDbLine
 10
1308.110694
 20
336.262248
 30
0.0
 11
1299.734694
 21
336.262248
 31
0.0
  0
LINE
  5
63
100
AcDbEntity
  8
MSL-5-300-3
100
AcDbLine
 10
1303.922694
 20
338.680191
 30
0.0
 11
1299.734694
 21
336.262248
 31
0.0
  0
ARC
  5
64
100
AcDbEntity
  8
MSL-5-300-0
100
AcDbCircle
 10
1328.632416
 20
336.262177
 30
0.0
 40
7.709722
100
AcDbArc
 50
150.872216
 51
209.127784
  0
ARC
  5
65
100
AcDbEntity
  8
MSL-5-300-0
100
AcDbCircle
 10
1323.21575
 20
330.633011
 30
0.0
 40
2.293056
100
AcDbArc
 50
125.085847
 51
234.914153
  0
LINE
  5
66
100
AcDbEntity
  8
MSL-5-300-3
100
AcDbLine
 10
1303.922694
 20
338.680191
 30
0.0
 11
1308.110694
 21
336.262248
 31
0.0
  0
LINE
  5
67
100
AcDbEntity
  8
MSL-5-300-7
100
AcDbLine
 10
1304.922694
 20
340.262248
 30
0.0
 11
1320.922694
 21
340.262248
 31
0.0
  0
ARC
  5
68
100
AcDbEntity
  8
MSL-5-300-0
100
AcDbCircle
 10
1331.900284
 20
336.262177
 30
0.0
 40
9.02241
100
AcDbArc
 50
335.421503
 51
24.578497
  0
LINE
  5
69
100
AcDbEntity
  8
MSL-5-300-0
100
AcDbLine
 10
1342.122694
 20
331.354699
 30
0.0
 11
1343.922694
 21
331.354699
 31
0.0
  0
LINE
  5
6A
100
AcDbEntity
  8
MSL-5-300-0
100
AcDbLine
 10
1342.103623
 20
326.462177
 30
0.0
 11
1343.922694
 21
326.462177
 31
0.0
  0
LINE
  5
6B
100
AcDbEntity
  8
MSL-5-300-0
100
AcDbLine
 10
1340.105194
 20
332.5094
 30
0.0
 11
1336.922694
 21
332.5094
 31
0.0
  0
LINE
  5
6C
100
AcDbEntity
  8
MSL-5-300-0
100
AcDbLine
 10
1336.922694
 20
328.756623
 30
0.0
 11
1340.105194
 21
328.756623
 31
0.0
  0
ARC
  5
6D
100
AcDbEntity
  8
MSL-5-300-0
100
AcDbCircle
 10
1338.360529
 20
330.633011
 30
0.0
 40
2.562165
100
AcDbArc
 50
312.916664
 51
47.083336
  0
ARC
  5
6E
100
AcDbEntity
  8
MSL-5-300-0
100
AcDbCircle
 10
1344.031375
 20
328.900961
 30
0.0
 40
3.108681
100
AcDbArc
 50
127.878142
 51
232.121858
  0
LINE
  5
6F
100
AcDbEntity
  8
MSL-5-300-0
100
AcDbLine
 10
1340.105194
 20
340.014953
 30
0.0
 11
1336.922694
 21
340.014953
 31
0.0
  0
ARC
  5
70
100
AcDbEntity
  8
MSL-5-300-0
100
AcDbCircle
 10
1317.212972
 20
336.262177
 30
0.0
 40
7.709722
100
AcDbArc
 50
330.872218
 51
29.127782
  0
ARC
  5
71
100
AcDbEntity
  8
MSL-5-300-0
100
AcDbCircle
 10
1322.629638
 20
330.633011
 30
0.0
 40
2.293056
100
AcDbArc
 50
305.085848
 51
54.914152
  0
LINE
  5
72
100
AcDbEntity
  8
MSL-5-300-0
100
AcDbLine
 10
1324.922694
 20
332.262177
 30
0.0
 11
1336.922694
 21
332.262177
 31
0.0
  0
LINE
  5
73
100
AcDbEntity
  8
MSL-5-300-0
100
AcDbLine
 10
1336.922694
 20
340.262177
 30
0.0
 11
1324.922694
 21
340.262177
 31
0.0
  0
LINE
  5
74
100
AcDbEntity
  8
MSL-5-300-0
100
AcDbLine
 10
1321.897694
 20
343.76773
 30
0.0
 11
1323.947694
 21
343.76773
 31
0.0
  0
LINE
  5
75
100
AcDbEntity
  8
MSL-5-300-0
100
AcDbLine
 10
1343.922694
 20
348.762177
 30
0.0
 11
1320.922694
 21
348.762177
 31
0.0
  0
LINE
  5
76
100
AcDbEntity
  8
MSL-5-300-3
100
AcDbLine
 10
1313.922694
 20
367.262248
 30
0.0
 11
1313.922694
 21
349.262248
 31
0.0
  0
LINE
  5
77
100
AcDbEntity
  8
MSL-5-300-3
100
AcDbLine
 10
1313.922694
 20
352.762248
 30
0.0
 11
1295.922694
 21
352.762248
 31
0.0
  0
LINE
  5
78
100
AcDbEntity
  8
MSL-5-300-3
100
AcDbLine
 10
1313.922694
 20
349.262248
 30
0.0
 11
1320.922694
 21
349.262248
 31
0.0
  0
LINE
  5
79
100
AcDbEntity
  8
MSL-5-300-3
100
AcDbLine
 10
1313.922694
 20
363.762248
 30
0.0
 11
1295.922694
 21
363.762248
 31
0.0
  0
LINE
  5
7A
100
AcDbEntity
  8
MSL-5-300-7
100
AcDbLine
 10
1322.922694
 20
358.262248
 30
0.0
 11
1293.922694
 21
358.262248
 31
0.0
  0
LINE
  5
7B
100
AcDbEntity
  8
MSL-5-300-3
100
AcDbLine
 10
1320.922694
 20
367.262248
 30
0.0
 11
1313.922694
 21
367.262248
 31
0.0
  0
LINE
  5
7C
100
AcDbEntity
  8
MSL-5-300-0
100
AcDbLine
 10
1343.922694
 20
346.062177
 30
0.0
 11
1342.103623
 21
346.062177
 31
0.0
  0
LINE
  5
7D
100
AcDbEntity
  8
MSL-5-300-0
100
AcDbLine
 10
1340.105194
 20
343.76773
 30
0.0
 11
1336.922694
 21
343.76773
 31
0.0
  0
LINE
  5
7E
100
AcDbEntity
  8
MSL-5-300-0
100
AcDbLine
 10
1342.122694
 20
341.169654
 30
0.0
 11
1343.922694
 21
341.169654
 31
0.0
  0
ARC
  5
7F
100
AcDbEntity
  8
MSL-5-300-0
100
AcDbCircle
 10
1344.031375
 20
343.623392
 30
0.0
 40
3.108681
100
AcDbArc
 50
127.878142
 51
232.121858
  0
LINE
  5
80
100
AcDbEntity
  8
MSL-5-300-0
100
AcDbLine
 10
1325.922694
 20
374.762177
 30
0.0
 11
1343.922694
 21
374.762177
 31
0.0
  0
LINE
  5
81
100
AcDbEntity
  8
MSL-5-300-0
100
AcDbLine
 10
1324.922694
 20
394.262177
 30
0.0
 11
1320.922694
 21
394.262177
 31
0.0
  0
LINE
  5
82
100
AcDbEntity
  8
MSL-5-300-0
100
AcDbLine
 10
1320.922694
 20
382.262177
 30
0.0
 11
1324.922694
 21
382.262177
 31
0.0
  0
LINE
  5
83
100
AcDbEntity
  8
MSL-5-300-7
100
AcDbLine
 10
1292.922694
 20
388.262177
 30
0.0
 11
1353.113356
 21
388.262177
 31
0.0
  0
CIRCLE
  5
84
100
AcDbEntity
  8
MSL-5-300-0
100
AcDbCircle
 10
1357.922694
 20
388.262248
 30
0.0
 40
5.053
  0
ARC
  5
85
100
AcDbEntity
  8
MSL-5-300-4
100
AcDbCircle
 10
1357.922694
 20
388.262248
 30
0.0
 40
6.0
100
AcDbArc
 50
172.405357
 51
104.931417
  0
LINE
  5
87
100
AcDbEntity
  8
MSL-5-300-7
100
AcDbLine
 10
1357.922694
 20
379.262248
 30
0.0
 11
1357.922694
 21
397.262248
 31
0.0
  0
LINE
  5
88
100
AcDbEntity
  8
MSL-5-300-0
100
AcDbLine
 10
1324.922694
 20
400.762177
 30
0.0
 11
1324.922694
 21
375.762177
 31
0.0
  0
LINE
  5
89
100
AcDbEntity
  8
MSL-5-300-7
100
AcDbLine
 10
1364.227623
 20
388.262248
 30
0.0
 11
1351.617623
 21
388.262248
 31
0.0
  0
LINE
  5
8A
100
AcDbEntity
  8
MSL-5-300-0
100
AcDbLine
 10
1325.922694
 20
401.762177
 30
0.0
 11
1324.922694
 21
400.762177
 31
0.0
  0
LINE
  5
8B
100
AcDbEntity
  8
MSL-5-300-0
100
AcDbLine
 10
1343.922694
 20
401.762177
 30
0.0
 11
1325.922694
 21
401.762177
 31
0.0
  0
LINE
  5
8C
100
AcDbEntity
  8
MSL-5-300-0
100
AcDbLine
 10
1321.922694
 20
424.762177
 30
0.0
 11
1334.422694
 21
424.762177
 31
0.0
  0
LINE
  5
8D
100
AcDbEntity
  8
MSL-5-300-7
100
AcDbLine
 10
1352.927687
 20
440.262177
 30
0.0
 11
1312.752632
 21
440.262177
 31
0.0
  0
LINE
  5
8E
100
AcDbEntity
  8
MSL-5-300-7
100
AcDbLine
 10
1317.356493
 20
436.262177
 30
0.0
 11
1348.857481
 21
436.262177
 31
0.0
  0
LINE
  5
8F
100
AcDbEntity
  8
MSL-5-300-3
100
AcDbLine
 10
1320.922694
 20
413.262248
 30
0.0
 11
1295.922694
 21
413.262248
 31
0.0
  0
LINE
  5
90
100
AcDbEntity
  8
MSL-5-300-3
100
AcDbLine
 10
1320.922694
 20
423.262248
 30
0.0
 11
1295.922694
 21
423.262248
 31
0.0
  0
LINE
  5
91
100
AcDbEntity
  8
MSL-5-300-7
100
AcDbLine
 10
1322.922694
 20
418.262248
 30
0.0
 11
1293.922694
 21
418.262248
 31
0.0
  0
LINE
  5
92
100
AcDbEntity
  8
MSL-5-300-0
100
AcDbLine
 10
1320.922694
 20
425.762177
 30
0.0
 11
1321.922694
 21
424.762177
 31
0.0
  0
LINE
  5
93
100
AcDbEntity
  8
MSL-5-300-3
100
AcDbLine
 10
1303.922694
 20
437.844305
 30
0.0
 11
1299.734694
 21
440.262248
 31
0.0
  0
LINE
  5
94
100
AcDbEntity
  8
MSL-5-300-3
100
AcDbLine
 10
1308.110694
 20
440.262248
 30
0.0
 11
1299.734694
 21
440.262248
 31
0.0
  0
LINE
  5
95
100
AcDbEntity
  8
MSL-5-300-3
100
AcDbLine
 10
1303.922694
 20
437.844305
 30
0.0
 11
1308.110694
 21
440.262248
 31
0.0
  0
LINE
  5
96
100
AcDbEntity
  8
MSL-5-300-7
100
AcDbLine
 10
1312.922694
 20
428.262248
 30
0.0
 11
1312.922694
 21
444.262248
 31
0.0
  0
CIRCLE
  5
97
100
AcDbEntity
  8
MSL-5-300-3
100
AcDbCircle
 10
1312.922694
 20
436.262248
 30
0.0
 40
4.188
  0
ARC
  5
98
100
AcDbEntity
  8
MSL-5-300-3
100
AcDbCircle
 10
1312.922694
 20
436.262248
 30
0.0
 40
5.0
100
AcDbArc
 50
280.0
 51
210.0
  0
LINE
  5
99
100
AcDbEntity
  8
MSL-5-300-7
100
AcDbLine
 10
1304.922694
 20
436.262248
 30
0.0
 11
1320.922694
 21
436.262248
 31
0.0
  0
ARC
  5
9A
100
AcDbEntity
  8
MSL-5-300-0
100
AcDbCircle
 10
1341.028944
 20
423.271795
 30
0.0
 40
5.10625
100
AcDbArc
 50
122.004627
 51
237.995373
  0
ARC
  5
9B
100
AcDbEntity
  8
MSL-5-300-0
100
AcDbCircle
 10
1338.816444
 20
423.271795
 30
0.0
 40
5.10625
100
AcDbArc
 50
302.004628
 51
57.995372
  0
LINE
  5
9C
100
AcDbEntity
  8
MSL-5-300-0
100
AcDbLine
 10
1335.422694
 20
424.762177
 30
0.0
 11
1335.922694
 21
424.262177
 31
0.0
  0
LINE
  5
9D
100
AcDbEntity
  8
MSL-5-300-0
100
AcDbLine
 10
1341.522694
 20
418.941668
 30
0.0
 11
1338.322694
 21
418.941668
 31
0.0
  0
LINE
  5
9E
100
AcDbEntity
  8
MSL-5-300-0
100
AcDbLine
 10
1335.422694
 20
440.262177
 30
0.0
 11
1334.422694
 21
440.262177
 31
0.0
  0
LINE
  5
9F
100
AcDbEntity
  8
MSL-5-300-0
100
AcDbLine
 10
1335.422694
 20
432.262177
 30
0.0
 11
1334.422694
 21
432.262177
 31
0.0
  0
LINE
  5
A0
100
AcDbEntity
  8
MSL-5-300-0
100
AcDbLine
 10
1341.522694
 20
427.601923
 30
0.0
 11
1338.322694
 21
427.601923
 31
0.0
  0
LINE
  5
A1
100
AcDbEntity
  8
MSL-5-300-7
100
AcDbLine
 10
1402.263454
 20
388.262248
 30
0.0
 11
1668.810341
 21
388.262248
 31
0.0
  0
LINE
  5
A2
100
AcDbEntity
  8
MSL-5-300-7
100
AcDbLine
 10
1505.922694
 20
409.538659
 30
0.0
 11
1505.922694
 21
365.351129
 31
0.0
  0
LINE
  5
A3
100
AcDbEntity
  8
MSL-5-300-7
100
AcDbLine
 10
1445.922694
 20
409.538659
 30
0.0
 11
1445.922694
 21
365.351129
 31
0.0
  0
LINE
  5
A4
100
AcDbEntity
  8
MSL-5-300-0
100
AcDbLine
 10
1372.422694
 20
409.262177
 30
0.0
 11
1372.422694
 21
367.262177
 31
0.0
  0
CIRCLE
  5
A5
100
AcDbEntity
  8
MSL-5-300-3
100
AcDbCircle
 10
1445.922694
 20
358.262248
 30
0.0
 40
5.0
  0
LINE
  5
A6
100
AcDbEntity
  8
MSL-5-300-7
100
AcDbLine
 10
1445.922694
 20
358.262248
 30
0.0
 11
1438.833814
 21
358.262248
 31
0.0
  0
CIRCLE
  5
A7
100
AcDbEntity
  8
MSL-5-300-0
100
AcDbCircle
 10
1387.922694
 20
336.262177
 30
0.0
 40
5.5
  0
LINE
  5
A8
100
AcDbEntity
  8
MSL-5-300-7
100
AcDbLine
 10
1387.922694
 20
336.262177
 30
0.0
 11
1387.922694
 21
343.430046
 31
0.0
  0
LINE
  5
A9
100
AcDbEntity
  8
MSL-5-300-0
100
AcDbLine
 10
1380.421354
 20
308.762184
 30
0.0
 11
1388.421354
 21
308.762178
 31
0.0
  0
LINE
  5
AA
100
AcDbEntity
  8
MSL-5-300-0
100
AcDbLine
 10
1378.921358
 20
313.262177
 30
0.0
 11
1378.921355
 21
310.262185
 31
0.0
  0
LINE
  5
AB
100
AcDbEntity
  8
MSL-5-300-7
100
AcDbLine
 10
1384.422693
 20
305.973436
 30
0.0
 11
1384.4227
 21
317.166163
 31
0.0
  0
ARC
  5
AC
100
AcDbEntity
  8
MSL-5-300-0
100
AcDbCircle
 10
1380.421355
 20
310.262184
 30
0.0
 40
1.5
100
AcDbArc
 50
179.99996
 51
269.999959
  0
ARC
  5
AD
100
AcDbEntity
  8
MSL-5-300-0
100
AcDbCircle
 10
1388.421355
 20
310.262178
 30
0.0
 40
1.5
100
AcDbArc
 50
269.999959
 51
359.999962
  0
LINE
  5
AE
100
AcDbEntity
  8
MSL-5-300-0
100
AcDbLine
 10
1389.921355
 20
310.262177
 30
0.0
 11
1389.921358
 21
313.262177
 31
0.0
  0
LINE
  5
AF
100
AcDbEntity
  8
MSL-5-300-7
100
AcDbLine
 10
1387.922694
 20
336.262177
 30
0.0
 11
1380.754826
 21
336.262177
 31
0.0
  0
LINE
  5
B0
100
AcDbEntity
  8
MSL-5-300-7
100
AcDbLine
 10
1387.922694
 20
336.262177
 30
0.0
 11
1387.922694
 21
329.094308
 31
0.0
  0
LINE
  5
B1
100
AcDbEntity
  8
MSL-5-300-7
100
AcDbLine
 10
1387.922694
 20
336.262177
 30
0.0
 11
1395.090563
 21
336.262177
 31
0.0
  0
LINE
  5
B2
100
AcDbEntity
  8
MSL-5-300-7
100
AcDbLine
 10
1415.922694
 20
358.262248
 30
0.0
 11
1415.922694
 21
351.36035
 31
0.0
  0
CIRCLE
  5
B3
100
AcDbEntity
  8
MSL-5-300-3
100
AcDbCircle
 10
1415.922694
 20
358.262248
 30
0.0
 40
4.25
  0
ARC
  5
B4
100
AcDbEntity
  8
MSL-5-300-3
100
AcDbCircle
 10
1415.922694
 20
358.262248
 30
0.0
 40
5.0
100
AcDbArc
 50
82.606248
 51
7.300134
  0
LINE
  5
B5
100
AcDbEntity
  8
MSL-5-300-7
100
AcDbLine
 10
1415.922694
 20
358.262248
 30
0.0
 11
1422.824592
 21
358.262248
 31
0.0
  0
LINE
  5
B6
100
AcDbEntity
  8
MSL-5-300-7
100
AcDbLine
 10
1415.922694
 20
358.262248
 30
0.0
 11
1415.922694
 21
365.164146
 31
0.0
  0
LINE
  5
B7
100
AcDbEntity
  8
MSL-5-300-7
100
AcDbLine
 10
1415.922694
 20
358.262248
 30
0.0
 11
1409.020797
 21
358.262248
 31
0.0
  0
LINE
  5
B8
100
AcDbEntity
  8
MSL-5-300-7
100
AcDbLine
 10
1475.922694
 20
358.262248
 30
0.0
 11
1475.922694
 21
351.531458
 31
0.0
  0
LINE
  5
B9
100
AcDbEntity
  8
MSL-5-300-7
100
AcDbLine
 10
1445.922694
 20
358.262248
 30
0.0
 11
1445.922694
 21
351.173367
 31
0.0
  0
CIRCLE
  5
BA
100
AcDbEntity
  8
MSL-5-300-3
100
AcDbCircle
 10
1475.922694
 20
358.262248
 30
0.0
 40
4.25
  0
ARC
  5
BB
100
AcDbEntity
  8
MSL-5-300-3
100
AcDbCircle
 10
1475.922694
 20
358.262248
 30
0.0
 40
5.0
100
AcDbArc
 50
82.606248
 51
7.300134
  0
LINE
  5
BC
100
AcDbEntity
  8
MSL-5-300-7
100
AcDbLine
 10
1445.922694
 20
358.262248
 30
0.0
 11
1453.011575
 21
358.262248
 31
0.0
  0
LINE
  5
BD
100
AcDbEntity
  8
MSL-5-300-7
100
AcDbLine
 10
1445.922694
 20
358.262248
 30
0.0
 11
1445.922694
 21
365.351129
 31
0.0
  0
LINE
  5
BE
100
AcDbEntity
  8
MSL-5-300-7
100
AcDbLine
 10
1475.922694
 20
358.262248
 30
0.0
 11
1469.191904
 21
358.262248
 31
0.0
  0
LINE
  5
BF
100
AcDbEntity
  8
MSL-5-300-7
100
AcDbLine
 10
1475.922694
 20
358.262248
 30
0.0
 11
1475.922694
 21
364.993038
 31
0.0
  0
LINE
  5
C0
100
AcDbEntity
  8
MSL-5-300-7
100
AcDbLine
 10
1475.922694
 20
358.262248
 30
0.0
 11
1482.653484
 21
358.262248
 31
0.0
  0
LINE
  5
C1
100
AcDbEntity
  8
MSL-5-300-7
100
AcDbLine
 10
1505.922694
 20
358.262248
 30
0.0
 11
1505.922694
 21
351.173367
 31
0.0
  0
CIRCLE
  5
C2
100
AcDbEntity
  8
MSL-5-300-3
100
AcDbCircle
 10
1505.922694
 20
358.262248
 30
0.0
 40
5.0
  0
LINE
  5
C3
100
AcDbEntity
  8
MSL-5-300-7
100
AcDbLine
 10
1505.922694
 20
358.262248
 30
0.0
 11
1513.011575
 21
358.262248
 31
0.0
  0
LINE
  5
C4
100
AcDbEntity
  8
MSL-5-300-7
100
AcDbLine
 10
1505.922694
 20
358.262248
 30
0.0
 11
1505.922694
 21
365.351129
 31
0.0
  0
LINE
  5
C5
100
AcDbEntity
  8
MSL-5-300-7
100
AcDbLine
 10
1505.922694
 20
358.262248
 30
0.0
 11
1498.833814
 21
358.262248
 31
0.0
  0
CIRCLE
  5
C6
100
AcDbEntity
  8
MSL-5-300-3
100
AcDbCircle
 10
1445.922694
 20
418.262248
 30
0.0
 40
5.0
  0
LINE
  5
C7
100
AcDbEntity
  8
MSL-5-300-7
100
AcDbLine
 10
1445.922694
 20
418.262248
 30
0.0
 11
1438.782946
 21
418.262248
 31
0.0
  0
CIRCLE
  5
C8
100
AcDbEntity
  8
MSL-5-300-3
100
AcDbCircle
 10
1415.922694
 20
418.262248
 30
0.0
 40
4.25
  0
LINE
  5
C9
100
AcDbEntity
  8
MSL-5-300-7
100
AcDbLine
 10
1415.922694
 20
418.262248
 30
0.0
 11
1415.922694
 21
425.079494
 31
0.0
  0
LINE
  5
CA
100
AcDbEntity
  8
MSL-5-300-7
100
AcDbLine
 10
1415.922694
 20
418.262248
 30
0.0
 11
1422.739941
 21
418.262248
 31
0.0
  0
LINE
  5
CB
100
AcDbEntity
  8
MSL-5-300-7
100
AcDbLine
 10
1415.922694
 20
418.262248
 30
0.0
 11
1415.922694
 21
411.445002
 31
0.0
  0
ARC
  5
CC
100
AcDbEntity
  8
MSL-5-300-3
100
AcDbCircle
 10
1415.922694
 20
418.262248
 30
0.0
 40
5.0
100
AcDbArc
 50
82.606248
 51
7.300134
  0
LINE
  5
CD
100
AcDbEntity
  8
MSL-5-300-7
100
AcDbLine
 10
1415.922694
 20
418.262248
 30
0.0
 11
1409.105448
 21
418.262248
 31
0.0
  0
LINE
  5
CE
100
AcDbEntity
  8
MSL-5-300-7
100
AcDbLine
 10
1445.922694
 20
418.262248
 30
0.0
 11
1445.922694
 21
425.401997
 31
0.0
  0
LINE
  5
CF
100
AcDbEntity
  8
MSL-5-300-7
100
AcDbLine
 10
1445.922694
 20
418.262248
 30
0.0
 11
1453.062443
 21
418.262248
 31
0.0
  0
LINE
  5
D0
100
AcDbEntity
  8
MSL-5-300-7
100
AcDbLine
 10
1445.922694
 20
418.262248
 30
0.0
 11
1445.922694
 21
411.122499
 31
0.0
  0
LINE
  5
D1
100
AcDbEntity
  8
MSL-5-300-7
100
AcDbLine
 10
1475.922694
 20
418.262248
 30
0.0
 11
1475.922694
 21
425.104961
 31
0.0
  0
LINE
  5
D2
100
AcDbEntity
  8
MSL-5-300-7
100
AcDbLine
 10
1475.922694
 20
418.262248
 30
0.0
 11
1469.079981
 21
418.262248
 31
0.0
  0
LINE
  5
D3
100
AcDbEntity
  8
MSL-5-300-7
100
AcDbLine
 10
1475.922694
 20
418.262248
 30
0.0
 11
1475.922694
 21
411.419535
 31
0.0
  0
CIRCLE
  5
D4
100
AcDbEntity
  8
MSL-5-300-3
100
AcDbCircle
 10
1475.922694
 20
418.262248
 30
0.0
 40
4.25
  0
ARC
  5
D5
100
AcDbEntity
  8
MSL-5-300-3
100
AcDbCircle
 10
1475.922694
 20
418.262248
 30
0.0
 40
5.0
100
AcDbArc
 50
82.606248
 51
7.300134
  0
LINE
  5
D6
100
AcDbEntity
  8
MSL-5-300-7
100
AcDbLine
 10
1475.922694
 20
418.262248
 30
0.0
 11
1482.765408
 21
418.262248
 31
0.0
  0
LINE
  5
D7
100
AcDbEntity
  8
MSL-5-300-7
100
AcDbLine
 10
1505.922694
 20
418.262248
 30
0.0
 11
1513.062443
 21
418.262248
 31
0.0
  0
CIRCLE
  5
D8
100
AcDbEntity
  8
MSL-5-300-3
100
AcDbCircle
 10
1505.922694
 20
418.262248
 30
0.0
 40
5.0
  0
LINE
  5
D9
100
AcDbEntity
  8
MSL-5-300-7
100
AcDbLine
 10
1505.922694
 20
418.262248
 30
0.0
 11
1505.922694
 21
411.122499
 31
0.0
  0
LINE
  5
DA
100
AcDbEntity
  8
MSL-5-300-7
100
AcDbLine
 10
1505.922694
 20
418.262248
 30
0.0
 11
1505.922694
 21
425.401997
 31
0.0
  0
LINE
  5
DB
100
AcDbEntity
  8
MSL-5-300-7
100
AcDbLine
 10
1505.922694
 20
418.262248
 30
0.0
 11
1498.782946
 21
418.262248
 31
0.0
  0
LINE
  5
DC
100
AcDbEntity
  8
MSL-5-300-7
100
AcDbLine
 10
1625.922694
 20
409.538659
 30
0.0
 11
1625.922694
 21
365.351129
 31
0.0
  0
LINE
  5
DD
100
AcDbEntity
  8
MSL-5-300-7
100
AcDbLine
 10
1565.922694
 20
409.538659
 30
0.0
 11
1565.922694
 21
365.351129
 31
0.0
  0
CIRCLE
  5
DE
100
AcDbEntity
  8
MSL-5-300-3
100
AcDbCircle
 10
1565.922694
 20
358.262248
 30
0.0
 40
5.0
  0
LINE
  5
DF
100
AcDbEntity
  8
MSL-5-300-7
100
AcDbLine
 10
1565.922694
 20
358.262248
 30
0.0
 11
1573.011575
 21
358.262248
 31
0.0
  0
LINE
  5
E0
100
AcDbEntity
  8
MSL-5-300-7
100
AcDbLine
 10
1565.922694
 20
358.262248
 30
0.0
 11
1565.922694
 21
351.173367
 31
0.0
  0
LINE
  5
E1
100
AcDbEntity
  8
MSL-5-300-7
100
AcDbLine
 10
1535.922694
 20
358.262248
 30
0.0
 11
1535.922694
 21
351.531458
 31
0.0
  0
ARC
  5
E2
100
AcDbEntity
  8
MSL-5-300-3
100
AcDbCircle
 10
1535.922694
 20
358.262248
 30
0.0
 40
5.0
100
AcDbArc
 50
82.606248
 51
7.300134
  0
CIRCLE
  5
E3
100
AcDbEntity
  8
MSL-5-300-3
100
AcDbCircle
 10
1535.922694
 20
358.262248
 30
0.0
 40
4.25
  0
LINE
  5
E4
100
AcDbEntity
  8
MSL-5-300-7
100
AcDbLine
 10
1535.922694
 20
358.262248
 30
0.0
 11
1535.922694
 21
364.993038
 31
0.0
  0
LINE
  5
E5
100
AcDbEntity
  8
MSL-5-300-7
100
AcDbLine
 10
1535.922694
 20
358.262248
 30
0.0
 11
1529.191904
 21
358.262248
 31
0.0
  0
LINE
  5
E6
100
AcDbEntity
  8
MSL-5-300-7
100
AcDbLine
 10
1535.922694
 20
358.262248
 30
0.0
 11
1542.653484
 21
358.262248
 31
0.0
  0
LINE
  5
E7
100
AcDbEntity
  8
MSL-5-300-7
100
AcDbLine
 10
1565.922694
 20
358.262248
 30
0.0
 11
1558.833814
 21
358.262248
 31
0.0
  0
LINE
  5
E8
100
AcDbEntity
  8
MSL-5-300-7
100
AcDbLine
 10
1565.922694
 20
358.262248
 30
0.0
 11
1565.922694
 21
365.351129
 31
0.0
  0
CIRCLE
  5
E9
100
AcDbEntity
  8
MSL-5-300-3
100
AcDbCircle
 10
1595.922694
 20
358.262248
 30
0.0
 40
4.25
  0
ARC
  5
EA
100
AcDbEntity
  8
MSL-5-300-3
100
AcDbCircle
 10
1595.922694
 20
358.262248
 30
0.0
 40
5.0
100
AcDbArc
 50
82.606248
 51
7.300134
  0
LINE
  5
EB
100
AcDbEntity
  8
MSL-5-300-7
100
AcDbLine
 10
1595.922694
 20
358.262248
 30
0.0
 11
1595.922694
 21
351.531458
 31
0.0
  0
LINE
  5
EC
100
AcDbEntity
  8
MSL-5-300-7
100
AcDbLine
 10
1595.922694
 20
358.262248
 30
0.0
 11
1589.191904
 21
358.262248
 31
0.0
  0
LINE
  5
ED
100
AcDbEntity
  8
MSL-5-300-7
100
AcDbLine
 10
1595.922694
 20
358.262248
 30
0.0
 11
1595.922694
 21
364.993038
 31
0.0
  0
LINE
  5
EE
100
AcDbEntity
  8
MSL-5-300-7
100
AcDbLine
 10
1595.922694
 20
358.262248
 30
0.0
 11
1602.653484
 21
358.262248
 31
0.0
  0
CIRCLE
  5
EF
100
AcDbEntity
  8
MSL-5-300-3
100
AcDbCircle
 10
1625.922694
 20
358.262248
 30
0.0
 40
5.0
  0
LINE
  5
F0
100
AcDbEntity
  8
MSL-5-300-7
100
AcDbLine
 10
1625.922694
 20
358.262248
 30
0.0
 11
1625.922694
 21
351.173367
 31
0.0
  0
LINE
  5
F1
100
AcDbEntity
  8
MSL-5-300-7
100
AcDbLine
 10
1625.922694
 20
358.262248
 30
0.0
 11
1633.011575
 21
358.262248
 31
0.0
  0
LINE
  5
F2
100
AcDbEntity
  8
MSL-5-300-7
100
AcDbLine
 10
1625.922694
 20
358.262248
 30
0.0
 11
1625.922694
 21
365.351129
 31
0.0
  0
LINE
  5
F3
100
AcDbEntity
  8
MSL-5-300-7
100
AcDbLine
 10
1625.922694
 20
358.262248
 30
0.0
 11
1618.833814
 21
358.262248
 31
0.0
  0
LINE
  5
F4
100
AcDbEntity
  8
MSL-5-300-7
100
AcDbLine
 10
1655.922694
 20
358.262248
 30
0.0
 11
1655.922694
 21
351.531458
 31
0.0
  0
ARC
  5
F5
100
AcDbEntity
  8
MSL-5-300-3
100
AcDbCircle
 10
1655.922694
 20
358.262248
 30
0.0
 40
5.0
100
AcDbArc
 50
82.606248
 51
7.300134
  0
CIRCLE
  5
F6
100
AcDbEntity
  8
MSL-5-300-3
100
AcDbCircle
 10
1655.922694
 20
358.262248
 30
0.0
 40
4.25
  0
LINE
  5
F7
100
AcDbEntity
  8
MSL-5-300-7
100
AcDbLine
 10
1655.922694
 20
358.262248
 30
0.0
 11
1662.653484
 21
358.262248
 31
0.0
  0
LINE
  5
F8
100
AcDbEntity
  8
MSL-5-300-7
100
AcDbLine
 10
1655.922694
 20
358.262248
 30
0.0
 11
1655.922694
 21
364.993038
 31
0.0
  0
LINE
  5
F9
100
AcDbEntity
  8
MSL-5-300-7
100
AcDbLine
 10
1655.922694
 20
358.262248
 30
0.0
 11
1649.191904
 21
358.262248
 31
0.0
  0
CIRCLE
  5
FA
100
AcDbEntity
  8
MSL-5-300-3
100
AcDbCircle
 10
1565.922694
 20
418.262248
 30
0.0
 40
5.0
  0
LINE
  5
FB
100
AcDbEntity
  8
MSL-5-300-7
100
AcDbLine
 10
1565.922694
 20
418.262248
 30
0.0
 11
1573.062443
 21
418.262248
 31
0.0
  0
LINE
  5
FC
100
AcDbEntity
  8
MSL-5-300-7
100
AcDbLine
 10
1535.922694
 20
418.262248
 30
0.0
 11
1535.922694
 21
411.419535
 31
0.0
  0
LINE
  5
FD
100
AcDbEntity
  8
MSL-5-300-7
100
AcDbLine
 10
1535.922694
 20
418.262248
 30
0.0
 11
1529.079981
 21
418.262248
 31
0.0
  0
LINE
  5
FE
100
AcDbEntity
  8
MSL-5-300-7
100
AcDbLine
 10
1535.922694
 20
418.262248
 30
0.0
 11
1535.922694
 21
425.104961
 31
0.0
  0
LINE
  5
FF
100
AcDbEntity
  8
MSL-5-300-7
100
AcDbLine
 10
1535.922694
 20
418.262248
 30
0.0
 11
1542.765408
 21
418.262248
 31
0.0
  0
ARC
  5
100
100
AcDbEntity
  8
MSL-5-300-3
100
AcDbCircle
 10
1535.922694
 20
418.262248
 30
0.0
 40
5.0
100
AcDbArc
 50
82.606248
 51
7.300134
  0
CIRCLE
  5
101
100
AcDbEntity
  8
MSL-5-300-3
100
AcDbCircle
 10
1535.922694
 20
418.262248
 30
0.0
 40
4.25
  0
LINE
  5
102
100
AcDbEntity
  8
MSL-5-300-7
100
AcDbLine
 10
1565.922694
 20
418.262248
 30
0.0
 11
1558.782946
 21
418.262248
 31
0.0
  0
LINE
  5
103
100
AcDbEntity
  8
MSL-5-300-7
100
AcDbLine
 10
1565.922694
 20
418.262248
 30
0.0
 11
1565.922694
 21
425.401997
 31
0.0
  0
LINE
  5
104
100
AcDbEntity
  8
MSL-5-300-7
100
AcDbLine
 10
1565.922694
 20
418.262248
 30
0.0
 11
1565.922694
 21
411.122499
 31
0.0
  0
CIRCLE
  5
105
100
AcDbEntity
  8
MSL-5-300-3
100
AcDbCircle
 10
1595.922694
 20
418.262248
 30
0.0
 40
4.25
  0
ARC
  5
106
100
AcDbEntity
  8
MSL-5-300-3
100
AcDbCircle
 10
1595.922694
 20
418.262248
 30
0.0
 40
5.0
100
AcDbArc
 50
82.606248
 51
7.300134
  0
LINE
  5
107
100
AcDbEntity
  8
MSL-5-300-7
100
AcDbLine
 10
1595.922694
 20
418.262248
 30
0.0
 11
1595.922694
 21
425.104961
 31
0.0
  0
LINE
  5
108
100
AcDbEntity
  8
MSL-5-300-7
100
AcDbLine
 10
1595.922694
 20
418.262248
 30
0.0
 11
1589.079981
 21
418.262248
 31
0.0
  0
LINE
  5
109
100
AcDbEntity
  8
MSL-5-300-7
100
AcDbLine
 10
1595.922694
 20
418.262248
 30
0.0
 11
1595.922694
 21
411.419535
 31
0.0
  0
LINE
  5
10A
100
AcDbEntity
  8
MSL-5-300-7
100
AcDbLine
 10
1595.922694
 20
418.262248
 30
0.0
 11
1602.765408
 21
418.262248
 31
0.0
  0
LINE
  5
10B
100
AcDbEntity
  8
MSL-5-300-7
100
AcDbLine
 10
1625.922694
 20
418.262248
 30
0.0
 11
1633.062443
 21
418.262248
 31
0.0
  0
CIRCLE
  5
10C
100
AcDbEntity
  8
MSL-5-300-3
100
AcDbCircle
 10
1625.922694
 20
418.262248
 30
0.0
 40
5.0
  0
LINE
  5
10D
100
AcDbEntity
  8
MSL-5-300-7
100
AcDbLine
 10
1625.922694
 20
418.262248
 30
0.0
 11
1625.922694
 21
411.122499
 31
0.0
  0
LINE
  5
10E
100
AcDbEntity
  8
MSL-5-300-7
100
AcDbLine
 10
1625.922694
 20
418.262248
 30
0.0
 11
1625.922694
 21
425.401997
 31
0.0
  0
LINE
  5
10F
100
AcDbEntity
  8
MSL-5-300-7
100
AcDbLine
 10
1625.922694
 20
418.262248
 30
0.0
 11
1618.782946
 21
418.262248
 31
0.0
  0
LINE
  5
110
100
AcDbEntity
  8
MSL-5-300-7
100
AcDbLine
 10
1655.922694
 20
418.262248
 30
0.0
 11
1662.765408
 21
418.262248
 31
0.0
  0
LINE
  5
111
100
AcDbEntity
  8
MSL-5-300-7
100
AcDbLine
 10
1655.922694
 20
418.262248
 30
0.0
 11
1655.922694
 21
411.419535
 31
0.0
  0
LINE
  5
112
100
AcDbEntity
  8
MSL-5-300-7
100
AcDbLine
 10
1655.922694
 20
418.262248
 30
0.0
 11
1655.922694
 21
425.104961
 31
0.0
  0
ARC
  5
113
100
AcDbEntity
  8
MSL-5-300-3
100
AcDbCircle
 10
1655.922694
 20
418.262248
 30
0.0
 40
5.0
100
AcDbArc
 50
82.606248
 51
7.300134
  0
CIRCLE
  5
114
100
AcDbEntity
  8
MSL-5-300-3
100
AcDbCircle
 10
1655.922694
 20
418.262248
 30
0.0
 40
4.25
  0
LINE
  5
115
100
AcDbEntity
  8
MSL-5-300-7
100
AcDbLine
 10
1655.922694
 20
418.262248
 30
0.0
 11
1649.079981
 21
418.262248
 31
0.0
  0
LINE
  5
116
100
AcDbEntity
  8
MSL-5-300-7
100
AcDbLine
 10
1683.922694
 20
440.262177
 30
0.0
 11
1676.538829
 21
440.262177
 31
0.0
  0
LINE
  5
117
100
AcDbEntity
  8
MSL-5-300-7
100
AcDbLine
 10
1683.922694
 20
440.262177
 30
0.0
 11
1683.922694
 21
432.878312
 31
0.0
  0
LINE
  5
118
100
AcDbEntity
  8
MSL-5-300-7
100
AcDbLine
 10
2057.435546
 20
440.262177
 30
0.0
 11
1717.318701
 21
440.262177
 31
0.0
  0
LINE
  5
119
100
AcDbEntity
  8
MSL-5-300-7
100
AcDbLine
 10
2057.435546
 20
336.262177
 30
0.0
 11
1717.318701
 21
336.262177
 31
0.0
  0
LINE
  5
11A
100
AcDbEntity
  8
MSL-5-300-0
100
AcDbLine
 10
2050.922694
 20
323.762177
 30
0.0
 11
1734.525401
 21
323.762177
 31
0.0
  0
LINE
  5
11B
100
AcDbEntity
  8
MSL-5-300-0
100
AcDbLine
 10
2050.922694
 20
348.762177
 30
0.0
 11
1774.722694
 21
348.762177
 31
0.0
  0
LINE
  5
11C
100
AcDbEntity
  8
MSL-5-300-0
100
AcDbLine
 10
2050.922694
 20
382.262177
 30
0.0
 11
1746.922694
 21
382.262177
 31
0.0
  0
LINE
  5
11D
100
AcDbEntity
  8
MSL-5-300-0
100
AcDbLine
 10
2050.922694
 20
394.262177
 30
0.0
 11
1746.922694
 21
394.262177
 31
0.0
  0
LINE
  5
11E
100
AcDbEntity
  8
MSL-5-300-0
100
AcDbLine
 10
2050.922694
 20
427.762177
 30
0.0
 11
1727.922694
 21
427.762177
 31
0.0
  0
LINE
  5
11F
100
AcDbEntity
  8
MSL-5-300-7
100
AcDbLine
 10
1716.924844
 20
388.262177
 30
0.0
 11
2079.256748
 21
388.262177
 31
0.0
  0
LINE
  5
120
100
AcDbEntity
  8
MSL-5-300-0
100
AcDbLine
 10
1746.922694
 20
375.762177
 30
0.0
 11
1745.922694
 21
374.762177
 31
0.0
  0
LINE
  5
121
100
AcDbEntity
  8
MSL-5-300-0
100
AcDbLine
 10
1745.922694
 20
401.762177
 30
0.0
 11
1745.922694
 21
374.762177
 31
0.0
  0
LINE
  5
122
100
AcDbEntity
  8
MSL-5-300-0
100
AcDbLine
 10
1699.422694
 20
409.262177
 30
0.0
 11
1699.422694
 21
367.262177
 31
0.0
  0
LINE
  5
123
100
AcDbEntity
  8
MSL-5-300-0
100
AcDbLine
 10
1773.722694
 20
351.870248
 30
0.0
 11
1761.222694
 21
351.870248
 31
0.0
  0
LINE
  5
124
100
AcDbEntity
  8
MSL-5-300-0
100
AcDbLine
 10
1761.222694
 20
328.870248
 30
0.0
 11
1773.722694
 21
328.870248
 31
0.0
  0
LINE
  5
125
100
AcDbEntity
  8
MSL-5-300-7
100
AcDbLine
 10
1722.813417
 20
340.262177
 30
0.0
 11
1779.708058
 21
340.262177
 31
0.0
  0
LINE
  5
126
100
AcDbEntity
  8
MSL-5-300-0
100
AcDbLine
 10
1727.922694
 20
353.252558
 30
0.0
 11
1727.922694
 21
327.271795
 31
0.0
  0
ARC
  5
127
100
AcDbEntity
  8
MSL-5-300-0
100
AcDbCircle
 10
1744.747694
 20
340.262177
 30
0.0
 40
16.825
100
AcDbArc
 50
149.0209
 51
210.9791
  0
LINE
  5
128
100
AcDbEntity
  8
MSL-5-300-0
100
AcDbLine
 10
1735.922694
 20
353.252558
 30
0.0
 11
1735.922694
 21
327.271795
 31
0.0
  0
ARC
  5
129
100
AcDbEntity
  8
MSL-5-300-0
100
AcDbCircle
 10
1719.097694
 20
340.262177
 30
0.0
 40
16.825
100
AcDbArc
 50
329.020901
 51
30.979099
  0
LINE
  5
12A
100
AcDbEntity
  8
MSL-5-300-0
100
AcDbLine
 10
1736.422694
 20
351.870248
 30
0.0
 11
1736.422694
 21
328.870248
 31
0.0
  0
LINE
  5
12B
100
AcDbEntity
  8
MSL-5-300-0
100
AcDbLine
 10
1761.222694
 20
351.870248
 30
0.0
 11
1761.222694
 21
328.870248
 31
0.0
  0
ARC
  5
12C
100
AcDbEntity
  8
MSL-5-300-0
100
AcDbCircle
 10
1733.028944
 20
327.271795
 30
0.0
 40
5.10625
100
AcDbArc
 50
122.004627
 51
237.995373
  0
LINE
  5
12D
100
AcDbEntity
  8
MSL-5-300-0
100
AcDbLine
 10
1736.422694
 20
336.370248
 30
0.0
 11
1761.222694
 21
336.370248
 31
0.0
  0
LINE
  5
12E
100
AcDbEntity
  8
MSL-5-300-0
100
AcDbLine
 10
1730.322694
 20
331.601923
 30
0.0
 11
1733.522694
 21
331.601923
 31
0.0
  0
LINE
  5
12F
100
AcDbEntity
  8
MSL-5-300-0
100
AcDbLine
 10
1736.422694
 20
328.870248
 30
0.0
 11
1735.823888
 21
328.271442
 31
0.0
  0
LINE
  5
130
100
AcDbEntity
  8
MSL-5-300-0
100
AcDbLine
 10
1730.322694
 20
322.941668
 30
0.0
 11
1733.522694
 21
322.941668
 31
0.0
  0
ARC
  5
131
100
AcDbEntity
  8
MSL-5-300-0
100
AcDbCircle
 10
1730.816444
 20
327.271795
 30
0.0
 40
5.10625
100
AcDbArc
 50
302.004628
 51
57.995372
  0
LINE
  5
132
100
AcDbEntity
  8
MSL-5-300-0
100
AcDbLine
 10
1745.922694
 20
374.762177
 30
0.0
 11
1727.922694
 21
374.762177
 31
0.0
  0
ARC
  5
133
100
AcDbEntity
  8
MSL-5-300-0
100
AcDbCircle
 10
1733.028944
 20
353.252558
 30
0.0
 40
5.10625
100
AcDbArc
 50
122.004627
 51
237.995373
  0
LINE
  5
134
100
AcDbEntity
  8
MSL-5-300-0
100
AcDbLine
 10
1699.422694
 20
367.262177
 30
0.0
 11
1727.922694
 21
367.262177
 31
0.0
  0
LINE
  5
135
100
AcDbEntity
  8
MSL-5-300-0
100
AcDbLine
 10
1761.222694
 20
348.762177
 30
0.0
 11
1736.422694
 21
348.762177
 31
0.0
  0
LINE
  5
136
100
AcDbEntity
  8
MSL-5-300-0
100
AcDbLine
 10
1736.422694
 20
344.370248
 30
0.0
 11
1761.222694
 21
344.370248
 31
0.0
  0
LINE
  5
137
100
AcDbEntity
  8
MSL-5-300-0
100
AcDbLine
 10
1730.322694
 20
348.922431
 30
0.0
 11
1733.522694
 21
348.922431
 31
0.0
  0
LINE
  5
138
100
AcDbEntity
  8
MSL-5-300-0
100
AcDbLine
 10
1730.322694
 20
357.582685
 30
0.0
 11
1733.522694
 21
357.582685
 31
0.0
  0
ARC
  5
139
100
AcDbEntity
  8
MSL-5-300-0
100
AcDbCircle
 10
1730.816444
 20
353.252558
 30
0.0
 40
5.10625
100
AcDbArc
 50
302.004628
 51
57.995372
  0
LINE
  5
13A
100
AcDbEntity
  8
MSL-5-300-0
100
AcDbLine
 10
1735.856976
 20
352.435966
 30
0.0
 11
1736.422694
 21
351.870248
 31
0.0
  0
LINE
  5
13B
100
AcDbEntity
  8
MSL-5-300-0
100
AcDbLine
 10
1774.722694
 20
329.870248
 30
0.0
 11
1774.722694
 21
350.870248
 31
0.0
  0
LINE
  5
13C
100
AcDbEntity
  8
MSL-5-300-0
100
AcDbLine
 10
1773.722694
 20
328.870248
 30
0.0
 11
1773.722694
 21
351.870248
 31
0.0
  0
LINE
  5
13D
100
AcDbEntity
  8
MSL-5-300-0
100
AcDbLine
 10
1773.722694
 20
328.870248
 30
0.0
 11
1774.722694
 21
329.870248
 31
0.0
  0
LINE
  5
13E
100
AcDbEntity
  8
MSL-5-300-0
100
AcDbLine
 10
1774.722694
 20
350.870248
 30
0.0
 11
1773.722694
 21
351.870248
 31
0.0
  0
LINE
  5
13F
100
AcDbEntity
  8
MSL-5-300-0
100
AcDbLine
 10
1727.922694
 20
401.762177
 30
0.0
 11
1745.922694
 21
401.762177
 31
0.0
  0
CIRCLE
  5
140
100
AcDbEntity
  8
MSL-5-300-0
100
AcDbCircle
 10
1713.922694
 20
388.262248
 30
0.0
 40
5.053
  0
ARC
  5
141
100
AcDbEntity
  8
MSL-5-300-4
100
AcDbCircle
 10
1713.922694
 20
388.262248
 30
0.0
 40
6.0
100
AcDbArc
 50
172.405357
 51
104.931417
  0
LINE
  5
142
100
AcDbEntity
  8
MSL-5-300-7
100
AcDbLine
 10
1713.922694
 20
379.262248
 30
0.0
 11
1713.922694
 21
397.262248
 31
0.0
  0
LINE
  5
143
100
AcDbEntity
  8
MSL-5-300-7
100
AcDbLine
 10
1707.617765
 20
388.262105
 30
0.0
 11
1720.227765
 21
388.262105
 31
0.0
  0
LINE
  5
144
100
AcDbEntity
  8
MSL-5-300-7
100
AcDbLine
 10
1720.227623
 20
388.262248
 30
0.0
 11
1707.617623
 21
388.262248
 31
0.0
  0
LINE
  5
145
100
AcDbEntity
  8
MSL-5-300-7
100
AcDbLine
 10
1704.922694
 20
388.262248
 30
0.0
 11
1722.922694
 21
388.262248
 31
0.0
  0
LINE
  5
146
100
AcDbEntity
  8
MSL-5-300-0
100
AcDbLine
 10
1727.922694
 20
409.262177
 30
0.0
 11
1699.422694
 21
409.262177
 31
0.0
  0
LINE
  5
147
100
AcDbEntity
  8
MSL-5-300-0
100
AcDbLine
 10
1746.922694
 20
400.762177
 30
0.0
 11
1746.922694
 21
375.762177
 31
0.0
  0
LINE
  5
148
100
AcDbEntity
  8
MSL-5-300-0
100
AcDbLine
 10
1745.922694
 20
401.762177
 30
0.0
 11
1746.922694
 21
400.762177
 31
0.0
  0
ARC
  5
149
100
AcDbEntity
  8
MSL-5-300-0
100
AcDbCircle
 10
1727.814013
 20
432.900961
 30
0.0
 40
3.108681
100
AcDbArc
 50
307.878144
 51
52.121856
  0
LINE
  5
14A
100
AcDbEntity
  8
MSL-5-300-0
100
AcDbLine
 10
1729.722694
 20
435.354699
 30
0.0
 11
1727.922694
 21
435.354699
 31
0.0
  0
LINE
  5
14B
100
AcDbEntity
  8
MSL-5-300-0
100
AcDbLine
 10
1727.922694
 20
430.462177
 30
0.0
 11
1729.741765
 21
430.462177
 31
0.0
  0
LINE
  5
14C
100
AcDbEntity
  8
MSL-5-300-7
100
AcDbLine
 10
2067.922694
 20
341.680191
 30
0.0
 11
2067.922694
 21
310.262248
 31
0.0
  0
LINE
  5
14D
100
AcDbEntity
  8
MSL-5-300-7
100
AcDbLine
 10
2058.922694
 20
332.262248
 30
0.0
 11
2058.922694
 21
348.262248
 31
0.0
  0
ARC
  5
14E
100
AcDbEntity
  8
MSL-5-300-3
100
AcDbCircle
 10
2058.922694
 20
340.262248
 30
0.0
 40
5.0
100
AcDbArc
 50
280.0
 51
210.0
  0
CIRCLE
  5
14F
100
AcDbEntity
  8
MSL-5-300-3
100
AcDbCircle
 10
2058.922694
 20
340.262248
 30
0.0
 40
4.188
  0
LINE
  5
150
100
AcDbEntity
  8
MSL-5-300-0
100
AcDbLine
 10
2075.922694
 20
313.262177
 30
0.0
 11
2050.922694
 21
313.262177
 31
0.0
  0
LINE
  5
151
100
AcDbEntity
  8
MSL-5-300-7
100
AcDbLine
 10
2050.922694
 20
340.262248
 30
0.0
 11
2066.922694
 21
340.262248
 31
0.0
  0
LINE
  5
152
100
AcDbEntity
  8
MSL-5-300-3
100
AcDbLine
 10
2063.734694
 20
313.262248
 30
0.0
 11
2063.734694
 21
336.262248
 31
0.0
  0
LINE
  5
153
100
AcDbEntity
  8
MSL-5-300-3
100
AcDbLine
 10
2062.922694
 20
313.262248
 30
0.0
 11
2062.922694
 21
330.262248
 31
0.0
  0
LINE
  5
154
100
AcDbEntity
  8
MSL-5-300-3
100
AcDbLine
 10
2072.110694
 20
313.262248
 30
0.0
 11
2072.110694
 21
336.262248
 31
0.0
  0
LINE
  5
155
100
AcDbEntity
  8
MSL-5-300-3
100
AcDbLine
 10
2072.922694
 20
313.262248
 30
0.0
 11
2072.922694
 21
330.262248
 31
0.0
  0
LINE
  5
156
100
AcDbEntity
  8
MSL-5-300-3
100
AcDbLine
 10
2067.922694
 20
338.680191
 30
0.0
 11
2063.734694
 21
336.262248
 31
0.0
  0
LINE
  5
157
100
AcDbEntity
  8
MSL-5-300-3
100
AcDbLine
 10
2062.922694
 20
330.262248
 30
0.0
 11
2072.922694
 21
330.262248
 31
0.0
  0
LINE
  5
158
100
AcDbEntity
  8
MSL-5-300-3
100
AcDbLine
 10
2067.922694
 20
338.680191
 30
0.0
 11
2072.110694
 21
336.262248
 31
0.0
  0
LINE
  5
159
100
AcDbEntity
  8
MSL-5-300-3
100
AcDbLine
 10
2072.110694
 20
336.262248
 30
0.0
 11
2063.734694
 21
336.262248
 31
0.0
  0
LINE
  5
15A
100
AcDbEntity
  8
MSL-5-300-3
100
AcDbLine
 10
2050.922694
 20
367.262248
 30
0.0
 11
2057.922694
 21
367.262248
 31
0.0
  0
LINE
  5
15B
100
AcDbEntity
  8
MSL-5-300-3
100
AcDbLine
 10
2057.922694
 20
349.262248
 30
0.0
 11
2050.922694
 21
349.262248
 31
0.0
  0
LINE
  5
15C
100
AcDbEntity
  8
MSL-5-300-7
100
AcDbLine
 10
2077.922694
 20
358.262248
 30
0.0
 11
2048.922694
 21
358.262248
 31
0.0
  0
LINE
  5
15D
100
AcDbEntity
  8
MSL-5-300-3
100
AcDbLine
 10
2057.922694
 20
367.262248
 30
0.0
 11
2057.922694
 21
349.262248
 31
0.0
  0
LINE
  5
15E
100
AcDbEntity
  8
MSL-5-300-3
100
AcDbLine
 10
2057.922694
 20
352.762248
 30
0.0
 11
2075.922694
 21
352.762248
 31
0.0
  0
LINE
  5
15F
100
AcDbEntity
  8
MSL-5-300-3
100
AcDbLine
 10
2057.922694
 20
363.762248
 30
0.0
 11
2075.922694
 21
363.762248
 31
0.0
  0
CIRCLE
  5
160
100
AcDbEntity
  8
MSL-5-300-3
100
AcDbCircle
 10
2058.922694
 20
436.262248
 30
0.0
 40
4.188
  0
ARC
  5
161
100
AcDbEntity
  8
MSL-5-300-3
100
AcDbCircle
 10
2058.922694
 20
436.262248
 30
0.0
 40
5.0
100
AcDbArc
 50
280.0
 51
210.0
  0
LINE
  5
162
100
AcDbEntity
  8
MSL-5-300-3
100
AcDbLine
 10
2050.922694
 20
423.262248
 30
0.0
 11
2075.922694
 21
423.262248
 31
0.0
  0
LINE
  5
163
100
AcDbEntity
  8
MSL-5-300-7
100
AcDbLine
 10
2050.922694
 20
436.262248
 30
0.0
 11
2066.922694
 21
436.262248
 31
0.0
  0
LINE
  5
164
100
AcDbEntity
  8
MSL-5-300-3
100
AcDbLine
 10
2050.922694
 20
413.262248
 30
0.0
 11
2075.922694
 21
413.262248
 31
0.0
  0
LINE
  5
165
100
AcDbEntity
  8
MSL-5-300-7
100
AcDbLine
 10
2077.922694
 20
418.262248
 30
0.0
 11
2048.922694
 21
418.262248
 31
0.0
  0
LINE
  5
166
100
AcDbEntity
  8
MSL-5-300-0
100
AcDbLine
 10
2031.740194
 20
436.5094
 30
0.0
 11
2034.922694
 21
436.5094
 31
0.0
  0
LINE
  5
167
100
AcDbEntity
  8
MSL-5-300-0
100
AcDbLine
 10
2031.740194
 20
432.756623
 30
0.0
 11
2034.922694
 21
432.756623
 31
0.0
  0
LINE
  5
168
100
AcDbEntity
  8
MSL-5-300-0
100
AcDbLine
 10
2031.740194
 20
444.014953
 30
0.0
 11
2034.922694
 21
444.014953
 31
0.0
  0
ARC
  5
169
100
AcDbEntity
  8
MSL-5-300-0
100
AcDbCircle
 10
2039.945104
 20
440.262177
 30
0.0
 40
9.02241
100
AcDbArc
 50
155.421502
 51
204.578498
  0
ARC
  5
16A
100
AcDbEntity
  8
MSL-5-300-0
100
AcDbCircle
 10
2033.484859
 20
434.633011
 30
0.0
 40
2.562165
100
AcDbArc
 50
132.916662
 51
227.083338
  0
ARC
  5
16B
100
AcDbEntity
  8
MSL-5-300-0
100
AcDbCircle
 10
2054.632416
 20
440.262177
 30
0.0
 40
7.709722
100
AcDbArc
 50
150.872216
 51
209.127784
  0
ARC
  5
16C
100
AcDbEntity
  8
MSL-5-300-0
100
AcDbCircle
 10
2043.212972
 20
440.262177
 30
0.0
 40
7.709722
100
AcDbArc
 50
330.872218
 51
29.127782
  0
LINE
  5
16D
100
AcDbEntity
  8
MSL-5-300-0
100
AcDbLine
 10
2047.897694
 20
436.5094
 30
0.0
 11
2049.947694
 21
436.5094
 31
0.0
  0
LINE
  5
16E
100
AcDbEntity
  8
MSL-5-300-0
100
AcDbLine
 10
2047.897694
 20
432.756623
 30
0.0
 11
2049.947694
 21
432.756623
 31
0.0
  0
ARC
  5
16F
100
AcDbEntity
  8
MSL-5-300-0
100
AcDbCircle
 10
2049.21575
 20
434.633011
 30
0.0
 40
2.293056
100
AcDbArc
 50
125.085847
 51
234.914153
  0
ARC
  5
170
100
AcDbEntity
  8
MSL-5-300-0
100
AcDbCircle
 10
2048.629638
 20
434.633011
 30
0.0
 40
2.293056
100
AcDbArc
 50
305.085848
 51
54.914152
  0
LINE
  5
171
100
AcDbEntity
  8
MSL-5-300-0
100
AcDbLine
 10
2047.897694
 20
444.014953
 30
0.0
 11
2049.947694
 21
444.014953
 31
0.0
  0
LINE
  5
172
100
AcDbEntity
  8
MSL-5-300-0
100
AcDbLine
 10
2034.922694
 20
436.262177
 30
0.0
 11
2046.922694
 21
436.262177
 31
0.0
  0
LINE
  5
173
100
AcDbEntity
  8
MSL-5-300-0
100
AcDbLine
 10
2034.922694
 20
444.262177
 30
0.0
 11
2046.922694
 21
444.262177
 31
0.0
  0
LINE
  5
174
100
AcDbEntity
  8
MSL-5-300-3
100
AcDbLine
 10
2067.922694
 20
437.844305
 30
0.0
 11
2072.110694
 21
440.262248
 31
0.0
  0
LINE
  5
175
100
AcDbEntity
  8
MSL-5-300-3
100
AcDbLine
 10
2067.922694
 20
437.844305
 30
0.0
 11
2063.734694
 21
440.262248
 31
0.0
  0
LINE
  5
176
100
AcDbEntity
  8
MSL-5-300-3
100
AcDbLine
 10
2072.110694
 20
440.262248
 30
0.0
 11
2063.734694
 21
440.262248
 31
0.0
  0
LINE
  5
177
100
AcDbEntity
  8
MSL-5-300-7
100
AcDbLine
 10
2058.922694
 20
428.262248
 30
0.0
 11
2058.922694
 21
444.262248
 31
0.0
  0
LINE
  5
178
100
AcDbEntity
  8
MSL-5-300-0
100
AcDbLine
 10
1678.422694
 20
672.411267
 30
0.0
 11
1689.422694
 21
672.411267
 31
0.0
  0
LINE
  5
179
100
AcDbEntity
  8
MSL-5-300-0
100
AcDbLine
 10
1343.922694
 20
463.262177
 30
0.0
 11
1727.922694
 21
463.262177
 31
0.0
  0
LINE
  5
17A
100
AcDbEntity
  8
MSL-5-300-0
100
AcDbLine
 10
1727.922694
 20
881.606156
 30
0.0
 11
1343.922694
 21
881.606156
 31
0.0
  0
LINE
  5
17B
100
AcDbEntity
  8
MSL-5-300-0
100
AcDbLine
 10
1727.922694
 20
559.411267
 30
0.0
 11
1343.922694
 21
559.411267
 31
0.0
  0
LINE
  5
17C
100
AcDbEntity
  8
MSL-5-300-0
100
AcDbLine
 10
1343.922694
 20
635.411267
 30
0.0
 11
1727.922694
 21
635.411267
 31
0.0
  0
LINE
  5
17D
100
AcDbEntity
  8
MSL-5-300-0
100
AcDbLine
 10
1343.922694
 20
731.606156
 30
0.0
 11
1727.922694
 21
731.606156
 31
0.0
  0
LINE
  5
17E
100
AcDbEntity
  8
MSL-5-300-0
100
AcDbLine
 10
1727.922694
 20
670.411267
 30
0.0
 11
1343.922694
 21
670.411267
 31
0.0
  0
MTEXT
  5
17F
100
AcDbEntity
  8
5
100
AcDbMText
 10
1347.750988
 20
566.29719
 30
0.0
 40
3.5
 41
22.192126
 71
     1
 72
     1
  1
{MSL-5-300}
  0
LINE
  5
180
100
AcDbEntity
  8
MSL-5-300-3
100
AcDbLine
 10
1312.922694
 20
583.82921
 30
0.0
 11
1308.734694
 21
581.411267
 31
0.0
  0
LINE
  5
181
100
AcDbEntity
  8
MSL-5-300-3
100
AcDbLine
 10
1312.922694
 20
583.82921
 30
0.0
 11
1308.734694
 21
581.411267
 31
0.0
  0
LINE
  5
182
100
AcDbEntity
  8
MSL-5-300-3
100
AcDbLine
 10
1312.922694
 20
583.82921
 30
0.0
 11
1317.110694
 21
581.411267
 31
0.0
  0
LINE
  5
183
100
AcDbEntity
  8
MSL-5-300-3
100
AcDbLine
 10
1312.922694
 20
583.82921
 30
0.0
 11
1317.110694
 21
581.411267
 31
0.0
  0
LINE
  5
184
100
AcDbEntity
  8
MSL-5-300-7
100
AcDbLine
 10
1312.922694
 20
586.82921
 30
0.0
 11
1312.922694
 21
555.411267
 31
0.0
  0
LINE
  5
185
100
AcDbEntity
  8
MSL-5-300-7
100
AcDbLine
 10
1312.922694
 20
586.82921
 30
0.0
 11
1312.922694
 21
555.411267
 31
0.0
  0
LINE
  5
186
100
AcDbEntity
  8
MSL-5-300-3
100
AcDbLine
 10
1196.140408
 20
583.82921
 30
0.0
 11
1191.952408
 21
581.411267
 31
0.0
  0
LINE
  5
187
100
AcDbEntity
  8
MSL-5-300-3
100
AcDbLine
 10
1196.140408
 20
583.82921
 30
0.0
 11
1191.952408
 21
581.411267
 31
0.0
  0
LINE
  5
188
100
AcDbEntity
  8
MSL-5-300-3
100
AcDbLine
 10
1196.140408
 20
583.82921
 30
0.0
 11
1200.328408
 21
581.411267
 31
0.0
  0
LINE
  5
189
100
AcDbEntity
  8
MSL-5-300-3
100
AcDbLine
 10
1196.140408
 20
583.82921
 30
0.0
 11
1200.328408
 21
581.411267
 31
0.0
  0
LINE
  5
18A
100
AcDbEntity
  8
MSL-5-300-7
100
AcDbLine
 10
1196.140408
 20
586.82921
 30
0.0
 11
1196.140408
 21
555.411267
 31
0.0
  0
LINE
  5
18B
100
AcDbEntity
  8
MSL-5-300-7
100
AcDbLine
 10
1196.140408
 20
586.82921
 30
0.0
 11
1196.140408
 21
555.411267
 31
0.0
  0
LINE
  5
18C
100
AcDbEntity
  8
MSL-5-300-3
100
AcDbLine
 10
1100.140408
 20
583.82921
 30
0.0
 11
1095.952408
 21
581.411267
 31
0.0
  0
LINE
  5
18D
100
AcDbEntity
  8
MSL-5-300-3
100
AcDbLine
 10
1100.140408
 20
583.82921
 30
0.0
 11
1095.952408
 21
581.411267
 31
0.0
  0
LINE
  5
18E
100
AcDbEntity
  8
MSL-5-300-3
100
AcDbLine
 10
1100.140408
 20
583.82921
 30
0.0
 11
1104.328408
 21
581.411267
 31
0.0
  0
LINE
  5
18F
100
AcDbEntity
  8
MSL-5-300-3
100
AcDbLine
 10
1100.140408
 20
583.82921
 30
0.0
 11
1104.328408
 21
581.411267
 31
0.0
  0
LINE
  5
190
100
AcDbEntity
  8
MSL-5-300-7
100
AcDbLine
 10
1100.140408
 20
586.82921
 30
0.0
 11
1100.140408
 21
555.411267
 31
0.0
  0
LINE
  5
191
100
AcDbEntity
  8
MSL-5-300-7
100
AcDbLine
 10
1100.140408
 20
586.82921
 30
0.0
 11
1100.140408
 21
555.411267
 31
0.0
  0
LINE
  5
192
100
AcDbEntity
  8
MSL-5-300-0
100
AcDbLine
 10
1320.922694
 20
558.411267
 30
0.0
 11
1320.922694
 21
658.411267
 31
0.0
  0
LINE
  5
193
100
AcDbEntity
  8
MSL-5-300-0
100
AcDbLine
 10
1343.922694
 20
559.411267
 30
0.0
 11
1343.922694
 21
670.411267
 31
0.0
  0
LINE
  5
194
100
AcDbEntity
  8
MSL-5-300-0
100
AcDbLine
 10
1223.140408
 20
558.411267
 30
0.0
 11
1223.140408
 21
658.411267
 31
0.0
  0
LINE
  5
195
100
AcDbEntity
  8
MSL-5-300-0
100
AcDbLine
 10
1295.922694
 20
558.411267
 30
0.0
 11
1295.922694
 21
658.411267
 31
0.0
  0
LINE
  5
196
100
AcDbEntity
  8
MSL-5-300-7
100
AcDbLine
 10
1096.140408
 20
597.411267
 30
0.0
 11
1096.140408
 21
582.839634
 31
0.0
  0
LINE
  5
197
100
AcDbEntity
  8
MSL-5-300-7
100
AcDbLine
 10
1200.140408
 20
597.411267
 30
0.0
 11
1200.140408
 21
582.905699
 31
0.0
  0
LINE
  5
198
100
AcDbEntity
  8
MSL-5-300-7
100
AcDbLine
 10
1148.140408
 20
597.411267
 30
0.0
 11
1148.140408
 21
575.54259
 31
0.0
  0
LINE
  5
199
100
AcDbEntity
  8
MSL-5-300-0
100
AcDbLine
 10
1073.140408
 20
658.411267
 30
0.0
 11
1073.140408
 21
558.411267
 31
0.0
  0
LINE
  5
19A
100
AcDbEntity
  8
MSL-5-300-7
100
AcDbLine
 10
1194.722466
 20
567.411267
 30
0.0
 11
1226.140408
 21
567.411267
 31
0.0
  0
LINE
  5
19B
100
AcDbEntity
  8
MSL-5-300-3
100
AcDbLine
 10
1223.140408
 20
563.223267
 30
0.0
 11
1200.140408
 21
563.223267
 31
0.0
  0
LINE
  5
19C
100
AcDbEntity
  8
MSL-5-300-3
100
AcDbLine
 10
1223.140408
 20
571.599267
 30
0.0
 11
1200.140408
 21
571.599267
 31
0.0
  0
LINE
  5
19D
100
AcDbEntity
  8
MSL-5-300-3
100
AcDbLine
 10
1073.140408
 20
559.411267
 30
0.0
 11
1223.140408
 21
559.411267
 31
0.0
  0
LINE
  5
19E
100
AcDbEntity
  8
MSL-5-300-0
100
AcDbLine
 10
1073.140408
 20
558.411267
 30
0.0
 11
1223.140408
 21
558.411267
 31
0.0
  0
CIRCLE
  5
19F
100
AcDbEntity
  8
MSL-5-300-0
100
AcDbCircle
 10
1118.140408
 20
567.411267
 30
0.0
 40
5.5
  0
ARC
  5
1A0
100
AcDbEntity
  8
MSL-5-300-3
100
AcDbCircle
 10
1118.140408
 20
567.411267
 30
0.0
 40
9.0
100
AcDbArc
 50
0.0
 51
179.999998
  0
LINE
  5
1A1
100
AcDbEntity
  8
MSL-5-300-7
100
AcDbLine
 10
1118.140408
 20
567.411267
 30
0.0
 11
1129.96717
 21
567.411267
 31
0.0
  0
LINE
  5
1A2
100
AcDbEntity
  8
MSL-5-300-7
100
AcDbLine
 10
1101.558351
 20
567.411267
 30
0.0
 11
1070.140408
 21
567.411267
 31
0.0
  0
LINE
  5
1A3
100
AcDbEntity
  8
MSL-5-300-3
100
AcDbLine
 10
1073.140408
 20
563.223267
 30
0.0
 11
1096.140408
 21
563.223267
 31
0.0
  0
LINE
  5
1A4
100
AcDbEntity
  8
MSL-5-300-3
100
AcDbLine
 10
1073.140408
 20
571.599267
 30
0.0
 11
1096.140408
 21
571.599267
 31
0.0
  0
LINE
  5
1A5
100
AcDbEntity
  8
MSL-5-300-3
100
AcDbLine
 10
1073.140408
 20
562.411267
 30
0.0
 11
1090.140408
 21
562.411267
 31
0.0
  0
LINE
  5
1A6
100
AcDbEntity
  8
MSL-5-300-3
100
AcDbLine
 10
1073.140408
 20
572.411267
 30
0.0
 11
1090.140408
 21
572.411267
 31
0.0
  0
LINE
  5
1A7
100
AcDbEntity
  8
MSL-5-300-3
100
AcDbLine
 10
1109.140408
 20
567.411267
 30
0.0
 11
1109.140408
 21
558.411267
 31
0.0
  0
LINE
  5
1A8
100
AcDbEntity
  8
MSL-5-300-3
100
AcDbLine
 10
1090.140408
 20
562.411267
 30
0.0
 11
1090.140408
 21
572.411267
 31
0.0
  0
LINE
  5
1A9
100
AcDbEntity
  8
MSL-5-300-3
100
AcDbLine
 10
1096.140408
 20
563.223267
 30
0.0
 11
1096.140408
 21
571.599267
 31
0.0
  0
LINE
  5
1AA
100
AcDbEntity
  8
MSL-5-300-3
100
AcDbLine
 10
1098.558351
 20
567.411267
 30
0.0
 11
1096.140408
 21
563.223267
 31
0.0
  0
LINE
  5
1AB
100
AcDbEntity
  8
MSL-5-300-3
100
AcDbLine
 10
1095.952408
 20
558.411267
 30
0.0
 11
1095.952408
 21
581.411267
 31
0.0
  0
LINE
  5
1AC
100
AcDbEntity
  8
MSL-5-300-3
100
AcDbLine
 10
1095.952408
 20
558.411267
 30
0.0
 11
1095.952408
 21
581.411267
 31
0.0
  0
LINE
  5
1AD
100
AcDbEntity
  8
MSL-5-300-3
100
AcDbLine
 10
1104.328408
 20
558.411267
 30
0.0
 11
1104.328408
 21
581.411267
 31
0.0
  0
LINE
  5
1AE
100
AcDbEntity
  8
MSL-5-300-3
100
AcDbLine
 10
1095.140408
 20
558.411267
 30
0.0
 11
1095.140408
 21
575.411267
 31
0.0
  0
LINE
  5
1AF
100
AcDbEntity
  8
MSL-5-300-3
100
AcDbLine
 10
1095.140408
 20
558.411267
 30
0.0
 11
1095.140408
 21
575.411267
 31
0.0
  0
LINE
  5
1B0
100
AcDbEntity
  8
MSL-5-300-3
100
AcDbLine
 10
1105.140408
 20
558.411267
 30
0.0
 11
1105.140408
 21
575.411267
 31
0.0
  0
LINE
  5
1B1
100
AcDbEntity
  8
MSL-5-300-3
100
AcDbLine
 10
1105.140408
 20
558.411267
 30
0.0
 11
1105.140408
 21
575.411267
 31
0.0
  0
LINE
  5
1B2
100
AcDbEntity
  8
MSL-5-300-7
100
AcDbLine
 10
1118.140408
 20
567.411267
 30
0.0
 11
1118.140408
 21
555.584506
 31
0.0
  0
LINE
  5
1B3
100
AcDbEntity
  8
MSL-5-300-3
100
AcDbLine
 10
1095.140408
 20
575.411267
 30
0.0
 11
1105.140408
 21
575.411267
 31
0.0
  0
LINE
  5
1B4
100
AcDbEntity
  8
MSL-5-300-3
100
AcDbLine
 10
1095.140408
 20
575.411267
 30
0.0
 11
1105.140408
 21
575.411267
 31
0.0
  0
LINE
  5
1B5
100
AcDbEntity
  8
MSL-5-300-3
100
AcDbLine
 10
1095.952408
 20
581.411267
 30
0.0
 11
1104.328408
 21
581.411267
 31
0.0
  0
LINE
  5
1B6
100
AcDbEntity
  8
MSL-5-300-3
100
AcDbLine
 10
1095.952408
 20
581.411267
 30
0.0
 11
1104.328408
 21
581.411267
 31
0.0
  0
LINE
  5
1B7
100
AcDbEntity
  8
MSL-5-300-3
100
AcDbLine
 10
1098.558351
 20
567.411267
 30
0.0
 11
1096.140408
 21
571.599267
 31
0.0
  0
LINE
  5
1B8
100
AcDbEntity
  8
MSL-5-300-7
100
AcDbLine
 10
1118.140408
 20
567.411267
 30
0.0
 11
1106.313647
 21
567.411267
 31
0.0
  0
LINE
  5
1B9
100
AcDbEntity
  8
MSL-5-300-7
100
AcDbLine
 10
1118.140408
 20
567.411267
 30
0.0
 11
1118.140408
 21
579.238028
 31
0.0
  0
LINE
  5
1BA
100
AcDbEntity
  8
MSL-5-300-7
100
AcDbLine
 10
1148.140408
 20
567.411267
 30
0.0
 11
1148.140408
 21
559.546319
 31
0.0
  0
LINE
  5
1BB
100
AcDbEntity
  8
MSL-5-300-3
100
AcDbLine
 10
1127.140408
 20
558.411267
 30
0.0
 11
1127.140408
 21
567.411267
 31
0.0
  0
CIRCLE
  5
1BC
100
AcDbEntity
  8
MSL-5-300-0
100
AcDbCircle
 10
1148.140408
 20
567.411267
 30
0.0
 40
5.0
  0
LINE
  5
1BD
100
AcDbEntity
  8
MSL-5-300-7
100
AcDbLine
 10
1148.140408
 20
567.411267
 30
0.0
 11
1140.27546
 21
567.411267
 31
0.0
  0
LINE
  5
1BE
100
AcDbEntity
  8
MSL-5-300-7
100
AcDbLine
 10
1148.140408
 20
567.411267
 30
0.0
 11
1148.140408
 21
575.276215
 31
0.0
  0
LINE
  5
1BF
100
AcDbEntity
  8
MSL-5-300-7
100
AcDbLine
 10
1148.140408
 20
567.411267
 30
0.0
 11
1156.005357
 21
567.411267
 31
0.0
  0
LINE
  5
1C0
100
AcDbEntity
  8
MSL-5-300-3
100
AcDbLine
 10
1200.140408
 20
563.223267
 30
0.0
 11
1200.140408
 21
571.599267
 31
0.0
  0
LINE
  5
1C1
100
AcDbEntity
  8
MSL-5-300-3
100
AcDbLine
 10
1187.140408
 20
567.411267
 30
0.0
 11
1187.140408
 21
558.411267
 31
0.0
  0
LINE
  5
1C2
100
AcDbEntity
  8
MSL-5-300-3
100
AcDbLine
 10
1197.722466
 20
567.411267
 30
0.0
 11
1200.140408
 21
563.223267
 31
0.0
  0
LINE
  5
1C3
100
AcDbEntity
  8
MSL-5-300-3
100
AcDbLine
 10
1191.952408
 20
558.411267
 30
0.0
 11
1191.952408
 21
581.411267
 31
0.0
  0
LINE
  5
1C4
100
AcDbEntity
  8
MSL-5-300-3
100
AcDbLine
 10
1191.952408
 20
558.411267
 30
0.0
 11
1191.952408
 21
581.411267
 31
0.0
  0
LINE
  5
1C5
100
AcDbEntity
  8
MSL-5-300-3
100
AcDbLine
 10
1191.140408
 20
558.411267
 30
0.0
 11
1191.140408
 21
575.411267
 31
0.0
  0
LINE
  5
1C6
100
AcDbEntity
  8
MSL-5-300-3
100
AcDbLine
 10
1191.140408
 20
558.411267
 30
0.0
 11
1191.140408
 21
575.411267
 31
0.0
  0
LINE
  5
1C7
100
AcDbEntity
  8
MSL-5-300-3
100
AcDbLine
 10
1200.328408
 20
558.411267
 30
0.0
 11
1200.328408
 21
581.411267
 31
0.0
  0
LINE
  5
1C8
100
AcDbEntity
  8
MSL-5-300-3
100
AcDbLine
 10
1200.328408
 20
558.411267
 30
0.0
 11
1200.328408
 21
581.411267
 31
0.0
  0
LINE
  5
1C9
100
AcDbEntity
  8
MSL-5-300-3
100
AcDbLine
 10
1201.140408
 20
558.411267
 30
0.0
 11
1201.140408
 21
575.411267
 31
0.0
  0
LINE
  5
1CA
100
AcDbEntity
  8
MSL-5-300-3
100
AcDbLine
 10
1201.140408
 20
558.411267
 30
0.0
 11
1201.140408
 21
575.411267
 31
0.0
  0
LINE
  5
1CB
100
AcDbEntity
  8
MSL-5-300-3
100
AcDbLine
 10
1169.140408
 20
558.411267
 30
0.0
 11
1169.140408
 21
567.411267
 31
0.0
  0
CIRCLE
  5
1CC
100
AcDbEntity
  8
MSL-5-300-0
100
AcDbCircle
 10
1178.140408
 20
567.411267
 30
0.0
 40
5.5
  0
LINE
  5
1CD
100
AcDbEntity
  8
MSL-5-300-7
100
AcDbLine
 10
1178.140408
 20
567.411267
 30
0.0
 11
1178.140408
 21
555.779012
 31
0.0
  0
ARC
  5
1CE
100
AcDbEntity
  8
MSL-5-300-3
100
AcDbCircle
 10
1178.140408
 20
567.411267
 30
0.0
 40
9.0
100
AcDbArc
 50
0.0
 51
179.999998
  0
LINE
  5
1CF
100
AcDbEntity
  8
MSL-5-300-7
100
AcDbLine
 10
1178.140408
 20
567.411267
 30
0.0
 11
1189.772664
 21
567.411267
 31
0.0
  0
LINE
  5
1D0
100
AcDbEntity
  8
MSL-5-300-7
100
AcDbLine
 10
1178.140408
 20
567.411267
 30
0.0
 11
1166.508153
 21
567.411267
 31
0.0
  0
LINE
  5
1D1
100
AcDbEntity
  8
MSL-5-300-7
100
AcDbLine
 10
1178.140408
 20
567.411267
 30
0.0
 11
1178.140408
 21
579.043522
 31
0.0
  0
LINE
  5
1D2
100
AcDbEntity
  8
MSL-5-300-3
100
AcDbLine
 10
1191.140408
 20
575.411267
 30
0.0
 11
1201.140408
 21
575.411267
 31
0.0
  0
LINE
  5
1D3
100
AcDbEntity
  8
MSL-5-300-3
100
AcDbLine
 10
1191.140408
 20
575.411267
 30
0.0
 11
1201.140408
 21
575.411267
 31
0.0
  0
LINE
  5
1D4
100
AcDbEntity
  8
MSL-5-300-3
100
AcDbLine
 10
1191.952408
 20
581.411267
 30
0.0
 11
1200.328408
 21
581.411267
 31
0.0
  0
LINE
  5
1D5
100
AcDbEntity
  8
MSL-5-300-3
100
AcDbLine
 10
1191.952408
 20
581.411267
 30
0.0
 11
1200.328408
 21
581.411267
 31
0.0
  0
LINE
  5
1D6
100
AcDbEntity
  8
MSL-5-300-3
100
AcDbLine
 10
1197.722466
 20
567.411267
 30
0.0
 11
1200.140408
 21
571.599267
 31
0.0
  0
LINE
  5
1D7
100
AcDbEntity
  8
MSL-5-300-0
100
AcDbLine
 10
1337.319987
 20
452.762177
 30
0.0
 11
1320.922694
 21
452.762177
 31
0.0
  0
LINE
  5
1D8
100
AcDbEntity
  8
MSL-5-300-0
100
AcDbLine
 10
1334.422694
 20
447.762177
 30
0.0
 11
1321.922694
 21
447.762177
 31
0.0
  0
LINE
  5
1D9
100
AcDbEntity
  8
MSL-5-300-3
100
AcDbLine
 10
1308.922694
 20
463.262248
 30
0.0
 11
1308.922694
 21
446.262248
 31
0.0
  0
LINE
  5
1DA
100
AcDbEntity
  8
MSL-5-300-3
100
AcDbLine
 10
1298.922694
 20
463.262248
 30
0.0
 11
1298.922694
 21
446.262248
 31
0.0
  0
LINE
  5
1DB
100
AcDbEntity
  8
MSL-5-300-3
100
AcDbLine
 10
1298.922694
 20
446.262248
 30
0.0
 11
1308.922694
 21
446.262248
 31
0.0
  0
LINE
  5
1DC
100
AcDbEntity
  8
MSL-5-300-0
100
AcDbLine
 10
1321.922694
 20
447.762177
 30
0.0
 11
1320.922694
 21
446.762177
 31
0.0
  0
LINE
  5
1DD
100
AcDbEntity
  8
MSL-5-300-0
100
AcDbLine
 10
1320.922694
 20
463.262177
 30
0.0
 11
1295.922694
 21
463.262177
 31
0.0
  0
LINE
  5
1DE
100
AcDbEntity
  8
MSL-5-300-0
100
AcDbLine
 10
1343.922694
 20
452.762177
 30
0.0
 11
1342.525401
 21
452.762177
 31
0.0
  0
LINE
  5
1DF
100
AcDbEntity
  8
MSL-5-300-0
100
AcDbLine
 10
1341.522694
 20
453.582685
 30
0.0
 11
1338.322694
 21
453.582685
 31
0.0
  0
LINE
  5
1E0
100
AcDbEntity
  8
MSL-5-300-0
100
AcDbLine
 10
1341.522694
 20
444.922431
 30
0.0
 11
1338.322694
 21
444.922431
 31
0.0
  0
LINE
  5
1E1
100
AcDbEntity
  8
MSL-5-300-0
100
AcDbLine
 10
1335.922694
 20
448.262177
 30
0.0
 11
1335.422694
 21
447.762177
 31
0.0
  0
ARC
  5
1E2
100
AcDbEntity
  8
MSL-5-300-0
100
AcDbCircle
 10
1338.816444
 20
449.252558
 30
0.0
 40
5.10625
100
AcDbArc
 50
302.004628
 51
57.995372
  0
ARC
  5
1E3
100
AcDbEntity
  8
MSL-5-300-0
100
AcDbCircle
 10
1341.028944
 20
449.252558
 30
0.0
 40
5.10625
100
AcDbArc
 50
122.004627
 51
237.995373
  0
LINE
  5
1E4
100
AcDbEntity
  8
MSL-5-300-3
100
AcDbLine
 10
1206.140408
 20
562.411267
 30
0.0
 11
1206.140408
 21
572.411267
 31
0.0
  0
LINE
  5
1E5
100
AcDbEntity
  8
MSL-5-300-3
100
AcDbLine
 10
1223.140408
 20
562.411267
 30
0.0
 11
1206.140408
 21
562.411267
 31
0.0
  0
LINE
  5
1E6
100
AcDbEntity
  8
MSL-5-300-3
100
AcDbLine
 10
1223.140408
 20
572.411267
 30
0.0
 11
1206.140408
 21
572.411267
 31
0.0
  0
LINE
  5
1E7
100
AcDbEntity
  8
MSL-5-300-3
100
AcDbLine
 10
1313.922694
 20
576.411267
 30
0.0
 11
1313.922694
 21
558.411267
 31
0.0
  0
LINE
  5
1E8
100
AcDbEntity
  8
MSL-5-300-3
100
AcDbLine
 10
1317.110694
 20
558.411267
 30
0.0
 11
1317.110694
 21
581.411267
 31
0.0
  0
LINE
  5
1E9
100
AcDbEntity
  8
MSL-5-300-3
100
AcDbLine
 10
1317.110694
 20
558.411267
 30
0.0
 11
1317.110694
 21
581.411267
 31
0.0
  0
LINE
  5
1EA
100
AcDbEntity
  8
MSL-5-300-3
100
AcDbLine
 10
1317.922694
 20
558.411267
 30
0.0
 11
1317.922694
 21
575.411267
 31
0.0
  0
LINE
  5
1EB
100
AcDbEntity
  8
MSL-5-300-3
100
AcDbLine
 10
1317.922694
 20
558.411267
 30
0.0
 11
1317.922694
 21
575.411267
 31
0.0
  0
ARC
  5
1EC
100
AcDbEntity
  8
MSL-5-300-4
100
AcDbCircle
 10
1303.922694
 20
567.411267
 30
0.0
 40
5.0
100
AcDbArc
 50
280.0
 51
210.0
  0
CIRCLE
  5
1ED
100
AcDbEntity
  8
MSL-5-300-0
100
AcDbCircle
 10
1303.922694
 20
567.411267
 30
0.0
 40
4.188
  0
LINE
  5
1EE
100
AcDbEntity
  8
MSL-5-300-3
100
AcDbLine
 10
1308.734694
 20
558.411267
 30
0.0
 11
1308.734694
 21
581.411267
 31
0.0
  0
LINE
  5
1EF
100
AcDbEntity
  8
MSL-5-300-3
100
AcDbLine
 10
1308.734694
 20
558.411267
 30
0.0
 11
1308.734694
 21
581.411267
 31
0.0
  0
LINE
  5
1F0
100
AcDbEntity
  8
MSL-5-300-3
100
AcDbLine
 10
1307.922694
 20
558.411267
 30
0.0
 11
1307.922694
 21
575.411267
 31
0.0
  0
LINE
  5
1F1
100
AcDbEntity
  8
MSL-5-300-3
100
AcDbLine
 10
1307.922694
 20
558.411267
 30
0.0
 11
1307.922694
 21
575.411267
 31
0.0
  0
LINE
  5
1F2
100
AcDbEntity
  8
MSL-5-300-7
100
AcDbLine
 10
1303.922694
 20
559.411267
 30
0.0
 11
1303.922694
 21
575.411267
 31
0.0
  0
LINE
  5
1F3
100
AcDbEntity
  8
MSL-5-300-3
100
AcDbLine
 10
1320.922694
 20
562.411267
 30
0.0
 11
1295.922694
 21
562.411267
 31
0.0
  0
LINE
  5
1F4
100
AcDbEntity
  8
MSL-5-300-0
100
AcDbLine
 10
1320.922694
 20
558.411267
 30
0.0
 11
1295.922694
 21
558.411267
 31
0.0
  0
LINE
  5
1F5
100
AcDbEntity
  8
MSL-5-300-3
100
AcDbLine
 10
1313.922694
 20
561.911267
 30
0.0
 11
1295.922694
 21
561.911267
 31
0.0
  0
LINE
  5
1F6
100
AcDbEntity
  8
MSL-5-300-7
100
AcDbLine
 10
1295.922694
 20
567.411267
 30
0.0
 11
1311.922694
 21
567.411267
 31
0.0
  0
LINE
  5
1F7
100
AcDbEntity
  8
MSL-5-300-3
100
AcDbLine
 10
1320.922694
 20
572.411267
 30
0.0
 11
1295.922694
 21
572.411267
 31
0.0
  0
LINE
  5
1F8
100
AcDbEntity
  8
MSL-5-300-7
100
AcDbLine
 10
1322.922694
 20
567.411267
 30
0.0
 11
1293.922694
 21
567.411267
 31
0.0
  0
LINE
  5
1F9
100
AcDbEntity
  8
MSL-5-300-3
100
AcDbLine
 10
1313.922694
 20
572.911267
 30
0.0
 11
1295.922694
 21
572.911267
 31
0.0
  0
LINE
  5
1FA
100
AcDbEntity
  8
MSL-5-300-3
100
AcDbLine
 10
1320.922694
 20
576.411267
 30
0.0
 11
1313.922694
 21
576.411267
 31
0.0
  0
LINE
  5
1FB
100
AcDbEntity
  8
MSL-5-300-3
100
AcDbLine
 10
1307.922694
 20
575.411267
 30
0.0
 11
1317.922694
 21
575.411267
 31
0.0
  0
LINE
  5
1FC
100
AcDbEntity
  8
MSL-5-300-3
100
AcDbLine
 10
1307.922694
 20
575.411267
 30
0.0
 11
1317.922694
 21
575.411267
 31
0.0
  0
LINE
  5
1FD
100
AcDbEntity
  8
MSL-5-300-3
100
AcDbLine
 10
1308.734694
 20
581.411267
 30
0.0
 11
1317.110694
 21
581.411267
 31
0.0
  0
LINE
  5
1FE
100
AcDbEntity
  8
MSL-5-300-3
100
AcDbLine
 10
1308.734694
 20
581.411267
 30
0.0
 11
1317.110694
 21
581.411267
 31
0.0
  0
LINE
  5
1FF
100
AcDbEntity
  8
MSL-5-300-0
100
AcDbLine
 10
1194.640408
 20
672.411267
 30
0.0
 11
1205.640408
 21
672.411267
 31
0.0
  0
LINE
  5
200
100
AcDbEntity
  8
MSL-5-300-7
100
AcDbLine
 10
1200.140408
 20
597.411267
 30
0.0
 11
1214.645976
 21
597.411267
 31
0.0
  0
LINE
  5
201
100
AcDbEntity
  8
MSL-5-300-7
100
AcDbLine
 10
1194.722466
 20
627.411267
 30
0.0
 11
1226.140408
 21
627.411267
 31
0.0
  0
LINE
  5
202
100
AcDbEntity
  8
MSL-5-300-7
100
AcDbLine
 10
1194.722466
 20
627.411267
 30
0.0
 11
1226.140408
 21
627.411267
 31
0.0
  0
LINE
  5
203
100
AcDbEntity
  8
MSL-5-300-3
100
AcDbLine
 10
1223.140408
 20
623.223267
 30
0.0
 11
1200.140408
 21
623.223267
 31
0.0
  0
LINE
  5
204
100
AcDbEntity
  8
MSL-5-300-3
100
AcDbLine
 10
1223.140408
 20
623.223267
 30
0.0
 11
1200.140408
 21
623.223267
 31
0.0
  0
LINE
  5
205
100
AcDbEntity
  8
MSL-5-300-3
100
AcDbLine
 10
1223.140408
 20
631.599267
 30
0.0
 11
1200.140408
 21
631.599267
 31
0.0
  0
LINE
  5
206
100
AcDbEntity
  8
MSL-5-300-3
100
AcDbLine
 10
1223.140408
 20
631.599267
 30
0.0
 11
1200.140408
 21
631.599267
 31
0.0
  0
CIRCLE
  5
207
100
AcDbEntity
  8
MSL-5-300-0
100
AcDbCircle
 10
1200.140408
 20
597.411267
 30
0.0
 40
12.5
  0
LINE
  5
208
100
AcDbEntity
  8
MSL-5-300-0
100
AcDbLine
 10
1223.140408
 20
658.411267
 30
0.0
 11
1073.140408
 21
658.411267
 31
0.0
  0
LINE
  5
209
100
AcDbEntity
  8
MSL-5-300-0
100
AcDbLine
 10
1220.640408
 20
670.411267
 30
0.0
 11
1075.640408
 21
670.411267
 31
0.0
  0
ARC
  5
20A
100
AcDbEntity
  8
MSL-5-300-0
100
AcDbCircle
 10
1070.640432
 20
651.409954
 30
0.0
 40
1.5
100
AcDbArc
 50
90.000038
 51
180.000041
  0
CIRCLE
  5
20B
100
AcDbEntity
  8
MSL-5-300-0
100
AcDbCircle
 10
1118.140408
 20
597.411267
 30
0.0
 40
5.0
  0
LINE
  5
20C
100
AcDbEntity
  8
MSL-5-300-7
100
AcDbLine
 10
1118.140408
 20
627.411267
 30
0.0
 11
1129.748361
 21
627.411267
 31
0.0
  0
LINE
  5
20D
100
AcDbEntity
  8
MSL-5-300-7
100
AcDbLine
 10
1118.140408
 20
597.411267
 30
0.0
 11
1126.028621
 21
597.411267
 31
0.0
  0
CIRCLE
  5
20E
100
AcDbEntity
  8
MSL-5-300-0
100
AcDbCircle
 10
1118.140408
 20
627.411267
 30
0.0
 40
5.5
  0
CIRCLE
  5
20F
100
AcDbEntity
  8
MSL-5-300-3
100
AcDbCircle
 10
1118.140408
 20
627.411267
 30
0.0
 40
9.0
  0
LINE
  5
210
100
AcDbEntity
  8
MSL-5-300-7
100
AcDbLine
 10
1118.140408
 20
627.411267
 30
0.0
 11
1118.140408
 21
615.803314
 31
0.0
  0
LINE
  5
211
100
AcDbEntity
  8
MSL-5-300-3
100
AcDbLine
 10
1090.140408
 20
622.411267
 30
0.0
 11
1090.140408
 21
632.411267
 31
0.0
  0
LINE
  5
212
100
AcDbEntity
  8
MSL-5-300-3
100
AcDbLine
 10
1096.140408
 20
623.223267
 30
0.0
 11
1096.140408
 21
631.599267
 31
0.0
  0
LINE
  5
213
100
AcDbEntity
  8
MSL-5-300-3
100
AcDbLine
 10
1098.558351
 20
627.411267
 30
0.0
 11
1096.140408
 21
623.223267
 31
0.0
  0
LINE
  5
214
100
AcDbEntity
  8
MSL-5-300-3
100
AcDbLine
 10
1073.140408
 20
623.223267
 30
0.0
 11
1096.140408
 21
623.223267
 31
0.0
  0
LINE
  5
215
100
AcDbEntity
  8
MSL-5-300-3
100
AcDbLine
 10
1073.140408
 20
622.411267
 30
0.0
 11
1090.140408
 21
622.411267
 31
0.0
  0
LINE
  5
216
100
AcDbEntity
  8
MSL-5-300-7
100
AcDbLine
 10
1118.140408
 20
597.411267
 30
0.0
 11
1118.140408
 21
605.29948
 31
0.0
  0
LINE
  5
217
100
AcDbEntity
  8
MSL-5-300-7
100
AcDbLine
 10
1096.140408
 20
597.411267
 30
0.0
 11
1096.140408
 21
611.9829
 31
0.0
  0
CIRCLE
  5
218
100
AcDbEntity
  8
MSL-5-300-0
100
AcDbCircle
 10
1096.140408
 20
597.411267
 30
0.0
 40
12.5
  0
LINE
  5
219
100
AcDbEntity
  8
MSL-5-300-7
100
AcDbLine
 10
1096.140408
 20
597.411267
 30
0.0
 11
1110.712041
 21
597.411267
 31
0.0
  0
LINE
  5
21A
100
AcDbEntity
  8
MSL-5-300-7
100
AcDbLine
 10
1096.140408
 20
597.411267
 30
0.0
 11
1081.568776
 21
597.411267
 31
0.0
  0
LINE
  5
21B
100
AcDbEntity
  8
MSL-5-300-7
100
AcDbLine
 10
1118.140408
 20
597.411267
 30
0.0
 11
1110.252195
 21
597.411267
 31
0.0
  0
LINE
  5
21C
100
AcDbEntity
  8
MSL-5-300-7
100
AcDbLine
 10
1118.140408
 20
597.411267
 30
0.0
 11
1118.140408
 21
589.523054
 31
0.0
  0
LINE
  5
21D
100
AcDbEntity
  8
MSL-5-300-7
100
AcDbLine
 10
1101.558351
 20
627.411267
 30
0.0
 11
1070.140408
 21
627.411267
 31
0.0
  0
LINE
  5
21E
100
AcDbEntity
  8
MSL-5-300-3
100
AcDbLine
 10
1073.140408
 20
631.599267
 30
0.0
 11
1096.140408
 21
631.599267
 31
0.0
  0
LINE
  5
21F
100
AcDbEntity
  8
MSL-5-300-3
100
AcDbLine
 10
1073.140408
 20
632.411267
 30
0.0
 11
1090.140408
 21
632.411267
 31
0.0
  0
LINE
  5
220
100
AcDbEntity
  8
MSL-5-300-7
100
AcDbLine
 10
1066.35169
 20
647.411291
 30
0.0
 11
1077.544417
 21
647.411299
 31
0.0
  0
LINE
  5
221
100
AcDbEntity
  8
MSL-5-300-0
100
AcDbLine
 10
1073.140408
 20
641.909956
 30
0.0
 11
1070.640439
 21
641.909954
 31
0.0
  0
ARC
  5
222
100
AcDbEntity
  8
MSL-5-300-0
100
AcDbCircle
 10
1070.640437
 20
643.409954
 30
0.0
 40
1.5
100
AcDbArc
 50
180.000041
 51
270.00004
  0
LINE
  5
223
100
AcDbEntity
  8
MSL-5-300-0
100
AcDbLine
 10
1069.140437
 20
643.409953
 30
0.0
 11
1069.140432
 21
651.409953
 31
0.0
  0
LINE
  5
224
100
AcDbEntity
  8
MSL-5-300-7
100
AcDbLine
 10
1118.140408
 20
627.411267
 30
0.0
 11
1118.140408
 21
639.01922
 31
0.0
  0
LINE
  5
225
100
AcDbEntity
  8
MSL-5-300-3
100
AcDbLine
 10
1098.558351
 20
627.411267
 30
0.0
 11
1096.140408
 21
631.599267
 31
0.0
  0
LINE
  5
226
100
AcDbEntity
  8
MSL-5-300-7
100
AcDbLine
 10
1118.140408
 20
627.411267
 30
0.0
 11
1106.532456
 21
627.411267
 31
0.0
  0
LINE
  5
227
100
AcDbEntity
  8
MSL-5-300-3
100
AcDbLine
 10
1200.140408
 20
623.223267
 30
0.0
 11
1200.140408
 21
631.599267
 31
0.0
  0
LINE
  5
228
100
AcDbEntity
  8
MSL-5-300-3
100
AcDbLine
 10
1200.140408
 20
623.223267
 30
0.0
 11
1200.140408
 21
631.599267
 31
0.0
  0
LINE
  5
229
100
AcDbEntity
  8
MSL-5-300-3
100
AcDbLine
 10
1197.722466
 20
627.411267
 30
0.0
 11
1200.140408
 21
623.223267
 31
0.0
  0
LINE
  5
22A
100
AcDbEntity
  8
MSL-5-300-3
100
AcDbLine
 10
1197.722466
 20
627.411267
 30
0.0
 11
1200.140408
 21
623.223267
 31
0.0
  0
LINE
  5
22B
100
AcDbEntity
  8
MSL-5-300-7
100
AcDbLine
 10
1178.140408
 20
627.411267
 30
0.0
 11
1178.140408
 21
615.803314
 31
0.0
  0
LINE
  5
22C
100
AcDbEntity
  8
MSL-5-300-7
100
AcDbLine
 10
1148.140408
 20
597.411267
 30
0.0
 11
1148.140408
 21
619.279944
 31
0.0
  0
LINE
  5
22D
100
AcDbEntity
  8
MSL-5-300-7
100
AcDbLine
 10
1148.140408
 20
597.411267
 30
0.0
 11
1170.009086
 21
597.411267
 31
0.0
  0
LINE
  5
22E
100
AcDbEntity
  8
MSL-5-300-7
100
AcDbLine
 10
1148.140408
 20
597.411267
 30
0.0
 11
1126.271731
 21
597.411267
 31
0.0
  0
LINE
  5
22F
100
AcDbEntity
  8
MSL-5-300-7
100
AcDbLine
 10
1200.140408
 20
597.411267
 30
0.0
 11
1200.140408
 21
611.916835
 31
0.0
  0
CIRCLE
  5
230
100
AcDbEntity
  8
MSL-5-300-0
100
AcDbCircle
 10
1178.140408
 20
597.411267
 30
0.0
 40
5.0
  0
LINE
  5
231
100
AcDbEntity
  8
MSL-5-300-7
100
AcDbLine
 10
1178.140408
 20
597.411267
 30
0.0
 11
1178.140408
 21
604.886165
 31
0.0
  0
LINE
  5
232
100
AcDbEntity
  8
MSL-5-300-7
100
AcDbLine
 10
1178.140408
 20
597.411267
 30
0.0
 11
1185.615307
 21
597.411267
 31
0.0
  0
LINE
  5
233
100
AcDbEntity
  8
MSL-5-300-7
100
AcDbLine
 10
1178.140408
 20
597.411267
 30
0.0
 11
1170.66551
 21
597.411267
 31
0.0
  0
LINE
  5
234
100
AcDbEntity
  8
MSL-5-300-7
100
AcDbLine
 10
1178.140408
 20
597.411267
 30
0.0
 11
1178.140408
 21
589.936369
 31
0.0
  0
LINE
  5
235
100
AcDbEntity
  8
MSL-5-300-7
100
AcDbLine
 10
1200.140408
 20
597.411267
 30
0.0
 11
1185.634841
 21
597.411267
 31
0.0
  0
LINE
  5
236
100
AcDbEntity
  8
MSL-5-300-7
100
AcDbLine
 10
1148.140408
 20
627.411267
 30
0.0
 11
1140.27546
 21
627.411267
 31
0.0
  0
LINE
  5
237
100
AcDbEntity
  8
MSL-5-300-7
100
AcDbLine
 10
1148.140408
 20
627.411267
 30
0.0
 11
1148.140408
 21
619.546319
 31
0.0
  0
LINE
  5
238
100
AcDbEntity
  8
MSL-5-300-7
100
AcDbLine
 10
1148.140408
 20
627.411267
 30
0.0
 11
1148.140408
 21
635.276215
 31
0.0
  0
CIRCLE
  5
239
100
AcDbEntity
  8
MSL-5-300-0
100
AcDbCircle
 10
1148.140408
 20
627.411267
 30
0.0
 40
5.0
  0
LINE
  5
23A
100
AcDbEntity
  8
MSL-5-300-7
100
AcDbLine
 10
1148.140408
 20
627.411267
 30
0.0
 11
1156.005357
 21
627.411267
 31
0.0
  0
CIRCLE
  5
23B
100
AcDbEntity
  8
MSL-5-300-3
100
AcDbCircle
 10
1178.140408
 20
627.411267
 30
0.0
 40
9.0
  0
LINE
  5
23C
100
AcDbEntity
  8
MSL-5-300-7
100
AcDbLine
 10
1178.140408
 20
627.411267
 30
0.0
 11
1178.140408
 21
639.01922
 31
0.0
  0
LINE
  5
23D
100
AcDbEntity
  8
MSL-5-300-7
100
AcDbLine
 10
1178.140408
 20
627.411267
 30
0.0
 11
1189.748361
 21
627.411267
 31
0.0
  0
CIRCLE
  5
23E
100
AcDbEntity
  8
MSL-5-300-0
100
AcDbCircle
 10
1178.140408
 20
627.411267
 30
0.0
 40
5.5
  0
LINE
  5
23F
100
AcDbEntity
  8
MSL-5-300-7
100
AcDbLine
 10
1178.140408
 20
627.411267
 30
0.0
 11
1166.532456
 21
627.411267
 31
0.0
  0
LINE
  5
240
100
AcDbEntity
  8
MSL-5-300-3
100
AcDbLine
 10
1197.722466
 20
627.411267
 30
0.0
 11
1200.140408
 21
631.599267
 31
0.0
  0
LINE
  5
241
100
AcDbEntity
  8
MSL-5-300-3
100
AcDbLine
 10
1197.722466
 20
627.411267
 30
0.0
 11
1200.140408
 21
631.599267
 31
0.0
  0
ARC
  5
242
100
AcDbEntity
  8
MSL-5-300-0
100
AcDbCircle
 10
1075.640408
 20
668.411267
 30
0.0
 40
2.0
100
AcDbArc
 50
89.999999
 51
179.999998
  0
LINE
  5
243
100
AcDbEntity
  8
MSL-5-300-0
100
AcDbLine
 10
1070.640431
 20
666.909954
 30
0.0
 11
1073.640431
 21
666.909956
 31
0.0
  0
ARC
  5
244
100
AcDbEntity
  8
MSL-5-300-0
100
AcDbCircle
 10
1070.640432
 20
665.409954
 30
0.0
 40
1.5
100
AcDbArc
 50
90.000038
 51
180.000041
  0
LINE
  5
245
100
AcDbEntity
  8
MSL-5-300-0
100
AcDbLine
 10
1073.140408
 20
655.909956
 30
0.0
 11
1070.640439
 21
655.909954
 31
0.0
  0
LINE
  5
246
100
AcDbEntity
  8
MSL-5-300-0
100
AcDbLine
 10
1070.640431
 20
652.909954
 30
0.0
 11
1073.140408
 21
652.909956
 31
0.0
  0
ARC
  5
247
100
AcDbEntity
  8
MSL-5-300-0
100
AcDbCircle
 10
1070.640437
 20
657.409954
 30
0.0
 40
1.5
100
AcDbArc
 50
180.000041
 51
270.00004
  0
LINE
  5
248
100
AcDbEntity
  8
MSL-5-300-7
100
AcDbLine
 10
1066.35169
 20
661.411291
 30
0.0
 11
1077.544417
 21
661.411299
 31
0.0
  0
LINE
  5
249
100
AcDbEntity
  8
MSL-5-300-0
100
AcDbLine
 10
1073.640408
 20
668.411267
 30
0.0
 11
1073.640408
 21
658.411267
 31
0.0
  0
LINE
  5
24A
100
AcDbEntity
  8
MSL-5-300-0
100
AcDbLine
 10
1069.140437
 20
657.409953
 30
0.0
 11
1069.140432
 21
665.409953
 31
0.0
  0
LINE
  5
24B
100
AcDbEntity
  8
MSL-5-300-7
100
AcDbLine
 10
1096.140408
 20
675.522144
 30
0.0
 11
1096.140408
 21
667.58375
 31
0.0
  0
LINE
  5
24C
100
AcDbEntity
  8
MSL-5-300-0
100
AcDbLine
 10
1090.640408
 20
672.411267
 30
0.0
 11
1101.640408
 21
672.411267
 31
0.0
  0
LINE
  5
24D
100
AcDbEntity
  8
MSL-5-300-0
100
AcDbLine
 10
1090.640408
 20
670.411267
 30
0.0
 11
1090.640408
 21
672.411267
 31
0.0
  0
LINE
  5
24E
100
AcDbEntity
  8
MSL-5-300-0
100
AcDbLine
 10
1101.640408
 20
672.411267
 30
0.0
 11
1101.640408
 21
670.411267
 31
0.0
  0
MTEXT
  5
24F
100
AcDbEntity
  8
5
100
AcDbMText
 10
1138.057808
 20
665.805565
 30
0.0
 40
3.5
 41
22.192126
 71
     1
 72
     1
  1
{MSL-5-300}
  0
LINE
  5
250
100
AcDbEntity
  8
MSL-5-300-7
100
AcDbLine
 10
1200.140408
 20
675.522144
 30
0.0
 11
1200.140408
 21
667.58375
 31
0.0
  0
LINE
  5
251
100
AcDbEntity
  8
MSL-5-300-0
100
AcDbLine
 10
1194.640408
 20
670.411267
 30
0.0
 11
1194.640408
 21
672.411267
 31
0.0
  0
LINE
  5
252
100
AcDbEntity
  8
MSL-5-300-0
100
AcDbLine
 10
1321.922694
 20
660.911267
 30
0.0
 11
1321.922694
 21
637.911267
 31
0.0
  0
LINE
  5
253
100
AcDbEntity
  8
MSL-5-300-0
100
AcDbLine
 10
1320.922694
 20
659.911267
 30
0.0
 11
1320.922694
 21
638.911267
 31
0.0
  0
ARC
  5
254
100
AcDbEntity
  8
MSL-5-300-0
100
AcDbCircle
 10
1327.097694
 20
649.411267
 30
0.0
 40
16.825
100
AcDbArc
 50
329.020901
 51
30.979099
  0
LINE
  5
255
100
AcDbEntity
  8
MSL-5-300-0
100
AcDbLine
 10
1335.922694
 20
662.401649
 30
0.0
 11
1335.922694
 21
636.420886
 31
0.0
  0
ARC
  5
256
100
AcDbEntity
  8
MSL-5-300-0
100
AcDbCircle
 10
1352.747694
 20
649.411267
 30
0.0
 40
16.825
100
AcDbArc
 50
149.0209
 51
210.9791
  0
LINE
  5
257
100
AcDbEntity
  8
MSL-5-300-0
100
AcDbLine
 10
1335.422694
 20
660.911267
 30
0.0
 11
1335.422694
 21
637.911267
 31
0.0
  0
LINE
  5
258
100
AcDbEntity
  8
MSL-5-300-0
100
AcDbLine
 10
1334.422694
 20
637.911267
 30
0.0
 11
1334.422694
 21
660.911267
 31
0.0
  0
LINE
  5
259
100
AcDbEntity
  8
MSL-5-300-3
100
AcDbLine
 10
1206.140408
 20
622.411267
 30
0.0
 11
1206.140408
 21
632.411267
 31
0.0
  0
LINE
  5
25A
100
AcDbEntity
  8
MSL-5-300-3
100
AcDbLine
 10
1206.140408
 20
622.411267
 30
0.0
 11
1206.140408
 21
632.411267
 31
0.0
  0
LINE
  5
25B
100
AcDbEntity
  8
MSL-5-300-3
100
AcDbLine
 10
1223.140408
 20
622.411267
 30
0.0
 11
1206.140408
 21
622.411267
 31
0.0
  0
LINE
  5
25C
100
AcDbEntity
  8
MSL-5-300-3
100
AcDbLine
 10
1223.140408
 20
622.411267
 30
0.0
 11
1206.140408
 21
622.411267
 31
0.0
  0
LINE
  5
25D
100
AcDbEntity
  8
MSL-5-300-3
100
AcDbLine
 10
1223.140408
 20
632.411267
 30
0.0
 11
1206.140408
 21
632.411267
 31
0.0
  0
LINE
  5
25E
100
AcDbEntity
  8
MSL-5-300-3
100
AcDbLine
 10
1223.140408
 20
632.411267
 30
0.0
 11
1206.140408
 21
632.411267
 31
0.0
  0
LINE
  5
25F
100
AcDbEntity
  8
MSL-5-300-7
100
AcDbLine
 10
1303.922694
 20
619.411267
 30
0.0
 11
1303.922694
 21
635.411267
 31
0.0
  0
ARC
  5
260
100
AcDbEntity
  8
MSL-5-300-4
100
AcDbCircle
 10
1303.922694
 20
627.411267
 30
0.0
 40
5.0
100
AcDbArc
 50
280.0
 51
210.0
  0
CIRCLE
  5
261
100
AcDbEntity
  8
MSL-5-300-0
100
AcDbCircle
 10
1303.922694
 20
627.411267
 30
0.0
 40
4.188
  0
LINE
  5
262
100
AcDbEntity
  8
MSL-5-300-0
100
AcDbLine
 10
1320.922694
 20
609.911267
 30
0.0
 11
1343.922694
 21
609.911267
 31
0.0
  0
LINE
  5
263
100
AcDbEntity
  8
MSL-5-300-0
100
AcDbLine
 10
1343.922694
 20
584.911267
 30
0.0
 11
1320.922694
 21
584.911267
 31
0.0
  0
LINE
  5
264
100
AcDbEntity
  8
MSL-5-300-7
100
AcDbLine
 10
1292.922694
 20
597.411267
 30
0.0
 11
1352.927687
 21
597.411267
 31
0.0
  0
LINE
  5
265
100
AcDbEntity
  8
MSL-5-300-3
100
AcDbLine
 10
1295.922694
 20
592.411267
 30
0.0
 11
1320.922694
 21
592.411267
 31
0.0
  0
LINE
  5
266
100
AcDbEntity
  8
MSL-5-300-3
100
AcDbLine
 10
1295.922694
 20
602.411267
 30
0.0
 11
1320.922694
 21
602.411267
 31
0.0
  0
LINE
  5
267
100
AcDbEntity
  8
MSL-5-300-0
100
AcDbLine
 10
1324.922694
 20
584.911267
 30
0.0
 11
1325.922694
 21
583.911267
 31
0.0
  0
LINE
  5
268
100
AcDbEntity
  8
MSL-5-300-0
100
AcDbLine
 10
1325.922694
 20
584.911267
 30
0.0
 11
1325.922694
 21
583.911267
 31
0.0
  0
LINE
  5
269
100
AcDbEntity
  8
MSL-5-300-0
100
AcDbLine
 10
1325.922694
 20
583.911267
 30
0.0
 11
1343.922694
 21
583.911267
 31
0.0
  0
LINE
  5
26A
100
AcDbEntity
  8
MSL-5-300-0
100
AcDbLine
 10
1343.922694
 20
610.911267
 30
0.0
 11
1325.922694
 21
610.911267
 31
0.0
  0
LINE
  5
26B
100
AcDbEntity
  8
MSL-5-300-0
100
AcDbLine
 10
1325.922694
 20
610.911267
 30
0.0
 11
1325.922694
 21
609.911267
 31
0.0
  0
LINE
  5
26C
100
AcDbEntity
  8
MSL-5-300-0
100
AcDbLine
 10
1325.922694
 20
610.911267
 30
0.0
 11
1324.922694
 21
609.911267
 31
0.0
  0
LINE
  5
26D
100
AcDbEntity
  8
MSL-5-300-0
100
AcDbLine
 10
1321.922694
 20
637.911267
 30
0.0
 11
1334.422694
 21
637.911267
 31
0.0
  0
LINE
  5
26E
100
AcDbEntity
  8
MSL-5-300-7
100
AcDbLine
 10
1317.679043
 20
649.411267
 30
0.0
 11
1347.598256
 21
649.411267
 31
0.0
  0
LINE
  5
26F
100
AcDbEntity
  8
MSL-5-300-3
100
AcDbLine
 10
1313.922694
 20
636.411267
 30
0.0
 11
1313.922694
 21
618.411267
 31
0.0
  0
LINE
  5
270
100
AcDbEntity
  8
MSL-5-300-3
100
AcDbLine
 10
1295.922694
 20
632.411267
 30
0.0
 11
1320.922694
 21
632.411267
 31
0.0
  0
LINE
  5
271
100
AcDbEntity
  8
MSL-5-300-3
100
AcDbLine
 10
1313.922694
 20
632.911267
 30
0.0
 11
1295.922694
 21
632.911267
 31
0.0
  0
LINE
  5
272
100
AcDbEntity
  8
MSL-5-300-7
100
AcDbLine
 10
1295.922694
 20
627.411267
 30
0.0
 11
1311.922694
 21
627.411267
 31
0.0
  0
LINE
  5
273
100
AcDbEntity
  8
MSL-5-300-3
100
AcDbLine
 10
1295.922694
 20
622.411267
 30
0.0
 11
1320.922694
 21
622.411267
 31
0.0
  0
LINE
  5
274
100
AcDbEntity
  8
MSL-5-300-7
100
AcDbLine
 10
1322.922694
 20
627.411267
 30
0.0
 11
1293.922694
 21
627.411267
 31
0.0
  0
LINE
  5
275
100
AcDbEntity
  8
MSL-5-300-3
100
AcDbLine
 10
1313.922694
 20
621.911267
 30
0.0
 11
1295.922694
 21
621.911267
 31
0.0
  0
LINE
  5
276
100
AcDbEntity
  8
MSL-5-300-3
100
AcDbLine
 10
1313.922694
 20
618.411267
 30
0.0
 11
1320.922694
 21
618.411267
 31
0.0
  0
LINE
  5
277
100
AcDbEntity
  8
MSL-5-300-3
100
AcDbLine
 10
1320.922694
 20
636.411267
 30
0.0
 11
1313.922694
 21
636.411267
 31
0.0
  0
LINE
  5
278
100
AcDbEntity
  8
MSL-5-300-0
100
AcDbLine
 10
1320.922694
 20
638.911267
 30
0.0
 11
1321.922694
 21
637.911267
 31
0.0
  0
ARC
  5
279
100
AcDbEntity
  8
MSL-5-300-0
100
AcDbCircle
 10
1338.816444
 20
636.420886
 30
0.0
 40
5.10625
100
AcDbArc
 50
302.004628
 51
57.995372
  0
ARC
  5
27A
100
AcDbEntity
  8
MSL-5-300-0
100
AcDbCircle
 10
1341.028944
 20
636.420886
 30
0.0
 40
5.10625
100
AcDbArc
 50
122.004627
 51
237.995373
  0
LINE
  5
27B
100
AcDbEntity
  8
MSL-5-300-0
100
AcDbLine
 10
1341.522694
 20
632.090759
 30
0.0
 11
1338.322694
 21
632.090759
 31
0.0
  0
LINE
  5
27C
100
AcDbEntity
  8
MSL-5-300-0
100
AcDbLine
 10
1335.422694
 20
637.911267
 30
0.0
 11
1335.922694
 21
637.411267
 31
0.0
  0
LINE
  5
27D
100
AcDbEntity
  8
MSL-5-300-0
100
AcDbLine
 10
1341.522694
 20
640.751013
 30
0.0
 11
1338.322694
 21
640.751013
 31
0.0
  0
LINE
  5
27E
100
AcDbEntity
  8
MSL-5-300-0
100
AcDbLine
 10
1335.422694
 20
645.411267
 30
0.0
 11
1334.422694
 21
645.411267
 31
0.0
  0
ARC
  5
27F
100
AcDbEntity
  8
MSL-5-300-0
100
AcDbCircle
 10
1220.640408
 20
668.411267
 30
0.0
 40
2.0
100
AcDbArc
 50
0.0
 51
89.999999
  0
LINE
  5
280
100
AcDbEntity
  8
MSL-5-300-0
100
AcDbLine
 10
1222.640408
 20
658.411267
 30
0.0
 11
1222.640408
 21
668.411267
 31
0.0
  0
LINE
  5
281
100
AcDbEntity
  8
MSL-5-300-0
100
AcDbLine
 10
1205.640408
 20
672.411267
 30
0.0
 11
1205.640408
 21
670.411267
 31
0.0
  0
LINE
  5
282
100
AcDbEntity
  8
MSL-5-300-0
100
AcDbLine
 10
1334.422694
 20
660.911267
 30
0.0
 11
1321.922694
 21
660.911267
 31
0.0
  0
LINE
  5
283
100
AcDbEntity
  8
MSL-5-300-0
100
AcDbLine
 10
1295.922694
 20
658.411267
 30
0.0
 11
1320.922694
 21
658.411267
 31
0.0
  0
LINE
  5
284
100
AcDbEntity
  8
MSL-5-300-0
100
AcDbLine
 10
1321.922694
 20
660.911267
 30
0.0
 11
1320.922694
 21
659.911267
 31
0.0
  0
LINE
  5
285
100
AcDbEntity
  8
MSL-5-300-0
100
AcDbLine
 10
1341.522694
 20
666.731776
 30
0.0
 11
1338.322694
 21
666.731776
 31
0.0
  0
LINE
  5
286
100
AcDbEntity
  8
MSL-5-300-0
100
AcDbLine
 10
1335.422694
 20
653.411267
 30
0.0
 11
1334.422694
 21
653.411267
 31
0.0
  0
LINE
  5
287
100
AcDbEntity
  8
MSL-5-300-0
100
AcDbLine
 10
1341.522694
 20
658.071521
 30
0.0
 11
1338.322694
 21
658.071521
 31
0.0
  0
LINE
  5
288
100
AcDbEntity
  8
MSL-5-300-0
100
AcDbLine
 10
1335.922694
 20
661.411267
 30
0.0
 11
1335.422694
 21
660.911267
 31
0.0
  0
ARC
  5
289
100
AcDbEntity
  8
MSL-5-300-0
100
AcDbCircle
 10
1338.816444
 20
662.401649
 30
0.0
 40
5.10625
100
AcDbArc
 50
302.004628
 51
57.995372
  0
ARC
  5
28A
100
AcDbEntity
  8
MSL-5-300-0
100
AcDbCircle
 10
1341.028944
 20
662.401649
 30
0.0
 40
5.10625
100
AcDbArc
 50
122.004627
 51
237.995373
  0
LINE
  5
28B
100
AcDbEntity
  8
MSL-5-300-7
100
AcDbLine
 10
1625.922694
 20
618.687678
 30
0.0
 11
1625.922694
 21
574.500148
 31
0.0
  0
LINE
  5
28C
100
AcDbEntity
  8
MSL-5-300-7
100
AcDbLine
 10
1565.922694
 20
618.687678
 30
0.0
 11
1565.922694
 21
574.500148
 31
0.0
  0
LINE
  5
28D
100
AcDbEntity
  8
MSL-5-300-7
100
AcDbLine
 10
1505.922694
 20
618.687678
 30
0.0
 11
1505.922694
 21
574.500148
 31
0.0
  0
LINE
  5
28E
100
AcDbEntity
  8
MSL-5-300-7
100
AcDbLine
 10
1445.922694
 20
618.687678
 30
0.0
 11
1445.922694
 21
574.500148
 31
0.0
  0
LINE
  5
28F
100
AcDbEntity
  8
MSL-5-300-7
100
AcDbLine
 10
1445.922694
 20
567.411267
 30
0.0
 11
1438.833814
 21
567.411267
 31
0.0
  0
CIRCLE
  5
290
100
AcDbEntity
  8
MSL-5-300-0
100
AcDbCircle
 10
1445.922694
 20
567.411267
 30
0.0
 40
5.0
  0
CIRCLE
  5
291
100
AcDbEntity
  8
MSL-5-300-0
100
AcDbCircle
 10
1415.922694
 20
567.411267
 30
0.0
 40
4.25
  0
LINE
  5
292
100
AcDbEntity
  8
MSL-5-300-7
100
AcDbLine
 10
1415.922694
 20
567.411267
 30
0.0
 11
1415.922694
 21
560.509369
 31
0.0
  0
ARC
  5
293
100
AcDbEntity
  8
MSL-5-300-4
100
AcDbCircle
 10
1415.922694
 20
567.411267
 30
0.0
 40
5.0
100
AcDbArc
 50
82.606248
 51
7.300134
  0
LINE
  5
294
100
AcDbEntity
  8
MSL-5-300-7
100
AcDbLine
 10
1415.922694
 20
567.411267
 30
0.0
 11
1422.824592
 21
567.411267
 31
0.0
  0
LINE
  5
295
100
AcDbEntity
  8
MSL-5-300-7
100
AcDbLine
 10
1415.922694
 20
567.411267
 30
0.0
 11
1415.922694
 21
574.313165
 31
0.0
  0
LINE
  5
296
100
AcDbEntity
  8
MSL-5-300-7
100
AcDbLine
 10
1415.922694
 20
567.411267
 30
0.0
 11
1409.020797
 21
567.411267
 31
0.0
  0
LINE
  5
297
100
AcDbEntity
  8
MSL-5-300-7
100
AcDbLine
 10
1475.922694
 20
567.411267
 30
0.0
 11
1475.922694
 21
560.680477
 31
0.0
  0
LINE
  5
298
100
AcDbEntity
  8
MSL-5-300-7
100
AcDbLine
 10
1445.922694
 20
567.411267
 30
0.0
 11
1445.922694
 21
560.322386
 31
0.0
  0
ARC
  5
299
100
AcDbEntity
  8
MSL-5-300-4
100
AcDbCircle
 10
1475.922694
 20
567.411267
 30
0.0
 40
5.0
100
AcDbArc
 50
82.606248
 51
7.300134
  0
CIRCLE
  5
29A
100
AcDbEntity
  8
MSL-5-300-0
100
AcDbCircle
 10
1475.922694
 20
567.411267
 30
0.0
 40
4.25
  0
LINE
  5
29B
100
AcDbEntity
  8
MSL-5-300-7
100
AcDbLine
 10
1445.922694
 20
567.411267
 30
0.0
 11
1453.011575
 21
567.411267
 31
0.0
  0
LINE
  5
29C
100
AcDbEntity
  8
MSL-5-300-7
100
AcDbLine
 10
1445.922694
 20
567.411267
 30
0.0
 11
1445.922694
 21
574.500148
 31
0.0
  0
LINE
  5
29D
100
AcDbEntity
  8
MSL-5-300-7
100
AcDbLine
 10
1475.922694
 20
567.411267
 30
0.0
 11
1475.922694
 21
574.142057
 31
0.0
  0
LINE
  5
29E
100
AcDbEntity
  8
MSL-5-300-7
100
AcDbLine
 10
1475.922694
 20
567.411267
 30
0.0
 11
1469.191904
 21
567.411267
 31
0.0
  0
LINE
  5
29F
100
AcDbEntity
  8
MSL-5-300-7
100
AcDbLine
 10
1475.922694
 20
567.411267
 30
0.0
 11
1482.653484
 21
567.411267
 31
0.0
  0
LINE
  5
2A0
100
AcDbEntity
  8
MSL-5-300-7
100
AcDbLine
 10
1505.922694
 20
567.411267
 30
0.0
 11
1505.922694
 21
560.322386
 31
0.0
  0
CIRCLE
  5
2A1
100
AcDbEntity
  8
MSL-5-300-0
100
AcDbCircle
 10
1505.922694
 20
567.411267
 30
0.0
 40
5.0
  0
LINE
  5
2A2
100
AcDbEntity
  8
MSL-5-300-7
100
AcDbLine
 10
1505.922694
 20
567.411267
 30
0.0
 11
1513.011575
 21
567.411267
 31
0.0
  0
LINE
  5
2A3
100
AcDbEntity
  8
MSL-5-300-7
100
AcDbLine
 10
1505.922694
 20
567.411267
 30
0.0
 11
1505.922694
 21
574.500148
 31
0.0
  0
LINE
  5
2A4
100
AcDbEntity
  8
MSL-5-300-7
100
AcDbLine
 10
1505.922694
 20
567.411267
 30
0.0
 11
1498.833814
 21
567.411267
 31
0.0
  0
CIRCLE
  5
2A5
100
AcDbEntity
  8
MSL-5-300-0
100
AcDbCircle
 10
1565.922694
 20
567.411267
 30
0.0
 40
5.0
  0
LINE
  5
2A6
100
AcDbEntity
  8
MSL-5-300-7
100
AcDbLine
 10
1565.922694
 20
567.411267
 30
0.0
 11
1573.011575
 21
567.411267
 31
0.0
  0
LINE
  5
2A7
100
AcDbEntity
  8
MSL-5-300-7
100
AcDbLine
 10
1565.922694
 20
567.411267
 30
0.0
 11
1565.922694
 21
560.322386
 31
0.0
  0
LINE
  5
2A8
100
AcDbEntity
  8
MSL-5-300-7
100
AcDbLine
 10
1535.922694
 20
567.411267
 30
0.0
 11
1535.922694
 21
560.680477
 31
0.0
  0
CIRCLE
  5
2A9
100
AcDbEntity
  8
MSL-5-300-0
100
AcDbCircle
 10
1535.922694
 20
567.411267
 30
0.0
 40
4.25
  0
ARC
  5
2AA
100
AcDbEntity
  8
MSL-5-300-4
100
AcDbCircle
 10
1535.922694
 20
567.411267
 30
0.0
 40
5.0
100
AcDbArc
 50
82.606248
 51
7.300134
  0
LINE
  5
2AB
100
AcDbEntity
  8
MSL-5-300-7
100
AcDbLine
 10
1535.922694
 20
567.411267
 30
0.0
 11
1529.191904
 21
567.411267
 31
0.0
  0
LINE
  5
2AC
100
AcDbEntity
  8
MSL-5-300-7
100
AcDbLine
 10
1535.922694
 20
567.411267
 30
0.0
 11
1535.922694
 21
574.142057
 31
0.0
  0
LINE
  5
2AD
100
AcDbEntity
  8
MSL-5-300-7
100
AcDbLine
 10
1535.922694
 20
567.411267
 30
0.0
 11
1542.653484
 21
567.411267
 31
0.0
  0
LINE
  5
2AE
100
AcDbEntity
  8
MSL-5-300-7
100
AcDbLine
 10
1565.922694
 20
567.411267
 30
0.0
 11
1558.833814
 21
567.411267
 31
0.0
  0
LINE
  5
2AF
100
AcDbEntity
  8
MSL-5-300-7
100
AcDbLine
 10
1565.922694
 20
567.411267
 30
0.0
 11
1565.922694
 21
574.500148
 31
0.0
  0
ARC
  5
2B0
100
AcDbEntity
  8
MSL-5-300-4
100
AcDbCircle
 10
1595.922694
 20
567.411267
 30
0.0
 40
5.0
100
AcDbArc
 50
82.606248
 51
7.300134
  0
CIRCLE
  5
2B1
100
AcDbEntity
  8
MSL-5-300-0
100
AcDbCircle
 10
1595.922694
 20
567.411267
 30
0.0
 40
4.25
  0
LINE
  5
2B2
100
AcDbEntity
  8
MSL-5-300-7
100
AcDbLine
 10
1595.922694
 20
567.411267
 30
0.0
 11
1595.922694
 21
560.680477
 31
0.0
  0
LINE
  5
2B3
100
AcDbEntity
  8
MSL-5-300-7
100
AcDbLine
 10
1595.922694
 20
567.411267
 30
0.0
 11
1595.922694
 21
574.142057
 31
0.0
  0
LINE
  5
2B4
100
AcDbEntity
  8
MSL-5-300-7
100
AcDbLine
 10
1595.922694
 20
567.411267
 30
0.0
 11
1589.191904
 21
567.411267
 31
0.0
  0
LINE
  5
2B5
100
AcDbEntity
  8
MSL-5-300-7
100
AcDbLine
 10
1595.922694
 20
567.411267
 30
0.0
 11
1602.653484
 21
567.411267
 31
0.0
  0
CIRCLE
  5
2B6
100
AcDbEntity
  8
MSL-5-300-0
100
AcDbCircle
 10
1625.922694
 20
567.411267
 30
0.0
 40
5.0
  0
LINE
  5
2B7
100
AcDbEntity
  8
MSL-5-300-7
100
AcDbLine
 10
1625.922694
 20
567.411267
 30
0.0
 11
1625.922694
 21
560.322386
 31
0.0
  0
LINE
  5
2B8
100
AcDbEntity
  8
MSL-5-300-7
100
AcDbLine
 10
1625.922694
 20
567.411267
 30
0.0
 11
1633.011575
 21
567.411267
 31
0.0
  0
LINE
  5
2B9
100
AcDbEntity
  8
MSL-5-300-7
100
AcDbLine
 10
1625.922694
 20
567.411267
 30
0.0
 11
1625.922694
 21
574.500148
 31
0.0
  0
LINE
  5
2BA
100
AcDbEntity
  8
MSL-5-300-7
100
AcDbLine
 10
1625.922694
 20
567.411267
 30
0.0
 11
1618.833814
 21
567.411267
 31
0.0
  0
LINE
  5
2BB
100
AcDbEntity
  8
MSL-5-300-7
100
AcDbLine
 10
1655.922694
 20
567.411267
 30
0.0
 11
1655.922694
 21
560.680477
 31
0.0
  0
CIRCLE
  5
2BC
100
AcDbEntity
  8
MSL-5-300-0
100
AcDbCircle
 10
1655.922694
 20
567.411267
 30
0.0
 40
4.25
  0
ARC
  5
2BD
100
AcDbEntity
  8
MSL-5-300-4
100
AcDbCircle
 10
1655.922694
 20
567.411267
 30
0.0
 40
5.0
100
AcDbArc
 50
82.606248
 51
7.300134
  0
LINE
  5
2BE
100
AcDbEntity
  8
MSL-5-300-7
100
AcDbLine
 10
1655.922694
 20
567.411267
 30
0.0
 11
1662.653484
 21
567.411267
 31
0.0
  0
LINE
  5
2BF
100
AcDbEntity
  8
MSL-5-300-7
100
AcDbLine
 10
1655.922694
 20
567.411267
 30
0.0
 11
1655.922694
 21
574.142057
 31
0.0
  0
LINE
  5
2C0
100
AcDbEntity
  8
MSL-5-300-7
100
AcDbLine
 10
1655.922694
 20
567.411267
 30
0.0
 11
1649.191904
 21
567.411267
 31
0.0
  0
LINE
  5
2C1
100
AcDbEntity
  8
MSL-5-300-7
100
AcDbLine
 10
1402.263454
 20
597.411267
 30
0.0
 11
1671.927659
 21
597.411267
 31
0.0
  0
LINE
  5
2C2
100
AcDbEntity
  8
MSL-5-300-7
100
AcDbLine
 10
1384.422694
 20
647.411267
 30
0.0
 11
1384.422694
 21
654.042253
 31
0.0
  0
CIRCLE
  5
2C3
100
AcDbEntity
  8
MSL-5-300-0
100
AcDbCircle
 10
1384.422694
 20
647.411267
 30
0.0
 40
5.5
  0
LINE
  5
2C4
100
AcDbEntity
  8
MSL-5-300-7
100
AcDbLine
 10
1445.922694
 20
627.411267
 30
0.0
 11
1438.782946
 21
627.411267
 31
0.0
  0
CIRCLE
  5
2C5
100
AcDbEntity
  8
MSL-5-300-0
100
AcDbCircle
 10
1445.922694
 20
627.411267
 30
0.0
 40
5.0
  0
LINE
  5
2C6
100
AcDbEntity
  8
MSL-5-300-7
100
AcDbLine
 10
1384.422694
 20
647.411267
 30
0.0
 11
1391.053681
 21
647.411267
 31
0.0
  0
LINE
  5
2C7
100
AcDbEntity
  8
MSL-5-300-7
100
AcDbLine
 10
1384.422694
 20
647.411267
 30
0.0
 11
1384.422694
 21
640.780281
 31
0.0
  0
LINE
  5
2C8
100
AcDbEntity
  8
MSL-5-300-7
100
AcDbLine
 10
1384.422694
 20
647.411267
 30
0.0
 11
1377.791708
 21
647.411267
 31
0.0
  0
LINE
  5
2C9
100
AcDbEntity
  8
MSL-5-300-7
100
AcDbLine
 10
1415.922694
 20
627.411267
 30
0.0
 11
1422.739941
 21
627.411267
 31
0.0
  0
LINE
  5
2CA
100
AcDbEntity
  8
MSL-5-300-7
100
AcDbLine
 10
1415.922694
 20
627.411267
 30
0.0
 11
1415.922694
 21
620.594021
 31
0.0
  0
CIRCLE
  5
2CB
100
AcDbEntity
  8
MSL-5-300-0
100
AcDbCircle
 10
1415.922694
 20
627.411267
 30
0.0
 40
4.25
  0
LINE
  5
2CC
100
AcDbEntity
  8
MSL-5-300-7
100
AcDbLine
 10
1415.922694
 20
627.411267
 30
0.0
 11
1415.922694
 21
634.228513
 31
0.0
  0
LINE
  5
2CD
100
AcDbEntity
  8
MSL-5-300-7
100
AcDbLine
 10
1415.922694
 20
627.411267
 30
0.0
 11
1409.105448
 21
627.411267
 31
0.0
  0
ARC
  5
2CE
100
AcDbEntity
  8
MSL-5-300-4
100
AcDbCircle
 10
1415.922694
 20
627.411267
 30
0.0
 40
5.0
100
AcDbArc
 50
82.606248
 51
7.300134
  0
LINE
  5
2CF
100
AcDbEntity
  8
MSL-5-300-7
100
AcDbLine
 10
1445.922694
 20
627.411267
 30
0.0
 11
1453.062443
 21
627.411267
 31
0.0
  0
LINE
  5
2D0
100
AcDbEntity
  8
MSL-5-300-7
100
AcDbLine
 10
1445.922694
 20
627.411267
 30
0.0
 11
1445.922694
 21
620.271518
 31
0.0
  0
LINE
  5
2D1
100
AcDbEntity
  8
MSL-5-300-7
100
AcDbLine
 10
1445.922694
 20
627.411267
 30
0.0
 11
1445.922694
 21
634.551016
 31
0.0
  0
LINE
  5
2D2
100
AcDbEntity
  8
MSL-5-300-7
100
AcDbLine
 10
1475.922694
 20
627.411267
 30
0.0
 11
1469.079981
 21
627.411267
 31
0.0
  0
LINE
  5
2D3
100
AcDbEntity
  8
MSL-5-300-7
100
AcDbLine
 10
1475.922694
 20
627.411267
 30
0.0
 11
1475.922694
 21
620.568554
 31
0.0
  0
LINE
  5
2D4
100
AcDbEntity
  8
MSL-5-300-7
100
AcDbLine
 10
1475.922694
 20
627.411267
 30
0.0
 11
1475.922694
 21
634.25398
 31
0.0
  0
LINE
  5
2D5
100
AcDbEntity
  8
MSL-5-300-7
100
AcDbLine
 10
1475.922694
 20
627.411267
 30
0.0
 11
1482.765408
 21
627.411267
 31
0.0
  0
ARC
  5
2D6
100
AcDbEntity
  8
MSL-5-300-4
100
AcDbCircle
 10
1475.922694
 20
627.411267
 30
0.0
 40
5.0
100
AcDbArc
 50
82.606248
 51
7.300134
  0
CIRCLE
  5
2D7
100
AcDbEntity
  8
MSL-5-300-0
100
AcDbCircle
 10
1475.922694
 20
627.411267
 30
0.0
 40
4.25
  0
LINE
  5
2D8
100
AcDbEntity
  8
MSL-5-300-7
100
AcDbLine
 10
1505.922694
 20
627.411267
 30
0.0
 11
1513.062443
 21
627.411267
 31
0.0
  0
CIRCLE
  5
2D9
100
AcDbEntity
  8
MSL-5-300-0
100
AcDbCircle
 10
1505.922694
 20
627.411267
 30
0.0
 40
5.0
  0
LINE
  5
2DA
100
AcDbEntity
  8
MSL-5-300-7
100
AcDbLine
 10
1505.922694
 20
627.411267
 30
0.0
 11
1505.922694
 21
634.551016
 31
0.0
  0
LINE
  5
2DB
100
AcDbEntity
  8
MSL-5-300-7
100
AcDbLine
 10
1505.922694
 20
627.411267
 30
0.0
 11
1505.922694
 21
620.271518
 31
0.0
  0
LINE
  5
2DC
100
AcDbEntity
  8
MSL-5-300-7
100
AcDbLine
 10
1505.922694
 20
627.411267
 30
0.0
 11
1498.782946
 21
627.411267
 31
0.0
  0
LINE
  5
2DD
100
AcDbEntity
  8
MSL-5-300-7
100
AcDbLine
 10
1387.922694
 20
675.522144
 30
0.0
 11
1387.922694
 21
667.58375
 31
0.0
  0
LINE
  5
2DE
100
AcDbEntity
  8
MSL-5-300-7
100
AcDbLine
 10
1384.422694
 20
661.411267
 30
0.0
 11
1390.947903
 21
661.411267
 31
0.0
  0
CIRCLE
  5
2DF
100
AcDbEntity
  8
MSL-5-300-0
100
AcDbCircle
 10
1384.422694
 20
661.411267
 30
0.0
 40
5.5
  0
LINE
  5
2E0
100
AcDbEntity
  8
MSL-5-300-7
100
AcDbLine
 10
1384.422694
 20
661.411267
 30
0.0
 11
1384.422694
 21
654.886058
 31
0.0
  0
LINE
  5
2E1
100
AcDbEntity
  8
MSL-5-300-7
100
AcDbLine
 10
1384.422694
 20
661.411267
 30
0.0
 11
1377.897486
 21
661.411267
 31
0.0
  0
LINE
  5
2E2
100
AcDbEntity
  8
MSL-5-300-7
100
AcDbLine
 10
1384.422694
 20
661.411267
 30
0.0
 11
1384.422694
 21
667.936476
 31
0.0
  0
LINE
  5
2E3
100
AcDbEntity
  8
MSL-5-300-0
100
AcDbLine
 10
1382.422694
 20
672.411267
 30
0.0
 11
1393.422694
 21
672.411267
 31
0.0
  0
LINE
  5
2E4
100
AcDbEntity
  8
MSL-5-300-0
100
AcDbLine
 10
1382.422694
 20
670.411267
 30
0.0
 11
1382.422694
 21
672.411267
 31
0.0
  0
LINE
  5
2E5
100
AcDbEntity
  8
MSL-5-300-0
100
AcDbLine
 10
1393.422694
 20
672.411267
 30
0.0
 11
1393.422694
 21
670.411267
 31
0.0
  0
CIRCLE
  5
2E6
100
AcDbEntity
  8
MSL-5-300-0
100
AcDbCircle
 10
1565.922694
 20
627.411267
 30
0.0
 40
5.0
  0
LINE
  5
2E7
100
AcDbEntity
  8
MSL-5-300-7
100
AcDbLine
 10
1565.922694
 20
627.411267
 30
0.0
 11
1573.062443
 21
627.411267
 31
0.0
  0
LINE
  5
2E8
100
AcDbEntity
  8
MSL-5-300-7
100
AcDbLine
 10
1535.922694
 20
627.411267
 30
0.0
 11
1535.922694
 21
634.25398
 31
0.0
  0
LINE
  5
2E9
100
AcDbEntity
  8
MSL-5-300-7
100
AcDbLine
 10
1535.922694
 20
627.411267
 30
0.0
 11
1535.922694
 21
620.568554
 31
0.0
  0
LINE
  5
2EA
100
AcDbEntity
  8
MSL-5-300-7
100
AcDbLine
 10
1535.922694
 20
627.411267
 30
0.0
 11
1529.079981
 21
627.411267
 31
0.0
  0
CIRCLE
  5
2EB
100
AcDbEntity
  8
MSL-5-300-0
100
AcDbCircle
 10
1535.922694
 20
627.411267
 30
0.0
 40
4.25
  0
ARC
  5
2EC
100
AcDbEntity
  8
MSL-5-300-4
100
AcDbCircle
 10
1535.922694
 20
627.411267
 30
0.0
 40
5.0
100
AcDbArc
 50
82.606248
 51
7.300134
  0
LINE
  5
2ED
100
AcDbEntity
  8
MSL-5-300-7
100
AcDbLine
 10
1535.922694
 20
627.411267
 30
0.0
 11
1542.765408
 21
627.411267
 31
0.0
  0
LINE
  5
2EE
100
AcDbEntity
  8
MSL-5-300-7
100
AcDbLine
 10
1565.922694
 20
627.411267
 30
0.0
 11
1558.782946
 21
627.411267
 31
0.0
  0
LINE
  5
2EF
100
AcDbEntity
  8
MSL-5-300-7
100
AcDbLine
 10
1565.922694
 20
627.411267
 30
0.0
 11
1565.922694
 21
620.271518
 31
0.0
  0
LINE
  5
2F0
100
AcDbEntity
  8
MSL-5-300-7
100
AcDbLine
 10
1565.922694
 20
627.411267
 30
0.0
 11
1565.922694
 21
634.551016
 31
0.0
  0
ARC
  5
2F1
100
AcDbEntity
  8
MSL-5-300-4
100
AcDbCircle
 10
1595.922694
 20
627.411267
 30
0.0
 40
5.0
100
AcDbArc
 50
82.606248
 51
7.300134
  0
CIRCLE
  5
2F2
100
AcDbEntity
  8
MSL-5-300-0
100
AcDbCircle
 10
1595.922694
 20
627.411267
 30
0.0
 40
4.25
  0
LINE
  5
2F3
100
AcDbEntity
  8
MSL-5-300-7
100
AcDbLine
 10
1595.922694
 20
627.411267
 30
0.0
 11
1589.079981
 21
627.411267
 31
0.0
  0
LINE
  5
2F4
100
AcDbEntity
  8
MSL-5-300-7
100
AcDbLine
 10
1595.922694
 20
627.411267
 30
0.0
 11
1595.922694
 21
620.568554
 31
0.0
  0
LINE
  5
2F5
100
AcDbEntity
  8
MSL-5-300-7
100
AcDbLine
 10
1595.922694
 20
627.411267
 30
0.0
 11
1595.922694
 21
634.25398
 31
0.0
  0
LINE
  5
2F6
100
AcDbEntity
  8
MSL-5-300-7
100
AcDbLine
 10
1595.922694
 20
627.411267
 30
0.0
 11
1602.765408
 21
627.411267
 31
0.0
  0
LINE
  5
2F7
100
AcDbEntity
  8
MSL-5-300-7
100
AcDbLine
 10
1625.922694
 20
627.411267
 30
0.0
 11
1633.062443
 21
627.411267
 31
0.0
  0
CIRCLE
  5
2F8
100
AcDbEntity
  8
MSL-5-300-0
100
AcDbCircle
 10
1625.922694
 20
627.411267
 30
0.0
 40
5.0
  0
LINE
  5
2F9
100
AcDbEntity
  8
MSL-5-300-7
100
AcDbLine
 10
1625.922694
 20
627.411267
 30
0.0
 11
1625.922694
 21
634.551016
 31
0.0
  0
LINE
  5
2FA
100
AcDbEntity
  8
MSL-5-300-7
100
AcDbLine
 10
1625.922694
 20
627.411267
 30
0.0
 11
1625.922694
 21
620.271518
 31
0.0
  0
LINE
  5
2FB
100
AcDbEntity
  8
MSL-5-300-7
100
AcDbLine
 10
1625.922694
 20
627.411267
 30
0.0
 11
1618.782946
 21
627.411267
 31
0.0
  0
LINE
  5
2FC
100
AcDbEntity
  8
MSL-5-300-7
100
AcDbLine
 10
1655.922694
 20
627.411267
 30
0.0
 11
1662.765408
 21
627.411267
 31
0.0
  0
LINE
  5
2FD
100
AcDbEntity
  8
MSL-5-300-7
100
AcDbLine
 10
1655.922694
 20
627.411267
 30
0.0
 11
1655.922694
 21
634.25398
 31
0.0
  0
LINE
  5
2FE
100
AcDbEntity
  8
MSL-5-300-7
100
AcDbLine
 10
1655.922694
 20
627.411267
 30
0.0
 11
1655.922694
 21
620.568554
 31
0.0
  0
CIRCLE
  5
2FF
100
AcDbEntity
  8
MSL-5-300-0
100
AcDbCircle
 10
1655.922694
 20
627.411267
 30
0.0
 40
4.25
  0
ARC
  5
300
100
AcDbEntity
  8
MSL-5-300-4
100
AcDbCircle
 10
1655.922694
 20
627.411267
 30
0.0
 40
5.0
100
AcDbArc
 50
82.606248
 51
7.300134
  0
LINE
  5
301
100
AcDbEntity
  8
MSL-5-300-7
100
AcDbLine
 10
1655.922694
 20
627.411267
 30
0.0
 11
1649.079981
 21
627.411267
 31
0.0
  0
LINE
  5
302
100
AcDbEntity
  8
MSL-5-300-7
100
AcDbLine
 10
1683.922694
 20
675.522144
 30
0.0
 11
1683.922694
 21
667.58375
 31
0.0
  0
LINE
  5
303
100
AcDbEntity
  8
MSL-5-300-0
100
AcDbLine
 10
1678.422694
 20
670.411267
 30
0.0
 11
1678.422694
 21
672.411267
 31
0.0
  0
MTEXT
  5
304
100
AcDbEntity
  8
5
100
AcDbMText
 10
1348.587643
 20
737.857839
 30
0.0
 40
3.5
 41
22.192126
 71
     1
 72
     1
  1
{MSL-5-300}
  0
LINE
  5
305
100
AcDbEntity
  8
MSL-5-300-7
100
AcDbLine
 10
1312.922694
 20
846.606156
 30
0.0
 11
1312.922694
 21
862.606156
 31
0.0
  0
LINE
  5
306
100
AcDbEntity
  8
MSL-5-300-7
100
AcDbLine
 10
1303.922694
 20
853.188213
 30
0.0
 11
1303.922694
 21
884.606156
 31
0.0
  0
LINE
  5
307
100
AcDbEntity
  8
MSL-5-300-3
100
AcDbLine
 10
1299.734694
 20
881.606156
 30
0.0
 11
1299.734694
 21
858.606156
 31
0.0
  0
LINE
  5
308
100
AcDbEntity
  8
MSL-5-300-3
100
AcDbLine
 10
1308.110694
 20
881.606156
 30
0.0
 11
1308.110694
 21
858.606156
 31
0.0
  0
LINE
  5
309
100
AcDbEntity
  8
MSL-5-300-0
100
AcDbLine
 10
1295.922694
 20
881.606156
 30
0.0
 11
1295.922694
 21
731.606156
 31
0.0
  0
LINE
  5
30A
100
AcDbEntity
  8
MSL-5-300-0
100
AcDbLine
 10
1320.922694
 20
731.606156
 30
0.0
 11
1320.922694
 21
881.606156
 31
0.0
  0
LINE
  5
30B
100
AcDbEntity
  8
MSL-5-300-0
100
AcDbLine
 10
1343.922694
 20
881.606156
 30
0.0
 11
1343.922694
 21
731.606156
 31
0.0
  0
LINE
  5
30C
100
AcDbEntity
  8
MSL-5-300-3
100
AcDbLine
 10
1303.922694
 20
757.024099
 30
0.0
 11
1299.734694
 21
754.606156
 31
0.0
  0
LINE
  5
30D
100
AcDbEntity
  8
MSL-5-300-3
100
AcDbLine
 10
1303.922694
 20
757.024099
 30
0.0
 11
1308.110694
 21
754.606156
 31
0.0
  0
LINE
  5
30E
100
AcDbEntity
  8
MSL-5-300-7
100
AcDbLine
 10
1312.922694
 20
750.606156
 30
0.0
 11
1312.922694
 21
766.606156
 31
0.0
  0
CIRCLE
  5
30F
100
AcDbEntity
  8
MSL-5-300-0
100
AcDbCircle
 10
1312.922694
 20
758.606156
 30
0.0
 40
4.188
  0
ARC
  5
310
100
AcDbEntity
  8
MSL-5-300-4
100
AcDbCircle
 10
1312.922694
 20
758.606156
 30
0.0
 40
5.0
100
AcDbArc
 50
280.0
 51
210.0
  0
LINE
  5
311
100
AcDbEntity
  8
MSL-5-300-7
100
AcDbLine
 10
1303.922694
 20
760.024099
 30
0.0
 11
1303.922694
 21
728.606156
 31
0.0
  0
LINE
  5
312
100
AcDbEntity
  8
MSL-5-300-0
100
AcDbLine
 10
1343.922694
 20
742.106156
 30
0.0
 11
1320.922694
 21
742.106156
 31
0.0
  0
LINE
  5
313
100
AcDbEntity
  8
MSL-5-300-7
100
AcDbLine
 10
1352.262056
 20
754.606156
 30
0.0
 11
1312.752632
 21
754.606156
 31
0.0
  0
LINE
  5
314
100
AcDbEntity
  8
MSL-5-300-3
100
AcDbLine
 10
1299.734694
 20
731.606156
 30
0.0
 11
1299.734694
 21
754.606156
 31
0.0
  0
LINE
  5
315
100
AcDbEntity
  8
MSL-5-300-3
100
AcDbLine
 10
1298.922694
 20
731.606156
 30
0.0
 11
1298.922694
 21
748.606156
 31
0.0
  0
LINE
  5
316
100
AcDbEntity
  8
MSL-5-300-3
100
AcDbLine
 10
1308.110694
 20
731.606156
 30
0.0
 11
1308.110694
 21
754.606156
 31
0.0
  0
LINE
  5
317
100
AcDbEntity
  8
MSL-5-300-3
100
AcDbLine
 10
1308.922694
 20
731.606156
 30
0.0
 11
1308.922694
 21
748.606156
 31
0.0
  0
LINE
  5
318
100
AcDbEntity
  8
MSL-5-300-0
100
AcDbLine
 10
1295.922694
 20
731.606156
 30
0.0
 11
1320.922694
 21
731.606156
 31
0.0
  0
LINE
  5
319
100
AcDbEntity
  8
MSL-5-300-3
100
AcDbLine
 10
1308.110694
 20
754.606156
 30
0.0
 11
1299.734694
 21
754.606156
 31
0.0
  0
LINE
  5
31A
100
AcDbEntity
  8
MSL-5-300-3
100
AcDbLine
 10
1308.922694
 20
748.606156
 30
0.0
 11
1298.922694
 21
748.606156
 31
0.0
  0
ARC
  5
31B
100
AcDbEntity
  8
MSL-5-300-0
100
AcDbCircle
 10
1341.028944
 20
745.615775
 30
0.0
 40
5.10625
100
AcDbArc
 50
223.418201
 51
237.995373
  0
ARC
  5
31C
100
AcDbEntity
  8
MSL-5-300-0
100
AcDbCircle
 10
1338.816444
 20
745.615775
 30
0.0
 40
5.10625
100
AcDbArc
 50
302.004628
 51
316.5818
  0
LINE
  5
31D
100
AcDbEntity
  8
MSL-5-300-0
100
AcDbLine
 10
1338.322694
 20
741.285648
 30
0.0
 11
1341.522694
 21
741.285648
 31
0.0
  0
LINE
  5
31E
100
AcDbEntity
  8
MSL-5-300-0
100
AcDbLine
 10
1320.922694
 20
767.106156
 30
0.0
 11
1343.922694
 21
767.106156
 31
0.0
  0
LINE
  5
31F
100
AcDbEntity
  8
MSL-5-300-0
100
AcDbLine
 10
1321.922694
 20
770.106156
 30
0.0
 11
1334.422694
 21
770.106156
 31
0.0
  0
LINE
  5
320
100
AcDbEntity
  8
MSL-5-300-7
100
AcDbLine
 10
1317.428888
 20
758.606156
 30
0.0
 11
1347.750138
 21
758.606156
 31
0.0
  0
LINE
  5
321
100
AcDbEntity
  8
MSL-5-300-3
100
AcDbLine
 10
1313.922694
 20
785.606156
 30
0.0
 11
1313.922694
 21
767.606156
 31
0.0
  0
LINE
  5
322
100
AcDbEntity
  8
MSL-5-300-3
100
AcDbLine
 10
1313.922694
 20
771.106156
 30
0.0
 11
1295.922694
 21
771.106156
 31
0.0
  0
LINE
  5
323
100
AcDbEntity
  8
MSL-5-300-3
100
AcDbLine
 10
1313.922694
 20
767.606156
 30
0.0
 11
1320.922694
 21
767.606156
 31
0.0
  0
LINE
  5
324
100
AcDbEntity
  8
MSL-5-300-0
100
AcDbLine
 10
1321.922694
 20
767.106156
 30
0.0
 11
1321.922694
 21
770.106156
 31
0.0
  0
LINE
  5
325
100
AcDbEntity
  8
MSL-5-300-0
100
AcDbLine
 10
1320.922694
 20
769.106156
 30
0.0
 11
1321.922694
 21
770.106156
 31
0.0
  0
LINE
  5
326
100
AcDbEntity
  8
MSL-5-300-7
100
AcDbLine
 10
1304.922694
 20
758.606156
 30
0.0
 11
1320.922694
 21
758.606156
 31
0.0
  0
LINE
  5
327
100
AcDbEntity
  8
MSL-5-300-7
100
AcDbLine
 10
1322.922694
 20
776.606156
 30
0.0
 11
1293.922694
 21
776.606156
 31
0.0
  0
LINE
  5
328
100
AcDbEntity
  8
MSL-5-300-3
100
AcDbLine
 10
1313.922694
 20
782.106156
 30
0.0
 11
1295.922694
 21
782.106156
 31
0.0
  0
LINE
  5
329
100
AcDbEntity
  8
MSL-5-300-3
100
AcDbLine
 10
1320.922694
 20
785.606156
 30
0.0
 11
1313.922694
 21
785.606156
 31
0.0
  0
ARC
  5
32A
100
AcDbEntity
  8
MSL-5-300-0
100
AcDbCircle
 10
1338.816444
 20
771.596537
 30
0.0
 40
5.10625
100
AcDbArc
 50
302.004628
 51
57.995372
  0
ARC
  5
32B
100
AcDbEntity
  8
MSL-5-300-0
100
AcDbCircle
 10
1341.028944
 20
771.596537
 30
0.0
 40
5.10625
100
AcDbArc
 50
122.004627
 51
237.995373
  0
LINE
  5
32C
100
AcDbEntity
  8
MSL-5-300-0
100
AcDbLine
 10
1334.422694
 20
770.106156
 30
0.0
 11
1334.422694
 21
767.106156
 31
0.0
  0
LINE
  5
32D
100
AcDbEntity
  8
MSL-5-300-0
100
AcDbLine
 10
1335.422694
 20
767.106156
 30
0.0
 11
1335.422694
 21
770.106156
 31
0.0
  0
LINE
  5
32E
100
AcDbEntity
  8
MSL-5-300-0
100
AcDbLine
 10
1335.422694
 20
770.106156
 30
0.0
 11
1335.922694
 21
770.606156
 31
0.0
  0
LINE
  5
32F
100
AcDbEntity
  8
MSL-5-300-0
100
AcDbLine
 10
1335.922694
 20
770.606156
 30
0.0
 11
1335.922694
 21
767.106156
 31
0.0
  0
LINE
  5
330
100
AcDbEntity
  8
MSL-5-300-0
100
AcDbLine
 10
1341.522694
 20
767.26641
 30
0.0
 11
1338.322694
 21
767.26641
 31
0.0
  0
LINE
  5
331
100
AcDbEntity
  8
MSL-5-300-0
100
AcDbLine
 10
1338.322694
 20
775.926664
 30
0.0
 11
1341.522694
 21
775.926664
 31
0.0
  0
LINE
  5
332
100
AcDbEntity
  8
MSL-5-300-0
100
AcDbLine
 10
1320.922694
 20
812.606156
 30
0.0
 11
1324.922694
 21
812.606156
 31
0.0
  0
LINE
  5
333
100
AcDbEntity
  8
MSL-5-300-0
100
AcDbLine
 10
1324.922694
 20
800.606156
 30
0.0
 11
1320.922694
 21
800.606156
 31
0.0
  0
LINE
  5
334
100
AcDbEntity
  8
MSL-5-300-7
100
AcDbLine
 10
1292.922694
 20
806.606156
 30
0.0
 11
1352.262056
 21
806.606156
 31
0.0
  0
LINE
  5
335
100
AcDbEntity
  8
MSL-5-300-0
100
AcDbLine
 10
1325.922694
 20
820.106156
 30
0.0
 11
1325.922694
 21
793.106156
 31
0.0
  0
LINE
  5
336
100
AcDbEntity
  8
MSL-5-300-0
100
AcDbLine
 10
1324.922694
 20
819.106156
 30
0.0
 11
1324.922694
 21
794.106156
 31
0.0
  0
LINE
  5
337
100
AcDbEntity
  8
MSL-5-300-0
100
AcDbLine
 10
1324.922694
 20
794.106156
 30
0.0
 11
1325.922694
 21
793.106156
 31
0.0
  0
LINE
  5
338
100
AcDbEntity
  8
MSL-5-300-0
100
AcDbLine
 10
1325.922694
 20
793.106156
 30
0.0
 11
1343.922694
 21
793.106156
 31
0.0
  0
LINE
  5
339
100
AcDbEntity
  8
MSL-5-300-0
100
AcDbLine
 10
1325.922694
 20
820.106156
 30
0.0
 11
1324.922694
 21
819.106156
 31
0.0
  0
LINE
  5
33A
100
AcDbEntity
  8
MSL-5-300-0
100
AcDbLine
 10
1343.922694
 20
820.106156
 30
0.0
 11
1325.922694
 21
820.106156
 31
0.0
  0
LINE
  5
33B
100
AcDbEntity
  8
MSL-5-300-0
100
AcDbLine
 10
1320.922694
 20
846.106156
 30
0.0
 11
1343.922694
 21
846.106156
 31
0.0
  0
LINE
  5
33C
100
AcDbEntity
  8
MSL-5-300-7
100
AcDbLine
 10
1352.262056
 20
858.606156
 30
0.0
 11
1312.752632
 21
858.606156
 31
0.0
  0
LINE
  5
33D
100
AcDbEntity
  8
MSL-5-300-7
100
AcDbLine
 10
1322.922694
 20
836.606156
 30
0.0
 11
1293.922694
 21
836.606156
 31
0.0
  0
LINE
  5
33E
100
AcDbEntity
  8
MSL-5-300-3
100
AcDbLine
 10
1320.922694
 20
841.606156
 30
0.0
 11
1295.922694
 21
841.606156
 31
0.0
  0
LINE
  5
33F
100
AcDbEntity
  8
MSL-5-300-3
100
AcDbLine
 10
1320.922694
 20
831.606156
 30
0.0
 11
1295.922694
 21
831.606156
 31
0.0
  0
LINE
  5
340
100
AcDbEntity
  8
MSL-5-300-3
100
AcDbLine
 10
1308.110694
 20
858.606156
 30
0.0
 11
1299.734694
 21
858.606156
 31
0.0
  0
LINE
  5
341
100
AcDbEntity
  8
MSL-5-300-3
100
AcDbLine
 10
1303.922694
 20
856.188213
 30
0.0
 11
1299.734694
 21
858.606156
 31
0.0
  0
LINE
  5
342
100
AcDbEntity
  8
MSL-5-300-3
100
AcDbLine
 10
1303.922694
 20
856.188213
 30
0.0
 11
1308.110694
 21
858.606156
 31
0.0
  0
LINE
  5
343
100
AcDbEntity
  8
MSL-5-300-7
100
AcDbLine
 10
1304.922694
 20
854.606156
 30
0.0
 11
1320.922694
 21
854.606156
 31
0.0
  0
ARC
  5
344
100
AcDbEntity
  8
MSL-5-300-4
100
AcDbCircle
 10
1312.922694
 20
854.606156
 30
0.0
 40
5.0
100
AcDbArc
 50
280.0
 51
210.0
  0
CIRCLE
  5
345
100
AcDbEntity
  8
MSL-5-300-0
100
AcDbCircle
 10
1312.922694
 20
854.606156
 30
0.0
 40
4.188
  0
LINE
  5
346
100
AcDbEntity
  8
MSL-5-300-0
100
AcDbLine
 10
1343.922694
 20
871.106156
 30
0.0
 11
1320.922694
 21
871.106156
 31
0.0
  0
LINE
  5
347
100
AcDbEntity
  8
MSL-5-300-3
100
AcDbLine
 10
1298.922694
 20
881.606156
 30
0.0
 11
1298.922694
 21
864.606156
 31
0.0
  0
LINE
  5
348
100
AcDbEntity
  8
MSL-5-300-3
100
AcDbLine
 10
1308.922694
 20
881.606156
 30
0.0
 11
1308.922694
 21
864.606156
 31
0.0
  0
LINE
  5
349
100
AcDbEntity
  8
MSL-5-300-3
100
AcDbLine
 10
1298.922694
 20
864.606156
 30
0.0
 11
1308.922694
 21
864.606156
 31
0.0
  0
LINE
  5
34A
100
AcDbEntity
  8
MSL-5-300-0
100
AcDbLine
 10
1320.922694
 20
881.606156
 30
0.0
 11
1295.922694
 21
881.606156
 31
0.0
  0
LINE
  5
34B
100
AcDbEntity
  8
MSL-5-300-7
100
AcDbLine
 10
1625.922694
 20
860.806156
 30
0.0
 11
1625.922694
 21
884.072823
 31
0.0
  0
LINE
  5
34C
100
AcDbEntity
  8
MSL-5-300-7
100
AcDbLine
 10
1655.922694
 20
854.472823
 30
0.0
 11
1655.922694
 21
884.072823
 31
0.0
  0
LINE
  5
34D
100
AcDbEntity
  8
MSL-5-300-3
100
AcDbLine
 10
1651.922694
 20
881.606156
 30
0.0
 11
1651.922694
 21
859.606156
 31
0.0
  0
LINE
  5
34E
100
AcDbEntity
  8
MSL-5-300-3
100
AcDbLine
 10
1659.922694
 20
881.606156
 30
0.0
 11
1659.922694
 21
859.606156
 31
0.0
  0
LINE
  5
34F
100
AcDbEntity
  8
MSL-5-300-3
100
AcDbLine
 10
1599.922694
 20
881.606156
 30
0.0
 11
1599.922694
 21
859.606156
 31
0.0
  0
LINE
  5
350
100
AcDbEntity
  8
MSL-5-300-3
100
AcDbLine
 10
1591.922694
 20
881.606156
 30
0.0
 11
1591.922694
 21
859.606156
 31
0.0
  0
LINE
  5
351
100
AcDbEntity
  8
MSL-5-300-7
100
AcDbLine
 10
1595.922694
 20
854.472823
 30
0.0
 11
1595.922694
 21
884.072823
 31
0.0
  0
LINE
  5
352
100
AcDbEntity
  8
MSL-5-300-7
100
AcDbLine
 10
1565.922694
 20
860.806156
 30
0.0
 11
1565.922694
 21
884.072823
 31
0.0
  0
LINE
  5
353
100
AcDbEntity
  8
MSL-5-300-7
100
AcDbLine
 10
1505.922694
 20
860.806156
 30
0.0
 11
1505.922694
 21
884.072823
 31
0.0
  0
LINE
  5
354
100
AcDbEntity
  8
MSL-5-300-7
100
AcDbLine
 10
1535.922694
 20
854.472823
 30
0.0
 11
1535.922694
 21
884.072823
 31
0.0
  0
LINE
  5
355
100
AcDbEntity
  8
MSL-5-300-3
100
AcDbLine
 10
1531.922694
 20
881.606156
 30
0.0
 11
1531.922694
 21
859.606156
 31
0.0
  0
LINE
  5
356
100
AcDbEntity
  8
MSL-5-300-3
100
AcDbLine
 10
1539.922694
 20
881.606156
 30
0.0
 11
1539.922694
 21
859.606156
 31
0.0
  0
LINE
  5
357
100
AcDbEntity
  8
MSL-5-300-3
100
AcDbLine
 10
1411.922694
 20
881.606156
 30
0.0
 11
1411.922694
 21
859.606156
 31
0.0
  0
LINE
  5
358
100
AcDbEntity
  8
MSL-5-300-3
100
AcDbLine
 10
1419.922694
 20
881.606156
 30
0.0
 11
1419.922694
 21
859.606156
 31
0.0
  0
LINE
  5
359
100
AcDbEntity
  8
MSL-5-300-3
100
AcDbLine
 10
1479.922694
 20
881.606156
 30
0.0
 11
1479.922694
 21
859.606156
 31
0.0
  0
LINE
  5
35A
100
AcDbEntity
  8
MSL-5-300-3
100
AcDbLine
 10
1471.922694
 20
881.606156
 30
0.0
 11
1471.922694
 21
859.606156
 31
0.0
  0
LINE
  5
35B
100
AcDbEntity
  8
MSL-5-300-7
100
AcDbLine
 10
1415.922694
 20
854.472823
 30
0.0
 11
1415.922694
 21
884.072823
 31
0.0
  0
LINE
  5
35C
100
AcDbEntity
  8
MSL-5-300-7
100
AcDbLine
 10
1475.922694
 20
854.472823
 30
0.0
 11
1475.922694
 21
884.072823
 31
0.0
  0
LINE
  5
35D
100
AcDbEntity
  8
MSL-5-300-7
100
AcDbLine
 10
1445.922694
 20
860.806156
 30
0.0
 11
1445.922694
 21
884.072823
 31
0.0
  0
LINE
  5
35E
100
AcDbEntity
  8
MSL-5-300-7
100
AcDbLine
 10
1402.263454
 20
806.606156
 30
0.0
 11
1677.123181
 21
806.606156
 31
0.0
  0
LINE
  5
35F
100
AcDbEntity
  8
MSL-5-300-7
100
AcDbLine
 10
1505.922694
 20
827.882567
 30
0.0
 11
1505.922694
 21
783.695037
 31
0.0
  0
LINE
  5
360
100
AcDbEntity
  8
MSL-5-300-7
100
AcDbLine
 10
1445.922694
 20
827.882567
 30
0.0
 11
1445.922694
 21
783.695037
 31
0.0
  0
CIRCLE
  5
361
100
AcDbEntity
  8
MSL-5-300-0
100
AcDbCircle
 10
1445.922694
 20
776.606156
 30
0.0
 40
5.0
  0
LINE
  5
362
100
AcDbEntity
  8
MSL-5-300-7
100
AcDbLine
 10
1445.922694
 20
776.606156
 30
0.0
 11
1438.833814
 21
776.606156
 31
0.0
  0
LINE
  5
363
100
AcDbEntity
  8
MSL-5-300-3
100
AcDbLine
 10
1440.922694
 20
746.606156
 30
0.0
 11
1445.922694
 21
746.606156
 31
0.0
  0
LINE
  5
364
100
AcDbEntity
  8
MSL-5-300-3
100
AcDbLine
 10
1445.922694
 20
749.939489
 30
0.0
 11
1440.922694
 21
746.606156
 31
0.0
  0
LINE
  5
365
100
AcDbEntity
  8
MSL-5-300-7
100
AcDbLine
 10
1415.922694
 20
758.739489
 30
0.0
 11
1415.922694
 21
729.139489
 31
0.0
  0
LINE
  5
366
100
AcDbEntity
  8
MSL-5-300-3
100
AcDbLine
 10
1419.922694
 20
731.606156
 30
0.0
 11
1419.922694
 21
753.606156
 31
0.0
  0
LINE
  5
367
100
AcDbEntity
  8
MSL-5-300-3
100
AcDbLine
 10
1411.922694
 20
731.606156
 30
0.0
 11
1411.922694
 21
753.606156
 31
0.0
  0
LINE
  5
368
100
AcDbEntity
  8
MSL-5-300-3
100
AcDbLine
 10
1410.922694
 20
748.606156
 30
0.0
 11
1410.922694
 21
731.606156
 31
0.0
  0
LINE
  5
369
100
AcDbEntity
  8
MSL-5-300-3
100
AcDbLine
 10
1420.922694
 20
731.606156
 30
0.0
 11
1420.922694
 21
748.606156
 31
0.0
  0
LINE
  5
36A
100
AcDbEntity
  8
MSL-5-300-3
100
AcDbLine
 10
1440.922694
 20
731.606156
 30
0.0
 11
1440.922694
 21
746.606156
 31
0.0
  0
LINE
  5
36B
100
AcDbEntity
  8
MSL-5-300-7
100
AcDbLine
 10
1415.922694
 20
729.139489
 30
0.0
 11
1415.922694
 21
731.606156
 31
0.0
  0
LINE
  5
36C
100
AcDbEntity
  8
MSL-5-300-3
100
AcDbLine
 10
1415.922694
 20
731.606156
 30
0.0
 11
1415.922694
 21
731.606156
 31
0.0
  0
LINE
  5
36D
100
AcDbEntity
  8
MSL-5-300-3
100
AcDbLine
 10
1415.922694
 20
731.606156
 30
0.0
 11
1415.922694
 21
731.606156
 31
0.0
  0
LINE
  5
36E
100
AcDbEntity
  8
MSL-5-300-3
100
AcDbLine
 10
1415.922694
 20
756.272822
 30
0.0
 11
1419.922694
 21
753.606156
 31
0.0
  0
LINE
  5
36F
100
AcDbEntity
  8
MSL-5-300-3
100
AcDbLine
 10
1419.922694
 20
753.606156
 30
0.0
 11
1415.922694
 21
753.606156
 31
0.0
  0
LINE
  5
370
100
AcDbEntity
  8
MSL-5-300-3
100
AcDbLine
 10
1415.922694
 20
756.272822
 30
0.0
 11
1411.922694
 21
753.606156
 31
0.0
  0
LINE
  5
371
100
AcDbEntity
  8
MSL-5-300-3
100
AcDbLine
 10
1411.922694
 20
753.606156
 30
0.0
 11
1415.922694
 21
753.606156
 31
0.0
  0
LINE
  5
372
100
AcDbEntity
  8
MSL-5-300-3
100
AcDbLine
 10
1420.922694
 20
748.606156
 30
0.0
 11
1410.922694
 21
748.606156
 31
0.0
  0
CIRCLE
  5
373
100
AcDbEntity
  8
MSL-5-300-0
100
AcDbCircle
 10
1415.922694
 20
776.606156
 30
0.0
 40
4.25
  0
LINE
  5
374
100
AcDbEntity
  8
MSL-5-300-7
100
AcDbLine
 10
1415.922694
 20
776.606156
 30
0.0
 11
1415.922694
 21
769.704258
 31
0.0
  0
ARC
  5
375
100
AcDbEntity
  8
MSL-5-300-4
100
AcDbCircle
 10
1415.922694
 20
776.606156
 30
0.0
 40
5.0
100
AcDbArc
 50
82.606248
 51
7.300134
  0
LINE
  5
376
100
AcDbEntity
  8
MSL-5-300-7
100
AcDbLine
 10
1415.922694
 20
776.606156
 30
0.0
 11
1422.824592
 21
776.606156
 31
0.0
  0
LINE
  5
377
100
AcDbEntity
  8
MSL-5-300-7
100
AcDbLine
 10
1415.922694
 20
776.606156
 30
0.0
 11
1415.922694
 21
783.508054
 31
0.0
  0
LINE
  5
378
100
AcDbEntity
  8
MSL-5-300-7
100
AcDbLine
 10
1415.922694
 20
776.606156
 30
0.0
 11
1409.020797
 21
776.606156
 31
0.0
  0
LINE
  5
379
100
AcDbEntity
  8
MSL-5-300-7
100
AcDbLine
 10
1475.922694
 20
758.739489
 30
0.0
 11
1475.922694
 21
729.139489
 31
0.0
  0
LINE
  5
37A
100
AcDbEntity
  8
MSL-5-300-3
100
AcDbLine
 10
1471.922694
 20
731.606156
 30
0.0
 11
1471.922694
 21
753.606156
 31
0.0
  0
LINE
  5
37B
100
AcDbEntity
  8
MSL-5-300-3
100
AcDbLine
 10
1479.922694
 20
731.606156
 30
0.0
 11
1479.922694
 21
753.606156
 31
0.0
  0
LINE
  5
37C
100
AcDbEntity
  8
MSL-5-300-7
100
AcDbLine
 10
1445.922694
 20
752.406156
 30
0.0
 11
1445.922694
 21
729.139489
 31
0.0
  0
LINE
  5
37D
100
AcDbEntity
  8
MSL-5-300-3
100
AcDbLine
 10
1450.922694
 20
731.606156
 30
0.0
 11
1450.922694
 21
746.606156
 31
0.0
  0
LINE
  5
37E
100
AcDbEntity
  8
MSL-5-300-3
100
AcDbLine
 10
1470.922694
 20
748.606156
 30
0.0
 11
1470.922694
 21
731.606156
 31
0.0
  0
LINE
  5
37F
100
AcDbEntity
  8
MSL-5-300-3
100
AcDbLine
 10
1480.922694
 20
731.606156
 30
0.0
 11
1480.922694
 21
748.606156
 31
0.0
  0
LINE
  5
380
100
AcDbEntity
  8
MSL-5-300-7
100
AcDbLine
 10
1445.922694
 20
729.139489
 30
0.0
 11
1445.922694
 21
731.606156
 31
0.0
  0
LINE
  5
381
100
AcDbEntity
  8
MSL-5-300-3
100
AcDbLine
 10
1445.922694
 20
731.606156
 30
0.0
 11
1445.922694
 21
731.606156
 31
0.0
  0
LINE
  5
382
100
AcDbEntity
  8
MSL-5-300-3
100
AcDbLine
 10
1445.922694
 20
731.606156
 30
0.0
 11
1445.922694
 21
731.606156
 31
0.0
  0
LINE
  5
383
100
AcDbEntity
  8
MSL-5-300-7
100
AcDbLine
 10
1475.922694
 20
729.139489
 30
0.0
 11
1475.922694
 21
731.606156
 31
0.0
  0
LINE
  5
384
100
AcDbEntity
  8
MSL-5-300-3
100
AcDbLine
 10
1475.922694
 20
731.606156
 30
0.0
 11
1475.922694
 21
731.606156
 31
0.0
  0
LINE
  5
385
100
AcDbEntity
  8
MSL-5-300-3
100
AcDbLine
 10
1475.922694
 20
731.606156
 30
0.0
 11
1475.922694
 21
731.606156
 31
0.0
  0
LINE
  5
386
100
AcDbEntity
  8
MSL-5-300-3
100
AcDbLine
 10
1450.922694
 20
746.606156
 30
0.0
 11
1445.922694
 21
746.606156
 31
0.0
  0
LINE
  5
387
100
AcDbEntity
  8
MSL-5-300-3
100
AcDbLine
 10
1445.922694
 20
749.939489
 30
0.0
 11
1450.922694
 21
746.606156
 31
0.0
  0
LINE
  5
388
100
AcDbEntity
  8
MSL-5-300-3
100
AcDbLine
 10
1475.922694
 20
756.272822
 30
0.0
 11
1471.922694
 21
753.606156
 31
0.0
  0
LINE
  5
389
100
AcDbEntity
  8
MSL-5-300-3
100
AcDbLine
 10
1471.922694
 20
753.606156
 30
0.0
 11
1475.922694
 21
753.606156
 31
0.0
  0
LINE
  5
38A
100
AcDbEntity
  8
MSL-5-300-3
100
AcDbLine
 10
1475.922694
 20
756.272822
 30
0.0
 11
1479.922694
 21
753.606156
 31
0.0
  0
LINE
  5
38B
100
AcDbEntity
  8
MSL-5-300-3
100
AcDbLine
 10
1479.922694
 20
753.606156
 30
0.0
 11
1475.922694
 21
753.606156
 31
0.0
  0
LINE
  5
38C
100
AcDbEntity
  8
MSL-5-300-3
100
AcDbLine
 10
1480.922694
 20
748.606156
 30
0.0
 11
1470.922694
 21
748.606156
 31
0.0
  0
LINE
  5
38D
100
AcDbEntity
  8
MSL-5-300-3
100
AcDbLine
 10
1510.922694
 20
731.606156
 30
0.0
 11
1510.922694
 21
746.606156
 31
0.0
  0
LINE
  5
38E
100
AcDbEntity
  8
MSL-5-300-7
100
AcDbLine
 10
1505.922694
 20
752.406156
 30
0.0
 11
1505.922694
 21
729.139489
 31
0.0
  0
LINE
  5
38F
100
AcDbEntity
  8
MSL-5-300-3
100
AcDbLine
 10
1500.922694
 20
731.606156
 30
0.0
 11
1500.922694
 21
746.606156
 31
0.0
  0
LINE
  5
390
100
AcDbEntity
  8
MSL-5-300-3
100
AcDbLine
 10
1505.922694
 20
731.606156
 30
0.0
 11
1505.922694
 21
731.606156
 31
0.0
  0
LINE
  5
391
100
AcDbEntity
  8
MSL-5-300-3
100
AcDbLine
 10
1505.922694
 20
731.606156
 30
0.0
 11
1505.922694
 21
731.606156
 31
0.0
  0
LINE
  5
392
100
AcDbEntity
  8
MSL-5-300-7
100
AcDbLine
 10
1505.922694
 20
729.139489
 30
0.0
 11
1505.922694
 21
731.606156
 31
0.0
  0
LINE
  5
393
100
AcDbEntity
  8
MSL-5-300-3
100
AcDbLine
 10
1505.922694
 20
749.939489
 30
0.0
 11
1510.922694
 21
746.606156
 31
0.0
  0
LINE
  5
394
100
AcDbEntity
  8
MSL-5-300-3
100
AcDbLine
 10
1510.922694
 20
746.606156
 30
0.0
 11
1505.922694
 21
746.606156
 31
0.0
  0
LINE
  5
395
100
AcDbEntity
  8
MSL-5-300-3
100
AcDbLine
 10
1505.922694
 20
749.939489
 30
0.0
 11
1500.922694
 21
746.606156
 31
0.0
  0
LINE
  5
396
100
AcDbEntity
  8
MSL-5-300-3
100
AcDbLine
 10
1500.922694
 20
746.606156
 30
0.0
 11
1505.922694
 21
746.606156
 31
0.0
  0
LINE
  5
397
100
AcDbEntity
  8
MSL-5-300-7
100
AcDbLine
 10
1445.922694
 20
776.606156
 30
0.0
 11
1445.922694
 21
769.517275
 31
0.0
  0
LINE
  5
398
100
AcDbEntity
  8
MSL-5-300-7
100
AcDbLine
 10
1475.922694
 20
776.606156
 30
0.0
 11
1475.922694
 21
769.875366
 31
0.0
  0
ARC
  5
399
100
AcDbEntity
  8
MSL-5-300-4
100
AcDbCircle
 10
1475.922694
 20
776.606156
 30
0.0
 40
5.0
100
AcDbArc
 50
82.606248
 51
7.300134
  0
CIRCLE
  5
39A
100
AcDbEntity
  8
MSL-5-300-0
100
AcDbCircle
 10
1475.922694
 20
776.606156
 30
0.0
 40
4.25
  0
LINE
  5
39B
100
AcDbEntity
  8
MSL-5-300-7
100
AcDbLine
 10
1445.922694
 20
776.606156
 30
0.0
 11
1453.011575
 21
776.606156
 31
0.0
  0
LINE
  5
39C
100
AcDbEntity
  8
MSL-5-300-7
100
AcDbLine
 10
1445.922694
 20
776.606156
 30
0.0
 11
1445.922694
 21
783.695037
 31
0.0
  0
LINE
  5
39D
100
AcDbEntity
  8
MSL-5-300-7
100
AcDbLine
 10
1475.922694
 20
776.606156
 30
0.0
 11
1475.922694
 21
783.336946
 31
0.0
  0
LINE
  5
39E
100
AcDbEntity
  8
MSL-5-300-7
100
AcDbLine
 10
1475.922694
 20
776.606156
 30
0.0
 11
1469.191904
 21
776.606156
 31
0.0
  0
LINE
  5
39F
100
AcDbEntity
  8
MSL-5-300-7
100
AcDbLine
 10
1475.922694
 20
776.606156
 30
0.0
 11
1482.653484
 21
776.606156
 31
0.0
  0
LINE
  5
3A0
100
AcDbEntity
  8
MSL-5-300-7
100
AcDbLine
 10
1505.922694
 20
776.606156
 30
0.0
 11
1505.922694
 21
769.517275
 31
0.0
  0
CIRCLE
  5
3A1
100
AcDbEntity
  8
MSL-5-300-0
100
AcDbCircle
 10
1505.922694
 20
776.606156
 30
0.0
 40
5.0
  0
LINE
  5
3A2
100
AcDbEntity
  8
MSL-5-300-7
100
AcDbLine
 10
1505.922694
 20
776.606156
 30
0.0
 11
1513.011575
 21
776.606156
 31
0.0
  0
LINE
  5
3A3
100
AcDbEntity
  8
MSL-5-300-7
100
AcDbLine
 10
1505.922694
 20
776.606156
 30
0.0
 11
1505.922694
 21
783.695037
 31
0.0
  0
LINE
  5
3A4
100
AcDbEntity
  8
MSL-5-300-7
100
AcDbLine
 10
1505.922694
 20
776.606156
 30
0.0
 11
1498.833814
 21
776.606156
 31
0.0
  0
CIRCLE
  5
3A5
100
AcDbEntity
  8
MSL-5-300-0
100
AcDbCircle
 10
1445.922694
 20
836.606156
 30
0.0
 40
5.0
  0
LINE
  5
3A6
100
AcDbEntity
  8
MSL-5-300-7
100
AcDbLine
 10
1445.922694
 20
836.606156
 30
0.0
 11
1438.782946
 21
836.606156
 31
0.0
  0
CIRCLE
  5
3A7
100
AcDbEntity
  8
MSL-5-300-0
100
AcDbCircle
 10
1415.922694
 20
836.606156
 30
0.0
 40
4.25
  0
LINE
  5
3A8
100
AcDbEntity
  8
MSL-5-300-7
100
AcDbLine
 10
1415.922694
 20
836.606156
 30
0.0
 11
1422.739941
 21
836.606156
 31
0.0
  0
LINE
  5
3A9
100
AcDbEntity
  8
MSL-5-300-7
100
AcDbLine
 10
1415.922694
 20
836.606156
 30
0.0
 11
1415.922694
 21
829.78891
 31
0.0
  0
LINE
  5
3AA
100
AcDbEntity
  8
MSL-5-300-7
100
AcDbLine
 10
1415.922694
 20
836.606156
 30
0.0
 11
1415.922694
 21
843.423402
 31
0.0
  0
ARC
  5
3AB
100
AcDbEntity
  8
MSL-5-300-4
100
AcDbCircle
 10
1415.922694
 20
836.606156
 30
0.0
 40
5.0
100
AcDbArc
 50
82.606248
 51
7.300134
  0
LINE
  5
3AC
100
AcDbEntity
  8
MSL-5-300-7
100
AcDbLine
 10
1415.922694
 20
836.606156
 30
0.0
 11
1409.105448
 21
836.606156
 31
0.0
  0
LINE
  5
3AD
100
AcDbEntity
  8
MSL-5-300-3
100
AcDbLine
 10
1419.922694
 20
859.606156
 30
0.0
 11
1415.922694
 21
859.606156
 31
0.0
  0
LINE
  5
3AE
100
AcDbEntity
  8
MSL-5-300-3
100
AcDbLine
 10
1415.922694
 20
856.93949
 30
0.0
 11
1419.922694
 21
859.606156
 31
0.0
  0
LINE
  5
3AF
100
AcDbEntity
  8
MSL-5-300-3
100
AcDbLine
 10
1411.922694
 20
859.606156
 30
0.0
 11
1415.922694
 21
859.606156
 31
0.0
  0
LINE
  5
3B0
100
AcDbEntity
  8
MSL-5-300-3
100
AcDbLine
 10
1415.922694
 20
856.93949
 30
0.0
 11
1411.922694
 21
859.606156
 31
0.0
  0
LINE
  5
3B1
100
AcDbEntity
  8
MSL-5-300-7
100
AcDbLine
 10
1445.922694
 20
836.606156
 30
0.0
 11
1453.062443
 21
836.606156
 31
0.0
  0
LINE
  5
3B2
100
AcDbEntity
  8
MSL-5-300-7
100
AcDbLine
 10
1445.922694
 20
836.606156
 30
0.0
 11
1445.922694
 21
829.466407
 31
0.0
  0
LINE
  5
3B3
100
AcDbEntity
  8
MSL-5-300-7
100
AcDbLine
 10
1445.922694
 20
836.606156
 30
0.0
 11
1445.922694
 21
843.745905
 31
0.0
  0
LINE
  5
3B4
100
AcDbEntity
  8
MSL-5-300-7
100
AcDbLine
 10
1475.922694
 20
836.606156
 30
0.0
 11
1469.079981
 21
836.606156
 31
0.0
  0
LINE
  5
3B5
100
AcDbEntity
  8
MSL-5-300-7
100
AcDbLine
 10
1475.922694
 20
836.606156
 30
0.0
 11
1475.922694
 21
829.763443
 31
0.0
  0
LINE
  5
3B6
100
AcDbEntity
  8
MSL-5-300-7
100
AcDbLine
 10
1475.922694
 20
836.606156
 30
0.0
 11
1475.922694
 21
843.448869
 31
0.0
  0
ARC
  5
3B7
100
AcDbEntity
  8
MSL-5-300-4
100
AcDbCircle
 10
1475.922694
 20
836.606156
 30
0.0
 40
5.0
100
AcDbArc
 50
82.606248
 51
7.300134
  0
CIRCLE
  5
3B8
100
AcDbEntity
  8
MSL-5-300-0
100
AcDbCircle
 10
1475.922694
 20
836.606156
 30
0.0
 40
4.25
  0
LINE
  5
3B9
100
AcDbEntity
  8
MSL-5-300-7
100
AcDbLine
 10
1475.922694
 20
836.606156
 30
0.0
 11
1482.765408
 21
836.606156
 31
0.0
  0
LINE
  5
3BA
100
AcDbEntity
  8
MSL-5-300-3
100
AcDbLine
 10
1471.922694
 20
859.606156
 30
0.0
 11
1475.922694
 21
859.606156
 31
0.0
  0
LINE
  5
3BB
100
AcDbEntity
  8
MSL-5-300-3
100
AcDbLine
 10
1475.922694
 20
856.93949
 30
0.0
 11
1471.922694
 21
859.606156
 31
0.0
  0
LINE
  5
3BC
100
AcDbEntity
  8
MSL-5-300-3
100
AcDbLine
 10
1479.922694
 20
859.606156
 30
0.0
 11
1475.922694
 21
859.606156
 31
0.0
  0
LINE
  5
3BD
100
AcDbEntity
  8
MSL-5-300-3
100
AcDbLine
 10
1475.922694
 20
856.93949
 30
0.0
 11
1479.922694
 21
859.606156
 31
0.0
  0
LINE
  5
3BE
100
AcDbEntity
  8
MSL-5-300-7
100
AcDbLine
 10
1505.922694
 20
836.606156
 30
0.0
 11
1513.062443
 21
836.606156
 31
0.0
  0
CIRCLE
  5
3BF
100
AcDbEntity
  8
MSL-5-300-0
100
AcDbCircle
 10
1505.922694
 20
836.606156
 30
0.0
 40
5.0
  0
LINE
  5
3C0
100
AcDbEntity
  8
MSL-5-300-7
100
AcDbLine
 10
1505.922694
 20
836.606156
 30
0.0
 11
1505.922694
 21
843.745905
 31
0.0
  0
LINE
  5
3C1
100
AcDbEntity
  8
MSL-5-300-7
100
AcDbLine
 10
1505.922694
 20
836.606156
 30
0.0
 11
1505.922694
 21
829.466407
 31
0.0
  0
LINE
  5
3C2
100
AcDbEntity
  8
MSL-5-300-7
100
AcDbLine
 10
1505.922694
 20
836.606156
 30
0.0
 11
1498.782946
 21
836.606156
 31
0.0
  0
LINE
  5
3C3
100
AcDbEntity
  8
MSL-5-300-7
100
AcDbLine
 10
1625.922694
 20
827.882567
 30
0.0
 11
1625.922694
 21
783.695037
 31
0.0
  0
LINE
  5
3C4
100
AcDbEntity
  8
MSL-5-300-7
100
AcDbLine
 10
1565.922694
 20
827.882567
 30
0.0
 11
1565.922694
 21
783.695037
 31
0.0
  0
LINE
  5
3C5
100
AcDbEntity
  8
MSL-5-300-7
100
AcDbLine
 10
1595.922694
 20
758.739489
 30
0.0
 11
1595.922694
 21
729.139489
 31
0.0
  0
LINE
  5
3C6
100
AcDbEntity
  8
MSL-5-300-7
100
AcDbLine
 10
1535.922694
 20
758.739489
 30
0.0
 11
1535.922694
 21
729.139489
 31
0.0
  0
LINE
  5
3C7
100
AcDbEntity
  8
MSL-5-300-3
100
AcDbLine
 10
1570.922694
 20
746.606156
 30
0.0
 11
1565.922694
 21
746.606156
 31
0.0
  0
LINE
  5
3C8
100
AcDbEntity
  8
MSL-5-300-3
100
AcDbLine
 10
1565.922694
 20
749.939489
 30
0.0
 11
1570.922694
 21
746.606156
 31
0.0
  0
LINE
  5
3C9
100
AcDbEntity
  8
MSL-5-300-3
100
AcDbLine
 10
1560.922694
 20
731.606156
 30
0.0
 11
1560.922694
 21
746.606156
 31
0.0
  0
LINE
  5
3CA
100
AcDbEntity
  8
MSL-5-300-7
100
AcDbLine
 10
1565.922694
 20
752.406156
 30
0.0
 11
1565.922694
 21
729.139489
 31
0.0
  0
LINE
  5
3CB
100
AcDbEntity
  8
MSL-5-300-3
100
AcDbLine
 10
1540.922694
 20
731.606156
 30
0.0
 11
1540.922694
 21
748.606156
 31
0.0
  0
LINE
  5
3CC
100
AcDbEntity
  8
MSL-5-300-3
100
AcDbLine
 10
1539.922694
 20
731.606156
 30
0.0
 11
1539.922694
 21
753.606156
 31
0.0
  0
LINE
  5
3CD
100
AcDbEntity
  8
MSL-5-300-3
100
AcDbLine
 10
1530.922694
 20
748.606156
 30
0.0
 11
1530.922694
 21
731.606156
 31
0.0
  0
LINE
  5
3CE
100
AcDbEntity
  8
MSL-5-300-3
100
AcDbLine
 10
1531.922694
 20
731.606156
 30
0.0
 11
1531.922694
 21
753.606156
 31
0.0
  0
LINE
  5
3CF
100
AcDbEntity
  8
MSL-5-300-3
100
AcDbLine
 10
1535.922694
 20
731.606156
 30
0.0
 11
1535.922694
 21
731.606156
 31
0.0
  0
LINE
  5
3D0
100
AcDbEntity
  8
MSL-5-300-3
100
AcDbLine
 10
1535.922694
 20
731.606156
 30
0.0
 11
1535.922694
 21
731.606156
 31
0.0
  0
LINE
  5
3D1
100
AcDbEntity
  8
MSL-5-300-7
100
AcDbLine
 10
1535.922694
 20
729.139489
 30
0.0
 11
1535.922694
 21
731.606156
 31
0.0
  0
LINE
  5
3D2
100
AcDbEntity
  8
MSL-5-300-7
100
AcDbLine
 10
1565.922694
 20
729.139489
 30
0.0
 11
1565.922694
 21
731.606156
 31
0.0
  0
LINE
  5
3D3
100
AcDbEntity
  8
MSL-5-300-3
100
AcDbLine
 10
1565.922694
 20
731.606156
 30
0.0
 11
1565.922694
 21
731.606156
 31
0.0
  0
LINE
  5
3D4
100
AcDbEntity
  8
MSL-5-300-3
100
AcDbLine
 10
1565.922694
 20
731.606156
 30
0.0
 11
1565.922694
 21
731.606156
 31
0.0
  0
LINE
  5
3D5
100
AcDbEntity
  8
MSL-5-300-3
100
AcDbLine
 10
1531.922694
 20
753.606156
 30
0.0
 11
1535.922694
 21
753.606156
 31
0.0
  0
LINE
  5
3D6
100
AcDbEntity
  8
MSL-5-300-3
100
AcDbLine
 10
1535.922694
 20
756.272822
 30
0.0
 11
1531.922694
 21
753.606156
 31
0.0
  0
LINE
  5
3D7
100
AcDbEntity
  8
MSL-5-300-3
100
AcDbLine
 10
1540.922694
 20
748.606156
 30
0.0
 11
1530.922694
 21
748.606156
 31
0.0
  0
LINE
  5
3D8
100
AcDbEntity
  8
MSL-5-300-3
100
AcDbLine
 10
1539.922694
 20
753.606156
 30
0.0
 11
1535.922694
 21
753.606156
 31
0.0
  0
LINE
  5
3D9
100
AcDbEntity
  8
MSL-5-300-3
100
AcDbLine
 10
1535.922694
 20
756.272822
 30
0.0
 11
1539.922694
 21
753.606156
 31
0.0
  0
LINE
  5
3DA
100
AcDbEntity
  8
MSL-5-300-3
100
AcDbLine
 10
1560.922694
 20
746.606156
 30
0.0
 11
1565.922694
 21
746.606156
 31
0.0
  0
LINE
  5
3DB
100
AcDbEntity
  8
MSL-5-300-3
100
AcDbLine
 10
1565.922694
 20
749.939489
 30
0.0
 11
1560.922694
 21
746.606156
 31
0.0
  0
LINE
  5
3DC
100
AcDbEntity
  8
MSL-5-300-3
100
AcDbLine
 10
1591.922694
 20
731.606156
 30
0.0
 11
1591.922694
 21
753.606156
 31
0.0
  0
LINE
  5
3DD
100
AcDbEntity
  8
MSL-5-300-3
100
AcDbLine
 10
1570.922694
 20
731.606156
 30
0.0
 11
1570.922694
 21
746.606156
 31
0.0
  0
LINE
  5
3DE
100
AcDbEntity
  8
MSL-5-300-3
100
AcDbLine
 10
1590.922694
 20
748.606156
 30
0.0
 11
1590.922694
 21
731.606156
 31
0.0
  0
LINE
  5
3DF
100
AcDbEntity
  8
MSL-5-300-3
100
AcDbLine
 10
1599.922694
 20
731.606156
 30
0.0
 11
1599.922694
 21
753.606156
 31
0.0
  0
LINE
  5
3E0
100
AcDbEntity
  8
MSL-5-300-3
100
AcDbLine
 10
1600.922694
 20
731.606156
 30
0.0
 11
1600.922694
 21
748.606156
 31
0.0
  0
LINE
  5
3E1
100
AcDbEntity
  8
MSL-5-300-7
100
AcDbLine
 10
1595.922694
 20
729.139489
 30
0.0
 11
1595.922694
 21
731.606156
 31
0.0
  0
LINE
  5
3E2
100
AcDbEntity
  8
MSL-5-300-3
100
AcDbLine
 10
1595.922694
 20
731.606156
 30
0.0
 11
1595.922694
 21
731.606156
 31
0.0
  0
LINE
  5
3E3
100
AcDbEntity
  8
MSL-5-300-3
100
AcDbLine
 10
1595.922694
 20
731.606156
 30
0.0
 11
1595.922694
 21
731.606156
 31
0.0
  0
LINE
  5
3E4
100
AcDbEntity
  8
MSL-5-300-3
100
AcDbLine
 10
1595.922694
 20
756.272822
 30
0.0
 11
1599.922694
 21
753.606156
 31
0.0
  0
LINE
  5
3E5
100
AcDbEntity
  8
MSL-5-300-3
100
AcDbLine
 10
1599.922694
 20
753.606156
 30
0.0
 11
1595.922694
 21
753.606156
 31
0.0
  0
LINE
  5
3E6
100
AcDbEntity
  8
MSL-5-300-3
100
AcDbLine
 10
1600.922694
 20
748.606156
 30
0.0
 11
1590.922694
 21
748.606156
 31
0.0
  0
LINE
  5
3E7
100
AcDbEntity
  8
MSL-5-300-3
100
AcDbLine
 10
1595.922694
 20
756.272822
 30
0.0
 11
1591.922694
 21
753.606156
 31
0.0
  0
LINE
  5
3E8
100
AcDbEntity
  8
MSL-5-300-3
100
AcDbLine
 10
1591.922694
 20
753.606156
 30
0.0
 11
1595.922694
 21
753.606156
 31
0.0
  0
CIRCLE
  5
3E9
100
AcDbEntity
  8
MSL-5-300-0
100
AcDbCircle
 10
1565.922694
 20
776.606156
 30
0.0
 40
5.0
  0
LINE
  5
3EA
100
AcDbEntity
  8
MSL-5-300-7
100
AcDbLine
 10
1565.922694
 20
776.606156
 30
0.0
 11
1573.011575
 21
776.606156
 31
0.0
  0
LINE
  5
3EB
100
AcDbEntity
  8
MSL-5-300-7
100
AcDbLine
 10
1565.922694
 20
776.606156
 30
0.0
 11
1565.922694
 21
769.517275
 31
0.0
  0
LINE
  5
3EC
100
AcDbEntity
  8
MSL-5-300-7
100
AcDbLine
 10
1535.922694
 20
776.606156
 30
0.0
 11
1535.922694
 21
769.875366
 31
0.0
  0
CIRCLE
  5
3ED
100
AcDbEntity
  8
MSL-5-300-0
100
AcDbCircle
 10
1535.922694
 20
776.606156
 30
0.0
 40
4.25
  0
ARC
  5
3EE
100
AcDbEntity
  8
MSL-5-300-4
100
AcDbCircle
 10
1535.922694
 20
776.606156
 30
0.0
 40
5.0
100
AcDbArc
 50
82.606248
 51
7.300134
  0
LINE
  5
3EF
100
AcDbEntity
  8
MSL-5-300-7
100
AcDbLine
 10
1535.922694
 20
776.606156
 30
0.0
 11
1529.191904
 21
776.606156
 31
0.0
  0
LINE
  5
3F0
100
AcDbEntity
  8
MSL-5-300-7
100
AcDbLine
 10
1535.922694
 20
776.606156
 30
0.0
 11
1535.922694
 21
783.336946
 31
0.0
  0
LINE
  5
3F1
100
AcDbEntity
  8
MSL-5-300-7
100
AcDbLine
 10
1535.922694
 20
776.606156
 30
0.0
 11
1542.653484
 21
776.606156
 31
0.0
  0
LINE
  5
3F2
100
AcDbEntity
  8
MSL-5-300-7
100
AcDbLine
 10
1565.922694
 20
776.606156
 30
0.0
 11
1558.833814
 21
776.606156
 31
0.0
  0
LINE
  5
3F3
100
AcDbEntity
  8
MSL-5-300-7
100
AcDbLine
 10
1565.922694
 20
776.606156
 30
0.0
 11
1565.922694
 21
783.695037
 31
0.0
  0
ARC
  5
3F4
100
AcDbEntity
  8
MSL-5-300-4
100
AcDbCircle
 10
1595.922694
 20
776.606156
 30
0.0
 40
5.0
100
AcDbArc
 50
82.606248
 51
7.300134
  0
CIRCLE
  5
3F5
100
AcDbEntity
  8
MSL-5-300-0
100
AcDbCircle
 10
1595.922694
 20
776.606156
 30
0.0
 40
4.25
  0
LINE
  5
3F6
100
AcDbEntity
  8
MSL-5-300-7
100
AcDbLine
 10
1595.922694
 20
776.606156
 30
0.0
 11
1595.922694
 21
769.875366
 31
0.0
  0
LINE
  5
3F7
100
AcDbEntity
  8
MSL-5-300-7
100
AcDbLine
 10
1595.922694
 20
776.606156
 30
0.0
 11
1595.922694
 21
783.336946
 31
0.0
  0
LINE
  5
3F8
100
AcDbEntity
  8
MSL-5-300-7
100
AcDbLine
 10
1595.922694
 20
776.606156
 30
0.0
 11
1589.191904
 21
776.606156
 31
0.0
  0
LINE
  5
3F9
100
AcDbEntity
  8
MSL-5-300-7
100
AcDbLine
 10
1595.922694
 20
776.606156
 30
0.0
 11
1602.653484
 21
776.606156
 31
0.0
  0
LINE
  5
3FA
100
AcDbEntity
  8
MSL-5-300-7
100
AcDbLine
 10
1655.922694
 20
758.739489
 30
0.0
 11
1655.922694
 21
729.139489
 31
0.0
  0
LINE
  5
3FB
100
AcDbEntity
  8
MSL-5-300-7
100
AcDbLine
 10
1625.922694
 20
752.406156
 30
0.0
 11
1625.922694
 21
729.139489
 31
0.0
  0
LINE
  5
3FC
100
AcDbEntity
  8
MSL-5-300-3
100
AcDbLine
 10
1620.922694
 20
731.606156
 30
0.0
 11
1620.922694
 21
746.606156
 31
0.0
  0
LINE
  5
3FD
100
AcDbEntity
  8
MSL-5-300-3
100
AcDbLine
 10
1630.922694
 20
731.606156
 30
0.0
 11
1630.922694
 21
746.606156
 31
0.0
  0
LINE
  5
3FE
100
AcDbEntity
  8
MSL-5-300-3
100
AcDbLine
 10
1625.922694
 20
731.606156
 30
0.0
 11
1625.922694
 21
731.606156
 31
0.0
  0
LINE
  5
3FF
100
AcDbEntity
  8
MSL-5-300-3
100
AcDbLine
 10
1625.922694
 20
731.606156
 30
0.0
 11
1625.922694
 21
731.606156
 31
0.0
  0
LINE
  5
400
100
AcDbEntity
  8
MSL-5-300-7
100
AcDbLine
 10
1625.922694
 20
729.139489
 30
0.0
 11
1625.922694
 21
731.606156
 31
0.0
  0
LINE
  5
401
100
AcDbEntity
  8
MSL-5-300-3
100
AcDbLine
 10
1625.922694
 20
749.939489
 30
0.0
 11
1630.922694
 21
746.606156
 31
0.0
  0
LINE
  5
402
100
AcDbEntity
  8
MSL-5-300-3
100
AcDbLine
 10
1630.922694
 20
746.606156
 30
0.0
 11
1625.922694
 21
746.606156
 31
0.0
  0
LINE
  5
403
100
AcDbEntity
  8
MSL-5-300-3
100
AcDbLine
 10
1625.922694
 20
749.939489
 30
0.0
 11
1620.922694
 21
746.606156
 31
0.0
  0
LINE
  5
404
100
AcDbEntity
  8
MSL-5-300-3
100
AcDbLine
 10
1620.922694
 20
746.606156
 30
0.0
 11
1625.922694
 21
746.606156
 31
0.0
  0
LINE
  5
405
100
AcDbEntity
  8
MSL-5-300-3
100
AcDbLine
 10
1660.922694
 20
731.606156
 30
0.0
 11
1660.922694
 21
748.606156
 31
0.0
  0
LINE
  5
406
100
AcDbEntity
  8
MSL-5-300-3
100
AcDbLine
 10
1659.922694
 20
731.606156
 30
0.0
 11
1659.922694
 21
753.606156
 31
0.0
  0
LINE
  5
407
100
AcDbEntity
  8
MSL-5-300-3
100
AcDbLine
 10
1650.922694
 20
748.606156
 30
0.0
 11
1650.922694
 21
731.606156
 31
0.0
  0
LINE
  5
408
100
AcDbEntity
  8
MSL-5-300-3
100
AcDbLine
 10
1651.922694
 20
731.606156
 30
0.0
 11
1651.922694
 21
753.606156
 31
0.0
  0
LINE
  5
409
100
AcDbEntity
  8
MSL-5-300-3
100
AcDbLine
 10
1655.922694
 20
731.606156
 30
0.0
 11
1655.922694
 21
731.606156
 31
0.0
  0
LINE
  5
40A
100
AcDbEntity
  8
MSL-5-300-3
100
AcDbLine
 10
1655.922694
 20
731.606156
 30
0.0
 11
1655.922694
 21
731.606156
 31
0.0
  0
LINE
  5
40B
100
AcDbEntity
  8
MSL-5-300-7
100
AcDbLine
 10
1655.922694
 20
729.139489
 30
0.0
 11
1655.922694
 21
731.606156
 31
0.0
  0
LINE
  5
40C
100
AcDbEntity
  8
MSL-5-300-3
100
AcDbLine
 10
1651.922694
 20
753.606156
 30
0.0
 11
1655.922694
 21
753.606156
 31
0.0
  0
LINE
  5
40D
100
AcDbEntity
  8
MSL-5-300-3
100
AcDbLine
 10
1655.922694
 20
756.272822
 30
0.0
 11
1651.922694
 21
753.606156
 31
0.0
  0
LINE
  5
40E
100
AcDbEntity
  8
MSL-5-300-3
100
AcDbLine
 10
1660.922694
 20
748.606156
 30
0.0
 11
1650.922694
 21
748.606156
 31
0.0
  0
LINE
  5
40F
100
AcDbEntity
  8
MSL-5-300-3
100
AcDbLine
 10
1659.922694
 20
753.606156
 30
0.0
 11
1655.922694
 21
753.606156
 31
0.0
  0
LINE
  5
410
100
AcDbEntity
  8
MSL-5-300-3
100
AcDbLine
 10
1655.922694
 20
756.272822
 30
0.0
 11
1659.922694
 21
753.606156
 31
0.0
  0
CIRCLE
  5
411
100
AcDbEntity
  8
MSL-5-300-0
100
AcDbCircle
 10
1625.922694
 20
776.606156
 30
0.0
 40
5.0
  0
LINE
  5
412
100
AcDbEntity
  8
MSL-5-300-7
100
AcDbLine
 10
1625.922694
 20
776.606156
 30
0.0
 11
1625.922694
 21
769.517275
 31
0.0
  0
LINE
  5
413
100
AcDbEntity
  8
MSL-5-300-7
100
AcDbLine
 10
1625.922694
 20
776.606156
 30
0.0
 11
1633.011575
 21
776.606156
 31
0.0
  0
LINE
  5
414
100
AcDbEntity
  8
MSL-5-300-7
100
AcDbLine
 10
1625.922694
 20
776.606156
 30
0.0
 11
1625.922694
 21
783.695037
 31
0.0
  0
LINE
  5
415
100
AcDbEntity
  8
MSL-5-300-7
100
AcDbLine
 10
1625.922694
 20
776.606156
 30
0.0
 11
1618.833814
 21
776.606156
 31
0.0
  0
LINE
  5
416
100
AcDbEntity
  8
MSL-5-300-7
100
AcDbLine
 10
1655.922694
 20
776.606156
 30
0.0
 11
1655.922694
 21
769.875366
 31
0.0
  0
CIRCLE
  5
417
100
AcDbEntity
  8
MSL-5-300-0
100
AcDbCircle
 10
1655.922694
 20
776.606156
 30
0.0
 40
4.25
  0
ARC
  5
418
100
AcDbEntity
  8
MSL-5-300-4
100
AcDbCircle
 10
1655.922694
 20
776.606156
 30
0.0
 40
5.0
100
AcDbArc
 50
82.606248
 51
7.300134
  0
LINE
  5
419
100
AcDbEntity
  8
MSL-5-300-7
100
AcDbLine
 10
1655.922694
 20
776.606156
 30
0.0
 11
1662.653484
 21
776.606156
 31
0.0
  0
LINE
  5
41A
100
AcDbEntity
  8
MSL-5-300-7
100
AcDbLine
 10
1655.922694
 20
776.606156
 30
0.0
 11
1655.922694
 21
783.336946
 31
0.0
  0
LINE
  5
41B
100
AcDbEntity
  8
MSL-5-300-7
100
AcDbLine
 10
1655.922694
 20
776.606156
 30
0.0
 11
1649.191904
 21
776.606156
 31
0.0
  0
CIRCLE
  5
41C
100
AcDbEntity
  8
MSL-5-300-0
100
AcDbCircle
 10
1565.922694
 20
836.606156
 30
0.0
 40
5.0
  0
LINE
  5
41D
100
AcDbEntity
  8
MSL-5-300-7
100
AcDbLine
 10
1565.922694
 20
836.606156
 30
0.0
 11
1573.062443
 21
836.606156
 31
0.0
  0
LINE
  5
41E
100
AcDbEntity
  8
MSL-5-300-7
100
AcDbLine
 10
1535.922694
 20
836.606156
 30
0.0
 11
1535.922694
 21
843.448869
 31
0.0
  0
LINE
  5
41F
100
AcDbEntity
  8
MSL-5-300-7
100
AcDbLine
 10
1535.922694
 20
836.606156
 30
0.0
 11
1535.922694
 21
829.763443
 31
0.0
  0
LINE
  5
420
100
AcDbEntity
  8
MSL-5-300-7
100
AcDbLine
 10
1535.922694
 20
836.606156
 30
0.0
 11
1529.079981
 21
836.606156
 31
0.0
  0
LINE
  5
421
100
AcDbEntity
  8
MSL-5-300-7
100
AcDbLine
 10
1535.922694
 20
836.606156
 30
0.0
 11
1542.765408
 21
836.606156
 31
0.0
  0
CIRCLE
  5
422
100
AcDbEntity
  8
MSL-5-300-0
100
AcDbCircle
 10
1535.922694
 20
836.606156
 30
0.0
 40
4.25
  0
ARC
  5
423
100
AcDbEntity
  8
MSL-5-300-4
100
AcDbCircle
 10
1535.922694
 20
836.606156
 30
0.0
 40
5.0
100
AcDbArc
 50
82.606248
 51
7.300134
  0
LINE
  5
424
100
AcDbEntity
  8
MSL-5-300-7
100
AcDbLine
 10
1565.922694
 20
836.606156
 30
0.0
 11
1558.782946
 21
836.606156
 31
0.0
  0
LINE
  5
425
100
AcDbEntity
  8
MSL-5-300-7
100
AcDbLine
 10
1565.922694
 20
836.606156
 30
0.0
 11
1565.922694
 21
829.466407
 31
0.0
  0
LINE
  5
426
100
AcDbEntity
  8
MSL-5-300-7
100
AcDbLine
 10
1565.922694
 20
836.606156
 30
0.0
 11
1565.922694
 21
843.745905
 31
0.0
  0
LINE
  5
427
100
AcDbEntity
  8
MSL-5-300-3
100
AcDbLine
 10
1535.922694
 20
856.93949
 30
0.0
 11
1531.922694
 21
859.606156
 31
0.0
  0
LINE
  5
428
100
AcDbEntity
  8
MSL-5-300-3
100
AcDbLine
 10
1531.922694
 20
859.606156
 30
0.0
 11
1535.922694
 21
859.606156
 31
0.0
  0
LINE
  5
429
100
AcDbEntity
  8
MSL-5-300-3
100
AcDbLine
 10
1535.922694
 20
856.93949
 30
0.0
 11
1539.922694
 21
859.606156
 31
0.0
  0
LINE
  5
42A
100
AcDbEntity
  8
MSL-5-300-3
100
AcDbLine
 10
1539.922694
 20
859.606156
 30
0.0
 11
1535.922694
 21
859.606156
 31
0.0
  0
ARC
  5
42B
100
AcDbEntity
  8
MSL-5-300-4
100
AcDbCircle
 10
1595.922694
 20
836.606156
 30
0.0
 40
5.0
100
AcDbArc
 50
82.606248
 51
7.300134
  0
CIRCLE
  5
42C
100
AcDbEntity
  8
MSL-5-300-0
100
AcDbCircle
 10
1595.922694
 20
836.606156
 30
0.0
 40
4.25
  0
LINE
  5
42D
100
AcDbEntity
  8
MSL-5-300-7
100
AcDbLine
 10
1595.922694
 20
836.606156
 30
0.0
 11
1589.079981
 21
836.606156
 31
0.0
  0
LINE
  5
42E
100
AcDbEntity
  8
MSL-5-300-7
100
AcDbLine
 10
1595.922694
 20
836.606156
 30
0.0
 11
1595.922694
 21
829.763443
 31
0.0
  0
LINE
  5
42F
100
AcDbEntity
  8
MSL-5-300-7
100
AcDbLine
 10
1595.922694
 20
836.606156
 30
0.0
 11
1595.922694
 21
843.448869
 31
0.0
  0
LINE
  5
430
100
AcDbEntity
  8
MSL-5-300-7
100
AcDbLine
 10
1595.922694
 20
836.606156
 30
0.0
 11
1602.765408
 21
836.606156
 31
0.0
  0
LINE
  5
431
100
AcDbEntity
  8
MSL-5-300-3
100
AcDbLine
 10
1599.922694
 20
859.606156
 30
0.0
 11
1595.922694
 21
859.606156
 31
0.0
  0
LINE
  5
432
100
AcDbEntity
  8
MSL-5-300-3
100
AcDbLine
 10
1595.922694
 20
856.93949
 30
0.0
 11
1599.922694
 21
859.606156
 31
0.0
  0
LINE
  5
433
100
AcDbEntity
  8
MSL-5-300-3
100
AcDbLine
 10
1591.922694
 20
859.606156
 30
0.0
 11
1595.922694
 21
859.606156
 31
0.0
  0
LINE
  5
434
100
AcDbEntity
  8
MSL-5-300-3
100
AcDbLine
 10
1595.922694
 20
856.93949
 30
0.0
 11
1591.922694
 21
859.606156
 31
0.0
  0
LINE
  5
435
100
AcDbEntity
  8
MSL-5-300-7
100
AcDbLine
 10
1625.922694
 20
836.606156
 30
0.0
 11
1633.062443
 21
836.606156
 31
0.0
  0
CIRCLE
  5
436
100
AcDbEntity
  8
MSL-5-300-0
100
AcDbCircle
 10
1625.922694
 20
836.606156
 30
0.0
 40
5.0
  0
LINE
  5
437
100
AcDbEntity
  8
MSL-5-300-7
100
AcDbLine
 10
1625.922694
 20
836.606156
 30
0.0
 11
1625.922694
 21
843.745905
 31
0.0
  0
LINE
  5
438
100
AcDbEntity
  8
MSL-5-300-7
100
AcDbLine
 10
1625.922694
 20
836.606156
 30
0.0
 11
1625.922694
 21
829.466407
 31
0.0
  0
LINE
  5
439
100
AcDbEntity
  8
MSL-5-300-7
100
AcDbLine
 10
1625.922694
 20
836.606156
 30
0.0
 11
1618.782946
 21
836.606156
 31
0.0
  0
LINE
  5
43A
100
AcDbEntity
  8
MSL-5-300-7
100
AcDbLine
 10
1655.922694
 20
836.606156
 30
0.0
 11
1662.765408
 21
836.606156
 31
0.0
  0
LINE
  5
43B
100
AcDbEntity
  8
MSL-5-300-7
100
AcDbLine
 10
1655.922694
 20
836.606156
 30
0.0
 11
1655.922694
 21
843.448869
 31
0.0
  0
LINE
  5
43C
100
AcDbEntity
  8
MSL-5-300-7
100
AcDbLine
 10
1655.922694
 20
836.606156
 30
0.0
 11
1655.922694
 21
829.763443
 31
0.0
  0
CIRCLE
  5
43D
100
AcDbEntity
  8
MSL-5-300-0
100
AcDbCircle
 10
1655.922694
 20
836.606156
 30
0.0
 40
4.25
  0
ARC
  5
43E
100
AcDbEntity
  8
MSL-5-300-4
100
AcDbCircle
 10
1655.922694
 20
836.606156
 30
0.0
 40
5.0
100
AcDbArc
 50
82.606248
 51
7.300134
  0
LINE
  5
43F
100
AcDbEntity
  8
MSL-5-300-7
100
AcDbLine
 10
1655.922694
 20
836.606156
 30
0.0
 11
1649.079981
 21
836.606156
 31
0.0
  0
LINE
  5
440
100
AcDbEntity
  8
MSL-5-300-3
100
AcDbLine
 10
1655.922694
 20
856.93949
 30
0.0
 11
1651.922694
 21
859.606156
 31
0.0
  0
LINE
  5
441
100
AcDbEntity
  8
MSL-5-300-3
100
AcDbLine
 10
1651.922694
 20
859.606156
 30
0.0
 11
1655.922694
 21
859.606156
 31
0.0
  0
LINE
  5
442
100
AcDbEntity
  8
MSL-5-300-3
100
AcDbLine
 10
1655.922694
 20
856.93949
 30
0.0
 11
1659.922694
 21
859.606156
 31
0.0
  0
LINE
  5
443
100
AcDbEntity
  8
MSL-5-300-3
100
AcDbLine
 10
1659.922694
 20
859.606156
 30
0.0
 11
1655.922694
 21
859.606156
 31
0.0
  0
LINE
  5
444
100
AcDbEntity
  8
MSL-5-300-3
100
AcDbLine
 10
1445.922694
 20
863.272823
 30
0.0
 11
1440.922694
 21
866.606156
 31
0.0
  0
LINE
  5
445
100
AcDbEntity
  8
MSL-5-300-3
100
AcDbLine
 10
1440.922694
 20
866.606156
 30
0.0
 11
1445.922694
 21
866.606156
 31
0.0
  0
LINE
  5
446
100
AcDbEntity
  8
MSL-5-300-7
100
AcDbLine
 10
1384.422693
 20
888.894897
 30
0.0
 11
1384.4227
 21
877.70217
 31
0.0
  0
LINE
  5
447
100
AcDbEntity
  8
MSL-5-300-0
100
AcDbLine
 10
1380.421354
 20
886.106149
 30
0.0
 11
1388.421354
 21
886.106155
 31
0.0
  0
LINE
  5
448
100
AcDbEntity
  8
MSL-5-300-0
100
AcDbLine
 10
1378.921358
 20
881.606156
 30
0.0
 11
1378.921355
 21
884.606148
 31
0.0
  0
ARC
  5
449
100
AcDbEntity
  8
MSL-5-300-0
100
AcDbCircle
 10
1380.421355
 20
884.606149
 30
0.0
 40
1.5
100
AcDbArc
 50
90.000041
 51
180.00004
  0
ARC
  5
44A
100
AcDbEntity
  8
MSL-5-300-0
100
AcDbCircle
 10
1388.421355
 20
884.606155
 30
0.0
 40
1.5
100
AcDbArc
 50
0.000038
 51
90.000041
  0
LINE
  5
44B
100
AcDbEntity
  8
MSL-5-300-0
100
AcDbLine
 10
1389.921355
 20
884.606156
 30
0.0
 11
1389.921358
 21
881.606156
 31
0.0
  0
LINE
  5
44C
100
AcDbEntity
  8
MSL-5-300-3
100
AcDbLine
 10
1420.922694
 20
881.606156
 30
0.0
 11
1420.922694
 21
864.606156
 31
0.0
  0
LINE
  5
44D
100
AcDbEntity
  8
MSL-5-300-3
100
AcDbLine
 10
1410.922694
 20
864.606156
 30
0.0
 11
1410.922694
 21
881.606156
 31
0.0
  0
LINE
  5
44E
100
AcDbEntity
  8
MSL-5-300-3
100
AcDbLine
 10
1440.922694
 20
881.606156
 30
0.0
 11
1440.922694
 21
866.606156
 31
0.0
  0
LINE
  5
44F
100
AcDbEntity
  8
MSL-5-300-3
100
AcDbLine
 10
1420.922694
 20
864.606156
 30
0.0
 11
1410.922694
 21
864.606156
 31
0.0
  0
LINE
  5
450
100
AcDbEntity
  8
MSL-5-300-3
100
AcDbLine
 10
1415.922694
 20
881.606156
 30
0.0
 11
1415.922694
 21
881.606156
 31
0.0
  0
LINE
  5
451
100
AcDbEntity
  8
MSL-5-300-3
100
AcDbLine
 10
1415.922694
 20
881.606156
 30
0.0
 11
1415.922694
 21
881.606156
 31
0.0
  0
LINE
  5
452
100
AcDbEntity
  8
MSL-5-300-7
100
AcDbLine
 10
1415.922694
 20
884.072823
 30
0.0
 11
1415.922694
 21
881.606156
 31
0.0
  0
LINE
  5
453
100
AcDbEntity
  8
MSL-5-300-3
100
AcDbLine
 10
1450.922694
 20
881.606156
 30
0.0
 11
1450.922694
 21
866.606156
 31
0.0
  0
LINE
  5
454
100
AcDbEntity
  8
MSL-5-300-3
100
AcDbLine
 10
1480.922694
 20
881.606156
 30
0.0
 11
1480.922694
 21
864.606156
 31
0.0
  0
LINE
  5
455
100
AcDbEntity
  8
MSL-5-300-3
100
AcDbLine
 10
1470.922694
 20
864.606156
 30
0.0
 11
1470.922694
 21
881.606156
 31
0.0
  0
LINE
  5
456
100
AcDbEntity
  8
MSL-5-300-3
100
AcDbLine
 10
1445.922694
 20
863.272823
 30
0.0
 11
1450.922694
 21
866.606156
 31
0.0
  0
LINE
  5
457
100
AcDbEntity
  8
MSL-5-300-3
100
AcDbLine
 10
1450.922694
 20
866.606156
 30
0.0
 11
1445.922694
 21
866.606156
 31
0.0
  0
LINE
  5
458
100
AcDbEntity
  8
MSL-5-300-3
100
AcDbLine
 10
1480.922694
 20
864.606156
 30
0.0
 11
1470.922694
 21
864.606156
 31
0.0
  0
LINE
  5
459
100
AcDbEntity
  8
MSL-5-300-3
100
AcDbLine
 10
1445.922694
 20
881.606156
 30
0.0
 11
1445.922694
 21
881.606156
 31
0.0
  0
LINE
  5
45A
100
AcDbEntity
  8
MSL-5-300-3
100
AcDbLine
 10
1445.922694
 20
881.606156
 30
0.0
 11
1445.922694
 21
881.606156
 31
0.0
  0
LINE
  5
45B
100
AcDbEntity
  8
MSL-5-300-7
100
AcDbLine
 10
1445.922694
 20
884.072823
 30
0.0
 11
1445.922694
 21
881.606156
 31
0.0
  0
LINE
  5
45C
100
AcDbEntity
  8
MSL-5-300-3
100
AcDbLine
 10
1475.922694
 20
881.606156
 30
0.0
 11
1475.922694
 21
881.606156
 31
0.0
  0
LINE
  5
45D
100
AcDbEntity
  8
MSL-5-300-3
100
AcDbLine
 10
1475.922694
 20
881.606156
 30
0.0
 11
1475.922694
 21
881.606156
 31
0.0
  0
LINE
  5
45E
100
AcDbEntity
  8
MSL-5-300-7
100
AcDbLine
 10
1475.922694
 20
884.072823
 30
0.0
 11
1475.922694
 21
881.606156
 31
0.0
  0
LINE
  5
45F
100
AcDbEntity
  8
MSL-5-300-3
100
AcDbLine
 10
1510.922694
 20
881.606156
 30
0.0
 11
1510.922694
 21
866.606156
 31
0.0
  0
LINE
  5
460
100
AcDbEntity
  8
MSL-5-300-3
100
AcDbLine
 10
1500.922694
 20
881.606156
 30
0.0
 11
1500.922694
 21
866.606156
 31
0.0
  0
LINE
  5
461
100
AcDbEntity
  8
MSL-5-300-3
100
AcDbLine
 10
1510.922694
 20
866.606156
 30
0.0
 11
1505.922694
 21
866.606156
 31
0.0
  0
LINE
  5
462
100
AcDbEntity
  8
MSL-5-300-3
100
AcDbLine
 10
1505.922694
 20
863.272823
 30
0.0
 11
1510.922694
 21
866.606156
 31
0.0
  0
LINE
  5
463
100
AcDbEntity
  8
MSL-5-300-3
100
AcDbLine
 10
1500.922694
 20
866.606156
 30
0.0
 11
1505.922694
 21
866.606156
 31
0.0
  0
LINE
  5
464
100
AcDbEntity
  8
MSL-5-300-3
100
AcDbLine
 10
1505.922694
 20
863.272823
 30
0.0
 11
1500.922694
 21
866.606156
 31
0.0
  0
LINE
  5
465
100
AcDbEntity
  8
MSL-5-300-7
100
AcDbLine
 10
1505.922694
 20
884.072823
 30
0.0
 11
1505.922694
 21
881.606156
 31
0.0
  0
LINE
  5
466
100
AcDbEntity
  8
MSL-5-300-3
100
AcDbLine
 10
1505.922694
 20
881.606156
 30
0.0
 11
1505.922694
 21
881.606156
 31
0.0
  0
LINE
  5
467
100
AcDbEntity
  8
MSL-5-300-3
100
AcDbLine
 10
1505.922694
 20
881.606156
 30
0.0
 11
1505.922694
 21
881.606156
 31
0.0
  0
LINE
  5
468
100
AcDbEntity
  8
MSL-5-300-3
100
AcDbLine
 10
1565.922694
 20
863.272823
 30
0.0
 11
1570.922694
 21
866.606156
 31
0.0
  0
LINE
  5
469
100
AcDbEntity
  8
MSL-5-300-3
100
AcDbLine
 10
1570.922694
 20
866.606156
 30
0.0
 11
1565.922694
 21
866.606156
 31
0.0
  0
LINE
  5
46A
100
AcDbEntity
  8
MSL-5-300-3
100
AcDbLine
 10
1560.922694
 20
881.606156
 30
0.0
 11
1560.922694
 21
866.606156
 31
0.0
  0
LINE
  5
46B
100
AcDbEntity
  8
MSL-5-300-3
100
AcDbLine
 10
1540.922694
 20
881.606156
 30
0.0
 11
1540.922694
 21
864.606156
 31
0.0
  0
LINE
  5
46C
100
AcDbEntity
  8
MSL-5-300-3
100
AcDbLine
 10
1530.922694
 20
864.606156
 30
0.0
 11
1530.922694
 21
881.606156
 31
0.0
  0
LINE
  5
46D
100
AcDbEntity
  8
MSL-5-300-3
100
AcDbLine
 10
1540.922694
 20
864.606156
 30
0.0
 11
1530.922694
 21
864.606156
 31
0.0
  0
LINE
  5
46E
100
AcDbEntity
  8
MSL-5-300-3
100
AcDbLine
 10
1565.922694
 20
863.272823
 30
0.0
 11
1560.922694
 21
866.606156
 31
0.0
  0
LINE
  5
46F
100
AcDbEntity
  8
MSL-5-300-3
100
AcDbLine
 10
1560.922694
 20
866.606156
 30
0.0
 11
1565.922694
 21
866.606156
 31
0.0
  0
LINE
  5
470
100
AcDbEntity
  8
MSL-5-300-7
100
AcDbLine
 10
1535.922694
 20
884.072823
 30
0.0
 11
1535.922694
 21
881.606156
 31
0.0
  0
LINE
  5
471
100
AcDbEntity
  8
MSL-5-300-3
100
AcDbLine
 10
1535.922694
 20
881.606156
 30
0.0
 11
1535.922694
 21
881.606156
 31
0.0
  0
LINE
  5
472
100
AcDbEntity
  8
MSL-5-300-3
100
AcDbLine
 10
1535.922694
 20
881.606156
 30
0.0
 11
1535.922694
 21
881.606156
 31
0.0
  0
LINE
  5
473
100
AcDbEntity
  8
MSL-5-300-3
100
AcDbLine
 10
1565.922694
 20
881.606156
 30
0.0
 11
1565.922694
 21
881.606156
 31
0.0
  0
LINE
  5
474
100
AcDbEntity
  8
MSL-5-300-3
100
AcDbLine
 10
1565.922694
 20
881.606156
 30
0.0
 11
1565.922694
 21
881.606156
 31
0.0
  0
LINE
  5
475
100
AcDbEntity
  8
MSL-5-300-7
100
AcDbLine
 10
1565.922694
 20
884.072823
 30
0.0
 11
1565.922694
 21
881.606156
 31
0.0
  0
LINE
  5
476
100
AcDbEntity
  8
MSL-5-300-3
100
AcDbLine
 10
1570.922694
 20
881.606156
 30
0.0
 11
1570.922694
 21
866.606156
 31
0.0
  0
LINE
  5
477
100
AcDbEntity
  8
MSL-5-300-3
100
AcDbLine
 10
1590.922694
 20
864.606156
 30
0.0
 11
1590.922694
 21
881.606156
 31
0.0
  0
LINE
  5
478
100
AcDbEntity
  8
MSL-5-300-3
100
AcDbLine
 10
1600.922694
 20
881.606156
 30
0.0
 11
1600.922694
 21
864.606156
 31
0.0
  0
LINE
  5
479
100
AcDbEntity
  8
MSL-5-300-3
100
AcDbLine
 10
1600.922694
 20
864.606156
 30
0.0
 11
1590.922694
 21
864.606156
 31
0.0
  0
LINE
  5
47A
100
AcDbEntity
  8
MSL-5-300-3
100
AcDbLine
 10
1595.922694
 20
881.606156
 30
0.0
 11
1595.922694
 21
881.606156
 31
0.0
  0
LINE
  5
47B
100
AcDbEntity
  8
MSL-5-300-3
100
AcDbLine
 10
1595.922694
 20
881.606156
 30
0.0
 11
1595.922694
 21
881.606156
 31
0.0
  0
LINE
  5
47C
100
AcDbEntity
  8
MSL-5-300-7
100
AcDbLine
 10
1595.922694
 20
884.072823
 30
0.0
 11
1595.922694
 21
881.606156
 31
0.0
  0
LINE
  5
47D
100
AcDbEntity
  8
MSL-5-300-3
100
AcDbLine
 10
1620.922694
 20
881.606156
 30
0.0
 11
1620.922694
 21
866.606156
 31
0.0
  0
LINE
  5
47E
100
AcDbEntity
  8
MSL-5-300-3
100
AcDbLine
 10
1630.922694
 20
881.606156
 30
0.0
 11
1630.922694
 21
866.606156
 31
0.0
  0
LINE
  5
47F
100
AcDbEntity
  8
MSL-5-300-3
100
AcDbLine
 10
1630.922694
 20
866.606156
 30
0.0
 11
1625.922694
 21
866.606156
 31
0.0
  0
LINE
  5
480
100
AcDbEntity
  8
MSL-5-300-3
100
AcDbLine
 10
1625.922694
 20
863.272823
 30
0.0
 11
1630.922694
 21
866.606156
 31
0.0
  0
LINE
  5
481
100
AcDbEntity
  8
MSL-5-300-3
100
AcDbLine
 10
1620.922694
 20
866.606156
 30
0.0
 11
1625.922694
 21
866.606156
 31
0.0
  0
LINE
  5
482
100
AcDbEntity
  8
MSL-5-300-3
100
AcDbLine
 10
1625.922694
 20
863.272823
 30
0.0
 11
1620.922694
 21
866.606156
 31
0.0
  0
LINE
  5
483
100
AcDbEntity
  8
MSL-5-300-7
100
AcDbLine
 10
1625.922694
 20
884.072823
 30
0.0
 11
1625.922694
 21
881.606156
 31
0.0
  0
LINE
  5
484
100
AcDbEntity
  8
MSL-5-300-3
100
AcDbLine
 10
1625.922694
 20
881.606156
 30
0.0
 11
1625.922694
 21
881.606156
 31
0.0
  0
LINE
  5
485
100
AcDbEntity
  8
MSL-5-300-3
100
AcDbLine
 10
1625.922694
 20
881.606156
 30
0.0
 11
1625.922694
 21
881.606156
 31
0.0
  0
LINE
  5
486
100
AcDbEntity
  8
MSL-5-300-3
100
AcDbLine
 10
1660.922694
 20
881.606156
 30
0.0
 11
1660.922694
 21
864.606156
 31
0.0
  0
LINE
  5
487
100
AcDbEntity
  8
MSL-5-300-3
100
AcDbLine
 10
1650.922694
 20
864.606156
 30
0.0
 11
1650.922694
 21
881.606156
 31
0.0
  0
LINE
  5
488
100
AcDbEntity
  8
MSL-5-300-3
100
AcDbLine
 10
1660.922694
 20
864.606156
 30
0.0
 11
1650.922694
 21
864.606156
 31
0.0
  0
LINE
  5
489
100
AcDbEntity
  8
MSL-5-300-7
100
AcDbLine
 10
1655.922694
 20
884.072823
 30
0.0
 11
1655.922694
 21
881.606156
 31
0.0
  0
LINE
  5
48A
100
AcDbEntity
  8
MSL-5-300-3
100
AcDbLine
 10
1655.922694
 20
881.606156
 30
0.0
 11
1655.922694
 21
881.606156
 31
0.0
  0
LINE
  5
48B
100
AcDbEntity
  8
MSL-5-300-3
100
AcDbLine
 10
1655.922694
 20
881.606156
 30
0.0
 11
1655.922694
 21
881.606156
 31
0.0
  0
LINE
  5
48C
100
AcDbEntity
  8
MSL-5-300-0
100
AcDbLine
 10
2050.922694
 20
452.762177
 30
0.0
 11
1727.922694
 21
452.762177
 31
0.0
  0
LINE
  5
48D
100
AcDbEntity
  8
MSL-5-300-0
100
AcDbLine
 10
1727.922694
 20
609.911267
 30
0.0
 11
2050.922694
 21
609.911267
 31
0.0
  0
LINE
  5
48E
100
AcDbEntity
  8
MSL-5-300-0
100
AcDbLine
 10
2050.922694
 20
584.911267
 30
0.0
 11
1727.922694
 21
584.911267
 31
0.0
  0
LINE
  5
48F
100
AcDbEntity
  8
MSL-5-300-7
100
AcDbLine
 10
1717.318701
 20
597.411267
 30
0.0
 11
2079.256748
 21
597.411267
 31
0.0
  0
LINE
  5
490
100
AcDbEntity
  8
MSL-5-300-0
100
AcDbLine
 10
1727.922694
 20
670.411267
 30
0.0
 11
1727.922694
 21
559.411267
 31
0.0
  0
ARC
  5
491
100
AcDbEntity
  8
MSL-5-300-0
100
AcDbCircle
 10
1727.814013
 20
447.623392
 30
0.0
 40
3.108681
100
AcDbArc
 50
307.878144
 51
52.121856
  0
LINE
  5
492
100
AcDbEntity
  8
MSL-5-300-0
100
AcDbLine
 10
1729.741765
 20
450.062177
 30
0.0
 11
1727.922694
 21
450.062177
 31
0.0
  0
LINE
  5
493
100
AcDbEntity
  8
MSL-5-300-0
100
AcDbLine
 10
1729.722694
 20
445.169654
 30
0.0
 11
1727.922694
 21
445.169654
 31
0.0
  0
LINE
  5
494
100
AcDbEntity
  8
MSL-5-300-0
100
AcDbLine
 10
1730.922694
 20
642.050052
 30
0.0
 11
1730.922694
 21
656.772483
 31
0.0
  0
ARC
  5
495
100
AcDbEntity
  8
MSL-5-300-0
100
AcDbCircle
 10
1720.287972
 20
649.411267
 30
0.0
 40
10.634722
100
AcDbArc
 50
332.518773
 51
27.481227
  0
LINE
  5
496
100
AcDbEntity
  8
MSL-5-300-0
100
AcDbLine
 10
1727.922694
 20
610.911267
 30
0.0
 11
1745.922694
 21
610.911267
 31
0.0
  0
LINE
  5
497
100
AcDbEntity
  8
MSL-5-300-0
100
AcDbLine
 10
1745.922694
 20
583.911267
 30
0.0
 11
1727.922694
 21
583.911267
 31
0.0
  0
LINE
  5
498
100
AcDbEntity
  8
MSL-5-300-0
100
AcDbLine
 10
1746.922694
 20
584.911267
 30
0.0
 11
1745.922694
 21
583.911267
 31
0.0
  0
LINE
  5
499
100
AcDbEntity
  8
MSL-5-300-0
100
AcDbLine
 10
1745.922694
 20
584.911267
 30
0.0
 11
1745.922694
 21
583.911267
 31
0.0
  0
LINE
  5
49A
100
AcDbEntity
  8
MSL-5-300-0
100
AcDbLine
 10
1745.922694
 20
610.911267
 30
0.0
 11
1745.922694
 21
609.911267
 31
0.0
  0
LINE
  5
49B
100
AcDbEntity
  8
MSL-5-300-0
100
AcDbLine
 10
1745.922694
 20
610.911267
 30
0.0
 11
1746.922694
 21
609.911267
 31
0.0
  0
ARC
  5
49C
100
AcDbEntity
  8
MSL-5-300-0
100
AcDbCircle
 10
1727.814013
 20
642.050052
 30
0.0
 40
3.108681
100
AcDbArc
 50
307.878144
 51
52.121856
  0
LINE
  5
49D
100
AcDbEntity
  8
MSL-5-300-7
100
AcDbLine
 10
1721.235133
 20
649.411267
 30
0.0
 11
1735.357
 21
649.411267
 31
0.0
  0
LINE
  5
49E
100
AcDbEntity
  8
MSL-5-300-0
100
AcDbLine
 10
1729.741765
 20
639.611267
 30
0.0
 11
1727.922694
 21
639.611267
 31
0.0
  0
LINE
  5
49F
100
AcDbEntity
  8
MSL-5-300-0
100
AcDbLine
 10
1729.722694
 20
644.50379
 30
0.0
 11
1727.922694
 21
644.50379
 31
0.0
  0
ARC
  5
4A0
100
AcDbEntity
  8
MSL-5-300-0
100
AcDbCircle
 10
1727.814013
 20
656.772483
 30
0.0
 40
3.108681
100
AcDbArc
 50
307.878144
 51
52.121856
  0
LINE
  5
4A1
100
AcDbEntity
  8
MSL-5-300-0
100
AcDbLine
 10
1729.722694
 20
654.318745
 30
0.0
 11
1727.922694
 21
654.318745
 31
0.0
  0
LINE
  5
4A2
100
AcDbEntity
  8
MSL-5-300-0
100
AcDbLine
 10
1727.922694
 20
659.211267
 30
0.0
 11
1729.741765
 21
659.211267
 31
0.0
  0
LINE
  5
4A3
100
AcDbEntity
  8
MSL-5-300-0
100
AcDbLine
 10
1689.422694
 20
672.411267
 30
0.0
 11
1689.422694
 21
670.411267
 31
0.0
  0
LINE
  5
4A4
100
AcDbEntity
  8
MSL-5-300-3
100
AcDbLine
 10
2058.922694
 20
583.82921
 30
0.0
 11
2054.734694
 21
581.411267
 31
0.0
  0
LINE
  5
4A5
100
AcDbEntity
  8
MSL-5-300-3
100
AcDbLine
 10
2058.922694
 20
583.82921
 30
0.0
 11
2054.734694
 21
581.411267
 31
0.0
  0
LINE
  5
4A6
100
AcDbEntity
  8
MSL-5-300-3
100
AcDbLine
 10
2058.922694
 20
583.82921
 30
0.0
 11
2063.110694
 21
581.411267
 31
0.0
  0
LINE
  5
4A7
100
AcDbEntity
  8
MSL-5-300-3
100
AcDbLine
 10
2058.922694
 20
583.82921
 30
0.0
 11
2063.110694
 21
581.411267
 31
0.0
  0
LINE
  5
4A8
100
AcDbEntity
  8
MSL-5-300-7
100
AcDbLine
 10
2058.922694
 20
586.82921
 30
0.0
 11
2058.922694
 21
555.411267
 31
0.0
  0
LINE
  5
4A9
100
AcDbEntity
  8
MSL-5-300-7
100
AcDbLine
 10
2058.922694
 20
586.82921
 30
0.0
 11
2058.922694
 21
555.411267
 31
0.0
  0
LINE
  5
4AA
100
AcDbEntity
  8
MSL-5-300-0
100
AcDbLine
 10
2050.922694
 20
658.411267
 30
0.0
 11
2050.922694
 21
558.411267
 31
0.0
  0
LINE
  5
4AB
100
AcDbEntity
  8
MSL-5-300-0
100
AcDbLine
 10
2075.922694
 20
658.411267
 30
0.0
 11
2075.922694
 21
558.411267
 31
0.0
  0
LINE
  5
4AC
100
AcDbEntity
  8
MSL-5-300-0
100
AcDbLine
 10
2050.922694
 20
463.262177
 30
0.0
 11
2075.922694
 21
463.262177
 31
0.0
  0
LINE
  5
4AD
100
AcDbEntity
  8
MSL-5-300-0
100
AcDbLine
 10
2034.922694
 20
447.76773
 30
0.0
 11
2031.740194
 21
447.76773
 31
0.0
  0
LINE
  5
4AE
100
AcDbEntity
  8
MSL-5-300-0
100
AcDbLine
 10
2047.897694
 20
447.76773
 30
0.0
 11
2049.947694
 21
447.76773
 31
0.0
  0
LINE
  5
4AF
100
AcDbEntity
  8
MSL-5-300-3
100
AcDbLine
 10
2072.922694
 20
463.262248
 30
0.0
 11
2072.922694
 21
446.262248
 31
0.0
  0
LINE
  5
4B0
100
AcDbEntity
  8
MSL-5-300-3
100
AcDbLine
 10
2062.922694
 20
463.262248
 30
0.0
 11
2062.922694
 21
446.262248
 31
0.0
  0
LINE
  5
4B1
100
AcDbEntity
  8
MSL-5-300-3
100
AcDbLine
 10
2062.922694
 20
446.262248
 30
0.0
 11
2072.922694
 21
446.262248
 31
0.0
  0
LINE
  5
4B2
100
AcDbEntity
  8
MSL-5-300-3
100
AcDbLine
 10
2050.922694
 20
576.411267
 30
0.0
 11
2057.922694
 21
576.411267
 31
0.0
  0
LINE
  5
4B3
100
AcDbEntity
  8
MSL-5-300-3
100
AcDbLine
 10
2050.922694
 20
572.411267
 30
0.0
 11
2075.922694
 21
572.411267
 31
0.0
  0
LINE
  5
4B4
100
AcDbEntity
  8
MSL-5-300-3
100
AcDbLine
 10
2050.922694
 20
562.411267
 30
0.0
 11
2075.922694
 21
562.411267
 31
0.0
  0
LINE
  5
4B5
100
AcDbEntity
  8
MSL-5-300-7
100
AcDbLine
 10
2077.922694
 20
567.411267
 30
0.0
 11
2048.922694
 21
567.411267
 31
0.0
  0
LINE
  5
4B6
100
AcDbEntity
  8
MSL-5-300-0
100
AcDbLine
 10
2075.922694
 20
558.411267
 30
0.0
 11
2050.922694
 21
558.411267
 31
0.0
  0
LINE
  5
4B7
100
AcDbEntity
  8
MSL-5-300-3
100
AcDbLine
 10
2053.922694
 20
575.411267
 30
0.0
 11
2063.922694
 21
575.411267
 31
0.0
  0
LINE
  5
4B8
100
AcDbEntity
  8
MSL-5-300-3
100
AcDbLine
 10
2053.922694
 20
575.411267
 30
0.0
 11
2063.922694
 21
575.411267
 31
0.0
  0
LINE
  5
4B9
100
AcDbEntity
  8
MSL-5-300-3
100
AcDbLine
 10
2054.734694
 20
581.411267
 30
0.0
 11
2063.110694
 21
581.411267
 31
0.0
  0
LINE
  5
4BA
100
AcDbEntity
  8
MSL-5-300-3
100
AcDbLine
 10
2054.734694
 20
581.411267
 30
0.0
 11
2063.110694
 21
581.411267
 31
0.0
  0
LINE
  5
4BB
100
AcDbEntity
  8
MSL-5-300-3
100
AcDbLine
 10
2054.734694
 20
558.411267
 30
0.0
 11
2054.734694
 21
581.411267
 31
0.0
  0
LINE
  5
4BC
100
AcDbEntity
  8
MSL-5-300-3
100
AcDbLine
 10
2054.734694
 20
558.411267
 30
0.0
 11
2054.734694
 21
581.411267
 31
0.0
  0
LINE
  5
4BD
100
AcDbEntity
  8
MSL-5-300-3
100
AcDbLine
 10
2053.922694
 20
558.411267
 30
0.0
 11
2053.922694
 21
575.411267
 31
0.0
  0
LINE
  5
4BE
100
AcDbEntity
  8
MSL-5-300-3
100
AcDbLine
 10
2053.922694
 20
558.411267
 30
0.0
 11
2053.922694
 21
575.411267
 31
0.0
  0
ARC
  5
4BF
100
AcDbEntity
  8
MSL-5-300-4
100
AcDbCircle
 10
2067.922694
 20
567.411267
 30
0.0
 40
5.0
100
AcDbArc
 50
280.0
 51
210.0
  0
CIRCLE
  5
4C0
100
AcDbEntity
  8
MSL-5-300-0
100
AcDbCircle
 10
2067.922694
 20
567.411267
 30
0.0
 40
4.188
  0
LINE
  5
4C1
100
AcDbEntity
  8
MSL-5-300-3
100
AcDbLine
 10
2063.110694
 20
558.411267
 30
0.0
 11
2063.110694
 21
581.411267
 31
0.0
  0
LINE
  5
4C2
100
AcDbEntity
  8
MSL-5-300-3
100
AcDbLine
 10
2063.110694
 20
558.411267
 30
0.0
 11
2063.110694
 21
581.411267
 31
0.0
  0
LINE
  5
4C3
100
AcDbEntity
  8
MSL-5-300-3
100
AcDbLine
 10
2063.922694
 20
558.411267
 30
0.0
 11
2063.922694
 21
575.411267
 31
0.0
  0
LINE
  5
4C4
100
AcDbEntity
  8
MSL-5-300-3
100
AcDbLine
 10
2063.922694
 20
558.411267
 30
0.0
 11
2063.922694
 21
575.411267
 31
0.0
  0
LINE
  5
4C5
100
AcDbEntity
  8
MSL-5-300-7
100
AcDbLine
 10
2067.922694
 20
559.411267
 30
0.0
 11
2067.922694
 21
575.411267
 31
0.0
  0
LINE
  5
4C6
100
AcDbEntity
  8
MSL-5-300-3
100
AcDbLine
 10
2057.922694
 20
576.411267
 30
0.0
 11
2057.922694
 21
558.411267
 31
0.0
  0
LINE
  5
4C7
100
AcDbEntity
  8
MSL-5-300-3
100
AcDbLine
 10
2057.922694
 20
561.911267
 30
0.0
 11
2075.922694
 21
561.911267
 31
0.0
  0
LINE
  5
4C8
100
AcDbEntity
  8
MSL-5-300-7
100
AcDbLine
 10
2059.922694
 20
567.411267
 30
0.0
 11
2075.922694
 21
567.411267
 31
0.0
  0
LINE
  5
4C9
100
AcDbEntity
  8
MSL-5-300-3
100
AcDbLine
 10
2057.922694
 20
572.911267
 30
0.0
 11
2075.922694
 21
572.911267
 31
0.0
  0
ARC
  5
4CA
100
AcDbEntity
  8
MSL-5-300-0
100
AcDbCircle
 10
2039.945104
 20
649.411267
 30
0.0
 40
9.02241
100
AcDbArc
 50
155.421502
 51
204.578498
  0
LINE
  5
4CB
100
AcDbEntity
  8
MSL-5-300-0
100
AcDbLine
 10
2030.922694
 20
655.040433
 30
0.0
 11
2030.922694
 21
643.782102
 31
0.0
  0
LINE
  5
4CC
100
AcDbEntity
  8
MSL-5-300-0
100
AcDbLine
 10
2034.922694
 20
656.916821
 30
0.0
 11
2034.922694
 21
641.905714
 31
0.0
  0
LINE
  5
4CD
100
AcDbEntity
  8
MSL-5-300-0
100
AcDbLine
 10
2046.922694
 20
643.782102
 30
0.0
 11
2046.922694
 21
655.040433
 31
0.0
  0
ARC
  5
4CE
100
AcDbEntity
  8
MSL-5-300-0
100
AcDbCircle
 10
2054.632416
 20
649.411267
 30
0.0
 40
7.709722
100
AcDbArc
 50
150.872216
 51
209.127784
  0
ARC
  5
4CF
100
AcDbEntity
  8
MSL-5-300-0
100
AcDbCircle
 10
2043.212972
 20
649.411267
 30
0.0
 40
7.709722
100
AcDbArc
 50
330.872218
 51
29.127782
  0
LINE
  5
4D0
100
AcDbEntity
  8
MSL-5-300-7
100
AcDbLine
 10
2067.922694
 20
619.411267
 30
0.0
 11
2067.922694
 21
635.411267
 31
0.0
  0
ARC
  5
4D1
100
AcDbEntity
  8
MSL-5-300-4
100
AcDbCircle
 10
2067.922694
 20
627.411267
 30
0.0
 40
5.0
100
AcDbArc
 50
280.0
 51
210.0
  0
CIRCLE
  5
4D2
100
AcDbEntity
  8
MSL-5-300-0
100
AcDbCircle
 10
2067.922694
 20
627.411267
 30
0.0
 40
4.188
  0
LINE
  5
4D3
100
AcDbEntity
  8
MSL-5-300-3
100
AcDbLine
 10
2050.922694
 20
592.411267
 30
0.0
 11
2075.922694
 21
592.411267
 31
0.0
  0
LINE
  5
4D4
100
AcDbEntity
  8
MSL-5-300-3
100
AcDbLine
 10
2050.922694
 20
602.411267
 30
0.0
 11
2075.922694
 21
602.411267
 31
0.0
  0
LINE
  5
4D5
100
AcDbEntity
  8
MSL-5-300-3
100
AcDbLine
 10
2050.922694
 20
636.411267
 30
0.0
 11
2057.922694
 21
636.411267
 31
0.0
  0
LINE
  5
4D6
100
AcDbEntity
  8
MSL-5-300-7
100
AcDbLine
 10
2028.523472
 20
649.411267
 30
0.0
 11
2077.041441
 21
649.411267
 31
0.0
  0
LINE
  5
4D7
100
AcDbEntity
  8
MSL-5-300-3
100
AcDbLine
 10
2050.922694
 20
632.411267
 30
0.0
 11
2075.922694
 21
632.411267
 31
0.0
  0
LINE
  5
4D8
100
AcDbEntity
  8
MSL-5-300-3
100
AcDbLine
 10
2057.922694
 20
618.411267
 30
0.0
 11
2050.922694
 21
618.411267
 31
0.0
  0
LINE
  5
4D9
100
AcDbEntity
  8
MSL-5-300-3
100
AcDbLine
 10
2050.922694
 20
622.411267
 30
0.0
 11
2075.922694
 21
622.411267
 31
0.0
  0
LINE
  5
4DA
100
AcDbEntity
  8
MSL-5-300-7
100
AcDbLine
 10
2077.922694
 20
627.411267
 30
0.0
 11
2048.922694
 21
627.411267
 31
0.0
  0
LINE
  5
4DB
100
AcDbEntity
  8
MSL-5-300-0
100
AcDbLine
 10
2034.922694
 20
641.905714
 30
0.0
 11
2031.740194
 21
641.905714
 31
0.0
  0
LINE
  5
4DC
100
AcDbEntity
  8
MSL-5-300-0
100
AcDbLine
 10
2031.740194
 20
645.658491
 30
0.0
 11
2034.922694
 21
645.658491
 31
0.0
  0
ARC
  5
4DD
100
AcDbEntity
  8
MSL-5-300-0
100
AcDbCircle
 10
2033.484859
 20
643.782102
 30
0.0
 40
2.562165
100
AcDbArc
 50
132.916662
 51
227.083338
  0
ARC
  5
4DE
100
AcDbEntity
  8
MSL-5-300-0
100
AcDbCircle
 10
2048.629638
 20
643.782102
 30
0.0
 40
2.293056
100
AcDbArc
 50
305.085848
 51
54.914152
  0
ARC
  5
4DF
100
AcDbEntity
  8
MSL-5-300-0
100
AcDbCircle
 10
2049.21575
 20
643.782102
 30
0.0
 40
2.293056
100
AcDbArc
 50
125.085847
 51
234.914153
  0
LINE
  5
4E0
100
AcDbEntity
  8
MSL-5-300-0
100
AcDbLine
 10
2047.897694
 20
641.905714
 30
0.0
 11
2049.947694
 21
641.905714
 31
0.0
  0
LINE
  5
4E1
100
AcDbEntity
  8
MSL-5-300-0
100
AcDbLine
 10
2047.897694
 20
645.658491
 30
0.0
 11
2049.947694
 21
645.658491
 31
0.0
  0
LINE
  5
4E2
100
AcDbEntity
  8
MSL-5-300-0
100
AcDbLine
 10
2046.922694
 20
645.411267
 30
0.0
 11
2034.922694
 21
645.411267
 31
0.0
  0
LINE
  5
4E3
100
AcDbEntity
  8
MSL-5-300-3
100
AcDbLine
 10
2057.922694
 20
636.411267
 30
0.0
 11
2057.922694
 21
618.411267
 31
0.0
  0
LINE
  5
4E4
100
AcDbEntity
  8
MSL-5-300-3
100
AcDbLine
 10
2057.922694
 20
632.911267
 30
0.0
 11
2075.922694
 21
632.911267
 31
0.0
  0
LINE
  5
4E5
100
AcDbEntity
  8
MSL-5-300-7
100
AcDbLine
 10
2059.922694
 20
627.411267
 30
0.0
 11
2075.922694
 21
627.411267
 31
0.0
  0
LINE
  5
4E6
100
AcDbEntity
  8
MSL-5-300-3
100
AcDbLine
 10
2057.922694
 20
621.911267
 30
0.0
 11
2075.922694
 21
621.911267
 31
0.0
  0
LINE
  5
4E7
100
AcDbEntity
  8
MSL-5-300-0
100
AcDbLine
 10
2050.922694
 20
658.411267
 30
0.0
 11
2075.922694
 21
658.411267
 31
0.0
  0
LINE
  5
4E8
100
AcDbEntity
  8
MSL-5-300-0
100
AcDbLine
 10
2031.740194
 20
656.916821
 30
0.0
 11
2034.922694
 21
656.916821
 31
0.0
  0
LINE
  5
4E9
100
AcDbEntity
  8
MSL-5-300-0
100
AcDbLine
 10
2031.740194
 20
653.164044
 30
0.0
 11
2034.922694
 21
653.164044
 31
0.0
  0
ARC
  5
4EA
100
AcDbEntity
  8
MSL-5-300-0
100
AcDbCircle
 10
2033.484859
 20
655.040433
 30
0.0
 40
2.562165
100
AcDbArc
 50
132.916662
 51
227.083338
  0
ARC
  5
4EB
100
AcDbEntity
  8
MSL-5-300-0
100
AcDbCircle
 10
2048.629638
 20
655.040433
 30
0.0
 40
2.293056
100
AcDbArc
 50
305.085848
 51
54.914152
  0
ARC
  5
4EC
100
AcDbEntity
  8
MSL-5-300-0
100
AcDbCircle
 10
2049.21575
 20
655.040433
 30
0.0
 40
2.293056
100
AcDbArc
 50
125.085847
 51
234.914153
  0
LINE
  5
4ED
100
AcDbEntity
  8
MSL-5-300-0
100
AcDbLine
 10
2047.897694
 20
656.916821
 30
0.0
 11
2049.947694
 21
656.916821
 31
0.0
  0
LINE
  5
4EE
100
AcDbEntity
  8
MSL-5-300-0
100
AcDbLine
 10
2047.897694
 20
653.164044
 30
0.0
 11
2049.947694
 21
653.164044
 31
0.0
  0
LINE
  5
4EF
100
AcDbEntity
  8
MSL-5-300-0
100
AcDbLine
 10
2034.922694
 20
653.411267
 30
0.0
 11
2046.922694
 21
653.411267
 31
0.0
  0
LINE
  5
4F0
100
AcDbEntity
  8
MSL-5-300-7
100
AcDbLine
 10
2057.435546
 20
858.606156
 30
0.0
 11
1717.484628
 21
858.606156
 31
0.0
  0
LINE
  5
4F1
100
AcDbEntity
  8
MSL-5-300-7
100
AcDbLine
 10
2057.435546
 20
754.606156
 30
0.0
 11
1717.484628
 21
754.606156
 31
0.0
  0
LINE
  5
4F2
100
AcDbEntity
  8
MSL-5-300-0
100
AcDbLine
 10
1727.922694
 20
767.106156
 30
0.0
 11
2050.922694
 21
767.106156
 31
0.0
  0
LINE
  5
4F3
100
AcDbEntity
  8
MSL-5-300-0
100
AcDbLine
 10
2050.922694
 20
742.106156
 30
0.0
 11
1727.922694
 21
742.106156
 31
0.0
  0
LINE
  5
4F4
100
AcDbEntity
  8
MSL-5-300-0
100
AcDbLine
 10
1746.922694
 20
812.606156
 30
0.0
 11
2050.922694
 21
812.606156
 31
0.0
  0
LINE
  5
4F5
100
AcDbEntity
  8
MSL-5-300-0
100
AcDbLine
 10
1727.922694
 20
846.106156
 30
0.0
 11
2050.922694
 21
846.106156
 31
0.0
  0
LINE
  5
4F6
100
AcDbEntity
  8
MSL-5-300-0
100
AcDbLine
 10
2050.922694
 20
800.606156
 30
0.0
 11
1746.922694
 21
800.606156
 31
0.0
  0
LINE
  5
4F7
100
AcDbEntity
  8
MSL-5-300-0
100
AcDbLine
 10
2050.922694
 20
871.106156
 30
0.0
 11
1727.922694
 21
871.106156
 31
0.0
  0
LINE
  5
4F8
100
AcDbEntity
  8
MSL-5-300-7
100
AcDbLine
 10
1717.484628
 20
806.606156
 30
0.0
 11
2079.256748
 21
806.606156
 31
0.0
  0
LINE
  5
4F9
100
AcDbEntity
  8
MSL-5-300-0
100
AcDbLine
 10
1727.922694
 20
731.606156
 30
0.0
 11
1727.922694
 21
881.606156
 31
0.0
  0
LINE
  5
4FA
100
AcDbEntity
  8
MSL-5-300-0
100
AcDbLine
 10
1773.722694
 20
842.998085
 30
0.0
 11
1761.222694
 21
842.998085
 31
0.0
  0
LINE
  5
4FB
100
AcDbEntity
  8
MSL-5-300-0
100
AcDbLine
 10
1727.922694
 20
820.106156
 30
0.0
 11
1745.922694
 21
820.106156
 31
0.0
  0
LINE
  5
4FC
100
AcDbEntity
  8
MSL-5-300-0
100
AcDbLine
 10
1745.922694
 20
793.106156
 30
0.0
 11
1727.922694
 21
793.106156
 31
0.0
  0
LINE
  5
4FD
100
AcDbEntity
  8
MSL-5-300-0
100
AcDbLine
 10
1745.922694
 20
820.106156
 30
0.0
 11
1745.922694
 21
793.106156
 31
0.0
  0
LINE
  5
4FE
100
AcDbEntity
  8
MSL-5-300-0
100
AcDbLine
 10
1746.922694
 20
819.106156
 30
0.0
 11
1746.922694
 21
794.106156
 31
0.0
  0
LINE
  5
4FF
100
AcDbEntity
  8
MSL-5-300-0
100
AcDbLine
 10
1746.922694
 20
794.106156
 30
0.0
 11
1745.922694
 21
793.106156
 31
0.0
  0
LINE
  5
500
100
AcDbEntity
  8
MSL-5-300-7
100
AcDbLine
 10
1746.922694
 20
800.606156
 30
0.0
 11
1746.922694
 21
800.606156
 31
0.0
  0
LINE
  5
501
100
AcDbEntity
  8
MSL-5-300-0
100
AcDbLine
 10
1745.922694
 20
820.106156
 30
0.0
 11
1746.922694
 21
819.106156
 31
0.0
  0
ARC
  5
502
100
AcDbEntity
  8
MSL-5-300-0
100
AcDbCircle
 10
1732.940699
 20
841.615775
 30
0.0
 40
5.060035
100
AcDbArc
 50
121.157255
 51
238.842745
  0
LINE
  5
503
100
AcDbEntity
  8
MSL-5-300-0
100
AcDbLine
 10
1761.222694
 20
842.998085
 30
0.0
 11
1761.222694
 21
846.106156
 31
0.0
  0
LINE
  5
504
100
AcDbEntity
  8
MSL-5-300-0
100
AcDbLine
 10
1736.422694
 20
846.106156
 30
0.0
 11
1736.422694
 21
842.998085
 31
0.0
  0
LINE
  5
505
100
AcDbEntity
  8
MSL-5-300-0
100
AcDbLine
 10
1735.922694
 20
841.615775
 30
0.0
 11
1735.922694
 21
846.106156
 31
0.0
  0
ARC
  5
506
100
AcDbEntity
  8
MSL-5-300-0
100
AcDbCircle
 10
1730.816444
 20
841.615775
 30
0.0
 40
5.10625
100
AcDbArc
 50
302.004628
 51
57.995372
  0
LINE
  5
507
100
AcDbEntity
  8
MSL-5-300-0
100
AcDbLine
 10
1733.522694
 20
837.285648
 30
0.0
 11
1730.322694
 21
837.285648
 31
0.0
  0
LINE
  5
508
100
AcDbEntity
  8
MSL-5-300-0
100
AcDbLine
 10
1736.422694
 20
842.998085
 30
0.0
 11
1735.856976
 21
842.432367
 31
0.0
  0
LINE
  5
509
100
AcDbEntity
  8
MSL-5-300-0
100
AcDbLine
 10
1730.322694
 20
845.945902
 30
0.0
 11
1733.522694
 21
845.945902
 31
0.0
  0
LINE
  5
50A
100
AcDbEntity
  8
MSL-5-300-0
100
AcDbLine
 10
1773.722694
 20
846.106156
 30
0.0
 11
1773.722694
 21
842.998085
 31
0.0
  0
LINE
  5
50B
100
AcDbEntity
  8
MSL-5-300-0
100
AcDbLine
 10
1774.722694
 20
843.998085
 30
0.0
 11
1773.722694
 21
842.998085
 31
0.0
  0
LINE
  5
50C
100
AcDbEntity
  8
MSL-5-300-0
100
AcDbLine
 10
1774.722694
 20
846.106156
 30
0.0
 11
1774.722694
 21
843.998085
 31
0.0
  0
ARC
  5
50D
100
AcDbEntity
  8
MSL-5-300-0
100
AcDbCircle
 10
1733.028944
 20
867.596537
 30
0.0
 40
5.10625
100
AcDbArc
 50
122.004627
 51
136.581799
  0
LINE
  5
50E
100
AcDbEntity
  8
MSL-5-300-0
100
AcDbLine
 10
1730.322694
 20
871.926664
 30
0.0
 11
1733.522694
 21
871.926664
 31
0.0
  0
ARC
  5
50F
100
AcDbEntity
  8
MSL-5-300-0
100
AcDbCircle
 10
1730.816444
 20
867.596537
 30
0.0
 40
5.10625
100
AcDbArc
 50
43.4182
 51
57.995372
  0
LINE
  5
510
100
AcDbEntity
  8
MSL-5-300-7
100
AcDbLine
 10
2058.922694
 20
846.606156
 30
0.0
 11
2058.922694
 21
862.606156
 31
0.0
  0
LINE
  5
511
100
AcDbEntity
  8
MSL-5-300-7
100
AcDbLine
 10
2067.922694
 20
853.188213
 30
0.0
 11
2067.922694
 21
884.606156
 31
0.0
  0
LINE
  5
512
100
AcDbEntity
  8
MSL-5-300-3
100
AcDbLine
 10
2072.110694
 20
881.606156
 30
0.0
 11
2072.110694
 21
858.606156
 31
0.0
  0
LINE
  5
513
100
AcDbEntity
  8
MSL-5-300-3
100
AcDbLine
 10
2063.734694
 20
881.606156
 30
0.0
 11
2063.734694
 21
858.606156
 31
0.0
  0
LINE
  5
514
100
AcDbEntity
  8
MSL-5-300-0
100
AcDbLine
 10
2050.922694
 20
731.606156
 30
0.0
 11
2050.922694
 21
881.606156
 31
0.0
  0
LINE
  5
515
100
AcDbEntity
  8
MSL-5-300-0
100
AcDbLine
 10
2075.922694
 20
881.606156
 30
0.0
 11
2075.922694
 21
731.606156
 31
0.0
  0
LINE
  5
516
100
AcDbEntity
  8
MSL-5-300-3
100
AcDbLine
 10
2067.922694
 20
757.024099
 30
0.0
 11
2063.734694
 21
754.606156
 31
0.0
  0
LINE
  5
517
100
AcDbEntity
  8
MSL-5-300-3
100
AcDbLine
 10
2067.922694
 20
757.024099
 30
0.0
 11
2072.110694
 21
754.606156
 31
0.0
  0
LINE
  5
518
100
AcDbEntity
  8
MSL-5-300-7
100
AcDbLine
 10
2058.922694
 20
750.606156
 30
0.0
 11
2058.922694
 21
766.606156
 31
0.0
  0
CIRCLE
  5
519
100
AcDbEntity
  8
MSL-5-300-0
100
AcDbCircle
 10
2058.922694
 20
758.606156
 30
0.0
 40
4.188
  0
ARC
  5
51A
100
AcDbEntity
  8
MSL-5-300-4
100
AcDbCircle
 10
2058.922694
 20
758.606156
 30
0.0
 40
5.0
100
AcDbArc
 50
280.0
 51
210.0
  0
LINE
  5
51B
100
AcDbEntity
  8
MSL-5-300-7
100
AcDbLine
 10
2067.922694
 20
760.024099
 30
0.0
 11
2067.922694
 21
728.606156
 31
0.0
  0
LINE
  5
51C
100
AcDbEntity
  8
MSL-5-300-0
100
AcDbLine
 10
2075.922694
 20
731.606156
 30
0.0
 11
2050.922694
 21
731.606156
 31
0.0
  0
LINE
  5
51D
100
AcDbEntity
  8
MSL-5-300-3
100
AcDbLine
 10
2072.922694
 20
731.606156
 30
0.0
 11
2072.922694
 21
748.606156
 31
0.0
  0
LINE
  5
51E
100
AcDbEntity
  8
MSL-5-300-3
100
AcDbLine
 10
2072.110694
 20
731.606156
 30
0.0
 11
2072.110694
 21
754.606156
 31
0.0
  0
LINE
  5
51F
100
AcDbEntity
  8
MSL-5-300-3
100
AcDbLine
 10
2062.922694
 20
731.606156
 30
0.0
 11
2062.922694
 21
748.606156
 31
0.0
  0
LINE
  5
520
100
AcDbEntity
  8
MSL-5-300-3
100
AcDbLine
 10
2063.734694
 20
731.606156
 30
0.0
 11
2063.734694
 21
754.606156
 31
0.0
  0
LINE
  5
521
100
AcDbEntity
  8
MSL-5-300-3
100
AcDbLine
 10
2072.110694
 20
754.606156
 30
0.0
 11
2063.734694
 21
754.606156
 31
0.0
  0
LINE
  5
522
100
AcDbEntity
  8
MSL-5-300-3
100
AcDbLine
 10
2062.922694
 20
748.606156
 30
0.0
 11
2072.922694
 21
748.606156
 31
0.0
  0
LINE
  5
523
100
AcDbEntity
  8
MSL-5-300-3
100
AcDbLine
 10
2050.922694
 20
785.606156
 30
0.0
 11
2057.922694
 21
785.606156
 31
0.0
  0
LINE
  5
524
100
AcDbEntity
  8
MSL-5-300-7
100
AcDbLine
 10
2077.922694
 20
776.606156
 30
0.0
 11
2048.922694
 21
776.606156
 31
0.0
  0
LINE
  5
525
100
AcDbEntity
  8
MSL-5-300-3
100
AcDbLine
 10
2057.922694
 20
767.606156
 30
0.0
 11
2050.922694
 21
767.606156
 31
0.0
  0
LINE
  5
526
100
AcDbEntity
  8
MSL-5-300-7
100
AcDbLine
 10
2050.922694
 20
758.606156
 30
0.0
 11
2066.922694
 21
758.606156
 31
0.0
  0
LINE
  5
527
100
AcDbEntity
  8
MSL-5-300-3
100
AcDbLine
 10
2057.922694
 20
785.606156
 30
0.0
 11
2057.922694
 21
767.606156
 31
0.0
  0
LINE
  5
528
100
AcDbEntity
  8
MSL-5-300-3
100
AcDbLine
 10
2057.922694
 20
771.106156
 30
0.0
 11
2075.922694
 21
771.106156
 31
0.0
  0
LINE
  5
529
100
AcDbEntity
  8
MSL-5-300-3
100
AcDbLine
 10
2057.922694
 20
782.106156
 30
0.0
 11
2075.922694
 21
782.106156
 31
0.0
  0
LINE
  5
52A
100
AcDbEntity
  8
MSL-5-300-7
100
AcDbLine
 10
2050.922694
 20
854.606156
 30
0.0
 11
2066.922694
 21
854.606156
 31
0.0
  0
ARC
  5
52B
100
AcDbEntity
  8
MSL-5-300-4
100
AcDbCircle
 10
2058.922694
 20
854.606156
 30
0.0
 40
5.0
100
AcDbArc
 50
280.0
 51
210.0
  0
CIRCLE
  5
52C
100
AcDbEntity
  8
MSL-5-300-0
100
AcDbCircle
 10
2058.922694
 20
854.606156
 30
0.0
 40
4.188
  0
LINE
  5
52D
100
AcDbEntity
  8
MSL-5-300-7
100
AcDbLine
 10
2077.922694
 20
836.606156
 30
0.0
 11
2048.922694
 21
836.606156
 31
0.0
  0
LINE
  5
52E
100
AcDbEntity
  8
MSL-5-300-3
100
AcDbLine
 10
2050.922694
 20
831.606156
 30
0.0
 11
2075.922694
 21
831.606156
 31
0.0
  0
LINE
  5
52F
100
AcDbEntity
  8
MSL-5-300-3
100
AcDbLine
 10
2050.922694
 20
841.606156
 30
0.0
 11
2075.922694
 21
841.606156
 31
0.0
  0
LINE
  5
530
100
AcDbEntity
  8
MSL-5-300-3
100
AcDbLine
 10
2067.922694
 20
856.188213
 30
0.0
 11
2063.734694
 21
858.606156
 31
0.0
  0
LINE
  5
531
100
AcDbEntity
  8
MSL-5-300-3
100
AcDbLine
 10
2072.110694
 20
858.606156
 30
0.0
 11
2063.734694
 21
858.606156
 31
0.0
  0
LINE
  5
532
100
AcDbEntity
  8
MSL-5-300-3
100
AcDbLine
 10
2067.922694
 20
856.188213
 30
0.0
 11
2072.110694
 21
858.606156
 31
0.0
  0
LINE
  5
533
100
AcDbEntity
  8
MSL-5-300-0
100
AcDbLine
 10
2050.922694
 20
881.606156
 30
0.0
 11
2075.922694
 21
881.606156
 31
0.0
  0
LINE
  5
534
100
AcDbEntity
  8
MSL-5-300-3
100
AcDbLine
 10
2072.922694
 20
881.606156
 30
0.0
 11
2072.922694
 21
864.606156
 31
0.0
  0
LINE
  5
535
100
AcDbEntity
  8
MSL-5-300-3
100
AcDbLine
 10
2062.922694
 20
881.606156
 30
0.0
 11
2062.922694
 21
864.606156
 31
0.0
  0
LINE
  5
536
100
AcDbEntity
  8
MSL-5-300-3
100
AcDbLine
 10
2062.922694
 20
864.606156
 30
0.0
 11
2072.922694
 21
864.606156
 31
0.0
  0
ENDSEC
  0
SECTION
  2
OBJECTS
  0
DICTIONARY
  5
1A
100
AcDbDictionary
  3
ACAD_GROUP
350
18
  3
ACAD_MLINESTYLE
350
19
  0
DICTIONARY
  5
18
102
{ACAD_REACTORS
330
1A
102
}
100
AcDbDictionary
  0
DICTIONARY
  5
19
102
{ACAD_REACTORS
330
1A
102
}
100
AcDbDictionary
  3
STANDARD
350
1C
  0
MLINESTYLE
  5
1C
102
{ACAD_REACTORS
330
19
102
}
100
AcDbMlineStyle
  2
STANDARD
 70
     0
  3

 62
     0
 51
90.0
 52
90.0
 71
     2
 49
0.5
 62
   256
  6
BYLAYER
 49
-0.5
 62
   256
  6
BYLAYER
  0
ENDSEC
  0
EOF
