  0
SECTION
  2
HEADER
  9
$ACADVER
  1
AC1009
  9
$INSBASE
 10
147.407184
 20
98.398158999999993
 30
0.0
  9
$EXTMIN
 10
149.71057400000001
 20
100.44451599999999
 30
0.0
  9
$EXTMAX
 10
333.71057400000001
 20
230.238418
 30
0.0
  9
$LIMMIN
 10
0.0
 20
0.0
  9
$LIMMAX
 10
420.0
 20
297.0
  9
$ORTHOMODE
 70
     1
  9
$REGENMODE
 70
     1
  9
$FILLMODE
 70
     1
  9
$QTEXTMODE
 70
     0
  9
$MIRRTEXT
 70
     1
  9
$DRAGMODE
 70
     2
  9
$LTSCALE
 40
1.0
  9
$OSMODE
 70
   549
  9
$ATTMODE
 70
     1
  9
$TEXTSIZE
 40
2.0
  9
$TRACEWID
 40
1.0
  9
$TEXTSTYLE
  7
STANDARD
  9
$CLAYER
  8
MSG_Z1_180-0
  9
$CELTYPE
  6
BYLAYER
  9
$CECOLOR
 62
   256
  9
$DIMSCALE
 40
1.0
  9
$DIMASZ
 40
2.5
  9
$DIMEXO
 40
1.0
  9
$DIMDLI
 40
10.0
  9
$DIMRND
 40
0.0
  9
$DIMDLE
 40
0.0
  9
$DIMEXE
 40
2.0
  9
$DIMTP
 40
0.1
  9
$DIMTM
 40
0.1
  9
$DIMTXT
 40
3.5
  9
$DIMCEN
 40
-2.0
  9
$DIMTSZ
 40
0.0
  9
$DIMTOL
 70
     0
  9
$DIMLIM
 70
     0
  9
$DIMTIH
 70
     0
  9
$DIMTOH
 70
     0
  9
$DIMSE1
 70
     0
  9
$DIMSE2
 70
     0
  9
$DIMTAD
 70
     1
  9
$DIMZIN
 70
     8
  9
$DIMBLK
  1

  9
$DIMASO
 70
     1
  9
$DIMSHO
 70
     1
  9
$DIMPOST
  1

  9
$DIMAPOST
  1

  9
$DIMALT
 70
     0
  9
$DIMALTD
 70
     2
  9
$DIMALTF
 40
25.399999999999999
  9
$DIMLFAC
 40
1.0
  9
$DIMTOFL
 70
     1
  9
$DIMTVP
 40
0.0
  9
$DIMTIX
 70
     0
  9
$DIMSOXD
 70
     0
  9
$DIMSAH
 70
     0
  9
$DIMBLK1
  1

  9
$DIMBLK2
  1

  9
$DIMSTYLE
  2
GEN-ISO
  9
$DIMCLRD
 70
     0
  9
$DIMCLRE
 70
     0
  9
$DIMCLRT
 70
     2
  9
$DIMTFAC
 40
1.0
  9
$DIMGAP
 40
1.5
  9
$LUNITS
 70
     2
  9
$LUPREC
 70
     2
  9
$SKETCHINC
 40
1.0
  9
$FILLETRAD
 40
0.0
  9
$AUNITS
 70
     0
  9
$AUPREC
 70
     0
  9
$MENU
  1
acad
  9
$ELEVATION
 40
0.0
  9
$PELEVATION
 40
0.0
  9
$THICKNESS
 40
0.0
  9
$LIMCHECK
 70
     0
  9
$BLIPMODE
 70
     0
  9
$CHAMFERA
 40
10.0
  9
$CHAMFERB
 40
10.0
  9
$SKPOLY
 70
     0
  9
$TDCREATE
 40
2450637.587199884
  9
$TDUPDATE
 40
2455245.5638885181
  9
$TDINDWG
 40
0.0445054977
  9
$TDUSRTIMER
 40
0.0445051389
  9
$USRTIMER
 70
     1
  9
$ANGBASE
 50
0.0
  9
$ANGDIR
 70
     0
  9
$PDMODE
 70
     0
  9
$PDSIZE
 40
0.0
  9
$PLINEWID
 40
0.0
  9
$COORDS
 70
     0
  9
$SPLFRAME
 70
     0
  9
$SPLINETYPE
 70
     6
  9
$SPLINESEGS
 70
     8
  9
$ATTDIA
 70
     1
  9
$ATTREQ
 70
     1
  9
$HANDLING
 70
-16383
  9
$HANDSEED
  5
1C74
  9
$SURFTAB1
 70
     6
  9
$SURFTAB2
 70
     6
  9
$SURFTYPE
 70
     6
  9
$SURFU
 70
     6
  9
$SURFV
 70
     6
  9
$UCSNAME
  2

  9
$UCSORG
 10
0.0
 20
0.0
 30
0.0
  9
$UCSXDIR
 10
1.0
 20
0.0
 30
0.0
  9
$UCSYDIR
 10
0.0
 20
1.0
 30
0.0
  9
$PUCSNAME
  2

  9
$PUCSORG
 10
0.0
 20
0.0
 30
0.0
  9
$PUCSXDIR
 10
1.0
 20
0.0
 30
0.0
  9
$PUCSYDIR
 10
0.0
 20
1.0
 30
0.0
  9
$USERI1
 70
     0
  9
$USERI2
 70
     0
  9
$USERI3
 70
     0
  9
$USERI4
 70
     0
  9
$USERI5
 70
     0
  9
$USERR1
 40
0.0
  9
$USERR2
 40
0.0
  9
$USERR3
 40
0.0
  9
$USERR4
 40
0.0
  9
$USERR5
 40
0.0
  9
$WORLDVIEW
 70
     1
  9
$SHADEDGE
 70
     3
  9
$SHADEDIF
 70
    70
  9
$TILEMODE
 70
     1
  9
$MAXACTVP
 70
    16
  9
$PLIMCHECK
 70
     0
  9
$PEXTMIN
 10
1.0000000000000000E+020
 20
1.0000000000000000E+020
 30
1.0000000000000000E+020
  9
$PEXTMAX
 10
-1.0000000000000000E+020
 20
-1.0000000000000000E+020
 30
-1.0000000000000000E+020
  9
$PLIMMIN
 10
0.0
 20
0.0
  9
$PLIMMAX
 10
420.0
 20
297.0
  9
$UNITMODE
 70
     0
  9
$VISRETAIN
 70
     0
  9
$PLINEGEN
 70
     0
  9
$PSLTSCALE
 70
     1
  0
ENDSEC
  0
SECTION
  2
TABLES
  0
TABLE
  2
VPORT
 70
    10
  0
VPORT
  2
*ACTIVE
 70
     0
 10
0.0
 20
0.0
 11
1.0
 21
1.0
 12
285.28953106098032
 22
165.34146699999999
 13
0.0
 23
0.0
 14
1.0
 24
1.0
 15
2.0
 25
2.0
 16
0.0
 26
0.0
 36
1.0
 17
0.0
 27
0.0
 37
0.0
 40
162.242378
 41
1.9986737400530501
 42
50.0
 43
0.0
 44
0.0
 50
0.0
 51
0.0
 71
     0
 72
   100
 73
     1
 74
     0
 75
     0
 76
     0
 77
     0
 78
     0
  0
ENDTAB
  0
TABLE
  2
LTYPE
 70
    18
  0
LTYPE
  2
CONTINUOUS
 70
     0
  3
Solid line
 72
    65
 73
     0
 40
0.0
  0
LTYPE
  2
GEN3
 70
     0
  3
-- -- -- -- -- -- -- -- -- -- -- -- -- -- --
 72
    65
 73
     2
 40
6.25
 49
5.0
 49
-1.25
  0
LTYPE
  2
GEN7A
 70
     0
  3
__ . __ . __
 72
    65
 73
     4
 40
7.5
 49
5.0
 49
-1.25
 49
0.0
 49
-1.25
  0
LTYPE
  2
ACISOWELD
 70
     0
  3
_ _ _ _ _
 72
    65
 73
     2
 40
2.0
 49
2.0
 49
-1.0
  0
LTYPE
  2
ACISOTGB
 70
     0
  3
__ . . __ . .
 72
    65
 73
     6
 40
9.0
 49
4.0
 49
-1.0
 49
1.0
 49
-1.0
 49
1.0
 49
-1.0
  0
LTYPE
  2
ACISOTGL
 70
     0
  3
_ _ _ _ _
 72
    65
 73
     2
 40
3.0
 49
2.0
 49
-1.0
  0
LTYPE
  2
AM_ISO02W050
 70
     0
  3
__ __ __ __ __ __ __ __ __ __ __ __ __ __ __
 72
    65
 73
     2
 40
7.5
 49
6.0
 49
-1.5
  0
LTYPE
  2
AM_ISO08W050
 70
     0
  3
____ . ____ . ____ . ____ . ____ . ____ . ____
 72
    65
 73
     4
 40
18.0
 49
12.0
 49
-1.5
 49
3.0
 49
-1.5
  0
LTYPE
  2
AM_ISO09W050
 70
     0
  3
_____ . . _____ . . _____ . . ____ .. ____
 72
    65
 73
     6
 40
22.5
 49
12.0
 49
-1.5
 49
3.0
 49
-1.5
 49
3.0
 49
-1.5
  0
LTYPE
  2
AMCONSTR
 70
     0
  3
_______________________
 72
    65
 73
     2
 40
9999.0
 49
9999.0
 49
0.0
  0
LTYPE
  2
AM_ISO02W050X2
 70
     0
  3
 _ _ _ _ _ _ _ _ _ _ _ _
 72
    65
 73
     2
 40
3.75
 49
3.0
 49
-0.75
  0
LTYPE
  2
AM_ISO08W050X2
 70
     0
  3
__ . __ . __ . __ . __ . __
 72
    65
 73
     4
 40
9.0
 49
6.0
 49
-0.75
 49
1.5
 49
-0.75
  0
LTYPE
  2
AMZIGZAG
 70
     0
  3
/\/-/\/-/\/-/\/-/\/-/\/
 72
    65
 73
     2
 40
11.000099999999991
 49
0.0001
 49
-11.0
  0
LTYPE
  2
CENTER
 70
     0
  3
__ . __
 72
    65
 73
     4
 40
7.0
 49
4.0
 49
-1.0
 49
1.0
 49
-1.0
  0
LTYPE
  2
GEN7
 70
     0
  3
____ . ____ . ____ . ____ . ____ . ____ . ____
 72
    65
 73
     4
 40
13.75
 49
9.75
 49
-1.5
 49
1.0
 49
-1.5
  0
LTYPE
  2
GEN3A
 70
     0
  3
 - - - - -
 72
    65
 73
     2
 40
3.125
 49
2.25
 49
-0.875
  0
LTYPE
  2
GEN4A
 70
     0
  3
_____ . . _____ . . _____ . . ____ .. ____
 72
    65
 73
     6
 40
16.25
 49
9.75
 49
-1.5
 49
1.0
 49
-1.5
 49
1.0
 49
-1.5
  0
LTYPE
  2
GENZIGZAG
 70
     0
  3
/\/-/\/-/\/-/\/-/\/-/\/
 72
    65
 73
     2
 40
12.0001
 49
0.0001
 49
-12.0
  0
ENDTAB
  0
TABLE
  2
LAYER
 70
    15
  0
LAYER
  2
0
 70
     0
 62
     7
  6
CONTINUOUS
  0
LAYER
  2
INFO
 70
     0
 62
     4
  6
CONTINUOUS
  0
LAYER
  2
MSG_Z1_180-3
 70
     0
 62
     6
  6
GEN3
  0
LAYER
  2
MSG_Z1_180-4
 70
     0
 62
     3
  6
CONTINUOUS
  0
LAYER
  2
MSG_Z1_180-7
 70
     0
 62
     4
  6
GEN7A
  0
LAYER
  2
MSG_Z1_180-0
 70
     0
 62
     7
  6
CONTINUOUS
  0
LAYER
  2
MSG_Z1_180-7A
 70
     0
 62
     4
  6
GEN7A
  0
LAYER
  2
GEV_FROZEN
 70
     1
 62
     7
  6
CONTINUOUS
  0
LAYER
  2
CENN
 70
     0
 62
     7
  6
CONTINUOUS
  0
LAYER
  2
BHMM
 70
     0
 62
     7
  6
CONTINUOUS
  0
LAYER
  2
-BHMU
 70
     0
 62
     7
  6
CONTINUOUS
  0
LAYER
  2
MSG_Z1_180-0N
 70
     0
 62
     7
  6
CONTINUOUS
  0
LAYER
  2
MSG_Z1_180-6
 70
     0
 62
     2
  6
CONTINUOUS
  0
LAYER
  2
DEFPOINTS
 70
     0
 62
     7
  6
CONTINUOUS
  0
LAYER
  2
AM_BOR
 70
     0
 62
     7
  6
CONTINUOUS
  0
ENDTAB
  0
TABLE
  2
STYLE
 70
     5
  0
STYLE
  2
STANDARD
 70
     0
 40
0.0
 41
1.0
 50
0.0
 71
     0
 42
2.0
  3
ISOCP.SHX
  4

  0
STYLE
  2
ACISOTS
 70
     0
 40
1.0
 41
1.0
 50
0.0
 71
     0
 42
2.5
  3
isocp.shx
  4

  0
STYLE
  2
ACISOGDT
 70
     0
 40
0.0
 41
1.0
 50
0.0
 71
     0
 42
2.5
  3
amgdt.shx
  4

  0
STYLE
  2

 70
     1
 40
0.0
 41
1.0
 50
0.0
 71
     0
 42
2.5
  3
ltypeshp.shx
  4

  0
STYLE
  2

 70
     1
 40
0.0
 41
1.0
 50
0.0
 71
     0
 42
2.0
  3
genltshp.shx
  4

  0
ENDTAB
  0
TABLE
  2
VIEW
 70
     0
  0
ENDTAB
  0
TABLE
  2
UCS
 70
     0
  0
ENDTAB
  0
TABLE
  2
APPID
 70
    80
  0
APPID
  2
ACAD
 70
     0
  0
APPID
  2
GENIUS_GENOENT_13
 70
     0
  0
APPID
  2
GENIUS_GENCFG_13
 70
     0
  0
APPID
  2
GENIUS_GEFCFG0_13
 70
     0
  0
APPID
  2
GENIUS_GENCFG0_13
 70
     0
  0
APPID
  2
GENIUS_GENCFG1_13
 70
     0
  0
APPID
  2
GENIUS_GENCFG2_13
 70
     0
  0
APPID
  2
GENIUS_GENCFG3_13
 70
     0
  0
APPID
  2
GENIUS_GENCFG4_13
 70
     0
  0
APPID
  2
GENIUS_GEVCFG0_13
 70
     0
  0
APPID
  2
GENIUS_GENODEF_13
 70
     0
  0
APPID
  2
GENIUS_GENOBJ-N-CEN_13
 70
     0
  0
APPID
  2
GENIUS_GENOBJ_13
 70
     0
  0
APPID
  2
GENIUS_GENOLIS_13
 70
     0
  0
APPID
  2
GENIUS_GENOREF_13
 70
     0
  0
APPID
  2
GENIUS_GENOBJ-N-TIT_13
 70
     0
  0
APPID
  2
GENIUS_GENTITLE_13
 70
     0
  0
APPID
  2
GENIUS_GENZVEED_13
 70
     0
  0
APPID
  2
GENIUS_GENOBJ-N-SDF_13
 70
     0
  0
APPID
  2
GENIUS_GENSCREG_13
 70
     0
  0
APPID
  2
GENIUS_GENREC_13
 70
     0
  0
APPID
  2
GENIUS_GENOBJ-N-REC_13
 70
     0
  0
APPID
  2
GEV_VCCNULL_SWITCH_OFF
 70
     0
  0
APPID
  2
GEVID881915872
 70
     0
  0
APPID
  2
GEVDC
 70
     0
  0
APPID
  2
GEVRADREF
 70
     0
  0
APPID
  2
GEVPT
 70
     0
  0
APPID
  2
GEVIT
 70
     0
  0
APPID
  2
VCC
 70
     0
  0
APPID
  2
GENBH
 70
     0
  0
APPID
  2
GEVMK
 70
     0
  0
APPID
  2
GENIUS_GENBH_13
 70
     0
  0
APPID
  2
GENIUS_GENOBJ-NBEHI-BHF_13
 70
     0
  0
APPID
  2
GENIUS_GENOBJ-NBEHI-BHB_13
 70
     0
  0
APPID
  2
GENIUS_GENOBJ-F-PART_13
 70
     0
  0
APPID
  2
GENIUS_GEFSTDP_13
 70
     0
  0
APPID
  2
GENIUS_GEFPARTINS_13
 70
     0
  0
APPID
  2
GEVID881915873
 70
     0
  0
APPID
  2
GENIUS_GENOBJ-N-CRS_13
 70
     0
  0
APPID
  2
GEVID881915874
 70
     0
  0
APPID
  2
GEVID881915875
 70
     0
  0
APPID
  2
GEVID881915876
 70
     0
  0
APPID
  2
GENIUS_GENOBJ-N-HTC_13
 70
     0
  0
APPID
  2
GENIUS_GENHATCH_13
 70
     0
  0
APPID
  2
GEVID881915877
 70
     0
  0
APPID
  2
GEVID881915878
 70
     0
  0
APPID
  2
GENIUS_GENDTOL_13
 70
     0
  0
APPID
  2
GENIUS_GENDREL_13
 70
     0
  0
APPID
  2
GENIUS_GENOBJ-N-ZOO_13
 70
     0
  0
APPID
  2
GENIUS_GENZOO_13
 70
     0
  0
APPID
  2
GENIUS_GENOBJ-N-RSBK_13
 70
     0
  0
APPID
  2
GENIUS_GENSCALE_13
 70
     0
  0
APPID
  2
GENIUS_GENOBJ-F-TOLS_13
 70
     0
  0
APPID
  2
GENIUS_GENHINW_13
 70
     0
  0
APPID
  2
GENIUS_GEFTOLC_13
 70
     0
  0
APPID
  2
GENIUS_GENOBJ-F-TOL_13
 70
     0
  0
APPID
  2
GENIUS_GENOBJ-N-RSSYM_13
 70
     0
  0
APPID
  2
GENIUS_GENSYMENT_13
 70
     0
  0
APPID
  2
GENIUS_GENSCSYM_13
 70
     0
  0
APPID
  2
GENIUS_GENOBJ-F-SUF_13
 70
     0
  0
APPID
  2
GENIUS_GENOBJ-N-SEC_13
 70
     0
  0
APPID
  2
GENIUS_GENOBJ-F-SUL_13
 70
     0
  0
APPID
  2
GENIUS_GENOBJ-N-LEADER_13
 70
     0
  0
APPID
  2
GEVID886516991
 70
     0
  0
APPID
  2
GEVID886516992
 70
     0
  0
APPID
  2
GEVID886516993
 70
     0
  0
APPID
  2
GEVID886516994
 70
     0
  0
APPID
  2
GEVID886516995
 70
     0
  0
APPID
  2
GEVID886516996
 70
     0
  0
APPID
  2
GENIUS_GENINF13_13
 70
     0
  0
APPID
  2
GENIUS_GENOBJ-N-INFOPT_13
 70
     0
  0
APPID
  2
MCAD_NO_VIS
 70
     0
  0
APPID
  2
ACAD_TEMP_GRAPHIC
 70
     0
  0
APPID
  2
ACATTRIBSERVICES
 70
     0
  0
APPID
  2
GENIUS_GENSCREG_15
 70
     0
  0
APPID
  2
GENIUS_GENREC_14
 70
     0
  0
APPID
  2
GENIUS_GENBLLY_14
 70
     0
  0
APPID
  2
GENIUS_GENDIMSH_14
 70
     0
  0
APPID
  2
DCO15
 70
     0
  0
APPID
  2
CONTENTBLOCKICON
 70
     0
  0
ENDTAB
  0
TABLE
  2
DIMSTYLE
 70
    14
  0
DIMSTYLE
  2
GEN-ISO
 70
     0
  3

  4

  5

  6

  7

 40
1.0
 41
2.5
 42
1.0
 43
10.0
 44
2.0
 45
0.0
 46
0.0
 47
0.1
 48
0.1
140
3.5
141
-2.0
142
0.0
143
25.399999999999999
144
1.0
145
0.0
146
1.0
147
1.5
 71
     0
 72
     0
 73
     0
 74
     0
 75
     0
 76
     0
 77
     1
 78
     8
170
     0
171
     2
172
     1
173
     0
174
     0
175
     0
176
     0
177
     0
178
     2
  0
DIMSTYLE
  2
AM_ISO
 70
     0
  3

  4
"
  5

  6

  7

 40
1.0
 41
2.5
 42
1.0
 43
10.0
 44
1.0
 45
0.0
 46
0.0
 47
0.1
 48
0.1
140
3.5
141
0.0
142
0.0
143
0.0393701
144
1.0
145
0.0
146
0.71
147
1.5
 71
     0
 72
     0
 73
     0
 74
     0
 75
     0
 76
     0
 77
     1
 78
     8
170
     0
171
     2
172
     1
173
     0
174
     0
175
     0
176
   256
177
   256
178
     2
  0
DIMSTYLE
  2
AM_ISO$3
 70
     0
  3

  4
"
  5

  6

  7

 40
1.0
 41
2.5
 42
1.0
 43
10.0
 44
1.0
 45
0.0
 46
0.0
 47
0.1
 48
0.1
140
3.5
141
0.0
142
0.0
143
0.0393701
144
1.0
145
0.0
146
0.71
147
1.5
 71
     0
 72
     0
 73
     0
 74
     1
 75
     0
 76
     0
 77
     1
 78
     8
170
     0
171
     2
172
     0
173
     0
174
     0
175
     0
176
   256
177
   256
178
     2
  0
DIMSTYLE
  2
AM_ISO$4
 70
     0
  3

  4
"
  5

  6

  7

 40
1.0
 41
2.5
 42
1.0
 43
10.0
 44
1.0
 45
0.0
 46
0.0
 47
0.1
 48
0.1
140
3.5
141
0.0
142
0.0
143
0.0393701
144
1.0
145
0.0
146
0.71
147
1.5
 71
     0
 72
     0
 73
     0
 74
     1
 75
     0
 76
     0
 77
     1
 78
     8
170
     0
171
     2
172
     0
173
     0
174
     0
175
     0
176
   256
177
   256
178
     2
  0
DIMSTYLE
  2
AM_ISO$6
 70
     0
  3

  4
"
  5

  6

  7

 40
1.0
 41
2.5
 42
1.0
 43
10.0
 44
1.0
 45
0.0
 46
0.0
 47
0.1
 48
0.1
140
3.5
141
0.0
142
0.0
143
0.0393701
144
1.0
145
0.0
146
0.71
147
1.5
 71
     0
 72
     0
 73
     0
 74
     0
 75
     0
 76
     0
 77
     0
 78
     8
170
     0
171
     2
172
     1
173
     0
174
     0
175
     0
176
   256
177
   256
178
     2
  0
DIMSTYLE
  2
AM_ISO$7
 70
     0
  3

  4
"
  5

  6

  7

 40
1.0
 41
2.5
 42
1.0
 43
10.0
 44
1.0
 45
0.0
 46
0.0
 47
0.1
 48
0.1
140
5.0
141
0.0
142
0.0
143
0.0393701
144
1.0
145
0.0
146
0.71
147
1.5
 71
     0
 72
     0
 73
     0
 74
     0
 75
     0
 76
     0
 77
     1
 78
     8
170
     0
171
     2
172
     1
173
     0
174
     0
175
     0
176
   256
177
   256
178
     2
  0
DIMSTYLE
  2
AM_ISO$SF
 70
     0
  3

  4
"
  5

  6

  7

 40
1.0
 41
2.5
 42
1.0
 43
10.0
 44
1.0
 45
0.0
 46
0.0
 47
0.1
 48
0.1
140
3.5
141
0.0
142
0.0
143
0.0393701
144
1.0
145
0.0
146
0.71
147
1.5
 71
     0
 72
     0
 73
     0
 74
     0
 75
     1
 76
     1
 77
     1
 78
     8
170
     0
171
     2
172
     1
173
     0
174
     0
175
     0
176
   256
177
   256
178
     2
  0
DIMSTYLE
  2
AM_ISO$SH
 70
     0
  3

  4
"
  5

  6
GENAXEH
  7

 40
1.0
 41
2.5
 42
1.0
 43
10.0
 44
1.0
 45
0.0
 46
0.0
 47
0.1
 48
0.1
140
3.5
141
0.0
142
0.0
143
0.0393701
144
2.0
145
0.0
146
0.71
147
1.5
 71
     0
 72
     0
 73
     0
 74
     0
 75
     1
 76
     1
 77
     1
 78
     8
170
     0
171
     2
172
     1
173
     1
174
     0
175
     0
176
   256
177
   256
178
     2
  0
DIMSTYLE
  2
GEN-ISO$3
 70
     0
  3
<>
  4

  5

  6

  7

 40
1.0
 41
2.5
 42
1.0
 43
7.0
 44
1.0
 45
0.0
 46
0.0
 47
0.1
 48
0.1
140
3.5
141
0.0
142
0.0
143
0.03937
144
1.0
145
0.0
146
0.71
147
0.6
 71
     0
 72
     0
 73
     0
 74
     1
 75
     0
 76
     0
 77
     1
 78
     8
170
     0
171
     2
172
     0
173
     0
174
     0
175
     0
176
     0
177
     0
178
     0
  0
DIMSTYLE
  2
GEN-ISO$4
 70
     0
  3
<>
  4

  5

  6

  7

 40
1.0
 41
2.5
 42
1.0
 43
7.0
 44
1.0
 45
0.0
 46
0.0
 47
0.1
 48
0.1
140
3.5
141
0.0
142
0.0
143
0.03937
144
1.0
145
0.0
146
0.71
147
0.6
 71
     0
 72
     0
 73
     0
 74
     1
 75
     0
 76
     0
 77
     1
 78
     8
170
     0
171
     2
172
     0
173
     0
174
     0
175
     0
176
     0
177
     0
178
     0
  0
DIMSTYLE
  2
GEN-ISO$6
 70
     0
  3
<>
  4

  5

  6

  7

 40
1.0
 41
2.5
 42
1.0
 43
7.0
 44
1.0
 45
0.0
 46
0.0
 47
0.1
 48
0.1
140
3.5
141
0.0
142
0.0
143
0.03937
144
1.0
145
0.0
146
0.71
147
0.6
 71
     0
 72
     0
 73
     0
 74
     0
 75
     0
 76
     0
 77
     0
 78
     8
170
     0
171
     2
172
     0
173
     0
174
     0
175
     0
176
     0
177
     0
178
     0
  0
DIMSTYLE
  2
GEN-ISO-POS
 70
     0
  3
<>
  4

  5

  6

  7

 40
1.0
 41
2.5
 42
1.0
 43
7.0
 44
1.0
 45
0.0
 46
0.0
 47
0.1
 48
0.1
140
5.0
141
0.0
142
0.0
143
0.03937
144
1.0
145
0.0
146
0.71
147
1.5
 71
     0
 72
     0
 73
     0
 74
     0
 75
     0
 76
     0
 77
     0
 78
     8
170
     0
171
     2
172
     0
173
     0
174
     0
175
     0
176
     0
177
     0
178
     0
  0
DIMSTYLE
  2
GEN-ISO-AXE-F
 70
     0
  3
<>
  4

  5

  6

  7

 40
1.0
 41
2.5
 42
1.0
 43
7.0
 44
1.0
 45
0.0
 46
0.0
 47
0.1
 48
0.1
140
3.5
141
0.0
142
0.0
143
0.03937
144
1.0
145
0.0
146
0.71
147
0.6
 71
     0
 72
     0
 73
     0
 74
     0
 75
     1
 76
     1
 77
     1
 78
     8
170
     0
171
     2
172
     1
173
     0
174
     0
175
     0
176
     0
177
     0
178
     0
  0
DIMSTYLE
  2
GEN-ISO-AXE-H
 70
     0
  3
<>
  4

  5

  6
GENAXEH
  7

 40
1.0
 41
2.5
 42
1.0
 43
7.0
 44
1.0
 45
0.0
 46
0.0
 47
0.1
 48
0.1
140
3.5
141
0.0
142
0.0
143
0.03937
144
2.0
145
0.0
146
0.71
147
0.6
 71
     0
 72
     0
 73
     0
 74
     0
 75
     1
 76
     1
 77
     1
 78
     8
170
     0
171
     2
172
     1
173
     1
174
     0
175
     0
176
     0
177
     0
178
     0
  0
ENDTAB
  0
ENDSEC
  0
SECTION
  2
BLOCKS
  0
BLOCK
  8
0
  2
$MODEL_SPACE
 70
     0
 10
0.0
 20
0.0
 30
0.0
  3
$MODEL_SPACE
  1

  0
ENDBLK
  5
7
  8
0
  0
BLOCK
 67
     1
  8
0
  2
$PAPER_SPACE
 70
     0
 10
0.0
 20
0.0
 30
0.0
  3
$PAPER_SPACE
  1

  0
ENDBLK
  5
A
 67
     1
  8
0
  0
BLOCK
  8
0
  2
*U0
 70
     1
 10
0.0
 20
0.0
 30
0.0
  3
*U0
  1
*U
  0
LINE
  5
BD8
  8
BHMM
 10
0.0
 20
1.5
 30
0.0
 11
16.0
 21
1.5
 31
0.0
  0
LINE
  5
BD9
  8
BHMM
 10
0.0
 20
-1.5
 30
0.0
 11
16.0
 21
-1.5
 31
0.0
  0
LINE
  5
BDA
  8
CENN
 10
-3.0
 20
0.0
 30
0.0
 11
19.0
 21
0.0
 31
0.0
  0
LINE
  5
BDB
  8
-BHMU
 10
0.0
 20
1.5
 30
0.0
 11
0.0
 21
-1.5
 31
0.0
  0
LINE
  5
BDC
  8
-BHMU
 10
16.0
 20
1.5
 30
0.0
 11
16.0
 21
-1.5
 31
0.0
  0
ENDBLK
  5
BDE
  8
0
  0
BLOCK
  8
0
  2
GENINF13
 70
     2
 10
0.0
 20
0.0
 30
0.0
  3
GENINF13
  1
GENINF13
  0
CIRCLE
  5
1416
  8
INFO
 10
-0.107946
 20
1.3122439999999991
 30
0.0
 40
0.339067
  0
CIRCLE
  5
1417
  8
INFO
 10
0.0
 20
0.0
 30
0.0
 40
1.920194
  0
LINE
  5
1418
  8
INFO
 10
0.411344
 20
0.7068300000000001
 30
0.0
 11
-0.7000060000000001
 21
0.7068300000000001
 31
0.0
  0
LINE
  5
1419
  8
INFO
 10
0.8299040000000001
 20
-1.3415349999999999
 30
0.0
 11
0.8299040000000001
 21
-0.5553670000000001
 31
0.0
  0
LINE
  5
141A
  8
INFO
 10
0.8299040000000001
 20
-0.5553670000000001
 30
0.0
 11
0.411344
 21
-0.5553670000000001
 31
0.0
  0
LINE
  5
141B
  8
INFO
 10
0.411344
 20
-0.5553670000000001
 30
0.0
 11
0.411344
 21
0.7068300000000001
 31
0.0
  0
LINE
  5
141C
  8
INFO
 10
-0.7000060000000001
 20
0.7068300000000001
 30
0.0
 11
-0.7000060000000001
 21
0.122613
 31
0.0
  0
LINE
  5
141D
  8
INFO
 10
-0.7000060000000001
 20
0.122613
 30
0.0
 11
-0.375261
 21
0.122613
 31
0.0
  0
LINE
  5
141E
  8
INFO
 10
-0.375261
 20
0.122613
 30
0.0
 11
-0.375261
 21
-0.5553670000000001
 31
0.0
  0
LINE
  5
141F
  8
INFO
 10
-0.375261
 20
-0.5553670000000001
 30
0.0
 11
-0.8010379999999999
 21
-0.5553670000000001
 31
0.0
  0
LINE
  5
1420
  8
INFO
 10
-0.8010379999999999
 20
-0.5553670000000001
 30
0.0
 11
-0.8010379999999999
 21
-1.3415349999999999
 31
0.0
  0
LINE
  5
1421
  8
INFO
 10
-0.8010379999999999
 20
-1.3415349999999999
 30
0.0
 11
0.8299040000000001
 21
-1.3415349999999999
 31
0.0
  0
ATTDEF
  5
1422
  8
INFO
 10
0.0
 20
0.0
 30
0.0
 40
1.0
  1
1
  3
Menge
  2
2GENINF
 70
     1
  0
ATTDEF
  5
1423
  8
INFO
 10
0.0
 20
-1.5
 30
0.0
 40
1.0
  1

  3
Stücklisten-Name
  2
3GENINF
 70
     1
  0
ATTDEF
  5
1424
  8
INFO
 10
0.0
 20
-3.0
 30
0.0
 40
1.0
  1

  3
Stücklisten-Pfad
  2
4GENINF
 70
     1
  0
ATTDEF
  5
1425
  8
INFO
 10
0.0
 20
-4.5
 30
0.0
 40
1.0
  1

  3
Beschreibung 1
  2
5GENINF
 70
     1
  0
ATTDEF
  5
1426
  8
INFO
 10
0.0
 20
-6.0
 30
0.0
 40
1.0
  1

  3
Beschreibung 2
  2
6GENINF
 70
     1
  0
ATTDEF
  5
1427
  8
INFO
 10
0.0
 20
-7.5
 30
0.0
 40
1.0
  1

  3
Norm/Lieferant 1
  2
7GENINF
 70
     1
  0
ATTDEF
  5
1428
  8
INFO
 10
0.0
 20
-9.0
 30
0.0
 40
1.0
  1

  3
Norm/Lieferant 2
  2
8GENINF
 70
     1
  0
ATTDEF
  5
1429
  8
INFO
 10
0.0
 20
-10.5
 30
0.0
 40
1.0
  1

  3
Material 1
  2
9GENINF
 70
     1
  0
ATTDEF
  5
142A
  8
INFO
 10
0.0
 20
-12.0
 30
0.0
 40
1.0
  1

  3
Material 2
  2
10GENINF
 70
     1
  0
ATTDEF
  5
142B
  8
INFO
 10
0.0
 20
-13.5
 30
0.0
 40
1.0
  1

  3
Identnummer
  2
11GENINF
 70
     1
  0
ATTDEF
  5
142C
  8
INFO
 10
0.0
 20
-15.0
 30
0.0
 40
1.0
  1

  3
Gewicht
  2
12GENINF
 70
     1
  0
ATTDEF
  5
142D
  8
INFO
 10
0.0
 20
-16.5
 30
0.0
 40
1.0
  1

  3
Preis
  2
13GENINF
 70
     1
  0
ATTDEF
  5
142E
  8
INFO
 10
0.0
 20
-18.0
 30
0.0
 40
1.0
  1

  3
Abmessungen
  2
14GENINF
 70
     1
  0
ATTDEF
  5
142F
  8
INFO
 10
0.0
 20
-19.5
 30
0.0
 40
1.0
  1

  3
User 1
  2
15GENINF
 70
     1
  0
ATTDEF
  5
1430
  8
INFO
 10
0.0
 20
-21.0
 30
0.0
 40
1.0
  1

  3
User 2
  2
16GENINF
 70
     1
  0
ATTDEF
  5
1431
  8
INFO
 10
0.0
 20
-22.5
 30
0.0
 40
1.0
  1

  3
User 3
  2
17GENINF
 70
     1
  0
ATTDEF
  5
1432
  8
INFO
 10
0.0
 20
-24.0
 30
0.0
 40
1.0
  1

  3
User 4
  2
18GENINF
 70
     1
  0
ATTDEF
  5
1433
  8
INFO
 10
0.0
 20
-25.5
 30
0.0
 40
1.0
  1

  3
User 5
  2
19GENINF
 70
     1
  0
ATTDEF
  5
1434
  8
INFO
 10
0.0
 20
-27.0
 30
0.0
 40
1.0
  1

  3
User 6
  2
20GENINF
 70
     1
  0
ATTDEF
  5
1435
  8
INFO
 10
0.0
 20
-28.5
 30
0.0
 40
1.0
  1

  3
User 7
  2
21GENINF
 70
     1
  0
ATTDEF
  5
1436
  8
INFO
 10
0.0
 20
-30.0
 30
0.0
 40
1.0
  1

  3
User 8
  2
22GENINF
 70
     1
  0
ATTDEF
  5
1437
  8
INFO
 10
0.0
 20
-31.5
 30
0.0
 40
1.0
  1

  3
Filter
  2
23GENINF
 70
     1
  0
ATTDEF
  5
1438
  8
INFO
 10
0.0
 20
-33.0
 30
0.0
 40
1.0
  1

  3
Bemerkung
  2
24GENINF
 70
     1
  0
ATTDEF
  5
1439
  8
INFO
 10
0.0
 20
-34.5
 30
0.0
 40
1.0
  1

  3
Genius Normteile ID
  2
0GENINF
 70
     1
  0
ENDBLK
  5
143A
  8
0
  0
BLOCK
  8
0
  2
GENTPOS0
 70
     0
 10
0.0
 20
0.0
 30
0.0
  3
GENTPOS0
  1

  0
LINE
  5
1BD7
  8
0
 10
-182.88486883698579
 20
0.0000000000000178
 30
0.0
 11
-0.0000000000000015
 21
0.0
 31
0.0
  0
LINE
  5
1BD8
  8
AM_BOR
 62
     1
 10
-159.88486883698579
 20
4.5000000000000258
 30
0.0
 11
0.0
 21
4.5
 31
0.0
1001
GENIUS_GENBLLY_14
1000
BOR2
  0
LINE
  5
1BDA
  8
AM_BOR
 62
     1
 10
-182.88486883698579
 20
9.0000000000000178
 30
0.0
 11
0.0000000000000015
 21
8.9999999999999716
 31
0.0
1001
GENIUS_GENBLLY_14
1000
BOR2
  0
LINE
  5
1BDB
  8
0
 10
-182.88486883698579
 20
4.5000000000000178
 30
0.0
 11
-182.88486883698579
 21
9.0000000000000178
 31
0.0
  0
LINE
  5
1BDC
  8
0
 10
-182.88486883698579
 20
0.0000000000000178
 30
0.0
 11
-182.88486883698579
 21
4.5000000000000178
 31
0.0
  0
LINE
  5
1BDD
  8
AM_BOR
 62
     1
 10
-159.88486883698579
 20
4.5000000000000284
 30
0.0
 11
-159.88486883698579
 21
0.0862588319893405
 31
0.0
1001
GENIUS_GENBLLY_14
1000
BOR2
  0
LINE
  5
1BDE
  8
AM_BOR
 62
     1
 10
-171.88486883698579
 20
4.5000000000000488
 30
0.0
 11
-171.88486883698579
 21
0.0862588319893618
 31
0.0
1001
GENIUS_GENBLLY_14
1000
BOR2
  0
LINE
  5
1BDF
  8
AM_BOR
 62
     1
 10
-171.88486883698579
 20
9.0000000000000782
 30
0.0
 11
-171.88486883698579
 21
4.5000000000000782
 31
0.0
1001
GENIUS_GENBLLY_14
1000
BOR2
  0
LINE
  5
1BE0
  8
AM_BOR
 62
     1
 10
-159.88486883698579
 20
9.0000000000000568
 30
0.0
 11
-159.88486883698579
 21
4.500000000000056
 31
0.0
1001
GENIUS_GENBLLY_14
1000
BOR2
  0
LINE
  5
1BE1
  8
AM_BOR
 62
     1
 10
-99.164153522206277
 20
4.5000000000000284
 30
0.0
 11
-99.164153522206277
 21
0.0000000000000284
 31
0.0
1001
GENIUS_GENBLLY_14
1000
BOR2
  0
LINE
  5
1BE2
  8
AM_BOR
 62
     1
 10
-99.164153522206277
 20
9.0000000000000284
 30
0.0
 11
-99.164153522206277
 21
4.5000000000000284
 31
0.0
1001
GENIUS_GENBLLY_14
1000
BOR2
  0
TEXT
  5
1BE3
  8
AM_BOR
 62
     1
 10
-40.533941491700602
 20
5.7632297189300914
 30
0.0
 40
2.0
  1
(genmsg "gendwg" 39){20.2}
1001
GENIUS_GENBLLY_14
1000
BOR3
  0
TEXT
  5
1BE4
  8
AM_BOR
 62
     1
 10
-40.533941491700602
 20
0.9821435911503897
 30
0.0
 40
2.0
  1
(genmsg "gendwg" 40){20.2}
1001
GENIUS_GENBLLY_14
1000
BOR3
  0
LINE
  5
1BE5
  8
AM_BOR
 62
     1
 10
-42.513122670274811
 20
4.500000000000056
 30
0.0
 11
-42.513122670274811
 21
0.0000000000000568
 31
0.0
1001
GENIUS_GENBLLY_14
1000
BOR2
  0
LINE
  5
1BE6
  8
AM_BOR
 62
     1
 10
-42.513122670274811
 20
9.0000000000000284
 30
0.0
 11
-42.513122670274811
 21
4.5000000000000284
 31
0.0
1001
GENIUS_GENBLLY_14
1000
BOR2
  0
LINE
  5
1BE7
  8
0
 10
0.0
 20
4.5
 30
0.0
 11
0.0000000000000015
 21
9.0
 31
0.0
  0
LINE
  5
1BE8
  8
0
 10
-0.0000000000000015
 20
0.0
 30
0.0
 11
0.0
 21
4.5
 31
0.0
  0
TEXT
  5
1BE9
  8
AM_BOR
 62
     1
 10
-98.203639361584706
 20
5.608505873506747
 30
0.0
 40
2.0
  1
(genmsg "gendwg" 37){27.5}
1001
GENIUS_GENBLLY_14
1000
BOR3
  0
TEXT
  5
1BEA
  8
AM_BOR
 62
     1
 10
-98.138699945075587
 20
1.1000500179945081
 30
0.0
 40
2.0
  1
(genmsg "gendwg" 38){27.5}
1001
GENIUS_GENBLLY_14
1000
BOR3
  0
TEXT
  5
1BEB
  8
AM_BOR
 62
     1
 10
-159.1934076074175
 20
5.5341521628883221
 30
0.0
 40
2.0
  1
(genmsg "gendwg" 35){22.7}
1001
GENIUS_GENBLLY_14
1000
BOR3
  0
TEXT
  5
1BEC
  8
AM_BOR
 62
     1
 10
-159.06352877439929
 20
1.1867960137159941
 30
0.0
 40
2.0
  1
(genmsg "gendwg" 36){22.7}
1001
GENIUS_GENBLLY_14
1000
BOR3
  0
TEXT
  5
1BED
  8
AM_BOR
 62
     1
 10
-182.06352877439929
 20
5.8640344583101331
 30
0.0
 40
2.0
  1
(genmsg "gendwg" 29){7.6}
1001
GENIUS_GENBLLY_14
1000
BOR3
  0
TEXT
  5
1BEE
  8
AM_BOR
 62
     1
 10
-171.06352877439929
 20
5.6509601097971291
 30
0.0
 40
2.0
  1
(genmsg "gendwg" 32){5.3}
1001
GENIUS_GENBLLY_14
1000
BOR3
  0
TEXT
  5
1BEF
  8
AM_BOR
 62
     1
 10
-8.7000000000000028
 20
5.7632297189300914
 30
0.0
 40
2.0
  1
Länge
 72
     2
 11
-2.0
 21
5.7632297189300914
 31
0.0
1001
GENIUS_GENBLLY_14
1000
BOR3
  0
ENDBLK
  5
1BF1
  8
0
  0
BLOCK
  8
0
  2
GENTPOS1
 70
     2
 10
0.0
 20
0.0
 30
0.0
  3
GENTPOS1
  1

  0
LINE
  5
1BF3
  8
0
 10
-182.8848688369859
 20
0.0000000000000853
 30
0.0
 11
-182.8848688369859
 21
4.5000000000000853
 31
0.0
  0
ATTDEF
  5
1BF4
  8
AM_BOR
 62
     2
 10
-158.9507488793445
 20
1.462817121073982
 30
0.0
 40
2.0
  1

  3
(GENMSG "GENDWG" 35)
  2
6GENST{22.7}
 70
     0
1001
GENIUS_GENBLLY_14
1000
BOR3
  0
LINE
  5
1BF5
  8
AM_BOR
 62
     1
 10
-171.88486883698579
 20
4.5000000000000284
 30
0.0
 11
-171.88486883698579
 21
0.0000000000000284
 31
0.0
1001
GENIUS_GENBLLY_14
1000
BOR2
  0
LINE
  5
1BF6
  8
AM_BOR
 62
     1
 10
-159.88486883698579
 20
4.5
 30
0.0
 11
-159.88486883698579
 21
0.0
 31
0.0
1001
GENIUS_GENBLLY_14
1000
BOR2
  0
ATTDEF
  5
1BF7
  8
AM_BOR
 62
     2
 10
-98.306544560848366
 20
1.4628467178702631
 30
0.0
 40
2.0
  1

  3
(GENMSG "GENDWG" 37)
  2
8GENST{27.5}
 70
     0
1001
GENIUS_GENBLLY_14
1000
BOR3
  0
LINE
  5
1BF8
  8
AM_BOR
 62
     1
 10
-99.164153522206334
 20
4.4999999999999849
 30
0.0
 11
-99.164153522206334
 21
0.0
 31
0.0
1001
GENIUS_GENBLLY_14
1000
BOR2
  0
ATTDEF
  5
1BF9
  8
AM_BOR
 62
     2
 10
-41.188800557918512
 20
1.4535630554862271
 30
0.0
 40
2.0
  1

  3
(GENMSG "GENDWG" 39)
  2
10GENST{20.2}
 70
     0
1001
GENIUS_GENBLLY_14
1000
BOR3
  0
LINE
  5
1BFA
  8
AM_BOR
 62
     1
 10
-42.513122670274811
 20
4.4999999999999707
 30
0.0
 11
-42.513122670274811
 21
0.0
 31
0.0
1001
GENIUS_GENBLLY_14
1000
BOR2
  0
LINE
  5
1BFB
  8
0
 10
0.0
 20
4.4999999999999574
 30
0.0
 11
0.0
 21
0.0
 31
0.0
  0
LINE
  5
1BFC
  8
AM_BOR
 62
     1
 10
-159.88486883698579
 20
4.5
 30
0.0
 11
0.0
 21
4.5000000000001696
 31
0.0
1001
GENIUS_GENBLLY_14
1000
BOR2
  0
ENDBLK
  5
1BFE
  8
0
  0
BLOCK
  8
0
  2
GENTPOS2
 70
     2
 10
0.0
 20
0.0
 30
0.0
  3
GENTPOS2
  1

  0
ATTDEF
  5
1C00
  8
AM_BOR
 62
     2
 10
-181.98804960497549
 20
-25.67901407093678
 30
0.0
 40
2.0
  1

  3

  2
ITEM
 70
     0
1001
GENIUS_GENBLLY_14
1000
BOR3
  0
ATTDEF
  5
1C01
  8
AM_BOR
 62
     2
 10
-170.98804960497549
 20
-25.679014070936759
 30
0.0
 40
2.0
  1

  3

  2
QTY
 70
     0
1001
GENIUS_GENBLLY_14
1000
BOR3
  0
ATTDEF
  5
1C02
  8
AM_BOR
 62
     2
 10
-158.98804960497549
 20
-25.67901407093678
 30
0.0
 40
2.0
  1

  3
(GENMSG "GENDWG" 36)
  2
5GENST{22.7}
 70
     0
1001
GENIUS_GENBLLY_14
1000
BOR3
  0
ATTDEF
  5
1C03
  8
AM_BOR
 62
     2
 10
-98.127090248452362
 20
-25.678984474140499
 30
0.0
 40
2.0
  1

  3
(GENMSG "GENDWG" 38)
  2
7GENST{27.5}
 70
     0
1001
GENIUS_GENBLLY_14
1000
BOR3
  0
ATTDEF
  5
1C04
  8
AM_BOR
 62
     2
 10
-41.355436705145102
 20
-25.484027564075731
 30
0.0
 40
2.0
  1

  3
(GENMSG "GENDWG" 40)
  2
9GENST{20.2}
 70
     0
1001
GENIUS_GENBLLY_14
1000
BOR3
  0
ATTDEF
  5
1C05
  8
AM_BOR
 62
     2
 10
-2.0000000000001128
 20
-25.546436944513609
 30
0.0
 40
2.0
  1

 72
     2
 11
-2.0000000000001128
 21
-25.546436944513609
 31
0.0
  3

  2
DIM
 70
     0
1001
GENIUS_GENBLLY_14
1000
BOR3
  0
LINE
  5
1C06
  8
AM_BOR
 62
     1
 10
-182.8848688369859
 20
-22.49999999999984
 30
0.0
 11
-0.0000000000001137
 21
-22.49999999999984
 31
0.0
1001
GENIUS_GENBLLY_14
1000
BOR2
  0
LINE
  5
1C07
  8
0
 10
-182.8848688369859
 20
-26.99999999999984
 30
0.0
 11
-182.8848688369859
 21
-22.49999999999984
 31
0.0
  0
LINE
  5
1C08
  8
AM_BOR
 62
     1
 10
-171.8848688369859
 20
-22.499999999999801
 30
0.0
 11
-171.8848688369859
 21
-26.999999999999801
 31
0.0
1001
GENIUS_GENBLLY_14
1000
BOR2
  0
LINE
  5
1C09
  8
AM_BOR
 62
     1
 10
-159.8848688369859
 20
-22.49999999999984
 30
0.0
 11
-159.8848688369859
 21
-26.99999999999984
 31
0.0
1001
GENIUS_GENBLLY_14
1000
BOR2
  0
LINE
  5
1C0A
  8
AM_BOR
 62
     1
 10
-99.164153522206391
 20
-22.499999999999851
 30
0.0
 11
-99.164153522206391
 21
-26.99999999999984
 31
0.0
1001
GENIUS_GENBLLY_14
1000
BOR2
  0
LINE
  5
1C0B
  8
AM_BOR
 62
     1
 10
-42.513122670274861
 20
-22.499999999999869
 30
0.0
 11
-42.513122670274861
 21
-26.99999999999984
 31
0.0
1001
GENIUS_GENBLLY_14
1000
BOR2
  0
LINE
  5
1C0C
  8
0
 10
-0.0000000000000568
 20
-22.499999999999879
 30
0.0
 11
-0.0000000000000568
 21
-26.99999999999984
 31
0.0
  0
ENDBLK
  5
1C0E
  8
0
  0
BLOCK
  8
0
  2
GENTPOS
 70
     2
 10
0.0
 20
0.0
 30
0.0
  3
GENTPOS
  1

  0
ATTDEF
  5
1C10
  8
0
 10
0.0
 20
9.0
 30
0.0
 40
2.5
  1
4
  3

  2
_ALWAYS
 70
     3
  0
INSERT
  5
1C11
  8
0
  2
GENTPOS0
 10
0.0
 20
0.0
 30
0.0
  0
INSERT
  5
1C12
  8
0
 66
     1
  2
GENTPOS1
 10
0.0000000000000015
 20
9.0
 30
0.0
  0
ATTRIB
  5
1C13
  8
AM_BOR
 62
     2
 10
-42.513122670274811
 20
9.0
 30
0.0
 40
2.0
  1

  2
3GENST{6.3}
 70
     0
1001
GENIUS_GENBLLY_14
1000
BOR3
  0
ATTRIB
  5
1C14
  8
AM_BOR
 62
     2
 10
-99.164153522206334
 20
9.0000000000000284
 30
0.0
 40
2.0
  1

  2
1GENST{7.6}
 70
     0
1001
GENIUS_GENBLLY_14
1000
BOR3
  0
ATTRIB
  5
1C15
  8
AM_BOR
 62
     2
 10
-145.5207488793445
 20
10.46281712107398
 30
0.0
 40
2.0
  1

  2
5GENST{22.7}
 70
     0
1001
GENIUS_GENBLLY_14
1000
BOR3
  0
ATTRIB
  5
1C16
  8
AM_BOR
 62
     2
 10
-146.45486883698581
 20
9.0
 30
0.0
 40
2.0
  1

  2
2GENST{5.3}
 70
     0
1001
GENIUS_GENBLLY_14
1000
BOR3
  0
ATTRIB
  5
1C17
  8
AM_BOR
 62
     2
 10
-98.306544560848366
 20
10.46284671787026
 30
0.0
 40
2.0
  1

  2
7GENST{27.5}
 70
     0
1001
GENIUS_GENBLLY_14
1000
BOR3
  0
ATTRIB
  5
1C18
  8
AM_BOR
 62
     2
 10
-41.188800557918512
 20
10.453563055486219
 30
0.0
 40
2.0
  1

  2
9GENST{20.2}
 70
     0
1001
GENIUS_GENBLLY_14
1000
BOR3
  0
SEQEND
  5
1C19
  8
0
  0
INSERT
  5
1C1A
  8
0
 66
     1
  2
GENTPOS2
 10
0.0000000000000583
 20
40.500000000000007
 30
0.0
  0
ATTRIB
  5
1C1B
  8
AM_BOR
 62
     2
 10
-181.9880496049754
 20
14.82098592906322
 30
0.0
 40
2.0
  1

  2
ITEM
 70
     0
  0
ATTRIB
  5
1C1C
  8
AM_BOR
 62
     2
 10
-170.9880496049754
 20
14.82098592906326
 30
0.0
 40
2.0
  1

  2
QTY
 70
     0
  0
ATTRIB
  5
1C1D
  8
AM_BOR
 62
     2
 10
-158.9880496049754
 20
14.82098592906322
 30
0.0
 40
2.0
  1

  2
5GENST{22.7}
 70
     0
  0
ATTRIB
  5
1C1E
  8
AM_BOR
 62
     2
 10
-98.127090248452305
 20
14.821015525859501
 30
0.0
 40
2.0
  1

  2
7GENST{27.5}
 70
     0
  0
ATTRIB
  5
1C1F
  8
AM_BOR
 62
     2
 10
-41.355436705145053
 20
15.015972435924279
 30
0.0
 40
2.0
  1

  2
9GENST{20.2}
 70
     0
  0
ATTRIB
  5
1C20
  8
AM_BOR
 62
     2
 10
-2.0000000000000551
 20
14.95356305548639
 30
0.0
 40
2.0
  1

 72
     2
 11
-2.0000000000000551
 21
14.95356305548639
 31
0.0
  2
DIM
 70
     0
  0
SEQEND
  5
1C21
  8
0
  0
ENDBLK
  5
1C23
  8
0
  0
BLOCK
  8
0
  2
GENAXEH
 70
     0
 10
0.0
 20
0.0
 30
0.0
  3
GENAXEH
  1

  0
LINE
  5
1C38
  8
0
 10
-1.0
 20
0.0
 30
0.0
 11
1.0
 21
0.0
 31
0.0
  0
ENDBLK
  5
1C3A
  8
0
  0
ENDSEC
  0
SECTION
  2
ENTITIES
  0
LINE
  5
27
  8
MSG_Z1_180-0
 10
158.71057400000001
 20
169.38651299999989
 30
0.0
 11
158.71057400000001
 21
139.88651299999989
 31
0.0
  0
LINE
  5
29
  8
MSG_Z1_180-0
 10
151.71057400000001
 20
102.38651299999989
 30
0.0
 11
151.71057400000001
 21
160.38651299999989
 31
0.0
  0
LINE
  5
2A
  8
MSG_Z1_180-0
 10
181.71057400000001
 20
160.38651299999989
 30
0.0
 11
181.71057400000001
 21
102.38651299999989
 31
0.0
  0
LINE
  5
2B
  8
MSG_Z1_180-0
 10
174.71057400000001
 20
139.88651299999989
 30
0.0
 11
174.71057400000001
 21
169.38651299999989
 31
0.0
  0
LINE
  5
2C
  8
MSG_Z1_180-7
 10
166.71057400000001
 20
171.38651299999989
 30
0.0
 11
166.71057400000001
 21
110.3575889999999
 31
0.0
  0
ARC
  5
2D
  8
MSG_Z1_180-4
 10
176.21057400000001
 20
114.88651299999989
 30
0.0
 40
2.0
 50
180.0
 51
90.0
  0
ARC
  5
2F
  8
MSG_Z1_180-4
 10
176.21057400000001
 20
130.88651299999989
 30
0.0
 40
2.0
 50
180.0
 51
90.0
  0
LINE
  5
30
  8
MSG_Z1_180-0
 10
181.71057400000001
 20
102.38651299999989
 30
0.0
 11
151.71057400000001
 21
102.38651299999989
 31
0.0
  0
POLYLINE
  5
31
  8
MSG_Z1_180-3
 66
     1
 10
0.0
 20
0.0
 30
0.0
  0
VERTEX
  5
32
  8
MSG_Z1_180-3
 10
155.71057400000001
 20
102.38651299999989
 30
0.0
  0
VERTEX
  5
33
  8
MSG_Z1_180-3
 10
155.71057400000001
 20
103.88651299999999
 30
0.0
  0
VERTEX
  5
34
  8
MSG_Z1_180-3
 10
177.71057400000001
 20
103.88651299999999
 30
0.0
  0
VERTEX
  5
35
  8
MSG_Z1_180-3
 10
177.71057400000001
 20
102.38651299999989
 30
0.0
  0
SEQEND
  5
36
  8
MSG_Z1_180-3
  0
LINE
  5
37
  8
MSG_Z1_180-7
 10
179.71057400000001
 20
114.88651299999989
 30
0.0
 11
172.49307400000001
 21
114.88651299999989
 31
0.0
  0
CIRCLE
  5
38
  8
MSG_Z1_180-0
 10
176.21057400000001
 20
114.88651299999989
 30
0.0
 40
1.6000000000000001
  0
LINE
  5
39
  8
MSG_Z1_180-7
 10
179.71057400000001
 20
122.88651299999989
 30
0.0
 11
172.49307400000001
 21
122.88651299999989
 31
0.0
  0
CIRCLE
  5
3A
  8
MSG_Z1_180-0
 10
176.21057400000001
 20
122.88651299999989
 30
0.0
 40
1.5
  0
LINE
  5
3B
  8
MSG_Z1_180-7
 10
179.71057400000001
 20
130.88651299999989
 30
0.0
 11
172.49307400000001
 21
130.88651299999989
 31
0.0
  0
CIRCLE
  5
3C
  8
MSG_Z1_180-0
 10
176.21057400000001
 20
130.88651299999989
 30
0.0
 40
1.6000000000000001
  0
LINE
  5
3D
  8
MSG_Z1_180-7
 10
155.50911799999989
 20
143.88651299999989
 30
0.0
 11
177.795176
 21
143.88651299999989
 31
0.0
  0
LINE
  5
3E
  8
MSG_Z1_180-7
 10
157.21057400000001
 20
135.13623100000001
 30
0.0
 11
157.21057400000001
 21
119.1134709999999
 31
0.0
  0
LINE
  5
3F
  8
MSG_Z1_180-7
 10
176.21057400000001
 20
133.87945999999999
 30
0.0
 11
176.21057400000001
 21
110.59388799999989
 31
0.0
  0
ARC
  5
40
  8
MSG_Z1_180-4
 10
157.21057400000001
 20
122.88651299999989
 30
0.0
 40
2.0
 50
180.0
 51
90.0
  0
LINE
  5
41
  8
MSG_Z1_180-7
 10
160.51466499999989
 20
122.88651299999989
 30
0.0
 11
153.71057400000001
 21
122.88651299999989
 31
0.0
  0
CIRCLE
  5
42
  8
MSG_Z1_180-0
 10
157.21057400000001
 20
122.88651299999989
 30
0.0
 40
1.6000000000000001
  0
LINE
  5
43
  8
MSG_Z1_180-0
 10
158.71057400000001
 20
140.88651299999989
 30
0.0
 11
163.46057400000001
 21
140.88651299999989
 31
0.0
  0
LINE
  5
44
  8
MSG_Z1_180-0
 10
158.71057400000001
 20
139.88651299999989
 30
0.0
 11
174.71057400000001
 21
139.88651299999989
 31
0.0
  0
CIRCLE
  5
47
  8
MSG_Z1_180-0
 10
157.21057400000001
 20
130.88651299999989
 30
0.0
 40
1.5
  0
LINE
  5
48
  8
MSG_Z1_180-7
 10
160.51466499999989
 20
130.88651299999989
 30
0.0
 11
153.71057400000001
 21
130.88651299999989
 31
0.0
  0
LINE
  5
49
  8
MSG_Z1_180-0
 10
163.46057400000001
 20
145.38651299999989
 30
0.0
 11
169.96057400000001
 21
145.38651299999989
 31
0.0
  0
LINE
  5
4A
  8
MSG_Z1_180-0
 10
163.46057400000001
 20
140.88651299999989
 30
0.0
 11
163.46057400000001
 21
145.38651299999989
 31
0.0
  0
LINE
  5
4B
  8
MSG_Z1_180-0
 10
169.96057400000001
 20
145.38651299999989
 30
0.0
 11
169.96057400000001
 21
140.88651299999989
 31
0.0
  0
LINE
  5
4C
  8
MSG_Z1_180-0
 10
169.96057400000001
 20
140.88651299999989
 30
0.0
 11
174.71057400000001
 21
140.88651299999989
 31
0.0
  0
LINE
  5
4E
  8
MSG_Z1_180-0
 10
187.91057399999991
 20
141.38651299999989
 30
0.0
 11
181.71057400000001
 21
141.38651299999989
 31
0.0
  0
LINE
  5
4F
  8
MSG_Z1_180-0
 10
181.71057400000001
 20
144.38651299999989
 30
0.0
 11
187.91057399999991
 21
144.38651299999989
 31
0.0
  0
LINE
  5
50
  8
MSG_Z1_180-7
 10
180.16712200000001
 20
142.88651299999989
 30
0.0
 11
189.6921219999999
 21
142.88651299999989
 31
0.0
  0
LINE
  5
51
  8
MSG_Z1_180-0
 10
188.410574
 20
143.88651299999989
 30
0.0
 11
188.410574
 21
141.88651299999989
 31
0.0
  0
LINE
  5
52
  8
MSG_Z1_180-0
 10
187.91057399999991
 20
144.38651299999989
 30
0.0
 11
187.91057399999991
 21
141.38651299999989
 31
0.0
  0
LINE
  5
53
  8
MSG_Z1_180-0
 10
188.410574
 20
141.88651299999989
 30
0.0
 11
187.91057399999991
 21
141.38651299999989
 31
0.0
  0
LINE
  5
54
  8
MSG_Z1_180-0
 10
187.91057399999991
 20
144.38651299999989
 30
0.0
 11
188.410574
 21
143.88651299999989
 31
0.0
  0
LINE
  5
55
  8
MSG_Z1_180-0
 10
174.71057400000001
 20
160.38651299999989
 30
0.0
 11
181.71057400000001
 21
160.38651299999989
 31
0.0
  0
LINE
  5
56
  8
MSG_Z1_180-7
 10
149.71057400000001
 20
150.38651299999989
 30
0.0
 11
183.71057400000001
 21
150.38651299999989
 31
0.0
  0
LINE
  5
57
  8
MSG_Z1_180-0
 10
174.71057400000001
 20
169.38651299999989
 30
0.0
 11
158.71057400000001
 21
169.38651299999989
 31
0.0
  0
LINE
  5
58
  8
MSG_Z1_180-7
 10
156.5172409999999
 20
165.38651299999989
 30
0.0
 11
177.04890700000001
 21
165.38651299999989
 31
0.0
  0
LINE
  5
59
  8
MSG_Z1_180-7
 10
156.5172409999999
 20
157.38651299999989
 30
0.0
 11
177.04890700000001
 21
157.38651299999989
 31
0.0
  0
LINE
  5
5A
  8
MSG_Z1_180-0
 10
151.71057400000001
 20
160.38651299999989
 30
0.0
 11
158.71057400000001
 21
160.38651299999989
 31
0.0
  0
LINE
  5
5B
  8
MSG_Z1_180-0
 10
161.71057400000001
 20
169.38651299999989
 30
0.0
 11
161.71057400000001
 21
158.38651299999989
 31
0.0
  0
LINE
  5
5C
  8
MSG_Z1_180-0
 10
171.71057400000001
 20
158.38651299999989
 30
0.0
 11
171.71057400000001
 21
169.38651299999989
 31
0.0
  0
ARC
  5
5D
  8
MSG_Z1_180-0
 10
166.71057400000001
 20
158.38651299999989
 30
0.0
 40
5.0
 50
179.99999800000001
 51
0.0
  0
ARC
  5
5E
  8
MSG_Z1_180-4
 10
166.71057400000001
 20
157.4732939999999
 30
0.0
 40
2.0018820000000002
 50
182.48452499999991
 51
89.584649999999996
  0
CIRCLE
  5
5F
  8
MSG_Z1_180-0
 10
166.71057400000001
 20
157.38651299999989
 30
0.0
 40
1.6000000000000001
  0
ARC
  5
60
  8
MSG_Z1_180-4
 10
166.71057400000001
 20
165.38651299999989
 30
0.0
 40
2.0
 50
180.0
 51
90.0
  0
CIRCLE
  5
61
  8
MSG_Z1_180-0
 10
166.71057400000001
 20
165.38651299999989
 30
0.0
 40
1.6000000000000001
  0
LINE
  5
63
  8
MSG_Z1_180-0
 10
261.71057399999989
 20
160.38651299999989
 30
0.0
 11
261.71057399999989
 21
102.38651299999989
 31
0.0
  0
LINE
  5
65
  8
MSG_Z1_180-0
 10
324.71057400000001
 20
169.38651299999989
 30
0.0
 11
324.71057400000001
 21
140.88651299999989
 31
0.0
  0
LINE
  5
66
  8
MSG_Z1_180-0
 10
331.71057400000001
 20
102.38651299999989
 30
0.0
 11
331.71057400000001
 21
160.38651299999989
 31
0.0
  0
LINE
  5
67
  8
MSG_Z1_180-0
 10
301.71057400000001
 20
160.38651299999989
 30
0.0
 11
301.71057400000001
 21
102.38651299999989
 31
0.0
  0
LINE
  5
68
  8
MSG_Z1_180-0
 10
308.71057400000001
 20
139.88651299999989
 30
0.0
 11
308.71057400000001
 21
169.38651299999989
 31
0.0
  0
LINE
  5
69
  8
MSG_Z1_180-0
 10
221.71057400000001
 20
102.38651299999989
 30
0.0
 11
221.71057400000001
 21
160.38651299999989
 31
0.0
  0
LINE
  5
6B
  8
MSG_Z1_180-7
 10
226.71057400000001
 20
171.38651299999989
 30
0.0
 11
226.71057400000001
 21
146.23898999999989
 31
0.0
  0
LINE
  5
6D
  8
MSG_Z1_180-7
 10
241.71057400000001
 20
171.38651299999989
 30
0.0
 11
241.71057400000001
 21
100.44451599999999
 31
0.0
  0
LINE
  5
6E
  8
MSG_Z1_180-7
 10
256.71057400000001
 20
171.38651299999989
 30
0.0
 11
256.71057400000001
 21
146.16725999999991
 31
0.0
  0
LINE
  5
71
  8
MSG_Z1_180-7
 10
316.71057400000001
 20
171.38651299999989
 30
0.0
 11
316.71057400000001
 21
108.4826399999999
 31
0.0
  0
LINE
  5
73
  8
MSG_Z1_180-0
 10
261.71057399999989
 20
102.38651299999989
 30
0.0
 11
221.71057400000001
 21
102.38651299999989
 31
0.0
  0
LINE
  5
74
  8
MSG_Z1_180-3
 10
230.71057400000001
 20
103.88651299999999
 30
0.0
 11
252.71057400000001
 21
103.88651299999999
 31
0.0
  0
LINE
  5
75
  8
MSG_Z1_180-7
 10
227.21057400000001
 20
140.105513
 30
0.0
 11
227.21057400000001
 21
111.38651299999989
 31
0.0
  0
ARC
  5
76
  8
MSG_Z1_180-4
 10
227.21057400000001
 20
116.88651299999989
 30
0.0
 40
2.0
 50
180.0
 51
90.0
  0
LINE
  5
77
  8
MSG_Z1_180-7
 10
220.21057399999989
 20
116.88651299999989
 30
0.0
 11
230.9056009999999
 21
116.88651299999989
 31
0.0
  0
CIRCLE
  5
78
  8
MSG_Z1_180-0
 10
227.21057400000001
 20
116.88651299999989
 30
0.0
 40
1.6000000000000001
  0
LINE
  5
79
  8
MSG_Z1_180-3
 10
230.71057400000001
 20
102.38651299999989
 30
0.0
 11
230.71057400000001
 21
103.88651299999999
 31
0.0
  0
ARC
  5
7A
  8
MSG_Z1_180-4
 10
227.21057400000001
 20
136.88651299999989
 30
0.0
 40
2.0
 50
180.0
 51
90.0
  0
CIRCLE
  5
7B
  8
MSG_Z1_180-0
 10
227.21057400000001
 20
136.88651299999989
 30
0.0
 40
1.6000000000000001
  0
LINE
  5
7C
  8
MSG_Z1_180-7
 10
220.21057399999989
 20
126.88651299999999
 30
0.0
 11
230.9056009999999
 21
126.88651299999999
 31
0.0
  0
LINE
  5
7D
  8
MSG_Z1_180-7
 10
220.21057399999989
 20
136.88651299999989
 30
0.0
 11
230.9056009999999
 21
136.88651299999989
 31
0.0
  0
CIRCLE
  5
7E
  8
MSG_Z1_180-0
 10
227.21057400000001
 20
126.88651299999999
 30
0.0
 40
1.5
  0
LINE
  5
7F
  8
MSG_Z1_180-7
 10
251.21057399999989
 20
139.88651299999989
 30
0.0
 11
251.21057399999989
 21
105.32111999999999
 31
0.0
  0
LINE
  5
80
  8
MSG_Z1_180-7
 10
256.21057400000001
 20
140.105513
 30
0.0
 11
256.21057400000001
 21
112.869786
 31
0.0
  0
LINE
  5
81
  8
MSG_Z1_180-7
 10
252.6826989999999
 20
116.88651299999989
 30
0.0
 11
263.21057400000001
 21
116.88651299999989
 31
0.0
  0
ARC
  5
82
  8
MSG_Z1_180-4
 10
251.21057399999989
 20
111.38651299999989
 30
0.0
 40
2.5
 50
180.0
 51
90.0
  0
LINE
  5
83
  8
MSG_Z1_180-7
 10
247.74076299999999
 20
111.38651299999989
 30
0.0
 11
255.4743
 21
111.38651299999989
 31
0.0
  0
CIRCLE
  5
84
  8
MSG_Z1_180-0
 10
251.21057399999989
 20
111.38651299999989
 30
0.0
 40
2.0
  0
LINE
  5
85
  8
MSG_Z1_180-3
 10
252.71057400000001
 20
103.88651299999999
 30
0.0
 11
252.71057400000001
 21
102.38651299999989
 31
0.0
  0
ARC
  5
86
  8
MSG_Z1_180-4
 10
256.21057400000001
 20
116.88651299999989
 30
0.0
 40
2.0
 50
180.0
 51
90.0
  0
CIRCLE
  5
87
  8
MSG_Z1_180-0
 10
256.21057400000001
 20
116.88651299999989
 30
0.0
 40
1.6000000000000001
  0
LINE
  5
88
  8
MSG_Z1_180-7
 10
252.9208239999999
 20
126.88651299999999
 30
0.0
 11
263.21057400000001
 21
126.88651299999999
 31
0.0
  0
LINE
  5
89
  8
MSG_Z1_180-7
 10
253.00019900000001
 20
136.88651299999989
 30
0.0
 11
263.21057400000001
 21
136.88651299999989
 31
0.0
  0
ARC
  5
8A
  8
MSG_Z1_180-4
 10
256.21057400000001
 20
136.88651299999989
 30
0.0
 40
2.0
 50
180.0
 51
90.0
  0
CIRCLE
  5
8B
  8
MSG_Z1_180-0
 10
256.21057400000001
 20
136.88651299999989
 30
0.0
 40
1.6000000000000001
  0
ARC
  5
8C
  8
MSG_Z1_180-4
 10
251.21057399999989
 20
133.88651299999989
 30
0.0
 40
2.5
 50
180.0
 51
90.0
  0
LINE
  5
8D
  8
MSG_Z1_180-7
 10
247.682074
 20
133.88651299999989
 30
0.0
 11
255.4743
 21
133.88651299999989
 31
0.0
  0
CIRCLE
  5
8E
  8
MSG_Z1_180-0
 10
251.21057399999989
 20
133.88651299999989
 30
0.0
 40
2.0
  0
CIRCLE
  5
8F
  8
MSG_Z1_180-0
 10
256.21057400000001
 20
126.88651299999999
 30
0.0
 40
1.5
  0
ARC
  5
90
  8
MSG_Z1_180-4
 10
307.21057400000001
 20
114.88651299999989
 30
0.0
 40
2.0
 50
180.0
 51
90.0
  0
ARC
  5
91
  8
MSG_Z1_180-4
 10
307.21057400000001
 20
130.88651299999989
 30
0.0
 40
2.0
 50
180.0
 51
90.0
  0
LINE
  5
92
  8
MSG_Z1_180-3
 10
305.71057400000001
 20
103.88651299999999
 30
0.0
 11
327.71057400000001
 21
103.88651299999999
 31
0.0
  0
LINE
  5
93
  8
MSG_Z1_180-0
 10
301.71057400000001
 20
102.38651299999989
 30
0.0
 11
331.71057400000001
 21
102.38651299999989
 31
0.0
  0
LINE
  5
94
  8
MSG_Z1_180-7
 10
303.71057400000001
 20
114.88651299999989
 30
0.0
 11
310.92807399999998
 21
114.88651299999989
 31
0.0
  0
LINE
  5
95
  8
MSG_Z1_180-7
 10
303.71057400000001
 20
130.88651299999989
 30
0.0
 11
310.92807399999998
 21
130.88651299999989
 31
0.0
  0
LINE
  5
96
  8
MSG_Z1_180-7
 10
303.71057400000001
 20
122.88651299999989
 30
0.0
 11
310.92807399999998
 21
122.88651299999989
 31
0.0
  0
CIRCLE
  5
97
  8
MSG_Z1_180-0
 10
307.21057400000001
 20
114.88651299999989
 30
0.0
 40
1.6000000000000001
  0
CIRCLE
  5
98
  8
MSG_Z1_180-0
 10
307.21057400000001
 20
122.88651299999989
 30
0.0
 40
1.5
  0
CIRCLE
  5
99
  8
MSG_Z1_180-0
 10
307.21057400000001
 20
130.88651299999989
 30
0.0
 40
1.6000000000000001
  0
LINE
  5
9A
  8
MSG_Z1_180-7
 10
327.75230099999987
 20
143.88651299999989
 30
0.0
 11
306.24889200000001
 21
143.88651299999989
 31
0.0
  0
LINE
  5
9B
  8
MSG_Z1_180-7
 10
307.21057400000001
 20
134.3929379999999
 30
0.0
 11
307.21057400000001
 21
110.3557629999999
 31
0.0
  0
LINE
  5
9C
  8
MSG_Z1_180-3
 10
305.71057400000001
 20
102.38651299999989
 30
0.0
 11
305.71057400000001
 21
103.88651299999999
 31
0.0
  0
LINE
  5
9D
  8
MSG_Z1_180-0
 10
295.51057400000002
 20
141.38651299999989
 30
0.0
 11
301.71057400000001
 21
141.38651299999989
 31
0.0
  0
LINE
  5
9E
  8
MSG_Z1_180-0
 10
301.71057400000001
 20
144.38651299999989
 30
0.0
 11
295.51057400000002
 21
144.38651299999989
 31
0.0
  0
LINE
  5
9F
  8
MSG_Z1_180-7
 10
293.37562000000003
 20
142.88651299999989
 30
0.0
 11
303.76036599999998
 21
142.88651299999989
 31
0.0
  0
LINE
  5
A0
  8
MSG_Z1_180-0
 10
295.01057400000002
 20
143.88651299999989
 30
0.0
 11
295.01057400000002
 21
141.88651299999989
 31
0.0
  0
LINE
  5
A1
  8
MSG_Z1_180-0
 10
295.51057400000002
 20
144.38651299999989
 30
0.0
 11
295.51057400000002
 21
141.38651299999989
 31
0.0
  0
LINE
  5
A2
  8
MSG_Z1_180-0
 10
295.01057400000002
 20
141.88651299999989
 30
0.0
 11
295.51057400000002
 21
141.38651299999989
 31
0.0
  0
LINE
  5
A3
  8
MSG_Z1_180-0
 10
295.51057400000002
 20
144.38651299999989
 30
0.0
 11
295.01057400000002
 21
143.88651299999989
 31
0.0
  0
LINE
  5
A4
  8
MSG_Z1_180-7
 10
326.21057399999989
 20
134.3929379999999
 30
0.0
 11
326.21057399999989
 21
119.1134709999999
 31
0.0
  0
ARC
  5
A5
  8
MSG_Z1_180-4
 10
326.21057399999989
 20
122.88651299999989
 30
0.0
 40
2.0
 50
180.0
 51
90.0
  0
CIRCLE
  5
A6
  8
MSG_Z1_180-0
 10
326.21057399999989
 20
122.88651299999989
 30
0.0
 40
1.6000000000000001
  0
LINE
  5
A7
  8
MSG_Z1_180-7
 10
322.90648299999992
 20
122.88651299999989
 30
0.0
 11
329.71057400000001
 21
122.88651299999989
 31
0.0
  0
ARC
  5
A8
  8
MSG_Z1_180-4
 10
316.71057400000001
 20
111.38651299999989
 30
0.0
 40
2.5
 50
180.0
 51
90.0
  0
LINE
  5
A9
  8
MSG_Z1_180-7
 10
310.92807399999998
 20
111.38651299999989
 30
0.0
 11
322.90648299999992
 21
111.38651299999989
 31
0.0
  0
CIRCLE
  5
AA
  8
MSG_Z1_180-0
 10
316.71057400000001
 20
111.38651299999989
 30
0.0
 40
2.0
  0
LINE
  5
AB
  8
MSG_Z1_180-3
 10
327.71057400000001
 20
103.88651299999999
 30
0.0
 11
327.71057400000001
 21
102.38651299999989
 31
0.0
  0
CIRCLE
  5
AC
  8
MSG_Z1_180-0
 10
326.21057399999989
 20
130.88651299999989
 30
0.0
 40
1.5
  0
LINE
  5
AD
  8
MSG_Z1_180-7
 10
322.90648299999992
 20
130.88651299999989
 30
0.0
 11
329.71057400000001
 21
130.88651299999989
 31
0.0
  0
ARC
  5
AE
  8
MSG_Z1_180-4
 10
316.71057400000001
 20
133.88651299999989
 30
0.0
 40
2.5
 50
180.0
 51
90.0
  0
LINE
  5
AF
  8
MSG_Z1_180-7
 10
310.92807399999998
 20
133.88651299999989
 30
0.0
 11
322.90648299999992
 21
133.88651299999989
 31
0.0
  0
CIRCLE
  5
B0
  8
MSG_Z1_180-0
 10
316.71057400000001
 20
133.88651299999989
 30
0.0
 40
2.0
  0
LINE
  5
B1
  8
MSG_Z1_180-0
 10
319.96057399999989
 20
145.38651299999989
 30
0.0
 11
313.46057400000001
 21
145.38651299999989
 31
0.0
  0
LINE
  5
B2
  8
MSG_Z1_180-0
 10
324.71057400000001
 20
139.88651299999989
 30
0.0
 11
308.71057400000001
 21
139.88651299999989
 31
0.0
  0
LINE
  5
B4
  8
MSG_Z1_180-0
 10
313.46057400000001
 20
145.38651299999989
 30
0.0
 11
313.46057400000001
 21
140.88651299999989
 31
0.0
  0
LINE
  5
B5
  8
MSG_Z1_180-0
 10
313.46057400000001
 20
140.88651299999989
 30
0.0
 11
308.71057400000001
 21
140.88651299999989
 31
0.0
  0
LINE
  5
B7
  8
MSG_Z1_180-0
 10
319.96057399999989
 20
140.88651299999989
 30
0.0
 11
319.96057399999989
 21
145.38651299999989
 31
0.0
  0
LINE
  5
B8
  8
MSG_Z1_180-0
 10
324.71057400000001
 20
140.88651299999989
 30
0.0
 11
319.96057399999989
 21
140.88651299999989
 31
0.0
  0
LINE
  5
BB
  8
MSG_Z1_180-0
 10
261.71057399999989
 20
228.238418
 30
0.0
 11
261.71057399999989
 21
198.238418
 31
0.0
  0
LINE
  5
BC
  8
MSG_Z1_180-0
 10
221.71057400000001
 20
198.238418
 30
0.0
 11
221.71057400000001
 21
228.238418
 31
0.0
  0
CIRCLE
  5
BD
  8
MSG_Z1_180-0
 10
241.71057400000001
 20
213.238418
 30
0.0
 40
11.0
  0
LINE
  5
BE
  8
MSG_Z1_180-7
 10
227.21057400000001
 20
230.238418
 30
0.0
 11
227.21057400000001
 21
196.23841799999991
 31
0.0
  0
LINE
  5
BF
  8
MSG_Z1_180-7
 10
241.71057400000001
 20
230.238418
 30
0.0
 11
241.71057400000001
 21
201.74023600000001
 31
0.0
  0
LINE
  5
C4
  8
MSG_Z1_180-0
 10
221.71057400000001
 20
160.38651299999989
 30
0.0
 11
261.71057399999989
 21
160.38651299999989
 31
0.0
  0
LINE
  5
C5
  8
MSG_Z1_180-0
 10
222.21057399999989
 20
169.38651299999989
 30
0.0
 11
232.21057400000001
 21
169.38651299999989
 31
0.0
  0
LINE
  5
C6
  8
MSG_Z1_180-7
 10
220.53582399999999
 20
157.38651299999989
 30
0.0
 11
234.11057400000001
 21
157.38651299999989
 31
0.0
  0
LINE
  5
C7
  8
MSG_Z1_180-3
 10
224.96057400000001
 20
155.38651299999989
 30
0.0
 11
228.96057400000001
 21
155.38651299999989
 31
0.0
  0
LINE
  5
C8
  8
MSG_Z1_180-3
 10
224.96057400000001
 20
155.7865129999999
 30
0.0
 11
228.96057400000001
 21
155.7865129999999
 31
0.0
  0
CIRCLE
  5
C9
  8
MSG_Z1_180-0
 10
226.71057400000001
 20
150.38651299999989
 30
0.0
 40
1.5
  0
LINE
  5
CB
  8
MSG_Z1_180-7
 10
220.69457399999999
 20
165.38651299999989
 30
0.0
 11
234.11057400000001
 21
165.38651299999989
 31
0.0
  0
LINE
  5
CC
  8
MSG_Z1_180-3
 10
224.96057400000001
 20
166.98651299999989
 30
0.0
 11
228.96057400000001
 21
166.98651299999989
 31
0.0
  0
LINE
  5
CD
  8
MSG_Z1_180-3
 10
224.96057400000001
 20
159.38651299999989
 30
0.0
 11
228.96057400000001
 21
159.38651299999989
 31
0.0
  0
LINE
  5
CE
  8
MSG_Z1_180-3
 10
224.96057400000001
 20
158.98651299999989
 30
0.0
 11
228.96057400000001
 21
158.98651299999989
 31
0.0
  0
LINE
  5
CF
  8
MSG_Z1_180-3
 10
224.96057400000001
 20
163.38651299999989
 30
0.0
 11
228.96057400000001
 21
163.38651299999989
 31
0.0
  0
LINE
  5
D0
  8
MSG_Z1_180-3
 10
224.96057400000001
 20
163.7865129999999
 30
0.0
 11
228.96057400000001
 21
163.7865129999999
 31
0.0
  0
LINE
  5
D1
  8
MSG_Z1_180-3
 10
224.96057400000001
 20
167.38651299999989
 30
0.0
 11
228.96057400000001
 21
167.38651299999989
 31
0.0
  0
POLYLINE
  5
D3
  8
MSG_Z1_180-3
 66
     1
 10
0.0
 20
0.0
 30
0.0
  0
VERTEX
  5
D4
  8
MSG_Z1_180-3
 10
224.96057400000001
 20
169.38651299999989
 30
0.0
  0
VERTEX
  5
D5
  8
MSG_Z1_180-3
 10
224.96057400000001
 20
153.38651299999989
 30
0.0
  0
VERTEX
  5
D6
  8
MSG_Z1_180-3
 10
222.21057399999989
 20
153.38651299999989
 30
0.0
  0
SEQEND
  5
D7
  8
MSG_Z1_180-3
  0
LINE
  5
E0
  8
MSG_Z1_180-0
 10
222.21057399999989
 20
160.38651299999989
 30
0.0
 11
222.21057399999989
 21
169.38651299999989
 31
0.0
  0
POLYLINE
  5
E2
  8
MSG_Z1_180-3
 66
     1
 10
0.0
 20
0.0
 30
0.0
  0
VERTEX
  5
E3
  8
MSG_Z1_180-3
 10
228.96057400000001
 20
169.38651299999989
 30
0.0
  0
VERTEX
  5
E4
  8
MSG_Z1_180-3
 10
228.96057400000001
 20
153.38651299999989
 30
0.0
  0
VERTEX
  5
E5
  8
MSG_Z1_180-3
 10
232.21057400000001
 20
153.38651299999989
 30
0.0
  0
SEQEND
  5
E6
  8
MSG_Z1_180-3
  0
LINE
  5
E7
  8
MSG_Z1_180-0
 10
232.21057400000001
 20
169.38651299999989
 30
0.0
 11
232.21057400000001
 21
160.38651299999989
 31
0.0
  0
LINE
  5
E8
  8
MSG_Z1_180-0
 10
261.21057400000001
 20
169.38651299999989
 30
0.0
 11
251.21057399999989
 21
169.38651299999989
 31
0.0
  0
LINE
  5
E9
  8
MSG_Z1_180-7
 10
262.44582400000002
 20
157.38651299999989
 30
0.0
 11
249.310574
 21
157.38651299999989
 31
0.0
  0
POLYLINE
  5
EA
  8
MSG_Z1_180-3
 66
     1
 10
0.0
 20
0.0
 30
0.0
  0
VERTEX
  5
EB
  8
MSG_Z1_180-3
 10
258.46057400000001
 20
169.38651299999989
 30
0.0
  0
VERTEX
  5
EC
  8
MSG_Z1_180-3
 10
258.46057400000001
 20
153.38651299999989
 30
0.0
  0
VERTEX
  5
ED
  8
MSG_Z1_180-3
 10
261.21057400000001
 20
153.38651299999989
 30
0.0
  0
SEQEND
  5
EE
  8
MSG_Z1_180-3
  0
LINE
  5
EF
  8
MSG_Z1_180-7
 10
262.44582400000002
 20
165.38651299999989
 30
0.0
 11
249.310574
 21
165.38651299999989
 31
0.0
  0
POLYLINE
  5
F0
  8
MSG_Z1_180-3
 66
     1
 10
0.0
 20
0.0
 30
0.0
  0
VERTEX
  5
F1
  8
MSG_Z1_180-3
 10
254.46057400000001
 20
169.38651299999989
 30
0.0
  0
VERTEX
  5
F2
  8
MSG_Z1_180-3
 10
254.46057400000001
 20
153.38651299999989
 30
0.0
  0
VERTEX
  5
F3
  8
MSG_Z1_180-3
 10
251.21057399999989
 20
153.38651299999989
 30
0.0
  0
SEQEND
  5
F4
  8
MSG_Z1_180-3
  0
CIRCLE
  5
F6
  8
MSG_Z1_180-0
 10
256.71057400000001
 20
150.38651299999989
 30
0.0
 40
1.5
  0
LINE
  5
F8
  8
MSG_Z1_180-3
 10
258.46057400000001
 20
155.7865129999999
 30
0.0
 11
254.46057400000001
 21
155.7865129999999
 31
0.0
  0
LINE
  5
F9
  8
MSG_Z1_180-3
 10
258.46057400000001
 20
155.38651299999989
 30
0.0
 11
254.46057400000001
 21
155.38651299999989
 31
0.0
  0
LINE
  5
FA
  8
MSG_Z1_180-3
 10
258.46057400000001
 20
158.98651299999989
 30
0.0
 11
254.46057400000001
 21
158.98651299999989
 31
0.0
  0
LINE
  5
FB
  8
MSG_Z1_180-3
 10
258.46057400000001
 20
159.38651299999989
 30
0.0
 11
254.46057400000001
 21
159.38651299999989
 31
0.0
  0
LINE
  5
FC
  8
MSG_Z1_180-0
 10
251.21057399999989
 20
169.38651299999989
 30
0.0
 11
251.21057399999989
 21
160.38651299999989
 31
0.0
  0
LINE
  5
FD
  8
MSG_Z1_180-3
 10
258.46057400000001
 20
163.38651299999989
 30
0.0
 11
254.46057400000001
 21
163.38651299999989
 31
0.0
  0
LINE
  5
FE
  8
MSG_Z1_180-3
 10
258.46057400000001
 20
163.7865129999999
 30
0.0
 11
254.46057400000001
 21
163.7865129999999
 31
0.0
  0
LINE
  5
FF
  8
MSG_Z1_180-3
 10
258.46057400000001
 20
166.98651299999989
 30
0.0
 11
254.46057400000001
 21
166.98651299999989
 31
0.0
  0
LINE
  5
100
  8
MSG_Z1_180-3
 10
258.46057400000001
 20
167.38651299999989
 30
0.0
 11
254.46057400000001
 21
167.38651299999989
 31
0.0
  0
LINE
  5
10A
  8
MSG_Z1_180-0
 10
261.21057400000001
 20
160.38651299999989
 30
0.0
 11
261.21057400000001
 21
169.38651299999989
 31
0.0
  0
LINE
  5
143
  8
MSG_Z1_180-0
 10
242.71057400000001
 20
191.53841800000001
 30
0.0
 11
243.21057400000001
 21
192.03841800000001
 31
0.0
  0
LINE
  5
144
  8
MSG_Z1_180-0
 10
261.71057399999989
 20
198.238418
 30
0.0
 11
221.71057400000001
 21
198.238418
 31
0.0
  0
LINE
  5
145
  8
MSG_Z1_180-7
 10
220.21057399999989
 20
213.238418
 30
0.0
 11
263.21057400000001
 21
213.238418
 31
0.0
  0
LINE
  5
146
  8
MSG_Z1_180-0
 10
240.21057400000001
 20
192.03841800000001
 30
0.0
 11
243.21057400000001
 21
192.03841800000001
 31
0.0
  0
LINE
  5
147
  8
MSG_Z1_180-0
 10
240.21057400000001
 20
198.238418
 30
0.0
 11
240.21057400000001
 21
192.03841800000001
 31
0.0
  0
LINE
  5
148
  8
MSG_Z1_180-0
 10
240.71057399999989
 20
191.53841800000001
 30
0.0
 11
242.71057400000001
 21
191.53841800000001
 31
0.0
  0
LINE
  5
149
  8
MSG_Z1_180-0
 10
240.21057400000001
 20
192.03841800000001
 30
0.0
 11
240.71057399999989
 21
191.53841800000001
 31
0.0
  0
ARC
  5
14A
  8
MSG_Z1_180-4
 10
227.186125
 20
203.71396899999999
 30
0.0
 40
2.024595999999999
 50
181.03537799999989
 51
89.308084999999991
  0
CIRCLE
  5
14B
  8
MSG_Z1_180-0
 10
227.21057400000001
 20
213.238418
 30
0.0
 40
1.5
  0
LINE
  5
14C
  8
MSG_Z1_180-7
 10
220.21057399999989
 20
203.738418
 30
0.0
 11
230.9056009999999
 21
203.738418
 31
0.0
  0
CIRCLE
  5
14D
  8
MSG_Z1_180-0
 10
227.21057400000001
 20
203.738418
 30
0.0
 40
1.6000000000000001
  0
LINE
  5
14E
  8
MSG_Z1_180-0
 10
243.21057400000001
 20
192.03841800000001
 30
0.0
 11
243.21057400000001
 21
198.238418
 31
0.0
  0
LINE
  5
14F
  8
MSG_Z1_180-7
 10
252.11006499999999
 20
203.738418
 30
0.0
 11
263.21057400000001
 21
203.738418
 31
0.0
  0
LINE
  5
150
  8
MSG_Z1_180-7
 10
255.71057400000001
 20
219.01971
 30
0.0
 11
255.71057400000001
 21
206.76068199999989
 31
0.0
  0
ARC
  5
151
  8
MSG_Z1_180-4
 10
256.26136300000002
 20
203.68762899999999
 30
0.0
 40
2.0514179999999991
 50
178.581321
 51
91.418678999999983
  0
LINE
  5
152
  8
MSG_Z1_180-7
 10
256.21057400000001
 20
206.84887599999999
 30
0.0
 11
256.21057400000001
 21
196.23841799999991
 31
0.0
  0
CIRCLE
  5
153
  8
MSG_Z1_180-0
 10
256.21057400000001
 20
203.738418
 30
0.0
 40
1.6000000000000001
  0
ARC
  5
154
  8
MSG_Z1_180-4
 10
255.71057400000001
 20
209.738418
 30
0.0
 40
1.5
 50
180.0
 51
90.0
  0
LINE
  5
155
  8
MSG_Z1_180-7
 10
253.22509500000001
 20
209.738418
 30
0.0
 11
258.895782
 21
209.738418
 31
0.0
  0
CIRCLE
  5
156
  8
MSG_Z1_180-0
 10
255.71057400000001
 20
209.738418
 30
0.0
 40
1.1999999999999991
  0
ARC
  5
157
  8
MSG_Z1_180-4
 10
255.71057400000001
 20
216.738418
 30
0.0
 40
1.5
 50
180.0
 51
90.0
  0
LINE
  5
158
  8
MSG_Z1_180-7
 10
253.04870600000001
 20
216.738418
 30
0.0
 11
258.895782
 21
216.738418
 31
0.0
  0
CIRCLE
  5
159
  8
MSG_Z1_180-0
 10
255.71057400000001
 20
216.738418
 30
0.0
 40
1.1999999999999991
  0
LINE
  5
15A
  8
MSG_Z1_180-0
 10
308.71057400000001
 20
160.38651299999989
 30
0.0
 11
301.71057400000001
 21
160.38651299999989
 31
0.0
  0
LINE
  5
15B
  8
MSG_Z1_180-7
 10
333.71057400000001
 20
150.38651299999989
 30
0.0
 11
299.71057400000001
 21
150.38651299999989
 31
0.0
  0
LINE
  5
15C
  8
MSG_Z1_180-7
 10
326.903907
 20
165.38651299999989
 30
0.0
 11
306.37224099999997
 21
165.38651299999989
 31
0.0
  0
LINE
  5
15D
  8
MSG_Z1_180-7
 10
326.903907
 20
157.38651299999989
 30
0.0
 11
306.37224099999997
 21
157.38651299999989
 31
0.0
  0
LINE
  5
15E
  8
MSG_Z1_180-3
 10
301.71057400000001
 20
151.88651299999989
 30
0.0
 11
331.71057400000001
 21
151.88651299999989
 31
0.0
  0
LINE
  5
15F
  8
MSG_Z1_180-3
 10
301.71057400000001
 20
148.88651299999989
 30
0.0
 11
331.71057400000001
 21
148.88651299999989
 31
0.0
  0
LINE
  5
160
  8
MSG_Z1_180-0
 10
331.71057400000001
 20
160.38651299999989
 30
0.0
 11
324.71057400000001
 21
160.38651299999989
 31
0.0
  0
LINE
  5
161
  8
MSG_Z1_180-0
 10
321.71057400000001
 20
169.38651299999989
 30
0.0
 11
321.71057400000001
 21
158.38651299999989
 31
0.0
  0
LINE
  5
162
  8
MSG_Z1_180-0
 10
311.71057399999989
 20
158.38651299999989
 30
0.0
 11
311.71057399999989
 21
169.38651299999989
 31
0.0
  0
ARC
  5
163
  8
MSG_Z1_180-0
 10
316.71057400000001
 20
158.38651299999989
 30
0.0
 40
5.0
 50
179.99999800000001
 51
0.0
  0
ARC
  5
164
  8
MSG_Z1_180-4
 10
316.71057400000001
 20
157.38651299999989
 30
0.0
 40
2.0
 50
180.0
 51
90.0
  0
CIRCLE
  5
165
  8
MSG_Z1_180-0
 10
316.71057400000001
 20
157.38651299999989
 30
0.0
 40
1.6000000000000001
  0
ARC
  5
166
  8
MSG_Z1_180-4
 10
316.71057400000001
 20
165.38651299999989
 30
0.0
 40
2.0
 50
180.0
 51
90.0
  0
LINE
  5
167
  8
MSG_Z1_180-0
 10
308.71057400000001
 20
169.38651299999989
 30
0.0
 11
324.71057400000001
 21
169.38651299999989
 31
0.0
  0
CIRCLE
  5
168
  8
MSG_Z1_180-0
 10
316.71057400000001
 20
165.38651299999989
 30
0.0
 40
1.6000000000000001
  0
LINE
  5
169
  8
MSG_Z1_180-0
 10
221.71057400000001
 20
228.238418
 30
0.0
 11
261.71057399999989
 21
228.238418
 31
0.0
  0
ARC
  5
16A
  8
MSG_Z1_180-4
 10
227.18593199999989
 20
222.71377599999991
 30
0.0
 40
2.0247919999999988
 50
178.47296
 51
89.302687000000006
  0
LINE
  5
16B
  8
MSG_Z1_180-7
 10
220.21057399999989
 20
222.738418
 30
0.0
 11
230.9056009999999
 21
222.738418
 31
0.0
  0
CIRCLE
  5
16C
  8
MSG_Z1_180-0
 10
227.21057400000001
 20
222.738418
 30
0.0
 40
1.6000000000000001
  0
LINE
  5
16D
  8
MSG_Z1_180-7
 10
252.11006499999999
 20
222.738418
 30
0.0
 11
263.21057400000001
 21
222.738418
 31
0.0
  0
LINE
  5
16E
  8
MSG_Z1_180-7
 10
256.21057400000001
 20
230.238418
 30
0.0
 11
256.21057400000001
 21
219.81345999999999
 31
0.0
  0
ARC
  5
16F
  8
MSG_Z1_180-4
 10
256.26090499999992
 20
222.68808799999991
 30
0.0
 40
2.0509479999999991
 50
178.59380999999999
 51
91.406189999999995
  0
CIRCLE
  5
170
  8
MSG_Z1_180-0
 10
256.21057400000001
 20
222.738418
 30
0.0
 40
1.6000000000000001
  0
LINE
  5
185
  8
MSG_Z1_180-7A
 10
222.21057399999989
 20
150.38651299999989
 30
0.0
 11
231.21057400000001
 21
150.38651299999989
 31
0.0
1001
GENIUS_GENODEF_13
1002
{
1000
HIER
1070
     0
1002
}
1002
{
1000
MANEDIT
1070
     0
1002
}
1002
{
1000
NOSEL
1070
     0
1002
}
1002
{
1000
BEHIND
1070
     0
1002
}
1002
{
1000
REACTOR
1002
}
1001
GENIUS_GENOBJ-N-CEN_13
1002
{
1000
OWNER
1000
GEN
1002
}
  0
LINE
  5
18A
  8
MSG_Z1_180-7A
 10
252.21057400000001
 20
150.38651299999989
 30
0.0
 11
261.21057400000001
 21
150.38651299999989
 31
0.0
1001
GENIUS_GENODEF_13
1002
{
1000
HIER
1070
     0
1002
}
1002
{
1000
MANEDIT
1070
     0
1002
}
1002
{
1000
NOSEL
1070
     0
1002
}
1002
{
1000
BEHIND
1070
     0
1002
}
1002
{
1000
REACTOR
1002
}
1001
GENIUS_GENOBJ-N-CEN_13
1002
{
1000
OWNER
1000
GEN
1002
}
  0
POINT
  5
FA3
  8
0
 10
413.698173
 20
180.85982899999991
 30
0.0
1001
GENIUS_GENODEF_13
1002
{
1000
HIER
1070
   200
1002
}
1002
{
1000
MANEDIT
1070
     0
1002
}
1002
{
1000
NOSEL
1070
     0
1002
}
1002
{
1000
BEHIND
1070
     0
1002
}
1002
{
1000
REACTOR
1002
}
1001
GENIUS_GENOBJ-F-PART_13
1002
{
1000
OWNER
1000
GEF
1002
}
1001
GENIUS_GEFSTDP_13
1002
{
1000
DCLSUG
1002
{
1002
{
1000
3
1002
}
1002
}
1002
}
1002
{
1000
DSC
1000
DSC
1002
{
1000
~DESCR
1000
 
1000
~BOR
1000
(gefmsg "gefcall" 409)
1000
~LOTI
1002
}
1002
}
1002
{
1000
KEY
1000
CHUF
1002
}
1002
{
1000
INS
1002
{
1040
120.460959
1040
83.072748000000004
1040
0.0
1002
}
1002
}
1002
{
1000
ANG
1040
0.0
1002
}
1002
{
1000
VCC
1002
{
1000
-LPLOTI=1.600000000000182E+01
1000
$BOR=3
1000
-GRPNAME0GREIFERBACKE-0
1000
-RBDESCR
1000
-RBBOR
1000
-RBLOTI
1000
-V$PV_GENSYSTEM"gef\val\sys\0308\1631_v.dxf"
1000
$VCC_TABLE=$PV_GENSYSTEM"gef\val\sys\0308\1631.val"
1000
$GEF_CDIST=3.000000000000000E+00
1000
$GEF_DRAG=1
1000
$GEF_STANG=2.100000000000000E+02
1000
$GEF_OANG=7.000000000000000E+01
1000
$GEVPROMPTX= Länge: 
1000
$GEF_SNK_ADD=0.000000000000000E+00
1000
$GEF_FLIPX=1
1000
$GEF_FLIPY=1
1000
-GRPNAME1?
1000
-BAML2
1000
$GEF_PROCALC=1
1000
$GEVBHOP=2
1002
}
1002
}
1002
{
1000
LST
1002
{
1002
{
1000
GROUP
1000
0308
1002
}
1002
{
1000
VIEW
1000
V
1002
}
1002
{
1000
SFILE
1000
$PV_GENSYSTEM"gef\val\sys\0308\1631_v.dxf"
1002
}
1002
{
1000
ST1
1000
$PV_GENSYSTEM"gef\val\sys\0308\1631.val"
1002
}
1002
{
1000
GENASSO
1000
 
1002
}
1002
}
1002
}
1002
{
1000
RET
1002
{
1002
{
1000
LOTI
1000
1.600000000000182E+01
1002
}
1002
{
1000
BOR
1000
3
1002
}
1002
{
1000
DESCR
1000
Benutzer Durchgangsloch
1002
}
1002
}
1002
}
1002
{
1000
SYSTEM
1040
1.0
1002
}
1002
{
1000
INFEL
1002
{
1002
}
1002
}
1001
GENIUS_GENOENT_13
1002
{
1000
MYREF
1005
FA3
1002
}
1002
{
1000
GRP
1005
0
1002
}
1001
GENIUS_GENOLIS_13
1002
{
1000
ENT
1005
0
1002
}
  0
INSERT
  5
109F
  8
GEV_FROZEN
  2
*U0
 10
568.27110800000003
 20
271.9459359999999
 30
0.0
 41
0.1
 42
0.1
 43
0.1
1001
GENBH
1002
{
1000
-NOBRK
1002
}
  0
LINE
  5
13F7
  8
MSG_Z1_180-3
 10
222.21057399999989
 20
160.38651299999989
 30
0.0
 11
222.21057399999989
 21
147.01600199999999
 31
0.0
  0
LINE
  5
13F8
  8
MSG_Z1_180-3
 10
222.21057399999989
 20
147.01600199999999
 30
0.0
 11
223.92902299999989
 21
142.7626919999999
 31
0.0
  0
ARC
  5
13F9
  8
MSG_Z1_180-3
 10
226.71057400000001
 20
143.88651299999989
 30
0.0
 40
3.0
 50
202.00002599999999
 51
22.067900000000002
  0
ARC
  5
13FA
  8
MSG_Z1_180-3
 10
234.11057400000001
 20
146.88651299999989
 30
0.0
 40
4.9849860000000001
 50
112.404594
 51
202.06790000000001
  0
LINE
  5
13FB
  8
MSG_Z1_180-3
 10
232.21057400000001
 20
151.49520999999999
 30
0.0
 11
232.21057400000001
 21
160.38651299999989
 31
0.0
  0
LINE
  5
13FE
  8
MSG_Z1_180-3
 10
251.21057399999989
 20
151.49520999999999
 30
0.0
 11
251.21057399999989
 21
160.38651299999989
 31
0.0
  0
LINE
  5
13FF
  8
MSG_Z1_180-3
 10
261.21057400000001
 20
160.38651299999989
 30
0.0
 11
261.21057400000001
 21
147.01600199999999
 31
0.0
  0
ARC
  5
1400
  8
MSG_Z1_180-3
 10
249.310574
 20
146.88651299999989
 30
0.0
 40
4.9849860000000001
 50
337.93209999999999
 51
67.595406000000011
  0
ARC
  5
1401
  8
MSG_Z1_180-3
 10
256.71057400000001
 20
143.88651299999989
 30
0.0
 40
3.0
 50
157.93209999999999
 51
337.99997400000001
  0
LINE
  5
1402
  8
MSG_Z1_180-3
 10
261.21057400000001
 20
147.01600199999999
 30
0.0
 11
259.49212499999999
 21
142.7626919999999
 31
0.0
  0
INSERT
  5
143D
  8
MSG_Z1_180-0N
 66
     1
  2
GENINF13
 10
244.61533700000001
 20
107.899337
 30
0.0
1001
GENIUS_GENSCSYM_13
1002
{
1000
INSPT
1011
244.61533700000001
1021
0.0
1031
-2.3714219875802803E+081
1021
107.899337
1031
0.0
1002
}
1002
{
1000
SCALE
1042
1.0
1002
}
1002
{
1000
USEOLDBPT
1070
     0
1002
}
1001
GENIUS_GENOBJ-N-INFOPT_13
1002
{
1000
OWNER
1000
GEN
1002
}
1001
GENIUS_GENSYMENT_13
1002
{
1000
ENT
1005
143D
1002
}
1001
GENIUS_GENODEF_13
1002
{
1000
HIER
1070
     0
1002
}
1002
{
1000
MANEDIT
1070
     0
1002
}
1002
{
1000
NOSEL
1070
     0
1002
}
1002
{
1000
BEHIND
1070
     0
1002
}
1002
{
1000
REACTOR
1002
}
1001
GENIUS_GENOBJ-N-RSSYM_13
1002
{
1000
OWNER
1000
GEN
1002
}
1001
GENIUS_GENINF13_13
1070
     1
  0
ATTRIB
  5
143E
  8
INFO
 10
244.61533700000001
 20
107.899337
 30
0.0
 40
1.0
  1
1
  2
2GENINF
 70
     1
  0
ATTRIB
  5
143F
  8
INFO
 10
244.61533700000001
 20
106.399337
 30
0.0
 40
1.0
  1
<***aktuell***>
  2
3GENINF
 70
     1
  0
ATTRIB
  5
1440
  8
INFO
 10
244.61533700000001
 20
104.899337
 30
0.0
 40
1.0
  1

  2
4GENINF
 70
     1
  0
ATTRIB
  5
1441
  8
INFO
 10
244.61533700000001
 20
103.399337
 30
0.0
 40
1.0
  1
MSG Z1/180°
  2
5GENINF
 70
     1
  0
ATTRIB
  5
1442
  8
INFO
 10
244.61533700000001
 20
101.899337
 30
0.0
 40
1.0
  1

  2
6GENINF
 70
     1
  0
ATTRIB
  5
1443
  8
INFO
 10
244.61533700000001
 20
100.399337
 30
0.0
 40
1.0
  1

  2
7GENINF
 70
     1
  0
ATTRIB
  5
1444
  8
INFO
 10
244.61533700000001
 20
98.899337000000003
 30
0.0
 40
1.0
  1

  2
8GENINF
 70
     1
  0
ATTRIB
  5
1445
  8
INFO
 10
244.61533700000001
 20
97.399337000000017
 30
0.0
 40
1.0
  1

  2
9GENINF
 70
     1
  0
ATTRIB
  5
1446
  8
INFO
 10
244.61533700000001
 20
95.899337000000017
 30
0.0
 40
1.0
  1

  2
10GENINF
 70
     1
  0
ATTRIB
  5
1447
  8
INFO
 10
244.61533700000001
 20
94.399337000000003
 30
0.0
 40
1.0
  1

  2
11GENINF
 70
     1
  0
ATTRIB
  5
1448
  8
INFO
 10
244.61533700000001
 20
92.899337000000003
 30
0.0
 40
1.0
  1

  2
12GENINF
 70
     1
  0
ATTRIB
  5
1449
  8
INFO
 10
244.61533700000001
 20
91.399337000000003
 30
0.0
 40
1.0
  1

  2
13GENINF
 70
     1
  0
ATTRIB
  5
144A
  8
INFO
 10
244.61533700000001
 20
89.899336999999989
 30
0.0
 40
1.0
  1

  2
14GENINF
 70
     1
  0
ATTRIB
  5
144B
  8
INFO
 10
244.61533700000001
 20
88.399337000000017
 30
0.0
 40
1.0
  1

  2
15GENINF
 70
     1
  0
ATTRIB
  5
144C
  8
INFO
 10
244.61533700000001
 20
86.899337000000003
 30
0.0
 40
1.0
  1

  2
16GENINF
 70
     1
  0
ATTRIB
  5
144D
  8
INFO
 10
244.61533700000001
 20
85.399337000000003
 30
0.0
 40
1.0
  1

  2
17GENINF
 70
     1
  0
ATTRIB
  5
144E
  8
INFO
 10
244.61533700000001
 20
83.899337000000003
 30
0.0
 40
1.0
  1

  2
18GENINF
 70
     1
  0
ATTRIB
  5
144F
  8
INFO
 10
244.61533700000001
 20
82.399336999999989
 30
0.0
 40
1.0
  1

  2
19GENINF
 70
     1
  0
ATTRIB
  5
1450
  8
INFO
 10
244.61533700000001
 20
80.899337000000017
 30
0.0
 40
1.0
  1

  2
20GENINF
 70
     1
  0
ATTRIB
  5
1451
  8
INFO
 10
244.61533700000001
 20
79.399337000000003
 30
0.0
 40
1.0
  1

  2
21GENINF
 70
     1
  0
ATTRIB
  5
1452
  8
INFO
 10
244.61533700000001
 20
77.899337000000003
 30
0.0
 40
1.0
  1

  2
22GENINF
 70
     1
  0
ATTRIB
  5
1453
  8
INFO
 10
244.61533700000001
 20
76.399337000000003
 30
0.0
 40
1.0
  1

  2
23GENINF
 70
     1
  0
ATTRIB
  5
1454
  8
INFO
 10
244.61533700000001
 20
74.899337000000003
 30
0.0
 40
1.0
  1

  2
24GENINF
 70
     1
  0
ATTRIB
  5
1455
  8
INFO
 10
244.61533700000001
 20
73.399337000000003
 30
0.0
 40
1.0
  1

  2
0GENINF
 70
     1
  0
SEQEND
  5
1456
  8
MSG_Z1_180-0N
  0
TEXT
  5
145A
  8
MSG_Z1_180-6
 10
224.26432399999999
 20
107.46601200000001
 30
0.0
 40
2.0
  1
MSG-Z1-30°
  0
TEXT
  5
145C
  8
MSG_Z1_180-6
 10
159.29174299999991
 20
107.46601200000001
 30
0.0
 40
2.0
  1
MSG-Z1-30°
  0
LINE
  5
1463
  8
MSG_Z1_180-7
 10
166.71057400000001
 20
106.44590700000001
 30
0.0
 11
166.71057400000001
 21
100.815513
 31
0.0
  0
TEXT
  5
1465
  8
MSG_Z1_180-6
 10
309.29174299999988
 20
105.59106299999991
 30
0.0
 40
2.0
  1
MSG-Z1-30°
  0
LINE
  5
1467
  8
MSG_Z1_180-7
 10
316.71057400000001
 20
104.570958
 30
0.0
 11
316.71057400000001
 21
101.00803399999999
 31
0.0
  0
TEXT
  5
1469
  8
MSG_Z1_180-6
 10
234.36326699999989
 20
199.10963000000001
 30
0.0
 40
2.0
  1
MSG-Z1-30°
  0
LINE
  5
146F
  8
MSG_Z1_180-7
 10
241.71057400000001
 20
198.60260099999991
 30
0.0
 11
241.71057400000001
 21
190.53841800000001
 31
0.0
  0
ENDSEC
  0
EOF
