  0
SECTION
  2
HEADER
  9
$ACADVER
  1
AC1014
  9
$ACADMAINTVER
 70
     9
  9
$DWGCODEPAGE
  3
ANSI_1252
  9
$INSBASE
 10
0.0
 20
0.0
 30
0.0
  9
$EXTMIN
 10
739.1548043601055
 20
649.6514240808498
 30
0.0
  9
$EXTMAX
 10
1422.94867983391
 20
944.2706313801812
 30
0.0
  9
$LIMMIN
 10
0.0
 20
0.0
  9
$LIMMAX
 10
398.0
 20
282.0
  9
$ORTHOMODE
 70
     1
  9
$REGENMODE
 70
     1
  9
$FILLMODE
 70
     1
  9
$QTEXTMODE
 70
     0
  9
$MIRRTEXT
 70
     0
  9
$DRAGMODE
 70
     2
  9
$LTSCALE
 40
1.0
  9
$OSMODE
 70
   559
  9
$ATTMODE
 70
     1
  9
$TEXTSIZE
 40
3.5
  9
$TRACEWID
 40
1.0
  9
$TEXTSTYLE
  7
STANDARD
  9
$CLAYER
  8
MSL-115-R32-R-6
  9
$CELTYPE
  6
BYLAYER
  9
$CECOLOR
 62
   256
  9
$CELTSCALE
 40
1.0
  9
$DELOBJ
 70
     1
  9
$DISPSILH
 70
     0
  9
$DIMSCALE
 40
1.0
  9
$DIMASZ
 40
7.0
  9
$DIMEXO
 40
1.0
  9
$DIMDLI
 40
10.0
  9
$DIMRND
 40
0.0
  9
$DIMDLE
 40
0.0
  9
$DIMEXE
 40
0.0
  9
$DIMTP
 40
0.1
  9
$DIMTM
 40
0.1
  9
$DIMTXT
 40
9.0
  9
$DIMCEN
 40
0.0
  9
$DIMTSZ
 40
0.0
  9
$DIMTOL
 70
     0
  9
$DIMLIM
 70
     0
  9
$DIMTIH
 70
     0
  9
$DIMTOH
 70
     0
  9
$DIMSE1
 70
     0
  9
$DIMSE2
 70
     0
  9
$DIMTAD
 70
     1
  9
$DIMZIN
 70
     8
  9
$DIMBLK
  1

  9
$DIMASO
 70
     1
  9
$DIMSHO
 70
     1
  9
$DIMPOST
  1

  9
$DIMAPOST
  1
"
  9
$DIMALT
 70
     0
  9
$DIMALTD
 70
     2
  9
$DIMALTF
 40
0.0393701
  9
$DIMLFAC
 40
1.0
  9
$DIMTOFL
 70
     1
  9
$DIMTVP
 40
0.0
  9
$DIMTIX
 70
     0
  9
$DIMSOXD
 70
     0
  9
$DIMSAH
 70
     0
  9
$DIMBLK1
  1

  9
$DIMBLK2
  1

  9
$DIMSTYLE
  2
MASSBLATT
  9
$DIMCLRD
 70
     5
  9
$DIMCLRE
 70
     5
  9
$DIMCLRT
 70
     5
  9
$DIMTFAC
 40
0.71
  9
$DIMGAP
 40
1.0
  9
$DIMJUST
 70
     0
  9
$DIMSD1
 70
     0
  9
$DIMSD2
 70
     0
  9
$DIMTOLJ
 70
     0
  9
$DIMTZIN
 70
     8
  9
$DIMALTZ
 70
     0
  9
$DIMALTTZ
 70
     0
  9
$DIMFIT
 70
     3
  9
$DIMUPT
 70
     0
  9
$DIMUNIT
 70
     2
  9
$DIMDEC
 70
     2
  9
$DIMTDEC
 70
     2
  9
$DIMALTU
 70
     2
  9
$DIMALTTD
 70
     2
  9
$DIMTXSTY
  7
STANDARD
  9
$DIMAUNIT
 70
     0
  9
$LUNITS
 70
     2
  9
$LUPREC
 70
     4
  9
$SKETCHINC
 40
1.0
  9
$FILLETRAD
 40
10.0
  9
$AUNITS
 70
     0
  9
$AUPREC
 70
     0
  9
$MENU
  1
acad
  9
$ELEVATION
 40
0.0
  9
$PELEVATION
 40
0.0
  9
$THICKNESS
 40
0.0
  9
$LIMCHECK
 70
     0
  9
$BLIPMODE
 70
     0
  9
$CHAMFERA
 40
10.0
  9
$CHAMFERB
 40
10.0
  9
$CHAMFERC
 40
0.0
  9
$CHAMFERD
 40
0.0
  9
$SKPOLY
 70
     0
  9
$TDCREATE
 40
2452422.579892963
  9
$TDUPDATE
 40
2452919.872984120
  9
$TDINDWG
 40
0.4433514815
  9
$TDUSRTIMER
 40
0.4433513657
  9
$USRTIMER
 70
     1
  9
$ANGBASE
 50
0.0
  9
$ANGDIR
 70
     0
  9
$PDMODE
 70
     0
  9
$PDSIZE
 40
0.0
  9
$PLINEWID
 40
0.0
  9
$COORDS
 70
     2
  9
$SPLFRAME
 70
     0
  9
$SPLINETYPE
 70
     6
  9
$SPLINESEGS
 70
     8
  9
$ATTDIA
 70
     1
  9
$ATTREQ
 70
     1
  9
$HANDLING
 70
-16383
  9
$HANDSEED
  5
4E14
  9
$SURFTAB1
 70
     6
  9
$SURFTAB2
 70
     6
  9
$SURFTYPE
 70
     6
  9
$SURFU
 70
     6
  9
$SURFV
 70
     6
  9
$UCSNAME
  2

  9
$UCSORG
 10
0.0
 20
0.0
 30
0.0
  9
$UCSXDIR
 10
1.0
 20
0.0
 30
0.0
  9
$UCSYDIR
 10
0.0
 20
1.0
 30
0.0
  9
$PUCSNAME
  2

  9
$PUCSORG
 10
0.0
 20
0.0
 30
0.0
  9
$PUCSXDIR
 10
1.0
 20
0.0
 30
0.0
  9
$PUCSYDIR
 10
0.0
 20
1.0
 30
0.0
  9
$USERI1
 70
     0
  9
$USERI2
 70
     0
  9
$USERI3
 70
     0
  9
$USERI4
 70
     0
  9
$USERI5
 70
     0
  9
$USERR1
 40
0.0
  9
$USERR2
 40
0.0
  9
$USERR3
 40
0.0
  9
$USERR4
 40
0.0
  9
$USERR5
 40
0.0
  9
$WORLDVIEW
 70
     1
  9
$SHADEDGE
 70
     3
  9
$SHADEDIF
 70
    70
  9
$TILEMODE
 70
     1
  9
$MAXACTVP
 70
    16
  9
$PINSBASE
 10
0.0
 20
0.0
 30
0.0
  9
$PLIMCHECK
 70
     0
  9
$PEXTMIN
 10
1.000000000000000E+20
 20
1.000000000000000E+20
 30
1.000000000000000E+20
  9
$PEXTMAX
 10
-1.000000000000000E+20
 20
-1.000000000000000E+20
 30
-1.000000000000000E+20
  9
$PLIMMIN
 10
0.0
 20
0.0
  9
$PLIMMAX
 10
420.0
 20
297.0
  9
$UNITMODE
 70
     0
  9
$VISRETAIN
 70
     0
  9
$PLINEGEN
 70
     0
  9
$PSLTSCALE
 70
     1
  9
$TREEDEPTH
 70
  3020
  9
$PICKSTYLE
 70
     1
  9
$CMLSTYLE
  2
STANDARD
  9
$CMLJUST
 70
     0
  9
$CMLSCALE
 40
1.0
  9
$PROXYGRAPHICS
 70
     1
  9
$MEASUREMENT
 70
     1
  0
ENDSEC
  0
SECTION
  2
CLASSES
  0
CLASS
  1
DICTIONARYVAR
  2
AcDbDictionaryVar
  3
AutoCAD 2000
 90
        0
280
     0
281
     0
  0
CLASS
  1
HATCH
  2
AcDbHatch
  3
AutoCAD 2000
 90
        0
280
     0
281
     1
  0
CLASS
  1
OLE2FRAME
  2
AcDbOle2Frame
  3
AutoCAD 2000
 90
        0
280
     0
281
     1
  0
CLASS
  1
ACDBDICTIONARYWDFLT
  2
AcDbDictionaryWithDefault
  3
AutoCAD 2000
 90
        0
280
     0
281
     0
  0
CLASS
  1
ACDBPLACEHOLDER
  2
AcDbPlaceHolder
  3
AutoCAD 2000
 90
        0
280
     0
281
     0
  0
CLASS
  1
LAYOUT
  2
AcDbLayout
  3
AutoCAD 2000
 90
        0
280
     0
281
     0
  0
CLASS
  1
ACME_DOCUMENT
  2
AcMeDbDoc
  3
AcMeServices
 90
        0
280
     0
281
     0
  0
CLASS
  1
AMGSETTINGSOBJ
  2
AmgSettingsObj
  3
"AcadM|Product Description: AutoCAD Mechanical 2000|Company: Autodesk"
 90
        0
280
     0
281
     0
  0
CLASS
  1
AMGOBJPROPCFG
  2
AmgObjPropCfg
  3
"AmgLay|Product Description: AutoCAD Mechanical 2000|Company: Autodesk"
 90
        1
280
     0
281
     0
  0
CLASS
  1
ACMESCOPE
  2
AcMeScope
  3
AcMeServices
 90
        0
280
     0
281
     0
  0
CLASS
  1
ACMECOMMANDHISTORY
  2
AcMeCommandHistory
  3
AcMeServices
 90
        0
280
     0
281
     0
  0
CLASS
  1
ACIMSYSVARMAN
  2
AcImSysVarManager
  3
AcMeServices
 90
        0
280
     0
281
     0
  0
CLASS
  1
ACIMREALSYSVAR
  2
AcImRealSysVar
  3
AcMeServices
 90
        0
280
     0
281
     0
  0
CLASS
  1
ACIMINTSYSVAR
  2
AcImIntSysVar
  3
AcMeServices
 90
        0
280
     0
281
     0
  0
CLASS
  1
ACMEDRAWINGMAN
  2
AcMeDrawingMan
  3
AcMeServices
 90
        0
280
     0
281
     0
  0
CLASS
  1
ACMEVIEW
  2
AcMeView
  3
AcMeServices
 90
        0
280
     0
281
     0
  0
CLASS
  1
ACDBENTITYCACHE
  2
AcMeEntityCache
  3
AcMeServices
 90
        0
280
     0
281
     0
  0
CLASS
  1
GSMANAGER
  2
AcMeGSManager
  3
AcMeServices
 90
        0
280
     0
281
     0
  0
CLASS
  1
AMDTINTERNALREACTOR
  2
AmdtInternalReactor
  3
AcMeServices
 90
        0
280
     0
281
     0
  0
CLASS
  1
ACMESTATEMGR
  2
AcMeStateMgr
  3
AcMeServices
 90
        0
280
     0
281
     0
  0
CLASS
  1
ACGREFMASTER
  2
AcGrefMaster
  3
AcAttribServices
 90
        0
280
     0
281
     0
  0
CLASS
  1
ACME_DATABASE
  2
AcMeDbDatabase
  3
AcMeServices
 90
        0
280
     0
281
     0
  0
CLASS
  1
ACRFINSADJUSTERMGR
  2
AcRfInsAdjusterMgr
  3
AcMeServices
 90
        0
280
     0
281
     0
  0
CLASS
  1
ACGREFMASTER
  2
AcGrefacadMaster
  3
AcGrefServices
 90
        0
280
     0
281
     0
  0
CLASS
  1
AMIMASTER
  2
AmiMaster
  3
AmiServices
 90
        0
280
     0
281
     0
  0
CLASS
  1
ACMDATADICTIONARY
  2
AcmDataDictionary
  3
"AcmSymBB|Product Description: AutoCAD Mechanical 2000|Company: Autodesk"
 90
        0
280
     0
281
     0
  0
CLASS
  1
ACMDATAENTRYBLOCK
  2
AcmDataEntryBlock
  3
"AcmSymBB|Product Description: AutoCAD Mechanical 2000|Company: Autodesk"
 90
        0
280
     0
281
     0
  0
CLASS
  1
ACMSTANDARDISO
  2
AcmStandardISO
  3
"Amdt_StdImp|Product Description: AutoCAD Mechanical 2000|Company: Autodesk"
 90
        0
280
     0
281
     0
  0
CLASS
  1
AMDTEDGESTANDARDISO
  2
AmdtEdgeStdISO
  3
"Amdt_StdImp|Product Description: AutoCAD Mechanical 2000|Company: Autodesk"
 90
        0
280
     0
281
     0
  0
CLASS
  1
ACMSURFSTANDARDISO
  2
AcmSurfTextStdISO
  3
"Amdt_StdImp|Product Description: AutoCAD Mechanical 2000|Company: Autodesk"
 90
        0
280
     0
281
     0
  0
CLASS
  1
ACMFCFSTANDARDISO
  2
AcmFCFStdISO
  3
"Amdt_StdImp|Product Description: AutoCAD Mechanical 2000|Company: Autodesk"
 90
        0
280
     0
281
     0
  0
CLASS
  1
ACMWELDSTANDARDISO
  2
AcmWeldingStdISO
  3
"Amdt_StdImp|Product Description: AutoCAD Mechanical 2000|Company: Autodesk"
 90
        0
280
     0
281
     0
  0
CLASS
  1
ACMIDSTANDARDISO
  2
AcmIdStdISO
  3
"Amdt_StdImp|Product Description: AutoCAD Mechanical 2000|Company: Autodesk"
 90
        0
280
     0
281
     0
  0
CLASS
  1
ACMDATUMSTANDARDISO
  2
AcmDatumStdISO
  3
"Amdt_StdImp|Product Description: AutoCAD Mechanical 2000|Company: Autodesk"
 90
        0
280
     0
281
     0
  0
CLASS
  1
ACMBOMSTANDARDISO
  2
AcmBOMStdISO
  3
"Amdt_StdImp|Product Description: AutoCAD Mechanical 2000|Company: Autodesk"
 90
        0
280
     0
281
     0
  0
CLASS
  1
"AcAmgLayStd"
  2
AcAmgLayStd
  3
"AcAmgLayStd|Product Description: AutoCAD Mechanical 2000|Company: Autodesk"
 90
        0
280
     0
281
     0
  0
CLASS
  1
"AcAmgDimStd"
  2
AcAmgDimStd
  3
"AcAmgDimStd|Product Description: AutoCAD Mechanical 2000|Company: Autodesk"
 90
        0
280
     0
281
     0
  0
CLASS
  1
AcAmgTitleStd
  2
AcAmgTitleStd
  3
"TITLEAPP"
 90
        0
280
     0
281
     0
  0
CLASS
  1
ACMDETAILSTANDARDISO
  2
AmdtDetailSymStdISO
  3
"Amdt_StdImp|Product Description: AutoCAD Mechanical 2000|Company: Autodesk"
 90
        0
280
     0
281
     0
  0
CLASS
  1
ACMSECTIONSTANDARDISO
  2
AmdtSectionSymStdISO
  3
"Amdt_StdImp|Product Description: AutoCAD Mechanical 2000|Company: Autodesk"
 90
        0
280
     0
281
     0
  0
CLASS
  1
ACMCENTERLINESTANDARDISO
  2
AmdtCenterLineStdISO
  3
"Amdt_StdImp|Product Description: AutoCAD Mechanical 2000|Company: Autodesk"
 90
        0
280
     0
281
     0
  0
CLASS
  1
ACMTHREADLINESTANDARDISO
  2
AmdtThreadLineStdISO
  3
"Amdt_StdImp|Product Description: AutoCAD Mechanical 2000|Company: Autodesk"
 90
        0
280
     0
281
     0
  0
CLASS
  1
ACIMSTRSYSVAR
  2
AcImStrSysVar
  3
AcMeServices
 90
        0
280
     0
281
     0
  0
CLASS
  1
ACAMGFILTERDAT
  2
AcAmgFilterDat
  3
"AcadM|Product Description: AutoCAD Mechanical 2000|Company: Autodesk"
 90
        0
280
     0
281
     0
  0
CLASS
  1
LAYER_INDEX
  2
AcDbLayerIndex
  3
AutoCAD 2000
 90
        0
280
     0
281
     0
  0
CLASS
  1
IDBUFFER
  2
AcDbIdBuffer
  3
AutoCAD 2000
 90
        0
280
     0
281
     0
  0
CLASS
  1
ACMSTANDARDDIN
  2
AcmStandardDIN
  3
"Amdt_StdImp|Product Description: AutoCAD Mechanical 2000|Company: Autodesk"
 90
        0
280
     0
281
     0
  0
CLASS
  1
AMDTEDGESTANDARDDIN
  2
AmdtEdgeStdDIN
  3
"Amdt_StdImp|Product Description: AutoCAD Mechanical 2000|Company: Autodesk"
 90
        0
280
     0
281
     0
  0
CLASS
  1
ACMSURFSTANDARDDIN
  2
AcmSurfTextStdDIN
  3
"Amdt_StdImp|Product Description: AutoCAD Mechanical 2000|Company: Autodesk"
 90
        0
280
     0
281
     0
  0
CLASS
  1
ACMFCFSTANDARDDIN
  2
AcmFCFStdDIN
  3
"Amdt_StdImp|Product Description: AutoCAD Mechanical 2000|Company: Autodesk"
 90
        0
280
     0
281
     0
  0
CLASS
  1
ACMWELDSTANDARDDIN
  2
AcmWeldingStdDIN
  3
"Amdt_StdImp|Product Description: AutoCAD Mechanical 2000|Company: Autodesk"
 90
        0
280
     0
281
     0
  0
CLASS
  1
ACMIDSTANDARDDIN
  2
AcmIdStdDIN
  3
"Amdt_StdImp|Product Description: AutoCAD Mechanical 2000|Company: Autodesk"
 90
        0
280
     0
281
     0
  0
CLASS
  1
ACMDATUMSTANDARDDIN
  2
AcmDatumStdDIN
  3
"Amdt_StdImp|Product Description: AutoCAD Mechanical 2000|Company: Autodesk"
 90
        0
280
     0
281
     0
  0
CLASS
  1
ACMBOMSTANDARDDIN
  2
AcmBOMStdDIN
  3
"Amdt_StdImp|Product Description: AutoCAD Mechanical 2000|Company: Autodesk"
 90
        0
280
     0
281
     0
  0
CLASS
  1
ACMDETAILSTANDARDDIN
  2
AmdtDetailSymStdDIN
  3
"Amdt_StdImp|Product Description: AutoCAD Mechanical 2000|Company: Autodesk"
 90
        0
280
     0
281
     0
  0
CLASS
  1
ACMSECTIONSTANDARDDIN
  2
AmdtSectionSymStdDIN
  3
"Amdt_StdImp|Product Description: AutoCAD Mechanical 2000|Company: Autodesk"
 90
        0
280
     0
281
     0
  0
CLASS
  1
ACMCENTERLINESTANDARDDIN
  2
AmdtCenterLineStdDIN
  3
"Amdt_StdImp|Product Description: AutoCAD Mechanical 2000|Company: Autodesk"
 90
        0
280
     0
281
     0
  0
CLASS
  1
AMDTFORMULAUPDATEDISPATCHER
  2
AmdtFormulaUpdateDispatcher
  3
AcMeServices
 90
        0
280
     0
281
     0
  0
CLASS
  1
LONG_TRANSACTION
  2
AcDbLongTransaction
  3
AutoCAD 2000
 90
        0
280
     0
281
     0
  0
CLASS
  1
LWPOLYLINE
  2
AcDbPolyline
  3
AutoCAD 2000
 90
        0
280
     0
281
     1
  0
CLASS
  1
HATCH
  2
AcDbHatch
  3
AutoCAD 2000
 90
        0
280
     0
281
     1
  0
CLASS
  1
XRECORD
  2
AcDbXrecord
  3
AutoCAD 2000
 90
        0
280
     0
281
     0
  0
CLASS
  1
ACDBCIRCARCRES
  2
AcDbCircArcRes
  3
AcGrefServices
 90
        0
280
     0
281
     0
  0
CLASS
  1
AMDTNOTE
  2
AmdtNote
  3
"AcmSymBB|Product Description: AutoCAD Mechanical 2000|Company: Autodesk"
 90
     1023
280
     0
281
     1
  0
CLASS
  1
LONG_TRANSACTION
  2
AcDbLongTransaction
  3
AutoCAD 2000
 90
        0
280
     0
281
     0
  0
CLASS
  1
LWPOLYLINE
  2
AcDbPolyline
  3
AutoCAD 2000
 90
        0
280
     0
281
     1
  0
CLASS
  1
HATCH
  2
AcDbHatch
  3
AutoCAD 2000
 90
        0
280
     0
281
     1
  0
CLASS
  1
XRECORD
  2
AcDbXrecord
  3
AutoCAD 2000
 90
        0
280
     0
281
     0
  0
CLASS
  1
LONG_TRANSACTION
  2
AcDbLongTransaction
  3
AutoCAD 2000
 90
        0
280
     0
281
     0
  0
CLASS
  1
LWPOLYLINE
  2
AcDbPolyline
  3
AutoCAD 2000
 90
        0
280
     0
281
     1
  0
CLASS
  1
HATCH
  2
AcDbHatch
  3
AutoCAD 2000
 90
        0
280
     0
281
     1
  0
CLASS
  1
XRECORD
  2
AcDbXrecord
  3
AutoCAD 2000
 90
        0
280
     0
281
     0
  0
ENDSEC
  0
SECTION
  2
TABLES
  0
TABLE
  2
VPORT
  5
8
330
0
100
AcDbSymbolTable
 70
     3
  0
VPORT
  5
4DEF
330
8
100
AcDbSymbolTableRecord
100
AcDbViewportTableRecord
  2
*ACTIVE
 70
     0
 10
0.0
 20
0.0
 11
1.0
 21
1.0
 12
1081.020646925195
 22
796.9732910522366
 13
0.0
 23
0.0
 14
2.5
 24
2.5
 15
10.0
 25
10.0
 16
0.0
 26
0.0
 36
1.0
 17
0.0
 27
0.0
 37
0.0
 40
421.9385728746193
 41
1.631304347826086
 42
50.0
 43
0.0
 44
0.0
 50
0.0
 51
0.0
 71
     0
 72
   100
 73
     1
 74
     0
 75
     0
 76
     0
 77
     0
 78
     0
  0
ENDTAB
  0
TABLE
  2
LTYPE
  5
5
330
0
100
AcDbSymbolTable
 70
    13
  0
LTYPE
  5
12
330
5
100
AcDbSymbolTableRecord
100
AcDbLinetypeTableRecord
  2
BYBLOCK
 70
     0
  3

 72
    65
 73
     0
 40
0.0
  0
LTYPE
  5
13
330
5
100
AcDbSymbolTableRecord
100
AcDbLinetypeTableRecord
  2
BYLAYER
 70
     0
  3

 72
    65
 73
     0
 40
0.0
  0
LTYPE
  5
14
330
5
100
AcDbSymbolTableRecord
100
AcDbLinetypeTableRecord
  2
CONTINUOUS
 70
     0
  3
Solid line
 72
    65
 73
     0
 40
0.0
  0
LTYPE
  5
2405
330
5
100
AcDbSymbolTableRecord
100
AcDbLinetypeTableRecord
  2
AM_ISO08W050
 70
     0
  3
____ . ____ . ____ . ____ . ____ . ____ . ____
 72
    65
 73
     4
 40
18.0
 49
12.0
 74
     0
 49
-1.5
 74
     0
 49
3.0
 74
     0
 49
-1.5
 74
     0
  0
LTYPE
  5
2408
330
5
100
AcDbSymbolTableRecord
100
AcDbLinetypeTableRecord
  2
AM_ISO02W050X2
 70
     0
  3
 _ _ _ _ _ _ _ _ _ _ _ _
 72
    65
 73
     2
 40
3.75
 49
3.0
 74
     0
 49
-0.75
 74
     0
  0
LTYPE
  5
3E9C
330
5
100
AcDbSymbolTableRecord
100
AcDbLinetypeTableRecord
  2
GEN3A
 70
     0
  3
 - - - - -
 72
    65
 73
     2
 40
3.1
 49
2.5
 74
     0
 49
-0.6
 74
     0
  0
LTYPE
  5
4C01
330
5
100
AcDbSymbolTableRecord
100
AcDbLinetypeTableRecord
  2
AM_ISO02W050
 70
     0
  3
__ __ __ __ __ __ __ __ __ __ __ __ __ __ __
 72
    65
 73
     2
 40
7.5
 49
6.0
 74
     0
 49
-1.5
 74
     0
  0
LTYPE
  5
4C02
330
5
100
AcDbSymbolTableRecord
100
AcDbLinetypeTableRecord
  2
AM_ISO09W050
 70
     0
  3
_____ . . _____ . . _____ . . ____ .. ____
 72
    65
 73
     6
 40
22.5
 49
12.0
 74
     0
 49
-1.5
 74
     0
 49
3.0
 74
     0
 49
-1.5
 74
     0
 49
3.0
 74
     0
 49
-1.5
 74
     0
  0
LTYPE
  5
4C03
330
5
100
AcDbSymbolTableRecord
100
AcDbLinetypeTableRecord
  2
AMCONSTR
 70
     0
  3
_______________________
 72
    65
 73
     2
 40
9999.0
 49
9999.0
 74
     0
 49
0.0
 74
     0
  0
LTYPE
  5
4C04
330
5
100
AcDbSymbolTableRecord
100
AcDbLinetypeTableRecord
  2
AM_ISO08W050X2
 70
     0
  3
__ . __ . __ . __ . __ . __
 72
    65
 73
     4
 40
9.0
 49
6.0
 74
     0
 49
-0.75
 74
     0
 49
1.5
 74
     0
 49
-0.75
 74
     0
  0
LTYPE
  5
4C05
330
5
100
AcDbSymbolTableRecord
100
AcDbLinetypeTableRecord
  2
AMZIGZAG
 70
     0
  3
/\/-/\/-/\/-/\/-/\/-/\/
 72
    65
 73
     2
 40
11.00009999999999
 49
0.0001
 74
     4
 75
   135
340
4C06
 46
0.04
 50
0.0
 44
0.0
 45
0.0
 49
-11.0
 74
     0
  0
LTYPE
  5
4C27
330
5
100
AcDbSymbolTableRecord
100
AcDbLinetypeTableRecord
  2
ACISOWELD
 70
     0
  3
_ _ _ _ _
 72
    65
 73
     2
 40
2.0
 49
2.0
 74
     0
 49
-1.0
 74
     0
  0
LTYPE
  5
4C2A
330
5
100
AcDbSymbolTableRecord
100
AcDbLinetypeTableRecord
  2
ACISOTGB
 70
     0
  3
__ . . __ . .
 72
    65
 73
     6
 40
9.0
 49
4.0
 74
     0
 49
-1.0
 74
     0
 49
1.0
 74
     0
 49
-1.0
 74
     0
 49
1.0
 74
     0
 49
-1.0
 74
     0
  0
LTYPE
  5
4C2B
330
5
100
AcDbSymbolTableRecord
100
AcDbLinetypeTableRecord
  2
ACISOTGL
 70
     0
  3
_ _ _ _ _
 72
    65
 73
     2
 40
3.0
 49
2.0
 74
     0
 49
-1.0
 74
     0
  0
LTYPE
  5
4C94
330
5
100
AcDbSymbolTableRecord
100
AcDbLinetypeTableRecord
  2
CENTER
 70
     0
  3
__ . __
 72
    65
 73
     4
 40
7.0
 49
4.0
 74
     0
 49
-1.0
 74
     0
 49
1.0
 74
     0
 49
-1.0
 74
     0
  0
ENDTAB
  0
TABLE
  2
LAYER
  5
2
330
0
100
AcDbSymbolTable
 70
     9
  0
LAYER
  5
F
330
2
100
AcDbSymbolTableRecord
100
AcDbLayerTableRecord
  2
0
 70
     0
 62
     7
  6
CONTINUOUS
  0
LAYER
  5
2642
330
2
100
AcDbSymbolTableRecord
100
AcDbLayerTableRecord
  2
MSL-115-R32-R-0
 70
     0
 62
     7
  6
CONTINUOUS
  0
LAYER
  5
2643
330
2
100
AcDbSymbolTableRecord
100
AcDbLayerTableRecord
  2
MSL-115-R32-R-6
 70
     0
 62
     2
  6
AM_ISO02W050X2
  0
LAYER
  5
2644
330
2
100
AcDbSymbolTableRecord
100
AcDbLayerTableRecord
  2
MSL-115-R32-R-5
 70
     0
 62
     3
  6
CONTINUOUS
  0
LAYER
  5
2A98
330
2
100
AcDbSymbolTableRecord
100
AcDbLayerTableRecord
  2
MSL-115-R32-R-7A
 70
     0
 62
     4
  6
AM_ISO08W050
  0
LAYER
  5
3E9D
330
2
100
AcDbSymbolTableRecord
100
AcDbLayerTableRecord
  2
MSL-115-R32-R-3A
 70
     0
 62
     6
  6
GEN3A
  0
LAYER
  5
4BFB
330
2
100
AcDbSymbolTableRecord
100
AcDbLayerTableRecord
  2
DEFPOINTS
 70
     0
 62
     7
  6
CONTINUOUS
  0
LAYER
  5
4C30
330
2
100
AcDbSymbolTableRecord
100
AcDbLayerTableRecord
  2
AM_BOR
 70
     0
 62
     7
  6
CONTINUOUS
  0
LAYER
  5
4CB8
330
2
100
AcDbSymbolTableRecord
100
AcDbLayerTableRecord
  2
AM_5
 70
     0
 62
     3
  6
CONTINUOUS
  0
ENDTAB
  0
TABLE
  2
STYLE
  5
3
330
0
100
AcDbSymbolTable
 70
     5
  0
STYLE
  5
10
330
3
100
AcDbSymbolTableRecord
100
AcDbTextStyleTableRecord
  2
STANDARD
 70
     0
 40
0.0
 41
1.0
 50
0.0
 71
     0
 42
3.5
  3
isocp.shx
  4

  0
STYLE
  5
2617
330
3
100
AcDbSymbolTableRecord
100
AcDbTextStyleTableRecord
  2
ACDINTS
 70
     0
 40
1.0
 41
1.0
 50
0.0
 71
     0
 42
7.0
  3
isocp.shx
  4

  0
STYLE
  5
4C06
330
3
100
AcDbSymbolTableRecord
100
AcDbTextStyleTableRecord
  2

 70
     1
 40
0.0
 41
1.0
 50
0.0
 71
     0
 42
2.5
  3
ltypeshp.shx
  4

  0
STYLE
  5
4C21
330
3
100
AcDbSymbolTableRecord
100
AcDbTextStyleTableRecord
  2
ACISOTS
 70
     0
 40
1.0
 41
1.0
 50
0.0
 71
     0
 42
2.5
  3
isocp.shx
  4

  0
STYLE
  5
4C25
330
3
100
AcDbSymbolTableRecord
100
AcDbTextStyleTableRecord
  2
ACISOGDT
 70
     0
 40
0.0
 41
1.0
 50
0.0
 71
     0
 42
2.5
  3
amgdt.shx
  4

  0
ENDTAB
  0
TABLE
  2
VIEW
  5
6
330
0
100
AcDbSymbolTable
 70
     0
  0
ENDTAB
  0
TABLE
  2
UCS
  5
7
330
0
100
AcDbSymbolTable
 70
     0
  0
ENDTAB
  0
TABLE
  2
APPID
  5
9
330
0
100
AcDbSymbolTable
 70
    60
  0
APPID
  5
11
330
9
100
AcDbSymbolTableRecord
100
AcDbRegAppTableRecord
  2
ACAD
 70
     0
  0
APPID
  5
9A7
330
9
100
AcDbSymbolTableRecord
100
AcDbRegAppTableRecord
  2
GENIUS_GENOENT_13
 70
     0
  0
APPID
  5
9A8
330
9
100
AcDbSymbolTableRecord
100
AcDbRegAppTableRecord
  2
GENIUS_GENOBJ_13
 70
     0
  0
APPID
  5
9A9
330
9
100
AcDbSymbolTableRecord
100
AcDbRegAppTableRecord
  2
GENIUS_GENODEF_13
 70
     0
  0
APPID
  5
9AA
330
9
100
AcDbSymbolTableRecord
100
AcDbRegAppTableRecord
  2
GENIUS_GENOLIS_13
 70
     0
  0
APPID
  5
9AB
330
9
100
AcDbSymbolTableRecord
100
AcDbRegAppTableRecord
  2
GENIUS_GENOREF_13
 70
     0
  0
APPID
  5
9AC
330
9
100
AcDbSymbolTableRecord
100
AcDbRegAppTableRecord
  2
GENIUS_GENOBJ-N-CRS_13
 70
     0
  0
APPID
  5
9AD
330
9
100
AcDbSymbolTableRecord
100
AcDbRegAppTableRecord
  2
GENIUS_GENBH_13
 70
     0
  0
APPID
  5
9AE
330
9
100
AcDbSymbolTableRecord
100
AcDbRegAppTableRecord
  2
GENIUS_GENOBJ-NBEHI-BHF_13
 70
     0
  0
APPID
  5
9AF
330
9
100
AcDbSymbolTableRecord
100
AcDbRegAppTableRecord
  2
GENIUS_GENOBJ-NBEHI-BHB_13
 70
     0
  0
APPID
  5
9B0
330
9
100
AcDbSymbolTableRecord
100
AcDbRegAppTableRecord
  2
GENIUS_GENINF13_13
 70
     0
  0
APPID
  5
9B1
330
9
100
AcDbSymbolTableRecord
100
AcDbRegAppTableRecord
  2
GENIUS_GENOBJ-N-INFOPT_13
 70
     0
  0
APPID
  5
9B2
330
9
100
AcDbSymbolTableRecord
100
AcDbRegAppTableRecord
  2
GENIUS_GENOBJ-N-RSSYM_13
 70
     0
  0
APPID
  5
9B3
330
9
100
AcDbSymbolTableRecord
100
AcDbRegAppTableRecord
  2
GENIUS_GENSYMENT_13
 70
     0
  0
APPID
  5
9B4
330
9
100
AcDbSymbolTableRecord
100
AcDbRegAppTableRecord
  2
GENIUS_GENSCSYM_13
 70
     0
  0
APPID
  5
9B5
330
9
100
AcDbSymbolTableRecord
100
AcDbRegAppTableRecord
  2
GEVPT
 70
     0
  0
APPID
  5
9B6
330
9
100
AcDbSymbolTableRecord
100
AcDbRegAppTableRecord
  2
GEVIT
 70
     0
  0
APPID
  5
9B7
330
9
100
AcDbSymbolTableRecord
100
AcDbRegAppTableRecord
  2
VCC
 70
     0
  0
APPID
  5
9B8
330
9
100
AcDbSymbolTableRecord
100
AcDbRegAppTableRecord
  2
GENBH
 70
     0
  0
APPID
  5
9B9
330
9
100
AcDbSymbolTableRecord
100
AcDbRegAppTableRecord
  2
GEVMK
 70
     0
  0
APPID
  5
9BA
330
9
100
AcDbSymbolTableRecord
100
AcDbRegAppTableRecord
  2
GENIUS_GENOBJ-F-PART_13
 70
     0
  0
APPID
  5
9BB
330
9
100
AcDbSymbolTableRecord
100
AcDbRegAppTableRecord
  2
GENIUS_GEFSTDP_13
 70
     0
  0
APPID
  5
9BC
330
9
100
AcDbSymbolTableRecord
100
AcDbRegAppTableRecord
  2
GENIUS_GEFPARTINS_13
 70
     0
  0
APPID
  5
9BD
330
9
100
AcDbSymbolTableRecord
100
AcDbRegAppTableRecord
  2
GEVID885282451
 70
     0
  0
APPID
  5
9BE
330
9
100
AcDbSymbolTableRecord
100
AcDbRegAppTableRecord
  2
GEVID885282452
 70
     0
  0
APPID
  5
9BF
330
9
100
AcDbSymbolTableRecord
100
AcDbRegAppTableRecord
  2
GEVID885282453
 70
     0
  0
APPID
  5
9C0
330
9
100
AcDbSymbolTableRecord
100
AcDbRegAppTableRecord
  2
GEVID885282454
 70
     0
  0
APPID
  5
9C1
330
9
100
AcDbSymbolTableRecord
100
AcDbRegAppTableRecord
  2
GEVID885282455
 70
     0
  0
APPID
  5
9C2
330
9
100
AcDbSymbolTableRecord
100
AcDbRegAppTableRecord
  2
GEVID885282456
 70
     0
  0
APPID
  5
9C3
330
9
100
AcDbSymbolTableRecord
100
AcDbRegAppTableRecord
  2
GEVID885282457
 70
     0
  0
APPID
  5
9C4
330
9
100
AcDbSymbolTableRecord
100
AcDbRegAppTableRecord
  2
GEVID885282458
 70
     0
  0
APPID
  5
9C5
330
9
100
AcDbSymbolTableRecord
100
AcDbRegAppTableRecord
  2
GEVID885282459
 70
     0
  0
APPID
  5
9C6
330
9
100
AcDbSymbolTableRecord
100
AcDbRegAppTableRecord
  2
GEVID885282460
 70
     0
  0
APPID
  5
9C7
330
9
100
AcDbSymbolTableRecord
100
AcDbRegAppTableRecord
  2
GEVID885282461
 70
     0
  0
APPID
  5
9C8
330
9
100
AcDbSymbolTableRecord
100
AcDbRegAppTableRecord
  2
GEVID885282462
 70
     0
  0
APPID
  5
1880
330
9
100
AcDbSymbolTableRecord
100
AcDbRegAppTableRecord
  2
GENIUS_GENOBJ-N-CEN_13
 70
     0
  0
APPID
  5
23E9
330
9
100
AcDbSymbolTableRecord
100
AcDbRegAppTableRecord
  2
GENIUS_GENCFG_13
 70
     0
  0
APPID
  5
23EA
330
9
100
AcDbSymbolTableRecord
100
AcDbRegAppTableRecord
  2
GENIUS_GEVCFG0_13
 70
     0
  0
APPID
  5
23EB
330
9
100
AcDbSymbolTableRecord
100
AcDbRegAppTableRecord
  2
GENIUS_GENCFG0_13
 70
     0
  0
APPID
  5
23EC
330
9
100
AcDbSymbolTableRecord
100
AcDbRegAppTableRecord
  2
GENIUS_GENCFG1_13
 70
     0
  0
APPID
  5
23ED
330
9
100
AcDbSymbolTableRecord
100
AcDbRegAppTableRecord
  2
GENIUS_GENCFG2_13
 70
     0
  0
APPID
  5
23EE
330
9
100
AcDbSymbolTableRecord
100
AcDbRegAppTableRecord
  2
GENIUS_GENCFG3_13
 70
     0
  0
APPID
  5
23EF
330
9
100
AcDbSymbolTableRecord
100
AcDbRegAppTableRecord
  2
GENIUS_GENCFG4_13
 70
     0
  0
APPID
  5
23F0
330
9
100
AcDbSymbolTableRecord
100
AcDbRegAppTableRecord
  2
GENIUS_GEFCFG0_13
 70
     0
  0
APPID
  5
23F1
330
9
100
AcDbSymbolTableRecord
100
AcDbRegAppTableRecord
  2
MCAD_NO_VIS
 70
     0
  0
APPID
  5
23F2
330
9
100
AcDbSymbolTableRecord
100
AcDbRegAppTableRecord
  2
ACAD_TEMP_GRAPHIC
 70
     0
  0
APPID
  5
23F3
330
9
100
AcDbSymbolTableRecord
100
AcDbRegAppTableRecord
  2
GENIUS_GENOBJ-N-TIT_13
 70
     0
  0
APPID
  5
23F4
330
9
100
AcDbSymbolTableRecord
100
AcDbRegAppTableRecord
  2
GENIUS_GENTITLE_13
 70
     0
  0
APPID
  5
23F5
330
9
100
AcDbSymbolTableRecord
100
AcDbRegAppTableRecord
  2
GENIUS_GENZVEED_13
 70
     0
  0
APPID
  5
23F6
330
9
100
AcDbSymbolTableRecord
100
AcDbRegAppTableRecord
  2
GENIUS_GENSCREG_15
 70
     0
  0
APPID
  5
23F7
330
9
100
AcDbSymbolTableRecord
100
AcDbRegAppTableRecord
  2
GENIUS_GENOBJ-N-SDF_13
 70
     0
  0
APPID
  5
23F8
330
9
100
AcDbSymbolTableRecord
100
AcDbRegAppTableRecord
  2
GENIUS_GENREC_14
 70
     0
  0
APPID
  5
23F9
330
9
100
AcDbSymbolTableRecord
100
AcDbRegAppTableRecord
  2
GENIUS_GENOBJ-N-REC_13
 70
     0
  0
APPID
  5
23FA
330
9
100
AcDbSymbolTableRecord
100
AcDbRegAppTableRecord
  2
GENIUS_GENBLLY_14
 70
     0
  0
APPID
  5
23FB
330
9
100
AcDbSymbolTableRecord
100
AcDbRegAppTableRecord
  2
GENIUS_GENDTOL_13
 70
     0
  0
APPID
  5
23FC
330
9
100
AcDbSymbolTableRecord
100
AcDbRegAppTableRecord
  2
GENIUS_GENDIMSH_14
 70
     0
  0
APPID
  5
23FD
330
9
100
AcDbSymbolTableRecord
100
AcDbRegAppTableRecord
  2
ACATTRIBSERVICES
 70
     0
  0
APPID
  5
23FE
330
9
100
AcDbSymbolTableRecord
100
AcDbRegAppTableRecord
  2
DCO15
 70
     0
  0
APPID
  5
252F
330
9
100
AcDbSymbolTableRecord
100
AcDbRegAppTableRecord
  2
GENIUS_GENTRA_14
 70
     0
  0
APPID
  5
304A
330
9
100
AcDbSymbolTableRecord
100
AcDbRegAppTableRecord
  2
CONTENTBLOCKICON
 70
     0
  0
ENDTAB
  0
TABLE
  2
DIMSTYLE
  5
A
330
0
100
AcDbSymbolTable
 70
     9
  0
DIMSTYLE
105
117
330
A
100
AcDbSymbolTableRecord
100
AcDbDimStyleTableRecord
  2
STANDARD
 70
     0
  3

  4

  5

  6

  7

 40
1.0
 41
5.0
 42
0.0625
 43
0.38
 44
0.18
 45
0.0
 46
0.0
 47
0.0
 48
0.0
140
7.0
141
0.09
142
0.0
143
25.4
144
1.0
145
0.0
146
1.0
147
1.0
 71
     0
 72
     0
 73
     1
 74
     1
 75
     0
 76
     0
 77
     0
 78
     0
170
     0
171
     2
172
     0
173
     0
174
     0
175
     0
176
     0
177
     0
178
     0
270
     2
271
     4
272
     4
273
     2
274
     2
340
10
275
     0
280
     0
281
     0
282
     0
283
     1
284
     0
285
     0
286
     0
287
     3
288
     0
  0
DIMSTYLE
105
255C
330
A
100
AcDbSymbolTableRecord
100
AcDbDimStyleTableRecord
  2
MASSBLATT
 70
     0
  3

  4
"
  5

  6

  7

 40
1.0
 41
7.0
 42
1.0
 43
10.0
 44
0.0
 45
0.0
 46
0.0
 47
0.1
 48
0.1
140
9.0
141
0.0
142
0.0
143
0.0393701
144
1.0
145
0.0
146
0.71
147
1.0
 71
     0
 72
     0
 73
     0
 74
     0
 75
     0
 76
     0
 77
     1
 78
     8
170
     0
171
     2
172
     1
173
     0
174
     0
175
     0
176
     5
177
     5
178
     5
270
     2
271
     2
272
     2
273
     2
274
     2
340
10
275
     0
280
     0
281
     0
282
     0
283
     0
284
     8
285
     0
286
     0
287
     3
288
     0
  0
DIMSTYLE
105
4C86
330
A
100
AcDbSymbolTableRecord
100
AcDbDimStyleTableRecord
  2
AM_ISO
 70
     0
  3

  4
"
  5

  6

  7

 40
1.0
 41
2.5
 42
1.0
 43
10.0
 44
1.0
 45
0.0
 46
0.0
 47
0.1
 48
0.1
140
3.5
141
0.0
142
0.0
143
0.0393701
144
1.0
145
0.0
146
0.71
147
1.5
 71
     0
 72
     0
 73
     0
 74
     0
 75
     0
 76
     0
 77
     1
 78
     8
170
     0
171
     2
172
     1
173
     0
174
     0
175
     0
176
   256
177
   256
178
     2
270
     2
271
     2
272
     2
273
     2
274
     2
340
10
275
     0
280
     0
281
     0
282
     0
283
     0
284
     8
285
     0
286
     0
287
     3
288
     0
  0
DIMSTYLE
105
4C87
330
A
100
AcDbSymbolTableRecord
100
AcDbDimStyleTableRecord
  2
AM_ISO$3
 70
     0
  3

  4
"
  5

  6

  7

 40
1.0
 41
2.5
 42
1.0
 43
10.0
 44
1.0
 45
0.0
 46
0.0
 47
0.1
 48
0.1
140
3.5
141
0.0
142
0.0
143
0.0393701
144
1.0
145
0.0
146
0.71
147
1.5
 71
     0
 72
     0
 73
     0
 74
     1
 75
     0
 76
     0
 77
     1
 78
     8
170
     0
171
     2
172
     0
173
     0
174
     0
175
     0
176
   256
177
   256
178
     2
270
     2
271
     2
272
     3
273
     2
274
     4
340
10
275
     0
280
     0
281
     0
282
     0
283
     0
284
     0
285
     0
286
     0
287
     0
288
     1
  0
DIMSTYLE
105
4C88
330
A
100
AcDbSymbolTableRecord
100
AcDbDimStyleTableRecord
  2
AM_ISO$4
 70
     0
  3

  4
"
  5

  6

  7

 40
1.0
 41
2.5
 42
1.0
 43
10.0
 44
1.0
 45
0.0
 46
0.0
 47
0.1
 48
0.1
140
3.5
141
0.0
142
0.0
143
0.0393701
144
1.0
145
0.0
146
0.71
147
1.5
 71
     0
 72
     0
 73
     0
 74
     1
 75
     0
 76
     0
 77
     1
 78
     8
170
     0
171
     2
172
     0
173
     0
174
     0
175
     0
176
   256
177
   256
178
     2
270
     2
271
     2
272
     2
273
     2
274
     2
340
10
275
     0
280
     0
281
     0
282
     0
283
     0
284
     0
285
     0
286
     0
287
     3
288
     1
  0
DIMSTYLE
105
4C89
330
A
100
AcDbSymbolTableRecord
100
AcDbDimStyleTableRecord
  2
AM_ISO$6
 70
     0
  3

  4
"
  5

  6

  7

 40
1.0
 41
2.5
 42
1.0
 43
10.0
 44
1.0
 45
0.0
 46
0.0
 47
0.1
 48
0.1
140
3.5
141
0.0
142
0.0
143
0.0393701
144
1.0
145
0.0
146
0.71
147
1.5
 71
     0
 72
     0
 73
     0
 74
     0
 75
     0
 76
     0
 77
     0
 78
     8
170
     0
171
     2
172
     1
173
     0
174
     0
175
     0
176
   256
177
   256
178
     2
270
     2
271
     2
272
     3
273
     2
274
     4
340
10
275
     0
280
     0
281
     0
282
     0
283
     0
284
     0
285
     0
286
     0
287
     3
288
     0
  0
DIMSTYLE
105
4C8A
330
A
100
AcDbSymbolTableRecord
100
AcDbDimStyleTableRecord
  2
AM_ISO$7
 70
     0
  3

  4
"
  5

  6

  7

 40
1.0
 41
2.5
 42
1.0
 43
10.0
 44
1.0
 45
0.0
 46
0.0
 47
0.1
 48
0.1
140
5.0
141
0.0
142
0.0
143
0.0393701
144
1.0
145
0.0
146
0.71
147
1.5
 71
     0
 72
     0
 73
     0
 74
     0
 75
     0
 76
     0
 77
     1
 78
     8
170
     0
171
     2
172
     1
173
     0
174
     0
175
     0
176
   256
177
   256
178
     2
270
     2
271
     2
272
     3
273
     2
274
     4
340
10
275
     0
280
     0
281
     0
282
     0
283
     0
284
     0
285
     0
286
     0
287
     3
288
     0
  0
DIMSTYLE
105
4C8B
330
A
100
AcDbSymbolTableRecord
100
AcDbDimStyleTableRecord
  2
AM_ISO$SF
 70
     0
  3

  4
"
  5

  6

  7

 40
1.0
 41
2.5
 42
1.0
 43
10.0
 44
1.0
 45
0.0
 46
0.0
 47
0.1
 48
0.1
140
3.5
141
0.0
142
0.0
143
0.0393701
144
1.0
145
0.0
146
0.71
147
1.5
 71
     0
 72
     0
 73
     0
 74
     0
 75
     1
 76
     1
 77
     1
 78
     8
170
     0
171
     2
172
     1
173
     0
174
     0
175
     0
176
   256
177
   256
178
     2
270
     2
271
     2
272
     3
273
     2
274
     4
340
10
275
     0
280
     0
281
     0
282
     0
283
     0
284
     0
285
     0
286
     0
287
     3
288
     0
  0
DIMSTYLE
105
4C8C
330
A
100
AcDbSymbolTableRecord
100
AcDbDimStyleTableRecord
  2
AM_ISO$SH
 70
     0
  3

  4
"
  5

  6
GENAXEH
  7

 40
1.0
 41
2.5
 42
1.0
 43
10.0
 44
1.0
 45
0.0
 46
0.0
 47
0.1
 48
0.1
140
3.5
141
0.0
142
0.0
143
0.0393701
144
2.0
145
0.0
146
0.71
147
1.5
 71
     0
 72
     0
 73
     0
 74
     0
 75
     1
 76
     1
 77
     1
 78
     8
170
     0
171
     2
172
     1
173
     1
174
     0
175
     0
176
   256
177
   256
178
     2
270
     2
271
     2
272
     3
273
     2
274
     4
340
10
275
     0
280
     0
281
     0
282
     0
283
     0
284
     0
285
     0
286
     0
287
     3
288
     0
  0
ENDTAB
  0
TABLE
  2
BLOCK_RECORD
  5
1
330
0
100
AcDbSymbolTable
 70
     5
  0
BLOCK_RECORD
  5
18
102
{ACAD_XDICTIONARY
360
2541
102
}
330
1
100
AcDbSymbolTableRecord
100
AcDbBlockTableRecord
  2
*MODEL_SPACE
  0
BLOCK_RECORD
  5
15
102
{ACAD_XDICTIONARY
360
3035
102
}
330
1
100
AcDbSymbolTableRecord
100
AcDbBlockTableRecord
  2
*PAPER_SPACE
  0
BLOCK_RECORD
  5
4C2D
330
1
100
AcDbSymbolTableRecord
100
AcDbBlockTableRecord
  2
GENTPOS0
  0
BLOCK_RECORD
  5
4C49
330
1
100
AcDbSymbolTableRecord
100
AcDbBlockTableRecord
  2
GENTPOS1
  0
BLOCK_RECORD
  5
4C56
330
1
100
AcDbSymbolTableRecord
100
AcDbBlockTableRecord
  2
GENTPOS2
1001
CONTENTBLOCKICON
1071
        0
1004
2800000020000000200000000100080000000000000400000000000000000000000000000000000000000000000080000080000000808000800000008000800080800000C0C0C000C0DCC000F0CAA6000020400000206000002080000020A0000020C0000020E00000400000004020000040400000406000004080000040A0
1004
000040C0000040E00000600000006020000060400000606000006080000060A0000060C0000060E00000800000008020000080400000806000008080000080A0000080C0000080E00000A0000000A0200000A0400000A0600000A0800000A0A00000A0C00000A0E00000C0000000C0200000C0400000C0600000C0800000C0
1004
A00000C0C00000C0E00000E0000000E0200000E0400000E0600000E0800000E0A00000E0C00000E0E00040000000400020004000400040006000400080004000A0004000C0004000E00040200000402020004020400040206000402080004020A0004020C0004020E000404000004040200040404000404060004040800040
1004
40A0004040C0004040E00040600000406020004060400040606000406080004060A0004060C0004060E00040800000408020004080400040806000408080004080A0004080C0004080E00040A0000040A0200040A0400040A0600040A0800040A0A00040A0C00040A0E00040C0000040C0200040C0400040C0600040C08000
1004
40C0A00040C0C00040C0E00040E0000040E0200040E0400040E0600040E0800040E0A00040E0C00040E0E00080000000800020008000400080006000800080008000A0008000C0008000E00080200000802020008020400080206000802080008020A0008020C0008020E00080400000804020008040400080406000804080
1004
008040A0008040C0008040E00080600000806020008060400080606000806080008060A0008060C0008060E00080800000808020008080400080806000808080008080A0008080C0008080E00080A0000080A0200080A0400080A0600080A0800080A0A00080A0C00080A0E00080C0000080C0200080C0400080C0600080C0
1004
800080C0A00080C0C00080C0E00080E0000080E0200080E0400080E0600080E0800080E0A00080E0C00080E0E000C0000000C0002000C0004000C0006000C0008000C000A000C000C000C000E000C0200000C0202000C0204000C0206000C0208000C020A000C020C000C020E000C0400000C0402000C0404000C0406000C0
1004
408000C040A000C040C000C040E000C0600000C0602000C0604000C0606000C0608000C060A000C060C000C060E000C0800000C0802000C0804000C0806000C0808000C080A000C080C000C080E000C0A00000C0A02000C0A04000C0A06000C0A08000C0A0A000C0A0C000C0A0E000C0C00000C0C02000C0C04000C0C06000
1004
C0C08000C0C0A000F0FBFF00A4A0A000808080000000FF0000FF000000FFFF00FF000000FF00FF00FFFF0000FFFFFF0000000000000000000000000000000000000000000000000000000000000000000000000000000000000000000000000000000000000000000000000000000000000000000000000000000000000000
1004
00000000000000000000000000000000000000000000000000000000000000000000000000000000000000000000000000000000000000000000000000000000000000000000000000000000000000000000000000000000000000000000000000000000000000000000000000000000000000000000000000000000000000
1004
00000000000000000000000000000000000000000000000000000000000000000000000000000000000000000000000000000000000000000000000000000000000000000000000000000000000000000000000000000000000000000000000000000000000000000000000000000000000000000000000000000000000000
1004
00000000000000000000000000000000000000000000000000000000000000000000000000000000000000000000000000000000000000000000000000000000000000000000000000000000000000000000000000000000000000000000000000000000000000000000000000000000000000000000000000000000000000
1004
000000000000000000000000000000000000000000FFFBF9FBF9F9F9F9F9F9F9F9F9F9F9F9F9F9F9F9F9F9F9F9F9F9F9F9F9FF0000FFFBF9FBF9FBFBFB0000000000F9FBFBFB0000000000F9FBFBFB0000FBFF0000000000000000000000000000000000000000000000000000000000000000000000000000000000000000
1004
00000000000000000000000000000000000000000000000000000000000000000000000000000000000000000000000000000000000000000000000000000000000000000000000000000000000000000000000000000000000000000000000000000000000000000000000000000000000000000000000000000000000000
1004
00000000000000000000000000000000000000000000000000000000000000000000000000000000000000000000000000000000000000000000000000000000000000000000000000000000000000000000000000000000000000000000000000000000000000000000000000000000000000000000000000000000000000
1004
00000000000000000000000000000000000000000000000000000000000000000000000000000000000000000000000000000000000000000000000000000000000000000000000000000000000000000000000000000000000000000000000000000000000000000000000000000000000000000000000000000000000000
1004
0000000000000000000000000000000000000000000000000000000000000000000000000000000000000000000000000000000000000000
  0
BLOCK_RECORD
  5
4C66
330
1
100
AcDbSymbolTableRecord
100
AcDbBlockTableRecord
  2
GENTPOS
  0
BLOCK_RECORD
  5
4C8D
330
1
100
AcDbSymbolTableRecord
100
AcDbBlockTableRecord
  2
GENAXEH
  0
ENDTAB
  0
ENDSEC
  0
SECTION
  2
BLOCKS
  0
BLOCK
  5
44
330
18
100
AcDbEntity
  8
0
100
AcDbBlockBegin
  2
*MODEL_SPACE
 70
     0
 10
0.0
 20
0.0
 30
0.0
  3
*MODEL_SPACE
  1

  0
ENDBLK
  5
45
330
18
100
AcDbEntity
  8
0
100
AcDbBlockEnd
  0
BLOCK
  5
42
330
15
100
AcDbEntity
 67
     1
  8
0
100
AcDbBlockBegin
  2
*PAPER_SPACE
 70
     0
 10
0.0
 20
0.0
 30
0.0
  3
*PAPER_SPACE
  1

  0
ENDBLK
  5
43
330
15
100
AcDbEntity
 67
     1
  8
0
100
AcDbBlockEnd
  0
BLOCK
  5
4C47
330
4C2D
100
AcDbEntity
  8
0
100
AcDbBlockBegin
  2
GENTPOS0
 70
     0
 10
0.0
 20
0.0
 30
0.0
  3
GENTPOS0
  1

  0
LINE
  5
4C2E
330
4C2D
100
AcDbEntity
  8
0
100
AcDbLine
 10
-182.8848688369858
 20
0.0000000000000178
 30
0.0
 11
-0.0000000000000015
 21
0.0
 31
0.0
  0
LINE
  5
4C2F
330
4C2D
100
AcDbEntity
  8
AM_BOR
 62
     1
100
AcDbLine
 10
-159.8848688369858
 20
4.500000000000026
 30
0.0
 11
0.0
 21
4.5
 31
0.0
1001
GENIUS_GENBLLY_14
1000
BOR2
  0
LINE
  5
4C31
330
4C2D
100
AcDbEntity
  8
AM_BOR
 62
     1
100
AcDbLine
 10
-182.8848688369858
 20
9.000000000000017
 30
0.0
 11
0.0000000000000015
 21
8.999999999999971
 31
0.0
1001
GENIUS_GENBLLY_14
1000
BOR2
  0
LINE
  5
4C32
330
4C2D
100
AcDbEntity
  8
0
100
AcDbLine
 10
-182.8848688369858
 20
4.500000000000018
 30
0.0
 11
-182.8848688369858
 21
9.000000000000017
 31
0.0
  0
LINE
  5
4C33
330
4C2D
100
AcDbEntity
  8
0
100
AcDbLine
 10
-182.8848688369858
 20
0.0000000000000178
 30
0.0
 11
-182.8848688369858
 21
4.500000000000018
 31
0.0
  0
LINE
  5
4C34
330
4C2D
100
AcDbEntity
  8
AM_BOR
 62
     1
100
AcDbLine
 10
-159.8848688369858
 20
4.500000000000028
 30
0.0
 11
-159.8848688369858
 21
0.0862588319893405
 31
0.0
1001
GENIUS_GENBLLY_14
1000
BOR2
  0
LINE
  5
4C35
330
4C2D
100
AcDbEntity
  8
AM_BOR
 62
     1
100
AcDbLine
 10
-171.8848688369858
 20
4.500000000000049
 30
0.0
 11
-171.8848688369858
 21
0.0862588319893618
 31
0.0
1001
GENIUS_GENBLLY_14
1000
BOR2
  0
LINE
  5
4C36
330
4C2D
100
AcDbEntity
  8
AM_BOR
 62
     1
100
AcDbLine
 10
-171.8848688369858
 20
9.000000000000078
 30
0.0
 11
-171.8848688369858
 21
4.500000000000078
 31
0.0
1001
GENIUS_GENBLLY_14
1000
BOR2
  0
LINE
  5
4C37
330
4C2D
100
AcDbEntity
  8
AM_BOR
 62
     1
100
AcDbLine
 10
-159.8848688369858
 20
9.000000000000056
 30
0.0
 11
-159.8848688369858
 21
4.500000000000056
 31
0.0
1001
GENIUS_GENBLLY_14
1000
BOR2
  0
LINE
  5
4C38
330
4C2D
100
AcDbEntity
  8
AM_BOR
 62
     1
100
AcDbLine
 10
-99.16415352220628
 20
4.500000000000028
 30
0.0
 11
-99.16415352220628
 21
0.0000000000000284
 31
0.0
1001
GENIUS_GENBLLY_14
1000
BOR2
  0
LINE
  5
4C39
330
4C2D
100
AcDbEntity
  8
AM_BOR
 62
     1
100
AcDbLine
 10
-99.16415352220628
 20
9.000000000000028
 30
0.0
 11
-99.16415352220628
 21
4.500000000000028
 31
0.0
1001
GENIUS_GENBLLY_14
1000
BOR2
  0
TEXT
  5
4C3A
330
4C2D
100
AcDbEntity
  8
AM_BOR
 62
     1
100
AcDbText
 10
-40.5339414917006
 20
5.763229718930091
 30
0.0
 40
2.0
  1
(genmsg "gendwg" 39){20.2}
100
AcDbText
1001
GENIUS_GENBLLY_14
1000
BOR3
  0
TEXT
  5
4C3B
330
4C2D
100
AcDbEntity
  8
AM_BOR
 62
     1
100
AcDbText
 10
-40.5339414917006
 20
0.9821435911503897
 30
0.0
 40
2.0
  1
(genmsg "gendwg" 40){20.2}
100
AcDbText
1001
GENIUS_GENBLLY_14
1000
BOR3
  0
LINE
  5
4C3C
330
4C2D
100
AcDbEntity
  8
AM_BOR
 62
     1
100
AcDbLine
 10
-42.51312267027481
 20
4.500000000000056
 30
0.0
 11
-42.51312267027481
 21
0.0000000000000568
 31
0.0
1001
GENIUS_GENBLLY_14
1000
BOR2
  0
LINE
  5
4C3D
330
4C2D
100
AcDbEntity
  8
AM_BOR
 62
     1
100
AcDbLine
 10
-42.51312267027481
 20
9.000000000000028
 30
0.0
 11
-42.51312267027481
 21
4.500000000000028
 31
0.0
1001
GENIUS_GENBLLY_14
1000
BOR2
  0
LINE
  5
4C3E
330
4C2D
100
AcDbEntity
  8
0
100
AcDbLine
 10
0.0
 20
4.5
 30
0.0
 11
0.0000000000000015
 21
9.0
 31
0.0
  0
LINE
  5
4C3F
330
4C2D
100
AcDbEntity
  8
0
100
AcDbLine
 10
-0.0000000000000015
 20
0.0
 30
0.0
 11
0.0
 21
4.5
 31
0.0
  0
TEXT
  5
4C40
330
4C2D
100
AcDbEntity
  8
AM_BOR
 62
     1
100
AcDbText
 10
-98.2036393615847
 20
5.608505873506747
 30
0.0
 40
2.0
  1
(genmsg "gendwg" 37){27.5}
100
AcDbText
1001
GENIUS_GENBLLY_14
1000
BOR3
  0
TEXT
  5
4C41
330
4C2D
100
AcDbEntity
  8
AM_BOR
 62
     1
100
AcDbText
 10
-98.13869994507559
 20
1.100050017994508
 30
0.0
 40
2.0
  1
(genmsg "gendwg" 38){27.5}
100
AcDbText
1001
GENIUS_GENBLLY_14
1000
BOR3
  0
TEXT
  5
4C42
330
4C2D
100
AcDbEntity
  8
AM_BOR
 62
     1
100
AcDbText
 10
-159.1934076074175
 20
5.534152162888322
 30
0.0
 40
2.0
  1
(genmsg "gendwg" 35){22.7}
100
AcDbText
1001
GENIUS_GENBLLY_14
1000
BOR3
  0
TEXT
  5
4C43
330
4C2D
100
AcDbEntity
  8
AM_BOR
 62
     1
100
AcDbText
 10
-159.0635287743993
 20
1.186796013715994
 30
0.0
 40
2.0
  1
(genmsg "gendwg" 36){22.7}
100
AcDbText
1001
GENIUS_GENBLLY_14
1000
BOR3
  0
TEXT
  5
4C44
330
4C2D
100
AcDbEntity
  8
AM_BOR
 62
     1
100
AcDbText
 10
-182.0635287743993
 20
5.864034458310133
 30
0.0
 40
2.0
  1
(genmsg "gendwg" 29){7.6}
100
AcDbText
1001
GENIUS_GENBLLY_14
1000
BOR3
  0
TEXT
  5
4C45
330
4C2D
100
AcDbEntity
  8
AM_BOR
 62
     1
100
AcDbText
 10
-171.0635287743993
 20
5.650960109797129
 30
0.0
 40
2.0
  1
(genmsg "gendwg" 32){5.3}
100
AcDbText
1001
GENIUS_GENBLLY_14
1000
BOR3
  0
TEXT
  5
4C46
330
4C2D
100
AcDbEntity
  8
AM_BOR
 62
     1
100
AcDbText
 10
-8.700000000000002
 20
5.763229718930091
 30
0.0
 40
2.0
  1
Länge
 72
     2
 11
-2.0
 21
5.763229718930091
 31
0.0
100
AcDbText
1001
GENIUS_GENBLLY_14
1000
BOR3
  0
ENDBLK
  5
4C48
330
4C2D
100
AcDbEntity
  8
0
100
AcDbBlockEnd
  0
BLOCK
  5
4C54
330
4C49
100
AcDbEntity
  8
0
100
AcDbBlockBegin
  2
GENTPOS1
 70
     2
 10
0.0
 20
0.0
 30
0.0
  3
GENTPOS1
  1

  0
LINE
  5
4C4A
330
4C49
100
AcDbEntity
  8
0
100
AcDbLine
 10
-182.8848688369859
 20
0.0000000000000853
 30
0.0
 11
-182.8848688369859
 21
4.500000000000085
 31
0.0
  0
ATTDEF
  5
4C4B
330
4C49
100
AcDbEntity
  8
AM_BOR
 62
     2
100
AcDbText
 10
-158.9507488793445
 20
1.462817121073982
 30
0.0
 40
2.0
  1

100
AcDbAttributeDefinition
  3
(GENMSG "GENDWG" 35)
  2
6GENST{22.7}
 70
     0
1001
GENIUS_GENBLLY_14
1000
BOR3
  0
LINE
  5
4C4C
330
4C49
100
AcDbEntity
  8
AM_BOR
 62
     1
100
AcDbLine
 10
-171.8848688369858
 20
4.500000000000028
 30
0.0
 11
-171.8848688369858
 21
0.0000000000000284
 31
0.0
1001
GENIUS_GENBLLY_14
1000
BOR2
  0
LINE
  5
4C4D
330
4C49
100
AcDbEntity
  8
AM_BOR
 62
     1
100
AcDbLine
 10
-159.8848688369858
 20
4.5
 30
0.0
 11
-159.8848688369858
 21
0.0
 31
0.0
1001
GENIUS_GENBLLY_14
1000
BOR2
  0
ATTDEF
  5
4C4E
330
4C49
100
AcDbEntity
  8
AM_BOR
 62
     2
100
AcDbText
 10
-98.30654456084836
 20
1.462846717870263
 30
0.0
 40
2.0
  1

100
AcDbAttributeDefinition
  3
(GENMSG "GENDWG" 37)
  2
8GENST{27.5}
 70
     0
1001
GENIUS_GENBLLY_14
1000
BOR3
  0
LINE
  5
4C4F
330
4C49
100
AcDbEntity
  8
AM_BOR
 62
     1
100
AcDbLine
 10
-99.16415352220633
 20
4.499999999999985
 30
0.0
 11
-99.16415352220633
 21
0.0
 31
0.0
1001
GENIUS_GENBLLY_14
1000
BOR2
  0
ATTDEF
  5
4C50
330
4C49
100
AcDbEntity
  8
AM_BOR
 62
     2
100
AcDbText
 10
-41.18880055791851
 20
1.453563055486227
 30
0.0
 40
2.0
  1

100
AcDbAttributeDefinition
  3
(GENMSG "GENDWG" 39)
  2
10GENST{20.2}
 70
     0
1001
GENIUS_GENBLLY_14
1000
BOR3
  0
LINE
  5
4C51
330
4C49
100
AcDbEntity
  8
AM_BOR
 62
     1
100
AcDbLine
 10
-42.51312267027481
 20
4.499999999999971
 30
0.0
 11
-42.51312267027481
 21
0.0
 31
0.0
1001
GENIUS_GENBLLY_14
1000
BOR2
  0
LINE
  5
4C52
330
4C49
100
AcDbEntity
  8
0
100
AcDbLine
 10
0.0
 20
4.499999999999957
 30
0.0
 11
0.0
 21
0.0
 31
0.0
  0
LINE
  5
4C53
330
4C49
100
AcDbEntity
  8
AM_BOR
 62
     1
100
AcDbLine
 10
-159.8848688369858
 20
4.5
 30
0.0
 11
0.0
 21
4.50000000000017
 31
0.0
1001
GENIUS_GENBLLY_14
1000
BOR2
  0
ENDBLK
  5
4C55
330
4C49
100
AcDbEntity
  8
0
100
AcDbBlockEnd
  0
BLOCK
  5
4C64
330
4C56
100
AcDbEntity
  8
0
100
AcDbBlockBegin
  2
GENTPOS2
 70
     2
 10
0.0
 20
0.0
 30
0.0
  3
GENTPOS2
  1

  0
ATTDEF
  5
4C57
330
4C56
100
AcDbEntity
  8
AM_BOR
 62
     2
100
AcDbText
 10
-181.9880496049755
 20
-25.67901407093678
 30
0.0
 40
2.0
  1

100
AcDbAttributeDefinition
  3

  2
ITEM
 70
     0
1001
GENIUS_GENBLLY_14
1000
BOR3
  0
ATTDEF
  5
4C58
330
4C56
100
AcDbEntity
  8
AM_BOR
 62
     2
100
AcDbText
 10
-170.9880496049755
 20
-25.67901407093676
 30
0.0
 40
2.0
  1

100
AcDbAttributeDefinition
  3

  2
QTY
 70
     0
1001
GENIUS_GENBLLY_14
1000
BOR3
  0
ATTDEF
  5
4C59
330
4C56
100
AcDbEntity
  8
AM_BOR
 62
     2
100
AcDbText
 10
-158.9880496049755
 20
-25.67901407093678
 30
0.0
 40
2.0
  1

100
AcDbAttributeDefinition
  3
(GENMSG "GENDWG" 36)
  2
5GENST{22.7}
 70
     0
1001
GENIUS_GENBLLY_14
1000
BOR3
  0
ATTDEF
  5
4C5A
330
4C56
100
AcDbEntity
  8
AM_BOR
 62
     2
100
AcDbText
 10
-98.12709024845236
 20
-25.6789844741405
 30
0.0
 40
2.0
  1

100
AcDbAttributeDefinition
  3
(GENMSG "GENDWG" 38)
  2
7GENST{27.5}
 70
     0
1001
GENIUS_GENBLLY_14
1000
BOR3
  0
ATTDEF
  5
4C5B
330
4C56
100
AcDbEntity
  8
AM_BOR
 62
     2
100
AcDbText
 10
-41.3554367051451
 20
-25.48402756407573
 30
0.0
 40
2.0
  1

100
AcDbAttributeDefinition
  3
(GENMSG "GENDWG" 40)
  2
9GENST{20.2}
 70
     0
1001
GENIUS_GENBLLY_14
1000
BOR3
  0
ATTDEF
  5
4C5C
330
4C56
100
AcDbEntity
  8
AM_BOR
 62
     2
100
AcDbText
 10
-2.000000000000113
 20
-25.54643694451361
 30
0.0
 40
2.0
  1

 72
     2
 11
-2.000000000000113
 21
-25.54643694451361
 31
0.0
100
AcDbAttributeDefinition
  3

  2
DIM
 70
     0
1001
GENIUS_GENBLLY_14
1000
BOR3
  0
LINE
  5
4C5D
330
4C56
100
AcDbEntity
  8
AM_BOR
 62
     1
100
AcDbLine
 10
-182.8848688369859
 20
-22.49999999999984
 30
0.0
 11
-0.0000000000001137
 21
-22.49999999999984
 31
0.0
1001
GENIUS_GENBLLY_14
1000
BOR2
  0
LINE
  5
4C5E
330
4C56
100
AcDbEntity
  8
0
100
AcDbLine
 10
-182.8848688369859
 20
-26.99999999999984
 30
0.0
 11
-182.8848688369859
 21
-22.49999999999984
 31
0.0
  0
LINE
  5
4C5F
330
4C56
100
AcDbEntity
  8
AM_BOR
 62
     1
100
AcDbLine
 10
-171.8848688369859
 20
-22.4999999999998
 30
0.0
 11
-171.8848688369859
 21
-26.9999999999998
 31
0.0
1001
GENIUS_GENBLLY_14
1000
BOR2
  0
LINE
  5
4C60
330
4C56
100
AcDbEntity
  8
AM_BOR
 62
     1
100
AcDbLine
 10
-159.8848688369859
 20
-22.49999999999984
 30
0.0
 11
-159.8848688369859
 21
-26.99999999999984
 31
0.0
1001
GENIUS_GENBLLY_14
1000
BOR2
  0
LINE
  5
4C61
330
4C56
100
AcDbEntity
  8
AM_BOR
 62
     1
100
AcDbLine
 10
-99.16415352220639
 20
-22.49999999999985
 30
0.0
 11
-99.16415352220639
 21
-26.99999999999984
 31
0.0
1001
GENIUS_GENBLLY_14
1000
BOR2
  0
LINE
  5
4C62
330
4C56
100
AcDbEntity
  8
AM_BOR
 62
     1
100
AcDbLine
 10
-42.51312267027486
 20
-22.49999999999987
 30
0.0
 11
-42.51312267027486
 21
-26.99999999999984
 31
0.0
1001
GENIUS_GENBLLY_14
1000
BOR2
  0
LINE
  5
4C63
330
4C56
100
AcDbEntity
  8
0
100
AcDbLine
 10
-0.0000000000000568
 20
-22.49999999999988
 30
0.0
 11
-0.0000000000000568
 21
-26.99999999999984
 31
0.0
  0
ENDBLK
  5
4C65
330
4C56
100
AcDbEntity
  8
0
100
AcDbBlockEnd
  0
BLOCK
  5
4C79
330
4C66
100
AcDbEntity
  8
0
100
AcDbBlockBegin
  2
GENTPOS
 70
     2
 10
0.0
 20
0.0
 30
0.0
  3
GENTPOS
  1

  0
ATTDEF
  5
4C67
330
4C66
100
AcDbEntity
  8
0
100
AcDbText
 10
0.0
 20
9.0
 30
0.0
 40
2.5
  1
4
100
AcDbAttributeDefinition
  3

  2
_ALWAYS
 70
     3
  0
INSERT
  5
4C68
330
4C66
100
AcDbEntity
  8
0
100
AcDbBlockReference
  2
GENTPOS0
 10
0.0
 20
0.0
 30
0.0
  0
INSERT
  5
4C69
330
4C66
100
AcDbEntity
  8
0
100
AcDbBlockReference
 66
     1
  2
GENTPOS1
 10
0.0000000000000015
 20
9.0
 30
0.0
  0
ATTRIB
  5
4C6A
330
4C69
100
AcDbEntity
  8
AM_BOR
 62
     2
100
AcDbText
 10
-42.51312267027481
 20
9.0
 30
0.0
 40
2.0
  1

100
AcDbAttribute
  2
3GENST{6.3}
 70
     0
1001
GENIUS_GENBLLY_14
1000
BOR3
  0
ATTRIB
  5
4C6B
330
4C69
100
AcDbEntity
  8
AM_BOR
 62
     2
100
AcDbText
 10
-99.16415352220633
 20
9.000000000000028
 30
0.0
 40
2.0
  1

100
AcDbAttribute
  2
1GENST{7.6}
 70
     0
1001
GENIUS_GENBLLY_14
1000
BOR3
  0
ATTRIB
  5
4C6C
330
4C69
100
AcDbEntity
  8
AM_BOR
 62
     2
100
AcDbText
 10
-145.5207488793445
 20
10.46281712107398
 30
0.0
 40
2.0
  1

100
AcDbAttribute
  2
5GENST{22.7}
 70
     0
1001
GENIUS_GENBLLY_14
1000
BOR3
  0
ATTRIB
  5
4C6D
330
4C69
100
AcDbEntity
  8
AM_BOR
 62
     2
100
AcDbText
 10
-146.4548688369858
 20
9.0
 30
0.0
 40
2.0
  1

100
AcDbAttribute
  2
2GENST{5.3}
 70
     0
1001
GENIUS_GENBLLY_14
1000
BOR3
  0
ATTRIB
  5
4C6E
330
4C69
100
AcDbEntity
  8
AM_BOR
 62
     2
100
AcDbText
 10
-98.30654456084836
 20
10.46284671787026
 30
0.0
 40
2.0
  1

100
AcDbAttribute
  2
7GENST{27.5}
 70
     0
1001
GENIUS_GENBLLY_14
1000
BOR3
  0
ATTRIB
  5
4C6F
330
4C69
100
AcDbEntity
  8
AM_BOR
 62
     2
100
AcDbText
 10
-41.18880055791851
 20
10.45356305548622
 30
0.0
 40
2.0
  1

100
AcDbAttribute
  2
9GENST{20.2}
 70
     0
1001
GENIUS_GENBLLY_14
1000
BOR3
  0
SEQEND
  5
4C70
330
4C69
100
AcDbEntity
  8
0
  0
INSERT
  5
4C71
330
4C66
100
AcDbEntity
  8
0
100
AcDbBlockReference
 66
     1
  2
GENTPOS2
 10
0.0000000000000583
 20
40.50000000000001
 30
0.0
  0
ATTRIB
  5
4C72
330
4C71
100
AcDbEntity
  8
AM_BOR
 62
     2
100
AcDbText
 10
-181.9880496049754
 20
14.82098592906322
 30
0.0
 40
2.0
  1

100
AcDbAttribute
  2
ITEM
 70
     0
  0
ATTRIB
  5
4C73
330
4C71
100
AcDbEntity
  8
AM_BOR
 62
     2
100
AcDbText
 10
-170.9880496049754
 20
14.82098592906326
 30
0.0
 40
2.0
  1

100
AcDbAttribute
  2
QTY
 70
     0
  0
ATTRIB
  5
4C74
330
4C71
100
AcDbEntity
  8
AM_BOR
 62
     2
100
AcDbText
 10
-158.9880496049754
 20
14.82098592906322
 30
0.0
 40
2.0
  1

100
AcDbAttribute
  2
5GENST{22.7}
 70
     0
  0
ATTRIB
  5
4C75
330
4C71
100
AcDbEntity
  8
AM_BOR
 62
     2
100
AcDbText
 10
-98.12709024845231
 20
14.8210155258595
 30
0.0
 40
2.0
  1

100
AcDbAttribute
  2
7GENST{27.5}
 70
     0
  0
ATTRIB
  5
4C76
330
4C71
100
AcDbEntity
  8
AM_BOR
 62
     2
100
AcDbText
 10
-41.35543670514505
 20
15.01597243592428
 30
0.0
 40
2.0
  1

100
AcDbAttribute
  2
9GENST{20.2}
 70
     0
  0
ATTRIB
  5
4C77
330
4C71
100
AcDbEntity
  8
AM_BOR
 62
     2
100
AcDbText
 10
-2.000000000000055
 20
14.95356305548639
 30
0.0
 40
2.0
  1

 72
     2
 11
-2.000000000000055
 21
14.95356305548639
 31
0.0
100
AcDbAttribute
  2
DIM
 70
     0
  0
SEQEND
  5
4C78
330
4C71
100
AcDbEntity
  8
0
  0
ENDBLK
  5
4C7A
330
4C66
100
AcDbEntity
  8
0
100
AcDbBlockEnd
  0
BLOCK
  5
4C8F
330
4C8D
100
AcDbEntity
  8
0
100
AcDbBlockBegin
  2
GENAXEH
 70
     0
 10
0.0
 20
0.0
 30
0.0
  3
GENAXEH
  1

  0
LINE
  5
4C8E
330
4C8D
100
AcDbEntity
  8
0
100
AcDbLine
 10
-1.0
 20
0.0
 30
0.0
 11
1.0
 21
0.0
 31
0.0
  0
ENDBLK
  5
4C90
330
4C8D
100
AcDbEntity
  8
0
100
AcDbBlockEnd
  0
ENDSEC
  0
SECTION
  2
ENTITIES
  0
LINE
  5
2855
330
18
100
AcDbEntity
  8
MSL-115-R32-R-0
 48
2.0
100
AcDbLine
 10
1055.954748496209
 20
649.6514240808498
 30
0.0
 11
835.9547484962094
 21
649.6514240808505
 31
0.0
  0
LINE
  5
2856
330
18
100
AcDbEntity
  8
MSL-115-R32-R-0
 48
2.0
100
AcDbLine
 10
1055.954748496209
 20
784.1514240808501
 30
0.0
 11
835.9547484962094
 21
784.1514240808505
 31
0.0
  0
LINE
  5
2857
330
18
100
AcDbEntity
  8
MSL-115-R32-R-0
 48
2.0
100
AcDbLine
 10
835.9547484962094
 20
784.6514240808505
 30
0.0
 11
1055.954748496209
 21
784.6514240808501
 31
0.0
  0
LINE
  5
2858
330
18
100
AcDbEntity
  8
MSL-115-R32-R-0
 48
2.0
100
AcDbLine
 10
835.9547484962094
 20
704.6514240808505
 30
0.0
 11
1055.954748496209
 21
704.6514240808501
 31
0.0
  0
LINE
  5
2859
330
18
100
AcDbEntity
  8
MSL-115-R32-R-0
 48
2.0
100
AcDbLine
 10
1055.954748496209
 20
729.6514240808501
 30
0.0
 11
835.9547484962094
 21
729.6514240808505
 31
0.0
  0
LINE
  5
285A
330
18
100
AcDbEntity
  8
MSL-115-R32-R-0
 48
2.0
100
AcDbLine
 10
835.9547484962094
 20
650.1514240808505
 30
0.0
 11
1055.954748496209
 21
650.1514240808498
 31
0.0
  0
CIRCLE
  5
285D
330
18
100
AcDbEntity
  8
MSL-115-R32-R-0
 48
2.0
100
AcDbCircle
 10
858.4547484962095
 20
918.7706313801813
 30
0.0
 40
3.75
  0
CIRCLE
  5
285E
330
18
100
AcDbEntity
  8
MSL-115-R32-R-0
 48
2.0
100
AcDbCircle
 10
858.4547484962095
 20
918.7706313801813
 30
0.0
 40
3.000000000000002
  0
CIRCLE
  5
285F
330
18
100
AcDbEntity
  8
MSL-115-R32-R-0
 48
2.0
100
AcDbCircle
 10
858.4547484962095
 20
918.7706313801813
 30
0.0
 40
4.0
  0
CIRCLE
  5
2860
330
18
100
AcDbEntity
  8
MSL-115-R32-R-0
 48
2.0
100
AcDbCircle
 10
858.4547484962095
 20
918.7706313801813
 30
0.0
 40
1.60432736353769
  0
CIRCLE
  5
2861
330
18
100
AcDbEntity
  8
MSL-115-R32-R-0
 48
2.0
100
AcDbCircle
 10
858.4547484962095
 20
906.7706313801812
 30
0.0
 40
1.500000000000001
  0
LINE
  5
2862
330
18
100
AcDbEntity
  8
MSL-115-R32-R-0
 48
2.0
100
AcDbLine
 10
835.9547484962094
 20
893.7706313801813
 30
0.0
 11
880.9547484962095
 21
893.7706313801813
 31
0.0
  0
CIRCLE
  5
2863
330
18
100
AcDbEntity
  8
MSL-115-R32-R-0
 48
2.0
100
AcDbCircle
 10
858.4547484962095
 20
918.7706313801813
 30
0.0
 40
4.099999999999999
  0
LINE
  5
2864
330
18
100
AcDbEntity
  8
MSL-115-R32-R-0
 48
2.0
100
AcDbLine
 10
1055.954748496209
 20
927.7706313801813
 30
0.0
 11
835.9547484962094
 21
927.7706313801813
 31
0.0
  0
LINE
  5
2865
330
18
100
AcDbEntity
  8
MSL-115-R32-R-0
 48
2.0
100
AcDbLine
 10
1055.954748496209
 20
939.7706313801812
 30
0.0
 11
835.9547484962094
 21
939.7706313801812
 31
0.0
  0
LINE
  5
2866
330
18
100
AcDbEntity
  8
MSL-115-R32-R-0
 48
2.0
100
AcDbLine
 10
835.9547484962094
 20
940.2706313801813
 30
0.0
 11
1055.954748496209
 21
940.2706313801813
 31
0.0
  0
LINE
  5
2867
330
18
100
AcDbEntity
  8
MSL-115-R32-R-0
 48
2.0
100
AcDbLine
 10
828.4547484962095
 20
891.7706313801813
 30
0.0
 11
1163.454748496209
 21
891.7706313801813
 31
0.0
  0
LINE
  5
2868
330
18
100
AcDbEntity
  8
MSL-115-R32-R-0
 48
2.0
100
AcDbLine
 10
828.4547484962095
 20
841.7661663801812
 30
0.0
 11
1163.454748496209
 21
841.7661663801812
 31
0.0
  0
LINE
  5
2869
330
18
100
AcDbEntity
  8
MSL-115-R32-R-0
 48
2.0
100
AcDbLine
 10
1163.454748496209
 20
887.2706313801812
 30
0.0
 11
828.4547484962095
 21
887.2706313801812
 31
0.0
  0
LINE
  5
286A
330
18
100
AcDbEntity
  8
MSL-115-R32-R-0
 48
2.0
100
AcDbLine
 10
1163.454748496209
 20
825.2706313801812
 30
0.0
 11
828.4547484962095
 21
825.2706313801812
 31
0.0
  0
LINE
  5
286B
330
18
100
AcDbEntity
  8
MSL-115-R32-R-0
 48
2.0
100
AcDbLine
 10
801.4547484962095
 20
656.6514240808506
 30
0.0
 11
801.4547484962095
 21
777.6514240808506
 31
0.0
  0
LINE
  5
286C
330
18
100
AcDbEntity
  8
MSL-115-R32-R-0
 48
2.0
100
AcDbLine
 10
781.4547484962095
 20
656.6514240808506
 30
0.0
 11
781.4547484962095
 21
777.6514240808506
 31
0.0
  0
LINE
  5
286D
330
18
100
AcDbEntity
  8
MSL-115-R32-R-0
 48
2.0
100
AcDbLine
 10
753.4547484962095
 20
779.6514240808505
 30
0.0
 11
753.4547484962095
 21
654.6514240808503
 31
0.0
  0
LINE
  5
286E
330
18
100
AcDbEntity
  8
MSL-115-R32-R-0
 48
2.0
100
AcDbLine
 10
827.9547484962094
 20
783.1514240808505
 30
0.0
 11
827.9547484962094
 21
651.1514240808505
 31
0.0
  0
LINE
  5
286F
330
18
100
AcDbEntity
  8
MSL-115-R32-R-0
 48
2.0
100
AcDbLine
 10
835.9547484962094
 20
727.1514240808506
 30
0.0
 11
835.9547484962094
 21
784.1514240808505
 31
0.0
  0
LINE
  5
2870
330
18
100
AcDbEntity
  8
MSL-115-R32-R-0
 48
2.0
100
AcDbLine
 10
835.9547484962094
 20
650.1514240808505
 30
0.0
 11
835.9547484962094
 21
707.1514240808506
 31
0.0
  0
LINE
  5
2871
330
18
100
AcDbEntity
  8
MSL-115-R32-R-0
 48
2.0
100
AcDbLine
 10
753.4547484962095
 20
654.6514240808503
 30
0.0
 11
781.4547484962095
 21
654.6514240808503
 31
0.0
  0
LINE
  5
2872
330
18
100
AcDbEntity
  8
MSL-115-R32-R-0
 48
2.0
100
AcDbLine
 10
801.4547484962095
 20
654.6514240808503
 30
0.0
 11
827.9547484962094
 21
654.6514240808503
 31
0.0
  0
LINE
  5
2873
330
18
100
AcDbEntity
  8
MSL-115-R32-R-0
 48
2.0
100
AcDbLine
 10
781.4547484962095
 20
656.6514240808506
 30
0.0
 11
801.4547484962095
 21
656.6514240808506
 31
0.0
  0
LINE
  5
2874
330
18
100
AcDbEntity
  8
MSL-115-R32-R-0
 48
2.0
100
AcDbLine
 10
801.4547484962095
 20
654.6514240808505
 30
0.0
 11
781.4547484962095
 21
654.6514240808505
 31
0.0
  0
LINE
  5
2875
330
18
100
AcDbEntity
  8
MSL-115-R32-R-0
 48
2.0
100
AcDbLine
 10
781.4547484962095
 20
654.6514240808505
 30
0.0
 11
781.4547484962095
 21
656.6514240808506
 31
0.0
  0
LINE
  5
2876
330
18
100
AcDbEntity
  8
MSL-115-R32-R-0
 48
2.0
100
AcDbLine
 10
801.4547484962095
 20
656.6514240808506
 30
0.0
 11
801.4547484962095
 21
654.6514240808505
 31
0.0
  0
LINE
  5
2877
330
18
100
AcDbEntity
  8
MSL-115-R32-R-0
 48
2.0
100
AcDbLine
 10
827.9547484962094
 20
651.1514240808505
 30
0.0
 11
835.9547484962094
 21
651.1514240808505
 31
0.0
  0
LINE
  5
2878
330
18
100
AcDbEntity
  8
MSL-115-R32-R-0
 48
2.0
100
AcDbLine
 10
835.9547484962094
 20
650.1514240808505
 30
0.0
 11
827.9547484962094
 21
650.1514240808505
 31
0.0
  0
LINE
  5
2879
330
18
100
AcDbEntity
  8
MSL-115-R32-R-0
 48
2.0
100
AcDbLine
 10
827.9547484962094
 20
650.1514240808505
 30
0.0
 11
827.9547484962094
 21
651.1514240808505
 31
0.0
  0
LINE
  5
287A
330
18
100
AcDbEntity
  8
MSL-115-R32-R-0
 48
2.0
100
AcDbLine
 10
835.9547484962094
 20
649.6514240808505
 30
0.0
 11
835.9547484962094
 21
650.1514240808505
 31
0.0
  0
ARC
  5
287B
330
18
100
AcDbEntity
  8
MSL-115-R32-R-0
 48
2.0
100
AcDbCircle
 10
800.7659236612637
 20
717.9148389455689
 30
0.0
 40
48.76341486471868
100
AcDbArc
 50
270.8093786832719
 51
296.4059969254291
  0
ARC
  5
287C
330
18
100
AcDbEntity
  8
MSL-115-R32-R-0
 48
2.0
100
AcDbCircle
 10
800.7659236612637
 20
640.3880092161316
 30
0.0
 40
48.76341486471867
100
AcDbArc
 50
63.59400307457086
 51
89.19062131672806
  0
LINE
  5
287D
330
18
100
AcDbEntity
  8
MSL-115-R32-R-0
 48
2.0
100
AcDbLine
 10
790.0113728232354
 20
684.6514240808505
 30
0.0
 11
792.8981241691835
 21
684.6514240808505
 31
0.0
  0
CIRCLE
  5
287E
330
18
100
AcDbEntity
  8
MSL-115-R32-R-0
 48
2.0
100
AcDbCircle
 10
791.4547484962095
 20
687.1514240808505
 30
0.0
 40
5.0
  0
LINE
  5
287F
330
18
100
AcDbEntity
  8
MSL-115-R32-R-0
 48
2.0
100
AcDbLine
 10
792.8981241691835
 20
689.6514240808506
 30
0.0
 11
790.0113728232354
 21
689.6514240808506
 31
0.0
  0
CIRCLE
  5
2880
330
18
100
AcDbEntity
  8
MSL-115-R32-R-0
 48
2.0
100
AcDbCircle
 10
791.4547484962095
 20
687.1514240808505
 30
0.0
 40
5.5
  0
LINE
  5
2881
330
18
100
AcDbEntity
  8
MSL-115-R32-R-0
 48
2.0
100
AcDbLine
 10
790.0113728232354
 20
689.6514240808506
 30
0.0
 11
788.5679971502614
 21
687.1514240808505
 31
0.0
  0
LINE
  5
2882
330
18
100
AcDbEntity
  8
MSL-115-R32-R-0
 48
2.0
100
AcDbLine
 10
788.5679971502614
 20
687.1514240808505
 30
0.0
 11
790.0113728232354
 21
684.6514240808505
 31
0.0
  0
LINE
  5
2883
330
18
100
AcDbEntity
  8
MSL-115-R32-R-0
 48
2.0
100
AcDbLine
 10
794.3414998421576
 20
687.1514240808505
 30
0.0
 11
792.8981241691835
 21
689.6514240808506
 31
0.0
  0
LINE
  5
2884
330
18
100
AcDbEntity
  8
MSL-115-R32-R-0
 48
2.0
100
AcDbLine
 10
792.8981241691835
 20
684.6514240808505
 30
0.0
 11
794.3414998421576
 21
687.1514240808505
 31
0.0
  0
LINE
  5
2885
330
18
100
AcDbEntity
  8
MSL-115-R32-R-0
 48
2.0
100
AcDbLine
 10
822.4524248504286
 20
684.0637037777642
 30
0.0
 11
822.4524248504286
 21
674.2391443839364
 31
0.0
  0
ARC
  5
2886
330
18
100
AcDbEntity
  8
MSL-115-R32-R-0
 48
2.0
100
AcDbCircle
 10
819.9349506654021
 20
679.1514240808504
 30
0.0
 40
5.519797830807495
100
AcDbArc
 50
297.1345007562882
 51
62.86549924371168
  0
ARC
  5
2887
330
18
100
AcDbEntity
  8
MSL-115-R32-R-0
 48
2.0
100
AcDbCircle
 10
800.7659236612637
 20
678.3880092161317
 30
0.0
 40
48.76341486471867
100
AcDbArc
 50
63.59400307457086
 51
89.19062131672806
  0
ARC
  5
2888
330
18
100
AcDbEntity
  8
MSL-115-R32-R-0
 48
2.0
100
AcDbCircle
 10
800.7659236612637
 20
755.9148389455692
 30
0.0
 40
48.76341486471868
100
AcDbArc
 50
270.8093786832719
 51
296.4059969254291
  0
LINE
  5
2889
330
18
100
AcDbEntity
  8
MSL-115-R32-R-0
 48
2.0
100
AcDbLine
 10
822.4524248504286
 20
722.0637037777642
 30
0.0
 11
822.4524248504286
 21
712.2391443839364
 31
0.0
  0
ARC
  5
288A
330
18
100
AcDbEntity
  8
MSL-115-R32-R-0
 48
2.0
100
AcDbCircle
 10
819.9349506654021
 20
717.1514240808504
 30
0.0
 40
5.519797830807496
100
AcDbArc
 50
297.1345007562882
 51
62.86549924371168
  0
LINE
  5
288B
330
18
100
AcDbEntity
  8
MSL-115-R32-R-0
 48
2.0
100
AcDbLine
 10
835.9547484962094
 20
727.1514240808506
 30
0.0
 11
835.9547484962094
 21
707.1514240808506
 31
0.0
  0
LINE
  5
288C
330
18
100
AcDbEntity
  8
MSL-115-R32-R-0
 48
2.0
100
AcDbLine
 10
835.9547484962094
 20
707.1514240808506
 30
0.0
 11
835.9547484962094
 21
727.1514240808506
 31
0.0
  0
LINE
  5
288D
330
18
100
AcDbEntity
  8
MSL-115-R32-R-7A
 48
3.0
100
AcDbLine
 10
795.9547484962095
 20
885.2706313801812
 30
0.0
 11
795.9547484962095
 21
839.2706313801813
 31
0.0
  0
ARC
  5
288E
330
18
100
AcDbEntity
  8
MSL-115-R32-R-0
 48
2.0
100
AcDbCircle
 10
795.9547484962095
 20
862.2706313801812
 30
0.0
 40
9.5
100
AcDbArc
 50
108.4084801705832
 51
71.59151982941667
  0
CIRCLE
  5
288F
330
18
100
AcDbEntity
  8
MSL-115-R32-R-0
 48
2.0
100
AcDbCircle
 10
795.9547484962095
 20
862.2706313801812
 30
0.0
 40
21.0
  0
LINE
  5
2890
330
18
100
AcDbEntity
  8
MSL-115-R32-R-0
 48
2.0
100
AcDbLine
 10
753.4547484962095
 20
917.7706313801813
 30
0.0
 11
753.4547484962095
 21
825.7706313801813
 31
0.0
  0
LINE
  5
2891
330
18
100
AcDbEntity
  8
MSL-115-R32-R-0
 48
2.0
100
AcDbLine
 10
828.4547484962095
 20
917.7706313801813
 30
0.0
 11
828.4547484962095
 21
825.7706313801813
 31
0.0
  0
LINE
  5
2892
330
18
100
AcDbEntity
  8
MSL-115-R32-R-0
 48
2.0
100
AcDbLine
 10
753.4547484962095
 20
779.6514240808505
 30
0.0
 11
781.4547484962095
 21
779.6514240808505
 31
0.0
  0
ARC
  5
2893
330
18
100
AcDbEntity
  8
MSL-115-R32-R-0
 48
2.0
100
AcDbCircle
 10
800.7659236612637
 20
793.9148389455689
 30
0.0
 40
48.76341486471868
100
AcDbArc
 50
270.8093786832719
 51
296.4059969254291
  0
ARC
  5
2894
330
18
100
AcDbEntity
  8
MSL-115-R32-R-0
 48
2.0
100
AcDbCircle
 10
800.7659236612637
 20
716.3880092161317
 30
0.0
 40
48.76341486471867
100
AcDbArc
 50
63.59400307457086
 51
89.19062131672806
  0
LINE
  5
2895
330
18
100
AcDbEntity
  8
MSL-115-R32-R-0
 48
2.0
100
AcDbLine
 10
794.3414998421576
 20
747.1514240808505
 30
0.0
 11
792.8981241691835
 21
749.6514240808505
 31
0.0
  0
LINE
  5
2896
330
18
100
AcDbEntity
  8
MSL-115-R32-R-0
 48
2.0
100
AcDbLine
 10
790.0113728232354
 20
749.6514240808505
 30
0.0
 11
788.5679971502614
 21
747.1514240808505
 31
0.0
  0
CIRCLE
  5
2897
330
18
100
AcDbEntity
  8
MSL-115-R32-R-0
 48
2.0
100
AcDbCircle
 10
791.4547484962095
 20
747.1514240808504
 30
0.0
 40
5.0
  0
CIRCLE
  5
2898
330
18
100
AcDbEntity
  8
MSL-115-R32-R-0
 48
2.0
100
AcDbCircle
 10
791.4547484962095
 20
747.1514240808504
 30
0.0
 40
5.5
  0
LINE
  5
2899
330
18
100
AcDbEntity
  8
MSL-115-R32-R-0
 48
2.0
100
AcDbLine
 10
790.0113728232354
 20
744.6514240808506
 30
0.0
 11
792.8981241691835
 21
744.6514240808506
 31
0.0
  0
LINE
  5
289A
330
18
100
AcDbEntity
  8
MSL-115-R32-R-0
 48
2.0
100
AcDbLine
 10
788.5679971502614
 20
747.1514240808505
 30
0.0
 11
790.0113728232354
 21
744.6514240808506
 31
0.0
  0
LINE
  5
289B
330
18
100
AcDbEntity
  8
MSL-115-R32-R-0
 48
2.0
100
AcDbLine
 10
792.8981241691835
 20
744.6514240808506
 30
0.0
 11
794.3414998421576
 21
747.1514240808505
 31
0.0
  0
LINE
  5
289C
330
18
100
AcDbEntity
  8
MSL-115-R32-R-0
 48
2.0
100
AcDbLine
 10
792.8981241691835
 20
749.6514240808505
 30
0.0
 11
790.0113728232354
 21
749.6514240808505
 31
0.0
  0
ARC
  5
289D
330
18
100
AcDbEntity
  8
MSL-115-R32-R-0
 48
2.0
100
AcDbCircle
 10
819.9349506654021
 20
755.1514240808504
 30
0.0
 40
5.519797830807496
100
AcDbArc
 50
297.1345007562882
 51
62.86549924371168
  0
LINE
  5
289E
330
18
100
AcDbEntity
  8
MSL-115-R32-R-0
 48
2.0
100
AcDbLine
 10
822.4524248504286
 20
760.0637037777642
 30
0.0
 11
822.4524248504286
 21
750.2391443839364
 31
0.0
  0
LINE
  5
289F
330
18
100
AcDbEntity
  8
MSL-115-R32-R-0
 48
2.0
100
AcDbLine
 10
801.4547484962095
 20
779.6514240808505
 30
0.0
 11
827.9547484962094
 21
779.6514240808505
 31
0.0
  0
LINE
  5
28A0
330
18
100
AcDbEntity
  8
MSL-115-R32-R-0
 48
2.0
100
AcDbLine
 10
801.4547484962095
 20
777.6514240808506
 30
0.0
 11
781.4547484962095
 21
777.6514240808506
 31
0.0
  0
LINE
  5
28A1
330
18
100
AcDbEntity
  8
MSL-115-R32-R-0
 48
2.0
100
AcDbLine
 10
781.4547484962095
 20
779.6514240808505
 30
0.0
 11
801.4547484962095
 21
779.6514240808505
 31
0.0
  0
LINE
  5
28A2
330
18
100
AcDbEntity
  8
MSL-115-R32-R-0
 48
2.0
100
AcDbLine
 10
781.4547484962095
 20
777.6514240808506
 30
0.0
 11
781.4547484962095
 21
779.6514240808505
 31
0.0
  0
LINE
  5
28A3
330
18
100
AcDbEntity
  8
MSL-115-R32-R-0
 48
2.0
100
AcDbLine
 10
801.4547484962095
 20
779.6514240808505
 30
0.0
 11
801.4547484962095
 21
777.6514240808503
 31
0.0
  0
LINE
  5
28A4
330
18
100
AcDbEntity
  8
MSL-115-R32-R-0
 48
2.0
100
AcDbLine
 10
827.9547484962094
 20
784.1514240808505
 30
0.0
 11
835.9547484962094
 21
784.1514240808505
 31
0.0
  0
LINE
  5
28A5
330
18
100
AcDbEntity
  8
MSL-115-R32-R-0
 48
2.0
100
AcDbLine
 10
835.9547484962094
 20
783.1514240808505
 30
0.0
 11
827.9547484962094
 21
783.1514240808505
 31
0.0
  0
LINE
  5
28A6
330
18
100
AcDbEntity
  8
MSL-115-R32-R-0
 48
2.0
100
AcDbLine
 10
827.9547484962094
 20
783.1514240808505
 30
0.0
 11
827.9547484962094
 21
784.1514240808505
 31
0.0
  0
LINE
  5
28A7
330
18
100
AcDbEntity
  8
MSL-115-R32-R-0
 48
2.0
100
AcDbLine
 10
835.9547484962094
 20
784.1514240808505
 30
0.0
 11
835.9547484962094
 21
784.6514240808505
 31
0.0
  0
LINE
  5
28A8
330
18
100
AcDbEntity
  8
MSL-115-R32-R-7A
 48
3.0
100
AcDbLine
 10
764.9547484962095
 20
837.270631380181
 30
0.0
 11
776.9547484962095
 21
837.270631380181
 31
0.0
  0
ARC
  5
28A9
330
18
100
AcDbEntity
  8
MSL-115-R32-R-5
 48
2.0
100
AcDbCircle
 10
770.9547484962095
 20
837.2706313801812
 30
0.0
 40
4.0
100
AcDbArc
 50
255.0000000000055
 51
195.0000000000007
  0
LINE
  5
28AA
330
18
100
AcDbEntity
  8
MSL-115-R32-R-0
 48
2.0
100
AcDbLine
 10
753.4547484962095
 20
825.7706313801813
 30
0.0
 11
828.4547484962095
 21
825.7706313801813
 31
0.0
  0
CIRCLE
  5
28AB
330
18
100
AcDbEntity
  8
MSL-115-R32-R-0
 48
2.0
100
AcDbCircle
 10
770.9547484962095
 20
837.2706313801812
 30
0.0
 40
3.399999999999999
  0
LINE
  5
28AC
330
18
100
AcDbEntity
  8
MSL-115-R32-R-7A
 48
3.0
100
AcDbLine
 10
770.9547484962095
 20
843.270631380181
 30
0.0
 11
770.9547484962095
 21
831.2706313801809
 31
0.0
  0
LINE
  5
28AD
330
18
100
AcDbEntity
  8
MSL-115-R32-R-7A
 48
3.0
100
AcDbLine
 10
820.9547484962095
 20
843.270631380181
 30
0.0
 11
820.9547484962095
 21
831.2706313801809
 31
0.0
  0
LINE
  5
28AE
330
18
100
AcDbEntity
  8
MSL-115-R32-R-0
 48
2.0
100
AcDbLine
 10
828.4547484962095
 20
825.2706313801812
 30
0.0
 11
828.4547484962095
 21
841.5661663801815
 31
0.0
  0
LINE
  5
28AF
330
18
100
AcDbEntity
  8
MSL-115-R32-R-7A
 48
3.0
100
AcDbLine
 10
814.9547484962095
 20
837.270631380181
 30
0.0
 11
826.9547484962094
 21
837.270631380181
 31
0.0
  0
ARC
  5
28B0
330
18
100
AcDbEntity
  8
MSL-115-R32-R-5
 48
2.0
100
AcDbCircle
 10
820.9547484962095
 20
837.2706313801812
 30
0.0
 40
4.0
100
AcDbArc
 50
255.0000000000055
 51
195.0000000000007
  0
CIRCLE
  5
28B1
330
18
100
AcDbEntity
  8
MSL-115-R32-R-0
 48
2.0
100
AcDbCircle
 10
820.9547484962095
 20
837.2706313801812
 30
0.0
 40
3.399999999999999
  0
ARC
  5
28B2
330
18
100
AcDbEntity
  8
MSL-115-R32-R-0
 48
2.0
100
AcDbCircle
 10
819.9349506654021
 20
928.2706313801812
 30
0.0
 40
5.519797830807495
100
AcDbArc
 50
0.0
 51
62.86549924371168
  0
LINE
  5
28B3
330
18
100
AcDbEntity
  8
MSL-115-R32-R-0
 48
2.0
100
AcDbLine
 10
822.4524248504286
 20
933.1829110770948
 30
0.0
 11
822.4524248504286
 21
923.3583516832672
 31
0.0
  0
LINE
  5
28B4
330
18
100
AcDbEntity
  8
MSL-115-R32-R-0
 48
2.0
100
AcDbLine
 10
801.4547484962095
 20
917.7706313801813
 30
0.0
 11
801.4547484962095
 21
936.7706313801813
 31
0.0
  0
LINE
  5
28B5
330
18
100
AcDbEntity
  8
MSL-115-R32-R-0
 48
2.0
100
AcDbLine
 10
781.4547484962095
 20
917.7706313801813
 30
0.0
 11
781.4547484962095
 21
936.7706313801813
 31
0.0
  0
LINE
  5
28B6
330
18
100
AcDbEntity
  8
MSL-115-R32-R-0
 48
2.0
100
AcDbLine
 10
827.9547484962094
 20
938.7706313801812
 30
0.0
 11
827.9547484962094
 21
920.7706313801812
 31
0.0
  0
LINE
  5
28B7
330
18
100
AcDbEntity
  8
MSL-115-R32-R-0
 48
2.0
100
AcDbLine
 10
835.9547484962094
 20
939.7706313801812
 30
0.0
 11
835.9547484962094
 21
927.7706313801813
 31
0.0
  0
LINE
  5
28B8
330
18
100
AcDbEntity
  8
MSL-115-R32-R-7A
 48
3.0
100
AcDbLine
 10
764.9547484962095
 20
887.2706313801812
 30
0.0
 11
776.9547484962095
 21
887.2706313801812
 31
0.0
  0
ARC
  5
28B9
330
18
100
AcDbEntity
  8
MSL-115-R32-R-5
 48
2.0
100
AcDbCircle
 10
770.9547484962095
 20
887.2706313801812
 30
0.0
 40
4.0
100
AcDbArc
 50
255.0000000000055
 51
195.0000000000007
  0
LINE
  5
28BA
330
18
100
AcDbEntity
  8
MSL-115-R32-R-0
 48
2.0
100
AcDbLine
 10
753.4547484962095
 20
917.7706313801813
 30
0.0
 11
828.4547484962095
 21
917.7706313801813
 31
0.0
  0
CIRCLE
  5
28BB
330
18
100
AcDbEntity
  8
MSL-115-R32-R-0
 48
2.0
100
AcDbCircle
 10
770.9547484962095
 20
887.2706313801812
 30
0.0
 40
3.399999999999999
  0
LINE
  5
28BC
330
18
100
AcDbEntity
  8
MSL-115-R32-R-0
 48
2.0
100
AcDbLine
 10
835.9547484962094
 20
893.7706313801813
 30
0.0
 11
835.9547484962094
 21
927.7706313801813
 31
0.0
  0
LINE
  5
28BD
330
18
100
AcDbEntity
  8
MSL-115-R32-R-7A
 48
3.0
100
AcDbLine
 10
772.9547484962095
 20
862.2706313801812
 30
0.0
 11
818.9547484962094
 21
862.2706313801812
 31
0.0
  0
LINE
  5
28BE
330
18
100
AcDbEntity
  8
MSL-115-R32-R-0
 48
2.0
100
AcDbLine
 10
798.9547484962095
 20
874.5706313801809
 30
0.0
 11
798.9547484962095
 21
871.2845095688411
 31
0.0
  0
LINE
  5
28BF
330
18
100
AcDbEntity
  8
MSL-115-R32-R-0
 48
2.0
100
AcDbLine
 10
792.9547484962094
 20
874.5706313801809
 30
0.0
 11
798.9547484962095
 21
874.5706313801809
 31
0.0
  0
LINE
  5
28C0
330
18
100
AcDbEntity
  8
MSL-115-R32-R-0
 48
2.0
100
AcDbLine
 10
792.9547484962094
 20
871.2845095688411
 30
0.0
 11
792.9547484962094
 21
874.5706313801809
 31
0.0
  0
LINE
  5
28C1
330
18
100
AcDbEntity
  8
MSL-115-R32-R-7A
 48
3.0
100
AcDbLine
 10
770.9547484962095
 20
893.2706313801812
 30
0.0
 11
770.9547484962095
 21
881.2706313801813
 31
0.0
  0
LINE
  5
28C2
330
18
100
AcDbEntity
  8
MSL-115-R32-R-7A
 48
3.0
100
AcDbLine
 10
820.9547484962095
 20
893.270631380181
 30
0.0
 11
820.9547484962095
 21
881.2706313801809
 31
0.0
  0
ARC
  5
28C3
330
18
100
AcDbEntity
  8
MSL-115-R32-R-5
 48
2.0
100
AcDbCircle
 10
820.9547484962095
 20
887.2706313801812
 30
0.0
 40
4.0
100
AcDbArc
 50
255.0000000000055
 51
195.0000000000007
  0
CIRCLE
  5
28C4
330
18
100
AcDbEntity
  8
MSL-115-R32-R-0
 48
2.0
100
AcDbCircle
 10
820.9547484962095
 20
887.2706313801812
 30
0.0
 40
3.399999999999999
  0
LINE
  5
28C5
330
18
100
AcDbEntity
  8
MSL-115-R32-R-7A
 48
3.0
100
AcDbLine
 10
814.9547484962095
 20
887.270631380181
 30
0.0
 11
826.9547484962094
 21
887.270631380181
 31
0.0
  0
LINE
  5
28C6
330
18
100
AcDbEntity
  8
MSL-115-R32-R-0
 48
2.0
100
AcDbLine
 10
828.4547484962095
 20
887.470631380181
 30
0.0
 11
828.4547484962095
 21
891.5706313801813
 31
0.0
  0
ARC
  5
28C7
330
18
100
AcDbEntity
  8
MSL-115-R32-R-0
 48
2.0
100
AcDbCircle
 10
800.7659236612639
 20
967.0340462448999
 30
0.0
 40
48.76341486471868
100
AcDbArc
 50
270.8093786832719
 51
296.4059969254291
  0
LINE
  5
28C8
330
18
100
AcDbEntity
  8
MSL-115-R32-R-0
 48
2.0
100
AcDbLine
 10
801.4547484962095
 20
917.7706313801813
 30
0.0
 11
781.4547484962095
 21
917.7706313801813
 31
0.0
  0
LINE
  5
28C9
330
18
100
AcDbEntity
  8
MSL-115-R32-R-7A
 48
3.0
100
AcDbLine
 10
821.9459840171701
 20
906.7706313801812
 30
0.0
 11
837.6614609352557
 21
906.7706313801812
 31
0.0
  0
LINE
  5
28CA
330
18
100
AcDbEntity
  8
MSL-115-R32-R-0
 48
2.0
100
AcDbLine
 10
835.9547484962094
 20
899.4976008565899
 30
0.0
 11
828.4547484962095
 21
899.4976008565899
 31
0.0
  0
LINE
  5
28CB
330
18
100
AcDbEntity
  8
MSL-115-R32-R-0
 48
2.0
100
AcDbLine
 10
835.9547484962094
 20
919.7706313801813
 30
0.0
 11
827.9547484962094
 21
919.7706313801813
 31
0.0
  0
LINE
  5
28CC
330
18
100
AcDbEntity
  8
MSL-115-R32-R-0
 48
2.0
100
AcDbLine
 10
827.9547484962094
 20
920.7706313801812
 30
0.0
 11
835.9547484962094
 21
920.7706313801812
 31
0.0
  0
LINE
  5
28CD
330
18
100
AcDbEntity
  8
MSL-115-R32-R-0
 48
2.0
100
AcDbLine
 10
835.9547484962098
 20
914.7706313801812
 30
0.0
 11
828.4547484962097
 21
914.7706313801812
 31
0.0
  0
LINE
  5
28CE
330
18
100
AcDbEntity
  8
MSL-115-R32-R-0
 48
2.0
100
AcDbLine
 10
827.9547484962094
 20
919.7706313801813
 30
0.0
 11
827.9547484962094
 21
920.7706313801812
 31
0.0
  0
ARC
  5
28CF
330
18
100
AcDbEntity
  8
MSL-115-R32-R-0
 48
2.0
100
AcDbCircle
 10
819.9349506654021
 20
928.2706313801812
 30
0.0
 40
5.519797830807495
100
AcDbArc
 50
297.1345007562882
 51
0.0
  0
ARC
  5
28D0
330
18
100
AcDbEntity
  8
MSL-115-R32-R-0
 48
2.0
100
AcDbCircle
 10
800.7659236612637
 20
889.5072165154626
 30
0.0
 40
48.76341486471868
100
AcDbArc
 50
63.59400307457086
 51
89.19062131672806
  0
LINE
  5
28D1
330
18
100
AcDbEntity
  8
MSL-115-R32-R-0
 48
2.0
100
AcDbLine
 10
781.4547484962095
 20
938.7706313801812
 30
0.0
 11
801.4547484962095
 21
938.7706313801812
 31
0.0
  0
LINE
  5
28D2
330
18
100
AcDbEntity
  8
MSL-115-R32-R-0
 48
2.0
100
AcDbLine
 10
801.4547484962095
 20
936.7706313801813
 30
0.0
 11
781.4547484962095
 21
936.7706313801813
 31
0.0
  0
LINE
  5
28D3
330
18
100
AcDbEntity
  8
MSL-115-R32-R-0
 48
2.0
100
AcDbLine
 10
781.4547484962095
 20
936.7706313801813
 30
0.0
 11
781.4547484962095
 21
938.7706313801812
 31
0.0
  0
LINE
  5
28D4
330
18
100
AcDbEntity
  8
MSL-115-R32-R-0
 48
2.0
100
AcDbLine
 10
801.4547484962095
 20
938.7706313801812
 30
0.0
 11
801.4547484962095
 21
936.7706313801813
 31
0.0
  0
LINE
  5
28D5
330
18
100
AcDbEntity
  8
MSL-115-R32-R-0
 48
2.0
100
AcDbLine
 10
827.9547484962094
 20
939.7706313801812
 30
0.0
 11
835.9547484962094
 21
939.7706313801812
 31
0.0
  0
LINE
  5
28D6
330
18
100
AcDbEntity
  8
MSL-115-R32-R-0
 48
2.0
100
AcDbLine
 10
835.9547484962094
 20
938.7706313801812
 30
0.0
 11
827.9547484962094
 21
938.7706313801812
 31
0.0
  0
LINE
  5
28D7
330
18
100
AcDbEntity
  8
MSL-115-R32-R-0
 48
2.0
100
AcDbLine
 10
827.9547484962094
 20
938.7706313801812
 30
0.0
 11
827.9547484962094
 21
939.7706313801812
 31
0.0
  0
LINE
  5
28D8
330
18
100
AcDbEntity
  8
MSL-115-R32-R-0
 48
2.0
100
AcDbLine
 10
835.9547484962094
 20
939.7706313801812
 30
0.0
 11
835.9547484962094
 21
940.2706313801813
 31
0.0
  0
LINE
  5
28D9
330
18
100
AcDbEntity
  8
MSL-115-R32-R-0
 48
2.0
100
AcDbLine
 10
1163.954748496209
 20
779.6514240808501
 30
0.0
 11
1163.954748496209
 21
654.6514240808498
 31
0.0
  0
LINE
  5
28DA
330
18
100
AcDbEntity
  8
MSL-115-R32-R-0
 48
2.0
100
AcDbLine
 10
1190.454748496209
 20
777.6514240808499
 30
0.0
 11
1190.454748496209
 21
656.6514240808499
 31
0.0
  0
LINE
  5
28DB
330
18
100
AcDbEntity
  8
MSL-115-R32-R-0
 48
2.0
100
AcDbLine
 10
1210.454748496209
 20
777.6514240808499
 30
0.0
 11
1210.454748496209
 21
656.6514240808499
 31
0.0
  0
LINE
  5
28DC
330
18
100
AcDbEntity
  8
MSL-115-R32-R-0
 48
2.0
100
AcDbLine
 10
1238.454748496209
 20
654.6514240808498
 30
0.0
 11
1238.454748496209
 21
779.6514240808501
 31
0.0
  0
LINE
  5
28DD
330
18
100
AcDbEntity
  8
MSL-115-R32-R-0
 48
2.0
100
AcDbLine
 10
1063.954748496209
 20
651.1514240808499
 30
0.0
 11
1063.954748496209
 21
783.1514240808501
 31
0.0
  0
LINE
  5
28DE
330
18
100
AcDbEntity
  8
MSL-115-R32-R-0
 48
2.0
100
AcDbLine
 10
1055.954748496209
 20
784.1514240808501
 30
0.0
 11
1055.954748496209
 21
727.15142408085
 31
0.0
  0
LINE
  5
28DF
330
18
100
AcDbEntity
  8
MSL-115-R32-R-0
 48
2.0
100
AcDbLine
 10
1238.454748496209
 20
654.6514240808498
 30
0.0
 11
1210.454748496209
 21
654.6514240808498
 31
0.0
  0
LINE
  5
28F4
330
18
100
AcDbEntity
  8
MSL-115-R32-R-0
 48
2.0
100
AcDbLine
 10
1055.954748496209
 20
707.1514240808501
 30
0.0
 11
1055.954748496209
 21
650.1514240808501
 31
0.0
  0
LINE
  5
28F5
330
18
100
AcDbEntity
  8
MSL-115-R32-R-0
 48
2.0
100
AcDbLine
 10
1063.954748496209
 20
660.6514240808499
 30
0.0
 11
1163.954748496209
 21
660.6514240808499
 31
0.0
  0
LINE
  5
28F6
330
18
100
AcDbEntity
  8
MSL-115-R32-R-0
 48
2.0
100
AcDbLine
 10
1190.454748496209
 20
654.6514240808498
 30
0.0
 11
1063.954748496209
 21
654.6514240808498
 31
0.0
  0
LINE
  5
28F7
330
18
100
AcDbEntity
  8
MSL-115-R32-R-0
 48
2.0
100
AcDbLine
 10
1063.954748496209
 20
650.1514240808498
 30
0.0
 11
1055.954748496209
 21
650.1514240808498
 31
0.0
  0
LINE
  5
28F8
330
18
100
AcDbEntity
  8
MSL-115-R32-R-0
 48
2.0
100
AcDbLine
 10
1055.954748496209
 20
651.1514240808499
 30
0.0
 11
1063.954748496209
 21
651.1514240808499
 31
0.0
  0
LINE
  5
28F9
330
18
100
AcDbEntity
  8
MSL-115-R32-R-0
 48
2.0
100
AcDbLine
 10
1055.954748496209
 20
650.1514240808498
 30
0.0
 11
1055.954748496209
 21
649.6514240808498
 31
0.0
  0
LINE
  5
28FA
330
18
100
AcDbEntity
  8
MSL-115-R32-R-0
 48
2.0
100
AcDbLine
 10
1063.954748496209
 20
651.1514240808499
 30
0.0
 11
1063.954748496209
 21
650.1514240808498
 31
0.0
  0
LINE
  5
28FB
330
18
100
AcDbEntity
  8
MSL-115-R32-R-0
 48
2.0
100
AcDbLine
 10
1190.454748496209
 20
656.6514240808499
 30
0.0
 11
1210.454748496209
 21
656.6514240808499
 31
0.0
  0
LINE
  5
28FC
330
18
100
AcDbEntity
  8
MSL-115-R32-R-0
 48
2.0
100
AcDbLine
 10
1210.454748496209
 20
654.6514240808498
 30
0.0
 11
1190.454748496209
 21
654.6514240808498
 31
0.0
  0
LINE
  5
28FD
330
18
100
AcDbEntity
  8
MSL-115-R32-R-0
 48
2.0
100
AcDbLine
 10
1190.454748496209
 20
654.6514240808498
 30
0.0
 11
1190.454748496209
 21
656.6514240808499
 31
0.0
  0
LINE
  5
28FE
330
18
100
AcDbEntity
  8
MSL-115-R32-R-0
 48
2.0
100
AcDbLine
 10
1210.454748496209
 20
656.6514240808499
 30
0.0
 11
1210.454748496209
 21
654.6514240808498
 31
0.0
  0
LINE
  5
28FF
330
18
100
AcDbEntity
  8
MSL-115-R32-R-7A
 48
3.0
100
AcDbLine
 10
1060.449351310013
 20
668.6514240808499
 30
0.0
 11
1167.92618479647
 21
668.6514240808499
 31
0.0
  0
LINE
  5
2900
330
18
100
AcDbEntity
  8
MSL-115-R32-R-0
 48
2.0
100
AcDbLine
 10
1063.954748496209
 20
676.6514240808499
 30
0.0
 11
1163.954748496209
 21
676.6514240808499
 31
0.0
  0
LINE
  5
2901
330
18
100
AcDbEntity
  8
MSL-115-R32-R-0
 48
2.0
100
AcDbLine
 10
1055.954748496209
 20
707.1514240808501
 30
0.0
 11
1055.954748496209
 21
727.15142408085
 31
0.0
  0
LINE
  5
2902
330
18
100
AcDbEntity
  8
MSL-115-R32-R-0
 48
2.0
100
AcDbLine
 10
1055.954748496209
 20
727.15142408085
 30
0.0
 11
1055.954748496209
 21
707.1514240808501
 31
0.0
  0
ARC
  5
2903
330
18
100
AcDbEntity
  8
MSL-115-R32-R-0
 48
2.0
100
AcDbCircle
 10
1171.974546327016
 20
679.1514240808501
 30
0.0
 40
5.519797830807496
100
AcDbArc
 50
117.1345007562882
 51
242.8654992437116
  0
LINE
  5
2904
330
18
100
AcDbEntity
  8
MSL-115-R32-R-0
 48
2.0
100
AcDbLine
 10
1169.45707214199
 20
674.2391443839363
 30
0.0
 11
1169.45707214199
 21
684.0637037777639
 31
0.0
  0
ARC
  5
2905
330
18
100
AcDbEntity
  8
MSL-115-R32-R-0
 48
2.0
100
AcDbCircle
 10
1191.143573331155
 20
717.9148389455688
 30
0.0
 40
48.76341486471867
100
AcDbArc
 50
243.5940030745708
 51
269.1906213167281
  0
ARC
  5
2906
330
18
100
AcDbEntity
  8
MSL-115-R32-R-0
 48
2.0
100
AcDbCircle
 10
1191.143573331155
 20
640.3880092161314
 30
0.0
 40
48.76341486471868
100
AcDbArc
 50
90.80937868327191
 51
116.405996925429
  0
CIRCLE
  5
2907
330
18
100
AcDbEntity
  8
MSL-115-R32-R-0
 48
2.0
100
AcDbCircle
 10
1200.454748496209
 20
687.1514240808501
 30
0.0
 40
5.0
  0
LINE
  5
2908
330
18
100
AcDbEntity
  8
MSL-115-R32-R-0
 48
2.0
100
AcDbLine
 10
1199.011372823235
 20
689.6514240808499
 30
0.0
 11
1197.567997150261
 21
687.1514240808498
 31
0.0
  0
LINE
  5
2909
330
18
100
AcDbEntity
  8
MSL-115-R32-R-0
 48
2.0
100
AcDbLine
 10
1203.341499842157
 20
687.1514240808498
 30
0.0
 11
1201.898124169183
 21
689.6514240808499
 31
0.0
  0
CIRCLE
  5
290A
330
18
100
AcDbEntity
  8
MSL-115-R32-R-0
 48
2.0
100
AcDbCircle
 10
1200.454748496209
 20
687.1514240808501
 30
0.0
 40
5.5
  0
LINE
  5
290B
330
18
100
AcDbEntity
  8
MSL-115-R32-R-0
 48
2.0
100
AcDbLine
 10
1199.011372823235
 20
684.6514240808499
 30
0.0
 11
1201.898124169183
 21
684.6514240808499
 31
0.0
  0
LINE
  5
290C
330
18
100
AcDbEntity
  8
MSL-115-R32-R-0
 48
2.0
100
AcDbLine
 10
1197.567997150261
 20
687.1514240808498
 30
0.0
 11
1199.011372823235
 21
684.6514240808499
 31
0.0
  0
LINE
  5
290D
330
18
100
AcDbEntity
  8
MSL-115-R32-R-0
 48
2.0
100
AcDbLine
 10
1201.898124169183
 20
684.6514240808499
 30
0.0
 11
1203.341499842157
 21
687.1514240808498
 31
0.0
  0
LINE
  5
290E
330
18
100
AcDbEntity
  8
MSL-115-R32-R-0
 48
2.0
100
AcDbLine
 10
1201.898124169183
 20
689.6514240808499
 30
0.0
 11
1199.011372823235
 21
689.6514240808499
 31
0.0
  0
ARC
  5
290F
330
18
100
AcDbEntity
  8
MSL-115-R32-R-0
 48
2.0
100
AcDbCircle
 10
1171.974546327016
 20
717.1514240808501
 30
0.0
 40
5.519797830807494
100
AcDbArc
 50
117.1345007562882
 51
242.8654992437116
  0
LINE
  5
2910
330
18
100
AcDbEntity
  8
MSL-115-R32-R-0
 48
2.0
100
AcDbLine
 10
1169.45707214199
 20
712.2391443839362
 30
0.0
 11
1169.45707214199
 21
722.0637037777639
 31
0.0
  0
ARC
  5
2911
330
18
100
AcDbEntity
  8
MSL-115-R32-R-0
 48
2.0
100
AcDbCircle
 10
1191.143573331155
 20
755.9148389455688
 30
0.0
 40
48.76341486471867
100
AcDbArc
 50
243.5940030745708
 51
269.1906213167281
  0
ARC
  5
2912
330
18
100
AcDbEntity
  8
MSL-115-R32-R-0
 48
2.0
100
AcDbCircle
 10
1191.143573331155
 20
678.3880092161314
 30
0.0
 40
48.76341486471868
100
AcDbArc
 50
90.80937868327191
 51
116.405996925429
  0
LINE
  5
2913
330
18
100
AcDbEntity
  8
MSL-115-R32-R-7A
 48
3.0
100
AcDbLine
 10
1172.954748496209
 20
862.2706313801812
 30
0.0
 11
1218.954748496209
 21
862.2706313801812
 31
0.0
  0
LINE
  5
2914
330
18
100
AcDbEntity
  8
MSL-115-R32-R-0
 48
2.0
100
AcDbLine
 10
1238.454748496209
 20
779.6514240808501
 30
0.0
 11
1210.454748496209
 21
779.6514240808501
 31
0.0
  0
CIRCLE
  5
2915
330
18
100
AcDbEntity
  8
MSL-115-R32-R-0
 48
2.0
100
AcDbCircle
 10
1195.954748496209
 20
862.2706313801812
 30
0.0
 40
21.0
  0
LINE
  5
2916
330
18
100
AcDbEntity
  8
MSL-115-R32-R-0
 48
2.0
100
AcDbLine
 10
1238.454748496209
 20
917.7706313801813
 30
0.0
 11
1163.454748496209
 21
917.7706313801813
 31
0.0
  0
LINE
  5
2917
330
18
100
AcDbEntity
  8
MSL-115-R32-R-0
 48
2.0
100
AcDbLine
 10
1238.454748496209
 20
825.7706313801813
 30
0.0
 11
1163.454748496209
 21
825.7706313801813
 31
0.0
  0
LINE
  5
2918
330
18
100
AcDbEntity
  8
MSL-115-R32-R-7A
 48
3.0
100
AcDbLine
 10
1195.954748496209
 20
885.2706313801812
 30
0.0
 11
1195.954748496209
 21
839.2706313801813
 31
0.0
  0
ARC
  5
2919
330
18
100
AcDbEntity
  8
MSL-115-R32-R-0
 48
2.0
100
AcDbCircle
 10
1195.954748496209
 20
862.2706313801812
 30
0.0
 40
9.5
100
AcDbArc
 50
108.4084801705832
 51
71.59151982941667
  0
LINE
  5
291A
330
18
100
AcDbEntity
  8
MSL-115-R32-R-0
 48
2.0
100
AcDbLine
 10
1163.454748496209
 20
825.2706313801812
 30
0.0
 11
1163.454748496209
 21
917.7706313801813
 31
0.0
  0
LINE
  5
292F
330
18
100
AcDbEntity
  8
MSL-115-R32-R-7A
 48
3.0
100
AcDbLine
 10
1060.141394359108
 20
765.6514240808498
 30
0.0
 11
1168.234141747374
 21
765.6514240808498
 31
0.0
  0
LINE
  5
2930
330
18
100
AcDbEntity
  8
MSL-115-R32-R-0
 48
2.0
100
AcDbLine
 10
1063.954748496209
 20
757.6514240808498
 30
0.0
 11
1163.954748496209
 21
757.6514240808498
 31
0.0
  0
LINE
  5
2931
330
18
100
AcDbEntity
  8
MSL-115-R32-R-0
 48
2.0
100
AcDbLine
 10
1063.954748496209
 20
773.6514240808499
 30
0.0
 11
1163.954748496209
 21
773.6514240808499
 31
0.0
  0
LINE
  5
2932
330
18
100
AcDbEntity
  8
MSL-115-R32-R-0
 48
2.0
100
AcDbLine
 10
1190.454748496209
 20
779.6514240808501
 30
0.0
 11
1063.954748496209
 21
779.6514240808501
 31
0.0
  0
LINE
  5
2933
330
18
100
AcDbEntity
  8
MSL-115-R32-R-0
 48
2.0
100
AcDbLine
 10
1063.954748496209
 20
783.1514240808501
 30
0.0
 11
1055.954748496209
 21
783.1514240808501
 31
0.0
  0
LINE
  5
2934
330
18
100
AcDbEntity
  8
MSL-115-R32-R-0
 48
2.0
100
AcDbLine
 10
1055.954748496209
 20
784.1514240808501
 30
0.0
 11
1063.954748496209
 21
784.1514240808501
 31
0.0
  0
LINE
  5
2935
330
18
100
AcDbEntity
  8
MSL-115-R32-R-0
 48
2.0
100
AcDbLine
 10
1055.954748496209
 20
784.6514240808501
 30
0.0
 11
1055.954748496209
 21
784.1514240808501
 31
0.0
  0
LINE
  5
2936
330
18
100
AcDbEntity
  8
MSL-115-R32-R-0
 48
2.0
100
AcDbLine
 10
1063.954748496209
 20
784.1514240808501
 30
0.0
 11
1063.954748496209
 21
783.1514240808501
 31
0.0
  0
ARC
  5
2937
330
18
100
AcDbEntity
  8
MSL-115-R32-R-0
 48
2.0
100
AcDbCircle
 10
1171.974546327017
 20
755.1514240808501
 30
0.0
 40
5.519797830807496
100
AcDbArc
 50
117.1345007562882
 51
242.8654992437116
  0
ARC
  5
2938
330
18
100
AcDbEntity
  8
MSL-115-R32-R-0
 48
2.0
100
AcDbCircle
 10
1191.143573331155
 20
793.9148389455688
 30
0.0
 40
48.76341486471867
100
AcDbArc
 50
243.5940030745708
 51
269.1906213167281
  0
LINE
  5
2939
330
18
100
AcDbEntity
  8
MSL-115-R32-R-0
 48
2.0
100
AcDbLine
 10
1199.011372823235
 20
749.6514240808498
 30
0.0
 11
1197.567997150261
 21
747.1514240808499
 31
0.0
  0
LINE
  5
293A
330
18
100
AcDbEntity
  8
MSL-115-R32-R-0
 48
2.0
100
AcDbLine
 10
1203.341499842157
 20
747.1514240808499
 30
0.0
 11
1201.898124169183
 21
749.6514240808498
 31
0.0
  0
CIRCLE
  5
293B
330
18
100
AcDbEntity
  8
MSL-115-R32-R-0
 48
2.0
100
AcDbCircle
 10
1200.454748496209
 20
747.1514240808501
 30
0.0
 40
5.0
  0
CIRCLE
  5
293C
330
18
100
AcDbEntity
  8
MSL-115-R32-R-0
 48
2.0
100
AcDbCircle
 10
1200.454748496209
 20
747.1514240808501
 30
0.0
 40
5.5
  0
LINE
  5
293D
330
18
100
AcDbEntity
  8
MSL-115-R32-R-0
 48
2.0
100
AcDbLine
 10
1199.011372823235
 20
744.6514240808498
 30
0.0
 11
1201.898124169183
 21
744.6514240808498
 31
0.0
  0
LINE
  5
293E
330
18
100
AcDbEntity
  8
MSL-115-R32-R-0
 48
2.0
100
AcDbLine
 10
1197.567997150261
 20
747.1514240808499
 30
0.0
 11
1199.011372823235
 21
744.6514240808498
 31
0.0
  0
LINE
  5
293F
330
18
100
AcDbEntity
  8
MSL-115-R32-R-0
 48
2.0
100
AcDbLine
 10
1201.898124169183
 20
744.6514240808498
 30
0.0
 11
1203.341499842157
 21
747.1514240808499
 31
0.0
  0
ARC
  5
2940
330
18
100
AcDbEntity
  8
MSL-115-R32-R-0
 48
2.0
100
AcDbCircle
 10
1191.143573331155
 20
716.3880092161313
 30
0.0
 40
48.76341486471868
100
AcDbArc
 50
90.80937868327191
 51
116.405996925429
  0
LINE
  5
2941
330
18
100
AcDbEntity
  8
MSL-115-R32-R-0
 48
2.0
100
AcDbLine
 10
1169.45707214199
 20
750.2391443839362
 30
0.0
 11
1169.45707214199
 21
760.0637037777639
 31
0.0
  0
LINE
  5
2942
330
18
100
AcDbEntity
  8
MSL-115-R32-R-0
 48
2.0
100
AcDbLine
 10
1201.898124169183
 20
749.6514240808498
 30
0.0
 11
1199.011372823235
 21
749.6514240808498
 31
0.0
  0
LINE
  5
2943
330
18
100
AcDbEntity
  8
MSL-115-R32-R-0
 48
2.0
100
AcDbLine
 10
1210.454748496209
 20
777.6514240808499
 30
0.0
 11
1190.454748496209
 21
777.6514240808499
 31
0.0
  0
LINE
  5
2944
330
18
100
AcDbEntity
  8
MSL-115-R32-R-0
 48
2.0
100
AcDbLine
 10
1190.454748496209
 20
779.6514240808499
 30
0.0
 11
1210.454748496209
 21
779.6514240808499
 31
0.0
  0
LINE
  5
2945
330
18
100
AcDbEntity
  8
MSL-115-R32-R-0
 48
2.0
100
AcDbLine
 10
1190.454748496209
 20
777.6514240808499
 30
0.0
 11
1190.454748496209
 21
779.6514240808499
 31
0.0
  0
LINE
  5
2946
330
18
100
AcDbEntity
  8
MSL-115-R32-R-0
 48
2.0
100
AcDbLine
 10
1210.454748496209
 20
779.6514240808499
 30
0.0
 11
1210.454748496209
 21
777.6514240808499
 31
0.0
  0
LINE
  5
2947
330
18
100
AcDbEntity
  8
MSL-115-R32-R-7A
 48
3.0
100
AcDbLine
 10
1164.954748496209
 20
837.2706313801812
 30
0.0
 11
1176.954748496209
 21
837.2706313801812
 31
0.0
  0
ARC
  5
2948
330
18
100
AcDbEntity
  8
MSL-115-R32-R-5
 48
2.0
100
AcDbCircle
 10
1170.954748496209
 20
837.2706313801812
 30
0.0
 40
4.0
100
AcDbArc
 50
255.0000000000046
 51
195.0000000000007
  0
LINE
  5
2949
330
18
100
AcDbEntity
  8
MSL-115-R32-R-7A
 48
3.0
100
AcDbLine
 10
1170.954748496209
 20
843.2706313801812
 30
0.0
 11
1170.954748496209
 21
831.2706313801813
 31
0.0
  0
CIRCLE
  5
294A
330
18
100
AcDbEntity
  8
MSL-115-R32-R-0
 48
2.0
100
AcDbCircle
 10
1170.954748496209
 20
837.2706313801812
 30
0.0
 40
3.399999999999999
  0
CIRCLE
  5
294B
330
18
100
AcDbEntity
  8
MSL-115-R32-R-0
 48
2.0
100
AcDbCircle
 10
1033.454748496209
 20
918.7706313801811
 30
0.0
 40
4.0
  0
CIRCLE
  5
294C
330
18
100
AcDbEntity
  8
MSL-115-R32-R-0
 48
2.0
100
AcDbCircle
 10
1033.454748496209
 20
918.7706313801811
 30
0.0
 40
1.60432736353769
  0
CIRCLE
  5
294D
330
18
100
AcDbEntity
  8
MSL-115-R32-R-0
 48
2.0
100
AcDbCircle
 10
1033.454748496209
 20
918.7706313801811
 30
0.0
 40
3.75
  0
CIRCLE
  5
294E
330
18
100
AcDbEntity
  8
MSL-115-R32-R-0
 48
2.0
100
AcDbCircle
 10
1033.454748496209
 20
918.7706313801811
 30
0.0
 40
3.000000000000002
  0
CIRCLE
  5
294F
330
18
100
AcDbEntity
  8
MSL-115-R32-R-0
 48
2.0
100
AcDbCircle
 10
1033.454748496209
 20
906.7706313801812
 30
0.0
 40
1.500000000000001
  0
LINE
  5
2950
330
18
100
AcDbEntity
  8
MSL-115-R32-R-0
 48
2.0
100
AcDbLine
 10
1010.954748496209
 20
893.7706313801813
 30
0.0
 11
1055.954748496209
 21
893.7706313801813
 31
0.0
  0
CIRCLE
  5
2951
330
18
100
AcDbEntity
  8
MSL-115-R32-R-0
 48
2.0
100
AcDbCircle
 10
1033.454748496209
 20
918.7706313801811
 30
0.0
 40
4.099999999999999
  0
LINE
  5
2952
330
18
100
AcDbEntity
  8
MSL-115-R32-R-7A
 48
3.0
100
AcDbLine
 10
915.9830502214948
 20
944.2704311232418
 30
0.0
 11
915.9547484962097
 21
925.7706313801813
 31
0.0
  0
LINE
  5
2953
330
18
100
AcDbEntity
  8
MSL-115-R32-R-7A
 48
3.0
100
AcDbLine
 10
945.9547484962095
 20
942.2706313801811
 30
0.0
 11
945.9547484962095
 21
925.7706313801813
 31
0.0
  0
LINE
  5
2954
330
18
100
AcDbEntity
  8
MSL-115-R32-R-7A
 48
3.0
100
AcDbLine
 10
975.9547484962096
 20
944.270631380181
 30
0.0
 11
975.9547484962096
 21
925.7706313801813
 31
0.0
  0
LINE
  5
2955
330
18
100
AcDbEntity
  8
MSL-115-R32-R-7A
 48
3.0
100
AcDbLine
 10
1005.954748496209
 20
942.2706313801811
 30
0.0
 11
1005.954748496209
 21
925.7706313801813
 31
0.0
  0
LINE
  5
2956
330
18
100
AcDbEntity
  8
MSL-115-R32-R-7A
 48
3.0
100
AcDbLine
 10
1035.954748496209
 20
942.770631380181
 30
0.0
 11
1035.954748496209
 21
926.2706313801812
 31
0.0
  0
LINE
  5
2957
330
18
100
AcDbEntity
  8
MSL-115-R32-R-7A
 48
3.0
100
AcDbLine
 10
855.9547484962099
 20
942.2706313801811
 30
0.0
 11
855.9547484962099
 21
925.7706313801813
 31
0.0
  0
LINE
  5
2958
330
18
100
AcDbEntity
  8
MSL-115-R32-R-7A
 48
3.0
100
AcDbLine
 10
885.9547484962096
 20
942.2706313801811
 30
0.0
 11
885.9547484962096
 21
925.7706313801813
 31
0.0
  0
LINE
  5
2959
330
18
100
AcDbEntity
  8
MSL-115-R32-R-7A
 48
3.0
100
AcDbLine
 10
878.8332855466023
 20
906.7706313801812
 30
0.0
 11
1012.768689255045
 21
906.7706313801812
 31
0.0
  0
LINE
  5
295B
330
18
100
AcDbEntity
  8
MSL-115-R32-R-0
 48
2.0
100
AcDbLine
 10
1010.954748496209
 20
914.7706313801812
 30
0.0
 11
880.9547484962095
 21
914.7706313801812
 31
0.0
  0
LINE
  5
295C
330
18
100
AcDbEntity
  8
MSL-115-R32-R-0
 48
2.0
100
AcDbLine
 10
1010.954748496209
 20
899.4976008565899
 30
0.0
 11
880.9547484962095
 21
899.4976008565899
 31
0.0
  0
LINE
  5
295D
330
18
100
AcDbEntity
  8
MSL-115-R32-R-0
 48
2.0
100
AcDbLine
 10
880.9547484962095
 20
893.7706313801813
 30
0.0
 11
880.9547484962095
 21
927.7706313801813
 31
0.0
  0
LINE
  5
295E
330
18
100
AcDbEntity
  8
MSL-115-R32-R-0
 48
2.0
100
AcDbLine
 10
1010.954748496209
 20
893.7706313801813
 30
0.0
 11
1010.954748496209
 21
927.7706313801813
 31
0.0
  0
LINE
  5
295F
330
18
100
AcDbEntity
  8
MSL-115-R32-R-0
 48
2.0
100
AcDbLine
 10
909.9547484962096
 20
942.2706313801811
 30
0.0
 11
921.9547484962095
 21
942.2706313801811
 31
0.0
  0
LINE
  5
2960
330
18
100
AcDbEntity
  8
MSL-115-R32-R-0
 48
2.0
100
AcDbLine
 10
909.4547484962095
 20
941.770631380181
 30
0.0
 11
922.4547484962096
 21
941.770631380181
 31
0.0
  0
LINE
  5
2961
330
18
100
AcDbEntity
  8
MSL-115-R32-R-0
 48
2.0
100
AcDbLine
 10
909.4547484962095
 20
940.2706313801811
 30
0.0
 11
909.4547484962095
 21
941.770631380181
 31
0.0
  0
LINE
  5
2962
330
18
100
AcDbEntity
  8
MSL-115-R32-R-0
 48
2.0
100
AcDbLine
 10
909.4547484962095
 20
941.770631380181
 30
0.0
 11
909.9547484962096
 21
942.2706313801811
 31
0.0
  0
LINE
  5
2963
330
18
100
AcDbEntity
  8
MSL-115-R32-R-0
 48
2.0
100
AcDbLine
 10
922.4547484962096
 20
941.770631380181
 30
0.0
 11
922.4547484962096
 21
940.2706313801813
 31
0.0
  0
LINE
  5
2964
330
18
100
AcDbEntity
  8
MSL-115-R32-R-0
 48
2.0
100
AcDbLine
 10
921.9547484962095
 20
942.2706313801811
 30
0.0
 11
922.4547484962096
 21
941.770631380181
 31
0.0
  0
LINE
  5
2965
330
18
100
AcDbEntity
  8
MSL-115-R32-R-0
 48
2.0
100
AcDbLine
 10
969.9547484962096
 20
942.2706313801811
 30
0.0
 11
981.9547484962097
 21
942.2706313801811
 31
0.0
  0
LINE
  5
2966
330
18
100
AcDbEntity
  8
MSL-115-R32-R-0
 48
2.0
100
AcDbLine
 10
969.4547484962097
 20
941.770631380181
 30
0.0
 11
982.4547484962096
 21
941.770631380181
 31
0.0
  0
LINE
  5
2967
330
18
100
AcDbEntity
  8
MSL-115-R32-R-0
 48
2.0
100
AcDbLine
 10
969.4547484962097
 20
940.2706313801811
 30
0.0
 11
969.4547484962097
 21
941.770631380181
 31
0.0
  0
LINE
  5
2968
330
18
100
AcDbEntity
  8
MSL-115-R32-R-0
 48
2.0
100
AcDbLine
 10
969.4547484962097
 20
941.770631380181
 30
0.0
 11
969.9547484962096
 21
942.2706313801811
 31
0.0
  0
LINE
  5
2969
330
18
100
AcDbEntity
  8
MSL-115-R32-R-0
 48
2.0
100
AcDbLine
 10
982.4547484962096
 20
941.770631380181
 30
0.0
 11
982.4547484962096
 21
940.2706313801813
 31
0.0
  0
LINE
  5
296A
330
18
100
AcDbEntity
  8
MSL-115-R32-R-0
 48
2.0
100
AcDbLine
 10
982.4547484962096
 20
941.770631380181
 30
0.0
 11
981.9547484962097
 21
942.2706313801811
 31
0.0
  0
ARC
  5
296B
330
18
100
AcDbEntity
  8
MSL-115-R32-R-0
 48
2.0
100
AcDbCircle
 10
1171.974546327017
 20
928.2706313801812
 30
0.0
 40
5.519797830807496
100
AcDbArc
 50
117.1345007562882
 51
242.8654992437116
  0
LINE
  5
296C
330
18
100
AcDbEntity
  8
MSL-115-R32-R-0
 48
2.0
100
AcDbLine
 10
1169.45707214199
 20
923.3583516832672
 30
0.0
 11
1169.45707214199
 21
933.1829110770948
 31
0.0
  0
LINE
  5
296D
330
18
100
AcDbEntity
  8
MSL-115-R32-R-0
 48
2.0
100
AcDbLine
 10
1190.454748496209
 20
936.7706313801813
 30
0.0
 11
1190.454748496209
 21
917.7706313801813
 31
0.0
  0
LINE
  5
296E
330
18
100
AcDbEntity
  8
MSL-115-R32-R-0
 48
2.0
100
AcDbLine
 10
1210.454748496209
 20
936.7706313801813
 30
0.0
 11
1210.454748496209
 21
917.7706313801813
 31
0.0
  0
LINE
  5
296F
330
18
100
AcDbEntity
  8
MSL-115-R32-R-0
 48
2.0
100
AcDbLine
 10
1063.954748496209
 20
920.7706313801812
 30
0.0
 11
1063.954748496209
 21
938.7706313801812
 31
0.0
  0
LINE
  5
2970
330
18
100
AcDbEntity
  8
MSL-115-R32-R-0
 48
2.0
100
AcDbLine
 10
1055.954748496209
 20
939.7706313801812
 30
0.0
 11
1055.954748496209
 21
927.7706313801813
 31
0.0
  0
LINE
  5
2971
330
18
100
AcDbEntity
  8
MSL-115-R32-R-7A
 48
3.0
100
AcDbLine
 10
1053.709642165537
 20
906.7706313801812
 30
0.0
 11
1170.27407483291
 21
906.7706313801812
 31
0.0
  0
LINE
  5
2972
330
18
100
AcDbEntity
  8
MSL-115-R32-R-0
 48
2.0
100
AcDbLine
 10
1163.454748496209
 20
914.7706313801812
 30
0.0
 11
1055.954748496209
 21
914.7706313801812
 31
0.0
  0
LINE
  5
2973
330
18
100
AcDbEntity
  8
MSL-115-R32-R-0
 48
2.0
100
AcDbLine
 10
1163.454748496209
 20
899.4976008565899
 30
0.0
 11
1055.954748496209
 21
899.4976008565899
 31
0.0
  0
LINE
  5
2974
330
18
100
AcDbEntity
  8
MSL-115-R32-R-0
 48
2.0
100
AcDbLine
 10
1055.954748496209
 20
893.7706313801813
 30
0.0
 11
1055.954748496209
 21
927.7706313801813
 31
0.0
  0
LINE
  5
2975
330
18
100
AcDbEntity
  8
MSL-115-R32-R-0
 48
2.0
100
AcDbLine
 10
1063.954748496209
 20
919.7706313801813
 30
0.0
 11
1055.954748496209
 21
919.7706313801813
 31
0.0
  0
LINE
  5
2976
330
18
100
AcDbEntity
  8
MSL-115-R32-R-0
 48
2.0
100
AcDbLine
 10
1055.954748496209
 20
920.7706313801812
 30
0.0
 11
1063.954748496209
 21
920.7706313801812
 31
0.0
  0
LINE
  5
2977
330
18
100
AcDbEntity
  8
MSL-115-R32-R-0
 48
2.0
100
AcDbLine
 10
1063.954748496209
 20
920.7706313801812
 30
0.0
 11
1063.954748496209
 21
919.7706313801813
 31
0.0
  0
LINE
  5
2978
330
18
100
AcDbEntity
  8
MSL-115-R32-R-7A
 48
3.0
100
AcDbLine
 10
1164.954748496209
 20
887.2706313801812
 30
0.0
 11
1176.954748496209
 21
887.2706313801812
 31
0.0
  0
ARC
  5
2979
330
18
100
AcDbEntity
  8
MSL-115-R32-R-5
 48
2.0
100
AcDbCircle
 10
1170.954748496209
 20
887.2706313801812
 30
0.0
 40
4.0
100
AcDbArc
 50
255.0000000000046
 51
195.0000000000007
  0
LINE
  5
297A
330
18
100
AcDbEntity
  8
MSL-115-R32-R-0
 48
2.0
100
AcDbLine
 10
1192.954748496209
 20
874.5706313801814
 30
0.0
 11
1198.954748496209
 21
874.5706313801814
 31
0.0
  0
LINE
  5
297B
330
18
100
AcDbEntity
  8
MSL-115-R32-R-0
 48
2.0
100
AcDbLine
 10
1192.954748496209
 20
871.2845095688411
 30
0.0
 11
1192.954748496209
 21
874.5706313801814
 31
0.0
  0
LINE
  5
297C
330
18
100
AcDbEntity
  8
MSL-115-R32-R-0
 48
2.0
100
AcDbLine
 10
1198.954748496209
 20
874.5706313801814
 30
0.0
 11
1198.954748496209
 21
871.2845095688411
 31
0.0
  0
LINE
  5
297D
330
18
100
AcDbEntity
  8
MSL-115-R32-R-7A
 48
3.0
100
AcDbLine
 10
1170.954748496209
 20
893.2706313801812
 30
0.0
 11
1170.954748496209
 21
881.2706313801813
 31
0.0
  0
CIRCLE
  5
297E
330
18
100
AcDbEntity
  8
MSL-115-R32-R-0
 48
2.0
100
AcDbCircle
 10
1170.954748496209
 20
887.2706313801812
 30
0.0
 40
3.399999999999999
  0
ARC
  5
297F
330
18
100
AcDbEntity
  8
MSL-115-R32-R-0
 48
2.0
100
AcDbCircle
 10
1191.143573331155
 20
967.0340462448999
 30
0.0
 40
48.76341486471868
100
AcDbArc
 50
243.5940030745708
 51
269.1906213167281
  0
LINE
  5
2980
330
18
100
AcDbEntity
  8
MSL-115-R32-R-0
 48
2.0
100
AcDbLine
 10
1190.454748496209
 20
917.7706313801813
 30
0.0
 11
1210.454748496209
 21
917.7706313801813
 31
0.0
  0
LINE
  5
2981
330
18
100
AcDbEntity
  8
MSL-115-R32-R-0
 48
2.0
100
AcDbLine
 10
1063.954748496209
 20
938.7706313801812
 30
0.0
 11
1055.954748496209
 21
938.7706313801812
 31
0.0
  0
LINE
  5
2982
330
18
100
AcDbEntity
  8
MSL-115-R32-R-0
 48
2.0
100
AcDbLine
 10
1055.954748496209
 20
939.7706313801812
 30
0.0
 11
1063.954748496209
 21
939.7706313801812
 31
0.0
  0
LINE
  5
2983
330
18
100
AcDbEntity
  8
MSL-115-R32-R-0
 48
2.0
100
AcDbLine
 10
1055.954748496209
 20
940.2706313801813
 30
0.0
 11
1055.954748496209
 21
939.7706313801812
 31
0.0
  0
LINE
  5
2984
330
18
100
AcDbEntity
  8
MSL-115-R32-R-0
 48
2.0
100
AcDbLine
 10
1063.954748496209
 20
939.7706313801812
 30
0.0
 11
1063.954748496209
 21
938.7706313801812
 31
0.0
  0
ARC
  5
2985
330
18
100
AcDbEntity
  8
MSL-115-R32-R-0
 48
2.0
100
AcDbCircle
 10
1191.143573331155
 20
889.5072165154624
 30
0.0
 40
48.76341486471868
100
AcDbArc
 50
90.80937868327191
 51
116.405996925429
  0
LINE
  5
2986
330
18
100
AcDbEntity
  8
MSL-115-R32-R-0
 48
2.0
100
AcDbLine
 10
1190.454748496209
 20
938.7706313801812
 30
0.0
 11
1210.454748496209
 21
938.7706313801812
 31
0.0
  0
LINE
  5
2987
330
18
100
AcDbEntity
  8
MSL-115-R32-R-0
 48
2.0
100
AcDbLine
 10
1210.454748496209
 20
936.7706313801813
 30
0.0
 11
1190.454748496209
 21
936.7706313801813
 31
0.0
  0
LINE
  5
2988
330
18
100
AcDbEntity
  8
MSL-115-R32-R-0
 48
2.0
100
AcDbLine
 10
1190.454748496209
 20
936.7706313801813
 30
0.0
 11
1190.454748496209
 21
938.7706313801812
 31
0.0
  0
LINE
  5
2989
330
18
100
AcDbEntity
  8
MSL-115-R32-R-0
 48
2.0
100
AcDbLine
 10
1210.454748496209
 20
938.7706313801812
 30
0.0
 11
1210.454748496209
 21
936.7706313801813
 31
0.0
  0
LINE
  5
298A
330
18
100
AcDbEntity
  8
MSL-115-R32-R-0
 48
2.0
100
AcDbLine
 10
1417.94867983391
 20
917.7706313801811
 30
0.0
 11
1417.94867983391
 21
825.7706313801811
 31
0.0
  0
LINE
  5
298B
330
18
100
AcDbEntity
  8
MSL-115-R32-R-0
 48
2.0
100
AcDbLine
 10
1292.94867983391
 20
825.7706313801811
 30
0.0
 11
1292.94867983391
 21
917.7706313801811
 31
0.0
  0
LINE
  5
298C
330
18
100
AcDbEntity
  8
MSL-115-R32-R-0
 48
2.0
100
AcDbLine
 10
1238.454748496209
 20
825.7706313801813
 30
0.0
 11
1238.454748496209
 21
917.7706313801813
 31
0.0
  0
LINE
  5
298D
330
18
100
AcDbEntity
  8
MSL-115-R32-R-7A
 48
3.0
100
AcDbLine
 10
1386.94867983391
 20
845.2706313801812
 30
0.0
 11
1398.94867983391
 21
845.2706313801812
 31
0.0
  0
CIRCLE
  5
298E
330
18
100
AcDbEntity
  8
MSL-115-R32-R-0
 48
2.0
100
AcDbCircle
 10
1384.373679833911
 20
835.7706313801811
 30
0.0
 40
5.0
  0
CIRCLE
  5
298F
330
18
100
AcDbEntity
  8
MSL-115-R32-R-0
 48
2.0
100
AcDbCircle
 10
1384.373679833911
 20
835.7706313801811
 30
0.0
 40
5.5
  0
LINE
  5
2990
330
18
100
AcDbEntity
  8
MSL-115-R32-R-0
 48
2.0
100
AcDbLine
 10
1417.94867983391
 20
825.7706313801811
 30
0.0
 11
1292.94867983391
 21
825.7706313801811
 31
0.0
  0
LINE
  5
2991
330
18
100
AcDbEntity
  8
MSL-115-R32-R-0
 48
2.0
100
AcDbLine
 10
1375.44867983391
 20
825.2706313801811
 30
0.0
 11
1393.82367983391
 21
825.2706313801811
 31
0.0
  0
LINE
  5
2994
330
18
100
AcDbEntity
  8
MSL-115-R32-R-0
 48
2.0
100
AcDbLine
 10
1299.97367983391
 20
825.2706313801811
 30
0.0
 11
1296.97367983391
 21
825.2706313801811
 31
0.0
  0
LINE
  5
2995
330
18
100
AcDbEntity
  8
MSL-115-R32-R-7A
 48
3.0
100
AcDbLine
 10
1220.954748496209
 20
843.2706313801812
 30
0.0
 11
1220.954748496209
 21
831.2706313801813
 31
0.0
  0
LINE
  5
2996
330
18
100
AcDbEntity
  8
MSL-115-R32-R-7A
 48
3.0
100
AcDbLine
 10
1214.954748496209
 20
837.2706313801812
 30
0.0
 11
1226.954748496209
 21
837.2706313801812
 31
0.0
  0
ARC
  5
2997
330
18
100
AcDbEntity
  8
MSL-115-R32-R-5
 48
2.0
100
AcDbCircle
 10
1220.954748496209
 20
837.2706313801812
 30
0.0
 40
4.0
100
AcDbArc
 50
255.0000000000055
 51
195.0000000000007
  0
CIRCLE
  5
2998
330
18
100
AcDbEntity
  8
MSL-115-R32-R-0
 48
2.0
100
AcDbCircle
 10
1220.954748496209
 20
837.2706313801812
 30
0.0
 40
3.399999999999999
  0
LINE
  5
299B
330
18
100
AcDbEntity
  8
MSL-115-R32-R-0
 48
2.0
100
AcDbLine
 10
1292.94867983391
 20
825.2706313801811
 30
0.0
 11
1292.94867983391
 21
825.7706313801811
 31
0.0
  0
LINE
  5
299C
330
18
100
AcDbEntity
  8
MSL-115-R32-R-0
 48
2.0
100
AcDbLine
 10
1296.97367983391
 20
825.2706313801811
 30
0.0
 11
1292.94867983391
 21
825.2706313801811
 31
0.0
  0
LINE
  5
299D
330
18
100
AcDbEntity
  8
MSL-115-R32-R-0
 48
2.0
100
AcDbLine
 10
1296.97367983391
 20
825.7706313801811
 30
0.0
 11
1296.97367983391
 21
825.2706313801811
 31
0.0
  0
LINE
  5
299F
330
18
100
AcDbEntity
  8
MSL-115-R32-R-7A
 48
3.0
100
AcDbLine
 10
1306.94881783391
 20
840.7527937586143
 30
0.0
 11
1306.94881783391
 21
821.0391638646513
 31
0.0
  0
LINE
  5
29A0
330
18
100
AcDbEntity
  8
MSL-115-R32-R-7A
 48
3.0
100
AcDbLine
 10
1317.94867983391
 20
851.270631380181
 30
0.0
 11
1317.94867983391
 21
839.2706313801811
 31
0.0
  0
ARC
  5
29A1
330
18
100
AcDbEntity
  8
MSL-115-R32-R-5
 48
2.0
100
AcDbCircle
 10
1317.94867983391
 20
845.2706313801812
 30
0.0
 40
5.0
100
AcDbArc
 50
255.0000000000055
 51
195.0000000000007
  0
CIRCLE
  5
29A2
330
18
100
AcDbEntity
  8
MSL-115-R32-R-0
 48
2.0
100
AcDbCircle
 10
1317.94867983391
 20
845.2706313801812
 30
0.0
 40
4.25
  0
CIRCLE
  5
29A3
330
18
100
AcDbEntity
  8
MSL-115-R32-R-0
 48
2.0
100
AcDbCircle
 10
1326.52367983391
 20
835.7706313801811
 30
0.0
 40
5.5
  0
LINE
  5
29A4
330
18
100
AcDbEntity
  8
MSL-115-R32-R-0
 48
2.0
100
AcDbLine
 10
1335.44867983391
 20
825.2706313801811
 30
0.0
 11
1317.07367983391
 21
825.2706313801811
 31
0.0
  0
LINE
  5
29A8
330
18
100
AcDbEntity
  8
MSL-115-R32-R-0
 48
2.0
100
AcDbLine
 10
1301.74981783391
 20
825.2706313801811
 30
0.0
 11
1299.97367983391
 21
825.2706313801811
 31
0.0
  0
LINE
  5
29A9
330
18
100
AcDbEntity
  8
MSL-115-R32-R-0
 48
2.0
100
AcDbLine
 10
1301.94981783391
 20
825.7706313801811
 30
0.0
 11
1301.94981783391
 21
825.4706313801809
 31
0.0
  0
ARC
  5
29AA
330
18
100
AcDbEntity
  8
MSL-115-R32-R-0
 48
2.0
100
AcDbCircle
 10
1301.74981783391
 20
825.4706313801811
 30
0.0
 40
0.2
100
AcDbArc
 50
270.0
 51
0.0
  0
LINE
  5
29AF
330
18
100
AcDbEntity
  8
MSL-115-R32-R-0
 48
2.0
100
AcDbLine
 10
1317.07367983391
 20
825.2706313801811
 30
0.0
 11
1314.07367983391
 21
825.2706313801811
 31
0.0
  0
LINE
  5
29B0
330
18
100
AcDbEntity
  8
MSL-115-R32-R-0
 48
2.0
100
AcDbLine
 10
1317.07367983391
 20
825.7706313801811
 30
0.0
 11
1317.07367983391
 21
825.2706313801811
 31
0.0
  0
ARC
  5
29B1
330
18
100
AcDbEntity
  8
MSL-115-R32-R-0
 48
2.0
100
AcDbCircle
 10
1312.14754183391
 20
825.4706313801811
 30
0.0
 40
0.2
100
AcDbArc
 50
180.0
 51
270.0
  0
LINE
  5
29B2
330
18
100
AcDbEntity
  8
MSL-115-R32-R-0
 48
2.0
100
AcDbLine
 10
1311.94754183391
 20
825.4706313801809
 30
0.0
 11
1311.94754183391
 21
825.7706313801811
 31
0.0
  0
LINE
  5
29B3
330
18
100
AcDbEntity
  8
MSL-115-R32-R-0
 48
2.0
100
AcDbLine
 10
1314.07367983391
 20
825.2706313801811
 30
0.0
 11
1312.14754183391
 21
825.2706313801811
 31
0.0
  0
CIRCLE
  5
29C1
330
18
100
AcDbEntity
  8
MSL-115-R32-R-0
 48
2.0
100
AcDbCircle
 10
1326.52367983391
 20
835.7706313801811
 30
0.0
 40
5.0
  0
LINE
  5
29C2
330
18
100
AcDbEntity
  8
MSL-115-R32-R-0
 48
2.0
100
AcDbLine
 10
1335.44867983391
 20
825.7706313801811
 30
0.0
 11
1335.44867983391
 21
825.2706313801811
 31
0.0
  0
LINE
  5
29C3
330
18
100
AcDbEntity
  8
MSL-115-R32-R-0
 48
2.0
100
AcDbLine
 10
1324.02367983391
 20
837.2140070531552
 30
0.0
 11
1326.52367983391
 21
838.6573827261292
 31
0.0
  0
LINE
  5
29C4
330
18
100
AcDbEntity
  8
MSL-115-R32-R-0
 48
2.0
100
AcDbLine
 10
1324.02367983391
 20
834.327255707207
 30
0.0
 11
1324.02367983391
 21
837.2140070531552
 31
0.0
  0
LINE
  5
29C5
330
18
100
AcDbEntity
  8
MSL-115-R32-R-0
 48
2.0
100
AcDbLine
 10
1329.023679833911
 20
834.327255707207
 30
0.0
 11
1326.52367983391
 21
832.883880034233
 31
0.0
  0
LINE
  5
29C6
330
18
100
AcDbEntity
  8
MSL-115-R32-R-0
 48
2.0
100
AcDbLine
 10
1326.52367983391
 20
832.883880034233
 30
0.0
 11
1324.02367983391
 21
834.327255707207
 31
0.0
  0
LINE
  5
29C7
330
18
100
AcDbEntity
  8
MSL-115-R32-R-0
 48
2.0
100
AcDbLine
 10
1326.52367983391
 20
838.6573827261292
 30
0.0
 11
1329.023679833911
 21
837.2140070531552
 31
0.0
  0
LINE
  5
29C8
330
18
100
AcDbEntity
  8
MSL-115-R32-R-0
 48
2.0
100
AcDbLine
 10
1329.023679833911
 20
837.2140070531552
 30
0.0
 11
1329.023679833911
 21
834.327255707207
 31
0.0
  0
LINE
  5
29C9
330
18
100
AcDbEntity
  8
MSL-115-R32-R-7A
 48
3.0
100
AcDbLine
 10
1311.94867983391
 20
845.2706313801812
 30
0.0
 11
1323.94867983391
 21
845.2706313801812
 31
0.0
  0
LINE
  5
29CA
330
18
100
AcDbEntity
  8
MSL-115-R32-R-0
 48
2.0
100
AcDbLine
 10
1375.44867983391
 20
825.7706313801811
 30
0.0
 11
1375.44867983391
 21
825.2706313801811
 31
0.0
  0
LINE
  5
29CB
330
18
100
AcDbEntity
  8
MSL-115-R32-R-0
 48
2.0
100
AcDbLine
 10
1382.930304160936
 20
838.2706313801811
 30
0.0
 11
1385.817055506884
 21
838.2706313801811
 31
0.0
  0
LINE
  5
29CC
330
18
100
AcDbEntity
  8
MSL-115-R32-R-0
 48
2.0
100
AcDbLine
 10
1385.817055506884
 20
838.2706313801811
 30
0.0
 11
1387.260431179859
 21
835.7706313801811
 31
0.0
  0
LINE
  5
29CD
330
18
100
AcDbEntity
  8
MSL-115-R32-R-0
 48
2.0
100
AcDbLine
 10
1381.486928487962
 20
835.7706313801811
 30
0.0
 11
1382.930304160936
 21
838.2706313801811
 31
0.0
  0
LINE
  5
29CE
330
18
100
AcDbEntity
  8
MSL-115-R32-R-0
 48
2.0
100
AcDbLine
 10
1382.930304160936
 20
833.2706313801811
 30
0.0
 11
1381.486928487962
 21
835.7706313801811
 31
0.0
  0
LINE
  5
29CF
330
18
100
AcDbEntity
  8
MSL-115-R32-R-0
 48
2.0
100
AcDbLine
 10
1387.260431179859
 20
835.7706313801811
 30
0.0
 11
1385.817055506884
 21
833.2706313801811
 31
0.0
  0
LINE
  5
29D0
330
18
100
AcDbEntity
  8
MSL-115-R32-R-0
 48
2.0
100
AcDbLine
 10
1385.817055506884
 20
833.2706313801811
 30
0.0
 11
1382.930304160936
 21
833.2706313801811
 31
0.0
  0
LINE
  5
29D1
330
18
100
AcDbEntity
  8
MSL-115-R32-R-7A
 48
3.0
100
AcDbLine
 10
1403.94854183391
 20
840.7527937586143
 30
0.0
 11
1403.94854183391
 21
821.0391638646513
 31
0.0
  0
LINE
  5
29D2
330
18
100
AcDbEntity
  8
MSL-115-R32-R-7A
 48
3.0
100
AcDbLine
 10
1392.94867983391
 20
851.270631380181
 30
0.0
 11
1392.94867983391
 21
839.2706313801811
 31
0.0
  0
ARC
  5
29D3
330
18
100
AcDbEntity
  8
MSL-115-R32-R-5
 48
2.0
100
AcDbCircle
 10
1392.94867983391
 20
845.2706313801812
 30
0.0
 40
5.0
100
AcDbArc
 50
255.0000000000055
 51
195.0000000000007
  0
CIRCLE
  5
29D4
330
18
100
AcDbEntity
  8
MSL-115-R32-R-0
 48
2.0
100
AcDbCircle
 10
1392.94867983391
 20
845.2706313801812
 30
0.0
 40
4.25
  0
LINE
  5
29D7
330
18
100
AcDbEntity
  8
MSL-115-R32-R-0
 48
2.0
100
AcDbLine
 10
1410.92367983391
 20
825.2706313801811
 30
0.0
 11
1409.14754183391
 21
825.2706313801811
 31
0.0
  0
LINE
  5
29DA
330
18
100
AcDbEntity
  8
MSL-115-R32-R-0
 48
2.0
100
AcDbLine
 10
1398.749817833911
 20
825.2706313801811
 30
0.0
 11
1396.82367983391
 21
825.2706313801811
 31
0.0
  0
LINE
  5
29DC
330
18
100
AcDbEntity
  8
MSL-115-R32-R-0
 48
2.0
100
AcDbLine
 10
1396.82367983391
 20
825.2706313801811
 30
0.0
 11
1393.82367983391
 21
825.2706313801811
 31
0.0
  0
LINE
  5
29DD
330
18
100
AcDbEntity
  8
MSL-115-R32-R-0
 48
2.0
100
AcDbLine
 10
1393.82367983391
 20
825.7706313801811
 30
0.0
 11
1393.82367983391
 21
825.2706313801811
 31
0.0
  0
LINE
  5
29E2
330
18
100
AcDbEntity
  8
MSL-115-R32-R-0
 48
2.0
100
AcDbLine
 10
1398.94981783391
 20
825.7706313801811
 30
0.0
 11
1398.94981783391
 21
825.4706313801809
 31
0.0
  0
ARC
  5
29E3
330
18
100
AcDbEntity
  8
MSL-115-R32-R-0
 48
2.0
100
AcDbCircle
 10
1398.749817833911
 20
825.4706313801811
 30
0.0
 40
0.2
100
AcDbArc
 50
270.0
 51
0.0
  0
ARC
  5
29E4
330
18
100
AcDbEntity
  8
MSL-115-R32-R-0
 48
2.0
100
AcDbCircle
 10
1409.14754183391
 20
825.4706313801811
 30
0.0
 40
0.2
100
AcDbArc
 50
180.0
 51
270.0
  0
LINE
  5
29E5
330
18
100
AcDbEntity
  8
MSL-115-R32-R-0
 48
2.0
100
AcDbLine
 10
1408.94754183391
 20
825.4706313801809
 30
0.0
 11
1408.94754183391
 21
825.7706313801811
 31
0.0
  0
LINE
  5
29F8
330
18
100
AcDbEntity
  8
MSL-115-R32-R-0
 48
2.0
100
AcDbLine
 10
1417.94867983391
 20
825.2706313801811
 30
0.0
 11
1417.94867983391
 21
825.7706313801811
 31
0.0
  0
LINE
  5
29F9
330
18
100
AcDbEntity
  8
MSL-115-R32-R-0
 48
2.0
100
AcDbLine
 10
1413.92367983391
 20
825.2706313801811
 30
0.0
 11
1417.94867983391
 21
825.2706313801811
 31
0.0
  0
LINE
  5
29FA
330
18
100
AcDbEntity
  8
MSL-115-R32-R-0
 48
2.0
100
AcDbLine
 10
1413.92367983391
 20
825.2706313801811
 30
0.0
 11
1410.92367983391
 21
825.2706313801811
 31
0.0
  0
LINE
  5
29FB
330
18
100
AcDbEntity
  8
MSL-115-R32-R-0
 48
2.0
100
AcDbLine
 10
1413.92367983391
 20
825.7706313801811
 30
0.0
 11
1413.92367983391
 21
825.2706313801811
 31
0.0
  0
ARC
  5
29FD
330
18
100
AcDbEntity
  8
MSL-115-R32-R-6
 48
2.0
100
AcDbCircle
 10
1413.79754183391
 20
834.0831196677065
 30
0.0
 40
0.2
100
AcDbArc
 50
0.0
 51
45.00000000002533
  0
LINE
  5
29FF
330
18
100
AcDbEntity
  8
MSL-115-R32-R-7A
 48
3.0
100
AcDbLine
 10
1387.44867983391
 20
928.2706313801812
 30
0.0
 11
1399.44867983391
 21
928.2706313801812
 31
0.0
  0
LINE
  5
2A00
330
18
100
AcDbEntity
  8
MSL-115-R32-R-0
 48
2.0
100
AcDbLine
 10
1415.94867983391
 20
938.7706313801812
 30
0.0
 11
1294.94867983391
 21
938.7706313801812
 31
0.0
  0
LINE
  5
2A01
330
18
100
AcDbEntity
  8
MSL-115-R32-R-0
 48
2.0
100
AcDbLine
 10
1292.94867983391
 20
917.7706313801811
 30
0.0
 11
1417.94867983391
 21
917.7706313801811
 31
0.0
  0
LINE
  5
2A02
330
18
100
AcDbEntity
  8
MSL-115-R32-R-0
 48
2.0
100
AcDbLine
 10
1289.44867983391
 20
939.7706313801812
 30
0.0
 11
1421.44867983391
 21
939.7706313801812
 31
0.0
  0
LINE
  5
2A03
330
18
100
AcDbEntity
  8
MSL-115-R32-R-0
 48
2.0
100
AcDbLine
 10
1422.44867983391
 20
940.2706313801811
 30
0.0
 11
1367.94867983391
 21
940.2706313801811
 31
0.0
  0
LINE
  5
2A04
330
18
100
AcDbEntity
  8
MSL-115-R32-R-7A
 48
3.0
100
AcDbLine
 10
1310.448679833911
 20
944.2706313801812
 30
0.0
 11
1310.448679833911
 21
925.7706313801811
 31
0.0
  0
LINE
  5
2A05
330
18
100
AcDbEntity
  8
MSL-115-R32-R-7A
 48
3.0
100
AcDbLine
 10
1355.44867983391
 20
934.270631380181
 30
0.0
 11
1355.44867983391
 21
922.2706313801811
 31
0.0
  0
LINE
  5
2A06
330
18
100
AcDbEntity
  8
MSL-115-R32-R-7A
 48
3.0
100
AcDbLine
 10
1317.44867983391
 20
934.270631380181
 30
0.0
 11
1317.44867983391
 21
922.2706313801811
 31
0.0
  0
ARC
  5
2A07
330
18
100
AcDbEntity
  8
MSL-115-R32-R-5
 48
2.0
100
AcDbCircle
 10
1317.44867983391
 20
928.2706313801812
 30
0.0
 40
3.0
100
AcDbArc
 50
255.0000000000055
 51
195.0000000000007
  0
ARC
  5
2A08
330
18
100
AcDbEntity
  8
MSL-115-R32-R-5
 48
2.0
100
AcDbCircle
 10
1355.44867983391
 20
928.2706313801812
 30
0.0
 40
3.0
100
AcDbArc
 50
255.0000000000055
 51
195.0000000000007
  0
CIRCLE
  5
2A09
330
18
100
AcDbEntity
  8
MSL-115-R32-R-0
 48
2.0
100
AcDbCircle
 10
1355.44867983391
 20
928.2706313801812
 30
0.0
 40
2.5
  0
LINE
  5
2A0A
330
18
100
AcDbEntity
  8
MSL-115-R32-R-0
 48
2.0
100
AcDbLine
 10
1292.94867983391
 20
936.7706313801811
 30
0.0
 11
1292.94867983391
 21
917.7706313801811
 31
0.0
  0
CIRCLE
  5
2A0B
330
18
100
AcDbEntity
  8
MSL-115-R32-R-0
 48
2.0
100
AcDbCircle
 10
1317.44867983391
 20
928.2706313801812
 30
0.0
 40
2.5
  0
LINE
  5
2A0C
330
18
100
AcDbEntity
  8
MSL-115-R32-R-0
 48
2.0
100
AcDbLine
 10
1288.44867983391
 20
920.7706313801811
 30
0.0
 11
1288.44867983391
 21
938.7706313801812
 31
0.0
  0
LINE
  5
2A0D
330
18
100
AcDbEntity
  8
MSL-115-R32-R-0
 48
2.0
100
AcDbLine
 10
1287.948679833911
 20
939.7706313801812
 30
0.0
 11
1287.948679833911
 21
927.7706313801811
 31
0.0
  0
LINE
  5
2A0E
330
18
100
AcDbEntity
  8
MSL-115-R32-R-0
 48
2.0
100
AcDbLine
 10
1288.02367983391
 20
893.7706313801811
 30
0.0
 11
1288.023679833911
 21
927.7706313801811
 31
0.0
  0
LINE
  5
2A0F
330
18
100
AcDbEntity
  8
MSL-115-R32-R-7A
 48
3.0
100
AcDbLine
 10
1220.954748496209
 20
893.2706313801812
 30
0.0
 11
1220.954748496209
 21
881.2706313801813
 31
0.0
  0
ARC
  5
2A10
330
18
100
AcDbEntity
  8
MSL-115-R32-R-5
 48
2.0
100
AcDbCircle
 10
1220.954748496209
 20
887.2706313801812
 30
0.0
 40
4.0
100
AcDbArc
 50
255.0000000000046
 51
195.0000000000007
  0
CIRCLE
  5
2A11
330
18
100
AcDbEntity
  8
MSL-115-R32-R-0
 48
2.0
100
AcDbCircle
 10
1220.954748496209
 20
887.2706313801812
 30
0.0
 40
3.399999999999999
  0
LINE
  5
2A12
330
18
100
AcDbEntity
  8
MSL-115-R32-R-7A
 48
3.0
100
AcDbLine
 10
1214.954748496209
 20
887.2706313801812
 30
0.0
 11
1226.954748496209
 21
887.2706313801812
 31
0.0
  0
LINE
  5
2A13
330
18
100
AcDbEntity
  8
MSL-115-R32-R-0
 48
2.0
100
AcDbLine
 10
1288.02367983391
 20
893.7706313801811
 30
0.0
 11
1292.94867983391
 21
893.7706313801811
 31
0.0
  0
LINE
  5
2A14
330
18
100
AcDbEntity
  8
MSL-115-R32-R-0
 48
2.0
100
AcDbLine
 10
1292.94867983391
 20
919.7706313801811
 30
0.0
 11
1289.44867983391
 21
919.7706313801811
 31
0.0
  0
LINE
  5
2A15
330
18
100
AcDbEntity
  8
MSL-115-R32-R-0
 48
2.0
100
AcDbLine
 10
1288.44867983391
 20
920.7706313801811
 30
0.0
 11
1289.44867983391
 21
919.7706313801811
 31
0.0
  0
LINE
  5
2A16
330
18
100
AcDbEntity
  8
MSL-115-R32-R-0
 48
2.0
100
AcDbLine
 10
1288.02367983391
 20
927.7706313801811
 30
0.0
 11
1288.44867983391
 21
927.7706313801811
 31
0.0
  0
LINE
  5
2A17
330
18
100
AcDbEntity
  8
MSL-115-R32-R-0
 48
2.0
100
AcDbLine
 10
1288.44867983391
 20
927.7706313801811
 30
0.0
 11
1287.948679833911
 21
927.7706313801811
 31
0.0
  0
LINE
  5
2A18
330
18
100
AcDbEntity
  8
MSL-115-R32-R-7A
 48
3.0
100
AcDbLine
 10
1332.94867983391
 20
912.7706313801811
 30
0.0
 11
1332.94867983391
 21
900.7706313801811
 31
0.0
  0
CIRCLE
  5
2A19
330
18
100
AcDbEntity
  8
MSL-115-R32-R-0
 48
2.0
100
AcDbCircle
 10
1307.02367983391
 20
906.7706313801812
 30
0.0
 40
5.0
  0
CIRCLE
  5
2A1A
330
18
100
AcDbEntity
  8
MSL-115-R32-R-0
 48
2.0
100
AcDbCircle
 10
1307.02367983391
 20
906.7706313801812
 30
0.0
 40
5.5
  0
LINE
  5
2A1B
330
18
100
AcDbEntity
  8
MSL-115-R32-R-0
 48
2.0
100
AcDbLine
 10
1305.580304160936
 20
909.270631380181
 30
0.0
 11
1308.467055506884
 21
909.270631380181
 31
0.0
  0
LINE
  5
2A1C
330
18
100
AcDbEntity
  8
MSL-115-R32-R-0
 48
2.0
100
AcDbLine
 10
1308.467055506884
 20
909.270631380181
 30
0.0
 11
1309.910431179859
 21
906.7706313801812
 31
0.0
  0
LINE
  5
2A1D
330
18
100
AcDbEntity
  8
MSL-115-R32-R-0
 48
2.0
100
AcDbLine
 10
1305.580304160936
 20
904.2706313801812
 30
0.0
 11
1304.136928487962
 21
906.7706313801812
 31
0.0
  0
LINE
  5
2A1E
330
18
100
AcDbEntity
  8
MSL-115-R32-R-0
 48
2.0
100
AcDbLine
 10
1304.136928487962
 20
906.7706313801812
 30
0.0
 11
1305.580304160936
 21
909.270631380181
 31
0.0
  0
LINE
  5
2A1F
330
18
100
AcDbEntity
  8
MSL-115-R32-R-0
 48
2.0
100
AcDbLine
 10
1308.467055506884
 20
904.2706313801812
 30
0.0
 11
1305.580304160936
 21
904.2706313801812
 31
0.0
  0
LINE
  5
2A20
330
18
100
AcDbEntity
  8
MSL-115-R32-R-0
 48
2.0
100
AcDbLine
 10
1309.910431179859
 20
906.7706313801812
 30
0.0
 11
1308.467055506884
 21
904.2706313801812
 31
0.0
  0
ARC
  5
2A21
330
18
100
AcDbEntity
  8
MSL-115-R32-R-5
 48
2.0
100
AcDbCircle
 10
1332.94867983391
 20
906.7706313801812
 30
0.0
 40
5.0
100
AcDbArc
 50
255.0000000000055
 51
195.0000000000007
  0
CIRCLE
  5
2A22
330
18
100
AcDbEntity
  8
MSL-115-R32-R-0
 48
2.0
100
AcDbCircle
 10
1332.94867983391
 20
906.7706313801812
 30
0.0
 40
4.25
  0
LINE
  5
2A23
330
18
100
AcDbEntity
  8
MSL-115-R32-R-7A
 48
3.0
100
AcDbLine
 10
1326.94867983391
 20
906.7706313801812
 30
0.0
 11
1338.94867983391
 21
906.7706313801812
 31
0.0
  0
LINE
  5
2A24
330
18
100
AcDbEntity
  8
MSL-115-R32-R-7A
 48
3.0
100
AcDbLine
 10
1311.44867983391
 20
928.2706313801812
 30
0.0
 11
1323.44867983391
 21
928.2706313801812
 31
0.0
  0
LINE
  5
2A25
330
18
100
AcDbEntity
  8
MSL-115-R32-R-7A
 48
3.0
100
AcDbLine
 10
1377.94867983391
 20
912.7706313801811
 30
0.0
 11
1377.94867983391
 21
900.7706313801811
 31
0.0
  0
ARC
  5
2A26
330
18
100
AcDbEntity
  8
MSL-115-R32-R-5
 48
2.0
100
AcDbCircle
 10
1377.94867983391
 20
906.7706313801812
 30
0.0
 40
5.0
100
AcDbArc
 50
255.0000000000055
 51
195.0000000000007
  0
CIRCLE
  5
2A27
330
18
100
AcDbEntity
  8
MSL-115-R32-R-0
 48
2.0
100
AcDbCircle
 10
1377.94867983391
 20
906.7706313801812
 30
0.0
 40
4.25
  0
LINE
  5
2A28
330
18
100
AcDbEntity
  8
MSL-115-R32-R-7A
 48
3.0
100
AcDbLine
 10
1371.94867983391
 20
906.7706313801812
 30
0.0
 11
1383.94867983391
 21
906.7706313801812
 31
0.0
  0
LINE
  5
2A29
330
18
100
AcDbEntity
  8
MSL-115-R32-R-7A
 48
3.0
100
AcDbLine
 10
1349.44867983391
 20
928.2706313801812
 30
0.0
 11
1361.44867983391
 21
928.2706313801812
 31
0.0
  0
LINE
  5
2A2A
330
18
100
AcDbEntity
  8
MSL-115-R32-R-0
 48
2.0
100
AcDbLine
 10
1342.94867983391
 20
940.2706313801811
 30
0.0
 11
1288.44867983391
 21
940.2706313801811
 31
0.0
  0
LINE
  5
2A2B
330
18
100
AcDbEntity
  8
MSL-115-R32-R-0
 48
2.0
100
AcDbLine
 10
1289.44867983391
 20
939.7706313801812
 30
0.0
 11
1288.44867983391
 21
938.7706313801812
 31
0.0
  0
LINE
  5
2A2C
330
18
100
AcDbEntity
  8
MSL-115-R32-R-0
 48
2.0
100
AcDbLine
 10
1294.94867983391
 20
938.7706313801812
 30
0.0
 11
1292.94867983391
 21
936.7706313801811
 31
0.0
  0
LINE
  5
2A2D
330
18
100
AcDbEntity
  8
MSL-115-R32-R-0
 48
2.0
100
AcDbLine
 10
1288.44867983391
 20
940.2706313801811
 30
0.0
 11
1287.948679833911
 21
939.7706313801812
 31
0.0
  0
LINE
  5
2A2E
330
18
100
AcDbEntity
  8
MSL-115-R32-R-0
 48
2.0
100
AcDbLine
 10
1394.44867983391
 20
942.2706313801811
 30
0.0
 11
1406.44867983391
 21
942.2706313801811
 31
0.0
  0
LINE
  5
2A2F
330
18
100
AcDbEntity
  8
MSL-115-R32-R-0
 48
2.0
100
AcDbLine
 10
1393.94867983391
 20
941.7706313801812
 30
0.0
 11
1406.94867983391
 21
941.7706313801812
 31
0.0
  0
LINE
  5
2A30
330
18
100
AcDbEntity
  8
MSL-115-R32-R-0
 48
2.0
100
AcDbLine
 10
1393.94867983391
 20
940.2706313801811
 30
0.0
 11
1393.94867983391
 21
941.7706313801812
 31
0.0
  0
LINE
  5
2A31
330
18
100
AcDbEntity
  8
MSL-115-R32-R-0
 48
2.0
100
AcDbLine
 10
1393.94867983391
 20
941.7706313801812
 30
0.0
 11
1394.44867983391
 21
942.2706313801811
 31
0.0
  0
LINE
  5
2A32
330
18
100
AcDbEntity
  8
MSL-115-R32-R-0
 48
2.0
100
AcDbLine
 10
1406.94867983391
 20
941.7706313801812
 30
0.0
 11
1406.94867983391
 21
940.2706313801811
 31
0.0
  0
LINE
  5
2A33
330
18
100
AcDbEntity
  8
MSL-115-R32-R-0
 48
2.0
100
AcDbLine
 10
1406.94867983391
 20
941.7706313801812
 30
0.0
 11
1406.44867983391
 21
942.2706313801811
 31
0.0
  0
LINE
  5
2A34
330
18
100
AcDbEntity
  8
MSL-115-R32-R-0
 48
2.0
100
AcDbLine
 10
1342.94867983391
 20
939.7706313801812
 30
0.0
 11
1342.94867983391
 21
940.2706313801811
 31
0.0
  0
LINE
  5
2A35
330
18
100
AcDbEntity
  8
MSL-115-R32-R-0
 48
2.0
100
AcDbLine
 10
1367.94867983391
 20
940.2706313801811
 30
0.0
 11
1367.94867983391
 21
939.7706313801812
 31
0.0
  0
LINE
  5
2A36
330
18
100
AcDbEntity
  8
MSL-115-R32-R-7A
 48
3.0
100
AcDbLine
 10
1400.44867983391
 20
944.2706313801812
 30
0.0
 11
1400.44867983391
 21
925.7706313801811
 31
0.0
  0
LINE
  5
2A37
330
18
100
AcDbEntity
  8
MSL-115-R32-R-7A
 48
3.0
100
AcDbLine
 10
1393.44867983391
 20
934.270631380181
 30
0.0
 11
1393.44867983391
 21
922.2706313801811
 31
0.0
  0
ARC
  5
2A38
330
18
100
AcDbEntity
  8
MSL-115-R32-R-5
 48
2.0
100
AcDbCircle
 10
1393.44867983391
 20
928.2706313801812
 30
0.0
 40
3.0
100
AcDbArc
 50
255.0000000000055
 51
195.0000000000007
  0
CIRCLE
  5
2A39
330
18
100
AcDbEntity
  8
MSL-115-R32-R-0
 48
2.0
100
AcDbCircle
 10
1393.44867983391
 20
928.2706313801812
 30
0.0
 40
2.5
  0
LINE
  5
2A3A
330
18
100
AcDbEntity
  8
MSL-115-R32-R-0
 48
2.0
100
AcDbLine
 10
1417.94867983391
 20
917.7706313801811
 30
0.0
 11
1417.94867983391
 21
936.7706313801811
 31
0.0
  0
LINE
  5
2A3B
330
18
100
AcDbEntity
  8
MSL-115-R32-R-0
 48
2.0
100
AcDbLine
 10
1422.44867983391
 20
938.7706313801812
 30
0.0
 11
1422.44867983391
 21
920.7706313801811
 31
0.0
  0
LINE
  5
2A3C
330
18
100
AcDbEntity
  8
MSL-115-R32-R-0
 48
2.0
100
AcDbLine
 10
1422.94867983391
 20
939.7706313801812
 30
0.0
 11
1422.94867983391
 21
927.7706313801811
 31
0.0
  0
LINE
  5
2A3D
330
18
100
AcDbEntity
  8
MSL-115-R32-R-0
 48
2.0
100
AcDbLine
 10
1422.87367983391
 20
893.7706313801811
 30
0.0
 11
1422.87367983391
 21
927.7706313801811
 31
0.0
  0
LINE
  5
2A3E
330
18
100
AcDbEntity
  8
MSL-115-R32-R-0
 48
2.0
100
AcDbLine
 10
1417.94867983391
 20
893.7706313801811
 30
0.0
 11
1422.87367983391
 21
893.7706313801811
 31
0.0
  0
CIRCLE
  5
2A3F
330
18
100
AcDbEntity
  8
MSL-115-R32-R-0
 48
2.0
100
AcDbCircle
 10
1403.87367983391
 20
906.7706313801812
 30
0.0
 40
5.0
  0
CIRCLE
  5
2A40
330
18
100
AcDbEntity
  8
MSL-115-R32-R-0
 48
2.0
100
AcDbCircle
 10
1403.87367983391
 20
906.7706313801812
 30
0.0
 40
5.5
  0
LINE
  5
2A41
330
18
100
AcDbEntity
  8
MSL-115-R32-R-0
 48
2.0
100
AcDbLine
 10
1402.430304160936
 20
909.270631380181
 30
0.0
 11
1405.317055506884
 21
909.270631380181
 31
0.0
  0
LINE
  5
2A42
330
18
100
AcDbEntity
  8
MSL-115-R32-R-0
 48
2.0
100
AcDbLine
 10
1405.317055506884
 20
909.270631380181
 30
0.0
 11
1406.760431179858
 21
906.7706313801812
 31
0.0
  0
LINE
  5
2A43
330
18
100
AcDbEntity
  8
MSL-115-R32-R-0
 48
2.0
100
AcDbLine
 10
1402.430304160936
 20
904.2706313801812
 30
0.0
 11
1400.986928487962
 21
906.7706313801812
 31
0.0
  0
LINE
  5
2A44
330
18
100
AcDbEntity
  8
MSL-115-R32-R-0
 48
2.0
100
AcDbLine
 10
1400.986928487962
 20
906.7706313801812
 30
0.0
 11
1402.430304160936
 21
909.270631380181
 31
0.0
  0
LINE
  5
2A45
330
18
100
AcDbEntity
  8
MSL-115-R32-R-0
 48
2.0
100
AcDbLine
 10
1405.317055506884
 20
904.2706313801812
 30
0.0
 11
1402.430304160936
 21
904.2706313801812
 31
0.0
  0
LINE
  5
2A46
330
18
100
AcDbEntity
  8
MSL-115-R32-R-0
 48
2.0
100
AcDbLine
 10
1406.760431179858
 20
906.7706313801812
 30
0.0
 11
1405.317055506884
 21
904.2706313801812
 31
0.0
  0
LINE
  5
2A47
330
18
100
AcDbEntity
  8
MSL-115-R32-R-0
 48
2.0
100
AcDbLine
 10
1421.44867983391
 20
919.7706313801811
 30
0.0
 11
1417.94867983391
 21
919.7706313801811
 31
0.0
  0
LINE
  5
2A48
330
18
100
AcDbEntity
  8
MSL-115-R32-R-0
 48
2.0
100
AcDbLine
 10
1421.44867983391
 20
919.7706313801811
 30
0.0
 11
1422.44867983391
 21
920.7706313801811
 31
0.0
  0
LINE
  5
2A49
330
18
100
AcDbEntity
  8
MSL-115-R32-R-0
 48
2.0
100
AcDbLine
 10
1422.44867983391
 20
927.7706313801811
 30
0.0
 11
1422.87367983391
 21
927.7706313801811
 31
0.0
  0
LINE
  5
2A4A
330
18
100
AcDbEntity
  8
MSL-115-R32-R-0
 48
2.0
100
AcDbLine
 10
1422.94867983391
 20
927.7706313801811
 30
0.0
 11
1422.44867983391
 21
927.7706313801811
 31
0.0
  0
LINE
  5
2A51
330
18
100
AcDbEntity
  8
MSL-115-R32-R-0
 48
2.0
100
AcDbLine
 10
1422.44867983391
 20
938.7706313801812
 30
0.0
 11
1421.44867983391
 21
939.7706313801812
 31
0.0
  0
LINE
  5
2A52
330
18
100
AcDbEntity
  8
MSL-115-R32-R-0
 48
2.0
100
AcDbLine
 10
1417.94867983391
 20
936.7706313801811
 30
0.0
 11
1415.94867983391
 21
938.7706313801812
 31
0.0
  0
LINE
  5
2A53
330
18
100
AcDbEntity
  8
MSL-115-R32-R-0
 48
2.0
100
AcDbLine
 10
1422.94867983391
 20
939.7706313801812
 30
0.0
 11
1422.44867983391
 21
940.2706313801811
 31
0.0
  0
LINE
  5
2A99
330
18
100
AcDbEntity
  8
MSL-115-R32-R-7A
 48
3.0
100
AcDbLine
 10
1413.938963190147
 20
834.2245410239438
 30
0.0
 11
1413.99754183391
 21
834.1659623801801
 31
0.0
  0
LINE
  5
2A9A
330
18
100
AcDbEntity
  8
MSL-115-R32-R-7A
 48
3.0
100
AcDbLine
 10
1413.99754183391
 20
834.1659623801801
 30
0.0
 11
1413.99754183391
 21
834.0831196677065
 31
0.0
  0
MTEXT
  5
3A62
330
18
100
AcDbEntity
  8
MSL-115-R32-R-7A
 48
3.0
100
AcDbMText
 10
836.9456491772634
 20
822.2402202381095
 30
0.0
 40
3.5
 41
0.0
 71
     9
 72
     5
  1

  7
ACDINTS
1001
ACAD
1000
MTEXTBEGIN
1070
    73
1070
     1
1070
    44
1040
1.0
1070
    74
1070
     0
1000
MTEXTEND
  0
MTEXT
  5
3C13
330
18
100
AcDbEntity
  8
MSL-115-R32-R-5
 62
     2
 48
2.0
100
AcDbMText
 10
1167.216234974525
 20
637.0613712231854
 30
0.0
 40
3.5
 41
0.0
 71
     7
 72
     5
  1

  7
ACDINTS
1001
ACAD
1000
MTEXTBEGIN
1070
    73
1070
     1
1070
    44
1040
1.0
1070
    74
1070
     0
1000
MTEXTEND
  0
LINE
  5
3C7C
330
18
100
AcDbEntity
  8
MSL-115-R32-R-7A
 48
3.0
100
AcDbLine
 10
739.1548043601055
 20
717.1514240808503
 30
0.0
 11
1245.815872003929
 21
717.1514240808503
 31
0.0
  0
CIRCLE
  5
41B7
330
18
100
AcDbEntity
  8
MSL-115-R32-R-0
 48
2.0
100
AcDbCircle
 10
855.9547484962099
 20
762.1514240808506
 30
0.0
 40
3.399999999999999
  0
ARC
  5
41B8
330
18
100
AcDbEntity
  8
MSL-115-R32-R-5
 48
2.0
100
AcDbCircle
 10
855.9547484962099
 20
762.1514240808506
 30
0.0
 40
4.0
100
AcDbArc
 50
164.9999999999992
 51
104.9999999999944
  0
LINE
  5
41B9
330
18
100
AcDbEntity
  8
MSL-115-R32-R-7A
 48
3.0
100
AcDbLine
 10
849.9547484962098
 20
762.1514240808503
 30
0.0
 11
1041.954748496209
 21
762.1514240808501
 31
0.0
  0
LINE
  5
41BA
330
18
100
AcDbEntity
  8
MSL-115-R32-R-7A
 48
3.0
100
AcDbLine
 10
855.9547484962099
 20
756.1514240808503
 30
0.0
 11
855.9547484962099
 21
768.1514240808503
 31
0.0
  0
LINE
  5
41BB
330
18
100
AcDbEntity
  8
MSL-115-R32-R-7A
 48
3.0
100
AcDbLine
 10
885.9547484962098
 20
756.1514240808503
 30
0.0
 11
885.9547484962098
 21
768.1514240808503
 31
0.0
  0
CIRCLE
  5
41BC
330
18
100
AcDbEntity
  8
MSL-115-R32-R-0
 48
2.0
100
AcDbCircle
 10
885.9547484962098
 20
762.1514240808506
 30
0.0
 40
3.399999999999999
  0
ARC
  5
41BD
330
18
100
AcDbEntity
  8
MSL-115-R32-R-5
 48
2.0
100
AcDbCircle
 10
885.9547484962098
 20
762.1514240808506
 30
0.0
 40
4.0
100
AcDbArc
 50
164.9999999999992
 51
104.9999999999944
  0
CIRCLE
  5
41BE
330
18
100
AcDbEntity
  8
MSL-115-R32-R-0
 48
2.0
100
AcDbCircle
 10
915.9547484962098
 20
762.1514240808506
 30
0.0
 40
6.5
  0
LINE
  5
41BF
330
18
100
AcDbEntity
  8
MSL-115-R32-R-7A
 48
3.0
100
AcDbLine
 10
915.9547484962098
 20
754.1514240808503
 30
0.0
 11
915.9547484962098
 21
770.1514240808503
 31
0.0
  0
ARC
  5
41C0
330
18
100
AcDbEntity
  8
MSL-115-R32-R-5
 48
2.0
100
AcDbCircle
 10
915.9547484962098
 20
762.1514240808506
 30
0.0
 40
4.0
100
AcDbArc
 50
164.9999999999992
 51
104.9999999999944
  0
CIRCLE
  5
41C1
330
18
100
AcDbEntity
  8
MSL-115-R32-R-0
 48
2.0
100
AcDbCircle
 10
915.9547484962098
 20
762.1514240808506
 30
0.0
 40
3.399999999999999
  0
ARC
  5
41C3
330
18
100
AcDbEntity
  8
MSL-115-R32-R-5
 48
2.0
100
AcDbCircle
 10
975.9547484962098
 20
762.1514240808505
 30
0.0
 40
4.0
100
AcDbArc
 50
165.0000000000055
 51
104.9999999999944
  0
LINE
  5
41C4
330
18
100
AcDbEntity
  8
MSL-115-R32-R-7A
 48
3.0
100
AcDbLine
 10
975.9547484962098
 20
754.1514240808503
 30
0.0
 11
975.9547484962098
 21
770.1514240808503
 31
0.0
  0
ARC
  5
41C5
330
18
100
AcDbEntity
  8
MSL-115-R32-R-5
 48
2.0
100
AcDbCircle
 10
945.9547484962099
 20
762.1514240808505
 30
0.0
 40
4.0
100
AcDbArc
 50
164.9999999999992
 51
104.9999999999944
  0
CIRCLE
  5
41C6
330
18
100
AcDbEntity
  8
MSL-115-R32-R-0
 48
2.0
100
AcDbCircle
 10
945.9547484962099
 20
762.1514240808505
 30
0.0
 40
3.399999999999999
  0
CIRCLE
  5
41C7
330
18
100
AcDbEntity
  8
MSL-115-R32-R-0
 48
2.0
100
AcDbCircle
 10
975.9547484962098
 20
762.1514240808505
 30
0.0
 40
3.399999999999999
  0
LINE
  5
41C8
330
18
100
AcDbEntity
  8
MSL-115-R32-R-7A
 48
3.0
100
AcDbLine
 10
1005.954748496209
 20
756.15142408085
 30
0.0
 11
1005.954748496209
 21
768.1514240808501
 31
0.0
  0
ARC
  5
41C9
330
18
100
AcDbEntity
  8
MSL-115-R32-R-5
 48
2.0
100
AcDbCircle
 10
1005.954748496209
 20
762.1514240808501
 30
0.0
 40
4.0
100
AcDbArc
 50
164.9999999999992
 51
104.9999999999944
  0
CIRCLE
  5
41CA
330
18
100
AcDbEntity
  8
MSL-115-R32-R-0
 48
2.0
100
AcDbCircle
 10
1005.954748496209
 20
762.1514240808501
 30
0.0
 40
3.399999999999999
  0
LINE
  5
41CB
330
18
100
AcDbEntity
  8
MSL-115-R32-R-7A
 48
3.0
100
AcDbLine
 10
1035.954748496209
 20
756.15142408085
 30
0.0
 11
1035.954748496209
 21
768.1514240808501
 31
0.0
  0
ARC
  5
41CC
330
18
100
AcDbEntity
  8
MSL-115-R32-R-5
 48
2.0
100
AcDbCircle
 10
1035.954748496209
 20
762.1514240808501
 30
0.0
 40
4.0
100
AcDbArc
 50
164.9999999999992
 51
104.9999999999944
  0
CIRCLE
  5
41CD
330
18
100
AcDbEntity
  8
MSL-115-R32-R-0
 48
2.0
100
AcDbCircle
 10
1035.954748496209
 20
762.1514240808501
 30
0.0
 40
3.399999999999999
  0
CIRCLE
  5
41CE
330
18
100
AcDbEntity
  8
MSL-115-R32-R-0
 48
2.0
100
AcDbCircle
 10
855.9547484962099
 20
672.1514240808507
 30
0.0
 40
3.399999999999999
  0
ARC
  5
41CF
330
18
100
AcDbEntity
  8
MSL-115-R32-R-5
 48
2.0
100
AcDbCircle
 10
855.9547484962099
 20
672.1514240808507
 30
0.0
 40
4.0
100
AcDbArc
 50
164.9999999999992
 51
104.9999999999944
  0
LINE
  5
41D0
330
18
100
AcDbEntity
  8
MSL-115-R32-R-7A
 48
3.0
100
AcDbLine
 10
849.9547484962098
 20
672.1514240808503
 30
0.0
 11
1041.954748496209
 21
672.1514240808501
 31
0.0
  0
LINE
  5
41D1
330
18
100
AcDbEntity
  8
MSL-115-R32-R-7A
 48
3.0
100
AcDbLine
 10
855.9547484962099
 20
666.1514240808503
 30
0.0
 11
855.9547484962099
 21
678.1514240808503
 31
0.0
  0
LINE
  5
41D2
330
18
100
AcDbEntity
  8
MSL-115-R32-R-7A
 48
3.0
100
AcDbLine
 10
885.9547484962098
 20
666.1514240808503
 30
0.0
 11
885.9547484962098
 21
678.1514240808503
 31
0.0
  0
CIRCLE
  5
41D3
330
18
100
AcDbEntity
  8
MSL-115-R32-R-0
 48
2.0
100
AcDbCircle
 10
885.9547484962098
 20
672.1514240808507
 30
0.0
 40
3.399999999999999
  0
ARC
  5
41D4
330
18
100
AcDbEntity
  8
MSL-115-R32-R-5
 48
2.0
100
AcDbCircle
 10
885.9547484962098
 20
672.1514240808507
 30
0.0
 40
4.0
100
AcDbArc
 50
164.9999999999992
 51
104.9999999999944
  0
LINE
  5
41D6
330
18
100
AcDbEntity
  8
MSL-115-R32-R-7A
 48
3.0
100
AcDbLine
 10
915.9547484962098
 20
664.1514240808499
 30
0.0
 11
915.9547484962098
 21
680.1514240808499
 31
0.0
  0
ARC
  5
41D7
330
18
100
AcDbEntity
  8
MSL-115-R32-R-5
 48
2.0
100
AcDbCircle
 10
915.9547484962098
 20
672.1514240808507
 30
0.0
 40
4.0
100
AcDbArc
 50
165.0000000000055
 51
104.9999999999944
  0
CIRCLE
  5
41D8
330
18
100
AcDbEntity
  8
MSL-115-R32-R-0
 48
2.0
100
AcDbCircle
 10
915.9547484962098
 20
672.1514240808507
 30
0.0
 40
3.399999999999999
  0
ARC
  5
41DA
330
18
100
AcDbEntity
  8
MSL-115-R32-R-5
 48
2.0
100
AcDbCircle
 10
975.9547484962098
 20
672.1514240808501
 30
0.0
 40
4.0
100
AcDbArc
 50
164.9999999999992
 51
104.9999999999944
  0
LINE
  5
41DC
330
18
100
AcDbEntity
  8
MSL-115-R32-R-7A
 48
3.0
100
AcDbLine
 10
975.9547484962098
 20
664.1514240808499
 30
0.0
 11
975.9547484962098
 21
680.1514240808499
 31
0.0
  0
CIRCLE
  5
41DD
330
18
100
AcDbEntity
  8
MSL-115-R32-R-0
 48
2.0
100
AcDbCircle
 10
945.9547484962094
 20
672.1514240808501
 30
0.0
 40
3.399999999999999
  0
ARC
  5
41DE
330
18
100
AcDbEntity
  8
MSL-115-R32-R-5
 48
2.0
100
AcDbCircle
 10
945.9547484962094
 20
672.1514240808501
 30
0.0
 40
4.0
100
AcDbArc
 50
164.9999999999992
 51
104.9999999999944
  0
CIRCLE
  5
41DF
330
18
100
AcDbEntity
  8
MSL-115-R32-R-0
 48
2.0
100
AcDbCircle
 10
975.9547484962098
 20
672.1514240808501
 30
0.0
 40
3.399999999999999
  0
LINE
  5
41E0
330
18
100
AcDbEntity
  8
MSL-115-R32-R-7A
 48
3.0
100
AcDbLine
 10
1005.954748496209
 20
666.1514240808501
 30
0.0
 11
1005.954748496209
 21
678.1514240808501
 31
0.0
  0
CIRCLE
  5
41E1
330
18
100
AcDbEntity
  8
MSL-115-R32-R-0
 48
2.0
100
AcDbCircle
 10
1005.954748496209
 20
672.1514240808501
 30
0.0
 40
3.399999999999999
  0
ARC
  5
41E2
330
18
100
AcDbEntity
  8
MSL-115-R32-R-5
 48
2.0
100
AcDbCircle
 10
1005.954748496209
 20
672.1514240808501
 30
0.0
 40
4.0
100
AcDbArc
 50
164.9999999999992
 51
104.9999999999944
  0
LINE
  5
41E3
330
18
100
AcDbEntity
  8
MSL-115-R32-R-7A
 48
3.0
100
AcDbLine
 10
1035.954748496209
 20
666.1514240808501
 30
0.0
 11
1035.954748496209
 21
678.1514240808501
 31
0.0
  0
ARC
  5
41E4
330
18
100
AcDbEntity
  8
MSL-115-R32-R-5
 48
2.0
100
AcDbCircle
 10
1035.954748496209
 20
672.1514240808501
 30
0.0
 40
4.0
100
AcDbArc
 50
164.9999999999992
 51
104.9999999999944
  0
CIRCLE
  5
41E5
330
18
100
AcDbEntity
  8
MSL-115-R32-R-0
 48
2.0
100
AcDbCircle
 10
1035.954748496209
 20
672.1514240808501
 30
0.0
 40
3.399999999999999
  0
LINE
  5
49FF
330
18
100
AcDbEntity
  8
MSL-115-R32-R-7A
 48
3.0
100
AcDbLine
 10
945.9547484962095
 20
756.1514240808506
 30
0.0
 11
945.9547484962095
 21
768.1514240808505
 31
0.0
  0
LINE
  5
4A00
330
18
100
AcDbEntity
  8
MSL-115-R32-R-7A
 48
3.0
100
AcDbLine
 10
945.9547484962095
 20
666.1514240808505
 30
0.0
 11
945.9547484962095
 21
678.1514240808506
 31
0.0
  0
LINE
  5
4A48
330
18
100
AcDbEntity
  8
MSL-115-R32-R-3A
 48
3.0
100
AcDbLine
 10
1312.023679833911
 20
837.8159623801813
 30
0.0
 11
1307.789396833911
 21
837.8159623801813
 31
0.0
  0
LINE
  5
4A4C
330
18
100
AcDbEntity
  8
MSL-115-R32-R-3A
 48
3.0
100
AcDbLine
 10
1300.391239190148
 20
837.7573837364186
 30
0.0
 11
1296.958396477673
 21
834.324541023944
 31
0.0
  0
LINE
  5
4A4D
330
18
100
AcDbEntity
  8
MSL-115-R32-R-3A
 48
3.0
100
AcDbLine
 10
1302.023679833911
 20
837.8159623801813
 30
0.0
 11
1300.532660546386
 21
837.8159623801813
 31
0.0
  0
LINE
  5
4A4E
330
18
100
AcDbEntity
  8
MSL-115-R32-R-3A
 48
3.0
100
AcDbLine
 10
1306.109186741086
 20
837.8159623801813
 30
0.0
 11
1302.023679833911
 21
837.8159623801813
 31
0.0
  0
LINE
  5
4A4F
330
18
100
AcDbEntity
  8
MSL-115-R32-R-3A
 48
3.0
100
AcDbLine
 10
1306.209186736602
 20
837.8427572968355
 30
0.0
 11
1306.848817838401
 21
838.2120484635308
 31
0.0
  0
ARC
  5
4A50
330
18
100
AcDbEntity
  8
MSL-115-R32-R-3A
 48
3.0
100
AcDbCircle
 10
1306.1091867409
 20
838.0159623812639
 30
0.0
 40
0.2000000010826334
100
AcDbArc
 50
270.0000000533152
 51
299.9999984074325
  0
LINE
  5
4A51
330
18
100
AcDbEntity
  8
MSL-115-R32-R-3A
 48
3.0
100
AcDbLine
 10
1307.048706704628
 20
838.2121124547122
 30
0.0
 11
1307.689507963194
 21
837.84269330565
 31
0.0
  0
ARC
  5
4A52
330
18
100
AcDbEntity
  8
MSL-115-R32-R-3A
 48
3.0
100
AcDbCircle
 10
1306.948817833911
 20
838.0388433801813
 30
0.0
 40
0.1999999483524664
100
AcDbArc
 50
60.03673740780758
 51
119.9999985145627
  0
ARC
  5
4A53
330
18
100
AcDbEntity
  8
MSL-115-R32-R-3A
 48
3.0
100
AcDbCircle
 10
1307.789396833913
 20
838.0159623801873
 30
0.0
 40
0.1999999483587815
100
AcDbArc
 50
240.0367374079436
 51
269.999999999316
  0
ARC
  5
4A54
330
18
100
AcDbEntity
  8
MSL-115-R32-R-3A
 48
3.0
100
AcDbCircle
 10
1301.749817833911
 20
829.0703523801813
 30
0.0
 40
0.2
100
AcDbArc
 50
0.0
 51
89.99999999999998
  0
LINE
  5
4A55
330
18
100
AcDbEntity
  8
MSL-115-R32-R-3A
 48
3.0
100
AcDbLine
 10
1297.099817833911
 20
829.2703523801813
 30
0.0
 11
1301.749817833911
 21
829.2703523801813
 31
0.0
  0
ARC
  5
4A56
330
18
100
AcDbEntity
  8
MSL-115-R32-R-3A
 48
3.0
100
AcDbCircle
 10
1297.099817833911
 20
829.4703523801812
 30
0.0
 40
0.2
100
AcDbArc
 50
180.0
 51
270.0
  0
LINE
  5
4A57
330
18
100
AcDbEntity
  8
MSL-115-R32-R-3A
 48
3.0
100
AcDbLine
 10
1296.899817833911
 20
834.1831196677064
 30
0.0
 11
1296.899817833911
 21
829.470352380181
 31
0.0
  0
ARC
  5
4A58
330
18
100
AcDbEntity
  8
MSL-115-R32-R-3A
 48
3.0
100
AcDbCircle
 10
1297.099817833911
 20
834.1831196677066
 30
0.0
 40
0.2
100
AcDbArc
 50
134.9999999999884
 51
180.0
  0
ARC
  5
4A59
330
18
100
AcDbEntity
  8
MSL-115-R32-R-3A
 48
3.0
100
AcDbCircle
 10
1300.532660546386
 20
837.6159623801813
 30
0.0
 40
0.2
100
AcDbArc
 50
89.99999999999998
 51
134.9999999999884
  0
LINE
  5
4A5A
330
18
100
AcDbEntity
  8
MSL-115-R32-R-3A
 48
3.0
100
AcDbLine
 10
1301.949817833911
 20
829.0703523801813
 30
0.0
 11
1301.949817833911
 21
825.4706313801811
 31
0.0
  0
LINE
  5
4A62
330
18
100
AcDbEntity
  8
MSL-115-R32-R-3A
 48
3.0
100
AcDbLine
 10
1313.364699121436
 20
837.8159623801813
 30
0.0
 11
1312.023679833911
 21
837.8159623801813
 31
0.0
  0
LINE
  5
4A63
330
18
100
AcDbEntity
  8
MSL-115-R32-R-3A
 48
3.0
100
AcDbLine
 10
1316.938963190148
 20
834.324541023944
 30
0.0
 11
1313.506120477673
 21
837.7573837364186
 31
0.0
  0
LINE
  5
4A64
330
18
100
AcDbEntity
  8
MSL-115-R32-R-3A
 48
3.0
100
AcDbLine
 10
1316.997541833911
 20
829.4709103801812
 30
0.0
 11
1316.997541833911
 21
834.1831196677064
 31
0.0
  0
ARC
  5
4A65
330
18
100
AcDbEntity
  8
MSL-115-R32-R-3A
 48
3.0
100
AcDbCircle
 10
1316.797541833911
 20
829.4709103801812
 30
0.0
 40
0.2
100
AcDbArc
 50
270.0
 51
0.0
  0
LINE
  5
4A66
330
18
100
AcDbEntity
  8
MSL-115-R32-R-3A
 48
3.0
100
AcDbLine
 10
1312.147541833911
 20
829.2709103801811
 30
0.0
 11
1316.797541833911
 21
829.2709103801811
 31
0.0
  0
ARC
  5
4A67
330
18
100
AcDbEntity
  8
MSL-115-R32-R-3A
 48
3.0
100
AcDbCircle
 10
1312.147541833911
 20
829.0709103801813
 30
0.0
 40
0.2
100
AcDbArc
 50
89.99999999999998
 51
180.0
  0
ARC
  5
4A68
330
18
100
AcDbEntity
  8
MSL-115-R32-R-3A
 48
3.0
100
AcDbCircle
 10
1313.364699121436
 20
837.6159623801813
 30
0.0
 40
0.2
100
AcDbArc
 50
45.00000000004604
 51
89.99999999999998
  0
LINE
  5
4A69
330
18
100
AcDbEntity
  8
MSL-115-R32-R-3A
 48
3.0
100
AcDbLine
 10
1311.947541833911
 20
825.4706313801811
 30
0.0
 11
1311.947541833911
 21
829.0709103801813
 31
0.0
  0
LINE
  5
4A7A
330
18
100
AcDbEntity
  8
MSL-115-R32-R-3A
 48
3.0
100
AcDbLine
 10
1413.938963190148
 20
834.324541023944
 30
0.0
 11
1410.506120477673
 21
837.7573837364186
 31
0.0
  0
LINE
  5
4A7B
330
18
100
AcDbEntity
  8
MSL-115-R32-R-3A
 48
3.0
100
AcDbLine
 10
1409.147541833911
 20
829.2703523801813
 30
0.0
 11
1413.79754183391
 21
829.2703523801813
 31
0.0
  0
LINE
  5
4A99
330
18
100
AcDbEntity
  8
MSL-115-R32-R-3A
 48
3.0
100
AcDbLine
 10
1397.391239190148
 20
837.7573837364186
 30
0.0
 11
1393.958396477674
 21
834.324541023944
 31
0.0
  0
ARC
  5
4A9A
330
18
100
AcDbEntity
  8
MSL-115-R32-R-3A
 48
3.0
100
AcDbCircle
 10
1394.099817833911
 20
834.1831196677066
 30
0.0
 40
0.2
100
AcDbArc
 50
135.000000000046
 51
180.0
  0
ARC
  5
4A9B
330
18
100
AcDbEntity
  8
MSL-115-R32-R-3A
 48
3.0
100
AcDbCircle
 10
1397.532660546385
 20
837.6159623801811
 30
0.0
 40
0.2
100
AcDbArc
 50
89.99999999999998
 51
134.9999999999309
  0
LINE
  5
4A9C
330
18
100
AcDbEntity
  8
MSL-115-R32-R-3A
 48
3.0
100
AcDbLine
 10
1403.107962833911
 20
837.8159623801812
 30
0.0
 11
1397.532660546385
 21
837.8159623801812
 31
0.0
  0
LINE
  5
4A9D
330
18
100
AcDbEntity
  8
MSL-115-R32-R-3A
 48
3.0
100
AcDbLine
 10
1403.207851704627
 20
837.84269330565
 30
0.0
 11
1403.848652963193
 21
838.2121124547118
 31
0.0
  0
ARC
  5
4A9E
330
18
100
AcDbEntity
  8
MSL-115-R32-R-3A
 48
3.0
100
AcDbCircle
 10
1403.10796283391
 20
838.0159623801835
 30
0.0
 40
0.1999999483547963
100
AcDbArc
 50
270.0000000000651
 51
299.9632625920808
  0
ARC
  5
4A9F
330
18
100
AcDbEntity
  8
MSL-115-R32-R-3A
 48
3.0
100
AcDbCircle
 10
1403.948541833911
 20
838.0388433801813
 30
0.0
 40
0.1999999483524572
100
AcDbArc
 50
60.00000148543723
 51
119.9632625923741
  0
ARC
  5
4AA0
330
18
100
AcDbEntity
  8
MSL-115-R32-R-3A
 48
3.0
100
AcDbCircle
 10
1404.788172926736
 20
838.0159623801821
 30
0.0
 40
0.2000000000008941
100
AcDbArc
 50
240.0000014855127
 51
269.9999999999348
  0
LINE
  5
4AA1
330
18
100
AcDbEntity
  8
MSL-115-R32-R-3A
 48
3.0
100
AcDbLine
 10
1404.04854182942
 20
838.2120484635306
 30
0.0
 11
1404.688172931226
 21
837.8427572968316
 31
0.0
  0
LINE
  5
4AA2
330
18
100
AcDbEntity
  8
MSL-115-R32-R-3A
 48
3.0
100
AcDbLine
 10
1408.873679833911
 20
837.8159623801812
 30
0.0
 11
1404.788172926736
 21
837.8159623801812
 31
0.0
  0
LINE
  5
4AA3
330
18
100
AcDbEntity
  8
MSL-115-R32-R-3A
 48
3.0
100
AcDbLine
 10
1410.364699121436
 20
837.8159623801812
 30
0.0
 11
1408.873679833911
 21
837.8159623801812
 31
0.0
  0
ARC
  5
4AA4
330
18
100
AcDbEntity
  8
MSL-115-R32-R-3A
 48
3.0
100
AcDbCircle
 10
1410.364699121436
 20
837.6159623801811
 30
0.0
 40
0.2
100
AcDbArc
 50
45.00000000006906
 51
89.99999999999998
  0
ARC
  5
4AA5
330
18
100
AcDbEntity
  8
MSL-115-R32-R-3A
 48
3.0
100
AcDbCircle
 10
1409.147541833911
 20
829.0703523801813
 30
0.0
 40
0.2
100
AcDbArc
 50
89.99999999999998
 51
180.0
  0
LINE
  5
4AA6
330
18
100
AcDbEntity
  8
MSL-115-R32-R-3A
 48
3.0
100
AcDbLine
 10
1408.947541833911
 20
825.4706313801811
 30
0.0
 11
1408.947541833911
 21
829.0703523801809
 31
0.0
  0
ARC
  5
4AA7
330
18
100
AcDbEntity
  8
MSL-115-R32-R-3A
 48
3.0
100
AcDbCircle
 10
1398.749817833911
 20
829.0709103801813
 30
0.0
 40
0.2
100
AcDbArc
 50
0.0
 51
89.99999999999998
  0
LINE
  5
4AA8
330
18
100
AcDbEntity
  8
MSL-115-R32-R-3A
 48
3.0
100
AcDbLine
 10
1398.949817833911
 20
829.0709103801813
 30
0.0
 11
1398.949817833911
 21
825.4706313801811
 31
0.0
  0
LINE
  5
4AA9
330
18
100
AcDbEntity
  8
MSL-115-R32-R-3A
 48
3.0
100
AcDbLine
 10
1394.099817833911
 20
829.2709103801811
 30
0.0
 11
1398.749817833911
 21
829.2709103801811
 31
0.0
  0
ARC
  5
4AAA
330
18
100
AcDbEntity
  8
MSL-115-R32-R-3A
 48
3.0
100
AcDbCircle
 10
1394.099817833911
 20
829.4709103801812
 30
0.0
 40
0.2
100
AcDbArc
 50
180.0
 51
270.0
  0
LINE
  5
4AAB
330
18
100
AcDbEntity
  8
MSL-115-R32-R-3A
 48
3.0
100
AcDbLine
 10
1393.899817833911
 20
834.1831196677064
 30
0.0
 11
1393.899817833911
 21
829.4709103801812
 31
0.0
  0
ARC
  5
4AAF
330
18
100
AcDbEntity
  8
MSL-115-R32-R-3A
 48
3.0
100
AcDbCircle
 10
1413.79754183391
 20
834.1831196677066
 30
0.0
 40
0.2
100
AcDbArc
 50
0.0
 51
45.00000000002301
  0
LINE
  5
4AB0
330
18
100
AcDbEntity
  8
MSL-115-R32-R-3A
 48
3.0
100
AcDbLine
 10
1413.997541833911
 20
829.470352380181
 30
0.0
 11
1413.997541833911
 21
834.1831196677064
 31
0.0
  0
ARC
  5
4AB1
330
18
100
AcDbEntity
  8
MSL-115-R32-R-3A
 48
3.0
100
AcDbCircle
 10
1413.79754183391
 20
829.470352380181
 30
0.0
 40
0.2
100
AcDbArc
 50
270.0
 51
0.0
  0
LINE
  5
4AB6
330
18
100
AcDbEntity
  8
MSL-115-R32-R-3A
 48
3.0
100
AcDbLine
 10
786.6777608385697
 20
682.1514240808504
 30
0.0
 11
786.6777608385697
 21
752.1514240808504
 31
0.0
  0
LINE
  5
4AB7
330
18
100
AcDbEntity
  8
MSL-115-R32-R-3A
 48
3.0
100
AcDbLine
 10
805.7047484962094
 20
682.1514240808504
 30
0.0
 11
805.7047484962096
 21
752.1514240808504
 31
0.0
  0
LINE
  5
4AB8
330
18
100
AcDbEntity
  8
MSL-115-R32-R-3A
 48
3.0
100
AcDbLine
 10
786.9408703075495
 20
752.1514240808504
 30
0.0
 11
805.4547484962094
 21
752.1514240808504
 31
0.0
  0
LINE
  5
4AB9
330
18
100
AcDbEntity
  8
MSL-115-R32-R-3A
 48
3.0
100
AcDbLine
 10
774.9547484962095
 20
779.6514240808504
 30
0.0
 11
816.9547484962095
 21
779.6514240808504
 31
0.0
  0
LINE
  5
4ABA
330
18
100
AcDbEntity
  8
MSL-115-R32-R-3A
 48
3.0
100
AcDbLine
 10
774.9547484962095
 20
767.1514240808504
 30
0.0
 11
816.9547484962093
 21
767.1514240808504
 31
0.0
  0
LINE
  5
4ABB
330
18
100
AcDbEntity
  8
MSL-115-R32-R-3A
 48
3.0
100
AcDbLine
 10
774.9547484962095
 20
779.6514240808504
 30
0.0
 11
774.9547484962095
 21
767.1514240808504
 31
0.0
  0
LINE
  5
4ABC
330
18
100
AcDbEntity
  8
MSL-115-R32-R-3A
 48
3.0
100
AcDbLine
 10
774.9547484962095
 20
778.7478947153514
 30
0.0
 11
774.1516112824328
 21
779.6514240808504
 31
0.0
  0
LINE
  5
4ABD
330
18
100
AcDbEntity
  8
MSL-115-R32-R-3A
 48
3.0
100
AcDbLine
 10
786.9408703075495
 20
767.1514240808504
 30
0.0
 11
786.9408703075495
 21
752.1514240808504
 31
0.0
  0
LINE
  5
4ABE
330
18
100
AcDbEntity
  8
MSL-115-R32-R-3A
 48
3.0
100
AcDbLine
 10
786.6777608385697
 20
752.1514240808504
 30
0.0
 11
786.9408703075495
 21
752.1514240808504
 31
0.0
  0
LINE
  5
4ABF
330
18
100
AcDbEntity
  8
MSL-115-R32-R-3A
 48
3.0
100
AcDbLine
 10
816.9547484962093
 20
767.1514240808504
 30
0.0
 11
816.9547484962093
 21
779.6514240808504
 31
0.0
  0
LINE
  5
4AC0
330
18
100
AcDbEntity
  8
MSL-115-R32-R-3A
 48
3.0
100
AcDbLine
 10
805.4547484962094
 20
752.1514240808504
 30
0.0
 11
805.4547484962094
 21
767.1514240808504
 31
0.0
  0
LINE
  5
4AC1
330
18
100
AcDbEntity
  8
MSL-115-R32-R-3A
 48
3.0
100
AcDbLine
 10
805.7047484962094
 20
752.1514240808504
 30
0.0
 11
805.4547484962094
 21
752.1514240808504
 31
0.0
  0
LINE
  5
4AC2
330
18
100
AcDbEntity
  8
MSL-115-R32-R-3A
 48
3.0
100
AcDbLine
 10
786.9408703075495
 20
682.1514240808504
 30
0.0
 11
805.4547484962094
 21
682.1514240808504
 31
0.0
  0
LINE
  5
4AC3
330
18
100
AcDbEntity
  8
MSL-115-R32-R-3A
 48
3.0
100
AcDbLine
 10
816.9547484962093
 20
654.6514240808504
 30
0.0
 11
774.9547484962094
 21
654.6514240808504
 31
0.0
  0
LINE
  5
4AC4
330
18
100
AcDbEntity
  8
MSL-115-R32-R-3A
 48
3.0
100
AcDbLine
 10
816.9547484962093
 20
667.1514240808504
 30
0.0
 11
774.9547484962094
 21
667.1514240808504
 31
0.0
  0
LINE
  5
4AC5
330
18
100
AcDbEntity
  8
MSL-115-R32-R-3A
 48
3.0
100
AcDbLine
 10
774.9547484962094
 20
667.1514240808504
 30
0.0
 11
774.9547484962094
 21
654.6514240808504
 31
0.0
  0
LINE
  5
4AC6
330
18
100
AcDbEntity
  8
MSL-115-R32-R-3A
 48
3.0
100
AcDbLine
 10
786.9408703075495
 20
682.1514240808504
 30
0.0
 11
786.9408703075495
 21
667.1514240808504
 31
0.0
  0
LINE
  5
4AC7
330
18
100
AcDbEntity
  8
MSL-115-R32-R-3A
 48
3.0
100
AcDbLine
 10
786.9408703075495
 20
682.1514240808504
 30
0.0
 11
786.6777608385697
 21
682.1514240808504
 31
0.0
  0
LINE
  5
4AC8
330
18
100
AcDbEntity
  8
MSL-115-R32-R-3A
 48
3.0
100
AcDbLine
 10
816.9547484962093
 20
654.6514240808504
 30
0.0
 11
816.9547484962093
 21
667.1514240808504
 31
0.0
  0
LINE
  5
4AC9
330
18
100
AcDbEntity
  8
MSL-115-R32-R-3A
 48
3.0
100
AcDbLine
 10
805.4547484962094
 20
667.1514240808504
 30
0.0
 11
805.4547484962094
 21
682.1514240808504
 31
0.0
  0
LINE
  5
4ACA
330
18
100
AcDbEntity
  8
MSL-115-R32-R-3A
 48
3.0
100
AcDbLine
 10
805.4547484962094
 20
682.1514240808504
 30
0.0
 11
805.7047484962094
 21
682.1514240808504
 31
0.0
  0
LINE
  5
4ACB
330
18
100
AcDbEntity
  8
MSL-115-R32-R-3A
 48
3.0
100
AcDbLine
 10
1186.677760838569
 20
682.1514240808503
 30
0.0
 11
1186.677760838569
 21
752.1514240808503
 31
0.0
  0
LINE
  5
4ACC
330
18
100
AcDbEntity
  8
MSL-115-R32-R-3A
 48
3.0
100
AcDbLine
 10
1205.704748496209
 20
682.1514240808503
 30
0.0
 11
1205.704748496209
 21
752.1514240808503
 31
0.0
  0
LINE
  5
4ACD
330
18
100
AcDbEntity
  8
MSL-115-R32-R-3A
 48
3.0
100
AcDbLine
 10
1186.940870307549
 20
752.1514240808503
 30
0.0
 11
1205.454748496209
 21
752.1514240808503
 31
0.0
  0
LINE
  5
4ACE
330
18
100
AcDbEntity
  8
MSL-115-R32-R-3A
 48
3.0
100
AcDbLine
 10
1174.954748496209
 20
779.6514240808503
 30
0.0
 11
1216.954748496209
 21
779.6514240808503
 31
0.0
  0
LINE
  5
4ACF
330
18
100
AcDbEntity
  8
MSL-115-R32-R-3A
 48
3.0
100
AcDbLine
 10
1174.954748496209
 20
767.1514240808503
 30
0.0
 11
1216.954748496209
 21
767.1514240808503
 31
0.0
  0
LINE
  5
4AD0
330
18
100
AcDbEntity
  8
MSL-115-R32-R-3A
 48
3.0
100
AcDbLine
 10
1174.954748496209
 20
779.6514240808503
 30
0.0
 11
1174.954748496209
 21
767.1514240808503
 31
0.0
  0
LINE
  5
4AD1
330
18
100
AcDbEntity
  8
MSL-115-R32-R-3A
 48
3.0
100
AcDbLine
 10
1174.954748496209
 20
778.7478947153513
 30
0.0
 11
1174.151611282432
 21
779.6514240808503
 31
0.0
  0
LINE
  5
4AD2
330
18
100
AcDbEntity
  8
MSL-115-R32-R-3A
 48
3.0
100
AcDbLine
 10
1186.940870307549
 20
767.1514240808503
 30
0.0
 11
1186.940870307549
 21
752.1514240808503
 31
0.0
  0
LINE
  5
4AD3
330
18
100
AcDbEntity
  8
MSL-115-R32-R-3A
 48
3.0
100
AcDbLine
 10
1186.677760838569
 20
752.1514240808503
 30
0.0
 11
1186.940870307549
 21
752.1514240808503
 31
0.0
  0
LINE
  5
4AD4
330
18
100
AcDbEntity
  8
MSL-115-R32-R-3A
 48
3.0
100
AcDbLine
 10
1216.954748496209
 20
767.1514240808503
 30
0.0
 11
1216.954748496209
 21
779.6514240808503
 31
0.0
  0
LINE
  5
4AD5
330
18
100
AcDbEntity
  8
MSL-115-R32-R-3A
 48
3.0
100
AcDbLine
 10
1205.454748496209
 20
752.1514240808503
 30
0.0
 11
1205.454748496209
 21
767.1514240808503
 31
0.0
  0
LINE
  5
4AD6
330
18
100
AcDbEntity
  8
MSL-115-R32-R-3A
 48
3.0
100
AcDbLine
 10
1205.704748496209
 20
752.1514240808503
 30
0.0
 11
1205.454748496209
 21
752.1514240808503
 31
0.0
  0
LINE
  5
4AD7
330
18
100
AcDbEntity
  8
MSL-115-R32-R-3A
 48
3.0
100
AcDbLine
 10
1186.940870307549
 20
682.1514240808503
 30
0.0
 11
1205.454748496209
 21
682.1514240808503
 31
0.0
  0
LINE
  5
4AD8
330
18
100
AcDbEntity
  8
MSL-115-R32-R-3A
 48
3.0
100
AcDbLine
 10
1216.954748496209
 20
654.6514240808503
 30
0.0
 11
1174.954748496209
 21
654.6514240808503
 31
0.0
  0
LINE
  5
4AD9
330
18
100
AcDbEntity
  8
MSL-115-R32-R-3A
 48
3.0
100
AcDbLine
 10
1216.954748496209
 20
667.1514240808503
 30
0.0
 11
1174.954748496209
 21
667.1514240808503
 31
0.0
  0
LINE
  5
4ADA
330
18
100
AcDbEntity
  8
MSL-115-R32-R-3A
 48
3.0
100
AcDbLine
 10
1174.954748496209
 20
667.1514240808503
 30
0.0
 11
1174.954748496209
 21
654.6514240808503
 31
0.0
  0
LINE
  5
4ADB
330
18
100
AcDbEntity
  8
MSL-115-R32-R-3A
 48
3.0
100
AcDbLine
 10
1186.940870307549
 20
682.1514240808503
 30
0.0
 11
1186.940870307549
 21
667.1514240808503
 31
0.0
  0
LINE
  5
4ADC
330
18
100
AcDbEntity
  8
MSL-115-R32-R-3A
 48
3.0
100
AcDbLine
 10
1186.940870307549
 20
682.1514240808503
 30
0.0
 11
1186.677760838569
 21
682.1514240808503
 31
0.0
  0
LINE
  5
4ADD
330
18
100
AcDbEntity
  8
MSL-115-R32-R-3A
 48
3.0
100
AcDbLine
 10
1216.954748496209
 20
654.6514240808503
 30
0.0
 11
1216.954748496209
 21
667.1514240808503
 31
0.0
  0
LINE
  5
4ADE
330
18
100
AcDbEntity
  8
MSL-115-R32-R-3A
 48
3.0
100
AcDbLine
 10
1205.454748496209
 20
667.1514240808503
 30
0.0
 11
1205.454748496209
 21
682.1514240808503
 31
0.0
  0
LINE
  5
4ADF
330
18
100
AcDbEntity
  8
MSL-115-R32-R-3A
 48
3.0
100
AcDbLine
 10
1205.454748496209
 20
682.1514240808503
 30
0.0
 11
1205.704748496209
 21
682.1514240808503
 31
0.0
  0
MTEXT
  5
4BE1
330
18
100
AcDbEntity
  8
MSL-115-R32-R-6
100
AcDbMText
 10
831.3809104330159
 20
852.2064907458954
 30
0.0
 40
7.0
 41
136.7733
 71
     1
 72
     5
  1
MSL 115-R32-R-100
1001
ACAD
1000
MTEXTBEGIN
1070
    73
1070
     1
1070
    44
1040
1.0
1070
    74
1070
     0
1000
MTEXTEND
  0
CIRCLE
  5
4CB4
330
18
100
AcDbEntity
  8
MSL-115-R32-R-0
 48
2.0
100
AcDbCircle
 10
975.9547484962098
 20
762.151424080851
 30
0.0
 40
6.5
  0
CIRCLE
  5
4CB5
330
18
100
AcDbEntity
  8
MSL-115-R32-R-0
 48
2.0
100
AcDbCircle
 10
975.9547484962098
 20
672.1514240808507
 30
0.0
 40
6.5
  0
CIRCLE
  5
4CB6
330
18
100
AcDbEntity
  8
MSL-115-R32-R-0
 48
2.0
100
AcDbCircle
 10
915.9547484962098
 20
672.1514240808511
 30
0.0
 40
6.5
  0
LINE
  5
4DDA
330
18
100
AcDbEntity
  8
MSL-115-R32-R-0
 48
2.0
100
AcDbLine
 10
1304.44867983391
 20
942.2706313801811
 30
0.0
 11
1316.448679833911
 21
942.2706313801811
 31
0.0
  0
LINE
  5
4DDB
330
18
100
AcDbEntity
  8
MSL-115-R32-R-0
 48
2.0
100
AcDbLine
 10
1303.948679833911
 20
941.7706313801812
 30
0.0
 11
1316.94867983391
 21
941.7706313801812
 31
0.0
  0
LINE
  5
4DDC
330
18
100
AcDbEntity
  8
MSL-115-R32-R-0
 48
2.0
100
AcDbLine
 10
1303.948679833911
 20
941.7706313801812
 30
0.0
 11
1304.44867983391
 21
942.2706313801811
 31
0.0
  0
LINE
  5
4DDD
330
18
100
AcDbEntity
  8
MSL-115-R32-R-0
 48
2.0
100
AcDbLine
 10
1303.948679833911
 20
940.2706313801811
 30
0.0
 11
1303.948679833911
 21
941.7706313801812
 31
0.0
  0
LINE
  5
4DDE
330
18
100
AcDbEntity
  8
MSL-115-R32-R-0
 48
2.0
100
AcDbLine
 10
1316.94867983391
 20
941.7706313801812
 30
0.0
 11
1316.448679833911
 21
942.2706313801811
 31
0.0
  0
LINE
  5
4DDF
330
18
100
AcDbEntity
  8
MSL-115-R32-R-0
 48
2.0
100
AcDbLine
 10
1316.94867983391
 20
941.7706313801812
 30
0.0
 11
1316.94867983391
 21
940.2706313801811
 31
0.0
  0
ENDSEC
  0
SECTION
  2
OBJECTS
  0
DICTIONARY
  5
C
330
0
100
AcDbDictionary
  3
ACAD_GROUP
350
D
  3
ACAD_LAYOUT
350
23DE
  3
ACAD_MLINESTYLE
350
E
  3
ACAD_PLOTSETTINGS
350
23DF
  3
ACAD_PLOTSTYLENAME
350
23DC
  3
ACDBHEADERROUNDTRIPXREC
350
4DF0
  3
ACDBVARIABLEDICTIONARY
350
D96
  3
ACMDICTIONARY
350
2423
  3
AMG
350
23E7
  3
AMGSNAPSETTINGS
350
24A6
  3
DWGPROPS
350
4DED
  0
DICTIONARY
  5
2541
330
18
100
AcDbDictionary
280
     1
  3
ACAD_INDEX
360
4C9A
  3
ACAD_LAYOUTSELFREF
360
4E12
  0
DICTIONARY
  5
3035
330
15
100
AcDbDictionary
280
     1
  3
ACAD_LAYOUTSELFREF
360
4E11
  0
DICTIONARY
  5
D
102
{ACAD_REACTORS
330
C
102
}
330
C
100
AcDbDictionary
  0
DICTIONARY
  5
23DE
102
{ACAD_REACTORS
330
C
102
}
330
C
100
AcDbDictionary
  0
DICTIONARY
  5
E
102
{ACAD_REACTORS
330
C
102
}
330
C
100
AcDbDictionary
  3
STANDARD
350
1B
  0
DICTIONARY
  5
23DF
102
{ACAD_REACTORS
330
C
102
}
330
C
100
AcDbDictionary
  0
ACDBDICTIONARYWDFLT
  5
23DC
102
{ACAD_REACTORS
330
C
102
}
330
C
100
AcDbDictionary
281
     1
  3
Normal
350
23DD
100
AcDbDictionaryWithDefault
340
23DD
  0
DICTIONARY
  5
4DF0
102
{ACAD_REACTORS
330
C
102
}
330
C
100
AcDbDictionary
  3
CEPSNTYPE
350
4DFA
  3
DIMSTYLEDATA
350
4DFE
  3
FINGERPRINTGUID
350
4DFB
  3
HYPERLINKBASE
350
4DF3
  3
INSUNITS
350
4DF9
  3
LAYOUTDICT
350
4DF5
  3
LWETCUNION
350
4DF8
  3
PLOTSETDICT
350
4DF6
  3
PLOTSTYLNAMDICT
350
4DF7
  3
PSVPSCALE
350
4DFD
  3
PUCSBASE
350
4E01
  3
PUCSORGBACK
350
4E07
  3
PUCSORGBOTTOM
350
4E03
  3
PUCSORGFRONT
350
4E06
  3
PUCSORGLEFT
350
4E04
  3
PUCSORGRIGHT
350
4E05
  3
PUCSORGTOP
350
4E02
  3
PUCSORTHOREF
350
4DFF
  3
PUCSORTHOVIEW
350
4E00
  3
STYLESHEET
350
4DF4
  3
TSTACKALIGN
350
4DF1
  3
TSTACKSIZE
350
4DF2
  3
UCSBASE
350
4E0A
  3
UCSORGBACK
350
4E10
  3
UCSORGBOTTOM
350
4E0C
  3
UCSORGFRONT
350
4E0F
  3
UCSORGLEFT
350
4E0D
  3
UCSORGRIGHT
350
4E0E
  3
UCSORGTOP
350
4E0B
  3
UCSORTHOREF
350
4E08
  3
UCSORTHOVIEW
350
4E09
  3
VERSIONGUID
350
4DFC
  0
DICTIONARY
  5
D96
102
{ACAD_REACTORS
330
C
102
}
330
C
100
AcDbDictionary
  3
INDEXCTL
350
2412
  3
SORTENTS
350
D97
  0
DICTIONARY
  5
2423
102
{ACAD_REACTORS
330
C
102
}
330
C
100
AcDbDictionary
  3
ACMSTDDICTIONARY
350
2428
  0
DICTIONARY
  5
23E7
102
{ACAD_REACTORS
330
C
102
}
330
C
100
AcDbDictionary
  3
ACMGSETTINGS
350
23E8
  0
DICTIONARY
  5
24A6
102
{ACAD_REACTORS
330
C
102
}
330
C
100
AcDbDictionary
  0
XRECORD
  5
4DED
102
{ACAD_REACTORS
330
C
102
}
330
C
100
AcDbXrecord
  1
DWGPROPS COOKIE
  2

  3

  4

  6

  7

  8

  9

300
AmdtFileType=84
301
=
302
=
303
=
304
=
305
=
306
=
307
=
308
=
309
=
 40
0.4431624884259259
 41
2452422.579892963
 42
2452919.867475404
  1

 90
        1
  0
DICTIONARY
  5
4C9A
102
{ACAD_REACTORS
330
2541
102
}
330
2541
100
AcDbDictionary
  3
*A1
350
4C9B
  0
XRECORD
  5
4E12
102
{ACAD_REACTORS
330
2541
102
}
330
2541
100
AcDbXrecord
340
18
  0
XRECORD
  5
4E11
102
{ACAD_REACTORS
330
3035
102
}
330
3035
100
AcDbXrecord
340
15
  0
MLINESTYLE
  5
1B
102
{ACAD_REACTORS
330
E
102
}
330
E
100
AcDbMlineStyle
  2
STANDARD
 70
     0
  3

 62
     0
 51
90.0
 52
90.0
 71
     2
 49
0.5
 62
   256
  6
BYLAYER
 49
-0.5
 62
   256
  6
BYLAYER
  0
ACDBPLACEHOLDER
  5
23DD
102
{ACAD_REACTORS
330
23DC
102
}
330
23DC
100
AcDbPlaceHolder
280
     0
  0
XRECORD
  5
4DFA
102
{ACAD_REACTORS
330
4DF0
102
}
330
4DF0
100
AcDbXrecord
 90
        0
  0
XRECORD
  5
4DFE
102
{ACAD_REACTORS
330
4DF0
102
}
330
4DF0
100
AcDbXrecord
1000
DSTYLE
1002
{
1070
    79
 70
     2
1070
   371
 70
    -1
1070
   372
 70
    -1
1002
}
  0
XRECORD
  5
4DFB
102
{ACAD_REACTORS
330
4DF0
102
}
330
4DF0
100
AcDbXrecord
  1
{C383D40E-645C-40CB-8723-B6B7C8CBAED4}
  0
XRECORD
  5
4DF3
102
{ACAD_REACTORS
330
4DF0
102
}
330
4DF0
100
AcDbXrecord
  1

  0
XRECORD
  5
4DF9
102
{ACAD_REACTORS
330
4DF0
102
}
330
4DF0
100
AcDbXrecord
 90
        0
  0
XRECORD
  5
4DF5
102
{ACAD_REACTORS
330
4DF0
102
}
330
4DF0
100
AcDbXrecord
340
23DE
  0
XRECORD
  5
4DF8
102
{ACAD_REACTORS
330
4DF0
102
}
330
4DF0
100
AcDbXrecord
 90
    14877
  0
XRECORD
  5
4DF6
102
{ACAD_REACTORS
330
4DF0
102
}
330
4DF0
100
AcDbXrecord
340
23DF
  0
XRECORD
  5
4DF7
102
{ACAD_REACTORS
330
4DF0
102
}
330
4DF0
100
AcDbXrecord
340
23DC
  0
XRECORD
  5
4DFD
102
{ACAD_REACTORS
330
4DF0
102
}
330
4DF0
100
AcDbXrecord
 40
0.0
  0
XRECORD
  5
4E01
102
{ACAD_REACTORS
330
4DF0
102
}
330
4DF0
100
AcDbXrecord
340
0
  0
XRECORD
  5
4E07
102
{ACAD_REACTORS
330
4DF0
102
}
330
4DF0
100
AcDbXrecord
 10
0.0
 20
0.0
 30
0.0
  0
XRECORD
  5
4E03
102
{ACAD_REACTORS
330
4DF0
102
}
330
4DF0
100
AcDbXrecord
 10
0.0
 20
0.0
 30
0.0
  0
XRECORD
  5
4E06
102
{ACAD_REACTORS
330
4DF0
102
}
330
4DF0
100
AcDbXrecord
 10
0.0
 20
0.0
 30
0.0
  0
XRECORD
  5
4E04
102
{ACAD_REACTORS
330
4DF0
102
}
330
4DF0
100
AcDbXrecord
 10
0.0
 20
0.0
 30
0.0
  0
XRECORD
  5
4E05
102
{ACAD_REACTORS
330
4DF0
102
}
330
4DF0
100
AcDbXrecord
 10
0.0
 20
0.0
 30
0.0
  0
XRECORD
  5
4E02
102
{ACAD_REACTORS
330
4DF0
102
}
330
4DF0
100
AcDbXrecord
 10
0.0
 20
0.0
 30
0.0
  0
XRECORD
  5
4DFF
102
{ACAD_REACTORS
330
4DF0
102
}
330
4DF0
100
AcDbXrecord
340
0
  0
XRECORD
  5
4E00
102
{ACAD_REACTORS
330
4DF0
102
}
330
4DF0
100
AcDbXrecord
 70
     0
  0
XRECORD
  5
4DF4
102
{ACAD_REACTORS
330
4DF0
102
}
330
4DF0
100
AcDbXrecord
  1
lutz_1.ctb
  0
XRECORD
  5
4DF1
102
{ACAD_REACTORS
330
4DF0
102
}
330
4DF0
100
AcDbXrecord
 90
        1
  0
XRECORD
  5
4DF2
102
{ACAD_REACTORS
330
4DF0
102
}
330
4DF0
100
AcDbXrecord
 90
       70
  0
XRECORD
  5
4E0A
102
{ACAD_REACTORS
330
4DF0
102
}
330
4DF0
100
AcDbXrecord
340
0
  0
XRECORD
  5
4E10
102
{ACAD_REACTORS
330
4DF0
102
}
330
4DF0
100
AcDbXrecord
 10
0.0
 20
0.0
 30
0.0
  0
XRECORD
  5
4E0C
102
{ACAD_REACTORS
330
4DF0
102
}
330
4DF0
100
AcDbXrecord
 10
0.0
 20
0.0
 30
0.0
  0
XRECORD
  5
4E0F
102
{ACAD_REACTORS
330
4DF0
102
}
330
4DF0
100
AcDbXrecord
 10
0.0
 20
0.0
 30
0.0
  0
XRECORD
  5
4E0D
102
{ACAD_REACTORS
330
4DF0
102
}
330
4DF0
100
AcDbXrecord
 10
0.0
 20
0.0
 30
0.0
  0
XRECORD
  5
4E0E
102
{ACAD_REACTORS
330
4DF0
102
}
330
4DF0
100
AcDbXrecord
 10
0.0
 20
0.0
 30
0.0
  0
XRECORD
  5
4E0B
102
{ACAD_REACTORS
330
4DF0
102
}
330
4DF0
100
AcDbXrecord
 10
0.0
 20
0.0
 30
0.0
  0
XRECORD
  5
4E08
102
{ACAD_REACTORS
330
4DF0
102
}
330
4DF0
100
AcDbXrecord
340
0
  0
XRECORD
  5
4E09
102
{ACAD_REACTORS
330
4DF0
102
}
330
4DF0
100
AcDbXrecord
 70
     0
  0
XRECORD
  5
4DFC
102
{ACAD_REACTORS
330
4DF0
102
}
330
4DF0
100
AcDbXrecord
  1
{CA1F6886-CA6A-4CD9-BD89-FC5BE6B9C361}
  0
DICTIONARYVAR
  5
2412
102
{ACAD_REACTORS
330
D96
102
}
330
D96
100
DictionaryVariables
280
     0
  1
1
  0
DICTIONARYVAR
  5
D97
102
{ACAD_REACTORS
330
D96
102
}
330
D96
100
DictionaryVariables
280
     0
  1
96
  0
DICTIONARY
  5
2428
102
{ACAD_REACTORS
330
2423
102
}
330
2423
100
AcDbDictionary
  0
DICTIONARY
  5
23E8
102
{ACAD_REACTORS
330
23E7
102
}
330
23E7
100
AcDbDictionary
  3
DWGSETTINGS
350
4BFC
  0
LAYER_INDEX
  5
4C9B
102
{ACAD_REACTORS
330
4C9A
102
}
330
4C9A
100
AcDbIndex
 40
2452919.87298412
100
AcDbLayerIndex
  8
0
360
4C9C
 90
        0
  8
MSL-115-R32-R-0
360
4C9D
 90
      366
  8
MSL-115-R32-R-6
360
4C9E
 90
        2
  8
MSL-115-R32-R-5
360
4C9F
 90
       30
  8
MSL-115-R32-R-7A
360
4CA0
 90
       70
  8
MSL-115-R32-R-3A
360
4CA1
 90
       90
  8
Defpoints
360
4CA2
 90
        0
  8
AM_BOR
360
4CA3
 90
        0
  8
AM_5
360
4D5C
 90
        0
  0
XRECORD
  5
4BFC
102
{ACAD_REACTORS
330
23E8
102
}
330
23E8
100
AcDbXrecord
  1
VERSION
140
15.0
  1
PRODUCT
  2
AutoCAD Mechanical 2000
  0
IDBUFFER
  5
4C9C
330
0
100
AcDbIdBuffer
  0
IDBUFFER
  5
4C9D
330
0
100
AcDbIdBuffer
330
4CB4
330
4CB5
330
4CB6
330
4DDA
330
4DDB
330
4DDC
330
4DDD
330
4DDE
330
4DDF
330
2998
330
299B
330
299C
330
299D
330
29A2
330
29A3
330
29A4
330
29A8
330
29A9
330
29AA
330
29AF
330
29B0
330
29B1
330
29B2
330
29B3
330
29C1
330
29C2
330
29C3
330
29C4
330
29C5
330
29C6
330
29C7
330
29C8
330
29CA
330
29CB
330
29CC
330
29CD
330
29CE
330
29CF
330
29D0
330
29D4
330
29D7
330
29DA
330
29DC
330
29DD
330
29E2
330
29E3
330
29E4
330
29E5
330
29F8
330
29F9
330
29FA
330
29FB
330
2A00
330
2A01
330
2A02
330
2A03
330
2A09
330
2A0A
330
2A0B
330
2A0C
330
2A0D
330
2A0E
330
2A11
330
2A13
330
2A14
330
2A15
330
2A16
330
2A17
330
2A19
330
2A1A
330
2A1B
330
2A1C
330
2A1D
330
2A1E
330
2A1F
330
2A20
330
2A22
330
2A27
330
2A2A
330
2A2B
330
2A2C
330
2A2D
330
2A2E
330
2A2F
330
2A30
330
2A31
330
2A32
330
2A33
330
2A34
330
2A35
330
2A39
330
2A3A
330
2A3B
330
2A3C
330
2A3D
330
2A3E
330
2A3F
330
2A40
330
2A41
330
2A42
330
2A43
330
2A44
330
2A45
330
2A46
330
2A47
330
2A48
330
2A49
330
2A4A
330
2994
330
2991
330
2990
330
298F
330
298E
330
298C
330
2A51
330
2A52
330
2A53
330
41B7
330
41BC
330
41BE
330
41C1
330
298B
330
41C6
330
41C7
330
41CA
330
41CD
330
41CE
330
41D3
330
298A
330
41D8
330
2989
330
41DD
330
41DF
330
41E1
330
41E5
330
2855
330
2856
330
2857
330
2858
330
2859
330
285A
330
285D
330
285E
330
285F
330
2860
330
2861
330
2862
330
2863
330
2864
330
2865
330
2866
330
2867
330
2868
330
2869
330
286A
330
286B
330
286C
330
286D
330
286E
330
286F
330
2870
330
2871
330
2872
330
2873
330
2874
330
2875
330
2876
330
2877
330
2878
330
2879
330
287A
330
287B
330
287C
330
287D
330
287E
330
287F
330
2880
330
2881
330
2882
330
2883
330
2884
330
2885
330
2886
330
2887
330
2888
330
2889
330
288A
330
288B
330
288C
330
288E
330
288F
330
2890
330
2891
330
2892
330
2893
330
2894
330
2895
330
2896
330
2897
330
2898
330
2899
330
289A
330
289B
330
289C
330
289D
330
289E
330
289F
330
28A0
330
28A1
330
28A2
330
28A3
330
28A4
330
28A5
330
28A6
330
28A7
330
28AA
330
28AB
330
28AE
330
28B1
330
28B2
330
28B3
330
28B4
330
28B5
330
28B6
330
28B7
330
28BA
330
28BB
330
28BC
330
28BE
330
28BF
330
28C0
330
28C4
330
28C6
330
28C7
330
28C8
330
28CA
330
28CB
330
28CC
330
28CD
330
28CE
330
28CF
330
28D0
330
28D1
330
28D2
330
28D3
330
28D4
330
28D5
330
28D6
330
28D7
330
28D8
330
28D9
330
28DA
330
28DB
330
28DC
330
28DD
330
28DE
330
28DF
330
28F4
330
28F5
330
28F6
330
28F7
330
28F8
330
28F9
330
28FA
330
28FB
330
28FC
330
28FD
330
28FE
330
2900
330
2901
330
2902
330
2903
330
2904
330
2905
330
2906
330
2907
330
2908
330
2909
330
290A
330
290B
330
290C
330
290D
330
290E
330
290F
330
2910
330
2911
330
2912
330
2914
330
2915
330
2916
330
2917
330
2919
330
291A
330
2930
330
2931
330
2932
330
2933
330
2934
330
2935
330
2936
330
2937
330
2938
330
2939
330
293A
330
293B
330
293C
330
293D
330
293E
330
293F
330
2940
330
2941
330
2942
330
2943
330
2944
330
2945
330
2946
330
294A
330
294B
330
294C
330
294D
330
294E
330
294F
330
2950
330
2951
330
295B
330
295C
330
295D
330
295E
330
295F
330
2960
330
2961
330
2962
330
2963
330
2964
330
2965
330
2966
330
2967
330
2968
330
2969
330
296A
330
296B
330
296C
330
296D
330
296E
330
296F
330
2970
330
2972
330
2973
330
2974
330
2975
330
2976
330
2977
330
297A
330
297B
330
297C
330
297E
330
297F
330
2980
330
2981
330
2982
330
2983
330
2984
330
2985
330
2986
330
2987
330
2988
  0
IDBUFFER
  5
4C9E
330
0
100
AcDbIdBuffer
330
29FD
330
4BE1
  0
IDBUFFER
  5
4C9F
330
0
100
AcDbIdBuffer
330
41B8
330
41BD
330
41C0
330
41C3
330
41C5
330
41C9
330
41CC
330
41CF
330
41D4
330
41D7
330
41DA
330
41DE
330
41E2
330
41E4
330
28A9
330
28B0
330
28B9
330
28C3
330
2948
330
2979
330
2997
330
29A1
330
29D3
330
2A07
330
2A08
330
2A10
330
2A21
330
2A26
330
2A38
330
3C13
  0
IDBUFFER
  5
4CA0
330
0
100
AcDbIdBuffer
330
2A36
330
2A37
330
2A99
330
2A9A
330
3A62
330
3C7C
330
41B9
330
41BA
330
41BB
330
41BF
330
41C4
330
41C8
330
41CB
330
41D0
330
41D1
330
41D2
330
41D6
330
41DC
330
41E0
330
41E3
330
49FF
330
4A00
330
288D
330
28A8
330
28AC
330
28AD
330
28AF
330
28B8
330
28BD
330
28C1
330
28C2
330
28C5
330
28C9
330
28FF
330
2913
330
2918
330
292F
330
2947
330
2949
330
2952
330
2953
330
2954
330
2955
330
2956
330
2957
330
2958
330
2959
330
2971
330
2978
330
297D
330
298D
330
2995
330
2996
330
299F
330
29A0
330
29C9
330
29D1
330
29D2
330
29FF
330
2A04
330
2A05
330
2A06
330
2A0F
330
2A12
330
2A18
330
2A23
330
2A24
330
2A25
330
2A28
330
2A29
  0
IDBUFFER
  5
4CA1
330
0
100
AcDbIdBuffer
330
4AB6
330
4AB7
330
4AB8
330
4AB9
330
4ABA
330
4ABB
330
4ABC
330
4ABD
330
4ABE
330
4ABF
330
4AC0
330
4AC1
330
4AC2
330
4AC3
330
4AC4
330
4AC5
330
4AC6
330
4AC7
330
4AC8
330
4AC9
330
4ACA
330
4ACB
330
4ACC
330
4ACD
330
4ACE
330
4ACF
330
4AD0
330
4AD1
330
4AD2
330
4AD3
330
4AD4
330
4AD5
330
4AD6
330
4AD7
330
4AD8
330
4AD9
330
4ADA
330
4ADB
330
4ADC
330
4ADD
330
4ADE
330
4ADF
330
4A48
330
4A4C
330
4A4D
330
4A4E
330
4A4F
330
4A50
330
4A51
330
4A52
330
4A53
330
4A54
330
4A55
330
4A56
330
4A57
330
4A58
330
4A59
330
4A5A
330
4A62
330
4A63
330
4A64
330
4A65
330
4A66
330
4A67
330
4A68
330
4A69
330
4A7A
330
4A7B
330
4A99
330
4A9A
330
4A9B
330
4A9C
330
4A9D
330
4A9E
330
4A9F
330
4AA0
330
4AA1
330
4AA2
330
4AA3
330
4AA4
330
4AA5
330
4AA6
330
4AA7
330
4AA8
330
4AA9
330
4AAA
330
4AAB
330
4AAF
330
4AB0
330
4AB1
  0
IDBUFFER
  5
4CA2
330
0
100
AcDbIdBuffer
  0
IDBUFFER
  5
4CA3
330
0
100
AcDbIdBuffer
  0
IDBUFFER
  5
4D5C
330
0
100
AcDbIdBuffer
  0
ENDSEC
  0
EOF
