  0
SECTION
  2
HEADER
  9
$ACADVER
  1
AC1014
  9
$ACADMAINTVER
 70
     0
  9
$DWGCODEPAGE
  3
ANSI_1252
  9
$INSBASE
 10
0.0
 20
0.0
 30
0.0
  9
$EXTMIN
 10
-127.690662
 20
411.300819
 30
0.0
  9
$EXTMAX
 10
394.695486
 20
631.683571
 30
0.0
  9
$LIMMIN
 10
0.0
 20
0.0
  9
$LIMMAX
 10
420.0
 20
297.0
  9
$ORTHOMODE
 70
     0
  9
$REGENMODE
 70
     1
  9
$FILLMODE
 70
     1
  9
$QTEXTMODE
 70
     0
  9
$MIRRTEXT
 70
     1
  9
$DRAGMODE
 70
     2
  9
$LTSCALE
 40
1.0
  9
$OSMODE
 70
   549
  9
$ATTMODE
 70
     1
  9
$TEXTSIZE
 40
3.5
  9
$TRACEWID
 40
1.0
  9
$TEXTSTYLE
  7
STANDARD
  9
$CLAYER
  8
MSL-90-R25-R-6
  9
$CELTYPE
  6
BYLAYER
  9
$CECOLOR
 62
   256
  9
$CELTSCALE
 40
1.0
  9
$DELOBJ
 70
     1
  9
$DISPSILH
 70
     0
  9
$DIMSCALE
 40
1.0
  9
$DIMASZ
 40
5.0
  9
$DIMEXO
 40
1.0
  9
$DIMDLI
 40
3.0
  9
$DIMRND
 40
0.0
  9
$DIMDLE
 40
0.0
  9
$DIMEXE
 40
2.0
  9
$DIMTP
 40
0.1
  9
$DIMTM
 40
0.1
  9
$DIMTXT
 40
7.4
  9
$DIMCEN
 40
-2.0
  9
$DIMTSZ
 40
0.0
  9
$DIMTOL
 70
     0
  9
$DIMLIM
 70
     0
  9
$DIMTIH
 70
     0
  9
$DIMTOH
 70
     0
  9
$DIMSE1
 70
     0
  9
$DIMSE2
 70
     0
  9
$DIMTAD
 70
     1
  9
$DIMZIN
 70
     8
  9
$DIMBLK
  1

  9
$DIMASO
 70
     1
  9
$DIMSHO
 70
     1
  9
$DIMPOST
  1

  9
$DIMAPOST
  1

  9
$DIMALT
 70
     0
  9
$DIMALTD
 70
     2
  9
$DIMALTF
 40
25.4
  9
$DIMLFAC
 40
1.0
  9
$DIMTOFL
 70
     1
  9
$DIMTVP
 40
0.0
  9
$DIMTIX
 70
     0
  9
$DIMSOXD
 70
     0
  9
$DIMSAH
 70
     0
  9
$DIMBLK1
  1

  9
$DIMBLK2
  1

  9
$DIMSTYLE
  2
GEN-ISO
  9
$DIMCLRD
 70
     0
  9
$DIMCLRE
 70
     0
  9
$DIMCLRT
 70
   256
  9
$DIMTFAC
 40
1.0
  9
$DIMGAP
 40
1.0
  9
$DIMJUST
 70
     0
  9
$DIMSD1
 70
     0
  9
$DIMSD2
 70
     0
  9
$DIMTOLJ
 70
     0
  9
$DIMTZIN
 70
     8
  9
$DIMALTZ
 70
     8
  9
$DIMALTTZ
 70
     8
  9
$DIMFIT
 70
     3
  9
$DIMUPT
 70
     0
  9
$DIMUNIT
 70
     2
  9
$DIMDEC
 70
     2
  9
$DIMTDEC
 70
     5
  9
$DIMALTU
 70
     2
  9
$DIMALTTD
 70
     2
  9
$DIMTXSTY
  7
STANDARD
  9
$DIMAUNIT
 70
     0
  9
$LUNITS
 70
     2
  9
$LUPREC
 70
     4
  9
$SKETCHINC
 40
1.0
  9
$FILLETRAD
 40
0.0
  9
$AUNITS
 70
     0
  9
$AUPREC
 70
     0
  9
$MENU
  1
acad
  9
$ELEVATION
 40
0.0
  9
$PELEVATION
 40
0.0
  9
$THICKNESS
 40
0.0
  9
$LIMCHECK
 70
     0
  9
$BLIPMODE
 70
     0
  9
$CHAMFERA
 40
0.5
  9
$CHAMFERB
 40
0.5
  9
$CHAMFERC
 40
0.0
  9
$CHAMFERD
 40
0.0
  9
$SKPOLY
 70
     0
  9
$TDCREATE
 40
2452163.935501852
  9
$TDUPDATE
 40
2452452.061453588
  9
$TDINDWG
 40
0.5529924769
  9
$TDUSRTIMER
 40
0.5529924769
  9
$USRTIMER
 70
     1
  9
$ANGBASE
 50
0.0
  9
$ANGDIR
 70
     0
  9
$PDMODE
 70
     0
  9
$PDSIZE
 40
0.0
  9
$PLINEWID
 40
0.0
  9
$COORDS
 70
     2
  9
$SPLFRAME
 70
     0
  9
$SPLINETYPE
 70
     6
  9
$SPLINESEGS
 70
     8
  9
$ATTDIA
 70
     0
  9
$ATTREQ
 70
     1
  9
$HANDLING
 70
     1
  9
$HANDSEED
  5
7C1D
  9
$SURFTAB1
 70
     6
  9
$SURFTAB2
 70
     6
  9
$SURFTYPE
 70
     6
  9
$SURFU
 70
     6
  9
$SURFV
 70
     6
  9
$UCSNAME
  2

  9
$UCSORG
 10
0.0
 20
0.0
 30
0.0
  9
$UCSXDIR
 10
1.0
 20
0.0
 30
0.0
  9
$UCSYDIR
 10
0.0
 20
1.0
 30
0.0
  9
$PUCSNAME
  2

  9
$PUCSORG
 10
0.0
 20
0.0
 30
0.0
  9
$PUCSXDIR
 10
1.0
 20
0.0
 30
0.0
  9
$PUCSYDIR
 10
0.0
 20
1.0
 30
0.0
  9
$USERI1
 70
     0
  9
$USERI2
 70
     0
  9
$USERI3
 70
     0
  9
$USERI4
 70
     0
  9
$USERI5
 70
     0
  9
$USERR1
 40
0.0
  9
$USERR2
 40
0.0
  9
$USERR3
 40
0.0
  9
$USERR4
 40
0.0
  9
$USERR5
 40
0.0
  9
$WORLDVIEW
 70
     1
  9
$SHADEDGE
 70
     3
  9
$SHADEDIF
 70
    70
  9
$TILEMODE
 70
     1
  9
$MAXACTVP
 70
    16
  9
$PINSBASE
 10
0.0
 20
0.0
 30
0.0
  9
$PLIMCHECK
 70
     0
  9
$PEXTMIN
 10
1.000000E+20
 20
1.000000E+20
 30
1.000000E+20
  9
$PEXTMAX
 10
-1.000000E+20
 20
-1.000000E+20
 30
-1.000000E+20
  9
$PLIMMIN
 10
0.0
 20
0.0
  9
$PLIMMAX
 10
420.0
 20
297.0
  9
$UNITMODE
 70
     0
  9
$VISRETAIN
 70
     0
  9
$PLINEGEN
 70
     0
  9
$PSLTSCALE
 70
     1
  9
$TREEDEPTH
 70
  3020
  9
$PICKSTYLE
 70
     1
  9
$CMLSTYLE
  2
STANDARD
  9
$CMLJUST
 70
     0
  9
$CMLSCALE
 40
1.0
  9
$PROXYGRAPHICS
 70
     1
  9
$MEASUREMENT
 70
     0
  0
ENDSEC
  0
SECTION
  2
CLASSES
  0
CLASS
  1
DICTIONARYVAR
  2
AcDbDictionaryVar
  3
"AutoCAD"
 90
        0
280
     0
281
     0
  0
CLASS
  1
HATCH
  2
AcDbHatch
  3
"ACAD_SEDONA"
 90
        0
280
     0
281
     1
  0
CLASS
  1
OLE2FRAME
  2
AcDbOle2Frame
  3
""
 90
        0
280
     0
281
     1
  0
CLASS
  1
LWPOLYLINE
  2
AcDbPolyline
  3
"AutoCAD"
 90
        0
280
     0
281
     1
  0
CLASS
  1
XRECORD
  2
AcDbXrecord
  3
"<Built In>"
 90
        0
280
     0
281
     0
  0
ENDSEC
  0
SECTION
  2
TABLES
  0
TABLE
  2
VPORT
  5
8
100
AcDbSymbolTable
 70
     8
  0
VPORT
  5
7C1C
100
AcDbSymbolTableRecord
100
AcDbViewportTableRecord
  2
*ACTIVE
 70
     0
 10
0.0
 20
0.0
 11
1.0
 21
1.0
 12
133.502412
 22
521.492195
 13
0.0
 23
0.0
 14
1.0
 24
1.0
 15
10.0
 25
10.0
 16
0.0
 26
0.0
 36
1.0
 17
0.0
 27
0.0
 37
0.0
 40
306.366623
 41
1.716141
 42
50.0
 43
0.0
 44
0.0
 50
0.0
 51
0.0
 71
     0
 72
   100
 73
     1
 74
     0
 75
     0
 76
     0
 77
     0
 78
     0
  0
ENDTAB
  0
TABLE
  2
LTYPE
  5
5
100
AcDbSymbolTable
 70
     5
  0
LTYPE
  5
12
100
AcDbSymbolTableRecord
100
AcDbLinetypeTableRecord
  2
BYBLOCK
 70
     0
  3

 72
    65
 73
     0
 40
0.0
  0
LTYPE
  5
13
100
AcDbSymbolTableRecord
100
AcDbLinetypeTableRecord
  2
BYLAYER
 70
     0
  3

 72
    65
 73
     0
 40
0.0
  0
LTYPE
  5
14
100
AcDbSymbolTableRecord
100
AcDbLinetypeTableRecord
  2
CONTINUOUS
 70
     0
  3
Solid line
 72
    65
 73
     0
 40
0.0
  0
LTYPE
  5
1E
100
AcDbSymbolTableRecord
100
AcDbLinetypeTableRecord
  2
GEN3A
 70
     0
  3
 - - - - -
 72
    65
 73
     2
 40
3.1
 49
2.5
 74
     0
 49
-0.6
 74
     0
  0
LTYPE
  5
20
100
AcDbSymbolTableRecord
100
AcDbLinetypeTableRecord
  2
GEN7A
 70
     0
  3
__ . __ . __
 72
    65
 73
     4
 40
7.5
 49
5.0
 74
     0
 49
-1.25
 74
     0
 49
0.0
 74
     0
 49
-1.25
 74
     0
  0
ENDTAB
  0
TABLE
  2
LAYER
  5
2
100
AcDbSymbolTable
 70
    26
  0
LAYER
  5
F
100
AcDbSymbolTableRecord
100
AcDbLayerTableRecord
  2
0
 70
     0
 62
     7
  6
CONTINUOUS
  0
LAYER
  5
6DFE
100
AcDbSymbolTableRecord
100
AcDbLayerTableRecord
  2
MSL-90-R25-R-3A
 70
     0
 62
     6
  6
GEN3A
  0
LAYER
  5
6DFF
100
AcDbSymbolTableRecord
100
AcDbLayerTableRecord
  2
MSL-90-R25-R-5
 70
     0
 62
     3
  6
CONTINUOUS
  0
LAYER
  5
6E01
100
AcDbSymbolTableRecord
100
AcDbLayerTableRecord
  2
MSL-90-R25-R-7A
 70
     0
 62
     4
  6
GEN7A
  0
LAYER
  5
7322
100
AcDbSymbolTableRecord
100
AcDbLayerTableRecord
  2
MSL-90-R25-R-0
 70
     0
 62
     7
  6
CONTINUOUS
  0
LAYER
  5
7C19
100
AcDbSymbolTableRecord
100
AcDbLayerTableRecord
  2
MSL-90-R25-R-6
 70
     0
 62
     2
  6
CONTINUOUS
  0
ENDTAB
  0
TABLE
  2
STYLE
  5
3
100
AcDbSymbolTable
 70
     1
  0
STYLE
  5
10
100
AcDbSymbolTableRecord
100
AcDbTextStyleTableRecord
  2
STANDARD
 70
     0
 40
0.0
 41
1.0
 50
0.0
 71
     0
 42
3.5
  3
ISOCP.SHX
  4

  0
ENDTAB
  0
TABLE
  2
VIEW
  5
6
100
AcDbSymbolTable
 70
     0
  0
ENDTAB
  0
TABLE
  2
UCS
  5
7
100
AcDbSymbolTable
 70
     0
  0
ENDTAB
  0
TABLE
  2
APPID
  5
9
100
AcDbSymbolTable
 70
    36
  0
APPID
  5
11
100
AcDbSymbolTableRecord
100
AcDbRegAppTableRecord
  2
ACAD
 70
     0
  0
APPID
  5
889
100
AcDbSymbolTableRecord
100
AcDbRegAppTableRecord
  2
GENIUS_GENOENT_13
 70
     0
  0
APPID
  5
88A
100
AcDbSymbolTableRecord
100
AcDbRegAppTableRecord
  2
GENIUS_GENINF13_13
 70
     0
  0
APPID
  5
88B
100
AcDbSymbolTableRecord
100
AcDbRegAppTableRecord
  2
GENIUS_GENODEF_13
 70
     0
1001
GENIUS_GENOBJ_13
1070
     1
  0
APPID
  5
88C
100
AcDbSymbolTableRecord
100
AcDbRegAppTableRecord
  2
GENIUS_GENOBJ-N-INFOPT_13
 70
     0
  0
APPID
  5
88D
100
AcDbSymbolTableRecord
100
AcDbRegAppTableRecord
  2
GENIUS_GENOBJ_13
 70
     0
1001
GENIUS_GENODEF_13
1070
     1
1001
GENIUS_GENOENT_13
1070
     1
1001
GENIUS_GENOLIS_13
1070
     1
1001
GENIUS_GENOREF_13
1070
     1
1001
GENIUS_GENOBJ-N-RSSYM_13
1070
     1
1001
GENIUS_GENSYMENT_13
1070
     1
  0
APPID
  5
88E
100
AcDbSymbolTableRecord
100
AcDbRegAppTableRecord
  2
GENIUS_GENOLIS_13
 70
     0
1001
GENIUS_GENOBJ_13
1070
     1
  0
APPID
  5
88F
100
AcDbSymbolTableRecord
100
AcDbRegAppTableRecord
  2
GENIUS_GENOREF_13
 70
     0
1001
GENIUS_GENOBJ_13
1070
     1
  0
APPID
  5
890
100
AcDbSymbolTableRecord
100
AcDbRegAppTableRecord
  2
GENIUS_GENOBJ-N-RSSYM_13
 70
     0
1001
GENIUS_GENOBJ_13
1070
     1
  0
APPID
  5
891
100
AcDbSymbolTableRecord
100
AcDbRegAppTableRecord
  2
GENIUS_GENSYMENT_13
 70
     0
1001
GENIUS_GENOBJ_13
1070
     1
  0
APPID
  5
892
100
AcDbSymbolTableRecord
100
AcDbRegAppTableRecord
  2
GENIUS_GENSCSYM_13
 70
     0
  0
APPID
  5
F95
100
AcDbSymbolTableRecord
100
AcDbRegAppTableRecord
  2
CONTENTBLOCKICON
 70
     0
  0
APPID
  5
F96
100
AcDbSymbolTableRecord
100
AcDbRegAppTableRecord
  2
CONTENTBLOCKDESCRIPTION
 70
     0
  0
APPID
  5
138B
100
AcDbSymbolTableRecord
100
AcDbRegAppTableRecord
  2
GENIUS_GENBH_13
 70
     0
1001
GENIUS_GENOBJ_13
1070
     1
  0
APPID
  5
138C
100
AcDbSymbolTableRecord
100
AcDbRegAppTableRecord
  2
GENIUS_GENOBJ-NBEHI-BHF_13
 70
     0
1001
GENIUS_GENOBJ_13
1070
     0
  0
APPID
  5
138D
100
AcDbSymbolTableRecord
100
AcDbRegAppTableRecord
  2
GENIUS_GENOBJ-NBEHI-BHB_13
 70
     0
1001
GENIUS_GENOBJ_13
1070
     0
  0
APPID
  5
138E
100
AcDbSymbolTableRecord
100
AcDbRegAppTableRecord
  2
GENIUS_GENFIL_13
 70
     0
  0
APPID
  5
138F
100
AcDbSymbolTableRecord
100
AcDbRegAppTableRecord
  2
GENIUS_GENOBJ-N-CHA_13
 70
     0
  0
APPID
  5
1390
100
AcDbSymbolTableRecord
100
AcDbRegAppTableRecord
  2
GENIUS_GENOBJ-N-CRS_13
 70
     0
1001
GENIUS_GENOBJ_13
1070
     0
  0
APPID
  5
1C69
100
AcDbSymbolTableRecord
100
AcDbRegAppTableRecord
  2
GEVID885198372
 70
     0
  0
APPID
  5
1C6A
100
AcDbSymbolTableRecord
100
AcDbRegAppTableRecord
  2
GEVPT
 70
     0
  0
APPID
  5
1C6B
100
AcDbSymbolTableRecord
100
AcDbRegAppTableRecord
  2
GEVIT
 70
     0
  0
APPID
  5
1C6C
100
AcDbSymbolTableRecord
100
AcDbRegAppTableRecord
  2
VCC
 70
     0
  0
APPID
  5
1C6D
100
AcDbSymbolTableRecord
100
AcDbRegAppTableRecord
  2
GENBH
 70
     0
  0
APPID
  5
1C6E
100
AcDbSymbolTableRecord
100
AcDbRegAppTableRecord
  2
GEVMK
 70
     0
  0
APPID
  5
1C6F
100
AcDbSymbolTableRecord
100
AcDbRegAppTableRecord
  2
GENIUS_GENOBJ-F-PART_13
 70
     0
1001
GENIUS_GENOBJ_13
1070
     0
  0
APPID
  5
1C70
100
AcDbSymbolTableRecord
100
AcDbRegAppTableRecord
  2
GENIUS_GEFSTDP_13
 70
     0
1001
GENIUS_GENOBJ_13
1070
     0
  0
APPID
  5
1C71
100
AcDbSymbolTableRecord
100
AcDbRegAppTableRecord
  2
GENIUS_GEFPARTINS_13
 70
     0
  0
APPID
  5
1C72
100
AcDbSymbolTableRecord
100
AcDbRegAppTableRecord
  2
GEVID885198373
 70
     0
  0
APPID
  5
1C73
100
AcDbSymbolTableRecord
100
AcDbRegAppTableRecord
  2
GEVID885198374
 70
     0
  0
APPID
  5
1C74
100
AcDbSymbolTableRecord
100
AcDbRegAppTableRecord
  2
GEVID885198375
 70
     0
  0
APPID
  5
1C75
100
AcDbSymbolTableRecord
100
AcDbRegAppTableRecord
  2
GEVID885198376
 70
     0
  0
APPID
  5
1C76
100
AcDbSymbolTableRecord
100
AcDbRegAppTableRecord
  2
GEVID885198377
 70
     0
  0
APPID
  5
1C77
100
AcDbSymbolTableRecord
100
AcDbRegAppTableRecord
  2
GEVID885198378
 70
     0
  0
APPID
  5
1C78
100
AcDbSymbolTableRecord
100
AcDbRegAppTableRecord
  2
GEVID885203595
 70
     0
  0
APPID
  5
1C79
100
AcDbSymbolTableRecord
100
AcDbRegAppTableRecord
  2
GEVID885198379
 70
     0
  0
ENDTAB
  0
TABLE
  2
DIMSTYLE
  5
A
100
AcDbSymbolTable
 70
     1
  0
DIMSTYLE
105
24
100
AcDbSymbolTableRecord
100
AcDbDimStyleTableRecord
  2
GEN-ISO
 70
     0
  3

  4

  5

  6

  7

 40
1.0
 41
5.0
 42
1.0
 43
3.0
 44
2.0
 45
0.0
 46
0.0
 47
0.1
 48
0.1
140
7.4
141
-2.0
142
0.0
143
25.4
144
1.0
145
0.0
146
1.0
147
1.0
 71
     0
 72
     0
 73
     0
 74
     0
 75
     0
 76
     0
 77
     1
 78
     8
170
     0
171
     2
172
     1
173
     0
174
     0
175
     0
176
     0
177
     0
178
   256
270
     2
271
     2
272
     5
273
     2
274
     2
340
10
275
     0
280
     0
281
     0
282
     0
283
     0
284
     8
285
     8
286
     8
287
     3
288
     0
  0
ENDTAB
  0
TABLE
  2
BLOCK_RECORD
  5
1
100
AcDbSymbolTable
 70
    59
  0
BLOCK_RECORD
  5
18
100
AcDbSymbolTableRecord
100
AcDbBlockTableRecord
  2
*MODEL_SPACE
  0
BLOCK_RECORD
  5
15
100
AcDbSymbolTableRecord
100
AcDbBlockTableRecord
  2
*PAPER_SPACE
  0
ENDTAB
  0
ENDSEC
  0
SECTION
  2
BLOCKS
  0
BLOCK
  5
44
100
AcDbEntity
  8
0
100
AcDbBlockBegin
  2
*MODEL_SPACE
 70
     2
 10
0.0
 20
0.0
 30
0.0
  3
*MODEL_SPACE
  1

  0
ENDBLK
  5
45
100
AcDbEntity
  8
0
100
AcDbBlockEnd
  0
BLOCK
  5
42
100
AcDbEntity
 67
     1
  8
0
100
AcDbBlockBegin
  2
*PAPER_SPACE
 70
     0
 10
0.0
 20
0.0
 30
0.0
  3
*PAPER_SPACE
  1

  0
ENDBLK
  5
43
100
AcDbEntity
 67
     1
  8
0
100
AcDbBlockEnd
  0
ENDSEC
  0
SECTION
  2
ENTITIES
  0
LINE
  5
602D
100
AcDbEntity
  8
MSL-90-R25-R-0
 48
2.0
100
AcDbLine
 10
46.837915
 20
630.332191
 30
0.0
 11
37.837915
 21
630.332191
 31
0.0
  0
LINE
  5
602E
100
AcDbEntity
  8
MSL-90-R25-R-0
 48
2.0
100
AcDbLine
 10
37.337915
 20
629.832191
 30
0.0
 11
37.337915
 21
628.317191
 31
0.0
  0
LINE
  5
602F
100
AcDbEntity
  8
MSL-90-R25-R-0
 48
2.0
100
AcDbLine
 10
37.837915
 20
630.332191
 30
0.0
 11
37.337915
 21
629.832191
 31
0.0
  0
LINE
  5
6037
100
AcDbEntity
  8
MSL-90-R25-R-0
 48
2.0
100
AcDbLine
 10
47.337915
 20
628.317191
 30
0.0
 11
47.337915
 21
629.832191
 31
0.0
  0
LINE
  5
6038
100
AcDbEntity
  8
MSL-90-R25-R-0
 48
2.0
100
AcDbLine
 10
47.337915
 20
629.832191
 30
0.0
 11
46.837915
 21
630.332191
 31
0.0
  0
LINE
  5
700C
100
AcDbEntity
  8
MSL-90-R25-R-0
 48
2.0
100
AcDbLine
 10
382.153864
 20
628.317191
 30
0.0
 11
382.153864
 21
629.817191
 31
0.0
  0
LINE
  5
700D
100
AcDbEntity
  8
MSL-90-R25-R-0
 48
2.0
100
AcDbLine
 10
382.153864
 20
629.817191
 30
0.0
 11
381.653864
 21
630.317191
 31
0.0
  0
LINE
  5
700E
100
AcDbEntity
  8
MSL-90-R25-R-0
 48
2.0
100
AcDbLine
 10
381.653864
 20
630.317191
 30
0.0
 11
372.653864
 21
630.317191
 31
0.0
  0
LINE
  5
700F
100
AcDbEntity
  8
MSL-90-R25-R-0
 48
2.0
100
AcDbLine
 10
372.153864
 20
629.817191
 30
0.0
 11
382.153864
 21
629.817191
 31
0.0
  0
LINE
  5
7010
100
AcDbEntity
  8
MSL-90-R25-R-0
 48
2.0
100
AcDbLine
 10
372.153864
 20
629.817191
 30
0.0
 11
372.153864
 21
628.317191
 31
0.0
  0
LINE
  5
7011
100
AcDbEntity
  8
MSL-90-R25-R-0
 48
2.0
100
AcDbLine
 10
372.653864
 20
630.317191
 30
0.0
 11
372.153864
 21
629.817191
 31
0.0
  0
LINE
  5
7012
100
AcDbEntity
  8
MSL-90-R25-R-7A
 48
2.0
100
AcDbLine
 10
377.153864
 20
631.64431
 30
0.0
 11
377.153864
 21
615.302191
 31
0.0
  0
LINE
  5
7013
100
AcDbEntity
  8
MSL-90-R25-R-7A
 48
2.0
100
AcDbLine
 10
312.153864
 20
631.64431
 30
0.0
 11
312.153864
 21
615.302191
 31
0.0
  0
LINE
  5
7014
100
AcDbEntity
  8
MSL-90-R25-R-0
 48
2.0
100
AcDbLine
 10
317.153864
 20
629.817191
 30
0.0
 11
316.653864
 21
630.317191
 31
0.0
  0
LINE
  5
7015
100
AcDbEntity
  8
MSL-90-R25-R-0
 48
2.0
100
AcDbLine
 10
317.153864
 20
628.317191
 30
0.0
 11
317.153864
 21
629.817191
 31
0.0
  0
LINE
  5
7016
100
AcDbEntity
  8
MSL-90-R25-R-0
 48
2.0
100
AcDbLine
 10
307.653864
 20
630.317191
 30
0.0
 11
307.153864
 21
629.817191
 31
0.0
  0
LINE
  5
7017
100
AcDbEntity
  8
MSL-90-R25-R-0
 48
2.0
100
AcDbLine
 10
307.153864
 20
629.817191
 30
0.0
 11
307.153864
 21
628.317191
 31
0.0
  0
LINE
  5
7018
100
AcDbEntity
  8
MSL-90-R25-R-0
 48
2.0
100
AcDbLine
 10
307.153864
 20
629.817191
 30
0.0
 11
317.153864
 21
629.817191
 31
0.0
  0
LINE
  5
7019
100
AcDbEntity
  8
MSL-90-R25-R-0
 48
2.0
100
AcDbLine
 10
316.653864
 20
630.317191
 30
0.0
 11
307.653864
 21
630.317191
 31
0.0
  0
ARC
  5
701A
100
AcDbEntity
  8
MSL-90-R25-R-0
100
AcDbCircle
 10
207.365225
 20
438.3439
 30
0.0
 40
4.523207
100
AcDbArc
 50
121.723096
 51
238.276904
1001
ACAD
1000
RTLwPs
1070
   128
  0
ARC
  5
701B
100
AcDbEntity
  8
MSL-90-R25-R-0
100
AcDbCircle
 10
217.842018
 20
421.395811
 30
0.0
 40
24.448088
100
AcDbArc
 50
90.0
 51
121.723096
1001
ACAD
1000
RTLwPs
1070
   128
  0
ARC
  5
701C
100
AcDbEntity
  8
MSL-90-R25-R-0
100
AcDbCircle
 10
217.842018
 20
455.291988
 30
0.0
 40
24.448088
100
AcDbArc
 50
238.276904
 51
270.0
1001
ACAD
1000
RTLwPs
1070
   128
  0
LINE
  5
701D
100
AcDbEntity
  8
MSL-90-R25-R-0
100
AcDbLine
 10
232.842018
 20
506.3439
 30
0.0
 11
217.842018
 21
506.3439
 31
0.0
1001
ACAD
1000
RTLwPs
1070
   128
  0
LINE
  5
701E
100
AcDbEntity
  8
MSL-90-R25-R-0
100
AcDbLine
 10
226.496718
 20
479.3439
 30
0.0
 11
224.187317
 21
479.3439
 31
0.0
1001
ACAD
1000
RTLwPs
1070
   128
  0
LINE
  5
701F
100
AcDbEntity
  8
MSL-90-R25-R-0
100
AcDbLine
 10
224.187317
 20
479.3439
 30
0.0
 11
223.032617
 21
477.3439
 31
0.0
1001
ACAD
1000
RTLwPs
1070
   128
  0
LINE
  5
7020
100
AcDbEntity
  8
MSL-90-R25-R-0
100
AcDbLine
 10
217.842018
 20
504.3439
 30
0.0
 11
232.842018
 21
504.3439
 31
0.0
1001
ACAD
1000
RTLwPs
1070
   128
  0
LINE
  5
7021
100
AcDbEntity
  8
MSL-90-R25-R-0
100
AcDbLine
 10
227.651419
 20
477.3439
 30
0.0
 11
226.496718
 21
479.3439
 31
0.0
1001
ACAD
1000
RTLwPs
1070
   128
  0
LINE
  5
7022
100
AcDbEntity
  8
MSL-90-R25-R-0
100
AcDbLine
 10
232.842018
 20
504.3439
 30
0.0
 11
232.842018
 21
506.3439
 31
0.0
1001
ACAD
1000
RTLwPs
1070
   128
  0
LINE
  5
7023
100
AcDbEntity
  8
MSL-90-R25-R-0
100
AcDbLine
 10
217.842018
 20
506.3439
 30
0.0
 11
217.842018
 21
504.3439
 31
0.0
1001
ACAD
1000
RTLwPs
1070
   128
  0
LINE
  5
7024
100
AcDbEntity
  8
MSL-90-R25-R-0
100
AcDbLine
 10
224.187317
 20
475.3439
 30
0.0
 11
226.496718
 21
475.3439
 31
0.0
1001
ACAD
1000
RTLwPs
1070
   128
  0
LINE
  5
7025
100
AcDbEntity
  8
MSL-90-R25-R-0
100
AcDbLine
 10
226.496718
 20
447.3439
 30
0.0
 11
224.187317
 21
447.3439
 31
0.0
1001
ACAD
1000
RTLwPs
1070
   128
  0
LINE
  5
7026
100
AcDbEntity
  8
MSL-90-R25-R-0
100
AcDbLine
 10
232.842018
 20
416.3439
 30
0.0
 11
232.842018
 21
418.3439
 31
0.0
1001
ACAD
1000
RTLwPs
1070
   128
  0
LINE
  5
7027
100
AcDbEntity
  8
MSL-90-R25-R-0
100
AcDbLine
 10
224.187317
 20
443.3439
 30
0.0
 11
226.496718
 21
443.3439
 31
0.0
1001
ACAD
1000
RTLwPs
1070
   128
  0
LINE
  5
7028
100
AcDbEntity
  8
MSL-90-R25-R-0
100
AcDbLine
 10
223.032617
 20
445.3439
 30
0.0
 11
224.187317
 21
443.3439
 31
0.0
1001
ACAD
1000
RTLwPs
1070
   128
  0
LINE
  5
7029
100
AcDbEntity
  8
MSL-90-R25-R-0
100
AcDbLine
 10
217.842018
 20
418.3439
 30
0.0
 11
217.842018
 21
416.3439
 31
0.0
1001
ACAD
1000
RTLwPs
1070
   128
  0
LINE
  5
702A
100
AcDbEntity
  8
MSL-90-R25-R-0
100
AcDbLine
 10
232.842018
 20
418.3439
 30
0.0
 11
217.842018
 21
418.3439
 31
0.0
1001
ACAD
1000
RTLwPs
1070
   128
  0
LINE
  5
702B
100
AcDbEntity
  8
MSL-90-R25-R-0
100
AcDbLine
 10
217.842018
 20
416.3439
 30
0.0
 11
232.842018
 21
416.3439
 31
0.0
1001
ACAD
1000
RTLwPs
1070
   128
  0
LINE
  5
702C
100
AcDbEntity
  8
MSL-90-R25-R-0
100
AcDbLine
 10
226.496718
 20
443.3439
 30
0.0
 11
227.651419
 21
445.3439
 31
0.0
1001
ACAD
1000
RTLwPs
1070
   128
  0
CIRCLE
  5
702D
100
AcDbEntity
  8
MSL-90-R25-R-0
100
AcDbCircle
 10
225.342018
 20
445.3439
 30
0.0
 40
5.0
1001
ACAD
1000
RTLwPs
1070
   128
  0
CIRCLE
  5
702E
100
AcDbEntity
  8
MSL-90-R25-R-0
100
AcDbCircle
 10
225.342018
 20
445.3439
 30
0.0
 40
4.25
1001
ACAD
1000
RTLwPs
1070
   128
  0
LINE
  5
702F
100
AcDbEntity
  8
MSL-90-R25-R-0
100
AcDbLine
 10
227.651419
 20
445.3439
 30
0.0
 11
226.496718
 21
447.3439
 31
0.0
1001
ACAD
1000
RTLwPs
1070
   128
  0
LINE
  5
7030
100
AcDbEntity
  8
MSL-90-R25-R-0
100
AcDbLine
 10
224.187317
 20
447.3439
 30
0.0
 11
223.032617
 21
445.3439
 31
0.0
1001
ACAD
1000
RTLwPs
1070
   128
  0
LINE
  5
7031
100
AcDbEntity
  8
MSL-90-R25-R-0
100
AcDbLine
 10
217.842018
 20
418.3439
 30
0.0
 11
217.842018
 21
504.3439
 31
0.0
1001
ACAD
1000
RTLwPs
1070
   128
  0
LINE
  5
7032
100
AcDbEntity
  8
MSL-90-R25-R-0
100
AcDbLine
 10
232.842018
 20
418.3439
 30
0.0
 11
232.842018
 21
504.3439
 31
0.0
1001
ACAD
1000
RTLwPs
1070
   128
  0
CIRCLE
  5
7033
100
AcDbEntity
  8
MSL-90-R25-R-0
100
AcDbCircle
 10
225.342018
 20
477.3439
 30
0.0
 40
5.0
1001
ACAD
1000
RTLwPs
1070
   128
  0
CIRCLE
  5
7034
100
AcDbEntity
  8
MSL-90-R25-R-0
100
AcDbCircle
 10
225.342018
 20
477.3439
 30
0.0
 40
4.25
1001
ACAD
1000
RTLwPs
1070
   128
  0
LINE
  5
7035
100
AcDbEntity
  8
MSL-90-R25-R-0
100
AcDbLine
 10
226.496718
 20
475.3439
 30
0.0
 11
227.651419
 21
477.3439
 31
0.0
1001
ACAD
1000
RTLwPs
1070
   128
  0
LINE
  5
7036
100
AcDbEntity
  8
MSL-90-R25-R-0
100
AcDbLine
 10
223.032617
 20
477.3439
 30
0.0
 11
224.187317
 21
475.3439
 31
0.0
1001
ACAD
1000
RTLwPs
1070
   128
  0
ARC
  5
7037
100
AcDbEntity
  8
MSL-90-R25-R-0
100
AcDbCircle
 10
217.842018
 20
467.395811
 30
0.0
 40
24.448088
100
AcDbArc
 50
90.0
 51
121.723096
1001
ACAD
1000
RTLwPs
1070
   128
  0
ARC
  5
7038
100
AcDbEntity
  8
MSL-90-R25-R-0
100
AcDbCircle
 10
207.365225
 20
484.3439
 30
0.0
 40
4.523207
100
AcDbArc
 50
121.723096
 51
238.276904
1001
ACAD
1000
RTLwPs
1070
   128
  0
ARC
  5
7039
100
AcDbEntity
  8
MSL-90-R25-R-0
100
AcDbCircle
 10
217.842018
 20
501.291988
 30
0.0
 40
24.448088
100
AcDbArc
 50
238.276904
 51
270.0
1001
ACAD
1000
RTLwPs
1070
   128
  0
ARC
  5
703A
100
AcDbEntity
  8
MSL-90-R25-R-0
100
AcDbCircle
 10
-72.68119
 20
438.3439
 30
0.0
 40
4.523207
100
AcDbArc
 50
301.723096
 51
58.276904
1001
ACAD
1000
RTLwPs
1070
   128
  0
ARC
  5
703B
100
AcDbEntity
  8
MSL-90-R25-R-0
100
AcDbCircle
 10
-83.157982
 20
421.395811
 30
0.0
 40
24.448088
100
AcDbArc
 50
58.276904
 51
90.0
1001
ACAD
1000
RTLwPs
1070
   128
  0
ARC
  5
703C
100
AcDbEntity
  8
MSL-90-R25-R-0
100
AcDbCircle
 10
-83.157982
 20
455.291988
 30
0.0
 40
24.448088
100
AcDbArc
 50
270.0
 51
301.723096
1001
ACAD
1000
RTLwPs
1070
   128
  0
LINE
  5
703D
100
AcDbEntity
  8
MSL-90-R25-R-0
100
AcDbLine
 10
-98.157982
 20
506.3439
 30
0.0
 11
-83.157982
 21
506.3439
 31
0.0
1001
ACAD
1000
RTLwPs
1070
   128
  0
LINE
  5
703E
100
AcDbEntity
  8
MSL-90-R25-R-0
100
AcDbLine
 10
-91.812683
 20
479.3439
 30
0.0
 11
-89.503282
 21
479.3439
 31
0.0
1001
ACAD
1000
RTLwPs
1070
   128
  0
LINE
  5
703F
100
AcDbEntity
  8
MSL-90-R25-R-0
100
AcDbLine
 10
-89.503282
 20
479.3439
 30
0.0
 11
-88.348581
 21
477.3439
 31
0.0
1001
ACAD
1000
RTLwPs
1070
   128
  0
LINE
  5
7040
100
AcDbEntity
  8
MSL-90-R25-R-0
100
AcDbLine
 10
-83.157982
 20
504.3439
 30
0.0
 11
-98.157982
 21
504.3439
 31
0.0
1001
ACAD
1000
RTLwPs
1070
   128
  0
LINE
  5
7041
100
AcDbEntity
  8
MSL-90-R25-R-0
100
AcDbLine
 10
-92.967383
 20
477.3439
 30
0.0
 11
-91.812683
 21
479.3439
 31
0.0
1001
ACAD
1000
RTLwPs
1070
   128
  0
LINE
  5
7042
100
AcDbEntity
  8
MSL-90-R25-R-0
100
AcDbLine
 10
-98.157982
 20
504.3439
 30
0.0
 11
-98.157982
 21
506.3439
 31
0.0
1001
ACAD
1000
RTLwPs
1070
   128
  0
LINE
  5
7043
100
AcDbEntity
  8
MSL-90-R25-R-0
100
AcDbLine
 10
-83.157982
 20
506.3439
 30
0.0
 11
-83.157982
 21
504.3439
 31
0.0
1001
ACAD
1000
RTLwPs
1070
   128
  0
LINE
  5
7044
100
AcDbEntity
  8
MSL-90-R25-R-0
100
AcDbLine
 10
-89.503282
 20
475.3439
 30
0.0
 11
-91.812683
 21
475.3439
 31
0.0
1001
ACAD
1000
RTLwPs
1070
   128
  0
LINE
  5
7045
100
AcDbEntity
  8
MSL-90-R25-R-0
100
AcDbLine
 10
-91.812683
 20
447.3439
 30
0.0
 11
-89.503282
 21
447.3439
 31
0.0
1001
ACAD
1000
RTLwPs
1070
   128
  0
LINE
  5
7046
100
AcDbEntity
  8
MSL-90-R25-R-0
100
AcDbLine
 10
-98.157982
 20
416.3439
 30
0.0
 11
-98.157982
 21
418.3439
 31
0.0
1001
ACAD
1000
RTLwPs
1070
   128
  0
LINE
  5
7047
100
AcDbEntity
  8
MSL-90-R25-R-0
100
AcDbLine
 10
-89.503282
 20
443.3439
 30
0.0
 11
-91.812683
 21
443.3439
 31
0.0
1001
ACAD
1000
RTLwPs
1070
   128
  0
LINE
  5
7048
100
AcDbEntity
  8
MSL-90-R25-R-0
100
AcDbLine
 10
-88.348581
 20
445.3439
 30
0.0
 11
-89.503282
 21
443.3439
 31
0.0
1001
ACAD
1000
RTLwPs
1070
   128
  0
LINE
  5
7049
100
AcDbEntity
  8
MSL-90-R25-R-0
100
AcDbLine
 10
-83.157982
 20
418.3439
 30
0.0
 11
-83.157982
 21
416.3439
 31
0.0
1001
ACAD
1000
RTLwPs
1070
   128
  0
LINE
  5
704A
100
AcDbEntity
  8
MSL-90-R25-R-0
100
AcDbLine
 10
-98.157982
 20
418.3439
 30
0.0
 11
-83.157982
 21
418.3439
 31
0.0
1001
ACAD
1000
RTLwPs
1070
   128
  0
LINE
  5
704B
100
AcDbEntity
  8
MSL-90-R25-R-0
100
AcDbLine
 10
-83.157982
 20
416.3439
 30
0.0
 11
-98.157982
 21
416.3439
 31
0.0
1001
ACAD
1000
RTLwPs
1070
   128
  0
LINE
  5
704C
100
AcDbEntity
  8
MSL-90-R25-R-0
100
AcDbLine
 10
-91.812683
 20
443.3439
 30
0.0
 11
-92.967383
 21
445.3439
 31
0.0
1001
ACAD
1000
RTLwPs
1070
   128
  0
CIRCLE
  5
704D
100
AcDbEntity
  8
MSL-90-R25-R-0
100
AcDbCircle
 10
-90.657982
 20
445.3439
 30
0.0
 40
5.0
1001
ACAD
1000
RTLwPs
1070
   128
  0
CIRCLE
  5
704E
100
AcDbEntity
  8
MSL-90-R25-R-0
100
AcDbCircle
 10
-90.657982
 20
445.3439
 30
0.0
 40
4.25
1001
ACAD
1000
RTLwPs
1070
   128
  0
LINE
  5
704F
100
AcDbEntity
  8
MSL-90-R25-R-0
100
AcDbLine
 10
-92.967383
 20
445.3439
 30
0.0
 11
-91.812683
 21
447.3439
 31
0.0
1001
ACAD
1000
RTLwPs
1070
   128
  0
LINE
  5
7050
100
AcDbEntity
  8
MSL-90-R25-R-0
100
AcDbLine
 10
-89.503282
 20
447.3439
 30
0.0
 11
-88.348581
 21
445.3439
 31
0.0
1001
ACAD
1000
RTLwPs
1070
   128
  0
LINE
  5
7051
100
AcDbEntity
  8
MSL-90-R25-R-0
100
AcDbLine
 10
-83.157982
 20
418.3439
 30
0.0
 11
-83.157982
 21
504.3439
 31
0.0
1001
ACAD
1000
RTLwPs
1070
   128
  0
LINE
  5
7052
100
AcDbEntity
  8
MSL-90-R25-R-0
100
AcDbLine
 10
-98.157982
 20
418.3439
 30
0.0
 11
-98.157982
 21
504.3439
 31
0.0
1001
ACAD
1000
RTLwPs
1070
   128
  0
CIRCLE
  5
7053
100
AcDbEntity
  8
MSL-90-R25-R-0
100
AcDbCircle
 10
-90.657982
 20
477.3439
 30
0.0
 40
5.0
1001
ACAD
1000
RTLwPs
1070
   128
  0
CIRCLE
  5
7054
100
AcDbEntity
  8
MSL-90-R25-R-0
100
AcDbCircle
 10
-90.657982
 20
477.3439
 30
0.0
 40
4.25
1001
ACAD
1000
RTLwPs
1070
   128
  0
LINE
  5
7055
100
AcDbEntity
  8
MSL-90-R25-R-0
100
AcDbLine
 10
-91.812683
 20
475.3439
 30
0.0
 11
-92.967383
 21
477.3439
 31
0.0
1001
ACAD
1000
RTLwPs
1070
   128
  0
LINE
  5
7056
100
AcDbEntity
  8
MSL-90-R25-R-0
100
AcDbLine
 10
-88.348581
 20
477.3439
 30
0.0
 11
-89.503282
 21
475.3439
 31
0.0
1001
ACAD
1000
RTLwPs
1070
   128
  0
ARC
  5
7057
100
AcDbEntity
  8
MSL-90-R25-R-0
100
AcDbCircle
 10
-83.157982
 20
467.395811
 30
0.0
 40
24.448088
100
AcDbArc
 50
58.276904
 51
90.0
1001
ACAD
1000
RTLwPs
1070
   128
  0
ARC
  5
7058
100
AcDbEntity
  8
MSL-90-R25-R-0
100
AcDbCircle
 10
-72.68119
 20
484.3439
 30
0.0
 40
4.523207
100
AcDbArc
 50
301.723096
 51
58.276904
1001
ACAD
1000
RTLwPs
1070
   128
  0
ARC
  5
7059
100
AcDbEntity
  8
MSL-90-R25-R-0
100
AcDbCircle
 10
-83.157982
 20
501.291988
 30
0.0
 40
24.448088
100
AcDbArc
 50
270.0
 51
301.723096
1001
ACAD
1000
RTLwPs
1070
   128
  0
LINE
  5
705A
100
AcDbEntity
  8
MSL-90-R25-R-7A
100
AcDbLine
 10
-70.157982
 20
427.9064
 30
0.0
 11
-63.657982
 21
427.9064
 31
0.0
  0
LINE
  5
705B
100
AcDbEntity
  8
MSL-90-R25-R-7A
100
AcDbLine
 10
-69.657982
 20
494.7814
 30
0.0
 11
-63.157982
 21
494.7814
 31
0.0
  0
LINE
  5
705C
100
AcDbEntity
  8
MSL-90-R25-R-0
100
AcDbLine
 10
-67.657982
 20
433.9064
 30
0.0
 11
-65.657982
 21
433.9064
 31
0.0
  0
LINE
  5
705D
100
AcDbEntity
  8
MSL-90-R25-R-0
100
AcDbLine
 10
-67.657982
 20
421.9064
 30
0.0
 11
-65.657982
 21
421.9064
 31
0.0
  0
LINE
  5
705E
100
AcDbEntity
  8
MSL-90-R25-R-0
100
AcDbLine
 10
-67.657982
 20
488.7814
 30
0.0
 11
-65.657982
 21
488.7814
 31
0.0
  0
LINE
  5
705F
100
AcDbEntity
  8
MSL-90-R25-R-0
100
AcDbLine
 10
-67.657982
 20
500.7814
 30
0.0
 11
-65.657982
 21
500.7814
 31
0.0
  0
LINE
  5
7060
100
AcDbEntity
  8
MSL-90-R25-R-0
100
AcDbLine
 10
-67.657982
 20
506.3439
 30
0.0
 11
-67.657982
 21
416.3439
 31
0.0
  0
LINE
  5
7061
100
AcDbEntity
  8
MSL-90-R25-R-7A
 48
2.0
100
AcDbLine
 10
321.653864
 20
615.817191
 30
0.0
 11
321.653864
 21
621.817191
 31
0.0
  0
LINE
  5
7062
100
AcDbEntity
  8
MSL-90-R25-R-7A
 48
2.0
100
AcDbLine
 10
318.653864
 20
618.817191
 30
0.0
 11
324.653864
 21
618.817191
 31
0.0
  0
LINE
  5
7063
100
AcDbEntity
  8
MSL-90-R25-R-7A
 48
2.0
100
AcDbLine
 10
367.653864
 20
615.817191
 30
0.0
 11
367.653864
 21
621.817191
 31
0.0
  0
LINE
  5
7064
100
AcDbEntity
  8
MSL-90-R25-R-7A
 48
2.0
100
AcDbLine
 10
364.653864
 20
618.817191
 30
0.0
 11
370.653864
 21
618.817191
 31
0.0
  0
CIRCLE
  5
7065
100
AcDbEntity
  8
MSL-90-R25-R-5
100
AcDbCircle
 10
367.653864
 20
618.817191
 30
0.0
 40
2.0
  0
CIRCLE
  5
7066
100
AcDbEntity
  8
MSL-90-R25-R-5
100
AcDbCircle
 10
321.653864
 20
618.817191
 30
0.0
 40
2.0
  0
LINE
  5
7067
100
AcDbEntity
  8
MSL-90-R25-R-0
100
AcDbLine
 10
387.653864
 20
626.817191
 30
0.0
 11
301.653864
 21
626.817191
 31
0.0
1001
ACAD
1000
RTLwPs
1070
   128
  0
LINE
  5
7068
100
AcDbEntity
  8
MSL-90-R25-R-0
100
AcDbLine
 10
389.653864
 20
610.317191
 30
0.0
 11
389.653864
 21
624.817191
 31
0.0
1001
ACAD
1000
RTLwPs
1070
   128
  0
LINE
  5
7069
100
AcDbEntity
  8
MSL-90-R25-R-0
100
AcDbLine
 10
299.653864
 20
624.817191
 30
0.0
 11
299.653864
 21
610.317191
 31
0.0
1001
ACAD
1000
RTLwPs
1070
   128
  0
LINE
  5
706A
100
AcDbEntity
  8
MSL-90-R25-R-0
100
AcDbLine
 10
301.653864
 20
626.817191
 30
0.0
 11
299.653864
 21
624.817191
 31
0.0
1001
ACAD
1000
RTLwPs
1070
   128
  0
LINE
  5
706B
100
AcDbEntity
  8
MSL-90-R25-R-0
100
AcDbLine
 10
389.653864
 20
624.817191
 30
0.0
 11
387.653864
 21
626.817191
 31
0.0
1001
ACAD
1000
RTLwPs
1070
   128
  0
CIRCLE
  5
706C
100
AcDbEntity
  8
MSL-90-R25-R-0
100
AcDbCircle
 10
367.653864
 20
618.817191
 30
0.0
 40
1.65
1001
ACAD
1000
RTLwPs
1070
   128
  0
CIRCLE
  5
706D
100
AcDbEntity
  8
MSL-90-R25-R-0
100
AcDbCircle
 10
321.653864
 20
618.817191
 30
0.0
 40
1.65
1001
ACAD
1000
RTLwPs
1070
   128
  0
LINE
  5
706E
100
AcDbEntity
  8
MSL-90-R25-R-0
100
AcDbLine
 10
299.653864
 20
610.317191
 30
0.0
 11
389.653864
 21
610.317191
 31
0.0
1001
ACAD
1000
RTLwPs
1070
   128
  0
LINE
  5
706F
100
AcDbEntity
  8
MSL-90-R25-R-0
100
AcDbLine
 10
295.903864
 20
627.817191
 30
0.0
 11
393.403864
 21
627.817191
 31
0.0
1001
ACAD
1000
RTLwPs
1070
   128
  0
LINE
  5
7070
100
AcDbEntity
  8
MSL-90-R25-R-0
100
AcDbLine
 10
299.653864
 20
611.817191
 30
0.0
 11
295.903864
 21
611.817191
 31
0.0
1001
ACAD
1000
RTLwPs
1070
   128
  0
LINE
  5
7071
100
AcDbEntity
  8
MSL-90-R25-R-0
100
AcDbLine
 10
332.153864
 20
627.817191
 30
0.0
 11
332.153864
 21
628.317191
 31
0.0
1001
ACAD
1000
RTLwPs
1070
   128
  0
LINE
  5
7072
100
AcDbEntity
  8
MSL-90-R25-R-0
100
AcDbLine
 10
357.153864
 20
628.317191
 30
0.0
 11
357.153864
 21
627.817191
 31
0.0
1001
ACAD
1000
RTLwPs
1070
   128
  0
LINE
  5
7073
100
AcDbEntity
  8
MSL-90-R25-R-0
100
AcDbLine
 10
394.153864
 20
628.317191
 30
0.0
 11
357.153864
 21
628.317191
 31
0.0
1001
ACAD
1000
RTLwPs
1070
   128
  0
LINE
  5
7074
100
AcDbEntity
  8
MSL-90-R25-R-0
100
AcDbLine
 10
332.153864
 20
628.317191
 30
0.0
 11
295.153864
 21
628.317191
 31
0.0
1001
ACAD
1000
RTLwPs
1070
   128
  0
ARC
  5
7075
100
AcDbEntity
  8
MSL-90-R25-R-0
100
AcDbCircle
 10
207.365225
 20
618.817191
 30
0.0
 40
4.523207
100
AcDbArc
 50
121.723096
 51
238.276904
1001
ACAD
1000
RTLwPs
1070
   128
  0
ARC
  5
7076
100
AcDbEntity
  8
MSL-90-R25-R-0
100
AcDbCircle
 10
217.842018
 20
601.869103
 30
0.0
 40
24.448088
100
AcDbArc
 50
90.0
 51
121.723096
1001
ACAD
1000
RTLwPs
1070
   128
  0
ARC
  5
7077
100
AcDbEntity
  8
MSL-90-R25-R-0
100
AcDbCircle
 10
217.842018
 20
635.76528
 30
0.0
 40
24.448088
100
AcDbArc
 50
238.276904
 51
270.0
1001
ACAD
1000
RTLwPs
1070
   128
  0
LINE
  5
7078
100
AcDbEntity
  8
MSL-90-R25-R-0
100
AcDbLine
 10
217.842018
 20
626.817191
 30
0.0
 11
217.842018
 21
624.817191
 31
0.0
1001
ACAD
1000
RTLwPs
1070
   128
  0
LINE
  5
7079
100
AcDbEntity
  8
MSL-90-R25-R-0
100
AcDbLine
 10
232.842018
 20
624.817191
 30
0.0
 11
232.842018
 21
626.817191
 31
0.0
1001
ACAD
1000
RTLwPs
1070
   128
  0
LINE
  5
707A
100
AcDbEntity
  8
MSL-90-R25-R-0
100
AcDbLine
 10
232.842018
 20
626.817191
 30
0.0
 11
217.842018
 21
626.817191
 31
0.0
1001
ACAD
1000
RTLwPs
1070
   128
  0
LINE
  5
707B
100
AcDbEntity
  8
MSL-90-R25-R-0
100
AcDbLine
 10
217.842018
 20
624.817191
 30
0.0
 11
232.842018
 21
624.817191
 31
0.0
1001
ACAD
1000
RTLwPs
1070
   128
  0
LINE
  5
707C
100
AcDbEntity
  8
MSL-90-R25-R-0
100
AcDbLine
 10
232.842018
 20
610.317191
 30
0.0
 11
232.842018
 21
624.817191
 31
0.0
1001
ACAD
1000
RTLwPs
1070
   128
  0
LINE
  5
707D
100
AcDbEntity
  8
MSL-90-R25-R-0
100
AcDbLine
 10
217.842018
 20
610.317191
 30
0.0
 11
217.842018
 21
624.817191
 31
0.0
1001
ACAD
1000
RTLwPs
1070
   128
  0
ARC
  5
707E
100
AcDbEntity
  8
MSL-90-R25-R-0
100
AcDbCircle
 10
-72.68119
 20
618.817191
 30
0.0
 40
4.523207
100
AcDbArc
 50
301.723096
 51
58.276904
1001
ACAD
1000
RTLwPs
1070
   128
  0
LINE
  5
707F
100
AcDbEntity
  8
MSL-90-R25-R-0
100
AcDbLine
 10
-83.157982
 20
626.817191
 30
0.0
 11
-83.157982
 21
624.817191
 31
0.0
1001
ACAD
1000
RTLwPs
1070
   128
  0
LINE
  5
7080
100
AcDbEntity
  8
MSL-90-R25-R-0
100
AcDbLine
 10
-98.157982
 20
624.817191
 30
0.0
 11
-98.157982
 21
626.817191
 31
0.0
1001
ACAD
1000
RTLwPs
1070
   128
  0
LINE
  5
7081
100
AcDbEntity
  8
MSL-90-R25-R-0
100
AcDbLine
 10
-98.157982
 20
626.817191
 30
0.0
 11
-83.157982
 21
626.817191
 31
0.0
1001
ACAD
1000
RTLwPs
1070
   128
  0
LINE
  5
7082
100
AcDbEntity
  8
MSL-90-R25-R-0
100
AcDbLine
 10
-83.157982
 20
624.817191
 30
0.0
 11
-98.157982
 21
624.817191
 31
0.0
1001
ACAD
1000
RTLwPs
1070
   128
  0
ARC
  5
7083
100
AcDbEntity
  8
MSL-90-R25-R-0
100
AcDbCircle
 10
-83.157982
 20
601.869103
 30
0.0
 40
24.448088
100
AcDbArc
 50
58.276904
 51
90.0
1001
ACAD
1000
RTLwPs
1070
   128
  0
ARC
  5
7084
100
AcDbEntity
  8
MSL-90-R25-R-0
100
AcDbCircle
 10
-83.157982
 20
635.76528
 30
0.0
 40
24.448088
100
AcDbArc
 50
270.0
 51
301.723096
1001
ACAD
1000
RTLwPs
1070
   128
  0
LINE
  5
7085
100
AcDbEntity
  8
MSL-90-R25-R-0
100
AcDbLine
 10
-98.157982
 20
610.317191
 30
0.0
 11
-98.157982
 21
624.817191
 31
0.0
1001
ACAD
1000
RTLwPs
1070
   128
  0
LINE
  5
7086
100
AcDbEntity
  8
MSL-90-R25-R-0
100
AcDbLine
 10
-83.157982
 20
610.317191
 30
0.0
 11
-83.157982
 21
624.817191
 31
0.0
1001
ACAD
1000
RTLwPs
1070
   128
  0
LINE
  5
7087
100
AcDbEntity
  8
MSL-90-R25-R-3A
 48
2.0
100
AcDbLine
 10
237.70411
 20
438.8439
 30
0.0
 11
237.70411
 21
483.8439
 31
0.0
1001
ACAD
1000
RTLwPs
1070
   128
  0
LINE
  5
7088
100
AcDbEntity
  8
MSL-90-R25-R-3A
 48
2.0
100
AcDbLine
 10
221.592018
 20
438.8439
 30
0.0
 11
221.592018
 21
483.8439
 31
0.0
1001
ACAD
1000
RTLwPs
1070
   128
  0
LINE
  5
7089
100
AcDbEntity
  8
MSL-90-R25-R-3A
 48
2.0
100
AcDbLine
 10
221.842018
 20
438.8439
 30
0.0
 11
237.44136
 21
438.8439
 31
0.0
1001
ACAD
1000
RTLwPs
1070
   128
  0
LINE
  5
708A
100
AcDbEntity
  8
MSL-90-R25-R-3A
 48
2.0
100
AcDbLine
 10
221.842018
 20
438.8439
 30
0.0
 11
221.842018
 21
423.8439
 31
0.0
1001
ACAD
1000
RTLwPs
1070
   128
  0
LINE
  5
708B
100
AcDbEntity
  8
MSL-90-R25-R-3A
 48
2.0
100
AcDbLine
 10
211.342018
 20
423.8439
 30
0.0
 11
211.342018
 21
416.3439
 31
0.0
1001
ACAD
1000
RTLwPs
1070
   128
  0
LINE
  5
708C
100
AcDbEntity
  8
MSL-90-R25-R-3A
 48
2.0
100
AcDbLine
 10
248.342018
 20
423.8439
 30
0.0
 11
211.342018
 21
423.8439
 31
0.0
1001
ACAD
1000
RTLwPs
1070
   128
  0
LINE
  5
708D
100
AcDbEntity
  8
MSL-90-R25-R-3A
 48
2.0
100
AcDbLine
 10
248.342018
 20
416.3439
 30
0.0
 11
248.342018
 21
423.8439
 31
0.0
1001
ACAD
1000
RTLwPs
1070
   128
  0
LINE
  5
708E
100
AcDbEntity
  8
MSL-90-R25-R-3A
 48
2.0
100
AcDbLine
 10
248.342018
 20
498.8439
 30
0.0
 11
248.342018
 21
506.3439
 31
0.0
1001
ACAD
1000
RTLwPs
1070
   128
  0
LINE
  5
708F
100
AcDbEntity
  8
MSL-90-R25-R-3A
 48
2.0
100
AcDbLine
 10
211.342018
 20
506.3439
 30
0.0
 11
211.342018
 21
498.8439
 31
0.0
1001
ACAD
1000
RTLwPs
1070
   128
  0
LINE
  5
7090
100
AcDbEntity
  8
MSL-90-R25-R-3A
 48
2.0
100
AcDbLine
 10
221.842018
 20
498.8439
 30
0.0
 11
221.842018
 21
483.8439
 31
0.0
1001
ACAD
1000
RTLwPs
1070
   128
  0
LINE
  5
7091
100
AcDbEntity
  8
MSL-90-R25-R-3A
 48
2.0
100
AcDbLine
 10
221.842018
 20
483.8439
 30
0.0
 11
237.44136
 21
483.8439
 31
0.0
1001
ACAD
1000
RTLwPs
1070
   128
  0
LINE
  5
7092
100
AcDbEntity
  8
MSL-90-R25-R-3A
 48
2.0
100
AcDbLine
 10
-87.29589
 20
438.8439
 30
0.0
 11
-87.29589
 21
483.8439
 31
0.0
1001
ACAD
1000
RTLwPs
1070
   128
  0
LINE
  5
7093
100
AcDbEntity
  8
MSL-90-R25-R-3A
 48
2.0
100
AcDbLine
 10
-103.407982
 20
438.8439
 30
0.0
 11
-103.407982
 21
483.8439
 31
0.0
1001
ACAD
1000
RTLwPs
1070
   128
  0
LINE
  5
7094
100
AcDbEntity
  8
MSL-90-R25-R-3A
 48
2.0
100
AcDbLine
 10
-103.157982
 20
438.8439
 30
0.0
 11
-87.55864
 21
438.8439
 31
0.0
1001
ACAD
1000
RTLwPs
1070
   128
  0
LINE
  5
7095
100
AcDbEntity
  8
MSL-90-R25-R-3A
 48
2.0
100
AcDbLine
 10
-87.55864
 20
423.8439
 30
0.0
 11
-87.55864
 21
438.8439
 31
0.0
1001
ACAD
1000
RTLwPs
1070
   128
  0
LINE
  5
7096
100
AcDbEntity
  8
MSL-90-R25-R-3A
 48
2.0
100
AcDbLine
 10
-103.157982
 20
438.8439
 30
0.0
 11
-103.157982
 21
423.8439
 31
0.0
1001
ACAD
1000
RTLwPs
1070
   128
  0
LINE
  5
7097
100
AcDbEntity
  8
MSL-90-R25-R-3A
 48
2.0
100
AcDbLine
 10
-113.657982
 20
423.8439
 30
0.0
 11
-113.657982
 21
416.3439
 31
0.0
1001
ACAD
1000
RTLwPs
1070
   128
  0
LINE
  5
7098
100
AcDbEntity
  8
MSL-90-R25-R-3A
 48
2.0
100
AcDbLine
 10
-76.657982
 20
423.8439
 30
0.0
 11
-113.657982
 21
423.8439
 31
0.0
1001
ACAD
1000
RTLwPs
1070
   128
  0
LINE
  5
7099
100
AcDbEntity
  8
MSL-90-R25-R-3A
 48
2.0
100
AcDbLine
 10
-76.657982
 20
416.3439
 30
0.0
 11
-76.657982
 21
423.8439
 31
0.0
1001
ACAD
1000
RTLwPs
1070
   128
  0
LINE
  5
709A
100
AcDbEntity
  8
MSL-90-R25-R-3A
 48
2.0
100
AcDbLine
 10
-76.657982
 20
498.8439
 30
0.0
 11
-76.657982
 21
506.3439
 31
0.0
1001
ACAD
1000
RTLwPs
1070
   128
  0
LINE
  5
709B
100
AcDbEntity
  8
MSL-90-R25-R-3A
 48
2.0
100
AcDbLine
 10
-113.657982
 20
506.3439
 30
0.0
 11
-113.657982
 21
498.8439
 31
0.0
1001
ACAD
1000
RTLwPs
1070
   128
  0
LINE
  5
709C
100
AcDbEntity
  8
MSL-90-R25-R-3A
 48
2.0
100
AcDbLine
 10
-76.657982
 20
498.8439
 30
0.0
 11
-113.657982
 21
498.8439
 31
0.0
1001
ACAD
1000
RTLwPs
1070
   128
  0
LINE
  5
709D
100
AcDbEntity
  8
MSL-90-R25-R-3A
 48
2.0
100
AcDbLine
 10
-87.55864
 20
483.8439
 30
0.0
 11
-87.55864
 21
498.8439
 31
0.0
1001
ACAD
1000
RTLwPs
1070
   128
  0
LINE
  5
709E
100
AcDbEntity
  8
MSL-90-R25-R-3A
 48
2.0
100
AcDbLine
 10
-103.157982
 20
498.8439
 30
0.0
 11
-103.157982
 21
483.8439
 31
0.0
1001
ACAD
1000
RTLwPs
1070
   128
  0
LINE
  5
709F
100
AcDbEntity
  8
MSL-90-R25-R-3A
 48
2.0
100
AcDbLine
 10
-103.157982
 20
483.8439
 30
0.0
 11
-87.55864
 21
483.8439
 31
0.0
1001
ACAD
1000
RTLwPs
1070
   128
  0
LINE
  5
70A0
100
AcDbEntity
  8
MSL-90-R25-R-3A
 48
2.0
100
AcDbLine
 10
221.842018
 20
438.8439
 30
0.0
 11
237.44136
 21
438.8439
 31
0.0
1001
ACAD
1000
RTLwPs
1070
   128
  0
LINE
  5
70A1
100
AcDbEntity
  8
MSL-90-R25-R-3A
 48
2.0
100
AcDbLine
 10
237.44136
 20
423.8439
 30
0.0
 11
237.44136
 21
438.8439
 31
0.0
1001
ACAD
1000
RTLwPs
1070
   128
  0
LINE
  5
70A2
100
AcDbEntity
  8
MSL-90-R25-R-3A
 48
2.0
100
AcDbLine
 10
248.342018
 20
498.8439
 30
0.0
 11
211.342018
 21
498.8439
 31
0.0
1001
ACAD
1000
RTLwPs
1070
   128
  0
LINE
  5
70A3
100
AcDbEntity
  8
MSL-90-R25-R-3A
 48
2.0
100
AcDbLine
 10
237.44136
 20
483.8439
 30
0.0
 11
237.44136
 21
498.8439
 31
0.0
1001
ACAD
1000
RTLwPs
1070
   128
  0
LINE
  5
70A4
100
AcDbEntity
  8
MSL-90-R25-R-3A
 48
2.0
100
AcDbLine
 10
221.842018
 20
483.8439
 30
0.0
 11
237.44136
 21
483.8439
 31
0.0
1001
ACAD
1000
RTLwPs
1070
   128
  0
LINE
  5
70A5
100
AcDbEntity
  8
MSL-90-R25-R-7A
 48
2.0
100
AcDbLine
 10
-95.157982
 20
591.017191
 30
0.0
 11
-95.157982
 21
549.017191
 31
0.0
  0
LINE
  5
70A6
100
AcDbEntity
  8
MSL-90-R25-R-7A
 48
2.0
100
AcDbLine
 10
-116.157982
 20
570.017191
 30
0.0
 11
-74.157982
 21
570.017191
 31
0.0
  0
LINE
  5
70A7
100
AcDbEntity
  8
MSL-90-R25-R-7A
 48
2.0
100
AcDbLine
 10
208.842018
 20
570.017191
 30
0.0
 11
250.842018
 21
570.017191
 31
0.0
  0
LINE
  5
70A8
100
AcDbEntity
  8
MSL-90-R25-R-7A
 48
2.0
100
AcDbLine
 10
229.842018
 20
591.017191
 30
0.0
 11
229.842018
 21
549.017191
 31
0.0
  0
LINE
  5
70A9
100
AcDbEntity
  8
MSL-90-R25-R-0
 48
2.0
100
AcDbLine
 10
-57.657982
 20
628.317191
 30
0.0
 11
34.842018
 21
628.317191
 31
0.0
1001
ACAD
1000
RTLwPs
1070
   128
  0
LINE
  5
70AA
100
AcDbEntity
  8
MSL-90-R25-R-0
 48
2.0
100
AcDbLine
 10
34.842018
 20
628.317191
 30
0.0
 11
92.342018
 21
628.317191
 31
0.0
1001
ACAD
1000
RTLwPs
1070
   128
  0
LINE
  5
70AB
100
AcDbEntity
  8
MSL-90-R25-R-7A
 48
2.0
100
AcDbLine
 10
67.337915
 20
631.64431
 30
0.0
 11
67.337915
 21
615.302191
 31
0.0
  0
LINE
  5
70AD
100
AcDbEntity
  8
MSL-90-R25-R-7A
 48
2.0
100
AcDbLine
 10
-7.662085
 20
631.64431
 30
0.0
 11
-7.662085
 21
615.302191
 31
0.0
  0
LINE
  5
70AF
100
AcDbEntity
  8
MSL-90-R25-R-7A
 48
2.0
100
AcDbLine
 10
-32.662085
 20
631.64431
 30
0.0
 11
-32.662085
 21
615.302191
 31
0.0
  0
LINE
  5
70B4
100
AcDbEntity
  8
MSL-90-R25-R-0
 48
2.0
100
AcDbLine
 10
-2.662085
 20
628.317191
 30
0.0
 11
-2.662085
 21
629.817191
 31
0.0
  0
LINE
  5
70B5
100
AcDbEntity
  8
MSL-90-R25-R-0
 48
2.0
100
AcDbLine
 10
-2.662085
 20
629.817191
 30
0.0
 11
-3.162085
 21
630.317191
 31
0.0
  0
LINE
  5
70B6
100
AcDbEntity
  8
MSL-90-R25-R-0
 48
2.0
100
AcDbLine
 10
-12.662085
 20
629.817191
 30
0.0
 11
-12.662085
 21
628.317191
 31
0.0
  0
LINE
  5
70B7
100
AcDbEntity
  8
MSL-90-R25-R-0
 48
2.0
100
AcDbLine
 10
-12.162085
 20
630.317191
 30
0.0
 11
-12.662085
 21
629.817191
 31
0.0
  0
LINE
  5
70B8
100
AcDbEntity
  8
MSL-90-R25-R-0
 48
2.0
100
AcDbLine
 10
-12.662085
 20
629.817191
 30
0.0
 11
-2.662085
 21
629.817191
 31
0.0
  0
LINE
  5
70B9
100
AcDbEntity
  8
MSL-90-R25-R-0
 48
2.0
100
AcDbLine
 10
-3.162085
 20
630.317191
 30
0.0
 11
-12.162085
 21
630.317191
 31
0.0
  0
ARC
  5
70BD
100
AcDbEntity
  8
MSL-90-R25-R-3A
 48
2.0
100
AcDbCircle
 10
382.525487
 20
552.112726
 30
0.0
 40
0.2
100
AcDbArc
 50
45.0
 51
90.0
1001
ACAD
1000
RTLwPs
1070
   128
  0
LINE
  5
70BE
100
AcDbEntity
  8
MSL-90-R25-R-3A
 48
2.0
100
AcDbLine
 10
378.053864
 20
552.774607
 30
0.0
 11
377.300274
 21
552.339521
 31
0.0
1001
ACAD
1000
RTLwPs
1070
   128
  0
LINE
  5
70BF
100
AcDbEntity
  8
MSL-90-R25-R-3A
 48
2.0
100
AcDbLine
 10
379.007454
 20
552.339521
 30
0.0
 11
378.253864
 21
552.774607
 31
0.0
1001
ACAD
1000
RTLwPs
1070
   128
  0
ARC
  5
70C0
100
AcDbEntity
  8
MSL-90-R25-R-3A
 48
2.0
100
AcDbCircle
 10
377.200274
 20
552.512727
 30
0.0
 40
0.2
100
AcDbArc
 50
270.0
 51
299.999988
1001
ACAD
1000
RTLwPs
1070
   128
  0
ARC
  5
70C1
100
AcDbEntity
  8
MSL-90-R25-R-3A
 48
2.0
100
AcDbCircle
 10
379.107454
 20
552.512726
 30
0.0
 40
0.2
100
AcDbArc
 50
240.000012
 51
270.0
1001
ACAD
1000
RTLwPs
1070
   128
  0
ARC
  5
70C2
100
AcDbEntity
  8
MSL-90-R25-R-3A
 48
2.0
100
AcDbCircle
 10
378.153864
 20
552.601401
 30
0.0
 40
0.2
100
AcDbArc
 50
60.000012
 51
119.999988
1001
ACAD
1000
RTLwPs
1070
   128
  0
LINE
  5
70C3
100
AcDbEntity
  8
MSL-90-R25-R-3A
 48
2.0
100
AcDbLine
 10
382.525487
 20
552.312726
 30
0.0
 11
379.107454
 21
552.312726
 31
0.0
1001
ACAD
1000
RTLwPs
1070
   128
  0
LINE
  5
70C4
100
AcDbEntity
  8
MSL-90-R25-R-3A
 48
2.0
100
AcDbLine
 10
386.903864
 20
545.717192
 30
0.0
 11
386.903864
 21
547.93435
 31
0.0
1001
ACAD
1000
RTLwPs
1070
   128
  0
ARC
  5
70C5
100
AcDbEntity
  8
MSL-90-R25-R-3A
 48
2.0
100
AcDbCircle
 10
386.703864
 20
547.93435
 30
0.0
 40
0.2
100
AcDbArc
 50
0.0
 51
45.0
1001
ACAD
1000
RTLwPs
1070
   128
  0
ARC
  5
70C6
100
AcDbEntity
  8
MSL-90-R25-R-3A
 48
2.0
100
AcDbCircle
 10
386.703864
 20
545.717192
 30
0.0
 40
0.2
100
AcDbArc
 50
270.0
 51
0.0
1001
ACAD
1000
RTLwPs
1070
   128
  0
LINE
  5
70C7
100
AcDbEntity
  8
MSL-90-R25-R-3A
 48
2.0
100
AcDbLine
 10
382.203864
 20
543.817191
 30
0.0
 11
382.203864
 21
544.917192
 31
0.0
1001
ACAD
1000
RTLwPs
1070
   128
  0
ARC
  5
70C8
100
AcDbEntity
  8
MSL-90-R25-R-3A
 48
2.0
100
AcDbCircle
 10
382.803864
 20
544.917192
 30
0.0
 40
0.6
100
AcDbArc
 50
90.0
 51
180.0
1001
ACAD
1000
RTLwPs
1070
   128
  0
LINE
  5
70C9
100
AcDbEntity
  8
MSL-90-R25-R-3A
 48
2.0
100
AcDbLine
 10
382.803864
 20
545.517192
 30
0.0
 11
386.703864
 21
545.517192
 31
0.0
1001
ACAD
1000
RTLwPs
1070
   128
  0
LINE
  5
70CA
100
AcDbEntity
  8
MSL-90-R25-R-3A
 48
2.0
100
AcDbLine
 10
386.845285
 20
548.075771
 30
0.0
 11
382.666908
 21
552.254148
 31
0.0
1001
ACAD
1000
RTLwPs
1070
   128
  0
ARC
  5
70CB
100
AcDbEntity
  8
MSL-90-R25-R-3A
 48
2.0
100
AcDbCircle
 10
373.782241
 20
552.112727
 30
0.0
 40
0.2
100
AcDbArc
 50
90.0
 51
135.0
1001
ACAD
1000
RTLwPs
1070
   128
  0
ARC
  5
70CC
100
AcDbEntity
  8
MSL-90-R25-R-3A
 48
2.0
100
AcDbCircle
 10
373.503864
 20
544.917192
 30
0.0
 40
0.6
100
AcDbArc
 50
0.0
 51
90.0
1001
ACAD
1000
RTLwPs
1070
   128
  0
LINE
  5
70CD
100
AcDbEntity
  8
MSL-90-R25-R-3A
 48
2.0
100
AcDbLine
 10
374.103864
 20
544.917192
 30
0.0
 11
374.103864
 21
543.817191
 31
0.0
1001
ACAD
1000
RTLwPs
1070
   128
  0
LINE
  5
70CE
100
AcDbEntity
  8
MSL-90-R25-R-3A
 48
2.0
100
AcDbLine
 10
369.403864
 20
547.93435
 30
0.0
 11
369.403864
 21
545.717192
 31
0.0
1001
ACAD
1000
RTLwPs
1070
   128
  0
ARC
  5
70CF
100
AcDbEntity
  8
MSL-90-R25-R-3A
 48
2.0
100
AcDbCircle
 10
369.603864
 20
545.717192
 30
0.0
 40
0.2
100
AcDbArc
 50
180.0
 51
270.0
1001
ACAD
1000
RTLwPs
1070
   128
  0
ARC
  5
70D0
100
AcDbEntity
  8
MSL-90-R25-R-3A
 48
2.0
100
AcDbCircle
 10
369.603864
 20
547.93435
 30
0.0
 40
0.2
100
AcDbArc
 50
135.0
 51
180.0
1001
ACAD
1000
RTLwPs
1070
   128
  0
LINE
  5
70D1
100
AcDbEntity
  8
MSL-90-R25-R-3A
 48
2.0
100
AcDbLine
 10
369.603864
 20
545.517192
 30
0.0
 11
373.503864
 21
545.517192
 31
0.0
1001
ACAD
1000
RTLwPs
1070
   128
  0
LINE
  5
70D2
100
AcDbEntity
  8
MSL-90-R25-R-3A
 48
2.0
100
AcDbLine
 10
373.640819
 20
552.254148
 30
0.0
 11
369.462442
 21
548.075771
 31
0.0
1001
ACAD
1000
RTLwPs
1070
   128
  0
LINE
  5
70D3
100
AcDbEntity
  8
MSL-90-R25-R-3A
 48
2.0
100
AcDbLine
 10
319.903864
 20
545.717192
 30
0.0
 11
319.903864
 21
547.93435
 31
0.0
1001
ACAD
1000
RTLwPs
1070
   128
  0
ARC
  5
70D4
100
AcDbEntity
  8
MSL-90-R25-R-3A
 48
2.0
100
AcDbCircle
 10
319.703864
 20
547.93435
 30
0.0
 40
0.2
100
AcDbArc
 50
0.0
 51
45.0
1001
ACAD
1000
RTLwPs
1070
   128
  0
ARC
  5
70D5
100
AcDbEntity
  8
MSL-90-R25-R-3A
 48
2.0
100
AcDbCircle
 10
319.703864
 20
545.717192
 30
0.0
 40
0.2
100
AcDbArc
 50
270.0
 51
0.0
1001
ACAD
1000
RTLwPs
1070
   128
  0
ARC
  5
70D6
100
AcDbEntity
  8
MSL-90-R25-R-3A
 48
2.0
100
AcDbCircle
 10
315.525487
 20
552.112727
 30
0.0
 40
0.2
100
AcDbArc
 50
45.0
 51
90.0
1001
ACAD
1000
RTLwPs
1070
   128
  0
LINE
  5
70D7
100
AcDbEntity
  8
MSL-90-R25-R-3A
 48
2.0
100
AcDbLine
 10
311.053864
 20
552.774607
 30
0.0
 11
310.300274
 21
552.339521
 31
0.0
1001
ACAD
1000
RTLwPs
1070
   128
  0
LINE
  5
70D8
100
AcDbEntity
  8
MSL-90-R25-R-3A
 48
2.0
100
AcDbLine
 10
312.007454
 20
552.339521
 30
0.0
 11
311.253864
 21
552.774607
 31
0.0
1001
ACAD
1000
RTLwPs
1070
   128
  0
LINE
  5
70D9
100
AcDbEntity
  8
MSL-90-R25-R-3A
 48
2.0
100
AcDbLine
 10
310.200274
 20
552.312726
 30
0.0
 11
306.78224
 21
552.312726
 31
0.0
1001
ACAD
1000
RTLwPs
1070
   128
  0
ARC
  5
70DA
100
AcDbEntity
  8
MSL-90-R25-R-3A
 48
2.0
100
AcDbCircle
 10
306.78224
 20
552.112726
 30
0.0
 40
0.2
100
AcDbArc
 50
90.0
 51
135.0
1001
ACAD
1000
RTLwPs
1070
   128
  0
ARC
  5
70DB
100
AcDbEntity
  8
MSL-90-R25-R-3A
 48
2.0
100
AcDbCircle
 10
310.200274
 20
552.512726
 30
0.0
 40
0.2
100
AcDbArc
 50
270.0
 51
299.999988
1001
ACAD
1000
RTLwPs
1070
   128
  0
ARC
  5
70DC
100
AcDbEntity
  8
MSL-90-R25-R-3A
 48
2.0
100
AcDbCircle
 10
312.107454
 20
552.512727
 30
0.0
 40
0.2
100
AcDbArc
 50
240.000012
 51
270.0
1001
ACAD
1000
RTLwPs
1070
   128
  0
ARC
  5
70DD
100
AcDbEntity
  8
MSL-90-R25-R-3A
 48
2.0
100
AcDbCircle
 10
311.153864
 20
552.601401
 30
0.0
 40
0.2
100
AcDbArc
 50
60.000012
 51
119.999988
1001
ACAD
1000
RTLwPs
1070
   128
  0
LINE
  5
70DE
100
AcDbEntity
  8
MSL-90-R25-R-3A
 48
2.0
100
AcDbLine
 10
315.525487
 20
552.312727
 30
0.0
 11
312.107454
 21
552.312727
 31
0.0
1001
ACAD
1000
RTLwPs
1070
   128
  0
ARC
  5
70DF
100
AcDbEntity
  8
MSL-90-R25-R-3A
 48
2.0
100
AcDbCircle
 10
315.803864
 20
544.917192
 30
0.0
 40
0.6
100
AcDbArc
 50
90.0
 51
180.0
1001
ACAD
1000
RTLwPs
1070
   128
  0
LINE
  5
70E0
100
AcDbEntity
  8
MSL-90-R25-R-3A
 48
2.0
100
AcDbLine
 10
315.203864
 20
543.817191
 30
0.0
 11
315.203864
 21
544.917192
 31
0.0
1001
ACAD
1000
RTLwPs
1070
   128
  0
LINE
  5
70E1
100
AcDbEntity
  8
MSL-90-R25-R-3A
 48
2.0
100
AcDbLine
 10
307.103864
 20
544.917192
 30
0.0
 11
307.103864
 21
543.817191
 31
0.0
1001
ACAD
1000
RTLwPs
1070
   128
  0
ARC
  5
70E2
100
AcDbEntity
  8
MSL-90-R25-R-3A
 48
2.0
100
AcDbCircle
 10
306.503864
 20
544.917192
 30
0.0
 40
0.6
100
AcDbArc
 50
0.0
 51
90.0
1001
ACAD
1000
RTLwPs
1070
   128
  0
LINE
  5
70E3
100
AcDbEntity
  8
MSL-90-R25-R-3A
 48
2.0
100
AcDbLine
 10
319.845285
 20
548.075771
 30
0.0
 11
315.666908
 21
552.254148
 31
0.0
1001
ACAD
1000
RTLwPs
1070
   128
  0
LINE
  5
70E4
100
AcDbEntity
  8
MSL-90-R25-R-3A
 48
2.0
100
AcDbLine
 10
315.803864
 20
545.517192
 30
0.0
 11
319.703864
 21
545.517192
 31
0.0
1001
ACAD
1000
RTLwPs
1070
   128
  0
ARC
  5
70E5
100
AcDbEntity
  8
MSL-90-R25-R-3A
 48
2.0
100
AcDbCircle
 10
302.603864
 20
545.717192
 30
0.0
 40
0.2
100
AcDbArc
 50
180.0
 51
270.0
1001
ACAD
1000
RTLwPs
1070
   128
  0
ARC
  5
70E6
100
AcDbEntity
  8
MSL-90-R25-R-3A
 48
2.0
100
AcDbCircle
 10
302.603864
 20
547.93435
 30
0.0
 40
0.2
100
AcDbArc
 50
135.0
 51
180.0
1001
ACAD
1000
RTLwPs
1070
   128
  0
LINE
  5
70E7
100
AcDbEntity
  8
MSL-90-R25-R-3A
 48
2.0
100
AcDbLine
 10
302.403864
 20
547.93435
 30
0.0
 11
302.403864
 21
545.717192
 31
0.0
1001
ACAD
1000
RTLwPs
1070
   128
  0
LINE
  5
70E8
100
AcDbEntity
  8
MSL-90-R25-R-3A
 48
2.0
100
AcDbLine
 10
302.603864
 20
545.517192
 30
0.0
 11
306.503864
 21
545.517192
 31
0.0
1001
ACAD
1000
RTLwPs
1070
   128
  0
LINE
  5
70E9
100
AcDbEntity
  8
MSL-90-R25-R-3A
 48
2.0
100
AcDbLine
 10
306.640819
 20
552.254148
 30
0.0
 11
302.462442
 21
548.075771
 31
0.0
1001
ACAD
1000
RTLwPs
1070
   128
  0
LINE
  5
70EA
100
AcDbEntity
  8
MSL-90-R25-R-3A
 48
2.0
100
AcDbLine
 10
377.200274
 20
552.312727
 30
0.0
 11
373.782241
 21
552.312727
 31
0.0
1001
ACAD
1000
RTLwPs
1070
   128
  0
LINE
  5
70EB
100
AcDbEntity
  8
MSL-90-R25-R-7A
 48
2.0
100
AcDbLine
 10
378.153864
 20
560.496607
 30
0.0
 11
378.153864
 21
538.250355
 31
0.0
  0
LINE
  5
70EC
100
AcDbEntity
  8
MSL-90-R25-R-7A
 48
2.0
100
AcDbLine
 10
311.153864
 20
560.496607
 30
0.0
 11
311.153864
 21
538.250355
 31
0.0
  0
LINE
  5
70ED
100
AcDbEntity
  8
MSL-90-R25-R-7A
 48
2.0
100
AcDbLine
 10
377.153864
 20
561.817191
 30
0.0
 11
387.153864
 21
561.817191
 31
0.0
  0
LINE
  5
70EE
100
AcDbEntity
  8
MSL-90-R25-R-7A
 48
2.0
100
AcDbLine
 10
382.153864
 20
556.817191
 30
0.0
 11
382.153864
 21
566.817191
 31
0.0
  0
LINE
  5
70EF
100
AcDbEntity
  8
MSL-90-R25-R-7A
 48
2.0
100
AcDbLine
 10
362.153864
 20
602.317191
 30
0.0
 11
372.153864
 21
602.317191
 31
0.0
  0
LINE
  5
70F0
100
AcDbEntity
  8
MSL-90-R25-R-7A
 48
2.0
100
AcDbLine
 10
367.153864
 20
597.317191
 30
0.0
 11
367.153864
 21
607.317191
 31
0.0
  0
LINE
  5
70F1
100
AcDbEntity
  8
MSL-90-R25-R-7A
 48
2.0
100
AcDbLine
 10
317.153864
 20
602.317191
 30
0.0
 11
327.153864
 21
602.317191
 31
0.0
  0
LINE
  5
70F2
100
AcDbEntity
  8
MSL-90-R25-R-7A
 48
2.0
100
AcDbLine
 10
322.153864
 20
597.317191
 30
0.0
 11
322.153864
 21
607.317191
 31
0.0
  0
LINE
  5
70F3
100
AcDbEntity
  8
MSL-90-R25-R-7A
 48
2.0
100
AcDbLine
 10
302.153864
 20
561.817191
 30
0.0
 11
312.153864
 21
561.817191
 31
0.0
  0
LINE
  5
70F4
100
AcDbEntity
  8
MSL-90-R25-R-7A
 48
2.0
100
AcDbLine
 10
307.153864
 20
556.817191
 30
0.0
 11
307.153864
 21
566.817191
 31
0.0
  0
LINE
  5
7101
100
AcDbEntity
  8
MSL-90-R25-R-7A
 48
2.0
100
AcDbLine
 10
204.842018
 20
550.017191
 30
0.0
 11
214.842018
 21
550.017191
 31
0.0
  0
LINE
  5
7102
100
AcDbEntity
  8
MSL-90-R25-R-7A
 48
2.0
100
AcDbLine
 10
209.842018
 20
555.017191
 30
0.0
 11
209.842018
 21
545.017191
 31
0.0
  0
LINE
  5
7103
100
AcDbEntity
  8
MSL-90-R25-R-7A
 48
2.0
100
AcDbLine
 10
244.842018
 20
550.017191
 30
0.0
 11
254.842018
 21
550.017191
 31
0.0
  0
LINE
  5
7104
100
AcDbEntity
  8
MSL-90-R25-R-7A
 48
2.0
100
AcDbLine
 10
249.842018
 20
555.017191
 30
0.0
 11
249.842018
 21
545.017191
 31
0.0
  0
LINE
  5
7105
100
AcDbEntity
  8
MSL-90-R25-R-7A
 48
2.0
100
AcDbLine
 10
244.842018
 20
590.017191
 30
0.0
 11
254.842018
 21
590.017191
 31
0.0
  0
LINE
  5
7106
100
AcDbEntity
  8
MSL-90-R25-R-7A
 48
2.0
100
AcDbLine
 10
249.842018
 20
595.017191
 30
0.0
 11
249.842018
 21
585.017191
 31
0.0
  0
LINE
  5
7107
100
AcDbEntity
  8
MSL-90-R25-R-7A
 48
2.0
100
AcDbLine
 10
204.842018
 20
590.017191
 30
0.0
 11
214.842018
 21
590.017191
 31
0.0
  0
LINE
  5
7108
100
AcDbEntity
  8
MSL-90-R25-R-7A
 48
2.0
100
AcDbLine
 10
209.842018
 20
595.017191
 30
0.0
 11
209.842018
 21
585.017191
 31
0.0
  0
LINE
  5
7109
100
AcDbEntity
  8
MSL-90-R25-R-7A
 48
2.0
100
AcDbLine
 10
-120.157982
 20
550.017191
 30
0.0
 11
-110.157982
 21
550.017191
 31
0.0
  0
LINE
  5
710A
100
AcDbEntity
  8
MSL-90-R25-R-7A
 48
2.0
100
AcDbLine
 10
-115.157982
 20
555.017191
 30
0.0
 11
-115.157982
 21
545.017191
 31
0.0
  0
LINE
  5
710B
100
AcDbEntity
  8
MSL-90-R25-R-7A
 48
2.0
100
AcDbLine
 10
-80.157982
 20
550.017191
 30
0.0
 11
-70.157982
 21
550.017191
 31
0.0
  0
LINE
  5
710C
100
AcDbEntity
  8
MSL-90-R25-R-7A
 48
2.0
100
AcDbLine
 10
-75.157982
 20
555.017191
 30
0.0
 11
-75.157982
 21
545.017191
 31
0.0
  0
LINE
  5
710D
100
AcDbEntity
  8
MSL-90-R25-R-7A
 48
2.0
100
AcDbLine
 10
-80.157982
 20
590.017191
 30
0.0
 11
-70.157982
 21
590.017191
 31
0.0
  0
LINE
  5
710E
100
AcDbEntity
  8
MSL-90-R25-R-7A
 48
2.0
100
AcDbLine
 10
-75.157982
 20
595.017191
 30
0.0
 11
-75.157982
 21
585.017191
 31
0.0
  0
LINE
  5
710F
100
AcDbEntity
  8
MSL-90-R25-R-7A
 48
2.0
100
AcDbLine
 10
-120.157982
 20
590.017191
 30
0.0
 11
-110.157982
 21
590.017191
 31
0.0
  0
LINE
  5
7110
100
AcDbEntity
  8
MSL-90-R25-R-7A
 48
2.0
100
AcDbLine
 10
-115.157982
 20
595.017191
 30
0.0
 11
-115.157982
 21
585.017191
 31
0.0
  0
LINE
  5
7111
100
AcDbEntity
  8
MSL-90-R25-R-7A
 48
2.0
100
AcDbLine
 10
98.842018
 20
427.9064
 30
0.0
 11
205.342018
 21
427.9064
 31
0.0
  0
LINE
  5
7112
100
AcDbEntity
  8
MSL-90-R25-R-7A
 48
2.0
100
AcDbLine
 10
98.842018
 20
494.7814
 30
0.0
 11
205.342018
 21
494.7814
 31
0.0
  0
LINE
  5
7113
100
AcDbEntity
  8
MSL-90-R25-R-0
 48
2.0
100
AcDbLine
 10
202.342018
 20
506.3439
 30
0.0
 11
202.342018
 21
416.3439
 31
0.0
  0
LINE
  5
7114
100
AcDbEntity
  8
MSL-90-R25-R-0
 48
2.0
100
AcDbLine
 10
100.342018
 20
421.9064
 30
0.0
 11
202.342018
 21
421.9064
 31
0.0
  0
LINE
  5
7115
100
AcDbEntity
  8
MSL-90-R25-R-0
 48
2.0
100
AcDbLine
 10
100.342018
 20
433.9064
 30
0.0
 11
202.342018
 21
433.9064
 31
0.0
  0
LINE
  5
7116
100
AcDbEntity
  8
MSL-90-R25-R-0
 48
2.0
100
AcDbLine
 10
100.342018
 20
488.7814
 30
0.0
 11
202.342018
 21
488.7814
 31
0.0
  0
LINE
  5
7117
100
AcDbEntity
  8
MSL-90-R25-R-0
 48
2.0
100
AcDbLine
 10
100.342018
 20
500.7814
 30
0.0
 11
202.342018
 21
500.7814
 31
0.0
  0
LINE
  5
7118
100
AcDbEntity
  8
MSL-90-R25-R-0
 48
2.0
100
AcDbLine
 10
364.103864
 20
548.50779
 30
0.0
 11
362.103864
 21
549.662491
 31
0.0
1001
ACAD
1000
RTLwPs
1070
   128
  0
LINE
  5
7119
100
AcDbEntity
  8
MSL-90-R25-R-0
 48
2.0
100
AcDbLine
 10
362.103864
 20
549.662491
 30
0.0
 11
362.103864
 21
551.971892
 31
0.0
1001
ACAD
1000
RTLwPs
1070
   128
  0
LINE
  5
711A
100
AcDbEntity
  8
MSL-90-R25-R-0
 48
2.0
100
AcDbLine
 10
366.103864
 20
549.662491
 30
0.0
 11
364.103864
 21
548.50779
 31
0.0
1001
ACAD
1000
RTLwPs
1070
   128
  0
LINE
  5
711B
100
AcDbEntity
  8
MSL-90-R25-R-0
 48
2.0
100
AcDbLine
 10
366.103864
 20
551.971892
 30
0.0
 11
366.103864
 21
549.662491
 31
0.0
1001
ACAD
1000
RTLwPs
1070
   128
  0
LINE
  5
711C
100
AcDbEntity
  8
MSL-90-R25-R-0
 48
2.0
100
AcDbLine
 10
362.103864
 20
551.971892
 30
0.0
 11
364.103864
 21
553.126593
 31
0.0
1001
ACAD
1000
RTLwPs
1070
   128
  0
LINE
  5
711D
100
AcDbEntity
  8
MSL-90-R25-R-0
 48
2.0
100
AcDbLine
 10
364.103864
 20
553.126593
 30
0.0
 11
366.103864
 21
551.971892
 31
0.0
1001
ACAD
1000
RTLwPs
1070
   128
  0
CIRCLE
  5
711E
100
AcDbEntity
  8
MSL-90-R25-R-0
 48
2.0
100
AcDbCircle
 10
364.103864
 20
550.817191
 30
0.0
 40
4.25
1001
ACAD
1000
RTLwPs
1070
   128
  0
LINE
  5
711F
100
AcDbEntity
  8
MSL-90-R25-R-0
 48
2.0
100
AcDbLine
 10
325.203864
 20
553.126593
 30
0.0
 11
327.203864
 21
551.971892
 31
0.0
1001
ACAD
1000
RTLwPs
1070
   128
  0
CIRCLE
  5
7120
100
AcDbEntity
  8
MSL-90-R25-R-0
 48
2.0
100
AcDbCircle
 10
325.203864
 20
550.817191
 30
0.0
 40
4.25
1001
ACAD
1000
RTLwPs
1070
   128
  0
LINE
  5
7121
100
AcDbEntity
  8
MSL-90-R25-R-0
 48
2.0
100
AcDbLine
 10
323.203864
 20
551.971892
 30
0.0
 11
325.203864
 21
553.126593
 31
0.0
1001
ACAD
1000
RTLwPs
1070
   128
  0
LINE
  5
7122
100
AcDbEntity
  8
MSL-90-R25-R-0
 48
2.0
100
AcDbLine
 10
325.203864
 20
548.50779
 30
0.0
 11
323.203864
 21
549.662491
 31
0.0
1001
ACAD
1000
RTLwPs
1070
   128
  0
LINE
  5
7123
100
AcDbEntity
  8
MSL-90-R25-R-0
 48
2.0
100
AcDbLine
 10
323.203864
 20
549.662491
 30
0.0
 11
323.203864
 21
551.971892
 31
0.0
1001
ACAD
1000
RTLwPs
1070
   128
  0
LINE
  5
7124
100
AcDbEntity
  8
MSL-90-R25-R-0
 48
2.0
100
AcDbLine
 10
327.203864
 20
549.662491
 30
0.0
 11
325.203864
 21
548.50779
 31
0.0
1001
ACAD
1000
RTLwPs
1070
   128
  0
LINE
  5
7125
100
AcDbEntity
  8
MSL-90-R25-R-0
 48
2.0
100
AcDbLine
 10
327.203864
 20
551.971892
 30
0.0
 11
327.203864
 21
549.662491
 31
0.0
1001
ACAD
1000
RTLwPs
1070
   128
  0
LINE
  5
7126
100
AcDbEntity
  8
MSL-90-R25-R-0
 48
2.0
100
AcDbLine
 10
376.091364
 20
601.162491
 30
0.0
 11
376.091364
 21
603.471892
 31
0.0
1001
ACAD
1000
RTLwPs
1070
   128
  0
LINE
  5
7127
100
AcDbEntity
  8
MSL-90-R25-R-0
 48
2.0
100
AcDbLine
 10
378.091364
 20
600.00779
 30
0.0
 11
376.091364
 21
601.162491
 31
0.0
1001
ACAD
1000
RTLwPs
1070
   128
  0
LINE
  5
7128
100
AcDbEntity
  8
MSL-90-R25-R-0
 48
2.0
100
AcDbLine
 10
380.091364
 20
601.162491
 30
0.0
 11
378.091364
 21
600.00779
 31
0.0
1001
ACAD
1000
RTLwPs
1070
   128
  0
LINE
  5
7129
100
AcDbEntity
  8
MSL-90-R25-R-0
 48
2.0
100
AcDbLine
 10
380.091364
 20
603.471892
 30
0.0
 11
380.091364
 21
601.162491
 31
0.0
1001
ACAD
1000
RTLwPs
1070
   128
  0
LINE
  5
712A
100
AcDbEntity
  8
MSL-90-R25-R-0
 48
2.0
100
AcDbLine
 10
378.091364
 20
604.626593
 30
0.0
 11
380.091364
 21
603.471892
 31
0.0
1001
ACAD
1000
RTLwPs
1070
   128
  0
LINE
  5
712B
100
AcDbEntity
  8
MSL-90-R25-R-0
 48
2.0
100
AcDbLine
 10
376.091364
 20
603.471892
 30
0.0
 11
378.091364
 21
604.626593
 31
0.0
1001
ACAD
1000
RTLwPs
1070
   128
  0
CIRCLE
  5
712C
100
AcDbEntity
  8
MSL-90-R25-R-0
 48
2.0
100
AcDbCircle
 10
378.091364
 20
602.317191
 30
0.0
 40
4.25
1001
ACAD
1000
RTLwPs
1070
   128
  0
LINE
  5
712D
100
AcDbEntity
  8
MSL-90-R25-R-0
 48
2.0
100
AcDbLine
 10
313.525765
 20
602.317191
 30
0.0
 11
312.371064
 21
600.317191
 31
0.0
1001
ACAD
1000
RTLwPs
1070
   128
  0
LINE
  5
712E
100
AcDbEntity
  8
MSL-90-R25-R-0
 48
2.0
100
AcDbLine
 10
312.371064
 20
600.317191
 30
0.0
 11
310.061663
 21
600.317191
 31
0.0
1001
ACAD
1000
RTLwPs
1070
   128
  0
LINE
  5
712F
100
AcDbEntity
  8
MSL-90-R25-R-0
 48
2.0
100
AcDbLine
 10
312.371064
 20
604.317191
 30
0.0
 11
313.525765
 21
602.317191
 31
0.0
1001
ACAD
1000
RTLwPs
1070
   128
  0
LINE
  5
7130
100
AcDbEntity
  8
MSL-90-R25-R-0
 48
2.0
100
AcDbLine
 10
310.061663
 20
604.317191
 30
0.0
 11
312.371064
 21
604.317191
 31
0.0
1001
ACAD
1000
RTLwPs
1070
   128
  0
CIRCLE
  5
7131
100
AcDbEntity
  8
MSL-90-R25-R-0
 48
2.0
100
AcDbCircle
 10
311.216364
 20
602.317191
 30
0.0
 40
4.25
1001
ACAD
1000
RTLwPs
1070
   128
  0
LINE
  5
7132
100
AcDbEntity
  8
MSL-90-R25-R-0
 48
2.0
100
AcDbLine
 10
308.906963
 20
602.317191
 30
0.0
 11
310.061663
 21
604.317191
 31
0.0
1001
ACAD
1000
RTLwPs
1070
   128
  0
LINE
  5
7133
100
AcDbEntity
  8
MSL-90-R25-R-0
 48
2.0
100
AcDbLine
 10
310.061663
 20
600.317191
 30
0.0
 11
308.906963
 21
602.317191
 31
0.0
1001
ACAD
1000
RTLwPs
1070
   128
  0
ARC
  5
7134
100
AcDbEntity
  8
MSL-90-R25-R-5
 48
2.0
100
AcDbCircle
 10
322.153864
 20
602.317191
 30
0.0
 40
4.0
100
AcDbArc
 50
255.0
 51
195.0
1001
ACAD
1000
RTLwPs
1070
   128
  0
ARC
  5
7135
100
AcDbEntity
  8
MSL-90-R25-R-5
 48
2.0
100
AcDbCircle
 10
307.153864
 20
561.817191
 30
0.0
 40
4.0
100
AcDbArc
 50
255.0
 51
195.0
1001
ACAD
1000
RTLwPs
1070
   128
  0
ARC
  5
7136
100
AcDbEntity
  8
MSL-90-R25-R-5
 48
2.0
100
AcDbCircle
 10
367.153864
 20
602.317191
 30
0.0
 40
4.0
100
AcDbArc
 50
255.0
 51
195.0
1001
ACAD
1000
RTLwPs
1070
   128
  0
ARC
  5
7137
100
AcDbEntity
  8
MSL-90-R25-R-5
 48
2.0
100
AcDbCircle
 10
382.153864
 20
561.817191
 30
0.0
 40
4.0
100
AcDbArc
 50
255.0
 51
195.0
1001
ACAD
1000
RTLwPs
1070
   128
  0
LINE
  5
7138
100
AcDbEntity
  8
MSL-90-R25-R-0
 48
2.0
100
AcDbLine
 10
389.653864
 20
610.317191
 30
0.0
 11
389.653864
 21
543.817191
 31
0.0
1001
ACAD
1000
RTLwPs
1070
   128
  0
LINE
  5
7139
100
AcDbEntity
  8
MSL-90-R25-R-0
 48
2.0
100
AcDbLine
 10
299.653864
 20
543.817191
 30
0.0
 11
299.653864
 21
610.317191
 31
0.0
1001
ACAD
1000
RTLwPs
1070
   128
  0
CIRCLE
  5
713A
100
AcDbEntity
  8
MSL-90-R25-R-0
 48
2.0
100
AcDbCircle
 10
311.216364
 20
602.317191
 30
0.0
 40
5.0
1001
ACAD
1000
RTLwPs
1070
   128
  0
CIRCLE
  5
713B
100
AcDbEntity
  8
MSL-90-R25-R-0
 48
2.0
100
AcDbCircle
 10
364.103864
 20
550.817191
 30
0.0
 40
5.0
1001
ACAD
1000
RTLwPs
1070
   128
  0
CIRCLE
  5
713C
100
AcDbEntity
  8
MSL-90-R25-R-0
 48
2.0
100
AcDbCircle
 10
325.203864
 20
550.817191
 30
0.0
 40
5.0
1001
ACAD
1000
RTLwPs
1070
   128
  0
CIRCLE
  5
713D
100
AcDbEntity
  8
MSL-90-R25-R-0
 48
2.0
100
AcDbCircle
 10
378.091364
 20
602.317191
 30
0.0
 40
5.0
1001
ACAD
1000
RTLwPs
1070
   128
  0
LINE
  5
713E
100
AcDbEntity
  8
MSL-90-R25-R-0
 48
2.0
100
AcDbLine
 10
389.653864
 20
543.817191
 30
0.0
 11
299.653864
 21
543.817191
 31
0.0
1001
ACAD
1000
RTLwPs
1070
   128
  0
CIRCLE
  5
713F
100
AcDbEntity
  8
MSL-90-R25-R-0
 48
2.0
100
AcDbCircle
 10
322.153864
 20
602.317191
 30
0.0
 40
3.4
1001
ACAD
1000
RTLwPs
1070
   128
  0
CIRCLE
  5
7140
100
AcDbEntity
  8
MSL-90-R25-R-0
 48
2.0
100
AcDbCircle
 10
367.153864
 20
602.317191
 30
0.0
 40
3.4
1001
ACAD
1000
RTLwPs
1070
   128
  0
CIRCLE
  5
7141
100
AcDbEntity
  8
MSL-90-R25-R-0
 48
2.0
100
AcDbCircle
 10
382.153864
 20
561.817191
 30
0.0
 40
3.4
1001
ACAD
1000
RTLwPs
1070
   128
  0
CIRCLE
  5
7142
100
AcDbEntity
  8
MSL-90-R25-R-0
 48
2.0
100
AcDbCircle
 10
307.153864
 20
561.817191
 30
0.0
 40
3.4
1001
ACAD
1000
RTLwPs
1070
   128
  0
LINE
  5
7143
100
AcDbEntity
  8
MSL-90-R25-R-0
 48
2.0
100
AcDbLine
 10
294.903864
 20
612.817191
 30
0.0
 11
294.903864
 21
626.817191
 31
0.0
1001
ACAD
1000
RTLwPs
1070
   128
  0
LINE
  5
7144
100
AcDbEntity
  8
MSL-90-R25-R-0
 48
2.0
100
AcDbLine
 10
295.903864
 20
627.817191
 30
0.0
 11
294.903864
 21
626.817191
 31
0.0
1001
ACAD
1000
RTLwPs
1070
   128
  0
LINE
  5
7145
100
AcDbEntity
  8
MSL-90-R25-R-0
 48
2.0
100
AcDbLine
 10
394.403864
 20
626.817191
 30
0.0
 11
394.403864
 21
612.817191
 31
0.0
1001
ACAD
1000
RTLwPs
1070
   128
  0
LINE
  5
7146
100
AcDbEntity
  8
MSL-90-R25-R-0
 48
2.0
100
AcDbLine
 10
393.403864
 20
611.817191
 30
0.0
 11
394.403864
 21
612.817191
 31
0.0
1001
ACAD
1000
RTLwPs
1070
   128
  0
LINE
  5
7147
100
AcDbEntity
  8
MSL-90-R25-R-0
 48
2.0
100
AcDbLine
 10
294.903864
 20
612.817191
 30
0.0
 11
295.903864
 21
611.817191
 31
0.0
1001
ACAD
1000
RTLwPs
1070
   128
  0
LINE
  5
7148
100
AcDbEntity
  8
MSL-90-R25-R-0
 48
2.0
100
AcDbLine
 10
394.403864
 20
626.817191
 30
0.0
 11
393.403864
 21
627.817191
 31
0.0
1001
ACAD
1000
RTLwPs
1070
   128
  0
LINE
  5
7149
100
AcDbEntity
  8
MSL-90-R25-R-0
 48
2.0
100
AcDbLine
 10
299.653864
 20
611.817191
 30
0.0
 11
295.903864
 21
611.817191
 31
0.0
1001
ACAD
1000
RTLwPs
1070
   128
  0
LINE
  5
714A
100
AcDbEntity
  8
MSL-90-R25-R-0
 48
2.0
100
AcDbLine
 10
393.403864
 20
611.817191
 30
0.0
 11
389.653864
 21
611.817191
 31
0.0
1001
ACAD
1000
RTLwPs
1070
   128
  0
LINE
  5
714B
100
AcDbEntity
  8
MSL-90-R25-R-0
 48
2.0
100
AcDbLine
 10
389.653864
 20
627.817191
 30
0.0
 11
393.403864
 21
627.817191
 31
0.0
1001
ACAD
1000
RTLwPs
1070
   128
  0
LINE
  5
714C
100
AcDbEntity
  8
MSL-90-R25-R-0
 48
2.0
100
AcDbLine
 10
295.903864
 20
627.817191
 30
0.0
 11
299.653864
 21
627.817191
 31
0.0
1001
ACAD
1000
RTLwPs
1070
   128
  0
LINE
  5
714D
100
AcDbEntity
  8
MSL-90-R25-R-0
 48
2.0
100
AcDbLine
 10
389.653864
 20
591.817191
 30
0.0
 11
394.591364
 21
591.817191
 31
0.0
1001
ACAD
1000
RTLwPs
1070
   128
  0
LINE
  5
714E
100
AcDbEntity
  8
MSL-90-R25-R-0
 48
2.0
100
AcDbLine
 10
394.591364
 20
591.817191
 30
0.0
 11
394.591364
 21
617.317191
 31
0.0
1001
ACAD
1000
RTLwPs
1070
   128
  0
LINE
  5
714F
100
AcDbEntity
  8
MSL-90-R25-R-0
 48
2.0
100
AcDbLine
 10
394.403864
 20
617.317191
 30
0.0
 11
394.591364
 21
617.317191
 31
0.0
1001
ACAD
1000
RTLwPs
1070
   128
  0
LINE
  5
7150
100
AcDbEntity
  8
MSL-90-R25-R-0
 48
2.0
100
AcDbLine
 10
294.716364
 20
591.817191
 30
0.0
 11
299.653864
 21
591.817191
 31
0.0
1001
ACAD
1000
RTLwPs
1070
   128
  0
LINE
  5
7151
100
AcDbEntity
  8
MSL-90-R25-R-0
 48
2.0
100
AcDbLine
 10
294.716364
 20
617.317191
 30
0.0
 11
294.903864
 21
617.317191
 31
0.0
1001
ACAD
1000
RTLwPs
1070
   128
  0
LINE
  5
7152
100
AcDbEntity
  8
MSL-90-R25-R-0
 48
2.0
100
AcDbLine
 10
294.716364
 20
591.817191
 30
0.0
 11
294.716364
 21
617.317191
 31
0.0
1001
ACAD
1000
RTLwPs
1070
   128
  0
LINE
  5
7153
100
AcDbEntity
  8
MSL-90-R25-R-0
 48
2.0
100
AcDbLine
 10
295.153864
 20
628.317191
 30
0.0
 11
294.653864
 21
627.817191
 31
0.0
1001
ACAD
1000
RTLwPs
1070
   128
  0
LINE
  5
7154
100
AcDbEntity
  8
MSL-90-R25-R-0
 48
2.0
100
AcDbLine
 10
394.653864
 20
627.817191
 30
0.0
 11
394.653864
 21
617.317191
 31
0.0
1001
ACAD
1000
RTLwPs
1070
   128
  0
LINE
  5
7155
100
AcDbEntity
  8
MSL-90-R25-R-0
 48
2.0
100
AcDbLine
 10
299.653864
 20
628.317191
 30
0.0
 11
295.153864
 21
628.317191
 31
0.0
1001
ACAD
1000
RTLwPs
1070
   128
  0
LINE
  5
7156
100
AcDbEntity
  8
MSL-90-R25-R-0
 48
2.0
100
AcDbLine
 10
394.153864
 20
628.317191
 30
0.0
 11
389.653864
 21
628.317191
 31
0.0
1001
ACAD
1000
RTLwPs
1070
   128
  0
LINE
  5
7157
100
AcDbEntity
  8
MSL-90-R25-R-0
 48
2.0
100
AcDbLine
 10
394.653864
 20
617.317191
 30
0.0
 11
394.403864
 21
617.317191
 31
0.0
1001
ACAD
1000
RTLwPs
1070
   128
  0
LINE
  5
7158
100
AcDbEntity
  8
MSL-90-R25-R-0
 48
2.0
100
AcDbLine
 10
294.653864
 20
627.817191
 30
0.0
 11
294.653864
 21
617.317191
 31
0.0
1001
ACAD
1000
RTLwPs
1070
   128
  0
LINE
  5
7159
100
AcDbEntity
  8
MSL-90-R25-R-0
 48
2.0
100
AcDbLine
 10
294.903864
 20
617.317191
 30
0.0
 11
294.653864
 21
617.317191
 31
0.0
1001
ACAD
1000
RTLwPs
1070
   128
  0
LINE
  5
715A
100
AcDbEntity
  8
MSL-90-R25-R-0
 48
2.0
100
AcDbLine
 10
394.653864
 20
627.817191
 30
0.0
 11
394.153864
 21
628.317191
 31
0.0
1001
ACAD
1000
RTLwPs
1070
   128
  0
LINE
  5
715B
100
AcDbEntity
  8
MSL-90-R25-R-0
 48
2.0
100
AcDbLine
 10
307.103864
 20
543.817191
 30
0.0
 11
307.103864
 21
543.517191
 31
0.0
1001
ACAD
1000
RTLwPs
1070
   128
  0
LINE
  5
715C
100
AcDbEntity
  8
MSL-90-R25-R-0
 48
2.0
100
AcDbLine
 10
315.203864
 20
543.517191
 30
0.0
 11
315.203864
 21
543.817191
 31
0.0
1001
ACAD
1000
RTLwPs
1070
   128
  0
LINE
  5
715D
100
AcDbEntity
  8
MSL-90-R25-R-0
 48
2.0
100
AcDbLine
 10
373.903864
 20
543.317191
 30
0.0
 11
372.341364
 21
543.317191
 31
0.0
1001
ACAD
1000
RTLwPs
1070
   128
  0
ARC
  5
715E
100
AcDbEntity
  8
MSL-90-R25-R-0
 48
2.0
100
AcDbCircle
 10
315.403864
 20
543.517191
 30
0.0
 40
0.2
100
AcDbArc
 50
180.0
 51
270.0
1001
ACAD
1000
RTLwPs
1070
   128
  0
LINE
  5
715F
100
AcDbEntity
  8
MSL-90-R25-R-0
 48
2.0
100
AcDbLine
 10
372.341364
 20
543.317191
 30
0.0
 11
369.341364
 21
543.317191
 31
0.0
1001
ACAD
1000
RTLwPs
1070
   128
  0
LINE
  5
7160
100
AcDbEntity
  8
MSL-90-R25-R-0
 48
2.0
100
AcDbLine
 10
383.841364
 20
543.317191
 30
0.0
 11
382.403864
 21
543.317191
 31
0.0
1001
ACAD
1000
RTLwPs
1070
   128
  0
LINE
  5
7161
100
AcDbEntity
  8
MSL-90-R25-R-0
 48
2.0
100
AcDbLine
 10
369.341364
 20
543.817191
 30
0.0
 11
369.341364
 21
543.317191
 31
0.0
1001
ACAD
1000
RTLwPs
1070
   128
  0
LINE
  5
7162
100
AcDbEntity
  8
MSL-90-R25-R-0
 48
2.0
100
AcDbLine
 10
382.203864
 20
543.517191
 30
0.0
 11
382.203864
 21
543.817191
 31
0.0
1001
ACAD
1000
RTLwPs
1070
   128
  0
LINE
  5
7163
100
AcDbEntity
  8
MSL-90-R25-R-0
 48
2.0
100
AcDbLine
 10
374.103864
 20
543.817191
 30
0.0
 11
374.103864
 21
543.517191
 31
0.0
1001
ACAD
1000
RTLwPs
1070
   128
  0
LINE
  5
7164
100
AcDbEntity
  8
MSL-90-R25-R-0
 48
2.0
100
AcDbLine
 10
386.841364
 20
543.817191
 30
0.0
 11
386.841364
 21
543.317191
 31
0.0
1001
ACAD
1000
RTLwPs
1070
   128
  0
ARC
  5
7165
100
AcDbEntity
  8
MSL-90-R25-R-0
 48
2.0
100
AcDbCircle
 10
373.903864
 20
543.517191
 30
0.0
 40
0.2
100
AcDbArc
 50
270.0
 51
0.0
1001
ACAD
1000
RTLwPs
1070
   128
  0
LINE
  5
7166
100
AcDbEntity
  8
MSL-90-R25-R-0
 48
2.0
100
AcDbLine
 10
386.841364
 20
543.317191
 30
0.0
 11
383.841364
 21
543.317191
 31
0.0
1001
ACAD
1000
RTLwPs
1070
   128
  0
ARC
  5
7167
100
AcDbEntity
  8
MSL-90-R25-R-0
 48
2.0
100
AcDbCircle
 10
329.853864
 20
543.617191
 30
0.0
 40
0.2
100
AcDbArc
 50
90.0
 51
180.0
1001
ACAD
1000
RTLwPs
1070
   128
  0
LINE
  5
7168
100
AcDbEntity
  8
MSL-90-R25-R-0
 48
2.0
100
AcDbLine
 10
359.653864
 20
543.517191
 30
0.0
 11
359.653864
 21
543.617191
 31
0.0
1001
ACAD
1000
RTLwPs
1070
   128
  0
ARC
  5
7169
100
AcDbEntity
  8
MSL-90-R25-R-0
 48
2.0
100
AcDbCircle
 10
359.453864
 20
543.617191
 30
0.0
 40
0.2
100
AcDbArc
 50
0.0
 51
90.0
1001
ACAD
1000
RTLwPs
1070
   128
  0
LINE
  5
716A
100
AcDbEntity
  8
MSL-90-R25-R-0
 48
2.0
100
AcDbLine
 10
369.341364
 20
543.317191
 30
0.0
 11
359.853864
 21
543.317191
 31
0.0
1001
ACAD
1000
RTLwPs
1070
   128
  0
ARC
  5
716B
100
AcDbEntity
  8
MSL-90-R25-R-0
 48
2.0
100
AcDbCircle
 10
359.853864
 20
543.517191
 30
0.0
 40
0.2
100
AcDbArc
 50
180.0
 51
270.0
1001
ACAD
1000
RTLwPs
1070
   128
  0
LINE
  5
716C
100
AcDbEntity
  8
MSL-90-R25-R-0
 48
2.0
100
AcDbLine
 10
389.653864
 20
543.817191
 30
0.0
 11
389.653864
 21
543.517191
 31
0.0
1001
ACAD
1000
RTLwPs
1070
   128
  0
LINE
  5
716D
100
AcDbEntity
  8
MSL-90-R25-R-0
 48
2.0
100
AcDbLine
 10
389.453864
 20
543.317191
 30
0.0
 11
386.841364
 21
543.317191
 31
0.0
1001
ACAD
1000
RTLwPs
1070
   128
  0
ARC
  5
716E
100
AcDbEntity
  8
MSL-90-R25-R-0
 48
2.0
100
AcDbCircle
 10
389.453864
 20
543.517191
 30
0.0
 40
0.2
100
AcDbArc
 50
270.0
 51
0.0
1001
ACAD
1000
RTLwPs
1070
   128
  0
ARC
  5
716F
100
AcDbEntity
  8
MSL-90-R25-R-0
 48
2.0
100
AcDbCircle
 10
306.903864
 20
543.517191
 30
0.0
 40
0.2
100
AcDbArc
 50
270.0
 51
0.0
1001
ACAD
1000
RTLwPs
1070
   128
  0
ARC
  5
7170
100
AcDbEntity
  8
MSL-90-R25-R-0
 48
2.0
100
AcDbCircle
 10
382.403864
 20
543.517191
 30
0.0
 40
0.2
100
AcDbArc
 50
180.0
 51
270.0
1001
ACAD
1000
RTLwPs
1070
   128
  0
LINE
  5
7171
100
AcDbEntity
  8
MSL-90-R25-R-0
 48
2.0
100
AcDbLine
 10
305.466364
 20
543.317191
 30
0.0
 11
302.466364
 21
543.317191
 31
0.0
1001
ACAD
1000
RTLwPs
1070
   128
  0
LINE
  5
7172
100
AcDbEntity
  8
MSL-90-R25-R-0
 48
2.0
100
AcDbLine
 10
319.966364
 20
543.317191
 30
0.0
 11
316.966364
 21
543.317191
 31
0.0
1001
ACAD
1000
RTLwPs
1070
   128
  0
LINE
  5
7173
100
AcDbEntity
  8
MSL-90-R25-R-0
 48
2.0
100
AcDbLine
 10
306.903864
 20
543.317191
 30
0.0
 11
305.466364
 21
543.317191
 31
0.0
1001
ACAD
1000
RTLwPs
1070
   128
  0
LINE
  5
7174
100
AcDbEntity
  8
MSL-90-R25-R-0
 48
2.0
100
AcDbLine
 10
302.466364
 20
543.317191
 30
0.0
 11
299.853864
 21
543.317191
 31
0.0
1001
ACAD
1000
RTLwPs
1070
   128
  0
ARC
  5
7175
100
AcDbEntity
  8
MSL-90-R25-R-0
 48
2.0
100
AcDbCircle
 10
299.853864
 20
543.517191
 30
0.0
 40
0.2
100
AcDbArc
 50
180.0
 51
270.0
1001
ACAD
1000
RTLwPs
1070
   128
  0
LINE
  5
7176
100
AcDbEntity
  8
MSL-90-R25-R-0
 48
2.0
100
AcDbLine
 10
299.653864
 20
543.517191
 30
0.0
 11
299.653864
 21
543.817191
 31
0.0
1001
ACAD
1000
RTLwPs
1070
   128
  0
LINE
  5
7177
100
AcDbEntity
  8
MSL-90-R25-R-0
 48
2.0
100
AcDbLine
 10
329.653864
 20
543.617191
 30
0.0
 11
329.653864
 21
543.517191
 31
0.0
1001
ACAD
1000
RTLwPs
1070
   128
  0
ARC
  5
7178
100
AcDbEntity
  8
MSL-90-R25-R-0
 48
2.0
100
AcDbCircle
 10
329.453864
 20
543.517191
 30
0.0
 40
0.2
100
AcDbArc
 50
270.0
 51
0.0
1001
ACAD
1000
RTLwPs
1070
   128
  0
LINE
  5
7179
100
AcDbEntity
  8
MSL-90-R25-R-0
 48
2.0
100
AcDbLine
 10
302.466364
 20
543.817191
 30
0.0
 11
302.466364
 21
543.317191
 31
0.0
1001
ACAD
1000
RTLwPs
1070
   128
  0
LINE
  5
717A
100
AcDbEntity
  8
MSL-90-R25-R-0
 48
2.0
100
AcDbLine
 10
329.453864
 20
543.317191
 30
0.0
 11
319.966364
 21
543.317191
 31
0.0
1001
ACAD
1000
RTLwPs
1070
   128
  0
LINE
  5
717B
100
AcDbEntity
  8
MSL-90-R25-R-0
 48
2.0
100
AcDbLine
 10
319.966364
 20
543.817191
 30
0.0
 11
319.966364
 21
543.317191
 31
0.0
1001
ACAD
1000
RTLwPs
1070
   128
  0
LINE
  5
717C
100
AcDbEntity
  8
MSL-90-R25-R-0
 48
2.0
100
AcDbLine
 10
316.966364
 20
543.317191
 30
0.0
 11
315.403864
 21
543.317191
 31
0.0
1001
ACAD
1000
RTLwPs
1070
   128
  0
LINE
  5
717D
100
AcDbEntity
  8
MSL-90-R25-R-0
 48
2.0
100
AcDbLine
 10
-17.657982
 20
617.302191
 30
0.0
 11
52.342018
 21
617.302191
 31
0.0
1001
ACAD
1000
RTLwPs
1070
   128
  0
LINE
  5
717E
100
AcDbEntity
  8
MSL-90-R25-R-0
 48
2.0
100
AcDbLine
 10
-97.657982
 20
580.317191
 30
0.0
 11
-92.657982
 21
580.317191
 31
0.0
1001
ACAD
1000
RTLwPs
1070
   128
  0
LINE
  5
717F
100
AcDbEntity
  8
MSL-90-R25-R-0
 48
2.0
100
AcDbLine
 10
-92.657982
 20
580.317191
 30
0.0
 11
-92.657982
 21
577.616534
 31
0.0
1001
ACAD
1000
RTLwPs
1070
   128
  0
LINE
  5
7180
100
AcDbEntity
  8
MSL-90-R25-R-0
 48
2.0
100
AcDbLine
 10
-97.657982
 20
577.616534
 30
0.0
 11
-97.657982
 21
580.317191
 31
0.0
1001
ACAD
1000
RTLwPs
1070
   128
  0
ARC
  5
7181
100
AcDbEntity
  8
MSL-90-R25-R-0
 48
2.0
100
AcDbCircle
 10
-95.157982
 20
570.017191
 30
0.0
 40
8.0
100
AcDbArc
 50
108.209957
 51
71.790043
1001
ACAD
1000
RTLwPs
1070
   128
  0
LINE
  5
7182
100
AcDbEntity
  8
MSL-90-R25-R-0
 48
2.0
100
AcDbLine
 10
-95.156712
 20
584.573191
 30
0.0
 11
-95.156721
 21
584.473191
 31
0.0
1001
ACAD
1000
RTLwPs
1070
   128
  0
LINE
  5
7183
100
AcDbEntity
  8
MSL-90-R25-R-0
 48
2.0
100
AcDbLine
 10
-95.156539
 20
586.561191
 30
0.0
 11
-95.156547
 21
586.461191
 31
0.0
1001
ACAD
1000
RTLwPs
1070
   128
  0
LINE
  5
7184
100
AcDbEntity
  8
MSL-90-R25-R-0
 48
2.0
100
AcDbLine
 10
-95.159253
 20
584.573191
 30
0.0
 11
-95.159244
 21
584.473191
 31
0.0
1001
ACAD
1000
RTLwPs
1070
   128
  0
LINE
  5
7185
100
AcDbEntity
  8
MSL-90-R25-R-0
 48
2.0
100
AcDbLine
 10
-95.159426
 20
586.561191
 30
0.0
 11
-95.159417
 21
586.461191
 31
0.0
1001
ACAD
1000
RTLwPs
1070
   128
  0
ARC
  5
7186
100
AcDbEntity
  8
MSL-90-R25-R-5
 48
2.0
100
AcDbCircle
 10
-75.157982
 20
590.017191
 30
0.0
 40
3.0
100
AcDbArc
 50
165.0
 51
105.0
1001
ACAD
1000
RTLwPs
1070
   128
  0
ARC
  5
7187
100
AcDbEntity
  8
MSL-90-R25-R-5
 48
2.0
100
AcDbCircle
 10
-75.157982
 20
550.017191
 30
0.0
 40
3.0
100
AcDbArc
 50
165.0
 51
105.0
1001
ACAD
1000
RTLwPs
1070
   128
  0
ARC
  5
7188
100
AcDbEntity
  8
MSL-90-R25-R-5
 48
2.0
100
AcDbCircle
 10
-115.157982
 20
550.017191
 30
0.0
 40
3.0
100
AcDbArc
 50
165.0
 51
105.0
1001
ACAD
1000
RTLwPs
1070
   128
  0
ARC
  5
7189
100
AcDbEntity
  8
MSL-90-R25-R-5
 48
2.0
100
AcDbCircle
 10
-115.157982
 20
590.017191
 30
0.0
 40
3.0
100
AcDbArc
 50
165.0
 51
105.0
1001
ACAD
1000
RTLwPs
1070
   128
  0
LINE
  5
718A
100
AcDbEntity
  8
MSL-90-R25-R-0
 48
2.0
100
AcDbLine
 10
-127.657982
 20
543.817191
 30
0.0
 11
-67.657982
 21
543.817191
 31
0.0
1001
ACAD
1000
RTLwPs
1070
   128
  0
LINE
  5
718B
100
AcDbEntity
  8
MSL-90-R25-R-0
 48
2.0
100
AcDbLine
 10
-127.657982
 20
610.317191
 30
0.0
 11
-67.657982
 21
610.317191
 31
0.0
1001
ACAD
1000
RTLwPs
1070
   128
  0
LINE
  5
718C
100
AcDbEntity
  8
MSL-90-R25-R-0
 48
2.0
100
AcDbLine
 10
-127.657982
 20
610.317191
 30
0.0
 11
-127.657982
 21
543.817191
 31
0.0
1001
ACAD
1000
RTLwPs
1070
   128
  0
LINE
  5
718D
100
AcDbEntity
  8
MSL-90-R25-R-0
 48
2.0
100
AcDbLine
 10
-67.657982
 20
610.317191
 30
0.0
 11
-67.657982
 21
543.317191
 31
0.0
1001
ACAD
1000
RTLwPs
1070
   128
  0
CIRCLE
  5
718E
100
AcDbEntity
  8
MSL-90-R25-R-0
 48
2.0
100
AcDbCircle
 10
-75.157982
 20
590.017191
 30
0.0
 40
2.5
1001
ACAD
1000
RTLwPs
1070
   128
  0
CIRCLE
  5
718F
100
AcDbEntity
  8
MSL-90-R25-R-0
 48
2.0
100
AcDbCircle
 10
-75.157982
 20
550.017191
 30
0.0
 40
2.5
1001
ACAD
1000
RTLwPs
1070
   128
  0
CIRCLE
  5
7190
100
AcDbEntity
  8
MSL-90-R25-R-0
 48
2.0
100
AcDbCircle
 10
-115.157982
 20
550.017191
 30
0.0
 40
2.5
1001
ACAD
1000
RTLwPs
1070
   128
  0
CIRCLE
  5
7191
100
AcDbEntity
  8
MSL-90-R25-R-0
 48
2.0
100
AcDbCircle
 10
-115.157982
 20
590.017191
 30
0.0
 40
2.5
1001
ACAD
1000
RTLwPs
1070
   128
  0
CIRCLE
  5
7192
100
AcDbEntity
  8
MSL-90-R25-R-0
 48
2.0
100
AcDbCircle
 10
-95.157982
 20
570.017191
 30
0.0
 40
18.5
1001
ACAD
1000
RTLwPs
1070
   128
  0
ARC
  5
7193
100
AcDbEntity
  8
MSL-90-R25-R-0
 48
2.0
100
AcDbCircle
 10
229.842018
 20
570.017191
 30
0.0
 40
8.0
100
AcDbArc
 50
108.209957
 51
71.790043
1001
ACAD
1000
RTLwPs
1070
   128
  0
LINE
  5
7194
100
AcDbEntity
  8
MSL-90-R25-R-0
 48
2.0
100
AcDbLine
 10
227.342018
 20
580.317191
 30
0.0
 11
232.342018
 21
580.317191
 31
0.0
1001
ACAD
1000
RTLwPs
1070
   128
  0
LINE
  5
7195
100
AcDbEntity
  8
MSL-90-R25-R-0
 48
2.0
100
AcDbLine
 10
232.342018
 20
580.317191
 30
0.0
 11
232.342018
 21
577.616534
 31
0.0
1001
ACAD
1000
RTLwPs
1070
   128
  0
LINE
  5
7196
100
AcDbEntity
  8
MSL-90-R25-R-0
 48
2.0
100
AcDbLine
 10
227.342018
 20
577.616534
 30
0.0
 11
227.342018
 21
580.317191
 31
0.0
1001
ACAD
1000
RTLwPs
1070
   128
  0
ARC
  5
7197
100
AcDbEntity
  8
MSL-90-R25-R-5
 48
2.0
100
AcDbCircle
 10
209.842018
 20
590.017191
 30
0.0
 40
3.0
100
AcDbArc
 50
165.0
 51
105.0
1001
ACAD
1000
RTLwPs
1070
   128
  0
ARC
  5
7198
100
AcDbEntity
  8
MSL-90-R25-R-5
 48
2.0
100
AcDbCircle
 10
209.842018
 20
550.017191
 30
0.0
 40
3.0
100
AcDbArc
 50
165.0
 51
105.0
1001
ACAD
1000
RTLwPs
1070
   128
  0
ARC
  5
7199
100
AcDbEntity
  8
MSL-90-R25-R-5
 48
2.0
100
AcDbCircle
 10
249.842018
 20
550.017191
 30
0.0
 40
3.0
100
AcDbArc
 50
165.0
 51
105.0
1001
ACAD
1000
RTLwPs
1070
   128
  0
ARC
  5
719A
100
AcDbEntity
  8
MSL-90-R25-R-5
 48
2.0
100
AcDbCircle
 10
249.842018
 20
590.017191
 30
0.0
 40
3.0
100
AcDbArc
 50
165.0
 51
105.0
1001
ACAD
1000
RTLwPs
1070
   128
  0
LINE
  5
719B
100
AcDbEntity
  8
MSL-90-R25-R-0
 48
2.0
100
AcDbLine
 10
262.342018
 20
543.817191
 30
0.0
 11
202.342018
 21
543.817191
 31
0.0
1001
ACAD
1000
RTLwPs
1070
   128
  0
LINE
  5
719C
100
AcDbEntity
  8
MSL-90-R25-R-0
 48
2.0
100
AcDbLine
 10
262.342018
 20
610.317191
 30
0.0
 11
202.342018
 21
610.317191
 31
0.0
1001
ACAD
1000
RTLwPs
1070
   128
  0
LINE
  5
719D
100
AcDbEntity
  8
MSL-90-R25-R-0
 48
2.0
100
AcDbLine
 10
262.342018
 20
543.817191
 30
0.0
 11
262.342018
 21
610.317191
 31
0.0
1001
ACAD
1000
RTLwPs
1070
   128
  0
LINE
  5
719E
100
AcDbEntity
  8
MSL-90-R25-R-0
 48
2.0
100
AcDbLine
 10
202.342018
 20
543.317191
 30
0.0
 11
202.342018
 21
610.317191
 31
0.0
1001
ACAD
1000
RTLwPs
1070
   128
  0
CIRCLE
  5
719F
100
AcDbEntity
  8
MSL-90-R25-R-0
 48
2.0
100
AcDbCircle
 10
209.842018
 20
590.017191
 30
0.0
 40
2.5
1001
ACAD
1000
RTLwPs
1070
   128
  0
CIRCLE
  5
71A0
100
AcDbEntity
  8
MSL-90-R25-R-0
 48
2.0
100
AcDbCircle
 10
209.842018
 20
550.017191
 30
0.0
 40
2.5
1001
ACAD
1000
RTLwPs
1070
   128
  0
CIRCLE
  5
71A1
100
AcDbEntity
  8
MSL-90-R25-R-0
 48
2.0
100
AcDbCircle
 10
249.842018
 20
550.017191
 30
0.0
 40
2.5
1001
ACAD
1000
RTLwPs
1070
   128
  0
CIRCLE
  5
71A2
100
AcDbEntity
  8
MSL-90-R25-R-0
 48
2.0
100
AcDbCircle
 10
249.842018
 20
590.017191
 30
0.0
 40
2.5
1001
ACAD
1000
RTLwPs
1070
   128
  0
CIRCLE
  5
71A3
100
AcDbEntity
  8
MSL-90-R25-R-0
 48
2.0
100
AcDbCircle
 10
229.842018
 20
570.017191
 30
0.0
 40
18.5
1001
ACAD
1000
RTLwPs
1070
   128
  0
LINE
  5
71A4
100
AcDbEntity
  8
MSL-90-R25-R-0
 48
2.0
100
AcDbLine
 10
100.342018
 20
612.817191
 30
0.0
 11
100.342018
 21
626.817191
 31
0.0
1001
ACAD
1000
RTLwPs
1070
   128
  0
LINE
  5
71A5
100
AcDbEntity
  8
MSL-90-R25-R-0
 48
2.0
100
AcDbLine
 10
100.342018
 20
611.817191
 30
0.0
 11
92.342018
 21
611.817191
 31
0.0
1001
ACAD
1000
RTLwPs
1070
   128
  0
LINE
  5
71A6
100
AcDbEntity
  8
MSL-90-R25-R-0
 48
2.0
100
AcDbLine
 10
100.342018
 20
627.817191
 30
0.0
 11
100.342018
 21
626.817191
 31
0.0
1001
ACAD
1000
RTLwPs
1070
   128
  0
LINE
  5
71A7
100
AcDbEntity
  8
MSL-90-R25-R-0
 48
2.0
100
AcDbLine
 10
100.342018
 20
626.817191
 30
0.0
 11
92.342018
 21
626.817191
 31
0.0
1001
ACAD
1000
RTLwPs
1070
   128
  0
LINE
  5
71A8
100
AcDbEntity
  8
MSL-90-R25-R-0
 48
2.0
100
AcDbLine
 10
100.342018
 20
612.817191
 30
0.0
 11
100.342018
 21
611.817191
 31
0.0
1001
ACAD
1000
RTLwPs
1070
   128
  0
LINE
  5
71A9
100
AcDbEntity
  8
MSL-90-R25-R-0
 48
2.0
100
AcDbLine
 10
92.342018
 20
612.817191
 30
0.0
 11
100.342018
 21
612.817191
 31
0.0
1001
ACAD
1000
RTLwPs
1070
   128
  0
LINE
  5
71AA
100
AcDbEntity
  8
MSL-90-R25-R-0
 48
2.0
100
AcDbLine
 10
92.342018
 20
627.817191
 30
0.0
 11
100.342018
 21
627.817191
 31
0.0
1001
ACAD
1000
RTLwPs
1070
   128
  0
LINE
  5
71AB
100
AcDbEntity
  8
MSL-90-R25-R-0
 48
2.0
100
AcDbLine
 10
-57.657982
 20
611.817191
 30
0.0
 11
-65.657982
 21
611.817191
 31
0.0
1001
ACAD
1000
RTLwPs
1070
   128
  0
LINE
  5
71AC
100
AcDbEntity
  8
MSL-90-R25-R-0
 48
2.0
100
AcDbLine
 10
-65.657982
 20
627.817191
 30
0.0
 11
-57.657982
 21
627.817191
 31
0.0
1001
ACAD
1000
RTLwPs
1070
   128
  0
LINE
  5
71AD
100
AcDbEntity
  8
MSL-90-R25-R-0
 48
2.0
100
AcDbLine
 10
-65.657982
 20
626.817191
 30
0.0
 11
-65.657982
 21
612.817191
 31
0.0
1001
ACAD
1000
RTLwPs
1070
   128
  0
LINE
  5
71AE
100
AcDbEntity
  8
MSL-90-R25-R-0
 48
2.0
100
AcDbLine
 10
-65.657982
 20
611.817191
 30
0.0
 11
-65.657982
 21
612.817191
 31
0.0
1001
ACAD
1000
RTLwPs
1070
   128
  0
LINE
  5
71AF
100
AcDbEntity
  8
MSL-90-R25-R-0
 48
2.0
100
AcDbLine
 10
-65.657982
 20
626.817191
 30
0.0
 11
-65.657982
 21
627.817191
 31
0.0
1001
ACAD
1000
RTLwPs
1070
   128
  0
LINE
  5
71B0
100
AcDbEntity
  8
MSL-90-R25-R-0
 48
2.0
100
AcDbLine
 10
-65.657982
 20
612.817191
 30
0.0
 11
-57.657982
 21
612.817191
 31
0.0
1001
ACAD
1000
RTLwPs
1070
   128
  0
LINE
  5
71B1
100
AcDbEntity
  8
MSL-90-R25-R-0
 48
2.0
100
AcDbLine
 10
-57.657982
 20
626.817191
 30
0.0
 11
-65.657982
 21
626.817191
 31
0.0
1001
ACAD
1000
RTLwPs
1070
   128
  0
ELLIPSE
  5
71B2
100
AcDbEntity
  8
MSL-90-R25-R-0
 48
2.0
100
AcDbEllipse
 10
-37.657982
 20
604.291475
 30
0.0
 11
1.500000000000001
 21
-0.0000000000000146
 31
0.0
210
0.0
220
0.0
230
1.0
 40
0.992546
 41
0.0
 42
3.141592653589793
1001
ACAD
1000
RTLwPs
1070
   128
  0
CIRCLE
  5
71B3
100
AcDbEntity
  8
MSL-90-R25-R-0
 48
2.0
100
AcDbCircle
 10
-37.657982
 20
610.317191
 30
0.0
 40
4.0
1001
ACAD
1000
RTLwPs
1070
   128
  0
CIRCLE
  5
71B4
100
AcDbEntity
  8
MSL-90-R25-R-0
 48
2.0
100
AcDbCircle
 10
-37.657982
 20
610.317191
 30
0.0
 40
1.604327
1001
ACAD
1000
RTLwPs
1070
   128
  0
CIRCLE
  5
71B5
100
AcDbEntity
  8
MSL-90-R25-R-0
 48
2.0
100
AcDbCircle
 10
-37.657982
 20
610.317191
 30
0.0
 40
3.0
1001
ACAD
1000
RTLwPs
1070
   128
  0
CIRCLE
  5
71B6
100
AcDbEntity
  8
MSL-90-R25-R-0
 48
2.0
100
AcDbCircle
 10
-37.657982
 20
610.317191
 30
0.0
 40
3.75
1001
ACAD
1000
RTLwPs
1070
   128
  0
LINE
  5
71B7
100
AcDbEntity
  8
MSL-90-R25-R-0
 48
2.0
100
AcDbLine
 10
-57.657982
 20
591.817191
 30
0.0
 11
-17.657982
 21
591.817191
 31
0.0
1001
ACAD
1000
RTLwPs
1070
   128
  0
ELLIPSE
  5
71B8
100
AcDbEntity
  8
MSL-90-R25-R-0
 48
2.0
100
AcDbEllipse
 10
-37.657982
 20
604.343137
 30
0.0
 11
0.0000000000000002
 21
1.511264738188272
 31
0.0
210
0.0
220
0.0
230
1.0
 40
0.992546
 41
0.0
 42
6.283185307179586
1001
ACAD
1000
RTLwPs
1070
   128
  0
CIRCLE
  5
71B9
100
AcDbEntity
  8
MSL-90-R25-R-0
 48
2.0
100
AcDbCircle
 10
-37.657982
 20
610.317191
 30
0.0
 40
4.1
1001
ACAD
1000
RTLwPs
1070
   128
  0
LINE
  5
71BA
100
AcDbEntity
  8
MSL-90-R25-R-0
 48
2.0
100
AcDbLine
 10
-17.657982
 20
591.817191
 30
0.0
 11
-17.657982
 21
617.317191
 31
0.0
1001
ACAD
1000
RTLwPs
1070
   128
  0
LINE
  5
71BB
100
AcDbEntity
  8
MSL-90-R25-R-0
 48
2.0
100
AcDbLine
 10
-57.657982
 20
591.817191
 30
0.0
 11
-57.657982
 21
617.317191
 31
0.0
1001
ACAD
1000
RTLwPs
1070
   128
  0
ELLIPSE
  5
71BC
100
AcDbEntity
  8
MSL-90-R25-R-0
 48
2.0
100
AcDbEllipse
 10
72.342018
 20
604.291475
 30
0.0
 11
1.499999999999994
 21
-0.0000000000005975
 31
0.0
210
0.0
220
0.0
230
1.0
 40
0.992546
 41
0.0
 42
3.141592653590174
1001
ACAD
1000
RTLwPs
1070
   128
  0
CIRCLE
  5
71BD
100
AcDbEntity
  8
MSL-90-R25-R-0
 48
2.0
100
AcDbCircle
 10
72.342018
 20
610.317191
 30
0.0
 40
3.75
1001
ACAD
1000
RTLwPs
1070
   128
  0
CIRCLE
  5
71BE
100
AcDbEntity
  8
MSL-90-R25-R-0
 48
2.0
100
AcDbCircle
 10
72.342018
 20
610.317191
 30
0.0
 40
3.0
1001
ACAD
1000
RTLwPs
1070
   128
  0
CIRCLE
  5
71BF
100
AcDbEntity
  8
MSL-90-R25-R-0
 48
2.0
100
AcDbCircle
 10
72.342018
 20
610.317191
 30
0.0
 40
1.604327
1001
ACAD
1000
RTLwPs
1070
   128
  0
CIRCLE
  5
71C0
100
AcDbEntity
  8
MSL-90-R25-R-0
 48
2.0
100
AcDbCircle
 10
72.342018
 20
610.317191
 30
0.0
 40
4.0
1001
ACAD
1000
RTLwPs
1070
   128
  0
LINE
  5
71C1
100
AcDbEntity
  8
MSL-90-R25-R-0
 48
2.0
100
AcDbLine
 10
52.342018
 20
591.817191
 30
0.0
 11
92.342018
 21
591.817191
 31
0.0
1001
ACAD
1000
RTLwPs
1070
   128
  0
ELLIPSE
  5
71C2
100
AcDbEntity
  8
MSL-90-R25-R-0
 48
2.0
100
AcDbEllipse
 10
72.342018
 20
604.343137
 30
0.0
 11
0.0000000000000002
 21
1.511264738188272
 31
0.0
210
0.0
220
0.0
230
1.0
 40
0.992546
 41
0.0
 42
6.283185307179586
1001
ACAD
1000
RTLwPs
1070
   128
  0
CIRCLE
  5
71C3
100
AcDbEntity
  8
MSL-90-R25-R-0
 48
2.0
100
AcDbCircle
 10
72.342018
 20
610.317191
 30
0.0
 40
4.1
1001
ACAD
1000
RTLwPs
1070
   128
  0
LINE
  5
71C4
100
AcDbEntity
  8
MSL-90-R25-R-0
 48
2.0
100
AcDbLine
 10
92.342018
 20
591.817191
 30
0.0
 11
92.342018
 21
617.317191
 31
0.0
1001
ACAD
1000
RTLwPs
1070
   128
  0
LINE
  5
71C5
100
AcDbEntity
  8
MSL-90-R25-R-0
 48
2.0
100
AcDbLine
 10
52.342018
 20
591.817191
 30
0.0
 11
52.342018
 21
617.317191
 31
0.0
1001
ACAD
1000
RTLwPs
1070
   128
  0
LINE
  5
71C6
100
AcDbEntity
  8
MSL-90-R25-R-0
 48
2.0
100
AcDbLine
 10
92.342018
 20
628.317191
 30
0.0
 11
92.342018
 21
627.817191
 31
0.0
1001
ACAD
1000
RTLwPs
1070
   128
  0
LINE
  5
71C7
100
AcDbEntity
  8
MSL-90-R25-R-0
 48
2.0
100
AcDbLine
 10
92.342018
 20
627.817191
 30
0.0
 11
92.342018
 21
617.317191
 31
0.0
1001
ACAD
1000
RTLwPs
1070
   128
  0
LINE
  5
71C8
100
AcDbEntity
  8
MSL-90-R25-R-0
 48
2.0
100
AcDbLine
 10
-57.657982
 20
627.817191
 30
0.0
 11
-57.657982
 21
617.317191
 31
0.0
1001
ACAD
1000
RTLwPs
1070
   128
  0
LINE
  5
71C9
100
AcDbEntity
  8
MSL-90-R25-R-0
 48
2.0
100
AcDbLine
 10
92.342018
 20
617.317191
 30
0.0
 11
-57.657982
 21
617.317191
 31
0.0
1001
ACAD
1000
RTLwPs
1070
   128
  0
LINE
  5
71CA
100
AcDbEntity
  8
MSL-90-R25-R-0
 48
2.0
100
AcDbLine
 10
-57.657982
 20
627.817191
 30
0.0
 11
-57.657982
 21
628.317191
 31
0.0
1001
ACAD
1000
RTLwPs
1070
   128
  0
LINE
  5
71CB
100
AcDbEntity
  8
MSL-90-R25-R-0
 48
2.0
100
AcDbLine
 10
92.342018
 20
627.817191
 30
0.0
 11
5.301762
 21
627.817191
 31
0.0
1001
ACAD
1000
RTLwPs
1070
   128
  0
LINE
  5
71CC
100
AcDbEntity
  8
MSL-90-R25-R-0
 48
2.0
100
AcDbLine
 10
-57.657982
 20
608.317191
 30
0.0
 11
-67.657982
 21
608.317191
 31
0.0
1001
ACAD
1000
RTLwPs
1070
   128
  0
LINE
  5
71CD
100
AcDbEntity
  8
MSL-90-R25-R-0
 48
2.0
100
AcDbLine
 10
52.342018
 20
608.317191
 30
0.0
 11
-17.657982
 21
608.317191
 31
0.0
1001
ACAD
1000
RTLwPs
1070
   128
  0
LINE
  5
71CE
100
AcDbEntity
  8
MSL-90-R25-R-0
 48
2.0
100
AcDbLine
 10
202.342018
 20
608.317191
 30
0.0
 11
92.342018
 21
608.317191
 31
0.0
1001
ACAD
1000
RTLwPs
1070
   128
  0
LINE
  5
71CF
100
AcDbEntity
  8
MSL-90-R25-R-0
 48
2.0
100
AcDbLine
 10
-64.657982
 20
543.517191
 30
0.0
 11
-64.657982
 21
543.317191
 31
0.0
1001
ACAD
1000
RTLwPs
1070
   128
  0
LINE
  5
71D0
100
AcDbEntity
  8
MSL-90-R25-R-0
 48
2.0
100
AcDbLine
 10
-67.657982
 20
586.817191
 30
0.0
 11
202.342018
 21
586.817191
 31
0.0
1001
ACAD
1000
RTLwPs
1070
   128
  0
LINE
  5
71D1
100
AcDbEntity
  8
MSL-90-R25-R-0
 48
2.0
100
AcDbLine
 10
-67.657982
 20
590.817191
 30
0.0
 11
202.342018
 21
590.817191
 31
0.0
1001
ACAD
1000
RTLwPs
1070
   128
  0
LINE
  5
71D2
100
AcDbEntity
  8
MSL-90-R25-R-0
 48
2.0
100
AcDbLine
 10
-67.657982
 20
556.317191
 30
0.0
 11
202.342018
 21
556.317191
 31
0.0
1001
ACAD
1000
RTLwPs
1070
   128
  0
LINE
  5
71D3
100
AcDbEntity
  8
MSL-90-R25-R-0
 48
2.0
100
AcDbLine
 10
-67.657982
 20
543.317191
 30
0.0
 11
202.342018
 21
543.317191
 31
0.0
1001
ACAD
1000
RTLwPs
1070
   128
  0
LINE
  5
71D4
100
AcDbEntity
  8
MSL-90-R25-R-0
 48
2.0
100
AcDbLine
 10
92.342018
 20
596.832422
 30
0.0
 11
202.342018
 21
596.832422
 31
0.0
1001
ACAD
1000
RTLwPs
1070
   128
  0
LINE
  5
71D5
100
AcDbEntity
  8
MSL-90-R25-R-0
 48
2.0
100
AcDbLine
 10
-17.657982
 20
596.832422
 30
0.0
 11
52.342018
 21
596.832422
 31
0.0
1001
ACAD
1000
RTLwPs
1070
   128
  0
LINE
  5
71D6
100
AcDbEntity
  8
MSL-90-R25-R-0
 48
2.0
100
AcDbLine
 10
-67.657982
 20
596.832422
 30
0.0
 11
-57.657982
 21
596.832422
 31
0.0
1001
ACAD
1000
RTLwPs
1070
   128
  0
LINE
  5
71D7
100
AcDbEntity
  8
MSL-90-R25-R-0
 48
2.0
100
AcDbLine
 10
-127.657982
 20
416.3439
 30
0.0
 11
-65.657982
 21
416.3439
 31
0.0
1001
ACAD
1000
RTLwPs
1070
   128
  0
LINE
  5
71D8
100
AcDbEntity
  8
MSL-90-R25-R-0
 48
2.0
100
AcDbLine
 10
-127.657982
 20
506.3439
 30
0.0
 11
-65.657982
 21
506.3439
 31
0.0
1001
ACAD
1000
RTLwPs
1070
   128
  0
LINE
  5
71D9
100
AcDbEntity
  8
MSL-90-R25-R-0
 48
2.0
100
AcDbLine
 10
-127.657982
 20
506.3439
 30
0.0
 11
-127.657982
 21
416.3439
 31
0.0
1001
ACAD
1000
RTLwPs
1070
   128
  0
LINE
  5
71DA
100
AcDbEntity
  8
MSL-90-R25-R-0
 48
2.0
100
AcDbLine
 10
261.842018
 20
416.3439
 30
0.0
 11
100.342018
 21
416.3439
 31
0.0
1001
ACAD
1000
RTLwPs
1070
   128
  0
LINE
  5
71DB
100
AcDbEntity
  8
MSL-90-R25-R-0
 48
2.0
100
AcDbLine
 10
262.342018
 20
416.3439
 30
0.0
 11
262.342018
 21
506.3439
 31
0.0
1001
ACAD
1000
RTLwPs
1070
   128
  0
LINE
  5
71DC
100
AcDbEntity
  8
MSL-90-R25-R-0
 48
2.0
100
AcDbLine
 10
261.842018
 20
506.3439
 30
0.0
 11
100.342018
 21
506.3439
 31
0.0
1001
ACAD
1000
RTLwPs
1070
   128
  0
LINE
  5
71DD
100
AcDbEntity
  8
MSL-90-R25-R-0
 48
2.0
100
AcDbLine
 10
100.342018
 20
412.5939
 30
0.0
 11
100.342018
 21
510.0939
 31
0.0
1001
ACAD
1000
RTLwPs
1070
   128
  0
LINE
  5
71DE
100
AcDbEntity
  8
MSL-90-R25-R-0
 48
2.0
100
AcDbLine
 10
100.342018
 20
510.0939
 30
0.0
 11
92.342018
 21
510.0939
 31
0.0
1001
ACAD
1000
RTLwPs
1070
   128
  0
LINE
  5
71DF
100
AcDbEntity
  8
MSL-90-R25-R-0
 48
2.0
100
AcDbLine
 10
100.342018
 20
412.5939
 30
0.0
 11
100.342018
 21
411.5939
 31
0.0
1001
ACAD
1000
RTLwPs
1070
   128
  0
LINE
  5
71E0
100
AcDbEntity
  8
MSL-90-R25-R-0
 48
2.0
100
AcDbLine
 10
92.342018
 20
451.3439
 30
0.0
 11
92.342018
 21
471.3439
 31
0.0
1001
ACAD
1000
RTLwPs
1070
   128
  0
LINE
  5
71E1
100
AcDbEntity
  8
MSL-90-R25-R-0
 48
2.0
100
AcDbLine
 10
100.342018
 20
411.5939
 30
0.0
 11
92.342018
 21
411.5939
 31
0.0
1001
ACAD
1000
RTLwPs
1070
   128
  0
LINE
  5
71E2
100
AcDbEntity
  8
MSL-90-R25-R-0
 48
2.0
100
AcDbLine
 10
92.342018
 20
412.5939
 30
0.0
 11
100.342018
 21
412.5939
 31
0.0
1001
ACAD
1000
RTLwPs
1070
   128
  0
LINE
  5
71E3
100
AcDbEntity
  8
MSL-90-R25-R-0
 48
2.0
100
AcDbLine
 10
100.342018
 20
511.0939
 30
0.0
 11
100.342018
 21
510.0939
 31
0.0
1001
ACAD
1000
RTLwPs
1070
   128
  0
LINE
  5
71E4
100
AcDbEntity
  8
MSL-90-R25-R-0
 48
2.0
100
AcDbLine
 10
92.342018
 20
511.0939
 30
0.0
 11
100.342018
 21
511.0939
 31
0.0
1001
ACAD
1000
RTLwPs
1070
   128
  0
LINE
  5
71E5
100
AcDbEntity
  8
MSL-90-R25-R-0
 48
2.0
100
AcDbLine
 10
-65.657982
 20
511.0939
 30
0.0
 11
-65.657982
 21
411.5939
 31
0.0
1001
ACAD
1000
RTLwPs
1070
   128
  0
LINE
  5
71E6
100
AcDbEntity
  8
MSL-90-R25-R-0
 48
2.0
100
AcDbLine
 10
-65.657982
 20
412.5939
 30
0.0
 11
-57.657982
 21
412.5939
 31
0.0
1001
ACAD
1000
RTLwPs
1070
   128
  0
LINE
  5
71E7
100
AcDbEntity
  8
MSL-90-R25-R-0
 48
2.0
100
AcDbLine
 10
-65.657982
 20
511.0939
 30
0.0
 11
-57.657982
 21
511.0939
 31
0.0
1001
ACAD
1000
RTLwPs
1070
   128
  0
LINE
  5
71E8
100
AcDbEntity
  8
MSL-90-R25-R-0
 48
2.0
100
AcDbLine
 10
-57.657982
 20
471.3439
 30
0.0
 11
-57.657982
 21
451.3439
 31
0.0
1001
ACAD
1000
RTLwPs
1070
   128
  0
LINE
  5
71E9
100
AcDbEntity
  8
MSL-90-R25-R-0
 48
2.0
100
AcDbLine
 10
-57.657982
 20
510.0939
 30
0.0
 11
-65.657982
 21
510.0939
 31
0.0
1001
ACAD
1000
RTLwPs
1070
   128
  0
LINE
  5
71EA
100
AcDbEntity
  8
MSL-90-R25-R-0
 48
2.0
100
AcDbLine
 10
-57.657982
 20
411.5939
 30
0.0
 11
-65.657982
 21
411.5939
 31
0.0
1001
ACAD
1000
RTLwPs
1070
   128
  0
LINE
  5
71F5
100
AcDbEntity
  8
MSL-90-R25-R-0
 48
2.0
100
AcDbLine
 10
92.342018
 20
471.3439
 30
0.0
 11
92.342018
 21
451.3439
 31
0.0
1001
ACAD
1000
RTLwPs
1070
   128
  0
LINE
  5
71F6
100
AcDbEntity
  8
MSL-90-R25-R-0
 48
2.0
100
AcDbLine
 10
-57.657982
 20
451.3439
 30
0.0
 11
-57.657982
 21
471.3439
 31
0.0
1001
ACAD
1000
RTLwPs
1070
   128
  0
LINE
  5
71F8
100
AcDbEntity
  8
MSL-90-R25-R-0
 48
2.0
100
AcDbLine
 10
92.342018
 20
510.8439
 30
0.0
 11
-57.657982
 21
510.8439
 31
0.0
1001
ACAD
1000
RTLwPs
1070
   128
  0
LINE
  5
71F9
100
AcDbEntity
  8
MSL-90-R25-R-0
 48
2.0
100
AcDbLine
 10
-57.657982
 20
510.8439
 30
0.0
 11
-57.657982
 21
511.3439
 31
0.0
1001
ACAD
1000
RTLwPs
1070
   128
  0
LINE
  5
71FA
100
AcDbEntity
  8
MSL-90-R25-R-0
 48
2.0
100
AcDbLine
 10
92.342018
 20
511.3439
 30
0.0
 11
92.342018
 21
510.8439
 31
0.0
1001
ACAD
1000
RTLwPs
1070
   128
  0
LINE
  5
71FB
100
AcDbEntity
  8
MSL-90-R25-R-0
 48
2.0
100
AcDbLine
 10
92.342018
 20
411.8439
 30
0.0
 11
92.342018
 21
411.3439
 31
0.0
1001
ACAD
1000
RTLwPs
1070
   128
  0
LINE
  5
71FC
100
AcDbEntity
  8
MSL-90-R25-R-0
 48
2.0
100
AcDbLine
 10
-57.657982
 20
471.3439
 30
0.0
 11
-57.657982
 21
510.8439
 31
0.0
1001
ACAD
1000
RTLwPs
1070
   128
  0
LINE
  5
71FD
100
AcDbEntity
  8
MSL-90-R25-R-0
 48
2.0
100
AcDbLine
 10
92.342018
 20
510.8439
 30
0.0
 11
92.342018
 21
471.3439
 31
0.0
1001
ACAD
1000
RTLwPs
1070
   128
  0
LINE
  5
71FE
100
AcDbEntity
  8
MSL-90-R25-R-0
 48
2.0
100
AcDbLine
 10
-57.657982
 20
511.3439
 30
0.0
 11
92.342018
 21
511.3439
 31
0.0
1001
ACAD
1000
RTLwPs
1070
   128
  0
LINE
  5
71FF
100
AcDbEntity
  8
MSL-90-R25-R-0
 48
2.0
100
AcDbLine
 10
-57.657982
 20
411.8439
 30
0.0
 11
-57.657982
 21
451.3439
 31
0.0
1001
ACAD
1000
RTLwPs
1070
   128
  0
LINE
  5
7200
100
AcDbEntity
  8
MSL-90-R25-R-0
 48
2.0
100
AcDbLine
 10
92.342018
 20
451.3439
 30
0.0
 11
92.342018
 21
411.8439
 31
0.0
1001
ACAD
1000
RTLwPs
1070
   128
  0
LINE
  5
7201
100
AcDbEntity
  8
MSL-90-R25-R-0
 48
2.0
100
AcDbLine
 10
-57.657982
 20
411.3439
 30
0.0
 11
-57.657982
 21
411.8439
 31
0.0
1001
ACAD
1000
RTLwPs
1070
   128
  0
LINE
  5
7202
100
AcDbEntity
  8
MSL-90-R25-R-0
 48
2.0
100
AcDbLine
 10
92.342018
 20
411.3439
 30
0.0
 11
-57.657982
 21
411.3439
 31
0.0
1001
ACAD
1000
RTLwPs
1070
   128
  0
LINE
  5
7203
100
AcDbEntity
  8
MSL-90-R25-R-0
 48
2.0
100
AcDbLine
 10
-57.657982
 20
411.8439
 30
0.0
 11
92.342018
 21
411.8439
 31
0.0
1001
ACAD
1000
RTLwPs
1070
   128
  0
LINE
  5
720E
100
AcDbEntity
  8
MSL-90-R25-R-0
 48
2.0
100
AcDbLine
 10
92.947915
 20
473.769366
 30
0.0
 11
-57.052085
 21
473.769366
 31
0.0
1001
ACAD
1000
RTLwPs
1070
   128
  0
LINE
  5
7273
100
AcDbEntity
  8
MSL-90-R25-R-0
 48
2.0
100
AcDbLine
 10
5.301762
 20
627.817191
 30
0.0
 11
-57.657982
 21
627.817191
 31
0.0
1001
ACAD
1000
RTLwPs
1070
   128
  0
LINE
  5
7356
100
AcDbEntity
  8
MSL-90-R25-R-7A
 48
2.0
100
AcDbLine
 10
-38.209104
 20
493.769103
 30
0.0
 11
72.945315
 21
493.769103
 31
0.0
  0
LINE
  5
7357
100
AcDbEntity
  8
MSL-90-R25-R-7A
 48
2.0
100
AcDbLine
 10
-38.442621
 20
428.769103
 30
0.0
 11
72.478279
 21
428.769103
 31
0.0
  0
ARC
  5
7358
100
AcDbEntity
  8
MSL-90-R25-R-5
 48
2.0
100
AcDbCircle
 10
67.337915
 20
428.769103
 30
0.0
 40
3.0
100
AcDbArc
 50
255.0
 51
195.0
1001
ACAD
1000
RTLwPs
1070
   128
  0
CIRCLE
  5
7359
100
AcDbEntity
  8
MSL-90-R25-R-0
 48
2.0
100
AcDbCircle
 10
67.337915
 20
428.769103
 30
0.0
 40
2.5
1001
ACAD
1000
RTLwPs
1070
   128
  0
CIRCLE
  5
735A
100
AcDbEntity
  8
MSL-90-R25-R-0
 48
2.0
100
AcDbCircle
 10
67.337915
 20
493.769103
 30
0.0
 40
2.5
1001
ACAD
1000
RTLwPs
1070
   128
  0
ARC
  5
735B
100
AcDbEntity
  8
MSL-90-R25-R-5
 48
2.0
100
AcDbCircle
 10
67.337915
 20
493.769103
 30
0.0
 40
3.0
100
AcDbArc
 50
255.0
 51
195.0
1001
ACAD
1000
RTLwPs
1070
   128
  0
CIRCLE
  5
735D
100
AcDbEntity
  8
MSL-90-R25-R-0
 48
2.0
100
AcDbCircle
 10
-7.662085
 20
493.769103
 30
0.0
 40
5.0
1001
ACAD
1000
RTLwPs
1070
   128
  0
CIRCLE
  5
735E
100
AcDbEntity
  8
MSL-90-R25-R-0
 48
2.0
100
AcDbCircle
 10
-32.662085
 20
493.769103
 30
0.0
 40
2.5
1001
ACAD
1000
RTLwPs
1070
   128
  0
ARC
  5
735F
100
AcDbEntity
  8
MSL-90-R25-R-5
 48
2.0
100
AcDbCircle
 10
-32.662085
 20
493.769103
 30
0.0
 40
3.0
100
AcDbArc
 50
255.0
 51
195.0
1001
ACAD
1000
RTLwPs
1070
   128
  0
LINE
  5
7360
100
AcDbEntity
  8
MSL-90-R25-R-7A
 48
2.0
100
AcDbLine
 10
-32.662085
 20
489.269103
 30
0.0
 11
-32.662085
 21
498.269103
 31
0.0
  0
CIRCLE
  5
7361
100
AcDbEntity
  8
MSL-90-R25-R-0
 48
2.0
100
AcDbCircle
 10
-7.662085
 20
493.769103
 30
0.0
 40
2.5
1001
ACAD
1000
RTLwPs
1070
   128
  0
ARC
  5
7362
100
AcDbEntity
  8
MSL-90-R25-R-5
 48
2.0
100
AcDbCircle
 10
-7.662085
 20
493.769103
 30
0.0
 40
3.0
100
AcDbArc
 50
255.0
 51
195.0
1001
ACAD
1000
RTLwPs
1070
   128
  0
LINE
  5
7363
100
AcDbEntity
  8
MSL-90-R25-R-7A
 48
2.0
100
AcDbLine
 10
-7.662085
 20
487.269103
 30
0.0
 11
-7.662085
 21
500.269103
 31
0.0
  0
CIRCLE
  5
7364
100
AcDbEntity
  8
MSL-90-R25-R-0
 48
2.0
100
AcDbCircle
 10
17.337915
 20
493.769103
 30
0.0
 40
2.5
1001
ACAD
1000
RTLwPs
1070
   128
  0
ARC
  5
7365
100
AcDbEntity
  8
MSL-90-R25-R-5
 48
2.0
100
AcDbCircle
 10
17.337915
 20
493.769103
 30
0.0
 40
3.0
100
AcDbArc
 50
255.0
 51
195.0
1001
ACAD
1000
RTLwPs
1070
   128
  0
LINE
  5
7366
100
AcDbEntity
  8
MSL-90-R25-R-7A
 48
2.0
100
AcDbLine
 10
17.337915
 20
489.269103
 30
0.0
 11
17.337915
 21
498.269103
 31
0.0
  0
CIRCLE
  5
7367
100
AcDbEntity
  8
MSL-90-R25-R-0
 48
2.0
100
AcDbCircle
 10
42.337915
 20
493.769103
 30
0.0
 40
5.0
1001
ACAD
1000
RTLwPs
1070
   128
  0
ARC
  5
7368
100
AcDbEntity
  8
MSL-90-R25-R-5
 48
2.0
100
AcDbCircle
 10
42.337915
 20
493.769103
 30
0.0
 40
3.0
100
AcDbArc
 50
255.0
 51
195.0
1001
ACAD
1000
RTLwPs
1070
   128
  0
CIRCLE
  5
7369
100
AcDbEntity
  8
MSL-90-R25-R-0
 48
2.0
100
AcDbCircle
 10
42.337915
 20
493.769103
 30
0.0
 40
2.5
1001
ACAD
1000
RTLwPs
1070
   128
  0
LINE
  5
736A
100
AcDbEntity
  8
MSL-90-R25-R-7A
 48
2.0
100
AcDbLine
 10
42.337915
 20
487.269103
 30
0.0
 11
42.337915
 21
500.269103
 31
0.0
  0
LINE
  5
736B
100
AcDbEntity
  8
MSL-90-R25-R-7A
 48
2.0
100
AcDbLine
 10
67.337915
 20
489.269103
 30
0.0
 11
67.337915
 21
498.269103
 31
0.0
  0
CIRCLE
  5
736C
100
AcDbEntity
  8
MSL-90-R25-R-0
 48
2.0
100
AcDbCircle
 10
-7.662085
 20
428.769103
 30
0.0
 40
5.0
1001
ACAD
1000
RTLwPs
1070
   128
  0
LINE
  5
736D
100
AcDbEntity
  8
MSL-90-R25-R-7A
 48
2.0
100
AcDbLine
 10
-7.606517
 20
422.269875
 30
0.0
 11
-7.662085
 21
435.269103
 31
0.0
  0
LINE
  5
736E
100
AcDbEntity
  8
MSL-90-R25-R-7A
 48
2.0
100
AcDbLine
 10
-32.662085
 20
424.269103
 30
0.0
 11
-32.662085
 21
433.269103
 31
0.0
  0
CIRCLE
  5
736F
100
AcDbEntity
  8
MSL-90-R25-R-0
 48
2.0
100
AcDbCircle
 10
-32.662085
 20
428.769103
 30
0.0
 40
2.5
1001
ACAD
1000
RTLwPs
1070
   128
  0
ARC
  5
7370
100
AcDbEntity
  8
MSL-90-R25-R-5
 48
2.0
100
AcDbCircle
 10
-32.662085
 20
428.769103
 30
0.0
 40
3.0
100
AcDbArc
 50
255.0
 51
195.0
1001
ACAD
1000
RTLwPs
1070
   128
  0
ARC
  5
7371
100
AcDbEntity
  8
MSL-90-R25-R-5
 48
2.0
100
AcDbCircle
 10
-7.662085
 20
428.769103
 30
0.0
 40
3.0
100
AcDbArc
 50
255.0
 51
195.0
1001
ACAD
1000
RTLwPs
1070
   128
  0
CIRCLE
  5
7372
100
AcDbEntity
  8
MSL-90-R25-R-0
 48
2.0
100
AcDbCircle
 10
-7.662085
 20
428.769103
 30
0.0
 40
2.5
1001
ACAD
1000
RTLwPs
1070
   128
  0
CIRCLE
  5
7373
100
AcDbEntity
  8
MSL-90-R25-R-0
 48
2.0
100
AcDbCircle
 10
42.337915
 20
428.769103
 30
0.0
 40
5.0
1001
ACAD
1000
RTLwPs
1070
   128
  0
LINE
  5
7374
100
AcDbEntity
  8
MSL-90-R25-R-7A
 48
2.0
100
AcDbLine
 10
17.337915
 20
424.269103
 30
0.0
 11
17.337915
 21
433.269103
 31
0.0
  0
LINE
  5
7375
100
AcDbEntity
  8
MSL-90-R25-R-7A
 48
2.0
100
AcDbLine
 10
42.337915
 20
422.269103
 30
0.0
 11
42.337915
 21
435.269103
 31
0.0
  0
ARC
  5
7376
100
AcDbEntity
  8
MSL-90-R25-R-5
 48
2.0
100
AcDbCircle
 10
17.337915
 20
428.769103
 30
0.0
 40
3.0
100
AcDbArc
 50
255.0
 51
195.0
1001
ACAD
1000
RTLwPs
1070
   128
  0
CIRCLE
  5
7377
100
AcDbEntity
  8
MSL-90-R25-R-0
 48
2.0
100
AcDbCircle
 10
17.337915
 20
428.769103
 30
0.0
 40
2.5
1001
ACAD
1000
RTLwPs
1070
   128
  0
ARC
  5
7378
100
AcDbEntity
  8
MSL-90-R25-R-5
 48
2.0
100
AcDbCircle
 10
42.337915
 20
428.769103
 30
0.0
 40
3.0
100
AcDbArc
 50
255.0
 51
195.0
1001
ACAD
1000
RTLwPs
1070
   128
  0
CIRCLE
  5
7379
100
AcDbEntity
  8
MSL-90-R25-R-0
 48
2.0
100
AcDbCircle
 10
42.337915
 20
428.769103
 30
0.0
 40
2.5
1001
ACAD
1000
RTLwPs
1070
   128
  0
LINE
  5
737A
100
AcDbEntity
  8
MSL-90-R25-R-7A
 48
2.0
100
AcDbLine
 10
67.337915
 20
424.269103
 30
0.0
 11
67.337915
 21
433.269103
 31
0.0
  0
LINE
  5
737B
100
AcDbEntity
  8
MSL-90-R25-R-0
 48
2.0
100
AcDbLine
 10
-57.052085
 20
448.769366
 30
0.0
 11
92.947915
 21
448.769366
 31
0.0
1001
ACAD
1000
RTLwPs
1070
   128
  0
MTEXT
  5
7C1A
100
AcDbEntity
  8
MSL-90-R25-R-6
100
AcDbMText
 10
-65.118297
 20
564.54493
 30
0.0
 40
6.0
 41
80.6183
 71
     1
 72
     5
  1
MSL 90-R25-R-100
  0
ENDSEC
  0
SECTION
  2
OBJECTS
  0
DICTIONARY
  5
C
100
AcDbDictionary
  3
ACAD_GROUP
350
D
  3
ACAD_MLINESTYLE
350
E
  3
ACDBVARIABLEDICTIONARY
350
E3E
  0
DICTIONARY
  5
D
102
{ACAD_REACTORS
330
C
102
}
100
AcDbDictionary
  0
DICTIONARY
  5
E
102
{ACAD_REACTORS
330
C
102
}
100
AcDbDictionary
  3
STANDARD
350
1B
  0
DICTIONARY
  5
E3E
102
{ACAD_REACTORS
330
C
102
}
100
AcDbDictionary
  3
SORTENTS
350
E3F
  0
MLINESTYLE
  5
1B
102
{ACAD_REACTORS
330
E
102
}
100
AcDbMlineStyle
  2
STANDARD
 70
     0
  3

 62
     0
 51
90.0
 52
90.0
 71
     2
 49
0.5
 62
   256
  6
BYLAYER
 49
-0.5
 62
   256
  6
BYLAYER
  0
DICTIONARYVAR
  5
E3F
102
{ACAD_REACTORS
330
E3E
102
}
100
DictionaryVariables
280
     0
  1
96
  0
ENDSEC
  0
EOF
