ISO-10303-21;
HEADER;
/****************************************************************
 * Generated by software with PDElib inside                    *
 * PDElib Version v51a, created Wed 07/06/2011                  *
 * ITI Transcendata (http://www.transcendata.com/)              *
 ****************************************************************/
FILE_DESCRIPTION((''),'2;1');
FILE_NAME('M:\\Module\\Internet-Daten\\MSL-F + MSF\\STEP\\MSF-16.stp','2012-10-05T14:07:14',('hartung_david'),(''),'Autodesk Inventor 2012','Autodesk Inventor 2012','');
FILE_SCHEMA(('AUTOMOTIVE_DESIGN { 1 0 10303 214 1 1 1 1 }'));
ENDSEC;
DATA;
#5=APPLICATION_CONTEXT('automotive design');
#6=APPLICATION_PROTOCOL_DEFINITION('International Standard','automotive_design',2001,#5);
#7=PRODUCT_CONTEXT('',#5,'mechanical');
#8=PRODUCT('MSF-16','MSF-16',$,(#7));
#9=PRODUCT_RELATED_PRODUCT_CATEGORY('part',$,(#8));
#10=PRODUCT_DEFINITION_FORMATION('',$,#8);
#11=PRODUCT_DEFINITION_CONTEXT('part definition',#5,'design');
#12=PRODUCT_DEFINITION('',$,#10,#11);
#18=(NAMED_UNIT(*)PLANE_ANGLE_UNIT()SI_UNIT($,.RADIAN.));
#19=DIMENSIONAL_EXPONENTS(0.0,0.0,0.0,0.0,0.0,0.0,0.0);
#20=PLANE_ANGLE_MEASURE_WITH_UNIT(PLANE_ANGLE_MEASURE(0.0174532925),#18);
#24=(CONVERSION_BASED_UNIT('DEGREE',#20)NAMED_UNIT(#19)PLANE_ANGLE_UNIT());
#28=(NAMED_UNIT(*)SI_UNIT($,.STERADIAN.)SOLID_ANGLE_UNIT());
#32=(LENGTH_UNIT()NAMED_UNIT(*)SI_UNIT(.MILLI.,.METRE.));
#34=UNCERTAINTY_MEASURE_WITH_UNIT(LENGTH_MEASURE(0.01),#32,'DISTANCE_ACCURACY_VALUE','');
#36=(GEOMETRIC_REPRESENTATION_CONTEXT(3)GLOBAL_UNCERTAINTY_ASSIGNED_CONTEXT((#34))GLOBAL_UNIT_ASSIGNED_CONTEXT((#24,#28,#32))REPRESENTATION_CONTEXT('None','None'));
#37=AXIS2_PLACEMENT_3D('',#38,#39,#40);
#38=CARTESIAN_POINT('',(0.0,0.0,0.0));
#39=DIRECTION('',(0.0,0.0,1.0));
#40=DIRECTION('',(1.0,0.0,0.0));
#41=SHAPE_REPRESENTATION('',(#37),#36);
#42=PRODUCT_DEFINITION_SHAPE('','',#12);
#43=SHAPE_DEFINITION_REPRESENTATION(#42,#41);
#49=(NAMED_UNIT(*)PLANE_ANGLE_UNIT()SI_UNIT($,.RADIAN.));
#50=DIMENSIONAL_EXPONENTS(0.0,0.0,0.0,0.0,0.0,0.0,0.0);
#51=PLANE_ANGLE_MEASURE_WITH_UNIT(PLANE_ANGLE_MEASURE(0.0174532925),#49);
#55=(CONVERSION_BASED_UNIT('DEGREE',#51)NAMED_UNIT(#50)PLANE_ANGLE_UNIT());
#59=(NAMED_UNIT(*)SI_UNIT($,.STERADIAN.)SOLID_ANGLE_UNIT());
#63=(LENGTH_UNIT()NAMED_UNIT(*)SI_UNIT(.MILLI.,.METRE.));
#65=UNCERTAINTY_MEASURE_WITH_UNIT(LENGTH_MEASURE(0.000001),#63,'DISTANCE_ACCURACY_VALUE','');
#67=(GEOMETRIC_REPRESENTATION_CONTEXT(3)GLOBAL_UNCERTAINTY_ASSIGNED_CONTEXT((#65))GLOBAL_UNIT_ASSIGNED_CONTEXT((#55,#59,#63))REPRESENTATION_CONTEXT('','3D'));
#68=CARTESIAN_POINT('',(0.0,0.0,22.0));
#69=DIRECTION('',(0.0,1.0,0.0));
#70=DIRECTION('',(1.0,0.0,0.0));
#71=AXIS2_PLACEMENT_3D('',#68,#69,#70);
#72=CYLINDRICAL_SURFACE('',#71,8.0);
#73=CARTESIAN_POINT('',(8.0,8.944271909999166,22.0));
#74=VERTEX_POINT('',#73);
#75=CARTESIAN_POINT('',(8.0,8.944271909999166,21.999999999999996));
#76=CARTESIAN_POINT('',(8.0,8.944271909999166,23.052072938576792));
#77=CARTESIAN_POINT('',(7.782755104642995,9.148822756832697,24.133271840827618));
#78=CARTESIAN_POINT('',(6.959325513411351,9.789790155725742,26.0853340359862));
#79=CARTESIAN_POINT('',(6.352735088636161,10.211041289673116,26.960973410348601));
#80=CARTESIAN_POINT('',(4.968629062887756,10.950877080433091,28.345079436097006));
#81=CARTESIAN_POINT('',(4.091320577467882,11.326691820946067,28.956729315108269));
#82=CARTESIAN_POINT('',(2.128169894605352,11.85342764095042,29.784978125612263));
#83=CARTESIAN_POINT('',(1.040498679866771,12.000000000000007,30.0));
#84=CARTESIAN_POINT('',(-1.040498679866774,12.000000000000007,30.0));
#85=CARTESIAN_POINT('',(-2.128169894605354,11.85342764095042,29.784978125612263));
#86=CARTESIAN_POINT('',(-4.091320577467885,11.326691820946067,28.956729315108269));
#87=CARTESIAN_POINT('',(-4.968629062887759,10.950877080433091,28.345079436097002));
#88=CARTESIAN_POINT('',(-6.352735088636163,10.211041289673117,26.960973410348601));
#89=CARTESIAN_POINT('',(-6.959325513411351,9.789790155725736,26.085334035986193));
#90=CARTESIAN_POINT('',(-7.782755104642995,9.148822756832695,24.133271840827618));
#91=CARTESIAN_POINT('',(-8.0,8.944271909999166,23.052072938576799));
#92=CARTESIAN_POINT('',(-8.0,8.944271909999166,20.947927061423208));
#93=CARTESIAN_POINT('',(-7.782755104642995,9.148822756832697,19.866728159172382));
#94=CARTESIAN_POINT('',(-6.95932551341135,9.789790155725742,17.9146659640138));
#95=CARTESIAN_POINT('',(-6.352735088636163,10.211041289673116,17.039026589651399));
#96=CARTESIAN_POINT('',(-4.968629062887758,10.950877080433091,15.654920563902998));
#97=CARTESIAN_POINT('',(-4.091320577467884,11.326691820946067,15.043270684891732));
#98=CARTESIAN_POINT('',(-2.128169894605353,11.85342764095042,14.215021874387741));
#99=CARTESIAN_POINT('',(-1.040498679866771,12.000000000000007,14.000000000000004));
#100=CARTESIAN_POINT('',(1.040498679866771,12.000000000000007,14.000000000000004));
#101=CARTESIAN_POINT('',(2.128169894605351,11.85342764095042,14.215021874387741));
#102=CARTESIAN_POINT('',(4.091320577467883,11.326691820946067,15.043270684891732));
#103=CARTESIAN_POINT('',(4.968629062887758,10.950877080433091,15.654920563902998));
#104=CARTESIAN_POINT('',(6.352735088636163,10.211041289673117,17.039026589651407));
#105=CARTESIAN_POINT('',(6.95932551341135,9.789790155725738,17.9146659640138));
#106=CARTESIAN_POINT('',(7.782755104642993,9.148822756832697,19.866728159172382));
#107=CARTESIAN_POINT('',(7.999999999999999,8.944271909999166,20.947927061423201));
#108=CARTESIAN_POINT('',(7.999999999999999,8.944271909999166,21.999999999999996));
#109=B_SPLINE_CURVE_WITH_KNOTS('',3,(#75,#76,#77,#78,#79,#80,#81,#82,#83,#84,#85,#86,#87,#88,#89,#90,#91,#92,#93,#94,#95,#96,#97,#98,#99,#100,#101,#102,#103,#104,#105,#106,#107,#108),.UNSPECIFIED.,.T.,.U.,(4,2,2,2,2,2,2,2,2,2,2,2,2,2,2,2,4),(0.0,0.315621881573038,0.631243763146076,0.943393367106108,1.25554297106614,1.567692575026171,1.879842178986203,2.195464060559241,2.511085942132278,2.826707823705317,3.142329705278355,3.454479309238387,3.766628913198418,4.078778517158449,4.390928121118481,4.706550002691519,5.022171884264557),.UNSPECIFIED.);
#110=EDGE_CURVE('',#74,#74,#109,.T.);
#111=ORIENTED_EDGE('',*,*,#110,.F.);
#112=EDGE_LOOP('',(#111));
#113=FACE_OUTER_BOUND('',#112,.T.);
#114=CARTESIAN_POINT('',(8.0,-8.944271909999166,22.0));
#115=VERTEX_POINT('',#114);
#116=CARTESIAN_POINT('',(8.0,-8.944271909999166,22.0));
#117=CARTESIAN_POINT('',(8.0,-8.944271909999166,20.947927061423208));
#118=CARTESIAN_POINT('',(7.782755104642993,-9.148822756832697,19.866728159172382));
#119=CARTESIAN_POINT('',(6.95932551341135,-9.789790155725738,17.9146659640138));
#120=CARTESIAN_POINT('',(6.352735088636163,-10.211041289673117,17.039026589651407));
#121=CARTESIAN_POINT('',(4.968629062887759,-10.950877080433091,15.654920563903001));
#122=CARTESIAN_POINT('',(4.091320577467885,-11.326691820946067,15.043270684891734));
#123=CARTESIAN_POINT('',(2.128169894605354,-11.85342764095042,14.215021874387743));
#124=CARTESIAN_POINT('',(1.040498679866773,-12.000000000000007,14.000000000000004));
#125=CARTESIAN_POINT('',(-1.040498679866771,-12.000000000000007,14.000000000000004));
#126=CARTESIAN_POINT('',(-2.128169894605354,-11.85342764095042,14.215021874387741));
#127=CARTESIAN_POINT('',(-4.091320577467884,-11.326691820946067,15.043270684891732));
#128=CARTESIAN_POINT('',(-4.968629062887758,-10.950877080433091,15.654920563902998));
#129=CARTESIAN_POINT('',(-6.352735088636163,-10.211041289673117,17.039026589651399));
#130=CARTESIAN_POINT('',(-6.959325513411347,-9.789790155725742,17.9146659640138));
#131=CARTESIAN_POINT('',(-7.782755104642992,-9.148822756832697,19.866728159172386));
#132=CARTESIAN_POINT('',(-8.0,-8.944271909999166,20.947927061423208));
#133=CARTESIAN_POINT('',(-8.0,-8.944271909999166,23.052072938576799));
#134=CARTESIAN_POINT('',(-7.782755104642995,-9.148822756832695,24.133271840827618));
#135=CARTESIAN_POINT('',(-6.959325513411351,-9.789790155725736,26.085334035986193));
#136=CARTESIAN_POINT('',(-6.352735088636163,-10.211041289673117,26.960973410348601));
#137=CARTESIAN_POINT('',(-4.968629062887759,-10.950877080433091,28.345079436097002));
#138=CARTESIAN_POINT('',(-4.091320577467885,-11.326691820946067,28.956729315108269));
#139=CARTESIAN_POINT('',(-2.128169894605354,-11.85342764095042,29.784978125612263));
#140=CARTESIAN_POINT('',(-1.040498679866774,-12.000000000000007,30.0));
#141=CARTESIAN_POINT('',(1.040498679866772,-12.000000000000007,30.0));
#142=CARTESIAN_POINT('',(2.12816989460536,-11.853427640950416,29.784978125612263));
#143=CARTESIAN_POINT('',(4.09132057746789,-11.326691820946062,28.956729315108269));
#144=CARTESIAN_POINT('',(4.968629062887758,-10.950877080433091,28.345079436097002));
#145=CARTESIAN_POINT('',(6.352735088636161,-10.211041289673116,26.960973410348601));
#146=CARTESIAN_POINT('',(6.959325513411349,-9.78979015572574,26.0853340359862));
#147=CARTESIAN_POINT('',(7.782755104642992,-9.148822756832697,24.133271840827621));
#148=CARTESIAN_POINT('',(8.0,-8.944271909999166,23.052072938576799));
#149=CARTESIAN_POINT('',(8.0,-8.944271909999166,22.0));
#150=B_SPLINE_CURVE_WITH_KNOTS('',3,(#116,#117,#118,#119,#120,#121,#122,#123,#124,#125,#126,#127,#128,#129,#130,#131,#132,#133,#134,#135,#136,#137,#138,#139,#140,#141,#142,#143,#144,#145,#146,#147,#148,#149),.UNSPECIFIED.,.T.,.U.,(4,2,2,2,2,2,2,2,2,2,2,2,2,2,2,2,4),(0.0,0.315621881573038,0.631243763146076,0.943393367106108,1.255542971066139,1.567692575026171,1.879842178986202,2.19546406055924,2.511085942132278,2.826707823705316,3.142329705278354,3.454479309238386,3.766628913198417,4.078778517158449,4.39092812111848,4.706550002691518,5.022171884264557),.UNSPECIFIED.);
#151=EDGE_CURVE('',#115,#115,#150,.T.);
#152=ORIENTED_EDGE('',*,*,#151,.F.);
#153=EDGE_LOOP('',(#152));
#154=FACE_BOUND('',#153,.T.);
#155=ADVANCED_FACE('',(#113,#154),#72,.F.);
#156=CARTESIAN_POINT('',(0.0,0.0,65.713256984352483));
#157=DIRECTION('',(0.0,0.0,1.0));
#158=DIRECTION('',(1.0,0.0,0.0));
#159=AXIS2_PLACEMENT_3D('',#156,#157,#158);
#160=CONICAL_SURFACE('',#159,2.1415,59.000000000000007);
#161=CARTESIAN_POINT('',(4.283,0.0,67.000000000000014));
#162=VERTEX_POINT('',#161);
#163=CARTESIAN_POINT('',(0.0,0.0,67.000000000000014));
#164=DIRECTION('',(0.0,0.0,1.0));
#165=DIRECTION('',(1.0,0.0,0.0));
#166=AXIS2_PLACEMENT_3D('',#163,#164,#165);
#167=CIRCLE('',#166,4.283);
#168=EDGE_CURVE('',#162,#162,#167,.T.);
#169=ORIENTED_EDGE('',*,*,#168,.T.);
#170=EDGE_LOOP('',(#169));
#171=FACE_OUTER_BOUND('',#170,.T.);
#172=ADVANCED_FACE('',(#171),#160,.F.);
#173=CARTESIAN_POINT('',(0.0,0.0,75.000000000000014));
#174=DIRECTION('',(0.0,0.0,1.0));
#175=DIRECTION('',(1.0,0.0,0.0));
#176=AXIS2_PLACEMENT_3D('',#173,#174,#175);
#177=CYLINDRICAL_SURFACE('',#176,4.283);
#178=CARTESIAN_POINT('',(4.283,0.0,83.0));
#179=VERTEX_POINT('',#178);
#180=CARTESIAN_POINT('',(0.0,0.0,83.0));
#181=DIRECTION('',(0.0,0.0,-1.0));
#182=DIRECTION('',(1.0,0.0,0.0));
#183=AXIS2_PLACEMENT_3D('',#180,#181,#182);
#184=CIRCLE('',#183,4.283);
#185=EDGE_CURVE('',#179,#179,#184,.T.);
#186=ORIENTED_EDGE('',*,*,#185,.F.);
#187=EDGE_LOOP('',(#186));
#188=FACE_OUTER_BOUND('',#187,.T.);
#189=ORIENTED_EDGE('',*,*,#168,.F.);
#190=EDGE_LOOP('',(#189));
#191=FACE_BOUND('',#190,.T.);
#192=ADVANCED_FACE('',(#188,#191),#177,.F.);
#193=CARTESIAN_POINT('',(6.000000000000005,0.0,83.0));
#194=DIRECTION('',(0.0,0.0,1.0));
#195=DIRECTION('',(1.0,0.0,0.0));
#196=AXIS2_PLACEMENT_3D('',#193,#194,#195);
#197=PLANE('',#196);
#198=CARTESIAN_POINT('',(12.000000000000011,0.0,83.0));
#199=VERTEX_POINT('',#198);
#200=CARTESIAN_POINT('',(0.0,0.0,83.0));
#201=DIRECTION('',(0.0,0.0,-1.0));
#202=DIRECTION('',(1.0,0.0,0.0));
#203=AXIS2_PLACEMENT_3D('',#200,#201,#202);
#204=CIRCLE('',#203,12.000000000000011);
#205=EDGE_CURVE('',#199,#199,#204,.T.);
#206=ORIENTED_EDGE('',*,*,#205,.F.);
#207=EDGE_LOOP('',(#206));
#208=FACE_OUTER_BOUND('',#207,.T.);
#209=ORIENTED_EDGE('',*,*,#185,.T.);
#210=EDGE_LOOP('',(#209));
#211=FACE_BOUND('',#210,.T.);
#212=ADVANCED_FACE('',(#208,#211),#197,.T.);
#213=CARTESIAN_POINT('',(0.0,0.0,41.5));
#214=DIRECTION('',(0.0,0.0,-1.0));
#215=DIRECTION('',(1.0,0.0,0.0));
#216=AXIS2_PLACEMENT_3D('',#213,#214,#215);
#217=CYLINDRICAL_SURFACE('',#216,12.000000000000007);
#218=CARTESIAN_POINT('',(12.0,0.0,-2.220446E-015));
#219=VERTEX_POINT('',#218);
#220=CARTESIAN_POINT('',(0.0,0.0,0.0));
#221=DIRECTION('',(0.0,0.0,-1.0));
#222=DIRECTION('',(1.0,0.0,0.0));
#223=AXIS2_PLACEMENT_3D('',#220,#221,#222);
#224=CIRCLE('',#223,12.0);
#225=EDGE_CURVE('',#219,#219,#224,.T.);
#226=ORIENTED_EDGE('',*,*,#225,.F.);
#227=EDGE_LOOP('',(#226));
#228=FACE_OUTER_BOUND('',#227,.T.);
#229=ORIENTED_EDGE('',*,*,#110,.T.);
#230=EDGE_LOOP('',(#229));
#231=FACE_BOUND('',#230,.T.);
#232=ORIENTED_EDGE('',*,*,#151,.T.);
#233=EDGE_LOOP('',(#232));
#234=FACE_BOUND('',#233,.T.);
#235=ORIENTED_EDGE('',*,*,#205,.T.);
#236=EDGE_LOOP('',(#235));
#237=FACE_BOUND('',#236,.T.);
#238=ADVANCED_FACE('',(#228,#231,#234,#237),#217,.T.);
#239=CARTESIAN_POINT('',(6.000000000000001,0.0,-1.387779E-015));
#240=DIRECTION('',(0.0,0.0,-1.0));
#241=DIRECTION('',(-1.0,0.0,0.0));
#242=AXIS2_PLACEMENT_3D('',#239,#240,#241);
#243=PLANE('',#242);
#244=ORIENTED_EDGE('',*,*,#225,.T.);
#245=EDGE_LOOP('',(#244));
#246=FACE_OUTER_BOUND('',#245,.T.);
#247=ADVANCED_FACE('',(#246),#243,.T.);
#248=CLOSED_SHELL('',(#155,#172,#192,#212,#238,#247));
#249=MANIFOLD_SOLID_BREP('Volumenk\S\vrper1',#248);
#250=COLOUR_RGB('',0.800000011920929,0.800000011920929,0.800000011920929);
#251=FILL_AREA_STYLE_COLOUR('',#250);
#252=FILL_AREA_STYLE('',(#251));
#253=SURFACE_STYLE_FILL_AREA(#252);
#254=SURFACE_SIDE_STYLE('',(#253));
#255=SURFACE_STYLE_USAGE(.BOTH.,#254);
#256=PRESENTATION_STYLE_ASSIGNMENT((#255));
#257=STYLED_ITEM('',(#256),#212);
#258=STYLED_ITEM('',(#256),#238);
#259=COLOUR_RGB('',0.831372976303101,0.0,0.0);
#260=FILL_AREA_STYLE_COLOUR('',#259);
#261=FILL_AREA_STYLE('',(#260));
#262=SURFACE_STYLE_FILL_AREA(#261);
#263=SURFACE_SIDE_STYLE('',(#262));
#264=SURFACE_STYLE_USAGE(.BOTH.,#263);
#265=PRESENTATION_STYLE_ASSIGNMENT((#264));
#266=STYLED_ITEM('',(#265),#247);
#267=MECHANICAL_DESIGN_GEOMETRIC_PRESENTATION_REPRESENTATION('',(#257,#258,#266,#275),#67);
#268=COLOUR_RGB('RGB(237,119,81)',0.800000011920929,0.800000011920929,0.800000011920929);
#269=FILL_AREA_STYLE_COLOUR('RGB(237,119,81)',#268);
#270=FILL_AREA_STYLE('RGB(237,119,81)',(#269));
#271=SURFACE_STYLE_FILL_AREA(#270);
#272=SURFACE_SIDE_STYLE('RGB(237,119,81)',(#271));
#273=SURFACE_STYLE_USAGE(.BOTH.,#272);
#274=PRESENTATION_STYLE_ASSIGNMENT((#273));
#275=STYLED_ITEM('',(#274),#249);
#276=ADVANCED_BREP_SHAPE_REPRESENTATION('ABSR',(#249),#36);
#277=SHAPE_REPRESENTATION_RELATIONSHIP('SRR','None',#276,#41);
ENDSEC;
END-ISO-10303-21;
