  0
SECTION
  2
HEADER
  9
$ACADVER
  1
AC1012
  9
$DWGCODEPAGE
  3
ansi_1252
  9
$INSBASE
 10
0.0
 20
0.0
 30
0.0
  9
$EXTMIN
 10
-720.858078
 20
-97.778855
 30
0.0
  9
$EXTMAX
 10
-359.651647
 20
177.916535
 30
0.0
  9
$LIMMIN
 10
0.0
 20
0.0
  9
$LIMMAX
 10
398.0
 20
282.0
  9
$ORTHOMODE
 70
     1
  9
$REGENMODE
 70
     1
  9
$FILLMODE
 70
     1
  9
$QTEXTMODE
 70
     0
  9
$MIRRTEXT
 70
     1
  9
$DRAGMODE
 70
     2
  9
$LTSCALE
 40
1.0
  9
$OSMODE
 70
    33
  9
$ATTMODE
 70
     1
  9
$TEXTSIZE
 40
3.5
  9
$TRACEWID
 40
1.0
  9
$TEXTSTYLE
  7
STANDARD
  9
$CLAYER
  8
MSL1_60_3F-0
  9
$CELTYPE
  6
BYLAYER
  9
$CECOLOR
 62
   256
  9
$CELTSCALE
 40
1.0
  9
$DELOBJ
 70
     1
  9
$DISPSILH
 70
     0
  9
$DIMSCALE
 40
1.0
  9
$DIMASZ
 40
2.5
  9
$DIMEXO
 40
1.0
  9
$DIMDLI
 40
8.0
  9
$DIMRND
 40
0.0
  9
$DIMDLE
 40
0.0
  9
$DIMEXE
 40
1.0
  9
$DIMTP
 40
0.1
  9
$DIMTM
 40
0.1
  9
$DIMTXT
 40
3.5
  9
$DIMCEN
 40
0.0
  9
$DIMTSZ
 40
0.0
  9
$DIMTOL
 70
     0
  9
$DIMLIM
 70
     0
  9
$DIMTIH
 70
     0
  9
$DIMTOH
 70
     0
  9
$DIMSE1
 70
     0
  9
$DIMSE2
 70
     0
  9
$DIMTAD
 70
     1
  9
$DIMZIN
 70
     8
  9
$DIMBLK
  1

  9
$DIMASO
 70
     1
  9
$DIMSHO
 70
     1
  9
$DIMPOST
  1
<>
  9
$DIMAPOST
  1

  9
$DIMALT
 70
     0
  9
$DIMALTD
 70
     2
  9
$DIMALTF
 40
0.03937
  9
$DIMLFAC
 40
1.0
  9
$DIMTOFL
 70
     1
  9
$DIMTVP
 40
0.0
  9
$DIMTIX
 70
     0
  9
$DIMSOXD
 70
     0
  9
$DIMSAH
 70
     0
  9
$DIMBLK1
  1

  9
$DIMBLK2
  1

  9
$DIMSTYLE
  2
GEN-ISO
  9
$DIMCLRD
 70
   256
  9
$DIMCLRE
 70
   256
  9
$DIMCLRT
 70
     2
  9
$DIMTFAC
 40
0.71
  9
$DIMGAP
 40
0.6
  9
$DIMJUST
 70
     0
  9
$DIMSD1
 70
     0
  9
$DIMSD2
 70
     0
  9
$DIMTOLJ
 70
     0
  9
$DIMTZIN
 70
     0
  9
$DIMALTZ
 70
     0
  9
$DIMALTTZ
 70
     0
  9
$DIMFIT
 70
     3
  9
$DIMUPT
 70
     0
  9
$DIMUNIT
 70
     2
  9
$DIMDEC
 70
     2
  9
$DIMTDEC
 70
     3
  9
$DIMALTU
 70
     2
  9
$DIMALTTD
 70
     4
  9
$DIMTXSTY
  7
STANDARD
  9
$DIMAUNIT
 70
     0
  9
$LUNITS
 70
     2
  9
$LUPREC
 70
     2
  9
$SKETCHINC
 40
1.0
  9
$FILLETRAD
 40
2.5
  9
$AUNITS
 70
     0
  9
$AUPREC
 70
     0
  9
$MENU
  1
C:\GEN13\genius
  9
$ELEVATION
 40
0.0
  9
$PELEVATION
 40
0.0
  9
$THICKNESS
 40
0.0
  9
$LIMCHECK
 70
     0
  9
$BLIPMODE
 70
     0
  9
$CHAMFERA
 40
2.5
  9
$CHAMFERB
 40
2.5
  9
$CHAMFERC
 40
0.0
  9
$CHAMFERD
 40
0.0
  9
$SKPOLY
 70
     0
  9
$TDCREATE
 40
2450885.904177766
  9
$TDUPDATE
 40
2450920.640982233
  9
$TDINDWG
 40
0.3769020139
  9
$TDUSRTIMER
 40
0.3769020139
  9
$USRTIMER
 70
     1
  9
$ANGBASE
 50
0.0
  9
$ANGDIR
 70
     0
  9
$PDMODE
 70
     0
  9
$PDSIZE
 40
0.0
  9
$PLINEWID
 40
0.0
  9
$COORDS
 70
     1
  9
$SPLFRAME
 70
     0
  9
$SPLINETYPE
 70
     6
  9
$SPLINESEGS
 70
     8
  9
$ATTDIA
 70
     1
  9
$ATTREQ
 70
     1
  9
$HANDLING
 70
     1
  9
$HANDSEED
  5
77E1
  9
$SURFTAB1
 70
     6
  9
$SURFTAB2
 70
     6
  9
$SURFTYPE
 70
     6
  9
$SURFU
 70
     6
  9
$SURFV
 70
     6
  9
$UCSNAME
  2

  9
$UCSORG
 10
0.0
 20
0.0
 30
0.0
  9
$UCSXDIR
 10
1.0
 20
0.0
 30
0.0
  9
$UCSYDIR
 10
0.0
 20
1.0
 30
0.0
  9
$PUCSNAME
  2

  9
$PUCSORG
 10
0.0
 20
0.0
 30
0.0
  9
$PUCSXDIR
 10
1.0
 20
0.0
 30
0.0
  9
$PUCSYDIR
 10
0.0
 20
1.0
 30
0.0
  9
$USERI1
 70
     0
  9
$USERI2
 70
     0
  9
$USERI3
 70
     0
  9
$USERI4
 70
     0
  9
$USERI5
 70
     0
  9
$USERR1
 40
0.0
  9
$USERR2
 40
0.0
  9
$USERR3
 40
0.0
  9
$USERR4
 40
0.0
  9
$USERR5
 40
0.0
  9
$WORLDVIEW
 70
     1
  9
$SHADEDGE
 70
     3
  9
$SHADEDIF
 70
    70
  9
$TILEMODE
 70
     1
  9
$MAXACTVP
 70
    16
  9
$PINSBASE
 10
0.0
 20
0.0
 30
0.0
  9
$PLIMCHECK
 70
     0
  9
$PEXTMIN
 10
1.000000E+20
 20
1.000000E+20
 30
1.000000E+20
  9
$PEXTMAX
 10
-1.000000E+20
 20
-1.000000E+20
 30
-1.000000E+20
  9
$PLIMMIN
 10
0.0
 20
0.0
  9
$PLIMMAX
 10
420.0
 20
297.0
  9
$UNITMODE
 70
     0
  9
$VISRETAIN
 70
     0
  9
$PLINEGEN
 70
     0
  9
$PSLTSCALE
 70
     1
  9
$TREEDEPTH
 70
  3020
  9
$PICKSTYLE
 70
     1
  9
$CMLSTYLE
  2
STANDARD
  9
$CMLJUST
 70
     0
  9
$CMLSCALE
 40
1.0
  9
$SAVEIMAGES
 70
     0
  0
ENDSEC
  0
SECTION
  2
CLASSES
  0
ENDSEC
  0
SECTION
  2
TABLES
  0
TABLE
  2
VPORT
  5
8
100
AcDbSymbolTable
 70
     2
  0
VPORT
  5
77E0
100
AcDbSymbolTableRecord
100
AcDbViewportTableRecord
  2
*ACTIVE
 70
     0
 10
0.0
 20
0.0
 11
1.0
 21
1.0
 12
-495.228972
 22
40.06884
 13
0.0
 23
0.0
 14
1.0
 24
1.0
 15
10.0
 25
10.0
 16
0.0
 26
0.0
 36
1.0
 17
0.0
 27
0.0
 37
0.0
 40
275.695389
 41
1.6368
 42
50.0
 43
0.0
 44
0.0
 50
0.0
 51
0.0
 71
     0
 72
 10000
 73
     1
 74
     0
 75
     0
 76
     0
 77
     0
 78
     0
  0
ENDTAB
  0
TABLE
  2
LTYPE
  5
5
100
AcDbSymbolTable
 70
     3
  0
LTYPE
  5
14
100
AcDbSymbolTableRecord
100
AcDbLinetypeTableRecord
  2
BYBLOCK
 70
     0
  3

 72
    65
 73
     0
 40
0.0
  0
LTYPE
  5
15
100
AcDbSymbolTableRecord
100
AcDbLinetypeTableRecord
  2
BYLAYER
 70
     0
  3

 72
    65
 73
     0
 40
0.0
  0
LTYPE
  5
16
100
AcDbSymbolTableRecord
100
AcDbLinetypeTableRecord
  2
CONTINUOUS
 70
    64
  3
Solid line
 72
    65
 73
     0
 40
0.0
  0
LTYPE
  5
465
100
AcDbSymbolTableRecord
100
AcDbLinetypeTableRecord
  2
GEN3
 70
    64
  3
-- -- -- -- -- -- -- -- -- -- -- -- -- -- --
 72
    65
 73
     2
 40
6.25
 49
5.0
 74
     0
 49
-1.25
 74
     0
  0
LTYPE
  5
1846
100
AcDbSymbolTableRecord
100
AcDbLinetypeTableRecord
  2
GEN7A
 70
    64
  3
__ . __ . __
 72
    65
 73
     4
 40
6.875
 49
5.0
 74
     0
 49
-0.625
 74
     0
 49
0.625
 74
     0
 49
-0.625
 74
     0
  0
ENDTAB
  0
TABLE
  2
LAYER
  5
2
100
AcDbSymbolTable
 70
     9
  0
LAYER
  5
F
100
AcDbSymbolTableRecord
100
AcDbLayerTableRecord
  2
0
 70
    64
 62
     7
  6
CONTINUOUS
  0
LAYER
  5
60B2
100
AcDbSymbolTableRecord
100
AcDbLayerTableRecord
  2
MSL1_60_3F-3
 70
    64
 62
     6
  6
GEN3
  0
LAYER
  5
60B3
100
AcDbSymbolTableRecord
100
AcDbLayerTableRecord
  2
MSL1_60_3F-7
 70
    64
 62
     4
  6
GEN7A
  0
LAYER
  5
60B4
100
AcDbSymbolTableRecord
100
AcDbLayerTableRecord
  2
MSL1_60_3F-0
 70
    64
 62
     7
  6
CONTINUOUS
  0
LAYER
  5
60B5
100
AcDbSymbolTableRecord
100
AcDbLayerTableRecord
  2
MSL1_60_3F-4
 70
    64
 62
     3
  6
CONTINUOUS
  0
LAYER
  5
60B6
100
AcDbSymbolTableRecord
100
AcDbLayerTableRecord
  2
MSL1_60_3F-6
 70
    64
 62
     2
  6
CONTINUOUS
  0
LAYER
  5
60B7
100
AcDbSymbolTableRecord
100
AcDbLayerTableRecord
  2
INFO
 70
    64
 62
     4
  6
CONTINUOUS
  0
LAYER
  5
60B8
100
AcDbSymbolTableRecord
100
AcDbLayerTableRecord
  2
MSL1_60_3F-0N
 70
    64
 62
     7
  6
CONTINUOUS
  0
LAYER
  5
7468
100
AcDbSymbolTableRecord
100
AcDbLayerTableRecord
  2
MSL1_60_3F-7A
 70
    64
 62
     4
  6
GEN7A
  0
ENDTAB
  0
TABLE
  2
STYLE
  5
3
100
AcDbSymbolTable
 70
     1
  0
STYLE
  5
10
100
AcDbSymbolTableRecord
100
AcDbTextStyleTableRecord
  2
STANDARD
 70
    64
 40
0.0
 41
1.0
 50
0.0
 71
     0
 42
3.5
  3
geniso.shx
  4

  0
ENDTAB
  0
TABLE
  2
VIEW
  5
6
100
AcDbSymbolTable
 70
     6
  0
VIEW
  5
4521
100
AcDbSymbolTableRecord
100
AcDbViewTableRecord
  2
GEN1
 70
     0
 40
141.0
 10
115.322684
 20
211.5
 41
230.645367
 11
0.0
 21
0.0
 31
1.0
 12
0.0
 22
0.0
 32
0.0
 42
50.0
 43
0.0
 44
0.0
 50
0.0
 71
     0
  0
VIEW
  5
4522
100
AcDbSymbolTableRecord
100
AcDbViewTableRecord
  2
GEN2
 70
     0
 40
141.0
 10
282.677316
 20
211.5
 41
230.645367
 11
0.0
 21
0.0
 31
1.0
 12
0.0
 22
0.0
 32
0.0
 42
50.0
 43
0.0
 44
0.0
 50
0.0
 71
     0
  0
VIEW
  5
4523
100
AcDbSymbolTableRecord
100
AcDbViewTableRecord
  2
GEN3
 70
     0
 40
141.0
 10
115.322684
 20
70.5
 41
230.645367
 11
0.0
 21
0.0
 31
1.0
 12
0.0
 22
0.0
 32
0.0
 42
50.0
 43
0.0
 44
0.0
 50
0.0
 71
     0
  0
VIEW
  5
4524
100
AcDbSymbolTableRecord
100
AcDbViewTableRecord
  2
GEN4
 70
     0
 40
141.0
 10
282.677316
 20
70.5
 41
230.645367
 11
0.0
 21
0.0
 31
1.0
 12
0.0
 22
0.0
 32
0.0
 42
50.0
 43
0.0
 44
0.0
 50
0.0
 71
     0
  0
VIEW
  5
4525
100
AcDbSymbolTableRecord
100
AcDbViewTableRecord
  2
GEN5
 70
     0
 40
141.0
 10
199.0
 20
141.0
 41
230.645367
 11
0.0
 21
0.0
 31
1.0
 12
0.0
 22
0.0
 32
0.0
 42
50.0
 43
0.0
 44
0.0
 50
0.0
 71
     0
  0
VIEW
  5
4526
100
AcDbSymbolTableRecord
100
AcDbViewTableRecord
  2
GEN6
 70
     0
 40
281.99718
 10
199.0
 20
141.0
 41
461.286122
 11
0.0
 21
0.0
 31
1.0
 12
0.0
 22
0.0
 32
0.0
 42
50.0
 43
0.0
 44
0.0
 50
0.0
 71
     0
  0
ENDTAB
  0
TABLE
  2
UCS
  5
7
100
AcDbSymbolTable
 70
     0
  0
ENDTAB
  0
TABLE
  2
APPID
  5
9
100
AcDbSymbolTable
 70
    45
  0
APPID
  5
11
100
AcDbSymbolTableRecord
100
AcDbRegAppTableRecord
  2
ACAD
 70
     0
  0
APPID
  5
2F
100
AcDbSymbolTableRecord
100
AcDbRegAppTableRecord
  2
GENIUS_GENCFG_13
 70
     0
1001
GENIUS_GEVCFG0_13
1000
GEV
1001
GENIUS_GENCFG0_13
1000
GEN@INFO_POS@XLATE
1001
GENIUS_GENCFG1_13
1000
GEN@LAYER@DEFS
1001
GENIUS_GENCFG2_13
1000
GEN@LAYER@ENTSORT
1001
GENIUS_GENCFG3_13
1000
GEN@OSWIZ
1001
GENIUS_GENCFG4_13
1000
GEN
1001
GENIUS_GEFCFG0_13
1000
GEF
1001
GENIUS_GENCFG5_13
1000
GEN@CONSTRAINTS
  0
APPID
  5
30
100
AcDbSymbolTableRecord
100
AcDbRegAppTableRecord
  2
GENIUS_GEVCFG0_13
 70
     0
1001
GENIUS_GENCFG_13
1071
889735333
1000
30
1000
GEV
1070
     1
1000
GenCfgObject
1000
System
1070
     0
1002
{
1002
}
1000
VED
1070
     0
1002
{
1002
}
  0
APPID
  5
31
100
AcDbSymbolTableRecord
100
AcDbRegAppTableRecord
  2
GENIUS_GENCFG0_13
 70
     0
1001
GENIUS_GENCFG_13
1071
889735333
1000
31
1000
GEN@INFO_POS@XLATE
1070
     7
1000
GenCfgObject
1000
GenCfgShort
1000
GenCfgReal
1000
GenCfgBool
1000
GenCfgString
1000
GenCfgDim
1000
GenCfgAttrInf
1000
INFOPOINTS
1070
     0
1002
{
1000
GENINF13
1070
     0
1002
{
1000
2GENINF
1070
     4
1000
2
1002
{
1002
}
1000
3GENINF
1070
     4
1000
3
1002
{
1002
}
1000
4GENINF
1070
     4
1000
4
1002
{
1002
}
1000
5GENINF
1070
     4
1000
5
1002
{
1002
}
1000
6GENINF
1070
     4
1000
6
1002
{
1002
}
1000
7GENINF
1070
     4
1000
7
1002
{
1002
}
1000
8GENINF
1070
     4
1000
8
1002
{
1002
}
1000
9GENINF
1070
     4
1000
9
1002
{
1002
}
1000
10GENINF
1070
     4
1000
10
1002
{
1002
}
1000
11GENINF
1070
     4
1000
11
1002
{
1002
}
1000
12GENINF
1070
     4
1000
12
1002
{
1002
}
1000
13GENINF
1070
     4
1000
13
1002
{
1002
}
1000
14GENINF
1070
     4
1000
14
1002
{
1002
}
1000
15GENINF
1070
     4
1000
15
1002
{
1002
}
1000
16GENINF
1070
     4
1000
16
1002
{
1002
}
1000
17GENINF
1070
     4
1000
17
1002
{
1002
}
1000
18GENINF
1070
     4
1000
18
1002
{
1002
}
1000
19GENINF
1070
     4
1000
19
1002
{
1002
}
1000
20GENINF
1070
     4
1000
20
1002
{
1002
}
1000
21GENINF
1070
     4
1000
21
1002
{
1002
}
1000
22GENINF
1070
     4
1000
22
1002
{
1002
}
1000
23GENINF
1070
     4
1000
23
1002
{
1002
}
1000
24GENINF
1070
     4
1000
24
1002
{
1002
}
1000
0GENINF
1070
     4
1000
0
1002
{
1002
}
1002
}
1000
GENINFO
1070
     0
1002
{
1000
3GENINF
1070
     4
1000
3
1002
{
1002
}
1000
4GENINF
1070
     4
1000
4
1002
{
1002
}
1000
5GENINF
1070
     4
1000
5
1002
{
1002
}
1000
6GENINF
1070
     4
1000
6
1002
{
1002
}
1000
7GENINF
1070
     4
1000
7
1002
{
1002
}
1000
8GENINF
1070
     4
1000
8
1002
{
1002
}
1000
9GENINF
1070
     4
1000
9
1002
{
1002
}
1000
10GENINF
1070
     4
1000
10
1002
{
1002
}
1000
11GENINF
1070
     4
1000
11
1002
{
1002
}
1000
12GENINF
1070
     4
1000
12
1002
{
1002
}
1000
13GENINF
1070
     4
1000
13
1002
{
1002
}
1000
14GENINF
1070
     4
1000
14
1002
{
1002
}
1000
15GENINF
1070
     4
1000
15
1002
{
1002
}
1000
16GENINF
1070
     4
1000
16
1002
{
1002
}
1000
17GENINF
1070
     4
1000
17
1002
{
1002
}
1000
18GENINF
1070
     4
1000
18
1002
{
1002
}
1000
19GENINF
1070
     4
1000
19
1002
{
1002
}
1000
20GENINF
1070
     4
1000
20
1002
{
1002
}
1000
21GENINF
1070
     4
1000
21
1002
{
1002
}
1000
22GENINF
1070
     4
1000
22
1002
{
1002
}
1002
}
1000
DININFO
1070
     0
1002
{
1000
ST-NAME1
1070
     4
1000
5
1002
{
1002
}
1000
ST-NAME2
1070
     4
1000
6
1002
{
1002
}
1000
ST-NORM1
1070
     4
1000
7
1002
{
1002
}
1000
ST-NORM2
1070
     4
1000
8
1002
{
1002
}
1000
ST-MAT1
1070
     4
1000
9
1002
{
1002
}
1000
ST-MAT2
1070
     4
1000
10
1002
{
1002
}
1002
}
1002
}
1000
POS_NUMBERS
1070
     0
1002
{
1000
GENPOS13
1070
     0
1002
{
1000
1GENPOS
1070
     4
1000
1
1002
{
1002
}
1000
2GENPOS
1070
     4
1000
2
1002
{
1002
}
1000
3GENPOS
1070
     4
1000
3
1002
{
1002
}
1000
4GENPOS
1070
     4
1000
4
1002
{
1002
}
1000
5GENPOS
1070
     4
1000
5
1002
{
1002
}
1000
6GENPOS
1070
     4
1000
6
1002
{
1002
}
1000
7GENPOS
1070
     4
1000
7
1002
{
1002
}
1000
8GENPOS
1070
     4
1000
8
1002
{
1002
}
1000
9GENPOS
1070
     4
1000
9
1002
{
1002
}
1000
10GENPOS
1070
     4
1000
10
1002
{
1002
}
1000
11GENPOS
1070
     4
1000
11
1002
{
1002
}
1000
12GENPOS
1070
     4
1000
12
1002
{
1002
}
1000
13GENPOS
1070
     4
1000
13
1002
{
1002
}
1000
14GENPOS
1070
     4
1000
14
1002
{
1002
}
1000
15GENPOS
1070
     4
1000
15
1002
{
1002
}
1000
16GENPOS
1070
     4
1000
16
1002
{
1002
}
1000
17GENPOS
1070
     4
1000
17
1002
{
1002
}
1000
18GENPOS
1070
     4
1000
18
1002
{
1002
}
1000
19GENPOS
1070
     4
1000
19
1002
{
1002
}
1000
20GENPOS
1070
     4
1000
20
1002
{
1002
}
1000
21GENPOS
1070
     4
1000
21
1002
{
1002
}
1000
22GENPOS
1070
     4
1000
22
1002
{
1002
}
1000
23GENPOS
1070
     4
1000
23
1002
{
1002
}
1000
24GENPOS
1070
     4
1000
24
1002
{
1002
}
1000
0GENPOS
1070
     4
1000
0
1002
{
1002
}
1002
}
1000
GENPOS
1070
     0
1002
{
1000
1GENPOS
1070
     4
1000
1
1002
{
1002
}
1000
2GENPOS
1070
     4
1000
2
1002
{
1002
}
1000
3GENPOS
1070
     4
1000
3
1002
{
1002
}
1000
4GENPOS
1070
     4
1000
4
1002
{
1002
}
1000
5GENPOS
1070
     4
1000
5
1002
{
1002
}
1000
6GENPOS
1070
     4
1000
6
1002
{
1002
}
1000
7GENPOS
1070
     4
1000
7
1002
{
1002
}
1000
8GENPOS
1070
     4
1000
8
1002
{
1002
}
1000
9GENPOS
1070
     4
1000
9
1002
{
1002
}
1000
10GENPOS
1070
     4
1000
10
1002
{
1002
}
1000
11GENPOS
1070
     4
1000
11
1002
{
1002
}
1000
12GENPOS
1070
     4
1000
12
1002
{
1002
}
1000
13GENPOS
1070
     4
1000
13
1002
{
1002
}
1000
14GENPOS
1070
     4
1000
14
1002
{
1002
}
1000
15GENPOS
1070
     4
1000
15
1002
{
1002
}
1000
16GENPOS
1070
     4
1000
16
1002
{
1002
}
1000
17GENPOS
1070
     4
1000
17
1002
{
1002
}
1000
18GENPOS
1070
     4
1000
18
1002
{
1002
}
1000
19GENPOS
1070
     4
1000
19
1002
{
1002
}
1000
20GENPOS
1070
     4
1000
20
1002
{
1002
}
1000
21GENPOS
1070
     4
1000
21
1002
{
1002
}
1000
22GENPOS
1070
     4
1000
22
1002
{
1002
}
1000
23GENPOS
1070
     4
1000
23
1002
{
1002
}
1002
}
1000
DIN985
1070
     0
1002
{
1000
POSITION
1070
     4
1000
1
1002
{
1002
}
1000
MENGE
1070
     4
1000
2
1002
{
1002
}
1000
BLATT
1070
     4
1000
3
1002
{
1002
}
1000
BENENN
1070
     4
1000
5
1002
{
1002
}
1000
BENENN2
1070
     4
1000
6
1002
{
1002
}
1000
NORM
1070
     4
1000
7
1002
{
1002
}
1000
NORM2
1070
     4
1000
8
1002
{
1002
}
1000
WERKSTOFF
1070
     4
1000
9
1002
{
1002
}
1000
WERKSTOFF2
1070
     4
1000
10
1002
{
1002
}
1002
}
1000
DIN986
1070
     0
1002
{
1000
POSITION
1070
     4
1000
1
1002
{
1002
}
1000
MENGE
1070
     4
1000
2
1002
{
1002
}
1000
BLATT
1070
     4
1000
3
1002
{
1002
}
1000
BENENN
1070
     4
1000
5
1002
{
1002
}
1000
BENENN2
1070
     4
1000
6
1002
{
1002
}
1000
NORM
1070
     4
1000
7
1002
{
1002
}
1000
NORM2
1070
     4
1000
8
1002
{
1002
}
1000
WERKSTOFF
1070
     4
1000
9
1002
{
1002
}
1000
WERKSTOFF2
1070
     4
1000
10
1002
{
1002
}
1002
}
1000
DIN987
1070
     0
1002
{
1000
POSITION
1070
     4
1000
1
1002
{
1002
}
1000
MENGE
1070
     4
1000
2
1002
{
1002
}
1000
BLATT
1070
     4
1000
3
1002
{
1002
}
1000
BENENN
1070
     4
1000
5
1002
{
1002
}
1000
BENENN2
1070
     4
1000
6
1002
{
1002
}
1000
NORM
1070
     4
1000
7
1002
{
1002
}
1000
NORM2
1070
     4
1000
8
1002
{
1002
}
1000
WERKSTOFF
1070
     4
1000
9
1002
{
1002
}
1000
WERKSTOFF2
1070
     4
1000
10
1002
{
1002
}
1002
}
1002
}
  0
APPID
  5
32
100
AcDbSymbolTableRecord
100
AcDbRegAppTableRecord
  2
GENIUS_GENCFG1_13
 70
     0
1001
GENIUS_GENCFG_13
1071
889735333
1000
32
1000
GEN@LAYER@DEFS
1070
     9
1000
GenCfgObject
1000
GenCfgShort
1000
GenCfgReal
1000
GenCfgBool
1000
GenCfgString
1000
GenCfgDim
1000
GenCfgAttrInf
1000
GenCfgLaySection
1000
GenCfgLayer
1000
Basic
1070
     0
1002
{
1000
0
1070
     8
1000
0
1002
{
1000
Color
1070
     1
1070
     7
1002
{
1002
}
1000
LType
1070
     4
1000
CONTINUOUS
1002
{
1002
}
1000
Base
1070
     3
1070
     0
1002
{
1002
}
1002
}
1000
1
1070
     8
1000
1
1002
{
1000
Color
1070
     1
1070
    14
1002
{
1002
}
1000
LType
1070
     4
1000
CONTINUOUS
1002
{
1002
}
1000
Base
1070
     3
1070
     0
1002
{
1002
}
1002
}
1000
2
1070
     8
1000
2
1002
{
1000
Color
1070
     1
1070
     5
1002
{
1002
}
1000
LType
1070
     4
1000
CONTINUOUS
1002
{
1002
}
1000
Base
1070
     3
1070
     0
1002
{
1002
}
1002
}
1000
3
1070
     8
1000
3
1002
{
1000
Color
1070
     1
1070
     6
1002
{
1002
}
1000
LType
1070
     4
1000
GEN3
1002
{
1002
}
1000
Base
1070
     3
1070
     0
1002
{
1002
}
1002
}
1000
4
1070
     8
1000
4
1002
{
1000
Color
1070
     1
1070
     3
1002
{
1002
}
1000
LType
1070
     4
1000
CONTINUOUS
1002
{
1002
}
1000
Base
1070
     3
1070
     0
1002
{
1002
}
1002
}
1000
5
1070
     8
1000
5
1002
{
1000
Color
1070
     1
1070
     3
1002
{
1002
}
1000
LType
1070
     4
1000
CONTINUOUS
1002
{
1002
}
1000
Base
1070
     3
1070
     0
1002
{
1002
}
1002
}
1000
6
1070
     8
1000
6
1002
{
1000
Color
1070
     1
1070
     2
1002
{
1002
}
1000
LType
1070
     4
1000
CONTINUOUS
1002
{
1002
}
1000
Base
1070
     3
1070
     0
1002
{
1002
}
1002
}
1000
7
1070
     8
1000
7
1002
{
1000
Color
1070
     1
1070
     4
1002
{
1002
}
1000
LType
1070
     4
1000
GEN7
1002
{
1002
}
1000
Base
1070
     3
1070
     0
1002
{
1002
}
1002
}
1000
8
1070
     8
1000
8
1002
{
1000
Color
1070
     1
1070
     1
1002
{
1002
}
1000
LType
1070
     4
1000
CONTINUOUS
1002
{
1002
}
1000
Base
1070
     3
1070
     0
1002
{
1002
}
1002
}
1000
3A
1070
     8
1000
3A
1002
{
1000
Color
1070
     1
1070
     6
1002
{
1002
}
1000
LType
1070
     4
1000
GEN3A
1002
{
1002
}
1000
Base
1070
     3
1070
     0
1002
{
1002
}
1002
}
1000
7A
1070
     8
1000
7A
1002
{
1000
Color
1070
     1
1070
     4
1002
{
1002
}
1000
LType
1070
     4
1000
GEN7A
1002
{
1002
}
1000
Base
1070
     3
1070
     0
1002
{
1002
}
1002
}
1000
2A
1070
     8
1000
2A
1002
{
1000
Color
1070
     1
1070
     7
1002
{
1002
}
1000
LType
1070
     4
1000
GEN7
1002
{
1002
}
1000
Base
1070
     3
1070
     0
1002
{
1002
}
1002
}
1000
4A
1070
     8
1000
4A
1002
{
1000
Color
1070
     1
1070
     3
1002
{
1002
}
1000
LType
1070
     4
1000
GEN4A
1002
{
1002
}
1000
Base
1070
     3
1070
     0
1002
{
1002
}
1002
}
1000
9
1070
     8
1000
9
1002
{
1000
Color
1070
     1
1070
   253
1002
{
1002
}
1000
LType
1070
     4
1000
CONTINUOUS
1002
{
1002
}
1000
Base
1070
     3
1070
     0
1002
{
1002
}
1002
}
1002
}
1000
Standard
1070
     0
1002
{
1000
0N
1070
     8
1000
0N
1002
{
1000
Color
1070
     1
1070
     7
1002
{
1002
}
1000
LType
1070
     4
1000
CONTINUOUS
1002
{
1002
}
1000
Base
1070
     3
1070
     0
1002
{
1002
}
1002
}
1000
1N
1070
     8
1000
1N
1002
{
1000
Color
1070
     1
1070
    14
1002
{
1002
}
1000
LType
1070
     4
1000
CONTINUOUS
1002
{
1002
}
1000
Base
1070
     3
1070
     0
1002
{
1002
}
1002
}
1000
2N
1070
     8
1000
2N
1002
{
1000
Color
1070
     1
1070
     5
1002
{
1002
}
1000
LType
1070
     4
1000
CONTINUOUS
1002
{
1002
}
1000
Base
1070
     3
1070
     0
1002
{
1002
}
1002
}
1000
3N
1070
     8
1000
3N
1002
{
1000
Color
1070
     1
1070
     6
1002
{
1002
}
1000
LType
1070
     4
1000
GEN3
1002
{
1002
}
1000
Base
1070
     3
1070
     0
1002
{
1002
}
1002
}
1000
4N
1070
     8
1000
4N
1002
{
1000
Color
1070
     1
1070
     3
1002
{
1002
}
1000
LType
1070
     4
1000
CONTINUOUS
1002
{
1002
}
1000
Base
1070
     3
1070
     0
1002
{
1002
}
1002
}
1000
5N
1070
     8
1000
5N
1002
{
1000
Color
1070
     1
1070
     3
1002
{
1002
}
1000
LType
1070
     4
1000
CONTINUOUS
1002
{
1002
}
1000
Base
1070
     3
1070
     0
1002
{
1002
}
1002
}
1000
6N
1070
     8
1000
6N
1002
{
1000
Color
1070
     1
1070
     2
1002
{
1002
}
1000
LType
1070
     4
1000
CONTINUOUS
1002
{
1002
}
1000
Base
1070
     3
1070
     0
1002
{
1002
}
1002
}
1000
7N
1070
     8
1000
7N
1002
{
1000
Color
1070
     1
1070
     4
1002
{
1002
}
1000
LType
1070
     4
1000
GEN7
1002
{
1002
}
1000
Base
1070
     3
1070
     0
1002
{
1002
}
1002
}
1000
8N
1070
     8
1000
8N
1002
{
1000
Color
1070
     1
1070
     1
1002
{
1002
}
1000
LType
1070
     4
1000
CONTINUOUS
1002
{
1002
}
1000
Base
1070
     3
1070
     0
1002
{
1002
}
1002
}
1000
3AN
1070
     8
1000
3AN
1002
{
1000
Color
1070
     1
1070
     6
1002
{
1002
}
1000
LType
1070
     4
1000
GEN3A
1002
{
1002
}
1000
Base
1070
     3
1070
     0
1002
{
1002
}
1002
}
1000
7AN
1070
     8
1000
7AN
1002
{
1000
Color
1070
     1
1070
     4
1002
{
1002
}
1000
LType
1070
     4
1000
GEN7A
1002
{
1002
}
1000
Base
1070
     3
1070
     0
1002
{
1002
}
1002
}
1000
2AN
1070
     8
1000
2AN
1002
{
1000
Color
1070
     1
1070
     7
1002
{
1002
}
1000
LType
1070
     4
1000
GEN7
1002
{
1002
}
1000
Base
1070
     3
1070
     0
1002
{
1002
}
1002
}
1000
4AN
1070
     8
1000
4AN
1002
{
1000
Color
1070
     1
1070
     3
1002
{
1002
}
1000
LType
1070
     4
1000
GEN4A
1002
{
1002
}
1000
Base
1070
     3
1070
     0
1002
{
1002
}
1002
}
1000
9N
1070
     8
1000
9N
1002
{
1000
Color
1070
     1
1070
   253
1002
{
1002
}
1000
LType
1070
     4
1000
CONTINUOUS
1002
{
1002
}
1000
Base
1070
     3
1070
     0
1002
{
1002
}
1002
}
1002
}
1000
Extra
1070
     0
1002
{
1000
Klin
1070
     8
1000
KLIN
1002
{
1000
Color
1070
     1
1070
     1
1002
{
1002
}
1000
LType
1070
     4
1000
CONTINUOUS
1002
{
1002
}
1000
Base
1070
     3
1070
     1
1002
{
1002
}
1002
}
1000
Info
1070
     8
1000
INFO
1002
{
1000
Color
1070
     1
1070
     4
1002
{
1002
}
1000
LType
1070
     4
1000
CONTINUOUS
1002
{
1002
}
1000
Base
1070
     3
1070
     1
1002
{
1002
}
1002
}
1000
Rahm2
1070
     8
1000
RAHM2
1002
{
1000
Color
1070
     1
1070
     1
1002
{
1002
}
1000
LType
1070
     4
1000
CONTINUOUS
1002
{
1002
}
1000
Base
1070
     3
1070
     1
1002
{
1002
}
1002
}
1000
Rahm3
1070
     8
1000
RAHM3
1002
{
1000
Color
1070
     1
1070
     2
1002
{
1002
}
1000
LType
1070
     4
1000
CONTINUOUS
1002
{
1002
}
1000
Base
1070
     3
1070
     1
1002
{
1002
}
1002
}
1000
Rahm5
1070
     8
1000
RAHM5
1002
{
1000
Color
1070
     1
1070
     7
1002
{
1002
}
1000
LType
1070
     4
1000
CONTINUOUS
1002
{
1002
}
1000
Base
1070
     3
1070
     1
1002
{
1002
}
1002
}
1000
View
1070
     8
1000
VIEW
1002
{
1000
Color
1070
     1
1070
     1
1002
{
1002
}
1000
LType
1070
     4
1000
CONTINUOUS
1002
{
1002
}
1000
Base
1070
     3
1070
     1
1002
{
1002
}
1002
}
1000
Behind
1070
     8
1000
BEHIND
1002
{
1000
Color
1070
     1
1070
   253
1002
{
1002
}
1000
LType
1070
     4
1000
CONTINUOUS
1002
{
1002
}
1000
Base
1070
     3
1070
     1
1002
{
1002
}
1002
}
1002
}
  0
APPID
  5
33
100
AcDbSymbolTableRecord
100
AcDbRegAppTableRecord
  2
GENIUS_GENCFG2_13
 70
     0
1001
GENIUS_GENCFG_13
1071
889735333
1000
33
1000
GEN@LAYER@ENTSORT
1070
    10
1000
GenCfgObject
1000
GenCfgShort
1000
GenCfgReal
1000
GenCfgBool
1000
GenCfgString
1000
GenCfgDim
1000
GenCfgAttrInf
1000
GenCfgLaySection
1000
GenCfgLayer
1000
GenCfgEntSort
1000
ALTR
1070
     9
1000
4
1002
{
1000
Class
1070
     4
1000

1002
{
1002
}
1000
Color
1070
     1
1070
     7
1002
{
1002
}
1000
LType
1070
     4
1000
GEN3A
1002
{
1002
}
1002
}
1000
BELI
1070
     9
1000
4
1002
{
1000
Class
1070
     4
1000

1002
{
1002
}
1000
Color
1070
     1
1070
   256
1002
{
1002
}
1000
LType
1070
     4
1000
BYLAYER
1002
{
1002
}
1002
}
1000
BHNV
1070
     9
1000
9
1002
{
1000
Class
1070
     4
1000
INV
1002
{
1002
}
1000
Color
1070
     1
1070
   256
1002
{
1002
}
1000
LType
1070
     4
1000
BYLAYER
1002
{
1002
}
1002
}
1000
BHNVS
1070
     9
1000
BEHIND
1002
{
1000
Class
1070
     4
1000
INV
1002
{
1002
}
1000
Color
1070
     1
1070
   256
1002
{
1002
}
1000
LType
1070
     4
1000
BYLAYER
1002
{
1002
}
1002
}
1000
BLID
1070
     9
1000
4A
1002
{
1000
Class
1070
     4
1000

1002
{
1002
}
1000
Color
1070
     1
1070
   256
1002
{
1002
}
1000
LType
1070
     4
1000
BYLAYER
1002
{
1002
}
1002
}
1000
BOAP
1070
     9
1000
4A
1002
{
1000
Class
1070
     4
1000

1002
{
1002
}
1000
Color
1070
     1
1070
   256
1002
{
1002
}
1000
LType
1070
     4
1000
BYLAYER
1002
{
1002
}
1002
}
1000
BOR2
1070
     9
1000
RAHM2
1002
{
1000
Class
1070
     4
1000
SPZ,SYM
1002
{
1002
}
1000
Color
1070
     1
1070
   256
1002
{
1002
}
1000
LType
1070
     4
1000
BYLAYER
1002
{
1002
}
1002
}
1000
BOR3
1070
     9
1000
RAHM3
1002
{
1000
Class
1070
     4
1000
SPZ,SYM
1002
{
1002
}
1000
Color
1070
     1
1070
   256
1002
{
1002
}
1000
LType
1070
     4
1000
BYLAYER
1002
{
1002
}
1002
}
1000
BOR5
1070
     9
1000
RAHM5
1002
{
1000
Class
1070
     4
1000
SPZ,SYM
1002
{
1002
}
1000
Color
1070
     1
1070
   256
1002
{
1002
}
1000
LType
1070
     4
1000
BYLAYER
1002
{
1002
}
1002
}
1000
BOR7
1070
     9
1000
RAHM5
1002
{
1000
Class
1070
     4
1000
SPZ,SYM
1002
{
1002
}
1000
Color
1070
     1
1070
     7
1002
{
1002
}
1000
LType
1070
     4
1000
CONTINUOUS
1002
{
1002
}
1002
}
1000
BPAP
1070
     9
1000
4A
1002
{
1000
Class
1070
     4
1000

1002
{
1002
}
1000
Color
1070
     1
1070
   256
1002
{
1002
}
1000
LType
1070
     4
1000
BYLAYER
1002
{
1002
}
1002
}
1000
BPEX
1070
     9
1000
4A
1002
{
1000
Class
1070
     4
1000

1002
{
1002
}
1000
Color
1070
     1
1070
   256
1002
{
1002
}
1000
LType
1070
     4
1000
BYLAYER
1002
{
1002
}
1002
}
1000
BTDI
1070
     9
1000
5
1002
{
1000
Class
1070
     4
1000
DIM,SYM
1002
{
1002
}
1000
Color
1070
     1
1070
   256
1002
{
1002
}
1000
LType
1070
     4
1000
BYLAYER
1002
{
1002
}
1002
}
1000
CAL2
1070
     9
1000
4
1002
{
1000
Class
1070
     4
1000
SYM
1002
{
1002
}
1000
Color
1070
     1
1070
   256
1002
{
1002
}
1000
LType
1070
     4
1000
BYLAYER
1002
{
1002
}
1002
}
1000
CAL3
1070
     9
1000
4
1002
{
1000
Class
1070
     4
1000
SYM
1002
{
1002
}
1000
Color
1070
     1
1070
     2
1002
{
1002
}
1000
LType
1070
     4
1000
BYLAYER
1002
{
1002
}
1002
}
1000
CAL5
1070
     9
1000
4
1002
{
1000
Class
1070
     4
1000
SYM
1002
{
1002
}
1000
Color
1070
     1
1070
     7
1002
{
1002
}
1000
LType
1070
     4
1000
BYLAYER
1002
{
1002
}
1002
}
1000
CAL7
1070
     9
1000
4
1002
{
1000
Class
1070
     4
1000
SYM
1002
{
1002
}
1000
Color
1070
     1
1070
     5
1002
{
1002
}
1000
LType
1070
     4
1000
BYLAYER
1002
{
1002
}
1002
}
1000
CENN
1070
     9
1000
7A
1002
{
1000
Class
1070
     4
1000
CEN
1002
{
1002
}
1000
Color
1070
     1
1070
   256
1002
{
1002
}
1000
LType
1070
     4
1000
BYLAYER
1002
{
1002
}
1002
}
1000
CENW
1070
     9
1000
7
1002
{
1000
Class
1070
     4
1000
CEN
1002
{
1002
}
1000
Color
1070
     1
1070
   256
1002
{
1002
}
1000
LType
1070
     4
1000
BYLAYER
1002
{
1002
}
1002
}
1000
CLIN
1070
     9
1000
KLIN
1002
{
1000
Class
1070
     4
1000
SPZ
1002
{
1002
}
1000
Color
1070
     1
1070
   256
1002
{
1002
}
1000
LType
1070
     4
1000
BYLAYER
1002
{
1002
}
1002
}
1000
CON1
1070
     9
1000
0
1002
{
1000
Class
1070
     4
1000
CON,BGD
1002
{
1002
}
1000
Color
1070
     1
1070
   256
1002
{
1002
}
1000
LType
1070
     4
1000
BYLAYER
1002
{
1002
}
1002
}
1000
CON2
1070
     9
1000
1
1002
{
1000
Class
1070
     4
1000
CON,BGD
1002
{
1002
}
1000
Color
1070
     1
1070
   256
1002
{
1002
}
1000
LType
1070
     4
1000
BYLAYER
1002
{
1002
}
1002
}
1000
CON3
1070
     9
1000
2
1002
{
1000
Class
1070
     4
1000
CON,BGD
1002
{
1002
}
1000
Color
1070
     1
1070
   256
1002
{
1002
}
1000
LType
1070
     4
1000
BYLAYER
1002
{
1002
}
1002
}
1000
CON4
1070
     9
1000
2
1002
{
1000
Class
1070
     4
1000
CON,BGD
1002
{
1002
}
1000
Color
1070
     1
1070
   256
1002
{
1002
}
1000
LType
1070
     4
1000
BYLAYER
1002
{
1002
}
1002
}
1000
DERP
1070
     9
1000
4
1002
{
1000
Class
1070
     4
1000

1002
{
1002
}
1000
Color
1070
     1
1070
   256
1002
{
1002
}
1000
LType
1070
     4
1000
BYLAYER
1002
{
1002
}
1002
}
1000
DETA
1070
     9
1000
4
1002
{
1000
Class
1070
     4
1000

1002
{
1002
}
1000
Color
1070
     1
1070
   256
1002
{
1002
}
1000
LType
1070
     4
1000
BYLAYER
1002
{
1002
}
1002
}
1000
DIAG
1070
     9
1000
5
1002
{
1000
Class
1070
     4
1000
SYM
1002
{
1002
}
1000
Color
1070
     1
1070
   256
1002
{
1002
}
1000
LType
1070
     4
1000
BYLAYER
1002
{
1002
}
1002
}
1000
DILI
1070
     9
1000
5
1002
{
1000
Class
1070
     4
1000
DIM,SYM
1002
{
1002
}
1000
Color
1070
     1
1070
   256
1002
{
1002
}
1000
LType
1070
     4
1000
BYLAYER
1002
{
1002
}
1002
}
1000
DITX
1070
     9
1000
5
1002
{
1000
Class
1070
     4
1000
DIM,SYM
1002
{
1002
}
1000
Color
1070
     1
1070
     2
1002
{
1002
}
1000
LType
1070
     4
1000
CONTINUOUS
1002
{
1002
}
1002
}
1000
DITO2
1070
     9
1000
5
1002
{
1000
Class
1070
     4
1000
DIM,SYM
1002
{
1002
}
1000
Color
1070
     1
1070
     3
1002
{
1002
}
1000
LType
1070
     4
1000
BYLAYER
1002
{
1002
}
1002
}
1000
DITO3
1070
     9
1000
5
1002
{
1000
Class
1070
     4
1000
DIM,SYM
1002
{
1002
}
1000
Color
1070
     1
1070
     2
1002
{
1002
}
1000
LType
1070
     4
1000
BYLAYER
1002
{
1002
}
1002
}
1000
DIXL
1070
     9
1000
5
1002
{
1000
Class
1070
     4
1000
DIM,SYM
1002
{
1002
}
1000
Color
1070
     1
1070
   256
1002
{
1002
}
1000
LType
1070
     4
1000
BYLAYER
1002
{
1002
}
1002
}
1000
EXMP
1070
     9
1000
4A
1002
{
1000
Class
1070
     4
1000

1002
{
1002
}
1000
Color
1070
     1
1070
   256
1002
{
1002
}
1000
LType
1070
     4
1000
BYLAYER
1002
{
1002
}
1002
}
1000
FEMN
1070
     9
1000
8
1002
{
1000
Class
1070
     4
1000

1002
{
1002
}
1000
Color
1070
     1
1070
   256
1002
{
1002
}
1000
LType
1070
     4
1000
BYLAYER
1002
{
1002
}
1002
}
1000
FEMPN
1070
     9
1000
8
1002
{
1000
Class
1070
     4
1000
SYM
1002
{
1002
}
1000
Color
1070
     1
1070
     3
1002
{
1002
}
1000
LType
1070
     4
1000
BYLAYER
1002
{
1002
}
1002
}
1000
FEMSP
1070
     9
1000
4A
1002
{
1000
Class
1070
     4
1000

1002
{
1002
}
1000
Color
1070
     1
1070
   256
1002
{
1002
}
1000
LType
1070
     4
1000
CONTINUOUS
1002
{
1002
}
1002
}
1000
FEMST
1070
     9
1000
4A
1002
{
1000
Class
1070
     4
1000
SYM
1002
{
1002
}
1000
Color
1070
     1
1070
     3
1002
{
1002
}
1000
LType
1070
     4
1000
BYLAYER
1002
{
1002
}
1002
}
1000
FEMVN
1070
     9
1000
2
1002
{
1000
Class
1070
     4
1000
CON
1002
{
1002
}
1000
Color
1070
     1
1070
   256
1002
{
1002
}
1000
LType
1070
     4
1000
BYLAYER
1002
{
1002
}
1002
}
1000
FEMVT
1070
     9
1000
2
1002
{
1000
Class
1070
     4
1000
SYM
1002
{
1002
}
1000
Color
1070
     1
1070
     3
1002
{
1002
}
1000
LType
1070
     4
1000
BYLAYER
1002
{
1002
}
1002
}
1000
FLAT
1070
     9
1000
0
1002
{
1000
Class
1070
     4
1000

1002
{
1002
}
1000
Color
1070
     1
1070
   256
1002
{
1002
}
1000
LType
1070
     4
1000
BYLAYER
1002
{
1002
}
1002
}
1000
FRAR
1070
     9
1000
4A
1002
{
1000
Class
1070
     4
1000

1002
{
1002
}
1000
Color
1070
     1
1070
   256
1002
{
1002
}
1000
LType
1070
     4
1000
BYLAYER
1002
{
1002
}
1002
}
1000
GRLI
1070
     9
1000
5
1002
{
1000
Class
1070
     4
1000
SYM
1002
{
1002
}
1000
Color
1070
     1
1070
   256
1002
{
1002
}
1000
LType
1070
     4
1000
BYLAYER
1002
{
1002
}
1002
}
1000
GVLI
1070
     9
1000
4A
1002
{
1000
Class
1070
     4
1000

1002
{
1002
}
1000
Color
1070
     1
1070
   256
1002
{
1002
}
1000
LType
1070
     4
1000
BYLAYER
1002
{
1002
}
1002
}
1000
HATC
1070
     9
1000
8
1002
{
1000
Class
1070
     4
1000
HTC,BGD
1002
{
1002
}
1000
Color
1070
     1
1070
   256
1002
{
1002
}
1000
LType
1070
     4
1000
BYLAYER
1002
{
1002
}
1002
}
1000
HIDN
1070
     9
1000
3A
1002
{
1000
Class
1070
     4
1000
HID,BGD
1002
{
1002
}
1000
Color
1070
     1
1070
   256
1002
{
1002
}
1000
LType
1070
     4
1000
BYLAYER
1002
{
1002
}
1002
}
1000
HIDW
1070
     9
1000
3
1002
{
1000
Class
1070
     4
1000
HID,BGD
1002
{
1002
}
1000
Color
1070
     1
1070
   256
1002
{
1002
}
1000
LType
1070
     4
1000
BYLAYER
1002
{
1002
}
1002
}
1000
HLIN
1070
     9
1000
4
1002
{
1000
Class
1070
     4
1000
BGD
1002
{
1002
}
1000
Color
1070
     1
1070
   256
1002
{
1002
}
1000
LType
1070
     4
1000
BYLAYER
1002
{
1002
}
1002
}
1000
HOCN
1070
     9
1000
7A
1002
{
1000
Class
1070
     4
1000
CEN
1002
{
1002
}
1000
Color
1070
     1
1070
   256
1002
{
1002
}
1000
LType
1070
     4
1000
BYLAYER
1002
{
1002
}
1002
}
1000
HOCW
1070
     9
1000
7
1002
{
1000
Class
1070
     4
1000
CEN
1002
{
1002
}
1000
Color
1070
     1
1070
   256
1002
{
1002
}
1000
LType
1070
     4
1000
BYLAYER
1002
{
1002
}
1002
}
1000
INFO
1070
     9
1000
INFO
1002
{
1000
Class
1070
     4
1000
SPZ,SYM
1002
{
1002
}
1000
Color
1070
     1
1070
   256
1002
{
1002
}
1000
LType
1070
     4
1000
BYLAYER
1002
{
1002
}
1002
}
1000
LADI
1070
     9
1000
4
1002
{
1000
Class
1070
     4
1000
BGD
1002
{
1002
}
1000
Color
1070
     1
1070
   256
1002
{
1002
}
1000
LType
1070
     4
1000
BYLAYER
1002
{
1002
}
1002
}
1000
LEAD
1070
     9
1000
5
1002
{
1000
Class
1070
     4
1000
SYM
1002
{
1002
}
1000
Color
1070
     1
1070
   256
1002
{
1002
}
1000
LType
1070
     4
1000
BYLAYER
1002
{
1002
}
1002
}
1000
N_BHNV
1070
     9
1000
9N
1002
{
1000
Class
1070
     4
1000
INV
1002
{
1002
}
1000
Color
1070
     1
1070
   256
1002
{
1002
}
1000
LType
1070
     4
1000
BYLAYER
1002
{
1002
}
1002
}
1000
N_CON1
1070
     9
1000
0N
1002
{
1000
Class
1070
     4
1000
CON,BGD
1002
{
1002
}
1000
Color
1070
     1
1070
   256
1002
{
1002
}
1000
LType
1070
     4
1000
BYLAYER
1002
{
1002
}
1002
}
1000
N_CON2
1070
     9
1000
1N
1002
{
1000
Class
1070
     4
1000
CON,BGD
1002
{
1002
}
1000
Color
1070
     1
1070
   256
1002
{
1002
}
1000
LType
1070
     4
1000
BYLAYER
1002
{
1002
}
1002
}
1000
N_CON3
1070
     9
1000
2N
1002
{
1000
Class
1070
     4
1000
CON,BGD
1002
{
1002
}
1000
Color
1070
     1
1070
   256
1002
{
1002
}
1000
LType
1070
     4
1000
BYLAYER
1002
{
1002
}
1002
}
1000
N_CON4
1070
     9
1000
2N
1002
{
1000
Class
1070
     4
1000
CON,BGD
1002
{
1002
}
1000
Color
1070
     1
1070
   256
1002
{
1002
}
1000
LType
1070
     4
1000
BYLAYER
1002
{
1002
}
1002
}
1000
N_CENN
1070
     9
1000
7AN
1002
{
1000
Class
1070
     4
1000
CEN
1002
{
1002
}
1000
Color
1070
     1
1070
   256
1002
{
1002
}
1000
LType
1070
     4
1000
BYLAYER
1002
{
1002
}
1002
}
1000
N_CENW
1070
     9
1000
7N
1002
{
1000
Class
1070
     4
1000
CEN
1002
{
1002
}
1000
Color
1070
     1
1070
   256
1002
{
1002
}
1000
LType
1070
     4
1000
BYLAYER
1002
{
1002
}
1002
}
1000
N_DILI
1070
     9
1000
5N
1002
{
1000
Class
1070
     4
1000
DIM,SYM
1002
{
1002
}
1000
Color
1070
     1
1070
   256
1002
{
1002
}
1000
LType
1070
     4
1000
BYLAYER
1002
{
1002
}
1002
}
1000
N_DITX
1070
     9
1000
5N
1002
{
1000
Class
1070
     4
1000
DIM,SYM
1002
{
1002
}
1000
Color
1070
     1
1070
     2
1002
{
1002
}
1000
LType
1070
     4
1000
CONTINUOUS
1002
{
1002
}
1002
}
1000
N_DIXL
1070
     9
1000
5N
1002
{
1000
Class
1070
     4
1000
DIM,SYM
1002
{
1002
}
1000
Color
1070
     1
1070
   256
1002
{
1002
}
1000
LType
1070
     4
1000
BYLAYER
1002
{
1002
}
1002
}
1000
N_HATC
1070
     9
1000
8N
1002
{
1000
Class
1070
     4
1000
HTC,BGD
1002
{
1002
}
1000
Color
1070
     1
1070
   256
1002
{
1002
}
1000
LType
1070
     4
1000
BYLAYER
1002
{
1002
}
1002
}
1000
N_HIDN
1070
     9
1000
3AN
1002
{
1000
Class
1070
     4
1000
HID,BGD
1002
{
1002
}
1000
Color
1070
     1
1070
   256
1002
{
1002
}
1000
LType
1070
     4
1000
BYLAYER
1002
{
1002
}
1002
}
1000
N_HIDW
1070
     9
1000
3N
1002
{
1000
Class
1070
     4
1000
HID,BGD
1002
{
1002
}
1000
Color
1070
     1
1070
   256
1002
{
1002
}
1000
LType
1070
     4
1000
BYLAYER
1002
{
1002
}
1002
}
1000
N_PHAN
1070
     9
1000
4AN
1002
{
1000
Class
1070
     4
1000

1002
{
1002
}
1000
Color
1070
     1
1070
   256
1002
{
1002
}
1000
LType
1070
     4
1000
BYLAYER
1002
{
1002
}
1002
}
1000
N_POSL
1070
     9
1000
5N
1002
{
1000
Class
1070
     4
1000
SYM
1002
{
1002
}
1000
Color
1070
     1
1070
   256
1002
{
1002
}
1000
LType
1070
     4
1000
BYLAYER
1002
{
1002
}
1002
}
1000
N_TCON
1070
     9
1000
0N
1002
{
1000
Class
1070
     4
1000
CON,BGD
1002
{
1002
}
1000
Color
1070
     1
1070
   256
1002
{
1002
}
1000
LType
1070
     4
1000
BYLAYER
1002
{
1002
}
1002
}
1000
N_THLI
1070
     9
1000
4N
1002
{
1000
Class
1070
     4
1000
BGD
1002
{
1002
}
1000
Color
1070
     1
1070
   256
1002
{
1002
}
1000
LType
1070
     4
1000
BYLAYER
1002
{
1002
}
1002
}
1000
N_TLEN
1070
     9
1000
0N
1002
{
1000
Class
1070
     4
1000
CON,BGD
1002
{
1002
}
1000
Color
1070
     1
1070
   256
1002
{
1002
}
1000
LType
1070
     4
1000
BYLAYER
1002
{
1002
}
1002
}
1000
N_TXT3
1070
     9
1000
6N
1002
{
1000
Class
1070
     4
1000
SYM
1002
{
1002
}
1000
Color
1070
     1
1070
   256
1002
{
1002
}
1000
LType
1070
     4
1000
BYLAYER
1002
{
1002
}
1002
}
1000
N_VPLI
1070
     9
1000
2AN
1002
{
1000
Class
1070
     4
1000

1002
{
1002
}
1000
Color
1070
     1
1070
   256
1002
{
1002
}
1000
LType
1070
     4
1000
BYLAYER
1002
{
1002
}
1002
}
1000
PAL2
1070
     9
1000
RAHM2
1002
{
1000
Class
1070
     4
1000
SPZ,SYM
1002
{
1002
}
1000
Color
1070
     1
1070
   256
1002
{
1002
}
1000
LType
1070
     4
1000
BYLAYER
1002
{
1002
}
1002
}
1000
PAL3
1070
     9
1000
RAHM3
1002
{
1000
Class
1070
     4
1000
SPZ,SYM
1002
{
1002
}
1000
Color
1070
     1
1070
   256
1002
{
1002
}
1000
LType
1070
     4
1000
BYLAYER
1002
{
1002
}
1002
}
1000
PAL5
1070
     9
1000
RAHM5
1002
{
1000
Class
1070
     4
1000
SPZ,SYM
1002
{
1002
}
1000
Color
1070
     1
1070
   256
1002
{
1002
}
1000
LType
1070
     4
1000
BYLAYER
1002
{
1002
}
1002
}
1000
PAL7
1070
     9
1000
RAHM5
1002
{
1000
Class
1070
     4
1000
SPZ,SYM
1002
{
1002
}
1000
Color
1070
     1
1070
     7
1002
{
1002
}
1000
LType
1070
     4
1000
CONTINUOUS
1002
{
1002
}
1002
}
1000
PHAN
1070
     9
1000
4A
1002
{
1000
Class
1070
     4
1000

1002
{
1002
}
1000
Color
1070
     1
1070
   256
1002
{
1002
}
1000
LType
1070
     4
1000
BYLAYER
1002
{
1002
}
1002
}
1000
POSL
1070
     9
1000
5
1002
{
1000
Class
1070
     4
1000
SYM
1002
{
1002
}
1000
Color
1070
     1
1070
   256
1002
{
1002
}
1000
LType
1070
     4
1000
BYLAYER
1002
{
1002
}
1002
}
1000
POSN
1070
     9
1000
6
1002
{
1000
Class
1070
     4
1000
SYM
1002
{
1002
}
1000
Color
1070
     1
1070
     7
1002
{
1002
}
1000
LType
1070
     4
1000
BYLAYER
1002
{
1002
}
1002
}
1000
POSREF
1070
     9
1000
6
1002
{
1000
Class
1070
     4
1000
SYM
1002
{
1002
}
1000
Color
1070
     1
1070
     5
1002
{
1002
}
1000
LType
1070
     4
1000
BYLAYER
1002
{
1002
}
1002
}
1000
POSX
1070
     9
1000
5
1002
{
1000
Class
1070
     4
1000
SYM
1002
{
1002
}
1000
Color
1070
     1
1070
     2
1002
{
1002
}
1000
LType
1070
     4
1000
CONTINUOUS
1002
{
1002
}
1002
}
1000
PSEC
1070
     9
1000
4A
1002
{
1000
Class
1070
     4
1000

1002
{
1002
}
1000
Color
1070
     1
1070
   256
1002
{
1002
}
1000
LType
1070
     4
1000
BYLAYER
1002
{
1002
}
1002
}
1000
RCGN
1070
     9
1000
7A
1002
{
1000
Class
1070
     4
1000
CEN
1002
{
1002
}
1000
Color
1070
     1
1070
   256
1002
{
1002
}
1000
LType
1070
     4
1000
BYLAYER
1002
{
1002
}
1002
}
1000
RCGW
1070
     9
1000
7
1002
{
1000
Class
1070
     4
1000
CEN
1002
{
1002
}
1000
Color
1070
     1
1070
   256
1002
{
1002
}
1000
LType
1070
     4
1000
BYLAYER
1002
{
1002
}
1002
}
1000
RFDI
1070
     9
1000
4
1002
{
1000
Class
1070
     4
1000
BGD
1002
{
1002
}
1000
Color
1070
     1
1070
   256
1002
{
1002
}
1000
LType
1070
     4
1000
BYLAYER
1002
{
1002
}
1002
}
1000
RQTR
1070
     9
1000
4
1002
{
1000
Class
1070
     4
1000

1002
{
1002
}
1000
Color
1070
     1
1070
     7
1002
{
1002
}
1000
LType
1070
     4
1000
GEN7A
1002
{
1002
}
1002
}
1000
RSBO
1070
     9
1000
4
1002
{
1000
Class
1070
     4
1000
BGD
1002
{
1002
}
1000
Color
1070
     1
1070
   256
1002
{
1002
}
1000
LType
1070
     4
1000
BYLAYER
1002
{
1002
}
1002
}
1000
SBRK
1070
     9
1000
4
1002
{
1000
Class
1070
     4
1000
BGD
1002
{
1002
}
1000
Color
1070
     1
1070
   256
1002
{
1002
}
1000
LType
1070
     4
1000
BYLAYER
1002
{
1002
}
1002
}
1000
SCEN
1070
     9
1000
7
1002
{
1000
Class
1070
     4
1000

1002
{
1002
}
1000
Color
1070
     1
1070
   256
1002
{
1002
}
1000
LType
1070
     4
1000
CONTINUOUS
1002
{
1002
}
1002
}
1000
SECT
1070
     9
1000
4
1002
{
1000
Class
1070
     4
1000
BGD
1002
{
1002
}
1000
Color
1070
     1
1070
   256
1002
{
1002
}
1000
LType
1070
     4
1000
BYLAYER
1002
{
1002
}
1002
}
1000
SELN
1070
     9
1000
7A
1002
{
1000
Class
1070
     4
1000

1002
{
1002
}
1000
Color
1070
     1
1070
   256
1002
{
1002
}
1000
LType
1070
     4
1000
BYLAYER
1002
{
1002
}
1002
}
1000
SELW
1070
     9
1000
7
1002
{
1000
Class
1070
     4
1000

1002
{
1002
}
1000
Color
1070
     1
1070
   256
1002
{
1002
}
1000
LType
1070
     4
1000
BYLAYER
1002
{
1002
}
1002
}
1000
SSYS
1070
     9
1000
0
1002
{
1000
Class
1070
     4
1000

1002
{
1002
}
1000
Color
1070
     1
1070
   256
1002
{
1002
}
1000
LType
1070
     4
1000
BYLAYER
1002
{
1002
}
1002
}
1000
STLI
1070
     9
1000
4
1002
{
1000
Class
1070
     4
1000

1002
{
1002
}
1000
Color
1070
     1
1070
     7
1002
{
1002
}
1000
LType
1070
     4
1000
GEN3A
1002
{
1002
}
1002
}
1000
SYB1
1070
     9
1000
5
1002
{
1000
Class
1070
     4
1000
SYM
1002
{
1002
}
1000
Color
1070
     1
1070
   256
1002
{
1002
}
1000
LType
1070
     4
1000
BYLAYER
1002
{
1002
}
1002
}
1000
SYB2
1070
     9
1000
5
1002
{
1000
Class
1070
     4
1000
SYM
1002
{
1002
}
1000
Color
1070
     1
1070
   256
1002
{
1002
}
1000
LType
1070
     4
1000
BYLAYER
1002
{
1002
}
1002
}
1000
SYB3
1070
     9
1000
6
1002
{
1000
Class
1070
     4
1000
SYM
1002
{
1002
}
1000
Color
1070
     1
1070
   256
1002
{
1002
}
1000
LType
1070
     4
1000
CONTINUOUS
1002
{
1002
}
1002
}
1000
SYB5
1070
     9
1000
5
1002
{
1000
Class
1070
     4
1000
SYM
1002
{
1002
}
1000
Color
1070
     1
1070
     7
1002
{
1002
}
1000
LType
1070
     4
1000
BYLAYER
1002
{
1002
}
1002
}
1000
SYMN
1070
     9
1000
7A
1002
{
1000
Class
1070
     4
1000
CEN
1002
{
1002
}
1000
Color
1070
     1
1070
   256
1002
{
1002
}
1000
LType
1070
     4
1000
BYLAYER
1002
{
1002
}
1002
}
1000
SYMW
1070
     9
1000
7
1002
{
1000
Class
1070
     4
1000
CEN
1002
{
1002
}
1000
Color
1070
     1
1070
   256
1002
{
1002
}
1000
LType
1070
     4
1000
BYLAYER
1002
{
1002
}
1002
}
1000
TCON
1070
     9
1000
0
1002
{
1000
Class
1070
     4
1000
CON,BGD
1002
{
1002
}
1000
Color
1070
     1
1070
   256
1002
{
1002
}
1000
LType
1070
     4
1000
BYLAYER
1002
{
1002
}
1002
}
1000
THLI
1070
     9
1000
4
1002
{
1000
Class
1070
     4
1000
BGD
1002
{
1002
}
1000
Color
1070
     1
1070
   256
1002
{
1002
}
1000
LType
1070
     4
1000
BYLAYER
1002
{
1002
}
1002
}
1000
TIT2
1070
     9
1000
RAHM2
1002
{
1000
Class
1070
     4
1000
SPZ,SYM
1002
{
1002
}
1000
Color
1070
     1
1070
   256
1002
{
1002
}
1000
LType
1070
     4
1000
BYLAYER
1002
{
1002
}
1002
}
1000
TIT3
1070
     9
1000
RAHM3
1002
{
1000
Class
1070
     4
1000
SPZ,SYM
1002
{
1002
}
1000
Color
1070
     1
1070
   256
1002
{
1002
}
1000
LType
1070
     4
1000
BYLAYER
1002
{
1002
}
1002
}
1000
TIT5
1070
     9
1000
RAHM5
1002
{
1000
Class
1070
     4
1000
SPZ,SYM
1002
{
1002
}
1000
Color
1070
     1
1070
   256
1002
{
1002
}
1000
LType
1070
     4
1000
BYLAYER
1002
{
1002
}
1002
}
1000
TIT7
1070
     9
1000
RAHM5
1002
{
1000
Class
1070
     4
1000
SPZ,SYM
1002
{
1002
}
1000
Color
1070
     1
1070
     7
1002
{
1002
}
1000
LType
1070
     4
1000
CONTINUOUS
1002
{
1002
}
1002
}
1000
TLEN
1070
     9
1000
0
1002
{
1000
Class
1070
     4
1000
CON,BGD
1002
{
1002
}
1000
Color
1070
     1
1070
   256
1002
{
1002
}
1000
LType
1070
     4
1000
BYLAYER
1002
{
1002
}
1002
}
1000
TRKN
1070
     9
1000
7A
1002
{
1000
Class
1070
     4
1000

1002
{
1002
}
1000
Color
1070
     1
1070
   256
1002
{
1002
}
1000
LType
1070
     4
1000
BYLAYER
1002
{
1002
}
1002
}
1000
TRKW
1070
     9
1000
7
1002
{
1000
Class
1070
     4
1000

1002
{
1002
}
1000
Color
1070
     1
1070
   256
1002
{
1002
}
1000
LType
1070
     4
1000
BYLAYER
1002
{
1002
}
1002
}
1000
TRLI
1070
     9
1000
4
1002
{
1000
Class
1070
     4
1000
BGD
1002
{
1002
}
1000
Color
1070
     1
1070
   256
1002
{
1002
}
1000
LType
1070
     4
1000
BYLAYER
1002
{
1002
}
1002
}
1000
TXT1
1070
     9
1000
6
1002
{
1000
Class
1070
     4
1000
SYM
1002
{
1002
}
1000
Color
1070
     1
1070
     2
1002
{
1002
}
1000
LType
1070
     4
1000
BYLAYER
1002
{
1002
}
1002
}
1000
TXT2
1070
     9
1000
6
1002
{
1000
Class
1070
     4
1000
SYM
1002
{
1002
}
1000
Color
1070
     1
1070
     2
1002
{
1002
}
1000
LType
1070
     4
1000
BYLAYER
1002
{
1002
}
1002
}
1000
TXT3
1070
     9
1000
6
1002
{
1000
Class
1070
     4
1000
SYM
1002
{
1002
}
1000
Color
1070
     1
1070
   256
1002
{
1002
}
1000
LType
1070
     4
1000
BYLAYER
1002
{
1002
}
1002
}
1000
TXT5
1070
     9
1000
6
1002
{
1000
Class
1070
     4
1000
SYM
1002
{
1002
}
1000
Color
1070
     1
1070
     7
1002
{
1002
}
1000
LType
1070
     4
1000
BYLAYER
1002
{
1002
}
1002
}
1000
TXT7
1070
     9
1000
6
1002
{
1000
Class
1070
     4
1000
SYM
1002
{
1002
}
1000
Color
1070
     1
1070
     7
1002
{
1002
}
1000
LType
1070
     4
1000
BYLAYER
1002
{
1002
}
1002
}
1000
VIEW
1070
     9
1000
VIEW
1002
{
1000
Class
1070
     4
1000
SPZ
1002
{
1002
}
1000
Color
1070
     1
1070
   256
1002
{
1002
}
1000
LType
1070
     4
1000
BYLAYER
1002
{
1002
}
1002
}
1000
VPLI
1070
     9
1000
2A
1002
{
1000
Class
1070
     4
1000

1002
{
1002
}
1000
Color
1070
     1
1070
   256
1002
{
1002
}
1000
LType
1070
     4
1000
BYLAYER
1002
{
1002
}
1002
}
1000
ZIZA
1070
     9
1000
4
1002
{
1000
Class
1070
     4
1000
BGD
1002
{
1002
}
1000
Color
1070
     1
1070
   256
1002
{
1002
}
1000
LType
1070
     4
1000
GENZIGZAG
1002
{
1002
}
1002
}
  0
APPID
  5
34
100
AcDbSymbolTableRecord
100
AcDbRegAppTableRecord
  2
GENIUS_GENCFG3_13
 70
     0
1001
GENIUS_GENCFG_13
1071
889735333
1000
34
1000
GEN@OSWIZ
1070
    12
1000
GenCfgObject
1000
GenCfgShort
1000
GenCfgReal
1000
GenCfgBool
1000
GenCfgString
1000
GenCfgDim
1000
GenCfgAttrInf
1000
GenCfgLaySection
1000
GenCfgLayer
1000
GenCfgEntSort
1000
GenCfgLType
1000
GenCfgFilter
1000
AngleStep
1070
     0
1002
{
1000
M
1070
     2
1040
10.0
1002
{
1002
}
1000
I
1070
     2
1040
0.4
1002
{
1002
}
1002
}
1000
AngleIncr
1070
     2
1040
45.0
1002
{
1002
}
1000
Filter
1070
     0
1002
{
1000
HATCH
1070
    11
1002
{
1000
EntityType
1070
     4
1000
LINE
1002
{
1002
}
1000
Layer
1070
     4
1000
8,8N,*-8,*-8N
1002
{
1002
}
1000
Linetype
1070
     4
1000
*
1002
{
1002
}
1000
Color
1070
     4
1000
*
1002
{
1002
}
1002
}
1000
SYMBOLS
1070
    11
1002
{
1000
EntityType
1070
     4
1000
*
1002
{
1002
}
1000
Layer
1070
     4
1000
[5-6],[5-6]N,*-[5-6],*-[5-6]N
1002
{
1002
}
1000
Linetype
1070
     4
1000
*
1002
{
1002
}
1000
Color
1070
     4
1000
*
1002
{
1002
}
1002
}
1000
FEM
1070
    11
1002
{
1000
EntityType
1070
     4
1000
*
1002
{
1002
}
1000
Layer
1070
     4
1000
4A,4AN,*-4A,*-4AN
1002
{
1002
}
1000
Linetype
1070
     4
1000
*
1002
{
1002
}
1000
Color
1070
     4
1000
*
1002
{
1002
}
1002
}
1002
}
1000
IconSize
1070
     2
1040
1.0
1002
{
1002
}
1000
SnapColor
1070
     1
1070
     3
1002
{
1002
}
  0
APPID
  5
35
100
AcDbSymbolTableRecord
100
AcDbRegAppTableRecord
  2
GENIUS_GENCFG4_13
 70
     0
1001
GENIUS_GENCFG_13
1071
892732980
1000
35
1000
GEN
1070
     9
1000
GenCfgObject
1000
GenCfgShort
1000
GenCfgReal
1000
GenCfgBool
1000
GenCfgString
1000
GenCfgDim
1000
GenCfgAttrInf
1000
GenCfgLaySection
1000
GenCfgLType
1000
Balloon
1070
     0
1002
{
1000
GenIF
1070
     1
1070
     0
1002
{
1002
}
1000
GenPosInc
1070
     1
1070
     1
1002
{
1002
}
1000
GenPosBlk
1070
     1
1070
     8
1002
{
1002
}
1000
GenPosVar
1070
     1
1070
     0
1002
{
1002
}
1000
GenZiCir
1070
     2
1040
1.0
1002
{
1002
}
1000
MaxCharForCenteredText
1070
     1
1070
    30
1002
{
1002
}
1000
Snap
1070
     0
1002
{
1000
ActivationRadius
1070
     2
1040
1.0
1002
{
1002
}
1000
M
1070
     0
1002
{
1000
SnapStepX
1070
     2
1040
20.0
1002
{
1002
}
1000
SnapStepY
1070
     2
1040
10.0
1002
{
1002
}
1002
}
1000
I
1070
     0
1002
{
1000
SnapStepX
1070
     2
1040
1.0
1002
{
1002
}
1000
SnapStepY
1070
     2
1040
0.5
1002
{
1002
}
1002
}
1002
}
1002
}
1000
Centerline
1070
     0
1002
{
1000
ScaleNot
1070
     3
1070
     0
1002
{
1002
}
1000
M
1070
     0
1002
{
1000
GenCenAng
1070
     4
1000
45|90|135
1002
{
1002
}
1000
GenCenDia
1070
     2
1040
4.546733
1002
{
1002
}
1000
GenCenDias
1070
     4
1000
10|20|30
1002
{
1002
}
1000
GenCenDist
1070
     2
1040
3.0
1002
{
1002
}
1000
GenCenLen
1070
     2
1040
10.0
1002
{
1002
}
1000
GenCenOff
1070
     2
1040
10.0
1002
{
1002
}
1002
}
1000
I
1070
     0
1002
{
1000
GenCenAng
1070
     4
1000
45|90|135
1002
{
1002
}
1000
GenCenDia
1070
     2
1040
0.5
1002
{
1002
}
1000
GenCenDias
1070
     4
1000
0.5|1.0|1.5
1002
{
1002
}
1000
GenCenDist
1070
     2
1040
0.125
1002
{
1002
}
1000
GenCenLen
1070
     2
1040
0.5
1002
{
1002
}
1000
GenCenOff
1070
     2
1040
0.5
1002
{
1002
}
1002
}
1002
}
1000
CLine
1070
     0
1002
{
1000
CAngArray
1070
     4
1000
82.4
1002
{
1002
}
1000
Typ
1070
     4
1000
XLINE
1002
{
1002
}
1000
M
1070
     0
1002
{
1000
CLinArray
1070
     4
1000
23.5|36
1002
{
1002
}
1002
}
1000
I
1070
     0
1002
{
1000
CLinArray
1070
     4
1000
0.125|0.25|0.5
1002
{
1002
}
1002
}
1002
}
1000
Constraints
1070
     0
1002
{
1000
>
1002
}
1000
Detail
1070
     0
1002
{
1002
}
1000
Dimension
1070
     5
1002
{
1000
DIMALT
1070
     1
1070
     0
1002
{
1002
}
1000
DIMALTD
1070
     1
1070
     2
1002
{
1002
}
1000
DIMALTTD
1070
     1
1070
     4
1002
{
1002
}
1000
DIMALTTZ
1070
     1
1070
     0
1002
{
1002
}
1000
DIMALTU
1070
     1
1070
     2
1002
{
1002
}
1000
DIMALTZ
1070
     1
1070
     0
1002
{
1002
}
1000
DIMAPOST
1070
     4
1000

1002
{
1002
}
1000
DIMAUNIT
1070
     1
1070
     0
1002
{
1002
}
1000
DIMBLK
1070
     4
1000

1002
{
1002
}
1000
DIMBLK1
1070
     4
1000

1002
{
1002
}
1000
DIMBLK2
1070
     4
1000

1002
{
1002
}
1000
DIMDLE
1070
     2
1040
0.0
1002
{
1002
}
1000
DIMFIT
1070
     1
1070
     3
1002
{
1002
}
1000
DIMJUST
1070
     1
1070
     0
1002
{
1002
}
1000
DIMLFAC
1070
     2
1040
1.0
1002
{
1002
}
1000
DIMLIM
1070
     1
1070
     0
1002
{
1002
}
1000
DIMPOST
1070
     4
1000
<>
1002
{
1002
}
1000
DIMRND
1070
     2
1040
0.0
1002
{
1002
}
1000
DIMSAH
1070
     1
1070
     0
1002
{
1002
}
1000
DIMSCALE
1070
     2
1040
1.0
1002
{
1002
}
1000
DIMSD1
1070
     1
1070
     0
1002
{
1002
}
1000
DIMSD2
1070
     1
1070
     0
1002
{
1002
}
1000
DIMSE1
1070
     1
1070
     0
1002
{
1002
}
1000
DIMSE2
1070
     1
1070
     0
1002
{
1002
}
1000
DIMSOXD
1070
     1
1070
     0
1002
{
1002
}
1000
DIMTAD
1070
     1
1070
     0
1002
{
1002
}
1000
DIMTFAC
1070
     2
1040
0.71
1002
{
1002
}
1000
DIMTIH
1070
     1
1070
     0
1002
{
1002
}
1000
DIMTIX
1070
     1
1070
     0
1002
{
1002
}
1000
DIMTM
1070
     2
1040
0.1
1002
{
1002
}
1000
DIMTOFL
1070
     1
1070
     0
1002
{
1002
}
1000
DIMTOH
1070
     1
1070
     0
1002
{
1002
}
1000
DIMTOL
1070
     1
1070
     0
1002
{
1002
}
1000
DIMTOLJ
1070
     1
1070
     1
1002
{
1002
}
1000
DIMTP
1070
     2
1040
0.1
1002
{
1002
}
1000
DIMTSZ
1070
     2
1040
0.0
1002
{
1002
}
1000
DIMTVP
1070
     2
1040
0.0
1002
{
1002
}
1000
DIMTXSTY
1070
     4
1000
STANDARD
1002
{
1002
}
1000
DIMTZIN
1070
     1
1070
     0
1002
{
1002
}
1000
DIMUNIT
1070
     1
1070
     2
1002
{
1002
}
1000
DIMUPT
1070
     1
1070
     0
1002
{
1002
}
1000
M
1070
     0
1002
{
1000
DIMALTF
1070
     2
1040
0.03937
1002
{
1002
}
1000
DIMASZ
1070
     2
1040
2.5
1002
{
1002
}
1000
DIMCEN
1070
     2
1040
0.0
1002
{
1002
}
1000
DIMDEC
1070
     1
1070
     2
1002
{
1002
}
1000
DIMDLI
1070
     2
1040
8.0
1002
{
1002
}
1000
DIMEXE
1070
     2
1040
1.0
1002
{
1002
}
1000
DIMEXO
1070
     2
1040
1.0
1002
{
1002
}
1000
DIMGAP
1070
     2
1040
0.6
1002
{
1002
}
1000
DIMTDEC
1070
     1
1070
     3
1002
{
1002
}
1000
DIMTXT
1070
     2
1040
3.5
1002
{
1002
}
1000
DIMZIN
1070
     1
1070
     8
1002
{
1002
}
1002
}
1000
I
1070
     0
1002
{
1000
DIMALTF
1070
     2
1040
25.4
1002
{
1002
}
1000
DIMASZ
1070
     2
1040
0.1
1002
{
1002
}
1000
DIMCEN
1070
     2
1040
0.0
1002
{
1002
}
1000
DIMDEC
1070
     1
1070
     4
1002
{
1002
}
1000
DIMDLI
1070
     2
1040
0.5
1002
{
1002
}
1000
DIMEXE
1070
     2
1040
0.1
1002
{
1002
}
1000
DIMEXO
1070
     2
1040
0.05
1002
{
1002
}
1000
DIMGAP
1070
     2
1040
0.06
1002
{
1002
}
1000
DIMTDEC
1070
     1
1070
     4
1002
{
1002
}
1000
DIMTXT
1070
     2
1040
0.12
1002
{
1002
}
1000
DIMZIN
1070
     1
1070
     7
1002
{
1002
}
1002
}
1000
GEN-ISO
1070
     5
1002
{
1000
NAME
1070
     4
1000
GEN-ISO
1002
{
1002
}
1000
DIMTAD
1070
     1
1070
     1
1002
{
1002
}
1000
DIMTOLJ
1070
     1
1070
     0
1002
{
1002
}
1000
DIMTOFL
1070
     1
1070
     1
1002
{
1002
}
1000
M
1070
     0
1002
{
1002
}
1000
I
1070
     0
1002
{
1002
}
1002
}
1000
GEN-ISO-POS
1070
     5
1002
{
1000
NAME
1070
     4
1000
GEN-ISO-POS
1002
{
1002
}
1000
DIMTOLJ
1070
     1
1070
     0
1002
{
1002
}
1000
M
1070
     0
1002
{
1000
DIMGAP
1070
     2
1040
1.5
1002
{
1002
}
1000
DIMTXT
1070
     2
1040
5.0
1002
{
1002
}
1002
}
1000
I
1070
     0
1002
{
1000
DIMASZ
1070
     2
1040
0.1
1002
{
1002
}
1000
DIMGAP
1070
     2
1040
0.06
1002
{
1002
}
1000
DIMTXT
1070
     2
1040
0.2
1002
{
1002
}
1002
}
1000
DIMSCALE
1070
     2
1040
1.0
1002
{
1002
}
1000
DIMPOST
1070
     4
1000
<>
1002
{
1002
}
1002
}
1000
GEN-ISO-CIR
1070
     5
1002
{
1000
NAME
1070
     4
1000
GEN-ISO$3
1002
{
1002
}
1000
DIMFIT
1070
     1
1070
     0
1002
{
1002
}
1000
DIMTAD
1070
     1
1070
     1
1002
{
1002
}
1000
DIMTIH
1070
     1
1070
     0
1002
{
1002
}
1000
DIMTIX
1070
     1
1070
     0
1002
{
1002
}
1000
DIMTOH
1070
     1
1070
     1
1002
{
1002
}
1000
DIMTOLJ
1070
     1
1070
     0
1002
{
1002
}
1000
DIMTOFL
1070
     1
1070
     0
1002
{
1002
}
1000
DIMUPT
1070
     1
1070
     1
1002
{
1002
}
1000
M
1070
     0
1002
{
1002
}
1000
I
1070
     0
1002
{
1002
}
1000
DIMPOST
1070
     4
1000
<>
1002
{
1002
}
1002
}
1000
GEN-ISO-RAD
1070
     5
1002
{
1000
NAME
1070
     4
1000
GEN-ISO$4
1002
{
1002
}
1000
DIMFIT
1070
     1
1070
     0
1002
{
1002
}
1000
DIMTAD
1070
     1
1070
     1
1002
{
1002
}
1000
DIMTIH
1070
     1
1070
     0
1002
{
1002
}
1000
DIMTIX
1070
     1
1070
     0
1002
{
1002
}
1000
DIMTOH
1070
     1
1070
     1
1002
{
1002
}
1000
DIMTOLJ
1070
     1
1070
     0
1002
{
1002
}
1000
DIMTOFL
1070
     1
1070
     0
1002
{
1002
}
1000
DIMUPT
1070
     1
1070
     1
1002
{
1002
}
1000
M
1070
     0
1002
{
1002
}
1000
I
1070
     0
1002
{
1002
}
1002
}
1000
GEN-ISO-ORD
1070
     5
1002
{
1000
NAME
1070
     4
1000
GEN-ISO$6
1002
{
1002
}
1000
DIMTOLJ
1070
     1
1070
     0
1002
{
1002
}
1000
M
1070
     0
1002
{
1002
}
1000
I
1070
     0
1002
{
1002
}
1002
}
1000
GEN-ISO-AXE-F
1070
     5
1002
{
1000
NAME
1070
     4
1000
GEN-ISO-AXE-F
1002
{
1002
}
1000
DIMSE1
1070
     1
1070
     1
1002
{
1002
}
1000
DIMSE2
1070
     1
1070
     1
1002
{
1002
}
1000
DIMTAD
1070
     1
1070
     1
1002
{
1002
}
1000
DIMTOLJ
1070
     1
1070
     0
1002
{
1002
}
1000
DIMTOFL
1070
     1
1070
     1
1002
{
1002
}
1000
M
1070
     0
1002
{
1002
}
1000
I
1070
     0
1002
{
1002
}
1002
}
1000
GEN-ISO-AXE-H
1070
     5
1002
{
1000
DIMBLK1
1070
     4
1000
GENAXEH
1002
{
1002
}
1000
DIMLFAC
1070
     2
1040
2.0
1002
{
1002
}
1000
DIMSAH
1070
     1
1070
     1
1002
{
1002
}
1000
DIMSE1
1070
     1
1070
     1
1002
{
1002
}
1000
DIMSE2
1070
     1
1070
     1
1002
{
1002
}
1000
DIMTAD
1070
     1
1070
     1
1002
{
1002
}
1000
DIMTOLJ
1070
     1
1070
     0
1002
{
1002
}
1000
DIMTOFL
1070
     1
1070
     1
1002
{
1002
}
1000
M
1070
     0
1002
{
1002
}
1000
I
1070
     0
1002
{
1002
}
1002
}
1000
GEN-ANSI
1070
     5
1002
{
1000
NAME
1070
     4
1000
GEN-ANSI
1002
{
1002
}
1000
DIMTIH
1070
     1
1070
     1
1002
{
1002
}
1000
DIMTOH
1070
     1
1070
     1
1002
{
1002
}
1000
DIMTAD
1070
     1
1070
     0
1002
{
1002
}
1000
DIMTOLJ
1070
     1
1070
     1
1002
{
1002
}
1000
M
1070
     0
1002
{
1002
}
1000
I
1070
     0
1002
{
1002
}
1002
}
1000
GEN-ANSI-POS
1070
     5
1002
{
1000
NAME
1070
     4
1000
GEN-ANSI-POS
1002
{
1002
}
1000
DIMTOLJ
1070
     1
1070
     1
1002
{
1002
}
1000
M
1070
     0
1002
{
1000
DIMASZ
1070
     2
1040
2.5
1002
{
1002
}
1000
DIMGAP
1070
     2
1040
1.5
1002
{
1002
}
1000
DIMTXT
1070
     2
1040
5.0
1002
{
1002
}
1002
}
1000
I
1070
     0
1002
{
1000
DIMASZ
1070
     2
1040
0.1
1002
{
1002
}
1000
DIMGAP
1070
     2
1040
0.06
1002
{
1002
}
1000
DIMTXT
1070
     2
1040
0.2
1002
{
1002
}
1002
}
1002
}
1000
GEN-ANSI-CIR
1070
     5
1002
{
1000
NAME
1070
     4
1000
GEN-ANSI$3
1002
{
1002
}
1000
DIMFIT
1070
     1
1070
     0
1002
{
1002
}
1000
DIMTAD
1070
     1
1070
     0
1002
{
1002
}
1000
DIMTIH
1070
     1
1070
     1
1002
{
1002
}
1000
DIMTIX
1070
     1
1070
     0
1002
{
1002
}
1000
DIMTOFL
1070
     1
1070
     0
1002
{
1002
}
1000
DIMTOH
1070
     1
1070
     1
1002
{
1002
}
1000
DIMTOLJ
1070
     1
1070
     1
1002
{
1002
}
1000
DIMUPT
1070
     1
1070
     1
1002
{
1002
}
1000
M
1070
     0
1002
{
1002
}
1000
I
1070
     0
1002
{
1002
}
1002
}
1000
GEN-ANSI-RAD
1070
     5
1002
{
1000
NAME
1070
     4
1000
GEN-ANSI$4
1002
{
1002
}
1000
DIMFIT
1070
     1
1070
     0
1002
{
1002
}
1000
DIMTAD
1070
     1
1070
     0
1002
{
1002
}
1000
DIMTIH
1070
     1
1070
     1
1002
{
1002
}
1000
DIMTIX
1070
     1
1070
     0
1002
{
1002
}
1000
DIMTOFL
1070
     1
1070
     0
1002
{
1002
}
1000
DIMTOH
1070
     1
1070
     1
1002
{
1002
}
1000
DIMTOLJ
1070
     1
1070
     1
1002
{
1002
}
1000
DIMUPT
1070
     1
1070
     1
1002
{
1002
}
1000
M
1070
     0
1002
{
1002
}
1000
I
1070
     0
1002
{
1002
}
1002
}
1000
GEN-ANSI-ORD
1070
     5
1002
{
1000
NAME
1070
     4
1000
GEN-ANSI$6
1002
{
1002
}
1000
DIMTAD
1070
     1
1070
     0
1002
{
1002
}
1000
DIMTIH
1070
     1
1070
     1
1002
{
1002
}
1000
DIMTOH
1070
     1
1070
     1
1002
{
1002
}
1000
DIMTOLJ
1070
     1
1070
     1
1002
{
1002
}
1000
M
1070
     0
1002
{
1002
}
1000
I
1070
     0
1002
{
1002
}
1002
}
1000
GEN-ANSI-AXE-F
1070
     5
1002
{
1000
NAME
1070
     4
1000
GEN-ANSI-AXE-F
1002
{
1002
}
1000
DIMBLK1
1070
     4
1000
GENAXEH
1002
{
1002
}
1000
DIMSAH
1070
     1
1070
     1
1002
{
1002
}
1000
DIMSE1
1070
     1
1070
     1
1002
{
1002
}
1000
DIMSE2
1070
     1
1070
     1
1002
{
1002
}
1000
DIMTAD
1070
     1
1070
     0
1002
{
1002
}
1000
DIMTIH
1070
     1
1070
     1
1002
{
1002
}
1000
DIMTOH
1070
     1
1070
     1
1002
{
1002
}
1000
DIMTOLJ
1070
     1
1070
     1
1002
{
1002
}
1000
M
1070
     0
1002
{
1002
}
1000
I
1070
     0
1002
{
1002
}
1002
}
1000
GEN-ANSI-AXE-H
1070
     5
1002
{
1000
NAME
1070
     4
1000
GEN-ANSI-AXE-H
1002
{
1002
}
1000
DIMBLK1
1070
     4
1000
GENAXEH
1002
{
1002
}
1000
DIMLFAC
1070
     2
1040
2.0
1002
{
1002
}
1000
DIMSAH
1070
     1
1070
     1
1002
{
1002
}
1000
DIMSE1
1070
     1
1070
     1
1002
{
1002
}
1000
DIMSE2
1070
     1
1070
     1
1002
{
1002
}
1000
DIMTAD
1070
     1
1070
     0
1002
{
1002
}
1000
DIMTOFL
1070
     1
1070
     1
1002
{
1002
}
1000
DIMTOLJ
1070
     1
1070
     1
1002
{
1002
}
1000
M
1070
     0
1002
{
1002
}
1000
I
1070
     0
1002
{
1002
}
1002
}
1000
DIMZIN
1070
     1
1070
     8
1002
{
1002
}
1002
}
1000
DimSet
1070
     0
1002
{
1000
ChainSum
1070
     3
1070
     0
1002
{
1002
}
1000
DimDclTyp0
1070
     4
1000
dim23
1002
{
1002
}
1000
HorBra
1070
     3
1070
     0
1002
{
1002
}
1000
StrDia
1070
     4
1000
%%c<>
1002
{
1002
}
1000
StrRad
1070
     4
1000
R<>
1002
{
1002
}
1000
TextMinus
1070
     4
1000
<>
1002
{
1002
}
1000
TextPlus
1070
     4
1000
<>
1002
{
1002
}
1000
M
1070
     0
1002
{
1000
DimdliFirst
1070
     2
1040
10.0
1002
{
1002
}
1000
PointMakeDist
1070
     2
1040
10.0
1002
{
1002
}
1002
}
1000
I
1070
     0
1002
{
1000
DimdliFirst
1070
     2
1040
0.5
1002
{
1002
}
1000
PointMakeDist
1070
     2
1040
0.5
1002
{
1002
}
1002
}
1002
}
1000
Drawing
1070
     0
1002
{
1000
ChamferDimMode
1070
     1
1070
     2
1002
{
1002
}
1000
Gen_Fiso
1070
    -3
1040
1.0
1002
{
1002
}
1000
GenDimStil
1070
     4
1000
ISO
1002
{
1002
}
1000
GenDwgUScale
1070
     2
1040
1.0
1002
{
1002
}
1000
GenInch
1070
     4
1000
M
1002
{
1002
}
1000
GenPlotScale
1070
     4
1000
1:1
1002
{
1002
}
1000
Revisi
1070
     4
1000
0
1002
{
1002
}
1000
Version
1070
    -5
1000
13.1/May  9 1996
1002
{
1002
}
1000
Platform
1070
    -5
1000
WINNT
1002
{
1002
}
1002
}
1000
DwgVar
1070
     0
1002
{
1000
M
1070
     0
1002
{
1002
}
1000
I
1070
     0
1002
{
1002
}
1002
}
1000
Hatch
1070
     0
1002
{
1000
GenHtcFlag
1070
     3
1070
     0
1002
{
1002
}
1002
}
1000
Info_Pos
1070
     0
1002
{
1000
DescrText
1070
     4
1000
5,6,7,8
1002
{
1002
}
1000
Attrib
1070
     0
1002
{
1000
0
1070
     6
1002
{
1000
Prompt
1070
     4
1000
(genmsg gendwg 103)
1002
{
1002
}
1000
Value
1070
     4
1000

1002
{
1002
}
1000
EditFlag
1070
     1
1070
     0
1002
{
1002
}
1002
}
1000
1
1070
     6
1002
{
1000
Prompt
1070
     4
1000
(genmsg gendwg 31)
1002
{
1002
}
1000
Value
1070
     4
1000
1
1002
{
1002
}
1000
EditFlag
1070
     1
1070
     1
1002
{
1002
}
1002
}
1000
2
1070
     6
1002
{
1000
Prompt
1070
     4
1000
(genmsg gendwg 32)
1002
{
1002
}
1000
Value
1070
     4
1000
1
1002
{
1002
}
1000
EditFlag
1070
     1
1070
     1
1002
{
1002
}
1002
}
1000
3
1070
     6
1002
{
1000
Prompt
1070
     4
1000
(genmsg gendwg 33)
1002
{
1002
}
1000
Value
1070
     4
1000

1002
{
1002
}
1000
EditFlag
1070
     1
1070
     1
1002
{
1002
}
1002
}
1000
4
1070
     6
1002
{
1000
Prompt
1070
     4
1000
(genmsg gendwg 34)
1002
{
1002
}
1000
Value
1070
     4
1000

1002
{
1002
}
1000
EditFlag
1070
     1
1070
     1
1002
{
1002
}
1002
}
1000
5
1070
     6
1002
{
1000
Prompt
1070
     4
1000
(genmsg gendwg 35)
1002
{
1002
}
1000
Value
1070
     4
1000

1002
{
1002
}
1000
EditFlag
1070
     1
1070
     1
1002
{
1002
}
1002
}
1000
6
1070
     6
1002
{
1000
Prompt
1070
     4
1000
(genmsg gendwg 36)
1002
{
1002
}
1000
Value
1070
     4
1000

1002
{
1002
}
1000
EditFlag
1070
     1
1070
     1
1002
{
1002
}
1002
}
1000
7
1070
     6
1002
{
1000
Prompt
1070
     4
1000
(genmsg gendwg 37)
1002
{
1002
}
1000
Value
1070
     4
1000

1002
{
1002
}
1000
EditFlag
1070
     1
1070
     1
1002
{
1002
}
1002
}
1000
8
1070
     6
1002
{
1000
Prompt
1070
     4
1000
(genmsg gendwg 38)
1002
{
1002
}
1000
Value
1070
     4
1000

1002
{
1002
}
1000
EditFlag
1070
     1
1070
     1
1002
{
1002
}
1002
}
1000
9
1070
     6
1002
{
1000
Prompt
1070
     4
1000
(genmsg gendwg 39)
1002
{
1002
}
1000
Value
1070
     4
1000

1002
{
1002
}
1000
EditFlag
1070
     1
1070
     1
1002
{
1002
}
1002
}
1000
10
1070
     6
1002
{
1000
Prompt
1070
     4
1000
(genmsg gendwg 40)
1002
{
1002
}
1000
Value
1070
     4
1000

1002
{
1002
}
1000
EditFlag
1070
     1
1070
     1
1002
{
1002
}
1002
}
1000
11
1070
     6
1002
{
1000
Prompt
1070
     4
1000
(genmsg gendwg 41)
1002
{
1002
}
1000
Value
1070
     4
1000

1002
{
1002
}
1000
EditFlag
1070
     1
1070
     1
1002
{
1002
}
1002
}
1000
12
1070
     6
1002
{
1000
Prompt
1070
     4
1000
(genmsg gendwg 42)
1002
{
1002
}
1000
Value
1070
     4
1000

1002
{
1002
}
1000
EditFlag
1070
     1
1070
     1
1002
{
1002
}
1002
}
1000
13
1070
     6
1002
{
1000
Prompt
1070
     4
1000
(genmsg gendwg 43)
1002
{
1002
}
1000
Value
1070
     4
1000

1002
{
1002
}
1000
EditFlag
1070
     1
1070
     1
1002
{
1002
}
1002
}
1000
14
1070
     6
1002
{
1000
Prompt
1070
     4
1000
(genmsg gendwg 44)
1002
{
1002
}
1000
Value
1070
     4
1000

1002
{
1002
}
1000
EditFlag
1070
     1
1070
     1
1002
{
1002
}
1002
}
1000
15
1070
     6
1002
{
1000
Prompt
1070
     4
1000
(genmsg gendwg 45)
1002
{
1002
}
1000
Value
1070
     4
1000

1002
{
1002
}
1000
EditFlag
1070
     1
1070
     1
1002
{
1002
}
1002
}
1000
16
1070
     6
1002
{
1000
Prompt
1070
     4
1000
(genmsg gendwg 46)
1002
{
1002
}
1000
Value
1070
     4
1000

1002
{
1002
}
1000
EditFlag
1070
     1
1070
     1
1002
{
1002
}
1002
}
1000
17
1070
     6
1002
{
1000
Prompt
1070
     4
1000
(genmsg gendwg 47)
1002
{
1002
}
1000
Value
1070
     4
1000

1002
{
1002
}
1000
EditFlag
1070
     1
1070
     1
1002
{
1002
}
1002
}
1000
18
1070
     6
1002
{
1000
Prompt
1070
     4
1000
(genmsg gendwg 48)
1002
{
1002
}
1000
Value
1070
     4
1000

1002
{
1002
}
1000
EditFlag
1070
     1
1070
     1
1002
{
1002
}
1002
}
1000
19
1070
     6
1002
{
1000
Prompt
1070
     4
1000
(genmsg gendwg 99)
1002
{
1002
}
1000
Value
1070
     4
1000

1002
{
1002
}
1000
EditFlag
1070
     1
1070
     1
1002
{
1002
}
1002
}
1000
20
1070
     6
1002
{
1000
Prompt
1070
     4
1000
(genmsg gendwg 100)
1002
{
1002
}
1000
Value
1070
     4
1000

1002
{
1002
}
1000
EditFlag
1070
     1
1070
     1
1002
{
1002
}
1002
}
1000
21
1070
     6
1002
{
1000
Prompt
1070
     4
1000
(genmsg gendwg 101)
1002
{
1002
}
1000
Value
1070
     4
1000

1002
{
1002
}
1000
EditFlag
1070
     1
1070
     1
1002
{
1002
}
1002
}
1000
22
1070
     6
1002
{
1000
Prompt
1070
     4
1000
(genmsg gendwg 102)
1002
{
1002
}
1000
Value
1070
     4
1000

1002
{
1002
}
1000
EditFlag
1070
     1
1070
     1
1002
{
1002
}
1002
}
1000
23
1070
     6
1002
{
1000
Prompt
1070
     4
1000
(genmsg gendwg 30)
1002
{
1002
}
1000
Value
1070
     4
1000

1002
{
1002
}
1000
EditFlag
1070
     1
1070
     1
1002
{
1002
}
1002
}
1000
24
1070
     6
1002
{
1000
Prompt
1070
     4
1000
(genmsg gendwg 104)
1002
{
1002
}
1000
Value
1070
     4
1000

1002
{
1002
}
1000
EditFlag
1070
     1
1070
     1
1002
{
1002
}
1002
}
1002
}
1000
Xlate
1070
     0
1002
{
1000
>
1002
}
1002
}
1000
Layer
1070
     7
1002
{
1000
Defs
1070
     0
1002
{
1000
>
1002
}
1000
EntSort
1070
     0
1002
{
1000
>
1002
}
1000
Match
1070
     0
1002
{
1002
}
1000
Settings
1070
     0
1002
{
1000
FocGrNC
1070
     3
1070
     0
1002
{
1002
}
1000
FocGrLo
1070
     3
1070
     0
1002
{
1002
}
1000
FocLoNC
1070
     3
1070
     0
1002
{
1002
}
1000
FocusCol
1070
     1
1070
   253
1002
{
1002
}
1000
GenStdLG
1070
     4
1000

1002
{
1002
}
1000
LayMatch
1070
     3
1070
     0
1002
{
1002
}
1000
LgOff
1070
     3
1070
     0
1002
{
1002
}
1000
CurLG
1070
    -5
1000
MSL1_60_3F
1002
{
1002
}
1002
}
1002
}
1000
LType
1070
     0
1002
{
1000
GEN3
1070
     8
1000
genius.lin
1002
{
1002
}
1000
GEN7
1070
     8
1000
genius.lin
1002
{
1002
}
1000
GEN4A
1070
     8
1000
genius.lin
1002
{
1002
}
1000
GEN3A
1070
     8
1000
genius.lin
1002
{
1002
}
1000
GEN7A
1070
     8
1000
genius.lin
1002
{
1002
}
1000
GENZIGZAG
1070
     8
1000
genius.lin
1002
{
1002
}
1002
}
1000
Objecter
1070
     0
1002
{
1000
CreateGroups
1070
     3
1070
     0
1002
{
1002
}
1000
LaySwitch
1070
     3
1070
     1
1002
{
1002
}
1000
LastObj
1070
    -5
1000
740D
1002
{
1002
}
1002
}
1000
OSWiz
1070
     0
1002
{
1000
>
1002
}
1000
PaList
1070
     0
1002
{
1000
AutoUpdatePartList
1070
     3
1070
     0
1002
{
1002
}
1000
ReadInfoPoint
1070
     3
1070
     0
1002
{
1002
}
1000
ReadPosNr
1070
     3
1070
     1
1002
{
1002
}
1000
RevStr
1070
     4
1000
0
1002
{
1002
}
1000
rebuildpending
1070
    -4
1070
     1
1002
{
1002
}
1000
rebuildpendingtime
1070
    -5
1000
892730643
1002
{
1002
}
1002
}
1000
Paper
1070
     0
1002
{
1000
Layer
1070
    -5
1000
MSL1_40_3F-5,KLIN,5,5,MSL_1_20-7A,8,7A,5,4,3,KLIN
1002
{
1002
}
1002
}
1000
PartDB
1070
     0
1002
{
1000
GenDbOwner
1070
     4
1000

1002
{
1002
}
1002
}
1000
System
1070
     0
1002
{
1000
Menu
1070
     4
1000
GEV
1002
{
1002
}
1002
}
1000
Title
1070
     0
1002
{
1000
MakeView
1070
     1
1070
     2
1002
{
1002
}
1002
}
  0
APPID
  5
C4E
100
AcDbSymbolTableRecord
100
AcDbRegAppTableRecord
  2
GENIUS_GEFCFG0_13
 70
     0
1001
GENIUS_GENCFG_13
1071
889831366
1000
C4E
1000
GEF
1070
     5
1000
GenCfgObject
1000
GenCfgString
1000
GenCfgReal
1000
GenCfgShort
1000
GenCfgBool
1000
System
1070
     0
1002
{
1002
}
1000
Prese
1070
     0
1002
{
1000
Funk
1070
     1
1000

1002
{
1002
}
1000
FunkDef
1070
     1
1000

1002
{
1002
}
1000
GefIso
1070
     1
1000
DIN
1002
{
1002
}
1002
}
1000
FEM
1070
     0
1002
{
1000
LayGroup
1070
     1
1000
FEM
1002
{
1002
}
1000
IncrCoef
1070
     2
1040
0.0
1002
{
1002
}
1002
}
1000
Shaft
1070
     0
1002
{
1000
Interrupt
1070
     3
1070
     0
1002
{
1002
}
1002
}
1000
PartDb
1070
     0
1002
{
1000
PartCreate
1070
     0
1002
{
1002
}
1002
}
1000
Symbol
1070
     0
1002
{
1000
WeldStyle
1070
     1
1000
ISO
1002
{
1002
}
1000
WeldSize
1070
     2
1040
1.0
1002
{
1002
}
1000
WeldFlag
1070
     4
1070
     1
1002
{
1002
}
1000
WeldOffset
1070
     4
1070
     1
1002
{
1002
}
1000
TolCType
1070
     1
1000
ISO
1002
{
1002
}
1000
TolCSize
1070
     2
1040
1.0
1002
{
1002
}
1000
STextureSize
1070
     2
1040
1.0
1002
{
1002
}
1000
SurfaceType
1070
     1
1000

1002
{
1002
}
1000
M
1070
     0
1002
{
1000
WeldWidth
1070
     2
1040
3.0
1002
{
1002
}
1002
}
1000
I
1070
     0
1002
{
1000
WeldWidth
1070
     2
1040
0.125
1002
{
1002
}
1002
}
1002
}
  0
APPID
  5
13B5
100
AcDbSymbolTableRecord
100
AcDbRegAppTableRecord
  2
GENIUS_GENOENT_13
 70
     0
1001
GENIUS_GENOBJ_13
1070
     0
  0
APPID
  5
1402
100
AcDbSymbolTableRecord
100
AcDbRegAppTableRecord
  2
GENIUS_GENODEF_13
 70
     0
1001
GENIUS_GENOBJ_13
1070
     0
  0
APPID
  5
1403
100
AcDbSymbolTableRecord
100
AcDbRegAppTableRecord
  2
GENIUS_GENOBJ-N-CEN_13
 70
     0
  0
APPID
  5
15FF
100
AcDbSymbolTableRecord
100
AcDbRegAppTableRecord
  2
GEV_VCCNULL_SWITCH_OFF
 70
     0
  0
APPID
  5
1600
100
AcDbSymbolTableRecord
100
AcDbRegAppTableRecord
  2
GENIUS_GENDTOL_13
 70
     0
  0
APPID
  5
1639
100
AcDbSymbolTableRecord
100
AcDbRegAppTableRecord
  2
GENIUS_GENDREL_13
 70
     0
  0
APPID
  5
2251
100
AcDbSymbolTableRecord
100
AcDbRegAppTableRecord
  2
GENIUS_GENOBJ-N-HTC_13
 70
     0
  0
APPID
  5
2252
100
AcDbSymbolTableRecord
100
AcDbRegAppTableRecord
  2
GENIUS_GENHATCH_13
 70
     0
  0
APPID
  5
2351
100
AcDbSymbolTableRecord
100
AcDbRegAppTableRecord
  2
GENIUS_GENOBJ_13
 70
     0
1001
GENIUS_GENODEF_13
1070
     0
1001
GENIUS_GENOENT_13
1070
     0
1001
GENIUS_GENOLIS_13
1070
     0
1001
GENIUS_GENOREF_13
1070
     0
1001
GENIUS_GENOBJ-N-SEC_13
1070
     0
1001
GENIUS_GENOBJ-F-TOL_13
1070
     0
1001
GENIUS_GENOBJ-N-RSSYM_13
1070
     1
1001
GENIUS_GENSYMENT_13
1070
     1
1001
GENIUS_GENOBJ-N-TIT_13
1070
     0
1001
GENIUS_GENTITLE_13
1070
     0
1001
GENIUS_GENZVEED_13
1070
     1
1001
GENIUS_GENOBJ-NBEHI-BHF_13
1070
     0
1001
GENIUS_GENOBJ-NBEHI-BHB_13
1070
     0
1001
GENIUS_GENBH_13
1070
     1
1001
GENIUS_GENOBJ-N-CRS_13
1070
     0
  0
APPID
  5
2352
100
AcDbSymbolTableRecord
100
AcDbRegAppTableRecord
  2
GENIUS_GENOLIS_13
 70
     0
1001
GENIUS_GENOBJ_13
1070
     0
  0
APPID
  5
2353
100
AcDbSymbolTableRecord
100
AcDbRegAppTableRecord
  2
GENIUS_GENOREF_13
 70
     0
1001
GENIUS_GENOBJ_13
1070
     0
  0
APPID
  5
2354
100
AcDbSymbolTableRecord
100
AcDbRegAppTableRecord
  2
GENIUS_GENOBJ-N-SEC_13
 70
     0
1001
GENIUS_GENOBJ_13
1070
     0
  0
APPID
  5
2658
100
AcDbSymbolTableRecord
100
AcDbRegAppTableRecord
  2
GENIUS_GENDIM_13
 70
     0
  0
APPID
  5
2666
100
AcDbSymbolTableRecord
100
AcDbRegAppTableRecord
  2
GENIUS_GENOBJ-N-DIS_13
 70
     0
  0
APPID
  5
26D5
100
AcDbSymbolTableRecord
100
AcDbRegAppTableRecord
  2
GENIUS_GENOBJ-N-FIL_13
 70
     0
  0
APPID
  5
2A8A
100
AcDbSymbolTableRecord
100
AcDbRegAppTableRecord
  2
GENIUS_GENHINW_13
 70
     0
  0
APPID
  5
2AB1
100
AcDbSymbolTableRecord
100
AcDbRegAppTableRecord
  2
GENIUS_GEFTOLC_13
 70
     0
  0
APPID
  5
2AB2
100
AcDbSymbolTableRecord
100
AcDbRegAppTableRecord
  2
GENIUS_GENOBJ-F-TOL_13
 70
     0
1001
GENIUS_GENOBJ_13
1070
     0
  0
APPID
  5
2AB4
100
AcDbSymbolTableRecord
100
AcDbRegAppTableRecord
  2
GENIUS_GENOBJ-N-RSSYM_13
 70
     0
1001
GENIUS_GENOBJ_13
1070
     1
  0
APPID
  5
2AB5
100
AcDbSymbolTableRecord
100
AcDbRegAppTableRecord
  2
GENIUS_GENSYMENT_13
 70
     0
1001
GENIUS_GENOBJ_13
1070
     1
  0
APPID
  5
2AB6
100
AcDbSymbolTableRecord
100
AcDbRegAppTableRecord
  2
GENIUS_GENSCSYM_13
 70
     0
  0
APPID
  5
4584
100
AcDbSymbolTableRecord
100
AcDbRegAppTableRecord
  2
GENIUS_GENOBJ-N-TIT_13
 70
     0
1001
GENIUS_GENOBJ_13
1070
     0
  0
APPID
  5
4585
100
AcDbSymbolTableRecord
100
AcDbRegAppTableRecord
  2
GENIUS_GENTITLE_13
 70
     0
1001
GENIUS_GENOBJ_13
1070
     0
  0
APPID
  5
4587
100
AcDbSymbolTableRecord
100
AcDbRegAppTableRecord
  2
GENIUS_GENZVEED_13
 70
     0
1001
GENIUS_GENOBJ_13
1070
     1
  0
APPID
  5
4588
100
AcDbSymbolTableRecord
100
AcDbRegAppTableRecord
  2
GENIUS_GENOBJ-N-SDF_13
 70
     0
  0
APPID
  5
4589
100
AcDbSymbolTableRecord
100
AcDbRegAppTableRecord
  2
GENIUS_GENSCREG_13
 70
     0
  0
APPID
  5
60C5
100
AcDbSymbolTableRecord
100
AcDbRegAppTableRecord
  2
GENIUS_GENOBJ-N-DIM_13
 70
    64
  0
APPID
  5
60C6
100
AcDbSymbolTableRecord
100
AcDbRegAppTableRecord
  2
GENIUS_GENOBJ-N-CRS_13
 70
    64
1001
GENIUS_GENOBJ_13
1070
     0
  0
APPID
  5
60C7
100
AcDbSymbolTableRecord
100
AcDbRegAppTableRecord
  2
GENIUS_GENCFG5_13
 70
    64
1001
GENIUS_GENCFG_13
1071
891850170
1000
60C7
1000
GEN@CONSTRAINTS
1070
     9
1000
GenCfgObject
1000
GenCfgShort
1000
GenCfgReal
1000
GenCfgBool
1000
GenCfgString
1000
GenCfgDim
1000
GenCfgAttrInf
1000
GenCfgLaySection
1000
GenCfgLType
1000
Color
1070
     0
1002
{
1000
Active_Frame
1070
     1
1070
     2
1002
{
1002
}
1000
Inactive_Frame
1070
     1
1070
     8
1002
{
1002
}
1002
}
1000
Debug
1070
     0
1002
{
1002
}
1000
Editor
1070
     0
1002
{
1002
}
1000
Frame
1070
     0
1002
{
1002
}
1000
Sys
1070
     0
1002
{
1002
}
  0
APPID
  5
60C8
100
AcDbSymbolTableRecord
100
AcDbRegAppTableRecord
  2
GENIUS_GENINF13_13
 70
     0
  0
APPID
  5
60C9
100
AcDbSymbolTableRecord
100
AcDbRegAppTableRecord
  2
GENIUS_GENOBJ-N-INFOPT_13
 70
     0
  0
APPID
  5
73E7
100
AcDbSymbolTableRecord
100
AcDbRegAppTableRecord
  2
GENIUS_GENREC_13
 70
     0
  0
APPID
  5
73E8
100
AcDbSymbolTableRecord
100
AcDbRegAppTableRecord
  2
GENIUS_GENOBJ-N-REC_13
 70
     0
  0
APPID
  5
73E9
100
AcDbSymbolTableRecord
100
AcDbRegAppTableRecord
  2
GENIUS_GENBH_13
 70
     0
1001
GENIUS_GENOBJ_13
1070
     1
  0
APPID
  5
73EE
100
AcDbSymbolTableRecord
100
AcDbRegAppTableRecord
  2
GENIUS_GENOBJ-NBEHI-BHF_13
 70
     0
1001
GENIUS_GENOBJ_13
1070
     0
  0
APPID
  5
73F0
100
AcDbSymbolTableRecord
100
AcDbRegAppTableRecord
  2
GENIUS_GENOBJ-NBEHI-BHB_13
 70
     0
1001
GENIUS_GENOBJ_13
1070
     0
  0
ENDTAB
  0
TABLE
  2
DIMSTYLE
  5
A
100
AcDbSymbolTable
 70
     2
  0
DIMSTYLE
105
1D
100
AcDbSymbolTableRecord
100
AcDbDimStyleTableRecord
  2
STANDARD
 70
     0
  3

  4

  5

  6

  7

 40
1.0
 41
0.18
 42
0.0625
 43
0.38
 44
0.18
 45
0.0
 46
0.0
 47
0.0
 48
0.0
140
0.18
141
0.09
142
0.0
143
25.4
144
1.0
145
0.0
146
1.0
147
0.09
 71
     0
 72
     0
 73
     1
 74
     1
 75
     0
 76
     0
 77
     0
 78
     0
170
     0
171
     2
172
     0
173
     0
174
     0
175
     0
176
     0
177
     0
178
     0
270
     2
271
     4
272
     4
273
     2
274
     2
340
10
275
     0
280
     0
281
     0
282
     0
283
     1
284
     0
285
     0
286
     0
287
     3
288
     0
  0
DIMSTYLE
105
478
100
AcDbSymbolTableRecord
100
AcDbDimStyleTableRecord
  2
GEN-ISO
 70
     0
  3
<>
  4

  5

  6

  7

 40
1.0
 41
2.5
 42
1.0
 43
8.0
 44
1.0
 45
0.0
 46
0.0
 47
0.1
 48
0.1
140
3.5
141
0.0
142
0.0
143
0.03937
144
1.0
145
0.0
146
0.71
147
0.6
 71
     0
 72
     0
 73
     0
 74
     0
 75
     0
 76
     0
 77
     1
 78
     8
170
     0
171
     2
172
     1
173
     0
174
     0
175
     0
176
   256
177
   256
178
     2
270
     2
271
     2
272
     3
273
     2
274
     4
340
10
275
     0
280
     0
281
     0
282
     0
283
     0
284
     0
285
     0
286
     0
287
     3
288
     0
  0
ENDTAB
  0
TABLE
  2
BLOCK_RECORD
  5
1
100
AcDbSymbolTable
 70
     1
  0
BLOCK_RECORD
  5
1A
100
AcDbSymbolTableRecord
100
AcDbBlockTableRecord
  2
*MODEL_SPACE
  0
BLOCK_RECORD
  5
17
100
AcDbSymbolTableRecord
100
AcDbBlockTableRecord
  2
*PAPER_SPACE
  0
BLOCK_RECORD
  5
5D14
100
AcDbSymbolTableRecord
100
AcDbBlockTableRecord
  2
GENINF13
  0
ENDTAB
  0
ENDSEC
  0
SECTION
  2
BLOCKS
  0
BLOCK
  5
1B
100
AcDbEntity
  8
0
100
AcDbBlockBegin
  2
*MODEL_SPACE
 70
     0
 10
0.0
 20
0.0
 30
0.0
  3
*MODEL_SPACE
  1

  0
ENDBLK
  5
1C
100
AcDbEntity
  8
0
100
AcDbBlockEnd
  0
BLOCK
  5
18
100
AcDbEntity
 67
     1
  8
0
100
AcDbBlockBegin
  2
*PAPER_SPACE
 70
     0
 10
0.0
 20
0.0
 30
0.0
  3
*PAPER_SPACE
  1

  0
ENDBLK
  5
19
100
AcDbEntity
 67
     1
  8
0
100
AcDbBlockEnd
  0
BLOCK
  5
5D39
100
AcDbEntity
  8
0
100
AcDbBlockBegin
  2
GENINF13
 70
    66
 10
0.0
 20
0.0
 30
0.0
  3
GENINF13
  1
GENINF13
  0
CIRCLE
  5
5D15
100
AcDbEntity
  8
INFO
100
AcDbCircle
 10
-0.107946
 20
1.312244
 30
0.0
 40
0.339067
  0
CIRCLE
  5
5D16
100
AcDbEntity
  8
INFO
100
AcDbCircle
 10
0.0
 20
0.0
 30
0.0
 40
1.920194
  0
LINE
  5
5D17
100
AcDbEntity
  8
INFO
100
AcDbLine
 10
0.411344
 20
0.70683
 30
0.0
 11
-0.700006
 21
0.70683
 31
0.0
  0
LINE
  5
5D18
100
AcDbEntity
  8
INFO
100
AcDbLine
 10
0.829904
 20
-1.341535
 30
0.0
 11
0.829904
 21
-0.555367
 31
0.0
  0
LINE
  5
5D19
100
AcDbEntity
  8
INFO
100
AcDbLine
 10
0.829904
 20
-0.555367
 30
0.0
 11
0.411344
 21
-0.555367
 31
0.0
  0
LINE
  5
5D1A
100
AcDbEntity
  8
INFO
100
AcDbLine
 10
0.411344
 20
-0.555367
 30
0.0
 11
0.411344
 21
0.70683
 31
0.0
  0
LINE
  5
5D1B
100
AcDbEntity
  8
INFO
100
AcDbLine
 10
-0.700006
 20
0.70683
 30
0.0
 11
-0.700006
 21
0.122613
 31
0.0
  0
LINE
  5
5D1C
100
AcDbEntity
  8
INFO
100
AcDbLine
 10
-0.700006
 20
0.122613
 30
0.0
 11
-0.375261
 21
0.122613
 31
0.0
  0
LINE
  5
5D1D
100
AcDbEntity
  8
INFO
100
AcDbLine
 10
-0.375261
 20
0.122613
 30
0.0
 11
-0.375261
 21
-0.555367
 31
0.0
  0
LINE
  5
5D1E
100
AcDbEntity
  8
INFO
100
AcDbLine
 10
-0.375261
 20
-0.555367
 30
0.0
 11
-0.801038
 21
-0.555367
 31
0.0
  0
LINE
  5
5D1F
100
AcDbEntity
  8
INFO
100
AcDbLine
 10
-0.801038
 20
-0.555367
 30
0.0
 11
-0.801038
 21
-1.341535
 31
0.0
  0
LINE
  5
5D20
100
AcDbEntity
  8
INFO
100
AcDbLine
 10
-0.801038
 20
-1.341535
 30
0.0
 11
0.829904
 21
-1.341535
 31
0.0
  0
ATTDEF
  5
5D21
100
AcDbEntity
  8
INFO
100
AcDbText
 10
0.0
 20
0.0
 30
0.0
 40
1.0
  1
1
100
AcDbAttributeDefinition
  3
Menge
  2
2GENINF
 70
     1
  0
ATTDEF
  5
5D22
100
AcDbEntity
  8
INFO
100
AcDbText
 10
0.0
 20
-1.5
 30
0.0
 40
1.0
  1

100
AcDbAttributeDefinition
  3
Stücklisten-Name
  2
3GENINF
 70
     1
  0
ATTDEF
  5
5D23
100
AcDbEntity
  8
INFO
100
AcDbText
 10
0.0
 20
-3.0
 30
0.0
 40
1.0
  1

100
AcDbAttributeDefinition
  3
Stücklisten-Pfad
  2
4GENINF
 70
     1
  0
ATTDEF
  5
5D24
100
AcDbEntity
  8
INFO
100
AcDbText
 10
0.0
 20
-4.5
 30
0.0
 40
1.0
  1

100
AcDbAttributeDefinition
  3
Beschreibung 1
  2
5GENINF
 70
     1
  0
ATTDEF
  5
5D25
100
AcDbEntity
  8
INFO
100
AcDbText
 10
0.0
 20
-6.0
 30
0.0
 40
1.0
  1

100
AcDbAttributeDefinition
  3
Beschreibung 2
  2
6GENINF
 70
     1
  0
ATTDEF
  5
5D26
100
AcDbEntity
  8
INFO
100
AcDbText
 10
0.0
 20
-7.5
 30
0.0
 40
1.0
  1

100
AcDbAttributeDefinition
  3
Norm/Lieferant 1
  2
7GENINF
 70
     1
  0
ATTDEF
  5
5D27
100
AcDbEntity
  8
INFO
100
AcDbText
 10
0.0
 20
-9.0
 30
0.0
 40
1.0
  1

100
AcDbAttributeDefinition
  3
Norm/Lieferant 2
  2
8GENINF
 70
     1
  0
ATTDEF
  5
5D28
100
AcDbEntity
  8
INFO
100
AcDbText
 10
0.0
 20
-10.5
 30
0.0
 40
1.0
  1

100
AcDbAttributeDefinition
  3
Material 1
  2
9GENINF
 70
     1
  0
ATTDEF
  5
5D29
100
AcDbEntity
  8
INFO
100
AcDbText
 10
0.0
 20
-12.0
 30
0.0
 40
1.0
  1

100
AcDbAttributeDefinition
  3
Material 2
  2
10GENINF
 70
     1
  0
ATTDEF
  5
5D2A
100
AcDbEntity
  8
INFO
100
AcDbText
 10
0.0
 20
-13.5
 30
0.0
 40
1.0
  1

100
AcDbAttributeDefinition
  3
Identnummer
  2
11GENINF
 70
     1
  0
ATTDEF
  5
5D2B
100
AcDbEntity
  8
INFO
100
AcDbText
 10
0.0
 20
-15.0
 30
0.0
 40
1.0
  1

100
AcDbAttributeDefinition
  3
Gewicht
  2
12GENINF
 70
     1
  0
ATTDEF
  5
5D2C
100
AcDbEntity
  8
INFO
100
AcDbText
 10
0.0
 20
-16.5
 30
0.0
 40
1.0
  1

100
AcDbAttributeDefinition
  3
Preis
  2
13GENINF
 70
     1
  0
ATTDEF
  5
5D2D
100
AcDbEntity
  8
INFO
100
AcDbText
 10
0.0
 20
-18.0
 30
0.0
 40
1.0
  1

100
AcDbAttributeDefinition
  3
Abmessungen
  2
14GENINF
 70
     1
  0
ATTDEF
  5
5D2E
100
AcDbEntity
  8
INFO
100
AcDbText
 10
0.0
 20
-19.5
 30
0.0
 40
1.0
  1

100
AcDbAttributeDefinition
  3
User 1
  2
15GENINF
 70
     1
  0
ATTDEF
  5
5D2F
100
AcDbEntity
  8
INFO
100
AcDbText
 10
0.0
 20
-21.0
 30
0.0
 40
1.0
  1

100
AcDbAttributeDefinition
  3
User 2
  2
16GENINF
 70
     1
  0
ATTDEF
  5
5D30
100
AcDbEntity
  8
INFO
100
AcDbText
 10
0.0
 20
-22.5
 30
0.0
 40
1.0
  1

100
AcDbAttributeDefinition
  3
User 3
  2
17GENINF
 70
     1
  0
ATTDEF
  5
5D31
100
AcDbEntity
  8
INFO
100
AcDbText
 10
0.0
 20
-24.0
 30
0.0
 40
1.0
  1

100
AcDbAttributeDefinition
  3
User 4
  2
18GENINF
 70
     1
  0
ATTDEF
  5
5D32
100
AcDbEntity
  8
INFO
100
AcDbText
 10
0.0
 20
-25.5
 30
0.0
 40
1.0
  1

100
AcDbAttributeDefinition
  3
User 5
  2
19GENINF
 70
     1
  0
ATTDEF
  5
5D33
100
AcDbEntity
  8
INFO
100
AcDbText
 10
0.0
 20
-27.0
 30
0.0
 40
1.0
  1

100
AcDbAttributeDefinition
  3
User 6
  2
20GENINF
 70
     1
  0
ATTDEF
  5
5D34
100
AcDbEntity
  8
INFO
100
AcDbText
 10
0.0
 20
-28.5
 30
0.0
 40
1.0
  1

100
AcDbAttributeDefinition
  3
User 7
  2
21GENINF
 70
     1
  0
ATTDEF
  5
5D35
100
AcDbEntity
  8
INFO
100
AcDbText
 10
0.0
 20
-30.0
 30
0.0
 40
1.0
  1

100
AcDbAttributeDefinition
  3
User 8
  2
22GENINF
 70
     1
  0
ATTDEF
  5
5D36
100
AcDbEntity
  8
INFO
100
AcDbText
 10
0.0
 20
-31.5
 30
0.0
 40
1.0
  1

100
AcDbAttributeDefinition
  3
Filter
  2
23GENINF
 70
     1
  0
ATTDEF
  5
5D37
100
AcDbEntity
  8
INFO
100
AcDbText
 10
0.0
 20
-33.0
 30
0.0
 40
1.0
  1

100
AcDbAttributeDefinition
  3
Bemerkung
  2
24GENINF
 70
     1
  0
ATTDEF
  5
5D38
100
AcDbEntity
  8
INFO
100
AcDbText
 10
0.0
 20
-34.5
 30
0.0
 40
1.0
  1

100
AcDbAttributeDefinition
  3
Genius Normteile ID
  2
0GENINF
 70
     1
  0
ENDBLK
  5
5D3A
100
AcDbEntity
  8
0
100
AcDbBlockEnd
  0
ENDSEC
  0
SECTION
  2
ENTITIES
  0
LINE
  5
6CA5
100
AcDbEntity
  8
MSL1_60_3F-0
100
AcDbLine
 10
-685.353814
 20
75.926727
 30
0.0
 11
-690.54924
 21
75.926727
 31
0.0
  0
LINE
  5
6CA6
100
AcDbEntity
  8
MSL1_60_3F-0
100
AcDbLine
 10
-691.834816
 20
75.458816
 30
0.0
 11
-713.639389
 21
57.162606
 31
0.0
  0
LINE
  5
6CA7
100
AcDbEntity
  8
MSL1_60_3F-0
100
AcDbLine
 10
-714.353814
 20
55.630517
 30
0.0
 11
-714.353814
 21
55.257725
 31
0.0
  0
ARC
  5
6CAC
100
AcDbEntity
  8
MSL1_60_3F-0
100
AcDbCircle
 10
-712.353814
 20
55.630517
 30
0.0
 40
2.0
100
AcDbArc
 50
130.0
 51
180.0
1001
GENIUS_GENODEF_13
1002
{
1000
HIER
1070
     0
1002
}
1002
{
1000
MANEDIT
1070
     0
1002
}
1002
{
1000
NOSEL
1070
     0
1002
}
1002
{
1000
BEHIND
1070
     0
1002
}
1002
{
1000
REACTOR
1002
}
1001
GENIUS_GENOBJ-N-FIL_13
1002
{
1000
OWNER
1000
GEN
1002
}
  0
ARC
  5
6CB0
100
AcDbEntity
  8
MSL1_60_3F-0
100
AcDbCircle
 10
-690.54924
 20
73.926727
 30
0.0
 40
2.0
100
AcDbArc
 50
90.0
 51
130.0
1001
GENIUS_GENODEF_13
1002
{
1000
HIER
1070
     0
1002
}
1002
{
1000
MANEDIT
1070
     0
1002
}
1002
{
1000
NOSEL
1070
     0
1002
}
1002
{
1000
BEHIND
1070
     0
1002
}
1002
{
1000
REACTOR
1002
}
1001
GENIUS_GENOBJ-N-FIL_13
1002
{
1000
OWNER
1000
GEN
1002
}
  0
LINE
  5
6CB1
100
AcDbEntity
  8
MSL1_60_3F-7A
100
AcDbLine
 10
-701.68394
 20
65.497389
 30
0.0
 11
-702.712401
 21
66.72306
 31
0.0
1001
GENIUS_GENODEF_13
1002
{
1000
HIER
1070
     0
1002
}
1002
{
1000
MANEDIT
1070
     0
1002
}
1002
{
1000
NOSEL
1070
     0
1002
}
1002
{
1000
BEHIND
1070
     0
1002
}
1002
{
1000
REACTOR
1002
}
1001
GENIUS_GENOBJ-N-CEN_13
1002
{
1000
OWNER
1000
GEN
1002
}
  0
LINE
  5
6CB2
100
AcDbEntity
  8
MSL1_60_3F-0
100
AcDbLine
 10
-707.239088
 20
61.227689
 30
0.0
 11
-707.881875
 21
61.993734
 31
0.0
  0
LINE
  5
6CB3
100
AcDbEntity
  8
MSL1_60_3F-0
100
AcDbLine
 10
-696.514466
 20
70.226716
 30
0.0
 11
-697.157253
 21
70.99276
 31
0.0
  0
LINE
  5
6CBB
100
AcDbEntity
  8
MSL1_60_3F-0
100
AcDbLine
 10
-678.872813
 20
75.458816
 30
0.0
 11
-657.068239
 21
57.162606
 31
0.0
  0
LINE
  5
6CBD
100
AcDbEntity
  8
MSL1_60_3F-0
100
AcDbLine
 10
-656.353814
 20
55.630517
 30
0.0
 11
-656.353814
 21
55.257725
 31
0.0
  0
ARC
  5
6CC7
100
AcDbEntity
  8
MSL1_60_3F-0
100
AcDbCircle
 10
-658.353814
 20
55.630517
 30
0.0
 40
2.0
100
AcDbArc
 50
0.0
 51
50.0
1001
GENIUS_GENODEF_13
1002
{
1000
HIER
1070
     0
1002
}
1002
{
1000
MANEDIT
1070
     0
1002
}
1002
{
1000
NOSEL
1070
     0
1002
}
1002
{
1000
BEHIND
1070
     0
1002
}
1002
{
1000
REACTOR
1002
}
1001
GENIUS_GENOBJ-N-FIL_13
1002
{
1000
OWNER
1000
GEN
1002
}
  0
LINE
  5
6CC8
100
AcDbEntity
  8
MSL1_60_3F-3
100
AcDbLine
 10
-663.468541
 20
61.227689
 30
0.0
 11
-662.825753
 21
61.993734
 31
0.0
  0
LINE
  5
6CC9
100
AcDbEntity
  8
MSL1_60_3F-7A
100
AcDbLine
 10
-669.023688
 20
65.497389
 30
0.0
 11
-667.995228
 21
66.72306
 31
0.0
1001
GENIUS_GENODEF_13
1002
{
1000
HIER
1070
     0
1002
}
1002
{
1000
MANEDIT
1070
     0
1002
}
1002
{
1000
NOSEL
1070
     0
1002
}
1002
{
1000
BEHIND
1070
     0
1002
}
1002
{
1000
REACTOR
1002
}
1001
GENIUS_GENOBJ-N-CEN_13
1002
{
1000
OWNER
1000
GEN
1002
}
  0
LINE
  5
6CCB
100
AcDbEntity
  8
MSL1_60_3F-3
100
AcDbLine
 10
-674.193163
 20
70.226716
 30
0.0
 11
-673.550375
 21
70.99276
 31
0.0
  0
LINE
  5
6CCC
100
AcDbEntity
  8
MSL1_60_3F-0
100
AcDbLine
 10
-690.913211
 20
74.926727
 30
0.0
 11
-679.794418
 21
74.926727
 31
0.0
  0
LINE
  5
6CCD
100
AcDbEntity
  8
MSL1_60_3F-0
100
AcDbLine
 10
-685.353814
 20
75.926727
 30
0.0
 11
-680.158388
 21
75.926727
 31
0.0
  0
ARC
  5
6CCF
100
AcDbEntity
  8
MSL1_60_3F-0
100
AcDbCircle
 10
-680.158388
 20
73.926727
 30
0.0
 40
2.0
100
AcDbArc
 50
50.0
 51
90.0
1001
GENIUS_GENODEF_13
1002
{
1000
HIER
1070
     0
1002
}
1002
{
1000
MANEDIT
1070
     0
1002
}
1002
{
1000
NOSEL
1070
     0
1002
}
1002
{
1000
BEHIND
1070
     0
1002
}
1002
{
1000
REACTOR
1002
}
1001
GENIUS_GENOBJ-N-FIL_13
1002
{
1000
OWNER
1000
GEN
1002
}
  0
LINE
  5
6CD3
100
AcDbEntity
  8
MSL1_60_3F-0
100
AcDbLine
 10
-446.306981
 20
-32.567491
 30
0.0
 11
-446.306981
 21
-73.37093
 31
0.0
  0
LINE
  5
6CD4
100
AcDbEntity
  8
MSL1_60_3F-0
100
AcDbLine
 10
-446.306981
 20
-84.095553
 30
0.0
 11
-446.306981
 21
-90.567491
 31
0.0
  0
LINE
  5
6CD5
100
AcDbEntity
  8
MSL1_60_3F-0
100
AcDbLine
 10
-446.306981
 20
-73.37093
 30
0.0
 11
-462.006981
 21
-73.37093
 31
0.0
  0
LINE
  5
6CD6
100
AcDbEntity
  8
MSL1_60_3F-0
100
AcDbLine
 10
-462.006981
 20
-73.37093
 30
0.0
 11
-462.006981
 21
-84.095553
 31
0.0
  0
LINE
  5
6CD7
100
AcDbEntity
  8
MSL1_60_3F-0
100
AcDbLine
 10
-462.006981
 20
-84.095553
 30
0.0
 11
-446.306981
 21
-84.095553
 31
0.0
  0
LINE
  5
6CDD
100
AcDbEntity
  8
MSL1_60_3F-0
100
AcDbLine
 10
-561.306981
 20
-32.567491
 30
0.0
 11
-561.306981
 21
-39.03943
 31
0.0
  0
LINE
  5
6CE2
100
AcDbEntity
  8
MSL1_60_3F-0
100
AcDbLine
 10
-561.306981
 20
-49.764052
 30
0.0
 11
-561.306981
 21
-90.567491
 31
0.0
  0
LINE
  5
6CE3
100
AcDbEntity
  8
MSL1_60_3F-0
100
AcDbLine
 10
-561.306981
 20
-32.567491
 30
0.0
 11
-446.306981
 21
-32.567491
 31
0.0
  0
LINE
  5
6CE4
100
AcDbEntity
  8
MSL1_60_3F-0
100
AcDbLine
 10
-561.306981
 20
-90.567491
 30
0.0
 11
-446.306981
 21
-90.567491
 31
0.0
  0
LINE
  5
6CE7
100
AcDbEntity
  8
MSL1_60_3F-4
100
AcDbLine
 10
-446.306981
 20
-56.372065
 30
0.0
 11
-561.306981
 21
-56.372065
 31
0.0
  0
LINE
  5
6CE8
100
AcDbEntity
  8
MSL1_60_3F-4
100
AcDbLine
 10
-446.306981
 20
-66.762918
 30
0.0
 11
-561.306981
 21
-66.762918
 31
0.0
  0
LINE
  5
6CE9
100
AcDbEntity
  8
MSL1_60_3F-0
100
AcDbLine
 10
-561.306981
 20
75.926727
 30
0.0
 11
-561.306981
 21
70.226716
 31
0.0
  0
LINE
  5
6CEA
100
AcDbEntity
  8
MSL1_60_3F-0
100
AcDbLine
 10
-561.306981
 20
61.993734
 30
0.0
 11
-561.306981
 21
41.926727
 31
0.0
  0
LINE
  5
6CEB
100
AcDbEntity
  8
MSL1_60_3F-0
100
AcDbLine
 10
-446.306981
 20
75.926727
 30
0.0
 11
-446.306981
 21
70.99276
 31
0.0
  0
LINE
  5
6CEC
100
AcDbEntity
  8
MSL1_60_3F-0
100
AcDbLine
 10
-561.306981
 20
75.926727
 30
0.0
 11
-446.306981
 21
75.926727
 31
0.0
  0
LINE
  5
6CEF
100
AcDbEntity
  8
MSL1_60_3F-0
100
AcDbLine
 10
-462.006981
 20
70.99276
 30
0.0
 11
-446.306981
 21
70.99276
 31
0.0
  0
LINE
  5
6CF1
100
AcDbEntity
  8
MSL1_60_3F-0
100
AcDbLine
 10
-446.306981
 20
61.993734
 30
0.0
 11
-462.006981
 21
61.993734
 31
0.0
  0
LINE
  5
6CF2
100
AcDbEntity
  8
MSL1_60_3F-4
100
AcDbLine
 10
-561.306981
 20
55.630517
 30
0.0
 11
-446.306981
 21
55.630517
 31
0.0
  0
LINE
  5
6CF3
100
AcDbEntity
  8
MSL1_60_3F-0
100
AcDbLine
 10
-561.306981
 20
70.226716
 30
0.0
 11
-561.306981
 21
61.993734
 31
0.0
  0
LINE
  5
6CF4
100
AcDbEntity
  8
MSL1_60_3F-0
100
AcDbLine
 10
-462.006981
 20
61.993734
 30
0.0
 11
-462.006981
 21
70.99276
 31
0.0
  0
LINE
  5
6CF6
100
AcDbEntity
  8
MSL1_60_3F-0
100
AcDbLine
 10
-446.306981
 20
61.993734
 30
0.0
 11
-446.306981
 21
41.926727
 31
0.0
  0
LINE
  5
6CF7
100
AcDbEntity
  8
MSL1_60_3F-0
100
AcDbLine
 10
-561.306981
 20
41.926727
 30
0.0
 11
-540.306981
 21
41.926727
 31
0.0
  0
LINE
  5
6CF8
100
AcDbEntity
  8
MSL1_60_3F-0
100
AcDbLine
 10
-540.306981
 20
41.926727
 30
0.0
 11
-540.306981
 21
43.562757
 31
0.0
  0
LINE
  5
6CF9
100
AcDbEntity
  8
MSL1_60_3F-0
100
AcDbLine
 10
-535.306981
 20
43.562757
 30
0.0
 11
-535.306981
 21
41.926727
 31
0.0
  0
LINE
  5
6CFA
100
AcDbEntity
  8
MSL1_60_3F-0
100
AcDbLine
 10
-535.306981
 20
41.926727
 30
0.0
 11
-503.956981
 21
41.926727
 31
0.0
  0
LINE
  5
6CFB
100
AcDbEntity
  8
MSL1_60_3F-0
100
AcDbLine
 10
-472.306981
 20
41.926727
 30
0.0
 11
-472.306981
 21
43.562757
 31
0.0
  0
LINE
  5
6CFC
100
AcDbEntity
  8
MSL1_60_3F-0
100
AcDbLine
 10
-467.306981
 20
43.562757
 30
0.0
 11
-467.306981
 21
41.926727
 31
0.0
  0
LINE
  5
6CFE
100
AcDbEntity
  8
MSL1_60_3F-0
100
AcDbLine
 10
-561.306981
 20
42.564262
 30
0.0
 11
-540.306981
 21
42.564262
 31
0.0
  0
LINE
  5
6CFF
100
AcDbEntity
  8
MSL1_60_3F-0
100
AcDbLine
 10
-540.306981
 20
43.926727
 30
0.0
 11
-535.306981
 21
43.926727
 31
0.0
  0
LINE
  5
6D00
100
AcDbEntity
  8
MSL1_60_3F-0
100
AcDbLine
 10
-540.306981
 20
43.926727
 30
0.0
 11
-540.306981
 21
43.562757
 31
0.0
  0
LINE
  5
6D01
100
AcDbEntity
  8
MSL1_60_3F-0
100
AcDbLine
 10
-535.306981
 20
43.926727
 30
0.0
 11
-535.306981
 21
43.562757
 31
0.0
  0
LINE
  5
6D02
100
AcDbEntity
  8
MSL1_60_3F-4
100
AcDbLine
 10
-561.306981
 20
43.926727
 30
0.0
 11
-540.306981
 21
43.926727
 31
0.0
  0
LINE
  5
6D03
100
AcDbEntity
  8
MSL1_60_3F-4
100
AcDbLine
 10
-467.306981
 20
43.926727
 30
0.0
 11
-446.306981
 21
43.926727
 31
0.0
  0
LINE
  5
6D04
100
AcDbEntity
  8
MSL1_60_3F-0
100
AcDbLine
 10
-472.306981
 20
43.562757
 30
0.0
 11
-472.306981
 21
43.926727
 31
0.0
  0
LINE
  5
6D06
100
AcDbEntity
  8
MSL1_60_3F-0
100
AcDbLine
 10
-467.306981
 20
43.926727
 30
0.0
 11
-467.306981
 21
43.562757
 31
0.0
  0
LINE
  5
6D07
100
AcDbEntity
  8
MSL1_60_3F-0
100
AcDbLine
 10
-467.306981
 20
42.564262
 30
0.0
 11
-446.306981
 21
42.564262
 31
0.0
  0
LINE
  5
6D12
100
AcDbEntity
  8
MSL1_60_3F-0
100
AcDbLine
 10
-467.306981
 20
43.926727
 30
0.0
 11
-472.306981
 21
43.926727
 31
0.0
  0
LINE
  5
6D13
100
AcDbEntity
  8
MSL1_60_3F-0
100
AcDbLine
 10
-500.656981
 20
41.926727
 30
0.0
 11
-472.306981
 21
41.926727
 31
0.0
  0
LINE
  5
6D51
100
AcDbEntity
  8
MSL1_60_3F-0
100
AcDbLine
 10
-436.806981
 20
-67.567491
 30
0.0
 11
-437.806981
 21
-68.567491
 31
0.0
  0
LINE
  5
6D52
100
AcDbEntity
  8
MSL1_60_3F-0
100
AcDbLine
 10
-437.806981
 20
-54.567491
 30
0.0
 11
-437.806981
 21
-57.567491
 31
0.0
1001
GENIUS_GENOREF_13
1005
73FE
  0
LINE
  5
6D54
100
AcDbEntity
  8
MSL1_60_3F-0
100
AcDbLine
 10
-363.806981
 20
-91.567491
 30
0.0
 11
-363.806981
 21
-31.567491
 31
0.0
1001
GENIUS_GENOREF_13
1005
7403
  0
LINE
  5
6D55
100
AcDbEntity
  8
MSL1_60_3F-3
100
AcDbLine
 10
-373.806981
 20
-35.748284
 30
0.0
 11
-373.806981
 21
-87.386699
 31
0.0
1001
GENIUS_GENBH_13
1002
{
1000
OE
1000
CON1
1002
}
1001
GENIUS_GENOREF_13
1005
7404
  0
LINE
  5
6D56
100
AcDbEntity
  8
MSL1_60_3F-7
100
AcDbLine
 10
-513.806981
 20
-54.69022
 30
0.0
 11
-513.806981
 21
-68.444763
 31
0.0
  0
LINE
  5
6D58
100
AcDbEntity
  8
MSL1_60_3F-0
100
AcDbLine
 10
-570.806981
 20
-67.567491
 30
0.0
 11
-569.806981
 21
-68.567491
 31
0.0
  0
LINE
  5
6D59
100
AcDbEntity
  8
MSL1_60_3F-0
100
AcDbLine
 10
-569.806981
 20
-54.567491
 30
0.0
 11
-569.806981
 21
-57.567491
 31
0.0
1001
GENIUS_GENOREF_13
1005
73F1
  0
LINE
  5
6D5C
100
AcDbEntity
  8
MSL1_60_3F-0
100
AcDbLine
 10
-445.806981
 20
-31.567491
 30
0.0
 11
-445.806981
 21
-91.567491
 31
0.0
  0
LINE
  5
6D5D
100
AcDbEntity
  8
MSL1_60_3F-0
100
AcDbLine
 10
-583.806981
 20
-31.567491
 30
0.0
 11
-583.806981
 21
-91.567491
 31
0.0
1001
GENIUS_GENOREF_13
1005
740C
  0
LINE
  5
6D5E
100
AcDbEntity
  8
MSL1_60_3F-0
100
AcDbLine
 10
-561.806981
 20
-91.567491
 30
0.0
 11
-561.806981
 21
-31.567491
 31
0.0
  0
LINE
  5
6D5F
100
AcDbEntity
  8
MSL1_60_3F-3
100
AcDbLine
 10
-573.806981
 20
-35.748284
 30
0.0
 11
-573.806981
 21
-87.386699
 31
0.0
1001
GENIUS_GENBH_13
1002
{
1000
OE
1000
CON1
1002
}
1001
GENIUS_GENOREF_13
1005
740D
  0
LINE
  5
6D61
100
AcDbEntity
  8
MSL1_60_3F-0
100
AcDbLine
 10
-445.806981
 20
-91.567491
 30
0.0
 11
-561.806981
 21
-91.567491
 31
0.0
  0
MTEXT
  5
6D62
100
AcDbEntity
  8
MSL1_60_3F-6
100
AcDbMText
 10
-560.489103
 20
-84.259019
 30
0.0
 40
3.5
 41
23.418615
 71
     1
 72
     1
  1
{MSL-1-60-3F}
  0
LINE
  5
6D64
100
AcDbEntity
  8
MSL1_60_3F-3
100
AcDbLine
 10
-581.427981
 20
-80.767491
 30
0.0
 11
-578.185981
 21
-80.767491
 31
0.0
  0
LINE
  5
6D65
100
AcDbEntity
  8
MSL1_60_3F-3
100
AcDbLine
 10
-581.427981
 20
-80.767491
 30
0.0
 11
-579.806981
 21
-79.831606
 31
0.0
  0
LINE
  5
6D66
100
AcDbEntity
  8
MSL1_60_3F-3
100
AcDbLine
 10
-577.806981
 20
-84.567491
 30
0.0
 11
-581.806981
 21
-84.567491
 31
0.0
  0
LINE
  5
6D67
100
AcDbEntity
  8
MSL1_60_3F-0
100
AcDbLine
 10
-583.806981
 20
-91.567491
 30
0.0
 11
-571.806981
 21
-91.567491
 31
0.0
1001
GENIUS_GENOREF_13
1005
740C
  0
LINE
  5
6D68
100
AcDbEntity
  8
MSL1_60_3F-7
100
AcDbLine
 10
-570.979801
 20
-71.567491
 30
0.0
 11
-584.906506
 21
-71.567491
 31
0.0
1001
GENIUS_GENOREF_13
1005
740D
  0
LINE
  5
6D69
100
AcDbEntity
  8
MSL1_60_3F-3
100
AcDbLine
 10
-581.427981
 20
-91.567491
 30
0.0
 11
-581.427981
 21
-80.767491
 31
0.0
  0
LINE
  5
6D6A
100
AcDbEntity
  8
MSL1_60_3F-3
100
AcDbLine
 10
-581.806981
 20
-91.567491
 30
0.0
 11
-581.806981
 21
-84.567491
 31
0.0
  0
LINE
  5
6D6B
100
AcDbEntity
  8
MSL1_60_3F-0
100
AcDbLine
 10
-568.806981
 20
-72.061937
 30
0.0
 11
-568.806981
 21
-87.073044
 31
0.0
  0
LINE
  5
6D6C
100
AcDbEntity
  8
MSL1_60_3F-0
100
AcDbLine
 10
-564.806981
 20
-86.928707
 30
0.0
 11
-564.806981
 21
-72.206275
 31
0.0
  0
LINE
  5
6D6D
100
AcDbEntity
  8
MSL1_60_3F-0
100
AcDbLine
 10
-569.806981
 20
-73.938326
 30
0.0
 11
-569.806981
 21
-85.196656
 31
0.0
  0
ARC
  5
6D6E
100
AcDbEntity
  8
MSL1_60_3F-0
100
AcDbCircle
 10
-572.100036
 20
-85.196656
 30
0.0
 40
2.293056
100
AcDbArc
 50
305.085848
 51
54.914152
  0
ARC
  5
6D6F
100
AcDbEntity
  8
MSL1_60_3F-0
100
AcDbCircle
 10
-567.369146
 20
-85.196656
 30
0.0
 40
2.562165
100
AcDbArc
 50
312.916664
 51
47.083336
  0
ARC
  5
6D70
100
AcDbEntity
  8
MSL1_60_3F-0
100
AcDbCircle
 10
-554.172258
 20
-79.567491
 30
0.0
 40
10.634722
100
AcDbArc
 50
152.518771
 51
207.481229
  0
LINE
  5
6D71
100
AcDbEntity
  8
MSL1_60_3F-3
100
AcDbLine
 10
-573.806981
 20
-73.938326
 30
0.0
 11
-573.806981
 21
-85.196656
 31
0.0
1001
GENIUS_GENBH_13
1002
{
1000
OE
1000
CON1
1002
}
1001
GENIUS_GENOREF_13
1005
740D
  0
LINE
  5
6D72
100
AcDbEntity
  8
MSL1_60_3F-3
100
AcDbLine
 10
-578.185981
 20
-91.567491
 30
0.0
 11
-578.185981
 21
-80.767491
 31
0.0
  0
LINE
  5
6D73
100
AcDbEntity
  8
MSL1_60_3F-7
100
AcDbLine
 10
-579.806981
 20
-92.567491
 30
0.0
 11
-579.806981
 21
-78.767491
 31
0.0
  0
ARC
  5
6D74
100
AcDbEntity
  8
MSL1_60_3F-3
100
AcDbCircle
 10
-571.513925
 20
-85.196656
 30
0.0
 40
2.293056
100
AcDbArc
 50
125.085847
 51
234.914153
1001
GENIUS_GENBH_13
1002
{
1000
OE
1000
CON1
1002
}
1001
GENIUS_GENOREF_13
1005
740D
  0
LINE
  5
6D75
100
AcDbEntity
  8
MSL1_60_3F-0
100
AcDbLine
 10
-568.806981
 20
-87.073044
 30
0.0
 11
-565.624481
 21
-87.073044
 31
0.0
  0
LINE
  5
6D76
100
AcDbEntity
  8
MSL1_60_3F-0
100
AcDbLine
 10
-570.781981
 20
-87.073044
 30
0.0
 11
-571.806981
 21
-87.073044
 31
0.0
1001
GENIUS_GENOREF_13
1005
740D
  0
LINE
  5
6D77
100
AcDbEntity
  8
MSL1_60_3F-0
100
AcDbLine
 10
-571.806981
 20
-91.567491
 30
0.0
 11
-571.806981
 21
-31.567491
 31
0.0
1001
GENIUS_GENOREF_13
1005
740C
  0
LINE
  5
6D78
100
AcDbEntity
  8
MSL1_60_3F-3
100
AcDbLine
 10
-577.806981
 20
-91.567491
 30
0.0
 11
-577.806981
 21
-84.567491
 31
0.0
  0
ARC
  5
6D79
100
AcDbEntity
  8
MSL1_60_3F-0
100
AcDbCircle
 10
-561.6983
 20
-86.928707
 30
0.0
 40
3.108681
100
AcDbArc
 50
127.878142
 51
232.121858
  0
LINE
  5
6D7A
100
AcDbEntity
  8
MSL1_60_3F-0
100
AcDbLine
 10
-563.606981
 20
-89.382446
 30
0.0
 11
-561.806981
 21
-89.382446
 31
0.0
  0
LINE
  5
6D7B
100
AcDbEntity
  8
MSL1_60_3F-0
100
AcDbLine
 10
-563.606981
 20
-84.474968
 30
0.0
 11
-561.806981
 21
-84.474968
 31
0.0
  0
LINE
  5
6D7C
100
AcDbEntity
  8
MSL1_60_3F-0
100
AcDbLine
 10
-569.806981
 20
-68.567491
 30
0.0
 11
-561.806981
 21
-68.567491
 31
0.0
  0
ARC
  5
6D7D
100
AcDbEntity
  8
MSL1_60_3F-0
100
AcDbCircle
 10
-567.369146
 20
-73.938326
 30
0.0
 40
2.562165
100
AcDbArc
 50
312.916664
 51
47.083336
  0
ARC
  5
6D7E
100
AcDbEntity
  8
MSL1_60_3F-0
100
AcDbCircle
 10
-573.82939
 20
-79.567491
 30
0.0
 40
9.02241
100
AcDbArc
 50
335.421503
 51
24.578497
  0
LINE
  5
6D7F
100
AcDbEntity
  8
MSL1_60_3F-7
100
AcDbLine
 10
-575.907041
 20
-79.567491
 30
0.0
 11
-559.885086
 21
-79.567491
 31
0.0
1001
GENIUS_GENOREF_13
1005
740D
  0
LINE
  5
6D80
100
AcDbEntity
  8
MSL1_60_3F-7
100
AcDbLine
 10
-578.43634
 20
-81.567491
 30
0.0
 11
-556.445421
 21
-81.567491
 31
0.0
1001
GENIUS_GENOREF_13
1005
740D
  0
ARC
  5
6D81
100
AcDbEntity
  8
MSL1_60_3F-0
100
AcDbCircle
 10
-572.100036
 20
-73.938326
 30
0.0
 40
2.293056
100
AcDbArc
 50
305.085848
 51
54.914152
  0
LINE
  5
6D82
100
AcDbEntity
  8
MSL1_60_3F-0
100
AcDbLine
 10
-570.781981
 20
-75.814714
 30
0.0
 11
-571.806981
 21
-75.814714
 31
0.0
1001
GENIUS_GENOREF_13
1005
740D
  0
LINE
  5
6D83
100
AcDbEntity
  8
MSL1_60_3F-0
100
AcDbLine
 10
-570.781981
 20
-83.320268
 30
0.0
 11
-571.806981
 21
-83.320268
 31
0.0
1001
GENIUS_GENOREF_13
1005
740D
  0
ARC
  5
6D84
100
AcDbEntity
  8
MSL1_60_3F-0
100
AcDbCircle
 10
-577.516703
 20
-79.567491
 30
0.0
 40
7.709722
100
AcDbArc
 50
330.872218
 51
29.127782
  0
LINE
  5
6D85
100
AcDbEntity
  8
MSL1_60_3F-0
100
AcDbLine
 10
-565.624481
 20
-75.814714
 30
0.0
 11
-568.806981
 21
-75.814714
 31
0.0
  0
LINE
  5
6D86
100
AcDbEntity
  8
MSL1_60_3F-0
100
AcDbLine
 10
-565.624481
 20
-83.320268
 30
0.0
 11
-568.806981
 21
-83.320268
 31
0.0
  0
LINE
  5
6D87
100
AcDbEntity
  8
MSL1_60_3F-0
100
AcDbLine
 10
-568.806981
 20
-75.567491
 30
0.0
 11
-569.806981
 21
-75.567491
 31
0.0
  0
LINE
  5
6D88
100
AcDbEntity
  8
MSL1_60_3F-0
100
AcDbLine
 10
-568.806981
 20
-83.567491
 30
0.0
 11
-569.806981
 21
-83.567491
 31
0.0
  0
LINE
  5
6D89
100
AcDbEntity
  8
MSL1_60_3F-0
100
AcDbLine
 10
-570.781981
 20
-72.061937
 30
0.0
 11
-571.806981
 21
-72.061937
 31
0.0
1001
GENIUS_GENOREF_13
1005
740D
  0
LINE
  5
6D8A
100
AcDbEntity
  8
MSL1_60_3F-0
100
AcDbLine
 10
-565.624481
 20
-72.061937
 30
0.0
 11
-568.806981
 21
-72.061937
 31
0.0
  0
LINE
  5
6D8B
100
AcDbEntity
  8
MSL1_60_3F-7
100
AcDbLine
 10
-574.806981
 20
-82.567491
 30
0.0
 11
-574.806981
 21
-76.567491
 31
0.0
1001
GENIUS_GENOREF_13
1005
740D
  0
LINE
  5
6D8C
100
AcDbEntity
  8
MSL1_60_3F-3
100
AcDbLine
 10
-578.185981
 20
-80.767491
 30
0.0
 11
-579.806981
 21
-79.831606
 31
0.0
  0
ARC
  5
6D8D
100
AcDbEntity
  8
MSL1_60_3F-3
100
AcDbCircle
 10
-566.097258
 20
-79.567491
 30
0.0
 40
7.709722
100
AcDbArc
 50
150.872216
 51
209.127784
1001
GENIUS_GENBH_13
1002
{
1000
OE
1000
CON1
1002
}
1001
GENIUS_GENOREF_13
1005
740D
  0
ARC
  5
6D8E
100
AcDbEntity
  8
MSL1_60_3F-3
100
AcDbCircle
 10
-574.806981
 20
-79.567491
 30
0.0
 40
2.0
100
AcDbArc
 50
172.405357
 51
104.931417
1001
GENIUS_GENOREF_13
1005
740D
  0
CIRCLE
  5
6D8F
100
AcDbEntity
  8
MSL1_60_3F-3
100
AcDbCircle
 10
-574.806981
 20
-79.567491
 30
0.0
 40
1.621
1001
GENIUS_GENOREF_13
1005
740D
  0
ARC
  5
6D90
100
AcDbEntity
  8
MSL1_60_3F-3
100
AcDbCircle
 10
-571.513925
 20
-73.938326
 30
0.0
 40
2.293056
100
AcDbArc
 50
125.085847
 51
234.914153
1001
GENIUS_GENBH_13
1002
{
1000
OE
1000
CON1
1002
}
1001
GENIUS_GENOREF_13
1005
740D
  0
LINE
  5
6D91
100
AcDbEntity
  8
MSL1_60_3F-7
100
AcDbLine
 10
-577.806981
 20
-79.567491
 30
0.0
 11
-571.806981
 21
-79.567491
 31
0.0
1001
GENIUS_GENOREF_13
1005
740D
  0
LINE
  5
6D92
100
AcDbEntity
  8
MSL1_60_3F-0
100
AcDbLine
 10
-563.606981
 20
-69.752537
 30
0.0
 11
-561.806981
 21
-69.752537
 31
0.0
  0
LINE
  5
6D93
100
AcDbEntity
  8
MSL1_60_3F-0
100
AcDbLine
 10
-564.806981
 20
-72.206275
 30
0.0
 11
-564.806981
 21
-82.696656
 31
0.0
  0
LINE
  5
6D94
100
AcDbEntity
  8
MSL1_60_3F-0
100
AcDbLine
 10
-563.606981
 20
-74.660014
 30
0.0
 11
-561.806981
 21
-74.660014
 31
0.0
  0
ARC
  5
6D95
100
AcDbEntity
  8
MSL1_60_3F-0
100
AcDbCircle
 10
-561.6983
 20
-72.206275
 30
0.0
 40
3.108681
100
AcDbArc
 50
127.878142
 51
232.121858
  0
LINE
  5
6D96
100
AcDbEntity
  8
MSL1_60_3F-7
100
AcDbLine
 10
-513.806981
 20
-71.567491
 30
0.0
 11
-516.929709
 21
-71.567491
 31
0.0
  0
LINE
  5
6DA7
100
AcDbEntity
  8
MSL1_60_3F-7
100
AcDbLine
 10
-526.806981
 20
-71.567491
 30
0.0
 11
-520.806981
 21
-71.567491
 31
0.0
  0
LINE
  5
6DA8
100
AcDbEntity
  8
MSL1_60_3F-7
100
AcDbLine
 10
-523.806981
 20
-74.567491
 30
0.0
 11
-523.806981
 21
-68.567491
 31
0.0
  0
ARC
  5
6DA9
100
AcDbEntity
  8
MSL1_60_3F-3
100
AcDbCircle
 10
-523.806981
 20
-71.567491
 30
0.0
 40
2.0
100
AcDbArc
 50
172.405357
 51
104.931417
  0
CIRCLE
  5
6DAA
100
AcDbEntity
  8
MSL1_60_3F-3
100
AcDbCircle
 10
-523.806981
 20
-71.567491
 30
0.0
 40
1.621
  0
LINE
  5
6DAB
100
AcDbEntity
  8
MSL1_60_3F-7
100
AcDbLine
 10
-513.806981
 20
-71.567491
 30
0.0
 11
-513.806981
 21
-74.69022
 31
0.0
  0
LINE
  5
6DAC
100
AcDbEntity
  8
MSL1_60_3F-7
100
AcDbLine
 10
-513.806981
 20
-71.567491
 30
0.0
 11
-510.684253
 21
-71.567491
 31
0.0
  0
LINE
  5
6DAD
100
AcDbEntity
  8
MSL1_60_3F-7
100
AcDbLine
 10
-506.806981
 20
-71.567491
 30
0.0
 11
-500.806981
 21
-71.567491
 31
0.0
  0
LINE
  5
6DAE
100
AcDbEntity
  8
MSL1_60_3F-7
100
AcDbLine
 10
-503.806981
 20
-74.567491
 30
0.0
 11
-503.806981
 21
-68.567491
 31
0.0
  0
ARC
  5
6DAF
100
AcDbEntity
  8
MSL1_60_3F-3
100
AcDbCircle
 10
-503.806981
 20
-71.567491
 30
0.0
 40
2.0
100
AcDbArc
 50
172.405357
 51
104.931417
  0
CIRCLE
  5
6DB0
100
AcDbEntity
  8
MSL1_60_3F-3
100
AcDbCircle
 10
-503.806981
 20
-71.567491
 30
0.0
 40
1.621
  0
CIRCLE
  5
6DB1
100
AcDbEntity
  8
MSL1_60_3F-3
100
AcDbCircle
 10
-513.806981
 20
-71.567491
 30
0.0
 40
2.0
  0
LINE
  5
6DB2
100
AcDbEntity
  8
MSL1_60_3F-7
100
AcDbLine
 10
-513.806981
 20
-71.567491
 30
0.0
 11
-513.806981
 21
-68.444763
 31
0.0
  0
LINE
  5
6DB3
100
AcDbEntity
  8
MSL1_60_3F-0
100
AcDbLine
 10
-420.306981
 20
-80.617491
 30
0.0
 11
-437.806981
 21
-80.617491
 31
0.0
  0
LINE
  5
6DB4
100
AcDbEntity
  8
MSL1_60_3F-0
100
AcDbLine
 10
-437.806981
 20
-76.517491
 30
0.0
 11
-420.306981
 21
-76.517491
 31
0.0
  0
LINE
  5
6DB5
100
AcDbEntity
  8
MSL1_60_3F-0
100
AcDbLine
 10
-438.806981
 20
-85.567491
 30
0.0
 11
-375.806981
 21
-85.567491
 31
0.0
  0
LINE
  5
6DB6
100
AcDbEntity
  8
MSL1_60_3F-7
100
AcDbLine
 10
-451.30915
 20
-81.567491
 30
0.0
 11
-370.78303
 21
-81.567491
 31
0.0
  0
LINE
  5
6DB7
100
AcDbEntity
  8
MSL1_60_3F-7
100
AcDbLine
 10
-448.089051
 20
-78.567491
 30
0.0
 11
-418.401312
 21
-78.567491
 31
0.0
  0
LINE
  5
6DB8
100
AcDbEntity
  8
MSL1_60_3F-0
100
AcDbLine
 10
-437.806981
 20
-72.567491
 30
0.0
 11
-437.806981
 21
-84.567491
 31
0.0
  0
LINE
  5
6DB9
100
AcDbEntity
  8
MSL1_60_3F-0
100
AcDbLine
 10
-440.806981
 20
-71.206275
 30
0.0
 11
-440.806981
 21
-85.928707
 31
0.0
  0
LINE
  5
6DBA
100
AcDbEntity
  8
MSL1_60_3F-0
100
AcDbLine
 10
-438.806981
 20
-71.567491
 30
0.0
 11
-438.806981
 21
-85.567491
 31
0.0
  0
ARC
  5
6DBB
100
AcDbEntity
  8
MSL1_60_3F-0
100
AcDbCircle
 10
-443.915661
 20
-85.928707
 30
0.0
 40
3.108681
100
AcDbArc
 50
307.878144
 51
52.121856
  0
LINE
  5
6DBC
100
AcDbEntity
  8
MSL1_60_3F-0
100
AcDbLine
 10
-445.806981
 20
-71.206275
 30
0.0
 11
-445.806981
 21
-85.928707
 31
0.0
  0
ARC
  5
6DBD
100
AcDbEntity
  8
MSL1_60_3F-0
100
AcDbCircle
 10
-442.6983
 20
-85.928707
 30
0.0
 40
3.108681
100
AcDbArc
 50
127.878142
 51
232.121858
  0
LINE
  5
6DBE
100
AcDbEntity
  8
MSL1_60_3F-0
100
AcDbLine
 10
-438.806981
 20
-85.567491
 30
0.0
 11
-440.785923
 21
-85.567491
 31
0.0
  0
LINE
  5
6DBF
100
AcDbEntity
  8
MSL1_60_3F-0
100
AcDbLine
 10
-437.806981
 20
-84.567491
 30
0.0
 11
-438.806981
 21
-85.567491
 31
0.0
  0
LINE
  5
6DC0
100
AcDbEntity
  8
MSL1_60_3F-0
100
AcDbLine
 10
-442.006981
 20
-88.382445
 30
0.0
 11
-444.606981
 21
-88.382445
 31
0.0
  0
ARC
  5
6DC1
100
AcDbEntity
  8
MSL1_60_3F-0
100
AcDbCircle
 10
-451.441703
 20
-78.567491
 30
0.0
 40
10.634722
100
AcDbArc
 50
332.518773
 51
27.481227
  0
LINE
  5
6DC2
100
AcDbEntity
  8
MSL1_60_3F-0
100
AcDbLine
 10
-438.806981
 20
-71.567491
 30
0.0
 11
-437.806981
 21
-72.567491
 31
0.0
  0
LINE
  5
6DC3
100
AcDbEntity
  8
MSL1_60_3F-0
100
AcDbLine
 10
-440.785923
 20
-71.567491
 30
0.0
 11
-438.806981
 21
-71.567491
 31
0.0
  0
ARC
  5
6DC4
100
AcDbEntity
  8
MSL1_60_3F-0
100
AcDbCircle
 10
-443.915661
 20
-71.206275
 30
0.0
 40
3.108681
100
AcDbArc
 50
307.878144
 51
52.121856
  0
ARC
  5
6DC5
100
AcDbEntity
  8
MSL1_60_3F-0
100
AcDbCircle
 10
-435.172258
 20
-78.567491
 30
0.0
 40
10.634722
100
AcDbArc
 50
152.518771
 51
207.481229
  0
ARC
  5
6DC6
100
AcDbEntity
  8
MSL1_60_3F-0
100
AcDbCircle
 10
-442.6983
 20
-71.206275
 30
0.0
 40
3.108681
100
AcDbArc
 50
127.878142
 51
232.121858
  0
LINE
  5
6DC7
100
AcDbEntity
  8
MSL1_60_3F-0
100
AcDbLine
 10
-437.806981
 20
-68.567491
 30
0.0
 11
-445.806981
 21
-68.567491
 31
0.0
  0
LINE
  5
6DC8
100
AcDbEntity
  8
MSL1_60_3F-0
100
AcDbLine
 10
-442.006981
 20
-73.660014
 30
0.0
 11
-444.606981
 21
-73.660014
 31
0.0
  0
LINE
  5
6DC9
100
AcDbEntity
  8
MSL1_60_3F-0
100
AcDbLine
 10
-442.006981
 20
-68.752536
 30
0.0
 11
-444.606981
 21
-68.752536
 31
0.0
  0
LINE
  5
6DCA
100
AcDbEntity
  8
MSL1_60_3F-0
100
AcDbLine
 10
-442.006981
 20
-83.474968
 30
0.0
 11
-444.606981
 21
-83.474968
 31
0.0
  0
LINE
  5
6DCB
100
AcDbEntity
  8
MSL1_60_3F-3
100
AcDbLine
 10
-366.185981
 20
-91.567491
 30
0.0
 11
-366.185981
 21
-80.767491
 31
0.0
  0
LINE
  5
6DCC
100
AcDbEntity
  8
MSL1_60_3F-3
100
AcDbLine
 10
-369.427981
 20
-91.567491
 30
0.0
 11
-369.427981
 21
-80.767491
 31
0.0
  0
LINE
  5
6DCD
100
AcDbEntity
  8
MSL1_60_3F-7
100
AcDbLine
 10
-367.806981
 20
-92.567491
 30
0.0
 11
-367.806981
 21
-78.767491
 31
0.0
  0
LINE
  5
6DCE
100
AcDbEntity
  8
MSL1_60_3F-3
100
AcDbLine
 10
-369.806981
 20
-91.567491
 30
0.0
 11
-369.806981
 21
-84.567491
 31
0.0
  0
LINE
  5
6DCF
100
AcDbEntity
  8
MSL1_60_3F-3
100
AcDbLine
 10
-365.806981
 20
-91.567491
 30
0.0
 11
-365.806981
 21
-84.567491
 31
0.0
  0
LINE
  5
6DD0
100
AcDbEntity
  8
MSL1_60_3F-0
100
AcDbLine
 10
-375.806981
 20
-91.567491
 30
0.0
 11
-363.806981
 21
-91.567491
 31
0.0
1001
GENIUS_GENOREF_13
1005
7403
  0
LINE
  5
6DD1
100
AcDbEntity
  8
MSL1_60_3F-3
100
AcDbLine
 10
-365.806981
 20
-84.567491
 30
0.0
 11
-369.806981
 21
-84.567491
 31
0.0
  0
LINE
  5
6DD2
100
AcDbEntity
  8
MSL1_60_3F-0
100
AcDbLine
 10
-420.306981
 20
-77.567491
 30
0.0
 11
-375.806981
 21
-77.567491
 31
0.0
  0
LINE
  5
6DD3
100
AcDbEntity
  8
MSL1_60_3F-7
100
AcDbLine
 10
-376.63416
 20
-71.567491
 30
0.0
 11
-362.707455
 21
-71.567491
 31
0.0
  0
LINE
  5
6DD4
100
AcDbEntity
  8
MSL1_60_3F-0
100
AcDbLine
 10
-420.306981
 20
-76.517491
 30
0.0
 11
-420.306981
 21
-80.617491
 31
0.0
  0
CIRCLE
  5
6DD5
100
AcDbEntity
  8
MSL1_60_3F-3
100
AcDbCircle
 10
-372.806981
 20
-79.567491
 30
0.0
 40
1.621
  0
ARC
  5
6DD6
100
AcDbEntity
  8
MSL1_60_3F-3
100
AcDbCircle
 10
-372.806981
 20
-79.567491
 30
0.0
 40
2.0
100
AcDbArc
 50
172.405357
 51
104.931417
  0
LINE
  5
6DD7
100
AcDbEntity
  8
MSL1_60_3F-7
100
AcDbLine
 10
-372.806981
 20
-82.567491
 30
0.0
 11
-372.806981
 21
-76.567491
 31
0.0
  0
LINE
  5
6DD8
100
AcDbEntity
  8
MSL1_60_3F-3
100
AcDbLine
 10
-369.427981
 20
-80.767491
 30
0.0
 11
-367.806981
 21
-79.831606
 31
0.0
  0
LINE
  5
6DD9
100
AcDbEntity
  8
MSL1_60_3F-7
100
AcDbLine
 10
-375.806981
 20
-79.567491
 30
0.0
 11
-369.806981
 21
-79.567491
 31
0.0
  0
LINE
  5
6DDA
100
AcDbEntity
  8
MSL1_60_3F-3
100
AcDbLine
 10
-366.185981
 20
-80.767491
 30
0.0
 11
-367.806981
 21
-79.831606
 31
0.0
  0
LINE
  5
6DDB
100
AcDbEntity
  8
MSL1_60_3F-3
100
AcDbLine
 10
-369.427981
 20
-80.767491
 30
0.0
 11
-366.185981
 21
-80.767491
 31
0.0
  0
LINE
  5
6DDC
100
AcDbEntity
  8
MSL1_60_3F-0
100
AcDbLine
 10
-445.806981
 20
171.705171
 30
0.0
 11
-561.806981
 21
171.705171
 31
0.0
  0
LINE
  5
6DDD
100
AcDbEntity
  8
MSL1_60_3F-0
100
AcDbLine
 10
-561.806981
 20
111.705171
 30
0.0
 11
-445.806981
 21
111.705171
 31
0.0
  0
LINE
  5
6DDE
100
AcDbEntity
  8
MSL1_60_3F-7
100
AcDbLine
 10
-585.806981
 20
141.705171
 30
0.0
 11
-361.806981
 21
141.705171
 31
0.0
  0
LINE
  5
6DDF
100
AcDbEntity
  8
MSL1_60_3F-0
100
AcDbLine
 10
-445.806981
 20
11.926727
 30
0.0
 11
-561.806981
 21
11.926727
 31
0.0
  0
LINE
  5
6DE0
100
AcDbEntity
  8
MSL1_60_3F-0
100
AcDbLine
 10
-561.806981
 20
41.926727
 30
0.0
 11
-445.806981
 21
41.926727
 31
0.0
  0
LINE
  5
6DE1
100
AcDbEntity
  8
MSL1_60_3F-0
100
AcDbLine
 10
-561.806981
 20
-31.567491
 30
0.0
 11
-445.806981
 21
-31.567491
 31
0.0
  0
LINE
  5
6DE3
100
AcDbEntity
  8
MSL1_60_3F-7
100
AcDbLine
 10
-359.651647
 20
-61.567491
 30
0.0
 11
-587.926647
 21
-61.567491
 31
0.0
1001
GENIUS_GENOREF_13
1005
73F1
1005
73FE
1005
7404
1005
740D
  0
LINE
  5
6DE4
100
AcDbEntity
  8
MSL1_60_3F-7
100
AcDbLine
 10
-361.806981
 20
26.926727
 30
0.0
 11
-585.806981
 21
26.926727
 31
0.0
  0
LINE
  5
6DE6
100
AcDbEntity
  8
MSL1_60_3F-0
100
AcDbLine
 10
-561.806981
 20
11.926727
 30
0.0
 11
-561.806981
 21
41.926727
 31
0.0
  0
ARC
  5
6DE9
100
AcDbEntity
  8
MSL1_60_3F-0
100
AcDbCircle
 10
-564.915661
 20
57.287943
 30
0.0
 40
3.108681
100
AcDbArc
 50
307.878144
 51
52.121856
  0
ARC
  5
6DEA
100
AcDbEntity
  8
MSL1_60_3F-0
100
AcDbCircle
 10
-563.6983
 20
57.287943
 30
0.0
 40
3.108681
100
AcDbArc
 50
127.878142
 51
232.121858
  0
ARC
  5
6DEC
100
AcDbEntity
  8
MSL1_60_3F-0
100
AcDbCircle
 10
-717.853814
 20
53.926727
 30
0.0
 40
1.5
100
AcDbArc
 50
89.999999
 51
179.999998
  0
LINE
  5
6DED
100
AcDbEntity
  8
MSL1_60_3F-7
100
AcDbLine
 10
-702.353814
 20
62.20263
 30
0.0
 11
-702.353814
 21
38.125547
 31
0.0
  0
MTEXT
  5
6DF2
100
AcDbEntity
  8
MSL1_60_3F-6
100
AcDbMText
 10
-697.987632
 20
59.26006
 30
0.0
 40
3.5
 41
23.418615
 71
     1
 72
     1
  1
{MSL-1-60-3F}
  0
CIRCLE
  5
6DF3
100
AcDbEntity
  8
MSL1_60_3F-3
100
AcDbCircle
 10
-675.353814
 20
36.926727
 30
0.0
 40
4.0
  0
LINE
  5
6DF4
100
AcDbEntity
  8
MSL1_60_3F-7
100
AcDbLine
 10
-670.153814
 20
36.926727
 30
0.0
 11
-680.553814
 21
36.926727
 31
0.0
  0
LINE
  5
6DF5
100
AcDbEntity
  8
MSL1_60_3F-7
100
AcDbLine
 10
-672.753814
 20
26.926727
 30
0.0
 11
-677.953814
 21
26.926727
 31
0.0
  0
LINE
  5
6DF6
100
AcDbEntity
  8
MSL1_60_3F-7
100
AcDbLine
 10
-670.153814
 20
16.926727
 30
0.0
 11
-680.553814
 21
16.926727
 31
0.0
  0
CIRCLE
  5
6DF7
100
AcDbEntity
  8
MSL1_60_3F-3
100
AcDbCircle
 10
-675.353814
 20
16.926727
 30
0.0
 40
4.0
  0
LINE
  5
6DF9
100
AcDbEntity
  8
MSL1_60_3F-0
100
AcDbLine
 10
-655.353814
 20
10.926727
 30
0.0
 11
-715.353814
 21
10.926727
 31
0.0
  0
LINE
  5
6DFA
100
AcDbEntity
  8
MSL1_60_3F-3
100
AcDbLine
 10
-715.353814
 20
11.926727
 30
0.0
 11
-655.353814
 21
11.926727
 31
0.0
  0
LINE
  5
6DFB
100
AcDbEntity
  8
MSL1_60_3F-7
100
AcDbLine
 10
-717.353814
 20
26.926727
 30
0.0
 11
-653.353814
 21
26.926727
 31
0.0
  0
LINE
  5
6DFC
100
AcDbEntity
  8
MSL1_60_3F-7
100
AcDbLine
 10
-695.353814
 20
24.326727
 30
0.0
 11
-695.353814
 21
29.526727
 31
0.0
  0
CIRCLE
  5
6DFD
100
AcDbEntity
  8
MSL1_60_3F-3
100
AcDbCircle
 10
-685.353814
 20
26.926727
 30
0.0
 40
2.0
  0
CIRCLE
  5
6DFE
100
AcDbEntity
  8
MSL1_60_3F-0
100
AcDbCircle
 10
-695.353814
 20
26.926727
 30
0.0
 40
2.0
  0
LINE
  5
6DFF
100
AcDbEntity
  8
MSL1_60_3F-7
100
AcDbLine
 10
-685.353814
 20
78.326258
 30
0.0
 11
-685.353814
 21
61.30768
 31
0.0
  0
LINE
  5
6E00
100
AcDbEntity
  8
MSL1_60_3F-0
100
AcDbLine
 10
-715.353814
 20
10.926727
 30
0.0
 11
-715.353814
 21
54.418625
 31
0.0
  0
LINE
  5
6E02
100
AcDbEntity
  8
MSL1_60_3F-7
100
AcDbLine
 10
-705.353814
 20
31.832022
 30
0.0
 11
-705.353814
 21
21.926727
 31
0.0
  0
LINE
  5
6E03
100
AcDbEntity
  8
MSL1_60_3F-7
100
AcDbLine
 10
-716.353814
 20
16.926727
 30
0.0
 11
-702.553814
 21
16.926727
 31
0.0
  0
LINE
  5
6E04
100
AcDbEntity
  8
MSL1_60_3F-3
100
AcDbLine
 10
-715.353814
 20
18.926727
 30
0.0
 11
-708.353814
 21
18.926727
 31
0.0
  0
LINE
  5
6E05
100
AcDbEntity
  8
MSL1_60_3F-3
100
AcDbLine
 10
-715.353814
 20
18.547727
 30
0.0
 11
-704.553814
 21
18.547727
 31
0.0
  0
LINE
  5
6E06
100
AcDbEntity
  8
MSL1_60_3F-3
100
AcDbLine
 10
-715.353814
 20
14.926727
 30
0.0
 11
-708.353814
 21
14.926727
 31
0.0
  0
LINE
  5
6E07
100
AcDbEntity
  8
MSL1_60_3F-3
100
AcDbLine
 10
-715.353814
 20
15.305727
 30
0.0
 11
-704.553814
 21
15.305727
 31
0.0
  0
LINE
  5
6E08
100
AcDbEntity
  8
MSL1_60_3F-7
100
AcDbLine
 10
-703.353814
 20
9.926727
 30
0.0
 11
-703.353814
 21
23.726727
 31
0.0
  0
LINE
  5
6E09
100
AcDbEntity
  8
MSL1_60_3F-3
100
AcDbLine
 10
-701.353814
 20
10.926727
 30
0.0
 11
-701.353814
 21
17.926727
 31
0.0
  0
LINE
  5
6E0A
100
AcDbEntity
  8
MSL1_60_3F-3
100
AcDbLine
 10
-701.732814
 20
10.926727
 30
0.0
 11
-701.732814
 21
21.726727
 31
0.0
  0
LINE
  5
6E0B
100
AcDbEntity
  8
MSL1_60_3F-3
100
AcDbLine
 10
-705.353814
 20
10.926727
 30
0.0
 11
-705.353814
 21
17.926727
 31
0.0
  0
LINE
  5
6E0C
100
AcDbEntity
  8
MSL1_60_3F-3
100
AcDbLine
 10
-704.974814
 20
10.926727
 30
0.0
 11
-704.974814
 21
21.726727
 31
0.0
  0
LINE
  5
6E0D
100
AcDbEntity
  8
MSL1_60_3F-7
100
AcDbLine
 10
-692.753814
 20
26.926727
 30
0.0
 11
-697.953814
 21
26.926727
 31
0.0
  0
LINE
  5
6E0E
100
AcDbEntity
  8
MSL1_60_3F-7
100
AcDbLine
 10
-690.153814
 20
16.926727
 30
0.0
 11
-700.553814
 21
16.926727
 31
0.0
  0
CIRCLE
  5
6E0F
100
AcDbEntity
  8
MSL1_60_3F-3
100
AcDbCircle
 10
-695.353814
 20
16.926727
 30
0.0
 40
4.0
  0
CIRCLE
  5
6E10
100
AcDbEntity
  8
MSL1_60_3F-0
100
AcDbCircle
 10
-695.353814
 20
16.926727
 30
0.0
 40
2.25
  0
LINE
  5
6E11
100
AcDbEntity
  8
MSL1_60_3F-3
100
AcDbLine
 10
-701.732814
 20
21.726727
 30
0.0
 11
-703.353814
 21
22.662612
 31
0.0
  0
LINE
  5
6E12
100
AcDbEntity
  8
MSL1_60_3F-3
100
AcDbLine
 10
-704.974814
 20
21.726727
 30
0.0
 11
-703.353814
 21
22.662612
 31
0.0
  0
LINE
  5
6E13
100
AcDbEntity
  8
MSL1_60_3F-3
100
AcDbLine
 10
-704.974814
 20
21.726727
 30
0.0
 11
-701.732814
 21
21.726727
 31
0.0
  0
LINE
  5
6E14
100
AcDbEntity
  8
MSL1_60_3F-3
100
AcDbLine
 10
-701.353814
 20
17.926727
 30
0.0
 11
-705.353814
 21
17.926727
 31
0.0
  0
LINE
  5
6E15
100
AcDbEntity
  8
MSL1_60_3F-3
100
AcDbLine
 10
-704.553814
 20
15.305727
 30
0.0
 11
-703.617929
 21
16.926727
 31
0.0
  0
LINE
  5
6E16
100
AcDbEntity
  8
MSL1_60_3F-7
100
AcDbLine
 10
-695.353814
 20
11.726727
 30
0.0
 11
-695.353814
 21
22.126727
 31
0.0
  0
LINE
  5
6E17
100
AcDbEntity
  8
MSL1_60_3F-3
100
AcDbLine
 10
-704.553814
 20
18.547727
 30
0.0
 11
-703.617929
 21
16.926727
 31
0.0
  0
LINE
  5
6E18
100
AcDbEntity
  8
MSL1_60_3F-3
100
AcDbLine
 10
-704.553814
 20
15.305727
 30
0.0
 11
-704.553814
 21
18.547727
 31
0.0
  0
LINE
  5
6E19
100
AcDbEntity
  8
MSL1_60_3F-3
100
AcDbLine
 10
-708.353814
 20
18.926727
 30
0.0
 11
-708.353814
 21
14.926727
 31
0.0
  0
CIRCLE
  5
6E1A
100
AcDbEntity
  8
MSL1_60_3F-0
100
AcDbCircle
 10
-685.353814
 20
16.926727
 30
0.0
 40
2.0
  0
LINE
  5
6E1B
100
AcDbEntity
  8
MSL1_60_3F-7
100
AcDbLine
 10
-712.520953
 20
49.926727
 30
0.0
 11
-692.200953
 21
49.926727
 31
0.0
  0
LINE
  5
6E1C
100
AcDbEntity
  8
MSL1_60_3F-7
100
AcDbLine
 10
-716.353814
 20
36.926727
 30
0.0
 11
-702.553814
 21
36.926727
 31
0.0
  0
LINE
  5
6E1D
100
AcDbEntity
  8
MSL1_60_3F-3
100
AcDbLine
 10
-715.353814
 20
38.926727
 30
0.0
 11
-708.353814
 21
38.926727
 31
0.0
  0
LINE
  5
6E1E
100
AcDbEntity
  8
MSL1_60_3F-3
100
AcDbLine
 10
-715.353814
 20
38.547727
 30
0.0
 11
-704.553814
 21
38.547727
 31
0.0
  0
LINE
  5
6E1F
100
AcDbEntity
  8
MSL1_60_3F-3
100
AcDbLine
 10
-715.353814
 20
34.926727
 30
0.0
 11
-708.353814
 21
34.926727
 31
0.0
  0
LINE
  5
6E20
100
AcDbEntity
  8
MSL1_60_3F-3
100
AcDbLine
 10
-715.353814
 20
35.305727
 30
0.0
 11
-704.553814
 21
35.305727
 31
0.0
  0
ARC
  5
6E21
100
AcDbEntity
  8
MSL1_60_3F-0
100
AcDbCircle
 10
-717.853814
 20
43.926727
 30
0.0
 40
1.5
100
AcDbArc
 50
179.999998
 51
270.000001
  0
LINE
  5
6E22
100
AcDbEntity
  8
MSL1_60_3F-0
100
AcDbLine
 10
-717.853814
 20
42.426727
 30
0.0
 11
-715.353814
 21
42.426727
 31
0.0
  0
ARC
  5
6E24
100
AcDbEntity
  8
MSL1_60_3F-0
100
AcDbCircle
 10
-717.853814
 20
51.926727
 30
0.0
 40
1.5
100
AcDbArc
 50
89.999999
 51
180.000002
  0
LINE
  5
6E25
100
AcDbEntity
  8
MSL1_60_3F-7
100
AcDbLine
 10
-712.688426
 20
47.926727
 30
0.0
 11
-720.858078
 21
47.926727
 31
0.0
  0
LINE
  5
6E26
100
AcDbEntity
  8
MSL1_60_3F-0
100
AcDbLine
 10
-719.353814
 20
51.926727
 30
0.0
 11
-719.353814
 21
43.926727
 31
0.0
  0
LINE
  5
6E27
100
AcDbEntity
  8
MSL1_60_3F-7
100
AcDbLine
 10
-712.688426
 20
49.926727
 30
0.0
 11
-720.858078
 21
49.926727
 31
0.0
  0
LINE
  5
6E28
100
AcDbEntity
  8
MSL1_60_3F-0
100
AcDbLine
 10
-717.853814
 20
53.426727
 30
0.0
 11
-715.353814
 21
53.426727
 31
0.0
  0
LINE
  5
6E29
100
AcDbEntity
  8
MSL1_60_3F-0
100
AcDbLine
 10
-719.353814
 20
53.926727
 30
0.0
 11
-719.353814
 21
50.426727
 31
0.0
  0
CIRCLE
  5
6E2A
100
AcDbEntity
  8
MSL1_60_3F-3
100
AcDbCircle
 10
-695.353814
 20
36.926727
 30
0.0
 40
4.0
  0
LINE
  5
6E2B
100
AcDbEntity
  8
MSL1_60_3F-7
100
AcDbLine
 10
-690.153814
 20
36.926727
 30
0.0
 11
-700.553814
 21
36.926727
 31
0.0
  0
CIRCLE
  5
6E2C
100
AcDbEntity
  8
MSL1_60_3F-0
100
AcDbCircle
 10
-695.353814
 20
36.926727
 30
0.0
 40
2.25
  0
LINE
  5
6E2D
100
AcDbEntity
  8
MSL1_60_3F-7
100
AcDbLine
 10
-695.353814
 20
31.726727
 30
0.0
 11
-695.353814
 21
42.126727
 31
0.0
  0
LINE
  5
6E2E
100
AcDbEntity
  8
MSL1_60_3F-7
100
AcDbLine
 10
-695.353814
 20
31.726727
 30
0.0
 11
-695.353814
 21
42.126727
 31
0.0
  0
LINE
  5
6E2F
100
AcDbEntity
  8
MSL1_60_3F-3
100
AcDbLine
 10
-704.553814
 20
35.305727
 30
0.0
 11
-703.617929
 21
36.926727
 31
0.0
  0
LINE
  5
6E30
100
AcDbEntity
  8
MSL1_60_3F-3
100
AcDbLine
 10
-704.553814
 20
38.547727
 30
0.0
 11
-703.617929
 21
36.926727
 31
0.0
  0
LINE
  5
6E31
100
AcDbEntity
  8
MSL1_60_3F-3
100
AcDbLine
 10
-704.553814
 20
35.305727
 30
0.0
 11
-704.553814
 21
38.547727
 31
0.0
  0
LINE
  5
6E32
100
AcDbEntity
  8
MSL1_60_3F-3
100
AcDbLine
 10
-708.353814
 20
38.926727
 30
0.0
 11
-708.353814
 21
34.926727
 31
0.0
  0
LINE
  5
6E33
100
AcDbEntity
  8
MSL1_60_3F-7
100
AcDbLine
 10
-685.353814
 20
34.326727
 30
0.0
 11
-685.353814
 21
39.526727
 31
0.0
  0
CIRCLE
  5
6E34
100
AcDbEntity
  8
MSL1_60_3F-0
100
AcDbCircle
 10
-685.353814
 20
36.926727
 30
0.0
 40
2.0
  0
LINE
  5
6E35
100
AcDbEntity
  8
MSL1_60_3F-7
100
AcDbLine
 10
-682.753814
 20
36.926727
 30
0.0
 11
-687.953814
 21
36.926727
 31
0.0
  0
CIRCLE
  5
6E37
100
AcDbEntity
  8
MSL1_60_3F-0
100
AcDbCircle
 10
-675.353814
 20
26.926727
 30
0.0
 40
2.0
  0
LINE
  5
6E38
100
AcDbEntity
  8
MSL1_60_3F-7
100
AcDbLine
 10
-675.353814
 20
24.326727
 30
0.0
 11
-675.353814
 21
29.526727
 31
0.0
  0
LINE
  5
6E39
100
AcDbEntity
  8
MSL1_60_3F-0
100
AcDbLine
 10
-655.353814
 20
54.418625
 30
0.0
 11
-655.353814
 21
10.926727
 31
0.0
  0
LINE
  5
6E3B
100
AcDbEntity
  8
MSL1_60_3F-7
100
AcDbLine
 10
-665.353814
 20
32.195825
 30
0.0
 11
-665.353814
 21
21.926727
 31
0.0
  0
LINE
  5
6E3C
100
AcDbEntity
  8
MSL1_60_3F-7
100
AcDbLine
 10
-667.353814
 20
9.926727
 30
0.0
 11
-667.353814
 21
23.726727
 31
0.0
  0
LINE
  5
6E3D
100
AcDbEntity
  8
MSL1_60_3F-3
100
AcDbLine
 10
-665.353814
 20
10.926727
 30
0.0
 11
-665.353814
 21
17.926727
 31
0.0
  0
LINE
  5
6E3E
100
AcDbEntity
  8
MSL1_60_3F-3
100
AcDbLine
 10
-665.732814
 20
10.926727
 30
0.0
 11
-665.732814
 21
21.726727
 31
0.0
  0
LINE
  5
6E3F
100
AcDbEntity
  8
MSL1_60_3F-3
100
AcDbLine
 10
-669.353814
 20
10.926727
 30
0.0
 11
-669.353814
 21
17.926727
 31
0.0
  0
LINE
  5
6E40
100
AcDbEntity
  8
MSL1_60_3F-3
100
AcDbLine
 10
-668.974814
 20
10.926727
 30
0.0
 11
-668.974814
 21
21.726727
 31
0.0
  0
LINE
  5
6E41
100
AcDbEntity
  8
MSL1_60_3F-7
100
AcDbLine
 10
-654.353814
 20
16.926727
 30
0.0
 11
-668.153814
 21
16.926727
 31
0.0
  0
LINE
  5
6E42
100
AcDbEntity
  8
MSL1_60_3F-3
100
AcDbLine
 10
-655.353814
 20
18.926727
 30
0.0
 11
-662.353814
 21
18.926727
 31
0.0
  0
LINE
  5
6E43
100
AcDbEntity
  8
MSL1_60_3F-3
100
AcDbLine
 10
-655.353814
 20
18.547727
 30
0.0
 11
-666.153814
 21
18.547727
 31
0.0
  0
LINE
  5
6E44
100
AcDbEntity
  8
MSL1_60_3F-3
100
AcDbLine
 10
-655.353814
 20
14.926727
 30
0.0
 11
-662.353814
 21
14.926727
 31
0.0
  0
LINE
  5
6E45
100
AcDbEntity
  8
MSL1_60_3F-3
100
AcDbLine
 10
-655.353814
 20
15.305727
 30
0.0
 11
-666.153814
 21
15.305727
 31
0.0
  0
LINE
  5
6E46
100
AcDbEntity
  8
MSL1_60_3F-3
100
AcDbLine
 10
-665.732814
 20
21.726727
 30
0.0
 11
-667.353814
 21
22.662612
 31
0.0
  0
LINE
  5
6E47
100
AcDbEntity
  8
MSL1_60_3F-3
100
AcDbLine
 10
-668.974814
 20
21.726727
 30
0.0
 11
-667.353814
 21
22.662612
 31
0.0
  0
LINE
  5
6E48
100
AcDbEntity
  8
MSL1_60_3F-3
100
AcDbLine
 10
-668.974814
 20
21.726727
 30
0.0
 11
-665.732814
 21
21.726727
 31
0.0
  0
LINE
  5
6E49
100
AcDbEntity
  8
MSL1_60_3F-3
100
AcDbLine
 10
-665.353814
 20
17.926727
 30
0.0
 11
-669.353814
 21
17.926727
 31
0.0
  0
LINE
  5
6E4A
100
AcDbEntity
  8
MSL1_60_3F-3
100
AcDbLine
 10
-666.153814
 20
15.305727
 30
0.0
 11
-667.089699
 21
16.926727
 31
0.0
  0
LINE
  5
6E4B
100
AcDbEntity
  8
MSL1_60_3F-7
100
AcDbLine
 10
-675.353814
 20
11.726727
 30
0.0
 11
-675.353814
 21
22.126727
 31
0.0
  0
CIRCLE
  5
6E4C
100
AcDbEntity
  8
MSL1_60_3F-0
100
AcDbCircle
 10
-675.353814
 20
16.926727
 30
0.0
 40
2.25
  0
LINE
  5
6E4D
100
AcDbEntity
  8
MSL1_60_3F-3
100
AcDbLine
 10
-666.153814
 20
18.547727
 30
0.0
 11
-667.089699
 21
16.926727
 31
0.0
  0
LINE
  5
6E4E
100
AcDbEntity
  8
MSL1_60_3F-3
100
AcDbLine
 10
-666.153814
 20
15.305727
 30
0.0
 11
-666.153814
 21
18.547727
 31
0.0
  0
LINE
  5
6E4F
100
AcDbEntity
  8
MSL1_60_3F-3
100
AcDbLine
 10
-662.353814
 20
18.926727
 30
0.0
 11
-662.353814
 21
14.926727
 31
0.0
  0
LINE
  5
6E50
100
AcDbEntity
  8
MSL1_60_3F-7
100
AcDbLine
 10
-667.353814
 20
57.853793
 30
0.0
 11
-667.353814
 21
42.051554
 31
0.0
  0
LINE
  5
6E51
100
AcDbEntity
  8
MSL1_60_3F-7
100
AcDbLine
 10
-654.353814
 20
36.926727
 30
0.0
 11
-668.153814
 21
36.926727
 31
0.0
  0
LINE
  5
6E52
100
AcDbEntity
  8
MSL1_60_3F-3
100
AcDbLine
 10
-655.353814
 20
38.926727
 30
0.0
 11
-662.353814
 21
38.926727
 31
0.0
  0
LINE
  5
6E53
100
AcDbEntity
  8
MSL1_60_3F-3
100
AcDbLine
 10
-655.353814
 20
38.547727
 30
0.0
 11
-666.153814
 21
38.547727
 31
0.0
  0
LINE
  5
6E54
100
AcDbEntity
  8
MSL1_60_3F-3
100
AcDbLine
 10
-655.353814
 20
34.926727
 30
0.0
 11
-662.353814
 21
34.926727
 31
0.0
  0
LINE
  5
6E55
100
AcDbEntity
  8
MSL1_60_3F-3
100
AcDbLine
 10
-655.353814
 20
35.305727
 30
0.0
 11
-666.153814
 21
35.305727
 31
0.0
  0
LINE
  5
6E56
100
AcDbEntity
  8
MSL1_60_3F-3
100
AcDbLine
 10
-666.153814
 20
35.305727
 30
0.0
 11
-667.089699
 21
36.926727
 31
0.0
  0
LINE
  5
6E57
100
AcDbEntity
  8
MSL1_60_3F-3
100
AcDbLine
 10
-666.153814
 20
38.547727
 30
0.0
 11
-667.089699
 21
36.926727
 31
0.0
  0
LINE
  5
6E58
100
AcDbEntity
  8
MSL1_60_3F-3
100
AcDbLine
 10
-666.153814
 20
35.305727
 30
0.0
 11
-666.153814
 21
38.547727
 31
0.0
  0
LINE
  5
6E59
100
AcDbEntity
  8
MSL1_60_3F-3
100
AcDbLine
 10
-662.353814
 20
38.926727
 30
0.0
 11
-662.353814
 21
34.926727
 31
0.0
  0
LINE
  5
6E5A
100
AcDbEntity
  8
MSL1_60_3F-7
100
AcDbLine
 10
-675.353814
 20
31.726727
 30
0.0
 11
-675.353814
 21
42.126727
 31
0.0
  0
LINE
  5
6E5B
100
AcDbEntity
  8
MSL1_60_3F-7
100
AcDbLine
 10
-675.353814
 20
31.726727
 30
0.0
 11
-675.353814
 21
42.126727
 31
0.0
  0
CIRCLE
  5
6E5C
100
AcDbEntity
  8
MSL1_60_3F-0
100
AcDbCircle
 10
-675.353814
 20
36.926727
 30
0.0
 40
2.25
  0
LINE
  5
6E5D
100
AcDbEntity
  8
MSL1_60_3F-7
100
AcDbLine
 10
-660.203814
 20
49.926727
 30
0.0
 11
-674.503814
 21
49.926727
 31
0.0
  0
ARC
  5
6E62
100
AcDbEntity
  8
MSL1_60_3F-0
100
AcDbCircle
 10
-563.6983
 20
-37.206275
 30
0.0
 40
3.108681
100
AcDbArc
 50
127.878142
 51
232.121858
  0
ARC
  5
6E63
100
AcDbEntity
  8
MSL1_60_3F-0
100
AcDbCircle
 10
-564.915661
 20
-37.206275
 30
0.0
 40
3.108681
100
AcDbArc
 50
307.878144
 51
52.121856
  0
LINE
  5
6E65
100
AcDbEntity
  8
MSL1_60_3F-3
100
AcDbLine
 10
-577.806981
 20
-31.567491
 30
0.0
 11
-577.806981
 21
-38.567491
 31
0.0
  0
LINE
  5
6E66
100
AcDbEntity
  8
MSL1_60_3F-3
100
AcDbLine
 10
-578.185981
 20
-31.567491
 30
0.0
 11
-578.185981
 21
-42.367491
 31
0.0
  0
LINE
  5
6E67
100
AcDbEntity
  8
MSL1_60_3F-3
100
AcDbLine
 10
-581.427981
 20
-31.567491
 30
0.0
 11
-581.427981
 21
-42.367491
 31
0.0
  0
LINE
  5
6E68
100
AcDbEntity
  8
MSL1_60_3F-3
100
AcDbLine
 10
-581.806981
 20
-31.567491
 30
0.0
 11
-581.806981
 21
-38.567491
 31
0.0
  0
LINE
  5
6E69
100
AcDbEntity
  8
MSL1_60_3F-7
100
AcDbLine
 10
-579.806981
 20
-30.567491
 30
0.0
 11
-579.806981
 21
-44.367491
 31
0.0
  0
LINE
  5
6E6A
100
AcDbEntity
  8
MSL1_60_3F-3
100
AcDbLine
 10
-581.806981
 20
-38.567491
 30
0.0
 11
-577.806981
 21
-38.567491
 31
0.0
  0
LINE
  5
6E6B
100
AcDbEntity
  8
MSL1_60_3F-3
100
AcDbLine
 10
-578.185981
 20
-42.367491
 30
0.0
 11
-581.427981
 21
-42.367491
 31
0.0
  0
LINE
  5
6E6C
100
AcDbEntity
  8
MSL1_60_3F-3
100
AcDbLine
 10
-581.427981
 20
-42.367491
 30
0.0
 11
-579.806981
 21
-43.303376
 31
0.0
  0
LINE
  5
6E6D
100
AcDbEntity
  8
MSL1_60_3F-7
100
AcDbLine
 10
-569.806981
 20
-51.567491
 30
0.0
 11
-585.806981
 21
-51.567491
 31
0.0
1001
GENIUS_GENOREF_13
1005
740D
  0
ARC
  5
6E6E
100
AcDbEntity
  8
MSL1_60_3F-0
100
AcDbCircle
 10
-563.6983
 20
-51.928707
 30
0.0
 40
3.108681
100
AcDbArc
 50
127.878142
 51
232.121858
  0
ARC
  5
6E6F
100
AcDbEntity
  8
MSL1_60_3F-0
100
AcDbCircle
 10
-564.915661
 20
-51.928707
 30
0.0
 40
3.108681
100
AcDbArc
 50
307.878144
 51
52.121856
  0
LINE
  5
6E70
100
AcDbEntity
  8
MSL1_60_3F-0
100
AcDbLine
 10
-561.806981
 20
-54.567491
 30
0.0
 11
-569.806981
 21
-54.567491
 31
0.0
  0
LINE
  5
6E71
100
AcDbEntity
  8
MSL1_60_3F-0
100
AcDbLine
 10
-565.606981
 20
-54.382445
 30
0.0
 11
-563.006981
 21
-54.382445
 31
0.0
  0
LINE
  5
6E72
100
AcDbEntity
  8
MSL1_60_3F-0
100
AcDbLine
 10
-569.806981
 20
-54.567491
 30
0.0
 11
-570.806981
 21
-55.567491
 31
0.0
  0
LINE
  5
6E73
100
AcDbEntity
  8
MSL1_60_3F-3
100
AcDbLine
 10
-571.806981
 20
-63.567491
 30
0.0
 11
-570.806981
 21
-63.567491
 31
0.0
1001
GENIUS_GENBH_13
1002
{
1000
OE
1000
CON1
1002
}
1001
GENIUS_GENOREF_13
1005
73F1
  0
LINE
  5
6E74
100
AcDbEntity
  8
MSL1_60_3F-3
100
AcDbLine
 10
-571.806981
 20
-59.567491
 30
0.0
 11
-570.806981
 21
-59.567491
 31
0.0
1001
GENIUS_GENBH_13
1002
{
1000
OE
1000
CON1
1002
}
1001
GENIUS_GENOREF_13
1005
73F1
  0
LINE
  5
6E75
100
AcDbEntity
  8
MSL1_60_3F-0
100
AcDbLine
 10
-570.806981
 20
-55.567491
 30
0.0
 11
-570.806981
 21
-57.567491
 31
0.0
1001
GENIUS_GENOREF_13
1005
73F1
  0
LINE
  5
6E79
100
AcDbEntity
  8
MSL1_60_3F-7
100
AcDbLine
 10
-549.256981
 20
-61.567491
 30
0.0
 11
-555.756981
 21
-61.567491
 31
0.0
  0
LINE
  5
6E7A
100
AcDbEntity
  8
MSL1_60_3F-7
100
AcDbLine
 10
-552.506981
 20
-61.567491
 30
0.0
 11
-549.256981
 21
-61.567491
 31
0.0
  0
LINE
  5
6E7C
100
AcDbEntity
  8
MSL1_60_3F-0
100
AcDbLine
 10
-565.606981
 20
-39.660014
 30
0.0
 11
-563.006981
 21
-39.660014
 31
0.0
  0
LINE
  5
6E7D
100
AcDbEntity
  8
MSL1_60_3F-7
100
AcDbLine
 10
-575.10129
 20
-44.567491
 30
0.0
 11
-558.314306
 21
-44.567491
 31
0.0
1001
GENIUS_GENOREF_13
1005
740D
  0
LINE
  5
6E7E
100
AcDbEntity
  8
MSL1_60_3F-7
100
AcDbLine
 10
-578.43634
 20
-41.567491
 30
0.0
 11
-556.445421
 21
-41.567491
 31
0.0
1001
GENIUS_GENOREF_13
1005
740D
  0
LINE
  5
6E7F
100
AcDbEntity
  8
MSL1_60_3F-0
100
AcDbLine
 10
-565.606981
 20
-49.474968
 30
0.0
 11
-563.006981
 21
-49.474968
 31
0.0
  0
LINE
  5
6E80
100
AcDbEntity
  8
MSL1_60_3F-0
100
AcDbLine
 10
-568.806981
 20
-37.567491
 30
0.0
 11
-566.828038
 21
-37.567491
 31
0.0
  0
LINE
  5
6E81
100
AcDbEntity
  8
MSL1_60_3F-0
100
AcDbLine
 10
-569.806981
 20
-38.567491
 30
0.0
 11
-568.806981
 21
-37.567491
 31
0.0
  0
LINE
  5
6E82
100
AcDbEntity
  8
MSL1_60_3F-0
100
AcDbLine
 10
-571.806981
 20
-37.567491
 30
0.0
 11
-568.806981
 21
-37.567491
 31
0.0
  0
LINE
  5
6E83
100
AcDbEntity
  8
MSL1_60_3F-3
100
AcDbLine
 10
-578.185981
 20
-42.367491
 30
0.0
 11
-579.806981
 21
-43.303376
 31
0.0
  0
LINE
  5
6E84
100
AcDbEntity
  8
MSL1_60_3F-0
100
AcDbLine
 10
-569.806981
 20
-42.517491
 30
0.0
 11
-571.806981
 21
-42.517491
 31
0.0
1001
GENIUS_GENOREF_13
1005
740D
  0
CIRCLE
  5
6E85
100
AcDbEntity
  8
MSL1_60_3F-3
100
AcDbCircle
 10
-574.806981
 20
-43.567491
 30
0.0
 40
1.621
1001
GENIUS_GENOREF_13
1005
740D
  0
ARC
  5
6E86
100
AcDbEntity
  8
MSL1_60_3F-3
100
AcDbCircle
 10
-574.806981
 20
-43.567491
 30
0.0
 40
2.0
100
AcDbArc
 50
172.405357
 51
104.931417
1001
GENIUS_GENOREF_13
1005
740D
  0
LINE
  5
6E87
100
AcDbEntity
  8
MSL1_60_3F-7
100
AcDbLine
 10
-577.806981
 20
-43.567491
 30
0.0
 11
-571.806981
 21
-43.567491
 31
0.0
1001
GENIUS_GENOREF_13
1005
740D
  0
LINE
  5
6E88
100
AcDbEntity
  8
MSL1_60_3F-0
100
AcDbLine
 10
-568.806981
 20
-51.567491
 30
0.0
 11
-569.806981
 21
-50.567491
 31
0.0
  0
LINE
  5
6E89
100
AcDbEntity
  8
MSL1_60_3F-0
100
AcDbLine
 10
-566.828038
 20
-51.567491
 30
0.0
 11
-568.806981
 21
-51.567491
 31
0.0
  0
LINE
  5
6E8A
100
AcDbEntity
  8
MSL1_60_3F-3
100
AcDbLine
 10
-573.806981
 20
-46.617491
 30
0.0
 11
-571.806981
 21
-46.617491
 31
0.0
1001
GENIUS_GENBH_13
1002
{
1000
OE
1000
CON1
1002
}
1001
GENIUS_GENOREF_13
1005
740D
  0
ARC
  5
6E8B
100
AcDbEntity
  8
MSL1_60_3F-0
100
AcDbCircle
 10
-556.172258
 20
-44.567491
 30
0.0
 40
10.634722
100
AcDbArc
 50
152.518771
 51
207.481229
  0
LINE
  5
6E8C
100
AcDbEntity
  8
MSL1_60_3F-0
100
AcDbLine
 10
-569.806981
 20
-50.567491
 30
0.0
 11
-569.806981
 21
-38.567491
 31
0.0
  0
LINE
  5
6E8D
100
AcDbEntity
  8
MSL1_60_3F-0
100
AcDbLine
 10
-566.806981
 20
-37.206275
 30
0.0
 11
-566.806981
 21
-51.928707
 31
0.0
  0
LINE
  5
6E8E
100
AcDbEntity
  8
MSL1_60_3F-0
100
AcDbLine
 10
-568.806981
 20
-37.567491
 30
0.0
 11
-568.806981
 21
-51.567491
 31
0.0
  0
LINE
  5
6E8F
100
AcDbEntity
  8
MSL1_60_3F-3
100
AcDbLine
 10
-573.806981
 20
-42.517491
 30
0.0
 11
-573.806981
 21
-46.617491
 31
0.0
1001
GENIUS_GENBH_13
1002
{
1000
OE
1000
CON1
1002
}
1001
GENIUS_GENOREF_13
1005
740D
  0
LINE
  5
6E90
100
AcDbEntity
  8
MSL1_60_3F-7
100
AcDbLine
 10
-574.806981
 20
-46.567491
 30
0.0
 11
-574.806981
 21
-40.567491
 31
0.0
1001
GENIUS_GENOREF_13
1005
740D
  0
ARC
  5
6E91
100
AcDbEntity
  8
MSL1_60_3F-0
100
AcDbCircle
 10
-572.441703
 20
-44.567491
 30
0.0
 40
10.634722
100
AcDbArc
 50
332.518773
 51
27.481227
  0
LINE
  5
6E92
100
AcDbEntity
  8
MSL1_60_3F-0
100
AcDbLine
 10
-561.806981
 20
-37.206275
 30
0.0
 11
-561.806981
 21
-51.928707
 31
0.0
  0
LINE
  5
6E93
100
AcDbEntity
  8
MSL1_60_3F-0
100
AcDbLine
 10
-571.806981
 20
-31.567491
 30
0.0
 11
-583.806981
 21
-31.567491
 31
0.0
1001
GENIUS_GENOREF_13
1005
740C
  0
LINE
  5
6E94
100
AcDbEntity
  8
MSL1_60_3F-0
100
AcDbLine
 10
-565.606981
 20
-34.752536
 30
0.0
 11
-563.006981
 21
-34.752536
 31
0.0
  0
LINE
  5
6E96
100
AcDbEntity
  8
MSL1_60_3F-7
100
AcDbLine
 10
-513.806981
 20
-51.567491
 30
0.0
 11
-516.929709
 21
-51.567491
 31
0.0
  0
LINE
  5
6E97
100
AcDbEntity
  8
MSL1_60_3F-7
100
AcDbLine
 10
-523.806981
 20
-54.567491
 30
0.0
 11
-523.806981
 21
-48.567491
 31
0.0
  0
CIRCLE
  5
6E98
100
AcDbEntity
  8
MSL1_60_3F-3
100
AcDbCircle
 10
-523.806981
 20
-51.567491
 30
0.0
 40
1.621
  0
ARC
  5
6E99
100
AcDbEntity
  8
MSL1_60_3F-3
100
AcDbCircle
 10
-523.806981
 20
-51.567491
 30
0.0
 40
2.0
100
AcDbArc
 50
172.405357
 51
104.931417
  0
LINE
  5
6E9A
100
AcDbEntity
  8
MSL1_60_3F-7
100
AcDbLine
 10
-526.806981
 20
-51.567491
 30
0.0
 11
-520.806981
 21
-51.567491
 31
0.0
  0
LINE
  5
6E9B
100
AcDbEntity
  8
MSL1_60_3F-7
100
AcDbLine
 10
-503.806981
 20
-54.567491
 30
0.0
 11
-503.806981
 21
-48.567491
 31
0.0
  0
LINE
  5
6E9C
100
AcDbEntity
  8
MSL1_60_3F-7
100
AcDbLine
 10
-513.806981
 20
-51.567491
 30
0.0
 11
-513.806981
 21
-54.69022
 31
0.0
  0
CIRCLE
  5
6E9D
100
AcDbEntity
  8
MSL1_60_3F-3
100
AcDbCircle
 10
-513.806981
 20
-51.567491
 30
0.0
 40
2.0
  0
CIRCLE
  5
6E9E
100
AcDbEntity
  8
MSL1_60_3F-3
100
AcDbCircle
 10
-503.806981
 20
-51.567491
 30
0.0
 40
1.621
  0
ARC
  5
6E9F
100
AcDbEntity
  8
MSL1_60_3F-3
100
AcDbCircle
 10
-503.806981
 20
-51.567491
 30
0.0
 40
2.0
100
AcDbArc
 50
172.405357
 51
104.931417
  0
LINE
  5
6EA1
100
AcDbEntity
  8
MSL1_60_3F-7
100
AcDbLine
 10
-513.806981
 20
-51.567491
 30
0.0
 11
-513.806981
 21
-48.444763
 31
0.0
  0
LINE
  5
6EA2
100
AcDbEntity
  8
MSL1_60_3F-7
100
AcDbLine
 10
-513.806981
 20
-51.567491
 30
0.0
 11
-510.684253
 21
-51.567491
 31
0.0
  0
LINE
  5
6EA3
100
AcDbEntity
  8
MSL1_60_3F-7
100
AcDbLine
 10
-506.806981
 20
-51.567491
 30
0.0
 11
-500.806981
 21
-51.567491
 31
0.0
  0
MTEXT
  5
6EA7
100
AcDbEntity
  8
MSL1_60_3F-6
100
AcDbMText
 10
-560.86871
 20
16.192187
 30
0.0
 40
3.5
 41
23.418615
 71
     1
 72
     1
  1
{MSL-1-60-3F}
  0
LINE
  5
6EA8
100
AcDbEntity
  8
MSL1_60_3F-0
100
AcDbLine
 10
-571.806981
 20
41.926727
 30
0.0
 11
-571.806981
 21
10.926727
 31
0.0
  0
LINE
  5
6EAA
100
AcDbEntity
  8
MSL1_60_3F-7
100
AcDbLine
 10
-582.806981
 20
16.926727
 30
0.0
 11
-576.806981
 21
16.926727
 31
0.0
  0
CIRCLE
  5
6EAB
100
AcDbEntity
  8
MSL1_60_3F-0
100
AcDbCircle
 10
-579.806981
 20
16.926727
 30
0.0
 40
1.621
  0
ARC
  5
6EAC
100
AcDbEntity
  8
MSL1_60_3F-4
100
AcDbCircle
 10
-579.806981
 20
16.926727
 30
0.0
 40
2.0
100
AcDbArc
 50
172.405357
 51
104.931417
  0
LINE
  5
6EAD
100
AcDbEntity
  8
MSL1_60_3F-0
100
AcDbLine
 10
-571.806981
 20
10.926727
 30
0.0
 11
-583.806981
 21
10.926727
 31
0.0
  0
LINE
  5
6EAE
100
AcDbEntity
  8
MSL1_60_3F-7
100
AcDbLine
 10
-586.698981
 20
16.926727
 30
0.0
 11
-568.918981
 21
16.926727
 31
0.0
  0
LINE
  5
6EAF
100
AcDbEntity
  8
MSL1_60_3F-3
100
AcDbLine
 10
-572.806981
 20
10.926727
 30
0.0
 11
-572.806981
 21
17.926727
 31
0.0
  0
LINE
  5
6EB0
100
AcDbEntity
  8
MSL1_60_3F-3
100
AcDbLine
 10
-573.185981
 20
10.926727
 30
0.0
 11
-573.185981
 21
21.726727
 31
0.0
  0
LINE
  5
6EB1
100
AcDbEntity
  8
MSL1_60_3F-7
100
AcDbLine
 10
-574.806981
 20
9.926727
 30
0.0
 11
-574.806981
 21
23.726727
 31
0.0
  0
LINE
  5
6EB2
100
AcDbEntity
  8
MSL1_60_3F-3
100
AcDbLine
 10
-576.806981
 20
10.926727
 30
0.0
 11
-576.806981
 21
17.926727
 31
0.0
  0
LINE
  5
6EB3
100
AcDbEntity
  8
MSL1_60_3F-3
100
AcDbLine
 10
-576.427981
 20
10.926727
 30
0.0
 11
-576.427981
 21
21.726727
 31
0.0
  0
LINE
  5
6EB4
100
AcDbEntity
  8
MSL1_60_3F-0
100
AcDbLine
 10
-571.806981
 20
22.926727
 30
0.0
 11
-561.806981
 21
22.926727
 31
0.0
  0
LINE
  5
6EB5
100
AcDbEntity
  8
MSL1_60_3F-0
100
AcDbLine
 10
-561.806981
 20
19.926727
 30
0.0
 11
-569.806981
 21
19.926727
 31
0.0
  0
LINE
  5
6EB6
100
AcDbEntity
  8
MSL1_60_3F-0
100
AcDbLine
 10
-569.806981
 20
22.926727
 30
0.0
 11
-569.806981
 21
19.926727
 31
0.0
  0
LINE
  5
6EB7
100
AcDbEntity
  8
MSL1_60_3F-0
100
AcDbLine
 10
-570.806981
 20
20.926727
 30
0.0
 11
-570.806981
 21
22.926727
 31
0.0
  0
LINE
  5
6EB8
100
AcDbEntity
  8
MSL1_60_3F-0
100
AcDbLine
 10
-569.806981
 20
19.926727
 30
0.0
 11
-570.806981
 21
20.926727
 31
0.0
  0
LINE
  5
6EB9
100
AcDbEntity
  8
MSL1_60_3F-3
100
AcDbLine
 10
-576.427981
 20
21.726727
 30
0.0
 11
-574.806981
 21
22.662612
 31
0.0
  0
LINE
  5
6EBA
100
AcDbEntity
  8
MSL1_60_3F-7
100
AcDbLine
 10
-579.806981
 20
13.926727
 30
0.0
 11
-579.806981
 21
19.926727
 31
0.0
  0
LINE
  5
6EBB
100
AcDbEntity
  8
MSL1_60_3F-3
100
AcDbLine
 10
-573.185981
 20
21.726727
 30
0.0
 11
-574.806981
 21
22.662612
 31
0.0
  0
LINE
  5
6EBC
100
AcDbEntity
  8
MSL1_60_3F-3
100
AcDbLine
 10
-576.427981
 20
21.726727
 30
0.0
 11
-573.185981
 21
21.726727
 31
0.0
  0
LINE
  5
6EBD
100
AcDbEntity
  8
MSL1_60_3F-3
100
AcDbLine
 10
-572.806981
 20
17.926727
 30
0.0
 11
-576.806981
 21
17.926727
 31
0.0
  0
CIRCLE
  5
6EBF
100
AcDbEntity
  8
MSL1_60_3F-0
100
AcDbCircle
 10
-579.806981
 20
36.926727
 30
0.0
 40
1.621
  0
ARC
  5
6EC0
100
AcDbEntity
  8
MSL1_60_3F-4
100
AcDbCircle
 10
-579.806981
 20
36.926727
 30
0.0
 40
2.0
100
AcDbArc
 50
172.405357
 51
104.931417
  0
LINE
  5
6EC1
100
AcDbEntity
  8
MSL1_60_3F-7
100
AcDbLine
 10
-582.806981
 20
36.926727
 30
0.0
 11
-576.806981
 21
36.926727
 31
0.0
  0
LINE
  5
6EC2
100
AcDbEntity
  8
MSL1_60_3F-7
100
AcDbLine
 10
-585.806981
 20
36.926727
 30
0.0
 11
-569.806981
 21
36.926727
 31
0.0
  0
ARC
  5
6EC3
100
AcDbEntity
  8
MSL1_60_3F-0
100
AcDbCircle
 10
-564.915661
 20
42.565511
 30
0.0
 40
3.108681
100
AcDbArc
 50
307.878144
 51
52.121856
  0
ARC
  5
6EC4
100
AcDbEntity
  8
MSL1_60_3F-0
100
AcDbCircle
 10
-563.6983
 20
42.565511
 30
0.0
 40
3.108681
100
AcDbArc
 50
127.878142
 51
232.121858
  0
LINE
  5
6EC6
100
AcDbEntity
  8
MSL1_60_3F-0
100
AcDbLine
 10
-566.806981
 20
57.287943
 30
0.0
 11
-566.806981
 21
42.565511
 31
0.0
  0
LINE
  5
6EC7
100
AcDbEntity
  8
MSL1_60_3F-0
100
AcDbLine
 10
-569.806981
 20
33.926727
 30
0.0
 11
-561.806981
 21
33.926727
 31
0.0
  0
LINE
  5
6EC8
100
AcDbEntity
  8
MSL1_60_3F-0
100
AcDbLine
 10
-571.806981
 20
30.926727
 30
0.0
 11
-561.806981
 21
30.926727
 31
0.0
  0
LINE
  5
6EC9
100
AcDbEntity
  8
MSL1_60_3F-0
100
AcDbLine
 10
-563.006981
 20
40.111773
 30
0.0
 11
-565.606981
 21
40.111773
 31
0.0
  0
LINE
  5
6ECA
100
AcDbEntity
  8
MSL1_60_3F-0
100
AcDbLine
 10
-570.806981
 20
30.926727
 30
0.0
 11
-570.806981
 21
32.926727
 31
0.0
  0
LINE
  5
6ECB
100
AcDbEntity
  8
MSL1_60_3F-0
100
AcDbLine
 10
-570.806981
 20
32.926727
 30
0.0
 11
-569.806981
 21
33.926727
 31
0.0
  0
LINE
  5
6ECC
100
AcDbEntity
  8
MSL1_60_3F-0
100
AcDbLine
 10
-569.806981
 20
33.926727
 30
0.0
 11
-569.806981
 21
30.926727
 31
0.0
  0
LINE
  5
6ECD
100
AcDbEntity
  8
MSL1_60_3F-7
100
AcDbLine
 10
-579.806981
 20
33.926727
 30
0.0
 11
-579.806981
 21
39.926727
 31
0.0
  0
LINE
  5
6ECF
100
AcDbEntity
  8
MSL1_60_3F-0
100
AcDbLine
 10
-563.006981
 20
45.01925
 30
0.0
 11
-565.606981
 21
45.01925
 31
0.0
  0
LINE
  5
6ED0
100
AcDbEntity
  8
MSL1_60_3F-0
100
AcDbLine
 10
-563.006981
 20
54.834205
 30
0.0
 11
-565.606981
 21
54.834205
 31
0.0
  0
LINE
  5
6ED1
100
AcDbEntity
  8
MSL1_60_3F-7
100
AcDbLine
 10
-580.10129
 20
49.926727
 30
0.0
 11
-559.69576
 21
49.926727
 31
0.0
  0
LINE
  5
6ED2
100
AcDbEntity
  8
MSL1_60_3F-0
100
AcDbLine
 10
-566.806981
 20
56.926727
 30
0.0
 11
-568.806981
 21
56.926727
 31
0.0
  0
LINE
  5
6ED3
100
AcDbEntity
  8
MSL1_60_3F-0
100
AcDbLine
 10
-569.806981
 20
55.926727
 30
0.0
 11
-569.806981
 21
43.926727
 31
0.0
  0
ARC
  5
6ED4
100
AcDbEntity
  8
MSL1_60_3F-0
100
AcDbCircle
 10
-556.172258
 20
49.926727
 30
0.0
 40
10.634722
100
AcDbArc
 50
152.518771
 51
207.481229
  0
LINE
  5
6ED5
100
AcDbEntity
  8
MSL1_60_3F-0
100
AcDbLine
 10
-568.806981
 20
42.926727
 30
0.0
 11
-566.806981
 21
42.926727
 31
0.0
  0
LINE
  5
6ED6
100
AcDbEntity
  8
MSL1_60_3F-0
100
AcDbLine
 10
-569.806981
 20
43.926727
 30
0.0
 11
-568.806981
 21
42.926727
 31
0.0
  0
LINE
  5
6ED7
100
AcDbEntity
  8
MSL1_60_3F-0
100
AcDbLine
 10
-573.806981
 20
47.526727
 30
0.0
 11
-573.806981
 21
52.326727
 31
0.0
  0
LINE
  5
6ED8
100
AcDbEntity
  8
MSL1_60_3F-0
100
AcDbLine
 10
-569.806981
 20
47.526727
 30
0.0
 11
-573.806981
 21
47.526727
 31
0.0
  0
LINE
  5
6ED9
100
AcDbEntity
  8
MSL1_60_3F-0
100
AcDbLine
 10
-573.806981
 20
52.326727
 30
0.0
 11
-569.806981
 21
52.326727
 31
0.0
  0
LINE
  5
6EDA
100
AcDbEntity
  8
MSL1_60_3F-0
100
AcDbLine
 10
-568.806981
 20
56.926727
 30
0.0
 11
-568.806981
 21
42.926727
 31
0.0
  0
LINE
  5
6EDB
100
AcDbEntity
  8
MSL1_60_3F-0
100
AcDbLine
 10
-568.806981
 20
56.926727
 30
0.0
 11
-569.806981
 21
55.926727
 31
0.0
  0
ARC
  5
6EDC
100
AcDbEntity
  8
MSL1_60_3F-0
100
AcDbCircle
 10
-572.441703
 20
49.926727
 30
0.0
 40
10.634722
100
AcDbArc
 50
332.518773
 51
27.481227
  0
LINE
  5
6EDD
100
AcDbEntity
  8
MSL1_60_3F-7
100
AcDbLine
 10
-513.806981
 20
33.803999
 30
0.0
 11
-513.806981
 21
20.049455
 31
0.0
  0
LINE
  5
6EDE
100
AcDbEntity
  8
MSL1_60_3F-7
100
AcDbLine
 10
-513.806981
 20
16.926727
 30
0.0
 11
-516.929709
 21
16.926727
 31
0.0
  0
LINE
  5
6EDF
100
AcDbEntity
  8
MSL1_60_3F-7
100
AcDbLine
 10
-526.806981
 20
16.926727
 30
0.0
 11
-520.806981
 21
16.926727
 31
0.0
  0
LINE
  5
6EE0
100
AcDbEntity
  8
MSL1_60_3F-7
100
AcDbLine
 10
-523.806981
 20
13.926727
 30
0.0
 11
-523.806981
 21
19.926727
 31
0.0
  0
CIRCLE
  5
6EE1
100
AcDbEntity
  8
MSL1_60_3F-0
100
AcDbCircle
 10
-523.806981
 20
16.926727
 30
0.0
 40
1.621
  0
ARC
  5
6EE2
100
AcDbEntity
  8
MSL1_60_3F-4
100
AcDbCircle
 10
-523.806981
 20
16.926727
 30
0.0
 40
2.0
100
AcDbArc
 50
172.405357
 51
104.931417
  0
LINE
  5
6EE3
100
AcDbEntity
  8
MSL1_60_3F-7
100
AcDbLine
 10
-513.806981
 20
16.926727
 30
0.0
 11
-513.806981
 21
13.803999
 31
0.0
  0
LINE
  5
6EE4
100
AcDbEntity
  8
MSL1_60_3F-7
100
AcDbLine
 10
-513.806981
 20
16.926727
 30
0.0
 11
-510.684253
 21
16.926727
 31
0.0
  0
LINE
  5
6EE5
100
AcDbEntity
  8
MSL1_60_3F-7
100
AcDbLine
 10
-506.806981
 20
16.926727
 30
0.0
 11
-500.806981
 21
16.926727
 31
0.0
  0
LINE
  5
6EE6
100
AcDbEntity
  8
MSL1_60_3F-7
100
AcDbLine
 10
-503.806981
 20
13.926727
 30
0.0
 11
-503.806981
 21
19.926727
 31
0.0
  0
CIRCLE
  5
6EE7
100
AcDbEntity
  8
MSL1_60_3F-0
100
AcDbCircle
 10
-503.806981
 20
16.926727
 30
0.0
 40
1.621
  0
ARC
  5
6EE8
100
AcDbEntity
  8
MSL1_60_3F-4
100
AcDbCircle
 10
-503.806981
 20
16.926727
 30
0.0
 40
2.0
100
AcDbArc
 50
172.405357
 51
104.931417
  0
CIRCLE
  5
6EE9
100
AcDbEntity
  8
MSL1_60_3F-0
100
AcDbCircle
 10
-513.806981
 20
16.926727
 30
0.0
 40
2.0
  0
LINE
  5
6EEA
100
AcDbEntity
  8
MSL1_60_3F-7
100
AcDbLine
 10
-513.806981
 20
16.926727
 30
0.0
 11
-513.806981
 21
20.049455
 31
0.0
  0
LINE
  5
6EEB
100
AcDbEntity
  8
MSL1_60_3F-7
100
AcDbLine
 10
-513.806981
 20
36.926727
 30
0.0
 11
-516.929709
 21
36.926727
 31
0.0
  0
LINE
  5
6EEC
100
AcDbEntity
  8
MSL1_60_3F-7
100
AcDbLine
 10
-523.806981
 20
33.926727
 30
0.0
 11
-523.806981
 21
39.926727
 31
0.0
  0
CIRCLE
  5
6EED
100
AcDbEntity
  8
MSL1_60_3F-0
100
AcDbCircle
 10
-523.806981
 20
36.926727
 30
0.0
 40
1.621
  0
ARC
  5
6EEE
100
AcDbEntity
  8
MSL1_60_3F-4
100
AcDbCircle
 10
-523.806981
 20
36.926727
 30
0.0
 40
2.0
100
AcDbArc
 50
172.405357
 51
104.931417
  0
LINE
  5
6EEF
100
AcDbEntity
  8
MSL1_60_3F-7
100
AcDbLine
 10
-526.806981
 20
36.926727
 30
0.0
 11
-520.806981
 21
36.926727
 31
0.0
  0
LINE
  5
6EF0
100
AcDbEntity
  8
MSL1_60_3F-7
100
AcDbLine
 10
-503.806981
 20
33.926727
 30
0.0
 11
-503.806981
 21
39.926727
 31
0.0
  0
LINE
  5
6EF1
100
AcDbEntity
  8
MSL1_60_3F-7
100
AcDbLine
 10
-513.806981
 20
36.926727
 30
0.0
 11
-513.806981
 21
40.049455
 31
0.0
  0
LINE
  5
6EF2
100
AcDbEntity
  8
MSL1_60_3F-7
100
AcDbLine
 10
-513.806981
 20
36.926727
 30
0.0
 11
-510.684253
 21
36.926727
 31
0.0
  0
LINE
  5
6EF3
100
AcDbEntity
  8
MSL1_60_3F-7
100
AcDbLine
 10
-513.806981
 20
36.926727
 30
0.0
 11
-513.806981
 21
33.803999
 31
0.0
  0
CIRCLE
  5
6EF4
100
AcDbEntity
  8
MSL1_60_3F-0
100
AcDbCircle
 10
-513.806981
 20
36.926727
 30
0.0
 40
2.0
  0
LINE
  5
6EF5
100
AcDbEntity
  8
MSL1_60_3F-7
100
AcDbLine
 10
-506.806981
 20
36.926727
 30
0.0
 11
-500.806981
 21
36.926727
 31
0.0
  0
CIRCLE
  5
6EF6
100
AcDbEntity
  8
MSL1_60_3F-0
100
AcDbCircle
 10
-503.806981
 20
36.926727
 30
0.0
 40
1.621
  0
ARC
  5
6EF7
100
AcDbEntity
  8
MSL1_60_3F-4
100
AcDbCircle
 10
-503.806981
 20
36.926727
 30
0.0
 40
2.0
100
AcDbArc
 50
172.405357
 51
104.931417
  0
LINE
  5
6EFC
100
AcDbEntity
  8
MSL1_60_3F-0
100
AcDbLine
 10
-714.353814
 20
55.426727
 30
0.0
 11
-717.853814
 21
55.426727
 31
0.0
  0
LINE
  5
6F0C
100
AcDbEntity
  8
MSL1_60_3F-7
100
AcDbLine
 10
-503.806981
 20
126.078504
 30
0.0
 11
-503.806981
 21
110.398504
 31
0.0
  0
LINE
  5
6F0D
100
AcDbEntity
  8
MSL1_60_3F-7
100
AcDbLine
 10
-513.806981
 20
110.494514
 30
0.0
 11
-513.806981
 21
122.400764
 31
0.0
  0
LINE
  5
6F0E
100
AcDbEntity
  8
MSL1_60_3F-7
100
AcDbLine
 10
-523.806981
 20
126.078504
 30
0.0
 11
-523.806981
 21
110.398504
 31
0.0
  0
LINE
  5
6F0F
100
AcDbEntity
  8
MSL1_60_3F-7
100
AcDbLine
 10
-574.806981
 20
120.705171
 30
0.0
 11
-574.806981
 21
126.705171
 31
0.0
  0
LINE
  5
6F10
100
AcDbEntity
  8
MSL1_60_3F-7
100
AcDbLine
 10
-579.806981
 20
110.705171
 30
0.0
 11
-579.806981
 21
124.505171
 31
0.0
  0
LINE
  5
6F11
100
AcDbEntity
  8
MSL1_60_3F-3
100
AcDbLine
 10
-578.185981
 20
111.705171
 30
0.0
 11
-578.185981
 21
122.505171
 31
0.0
  0
LINE
  5
6F12
100
AcDbEntity
  8
MSL1_60_3F-3
100
AcDbLine
 10
-581.427981
 20
111.705171
 30
0.0
 11
-581.427981
 21
122.505171
 31
0.0
  0
ARC
  5
6F13
100
AcDbEntity
  8
MSL1_60_3F-4
100
AcDbCircle
 10
-574.806981
 20
123.705171
 30
0.0
 40
2.0
100
AcDbArc
 50
172.405357
 51
104.931417
  0
LINE
  5
6F14
100
AcDbEntity
  8
MSL1_60_3F-0
100
AcDbLine
 10
-583.806981
 20
171.705171
 30
0.0
 11
-583.806981
 21
111.705171
 31
0.0
  0
LINE
  5
6F15
100
AcDbEntity
  8
MSL1_60_3F-0
100
AcDbLine
 10
-571.806981
 20
111.705171
 30
0.0
 11
-571.806981
 21
171.705171
 31
0.0
  0
LINE
  5
6F16
100
AcDbEntity
  8
MSL1_60_3F-0
100
AcDbLine
 10
-561.806981
 20
171.705171
 30
0.0
 11
-561.806981
 21
111.705171
 31
0.0
  0
MTEXT
  5
6F17
100
AcDbEntity
  8
MSL1_60_3F-6
100
AcDbMText
 10
-560.986461
 20
116.224442
 30
0.0
 40
3.5
 41
23.418615
 71
     1
 72
     1
  1
{MSL-1-60-3F}
  0
LINE
  5
6F18
100
AcDbEntity
  8
MSL1_60_3F-0
100
AcDbLine
 10
-563.006981
 20
59.741682
 30
0.0
 11
-565.606981
 21
59.741682
 31
0.0
  0
LINE
  5
6F19
100
AcDbEntity
  8
MSL1_60_3F-3
100
AcDbLine
 10
-577.806981
 20
118.705171
 30
0.0
 11
-581.806981
 21
118.705171
 31
0.0
  0
LINE
  5
6F1A
100
AcDbEntity
  8
MSL1_60_3F-7
100
AcDbLine
 10
-557.169752
 20
121.705171
 30
0.0
 11
-585.806981
 21
121.705171
 31
0.0
  0
LINE
  5
6F1B
100
AcDbEntity
  8
MSL1_60_3F-0
100
AcDbLine
 10
-583.806981
 20
111.705171
 30
0.0
 11
-571.806981
 21
111.705171
 31
0.0
  0
LINE
  5
6F1C
100
AcDbEntity
  8
MSL1_60_3F-3
100
AcDbLine
 10
-581.806981
 20
111.705171
 30
0.0
 11
-581.806981
 21
118.705171
 31
0.0
  0
LINE
  5
6F1D
100
AcDbEntity
  8
MSL1_60_3F-0
100
AcDbLine
 10
-565.606981
 20
114.890216
 30
0.0
 11
-563.006981
 21
114.890216
 31
0.0
  0
LINE
  5
6F1E
100
AcDbEntity
  8
MSL1_60_3F-0
100
AcDbLine
 10
-561.806981
 20
117.705171
 30
0.0
 11
-571.806981
 21
117.705171
 31
0.0
  0
ARC
  5
6F1F
100
AcDbEntity
  8
MSL1_60_3F-0
100
AcDbCircle
 10
-563.6983
 20
117.343955
 30
0.0
 40
3.108681
100
AcDbArc
 50
173.327391
 51
232.121858
  0
LINE
  5
6F20
100
AcDbEntity
  8
MSL1_60_3F-3
100
AcDbLine
 10
-577.806981
 20
111.705171
 30
0.0
 11
-577.806981
 21
118.705171
 31
0.0
  0
ARC
  5
6F21
100
AcDbEntity
  8
MSL1_60_3F-0
100
AcDbCircle
 10
-564.967712
 20
117.38932
 30
0.0
 40
3.176474
100
AcDbArc
 50
308.116807
 51
5.706612
  0
ARC
  5
6F22
100
AcDbEntity
  8
MSL1_60_3F-0
100
AcDbCircle
 10
-572.100036
 20
154.076006
 30
0.0
 40
2.293056
100
AcDbArc
 50
305.085848
 51
54.914152
  0
ARC
  5
6F23
100
AcDbEntity
  8
MSL1_60_3F-0
100
AcDbCircle
 10
-567.369146
 20
154.076006
 30
0.0
 40
2.562165
100
AcDbArc
 50
312.916664
 51
47.083336
  0
ARC
  5
6F24
100
AcDbEntity
  8
MSL1_60_3F-0
100
AcDbCircle
 10
-561.6983
 20
152.343955
 30
0.0
 40
3.108681
100
AcDbArc
 50
127.878142
 51
232.121858
  0
LINE
  5
6F25
100
AcDbEntity
  8
MSL1_60_3F-0
100
AcDbLine
 10
-564.806981
 20
152.343955
 30
0.0
 11
-564.806981
 21
157.705171
 31
0.0
  0
LINE
  5
6F26
100
AcDbEntity
  8
MSL1_60_3F-0
100
AcDbLine
 10
-568.806981
 20
152.199618
 30
0.0
 11
-568.806981
 21
157.705171
 31
0.0
  0
LINE
  5
6F27
100
AcDbEntity
  8
MSL1_60_3F-3
100
AcDbLine
 10
-581.427981
 20
122.505171
 30
0.0
 11
-579.806981
 21
123.441056
 31
0.0
  0
LINE
  5
6F28
100
AcDbEntity
  8
MSL1_60_3F-3
100
AcDbLine
 10
-581.427981
 20
122.505171
 30
0.0
 11
-578.185981
 21
122.505171
 31
0.0
  0
LINE
  5
6F29
100
AcDbEntity
  8
MSL1_60_3F-7
100
AcDbLine
 10
-569.806981
 20
151.705171
 30
0.0
 11
-585.806981
 21
151.705171
 31
0.0
  0
LINE
  5
6F2A
100
AcDbEntity
  8
MSL1_60_3F-7
100
AcDbLine
 10
-570.979801
 20
131.705171
 30
0.0
 11
-584.906506
 21
131.705171
 31
0.0
  0
LINE
  5
6F2B
100
AcDbEntity
  8
MSL1_60_3F-3
100
AcDbLine
 10
-583.806981
 20
129.455171
 30
0.0
 11
-583.806981
 21
129.455171
 31
0.0
  0
LINE
  5
6F2C
100
AcDbEntity
  8
MSL1_60_3F-3
100
AcDbLine
 10
-583.806981
 20
129.455171
 30
0.0
 11
-583.806981
 21
129.455171
 31
0.0
  0
LINE
  5
6F2D
100
AcDbEntity
  8
MSL1_60_3F-3
100
AcDbLine
 10
-583.806981
 20
129.455171
 30
0.0
 11
-583.806981
 21
129.455171
 31
0.0
  0
LINE
  5
6F2E
100
AcDbEntity
  8
MSL1_60_3F-0
100
AcDbLine
 10
-570.806981
 20
135.705171
 30
0.0
 11
-570.806981
 21
147.705171
 31
0.0
  0
LINE
  5
6F2F
100
AcDbEntity
  8
MSL1_60_3F-0
100
AcDbLine
 10
-569.806981
 20
148.705171
 30
0.0
 11
-569.806981
 21
134.705171
 31
0.0
  0
LINE
  5
6F30
100
AcDbEntity
  8
MSL1_60_3F-0
100
AcDbLine
 10
-561.806981
 20
134.705171
 30
0.0
 11
-569.806981
 21
134.705171
 31
0.0
  0
LINE
  5
6F31
100
AcDbEntity
  8
MSL1_60_3F-0
100
AcDbLine
 10
-563.006981
 20
134.520126
 30
0.0
 11
-565.606981
 21
134.520126
 31
0.0
  0
LINE
  5
6F32
100
AcDbEntity
  8
MSL1_60_3F-0
100
AcDbLine
 10
-571.806981
 20
125.705171
 30
0.0
 11
-561.806981
 21
125.705171
 31
0.0
  0
LINE
  5
6F33
100
AcDbEntity
  8
MSL1_60_3F-7
100
AcDbLine
 10
-568.068682
 20
124.705171
 30
0.0
 11
-559.99889
 21
124.705171
 31
0.0
  0
LINE
  5
6F34
100
AcDbEntity
  8
MSL1_60_3F-0
100
AcDbLine
 10
-563.006981
 20
129.612648
 30
0.0
 11
-565.606981
 21
129.612648
 31
0.0
  0
LINE
  5
6F35
100
AcDbEntity
  8
MSL1_60_3F-0
100
AcDbLine
 10
-569.806981
 20
134.705171
 30
0.0
 11
-570.806981
 21
135.705171
 31
0.0
  0
LINE
  5
6F36
100
AcDbEntity
  8
MSL1_60_3F-0
100
AcDbLine
 10
-569.806981
 20
125.705171
 30
0.0
 11
-569.806981
 21
130.705171
 31
0.0
  0
LINE
  5
6F37
100
AcDbEntity
  8
MSL1_60_3F-0
100
AcDbLine
 10
-566.806981
 20
125.705171
 30
0.0
 11
-566.806981
 21
131.756365
 31
0.0
  0
ARC
  5
6F38
100
AcDbEntity
  8
MSL1_60_3F-0
100
AcDbCircle
 10
-556.172258
 20
124.705171
 30
0.0
 40
10.634722
100
AcDbArc
 50
152.518771
 51
174.604413
  0
LINE
  5
6F39
100
AcDbEntity
  8
MSL1_60_3F-0
100
AcDbLine
 10
-568.806981
 20
125.705171
 30
0.0
 11
-568.806981
 21
131.705171
 31
0.0
  0
LINE
  5
6F3A
100
AcDbEntity
  8
MSL1_60_3F-0
100
AcDbLine
 10
-571.806981
 20
127.105171
 30
0.0
 11
-569.806981
 21
127.105171
 31
0.0
  0
LINE
  5
6F3B
100
AcDbEntity
  8
MSL1_60_3F-0
100
AcDbLine
 10
-569.806981
 20
127.105171
 30
0.0
 11
-569.806981
 21
125.705171
 31
0.0
  0
LINE
  5
6F3C
100
AcDbEntity
  8
MSL1_60_3F-0
100
AcDbLine
 10
-568.806981
 20
131.705171
 30
0.0
 11
-566.806981
 21
131.705171
 31
0.0
  0
LINE
  5
6F3D
100
AcDbEntity
  8
MSL1_60_3F-0
100
AcDbLine
 10
-569.806981
 20
130.705171
 30
0.0
 11
-568.806981
 21
131.705171
 31
0.0
  0
ARC
  5
6F3E
100
AcDbEntity
  8
MSL1_60_3F-0
100
AcDbCircle
 10
-563.6983
 20
132.066387
 30
0.0
 40
3.108681
100
AcDbArc
 50
127.878142
 51
232.121858
  0
LINE
  5
6F3F
100
AcDbEntity
  8
MSL1_60_3F-3
100
AcDbLine
 10
-578.185981
 20
122.505171
 30
0.0
 11
-579.806981
 21
123.441056
 31
0.0
  0
CIRCLE
  5
6F40
100
AcDbEntity
  8
MSL1_60_3F-0
100
AcDbCircle
 10
-574.806981
 20
123.705171
 30
0.0
 40
1.621
  0
LINE
  5
6F41
100
AcDbEntity
  8
MSL1_60_3F-7
100
AcDbLine
 10
-577.806981
 20
123.705171
 30
0.0
 11
-571.806981
 21
123.705171
 31
0.0
  0
ARC
  5
6F42
100
AcDbEntity
  8
MSL1_60_3F-0
100
AcDbCircle
 10
-573.495328
 20
124.253639
 30
0.0
 40
11.778133
100
AcDbArc
 50
7.079103
 51
27.064708
  0
ARC
  5
6F43
100
AcDbEntity
  8
MSL1_60_3F-0
100
AcDbCircle
 10
-564.915661
 20
132.066387
 30
0.0
 40
3.108681
100
AcDbArc
 50
307.878144
 51
52.121856
  0
LINE
  5
6F44
100
AcDbEntity
  8
MSL1_60_3F-0
100
AcDbLine
 10
-569.806981
 20
148.705171
 30
0.0
 11
-561.806981
 21
148.705171
 31
0.0
  0
LINE
  5
6F45
100
AcDbEntity
  8
MSL1_60_3F-0
100
AcDbLine
 10
-570.781981
 20
152.199618
 30
0.0
 11
-571.806981
 21
152.199618
 31
0.0
  0
LINE
  5
6F46
100
AcDbEntity
  8
MSL1_60_3F-0
100
AcDbLine
 10
-565.624481
 20
152.199618
 30
0.0
 11
-568.806981
 21
152.199618
 31
0.0
  0
LINE
  5
6F47
100
AcDbEntity
  8
MSL1_60_3F-0
100
AcDbLine
 10
-570.806981
 20
147.705171
 30
0.0
 11
-569.806981
 21
148.705171
 31
0.0
  0
LINE
  5
6F48
100
AcDbEntity
  8
MSL1_60_3F-0
100
AcDbLine
 10
-570.806981
 20
139.705171
 30
0.0
 11
-571.806981
 21
139.705171
 31
0.0
  0
LINE
  5
6F49
100
AcDbEntity
  8
MSL1_60_3F-0
100
AcDbLine
 10
-571.806981
 20
143.705171
 30
0.0
 11
-570.806981
 21
143.705171
 31
0.0
  0
LINE
  5
6F4A
100
AcDbEntity
  8
MSL1_60_3F-0
100
AcDbLine
 10
-561.806981
 20
149.890217
 30
0.0
 11
-563.606981
 21
149.890217
 31
0.0
  0
LINE
  5
6F4B
100
AcDbEntity
  8
MSL1_60_3F-3
100
AcDbLine
 10
-581.806981
 20
164.705171
 30
0.0
 11
-577.806981
 21
164.705171
 31
0.0
  0
LINE
  5
6F4C
100
AcDbEntity
  8
MSL1_60_3F-3
100
AcDbLine
 10
-581.427981
 20
160.905171
 30
0.0
 11
-579.806981
 21
159.969286
 31
0.0
  0
LINE
  5
6F4D
100
AcDbEntity
  8
MSL1_60_3F-3
100
AcDbLine
 10
-578.185981
 20
160.905171
 30
0.0
 11
-581.427981
 21
160.905171
 31
0.0
  0
LINE
  5
6F4E
100
AcDbEntity
  8
MSL1_60_3F-7
100
AcDbLine
 10
-557.169752
 20
161.705171
 30
0.0
 11
-585.806981
 21
161.705171
 31
0.0
  0
LINE
  5
6F4F
100
AcDbEntity
  8
MSL1_60_3F-0
100
AcDbLine
 10
-571.806981
 20
171.705171
 30
0.0
 11
-583.806981
 21
171.705171
 31
0.0
  0
LINE
  5
6F50
100
AcDbEntity
  8
MSL1_60_3F-3
100
AcDbLine
 10
-581.806981
 20
171.705171
 30
0.0
 11
-581.806981
 21
164.705171
 31
0.0
  0
LINE
  5
6F51
100
AcDbEntity
  8
MSL1_60_3F-3
100
AcDbLine
 10
-581.427981
 20
171.705171
 30
0.0
 11
-581.427981
 21
160.905171
 31
0.0
  0
ARC
  5
6F52
100
AcDbEntity
  8
MSL1_60_3F-0
100
AcDbCircle
 10
-561.6983
 20
167.066387
 30
0.0
 40
3.108681
100
AcDbArc
 50
127.878142
 51
205.968434
  0
LINE
  5
6F53
100
AcDbEntity
  8
MSL1_60_3F-3
100
AcDbLine
 10
-577.806981
 20
171.705171
 30
0.0
 11
-577.806981
 21
164.705171
 31
0.0
  0
LINE
  5
6F54
100
AcDbEntity
  8
MSL1_60_3F-7
100
AcDbLine
 10
-579.806981
 20
172.705171
 30
0.0
 11
-579.806981
 21
158.905171
 31
0.0
  0
LINE
  5
6F55
100
AcDbEntity
  8
MSL1_60_3F-3
100
AcDbLine
 10
-578.185981
 20
171.705171
 30
0.0
 11
-578.185981
 21
160.905171
 31
0.0
  0
LINE
  5
6F56
100
AcDbEntity
  8
MSL1_60_3F-0
100
AcDbLine
 10
-571.806981
 20
157.705171
 30
0.0
 11
-561.806981
 21
157.705171
 31
0.0
  0
ARC
  5
6F57
100
AcDbEntity
  8
MSL1_60_3F-0
100
AcDbCircle
 10
-567.369146
 20
165.334336
 30
0.0
 40
2.562165
100
AcDbArc
 50
8.321933
 51
47.083336
  0
LINE
  5
6F58
100
AcDbEntity
  8
MSL1_60_3F-0
100
AcDbLine
 10
-571.806981
 20
165.705171
 30
0.0
 11
-561.806981
 21
165.705171
 31
0.0
  0
LINE
  5
6F59
100
AcDbEntity
  8
MSL1_60_3F-7
100
AcDbLine
 10
-559.255236
 20
159.705171
 30
0.0
 11
-574.553699
 21
159.705171
 31
0.0
  0
LINE
  5
6F5A
100
AcDbEntity
  8
MSL1_60_3F-0
100
AcDbLine
 10
-568.806981
 20
167.210724
 30
0.0
 11
-565.624481
 21
167.210724
 31
0.0
  0
LINE
  5
6F5B
100
AcDbEntity
  8
MSL1_60_3F-0
100
AcDbLine
 10
-568.806981
 20
165.705171
 30
0.0
 11
-568.806981
 21
167.210724
 31
0.0
  0
ARC
  5
6F5C
100
AcDbEntity
  8
MSL1_60_3F-0
100
AcDbCircle
 10
-572.100036
 20
165.334336
 30
0.0
 40
2.293056
100
AcDbArc
 50
9.306794
 51
54.914152
  0
LINE
  5
6F5D
100
AcDbEntity
  8
MSL1_60_3F-0
100
AcDbLine
 10
-571.806981
 20
167.210724
 30
0.0
 11
-570.781981
 21
167.210724
 31
0.0
  0
LINE
  5
6F5E
100
AcDbEntity
  8
MSL1_60_3F-3
100
AcDbLine
 10
-578.185981
 20
160.905171
 30
0.0
 11
-579.806981
 21
159.969286
 31
0.0
  0
CIRCLE
  5
6F5F
100
AcDbEntity
  8
MSL1_60_3F-0
100
AcDbCircle
 10
-574.806981
 20
159.705171
 30
0.0
 40
1.621
  0
ARC
  5
6F60
100
AcDbEntity
  8
MSL1_60_3F-4
100
AcDbCircle
 10
-574.806981
 20
159.705171
 30
0.0
 40
2.0
100
AcDbArc
 50
172.405357
 51
104.931417
  0
LINE
  5
6F61
100
AcDbEntity
  8
MSL1_60_3F-7
100
AcDbLine
 10
-577.806981
 20
159.705171
 30
0.0
 11
-571.806981
 21
159.705171
 31
0.0
  0
LINE
  5
6F62
100
AcDbEntity
  8
MSL1_60_3F-0
100
AcDbLine
 10
-571.806981
 20
155.952394
 30
0.0
 11
-570.781981
 21
155.952394
 31
0.0
  0
LINE
  5
6F63
100
AcDbEntity
  8
MSL1_60_3F-0
100
AcDbLine
 10
-568.806981
 20
155.705171
 30
0.0
 11
-569.806981
 21
155.705171
 31
0.0
  0
LINE
  5
6F64
100
AcDbEntity
  8
MSL1_60_3F-0
100
AcDbLine
 10
-565.624481
 20
155.952394
 30
0.0
 11
-568.806981
 21
155.952394
 31
0.0
  0
LINE
  5
6F65
100
AcDbEntity
  8
MSL1_60_3F-7
100
AcDbLine
 10
-574.806981
 20
156.705171
 30
0.0
 11
-574.806981
 21
162.705171
 31
0.0
  0
LINE
  5
6F66
100
AcDbEntity
  8
MSL1_60_3F-0
100
AcDbLine
 10
-569.806981
 20
154.076006
 30
0.0
 11
-569.806981
 21
157.705171
 31
0.0
  0
ARC
  5
6F67
100
AcDbEntity
  8
MSL1_60_3F-0
100
AcDbCircle
 10
-577.516703
 20
159.705171
 30
0.0
 40
7.709722
100
AcDbArc
 50
330.872218
 51
344.964782
  0
ARC
  5
6F68
100
AcDbEntity
  8
MSL1_60_3F-0
100
AcDbCircle
 10
-573.82939
 20
159.705171
 30
0.0
 40
9.02241
100
AcDbArc
 50
335.421503
 51
347.192845
  0
LINE
  5
6F69
100
AcDbEntity
  8
MSL1_60_3F-0
100
AcDbLine
 10
-564.806981
 20
165.705171
 30
0.0
 11
-564.806981
 21
167.066387
 31
0.0
  0
LINE
  5
6F6A
100
AcDbEntity
  8
MSL1_60_3F-0
100
AcDbLine
 10
-563.606981
 20
154.797694
 30
0.0
 11
-561.806981
 21
154.797694
 31
0.0
  0
ARC
  5
6F6B
100
AcDbEntity
  8
MSL1_60_3F-0
100
AcDbCircle
 10
-554.172258
 20
159.705171
 30
0.0
 40
10.634722
100
AcDbArc
 50
190.83978
 51
207.481229
  0
LINE
  5
6F6C
100
AcDbEntity
  8
MSL1_60_3F-0
100
AcDbLine
 10
-564.806981
 20
157.705171
 30
0.0
 11
-564.806981
 21
154.076006
 31
0.0
  0
LINE
  5
6F6D
100
AcDbEntity
  8
MSL1_60_3F-0
100
AcDbLine
 10
-563.606981
 20
169.520126
 30
0.0
 11
-561.806981
 21
169.520126
 31
0.0
  0
LINE
  5
6F6E
100
AcDbEntity
  8
MSL1_60_3F-7
100
AcDbLine
 10
-503.806981
 20
148.705171
 30
0.0
 11
-503.806981
 21
154.705171
 31
0.0
  0
LINE
  5
6F6F
100
AcDbEntity
  8
MSL1_60_3F-7
100
AcDbLine
 10
-513.806981
 20
151.705171
 30
0.0
 11
-513.806981
 21
154.827899
 31
0.0
  0
CIRCLE
  5
6F70
100
AcDbEntity
  8
MSL1_60_3F-0
100
AcDbCircle
 10
-513.806981
 20
151.705171
 30
0.0
 40
2.0
  0
ARC
  5
6F71
100
AcDbEntity
  8
MSL1_60_3F-4
100
AcDbCircle
 10
-503.806981
 20
151.705171
 30
0.0
 40
2.0
100
AcDbArc
 50
172.405357
 51
104.931417
  0
ARC
  5
6F72
100
AcDbEntity
  8
MSL1_60_3F-4
100
AcDbCircle
 10
-523.806981
 20
151.705171
 30
0.0
 40
2.0
100
AcDbArc
 50
172.405357
 51
104.931417
  0
LINE
  5
6F73
100
AcDbEntity
  8
MSL1_60_3F-7
100
AcDbLine
 10
-523.806981
 20
148.705171
 30
0.0
 11
-523.806981
 21
154.705171
 31
0.0
  0
LINE
  5
6F74
100
AcDbEntity
  8
MSL1_60_3F-7
100
AcDbLine
 10
-513.806981
 20
151.705171
 30
0.0
 11
-516.929709
 21
151.705171
 31
0.0
  0
LINE
  5
6F75
100
AcDbEntity
  8
MSL1_60_3F-7
100
AcDbLine
 10
-513.806981
 20
131.705171
 30
0.0
 11
-516.929709
 21
131.705171
 31
0.0
  0
INSERT
  5
6F76
100
AcDbEntity
  8
MSL1_60_3F-0N
100
AcDbBlockReference
 66
     1
  2
GENINF13
 10
-541.96609
 20
127.769657
 30
0.0
1001
GENIUS_GENSCSYM_13
1002
{
1000
INSPT
1011
-541.96609
1021
127.769657
1031
0.0
1002
}
1002
{
1000
SCALE
1042
1.0
1002
}
1002
{
1000
USEOLDBPT
1070
     0
1002
}
1001
GENIUS_GENOBJ-N-INFOPT_13
1002
{
1000
OWNER
1000
GEN
1002
}
1001
GENIUS_GENSYMENT_13
1002
{
1000
ENT
1005
6F76
1002
}
1001
GENIUS_GENODEF_13
1002
{
1000
HIER
1070
     0
1002
}
1002
{
1000
MANEDIT
1070
     0
1002
}
1002
{
1000
NOSEL
1070
     0
1002
}
1002
{
1000
BEHIND
1070
     0
1002
}
1002
{
1000
REACTOR
1002
}
1001
GENIUS_GENOBJ-N-RSSYM_13
1002
{
1000
OWNER
1000
GEN
1002
}
1001
GENIUS_GENINF13_13
1070
     1
  0
ATTRIB
  5
6F77
100
AcDbEntity
  8
INFO
100
AcDbText
 10
-541.96609
 20
127.769657
 30
0.0
 40
1.0
  1
1
100
AcDbAttribute
  2
2GENINF
 70
     1
  0
ATTRIB
  5
6F78
100
AcDbEntity
  8
INFO
100
AcDbText
 10
-541.96609
 20
126.269657
 30
0.0
 40
1.0
  1
<***aktuell***>
100
AcDbAttribute
  2
3GENINF
 70
     1
  0
ATTRIB
  5
6F79
100
AcDbEntity
  8
INFO
100
AcDbText
 10
-541.96609
 20
124.769657
 30
0.0
 40
1.0
  1

100
AcDbAttribute
  2
4GENINF
 70
     1
  0
ATTRIB
  5
6F7A
100
AcDbEntity
  8
INFO
100
AcDbText
 10
-541.96609
 20
123.269657
 30
0.0
 40
1.0
  1
MSL1-60-3F
100
AcDbAttribute
  2
5GENINF
 70
     1
  0
ATTRIB
  5
6F7B
100
AcDbEntity
  8
INFO
100
AcDbText
 10
-541.96609
 20
121.769657
 30
0.0
 40
1.0
  1

100
AcDbAttribute
  2
6GENINF
 70
     1
  0
ATTRIB
  5
6F7C
100
AcDbEntity
  8
INFO
100
AcDbText
 10
-541.96609
 20
120.269657
 30
0.0
 40
1.0
  1
Fa. Mayer
100
AcDbAttribute
  2
7GENINF
 70
     1
  0
ATTRIB
  5
6F7D
100
AcDbEntity
  8
INFO
100
AcDbText
 10
-541.96609
 20
118.769657
 30
0.0
 40
1.0
  1

100
AcDbAttribute
  2
8GENINF
 70
     1
  0
ATTRIB
  5
6F7E
100
AcDbEntity
  8
INFO
100
AcDbText
 10
-541.96609
 20
117.269657
 30
0.0
 40
1.0
  1

100
AcDbAttribute
  2
9GENINF
 70
     1
  0
ATTRIB
  5
6F7F
100
AcDbEntity
  8
INFO
100
AcDbText
 10
-541.96609
 20
115.769657
 30
0.0
 40
1.0
  1

100
AcDbAttribute
  2
10GENINF
 70
     1
  0
ATTRIB
  5
6F80
100
AcDbEntity
  8
INFO
100
AcDbText
 10
-541.96609
 20
114.269657
 30
0.0
 40
1.0
  1

100
AcDbAttribute
  2
11GENINF
 70
     1
  0
ATTRIB
  5
6F81
100
AcDbEntity
  8
INFO
100
AcDbText
 10
-541.96609
 20
112.769657
 30
0.0
 40
1.0
  1

100
AcDbAttribute
  2
12GENINF
 70
     1
  0
ATTRIB
  5
6F82
100
AcDbEntity
  8
INFO
100
AcDbText
 10
-541.96609
 20
111.269657
 30
0.0
 40
1.0
  1

100
AcDbAttribute
  2
13GENINF
 70
     1
  0
ATTRIB
  5
6F83
100
AcDbEntity
  8
INFO
100
AcDbText
 10
-541.96609
 20
109.769657
 30
0.0
 40
1.0
  1

100
AcDbAttribute
  2
14GENINF
 70
     1
  0
ATTRIB
  5
6F84
100
AcDbEntity
  8
INFO
100
AcDbText
 10
-541.96609
 20
108.269657
 30
0.0
 40
1.0
  1

100
AcDbAttribute
  2
15GENINF
 70
     1
  0
ATTRIB
  5
6F85
100
AcDbEntity
  8
INFO
100
AcDbText
 10
-541.96609
 20
106.769657
 30
0.0
 40
1.0
  1

100
AcDbAttribute
  2
16GENINF
 70
     1
  0
ATTRIB
  5
6F86
100
AcDbEntity
  8
INFO
100
AcDbText
 10
-541.96609
 20
105.269657
 30
0.0
 40
1.0
  1

100
AcDbAttribute
  2
17GENINF
 70
     1
  0
ATTRIB
  5
6F87
100
AcDbEntity
  8
INFO
100
AcDbText
 10
-541.96609
 20
103.769657
 30
0.0
 40
1.0
  1

100
AcDbAttribute
  2
18GENINF
 70
     1
  0
ATTRIB
  5
6F88
100
AcDbEntity
  8
INFO
100
AcDbText
 10
-541.96609
 20
102.269657
 30
0.0
 40
1.0
  1

100
AcDbAttribute
  2
19GENINF
 70
     1
  0
ATTRIB
  5
6F89
100
AcDbEntity
  8
INFO
100
AcDbText
 10
-541.96609
 20
100.769657
 30
0.0
 40
1.0
  1

100
AcDbAttribute
  2
20GENINF
 70
     1
  0
ATTRIB
  5
6F8A
100
AcDbEntity
  8
INFO
100
AcDbText
 10
-541.96609
 20
99.269657
 30
0.0
 40
1.0
  1

100
AcDbAttribute
  2
21GENINF
 70
     1
  0
ATTRIB
  5
6F8B
100
AcDbEntity
  8
INFO
100
AcDbText
 10
-541.96609
 20
97.769657
 30
0.0
 40
1.0
  1

100
AcDbAttribute
  2
22GENINF
 70
     1
  0
ATTRIB
  5
6F8C
100
AcDbEntity
  8
INFO
100
AcDbText
 10
-541.96609
 20
96.269657
 30
0.0
 40
1.0
  1

100
AcDbAttribute
  2
23GENINF
 70
     1
  0
ATTRIB
  5
6F8D
100
AcDbEntity
  8
INFO
100
AcDbText
 10
-541.96609
 20
94.769657
 30
0.0
 40
1.0
  1

100
AcDbAttribute
  2
24GENINF
 70
     1
  0
ATTRIB
  5
6F8E
100
AcDbEntity
  8
INFO
100
AcDbText
 10
-541.96609
 20
93.269657
 30
0.0
 40
1.0
  1

100
AcDbAttribute
  2
0GENINF
 70
     1
  0
SEQEND
  5
6F8F
100
AcDbEntity
  8
MSL1_60_3F-0N
  0
LINE
  5
6F90
100
AcDbEntity
  8
MSL1_60_3F-7
100
AcDbLine
 10
-526.806981
 20
131.705171
 30
0.0
 11
-520.806981
 21
131.705171
 31
0.0
  0
LINE
  5
6F91
100
AcDbEntity
  8
MSL1_60_3F-7
100
AcDbLine
 10
-523.806981
 20
128.705171
 30
0.0
 11
-523.806981
 21
134.705171
 31
0.0
  0
CIRCLE
  5
6F92
100
AcDbEntity
  8
MSL1_60_3F-0
100
AcDbCircle
 10
-523.806981
 20
131.705171
 30
0.0
 40
1.621
  0
ARC
  5
6F93
100
AcDbEntity
  8
MSL1_60_3F-4
100
AcDbCircle
 10
-523.806981
 20
131.705171
 30
0.0
 40
2.0
100
AcDbArc
 50
172.405357
 51
104.931417
  0
CIRCLE
  5
6F94
100
AcDbEntity
  8
MSL1_60_3F-0
100
AcDbCircle
 10
-523.806981
 20
151.705171
 30
0.0
 40
1.621
  0
LINE
  5
6F95
100
AcDbEntity
  8
MSL1_60_3F-7
100
AcDbLine
 10
-526.806981
 20
151.705171
 30
0.0
 11
-520.806981
 21
151.705171
 31
0.0
  0
LINE
  5
6F96
100
AcDbEntity
  8
MSL1_60_3F-7
100
AcDbLine
 10
-513.806981
 20
148.582443
 30
0.0
 11
-513.806981
 21
134.827899
 31
0.0
  0
LINE
  5
6F97
100
AcDbEntity
  8
MSL1_60_3F-7
100
AcDbLine
 10
-513.806981
 20
131.705171
 30
0.0
 11
-510.684253
 21
131.705171
 31
0.0
  0
LINE
  5
6F98
100
AcDbEntity
  8
MSL1_60_3F-7
100
AcDbLine
 10
-513.806981
 20
131.705171
 30
0.0
 11
-513.806981
 21
128.582443
 31
0.0
  0
LINE
  5
6F99
100
AcDbEntity
  8
MSL1_60_3F-7
100
AcDbLine
 10
-506.806981
 20
131.705171
 30
0.0
 11
-500.806981
 21
131.705171
 31
0.0
  0
CIRCLE
  5
6F9A
100
AcDbEntity
  8
MSL1_60_3F-0
100
AcDbCircle
 10
-503.806981
 20
131.705171
 30
0.0
 40
1.621
  0
ARC
  5
6F9B
100
AcDbEntity
  8
MSL1_60_3F-4
100
AcDbCircle
 10
-503.806981
 20
131.705171
 30
0.0
 40
2.0
100
AcDbArc
 50
172.405357
 51
104.931417
  0
CIRCLE
  5
6F9C
100
AcDbEntity
  8
MSL1_60_3F-0
100
AcDbCircle
 10
-513.806981
 20
131.705171
 30
0.0
 40
2.0
  0
LINE
  5
6F9D
100
AcDbEntity
  8
MSL1_60_3F-7
100
AcDbLine
 10
-513.806981
 20
131.705171
 30
0.0
 11
-513.806981
 21
134.827899
 31
0.0
  0
LINE
  5
6F9E
100
AcDbEntity
  8
MSL1_60_3F-7
100
AcDbLine
 10
-503.806981
 20
128.705171
 30
0.0
 11
-503.806981
 21
134.705171
 31
0.0
  0
LINE
  5
6F9F
100
AcDbEntity
  8
MSL1_60_3F-7
100
AcDbLine
 10
-513.806981
 20
151.705171
 30
0.0
 11
-510.684253
 21
151.705171
 31
0.0
  0
LINE
  5
6FA0
100
AcDbEntity
  8
MSL1_60_3F-7
100
AcDbLine
 10
-513.806981
 20
151.705171
 30
0.0
 11
-513.806981
 21
148.582443
 31
0.0
  0
CIRCLE
  5
6FA1
100
AcDbEntity
  8
MSL1_60_3F-0
100
AcDbCircle
 10
-503.806981
 20
151.705171
 30
0.0
 40
1.621
  0
LINE
  5
6FA2
100
AcDbEntity
  8
MSL1_60_3F-7
100
AcDbLine
 10
-506.806981
 20
151.705171
 30
0.0
 11
-500.806981
 21
151.705171
 31
0.0
  0
LINE
  5
6FA3
100
AcDbEntity
  8
MSL1_60_3F-7
100
AcDbLine
 10
-523.806981
 20
157.331838
 30
0.0
 11
-523.806981
 21
173.011838
 31
0.0
  0
LINE
  5
6FA4
100
AcDbEntity
  8
MSL1_60_3F-0
100
AcDbLine
 10
-541.806981
 20
175.705171
 30
0.0
 11
-533.806981
 21
175.705171
 31
0.0
  0
ARC
  5
6FA5
100
AcDbEntity
  8
MSL1_60_3F-0
100
AcDbCircle
 10
-541.806981
 20
174.205171
 30
0.0
 40
1.5
100
AcDbArc
 50
89.999999
 51
180.000002
  0
LINE
  5
6FA6
100
AcDbEntity
  8
MSL1_60_3F-0
100
AcDbLine
 10
-543.306981
 20
171.705171
 30
0.0
 11
-543.306981
 21
174.205171
 31
0.0
  0
LINE
  5
6FA7
100
AcDbEntity
  8
MSL1_60_3F-7
100
AcDbLine
 10
-537.806981
 20
169.75322
 30
0.0
 11
-537.806981
 21
177.759548
 31
0.0
  0
ARC
  5
6FA9
100
AcDbEntity
  8
MSL1_60_3F-0
100
AcDbCircle
 10
-521.306981
 20
174.205171
 30
0.0
 40
1.5
100
AcDbArc
 50
0.0
 51
89.999999
  0
LINE
  5
6FAA
100
AcDbEntity
  8
MSL1_60_3F-0
100
AcDbLine
 10
-525.306981
 20
175.705171
 30
0.0
 11
-521.306981
 21
175.705171
 31
0.0
  0
LINE
  5
6FAB
100
AcDbEntity
  8
MSL1_60_3F-0
100
AcDbLine
 10
-532.306981
 20
174.205171
 30
0.0
 11
-532.306981
 21
171.705171
 31
0.0
  0
LINE
  5
6FAC
100
AcDbEntity
  8
MSL1_60_3F-0
100
AcDbLine
 10
-519.806981
 20
174.205171
 30
0.0
 11
-519.806981
 21
171.705171
 31
0.0
  0
ARC
  5
6FAE
100
AcDbEntity
  8
MSL1_60_3F-0
100
AcDbCircle
 10
-533.806981
 20
174.205171
 30
0.0
 40
1.5
100
AcDbArc
 50
0.0
 51
89.999999
  0
LINE
  5
6FAF
100
AcDbEntity
  8
MSL1_60_3F-7
100
AcDbLine
 10
-525.306981
 20
169.75322
 30
0.0
 11
-525.306981
 21
177.916535
 31
0.0
  0
LINE
  5
6FB0
100
AcDbEntity
  8
MSL1_60_3F-7
100
AcDbLine
 10
-513.806981
 20
172.915828
 30
0.0
 11
-513.806981
 21
161.009578
 31
0.0
  0
LINE
  5
6FB1
100
AcDbEntity
  8
MSL1_60_3F-7
100
AcDbLine
 10
-503.806981
 20
157.331838
 30
0.0
 11
-503.806981
 21
173.011838
 31
0.0
  0
LINE
  5
6FB2
100
AcDbEntity
  8
MSL1_60_3F-7
100
AcDbLine
 10
-503.806981
 20
173.011838
 30
0.0
 11
-503.806981
 21
171.705171
 31
0.0
  0
LINE
  5
6FB3
100
AcDbEntity
  8
MSL1_60_3F-0
100
AcDbLine
 10
-445.806981
 20
41.926727
 30
0.0
 11
-445.806981
 21
11.926727
 31
0.0
  0
ARC
  5
6FB4
100
AcDbEntity
  8
MSL1_60_3F-0
100
AcDbCircle
 10
-445.915661
 20
57.287943
 30
0.0
 40
3.108681
100
AcDbArc
 50
307.878144
 51
52.121856
  0
ARC
  5
6FB5
100
AcDbEntity
  8
MSL1_60_3F-3
100
AcDbCircle
 10
-376.100036
 20
-37.938326
 30
0.0
 40
2.293056
100
AcDbArc
 50
305.085848
 51
54.914152
1001
GENIUS_GENBH_13
1002
{
1000
OE
1000
CON1
1002
}
1001
GENIUS_GENOREF_13
1005
7404
  0
LINE
  5
6FB6
100
AcDbEntity
  8
MSL1_60_3F-3
100
AcDbLine
 10
-369.806981
 20
-31.567491
 30
0.0
 11
-369.806981
 21
-38.567491
 31
0.0
  0
LINE
  5
6FB7
100
AcDbEntity
  8
MSL1_60_3F-3
100
AcDbLine
 10
-369.427981
 20
-31.567491
 30
0.0
 11
-369.427981
 21
-42.367491
 31
0.0
  0
LINE
  5
6FB8
100
AcDbEntity
  8
MSL1_60_3F-3
100
AcDbLine
 10
-365.806981
 20
-31.567491
 30
0.0
 11
-365.806981
 21
-38.567491
 31
0.0
  0
LINE
  5
6FB9
100
AcDbEntity
  8
MSL1_60_3F-3
100
AcDbLine
 10
-366.185981
 20
-31.567491
 30
0.0
 11
-366.185981
 21
-42.367491
 31
0.0
  0
LINE
  5
6FBA
100
AcDbEntity
  8
MSL1_60_3F-7
100
AcDbLine
 10
-367.806981
 20
-30.567491
 30
0.0
 11
-367.806981
 21
-44.367491
 31
0.0
  0
ARC
  5
6FBB
100
AcDbEntity
  8
MSL1_60_3F-0
100
AcDbCircle
 10
-375.513925
 20
-37.938326
 30
0.0
 40
2.293056
100
AcDbArc
 50
125.085847
 51
234.914153
  0
ARC
  5
6FBC
100
AcDbEntity
  8
MSL1_60_3F-0
100
AcDbCircle
 10
-380.244816
 20
-37.938326
 30
0.0
 40
2.562165
100
AcDbArc
 50
132.916662
 51
227.083338
  0
LINE
  5
6FBD
100
AcDbEntity
  8
MSL1_60_3F-0
100
AcDbLine
 10
-378.806981
 20
-36.061937
 30
0.0
 11
-378.806981
 21
-51.073044
 31
0.0
  0
ARC
  5
6FBE
100
AcDbEntity
  8
MSL1_60_3F-0
100
AcDbCircle
 10
-445.915661
 20
-36.206275
 30
0.0
 40
3.108681
100
AcDbArc
 50
307.878144
 51
52.121856
  0
LINE
  5
6FBF
100
AcDbEntity
  8
MSL1_60_3F-0
100
AcDbLine
 10
-442.806981
 20
-37.567491
 30
0.0
 11
-382.780002
 21
-37.567491
 31
0.0
  0
LINE
  5
6FC0
100
AcDbEntity
  8
MSL1_60_3F-0
100
AcDbLine
 10
-382.807031
 20
-45.567491
 30
0.0
 11
-442.806981
 21
-45.567491
 31
0.0
  0
LINE
  5
6FC1
100
AcDbEntity
  8
MSL1_60_3F-3
100
AcDbLine
 10
-436.806981
 20
-63.567491
 30
0.0
 11
-375.806981
 21
-63.567491
 31
0.0
1001
GENIUS_GENBH_13
1002
{
1000
OE
1000
CON1
1002
}
1001
GENIUS_GENOREF_13
1005
73FE
  0
LINE
  5
6FC2
100
AcDbEntity
  8
MSL1_60_3F-3
100
AcDbLine
 10
-436.806981
 20
-59.567491
 30
0.0
 11
-375.806981
 21
-59.567491
 31
0.0
1001
GENIUS_GENBH_13
1002
{
1000
OE
1000
CON1
1002
}
1001
GENIUS_GENOREF_13
1005
73FE
  0
LINE
  5
6FC3
100
AcDbEntity
  8
MSL1_60_3F-7
100
AcDbLine
 10
-451.30915
 20
-41.567491
 30
0.0
 11
-370.154717
 21
-41.567491
 31
0.0
1001
GENIUS_GENOREF_13
1005
7404
  0
ARC
  5
6FC4
100
AcDbEntity
  8
MSL1_60_3F-0
100
AcDbCircle
 10
-445.915661
 20
-50.928707
 30
0.0
 40
3.108681
100
AcDbArc
 50
307.878144
 51
52.121856
  0
LINE
  5
6FC7
100
AcDbEntity
  8
MSL1_60_3F-7
100
AcDbLine
 10
-458.356981
 20
-61.567491
 30
0.0
 11
-451.856981
 21
-61.567491
 31
0.0
  0
LINE
  5
6FC8
100
AcDbEntity
  8
MSL1_60_3F-7
100
AcDbLine
 10
-455.106981
 20
-61.567491
 30
0.0
 11
-458.356981
 21
-61.567491
 31
0.0
  0
LINE
  5
6FCB
100
AcDbEntity
  8
MSL1_60_3F-0
100
AcDbLine
 10
-437.806981
 20
-54.567491
 30
0.0
 11
-436.806981
 21
-55.567491
 31
0.0
  0
LINE
  5
6FCC
100
AcDbEntity
  8
MSL1_60_3F-0
100
AcDbLine
 10
-436.806981
 20
-55.567491
 30
0.0
 11
-436.806981
 21
-57.567491
 31
0.0
1001
GENIUS_GENOREF_13
1005
73FE
  0
LINE
  5
6FCD
100
AcDbEntity
  8
MSL1_60_3F-0
100
AcDbLine
 10
-444.006981
 20
-53.382445
 30
0.0
 11
-445.806981
 21
-53.382445
 31
0.0
  0
LINE
  5
6FCE
100
AcDbEntity
  8
MSL1_60_3F-0
100
AcDbLine
 10
-445.806981
 20
-54.567491
 30
0.0
 11
-437.806981
 21
-54.567491
 31
0.0
  0
LINE
  5
6FCF
100
AcDbEntity
  8
MSL1_60_3F-7
100
AcDbLine
 10
-448.308616
 20
-43.567491
 30
0.0
 11
-439.991825
 21
-43.567491
 31
0.0
  0
LINE
  5
6FD0
100
AcDbEntity
  8
MSL1_60_3F-0
100
AcDbLine
 10
-442.806981
 20
-36.206275
 30
0.0
 11
-442.806981
 21
-50.928707
 31
0.0
  0
LINE
  5
6FD1
100
AcDbEntity
  8
MSL1_60_3F-0
100
AcDbLine
 10
-444.006981
 20
-38.660014
 30
0.0
 11
-445.806981
 21
-38.660014
 31
0.0
  0
LINE
  5
6FD2
100
AcDbEntity
  8
MSL1_60_3F-0
100
AcDbLine
 10
-444.006981
 20
-48.474968
 30
0.0
 11
-445.806981
 21
-48.474968
 31
0.0
  0
ARC
  5
6FD3
100
AcDbEntity
  8
MSL1_60_3F-0
100
AcDbCircle
 10
-453.441703
 20
-43.567491
 30
0.0
 40
10.634722
100
AcDbArc
 50
332.518773
 51
27.481227
  0
LINE
  5
6FD4
100
AcDbEntity
  8
MSL1_60_3F-7
100
AcDbLine
 10
-384.968222
 20
-43.567491
 30
0.0
 11
-371.788416
 21
-43.567491
 31
0.0
1001
GENIUS_GENOREF_13
1005
7404
  0
LINE
  5
6FD5
100
AcDbEntity
  8
MSL1_60_3F-0
100
AcDbLine
 10
-376.831981
 20
-39.814714
 30
0.0
 11
-375.806981
 21
-39.814714
 31
0.0
1001
GENIUS_GENOREF_13
1005
7404
  0
LINE
  5
6FD6
100
AcDbEntity
  8
MSL1_60_3F-0
100
AcDbLine
 10
-376.831981
 20
-51.073044
 30
0.0
 11
-375.806981
 21
-51.073044
 31
0.0
1001
GENIUS_GENOREF_13
1005
7404
  0
LINE
  5
6FD7
100
AcDbEntity
  8
MSL1_60_3F-7
100
AcDbLine
 10
-377.806981
 20
-51.567491
 30
0.0
 11
-361.806981
 21
-51.567491
 31
0.0
1001
GENIUS_GENOREF_13
1005
7404
  0
LINE
  5
6FD8
100
AcDbEntity
  8
MSL1_60_3F-0
100
AcDbLine
 10
-376.831981
 20
-47.320268
 30
0.0
 11
-375.806981
 21
-47.320268
 31
0.0
1001
GENIUS_GENOREF_13
1005
7404
  0
LINE
  5
6FD9
100
AcDbEntity
  8
MSL1_60_3F-0
100
AcDbLine
 10
-378.793281
 20
-39.567491
 30
0.0
 11
-378.793281
 21
-39.567491
 31
0.0
  0
LINE
  5
6FDA
100
AcDbEntity
  8
MSL1_60_3F-0
100
AcDbLine
 10
-378.793281
 20
-39.567491
 30
0.0
 11
-378.807031
 21
-39.567491
 31
0.0
  0
LINE
  5
6FDB
100
AcDbEntity
  8
MSL1_60_3F-0
100
AcDbLine
 10
-378.806981
 20
-39.567491
 30
0.0
 11
-377.806981
 21
-39.567491
 31
0.0
  0
LINE
  5
6FDC
100
AcDbEntity
  8
MSL1_60_3F-0
100
AcDbLine
 10
-381.989481
 20
-39.814714
 30
0.0
 11
-378.806981
 21
-39.814714
 31
0.0
  0
ARC
  5
6FDD
100
AcDbEntity
  8
MSL1_60_3F-0
100
AcDbCircle
 10
-380.244816
 20
-49.196656
 30
0.0
 40
2.562165
100
AcDbArc
 50
132.916662
 51
227.083338
  0
ARC
  5
6FDE
100
AcDbEntity
  8
MSL1_60_3F-0
100
AcDbCircle
 10
-375.513925
 20
-49.196656
 30
0.0
 40
2.293056
100
AcDbArc
 50
125.085847
 51
234.914153
  0
LINE
  5
6FDF
100
AcDbEntity
  8
MSL1_60_3F-0
100
AcDbLine
 10
-378.806981
 20
-51.073044
 30
0.0
 11
-381.989481
 21
-51.073044
 31
0.0
  0
LINE
  5
6FE0
100
AcDbEntity
  8
MSL1_60_3F-0
100
AcDbLine
 10
-378.807031
 20
-47.567491
 30
0.0
 11
-378.793281
 21
-47.567491
 31
0.0
  0
LINE
  5
6FE1
100
AcDbEntity
  8
MSL1_60_3F-0
100
AcDbLine
 10
-378.806981
 20
-47.567491
 30
0.0
 11
-377.806981
 21
-47.567491
 31
0.0
  0
LINE
  5
6FE2
100
AcDbEntity
  8
MSL1_60_3F-0
100
AcDbLine
 10
-381.989481
 20
-47.320268
 30
0.0
 11
-378.806981
 21
-47.320268
 31
0.0
  0
LINE
  5
6FE3
100
AcDbEntity
  8
MSL1_60_3F-0
100
AcDbLine
 10
-377.806981
 20
-37.938326
 30
0.0
 11
-377.806981
 21
-49.196656
 31
0.0
  0
LINE
  5
6FE4
100
AcDbEntity
  8
MSL1_60_3F-0
100
AcDbLine
 10
-382.806981
 20
-37.938326
 30
0.0
 11
-382.806981
 21
-49.196656
 31
0.0
  0
ARC
  5
6FE5
100
AcDbEntity
  8
MSL1_60_3F-0
100
AcDbCircle
 10
-370.097258
 20
-43.567491
 30
0.0
 40
7.709722
100
AcDbArc
 50
150.872216
 51
209.127784
  0
ARC
  5
6FE6
100
AcDbEntity
  8
MSL1_60_3F-0
100
AcDbCircle
 10
-373.784571
 20
-43.567491
 30
0.0
 40
9.02241
100
AcDbArc
 50
155.421502
 51
204.578498
  0
CIRCLE
  5
6FE7
100
AcDbEntity
  8
MSL1_60_3F-3
100
AcDbCircle
 10
-372.806981
 20
-43.567491
 30
0.0
 40
1.621
1001
GENIUS_GENOREF_13
1005
7404
  0
ARC
  5
6FE8
100
AcDbEntity
  8
MSL1_60_3F-3
100
AcDbCircle
 10
-372.806981
 20
-43.567491
 30
0.0
 40
2.0
100
AcDbArc
 50
172.405357
 51
104.931417
1001
GENIUS_GENOREF_13
1005
7404
  0
LINE
  5
6FE9
100
AcDbEntity
  8
MSL1_60_3F-7
100
AcDbLine
 10
-375.806981
 20
-43.567491
 30
0.0
 11
-369.806981
 21
-43.567491
 31
0.0
1001
GENIUS_GENOREF_13
1005
7404
  0
LINE
  5
6FEA
100
AcDbEntity
  8
MSL1_60_3F-3
100
AcDbLine
 10
-369.427981
 20
-42.367491
 30
0.0
 11
-367.806981
 21
-43.303376
 31
0.0
  0
LINE
  5
6FEB
100
AcDbEntity
  8
MSL1_60_3F-3
100
AcDbLine
 10
-369.806981
 20
-38.567491
 30
0.0
 11
-365.806981
 21
-38.567491
 31
0.0
  0
LINE
  5
6FEC
100
AcDbEntity
  8
MSL1_60_3F-3
100
AcDbLine
 10
-366.185981
 20
-42.367491
 30
0.0
 11
-367.806981
 21
-43.303376
 31
0.0
  0
LINE
  5
6FED
100
AcDbEntity
  8
MSL1_60_3F-3
100
AcDbLine
 10
-366.185981
 20
-42.367491
 30
0.0
 11
-369.427981
 21
-42.367491
 31
0.0
  0
ARC
  5
6FEE
100
AcDbEntity
  8
MSL1_60_3F-3
100
AcDbCircle
 10
-376.100036
 20
-49.196656
 30
0.0
 40
2.293056
100
AcDbArc
 50
305.085848
 51
54.914152
1001
GENIUS_GENBH_13
1002
{
1000
OE
1000
CON1
1002
}
1001
GENIUS_GENOREF_13
1005
7404
  0
LINE
  5
6FEF
100
AcDbEntity
  8
MSL1_60_3F-3
100
AcDbLine
 10
-373.806981
 20
-37.938326
 30
0.0
 11
-373.806981
 21
-49.196656
 31
0.0
1001
GENIUS_GENBH_13
1002
{
1000
OE
1000
CON1
1002
}
1001
GENIUS_GENOREF_13
1005
7404
  0
ARC
  5
6FF0
100
AcDbEntity
  8
MSL1_60_3F-3
100
AcDbCircle
 10
-381.516703
 20
-43.567491
 30
0.0
 40
7.709722
100
AcDbArc
 50
330.872218
 51
29.127782
1001
GENIUS_GENBH_13
1002
{
1000
OE
1000
CON1
1002
}
1001
GENIUS_GENOREF_13
1005
7404
  0
LINE
  5
6FF1
100
AcDbEntity
  8
MSL1_60_3F-7
100
AcDbLine
 10
-372.806981
 20
-46.567491
 30
0.0
 11
-372.806981
 21
-40.567491
 31
0.0
1001
GENIUS_GENOREF_13
1005
7404
  0
LINE
  5
6FF2
100
AcDbEntity
  8
MSL1_60_3F-0
100
AcDbLine
 10
-444.006981
 20
-33.752536
 30
0.0
 11
-445.806981
 21
-33.752536
 31
0.0
  0
LINE
  5
6FF3
100
AcDbEntity
  8
MSL1_60_3F-0
100
AcDbLine
 10
-376.831981
 20
-36.061937
 30
0.0
 11
-375.806981
 21
-36.061937
 31
0.0
1001
GENIUS_GENOREF_13
1005
7404
  0
LINE
  5
6FF4
100
AcDbEntity
  8
MSL1_60_3F-0
100
AcDbLine
 10
-381.989481
 20
-36.061937
 30
0.0
 11
-378.806981
 21
-36.061937
 31
0.0
  0
LINE
  5
6FF5
100
AcDbEntity
  8
MSL1_60_3F-0
100
AcDbLine
 10
-363.806981
 20
-31.567491
 30
0.0
 11
-375.806981
 21
-31.567491
 31
0.0
1001
GENIUS_GENOREF_13
1005
7403
  0
LINE
  5
6FF6
100
AcDbEntity
  8
MSL1_60_3F-0
100
AcDbLine
 10
-375.806981
 20
-31.567491
 30
0.0
 11
-375.806981
 21
-91.567491
 31
0.0
1001
GENIUS_GENOREF_13
1005
7403
  0
LINE
  5
6FF7
100
AcDbEntity
  8
MSL1_60_3F-0
100
AcDbLine
 10
-375.806981
 20
10.926727
 30
0.0
 11
-375.806981
 21
41.926727
 31
0.0
  0
LINE
  5
6FF8
100
AcDbEntity
  8
MSL1_60_3F-0
100
AcDbLine
 10
-445.806981
 20
22.926727
 30
0.0
 11
-375.806981
 21
22.926727
 31
0.0
  0
LINE
  5
6FF9
100
AcDbEntity
  8
MSL1_60_3F-0
100
AcDbLine
 10
-437.806981
 20
22.926727
 30
0.0
 11
-437.806981
 21
19.926727
 31
0.0
  0
LINE
  5
6FFA
100
AcDbEntity
  8
MSL1_60_3F-0
100
AcDbLine
 10
-436.806981
 20
20.926727
 30
0.0
 11
-436.806981
 21
22.926727
 31
0.0
  0
LINE
  5
6FFB
100
AcDbEntity
  8
MSL1_60_3F-0
100
AcDbLine
 10
-437.806981
 20
19.926727
 30
0.0
 11
-436.806981
 21
20.926727
 31
0.0
  0
LINE
  5
6FFC
100
AcDbEntity
  8
MSL1_60_3F-0
100
AcDbLine
 10
-445.806981
 20
19.926727
 30
0.0
 11
-437.806981
 21
19.926727
 31
0.0
  0
LINE
  5
6FFD
100
AcDbEntity
  8
MSL1_60_3F-7
100
AcDbLine
 10
-372.806981
 20
9.926727
 30
0.0
 11
-372.806981
 21
23.726727
 31
0.0
  0
LINE
  5
6FFE
100
AcDbEntity
  8
MSL1_60_3F-3
100
AcDbLine
 10
-370.806981
 20
10.926727
 30
0.0
 11
-370.806981
 21
17.926727
 31
0.0
  0
LINE
  5
6FFF
100
AcDbEntity
  8
MSL1_60_3F-3
100
AcDbLine
 10
-371.185981
 20
10.926727
 30
0.0
 11
-371.185981
 21
21.726727
 31
0.0
  0
LINE
  5
7000
100
AcDbEntity
  8
MSL1_60_3F-3
100
AcDbLine
 10
-374.806981
 20
10.926727
 30
0.0
 11
-374.806981
 21
17.926727
 31
0.0
  0
LINE
  5
7001
100
AcDbEntity
  8
MSL1_60_3F-3
100
AcDbLine
 10
-374.427981
 20
10.926727
 30
0.0
 11
-374.427981
 21
21.726727
 31
0.0
  0
LINE
  5
7002
100
AcDbEntity
  8
MSL1_60_3F-0
100
AcDbLine
 10
-363.806981
 20
10.926727
 30
0.0
 11
-375.806981
 21
10.926727
 31
0.0
  0
LINE
  5
7003
100
AcDbEntity
  8
MSL1_60_3F-7
100
AcDbLine
 10
-378.320647
 20
16.926727
 30
0.0
 11
-361.387314
 21
16.926727
 31
0.0
  0
LINE
  5
7004
100
AcDbEntity
  8
MSL1_60_3F-3
100
AcDbLine
 10
-371.185981
 20
21.726727
 30
0.0
 11
-372.806981
 21
22.662612
 31
0.0
  0
LINE
  5
7005
100
AcDbEntity
  8
MSL1_60_3F-3
100
AcDbLine
 10
-374.427981
 20
21.726727
 30
0.0
 11
-372.806981
 21
22.662612
 31
0.0
  0
LINE
  5
7006
100
AcDbEntity
  8
MSL1_60_3F-3
100
AcDbLine
 10
-374.427981
 20
21.726727
 30
0.0
 11
-371.185981
 21
21.726727
 31
0.0
  0
LINE
  5
7007
100
AcDbEntity
  8
MSL1_60_3F-3
100
AcDbLine
 10
-370.806981
 20
17.926727
 30
0.0
 11
-374.806981
 21
17.926727
 31
0.0
  0
LINE
  5
7008
100
AcDbEntity
  8
MSL1_60_3F-7
100
AcDbLine
 10
-370.806981
 20
16.926727
 30
0.0
 11
-364.806981
 21
16.926727
 31
0.0
  0
LINE
  5
7009
100
AcDbEntity
  8
MSL1_60_3F-7
100
AcDbLine
 10
-367.806981
 20
13.926727
 30
0.0
 11
-367.806981
 21
19.926727
 31
0.0
  0
CIRCLE
  5
700A
100
AcDbEntity
  8
MSL1_60_3F-0
100
AcDbCircle
 10
-367.806981
 20
16.926727
 30
0.0
 40
1.621
  0
ARC
  5
700B
100
AcDbEntity
  8
MSL1_60_3F-4
100
AcDbCircle
 10
-367.806981
 20
16.926727
 30
0.0
 40
2.0
100
AcDbArc
 50
172.405357
 51
104.931417
  0
LINE
  5
700C
100
AcDbEntity
  8
MSL1_60_3F-0
100
AcDbLine
 10
-445.806981
 20
30.926727
 30
0.0
 11
-375.806981
 21
30.926727
 31
0.0
  0
ARC
  5
700D
100
AcDbEntity
  8
MSL1_60_3F-0
100
AcDbCircle
 10
-445.915661
 20
42.565511
 30
0.0
 40
3.108681
100
AcDbArc
 50
307.878144
 51
52.121856
  0
LINE
  5
700E
100
AcDbEntity
  8
MSL1_60_3F-0
100
AcDbLine
 10
-442.806981
 20
57.287943
 30
0.0
 11
-442.806981
 21
42.565511
 31
0.0
  0
LINE
  5
700F
100
AcDbEntity
  8
MSL1_60_3F-0
100
AcDbLine
 10
-436.806981
 20
30.926727
 30
0.0
 11
-436.806981
 21
32.926727
 31
0.0
  0
LINE
  5
7010
100
AcDbEntity
  8
MSL1_60_3F-0
100
AcDbLine
 10
-436.806981
 20
32.926727
 30
0.0
 11
-437.806981
 21
33.926727
 31
0.0
  0
LINE
  5
7011
100
AcDbEntity
  8
MSL1_60_3F-0
100
AcDbLine
 10
-437.806981
 20
33.926727
 30
0.0
 11
-437.806981
 21
30.926727
 31
0.0
  0
LINE
  5
7012
100
AcDbEntity
  8
MSL1_60_3F-0
100
AcDbLine
 10
-444.006981
 20
40.111772
 30
0.0
 11
-445.806981
 21
40.111772
 31
0.0
  0
LINE
  5
7013
100
AcDbEntity
  8
MSL1_60_3F-0
100
AcDbLine
 10
-437.806981
 20
33.926727
 30
0.0
 11
-445.806981
 21
33.926727
 31
0.0
  0
LINE
  5
7014
100
AcDbEntity
  8
MSL1_60_3F-7
100
AcDbLine
 10
-448.512691
 20
49.926727
 30
0.0
 11
-440.63458
 21
49.926727
 31
0.0
  0
LINE
  5
7015
100
AcDbEntity
  8
MSL1_60_3F-0
100
AcDbLine
 10
-444.006981
 20
45.01925
 30
0.0
 11
-445.806981
 21
45.01925
 31
0.0
  0
LINE
  5
7016
100
AcDbEntity
  8
MSL1_60_3F-0
100
AcDbLine
 10
-444.006981
 20
54.834204
 30
0.0
 11
-445.806981
 21
54.834204
 31
0.0
  0
ARC
  5
7017
100
AcDbEntity
  8
MSL1_60_3F-0
100
AcDbCircle
 10
-453.441703
 20
49.926727
 30
0.0
 40
10.634722
100
AcDbArc
 50
332.518773
 51
27.481227
  0
ARC
  5
7018
100
AcDbEntity
  8
MSL1_60_3F-0
100
AcDbCircle
 10
-376.100036
 20
44.297562
 30
0.0
 40
2.293056
100
AcDbArc
 50
305.085848
 51
54.914152
  0
ARC
  5
7019
100
AcDbEntity
  8
MSL1_60_3F-0
100
AcDbCircle
 10
-375.513925
 20
44.297562
 30
0.0
 40
2.293056
100
AcDbArc
 50
125.085847
 51
234.914153
  0
ARC
  5
701A
100
AcDbEntity
  8
MSL1_60_3F-0
100
AcDbCircle
 10
-380.244816
 20
44.297562
 30
0.0
 40
2.562165
100
AcDbArc
 50
132.916662
 51
227.083338
  0
LINE
  5
701B
100
AcDbEntity
  8
MSL1_60_3F-0
100
AcDbLine
 10
-378.806981
 20
57.432281
 30
0.0
 11
-378.806981
 21
42.421174
 31
0.0
  0
LINE
  5
701C
100
AcDbEntity
  8
MSL1_60_3F-0
100
AcDbLine
 10
-376.831981
 20
42.421174
 30
0.0
 11
-374.781981
 21
42.421174
 31
0.0
  0
LINE
  5
701D
100
AcDbEntity
  8
MSL1_60_3F-7
100
AcDbLine
 10
-377.806981
 20
36.926727
 30
0.0
 11
-361.806981
 21
36.926727
 31
0.0
  0
LINE
  5
701E
100
AcDbEntity
  8
MSL1_60_3F-0
100
AcDbLine
 10
-378.806981
 20
42.421174
 30
0.0
 11
-381.989481
 21
42.421174
 31
0.0
  0
LINE
  5
701F
100
AcDbEntity
  8
MSL1_60_3F-7
100
AcDbLine
 10
-367.806981
 20
33.926727
 30
0.0
 11
-367.806981
 21
39.926727
 31
0.0
  0
LINE
  5
7020
100
AcDbEntity
  8
MSL1_60_3F-7
100
AcDbLine
 10
-370.806981
 20
36.926727
 30
0.0
 11
-364.806981
 21
36.926727
 31
0.0
  0
CIRCLE
  5
7021
100
AcDbEntity
  8
MSL1_60_3F-0
100
AcDbCircle
 10
-367.806981
 20
36.926727
 30
0.0
 40
1.621
  0
ARC
  5
7022
100
AcDbEntity
  8
MSL1_60_3F-4
100
AcDbCircle
 10
-367.806981
 20
36.926727
 30
0.0
 40
2.0
100
AcDbArc
 50
172.405357
 51
104.931417
  0
LINE
  5
7023
100
AcDbEntity
  8
MSL1_60_3F-0
100
AcDbLine
 10
-375.806981
 20
41.926727
 30
0.0
 11
-373.806981
 21
41.926727
 31
0.0
  0
LINE
  5
7024
100
AcDbEntity
  8
MSL1_60_3F-0
100
AcDbLine
 10
-376.831981
 20
57.432281
 30
0.0
 11
-374.781981
 21
57.432281
 31
0.0
  0
LINE
  5
7025
100
AcDbEntity
  8
MSL1_60_3F-7
100
AcDbLine
 10
-384.634706
 20
49.926727
 30
0.0
 11
-362.425126
 21
49.926727
 31
0.0
  0
LINE
  5
7026
100
AcDbEntity
  8
MSL1_60_3F-0
100
AcDbLine
 10
-376.831981
 20
46.173951
 30
0.0
 11
-374.781981
 21
46.173951
 31
0.0
  0
LINE
  5
7027
100
AcDbEntity
  8
MSL1_60_3F-0
100
AcDbLine
 10
-376.831981
 20
53.679504
 30
0.0
 11
-374.781981
 21
53.679504
 31
0.0
  0
LINE
  5
7028
100
AcDbEntity
  8
MSL1_60_3F-0
100
AcDbLine
 10
-381.989481
 20
57.432281
 30
0.0
 11
-378.806981
 21
57.432281
 31
0.0
  0
LINE
  5
7029
100
AcDbEntity
  8
MSL1_60_3F-0
100
AcDbLine
 10
-382.806981
 20
55.555892
 30
0.0
 11
-382.806981
 21
44.297562
 31
0.0
  0
ARC
  5
702A
100
AcDbEntity
  8
MSL1_60_3F-0
100
AcDbCircle
 10
-373.784571
 20
49.926727
 30
0.0
 40
9.02241
100
AcDbArc
 50
155.421502
 51
204.578498
  0
ARC
  5
702B
100
AcDbEntity
  8
MSL1_60_3F-0
100
AcDbCircle
 10
-370.097258
 20
49.926727
 30
0.0
 40
7.709722
100
AcDbArc
 50
150.872216
 51
209.127784
  0
LINE
  5
702C
100
AcDbEntity
  8
MSL1_60_3F-0
100
AcDbLine
 10
-377.806981
 20
55.555892
 30
0.0
 11
-377.806981
 21
44.297562
 31
0.0
  0
LINE
  5
702D
100
AcDbEntity
  8
MSL1_60_3F-0
100
AcDbLine
 10
-378.806981
 20
45.926727
 30
0.0
 11
-377.806981
 21
45.926727
 31
0.0
  0
LINE
  5
702E
100
AcDbEntity
  8
MSL1_60_3F-0
100
AcDbLine
 10
-381.989481
 20
46.173951
 30
0.0
 11
-378.806981
 21
46.173951
 31
0.0
  0
LINE
  5
702F
100
AcDbEntity
  8
MSL1_60_3F-0
100
AcDbLine
 10
-378.806981
 20
53.926727
 30
0.0
 11
-377.806981
 21
53.926727
 31
0.0
  0
LINE
  5
7030
100
AcDbEntity
  8
MSL1_60_3F-0
100
AcDbLine
 10
-381.989481
 20
53.679504
 30
0.0
 11
-378.806981
 21
53.679504
 31
0.0
  0
ARC
  5
7031
100
AcDbEntity
  8
MSL1_60_3F-0
100
AcDbCircle
 10
-375.513925
 20
55.555892
 30
0.0
 40
2.293056
100
AcDbArc
 50
125.085847
 51
234.914153
  0
ARC
  5
7032
100
AcDbEntity
  8
MSL1_60_3F-0
100
AcDbCircle
 10
-380.244816
 20
55.555892
 30
0.0
 40
2.562165
100
AcDbArc
 50
132.916662
 51
227.083338
  0
LINE
  5
7033
100
AcDbEntity
  8
MSL1_60_3F-0
100
AcDbLine
 10
-373.806981
 20
55.555892
 30
0.0
 11
-373.806981
 21
44.297562
 31
0.0
  0
ARC
  5
7034
100
AcDbEntity
  8
MSL1_60_3F-0
100
AcDbCircle
 10
-381.516703
 20
49.926727
 30
0.0
 40
7.709722
100
AcDbArc
 50
330.872218
 51
29.127782
  0
ARC
  5
7035
100
AcDbEntity
  8
MSL1_60_3F-0
100
AcDbCircle
 10
-376.100036
 20
55.555892
 30
0.0
 40
2.293056
100
AcDbArc
 50
305.085848
 51
54.914152
  0
ARC
  5
7036
100
AcDbEntity
  8
MSL1_60_3F-4
100
AcDbCircle
 10
-372.806981
 20
123.705171
 30
0.0
 40
2.0
100
AcDbArc
 50
172.405357
 51
104.931417
  0
LINE
  5
7037
100
AcDbEntity
  8
MSL1_60_3F-7
100
AcDbLine
 10
-372.806981
 20
120.705171
 30
0.0
 11
-372.806981
 21
126.705171
 31
0.0
  0
LINE
  5
7038
100
AcDbEntity
  8
MSL1_60_3F-7
100
AcDbLine
 10
-367.806981
 20
110.705171
 30
0.0
 11
-367.806981
 21
124.505171
 31
0.0
  0
LINE
  5
7039
100
AcDbEntity
  8
MSL1_60_3F-3
100
AcDbLine
 10
-366.185981
 20
111.705171
 30
0.0
 11
-366.185981
 21
122.505171
 31
0.0
  0
LINE
  5
703A
100
AcDbEntity
  8
MSL1_60_3F-3
100
AcDbLine
 10
-369.427981
 20
111.705171
 30
0.0
 11
-369.427981
 21
122.505171
 31
0.0
  0
LINE
  5
703B
100
AcDbEntity
  8
MSL1_60_3F-0
100
AcDbLine
 10
-375.806981
 20
111.705171
 30
0.0
 11
-375.806981
 21
171.705171
 31
0.0
  0
LINE
  5
703C
100
AcDbEntity
  8
MSL1_60_3F-0
100
AcDbLine
 10
-363.806981
 20
171.705171
 30
0.0
 11
-363.806981
 21
111.705171
 31
0.0
  0
LINE
  5
703D
100
AcDbEntity
  8
MSL1_60_3F-0
100
AcDbLine
 10
-445.806981
 20
111.705171
 30
0.0
 11
-445.806981
 21
171.705171
 31
0.0
  0
LINE
  5
703E
100
AcDbEntity
  8
MSL1_60_3F-0
100
AcDbLine
 10
-444.006981
 20
59.741682
 30
0.0
 11
-445.806981
 21
59.741682
 31
0.0
  0
LINE
  5
703F
100
AcDbEntity
  8
MSL1_60_3F-7
100
AcDbLine
 10
-361.806981
 20
121.705171
 30
0.0
 11
-451.009487
 21
121.705171
 31
0.0
  0
LINE
  5
7040
100
AcDbEntity
  8
MSL1_60_3F-0
100
AcDbLine
 10
-375.806981
 20
117.705171
 30
0.0
 11
-445.806981
 21
117.705171
 31
0.0
  0
LINE
  5
7041
100
AcDbEntity
  8
MSL1_60_3F-0
100
AcDbLine
 10
-442.806981
 20
117.705171
 30
0.0
 11
-442.806981
 21
116.343955
 31
0.0
  0
LINE
  5
7042
100
AcDbEntity
  8
MSL1_60_3F-0
100
AcDbLine
 10
-444.006981
 20
113.890216
 30
0.0
 11
-445.806981
 21
113.890216
 31
0.0
  0
ARC
  5
7043
100
AcDbEntity
  8
MSL1_60_3F-0
100
AcDbCircle
 10
-445.915661
 20
116.343955
 30
0.0
 40
3.108681
100
AcDbArc
 50
307.878144
 51
25.968433
  0
LINE
  5
7044
100
AcDbEntity
  8
MSL1_60_3F-0
100
AcDbLine
 10
-375.806981
 20
116.199618
 30
0.0
 11
-376.831981
 21
116.199618
 31
0.0
  0
LINE
  5
7045
100
AcDbEntity
  8
MSL1_60_3F-0
100
AcDbLine
 10
-378.806981
 20
117.705171
 30
0.0
 11
-378.806981
 21
116.199618
 31
0.0
  0
ARC
  5
7046
100
AcDbEntity
  8
MSL1_60_3F-0
100
AcDbCircle
 10
-375.513925
 20
118.076006
 30
0.0
 40
2.293056
100
AcDbArc
 50
189.306796
 51
234.914153
  0
ARC
  5
7047
100
AcDbEntity
  8
MSL1_60_3F-0
100
AcDbCircle
 10
-380.244816
 20
118.076006
 30
0.0
 40
2.562165
100
AcDbArc
 50
188.321934
 51
227.083338
  0
LINE
  5
7048
100
AcDbEntity
  8
MSL1_60_3F-0
100
AcDbLine
 10
-378.806981
 20
116.199618
 30
0.0
 11
-381.989481
 21
116.199618
 31
0.0
  0
LINE
  5
7049
100
AcDbEntity
  8
MSL1_60_3F-3
100
AcDbLine
 10
-365.806981
 20
111.705171
 30
0.0
 11
-365.806981
 21
118.705171
 31
0.0
  0
LINE
  5
704A
100
AcDbEntity
  8
MSL1_60_3F-3
100
AcDbLine
 10
-369.806981
 20
111.705171
 30
0.0
 11
-369.806981
 21
118.705171
 31
0.0
  0
LINE
  5
704B
100
AcDbEntity
  8
MSL1_60_3F-0
100
AcDbLine
 10
-363.806981
 20
111.705171
 30
0.0
 11
-375.806981
 21
111.705171
 31
0.0
  0
LINE
  5
704C
100
AcDbEntity
  8
MSL1_60_3F-3
100
AcDbLine
 10
-365.806981
 20
118.705171
 30
0.0
 11
-369.806981
 21
118.705171
 31
0.0
  0
ARC
  5
704D
100
AcDbEntity
  8
MSL1_60_3F-0
100
AcDbCircle
 10
-443.915661
 20
151.343955
 30
0.0
 40
3.108681
100
AcDbArc
 50
307.878144
 51
52.121856
  0
LINE
  5
704E
100
AcDbEntity
  8
MSL1_60_3F-0
100
AcDbLine
 10
-437.806981
 20
157.705171
 30
0.0
 11
-437.806981
 21
152.705171
 31
0.0
  0
LINE
  5
704F
100
AcDbEntity
  8
MSL1_60_3F-0
100
AcDbLine
 10
-440.806981
 20
157.705171
 30
0.0
 11
-440.806981
 21
151.653977
 31
0.0
  0
LINE
  5
7050
100
AcDbEntity
  8
MSL1_60_3F-0
100
AcDbLine
 10
-438.806981
 20
157.705171
 30
0.0
 11
-438.806981
 21
151.705171
 31
0.0
  0
ARC
  5
7051
100
AcDbEntity
  8
MSL1_60_3F-0
100
AcDbCircle
 10
-442.6983
 20
151.343955
 30
0.0
 40
3.108681
100
AcDbArc
 50
127.878142
 51
232.121858
  0
LINE
  5
7052
100
AcDbEntity
  8
MSL1_60_3F-0
100
AcDbLine
 10
-436.806981
 20
143.705171
 30
0.0
 11
-375.806981
 21
143.705171
 31
0.0
  0
LINE
  5
7053
100
AcDbEntity
  8
MSL1_60_3F-0
100
AcDbLine
 10
-375.806981
 20
139.705171
 30
0.0
 11
-436.806981
 21
139.705171
 31
0.0
  0
LINE
  5
7054
100
AcDbEntity
  8
MSL1_60_3F-0
100
AcDbLine
 10
-445.806981
 20
125.705171
 30
0.0
 11
-375.806981
 21
125.705171
 31
0.0
  0
LINE
  5
7055
100
AcDbEntity
  8
MSL1_60_3F-0
100
AcDbLine
 10
-436.806981
 20
135.705171
 30
0.0
 11
-436.806981
 21
147.705171
 31
0.0
  0
LINE
  5
7056
100
AcDbEntity
  8
MSL1_60_3F-0
100
AcDbLine
 10
-437.806981
 20
148.705171
 30
0.0
 11
-437.806981
 21
134.705171
 31
0.0
  0
LINE
  5
7057
100
AcDbEntity
  8
MSL1_60_3F-7
100
AcDbLine
 10
-441.781147
 20
123.705171
 30
0.0
 11
-448.391635
 21
123.705171
 31
0.0
  0
LINE
  5
7058
100
AcDbEntity
  8
MSL1_60_3F-0
100
AcDbLine
 10
-437.806981
 20
134.705171
 30
0.0
 11
-436.806981
 21
135.705171
 31
0.0
  0
LINE
  5
7059
100
AcDbEntity
  8
MSL1_60_3F-0
100
AcDbLine
 10
-442.806981
 20
131.066387
 30
0.0
 11
-442.806981
 21
125.705171
 31
0.0
  0
LINE
  5
705A
100
AcDbEntity
  8
MSL1_60_3F-0
100
AcDbLine
 10
-445.806981
 20
133.520125
 30
0.0
 11
-444.006981
 21
133.520125
 31
0.0
  0
LINE
  5
705B
100
AcDbEntity
  8
MSL1_60_3F-0
100
AcDbLine
 10
-444.006981
 20
128.612648
 30
0.0
 11
-445.806981
 21
128.612648
 31
0.0
  0
LINE
  5
705C
100
AcDbEntity
  8
MSL1_60_3F-0
100
AcDbLine
 10
-445.806981
 20
134.705171
 30
0.0
 11
-437.806981
 21
134.705171
 31
0.0
  0
ARC
  5
705D
100
AcDbEntity
  8
MSL1_60_3F-0
100
AcDbCircle
 10
-445.915661
 20
131.066387
 30
0.0
 40
3.108681
100
AcDbArc
 50
307.878144
 51
52.121856
  0
ARC
  5
705E
100
AcDbEntity
  8
MSL1_60_3F-0
100
AcDbCircle
 10
-453.441703
 20
123.705171
 30
0.0
 40
10.634722
100
AcDbArc
 50
10.839779
 51
27.481227
  0
LINE
  5
705F
100
AcDbEntity
  8
MSL1_60_3F-0
100
AcDbLine
 10
-438.806981
 20
151.705171
 30
0.0
 11
-440.828038
 21
151.705171
 31
0.0
  0
LINE
  5
7060
100
AcDbEntity
  8
MSL1_60_3F-0
100
AcDbLine
 10
-437.806981
 20
152.705171
 30
0.0
 11
-438.806981
 21
151.705171
 31
0.0
  0
LINE
  5
7061
100
AcDbEntity
  8
MSL1_60_3F-0
100
AcDbLine
 10
-436.806981
 20
147.705171
 30
0.0
 11
-437.806981
 21
148.705171
 31
0.0
  0
LINE
  5
7062
100
AcDbEntity
  8
MSL1_60_3F-0
100
AcDbLine
 10
-437.806981
 20
148.705171
 30
0.0
 11
-445.806981
 21
148.705171
 31
0.0
  0
LINE
  5
7063
100
AcDbEntity
  8
MSL1_60_3F-0
100
AcDbLine
 10
-444.606981
 20
148.890216
 30
0.0
 11
-442.006981
 21
148.890216
 31
0.0
  0
LINE
  5
7064
100
AcDbEntity
  8
MSL1_60_3F-0
100
AcDbLine
 10
-375.806981
 20
127.457948
 30
0.0
 11
-376.831981
 21
127.457948
 31
0.0
  0
LINE
  5
7065
100
AcDbEntity
  8
MSL1_60_3F-7
100
AcDbLine
 10
-383.306981
 20
123.705171
 30
0.0
 11
-362.425126
 21
123.705171
 31
0.0
  0
LINE
  5
7066
100
AcDbEntity
  8
MSL1_60_3F-0
100
AcDbLine
 10
-376.831981
 20
131.210724
 30
0.0
 11
-375.806981
 21
131.210724
 31
0.0
  0
LINE
  5
7067
100
AcDbEntity
  8
MSL1_60_3F-7
100
AcDbLine
 10
-376.63416
 20
131.705171
 30
0.0
 11
-362.707455
 21
131.705171
 31
0.0
  0
ARC
  5
7068
100
AcDbEntity
  8
MSL1_60_3F-0
100
AcDbCircle
 10
-375.513925
 20
129.334336
 30
0.0
 40
2.293056
100
AcDbArc
 50
125.085847
 51
234.914153
  0
ARC
  5
7069
100
AcDbEntity
  8
MSL1_60_3F-0
100
AcDbCircle
 10
-380.244816
 20
129.334336
 30
0.0
 40
2.562165
100
AcDbArc
 50
132.916662
 51
227.083338
  0
LINE
  5
706A
100
AcDbEntity
  8
MSL1_60_3F-0
100
AcDbLine
 10
-378.806981
 20
131.210724
 30
0.0
 11
-378.806981
 21
125.705171
 31
0.0
  0
LINE
  5
706B
100
AcDbEntity
  8
MSL1_60_3F-0
100
AcDbLine
 10
-382.806981
 20
125.705171
 30
0.0
 11
-382.806981
 21
129.334336
 31
0.0
  0
LINE
  5
706C
100
AcDbEntity
  8
MSL1_60_3F-0
100
AcDbLine
 10
-377.806981
 20
129.334336
 30
0.0
 11
-377.806981
 21
125.705171
 31
0.0
  0
LINE
  5
706D
100
AcDbEntity
  8
MSL1_60_3F-0
100
AcDbLine
 10
-381.989481
 20
127.457948
 30
0.0
 11
-378.806981
 21
127.457948
 31
0.0
  0
ARC
  5
706E
100
AcDbEntity
  8
MSL1_60_3F-0
100
AcDbCircle
 10
-373.784571
 20
123.705171
 30
0.0
 40
9.02241
100
AcDbArc
 50
155.421502
 51
167.192843
  0
ARC
  5
706F
100
AcDbEntity
  8
MSL1_60_3F-0
100
AcDbCircle
 10
-370.097258
 20
123.705171
 30
0.0
 40
7.709722
100
AcDbArc
 50
150.872216
 51
164.964781
  0
LINE
  5
7070
100
AcDbEntity
  8
MSL1_60_3F-0
100
AcDbLine
 10
-378.806981
 20
127.705171
 30
0.0
 11
-377.806981
 21
127.705171
 31
0.0
  0
LINE
  5
7071
100
AcDbEntity
  8
MSL1_60_3F-0
100
AcDbLine
 10
-381.989481
 20
131.210724
 30
0.0
 11
-378.806981
 21
131.210724
 31
0.0
  0
LINE
  5
7072
100
AcDbEntity
  8
MSL1_60_3F-0
100
AcDbLine
 10
-363.806981
 20
125.705171
 30
0.0
 11
-363.806981
 21
125.705171
 31
0.0
  0
CIRCLE
  5
7073
100
AcDbEntity
  8
MSL1_60_3F-0
100
AcDbCircle
 10
-372.806981
 20
123.705171
 30
0.0
 40
1.621
  0
LINE
  5
7074
100
AcDbEntity
  8
MSL1_60_3F-3
100
AcDbLine
 10
-369.427981
 20
122.505171
 30
0.0
 11
-367.806981
 21
123.441056
 31
0.0
  0
LINE
  5
7075
100
AcDbEntity
  8
MSL1_60_3F-7
100
AcDbLine
 10
-375.806981
 20
123.705171
 30
0.0
 11
-369.806981
 21
123.705171
 31
0.0
  0
LINE
  5
7076
100
AcDbEntity
  8
MSL1_60_3F-3
100
AcDbLine
 10
-366.185981
 20
122.505171
 30
0.0
 11
-367.806981
 21
123.441056
 31
0.0
  0
LINE
  5
7077
100
AcDbEntity
  8
MSL1_60_3F-3
100
AcDbLine
 10
-369.427981
 20
122.505171
 30
0.0
 11
-366.185981
 21
122.505171
 31
0.0
  0
LINE
  5
7078
100
AcDbEntity
  8
MSL1_60_3F-7
100
AcDbLine
 10
-377.806981
 20
151.705171
 30
0.0
 11
-361.806981
 21
151.705171
 31
0.0
  0
LINE
  5
7079
100
AcDbEntity
  8
MSL1_60_3F-0
100
AcDbLine
 10
-420.306981
 20
156.305171
 30
0.0
 11
-437.806981
 21
156.305171
 31
0.0
  0
LINE
  5
707A
100
AcDbEntity
  8
MSL1_60_3F-7
100
AcDbLine
 10
-361.806981
 20
161.705171
 30
0.0
 11
-451.009487
 21
161.705171
 31
0.0
  0
LINE
  5
707B
100
AcDbEntity
  8
MSL1_60_3F-0
100
AcDbLine
 10
-445.806981
 20
157.705171
 30
0.0
 11
-375.806981
 21
157.705171
 31
0.0
  0
LINE
  5
707C
100
AcDbEntity
  8
MSL1_60_3F-0
100
AcDbLine
 10
-445.806981
 20
165.705171
 30
0.0
 11
-375.806981
 21
165.705171
 31
0.0
  0
LINE
  5
707D
100
AcDbEntity
  8
MSL1_60_3F-7
100
AcDbLine
 10
-378.43184
 20
158.705171
 30
0.0
 11
-447.69625
 21
158.705171
 31
0.0
  0
ARC
  5
707E
100
AcDbEntity
  8
MSL1_60_3F-0
100
AcDbCircle
 10
-443.915661
 20
166.066387
 30
0.0
 40
3.108681
100
AcDbArc
 50
353.327393
 51
52.121856
  0
LINE
  5
707F
100
AcDbEntity
  8
MSL1_60_3F-0
100
AcDbLine
 10
-437.806981
 20
156.305171
 30
0.0
 11
-437.806981
 21
157.705171
 31
0.0
  0
ARC
  5
7080
100
AcDbEntity
  8
MSL1_60_3F-0
100
AcDbCircle
 10
-451.441703
 20
158.705171
 30
0.0
 40
10.634722
100
AcDbArc
 50
332.518773
 51
354.604415
  0
ARC
  5
7081
100
AcDbEntity
  8
MSL1_60_3F-0
100
AcDbCircle
 10
-442.646249
 20
166.021022
 30
0.0
 40
3.176474
100
AcDbArc
 50
128.116805
 51
185.706614
  0
ARC
  5
7082
100
AcDbEntity
  8
MSL1_60_3F-0
100
AcDbCircle
 10
-434.118633
 20
159.156703
 30
0.0
 40
11.778133
100
AcDbArc
 50
187.079105
 51
207.06471
  0
LINE
  5
7083
100
AcDbEntity
  8
MSL1_60_3F-0
100
AcDbLine
 10
-442.006981
 20
168.520126
 30
0.0
 11
-444.606981
 21
168.520126
 31
0.0
  0
LINE
  5
7084
100
AcDbEntity
  8
MSL1_60_3F-0
100
AcDbLine
 10
-444.606981
 20
153.797694
 30
0.0
 11
-442.006981
 21
153.797694
 31
0.0
  0
LINE
  5
7085
100
AcDbEntity
  8
MSL1_60_3F-7
100
AcDbLine
 10
-447.482918
 20
158.705171
 30
0.0
 11
-439.280835
 21
158.705171
 31
0.0
  0
LINE
  5
7086
100
AcDbEntity
  8
MSL1_60_3F-3
100
AcDbLine
 10
-365.806981
 20
171.705171
 30
0.0
 11
-365.806981
 21
164.705171
 31
0.0
  0
LINE
  5
7087
100
AcDbEntity
  8
MSL1_60_3F-3
100
AcDbLine
 10
-369.806981
 20
171.705171
 30
0.0
 11
-369.806981
 21
164.705171
 31
0.0
  0
LINE
  5
7088
100
AcDbEntity
  8
MSL1_60_3F-7
100
AcDbLine
 10
-367.806981
 20
172.705171
 30
0.0
 11
-367.806981
 21
158.905171
 31
0.0
  0
LINE
  5
7089
100
AcDbEntity
  8
MSL1_60_3F-3
100
AcDbLine
 10
-369.427981
 20
171.705171
 30
0.0
 11
-369.427981
 21
160.905171
 31
0.0
  0
LINE
  5
708A
100
AcDbEntity
  8
MSL1_60_3F-3
100
AcDbLine
 10
-366.185981
 20
171.705171
 30
0.0
 11
-366.185981
 21
160.905171
 31
0.0
  0
LINE
  5
708B
100
AcDbEntity
  8
MSL1_60_3F-0
100
AcDbLine
 10
-420.306981
 20
157.705171
 30
0.0
 11
-420.306981
 21
156.305171
 31
0.0
  0
LINE
  5
708C
100
AcDbEntity
  8
MSL1_60_3F-3
100
AcDbLine
 10
-369.806981
 20
164.705171
 30
0.0
 11
-365.806981
 21
164.705171
 31
0.0
  0
LINE
  5
708D
100
AcDbEntity
  8
MSL1_60_3F-0
100
AcDbLine
 10
-363.806981
 20
157.705171
 30
0.0
 11
-363.806981
 21
157.705171
 31
0.0
  0
CIRCLE
  5
708E
100
AcDbEntity
  8
MSL1_60_3F-0
100
AcDbCircle
 10
-372.806981
 20
159.705171
 30
0.0
 40
1.621
  0
ARC
  5
708F
100
AcDbEntity
  8
MSL1_60_3F-4
100
AcDbCircle
 10
-372.806981
 20
159.705171
 30
0.0
 40
2.0
100
AcDbArc
 50
172.405357
 51
104.931417
  0
LINE
  5
7090
100
AcDbEntity
  8
MSL1_60_3F-7
100
AcDbLine
 10
-375.806981
 20
159.705171
 30
0.0
 11
-369.806981
 21
159.705171
 31
0.0
  0
LINE
  5
7091
100
AcDbEntity
  8
MSL1_60_3F-3
100
AcDbLine
 10
-369.427981
 20
160.905171
 30
0.0
 11
-367.806981
 21
159.969286
 31
0.0
  0
LINE
  5
7092
100
AcDbEntity
  8
MSL1_60_3F-3
100
AcDbLine
 10
-366.185981
 20
160.905171
 30
0.0
 11
-367.806981
 21
159.969286
 31
0.0
  0
LINE
  5
7093
100
AcDbEntity
  8
MSL1_60_3F-3
100
AcDbLine
 10
-366.185981
 20
160.905171
 30
0.0
 11
-369.427981
 21
160.905171
 31
0.0
  0
LINE
  5
7094
100
AcDbEntity
  8
MSL1_60_3F-7
100
AcDbLine
 10
-372.806981
 20
156.705171
 30
0.0
 11
-372.806981
 21
162.705171
 31
0.0
  0
LINE
  5
7095
100
AcDbEntity
  8
MSL1_60_3F-0
100
AcDbLine
 10
-375.806981
 20
171.705171
 30
0.0
 11
-363.806981
 21
171.705171
 31
0.0
  0
TEXT
  5
714F
100
AcDbEntity
  8
0
 60
     1
100
AcDbText
 10
809.215361
 20
579.328377
 30
0.0
 40
2.0
  1
!GENTITLE-MAX
100
AcDbText
  0
TEXT
  5
7150
100
AcDbEntity
  8
0
 60
     1
100
AcDbText
 10
799.215361
 20
569.328377
 30
0.0
 40
2.0
  1
!GENTITLE-RU
100
AcDbText
  0
TEXT
  5
7151
100
AcDbEntity
  8
0
 60
     1
100
AcDbText
 10
799.215361
 20
288.828377
 30
0.0
 40
2.0
  1
!GENTITLE-INSERT
100
AcDbText
  0
TEXT
  5
7152
100
AcDbEntity
  8
0
 60
     1
100
AcDbText
 10
399.215361
 20
293.828377
 30
0.0
 40
2.0
  1
!GENTITLE-LL
100
AcDbText
  0
LINE
  5
7153
100
AcDbEntity
  8
MSL1_60_3F-0
100
AcDbLine
 10
-375.806981
 20
74.926727
 30
0.0
 11
-363.806981
 21
74.926727
 31
0.0
  0
LINE
  5
7154
100
AcDbEntity
  8
MSL1_60_3F-0
100
AcDbLine
 10
-375.806981
 20
57.926727
 30
0.0
 11
-375.806981
 21
74.926727
 31
0.0
1001
ACAD
1000
ASC_BOUNDS
1002
{
1070
    19
1002
}
  0
LINE
  5
7155
100
AcDbEntity
  8
MSL1_60_3F-0
100
AcDbLine
 10
-373.806981
 20
57.926727
 30
0.0
 11
-375.806981
 21
57.926727
 31
0.0
1001
ACAD
1000
ASC_BOUNDS
1002
{
1070
    19
1002
}
  0
LINE
  5
7156
100
AcDbEntity
  8
MSL1_60_3F-0
100
AcDbLine
 10
-373.806981
 20
47.526727
 30
0.0
 11
-373.806981
 21
57.926727
 31
0.0
1001
ACAD
1000
ASC_BOUNDS
1002
{
1070
    19
1002
}
  0
LINE
  5
7157
100
AcDbEntity
  8
MSL1_60_3F-0
100
AcDbLine
 10
-373.806981
 20
55.926727
 30
0.0
 11
-373.806981
 21
41.926727
 31
0.0
1001
ACAD
1000
ASC_BOUNDS
1002
{
1070
    19
1002
}
  0
LINE
  5
7158
100
AcDbEntity
  8
MSL1_60_3F-0
100
AcDbLine
 10
-363.806981
 20
10.926727
 30
0.0
 11
-363.806981
 21
74.926727
 31
0.0
1001
ACAD
1000
ASC_BOUNDS
1002
{
1070
    19
1002
}
  0
LINE
  5
7159
100
AcDbEntity
  8
MSL1_60_3F-0
100
AcDbLine
 10
-373.806981
 20
54.418625
 30
0.0
 11
-363.806981
 21
54.418625
 31
0.0
  0
LINE
  5
721B
100
AcDbEntity
  8
MSL1_60_3F-0
100
AcDbLine
 10
-583.806981
 20
10.926727
 30
0.0
 11
-583.806981
 21
74.926727
 31
0.0
1001
ACAD
1000
ASC_BOUNDS
1002
{
1070
    19
1002
}
  0
LINE
  5
721C
100
AcDbEntity
  8
MSL1_60_3F-0
100
AcDbLine
 10
-571.806981
 20
57.926727
 30
0.0
 11
-571.806981
 21
74.926727
 31
0.0
1001
ACAD
1000
ASC_BOUNDS
1002
{
1070
    19
1002
}
  0
LINE
  5
721D
100
AcDbEntity
  8
MSL1_60_3F-0
100
AcDbLine
 10
-571.806981
 20
74.926727
 30
0.0
 11
-583.806981
 21
74.926727
 31
0.0
  0
LINE
  5
721E
100
AcDbEntity
  8
MSL1_60_3F-0
100
AcDbLine
 10
-573.806981
 20
54.418625
 30
0.0
 11
-583.806981
 21
54.418625
 31
0.0
  0
LINE
  5
721F
100
AcDbEntity
  8
MSL1_60_3F-0
100
AcDbLine
 10
-573.806981
 20
47.526727
 30
0.0
 11
-573.806981
 21
57.926727
 31
0.0
1001
ACAD
1000
ASC_BOUNDS
1002
{
1070
    19
1002
}
  0
LINE
  5
7220
100
AcDbEntity
  8
MSL1_60_3F-0
100
AcDbLine
 10
-573.806981
 20
57.926727
 30
0.0
 11
-571.806981
 21
57.926727
 31
0.0
1001
ACAD
1000
ASC_BOUNDS
1002
{
1070
    19
1002
}
  0
LINE
  5
7221
100
AcDbEntity
  8
MSL1_60_3F-0
100
AcDbLine
 10
-573.806981
 20
55.926727
 30
0.0
 11
-573.806981
 21
41.926727
 31
0.0
1001
ACAD
1000
ASC_BOUNDS
1002
{
1070
    19
1002
}
  0
LINE
  5
7222
100
AcDbEntity
  8
MSL1_60_3F-0
100
AcDbLine
 10
-571.806981
 20
41.926727
 30
0.0
 11
-573.806981
 21
41.926727
 31
0.0
  0
LINE
  5
7248
100
AcDbEntity
  8
MSL1_60_3F-0
100
AcDbLine
 10
-445.806981
 20
67.926727
 30
0.0
 11
-375.806981
 21
67.926727
 31
0.0
  0
LINE
  5
7249
100
AcDbEntity
  8
MSL1_60_3F-0
100
AcDbLine
 10
-445.806981
 20
59.926727
 30
0.0
 11
-375.806981
 21
59.926727
 31
0.0
  0
LINE
  5
724A
100
AcDbEntity
  8
MSL1_60_3F-0
100
AcDbLine
 10
-571.806981
 20
67.926727
 30
0.0
 11
-561.806981
 21
67.926727
 31
0.0
  0
LINE
  5
724B
100
AcDbEntity
  8
MSL1_60_3F-0
100
AcDbLine
 10
-571.806981
 20
59.926727
 30
0.0
 11
-561.806981
 21
59.926727
 31
0.0
  0
LINE
  5
724F
100
AcDbEntity
  8
MSL1_60_3F-0
100
AcDbLine
 10
-561.806981
 20
41.926727
 30
0.0
 11
-561.806981
 21
74.926727
 31
0.0
  0
LINE
  5
7250
100
AcDbEntity
  8
MSL1_60_3F-0
100
AcDbLine
 10
-561.806981
 20
74.926727
 30
0.0
 11
-561.306981
 21
74.926727
 31
0.0
  0
LINE
  5
7251
100
AcDbEntity
  8
MSL1_60_3F-0
100
AcDbLine
 10
-445.806981
 20
41.926727
 30
0.0
 11
-445.806981
 21
74.926727
 31
0.0
  0
LINE
  5
7252
100
AcDbEntity
  8
MSL1_60_3F-0
100
AcDbLine
 10
-445.806981
 20
74.926727
 30
0.0
 11
-446.306981
 21
74.926727
 31
0.0
  0
ELLIPSE
  5
728D
100
AcDbEntity
  8
MSL1_60_3F-0
100
AcDbEllipse
 10
-455.106981
 20
66.492771
 30
0.0
 11
2.100000000000022
 21
0.0
 31
0.0
210
0.0
220
0.0
230
1.0
 40
0.612179
 41
0.0000000000000111
 42
6.283185307179611
  0
ELLIPSE
  5
728E
100
AcDbEntity
  8
MSL1_60_3F-4
100
AcDbEllipse
 10
-455.106981
 20
66.492771
 30
0.0
 11
2.5
 21
0.0000000000000577
 31
0.0
210
0.0
220
0.0
230
1.0
 40
0.642788
 41
-1.570796326794911
 42
3.141592653590514
  0
LINE
  5
7290
100
AcDbEntity
  8
MSL1_60_3F-7A
100
AcDbLine
 10
-460.606981
 20
66.492771
 30
0.0
 11
-449.606981
 21
66.492771
 31
0.0
1001
GENIUS_GENODEF_13
1002
{
1000
HIER
1070
     0
1002
}
1002
{
1000
MANEDIT
1070
     0
1002
}
1002
{
1000
NOSEL
1070
     0
1002
}
1002
{
1000
BEHIND
1070
     0
1002
}
1002
{
1000
REACTOR
1002
}
1001
GENIUS_GENOBJ-N-CEN_13
1002
{
1000
OWNER
1000
GEN
1002
}
  0
LINE
  5
7291
100
AcDbEntity
  8
MSL1_60_3F-7A
100
AcDbLine
 10
-455.106981
 20
71.09974
 30
0.0
 11
-455.106981
 21
61.885802
 31
0.0
1001
GENIUS_GENODEF_13
1002
{
1000
HIER
1070
     0
1002
}
1002
{
1000
MANEDIT
1070
     0
1002
}
1002
{
1000
NOSEL
1070
     0
1002
}
1002
{
1000
BEHIND
1070
     0
1002
}
1002
{
1000
REACTOR
1002
}
1001
GENIUS_GENOBJ-N-CEN_13
1002
{
1000
OWNER
1000
GEN
1002
}
  0
LINE
  5
72BD
100
AcDbEntity
  8
MSL1_60_3F-7
100
AcDbLine
 10
-586.806981
 20
63.926727
 30
0.0
 11
-360.806981
 21
63.926727
 31
0.0
1001
GENIUS_GENODEF_13
1002
{
1000
HIER
1070
     0
1002
}
1002
{
1000
MANEDIT
1070
     0
1002
}
1002
{
1000
NOSEL
1070
     0
1002
}
1002
{
1000
BEHIND
1070
     0
1002
}
1002
{
1000
REACTOR
1002
}
1001
GENIUS_GENOBJ-N-CEN_13
1002
{
1000
OWNER
1000
GEN
1002
}
  0
LINE
  5
72DF
100
AcDbEntity
  8
MSL1_60_3F-0
100
AcDbLine
 10
-436.806981
 20
137.705171
 30
0.0
 11
-375.806981
 21
137.705171
 31
0.0
  0
LINE
  5
72E0
100
AcDbEntity
  8
MSL1_60_3F-0
100
AcDbLine
 10
-375.806981
 20
145.705171
 30
0.0
 11
-436.806981
 21
145.705171
 31
0.0
  0
LINE
  5
72E1
100
AcDbEntity
  8
MSL1_60_3F-0
100
AcDbLine
 10
-571.806981
 20
145.705171
 30
0.0
 11
-570.806981
 21
145.705171
 31
0.0
  0
LINE
  5
72E2
100
AcDbEntity
  8
MSL1_60_3F-0
100
AcDbLine
 10
-571.806981
 20
137.705171
 30
0.0
 11
-570.806981
 21
137.705171
 31
0.0
  0
LINE
  5
72FD
100
AcDbEntity
  8
MSL1_60_3F-7A
100
AcDbLine
 10
-460.106981
 20
-78.75559
 30
0.0
 11
-449.606981
 21
-78.75559
 31
0.0
1001
GENIUS_GENODEF_13
1002
{
1000
HIER
1070
     0
1002
}
1002
{
1000
MANEDIT
1070
     0
1002
}
1002
{
1000
NOSEL
1070
     0
1002
}
1002
{
1000
BEHIND
1070
     0
1002
}
1002
{
1000
REACTOR
1002
}
1001
GENIUS_GENOBJ-N-CEN_13
1002
{
1000
OWNER
1000
GEN
1002
}
  0
ELLIPSE
  5
7349
100
AcDbEntity
  8
MSL1_60_3F-4
100
AcDbEllipse
 10
-455.097456
 20
-78.729657
 30
0.0
 11
-2.514980627394157
 21
0.0073153143038294
 31
0.0
210
0.0
220
0.0
230
1.0
 40
0.758847
 41
1.569216266013443
 42
6.300607052474545
  0
ELLIPSE
  5
734A
100
AcDbEntity
  8
MSL1_60_3F-0
100
AcDbEllipse
 10
-455.103007
 20
-78.729657
 30
0.0
 11
-1.99861664358614
 21
0.0
 31
0.0
210
0.0
220
0.0
230
1.0
 40
0.766143
 41
0.0000000000000186
 42
6.283185307179619
  0
LINE
  5
7375
100
AcDbEntity
  8
MSL1_60_3F-7A
100
AcDbLine
 10
-455.106981
 20
-83.75559
 30
0.0
 11
-455.106981
 21
-73.25559
 31
0.0
1001
GENIUS_GENODEF_13
1002
{
1000
HIER
1070
     0
1002
}
1002
{
1000
MANEDIT
1070
     0
1002
}
1002
{
1000
NOSEL
1070
     0
1002
}
1002
{
1000
BEHIND
1070
     0
1002
}
1002
{
1000
REACTOR
1002
}
1001
GENIUS_GENOBJ-N-CEN_13
1002
{
1000
OWNER
1000
GEN
1002
}
  0
LINE
  5
73D0
100
AcDbEntity
  8
MSL1_60_3F-0
100
AcDbLine
 10
-545.606981
 20
-39.03943
 30
0.0
 11
-561.306981
 21
-39.03943
 31
0.0
  0
LINE
  5
73D1
100
AcDbEntity
  8
MSL1_60_3F-7A
100
AcDbLine
 10
-547.506981
 20
-44.379392
 30
0.0
 11
-558.006981
 21
-44.379392
 31
0.0
1001
GENIUS_GENODEF_13
1002
{
1000
HIER
1070
     0
1002
}
1002
{
1000
MANEDIT
1070
     0
1002
}
1002
{
1000
NOSEL
1070
     0
1002
}
1002
{
1000
BEHIND
1070
     0
1002
}
1002
{
1000
REACTOR
1002
}
1001
GENIUS_GENOBJ-N-CEN_13
1002
{
1000
OWNER
1000
GEN
1002
}
  0
LINE
  5
73D2
100
AcDbEntity
  8
MSL1_60_3F-0
100
AcDbLine
 10
-561.306981
 20
-49.764052
 30
0.0
 11
-545.606981
 21
-49.764052
 31
0.0
  0
LINE
  5
73D3
100
AcDbEntity
  8
MSL1_60_3F-0
100
AcDbLine
 10
-545.606981
 20
-49.764052
 30
0.0
 11
-545.606981
 21
-39.03943
 31
0.0
  0
LINE
  5
73D4
100
AcDbEntity
  8
MSL1_60_3F-7A
100
AcDbLine
 10
-552.506981
 20
-39.379392
 30
0.0
 11
-552.506981
 21
-49.879392
 31
0.0
1001
GENIUS_GENODEF_13
1002
{
1000
HIER
1070
     0
1002
}
1002
{
1000
MANEDIT
1070
     0
1002
}
1002
{
1000
NOSEL
1070
     0
1002
}
1002
{
1000
BEHIND
1070
     0
1002
}
1002
{
1000
REACTOR
1002
}
1001
GENIUS_GENOBJ-N-CEN_13
1002
{
1000
OWNER
1000
GEN
1002
}
  0
ELLIPSE
  5
73D5
100
AcDbEntity
  8
MSL1_60_3F-4
100
AcDbEllipse
 10
-552.516506
 20
-44.405326
 30
0.0
 11
2.514980627394166
 21
-0.007315314303831
 31
0.0
210
0.0
220
0.0
230
1.0
 40
0.758847
 41
-1.56480176531356
 42
3.131836969137563
  0
ELLIPSE
  5
73D6
100
AcDbEntity
  8
MSL1_60_3F-0
100
AcDbEllipse
 10
-552.510955
 20
-44.405326
 30
0.0
 11
1.99861664358614
 21
0.0
 31
0.0
210
0.0
220
0.0
230
1.0
 40
0.766143
 41
0.0
 42
6.2831853071796
  0
LINE
  5
73DC
100
AcDbEntity
  8
MSL1_60_3F-0
100
AcDbLine
 10
-445.806981
 20
-65.567491
 30
0.0
 11
-375.806981
 21
-65.567491
 31
0.0
  0
LINE
  5
73DD
100
AcDbEntity
  8
MSL1_60_3F-0
100
AcDbLine
 10
-445.806981
 20
-57.567491
 30
0.0
 11
-375.806981
 21
-57.567491
 31
0.0
  0
LINE
  5
73DE
100
AcDbEntity
  8
MSL1_60_3F-0
100
AcDbLine
 10
-571.806981
 20
-65.567491
 30
0.0
 11
-561.806981
 21
-65.567491
 31
0.0
  0
LINE
  5
73DF
100
AcDbEntity
  8
MSL1_60_3F-0
100
AcDbLine
 10
-571.806981
 20
-57.567491
 30
0.0
 11
-561.806981
 21
-57.567491
 31
0.0
  0
LINE
  5
73EA
100
AcDbEntity
  8
MSL1_60_3F-3
100
AcDbLine
 10
-570.806981
 20
-57.567491
 30
0.0
 11
-570.806981
 21
-65.567491
 31
0.0
1001
GENIUS_GENBH_13
1002
{
1000
OE
1000
CON1
1002
}
1001
GENIUS_GENOREF_13
1005
73F1
  0
LINE
  5
73EB
100
AcDbEntity
  8
MSL1_60_3F-0
100
AcDbLine
 10
-570.806981
 20
-65.567491
 30
0.0
 11
-570.806981
 21
-67.567491
 31
0.0
1001
GENIUS_GENOREF_13
1005
73F1
  0
LINE
  5
73EC
100
AcDbEntity
  8
MSL1_60_3F-3
100
AcDbLine
 10
-569.806981
 20
-57.567491
 30
0.0
 11
-569.806981
 21
-65.567491
 31
0.0
1001
GENIUS_GENBH_13
1002
{
1000
OE
1000
CON1
1002
}
1001
GENIUS_GENOREF_13
1005
73F1
  0
LINE
  5
73ED
100
AcDbEntity
  8
MSL1_60_3F-0
100
AcDbLine
 10
-569.806981
 20
-65.567491
 30
0.0
 11
-569.806981
 21
-68.567491
 31
0.0
1001
GENIUS_GENOREF_13
1005
73F1
  0
POINT
  5
73F1
100
AcDbEntity
  8
0
 60
     1
100
AcDbPoint
 10
0.0
 20
0.0
 30
0.0
1001
GENIUS_GENBH_13
1002
{
1000
FGO
1005
73EF
1002
}
1001
GENIUS_GENODEF_13
1002
{
1000
HIER
1070
     1
1002
}
1002
{
1000
MANEDIT
1070
     0
1002
}
1002
{
1000
NOSEL
1070
     1
1002
}
1002
{
1000
BEHIND
1070
     0
1002
}
1002
{
1000
REACTOR
1002
}
1001
GENIUS_GENOBJ-NBEHI-BHB_13
1002
{
1000
OWNER
1000
GENBEHI
1002
}
1001
GENIUS_GENOENT_13
1002
{
1000
MYREF
1005
73F1
1002
}
1002
{
1000
GRP
1005
0
1002
}
1001
GENIUS_GENOLIS_13
1002
{
1000
ENT
1005
73ED
1005
73EC
1005
73EB
1005
73EA
1005
6E73
1005
6E74
1005
6D59
1005
6E75
1005
6DE3
1002
}
  0
LINE
  5
73F9
100
AcDbEntity
  8
MSL1_60_3F-3
100
AcDbLine
 10
-436.806981
 20
-57.567491
 30
0.0
 11
-436.806981
 21
-65.567491
 31
0.0
1001
GENIUS_GENBH_13
1002
{
1000
OE
1000
CON1
1002
}
1001
GENIUS_GENOREF_13
1005
73FE
  0
LINE
  5
73FA
100
AcDbEntity
  8
MSL1_60_3F-0
100
AcDbLine
 10
-436.806981
 20
-65.567491
 30
0.0
 11
-436.806981
 21
-67.567491
 31
0.0
1001
GENIUS_GENOREF_13
1005
73FE
  0
LINE
  5
73FB
100
AcDbEntity
  8
MSL1_60_3F-3
100
AcDbLine
 10
-437.806981
 20
-57.567491
 30
0.0
 11
-437.806981
 21
-65.567491
 31
0.0
1001
GENIUS_GENBH_13
1002
{
1000
OE
1000
CON1
1002
}
1001
GENIUS_GENOREF_13
1005
73FE
  0
LINE
  5
73FC
100
AcDbEntity
  8
MSL1_60_3F-0
100
AcDbLine
 10
-437.806981
 20
-65.567491
 30
0.0
 11
-437.806981
 21
-68.567491
 31
0.0
1001
GENIUS_GENOREF_13
1005
73FE
  0
POINT
  5
73FE
100
AcDbEntity
  8
0
 60
     1
100
AcDbPoint
 10
0.0
 20
0.0
 30
0.0
1001
GENIUS_GENBH_13
1002
{
1000
FGO
1005
73FD
1002
}
1001
GENIUS_GENODEF_13
1002
{
1000
HIER
1070
     1
1002
}
1002
{
1000
MANEDIT
1070
     0
1002
}
1002
{
1000
NOSEL
1070
     1
1002
}
1002
{
1000
BEHIND
1070
     0
1002
}
1002
{
1000
REACTOR
1002
}
1001
GENIUS_GENOBJ-NBEHI-BHB_13
1002
{
1000
OWNER
1000
GENBEHI
1002
}
1001
GENIUS_GENOENT_13
1002
{
1000
MYREF
1005
73FE
1002
}
1002
{
1000
GRP
1005
0
1002
}
1001
GENIUS_GENOLIS_13
1002
{
1000
ENT
1005
73FC
1005
73FB
1005
73FA
1005
73F9
1005
6D52
1005
6FCC
1005
6FC1
1005
6FC2
1005
6DE3
1002
}
  0
LINE
  5
73FF
100
AcDbEntity
  8
MSL1_60_3F-3
100
AcDbLine
 10
-375.806981
 20
-47.320268
 30
0.0
 11
-374.781981
 21
-47.320268
 31
0.0
1001
GENIUS_GENBH_13
1002
{
1000
OE
1000
CON1
1002
}
1001
GENIUS_GENOREF_13
1005
7404
  0
LINE
  5
7400
100
AcDbEntity
  8
MSL1_60_3F-3
100
AcDbLine
 10
-375.806981
 20
-51.073044
 30
0.0
 11
-374.781981
 21
-51.073044
 31
0.0
1001
GENIUS_GENBH_13
1002
{
1000
OE
1000
CON1
1002
}
1001
GENIUS_GENOREF_13
1005
7404
  0
LINE
  5
7401
100
AcDbEntity
  8
MSL1_60_3F-3
100
AcDbLine
 10
-375.806981
 20
-36.061937
 30
0.0
 11
-374.781981
 21
-36.061937
 31
0.0
1001
GENIUS_GENBH_13
1002
{
1000
OE
1000
CON1
1002
}
1001
GENIUS_GENOREF_13
1005
7404
  0
LINE
  5
7402
100
AcDbEntity
  8
MSL1_60_3F-3
100
AcDbLine
 10
-375.806981
 20
-39.814714
 30
0.0
 11
-374.781981
 21
-39.814714
 31
0.0
1001
GENIUS_GENBH_13
1002
{
1000
OE
1000
CON1
1002
}
1001
GENIUS_GENOREF_13
1005
7404
  0
POINT
  5
7403
100
AcDbEntity
  8
0
 60
     1
100
AcDbPoint
 10
0.0
 20
0.0
 30
0.0
1001
GENIUS_GENBH_13
1002
{
1000
BGO
1005
7404
1002
}
1002
{
1000
FLAGS
1070
   164
1002
}
1002
{
1000
MODIFY
1002
{
1000
I
1000
H
1002
}
1002
}
1001
GENIUS_GENODEF_13
1002
{
1000
HIER
1070
     1
1002
}
1002
{
1000
MANEDIT
1070
     0
1002
}
1002
{
1000
NOSEL
1070
     1
1002
}
1002
{
1000
BEHIND
1070
     0
1002
}
1002
{
1000
REACTOR
1002
}
1001
GENIUS_GENOBJ-NBEHI-BHF_13
1002
{
1000
OWNER
1000
GENBEHI
1002
}
1001
GENIUS_GENOENT_13
1002
{
1000
MYREF
1005
7403
1002
}
1002
{
1000
GRP
1005
0
1002
}
1001
GENIUS_GENOLIS_13
1002
{
1000
ENT
1005
6FF5
1005
6D54
1005
6DD0
1005
6FF6
1002
}
  0
POINT
  5
7404
100
AcDbEntity
  8
0
 60
     1
100
AcDbPoint
 10
0.0
 20
0.0
 30
0.0
1001
GENIUS_GENBH_13
1002
{
1000
FGO
1005
7403
1002
}
1001
GENIUS_GENODEF_13
1002
{
1000
HIER
1070
     1
1002
}
1002
{
1000
MANEDIT
1070
     0
1002
}
1002
{
1000
NOSEL
1070
     1
1002
}
1002
{
1000
BEHIND
1070
     0
1002
}
1002
{
1000
REACTOR
1002
}
1001
GENIUS_GENOBJ-NBEHI-BHB_13
1002
{
1000
OWNER
1000
GENBEHI
1002
}
1001
GENIUS_GENOENT_13
1002
{
1000
MYREF
1005
7404
1002
}
1002
{
1000
GRP
1005
0
1002
}
1001
GENIUS_GENOLIS_13
1002
{
1000
ENT
1005
7402
1005
7401
1005
7400
1005
73FF
1005
6FD5
1005
6FF3
1005
6FB5
1005
6FD6
1005
6FD8
1005
6FEE
1005
6FE7
1005
6FE9
1005
6FD4
1005
6FEF
1005
6FF0
1005
6FE8
1005
6FF1
1005
6FC3
1005
6FD7
1005
6D55
1005
6DE3
1002
}
  0
LINE
  5
7406
100
AcDbEntity
  8
MSL1_60_3F-3
100
AcDbLine
 10
-571.806981
 20
-83.320268
 30
0.0
 11
-572.831981
 21
-83.320268
 31
0.0
1001
GENIUS_GENBH_13
1002
{
1000
OE
1000
CON1
1002
}
1001
GENIUS_GENOREF_13
1005
740D
  0
LINE
  5
7407
100
AcDbEntity
  8
MSL1_60_3F-3
100
AcDbLine
 10
-571.806981
 20
-87.073044
 30
0.0
 11
-572.831981
 21
-87.073044
 31
0.0
1001
GENIUS_GENBH_13
1002
{
1000
OE
1000
CON1
1002
}
1001
GENIUS_GENOREF_13
1005
740D
  0
LINE
  5
7408
100
AcDbEntity
  8
MSL1_60_3F-3
100
AcDbLine
 10
-571.806981
 20
-72.061937
 30
0.0
 11
-572.831981
 21
-72.061937
 31
0.0
1001
GENIUS_GENBH_13
1002
{
1000
OE
1000
CON1
1002
}
1001
GENIUS_GENOREF_13
1005
740D
  0
LINE
  5
7409
100
AcDbEntity
  8
MSL1_60_3F-3
100
AcDbLine
 10
-571.806981
 20
-75.814714
 30
0.0
 11
-572.831981
 21
-75.814714
 31
0.0
1001
GENIUS_GENBH_13
1002
{
1000
OE
1000
CON1
1002
}
1001
GENIUS_GENOREF_13
1005
740D
  0
LINE
  5
740A
100
AcDbEntity
  8
MSL1_60_3F-0
100
AcDbLine
 10
-571.806981
 20
-46.617491
 30
0.0
 11
-569.806981
 21
-46.617491
 31
0.0
1001
GENIUS_GENOREF_13
1005
740D
  0
LINE
  5
740B
100
AcDbEntity
  8
MSL1_60_3F-3
100
AcDbLine
 10
-571.806981
 20
-42.517491
 30
0.0
 11
-573.806981
 21
-42.517491
 31
0.0
1001
GENIUS_GENBH_13
1002
{
1000
OE
1000
CON1
1002
}
1001
GENIUS_GENOREF_13
1005
740D
  0
POINT
  5
740C
100
AcDbEntity
  8
0
 60
     1
100
AcDbPoint
 10
0.0
 20
0.0
 30
0.0
1001
GENIUS_GENBH_13
1002
{
1000
BGO
1005
740D
1002
}
1002
{
1000
FLAGS
1070
   164
1002
}
1002
{
1000
MODIFY
1002
{
1000
I
1000
H
1002
}
1002
}
1001
GENIUS_GENODEF_13
1002
{
1000
HIER
1070
     1
1002
}
1002
{
1000
MANEDIT
1070
     0
1002
}
1002
{
1000
NOSEL
1070
     1
1002
}
1002
{
1000
BEHIND
1070
     0
1002
}
1002
{
1000
REACTOR
1002
}
1001
GENIUS_GENOBJ-NBEHI-BHF_13
1002
{
1000
OWNER
1000
GENBEHI
1002
}
1001
GENIUS_GENOENT_13
1002
{
1000
MYREF
1005
740C
1002
}
1002
{
1000
GRP
1005
0
1002
}
1001
GENIUS_GENOLIS_13
1002
{
1000
ENT
1005
6D5D
1005
6E93
1005
6D77
1005
6D67
1002
}
  0
POINT
  5
740D
100
AcDbEntity
  8
0
 60
     1
100
AcDbPoint
 10
0.0
 20
0.0
 30
0.0
1001
GENIUS_GENBH_13
1002
{
1000
FGO
1005
740C
1002
}
1001
GENIUS_GENODEF_13
1002
{
1000
HIER
1070
     1
1002
}
1002
{
1000
MANEDIT
1070
     0
1002
}
1002
{
1000
NOSEL
1070
     1
1002
}
1002
{
1000
BEHIND
1070
     0
1002
}
1002
{
1000
REACTOR
1002
}
1001
GENIUS_GENOBJ-NBEHI-BHB_13
1002
{
1000
OWNER
1000
GENBEHI
1002
}
1001
GENIUS_GENOENT_13
1002
{
1000
MYREF
1005
740D
1002
}
1002
{
1000
GRP
1005
0
1002
}
1001
GENIUS_GENOLIS_13
1002
{
1000
ENT
1005
740B
1005
740A
1005
7409
1005
7408
1005
7407
1005
7406
1005
6E7E
1005
6E84
1005
6E87
1005
6E8A
1005
6E85
1005
6E8F
1005
6E7D
1005
6E90
1005
6E86
1005
6D82
1005
6D89
1005
6D90
1005
6D68
1005
6E6D
1005
6D76
1005
6D83
1005
6D74
1005
6D91
1005
6D80
1005
6D7F
1005
6D5F
1005
6D71
1005
6D8B
1005
6D8D
1005
6D8E
1005
6D8F
1005
6DE3
1002
}
  0
LINE
  5
741A
100
AcDbEntity
  8
MSL1_60_3F-0
100
AcDbLine
 10
-375.806981
 20
-87.386699
 30
0.0
 11
-373.806981
 21
-87.386699
 31
0.0
  0
LINE
  5
741B
100
AcDbEntity
  8
MSL1_60_3F-0
100
AcDbLine
 10
-375.806981
 20
-35.748284
 30
0.0
 11
-373.806981
 21
-35.748284
 31
0.0
  0
LINE
  5
741C
100
AcDbEntity
  8
MSL1_60_3F-0
100
AcDbLine
 10
-373.806981
 20
-87.386699
 30
0.0
 11
-373.806981
 21
-91.567491
 31
0.0
  0
LINE
  5
741D
100
AcDbEntity
  8
MSL1_60_3F-0
100
AcDbLine
 10
-373.806981
 20
-35.748284
 30
0.0
 11
-373.806981
 21
-31.567491
 31
0.0
  0
LINE
  5
741E
100
AcDbEntity
  8
MSL1_60_3F-0
100
AcDbLine
 10
-375.806981
 20
-67.126888
 30
0.0
 11
-363.806981
 21
-67.126888
 31
0.0
  0
LINE
  5
741F
100
AcDbEntity
  8
MSL1_60_3F-0
100
AcDbLine
 10
-375.806981
 20
-56.008095
 30
0.0
 11
-363.806981
 21
-56.008095
 31
0.0
  0
LINE
  5
7420
100
AcDbEntity
  8
MSL1_60_3F-0
100
AcDbLine
 10
-583.806981
 20
-67.126888
 30
0.0
 11
-571.806981
 21
-67.126888
 31
0.0
  0
LINE
  5
7421
100
AcDbEntity
  8
MSL1_60_3F-0
100
AcDbLine
 10
-583.806981
 20
-56.008095
 30
0.0
 11
-571.806981
 21
-56.008095
 31
0.0
  0
LINE
  5
7422
100
AcDbEntity
  8
MSL1_60_3F-0
100
AcDbLine
 10
-571.806981
 20
-87.386699
 30
0.0
 11
-573.806981
 21
-87.386699
 31
0.0
  0
LINE
  5
7423
100
AcDbEntity
  8
MSL1_60_3F-0
100
AcDbLine
 10
-571.806981
 20
-35.748284
 30
0.0
 11
-573.806981
 21
-35.748284
 31
0.0
  0
LINE
  5
7424
100
AcDbEntity
  8
MSL1_60_3F-0
100
AcDbLine
 10
-573.806981
 20
-87.386699
 30
0.0
 11
-573.806981
 21
-91.567491
 31
0.0
  0
LINE
  5
7425
100
AcDbEntity
  8
MSL1_60_3F-0
100
AcDbLine
 10
-573.806981
 20
-35.748284
 30
0.0
 11
-573.806981
 21
-31.567491
 31
0.0
  0
LINE
  5
7426
100
AcDbEntity
  8
MSL1_60_3F-0
100
AcDbLine
 10
-715.353814
 20
54.418625
 30
0.0
 11
-690.913211
 21
74.926727
 31
0.0
1001
ACAD
1000
ASC_BOUNDS
1002
{
1070
    19
1002
}
  0
LINE
  5
7428
100
AcDbEntity
  8
MSL1_60_3F-0
100
AcDbLine
 10
-655.353814
 20
54.418625
 30
0.0
 11
-679.794418
 21
74.926727
 31
0.0
1001
ACAD
1000
ASC_BOUNDS
1002
{
1070
    19
1002
}
  0
LINE
  5
743A
100
AcDbEntity
  8
MSL1_60_3F-7A
100
AcDbLine
 10
-692.353814
 20
63.926727
 30
0.0
 11
-678.353814
 21
63.926727
 31
0.0
1001
GENIUS_GENODEF_13
1002
{
1000
HIER
1070
     0
1002
}
1002
{
1000
MANEDIT
1070
     0
1002
}
1002
{
1000
NOSEL
1070
     0
1002
}
1002
{
1000
BEHIND
1070
     0
1002
}
1002
{
1000
REACTOR
1002
}
1001
GENIUS_GENOBJ-N-CEN_13
1002
{
1000
OWNER
1000
GEN
1002
}
  0
LINE
  5
7440
100
AcDbEntity
  8
MSL1_60_3F-7
100
AcDbLine
 10
-685.353814
 20
53.895378
 30
0.0
 11
-685.353814
 21
9.926727
 31
0.0
  0
LINE
  5
7452
100
AcDbEntity
  8
MSL1_60_3F-0
100
AcDbLine
 10
-525.306981
 20
175.705171
 30
0.0
 11
-529.306981
 21
175.705171
 31
0.0
  0
LINE
  5
7453
100
AcDbEntity
  8
MSL1_60_3F-0
100
AcDbLine
 10
-530.806981
 20
174.205171
 30
0.0
 11
-530.806981
 21
171.705171
 31
0.0
  0
ARC
  5
7454
100
AcDbEntity
  8
MSL1_60_3F-0
100
AcDbCircle
 10
-529.306981
 20
174.205171
 30
0.0
 40
1.5
100
AcDbArc
 50
90.000001
 51
180.0
  0
ARC
  5
7455
100
AcDbEntity
  8
MSL1_60_3F-0
100
AcDbCircle
 10
-533.806981
 20
-94.067491
 30
0.0
 40
1.5
100
AcDbArc
 50
270.000001
 51
0.0
  0
LINE
  5
7456
100
AcDbEntity
  8
MSL1_60_3F-0
100
AcDbLine
 10
-543.306981
 20
-91.567491
 30
0.0
 11
-543.306981
 21
-94.067491
 31
0.0
  0
LINE
  5
7457
100
AcDbEntity
  8
MSL1_60_3F-7
100
AcDbLine
 10
-537.806981
 20
-89.61554
 30
0.0
 11
-537.806981
 21
-97.621868
 31
0.0
  0
ARC
  5
7458
100
AcDbEntity
  8
MSL1_60_3F-0
100
AcDbCircle
 10
-541.806981
 20
-94.067491
 30
0.0
 40
1.5
100
AcDbArc
 50
179.999998
 51
270.000001
  0
LINE
  5
7459
100
AcDbEntity
  8
MSL1_60_3F-0
100
AcDbLine
 10
-541.806981
 20
-95.567491
 30
0.0
 11
-533.806981
 21
-95.567491
 31
0.0
  0
LINE
  5
745A
100
AcDbEntity
  8
MSL1_60_3F-0
100
AcDbLine
 10
-519.806981
 20
-94.067491
 30
0.0
 11
-519.806981
 21
-91.567491
 31
0.0
  0
LINE
  5
745B
100
AcDbEntity
  8
MSL1_60_3F-0
100
AcDbLine
 10
-530.806981
 20
-94.067491
 30
0.0
 11
-530.806981
 21
-91.567491
 31
0.0
  0
LINE
  5
745C
100
AcDbEntity
  8
MSL1_60_3F-7
100
AcDbLine
 10
-525.306981
 20
-89.61554
 30
0.0
 11
-525.306981
 21
-97.778855
 31
0.0
  0
LINE
  5
745D
100
AcDbEntity
  8
MSL1_60_3F-0
100
AcDbLine
 10
-532.306981
 20
-94.067491
 30
0.0
 11
-532.306981
 21
-91.567491
 31
0.0
  0
LINE
  5
745E
100
AcDbEntity
  8
MSL1_60_3F-0
100
AcDbLine
 10
-525.306981
 20
-95.567491
 30
0.0
 11
-521.306981
 21
-95.567491
 31
0.0
  0
ARC
  5
745F
100
AcDbEntity
  8
MSL1_60_3F-0
100
AcDbCircle
 10
-529.306981
 20
-94.067491
 30
0.0
 40
1.5
100
AcDbArc
 50
180.0
 51
269.999999
  0
LINE
  5
7460
100
AcDbEntity
  8
MSL1_60_3F-0
100
AcDbLine
 10
-525.306981
 20
-95.567491
 30
0.0
 11
-529.306981
 21
-95.567491
 31
0.0
  0
ARC
  5
7461
100
AcDbEntity
  8
MSL1_60_3F-0
100
AcDbCircle
 10
-521.306981
 20
-94.067491
 30
0.0
 40
1.5
100
AcDbArc
 50
270.000001
 51
0.0
  0
ARC
  5
7761
100
AcDbEntity
  8
MSL1_60_3F-3
100
AcDbCircle
 10
-483.806981
 20
-51.567491
 30
0.0
 40
2.0
100
AcDbArc
 50
172.405357
 51
104.931417
  0
LINE
  5
7762
100
AcDbEntity
  8
MSL1_60_3F-7
100
AcDbLine
 10
-483.806981
 20
-54.567491
 30
0.0
 11
-483.806981
 21
-48.567491
 31
0.0
  0
LINE
  5
7763
100
AcDbEntity
  8
MSL1_60_3F-7
100
AcDbLine
 10
-493.806981
 20
-51.567491
 30
0.0
 11
-493.806981
 21
-54.69022
 31
0.0
  0
CIRCLE
  5
7764
100
AcDbEntity
  8
MSL1_60_3F-3
100
AcDbCircle
 10
-493.806981
 20
-51.567491
 30
0.0
 40
2.0
  0
ARC
  5
7765
100
AcDbEntity
  8
MSL1_60_3F-3
100
AcDbCircle
 10
-483.806981
 20
-71.567491
 30
0.0
 40
2.0
100
AcDbArc
 50
172.405357
 51
104.931417
  0
LINE
  5
7766
100
AcDbEntity
  8
MSL1_60_3F-7
100
AcDbLine
 10
-483.806981
 20
-74.567491
 30
0.0
 11
-483.806981
 21
-68.567491
 31
0.0
  0
LINE
  5
7767
100
AcDbEntity
  8
MSL1_60_3F-7
100
AcDbLine
 10
-493.806981
 20
-71.567491
 30
0.0
 11
-493.806981
 21
-74.69022
 31
0.0
  0
CIRCLE
  5
7768
100
AcDbEntity
  8
MSL1_60_3F-3
100
AcDbCircle
 10
-493.806981
 20
-71.567491
 30
0.0
 40
2.0
  0
LINE
  5
7769
100
AcDbEntity
  8
MSL1_60_3F-7
100
AcDbLine
 10
-486.806981
 20
-71.567491
 30
0.0
 11
-480.806981
 21
-71.567491
 31
0.0
  0
CIRCLE
  5
776A
100
AcDbEntity
  8
MSL1_60_3F-3
100
AcDbCircle
 10
-483.806981
 20
-71.567491
 30
0.0
 40
1.621
  0
LINE
  5
776B
100
AcDbEntity
  8
MSL1_60_3F-7
100
AcDbLine
 10
-493.806981
 20
-54.69022
 30
0.0
 11
-493.806981
 21
-68.444763
 31
0.0
  0
LINE
  5
776C
100
AcDbEntity
  8
MSL1_60_3F-7
100
AcDbLine
 10
-493.806981
 20
-71.567491
 30
0.0
 11
-496.929709
 21
-71.567491
 31
0.0
  0
LINE
  5
776D
100
AcDbEntity
  8
MSL1_60_3F-7
100
AcDbLine
 10
-493.806981
 20
-71.567491
 30
0.0
 11
-493.806981
 21
-68.444763
 31
0.0
  0
LINE
  5
776E
100
AcDbEntity
  8
MSL1_60_3F-7
100
AcDbLine
 10
-493.806981
 20
-71.567491
 30
0.0
 11
-490.684253
 21
-71.567491
 31
0.0
  0
LINE
  5
776F
100
AcDbEntity
  8
MSL1_60_3F-7
100
AcDbLine
 10
-486.806981
 20
-51.567491
 30
0.0
 11
-480.806981
 21
-51.567491
 31
0.0
  0
CIRCLE
  5
7770
100
AcDbEntity
  8
MSL1_60_3F-3
100
AcDbCircle
 10
-483.806981
 20
-51.567491
 30
0.0
 40
1.621
  0
LINE
  5
7771
100
AcDbEntity
  8
MSL1_60_3F-7
100
AcDbLine
 10
-493.806981
 20
-51.567491
 30
0.0
 11
-496.929709
 21
-51.567491
 31
0.0
  0
LINE
  5
7772
100
AcDbEntity
  8
MSL1_60_3F-7
100
AcDbLine
 10
-493.806981
 20
-51.567491
 30
0.0
 11
-493.806981
 21
-48.444763
 31
0.0
  0
LINE
  5
7773
100
AcDbEntity
  8
MSL1_60_3F-7
100
AcDbLine
 10
-493.806981
 20
-51.567491
 30
0.0
 11
-490.684253
 21
-51.567491
 31
0.0
  0
LINE
  5
7774
100
AcDbEntity
  8
MSL1_60_3F-7
100
AcDbLine
 10
-493.806981
 20
33.803999
 30
0.0
 11
-493.806981
 21
20.049455
 31
0.0
  0
LINE
  5
7775
100
AcDbEntity
  8
MSL1_60_3F-7
100
AcDbLine
 10
-486.806981
 20
16.926727
 30
0.0
 11
-480.806981
 21
16.926727
 31
0.0
  0
ARC
  5
7776
100
AcDbEntity
  8
MSL1_60_3F-4
100
AcDbCircle
 10
-483.806981
 20
16.926727
 30
0.0
 40
2.0
100
AcDbArc
 50
172.405357
 51
104.931417
  0
CIRCLE
  5
7777
100
AcDbEntity
  8
MSL1_60_3F-0
100
AcDbCircle
 10
-483.806981
 20
16.926727
 30
0.0
 40
1.621
  0
LINE
  5
7778
100
AcDbEntity
  8
MSL1_60_3F-7
100
AcDbLine
 10
-483.806981
 20
13.926727
 30
0.0
 11
-483.806981
 21
19.926727
 31
0.0
  0
LINE
  5
7779
100
AcDbEntity
  8
MSL1_60_3F-7
100
AcDbLine
 10
-493.806981
 20
16.926727
 30
0.0
 11
-493.806981
 21
13.803999
 31
0.0
  0
CIRCLE
  5
777A
100
AcDbEntity
  8
MSL1_60_3F-0
100
AcDbCircle
 10
-493.806981
 20
16.926727
 30
0.0
 40
2.0
  0
LINE
  5
777B
100
AcDbEntity
  8
MSL1_60_3F-7
100
AcDbLine
 10
-493.806981
 20
16.926727
 30
0.0
 11
-496.929709
 21
16.926727
 31
0.0
  0
LINE
  5
777C
100
AcDbEntity
  8
MSL1_60_3F-7
100
AcDbLine
 10
-493.806981
 20
16.926727
 30
0.0
 11
-493.806981
 21
20.049455
 31
0.0
  0
LINE
  5
777D
100
AcDbEntity
  8
MSL1_60_3F-7
100
AcDbLine
 10
-493.806981
 20
16.926727
 30
0.0
 11
-490.684253
 21
16.926727
 31
0.0
  0
LINE
  5
777E
100
AcDbEntity
  8
MSL1_60_3F-7
100
AcDbLine
 10
-486.806981
 20
36.926727
 30
0.0
 11
-480.806981
 21
36.926727
 31
0.0
  0
ARC
  5
777F
100
AcDbEntity
  8
MSL1_60_3F-4
100
AcDbCircle
 10
-483.806981
 20
36.926727
 30
0.0
 40
2.0
100
AcDbArc
 50
172.405357
 51
104.931417
  0
CIRCLE
  5
7780
100
AcDbEntity
  8
MSL1_60_3F-0
100
AcDbCircle
 10
-483.806981
 20
36.926727
 30
0.0
 40
1.621
  0
LINE
  5
7781
100
AcDbEntity
  8
MSL1_60_3F-7
100
AcDbLine
 10
-483.806981
 20
33.926727
 30
0.0
 11
-483.806981
 21
39.926727
 31
0.0
  0
CIRCLE
  5
7782
100
AcDbEntity
  8
MSL1_60_3F-0
100
AcDbCircle
 10
-493.806981
 20
36.926727
 30
0.0
 40
2.0
  0
LINE
  5
7783
100
AcDbEntity
  8
MSL1_60_3F-7
100
AcDbLine
 10
-493.806981
 20
36.926727
 30
0.0
 11
-493.806981
 21
33.803999
 31
0.0
  0
LINE
  5
7784
100
AcDbEntity
  8
MSL1_60_3F-7
100
AcDbLine
 10
-493.806981
 20
36.926727
 30
0.0
 11
-496.929709
 21
36.926727
 31
0.0
  0
LINE
  5
7785
100
AcDbEntity
  8
MSL1_60_3F-7
100
AcDbLine
 10
-493.806981
 20
36.926727
 30
0.0
 11
-493.806981
 21
40.049455
 31
0.0
  0
LINE
  5
7786
100
AcDbEntity
  8
MSL1_60_3F-7
100
AcDbLine
 10
-493.806981
 20
36.926727
 30
0.0
 11
-490.684253
 21
36.926727
 31
0.0
  0
LINE
  5
7787
100
AcDbEntity
  8
MSL1_60_3F-7
100
AcDbLine
 10
-493.806981
 20
148.582443
 30
0.0
 11
-493.806981
 21
134.827899
 31
0.0
  0
LINE
  5
7788
100
AcDbEntity
  8
MSL1_60_3F-7
100
AcDbLine
 10
-483.806981
 20
126.078504
 30
0.0
 11
-483.806981
 21
110.398504
 31
0.0
  0
LINE
  5
7789
100
AcDbEntity
  8
MSL1_60_3F-7
100
AcDbLine
 10
-493.806981
 20
110.494514
 30
0.0
 11
-493.806981
 21
122.400764
 31
0.0
  0
ARC
  5
778A
100
AcDbEntity
  8
MSL1_60_3F-4
100
AcDbCircle
 10
-483.806981
 20
131.705171
 30
0.0
 40
2.0
100
AcDbArc
 50
172.405357
 51
104.931417
  0
CIRCLE
  5
778B
100
AcDbEntity
  8
MSL1_60_3F-0
100
AcDbCircle
 10
-483.806981
 20
131.705171
 30
0.0
 40
1.621
  0
LINE
  5
778C
100
AcDbEntity
  8
MSL1_60_3F-7
100
AcDbLine
 10
-486.806981
 20
131.705171
 30
0.0
 11
-480.806981
 21
131.705171
 31
0.0
  0
CIRCLE
  5
778D
100
AcDbEntity
  8
MSL1_60_3F-0
100
AcDbCircle
 10
-493.806981
 20
131.705171
 30
0.0
 40
2.0
  0
LINE
  5
778E
100
AcDbEntity
  8
MSL1_60_3F-7
100
AcDbLine
 10
-483.806981
 20
128.705171
 30
0.0
 11
-483.806981
 21
134.705171
 31
0.0
  0
LINE
  5
778F
100
AcDbEntity
  8
MSL1_60_3F-7
100
AcDbLine
 10
-493.806981
 20
131.705171
 30
0.0
 11
-493.806981
 21
134.827899
 31
0.0
  0
LINE
  5
7790
100
AcDbEntity
  8
MSL1_60_3F-7
100
AcDbLine
 10
-493.806981
 20
131.705171
 30
0.0
 11
-493.806981
 21
128.582443
 31
0.0
  0
LINE
  5
7791
100
AcDbEntity
  8
MSL1_60_3F-7
100
AcDbLine
 10
-493.806981
 20
131.705171
 30
0.0
 11
-490.684253
 21
131.705171
 31
0.0
  0
LINE
  5
7792
100
AcDbEntity
  8
MSL1_60_3F-7
100
AcDbLine
 10
-483.806981
 20
157.331838
 30
0.0
 11
-483.806981
 21
173.011838
 31
0.0
  0
LINE
  5
7793
100
AcDbEntity
  8
MSL1_60_3F-7
100
AcDbLine
 10
-493.806981
 20
172.915828
 30
0.0
 11
-493.806981
 21
161.009578
 31
0.0
  0
LINE
  5
7794
100
AcDbEntity
  8
MSL1_60_3F-7
100
AcDbLine
 10
-486.806981
 20
151.705171
 30
0.0
 11
-480.806981
 21
151.705171
 31
0.0
  0
CIRCLE
  5
7795
100
AcDbEntity
  8
MSL1_60_3F-0
100
AcDbCircle
 10
-483.806981
 20
151.705171
 30
0.0
 40
1.621
  0
ARC
  5
7796
100
AcDbEntity
  8
MSL1_60_3F-4
100
AcDbCircle
 10
-483.806981
 20
151.705171
 30
0.0
 40
2.0
100
AcDbArc
 50
172.405357
 51
104.931417
  0
CIRCLE
  5
7797
100
AcDbEntity
  8
MSL1_60_3F-0
100
AcDbCircle
 10
-493.806981
 20
151.705171
 30
0.0
 40
2.0
  0
LINE
  5
7798
100
AcDbEntity
  8
MSL1_60_3F-7
100
AcDbLine
 10
-483.806981
 20
148.705171
 30
0.0
 11
-483.806981
 21
154.705171
 31
0.0
  0
LINE
  5
7799
100
AcDbEntity
  8
MSL1_60_3F-7
100
AcDbLine
 10
-493.806981
 20
151.705171
 30
0.0
 11
-493.806981
 21
148.582443
 31
0.0
  0
LINE
  5
779A
100
AcDbEntity
  8
MSL1_60_3F-7
100
AcDbLine
 10
-493.806981
 20
151.705171
 30
0.0
 11
-493.806981
 21
154.827899
 31
0.0
  0
LINE
  5
779B
100
AcDbEntity
  8
MSL1_60_3F-7
100
AcDbLine
 10
-493.806981
 20
151.705171
 30
0.0
 11
-490.684253
 21
151.705171
 31
0.0
  0
LINE
  5
779C
100
AcDbEntity
  8
MSL1_60_3F-7
100
AcDbLine
 10
-483.806981
 20
173.011838
 30
0.0
 11
-483.806981
 21
171.705171
 31
0.0
  0
LINE
  5
779D
100
AcDbEntity
  8
MSL1_60_3F-7
100
AcDbLine
 10
-493.806981
 20
131.705171
 30
0.0
 11
-496.929709
 21
131.705171
 31
0.0
  0
LINE
  5
779E
100
AcDbEntity
  8
MSL1_60_3F-7
100
AcDbLine
 10
-493.806981
 20
151.705171
 30
0.0
 11
-496.929709
 21
151.705171
 31
0.0
  0
VIEWPORT
  5
22
100
AcDbEntity
 67
     1
  8
0
100
AcDbViewport
 10
261.517699
 20
148.5
 30
0.0
 40
523.035398
 41
297.0
 68
    -1
 69
     1
1001
ACAD
1000
MVIEW
1002
{
1070
    16
1010
0.0
1020
0.0
1030
0.0
1010
0.0
1020
0.0
1030
1.0
1040
0.0
1040
297.0
1040
261.517699
1040
148.5
1040
50.0
1040
0.0
1040
0.0
1070
     0
1070
   100
1070
     1
1070
     1
1070
     0
1070
     0
1070
     0
1070
     0
1040
0.0
1040
0.0
1040
0.0
1040
1.0
1040
1.0
1040
10.0
1040
10.0
1070
     0
1002
{
1002
}
1002
}
  0
ENDSEC
  0
SECTION
  2
OBJECTS
  0
DICTIONARY
  5
C
100
AcDbDictionary
  3
ACAD_GROUP
350
D
  3
ACAD_MLINESTYLE
350
E
  0
DICTIONARY
  5
D
102
{ACAD_REACTORS
330
C
102
}
100
AcDbDictionary
  0
DICTIONARY
  5
E
102
{ACAD_REACTORS
330
C
102
}
100
AcDbDictionary
  3
STANDARD
350
13
  0
MLINESTYLE
  5
13
102
{ACAD_REACTORS
330
E
102
}
100
AcDbMlineStyle
  2
STANDARD
 70
     0
  3

 62
     0
 51
90.0
 52
90.0
 71
     2
 49
0.5
 62
   256
  6
BYLAYER
 49
-0.5
 62
   256
  6
BYLAYER
  0
ENDSEC
  0
EOF
