  0
SECTION
  2
HEADER
  9
$ACADVER
  1
AC1015
  9
$ACADMAINTVER
 70
    20
  9
$DWGCODEPAGE
  3
ANSI_1252
  9
$INSBASE
 10
0.0
 20
0.0
 30
0.0
  9
$EXTMIN
 10
48.34058349999998
 20
111.4803951581343
 30
-0.00000001
  9
$EXTMAX
 10
353.600256
 20
376.0253955
 30
0.00000001
  9
$LIMMIN
 10
0.0
 20
0.0
  9
$LIMMAX
 10
410.0
 20
287.0
  9
$ORTHOMODE
 70
     0
  9
$REGENMODE
 70
     1
  9
$FILLMODE
 70
     1
  9
$QTEXTMODE
 70
     0
  9
$MIRRTEXT
 70
     1
  9
$LTSCALE
 40
1.0
  9
$ATTMODE
 70
     1
  9
$TEXTSIZE
 40
3.5
  9
$TRACEWID
 40
0.05
  9
$TEXTSTYLE
  7
STANDARD
  9
$CLAYER
  8
MSR3-0
  9
$CELTYPE
  6
BYLAYER
  9
$CECOLOR
 62
   256
  9
$CELTSCALE
 40
1.0
  9
$DISPSILH
 70
     0
  9
$DIMSCALE
 40
1.0
  9
$DIMASZ
 40
2.5
  9
$DIMEXO
 40
1.0
  9
$DIMDLI
 40
7.0
  9
$DIMRND
 40
0.0
  9
$DIMDLE
 40
0.0
  9
$DIMEXE
 40
1.0
  9
$DIMTP
 40
0.1
  9
$DIMTM
 40
0.1
  9
$DIMTXT
 40
3.5
  9
$DIMCEN
 40
0.0
  9
$DIMTSZ
 40
0.0
  9
$DIMTOL
 70
     0
  9
$DIMLIM
 70
     0
  9
$DIMTIH
 70
     0
  9
$DIMTOH
 70
     0
  9
$DIMSE1
 70
     0
  9
$DIMSE2
 70
     0
  9
$DIMTAD
 70
     1
  9
$DIMZIN
 70
     0
  9
$DIMBLK
  1

  9
$DIMASO
 70
     1
  9
$DIMSHO
 70
     1
  9
$DIMPOST
  1
<>
  9
$DIMAPOST
  1

  9
$DIMALT
 70
     0
  9
$DIMALTD
 70
     2
  9
$DIMALTF
 40
0.0393701
  9
$DIMLFAC
 40
1.0
  9
$DIMTOFL
 70
     1
  9
$DIMTVP
 40
0.0
  9
$DIMTIX
 70
     0
  9
$DIMSOXD
 70
     0
  9
$DIMSAH
 70
     0
  9
$DIMBLK1
  1

  9
$DIMBLK2
  1

  9
$DIMSTYLE
  2
GEN-ISO
  9
$DIMCLRD
 70
   256
  9
$DIMCLRE
 70
   256
  9
$DIMCLRT
 70
     2
  9
$DIMTFAC
 40
0.71
  9
$DIMGAP
 40
0.6
  9
$DIMJUST
 70
     0
  9
$DIMSD1
 70
     0
  9
$DIMSD2
 70
     0
  9
$DIMTOLJ
 70
     0
  9
$DIMTZIN
 70
     0
  9
$DIMALTZ
 70
     0
  9
$DIMALTTZ
 70
     0
  9
$DIMUPT
 70
     0
  9
$DIMDEC
 70
     2
  9
$DIMTDEC
 70
     3
  9
$DIMALTU
 70
     2
  9
$DIMALTTD
 70
     4
  9
$DIMTXSTY
  7
STANDARD
  9
$DIMAUNIT
 70
     0
  9
$DIMADEC
 70
     0
  9
$DIMALTRND
 40
0.0
  9
$DIMAZIN
 70
     0
  9
$DIMDSEP
 70
    46
  9
$DIMATFIT
 70
     3
  9
$DIMFRAC
 70
     0
  9
$DIMLDRBLK
  1

  9
$DIMLUNIT
 70
     2
  9
$DIMLWD
 70
    -2
  9
$DIMLWE
 70
    -2
  9
$DIMTMOVE
 70
     0
  9
$LUNITS
 70
     2
  9
$LUPREC
 70
     2
  9
$SKETCHINC
 40
0.1
  9
$FILLETRAD
 40
12.5
  9
$AUNITS
 70
     0
  9
$AUPREC
 70
     0
  9
$MENU
  1
acad
  9
$ELEVATION
 40
0.0
  9
$PELEVATION
 40
0.0
  9
$THICKNESS
 40
0.0
  9
$LIMCHECK
 70
     0
  9
$CHAMFERA
 40
12.5
  9
$CHAMFERB
 40
12.5
  9
$CHAMFERC
 40
0.0
  9
$CHAMFERD
 40
0.0
  9
$SKPOLY
 70
     0
  9
$TDCREATE
 40
2450847.321136365
  9
$TDUCREATE
 40
2450847.237803033
  9
$TDUPDATE
 40
2456226.382436678
  9
$TDUUPDATE
 40
2456226.299103345
  9
$TDINDWG
 40
0.0176765741
  9
$TDUSRTIMER
 40
0.0176765741
  9
$USRTIMER
 70
     1
  9
$ANGBASE
 50
0.0
  9
$ANGDIR
 70
     0
  9
$PDMODE
 70
     0
  9
$PDSIZE
 40
18.27202593576947
  9
$PLINEWID
 40
0.0
  9
$SPLFRAME
 70
     0
  9
$SPLINETYPE
 70
     6
  9
$SPLINESEGS
 70
     8
  9
$HANDSEED
  5
EC9
  9
$SURFTAB1
 70
     6
  9
$SURFTAB2
 70
     6
  9
$SURFTYPE
 70
     6
  9
$SURFU
 70
     6
  9
$SURFV
 70
     6
  9
$UCSBASE
  2

  9
$UCSNAME
  2

  9
$UCSORG
 10
0.0
 20
0.0
 30
0.0
  9
$UCSXDIR
 10
1.0
 20
0.0
 30
0.0
  9
$UCSYDIR
 10
0.0
 20
1.0
 30
0.0
  9
$UCSORTHOREF
  2

  9
$UCSORTHOVIEW
 70
     0
  9
$UCSORGTOP
 10
0.0
 20
0.0
 30
0.0
  9
$UCSORGBOTTOM
 10
0.0
 20
0.0
 30
0.0
  9
$UCSORGLEFT
 10
0.0
 20
0.0
 30
0.0
  9
$UCSORGRIGHT
 10
0.0
 20
0.0
 30
0.0
  9
$UCSORGFRONT
 10
0.0
 20
0.0
 30
0.0
  9
$UCSORGBACK
 10
0.0
 20
0.0
 30
0.0
  9
$PUCSBASE
  2

  9
$PUCSNAME
  2

  9
$PUCSORG
 10
0.0
 20
0.0
 30
0.0
  9
$PUCSXDIR
 10
1.0
 20
0.0
 30
0.0
  9
$PUCSYDIR
 10
0.0
 20
1.0
 30
0.0
  9
$PUCSORTHOREF
  2

  9
$PUCSORTHOVIEW
 70
     0
  9
$PUCSORGTOP
 10
0.0
 20
0.0
 30
0.0
  9
$PUCSORGBOTTOM
 10
0.0
 20
0.0
 30
0.0
  9
$PUCSORGLEFT
 10
0.0
 20
0.0
 30
0.0
  9
$PUCSORGRIGHT
 10
0.0
 20
0.0
 30
0.0
  9
$PUCSORGFRONT
 10
0.0
 20
0.0
 30
0.0
  9
$PUCSORGBACK
 10
0.0
 20
0.0
 30
0.0
  9
$USERI1
 70
     0
  9
$USERI2
 70
     0
  9
$USERI3
 70
     0
  9
$USERI4
 70
     0
  9
$USERI5
 70
     0
  9
$USERR1
 40
0.0
  9
$USERR2
 40
0.0
  9
$USERR3
 40
0.0
  9
$USERR4
 40
0.0
  9
$USERR5
 40
0.0
  9
$WORLDVIEW
 70
     1
  9
$SHADEDGE
 70
     3
  9
$SHADEDIF
 70
    70
  9
$TILEMODE
 70
     1
  9
$MAXACTVP
 70
    16
  9
$PINSBASE
 10
0.0
 20
0.0
 30
0.0
  9
$PLIMCHECK
 70
     0
  9
$PEXTMIN
 10
1.000000000000000E+20
 20
1.000000000000000E+20
 30
1.000000000000000E+20
  9
$PEXTMAX
 10
-1.000000000000000E+20
 20
-1.000000000000000E+20
 30
-1.000000000000000E+20
  9
$PLIMMIN
 10
0.0
 20
0.0
  9
$PLIMMAX
 10
12.0
 20
9.0
  9
$UNITMODE
 70
     0
  9
$VISRETAIN
 70
     0
  9
$PLINEGEN
 70
     0
  9
$PSLTSCALE
 70
     1
  9
$TREEDEPTH
 70
  3020
  9
$CMLSTYLE
  2
STANDARD
  9
$CMLJUST
 70
     0
  9
$CMLSCALE
 40
1.0
  9
$PROXYGRAPHICS
 70
     1
  9
$MEASUREMENT
 70
     1
  9
$CELWEIGHT
370
    -1
  9
$ENDCAPS
280
     0
  9
$JOINSTYLE
280
     0
  9
$LWDISPLAY
290
     0
  9
$INSUNITS
 70
     4
  9
$HYPERLINKBASE
  1

  9
$STYLESHEET
  1

  9
$XEDIT
290
     1
  9
$CEPSNTYPE
380
     0
  9
$PSTYLEMODE
290
     1
  9
$FINGERPRINTGUID
  2
{8BBD98F4-E68A-4FB4-9A16-A668234B7681}
  9
$VERSIONGUID
  2
{E4707367-6F02-4CDB-8D97-DA1014D741C9}
  9
$EXTNAMES
290
     1
  9
$PSVPSCALE
 40
0.0
  9
$OLESTARTUP
290
     0
  0
ENDSEC
  0
SECTION
  2
CLASSES
  0
CLASS
  1
ACDBDICTIONARYWDFLT
  2
AcDbDictionaryWithDefault
  3
ObjectDBX Classes
 90
        0
280
     0
281
     0
  0
CLASS
  1
MATERIAL
  2
AcDbMaterial
  3
ObjectDBX Classes
 90
     1153
280
     0
281
     0
  0
CLASS
  1
VISUALSTYLE
  2
AcDbVisualStyle
  3
ObjectDBX Classes
 90
     4095
280
     0
281
     0
  0
CLASS
  1
TABLESTYLE
  2
AcDbTableStyle
  3
ObjectDBX Classes
 90
     4095
280
     0
281
     0
  0
CLASS
  1
SCALE
  2
AcDbScale
  3
ObjectDBX Classes
 90
     1153
280
     0
281
     0
  0
CLASS
  1
MLEADERSTYLE
  2
AcDbMLeaderStyle
  3
ACDB_MLEADERSTYLE_CLASS
 90
     4095
280
     0
281
     0
  0
CLASS
  1
ACME_DOCUMENT
  2
AcMeDbDoc
  3
AcMeServices
 90
     1024
280
     0
281
     0
  0
CLASS
  1
AMGSETTINGSOBJ
  2
AmgSettingsObj
  3
"AcadM|Product Description: AutoCAD Mechanical|Company: Autodesk, Inc."
 90
     1024
280
     0
281
     0
  0
CLASS
  1
ACMESCOPE
  2
AcMeScope
  3
AcMeServices
 90
     1024
280
     0
281
     0
  0
CLASS
  1
ACMECOMMANDHISTORY
  2
AcMeCommandHistory
  3
AcMeServices
 90
     1024
280
     0
281
     0
  0
CLASS
  1
ACIMSYSVARMAN
  2
AcImSysVarManager
  3
AcMeServices
 90
     1024
280
     0
281
     0
  0
CLASS
  1
ACIMINTSYSVAR
  2
AcImIntSysVar
  3
AcMeServices
 90
     1024
280
     0
281
     0
  0
CLASS
  1
ACMEDRAWINGMAN
  2
AcMeDrawingMan
  3
AcMeServices
 90
     1024
280
     0
281
     0
  0
CLASS
  1
ACMEVIEW
  2
AcMeView
  3
AcMeServices
 90
     1024
280
     0
281
     0
  0
CLASS
  1
ACDBENTITYCACHE
  2
AcMeEntityCache
  3
AcMeServices
 90
     1024
280
     0
281
     0
  0
CLASS
  1
GSMANAGER
  2
AcMeGSManager
  3
AcMeServices
 90
     1024
280
     0
281
     0
  0
CLASS
  1
AMDTINTERNALREACTOR
  2
AmdtInternalReactor
  3
AcMeServices
 90
     1024
280
     0
281
     0
  0
CLASS
  1
ACMESTATEMGR
  2
AcMeStateMgr
  3
AcMeServices
 90
     1024
280
     0
281
     0
  0
CLASS
  1
ACGREFMASTER
  2
AcGrefMaster
  3
AcAttribServices
 90
     1024
280
     0
281
     0
  0
CLASS
  1
AM_DRAWING_MGR
  2
AcDmDwgMgr
  3
AcMechDwgViewMgmt
 90
     1024
280
     0
281
     0
  0
CLASS
  1
AM_DWG_DOCUMENT
  2
AcDmDwgDocument
  3
AcMechDwgViewMgmt
 90
     1024
280
     0
281
     0
  0
CLASS
  1
AM_DWG_SHEET
  2
AcDmSheet
  3
AcMechDwgViewMgmt
 90
     1024
280
     0
281
     0
  0
CLASS
  1
AM_VIEWDIMPARMAP
  2
AcDmViewDimParMap
  3
AcMechDwgViewMgmt
 90
     1024
280
     0
281
     0
  0
CLASS
  1
ACIMREALSYSVAR
  2
AcImRealSysVar
  3
AcMeServices
 90
     1024
280
     0
281
     0
  0
CLASS
  1
AM_DWGMGR_NAME
  2
AcDmDwgMgrName
  3
AcMechDwgViewMgmt
 90
     1024
280
     0
281
     0
  0
CLASS
  1
ACME_DATABASE
  2
AcMeDbDatabase
  3
AcMeServices
 90
     1024
280
     0
281
     0
  0
CLASS
  1
ACRFINSADJUSTERMGR
  2
AcRfInsAdjusterMgr
  3
AcMeServices
 90
     1024
280
     0
281
     0
  0
CLASS
  1
ACGREFACADMASTER
  2
AcGrefacadMaster
  3
AcGrefServices
 90
     1024
280
     0
281
     0
  0
CLASS
  1
AMDTMENUSTATEMGR
  2
AmdtMenuStateMgr
  3
McadcomServices
 90
     1024
280
     0
281
     0
  0
CLASS
  1
AMDTMCOMMENUSTATE
  2
AmdtMcomMenuState
  3
McadcomServices
 90
     1024
280
     0
281
     0
  0
CLASS
  1
AMIMASTER
  2
AmiMaster
  3
AmiServices
 90
     1024
280
     0
281
     0
  0
CLASS
  1
MAPIAMMOUDLE
  2
MApiAmModule
  3
MApiAmServices
 90
     1024
280
     0
281
     0
  0
CLASS
  1
ACIMSTRSYSVAR
  2
AcImStrSysVar
  3
AcMeServices
 90
     1024
280
     0
281
     0
  0
CLASS
  1
AMDTADMENUSTATE
  2
AmdtAdMenuState
  3
DesignerServices
 90
     1024
280
     0
281
     0
  0
CLASS
  1
ADAPPL
  2
AcAdAppl
  3
DesignerServices
 90
     1024
280
     0
281
     0
  0
CLASS
  1
DEPMGR
  2
AcAdDepMgr
  3
DesignerServices
 90
     1024
280
     0
281
     0
  0
CLASS
  1
PARAMMGR
  2
AcAdParamMgr
  3
DesignerServices
 90
     1024
280
     0
281
     0
  0
CLASS
  1
PARAMSCOPE
  2
AcAdParamScope
  3
DesignerServices
 90
     1024
280
     0
281
     0
  0
CLASS
  1
NAMEDAPPL
  2
AcAdNamedAppl
  3
DesignerServices
 90
     1024
280
     0
281
     0
  0
CLASS
  1
AMDTDMMENUSTATE
  2
AmdtDmMenuState
  3
AcMechDwgViewMgmt
 90
     1024
280
     0
281
     0
  0
CLASS
  1
AMDTAMMENUSTATE
  2
AmdtAmMenuState
  3
DesignerAssemblies
 90
     1024
280
     0
281
     0
  0
CLASS
  1
ACAMPROJECT
  2
AcAmProject
  3
DesignerAssemblies
 90
     1024
280
     0
281
     0
  0
CLASS
  1
ACAMGRCOMPDEF
  2
AcAmGrCompDef
  3
DesignerAssemblies
 90
     1024
280
     0
281
     0
  0
CLASS
  1
ACCMCONTEXT
  2
AcCmContext
  3
DesignerAssemblies
 90
     1024
280
     0
281
     0
  0
CLASS
  1
ACAMCOMPDEF
  2
AcAmCompDef
  3
DesignerAssemblies
 90
     1024
280
     0
281
     0
  0
CLASS
  1
ACAMCOMPDEFMGR
  2
AcAmCompDefMgr
  3
DesignerAssemblies
 90
     1024
280
     0
281
     0
  0
CLASS
  1
AMCONTEXTMGR
  2
AcAmContextMgr
  3
DesignerAssemblies
 90
     1024
280
     0
281
     0
  0
CLASS
  1
ACAMCONTEXTMODELER
  2
AcAmContextModeler
  3
DesignerAssemblies
 90
     1024
280
     0
281
     0
  0
CLASS
  1
ACMDATADICTIONARY
  2
AcmDataDictionary
  3
"AcmSymBB|Product Description: AutoCAD Mechanical|Company: Autodesk, Inc."
 90
     1024
280
     0
281
     0
  0
CLASS
  1
CATALOGSTATE
  2
AcAmCatalogState
  3
DesignerAssemblies
 90
     1024
280
     0
281
     0
  0
CLASS
  1
ACAMGRCOMPDEFSET
  2
AcAmGrCompDefSet
  3
DesignerAssemblies
 90
     1024
280
     0
281
     0
  0
CLASS
  1
AMDTBROWSERDBTAB
  2
AmdtBrowserDbTab
  3
McadcomServices
 90
     1024
280
     0
281
     0
  0
CLASS
  1
CBROWSERAPPOBJECT
  2
CBrowserAppObject
  3
McadcomServices
 90
     1024
280
     0
281
     0
  0
CLASS
  1
DM_PLACEHOLDER
  2
AcDmSelsetPlaceholder
  3
AcMechDwgViewMgmt
 90
     1024
280
     0
281
     0
  0
CLASS
  1
ACMSTANDARDANSI
  2
AcmStandardANSI
  3
"Amdt_StdImp|Product Description: AutoCAD Mechanical|Company: Autodesk, Inc."
 90
     1024
280
     0
281
     0
  0
CLASS
  1
ACMSURFSTANDARDANSI
  2
AcmSurfTextStdANSI
  3
"Amdt_StdImp|Product Description: AutoCAD Mechanical|Company: Autodesk, Inc."
 90
     1024
280
     0
281
     0
  0
CLASS
  1
ACMFCFSTANDARDANSI
  2
AcmFCFStdANSI
  3
"Amdt_StdImp|Product Description: AutoCAD Mechanical|Company: Autodesk, Inc."
 90
     1024
280
     0
281
     0
  0
CLASS
  1
ACMWELDSTANDARDANSI
  2
AcmWeldingStdANSI
  3
"Amdt_StdImp|Product Description: AutoCAD Mechanical|Company: Autodesk, Inc."
 90
     1024
280
     0
281
     0
  0
CLASS
  1
ACMIDSTANDARDANSI
  2
AcmIdStdANSI
  3
"Amdt_StdImp|Product Description: AutoCAD Mechanical|Company: Autodesk, Inc."
 90
     1024
280
     0
281
     0
  0
CLASS
  1
ACMDATUMSTANDARDANSI
  2
AcmDatumStdANSI
  3
"Amdt_StdImp|Product Description: AutoCAD Mechanical|Company: Autodesk, Inc."
 90
     1024
280
     0
281
     0
  0
CLASS
  1
ACMBOMSTANDARDANSI
  2
AcmBOMStdANSI
  3
"Amdt_StdImp|Product Description: AutoCAD Mechanical|Company: Autodesk, Inc."
 90
     1024
280
     0
281
     0
  0
CLASS
  1
ACMDETAILSTANDARDANSI
  2
AmdtDetailSymStdANSI
  3
"Amdt_StdImp|Product Description: AutoCAD Mechanical|Company: Autodesk, Inc."
 90
     1024
280
     0
281
     0
  0
CLASS
  1
ACMSECTIONSTANDARDANSI
  2
AmdtSectionSymStdANSI
  3
"Amdt_StdImp|Product Description: AutoCAD Mechanical|Company: Autodesk, Inc."
 90
     1024
280
     0
281
     0
  0
CLASS
  1
ACMCENTERLINESTANDARDANSI
  2
AmdtCenterLineStdANSI
  3
"Amdt_StdImp|Product Description: AutoCAD Mechanical|Company: Autodesk, Inc."
 90
     1024
280
     0
281
     0
  0
CLASS
  1
ACMTHREADLINESTANDARDANSI
  2
AmdtThreadLineStdANSI
  3
"Amdt_StdImp|Product Description: AutoCAD Mechanical|Company: Autodesk, Inc."
 90
     1024
280
     0
281
     0
  0
CLASS
  1
ACMNOTESTANDARDANSI
  2
AmdtNoteStdANSI
  3
"Amdt_StdImp|Product Description: AutoCAD Mechanical|Company: Autodesk, Inc."
 90
     1024
280
     0
281
     0
  0
CLASS
  1
ACMTAPERSTANDARDANSI
  2
AcmTaperStdANSI
  3
"Amdt_StdImp|Product Description: AutoCAD Mechanical|Company: Autodesk, Inc."
 90
     1024
280
     0
281
     0
  0
CLASS
  1
ACMANOOTATIONVIEWSTANDARDANSI
  2
AmdtAnViewStdANSI
  3
"Amdt_StdImp|Product Description: AutoCAD Mechanical|Company: Autodesk, Inc."
 90
     1024
280
     0
281
     0
  0
CLASS
  1
ACAMGLAYSTD
  2
AcAmgLayStd
  3
"AmgLay|Product Description: AutoCAD Mechanical|Company: Autodesk, Inc."
 90
     1024
280
     0
281
     0
  0
CLASS
  1
ACAMGDIMSTD
  2
AcAmgDimStd
  3
"AmgDim|Product Description: AutoCAD Mechanical|Company: Autodesk, Inc."
 90
     1024
280
     0
281
     0
  0
CLASS
  1
AMGOBJPROPCFG
  2
AmgObjPropCfg
  3
"AmgLay|Product Description: AutoCAD Mechanical|Company: Autodesk, Inc."
 90
     1025
280
     0
281
     0
  0
CLASS
  1
ACAMGHOLECHARTSTDANSI
  2
AcAmgHoleChartStdANSI
  3
AmgDim|Product Description: AutoCAD Mechanical|Company: Autodesk, Inc.
 90
     1024
280
     0
281
     0
  0
CLASS
  1
ACAMGTITLESTD
  2
AcAmgTitleStd
  3
"AmgTitle|Product Description: AutoCAD Mechanical|Company: Autodesk, Inc."
 90
     4095
280
     0
281
     0
  0
CLASS
  1
AMDTNOTETEMPLATEDB
  2
AmdtNoteTemplateDB
  3
AcmSymBB|Product Description: AutoCAD Mechanical|Company: Autodesk, Inc.
 90
     1024
280
     0
281
     0
  0
CLASS
  1
ACAMGFILTERDAT
  2
AcAmgFilterDat
  3
"AcadM|Product Description: AutoCAD Mechanical|Company: Autodesk, Inc."
 90
     1024
280
     0
281
     0
  0
CLASS
  1
DICTIONARYVAR
  2
AcDbDictionaryVar
  3
ObjectDBX Classes
 90
        0
280
     0
281
     0
  0
CLASS
  1
CELLSTYLEMAP
  2
AcDbCellStyleMap
  3
ObjectDBX Classes
 90
     1152
280
     0
281
     0
  0
CLASS
  1
ACDBPLACEHOLDER
  2
AcDbPlaceHolder
  3
ObjectDBX Classes
 90
        0
280
     0
281
     0
  0
CLASS
  1
LAYOUT
  2
AcDbLayout
  3
ObjectDBX Classes
 90
        0
280
     0
281
     0
  0
ENDSEC
  0
SECTION
  2
TABLES
  0
TABLE
  2
VPORT
  5
8
330
0
100
AcDbSymbolTable
 70
     1
  0
VPORT
  5
DA8
330
8
100
AcDbSymbolTableRecord
100
AcDbViewportTableRecord
  2
*ACTIVE
 70
     0
 10
0.0
 20
0.0
 11
1.0
 21
1.0
 12
264.8442117797829
 22
253.2164880621804
 13
0.0
 23
0.0
 14
5.0
 24
5.0
 15
50.0
 25
50.0
 16
0.0
 26
0.0
 36
1.0
 17
0.0
 27
0.0
 37
0.0
 40
349.6084358935585
 41
1.548186528497409
 42
50.0
 43
0.0
 44
0.0
 50
0.0
 51
0.0
 71
     0
 72
   100
 73
     1
 74
     0
 75
     0
 76
     0
 77
     0
 78
     0
281
     0
 65
     1
110
0.0
120
0.0
130
0.0
111
1.0
121
0.0
131
0.0
112
0.0
122
1.0
132
0.0
 79
     0
146
0.0
  0
ENDTAB
  0
TABLE
  2
LTYPE
  5
5
330
0
100
AcDbSymbolTable
 70
    22
  0
LTYPE
  5
14
330
5
100
AcDbSymbolTableRecord
100
AcDbLinetypeTableRecord
  2
BYBLOCK
 70
     0
  3

 72
    65
 73
     0
 40
0.0
  0
LTYPE
  5
15
330
5
100
AcDbSymbolTableRecord
100
AcDbLinetypeTableRecord
  2
BYLAYER
 70
     0
  3

 72
    65
 73
     0
 40
0.0
  0
LTYPE
  5
16
330
5
100
AcDbSymbolTableRecord
100
AcDbLinetypeTableRecord
  2
CONTINUOUS
 70
     0
  3
Solid line
 72
    65
 73
     0
 40
0.0
  0
LTYPE
  5
40
330
5
100
AcDbSymbolTableRecord
100
AcDbLinetypeTableRecord
  2
GEN7
 70
     0
  3
____ . ____ . ____ . ____ . ____ . ____ . ____
 72
    65
 73
     4
 40
13.75
 49
10.0
 74
     0
 49
-1.25
 74
     0
 49
1.25
 74
     0
 49
-1.25
 74
     0
  0
LTYPE
  5
41
330
5
100
AcDbSymbolTableRecord
100
AcDbLinetypeTableRecord
  2
GEN3
 70
     0
  3
-- -- -- -- -- -- -- -- -- -- -- -- -- -- --
 72
    65
 73
     2
 40
6.25
 49
5.0
 74
     0
 49
-1.25
 74
     0
  0
LTYPE
  5
3B9
330
5
100
AcDbSymbolTableRecord
100
AcDbLinetypeTableRecord
  2
GEN4A
 70
     0
  3
_____ . . _____ . . _____ . . ____ .. ____
 72
    65
 73
     6
 40
16.25
 49
10.0
 74
     0
 49
-1.25
 74
     0
 49
1.25
 74
     0
 49
-1.25
 74
     0
 49
1.25
 74
     0
 49
-1.25
 74
     0
  0
LTYPE
  5
465
330
5
100
AcDbSymbolTableRecord
100
AcDbLinetypeTableRecord
  2
GEN7A
 70
     0
  3
__ . __ . __
 72
    65
 73
     4
 40
6.875
 49
5.0
 74
     0
 49
-0.625
 74
     0
 49
0.625
 74
     0
 49
-0.625
 74
     0
  0
LTYPE
  5
E37
330
5
100
AcDbSymbolTableRecord
100
AcDbLinetypeTableRecord
  2
HIDDEN
 70
     0
  3
Verdeckt
 72
    65
 73
     2
 40
0.375
 49
0.25
 74
     0
 49
-0.125
 74
     0
  0
LTYPE
  5
E38
330
5
100
AcDbSymbolTableRecord
100
AcDbLinetypeTableRecord
  2
PHANTOM2
 70
     0
  3
Phantom (.5x) ___ _ _ ___ _ _ ___ _ _ ___ _ _
 72
    65
 73
     6
 40
1.25
 49
0.625
 74
     0
 49
-0.125
 74
     0
 49
0.125
 74
     0
 49
-0.125
 74
     0
 49
0.125
 74
     0
 49
-0.125
 74
     0
  0
LTYPE
  5
E39
330
5
100
AcDbSymbolTableRecord
100
AcDbLinetypeTableRecord
  2
CENTER
 70
     0
  3
Mitte ____ _ ____ _ ____ _ ____ _ ____ _ ____
 72
    65
 73
     4
 40
2.0
 49
1.25
 74
     0
 49
-0.25
 74
     0
 49
0.25
 74
     0
 49
-0.25
 74
     0
  0
LTYPE
  5
E7E
330
5
100
AcDbSymbolTableRecord
100
AcDbLinetypeTableRecord
  2
AM_ISO02W050
 70
     0
  3
__ __ __ __ __ __ __ __ __ __ __ __ __ __ __
 72
    65
 73
     2
 40
7.5
 49
6.0
 74
     0
 49
-1.5
 74
     0
  0
LTYPE
  5
E7F
330
5
100
AcDbSymbolTableRecord
100
AcDbLinetypeTableRecord
  2
AM_ISO08W050
 70
     0
  3
____ . ____ . ____ . ____ . ____ . ____ . ____
 72
    65
 73
     4
 40
18.0
 49
12.0
 74
     0
 49
-1.5
 74
     0
 49
3.0
 74
     0
 49
-1.5
 74
     0
  0
LTYPE
  5
E80
330
5
100
AcDbSymbolTableRecord
100
AcDbLinetypeTableRecord
  2
AM_ISO09W050
 70
     0
  3
_____ . . _____ . . _____ . . ____ .. ____
 72
    65
 73
     6
 40
22.5
 49
12.0
 74
     0
 49
-1.5
 74
     0
 49
3.0
 74
     0
 49
-1.5
 74
     0
 49
3.0
 74
     0
 49
-1.5
 74
     0
  0
LTYPE
  5
E81
330
5
100
AcDbSymbolTableRecord
100
AcDbLinetypeTableRecord
  2
Amconstr
 70
     0
  3
_______________________
 72
    65
 73
     2
 40
9999.0
 49
9999.0
 74
     0
 49
0.0
 74
     0
  0
LTYPE
  5
E82
330
5
100
AcDbSymbolTableRecord
100
AcDbLinetypeTableRecord
  2
AM_ISO08W050x2
 70
     0
  3
__ . __ . __ . __ . __ . __
 72
    65
 73
     4
 40
9.0
 49
6.0
 74
     0
 49
-0.75
 74
     0
 49
1.5
 74
     0
 49
-0.75
 74
     0
  0
LTYPE
  5
E83
330
5
100
AcDbSymbolTableRecord
100
AcDbLinetypeTableRecord
  2
AM_ISO02W050x2
 70
     0
  3
 _ _ _ _ _ _ _ _ _ _ _ _
 72
    65
 73
     2
 40
3.75
 49
3.0
 74
     0
 49
-0.75
 74
     0
  0
LTYPE
  5
E86
330
5
100
AcDbSymbolTableRecord
100
AcDbLinetypeTableRecord
  2
Amzigzag
 70
     0
  3
/\/-/\/-/\/-/\/-/\/-/\/
 72
    65
 73
     2
 40
11.0001
 49
0.0001
 74
     4
 75
   136
340
E85
 46
0.04
 50
0.0
 44
0.0
 45
0.0
 49
-11.0
 74
     0
  0
LTYPE
  5
E87
330
5
100
AcDbSymbolTableRecord
100
AcDbLinetypeTableRecord
  2
CENTER2
 70
     0
  3
Center (.5x) ___ _ ___ _ ___ _ ___ _ ___ _ ___
 72
    65
 73
     4
 40
1.125
 49
0.75
 74
     0
 49
-0.125
 74
     0
 49
0.125
 74
     0
 49
-0.125
 74
     0
  0
LTYPE
  5
E88
330
5
100
AcDbSymbolTableRecord
100
AcDbLinetypeTableRecord
  2
HIDDEN2
 70
     0
  3
Hidden (.5x) _ _ _ _ _ _ _ _ _ _ _ _ _ _ _ _ _
 72
    65
 73
     2
 40
0.1875
 49
0.125
 74
     0
 49
-0.0625
 74
     0
  0
LTYPE
  5
E89
330
5
100
AcDbSymbolTableRecord
100
AcDbLinetypeTableRecord
  2
Amzigzag2
 70
     0
  3
/\/-/\/-/\/-/\/-/\/-/\/
 72
    65
 73
     2
 40
0.4401
 49
0.0001
 74
     4
 75
   136
340
E85
 46
0.0016
 50
0.0
 44
0.0
 45
0.0
 49
-0.4400000000000001
 74
     0
  0
LTYPE
  5
E97
330
5
100
AcDbSymbolTableRecord
100
AcDbLinetypeTableRecord
  2
ACANSTGBM
 70
     0
  3
__ . . __ . .
 72
    65
 73
     6
 40
9.0
 49
4.0
 74
     0
 49
-1.0
 74
     0
 49
1.0
 74
     0
 49
-1.0
 74
     0
 49
1.0
 74
     0
 49
-1.0
 74
     0
  0
LTYPE
  5
E98
330
5
100
AcDbSymbolTableRecord
100
AcDbLinetypeTableRecord
  2
ACANSTGLM
 70
     0
  3
_ _ _ _ _
 72
    65
 73
     2
 40
3.0
 49
2.0
 74
     0
 49
-1.0
 74
     0
  0
LTYPE
  5
EA6
330
5
100
AcDbSymbolTableRecord
100
AcDbLinetypeTableRecord
  2
gen3a
 70
     0
  3
 - - - - -
 72
    65
 73
     2
 40
3.125
 49
2.25
 74
     0
 49
-0.875
 74
     0
  0
LTYPE
  5
EA7
330
5
100
AcDbSymbolTableRecord
100
AcDbLinetypeTableRecord
  2
genzigzag
 70
     0
  3
/\/-/\/-/\/-/\/-/\/-/\/
 72
    65
 73
     2
 40
12.0001
 49
0.0001
 74
     4
 75
   135
340
E85
 46
2.0
 50
0.0
 44
0.0
 45
0.0
 49
-12.0
 74
     0
  0
ENDTAB
  0
TABLE
  2
LAYER
  5
2
330
0
100
AcDbSymbolTable
 70
    17
  0
LAYER
  5
F
330
2
100
AcDbSymbolTableRecord
100
AcDbLayerTableRecord
  2
0
 70
     0
 62
     7
  6
CONTINUOUS
370
    -3
390
DAB
  0
LAYER
  5
42
330
2
100
AcDbSymbolTableRecord
100
AcDbLayerTableRecord
  2
MSR3-0
 70
     0
 62
     7
  6
CONTINUOUS
370
    -3
390
DAB
  0
LAYER
  5
43
330
2
100
AcDbSymbolTableRecord
100
AcDbLayerTableRecord
  2
MSR3-7
 70
     0
 62
     4
  6
GEN7
370
    -3
390
DAB
  0
LAYER
  5
44
330
2
100
AcDbSymbolTableRecord
100
AcDbLayerTableRecord
  2
MSR3-3
 70
     0
 62
     6
  6
GEN3
370
    -3
390
DAB
  0
LAYER
  5
45
330
2
100
AcDbSymbolTableRecord
100
AcDbLayerTableRecord
  2
MSR3-4
 70
     0
 62
     3
  6
CONTINUOUS
370
    -3
390
DAB
  0
LAYER
  5
3B8
330
2
100
AcDbSymbolTableRecord
100
AcDbLayerTableRecord
  2
MSR3-4A
 70
     0
 62
     3
  6
GEN4A
370
    -3
390
DAB
  0
LAYER
  5
3DA
330
2
100
AcDbSymbolTableRecord
100
AcDbLayerTableRecord
  2
MSR3-8
 70
     0
 62
     1
  6
CONTINUOUS
370
    -3
390
DAB
  0
LAYER
  5
3F6
330
2
100
AcDbSymbolTableRecord
100
AcDbLayerTableRecord
  2
MSR3-2
 70
     0
 62
     5
  6
CONTINUOUS
370
    -3
390
DAB
  0
LAYER
  5
40D
330
2
100
AcDbSymbolTableRecord
100
AcDbLayerTableRecord
  2
KLIN
 70
     1
 62
    -1
  6
CONTINUOUS
370
    -3
390
DAB
  0
LAYER
  5
455
330
2
100
AcDbSymbolTableRecord
100
AcDbLayerTableRecord
  2
GEV_FROZEN
 70
     1
 62
     7
  6
CONTINUOUS
370
    -3
390
DAB
  0
LAYER
  5
456
330
2
100
AcDbSymbolTableRecord
100
AcDbLayerTableRecord
  2
CENN
 70
     0
 62
     7
  6
CONTINUOUS
370
    -3
390
DAB
  0
LAYER
  5
457
330
2
100
AcDbSymbolTableRecord
100
AcDbLayerTableRecord
  2
BHMM
 70
     0
 62
     7
  6
CONTINUOUS
370
    -3
390
DAB
  0
LAYER
  5
458
330
2
100
AcDbSymbolTableRecord
100
AcDbLayerTableRecord
  2
THLI
 70
     0
 62
     7
  6
CONTINUOUS
370
    -3
390
DAB
  0
LAYER
  5
464
330
2
100
AcDbSymbolTableRecord
100
AcDbLayerTableRecord
  2
MSR3-7A
 70
     0
 62
     4
  6
GEN7A
370
    -3
390
DAB
  0
LAYER
  5
4BD
330
2
100
AcDbSymbolTableRecord
100
AcDbLayerTableRecord
  2
MSR3-6
 70
     0
 62
     2
  6
CONTINUOUS
370
    -3
390
DAB
  0
LAYER
  5
906
330
2
100
AcDbSymbolTableRecord
100
AcDbLayerTableRecord
  2
INFO
 70
     0
 62
     4
  6
CONTINUOUS
370
    -3
390
DAB
  0
LAYER
  5
93E
330
2
100
AcDbSymbolTableRecord
100
AcDbLayerTableRecord
  2
MSR3-0N
 70
     0
 62
     7
  6
CONTINUOUS
370
    -3
390
DAB
  0
ENDTAB
  0
TABLE
  2
STYLE
  5
3
330
0
100
AcDbSymbolTable
 70
     4
  0
STYLE
  5
10
330
3
100
AcDbSymbolTableRecord
100
AcDbTextStyleTableRecord
  2
STANDARD
 70
     0
 40
0.0
 41
1.0
 50
0.0
 71
     0
 42
3.5
  3
ISOCP.SHX
  4

  0
STYLE
  5
E85
330
3
100
AcDbSymbolTableRecord
100
AcDbTextStyleTableRecord
  2

 70
     1
 40
0.0
 41
1.0
 50
0.0
 71
     0
 42
3.5
  3
genltshp.shx
  4

  0
STYLE
  5
E95
330
3
100
AcDbSymbolTableRecord
100
AcDbTextStyleTableRecord
  2
ACANSTS
 70
     0
 40
1.0
 41
1.0
 50
0.0
 71
     0
 42
3.5
  3
romans.shx
  4

  0
STYLE
  5
E96
330
3
100
AcDbSymbolTableRecord
100
AcDbTextStyleTableRecord
  2
ACANSGDT
 70
     0
 40
0.0
 41
1.0
 50
0.0
 71
     0
 42
3.5
  3
amgdt.shx
  4

  0
ENDTAB
  0
TABLE
  2
VIEW
  5
6
330
0
100
AcDbSymbolTable
 70
     0
  0
ENDTAB
  0
TABLE
  2
UCS
  5
7
330
0
100
AcDbSymbolTable
 70
     0
  0
ENDTAB
  0
TABLE
  2
APPID
  5
9
330
0
100
AcDbSymbolTable
 70
    62
  0
APPID
  5
11
330
9
100
AcDbSymbolTableRecord
100
AcDbRegAppTableRecord
  2
ACAD
 70
     0
  0
APPID
  5
29
330
9
100
AcDbSymbolTableRecord
100
AcDbRegAppTableRecord
  2
GENIUS_GENCFG_13
 70
     0
1001
GENIUS_GENCFG0_13
1000
GEN@INFO_POS@XLATE
1001
GENIUS_GENCFG1_13
1000
GEN@LAYER@DEFS
1001
GENIUS_GENCFG2_13
1000
GEN@LAYER@ENTSORT
1001
GENIUS_GENCFG3_13
1000
GEN@OSWIZ
1001
GENIUS_GENCFG4_13
1000
GEN
1001
GENIUS_GEVCFG0_13
1000
GEV
1001
GENIUS_GEFCFG0_13
1000
GEF
  0
APPID
  5
2A
330
9
100
AcDbSymbolTableRecord
100
AcDbRegAppTableRecord
  2
GENIUS_GENCFG0_13
 70
     0
1001
GENIUS_GENCFG_13
1071
862825278
1000
2A
1000
GEN@INFO_POS@XLATE
1070
     7
1000
GenCfgObject
1000
GenCfgShort
1000
GenCfgReal
1000
GenCfgBool
1000
GenCfgString
1000
GenCfgDim
1000
GenCfgAttrInf
1000
INFOPOINTS
1070
     0
1002
{
1000
GENINF13
1070
     0
1002
{
1000
2GENINF
1070
     4
1000
2
1002
{
1002
}
1000
3GENINF
1070
     4
1000
3
1002
{
1002
}
1000
4GENINF
1070
     4
1000
4
1002
{
1002
}
1000
5GENINF
1070
     4
1000
5
1002
{
1002
}
1000
6GENINF
1070
     4
1000
6
1002
{
1002
}
1000
7GENINF
1070
     4
1000
7
1002
{
1002
}
1000
8GENINF
1070
     4
1000
8
1002
{
1002
}
1000
9GENINF
1070
     4
1000
9
1002
{
1002
}
1000
10GENINF
1070
     4
1000
10
1002
{
1002
}
1000
11GENINF
1070
     4
1000
11
1002
{
1002
}
1000
12GENINF
1070
     4
1000
12
1002
{
1002
}
1000
13GENINF
1070
     4
1000
13
1002
{
1002
}
1000
14GENINF
1070
     4
1000
14
1002
{
1002
}
1000
15GENINF
1070
     4
1000
15
1002
{
1002
}
1000
16GENINF
1070
     4
1000
16
1002
{
1002
}
1000
17GENINF
1070
     4
1000
17
1002
{
1002
}
1000
18GENINF
1070
     4
1000
18
1002
{
1002
}
1000
19GENINF
1070
     4
1000
19
1002
{
1002
}
1000
20GENINF
1070
     4
1000
20
1002
{
1002
}
1000
21GENINF
1070
     4
1000
21
1002
{
1002
}
1000
22GENINF
1070
     4
1000
22
1002
{
1002
}
1000
23GENINF
1070
     4
1000
23
1002
{
1002
}
1000
24GENINF
1070
     4
1000
24
1002
{
1002
}
1000
0GENINF
1070
     4
1000
0
1002
{
1002
}
1002
}
1000
GENINFO
1070
     0
1002
{
1000
3GENINF
1070
     4
1000
3
1002
{
1002
}
1000
4GENINF
1070
     4
1000
4
1002
{
1002
}
1000
5GENINF
1070
     4
1000
5
1002
{
1002
}
1000
6GENINF
1070
     4
1000
6
1002
{
1002
}
1000
7GENINF
1070
     4
1000
7
1002
{
1002
}
1000
8GENINF
1070
     4
1000
8
1002
{
1002
}
1000
9GENINF
1070
     4
1000
9
1002
{
1002
}
1000
10GENINF
1070
     4
1000
10
1002
{
1002
}
1000
11GENINF
1070
     4
1000
11
1002
{
1002
}
1000
12GENINF
1070
     4
1000
12
1002
{
1002
}
1000
13GENINF
1070
     4
1000
13
1002
{
1002
}
1000
14GENINF
1070
     4
1000
14
1002
{
1002
}
1000
15GENINF
1070
     4
1000
15
1002
{
1002
}
1000
16GENINF
1070
     4
1000
16
1002
{
1002
}
1000
17GENINF
1070
     4
1000
17
1002
{
1002
}
1000
18GENINF
1070
     4
1000
18
1002
{
1002
}
1000
19GENINF
1070
     4
1000
19
1002
{
1002
}
1000
20GENINF
1070
     4
1000
20
1002
{
1002
}
1000
21GENINF
1070
     4
1000
21
1002
{
1002
}
1000
22GENINF
1070
     4
1000
22
1002
{
1002
}
1002
}
1000
DININFO
1070
     0
1002
{
1000
ST-NAME1
1070
     4
1000
5
1002
{
1002
}
1000
ST-NAME2
1070
     4
1000
6
1002
{
1002
}
1000
ST-NORM1
1070
     4
1000
7
1002
{
1002
}
1000
ST-NORM2
1070
     4
1000
8
1002
{
1002
}
1000
ST-MAT1
1070
     4
1000
9
1002
{
1002
}
1000
ST-MAT2
1070
     4
1000
10
1002
{
1002
}
1002
}
1002
}
1000
POS_NUMBERS
1070
     0
1002
{
1000
GENPOS13
1070
     0
1002
{
1000
1GENPOS
1070
     4
1000
1
1002
{
1002
}
1000
2GENPOS
1070
     4
1000
2
1002
{
1002
}
1000
3GENPOS
1070
     4
1000
3
1002
{
1002
}
1000
4GENPOS
1070
     4
1000
4
1002
{
1002
}
1000
5GENPOS
1070
     4
1000
5
1002
{
1002
}
1000
6GENPOS
1070
     4
1000
6
1002
{
1002
}
1000
7GENPOS
1070
     4
1000
7
1002
{
1002
}
1000
8GENPOS
1070
     4
1000
8
1002
{
1002
}
1000
9GENPOS
1070
     4
1000
9
1002
{
1002
}
1000
10GENPOS
1070
     4
1000
10
1002
{
1002
}
1000
11GENPOS
1070
     4
1000
11
1002
{
1002
}
1000
12GENPOS
1070
     4
1000
12
1002
{
1002
}
1000
13GENPOS
1070
     4
1000
13
1002
{
1002
}
1000
14GENPOS
1070
     4
1000
14
1002
{
1002
}
1000
15GENPOS
1070
     4
1000
15
1002
{
1002
}
1000
16GENPOS
1070
     4
1000
16
1002
{
1002
}
1000
17GENPOS
1070
     4
1000
17
1002
{
1002
}
1000
18GENPOS
1070
     4
1000
18
1002
{
1002
}
1000
19GENPOS
1070
     4
1000
19
1002
{
1002
}
1000
20GENPOS
1070
     4
1000
20
1002
{
1002
}
1000
21GENPOS
1070
     4
1000
21
1002
{
1002
}
1000
22GENPOS
1070
     4
1000
22
1002
{
1002
}
1000
23GENPOS
1070
     4
1000
23
1002
{
1002
}
1000
24GENPOS
1070
     4
1000
24
1002
{
1002
}
1000
0GENPOS
1070
     4
1000
0
1002
{
1002
}
1002
}
1000
GENPOS
1070
     0
1002
{
1000
1GENPOS
1070
     4
1000
1
1002
{
1002
}
1000
2GENPOS
1070
     4
1000
2
1002
{
1002
}
1000
3GENPOS
1070
     4
1000
3
1002
{
1002
}
1000
4GENPOS
1070
     4
1000
4
1002
{
1002
}
1000
5GENPOS
1070
     4
1000
5
1002
{
1002
}
1000
6GENPOS
1070
     4
1000
6
1002
{
1002
}
1000
7GENPOS
1070
     4
1000
7
1002
{
1002
}
1000
8GENPOS
1070
     4
1000
8
1002
{
1002
}
1000
9GENPOS
1070
     4
1000
9
1002
{
1002
}
1000
10GENPOS
1070
     4
1000
10
1002
{
1002
}
1000
11GENPOS
1070
     4
1000
11
1002
{
1002
}
1000
12GENPOS
1070
     4
1000
12
1002
{
1002
}
1000
13GENPOS
1070
     4
1000
13
1002
{
1002
}
1000
14GENPOS
1070
     4
1000
14
1002
{
1002
}
1000
15GENPOS
1070
     4
1000
15
1002
{
1002
}
1000
16GENPOS
1070
     4
1000
16
1002
{
1002
}
1000
17GENPOS
1070
     4
1000
17
1002
{
1002
}
1000
18GENPOS
1070
     4
1000
18
1002
{
1002
}
1000
19GENPOS
1070
     4
1000
19
1002
{
1002
}
1000
20GENPOS
1070
     4
1000
20
1002
{
1002
}
1000
21GENPOS
1070
     4
1000
21
1002
{
1002
}
1000
22GENPOS
1070
     4
1000
22
1002
{
1002
}
1000
23GENPOS
1070
     4
1000
23
1002
{
1002
}
1002
}
1000
DIN985
1070
     0
1002
{
1000
POSITION
1070
     4
1000
1
1002
{
1002
}
1000
MENGE
1070
     4
1000
2
1002
{
1002
}
1000
BLATT
1070
     4
1000
3
1002
{
1002
}
1000
BENENN
1070
     4
1000
5
1002
{
1002
}
1000
BENENN2
1070
     4
1000
6
1002
{
1002
}
1000
NORM
1070
     4
1000
7
1002
{
1002
}
1000
NORM2
1070
     4
1000
8
1002
{
1002
}
1000
WERKSTOFF
1070
     4
1000
9
1002
{
1002
}
1000
WERKSTOFF2
1070
     4
1000
10
1002
{
1002
}
1002
}
1000
DIN986
1070
     0
1002
{
1000
POSITION
1070
     4
1000
1
1002
{
1002
}
1000
MENGE
1070
     4
1000
2
1002
{
1002
}
1000
BLATT
1070
     4
1000
3
1002
{
1002
}
1000
BENENN
1070
     4
1000
5
1002
{
1002
}
1000
BENENN2
1070
     4
1000
6
1002
{
1002
}
1000
NORM
1070
     4
1000
7
1002
{
1002
}
1000
NORM2
1070
     4
1000
8
1002
{
1002
}
1000
WERKSTOFF
1070
     4
1000
9
1002
{
1002
}
1000
WERKSTOFF2
1070
     4
1000
10
1002
{
1002
}
1002
}
1000
DIN987
1070
     0
1002
{
1000
POSITION
1070
     4
1000
1
1002
{
1002
}
1000
MENGE
1070
     4
1000
2
1002
{
1002
}
1000
BLATT
1070
     4
1000
3
1002
{
1002
}
1000
BENENN
1070
     4
1000
5
1002
{
1002
}
1000
BENENN2
1070
     4
1000
6
1002
{
1002
}
1000
NORM
1070
     4
1000
7
1002
{
1002
}
1000
NORM2
1070
     4
1000
8
1002
{
1002
}
1000
WERKSTOFF
1070
     4
1000
9
1002
{
1002
}
1000
WERKSTOFF2
1070
     4
1000
10
1002
{
1002
}
1002
}
1002
}
  0
APPID
  5
2B
330
9
100
AcDbSymbolTableRecord
100
AcDbRegAppTableRecord
  2
GENIUS_GENCFG1_13
 70
     0
1001
GENIUS_GENCFG_13
1071
862825278
1000
2B
1000
GEN@LAYER@DEFS
1070
     9
1000
GenCfgObject
1000
GenCfgShort
1000
GenCfgReal
1000
GenCfgBool
1000
GenCfgString
1000
GenCfgDim
1000
GenCfgAttrInf
1000
GenCfgLaySection
1000
GenCfgLayer
1000
Basic
1070
     0
1002
{
1000
0
1070
     8
1000
0
1002
{
1000
Color
1070
     1
1070
     7
1002
{
1002
}
1000
LType
1070
     4
1000
CONTINUOUS
1002
{
1002
}
1000
Base
1070
     3
1070
     0
1002
{
1002
}
1002
}
1000
1
1070
     8
1000
1
1002
{
1000
Color
1070
     1
1070
    14
1002
{
1002
}
1000
LType
1070
     4
1000
CONTINUOUS
1002
{
1002
}
1000
Base
1070
     3
1070
     0
1002
{
1002
}
1002
}
1000
2
1070
     8
1000
2
1002
{
1000
Color
1070
     1
1070
     5
1002
{
1002
}
1000
LType
1070
     4
1000
CONTINUOUS
1002
{
1002
}
1000
Base
1070
     3
1070
     0
1002
{
1002
}
1002
}
1000
3
1070
     8
1000
3
1002
{
1000
Color
1070
     1
1070
     6
1002
{
1002
}
1000
LType
1070
     4
1000
GEN3
1002
{
1002
}
1000
Base
1070
     3
1070
     0
1002
{
1002
}
1002
}
1000
4
1070
     8
1000
4
1002
{
1000
Color
1070
     1
1070
     3
1002
{
1002
}
1000
LType
1070
     4
1000
CONTINUOUS
1002
{
1002
}
1000
Base
1070
     3
1070
     0
1002
{
1002
}
1002
}
1000
5
1070
     8
1000
5
1002
{
1000
Color
1070
     1
1070
     3
1002
{
1002
}
1000
LType
1070
     4
1000
CONTINUOUS
1002
{
1002
}
1000
Base
1070
     3
1070
     0
1002
{
1002
}
1002
}
1000
6
1070
     8
1000
6
1002
{
1000
Color
1070
     1
1070
     2
1002
{
1002
}
1000
LType
1070
     4
1000
CONTINUOUS
1002
{
1002
}
1000
Base
1070
     3
1070
     0
1002
{
1002
}
1002
}
1000
7
1070
     8
1000
7
1002
{
1000
Color
1070
     1
1070
     4
1002
{
1002
}
1000
LType
1070
     4
1000
GEN7
1002
{
1002
}
1000
Base
1070
     3
1070
     0
1002
{
1002
}
1002
}
1000
8
1070
     8
1000
8
1002
{
1000
Color
1070
     1
1070
     1
1002
{
1002
}
1000
LType
1070
     4
1000
CONTINUOUS
1002
{
1002
}
1000
Base
1070
     3
1070
     0
1002
{
1002
}
1002
}
1000
3A
1070
     8
1000
3A
1002
{
1000
Color
1070
     1
1070
     6
1002
{
1002
}
1000
LType
1070
     4
1000
GEN3A
1002
{
1002
}
1000
Base
1070
     3
1070
     0
1002
{
1002
}
1002
}
1000
7A
1070
     8
1000
7A
1002
{
1000
Color
1070
     1
1070
     4
1002
{
1002
}
1000
LType
1070
     4
1000
GEN7A
1002
{
1002
}
1000
Base
1070
     3
1070
     0
1002
{
1002
}
1002
}
1000
2A
1070
     8
1000
2A
1002
{
1000
Color
1070
     1
1070
     7
1002
{
1002
}
1000
LType
1070
     4
1000
GEN7
1002
{
1002
}
1000
Base
1070
     3
1070
     0
1002
{
1002
}
1002
}
1000
4A
1070
     8
1000
4A
1002
{
1000
Color
1070
     1
1070
     3
1002
{
1002
}
1000
LType
1070
     4
1000
GEN4A
1002
{
1002
}
1000
Base
1070
     3
1070
     0
1002
{
1002
}
1002
}
1000
9
1070
     8
1000
9
1002
{
1000
Color
1070
     1
1070
   253
1002
{
1002
}
1000
LType
1070
     4
1000
CONTINUOUS
1002
{
1002
}
1000
Base
1070
     3
1070
     0
1002
{
1002
}
1002
}
1002
}
1000
Standard
1070
     0
1002
{
1000
0N
1070
     8
1000
0N
1002
{
1000
Color
1070
     1
1070
     7
1002
{
1002
}
1000
LType
1070
     4
1000
CONTINUOUS
1002
{
1002
}
1000
Base
1070
     3
1070
     0
1002
{
1002
}
1002
}
1000
1N
1070
     8
1000
1N
1002
{
1000
Color
1070
     1
1070
    14
1002
{
1002
}
1000
LType
1070
     4
1000
CONTINUOUS
1002
{
1002
}
1000
Base
1070
     3
1070
     0
1002
{
1002
}
1002
}
1000
2N
1070
     8
1000
2N
1002
{
1000
Color
1070
     1
1070
     5
1002
{
1002
}
1000
LType
1070
     4
1000
CONTINUOUS
1002
{
1002
}
1000
Base
1070
     3
1070
     0
1002
{
1002
}
1002
}
1000
3N
1070
     8
1000
3N
1002
{
1000
Color
1070
     1
1070
     6
1002
{
1002
}
1000
LType
1070
     4
1000
GEN3
1002
{
1002
}
1000
Base
1070
     3
1070
     0
1002
{
1002
}
1002
}
1000
4N
1070
     8
1000
4N
1002
{
1000
Color
1070
     1
1070
     3
1002
{
1002
}
1000
LType
1070
     4
1000
CONTINUOUS
1002
{
1002
}
1000
Base
1070
     3
1070
     0
1002
{
1002
}
1002
}
1000
5N
1070
     8
1000
5N
1002
{
1000
Color
1070
     1
1070
     3
1002
{
1002
}
1000
LType
1070
     4
1000
CONTINUOUS
1002
{
1002
}
1000
Base
1070
     3
1070
     0
1002
{
1002
}
1002
}
1000
6N
1070
     8
1000
6N
1002
{
1000
Color
1070
     1
1070
     2
1002
{
1002
}
1000
LType
1070
     4
1000
CONTINUOUS
1002
{
1002
}
1000
Base
1070
     3
1070
     0
1002
{
1002
}
1002
}
1000
7N
1070
     8
1000
7N
1002
{
1000
Color
1070
     1
1070
     4
1002
{
1002
}
1000
LType
1070
     4
1000
GEN7
1002
{
1002
}
1000
Base
1070
     3
1070
     0
1002
{
1002
}
1002
}
1000
8N
1070
     8
1000
8N
1002
{
1000
Color
1070
     1
1070
     1
1002
{
1002
}
1000
LType
1070
     4
1000
CONTINUOUS
1002
{
1002
}
1000
Base
1070
     3
1070
     0
1002
{
1002
}
1002
}
1000
3AN
1070
     8
1000
3AN
1002
{
1000
Color
1070
     1
1070
     6
1002
{
1002
}
1000
LType
1070
     4
1000
GEN3A
1002
{
1002
}
1000
Base
1070
     3
1070
     0
1002
{
1002
}
1002
}
1000
7AN
1070
     8
1000
7AN
1002
{
1000
Color
1070
     1
1070
     4
1002
{
1002
}
1000
LType
1070
     4
1000
GEN7A
1002
{
1002
}
1000
Base
1070
     3
1070
     0
1002
{
1002
}
1002
}
1000
2AN
1070
     8
1000
2AN
1002
{
1000
Color
1070
     1
1070
     7
1002
{
1002
}
1000
LType
1070
     4
1000
GEN7
1002
{
1002
}
1000
Base
1070
     3
1070
     0
1002
{
1002
}
1002
}
1000
4AN
1070
     8
1000
4AN
1002
{
1000
Color
1070
     1
1070
     3
1002
{
1002
}
1000
LType
1070
     4
1000
GEN4A
1002
{
1002
}
1000
Base
1070
     3
1070
     0
1002
{
1002
}
1002
}
1000
9N
1070
     8
1000
9N
1002
{
1000
Color
1070
     1
1070
   253
1002
{
1002
}
1000
LType
1070
     4
1000
CONTINUOUS
1002
{
1002
}
1000
Base
1070
     3
1070
     0
1002
{
1002
}
1002
}
1002
}
1000
Extra
1070
     0
1002
{
1000
Klin
1070
     8
1000
KLIN
1002
{
1000
Color
1070
     1
1070
     1
1002
{
1002
}
1000
LType
1070
     4
1000
CONTINUOUS
1002
{
1002
}
1000
Base
1070
     3
1070
     1
1002
{
1002
}
1002
}
1000
Info
1070
     8
1000
INFO
1002
{
1000
Color
1070
     1
1070
     4
1002
{
1002
}
1000
LType
1070
     4
1000
CONTINUOUS
1002
{
1002
}
1000
Base
1070
     3
1070
     1
1002
{
1002
}
1002
}
1000
Rahm2
1070
     8
1000
RAHM2
1002
{
1000
Color
1070
     1
1070
     1
1002
{
1002
}
1000
LType
1070
     4
1000
CONTINUOUS
1002
{
1002
}
1000
Base
1070
     3
1070
     1
1002
{
1002
}
1002
}
1000
Rahm3
1070
     8
1000
RAHM3
1002
{
1000
Color
1070
     1
1070
     2
1002
{
1002
}
1000
LType
1070
     4
1000
CONTINUOUS
1002
{
1002
}
1000
Base
1070
     3
1070
     1
1002
{
1002
}
1002
}
1000
Rahm5
1070
     8
1000
RAHM5
1002
{
1000
Color
1070
     1
1070
     7
1002
{
1002
}
1000
LType
1070
     4
1000
CONTINUOUS
1002
{
1002
}
1000
Base
1070
     3
1070
     1
1002
{
1002
}
1002
}
1000
View
1070
     8
1000
VIEW
1002
{
1000
Color
1070
     1
1070
     1
1002
{
1002
}
1000
LType
1070
     4
1000
CONTINUOUS
1002
{
1002
}
1000
Base
1070
     3
1070
     1
1002
{
1002
}
1002
}
1000
Behind
1070
     8
1000
BEHIND
1002
{
1000
Color
1070
     1
1070
   253
1002
{
1002
}
1000
LType
1070
     4
1000
CONTINUOUS
1002
{
1002
}
1000
Base
1070
     3
1070
     1
1002
{
1002
}
1002
}
1002
}
  0
APPID
  5
2C
330
9
100
AcDbSymbolTableRecord
100
AcDbRegAppTableRecord
  2
GENIUS_GENCFG2_13
 70
     0
1001
GENIUS_GENCFG_13
1071
862825278
1000
2C
1000
GEN@LAYER@ENTSORT
1070
    10
1000
GenCfgObject
1000
GenCfgShort
1000
GenCfgReal
1000
GenCfgBool
1000
GenCfgString
1000
GenCfgDim
1000
GenCfgAttrInf
1000
GenCfgLaySection
1000
GenCfgLayer
1000
GenCfgEntSort
1000
ALTR
1070
     9
1000
4
1002
{
1000
Class
1070
     4
1000

1002
{
1002
}
1000
Color
1070
     1
1070
     7
1002
{
1002
}
1000
LType
1070
     4
1000
GEN3A
1002
{
1002
}
1002
}
1000
BELI
1070
     9
1000
4
1002
{
1000
Class
1070
     4
1000

1002
{
1002
}
1000
Color
1070
     1
1070
   256
1002
{
1002
}
1000
LType
1070
     4
1000
BYLAYER
1002
{
1002
}
1002
}
1000
BHNV
1070
     9
1000
9
1002
{
1000
Class
1070
     4
1000
INV
1002
{
1002
}
1000
Color
1070
     1
1070
   256
1002
{
1002
}
1000
LType
1070
     4
1000
BYLAYER
1002
{
1002
}
1002
}
1000
BHNVS
1070
     9
1000
BEHIND
1002
{
1000
Class
1070
     4
1000
INV
1002
{
1002
}
1000
Color
1070
     1
1070
   256
1002
{
1002
}
1000
LType
1070
     4
1000
BYLAYER
1002
{
1002
}
1002
}
1000
BLID
1070
     9
1000
4A
1002
{
1000
Class
1070
     4
1000

1002
{
1002
}
1000
Color
1070
     1
1070
   256
1002
{
1002
}
1000
LType
1070
     4
1000
BYLAYER
1002
{
1002
}
1002
}
1000
BOAP
1070
     9
1000
4A
1002
{
1000
Class
1070
     4
1000

1002
{
1002
}
1000
Color
1070
     1
1070
   256
1002
{
1002
}
1000
LType
1070
     4
1000
BYLAYER
1002
{
1002
}
1002
}
1000
BOR2
1070
     9
1000
RAHM2
1002
{
1000
Class
1070
     4
1000
SPZ,SYM
1002
{
1002
}
1000
Color
1070
     1
1070
   256
1002
{
1002
}
1000
LType
1070
     4
1000
BYLAYER
1002
{
1002
}
1002
}
1000
BOR3
1070
     9
1000
RAHM3
1002
{
1000
Class
1070
     4
1000
SPZ,SYM
1002
{
1002
}
1000
Color
1070
     1
1070
   256
1002
{
1002
}
1000
LType
1070
     4
1000
BYLAYER
1002
{
1002
}
1002
}
1000
BOR5
1070
     9
1000
RAHM5
1002
{
1000
Class
1070
     4
1000
SPZ,SYM
1002
{
1002
}
1000
Color
1070
     1
1070
   256
1002
{
1002
}
1000
LType
1070
     4
1000
BYLAYER
1002
{
1002
}
1002
}
1000
BOR7
1070
     9
1000
RAHM5
1002
{
1000
Class
1070
     4
1000
SPZ,SYM
1002
{
1002
}
1000
Color
1070
     1
1070
     7
1002
{
1002
}
1000
LType
1070
     4
1000
CONTINUOUS
1002
{
1002
}
1002
}
1000
BPAP
1070
     9
1000
4A
1002
{
1000
Class
1070
     4
1000

1002
{
1002
}
1000
Color
1070
     1
1070
   256
1002
{
1002
}
1000
LType
1070
     4
1000
BYLAYER
1002
{
1002
}
1002
}
1000
BPEX
1070
     9
1000
4A
1002
{
1000
Class
1070
     4
1000

1002
{
1002
}
1000
Color
1070
     1
1070
   256
1002
{
1002
}
1000
LType
1070
     4
1000
BYLAYER
1002
{
1002
}
1002
}
1000
BTDI
1070
     9
1000
5
1002
{
1000
Class
1070
     4
1000
DIM,SYM
1002
{
1002
}
1000
Color
1070
     1
1070
   256
1002
{
1002
}
1000
LType
1070
     4
1000
BYLAYER
1002
{
1002
}
1002
}
1000
CAL2
1070
     9
1000
4
1002
{
1000
Class
1070
     4
1000
SYM
1002
{
1002
}
1000
Color
1070
     1
1070
   256
1002
{
1002
}
1000
LType
1070
     4
1000
BYLAYER
1002
{
1002
}
1002
}
1000
CAL3
1070
     9
1000
4
1002
{
1000
Class
1070
     4
1000
SYM
1002
{
1002
}
1000
Color
1070
     1
1070
     2
1002
{
1002
}
1000
LType
1070
     4
1000
BYLAYER
1002
{
1002
}
1002
}
1000
CAL5
1070
     9
1000
4
1002
{
1000
Class
1070
     4
1000
SYM
1002
{
1002
}
1000
Color
1070
     1
1070
     7
1002
{
1002
}
1000
LType
1070
     4
1000
BYLAYER
1002
{
1002
}
1002
}
1000
CAL7
1070
     9
1000
4
1002
{
1000
Class
1070
     4
1000
SYM
1002
{
1002
}
1000
Color
1070
     1
1070
     5
1002
{
1002
}
1000
LType
1070
     4
1000
BYLAYER
1002
{
1002
}
1002
}
1000
CENN
1070
     9
1000
7A
1002
{
1000
Class
1070
     4
1000
CEN
1002
{
1002
}
1000
Color
1070
     1
1070
   256
1002
{
1002
}
1000
LType
1070
     4
1000
BYLAYER
1002
{
1002
}
1002
}
1000
CENW
1070
     9
1000
7
1002
{
1000
Class
1070
     4
1000
CEN
1002
{
1002
}
1000
Color
1070
     1
1070
   256
1002
{
1002
}
1000
LType
1070
     4
1000
BYLAYER
1002
{
1002
}
1002
}
1000
CLIN
1070
     9
1000
KLIN
1002
{
1000
Class
1070
     4
1000
SPZ
1002
{
1002
}
1000
Color
1070
     1
1070
   256
1002
{
1002
}
1000
LType
1070
     4
1000
BYLAYER
1002
{
1002
}
1002
}
1000
CON1
1070
     9
1000
0
1002
{
1000
Class
1070
     4
1000
CON,BGD
1002
{
1002
}
1000
Color
1070
     1
1070
   256
1002
{
1002
}
1000
LType
1070
     4
1000
BYLAYER
1002
{
1002
}
1002
}
1000
CON2
1070
     9
1000
1
1002
{
1000
Class
1070
     4
1000
CON,BGD
1002
{
1002
}
1000
Color
1070
     1
1070
   256
1002
{
1002
}
1000
LType
1070
     4
1000
BYLAYER
1002
{
1002
}
1002
}
1000
CON3
1070
     9
1000
2
1002
{
1000
Class
1070
     4
1000
CON,BGD
1002
{
1002
}
1000
Color
1070
     1
1070
   256
1002
{
1002
}
1000
LType
1070
     4
1000
BYLAYER
1002
{
1002
}
1002
}
1000
CON4
1070
     9
1000
2
1002
{
1000
Class
1070
     4
1000
CON,BGD
1002
{
1002
}
1000
Color
1070
     1
1070
   256
1002
{
1002
}
1000
LType
1070
     4
1000
BYLAYER
1002
{
1002
}
1002
}
1000
DERP
1070
     9
1000
4
1002
{
1000
Class
1070
     4
1000

1002
{
1002
}
1000
Color
1070
     1
1070
   256
1002
{
1002
}
1000
LType
1070
     4
1000
BYLAYER
1002
{
1002
}
1002
}
1000
DETA
1070
     9
1000
4
1002
{
1000
Class
1070
     4
1000

1002
{
1002
}
1000
Color
1070
     1
1070
   256
1002
{
1002
}
1000
LType
1070
     4
1000
BYLAYER
1002
{
1002
}
1002
}
1000
DIAG
1070
     9
1000
5
1002
{
1000
Class
1070
     4
1000
SYM
1002
{
1002
}
1000
Color
1070
     1
1070
   256
1002
{
1002
}
1000
LType
1070
     4
1000
BYLAYER
1002
{
1002
}
1002
}
1000
DILI
1070
     9
1000
5
1002
{
1000
Class
1070
     4
1000
DIM,SYM
1002
{
1002
}
1000
Color
1070
     1
1070
   256
1002
{
1002
}
1000
LType
1070
     4
1000
BYLAYER
1002
{
1002
}
1002
}
1000
DITX
1070
     9
1000
5
1002
{
1000
Class
1070
     4
1000
DIM,SYM
1002
{
1002
}
1000
Color
1070
     1
1070
     2
1002
{
1002
}
1000
LType
1070
     4
1000
CONTINUOUS
1002
{
1002
}
1002
}
1000
DITO2
1070
     9
1000
5
1002
{
1000
Class
1070
     4
1000
DIM,SYM
1002
{
1002
}
1000
Color
1070
     1
1070
     3
1002
{
1002
}
1000
LType
1070
     4
1000
BYLAYER
1002
{
1002
}
1002
}
1000
DITO3
1070
     9
1000
5
1002
{
1000
Class
1070
     4
1000
DIM,SYM
1002
{
1002
}
1000
Color
1070
     1
1070
     2
1002
{
1002
}
1000
LType
1070
     4
1000
BYLAYER
1002
{
1002
}
1002
}
1000
DIXL
1070
     9
1000
5
1002
{
1000
Class
1070
     4
1000
DIM,SYM
1002
{
1002
}
1000
Color
1070
     1
1070
   256
1002
{
1002
}
1000
LType
1070
     4
1000
BYLAYER
1002
{
1002
}
1002
}
1000
EXMP
1070
     9
1000
4A
1002
{
1000
Class
1070
     4
1000

1002
{
1002
}
1000
Color
1070
     1
1070
   256
1002
{
1002
}
1000
LType
1070
     4
1000
BYLAYER
1002
{
1002
}
1002
}
1000
FEMN
1070
     9
1000
8
1002
{
1000
Class
1070
     4
1000

1002
{
1002
}
1000
Color
1070
     1
1070
   256
1002
{
1002
}
1000
LType
1070
     4
1000
BYLAYER
1002
{
1002
}
1002
}
1000
FEMPN
1070
     9
1000
8
1002
{
1000
Class
1070
     4
1000
SYM
1002
{
1002
}
1000
Color
1070
     1
1070
     3
1002
{
1002
}
1000
LType
1070
     4
1000
BYLAYER
1002
{
1002
}
1002
}
1000
FEMSP
1070
     9
1000
4A
1002
{
1000
Class
1070
     4
1000

1002
{
1002
}
1000
Color
1070
     1
1070
   256
1002
{
1002
}
1000
LType
1070
     4
1000
CONTINUOUS
1002
{
1002
}
1002
}
1000
FEMST
1070
     9
1000
4A
1002
{
1000
Class
1070
     4
1000
SYM
1002
{
1002
}
1000
Color
1070
     1
1070
     3
1002
{
1002
}
1000
LType
1070
     4
1000
BYLAYER
1002
{
1002
}
1002
}
1000
FEMVN
1070
     9
1000
2
1002
{
1000
Class
1070
     4
1000
CON
1002
{
1002
}
1000
Color
1070
     1
1070
   256
1002
{
1002
}
1000
LType
1070
     4
1000
BYLAYER
1002
{
1002
}
1002
}
1000
FEMVT
1070
     9
1000
2
1002
{
1000
Class
1070
     4
1000
SYM
1002
{
1002
}
1000
Color
1070
     1
1070
     3
1002
{
1002
}
1000
LType
1070
     4
1000
BYLAYER
1002
{
1002
}
1002
}
1000
FLAT
1070
     9
1000
0
1002
{
1000
Class
1070
     4
1000

1002
{
1002
}
1000
Color
1070
     1
1070
   256
1002
{
1002
}
1000
LType
1070
     4
1000
BYLAYER
1002
{
1002
}
1002
}
1000
FRAR
1070
     9
1000
4A
1002
{
1000
Class
1070
     4
1000

1002
{
1002
}
1000
Color
1070
     1
1070
   256
1002
{
1002
}
1000
LType
1070
     4
1000
BYLAYER
1002
{
1002
}
1002
}
1000
GRLI
1070
     9
1000
5
1002
{
1000
Class
1070
     4
1000
SYM
1002
{
1002
}
1000
Color
1070
     1
1070
   256
1002
{
1002
}
1000
LType
1070
     4
1000
BYLAYER
1002
{
1002
}
1002
}
1000
GVLI
1070
     9
1000
4A
1002
{
1000
Class
1070
     4
1000

1002
{
1002
}
1000
Color
1070
     1
1070
   256
1002
{
1002
}
1000
LType
1070
     4
1000
BYLAYER
1002
{
1002
}
1002
}
1000
HATC
1070
     9
1000
8
1002
{
1000
Class
1070
     4
1000
HTC,BGD
1002
{
1002
}
1000
Color
1070
     1
1070
   256
1002
{
1002
}
1000
LType
1070
     4
1000
BYLAYER
1002
{
1002
}
1002
}
1000
HIDN
1070
     9
1000
3A
1002
{
1000
Class
1070
     4
1000
HID,BGD
1002
{
1002
}
1000
Color
1070
     1
1070
   256
1002
{
1002
}
1000
LType
1070
     4
1000
BYLAYER
1002
{
1002
}
1002
}
1000
HIDW
1070
     9
1000
3
1002
{
1000
Class
1070
     4
1000
HID,BGD
1002
{
1002
}
1000
Color
1070
     1
1070
   256
1002
{
1002
}
1000
LType
1070
     4
1000
BYLAYER
1002
{
1002
}
1002
}
1000
HLIN
1070
     9
1000
4
1002
{
1000
Class
1070
     4
1000
BGD
1002
{
1002
}
1000
Color
1070
     1
1070
   256
1002
{
1002
}
1000
LType
1070
     4
1000
BYLAYER
1002
{
1002
}
1002
}
1000
HOCN
1070
     9
1000
7A
1002
{
1000
Class
1070
     4
1000
CEN
1002
{
1002
}
1000
Color
1070
     1
1070
   256
1002
{
1002
}
1000
LType
1070
     4
1000
BYLAYER
1002
{
1002
}
1002
}
1000
HOCW
1070
     9
1000
7
1002
{
1000
Class
1070
     4
1000
CEN
1002
{
1002
}
1000
Color
1070
     1
1070
   256
1002
{
1002
}
1000
LType
1070
     4
1000
BYLAYER
1002
{
1002
}
1002
}
1000
INFO
1070
     9
1000
INFO
1002
{
1000
Class
1070
     4
1000
SPZ,SYM
1002
{
1002
}
1000
Color
1070
     1
1070
   256
1002
{
1002
}
1000
LType
1070
     4
1000
BYLAYER
1002
{
1002
}
1002
}
1000
LADI
1070
     9
1000
4
1002
{
1000
Class
1070
     4
1000
BGD
1002
{
1002
}
1000
Color
1070
     1
1070
   256
1002
{
1002
}
1000
LType
1070
     4
1000
BYLAYER
1002
{
1002
}
1002
}
1000
LEAD
1070
     9
1000
5
1002
{
1000
Class
1070
     4
1000
SYM
1002
{
1002
}
1000
Color
1070
     1
1070
   256
1002
{
1002
}
1000
LType
1070
     4
1000
BYLAYER
1002
{
1002
}
1002
}
1000
N_BHNV
1070
     9
1000
9N
1002
{
1000
Class
1070
     4
1000
INV
1002
{
1002
}
1000
Color
1070
     1
1070
   256
1002
{
1002
}
1000
LType
1070
     4
1000
BYLAYER
1002
{
1002
}
1002
}
1000
N_CON1
1070
     9
1000
0N
1002
{
1000
Class
1070
     4
1000
CON,BGD
1002
{
1002
}
1000
Color
1070
     1
1070
   256
1002
{
1002
}
1000
LType
1070
     4
1000
BYLAYER
1002
{
1002
}
1002
}
1000
N_CON2
1070
     9
1000
1N
1002
{
1000
Class
1070
     4
1000
CON,BGD
1002
{
1002
}
1000
Color
1070
     1
1070
   256
1002
{
1002
}
1000
LType
1070
     4
1000
BYLAYER
1002
{
1002
}
1002
}
1000
N_CON3
1070
     9
1000
2N
1002
{
1000
Class
1070
     4
1000
CON,BGD
1002
{
1002
}
1000
Color
1070
     1
1070
   256
1002
{
1002
}
1000
LType
1070
     4
1000
BYLAYER
1002
{
1002
}
1002
}
1000
N_CON4
1070
     9
1000
2N
1002
{
1000
Class
1070
     4
1000
CON,BGD
1002
{
1002
}
1000
Color
1070
     1
1070
   256
1002
{
1002
}
1000
LType
1070
     4
1000
BYLAYER
1002
{
1002
}
1002
}
1000
N_CENN
1070
     9
1000
7AN
1002
{
1000
Class
1070
     4
1000
CEN
1002
{
1002
}
1000
Color
1070
     1
1070
   256
1002
{
1002
}
1000
LType
1070
     4
1000
BYLAYER
1002
{
1002
}
1002
}
1000
N_CENW
1070
     9
1000
7N
1002
{
1000
Class
1070
     4
1000
CEN
1002
{
1002
}
1000
Color
1070
     1
1070
   256
1002
{
1002
}
1000
LType
1070
     4
1000
BYLAYER
1002
{
1002
}
1002
}
1000
N_DILI
1070
     9
1000
5N
1002
{
1000
Class
1070
     4
1000
DIM,SYM
1002
{
1002
}
1000
Color
1070
     1
1070
   256
1002
{
1002
}
1000
LType
1070
     4
1000
BYLAYER
1002
{
1002
}
1002
}
1000
N_DITX
1070
     9
1000
5N
1002
{
1000
Class
1070
     4
1000
DIM,SYM
1002
{
1002
}
1000
Color
1070
     1
1070
     2
1002
{
1002
}
1000
LType
1070
     4
1000
CONTINUOUS
1002
{
1002
}
1002
}
1000
N_DIXL
1070
     9
1000
5N
1002
{
1000
Class
1070
     4
1000
DIM,SYM
1002
{
1002
}
1000
Color
1070
     1
1070
   256
1002
{
1002
}
1000
LType
1070
     4
1000
BYLAYER
1002
{
1002
}
1002
}
1000
N_HATC
1070
     9
1000
8N
1002
{
1000
Class
1070
     4
1000
HTC,BGD
1002
{
1002
}
1000
Color
1070
     1
1070
   256
1002
{
1002
}
1000
LType
1070
     4
1000
BYLAYER
1002
{
1002
}
1002
}
1000
N_HIDN
1070
     9
1000
3AN
1002
{
1000
Class
1070
     4
1000
HID,BGD
1002
{
1002
}
1000
Color
1070
     1
1070
   256
1002
{
1002
}
1000
LType
1070
     4
1000
BYLAYER
1002
{
1002
}
1002
}
1000
N_HIDW
1070
     9
1000
3N
1002
{
1000
Class
1070
     4
1000
HID,BGD
1002
{
1002
}
1000
Color
1070
     1
1070
   256
1002
{
1002
}
1000
LType
1070
     4
1000
BYLAYER
1002
{
1002
}
1002
}
1000
N_PHAN
1070
     9
1000
4AN
1002
{
1000
Class
1070
     4
1000

1002
{
1002
}
1000
Color
1070
     1
1070
   256
1002
{
1002
}
1000
LType
1070
     4
1000
BYLAYER
1002
{
1002
}
1002
}
1000
N_POSL
1070
     9
1000
5N
1002
{
1000
Class
1070
     4
1000
SYM
1002
{
1002
}
1000
Color
1070
     1
1070
   256
1002
{
1002
}
1000
LType
1070
     4
1000
BYLAYER
1002
{
1002
}
1002
}
1000
N_TCON
1070
     9
1000
0N
1002
{
1000
Class
1070
     4
1000
CON,BGD
1002
{
1002
}
1000
Color
1070
     1
1070
   256
1002
{
1002
}
1000
LType
1070
     4
1000
BYLAYER
1002
{
1002
}
1002
}
1000
N_THLI
1070
     9
1000
4N
1002
{
1000
Class
1070
     4
1000
BGD
1002
{
1002
}
1000
Color
1070
     1
1070
   256
1002
{
1002
}
1000
LType
1070
     4
1000
BYLAYER
1002
{
1002
}
1002
}
1000
N_TLEN
1070
     9
1000
0N
1002
{
1000
Class
1070
     4
1000
CON,BGD
1002
{
1002
}
1000
Color
1070
     1
1070
   256
1002
{
1002
}
1000
LType
1070
     4
1000
BYLAYER
1002
{
1002
}
1002
}
1000
N_TXT3
1070
     9
1000
6N
1002
{
1000
Class
1070
     4
1000
SYM
1002
{
1002
}
1000
Color
1070
     1
1070
   256
1002
{
1002
}
1000
LType
1070
     4
1000
BYLAYER
1002
{
1002
}
1002
}
1000
N_VPLI
1070
     9
1000
2AN
1002
{
1000
Class
1070
     4
1000

1002
{
1002
}
1000
Color
1070
     1
1070
   256
1002
{
1002
}
1000
LType
1070
     4
1000
BYLAYER
1002
{
1002
}
1002
}
1000
PAL2
1070
     9
1000
RAHM2
1002
{
1000
Class
1070
     4
1000
SPZ,SYM
1002
{
1002
}
1000
Color
1070
     1
1070
   256
1002
{
1002
}
1000
LType
1070
     4
1000
BYLAYER
1002
{
1002
}
1002
}
1000
PAL3
1070
     9
1000
RAHM3
1002
{
1000
Class
1070
     4
1000
SPZ,SYM
1002
{
1002
}
1000
Color
1070
     1
1070
   256
1002
{
1002
}
1000
LType
1070
     4
1000
BYLAYER
1002
{
1002
}
1002
}
1000
PAL5
1070
     9
1000
RAHM5
1002
{
1000
Class
1070
     4
1000
SPZ,SYM
1002
{
1002
}
1000
Color
1070
     1
1070
   256
1002
{
1002
}
1000
LType
1070
     4
1000
BYLAYER
1002
{
1002
}
1002
}
1000
PAL7
1070
     9
1000
RAHM5
1002
{
1000
Class
1070
     4
1000
SPZ,SYM
1002
{
1002
}
1000
Color
1070
     1
1070
     7
1002
{
1002
}
1000
LType
1070
     4
1000
CONTINUOUS
1002
{
1002
}
1002
}
1000
PHAN
1070
     9
1000
4A
1002
{
1000
Class
1070
     4
1000

1002
{
1002
}
1000
Color
1070
     1
1070
   256
1002
{
1002
}
1000
LType
1070
     4
1000
BYLAYER
1002
{
1002
}
1002
}
1000
POSL
1070
     9
1000
5
1002
{
1000
Class
1070
     4
1000
SYM
1002
{
1002
}
1000
Color
1070
     1
1070
   256
1002
{
1002
}
1000
LType
1070
     4
1000
BYLAYER
1002
{
1002
}
1002
}
1000
POSN
1070
     9
1000
6
1002
{
1000
Class
1070
     4
1000
SYM
1002
{
1002
}
1000
Color
1070
     1
1070
     7
1002
{
1002
}
1000
LType
1070
     4
1000
BYLAYER
1002
{
1002
}
1002
}
1000
POSREF
1070
     9
1000
6
1002
{
1000
Class
1070
     4
1000
SYM
1002
{
1002
}
1000
Color
1070
     1
1070
     5
1002
{
1002
}
1000
LType
1070
     4
1000
BYLAYER
1002
{
1002
}
1002
}
1000
POSX
1070
     9
1000
5
1002
{
1000
Class
1070
     4
1000
SYM
1002
{
1002
}
1000
Color
1070
     1
1070
     2
1002
{
1002
}
1000
LType
1070
     4
1000
CONTINUOUS
1002
{
1002
}
1002
}
1000
PSEC
1070
     9
1000
4A
1002
{
1000
Class
1070
     4
1000

1002
{
1002
}
1000
Color
1070
     1
1070
   256
1002
{
1002
}
1000
LType
1070
     4
1000
BYLAYER
1002
{
1002
}
1002
}
1000
RCGN
1070
     9
1000
7A
1002
{
1000
Class
1070
     4
1000
CEN
1002
{
1002
}
1000
Color
1070
     1
1070
   256
1002
{
1002
}
1000
LType
1070
     4
1000
BYLAYER
1002
{
1002
}
1002
}
1000
RCGW
1070
     9
1000
7
1002
{
1000
Class
1070
     4
1000
CEN
1002
{
1002
}
1000
Color
1070
     1
1070
   256
1002
{
1002
}
1000
LType
1070
     4
1000
BYLAYER
1002
{
1002
}
1002
}
1000
RFDI
1070
     9
1000
4
1002
{
1000
Class
1070
     4
1000
BGD
1002
{
1002
}
1000
Color
1070
     1
1070
   256
1002
{
1002
}
1000
LType
1070
     4
1000
BYLAYER
1002
{
1002
}
1002
}
1000
RQTR
1070
     9
1000
4
1002
{
1000
Class
1070
     4
1000

1002
{
1002
}
1000
Color
1070
     1
1070
     7
1002
{
1002
}
1000
LType
1070
     4
1000
GEN7A
1002
{
1002
}
1002
}
1000
RSBO
1070
     9
1000
4
1002
{
1000
Class
1070
     4
1000
BGD
1002
{
1002
}
1000
Color
1070
     1
1070
   256
1002
{
1002
}
1000
LType
1070
     4
1000
BYLAYER
1002
{
1002
}
1002
}
1000
SBRK
1070
     9
1000
4
1002
{
1000
Class
1070
     4
1000
BGD
1002
{
1002
}
1000
Color
1070
     1
1070
   256
1002
{
1002
}
1000
LType
1070
     4
1000
BYLAYER
1002
{
1002
}
1002
}
1000
SCEN
1070
     9
1000
7
1002
{
1000
Class
1070
     4
1000

1002
{
1002
}
1000
Color
1070
     1
1070
   256
1002
{
1002
}
1000
LType
1070
     4
1000
CONTINUOUS
1002
{
1002
}
1002
}
1000
SECT
1070
     9
1000
4
1002
{
1000
Class
1070
     4
1000
BGD
1002
{
1002
}
1000
Color
1070
     1
1070
   256
1002
{
1002
}
1000
LType
1070
     4
1000
BYLAYER
1002
{
1002
}
1002
}
1000
SELN
1070
     9
1000
7A
1002
{
1000
Class
1070
     4
1000

1002
{
1002
}
1000
Color
1070
     1
1070
   256
1002
{
1002
}
1000
LType
1070
     4
1000
BYLAYER
1002
{
1002
}
1002
}
1000
SELW
1070
     9
1000
7
1002
{
1000
Class
1070
     4
1000

1002
{
1002
}
1000
Color
1070
     1
1070
   256
1002
{
1002
}
1000
LType
1070
     4
1000
BYLAYER
1002
{
1002
}
1002
}
1000
SSYS
1070
     9
1000
0
1002
{
1000
Class
1070
     4
1000

1002
{
1002
}
1000
Color
1070
     1
1070
   256
1002
{
1002
}
1000
LType
1070
     4
1000
BYLAYER
1002
{
1002
}
1002
}
1000
STLI
1070
     9
1000
4
1002
{
1000
Class
1070
     4
1000

1002
{
1002
}
1000
Color
1070
     1
1070
     7
1002
{
1002
}
1000
LType
1070
     4
1000
GEN3A
1002
{
1002
}
1002
}
1000
SYB1
1070
     9
1000
5
1002
{
1000
Class
1070
     4
1000
SYM
1002
{
1002
}
1000
Color
1070
     1
1070
   256
1002
{
1002
}
1000
LType
1070
     4
1000
BYLAYER
1002
{
1002
}
1002
}
1000
SYB2
1070
     9
1000
5
1002
{
1000
Class
1070
     4
1000
SYM
1002
{
1002
}
1000
Color
1070
     1
1070
   256
1002
{
1002
}
1000
LType
1070
     4
1000
BYLAYER
1002
{
1002
}
1002
}
1000
SYB3
1070
     9
1000
6
1002
{
1000
Class
1070
     4
1000
SYM
1002
{
1002
}
1000
Color
1070
     1
1070
   256
1002
{
1002
}
1000
LType
1070
     4
1000
CONTINUOUS
1002
{
1002
}
1002
}
1000
SYB5
1070
     9
1000
5
1002
{
1000
Class
1070
     4
1000
SYM
1002
{
1002
}
1000
Color
1070
     1
1070
     7
1002
{
1002
}
1000
LType
1070
     4
1000
BYLAYER
1002
{
1002
}
1002
}
1000
SYMN
1070
     9
1000
7A
1002
{
1000
Class
1070
     4
1000
CEN
1002
{
1002
}
1000
Color
1070
     1
1070
   256
1002
{
1002
}
1000
LType
1070
     4
1000
BYLAYER
1002
{
1002
}
1002
}
1000
SYMW
1070
     9
1000
7
1002
{
1000
Class
1070
     4
1000
CEN
1002
{
1002
}
1000
Color
1070
     1
1070
   256
1002
{
1002
}
1000
LType
1070
     4
1000
BYLAYER
1002
{
1002
}
1002
}
1000
TCON
1070
     9
1000
0
1002
{
1000
Class
1070
     4
1000
CON,BGD
1002
{
1002
}
1000
Color
1070
     1
1070
   256
1002
{
1002
}
1000
LType
1070
     4
1000
BYLAYER
1002
{
1002
}
1002
}
1000
THLI
1070
     9
1000
4
1002
{
1000
Class
1070
     4
1000
BGD
1002
{
1002
}
1000
Color
1070
     1
1070
   256
1002
{
1002
}
1000
LType
1070
     4
1000
BYLAYER
1002
{
1002
}
1002
}
1000
TIT2
1070
     9
1000
RAHM2
1002
{
1000
Class
1070
     4
1000
SPZ,SYM
1002
{
1002
}
1000
Color
1070
     1
1070
   256
1002
{
1002
}
1000
LType
1070
     4
1000
BYLAYER
1002
{
1002
}
1002
}
1000
TIT3
1070
     9
1000
RAHM3
1002
{
1000
Class
1070
     4
1000
SPZ,SYM
1002
{
1002
}
1000
Color
1070
     1
1070
   256
1002
{
1002
}
1000
LType
1070
     4
1000
BYLAYER
1002
{
1002
}
1002
}
1000
TIT5
1070
     9
1000
RAHM5
1002
{
1000
Class
1070
     4
1000
SPZ,SYM
1002
{
1002
}
1000
Color
1070
     1
1070
   256
1002
{
1002
}
1000
LType
1070
     4
1000
BYLAYER
1002
{
1002
}
1002
}
1000
TIT7
1070
     9
1000
RAHM5
1002
{
1000
Class
1070
     4
1000
SPZ,SYM
1002
{
1002
}
1000
Color
1070
     1
1070
     7
1002
{
1002
}
1000
LType
1070
     4
1000
CONTINUOUS
1002
{
1002
}
1002
}
1000
TLEN
1070
     9
1000
0
1002
{
1000
Class
1070
     4
1000
CON,BGD
1002
{
1002
}
1000
Color
1070
     1
1070
   256
1002
{
1002
}
1000
LType
1070
     4
1000
BYLAYER
1002
{
1002
}
1002
}
1000
TRKN
1070
     9
1000
7A
1002
{
1000
Class
1070
     4
1000

1002
{
1002
}
1000
Color
1070
     1
1070
   256
1002
{
1002
}
1000
LType
1070
     4
1000
BYLAYER
1002
{
1002
}
1002
}
1000
TRKW
1070
     9
1000
7
1002
{
1000
Class
1070
     4
1000

1002
{
1002
}
1000
Color
1070
     1
1070
   256
1002
{
1002
}
1000
LType
1070
     4
1000
BYLAYER
1002
{
1002
}
1002
}
1000
TRLI
1070
     9
1000
4
1002
{
1000
Class
1070
     4
1000
BGD
1002
{
1002
}
1000
Color
1070
     1
1070
   256
1002
{
1002
}
1000
LType
1070
     4
1000
BYLAYER
1002
{
1002
}
1002
}
1000
TXT1
1070
     9
1000
6
1002
{
1000
Class
1070
     4
1000
SYM
1002
{
1002
}
1000
Color
1070
     1
1070
     2
1002
{
1002
}
1000
LType
1070
     4
1000
BYLAYER
1002
{
1002
}
1002
}
1000
TXT2
1070
     9
1000
6
1002
{
1000
Class
1070
     4
1000
SYM
1002
{
1002
}
1000
Color
1070
     1
1070
     2
1002
{
1002
}
1000
LType
1070
     4
1000
BYLAYER
1002
{
1002
}
1002
}
1000
TXT3
1070
     9
1000
6
1002
{
1000
Class
1070
     4
1000
SYM
1002
{
1002
}
1000
Color
1070
     1
1070
   256
1002
{
1002
}
1000
LType
1070
     4
1000
BYLAYER
1002
{
1002
}
1002
}
1000
TXT5
1070
     9
1000
6
1002
{
1000
Class
1070
     4
1000
SYM
1002
{
1002
}
1000
Color
1070
     1
1070
     7
1002
{
1002
}
1000
LType
1070
     4
1000
BYLAYER
1002
{
1002
}
1002
}
1000
TXT7
1070
     9
1000
6
1002
{
1000
Class
1070
     4
1000
SYM
1002
{
1002
}
1000
Color
1070
     1
1070
     7
1002
{
1002
}
1000
LType
1070
     4
1000
BYLAYER
1002
{
1002
}
1002
}
1000
VIEW
1070
     9
1000
VIEW
1002
{
1000
Class
1070
     4
1000
SPZ
1002
{
1002
}
1000
Color
1070
     1
1070
   256
1002
{
1002
}
1000
LType
1070
     4
1000
BYLAYER
1002
{
1002
}
1002
}
1000
VPLI
1070
     9
1000
2A
1002
{
1000
Class
1070
     4
1000

1002
{
1002
}
1000
Color
1070
     1
1070
   256
1002
{
1002
}
1000
LType
1070
     4
1000
BYLAYER
1002
{
1002
}
1002
}
1000
ZIZA
1070
     9
1000
4
1002
{
1000
Class
1070
     4
1000
BGD
1002
{
1002
}
1000
Color
1070
     1
1070
   256
1002
{
1002
}
1000
LType
1070
     4
1000
GENZIGZAG
1002
{
1002
}
1002
}
  0
APPID
  5
2D
330
9
100
AcDbSymbolTableRecord
100
AcDbRegAppTableRecord
  2
GENIUS_GENCFG3_13
 70
     0
1001
GENIUS_GENCFG_13
1071
862825278
1000
2D
1000
GEN@OSWIZ
1070
    12
1000
GenCfgObject
1000
GenCfgShort
1000
GenCfgReal
1000
GenCfgBool
1000
GenCfgString
1000
GenCfgDim
1000
GenCfgAttrInf
1000
GenCfgLaySection
1000
GenCfgLayer
1000
GenCfgEntSort
1000
GenCfgLType
1000
GenCfgFilter
1000
AngleStep
1070
     0
1002
{
1000
M
1070
     2
1040
10.0
1002
{
1002
}
1000
I
1070
     2
1040
0.4
1002
{
1002
}
1002
}
1000
AngleIncr
1070
     2
1040
45.0
1002
{
1002
}
1000
Filter
1070
     0
1002
{
1000
HATCH
1070
    11
1002
{
1000
EntityType
1070
     4
1000
LINE
1002
{
1002
}
1000
Layer
1070
     4
1000
8,8N,*-8,*-8N
1002
{
1002
}
1000
Linetype
1070
     4
1000
*
1002
{
1002
}
1000
Color
1070
     4
1000
*
1002
{
1002
}
1002
}
1000
SYMBOLS
1070
    11
1002
{
1000
EntityType
1070
     4
1000
*
1002
{
1002
}
1000
Layer
1070
     4
1000
[5-6],[5-6]N,*-[5-6],*-[5-6]N
1002
{
1002
}
1000
Linetype
1070
     4
1000
*
1002
{
1002
}
1000
Color
1070
     4
1000
*
1002
{
1002
}
1002
}
1000
FEM
1070
    11
1002
{
1000
EntityType
1070
     4
1000
*
1002
{
1002
}
1000
Layer
1070
     4
1000
4A,4AN,*-4A,*-4AN
1002
{
1002
}
1000
Linetype
1070
     4
1000
*
1002
{
1002
}
1000
Color
1070
     4
1000
*
1002
{
1002
}
1002
}
1002
}
1000
IconSize
1070
     2
1040
1.0
1002
{
1002
}
1000
SnapColor
1070
     1
1070
     3
1002
{
1002
}
  0
APPID
  5
2E
330
9
100
AcDbSymbolTableRecord
100
AcDbRegAppTableRecord
  2
GENIUS_GENCFG4_13
 70
     0
1001
GENIUS_GENCFG_13
1071
886403265
1000
2E
1000
GEN
1070
     9
1000
GenCfgObject
1000
GenCfgShort
1000
GenCfgReal
1000
GenCfgBool
1000
GenCfgString
1000
GenCfgDim
1000
GenCfgAttrInf
1000
GenCfgLaySection
1000
GenCfgLType
1000
Balloon
1070
     0
1002
{
1000
GenIF
1070
     1
1070
     0
1002
{
1002
}
1000
GenPosInc
1070
     1
1070
    10
1002
{
1002
}
1000
GenPosBlk
1070
     1
1070
     8
1002
{
1002
}
1000
GenPosVar
1070
     1
1070
     2
1002
{
1002
}
1000
GenZiCir
1070
     2
1040
1.5
1002
{
1002
}
1000
MaxCharForCenteredText
1070
     1
1070
    30
1002
{
1002
}
1000
Snap
1070
     0
1002
{
1000
ActivationRadius
1070
     2
1040
1.0
1002
{
1002
}
1000
M
1070
     0
1002
{
1000
SnapStepX
1070
     2
1040
20.0
1002
{
1002
}
1000
SnapStepY
1070
     2
1040
10.0
1002
{
1002
}
1002
}
1000
I
1070
     0
1002
{
1000
SnapStepX
1070
     2
1040
1.0
1002
{
1002
}
1000
SnapStepY
1070
     2
1040
0.5
1002
{
1002
}
1002
}
1002
}
1002
}
1000
Centerline
1070
     0
1002
{
1000
ScaleNot
1070
     3
1070
     1
1002
{
1002
}
1000
M
1070
     0
1002
{
1000
GenCenAng
1070
     4
1000
45|90|135
1002
{
1002
}
1000
GenCenDia
1070
     2
1040
10.0
1002
{
1002
}
1000
GenCenDias
1070
     4
1000
10|20|30
1002
{
1002
}
1000
GenCenDist
1070
     2
1040
3.0
1002
{
1002
}
1000
GenCenLen
1070
     2
1040
10.0
1002
{
1002
}
1000
GenCenOff
1070
     2
1040
10.0
1002
{
1002
}
1002
}
1000
I
1070
     0
1002
{
1000
GenCenAng
1070
     4
1000
45|90|135
1002
{
1002
}
1000
GenCenDia
1070
     2
1040
0.5
1002
{
1002
}
1000
GenCenDias
1070
     4
1000
0.5|1.0|1.5
1002
{
1002
}
1000
GenCenDist
1070
     2
1040
0.125
1002
{
1002
}
1000
GenCenLen
1070
     2
1040
0.5
1002
{
1002
}
1000
GenCenOff
1070
     2
1040
0.5
1002
{
1002
}
1002
}
1002
}
1000
CLine
1070
     0
1002
{
1000
CAngArray
1070
     4
1000
30|45|60
1002
{
1002
}
1000
Typ
1070
     4
1000
XLINE
1002
{
1002
}
1000
M
1070
     0
1002
{
1000
CLinArray
1070
     4
1000
60
1002
{
1002
}
1002
}
1000
I
1070
     0
1002
{
1000
CLinArray
1070
     4
1000
0.125|0.25|0.5
1002
{
1002
}
1002
}
1002
}
1000
Constraints
1070
     0
1002
{
1000
Color
1070
     0
1002
{
1000
Active_Frame
1070
     1
1070
     2
1002
{
1002
}
1000
Inactive_Frame
1070
     1
1070
     8
1002
{
1002
}
1002
}
1000
Debug
1070
     0
1002
{
1002
}
1000
Editor
1070
     0
1002
{
1002
}
1000
Frame
1070
     0
1002
{
1002
}
1000
Sys
1070
     0
1002
{
1002
}
1002
}
1000
Detail
1070
     0
1002
{
1002
}
1000
Dimension
1070
     5
1002
{
1000
DIMALT
1070
     1
1070
     0
1002
{
1002
}
1000
DIMALTD
1070
     1
1070
     2
1002
{
1002
}
1000
DIMALTTD
1070
     1
1070
     4
1002
{
1002
}
1000
DIMALTTZ
1070
     1
1070
     0
1002
{
1002
}
1000
DIMALTU
1070
     1
1070
     2
1002
{
1002
}
1000
DIMALTZ
1070
     1
1070
     0
1002
{
1002
}
1000
DIMAPOST
1070
     4
1000

1002
{
1002
}
1000
DIMAUNIT
1070
     1
1070
     0
1002
{
1002
}
1000
DIMBLK
1070
     4
1000

1002
{
1002
}
1000
DIMBLK1
1070
     4
1000

1002
{
1002
}
1000
DIMBLK2
1070
     4
1000

1002
{
1002
}
1000
DIMDLE
1070
     2
1040
0.0
1002
{
1002
}
1000
DIMFIT
1070
     1
1070
     3
1002
{
1002
}
1000
DIMJUST
1070
     1
1070
     0
1002
{
1002
}
1000
DIMLFAC
1070
     2
1040
1.0
1002
{
1002
}
1000
DIMLIM
1070
     1
1070
     0
1002
{
1002
}
1000
DIMPOST
1070
     4
1000
<>
1002
{
1002
}
1000
DIMRND
1070
     2
1040
0.0
1002
{
1002
}
1000
DIMSAH
1070
     1
1070
     0
1002
{
1002
}
1000
DIMSCALE
1070
     2
1040
1.0
1002
{
1002
}
1000
DIMSD1
1070
     1
1070
     0
1002
{
1002
}
1000
DIMSD2
1070
     1
1070
     0
1002
{
1002
}
1000
DIMSE1
1070
     1
1070
     0
1002
{
1002
}
1000
DIMSE2
1070
     1
1070
     0
1002
{
1002
}
1000
DIMSOXD
1070
     1
1070
     0
1002
{
1002
}
1000
DIMTAD
1070
     1
1070
     0
1002
{
1002
}
1000
DIMTFAC
1070
     2
1040
0.71
1002
{
1002
}
1000
DIMTIH
1070
     1
1070
     0
1002
{
1002
}
1000
DIMTIX
1070
     1
1070
     0
1002
{
1002
}
1000
DIMTM
1070
     2
1040
0.1
1002
{
1002
}
1000
DIMTOFL
1070
     1
1070
     0
1002
{
1002
}
1000
DIMTOH
1070
     1
1070
     0
1002
{
1002
}
1000
DIMTOL
1070
     1
1070
     0
1002
{
1002
}
1000
DIMTOLJ
1070
     1
1070
     1
1002
{
1002
}
1000
DIMTP
1070
     2
1040
0.1
1002
{
1002
}
1000
DIMTSZ
1070
     2
1040
0.0
1002
{
1002
}
1000
DIMTVP
1070
     2
1040
0.0
1002
{
1002
}
1000
DIMTXSTY
1070
     4
1000
STANDARD
1002
{
1002
}
1000
DIMTZIN
1070
     1
1070
     0
1002
{
1002
}
1000
DIMUNIT
1070
     1
1070
     2
1002
{
1002
}
1000
DIMUPT
1070
     1
1070
     0
1002
{
1002
}
1000
M
1070
     0
1002
{
1000
DIMALTF
1070
     2
1040
0.0393701
1002
{
1002
}
1000
DIMASZ
1070
     2
1040
2.5
1002
{
1002
}
1000
DIMCEN
1070
     2
1040
0.0
1002
{
1002
}
1000
DIMDEC
1070
     1
1070
     2
1002
{
1002
}
1000
DIMDLI
1070
     2
1040
7.0
1002
{
1002
}
1000
DIMEXE
1070
     2
1040
1.0
1002
{
1002
}
1000
DIMEXO
1070
     2
1040
1.0
1002
{
1002
}
1000
DIMGAP
1070
     2
1040
0.6
1002
{
1002
}
1000
DIMTDEC
1070
     1
1070
     3
1002
{
1002
}
1000
DIMTXT
1070
     2
1040
3.5
1002
{
1002
}
1000
DIMZIN
1070
     1
1070
     8
1002
{
1002
}
1002
}
1000
I
1070
     0
1002
{
1000
DIMALTF
1070
     2
1040
25.4
1002
{
1002
}
1000
DIMASZ
1070
     2
1040
0.1
1002
{
1002
}
1000
DIMCEN
1070
     2
1040
0.0
1002
{
1002
}
1000
DIMDEC
1070
     1
1070
     4
1002
{
1002
}
1000
DIMDLI
1070
     2
1040
0.5
1002
{
1002
}
1000
DIMEXE
1070
     2
1040
0.1
1002
{
1002
}
1000
DIMEXO
1070
     2
1040
0.05
1002
{
1002
}
1000
DIMGAP
1070
     2
1040
0.06
1002
{
1002
}
1000
DIMTDEC
1070
     1
1070
     4
1002
{
1002
}
1000
DIMTXT
1070
     2
1040
0.12
1002
{
1002
}
1000
DIMZIN
1070
     1
1070
     7
1002
{
1002
}
1002
}
1000
GEN-ISO
1070
     5
1002
{
1000
NAME
1070
     4
1000
GEN-ISO
1002
{
1002
}
1000
DIMTAD
1070
     1
1070
     1
1002
{
1002
}
1000
DIMTOLJ
1070
     1
1070
     0
1002
{
1002
}
1000
DIMTOFL
1070
     1
1070
     1
1002
{
1002
}
1000
M
1070
     0
1002
{
1002
}
1000
I
1070
     0
1002
{
1002
}
1002
}
1000
GEN-ISO-POS
1070
     5
1002
{
1000
NAME
1070
     4
1000
GEN-ISO-POS
1002
{
1002
}
1000
DIMTOLJ
1070
     1
1070
     0
1002
{
1002
}
1000
M
1070
     0
1002
{
1000
DIMASZ
1070
     2
1040
2.5
1002
{
1002
}
1000
DIMGAP
1070
     2
1040
1.5
1002
{
1002
}
1000
DIMTXT
1070
     2
1040
5.0
1002
{
1002
}
1002
}
1000
I
1070
     0
1002
{
1000
DIMASZ
1070
     2
1040
0.1
1002
{
1002
}
1000
DIMGAP
1070
     2
1040
0.06
1002
{
1002
}
1000
DIMTXT
1070
     2
1040
0.2
1002
{
1002
}
1002
}
1000
DIMSCALE
1070
     2
1040
1.0
1002
{
1002
}
1002
}
1000
GEN-ISO-CIR
1070
     5
1002
{
1000
NAME
1070
     4
1000
GEN-ISO$3
1002
{
1002
}
1000
DIMFIT
1070
     1
1070
     0
1002
{
1002
}
1000
DIMTAD
1070
     1
1070
     1
1002
{
1002
}
1000
DIMTIH
1070
     1
1070
     0
1002
{
1002
}
1000
DIMTIX
1070
     1
1070
     0
1002
{
1002
}
1000
DIMTOH
1070
     1
1070
     1
1002
{
1002
}
1000
DIMTOLJ
1070
     1
1070
     0
1002
{
1002
}
1000
DIMTOFL
1070
     1
1070
     0
1002
{
1002
}
1000
DIMUPT
1070
     1
1070
     1
1002
{
1002
}
1000
M
1070
     0
1002
{
1002
}
1000
I
1070
     0
1002
{
1002
}
1002
}
1000
GEN-ISO-RAD
1070
     5
1002
{
1000
NAME
1070
     4
1000
GEN-ISO$4
1002
{
1002
}
1000
DIMFIT
1070
     1
1070
     0
1002
{
1002
}
1000
DIMTAD
1070
     1
1070
     1
1002
{
1002
}
1000
DIMTIH
1070
     1
1070
     0
1002
{
1002
}
1000
DIMTIX
1070
     1
1070
     0
1002
{
1002
}
1000
DIMTOH
1070
     1
1070
     1
1002
{
1002
}
1000
DIMTOLJ
1070
     1
1070
     0
1002
{
1002
}
1000
DIMTOFL
1070
     1
1070
     0
1002
{
1002
}
1000
DIMUPT
1070
     1
1070
     1
1002
{
1002
}
1000
M
1070
     0
1002
{
1002
}
1000
I
1070
     0
1002
{
1002
}
1002
}
1000
GEN-ISO-ORD
1070
     5
1002
{
1000
NAME
1070
     4
1000
GEN-ISO$6
1002
{
1002
}
1000
DIMTOLJ
1070
     1
1070
     0
1002
{
1002
}
1000
M
1070
     0
1002
{
1002
}
1000
I
1070
     0
1002
{
1002
}
1002
}
1000
GEN-ISO-AXE-F
1070
     5
1002
{
1000
NAME
1070
     4
1000
GEN-ISO-AXE-F
1002
{
1002
}
1000
DIMSE1
1070
     1
1070
     1
1002
{
1002
}
1000
DIMSE2
1070
     1
1070
     1
1002
{
1002
}
1000
DIMTAD
1070
     1
1070
     1
1002
{
1002
}
1000
DIMTOLJ
1070
     1
1070
     0
1002
{
1002
}
1000
DIMTOFL
1070
     1
1070
     1
1002
{
1002
}
1000
M
1070
     0
1002
{
1002
}
1000
I
1070
     0
1002
{
1002
}
1002
}
1000
GEN-ISO-AXE-H
1070
     5
1002
{
1000
DIMBLK1
1070
     4
1000
GENAXEH
1002
{
1002
}
1000
DIMLFAC
1070
     2
1040
2.0
1002
{
1002
}
1000
DIMSAH
1070
     1
1070
     1
1002
{
1002
}
1000
DIMSE1
1070
     1
1070
     1
1002
{
1002
}
1000
DIMSE2
1070
     1
1070
     1
1002
{
1002
}
1000
DIMTAD
1070
     1
1070
     1
1002
{
1002
}
1000
DIMTOLJ
1070
     1
1070
     0
1002
{
1002
}
1000
DIMTOFL
1070
     1
1070
     1
1002
{
1002
}
1000
M
1070
     0
1002
{
1002
}
1000
I
1070
     0
1002
{
1002
}
1002
}
1000
GEN-ANSI
1070
     5
1002
{
1000
NAME
1070
     4
1000
GEN-ANSI
1002
{
1002
}
1000
DIMTIH
1070
     1
1070
     1
1002
{
1002
}
1000
DIMTOH
1070
     1
1070
     1
1002
{
1002
}
1000
DIMTAD
1070
     1
1070
     0
1002
{
1002
}
1000
DIMTOLJ
1070
     1
1070
     1
1002
{
1002
}
1000
M
1070
     0
1002
{
1002
}
1000
I
1070
     0
1002
{
1002
}
1002
}
1000
GEN-ANSI-POS
1070
     5
1002
{
1000
NAME
1070
     4
1000
GEN-ANSI-POS
1002
{
1002
}
1000
DIMTOLJ
1070
     1
1070
     1
1002
{
1002
}
1000
M
1070
     0
1002
{
1000
DIMASZ
1070
     2
1040
2.5
1002
{
1002
}
1000
DIMGAP
1070
     2
1040
1.5
1002
{
1002
}
1000
DIMTXT
1070
     2
1040
5.0
1002
{
1002
}
1002
}
1000
I
1070
     0
1002
{
1000
DIMASZ
1070
     2
1040
0.1
1002
{
1002
}
1000
DIMGAP
1070
     2
1040
0.06
1002
{
1002
}
1000
DIMTXT
1070
     2
1040
0.2
1002
{
1002
}
1002
}
1002
}
1000
GEN-ANSI-CIR
1070
     5
1002
{
1000
NAME
1070
     4
1000
GEN-ANSI$3
1002
{
1002
}
1000
DIMFIT
1070
     1
1070
     0
1002
{
1002
}
1000
DIMTAD
1070
     1
1070
     0
1002
{
1002
}
1000
DIMTIH
1070
     1
1070
     1
1002
{
1002
}
1000
DIMTIX
1070
     1
1070
     0
1002
{
1002
}
1000
DIMTOFL
1070
     1
1070
     0
1002
{
1002
}
1000
DIMTOH
1070
     1
1070
     1
1002
{
1002
}
1000
DIMTOLJ
1070
     1
1070
     1
1002
{
1002
}
1000
DIMUPT
1070
     1
1070
     1
1002
{
1002
}
1000
M
1070
     0
1002
{
1002
}
1000
I
1070
     0
1002
{
1002
}
1002
}
1000
GEN-ANSI-RAD
1070
     5
1002
{
1000
NAME
1070
     4
1000
GEN-ANSI$4
1002
{
1002
}
1000
DIMFIT
1070
     1
1070
     0
1002
{
1002
}
1000
DIMTAD
1070
     1
1070
     0
1002
{
1002
}
1000
DIMTIH
1070
     1
1070
     1
1002
{
1002
}
1000
DIMTIX
1070
     1
1070
     0
1002
{
1002
}
1000
DIMTOFL
1070
     1
1070
     0
1002
{
1002
}
1000
DIMTOH
1070
     1
1070
     1
1002
{
1002
}
1000
DIMTOLJ
1070
     1
1070
     1
1002
{
1002
}
1000
DIMUPT
1070
     1
1070
     1
1002
{
1002
}
1000
M
1070
     0
1002
{
1002
}
1000
I
1070
     0
1002
{
1002
}
1002
}
1000
GEN-ANSI-ORD
1070
     5
1002
{
1000
NAME
1070
     4
1000
GEN-ANSI$6
1002
{
1002
}
1000
DIMTAD
1070
     1
1070
     0
1002
{
1002
}
1000
DIMTIH
1070
     1
1070
     1
1002
{
1002
}
1000
DIMTOH
1070
     1
1070
     1
1002
{
1002
}
1000
DIMTOLJ
1070
     1
1070
     1
1002
{
1002
}
1000
M
1070
     0
1002
{
1002
}
1000
I
1070
     0
1002
{
1002
}
1002
}
1000
GEN-ANSI-AXE-F
1070
     5
1002
{
1000
NAME
1070
     4
1000
GEN-ANSI-AXE-F
1002
{
1002
}
1000
DIMBLK1
1070
     4
1000
GENAXEH
1002
{
1002
}
1000
DIMSAH
1070
     1
1070
     1
1002
{
1002
}
1000
DIMSE1
1070
     1
1070
     1
1002
{
1002
}
1000
DIMSE2
1070
     1
1070
     1
1002
{
1002
}
1000
DIMTAD
1070
     1
1070
     0
1002
{
1002
}
1000
DIMTIH
1070
     1
1070
     1
1002
{
1002
}
1000
DIMTOH
1070
     1
1070
     1
1002
{
1002
}
1000
DIMTOLJ
1070
     1
1070
     1
1002
{
1002
}
1000
M
1070
     0
1002
{
1002
}
1000
I
1070
     0
1002
{
1002
}
1002
}
1000
GEN-ANSI-AXE-H
1070
     5
1002
{
1000
NAME
1070
     4
1000
GEN-ANSI-AXE-H
1002
{
1002
}
1000
DIMBLK1
1070
     4
1000
GENAXEH
1002
{
1002
}
1000
DIMLFAC
1070
     2
1040
2.0
1002
{
1002
}
1000
DIMSAH
1070
     1
1070
     1
1002
{
1002
}
1000
DIMSE1
1070
     1
1070
     1
1002
{
1002
}
1000
DIMSE2
1070
     1
1070
     1
1002
{
1002
}
1000
DIMTAD
1070
     1
1070
     0
1002
{
1002
}
1000
DIMTOFL
1070
     1
1070
     1
1002
{
1002
}
1000
DIMTOLJ
1070
     1
1070
     1
1002
{
1002
}
1000
M
1070
     0
1002
{
1002
}
1000
I
1070
     0
1002
{
1002
}
1002
}
1000
DIMZIN
1070
     1
1070
     8
1002
{
1002
}
1002
}
1000
DimSet
1070
     0
1002
{
1000
ChainSum
1070
     3
1070
     0
1002
{
1002
}
1000
DimDclTyp0
1070
     4
1000
dim23
1002
{
1002
}
1000
HorBra
1070
     3
1070
     0
1002
{
1002
}
1000
StrDia
1070
     4
1000
%%c<>
1002
{
1002
}
1000
StrRad
1070
     4
1000
R<>
1002
{
1002
}
1000
TextMinus
1070
     4
1000
<>
1002
{
1002
}
1000
TextPlus
1070
     4
1000
<>
1002
{
1002
}
1000
M
1070
     0
1002
{
1000
DimdliFirst
1070
     2
1040
10.0
1002
{
1002
}
1000
PointMakeDist
1070
     2
1040
10.0
1002
{
1002
}
1002
}
1000
I
1070
     0
1002
{
1000
DimdliFirst
1070
     2
1040
0.5
1002
{
1002
}
1000
PointMakeDist
1070
     2
1040
0.5
1002
{
1002
}
1002
}
1002
}
1000
Drawing
1070
     0
1002
{
1000
ChamferDimMode
1070
     1
1070
     2
1002
{
1002
}
1000
Gen_Fiso
1070
    -3
1040
1.0
1002
{
1002
}
1000
GenDimStil
1070
     4
1000
ISO
1002
{
1002
}
1000
GenDwgUScale
1070
     2
1040
1.0
1002
{
1002
}
1000
GenInch
1070
     4
1000
M
1002
{
1002
}
1000
GenPlotScale
1070
     4
1000
1:1
1002
{
1002
}
1000
Revisi
1070
     4
1000
0
1002
{
1002
}
1000
Version
1070
    -5
1000
13.1/May  9 1996
1002
{
1002
}
1000
Platform
1070
    -5
1000
WINNT
1002
{
1002
}
1002
}
1000
DwgVar
1070
     0
1002
{
1000
M
1070
     0
1002
{
1002
}
1000
I
1070
     0
1002
{
1002
}
1002
}
1000
Hatch
1070
     0
1002
{
1000
GenHtcFlag
1070
     3
1070
     0
1002
{
1002
}
1002
}
1000
Info_Pos
1070
     0
1002
{
1000
DescrText
1070
     4
1000
5,6,7,8
1002
{
1002
}
1000
Attrib
1070
     0
1002
{
1000
0
1070
     6
1002
{
1000
Prompt
1070
     4
1000
(genmsg gendwg 103)
1002
{
1002
}
1000
Value
1070
     4
1000

1002
{
1002
}
1000
EditFlag
1070
     1
1070
     0
1002
{
1002
}
1002
}
1000
1
1070
     6
1002
{
1000
Prompt
1070
     4
1000
(genmsg gendwg 31)
1002
{
1002
}
1000
Value
1070
     4
1000
1
1002
{
1002
}
1000
EditFlag
1070
     1
1070
     1
1002
{
1002
}
1002
}
1000
2
1070
     6
1002
{
1000
Prompt
1070
     4
1000
(genmsg gendwg 32)
1002
{
1002
}
1000
Value
1070
     4
1000
1
1002
{
1002
}
1000
EditFlag
1070
     1
1070
     1
1002
{
1002
}
1002
}
1000
3
1070
     6
1002
{
1000
Prompt
1070
     4
1000
(genmsg gendwg 33)
1002
{
1002
}
1000
Value
1070
     4
1000

1002
{
1002
}
1000
EditFlag
1070
     1
1070
     1
1002
{
1002
}
1002
}
1000
4
1070
     6
1002
{
1000
Prompt
1070
     4
1000
(genmsg gendwg 34)
1002
{
1002
}
1000
Value
1070
     4
1000

1002
{
1002
}
1000
EditFlag
1070
     1
1070
     1
1002
{
1002
}
1002
}
1000
5
1070
     6
1002
{
1000
Prompt
1070
     4
1000
(genmsg gendwg 35)
1002
{
1002
}
1000
Value
1070
     4
1000

1002
{
1002
}
1000
EditFlag
1070
     1
1070
     1
1002
{
1002
}
1002
}
1000
6
1070
     6
1002
{
1000
Prompt
1070
     4
1000
(genmsg gendwg 36)
1002
{
1002
}
1000
Value
1070
     4
1000

1002
{
1002
}
1000
EditFlag
1070
     1
1070
     1
1002
{
1002
}
1002
}
1000
7
1070
     6
1002
{
1000
Prompt
1070
     4
1000
(genmsg gendwg 37)
1002
{
1002
}
1000
Value
1070
     4
1000

1002
{
1002
}
1000
EditFlag
1070
     1
1070
     1
1002
{
1002
}
1002
}
1000
8
1070
     6
1002
{
1000
Prompt
1070
     4
1000
(genmsg gendwg 38)
1002
{
1002
}
1000
Value
1070
     4
1000

1002
{
1002
}
1000
EditFlag
1070
     1
1070
     1
1002
{
1002
}
1002
}
1000
9
1070
     6
1002
{
1000
Prompt
1070
     4
1000
(genmsg gendwg 39)
1002
{
1002
}
1000
Value
1070
     4
1000

1002
{
1002
}
1000
EditFlag
1070
     1
1070
     1
1002
{
1002
}
1002
}
1000
10
1070
     6
1002
{
1000
Prompt
1070
     4
1000
(genmsg gendwg 40)
1002
{
1002
}
1000
Value
1070
     4
1000

1002
{
1002
}
1000
EditFlag
1070
     1
1070
     1
1002
{
1002
}
1002
}
1000
11
1070
     6
1002
{
1000
Prompt
1070
     4
1000
(genmsg gendwg 41)
1002
{
1002
}
1000
Value
1070
     4
1000

1002
{
1002
}
1000
EditFlag
1070
     1
1070
     1
1002
{
1002
}
1002
}
1000
12
1070
     6
1002
{
1000
Prompt
1070
     4
1000
(genmsg gendwg 42)
1002
{
1002
}
1000
Value
1070
     4
1000

1002
{
1002
}
1000
EditFlag
1070
     1
1070
     1
1002
{
1002
}
1002
}
1000
13
1070
     6
1002
{
1000
Prompt
1070
     4
1000
(genmsg gendwg 43)
1002
{
1002
}
1000
Value
1070
     4
1000

1002
{
1002
}
1000
EditFlag
1070
     1
1070
     1
1002
{
1002
}
1002
}
1000
14
1070
     6
1002
{
1000
Prompt
1070
     4
1000
(genmsg gendwg 44)
1002
{
1002
}
1000
Value
1070
     4
1000

1002
{
1002
}
1000
EditFlag
1070
     1
1070
     1
1002
{
1002
}
1002
}
1000
15
1070
     6
1002
{
1000
Prompt
1070
     4
1000
(genmsg gendwg 45)
1002
{
1002
}
1000
Value
1070
     4
1000

1002
{
1002
}
1000
EditFlag
1070
     1
1070
     1
1002
{
1002
}
1002
}
1000
16
1070
     6
1002
{
1000
Prompt
1070
     4
1000
(genmsg gendwg 46)
1002
{
1002
}
1000
Value
1070
     4
1000

1002
{
1002
}
1000
EditFlag
1070
     1
1070
     1
1002
{
1002
}
1002
}
1000
17
1070
     6
1002
{
1000
Prompt
1070
     4
1000
(genmsg gendwg 47)
1002
{
1002
}
1000
Value
1070
     4
1000

1002
{
1002
}
1000
EditFlag
1070
     1
1070
     1
1002
{
1002
}
1002
}
1000
18
1070
     6
1002
{
1000
Prompt
1070
     4
1000
(genmsg gendwg 48)
1002
{
1002
}
1000
Value
1070
     4
1000

1002
{
1002
}
1000
EditFlag
1070
     1
1070
     1
1002
{
1002
}
1002
}
1000
19
1070
     6
1002
{
1000
Prompt
1070
     4
1000
(genmsg gendwg 99)
1002
{
1002
}
1000
Value
1070
     4
1000

1002
{
1002
}
1000
EditFlag
1070
     1
1070
     1
1002
{
1002
}
1002
}
1000
20
1070
     6
1002
{
1000
Prompt
1070
     4
1000
(genmsg gendwg 100)
1002
{
1002
}
1000
Value
1070
     4
1000

1002
{
1002
}
1000
EditFlag
1070
     1
1070
     1
1002
{
1002
}
1002
}
1000
21
1070
     6
1002
{
1000
Prompt
1070
     4
1000
(genmsg gendwg 101)
1002
{
1002
}
1000
Value
1070
     4
1000

1002
{
1002
}
1000
EditFlag
1070
     1
1070
     1
1002
{
1002
}
1002
}
1000
22
1070
     6
1002
{
1000
Prompt
1070
     4
1000
(genmsg gendwg 102)
1002
{
1002
}
1000
Value
1070
     4
1000

1002
{
1002
}
1000
EditFlag
1070
     1
1070
     1
1002
{
1002
}
1002
}
1000
23
1070
     6
1002
{
1000
Prompt
1070
     4
1000
(genmsg gendwg 30)
1002
{
1002
}
1000
Value
1070
     4
1000

1002
{
1002
}
1000
EditFlag
1070
     1
1070
     1
1002
{
1002
}
1002
}
1000
24
1070
     6
1002
{
1000
Prompt
1070
     4
1000
(genmsg gendwg 104)
1002
{
1002
}
1000
Value
1070
     4
1000

1002
{
1002
}
1000
EditFlag
1070
     1
1070
     1
1002
{
1002
}
1002
}
1002
}
1000
Xlate
1070
     0
1002
{
1000
>
1002
}
1002
}
1000
Layer
1070
     7
1002
{
1000
Defs
1070
     0
1002
{
1000
>
1002
}
1000
EntSort
1070
     0
1002
{
1000
>
1002
}
1000
Match
1070
     0
1002
{
1002
}
1000
Settings
1070
     0
1002
{
1000
FocGrNC
1070
     3
1070
     0
1002
{
1002
}
1000
FocGrLo
1070
     3
1070
     0
1002
{
1002
}
1000
FocLoNC
1070
     3
1070
     0
1002
{
1002
}
1000
FocusCol
1070
     1
1070
   253
1002
{
1002
}
1000
GenStdLG
1070
     4
1000

1002
{
1002
}
1000
LayMatch
1070
     3
1070
     0
1002
{
1002
}
1000
LgOff
1070
     3
1070
     0
1002
{
1002
}
1000
CurLG
1070
    -5
1000
MSR3
1002
{
1002
}
1002
}
1002
}
1000
LType
1070
     0
1002
{
1000
GEN3
1070
     8
1000
genius.lin
1002
{
1002
}
1000
GEN7
1070
     8
1000
genius.lin
1002
{
1002
}
1000
GEN4A
1070
     8
1000
genius.lin
1002
{
1002
}
1000
GEN3A
1070
     8
1000
genius.lin
1002
{
1002
}
1000
GEN7A
1070
     8
1000
genius.lin
1002
{
1002
}
1000
GENZIGZAG
1070
     8
1000
genius.lin
1002
{
1002
}
1002
}
1000
Objecter
1070
     0
1002
{
1000
CreateGroups
1070
     3
1070
     0
1002
{
1002
}
1000
LaySwitch
1070
     3
1070
     1
1002
{
1002
}
1000
LastObj
1070
    -5
1000
D67
1002
{
1002
}
1002
}
1000
OSWiz
1070
     0
1002
{
1000
>
1002
}
1000
PaList
1070
     0
1002
{
1000
AutoUpdatePartList
1070
     3
1070
     0
1002
{
1002
}
1000
ReadInfoPoint
1070
     3
1070
     0
1002
{
1002
}
1000
ReadPosNr
1070
     3
1070
     1
1002
{
1002
}
1000
RevStr
1070
     4
1000
0
1002
{
1002
}
1000
rebuildpending
1070
    -4
1070
     1
1002
{
1002
}
1000
rebuildpendingtime
1070
    -5
1000
886403060
1002
{
1002
}
1002
}
1000
Paper
1070
     0
1002
{
1000
Layer
1070
    -5
1000
INFO,MSR3-0N,MSR3-5,MSR3-6,MSR3-7A,MSR3-7AN,KLIN,MSR3-2,MSR3-8,MSR3-4A
1002
{
1002
}
1002
}
1000
PartDB
1070
     0
1002
{
1000
GenDbOwner
1070
     4
1000

1002
{
1002
}
1002
}
1000
System
1070
     0
1002
{
1000
Menu
1070
     4
1000
GEV
1002
{
1002
}
1002
}
1000
Title
1070
     0
1002
{
1000
MakeView
1070
     1
1070
     2
1002
{
1002
}
1002
}
  0
APPID
  5
2F
330
9
100
AcDbSymbolTableRecord
100
AcDbRegAppTableRecord
  2
GENIUS_GEVCFG0_13
 70
     0
1001
GENIUS_GENCFG_13
1071
862825278
1000
2F
1000
GEV
1070
     1
1000
GenCfgObject
1000
System
1070
     0
1002
{
1002
}
1000
VED
1070
     0
1002
{
1002
}
  0
APPID
  5
33
330
9
100
AcDbSymbolTableRecord
100
AcDbRegAppTableRecord
  2
GENIUS_GEFCFG0_13
 70
     0
1001
GENIUS_GENCFG_13
1071
877355996
1000
33
1000
GEF
1070
     5
1000
GenCfgObject
1000
GenCfgString
1000
GenCfgReal
1000
GenCfgShort
1000
GenCfgBool
1000
System
1070
     0
1002
{
1002
}
1000
Prese
1070
     0
1002
{
1000
Funk
1070
     1
1000

1002
{
1002
}
1000
FunkDef
1070
     1
1000

1002
{
1002
}
1000
GefIso
1070
     1
1000
DIN
1002
{
1002
}
1002
}
1000
FEM
1070
     0
1002
{
1000
LayGroup
1070
     1
1000
FEM
1002
{
1002
}
1000
IncrCoef
1070
     2
1040
0.0
1002
{
1002
}
1002
}
1000
Shaft
1070
     0
1002
{
1000
Interrupt
1070
     3
1070
     0
1002
{
1002
}
1002
}
1000
PartDb
1070
     0
1002
{
1000
PartCreate
1070
     0
1002
{
1002
}
1002
}
1000
Symbol
1070
     0
1002
{
1000
WeldStyle
1070
     1
1000
ISO
1002
{
1002
}
1000
WeldSize
1070
     2
1040
1.0
1002
{
1002
}
1000
WeldFlag
1070
     4
1070
     1
1002
{
1002
}
1000
WeldOffset
1070
     4
1070
     1
1002
{
1002
}
1000
TolCType
1070
     1
1000
ISO
1002
{
1002
}
1000
TolCSize
1070
     2
1040
1.0
1002
{
1002
}
1000
STextureSize
1070
     2
1040
1.0
1002
{
1002
}
1000
SurfaceType
1070
     1
1000

1002
{
1002
}
1000
M
1070
     0
1002
{
1000
WeldWidth
1070
     2
1040
3.0
1002
{
1002
}
1002
}
1000
I
1070
     0
1002
{
1000
WeldWidth
1070
     2
1040
0.125
1002
{
1002
}
1002
}
1000
weldwidth
1070
     2
1040
5.0
1002
{
1002
}
1002
}
  0
APPID
  5
3C
330
9
100
AcDbSymbolTableRecord
100
AcDbRegAppTableRecord
  2
GENIUS_GENOENT_13
 70
     0
  0
APPID
  5
3DB
330
9
100
AcDbSymbolTableRecord
100
AcDbRegAppTableRecord
  2
GENIUS_GENODEF_13
 70
     0
  0
APPID
  5
3DC
330
9
100
AcDbSymbolTableRecord
100
AcDbRegAppTableRecord
  2
GENIUS_GENOBJ-N-HTC_13
 70
     0
  0
APPID
  5
3DD
330
9
100
AcDbSymbolTableRecord
100
AcDbRegAppTableRecord
  2
GENIUS_GENHATCH_13
 70
     0
  0
APPID
  5
451
330
9
100
AcDbSymbolTableRecord
100
AcDbRegAppTableRecord
  2
GEV_VCCNULL_SWITCH_OFF
 70
     0
  0
APPID
  5
452
330
9
100
AcDbSymbolTableRecord
100
AcDbRegAppTableRecord
  2
GEVID886402298
 70
     0
  0
APPID
  5
453
330
9
100
AcDbSymbolTableRecord
100
AcDbRegAppTableRecord
  2
GEVDC
 70
     0
  0
APPID
  5
454
330
9
100
AcDbSymbolTableRecord
100
AcDbRegAppTableRecord
  2
GEVRADREF
 70
     0
  0
APPID
  5
460
330
9
100
AcDbSymbolTableRecord
100
AcDbRegAppTableRecord
  2
GEVPT
 70
     0
  0
APPID
  5
461
330
9
100
AcDbSymbolTableRecord
100
AcDbRegAppTableRecord
  2
GEVIT
 70
     0
  0
APPID
  5
462
330
9
100
AcDbSymbolTableRecord
100
AcDbRegAppTableRecord
  2
VCC
 70
     0
  0
APPID
  5
463
330
9
100
AcDbSymbolTableRecord
100
AcDbRegAppTableRecord
  2
GENBH
 70
     0
  0
APPID
  5
46F
330
9
100
AcDbSymbolTableRecord
100
AcDbRegAppTableRecord
  2
GEVMK
 70
     0
  0
APPID
  5
470
330
9
100
AcDbSymbolTableRecord
100
AcDbRegAppTableRecord
  2
GENIUS_GENBH_13
 70
     0
  0
APPID
  5
471
330
9
100
AcDbSymbolTableRecord
100
AcDbRegAppTableRecord
  2
GENIUS_GENOBJ_13
 70
     0
  0
APPID
  5
472
330
9
100
AcDbSymbolTableRecord
100
AcDbRegAppTableRecord
  2
GENIUS_GENOLIS_13
 70
     0
  0
APPID
  5
473
330
9
100
AcDbSymbolTableRecord
100
AcDbRegAppTableRecord
  2
GENIUS_GENOREF_13
 70
     0
  0
APPID
  5
474
330
9
100
AcDbSymbolTableRecord
100
AcDbRegAppTableRecord
  2
GENIUS_GENOBJ-NBEHI-BHF_13
 70
     0
  0
APPID
  5
476
330
9
100
AcDbSymbolTableRecord
100
AcDbRegAppTableRecord
  2
GENIUS_GENOBJ-NBEHI-BHB_13
 70
     0
  0
APPID
  5
479
330
9
100
AcDbSymbolTableRecord
100
AcDbRegAppTableRecord
  2
GENIUS_GENOBJ-F-PART_13
 70
     0
  0
APPID
  5
47A
330
9
100
AcDbSymbolTableRecord
100
AcDbRegAppTableRecord
  2
GENIUS_GEFSTDP_13
 70
     0
  0
APPID
  5
47C
330
9
100
AcDbSymbolTableRecord
100
AcDbRegAppTableRecord
  2
GENIUS_GEFPARTINS_13
 70
     0
  0
APPID
  5
47E
330
9
100
AcDbSymbolTableRecord
100
AcDbRegAppTableRecord
  2
GEVID886402299
 70
     0
  0
APPID
  5
493
330
9
100
AcDbSymbolTableRecord
100
AcDbRegAppTableRecord
  2
GEVID886402300
 70
     0
  0
APPID
  5
4A8
330
9
100
AcDbSymbolTableRecord
100
AcDbRegAppTableRecord
  2
GEVID886402301
 70
     0
  0
APPID
  5
702
330
9
100
AcDbSymbolTableRecord
100
AcDbRegAppTableRecord
  2
GENIUS_GENOBJ-N-RSBK_13
 70
     0
  0
APPID
  5
703
330
9
100
AcDbSymbolTableRecord
100
AcDbRegAppTableRecord
  2
GENIUS_GENOBJ-N-LIB_13
 70
     0
  0
APPID
  5
704
330
9
100
AcDbSymbolTableRecord
100
AcDbRegAppTableRecord
  2
GENIUS_GENSCALE_13
 70
     0
  0
APPID
  5
8CD
330
9
100
AcDbSymbolTableRecord
100
AcDbRegAppTableRecord
  2
GEVID886402958
 70
     0
  0
APPID
  5
8DD
330
9
100
AcDbSymbolTableRecord
100
AcDbRegAppTableRecord
  2
GEVID886402959
 70
     0
  0
APPID
  5
8ED
330
9
100
AcDbSymbolTableRecord
100
AcDbRegAppTableRecord
  2
GEVID886402960
 70
     0
  0
APPID
  5
8FD
330
9
100
AcDbSymbolTableRecord
100
AcDbRegAppTableRecord
  2
GEVID886402961
 70
     0
  0
APPID
  5
95A
330
9
100
AcDbSymbolTableRecord
100
AcDbRegAppTableRecord
  2
GENIUS_GENINF13_13
 70
     0
  0
APPID
  5
95B
330
9
100
AcDbSymbolTableRecord
100
AcDbRegAppTableRecord
  2
GENIUS_GENOBJ-N-INFOPT_13
 70
     0
  0
APPID
  5
95C
330
9
100
AcDbSymbolTableRecord
100
AcDbRegAppTableRecord
  2
GENIUS_GENOBJ-N-RSSYM_13
 70
     0
  0
APPID
  5
95D
330
9
100
AcDbSymbolTableRecord
100
AcDbRegAppTableRecord
  2
GENIUS_GENSYMENT_13
 70
     0
  0
APPID
  5
95E
330
9
100
AcDbSymbolTableRecord
100
AcDbRegAppTableRecord
  2
GENIUS_GENSCSYM_13
 70
     0
  0
APPID
  5
D77
330
9
100
AcDbSymbolTableRecord
100
AcDbRegAppTableRecord
  2
GEVID886403239
 70
     0
  0
APPID
  5
D87
330
9
100
AcDbSymbolTableRecord
100
AcDbRegAppTableRecord
  2
GEVID886403240
 70
     0
  0
APPID
  5
D97
330
9
100
AcDbSymbolTableRecord
100
AcDbRegAppTableRecord
  2
GEVID886403241
 70
     0
  0
APPID
  5
DA7
330
9
100
AcDbSymbolTableRecord
100
AcDbRegAppTableRecord
  2
GEVID886403242
 70
     0
  0
APPID
  5
DFD
330
9
100
AcDbSymbolTableRecord
100
AcDbRegAppTableRecord
  2
ACAD_MLEADERVER
 70
     0
  0
APPID
  5
E0A
330
9
100
AcDbSymbolTableRecord
100
AcDbRegAppTableRecord
  2
MCAD_NO_VIS
 70
     0
  0
APPID
  5
E0B
330
9
100
AcDbSymbolTableRecord
100
AcDbRegAppTableRecord
  2
ACAD_TEMP_GRAPHIC
 70
     0
  0
APPID
  5
E3B
330
9
100
AcDbSymbolTableRecord
100
AcDbRegAppTableRecord
  2
AD_DRAW
 70
     0
  0
APPID
  5
E3E
330
9
100
AcDbSymbolTableRecord
100
AcDbRegAppTableRecord
  2
ACATTRIBSERVICES
 70
     0
  0
APPID
  5
E5F
330
9
100
AcDbSymbolTableRecord
100
AcDbRegAppTableRecord
  2
DESIGNERASSEMBLIES
 70
     0
  0
APPID
  5
E65
330
9
100
AcDbSymbolTableRecord
100
AcDbRegAppTableRecord
  2
ACADM_DIM_EDIT
 70
     0
  0
APPID
  5
E66
330
9
100
AcDbSymbolTableRecord
100
AcDbRegAppTableRecord
  2
AMDT_DM_ADJ
 70
     0
  0
APPID
  5
EC3
330
9
100
AcDbSymbolTableRecord
100
AcDbRegAppTableRecord
  2
ACAD_DSTYLE_DIMARC_LENGTH_SYMBOL
 70
     0
  0
APPID
  5
EC4
330
9
100
AcDbSymbolTableRecord
100
AcDbRegAppTableRecord
  2
ACAD_DSTYLE_DIM_LINETYPE
 70
     0
  0
APPID
  5
EC5
330
9
100
AcDbSymbolTableRecord
100
AcDbRegAppTableRecord
  2
ACAD_DSTYLE_DIM_EXT1_LINETYPE
 70
     0
  0
APPID
  5
EC6
330
9
100
AcDbSymbolTableRecord
100
AcDbRegAppTableRecord
  2
ACAD_DSTYLE_DIM_EXT2_LINETYPE
 70
     0
  0
ENDTAB
  0
TABLE
  2
DIMSTYLE
  5
A
330
0
100
AcDbSymbolTable
 70
    15
100
AcDbDimStyleTable
 71
     0
  0
DIMSTYLE
105
1D
330
A
100
AcDbSymbolTableRecord
100
AcDbDimStyleTableRecord
  2
STANDARD
 70
     0
340
10
  0
DIMSTYLE
105
47
330
A
100
AcDbSymbolTableRecord
100
AcDbDimStyleTableRecord
  2
GEN-ISO
 70
     0
  3
<>
 41
2.5
 42
1.0
 43
7.0
 44
1.0
 47
0.1
 48
0.1
 73
     0
 74
     0
 77
     1
 78
     8
140
3.5
141
0.0
143
0.0393701
146
0.71
147
0.6
172
     1
176
   256
177
   256
178
     2
271
     2
272
     3
274
     4
283
     0
340
10
  0
DIMSTYLE
105
E7C
102
{ACAD_REACTORS
330
E6C
102
}
330
A
100
AcDbSymbolTableRecord
100
AcDbDimStyleTableRecord
  2
AM_ANSI
 70
     0
  4
"
 41
3.5
 42
1.0
 43
10.0
 44
1.0
 47
0.1
 48
0.1
 78
     8
 79
     2
140
3.5
141
0.0
143
0.0393701
146
0.71
147
1.5
176
   256
177
   256
178
     2
271
     2
272
     3
274
     4
284
     8
340
10
371
    -1
372
    -1
1001
ACAD_DSTYLE_DIMARC_LENGTH_SYMBOL
1070
   379
1070
     1
1001
ACAD_DSTYLE_DIM_LINETYPE
1070
   380
1005
14
1001
ACAD_DSTYLE_DIM_EXT1_LINETYPE
1070
   381
1005
14
1001
ACAD_DSTYLE_DIM_EXT2_LINETYPE
1070
   382
1005
14
  0
DIMSTYLE
105
E8A
330
A
100
AcDbSymbolTableRecord
100
AcDbDimStyleTableRecord
  2
AM_ANSI$3
 70
     0
  4
"
 41
3.5
 42
1.0
 43
10.0
 44
1.0
 47
0.1
 48
0.1
 78
     8
 79
     2
140
3.5
141
0.0
143
0.0393701
146
0.71
147
1.5
176
   256
177
   256
178
     2
271
     2
272
     3
274
     4
284
     8
288
     1
289
     0
340
10
371
    -1
372
    -1
1001
ACAD_DSTYLE_DIMARC_LENGTH_SYMBOL
1070
   379
1070
     1
1001
ACAD_DSTYLE_DIM_LINETYPE
1070
   380
1005
14
1001
ACAD_DSTYLE_DIM_EXT1_LINETYPE
1070
   381
1005
14
1001
ACAD_DSTYLE_DIM_EXT2_LINETYPE
1070
   382
1005
14
  0
DIMSTYLE
105
E8B
330
A
100
AcDbSymbolTableRecord
100
AcDbDimStyleTableRecord
  2
AM_ANSI$4
 70
     0
  4
"
 41
3.5
 42
1.0
 43
10.0
 44
1.0
 47
0.1
 48
0.1
 78
     8
 79
     2
140
3.5
141
0.0
143
0.0393701
146
0.71
147
1.5
176
   256
177
   256
178
     2
271
     2
272
     3
274
     4
284
     8
288
     1
289
     0
340
10
371
    -1
372
    -1
1001
ACAD_DSTYLE_DIMARC_LENGTH_SYMBOL
1070
   379
1070
     1
1001
ACAD_DSTYLE_DIM_LINETYPE
1070
   380
1005
14
1001
ACAD_DSTYLE_DIM_EXT1_LINETYPE
1070
   381
1005
14
1001
ACAD_DSTYLE_DIM_EXT2_LINETYPE
1070
   382
1005
14
  0
DIMSTYLE
105
E8C
330
A
100
AcDbSymbolTableRecord
100
AcDbDimStyleTableRecord
  2
AM_ANSI$7
 70
     0
  4
"
 41
3.5
 42
1.0
 43
10.0
 44
1.0
 47
0.1
 48
0.1
 78
     8
 79
     2
140
3.5
141
0.0
143
0.0393701
146
0.71
147
1.5
176
   256
177
   256
178
     2
271
     2
272
     3
274
     4
284
     8
340
10
371
    -1
372
    -1
1001
ACAD_DSTYLE_DIMARC_LENGTH_SYMBOL
1070
   379
1070
     1
1001
ACAD_DSTYLE_DIM_LINETYPE
1070
   380
1005
14
1001
ACAD_DSTYLE_DIM_EXT1_LINETYPE
1070
   381
1005
14
1001
ACAD_DSTYLE_DIM_EXT2_LINETYPE
1070
   382
1005
14
  0
DIMSTYLE
105
E8D
330
A
100
AcDbSymbolTableRecord
100
AcDbDimStyleTableRecord
  2
AM_ANSI$SF
 70
     0
  4
"
 41
3.5
 42
1.0
 43
10.0
 44
1.0
 47
0.1
 48
0.1
 75
     1
 76
     1
 78
     8
 79
     2
140
3.5
141
0.0
143
0.0393701
146
0.71
147
1.5
176
   256
177
   256
178
     2
271
     2
272
     3
274
     4
284
     8
340
10
371
    -1
372
    -1
1001
ACAD_DSTYLE_DIMARC_LENGTH_SYMBOL
1070
   379
1070
     1
1001
ACAD_DSTYLE_DIM_LINETYPE
1070
   380
1005
14
1001
ACAD_DSTYLE_DIM_EXT1_LINETYPE
1070
   381
1005
14
1001
ACAD_DSTYLE_DIM_EXT2_LINETYPE
1070
   382
1005
14
  0
DIMSTYLE
105
E92
330
A
100
AcDbSymbolTableRecord
100
AcDbDimStyleTableRecord
  2
AM_ANSI$SH
 70
     0
  4
"
 41
3.5
 42
1.0
 43
10.0
 44
1.0
 47
0.1
 48
0.1
 75
     1
 76
     1
 78
     8
 79
     2
140
3.5
141
0.0
143
0.0393701
146
0.71
147
1.5
173
     1
176
   256
177
   256
178
     2
271
     2
272
     3
274
     4
284
     8
340
10
343
E8E
371
    -1
372
    -1
1001
ACAD_DSTYLE_DIMARC_LENGTH_SYMBOL
1070
   379
1070
     1
1001
ACAD_DSTYLE_DIM_LINETYPE
1070
   380
1005
14
1001
ACAD_DSTYLE_DIM_EXT1_LINETYPE
1070
   381
1005
14
1001
ACAD_DSTYLE_DIM_EXT2_LINETYPE
1070
   382
1005
14
  0
DIMSTYLE
105
E9F
330
A
100
AcDbSymbolTableRecord
100
AcDbDimStyleTableRecord
  2
GEN-ANSI
 70
     0
  3
<>
 41
2.5
 42
1.0
 43
7.0
 44
1.0
 47
0.1
 48
0.1
 78
     8
140
3.5
141
0.0
143
0.0393701
146
0.71
147
0.6
271
     2
272
     3
274
     4
340
10
  0
DIMSTYLE
105
EA0
330
A
100
AcDbSymbolTableRecord
100
AcDbDimStyleTableRecord
  2
GEN-ANSI$3
 70
     0
  3
<>
 41
2.5
 42
1.0
 43
7.0
 44
1.0
 47
0.1
 48
0.1
 78
     8
140
3.5
141
0.0
143
0.0393701
146
0.71
147
0.6
271
     2
272
     3
274
     4
288
     1
289
     0
340
10
  0
DIMSTYLE
105
EA1
330
A
100
AcDbSymbolTableRecord
100
AcDbDimStyleTableRecord
  2
GEN-ANSI$4
 70
     0
  3
<>
 41
2.5
 42
1.0
 43
7.0
 44
1.0
 47
0.1
 48
0.1
 78
     8
140
3.5
141
0.0
143
0.0393701
146
0.71
147
0.6
271
     2
272
     3
274
     4
288
     1
289
     0
340
10
  0
DIMSTYLE
105
EA2
330
A
100
AcDbSymbolTableRecord
100
AcDbDimStyleTableRecord
  2
GEN-ANSI$6
 70
     0
  3
<>
 41
2.5
 42
1.0
 43
7.0
 44
1.0
 47
0.1
 48
0.1
 78
     8
140
3.5
141
0.0
143
0.0393701
146
0.71
147
0.6
271
     2
272
     3
274
     4
340
10
  0
DIMSTYLE
105
EA3
330
A
100
AcDbSymbolTableRecord
100
AcDbDimStyleTableRecord
  2
GEN-ANSI-POS
 70
     0
  3
<>
 41
2.5
 42
1.0
 43
7.0
 44
1.0
 47
0.1
 48
0.1
 73
     0
 74
     0
 78
     8
140
5.0
141
0.0
143
0.0393701
146
0.71
147
1.5
271
     2
272
     3
274
     4
340
10
  0
DIMSTYLE
105
EA4
330
A
100
AcDbSymbolTableRecord
100
AcDbDimStyleTableRecord
  2
GEN-ANSI-AXE-F
 70
     0
  3
<>
 41
2.5
 42
1.0
 43
7.0
 44
1.0
 47
0.1
 48
0.1
 75
     1
 76
     1
 78
     8
140
3.5
141
0.0
143
0.0393701
146
0.71
147
0.6
173
     1
271
     2
272
     3
274
     4
340
10
343
E8E
  0
DIMSTYLE
105
EA5
330
A
100
AcDbSymbolTableRecord
100
AcDbDimStyleTableRecord
  2
GEN-ANSI-AXE-H
 70
     0
  3
<>
 41
2.5
 42
1.0
 43
7.0
 44
1.0
 47
0.1
 48
0.1
 73
     0
 74
     0
 75
     1
 76
     1
 78
     8
140
3.5
141
0.0
143
0.0393701
144
2.0
146
0.71
147
0.6
172
     1
173
     1
271
     2
272
     3
274
     4
340
10
343
E8E
  0
ENDTAB
  0
TABLE
  2
BLOCK_RECORD
  5
1
330
0
100
AcDbSymbolTable
 70
    32
  0
BLOCK_RECORD
  5
1A
330
1
100
AcDbSymbolTableRecord
100
AcDbBlockTableRecord
  2
*MODEL_SPACE
340
E00
  0
BLOCK_RECORD
  5
17
330
1
100
AcDbSymbolTableRecord
100
AcDbBlockTableRecord
  2
*PAPER_SPACE
340
E01
  0
BLOCK_RECORD
  5
8BE
330
1
100
AcDbSymbolTableRecord
100
AcDbBlockTableRecord
  2
*U2
340
0
102
{BLKREFS
331
8C7
102
}
  0
BLOCK_RECORD
  5
8CE
330
1
100
AcDbSymbolTableRecord
100
AcDbBlockTableRecord
  2
*U4
340
0
102
{BLKREFS
331
8D7
102
}
  0
BLOCK_RECORD
  5
8DE
330
1
100
AcDbSymbolTableRecord
100
AcDbBlockTableRecord
  2
*U6
340
0
102
{BLKREFS
331
8E7
102
}
  0
BLOCK_RECORD
  5
8EE
330
1
100
AcDbSymbolTableRecord
100
AcDbBlockTableRecord
  2
*U8
340
0
102
{BLKREFS
331
8F7
102
}
  0
BLOCK_RECORD
  5
908
330
1
100
AcDbSymbolTableRecord
100
AcDbBlockTableRecord
  2
GENINF13
340
0
102
{BLKREFS
331
CAD
331
AD1
102
}
  0
BLOCK_RECORD
  5
961
330
1
100
AcDbSymbolTableRecord
100
AcDbBlockTableRecord
  2
*X11
340
0
102
{BLKREFS
331
C8D
331
AB1
102
}
  0
BLOCK_RECORD
  5
96E
330
1
100
AcDbSymbolTableRecord
100
AcDbBlockTableRecord
  2
*X12
340
0
102
{BLKREFS
331
C8B
331
AAF
102
}
  0
BLOCK_RECORD
  5
978
330
1
100
AcDbSymbolTableRecord
100
AcDbBlockTableRecord
  2
*U13
340
0
102
{BLKREFS
331
980
102
}
  0
BLOCK_RECORD
  5
97F
330
1
100
AcDbSymbolTableRecord
100
AcDbBlockTableRecord
  2
*U14
340
0
102
{BLKREFS
331
9FE
102
}
  0
BLOCK_RECORD
  5
987
330
1
100
AcDbSymbolTableRecord
100
AcDbBlockTableRecord
  2
*U15
340
0
102
{BLKREFS
331
98F
102
}
  0
BLOCK_RECORD
  5
98E
330
1
100
AcDbSymbolTableRecord
100
AcDbBlockTableRecord
  2
*U16
340
0
102
{BLKREFS
331
A0E
102
}
  0
BLOCK_RECORD
  5
996
330
1
100
AcDbSymbolTableRecord
100
AcDbBlockTableRecord
  2
*U17
340
0
102
{BLKREFS
331
99E
102
}
  0
BLOCK_RECORD
  5
99D
330
1
100
AcDbSymbolTableRecord
100
AcDbBlockTableRecord
  2
*U18
340
0
102
{BLKREFS
331
9FC
102
}
  0
BLOCK_RECORD
  5
9A5
330
1
100
AcDbSymbolTableRecord
100
AcDbBlockTableRecord
  2
*U19
340
0
102
{BLKREFS
331
9AD
102
}
  0
BLOCK_RECORD
  5
9AC
330
1
100
AcDbSymbolTableRecord
100
AcDbBlockTableRecord
  2
*U20
340
0
102
{BLKREFS
331
9F7
102
}
  0
BLOCK_RECORD
  5
9B4
330
1
100
AcDbSymbolTableRecord
100
AcDbBlockTableRecord
  2
0500B
340
0
  0
BLOCK_RECORD
  5
D68
330
1
100
AcDbSymbolTableRecord
100
AcDbBlockTableRecord
  2
*U22
340
0
102
{BLKREFS
331
D71
102
}
  0
BLOCK_RECORD
  5
D6F
330
1
100
AcDbSymbolTableRecord
100
AcDbBlockTableRecord
  2
*U23
340
0
102
{BLKREFS
331
BDA
102
}
  0
BLOCK_RECORD
  5
D78
330
1
100
AcDbSymbolTableRecord
100
AcDbBlockTableRecord
  2
*U24
340
0
102
{BLKREFS
331
D81
102
}
  0
BLOCK_RECORD
  5
D7F
330
1
100
AcDbSymbolTableRecord
100
AcDbBlockTableRecord
  2
*U25
340
0
102
{BLKREFS
331
BEA
102
}
  0
BLOCK_RECORD
  5
D88
330
1
100
AcDbSymbolTableRecord
100
AcDbBlockTableRecord
  2
*U26
340
0
102
{BLKREFS
331
D91
102
}
  0
BLOCK_RECORD
  5
D8F
330
1
100
AcDbSymbolTableRecord
100
AcDbBlockTableRecord
  2
*U27
340
0
102
{BLKREFS
331
BD8
102
}
  0
BLOCK_RECORD
  5
D98
330
1
100
AcDbSymbolTableRecord
100
AcDbBlockTableRecord
  2
*U28
340
0
102
{BLKREFS
331
DA1
102
}
  0
BLOCK_RECORD
  5
D9F
330
1
100
AcDbSymbolTableRecord
100
AcDbBlockTableRecord
  2
*U29
340
0
102
{BLKREFS
331
BD3
102
}
  0
BLOCK_RECORD
  5
E8E
330
1
100
AcDbSymbolTableRecord
100
AcDbBlockTableRecord
  2
GENAXEH
340
0
  0
ENDTAB
  0
ENDSEC
  0
SECTION
  2
BLOCKS
  0
BLOCK
  5
1B
330
1A
100
AcDbEntity
  8
0
100
AcDbBlockBegin
  2
*MODEL_SPACE
 70
     0
 10
0.0
 20
0.0
 30
0.0
  3
*MODEL_SPACE
  1

  0
ENDBLK
  5
1C
330
1A
100
AcDbEntity
  8
0
100
AcDbBlockEnd
  0
BLOCK
  5
18
330
17
100
AcDbEntity
 67
     1
  8
0
100
AcDbBlockBegin
  2
*PAPER_SPACE
 70
     0
 10
0.0
 20
0.0
 30
0.0
  3
*PAPER_SPACE
  1

  0
ENDBLK
  5
19
330
17
100
AcDbEntity
 67
     1
  8
0
100
AcDbBlockEnd
  0
BLOCK
  5
8BF
330
8BE
100
AcDbEntity
  8
0
100
AcDbBlockBegin
  2
*U2
 70
     1
 10
0.0
 20
0.0
 30
0.0
  3
*U2
  1
*U
  0
LINE
  5
8C0
330
8BE
100
AcDbEntity
  8
CENN
100
AcDbLine
 10
0.0
 20
-7.0
 30
0.0
 11
0.0
 21
7.0
 31
0.0
  0
CIRCLE
  5
8C1
330
8BE
100
AcDbEntity
  8
BHMM
100
AcDbCircle
 10
0.0
 20
0.0
 30
0.0
 40
3.3235
  0
ARC
  5
8C2
330
8BE
100
AcDbEntity
  8
THLI
100
AcDbCircle
 10
0.0
 20
0.0
 30
0.0
 40
4.0
100
AcDbArc
 50
280.0
 51
210.0
  0
LINE
  5
8C3
330
8BE
100
AcDbEntity
  8
CENN
100
AcDbLine
 10
-7.0
 20
0.0
 30
0.0
 11
7.0
 21
0.0
 31
0.0
  0
ENDBLK
  5
8C4
330
8BE
100
AcDbEntity
  8
0
100
AcDbBlockEnd
  0
BLOCK
  5
8CF
330
8CE
100
AcDbEntity
  8
0
100
AcDbBlockBegin
  2
*U4
 70
     1
 10
0.0
 20
0.0
 30
0.0
  3
*U4
  1
*U
  0
LINE
  5
8D0
330
8CE
100
AcDbEntity
  8
CENN
100
AcDbLine
 10
0.0
 20
-7.0
 30
0.0
 11
0.0
 21
7.0
 31
0.0
  0
CIRCLE
  5
8D1
330
8CE
100
AcDbEntity
  8
BHMM
100
AcDbCircle
 10
0.0
 20
0.0
 30
0.0
 40
3.3235
  0
ARC
  5
8D2
330
8CE
100
AcDbEntity
  8
THLI
100
AcDbCircle
 10
0.0
 20
0.0
 30
0.0
 40
4.0
100
AcDbArc
 50
280.0
 51
210.0
  0
LINE
  5
8D3
330
8CE
100
AcDbEntity
  8
CENN
100
AcDbLine
 10
-7.0
 20
0.0
 30
0.0
 11
7.0
 21
0.0
 31
0.0
  0
ENDBLK
  5
8D4
330
8CE
100
AcDbEntity
  8
0
100
AcDbBlockEnd
  0
BLOCK
  5
8DF
330
8DE
100
AcDbEntity
  8
0
100
AcDbBlockBegin
  2
*U6
 70
     1
 10
0.0
 20
0.0
 30
0.0
  3
*U6
  1
*U
  0
LINE
  5
8E0
330
8DE
100
AcDbEntity
  8
CENN
100
AcDbLine
 10
0.0
 20
-7.0
 30
0.0
 11
0.0
 21
7.0
 31
0.0
  0
CIRCLE
  5
8E1
330
8DE
100
AcDbEntity
  8
BHMM
100
AcDbCircle
 10
0.0
 20
0.0
 30
0.0
 40
3.3235
  0
ARC
  5
8E2
330
8DE
100
AcDbEntity
  8
THLI
100
AcDbCircle
 10
0.0
 20
0.0
 30
0.0
 40
4.0
100
AcDbArc
 50
280.0
 51
210.0
  0
LINE
  5
8E3
330
8DE
100
AcDbEntity
  8
CENN
100
AcDbLine
 10
-7.0
 20
0.0
 30
0.0
 11
7.0
 21
0.0
 31
0.0
  0
ENDBLK
  5
8E4
330
8DE
100
AcDbEntity
  8
0
100
AcDbBlockEnd
  0
BLOCK
  5
8EF
330
8EE
100
AcDbEntity
  8
0
100
AcDbBlockBegin
  2
*U8
 70
     1
 10
0.0
 20
0.0
 30
0.0
  3
*U8
  1
*U
  0
LINE
  5
8F0
330
8EE
100
AcDbEntity
  8
CENN
100
AcDbLine
 10
0.0
 20
-7.0
 30
0.0
 11
0.0
 21
7.0
 31
0.0
  0
CIRCLE
  5
8F1
330
8EE
100
AcDbEntity
  8
BHMM
100
AcDbCircle
 10
0.0
 20
0.0
 30
0.0
 40
3.3235
  0
ARC
  5
8F2
330
8EE
100
AcDbEntity
  8
THLI
100
AcDbCircle
 10
0.0
 20
0.0
 30
0.0
 40
4.0
100
AcDbArc
 50
280.0
 51
210.0
  0
LINE
  5
8F3
330
8EE
100
AcDbEntity
  8
CENN
100
AcDbLine
 10
-7.0
 20
0.0
 30
0.0
 11
7.0
 21
0.0
 31
0.0
  0
ENDBLK
  5
8F4
330
8EE
100
AcDbEntity
  8
0
100
AcDbBlockEnd
  0
BLOCK
  5
918
330
908
100
AcDbEntity
  8
0
100
AcDbBlockBegin
  2
GENINF13
 70
     2
 10
0.0
 20
0.0
 30
0.0
  3
GENINF13
  1
GENINF13
  0
CIRCLE
  5
919
330
908
100
AcDbEntity
  8
INFO
100
AcDbCircle
 10
-0.1079460011883957
 20
1.312243585777231
 30
0.0
 40
0.3390668951753026
  0
CIRCLE
  5
91A
330
908
100
AcDbEntity
  8
INFO
100
AcDbCircle
 10
0.0
 20
0.0
 30
0.0
 40
1.920194409963144
  0
LINE
  5
91B
330
908
100
AcDbEntity
  8
INFO
100
AcDbLine
 10
0.4113437479737743
 20
0.7068303850037036
 30
0.0
 11
-0.7000060094186789
 21
0.7068303850037035
 31
0.0
  0
LINE
  5
91C
330
908
100
AcDbEntity
  8
INFO
100
AcDbLine
 10
0.8299040409314978
 20
-1.341535205482386
 30
0.0
 11
0.8299040409314978
 21
-0.5553667224477728
 31
0.0
  0
LINE
  5
91D
330
908
100
AcDbEntity
  8
INFO
100
AcDbLine
 10
0.8299040409314978
 20
-0.5553667224477728
 30
0.0
 11
0.4113437479737743
 21
-0.5553667224477728
 31
0.0
  0
LINE
  5
91E
330
908
100
AcDbEntity
  8
INFO
100
AcDbLine
 10
0.4113437479737743
 20
-0.5553667224477728
 30
0.0
 11
0.4113437479737743
 21
0.7068303850037036
 31
0.0
  0
LINE
  5
91F
330
908
100
AcDbEntity
  8
INFO
100
AcDbLine
 10
-0.7000060094186789
 20
0.7068303850037035
 30
0.0
 11
-0.7000060094186788
 21
0.1226134319150372
 31
0.0
  0
LINE
  5
920
330
908
100
AcDbEntity
  8
INFO
100
AcDbLine
 10
-0.7000060094186788
 20
0.1226134319150372
 30
0.0
 11
-0.3752609491200999
 21
0.1226134319150372
 31
0.0
  0
LINE
  5
921
330
908
100
AcDbEntity
  8
INFO
100
AcDbLine
 10
-0.3752609491200999
 20
0.1226134319150372
 30
0.0
 11
-0.3752609491200999
 21
-0.5553667224477728
 31
0.0
  0
LINE
  5
922
330
908
100
AcDbEntity
  8
INFO
100
AcDbLine
 10
-0.3752609491200999
 20
-0.5553667224477728
 30
0.0
 11
-0.8010378055452676
 21
-0.5553667224477728
 31
0.0
  0
LINE
  5
923
330
908
100
AcDbEntity
  8
INFO
100
AcDbLine
 10
-0.8010378055452676
 20
-0.5553667224477728
 30
0.0
 11
-0.8010378055452676
 21
-1.341535205482386
 31
0.0
  0
LINE
  5
924
330
908
100
AcDbEntity
  8
INFO
100
AcDbLine
 10
-0.8010378055452676
 20
-1.341535205482386
 30
0.0
 11
0.8299040409314978
 21
-1.341535205482386
 31
0.0
  0
ATTDEF
  5
925
330
908
100
AcDbEntity
  8
INFO
100
AcDbText
 10
0.0
 20
0.0
 30
0.0
 40
1.0
  1
1
100
AcDbAttributeDefinition
  3
Menge
  2
2GENINF
 70
     1
  0
ATTDEF
  5
926
330
908
100
AcDbEntity
  8
INFO
100
AcDbText
 10
0.0
 20
-1.5
 30
0.0
 40
1.0
  1

100
AcDbAttributeDefinition
  3
Stücklisten-Name
  2
3GENINF
 70
     1
  0
ATTDEF
  5
927
330
908
100
AcDbEntity
  8
INFO
100
AcDbText
 10
0.0
 20
-3.0
 30
0.0
 40
1.0
  1

100
AcDbAttributeDefinition
  3
Stücklisten-Pfad
  2
4GENINF
 70
     1
  0
ATTDEF
  5
928
330
908
100
AcDbEntity
  8
INFO
100
AcDbText
 10
0.0
 20
-4.5
 30
0.0
 40
1.0
  1

100
AcDbAttributeDefinition
  3
Beschreibung 1
  2
5GENINF
 70
     1
  0
ATTDEF
  5
929
330
908
100
AcDbEntity
  8
INFO
100
AcDbText
 10
0.0
 20
-6.0
 30
0.0
 40
1.0
  1

100
AcDbAttributeDefinition
  3
Beschreibung 2
  2
6GENINF
 70
     1
  0
ATTDEF
  5
92A
330
908
100
AcDbEntity
  8
INFO
100
AcDbText
 10
0.0
 20
-7.5
 30
0.0
 40
1.0
  1

100
AcDbAttributeDefinition
  3
Norm/Lieferant 1
  2
7GENINF
 70
     1
  0
ATTDEF
  5
92B
330
908
100
AcDbEntity
  8
INFO
100
AcDbText
 10
0.0
 20
-9.0
 30
0.0
 40
1.0
  1

100
AcDbAttributeDefinition
  3
Norm/Lieferant 2
  2
8GENINF
 70
     1
  0
ATTDEF
  5
92C
330
908
100
AcDbEntity
  8
INFO
100
AcDbText
 10
0.0
 20
-10.5
 30
0.0
 40
1.0
  1

100
AcDbAttributeDefinition
  3
Material 1
  2
9GENINF
 70
     1
  0
ATTDEF
  5
92D
330
908
100
AcDbEntity
  8
INFO
100
AcDbText
 10
0.0
 20
-12.0
 30
0.0
 40
1.0
  1

100
AcDbAttributeDefinition
  3
Material 2
  2
10GENINF
 70
     1
  0
ATTDEF
  5
92E
330
908
100
AcDbEntity
  8
INFO
100
AcDbText
 10
0.0
 20
-13.5
 30
0.0
 40
1.0
  1

100
AcDbAttributeDefinition
  3
Identnummer
  2
11GENINF
 70
     1
  0
ATTDEF
  5
92F
330
908
100
AcDbEntity
  8
INFO
100
AcDbText
 10
0.0
 20
-15.0
 30
0.0
 40
1.0
  1

100
AcDbAttributeDefinition
  3
Gewicht
  2
12GENINF
 70
     1
  0
ATTDEF
  5
930
330
908
100
AcDbEntity
  8
INFO
100
AcDbText
 10
0.0
 20
-16.5
 30
0.0
 40
1.0
  1

100
AcDbAttributeDefinition
  3
Preis
  2
13GENINF
 70
     1
  0
ATTDEF
  5
931
330
908
100
AcDbEntity
  8
INFO
100
AcDbText
 10
0.0
 20
-18.0
 30
0.0
 40
1.0
  1

100
AcDbAttributeDefinition
  3
Abmessungen
  2
14GENINF
 70
     1
  0
ATTDEF
  5
932
330
908
100
AcDbEntity
  8
INFO
100
AcDbText
 10
0.0
 20
-19.5
 30
0.0
 40
1.0
  1

100
AcDbAttributeDefinition
  3
User 1
  2
15GENINF
 70
     1
  0
ATTDEF
  5
933
330
908
100
AcDbEntity
  8
INFO
100
AcDbText
 10
0.0
 20
-21.0
 30
0.0
 40
1.0
  1

100
AcDbAttributeDefinition
  3
User 2
  2
16GENINF
 70
     1
  0
ATTDEF
  5
934
330
908
100
AcDbEntity
  8
INFO
100
AcDbText
 10
0.0
 20
-22.5
 30
0.0
 40
1.0
  1

100
AcDbAttributeDefinition
  3
User 3
  2
17GENINF
 70
     1
  0
ATTDEF
  5
935
330
908
100
AcDbEntity
  8
INFO
100
AcDbText
 10
0.0
 20
-24.0
 30
0.0
 40
1.0
  1

100
AcDbAttributeDefinition
  3
User 4
  2
18GENINF
 70
     1
  0
ATTDEF
  5
936
330
908
100
AcDbEntity
  8
INFO
100
AcDbText
 10
0.0
 20
-25.5
 30
0.0
 40
1.0
  1

100
AcDbAttributeDefinition
  3
User 5
  2
19GENINF
 70
     1
  0
ATTDEF
  5
937
330
908
100
AcDbEntity
  8
INFO
100
AcDbText
 10
0.0
 20
-27.0
 30
0.0
 40
1.0
  1

100
AcDbAttributeDefinition
  3
User 6
  2
20GENINF
 70
     1
  0
ATTDEF
  5
938
330
908
100
AcDbEntity
  8
INFO
100
AcDbText
 10
0.0
 20
-28.5
 30
0.0
 40
1.0
  1

100
AcDbAttributeDefinition
  3
User 7
  2
21GENINF
 70
     1
  0
ATTDEF
  5
939
330
908
100
AcDbEntity
  8
INFO
100
AcDbText
 10
0.0
 20
-30.0
 30
0.0
 40
1.0
  1

100
AcDbAttributeDefinition
  3
User 8
  2
22GENINF
 70
     1
  0
ATTDEF
  5
93A
330
908
100
AcDbEntity
  8
INFO
100
AcDbText
 10
0.0
 20
-31.5
 30
0.0
 40
1.0
  1

100
AcDbAttributeDefinition
  3
Filter
  2
23GENINF
 70
     1
  0
ATTDEF
  5
93B
330
908
100
AcDbEntity
  8
INFO
100
AcDbText
 10
0.0
 20
-33.0
 30
0.0
 40
1.0
  1

100
AcDbAttributeDefinition
  3
Bemerkung
  2
24GENINF
 70
     1
  0
ATTDEF
  5
93C
330
908
100
AcDbEntity
  8
INFO
100
AcDbText
 10
0.0
 20
-34.5
 30
0.0
 40
1.0
  1

100
AcDbAttributeDefinition
  3
Genius Normteile ID
  2
0GENINF
 70
     1
  0
ENDBLK
  5
93D
330
908
100
AcDbEntity
  8
0
100
AcDbBlockEnd
  0
BLOCK
  5
96C
330
961
100
AcDbEntity
  8
0
100
AcDbBlockBegin
  2
*X11
 70
     1
 10
0.0
 20
0.0
 30
0.0
  3
*X11
  1

  0
LINE
  5
962
330
961
100
AcDbEntity
  8
0
 62
     0
100
AcDbLine
 10
195.7325910981282
 20
244.522959
 30
0.0
 11
204.940584
 21
253.7309519018718
 31
0.0
  0
LINE
  5
963
330
961
100
AcDbEntity
  8
0
 62
     0
100
AcDbLine
 10
194.9007711382371
 20
245.8124593836686
 30
0.0
 11
203.5112707545686
 21
254.422959
 31
0.0
  0
LINE
  5
964
330
961
100
AcDbEntity
  8
0
 62
     0
100
AcDbLine
 10
194.5516911595359
 20
247.584699748527
 30
0.0
 11
203.3405835
 21
256.3735920889911
 31
0.0
  0
LINE
  5
965
330
961
100
AcDbEntity
  8
0
 62
     0
100
AcDbLine
 10
194.6508172845516
 20
249.8051462171023
 30
0.0
 11
201.3686300674493
 21
256.522959
 31
0.0
  0
LINE
  5
966
330
961
100
AcDbEntity
  8
0
 62
     0
100
AcDbLine
 10
195.3502358677832
 20
252.6258851438936
 30
0.0
 11
199.2473097238896
 21
256.522959
 31
0.0
  0
LINE
  5
967
330
961
100
AcDbEntity
  8
0
 62
     0
100
AcDbLine
 10
195.3544119924312
 20
254.7513816121012
 30
0.0
 11
197.12598938033
 21
256.522959
 31
0.0
  0
LINE
  5
968
330
961
100
AcDbEntity
  8
0
 62
     0
100
AcDbLine
 10
197.8539114416878
 20
244.522959
 30
0.0
 11
203.0405835
 21
249.7096310583121
 31
0.0
  0
LINE
  5
969
330
961
100
AcDbEntity
  8
0
 62
     0
100
AcDbLine
 10
204.3539109416879
 20
251.0229585
 30
0.0
 11
204.940584
 21
251.6096315583122
 31
0.0
  0
LINE
  5
96A
330
961
100
AcDbEntity
  8
0
 62
     0
100
AcDbLine
 10
199.9752317852475
 20
244.522959
 30
0.0
 11
203.0405835
 21
247.5883107147525
 31
0.0
  0
LINE
  5
96B
330
961
100
AcDbEntity
  8
0
 62
     0
100
AcDbLine
 10
202.0965521288072
 20
244.522959
 30
0.0
 11
203.0405835
 21
245.4669903711928
 31
0.0
  0
ENDBLK
  5
96D
330
961
100
AcDbEntity
  8
0
100
AcDbBlockEnd
  0
BLOCK
  5
976
330
96E
100
AcDbEntity
  8
0
100
AcDbBlockBegin
  2
*X12
 70
     1
 10
0.0
 20
0.0
 30
0.0
  3
*X12
  1

  0
LINE
  5
96F
330
96E
100
AcDbEntity
  8
0
 62
     0
100
AcDbLine
 10
213.640584
 20
249.7030298405139
 30
0.0
 11
214.3405845
 21
250.4030303405139
 31
0.0
  0
LINE
  5
970
330
96E
100
AcDbEntity
  8
0
 62
     0
100
AcDbLine
 10
212.8391923159264
 20
251.0229585
 30
0.0
 11
214.3405845
 21
252.5243506840735
 31
0.0
  0
LINE
  5
971
330
96E
100
AcDbEntity
  8
0
 62
     0
100
AcDbLine
 10
211.7405835
 20
252.0456700276332
 30
0.0
 11
214.3405845
 21
254.6456710276332
 31
0.0
  0
LINE
  5
972
330
96E
100
AcDbEntity
  8
0
 62
     0
100
AcDbLine
 10
211.7405835
 20
254.1669903711929
 30
0.0
 11
211.9965521288071
 21
254.422959
 31
0.0
  0
LINE
  5
973
330
96E
100
AcDbEntity
  8
0
 62
     0
100
AcDbLine
 10
213.340584
 20
255.7669908711929
 30
0.0
 11
214.0965521288072
 21
256.5229590000001
 31
0.0
  0
LINE
  5
974
330
96E
100
AcDbEntity
  8
0
 62
     0
100
AcDbLine
 10
213.640584
 20
247.5817094969542
 30
0.0
 11
214.3405845
 21
248.2817099969543
 31
0.0
  0
LINE
  5
975
330
96E
100
AcDbEntity
  8
0
 62
     0
100
AcDbLine
 10
213.640584
 20
245.4603891533946
 30
0.0
 11
214.3405845
 21
246.1603896533946
 31
0.0
  0
ENDBLK
  5
977
330
96E
100
AcDbEntity
  8
0
100
AcDbBlockEnd
  0
BLOCK
  5
97D
330
978
100
AcDbEntity
  8
0
100
AcDbBlockBegin
  2
*U13
 70
     1
 10
0.0
 20
0.0
 30
0.0
  3
*U13
  1
*U
  0
LINE
  5
979
330
978
100
AcDbEntity
  8
CENN
100
AcDbLine
 10
0.0
 20
-7.0
 30
0.0
 11
0.0
 21
7.0
 31
0.0
  0
CIRCLE
  5
97A
330
978
100
AcDbEntity
  8
BHMM
100
AcDbCircle
 10
0.0
 20
0.0
 30
0.0
 40
3.3235
  0
ARC
  5
97B
330
978
100
AcDbEntity
  8
THLI
100
AcDbCircle
 10
0.0
 20
0.0
 30
0.0
 40
4.0
100
AcDbArc
 50
280.0
 51
210.0
  0
LINE
  5
97C
330
978
100
AcDbEntity
  8
CENN
100
AcDbLine
 10
-7.0
 20
0.0
 30
0.0
 11
7.0
 21
0.0
 31
0.0
  0
ENDBLK
  5
97E
330
978
100
AcDbEntity
  8
0
100
AcDbBlockEnd
  0
BLOCK
  5
985
330
97F
100
AcDbEntity
  8
0
100
AcDbBlockBegin
  2
*U14
 70
     1
 10
0.0
 20
0.0
 30
0.0
  3
*U14
  1
*U
  0
INSERT
  5
980
330
97F
100
AcDbEntity
  8
GEV_FROZEN
100
AcDbBlockReference
  2
*U13
 10
0.0
 20
0.0
 30
0.0
 41
0.1
 42
0.1
 43
0.1
1001
GENBH
1002
{
1000
-NOBRK
1002
}
  0
LINE
  5
981
330
97F
100
AcDbEntity
  8
MSR3-7A
100
AcDbLine
 10
0.0
 20
-7.0
 30
0.0
 11
0.0
 21
7.0
 31
0.0
  0
CIRCLE
  5
982
330
97F
100
AcDbEntity
  8
MSR3-2
100
AcDbCircle
 10
0.0
 20
0.0
 30
0.0
 40
3.3235
  0
ARC
  5
983
330
97F
100
AcDbEntity
  8
MSR3-4
100
AcDbCircle
 10
0.0
 20
0.0
 30
0.0
 40
4.0
100
AcDbArc
 50
280.0
 51
210.0
  0
LINE
  5
984
330
97F
100
AcDbEntity
  8
MSR3-7A
100
AcDbLine
 10
-7.0
 20
0.0
 30
0.0
 11
7.0
 21
0.0
 31
0.0
  0
ENDBLK
  5
986
330
97F
100
AcDbEntity
  8
0
100
AcDbBlockEnd
  0
BLOCK
  5
98C
330
987
100
AcDbEntity
  8
0
100
AcDbBlockBegin
  2
*U15
 70
     1
 10
0.0
 20
0.0
 30
0.0
  3
*U15
  1
*U
  0
LINE
  5
988
330
987
100
AcDbEntity
  8
CENN
100
AcDbLine
 10
0.0
 20
-7.0
 30
0.0
 11
0.0
 21
7.0
 31
0.0
  0
CIRCLE
  5
989
330
987
100
AcDbEntity
  8
BHMM
100
AcDbCircle
 10
0.0
 20
0.0
 30
0.0
 40
3.3235
  0
ARC
  5
98A
330
987
100
AcDbEntity
  8
THLI
100
AcDbCircle
 10
0.0
 20
0.0
 30
0.0
 40
4.0
100
AcDbArc
 50
280.0
 51
210.0
  0
LINE
  5
98B
330
987
100
AcDbEntity
  8
CENN
100
AcDbLine
 10
-7.0
 20
0.0
 30
0.0
 11
7.0
 21
0.0
 31
0.0
  0
ENDBLK
  5
98D
330
987
100
AcDbEntity
  8
0
100
AcDbBlockEnd
  0
BLOCK
  5
994
330
98E
100
AcDbEntity
  8
0
100
AcDbBlockBegin
  2
*U16
 70
     1
 10
0.0
 20
0.0
 30
0.0
  3
*U16
  1
*U
  0
INSERT
  5
98F
330
98E
100
AcDbEntity
  8
GEV_FROZEN
100
AcDbBlockReference
  2
*U15
 10
0.0
 20
0.0
 30
0.0
 41
0.1
 42
0.1
 43
0.1
1001
GENBH
1002
{
1000
-NOBRK
1002
}
  0
LINE
  5
990
330
98E
100
AcDbEntity
  8
MSR3-7A
100
AcDbLine
 10
0.0
 20
-7.0
 30
0.0
 11
0.0
 21
7.0
 31
0.0
  0
CIRCLE
  5
991
330
98E
100
AcDbEntity
  8
MSR3-2
100
AcDbCircle
 10
0.0
 20
0.0
 30
0.0
 40
3.3235
  0
ARC
  5
992
330
98E
100
AcDbEntity
  8
MSR3-4
100
AcDbCircle
 10
0.0
 20
0.0
 30
0.0
 40
4.0
100
AcDbArc
 50
280.0
 51
210.0
  0
LINE
  5
993
330
98E
100
AcDbEntity
  8
MSR3-7A
100
AcDbLine
 10
-7.0
 20
0.0
 30
0.0
 11
7.0
 21
0.0
 31
0.0
  0
ENDBLK
  5
995
330
98E
100
AcDbEntity
  8
0
100
AcDbBlockEnd
  0
BLOCK
  5
99B
330
996
100
AcDbEntity
  8
0
100
AcDbBlockBegin
  2
*U17
 70
     1
 10
0.0
 20
0.0
 30
0.0
  3
*U17
  1
*U
  0
LINE
  5
997
330
996
100
AcDbEntity
  8
CENN
100
AcDbLine
 10
0.0
 20
-7.0
 30
0.0
 11
0.0
 21
7.0
 31
0.0
  0
CIRCLE
  5
998
330
996
100
AcDbEntity
  8
BHMM
100
AcDbCircle
 10
0.0
 20
0.0
 30
0.0
 40
3.3235
  0
ARC
  5
999
330
996
100
AcDbEntity
  8
THLI
100
AcDbCircle
 10
0.0
 20
0.0
 30
0.0
 40
4.0
100
AcDbArc
 50
280.0
 51
210.0
  0
LINE
  5
99A
330
996
100
AcDbEntity
  8
CENN
100
AcDbLine
 10
-7.0
 20
0.0
 30
0.0
 11
7.0
 21
0.0
 31
0.0
  0
ENDBLK
  5
99C
330
996
100
AcDbEntity
  8
0
100
AcDbBlockEnd
  0
BLOCK
  5
9A3
330
99D
100
AcDbEntity
  8
0
100
AcDbBlockBegin
  2
*U18
 70
     1
 10
0.0
 20
0.0
 30
0.0
  3
*U18
  1
*U
  0
INSERT
  5
99E
330
99D
100
AcDbEntity
  8
GEV_FROZEN
100
AcDbBlockReference
  2
*U17
 10
0.0
 20
0.0
 30
0.0
 41
0.1
 42
0.1
 43
0.1
1001
GENBH
1002
{
1000
-NOBRK
1002
}
  0
LINE
  5
99F
330
99D
100
AcDbEntity
  8
MSR3-7A
100
AcDbLine
 10
0.0
 20
-7.0
 30
0.0
 11
0.0
 21
7.0
 31
0.0
  0
CIRCLE
  5
9A0
330
99D
100
AcDbEntity
  8
MSR3-2
100
AcDbCircle
 10
0.0
 20
0.0
 30
0.0
 40
3.3235
  0
ARC
  5
9A1
330
99D
100
AcDbEntity
  8
MSR3-4
100
AcDbCircle
 10
0.0
 20
0.0
 30
0.0
 40
4.0
100
AcDbArc
 50
280.0
 51
210.0
  0
LINE
  5
9A2
330
99D
100
AcDbEntity
  8
MSR3-7A
100
AcDbLine
 10
-7.0
 20
0.0
 30
0.0
 11
7.0
 21
0.0
 31
0.0
  0
ENDBLK
  5
9A4
330
99D
100
AcDbEntity
  8
0
100
AcDbBlockEnd
  0
BLOCK
  5
9AA
330
9A5
100
AcDbEntity
  8
0
100
AcDbBlockBegin
  2
*U19
 70
     1
 10
0.0
 20
0.0
 30
0.0
  3
*U19
  1
*U
  0
LINE
  5
9A6
330
9A5
100
AcDbEntity
  8
CENN
100
AcDbLine
 10
0.0
 20
-7.0
 30
0.0
 11
0.0
 21
7.0
 31
0.0
  0
CIRCLE
  5
9A7
330
9A5
100
AcDbEntity
  8
BHMM
100
AcDbCircle
 10
0.0
 20
0.0
 30
0.0
 40
3.3235
  0
ARC
  5
9A8
330
9A5
100
AcDbEntity
  8
THLI
100
AcDbCircle
 10
0.0
 20
0.0
 30
0.0
 40
4.0
100
AcDbArc
 50
280.0
 51
210.0
  0
LINE
  5
9A9
330
9A5
100
AcDbEntity
  8
CENN
100
AcDbLine
 10
-7.0
 20
0.0
 30
0.0
 11
7.0
 21
0.0
 31
0.0
  0
ENDBLK
  5
9AB
330
9A5
100
AcDbEntity
  8
0
100
AcDbBlockEnd
  0
BLOCK
  5
9B2
330
9AC
100
AcDbEntity
  8
0
100
AcDbBlockBegin
  2
*U20
 70
     1
 10
0.0
 20
0.0
 30
0.0
  3
*U20
  1
*U
  0
INSERT
  5
9AD
330
9AC
100
AcDbEntity
  8
GEV_FROZEN
100
AcDbBlockReference
  2
*U19
 10
0.0
 20
0.0
 30
0.0
 41
0.1
 42
0.1
 43
0.1
1001
GENBH
1002
{
1000
-NOBRK
1002
}
  0
LINE
  5
9AE
330
9AC
100
AcDbEntity
  8
MSR3-7A
100
AcDbLine
 10
0.0
 20
-7.0
 30
0.0
 11
0.0
 21
7.0
 31
0.0
  0
CIRCLE
  5
9AF
330
9AC
100
AcDbEntity
  8
MSR3-2
100
AcDbCircle
 10
0.0
 20
0.0
 30
0.0
 40
3.3235
  0
ARC
  5
9B0
330
9AC
100
AcDbEntity
  8
MSR3-4
100
AcDbCircle
 10
0.0
 20
0.0
 30
0.0
 40
4.0
100
AcDbArc
 50
280.0
 51
210.0
  0
LINE
  5
9B1
330
9AC
100
AcDbEntity
  8
MSR3-7A
100
AcDbLine
 10
-7.0
 20
0.0
 30
0.0
 11
7.0
 21
0.0
 31
0.0
  0
ENDBLK
  5
9B3
330
9AC
100
AcDbEntity
  8
0
100
AcDbBlockEnd
  0
BLOCK
  5
B8C
330
9B4
100
AcDbEntity
  8
MSR3-0
100
AcDbBlockBegin
  2
0500B
 70
     0
 10
0.0
 20
0.0
 30
0.0
  3
0500B
  1

  0
LINE
  5
9B5
330
9B4
100
AcDbEntity
  8
MSR3-0
100
AcDbLine
 10
50.50000100000002
 20
-80.95867161469323
 30
0.0
 11
50.50000100000002
 21
-146.4586721146932
 31
0.0
  0
LINE
  5
9B6
330
9B4
100
AcDbEntity
  8
MSR3-0
100
AcDbLine
 10
105.827958
 20
-73.90530861469324
 30
0.0
 11
105.827958
 21
-146.4586721146932
 31
0.0
  0
LINE
  5
9B7
330
9B4
100
AcDbEntity
  8
MSR3-7
100
AcDbLine
 10
135.82795875
 20
-149.7494426146932
 30
0.0
 11
135.82795875
 21
-43.23800661469323
 31
0.0
  0
LINE
  5
9B8
330
9B4
100
AcDbEntity
  8
MSR3-0
100
AcDbLine
 10
165.8279595000001
 20
-73.90530861469324
 30
0.0
 11
165.8279595000001
 21
-146.4586721146932
 31
0.0
  0
LINE
  5
9B9
330
9B4
100
AcDbEntity
  8
MSR3-0
100
AcDbLine
 10
56.00000100000002
 20
-80.95867161469323
 30
0.0
 11
56.00000100000002
 21
-119.4586721146932
 31
0.0
  0
LINE
  5
9BA
330
9B4
100
AcDbEntity
  8
MSR3-0
100
AcDbLine
 10
118.8279585
 20
-108.2736251146932
 30
0.0
 11
110.327958
 21
-103.3661486146932
 31
0.0
  0
LINE
  5
9BB
330
9B4
100
AcDbEntity
  8
MSR3-7
100
AcDbLine
 10
118.8279585
 20
-87.21209811469321
 30
0.0
 11
118.8279585
 21
-110.1316301146932
 31
0.0
  0
LINE
  5
9BC
330
9B4
100
AcDbEntity
  8
MSR3-0
100
AcDbLine
 10
127.327959
 20
-103.3661486146932
 30
0.0
 11
118.8279585
 21
-108.2736251146932
 31
0.0
  0
LINE
  5
9BD
330
9B4
100
AcDbEntity
  8
MSR3-0
100
AcDbLine
 10
144.3279585
 20
-103.3661486146932
 30
0.0
 11
152.827959
 21
-108.2736251146932
 31
0.0
  0
LINE
  5
9BE
330
9B4
100
AcDbEntity
  8
MSR3-7
100
AcDbLine
 10
152.827959
 20
-87.01366161469321
 30
0.0
 11
152.827959
 21
-109.6355351146933
 31
0.0
  0
LINE
  5
9BF
330
9B4
100
AcDbEntity
  8
MSR3-0
100
AcDbLine
 10
152.827959
 20
-108.2736251146932
 30
0.0
 11
161.3279595
 21
-103.3661486146932
 31
0.0
  0
LINE
  5
9C0
330
9B4
100
AcDbEntity
  8
MSR3-0
100
AcDbLine
 10
-58.9999995
 20
-78.95867061469323
 30
0.0
 11
-58.9999995
 21
-146.4586721146932
 31
0.0
  0
LINE
  5
9C1
330
9B4
100
AcDbEntity
  8
MSR3-7
100
AcDbLine
 10
0.0
 20
-149.7494426146932
 30
0.0
 11
0.0
 21
-43.23800661469323
 31
0.0
  0
ARC
  5
9C2
330
9B4
100
AcDbEntity
  8
MSR3-4
100
AcDbCircle
 10
-54.77580299999999
 20
-107.7032621146932
 30
0.0
 40
2.5
100
AcDbArc
 50
180.0
 51
90.0
  0
LINE
  5
9C3
330
9B4
100
AcDbEntity
  8
MSR3-0
100
AcDbLine
 10
-63.99999899999994
 20
-88.96847361469326
 30
0.0
 11
-63.99999899999994
 21
-111.4380491146932
 31
0.0
  0
LINE
  5
9C4
330
9B4
100
AcDbEntity
  8
MSR3-0
100
AcDbLine
 10
-49.9999995
 20
-78.95867061469323
 30
0.0
 11
-49.9999995
 21
-119.4586721146932
 31
0.0
  0
LINE
  5
9C5
330
9B4
100
AcDbEntity
  8
MSR3-7
100
AcDbLine
 10
-54.77580299999999
 20
-103.9646066146932
 30
0.0
 11
-54.77580299999999
 21
-111.7860341146933
 31
0.0
  0
CIRCLE
  5
9C6
330
9B4
100
AcDbEntity
  8
MSR3-0
100
AcDbCircle
 10
-54.77580299999999
 20
-107.7032621146932
 30
0.0
 40
2.099999999999999
  0
TEXT
  5
9C7
330
9B4
100
AcDbEntity
  8
MSR3-6
100
AcDbText
 10
-52.89753266703153
 20
-140.6949869655541
 30
0.0
 40
3.5
  1
MSR 3
100
AcDbText
  0
LINE
  5
9C8
330
9B4
100
AcDbEntity
  8
MSR3-0
100
AcDbLine
 10
-42.99999899999995
 20
-230.9965388418657
 30
0.0
 11
-58.9999995
 21
-230.9965388418657
 31
0.0
  0
LINE
  5
9C9
330
9B4
100
AcDbEntity
  8
MSR3-7
100
AcDbLine
 10
-84.64968149999998
 20
-223.9965383418657
 30
0.0
 11
-30.00000000000003
 21
-223.9965383418657
 31
0.0
  0
LINE
  5
9CA
330
9B4
100
AcDbEntity
  8
MSR3-0
100
AcDbLine
 10
-42.99999899999995
 20
-170.9965373418657
 30
0.0
 11
-58.9999995
 21
-170.9965373418657
 31
0.0
  0
LINE
  5
9CB
330
9B4
100
AcDbEntity
  8
MSR3-7
100
AcDbLine
 10
-84.64968149999998
 20
-177.9965378418657
 30
0.0
 11
-30.00000000000003
 21
-177.9965378418657
 31
0.0
  0
LINE
  5
9CC
330
9B4
100
AcDbEntity
  8
MSR3-0
100
AcDbLine
 10
56.00000100000002
 20
-119.4586721146932
 30
0.0
 11
-58.9999995
 21
-119.4586721146932
 31
0.0
  0
LINE
  5
9CD
330
9B4
100
AcDbEntity
  8
MSR3-0
100
AcDbLine
 10
-58.9999995
 20
-146.4586721146932
 30
0.0
 11
50.50000100000005
 21
-146.4586721146932
 31
0.0
  0
LINE
  5
9CE
330
9B4
100
AcDbEntity
  8
MSR3-0
100
AcDbLine
 10
-48.99999899999994
 20
-170.9965373418657
 30
0.0
 11
-48.99999899999994
 21
-230.9965388418657
 31
0.0
  0
LINE
  5
9CF
330
9B4
100
AcDbEntity
  8
MSR3-0
100
AcDbLine
 10
-81.99999899999994
 20
-170.4965378418657
 30
0.0
 11
-81.99999899999994
 21
-185.4965378418657
 31
0.0
  0
LINE
  5
9D0
330
9B4
100
AcDbEntity
  8
MSR3-0
100
AcDbLine
 10
-69.99999899999995
 20
-185.4965378418657
 30
0.0
 11
-69.99999899999995
 21
-170.4965378418657
 31
0.0
  0
LINE
  5
9D1
330
9B4
100
AcDbEntity
  8
MSR3-0
100
AcDbLine
 10
-69.99999899999995
 20
-231.4965383418657
 30
0.0
 11
-69.99999899999995
 21
-216.4965383418657
 31
0.0
  0
LINE
  5
9D2
330
9B4
100
AcDbEntity
  8
MSR3-0
100
AcDbLine
 10
-81.99999899999994
 20
-216.4965383418657
 30
0.0
 11
-81.99999899999994
 21
-231.4965383418657
 31
0.0
  0
LINE
  5
9D3
330
9B4
100
AcDbEntity
  8
MSR3-0
100
AcDbLine
 10
-81.99999899999994
 20
-231.4965383418657
 30
0.0
 11
-69.99999899999995
 21
-231.4965383418657
 31
0.0
  0
LINE
  5
9D4
330
9B4
100
AcDbEntity
  8
MSR3-0
100
AcDbLine
 10
-81.99999899999994
 20
-227.4965378418657
 30
0.0
 11
-69.99999899999995
 21
-227.4965378418657
 31
0.0
  0
LINE
  5
9D5
330
9B4
100
AcDbEntity
  8
MSR3-0
100
AcDbLine
 10
-81.99999899999994
 20
-220.4965373418657
 30
0.0
 11
-69.99999899999995
 21
-220.4965373418657
 31
0.0
  0
LINE
  5
9D6
330
9B4
100
AcDbEntity
  8
MSR3-0
100
AcDbLine
 10
-81.99999899999994
 20
-231.4965383418657
 30
0.0
 11
-81.99999899999994
 21
-231.4965383418657
 31
0.0
  0
LINE
  5
9D7
330
9B4
100
AcDbEntity
  8
MSR3-0
100
AcDbLine
 10
-48.99999899999994
 20
-228.9965378418657
 30
0.0
 11
-69.99999899999995
 21
-228.9965378418657
 31
0.0
  0
LINE
  5
9D8
330
9B4
100
AcDbEntity
  8
MSR3-4
100
AcDbLine
 10
-69.99999899999995
 20
-228.4965383418657
 30
0.0
 11
-48.99999899999994
 21
-228.4965383418657
 31
0.0
  0
LINE
  5
9D9
330
9B4
100
AcDbEntity
  8
MSR3-4
100
AcDbLine
 10
-69.99999899999995
 20
-219.4965383418657
 30
0.0
 11
-48.99999899999994
 21
-219.4965383418657
 31
0.0
  0
LINE
  5
9DA
330
9B4
100
AcDbEntity
  8
MSR3-0
100
AcDbLine
 10
-58.9999995
 20
-230.9965388418657
 30
0.0
 11
-58.9999995
 21
-228.9965378418657
 31
0.0
  0
LINE
  5
9DB
330
9B4
100
AcDbEntity
  8
MSR3-0
100
AcDbLine
 10
-69.99999899999995
 20
-216.4965383418657
 30
0.0
 11
-81.99999899999994
 21
-216.4965383418657
 31
0.0
  0
LINE
  5
9DC
330
9B4
100
AcDbEntity
  8
MSR3-0
100
AcDbLine
 10
-81.99999899999994
 20
-185.4965378418657
 30
0.0
 11
-69.99999899999995
 21
-185.4965378418657
 31
0.0
  0
LINE
  5
9DD
330
9B4
100
AcDbEntity
  8
MSR3-0
100
AcDbLine
 10
-81.99999899999994
 20
-185.4965378418657
 30
0.0
 11
-81.99999899999994
 21
-185.4965378418657
 31
0.0
  0
LINE
  5
9DE
330
9B4
100
AcDbEntity
  8
MSR3-0
100
AcDbLine
 10
-58.9999995
 20
-218.9965373418657
 30
0.0
 11
-58.9999995
 21
-182.9965373418657
 31
0.0
  0
LINE
  5
9DF
330
9B4
100
AcDbEntity
  8
MSR3-0
100
AcDbLine
 10
-48.99999899999994
 20
-218.9965373418657
 30
0.0
 11
-69.99999899999995
 21
-218.9965373418657
 31
0.0
  0
LINE
  5
9E0
330
9B4
100
AcDbEntity
  8
MSR3-0
100
AcDbLine
 10
-63.99999899999994
 20
-216.4965383418657
 30
0.0
 11
-58.9999995
 21
-216.4965383418657
 31
0.0
  0
LINE
  5
9E1
330
9B4
100
AcDbEntity
  8
MSR3-0
100
AcDbLine
 10
-63.99999899999994
 20
-216.4965383418657
 30
0.0
 11
-58.9999995
 21
-216.4965383418657
 31
0.0
  0
LINE
  5
9E2
330
9B4
100
AcDbEntity
  8
MSR3-0
100
AcDbLine
 10
-63.99999899999994
 20
-210.9220313418657
 30
0.0
 11
-58.9999995
 21
-210.9220313418657
 31
0.0
  0
LINE
  5
9E3
330
9B4
100
AcDbEntity
  8
MSR3-0
100
AcDbLine
 10
-58.9999995
 20
-205.2617513418657
 30
0.0
 11
-63.99999899999994
 21
-205.2617513418657
 31
0.0
  0
LINE
  5
9E4
330
9B4
100
AcDbEntity
  8
MSR3-0
100
AcDbLine
 10
-63.99999899999994
 20
-205.2617513418657
 30
0.0
 11
-63.99999899999994
 21
-218.9965373418657
 31
0.0
  0
LINE
  5
9E5
330
9B4
100
AcDbEntity
  8
MSR3-0
100
AcDbLine
 10
-58.9999995
 20
-196.7313263418657
 30
0.0
 11
-63.99999899999994
 21
-196.7313263418657
 31
0.0
  0
LINE
  5
9E6
330
9B4
100
AcDbEntity
  8
MSR3-0
100
AcDbLine
 10
-63.99999899999994
 20
-191.0710448418657
 30
0.0
 11
-58.9999995
 21
-191.0710448418657
 31
0.0
  0
LINE
  5
9E7
330
9B4
100
AcDbEntity
  8
MSR3-0
100
AcDbLine
 10
-48.99999899999994
 20
-182.9965373418657
 30
0.0
 11
-69.99999899999995
 21
-182.9965373418657
 31
0.0
  0
LINE
  5
9E8
330
9B4
100
AcDbEntity
  8
MSR3-4
100
AcDbLine
 10
-69.99999899999995
 20
-182.4965378418657
 30
0.0
 11
-48.99999899999994
 21
-182.4965378418657
 31
0.0
  0
LINE
  5
9E9
330
9B4
100
AcDbEntity
  8
MSR3-0
100
AcDbLine
 10
-63.99999899999994
 20
-185.4965378418657
 30
0.0
 11
-58.9999995
 21
-185.4965378418657
 31
0.0
  0
LINE
  5
9EA
330
9B4
100
AcDbEntity
  8
MSR3-0
100
AcDbLine
 10
-63.99999899999994
 20
-185.4965378418657
 30
0.0
 11
-58.9999995
 21
-185.4965378418657
 31
0.0
  0
LINE
  5
9EB
330
9B4
100
AcDbEntity
  8
MSR3-0
100
AcDbLine
 10
-63.99999899999994
 20
-196.7313263418657
 30
0.0
 11
-63.99999899999994
 21
-182.9965373418657
 31
0.0
  0
LINE
  5
9EC
330
9B4
100
AcDbEntity
  8
MSR3-0
100
AcDbLine
 10
-69.99999899999995
 20
-170.4965378418657
 30
0.0
 11
-81.99999899999994
 21
-170.4965378418657
 31
0.0
  0
LINE
  5
9ED
330
9B4
100
AcDbEntity
  8
MSR3-0
100
AcDbLine
 10
-81.99999899999994
 20
-174.4965383418657
 30
0.0
 11
-69.99999899999995
 21
-174.4965383418657
 31
0.0
  0
LINE
  5
9EE
330
9B4
100
AcDbEntity
  8
MSR3-0
100
AcDbLine
 10
-81.99999899999994
 20
-181.4965373418657
 30
0.0
 11
-69.99999899999995
 21
-181.4965373418657
 31
0.0
  0
LINE
  5
9EF
330
9B4
100
AcDbEntity
  8
MSR3-0
100
AcDbLine
 10
-48.99999899999994
 20
-172.9965383418656
 30
0.0
 11
-69.99999899999995
 21
-172.9965383418656
 31
0.0
  0
LINE
  5
9F0
330
9B4
100
AcDbEntity
  8
MSR3-4
100
AcDbLine
 10
-69.99999899999995
 20
-173.4965378418657
 30
0.0
 11
-48.99999899999994
 21
-173.4965378418657
 31
0.0
  0
LINE
  5
9F1
330
9B4
100
AcDbEntity
  8
MSR3-0
100
AcDbLine
 10
-58.9999995
 20
-172.9965383418656
 30
0.0
 11
-58.9999995
 21
-170.9965373418657
 31
0.0
  0
LINE
  5
9F2
330
9B4
100
AcDbEntity
  8
MSR3-0
100
AcDbLine
 10
-58.9999995
 20
-111.4380491146932
 30
0.0
 11
-63.99999899999994
 21
-111.4380491146932
 31
0.0
  0
LINE
  5
9F3
330
9B4
100
AcDbEntity
  8
MSR3-2
100
AcDbLine
 10
30.0000015
 20
-230.9965388418657
 30
0.0
 11
30.0000015
 21
-170.9965373418657
 31
0.0
  0
LINE
  5
9F4
330
9B4
100
AcDbEntity
  8
MSR3-0
100
AcDbLine
 10
50.50000100000002
 20
-230.9965388418657
 30
0.0
 11
50.50000100000002
 21
-170.9965373418657
 31
0.0
  0
LINE
  5
9F5
330
9B4
100
AcDbEntity
  8
MSR3-7
100
AcDbLine
 10
24.0000015
 20
-167.8631813418657
 30
0.0
 11
24.0000015
 21
-186.0449993418657
 31
0.0
1001
GENIUS_GENOREF_13
1005
B8B
  0
LINE
  5
9F6
330
9B4
100
AcDbEntity
  8
MSR3-0
100
AcDbLine
 10
56.00000100000002
 20
-230.9965388418657
 30
0.0
 11
56.00000100000002
 21
-170.9965373418657
 31
0.0
  0
INSERT
  5
9F7
330
9B4
100
AcDbEntity
  8
MSR3-2
100
AcDbBlockReference
  2
*U20
 10
-24.0
 20
-176.9965373418657
 30
0.0
1001
GENIUS_GEFPARTINS_13
1002
{
1011
-24.0
1021
-176.9965373418657
1031
0.0
1013
1.0
1023
0.0
1033
0.0
1002
}
1001
VCC
1002
{
1000
-ID8
1000
-IE4
1000
-IK8
1000
-V$PV_GENSYSTEM"GEF\VAL\DI\0401\DI1616_D.DXF"
1002
}
1001
GEVIT
1002
{
1000
-BEHI4.00000001
1000
-BVCCT0
1000
-GRP0?
1000
-BAML2
1000
-BASK1
1000
-NT0
1000
-DOC
1005
9AA
1000
-MYREF
1005
9F7
1002
}
1001
GEVPT
1002
{
1000
-V$PV_GENSYSTEM"GEF\VAL\DI\0401\DI1616_D.DXF"
1000
-GPGEF_PROCALC=1
1000
-GPGEF_FLIPY=1
1000
-GPGEF_FLIPX=1
1000
-GPGEF_SNK_ADD=0
1000
-GPGEVPROMPTX=Länge:
1000
-GPGEF_OANG=70
1000
-GPGEF_STANG=210
1000
-GPGEF_DRAG=1
1000
-GPGEF_CDIST=3
1000
-GPVCC_TABLE=C:\GENIUS\gef\val\di\0401\di1616.val
1000
-GPNND=8
1000
-GPPRE=M
1002
}
1001
GENIUS_GENOREF_13
1005
B8A
1005
B89
1001
GEVMK
1002
{
1000
-CO
1000
-MYREF
1005
9F7
1002
}
1001
GEVID886402961
1002
{
1002
}
  0
LINE
  5
9F8
330
9B4
100
AcDbEntity
  8
MSR3-0
100
AcDbLine
 10
-30.99999899999995
 20
-230.9965388418657
 30
0.0
 11
-30.99999899999995
 21
-170.9965373418657
 31
0.0
  0
LINE
  5
9F9
330
9B4
100
AcDbEntity
  8
MSR3-0
100
AcDbLine
 10
-42.99999899999995
 20
-230.9965388418657
 30
0.0
 11
-42.99999899999995
 21
-170.9965373418657
 31
0.0
  0
LINE
  5
9FA
330
9B4
100
AcDbEntity
  8
MSR3-2
100
AcDbLine
 10
-30.0
 20
-230.9965388418657
 30
0.0
 11
-30.0
 21
-170.9965373418657
 31
0.0
  0
LINE
  5
9FB
330
9B4
100
AcDbEntity
  8
MSR3-7
100
AcDbLine
 10
-24.0
 20
-167.8631813418657
 30
0.0
 11
-24.0
 21
-186.0449993418657
 31
0.0
1001
GENIUS_GENOREF_13
1005
B88
  0
INSERT
  5
9FC
330
9B4
100
AcDbEntity
  8
MSR3-2
100
AcDbBlockReference
  2
*U18
 10
24.0000015
 20
-176.9965373418657
 30
0.0
1001
GENIUS_GEFPARTINS_13
1002
{
1011
24.0000015
1021
-176.9965373418657
1031
0.0
1013
1.0
1023
0.0
1033
0.0
1002
}
1001
VCC
1002
{
1000
-ID7
1000
-IE3
1000
-IK7
1000
-V$PV_GENSYSTEM"GEF\VAL\DI\0401\DI1616_D.DXF"
1002
}
1001
GEVIT
1002
{
1000
-BEHI3.00000001
1000
-BVCCT0
1000
-GRP0?
1000
-BAML2
1000
-BASK1
1000
-NT0
1000
-DOC
1005
99B
1000
-MYREF
1005
9FC
1002
}
1001
GEVPT
1002
{
1000
-V$PV_GENSYSTEM"GEF\VAL\DI\0401\DI1616_D.DXF"
1000
-GPGEF_PROCALC=1
1000
-GPGEF_FLIPY=1
1000
-GPGEF_FLIPX=1
1000
-GPGEF_SNK_ADD=0
1000
-GPGEVPROMPTX=Länge:
1000
-GPGEF_OANG=70
1000
-GPGEF_STANG=210
1000
-GPGEF_DRAG=1
1000
-GPGEF_CDIST=3
1000
-GPVCC_TABLE=C:\GENIUS\gef\val\di\0401\di1616.val
1000
-GPNND=8
1000
-GPPRE=M
1002
}
1001
GENIUS_GENOREF_13
1005
B87
1005
B86
1001
GEVMK
1002
{
1000
-CO
1000
-MYREF
1005
9FC
1002
}
1001
GEVID886402960
1002
{
1002
}
  0
LINE
  5
9FD
330
9B4
100
AcDbEntity
  8
MSR3-2
100
AcDbLine
 10
30.00000149999997
 20
-230.9965388418657
 30
0.0
 11
-30.0
 21
-230.9965388418657
 31
0.0
  0
INSERT
  5
9FE
330
9B4
100
AcDbEntity
  8
MSR3-2
100
AcDbBlockReference
  2
*U14
 10
-24.0
 20
-224.9965388418657
 30
0.0
1001
GENIUS_GEFPARTINS_13
1002
{
1011
-24.0
1021
-224.9965388418657
1031
0.0
1013
1.0
1023
0.0
1033
0.0
1002
}
1001
VCC
1002
{
1000
-ID5
1000
-IE1
1000
-IK5
1000
-V$PV_GENSYSTEM"GEF\VAL\DI\0401\DI1616_D.DXF"
1002
}
1001
GEVIT
1002
{
1000
-BEHI1.00000001
1000
-BVCCT0
1000
-GRP0?
1000
-BAML2
1000
-BASK1
1000
-NT0
1000
-DOC
1005
97D
1000
-MYREF
1005
9FE
1002
}
1001
GEVPT
1002
{
1000
-V$PV_GENSYSTEM"GEF\VAL\DI\0401\DI1616_D.DXF"
1000
-GPGEF_PROCALC=1
1000
-GPGEF_FLIPY=1
1000
-GPGEF_FLIPX=1
1000
-GPGEF_SNK_ADD=0
1000
-GPGEVPROMPTX=Länge:
1000
-GPGEF_OANG=70
1000
-GPGEF_STANG=210
1000
-GPGEF_DRAG=1
1000
-GPGEF_CDIST=3
1000
-GPVCC_TABLE=C:\GENIUS\gef\val\di\0401\di1616.val
1000
-GPNND=8
1000
-GPPRE=M
1002
}
1001
GENIUS_GENOREF_13
1005
B85
1005
B84
1001
GEVMK
1002
{
1000
-CO
1000
-MYREF
1005
9FE
1002
}
1001
GEVID886402958
1002
{
1002
}
  0
LINE
  5
9FF
330
9B4
100
AcDbEntity
  8
MSR3-7
100
AcDbLine
 10
-24.0
 20
-215.8631813418657
 30
0.0
 11
-24.0
 21
-234.0450008418657
 31
0.0
1001
GENIUS_GENOREF_13
1005
B83
  0
CIRCLE
  5
A00
330
9B4
100
AcDbEntity
  8
MSR3-2
100
AcDbCircle
 10
-24.0
 20
-224.9965388418657
 30
0.0
 40
4.9999995
  0
LINE
  5
A01
330
9B4
100
AcDbEntity
  8
MSR3-7
100
AcDbLine
 10
-32.90497499999998
 20
-224.9965388418657
 30
0.0
 11
-16.17770249999995
 21
-224.9965388418657
 31
0.0
1001
GENIUS_GENOREF_13
1005
B83
  0
LINE
  5
A02
330
9B4
100
AcDbEntity
  8
MSR3-0
100
AcDbLine
 10
-30.00000000000006
 20
-230.9965388418657
 30
0.0
 11
-42.99999899999995
 21
-230.9965388418657
 31
0.0
  0
LINE
  5
A03
330
9B4
100
AcDbEntity
  8
MSR3-0
100
AcDbLine
 10
-30.0
 20
-228.9965378418657
 30
0.0
 11
-30.99999899999995
 21
-228.9965378418657
 31
0.0
  0
LINE
  5
A04
330
9B4
100
AcDbEntity
  8
MSR3-4
100
AcDbLine
 10
-30.0
 20
-228.4965383418657
 30
0.0
 11
-30.99999899999995
 21
-228.4965383418657
 31
0.0
  0
LINE
  5
A05
330
9B4
100
AcDbEntity
  8
MSR3-4
100
AcDbLine
 10
-30.0
 20
-219.4965383418657
 30
0.0
 11
-30.99999899999995
 21
-219.4965383418657
 31
0.0
  0
LINE
  5
A06
330
9B4
100
AcDbEntity
  8
MSR3-0
100
AcDbLine
 10
-30.0
 20
-218.9965388418657
 30
0.0
 11
-30.99999899999995
 21
-218.9965388418657
 31
0.0
  0
LINE
  5
A07
330
9B4
100
AcDbEntity
  8
MSR3-0
100
AcDbLine
 10
-42.99999899999995
 20
-183.9965378418657
 30
0.0
 11
-42.99999899999995
 21
-186.0170408418657
 31
0.0
  0
LINE
  5
A08
330
9B4
100
AcDbEntity
  8
MSR3-0
100
AcDbLine
 10
-30.0
 20
-182.9965373418657
 30
0.0
 11
-30.99999899999995
 21
-182.9965373418657
 31
0.0
  0
LINE
  5
A09
330
9B4
100
AcDbEntity
  8
MSR3-4
100
AcDbLine
 10
-30.0
 20
-182.4965378418657
 30
0.0
 11
-30.99999899999995
 21
-182.4965378418657
 31
0.0
  0
CIRCLE
  5
A0A
330
9B4
100
AcDbEntity
  8
MSR3-2
100
AcDbCircle
 10
0.0
 20
-200.9965373418657
 30
0.0
 40
4.5
  0
LINE
  5
A0B
330
9B4
100
AcDbEntity
  8
MSR3-7
100
AcDbLine
 10
0.0
 20
-194.2770383418657
 30
0.0
 11
0.0
 21
-207.7266908418657
 31
0.0
  0
LINE
  5
A0C
330
9B4
100
AcDbEntity
  8
MSR3-7
100
AcDbLine
 10
-7.008013500000004
 20
-200.9965373418657
 30
0.0
 11
6.706222500000023
 21
-200.9965373418657
 31
0.0
  0
LINE
  5
A0D
330
9B4
100
AcDbEntity
  8
MSR3-7
100
AcDbLine
 10
24.0000015
 20
-215.8631813418657
 30
0.0
 11
24.0000015
 21
-234.0450008418657
 31
0.0
1001
GENIUS_GENOREF_13
1005
B82
  0
INSERT
  5
A0E
330
9B4
100
AcDbEntity
  8
MSR3-2
100
AcDbBlockReference
  2
*U16
 10
24.0000015
 20
-224.9965388418657
 30
0.0
1001
GENIUS_GEFPARTINS_13
1002
{
1011
24.0000015
1021
-224.9965388418657
1031
0.0
1013
1.0
1023
0.0
1033
0.0
1002
}
1001
VCC
1002
{
1000
-ID6
1000
-IE2
1000
-IK6
1000
-V$PV_GENSYSTEM"GEF\VAL\DI\0401\DI1616_D.DXF"
1002
}
1001
GEVIT
1002
{
1000
-BEHI2.00000001
1000
-BVCCT0
1000
-GRP0?
1000
-BAML2
1000
-BASK1
1000
-NT0
1000
-DOC
1005
98C
1000
-MYREF
1005
A0E
1002
}
1001
GEVPT
1002
{
1000
-V$PV_GENSYSTEM"GEF\VAL\DI\0401\DI1616_D.DXF"
1000
-GPGEF_PROCALC=1
1000
-GPGEF_FLIPY=1
1000
-GPGEF_FLIPX=1
1000
-GPGEF_SNK_ADD=0
1000
-GPGEVPROMPTX=Länge:
1000
-GPGEF_OANG=70
1000
-GPGEF_STANG=210
1000
-GPGEF_DRAG=1
1000
-GPGEF_CDIST=3
1000
-GPVCC_TABLE=C:\GENIUS\gef\val\di\0401\di1616.val
1000
-GPNND=8
1000
-GPPRE=M
1002
}
1001
GENIUS_GENOREF_13
1005
B81
1005
B80
1001
GEVMK
1002
{
1000
-CO
1000
-MYREF
1005
A0E
1002
}
1001
GEVID886402959
1002
{
1002
}
  0
TEXT
  5
A0F
330
9B4
100
AcDbEntity
  8
MSR3-6
100
AcDbText
 10
34.48432067500417
 20
-225.2328536927265
 30
0.0
 40
3.5
  1
MSR 3
100
AcDbText
  0
LINE
  5
A10
330
9B4
100
AcDbEntity
  8
MSR3-0
100
AcDbLine
 10
56.00000100000002
 20
-230.9965388418657
 30
0.0
 11
30.00000149999997
 21
-230.9965388418657
 31
0.0
  0
LINE
  5
A11
330
9B4
100
AcDbEntity
  8
MSR3-7
100
AcDbLine
 10
15.09502500000002
 20
-224.9965388418657
 30
0.0
 11
31.82229750000002
 21
-224.9965388418657
 31
0.0
1001
GENIUS_GENOREF_13
1005
B82
  0
CIRCLE
  5
A12
330
9B4
100
AcDbEntity
  8
MSR3-2
100
AcDbCircle
 10
24.0000015
 20
-224.9965388418657
 30
0.0
 40
4.9999995
  0
LINE
  5
A13
330
9B4
100
AcDbEntity
  8
MSR3-2
100
AcDbLine
 10
-30.00000000000006
 20
-170.9965373418657
 30
0.0
 11
30.0000015
 21
-170.9965373418657
 31
0.0
  0
LINE
  5
A14
330
9B4
100
AcDbEntity
  8
MSR3-7
100
AcDbLine
 10
-19.9999995
 20
-117.6291431146932
 30
0.0
 11
-19.9999995
 21
-148.9494416146932
 31
0.0
  0
LINE
  5
A15
330
9B4
100
AcDbEntity
  8
MSR3-3
100
AcDbLine
 10
-17.49999899999994
 20
-119.4586721146932
 30
0.0
 11
-17.49999899999994
 21
-146.4586721146932
 31
0.0
  0
LINE
  5
A16
330
9B4
100
AcDbEntity
  8
MSR3-3
100
AcDbLine
 10
-16.9999995
 20
-119.4586721146932
 30
0.0
 11
-16.9999995
 21
-146.4586721146932
 31
0.0
  0
LINE
  5
A17
330
9B4
100
AcDbEntity
  8
MSR3-3
100
AcDbLine
 10
-22.9999995
 20
-119.4586721146932
 30
0.0
 11
-22.9999995
 21
-146.4586721146932
 31
0.0
  0
LINE
  5
A18
330
9B4
100
AcDbEntity
  8
MSR3-3
100
AcDbLine
 10
-22.5
 20
-119.4586721146932
 30
0.0
 11
-22.5
 21
-146.4586721146932
 31
0.0
  0
CIRCLE
  5
A19
330
9B4
100
AcDbEntity
  8
MSR3-2
100
AcDbCircle
 10
-24.0
 20
-176.9965373418657
 30
0.0
 40
4.9999995
  0
LINE
  5
A1A
330
9B4
100
AcDbEntity
  8
MSR3-7
100
AcDbLine
 10
-32.90497499999998
 20
-176.9965373418657
 30
0.0
 11
-16.17770249999995
 21
-176.9965373418657
 31
0.0
1001
GENIUS_GENOREF_13
1005
B88
  0
LINE
  5
A1B
330
9B4
100
AcDbEntity
  8
MSR3-0
100
AcDbLine
 10
-30.00000000000006
 20
-170.9965373418657
 30
0.0
 11
-42.99999899999995
 21
-170.9965373418657
 31
0.0
  0
LINE
  5
A1C
330
9B4
100
AcDbEntity
  8
MSR3-4
100
AcDbLine
 10
-30.0
 20
-173.4965378418657
 30
0.0
 11
-30.99999899999995
 21
-173.4965378418657
 31
0.0
  0
LINE
  5
A1D
330
9B4
100
AcDbEntity
  8
MSR3-0
100
AcDbLine
 10
-30.0
 20
-172.9965383418656
 30
0.0
 11
-30.99999899999995
 21
-172.9965383418656
 31
0.0
  0
LINE
  5
A1E
330
9B4
100
AcDbEntity
  8
MSR3-3
100
AcDbLine
 10
22.50000149999999
 20
-119.4586721146932
 30
0.0
 11
22.50000149999999
 21
-146.4586721146932
 31
0.0
  0
LINE
  5
A1F
330
9B4
100
AcDbEntity
  8
MSR3-3
100
AcDbLine
 10
23.00000100000003
 20
-119.4586721146932
 30
0.0
 11
23.00000100000003
 21
-146.4586721146932
 31
0.0
  0
LINE
  5
A20
330
9B4
100
AcDbEntity
  8
MSR3-7
100
AcDbLine
 10
20.00000100000002
 20
-117.3291431146932
 30
0.0
 11
20.00000100000002
 21
-148.7494421146932
 31
0.0
  0
LINE
  5
A21
330
9B4
100
AcDbEntity
  8
MSR3-3
100
AcDbLine
 10
17.00000100000002
 20
-119.4586721146932
 30
0.0
 11
17.00000100000002
 21
-146.4586721146932
 31
0.0
  0
LINE
  5
A22
330
9B4
100
AcDbEntity
  8
MSR3-3
100
AcDbLine
 10
17.5000005
 20
-119.4586721146932
 30
0.0
 11
17.5000005
 21
-146.4586721146932
 31
0.0
  0
LINE
  5
A23
330
9B4
100
AcDbEntity
  8
MSR3-0
100
AcDbLine
 10
56.00000100000002
 20
-170.9965373418657
 30
0.0
 11
30.00000149999997
 21
-170.9965373418657
 31
0.0
  0
LINE
  5
A24
330
9B4
100
AcDbEntity
  8
MSR3-7
100
AcDbLine
 10
15.09502500000002
 20
-176.9965373418657
 30
0.0
 11
31.82229750000002
 21
-176.9965373418657
 31
0.0
1001
GENIUS_GENOREF_13
1005
B8B
  0
CIRCLE
  5
A25
330
9B4
100
AcDbEntity
  8
MSR3-2
100
AcDbCircle
 10
24.0000015
 20
-176.9965373418657
 30
0.0
 40
4.9999995
  0
TEXT
  5
A26
330
9B4
100
AcDbEntity
  8
MSR3-6
100
AcDbText
 10
111.9304248329685
 20
-140.6949869655541
 30
0.0
 40
3.5
  1
MSR 3
100
AcDbText
  0
LINE
  5
A27
330
9B4
100
AcDbEntity
  8
MSR3-0
100
AcDbLine
 10
105.827958
 20
-146.4586721146932
 30
0.0
 11
165.8279595000001
 21
-146.4586721146932
 31
0.0
  0
LINE
  5
A28
330
9B4
100
AcDbEntity
  8
MSR3-0
100
AcDbLine
 10
105.827958
 20
-119.4586721146932
 30
0.0
 11
165.8279595000001
 21
-119.4586721146932
 31
0.0
  0
CIRCLE
  5
A29
330
9B4
100
AcDbEntity
  8
MSR3-0
100
AcDbCircle
 10
110.327958
 20
-114.9586721146932
 30
0.0
 40
3.75
  0
LINE
  5
A2A
330
9B4
100
AcDbEntity
  8
MSR3-7
100
AcDbLine
 10
105.827958
 20
-114.9586721146932
 30
0.0
 11
115.216698
 21
-114.9586721146932
 31
0.0
  0
LINE
  5
A2B
330
9B4
100
AcDbEntity
  8
MSR3-0
100
AcDbLine
 10
108.018558
 20
-114.9586721146932
 30
0.0
 11
109.173258
 21
-112.9586711146932
 31
0.0
  0
LINE
  5
A2C
330
9B4
100
AcDbEntity
  8
MSR3-0
100
AcDbLine
 10
109.173258
 20
-116.9586716146932
 30
0.0
 11
108.018558
 21
-114.9586721146932
 31
0.0
  0
LINE
  5
A2D
330
9B4
100
AcDbEntity
  8
MSR3-3
100
AcDbLine
 10
110.662734
 20
-110.2032611146932
 30
0.0
 11
105.827958
 21
-110.2032611146932
 31
0.0
  0
LINE
  5
A2E
330
9B4
100
AcDbEntity
  8
MSR3-3
100
AcDbLine
 10
110.662734
 20
-109.8032621146932
 30
0.0
 11
105.827958
 21
-109.8032621146932
 31
0.0
  0
LINE
  5
A2F
330
9B4
100
AcDbEntity
  8
MSR3-7
100
AcDbLine
 10
110.327958
 20
-110.2032611146932
 30
0.0
 11
110.327958
 21
-119.4586721146932
 31
0.0
  0
LINE
  5
A30
330
9B4
100
AcDbEntity
  8
MSR3-0
100
AcDbLine
 10
111.482658
 20
-116.9586716146932
 30
0.0
 11
109.173258
 21
-116.9586716146932
 31
0.0
  0
LINE
  5
A31
330
9B4
100
AcDbEntity
  8
MSR3-0
100
AcDbLine
 10
109.173258
 20
-112.9586711146932
 30
0.0
 11
111.482658
 21
-112.9586711146932
 31
0.0
  0
LINE
  5
A32
330
9B4
100
AcDbEntity
  8
MSR3-0
100
AcDbLine
 10
111.482658
 20
-112.9586711146932
 30
0.0
 11
112.6373595
 21
-114.9586721146932
 31
0.0
  0
LINE
  5
A33
330
9B4
100
AcDbEntity
  8
MSR3-0
100
AcDbLine
 10
112.6373595
 20
-114.9586721146932
 30
0.0
 11
111.482658
 21
-116.9586716146932
 31
0.0
  0
LINE
  5
A34
330
9B4
100
AcDbEntity
  8
MSR3-0
100
AcDbLine
 10
111.482658
 20
-112.9586711146932
 30
0.0
 11
111.482658
 21
-112.9586711146932
 31
0.0
  0
LINE
  5
A35
330
9B4
100
AcDbEntity
  8
MSR3-0
100
AcDbLine
 10
111.482658
 20
-112.9586711146932
 30
0.0
 11
111.482658
 21
-112.9586711146932
 31
0.0
  0
CIRCLE
  5
A36
330
9B4
100
AcDbEntity
  8
MSR3-0
100
AcDbCircle
 10
135.8279595000001
 20
-113.4586721146932
 30
0.0
 40
2.099999999999999
  0
ARC
  5
A37
330
9B4
100
AcDbEntity
  8
MSR3-4
100
AcDbCircle
 10
135.8279595000001
 20
-113.4586721146932
 30
0.0
 40
2.5
100
AcDbArc
 50
180.0
 51
90.0
  0
LINE
  5
A38
330
9B4
100
AcDbEntity
  8
MSR3-7
100
AcDbLine
 10
131.7913515
 20
-113.4586721146932
 30
0.0
 11
140.005638
 21
-113.4586721146932
 31
0.0
  0
LINE
  5
A39
330
9B4
100
AcDbEntity
  8
MSR3-7
100
AcDbLine
 10
135.8279595000001
 20
-109.7200166146933
 30
0.0
 11
135.8279595000001
 21
-117.5414441146932
 31
0.0
  0
LINE
  5
A3A
330
9B4
100
AcDbEntity
  8
MSR3-7
100
AcDbLine
 10
156.2932605
 20
-114.9586721146932
 30
0.0
 11
165.8279595000001
 21
-114.9586721146932
 31
0.0
  0
LINE
  5
A3B
330
9B4
100
AcDbEntity
  8
MSR3-3
100
AcDbLine
 10
160.9931835
 20
-109.8032621146932
 30
0.0
 11
165.8279595000001
 21
-109.8032621146932
 31
0.0
  0
LINE
  5
A3C
330
9B4
100
AcDbEntity
  8
MSR3-3
100
AcDbLine
 10
160.9931835
 20
-110.2032611146932
 30
0.0
 11
165.8279595000001
 21
-110.2032611146932
 31
0.0
  0
LINE
  5
A3D
330
9B4
100
AcDbEntity
  8
MSR3-7
100
AcDbLine
 10
161.3279595
 20
-110.2032611146932
 30
0.0
 11
161.3279595
 21
-119.4586721146932
 31
0.0
  0
CIRCLE
  5
A3E
330
9B4
100
AcDbEntity
  8
MSR3-0
100
AcDbCircle
 10
161.3279595
 20
-114.9586721146932
 30
0.0
 40
3.75
  0
LINE
  5
A3F
330
9B4
100
AcDbEntity
  8
MSR3-0
100
AcDbLine
 10
162.4826595
 20
-112.9586711146932
 30
0.0
 11
163.6373595
 21
-114.9586721146932
 31
0.0
  0
LINE
  5
A40
330
9B4
100
AcDbEntity
  8
MSR3-0
100
AcDbLine
 10
163.6373595
 20
-114.9586721146932
 30
0.0
 11
162.4826595
 21
-116.9586716146932
 31
0.0
  0
LINE
  5
A41
330
9B4
100
AcDbEntity
  8
MSR3-0
100
AcDbLine
 10
162.4826595
 20
-112.9586711146932
 30
0.0
 11
162.4826595
 21
-112.9586711146932
 31
0.0
  0
LINE
  5
A42
330
9B4
100
AcDbEntity
  8
MSR3-0
100
AcDbLine
 10
162.4826595
 20
-112.9586711146932
 30
0.0
 11
162.4826595
 21
-112.9586711146932
 31
0.0
  0
LINE
  5
A43
330
9B4
100
AcDbEntity
  8
MSR3-0
100
AcDbLine
 10
159.018558
 20
-114.9586721146932
 30
0.0
 11
160.173258
 21
-112.9586711146932
 31
0.0
  0
LINE
  5
A44
330
9B4
100
AcDbEntity
  8
MSR3-0
100
AcDbLine
 10
160.173258
 20
-116.9586716146932
 30
0.0
 11
159.018558
 21
-114.9586721146932
 31
0.0
  0
LINE
  5
A45
330
9B4
100
AcDbEntity
  8
MSR3-0
100
AcDbLine
 10
162.4826595
 20
-116.9586716146932
 30
0.0
 11
160.173258
 21
-116.9586716146932
 31
0.0
  0
LINE
  5
A46
330
9B4
100
AcDbEntity
  8
MSR3-0
100
AcDbLine
 10
160.173258
 20
-112.9586711146932
 30
0.0
 11
162.4826595
 21
-112.9586711146932
 31
0.0
  0
TEXT
  5
A47
330
9B4
100
AcDbEntity
  8
MSR3-6
100
AcDbText
 10
-52.8975326670315
 20
-24.23631485086082
 30
0.0
 40
3.5
  1
MSR 3
100
AcDbText
  0
LINE
  5
A48
330
9B4
100
AcDbEntity
  8
MSR3-7
100
AcDbLine
 10
-69.99999899999995
 20
-68.95867161469323
 30
0.0
 11
5.380786499999999
 21
-68.95867161469323
 31
0.0
  0
LINE
  5
A49
330
9B4
100
AcDbEntity
  8
MSR3-0
100
AcDbLine
 10
-43.39999949999998
 20
-78.95867061469323
 30
0.0
 11
-58.9999995
 21
-78.95867061469323
 31
0.0
  0
LINE
  5
A4A
330
9B4
100
AcDbEntity
  8
MSR3-0
100
AcDbLine
 10
-48.99999899999994
 20
-77.95867161469323
 30
0.0
 11
-42.99999899999995
 21
-77.95867161469323
 31
0.0
  0
LINE
  5
A4B
330
9B4
100
AcDbEntity
  8
MSR3-0
100
AcDbLine
 10
-42.99999899999995
 20
-62.95867161469323
 30
0.0
 11
-48.99999899999994
 21
-62.95867161469323
 31
0.0
  0
LINE
  5
A4C
330
9B4
100
AcDbEntity
  8
MSR3-0
100
AcDbLine
 10
56.00000100000002
 20
30.0
 30
0.0
 11
-58.99999949999997
 21
30.0
 31
0.0
  0
LINE
  5
A4D
330
9B4
100
AcDbEntity
  8
MSR3-0
100
AcDbLine
 10
56.00000100000002
 20
-30.0
 30
0.0
 11
-58.99999949999997
 21
-30.0
 31
0.0
  0
TEXT
  5
A4E
330
9B4
100
AcDbEntity
  8
MSR3-6
100
AcDbText
 10
-114.2234545630382
 20
55.79835517142214
 30
0.0
 40
75.0
  1
MSR 3
100
AcDbText
  0
LINE
  5
A4F
330
9B4
100
AcDbEntity
  8
MSR3-4A
100
AcDbLine
 10
-125.9999989999999
 20
-106.7032616146933
 30
0.0
 11
-63.99999899999994
 21
-106.7032616146932
 31
0.0
  0
LINE
  5
A50
330
9B4
100
AcDbEntity
  8
MSR3-4A
100
AcDbLine
 10
-125.9999989999999
 20
-107.7032621146933
 30
0.0
 11
-63.99999899999994
 21
-107.7032621146932
 31
0.0
  0
LINE
  5
A51
330
9B4
100
AcDbEntity
  8
MSR3-4A
100
AcDbLine
 10
-63.99999899999994
 20
-92.70326211469328
 30
0.0
 11
-125.9999989999999
 21
-92.70326211469329
 31
0.0
  0
LINE
  5
A52
330
9B4
100
AcDbEntity
  8
MSR3-4A
100
AcDbLine
 10
-63.99999899999994
 20
-93.70326111469324
 30
0.0
 11
-125.9999989999999
 21
-93.70326111469328
 31
0.0
  0
LINE
  5
A53
330
9B4
100
AcDbEntity
  8
MSR3-4A
100
AcDbLine
 10
-135.9999995
 20
-106.7032616146933
 30
0.0
 11
-125.9999989999999
 21
-106.7032616146933
 31
0.0
  0
LINE
  5
A54
330
9B4
100
AcDbEntity
  8
MSR3-4A
100
AcDbLine
 10
-125.9999989999999
 20
-93.70326111469328
 30
0.0
 11
-135.9999995
 21
-93.70326111469328
 31
0.0
  0
LINE
  5
A55
330
9B4
100
AcDbEntity
  8
MSR3-4A
100
AcDbLine
 10
-135.9999995
 20
-93.70326111469328
 30
0.0
 11
-135.9999995
 21
-106.7032616146933
 31
0.0
  0
LINE
  5
A56
330
9B4
100
AcDbEntity
  8
MSR3-4A
100
AcDbLine
 10
-125.9999989999999
 20
-92.70326211469329
 30
0.0
 11
-125.9999989999999
 21
-107.7032621146933
 31
0.0
  0
LINE
  5
A57
330
9B4
100
AcDbEntity
  8
MSR3-0
100
AcDbLine
 10
-69.99999899999995
 20
-75.45867111469329
 30
0.0
 11
-69.99999899999995
 21
-62.45867061469323
 31
0.0
  0
LINE
  5
A58
330
9B4
100
AcDbEntity
  8
MSR3-0
100
AcDbLine
 10
-48.99999899999994
 20
-62.95867161469323
 30
0.0
 11
-48.99999899999994
 21
-77.95867161469323
 31
0.0
  0
LINE
  5
A59
330
9B4
100
AcDbEntity
  8
MSR3-0
100
AcDbLine
 10
-81.99999899999994
 20
-62.45867061469323
 30
0.0
 11
-81.99999899999994
 21
-75.45867111469329
 31
0.0
  0
LINE
  5
A5A
330
9B4
100
AcDbEntity
  8
MSR3-0
100
AcDbLine
 10
-81.99999899999994
 20
-75.45867111469329
 30
0.0
 11
-69.99999899999995
 21
-75.45867111469329
 31
0.0
  0
LINE
  5
A5B
330
9B4
100
AcDbEntity
  8
MSR3-0
100
AcDbLine
 10
-81.99999899999994
 20
-75.45867111469329
 30
0.0
 11
-81.99999899999994
 21
-75.45867111469329
 31
0.0
  0
LINE
  5
A5C
330
9B4
100
AcDbEntity
  8
MSR3-0
100
AcDbLine
 10
-63.99999899999994
 20
-105.7777691146932
 30
0.0
 11
-58.9999995
 21
-105.7777691146932
 31
0.0
  0
LINE
  5
A5D
330
9B4
100
AcDbEntity
  8
MSR3-0
100
AcDbLine
 10
-63.99999899999994
 20
-100.2032621146933
 30
0.0
 11
-58.9999995
 21
-100.2032621146933
 31
0.0
  0
LINE
  5
A5E
330
9B4
100
AcDbEntity
  8
MSR3-0
100
AcDbLine
 10
-63.99999899999994
 20
-100.2032621146933
 30
0.0
 11
-58.9999995
 21
-100.2032621146933
 31
0.0
  0
LINE
  5
A5F
330
9B4
100
AcDbEntity
  8
MSR3-0
100
AcDbLine
 10
-63.99999899999994
 20
-94.6287551146932
 30
0.0
 11
-58.9999995
 21
-94.6287551146932
 31
0.0
  0
LINE
  5
A60
330
9B4
100
AcDbEntity
  8
MSR3-7
100
AcDbLine
 10
-58.812411
 20
-107.7032621146932
 30
0.0
 11
-50.59812449999999
 21
-107.7032621146932
 31
0.0
  0
LINE
  5
A61
330
9B4
100
AcDbEntity
  8
MSR3-0
100
AcDbLine
 10
-48.99999899999994
 20
-73.95867111469328
 30
0.0
 11
-69.99999899999995
 21
-73.95867111469328
 31
0.0
  0
LINE
  5
A62
330
9B4
100
AcDbEntity
  8
MSR3-4
100
AcDbLine
 10
-69.99999899999995
 20
-73.45867161469323
 30
0.0
 11
-48.99999899999994
 21
-73.45867161469323
 31
0.0
  0
LINE
  5
A63
330
9B4
100
AcDbEntity
  8
MSR3-0
100
AcDbLine
 10
-58.9999995
 20
-88.96847361469326
 30
0.0
 11
-63.99999899999994
 21
-88.96847361469326
 31
0.0
  0
LINE
  5
A64
330
9B4
100
AcDbEntity
  8
MSR3-0
100
AcDbLine
 10
-81.99999899999994
 20
-68.95867161469323
 30
0.0
 11
-69.99999899999995
 21
-68.95867161469323
 31
0.0
  0
LINE
  5
A65
330
9B4
100
AcDbEntity
  8
MSR3-0
100
AcDbLine
 10
-69.99999899999995
 20
-62.45867061469323
 30
0.0
 11
-81.99999899999994
 21
-62.45867061469323
 31
0.0
  0
LINE
  5
A66
330
9B4
100
AcDbEntity
  8
MSR3-7
100
AcDbLine
 10
-84.64968149999998
 20
-68.95867161469323
 30
0.0
 11
-81.99999899999994
 21
-68.95867161469323
 31
0.0
  0
LINE
  5
A67
330
9B4
100
AcDbEntity
  8
MSR3-0
100
AcDbLine
 10
-48.99999899999994
 20
-63.95867061469323
 30
0.0
 11
-69.99999899999995
 21
-63.95867061469323
 31
0.0
  0
LINE
  5
A68
330
9B4
100
AcDbEntity
  8
MSR3-4
100
AcDbLine
 10
-69.99999899999995
 20
-64.45867161469323
 30
0.0
 11
-48.99999899999994
 21
-64.45867161469323
 31
0.0
  0
LINE
  5
A69
330
9B4
100
AcDbEntity
  8
MSR3-0
100
AcDbLine
 10
-58.99999949999997
 20
30.0
 30
0.0
 11
-58.99999949999997
 21
-30.0
 31
0.0
  0
LINE
  5
A6A
330
9B4
100
AcDbEntity
  8
MSR3-7
100
AcDbLine
 10
-84.64968149999998
 20
-22.9999995
 30
0.0
 11
-57.927864
 21
-22.9999995
 31
0.0
  0
LINE
  5
A6B
330
9B4
100
AcDbEntity
  8
MSR3-0
100
AcDbLine
 10
-69.99999899999997
 20
-15.4999995
 30
0.0
 11
-81.99999899999998
 21
-15.4999995
 31
0.0
  0
LINE
  5
A6C
330
9B4
100
AcDbEntity
  8
MSR3-0
100
AcDbLine
 10
-81.99999899999998
 20
-30.4999995
 30
0.0
 11
-69.99999899999997
 21
-30.4999995
 31
0.0
  0
LINE
  5
A6D
330
9B4
100
AcDbEntity
  8
MSR3-0
100
AcDbLine
 10
-81.99999899999998
 20
-26.50000049999994
 30
0.0
 11
-69.99999899999997
 21
-26.50000049999994
 31
0.0
  0
LINE
  5
A6E
330
9B4
100
AcDbEntity
  8
MSR3-0
100
AcDbLine
 10
-81.99999899999998
 20
-19.5
 30
0.0
 11
-69.99999899999997
 21
-19.5
 31
0.0
  0
LINE
  5
A6F
330
9B4
100
AcDbEntity
  8
MSR3-0
100
AcDbLine
 10
-81.99999899999998
 20
-15.4999995
 30
0.0
 11
-81.99999899999998
 21
-30.4999995
 31
0.0
  0
LINE
  5
A70
330
9B4
100
AcDbEntity
  8
MSR3-0
100
AcDbLine
 10
-81.99999899999998
 20
-30.4999995
 30
0.0
 11
-81.99999899999998
 21
-30.4999995
 31
0.0
  0
LINE
  5
A71
330
9B4
100
AcDbEntity
  8
MSR3-0
100
AcDbLine
 10
-63.99999899999997
 20
-21.160281
 30
0.0
 11
-63.99999899999997
 21
-4.265212499999961
 31
0.0
  0
LINE
  5
A72
330
9B4
100
AcDbEntity
  8
MSR3-0
100
AcDbLine
 10
-58.99999949999997
 20
-28.00000049999994
 30
0.0
 11
-69.99999899999997
 21
-28.00000049999994
 31
0.0
  0
LINE
  5
A73
330
9B4
100
AcDbEntity
  8
MSR3-4
100
AcDbLine
 10
-69.99999899999997
 20
-27.4999995
 30
0.0
 11
-58.99999949999997
 21
-27.4999995
 31
0.0
  0
LINE
  5
A74
330
9B4
100
AcDbEntity
  8
MSR3-0
100
AcDbLine
 10
-58.99999949999997
 20
-21.160281
 30
0.0
 11
-63.99999899999997
 21
-21.160281
 31
0.0
  0
LINE
  5
A75
330
9B4
100
AcDbEntity
  8
MSR3-0
100
AcDbLine
 10
-63.99999899999997
 20
-15.4999995
 30
0.0
 11
-58.99999949999997
 21
-15.4999995
 31
0.0
  0
LINE
  5
A76
330
9B4
100
AcDbEntity
  8
MSR3-0
100
AcDbLine
 10
-63.99999899999997
 20
-15.4999995
 30
0.0
 11
-58.99999949999997
 21
-15.4999995
 31
0.0
  0
LINE
  5
A77
330
9B4
100
AcDbEntity
  8
MSR3-0
100
AcDbLine
 10
-69.99999899999997
 20
-30.4999995
 30
0.0
 11
-69.99999899999997
 21
-15.4999995
 31
0.0
  0
LINE
  5
A78
330
9B4
100
AcDbEntity
  8
MSR3-0
100
AcDbLine
 10
-63.99999899999997
 20
-18.0
 30
0.0
 11
-69.99999899999997
 21
-18.0
 31
0.0
  0
LINE
  5
A79
330
9B4
100
AcDbEntity
  8
MSR3-4
100
AcDbLine
 10
-69.99999899999997
 20
-18.4999995
 30
0.0
 11
-63.99999899999997
 21
-18.49999949999994
 31
0.0
  0
LINE
  5
A7A
330
9B4
100
AcDbEntity
  8
MSR3-0
100
AcDbLine
 10
-63.99999899999997
 20
-9.925493999999957
 30
0.0
 11
-58.99999949999997
 21
-9.925493999999957
 31
0.0
  0
LINE
  5
A7B
330
9B4
100
AcDbEntity
  8
MSR3-0
100
AcDbLine
 10
-58.99999949999997
 20
-4.265212499999961
 30
0.0
 11
-63.99999899999997
 21
-4.265212499999961
 31
0.0
  0
LINE
  5
A7C
330
9B4
100
AcDbEntity
  8
MSR3-0
100
AcDbLine
 10
-81.99999899999998
 20
15.49999950000006
 30
0.0
 11
-69.99999899999997
 21
15.49999950000006
 31
0.0
  0
LINE
  5
A7D
330
9B4
100
AcDbEntity
  8
MSR3-0
100
AcDbLine
 10
-81.99999899999998
 20
19.5
 30
0.0
 11
-69.99999899999997
 21
19.5
 31
0.0
  0
LINE
  5
A7E
330
9B4
100
AcDbEntity
  8
MSR3-7
100
AcDbLine
 10
-84.64968149999998
 20
22.99999950000006
 30
0.0
 11
-57.927864
 21
22.99999950000006
 31
0.0
  0
LINE
  5
A7F
330
9B4
100
AcDbEntity
  8
MSR3-0
100
AcDbLine
 10
-69.99999899999997
 20
30.49999950000006
 30
0.0
 11
-81.99999899999998
 21
30.49999950000006
 31
0.0
  0
LINE
  5
A80
330
9B4
100
AcDbEntity
  8
MSR3-0
100
AcDbLine
 10
-81.99999899999998
 20
26.5000005
 30
0.0
 11
-69.99999899999997
 21
26.5000005
 31
0.0
  0
LINE
  5
A81
330
9B4
100
AcDbEntity
  8
MSR3-0
100
AcDbLine
 10
-81.99999899999998
 20
30.49999950000006
 30
0.0
 11
-81.99999899999998
 21
15.49999950000006
 31
0.0
  0
LINE
  5
A82
330
9B4
100
AcDbEntity
  8
MSR3-0
100
AcDbLine
 10
-81.99999899999998
 20
15.49999950000006
 30
0.0
 11
-81.99999899999998
 21
15.49999950000006
 31
0.0
  0
LINE
  5
A83
330
9B4
100
AcDbEntity
  8
MSR3-0
100
AcDbLine
 10
-69.99999899999997
 20
15.49999950000006
 30
0.0
 11
-69.99999899999997
 21
30.49999950000006
 31
0.0
  0
LINE
  5
A84
330
9B4
100
AcDbEntity
  8
MSR3-0
100
AcDbLine
 10
-63.99999899999997
 20
9.925494000000014
 30
0.0
 11
-58.99999949999997
 21
9.925494000000014
 31
0.0
  0
LINE
  5
A85
330
9B4
100
AcDbEntity
  8
MSR3-0
100
AcDbLine
 10
-58.99999949999997
 20
4.265212500000018
 30
0.0
 11
-63.99999899999997
 21
4.265212500000018
 31
0.0
  0
LINE
  5
A86
330
9B4
100
AcDbEntity
  8
MSR3-0
100
AcDbLine
 10
-63.99999899999997
 20
15.49999950000006
 30
0.0
 11
-58.99999949999997
 21
15.49999950000006
 31
0.0
  0
LINE
  5
A87
330
9B4
100
AcDbEntity
  8
MSR3-0
100
AcDbLine
 10
-63.99999899999997
 20
15.49999950000006
 30
0.0
 11
-58.99999949999997
 21
15.49999950000006
 31
0.0
  0
LINE
  5
A88
330
9B4
100
AcDbEntity
  8
MSR3-0
100
AcDbLine
 10
-58.99999949999997
 20
21.160281
 30
0.0
 11
-63.99999899999997
 21
21.160281
 31
0.0
  0
LINE
  5
A89
330
9B4
100
AcDbEntity
  8
MSR3-0
100
AcDbLine
 10
-63.99999899999997
 20
4.265212500000018
 30
0.0
 11
-63.99999899999997
 21
21.160281
 31
0.0
  0
LINE
  5
A8A
330
9B4
100
AcDbEntity
  8
MSR3-0
100
AcDbLine
 10
-63.99999899999997
 20
18.0
 30
0.0
 11
-69.99999899999997
 21
18.0
 31
0.0
  0
LINE
  5
A8B
330
9B4
100
AcDbEntity
  8
MSR3-4
100
AcDbLine
 10
-69.99999899999997
 20
18.4999995
 30
0.0
 11
-63.99999899999997
 21
18.49999949999994
 31
0.0
  0
LINE
  5
A8C
330
9B4
100
AcDbEntity
  8
MSR3-0
100
AcDbLine
 10
-58.99999949999997
 20
28.0000005
 30
0.0
 11
-69.99999899999997
 21
28.0000005
 31
0.0
  0
LINE
  5
A8D
330
9B4
100
AcDbEntity
  8
MSR3-4
100
AcDbLine
 10
-69.99999899999997
 20
27.4999995
 30
0.0
 11
-58.99999949999997
 21
27.4999995
 31
0.0
  0
LINE
  5
A8E
330
9B4
100
AcDbEntity
  8
MSR3-0
100
AcDbLine
 10
56.00000100000002
 20
-80.95867161469323
 30
0.0
 11
-28.5
 21
-80.95867161469323
 31
0.0
  0
LINE
  5
A8F
330
9B4
100
AcDbEntity
  8
MSR3-2
100
AcDbLine
 10
-30.0
 20
-50.45867061469323
 30
0.0
 11
30.0000015
 21
-50.45867061469323
 31
0.0
  0
LINE
  5
A90
330
9B4
100
AcDbEntity
  8
MSR3-2
100
AcDbLine
 10
29.5000005
 20
-80.45867061469323
 30
0.0
 11
-29.49999899999994
 21
-80.45867061469323
 31
0.0
  0
LINE
  5
A91
330
9B4
100
AcDbEntity
  8
MSR3-2
100
AcDbLine
 10
30.0000015
 20
-62.45867061469323
 30
0.0
 11
0.0
 21
-62.45867061469323
 31
0.0
  0
LINE
  5
A92
330
9B4
100
AcDbEntity
  8
MSR3-2
100
AcDbLine
 10
29.5000005
 20
-74.45867061469323
 30
0.0
 11
0.0
 21
-74.45867061469323
 31
0.0
  0
LINE
  5
A93
330
9B4
100
AcDbEntity
  8
MSR3-0
100
AcDbLine
 10
3.078321000000016
 20
-72.95867061469323
 30
0.0
 11
3.078321000000016
 21
-64.95867111469329
 31
0.0
  0
LINE
  5
A94
330
9B4
100
AcDbEntity
  8
MSR3-0
100
AcDbLine
 10
2.078320500000018
 20
-63.95867061469323
 30
0.0
 11
2.078320500000018
 21
-73.95867111469328
 31
0.0
  0
LINE
  5
A95
330
9B4
100
AcDbEntity
  8
MSR3-0
100
AcDbLine
 10
-42.99999899999995
 20
-62.95867161469323
 30
0.0
 11
-42.99999899999995
 21
-78.55867161469325
 31
0.0
  0
LINE
  5
A96
330
9B4
100
AcDbEntity
  8
MSR3-0
100
AcDbLine
 10
-30.99999899999995
 20
-62.95867161469323
 30
0.0
 11
-30.99999899999995
 21
-78.45867111469329
 31
0.0
  0
LINE
  5
A97
330
9B4
100
AcDbEntity
  8
MSR3-2
100
AcDbLine
 10
-29.49999899999994
 20
-74.45867061469323
 30
0.0
 11
0.0
 21
-74.45867061469323
 31
0.0
  0
LINE
  5
A98
330
9B4
100
AcDbEntity
  8
MSR3-0
100
AcDbLine
 10
2.078320500000018
 20
-73.95867111469328
 30
0.0
 11
-30.99999899999995
 21
-73.95867111469328
 31
0.0
  0
LINE
  5
A99
330
9B4
100
AcDbEntity
  8
MSR3-4
100
AcDbLine
 10
2.078320499999989
 20
-73.45867161469328
 30
0.0
 11
-30.99999899999995
 21
-73.45867161469323
 31
0.0
  0
ARC
  5
A9A
330
9B4
100
AcDbEntity
  8
MSR3-0
100
AcDbCircle
 10
-43.39999949999998
 20
-78.55867161469325
 30
0.0
 40
0.4000005
100
AcDbArc
 50
270.000003
 51
0.0
  0
ARC
  5
A9B
330
9B4
100
AcDbEntity
  8
MSR3-0
100
AcDbCircle
 10
-28.5
 20
-78.45867111469329
 30
0.0
 40
2.500000499999999
100
AcDbArc
 50
180.0000029999999
 51
270.000003
  0
LINE
  5
A9C
330
9B4
100
AcDbEntity
  8
MSR3-2
100
AcDbLine
 10
-29.49999899999994
 20
-74.45867061469323
 30
0.0
 11
-29.49999899999994
 21
-80.45867061469323
 31
0.0
  0
LINE
  5
A9D
330
9B4
100
AcDbEntity
  8
MSR3-2
100
AcDbLine
 10
-18.4999995
 20
-80.45867061469323
 30
0.0
 11
-18.4999995
 21
-80.95867161469323
 31
0.0
  0
LINE
  5
A9E
330
9B4
100
AcDbEntity
  8
MSR3-2
100
AcDbLine
 10
-15.39999899999998
 20
-73.95867111469328
 30
0.0
 11
-15.39999899999998
 21
-74.45867061469323
 31
0.0
  0
LINE
  5
A9F
330
9B4
100
AcDbEntity
  8
MSR3-0
100
AcDbLine
 10
3.078321000000016
 20
-72.95867061469323
 30
0.0
 11
2.078320500000018
 21
-72.95867061469323
 31
0.0
  0
LINE
  5
AA0
330
9B4
100
AcDbEntity
  8
MSR3-2
100
AcDbLine
 10
-30.0
 20
-62.45867061469323
 30
0.0
 11
0.0
 21
-62.45867061469323
 31
0.0
  0
LINE
  5
AA1
330
9B4
100
AcDbEntity
  8
MSR3-0
100
AcDbLine
 10
2.078320500000018
 20
-63.95867061469323
 30
0.0
 11
-30.99999899999995
 21
-63.95867061469323
 31
0.0
  0
LINE
  5
AA2
330
9B4
100
AcDbEntity
  8
MSR3-4
100
AcDbLine
 10
2.078320499999989
 20
-64.45867161469329
 30
0.0
 11
-30.99999899999995
 21
-64.45867161469323
 31
0.0
  0
LINE
  5
AA3
330
9B4
100
AcDbEntity
  8
MSR3-7
100
AcDbLine
 10
-24.0
 20
-47.31303111469322
 30
0.0
 11
-24.0
 21
-63.26303211469326
 31
0.0
  0
LINE
  5
AA4
330
9B4
100
AcDbEntity
  8
MSR3-2
100
AcDbLine
 10
-30.0
 20
-50.45867061469323
 30
0.0
 11
-30.0
 21
-62.45867061469323
 31
0.0
  0
LINE
  5
AA5
330
9B4
100
AcDbEntity
  8
MSR3-0
100
AcDbLine
 10
-30.99999899999995
 20
-62.95867161469323
 30
0.0
 11
-42.99999899999995
 21
-62.95867161469323
 31
0.0
  0
LINE
  5
AA6
330
9B4
100
AcDbEntity
  8
MSR3-2
100
AcDbLine
 10
-15.39999899999998
 20
-62.45867061469323
 30
0.0
 11
-15.39999899999998
 21
-63.95867061469323
 31
0.0
  0
LINE
  5
AA7
330
9B4
100
AcDbEntity
  8
MSR3-0
100
AcDbLine
 10
3.078321000000016
 20
-64.95867111469329
 30
0.0
 11
2.078320500000018
 21
-64.95867111469329
 31
0.0
  0
LINE
  5
AA8
330
9B4
100
AcDbEntity
  8
MSR3-2
100
AcDbLine
 10
28.62339750000001
 20
-74.45867061469323
 30
0.0
 11
28.62339750000001
 21
-62.45867061469323
 31
0.0
  0
LINE
  5
AA9
330
9B4
100
AcDbEntity
  8
MSR3-2
100
AcDbLine
 10
15.40000049999997
 20
-62.45867061469323
 30
0.0
 11
15.40000049999997
 21
-74.45867061469323
 31
0.0
  0
LINE
  5
AAA
330
9B4
100
AcDbEntity
  8
MSR3-2
100
AcDbLine
 10
16.62339750000001
 20
-74.45867061469323
 30
0.0
 11
16.62339750000001
 21
-62.45867061469323
 31
0.0
  0
LINE
  5
AAB
330
9B4
100
AcDbEntity
  8
MSR3-2
100
AcDbLine
 10
18.50000100000002
 20
-80.45867061469323
 30
0.0
 11
18.50000100000002
 21
-80.95867161469323
 31
0.0
  0
LINE
  5
AAC
330
9B4
100
AcDbEntity
  8
MSR3-2
100
AcDbLine
 10
29.5000005
 20
-74.45867061469323
 30
0.0
 11
29.5000005
 21
-80.45867061469323
 31
0.0
  0
LINE
  5
AAD
330
9B4
100
AcDbEntity
  8
MSR3-7
100
AcDbLine
 10
24.0000015
 20
-47.4908096146932
 30
0.0
 11
24.0000015
 21
-64.99081011469326
 31
0.0
  0
LINE
  5
AAE
330
9B4
100
AcDbEntity
  8
MSR3-2
100
AcDbLine
 10
30.0000015
 20
-50.45867061469323
 30
0.0
 11
30.0000015
 21
-62.45867061469323
 31
0.0
  0
INSERT
  5
AAF
330
9B4
100
AcDbEntity
  8
MSR3-8
100
AcDbBlockReference
  2
*X12
 10
-184.340583
 20
-306.9816296146933
 30
0.0
1001
GENIUS_GENODEF_13
1002
{
1000
HIER
1070
     0
1002
}
1002
{
1000
MANEDIT
1070
     0
1002
}
1002
{
1000
NOSEL
1070
     0
1002
}
1002
{
1000
BEHIND
1070
     0
1002
}
1002
{
1000
REACTOR
1002
}
1001
GENIUS_GENOBJ-N-HTC_13
1002
{
1000
OWNER
1000
GEN
1002
}
1001
GENIUS_GENHATCH_13
1002
{
1000
DATA
1040
45.0
1042
1.5
1000
_U
1070
     0
1011
29.33132215588916
1021
-54.22579592812815
1031
0.0
1002
}
1002
{
1000
UCS
1010
0.0
1020
0.0
1030
0.0
1010
1.0
1020
0.0
1030
0.0
1010
0.0
1020
1.0
1030
0.0
1002
}
1001
ACAD
1000
HATCH
1002
{
1070
    19
1000
_U
1040
1.5
1040
0.7853981633974483
1070
     0
1002
}
  0
LINE
  5
AB0
330
9B4
100
AcDbEntity
  8
MSR3-2
100
AcDbLine
 10
29.00000100000003
 20
-50.45867061469323
 30
0.0
 11
29.00000100000003
 21
-52.55867061469325
 31
0.0
  0
INSERT
  5
AB1
330
9B4
100
AcDbEntity
  8
MSR3-8
100
AcDbBlockReference
  2
*X11
 10
-184.340583
 20
-306.9816296146933
 30
0.0
1001
GENIUS_GENODEF_13
1002
{
1000
HIER
1070
     0
1002
}
1002
{
1000
MANEDIT
1070
     0
1002
}
1002
{
1000
NOSEL
1070
     0
1002
}
1002
{
1000
BEHIND
1070
     0
1002
}
1002
{
1000
REACTOR
1002
}
1001
GENIUS_GENOBJ-N-HTC_13
1002
{
1000
OWNER
1000
GEN
1002
}
1001
GENIUS_GENHATCH_13
1002
{
1000
DATA
1040
45.0
1042
1.5
1000
_U
1070
     0
1011
15.84237397800547
1021
-54.8151108911859
1031
0.0
1002
}
1002
{
1000
UCS
1010
0.0
1020
0.0
1030
0.0
1010
1.0
1020
0.0
1030
0.0
1010
0.0
1020
1.0
1030
0.0
1002
}
1001
ACAD
1000
HATCH
1002
{
1070
    19
1000
_U
1040
1.5
1040
0.7853981633974483
1070
     0
1002
}
  0
LINE
  5
AB2
330
9B4
100
AcDbEntity
  8
MSR3-4
100
AcDbLine
 10
11.30195143642578
 20
-53.38202148457629
 30
0.0
 11
10.87515349427917
 21
-51.6758907676674
 31
0.0
  0
LINE
  5
AB3
330
9B4
100
AcDbEntity
  8
MSR3-2
100
AcDbLine
 10
19.0000005
 20
-52.55867061469325
 30
0.0
 11
19.0000005
 21
-50.45867061469323
 31
0.0
  0
LINE
  5
AB4
330
9B4
100
AcDbEntity
  8
MSR3-2
100
AcDbLine
 10
20.60000100000002
 20
-52.55867061469325
 30
0.0
 11
27.40000049999998
 21
-52.55867061469325
 31
0.0
  0
LINE
  5
AB5
330
9B4
100
AcDbEntity
  8
MSR3-2
100
AcDbLine
 10
20.60000100000002
 20
-55.95867111469329
 30
0.0
 11
27.40000049999998
 21
-55.95867111469329
 31
0.0
  0
LINE
  5
AB6
330
9B4
100
AcDbEntity
  8
MSR3-2
100
AcDbLine
 10
18.70000050000001
 20
-62.45867061469323
 30
0.0
 11
18.70000050000001
 21
-55.95867111469329
 31
0.0
  0
LINE
  5
AB7
330
9B4
100
AcDbEntity
  8
MSR3-4
100
AcDbLine
 10
10.8141823341669
 20
-62.45867061469323
 30
0.0
 11
10.08252877009826
 21
-58.74414655588293
 31
0.0
  0
LINE
  5
AB8
330
9B4
100
AcDbEntity
  8
MSR3-2
100
AcDbLine
 10
19.7500005
 20
-62.45867061469323
 30
0.0
 11
15.6503265
 21
-62.45867061469323
 31
0.0
  0
LINE
  5
AB9
330
9B4
100
AcDbEntity
  8
MSR3-4
100
AcDbLine
 10
10.08252877009826
 20
-58.74414655588293
 30
0.0
 11
10.44835555213257
 21
-56.22557264304458
 31
0.0
  0
LINE
  5
ABA
330
9B4
100
AcDbEntity
  8
MSR3-4
100
AcDbLine
 10
10.44835555213257
 20
-56.22557264304458
 30
0.0
 11
11.30195143642578
 21
-53.38202148457629
 31
0.0
  0
LINE
  5
ABB
330
9B4
100
AcDbEntity
  8
MSR3-2
100
AcDbLine
 10
20.60000100000002
 20
-55.95867111469329
 30
0.0
 11
20.60000100000002
 21
-52.55867061469325
 31
0.0
  0
LINE
  5
ABC
330
9B4
100
AcDbEntity
  8
MSR3-4
100
AcDbLine
 10
20.00000149999999
 20
-52.55867061469325
 30
0.0
 11
20.00000150000003
 21
-55.95867111469329
 31
0.0
  0
LINE
  5
ABD
330
9B4
100
AcDbEntity
  8
MSR3-2
100
AcDbLine
 10
18.70000050000001
 20
-55.95867111469329
 30
0.0
 11
20.60000100000002
 21
-55.95867111469329
 31
0.0
  0
LINE
  5
ABE
330
9B4
100
AcDbEntity
  8
MSR3-2
100
AcDbLine
 10
20.60000100000002
 20
-52.55867061469325
 30
0.0
 11
19.0000005
 21
-52.55867061469325
 31
0.0
  0
LINE
  5
ABF
330
9B4
100
AcDbEntity
  8
MSR3-2
100
AcDbLine
 10
29.30000100000001
 20
-55.95867111469329
 30
0.0
 11
29.30000100000001
 21
-62.45867061469323
 31
0.0
  0
LINE
  5
AC0
330
9B4
100
AcDbEntity
  8
MSR3-2
100
AcDbLine
 10
27.40000049999998
 20
-52.55867061469325
 30
0.0
 11
27.40000049999998
 21
-55.95867111469329
 31
0.0
  0
LINE
  5
AC1
330
9B4
100
AcDbEntity
  8
MSR3-4
100
AcDbLine
 10
28.0000015
 20
-55.95867111469329
 30
0.0
 11
28.0000015
 21
-52.55867061469325
 31
0.0
  0
LINE
  5
AC2
330
9B4
100
AcDbEntity
  8
MSR3-2
100
AcDbLine
 10
27.40000049999998
 20
-55.95867111469329
 30
0.0
 11
29.30000100000001
 21
-55.95867111469329
 31
0.0
  0
LINE
  5
AC3
330
9B4
100
AcDbEntity
  8
MSR3-2
100
AcDbLine
 10
29.00000100000003
 20
-52.55867061469325
 30
0.0
 11
27.40000049999998
 21
-52.55867061469325
 31
0.0
  0
LINE
  5
AC4
330
9B4
100
AcDbEntity
  8
MSR3-4
100
AcDbLine
 10
10.87515349427917
 20
-51.6758907676674
 30
0.0
 11
11.62713080815845
 21
-50.45867061469323
 31
0.0
  0
CIRCLE
  5
AC5
330
9B4
100
AcDbEntity
  8
MSR3-0
100
AcDbCircle
 10
0.0
 20
0.0
 30
0.0
 40
4.5
  0
LINE
  5
AC6
330
9B4
100
AcDbEntity
  8
MSR3-7
100
AcDbLine
 10
0.0
 20
8.703837000000021
 30
0.0
 11
0.0
 21
-8.135002499999984
 31
0.0
  0
CIRCLE
  5
AC7
330
9B4
100
AcDbEntity
  8
MSR3-0
100
AcDbCircle
 10
-36.0
 20
0.0
 30
0.0
 40
6.499999500000001
  0
LINE
  5
AC8
330
9B4
100
AcDbEntity
  8
MSR3-7
100
AcDbLine
 10
-36.0
 20
9.999540000000024
 30
0.0
 11
-36.0
 21
-9.16952249999997
 31
0.0
  0
LINE
  5
AC9
330
9B4
100
AcDbEntity
  8
MSR3-7
100
AcDbLine
 10
-19.9999995
 20
5.351972999999986
 30
0.0
 11
-19.9999995
 21
-5.167258500000002
 31
0.0
  0
CIRCLE
  5
ACA
330
9B4
100
AcDbEntity
  8
MSR3-0
100
AcDbCircle
 10
-36.0
 20
0.0
 30
0.0
 40
7.5
  0
LINE
  5
ACB
330
9B4
100
AcDbEntity
  8
MSR3-7
100
AcDbLine
 10
-25.69215
 20
0.0
 30
0.0
 11
-14.48061149999998
 21
0.0
 31
0.0
  0
CIRCLE
  5
ACC
330
9B4
100
AcDbEntity
  8
MSR3-0
100
AcDbCircle
 10
-19.9999995
 20
0.0
 30
0.0
 40
3.0
  0
LINE
  5
ACD
330
9B4
100
AcDbEntity
  8
MSR3-7
100
AcDbLine
 10
-25.69215
 20
-19.9999995
 30
0.0
 11
-14.48061149999998
 21
-19.9999995
 31
0.0
  0
CIRCLE
  5
ACE
330
9B4
100
AcDbEntity
  8
MSR3-0
100
AcDbCircle
 10
-19.9999995
 20
-19.9999995
 30
0.0
 40
2.500000499999999
  0
ARC
  5
ACF
330
9B4
100
AcDbEntity
  8
MSR3-4
100
AcDbCircle
 10
-19.9999995
 20
-19.9999995
 30
0.0
 40
3.0
100
AcDbArc
 50
180.0
 51
90.0
  0
LINE
  5
AD0
330
9B4
100
AcDbEntity
  8
MSR3-7
100
AcDbLine
 10
-19.9999995
 20
-14.64802800000001
 30
0.0
 11
-19.9999995
 21
-25.16725800000001
 31
0.0
  0
INSERT
  5
AD1
330
9B4
100
AcDbEntity
  8
MSR3-0N
100
AcDbBlockReference
 66
     1
  2
GENINF13
 10
-34.12681841158138
 20
-22.63810720517836
 30
0.0
1001
GENIUS_GENSCSYM_13
1002
{
1000
INSPT
1011
-34.12681841158138
1021
-22.63810720517836
1031
0.0
1002
}
1002
{
1000
SCALE
1042
1.0
1002
}
1002
{
1000
USEOLDBPT
1070
     0
1002
}
1001
GENIUS_GENOBJ-N-INFOPT_13
1002
{
1000
OWNER
1000
GEN
1002
}
1001
GENIUS_GENSYMENT_13
1002
{
1000
ENT
1005
AD1
1002
}
1001
GENIUS_GENODEF_13
1002
{
1000
HIER
1070
     0
1002
}
1002
{
1000
MANEDIT
1070
     0
1002
}
1002
{
1000
NOSEL
1070
     0
1002
}
1002
{
1000
BEHIND
1070
     0
1002
}
1002
{
1000
REACTOR
1002
}
1001
GENIUS_GENOBJ-N-RSSYM_13
1002
{
1000
OWNER
1000
GEN
1002
}
1001
GENIUS_GENINF13_13
1070
     1
  0
ATTRIB
  5
AD2
330
AD1
100
AcDbEntity
  8
INFO
100
AcDbText
 10
-34.12681841158138
 20
-22.63810720517836
 30
0.0
 40
1.0
  1
1
100
AcDbAttribute
  2
2GENINF
 70
     1
  0
ATTRIB
  5
AD3
330
AD1
100
AcDbEntity
  8
INFO
100
AcDbText
 10
-34.12681841158138
 20
-24.13810720517836
 30
0.0
 40
1.0
  1
<***aktuell***>
100
AcDbAttribute
  2
3GENINF
 70
     1
  0
ATTRIB
  5
AD4
330
AD1
100
AcDbEntity
  8
INFO
100
AcDbText
 10
-34.12681841158138
 20
-25.63810720517836
 30
0.0
 40
1.0
  1

100
AcDbAttribute
  2
4GENINF
 70
     1
  0
ATTRIB
  5
AD5
330
AD1
100
AcDbEntity
  8
INFO
100
AcDbText
 10
-34.12681841158138
 20
-27.13810720517836
 30
0.0
 40
1.0
  1
MSR 3
100
AcDbAttribute
  2
5GENINF
 70
     1
  0
ATTRIB
  5
AD6
330
AD1
100
AcDbEntity
  8
INFO
100
AcDbText
 10
-34.12681841158138
 20
-28.63810720517836
 30
0.0
 40
1.0
  1

100
AcDbAttribute
  2
6GENINF
 70
     1
  0
ATTRIB
  5
AD7
330
AD1
100
AcDbEntity
  8
INFO
100
AcDbText
 10
-34.12681841158138
 20
-30.13810720517836
 30
0.0
 40
1.0
  1
Fa. Mayer
100
AcDbAttribute
  2
7GENINF
 70
     1
  0
ATTRIB
  5
AD8
330
AD1
100
AcDbEntity
  8
INFO
100
AcDbText
 10
-34.12681841158138
 20
-31.63810720517836
 30
0.0
 40
1.0
  1

100
AcDbAttribute
  2
8GENINF
 70
     1
  0
ATTRIB
  5
AD9
330
AD1
100
AcDbEntity
  8
INFO
100
AcDbText
 10
-34.12681841158138
 20
-33.13810720517836
 30
0.0
 40
1.0
  1

100
AcDbAttribute
  2
9GENINF
 70
     1
  0
ATTRIB
  5
ADA
330
AD1
100
AcDbEntity
  8
INFO
100
AcDbText
 10
-34.12681841158138
 20
-34.63810720517836
 30
0.0
 40
1.0
  1

100
AcDbAttribute
  2
10GENINF
 70
     1
  0
ATTRIB
  5
ADB
330
AD1
100
AcDbEntity
  8
INFO
100
AcDbText
 10
-34.12681841158138
 20
-36.13810720517836
 30
0.0
 40
1.0
  1

100
AcDbAttribute
  2
11GENINF
 70
     1
  0
ATTRIB
  5
ADC
330
AD1
100
AcDbEntity
  8
INFO
100
AcDbText
 10
-34.12681841158138
 20
-37.63810720517836
 30
0.0
 40
1.0
  1

100
AcDbAttribute
  2
12GENINF
 70
     1
  0
ATTRIB
  5
ADD
330
AD1
100
AcDbEntity
  8
INFO
100
AcDbText
 10
-34.12681841158138
 20
-39.13810720517836
 30
0.0
 40
1.0
  1

100
AcDbAttribute
  2
13GENINF
 70
     1
  0
ATTRIB
  5
ADE
330
AD1
100
AcDbEntity
  8
INFO
100
AcDbText
 10
-34.12681841158138
 20
-40.63810720517835
 30
0.0
 40
1.0
  1

100
AcDbAttribute
  2
14GENINF
 70
     1
  0
ATTRIB
  5
ADF
330
AD1
100
AcDbEntity
  8
INFO
100
AcDbText
 10
-34.12681841158138
 20
-42.13810720517836
 30
0.0
 40
1.0
  1

100
AcDbAttribute
  2
15GENINF
 70
     1
  0
ATTRIB
  5
AE0
330
AD1
100
AcDbEntity
  8
INFO
100
AcDbText
 10
-34.12681841158138
 20
-43.63810720517835
 30
0.0
 40
1.0
  1

100
AcDbAttribute
  2
16GENINF
 70
     1
  0
ATTRIB
  5
AE1
330
AD1
100
AcDbEntity
  8
INFO
100
AcDbText
 10
-34.12681841158138
 20
-45.13810720517835
 30
0.0
 40
1.0
  1

100
AcDbAttribute
  2
17GENINF
 70
     1
  0
ATTRIB
  5
AE2
330
AD1
100
AcDbEntity
  8
INFO
100
AcDbText
 10
-34.12681841158138
 20
-46.63810720517836
 30
0.0
 40
1.0
  1

100
AcDbAttribute
  2
18GENINF
 70
     1
  0
ATTRIB
  5
AE3
330
AD1
100
AcDbEntity
  8
INFO
100
AcDbText
 10
-34.12681841158138
 20
-48.13810720517835
 30
0.0
 40
1.0
  1

100
AcDbAttribute
  2
19GENINF
 70
     1
  0
ATTRIB
  5
AE4
330
AD1
100
AcDbEntity
  8
INFO
100
AcDbText
 10
-34.12681841158138
 20
-49.63810720517836
 30
0.0
 40
1.0
  1

100
AcDbAttribute
  2
20GENINF
 70
     1
  0
ATTRIB
  5
AE5
330
AD1
100
AcDbEntity
  8
INFO
100
AcDbText
 10
-34.12681841158138
 20
-51.13810720517836
 30
0.0
 40
1.0
  1

100
AcDbAttribute
  2
21GENINF
 70
     1
  0
ATTRIB
  5
AE6
330
AD1
100
AcDbEntity
  8
INFO
100
AcDbText
 10
-34.12681841158138
 20
-52.63810720517835
 30
0.0
 40
1.0
  1

100
AcDbAttribute
  2
22GENINF
 70
     1
  0
ATTRIB
  5
AE7
330
AD1
100
AcDbEntity
  8
INFO
100
AcDbText
 10
-34.12681841158138
 20
-54.13810720517836
 30
0.0
 40
1.0
  1

100
AcDbAttribute
  2
23GENINF
 70
     1
  0
ATTRIB
  5
AE8
330
AD1
100
AcDbEntity
  8
INFO
100
AcDbText
 10
-34.12681841158138
 20
-55.63810720517835
 30
0.0
 40
1.0
  1

100
AcDbAttribute
  2
24GENINF
 70
     1
  0
ATTRIB
  5
AE9
330
AD1
100
AcDbEntity
  8
INFO
100
AcDbText
 10
-34.12681841158138
 20
-57.13810720517836
 30
0.0
 40
1.0
  1

100
AcDbAttribute
  2
0GENINF
 70
     1
  0
SEQEND
  5
AEA
330
AD1
100
AcDbEntity
  8
MSR3-0N
  0
LINE
  5
AEB
330
9B4
100
AcDbEntity
  8
MSR3-0
100
AcDbLine
 10
-34.26794849999999
 20
3.0
 30
0.0
 11
-32.53589699999998
 21
0.0
 31
0.0
  0
LINE
  5
AEC
330
9B4
100
AcDbEntity
  8
MSR3-0
100
AcDbLine
 10
-32.53589699999998
 20
0.0
 30
0.0
 11
-34.26794849999999
 21
-3.0
 31
0.0
  0
LINE
  5
AED
330
9B4
100
AcDbEntity
  8
MSR3-7
100
AcDbLine
 10
-45.12212399999998
 20
0.0
 30
0.0
 11
-27.02462399999996
 21
0.0
 31
0.0
  0
LINE
  5
AEE
330
9B4
100
AcDbEntity
  8
MSR3-0
100
AcDbLine
 10
-37.73204999999999
 20
-3.0
 30
0.0
 11
-37.73204999999999
 21
-3.0
 31
0.0
  0
LINE
  5
AEF
330
9B4
100
AcDbEntity
  8
MSR3-0
100
AcDbLine
 10
-39.46410149999997
 20
0.0
 30
0.0
 11
-37.73204999999999
 21
3.0
 31
0.0
  0
LINE
  5
AF0
330
9B4
100
AcDbEntity
  8
MSR3-0
100
AcDbLine
 10
-37.73204999999999
 20
-3.0
 30
0.0
 11
-39.46410149999997
 21
0.0
 31
0.0
  0
LINE
  5
AF1
330
9B4
100
AcDbEntity
  8
MSR3-0
100
AcDbLine
 10
-34.26794849999999
 20
-3.0
 30
0.0
 11
-37.73204999999999
 21
-3.0
 31
0.0
  0
LINE
  5
AF2
330
9B4
100
AcDbEntity
  8
MSR3-0
100
AcDbLine
 10
-37.73204999999999
 20
3.0
 30
0.0
 11
-34.26794849999999
 21
3.0
 31
0.0
  0
LINE
  5
AF3
330
9B4
100
AcDbEntity
  8
MSR3-7
100
AcDbLine
 10
-7.795463999999981
 20
0.0
 30
0.0
 11
6.888910500000008
 21
0.0
 31
0.0
  0
LINE
  5
AF4
330
9B4
100
AcDbEntity
  8
MSR3-7
100
AcDbLine
 10
-25.69215
 20
19.99999950000006
 30
0.0
 11
-14.48061149999998
 21
19.99999950000006
 31
0.0
  0
CIRCLE
  5
AF5
330
9B4
100
AcDbEntity
  8
MSR3-0
100
AcDbCircle
 10
-19.9999995
 20
19.99999950000006
 30
0.0
 40
2.500000499999999
  0
ARC
  5
AF6
330
9B4
100
AcDbEntity
  8
MSR3-4
100
AcDbCircle
 10
-19.9999995
 20
19.99999950000006
 30
0.0
 40
3.0
100
AcDbArc
 50
180.0
 51
90.0
  0
LINE
  5
AF7
330
9B4
100
AcDbEntity
  8
MSR3-7
100
AcDbLine
 10
-19.9999995
 20
25.35197249999999
 30
0.0
 11
-19.9999995
 21
14.83274249999999
 31
0.0
  0
LINE
  5
AF8
330
9B4
100
AcDbEntity
  8
MSR3-0
100
AcDbLine
 10
56.00000100000002
 20
30.0
 30
0.0
 11
56.00000100000002
 21
-30.0
 31
0.0
  0
LINE
  5
AF9
330
9B4
100
AcDbEntity
  8
MSR3-0
100
AcDbLine
 10
50.50000100000002
 20
30.0
 30
0.0
 11
50.50000100000002
 21
-30.0
 31
0.0
  0
CIRCLE
  5
AFA
330
9B4
100
AcDbEntity
  8
MSR3-0
100
AcDbCircle
 10
36.0
 20
0.0
 30
0.0
 40
6.499999500000001
  0
CIRCLE
  5
AFB
330
9B4
100
AcDbEntity
  8
MSR3-0
100
AcDbCircle
 10
36.0
 20
0.0
 30
0.0
 40
7.5
  0
LINE
  5
AFC
330
9B4
100
AcDbEntity
  8
MSR3-7
100
AcDbLine
 10
36.0
 20
9.999540000000024
 30
0.0
 11
36.0
 21
-9.16952249999997
 31
0.0
  0
LINE
  5
AFD
330
9B4
100
AcDbEntity
  8
MSR3-7
100
AcDbLine
 10
20.00000100000002
 20
5.351972999999986
 30
0.0
 11
20.00000100000002
 21
-5.167258500000002
 31
0.0
  0
LINE
  5
AFE
330
9B4
100
AcDbEntity
  8
MSR3-7
100
AcDbLine
 10
26.87787600000002
 20
0.0
 30
0.0
 11
44.97537600000003
 21
0.0
 31
0.0
  0
LINE
  5
AFF
330
9B4
100
AcDbEntity
  8
MSR3-0
100
AcDbLine
 10
37.73205150000001
 20
-3.0
 30
0.0
 11
34.26795000000004
 21
-3.0
 31
0.0
  0
LINE
  5
B00
330
9B4
100
AcDbEntity
  8
MSR3-0
100
AcDbLine
 10
34.26795000000004
 20
3.0
 30
0.0
 11
37.73205150000001
 21
3.0
 31
0.0
  0
LINE
  5
B01
330
9B4
100
AcDbEntity
  8
MSR3-7
100
AcDbLine
 10
20.00000100000002
 20
-14.64802800000001
 30
0.0
 11
20.00000100000002
 21
-25.16725800000001
 31
0.0
  0
LINE
  5
B02
330
9B4
100
AcDbEntity
  8
MSR3-7
100
AcDbLine
 10
14.30784900000003
 20
-19.9999995
 30
0.0
 11
25.5193875
 21
-19.9999995
 31
0.0
  0
ARC
  5
B03
330
9B4
100
AcDbEntity
  8
MSR3-4
100
AcDbCircle
 10
20.00000100000002
 20
-19.9999995
 30
0.0
 40
3.0
100
AcDbArc
 50
180.0
 51
90.0
  0
CIRCLE
  5
B04
330
9B4
100
AcDbEntity
  8
MSR3-0
100
AcDbCircle
 10
20.00000100000002
 20
-19.9999995
 30
0.0
 40
2.500000499999999
  0
LINE
  5
B05
330
9B4
100
AcDbEntity
  8
MSR3-7
100
AcDbLine
 10
15.94079550000001
 20
0.0
 30
0.0
 11
25.5193875
 21
0.0
 31
0.0
  0
CIRCLE
  5
B06
330
9B4
100
AcDbEntity
  8
MSR3-0
100
AcDbCircle
 10
20.00000100000002
 20
0.0
 30
0.0
 40
3.0
  0
LINE
  5
B07
330
9B4
100
AcDbEntity
  8
MSR3-0
100
AcDbLine
 10
34.26795000000004
 20
-3.0
 30
0.0
 11
34.26795000000004
 21
-3.0
 31
0.0
  0
LINE
  5
B08
330
9B4
100
AcDbEntity
  8
MSR3-0
100
AcDbLine
 10
32.5358985
 20
0.0
 30
0.0
 11
34.26795000000004
 21
3.0
 31
0.0
  0
LINE
  5
B09
330
9B4
100
AcDbEntity
  8
MSR3-0
100
AcDbLine
 10
34.26795000000004
 20
-3.0
 30
0.0
 11
32.5358985
 21
0.0
 31
0.0
  0
LINE
  5
B0A
330
9B4
100
AcDbEntity
  8
MSR3-0
100
AcDbLine
 10
37.73205150000001
 20
3.0
 30
0.0
 11
39.46410300000002
 21
0.0
 31
0.0
  0
LINE
  5
B0B
330
9B4
100
AcDbEntity
  8
MSR3-0
100
AcDbLine
 10
39.46410300000002
 20
0.0
 30
0.0
 11
37.73205150000001
 21
-3.0
 31
0.0
  0
LINE
  5
B0C
330
9B4
100
AcDbEntity
  8
MSR3-7
100
AcDbLine
 10
20.00000100000002
 20
25.35197249999999
 30
0.0
 11
20.00000100000002
 21
14.83274249999999
 31
0.0
  0
CIRCLE
  5
B0D
330
9B4
100
AcDbEntity
  8
MSR3-0
100
AcDbCircle
 10
20.00000100000002
 20
19.99999950000006
 30
0.0
 40
2.500000499999999
  0
ARC
  5
B0E
330
9B4
100
AcDbEntity
  8
MSR3-4
100
AcDbCircle
 10
20.00000100000002
 20
19.99999950000006
 30
0.0
 40
3.0
100
AcDbArc
 50
180.0
 51
90.0
  0
LINE
  5
B0F
330
9B4
100
AcDbEntity
  8
MSR3-7
100
AcDbLine
 10
14.30784900000003
 20
19.99999950000006
 30
0.0
 11
25.5193875
 21
19.99999950000006
 31
0.0
  0
LINE
  5
B10
330
9B4
100
AcDbEntity
  8
MSR3-0
100
AcDbLine
 10
118.8279585
 20
-88.64371611469323
 30
0.0
 11
127.327959
 21
-93.55119261469326
 31
0.0
  0
LINE
  5
B11
330
9B4
100
AcDbEntity
  8
MSR3-0
100
AcDbLine
 10
105.827958
 20
-80.95867161469323
 30
0.0
 11
135.8279595000001
 21
-80.95867161469323
 31
0.0
  0
LINE
  5
B12
330
9B4
100
AcDbEntity
  8
MSR3-7
100
AcDbLine
 10
108.9659175
 20
-98.45867211469323
 30
0.0
 11
127.327959
 21
-98.45867211469323
 31
0.0
  0
ARC
  5
B13
330
9B4
100
AcDbEntity
  8
MSR3-0
100
AcDbCircle
 10
118.8279585
 20
-98.45867211469323
 30
0.0
 40
6.499999500000001
100
AcDbArc
 50
257.419483
 51
193.3648
  0
CIRCLE
  5
B14
330
9B4
100
AcDbEntity
  8
MSR3-0
100
AcDbCircle
 10
118.8279585
 20
-98.45867211469323
 30
0.0
 40
7.000000499999998
  0
LINE
  5
B15
330
9B4
100
AcDbEntity
  8
MSR3-2
100
AcDbLine
 10
116.569629
 20
-62.78650761469322
 30
0.0
 11
155.0862885
 21
-62.78650761469322
 31
0.0
  0
LINE
  5
B16
330
9B4
100
AcDbEntity
  8
MSR3-2
100
AcDbLine
 10
105.827958
 20
-50.45867061469323
 30
0.0
 11
165.8279595000001
 21
-50.45867061469323
 31
0.0
  0
LINE
  5
B17
330
9B4
100
AcDbEntity
  8
MSR3-0
100
AcDbLine
 10
117.435654
 20
-63.28650711469322
 30
0.0
 11
154.2202635
 21
-63.28650711469322
 31
0.0
  0
LINE
  5
B18
330
9B4
100
AcDbEntity
  8
MSR3-0
100
AcDbLine
 10
120.3279585000001
 20
-73.61663361469322
 30
0.0
 11
120.3279585000001
 21
-64.95638061469321
 31
0.0
  0
LINE
  5
B19
330
9B4
100
AcDbEntity
  8
MSR3-0
100
AcDbLine
 10
110.327958
 20
-70.72988361469327
 30
0.0
 11
112.8279585000001
 21
-72.17325861469328
 31
0.0
  0
LINE
  5
B1A
330
9B4
100
AcDbEntity
  8
MSR3-0
100
AcDbLine
 10
105.3279585
 20
-64.95638061469321
 30
0.0
 11
105.3279585
 21
-73.61663361469322
 31
0.0
  0
LINE
  5
B1B
330
9B4
100
AcDbEntity
  8
MSR3-7
100
AcDbLine
 10
112.8279585000001
 20
-59.13319161469326
 30
0.0
 11
112.8279585000001
 21
-79.27459761469322
 31
0.0
  0
LINE
  5
B1C
330
9B4
100
AcDbEntity
  8
MSR3-0
100
AcDbLine
 10
112.8279585000001
 20
-72.17325861469328
 30
0.0
 11
115.327959
 21
-70.72988361469327
 31
0.0
  0
CIRCLE
  5
B1D
330
9B4
100
AcDbEntity
  8
MSR3-0
100
AcDbCircle
 10
112.8279585000001
 20
-69.28650711469322
 30
0.0
 40
4.9999995
  0
ARC
  5
B1E
330
9B4
100
AcDbEntity
  8
MSR3-0
100
AcDbCircle
 10
112.8279585000001
 20
-69.28650711469322
 30
0.0
 40
4.5
100
AcDbArc
 50
270.000003
 51
192.6101769999999
  0
ARC
  5
B1F
330
9B4
100
AcDbEntity
  8
MSR3-0
100
AcDbCircle
 10
110.327958
 20
-91.45867161469324
 30
0.0
 40
3.75
100
AcDbArc
 50
1.102287999999999
 51
270.000003
  0
LINE
  5
B20
330
9B4
100
AcDbEntity
  8
MSR3-7
100
AcDbLine
 10
110.327958
 20
-86.41834911469322
 30
0.0
 11
110.327958
 21
-93.55119261469326
 31
0.0
  0
LINE
  5
B21
330
9B4
100
AcDbEntity
  8
MSR3-0
100
AcDbLine
 10
110.327958
 20
-93.55119261469326
 30
0.0
 11
118.8279585
 21
-88.64371611469323
 31
0.0
  0
LINE
  5
B22
330
9B4
100
AcDbEntity
  8
MSR3-7
100
AcDbLine
 10
102.3962445
 20
-107.7032621146932
 30
0.0
 11
113.096244
 21
-107.7032621146932
 31
0.0
  0
LINE
  5
B23
330
9B4
100
AcDbEntity
  8
MSR3-7
100
AcDbLine
 10
105.827958
 20
-91.45867161469324
 30
0.0
 11
114.077265
 21
-91.38653061469325
 31
0.0
  0
LINE
  5
B24
330
9B4
100
AcDbEntity
  8
MSR3-3
100
AcDbLine
 10
110.662734
 20
-105.6032621146933
 30
0.0
 11
105.827958
 21
-105.6032621146933
 31
0.0
  0
LINE
  5
B25
330
9B4
100
AcDbEntity
  8
MSR3-3
100
AcDbLine
 10
110.662734
 20
-105.2032616146932
 30
0.0
 11
105.827958
 21
-105.2032616146932
 31
0.0
  0
LINE
  5
B26
330
9B4
100
AcDbEntity
  8
MSR3-0
100
AcDbLine
 10
109.173258
 20
-89.45867061469323
 30
0.0
 11
108.018558
 21
-91.45867161469324
 31
0.0
  0
LINE
  5
B27
330
9B4
100
AcDbEntity
  8
MSR3-0
100
AcDbLine
 10
108.018558
 20
-91.45867161469324
 30
0.0
 11
109.173258
 21
-93.45867111469326
 31
0.0
  0
LINE
  5
B28
330
9B4
100
AcDbEntity
  8
MSR3-0
100
AcDbLine
 10
122.3279595
 20
-100.4793971146932
 30
0.0
 11
122.3279595
 21
-96.43794561469324
 31
0.0
  0
LINE
  5
B29
330
9B4
100
AcDbEntity
  8
MSR3-0
100
AcDbLine
 10
110.327958
 20
-103.3661486146932
 30
0.0
 11
110.327958
 21
-93.55119261469326
 31
0.0
  0
LINE
  5
B2A
330
9B4
100
AcDbEntity
  8
MSR3-0
100
AcDbLine
 10
115.327959
 20
-96.43794561469324
 30
0.0
 11
115.327959
 21
-100.4793971146932
 31
0.0
  0
LINE
  5
B2B
330
9B4
100
AcDbEntity
  8
MSR3-0
100
AcDbLine
 10
115.327959
 20
-100.4793971146932
 30
0.0
 11
118.8279585
 21
-102.5001236146932
 31
0.0
  0
LINE
  5
B2C
330
9B4
100
AcDbEntity
  8
MSR3-0
100
AcDbLine
 10
118.8279585
 20
-102.5001236146932
 30
0.0
 11
122.3279595
 21
-100.4793971146932
 31
0.0
  0
LINE
  5
B2D
330
9B4
100
AcDbEntity
  8
MSR3-0
100
AcDbLine
 10
118.8279585
 20
-94.41721911469324
 30
0.0
 11
115.327959
 21
-96.43794561469324
 31
0.0
  0
LINE
  5
B2E
330
9B4
100
AcDbEntity
  8
MSR3-0
100
AcDbLine
 10
111.482658
 20
-89.45867061469323
 30
0.0
 11
109.173258
 21
-89.45867061469323
 31
0.0
  0
LINE
  5
B2F
330
9B4
100
AcDbEntity
  8
MSR3-0
100
AcDbLine
 10
109.173258
 20
-93.45867111469326
 30
0.0
 11
110.488212
 21
-93.45867111469326
 31
0.0
  0
LINE
  5
B30
330
9B4
100
AcDbEntity
  8
MSR3-0
100
AcDbLine
 10
112.6373595
 20
-91.45867161469324
 30
0.0
 11
111.482658
 21
-89.45867061469323
 31
0.0
  0
LINE
  5
B31
330
9B4
100
AcDbEntity
  8
MSR3-0
100
AcDbLine
 10
111.9798825
 20
-92.59745511469322
 30
0.0
 11
112.6373595
 21
-91.45867161469324
 31
0.0
  0
LINE
  5
B32
330
9B4
100
AcDbEntity
  8
MSR3-0
100
AcDbLine
 10
122.3279595
 20
-96.43794561469324
 30
0.0
 11
118.8279585
 21
-94.41721911469324
 31
0.0
  0
LINE
  5
B33
330
9B4
100
AcDbEntity
  8
MSR3-0
100
AcDbLine
 10
105.3279585
 20
-73.61663361469322
 30
0.0
 11
112.8279585000001
 21
-77.94676161469323
 31
0.0
  0
LINE
  5
B34
330
9B4
100
AcDbEntity
  8
MSR3-0
100
AcDbLine
 10
112.8279585000001
 20
-77.94676161469323
 30
0.0
 11
120.3279585000001
 21
-73.61663361469322
 31
0.0
  0
LINE
  5
B35
330
9B4
100
AcDbEntity
  8
MSR3-7
100
AcDbLine
 10
111.82795875
 20
-47.31303111469322
 30
0.0
 11
111.82795875
 21
-63.26303211469326
 31
0.0
  0
LINE
  5
B36
330
9B4
100
AcDbEntity
  8
MSR3-2
100
AcDbLine
 10
105.827958
 20
-50.45867061469323
 30
0.0
 11
105.827958
 21
-62.78650761469322
 31
0.0
  0
LINE
  5
B37
330
9B4
100
AcDbEntity
  8
MSR3-0
100
AcDbLine
 10
112.8279585000001
 20
-60.62625261469327
 30
0.0
 11
105.3279585
 21
-64.95638061469321
 31
0.0
  0
LINE
  5
B38
330
9B4
100
AcDbEntity
  8
MSR3-2
100
AcDbLine
 10
105.827958
 20
-62.78650761469322
 30
0.0
 11
109.086288
 21
-62.78650761469322
 31
0.0
  0
LINE
  5
B39
330
9B4
100
AcDbEntity
  8
MSR3-7
100
AcDbLine
 10
103.508886
 20
-69.28650711469322
 30
0.0
 11
122.360448
 21
-69.28650711469322
 31
0.0
  0
LINE
  5
B3A
330
9B4
100
AcDbEntity
  8
MSR3-0
100
AcDbLine
 10
105.827958
 20
-63.28650711469322
 30
0.0
 11
108.220263
 21
-63.28650711469322
 31
0.0
  0
LINE
  5
B3B
330
9B4
100
AcDbEntity
  8
MSR3-0
100
AcDbLine
 10
105.827958
 20
-63.28650711469322
 30
0.0
 11
105.827958
 21
-64.66770561469326
 31
0.0
  0
LINE
  5
B3C
330
9B4
100
AcDbEntity
  8
MSR3-0
100
AcDbLine
 10
120.3279585000001
 20
-64.95638061469321
 30
0.0
 11
112.8279585000001
 21
-60.62625261469327
 31
0.0
  0
LINE
  5
B3D
330
9B4
100
AcDbEntity
  8
MSR3-0
100
AcDbLine
 10
115.327959
 20
-67.84313061469328
 30
0.0
 11
112.8279585000001
 21
-66.39975561469327
 31
0.0
  0
LINE
  5
B3E
330
9B4
100
AcDbEntity
  8
MSR3-0
100
AcDbLine
 10
115.327959
 20
-70.72988361469327
 30
0.0
 11
115.327959
 21
-67.84313061469328
 31
0.0
  0
LINE
  5
B3F
330
9B4
100
AcDbEntity
  8
MSR3-0
100
AcDbLine
 10
110.327958
 20
-67.84313061469328
 30
0.0
 11
110.327958
 21
-70.72988361469327
 31
0.0
  0
LINE
  5
B40
330
9B4
100
AcDbEntity
  8
MSR3-0
100
AcDbLine
 10
110.327958
 20
-70.72988361469327
 30
0.0
 11
110.327958
 21
-70.72988361469327
 31
0.0
  0
LINE
  5
B41
330
9B4
100
AcDbEntity
  8
MSR3-0
100
AcDbLine
 10
110.327958
 20
-70.72988361469327
 30
0.0
 11
110.327958
 21
-70.72988361469327
 31
0.0
  0
LINE
  5
B42
330
9B4
100
AcDbEntity
  8
MSR3-0
100
AcDbLine
 10
112.8279585000001
 20
-66.39975561469327
 30
0.0
 11
110.327958
 21
-67.84313061469328
 31
0.0
  0
LINE
  5
B43
330
9B4
100
AcDbEntity
  8
MSR3-2
100
AcDbLine
 10
120.8279595
 20
-62.78650761469322
 30
0.0
 11
120.8279595
 21
-63.28650711469322
 31
0.0
  0
LINE
  5
B44
330
9B4
100
AcDbEntity
  8
MSR3-0
100
AcDbLine
 10
151.327959
 20
-64.95638061469321
 30
0.0
 11
151.327959
 21
-73.61663361469322
 31
0.0
  0
LINE
  5
B45
330
9B4
100
AcDbEntity
  8
MSR3-7
100
AcDbLine
 10
158.827959
 20
-59.23241061469326
 30
0.0
 11
158.827959
 21
-79.57225461469329
 31
0.0
  0
CIRCLE
  5
B46
330
9B4
100
AcDbEntity
  8
MSR3-0
100
AcDbCircle
 10
158.827959
 20
-69.28650711469322
 30
0.0
 40
4.9999995
  0
ARC
  5
B47
330
9B4
100
AcDbEntity
  8
MSR3-0
100
AcDbCircle
 10
158.827959
 20
-69.28650711469322
 30
0.0
 40
4.5
100
AcDbArc
 50
270.000003
 51
192.809307
  0
LINE
  5
B48
330
9B4
100
AcDbEntity
  8
MSR3-0
100
AcDbLine
 10
166.327959
 20
-73.61663361469322
 30
0.0
 11
166.327959
 21
-64.95638061469321
 31
0.0
  0
LINE
  5
B49
330
9B4
100
AcDbEntity
  8
MSR3-0
100
AcDbLine
 10
156.3279585
 20
-70.72988361469327
 30
0.0
 11
158.827959
 21
-72.17325861469328
 31
0.0
  0
LINE
  5
B4A
330
9B4
100
AcDbEntity
  8
MSR3-0
100
AcDbLine
 10
158.827959
 20
-72.17325861469328
 30
0.0
 11
161.3279595
 21
-70.72988361469327
 31
0.0
  0
LINE
  5
B4B
330
9B4
100
AcDbEntity
  8
MSR3-0
100
AcDbLine
 10
152.827959
 20
-94.41721911469324
 30
0.0
 11
149.3279595000001
 21
-96.43794561469324
 31
0.0
  0
LINE
  5
B4C
330
9B4
100
AcDbEntity
  8
MSR3-0
100
AcDbLine
 10
149.3279595000001
 20
-100.4793971146932
 30
0.0
 11
152.827959
 21
-102.5001236146932
 31
0.0
  0
ARC
  5
B4D
330
9B4
100
AcDbEntity
  8
MSR3-0
100
AcDbCircle
 10
152.827959
 20
-98.45867211469323
 30
0.0
 40
6.499999500000001
100
AcDbArc
 50
270.000003
 51
192.124996
  0
CIRCLE
  5
B4E
330
9B4
100
AcDbEntity
  8
MSR3-0
100
AcDbCircle
 10
152.827959
 20
-98.45867211469323
 30
0.0
 40
7.000000499999998
  0
LINE
  5
B4F
330
9B4
100
AcDbEntity
  8
MSR3-7
100
AcDbLine
 10
144.3279585
 20
-98.45867211469323
 30
0.0
 11
162.841698
 21
-98.45867211469323
 31
0.0
  0
LINE
  5
B50
330
9B4
100
AcDbEntity
  8
MSR3-0
100
AcDbLine
 10
152.827959
 20
-88.64371611469323
 30
0.0
 11
144.3279585
 21
-93.55119261469326
 31
0.0
  0
LINE
  5
B51
330
9B4
100
AcDbEntity
  8
MSR3-0
100
AcDbLine
 10
135.8279595000001
 20
-80.95867161469323
 30
0.0
 11
165.8279595000001
 21
-80.95867161469323
 31
0.0
  0
LINE
  5
B52
330
9B4
100
AcDbEntity
  8
MSR3-7
100
AcDbLine
 10
135.8279595000001
 20
-81.72001611469324
 30
0.0
 11
135.8279595000001
 21
-89.54144511469323
 31
0.0
  0
LINE
  5
B53
330
9B4
100
AcDbEntity
  8
MSR3-0
100
AcDbLine
 10
127.327959
 20
-93.55119261469326
 30
0.0
 11
127.327959
 21
-103.3661486146932
 31
0.0
  0
LINE
  5
B54
330
9B4
100
AcDbEntity
  8
MSR3-0
100
AcDbLine
 10
149.3279595000001
 20
-96.43794561469324
 30
0.0
 11
149.3279595000001
 21
-100.4793971146932
 31
0.0
  0
LINE
  5
B55
330
9B4
100
AcDbEntity
  8
MSR3-0
100
AcDbLine
 10
144.3279585
 20
-93.55119261469326
 30
0.0
 11
144.3279585
 21
-103.3661486146932
 31
0.0
  0
LINE
  5
B56
330
9B4
100
AcDbEntity
  8
MSR3-0
100
AcDbLine
 10
149.3279595000001
 20
-100.4793971146932
 30
0.0
 11
149.3279595000001
 21
-100.4793971146932
 31
0.0
  0
LINE
  5
B57
330
9B4
100
AcDbEntity
  8
MSR3-0
100
AcDbLine
 10
149.3279595000001
 20
-100.4793971146932
 30
0.0
 11
149.3279595000001
 21
-100.4793971146932
 31
0.0
  0
CIRCLE
  5
B58
330
9B4
100
AcDbEntity
  8
MSR3-0
100
AcDbCircle
 10
135.8279595000001
 20
-85.45867161469322
 30
0.0
 40
2.099999999999999
  0
ARC
  5
B59
330
9B4
100
AcDbEntity
  8
MSR3-4
100
AcDbCircle
 10
135.8279595000001
 20
-85.45867161469322
 30
0.0
 40
2.5
100
AcDbArc
 50
180.0
 51
90.0
  0
LINE
  5
B5A
330
9B4
100
AcDbEntity
  8
MSR3-7
100
AcDbLine
 10
131.7913515
 20
-85.45867161469322
 30
0.0
 11
140.005638
 21
-85.45867161469322
 31
0.0
  0
LINE
  5
B5B
330
9B4
100
AcDbEntity
  8
MSR3-0
100
AcDbLine
 10
161.3279595
 20
-93.55119261469326
 30
0.0
 11
152.827959
 21
-88.64371611469323
 31
0.0
  0
LINE
  5
B5C
330
9B4
100
AcDbEntity
  8
MSR3-7
100
AcDbLine
 10
161.3279595
 20
-86.61678561469324
 30
0.0
 11
161.3279595
 21
-93.45867111469326
 31
0.0
  0
ARC
  5
B5D
330
9B4
100
AcDbEntity
  8
MSR3-0
100
AcDbCircle
 10
161.3279595
 20
-91.45867161469324
 30
0.0
 40
3.75
100
AcDbArc
 50
270.000003
 51
178.897712
  0
LINE
  5
B5E
330
9B4
100
AcDbEntity
  8
MSR3-7
100
AcDbLine
 10
169.259673
 20
-107.7032621146932
 30
0.0
 11
158.5596735
 21
-107.7032621146932
 31
0.0
  0
LINE
  5
B5F
330
9B4
100
AcDbEntity
  8
MSR3-3
100
AcDbLine
 10
160.9931835
 20
-105.2032616146932
 30
0.0
 11
165.8279595000001
 21
-105.2032616146932
 31
0.0
  0
LINE
  5
B60
330
9B4
100
AcDbEntity
  8
MSR3-3
100
AcDbLine
 10
160.9931835
 20
-105.6032621146933
 30
0.0
 11
165.8279595000001
 21
-105.6032621146933
 31
0.0
  0
LINE
  5
B61
330
9B4
100
AcDbEntity
  8
MSR3-7
100
AcDbLine
 10
157.703604
 20
-91.45867161469324
 30
0.0
 11
165.8279595000001
 21
-91.45867161469324
 31
0.0
  0
LINE
  5
B62
330
9B4
100
AcDbEntity
  8
MSR3-0
100
AcDbLine
 10
161.3279595
 20
-103.3661486146932
 30
0.0
 11
161.3279595
 21
-93.55119261469326
 31
0.0
  0
LINE
  5
B63
330
9B4
100
AcDbEntity
  8
MSR3-0
100
AcDbLine
 10
156.3279585
 20
-100.4793971146932
 30
0.0
 11
156.3279585
 21
-96.43794561469324
 31
0.0
  0
LINE
  5
B64
330
9B4
100
AcDbEntity
  8
MSR3-0
100
AcDbLine
 10
152.827959
 20
-102.5001236146932
 30
0.0
 11
156.3279585
 21
-100.4793971146932
 31
0.0
  0
LINE
  5
B65
330
9B4
100
AcDbEntity
  8
MSR3-0
100
AcDbLine
 10
156.3279585
 20
-96.43794561469324
 30
0.0
 11
152.827959
 21
-94.41721911469324
 31
0.0
  0
LINE
  5
B66
330
9B4
100
AcDbEntity
  8
MSR3-0
100
AcDbLine
 10
162.4826595
 20
-89.45867061469323
 30
0.0
 11
163.6373595
 21
-91.45867161469324
 31
0.0
  0
LINE
  5
B67
330
9B4
100
AcDbEntity
  8
MSR3-0
100
AcDbLine
 10
163.6373595
 20
-91.45867161469324
 30
0.0
 11
162.4826595
 21
-93.45867111469326
 31
0.0
  0
LINE
  5
B68
330
9B4
100
AcDbEntity
  8
MSR3-0
100
AcDbLine
 10
162.4826595
 20
-93.45867111469326
 30
0.0
 11
161.1677055
 21
-93.45867111469326
 31
0.0
  0
LINE
  5
B69
330
9B4
100
AcDbEntity
  8
MSR3-0
100
AcDbLine
 10
159.018558
 20
-91.45867161469324
 30
0.0
 11
160.173258
 21
-89.45867061469323
 31
0.0
  0
LINE
  5
B6A
330
9B4
100
AcDbEntity
  8
MSR3-0
100
AcDbLine
 10
159.676035
 20
-92.59745511469322
 30
0.0
 11
159.018558
 21
-91.45867161469324
 31
0.0
  0
LINE
  5
B6B
330
9B4
100
AcDbEntity
  8
MSR3-0
100
AcDbLine
 10
160.173258
 20
-89.45867061469323
 30
0.0
 11
162.4826595
 21
-89.45867061469323
 31
0.0
  0
LINE
  5
B6C
330
9B4
100
AcDbEntity
  8
MSR3-0
100
AcDbLine
 10
158.827959
 20
-77.94676161469323
 30
0.0
 11
166.327959
 21
-73.61663361469322
 31
0.0
  0
LINE
  5
B6D
330
9B4
100
AcDbEntity
  8
MSR3-0
100
AcDbLine
 10
151.327959
 20
-73.61663361469322
 30
0.0
 11
158.827959
 21
-77.94676161469323
 31
0.0
  0
LINE
  5
B6E
330
9B4
100
AcDbEntity
  8
MSR3-0
100
AcDbLine
 10
151.327959
 20
-73.61663361469322
 30
0.0
 11
151.327959
 21
-73.61663361469322
 31
0.0
  0
LINE
  5
B6F
330
9B4
100
AcDbEntity
  8
MSR3-0
100
AcDbLine
 10
151.327959
 20
-73.61663361469322
 30
0.0
 11
151.327959
 21
-73.61663361469322
 31
0.0
  0
LINE
  5
B70
330
9B4
100
AcDbEntity
  8
MSR3-7
100
AcDbLine
 10
149.744823
 20
-69.28650711469322
 30
0.0
 11
167.703417
 21
-69.28650711469322
 31
0.0
  0
LINE
  5
B71
330
9B4
100
AcDbEntity
  8
MSR3-2
100
AcDbLine
 10
150.8279595000001
 20
-62.78650761469322
 30
0.0
 11
150.8279595000001
 21
-63.28650711469322
 31
0.0
  0
LINE
  5
B72
330
9B4
100
AcDbEntity
  8
MSR3-2
100
AcDbLine
 10
165.8279595000001
 20
-50.45867061469323
 30
0.0
 11
165.8279595000001
 21
-62.78650761469322
 31
0.0
  0
LINE
  5
B73
330
9B4
100
AcDbEntity
  8
MSR3-7
100
AcDbLine
 10
159.82796025
 20
-47.4908096146932
 30
0.0
 11
159.82796025
 21
-64.99081011469326
 31
0.0
  0
LINE
  5
B74
330
9B4
100
AcDbEntity
  8
MSR3-0
100
AcDbLine
 10
166.327959
 20
-64.95638061469321
 30
0.0
 11
158.827959
 21
-60.62625261469327
 31
0.0
  0
LINE
  5
B75
330
9B4
100
AcDbEntity
  8
MSR3-2
100
AcDbLine
 10
162.5696295
 20
-62.78650761469322
 30
0.0
 11
165.8279595000001
 21
-62.78650761469322
 31
0.0
  0
LINE
  5
B76
330
9B4
100
AcDbEntity
  8
MSR3-0
100
AcDbLine
 10
163.4356545
 20
-63.28650711469322
 30
0.0
 11
165.8279595000001
 21
-63.28650711469322
 31
0.0
  0
LINE
  5
B77
330
9B4
100
AcDbEntity
  8
MSR3-0
100
AcDbLine
 10
158.827959
 20
-60.62625261469327
 30
0.0
 11
151.327959
 21
-64.95638061469321
 31
0.0
  0
LINE
  5
B78
330
9B4
100
AcDbEntity
  8
MSR3-0
100
AcDbLine
 10
158.827959
 20
-66.39975561469327
 30
0.0
 11
156.3279585
 21
-67.84313061469328
 31
0.0
  0
LINE
  5
B79
330
9B4
100
AcDbEntity
  8
MSR3-0
100
AcDbLine
 10
156.3279585
 20
-67.84313061469328
 30
0.0
 11
156.3279585
 21
-70.72988361469327
 31
0.0
  0
LINE
  5
B7A
330
9B4
100
AcDbEntity
  8
MSR3-0
100
AcDbLine
 10
156.3279585
 20
-70.72988361469327
 30
0.0
 11
156.3279585
 21
-70.72988361469327
 31
0.0
  0
LINE
  5
B7B
330
9B4
100
AcDbEntity
  8
MSR3-0
100
AcDbLine
 10
156.3279585
 20
-70.72988361469327
 30
0.0
 11
156.3279585
 21
-70.72988361469327
 31
0.0
  0
LINE
  5
B7C
330
9B4
100
AcDbEntity
  8
MSR3-0
100
AcDbLine
 10
161.3279595
 20
-70.72988361469327
 30
0.0
 11
161.3279595
 21
-67.84313061469328
 31
0.0
  0
LINE
  5
B7D
330
9B4
100
AcDbEntity
  8
MSR3-0
100
AcDbLine
 10
161.3279595
 20
-67.84313061469328
 30
0.0
 11
158.827959
 21
-66.39975561469327
 31
0.0
  0
LINE
  5
B7E
330
9B4
100
AcDbEntity
  8
MSR3-0
100
AcDbLine
 10
165.8279595000001
 20
-63.28650711469322
 30
0.0
 11
165.8279595000001
 21
-64.66770561469326
 31
0.0
  0
LINE
  5
B7F
330
9B4
100
AcDbEntity
  8
MSR3-2
100
AcDbLine
 10
151.0879575
 20
-50.45867061469323
 30
0.0
 11
155.827959
 21
-50.45867061469323
 31
0.0
  0
POINT
  5
B80
330
9B4
100
AcDbEntity
  8
0
 60
     1
100
AcDbPoint
 10
-184.340583
 20
-345.525396
 30
0.0
1001
GENIUS_GENODEF_13
1002
{
1000
HIER
1070
   200
1002
}
1002
{
1000
MANEDIT
1070
     0
1002
}
1002
{
1000
NOSEL
1070
     0
1002
}
1002
{
1000
BEHIND
1070
     0
1002
}
1002
{
1000
REACTOR
1002
}
1001
GENIUS_GENOBJ-F-PART_13
1002
{
1000
OWNER
1000
GEF
1002
}
1001
GENIUS_GEFSTDP_13
1002
{
1000
SUG
1000
M
1040
8.0
1002
}
1002
{
1000
DSC
1000
DSC
1002
{
1000
~DESCR
1000
 
1000
~STDRT
1002
}
1002
}
1002
{
1000
KEY
1000
THRT
1002
}
1002
{
1000
INS
1002
{
1040
208.3405845
1040
53.266206
1040
0.0
1002
}
1002
}
1002
{
1000
ANG
1040
0.0
1002
}
1002
{
1000
VCC
1002
{
1000
$PRE=M
1000
$NND=8.000000000000000E+00
1000
-RBDESCR
1000
-RBSTDRT
1000
-RBGD1
1000
-RBLOTI
1000
-V$PV_GENSYSTEM"gef\val\di\0401\di1616_d.dxf"
1000
$VCC_TABLE=$PV_GENSYSTEM"gef\val\di\0401\di1616.val"
1000
$GEF_CDIST=3.000000000000000E+00
1000
$GEF_DRAG=1
1000
$GEF_STANG=2.100000000000000E+02
1000
$GEF_OANG=7.000000000000000E+01
1000
$GEVPROMPTX= Länge: 
1000
$GEF_SNK_ADD=0.000000000000000E+00
1000
$GEF_FLIPX=1
1000
$GEF_FLIPY=1
1000
-GRPNAME0?
1000
-GRPNAME1?
1000
-BAML2
1000
$GEF_PROCALC=1
1002
}
1002
}
1002
{
1000
LST
1002
{
1002
{
1000
GROUP
1000
0401
1002
}
1002
{
1000
VIEW
1000
D
1002
}
1002
{
1000
SFILE
1000
$PV_GENSYSTEM"gef\val\di\0401\di1616_d.dxf"
1002
}
1002
{
1000
ST1
1000
$PV_GENSYSTEM"gef\val\di\0401\di1616.val"
1002
}
1002
{
1000
GENASSO
1000
 
1002
}
1002
}
1002
}
1002
{
1000
RET
1002
{
1002
{
1000
LOTI
1002
}
1002
{
1000
GD1
1000
6.647
1002
}
1002
{
1000
STDRT
1000
DIN 13 - M8
1002
}
1002
{
1000
DESCR
1000
Metrisches ISO-Gewinde
1002
}
1002
}
1002
}
1002
{
1000
SYSTEM
1040
1.0
1002
}
1002
{
1000
INFEL
1002
{
1002
}
1002
}
1001
GENIUS_GENOENT_13
1002
{
1000
MYREF
1005
B80
1002
}
1002
{
1000
GRP
1005
0
1002
}
1001
GENIUS_GENOLIS_13
1002
{
1000
ENT
1005
A0E
1002
}
  0
POINT
  5
B81
330
9B4
100
AcDbEntity
  8
0
 60
     1
100
AcDbPoint
 10
-184.340583
 20
-345.525396
 30
0.0
1001
GENIUS_GENBH_13
1002
{
1000
BGO
1005
B82
1002
}
1002
{
1000
FGLEVEL
1040
2.000000009999999
1002
}
1002
{
1000
FLAGS
1070
    36
1002
}
1002
{
1000
OIUMAP
1000
OIU
1002
}
1002
{
1000
MODIFY
1070
     0
1002
}
1001
GENIUS_GENODEF_13
1002
{
1000
HIER
1070
     1
1002
}
1002
{
1000
MANEDIT
1070
     0
1002
}
1002
{
1000
NOSEL
1070
     1
1002
}
1002
{
1000
BEHIND
1070
     0
1002
}
1002
{
1000
REACTOR
1002
}
1001
GENIUS_GENOBJ-NBEHI-BHF_13
1002
{
1000
OWNER
1000
GENBEHI
1002
}
1001
GENIUS_GENOENT_13
1002
{
1000
MYREF
1005
B81
1002
}
1002
{
1000
GRP
1005
0
1002
}
1001
GENIUS_GENOLIS_13
1002
{
1000
ENT
1005
A0E
1002
}
  0
POINT
  5
B82
330
9B4
100
AcDbEntity
  8
0
 60
     1
100
AcDbPoint
 10
-184.340583
 20
-345.525396
 30
0.0
1001
GENIUS_GENBH_13
1002
{
1000
FGO
1005
B81
1002
}
1001
GENIUS_GENODEF_13
1002
{
1000
HIER
1070
     1
1002
}
1002
{
1000
MANEDIT
1070
     0
1002
}
1002
{
1000
NOSEL
1070
     1
1002
}
1002
{
1000
BEHIND
1070
     0
1002
}
1002
{
1000
REACTOR
1002
}
1001
GENIUS_GENOBJ-NBEHI-BHB_13
1002
{
1000
OWNER
1000
GENBEHI
1002
}
1001
GENIUS_GENOENT_13
1002
{
1000
MYREF
1005
B82
1002
}
1002
{
1000
GRP
1005
0
1002
}
1001
GENIUS_GENOLIS_13
1002
{
1000
ENT
1005
A0D
1005
A11
1002
}
  0
POINT
  5
B83
330
9B4
100
AcDbEntity
  8
0
 60
     1
100
AcDbPoint
 10
-184.340583
 20
-345.525396
 30
0.0
1001
GENIUS_GENBH_13
1002
{
1000
FGO
1005
B85
1002
}
1001
GENIUS_GENODEF_13
1002
{
1000
HIER
1070
     1
1002
}
1002
{
1000
MANEDIT
1070
     0
1002
}
1002
{
1000
NOSEL
1070
     1
1002
}
1002
{
1000
BEHIND
1070
     0
1002
}
1002
{
1000
REACTOR
1002
}
1001
GENIUS_GENOBJ-NBEHI-BHB_13
1002
{
1000
OWNER
1000
GENBEHI
1002
}
1001
GENIUS_GENOENT_13
1002
{
1000
MYREF
1005
B83
1002
}
1002
{
1000
GRP
1005
0
1002
}
1001
GENIUS_GENOLIS_13
1002
{
1000
ENT
1005
9FF
1005
A01
1002
}
  0
POINT
  5
B84
330
9B4
100
AcDbEntity
  8
0
 60
     1
100
AcDbPoint
 10
-184.340583
 20
-345.525396
 30
0.0
1001
GENIUS_GENODEF_13
1002
{
1000
HIER
1070
   200
1002
}
1002
{
1000
MANEDIT
1070
     0
1002
}
1002
{
1000
NOSEL
1070
     0
1002
}
1002
{
1000
BEHIND
1070
     0
1002
}
1002
{
1000
REACTOR
1002
}
1001
GENIUS_GENOBJ-F-PART_13
1002
{
1000
OWNER
1000
GEF
1002
}
1001
GENIUS_GEFSTDP_13
1002
{
1000
DSC
1000
DSC
1002
{
1000
~DESCR
1000
 
1000
~STDRT
1002
}
1002
}
1002
{
1000
SUG
1000
M
1040
8.0
1002
}
1002
{
1000
KEY
1000
THRT
1002
}
1002
{
1000
INS
1002
{
1040
160.3405829999999
1040
53.266206
1040
0.0
1002
}
1002
}
1002
{
1000
ANG
1040
0.0
1002
}
1002
{
1000
VCC
1002
{
1000
$PRE=M
1000
$NND=8.000000000000000E+00
1000
-RBDESCR
1000
-RBSTDRT
1000
-RBGD1
1000
-RBLOTI
1000
-V$PV_GENSYSTEM"gef\val\di\0401\di1616_d.dxf"
1000
$VCC_TABLE=$PV_GENSYSTEM"gef\val\di\0401\di1616.val"
1000
$GEF_CDIST=3.000000000000000E+00
1000
$GEF_DRAG=1
1000
$GEF_STANG=2.100000000000000E+02
1000
$GEF_OANG=7.000000000000000E+01
1000
$GEVPROMPTX= Länge: 
1000
$GEF_SNK_ADD=0.000000000000000E+00
1000
$GEF_FLIPX=1
1000
$GEF_FLIPY=1
1000
-GRPNAME0?
1000
-GRPNAME1?
1000
-BAML2
1000
$GEF_PROCALC=1
1002
}
1002
}
1002
{
1000
LST
1002
{
1002
{
1000
GROUP
1000
0401
1002
}
1002
{
1000
VIEW
1000
D
1002
}
1002
{
1000
SFILE
1000
$PV_GENSYSTEM"gef\val\di\0401\di1616_d.dxf"
1002
}
1002
{
1000
ST1
1000
$PV_GENSYSTEM"gef\val\di\0401\di1616.val"
1002
}
1002
{
1000
GENASSO
1000
 
1002
}
1002
}
1002
}
1002
{
1000
RET
1002
{
1002
{
1000
LOTI
1002
}
1002
{
1000
GD1
1000
6.647
1002
}
1002
{
1000
STDRT
1000
DIN 13 - M8
1002
}
1002
{
1000
DESCR
1000
Metrisches ISO-Gewinde
1002
}
1002
}
1002
}
1002
{
1000
SYSTEM
1040
1.0
1002
}
1002
{
1000
INFEL
1002
{
1002
}
1002
}
1001
GENIUS_GENOENT_13
1002
{
1000
MYREF
1005
B84
1002
}
1002
{
1000
GRP
1005
0
1002
}
1001
GENIUS_GENOLIS_13
1002
{
1000
ENT
1005
9FE
1002
}
  0
POINT
  5
B85
330
9B4
100
AcDbEntity
  8
0
 60
     1
100
AcDbPoint
 10
-184.340583
 20
-345.525396
 30
0.0
1001
GENIUS_GENBH_13
1002
{
1000
BGO
1005
B83
1002
}
1002
{
1000
FGLEVEL
1040
1.000000009999999
1002
}
1002
{
1000
FLAGS
1070
    36
1002
}
1002
{
1000
OIUMAP
1000
OIU
1002
}
1002
{
1000
MODIFY
1070
     0
1002
}
1001
GENIUS_GENODEF_13
1002
{
1000
HIER
1070
     1
1002
}
1002
{
1000
MANEDIT
1070
     0
1002
}
1002
{
1000
NOSEL
1070
     1
1002
}
1002
{
1000
BEHIND
1070
     0
1002
}
1002
{
1000
REACTOR
1002
}
1001
GENIUS_GENOBJ-NBEHI-BHF_13
1002
{
1000
OWNER
1000
GENBEHI
1002
}
1001
GENIUS_GENOENT_13
1002
{
1000
MYREF
1005
B85
1002
}
1002
{
1000
GRP
1005
0
1002
}
1001
GENIUS_GENOLIS_13
1002
{
1000
ENT
1005
9FE
1002
}
  0
POINT
  5
B86
330
9B4
100
AcDbEntity
  8
0
 60
     1
100
AcDbPoint
 10
-184.340583
 20
-345.525396
 30
0.0
1001
GENIUS_GENODEF_13
1002
{
1000
HIER
1070
   200
1002
}
1002
{
1000
MANEDIT
1070
     0
1002
}
1002
{
1000
NOSEL
1070
     0
1002
}
1002
{
1000
BEHIND
1070
     0
1002
}
1002
{
1000
REACTOR
1002
}
1001
GENIUS_GENOBJ-F-PART_13
1002
{
1000
OWNER
1000
GEF
1002
}
1001
GENIUS_GEFSTDP_13
1002
{
1000
SUG
1000
M
1040
8.0
1002
}
1002
{
1000
DSC
1000
DSC
1002
{
1000
~DESCR
1000
 
1000
~STDRT
1002
}
1002
}
1002
{
1000
KEY
1000
THRT
1002
}
1002
{
1000
INS
1002
{
1040
208.3405845
1040
101.2662075
1040
0.0
1002
}
1002
}
1002
{
1000
ANG
1040
0.0
1002
}
1002
{
1000
VCC
1002
{
1000
$PRE=M
1000
$NND=8.000000000000000E+00
1000
-RBDESCR
1000
-RBSTDRT
1000
-RBGD1
1000
-RBLOTI
1000
-V$PV_GENSYSTEM"gef\val\di\0401\di1616_d.dxf"
1000
$VCC_TABLE=$PV_GENSYSTEM"gef\val\di\0401\di1616.val"
1000
$GEF_CDIST=3.000000000000000E+00
1000
$GEF_DRAG=1
1000
$GEF_STANG=2.100000000000000E+02
1000
$GEF_OANG=7.000000000000000E+01
1000
$GEVPROMPTX= Länge: 
1000
$GEF_SNK_ADD=0.000000000000000E+00
1000
$GEF_FLIPX=1
1000
$GEF_FLIPY=1
1000
-GRPNAME0?
1000
-GRPNAME1?
1000
-BAML2
1000
$GEF_PROCALC=1
1002
}
1002
}
1002
{
1000
LST
1002
{
1002
{
1000
GROUP
1000
0401
1002
}
1002
{
1000
VIEW
1000
D
1002
}
1002
{
1000
SFILE
1000
$PV_GENSYSTEM"gef\val\di\0401\di1616_d.dxf"
1002
}
1002
{
1000
ST1
1000
$PV_GENSYSTEM"gef\val\di\0401\di1616.val"
1002
}
1002
{
1000
GENASSO
1000
 
1002
}
1002
}
1002
}
1002
{
1000
RET
1002
{
1002
{
1000
LOTI
1002
}
1002
{
1000
GD1
1000
6.647
1002
}
1002
{
1000
STDRT
1000
DIN 13 - M8
1002
}
1002
{
1000
DESCR
1000
Metrisches ISO-Gewinde
1002
}
1002
}
1002
}
1002
{
1000
SYSTEM
1040
1.0
1002
}
1002
{
1000
INFEL
1002
{
1002
}
1002
}
1001
GENIUS_GENOENT_13
1002
{
1000
MYREF
1005
B86
1002
}
1002
{
1000
GRP
1005
0
1002
}
1001
GENIUS_GENOLIS_13
1002
{
1000
ENT
1005
9FC
1002
}
  0
POINT
  5
B87
330
9B4
100
AcDbEntity
  8
0
 60
     1
100
AcDbPoint
 10
-184.340583
 20
-345.525396
 30
0.0
1001
GENIUS_GENBH_13
1002
{
1000
BGO
1005
B8B
1002
}
1002
{
1000
FGLEVEL
1040
3.000000009999999
1002
}
1002
{
1000
FLAGS
1070
    36
1002
}
1002
{
1000
OIUMAP
1000
OIU
1002
}
1002
{
1000
MODIFY
1070
     0
1002
}
1001
GENIUS_GENODEF_13
1002
{
1000
HIER
1070
     1
1002
}
1002
{
1000
MANEDIT
1070
     0
1002
}
1002
{
1000
NOSEL
1070
     1
1002
}
1002
{
1000
BEHIND
1070
     0
1002
}
1002
{
1000
REACTOR
1002
}
1001
GENIUS_GENOBJ-NBEHI-BHF_13
1002
{
1000
OWNER
1000
GENBEHI
1002
}
1001
GENIUS_GENOENT_13
1002
{
1000
MYREF
1005
B87
1002
}
1002
{
1000
GRP
1005
0
1002
}
1001
GENIUS_GENOLIS_13
1002
{
1000
ENT
1005
9FC
1002
}
  0
POINT
  5
B88
330
9B4
100
AcDbEntity
  8
0
 60
     1
100
AcDbPoint
 10
-184.340583
 20
-345.525396
 30
0.0
1001
GENIUS_GENBH_13
1002
{
1000
FGO
1005
B8A
1002
}
1001
GENIUS_GENODEF_13
1002
{
1000
HIER
1070
     1
1002
}
1002
{
1000
MANEDIT
1070
     0
1002
}
1002
{
1000
NOSEL
1070
     1
1002
}
1002
{
1000
BEHIND
1070
     0
1002
}
1002
{
1000
REACTOR
1002
}
1001
GENIUS_GENOBJ-NBEHI-BHB_13
1002
{
1000
OWNER
1000
GENBEHI
1002
}
1001
GENIUS_GENOENT_13
1002
{
1000
MYREF
1005
B88
1002
}
1002
{
1000
GRP
1005
0
1002
}
1001
GENIUS_GENOLIS_13
1002
{
1000
ENT
1005
9FB
1005
A1A
1002
}
  0
POINT
  5
B89
330
9B4
100
AcDbEntity
  8
0
 60
     1
100
AcDbPoint
 10
-184.340583
 20
-345.525396
 30
0.0
1001
GENIUS_GENODEF_13
1002
{
1000
HIER
1070
   200
1002
}
1002
{
1000
MANEDIT
1070
     0
1002
}
1002
{
1000
NOSEL
1070
     0
1002
}
1002
{
1000
BEHIND
1070
     0
1002
}
1002
{
1000
REACTOR
1002
}
1001
GENIUS_GENOBJ-F-PART_13
1002
{
1000
OWNER
1000
GEF
1002
}
1001
GENIUS_GEFSTDP_13
1002
{
1000
SUG
1000
M
1040
8.0
1002
}
1002
{
1000
DSC
1000
DSC
1002
{
1000
~DESCR
1000
 
1000
~STDRT
1002
}
1002
}
1002
{
1000
KEY
1000
THRT
1002
}
1002
{
1000
INS
1002
{
1040
160.3405829999999
1040
101.2662075
1040
0.0
1002
}
1002
}
1002
{
1000
ANG
1040
0.0
1002
}
1002
{
1000
VCC
1002
{
1000
$PRE=M
1000
$NND=8.000000000000000E+00
1000
-RBDESCR
1000
-RBSTDRT
1000
-RBGD1
1000
-RBLOTI
1000
-V$PV_GENSYSTEM"gef\val\di\0401\di1616_d.dxf"
1000
$VCC_TABLE=$PV_GENSYSTEM"gef\val\di\0401\di1616.val"
1000
$GEF_CDIST=3.000000000000000E+00
1000
$GEF_DRAG=1
1000
$GEF_STANG=2.100000000000000E+02
1000
$GEF_OANG=7.000000000000000E+01
1000
$GEVPROMPTX= Länge: 
1000
$GEF_SNK_ADD=0.000000000000000E+00
1000
$GEF_FLIPX=1
1000
$GEF_FLIPY=1
1000
-GRPNAME0?
1000
-GRPNAME1?
1000
-BAML2
1000
$GEF_PROCALC=1
1002
}
1002
}
1002
{
1000
LST
1002
{
1002
{
1000
GROUP
1000
0401
1002
}
1002
{
1000
VIEW
1000
D
1002
}
1002
{
1000
SFILE
1000
$PV_GENSYSTEM"gef\val\di\0401\di1616_d.dxf"
1002
}
1002
{
1000
ST1
1000
$PV_GENSYSTEM"gef\val\di\0401\di1616.val"
1002
}
1002
{
1000
GENASSO
1000
 
1002
}
1002
}
1002
}
1002
{
1000
RET
1002
{
1002
{
1000
LOTI
1002
}
1002
{
1000
GD1
1000
6.647
1002
}
1002
{
1000
STDRT
1000
DIN 13 - M8
1002
}
1002
{
1000
DESCR
1000
Metrisches ISO-Gewinde
1002
}
1002
}
1002
}
1002
{
1000
SYSTEM
1040
1.0
1002
}
1002
{
1000
INFEL
1002
{
1002
}
1002
}
1001
GENIUS_GENOENT_13
1002
{
1000
MYREF
1005
B89
1002
}
1002
{
1000
GRP
1005
0
1002
}
1001
GENIUS_GENOLIS_13
1002
{
1000
ENT
1005
9F7
1002
}
  0
POINT
  5
B8A
330
9B4
100
AcDbEntity
  8
0
 60
     1
100
AcDbPoint
 10
-184.340583
 20
-345.525396
 30
0.0
1001
GENIUS_GENBH_13
1002
{
1000
BGO
1005
B88
1002
}
1002
{
1000
FGLEVEL
1040
4.000000009999999
1002
}
1002
{
1000
FLAGS
1070
    36
1002
}
1002
{
1000
OIUMAP
1000
OIU
1002
}
1002
{
1000
MODIFY
1070
     0
1002
}
1001
GENIUS_GENODEF_13
1002
{
1000
HIER
1070
     1
1002
}
1002
{
1000
MANEDIT
1070
     0
1002
}
1002
{
1000
NOSEL
1070
     1
1002
}
1002
{
1000
BEHIND
1070
     0
1002
}
1002
{
1000
REACTOR
1002
}
1001
GENIUS_GENOBJ-NBEHI-BHF_13
1002
{
1000
OWNER
1000
GENBEHI
1002
}
1001
GENIUS_GENOENT_13
1002
{
1000
MYREF
1005
B8A
1002
}
1002
{
1000
GRP
1005
0
1002
}
1001
GENIUS_GENOLIS_13
1002
{
1000
ENT
1005
9F7
1002
}
  0
POINT
  5
B8B
330
9B4
100
AcDbEntity
  8
0
 60
     1
100
AcDbPoint
 10
-184.340583
 20
-345.525396
 30
0.0
1001
GENIUS_GENBH_13
1002
{
1000
FGO
1005
B87
1002
}
1001
GENIUS_GENODEF_13
1002
{
1000
HIER
1070
     1
1002
}
1002
{
1000
MANEDIT
1070
     0
1002
}
1002
{
1000
NOSEL
1070
     1
1002
}
1002
{
1000
BEHIND
1070
     0
1002
}
1002
{
1000
REACTOR
1002
}
1001
GENIUS_GENOBJ-NBEHI-BHB_13
1002
{
1000
OWNER
1000
GENBEHI
1002
}
1001
GENIUS_GENOENT_13
1002
{
1000
MYREF
1005
B8B
1002
}
1002
{
1000
GRP
1005
0
1002
}
1001
GENIUS_GENOLIS_13
1002
{
1000
ENT
1005
A24
1005
9F5
1002
}
  0
ENDBLK
  5
B8D
330
9B4
100
AcDbEntity
  8
MSR3-0
100
AcDbBlockEnd
  0
BLOCK
  5
D69
330
D68
100
AcDbEntity
  8
0
100
AcDbBlockBegin
  2
*U22
 70
     1
 10
0.0
 20
0.0
 30
0.0
  3
*U22
  1
*U
  0
LINE
  5
D6A
330
D68
100
AcDbEntity
  8
CENN
100
AcDbLine
 10
0.0
 20
-7.0
 30
0.0
 11
0.0
 21
7.0
 31
0.0
  0
CIRCLE
  5
D6B
330
D68
100
AcDbEntity
  8
BHMM
100
AcDbCircle
 10
0.0
 20
0.0
 30
0.0
 40
3.3235
  0
ARC
  5
D6C
330
D68
100
AcDbEntity
  8
THLI
100
AcDbCircle
 10
0.0
 20
0.0
 30
0.0
 40
4.0
100
AcDbArc
 50
280.0
 51
210.0
  0
LINE
  5
D6D
330
D68
100
AcDbEntity
  8
CENN
100
AcDbLine
 10
-7.0
 20
0.0
 30
0.0
 11
7.0
 21
0.0
 31
0.0
  0
ENDBLK
  5
D6E
330
D68
100
AcDbEntity
  8
0
100
AcDbBlockEnd
  0
BLOCK
  5
D70
330
D6F
100
AcDbEntity
  8
0
100
AcDbBlockBegin
  2
*U23
 70
     1
 10
0.0
 20
0.0
 30
0.0
  3
*U23
  1
*U
  0
INSERT
  5
D71
330
D6F
100
AcDbEntity
  8
GEV_FROZEN
100
AcDbBlockReference
  2
*U22
 10
0.0
 20
0.0
 30
0.0
 41
0.1
 42
0.1
 43
0.1
1001
GENBH
1002
{
1000
-NOBRK
1002
}
  0
LINE
  5
D72
330
D6F
100
AcDbEntity
  8
MSR3-7A
100
AcDbLine
 10
0.0
 20
-7.0
 30
0.0
 11
0.0
 21
7.0
 31
0.0
  0
CIRCLE
  5
D73
330
D6F
100
AcDbEntity
  8
MSR3-2
100
AcDbCircle
 10
0.0
 20
0.0
 30
0.0
 40
3.3235
  0
ARC
  5
D74
330
D6F
100
AcDbEntity
  8
MSR3-4
100
AcDbCircle
 10
0.0
 20
0.0
 30
0.0
 40
4.0
100
AcDbArc
 50
280.0
 51
210.0
  0
LINE
  5
D75
330
D6F
100
AcDbEntity
  8
MSR3-7A
100
AcDbLine
 10
-7.0
 20
0.0
 30
0.0
 11
7.0
 21
0.0
 31
0.0
  0
ENDBLK
  5
D76
330
D6F
100
AcDbEntity
  8
0
100
AcDbBlockEnd
  0
BLOCK
  5
D79
330
D78
100
AcDbEntity
  8
0
100
AcDbBlockBegin
  2
*U24
 70
     1
 10
0.0
 20
0.0
 30
0.0
  3
*U24
  1
*U
  0
LINE
  5
D7A
330
D78
100
AcDbEntity
  8
CENN
100
AcDbLine
 10
0.0
 20
-7.0
 30
0.0
 11
0.0
 21
7.0
 31
0.0
  0
CIRCLE
  5
D7B
330
D78
100
AcDbEntity
  8
BHMM
100
AcDbCircle
 10
0.0
 20
0.0
 30
0.0
 40
3.3235
  0
ARC
  5
D7C
330
D78
100
AcDbEntity
  8
THLI
100
AcDbCircle
 10
0.0
 20
0.0
 30
0.0
 40
4.0
100
AcDbArc
 50
280.0
 51
210.0
  0
LINE
  5
D7D
330
D78
100
AcDbEntity
  8
CENN
100
AcDbLine
 10
-7.0
 20
0.0
 30
0.0
 11
7.0
 21
0.0
 31
0.0
  0
ENDBLK
  5
D7E
330
D78
100
AcDbEntity
  8
0
100
AcDbBlockEnd
  0
BLOCK
  5
D80
330
D7F
100
AcDbEntity
  8
0
100
AcDbBlockBegin
  2
*U25
 70
     1
 10
0.0
 20
0.0
 30
0.0
  3
*U25
  1
*U
  0
INSERT
  5
D81
330
D7F
100
AcDbEntity
  8
GEV_FROZEN
100
AcDbBlockReference
  2
*U24
 10
0.0
 20
0.0
 30
0.0
 41
0.1
 42
0.1
 43
0.1
1001
GENBH
1002
{
1000
-NOBRK
1002
}
  0
LINE
  5
D82
330
D7F
100
AcDbEntity
  8
MSR3-7A
100
AcDbLine
 10
0.0
 20
-7.0
 30
0.0
 11
0.0
 21
7.0
 31
0.0
  0
CIRCLE
  5
D83
330
D7F
100
AcDbEntity
  8
MSR3-2
100
AcDbCircle
 10
0.0
 20
0.0
 30
0.0
 40
3.3235
  0
ARC
  5
D84
330
D7F
100
AcDbEntity
  8
MSR3-4
100
AcDbCircle
 10
0.0
 20
0.0
 30
0.0
 40
4.0
100
AcDbArc
 50
280.0
 51
210.0
  0
LINE
  5
D85
330
D7F
100
AcDbEntity
  8
MSR3-7A
100
AcDbLine
 10
-7.0
 20
0.0
 30
0.0
 11
7.0
 21
0.0
 31
0.0
  0
ENDBLK
  5
D86
330
D7F
100
AcDbEntity
  8
0
100
AcDbBlockEnd
  0
BLOCK
  5
D89
330
D88
100
AcDbEntity
  8
0
100
AcDbBlockBegin
  2
*U26
 70
     1
 10
0.0
 20
0.0
 30
0.0
  3
*U26
  1
*U
  0
LINE
  5
D8A
330
D88
100
AcDbEntity
  8
CENN
100
AcDbLine
 10
0.0
 20
-7.0
 30
0.0
 11
0.0
 21
7.0
 31
0.0
  0
CIRCLE
  5
D8B
330
D88
100
AcDbEntity
  8
BHMM
100
AcDbCircle
 10
0.0
 20
0.0
 30
0.0
 40
3.3235
  0
ARC
  5
D8C
330
D88
100
AcDbEntity
  8
THLI
100
AcDbCircle
 10
0.0
 20
0.0
 30
0.0
 40
4.0
100
AcDbArc
 50
280.0
 51
210.0
  0
LINE
  5
D8D
330
D88
100
AcDbEntity
  8
CENN
100
AcDbLine
 10
-7.0
 20
0.0
 30
0.0
 11
7.0
 21
0.0
 31
0.0
  0
ENDBLK
  5
D8E
330
D88
100
AcDbEntity
  8
0
100
AcDbBlockEnd
  0
BLOCK
  5
D90
330
D8F
100
AcDbEntity
  8
0
100
AcDbBlockBegin
  2
*U27
 70
     1
 10
0.0
 20
0.0
 30
0.0
  3
*U27
  1
*U
  0
INSERT
  5
D91
330
D8F
100
AcDbEntity
  8
GEV_FROZEN
100
AcDbBlockReference
  2
*U26
 10
0.0
 20
0.0
 30
0.0
 41
0.1
 42
0.1
 43
0.1
1001
GENBH
1002
{
1000
-NOBRK
1002
}
  0
LINE
  5
D92
330
D8F
100
AcDbEntity
  8
MSR3-7A
100
AcDbLine
 10
0.0
 20
-7.0
 30
0.0
 11
0.0
 21
7.0
 31
0.0
  0
CIRCLE
  5
D93
330
D8F
100
AcDbEntity
  8
MSR3-2
100
AcDbCircle
 10
0.0
 20
0.0
 30
0.0
 40
3.3235
  0
ARC
  5
D94
330
D8F
100
AcDbEntity
  8
MSR3-4
100
AcDbCircle
 10
0.0
 20
0.0
 30
0.0
 40
4.0
100
AcDbArc
 50
280.0
 51
210.0
  0
LINE
  5
D95
330
D8F
100
AcDbEntity
  8
MSR3-7A
100
AcDbLine
 10
-7.0
 20
0.0
 30
0.0
 11
7.0
 21
0.0
 31
0.0
  0
ENDBLK
  5
D96
330
D8F
100
AcDbEntity
  8
0
100
AcDbBlockEnd
  0
BLOCK
  5
D99
330
D98
100
AcDbEntity
  8
0
100
AcDbBlockBegin
  2
*U28
 70
     1
 10
0.0
 20
0.0
 30
0.0
  3
*U28
  1
*U
  0
LINE
  5
D9A
330
D98
100
AcDbEntity
  8
CENN
100
AcDbLine
 10
0.0
 20
-7.0
 30
0.0
 11
0.0
 21
7.0
 31
0.0
  0
CIRCLE
  5
D9B
330
D98
100
AcDbEntity
  8
BHMM
100
AcDbCircle
 10
0.0
 20
0.0
 30
0.0
 40
3.3235
  0
ARC
  5
D9C
330
D98
100
AcDbEntity
  8
THLI
100
AcDbCircle
 10
0.0
 20
0.0
 30
0.0
 40
4.0
100
AcDbArc
 50
280.0
 51
210.0
  0
LINE
  5
D9D
330
D98
100
AcDbEntity
  8
CENN
100
AcDbLine
 10
-7.0
 20
0.0
 30
0.0
 11
7.0
 21
0.0
 31
0.0
  0
ENDBLK
  5
D9E
330
D98
100
AcDbEntity
  8
0
100
AcDbBlockEnd
  0
BLOCK
  5
DA0
330
D9F
100
AcDbEntity
  8
0
100
AcDbBlockBegin
  2
*U29
 70
     1
 10
0.0
 20
0.0
 30
0.0
  3
*U29
  1
*U
  0
INSERT
  5
DA1
330
D9F
100
AcDbEntity
  8
GEV_FROZEN
100
AcDbBlockReference
  2
*U28
 10
0.0
 20
0.0
 30
0.0
 41
0.1
 42
0.1
 43
0.1
1001
GENBH
1002
{
1000
-NOBRK
1002
}
  0
LINE
  5
DA2
330
D9F
100
AcDbEntity
  8
MSR3-7A
100
AcDbLine
 10
0.0
 20
-7.0
 30
0.0
 11
0.0
 21
7.0
 31
0.0
  0
CIRCLE
  5
DA3
330
D9F
100
AcDbEntity
  8
MSR3-2
100
AcDbCircle
 10
0.0
 20
0.0
 30
0.0
 40
3.3235
  0
ARC
  5
DA4
330
D9F
100
AcDbEntity
  8
MSR3-4
100
AcDbCircle
 10
0.0
 20
0.0
 30
0.0
 40
4.0
100
AcDbArc
 50
280.0
 51
210.0
  0
LINE
  5
DA5
330
D9F
100
AcDbEntity
  8
MSR3-7A
100
AcDbLine
 10
-7.0
 20
0.0
 30
0.0
 11
7.0
 21
0.0
 31
0.0
  0
ENDBLK
  5
DA6
330
D9F
100
AcDbEntity
  8
0
100
AcDbBlockEnd
  0
BLOCK
  5
E90
330
E8E
100
AcDbEntity
  8
0
100
AcDbBlockBegin
  2
GENAXEH
 70
     0
 10
0.0
 20
0.0
 30
0.0
  3
GENAXEH
  1

  0
LINE
  5
E8F
330
E8E
100
AcDbEntity
  8
0
100
AcDbLine
 10
-1.0
 20
0.0
 30
0.0
 11
1.0
 21
0.0
 31
0.0
  0
ENDBLK
  5
E91
330
E8E
100
AcDbEntity
  8
0
100
AcDbBlockEnd
  0
ENDSEC
  0
SECTION
  2
ENTITIES
  0
XLINE
  5
40E
330
1A
100
AcDbEntity
  8
KLIN
100
AcDbXline
 10
153.340584
 20
58.76620650000001
 30
0.0
 11
1.0
 21
0.0
 31
0.0
  0
XLINE
  5
410
330
1A
100
AcDbEntity
  8
KLIN
100
AcDbXline
 10
153.340584
 20
49.7662065
 30
0.0
 11
1.0
 21
0.0
 31
0.0
  0
LINE
  5
B91
330
1A
100
AcDbEntity
  8
MSR3-0
100
AcDbLine
 10
234.840584
 20
264.5667243853068
 30
0.0
 11
234.840584
 21
199.0667238853067
 31
0.0
  0
LINE
  5
B92
330
1A
100
AcDbEntity
  8
MSR3-0
100
AcDbLine
 10
290.168541
 20
271.6200873853068
 30
0.0
 11
290.168541
 21
199.0667238853067
 31
0.0
  0
LINE
  5
B93
330
1A
100
AcDbEntity
  8
MSR3-7
100
AcDbLine
 10
320.16854175
 20
195.7759533853067
 30
0.0
 11
320.16854175
 21
302.2873893853068
 31
0.0
  0
LINE
  5
B94
330
1A
100
AcDbEntity
  8
MSR3-0
100
AcDbLine
 10
350.1685425000001
 20
271.6200873853068
 30
0.0
 11
350.1685425000001
 21
199.0667238853067
 31
0.0
  0
LINE
  5
B95
330
1A
100
AcDbEntity
  8
MSR3-0
100
AcDbLine
 10
240.340584
 20
264.5667243853068
 30
0.0
 11
240.340584
 21
226.0667238853067
 31
0.0
  0
LINE
  5
B96
330
1A
100
AcDbEntity
  8
MSR3-0
100
AcDbLine
 10
303.1685415
 20
237.2517708853068
 30
0.0
 11
294.668541
 21
242.1592473853067
 31
0.0
  0
LINE
  5
B97
330
1A
100
AcDbEntity
  8
MSR3-7
100
AcDbLine
 10
303.1685415
 20
258.3132978853068
 30
0.0
 11
303.1685415
 21
235.3937658853068
 31
0.0
  0
LINE
  5
B98
330
1A
100
AcDbEntity
  8
MSR3-0
100
AcDbLine
 10
311.668542
 20
242.1592473853067
 30
0.0
 11
303.1685415
 21
237.2517708853068
 31
0.0
  0
LINE
  5
B99
330
1A
100
AcDbEntity
  8
MSR3-0
100
AcDbLine
 10
328.6685415
 20
242.1592473853067
 30
0.0
 11
337.168542
 21
237.2517708853068
 31
0.0
  0
LINE
  5
B9A
330
1A
100
AcDbEntity
  8
MSR3-7
100
AcDbLine
 10
337.168542
 20
258.5117343853068
 30
0.0
 11
337.168542
 21
235.8898608853067
 31
0.0
  0
LINE
  5
B9B
330
1A
100
AcDbEntity
  8
MSR3-0
100
AcDbLine
 10
337.168542
 20
237.2517708853068
 30
0.0
 11
345.6685425000001
 21
242.1592473853067
 31
0.0
  0
LINE
  5
B9C
330
1A
100
AcDbEntity
  8
MSR3-0
100
AcDbLine
 10
125.3405835
 20
266.5667253853068
 30
0.0
 11
125.3405835
 21
199.0667238853067
 31
0.0
  0
LINE
  5
B9D
330
1A
100
AcDbEntity
  8
MSR3-7
100
AcDbLine
 10
184.340583
 20
195.7759533853067
 30
0.0
 11
184.340583
 21
302.2873893853068
 31
0.0
  0
ARC
  5
B9E
330
1A
100
AcDbEntity
  8
MSR3-4
100
AcDbCircle
 10
129.56478
 20
237.8221338853067
 30
0.0
 40
2.5
100
AcDbArc
 50
180.0
 51
90.0
  0
LINE
  5
B9F
330
1A
100
AcDbEntity
  8
MSR3-0
100
AcDbLine
 10
120.340584
 20
256.5569223853067
 30
0.0
 11
120.340584
 21
234.0873468853068
 31
0.0
  0
LINE
  5
BA0
330
1A
100
AcDbEntity
  8
MSR3-0
100
AcDbLine
 10
134.3405834999999
 20
266.5667253853068
 30
0.0
 11
134.3405834999999
 21
226.0667238853067
 31
0.0
  0
LINE
  5
BA1
330
1A
100
AcDbEntity
  8
MSR3-7
100
AcDbLine
 10
129.56478
 20
241.5607893853068
 30
0.0
 11
129.56478
 21
233.7393618853067
 31
0.0
  0
CIRCLE
  5
BA2
330
1A
100
AcDbEntity
  8
MSR3-0
100
AcDbCircle
 10
129.56478
 20
237.8221338853067
 30
0.0
 40
2.099999999999999
  0
TEXT
  5
BA3
330
1A
100
AcDbEntity
  8
MSR3-6
100
AcDbText
 10
131.4430503329684
 20
204.8304090344459
 30
0.0
 40
3.5
  1
MSR 3
100
AcDbText
  0
LINE
  5
BA4
330
1A
100
AcDbEntity
  8
MSR3-0
100
AcDbLine
 10
141.340584
 20
114.5288571581343
 30
0.0
 11
125.3405835
 21
114.5288571581343
 31
0.0
  0
LINE
  5
BA5
330
1A
100
AcDbEntity
  8
MSR3-7
100
AcDbLine
 10
99.69090149999999
 20
121.5288576581343
 30
0.0
 11
154.3405829999999
 21
121.5288576581343
 31
0.0
  0
LINE
  5
BA6
330
1A
100
AcDbEntity
  8
MSR3-0
100
AcDbLine
 10
141.340584
 20
174.5288586581343
 30
0.0
 11
125.3405835
 21
174.5288586581343
 31
0.0
  0
LINE
  5
BA7
330
1A
100
AcDbEntity
  8
MSR3-7
100
AcDbLine
 10
99.69090149999999
 20
167.5288581581343
 30
0.0
 11
154.3405829999999
 21
167.5288581581343
 31
0.0
  0
LINE
  5
BA8
330
1A
100
AcDbEntity
  8
MSR3-0
100
AcDbLine
 10
240.340584
 20
226.0667238853067
 30
0.0
 11
125.3405835
 21
226.0667238853067
 31
0.0
  0
LINE
  5
BA9
330
1A
100
AcDbEntity
  8
MSR3-0
100
AcDbLine
 10
125.3405835
 20
199.0667238853067
 30
0.0
 11
234.840584
 21
199.0667238853067
 31
0.0
  0
LINE
  5
BAA
330
1A
100
AcDbEntity
  8
MSR3-0
100
AcDbLine
 10
135.340584
 20
174.5288586581343
 30
0.0
 11
135.340584
 21
114.5288571581343
 31
0.0
  0
LINE
  5
BAB
330
1A
100
AcDbEntity
  8
MSR3-0
100
AcDbLine
 10
102.340584
 20
175.0288581581343
 30
0.0
 11
102.340584
 21
160.0288581581343
 31
0.0
  0
LINE
  5
BAC
330
1A
100
AcDbEntity
  8
MSR3-0
100
AcDbLine
 10
114.340584
 20
160.0288581581343
 30
0.0
 11
114.340584
 21
175.0288581581343
 31
0.0
  0
LINE
  5
BAD
330
1A
100
AcDbEntity
  8
MSR3-0
100
AcDbLine
 10
114.340584
 20
114.0288576581343
 30
0.0
 11
114.340584
 21
129.0288576581343
 31
0.0
  0
LINE
  5
BAE
330
1A
100
AcDbEntity
  8
MSR3-0
100
AcDbLine
 10
102.340584
 20
129.0288576581343
 30
0.0
 11
102.340584
 21
114.0288576581343
 31
0.0
  0
LINE
  5
BAF
330
1A
100
AcDbEntity
  8
MSR3-0
100
AcDbLine
 10
102.340584
 20
114.0288576581343
 30
0.0
 11
114.340584
 21
114.0288576581343
 31
0.0
  0
LINE
  5
BB0
330
1A
100
AcDbEntity
  8
MSR3-0
100
AcDbLine
 10
102.340584
 20
118.0288581581343
 30
0.0
 11
114.340584
 21
118.0288581581343
 31
0.0
  0
LINE
  5
BB1
330
1A
100
AcDbEntity
  8
MSR3-0
100
AcDbLine
 10
102.340584
 20
125.0288586581343
 30
0.0
 11
114.340584
 21
125.0288586581343
 31
0.0
  0
LINE
  5
BB2
330
1A
100
AcDbEntity
  8
MSR3-0
100
AcDbLine
 10
102.340584
 20
114.0288576581343
 30
0.0
 11
102.340584
 21
114.0288576581343
 31
0.0
  0
LINE
  5
BB3
330
1A
100
AcDbEntity
  8
MSR3-0
100
AcDbLine
 10
135.340584
 20
116.5288581581343
 30
0.0
 11
114.340584
 21
116.5288581581343
 31
0.0
  0
LINE
  5
BB4
330
1A
100
AcDbEntity
  8
MSR3-4
100
AcDbLine
 10
114.340584
 20
117.0288576581343
 30
0.0
 11
135.340584
 21
117.0288576581343
 31
0.0
  0
LINE
  5
BB5
330
1A
100
AcDbEntity
  8
MSR3-4
100
AcDbLine
 10
114.340584
 20
126.0288576581343
 30
0.0
 11
135.340584
 21
126.0288576581343
 31
0.0
  0
LINE
  5
BB6
330
1A
100
AcDbEntity
  8
MSR3-0
100
AcDbLine
 10
125.3405835
 20
114.5288571581343
 30
0.0
 11
125.3405835
 21
116.5288581581343
 31
0.0
  0
LINE
  5
BB7
330
1A
100
AcDbEntity
  8
MSR3-0
100
AcDbLine
 10
114.340584
 20
129.0288576581343
 30
0.0
 11
102.340584
 21
129.0288576581343
 31
0.0
  0
LINE
  5
BB8
330
1A
100
AcDbEntity
  8
MSR3-0
100
AcDbLine
 10
102.340584
 20
160.0288581581343
 30
0.0
 11
114.340584
 21
160.0288581581343
 31
0.0
  0
LINE
  5
BB9
330
1A
100
AcDbEntity
  8
MSR3-0
100
AcDbLine
 10
102.340584
 20
160.0288581581343
 30
0.0
 11
102.340584
 21
160.0288581581343
 31
0.0
  0
LINE
  5
BBA
330
1A
100
AcDbEntity
  8
MSR3-0
100
AcDbLine
 10
125.3405835
 20
126.5288586581343
 30
0.0
 11
125.3405835
 21
162.5288586581343
 31
0.0
  0
LINE
  5
BBB
330
1A
100
AcDbEntity
  8
MSR3-0
100
AcDbLine
 10
135.340584
 20
126.5288586581343
 30
0.0
 11
114.340584
 21
126.5288586581343
 31
0.0
  0
LINE
  5
BBC
330
1A
100
AcDbEntity
  8
MSR3-0
100
AcDbLine
 10
120.340584
 20
129.0288576581343
 30
0.0
 11
125.3405835
 21
129.0288576581343
 31
0.0
  0
LINE
  5
BBD
330
1A
100
AcDbEntity
  8
MSR3-0
100
AcDbLine
 10
120.340584
 20
129.0288576581343
 30
0.0
 11
125.3405835
 21
129.0288576581343
 31
0.0
  0
LINE
  5
BBE
330
1A
100
AcDbEntity
  8
MSR3-0
100
AcDbLine
 10
120.340584
 20
134.6033646581343
 30
0.0
 11
125.3405835
 21
134.6033646581343
 31
0.0
  0
LINE
  5
BBF
330
1A
100
AcDbEntity
  8
MSR3-0
100
AcDbLine
 10
125.3405835
 20
140.2636446581343
 30
0.0
 11
120.340584
 21
140.2636446581343
 31
0.0
  0
LINE
  5
BC0
330
1A
100
AcDbEntity
  8
MSR3-0
100
AcDbLine
 10
120.340584
 20
140.2636446581343
 30
0.0
 11
120.340584
 21
126.5288586581343
 31
0.0
  0
LINE
  5
BC1
330
1A
100
AcDbEntity
  8
MSR3-0
100
AcDbLine
 10
125.3405835
 20
148.7940696581343
 30
0.0
 11
120.340584
 21
148.7940696581343
 31
0.0
  0
LINE
  5
BC2
330
1A
100
AcDbEntity
  8
MSR3-0
100
AcDbLine
 10
120.340584
 20
154.4543511581343
 30
0.0
 11
125.3405835
 21
154.4543511581343
 31
0.0
  0
LINE
  5
BC3
330
1A
100
AcDbEntity
  8
MSR3-0
100
AcDbLine
 10
135.340584
 20
162.5288586581343
 30
0.0
 11
114.340584
 21
162.5288586581343
 31
0.0
  0
LINE
  5
BC4
330
1A
100
AcDbEntity
  8
MSR3-4
100
AcDbLine
 10
114.340584
 20
163.0288581581343
 30
0.0
 11
135.340584
 21
163.0288581581343
 31
0.0
  0
LINE
  5
BC5
330
1A
100
AcDbEntity
  8
MSR3-0
100
AcDbLine
 10
120.340584
 20
160.0288581581343
 30
0.0
 11
125.3405835
 21
160.0288581581343
 31
0.0
  0
LINE
  5
BC6
330
1A
100
AcDbEntity
  8
MSR3-0
100
AcDbLine
 10
120.340584
 20
160.0288581581343
 30
0.0
 11
125.3405835
 21
160.0288581581343
 31
0.0
  0
LINE
  5
BC7
330
1A
100
AcDbEntity
  8
MSR3-0
100
AcDbLine
 10
120.340584
 20
148.7940696581343
 30
0.0
 11
120.340584
 21
162.5288586581343
 31
0.0
  0
LINE
  5
BC8
330
1A
100
AcDbEntity
  8
MSR3-0
100
AcDbLine
 10
114.340584
 20
175.0288581581343
 30
0.0
 11
102.340584
 21
175.0288581581343
 31
0.0
  0
LINE
  5
BC9
330
1A
100
AcDbEntity
  8
MSR3-0
100
AcDbLine
 10
102.340584
 20
171.0288576581343
 30
0.0
 11
114.340584
 21
171.0288576581343
 31
0.0
  0
LINE
  5
BCA
330
1A
100
AcDbEntity
  8
MSR3-0
100
AcDbLine
 10
102.340584
 20
164.0288586581343
 30
0.0
 11
114.340584
 21
164.0288586581343
 31
0.0
  0
LINE
  5
BCB
330
1A
100
AcDbEntity
  8
MSR3-0
100
AcDbLine
 10
135.340584
 20
172.5288576581343
 30
0.0
 11
114.340584
 21
172.5288576581343
 31
0.0
  0
LINE
  5
BCC
330
1A
100
AcDbEntity
  8
MSR3-4
100
AcDbLine
 10
114.340584
 20
172.0288581581343
 30
0.0
 11
135.340584
 21
172.0288581581343
 31
0.0
  0
LINE
  5
BCD
330
1A
100
AcDbEntity
  8
MSR3-0
100
AcDbLine
 10
125.3405835
 20
172.5288576581343
 30
0.0
 11
125.3405835
 21
174.5288586581343
 31
0.0
  0
LINE
  5
BCE
330
1A
100
AcDbEntity
  8
MSR3-0
100
AcDbLine
 10
125.3405835
 20
234.0873468853068
 30
0.0
 11
120.340584
 21
234.0873468853068
 31
0.0
  0
LINE
  5
BCF
330
1A
100
AcDbEntity
  8
MSR3-2
100
AcDbLine
 10
214.3405845
 20
114.5288571581343
 30
0.0
 11
214.3405845
 21
174.5288586581343
 31
0.0
  0
LINE
  5
BD0
330
1A
100
AcDbEntity
  8
MSR3-0
100
AcDbLine
 10
234.840584
 20
114.5288571581343
 30
0.0
 11
234.840584
 21
174.5288586581343
 31
0.0
  0
LINE
  5
BD1
330
1A
100
AcDbEntity
  8
MSR3-7
100
AcDbLine
 10
208.3405845
 20
177.6622146581343
 30
0.0
 11
208.3405845
 21
159.4803966581343
 31
0.0
1001
GENIUS_GENOREF_13
1005
D67
  0
LINE
  5
BD2
330
1A
100
AcDbEntity
  8
MSR3-0
100
AcDbLine
 10
240.340584
 20
114.5288571581343
 30
0.0
 11
240.340584
 21
174.5288586581343
 31
0.0
  0
INSERT
  5
BD3
330
1A
100
AcDbEntity
  8
MSR3-2
100
AcDbBlockReference
  2
*U29
 10
160.3405829999999
 20
168.5288586581343
 30
0.0
1001
GENIUS_GEFPARTINS_13
1002
{
1011
160.3405829999999
1021
168.5288586581343
1031
0.0
1013
1.0
1023
0.0
1033
0.0
1002
}
1001
VCC
1002
{
1000
-ID12
1000
-IE4
1000
-IK12
1000
-V$PV_GENSYSTEM"GEF\VAL\DI\0401\DI1616_D.DXF"
1002
}
1001
GEVIT
1002
{
1000
-BEHI4.00000001
1000
-BVCCT0
1000
-GRP0?
1000
-BAML2
1000
-BASK1
1000
-NT0
1000
-DOC
1005
D99
1000
-MYREF
1005
BD3
1002
}
1001
GEVPT
1002
{
1000
-V$PV_GENSYSTEM"GEF\VAL\DI\0401\DI1616_D.DXF"
1000
-GPGEF_PROCALC=1
1000
-GPGEF_FLIPY=1
1000
-GPGEF_FLIPX=1
1000
-GPGEF_SNK_ADD=0
1000
-GPGEVPROMPTX=Länge:
1000
-GPGEF_OANG=70
1000
-GPGEF_STANG=210
1000
-GPGEF_DRAG=1
1000
-GPGEF_CDIST=3
1000
-GPVCC_TABLE=C:\GENIUS\gef\val\di\0401\di1616.val
1000
-GPNND=8
1000
-GPPRE=M
1002
}
1001
GENIUS_GENOREF_13
1005
D66
1005
D65
1001
GEVMK
1002
{
1000
-CO
1000
-MYREF
1005
BD3
1002
}
1001
GEVID886403242
1002
{
1002
}
  0
LINE
  5
BD4
330
1A
100
AcDbEntity
  8
MSR3-0
100
AcDbLine
 10
153.340584
 20
114.5288571581343
 30
0.0
 11
153.340584
 21
174.5288586581343
 31
0.0
  0
LINE
  5
BD5
330
1A
100
AcDbEntity
  8
MSR3-0
100
AcDbLine
 10
141.340584
 20
114.5288571581343
 30
0.0
 11
141.340584
 21
174.5288586581343
 31
0.0
  0
LINE
  5
BD6
330
1A
100
AcDbEntity
  8
MSR3-2
100
AcDbLine
 10
154.340583
 20
114.5288571581343
 30
0.0
 11
154.340583
 21
174.5288586581343
 31
0.0
  0
LINE
  5
BD7
330
1A
100
AcDbEntity
  8
MSR3-7
100
AcDbLine
 10
160.3405829999999
 20
177.6622146581343
 30
0.0
 11
160.3405829999999
 21
159.4803966581343
 31
0.0
1001
GENIUS_GENOREF_13
1005
D64
  0
INSERT
  5
BD8
330
1A
100
AcDbEntity
  8
MSR3-2
100
AcDbBlockReference
  2
*U27
 10
208.3405845
 20
168.5288586581343
 30
0.0
1001
GENIUS_GEFPARTINS_13
1002
{
1011
208.3405845
1021
168.5288586581343
1031
0.0
1013
1.0
1023
0.0
1033
0.0
1002
}
1001
VCC
1002
{
1000
-ID11
1000
-IE3
1000
-IK11
1000
-V$PV_GENSYSTEM"GEF\VAL\DI\0401\DI1616_D.DXF"
1002
}
1001
GEVIT
1002
{
1000
-BEHI3.00000001
1000
-BVCCT0
1000
-GRP0?
1000
-BAML2
1000
-BASK1
1000
-NT0
1000
-DOC
1005
D89
1000
-MYREF
1005
BD8
1002
}
1001
GEVPT
1002
{
1000
-V$PV_GENSYSTEM"GEF\VAL\DI\0401\DI1616_D.DXF"
1000
-GPGEF_PROCALC=1
1000
-GPGEF_FLIPY=1
1000
-GPGEF_FLIPX=1
1000
-GPGEF_SNK_ADD=0
1000
-GPGEVPROMPTX=Länge:
1000
-GPGEF_OANG=70
1000
-GPGEF_STANG=210
1000
-GPGEF_DRAG=1
1000
-GPGEF_CDIST=3
1000
-GPVCC_TABLE=C:\GENIUS\gef\val\di\0401\di1616.val
1000
-GPNND=8
1000
-GPPRE=M
1002
}
1001
GENIUS_GENOREF_13
1005
D63
1005
D62
1001
GEVMK
1002
{
1000
-CO
1000
-MYREF
1005
BD8
1002
}
1001
GEVID886403241
1002
{
1002
}
  0
LINE
  5
BD9
330
1A
100
AcDbEntity
  8
MSR3-2
100
AcDbLine
 10
214.3405845
 20
114.5288571581343
 30
0.0
 11
154.340583
 21
114.5288571581343
 31
0.0
  0
INSERT
  5
BDA
330
1A
100
AcDbEntity
  8
MSR3-2
100
AcDbBlockReference
  2
*U23
 10
160.3405829999999
 20
120.5288571581343
 30
0.0
1001
GENIUS_GEFPARTINS_13
1002
{
1011
160.3405829999999
1021
120.5288571581343
1031
0.0
1013
1.0
1023
0.0
1033
0.0
1002
}
1001
VCC
1002
{
1000
-ID9
1000
-IE1
1000
-IK9
1000
-V$PV_GENSYSTEM"GEF\VAL\DI\0401\DI1616_D.DXF"
1002
}
1001
GEVIT
1002
{
1000
-BEHI1.00000001
1000
-BVCCT0
1000
-GRP0?
1000
-BAML2
1000
-BASK1
1000
-NT0
1000
-DOC
1005
D69
1000
-MYREF
1005
BDA
1002
}
1001
GEVPT
1002
{
1000
-V$PV_GENSYSTEM"GEF\VAL\DI\0401\DI1616_D.DXF"
1000
-GPGEF_PROCALC=1
1000
-GPGEF_FLIPY=1
1000
-GPGEF_FLIPX=1
1000
-GPGEF_SNK_ADD=0
1000
-GPGEVPROMPTX=Länge:
1000
-GPGEF_OANG=70
1000
-GPGEF_STANG=210
1000
-GPGEF_DRAG=1
1000
-GPGEF_CDIST=3
1000
-GPVCC_TABLE=C:\GENIUS\gef\val\di\0401\di1616.val
1000
-GPNND=8
1000
-GPPRE=M
1002
}
1001
GENIUS_GENOREF_13
1005
D61
1005
D60
1001
GEVMK
1002
{
1000
-CO
1000
-MYREF
1005
BDA
1002
}
1001
GEVID886403239
1002
{
1002
}
  0
LINE
  5
BDB
330
1A
100
AcDbEntity
  8
MSR3-7
100
AcDbLine
 10
160.3405829999999
 20
129.6622146581343
 30
0.0
 11
160.3405829999999
 21
111.4803951581343
 31
0.0
1001
GENIUS_GENOREF_13
1005
D5F
  0
CIRCLE
  5
BDC
330
1A
100
AcDbEntity
  8
MSR3-2
100
AcDbCircle
 10
160.3405829999999
 20
120.5288571581343
 30
0.0
 40
4.9999995
  0
LINE
  5
BDD
330
1A
100
AcDbEntity
  8
MSR3-7
100
AcDbLine
 10
151.435608
 20
120.5288571581343
 30
0.0
 11
168.1628805
 21
120.5288571581343
 31
0.0
1001
GENIUS_GENOREF_13
1005
D5F
  0
LINE
  5
BDE
330
1A
100
AcDbEntity
  8
MSR3-0
100
AcDbLine
 10
154.3405829999999
 20
114.5288571581343
 30
0.0
 11
141.340584
 21
114.5288571581343
 31
0.0
  0
LINE
  5
BDF
330
1A
100
AcDbEntity
  8
MSR3-0
100
AcDbLine
 10
154.340583
 20
116.5288581581343
 30
0.0
 11
153.340584
 21
116.5288581581343
 31
0.0
  0
LINE
  5
BE0
330
1A
100
AcDbEntity
  8
MSR3-4
100
AcDbLine
 10
154.340583
 20
117.0288576581343
 30
0.0
 11
153.340584
 21
117.0288576581343
 31
0.0
  0
LINE
  5
BE1
330
1A
100
AcDbEntity
  8
MSR3-4
100
AcDbLine
 10
154.340583
 20
126.0288576581343
 30
0.0
 11
153.340584
 21
126.0288576581343
 31
0.0
  0
LINE
  5
BE2
330
1A
100
AcDbEntity
  8
MSR3-0
100
AcDbLine
 10
154.340583
 20
126.5288571581343
 30
0.0
 11
153.340584
 21
126.5288571581343
 31
0.0
  0
LINE
  5
BE3
330
1A
100
AcDbEntity
  8
MSR3-0
100
AcDbLine
 10
141.340584
 20
161.5288581581343
 30
0.0
 11
141.340584
 21
159.5083551581343
 31
0.0
  0
LINE
  5
BE4
330
1A
100
AcDbEntity
  8
MSR3-0
100
AcDbLine
 10
154.340583
 20
162.5288586581343
 30
0.0
 11
153.340584
 21
162.5288586581343
 31
0.0
  0
LINE
  5
BE5
330
1A
100
AcDbEntity
  8
MSR3-4
100
AcDbLine
 10
154.340583
 20
163.0288581581343
 30
0.0
 11
153.340584
 21
163.0288581581343
 31
0.0
  0
CIRCLE
  5
BE6
330
1A
100
AcDbEntity
  8
MSR3-2
100
AcDbCircle
 10
184.340583
 20
144.5288586581343
 30
0.0
 40
4.5
  0
LINE
  5
BE7
330
1A
100
AcDbEntity
  8
MSR3-7
100
AcDbLine
 10
184.340583
 20
151.2483576581343
 30
0.0
 11
184.340583
 21
137.7987051581343
 31
0.0
  0
LINE
  5
BE8
330
1A
100
AcDbEntity
  8
MSR3-7
100
AcDbLine
 10
177.3325695
 20
144.5288586581343
 30
0.0
 11
191.0468055
 21
144.5288586581343
 31
0.0
  0
LINE
  5
BE9
330
1A
100
AcDbEntity
  8
MSR3-7
100
AcDbLine
 10
208.3405845
 20
129.6622146581343
 30
0.0
 11
208.3405845
 21
111.4803951581343
 31
0.0
1001
GENIUS_GENOREF_13
1005
D5E
  0
INSERT
  5
BEA
330
1A
100
AcDbEntity
  8
MSR3-2
100
AcDbBlockReference
  2
*U25
 10
208.3405845
 20
120.5288571581343
 30
0.0
1001
GENIUS_GEFPARTINS_13
1002
{
1011
208.3405845
1021
120.5288571581343
1031
0.0
1013
1.0
1023
0.0
1033
0.0
1002
}
1001
VCC
1002
{
1000
-ID10
1000
-IE2
1000
-IK10
1000
-V$PV_GENSYSTEM"GEF\VAL\DI\0401\DI1616_D.DXF"
1002
}
1001
GEVIT
1002
{
1000
-BEHI2.00000001
1000
-BVCCT0
1000
-GRP0?
1000
-BAML2
1000
-BASK1
1000
-NT0
1000
-DOC
1005
D79
1000
-MYREF
1005
BEA
1002
}
1001
GEVPT
1002
{
1000
-V$PV_GENSYSTEM"GEF\VAL\DI\0401\DI1616_D.DXF"
1000
-GPGEF_PROCALC=1
1000
-GPGEF_FLIPY=1
1000
-GPGEF_FLIPX=1
1000
-GPGEF_SNK_ADD=0
1000
-GPGEVPROMPTX=Länge:
1000
-GPGEF_OANG=70
1000
-GPGEF_STANG=210
1000
-GPGEF_DRAG=1
1000
-GPGEF_CDIST=3
1000
-GPVCC_TABLE=C:\GENIUS\gef\val\di\0401\di1616.val
1000
-GPNND=8
1000
-GPPRE=M
1002
}
1001
GENIUS_GENOREF_13
1005
D5D
1005
D5C
1001
GEVMK
1002
{
1000
-CO
1000
-MYREF
1005
BEA
1002
}
1001
GEVID886403240
1002
{
1002
}
  0
TEXT
  5
BEB
330
1A
100
AcDbEntity
  8
MSR3-6
100
AcDbText
 10
218.8249036750042
 20
120.2925423072735
 30
0.0
 40
3.5
  1
MSR 3
100
AcDbText
  0
LINE
  5
BEC
330
1A
100
AcDbEntity
  8
MSR3-0
100
AcDbLine
 10
240.340584
 20
114.5288571581343
 30
0.0
 11
214.3405845
 21
114.5288571581343
 31
0.0
  0
LINE
  5
BED
330
1A
100
AcDbEntity
  8
MSR3-7
100
AcDbLine
 10
199.435608
 20
120.5288571581343
 30
0.0
 11
216.1628805
 21
120.5288571581343
 31
0.0
1001
GENIUS_GENOREF_13
1005
D5E
  0
CIRCLE
  5
BEE
330
1A
100
AcDbEntity
  8
MSR3-2
100
AcDbCircle
 10
208.3405845
 20
120.5288571581343
 30
0.0
 40
4.9999995
  0
LINE
  5
BEF
330
1A
100
AcDbEntity
  8
MSR3-2
100
AcDbLine
 10
154.3405829999999
 20
174.5288586581343
 30
0.0
 11
214.3405845
 21
174.5288586581343
 31
0.0
  0
LINE
  5
BF0
330
1A
100
AcDbEntity
  8
MSR3-7
100
AcDbLine
 10
164.3405835
 20
227.8962528853067
 30
0.0
 11
164.3405835
 21
196.5759543853067
 31
0.0
  0
LINE
  5
BF1
330
1A
100
AcDbEntity
  8
MSR3-3
100
AcDbLine
 10
166.840584
 20
226.0667238853067
 30
0.0
 11
166.840584
 21
199.0667238853067
 31
0.0
  0
LINE
  5
BF2
330
1A
100
AcDbEntity
  8
MSR3-3
100
AcDbLine
 10
167.3405835
 20
226.0667238853067
 30
0.0
 11
167.3405835
 21
199.0667238853067
 31
0.0
  0
LINE
  5
BF3
330
1A
100
AcDbEntity
  8
MSR3-3
100
AcDbLine
 10
161.3405835
 20
226.0667238853067
 30
0.0
 11
161.3405835
 21
199.0667238853067
 31
0.0
  0
LINE
  5
BF4
330
1A
100
AcDbEntity
  8
MSR3-3
100
AcDbLine
 10
161.840583
 20
226.0667238853067
 30
0.0
 11
161.840583
 21
199.0667238853067
 31
0.0
  0
CIRCLE
  5
BF5
330
1A
100
AcDbEntity
  8
MSR3-2
100
AcDbCircle
 10
160.3405829999999
 20
168.5288586581343
 30
0.0
 40
4.9999995
  0
LINE
  5
BF6
330
1A
100
AcDbEntity
  8
MSR3-7
100
AcDbLine
 10
151.435608
 20
168.5288586581343
 30
0.0
 11
168.1628805
 21
168.5288586581343
 31
0.0
1001
GENIUS_GENOREF_13
1005
D64
  0
LINE
  5
BF7
330
1A
100
AcDbEntity
  8
MSR3-0
100
AcDbLine
 10
154.3405829999999
 20
174.5288586581343
 30
0.0
 11
141.340584
 21
174.5288586581343
 31
0.0
  0
LINE
  5
BF8
330
1A
100
AcDbEntity
  8
MSR3-4
100
AcDbLine
 10
154.340583
 20
172.0288581581343
 30
0.0
 11
153.340584
 21
172.0288581581343
 31
0.0
  0
LINE
  5
BF9
330
1A
100
AcDbEntity
  8
MSR3-0
100
AcDbLine
 10
154.340583
 20
172.5288576581343
 30
0.0
 11
153.340584
 21
172.5288576581343
 31
0.0
  0
LINE
  5
BFA
330
1A
100
AcDbEntity
  8
MSR3-3
100
AcDbLine
 10
206.8405845
 20
226.0667238853067
 30
0.0
 11
206.8405845
 21
199.0667238853067
 31
0.0
  0
LINE
  5
BFB
330
1A
100
AcDbEntity
  8
MSR3-3
100
AcDbLine
 10
207.340584
 20
226.0667238853067
 30
0.0
 11
207.340584
 21
199.0667238853067
 31
0.0
  0
LINE
  5
BFC
330
1A
100
AcDbEntity
  8
MSR3-7
100
AcDbLine
 10
204.340584
 20
228.1962528853068
 30
0.0
 11
204.340584
 21
196.7759538853067
 31
0.0
  0
LINE
  5
BFD
330
1A
100
AcDbEntity
  8
MSR3-3
100
AcDbLine
 10
201.340584
 20
226.0667238853067
 30
0.0
 11
201.340584
 21
199.0667238853067
 31
0.0
  0
LINE
  5
BFE
330
1A
100
AcDbEntity
  8
MSR3-3
100
AcDbLine
 10
201.8405835
 20
226.0667238853067
 30
0.0
 11
201.8405835
 21
199.0667238853067
 31
0.0
  0
LINE
  5
BFF
330
1A
100
AcDbEntity
  8
MSR3-0
100
AcDbLine
 10
240.340584
 20
174.5288586581343
 30
0.0
 11
214.3405845
 21
174.5288586581343
 31
0.0
  0
LINE
  5
C00
330
1A
100
AcDbEntity
  8
MSR3-7
100
AcDbLine
 10
199.435608
 20
168.5288586581343
 30
0.0
 11
216.1628805
 21
168.5288586581343
 31
0.0
1001
GENIUS_GENOREF_13
1005
D67
  0
CIRCLE
  5
C01
330
1A
100
AcDbEntity
  8
MSR3-2
100
AcDbCircle
 10
208.3405845
 20
168.5288586581343
 30
0.0
 40
4.9999995
  0
TEXT
  5
C02
330
1A
100
AcDbEntity
  8
MSR3-6
100
AcDbText
 10
296.2710078329685
 20
204.8304090344459
 30
0.0
 40
3.5
  1
MSR 3
100
AcDbText
  0
LINE
  5
C03
330
1A
100
AcDbEntity
  8
MSR3-0
100
AcDbLine
 10
290.168541
 20
199.0667238853067
 30
0.0
 11
350.1685425000001
 21
199.0667238853067
 31
0.0
  0
LINE
  5
C04
330
1A
100
AcDbEntity
  8
MSR3-0
100
AcDbLine
 10
290.168541
 20
226.0667238853067
 30
0.0
 11
350.1685425000001
 21
226.0667238853067
 31
0.0
  0
CIRCLE
  5
C05
330
1A
100
AcDbEntity
  8
MSR3-0
100
AcDbCircle
 10
294.668541
 20
230.5667238853068
 30
0.0
 40
3.75
  0
LINE
  5
C06
330
1A
100
AcDbEntity
  8
MSR3-7
100
AcDbLine
 10
290.168541
 20
230.5667238853068
 30
0.0
 11
299.557281
 21
230.5667238853068
 31
0.0
  0
LINE
  5
C07
330
1A
100
AcDbEntity
  8
MSR3-0
100
AcDbLine
 10
292.359141
 20
230.5667238853068
 30
0.0
 11
293.513841
 21
232.5667248853068
 31
0.0
  0
LINE
  5
C08
330
1A
100
AcDbEntity
  8
MSR3-0
100
AcDbLine
 10
293.513841
 20
228.5667243853068
 30
0.0
 11
292.359141
 21
230.5667238853068
 31
0.0
  0
LINE
  5
C09
330
1A
100
AcDbEntity
  8
MSR3-3
100
AcDbLine
 10
295.0033170000001
 20
235.3221348853068
 30
0.0
 11
290.168541
 21
235.3221348853068
 31
0.0
  0
LINE
  5
C0A
330
1A
100
AcDbEntity
  8
MSR3-3
100
AcDbLine
 10
295.0033170000001
 20
235.7221338853068
 30
0.0
 11
290.168541
 21
235.7221338853068
 31
0.0
  0
LINE
  5
C0B
330
1A
100
AcDbEntity
  8
MSR3-7
100
AcDbLine
 10
294.668541
 20
235.3221348853068
 30
0.0
 11
294.668541
 21
226.0667238853067
 31
0.0
  0
LINE
  5
C0C
330
1A
100
AcDbEntity
  8
MSR3-0
100
AcDbLine
 10
295.823241
 20
228.5667243853068
 30
0.0
 11
293.513841
 21
228.5667243853068
 31
0.0
  0
LINE
  5
C0D
330
1A
100
AcDbEntity
  8
MSR3-0
100
AcDbLine
 10
293.513841
 20
232.5667248853068
 30
0.0
 11
295.823241
 21
232.5667248853068
 31
0.0
  0
LINE
  5
C0E
330
1A
100
AcDbEntity
  8
MSR3-0
100
AcDbLine
 10
295.823241
 20
232.5667248853068
 30
0.0
 11
296.9779425
 21
230.5667238853068
 31
0.0
  0
LINE
  5
C0F
330
1A
100
AcDbEntity
  8
MSR3-0
100
AcDbLine
 10
296.9779425
 20
230.5667238853068
 30
0.0
 11
295.823241
 21
228.5667243853068
 31
0.0
  0
LINE
  5
C10
330
1A
100
AcDbEntity
  8
MSR3-0
100
AcDbLine
 10
295.823241
 20
232.5667248853068
 30
0.0
 11
295.823241
 21
232.5667248853068
 31
0.0
  0
LINE
  5
C11
330
1A
100
AcDbEntity
  8
MSR3-0
100
AcDbLine
 10
295.823241
 20
232.5667248853068
 30
0.0
 11
295.823241
 21
232.5667248853068
 31
0.0
  0
CIRCLE
  5
C12
330
1A
100
AcDbEntity
  8
MSR3-0
100
AcDbCircle
 10
320.1685425000001
 20
232.0667238853068
 30
0.0
 40
2.099999999999999
  0
ARC
  5
C13
330
1A
100
AcDbEntity
  8
MSR3-4
100
AcDbCircle
 10
320.1685425000001
 20
232.0667238853068
 30
0.0
 40
2.5
100
AcDbArc
 50
180.0
 51
90.0
  0
LINE
  5
C14
330
1A
100
AcDbEntity
  8
MSR3-7
100
AcDbLine
 10
316.1319345
 20
232.0667238853068
 30
0.0
 11
324.346221
 21
232.0667238853068
 31
0.0
  0
LINE
  5
C15
330
1A
100
AcDbEntity
  8
MSR3-7
100
AcDbLine
 10
320.1685425000001
 20
235.8053793853067
 30
0.0
 11
320.1685425000001
 21
227.9839518853068
 31
0.0
  0
LINE
  5
C16
330
1A
100
AcDbEntity
  8
MSR3-7
100
AcDbLine
 10
340.6338435
 20
230.5667238853068
 30
0.0
 11
350.1685425000001
 21
230.5667238853068
 31
0.0
  0
LINE
  5
C17
330
1A
100
AcDbEntity
  8
MSR3-3
100
AcDbLine
 10
345.3337665
 20
235.7221338853068
 30
0.0
 11
350.1685425000001
 21
235.7221338853068
 31
0.0
  0
LINE
  5
C18
330
1A
100
AcDbEntity
  8
MSR3-3
100
AcDbLine
 10
345.3337665
 20
235.3221348853068
 30
0.0
 11
350.1685425000001
 21
235.3221348853068
 31
0.0
  0
LINE
  5
C19
330
1A
100
AcDbEntity
  8
MSR3-7
100
AcDbLine
 10
345.6685425000001
 20
235.3221348853068
 30
0.0
 11
345.6685425000001
 21
226.0667238853067
 31
0.0
  0
CIRCLE
  5
C1A
330
1A
100
AcDbEntity
  8
MSR3-0
100
AcDbCircle
 10
345.6685425000001
 20
230.5667238853068
 30
0.0
 40
3.75
  0
LINE
  5
C1B
330
1A
100
AcDbEntity
  8
MSR3-0
100
AcDbLine
 10
346.8232425
 20
232.5667248853068
 30
0.0
 11
347.9779425
 21
230.5667238853068
 31
0.0
  0
LINE
  5
C1C
330
1A
100
AcDbEntity
  8
MSR3-0
100
AcDbLine
 10
347.9779425
 20
230.5667238853068
 30
0.0
 11
346.8232425
 21
228.5667243853068
 31
0.0
  0
LINE
  5
C1D
330
1A
100
AcDbEntity
  8
MSR3-0
100
AcDbLine
 10
346.8232425
 20
232.5667248853068
 30
0.0
 11
346.8232425
 21
232.5667248853068
 31
0.0
  0
LINE
  5
C1E
330
1A
100
AcDbEntity
  8
MSR3-0
100
AcDbLine
 10
346.8232425
 20
232.5667248853068
 30
0.0
 11
346.8232425
 21
232.5667248853068
 31
0.0
  0
LINE
  5
C1F
330
1A
100
AcDbEntity
  8
MSR3-0
100
AcDbLine
 10
343.359141
 20
230.5667238853068
 30
0.0
 11
344.513841
 21
232.5667248853068
 31
0.0
  0
LINE
  5
C20
330
1A
100
AcDbEntity
  8
MSR3-0
100
AcDbLine
 10
344.513841
 20
228.5667243853068
 30
0.0
 11
343.359141
 21
230.5667238853068
 31
0.0
  0
LINE
  5
C21
330
1A
100
AcDbEntity
  8
MSR3-0
100
AcDbLine
 10
346.8232425
 20
228.5667243853068
 30
0.0
 11
344.513841
 21
228.5667243853068
 31
0.0
  0
LINE
  5
C22
330
1A
100
AcDbEntity
  8
MSR3-0
100
AcDbLine
 10
344.513841
 20
232.5667248853068
 30
0.0
 11
346.8232425
 21
232.5667248853068
 31
0.0
  0
TEXT
  5
C23
330
1A
100
AcDbEntity
  8
MSR3-6
100
AcDbText
 10
131.4430503329685
 20
321.2890811491392
 30
0.0
 40
3.5
  1
MSR 3
100
AcDbText
  0
LINE
  5
C24
330
1A
100
AcDbEntity
  8
MSR3-7
100
AcDbLine
 10
114.340584
 20
276.5667243853068
 30
0.0
 11
189.7213694999999
 21
276.5667243853068
 31
0.0
  0
LINE
  5
C25
330
1A
100
AcDbEntity
  8
MSR3-0
100
AcDbLine
 10
140.9405835
 20
266.5667253853068
 30
0.0
 11
125.3405835
 21
266.5667253853068
 31
0.0
  0
LINE
  5
C26
330
1A
100
AcDbEntity
  8
MSR3-0
100
AcDbLine
 10
135.340584
 20
267.5667243853068
 30
0.0
 11
141.340584
 21
267.5667243853068
 31
0.0
  0
LINE
  5
C27
330
1A
100
AcDbEntity
  8
MSR3-0
100
AcDbLine
 10
141.340584
 20
282.5667243853068
 30
0.0
 11
135.340584
 21
282.5667243853068
 31
0.0
  0
LINE
  5
C28
330
1A
100
AcDbEntity
  8
MSR3-0
100
AcDbLine
 10
240.340584
 20
375.525396
 30
0.0
 11
125.3405835
 21
375.525396
 31
0.0
  0
LINE
  5
C29
330
1A
100
AcDbEntity
  8
MSR3-0
100
AcDbLine
 10
240.340584
 20
315.525396
 30
0.0
 11
125.3405835
 21
315.525396
 31
0.0
  0
LINE
  5
C2B
330
1A
100
AcDbEntity
  8
MSR3-4A
100
AcDbLine
 10
58.34058400000003
 20
238.8221343853067
 30
0.0
 11
120.340584
 21
238.8221343853067
 31
0.0
  0
LINE
  5
C2C
330
1A
100
AcDbEntity
  8
MSR3-4A
100
AcDbLine
 10
58.34058400000003
 20
237.8221338853067
 30
0.0
 11
120.340584
 21
237.8221338853067
 31
0.0
  0
LINE
  5
C2D
330
1A
100
AcDbEntity
  8
MSR3-4A
100
AcDbLine
 10
120.340584
 20
252.8221338853067
 30
0.0
 11
58.34058400000003
 21
252.8221338853067
 31
0.0
  0
LINE
  5
C2E
330
1A
100
AcDbEntity
  8
MSR3-4A
100
AcDbLine
 10
120.340584
 20
251.8221348853067
 30
0.0
 11
58.34058400000003
 21
251.8221348853067
 31
0.0
  0
LINE
  5
C2F
330
1A
100
AcDbEntity
  8
MSR3-4A
100
AcDbLine
 10
48.34058349999998
 20
238.8221343853067
 30
0.0
 11
58.34058400000003
 21
238.8221343853067
 31
0.0
  0
LINE
  5
C30
330
1A
100
AcDbEntity
  8
MSR3-4A
100
AcDbLine
 10
58.34058400000003
 20
251.8221348853067
 30
0.0
 11
48.34058349999998
 21
251.8221348853067
 31
0.0
  0
LINE
  5
C31
330
1A
100
AcDbEntity
  8
MSR3-4A
100
AcDbLine
 10
48.34058349999998
 20
251.8221348853067
 30
0.0
 11
48.34058349999998
 21
238.8221343853067
 31
0.0
  0
LINE
  5
C32
330
1A
100
AcDbEntity
  8
MSR3-4A
100
AcDbLine
 10
58.34058400000003
 20
252.8221338853067
 30
0.0
 11
58.34058400000003
 21
237.8221338853067
 31
0.0
  0
LINE
  5
C33
330
1A
100
AcDbEntity
  8
MSR3-0
100
AcDbLine
 10
114.340584
 20
270.0667248853067
 30
0.0
 11
114.340584
 21
283.0667253853068
 31
0.0
  0
LINE
  5
C34
330
1A
100
AcDbEntity
  8
MSR3-0
100
AcDbLine
 10
135.340584
 20
282.5667243853068
 30
0.0
 11
135.340584
 21
267.5667243853068
 31
0.0
  0
LINE
  5
C35
330
1A
100
AcDbEntity
  8
MSR3-0
100
AcDbLine
 10
102.340584
 20
283.0667253853068
 30
0.0
 11
102.340584
 21
270.0667248853067
 31
0.0
  0
LINE
  5
C36
330
1A
100
AcDbEntity
  8
MSR3-0
100
AcDbLine
 10
102.340584
 20
270.0667248853067
 30
0.0
 11
114.340584
 21
270.0667248853067
 31
0.0
  0
LINE
  5
C37
330
1A
100
AcDbEntity
  8
MSR3-0
100
AcDbLine
 10
102.340584
 20
270.0667248853067
 30
0.0
 11
102.340584
 21
270.0667248853067
 31
0.0
  0
LINE
  5
C38
330
1A
100
AcDbEntity
  8
MSR3-0
100
AcDbLine
 10
120.340584
 20
239.7476268853068
 30
0.0
 11
125.3405835
 21
239.7476268853068
 31
0.0
  0
LINE
  5
C39
330
1A
100
AcDbEntity
  8
MSR3-0
100
AcDbLine
 10
120.340584
 20
245.3221338853067
 30
0.0
 11
125.3405835
 21
245.3221338853067
 31
0.0
  0
LINE
  5
C3A
330
1A
100
AcDbEntity
  8
MSR3-0
100
AcDbLine
 10
120.340584
 20
245.3221338853067
 30
0.0
 11
125.3405835
 21
245.3221338853067
 31
0.0
  0
LINE
  5
C3B
330
1A
100
AcDbEntity
  8
MSR3-0
100
AcDbLine
 10
120.340584
 20
250.8966408853068
 30
0.0
 11
125.3405835
 21
250.8966408853068
 31
0.0
  0
LINE
  5
C3C
330
1A
100
AcDbEntity
  8
MSR3-7
100
AcDbLine
 10
125.528172
 20
237.8221338853067
 30
0.0
 11
133.7424585
 21
237.8221338853067
 31
0.0
  0
LINE
  5
C3D
330
1A
100
AcDbEntity
  8
MSR3-0
100
AcDbLine
 10
135.340584
 20
271.5667248853067
 30
0.0
 11
114.340584
 21
271.5667248853067
 31
0.0
  0
LINE
  5
C3E
330
1A
100
AcDbEntity
  8
MSR3-4
100
AcDbLine
 10
114.340584
 20
272.0667243853068
 30
0.0
 11
135.340584
 21
272.0667243853068
 31
0.0
  0
LINE
  5
C3F
330
1A
100
AcDbEntity
  8
MSR3-0
100
AcDbLine
 10
125.3405835
 20
256.5569223853067
 30
0.0
 11
120.340584
 21
256.5569223853067
 31
0.0
  0
LINE
  5
C40
330
1A
100
AcDbEntity
  8
MSR3-0
100
AcDbLine
 10
102.340584
 20
276.5667243853068
 30
0.0
 11
114.340584
 21
276.5667243853068
 31
0.0
  0
LINE
  5
C41
330
1A
100
AcDbEntity
  8
MSR3-0
100
AcDbLine
 10
114.340584
 20
283.0667253853068
 30
0.0
 11
102.340584
 21
283.0667253853068
 31
0.0
  0
LINE
  5
C42
330
1A
100
AcDbEntity
  8
MSR3-7
100
AcDbLine
 10
99.69090149999999
 20
276.5667243853068
 30
0.0
 11
102.340584
 21
276.5667243853068
 31
0.0
  0
LINE
  5
C43
330
1A
100
AcDbEntity
  8
MSR3-0
100
AcDbLine
 10
135.340584
 20
281.5667253853068
 30
0.0
 11
114.340584
 21
281.5667253853068
 31
0.0
  0
LINE
  5
C44
330
1A
100
AcDbEntity
  8
MSR3-4
100
AcDbLine
 10
114.340584
 20
281.0667243853067
 30
0.0
 11
135.340584
 21
281.0667243853067
 31
0.0
  0
LINE
  5
C45
330
1A
100
AcDbEntity
  8
MSR3-0
100
AcDbLine
 10
125.3405835
 20
375.525396
 30
0.0
 11
125.3405835
 21
315.525396
 31
0.0
  0
LINE
  5
C46
330
1A
100
AcDbEntity
  8
MSR3-7
100
AcDbLine
 10
99.69090149999999
 20
322.5253965
 30
0.0
 11
126.4127189999999
 21
322.5253965
 31
0.0
  0
LINE
  5
C47
330
1A
100
AcDbEntity
  8
MSR3-0
100
AcDbLine
 10
114.340584
 20
330.0253965
 30
0.0
 11
102.340584
 21
330.0253965
 31
0.0
  0
LINE
  5
C48
330
1A
100
AcDbEntity
  8
MSR3-0
100
AcDbLine
 10
102.340584
 20
315.0253965
 30
0.0
 11
114.340584
 21
315.0253965
 31
0.0
  0
LINE
  5
C49
330
1A
100
AcDbEntity
  8
MSR3-0
100
AcDbLine
 10
102.340584
 20
319.0253955000001
 30
0.0
 11
114.340584
 21
319.0253955000001
 31
0.0
  0
LINE
  5
C4A
330
1A
100
AcDbEntity
  8
MSR3-0
100
AcDbLine
 10
102.340584
 20
326.025396
 30
0.0
 11
114.340584
 21
326.025396
 31
0.0
  0
LINE
  5
C4B
330
1A
100
AcDbEntity
  8
MSR3-0
100
AcDbLine
 10
102.340584
 20
330.0253965
 30
0.0
 11
102.340584
 21
315.0253965
 31
0.0
  0
LINE
  5
C4C
330
1A
100
AcDbEntity
  8
MSR3-0
100
AcDbLine
 10
102.340584
 20
315.0253965
 30
0.0
 11
102.340584
 21
315.0253965
 31
0.0
  0
LINE
  5
C4D
330
1A
100
AcDbEntity
  8
MSR3-0
100
AcDbLine
 10
120.340584
 20
324.365115
 30
0.0
 11
120.340584
 21
341.2601835
 31
0.0
  0
LINE
  5
C4E
330
1A
100
AcDbEntity
  8
MSR3-0
100
AcDbLine
 10
125.3405835
 20
317.5253955
 30
0.0
 11
114.340584
 21
317.5253955
 31
0.0
  0
LINE
  5
C4F
330
1A
100
AcDbEntity
  8
MSR3-4
100
AcDbLine
 10
114.340584
 20
318.0253965
 30
0.0
 11
125.3405835
 21
318.0253965
 31
0.0
  0
LINE
  5
C50
330
1A
100
AcDbEntity
  8
MSR3-0
100
AcDbLine
 10
125.3405835
 20
324.365115
 30
0.0
 11
120.340584
 21
324.365115
 31
0.0
  0
LINE
  5
C51
330
1A
100
AcDbEntity
  8
MSR3-0
100
AcDbLine
 10
120.340584
 20
330.0253965
 30
0.0
 11
125.3405835
 21
330.0253965
 31
0.0
  0
LINE
  5
C52
330
1A
100
AcDbEntity
  8
MSR3-0
100
AcDbLine
 10
120.340584
 20
330.0253965
 30
0.0
 11
125.3405835
 21
330.0253965
 31
0.0
  0
LINE
  5
C53
330
1A
100
AcDbEntity
  8
MSR3-0
100
AcDbLine
 10
114.340584
 20
315.0253965
 30
0.0
 11
114.340584
 21
330.0253965
 31
0.0
  0
LINE
  5
C54
330
1A
100
AcDbEntity
  8
MSR3-0
100
AcDbLine
 10
120.340584
 20
327.525396
 30
0.0
 11
114.340584
 21
327.525396
 31
0.0
  0
LINE
  5
C55
330
1A
100
AcDbEntity
  8
MSR3-4
100
AcDbLine
 10
114.340584
 20
327.0253965
 30
0.0
 11
120.340584
 21
327.0253965000001
 31
0.0
  0
LINE
  5
C56
330
1A
100
AcDbEntity
  8
MSR3-0
100
AcDbLine
 10
120.340584
 20
335.599902
 30
0.0
 11
125.3405835
 21
335.599902
 31
0.0
  0
LINE
  5
C57
330
1A
100
AcDbEntity
  8
MSR3-0
100
AcDbLine
 10
125.3405835
 20
341.2601835
 30
0.0
 11
120.340584
 21
341.2601835
 31
0.0
  0
LINE
  5
C58
330
1A
100
AcDbEntity
  8
MSR3-0
100
AcDbLine
 10
102.340584
 20
361.0253955000001
 30
0.0
 11
114.340584
 21
361.0253955000001
 31
0.0
  0
LINE
  5
C59
330
1A
100
AcDbEntity
  8
MSR3-0
100
AcDbLine
 10
102.340584
 20
365.025396
 30
0.0
 11
114.340584
 21
365.025396
 31
0.0
  0
LINE
  5
C5A
330
1A
100
AcDbEntity
  8
MSR3-7
100
AcDbLine
 10
99.69090149999999
 20
368.5253955000001
 30
0.0
 11
126.4127189999999
 21
368.5253955000001
 31
0.0
  0
LINE
  5
C5B
330
1A
100
AcDbEntity
  8
MSR3-0
100
AcDbLine
 10
114.340584
 20
376.0253955
 30
0.0
 11
102.340584
 21
376.0253955
 31
0.0
  0
LINE
  5
C5C
330
1A
100
AcDbEntity
  8
MSR3-0
100
AcDbLine
 10
102.340584
 20
372.0253965
 30
0.0
 11
114.340584
 21
372.0253965
 31
0.0
  0
LINE
  5
C5D
330
1A
100
AcDbEntity
  8
MSR3-0
100
AcDbLine
 10
102.340584
 20
376.0253955
 30
0.0
 11
102.340584
 21
361.0253955000001
 31
0.0
  0
LINE
  5
C5E
330
1A
100
AcDbEntity
  8
MSR3-0
100
AcDbLine
 10
102.340584
 20
361.0253955000001
 30
0.0
 11
102.340584
 21
361.0253955000001
 31
0.0
  0
LINE
  5
C5F
330
1A
100
AcDbEntity
  8
MSR3-0
100
AcDbLine
 10
114.340584
 20
361.0253955000001
 30
0.0
 11
114.340584
 21
376.0253955
 31
0.0
  0
LINE
  5
C60
330
1A
100
AcDbEntity
  8
MSR3-0
100
AcDbLine
 10
120.340584
 20
355.45089
 30
0.0
 11
125.3405835
 21
355.45089
 31
0.0
  0
LINE
  5
C61
330
1A
100
AcDbEntity
  8
MSR3-0
100
AcDbLine
 10
125.3405835
 20
349.7906085
 30
0.0
 11
120.340584
 21
349.7906085
 31
0.0
  0
LINE
  5
C62
330
1A
100
AcDbEntity
  8
MSR3-0
100
AcDbLine
 10
120.340584
 20
361.0253955000001
 30
0.0
 11
125.3405835
 21
361.0253955000001
 31
0.0
  0
LINE
  5
C63
330
1A
100
AcDbEntity
  8
MSR3-0
100
AcDbLine
 10
120.340584
 20
361.0253955000001
 30
0.0
 11
125.3405835
 21
361.0253955000001
 31
0.0
  0
LINE
  5
C64
330
1A
100
AcDbEntity
  8
MSR3-0
100
AcDbLine
 10
125.3405835
 20
366.685677
 30
0.0
 11
120.340584
 21
366.685677
 31
0.0
  0
LINE
  5
C65
330
1A
100
AcDbEntity
  8
MSR3-0
100
AcDbLine
 10
120.340584
 20
349.7906085
 30
0.0
 11
120.340584
 21
366.685677
 31
0.0
  0
LINE
  5
C66
330
1A
100
AcDbEntity
  8
MSR3-0
100
AcDbLine
 10
120.340584
 20
363.525396
 30
0.0
 11
114.340584
 21
363.525396
 31
0.0
  0
LINE
  5
C67
330
1A
100
AcDbEntity
  8
MSR3-4
100
AcDbLine
 10
114.340584
 20
364.0253955
 30
0.0
 11
120.340584
 21
364.0253954999999
 31
0.0
  0
LINE
  5
C68
330
1A
100
AcDbEntity
  8
MSR3-0
100
AcDbLine
 10
125.3405835
 20
373.5253965
 30
0.0
 11
114.340584
 21
373.5253965
 31
0.0
  0
LINE
  5
C69
330
1A
100
AcDbEntity
  8
MSR3-4
100
AcDbLine
 10
114.340584
 20
373.0253955
 30
0.0
 11
125.3405835
 21
373.0253955
 31
0.0
  0
LINE
  5
C6A
330
1A
100
AcDbEntity
  8
MSR3-0
100
AcDbLine
 10
240.340584
 20
264.5667243853068
 30
0.0
 11
155.840583
 21
264.5667243853068
 31
0.0
  0
LINE
  5
C6B
330
1A
100
AcDbEntity
  8
MSR3-2
100
AcDbLine
 10
154.340583
 20
295.0667253853067
 30
0.0
 11
214.3405845
 21
295.0667253853067
 31
0.0
  0
LINE
  5
C6C
330
1A
100
AcDbEntity
  8
MSR3-2
100
AcDbLine
 10
213.8405835
 20
265.0667253853068
 30
0.0
 11
154.840584
 21
265.0667253853068
 31
0.0
  0
LINE
  5
C6D
330
1A
100
AcDbEntity
  8
MSR3-2
100
AcDbLine
 10
214.3405845
 20
283.0667253853068
 30
0.0
 11
184.340583
 21
283.0667253853068
 31
0.0
  0
LINE
  5
C6E
330
1A
100
AcDbEntity
  8
MSR3-2
100
AcDbLine
 10
213.8405835
 20
271.0667253853068
 30
0.0
 11
184.340583
 21
271.0667253853068
 31
0.0
  0
LINE
  5
C6F
330
1A
100
AcDbEntity
  8
MSR3-0
100
AcDbLine
 10
187.418904
 20
272.5667253853067
 30
0.0
 11
187.418904
 21
280.5667248853067
 31
0.0
  0
LINE
  5
C70
330
1A
100
AcDbEntity
  8
MSR3-0
100
AcDbLine
 10
186.4189035
 20
281.5667253853068
 30
0.0
 11
186.4189035
 21
271.5667248853067
 31
0.0
  0
LINE
  5
C71
330
1A
100
AcDbEntity
  8
MSR3-0
100
AcDbLine
 10
141.340584
 20
282.5667243853068
 30
0.0
 11
141.340584
 21
266.9667243853067
 31
0.0
  0
LINE
  5
C72
330
1A
100
AcDbEntity
  8
MSR3-0
100
AcDbLine
 10
153.340584
 20
282.5667243853068
 30
0.0
 11
153.340584
 21
267.0667248853067
 31
0.0
  0
LINE
  5
C73
330
1A
100
AcDbEntity
  8
MSR3-2
100
AcDbLine
 10
154.840584
 20
271.0667253853068
 30
0.0
 11
184.340583
 21
271.0667253853068
 31
0.0
  0
LINE
  5
C74
330
1A
100
AcDbEntity
  8
MSR3-0
100
AcDbLine
 10
186.4189035
 20
271.5667248853067
 30
0.0
 11
153.340584
 21
271.5667248853067
 31
0.0
  0
LINE
  5
C75
330
1A
100
AcDbEntity
  8
MSR3-4
100
AcDbLine
 10
186.4189034999999
 20
272.0667243853067
 30
0.0
 11
153.340584
 21
272.0667243853068
 31
0.0
  0
ARC
  5
C76
330
1A
100
AcDbEntity
  8
MSR3-0
100
AcDbCircle
 10
140.9405835
 20
266.9667243853067
 30
0.0
 40
0.4000005
100
AcDbArc
 50
270.000003
 51
0.0
  0
ARC
  5
C77
330
1A
100
AcDbEntity
  8
MSR3-0
100
AcDbCircle
 10
155.840583
 20
267.0667248853067
 30
0.0
 40
2.500000499999999
100
AcDbArc
 50
180.0000029999999
 51
270.000003
  0
LINE
  5
C78
330
1A
100
AcDbEntity
  8
MSR3-2
100
AcDbLine
 10
154.840584
 20
271.0667253853068
 30
0.0
 11
154.840584
 21
265.0667253853068
 31
0.0
  0
LINE
  5
C79
330
1A
100
AcDbEntity
  8
MSR3-2
100
AcDbLine
 10
165.8405835
 20
265.0667253853068
 30
0.0
 11
165.8405835
 21
264.5667243853068
 31
0.0
  0
LINE
  5
C7A
330
1A
100
AcDbEntity
  8
MSR3-2
100
AcDbLine
 10
168.940584
 20
271.5667248853067
 30
0.0
 11
168.940584
 21
271.0667253853068
 31
0.0
  0
LINE
  5
C7B
330
1A
100
AcDbEntity
  8
MSR3-0
100
AcDbLine
 10
187.418904
 20
272.5667253853067
 30
0.0
 11
186.4189035
 21
272.5667253853067
 31
0.0
  0
LINE
  5
C7C
330
1A
100
AcDbEntity
  8
MSR3-2
100
AcDbLine
 10
154.340583
 20
283.0667253853068
 30
0.0
 11
184.340583
 21
283.0667253853068
 31
0.0
  0
LINE
  5
C7D
330
1A
100
AcDbEntity
  8
MSR3-0
100
AcDbLine
 10
186.4189035
 20
281.5667253853068
 30
0.0
 11
153.340584
 21
281.5667253853068
 31
0.0
  0
LINE
  5
C7E
330
1A
100
AcDbEntity
  8
MSR3-4
100
AcDbLine
 10
186.4189034999999
 20
281.0667243853067
 30
0.0
 11
153.340584
 21
281.0667243853067
 31
0.0
  0
LINE
  5
C7F
330
1A
100
AcDbEntity
  8
MSR3-7
100
AcDbLine
 10
160.3405829999999
 20
298.2123648853068
 30
0.0
 11
160.3405829999999
 21
282.2623638853067
 31
0.0
  0
LINE
  5
C80
330
1A
100
AcDbEntity
  8
MSR3-2
100
AcDbLine
 10
154.340583
 20
295.0667253853067
 30
0.0
 11
154.340583
 21
283.0667253853068
 31
0.0
  0
LINE
  5
C81
330
1A
100
AcDbEntity
  8
MSR3-0
100
AcDbLine
 10
153.340584
 20
282.5667243853068
 30
0.0
 11
141.340584
 21
282.5667243853068
 31
0.0
  0
LINE
  5
C82
330
1A
100
AcDbEntity
  8
MSR3-2
100
AcDbLine
 10
168.940584
 20
283.0667253853068
 30
0.0
 11
168.940584
 21
281.5667253853068
 31
0.0
  0
LINE
  5
C83
330
1A
100
AcDbEntity
  8
MSR3-0
100
AcDbLine
 10
187.418904
 20
280.5667248853067
 30
0.0
 11
186.4189035
 21
280.5667248853067
 31
0.0
  0
LINE
  5
C84
330
1A
100
AcDbEntity
  8
MSR3-2
100
AcDbLine
 10
212.9639805
 20
271.0667253853068
 30
0.0
 11
212.9639805
 21
283.0667253853068
 31
0.0
  0
LINE
  5
C85
330
1A
100
AcDbEntity
  8
MSR3-2
100
AcDbLine
 10
199.7405834999999
 20
283.0667253853068
 30
0.0
 11
199.7405834999999
 21
271.0667253853068
 31
0.0
  0
LINE
  5
C86
330
1A
100
AcDbEntity
  8
MSR3-2
100
AcDbLine
 10
200.9639805
 20
271.0667253853068
 30
0.0
 11
200.9639805
 21
283.0667253853068
 31
0.0
  0
LINE
  5
C87
330
1A
100
AcDbEntity
  8
MSR3-2
100
AcDbLine
 10
202.840584
 20
265.0667253853068
 30
0.0
 11
202.840584
 21
264.5667243853068
 31
0.0
  0
LINE
  5
C88
330
1A
100
AcDbEntity
  8
MSR3-2
100
AcDbLine
 10
213.8405835
 20
271.0667253853068
 30
0.0
 11
213.8405835
 21
265.0667253853068
 31
0.0
  0
LINE
  5
C89
330
1A
100
AcDbEntity
  8
MSR3-7
100
AcDbLine
 10
208.3405845
 20
298.0345863853068
 30
0.0
 11
208.3405845
 21
280.5345858853067
 31
0.0
  0
LINE
  5
C8A
330
1A
100
AcDbEntity
  8
MSR3-2
100
AcDbLine
 10
214.3405845
 20
295.0667253853067
 30
0.0
 11
214.3405845
 21
283.0667253853068
 31
0.0
  0
INSERT
  5
C8B
330
1A
100
AcDbEntity
  8
MSR3-8
100
AcDbBlockReference
  2
*X12
 10
0.0
 20
38.54376638530676
 30
0.0
1001
GENIUS_GENODEF_13
1002
{
1000
HIER
1070
     0
1002
}
1002
{
1000
MANEDIT
1070
     0
1002
}
1002
{
1000
NOSEL
1070
     0
1002
}
1002
{
1000
BEHIND
1070
     0
1002
}
1002
{
1000
REACTOR
1002
}
1001
GENIUS_GENOBJ-N-HTC_13
1002
{
1000
OWNER
1000
GEN
1002
}
1001
GENIUS_GENHATCH_13
1002
{
1000
DATA
1040
45.0
1042
1.5
1000
_U
1070
     0
1011
213.6719051558891
1021
291.2996000718719
1031
0.0
1002
}
1002
{
1000
UCS
1010
0.0
1020
0.0
1030
0.0
1010
1.0
1020
0.0
1030
0.0
1010
0.0
1020
1.0
1030
0.0
1002
}
1001
ACAD
1000
HATCH
1002
{
1070
    19
1000
_U
1040
1.5
1040
0.7853981633974483
1070
     0
1002
}
  0
LINE
  5
C8C
330
1A
100
AcDbEntity
  8
MSR3-2
100
AcDbLine
 10
213.340584
 20
295.0667253853067
 30
0.0
 11
213.340584
 21
292.9667253853068
 31
0.0
  0
INSERT
  5
C8D
330
1A
100
AcDbEntity
  8
MSR3-8
100
AcDbBlockReference
  2
*X11
 10
0.0
 20
38.54376638530676
 30
0.0
1001
GENIUS_GENODEF_13
1002
{
1000
HIER
1070
     0
1002
}
1002
{
1000
MANEDIT
1070
     0
1002
}
1002
{
1000
NOSEL
1070
     0
1002
}
1002
{
1000
BEHIND
1070
     0
1002
}
1002
{
1000
REACTOR
1002
}
1001
GENIUS_GENOBJ-N-HTC_13
1002
{
1000
OWNER
1000
GEN
1002
}
1001
GENIUS_GENHATCH_13
1002
{
1000
DATA
1040
45.0
1042
1.5
1000
_U
1070
     0
1011
200.1829569780054
1021
290.7102851088141
1031
0.0
1002
}
1002
{
1000
UCS
1010
0.0
1020
0.0
1030
0.0
1010
1.0
1020
0.0
1030
0.0
1010
0.0
1020
1.0
1030
0.0
1002
}
1001
ACAD
1000
HATCH
1002
{
1070
    19
1000
_U
1040
1.5
1040
0.7853981633974483
1070
     0
1002
}
  0
LINE
  5
C8E
330
1A
100
AcDbEntity
  8
MSR3-4
100
AcDbLine
 10
195.6425344364257
 20
292.1433745154237
 30
0.0
 11
195.2157364942791
 21
293.8495052323326
 31
0.0
  0
LINE
  5
C8F
330
1A
100
AcDbEntity
  8
MSR3-2
100
AcDbLine
 10
203.3405835
 20
292.9667253853068
 30
0.0
 11
203.3405835
 21
295.0667253853067
 31
0.0
  0
LINE
  5
C90
330
1A
100
AcDbEntity
  8
MSR3-2
100
AcDbLine
 10
204.940584
 20
292.9667253853068
 30
0.0
 11
211.7405835
 21
292.9667253853068
 31
0.0
  0
LINE
  5
C91
330
1A
100
AcDbEntity
  8
MSR3-2
100
AcDbLine
 10
204.940584
 20
289.5667248853067
 30
0.0
 11
211.7405835
 21
289.5667248853067
 31
0.0
  0
LINE
  5
C92
330
1A
100
AcDbEntity
  8
MSR3-2
100
AcDbLine
 10
203.0405835
 20
283.0667253853068
 30
0.0
 11
203.0405835
 21
289.5667248853067
 31
0.0
  0
LINE
  5
C93
330
1A
100
AcDbEntity
  8
MSR3-4
100
AcDbLine
 10
195.1547653341669
 20
283.0667253853068
 30
0.0
 11
194.4231117700982
 21
286.7812494441171
 31
0.0
  0
LINE
  5
C94
330
1A
100
AcDbEntity
  8
MSR3-2
100
AcDbLine
 10
204.0905835
 20
283.0667253853068
 30
0.0
 11
199.9909094999999
 21
283.0667253853068
 31
0.0
  0
LINE
  5
C95
330
1A
100
AcDbEntity
  8
MSR3-4
100
AcDbLine
 10
194.4231117700982
 20
286.7812494441171
 30
0.0
 11
194.7889385521325
 21
289.2998233569554
 31
0.0
  0
LINE
  5
C96
330
1A
100
AcDbEntity
  8
MSR3-4
100
AcDbLine
 10
194.7889385521325
 20
289.2998233569554
 30
0.0
 11
195.6425344364257
 21
292.1433745154237
 31
0.0
  0
LINE
  5
C97
330
1A
100
AcDbEntity
  8
MSR3-2
100
AcDbLine
 10
204.940584
 20
289.5667248853067
 30
0.0
 11
204.940584
 21
292.9667253853068
 31
0.0
  0
LINE
  5
C98
330
1A
100
AcDbEntity
  8
MSR3-4
100
AcDbLine
 10
204.3405845
 20
292.9667253853068
 30
0.0
 11
204.3405845
 21
289.5667248853067
 31
0.0
  0
LINE
  5
C99
330
1A
100
AcDbEntity
  8
MSR3-2
100
AcDbLine
 10
203.0405835
 20
289.5667248853067
 30
0.0
 11
204.940584
 21
289.5667248853067
 31
0.0
  0
LINE
  5
C9A
330
1A
100
AcDbEntity
  8
MSR3-2
100
AcDbLine
 10
204.940584
 20
292.9667253853068
 30
0.0
 11
203.3405835
 21
292.9667253853068
 31
0.0
  0
LINE
  5
C9B
330
1A
100
AcDbEntity
  8
MSR3-2
100
AcDbLine
 10
213.640584
 20
289.5667248853067
 30
0.0
 11
213.640584
 21
283.0667253853068
 31
0.0
  0
LINE
  5
C9C
330
1A
100
AcDbEntity
  8
MSR3-2
100
AcDbLine
 10
211.7405835
 20
292.9667253853068
 30
0.0
 11
211.7405835
 21
289.5667248853067
 31
0.0
  0
LINE
  5
C9D
330
1A
100
AcDbEntity
  8
MSR3-4
100
AcDbLine
 10
212.3405845
 20
289.5667248853067
 30
0.0
 11
212.3405845
 21
292.9667253853068
 31
0.0
  0
LINE
  5
C9E
330
1A
100
AcDbEntity
  8
MSR3-2
100
AcDbLine
 10
211.7405835
 20
289.5667248853067
 30
0.0
 11
213.640584
 21
289.5667248853067
 31
0.0
  0
LINE
  5
C9F
330
1A
100
AcDbEntity
  8
MSR3-2
100
AcDbLine
 10
213.340584
 20
292.9667253853068
 30
0.0
 11
211.7405835
 21
292.9667253853068
 31
0.0
  0
LINE
  5
CA0
330
1A
100
AcDbEntity
  8
MSR3-4
100
AcDbLine
 10
195.2157364942791
 20
293.8495052323326
 30
0.0
 11
195.9677138081584
 21
295.0667253853067
 31
0.0
  0
CIRCLE
  5
CA1
330
1A
100
AcDbEntity
  8
MSR3-0
100
AcDbCircle
 10
184.340583
 20
345.525396
 30
0.0
 40
4.5
  0
LINE
  5
CA2
330
1A
100
AcDbEntity
  8
MSR3-7
100
AcDbLine
 10
184.340583
 20
354.229233
 30
0.0
 11
184.340583
 21
337.3903935
 31
0.0
  0
CIRCLE
  5
CA3
330
1A
100
AcDbEntity
  8
MSR3-0
100
AcDbCircle
 10
148.340583
 20
345.525396
 30
0.0
 40
6.499999500000001
  0
LINE
  5
CA4
330
1A
100
AcDbEntity
  8
MSR3-7
100
AcDbLine
 10
148.340583
 20
355.524936
 30
0.0
 11
148.340583
 21
336.3558735
 31
0.0
  0
LINE
  5
CA5
330
1A
100
AcDbEntity
  8
MSR3-7
100
AcDbLine
 10
164.3405835
 20
350.877369
 30
0.0
 11
164.3405835
 21
340.3581375
 31
0.0
  0
CIRCLE
  5
CA6
330
1A
100
AcDbEntity
  8
MSR3-0
100
AcDbCircle
 10
148.340583
 20
345.525396
 30
0.0
 40
7.5
  0
LINE
  5
CA7
330
1A
100
AcDbEntity
  8
MSR3-7
100
AcDbLine
 10
158.648433
 20
345.525396
 30
0.0
 11
169.8599715
 21
345.525396
 31
0.0
  0
CIRCLE
  5
CA8
330
1A
100
AcDbEntity
  8
MSR3-0
100
AcDbCircle
 10
164.3405835
 20
345.525396
 30
0.0
 40
3.0
  0
LINE
  5
CA9
330
1A
100
AcDbEntity
  8
MSR3-7
100
AcDbLine
 10
158.648433
 20
325.5253965
 30
0.0
 11
169.8599715
 21
325.5253965
 31
0.0
  0
CIRCLE
  5
CAA
330
1A
100
AcDbEntity
  8
MSR3-0
100
AcDbCircle
 10
164.3405835
 20
325.5253965
 30
0.0
 40
2.500000499999999
  0
ARC
  5
CAB
330
1A
100
AcDbEntity
  8
MSR3-4
100
AcDbCircle
 10
164.3405835
 20
325.5253965
 30
0.0
 40
3.0
100
AcDbArc
 50
180.0
 51
90.0
  0
LINE
  5
CAC
330
1A
100
AcDbEntity
  8
MSR3-7
100
AcDbLine
 10
164.3405835
 20
330.877368
 30
0.0
 11
164.3405835
 21
320.358138
 31
0.0
  0
INSERT
  5
CAD
330
1A
100
AcDbEntity
  8
MSR3-0N
100
AcDbBlockReference
 66
     1
  2
GENINF13
 10
150.2137645884186
 20
322.8872887948217
 30
0.0
1001
GENIUS_GENSCSYM_13
1002
{
1000
INSPT
1011
150.2137645884186
1021
322.8872887948217
1031
0.0
1002
}
1002
{
1000
SCALE
1042
1.0
1002
}
1002
{
1000
USEOLDBPT
1070
     0
1002
}
1001
GENIUS_GENOBJ-N-INFOPT_13
1002
{
1000
OWNER
1000
GEN
1002
}
1001
GENIUS_GENSYMENT_13
1002
{
1000
ENT
1005
CAD
1002
}
1001
GENIUS_GENODEF_13
1002
{
1000
HIER
1070
     0
1002
}
1002
{
1000
MANEDIT
1070
     0
1002
}
1002
{
1000
NOSEL
1070
     0
1002
}
1002
{
1000
BEHIND
1070
     0
1002
}
1002
{
1000
REACTOR
1002
}
1001
GENIUS_GENOBJ-N-RSSYM_13
1002
{
1000
OWNER
1000
GEN
1002
}
1001
GENIUS_GENINF13_13
1070
     1
  0
ATTRIB
  5
CAE
330
CAD
100
AcDbEntity
  8
INFO
100
AcDbText
 10
150.2137645884186
 20
322.8872887948217
 30
0.0
 40
1.0
  1
1
100
AcDbAttribute
  2
2GENINF
 70
     1
  0
ATTRIB
  5
CAF
330
CAD
100
AcDbEntity
  8
INFO
100
AcDbText
 10
150.2137645884186
 20
321.3872887948217
 30
0.0
 40
1.0
  1
<***aktuell***>
100
AcDbAttribute
  2
3GENINF
 70
     1
  0
ATTRIB
  5
CB0
330
CAD
100
AcDbEntity
  8
INFO
100
AcDbText
 10
150.2137645884186
 20
319.8872887948216
 30
0.0
 40
1.0
  1

100
AcDbAttribute
  2
4GENINF
 70
     1
  0
ATTRIB
  5
CB1
330
CAD
100
AcDbEntity
  8
INFO
100
AcDbText
 10
150.2137645884186
 20
318.3872887948216
 30
0.0
 40
1.0
  1
MSR 3
100
AcDbAttribute
  2
5GENINF
 70
     1
  0
ATTRIB
  5
CB2
330
CAD
100
AcDbEntity
  8
INFO
100
AcDbText
 10
150.2137645884186
 20
316.8872887948217
 30
0.0
 40
1.0
  1

100
AcDbAttribute
  2
6GENINF
 70
     1
  0
ATTRIB
  5
CB3
330
CAD
100
AcDbEntity
  8
INFO
100
AcDbText
 10
150.2137645884186
 20
315.3872887948216
 30
0.0
 40
1.0
  1
Fa. Mayer
100
AcDbAttribute
  2
7GENINF
 70
     1
  0
ATTRIB
  5
CB4
330
CAD
100
AcDbEntity
  8
INFO
100
AcDbText
 10
150.2137645884186
 20
313.8872887948216
 30
0.0
 40
1.0
  1

100
AcDbAttribute
  2
8GENINF
 70
     1
  0
ATTRIB
  5
CB5
330
CAD
100
AcDbEntity
  8
INFO
100
AcDbText
 10
150.2137645884186
 20
312.3872887948217
 30
0.0
 40
1.0
  1

100
AcDbAttribute
  2
9GENINF
 70
     1
  0
ATTRIB
  5
CB6
330
CAD
100
AcDbEntity
  8
INFO
100
AcDbText
 10
150.2137645884186
 20
310.8872887948217
 30
0.0
 40
1.0
  1

100
AcDbAttribute
  2
10GENINF
 70
     1
  0
ATTRIB
  5
CB7
330
CAD
100
AcDbEntity
  8
INFO
100
AcDbText
 10
150.2137645884186
 20
309.3872887948216
 30
0.0
 40
1.0
  1

100
AcDbAttribute
  2
11GENINF
 70
     1
  0
ATTRIB
  5
CB8
330
CAD
100
AcDbEntity
  8
INFO
100
AcDbText
 10
150.2137645884186
 20
307.8872887948216
 30
0.0
 40
1.0
  1

100
AcDbAttribute
  2
12GENINF
 70
     1
  0
ATTRIB
  5
CB9
330
CAD
100
AcDbEntity
  8
INFO
100
AcDbText
 10
150.2137645884186
 20
306.3872887948217
 30
0.0
 40
1.0
  1

100
AcDbAttribute
  2
13GENINF
 70
     1
  0
ATTRIB
  5
CBA
330
CAD
100
AcDbEntity
  8
INFO
100
AcDbText
 10
150.2137645884186
 20
304.8872887948216
 30
0.0
 40
1.0
  1

100
AcDbAttribute
  2
14GENINF
 70
     1
  0
ATTRIB
  5
CBB
330
CAD
100
AcDbEntity
  8
INFO
100
AcDbText
 10
150.2137645884186
 20
303.3872887948216
 30
0.0
 40
1.0
  1

100
AcDbAttribute
  2
15GENINF
 70
     1
  0
ATTRIB
  5
CBC
330
CAD
100
AcDbEntity
  8
INFO
100
AcDbText
 10
150.2137645884186
 20
301.8872887948216
 30
0.0
 40
1.0
  1

100
AcDbAttribute
  2
16GENINF
 70
     1
  0
ATTRIB
  5
CBD
330
CAD
100
AcDbEntity
  8
INFO
100
AcDbText
 10
150.2137645884186
 20
300.3872887948217
 30
0.0
 40
1.0
  1

100
AcDbAttribute
  2
17GENINF
 70
     1
  0
ATTRIB
  5
CBE
330
CAD
100
AcDbEntity
  8
INFO
100
AcDbText
 10
150.2137645884186
 20
298.8872887948216
 30
0.0
 40
1.0
  1

100
AcDbAttribute
  2
18GENINF
 70
     1
  0
ATTRIB
  5
CBF
330
CAD
100
AcDbEntity
  8
INFO
100
AcDbText
 10
150.2137645884186
 20
297.3872887948216
 30
0.0
 40
1.0
  1

100
AcDbAttribute
  2
19GENINF
 70
     1
  0
ATTRIB
  5
CC0
330
CAD
100
AcDbEntity
  8
INFO
100
AcDbText
 10
150.2137645884186
 20
295.8872887948217
 30
0.0
 40
1.0
  1

100
AcDbAttribute
  2
20GENINF
 70
     1
  0
ATTRIB
  5
CC1
330
CAD
100
AcDbEntity
  8
INFO
100
AcDbText
 10
150.2137645884186
 20
294.3872887948216
 30
0.0
 40
1.0
  1

100
AcDbAttribute
  2
21GENINF
 70
     1
  0
ATTRIB
  5
CC2
330
CAD
100
AcDbEntity
  8
INFO
100
AcDbText
 10
150.2137645884186
 20
292.8872887948216
 30
0.0
 40
1.0
  1

100
AcDbAttribute
  2
22GENINF
 70
     1
  0
ATTRIB
  5
CC3
330
CAD
100
AcDbEntity
  8
INFO
100
AcDbText
 10
150.2137645884186
 20
291.3872887948216
 30
0.0
 40
1.0
  1

100
AcDbAttribute
  2
23GENINF
 70
     1
  0
ATTRIB
  5
CC4
330
CAD
100
AcDbEntity
  8
INFO
100
AcDbText
 10
150.2137645884186
 20
289.8872887948217
 30
0.0
 40
1.0
  1

100
AcDbAttribute
  2
24GENINF
 70
     1
  0
ATTRIB
  5
CC5
330
CAD
100
AcDbEntity
  8
INFO
100
AcDbText
 10
150.2137645884186
 20
288.3872887948216
 30
0.0
 40
1.0
  1

100
AcDbAttribute
  2
0GENINF
 70
     1
  0
SEQEND
  5
CC6
330
CAD
100
AcDbEntity
  8
MSR3-0N
  0
LINE
  5
CC7
330
1A
100
AcDbEntity
  8
MSR3-0
100
AcDbLine
 10
150.0726345
 20
348.525396
 30
0.0
 11
151.804686
 21
345.525396
 31
0.0
  0
LINE
  5
CC8
330
1A
100
AcDbEntity
  8
MSR3-0
100
AcDbLine
 10
151.804686
 20
345.525396
 30
0.0
 11
150.0726345
 21
342.525396
 31
0.0
  0
LINE
  5
CC9
330
1A
100
AcDbEntity
  8
MSR3-7
100
AcDbLine
 10
139.218459
 20
345.525396
 30
0.0
 11
157.315959
 21
345.525396
 31
0.0
  0
LINE
  5
CCA
330
1A
100
AcDbEntity
  8
MSR3-0
100
AcDbLine
 10
146.608533
 20
342.525396
 30
0.0
 11
146.608533
 21
342.525396
 31
0.0
  0
LINE
  5
CCB
330
1A
100
AcDbEntity
  8
MSR3-0
100
AcDbLine
 10
144.8764815
 20
345.525396
 30
0.0
 11
146.608533
 21
348.525396
 31
0.0
  0
LINE
  5
CCC
330
1A
100
AcDbEntity
  8
MSR3-0
100
AcDbLine
 10
146.608533
 20
342.525396
 30
0.0
 11
144.8764815
 21
345.525396
 31
0.0
  0
LINE
  5
CCD
330
1A
100
AcDbEntity
  8
MSR3-0
100
AcDbLine
 10
150.0726345
 20
342.525396
 30
0.0
 11
146.608533
 21
342.525396
 31
0.0
  0
LINE
  5
CCE
330
1A
100
AcDbEntity
  8
MSR3-0
100
AcDbLine
 10
146.608533
 20
348.525396
 30
0.0
 11
150.0726345
 21
348.525396
 31
0.0
  0
LINE
  5
CCF
330
1A
100
AcDbEntity
  8
MSR3-7
100
AcDbLine
 10
176.545119
 20
345.525396
 30
0.0
 11
191.2294935
 21
345.525396
 31
0.0
  0
LINE
  5
CD0
330
1A
100
AcDbEntity
  8
MSR3-7
100
AcDbLine
 10
158.648433
 20
365.5253955
 30
0.0
 11
169.8599715
 21
365.5253955
 31
0.0
  0
CIRCLE
  5
CD1
330
1A
100
AcDbEntity
  8
MSR3-0
100
AcDbCircle
 10
164.3405835
 20
365.5253955
 30
0.0
 40
2.500000499999999
  0
ARC
  5
CD2
330
1A
100
AcDbEntity
  8
MSR3-4
100
AcDbCircle
 10
164.3405835
 20
365.5253955
 30
0.0
 40
3.0
100
AcDbArc
 50
180.0
 51
90.0
  0
LINE
  5
CD3
330
1A
100
AcDbEntity
  8
MSR3-7
100
AcDbLine
 10
164.3405835
 20
370.8773685
 30
0.0
 11
164.3405835
 21
360.3581385
 31
0.0
  0
LINE
  5
CD4
330
1A
100
AcDbEntity
  8
MSR3-0
100
AcDbLine
 10
240.340584
 20
375.525396
 30
0.0
 11
240.340584
 21
315.525396
 31
0.0
  0
LINE
  5
CD5
330
1A
100
AcDbEntity
  8
MSR3-0
100
AcDbLine
 10
234.840584
 20
375.525396
 30
0.0
 11
234.840584
 21
315.525396
 31
0.0
  0
CIRCLE
  5
CD6
330
1A
100
AcDbEntity
  8
MSR3-0
100
AcDbCircle
 10
220.340583
 20
345.525396
 30
0.0
 40
6.499999500000001
  0
CIRCLE
  5
CD7
330
1A
100
AcDbEntity
  8
MSR3-0
100
AcDbCircle
 10
220.340583
 20
345.525396
 30
0.0
 40
7.5
  0
LINE
  5
CD8
330
1A
100
AcDbEntity
  8
MSR3-7
100
AcDbLine
 10
220.340583
 20
355.524936
 30
0.0
 11
220.340583
 21
336.3558735
 31
0.0
  0
LINE
  5
CD9
330
1A
100
AcDbEntity
  8
MSR3-7
100
AcDbLine
 10
204.340584
 20
350.877369
 30
0.0
 11
204.340584
 21
340.3581375
 31
0.0
  0
LINE
  5
CDA
330
1A
100
AcDbEntity
  8
MSR3-7
100
AcDbLine
 10
211.218459
 20
345.525396
 30
0.0
 11
229.315959
 21
345.525396
 31
0.0
  0
LINE
  5
CDB
330
1A
100
AcDbEntity
  8
MSR3-0
100
AcDbLine
 10
222.0726345
 20
342.525396
 30
0.0
 11
218.608533
 21
342.525396
 31
0.0
  0
LINE
  5
CDC
330
1A
100
AcDbEntity
  8
MSR3-0
100
AcDbLine
 10
218.608533
 20
348.525396
 30
0.0
 11
222.0726345
 21
348.525396
 31
0.0
  0
LINE
  5
CDD
330
1A
100
AcDbEntity
  8
MSR3-7
100
AcDbLine
 10
204.340584
 20
330.877368
 30
0.0
 11
204.340584
 21
320.358138
 31
0.0
  0
LINE
  5
CDE
330
1A
100
AcDbEntity
  8
MSR3-7
100
AcDbLine
 10
198.648432
 20
325.5253965
 30
0.0
 11
209.8599705
 21
325.5253965
 31
0.0
  0
ARC
  5
CDF
330
1A
100
AcDbEntity
  8
MSR3-4
100
AcDbCircle
 10
204.340584
 20
325.5253965
 30
0.0
 40
3.0
100
AcDbArc
 50
180.0
 51
90.0
  0
CIRCLE
  5
CE0
330
1A
100
AcDbEntity
  8
MSR3-0
100
AcDbCircle
 10
204.340584
 20
325.5253965
 30
0.0
 40
2.500000499999999
  0
LINE
  5
CE1
330
1A
100
AcDbEntity
  8
MSR3-7
100
AcDbLine
 10
200.2813785
 20
345.525396
 30
0.0
 11
209.8599705
 21
345.525396
 31
0.0
  0
CIRCLE
  5
CE2
330
1A
100
AcDbEntity
  8
MSR3-0
100
AcDbCircle
 10
204.340584
 20
345.525396
 30
0.0
 40
3.0
  0
LINE
  5
CE3
330
1A
100
AcDbEntity
  8
MSR3-0
100
AcDbLine
 10
218.608533
 20
342.525396
 30
0.0
 11
218.608533
 21
342.525396
 31
0.0
  0
LINE
  5
CE4
330
1A
100
AcDbEntity
  8
MSR3-0
100
AcDbLine
 10
216.8764815
 20
345.525396
 30
0.0
 11
218.608533
 21
348.525396
 31
0.0
  0
LINE
  5
CE5
330
1A
100
AcDbEntity
  8
MSR3-0
100
AcDbLine
 10
218.608533
 20
342.525396
 30
0.0
 11
216.8764815
 21
345.525396
 31
0.0
  0
LINE
  5
CE6
330
1A
100
AcDbEntity
  8
MSR3-0
100
AcDbLine
 10
222.0726345
 20
348.525396
 30
0.0
 11
223.804686
 21
345.525396
 31
0.0
  0
LINE
  5
CE7
330
1A
100
AcDbEntity
  8
MSR3-0
100
AcDbLine
 10
223.804686
 20
345.525396
 30
0.0
 11
222.0726345
 21
342.525396
 31
0.0
  0
LINE
  5
CE8
330
1A
100
AcDbEntity
  8
MSR3-7
100
AcDbLine
 10
204.340584
 20
370.8773685
 30
0.0
 11
204.340584
 21
360.3581385
 31
0.0
  0
CIRCLE
  5
CE9
330
1A
100
AcDbEntity
  8
MSR3-0
100
AcDbCircle
 10
204.340584
 20
365.5253955
 30
0.0
 40
2.500000499999999
  0
ARC
  5
CEA
330
1A
100
AcDbEntity
  8
MSR3-4
100
AcDbCircle
 10
204.340584
 20
365.5253955
 30
0.0
 40
3.0
100
AcDbArc
 50
180.0
 51
90.0
  0
LINE
  5
CEB
330
1A
100
AcDbEntity
  8
MSR3-7
100
AcDbLine
 10
198.648432
 20
365.5253955
 30
0.0
 11
209.8599705
 21
365.5253955
 31
0.0
  0
LINE
  5
CEC
330
1A
100
AcDbEntity
  8
MSR3-0
100
AcDbLine
 10
303.1685415
 20
256.8816798853068
 30
0.0
 11
311.668542
 21
251.9742033853067
 31
0.0
  0
LINE
  5
CED
330
1A
100
AcDbEntity
  8
MSR3-0
100
AcDbLine
 10
290.168541
 20
264.5667243853068
 30
0.0
 11
320.1685425000001
 21
264.5667243853068
 31
0.0
  0
LINE
  5
CEE
330
1A
100
AcDbEntity
  8
MSR3-7
100
AcDbLine
 10
293.3065004999999
 20
247.0667238853068
 30
0.0
 11
311.668542
 21
247.0667238853068
 31
0.0
  0
ARC
  5
CEF
330
1A
100
AcDbEntity
  8
MSR3-0
100
AcDbCircle
 10
303.1685415
 20
247.0667238853068
 30
0.0
 40
6.499999500000001
100
AcDbArc
 50
257.419483
 51
193.3648
  0
CIRCLE
  5
CF0
330
1A
100
AcDbEntity
  8
MSR3-0
100
AcDbCircle
 10
303.1685415
 20
247.0667238853068
 30
0.0
 40
7.000000499999998
  0
LINE
  5
CF1
330
1A
100
AcDbEntity
  8
MSR3-2
100
AcDbLine
 10
300.910212
 20
282.7388883853068
 30
0.0
 11
339.4268715
 21
282.7388883853068
 31
0.0
  0
LINE
  5
CF2
330
1A
100
AcDbEntity
  8
MSR3-2
100
AcDbLine
 10
290.168541
 20
295.0667253853067
 30
0.0
 11
350.1685425000001
 21
295.0667253853067
 31
0.0
  0
LINE
  5
CF3
330
1A
100
AcDbEntity
  8
MSR3-0
100
AcDbLine
 10
301.776237
 20
282.2388888853068
 30
0.0
 11
338.5608465
 21
282.2388888853068
 31
0.0
  0
LINE
  5
CF4
330
1A
100
AcDbEntity
  8
MSR3-0
100
AcDbLine
 10
304.6685415000001
 20
271.9087623853068
 30
0.0
 11
304.6685415000001
 21
280.5690153853068
 31
0.0
  0
LINE
  5
CF5
330
1A
100
AcDbEntity
  8
MSR3-0
100
AcDbLine
 10
294.668541
 20
274.7955123853067
 30
0.0
 11
297.1685415000001
 21
273.3521373853067
 31
0.0
  0
LINE
  5
CF6
330
1A
100
AcDbEntity
  8
MSR3-0
100
AcDbLine
 10
289.6685415000001
 20
280.5690153853068
 30
0.0
 11
289.6685415000001
 21
271.9087623853068
 31
0.0
  0
LINE
  5
CF7
330
1A
100
AcDbEntity
  8
MSR3-7
100
AcDbLine
 10
297.1685415000001
 20
286.3922043853067
 30
0.0
 11
297.1685415000001
 21
266.2507983853068
 31
0.0
  0
LINE
  5
CF8
330
1A
100
AcDbEntity
  8
MSR3-0
100
AcDbLine
 10
297.1685415000001
 20
273.3521373853067
 30
0.0
 11
299.668542
 21
274.7955123853067
 31
0.0
  0
CIRCLE
  5
CF9
330
1A
100
AcDbEntity
  8
MSR3-0
100
AcDbCircle
 10
297.1685415000001
 20
276.2388888853068
 30
0.0
 40
4.9999995
  0
ARC
  5
CFA
330
1A
100
AcDbEntity
  8
MSR3-0
100
AcDbCircle
 10
297.1685415000001
 20
276.2388888853068
 30
0.0
 40
4.5
100
AcDbArc
 50
270.000003
 51
192.6101769999999
  0
ARC
  5
CFB
330
1A
100
AcDbEntity
  8
MSR3-0
100
AcDbCircle
 10
294.668541
 20
254.0667243853068
 30
0.0
 40
3.75
100
AcDbArc
 50
1.102287999999999
 51
270.000003
  0
LINE
  5
CFC
330
1A
100
AcDbEntity
  8
MSR3-7
100
AcDbLine
 10
294.668541
 20
259.1070468853068
 30
0.0
 11
294.668541
 21
251.9742033853067
 31
0.0
  0
LINE
  5
CFD
330
1A
100
AcDbEntity
  8
MSR3-0
100
AcDbLine
 10
294.668541
 20
251.9742033853067
 30
0.0
 11
303.1685415
 21
256.8816798853068
 31
0.0
  0
LINE
  5
CFE
330
1A
100
AcDbEntity
  8
MSR3-7
100
AcDbLine
 10
286.7368275
 20
237.8221338853067
 30
0.0
 11
297.436827
 21
237.8221338853067
 31
0.0
  0
LINE
  5
CFF
330
1A
100
AcDbEntity
  8
MSR3-7
100
AcDbLine
 10
290.168541
 20
254.0667243853068
 30
0.0
 11
298.417848
 21
254.1388653853068
 31
0.0
  0
LINE
  5
D00
330
1A
100
AcDbEntity
  8
MSR3-3
100
AcDbLine
 10
295.0033170000001
 20
239.9221338853067
 30
0.0
 11
290.168541
 21
239.9221338853067
 31
0.0
  0
LINE
  5
D01
330
1A
100
AcDbEntity
  8
MSR3-3
100
AcDbLine
 10
295.0033170000001
 20
240.3221343853068
 30
0.0
 11
290.168541
 21
240.3221343853068
 31
0.0
  0
LINE
  5
D02
330
1A
100
AcDbEntity
  8
MSR3-0
100
AcDbLine
 10
293.513841
 20
256.0667253853068
 30
0.0
 11
292.359141
 21
254.0667243853068
 31
0.0
  0
LINE
  5
D03
330
1A
100
AcDbEntity
  8
MSR3-0
100
AcDbLine
 10
292.359141
 20
254.0667243853068
 30
0.0
 11
293.513841
 21
252.0667248853067
 31
0.0
  0
LINE
  5
D04
330
1A
100
AcDbEntity
  8
MSR3-0
100
AcDbLine
 10
306.6685425
 20
245.0459988853068
 30
0.0
 11
306.6685425
 21
249.0874503853067
 31
0.0
  0
LINE
  5
D05
330
1A
100
AcDbEntity
  8
MSR3-0
100
AcDbLine
 10
294.668541
 20
242.1592473853067
 30
0.0
 11
294.668541
 21
251.9742033853067
 31
0.0
  0
LINE
  5
D06
330
1A
100
AcDbEntity
  8
MSR3-0
100
AcDbLine
 10
299.668542
 20
249.0874503853067
 30
0.0
 11
299.668542
 21
245.0459988853068
 31
0.0
  0
LINE
  5
D07
330
1A
100
AcDbEntity
  8
MSR3-0
100
AcDbLine
 10
299.668542
 20
245.0459988853068
 30
0.0
 11
303.1685415
 21
243.0252723853068
 31
0.0
  0
LINE
  5
D08
330
1A
100
AcDbEntity
  8
MSR3-0
100
AcDbLine
 10
303.1685415
 20
243.0252723853068
 30
0.0
 11
306.6685425
 21
245.0459988853068
 31
0.0
  0
LINE
  5
D09
330
1A
100
AcDbEntity
  8
MSR3-0
100
AcDbLine
 10
303.1685415
 20
251.1081768853068
 30
0.0
 11
299.668542
 21
249.0874503853067
 31
0.0
  0
LINE
  5
D0A
330
1A
100
AcDbEntity
  8
MSR3-0
100
AcDbLine
 10
295.823241
 20
256.0667253853068
 30
0.0
 11
293.513841
 21
256.0667253853068
 31
0.0
  0
LINE
  5
D0B
330
1A
100
AcDbEntity
  8
MSR3-0
100
AcDbLine
 10
293.513841
 20
252.0667248853067
 30
0.0
 11
294.828795
 21
252.0667248853067
 31
0.0
  0
LINE
  5
D0C
330
1A
100
AcDbEntity
  8
MSR3-0
100
AcDbLine
 10
296.9779425
 20
254.0667243853068
 30
0.0
 11
295.823241
 21
256.0667253853068
 31
0.0
  0
LINE
  5
D0D
330
1A
100
AcDbEntity
  8
MSR3-0
100
AcDbLine
 10
296.3204655
 20
252.9279408853068
 30
0.0
 11
296.9779425
 21
254.0667243853068
 31
0.0
  0
LINE
  5
D0E
330
1A
100
AcDbEntity
  8
MSR3-0
100
AcDbLine
 10
306.6685425
 20
249.0874503853067
 30
0.0
 11
303.1685415
 21
251.1081768853068
 31
0.0
  0
LINE
  5
D0F
330
1A
100
AcDbEntity
  8
MSR3-0
100
AcDbLine
 10
289.6685415000001
 20
271.9087623853068
 30
0.0
 11
297.1685415000001
 21
267.5786343853068
 31
0.0
  0
LINE
  5
D10
330
1A
100
AcDbEntity
  8
MSR3-0
100
AcDbLine
 10
297.1685415000001
 20
267.5786343853068
 30
0.0
 11
304.6685415000001
 21
271.9087623853068
 31
0.0
  0
LINE
  5
D11
330
1A
100
AcDbEntity
  8
MSR3-7
100
AcDbLine
 10
296.16854175
 20
298.2123648853068
 30
0.0
 11
296.16854175
 21
282.2623638853067
 31
0.0
  0
LINE
  5
D12
330
1A
100
AcDbEntity
  8
MSR3-2
100
AcDbLine
 10
290.168541
 20
295.0667253853067
 30
0.0
 11
290.168541
 21
282.7388883853068
 31
0.0
  0
LINE
  5
D13
330
1A
100
AcDbEntity
  8
MSR3-0
100
AcDbLine
 10
297.1685415000001
 20
284.8991433853067
 30
0.0
 11
289.6685415000001
 21
280.5690153853068
 31
0.0
  0
LINE
  5
D14
330
1A
100
AcDbEntity
  8
MSR3-2
100
AcDbLine
 10
290.168541
 20
282.7388883853068
 30
0.0
 11
293.426871
 21
282.7388883853068
 31
0.0
  0
LINE
  5
D15
330
1A
100
AcDbEntity
  8
MSR3-7
100
AcDbLine
 10
287.849469
 20
276.2388888853068
 30
0.0
 11
306.701031
 21
276.2388888853068
 31
0.0
  0
LINE
  5
D16
330
1A
100
AcDbEntity
  8
MSR3-0
100
AcDbLine
 10
290.168541
 20
282.2388888853068
 30
0.0
 11
292.560846
 21
282.2388888853068
 31
0.0
  0
LINE
  5
D17
330
1A
100
AcDbEntity
  8
MSR3-0
100
AcDbLine
 10
290.168541
 20
282.2388888853068
 30
0.0
 11
290.168541
 21
280.8576903853067
 31
0.0
  0
LINE
  5
D18
330
1A
100
AcDbEntity
  8
MSR3-0
100
AcDbLine
 10
304.6685415000001
 20
280.5690153853068
 30
0.0
 11
297.1685415000001
 21
284.8991433853067
 31
0.0
  0
LINE
  5
D19
330
1A
100
AcDbEntity
  8
MSR3-0
100
AcDbLine
 10
299.668542
 20
277.6822653853067
 30
0.0
 11
297.1685415000001
 21
279.1256403853067
 31
0.0
  0
LINE
  5
D1A
330
1A
100
AcDbEntity
  8
MSR3-0
100
AcDbLine
 10
299.668542
 20
274.7955123853067
 30
0.0
 11
299.668542
 21
277.6822653853067
 31
0.0
  0
LINE
  5
D1B
330
1A
100
AcDbEntity
  8
MSR3-0
100
AcDbLine
 10
294.668541
 20
277.6822653853067
 30
0.0
 11
294.668541
 21
274.7955123853067
 31
0.0
  0
LINE
  5
D1C
330
1A
100
AcDbEntity
  8
MSR3-0
100
AcDbLine
 10
294.668541
 20
274.7955123853067
 30
0.0
 11
294.668541
 21
274.7955123853067
 31
0.0
  0
LINE
  5
D1D
330
1A
100
AcDbEntity
  8
MSR3-0
100
AcDbLine
 10
294.668541
 20
274.7955123853067
 30
0.0
 11
294.668541
 21
274.7955123853067
 31
0.0
  0
LINE
  5
D1E
330
1A
100
AcDbEntity
  8
MSR3-0
100
AcDbLine
 10
297.1685415000001
 20
279.1256403853067
 30
0.0
 11
294.668541
 21
277.6822653853067
 31
0.0
  0
LINE
  5
D1F
330
1A
100
AcDbEntity
  8
MSR3-2
100
AcDbLine
 10
305.1685425
 20
282.7388883853068
 30
0.0
 11
305.1685425
 21
282.2388888853068
 31
0.0
  0
LINE
  5
D20
330
1A
100
AcDbEntity
  8
MSR3-0
100
AcDbLine
 10
335.668542
 20
280.5690153853068
 30
0.0
 11
335.668542
 21
271.9087623853068
 31
0.0
  0
LINE
  5
D21
330
1A
100
AcDbEntity
  8
MSR3-7
100
AcDbLine
 10
343.168542
 20
286.2929853853067
 30
0.0
 11
343.168542
 21
265.9531413853067
 31
0.0
  0
CIRCLE
  5
D22
330
1A
100
AcDbEntity
  8
MSR3-0
100
AcDbCircle
 10
343.168542
 20
276.2388888853068
 30
0.0
 40
4.9999995
  0
ARC
  5
D23
330
1A
100
AcDbEntity
  8
MSR3-0
100
AcDbCircle
 10
343.168542
 20
276.2388888853068
 30
0.0
 40
4.5
100
AcDbArc
 50
270.000003
 51
192.809307
  0
LINE
  5
D24
330
1A
100
AcDbEntity
  8
MSR3-0
100
AcDbLine
 10
350.668542
 20
271.9087623853068
 30
0.0
 11
350.668542
 21
280.5690153853068
 31
0.0
  0
LINE
  5
D25
330
1A
100
AcDbEntity
  8
MSR3-0
100
AcDbLine
 10
340.6685415
 20
274.7955123853067
 30
0.0
 11
343.168542
 21
273.3521373853067
 31
0.0
  0
LINE
  5
D26
330
1A
100
AcDbEntity
  8
MSR3-0
100
AcDbLine
 10
343.168542
 20
273.3521373853067
 30
0.0
 11
345.6685425000001
 21
274.7955123853067
 31
0.0
  0
LINE
  5
D27
330
1A
100
AcDbEntity
  8
MSR3-0
100
AcDbLine
 10
337.168542
 20
251.1081768853068
 30
0.0
 11
333.6685425000001
 21
249.0874503853067
 31
0.0
  0
LINE
  5
D28
330
1A
100
AcDbEntity
  8
MSR3-0
100
AcDbLine
 10
333.6685425000001
 20
245.0459988853068
 30
0.0
 11
337.168542
 21
243.0252723853068
 31
0.0
  0
ARC
  5
D29
330
1A
100
AcDbEntity
  8
MSR3-0
100
AcDbCircle
 10
337.168542
 20
247.0667238853068
 30
0.0
 40
6.499999500000001
100
AcDbArc
 50
270.000003
 51
192.124996
  0
CIRCLE
  5
D2A
330
1A
100
AcDbEntity
  8
MSR3-0
100
AcDbCircle
 10
337.168542
 20
247.0667238853068
 30
0.0
 40
7.000000499999998
  0
LINE
  5
D2B
330
1A
100
AcDbEntity
  8
MSR3-7
100
AcDbLine
 10
328.6685415
 20
247.0667238853068
 30
0.0
 11
347.182281
 21
247.0667238853068
 31
0.0
  0
LINE
  5
D2C
330
1A
100
AcDbEntity
  8
MSR3-0
100
AcDbLine
 10
337.168542
 20
256.8816798853068
 30
0.0
 11
328.6685415
 21
251.9742033853067
 31
0.0
  0
LINE
  5
D2D
330
1A
100
AcDbEntity
  8
MSR3-0
100
AcDbLine
 10
320.1685425000001
 20
264.5667243853068
 30
0.0
 11
350.1685425000001
 21
264.5667243853068
 31
0.0
  0
LINE
  5
D2E
330
1A
100
AcDbEntity
  8
MSR3-7
100
AcDbLine
 10
320.1685425000001
 20
263.8053798853068
 30
0.0
 11
320.1685425000001
 21
255.9839508853068
 31
0.0
  0
LINE
  5
D2F
330
1A
100
AcDbEntity
  8
MSR3-0
100
AcDbLine
 10
311.668542
 20
251.9742033853067
 30
0.0
 11
311.668542
 21
242.1592473853067
 31
0.0
  0
LINE
  5
D30
330
1A
100
AcDbEntity
  8
MSR3-0
100
AcDbLine
 10
333.6685425000001
 20
249.0874503853067
 30
0.0
 11
333.6685425000001
 21
245.0459988853068
 31
0.0
  0
LINE
  5
D31
330
1A
100
AcDbEntity
  8
MSR3-0
100
AcDbLine
 10
328.6685415
 20
251.9742033853067
 30
0.0
 11
328.6685415
 21
242.1592473853067
 31
0.0
  0
LINE
  5
D32
330
1A
100
AcDbEntity
  8
MSR3-0
100
AcDbLine
 10
333.6685425000001
 20
245.0459988853068
 30
0.0
 11
333.6685425000001
 21
245.0459988853068
 31
0.0
  0
LINE
  5
D33
330
1A
100
AcDbEntity
  8
MSR3-0
100
AcDbLine
 10
333.6685425000001
 20
245.0459988853068
 30
0.0
 11
333.6685425000001
 21
245.0459988853068
 31
0.0
  0
CIRCLE
  5
D34
330
1A
100
AcDbEntity
  8
MSR3-0
100
AcDbCircle
 10
320.1685425000001
 20
260.0667243853068
 30
0.0
 40
2.099999999999999
  0
ARC
  5
D35
330
1A
100
AcDbEntity
  8
MSR3-4
100
AcDbCircle
 10
320.1685425000001
 20
260.0667243853068
 30
0.0
 40
2.5
100
AcDbArc
 50
180.0
 51
90.0
  0
LINE
  5
D36
330
1A
100
AcDbEntity
  8
MSR3-7
100
AcDbLine
 10
316.1319345
 20
260.0667243853068
 30
0.0
 11
324.346221
 21
260.0667243853068
 31
0.0
  0
LINE
  5
D37
330
1A
100
AcDbEntity
  8
MSR3-0
100
AcDbLine
 10
345.6685425000001
 20
251.9742033853067
 30
0.0
 11
337.168542
 21
256.8816798853068
 31
0.0
  0
LINE
  5
D38
330
1A
100
AcDbEntity
  8
MSR3-7
100
AcDbLine
 10
345.6685425000001
 20
258.9086103853067
 30
0.0
 11
345.6685425000001
 21
252.0667248853067
 31
0.0
  0
ARC
  5
D39
330
1A
100
AcDbEntity
  8
MSR3-0
100
AcDbCircle
 10
345.6685425000001
 20
254.0667243853068
 30
0.0
 40
3.75
100
AcDbArc
 50
270.000003
 51
178.897712
  0
LINE
  5
D3A
330
1A
100
AcDbEntity
  8
MSR3-7
100
AcDbLine
 10
353.600256
 20
237.8221338853067
 30
0.0
 11
342.9002565
 21
237.8221338853067
 31
0.0
  0
LINE
  5
D3B
330
1A
100
AcDbEntity
  8
MSR3-3
100
AcDbLine
 10
345.3337665
 20
240.3221343853068
 30
0.0
 11
350.1685425000001
 21
240.3221343853068
 31
0.0
  0
LINE
  5
D3C
330
1A
100
AcDbEntity
  8
MSR3-3
100
AcDbLine
 10
345.3337665
 20
239.9221338853067
 30
0.0
 11
350.1685425000001
 21
239.9221338853067
 31
0.0
  0
LINE
  5
D3D
330
1A
100
AcDbEntity
  8
MSR3-7
100
AcDbLine
 10
342.044187
 20
254.0667243853068
 30
0.0
 11
350.1685425000001
 21
254.0667243853068
 31
0.0
  0
LINE
  5
D3E
330
1A
100
AcDbEntity
  8
MSR3-0
100
AcDbLine
 10
345.6685425000001
 20
242.1592473853067
 30
0.0
 11
345.6685425000001
 21
251.9742033853067
 31
0.0
  0
LINE
  5
D3F
330
1A
100
AcDbEntity
  8
MSR3-0
100
AcDbLine
 10
340.6685415
 20
245.0459988853068
 30
0.0
 11
340.6685415
 21
249.0874503853067
 31
0.0
  0
LINE
  5
D40
330
1A
100
AcDbEntity
  8
MSR3-0
100
AcDbLine
 10
337.168542
 20
243.0252723853068
 30
0.0
 11
340.6685415
 21
245.0459988853068
 31
0.0
  0
LINE
  5
D41
330
1A
100
AcDbEntity
  8
MSR3-0
100
AcDbLine
 10
340.6685415
 20
249.0874503853067
 30
0.0
 11
337.168542
 21
251.1081768853068
 31
0.0
  0
LINE
  5
D42
330
1A
100
AcDbEntity
  8
MSR3-0
100
AcDbLine
 10
346.8232425
 20
256.0667253853068
 30
0.0
 11
347.9779425
 21
254.0667243853068
 31
0.0
  0
LINE
  5
D43
330
1A
100
AcDbEntity
  8
MSR3-0
100
AcDbLine
 10
347.9779425
 20
254.0667243853068
 30
0.0
 11
346.8232425
 21
252.0667248853067
 31
0.0
  0
LINE
  5
D44
330
1A
100
AcDbEntity
  8
MSR3-0
100
AcDbLine
 10
346.8232425
 20
252.0667248853067
 30
0.0
 11
345.5082885
 21
252.0667248853067
 31
0.0
  0
LINE
  5
D45
330
1A
100
AcDbEntity
  8
MSR3-0
100
AcDbLine
 10
343.359141
 20
254.0667243853068
 30
0.0
 11
344.513841
 21
256.0667253853068
 31
0.0
  0
LINE
  5
D46
330
1A
100
AcDbEntity
  8
MSR3-0
100
AcDbLine
 10
344.016618
 20
252.9279408853068
 30
0.0
 11
343.359141
 21
254.0667243853068
 31
0.0
  0
LINE
  5
D47
330
1A
100
AcDbEntity
  8
MSR3-0
100
AcDbLine
 10
344.513841
 20
256.0667253853068
 30
0.0
 11
346.8232425
 21
256.0667253853068
 31
0.0
  0
LINE
  5
D48
330
1A
100
AcDbEntity
  8
MSR3-0
100
AcDbLine
 10
343.168542
 20
267.5786343853068
 30
0.0
 11
350.668542
 21
271.9087623853068
 31
0.0
  0
LINE
  5
D49
330
1A
100
AcDbEntity
  8
MSR3-0
100
AcDbLine
 10
335.668542
 20
271.9087623853068
 30
0.0
 11
343.168542
 21
267.5786343853068
 31
0.0
  0
LINE
  5
D4A
330
1A
100
AcDbEntity
  8
MSR3-0
100
AcDbLine
 10
335.668542
 20
271.9087623853068
 30
0.0
 11
335.668542
 21
271.9087623853068
 31
0.0
  0
LINE
  5
D4B
330
1A
100
AcDbEntity
  8
MSR3-0
100
AcDbLine
 10
335.668542
 20
271.9087623853068
 30
0.0
 11
335.668542
 21
271.9087623853068
 31
0.0
  0
LINE
  5
D4C
330
1A
100
AcDbEntity
  8
MSR3-7
100
AcDbLine
 10
334.085406
 20
276.2388888853068
 30
0.0
 11
352.044
 21
276.2388888853068
 31
0.0
  0
LINE
  5
D4D
330
1A
100
AcDbEntity
  8
MSR3-2
100
AcDbLine
 10
335.1685425000001
 20
282.7388883853068
 30
0.0
 11
335.1685425000001
 21
282.2388888853068
 31
0.0
  0
LINE
  5
D4E
330
1A
100
AcDbEntity
  8
MSR3-2
100
AcDbLine
 10
350.1685425000001
 20
295.0667253853067
 30
0.0
 11
350.1685425000001
 21
282.7388883853068
 31
0.0
  0
LINE
  5
D4F
330
1A
100
AcDbEntity
  8
MSR3-7
100
AcDbLine
 10
344.16854325
 20
298.0345863853068
 30
0.0
 11
344.16854325
 21
280.5345858853067
 31
0.0
  0
LINE
  5
D50
330
1A
100
AcDbEntity
  8
MSR3-0
100
AcDbLine
 10
350.668542
 20
280.5690153853068
 30
0.0
 11
343.168542
 21
284.8991433853067
 31
0.0
  0
LINE
  5
D51
330
1A
100
AcDbEntity
  8
MSR3-2
100
AcDbLine
 10
346.9102125
 20
282.7388883853068
 30
0.0
 11
350.1685425000001
 21
282.7388883853068
 31
0.0
  0
LINE
  5
D52
330
1A
100
AcDbEntity
  8
MSR3-0
100
AcDbLine
 10
347.7762375
 20
282.2388888853068
 30
0.0
 11
350.1685425000001
 21
282.2388888853068
 31
0.0
  0
LINE
  5
D53
330
1A
100
AcDbEntity
  8
MSR3-0
100
AcDbLine
 10
343.168542
 20
284.8991433853067
 30
0.0
 11
335.668542
 21
280.5690153853068
 31
0.0
  0
LINE
  5
D54
330
1A
100
AcDbEntity
  8
MSR3-0
100
AcDbLine
 10
343.168542
 20
279.1256403853067
 30
0.0
 11
340.6685415
 21
277.6822653853067
 31
0.0
  0
LINE
  5
D55
330
1A
100
AcDbEntity
  8
MSR3-0
100
AcDbLine
 10
340.6685415
 20
277.6822653853067
 30
0.0
 11
340.6685415
 21
274.7955123853067
 31
0.0
  0
LINE
  5
D56
330
1A
100
AcDbEntity
  8
MSR3-0
100
AcDbLine
 10
340.6685415
 20
274.7955123853067
 30
0.0
 11
340.6685415
 21
274.7955123853067
 31
0.0
  0
LINE
  5
D57
330
1A
100
AcDbEntity
  8
MSR3-0
100
AcDbLine
 10
340.6685415
 20
274.7955123853067
 30
0.0
 11
340.6685415
 21
274.7955123853067
 31
0.0
  0
LINE
  5
D58
330
1A
100
AcDbEntity
  8
MSR3-0
100
AcDbLine
 10
345.6685425000001
 20
274.7955123853067
 30
0.0
 11
345.6685425000001
 21
277.6822653853067
 31
0.0
  0
LINE
  5
D59
330
1A
100
AcDbEntity
  8
MSR3-0
100
AcDbLine
 10
345.6685425000001
 20
277.6822653853067
 30
0.0
 11
343.168542
 21
279.1256403853067
 31
0.0
  0
LINE
  5
D5A
330
1A
100
AcDbEntity
  8
MSR3-0
100
AcDbLine
 10
350.1685425000001
 20
282.2388888853068
 30
0.0
 11
350.1685425000001
 21
280.8576903853067
 31
0.0
  0
LINE
  5
D5B
330
1A
100
AcDbEntity
  8
MSR3-2
100
AcDbLine
 10
335.4285405
 20
295.0667253853067
 30
0.0
 11
340.168542
 21
295.0667253853067
 31
0.0
  0
POINT
  5
D5C
330
1A
100
AcDbEntity
  8
0
 60
     1
100
AcDbPoint
 10
0.0
 20
0.0
 30
0.0
1001
GENIUS_GENODEF_13
1002
{
1000
HIER
1070
   200
1002
}
1002
{
1000
MANEDIT
1070
     0
1002
}
1002
{
1000
NOSEL
1070
     0
1002
}
1002
{
1000
BEHIND
1070
     0
1002
}
1002
{
1000
REACTOR
1002
}
1001
GENIUS_GENOBJ-F-PART_13
1002
{
1000
OWNER
1000
GEF
1002
}
1001
GENIUS_GEFSTDP_13
1002
{
1000
SUG
1000
M
1040
8.0
1002
}
1002
{
1000
DSC
1000
DSC
1002
{
1000
~DESCR
1000
 
1000
~STDRT
1002
}
1002
}
1002
{
1000
KEY
1000
THRT
1002
}
1002
{
1000
INS
1002
{
1040
208.3405845
1040
53.266206
1040
0.0
1002
}
1002
}
1002
{
1000
ANG
1040
0.0
1002
}
1002
{
1000
VCC
1002
{
1000
$PRE=M
1000
$NND=8.000000000000000E+00
1000
-RBDESCR
1000
-RBSTDRT
1000
-RBGD1
1000
-RBLOTI
1000
-V$PV_GENSYSTEM"gef\val\di\0401\di1616_d.dxf"
1000
$VCC_TABLE=$PV_GENSYSTEM"gef\val\di\0401\di1616.val"
1000
$GEF_CDIST=3.000000000000000E+00
1000
$GEF_DRAG=1
1000
$GEF_STANG=2.100000000000000E+02
1000
$GEF_OANG=7.000000000000000E+01
1000
$GEVPROMPTX= Länge: 
1000
$GEF_SNK_ADD=0.000000000000000E+00
1000
$GEF_FLIPX=1
1000
$GEF_FLIPY=1
1000
-GRPNAME0?
1000
-GRPNAME1?
1000
-BAML2
1000
$GEF_PROCALC=1
1002
}
1002
}
1002
{
1000
LST
1002
{
1002
{
1000
GROUP
1000
0401
1002
}
1002
{
1000
VIEW
1000
D
1002
}
1002
{
1000
SFILE
1000
$PV_GENSYSTEM"gef\val\di\0401\di1616_d.dxf"
1002
}
1002
{
1000
ST1
1000
$PV_GENSYSTEM"gef\val\di\0401\di1616.val"
1002
}
1002
{
1000
GENASSO
1000
 
1002
}
1002
}
1002
}
1002
{
1000
RET
1002
{
1002
{
1000
LOTI
1002
}
1002
{
1000
GD1
1000
6.647
1002
}
1002
{
1000
STDRT
1000
DIN 13 - M8
1002
}
1002
{
1000
DESCR
1000
Metrisches ISO-Gewinde
1002
}
1002
}
1002
}
1002
{
1000
SYSTEM
1040
1.0
1002
}
1002
{
1000
INFEL
1002
{
1002
}
1002
}
1001
GENIUS_GENOENT_13
1002
{
1000
MYREF
1005
D5C
1002
}
1002
{
1000
GRP
1005
0
1002
}
1001
GENIUS_GENOLIS_13
1002
{
1000
ENT
1005
BEA
1002
}
  0
POINT
  5
D5D
330
1A
100
AcDbEntity
  8
0
 60
     1
100
AcDbPoint
 10
0.0
 20
0.0
 30
0.0
1001
GENIUS_GENBH_13
1002
{
1000
BGO
1005
D5E
1002
}
1002
{
1000
FGLEVEL
1040
2.000000009999999
1002
}
1002
{
1000
FLAGS
1070
    36
1002
}
1002
{
1000
OIUMAP
1000
OIU
1002
}
1002
{
1000
MODIFY
1070
     0
1002
}
1001
GENIUS_GENODEF_13
1002
{
1000
HIER
1070
     1
1002
}
1002
{
1000
MANEDIT
1070
     0
1002
}
1002
{
1000
NOSEL
1070
     1
1002
}
1002
{
1000
BEHIND
1070
     0
1002
}
1002
{
1000
REACTOR
1002
}
1001
GENIUS_GENOBJ-NBEHI-BHF_13
1002
{
1000
OWNER
1000
GENBEHI
1002
}
1001
GENIUS_GENOENT_13
1002
{
1000
MYREF
1005
D5D
1002
}
1002
{
1000
GRP
1005
0
1002
}
1001
GENIUS_GENOLIS_13
1002
{
1000
ENT
1005
BEA
1002
}
  0
POINT
  5
D5E
330
1A
100
AcDbEntity
  8
0
 60
     1
100
AcDbPoint
 10
0.0
 20
0.0
 30
0.0
1001
GENIUS_GENBH_13
1002
{
1000
FGO
1005
D5D
1002
}
1001
GENIUS_GENODEF_13
1002
{
1000
HIER
1070
     1
1002
}
1002
{
1000
MANEDIT
1070
     0
1002
}
1002
{
1000
NOSEL
1070
     1
1002
}
1002
{
1000
BEHIND
1070
     0
1002
}
1002
{
1000
REACTOR
1002
}
1001
GENIUS_GENOBJ-NBEHI-BHB_13
1002
{
1000
OWNER
1000
GENBEHI
1002
}
1001
GENIUS_GENOENT_13
1002
{
1000
MYREF
1005
D5E
1002
}
1002
{
1000
GRP
1005
0
1002
}
1001
GENIUS_GENOLIS_13
1002
{
1000
ENT
1005
BE9
1005
BED
1002
}
  0
POINT
  5
D5F
330
1A
100
AcDbEntity
  8
0
 60
     1
100
AcDbPoint
 10
0.0
 20
0.0
 30
0.0
1001
GENIUS_GENBH_13
1002
{
1000
FGO
1005
D61
1002
}
1001
GENIUS_GENODEF_13
1002
{
1000
HIER
1070
     1
1002
}
1002
{
1000
MANEDIT
1070
     0
1002
}
1002
{
1000
NOSEL
1070
     1
1002
}
1002
{
1000
BEHIND
1070
     0
1002
}
1002
{
1000
REACTOR
1002
}
1001
GENIUS_GENOBJ-NBEHI-BHB_13
1002
{
1000
OWNER
1000
GENBEHI
1002
}
1001
GENIUS_GENOENT_13
1002
{
1000
MYREF
1005
D5F
1002
}
1002
{
1000
GRP
1005
0
1002
}
1001
GENIUS_GENOLIS_13
1002
{
1000
ENT
1005
BDB
1005
BDD
1002
}
  0
POINT
  5
D60
330
1A
100
AcDbEntity
  8
0
 60
     1
100
AcDbPoint
 10
0.0
 20
0.0
 30
0.0
1001
GENIUS_GENODEF_13
1002
{
1000
HIER
1070
   200
1002
}
1002
{
1000
MANEDIT
1070
     0
1002
}
1002
{
1000
NOSEL
1070
     0
1002
}
1002
{
1000
BEHIND
1070
     0
1002
}
1002
{
1000
REACTOR
1002
}
1001
GENIUS_GENOBJ-F-PART_13
1002
{
1000
OWNER
1000
GEF
1002
}
1001
GENIUS_GEFSTDP_13
1002
{
1000
DSC
1000
DSC
1002
{
1000
~DESCR
1000
 
1000
~STDRT
1002
}
1002
}
1002
{
1000
SUG
1000
M
1040
8.0
1002
}
1002
{
1000
KEY
1000
THRT
1002
}
1002
{
1000
INS
1002
{
1040
160.3405829999999
1040
53.266206
1040
0.0
1002
}
1002
}
1002
{
1000
ANG
1040
0.0
1002
}
1002
{
1000
VCC
1002
{
1000
$PRE=M
1000
$NND=8.000000000000000E+00
1000
-RBDESCR
1000
-RBSTDRT
1000
-RBGD1
1000
-RBLOTI
1000
-V$PV_GENSYSTEM"gef\val\di\0401\di1616_d.dxf"
1000
$VCC_TABLE=$PV_GENSYSTEM"gef\val\di\0401\di1616.val"
1000
$GEF_CDIST=3.000000000000000E+00
1000
$GEF_DRAG=1
1000
$GEF_STANG=2.100000000000000E+02
1000
$GEF_OANG=7.000000000000000E+01
1000
$GEVPROMPTX= Länge: 
1000
$GEF_SNK_ADD=0.000000000000000E+00
1000
$GEF_FLIPX=1
1000
$GEF_FLIPY=1
1000
-GRPNAME0?
1000
-GRPNAME1?
1000
-BAML2
1000
$GEF_PROCALC=1
1002
}
1002
}
1002
{
1000
LST
1002
{
1002
{
1000
GROUP
1000
0401
1002
}
1002
{
1000
VIEW
1000
D
1002
}
1002
{
1000
SFILE
1000
$PV_GENSYSTEM"gef\val\di\0401\di1616_d.dxf"
1002
}
1002
{
1000
ST1
1000
$PV_GENSYSTEM"gef\val\di\0401\di1616.val"
1002
}
1002
{
1000
GENASSO
1000
 
1002
}
1002
}
1002
}
1002
{
1000
RET
1002
{
1002
{
1000
LOTI
1002
}
1002
{
1000
GD1
1000
6.647
1002
}
1002
{
1000
STDRT
1000
DIN 13 - M8
1002
}
1002
{
1000
DESCR
1000
Metrisches ISO-Gewinde
1002
}
1002
}
1002
}
1002
{
1000
SYSTEM
1040
1.0
1002
}
1002
{
1000
INFEL
1002
{
1002
}
1002
}
1001
GENIUS_GENOENT_13
1002
{
1000
MYREF
1005
D60
1002
}
1002
{
1000
GRP
1005
0
1002
}
1001
GENIUS_GENOLIS_13
1002
{
1000
ENT
1005
BDA
1002
}
  0
POINT
  5
D61
330
1A
100
AcDbEntity
  8
0
 60
     1
100
AcDbPoint
 10
0.0
 20
0.0
 30
0.0
1001
GENIUS_GENBH_13
1002
{
1000
BGO
1005
D5F
1002
}
1002
{
1000
FGLEVEL
1040
1.000000009999999
1002
}
1002
{
1000
FLAGS
1070
    36
1002
}
1002
{
1000
OIUMAP
1000
OIU
1002
}
1002
{
1000
MODIFY
1070
     0
1002
}
1001
GENIUS_GENODEF_13
1002
{
1000
HIER
1070
     1
1002
}
1002
{
1000
MANEDIT
1070
     0
1002
}
1002
{
1000
NOSEL
1070
     1
1002
}
1002
{
1000
BEHIND
1070
     0
1002
}
1002
{
1000
REACTOR
1002
}
1001
GENIUS_GENOBJ-NBEHI-BHF_13
1002
{
1000
OWNER
1000
GENBEHI
1002
}
1001
GENIUS_GENOENT_13
1002
{
1000
MYREF
1005
D61
1002
}
1002
{
1000
GRP
1005
0
1002
}
1001
GENIUS_GENOLIS_13
1002
{
1000
ENT
1005
BDA
1002
}
  0
POINT
  5
D62
330
1A
100
AcDbEntity
  8
0
 60
     1
100
AcDbPoint
 10
0.0
 20
0.0
 30
0.0
1001
GENIUS_GENODEF_13
1002
{
1000
HIER
1070
   200
1002
}
1002
{
1000
MANEDIT
1070
     0
1002
}
1002
{
1000
NOSEL
1070
     0
1002
}
1002
{
1000
BEHIND
1070
     0
1002
}
1002
{
1000
REACTOR
1002
}
1001
GENIUS_GENOBJ-F-PART_13
1002
{
1000
OWNER
1000
GEF
1002
}
1001
GENIUS_GEFSTDP_13
1002
{
1000
SUG
1000
M
1040
8.0
1002
}
1002
{
1000
DSC
1000
DSC
1002
{
1000
~DESCR
1000
 
1000
~STDRT
1002
}
1002
}
1002
{
1000
KEY
1000
THRT
1002
}
1002
{
1000
INS
1002
{
1040
208.3405845
1040
101.2662075
1040
0.0
1002
}
1002
}
1002
{
1000
ANG
1040
0.0
1002
}
1002
{
1000
VCC
1002
{
1000
$PRE=M
1000
$NND=8.000000000000000E+00
1000
-RBDESCR
1000
-RBSTDRT
1000
-RBGD1
1000
-RBLOTI
1000
-V$PV_GENSYSTEM"gef\val\di\0401\di1616_d.dxf"
1000
$VCC_TABLE=$PV_GENSYSTEM"gef\val\di\0401\di1616.val"
1000
$GEF_CDIST=3.000000000000000E+00
1000
$GEF_DRAG=1
1000
$GEF_STANG=2.100000000000000E+02
1000
$GEF_OANG=7.000000000000000E+01
1000
$GEVPROMPTX= Länge: 
1000
$GEF_SNK_ADD=0.000000000000000E+00
1000
$GEF_FLIPX=1
1000
$GEF_FLIPY=1
1000
-GRPNAME0?
1000
-GRPNAME1?
1000
-BAML2
1000
$GEF_PROCALC=1
1002
}
1002
}
1002
{
1000
LST
1002
{
1002
{
1000
GROUP
1000
0401
1002
}
1002
{
1000
VIEW
1000
D
1002
}
1002
{
1000
SFILE
1000
$PV_GENSYSTEM"gef\val\di\0401\di1616_d.dxf"
1002
}
1002
{
1000
ST1
1000
$PV_GENSYSTEM"gef\val\di\0401\di1616.val"
1002
}
1002
{
1000
GENASSO
1000
 
1002
}
1002
}
1002
}
1002
{
1000
RET
1002
{
1002
{
1000
LOTI
1002
}
1002
{
1000
GD1
1000
6.647
1002
}
1002
{
1000
STDRT
1000
DIN 13 - M8
1002
}
1002
{
1000
DESCR
1000
Metrisches ISO-Gewinde
1002
}
1002
}
1002
}
1002
{
1000
SYSTEM
1040
1.0
1002
}
1002
{
1000
INFEL
1002
{
1002
}
1002
}
1001
GENIUS_GENOENT_13
1002
{
1000
MYREF
1005
D62
1002
}
1002
{
1000
GRP
1005
0
1002
}
1001
GENIUS_GENOLIS_13
1002
{
1000
ENT
1005
BD8
1002
}
  0
POINT
  5
D63
330
1A
100
AcDbEntity
  8
0
 60
     1
100
AcDbPoint
 10
0.0
 20
0.0
 30
0.0
1001
GENIUS_GENBH_13
1002
{
1000
BGO
1005
D67
1002
}
1002
{
1000
FGLEVEL
1040
3.000000009999999
1002
}
1002
{
1000
FLAGS
1070
    36
1002
}
1002
{
1000
OIUMAP
1000
OIU
1002
}
1002
{
1000
MODIFY
1070
     0
1002
}
1001
GENIUS_GENODEF_13
1002
{
1000
HIER
1070
     1
1002
}
1002
{
1000
MANEDIT
1070
     0
1002
}
1002
{
1000
NOSEL
1070
     1
1002
}
1002
{
1000
BEHIND
1070
     0
1002
}
1002
{
1000
REACTOR
1002
}
1001
GENIUS_GENOBJ-NBEHI-BHF_13
1002
{
1000
OWNER
1000
GENBEHI
1002
}
1001
GENIUS_GENOENT_13
1002
{
1000
MYREF
1005
D63
1002
}
1002
{
1000
GRP
1005
0
1002
}
1001
GENIUS_GENOLIS_13
1002
{
1000
ENT
1005
BD8
1002
}
  0
POINT
  5
D64
330
1A
100
AcDbEntity
  8
0
 60
     1
100
AcDbPoint
 10
0.0
 20
0.0
 30
0.0
1001
GENIUS_GENBH_13
1002
{
1000
FGO
1005
D66
1002
}
1001
GENIUS_GENODEF_13
1002
{
1000
HIER
1070
     1
1002
}
1002
{
1000
MANEDIT
1070
     0
1002
}
1002
{
1000
NOSEL
1070
     1
1002
}
1002
{
1000
BEHIND
1070
     0
1002
}
1002
{
1000
REACTOR
1002
}
1001
GENIUS_GENOBJ-NBEHI-BHB_13
1002
{
1000
OWNER
1000
GENBEHI
1002
}
1001
GENIUS_GENOENT_13
1002
{
1000
MYREF
1005
D64
1002
}
1002
{
1000
GRP
1005
0
1002
}
1001
GENIUS_GENOLIS_13
1002
{
1000
ENT
1005
BD7
1005
BF6
1002
}
  0
POINT
  5
D65
330
1A
100
AcDbEntity
  8
0
 60
     1
100
AcDbPoint
 10
0.0
 20
0.0
 30
0.0
1001
GENIUS_GENODEF_13
1002
{
1000
HIER
1070
   200
1002
}
1002
{
1000
MANEDIT
1070
     0
1002
}
1002
{
1000
NOSEL
1070
     0
1002
}
1002
{
1000
BEHIND
1070
     0
1002
}
1002
{
1000
REACTOR
1002
}
1001
GENIUS_GENOBJ-F-PART_13
1002
{
1000
OWNER
1000
GEF
1002
}
1001
GENIUS_GEFSTDP_13
1002
{
1000
SUG
1000
M
1040
8.0
1002
}
1002
{
1000
DSC
1000
DSC
1002
{
1000
~DESCR
1000
 
1000
~STDRT
1002
}
1002
}
1002
{
1000
KEY
1000
THRT
1002
}
1002
{
1000
INS
1002
{
1040
160.3405829999999
1040
101.2662075
1040
0.0
1002
}
1002
}
1002
{
1000
ANG
1040
0.0
1002
}
1002
{
1000
VCC
1002
{
1000
$PRE=M
1000
$NND=8.000000000000000E+00
1000
-RBDESCR
1000
-RBSTDRT
1000
-RBGD1
1000
-RBLOTI
1000
-V$PV_GENSYSTEM"gef\val\di\0401\di1616_d.dxf"
1000
$VCC_TABLE=$PV_GENSYSTEM"gef\val\di\0401\di1616.val"
1000
$GEF_CDIST=3.000000000000000E+00
1000
$GEF_DRAG=1
1000
$GEF_STANG=2.100000000000000E+02
1000
$GEF_OANG=7.000000000000000E+01
1000
$GEVPROMPTX= Länge: 
1000
$GEF_SNK_ADD=0.000000000000000E+00
1000
$GEF_FLIPX=1
1000
$GEF_FLIPY=1
1000
-GRPNAME0?
1000
-GRPNAME1?
1000
-BAML2
1000
$GEF_PROCALC=1
1002
}
1002
}
1002
{
1000
LST
1002
{
1002
{
1000
GROUP
1000
0401
1002
}
1002
{
1000
VIEW
1000
D
1002
}
1002
{
1000
SFILE
1000
$PV_GENSYSTEM"gef\val\di\0401\di1616_d.dxf"
1002
}
1002
{
1000
ST1
1000
$PV_GENSYSTEM"gef\val\di\0401\di1616.val"
1002
}
1002
{
1000
GENASSO
1000
 
1002
}
1002
}
1002
}
1002
{
1000
RET
1002
{
1002
{
1000
LOTI
1002
}
1002
{
1000
GD1
1000
6.647
1002
}
1002
{
1000
STDRT
1000
DIN 13 - M8
1002
}
1002
{
1000
DESCR
1000
Metrisches ISO-Gewinde
1002
}
1002
}
1002
}
1002
{
1000
SYSTEM
1040
1.0
1002
}
1002
{
1000
INFEL
1002
{
1002
}
1002
}
1001
GENIUS_GENOENT_13
1002
{
1000
MYREF
1005
D65
1002
}
1002
{
1000
GRP
1005
0
1002
}
1001
GENIUS_GENOLIS_13
1002
{
1000
ENT
1005
BD3
1002
}
  0
POINT
  5
D66
330
1A
100
AcDbEntity
  8
0
 60
     1
100
AcDbPoint
 10
0.0
 20
0.0
 30
0.0
1001
GENIUS_GENBH_13
1002
{
1000
BGO
1005
D64
1002
}
1002
{
1000
FGLEVEL
1040
4.000000009999999
1002
}
1002
{
1000
FLAGS
1070
    36
1002
}
1002
{
1000
OIUMAP
1000
OIU
1002
}
1002
{
1000
MODIFY
1070
     0
1002
}
1001
GENIUS_GENODEF_13
1002
{
1000
HIER
1070
     1
1002
}
1002
{
1000
MANEDIT
1070
     0
1002
}
1002
{
1000
NOSEL
1070
     1
1002
}
1002
{
1000
BEHIND
1070
     0
1002
}
1002
{
1000
REACTOR
1002
}
1001
GENIUS_GENOBJ-NBEHI-BHF_13
1002
{
1000
OWNER
1000
GENBEHI
1002
}
1001
GENIUS_GENOENT_13
1002
{
1000
MYREF
1005
D66
1002
}
1002
{
1000
GRP
1005
0
1002
}
1001
GENIUS_GENOLIS_13
1002
{
1000
ENT
1005
BD3
1002
}
  0
POINT
  5
D67
330
1A
100
AcDbEntity
  8
0
 60
     1
100
AcDbPoint
 10
0.0
 20
0.0
 30
0.0
1001
GENIUS_GENBH_13
1002
{
1000
FGO
1005
D63
1002
}
1001
GENIUS_GENODEF_13
1002
{
1000
HIER
1070
     1
1002
}
1002
{
1000
MANEDIT
1070
     0
1002
}
1002
{
1000
NOSEL
1070
     1
1002
}
1002
{
1000
BEHIND
1070
     0
1002
}
1002
{
1000
REACTOR
1002
}
1001
GENIUS_GENOBJ-NBEHI-BHB_13
1002
{
1000
OWNER
1000
GENBEHI
1002
}
1001
GENIUS_GENOENT_13
1002
{
1000
MYREF
1005
D67
1002
}
1002
{
1000
GRP
1005
0
1002
}
1001
GENIUS_GENOLIS_13
1002
{
1000
ENT
1005
C00
1005
BD1
1002
}
  0
ENDSEC
  0
SECTION
  2
OBJECTS
  0
DICTIONARY
  5
C
330
0
100
AcDbDictionary
281
     1
  3
ACAD_COLOR
350
DD6
  3
ACAD_GROUP
350
D
  3
ACAD_LAYOUT
350
DFE
  3
ACAD_MATERIAL
350
DAC
  3
ACAD_MLEADERSTYLE
350
DFB
  3
ACAD_MLINESTYLE
350
E
  3
ACAD_PLOTSETTINGS
350
DFF
  3
ACAD_PLOTSTYLENAME
350
DAA
  3
ACAD_SCALELIST
350
DD9
  3
ACAD_TABLESTYLE
350
DD7
  3
ACAD_VISUALSTYLE
350
DC5
  3
ACDB_RECOMPOSE_DATA
350
EB9
  3
AcDbVariableDictionary
350
EB0
  3
AcmDictionary
350
E60
  3
AcmSystemVariableManager
350
EC7
  3
AMG
350
E05
  3
AMGSNAPSETTINGS
350
EA9
  3
DWGPROPS
350
EBA
  0
DICTIONARY
  5
DD6
102
{ACAD_REACTORS
330
C
102
}
330
C
100
AcDbDictionary
281
     1
  0
DICTIONARY
  5
D
102
{ACAD_REACTORS
330
C
102
}
330
C
100
AcDbDictionary
281
     1
  0
DICTIONARY
  5
DFE
102
{ACAD_REACTORS
330
C
102
}
330
C
100
AcDbDictionary
281
     1
  3
Layout1
350
E01
  3
Model
350
E00
  0
DICTIONARY
  5
DAC
102
{ACAD_REACTORS
330
C
102
}
330
C
100
AcDbDictionary
281
     1
  3
ByBlock
350
DB5
  3
ByLayer
350
DAD
  3
Global
350
DBD
  0
DICTIONARY
  5
DFB
102
{ACAD_REACTORS
330
C
102
}
330
C
100
AcDbDictionary
281
     1
  3
Standard
350
DFC
  0
DICTIONARY
  5
E
102
{ACAD_REACTORS
330
C
102
}
330
C
100
AcDbDictionary
281
     1
  3
STANDARD
350
13
  0
DICTIONARY
  5
DFF
102
{ACAD_REACTORS
330
C
102
}
330
C
100
AcDbDictionary
281
     1
  0
ACDBDICTIONARYWDFLT
  5
DAA
102
{ACAD_REACTORS
330
C
102
}
330
C
100
AcDbDictionary
281
     1
  3
Normal
350
DAB
100
AcDbDictionaryWithDefault
340
DAB
  0
DICTIONARY
  5
DD9
102
{ACAD_REACTORS
330
C
102
}
330
C
100
AcDbDictionary
281
     1
  3
A0
350
DDA
  3
A1
350
DDB
  3
A2
350
DDC
  3
A3
350
DDD
  3
A4
350
DDE
  3
A5
350
DDF
  3
A6
350
DE0
  3
A7
350
DE1
  3
A8
350
DE2
  3
A9
350
DE3
  3
B0
350
DE4
  3
B1
350
DE5
  3
B2
350
DE6
  3
B3
350
DE7
  3
B4
350
DE8
  3
B5
350
DE9
  3
B6
350
DEA
  3
B7
350
DEB
  3
B8
350
DEC
  3
B9
350
DED
  3
C0
350
DEE
  3
C1
350
DEF
  3
C2
350
DF0
  3
C3
350
DF1
  3
C4
350
DF2
  3
C5
350
DF3
  3
C6
350
DF4
  3
C7
350
DF5
  3
C8
350
DF6
  3
C9
350
DF7
  3
D0
350
DF8
  3
D1
350
DF9
  3
D2
350
DFA
  0
DICTIONARY
  5
DD7
102
{ACAD_REACTORS
330
C
102
}
330
C
100
AcDbDictionary
281
     1
  3
Standard
350
DD8
  0
DICTIONARY
  5
DC5
102
{ACAD_REACTORS
330
C
102
}
330
C
100
AcDbDictionary
281
     1
  3
2dWireframe
350
DCB
  3
3D Hidden
350
DCD
  3
3dWireframe
350
DCC
  3
Basic
350
DCA
  3
Brighten
350
DD1
  3
ColorChange
350
DD5
  3
Conceptual
350
DCE
  3
Dim
350
DD0
  3
Facepattern
350
DD4
  3
Flat
350
DC6
  3
FlatWithEdges
350
DC7
  3
Gouraud
350
DC8
  3
GouraudWithEdges
350
DC9
  3
Linepattern
350
DD3
  3
Realistic
350
DCF
  3
Thicken
350
DD2
  0
XRECORD
  5
EB9
102
{ACAD_REACTORS
330
C
102
}
330
C
100
AcDbXrecord
280
     1
 90
        1
330
DD8
  0
DICTIONARY
  5
EB0
102
{ACAD_REACTORS
330
C
102
}
330
C
100
AcDbDictionary
281
     1
  3
CANNOSCALE
350
EB3
  3
CMLEADERSTYLE
350
EB2
  3
CTABLESTYLE
350
EB1
  3
DIMASSOC
350
EB6
  3
INDEXCTL
350
EB5
  3
SORTENTS
350
EB4
  0
DICTIONARY
  5
E60
102
{ACAD_REACTORS
330
C
102
}
330
C
100
AcDbDictionary
281
     1
  3
AcmStdDictionary
350
E6B
  0
DICTIONARY
  5
E05
102
{ACAD_REACTORS
330
C
102
}
330
C
100
AcDbDictionary
281
     1
  0
DICTIONARY
  5
EA9
102
{ACAD_REACTORS
330
C
102
}
330
C
100
AcDbDictionary
281
     1
  0
XRECORD
  5
EBA
102
{ACAD_REACTORS
330
C
102
}
330
C
100
AcDbXrecord
280
     1
  1
DWGPROPS COOKIE
  2

  3

  4

  6

  7

  8
bauer_sven
  9

300
=
301
=
302
=
303
=
304
=
305
=
306
=
307
=
308
=
309
=
 40
0.0176765277777778
 41
2450847.321136365
 42
2456226.382436678
  1

 90
        0
  0
LAYOUT
  5
E01
102
{ACAD_XDICTIONARY
360
EC1
102
}
102
{ACAD_REACTORS
330
DFE
102
}
330
DFE
100
AcDbPlotSettings
  1

  2
iR 2570CN-010
  4

  6

 40
0.0
 41
0.0
 42
0.0
 43
0.0
 44
0.0
 45
0.0
 46
0.0
 47
0.0
 48
0.0
 49
0.0
140
0.0
141
0.0
142
1.0
143
1.0
 70
   688
 72
     0
 73
     0
 74
     5
  7

 75
    16
147
1.0
148
0.0
149
0.0
100
AcDbLayout
  1
Layout1
 70
     1
 71
     1
 10
0.0
 20
0.0
 11
12.0
 21
9.0
 12
0.0
 22
0.0
 32
0.0
 14
1.000000000000000E+20
 24
1.000000000000000E+20
 34
1.000000000000000E+20
 15
-1.000000000000000E+20
 25
-1.000000000000000E+20
 35
-1.000000000000000E+20
146
0.0
 13
0.0
 23
0.0
 33
0.0
 16
1.0
 26
0.0
 36
0.0
 17
0.0
 27
1.0
 37
0.0
 76
     0
330
17
  0
LAYOUT
  5
E00
102
{ACAD_XDICTIONARY
360
EBF
102
}
102
{ACAD_REACTORS
330
DFE
102
}
330
DFE
100
AcDbPlotSettings
  1

  2
iR 2570CN-010
  4

  6

 40
0.0
 41
0.0
 42
0.0
 43
0.0
 44
0.0
 45
0.0
 46
0.0
 47
0.0
 48
0.0
 49
0.0
140
0.0
141
0.0
142
1.0
143
1.0
 70
  1712
 72
     0
 73
     0
 74
     0
  7

 75
     0
147
1.0
148
0.0
149
0.0
100
AcDbLayout
  1
Model
 70
     1
 71
     0
 10
0.0
 20
0.0
 11
12.0
 21
9.0
 12
0.0
 22
0.0
 32
0.0
 14
0.0
 24
0.0
 34
0.0
 15
0.0
 25
0.0
 35
0.0
146
0.0
 13
0.0
 23
0.0
 33
0.0
 16
1.0
 26
0.0
 36
0.0
 17
0.0
 27
1.0
 37
0.0
 76
     0
330
1A
331
DA8
  0
MATERIAL
  5
DB5
102
{ACAD_XDICTIONARY
360
DB6
102
}
102
{ACAD_REACTORS
330
DAC
102
}
330
DAC
100
AcDbMaterial
  1
ByBlock
 72
     0
 43
0.0208333333333333
 43
0.0
 43
0.0
 43
0.0
 43
0.0
 43
0.0208333333333333
 43
0.0
 43
0.0
 43
0.0
 43
0.0
 43
1.0
 43
0.0
 43
0.0
 43
0.0
 43
0.0
 43
1.0
 77
     0
 47
0.0208333333333333
 47
0.0
 47
0.0
 47
0.0
 47
0.0
 47
0.0208333333333333
 47
0.0
 47
0.0
 47
0.0
 47
0.0
 47
1.0
 47
0.0
 47
0.0
 47
0.0
 47
0.0
 47
1.0
171
     0
 49
0.0208333333333333
 49
0.0
 49
0.0
 49
0.0
 49
0.0
 49
0.0208333333333333
 49
0.0
 49
0.0
 49
0.0
 49
0.0
 49
1.0
 49
0.0
 49
0.0
 49
0.0
 49
0.0
 49
1.0
175
     0
142
0.0208333333333333
142
0.0
142
0.0
142
0.0
142
0.0
142
0.0208333333333333
142
0.0
142
0.0
142
0.0
142
0.0
142
1.0
142
0.0
142
0.0
142
0.0
142
0.0
142
1.0
179
     0
144
0.0208333333333333
144
0.0
144
0.0
144
0.0
144
0.0
144
0.0208333333333333
144
0.0
144
0.0
144
0.0
144
0.0
144
1.0
144
0.0
144
0.0
144
0.0
144
0.0
144
1.0
147
0.0208333333333333
147
0.0
147
0.0
147
0.0
147
0.0
147
0.0208333333333333
147
0.0
147
0.0
147
0.0
147
0.0
147
1.0
147
0.0
147
0.0
147
0.0
147
0.0
147
1.0
  0
MATERIAL
  5
DAD
102
{ACAD_XDICTIONARY
360
DAE
102
}
102
{ACAD_REACTORS
330
DAC
102
}
330
DAC
100
AcDbMaterial
  1
ByLayer
 72
     0
 43
0.0208333333333333
 43
0.0
 43
0.0
 43
0.0
 43
0.0
 43
0.0208333333333333
 43
0.0
 43
0.0
 43
0.0
 43
0.0
 43
1.0
 43
0.0
 43
0.0
 43
0.0
 43
0.0
 43
1.0
 77
     0
 47
0.0208333333333333
 47
0.0
 47
0.0
 47
0.0
 47
0.0
 47
0.0208333333333333
 47
0.0
 47
0.0
 47
0.0
 47
0.0
 47
1.0
 47
0.0
 47
0.0
 47
0.0
 47
0.0
 47
1.0
171
     0
 49
0.0208333333333333
 49
0.0
 49
0.0
 49
0.0
 49
0.0
 49
0.0208333333333333
 49
0.0
 49
0.0
 49
0.0
 49
0.0
 49
1.0
 49
0.0
 49
0.0
 49
0.0
 49
0.0
 49
1.0
175
     0
142
0.0208333333333333
142
0.0
142
0.0
142
0.0
142
0.0
142
0.0208333333333333
142
0.0
142
0.0
142
0.0
142
0.0
142
1.0
142
0.0
142
0.0
142
0.0
142
0.0
142
1.0
179
     0
144
0.0208333333333333
144
0.0
144
0.0
144
0.0
144
0.0
144
0.0208333333333333
144
0.0
144
0.0
144
0.0
144
0.0
144
1.0
144
0.0
144
0.0
144
0.0
144
0.0
144
1.0
147
0.0208333333333333
147
0.0
147
0.0
147
0.0
147
0.0
147
0.0208333333333333
147
0.0
147
0.0
147
0.0
147
0.0
147
1.0
147
0.0
147
0.0
147
0.0
147
0.0
147
1.0
  0
MATERIAL
  5
DBD
102
{ACAD_XDICTIONARY
360
DBE
102
}
102
{ACAD_REACTORS
330
DAC
102
}
330
DAC
100
AcDbMaterial
  1
Global
 72
     0
 43
0.0208333333333333
 43
0.0
 43
0.0
 43
0.0
 43
0.0
 43
0.0208333333333333
 43
0.0
 43
0.0
 43
0.0
 43
0.0
 43
1.0
 43
0.0
 43
0.0
 43
0.0
 43
0.0
 43
1.0
 77
     0
 47
0.0208333333333333
 47
0.0
 47
0.0
 47
0.0
 47
0.0
 47
0.0208333333333333
 47
0.0
 47
0.0
 47
0.0
 47
0.0
 47
1.0
 47
0.0
 47
0.0
 47
0.0
 47
0.0
 47
1.0
171
     0
 49
0.0208333333333333
 49
0.0
 49
0.0
 49
0.0
 49
0.0
 49
0.0208333333333333
 49
0.0
 49
0.0
 49
0.0
 49
0.0
 49
1.0
 49
0.0
 49
0.0
 49
0.0
 49
0.0
 49
1.0
175
     0
142
0.0208333333333333
142
0.0
142
0.0
142
0.0
142
0.0
142
0.0208333333333333
142
0.0
142
0.0
142
0.0
142
0.0
142
1.0
142
0.0
142
0.0
142
0.0
142
0.0
142
1.0
179
     0
144
0.0208333333333333
144
0.0
144
0.0
144
0.0
144
0.0
144
0.0208333333333333
144
0.0
144
0.0
144
0.0
144
0.0
144
1.0
144
0.0
144
0.0
144
0.0
144
0.0
144
1.0
147
0.0208333333333333
147
0.0
147
0.0
147
0.0
147
0.0
147
0.0208333333333333
147
0.0
147
0.0
147
0.0
147
0.0
147
1.0
147
0.0
147
0.0
147
0.0
147
0.0
147
1.0
  0
MLEADERSTYLE
  5
DFC
102
{ACAD_REACTORS
330
DFB
102
}
330
DFB
100
AcDbMLeaderStyle
170
     2
171
     1
172
     0
 90
        2
 40
0.0
 41
0.0
173
     1
 91
-1056964608
340
14
 92
       -2
290
     1
 42
0.09
291
     1
 43
0.36
  3
Standard
 44
0.18
300

342
10
174
     1
178
     6
175
     1
176
     0
 93
-1056964608
 45
0.18
292
     0
297
     0
 46
0.18
 94
-1056964608
 47
1.0
 49
1.0
140
1.0
293
     1
141
0.0
294
     1
177
     0
142
1.0
295
     0
296
     0
143
0.125
1001
ACAD_MLEADERVER
1070
     2
  0
MLINESTYLE
  5
13
102
{ACAD_REACTORS
330
E
102
}
330
E
100
AcDbMlineStyle
  2
STANDARD
 70
     0
  3

 62
     0
 51
90.0
 52
90.0
 71
     2
 49
0.5
 62
   256
  6
BYLAYER
 49
-0.5
 62
   256
  6
BYLAYER
  0
ACDBPLACEHOLDER
  5
DAB
102
{ACAD_REACTORS
330
DAA
102
}
330
DAA
  0
SCALE
  5
DDA
102
{ACAD_REACTORS
330
DD9
102
}
330
DD9
100
AcDbScale
 70
     0
300
1:1
140
1.0
141
1.0
290
     1
  0
SCALE
  5
DDB
102
{ACAD_REACTORS
330
DD9
102
}
330
DD9
100
AcDbScale
 70
     0
300
1:2
140
1.0
141
2.0
290
     0
  0
SCALE
  5
DDC
102
{ACAD_REACTORS
330
DD9
102
}
330
DD9
100
AcDbScale
 70
     0
300
1:4
140
1.0
141
4.0
290
     0
  0
SCALE
  5
DDD
102
{ACAD_REACTORS
330
DD9
102
}
330
DD9
100
AcDbScale
 70
     0
300
1:5
140
1.0
141
5.0
290
     0
  0
SCALE
  5
DDE
102
{ACAD_REACTORS
330
DD9
102
}
330
DD9
100
AcDbScale
 70
     0
300
1:8
140
1.0
141
8.0
290
     0
  0
SCALE
  5
DDF
102
{ACAD_REACTORS
330
DD9
102
}
330
DD9
100
AcDbScale
 70
     0
300
1:10
140
1.0
141
10.0
290
     0
  0
SCALE
  5
DE0
102
{ACAD_REACTORS
330
DD9
102
}
330
DD9
100
AcDbScale
 70
     0
300
1:16
140
1.0
141
16.0
290
     0
  0
SCALE
  5
DE1
102
{ACAD_REACTORS
330
DD9
102
}
330
DD9
100
AcDbScale
 70
     0
300
1:20
140
1.0
141
20.0
290
     0
  0
SCALE
  5
DE2
102
{ACAD_REACTORS
330
DD9
102
}
330
DD9
100
AcDbScale
 70
     0
300
1:30
140
1.0
141
30.0
290
     0
  0
SCALE
  5
DE3
102
{ACAD_REACTORS
330
DD9
102
}
330
DD9
100
AcDbScale
 70
     0
300
1:40
140
1.0
141
40.0
290
     0
  0
SCALE
  5
DE4
102
{ACAD_REACTORS
330
DD9
102
}
330
DD9
100
AcDbScale
 70
     0
300
1:50
140
1.0
141
50.0
290
     0
  0
SCALE
  5
DE5
102
{ACAD_REACTORS
330
DD9
102
}
330
DD9
100
AcDbScale
 70
     0
300
1:100
140
1.0
141
100.0
290
     0
  0
SCALE
  5
DE6
102
{ACAD_REACTORS
330
DD9
102
}
330
DD9
100
AcDbScale
 70
     0
300
2:1
140
2.0
141
1.0
290
     0
  0
SCALE
  5
DE7
102
{ACAD_REACTORS
330
DD9
102
}
330
DD9
100
AcDbScale
 70
     0
300
4:1
140
4.0
141
1.0
290
     0
  0
SCALE
  5
DE8
102
{ACAD_REACTORS
330
DD9
102
}
330
DD9
100
AcDbScale
 70
     0
300
8:1
140
8.0
141
1.0
290
     0
  0
SCALE
  5
DE9
102
{ACAD_REACTORS
330
DD9
102
}
330
DD9
100
AcDbScale
 70
     0
300
10:1
140
10.0
141
1.0
290
     0
  0
SCALE
  5
DEA
102
{ACAD_REACTORS
330
DD9
102
}
330
DD9
100
AcDbScale
 70
     0
300
100:1
140
100.0
141
1.0
290
     0
  0
SCALE
  5
DEB
102
{ACAD_REACTORS
330
DD9
102
}
330
DD9
100
AcDbScale
 70
     0
300
1/128" = 1'-0"
140
0.0078125
141
12.0
290
     0
  0
SCALE
  5
DEC
102
{ACAD_REACTORS
330
DD9
102
}
330
DD9
100
AcDbScale
 70
     0
300
1/64" = 1'-0"
140
0.015625
141
12.0
290
     0
  0
SCALE
  5
DED
102
{ACAD_REACTORS
330
DD9
102
}
330
DD9
100
AcDbScale
 70
     0
300
1/32" = 1'-0"
140
0.03125
141
12.0
290
     0
  0
SCALE
  5
DEE
102
{ACAD_REACTORS
330
DD9
102
}
330
DD9
100
AcDbScale
 70
     0
300
1/16" = 1'-0"
140
0.0625
141
12.0
290
     0
  0
SCALE
  5
DEF
102
{ACAD_REACTORS
330
DD9
102
}
330
DD9
100
AcDbScale
 70
     0
300
3/32" = 1'-0"
140
0.09375
141
12.0
290
     0
  0
SCALE
  5
DF0
102
{ACAD_REACTORS
330
DD9
102
}
330
DD9
100
AcDbScale
 70
     0
300
1/8" = 1'-0"
140
0.125
141
12.0
290
     0
  0
SCALE
  5
DF1
102
{ACAD_REACTORS
330
DD9
102
}
330
DD9
100
AcDbScale
 70
     0
300
3/16" = 1'-0"
140
0.1875
141
12.0
290
     0
  0
SCALE
  5
DF2
102
{ACAD_REACTORS
330
DD9
102
}
330
DD9
100
AcDbScale
 70
     0
300
1/4" = 1'-0"
140
0.25
141
12.0
290
     0
  0
SCALE
  5
DF3
102
{ACAD_REACTORS
330
DD9
102
}
330
DD9
100
AcDbScale
 70
     0
300
3/8" = 1'-0"
140
0.375
141
12.0
290
     0
  0
SCALE
  5
DF4
102
{ACAD_REACTORS
330
DD9
102
}
330
DD9
100
AcDbScale
 70
     0
300
1/2" = 1'-0"
140
0.5
141
12.0
290
     0
  0
SCALE
  5
DF5
102
{ACAD_REACTORS
330
DD9
102
}
330
DD9
100
AcDbScale
 70
     0
300
3/4" = 1'-0"
140
0.75
141
12.0
290
     0
  0
SCALE
  5
DF6
102
{ACAD_REACTORS
330
DD9
102
}
330
DD9
100
AcDbScale
 70
     0
300
1" = 1'-0"
140
1.0
141
12.0
290
     0
  0
SCALE
  5
DF7
102
{ACAD_REACTORS
330
DD9
102
}
330
DD9
100
AcDbScale
 70
     0
300
1-1/2" = 1'-0"
140
1.5
141
12.0
290
     0
  0
SCALE
  5
DF8
102
{ACAD_REACTORS
330
DD9
102
}
330
DD9
100
AcDbScale
 70
     0
300
3" = 1'-0"
140
3.0
141
12.0
290
     0
  0
SCALE
  5
DF9
102
{ACAD_REACTORS
330
DD9
102
}
330
DD9
100
AcDbScale
 70
     0
300
6" = 1'-0"
140
6.0
141
12.0
290
     0
  0
SCALE
  5
DFA
102
{ACAD_REACTORS
330
DD9
102
}
330
DD9
100
AcDbScale
 70
     0
300
1'-0" = 1'-0"
140
12.0
141
12.0
290
     0
  0
TABLESTYLE
  5
DD8
102
{ACAD_XDICTIONARY
360
EB7
102
}
102
{ACAD_REACTORS
330
DD7
102
}
330
DD7
100
AcDbTableStyle
  3
Standard
 70
     0
 71
     0
 40
0.06
 41
0.06
280
     0
281
     0
  7
STANDARD
140
0.18
170
     2
 62
     0
 63
     7
283
     0
274
    -2
284
     1
 64
     0
275
    -2
285
     1
 65
     0
276
    -2
286
     1
 66
     0
277
    -2
287
     1
 67
     0
278
    -2
288
     1
 68
     0
279
    -2
289
     1
 69
     0
  7
STANDARD
140
0.25
170
     5
 62
     0
 63
     7
283
     0
274
    -2
284
     1
 64
     0
275
    -2
285
     1
 65
     0
276
    -2
286
     1
 66
     0
277
    -2
287
     1
 67
     0
278
    -2
288
     1
 68
     0
279
    -2
289
     1
 69
     0
  7
STANDARD
140
0.18
170
     5
 62
     0
 63
     7
283
     0
274
    -2
284
     1
 64
     0
275
    -2
285
     1
 65
     0
276
    -2
286
     1
 66
     0
277
    -2
287
     1
 67
     0
278
    -2
288
     1
 68
     0
279
    -2
289
     1
 69
     0
  0
VISUALSTYLE
  5
DCB
102
{ACAD_REACTORS
330
DC5
102
}
330
DC5
100
AcDbVisualStyle
  2
2dWireframe
 70
     4
 71
     0
 72
     2
 73
     0
 90
        0
 40
-0.6
 41
-30.0
 62
     5
 63
     7
 74
     1
 91
        4
 64
     7
 65
   257
 75
     1
175
     1
 42
1.0
 92
        0
 66
   257
 43
1.0
 76
     1
 77
     6
 78
     2
 67
     7
 79
     5
170
     0
171
     0
290
     0
174
     0
 93
        1
 44
0.0
173
     0
291
     0
 45
0.0
1001
ACAD
1000
AcDbSavedByObjectVersion
1070
     0
  0
VISUALSTYLE
  5
DCD
102
{ACAD_REACTORS
330
DC5
102
}
330
DC5
100
AcDbVisualStyle
  2
3D Hidden
 70
     6
 71
     1
 72
     2
 73
     2
 90
        0
 40
-0.6
 41
-30.0
 62
     5
 63
     7
 74
     2
 91
        2
 64
     7
 65
   257
 75
     2
175
     1
 42
40.0
 92
        0
 66
   257
 43
1.0
 76
     1
 77
     6
 78
     2
 67
     7
 79
     3
170
     0
171
     0
290
     0
174
     0
 93
        1
 44
0.0
173
     0
291
     0
 45
0.0
1001
ACAD
1000
AcDbSavedByObjectVersion
1070
     0
  0
VISUALSTYLE
  5
DCC
102
{ACAD_REACTORS
330
DC5
102
}
330
DC5
100
AcDbVisualStyle
  2
3dWireframe
 70
     5
 71
     0
 72
     2
 73
     0
 90
        0
 40
-0.6
 41
-30.0
 62
     5
 63
     7
 74
     1
 91
        4
 64
     7
 65
   257
 75
     1
175
     1
 42
1.0
 92
        0
 66
   257
 43
1.0
 76
     1
 77
     6
 78
     2
 67
     7
 79
     5
170
     0
171
     0
290
     0
174
     0
 93
        1
 44
0.0
173
     0
291
     0
 45
0.0
1001
ACAD
1000
AcDbSavedByObjectVersion
1070
     0
  0
VISUALSTYLE
  5
DCA
102
{ACAD_REACTORS
330
DC5
102
}
330
DC5
100
AcDbVisualStyle
  2
Basic
 70
     7
 71
     1
 72
     0
 73
     1
 90
        0
 40
-0.6
 41
-30.0
 62
     5
 63
     7
 74
     0
 91
        4
 64
     7
 65
   257
 75
     1
175
     1
 42
1.0
 92
        8
 66
     7
 43
1.0
 76
     1
 77
     6
 78
     2
 67
     7
 79
     5
170
     0
171
     0
290
     0
174
     0
 93
        1
 44
0.0
173
     0
291
     1
 45
0.0
1001
ACAD
1000
AcDbSavedByObjectVersion
1070
     0
  0
VISUALSTYLE
  5
DD1
102
{ACAD_REACTORS
330
DC5
102
}
330
DC5
100
AcDbVisualStyle
  2
Brighten
 70
    12
 71
     2
 72
     2
 73
     0
 90
        0
 40
-0.6
 41
-30.0
 62
     5
 63
     7
 74
     1
 91
        4
 64
     7
 65
   257
 75
     1
175
     1
 42
1.0
 92
        8
 66
     7
 43
1.0
 76
     1
 77
     6
 78
     2
 67
     7
 79
     5
170
     0
171
     0
290
     0
174
     0
 93
        1
 44
50.0
173
     0
291
     1
 45
0.0
1001
ACAD
1000
AcDbSavedByObjectVersion
1070
     0
  0
VISUALSTYLE
  5
DD5
102
{ACAD_REACTORS
330
DC5
102
}
330
DC5
100
AcDbVisualStyle
  2
ColorChange
 70
    16
 71
     2
 72
     2
 73
     3
 90
        0
 40
-0.6
 41
-30.0
 62
     5
 63
     8
 74
     1
 91
        4
 64
     7
 65
   257
 75
     1
175
     1
 42
1.0
 92
        8
 66
     8
 43
1.0
 76
     1
 77
     6
 78
     2
 67
     7
 79
     5
170
     0
171
     0
290
     0
174
     0
 93
        1
 44
0.0
173
     0
291
     1
 45
0.0
1001
ACAD
1000
AcDbSavedByObjectVersion
1070
     0
  0
VISUALSTYLE
  5
DCE
102
{ACAD_REACTORS
330
DC5
102
}
330
DC5
100
AcDbVisualStyle
  2
Conceptual
 70
     9
 71
     3
 72
     2
 73
     0
 90
        0
 40
-0.6
 41
-30.0
 62
     5
 63
     7
 74
     2
 91
        2
 64
     7
 65
   257
 75
     1
175
     1
 42
40.0
 92
        8
 66
     7
 43
1.0
 76
     1
 77
     6
 78
     2
 67
     7
 79
     3
170
     0
171
     0
290
     0
174
     0
 93
        1
 44
0.0
173
     0
291
     0
 45
0.0
1001
ACAD
1000
AcDbSavedByObjectVersion
1070
     0
  0
VISUALSTYLE
  5
DD0
102
{ACAD_REACTORS
330
DC5
102
}
330
DC5
100
AcDbVisualStyle
  2
Dim
 70
    11
 71
     2
 72
     2
 73
     0
 90
        0
 40
-0.6
 41
-30.0
 62
     5
 63
     7
 74
     1
 91
        4
 64
     7
 65
   257
 75
     1
175
     1
 42
1.0
 92
        8
 66
     7
 43
1.0
 76
     1
 77
     6
 78
     2
 67
     7
 79
     5
170
     0
171
     0
290
     0
174
     0
 93
        1
 44
-50.0
173
     0
291
     1
 45
0.0
1001
ACAD
1000
AcDbSavedByObjectVersion
1070
     0
  0
VISUALSTYLE
  5
DD4
102
{ACAD_REACTORS
330
DC5
102
}
330
DC5
100
AcDbVisualStyle
  2
Facepattern
 70
    15
 71
     2
 72
     2
 73
     0
 90
        0
 40
-0.6
 41
-30.0
 62
     5
 63
     7
 74
     1
 91
        4
 64
     7
 65
   257
 75
     1
175
     1
 42
1.0
 92
        8
 66
     7
 43
1.0
 76
     1
 77
     6
 78
     2
 67
     7
 79
     5
170
     0
171
     0
290
     0
174
     0
 93
        1
 44
0.0
173
     0
291
     1
 45
0.0
1001
ACAD
1000
AcDbSavedByObjectVersion
1070
     0
  0
VISUALSTYLE
  5
DC6
102
{ACAD_REACTORS
330
DC5
102
}
330
DC5
100
AcDbVisualStyle
  2
Flat
 70
     0
 71
     2
 72
     1
 73
     1
 90
        2
 40
-0.6
 41
30.0
 62
     5
 63
     7
 74
     0
 91
        4
 64
     7
 65
   257
 75
     1
175
     1
 42
1.0
 92
        8
 66
     7
 43
1.0
 76
     1
 77
     6
 78
     2
 67
     7
 79
     5
170
     0
171
     0
290
     0
174
     0
 93
       13
 44
0.0
173
     0
291
     1
 45
0.0
1001
ACAD
1000
AcDbSavedByObjectVersion
1070
     0
  0
VISUALSTYLE
  5
DC7
102
{ACAD_REACTORS
330
DC5
102
}
330
DC5
100
AcDbVisualStyle
  2
FlatWithEdges
 70
     1
 71
     2
 72
     1
 73
     1
 90
        2
 40
-0.6
 41
30.0
 62
     5
 63
     7
 74
     1
 91
        4
 64
     7
 65
   257
 75
     1
175
     1
 42
1.0
 92
        0
 66
   257
 43
1.0
 76
     1
 77
     6
 78
     2
 67
     7
 79
     5
170
     0
171
     0
290
     0
174
     0
 93
       13
 44
0.0
173
     0
291
     1
 45
0.0
1001
ACAD
1000
AcDbSavedByObjectVersion
1070
     0
  0
VISUALSTYLE
  5
DC8
102
{ACAD_REACTORS
330
DC5
102
}
330
DC5
100
AcDbVisualStyle
  2
Gouraud
 70
     2
 71
     2
 72
     2
 73
     1
 90
        2
 40
-0.6
 41
30.0
 62
     5
 63
     7
 74
     0
 91
        4
 64
     7
 65
   257
 75
     1
175
     1
 42
1.0
 92
        0
 66
     7
 43
1.0
 76
     1
 77
     6
 78
     2
 67
     7
 79
     5
170
     0
171
     0
290
     0
174
     0
 93
       13
 44
0.0
173
     0
291
     1
 45
0.0
1001
ACAD
1000
AcDbSavedByObjectVersion
1070
     0
  0
VISUALSTYLE
  5
DC9
102
{ACAD_REACTORS
330
DC5
102
}
330
DC5
100
AcDbVisualStyle
  2
GouraudWithEdges
 70
     3
 71
     2
 72
     2
 73
     1
 90
        2
 40
-0.6
 41
30.0
 62
     5
 63
     7
 74
     1
 91
        4
 64
     7
 65
   257
 75
     1
175
     1
 42
1.0
 92
        0
 66
   257
 43
1.0
 76
     1
 77
     6
 78
     2
 67
     7
 79
     5
170
     0
171
     0
290
     0
174
     0
 93
       13
 44
0.0
173
     0
291
     1
 45
0.0
1001
ACAD
1000
AcDbSavedByObjectVersion
1070
     0
  0
VISUALSTYLE
  5
DD3
102
{ACAD_REACTORS
330
DC5
102
}
330
DC5
100
AcDbVisualStyle
  2
Linepattern
 70
    14
 71
     2
 72
     2
 73
     0
 90
        0
 40
-0.6
 41
-30.0
 62
     5
 63
     7
 74
     1
 91
        4
 64
     7
 65
   257
 75
     7
175
     7
 42
1.0
 92
        8
 66
     7
 43
1.0
 76
     1
 77
     6
 78
     2
 67
     7
 79
     5
170
     0
171
     0
290
     0
174
     0
 93
        1
 44
0.0
173
     0
291
     1
 45
0.0
1001
ACAD
1000
AcDbSavedByObjectVersion
1070
     0
  0
VISUALSTYLE
  5
DCF
102
{ACAD_REACTORS
330
DC5
102
}
330
DC5
100
AcDbVisualStyle
  2
Realistic
 70
     8
 71
     2
 72
     2
 73
     0
 90
        0
 40
-0.6
 41
-30.0
 62
     5
 63
     7
 74
     1
 91
        0
 64
     7
 65
   257
 75
     1
175
     1
 42
1.0
 92
        8
 66
     8
 43
1.0
 76
     1
 77
     6
 78
     2
 67
     7
 79
     5
170
     0
171
     0
290
     0
174
     0
 93
       13
 44
0.0
173
     0
291
     0
 45
0.0
1001
ACAD
1000
AcDbSavedByObjectVersion
1070
     0
  0
VISUALSTYLE
  5
DD2
102
{ACAD_REACTORS
330
DC5
102
}
330
DC5
100
AcDbVisualStyle
  2
Thicken
 70
    13
 71
     2
 72
     2
 73
     0
 90
        0
 40
-0.6
 41
-30.0
 62
     5
 63
     7
 74
     1
 91
        4
 64
     7
 65
   257
 75
     1
175
     1
 42
1.0
 92
       12
 66
     7
 43
1.0
 76
     1
 77
     6
 78
     2
 67
     7
 79
     5
170
     0
171
     0
290
     0
174
     0
 93
        1
 44
0.0
173
     0
291
     1
 45
0.0
1001
ACAD
1000
AcDbSavedByObjectVersion
1070
     0
  0
DICTIONARYVAR
  5
EB3
102
{ACAD_REACTORS
330
EB0
102
}
330
EB0
100
DictionaryVariables
280
     0
  1
1:1
  0
DICTIONARYVAR
  5
EB2
102
{ACAD_REACTORS
330
EB0
102
}
330
EB0
100
DictionaryVariables
280
     0
  1
STANDARD
  0
DICTIONARYVAR
  5
EB1
102
{ACAD_REACTORS
330
EB0
102
}
330
EB0
100
DictionaryVariables
280
     0
  1
STANDARD
  0
DICTIONARYVAR
  5
EB6
102
{ACAD_REACTORS
330
EB0
102
}
330
EB0
100
DictionaryVariables
280
     0
  1
1
  0
DICTIONARYVAR
  5
EB5
102
{ACAD_REACTORS
330
EB0
102
}
330
EB0
100
DictionaryVariables
280
     0
  1
0
  0
DICTIONARYVAR
  5
EB4
102
{ACAD_REACTORS
330
EB0
102
}
330
EB0
100
DictionaryVariables
280
     0
  1
127
  0
DICTIONARY
  5
E6B
102
{ACAD_REACTORS
330
E60
102
}
330
E60
100
AcDbDictionary
281
     1
  0
DICTIONARY
  5
EC1
330
E01
100
AcDbDictionary
280
     1
281
     1
  3
ACAD_XREC_ROUNDTRIP
360
EC2
  0
DICTIONARY
  5
EBF
330
E00
100
AcDbDictionary
280
     1
281
     1
  3
ACAD_XREC_ROUNDTRIP
360
EC0
  0
DICTIONARY
  5
DB6
330
DB5
100
AcDbDictionary
280
     1
281
     1
  3
ACAD_XREC_ROUNDTRIP
360
EBC
  3
BUMPTILE
360
DB8
  3
DIFFUSETILE
360
DB7
  3
OPACITYTILE
360
DBB
  3
REFLECTIONTILE
360
DBA
  3
REFRACTIONTILE
360
DBC
  3
SPECULARTILE
360
DB9
  0
DICTIONARY
  5
DAE
330
DAD
100
AcDbDictionary
280
     1
281
     1
  3
ACAD_XREC_ROUNDTRIP
360
EBB
  3
BUMPTILE
360
DB0
  3
DIFFUSETILE
360
DAF
  3
OPACITYTILE
360
DB3
  3
REFLECTIONTILE
360
DB2
  3
REFRACTIONTILE
360
DB4
  3
SPECULARTILE
360
DB1
  0
DICTIONARY
  5
DBE
330
DBD
100
AcDbDictionary
280
     1
281
     1
  3
ACAD_XREC_ROUNDTRIP
360
EBD
  3
BUMPTILE
360
DC0
  3
DIFFUSETILE
360
DBF
  3
OPACITYTILE
360
DC3
  3
REFLECTIONTILE
360
DC2
  3
REFRACTIONTILE
360
DC4
  3
SPECULARTILE
360
DC1
  0
DICTIONARY
  5
EB7
330
DD8
100
AcDbDictionary
280
     1
281
     1
  3
ACAD_ROUNDTRIP_2008_TABLESTYLE_CELLSTYLEMAP
360
EB8
  3
ACAD_XREC_ROUNDTRIP
360
EBE
  0
XRECORD
  5
EC2
102
{ACAD_REACTORS
330
EC1
102
}
330
EC1
100
AcDbXrecord
280
     1
102
SHADEPLOT
 70
     0
102
SHADEPLOTRESLEVEL
 70
     2
102
SHADEPLOTCUSTOMDPI
 70
   300
  0
XRECORD
  5
EC0
102
{ACAD_REACTORS
330
EBF
102
}
330
EBF
100
AcDbXrecord
280
     1
102
SHADEPLOT
 70
     0
102
SHADEPLOTRESLEVEL
 70
     2
102
SHADEPLOTCUSTOMDPI
 70
   300
  0
XRECORD
  5
EBC
102
{ACAD_REACTORS
330
DB6
102
}
330
DB6
100
AcDbXrecord
280
     1
102
MATERIAL
148
0.0
149
0.0
149
0.0
 93
        0
 94
      127
282
     0
 72
     0
 77
     0
171
     0
175
     0
179
     0
273
     0
  0
XRECORD
  5
DB8
102
{ACAD_REACTORS
330
DB6
102
}
330
DB6
100
AcDbXrecord
280
     1
270
     1
271
     1
  0
XRECORD
  5
DB7
102
{ACAD_REACTORS
330
DB6
102
}
330
DB6
100
AcDbXrecord
280
     1
270
     1
271
     1
  0
XRECORD
  5
DBB
102
{ACAD_REACTORS
330
DB6
102
}
330
DB6
100
AcDbXrecord
280
     1
270
     1
271
     1
  0
XRECORD
  5
DBA
102
{ACAD_REACTORS
330
DB6
102
}
330
DB6
100
AcDbXrecord
280
     1
270
     1
271
     1
  0
XRECORD
  5
DBC
102
{ACAD_REACTORS
330
DB6
102
}
330
DB6
100
AcDbXrecord
280
     1
270
     1
271
     1
  0
XRECORD
  5
DB9
102
{ACAD_REACTORS
330
DB6
102
}
330
DB6
100
AcDbXrecord
280
     1
270
     1
271
     1
  0
XRECORD
  5
EBB
102
{ACAD_REACTORS
330
DAE
102
}
330
DAE
100
AcDbXrecord
280
     1
102
MATERIAL
148
0.0
149
0.0
149
0.0
 93
        0
 94
      127
282
     0
 72
     0
 77
     0
171
     0
175
     0
179
     0
273
     0
  0
XRECORD
  5
DB0
102
{ACAD_REACTORS
330
DAE
102
}
330
DAE
100
AcDbXrecord
280
     1
270
     1
271
     1
  0
XRECORD
  5
DAF
102
{ACAD_REACTORS
330
DAE
102
}
330
DAE
100
AcDbXrecord
280
     1
270
     1
271
     1
  0
XRECORD
  5
DB3
102
{ACAD_REACTORS
330
DAE
102
}
330
DAE
100
AcDbXrecord
280
     1
270
     1
271
     1
  0
XRECORD
  5
DB2
102
{ACAD_REACTORS
330
DAE
102
}
330
DAE
100
AcDbXrecord
280
     1
270
     1
271
     1
  0
XRECORD
  5
DB4
102
{ACAD_REACTORS
330
DAE
102
}
330
DAE
100
AcDbXrecord
280
     1
270
     1
271
     1
  0
XRECORD
  5
DB1
102
{ACAD_REACTORS
330
DAE
102
}
330
DAE
100
AcDbXrecord
280
     1
270
     1
271
     1
  0
XRECORD
  5
EBD
102
{ACAD_REACTORS
330
DBE
102
}
330
DBE
100
AcDbXrecord
280
     1
102
MATERIAL
148
0.0
149
0.0
149
0.0
 93
        0
 94
      127
282
     0
 72
     0
 77
     0
171
     0
175
     0
179
     0
273
     0
  0
XRECORD
  5
DC0
102
{ACAD_REACTORS
330
DBE
102
}
330
DBE
100
AcDbXrecord
280
     1
270
     1
271
     1
  0
XRECORD
  5
DBF
102
{ACAD_REACTORS
330
DBE
102
}
330
DBE
100
AcDbXrecord
280
     1
270
     1
271
     1
  0
XRECORD
  5
DC3
102
{ACAD_REACTORS
330
DBE
102
}
330
DBE
100
AcDbXrecord
280
     1
270
     1
271
     1
  0
XRECORD
  5
DC2
102
{ACAD_REACTORS
330
DBE
102
}
330
DBE
100
AcDbXrecord
280
     1
270
     1
271
     1
  0
XRECORD
  5
DC4
102
{ACAD_REACTORS
330
DBE
102
}
330
DBE
100
AcDbXrecord
280
     1
270
     1
271
     1
  0
XRECORD
  5
DC1
102
{ACAD_REACTORS
330
DBE
102
}
330
DBE
100
AcDbXrecord
280
     1
270
     1
271
     1
  0
CELLSTYLEMAP
  5
EB8
102
{ACAD_REACTORS
330
EB7
102
}
330
EB7
100
AcDbCellStyleMap
 90
        3
300
CELLSTYLE
  1
TABLEFORMAT_BEGIN
 90
        5
170
     1
 91
        0
 92
    32768
 62
   257
 93
        1
300
CONTENTFORMAT
  1
CONTENTFORMAT_BEGIN
 90
        0
 91
        0
 92
      512
 93
        0
300

 40
0.0
140
1.0
 94
        5
 62
     0
340
10
144
0.25
309
CONTENTFORMAT_END
171
     0
 94
        0
309
TABLEFORMAT_END
  1
CELLSTYLE_BEGIN
 90
        1
 91
        1
300
_TITLE
309
CELLSTYLE_END
300
CELLSTYLE
  1
TABLEFORMAT_BEGIN
 90
        5
170
     1
 91
        0
 92
        0
 62
   257
 93
        1
300
CONTENTFORMAT
  1
CONTENTFORMAT_BEGIN
 90
        0
 91
        0
 92
      512
 93
        0
300

 40
0.0
140
1.0
 94
        5
 62
     0
340
10
144
0.18
309
CONTENTFORMAT_END
171
     0
 94
        0
309
TABLEFORMAT_END
  1
CELLSTYLE_BEGIN
 90
        2
 91
        1
300
_HEADER
309
CELLSTYLE_END
300
CELLSTYLE
  1
TABLEFORMAT_BEGIN
 90
        5
170
     1
 91
        0
 92
        0
 62
   257
 93
        1
300
CONTENTFORMAT
  1
CONTENTFORMAT_BEGIN
 90
        0
 91
        0
 92
      512
 93
        0
300

 40
0.0
140
1.0
 94
        2
 62
     0
340
10
144
0.18
309
CONTENTFORMAT_END
171
     0
 94
        0
309
TABLEFORMAT_END
  1
CELLSTYLE_BEGIN
 90
        3
 91
        2
300
_DATA
309
CELLSTYLE_END
  0
XRECORD
  5
EBE
102
{ACAD_REACTORS
330
EB7
102
}
330
EB7
100
AcDbXrecord
280
     1
102
ACAD_ROUNDTRIP_PRE2007_TABLESTYLE
 90
      512
 91
        0
  1

 92
      512
 93
        0
  2

 94
      512
 95
        0
  3

  0
ENDSEC
  0
EOF
