  0
SECTION
  2
HEADER
  9
$ACADVER
  1
AC1015
  9
$ACADMAINTVER
 70
    20
  9
$DWGCODEPAGE
  3
ANSI_1252
  9
$INSBASE
 10
0.0
 20
0.0
 30
0.0
  9
$EXTMIN
 10
-39.51662221000584
 20
316.1154639470085
 30
-0.00000001
  9
$EXTMAX
 10
487.4048561575595
 20
543.3042875474846
 30
0.00000001
  9
$LIMMIN
 10
0.0
 20
0.0
  9
$LIMMAX
 10
420.0
 20
297.0
  9
$ORTHOMODE
 70
     1
  9
$REGENMODE
 70
     1
  9
$FILLMODE
 70
     1
  9
$QTEXTMODE
 70
     0
  9
$MIRRTEXT
 70
     1
  9
$LTSCALE
 40
1.0
  9
$ATTMODE
 70
     1
  9
$TEXTSIZE
 40
3.5
  9
$TRACEWID
 40
1.0
  9
$TEXTSTYLE
  7
STANDARD
  9
$CLAYER
  8
MSL-90-R-S-6
  9
$CELTYPE
  6
BYLAYER
  9
$CECOLOR
 62
   256
  9
$CELTSCALE
 40
1.0
  9
$DISPSILH
 70
     0
  9
$DIMSCALE
 40
1.0
  9
$DIMASZ
 40
2.5
  9
$DIMEXO
 40
1.0
  9
$DIMDLI
 40
10.0
  9
$DIMRND
 40
0.0
  9
$DIMDLE
 40
0.0
  9
$DIMEXE
 40
2.0
  9
$DIMTP
 40
0.1
  9
$DIMTM
 40
0.1
  9
$DIMTXT
 40
3.5
  9
$DIMCEN
 40
-2.0
  9
$DIMTSZ
 40
0.0
  9
$DIMTOL
 70
     0
  9
$DIMLIM
 70
     0
  9
$DIMTIH
 70
     0
  9
$DIMTOH
 70
     0
  9
$DIMSE1
 70
     0
  9
$DIMSE2
 70
     0
  9
$DIMTAD
 70
     1
  9
$DIMZIN
 70
     8
  9
$DIMBLK
  1

  9
$DIMASO
 70
     1
  9
$DIMSHO
 70
     1
  9
$DIMPOST
  1

  9
$DIMAPOST
  1

  9
$DIMALT
 70
     0
  9
$DIMALTD
 70
     2
  9
$DIMALTF
 40
25.4
  9
$DIMLFAC
 40
1.0
  9
$DIMTOFL
 70
     1
  9
$DIMTVP
 40
0.0
  9
$DIMTIX
 70
     0
  9
$DIMSOXD
 70
     0
  9
$DIMSAH
 70
     0
  9
$DIMBLK1
  1

  9
$DIMBLK2
  1

  9
$DIMSTYLE
  2
GEN-ISO
  9
$DIMCLRD
 70
     0
  9
$DIMCLRE
 70
     0
  9
$DIMCLRT
 70
     2
  9
$DIMTFAC
 40
1.0
  9
$DIMGAP
 40
1.5
  9
$DIMJUST
 70
     0
  9
$DIMSD1
 70
     0
  9
$DIMSD2
 70
     0
  9
$DIMTOLJ
 70
     0
  9
$DIMTZIN
 70
     8
  9
$DIMALTZ
 70
     8
  9
$DIMALTTZ
 70
     8
  9
$DIMUPT
 70
     0
  9
$DIMDEC
 70
     2
  9
$DIMTDEC
 70
     5
  9
$DIMALTU
 70
     2
  9
$DIMALTTD
 70
     2
  9
$DIMTXSTY
  7
STANDARD
  9
$DIMAUNIT
 70
     0
  9
$DIMADEC
 70
     0
  9
$DIMALTRND
 40
0.0
  9
$DIMAZIN
 70
     0
  9
$DIMDSEP
 70
    46
  9
$DIMATFIT
 70
     3
  9
$DIMFRAC
 70
     0
  9
$DIMLDRBLK
  1

  9
$DIMLUNIT
 70
     2
  9
$DIMLWD
 70
    -2
  9
$DIMLWE
 70
    -2
  9
$DIMTMOVE
 70
     0
  9
$LUNITS
 70
     2
  9
$LUPREC
 70
     4
  9
$SKETCHINC
 40
1.0
  9
$FILLETRAD
 40
0.0
  9
$AUNITS
 70
     0
  9
$AUPREC
 70
     0
  9
$MENU
  1
acad
  9
$ELEVATION
 40
0.0
  9
$PELEVATION
 40
0.0
  9
$THICKNESS
 40
0.0
  9
$LIMCHECK
 70
     0
  9
$CHAMFERA
 40
10.0
  9
$CHAMFERB
 40
10.0
  9
$CHAMFERC
 40
0.0
  9
$CHAMFERD
 40
0.0
  9
$SKPOLY
 70
     0
  9
$TDCREATE
 40
2452399.835423032
  9
$TDUCREATE
 40
2452399.752089700
  9
$TDUPDATE
 40
2456219.387322211
  9
$TDUUPDATE
 40
2456219.303988877
  9
$TDINDWG
 40
0.1198071644
  9
$TDUSRTIMER
 40
0.1198071644
  9
$USRTIMER
 70
     1
  9
$ANGBASE
 50
0.0
  9
$ANGDIR
 70
     0
  9
$PDMODE
 70
     0
  9
$PDSIZE
 40
0.0
  9
$PLINEWID
 40
0.0
  9
$SPLFRAME
 70
     0
  9
$SPLINETYPE
 70
     6
  9
$SPLINESEGS
 70
     8
  9
$HANDSEED
  5
2251
  9
$SURFTAB1
 70
     6
  9
$SURFTAB2
 70
     6
  9
$SURFTYPE
 70
     6
  9
$SURFU
 70
     6
  9
$SURFV
 70
     6
  9
$UCSBASE
  2

  9
$UCSNAME
  2

  9
$UCSORG
 10
0.0
 20
0.0
 30
0.0
  9
$UCSXDIR
 10
1.0
 20
0.0
 30
0.0
  9
$UCSYDIR
 10
0.0
 20
1.0
 30
0.0
  9
$UCSORTHOREF
  2

  9
$UCSORTHOVIEW
 70
     0
  9
$UCSORGTOP
 10
0.0
 20
0.0
 30
0.0
  9
$UCSORGBOTTOM
 10
0.0
 20
0.0
 30
0.0
  9
$UCSORGLEFT
 10
0.0
 20
0.0
 30
0.0
  9
$UCSORGRIGHT
 10
0.0
 20
0.0
 30
0.0
  9
$UCSORGFRONT
 10
0.0
 20
0.0
 30
0.0
  9
$UCSORGBACK
 10
0.0
 20
0.0
 30
0.0
  9
$PUCSBASE
  2

  9
$PUCSNAME
  2

  9
$PUCSORG
 10
0.0
 20
0.0
 30
0.0
  9
$PUCSXDIR
 10
1.0
 20
0.0
 30
0.0
  9
$PUCSYDIR
 10
0.0
 20
1.0
 30
0.0
  9
$PUCSORTHOREF
  2

  9
$PUCSORTHOVIEW
 70
     0
  9
$PUCSORGTOP
 10
0.0
 20
0.0
 30
0.0
  9
$PUCSORGBOTTOM
 10
0.0
 20
0.0
 30
0.0
  9
$PUCSORGLEFT
 10
0.0
 20
0.0
 30
0.0
  9
$PUCSORGRIGHT
 10
0.0
 20
0.0
 30
0.0
  9
$PUCSORGFRONT
 10
0.0
 20
0.0
 30
0.0
  9
$PUCSORGBACK
 10
0.0
 20
0.0
 30
0.0
  9
$USERI1
 70
     0
  9
$USERI2
 70
     0
  9
$USERI3
 70
     0
  9
$USERI4
 70
     0
  9
$USERI5
 70
     0
  9
$USERR1
 40
0.0
  9
$USERR2
 40
0.0
  9
$USERR3
 40
0.0
  9
$USERR4
 40
0.0
  9
$USERR5
 40
0.0
  9
$WORLDVIEW
 70
     1
  9
$SHADEDGE
 70
     3
  9
$SHADEDIF
 70
    70
  9
$TILEMODE
 70
     1
  9
$MAXACTVP
 70
    16
  9
$PINSBASE
 10
0.0
 20
0.0
 30
0.0
  9
$PLIMCHECK
 70
     0
  9
$PEXTMIN
 10
1.000000000000000E+20
 20
1.000000000000000E+20
 30
1.000000000000000E+20
  9
$PEXTMAX
 10
-1.000000000000000E+20
 20
-1.000000000000000E+20
 30
-1.000000000000000E+20
  9
$PLIMMIN
 10
0.0
 20
0.0
  9
$PLIMMAX
 10
420.0
 20
297.0
  9
$UNITMODE
 70
     0
  9
$VISRETAIN
 70
     0
  9
$PLINEGEN
 70
     0
  9
$PSLTSCALE
 70
     1
  9
$TREEDEPTH
 70
  3020
  9
$CMLSTYLE
  2
STANDARD
  9
$CMLJUST
 70
     0
  9
$CMLSCALE
 40
1.0
  9
$PROXYGRAPHICS
 70
     1
  9
$MEASUREMENT
 70
     1
  9
$CELWEIGHT
370
    -1
  9
$ENDCAPS
280
     0
  9
$JOINSTYLE
280
     0
  9
$LWDISPLAY
290
     0
  9
$INSUNITS
 70
     0
  9
$HYPERLINKBASE
  1

  9
$STYLESHEET
  1

  9
$XEDIT
290
     1
  9
$CEPSNTYPE
380
     0
  9
$PSTYLEMODE
290
     1
  9
$FINGERPRINTGUID
  2
{7C92368D-FB93-410E-9D17-DFA648F2C5C5}
  9
$VERSIONGUID
  2
{F04B547E-9FCF-4615-93CC-0AD91C4453DF}
  9
$EXTNAMES
290
     1
  9
$PSVPSCALE
 40
0.0
  9
$OLESTARTUP
290
     0
  0
ENDSEC
  0
SECTION
  2
CLASSES
  0
CLASS
  1
ACDBDICTIONARYWDFLT
  2
AcDbDictionaryWithDefault
  3
ObjectDBX Classes
 90
        0
280
     0
281
     0
  0
CLASS
  1
MATERIAL
  2
AcDbMaterial
  3
ObjectDBX Classes
 90
     1153
280
     0
281
     0
  0
CLASS
  1
VISUALSTYLE
  2
AcDbVisualStyle
  3
ObjectDBX Classes
 90
     4095
280
     0
281
     0
  0
CLASS
  1
TABLESTYLE
  2
AcDbTableStyle
  3
ObjectDBX Classes
 90
     4095
280
     0
281
     0
  0
CLASS
  1
SCALE
  2
AcDbScale
  3
ObjectDBX Classes
 90
     1153
280
     0
281
     0
  0
CLASS
  1
MLEADERSTYLE
  2
AcDbMLeaderStyle
  3
ACDB_MLEADERSTYLE_CLASS
 90
     4095
280
     0
281
     0
  0
CLASS
  1
ACME_DOCUMENT
  2
AcMeDbDoc
  3
AcMeServices
 90
     1024
280
     0
281
     0
  0
CLASS
  1
AMGSETTINGSOBJ
  2
AmgSettingsObj
  3
"AcadM|Product Description: AutoCAD Mechanical|Company: Autodesk, Inc."
 90
     1024
280
     0
281
     0
  0
CLASS
  1
ACMESCOPE
  2
AcMeScope
  3
AcMeServices
 90
     1024
280
     0
281
     0
  0
CLASS
  1
ACMECOMMANDHISTORY
  2
AcMeCommandHistory
  3
AcMeServices
 90
     1024
280
     0
281
     0
  0
CLASS
  1
ACIMSYSVARMAN
  2
AcImSysVarManager
  3
AcMeServices
 90
     1024
280
     0
281
     0
  0
CLASS
  1
ACIMINTSYSVAR
  2
AcImIntSysVar
  3
AcMeServices
 90
     1024
280
     0
281
     0
  0
CLASS
  1
ACMEDRAWINGMAN
  2
AcMeDrawingMan
  3
AcMeServices
 90
     1024
280
     0
281
     0
  0
CLASS
  1
ACMEVIEW
  2
AcMeView
  3
AcMeServices
 90
     1024
280
     0
281
     0
  0
CLASS
  1
ACDBENTITYCACHE
  2
AcMeEntityCache
  3
AcMeServices
 90
     1024
280
     0
281
     0
  0
CLASS
  1
GSMANAGER
  2
AcMeGSManager
  3
AcMeServices
 90
     1024
280
     0
281
     0
  0
CLASS
  1
AMDTINTERNALREACTOR
  2
AmdtInternalReactor
  3
AcMeServices
 90
     1024
280
     0
281
     0
  0
CLASS
  1
ACMESTATEMGR
  2
AcMeStateMgr
  3
AcMeServices
 90
     1024
280
     0
281
     0
  0
CLASS
  1
ACGREFMASTER
  2
AcGrefMaster
  3
AcAttribServices
 90
     1024
280
     0
281
     0
  0
CLASS
  1
AM_DRAWING_MGR
  2
AcDmDwgMgr
  3
AcMechDwgViewMgmt
 90
     1024
280
     0
281
     0
  0
CLASS
  1
AM_DWG_DOCUMENT
  2
AcDmDwgDocument
  3
AcMechDwgViewMgmt
 90
     1024
280
     0
281
     0
  0
CLASS
  1
AM_DWG_SHEET
  2
AcDmSheet
  3
AcMechDwgViewMgmt
 90
     1024
280
     0
281
     0
  0
CLASS
  1
AM_VIEWDIMPARMAP
  2
AcDmViewDimParMap
  3
AcMechDwgViewMgmt
 90
     1024
280
     0
281
     0
  0
CLASS
  1
ACIMREALSYSVAR
  2
AcImRealSysVar
  3
AcMeServices
 90
     1024
280
     0
281
     0
  0
CLASS
  1
AM_DWGMGR_NAME
  2
AcDmDwgMgrName
  3
AcMechDwgViewMgmt
 90
     1024
280
     0
281
     0
  0
CLASS
  1
ACME_DATABASE
  2
AcMeDbDatabase
  3
AcMeServices
 90
     1024
280
     0
281
     0
  0
CLASS
  1
ACRFINSADJUSTERMGR
  2
AcRfInsAdjusterMgr
  3
AcMeServices
 90
     1024
280
     0
281
     0
  0
CLASS
  1
ACGREFACADMASTER
  2
AcGrefacadMaster
  3
AcGrefServices
 90
     1024
280
     0
281
     0
  0
CLASS
  1
AMDTMENUSTATEMGR
  2
AmdtMenuStateMgr
  3
McadcomServices
 90
     1024
280
     0
281
     0
  0
CLASS
  1
AMDTMCOMMENUSTATE
  2
AmdtMcomMenuState
  3
McadcomServices
 90
     1024
280
     0
281
     0
  0
CLASS
  1
AMIMASTER
  2
AmiMaster
  3
AmiServices
 90
     1024
280
     0
281
     0
  0
CLASS
  1
MAPIAMMOUDLE
  2
MApiAmModule
  3
MApiAmServices
 90
     1024
280
     0
281
     0
  0
CLASS
  1
ACIMSTRSYSVAR
  2
AcImStrSysVar
  3
AcMeServices
 90
     1024
280
     0
281
     0
  0
CLASS
  1
AMDTADMENUSTATE
  2
AmdtAdMenuState
  3
DesignerServices
 90
     1024
280
     0
281
     0
  0
CLASS
  1
ADAPPL
  2
AcAdAppl
  3
DesignerServices
 90
     1024
280
     0
281
     0
  0
CLASS
  1
DEPMGR
  2
AcAdDepMgr
  3
DesignerServices
 90
     1024
280
     0
281
     0
  0
CLASS
  1
PARAMMGR
  2
AcAdParamMgr
  3
DesignerServices
 90
     1024
280
     0
281
     0
  0
CLASS
  1
PARAMSCOPE
  2
AcAdParamScope
  3
DesignerServices
 90
     1024
280
     0
281
     0
  0
CLASS
  1
NAMEDAPPL
  2
AcAdNamedAppl
  3
DesignerServices
 90
     1024
280
     0
281
     0
  0
CLASS
  1
AMDTDMMENUSTATE
  2
AmdtDmMenuState
  3
AcMechDwgViewMgmt
 90
     1024
280
     0
281
     0
  0
CLASS
  1
AMDTAMMENUSTATE
  2
AmdtAmMenuState
  3
DesignerAssemblies
 90
     1024
280
     0
281
     0
  0
CLASS
  1
ACAMPROJECT
  2
AcAmProject
  3
DesignerAssemblies
 90
     1024
280
     0
281
     0
  0
CLASS
  1
ACAMGRCOMPDEF
  2
AcAmGrCompDef
  3
DesignerAssemblies
 90
     1024
280
     0
281
     0
  0
CLASS
  1
ACCMCONTEXT
  2
AcCmContext
  3
DesignerAssemblies
 90
     1024
280
     0
281
     0
  0
CLASS
  1
ACAMCOMPDEF
  2
AcAmCompDef
  3
DesignerAssemblies
 90
     1024
280
     0
281
     0
  0
CLASS
  1
ACAMCOMPDEFMGR
  2
AcAmCompDefMgr
  3
DesignerAssemblies
 90
     1024
280
     0
281
     0
  0
CLASS
  1
AMCONTEXTMGR
  2
AcAmContextMgr
  3
DesignerAssemblies
 90
     1024
280
     0
281
     0
  0
CLASS
  1
ACAMCONTEXTMODELER
  2
AcAmContextModeler
  3
DesignerAssemblies
 90
     1024
280
     0
281
     0
  0
CLASS
  1
ACMDATADICTIONARY
  2
AcmDataDictionary
  3
"AcmSymBB|Product Description: AutoCAD Mechanical|Company: Autodesk, Inc."
 90
     1024
280
     0
281
     0
  0
CLASS
  1
CATALOGSTATE
  2
AcAmCatalogState
  3
DesignerAssemblies
 90
     1024
280
     0
281
     0
  0
CLASS
  1
ACAMGRCOMPDEFSET
  2
AcAmGrCompDefSet
  3
DesignerAssemblies
 90
     1024
280
     0
281
     0
  0
CLASS
  1
AMDTBROWSERDBTAB
  2
AmdtBrowserDbTab
  3
McadcomServices
 90
     1024
280
     0
281
     0
  0
CLASS
  1
CBROWSERAPPOBJECT
  2
CBrowserAppObject
  3
McadcomServices
 90
     1024
280
     0
281
     0
  0
CLASS
  1
DM_PLACEHOLDER
  2
AcDmSelsetPlaceholder
  3
AcMechDwgViewMgmt
 90
     1024
280
     0
281
     0
  0
CLASS
  1
ACMSTANDARDDIN
  2
AcmStandardDIN
  3
"Amdt_StdImp|Product Description: AutoCAD Mechanical|Company: Autodesk, Inc."
 90
     1024
280
     0
281
     0
  0
CLASS
  1
AMDTEDGESTANDARDDIN13715
  2
AmdtEdgeStdDIN13715
  3
"Amdt_StdImp|Product Description: AutoCAD Mechanical|Company: Autodesk, Inc."
 90
     1024
280
     0
281
     0
  0
CLASS
  1
ACMSURFSTANDARDDIN2002
  2
AcmSurfTextStdDIN2002
  3
"Amdt_StdImp|Product Description: AutoCAD Mechanical|Company: Autodesk, Inc."
 90
     1024
280
     0
281
     0
  0
CLASS
  1
ACMFCFSTANDARDDIN
  2
AcmFCFStdDIN
  3
"Amdt_StdImp|Product Description: AutoCAD Mechanical|Company: Autodesk, Inc."
 90
     1024
280
     0
281
     0
  0
CLASS
  1
ACMWELDSTANDARDDIN
  2
AcmWeldingStdDIN
  3
"Amdt_StdImp|Product Description: AutoCAD Mechanical|Company: Autodesk, Inc."
 90
     1024
280
     0
281
     0
  0
CLASS
  1
ACMIDSTANDARDDIN
  2
AcmIdStdDIN
  3
"Amdt_StdImp|Product Description: AutoCAD Mechanical|Company: Autodesk, Inc."
 90
     1024
280
     0
281
     0
  0
CLASS
  1
ACMDATUMSTANDARDDIN
  2
AcmDatumStdDIN
  3
"Amdt_StdImp|Product Description: AutoCAD Mechanical|Company: Autodesk, Inc."
 90
     1024
280
     0
281
     0
  0
CLASS
  1
ACMBOMSTANDARDDIN
  2
AcmBOMStdDIN
  3
"Amdt_StdImp|Product Description: AutoCAD Mechanical|Company: Autodesk, Inc."
 90
     1024
280
     0
281
     0
  0
CLASS
  1
ACMDETAILSTANDARDDIN
  2
AmdtDetailSymStdDIN
  3
"Amdt_StdImp|Product Description: AutoCAD Mechanical|Company: Autodesk, Inc."
 90
     1024
280
     0
281
     0
  0
CLASS
  1
ACMSECTIONSTANDARDDIN
  2
AmdtSectionSymStdDIN
  3
"Amdt_StdImp|Product Description: AutoCAD Mechanical|Company: Autodesk, Inc."
 90
     1024
280
     0
281
     0
  0
CLASS
  1
ACMCENTERLINESTANDARDDIN
  2
AmdtCenterLineStdDIN
  3
"Amdt_StdImp|Product Description: AutoCAD Mechanical|Company: Autodesk, Inc."
 90
     1024
280
     0
281
     0
  0
CLASS
  1
ACMTHREADLINESTANDARDDIN
  2
AmdtThreadLineStdDIN
  3
"Amdt_StdImp|Product Description: AutoCAD Mechanical|Company: Autodesk, Inc."
 90
     1024
280
     0
281
     0
  0
CLASS
  1
ACMNOTESTANDARDDIN
  2
AmdtNoteStdDIN
  3
"Amdt_StdImp|Product Description: AutoCAD Mechanical|Company: Autodesk, Inc."
 90
     1024
280
     0
281
     0
  0
CLASS
  1
ACMTAPERSTANDARDDIN
  2
AcmTaperStdDIN
  3
"Amdt_StdImp|Product Description: AutoCAD Mechanical|Company: Autodesk, Inc."
 90
     1024
280
     0
281
     0
  0
CLASS
  1
ACMANOOTATIONVIEWSTANDARDDIN
  2
AmdtAnViewStdDIN
  3
"Amdt_StdImp|Product Description: AutoCAD Mechanical|Company: Autodesk, Inc."
 90
     1024
280
     0
281
     0
  0
CLASS
  1
ACAMGLAYSTD
  2
AcAmgLayStd
  3
"AmgLay|Product Description: AutoCAD Mechanical|Company: Autodesk, Inc."
 90
     1024
280
     0
281
     0
  0
CLASS
  1
ACAMGDIMSTD
  2
AcAmgDimStd
  3
"AmgDim|Product Description: AutoCAD Mechanical|Company: Autodesk, Inc."
 90
     1024
280
     0
281
     0
  0
CLASS
  1
AMGOBJPROPCFG
  2
AmgObjPropCfg
  3
"AmgLay|Product Description: AutoCAD Mechanical|Company: Autodesk, Inc."
 90
     1025
280
     0
281
     0
  0
CLASS
  1
ACAMGHOLECHARTSTDDIN
  2
AcAmgHoleChartStdDIN
  3
AmgDim|Product Description: AutoCAD Mechanical|Company: Autodesk, Inc.
 90
     1024
280
     0
281
     0
  0
CLASS
  1
ACAMGTITLESTD
  2
AcAmgTitleStd
  3
"AmgTitle|Product Description: AutoCAD Mechanical|Company: Autodesk, Inc."
 90
     4095
280
     0
281
     0
  0
CLASS
  1
AMDTNOTETEMPLATEDB
  2
AmdtNoteTemplateDB
  3
AcmSymBB|Product Description: AutoCAD Mechanical|Company: Autodesk, Inc.
 90
     1024
280
     0
281
     0
  0
CLASS
  1
ACAMGFILTERDAT
  2
AcAmgFilterDat
  3
"AcadM|Product Description: AutoCAD Mechanical|Company: Autodesk, Inc."
 90
     1024
280
     0
281
     0
  0
CLASS
  1
DICTIONARYVAR
  2
AcDbDictionaryVar
  3
ObjectDBX Classes
 90
        0
280
     0
281
     0
  0
CLASS
  1
CELLSTYLEMAP
  2
AcDbCellStyleMap
  3
ObjectDBX Classes
 90
     1152
280
     0
281
     0
  0
CLASS
  1
ACDBPLACEHOLDER
  2
AcDbPlaceHolder
  3
ObjectDBX Classes
 90
        0
280
     0
281
     0
  0
CLASS
  1
LAYOUT
  2
AcDbLayout
  3
ObjectDBX Classes
 90
        0
280
     0
281
     0
  0
ENDSEC
  0
SECTION
  2
TABLES
  0
TABLE
  2
VPORT
  5
8
330
0
100
AcDbSymbolTable
 70
     1
  0
VPORT
  5
2137
330
8
100
AcDbSymbolTableRecord
100
AcDbViewportTableRecord
  2
*ACTIVE
 70
     0
 10
0.0
 20
0.0
 11
1.0
 21
1.0
 12
223.9441206545057
 22
446.4724799616804
 13
0.0
 23
0.0
 14
1.0
 24
1.0
 15
10.0
 25
10.0
 16
0.0
 26
0.0
 36
1.0
 17
0.0
 27
0.0
 37
0.0
 40
342.5615639944222
 41
1.548186528497408
 42
50.0
 43
0.0
 44
0.0
 50
0.0
 51
0.0
 71
     0
 72
   100
 73
     1
 74
     0
 75
     0
 76
     0
 77
     0
 78
     0
281
     0
 65
     1
110
0.0
120
0.0
130
0.0
111
1.0
121
0.0
131
0.0
112
0.0
122
1.0
132
0.0
 79
     0
146
0.0
  0
ENDTAB
  0
TABLE
  2
LTYPE
  5
5
330
0
100
AcDbSymbolTable
 70
    21
  0
LTYPE
  5
12
330
5
100
AcDbSymbolTableRecord
100
AcDbLinetypeTableRecord
  2
BYBLOCK
 70
     0
  3

 72
    65
 73
     0
 40
0.0
  0
LTYPE
  5
13
330
5
100
AcDbSymbolTableRecord
100
AcDbLinetypeTableRecord
  2
BYLAYER
 70
     0
  3

 72
    65
 73
     0
 40
0.0
  0
LTYPE
  5
14
330
5
100
AcDbSymbolTableRecord
100
AcDbLinetypeTableRecord
  2
CONTINUOUS
 70
     0
  3
Solid line
 72
    65
 73
     0
 40
0.0
  0
LTYPE
  5
1E
330
5
100
AcDbSymbolTableRecord
100
AcDbLinetypeTableRecord
  2
GEN3A
 70
     0
  3
 - - - - -
 72
    65
 73
     2
 40
3.1
 49
2.5
 74
     0
 49
-0.6
 74
     0
  0
LTYPE
  5
20
330
5
100
AcDbSymbolTableRecord
100
AcDbLinetypeTableRecord
  2
GEN7A
 70
     0
  3
__ . __ . __
 72
    65
 73
     4
 40
7.5
 49
5.0
 74
     0
 49
-1.25
 74
     0
 49
0.0
 74
     0
 49
-1.25
 74
     0
  0
LTYPE
  5
21B6
330
5
100
AcDbSymbolTableRecord
100
AcDbLinetypeTableRecord
  2
HIDDEN
 70
     0
  3
Verdeckt
 72
    65
 73
     2
 40
9.525
 49
6.349999999999999
 74
     0
 49
-3.174999999999999
 74
     0
  0
LTYPE
  5
21B7
330
5
100
AcDbSymbolTableRecord
100
AcDbLinetypeTableRecord
  2
PHANTOM2
 70
     0
  3
Phantom (.5x) ___ _ _ ___ _ _ ___ _ _ ___ _ _
 72
    65
 73
     6
 40
31.75
 49
15.875
 74
     0
 49
-3.174999999999999
 74
     0
 49
3.174999999999999
 74
     0
 49
-3.174999999999999
 74
     0
 49
3.174999999999999
 74
     0
 49
-3.174999999999999
 74
     0
  0
LTYPE
  5
21B8
330
5
100
AcDbSymbolTableRecord
100
AcDbLinetypeTableRecord
  2
CENTER
 70
     0
  3
Mitte ____ _ ____ _ ____ _ ____ _ ____ _ ____
 72
    65
 73
     4
 40
50.8
 49
31.75
 74
     0
 49
-6.349999999999999
 74
     0
 49
6.349999999999999
 74
     0
 49
-6.349999999999999
 74
     0
  0
LTYPE
  5
21FE
330
5
100
AcDbSymbolTableRecord
100
AcDbLinetypeTableRecord
  2
AM_ISO02W050
 70
     0
  3
__ __ __ __ __ __ __ __ __ __ __ __ __ __ __
 72
    65
 73
     2
 40
7.5
 49
6.0
 74
     0
 49
-1.5
 74
     0
  0
LTYPE
  5
21FF
330
5
100
AcDbSymbolTableRecord
100
AcDbLinetypeTableRecord
  2
AM_ISO08W050
 70
     0
  3
____ . ____ . ____ . ____ . ____ . ____ . ____
 72
    65
 73
     4
 40
18.0
 49
12.0
 74
     0
 49
-1.5
 74
     0
 49
3.0
 74
     0
 49
-1.5
 74
     0
  0
LTYPE
  5
2200
330
5
100
AcDbSymbolTableRecord
100
AcDbLinetypeTableRecord
  2
AM_ISO09W050
 70
     0
  3
_____ . . _____ . . _____ . . ____ .. ____
 72
    65
 73
     6
 40
22.5
 49
12.0
 74
     0
 49
-1.5
 74
     0
 49
3.0
 74
     0
 49
-1.5
 74
     0
 49
3.0
 74
     0
 49
-1.5
 74
     0
  0
LTYPE
  5
2201
330
5
100
AcDbSymbolTableRecord
100
AcDbLinetypeTableRecord
  2
Amconstr
 70
     0
  3
_______________________
 72
    65
 73
     2
 40
9999.0
 49
9999.0
 74
     0
 49
0.0
 74
     0
  0
LTYPE
  5
2202
330
5
100
AcDbSymbolTableRecord
100
AcDbLinetypeTableRecord
  2
AM_ISO08W050x2
 70
     0
  3
__ . __ . __ . __ . __ . __
 72
    65
 73
     4
 40
9.0
 49
6.0
 74
     0
 49
-0.75
 74
     0
 49
1.5
 74
     0
 49
-0.75
 74
     0
  0
LTYPE
  5
2203
330
5
100
AcDbSymbolTableRecord
100
AcDbLinetypeTableRecord
  2
AM_ISO02W050x2
 70
     0
  3
 _ _ _ _ _ _ _ _ _ _ _ _
 72
    65
 73
     2
 40
3.75
 49
3.0
 74
     0
 49
-0.75
 74
     0
  0
LTYPE
  5
2206
330
5
100
AcDbSymbolTableRecord
100
AcDbLinetypeTableRecord
  2
Amzigzag
 70
     0
  3
/\/-/\/-/\/-/\/-/\/-/\/
 72
    65
 73
     2
 40
11.0001
 49
0.0001
 74
     4
 75
   136
340
2205
 46
0.04
 50
0.0
 44
0.0
 45
0.0
 49
-11.0
 74
     0
  0
LTYPE
  5
2207
330
5
100
AcDbSymbolTableRecord
100
AcDbLinetypeTableRecord
  2
AM_DIN_F_W050
 70
     0
  3
__ __ __ __ __ __ __ __ __ __ __ __ __ __ __
 72
    65
 73
     2
 40
6.25
 49
4.75
 74
     0
 49
-1.5
 74
     0
  0
LTYPE
  5
2208
330
5
100
AcDbSymbolTableRecord
100
AcDbLinetypeTableRecord
  2
AM_DIN_G_W050
 70
     0
  3
____ . ____ . ____ . ____ . ____ . ____ . ____
 72
    65
 73
     4
 40
13.75
 49
9.75
 74
     0
 49
-1.5
 74
     0
 49
1.0
 74
     0
 49
-1.5
 74
     0
  0
LTYPE
  5
2209
330
5
100
AcDbSymbolTableRecord
100
AcDbLinetypeTableRecord
  2
AM_DIN_K_W050
 70
     0
  3
_____ . . _____ . . _____ . . ____ .. ____
 72
    65
 73
     6
 40
16.25
 49
9.75
 74
     0
 49
-1.5
 74
     0
 49
1.0
 74
     0
 49
-1.5
 74
     0
 49
1.0
 74
     0
 49
-1.5
 74
     0
  0
LTYPE
  5
220A
330
5
100
AcDbSymbolTableRecord
100
AcDbLinetypeTableRecord
  2
AM_DIN_G_W050x2
 70
     0
  3
__ . __ . __ . __ . __ . __
 72
    65
 73
     4
 40
6.875
 49
4.75
 74
     0
 49
-0.875
 74
     0
 49
0.375
 74
     0
 49
-0.875
 74
     0
  0
LTYPE
  5
220B
330
5
100
AcDbSymbolTableRecord
100
AcDbLinetypeTableRecord
  2
AM_DIN_F_W050x2
 70
     0
  3
 _ _ _ _ _ _ _ _ _ _ _ _
 72
    65
 73
     2
 40
3.125
 49
2.25
 74
     0
 49
-0.875
 74
     0
  0
LTYPE
  5
221A
330
5
100
AcDbSymbolTableRecord
100
AcDbLinetypeTableRecord
  2
ACDINWELD
 70
     0
  3
_ _ _ _ _
 72
    65
 73
     2
 40
2.0
 49
2.0
 74
     0
 49
-1.0
 74
     0
  0
LTYPE
  5
221B
330
5
100
AcDbSymbolTableRecord
100
AcDbLinetypeTableRecord
  2
ACDINTGB
 70
     0
  3
__ . . __ . .
 72
    65
 73
     6
 40
9.0
 49
4.0
 74
     0
 49
-1.0
 74
     0
 49
1.0
 74
     0
 49
-1.0
 74
     0
 49
1.0
 74
     0
 49
-1.0
 74
     0
  0
LTYPE
  5
221C
330
5
100
AcDbSymbolTableRecord
100
AcDbLinetypeTableRecord
  2
ACDINTGL
 70
     0
  3
_ _ _ _ _
 72
    65
 73
     2
 40
3.0
 49
2.0
 74
     0
 49
-1.0
 74
     0
  0
ENDTAB
  0
TABLE
  2
LAYER
  5
2
330
0
100
AcDbSymbolTable
 70
     8
  0
LAYER
  5
F
102
{ACAD_XDICTIONARY
360
2223
102
}
330
2
100
AcDbSymbolTableRecord
100
AcDbLayerTableRecord
  2
0
 70
     0
 62
     7
  6
CONTINUOUS
370
    -3
390
213A
  0
LAYER
  5
55B
102
{ACAD_XDICTIONARY
360
2225
102
}
330
2
100
AcDbSymbolTableRecord
100
AcDbLayerTableRecord
  2
MSL-90-R25-S-0
 70
     0
 62
     7
  6
CONTINUOUS
370
    -3
390
213A
  0
LAYER
  5
55C
102
{ACAD_XDICTIONARY
360
2227
102
}
330
2
100
AcDbSymbolTableRecord
100
AcDbLayerTableRecord
  2
MSL-90-R25-S-3A
 70
     0
 62
     6
  6
GEN3A
370
    -3
390
213A
  0
LAYER
  5
55D
102
{ACAD_XDICTIONARY
360
2229
102
}
330
2
100
AcDbSymbolTableRecord
100
AcDbLayerTableRecord
  2
MSL-90-R25-S-5
 70
     0
 62
     3
  6
CONTINUOUS
370
    -3
390
213A
  0
LAYER
  5
55E
102
{ACAD_XDICTIONARY
360
222B
102
}
330
2
100
AcDbSymbolTableRecord
100
AcDbLayerTableRecord
  2
MSL-90-R25-S-7A
 70
     0
 62
     4
  6
GEN7A
370
    -3
390
213A
  0
LAYER
  5
1563
102
{ACAD_XDICTIONARY
360
222D
102
}
330
2
100
AcDbSymbolTableRecord
100
AcDbLayerTableRecord
  2
MSL-90-R-S-6
 70
     0
 62
     2
  6
CONTINUOUS
370
    -3
390
213A
  0
LAYER
  5
2110
330
2
100
AcDbSymbolTableRecord
100
AcDbLayerTableRecord
  2
DEFPOINTS
 70
     0
 62
     7
  6
CONTINUOUS
290
     0
370
    -3
390
213A
  0
LAYER
  5
212F
102
{ACAD_XDICTIONARY
360
222F
102
}
330
2
100
AcDbSymbolTableRecord
100
AcDbLayerTableRecord
  2
CLIN
 70
     0
 62
     1
  6
CONTINUOUS
370
    -3
390
213A
  0
ENDTAB
  0
TABLE
  2
STYLE
  5
3
330
0
100
AcDbSymbolTable
 70
     4
  0
STYLE
  5
10
330
3
100
AcDbSymbolTableRecord
100
AcDbTextStyleTableRecord
  2
STANDARD
 70
     0
 40
0.0
 41
1.0
 50
0.0
 71
     0
 42
3.5
  3
ISOCP.SHX
  4

  0
STYLE
  5
2205
330
3
100
AcDbSymbolTableRecord
100
AcDbTextStyleTableRecord
  2

 70
     1
 40
0.0
 41
1.0
 50
0.0
 71
     0
 42
3.5
  3
genltshp.shx
  4

  0
STYLE
  5
2218
330
3
100
AcDbSymbolTableRecord
100
AcDbTextStyleTableRecord
  2
ACDINTS
 70
     0
 40
1.0
 41
1.0
 50
0.0
 71
     0
 42
3.5
  3
isocp.shx
  4

  0
STYLE
  5
2219
330
3
100
AcDbSymbolTableRecord
100
AcDbTextStyleTableRecord
  2
ACDINGDT
 70
     0
 40
0.0
 41
1.0
 50
0.0
 71
     0
 42
3.5
  3
amgdt.shx
  4

  0
ENDTAB
  0
TABLE
  2
VIEW
  5
6
330
0
100
AcDbSymbolTable
 70
     0
  0
ENDTAB
  0
TABLE
  2
UCS
  5
7
330
0
100
AcDbSymbolTable
 70
     0
  0
ENDTAB
  0
TABLE
  2
APPID
  5
9
330
0
100
AcDbSymbolTable
 70
    15
  0
APPID
  5
11
330
9
100
AcDbSymbolTableRecord
100
AcDbRegAppTableRecord
  2
ACAD
 70
     0
  0
APPID
  5
10CD
330
9
100
AcDbSymbolTableRecord
100
AcDbRegAppTableRecord
  2
CONTENTBLOCKICON
 70
     0
  0
APPID
  5
10CE
330
9
100
AcDbSymbolTableRecord
100
AcDbRegAppTableRecord
  2
CONTENTBLOCKDESCRIPTION
 70
     0
  0
APPID
  5
217C
330
9
100
AcDbSymbolTableRecord
100
AcDbRegAppTableRecord
  2
ACAD_MLEADERVER
 70
     0
  0
APPID
  5
2189
330
9
100
AcDbSymbolTableRecord
100
AcDbRegAppTableRecord
  2
MCAD_NO_VIS
 70
     0
  0
APPID
  5
218A
330
9
100
AcDbSymbolTableRecord
100
AcDbRegAppTableRecord
  2
ACAD_TEMP_GRAPHIC
 70
     0
  0
APPID
  5
21BA
330
9
100
AcDbSymbolTableRecord
100
AcDbRegAppTableRecord
  2
AD_DRAW
 70
     0
  0
APPID
  5
21BD
330
9
100
AcDbSymbolTableRecord
100
AcDbRegAppTableRecord
  2
ACATTRIBSERVICES
 70
     0
  0
APPID
  5
21DE
330
9
100
AcDbSymbolTableRecord
100
AcDbRegAppTableRecord
  2
DESIGNERASSEMBLIES
 70
     0
  0
APPID
  5
21E4
330
9
100
AcDbSymbolTableRecord
100
AcDbRegAppTableRecord
  2
ACADM_DIM_EDIT
 70
     0
  0
APPID
  5
21E5
330
9
100
AcDbSymbolTableRecord
100
AcDbRegAppTableRecord
  2
AMDT_DM_ADJ
 70
     0
  0
APPID
  5
224B
330
9
100
AcDbSymbolTableRecord
100
AcDbRegAppTableRecord
  2
ACAD_DSTYLE_DIMJOGGED_JOGANGLE_SYMBOL
 70
     0
  0
APPID
  5
224C
330
9
100
AcDbSymbolTableRecord
100
AcDbRegAppTableRecord
  2
ACAD_DSTYLE_DIM_LINETYPE
 70
     0
  0
APPID
  5
224D
330
9
100
AcDbSymbolTableRecord
100
AcDbRegAppTableRecord
  2
ACAD_DSTYLE_DIM_EXT1_LINETYPE
 70
     0
  0
APPID
  5
224E
330
9
100
AcDbSymbolTableRecord
100
AcDbRegAppTableRecord
  2
ACAD_DSTYLE_DIM_EXT2_LINETYPE
 70
     0
  0
ENDTAB
  0
TABLE
  2
DIMSTYLE
  5
A
330
0
100
AcDbSymbolTable
 70
     8
100
AcDbDimStyleTable
 71
     0
  0
DIMSTYLE
105
24
330
A
100
AcDbSymbolTableRecord
100
AcDbDimStyleTableRecord
  2
GEN-ISO
 70
     0
 41
2.5
 42
1.0
 43
10.0
 44
2.0
 47
0.1
 48
0.1
 73
     0
 74
     0
 77
     1
 78
     8
140
3.5
141
-2.0
147
1.5
172
     1
178
     2
271
     2
272
     5
283
     0
284
     8
285
     8
286
     8
340
10
  0
DIMSTYLE
105
21FC
102
{ACAD_REACTORS
330
21EB
102
}
330
A
100
AcDbSymbolTableRecord
100
AcDbDimStyleTableRecord
  2
AM_DIN
 70
     0
  4
"
 41
3.5
 42
1.0
 43
10.0
 44
1.0
 47
0.1
 48
0.1
 73
     0
 74
     0
 77
     1
 78
     8
 79
     2
140
3.5
141
0.0
143
0.0393701
146
0.71
147
1.5
172
     1
176
   256
177
   256
178
     2
271
     2
272
     3
274
     4
283
     0
284
     8
340
10
371
    -1
372
    -1
1001
ACAD_DSTYLE_DIMJOGGED_JOGANGLE_SYMBOL
1070
   384
1040
1.570796326794896
1001
ACAD_DSTYLE_DIM_LINETYPE
1070
   380
1005
12
1001
ACAD_DSTYLE_DIM_EXT1_LINETYPE
1070
   381
1005
12
1001
ACAD_DSTYLE_DIM_EXT2_LINETYPE
1070
   382
1005
12
  0
DIMSTYLE
105
220C
330
A
100
AcDbSymbolTableRecord
100
AcDbDimStyleTableRecord
  2
AM_DIN$3
 70
     0
  4
"
 41
3.5
 42
1.0
 43
10.0
 44
1.0
 47
0.1
 48
0.1
 73
     0
 77
     1
 78
     8
 79
     2
140
3.5
141
0.0
143
0.0393701
146
0.71
147
1.5
176
   256
177
   256
178
     2
271
     2
272
     3
274
     4
283
     0
284
     8
288
     1
289
     0
340
10
371
    -1
372
    -1
1001
ACAD_DSTYLE_DIMJOGGED_JOGANGLE_SYMBOL
1070
   384
1040
1.570796326794896
1001
ACAD_DSTYLE_DIM_LINETYPE
1070
   380
1005
12
1001
ACAD_DSTYLE_DIM_EXT1_LINETYPE
1070
   381
1005
12
1001
ACAD_DSTYLE_DIM_EXT2_LINETYPE
1070
   382
1005
12
  0
DIMSTYLE
105
220D
330
A
100
AcDbSymbolTableRecord
100
AcDbDimStyleTableRecord
  2
AM_DIN$4
 70
     0
  4
"
 41
3.5
 42
1.0
 43
10.0
 44
1.0
 47
0.1
 48
0.1
 73
     0
 77
     1
 78
     8
 79
     2
140
3.5
141
0.0
143
0.0393701
146
0.71
147
1.5
176
   256
177
   256
178
     2
271
     2
272
     3
274
     4
283
     0
284
     8
288
     1
289
     0
340
10
371
    -1
372
    -1
1001
ACAD_DSTYLE_DIMJOGGED_JOGANGLE_SYMBOL
1070
   384
1040
1.570796326794896
1001
ACAD_DSTYLE_DIM_LINETYPE
1070
   380
1005
12
1001
ACAD_DSTYLE_DIM_EXT1_LINETYPE
1070
   381
1005
12
1001
ACAD_DSTYLE_DIM_EXT2_LINETYPE
1070
   382
1005
12
  0
DIMSTYLE
105
220E
330
A
100
AcDbSymbolTableRecord
100
AcDbDimStyleTableRecord
  2
AM_DIN$6
 70
     0
  4
"
 41
3.5
 42
1.0
 43
10.0
 44
1.0
 47
0.1
 48
0.1
 73
     0
 74
     0
 78
     8
 79
     2
140
3.5
141
0.0
143
0.0393701
146
0.71
147
1.5
172
     1
176
   256
177
   256
178
     2
271
     2
272
     3
274
     4
283
     0
284
     8
340
10
371
    -1
372
    -1
1001
ACAD_DSTYLE_DIMJOGGED_JOGANGLE_SYMBOL
1070
   384
1040
1.570796326794896
1001
ACAD_DSTYLE_DIM_LINETYPE
1070
   380
1005
12
1001
ACAD_DSTYLE_DIM_EXT1_LINETYPE
1070
   381
1005
12
1001
ACAD_DSTYLE_DIM_EXT2_LINETYPE
1070
   382
1005
12
  0
DIMSTYLE
105
220F
330
A
100
AcDbSymbolTableRecord
100
AcDbDimStyleTableRecord
  2
AM_DIN$7
 70
     0
  4
"
 41
3.5
 42
1.0
 43
10.0
 44
1.0
 47
0.1
 48
0.1
 73
     0
 74
     0
 77
     1
 78
     8
 79
     2
140
3.5
141
0.0
143
0.0393701
146
0.71
147
1.5
172
     1
176
   256
177
   256
178
     2
271
     2
272
     3
274
     4
283
     0
284
     8
340
10
371
    -1
372
    -1
1001
ACAD_DSTYLE_DIMJOGGED_JOGANGLE_SYMBOL
1070
   384
1040
1.570796326794896
1001
ACAD_DSTYLE_DIM_LINETYPE
1070
   380
1005
12
1001
ACAD_DSTYLE_DIM_EXT1_LINETYPE
1070
   381
1005
12
1001
ACAD_DSTYLE_DIM_EXT2_LINETYPE
1070
   382
1005
12
  0
DIMSTYLE
105
2210
330
A
100
AcDbSymbolTableRecord
100
AcDbDimStyleTableRecord
  2
AM_DIN$SF
 70
     0
  4
"
 41
3.5
 42
1.0
 43
10.0
 44
1.0
 47
0.1
 48
0.1
 73
     0
 74
     0
 75
     1
 76
     1
 77
     1
 78
     8
 79
     2
140
3.5
141
0.0
143
0.0393701
146
0.71
147
1.5
172
     1
176
   256
177
   256
178
     2
271
     2
272
     3
274
     4
283
     0
284
     8
340
10
371
    -1
372
    -1
1001
ACAD_DSTYLE_DIMJOGGED_JOGANGLE_SYMBOL
1070
   384
1040
1.570796326794896
1001
ACAD_DSTYLE_DIM_LINETYPE
1070
   380
1005
12
1001
ACAD_DSTYLE_DIM_EXT1_LINETYPE
1070
   381
1005
12
1001
ACAD_DSTYLE_DIM_EXT2_LINETYPE
1070
   382
1005
12
  0
DIMSTYLE
105
2215
330
A
100
AcDbSymbolTableRecord
100
AcDbDimStyleTableRecord
  2
AM_DIN$SH
 70
     0
  4
"
 41
3.5
 42
1.0
 43
10.0
 44
1.0
 47
0.1
 48
0.1
 73
     0
 74
     0
 75
     1
 76
     1
 77
     1
 78
     8
 79
     2
140
3.5
141
0.0
143
0.0393701
144
2.0
146
0.71
147
1.5
172
     1
173
     1
176
   256
177
   256
178
     2
271
     2
272
     3
274
     4
283
     0
284
     8
340
10
343
2211
371
    -1
372
    -1
1001
ACAD_DSTYLE_DIMJOGGED_JOGANGLE_SYMBOL
1070
   384
1040
1.570796326794896
1001
ACAD_DSTYLE_DIM_LINETYPE
1070
   380
1005
12
1001
ACAD_DSTYLE_DIM_EXT1_LINETYPE
1070
   381
1005
12
1001
ACAD_DSTYLE_DIM_EXT2_LINETYPE
1070
   382
1005
12
  0
ENDTAB
  0
TABLE
  2
BLOCK_RECORD
  5
1
330
0
100
AcDbSymbolTable
 70
     3
  0
BLOCK_RECORD
  5
18
330
1
100
AcDbSymbolTableRecord
100
AcDbBlockTableRecord
  2
*MODEL_SPACE
340
217F
  0
BLOCK_RECORD
  5
15
330
1
100
AcDbSymbolTableRecord
100
AcDbBlockTableRecord
  2
*PAPER_SPACE
340
2180
  0
BLOCK_RECORD
  5
2211
330
1
100
AcDbSymbolTableRecord
100
AcDbBlockTableRecord
  2
GENAXEH
340
0
  0
ENDTAB
  0
ENDSEC
  0
SECTION
  2
BLOCKS
  0
BLOCK
  5
44
330
18
100
AcDbEntity
  8
0
100
AcDbBlockBegin
  2
*MODEL_SPACE
 70
     0
 10
0.0
 20
0.0
 30
0.0
  3
*MODEL_SPACE
  1

  0
ENDBLK
  5
45
330
18
100
AcDbEntity
  8
0
100
AcDbBlockEnd
  0
BLOCK
  5
42
330
15
100
AcDbEntity
 67
     1
  8
0
100
AcDbBlockBegin
  2
*PAPER_SPACE
 70
     0
 10
0.0
 20
0.0
 30
0.0
  3
*PAPER_SPACE
  1

  0
ENDBLK
  5
43
330
15
100
AcDbEntity
 67
     1
  8
0
100
AcDbBlockEnd
  0
BLOCK
  5
2213
330
2211
100
AcDbEntity
  8
0
100
AcDbBlockBegin
  2
GENAXEH
 70
     0
 10
0.0
 20
0.0
 30
0.0
  3
GENAXEH
  1

  0
LINE
  5
2212
330
2211
100
AcDbEntity
  8
0
100
AcDbLine
 10
-1.0
 20
0.0
 30
0.0
 11
1.0
 21
0.0
 31
0.0
  0
ENDBLK
  5
2214
330
2211
100
AcDbEntity
  8
0
100
AcDbBlockEnd
  0
ENDSEC
  0
SECTION
  2
ENTITIES
  0
LINE
  5
9A7
330
18
100
AcDbEntity
  8
MSL-90-R25-S-0
  6
Continuous
 62
     7
370
     0
100
AcDbLine
 10
37.68337778999427
 20
505.5771996475654
 30
0.0
 11
58.28337778999429
 21
505.5771996475654
 31
0.0
  0
LINE
  5
9A8
330
18
100
AcDbEntity
  8
MSL-90-R25-S-0
  6
Continuous
 62
     7
370
     0
100
AcDbLine
 10
37.68337778999427
 20
504.9769477474846
 30
0.0
 11
63.98337778999433
 21
504.9769477474846
 31
0.0
  0
LINE
  5
9A9
330
18
100
AcDbEntity
  8
MSL-90-R25-S-0
  6
Continuous
 62
     7
370
     0
100
AcDbLine
 10
37.68337778999427
 20
514.4770865474847
 30
0.0
 11
58.28337778999429
 21
514.4770865474847
 31
0.0
  0
LINE
  5
9AA
330
18
100
AcDbEntity
  8
MSL-90-R25-S-0
  6
Continuous
 62
     7
370
     0
100
AcDbLine
 10
180.4833777899943
 20
539.4771685474844
 30
0.0
 11
30.48337778999434
 21
539.4771685474845
 31
0.0
  0
LINE
  5
9AB
330
18
100
AcDbEntity
  8
MSL-90-R25-S-0
  6
Continuous
 62
     7
370
     0
100
AcDbLine
 10
30.48337778999434
 20
539.9771685474846
 30
0.0
 11
180.4833777899943
 21
539.9771685474846
 31
0.0
  0
LINE
  5
9AC
330
18
100
AcDbEntity
  8
MSL-90-R25-S-0
  6
Continuous
 62
     7
370
     0
100
AcDbLine
 10
180.4833777899943
 20
514.9771685474845
 30
0.0
 11
30.48337778999434
 21
514.9771685474845
 31
0.0
  0
LINE
  5
9AD
330
18
100
AcDbEntity
  8
MSL-90-R25-S-0
  6
Continuous
 62
     7
370
     0
100
AcDbLine
 10
290.4833777899943
 20
502.4772295589273
 30
0.0
 11
20.48337778999422
 21
502.4772295589273
 31
0.0
  0
LINE
  5
9AE
330
18
100
AcDbEntity
  8
MSL-90-R25-S-0
  6
Continuous
 62
     7
370
     0
100
AcDbLine
 10
290.4833777899943
 20
467.9771685474846
 30
0.0
 11
20.48337778999422
 21
467.9771685474845
 31
0.0
  0
LINE
  5
9AF
330
18
100
AcDbEntity
  8
MSL-90-R25-S-0
  6
Continuous
 62
     7
370
     0
100
AcDbLine
 10
290.4833777899943
 20
454.9771685474846
 30
0.0
 11
20.48337778999422
 21
454.9771685474845
 31
0.0
  0
LINE
  5
9B0
330
18
100
AcDbEntity
  8
MSL-90-R25-S-0
  6
Continuous
 62
     7
370
     0
100
AcDbLine
 10
290.4833777899943
 20
498.4771685474846
 30
0.0
 11
20.48337778999422
 21
498.4771685474845
 31
0.0
  0
LINE
  5
9B1
330
18
100
AcDbEntity
  8
MSL-90-R25-S-0
  6
Continuous
 62
     7
370
     0
100
AcDbLine
 10
290.4833777899943
 20
501.9771685474846
 30
0.0
 11
20.48337778999422
 21
501.9771685474845
 31
0.0
  0
LINE
  5
9B5
330
18
100
AcDbEntity
  8
MSL-90-R25-S-0
  6
Continuous
 62
     7
370
     0
100
AcDbLine
 10
22.48337778999434
 20
538.4771685474846
 30
0.0
 11
22.48337778999434
 21
524.4771685474845
 31
0.0
  0
LINE
  5
9B6
330
18
100
AcDbEntity
  8
MSL-90-R25-S-0
  6
Continuous
 62
     7
370
     0
100
AcDbLine
 10
30.48337778999434
 20
539.4771685474847
 30
0.0
 11
30.48337778999434
 21
514.9771685474845
 31
0.0
  0
ARC
  5
9BB
330
18
100
AcDbEntity
  8
MSL-90-R25-S-0
  6
Continuous
 62
     7
370
     0
100
AcDbCircle
 10
-7.016622210005778
 20
481.6771685474852
 30
0.0
 40
8.0
100
AcDbArc
 50
108.2099568642828
 51
71.79004313571656
  0
LINE
  5
9C2
330
18
100
AcDbEntity
  8
MSL-90-R25-S-0
  6
Continuous
 62
     7
370
     0
100
AcDbLine
 10
-39.51662221000578
 20
521.9771685474852
 30
0.0
 11
20.48337778999422
 21
521.9771685474852
 31
0.0
  0
LINE
  5
9C3
330
18
100
AcDbEntity
  8
MSL-90-R25-S-0
  6
Continuous
 62
     7
370
     0
100
AcDbLine
 10
-39.51662221000578
 20
455.4771685474851
 30
0.0
 11
20.48337778999422
 21
455.4771685474851
 31
0.0
  0
CIRCLE
  5
9C4
330
18
100
AcDbEntity
  8
MSL-90-R25-S-0
  6
Continuous
 62
     7
370
     0
100
AcDbCircle
 10
-7.016622210005778
 20
481.6771685474852
 30
0.0
 40
18.5
  0
LINE
  5
9C5
330
18
100
AcDbEntity
  8
MSL-90-R25-S-0
  6
Continuous
 62
     7
370
     0
100
AcDbLine
 10
-39.51662221000578
 20
521.9771685474852
 30
0.0
 11
-39.51662221000584
 21
455.4771685474852
 31
0.0
  0
ARC
  5
9C6
330
18
100
AcDbEntity
  8
MSL-90-R25-S-5
370
     0
100
AcDbCircle
 10
-25.01662221000578
 20
463.6771685474851
 30
0.0
 40
3.0
100
AcDbArc
 50
255.0
 51
195.0000000000001
  0
CIRCLE
  5
9C7
330
18
100
AcDbEntity
  8
MSL-90-R25-S-0
  6
Continuous
 62
     7
370
     0
100
AcDbCircle
 10
-25.01662221000578
 20
463.6771685474851
 30
0.0
 40
2.5
  0
ARC
  5
9C8
330
18
100
AcDbEntity
  8
MSL-90-R25-S-5
370
     0
100
AcDbCircle
 10
-25.01662221000578
 20
499.6771685474851
 30
0.0
 40
3.0
100
AcDbArc
 50
255.0000000000003
 51
195.0
  0
CIRCLE
  5
9C9
330
18
100
AcDbEntity
  8
MSL-90-R25-S-0
  6
Continuous
 62
     7
370
     0
100
AcDbCircle
 10
-25.01662221000578
 20
499.6771685474851
 30
0.0
 40
2.5
  0
LINE
  5
9CA
330
18
100
AcDbEntity
  8
MSL-90-R25-S-0
  6
Continuous
 62
     7
370
     0
100
AcDbLine
 10
20.48337778999422
 20
521.9771685474852
 30
0.0
 11
20.48337778999422
 21
454.9771685474845
 31
0.0
  0
ARC
  5
9CB
330
18
100
AcDbEntity
  8
MSL-90-R25-S-5
370
     0
100
AcDbCircle
 10
10.98337778999422
 20
463.6771685474851
 30
0.0
 40
3.0
100
AcDbArc
 50
254.9999999999992
 51
194.9999999999989
  0
CIRCLE
  5
9CC
330
18
100
AcDbEntity
  8
MSL-90-R25-S-0
  6
Continuous
 62
     7
370
     0
100
AcDbCircle
 10
10.98337778999422
 20
463.6771685474851
 30
0.0
 40
2.5
  0
LINE
  5
9CE
330
18
100
AcDbEntity
  8
MSL-90-R25-S-0
  6
Continuous
 62
     7
370
     0
100
AcDbLine
 10
-9.516622210005776
 20
491.9771685474851
 30
0.0
 11
-4.516622210005776
 21
491.9771685474851
 31
0.0
  0
LINE
  5
9D1
330
18
100
AcDbEntity
  8
MSL-90-R25-S-0
  6
Continuous
 62
     7
370
     0
100
AcDbLine
 10
-4.516622210005776
 20
491.9771685474851
 30
0.0
 11
-4.516622210005776
 21
489.2765106242705
 31
0.0
  0
LINE
  5
9D2
330
18
100
AcDbEntity
  8
MSL-90-R25-S-0
  6
Continuous
 62
     7
370
     0
100
AcDbLine
 10
-9.516622210005776
 20
489.2765106242705
 30
0.0
 11
-9.516622210005776
 21
491.9771685474851
 31
0.0
  0
ARC
  5
9D9
330
18
100
AcDbEntity
  8
MSL-90-R25-S-5
370
     0
100
AcDbCircle
 10
10.98337778999422
 20
499.6771685474851
 30
0.0
 40
3.0
100
AcDbArc
 50
255.0
 51
194.9999999999999
  0
CIRCLE
  5
9DA
330
18
100
AcDbEntity
  8
MSL-90-R25-S-0
  6
Continuous
 62
     7
370
     0
100
AcDbCircle
 10
10.98337778999422
 20
499.6771685474851
 30
0.0
 40
2.5
  0
LINE
  5
9DB
330
18
100
AcDbEntity
  8
MSL-90-R25-S-0
  6
Continuous
 62
     7
370
     0
100
AcDbLine
 10
31.98337778999434
 20
513.7768905474846
 30
0.0
 11
31.98337778999434
 21
505.3776139474846
 31
0.0
  0
LINE
  5
9DC
330
18
100
AcDbEntity
  8
MSL-90-R25-S-0
  6
Continuous
 62
     7
370
     0
100
AcDbLine
 10
37.68337778999427
 20
505.5771996475654
 30
0.0
 11
37.68337778999427
 21
514.4770865474846
 31
0.0
  0
LINE
  5
9DD
330
18
100
AcDbEntity
  8
MSL-90-R25-S-0
  6
Continuous
 62
     7
370
     0
100
AcDbLine
 10
30.48337778999434
 20
504.9769477474846
 30
0.0
 11
30.48337778999434
 21
510.9769514242508
 31
0.0
  0
LINE
  5
9DE
330
18
100
AcDbEntity
  8
MSL-90-R25-S-0
  6
Continuous
 62
     7
370
     0
100
AcDbLine
 10
31.48337778999434
 20
510.2269439474847
 30
0.0
 11
31.48337778999434
 21
504.9769477474846
 31
0.0
  0
LINE
  5
9DF
330
18
100
AcDbEntity
  8
MSL-90-R25-S-0
  6
Continuous
 62
     7
370
     0
100
AcDbLine
 10
30.48337778999434
 20
504.9972541576129
 30
0.0
 11
20.48337778999423
 21
504.9972541576129
 31
0.0
  0
LINE
  5
9E0
330
18
100
AcDbEntity
  8
MSL-90-R25-S-0
  6
Continuous
 62
     7
370
     0
100
AcDbLine
 10
30.48337778999434
 20
506.0289599722032
 30
0.0
 11
20.48337778999423
 21
506.0289599722033
 31
0.0
  0
LINE
  5
9E3
330
18
100
AcDbEntity
  8
MSL-90-R25-S-0
  6
Continuous
 62
     7
370
     0
100
AcDbLine
 10
37.68337778999427
 20
505.3776142143627
 30
0.0
 11
31.98337778999434
 21
505.3776139474846
 31
0.0
  0
LINE
  5
9E4
330
18
100
AcDbEntity
  8
MSL-90-R25-S-0
  6
Continuous
 62
     7
370
     0
100
AcDbLine
 10
37.68337778999427
 20
504.9769477474846
 30
0.0
 11
31.98337778999434
 21
504.9769477474846
 31
0.0
  0
LINE
  5
9E5
330
18
100
AcDbEntity
  8
MSL-90-R25-S-0
  6
Continuous
 62
     7
370
     0
100
AcDbLine
 10
31.98337778999434
 20
505.3776139474846
 30
0.0
 11
31.98337778999434
 21
504.977589147026
 31
0.0
  0
LINE
  5
9E6
330
18
100
AcDbEntity
  8
MSL-90-R25-S-0
  6
Continuous
 62
     7
370
     0
100
AcDbLine
 10
31.98337778999434
 20
504.9769477474846
 30
0.0
 11
31.48337778999434
 21
504.9769477474846
 31
0.0
  0
LINE
  5
9E7
330
18
100
AcDbEntity
  8
MSL-90-R25-S-0
  6
Continuous
 62
     7
370
     0
100
AcDbLine
 10
31.48337778999434
 20
504.9769477474846
 30
0.0
 11
30.48337778999434
 21
504.9769477474846
 31
0.0
  0
LINE
  5
9E8
330
18
100
AcDbEntity
  8
MSL-90-R25-S-0
  6
Continuous
 62
     7
370
     0
100
AcDbLine
 10
31.98337778999434
 20
504.9769477474846
 30
0.0
 11
31.98337778999434
 21
504.977589147026
 31
0.0
  0
LINE
  5
9E9
330
18
100
AcDbEntity
  8
MSL-90-R25-S-0
  6
Continuous
 62
     7
370
     0
100
AcDbLine
 10
37.68337778999427
 20
504.9769477474846
 30
0.0
 11
37.68337778999427
 21
505.3776142143627
 31
0.0
  0
LINE
  5
9EA
330
18
100
AcDbEntity
  8
MSL-90-R25-S-0
  6
Continuous
 62
     7
370
     0
100
AcDbLine
 10
37.68337778999427
 20
505.3776142143627
 30
0.0
 11
37.68337778999427
 21
505.5771996475654
 31
0.0
  0
LINE
  5
9EB
330
18
100
AcDbEntity
  8
MSL-90-R25-S-0
  6
Continuous
 62
     7
370
     0
100
AcDbLine
 10
22.48337778999434
 20
524.4771685474846
 30
0.0
 11
30.48337778999434
 21
524.4771685474846
 31
0.0
  0
LINE
  5
9EC
330
18
100
AcDbEntity
  8
MSL-90-R25-S-0
  6
Continuous
 62
     7
370
     0
100
AcDbLine
 10
30.48337778999434
 20
523.4771685474846
 30
0.0
 11
22.48337778999434
 21
523.4771685474846
 31
0.0
  0
LINE
  5
9ED
330
18
100
AcDbEntity
  8
MSL-90-R25-S-0
  6
Continuous
 62
     7
370
     0
100
AcDbLine
 10
30.48337778999434
 20
508.4733316164717
 30
0.0
 11
20.48337778999423
 21
508.4733316164718
 31
0.0
  0
LINE
  5
9EE
330
18
100
AcDbEntity
  8
MSL-90-R25-S-0
  6
Continuous
 62
     7
370
     0
100
AcDbLine
 10
30.48337778999434
 20
509.4771763974828
 30
0.0
 11
20.48337778999423
 21
509.4771763974828
 31
0.0
  0
LINE
  5
9EF
330
18
100
AcDbEntity
  8
MSL-90-R25-S-0
  6
Continuous
 62
     7
370
     0
100
AcDbLine
 10
22.48337778999434
 20
523.4771685474846
 30
0.0
 11
22.48337778999434
 21
524.4771685474846
 31
0.0
  0
LINE
  5
9F0
330
18
100
AcDbEntity
  8
MSL-90-R25-S-0
  6
Continuous
 62
     7
370
     0
100
AcDbLine
 10
37.68337778999427
 20
514.2769435474845
 30
0.0
 11
31.98337778999434
 21
514.2769435474845
 31
0.0
  0
LINE
  5
9F1
330
18
100
AcDbEntity
  8
MSL-90-R25-S-0
  6
Continuous
 62
     7
370
     0
100
AcDbLine
 10
37.68337778999427
 20
513.7768905474846
 30
0.0
 11
31.98337778999434
 21
513.7768905474846
 31
0.0
  0
LINE
  5
9F2
330
18
100
AcDbEntity
  8
MSL-90-R25-S-0
  6
Continuous
 62
     7
370
     0
100
AcDbLine
 10
31.98337778999434
 20
510.2269439474847
 30
0.0
 11
31.48337778999434
 21
510.2269439474847
 31
0.0
  0
LINE
  5
9F3
330
18
100
AcDbEntity
  8
MSL-90-R25-S-0
  6
Continuous
 62
     7
370
     0
100
AcDbLine
 10
31.98337778999434
 20
514.2769435474845
 30
0.0
 11
31.48337778999434
 21
514.2769435474845
 31
0.0
  0
LINE
  5
9F4
330
18
100
AcDbEntity
  8
MSL-90-R25-S-0
  6
Continuous
 62
     7
370
     0
100
AcDbLine
 10
30.98337778999434
 20
511.4769514242508
 30
0.0
 11
30.48337778999434
 21
510.9769514242508
 31
0.0
  0
LINE
  5
9F5
330
18
100
AcDbEntity
  8
MSL-90-R25-S-0
  6
Continuous
 62
     7
370
     0
100
AcDbLine
 10
31.98337778999434
 20
514.2769435474845
 30
0.0
 11
31.98337778999434
 21
513.7768905474846
 31
0.0
  0
ARC
  5
9F6
330
18
100
AcDbEntity
  8
MSL-90-R25-S-0
  6
Continuous
 62
     7
370
     0
100
AcDbCircle
 10
31.18337778999432
 20
513.3769471474846
 30
0.0
 40
0.2
100
AcDbArc
 50
90.0
 51
180.0
  0
LINE
  5
9F7
330
18
100
AcDbEntity
  8
MSL-90-R25-S-0
  6
Continuous
 62
     7
370
     0
100
AcDbLine
 10
31.98337778999434
 20
513.5769471474845
 30
0.0
 11
31.18337778999427
 21
513.5769471474845
 31
0.0
  0
LINE
  5
9F8
330
18
100
AcDbEntity
  8
MSL-90-R25-S-0
  6
Continuous
 62
     7
370
     0
100
AcDbLine
 10
30.98337778999434
 20
513.3769471474846
 30
0.0
 11
30.98337778999434
 21
510.5769483474846
 31
0.0
  0
LINE
  5
9F9
330
18
100
AcDbEntity
  8
MSL-90-R25-S-0
  6
Continuous
 62
     7
370
     0
100
AcDbLine
 10
31.48337778999434
 20
510.3769483474847
 30
0.0
 11
31.48337778999434
 21
510.2269439474847
 31
0.0
  0
LINE
  5
9FA
330
18
100
AcDbEntity
  8
MSL-90-R25-S-0
  6
Continuous
 62
     7
370
     0
100
AcDbLine
 10
31.48337778999434
 20
514.2769435474845
 30
0.0
 11
31.48337778999434
 21
513.5769471474845
 31
0.0
  0
ARC
  5
9FB
330
18
100
AcDbEntity
  8
MSL-90-R25-S-0
  6
Continuous
 62
     7
370
     0
100
AcDbCircle
 10
31.18337778999432
 20
510.5769483474847
 30
0.0
 40
0.2
100
AcDbArc
 50
180.0
 51
270.0
  0
LINE
  5
9FC
330
18
100
AcDbEntity
  8
MSL-90-R25-S-0
  6
Continuous
 62
     7
370
     0
100
AcDbLine
 10
31.18337778999432
 20
510.3769483474846
 30
0.0
 11
31.98337778999434
 21
510.3769483474846
 31
0.0
  0
LINE
  5
9FD
330
18
100
AcDbEntity
  8
MSL-90-R25-S-0
  6
Continuous
 62
     7
370
     0
100
AcDbLine
 10
37.68337778999427
 20
514.4770865474847
 30
0.0
 11
37.68337778999427
 21
514.9771685474846
 31
0.0
  0
LINE
  5
A05
330
18
100
AcDbEntity
  8
MSL-90-R25-S-0
  6
Continuous
 62
     7
370
     0
100
AcDbLine
 10
30.48337778999434
 20
538.4771685474846
 30
0.0
 11
22.48337778999434
 21
538.4771685474846
 31
0.0
  0
LINE
  5
A06
330
18
100
AcDbEntity
  8
MSL-90-R25-S-0
  6
Continuous
 62
     7
370
     0
100
AcDbLine
 10
22.48337778999434
 20
539.4771685474847
 30
0.0
 11
30.48337778999434
 21
539.4771685474847
 31
0.0
  0
LINE
  5
A07
330
18
100
AcDbEntity
  8
MSL-90-R25-S-0
  6
Continuous
 62
     7
370
     0
100
AcDbLine
 10
22.48337778999434
 20
538.4771685474846
 30
0.0
 11
22.48337778999434
 21
539.4771685474847
 31
0.0
  0
LINE
  5
A08
330
18
100
AcDbEntity
  8
MSL-90-R25-S-0
  6
Continuous
 62
     7
370
     0
100
AcDbLine
 10
30.48337778999434
 20
539.4771685474847
 30
0.0
 11
30.48337778999434
 21
539.9771685474846
 31
0.0
  0
LINE
  5
ACD
330
18
100
AcDbEntity
  8
MSL-90-R25-S-0
  6
Continuous
 62
     7
370
     0
100
AcDbLine
 10
152.6833777899942
 20
513.7768835474845
 30
0.0
 11
146.9833777899942
 21
513.7768835474845
 31
0.0
  0
LINE
  5
ACE
330
18
100
AcDbEntity
  8
MSL-90-R25-S-0
  6
Continuous
 62
     7
370
     0
100
AcDbLine
 10
152.6833777899942
 20
514.2769435474844
 30
0.0
 11
146.9833777899942
 21
514.2769435474844
 31
0.0
  0
LINE
  5
ACF
330
18
100
AcDbEntity
  8
MSL-90-R25-S-0
  6
Continuous
 62
     7
370
     0
100
AcDbLine
 10
152.6833777899942
 20
505.3772010474845
 30
0.0
 11
146.9833777899942
 21
505.3772010474845
 31
0.0
  0
LINE
  5
AD0
330
18
100
AcDbEntity
  8
MSL-90-R25-S-0
  6
Continuous
 62
     7
370
     0
100
AcDbLine
 10
178.9833777899943
 20
504.9769477474845
 30
0.0
 11
146.9833777899943
 21
504.9769477474845
 31
0.0
  0
LINE
  5
AD1
330
18
100
AcDbEntity
  8
MSL-90-R25-S-0
  6
Continuous
 62
     7
370
     0
100
AcDbLine
 10
120.4833777899942
 20
510.9621685474847
 30
0.0
 11
90.58337778999424
 21
510.9621685474849
 31
0.0
  0
LINE
  5
AD2
330
18
100
AcDbEntity
  8
MSL-90-R25-S-0
  6
Continuous
 62
     7
370
     0
100
AcDbLine
 10
145.4833777899942
 20
504.9972541576128
 30
0.0
 11
65.48337778999433
 21
504.9972541576129
 31
0.0
  0
LINE
  5
AD3
330
18
100
AcDbEntity
  8
MSL-90-R25-S-0
  6
Continuous
 62
     7
370
     0
100
AcDbLine
 10
145.4833777899942
 20
506.0289599722032
 30
0.0
 11
65.48337778999428
 21
506.0289599722032
 31
0.0
  0
LINE
  5
AD4
330
18
100
AcDbEntity
  8
MSL-90-R25-S-0
  6
Continuous
 62
     7
370
     0
100
AcDbLine
 10
145.4833777899942
 20
508.4733316164717
 30
0.0
 11
65.48337778999433
 21
508.4733316164717
 31
0.0
  0
LINE
  5
AD5
330
18
100
AcDbEntity
  8
MSL-90-R25-S-0
  6
Continuous
 62
     7
370
     0
100
AcDbLine
 10
145.4833777899942
 20
509.4771763974828
 30
0.0
 11
65.48337778999433
 21
509.4771763974828
 31
0.0
  0
LINE
  5
AD6
330
18
100
AcDbEntity
  8
MSL-90-R25-S-0
  6
Continuous
 62
     7
370
     0
100
AcDbLine
 10
64.48337778999434
 20
504.9769477474846
 30
0.0
 11
64.48337778999434
 21
510.2269439474846
 31
0.0
  0
LINE
  5
AD7
330
18
100
AcDbEntity
  8
MSL-90-R25-S-0
  6
Continuous
 62
     7
370
     0
100
AcDbLine
 10
63.98337778999433
 20
505.3776139474846
 30
0.0
 11
63.98337778999433
 21
513.7768905474845
 31
0.0
  0
LINE
  5
AD8
330
18
100
AcDbEntity
  8
MSL-90-R25-S-0
  6
Continuous
 62
     7
370
     0
100
AcDbLine
 10
58.28337778999429
 20
505.5771996475654
 30
0.0
 11
58.28337778999429
 21
514.4770865474846
 31
0.0
  0
LINE
  5
AD9
330
18
100
AcDbEntity
  8
MSL-90-R25-S-0
  6
Continuous
 62
     7
370
     0
100
AcDbLine
 10
65.48337778999433
 20
510.9769514242508
 30
0.0
 11
65.48337778999433
 21
504.9769477474846
 31
0.0
  0
LINE
  5
ADA
330
18
100
AcDbEntity
  8
MSL-90-R25-S-0
  6
Continuous
 62
     7
370
     0
100
AcDbLine
 10
58.28337778999429
 20
505.3776144812413
 30
0.0
 11
63.98337778999433
 21
505.3776139474845
 31
0.0
  0
LINE
  5
ADB
330
18
100
AcDbEntity
  8
MSL-90-R25-S-0
  6
Continuous
 62
     7
370
     0
100
AcDbLine
 10
58.28337778999429
 20
505.3776144812413
 30
0.0
 11
58.28337778999429
 21
505.5771996475654
 31
0.0
  0
LINE
  5
ADC
330
18
100
AcDbEntity
  8
MSL-90-R25-S-0
  6
Continuous
 62
     7
370
     0
100
AcDbLine
 10
63.98337778999433
 20
504.9769477474846
 30
0.0
 11
64.48337778999434
 21
504.9769477474846
 31
0.0
  0
LINE
  5
ADD
330
18
100
AcDbEntity
  8
MSL-90-R25-S-0
  6
Continuous
 62
     7
370
     0
100
AcDbLine
 10
63.98337778999433
 20
504.977589147026
 30
0.0
 11
63.98337778999433
 21
504.9769477474846
 31
0.0
  0
LINE
  5
ADE
330
18
100
AcDbEntity
  8
MSL-90-R25-S-0
  6
Continuous
 62
     7
370
     0
100
AcDbLine
 10
63.98337778999433
 20
504.977589147026
 30
0.0
 11
63.98337778999433
 21
505.3776139474846
 31
0.0
  0
LINE
  5
ADF
330
18
100
AcDbEntity
  8
MSL-90-R25-S-0
  6
Continuous
 62
     7
370
     0
100
AcDbLine
 10
65.48337778999433
 20
504.9769477474846
 30
0.0
 11
64.48337778999434
 21
504.9769477474846
 31
0.0
  0
LINE
  5
AE0
330
18
100
AcDbEntity
  8
MSL-90-R25-S-0
  6
Continuous
 62
     7
370
     0
100
AcDbLine
 10
58.28337778999429
 20
513.7768905474846
 30
0.0
 11
63.98337778999433
 21
513.7768905474846
 31
0.0
  0
LINE
  5
AE1
330
18
100
AcDbEntity
  8
MSL-90-R25-S-0
  6
Continuous
 62
     7
370
     0
100
AcDbLine
 10
58.28337778999429
 20
514.2769435474845
 30
0.0
 11
63.98337778999433
 21
514.2769435474845
 31
0.0
  0
LINE
  5
AE2
330
18
100
AcDbEntity
  8
MSL-90-R25-S-0
  6
Continuous
 62
     7
370
     0
100
AcDbLine
 10
58.28337778999429
 20
514.4770865474847
 30
0.0
 11
58.28337778999429
 21
514.9771685474846
 31
0.0
  0
ARC
  5
AE3
330
18
100
AcDbEntity
  8
MSL-90-R25-S-0
  6
Continuous
 62
     7
370
     0
100
AcDbCircle
 10
64.78337778999429
 20
510.5769483474846
 30
0.0
 40
0.2
100
AcDbArc
 50
270.0
 51
0.0
  0
LINE
  5
AE4
330
18
100
AcDbEntity
  8
MSL-90-R25-S-0
  6
Continuous
 62
     7
370
     0
100
AcDbLine
 10
64.98337778999434
 20
511.4769514242508
 30
0.0
 11
65.48337778999433
 21
510.9769514242508
 31
0.0
  0
LINE
  5
AE5
330
18
100
AcDbEntity
  8
MSL-90-R25-S-0
  6
Continuous
 62
     7
370
     0
100
AcDbLine
 10
64.48337778999434
 20
513.5769471474845
 30
0.0
 11
64.48337778999434
 21
514.2769435474845
 31
0.0
  0
LINE
  5
AE6
330
18
100
AcDbEntity
  8
MSL-90-R25-S-0
  6
Continuous
 62
     7
370
     0
100
AcDbLine
 10
64.48337778999434
 20
510.2269439474847
 30
0.0
 11
64.48337778999434
 21
510.3769483474846
 31
0.0
  0
LINE
  5
AE7
330
18
100
AcDbEntity
  8
MSL-90-R25-S-0
  6
Continuous
 62
     7
370
     0
100
AcDbLine
 10
63.98337778999433
 20
510.2269439474847
 30
0.0
 11
64.48337778999434
 21
510.2269439474847
 31
0.0
  0
LINE
  5
AE8
330
18
100
AcDbEntity
  8
MSL-90-R25-S-0
  6
Continuous
 62
     7
370
     0
100
AcDbLine
 10
63.98337778999433
 20
514.2769435474844
 30
0.0
 11
64.48337778999434
 21
514.2769435474844
 31
0.0
  0
LINE
  5
AE9
330
18
100
AcDbEntity
  8
MSL-90-R25-S-0
  6
Continuous
 62
     7
370
     0
100
AcDbLine
 10
63.98337778999433
 20
513.7768905474846
 30
0.0
 11
63.98337778999433
 21
514.2769435474845
 31
0.0
  0
LINE
  5
AEA
330
18
100
AcDbEntity
  8
MSL-90-R25-S-0
  6
Continuous
 62
     7
370
     0
100
AcDbLine
 10
63.98337778999433
 20
510.3769483474846
 30
0.0
 11
64.78337778999429
 21
510.3769483474846
 31
0.0
  0
LINE
  5
AEB
330
18
100
AcDbEntity
  8
MSL-90-R25-S-0
  6
Continuous
 62
     7
370
     0
100
AcDbLine
 10
64.98337778999434
 20
510.5769483474846
 30
0.0
 11
64.98337778999434
 21
513.3769471474845
 31
0.0
  0
ARC
  5
AEC
330
18
100
AcDbEntity
  8
MSL-90-R25-S-0
  6
Continuous
 62
     7
370
     0
100
AcDbCircle
 10
64.78337778999429
 20
513.3769471474846
 30
0.0
 40
0.2
100
AcDbArc
 50
0.0
 51
90.0
  0
LINE
  5
AED
330
18
100
AcDbEntity
  8
MSL-90-R25-S-0
  6
Continuous
 62
     7
370
     0
100
AcDbLine
 10
64.78337778999429
 20
513.5769471474845
 30
0.0
 11
63.98337778999433
 21
513.5769471474845
 31
0.0
  0
LINE
  5
AEE
330
18
100
AcDbEntity
  8
MSL-90-R25-S-0
  6
Continuous
 62
     7
370
     0
100
AcDbLine
 10
90.58337778999424
 20
509.4771763974827
 30
0.0
 11
90.58337778999424
 21
510.9621685474849
 31
0.0
  0
LINE
  5
AEF
330
18
100
AcDbEntity
  8
MSL-90-R25-S-0
  6
Continuous
 62
     7
370
     0
100
AcDbLine
 10
90.58337778999424
 20
510.4621685474849
 30
0.0
 11
90.48337778999423
 21
510.4621685474849
 31
0.0
  0
LINE
  5
AF0
330
18
100
AcDbEntity
  8
MSL-90-R25-S-0
  6
Continuous
 62
     7
370
     0
100
AcDbLine
 10
90.48337778999416
 20
514.9771685474845
 30
0.0
 11
90.48337778999423
 21
509.4771763974828
 31
0.0
  0
LINE
  5
AF1
330
18
100
AcDbEntity
  8
MSL-90-R25-S-0
  6
Continuous
 62
     7
370
     0
100
AcDbLine
 10
120.4833777899942
 20
514.9771685474845
 30
0.0
 11
120.4833777899942
 21
509.4771763974828
 31
0.0
  0
LINE
  5
AF2
330
18
100
AcDbEntity
  8
MSL-90-R25-S-0
  6
Continuous
 62
     7
370
     0
100
AcDbLine
 10
146.4833777899942
 20
510.2269439474845
 30
0.0
 11
146.4833777899942
 21
504.9769477474845
 31
0.0
  0
LINE
  5
AF3
330
18
100
AcDbEntity
  8
MSL-90-R25-S-0
  6
Continuous
 62
     7
370
     0
100
AcDbLine
 10
146.9833777899942
 20
513.7768835474845
 30
0.0
 11
146.9833777899942
 21
505.3772010474845
 31
0.0
  0
LINE
  5
AF4
330
18
100
AcDbEntity
  8
MSL-90-R25-S-0
  6
Continuous
 62
     7
370
     0
100
AcDbLine
 10
145.4833777899942
 20
504.9769477474845
 30
0.0
 11
145.4833777899942
 21
510.9769514242508
 31
0.0
  0
LINE
  5
AF5
330
18
100
AcDbEntity
  8
MSL-90-R25-S-0
  6
Continuous
 62
     7
370
     0
100
AcDbLine
 10
146.9833777899942
 20
504.9769477474845
 30
0.0
 11
146.9833777899942
 21
504.9771792472689
 31
0.0
  0
LINE
  5
AF6
330
18
100
AcDbEntity
  8
MSL-90-R25-S-0
  6
Continuous
 62
     7
370
     0
100
AcDbLine
 10
146.9833777899942
 20
504.9769477474845
 30
0.0
 11
146.4833777899942
 21
504.9769477474845
 31
0.0
  0
LINE
  5
AF7
330
18
100
AcDbEntity
  8
MSL-90-R25-S-0
  6
Continuous
 62
     7
370
     0
100
AcDbLine
 10
146.9833777899942
 20
505.3772010474845
 30
0.0
 11
146.9833777899942
 21
504.9771792472689
 31
0.0
  0
LINE
  5
AF8
330
18
100
AcDbEntity
  8
MSL-90-R25-S-0
  6
Continuous
 62
     7
370
     0
100
AcDbLine
 10
146.4833777899942
 20
504.9769477474845
 30
0.0
 11
145.4833777899942
 21
504.9769477474845
 31
0.0
  0
LINE
  5
AF9
330
18
100
AcDbEntity
  8
MSL-90-R25-S-0
  6
Continuous
 62
     7
370
     0
100
AcDbLine
 10
145.9833777899942
 20
511.4769514242508
 30
0.0
 11
145.4833777899942
 21
510.9769514242508
 31
0.0
  0
LINE
  5
AFA
330
18
100
AcDbEntity
  8
MSL-90-R25-S-0
  6
Continuous
 62
     7
370
     0
100
AcDbLine
 10
146.4833777899942
 20
510.3769483474845
 30
0.0
 11
146.4833777899942
 21
510.2269334474845
 31
0.0
  0
LINE
  5
AFB
330
18
100
AcDbEntity
  8
MSL-90-R25-S-0
  6
Continuous
 62
     7
370
     0
100
AcDbLine
 10
146.4833777899942
 20
514.2769435474844
 30
0.0
 11
146.4833777899942
 21
513.5769471474845
 31
0.0
  0
LINE
  5
AFC
330
18
100
AcDbEntity
  8
MSL-90-R25-S-0
  6
Continuous
 62
     7
370
     0
100
AcDbLine
 10
146.9833777899942
 20
510.2269439474845
 30
0.0
 11
146.4833777899942
 21
510.2269439474845
 31
0.0
  0
LINE
  5
AFD
330
18
100
AcDbEntity
  8
MSL-90-R25-S-0
  6
Continuous
 62
     7
370
     0
100
AcDbLine
 10
146.9833777899942
 20
514.2769435474844
 30
0.0
 11
146.4833777899942
 21
514.2769435474844
 31
0.0
  0
LINE
  5
AFE
330
18
100
AcDbEntity
  8
MSL-90-R25-S-0
  6
Continuous
 62
     7
370
     0
100
AcDbLine
 10
146.9833777899942
 20
513.5769471474845
 30
0.0
 11
146.1833777899942
 21
513.5769471474845
 31
0.0
  0
LINE
  5
AFF
330
18
100
AcDbEntity
  8
MSL-90-R25-S-0
  6
Continuous
 62
     7
370
     0
100
AcDbLine
 10
146.9833777899942
 20
514.2769435474844
 30
0.0
 11
146.9833777899942
 21
513.7768835474846
 31
0.0
  0
ARC
  5
B00
330
18
100
AcDbEntity
  8
MSL-90-R25-S-0
  6
Continuous
 62
     7
370
     0
100
AcDbCircle
 10
146.1833777899942
 20
513.3769471474845
 30
0.0
 40
0.2
100
AcDbArc
 50
90.0
 51
180.0
  0
LINE
  5
B01
330
18
100
AcDbEntity
  8
MSL-90-R25-S-0
  6
Continuous
 62
     7
370
     0
100
AcDbLine
 10
145.9833777899942
 20
513.3769471474845
 30
0.0
 11
145.9833777899942
 21
510.5769483474845
 31
0.0
  0
LINE
  5
B02
330
18
100
AcDbEntity
  8
MSL-90-R25-S-0
  6
Continuous
 62
     7
370
     0
100
AcDbLine
 10
146.1833777899942
 20
510.3769483474845
 30
0.0
 11
146.9833777899943
 21
510.3769483474845
 31
0.0
  0
ARC
  5
B03
330
18
100
AcDbEntity
  8
MSL-90-R25-S-0
  6
Continuous
 62
     7
370
     0
100
AcDbCircle
 10
146.1833777899942
 20
510.5769483474845
 30
0.0
 40
0.2
100
AcDbArc
 50
180.0
 51
270.0
  0
LINE
  5
B07
330
18
100
AcDbEntity
  8
MSL-90-R25-S-0
  6
Continuous
 62
     7
370
     0
100
AcDbLine
 10
188.4833777899943
 20
524.4771685474845
 30
0.0
 11
188.4833777899943
 21
538.4771685474845
 31
0.0
  0
LINE
  5
B08
330
18
100
AcDbEntity
  8
MSL-90-R25-S-0
  6
Continuous
 62
     7
370
     0
100
AcDbLine
 10
180.4833777899943
 20
539.4771685474844
 30
0.0
 11
180.4833777899943
 21
514.9771685474845
 31
0.0
  0
CIRCLE
  5
B11
330
18
100
AcDbEntity
  8
MSL-90-R25-S-0
  6
Continuous
 62
     7
370
     0
100
AcDbCircle
 10
317.9833777899943
 20
481.6771685474851
 30
0.0
 40
18.5
  0
LINE
  5
B12
330
18
100
AcDbEntity
  8
MSL-90-R25-S-0
  6
Continuous
 62
     7
370
     0
100
AcDbLine
 10
350.4833777899942
 20
521.9771685474851
 30
0.0
 11
290.4833777899943
 21
521.9771685474851
 31
0.0
  0
LINE
  5
B13
330
18
100
AcDbEntity
  8
MSL-90-R25-S-0
  6
Continuous
 62
     7
370
     0
100
AcDbLine
 10
350.4833777899942
 20
455.4771685474851
 30
0.0
 11
290.4833777899942
 21
455.4771685474851
 31
0.0
  0
LINE
  5
B14
330
18
100
AcDbEntity
  8
MSL-90-R25-S-0
  6
Continuous
 62
     7
370
     0
100
AcDbLine
 10
290.4833777899943
 20
454.9771685474846
 30
0.0
 11
290.4833777899943
 21
521.9771685474851
 31
0.0
  0
ARC
  5
B15
330
18
100
AcDbEntity
  8
MSL-90-R25-S-5
370
     0
100
AcDbCircle
 10
299.9833777899942
 20
463.677168547485
 30
0.0
 40
3.0
100
AcDbArc
 50
255.0000000000008
 51
194.9999999999992
  0
CIRCLE
  5
B16
330
18
100
AcDbEntity
  8
MSL-90-R25-S-0
  6
Continuous
 62
     7
370
     0
100
AcDbCircle
 10
299.9833777899942
 20
463.677168547485
 30
0.0
 40
2.5
  0
LINE
  5
B19
330
18
100
AcDbEntity
  8
MSL-90-R25-S-0
  6
Continuous
 62
     7
370
     0
100
AcDbLine
 10
173.2833777899943
 20
505.3772010474845
 30
0.0
 11
178.9833777899943
 21
505.3772010474845
 31
0.0
  0
LINE
  5
B1A
330
18
100
AcDbEntity
  8
MSL-90-R25-S-0
  6
Continuous
 62
     7
370
     0
100
AcDbLine
 10
173.2833777899943
 20
513.7768835474845
 30
0.0
 11
178.9833777899943
 21
513.7768835474845
 31
0.0
  0
LINE
  5
B1B
330
18
100
AcDbEntity
  8
MSL-90-R25-S-0
  6
Continuous
 62
     7
370
     0
100
AcDbLine
 10
173.2833777899943
 20
514.2769435474844
 30
0.0
 11
178.9833777899943
 21
514.2769435474844
 31
0.0
  0
LINE
  5
B1C
330
18
100
AcDbEntity
  8
MSL-90-R25-S-0
  6
Continuous
 62
     7
370
     0
100
AcDbLine
 10
173.2833777899943
 20
514.4771685474845
 30
0.0
 11
173.2833777899943
 21
505.5771572474846
 31
0.0
  0
LINE
  5
B1D
330
18
100
AcDbEntity
  8
MSL-90-R25-S-0
  6
Continuous
 62
     7
370
     0
100
AcDbLine
 10
152.6833777899942
 20
514.4771685474845
 30
0.0
 11
152.6833777899942
 21
505.5771572474846
 31
0.0
  0
LINE
  5
B1E
330
18
100
AcDbEntity
  8
MSL-90-R25-S-0
  6
Continuous
 62
     7
370
     0
100
AcDbLine
 10
173.2833777899943
 20
505.5771572474846
 30
0.0
 11
152.6833777899943
 21
505.5771572474846
 31
0.0
  0
LINE
  5
B1F
330
18
100
AcDbEntity
  8
MSL-90-R25-S-0
  6
Continuous
 62
     7
370
     0
100
AcDbLine
 10
152.6833777899942
 20
505.5771572474846
 30
0.0
 11
152.6833777899942
 21
505.3772010474845
 31
0.0
  0
LINE
  5
B20
330
18
100
AcDbEntity
  8
MSL-90-R25-S-0
  6
Continuous
 62
     7
370
     0
100
AcDbLine
 10
173.2833777899943
 20
505.5771572474846
 30
0.0
 11
173.2833777899943
 21
505.3772010474845
 31
0.0
  0
LINE
  5
B21
330
18
100
AcDbEntity
  8
MSL-90-R25-S-0
  6
Continuous
 62
     7
370
     0
100
AcDbLine
 10
173.2833777899943
 20
514.4771685474845
 30
0.0
 11
152.6833777899943
 21
514.4771685474845
 31
0.0
  0
LINE
  5
B22
330
18
100
AcDbEntity
  8
MSL-90-R25-S-0
  6
Continuous
 62
     7
370
     0
100
AcDbLine
 10
152.6833777899942
 20
514.9771685474845
 30
0.0
 11
152.6833777899942
 21
514.4771685474845
 31
0.0
  0
LINE
  5
B23
330
18
100
AcDbEntity
  8
MSL-90-R25-S-0
  6
Continuous
 62
     7
370
     0
100
AcDbLine
 10
173.2833777899943
 20
514.9771685474845
 30
0.0
 11
173.2833777899943
 21
514.4771685474845
 31
0.0
  0
LINE
  5
B24
330
18
100
AcDbEntity
  8
MSL-90-R25-S-0
  6
Continuous
 62
     7
370
     0
100
AcDbLine
 10
178.9833777899943
 20
505.3772010474845
 30
0.0
 11
178.9833777899943
 21
513.7768835474846
 31
0.0
  0
LINE
  5
B25
330
18
100
AcDbEntity
  8
MSL-90-R25-S-0
  6
Continuous
 62
     7
370
     0
100
AcDbLine
 10
180.4833777899943
 20
510.9769514242508
 30
0.0
 11
180.4833777899943
 21
504.9769477474845
 31
0.0
  0
LINE
  5
B26
330
18
100
AcDbEntity
  8
MSL-90-R25-S-0
  6
Continuous
 62
     7
370
     0
100
AcDbLine
 10
179.4833777899943
 20
504.9769477474845
 30
0.0
 11
179.4833777899943
 21
510.2269439474845
 31
0.0
  0
LINE
  5
B27
330
18
100
AcDbEntity
  8
MSL-90-R25-S-0
  6
Continuous
 62
     7
370
     0
100
AcDbLine
 10
290.4833777899943
 20
504.9972541576128
 30
0.0
 11
180.4833777899943
 21
504.9972541576129
 31
0.0
  0
LINE
  5
B28
330
18
100
AcDbEntity
  8
MSL-90-R25-S-0
  6
Continuous
 62
     7
370
     0
100
AcDbLine
 10
290.4833777899943
 20
506.0289599722032
 30
0.0
 11
180.4833777899943
 21
506.0289599722032
 31
0.0
  0
LINE
  5
B29
330
18
100
AcDbEntity
  8
MSL-90-R25-S-0
  6
Continuous
 62
     7
370
     0
100
AcDbLine
 10
178.9833777899943
 20
504.9771792472689
 30
0.0
 11
178.9833777899943
 21
505.3772010474845
 31
0.0
  0
LINE
  5
B2A
330
18
100
AcDbEntity
  8
MSL-90-R25-S-0
  6
Continuous
 62
     7
370
     0
100
AcDbLine
 10
178.9833777899943
 20
504.9771792472689
 30
0.0
 11
178.9833777899943
 21
504.9769477474845
 31
0.0
  0
LINE
  5
B2B
330
18
100
AcDbEntity
  8
MSL-90-R25-S-0
  6
Continuous
 62
     7
370
     0
100
AcDbLine
 10
178.9833777899943
 20
504.9769477474845
 30
0.0
 11
179.4833777899943
 21
504.9769477474845
 31
0.0
  0
LINE
  5
B2C
330
18
100
AcDbEntity
  8
MSL-90-R25-S-0
  6
Continuous
 62
     7
370
     0
100
AcDbLine
 10
180.4833777899943
 20
504.9769477474845
 30
0.0
 11
179.4833777899943
 21
504.9769477474845
 31
0.0
  0
ARC
  5
B2D
330
18
100
AcDbEntity
  8
MSL-90-R25-S-5
370
     0
100
AcDbCircle
 10
299.9833777899942
 20
499.677168547485
 30
0.0
 40
3.0
100
AcDbArc
 50
255.0000000000011
 51
195.0000000000013
  0
CIRCLE
  5
B2E
330
18
100
AcDbEntity
  8
MSL-90-R25-S-0
  6
Continuous
 62
     7
370
     0
100
AcDbCircle
 10
299.9833777899942
 20
499.677168547485
 30
0.0
 40
2.5
  0
LINE
  5
B2F
330
18
100
AcDbEntity
  8
MSL-90-R25-S-0
  6
Continuous
 62
     7
370
     0
100
AcDbLine
 10
290.4833777899943
 20
508.4733316164718
 30
0.0
 11
180.4833777899943
 21
508.4733316164718
 31
0.0
  0
LINE
  5
B30
330
18
100
AcDbEntity
  8
MSL-90-R25-S-0
  6
Continuous
 62
     7
370
     0
100
AcDbLine
 10
290.4833777899943
 20
509.4771763974826
 30
0.0
 11
180.4833777899943
 21
509.4771763974828
 31
0.0
  0
LINE
  5
B31
330
18
100
AcDbEntity
  8
MSL-90-R25-S-0
  6
Continuous
 62
     7
370
     0
100
AcDbLine
 10
178.9833777899943
 20
510.3769483474845
 30
0.0
 11
179.7833777899943
 21
510.3769483474845
 31
0.0
  0
ARC
  5
B32
330
18
100
AcDbEntity
  8
MSL-90-R25-S-0
  6
Continuous
 62
     7
370
     0
100
AcDbCircle
 10
179.7833777899942
 20
510.5769483474845
 30
0.0
 40
0.2
100
AcDbArc
 50
270.0
 51
0.0
  0
LINE
  5
B33
330
18
100
AcDbEntity
  8
MSL-90-R25-S-0
  6
Continuous
 62
     7
370
     0
100
AcDbLine
 10
178.9833777899943
 20
514.2769435474844
 30
0.0
 11
179.4833777899943
 21
514.2769435474844
 31
0.0
  0
LINE
  5
B34
330
18
100
AcDbEntity
  8
MSL-90-R25-S-0
  6
Continuous
 62
     7
370
     0
100
AcDbLine
 10
178.9833777899943
 20
510.2269439474845
 30
0.0
 11
179.4833777899943
 21
510.2269439474845
 31
0.0
  0
LINE
  5
B35
330
18
100
AcDbEntity
  8
MSL-90-R25-S-0
  6
Continuous
 62
     7
370
     0
100
AcDbLine
 10
179.9833777899943
 20
511.4769514242508
 30
0.0
 11
180.4833777899943
 21
510.9769514242508
 31
0.0
  0
LINE
  5
B36
330
18
100
AcDbEntity
  8
MSL-90-R25-S-0
  6
Continuous
 62
     7
370
     0
100
AcDbLine
 10
178.9833777899943
 20
513.7768835474845
 30
0.0
 11
178.9833777899943
 21
514.2769435474844
 31
0.0
  0
LINE
  5
B37
330
18
100
AcDbEntity
  8
MSL-90-R25-S-0
  6
Continuous
 62
     7
370
     0
100
AcDbLine
 10
179.9833777899943
 20
510.5769483474845
 30
0.0
 11
179.9833777899943
 21
513.3769471474845
 31
0.0
  0
LINE
  5
B38
330
18
100
AcDbEntity
  8
MSL-90-R25-S-0
  6
Continuous
 62
     7
370
     0
100
AcDbLine
 10
179.4833777899943
 20
513.5769471474845
 30
0.0
 11
179.4833777899943
 21
514.2769435474844
 31
0.0
  0
LINE
  5
B39
330
18
100
AcDbEntity
  8
MSL-90-R25-S-0
  6
Continuous
 62
     7
370
     0
100
AcDbLine
 10
179.4833777899943
 20
510.2269334474845
 30
0.0
 11
179.4833777899943
 21
510.3769483474845
 31
0.0
  0
LINE
  5
B3A
330
18
100
AcDbEntity
  8
MSL-90-R25-S-0
  6
Continuous
 62
     7
370
     0
100
AcDbLine
 10
179.7833777899942
 20
513.5769471474845
 30
0.0
 11
178.9833777899942
 21
513.5769471474845
 31
0.0
  0
ARC
  5
B3B
330
18
100
AcDbEntity
  8
MSL-90-R25-S-0
  6
Continuous
 62
     7
370
     0
100
AcDbCircle
 10
179.7833777899942
 20
513.3769471474845
 30
0.0
 40
0.2
100
AcDbArc
 50
0.0
 51
90.0
  0
LINE
  5
B3C
330
18
100
AcDbEntity
  8
MSL-90-R25-S-0
  6
Continuous
 62
     7
370
     0
100
AcDbLine
 10
188.4833777899943
 20
523.4771685474846
 30
0.0
 11
180.4833777899943
 21
523.4771685474846
 31
0.0
  0
LINE
  5
B3D
330
18
100
AcDbEntity
  8
MSL-90-R25-S-0
  6
Continuous
 62
     7
370
     0
100
AcDbLine
 10
180.4833777899943
 20
524.4771685474845
 30
0.0
 11
188.4833777899943
 21
524.4771685474845
 31
0.0
  0
LINE
  5
B3E
330
18
100
AcDbEntity
  8
MSL-90-R25-S-0
  6
Continuous
 62
     7
370
     0
100
AcDbLine
 10
188.4833777899943
 20
524.4771685474845
 30
0.0
 11
188.4833777899943
 21
523.4771685474846
 31
0.0
  0
ARC
  5
B3F
330
18
100
AcDbEntity
  8
MSL-90-R25-S-0
  6
Continuous
 62
     7
370
     0
100
AcDbCircle
 10
317.9833777899943
 20
481.6771685474852
 30
0.0
 40
8.0
100
AcDbArc
 50
108.2099568642825
 51
71.79004313571656
  0
LINE
  5
B40
330
18
100
AcDbEntity
  8
MSL-90-R25-S-0
  6
Continuous
 62
     7
370
     0
100
AcDbLine
 10
350.4833777899942
 20
455.4771685474851
 30
0.0
 11
350.4833777899942
 21
521.9771685474851
 31
0.0
  0
ARC
  5
B41
330
18
100
AcDbEntity
  8
MSL-90-R25-S-5
370
     0
100
AcDbCircle
 10
335.9833777899943
 20
463.677168547485
 30
0.0
 40
3.0
100
AcDbArc
 50
254.9999999999997
 51
194.9999999999989
  0
CIRCLE
  5
B42
330
18
100
AcDbEntity
  8
MSL-90-R25-S-0
  6
Continuous
 62
     7
370
     0
100
AcDbCircle
 10
335.9833777899943
 20
463.677168547485
 30
0.0
 40
2.5
  0
LINE
  5
B47
330
18
100
AcDbEntity
  8
MSL-90-R25-S-0
  6
Continuous
 62
     7
370
     0
100
AcDbLine
 10
315.4833777899944
 20
491.9771685474852
 30
0.0
 11
320.4833777899943
 21
491.9771685474852
 31
0.0
  0
LINE
  5
B48
330
18
100
AcDbEntity
  8
MSL-90-R25-S-0
  6
Continuous
 62
     7
370
     0
100
AcDbLine
 10
315.4833777899944
 20
489.2765106242705
 30
0.0
 11
315.4833777899944
 21
491.9771685474852
 31
0.0
  0
LINE
  5
B49
330
18
100
AcDbEntity
  8
MSL-90-R25-S-0
  6
Continuous
 62
     7
370
     0
100
AcDbLine
 10
320.4833777899943
 20
491.9771685474852
 30
0.0
 11
320.4833777899943
 21
489.2765106242705
 31
0.0
  0
ARC
  5
B4B
330
18
100
AcDbEntity
  8
MSL-90-R25-S-5
370
     0
100
AcDbCircle
 10
335.9833777899943
 20
499.677168547485
 30
0.0
 40
3.0
100
AcDbArc
 50
255.0
 51
194.9999999999999
  0
CIRCLE
  5
B4C
330
18
100
AcDbEntity
  8
MSL-90-R25-S-0
  6
Continuous
 62
     7
370
     0
100
AcDbCircle
 10
335.9833777899943
 20
499.677168547485
 30
0.0
 40
2.5
  0
LINE
  5
B53
330
18
100
AcDbEntity
  8
MSL-90-R25-S-0
  6
Continuous
 62
     7
370
     0
100
AcDbLine
 10
188.4833777899943
 20
538.4771685474846
 30
0.0
 11
180.4833777899943
 21
538.4771685474846
 31
0.0
  0
LINE
  5
B54
330
18
100
AcDbEntity
  8
MSL-90-R25-S-0
  6
Continuous
 62
     7
370
     0
100
AcDbLine
 10
180.4833777899943
 20
539.4771685474847
 30
0.0
 11
188.4833777899943
 21
539.4771685474847
 31
0.0
  0
LINE
  5
B55
330
18
100
AcDbEntity
  8
MSL-90-R25-S-0
  6
Continuous
 62
     7
370
     0
100
AcDbLine
 10
180.4833777899943
 20
539.9771685474845
 30
0.0
 11
180.4833777899943
 21
539.4771685474845
 31
0.0
  0
LINE
  5
B56
330
18
100
AcDbEntity
  8
MSL-90-R25-S-0
  6
Continuous
 62
     7
370
     0
100
AcDbLine
 10
188.4833777899943
 20
539.4771685474847
 30
0.0
 11
188.4833777899943
 21
538.4771685474846
 31
0.0
  0
LINE
  5
B5C
330
18
100
AcDbEntity
  8
MSL-90-R25-S-0
  6
Continuous
 62
     7
370
     0
100
AcDbLine
 10
482.4053830737133
 20
455.4771685474851
 30
0.0
 11
482.4053830737133
 21
504.9769477474846
 31
0.0
  0
CIRCLE
  5
B5D
330
18
100
AcDbEntity
  8
MSL-90-R25-S-0
  6
Continuous
 62
     7
370
     0
100
AcDbCircle
 10
456.8548561575222
 20
462.4771685474851
 30
0.0
 40
4.25
  0
CIRCLE
  5
B5E
330
18
100
AcDbEntity
  8
MSL-90-R25-S-0
  6
Continuous
 62
     7
370
     0
100
AcDbCircle
 10
417.9548561575222
 20
462.4771685474851
 30
0.0
 40
4.25
  0
LINE
  5
B61
330
18
100
AcDbEntity
  8
MSL-90-R25-S-0
  6
Continuous
 62
     7
370
     0
100
AcDbLine
 10
482.4048561575222
 20
521.9771685474852
 30
0.0
 11
482.4048561575222
 21
455.4771685474852
 31
0.0
  0
LINE
  5
B62
330
18
100
AcDbEntity
  8
MSL-90-R25-S-0
  6
Continuous
 62
     7
370
     0
100
AcDbLine
 10
392.4048561575223
 20
455.4771685474851
 30
0.0
 11
392.4048561575222
 21
521.9771685474851
 31
0.0
  0
LINE
  5
B63
330
18
100
AcDbEntity
  8
MSL-90-R25-S-0
  6
Continuous
 62
     7
370
     0
100
AcDbLine
 10
482.4048561575222
 20
455.4771685474851
 30
0.0
 11
392.4048561575222
 21
455.4771685474849
 31
0.0
  0
LINE
  5
B64
330
18
100
AcDbEntity
  8
MSL-90-R25-S-0
  6
Continuous
 62
     7
370
     0
100
AcDbLine
 10
466.6548561575593
 20
454.9771685474846
 30
0.0
 11
465.1548561424163
 21
454.9771685474846
 31
0.0
  0
LINE
  5
C8E
330
18
100
AcDbEntity
  8
MSL-90-R25-S-0
  6
Continuous
 62
     7
370
     0
100
AcDbLine
 10
412.6548561727024
 20
454.9771685474846
 30
0.0
 11
409.6548561727024
 21
454.9771685474846
 31
0.0
  0
LINE
  5
D5E
330
18
100
AcDbEntity
  8
MSL-90-R25-S-0
  6
Continuous
 62
     7
370
     0
100
AcDbLine
 10
399.6548561575595
 20
454.9771685474846
 30
0.0
 11
398.1548561575595
 21
454.9771685474846
 31
0.0
  0
LINE
  5
D5F
330
18
100
AcDbEntity
  8
MSL-90-R25-S-0
  6
Continuous
 62
     7
370
     0
100
AcDbLine
 10
398.1548561575594
 20
454.9771685474846
 30
0.0
 11
395.1548561575594
 21
454.9771685474846
 31
0.0
  0
LINE
  5
D60
330
18
100
AcDbEntity
  8
MSL-90-R25-S-0
  6
Continuous
 62
     7
370
     0
100
AcDbLine
 10
395.1548561575594
 20
454.9771685474846
 30
0.0
 11
395.1548561575594
 21
455.477168547485
 31
0.0
  0
LINE
  5
D61
330
18
100
AcDbEntity
  8
MSL-90-R25-S-0
  6
Continuous
 62
     7
370
     0
100
AcDbLine
 10
392.6048561575593
 20
454.9771685474846
 30
0.0
 11
395.1548561575592
 21
454.9771685474846
 31
0.0
  0
ARC
  5
D62
330
18
100
AcDbEntity
  8
MSL-90-R25-S-0
  6
Continuous
 62
     7
370
     0
100
AcDbCircle
 10
392.6048561575593
 20
455.1771685474846
 30
0.0
 40
0.2
100
AcDbArc
 50
180.0
 51
270.0
  0
LINE
  5
D63
330
18
100
AcDbEntity
  8
MSL-90-R25-S-0
  6
Continuous
 62
     7
370
     0
100
AcDbLine
 10
392.4048561575594
 20
455.477168547485
 30
0.0
 11
392.4048561575594
 21
455.1771685474846
 31
0.0
  0
ARC
  5
D64
330
18
100
AcDbEntity
  8
MSL-90-R25-S-0
  6
Continuous
 62
     7
370
     0
100
AcDbCircle
 10
399.6548561575595
 20
455.1771685474846
 30
0.0
 40
0.2
100
AcDbArc
 50
270.0
 51
0.0
  0
LINE
  5
D65
330
18
100
AcDbEntity
  8
MSL-90-R25-S-0
  6
Continuous
 62
     7
370
     0
100
AcDbLine
 10
399.8548561575594
 20
455.4771685474851
 30
0.0
 11
399.8548561575594
 21
455.1771685474846
 31
0.0
  0
LINE
  5
D66
330
18
100
AcDbEntity
  8
MSL-90-R25-S-0
  6
Continuous
 62
     7
370
     0
100
AcDbLine
 10
407.9548561575594
 20
455.1771685474846
 30
0.0
 11
407.9548561575594
 21
455.477168547485
 31
0.0
  0
ARC
  5
D67
330
18
100
AcDbEntity
  8
MSL-90-R25-S-0
  6
Continuous
 62
     7
370
     0
100
AcDbCircle
 10
408.1548561575593
 20
455.1771685474846
 30
0.0
 40
0.2
100
AcDbArc
 50
180.0
 51
270.0
  0
LINE
  5
D68
330
18
100
AcDbEntity
  8
MSL-90-R25-S-0
  6
Continuous
 62
     7
370
     0
100
AcDbLine
 10
409.6548561727024
 20
454.9771685474846
 30
0.0
 11
408.1548561575593
 21
454.9771685474846
 31
0.0
  0
LINE
  5
D6A
330
18
100
AcDbEntity
  8
MSL-90-R25-S-0
  6
Continuous
 62
     7
370
     0
100
AcDbLine
 10
412.6548561575594
 20
454.9771685474846
 30
0.0
 11
422.2048561575594
 21
454.9771685474846
 31
0.0
  0
LINE
  5
D6B
330
18
100
AcDbEntity
  8
MSL-90-R25-S-0
  6
Continuous
 62
     7
370
     0
100
AcDbLine
 10
412.6548561591989
 20
455.4771685474851
 30
0.0
 11
412.6548561575593
 21
454.9771685474846
 31
0.0
  0
ARC
  5
D6C
330
18
100
AcDbEntity
  8
MSL-90-R25-S-0
  6
Continuous
 62
     7
370
     0
100
AcDbCircle
 10
422.6048561575594
 20
455.2771685474845
 30
0.0
 40
0.2
100
AcDbArc
 50
90.0
 51
180.0
  0
LINE
  5
D6D
330
18
100
AcDbEntity
  8
MSL-90-R25-S-0
  6
Continuous
 62
     7
370
     0
100
AcDbLine
 10
422.4048561575593
 20
455.1771685474846
 30
0.0
 11
422.4048561575593
 21
455.2771685474845
 31
0.0
  0
ARC
  5
D6E
330
18
100
AcDbEntity
  8
MSL-90-R25-S-0
  6
Continuous
 62
     7
370
     0
100
AcDbCircle
 10
422.2048561575594
 20
455.1771685474846
 30
0.0
 40
0.2
100
AcDbArc
 50
270.0
 51
0.0
  0
ARC
  5
D6F
330
18
100
AcDbEntity
  8
MSL-90-R25-S-0
  6
Continuous
 62
     7
370
     0
100
AcDbCircle
 10
452.6048561575594
 20
455.1771685474846
 30
0.0
 40
0.2
100
AcDbArc
 50
180.0
 51
270.0
  0
LINE
  5
D70
330
18
100
AcDbEntity
  8
MSL-90-R25-S-0
  6
Continuous
 62
     7
370
     0
100
AcDbLine
 10
452.4048561575593
 20
455.2771685474845
 30
0.0
 11
452.4048561575593
 21
455.1771685474846
 31
0.0
  0
ARC
  5
D71
330
18
100
AcDbEntity
  8
MSL-90-R25-S-0
  6
Continuous
 62
     7
370
     0
100
AcDbCircle
 10
452.2048561575594
 20
455.2771685474845
 30
0.0
 40
0.2
100
AcDbArc
 50
0.0
 51
90.0
  0
LINE
  5
D72
330
18
100
AcDbEntity
  8
MSL-90-R25-S-0
  6
Continuous
 62
     7
370
     0
100
AcDbLine
 10
452.6048561575594
 20
454.9771685474846
 30
0.0
 11
462.1548561575593
 21
454.9771685474846
 31
0.0
  0
LINE
  5
D73
330
18
100
AcDbEntity
  8
MSL-90-R25-S-0
  6
Continuous
 62
     7
370
     0
100
AcDbLine
 10
465.1548561424163
 20
454.9771685474846
 30
0.0
 11
462.1548561424162
 21
454.9771685474846
 31
0.0
  0
LINE
  5
D74
330
18
100
AcDbEntity
  8
MSL-90-R25-S-0
  6
Continuous
 62
     7
370
     0
100
AcDbLine
 10
462.1548561575593
 20
454.9771685474846
 30
0.0
 11
462.1548561559198
 21
455.4771685474851
 31
0.0
  0
LINE
  5
D75
330
18
100
AcDbEntity
  8
MSL-90-R25-S-0
  6
Continuous
 62
     7
370
     0
100
AcDbLine
 10
479.6548561575593
 20
454.9771685474846
 30
0.0
 11
476.6548561575594
 21
454.9771685474846
 31
0.0
  0
ARC
  5
D76
330
18
100
AcDbEntity
  8
MSL-90-R25-S-0
  6
Continuous
 62
     7
370
     0
100
AcDbCircle
 10
466.6548561575593
 20
455.1771685474846
 30
0.0
 40
0.2
100
AcDbArc
 50
270.0
 51
0.0
  0
LINE
  5
D77
330
18
100
AcDbEntity
  8
MSL-90-R25-S-0
  6
Continuous
 62
     7
370
     0
100
AcDbLine
 10
466.8548561575594
 20
455.4771685474851
 30
0.0
 11
466.8548561575594
 21
455.1771685474846
 31
0.0
  0
LINE
  5
D78
330
18
100
AcDbEntity
  8
MSL-90-R25-S-0
  6
Continuous
 62
     7
370
     0
100
AcDbLine
 10
474.9548561575593
 20
455.1771685474846
 30
0.0
 11
474.9548561575593
 21
455.4771685474851
 31
0.0
  0
ARC
  5
D79
330
18
100
AcDbEntity
  8
MSL-90-R25-S-0
  6
Continuous
 62
     7
370
     0
100
AcDbCircle
 10
475.1548561575593
 20
455.1771685474846
 30
0.0
 40
0.2
100
AcDbArc
 50
180.0
 51
270.0
  0
LINE
  5
D7A
330
18
100
AcDbEntity
  8
MSL-90-R25-S-0
  6
Continuous
 62
     7
370
     0
100
AcDbLine
 10
476.6548561575594
 20
454.9771685474846
 30
0.0
 11
475.1548561575593
 21
454.9771685474846
 31
0.0
  0
LINE
  5
D7B
330
18
100
AcDbEntity
  8
MSL-90-R25-S-0
  6
Continuous
 62
     7
370
     0
100
AcDbLine
 10
482.4048561575595
 20
455.4771685474851
 30
0.0
 11
482.4053830737134
 21
455.4771685474851
 31
0.0
  0
LINE
  5
D7C
330
18
100
AcDbEntity
  8
MSL-90-R25-S-0
  6
Continuous
 62
     7
370
     0
100
AcDbLine
 10
482.4048561575595
 20
455.1771685474846
 30
0.0
 11
482.4048561575595
 21
455.4771685474851
 31
0.0
  0
ARC
  5
D7D
330
18
100
AcDbEntity
  8
MSL-90-R25-S-0
  6
Continuous
 62
     7
370
     0
100
AcDbCircle
 10
482.2048561575593
 20
455.1771685474846
 30
0.0
 40
0.2
100
AcDbArc
 50
270.0
 51
0.0
  0
LINE
  5
D7E
330
18
100
AcDbEntity
  8
MSL-90-R25-S-0
  6
Continuous
 62
     7
370
     0
100
AcDbLine
 10
479.6548561575593
 20
454.9771685474846
 30
0.0
 11
482.2048561575593
 21
454.9771685474846
 31
0.0
  0
LINE
  5
D7F
330
18
100
AcDbEntity
  8
MSL-90-R25-S-0
  6
Continuous
 62
     7
370
     0
100
AcDbLine
 10
479.6548561575593
 20
455.4771685474851
 30
0.0
 11
479.6548561575593
 21
454.9771685474846
 31
0.0
  0
ARC
  5
D85
330
18
100
AcDbEntity
  8
MSL-90-R25-S-5
370
     0
100
AcDbCircle
 10
414.9048561575222
 20
513.9771685474849
 30
0.0
 40
4.0
100
AcDbArc
 50
255.0000000000004
 51
194.9999999999995
  0
CIRCLE
  5
D86
330
18
100
AcDbEntity
  8
MSL-90-R25-S-0
  6
Continuous
 62
     7
370
     0
100
AcDbCircle
 10
414.9048561575222
 20
513.9771685474849
 30
0.0
 40
3.399999999999999
  0
ARC
  5
D87
330
18
100
AcDbEntity
  8
MSL-90-R25-S-5
370
     0
100
AcDbCircle
 10
399.9048561575222
 20
473.4771685474851
 30
0.0
 40
4.0
100
AcDbArc
 50
255.0000000000022
 51
195.0000000000003
  0
CIRCLE
  5
D88
330
18
100
AcDbEntity
  8
MSL-90-R25-S-0
  6
Continuous
 62
     7
370
     0
100
AcDbCircle
 10
399.9048561575222
 20
473.4771685474851
 30
0.0
 40
3.399999999999999
  0
ARC
  5
D8B
330
18
100
AcDbEntity
  8
MSL-90-R25-S-0
  6
Continuous
 62
     7
370
     0
100
AcDbCircle
 10
399.9048561575222
 20
477.9341633135383
 30
0.0
 40
7.793845698812187
100
AcDbArc
 50
263.6560540560014
 51
276.3439459440003
  0
LINE
  5
D8C
330
18
100
AcDbEntity
  8
MSL-90-R25-S-0
  6
Continuous
 62
     7
370
     0
100
AcDbLine
 10
387.4048561575595
 20
539.4771685474845
 30
0.0
 11
387.4048561575595
 21
514.9771685474845
 31
0.0
  0
CIRCLE
  5
D8D
330
18
100
AcDbEntity
  8
MSL-90-R25-S-0
  6
Continuous
 62
     7
370
     0
100
AcDbCircle
 10
412.9048561575221
 20
498.9771685474845
 30
0.0
 40
3.5
  0
CIRCLE
  5
D8E
330
18
100
AcDbEntity
  8
MSL-90-R25-S-0
  6
Continuous
 62
     7
370
     0
100
AcDbCircle
 10
412.9048561575221
 20
498.9771685474845
 30
0.0
 40
4.0
  0
LINE
  5
D8F
330
18
100
AcDbEntity
  8
MSL-90-R25-S-0
  6
Continuous
 62
     7
370
     0
100
AcDbLine
 10
389.1047384575633
 20
505.3776139474845
 30
0.0
 11
389.1047364575633
 21
513.7768905474845
 31
0.0
  0
LINE
  5
D90
330
18
100
AcDbEntity
  8
MSL-90-R25-S-0
  6
Continuous
 62
     7
370
     0
100
AcDbLine
 10
388.9051534575633
 20
505.5771996475654
 30
0.0
 11
388.9051534575633
 21
514.4770865474845
 31
0.0
  0
ARC
  5
D91
330
18
100
AcDbEntity
  8
MSL-90-R25-S-0
  6
Continuous
 62
     7
370
     0
100
AcDbCircle
 10
391.4047874575632
 20
511.9769477474846
 30
0.0
 40
1.599999399999999
100
AcDbArc
 50
51.31464377629429
 51
308.6853562237044
  0
ARC
  5
D92
330
18
100
AcDbEntity
  8
MSL-90-R25-S-0
  6
Continuous
 62
     7
370
     0
100
AcDbCircle
 10
391.4046654575633
 20
511.9769324474845
 30
0.0
 40
1.749999
100
AcDbArc
 50
270.1984785586292
 51
304.8575358355358
  0
LINE
  5
D93
330
18
100
AcDbEntity
  8
MSL-90-R25-S-0
  6
Continuous
 62
     7
370
     0
100
AcDbLine
 10
389.5047634575632
 20
504.9769477474845
 30
0.0
 11
392.4048561575221
 21
504.9769477474845
 31
0.0
  0
LINE
  5
D94
330
18
100
AcDbEntity
  8
MSL-90-R25-S-0
  6
Continuous
 62
     7
370
     0
100
AcDbLine
 10
389.5047634575632
 20
504.9769477474845
 30
0.0
 11
389.5047634575632
 21
510.2269439474845
 31
0.0
  0
LINE
  5
D95
330
18
100
AcDbEntity
  8
MSL-90-R25-S-0
  6
Continuous
 62
     7
370
     0
100
AcDbLine
 10
389.5047634575632
 20
510.2269439474846
 30
0.0
 11
391.4107276245744
 21
510.2269439474846
 31
0.0
  0
LINE
  5
D96
330
18
100
AcDbEntity
  8
MSL-90-R25-S-0
  6
Continuous
 62
     7
370
     0
100
AcDbLine
 10
389.5047634575632
 20
504.9775891470259
 30
0.0
 11
389.1047384575633
 21
505.3776139474845
 31
0.0
  0
LINE
  5
D97
330
18
100
AcDbEntity
  8
MSL-90-R25-S-0
  6
Continuous
 62
     7
370
     0
100
AcDbLine
 10
389.1047384575633
 20
505.3776144812413
 30
0.0
 11
388.9051534575634
 21
505.5771996475654
 31
0.0
  0
LINE
  5
D98
330
18
100
AcDbEntity
  8
MSL-90-R25-S-0
  6
Continuous
 62
     7
370
     0
100
AcDbLine
 10
389.6047794575633
 20
514.2769435474844
 30
0.0
 11
392.4048561575222
 21
514.2769435474844
 31
0.0
  0
LINE
  5
D99
330
18
100
AcDbEntity
  8
MSL-90-R25-S-0
  6
Continuous
 62
     7
370
     0
100
AcDbLine
 10
392.4048561575222
 20
514.9771685474845
 30
0.0
 11
387.4048561575595
 21
514.9771685474845
 31
0.0
  0
LINE
  5
D9A
330
18
100
AcDbEntity
  8
MSL-90-R25-S-0
  6
Continuous
 62
     7
370
     0
100
AcDbLine
 10
389.1047364575633
 20
513.7768905474845
 30
0.0
 11
389.6047794575633
 21
514.2769435474844
 31
0.0
  0
LINE
  5
D9B
330
18
100
AcDbEntity
  8
MSL-90-R25-S-0
  6
Continuous
 62
     7
370
     0
100
AcDbLine
 10
388.9051534575633
 20
514.4770865474846
 30
0.0
 11
389.4052354575632
 21
514.9771685474845
 31
0.0
  0
LINE
  5
D9C
330
18
100
AcDbEntity
  8
MSL-90-R25-S-0
  6
Continuous
 62
     7
370
     0
100
AcDbLine
 10
413.7708815613065
 20
497.4771685474846
 30
0.0
 11
412.0388307537377
 21
497.4771685474846
 31
0.0
  0
LINE
  5
D9D
330
18
100
AcDbEntity
  8
MSL-90-R25-S-0
  6
Continuous
 62
     7
370
     0
100
AcDbLine
 10
412.0388307537377
 20
497.4771685474846
 30
0.0
 11
411.1728053499533
 21
498.9771685474845
 31
0.0
  0
LINE
  5
D9E
330
18
100
AcDbEntity
  8
MSL-90-R25-S-0
  6
Continuous
 62
     7
370
     0
100
AcDbLine
 10
411.1728053499532
 20
498.9771685474845
 30
0.0
 11
412.0388307537377
 21
500.4771685474846
 31
0.0
  0
LINE
  5
D9F
330
18
100
AcDbEntity
  8
MSL-90-R25-S-0
  6
Continuous
 62
     7
370
     0
100
AcDbLine
 10
413.7708815613065
 20
500.4771685474846
 30
0.0
 11
414.6369069650909
 21
498.9771685474845
 31
0.0
  0
LINE
  5
DA0
330
18
100
AcDbEntity
  8
MSL-90-R25-S-0
  6
Continuous
 62
     7
370
     0
100
AcDbLine
 10
414.6369069650909
 20
498.9771685474845
 30
0.0
 11
413.7708815613065
 21
497.4771685474846
 31
0.0
  0
LINE
  5
DA1
330
18
100
AcDbEntity
  8
MSL-90-R25-S-0
  6
Continuous
 62
     7
370
     0
100
AcDbLine
 10
412.0388307537377
 20
500.4771685474846
 30
0.0
 11
413.7708815613065
 21
500.4771685474846
 31
0.0
  0
LINE
  5
DA3
330
18
100
AcDbEntity
  8
MSL-90-R25-S-0
  6
Continuous
 62
     7
370
     0
100
AcDbLine
 10
387.6548561575595
 20
524.4771685474845
 30
0.0
 11
387.6548561575595
 21
538.4771685474845
 31
0.0
  0
LINE
  5
DA4
330
18
100
AcDbEntity
  8
MSL-90-R25-S-0
  6
Continuous
 62
     7
370
     0
100
AcDbLine
 10
392.4048561575222
 20
523.4771685474846
 30
0.0
 11
388.6548561575595
 21
523.4771685474846
 31
0.0
  0
LINE
  5
DA5
330
18
100
AcDbEntity
  8
MSL-90-R25-S-0
  6
Continuous
 62
     7
370
     0
100
AcDbLine
 10
387.6548561575595
 20
524.4771685474845
 30
0.0
 11
388.6548561575595
 21
523.4771685474846
 31
0.0
  0
LINE
  5
DA8
330
18
100
AcDbEntity
  8
MSL-90-R25-S-0
  6
Continuous
 62
     7
370
     0
100
AcDbLine
 10
388.6548561575595
 20
539.4771685474845
 30
0.0
 11
387.6548561575595
 21
538.4771685474845
 31
0.0
  0
LINE
  5
DA9
330
18
100
AcDbEntity
  8
MSL-90-R25-S-0
  6
Continuous
 62
     7
370
     0
100
AcDbLine
 10
387.9048561575594
 20
539.9771685474845
 30
0.0
 11
387.4048561575594
 21
539.4771685474845
 31
0.0
  0
LINE
  5
DAA
330
18
100
AcDbEntity
  8
MSL-90-R25-S-0
  6
Continuous
 62
     7
370
     0
100
AcDbLine
 10
419.9548561575222
 20
461.3224680091058
 30
0.0
 11
417.9548561575222
 21
460.1677674707266
 31
0.0
  0
LINE
  5
DAB
330
18
100
AcDbEntity
  8
MSL-90-R25-S-0
  6
Continuous
 62
     7
370
     0
100
AcDbLine
 10
417.9548561575222
 20
464.7865696242435
 30
0.0
 11
419.9548561575222
 21
463.6318690858643
 31
0.0
  0
LINE
  5
DAC
330
18
100
AcDbEntity
  8
MSL-90-R25-S-0
  6
Continuous
 62
     7
370
     0
100
AcDbLine
 10
417.9548561575222
 20
460.1677674707266
 30
0.0
 11
415.9548561575222
 21
461.3224680091058
 31
0.0
  0
LINE
  5
DAD
330
18
100
AcDbEntity
  8
MSL-90-R25-S-0
  6
Continuous
 62
     7
370
     0
100
AcDbLine
 10
415.9548561575222
 20
461.3224680091058
 30
0.0
 11
415.9548561575222
 21
463.6318690858643
 31
0.0
  0
LINE
  5
DAE
330
18
100
AcDbEntity
  8
MSL-90-R25-S-0
  6
Continuous
 62
     7
370
     0
100
AcDbLine
 10
415.9548561575222
 20
463.6318690858643
 30
0.0
 11
417.9548561575222
 21
464.7865696242435
 31
0.0
  0
LINE
  5
DAF
330
18
100
AcDbEntity
  8
MSL-90-R25-S-0
  6
Continuous
 62
     7
370
     0
100
AcDbLine
 10
419.9548561575222
 20
463.6318690858643
 30
0.0
 11
419.9548561575222
 21
461.3224680091057
 31
0.0
  0
LINE
  5
DB0
330
18
100
AcDbEntity
  8
MSL-90-R25-S-0
  6
Continuous
 62
     7
370
     0
100
AcDbLine
 10
454.8548561575223
 20
461.3224680091059
 30
0.0
 11
454.8548561575223
 21
463.6318690858644
 31
0.0
  0
LINE
  5
DB1
330
18
100
AcDbEntity
  8
MSL-90-R25-S-0
  6
Continuous
 62
     7
370
     0
100
AcDbLine
 10
456.8548561575222
 20
460.1677674707266
 30
0.0
 11
454.8548561575223
 21
461.3224680091058
 31
0.0
  0
LINE
  5
DB2
330
18
100
AcDbEntity
  8
MSL-90-R25-S-0
  6
Continuous
 62
     7
370
     0
100
AcDbLine
 10
458.8548561575222
 20
463.6318690858643
 30
0.0
 11
458.8548561575222
 21
461.3224680091058
 31
0.0
  0
LINE
  5
DB3
330
18
100
AcDbEntity
  8
MSL-90-R25-S-0
  6
Continuous
 62
     7
370
     0
100
AcDbLine
 10
458.8548561575222
 20
461.3224680091059
 30
0.0
 11
456.8548561575222
 21
460.1677674707267
 31
0.0
  0
LINE
  5
DB4
330
18
100
AcDbEntity
  8
MSL-90-R25-S-0
  6
Continuous
 62
     7
370
     0
100
AcDbLine
 10
456.8548561575222
 20
464.7865696242436
 30
0.0
 11
458.8548561575222
 21
463.6318690858643
 31
0.0
  0
LINE
  5
DB5
330
18
100
AcDbEntity
  8
MSL-90-R25-S-0
  6
Continuous
 62
     7
370
     0
100
AcDbLine
 10
454.8548561575223
 20
463.6318690858643
 30
0.0
 11
456.8548561575222
 21
464.7865696242436
 31
0.0
  0
ARC
  5
DB6
330
18
100
AcDbEntity
  8
MSL-90-R25-S-5
370
     0
100
AcDbCircle
 10
459.9048561575222
 20
513.9771685474851
 30
0.0
 40
4.0
100
AcDbArc
 50
254.9999999999988
 51
194.9999999999995
  0
CIRCLE
  5
DB7
330
18
100
AcDbEntity
  8
MSL-90-R25-S-0
  6
Continuous
 62
     7
370
     0
100
AcDbCircle
 10
459.9048561575222
 20
513.9771685474851
 30
0.0
 40
3.399999999999999
  0
ARC
  5
DBC
330
18
100
AcDbEntity
  8
MSL-90-R25-S-5
370
     0
100
AcDbCircle
 10
474.9048561575222
 20
473.4771685474852
 30
0.0
 40
4.0
100
AcDbArc
 50
254.999999999999
 51
194.9999999999995
  0
CIRCLE
  5
DBD
330
18
100
AcDbEntity
  8
MSL-90-R25-S-0
  6
Continuous
 62
     7
370
     0
100
AcDbCircle
 10
474.9048561575222
 20
473.4771685474852
 30
0.0
 40
3.399999999999999
  0
ARC
  5
DC0
330
18
100
AcDbEntity
  8
MSL-90-R25-S-0
  6
Continuous
 62
     7
370
     0
100
AcDbCircle
 10
474.9048561575222
 20
477.9341633135375
 30
0.0
 40
7.793845698811304
100
AcDbArc
 50
263.6560540560007
 51
276.3439459439985
  0
LINE
  5
DC1
330
18
100
AcDbEntity
  8
MSL-90-R25-S-0
  6
Continuous
 62
     7
370
     0
100
AcDbLine
 10
487.4048561575595
 20
539.4771685474845
 30
0.0
 11
487.4048561575595
 21
514.9771685474845
 31
0.0
  0
LINE
  5
DC2
330
18
100
AcDbEntity
  8
MSL-90-R25-S-0
  6
Continuous
 62
     7
370
     0
100
AcDbLine
 10
462.7708815613066
 20
497.4771685474846
 30
0.0
 11
461.0388307537378
 21
497.4771685474846
 31
0.0
  0
LINE
  5
DC3
330
18
100
AcDbEntity
  8
MSL-90-R25-S-0
  6
Continuous
 62
     7
370
     0
100
AcDbLine
 10
461.0388307537376
 20
500.4771685474846
 30
0.0
 11
462.7708815613065
 21
500.4771685474846
 31
0.0
  0
CIRCLE
  5
DC4
330
18
100
AcDbEntity
  8
MSL-90-R25-S-0
  6
Continuous
 62
     7
370
     0
100
AcDbCircle
 10
461.9048561575221
 20
498.9771685474845
 30
0.0
 40
3.5
  0
CIRCLE
  5
DC5
330
18
100
AcDbEntity
  8
MSL-90-R25-S-0
  6
Continuous
 62
     7
370
     0
100
AcDbCircle
 10
461.9048561575221
 20
498.9771685474846
 30
0.0
 40
4.0
  0
LINE
  5
DC6
330
18
100
AcDbEntity
  8
MSL-90-R25-S-0
  6
Continuous
 62
     7
370
     0
100
AcDbLine
 10
461.0388307537376
 20
497.4771685474846
 30
0.0
 11
460.1728053499532
 21
498.9771685474845
 31
0.0
  0
LINE
  5
DC7
330
18
100
AcDbEntity
  8
MSL-90-R25-S-0
  6
Continuous
 62
     7
370
     0
100
AcDbLine
 10
460.1728053499532
 20
498.9771685474845
 30
0.0
 11
461.0388307537376
 21
500.4771685474846
 31
0.0
  0
LINE
  5
DC8
330
18
100
AcDbEntity
  8
MSL-90-R25-S-0
  6
Continuous
 62
     7
370
     0
100
AcDbLine
 10
462.7708815613066
 20
500.4771685474846
 30
0.0
 11
463.636906965091
 21
498.9771685474845
 31
0.0
  0
LINE
  5
DC9
330
18
100
AcDbEntity
  8
MSL-90-R25-S-0
  6
Continuous
 62
     7
370
     0
100
AcDbLine
 10
463.636906965091
 20
498.9771685474845
 30
0.0
 11
462.7708815613066
 21
497.4771685474846
 31
0.0
  0
LINE
  5
DCA
330
18
100
AcDbEntity
  8
MSL-90-R25-S-0
  6
Continuous
 62
     7
370
     0
100
AcDbLine
 10
485.9048024575632
 20
514.4771685474845
 30
0.0
 11
485.9048084575632
 21
505.5771572474846
 31
0.0
  0
LINE
  5
DCB
330
18
100
AcDbEntity
  8
MSL-90-R25-S-0
  6
Continuous
 62
     7
370
     0
100
AcDbLine
 10
485.7049758575556
 20
513.7768905474846
 30
0.0
 11
485.7049738575556
 21
505.3776139474846
 31
0.0
  0
LINE
  5
DCC
330
18
100
AcDbEntity
  8
MSL-90-R25-S-0
  6
Continuous
 62
     7
370
     0
100
AcDbLine
 10
485.9045588575555
 20
505.5771996475654
 30
0.0
 11
485.9045588575555
 21
514.4770865474846
 31
0.0
  0
ARC
  5
DCD
330
18
100
AcDbEntity
  8
MSL-90-R25-S-0
  6
Continuous
 62
     7
370
     0
100
AcDbCircle
 10
483.4049248575555
 20
511.9769477474846
 30
0.0
 40
1.599999399999999
100
AcDbArc
 50
231.3146437728838
 51
0.0
  0
LINE
  5
DCE
330
18
100
AcDbEntity
  8
MSL-90-R25-S-0
  6
Continuous
 62
     7
370
     0
100
AcDbLine
 10
485.7048514575632
 20
505.3772010474845
 30
0.0
 11
485.3049488575556
 21
504.9773006465938
 31
0.0
  0
LINE
  5
DCF
330
18
100
AcDbEntity
  8
MSL-90-R25-S-0
  6
Continuous
 62
     7
370
     0
100
AcDbLine
 10
485.7048514573212
 20
505.3774915473112
 30
0.0
 11
485.7048514575632
 21
505.3772010474845
 31
0.0
  0
LINE
  5
DD0
330
18
100
AcDbEntity
  8
MSL-90-R25-S-0
  6
Continuous
 62
     7
370
     0
100
AcDbLine
 10
485.9048084575632
 20
505.5771572474846
 30
0.0
 11
485.7048514575632
 21
505.3772010474845
 31
0.0
  0
LINE
  5
DD1
330
18
100
AcDbEntity
  8
MSL-90-R25-S-0
  6
Continuous
 62
     7
370
     0
100
AcDbLine
 10
485.7049738575556
 20
505.3776139474846
 30
0.0
 11
485.3049488575557
 21
504.977589147026
 31
0.0
  0
LINE
  5
DD2
330
18
100
AcDbEntity
  8
MSL-90-R25-S-0
  6
Continuous
 62
     7
370
     0
100
AcDbLine
 10
485.7049735906773
 20
505.3776142143627
 30
0.0
 11
485.9045588575557
 21
505.5771996475654
 31
0.0
  0
LINE
  5
DD3
330
18
100
AcDbEntity
  8
MSL-90-R25-S-0
  6
Continuous
 62
     7
370
     0
100
AcDbLine
 10
482.4048561575221
 20
504.9769477474846
 30
0.0
 11
485.3049488575556
 21
504.9769477474846
 31
0.0
  0
ARC
  5
DD4
330
18
100
AcDbEntity
  8
MSL-90-R25-S-0
  6
Continuous
 62
     7
370
     0
100
AcDbCircle
 10
483.4050468575555
 20
511.9769324474846
 30
0.0
 40
1.749999
100
AcDbArc
 50
235.1424641614936
 51
269.8015214413745
  0
LINE
  5
DD5
330
18
100
AcDbEntity
  8
MSL-90-R25-S-0
  6
Continuous
 62
     7
370
     0
100
AcDbLine
 10
483.3989846905445
 20
510.2269439474847
 30
0.0
 11
485.3049488575557
 21
510.2269439474847
 31
0.0
  0
LINE
  5
DD6
330
18
100
AcDbEntity
  8
MSL-90-R25-S-0
  6
Continuous
 62
     7
370
     0
100
AcDbLine
 10
485.3049488575556
 20
510.2269439474847
 30
0.0
 11
485.3049488575556
 21
504.9769477474846
 31
0.0
  0
LINE
  5
DD7
330
18
100
AcDbEntity
  8
MSL-90-R25-S-0
  6
Continuous
 62
     7
370
     0
100
AcDbLine
 10
487.4048561575595
 20
514.9771685474846
 30
0.0
 11
482.4048561575223
 21
514.9771685474846
 31
0.0
  0
LINE
  5
DD8
330
18
100
AcDbEntity
  8
MSL-90-R25-S-0
  6
Continuous
 62
     7
370
     0
100
AcDbLine
 10
485.4047924570231
 20
514.9771685474845
 30
0.0
 11
485.9048024575632
 21
514.4771685474845
 31
0.0
  0
LINE
  5
DD9
330
18
100
AcDbEntity
  8
MSL-90-R25-S-0
  6
Continuous
 62
     7
370
     0
100
AcDbLine
 10
485.2049328575556
 20
514.2769435474845
 30
0.0
 11
485.7049758575556
 21
513.7768905474846
 31
0.0
  0
LINE
  5
DDA
330
18
100
AcDbEntity
  8
MSL-90-R25-S-0
  6
Continuous
 62
     7
370
     0
100
AcDbLine
 10
482.4048561575222
 20
514.2769435474845
 30
0.0
 11
485.2049328575556
 21
514.2769435474845
 31
0.0
  0
LINE
  5
DDB
330
18
100
AcDbEntity
  8
MSL-90-R25-S-0
  6
Continuous
 62
     7
370
     0
100
AcDbLine
 10
485.9045588575555
 20
514.4770865474847
 30
0.0
 11
485.4044768575557
 21
514.9771685474846
 31
0.0
  0
ARC
  5
DDC
330
18
100
AcDbEntity
  8
MSL-90-R25-S-0
  6
Continuous
 62
     7
370
     0
100
AcDbCircle
 10
483.4049248575555
 20
511.9769477474846
 30
0.0
 40
1.599999399999999
100
AcDbArc
 50
0.0
 51
128.6853562271161
  0
LINE
  5
DDE
330
18
100
AcDbEntity
  8
MSL-90-R25-S-0
  6
Continuous
 62
     7
370
     0
100
AcDbLine
 10
487.1548561575594
 20
538.4771685474845
 30
0.0
 11
487.1548561575594
 21
524.4771685474845
 31
0.0
  0
LINE
  5
DDF
330
18
100
AcDbEntity
  8
MSL-90-R25-S-0
  6
Continuous
 62
     7
370
     0
100
AcDbLine
 10
486.1548561575594
 20
523.4771685474846
 30
0.0
 11
482.4048561575222
 21
523.4771685474846
 31
0.0
  0
LINE
  5
DE0
330
18
100
AcDbEntity
  8
MSL-90-R25-S-0
  6
Continuous
 62
     7
370
     0
100
AcDbLine
 10
486.1548561575594
 20
523.4771685474846
 30
0.0
 11
487.1548561575594
 21
524.4771685474846
 31
0.0
  0
LINE
  5
DE4
330
18
100
AcDbEntity
  8
MSL-90-R25-S-0
  6
Continuous
 62
     7
370
     0
100
AcDbLine
 10
487.1548561575594
 20
538.4771685474845
 30
0.0
 11
486.1548561575594
 21
539.4771685474845
 31
0.0
  0
LINE
  5
DE5
330
18
100
AcDbEntity
  8
MSL-90-R25-S-0
  6
Continuous
 62
     7
370
     0
100
AcDbLine
 10
487.4048561575595
 20
539.4771685474845
 30
0.0
 11
486.9048561575595
 21
539.9771685474845
 31
0.0
  0
LINE
  5
DE8
330
18
100
AcDbEntity
  8
MSL-90-R25-S-3A
 48
2.0
370
     0
100
AcDbLine
 10
333.4833777899677
 20
328.6154639470127
 30
0.0
 11
296.4833777899677
 21
328.6154639470189
 31
0.0
  0
LINE
  5
DE9
330
18
100
AcDbEntity
  8
MSL-90-R25-S-3A
 48
2.0
370
     0
100
AcDbLine
 10
333.4833777899943
 20
403.6154639470127
 30
0.0
 11
296.4833777899943
 21
403.6154639470188
 31
0.0
  0
LINE
  5
DEE
330
18
100
AcDbEntity
  8
MSL-90-R25-S-0
 48
2.0
370
     0
100
AcDbLine
 10
350.4833777899942
 20
321.1154639470148
 30
0.0
 11
188.4833777899942
 21
321.1154639470148
 31
0.0
  0
LINE
  5
DEF
330
18
100
AcDbEntity
  8
MSL-90-R25-S-0
 48
2.0
370
     0
100
AcDbLine
 10
350.4833777899943
 20
411.1154639470147
 30
0.0
 11
188.4833777899942
 21
411.1154639470147
 31
0.0
  0
LINE
  5
DF0
330
18
100
AcDbEntity
  8
MSL-90-R25-S-7A
 48
2.0
100
AcDbLine
 10
55.48337778999417
 20
396.1154639470083
 30
0.0
 11
155.4833777899941
 21
396.1154639470083
 31
0.0
  0
LINE
  5
DF1
330
18
100
AcDbEntity
  8
MSL-90-R25-S-7A
 48
2.0
100
AcDbLine
 10
55.48337778999417
 20
336.1154639470083
 30
0.0
 11
155.4833777899941
 21
336.1154639470083
 31
0.0
  0
LINE
  5
DF2
330
18
100
AcDbEntity
  8
MSL-90-R25-S-0
 48
2.0
370
     0
100
AcDbLine
 10
180.4833777899941
 20
415.6154639470083
 30
0.0
 11
30.48337778999428
 21
415.6154639470083
 31
0.0
  0
LINE
  5
DF3
330
18
100
AcDbEntity
  8
MSL-90-R25-S-0
 48
2.0
370
     0
100
AcDbLine
 10
30.48337778999417
 20
416.1154639470086
 30
0.0
 11
180.483377789994
 21
416.1154639470084
 31
0.0
  0
LINE
  5
DF4
330
18
100
AcDbEntity
  8
MSL-90-R25-S-0
 48
2.0
370
     0
100
AcDbLine
 10
180.4833777899943
 20
316.1154639470085
 30
0.0
 11
30.48337778999428
 21
316.1154639470086
 31
0.0
  0
LINE
  5
DF5
330
18
100
AcDbEntity
  8
MSL-90-R25-S-0
 48
2.0
370
     0
100
AcDbLine
 10
30.48337778999428
 20
316.6154639470084
 30
0.0
 11
180.4833777899943
 21
316.6154639470085
 31
0.0
  0
LINE
  5
DF6
330
18
100
AcDbEntity
  8
MSL-90-R25-S-0
 48
2.0
370
     0
100
AcDbLine
 10
180.4833777899941
 20
376.1154639470084
 30
0.0
 11
30.48337778999428
 21
376.1154639470084
 31
0.0
  0
LINE
  5
DF7
330
18
100
AcDbEntity
  8
MSL-90-R25-S-0
 48
2.0
370
     0
100
AcDbLine
 10
30.48337778999428
 20
356.1154639470084
 30
0.0
 11
180.4833777899941
 21
356.1154639470084
 31
0.0
  0
LINE
  5
DFA
330
18
100
AcDbEntity
  8
MSL-90-R25-S-0
 48
2.0
370
     0
100
AcDbLine
 10
22.48337778999417
 20
414.8654639470086
 30
0.0
 11
22.48337778999428
 21
317.3654639470086
 31
0.0
  0
LINE
  5
DFD
330
18
100
AcDbEntity
  8
MSL-90-R25-S-0
 48
2.0
370
     0
100
AcDbLine
 10
30.48337778999428
 20
316.6154639470084
 30
0.0
 11
30.48337778999428
 21
356.1154639470084
 31
0.0
  0
LINE
  5
DFE
330
18
100
AcDbEntity
  8
MSL-90-R25-S-0
 48
2.0
370
     0
100
AcDbLine
 10
22.48337778999428
 20
317.3654639470086
 30
0.0
 11
30.48337778999428
 21
317.3654639470086
 31
0.0
  0
LINE
  5
DFF
330
18
100
AcDbEntity
  8
MSL-90-R25-S-0
 48
2.0
370
     0
100
AcDbLine
 10
22.48337778999428
 20
316.3654639470089
 30
0.0
 11
22.48337778999428
 21
317.3654639470086
 31
0.0
  0
LINE
  5
E00
330
18
100
AcDbEntity
  8
MSL-90-R25-S-0
 48
2.0
370
     0
100
AcDbLine
 10
30.48337778999428
 20
316.3654639470089
 30
0.0
 11
22.48337778999428
 21
316.3654639470089
 31
0.0
  0
LINE
  5
E01
330
18
100
AcDbEntity
  8
MSL-90-R25-S-0
 48
2.0
370
     0
100
AcDbLine
 10
30.48337778999428
 20
316.1154639470086
 30
0.0
 11
30.48337778999428
 21
316.6154639470084
 31
0.0
  0
LINE
  5
E02
330
18
100
AcDbEntity
  8
MSL-90-R25-S-3A
 48
2.0
370
     0
100
AcDbLine
 10
3.845470386730994
 20
343.6154639470118
 30
0.0
 11
3.845470386747024
 21
388.6154639470118
 31
0.0
  0
LINE
  5
E03
330
18
100
AcDbEntity
  8
MSL-90-R25-S-3A
 48
2.0
370
     0
100
AcDbLine
 10
-12.26662221002721
 20
343.6154639470118
 30
0.0
 11
-12.26662221001118
 21
388.6154639470118
 31
0.0
  0
LINE
  5
E06
330
18
100
AcDbEntity
  8
MSL-90-R25-S-0
 48
2.0
370
     0
100
AcDbLine
 10
-39.51662221000584
 20
411.1154639470148
 30
0.0
 11
-39.51662221000572
 21
321.1154639470148
 31
0.0
  0
LINE
  5
E07
330
18
100
AcDbEntity
  8
MSL-90-R25-S-0
 48
2.0
370
     0
100
AcDbLine
 10
30.48337778999428
 20
376.1154639470086
 30
0.0
 11
30.48337778999428
 21
356.1154639470084
 31
0.0
  0
LINE
  5
E08
330
18
100
AcDbEntity
  8
MSL-90-R25-S-0
 48
2.0
370
     0
100
AcDbLine
 10
30.48337778999428
 20
356.1154639470086
 30
0.0
 11
30.48337778999428
 21
376.1154639470086
 31
0.0
  0
LINE
  5
E09
330
18
100
AcDbEntity
  8
MSL-90-R25-S-3A
 48
2.0
370
     0
100
AcDbLine
 10
14.48337778996756
 20
328.6154639470127
 30
0.0
 11
-22.51662221003244
 21
328.6154639470189
 31
0.0
  0
LINE
  5
E10
330
18
100
AcDbEntity
  8
MSL-90-R25-S-0
 48
2.0
370
     0
100
AcDbLine
 10
-39.51662221000584
 20
321.1154639470148
 30
0.0
 11
22.48337778999428
 21
321.115463947015
 31
0.0
  0
LINE
  5
E11
330
18
100
AcDbEntity
  8
MSL-90-R25-S-3A
 48
2.0
370
     0
100
AcDbLine
 10
-22.51662221003244
 20
328.6154639470189
 30
0.0
 11
-22.51662221003517
 21
321.1154639470213
 31
0.0
  0
LINE
  5
E19
330
18
100
AcDbEntity
  8
MSL-90-R25-S-3A
 48
2.0
370
     0
100
AcDbLine
 10
3.582719866752881
 20
328.6154639470119
 30
0.0
 11
3.582719866758225
 21
343.6154639470119
 31
0.0
  0
LINE
  5
E1A
330
18
100
AcDbEntity
  8
MSL-90-R25-S-3A
 48
2.0
370
     0
100
AcDbLine
 10
-12.01662221002721
 20
343.6154639470175
 30
0.0
 11
-12.01662221003255
 21
328.6154639470119
 31
0.0
  0
LINE
  5
E1C
330
18
100
AcDbEntity
  8
MSL-90-R25-S-3A
 48
2.0
370
     0
100
AcDbLine
 10
-12.01662221002721
 20
343.6154639470175
 30
0.0
 11
3.582719866758111
 21
343.6154639470119
 31
0.0
  0
LINE
  5
E1D
330
18
100
AcDbEntity
  8
MSL-90-R25-S-3A
 48
2.0
370
     0
100
AcDbLine
 10
14.48337778996483
 20
321.1154639470081
 30
0.0
 11
14.48337778996756
 21
328.6154639470127
 31
0.0
  0
LINE
  5
E21
330
18
100
AcDbEntity
  8
MSL-90-R25-S-3A
 48
2.0
370
     0
100
AcDbLine
 10
14.48337778999416
 20
403.6154639470127
 30
0.0
 11
-22.51662221000584
 21
403.6154639470188
 31
0.0
  0
LINE
  5
E2A
330
18
100
AcDbEntity
  8
MSL-90-R25-S-0
 48
2.0
370
     0
100
AcDbLine
 10
-39.51662221000584
 20
411.1154639470148
 30
0.0
 11
22.48337778999417
 21
411.1154639470148
 31
0.0
  0
LINE
  5
E2B
330
18
100
AcDbEntity
  8
MSL-90-R25-S-3A
 48
2.0
370
     0
100
AcDbLine
 10
-22.51662221000322
 20
411.1154639470079
 30
0.0
 11
-22.51662221000584
 21
403.6154639470188
 31
0.0
  0
LINE
  5
E2D
330
18
100
AcDbEntity
  8
MSL-90-R25-S-3A
 48
2.0
370
     0
100
AcDbLine
 10
3.582719866774141
 20
388.6154639470119
 30
0.0
 11
3.582719866779484
 21
403.6154639470119
 31
0.0
  0
LINE
  5
E2E
330
18
100
AcDbEntity
  8
MSL-90-R25-S-3A
 48
2.0
370
     0
100
AcDbLine
 10
-12.01662221000583
 20
403.6154639470119
 30
0.0
 11
-12.01662221001118
 21
388.6154639470175
 31
0.0
  0
LINE
  5
E30
330
18
100
AcDbEntity
  8
MSL-90-R25-S-0
 48
2.0
370
     0
100
AcDbLine
 10
30.48337778999428
 20
376.1154639470084
 30
0.0
 11
30.48337778999417
 21
415.6154639470083
 31
0.0
  0
LINE
  5
E34
330
18
100
AcDbEntity
  8
MSL-90-R25-S-3A
 48
2.0
370
     0
100
AcDbLine
 10
-12.01662221001118
 20
388.6154639470175
 30
0.0
 11
3.582719866774141
 21
388.6154639470119
 31
0.0
  0
LINE
  5
E39
330
18
100
AcDbEntity
  8
MSL-90-R25-S-3A
 48
2.0
370
     0
100
AcDbLine
 10
14.48337778999416
 20
403.6154639470127
 30
0.0
 11
14.48337778999678
 21
411.115463947008
 31
0.0
  0
LINE
  5
E3A
330
18
100
AcDbEntity
  8
MSL-90-R25-S-0
 48
2.0
370
     0
100
AcDbLine
 10
22.48337778999417
 20
414.8654639470086
 30
0.0
 11
22.48337778999417
 21
415.8654639470089
 31
0.0
  0
LINE
  5
E3B
330
18
100
AcDbEntity
  8
MSL-90-R25-S-0
 48
2.0
370
     0
100
AcDbLine
 10
22.48337778999417
 20
415.8654639470089
 30
0.0
 11
30.48337778999417
 21
415.8654639470089
 31
0.0
  0
LINE
  5
E3C
330
18
100
AcDbEntity
  8
MSL-90-R25-S-0
 48
2.0
370
     0
100
AcDbLine
 10
30.48337778999417
 20
414.8654639470086
 30
0.0
 11
22.48337778999417
 21
414.8654639470086
 31
0.0
  0
LINE
  5
E3D
330
18
100
AcDbEntity
  8
MSL-90-R25-S-0
 48
2.0
370
     0
100
AcDbLine
 10
30.48337778999417
 20
415.6154639470083
 30
0.0
 11
30.48337778999417
 21
416.1154639470086
 31
0.0
  0
LINE
  5
E4E
330
18
100
AcDbEntity
  8
MSL-90-R25-S-7A
 48
2.0
100
AcDbLine
 10
60.48337778999417
 20
341.1154639470083
 30
0.0
 11
60.48337778999417
 21
331.1154639470083
 31
0.0
  0
ARC
  5
E4F
330
18
100
AcDbEntity
  8
MSL-90-R25-S-5
 48
2.0
370
     0
100
AcDbCircle
 10
60.48337778999417
 20
336.1154639470083
 30
0.0
 40
3.0
100
AcDbArc
 50
164.9999999999998
 51
104.9999999999994
  0
CIRCLE
  5
E5A
330
18
100
AcDbEntity
  8
MSL-90-R25-S-0
 48
2.0
370
     0
100
AcDbCircle
 10
60.48337778999417
 20
336.1154639470083
 30
0.0
 40
2.5
  0
LINE
  5
E5D
330
18
100
AcDbEntity
  8
MSL-90-R25-S-7A
 48
2.0
100
AcDbLine
 10
82.98337778999416
 20
341.1154639470094
 30
0.0
 11
82.98337778999416
 21
331.1154639470094
 31
0.0
  0
ARC
  5
E5E
330
18
100
AcDbEntity
  8
MSL-90-R25-S-5
 48
2.0
370
     0
100
AcDbCircle
 10
82.98337778999416
 20
336.1154639470094
 30
0.0
 40
3.0
100
AcDbArc
 50
164.9999999999988
 51
104.9999999999994
  0
CIRCLE
  5
E5F
330
18
100
AcDbEntity
  8
MSL-90-R25-S-0
 48
2.0
370
     0
100
AcDbCircle
 10
82.98337778999416
 20
336.1154639470083
 30
0.0
 40
5.0
  0
CIRCLE
  5
E60
330
18
100
AcDbEntity
  8
MSL-90-R25-S-0
 48
2.0
370
     0
100
AcDbCircle
 10
82.98337778999416
 20
336.1154639470094
 30
0.0
 40
2.5
  0
LINE
  5
E61
330
18
100
AcDbEntity
  8
MSL-90-R25-S-7A
 48
2.0
100
AcDbLine
 10
105.4833777899941
 20
341.1154639470084
 30
0.0
 11
105.4833777899941
 21
331.1154639470084
 31
0.0
  0
ARC
  5
E62
330
18
100
AcDbEntity
  8
MSL-90-R25-S-5
 48
2.0
370
     0
100
AcDbCircle
 10
105.4833777899941
 20
336.1154639470084
 30
0.0
 40
3.0
100
AcDbArc
 50
165.0
 51
104.9999999999999
  0
CIRCLE
  5
E63
330
18
100
AcDbEntity
  8
MSL-90-R25-S-0
 48
2.0
370
     0
100
AcDbCircle
 10
105.4833777899941
 20
336.1154639470084
 30
0.0
 40
2.5
  0
LINE
  5
E64
330
18
100
AcDbEntity
  8
MSL-90-R25-S-7A
 48
2.0
100
AcDbLine
 10
60.48337778999417
 20
401.1154639470082
 30
0.0
 11
60.48337778999417
 21
391.1154639470083
 31
0.0
  0
ARC
  5
E65
330
18
100
AcDbEntity
  8
MSL-90-R25-S-5
 48
2.0
370
     0
100
AcDbCircle
 10
60.48337778999417
 20
396.1154639470083
 30
0.0
 40
3.0
100
AcDbArc
 50
165.0000000000004
 51
104.9999999999995
  0
CIRCLE
  5
E66
330
18
100
AcDbEntity
  8
MSL-90-R25-S-0
 48
2.0
370
     0
100
AcDbCircle
 10
60.48337778999417
 20
396.1154639470083
 30
0.0
 40
2.5
  0
LINE
  5
E87
330
18
100
AcDbEntity
  8
MSL-90-R25-S-7A
 48
2.0
100
AcDbLine
 10
105.4833777899941
 20
401.1154639470083
 30
0.0
 11
105.4833777899941
 21
391.1154639470084
 31
0.0
  0
LINE
  5
E88
330
18
100
AcDbEntity
  8
MSL-90-R25-S-7A
 48
2.0
100
AcDbLine
 10
82.98337778999416
 20
401.1154639470082
 30
0.0
 11
82.98337778999416
 21
391.1154639470083
 31
0.0
  0
ARC
  5
E89
330
18
100
AcDbEntity
  8
MSL-90-R25-S-5
 48
2.0
370
     0
100
AcDbCircle
 10
82.98337778999416
 20
396.1154639470083
 30
0.0
 40
3.0
100
AcDbArc
 50
164.9999999999998
 51
105.0000000000001
  0
ARC
  5
E8A
330
18
100
AcDbEntity
  8
MSL-90-R25-S-5
 48
2.0
370
     0
100
AcDbCircle
 10
105.4833777899941
 20
396.1154639470084
 30
0.0
 40
3.0
100
AcDbArc
 50
165.0000000000005
 51
105.0000000000001
  0
CIRCLE
  5
E8B
330
18
100
AcDbEntity
  8
MSL-90-R25-S-0
 48
2.0
370
     0
100
AcDbCircle
 10
82.98337778999416
 20
396.1154639470083
 30
0.0
 40
2.5
  0
CIRCLE
  5
E8C
330
18
100
AcDbEntity
  8
MSL-90-R25-S-0
 48
2.0
370
     0
100
AcDbCircle
 10
105.4833777899941
 20
396.1154639470084
 30
0.0
 40
2.5
  0
LINE
  5
E8F
330
18
100
AcDbEntity
  8
MSL-90-R25-S-0
 48
2.0
370
     0
100
AcDbLine
 10
188.4833777899943
 20
317.3654639470085
 30
0.0
 11
188.4833777899942
 21
414.8654639470086
 31
0.0
  0
LINE
  5
E92
330
18
100
AcDbEntity
  8
MSL-90-R25-S-0
 48
2.0
370
     0
100
AcDbLine
 10
180.4833777899941
 20
356.1154639470084
 30
0.0
 11
180.4833777899943
 21
316.6154639470084
 31
0.0
  0
LINE
  5
E93
330
18
100
AcDbEntity
  8
MSL-90-R25-S-0
 48
2.0
370
     0
100
AcDbLine
 10
188.4833777899943
 20
316.3654639470089
 30
0.0
 11
180.4833777899943
 21
316.3654639470089
 31
0.0
  0
LINE
  5
E94
330
18
100
AcDbEntity
  8
MSL-90-R25-S-0
 48
2.0
370
     0
100
AcDbLine
 10
180.4833777899943
 20
317.3654639470085
 30
0.0
 11
188.4833777899943
 21
317.3654639470085
 31
0.0
  0
LINE
  5
E95
330
18
100
AcDbEntity
  8
MSL-90-R25-S-0
 48
2.0
370
     0
100
AcDbLine
 10
180.4833777899943
 20
316.6154639470084
 30
0.0
 11
180.4833777899943
 21
316.1154639470085
 31
0.0
  0
LINE
  5
E96
330
18
100
AcDbEntity
  8
MSL-90-R25-S-0
 48
2.0
370
     0
100
AcDbLine
 10
188.4833777899943
 20
317.3654639470085
 30
0.0
 11
188.4833777899943
 21
316.3654639470089
 31
0.0
  0
LINE
  5
E9F
330
18
100
AcDbEntity
  8
MSL-90-R25-S-0
 48
2.0
370
     0
100
AcDbLine
 10
180.4833777899943
 20
356.1154639470085
 30
0.0
 11
180.4833777899943
 21
376.1154639470084
 31
0.0
  0
LINE
  5
EA0
330
18
100
AcDbEntity
  8
MSL-90-R25-S-0
 48
2.0
370
     0
100
AcDbLine
 10
180.4833777899941
 20
376.1154639470086
 30
0.0
 11
180.4833777899943
 21
356.1154639470086
 31
0.0
  0
LINE
  5
EA3
330
18
100
AcDbEntity
  8
MSL-90-R25-S-7A
 48
2.0
100
AcDbLine
 10
127.9833777899941
 20
341.1154639470084
 30
0.0
 11
127.9833777899941
 21
331.1154639470084
 31
0.0
  0
ARC
  5
EA4
330
18
100
AcDbEntity
  8
MSL-90-R25-S-5
 48
2.0
370
     0
100
AcDbCircle
 10
127.9833777899941
 20
336.1154639470084
 30
0.0
 40
3.0
100
AcDbArc
 50
165.0
 51
104.9999999999989
  0
CIRCLE
  5
EA5
330
18
100
AcDbEntity
  8
MSL-90-R25-S-0
 48
2.0
370
     0
100
AcDbCircle
 10
127.9833777899941
 20
336.1154639470084
 30
0.0
 40
2.5
  0
LINE
  5
EA6
330
18
100
AcDbEntity
  8
MSL-90-R25-S-7A
 48
2.0
100
AcDbLine
 10
150.4833777899941
 20
341.1154639470083
 30
0.0
 11
150.4833777899941
 21
331.1154639470083
 31
0.0
  0
ARC
  5
EA7
330
18
100
AcDbEntity
  8
MSL-90-R25-S-5
 48
2.0
370
     0
100
AcDbCircle
 10
150.4833777899941
 20
336.1154639470083
 30
0.0
 40
3.0
100
AcDbArc
 50
165.0
 51
104.9999999999999
  0
CIRCLE
  5
EAE
330
18
100
AcDbEntity
  8
MSL-90-R25-S-0
 48
2.0
370
     0
100
AcDbCircle
 10
150.4833777899941
 20
336.1154639470083
 30
0.0
 40
2.5
  0
LINE
  5
EC3
330
18
100
AcDbEntity
  8
MSL-90-R25-S-7A
 48
2.0
100
AcDbLine
 10
150.4833777899941
 20
401.1154639470083
 30
0.0
 11
150.4833777899941
 21
391.1154639470083
 31
0.0
  0
LINE
  5
EC4
330
18
100
AcDbEntity
  8
MSL-90-R25-S-7A
 48
2.0
100
AcDbLine
 10
127.9833777899941
 20
401.1154639470094
 30
0.0
 11
127.9833777899941
 21
391.1154639470095
 31
0.0
  0
ARC
  5
EC5
330
18
100
AcDbEntity
  8
MSL-90-R25-S-5
 48
2.0
370
     0
100
AcDbCircle
 10
127.9833777899941
 20
396.1154639470095
 30
0.0
 40
3.0
100
AcDbArc
 50
165.0000000000005
 51
104.999999999999
  0
ARC
  5
EC6
330
18
100
AcDbEntity
  8
MSL-90-R25-S-5
 48
2.0
370
     0
100
AcDbCircle
 10
150.4833777899941
 20
396.1154639470083
 30
0.0
 40
3.0
100
AcDbArc
 50
165.0000000000005
 51
105.0000000000001
  0
CIRCLE
  5
EC7
330
18
100
AcDbEntity
  8
MSL-90-R25-S-0
 48
2.0
370
     0
100
AcDbCircle
 10
127.9833777899941
 20
396.1154639470084
 30
0.0
 40
5.0
  0
CIRCLE
  5
EC8
330
18
100
AcDbEntity
  8
MSL-90-R25-S-0
 48
2.0
370
     0
100
AcDbCircle
 10
150.4833777899941
 20
396.1154639470083
 30
0.0
 40
2.5
  0
CIRCLE
  5
EC9
330
18
100
AcDbEntity
  8
MSL-90-R25-S-0
 48
2.0
370
     0
100
AcDbCircle
 10
127.9833777899941
 20
396.1154639470095
 30
0.0
 40
2.5
  0
LINE
  5
EDA
330
18
100
AcDbEntity
  8
MSL-90-R25-S-0
 48
2.0
370
     0
100
AcDbLine
 10
180.4833777899941
 20
415.6154639470083
 30
0.0
 11
180.4833777899941
 21
376.1154639470084
 31
0.0
  0
LINE
  5
EE3
330
18
100
AcDbEntity
  8
MSL-90-R25-S-0
 48
2.0
370
     0
100
AcDbLine
 10
188.4833777899942
 20
414.8654639470085
 30
0.0
 11
180.4833777899941
 21
414.8654639470085
 31
0.0
  0
LINE
  5
EE4
330
18
100
AcDbEntity
  8
MSL-90-R25-S-0
 48
2.0
370
     0
100
AcDbLine
 10
180.4833777899941
 20
415.8654639470089
 30
0.0
 11
188.4833777899942
 21
415.8654639470089
 31
0.0
  0
LINE
  5
EED
330
18
100
AcDbEntity
  8
MSL-90-R25-S-0
 48
2.0
370
     0
100
AcDbLine
 10
180.483377789994
 20
416.1154639470084
 30
0.0
 11
180.483377789994
 21
415.6154639470083
 31
0.0
  0
LINE
  5
EEE
330
18
100
AcDbEntity
  8
MSL-90-R25-S-0
 48
2.0
370
     0
100
AcDbLine
 10
188.4833777899942
 20
415.8654639470089
 30
0.0
 11
188.4833777899942
 21
414.8654639470085
 31
0.0
  0
LINE
  5
EEF
330
18
100
AcDbEntity
  8
MSL-90-R25-S-0
 48
2.0
100
AcDbLine
 10
290.4833777899943
 20
411.1154639470148
 30
0.0
 11
290.4833777899943
 21
321.1154639470148
 31
0.0
  0
LINE
  5
EF2
330
18
100
AcDbEntity
  8
MSL-90-R25-S-3A
 48
2.0
370
     0
100
AcDbLine
 10
296.4833777899677
 20
328.6154639470189
 30
0.0
 11
296.483377789965
 21
321.1154639470213
 31
0.0
  0
LINE
  5
EF5
330
18
100
AcDbEntity
  8
MSL-90-R25-S-3A
 48
2.0
370
     0
100
AcDbLine
 10
296.4833777899969
 20
411.1154639470079
 30
0.0
 11
296.4833777899943
 21
403.6154639470188
 31
0.0
  0
LINE
  5
EF6
330
18
100
AcDbEntity
  8
MSL-90-R25-S-3A
 48
2.0
370
     0
100
AcDbLine
 10
322.8454703867311
 20
343.6154639470118
 30
0.0
 11
322.8454703867472
 21
388.6154639470118
 31
0.0
  0
LINE
  5
EF7
330
18
100
AcDbEntity
  8
MSL-90-R25-S-3A
 48
2.0
370
     0
100
AcDbLine
 10
306.7333777899729
 20
343.6154639470118
 30
0.0
 11
306.7333777899889
 21
388.6154639470118
 31
0.0
  0
LINE
  5
EFA
330
18
100
AcDbEntity
  8
MSL-90-R25-S-0
 48
2.0
370
     0
100
AcDbLine
 10
350.4833777899942
 20
321.1154639470148
 30
0.0
 11
350.4833777899943
 21
411.1154639470148
 31
0.0
  0
LINE
  5
EFE
330
18
100
AcDbEntity
  8
MSL-90-R25-S-3A
 48
2.0
370
     0
100
AcDbLine
 10
306.9833777899729
 20
343.6154639470175
 30
0.0
 11
322.5827198667582
 21
343.6154639470119
 31
0.0
  0
LINE
  5
EFF
330
18
100
AcDbEntity
  8
MSL-90-R25-S-3A
 48
2.0
370
     0
100
AcDbLine
 10
306.9833777899729
 20
343.6154639470175
 30
0.0
 11
322.5827198667582
 21
343.6154639470119
 31
0.0
  0
LINE
  5
F02
330
18
100
AcDbEntity
  8
MSL-90-R25-S-3A
 48
2.0
370
     0
100
AcDbLine
 10
306.9833777899729
 20
343.6154639470175
 30
0.0
 11
306.9833777899676
 21
328.6154639470119
 31
0.0
  0
LINE
  5
F04
330
18
100
AcDbEntity
  8
MSL-90-R25-S-3A
 48
2.0
370
     0
100
AcDbLine
 10
322.5827198667529
 20
328.6154639470119
 30
0.0
 11
322.5827198667583
 21
343.6154639470119
 31
0.0
  0
LINE
  5
F05
330
18
100
AcDbEntity
  8
MSL-90-R25-S-3A
 48
2.0
370
     0
100
AcDbLine
 10
333.483377789965
 20
321.1154639470081
 30
0.0
 11
333.4833777899677
 21
328.6154639470127
 31
0.0
  0
LINE
  5
F0E
330
18
100
AcDbEntity
  8
MSL-90-R25-S-3A
 48
2.0
370
     0
100
AcDbLine
 10
306.9833777899943
 20
403.6154639470119
 30
0.0
 11
306.9833777899889
 21
388.6154639470175
 31
0.0
  0
LINE
  5
F0F
330
18
100
AcDbEntity
  8
MSL-90-R25-S-3A
 48
2.0
370
     0
100
AcDbLine
 10
322.5827198667742
 20
388.6154639470119
 30
0.0
 11
322.5827198667796
 21
403.6154639470119
 31
0.0
  0
LINE
  5
F10
330
18
100
AcDbEntity
  8
MSL-90-R25-S-3A
 48
2.0
370
     0
100
AcDbLine
 10
306.9833777899889
 20
388.6154639470175
 30
0.0
 11
322.5827198667742
 21
388.6154639470119
 31
0.0
  0
LINE
  5
F11
330
18
100
AcDbEntity
  8
MSL-90-R25-S-3A
 48
2.0
370
     0
100
AcDbLine
 10
306.9833777899889
 20
388.6154639470175
 30
0.0
 11
322.5827198667742
 21
388.6154639470119
 31
0.0
  0
LINE
  5
F1D
330
18
100
AcDbEntity
  8
MSL-90-R25-S-3A
 48
2.0
370
     0
100
AcDbLine
 10
333.4833777899943
 20
403.6154639470127
 30
0.0
 11
333.4833777899969
 21
411.115463947008
 31
0.0
  0
LINE
  5
F29
330
18
100
AcDbEntity
  8
MSL-90-R25-S-0
100
AcDbLine
 10
188.4833777899942
 20
407.1189772361092
 30
0.0
 11
290.4833777899943
 21
407.1189772361091
 31
0.0
  0
LINE
  5
F2A
330
18
100
AcDbEntity
  8
MSL-90-R25-S-0
100
AcDbLine
 10
188.4833777899942
 20
406.3253536045881
 30
0.0
 11
290.4833777899943
 21
406.3253536045881
 31
0.0
  0
LINE
  5
F2B
330
18
100
AcDbEntity
  8
MSL-90-R25-S-0
100
AcDbLine
 10
188.4833777899942
 20
395.9054968470148
 30
0.0
 11
290.4833777899943
 21
395.9054968470148
 31
0.0
  0
LINE
  5
F2C
330
18
100
AcDbEntity
  8
MSL-90-R25-S-0
100
AcDbLine
 10
188.4833777899942
 20
395.1123225575128
 30
0.0
 11
290.4833777899943
 21
395.1123225575128
 31
0.0
  0
LINE
  5
F2D
330
18
100
AcDbEntity
  8
MSL-90-R25-S-0
100
AcDbLine
 10
188.4833777899942
 20
337.1154107629598
 30
0.0
 11
290.4833777899943
 21
337.1154107629598
 31
0.0
  0
LINE
  5
F2E
330
18
100
AcDbEntity
  8
MSL-90-R25-S-0
100
AcDbLine
 10
188.4833777899942
 20
336.3252063372524
 30
0.0
 11
290.4833777899943
 21
336.3252063372524
 31
0.0
  0
LINE
  5
F2F
330
18
100
AcDbEntity
  8
MSL-90-R25-S-0
100
AcDbLine
 10
188.4833777899943
 20
325.9054968470148
 30
0.0
 11
290.4833777899943
 21
325.9054968470148
 31
0.0
  0
LINE
  5
F30
330
18
100
AcDbEntity
  8
MSL-90-R25-S-0
100
AcDbLine
 10
188.4833777899943
 20
325.1156396619853
 30
0.0
 11
290.4833777899943
 21
325.1156396619853
 31
0.0
  0
LINE
  5
F33
330
18
100
AcDbEntity
  8
MSL-90-R25-S-7A
100
AcDbLine
 10
186.1432448926921
 20
401.1156499796184
 30
0.0
 11
295.6028419724571
 21
401.1156499796184
 31
0.0
  0
LINE
  5
F34
330
18
100
AcDbEntity
  8
MSL-90-R25-S-7A
100
AcDbLine
 10
186.1432448926922
 20
331.1152779144112
 30
0.0
 11
295.6028419724572
 21
331.1152779144112
 31
0.0
  0
LINE
  5
1407
330
18
100
AcDbEntity
  8
MSL-90-R25-S-7A
100
AcDbLine
 10
-30.01662221000578
 20
499.6771685474851
 30
0.0
 11
-20.01662221000578
 21
499.6771685474851
 31
0.0
  0
LINE
  5
1408
330
18
100
AcDbEntity
  8
MSL-90-R25-S-7A
100
AcDbLine
 10
-25.01662221000578
 20
504.6771685474851
 30
0.0
 11
-25.01662221000578
 21
494.6771685474852
 31
0.0
  0
LINE
  5
1409
330
18
100
AcDbEntity
  8
MSL-90-R25-S-7A
100
AcDbLine
 10
5.983377789994221
 20
499.6771685474851
 30
0.0
 11
15.98337778999422
 21
499.6771685474851
 31
0.0
  0
LINE
  5
140A
330
18
100
AcDbEntity
  8
MSL-90-R25-S-7A
100
AcDbLine
 10
10.98337778999422
 20
504.6771685474851
 30
0.0
 11
10.98337778999422
 21
494.6771685474852
 31
0.0
  0
LINE
  5
140B
330
18
100
AcDbEntity
  8
MSL-90-R25-S-7A
100
AcDbLine
 10
6.418275233957956
 20
499.6771685474851
 30
0.0
 11
16.41827523395796
 21
499.6771685474851
 31
0.0
  0
LINE
  5
140C
330
18
100
AcDbEntity
  8
MSL-90-R25-S-7A
100
AcDbLine
 10
11.41827523395795
 20
504.6771685474851
 30
0.0
 11
11.41827523395795
 21
494.6771685474852
 31
0.0
  0
LINE
  5
140D
330
18
100
AcDbEntity
  8
MSL-90-R25-S-7A
100
AcDbLine
 10
5.983377789994221
 20
463.6771685474851
 30
0.0
 11
15.98337778999422
 21
463.6771685474851
 31
0.0
  0
LINE
  5
140E
330
18
100
AcDbEntity
  8
MSL-90-R25-S-7A
100
AcDbLine
 10
10.98337778999422
 20
468.6771685474851
 30
0.0
 11
10.98337778999422
 21
458.677168547485
 31
0.0
  0
LINE
  5
140F
330
18
100
AcDbEntity
  8
MSL-90-R25-S-7A
100
AcDbLine
 10
-30.01662221000578
 20
463.6771685474851
 30
0.0
 11
-20.01662221000578
 21
463.6771685474851
 31
0.0
  0
LINE
  5
1410
330
18
100
AcDbEntity
  8
MSL-90-R25-S-7A
100
AcDbLine
 10
-25.01662221000578
 20
468.6771685474851
 30
0.0
 11
-25.01662221000578
 21
458.6771685474851
 31
0.0
  0
LINE
  5
1411
330
18
100
AcDbEntity
  8
MSL-90-R25-S-7A
100
AcDbLine
 10
-28.01662221000578
 20
481.6771685474852
 30
0.0
 11
13.98337778999422
 21
481.6771685474852
 31
0.0
  0
LINE
  5
1412
330
18
100
AcDbEntity
  8
MSL-90-R25-S-7A
100
AcDbLine
 10
-7.016622210005778
 20
502.6771685474852
 30
0.0
 11
-7.016622210005778
 21
460.6771685474852
 31
0.0
  0
LINE
  5
1413
330
18
100
AcDbEntity
  8
MSL-90-R25-S-7A
100
AcDbLine
 10
294.9833777899942
 20
499.677168547485
 30
0.0
 11
304.9833777899942
 21
499.677168547485
 31
0.0
  0
LINE
  5
1414
330
18
100
AcDbEntity
  8
MSL-90-R25-S-7A
100
AcDbLine
 10
299.9833777899942
 20
504.677168547485
 30
0.0
 11
299.9833777899942
 21
494.6771685474851
 31
0.0
  0
LINE
  5
1415
330
18
100
AcDbEntity
  8
MSL-90-R25-S-7A
100
AcDbLine
 10
330.9833777899943
 20
499.677168547485
 30
0.0
 11
340.9833777899943
 21
499.677168547485
 31
0.0
  0
LINE
  5
1416
330
18
100
AcDbEntity
  8
MSL-90-R25-S-7A
100
AcDbLine
 10
335.9833777899943
 20
504.677168547485
 30
0.0
 11
335.9833777899943
 21
494.6771685474851
 31
0.0
  0
LINE
  5
1417
330
18
100
AcDbEntity
  8
MSL-90-R25-S-7A
100
AcDbLine
 10
330.9833777899943
 20
463.677168547485
 30
0.0
 11
340.9833777899943
 21
463.677168547485
 31
0.0
  0
LINE
  5
1418
330
18
100
AcDbEntity
  8
MSL-90-R25-S-7A
100
AcDbLine
 10
335.9833777899943
 20
468.677168547485
 30
0.0
 11
335.9833777899943
 21
458.677168547485
 31
0.0
  0
LINE
  5
1419
330
18
100
AcDbEntity
  8
MSL-90-R25-S-7A
100
AcDbLine
 10
294.9833777899942
 20
463.677168547485
 30
0.0
 11
304.9833777899942
 21
463.677168547485
 31
0.0
  0
LINE
  5
141A
330
18
100
AcDbEntity
  8
MSL-90-R25-S-7A
100
AcDbLine
 10
299.9833777899942
 20
468.677168547485
 30
0.0
 11
299.9833777899942
 21
458.677168547485
 31
0.0
  0
LINE
  5
141B
330
18
100
AcDbEntity
  8
MSL-90-R25-S-7A
100
AcDbLine
 10
296.9833777899943
 20
481.6771685474852
 30
0.0
 11
338.9833777899943
 21
481.6771685474852
 31
0.0
  0
LINE
  5
141C
330
18
100
AcDbEntity
  8
MSL-90-R25-S-7A
100
AcDbLine
 10
317.9833777899943
 20
502.6771685474852
 30
0.0
 11
317.9833777899943
 21
460.6771685474852
 31
0.0
  0
LINE
  5
141D
330
18
100
AcDbEntity
  8
MSL-90-R25-S-7A
100
AcDbLine
 10
409.9048561575221
 20
513.9771685474849
 30
0.0
 11
419.9048561575222
 21
513.9771685474849
 31
0.0
  0
LINE
  5
141E
330
18
100
AcDbEntity
  8
MSL-90-R25-S-7A
100
AcDbLine
 10
414.9048561575222
 20
518.977168547485
 30
0.0
 11
414.9048561575222
 21
508.977168547485
 31
0.0
  0
LINE
  5
141F
330
18
100
AcDbEntity
  8
MSL-90-R25-S-7A
100
AcDbLine
 10
454.9048561575221
 20
513.9771685474851
 30
0.0
 11
464.9048561575222
 21
513.9771685474851
 31
0.0
  0
LINE
  5
1420
330
18
100
AcDbEntity
  8
MSL-90-R25-S-7A
100
AcDbLine
 10
459.9048561575222
 20
518.9771685474851
 30
0.0
 11
459.9048561575222
 21
508.977168547485
 31
0.0
  0
LINE
  5
1421
330
18
100
AcDbEntity
  8
MSL-90-R25-S-7A
100
AcDbLine
 10
469.9048561575223
 20
473.4771685474852
 30
0.0
 11
479.9048561575223
 21
473.4771685474852
 31
0.0
  0
LINE
  5
1422
330
18
100
AcDbEntity
  8
MSL-90-R25-S-7A
100
AcDbLine
 10
474.9048561575222
 20
478.4771685474852
 30
0.0
 11
474.9048561575222
 21
468.4771685474851
 31
0.0
  0
LINE
  5
1423
330
18
100
AcDbEntity
  8
MSL-90-R25-S-7A
100
AcDbLine
 10
394.9048561575222
 20
473.4771685474851
 30
0.0
 11
404.9048561575221
 21
473.4771685474851
 31
0.0
  0
LINE
  5
1424
330
18
100
AcDbEntity
  8
MSL-90-R25-S-7A
100
AcDbLine
 10
399.9048561575222
 20
478.4771685474851
 30
0.0
 11
399.9048561575222
 21
468.4771685474851
 31
0.0
  0
LINE
  5
1433
330
18
100
AcDbEntity
  8
MSL-90-R25-S-3A
 48
2.0
370
     0
100
AcDbLine
 10
408.2764794299022
 20
463.772720470141
 30
0.0
 11
404.8584459918541
 21
463.7727204701422
 31
0.0
  0
LINE
  5
1434
330
18
100
AcDbEntity
  8
MSL-90-R25-S-3A
 48
2.0
370
     0
100
AcDbLine
 10
399.3918115137595
 20
463.7141417960958
 30
0.0
 11
395.213434801285
 21
459.5357650836213
 31
0.0
  0
LINE
  5
1437
330
18
100
AcDbEntity
  8
MSL-90-R25-S-3A
 48
2.0
370
     0
100
AcDbLine
 10
395.3548561575222
 20
456.9771864398585
 30
0.0
 11
399.2548561575223
 21
456.9771864398585
 31
0.0
  0
LINE
  5
1439
330
18
100
AcDbEntity
  8
MSL-90-R25-S-3A
 48
2.0
370
     0
100
AcDbLine
 10
395.1548561575223
 20
459.3943437273838
 30
0.0
 11
395.1548561575223
 21
457.1771864398584
 31
0.0
  0
ARC
  5
143A
330
18
100
AcDbEntity
  8
MSL-90-R25-S-3A
 48
2.0
370
     0
100
AcDbCircle
 10
395.3548561575222
 20
457.1771864398585
 30
0.0
 40
0.2
100
AcDbArc
 50
180.0
 51
270.0
  0
ARC
  5
143B
330
18
100
AcDbEntity
  8
MSL-90-R25-S-3A
 48
2.0
370
     0
100
AcDbCircle
 10
395.3548561575222
 20
459.3943437273839
 30
0.0
 40
0.2
100
AcDbArc
 50
134.9999999999712
 51
180.0
  0
ARC
  5
143C
330
18
100
AcDbEntity
  8
MSL-90-R25-S-3A
 48
2.0
370
     0
100
AcDbCircle
 10
399.2548561575223
 20
456.3771864398585
 30
0.0
 40
0.5999999999999963
100
AcDbArc
 50
0.0
 51
90.0
  0
LINE
  5
143E
330
18
100
AcDbEntity
  8
MSL-90-R25-S-3A
 48
2.0
370
     0
100
AcDbLine
 10
399.8548561575223
 20
456.3771864398585
 30
0.0
 11
399.8548561575223
 21
454.9771854398585
 31
0.0
  0
LINE
  5
1443
330
18
100
AcDbEntity
  8
MSL-90-R25-S-3A
 48
2.0
370
     0
100
AcDbLine
 10
402.9512663406747
 20
463.7727204398585
 30
0.0
 11
399.5332328699969
 21
463.7727204398585
 31
0.0
  0
ARC
  5
1444
330
18
100
AcDbEntity
  8
MSL-90-R25-S-3A
 48
2.0
370
     0
100
AcDbCircle
 10
399.5332328699969
 20
463.5727204398586
 30
0.0
 40
0.2
100
AcDbArc
 50
90.0
 51
135.0000000000057
  0
LINE
  5
1445
330
18
100
AcDbEntity
  8
MSL-90-R25-S-3A
 48
2.0
370
     0
100
AcDbLine
 10
404.758446026823
 20
463.7995153691962
 30
0.0
 11
404.0048561575223
 21
464.2346004802369
 31
0.0
  0
ARC
  5
1446
330
18
100
AcDbEntity
  8
MSL-90-R25-S-3A
 48
2.0
370
     0
100
AcDbCircle
 10
403.904856192491
 20
464.0613953792908
 30
0.0
 40
0.2000000000000035
100
AcDbArc
 50
60.0000115675694
 51
119.9999884324236
  0
ARC
  5
1447
330
18
100
AcDbEntity
  8
MSL-90-R25-S-3A
 48
2.0
370
     0
100
AcDbCircle
 10
402.9512663406747
 20
463.9727204398584
 30
0.0
 40
0.2
100
AcDbArc
 50
270.0
 51
299.9999884324328
  0
LINE
  5
1448
330
18
100
AcDbEntity
  8
MSL-90-R25-S-3A
 48
2.0
370
     0
100
AcDbLine
 10
403.8048562274598
 20
464.2346004802369
 30
0.0
 11
403.051266305706
 21
463.7995153389124
 31
0.0
  0
ARC
  5
1449
330
18
100
AcDbEntity
  8
MSL-90-R25-S-3A
 48
2.0
370
     0
100
AcDbCircle
 10
404.8584459918542
 20
463.9727204701422
 30
0.0
 40
0.2
100
AcDbArc
 50
240.0000115675602
 51
269.9999999999838
  0
LINE
  5
144A
330
18
100
AcDbEntity
  8
MSL-90-R25-S-3A
 48
2.0
370
     0
100
AcDbLine
 10
412.5962775289004
 20
459.5357650836213
 30
0.0
 11
408.4179007861393
 21
463.7141418263785
 31
0.0
  0
ARC
  5
144E
330
18
100
AcDbEntity
  8
MSL-90-R25-S-3A
 48
2.0
370
     0
100
AcDbCircle
 10
408.5548561575222
 20
456.3771864398585
 30
0.0
 40
0.6000000000000104
100
AcDbArc
 50
90.0
 51
180.0
  0
LINE
  5
1450
330
18
100
AcDbEntity
  8
MSL-90-R25-S-3A
 48
2.0
370
     0
100
AcDbLine
 10
407.9548561575222
 20
454.9771854398585
 30
0.0
 11
407.9548561575222
 21
456.3771864398585
 31
0.0
  0
LINE
  5
1451
330
18
100
AcDbEntity
  8
MSL-90-R25-S-3A
 48
2.0
370
     0
100
AcDbLine
 10
408.5548561575222
 20
456.9771864398585
 30
0.0
 11
412.4548561726641
 21
456.9771864398585
 31
0.0
  0
ARC
  5
1452
330
18
100
AcDbEntity
  8
MSL-90-R25-S-3A
 48
2.0
370
     0
100
AcDbCircle
 10
412.4548561726641
 20
457.1771864398585
 30
0.0
 40
0.2
100
AcDbArc
 50
270.0
 51
0.0
  0
LINE
  5
1453
330
18
100
AcDbEntity
  8
MSL-90-R25-S-3A
 48
2.0
370
     0
100
AcDbLine
 10
412.6548561726642
 20
457.1771864398584
 30
0.0
 11
412.6548561726632
 21
459.3943437273837
 31
0.0
  0
ARC
  5
1454
330
18
100
AcDbEntity
  8
MSL-90-R25-S-3A
 48
2.0
370
     0
100
AcDbCircle
 10
412.4548561726632
 20
459.3943437273839
 30
0.0
 40
0.2
100
AcDbArc
 50
0.0
 51
45.00000000003453
  0
ARC
  5
145D
330
18
100
AcDbEntity
  8
MSL-90-R25-S-3A
 48
2.0
370
     0
100
AcDbCircle
 10
408.2764794299021
 20
463.5727204701411
 30
0.0
 40
0.2
100
AcDbArc
 50
45.00000000003453
 51
89.99999999997553
  0
LINE
  5
1491
330
18
100
AcDbEntity
  8
MSL-90-R25-S-3A
 48
2.0
370
     0
100
AcDbLine
 10
470.8048561575223
 20
464.2346004802369
 30
0.0
 11
470.0512662882216
 21
463.7995153691962
 31
0.0
  0
LINE
  5
1494
330
18
100
AcDbEntity
  8
MSL-90-R25-S-3A
 48
2.0
370
     0
100
AcDbLine
 10
466.3918115289051
 20
463.7141418263785
 30
0.0
 11
462.213434786144
 21
459.5357650836213
 31
0.0
  0
ARC
  5
149C
330
18
100
AcDbEntity
  8
MSL-90-R25-S-3A
 48
2.0
370
     0
100
AcDbCircle
 10
462.3548561423803
 20
457.1771864398584
 30
0.0
 40
0.2
100
AcDbArc
 50
179.9999999999674
 51
270.0
  0
LINE
  5
149D
330
18
100
AcDbEntity
  8
MSL-90-R25-S-3A
 48
2.0
370
     0
100
AcDbLine
 10
462.1548561423813
 20
459.3943437273838
 30
0.0
 11
462.1548561423804
 21
457.1771864398587
 31
0.0
  0
ARC
  5
149E
330
18
100
AcDbEntity
  8
MSL-90-R25-S-3A
 48
2.0
370
     0
100
AcDbCircle
 10
462.3548561423813
 20
459.3943437273838
 30
0.0
 40
0.2
100
AcDbArc
 50
134.9999999999654
 51
180.0
  0
ARC
  5
14A0
330
18
100
AcDbEntity
  8
MSL-90-R25-S-3A
 48
2.0
370
     0
100
AcDbCircle
 10
466.2548561575222
 20
456.3771864398585
 30
0.0
 40
0.6000000000000104
100
AcDbArc
 50
0.0
 51
90.0
  0
LINE
  5
14A2
330
18
100
AcDbEntity
  8
MSL-90-R25-S-3A
 48
2.0
370
     0
100
AcDbLine
 10
466.8548561575222
 20
456.3771864398585
 30
0.0
 11
466.8548561575222
 21
454.9771854398585
 31
0.0
  0
LINE
  5
14A3
330
18
100
AcDbEntity
  8
MSL-90-R25-S-3A
 48
2.0
370
     0
100
AcDbLine
 10
462.3548561423803
 20
456.9771864398585
 30
0.0
 11
466.2548561575222
 21
456.9771864398585
 31
0.0
  0
ARC
  5
14AA
330
18
100
AcDbEntity
  8
MSL-90-R25-S-3A
 48
2.0
370
     0
100
AcDbCircle
 10
466.5332328851424
 20
463.5727204701411
 30
0.0
 40
0.2
100
AcDbArc
 50
90.00000000002442
 51
134.9999999999712
  0
ARC
  5
14AB
330
18
100
AcDbEntity
  8
MSL-90-R25-S-3A
 48
2.0
370
     0
100
AcDbCircle
 10
469.9512663231903
 20
463.9727204701422
 30
0.0
 40
0.2
100
AcDbArc
 50
270.0000000000244
 51
299.9999884324468
  0
LINE
  5
14AC
330
18
100
AcDbEntity
  8
MSL-90-R25-S-3A
 48
2.0
370
     0
100
AcDbLine
 10
469.9512663231904
 20
463.7727204701422
 30
0.0
 11
466.5332328851423
 21
463.772720470141
 31
0.0
  0
LINE
  5
14AF
330
18
100
AcDbEntity
  8
MSL-90-R25-S-3A
 48
2.0
370
     0
100
AcDbLine
 10
479.5962775137595
 20
459.5357650836213
 30
0.0
 11
475.4179008012849
 21
463.7141417960958
 31
0.0
  0
LINE
  5
14B1
330
18
100
AcDbEntity
  8
MSL-90-R25-S-3A
 48
2.0
370
     0
100
AcDbLine
 10
475.5548561575222
 20
456.9771864398585
 30
0.0
 11
479.4548561575222
 21
456.9771864398585
 31
0.0
  0
ARC
  5
14B3
330
18
100
AcDbEntity
  8
MSL-90-R25-S-3A
 48
2.0
370
     0
100
AcDbCircle
 10
475.5548561575222
 20
456.3771864398585
 30
0.0
 40
0.5999999999999963
100
AcDbArc
 50
90.0
 51
180.0
  0
LINE
  5
14B5
330
18
100
AcDbEntity
  8
MSL-90-R25-S-3A
 48
2.0
370
     0
100
AcDbLine
 10
474.9548561575222
 20
454.9771854398585
 30
0.0
 11
474.9548561575222
 21
456.3771864398585
 31
0.0
  0
LINE
  5
14B8
330
18
100
AcDbEntity
  8
MSL-90-R25-S-3A
 48
2.0
370
     0
100
AcDbLine
 10
479.6548561575223
 20
457.1771864398584
 30
0.0
 11
479.6548561575223
 21
459.3943437273838
 31
0.0
  0
ARC
  5
14B9
330
18
100
AcDbEntity
  8
MSL-90-R25-S-3A
 48
2.0
370
     0
100
AcDbCircle
 10
479.4548561575222
 20
457.1771864398584
 30
0.0
 40
0.2
100
AcDbArc
 50
270.0000000000081
 51
0.0
  0
ARC
  5
14BA
330
18
100
AcDbEntity
  8
MSL-90-R25-S-3A
 48
2.0
370
     0
100
AcDbCircle
 10
479.4548561575222
 20
459.3943437273838
 30
0.0
 40
0.2
100
AcDbArc
 50
0.0
 51
45.00000000002877
  0
LINE
  5
14BC
330
18
100
AcDbEntity
  8
MSL-90-R25-S-3A
 48
2.0
370
     0
100
AcDbLine
 10
475.2764794450476
 20
463.7727204398585
 30
0.0
 11
471.8584459743697
 21
463.7727204398585
 31
0.0
  0
ARC
  5
14BD
330
18
100
AcDbEntity
  8
MSL-90-R25-S-3A
 48
2.0
370
     0
100
AcDbCircle
 10
470.9048561225535
 20
464.0613953792908
 30
0.0
 40
0.2000000000000034
100
AcDbArc
 50
60.00001156757644
 51
119.9999884324306
  0
ARC
  5
14BE
330
18
100
AcDbEntity
  8
MSL-90-R25-S-3A
 48
2.0
370
     0
100
AcDbCircle
 10
471.8584459743697
 20
463.9727204398584
 30
0.0
 40
0.2
100
AcDbArc
 50
240.0000115675602
 51
270.0
  0
LINE
  5
14BF
330
18
100
AcDbEntity
  8
MSL-90-R25-S-3A
 48
2.0
370
     0
100
AcDbLine
 10
471.7584460093385
 20
463.7995153389124
 30
0.0
 11
471.0048560875847
 21
464.2346004802369
 31
0.0
  0
ARC
  5
14C0
330
18
100
AcDbEntity
  8
MSL-90-R25-S-3A
 48
2.0
370
     0
100
AcDbCircle
 10
475.2764794450476
 20
463.5727204398586
 30
0.0
 40
0.2
100
AcDbArc
 50
44.99999999999424
 51
90.0
  0
LINE
  5
1519
330
18
100
AcDbEntity
  8
MSL-90-R25-S-7A
 48
2.0
100
AcDbLine
 10
60.48337778999431
 20
543.3042875474846
 30
0.0
 11
60.48337778999431
 21
520.3989305474848
 31
0.0
  0
LINE
  5
151A
330
18
100
AcDbEntity
  8
MSL-90-R25-S-7A
 48
2.0
100
AcDbLine
 10
82.9833777899943
 20
543.3042875474846
 30
0.0
 11
82.9833777899943
 21
520.3989305474848
 31
0.0
  0
LINE
  5
151B
330
18
100
AcDbEntity
  8
MSL-90-R25-S-7A
 48
2.0
100
AcDbLine
 10
82.9833777899943
 20
543.3042875474846
 30
0.0
 11
82.9833777899943
 21
514.2769435474845
 31
0.0
  0
LINE
  5
151C
330
18
100
AcDbEntity
  8
MSL-90-R25-S-7A
 48
2.0
100
AcDbLine
 10
60.48337778999453
 20
543.3042875474846
 30
0.0
 11
60.48337778999453
 21
514.2769435474845
 31
0.0
  0
LINE
  5
151D
330
18
100
AcDbEntity
  8
MSL-90-R25-S-7A
 48
2.0
100
AcDbLine
 10
407.4048561575458
 20
543.3042875474846
 30
0.0
 11
407.4048561575458
 21
532.2887422235586
 31
0.0
  0
LINE
  5
151E
330
18
100
AcDbEntity
  8
MSL-90-R25-S-7A
 48
2.0
100
AcDbLine
 10
105.4833777899943
 20
543.3042875474846
 30
0.0
 11
105.4833777899943
 21
514.2769435474845
 31
0.0
  0
LINE
  5
151F
330
18
100
AcDbEntity
  8
MSL-90-R25-S-7A
 48
2.0
100
AcDbLine
 10
150.4833777899943
 20
543.3042875474846
 30
0.0
 11
150.4833777899942
 21
514.2769435474845
 31
0.0
  0
LINE
  5
1520
330
18
100
AcDbEntity
  8
MSL-90-R25-S-0
 48
2.0
100
AcDbLine
 10
77.98337778999431
 20
541.4771685474846
 30
0.0
 11
87.98337778999419
 21
541.4771685474845
 31
0.0
  0
LINE
  5
1521
330
18
100
AcDbEntity
  8
MSL-90-R25-S-0
 48
2.0
100
AcDbLine
 10
87.98337778999419
 20
541.9771685474845
 30
0.0
 11
78.9833777899943
 21
541.9771685474846
 31
0.0
  0
LINE
  5
1522
330
18
100
AcDbEntity
  8
MSL-90-R25-S-0
 48
2.0
100
AcDbLine
 10
77.98337778999431
 20
541.4771685474846
 30
0.0
 11
77.98337778999425
 21
539.9771685474846
 31
0.0
  0
LINE
  5
1523
330
18
100
AcDbEntity
  8
MSL-90-R25-S-0
 48
2.0
100
AcDbLine
 10
78.9833777899943
 20
541.9771685474846
 30
0.0
 11
78.48337778999431
 21
541.4771685474846
 31
0.0
  0
LINE
  5
1524
330
18
100
AcDbEntity
  8
MSL-90-R25-S-0
 48
2.0
100
AcDbLine
 10
411.9048561575457
 20
541.9771685474845
 30
0.0
 11
402.9048561575458
 21
541.9771685474846
 31
0.0
  0
LINE
  5
1525
330
18
100
AcDbEntity
  8
MSL-90-R25-S-0
 48
2.0
100
AcDbLine
 10
402.4048561575458
 20
541.4771685474846
 30
0.0
 11
412.4048561575457
 21
541.4771685474845
 31
0.0
  0
LINE
  5
1526
330
18
100
AcDbEntity
  8
MSL-90-R25-S-0
 48
2.0
100
AcDbLine
 10
87.98337778999419
 20
539.9771685474846
 30
0.0
 11
87.98337778999419
 21
541.4771685474845
 31
0.0
  0
LINE
  5
1527
330
18
100
AcDbEntity
  8
MSL-90-R25-S-0
 48
2.0
100
AcDbLine
 10
88.4833777899942
 20
541.4771685474845
 30
0.0
 11
87.98337778999419
 21
541.9771685474845
 31
0.0
  0
LINE
  5
1528
330
18
100
AcDbEntity
  8
MSL-90-R25-S-0
 48
2.0
100
AcDbLine
 10
402.4048561575458
 20
541.4771685474846
 30
0.0
 11
402.4048561575458
 21
539.9771685474846
 31
0.0
  0
LINE
  5
1529
330
18
100
AcDbEntity
  8
MSL-90-R25-S-0
 48
2.0
100
AcDbLine
 10
402.9048561575458
 20
541.9771685474846
 30
0.0
 11
402.4048561575458
 21
541.4771685474846
 31
0.0
  0
LINE
  5
152A
330
18
100
AcDbEntity
  8
MSL-90-R25-S-0
 48
2.0
100
AcDbLine
 10
412.4048561575457
 20
539.9771685474846
 30
0.0
 11
412.4048561575457
 21
541.4771685474845
 31
0.0
  0
LINE
  5
152B
330
18
100
AcDbEntity
  8
MSL-90-R25-S-0
 48
2.0
100
AcDbLine
 10
412.4048561575457
 20
541.4771685474845
 30
0.0
 11
411.9048561575457
 21
541.9771685474845
 31
0.0
  0
MTEXT
  5
1564
330
18
100
AcDbEntity
  8
MSL-90-R-S-6
100
AcDbMText
 10
29.81309129677925
 20
476.2458298553722
 30
0.0
 40
3.5
 41
85.42839999999999
 71
     1
 72
     5
  1
MSL 90-R25-S-100
 73
     1
 44
1.0
1001
ACAD
1000
MTEXTBEGIN
1070
    73
1070
     1
1070
    44
1040
1.0
1070
    74
1070
     0
1000
MTEXTEND
  0
CIRCLE
  5
15AB
330
18
100
AcDbEntity
  8
MSL-90-R25-S-0
  6
Continuous
 62
     7
370
     0
100
AcDbCircle
 10
417.9548561575222
 20
462.4771685474851
 30
0.0
 40
3.5
  0
CIRCLE
  5
15AC
330
18
100
AcDbEntity
  8
MSL-90-R25-S-0
  6
Continuous
 62
     7
370
     0
100
AcDbCircle
 10
456.8548561575222
 20
462.4771685474851
 30
0.0
 40
3.5
  0
LINE
  5
1D42
330
18
100
AcDbEntity
  8
MSL-90-R25-S-7A
 48
2.0
100
AcDbLine
 10
414.4048561575463
 20
527.4771685475011
 30
0.0
 11
414.404856157546
 21
533.4771685475011
 31
0.0
  0
LINE
  5
1D43
330
18
100
AcDbEntity
  8
MSL-90-R25-S-7A
 48
2.0
100
AcDbLine
 10
411.4048561575462
 20
530.4771685475011
 30
0.0
 11
417.4048561575463
 21
530.4771685475011
 31
0.0
  0
LINE
  5
1D44
330
18
100
AcDbEntity
  8
MSL-90-R25-S-7A
 48
2.0
100
AcDbLine
 10
460.404856157546
 20
527.4771685475011
 30
0.0
 11
460.4048561575458
 21
533.4771685475011
 31
0.0
  0
LINE
  5
1D45
330
18
100
AcDbEntity
  8
MSL-90-R25-S-7A
 48
2.0
100
AcDbLine
 10
457.4048561575461
 20
530.4771685475011
 30
0.0
 11
463.404856157546
 21
530.4771685475011
 31
0.0
  0
ARC
  5
1D46
330
18
100
AcDbEntity
  8
MSL-90-R25-S-5
100
AcDbCircle
 10
460.404856157546
 20
530.4771685475011
 30
0.0
 40
2.0
100
AcDbArc
 50
90.00000000000488
 51
0.0
  0
ARC
  5
1D47
330
18
100
AcDbEntity
  8
MSL-90-R25-S-5
100
AcDbCircle
 10
414.404856157546
 20
530.4771685475011
 30
0.0
 40
2.0
100
AcDbArc
 50
90.0
 51
0.0
  0
LINE
  5
1D48
330
18
100
AcDbEntity
  8
MSL-90-R25-S-0
370
     0
100
AcDbLine
 10
480.4048561575458
 20
538.4771685475011
 30
0.0
 11
394.4048561575458
 21
538.4771685475011
 31
0.0
  0
LINE
  5
1D49
330
18
100
AcDbEntity
  8
MSL-90-R25-S-0
370
     0
100
AcDbLine
 10
482.4048561575461
 20
521.9771685475014
 30
0.0
 11
482.4048561575461
 21
536.4771685475013
 31
0.0
  0
LINE
  5
1D4A
330
18
100
AcDbEntity
  8
MSL-90-R25-S-0
370
     0
100
AcDbLine
 10
392.4048561575459
 20
536.4771685475012
 30
0.0
 11
392.4048561575459
 21
521.9771685475011
 31
0.0
  0
LINE
  5
1D4B
330
18
100
AcDbEntity
  8
MSL-90-R25-S-0
370
     0
100
AcDbLine
 10
394.4048561575458
 20
538.4771685475011
 30
0.0
 11
392.4048561575459
 21
536.4771685475012
 31
0.0
  0
LINE
  5
1D4C
330
18
100
AcDbEntity
  8
MSL-90-R25-S-0
370
     0
100
AcDbLine
 10
482.4048561575458
 20
536.4771685475012
 30
0.0
 11
480.4048561575458
 21
538.4771685475011
 31
0.0
  0
CIRCLE
  5
1D4D
330
18
100
AcDbEntity
  8
MSL-90-R25-S-0
370
     0
100
AcDbCircle
 10
460.404856157546
 20
530.4771685475011
 30
0.0
 40
1.649999999999999
  0
CIRCLE
  5
1D4E
330
18
100
AcDbEntity
  8
MSL-90-R25-S-0
370
     0
100
AcDbCircle
 10
414.404856157546
 20
530.4771685475011
 30
0.0
 40
1.649999999999999
  0
LINE
  5
1D4F
330
18
100
AcDbEntity
  8
MSL-90-R25-S-0
370
     0
100
AcDbLine
 10
392.4048561575459
 20
521.9771685475011
 30
0.0
 11
482.4048561575458
 21
521.9771685475014
 31
0.0
  0
LINE
  5
1D50
330
18
100
AcDbEntity
  8
MSL-90-R25-S-0
370
     0
100
AcDbLine
 10
388.6548561575525
 20
539.4771685475027
 30
0.0
 11
486.1548561575524
 21
539.4771685475027
 31
0.0
  0
LINE
  5
1D51
330
18
100
AcDbEntity
  8
MSL-90-R25-S-0
370
     0
100
AcDbLine
 10
392.4048561575461
 20
523.4771685475006
 30
0.0
 11
388.6548561575834
 21
523.4771685475006
 31
0.0
  0
LINE
  5
1D52
330
18
100
AcDbEntity
  8
MSL-90-R25-S-0
370
     0
100
AcDbLine
 10
427.4048561575524
 20
539.4771685475027
 30
0.0
 11
427.4048561575524
 21
539.9771685475027
 31
0.0
  0
LINE
  5
1D53
330
18
100
AcDbEntity
  8
MSL-90-R25-S-0
370
     0
100
AcDbLine
 10
447.4048561575524
 20
539.9771685475027
 30
0.0
 11
447.4048561575524
 21
539.4771685475027
 31
0.0
  0
LINE
  5
1D54
330
18
100
AcDbEntity
  8
MSL-90-R25-S-0
370
     0
100
AcDbLine
 10
486.9048561575524
 20
539.9771685475027
 30
0.0
 11
447.4048561575524
 21
539.9771685475027
 31
0.0
  0
LINE
  5
1D55
330
18
100
AcDbEntity
  8
MSL-90-R25-S-0
370
     0
100
AcDbLine
 10
427.4048561575524
 20
539.9771685475027
 30
0.0
 11
387.9048561575524
 21
539.9771685475027
 31
0.0
  0
ARC
  5
1D56
330
18
100
AcDbEntity
  8
MSL-90-R25-S-0
370
     0
100
AcDbCircle
 10
295.5065851077456
 20
530.4771685474849
 30
0.0
 40
4.523207317751331
100
AcDbArc
 50
121.7230958259755
 51
238.2769041740237
  0
ARC
  5
1D57
330
18
100
AcDbEntity
  8
MSL-90-R25-S-0
370
     0
100
AcDbCircle
 10
305.9833777899943
 20
513.5290802853379
 30
0.0
 40
24.44808826214714
100
AcDbArc
 50
90.00000000000003
 51
121.7230958259758
  0
ARC
  5
1D58
330
18
100
AcDbEntity
  8
MSL-90-R25-S-0
370
     0
100
AcDbCircle
 10
305.9833777899943
 20
547.4252568096321
 30
0.0
 40
24.44808826214714
100
AcDbArc
 50
238.2769041740242
 51
270.0
  0
LINE
  5
1D59
330
18
100
AcDbEntity
  8
MSL-90-R25-S-0
370
     0
100
AcDbLine
 10
305.9833777899943
 20
538.4771685474849
 30
0.0
 11
305.9833777899943
 21
536.477168547485
 31
0.0
  0
LINE
  5
1D5A
330
18
100
AcDbEntity
  8
MSL-90-R25-S-0
370
     0
100
AcDbLine
 10
320.9833777899943
 20
536.477168547485
 30
0.0
 11
320.9833777899943
 21
538.4771685474849
 31
0.0
  0
LINE
  5
1D5B
330
18
100
AcDbEntity
  8
MSL-90-R25-S-0
370
     0
100
AcDbLine
 10
320.9833777899943
 20
538.4771685474849
 30
0.0
 11
305.9833777899943
 21
538.4771685474849
 31
0.0
  0
LINE
  5
1D5C
330
18
100
AcDbEntity
  8
MSL-90-R25-S-0
370
     0
100
AcDbLine
 10
305.9833777899943
 20
536.477168547485
 30
0.0
 11
320.9833777899943
 21
536.477168547485
 31
0.0
  0
LINE
  5
1D5D
330
18
100
AcDbEntity
  8
MSL-90-R25-S-0
370
     0
100
AcDbLine
 10
320.9833777899943
 20
521.9771685474851
 30
0.0
 11
320.9833777899943
 21
536.4771685474851
 31
0.0
  0
LINE
  5
1D5E
330
18
100
AcDbEntity
  8
MSL-90-R25-S-0
370
     0
100
AcDbLine
 10
305.9833777899943
 20
521.9771685474851
 30
0.0
 11
305.9833777899943
 21
536.4771685474851
 31
0.0
  0
ARC
  5
1D5F
330
18
100
AcDbEntity
  8
MSL-90-R25-S-0
370
     0
100
AcDbCircle
 10
15.46017047224285
 20
530.4771685474851
 30
0.0
 40
4.523207317751331
100
AcDbArc
 50
301.7230958259763
 51
58.27690417402443
  0
LINE
  5
1D60
330
18
100
AcDbEntity
  8
MSL-90-R25-S-0
370
     0
100
AcDbLine
 10
4.983377789994221
 20
538.4771685474851
 30
0.0
 11
4.983377789994221
 21
536.4771685474851
 31
0.0
  0
LINE
  5
1D61
330
18
100
AcDbEntity
  8
MSL-90-R25-S-0
370
     0
100
AcDbLine
 10
-10.01662221000578
 20
536.4771685474851
 30
0.0
 11
-10.01662221000578
 21
538.4771685474851
 31
0.0
  0
LINE
  5
1D62
330
18
100
AcDbEntity
  8
MSL-90-R25-S-0
370
     0
100
AcDbLine
 10
-10.01662221000578
 20
538.4771685474851
 30
0.0
 11
4.983377789994221
 21
538.4771685474851
 31
0.0
  0
LINE
  5
1D63
330
18
100
AcDbEntity
  8
MSL-90-R25-S-0
370
     0
100
AcDbLine
 10
4.983377789994221
 20
536.4771685474851
 30
0.0
 11
-10.01662221000578
 21
536.4771685474851
 31
0.0
  0
ARC
  5
1D64
330
18
100
AcDbEntity
  8
MSL-90-R25-S-0
370
     0
100
AcDbCircle
 10
4.983377789994221
 20
513.529080285338
 30
0.0
 40
24.44808826214714
100
AcDbArc
 50
58.27690417402416
 51
89.99999999999998
  0
ARC
  5
1D65
330
18
100
AcDbEntity
  8
MSL-90-R25-S-0
370
     0
100
AcDbCircle
 10
4.983377789994221
 20
547.4252568096322
 30
0.0
 40
24.44808826214714
100
AcDbArc
 50
270.0
 51
301.7230958259759
  0
LINE
  5
1D66
330
18
100
AcDbEntity
  8
MSL-90-R25-S-0
370
     0
100
AcDbLine
 10
-10.01662221000578
 20
521.9771685474852
 30
0.0
 11
-10.01662221000578
 21
536.4771685474852
 31
0.0
  0
LINE
  5
1D67
330
18
100
AcDbEntity
  8
MSL-90-R25-S-0
370
     0
100
AcDbLine
 10
4.983377789994221
 20
521.9771685474852
 30
0.0
 11
4.983377789994221
 21
536.4771685474852
 31
0.0
  0
LINE
  5
1E24
330
18
100
AcDbEntity
  8
MSL-90-R25-S-0
 48
2.0
370
     0
100
AcDbLine
 10
387.6548561575468
 20
524.4771685475027
 30
0.0
 11
387.6548561575518
 21
538.4771685475027
 31
0.0
  0
LINE
  5
1E25
330
18
100
AcDbEntity
  8
MSL-90-R25-S-0
 48
2.0
370
     0
100
AcDbLine
 10
388.6548561575522
 20
539.4771685475022
 30
0.0
 11
387.6548561575518
 21
538.4771685475027
 31
0.0
  0
LINE
  5
1E26
330
18
100
AcDbEntity
  8
MSL-90-R25-S-0
 48
2.0
370
     0
100
AcDbLine
 10
487.154856157552
 20
538.4771685474673
 30
0.0
 11
487.154856157547
 21
524.4771685474672
 31
0.0
  0
LINE
  5
1E27
330
18
100
AcDbEntity
  8
MSL-90-R25-S-0
 48
2.0
370
     0
100
AcDbLine
 10
486.1548561575465
 20
523.4771685474677
 30
0.0
 11
487.1548561575467
 21
524.4771685474672
 31
0.0
  0
LINE
  5
1E28
330
18
100
AcDbEntity
  8
MSL-90-R25-S-0
 48
2.0
370
     0
100
AcDbLine
 10
387.6548561575468
 20
524.4771685475027
 30
0.0
 11
388.6548561575466
 21
523.4771685475022
 31
0.0
  0
LINE
  5
1E29
330
18
100
AcDbEntity
  8
MSL-90-R25-S-0
 48
2.0
370
     0
100
AcDbLine
 10
487.154856157552
 20
538.4771685474673
 30
0.0
 11
486.1548561575522
 21
539.4771685474674
 31
0.0
  0
LINE
  5
1E2A
330
18
100
AcDbEntity
  8
MSL-90-R25-S-0
 48
2.0
370
     0
100
AcDbLine
 10
392.4048561575463
 20
523.4771685475011
 30
0.0
 11
388.6548561575466
 21
523.4771685475025
 31
0.0
  0
LINE
  5
1E2B
330
18
100
AcDbEntity
  8
MSL-90-R25-S-0
 48
2.0
370
     0
100
AcDbLine
 10
486.1548561575465
 20
523.4771685474677
 30
0.0
 11
482.4048561575465
 21
523.477168547469
 31
0.0
  0
LINE
  5
1E2C
330
18
100
AcDbEntity
  8
MSL-90-R25-S-0
 48
2.0
370
     0
100
AcDbLine
 10
482.4048561575522
 20
539.4771685474688
 30
0.0
 11
486.1548561575522
 21
539.4771685474674
 31
0.0
  0
LINE
  5
1E2D
330
18
100
AcDbEntity
  8
MSL-90-R25-S-0
 48
2.0
370
     0
100
AcDbLine
 10
388.6548561575522
 20
539.4771685475022
 30
0.0
 11
392.4048561575522
 21
539.4771685475009
 31
0.0
  0
LINE
  5
1E30
330
18
100
AcDbEntity
  8
MSL-90-R25-S-0
 48
2.0
370
     0
100
AcDbLine
 10
487.1548561575483
 20
528.9771685474672
 30
0.0
 11
487.3423561575485
 21
528.977168547467
 31
0.0
  0
LINE
  5
1E32
330
18
100
AcDbEntity
  8
MSL-90-R25-S-0
 48
2.0
370
     0
100
AcDbLine
 10
387.4673561575486
 20
528.9771685475029
 30
0.0
 11
387.6548561575486
 21
528.9771685475027
 31
0.0
  0
LINE
  5
1E34
330
18
100
AcDbEntity
  8
MSL-90-R25-S-0
 48
2.0
370
     0
100
AcDbLine
 10
387.9048561575524
 20
539.9771685475027
 30
0.0
 11
387.4048561575522
 21
539.4771685475027
 31
0.0
  0
LINE
  5
1E35
330
18
100
AcDbEntity
  8
MSL-90-R25-S-0
 48
2.0
370
     0
100
AcDbLine
 10
487.4048561575522
 20
539.477168547467
 30
0.0
 11
487.4048561575485
 21
528.977168547467
 31
0.0
  0
LINE
  5
1E36
330
18
100
AcDbEntity
  8
MSL-90-R25-S-0
 48
2.0
370
     0
100
AcDbLine
 10
392.4048561575522
 20
539.9771685475011
 30
0.0
 11
387.9048561575524
 21
539.9771685475027
 31
0.0
  0
LINE
  5
1E37
330
18
100
AcDbEntity
  8
MSL-90-R25-S-0
 48
2.0
370
     0
100
AcDbLine
 10
486.9048561575524
 20
539.9771685474672
 30
0.0
 11
482.4048561575522
 21
539.9771685474686
 31
0.0
  0
LINE
  5
1E38
330
18
100
AcDbEntity
  8
MSL-90-R25-S-0
 48
2.0
370
     0
100
AcDbLine
 10
487.4048561575484
 20
528.977168547467
 30
0.0
 11
487.1548561575483
 21
528.9771685474672
 31
0.0
  0
LINE
  5
1E39
330
18
100
AcDbEntity
  8
MSL-90-R25-S-0
 48
2.0
370
     0
100
AcDbLine
 10
387.4048561575522
 20
539.4771685475027
 30
0.0
 11
387.4048561575486
 21
528.9771685475027
 31
0.0
  0
LINE
  5
1E3A
330
18
100
AcDbEntity
  8
MSL-90-R25-S-0
 48
2.0
370
     0
100
AcDbLine
 10
387.6548561575486
 20
528.9771685475027
 30
0.0
 11
387.4048561575486
 21
528.9771685475027
 31
0.0
  0
LINE
  5
1E3B
330
18
100
AcDbEntity
  8
MSL-90-R25-S-0
 48
2.0
370
     0
100
AcDbLine
 10
487.4048561575522
 20
539.477168547467
 30
0.0
 11
486.9048561575524
 21
539.9771685474672
 31
0.0
  0
LINE
  5
1FB6
330
18
100
AcDbEntity
  8
MSL-90-R25-S-0
100
AcDbLine
 10
20.48337778999422
 20
411.1154639470148
 30
0.0
 11
20.48337778999422
 21
321.1154639470149
 31
0.0
  0
LINE
  5
1FE4
330
18
100
AcDbEntity
  8
MSL-90-R25-S-0
370
     0
100
AcDbLine
 10
4.983377789994207
 20
323.1154639470148
 30
0.0
 11
4.983377789994207
 21
409.1154639470148
 31
0.0
  0
LINE
  5
1FE5
330
18
100
AcDbEntity
  8
MSL-90-R25-S-0
370
     0
100
AcDbLine
 10
-10.01662221000578
 20
323.1154639470148
 30
0.0
 11
-10.01662221000578
 21
409.1154639470148
 31
0.0
  0
LINE
  5
1FE6
330
18
100
AcDbEntity
  8
MSL-90-R25-S-0
370
     0
100
AcDbLine
 10
4.983377789994207
 20
321.1154639470148
 30
0.0
 11
-10.01662221000579
 21
321.1154639470148
 31
0.0
  0
LINE
  5
1FE7
330
18
100
AcDbEntity
  8
MSL-90-R25-S-0
370
     0
100
AcDbLine
 10
-10.01662221000578
 20
323.1154639470148
 30
0.0
 11
4.983377789994221
 21
323.1154639470148
 31
0.0
  0
LINE
  5
1FE8
330
18
100
AcDbEntity
  8
MSL-90-R25-S-0
370
     0
100
AcDbLine
 10
-10.01662221000578
 20
321.1154639470148
 30
0.0
 11
-10.01662221000578
 21
323.1154639470148
 31
0.0
  0
LINE
  5
1FE9
330
18
100
AcDbEntity
  8
MSL-90-R25-S-0
370
     0
100
AcDbLine
 10
4.983377789994207
 20
323.1154639470148
 30
0.0
 11
4.983377789994207
 21
321.1154639470148
 31
0.0
  0
LINE
  5
1FEA
330
18
100
AcDbEntity
  8
MSL-90-R25-S-0
370
     0
100
AcDbLine
 10
-1.361921671626532
 20
352.1154639470148
 30
0.0
 11
-0.2072211332472733
 21
350.1154639470148
 31
0.0
  0
LINE
  5
1FEB
330
18
100
AcDbEntity
  8
MSL-90-R25-S-0
370
     0
100
AcDbLine
 10
-4.826023286764296
 20
350.1154639470148
 30
0.0
 11
-3.671322748385037
 21
352.1154639470148
 31
0.0
  0
CIRCLE
  5
1FEC
330
18
100
AcDbEntity
  8
MSL-90-R25-S-0
370
     0
100
AcDbCircle
 10
-2.516622210005792
 20
350.1154639470148
 30
0.0
 40
4.25
  0
CIRCLE
  5
1FED
330
18
100
AcDbEntity
  8
MSL-90-R25-S-0
370
     0
100
AcDbCircle
 10
-2.516622210005778
 20
350.1154639470148
 30
0.0
 40
5.0
  0
LINE
  5
1FEE
330
18
100
AcDbEntity
  8
MSL-90-R25-S-0
370
     0
100
AcDbLine
 10
-3.671322748385037
 20
348.1154639470148
 30
0.0
 11
-4.826023286764282
 21
350.1154639470148
 31
0.0
  0
LINE
  5
1FEF
330
18
100
AcDbEntity
  8
MSL-90-R25-S-0
370
     0
100
AcDbLine
 10
-0.2072211332472875
 20
350.1154639470148
 30
0.0
 11
-1.361921671626532
 21
348.1154639470148
 31
0.0
  0
LINE
  5
1FF0
330
18
100
AcDbEntity
  8
MSL-90-R25-S-0
370
     0
100
AcDbLine
 10
-1.361921671626532
 20
348.1154639470148
 30
0.0
 11
-3.671322748385037
 21
348.1154639470148
 31
0.0
  0
LINE
  5
1FF1
330
18
100
AcDbEntity
  8
MSL-90-R25-S-0
370
     0
100
AcDbLine
 10
-3.671322748385037
 20
352.1154639470148
 30
0.0
 11
-1.361921671626532
 21
352.1154639470148
 31
0.0
  0
CIRCLE
  5
1FF2
330
18
100
AcDbEntity
  8
MSL-90-R25-S-0
370
     0
100
AcDbCircle
 10
-2.516622210005792
 20
382.1154639470149
 30
0.0
 40
4.25
  0
CIRCLE
  5
1FF3
330
18
100
AcDbEntity
  8
MSL-90-R25-S-0
370
     0
100
AcDbCircle
 10
-2.516622210005778
 20
382.1154639470149
 30
0.0
 40
5.0
  0
LINE
  5
1FF4
330
18
100
AcDbEntity
  8
MSL-90-R25-S-0
370
     0
100
AcDbLine
 10
-4.826023286764296
 20
382.1154639470149
 30
0.0
 11
-3.671322748385037
 21
384.1154639470149
 31
0.0
  0
LINE
  5
1FF5
330
18
100
AcDbEntity
  8
MSL-90-R25-S-0
370
     0
100
AcDbLine
 10
-3.671322748385037
 20
380.1154639470149
 30
0.0
 11
-4.826023286764296
 21
382.1154639470149
 31
0.0
  0
LINE
  5
1FF6
330
18
100
AcDbEntity
  8
MSL-90-R25-S-0
370
     0
100
AcDbLine
 10
-0.2072211332472875
 20
382.1154639470149
 30
0.0
 11
-1.361921671626546
 21
380.1154639470149
 31
0.0
  0
LINE
  5
1FF7
330
18
100
AcDbEntity
  8
MSL-90-R25-S-0
370
     0
100
AcDbLine
 10
-1.361921671626532
 20
384.1154639470149
 30
0.0
 11
-0.2072211332472733
 21
382.1154639470149
 31
0.0
  0
LINE
  5
1FF8
330
18
100
AcDbEntity
  8
MSL-90-R25-S-0
370
     0
100
AcDbLine
 10
-1.361921671626532
 20
380.1154639470149
 30
0.0
 11
-3.671322748385037
 21
380.1154639470149
 31
0.0
  0
LINE
  5
1FF9
330
18
100
AcDbEntity
  8
MSL-90-R25-S-0
370
     0
100
AcDbLine
 10
-3.671322748385037
 20
384.1154639470149
 30
0.0
 11
-1.361921671626532
 21
384.1154639470149
 31
0.0
  0
LINE
  5
1FFA
330
18
100
AcDbEntity
  8
MSL-90-R25-S-0
370
     0
100
AcDbLine
 10
-10.01662221000578
 20
411.1154639470148
 30
0.0
 11
4.983377789994221
 21
411.1154639470148
 31
0.0
  0
LINE
  5
1FFB
330
18
100
AcDbEntity
  8
MSL-90-R25-S-0
370
     0
100
AcDbLine
 10
4.983377789994207
 20
409.1154639470148
 30
0.0
 11
-10.01662221000579
 21
409.1154639470148
 31
0.0
  0
LINE
  5
1FFC
330
18
100
AcDbEntity
  8
MSL-90-R25-S-0
370
     0
100
AcDbLine
 10
-10.01662221000578
 20
409.1154639470148
 30
0.0
 11
-10.01662221000578
 21
411.1154639470148
 31
0.0
  0
LINE
  5
1FFD
330
18
100
AcDbEntity
  8
MSL-90-R25-S-0
370
     0
100
AcDbLine
 10
4.983377789994207
 20
411.1154639470148
 30
0.0
 11
4.983377789994207
 21
409.1154639470148
 31
0.0
  0
ARC
  5
1FFE
330
18
100
AcDbEntity
  8
MSL-90-R25-S-0
370
     0
100
AcDbCircle
 10
4.983377789994207
 20
372.1673756848677
 30
0.0
 40
24.44808826214714
100
AcDbArc
 50
58.27690417402412
 51
90.0
  0
ARC
  5
1FFF
330
18
100
AcDbEntity
  8
MSL-90-R25-S-0
370
     0
100
AcDbCircle
 10
4.983377789994207
 20
406.0635522091619
 30
0.0
 40
24.44808826214714
100
AcDbArc
 50
270.0
 51
301.7230958259759
  0
ARC
  5
2000
330
18
100
AcDbEntity
  8
MSL-90-R25-S-0
370
     0
100
AcDbCircle
 10
15.46017047224286
 20
389.1154639470149
 30
0.0
 40
4.52320731775133
100
AcDbArc
 50
301.723095825976
 51
58.27690417402396
  0
ARC
  5
2001
330
18
100
AcDbEntity
  8
MSL-90-R25-S-0
370
     0
100
AcDbCircle
 10
4.983377789994207
 20
360.0635522091619
 30
0.0
 40
24.44808826214714
100
AcDbArc
 50
270.0
 51
301.7230958259759
  0
ARC
  5
2002
330
18
100
AcDbEntity
  8
MSL-90-R25-S-0
370
     0
100
AcDbCircle
 10
4.983377789994207
 20
326.1673756848677
 30
0.0
 40
24.44808826214714
100
AcDbArc
 50
58.27690417402412
 51
90.0
  0
ARC
  5
2003
330
18
100
AcDbEntity
  8
MSL-90-R25-S-0
370
     0
100
AcDbCircle
 10
15.46017047224286
 20
343.1154639470148
 30
0.0
 40
4.523207317751332
100
AcDbArc
 50
301.723095825976
 51
58.27690417402396
  0
LINE
  5
2004
330
18
100
AcDbEntity
  8
MSL-90-R25-S-0
370
     0
100
AcDbLine
 10
305.9833777899943
 20
323.1154639470148
 30
0.0
 11
305.9833777899943
 21
409.1154639470148
 31
0.0
  0
CIRCLE
  5
2005
330
18
100
AcDbEntity
  8
MSL-90-R25-S-0
370
     0
100
AcDbCircle
 10
313.4833777899943
 20
350.1154639470148
 30
0.0
 40
5.0
  0
CIRCLE
  5
2006
330
18
100
AcDbEntity
  8
MSL-90-R25-S-0
370
     0
100
AcDbCircle
 10
313.4833777899943
 20
350.1154639470148
 30
0.0
 40
4.25
  0
LINE
  5
2007
330
18
100
AcDbEntity
  8
MSL-90-R25-S-0
370
     0
100
AcDbLine
 10
320.9833777899943
 20
323.1154639470148
 30
0.0
 11
320.9833777899943
 21
409.1154639470148
 31
0.0
  0
LINE
  5
2008
330
18
100
AcDbEntity
  8
MSL-90-R25-S-0
370
     0
100
AcDbLine
 10
320.9833777899943
 20
323.1154639470148
 30
0.0
 11
305.9833777899943
 21
323.1154639470148
 31
0.0
  0
LINE
  5
2009
330
18
100
AcDbEntity
  8
MSL-90-R25-S-0
370
     0
100
AcDbLine
 10
305.9833777899943
 20
321.1154639470148
 30
0.0
 11
320.9833777899943
 21
321.1154639470148
 31
0.0
  0
LINE
  5
200A
330
18
100
AcDbEntity
  8
MSL-90-R25-S-0
370
     0
100
AcDbLine
 10
320.9833777899943
 20
321.1154639470148
 30
0.0
 11
320.9833777899943
 21
323.1154639470148
 31
0.0
  0
LINE
  5
200B
330
18
100
AcDbEntity
  8
MSL-90-R25-S-0
370
     0
100
AcDbLine
 10
305.9833777899943
 20
323.1154639470148
 30
0.0
 11
305.9833777899943
 21
321.1154639470148
 31
0.0
  0
LINE
  5
200C
330
18
100
AcDbEntity
  8
MSL-90-R25-S-0
370
     0
100
AcDbLine
 10
314.6380783283735
 20
352.1154639470148
 30
0.0
 11
312.328677251615
 21
352.1154639470148
 31
0.0
  0
LINE
  5
200D
330
18
100
AcDbEntity
  8
MSL-90-R25-S-0
370
     0
100
AcDbLine
 10
312.328677251615
 20
348.1154639470148
 30
0.0
 11
314.6380783283735
 21
348.1154639470148
 31
0.0
  0
LINE
  5
200E
330
18
100
AcDbEntity
  8
MSL-90-R25-S-0
370
     0
100
AcDbLine
 10
314.6380783283735
 20
348.1154639470148
 30
0.0
 11
315.7927788667528
 21
350.1154639470148
 31
0.0
  0
LINE
  5
200F
330
18
100
AcDbEntity
  8
MSL-90-R25-S-0
370
     0
100
AcDbLine
 10
315.7927788667528
 20
350.1154639470148
 30
0.0
 11
314.6380783283735
 21
352.1154639470148
 31
0.0
  0
LINE
  5
2010
330
18
100
AcDbEntity
  8
MSL-90-R25-S-0
370
     0
100
AcDbLine
 10
311.1739767132358
 20
350.1154639470148
 30
0.0
 11
312.328677251615
 21
348.1154639470148
 31
0.0
  0
LINE
  5
2011
330
18
100
AcDbEntity
  8
MSL-90-R25-S-0
370
     0
100
AcDbLine
 10
312.328677251615
 20
352.1154639470148
 30
0.0
 11
311.1739767132358
 21
350.1154639470148
 31
0.0
  0
LINE
  5
2012
330
18
100
AcDbEntity
  8
MSL-90-R25-S-0
370
     0
100
AcDbLine
 10
305.9833777899943
 20
409.1154639470148
 30
0.0
 11
320.9833777899943
 21
409.1154639470148
 31
0.0
  0
LINE
  5
2013
330
18
100
AcDbEntity
  8
MSL-90-R25-S-0
370
     0
100
AcDbLine
 10
320.9833777899943
 20
411.1154639470148
 30
0.0
 11
305.9833777899943
 21
411.1154639470148
 31
0.0
  0
LINE
  5
2014
330
18
100
AcDbEntity
  8
MSL-90-R25-S-0
370
     0
100
AcDbLine
 10
320.9833777899943
 20
409.1154639470148
 30
0.0
 11
320.9833777899943
 21
411.1154639470148
 31
0.0
  0
CIRCLE
  5
2015
330
18
100
AcDbEntity
  8
MSL-90-R25-S-0
370
     0
100
AcDbCircle
 10
313.4833777899943
 20
382.1154639470149
 30
0.0
 40
5.0
  0
LINE
  5
2016
330
18
100
AcDbEntity
  8
MSL-90-R25-S-0
370
     0
100
AcDbLine
 10
314.6380783283735
 20
384.1154639470149
 30
0.0
 11
312.328677251615
 21
384.1154639470149
 31
0.0
  0
LINE
  5
2017
330
18
100
AcDbEntity
  8
MSL-90-R25-S-0
370
     0
100
AcDbLine
 10
312.328677251615
 20
380.1154639470149
 30
0.0
 11
314.6380783283735
 21
380.1154639470149
 31
0.0
  0
CIRCLE
  5
2018
330
18
100
AcDbEntity
  8
MSL-90-R25-S-0
370
     0
100
AcDbCircle
 10
313.4833777899943
 20
382.1154639470149
 30
0.0
 40
4.25
  0
LINE
  5
2019
330
18
100
AcDbEntity
  8
MSL-90-R25-S-0
370
     0
100
AcDbLine
 10
314.6380783283735
 20
380.1154639470149
 30
0.0
 11
315.7927788667528
 21
382.1154639470149
 31
0.0
  0
LINE
  5
201A
330
18
100
AcDbEntity
  8
MSL-90-R25-S-0
370
     0
100
AcDbLine
 10
315.7927788667528
 20
382.1154639470149
 30
0.0
 11
314.6380783283735
 21
384.1154639470149
 31
0.0
  0
LINE
  5
201B
330
18
100
AcDbEntity
  8
MSL-90-R25-S-0
370
     0
100
AcDbLine
 10
312.328677251615
 20
384.1154639470149
 30
0.0
 11
311.1739767132358
 21
382.1154639470149
 31
0.0
  0
LINE
  5
201C
330
18
100
AcDbEntity
  8
MSL-90-R25-S-0
370
     0
100
AcDbLine
 10
311.1739767132358
 20
382.1154639470149
 30
0.0
 11
312.328677251615
 21
380.1154639470149
 31
0.0
  0
LINE
  5
201D
330
18
100
AcDbEntity
  8
MSL-90-R25-S-0
370
     0
100
AcDbLine
 10
305.9833777899943
 20
411.1154639470148
 30
0.0
 11
305.9833777899943
 21
409.1154639470148
 31
0.0
  0
ARC
  5
201E
330
18
100
AcDbEntity
  8
MSL-90-R25-S-0
370
     0
100
AcDbCircle
 10
305.9833777899943
 20
406.0635522091619
 30
0.0
 40
24.44808826214714
100
AcDbArc
 50
238.2769041740241
 51
270.0
  0
ARC
  5
201F
330
18
100
AcDbEntity
  8
MSL-90-R25-S-0
370
     0
100
AcDbCircle
 10
305.9833777899943
 20
326.1673756848677
 30
0.0
 40
24.44808826214714
100
AcDbArc
 50
90.0
 51
121.7230958259758
  0
ARC
  5
2020
330
18
100
AcDbEntity
  8
MSL-90-R25-S-0
370
     0
100
AcDbCircle
 10
305.9833777899943
 20
360.0635522091619
 30
0.0
 40
24.44808826214714
100
AcDbArc
 50
238.2769041740242
 51
270.0
  0
ARC
  5
2021
330
18
100
AcDbEntity
  8
MSL-90-R25-S-0
370
     0
100
AcDbCircle
 10
295.5065851077456
 20
343.1154639470148
 30
0.0
 40
4.523207317751332
100
AcDbArc
 50
121.723095825976
 51
238.276904174024
  0
ARC
  5
2022
330
18
100
AcDbEntity
  8
MSL-90-R25-S-0
370
     0
100
AcDbCircle
 10
305.9833777899943
 20
372.1673756848677
 30
0.0
 40
24.44808826214714
100
AcDbArc
 50
90.0
 51
121.7230958259758
  0
ARC
  5
2023
330
18
100
AcDbEntity
  8
MSL-90-R25-S-0
370
     0
100
AcDbCircle
 10
295.5065851077456
 20
389.1154639470149
 30
0.0
 40
4.52320731775133
100
AcDbArc
 50
121.723095825976
 51
238.276904174024
  0
LINE
  5
2051
330
18
100
AcDbEntity
  8
MSL-90-R25-S-0
100
AcDbLine
 10
20.48337778999422
 20
325.1156396619853
 30
0.0
 11
22.48337778999427
 21
325.1156396619852
 31
0.0
  0
LINE
  5
2052
330
18
100
AcDbEntity
  8
MSL-90-R25-S-0
100
AcDbLine
 10
22.48337778999427
 20
325.9054968470148
 30
0.0
 11
20.48337778999422
 21
325.9054968470148
 31
0.0
  0
LINE
  5
2053
330
18
100
AcDbEntity
  8
MSL-90-R25-S-0
100
AcDbLine
 10
22.48337778999426
 20
337.115063522282
 30
0.0
 11
20.48337778999422
 21
337.115063522282
 31
0.0
  0
LINE
  5
2054
330
18
100
AcDbEntity
  8
MSL-90-R25-S-0
100
AcDbLine
 10
20.48337778999422
 20
336.3252063372524
 30
0.0
 11
22.48337778999426
 21
336.3252063372524
 31
0.0
  0
LINE
  5
2055
330
18
100
AcDbEntity
  8
MSL-90-R25-S-0
100
AcDbLine
 10
22.48337778999419
 20
395.9021797425423
 30
0.0
 11
20.48337778999422
 21
395.9021797425423
 31
0.0
  0
LINE
  5
2056
330
18
100
AcDbEntity
  8
MSL-90-R25-S-0
100
AcDbLine
 10
20.48337778999422
 20
395.1123225575128
 30
0.0
 11
22.48337778999419
 21
395.1123225575128
 31
0.0
  0
LINE
  5
2057
330
18
100
AcDbEntity
  8
MSL-90-R25-S-0
100
AcDbLine
 10
22.48337778999418
 20
407.1152107896176
 30
0.0
 11
20.48337778999422
 21
407.1152107896176
 31
0.0
  0
LINE
  5
2058
330
18
100
AcDbEntity
  8
MSL-90-R25-S-0
100
AcDbLine
 10
20.48337778999422
 20
406.3253536045881
 30
0.0
 11
22.48337778999418
 21
406.3253536045881
 31
0.0
  0
LINE
  5
205D
330
18
100
AcDbEntity
  8
MSL-90-R25-S-7A
100
AcDbLine
 10
18.48337778999422
 20
401.1156499796184
 30
0.0
 11
24.98337778999417
 21
401.1156499796184
 31
0.0
  0
LINE
  5
205E
330
18
100
AcDbEntity
  8
MSL-90-R25-S-7A
100
AcDbLine
 10
18.48337778999422
 20
331.1152779144112
 30
0.0
 11
24.98337778999426
 21
331.1152779144112
 31
0.0
  0
LINE
  5
20C9
330
18
100
AcDbEntity
  8
MSL-90-R25-S-7A
100
AcDbLine
 10
403.904856192491
 20
466.0684734038921
 30
0.0
 11
403.904856192491
 21
452.6637903231236
 31
0.0
  0
LINE
  5
20CA
330
18
100
AcDbEntity
  8
MSL-90-R25-S-7A
100
AcDbLine
 10
470.9048561225535
 20
466.0684734038921
 30
0.0
 11
470.9048561225535
 21
452.6637903231235
 31
0.0
  0
LINE
  5
20DB
330
18
100
AcDbEntity
  8
MSL-90-R25-S-7A
 48
2.0
100
AcDbLine
 10
467.4048561575459
 20
543.3042875474846
 30
0.0
 11
467.4048561575459
 21
532.2887422235586
 31
0.0
  0
LINE
  5
20DC
330
18
100
AcDbEntity
  8
MSL-90-R25-S-0
 48
2.0
100
AcDbLine
 10
471.9048561575457
 20
541.9771685474845
 30
0.0
 11
462.9048561575458
 21
541.9771685474846
 31
0.0
  0
LINE
  5
20DD
330
18
100
AcDbEntity
  8
MSL-90-R25-S-0
 48
2.0
100
AcDbLine
 10
462.4048561575458
 20
541.4771685474846
 30
0.0
 11
472.4048561575457
 21
541.4771685474845
 31
0.0
  0
LINE
  5
20DE
330
18
100
AcDbEntity
  8
MSL-90-R25-S-0
 48
2.0
100
AcDbLine
 10
462.4048561575458
 20
541.4771685474846
 30
0.0
 11
462.4048561575458
 21
539.9771685474846
 31
0.0
  0
LINE
  5
20DF
330
18
100
AcDbEntity
  8
MSL-90-R25-S-0
 48
2.0
100
AcDbLine
 10
462.9048561575458
 20
541.9771685474846
 30
0.0
 11
462.4048561575458
 21
541.4771685474846
 31
0.0
  0
LINE
  5
20E0
330
18
100
AcDbEntity
  8
MSL-90-R25-S-0
 48
2.0
100
AcDbLine
 10
472.4048561575457
 20
539.9771685474846
 30
0.0
 11
472.4048561575457
 21
541.4771685474845
 31
0.0
  0
LINE
  5
20E1
330
18
100
AcDbEntity
  8
MSL-90-R25-S-0
 48
2.0
100
AcDbLine
 10
472.4048561575457
 20
541.4771685474845
 30
0.0
 11
471.9048561575457
 21
541.9771685474845
 31
0.0
  0
LINE
  5
20E3
330
18
100
AcDbEntity
  8
MSL-90-R25-S-0
 48
2.0
100
AcDbLine
 10
132.983377789994
 20
541.9771685474845
 30
0.0
 11
123.9833777899941
 21
541.9771685474846
 31
0.0
  0
LINE
  5
20E4
330
18
100
AcDbEntity
  8
MSL-90-R25-S-0
 48
2.0
100
AcDbLine
 10
122.9833777899941
 20
541.4771685474846
 30
0.0
 11
132.983377789994
 21
541.4771685474845
 31
0.0
  0
LINE
  5
20E5
330
18
100
AcDbEntity
  8
MSL-90-R25-S-0
 48
2.0
100
AcDbLine
 10
123.9833777899941
 20
541.9771685474846
 30
0.0
 11
123.4833777899941
 21
541.4771685474846
 31
0.0
  0
LINE
  5
20E6
330
18
100
AcDbEntity
  8
MSL-90-R25-S-0
 48
2.0
100
AcDbLine
 10
122.9833777899941
 20
541.4771685474846
 30
0.0
 11
122.9833777899941
 21
539.9771685474846
 31
0.0
  0
LINE
  5
20E7
330
18
100
AcDbEntity
  8
MSL-90-R25-S-0
 48
2.0
100
AcDbLine
 10
133.483377789994
 20
541.4771685474845
 30
0.0
 11
132.983377789994
 21
541.9771685474845
 31
0.0
  0
LINE
  5
20E8
330
18
100
AcDbEntity
  8
MSL-90-R25-S-0
 48
2.0
100
AcDbLine
 10
132.983377789994
 20
539.9771685474846
 30
0.0
 11
132.983377789994
 21
541.4771685474845
 31
0.0
  0
LINE
  5
20E9
330
18
100
AcDbEntity
  8
MSL-90-R25-S-7A
 48
2.0
100
AcDbLine
 10
127.9833777899941
 20
543.3042875474846
 30
0.0
 11
127.9833777899941
 21
514.2769435474845
 31
0.0
  0
LINE
  5
20EA
330
18
100
AcDbEntity
  8
MSL-90-R25-S-7A
 48
2.0
100
AcDbLine
 10
127.9833777899941
 20
543.3042875474846
 30
0.0
 11
127.9833777899941
 21
520.3989305474848
 31
0.0
  0
ENDSEC
  0
SECTION
  2
OBJECTS
  0
DICTIONARY
  5
C
330
0
100
AcDbDictionary
281
     1
  3
ACAD_COLOR
350
2165
  3
ACAD_GROUP
350
D
  3
ACAD_LAYOUT
350
217D
  3
ACAD_MATERIAL
350
213B
  3
ACAD_MLEADERSTYLE
350
217A
  3
ACAD_MLINESTYLE
350
E
  3
ACAD_PLOTSETTINGS
350
217E
  3
ACAD_PLOTSTYLENAME
350
2139
  3
ACAD_SCALELIST
350
2168
  3
ACAD_TABLESTYLE
350
2166
  3
ACAD_VISUALSTYLE
350
2154
  3
ACDB_RECOMPOSE_DATA
350
2241
  3
AcDbVariableDictionary
350
2238
  3
AcmDictionary
350
21DF
  3
AcmSystemVariableManager
350
224F
  3
AMG
350
2184
  3
AMGSNAPSETTINGS
350
2231
  3
DWGPROPS
350
2242
  0
DICTIONARY
  5
2223
330
F
100
AcDbDictionary
280
     1
281
     1
  3
ADSK_XREC_LAYER_RECONCILED
360
2224
  0
DICTIONARY
  5
2225
330
55B
100
AcDbDictionary
280
     1
281
     1
  3
ADSK_XREC_LAYER_RECONCILED
360
2226
  0
DICTIONARY
  5
2227
330
55C
100
AcDbDictionary
280
     1
281
     1
  3
ADSK_XREC_LAYER_RECONCILED
360
2228
  0
DICTIONARY
  5
2229
330
55D
100
AcDbDictionary
280
     1
281
     1
  3
ADSK_XREC_LAYER_RECONCILED
360
222A
  0
DICTIONARY
  5
222B
330
55E
100
AcDbDictionary
280
     1
281
     1
  3
ADSK_XREC_LAYER_RECONCILED
360
222C
  0
DICTIONARY
  5
222D
330
1563
100
AcDbDictionary
280
     1
281
     1
  3
ADSK_XREC_LAYER_RECONCILED
360
222E
  0
DICTIONARY
  5
222F
330
212F
100
AcDbDictionary
280
     1
281
     1
  3
ADSK_XREC_LAYER_RECONCILED
360
2230
  0
DICTIONARY
  5
2165
102
{ACAD_REACTORS
330
C
102
}
330
C
100
AcDbDictionary
281
     1
  0
DICTIONARY
  5
D
102
{ACAD_REACTORS
330
C
102
}
330
C
100
AcDbDictionary
281
     1
  0
DICTIONARY
  5
217D
102
{ACAD_REACTORS
330
C
102
}
330
C
100
AcDbDictionary
281
     1
  3
Layout1
350
2180
  3
Model
350
217F
  0
DICTIONARY
  5
213B
102
{ACAD_REACTORS
330
C
102
}
330
C
100
AcDbDictionary
281
     1
  3
ByBlock
350
2144
  3
ByLayer
350
213C
  3
Global
350
214C
  0
DICTIONARY
  5
217A
102
{ACAD_REACTORS
330
C
102
}
330
C
100
AcDbDictionary
281
     1
  3
Standard
350
217B
  0
DICTIONARY
  5
E
102
{ACAD_REACTORS
330
C
102
}
330
C
100
AcDbDictionary
281
     1
  3
STANDARD
350
1B
  0
DICTIONARY
  5
217E
102
{ACAD_REACTORS
330
C
102
}
330
C
100
AcDbDictionary
281
     1
  0
ACDBDICTIONARYWDFLT
  5
2139
102
{ACAD_REACTORS
330
C
102
}
330
C
100
AcDbDictionary
281
     1
  3
Normal
350
213A
100
AcDbDictionaryWithDefault
340
213A
  0
DICTIONARY
  5
2168
102
{ACAD_REACTORS
330
C
102
}
330
C
100
AcDbDictionary
281
     1
  3
A0
350
2169
  3
A1
350
216A
  3
A2
350
216B
  3
A3
350
216C
  3
A4
350
216D
  3
A5
350
216E
  3
A6
350
216F
  3
A7
350
2170
  3
A8
350
2171
  3
A9
350
2172
  3
B0
350
2173
  3
B1
350
2174
  3
B2
350
2175
  3
B3
350
2176
  3
B4
350
2177
  3
B5
350
2178
  3
B6
350
2179
  0
DICTIONARY
  5
2166
102
{ACAD_REACTORS
330
C
102
}
330
C
100
AcDbDictionary
281
     1
  3
Standard
350
2167
  0
DICTIONARY
  5
2154
102
{ACAD_REACTORS
330
C
102
}
330
C
100
AcDbDictionary
281
     1
  3
2dWireframe
350
215A
  3
3D Hidden
350
215C
  3
3dWireframe
350
215B
  3
Basic
350
2159
  3
Brighten
350
2160
  3
ColorChange
350
2164
  3
Conceptual
350
215D
  3
Dim
350
215F
  3
Facepattern
350
2163
  3
Flat
350
2155
  3
FlatWithEdges
350
2156
  3
Gouraud
350
2157
  3
GouraudWithEdges
350
2158
  3
Linepattern
350
2162
  3
Realistic
350
215E
  3
Thicken
350
2161
  0
XRECORD
  5
2241
102
{ACAD_REACTORS
330
C
102
}
330
C
100
AcDbXrecord
280
     1
 90
        1
330
2167
  0
DICTIONARY
  5
2238
102
{ACAD_REACTORS
330
C
102
}
330
C
100
AcDbDictionary
281
     1
  3
CANNOSCALE
350
223B
  3
CMLEADERSTYLE
350
223A
  3
CTABLESTYLE
350
2239
  3
DIMASSOC
350
223E
  3
INDEXCTL
350
223D
  3
SORTENTS
350
223C
  0
DICTIONARY
  5
21DF
102
{ACAD_REACTORS
330
C
102
}
330
C
100
AcDbDictionary
281
     1
  3
AcmStdDictionary
350
21EA
  0
DICTIONARY
  5
2184
102
{ACAD_REACTORS
330
C
102
}
330
C
100
AcDbDictionary
281
     1
  0
DICTIONARY
  5
2231
102
{ACAD_REACTORS
330
C
102
}
330
C
100
AcDbDictionary
281
     1
  0
XRECORD
  5
2242
102
{ACAD_REACTORS
330
C
102
}
330
C
100
AcDbXrecord
280
     1
  1
DWGPROPS COOKIE
  2

  3

  4

  6

  7

  8
bauer_sven
  9

300
=
301
=
302
=
303
=
304
=
305
=
306
=
307
=
308
=
309
=
 40
0.1198071296296296
 41
2452399.835423032
 42
2456219.387322211
  1

 90
        0
  0
XRECORD
  5
2224
102
{ACAD_REACTORS
330
2223
102
}
330
2223
100
AcDbXrecord
280
     1
290
     1
  0
XRECORD
  5
2226
102
{ACAD_REACTORS
330
2225
102
}
330
2225
100
AcDbXrecord
280
     1
290
     1
  0
XRECORD
  5
2228
102
{ACAD_REACTORS
330
2227
102
}
330
2227
100
AcDbXrecord
280
     1
290
     1
  0
XRECORD
  5
222A
102
{ACAD_REACTORS
330
2229
102
}
330
2229
100
AcDbXrecord
280
     1
290
     1
  0
XRECORD
  5
222C
102
{ACAD_REACTORS
330
222B
102
}
330
222B
100
AcDbXrecord
280
     1
290
     1
  0
XRECORD
  5
222E
102
{ACAD_REACTORS
330
222D
102
}
330
222D
100
AcDbXrecord
280
     1
290
     1
  0
XRECORD
  5
2230
102
{ACAD_REACTORS
330
222F
102
}
330
222F
100
AcDbXrecord
280
     1
290
     1
  0
LAYOUT
  5
2180
102
{ACAD_XDICTIONARY
360
2249
102
}
102
{ACAD_REACTORS
330
217D
102
}
330
217D
100
AcDbPlotSettings
  1

  2
iR 2570CN-010
  4

  6

 40
0.0
 41
0.0
 42
0.0
 43
0.0
 44
0.0
 45
0.0
 46
0.0
 47
0.0
 48
0.0
 49
0.0
140
0.0
141
0.0
142
1.0
143
1.0
 70
   688
 72
     0
 73
     0
 74
     5
  7

 75
    16
147
1.0
148
0.0
149
0.0
100
AcDbLayout
  1
Layout1
 70
     1
 71
     1
 10
0.0
 20
0.0
 11
420.0
 21
297.0
 12
0.0
 22
0.0
 32
0.0
 14
1.000000000000000E+20
 24
1.000000000000000E+20
 34
1.000000000000000E+20
 15
-1.000000000000000E+20
 25
-1.000000000000000E+20
 35
-1.000000000000000E+20
146
0.0
 13
0.0
 23
0.0
 33
0.0
 16
1.0
 26
0.0
 36
0.0
 17
0.0
 27
1.0
 37
0.0
 76
     0
330
15
  0
LAYOUT
  5
217F
102
{ACAD_XDICTIONARY
360
2247
102
}
102
{ACAD_REACTORS
330
217D
102
}
330
217D
100
AcDbPlotSettings
  1

  2
iR 2570CN-010
  4

  6

 40
0.0
 41
0.0
 42
0.0
 43
0.0
 44
0.0
 45
0.0
 46
0.0
 47
0.0
 48
0.0
 49
0.0
140
0.0
141
0.0
142
1.0
143
1.0
 70
  1712
 72
     0
 73
     0
 74
     0
  7

 75
     0
147
1.0
148
0.0
149
0.0
100
AcDbLayout
  1
Model
 70
     1
 71
     0
 10
0.0
 20
0.0
 11
12.0
 21
9.0
 12
0.0
 22
0.0
 32
0.0
 14
0.0
 24
0.0
 34
0.0
 15
0.0
 25
0.0
 35
0.0
146
0.0
 13
0.0
 23
0.0
 33
0.0
 16
1.0
 26
0.0
 36
0.0
 17
0.0
 27
1.0
 37
0.0
 76
     0
330
18
331
2137
  0
MATERIAL
  5
2144
102
{ACAD_XDICTIONARY
360
2145
102
}
102
{ACAD_REACTORS
330
213B
102
}
330
213B
100
AcDbMaterial
  1
ByBlock
 72
     0
 43
0.0208333333333333
 43
0.0
 43
0.0
 43
0.0
 43
0.0
 43
0.0208333333333333
 43
0.0
 43
0.0
 43
0.0
 43
0.0
 43
1.0
 43
0.0
 43
0.0
 43
0.0
 43
0.0
 43
1.0
 77
     0
 47
0.0208333333333333
 47
0.0
 47
0.0
 47
0.0
 47
0.0
 47
0.0208333333333333
 47
0.0
 47
0.0
 47
0.0
 47
0.0
 47
1.0
 47
0.0
 47
0.0
 47
0.0
 47
0.0
 47
1.0
171
     0
 49
0.0208333333333333
 49
0.0
 49
0.0
 49
0.0
 49
0.0
 49
0.0208333333333333
 49
0.0
 49
0.0
 49
0.0
 49
0.0
 49
1.0
 49
0.0
 49
0.0
 49
0.0
 49
0.0
 49
1.0
175
     0
142
0.0208333333333333
142
0.0
142
0.0
142
0.0
142
0.0
142
0.0208333333333333
142
0.0
142
0.0
142
0.0
142
0.0
142
1.0
142
0.0
142
0.0
142
0.0
142
0.0
142
1.0
179
     0
144
0.0208333333333333
144
0.0
144
0.0
144
0.0
144
0.0
144
0.0208333333333333
144
0.0
144
0.0
144
0.0
144
0.0
144
1.0
144
0.0
144
0.0
144
0.0
144
0.0
144
1.0
147
0.0208333333333333
147
0.0
147
0.0
147
0.0
147
0.0
147
0.0208333333333333
147
0.0
147
0.0
147
0.0
147
0.0
147
1.0
147
0.0
147
0.0
147
0.0
147
0.0
147
1.0
  0
MATERIAL
  5
213C
102
{ACAD_XDICTIONARY
360
213D
102
}
102
{ACAD_REACTORS
330
213B
102
}
330
213B
100
AcDbMaterial
  1
ByLayer
 72
     0
 43
0.0208333333333333
 43
0.0
 43
0.0
 43
0.0
 43
0.0
 43
0.0208333333333333
 43
0.0
 43
0.0
 43
0.0
 43
0.0
 43
1.0
 43
0.0
 43
0.0
 43
0.0
 43
0.0
 43
1.0
 77
     0
 47
0.0208333333333333
 47
0.0
 47
0.0
 47
0.0
 47
0.0
 47
0.0208333333333333
 47
0.0
 47
0.0
 47
0.0
 47
0.0
 47
1.0
 47
0.0
 47
0.0
 47
0.0
 47
0.0
 47
1.0
171
     0
 49
0.0208333333333333
 49
0.0
 49
0.0
 49
0.0
 49
0.0
 49
0.0208333333333333
 49
0.0
 49
0.0
 49
0.0
 49
0.0
 49
1.0
 49
0.0
 49
0.0
 49
0.0
 49
0.0
 49
1.0
175
     0
142
0.0208333333333333
142
0.0
142
0.0
142
0.0
142
0.0
142
0.0208333333333333
142
0.0
142
0.0
142
0.0
142
0.0
142
1.0
142
0.0
142
0.0
142
0.0
142
0.0
142
1.0
179
     0
144
0.0208333333333333
144
0.0
144
0.0
144
0.0
144
0.0
144
0.0208333333333333
144
0.0
144
0.0
144
0.0
144
0.0
144
1.0
144
0.0
144
0.0
144
0.0
144
0.0
144
1.0
147
0.0208333333333333
147
0.0
147
0.0
147
0.0
147
0.0
147
0.0208333333333333
147
0.0
147
0.0
147
0.0
147
0.0
147
1.0
147
0.0
147
0.0
147
0.0
147
0.0
147
1.0
  0
MATERIAL
  5
214C
102
{ACAD_XDICTIONARY
360
214D
102
}
102
{ACAD_REACTORS
330
213B
102
}
330
213B
100
AcDbMaterial
  1
Global
 72
     0
 43
0.0208333333333333
 43
0.0
 43
0.0
 43
0.0
 43
0.0
 43
0.0208333333333333
 43
0.0
 43
0.0
 43
0.0
 43
0.0
 43
1.0
 43
0.0
 43
0.0
 43
0.0
 43
0.0
 43
1.0
 77
     0
 47
0.0208333333333333
 47
0.0
 47
0.0
 47
0.0
 47
0.0
 47
0.0208333333333333
 47
0.0
 47
0.0
 47
0.0
 47
0.0
 47
1.0
 47
0.0
 47
0.0
 47
0.0
 47
0.0
 47
1.0
171
     0
 49
0.0208333333333333
 49
0.0
 49
0.0
 49
0.0
 49
0.0
 49
0.0208333333333333
 49
0.0
 49
0.0
 49
0.0
 49
0.0
 49
1.0
 49
0.0
 49
0.0
 49
0.0
 49
0.0
 49
1.0
175
     0
142
0.0208333333333333
142
0.0
142
0.0
142
0.0
142
0.0
142
0.0208333333333333
142
0.0
142
0.0
142
0.0
142
0.0
142
1.0
142
0.0
142
0.0
142
0.0
142
0.0
142
1.0
179
     0
144
0.0208333333333333
144
0.0
144
0.0
144
0.0
144
0.0
144
0.0208333333333333
144
0.0
144
0.0
144
0.0
144
0.0
144
1.0
144
0.0
144
0.0
144
0.0
144
0.0
144
1.0
147
0.0208333333333333
147
0.0
147
0.0
147
0.0
147
0.0
147
0.0208333333333333
147
0.0
147
0.0
147
0.0
147
0.0
147
1.0
147
0.0
147
0.0
147
0.0
147
0.0
147
1.0
  0
MLEADERSTYLE
  5
217B
102
{ACAD_REACTORS
330
217A
102
}
330
217A
100
AcDbMLeaderStyle
170
     2
171
     1
172
     0
 90
        2
 40
0.0
 41
0.0
173
     1
 91
-1056964608
340
12
 92
       -2
290
     1
 42
2.0
291
     1
 43
0.36
  3
Standard
 44
4.0
300

342
10
174
     1
178
     6
175
     1
176
     0
 93
-1056964608
 45
4.0
292
     0
297
     0
 46
4.0
 94
-1056964608
 47
1.0
 49
1.0
140
1.0
293
     1
141
0.0
294
     1
177
     0
142
1.0
295
     0
296
     0
143
0.125
1001
ACAD_MLEADERVER
1070
     2
  0
MLINESTYLE
  5
1B
102
{ACAD_REACTORS
330
E
102
}
330
E
100
AcDbMlineStyle
  2
STANDARD
 70
     0
  3

 62
     0
 51
90.0
 52
90.0
 71
     2
 49
0.5
 62
   256
  6
BYLAYER
 49
-0.5
 62
   256
  6
BYLAYER
  0
ACDBPLACEHOLDER
  5
213A
102
{ACAD_REACTORS
330
2139
102
}
330
2139
  0
SCALE
  5
2169
102
{ACAD_REACTORS
330
2168
102
}
330
2168
100
AcDbScale
 70
     0
300
1:1
140
1.0
141
1.0
290
     1
  0
SCALE
  5
216A
102
{ACAD_REACTORS
330
2168
102
}
330
2168
100
AcDbScale
 70
     0
300
1:2
140
1.0
141
2.0
290
     0
  0
SCALE
  5
216B
102
{ACAD_REACTORS
330
2168
102
}
330
2168
100
AcDbScale
 70
     0
300
1:4
140
1.0
141
4.0
290
     0
  0
SCALE
  5
216C
102
{ACAD_REACTORS
330
2168
102
}
330
2168
100
AcDbScale
 70
     0
300
1:5
140
1.0
141
5.0
290
     0
  0
SCALE
  5
216D
102
{ACAD_REACTORS
330
2168
102
}
330
2168
100
AcDbScale
 70
     0
300
1:8
140
1.0
141
8.0
290
     0
  0
SCALE
  5
216E
102
{ACAD_REACTORS
330
2168
102
}
330
2168
100
AcDbScale
 70
     0
300
1:10
140
1.0
141
10.0
290
     0
  0
SCALE
  5
216F
102
{ACAD_REACTORS
330
2168
102
}
330
2168
100
AcDbScale
 70
     0
300
1:16
140
1.0
141
16.0
290
     0
  0
SCALE
  5
2170
102
{ACAD_REACTORS
330
2168
102
}
330
2168
100
AcDbScale
 70
     0
300
1:20
140
1.0
141
20.0
290
     0
  0
SCALE
  5
2171
102
{ACAD_REACTORS
330
2168
102
}
330
2168
100
AcDbScale
 70
     0
300
1:30
140
1.0
141
30.0
290
     0
  0
SCALE
  5
2172
102
{ACAD_REACTORS
330
2168
102
}
330
2168
100
AcDbScale
 70
     0
300
1:40
140
1.0
141
40.0
290
     0
  0
SCALE
  5
2173
102
{ACAD_REACTORS
330
2168
102
}
330
2168
100
AcDbScale
 70
     0
300
1:50
140
1.0
141
50.0
290
     0
  0
SCALE
  5
2174
102
{ACAD_REACTORS
330
2168
102
}
330
2168
100
AcDbScale
 70
     0
300
1:100
140
1.0
141
100.0
290
     0
  0
SCALE
  5
2175
102
{ACAD_REACTORS
330
2168
102
}
330
2168
100
AcDbScale
 70
     0
300
2:1
140
2.0
141
1.0
290
     0
  0
SCALE
  5
2176
102
{ACAD_REACTORS
330
2168
102
}
330
2168
100
AcDbScale
 70
     0
300
4:1
140
4.0
141
1.0
290
     0
  0
SCALE
  5
2177
102
{ACAD_REACTORS
330
2168
102
}
330
2168
100
AcDbScale
 70
     0
300
8:1
140
8.0
141
1.0
290
     0
  0
SCALE
  5
2178
102
{ACAD_REACTORS
330
2168
102
}
330
2168
100
AcDbScale
 70
     0
300
10:1
140
10.0
141
1.0
290
     0
  0
SCALE
  5
2179
102
{ACAD_REACTORS
330
2168
102
}
330
2168
100
AcDbScale
 70
     0
300
100:1
140
100.0
141
1.0
290
     0
  0
TABLESTYLE
  5
2167
102
{ACAD_XDICTIONARY
360
223F
102
}
102
{ACAD_REACTORS
330
2166
102
}
330
2166
100
AcDbTableStyle
  3
Standard
 70
     0
 71
     0
 40
1.5
 41
1.5
280
     0
281
     0
  7
STANDARD
140
4.5
170
     2
 62
     0
 63
     7
283
     0
274
    -2
284
     1
 64
     0
275
    -2
285
     1
 65
     0
276
    -2
286
     1
 66
     0
277
    -2
287
     1
 67
     0
278
    -2
288
     1
 68
     0
279
    -2
289
     1
 69
     0
  7
STANDARD
140
6.0
170
     5
 62
     0
 63
     7
283
     0
274
    -2
284
     1
 64
     0
275
    -2
285
     1
 65
     0
276
    -2
286
     1
 66
     0
277
    -2
287
     1
 67
     0
278
    -2
288
     1
 68
     0
279
    -2
289
     1
 69
     0
  7
STANDARD
140
4.5
170
     5
 62
     0
 63
     7
283
     0
274
    -2
284
     1
 64
     0
275
    -2
285
     1
 65
     0
276
    -2
286
     1
 66
     0
277
    -2
287
     1
 67
     0
278
    -2
288
     1
 68
     0
279
    -2
289
     1
 69
     0
  0
VISUALSTYLE
  5
215A
102
{ACAD_REACTORS
330
2154
102
}
330
2154
100
AcDbVisualStyle
  2
2dWireframe
 70
     4
 71
     0
 72
     2
 73
     0
 90
        0
 40
-0.6
 41
-30.0
 62
     5
 63
     7
 74
     1
 91
        4
 64
     7
 65
   257
 75
     1
175
     1
 42
1.0
 92
        0
 66
   257
 43
1.0
 76
     1
 77
     6
 78
     2
 67
     7
 79
     5
170
     0
171
     0
290
     0
174
     0
 93
        1
 44
0.0
173
     0
291
     0
 45
0.0
1001
ACAD
1000
AcDbSavedByObjectVersion
1070
     0
  0
VISUALSTYLE
  5
215C
102
{ACAD_REACTORS
330
2154
102
}
330
2154
100
AcDbVisualStyle
  2
3D Hidden
 70
     6
 71
     1
 72
     2
 73
     2
 90
        0
 40
-0.6
 41
-30.0
 62
     5
 63
     7
 74
     2
 91
        2
 64
     7
 65
   257
 75
     2
175
     1
 42
40.0
 92
        0
 66
   257
 43
1.0
 76
     1
 77
     6
 78
     2
 67
     7
 79
     3
170
     0
171
     0
290
     0
174
     0
 93
        1
 44
0.0
173
     0
291
     0
 45
0.0
1001
ACAD
1000
AcDbSavedByObjectVersion
1070
     0
  0
VISUALSTYLE
  5
215B
102
{ACAD_REACTORS
330
2154
102
}
330
2154
100
AcDbVisualStyle
  2
3dWireframe
 70
     5
 71
     0
 72
     2
 73
     0
 90
        0
 40
-0.6
 41
-30.0
 62
     5
 63
     7
 74
     1
 91
        4
 64
     7
 65
   257
 75
     1
175
     1
 42
1.0
 92
        0
 66
   257
 43
1.0
 76
     1
 77
     6
 78
     2
 67
     7
 79
     5
170
     0
171
     0
290
     0
174
     0
 93
        1
 44
0.0
173
     0
291
     0
 45
0.0
1001
ACAD
1000
AcDbSavedByObjectVersion
1070
     0
  0
VISUALSTYLE
  5
2159
102
{ACAD_REACTORS
330
2154
102
}
330
2154
100
AcDbVisualStyle
  2
Basic
 70
     7
 71
     1
 72
     0
 73
     1
 90
        0
 40
-0.6
 41
-30.0
 62
     5
 63
     7
 74
     0
 91
        4
 64
     7
 65
   257
 75
     1
175
     1
 42
1.0
 92
        8
 66
     7
 43
1.0
 76
     1
 77
     6
 78
     2
 67
     7
 79
     5
170
     0
171
     0
290
     0
174
     0
 93
        1
 44
0.0
173
     0
291
     1
 45
0.0
1001
ACAD
1000
AcDbSavedByObjectVersion
1070
     0
  0
VISUALSTYLE
  5
2160
102
{ACAD_REACTORS
330
2154
102
}
330
2154
100
AcDbVisualStyle
  2
Brighten
 70
    12
 71
     2
 72
     2
 73
     0
 90
        0
 40
-0.6
 41
-30.0
 62
     5
 63
     7
 74
     1
 91
        4
 64
     7
 65
   257
 75
     1
175
     1
 42
1.0
 92
        8
 66
     7
 43
1.0
 76
     1
 77
     6
 78
     2
 67
     7
 79
     5
170
     0
171
     0
290
     0
174
     0
 93
        1
 44
50.0
173
     0
291
     1
 45
0.0
1001
ACAD
1000
AcDbSavedByObjectVersion
1070
     0
  0
VISUALSTYLE
  5
2164
102
{ACAD_REACTORS
330
2154
102
}
330
2154
100
AcDbVisualStyle
  2
ColorChange
 70
    16
 71
     2
 72
     2
 73
     3
 90
        0
 40
-0.6
 41
-30.0
 62
     5
 63
     8
 74
     1
 91
        4
 64
     7
 65
   257
 75
     1
175
     1
 42
1.0
 92
        8
 66
     8
 43
1.0
 76
     1
 77
     6
 78
     2
 67
     7
 79
     5
170
     0
171
     0
290
     0
174
     0
 93
        1
 44
0.0
173
     0
291
     1
 45
0.0
1001
ACAD
1000
AcDbSavedByObjectVersion
1070
     0
  0
VISUALSTYLE
  5
215D
102
{ACAD_REACTORS
330
2154
102
}
330
2154
100
AcDbVisualStyle
  2
Conceptual
 70
     9
 71
     3
 72
     2
 73
     0
 90
        0
 40
-0.6
 41
-30.0
 62
     5
 63
     7
 74
     2
 91
        2
 64
     7
 65
   257
 75
     1
175
     1
 42
40.0
 92
        8
 66
     7
 43
1.0
 76
     1
 77
     6
 78
     2
 67
     7
 79
     3
170
     0
171
     0
290
     0
174
     0
 93
        1
 44
0.0
173
     0
291
     0
 45
0.0
1001
ACAD
1000
AcDbSavedByObjectVersion
1070
     0
  0
VISUALSTYLE
  5
215F
102
{ACAD_REACTORS
330
2154
102
}
330
2154
100
AcDbVisualStyle
  2
Dim
 70
    11
 71
     2
 72
     2
 73
     0
 90
        0
 40
-0.6
 41
-30.0
 62
     5
 63
     7
 74
     1
 91
        4
 64
     7
 65
   257
 75
     1
175
     1
 42
1.0
 92
        8
 66
     7
 43
1.0
 76
     1
 77
     6
 78
     2
 67
     7
 79
     5
170
     0
171
     0
290
     0
174
     0
 93
        1
 44
-50.0
173
     0
291
     1
 45
0.0
1001
ACAD
1000
AcDbSavedByObjectVersion
1070
     0
  0
VISUALSTYLE
  5
2163
102
{ACAD_REACTORS
330
2154
102
}
330
2154
100
AcDbVisualStyle
  2
Facepattern
 70
    15
 71
     2
 72
     2
 73
     0
 90
        0
 40
-0.6
 41
-30.0
 62
     5
 63
     7
 74
     1
 91
        4
 64
     7
 65
   257
 75
     1
175
     1
 42
1.0
 92
        8
 66
     7
 43
1.0
 76
     1
 77
     6
 78
     2
 67
     7
 79
     5
170
     0
171
     0
290
     0
174
     0
 93
        1
 44
0.0
173
     0
291
     1
 45
0.0
1001
ACAD
1000
AcDbSavedByObjectVersion
1070
     0
  0
VISUALSTYLE
  5
2155
102
{ACAD_REACTORS
330
2154
102
}
330
2154
100
AcDbVisualStyle
  2
Flat
 70
     0
 71
     2
 72
     1
 73
     1
 90
        2
 40
-0.6
 41
30.0
 62
     5
 63
     7
 74
     0
 91
        4
 64
     7
 65
   257
 75
     1
175
     1
 42
1.0
 92
        8
 66
     7
 43
1.0
 76
     1
 77
     6
 78
     2
 67
     7
 79
     5
170
     0
171
     0
290
     0
174
     0
 93
       13
 44
0.0
173
     0
291
     1
 45
0.0
1001
ACAD
1000
AcDbSavedByObjectVersion
1070
     0
  0
VISUALSTYLE
  5
2156
102
{ACAD_REACTORS
330
2154
102
}
330
2154
100
AcDbVisualStyle
  2
FlatWithEdges
 70
     1
 71
     2
 72
     1
 73
     1
 90
        2
 40
-0.6
 41
30.0
 62
     5
 63
     7
 74
     1
 91
        4
 64
     7
 65
   257
 75
     1
175
     1
 42
1.0
 92
        0
 66
   257
 43
1.0
 76
     1
 77
     6
 78
     2
 67
     7
 79
     5
170
     0
171
     0
290
     0
174
     0
 93
       13
 44
0.0
173
     0
291
     1
 45
0.0
1001
ACAD
1000
AcDbSavedByObjectVersion
1070
     0
  0
VISUALSTYLE
  5
2157
102
{ACAD_REACTORS
330
2154
102
}
330
2154
100
AcDbVisualStyle
  2
Gouraud
 70
     2
 71
     2
 72
     2
 73
     1
 90
        2
 40
-0.6
 41
30.0
 62
     5
 63
     7
 74
     0
 91
        4
 64
     7
 65
   257
 75
     1
175
     1
 42
1.0
 92
        0
 66
     7
 43
1.0
 76
     1
 77
     6
 78
     2
 67
     7
 79
     5
170
     0
171
     0
290
     0
174
     0
 93
       13
 44
0.0
173
     0
291
     1
 45
0.0
1001
ACAD
1000
AcDbSavedByObjectVersion
1070
     0
  0
VISUALSTYLE
  5
2158
102
{ACAD_REACTORS
330
2154
102
}
330
2154
100
AcDbVisualStyle
  2
GouraudWithEdges
 70
     3
 71
     2
 72
     2
 73
     1
 90
        2
 40
-0.6
 41
30.0
 62
     5
 63
     7
 74
     1
 91
        4
 64
     7
 65
   257
 75
     1
175
     1
 42
1.0
 92
        0
 66
   257
 43
1.0
 76
     1
 77
     6
 78
     2
 67
     7
 79
     5
170
     0
171
     0
290
     0
174
     0
 93
       13
 44
0.0
173
     0
291
     1
 45
0.0
1001
ACAD
1000
AcDbSavedByObjectVersion
1070
     0
  0
VISUALSTYLE
  5
2162
102
{ACAD_REACTORS
330
2154
102
}
330
2154
100
AcDbVisualStyle
  2
Linepattern
 70
    14
 71
     2
 72
     2
 73
     0
 90
        0
 40
-0.6
 41
-30.0
 62
     5
 63
     7
 74
     1
 91
        4
 64
     7
 65
   257
 75
     7
175
     7
 42
1.0
 92
        8
 66
     7
 43
1.0
 76
     1
 77
     6
 78
     2
 67
     7
 79
     5
170
     0
171
     0
290
     0
174
     0
 93
        1
 44
0.0
173
     0
291
     1
 45
0.0
1001
ACAD
1000
AcDbSavedByObjectVersion
1070
     0
  0
VISUALSTYLE
  5
215E
102
{ACAD_REACTORS
330
2154
102
}
330
2154
100
AcDbVisualStyle
  2
Realistic
 70
     8
 71
     2
 72
     2
 73
     0
 90
        0
 40
-0.6
 41
-30.0
 62
     5
 63
     7
 74
     1
 91
        0
 64
     7
 65
   257
 75
     1
175
     1
 42
1.0
 92
        8
 66
     8
 43
1.0
 76
     1
 77
     6
 78
     2
 67
     7
 79
     5
170
     0
171
     0
290
     0
174
     0
 93
       13
 44
0.0
173
     0
291
     0
 45
0.0
1001
ACAD
1000
AcDbSavedByObjectVersion
1070
     0
  0
VISUALSTYLE
  5
2161
102
{ACAD_REACTORS
330
2154
102
}
330
2154
100
AcDbVisualStyle
  2
Thicken
 70
    13
 71
     2
 72
     2
 73
     0
 90
        0
 40
-0.6
 41
-30.0
 62
     5
 63
     7
 74
     1
 91
        4
 64
     7
 65
   257
 75
     1
175
     1
 42
1.0
 92
       12
 66
     7
 43
1.0
 76
     1
 77
     6
 78
     2
 67
     7
 79
     5
170
     0
171
     0
290
     0
174
     0
 93
        1
 44
0.0
173
     0
291
     1
 45
0.0
1001
ACAD
1000
AcDbSavedByObjectVersion
1070
     0
  0
DICTIONARYVAR
  5
223B
102
{ACAD_REACTORS
330
2238
102
}
330
2238
100
DictionaryVariables
280
     0
  1
1:1
  0
DICTIONARYVAR
  5
223A
102
{ACAD_REACTORS
330
2238
102
}
330
2238
100
DictionaryVariables
280
     0
  1
STANDARD
  0
DICTIONARYVAR
  5
2239
102
{ACAD_REACTORS
330
2238
102
}
330
2238
100
DictionaryVariables
280
     0
  1
STANDARD
  0
DICTIONARYVAR
  5
223E
102
{ACAD_REACTORS
330
2238
102
}
330
2238
100
DictionaryVariables
280
     0
  1
1
  0
DICTIONARYVAR
  5
223D
102
{ACAD_REACTORS
330
2238
102
}
330
2238
100
DictionaryVariables
280
     0
  1
0
  0
DICTIONARYVAR
  5
223C
102
{ACAD_REACTORS
330
2238
102
}
330
2238
100
DictionaryVariables
280
     0
  1
127
  0
DICTIONARY
  5
21EA
102
{ACAD_REACTORS
330
21DF
102
}
330
21DF
100
AcDbDictionary
281
     1
  0
DICTIONARY
  5
2249
330
2180
100
AcDbDictionary
280
     1
281
     1
  3
ACAD_XREC_ROUNDTRIP
360
224A
  0
DICTIONARY
  5
2247
330
217F
100
AcDbDictionary
280
     1
281
     1
  3
ACAD_XREC_ROUNDTRIP
360
2248
  0
DICTIONARY
  5
2145
330
2144
100
AcDbDictionary
280
     1
281
     1
  3
ACAD_XREC_ROUNDTRIP
360
2244
  3
BUMPTILE
360
2147
  3
DIFFUSETILE
360
2146
  3
OPACITYTILE
360
214A
  3
REFLECTIONTILE
360
2149
  3
REFRACTIONTILE
360
214B
  3
SPECULARTILE
360
2148
  0
DICTIONARY
  5
213D
330
213C
100
AcDbDictionary
280
     1
281
     1
  3
ACAD_XREC_ROUNDTRIP
360
2243
  3
BUMPTILE
360
213F
  3
DIFFUSETILE
360
213E
  3
OPACITYTILE
360
2142
  3
REFLECTIONTILE
360
2141
  3
REFRACTIONTILE
360
2143
  3
SPECULARTILE
360
2140
  0
DICTIONARY
  5
214D
330
214C
100
AcDbDictionary
280
     1
281
     1
  3
ACAD_XREC_ROUNDTRIP
360
2245
  3
BUMPTILE
360
214F
  3
DIFFUSETILE
360
214E
  3
OPACITYTILE
360
2152
  3
REFLECTIONTILE
360
2151
  3
REFRACTIONTILE
360
2153
  3
SPECULARTILE
360
2150
  0
DICTIONARY
  5
223F
330
2167
100
AcDbDictionary
280
     1
281
     1
  3
ACAD_ROUNDTRIP_2008_TABLESTYLE_CELLSTYLEMAP
360
2240
  3
ACAD_XREC_ROUNDTRIP
360
2246
  0
XRECORD
  5
224A
102
{ACAD_REACTORS
330
2249
102
}
330
2249
100
AcDbXrecord
280
     1
102
SHADEPLOT
 70
     0
102
SHADEPLOTRESLEVEL
 70
     2
102
SHADEPLOTCUSTOMDPI
 70
   300
  0
XRECORD
  5
2248
102
{ACAD_REACTORS
330
2247
102
}
330
2247
100
AcDbXrecord
280
     1
102
SHADEPLOT
 70
     0
102
SHADEPLOTRESLEVEL
 70
     2
102
SHADEPLOTCUSTOMDPI
 70
   300
  0
XRECORD
  5
2244
102
{ACAD_REACTORS
330
2145
102
}
330
2145
100
AcDbXrecord
280
     1
102
MATERIAL
148
0.0
149
0.0
149
0.0
 93
        0
 94
      127
282
     0
 72
     0
 77
     0
171
     0
175
     0
179
     0
273
     0
  0
XRECORD
  5
2147
102
{ACAD_REACTORS
330
2145
102
}
330
2145
100
AcDbXrecord
280
     1
270
     1
271
     1
  0
XRECORD
  5
2146
102
{ACAD_REACTORS
330
2145
102
}
330
2145
100
AcDbXrecord
280
     1
270
     1
271
     1
  0
XRECORD
  5
214A
102
{ACAD_REACTORS
330
2145
102
}
330
2145
100
AcDbXrecord
280
     1
270
     1
271
     1
  0
XRECORD
  5
2149
102
{ACAD_REACTORS
330
2145
102
}
330
2145
100
AcDbXrecord
280
     1
270
     1
271
     1
  0
XRECORD
  5
214B
102
{ACAD_REACTORS
330
2145
102
}
330
2145
100
AcDbXrecord
280
     1
270
     1
271
     1
  0
XRECORD
  5
2148
102
{ACAD_REACTORS
330
2145
102
}
330
2145
100
AcDbXrecord
280
     1
270
     1
271
     1
  0
XRECORD
  5
2243
102
{ACAD_REACTORS
330
213D
102
}
330
213D
100
AcDbXrecord
280
     1
102
MATERIAL
148
0.0
149
0.0
149
0.0
 93
        0
 94
      127
282
     0
 72
     0
 77
     0
171
     0
175
     0
179
     0
273
     0
  0
XRECORD
  5
213F
102
{ACAD_REACTORS
330
213D
102
}
330
213D
100
AcDbXrecord
280
     1
270
     1
271
     1
  0
XRECORD
  5
213E
102
{ACAD_REACTORS
330
213D
102
}
330
213D
100
AcDbXrecord
280
     1
270
     1
271
     1
  0
XRECORD
  5
2142
102
{ACAD_REACTORS
330
213D
102
}
330
213D
100
AcDbXrecord
280
     1
270
     1
271
     1
  0
XRECORD
  5
2141
102
{ACAD_REACTORS
330
213D
102
}
330
213D
100
AcDbXrecord
280
     1
270
     1
271
     1
  0
XRECORD
  5
2143
102
{ACAD_REACTORS
330
213D
102
}
330
213D
100
AcDbXrecord
280
     1
270
     1
271
     1
  0
XRECORD
  5
2140
102
{ACAD_REACTORS
330
213D
102
}
330
213D
100
AcDbXrecord
280
     1
270
     1
271
     1
  0
XRECORD
  5
2245
102
{ACAD_REACTORS
330
214D
102
}
330
214D
100
AcDbXrecord
280
     1
102
MATERIAL
148
0.0
149
0.0
149
0.0
 93
        0
 94
      127
282
     0
 72
     0
 77
     0
171
     0
175
     0
179
     0
273
     0
  0
XRECORD
  5
214F
102
{ACAD_REACTORS
330
214D
102
}
330
214D
100
AcDbXrecord
280
     1
270
     1
271
     1
  0
XRECORD
  5
214E
102
{ACAD_REACTORS
330
214D
102
}
330
214D
100
AcDbXrecord
280
     1
270
     1
271
     1
  0
XRECORD
  5
2152
102
{ACAD_REACTORS
330
214D
102
}
330
214D
100
AcDbXrecord
280
     1
270
     1
271
     1
  0
XRECORD
  5
2151
102
{ACAD_REACTORS
330
214D
102
}
330
214D
100
AcDbXrecord
280
     1
270
     1
271
     1
  0
XRECORD
  5
2153
102
{ACAD_REACTORS
330
214D
102
}
330
214D
100
AcDbXrecord
280
     1
270
     1
271
     1
  0
XRECORD
  5
2150
102
{ACAD_REACTORS
330
214D
102
}
330
214D
100
AcDbXrecord
280
     1
270
     1
271
     1
  0
CELLSTYLEMAP
  5
2240
102
{ACAD_REACTORS
330
223F
102
}
330
223F
100
AcDbCellStyleMap
 90
        3
300
CELLSTYLE
  1
TABLEFORMAT_BEGIN
 90
        5
170
     1
 91
        0
 92
    32768
 62
   257
 93
        1
300
CONTENTFORMAT
  1
CONTENTFORMAT_BEGIN
 90
        0
 91
        0
 92
      512
 93
        0
300

 40
0.0
140
1.0
 94
        5
 62
     0
340
10
144
6.0
309
CONTENTFORMAT_END
171
     1
301
MARGIN
  1
CELLMARGIN_BEGIN
 40
1.5
 40
1.5
 40
1.5
 40
1.5
 40
4.5
 40
4.5
309
CELLMARGIN_END
 94
        6
 95
        1
302
GRIDFORMAT
  1
GRIDFORMAT_BEGIN
 90
        0
 91
        1
 62
     0
 92
       -2
340
0
 93
        0
 40
1.125
309
GRIDFORMAT_END
 95
        2
302
GRIDFORMAT
  1
GRIDFORMAT_BEGIN
 90
        0
 91
        1
 62
     0
 92
       -2
340
0
 93
        0
 40
1.125
309
GRIDFORMAT_END
 95
        4
302
GRIDFORMAT
  1
GRIDFORMAT_BEGIN
 90
        0
 91
        1
 62
     0
 92
       -2
340
0
 93
        0
 40
1.125
309
GRIDFORMAT_END
 95
        8
302
GRIDFORMAT
  1
GRIDFORMAT_BEGIN
 90
        0
 91
        1
 62
     0
 92
       -2
340
0
 93
        0
 40
1.125
309
GRIDFORMAT_END
 95
       16
302
GRIDFORMAT
  1
GRIDFORMAT_BEGIN
 90
        0
 91
        1
 62
     0
 92
       -2
340
0
 93
        0
 40
1.125
309
GRIDFORMAT_END
 95
       32
302
GRIDFORMAT
  1
GRIDFORMAT_BEGIN
 90
        0
 91
        1
 62
     0
 92
       -2
340
0
 93
        0
 40
1.125
309
GRIDFORMAT_END
309
TABLEFORMAT_END
  1
CELLSTYLE_BEGIN
 90
        1
 91
        1
300
_TITLE
309
CELLSTYLE_END
300
CELLSTYLE
  1
TABLEFORMAT_BEGIN
 90
        5
170
     1
 91
        0
 92
        0
 62
   257
 93
        1
300
CONTENTFORMAT
  1
CONTENTFORMAT_BEGIN
 90
        0
 91
        0
 92
      512
 93
        0
300

 40
0.0
140
1.0
 94
        5
 62
     0
340
10
144
4.5
309
CONTENTFORMAT_END
171
     1
301
MARGIN
  1
CELLMARGIN_BEGIN
 40
1.5
 40
1.5
 40
1.5
 40
1.5
 40
4.5
 40
4.5
309
CELLMARGIN_END
 94
        6
 95
        1
302
GRIDFORMAT
  1
GRIDFORMAT_BEGIN
 90
        0
 91
        1
 62
     0
 92
       -2
340
0
 93
        0
 40
1.125
309
GRIDFORMAT_END
 95
        2
302
GRIDFORMAT
  1
GRIDFORMAT_BEGIN
 90
        0
 91
        1
 62
     0
 92
       -2
340
0
 93
        0
 40
1.125
309
GRIDFORMAT_END
 95
        4
302
GRIDFORMAT
  1
GRIDFORMAT_BEGIN
 90
        0
 91
        1
 62
     0
 92
       -2
340
0
 93
        0
 40
1.125
309
GRIDFORMAT_END
 95
        8
302
GRIDFORMAT
  1
GRIDFORMAT_BEGIN
 90
        0
 91
        1
 62
     0
 92
       -2
340
0
 93
        0
 40
1.125
309
GRIDFORMAT_END
 95
       16
302
GRIDFORMAT
  1
GRIDFORMAT_BEGIN
 90
        0
 91
        1
 62
     0
 92
       -2
340
0
 93
        0
 40
1.125
309
GRIDFORMAT_END
 95
       32
302
GRIDFORMAT
  1
GRIDFORMAT_BEGIN
 90
        0
 91
        1
 62
     0
 92
       -2
340
0
 93
        0
 40
1.125
309
GRIDFORMAT_END
309
TABLEFORMAT_END
  1
CELLSTYLE_BEGIN
 90
        2
 91
        1
300
_HEADER
309
CELLSTYLE_END
300
CELLSTYLE
  1
TABLEFORMAT_BEGIN
 90
        5
170
     1
 91
        0
 92
        0
 62
   257
 93
        1
300
CONTENTFORMAT
  1
CONTENTFORMAT_BEGIN
 90
        0
 91
        0
 92
      512
 93
        0
300

 40
0.0
140
1.0
 94
        2
 62
     0
340
10
144
4.5
309
CONTENTFORMAT_END
171
     1
301
MARGIN
  1
CELLMARGIN_BEGIN
 40
1.5
 40
1.5
 40
1.5
 40
1.5
 40
4.5
 40
4.5
309
CELLMARGIN_END
 94
        6
 95
        1
302
GRIDFORMAT
  1
GRIDFORMAT_BEGIN
 90
        0
 91
        1
 62
     0
 92
       -2
340
0
 93
        0
 40
1.125
309
GRIDFORMAT_END
 95
        2
302
GRIDFORMAT
  1
GRIDFORMAT_BEGIN
 90
        0
 91
        1
 62
     0
 92
       -2
340
0
 93
        0
 40
1.125
309
GRIDFORMAT_END
 95
        4
302
GRIDFORMAT
  1
GRIDFORMAT_BEGIN
 90
        0
 91
        1
 62
     0
 92
       -2
340
0
 93
        0
 40
1.125
309
GRIDFORMAT_END
 95
        8
302
GRIDFORMAT
  1
GRIDFORMAT_BEGIN
 90
        0
 91
        1
 62
     0
 92
       -2
340
0
 93
        0
 40
1.125
309
GRIDFORMAT_END
 95
       16
302
GRIDFORMAT
  1
GRIDFORMAT_BEGIN
 90
        0
 91
        1
 62
     0
 92
       -2
340
0
 93
        0
 40
1.125
309
GRIDFORMAT_END
 95
       32
302
GRIDFORMAT
  1
GRIDFORMAT_BEGIN
 90
        0
 91
        1
 62
     0
 92
       -2
340
0
 93
        0
 40
1.125
309
GRIDFORMAT_END
309
TABLEFORMAT_END
  1
CELLSTYLE_BEGIN
 90
        3
 91
        2
300
_DATA
309
CELLSTYLE_END
  0
XRECORD
  5
2246
102
{ACAD_REACTORS
330
223F
102
}
330
223F
100
AcDbXrecord
280
     1
102
ACAD_ROUNDTRIP_PRE2007_TABLESTYLE
 90
      512
 91
        0
  1

 92
      512
 93
        0
  2

 94
      512
 95
        0
  3

  0
ENDSEC
  0
EOF
