  0
SECTION
  2
HEADER
  9
$ACADVER
  1
AC1012
  9
$DWGCODEPAGE
  3
ansi_1252
  9
$INSBASE
 10
0.0
 20
0.0
 30
0.0
  9
$EXTMIN
 10
-81.788719
 20
-260.534688
 30
0.0
  9
$EXTMAX
 10
930.782286
 20
340.049876
 30
0.0
  9
$LIMMIN
 10
0.0
 20
0.0
  9
$LIMMAX
 10
410.0
 20
287.0
  9
$ORTHOMODE
 70
     0
  9
$REGENMODE
 70
     1
  9
$FILLMODE
 70
     1
  9
$QTEXTMODE
 70
     0
  9
$MIRRTEXT
 70
     1
  9
$DRAGMODE
 70
     2
  9
$LTSCALE
 40
1.0
  9
$OSMODE
 70
    33
  9
$ATTMODE
 70
     1
  9
$TEXTSIZE
 40
3.5
  9
$TRACEWID
 40
0.05
  9
$TEXTSTYLE
  7
STANDARD
  9
$CLAYER
  8
0
  9
$CELTYPE
  6
BYLAYER
  9
$CECOLOR
 62
   256
  9
$CELTSCALE
 40
1.0
  9
$DELOBJ
 70
     1
  9
$DISPSILH
 70
     0
  9
$DIMSCALE
 40
1.0
  9
$DIMASZ
 40
0.18
  9
$DIMEXO
 40
0.0625
  9
$DIMDLI
 40
0.38
  9
$DIMRND
 40
0.0
  9
$DIMDLE
 40
0.0
  9
$DIMEXE
 40
0.18
  9
$DIMTP
 40
0.0
  9
$DIMTM
 40
0.0
  9
$DIMTXT
 40
0.18
  9
$DIMCEN
 40
0.09
  9
$DIMTSZ
 40
0.0
  9
$DIMTOL
 70
     0
  9
$DIMLIM
 70
     0
  9
$DIMTIH
 70
     1
  9
$DIMTOH
 70
     1
  9
$DIMSE1
 70
     0
  9
$DIMSE2
 70
     0
  9
$DIMTAD
 70
     0
  9
$DIMZIN
 70
     0
  9
$DIMBLK
  1

  9
$DIMASO
 70
     1
  9
$DIMSHO
 70
     1
  9
$DIMPOST
  1

  9
$DIMAPOST
  1

  9
$DIMALT
 70
     0
  9
$DIMALTD
 70
     2
  9
$DIMALTF
 40
25.4
  9
$DIMLFAC
 40
1.0
  9
$DIMTOFL
 70
     0
  9
$DIMTVP
 40
0.0
  9
$DIMTIX
 70
     0
  9
$DIMSOXD
 70
     0
  9
$DIMSAH
 70
     0
  9
$DIMBLK1
  1

  9
$DIMBLK2
  1

  9
$DIMSTYLE
  2
STANDARD
  9
$DIMCLRD
 70
     0
  9
$DIMCLRE
 70
     0
  9
$DIMCLRT
 70
     0
  9
$DIMTFAC
 40
1.0
  9
$DIMGAP
 40
0.09
  9
$DIMJUST
 70
     0
  9
$DIMSD1
 70
     0
  9
$DIMSD2
 70
     0
  9
$DIMTOLJ
 70
     1
  9
$DIMTZIN
 70
     0
  9
$DIMALTZ
 70
     0
  9
$DIMALTTZ
 70
     0
  9
$DIMFIT
 70
     3
  9
$DIMUPT
 70
     0
  9
$DIMUNIT
 70
     2
  9
$DIMDEC
 70
     4
  9
$DIMTDEC
 70
     4
  9
$DIMALTU
 70
     2
  9
$DIMALTTD
 70
     2
  9
$DIMTXSTY
  7
STANDARD
  9
$DIMAUNIT
 70
     0
  9
$LUNITS
 70
     2
  9
$LUPREC
 70
     4
  9
$SKETCHINC
 40
0.1
  9
$FILLETRAD
 40
12.5
  9
$AUNITS
 70
     0
  9
$AUPREC
 70
     0
  9
$MENU
  1
acad
  9
$ELEVATION
 40
0.0
  9
$PELEVATION
 40
0.0
  9
$THICKNESS
 40
0.0
  9
$LIMCHECK
 70
     0
  9
$BLIPMODE
 70
     0
  9
$CHAMFERA
 40
12.5
  9
$CHAMFERB
 40
12.5
  9
$CHAMFERC
 40
0.0
  9
$CHAMFERD
 40
0.0
  9
$SKPOLY
 70
     0
  9
$TDCREATE
 40
2450928.459696967
  9
$TDUPDATE
 40
2450928.461037094
  9
$TDINDWG
 40
0.0013401273
  9
$TDUSRTIMER
 40
0.0013401273
  9
$USRTIMER
 70
     1
  9
$ANGBASE
 50
0.0
  9
$ANGDIR
 70
     0
  9
$PDMODE
 70
     0
  9
$PDSIZE
 40
0.0
  9
$PLINEWID
 40
0.0
  9
$COORDS
 70
     1
  9
$SPLFRAME
 70
     0
  9
$SPLINETYPE
 70
     6
  9
$SPLINESEGS
 70
     8
  9
$ATTDIA
 70
     1
  9
$ATTREQ
 70
     1
  9
$HANDLING
 70
     1
  9
$HANDSEED
  5
B90
  9
$SURFTAB1
 70
     6
  9
$SURFTAB2
 70
     6
  9
$SURFTYPE
 70
     6
  9
$SURFU
 70
     6
  9
$SURFV
 70
     6
  9
$UCSNAME
  2

  9
$UCSORG
 10
0.0
 20
0.0
 30
0.0
  9
$UCSXDIR
 10
1.0
 20
0.0
 30
0.0
  9
$UCSYDIR
 10
0.0
 20
1.0
 30
0.0
  9
$PUCSNAME
  2

  9
$PUCSORG
 10
0.0
 20
0.0
 30
0.0
  9
$PUCSXDIR
 10
1.0
 20
0.0
 30
0.0
  9
$PUCSYDIR
 10
0.0
 20
1.0
 30
0.0
  9
$USERI1
 70
     0
  9
$USERI2
 70
     0
  9
$USERI3
 70
     0
  9
$USERI4
 70
     0
  9
$USERI5
 70
     0
  9
$USERR1
 40
0.0
  9
$USERR2
 40
0.0
  9
$USERR3
 40
0.0
  9
$USERR4
 40
0.0
  9
$USERR5
 40
0.0
  9
$WORLDVIEW
 70
     1
  9
$SHADEDGE
 70
     3
  9
$SHADEDIF
 70
    70
  9
$TILEMODE
 70
     1
  9
$MAXACTVP
 70
    16
  9
$PINSBASE
 10
0.0
 20
0.0
 30
0.0
  9
$PLIMCHECK
 70
     0
  9
$PEXTMIN
 10
1.000000E+20
 20
1.000000E+20
 30
1.000000E+20
  9
$PEXTMAX
 10
-1.000000E+20
 20
-1.000000E+20
 30
-1.000000E+20
  9
$PLIMMIN
 10
0.0
 20
0.0
  9
$PLIMMAX
 10
12.0
 20
9.0
  9
$UNITMODE
 70
     0
  9
$VISRETAIN
 70
     0
  9
$PLINEGEN
 70
     0
  9
$PSLTSCALE
 70
     1
  9
$TREEDEPTH
 70
  3020
  9
$PICKSTYLE
 70
     1
  9
$CMLSTYLE
  2
STANDARD
  9
$CMLJUST
 70
     0
  9
$CMLSCALE
 40
1.0
  9
$SAVEIMAGES
 70
     0
  0
ENDSEC
  0
SECTION
  2
CLASSES
  0
ENDSEC
  0
SECTION
  2
TABLES
  0
TABLE
  2
VPORT
  5
8
100
AcDbSymbolTable
 70
     3
  0
VPORT
  5
B8F
100
AcDbSymbolTableRecord
100
AcDbViewportTableRecord
  2
*ACTIVE
 70
     0
 10
0.0
 20
0.0
 11
1.0
 21
1.0
 12
424.496784
 22
48.779524
 13
0.0
 23
0.0
 14
5.0
 24
5.0
 15
50.0
 25
50.0
 16
0.0
 26
0.0
 36
1.0
 17
0.0
 27
0.0
 37
0.0
 40
773.28553
 41
1.6368
 42
50.0
 43
0.0
 44
0.0
 50
0.0
 51
0.0
 71
     0
 72
   100
 73
     1
 74
     0
 75
     0
 76
     0
 77
     0
 78
     0
  0
ENDTAB
  0
TABLE
  2
LTYPE
  5
5
100
AcDbSymbolTable
 70
     3
  0
LTYPE
  5
14
100
AcDbSymbolTableRecord
100
AcDbLinetypeTableRecord
  2
BYBLOCK
 70
     0
  3

 72
    65
 73
     0
 40
0.0
  0
LTYPE
  5
15
100
AcDbSymbolTableRecord
100
AcDbLinetypeTableRecord
  2
BYLAYER
 70
     0
  3

 72
    65
 73
     0
 40
0.0
  0
LTYPE
  5
16
100
AcDbSymbolTableRecord
100
AcDbLinetypeTableRecord
  2
CONTINUOUS
 70
     0
  3
Solid line
 72
    65
 73
     0
 40
0.0
  0
LTYPE
  5
6A
100
AcDbSymbolTableRecord
100
AcDbLinetypeTableRecord
  2
GEN3
 70
    64
  3
-- -- -- -- -- -- -- -- -- -- -- -- -- -- --
 72
    65
 73
     2
 40
6.25
 49
5.0
 74
     0
 49
-1.25
 74
     0
  0
LTYPE
  5
6B
100
AcDbSymbolTableRecord
100
AcDbLinetypeTableRecord
  2
GEN7A
 70
    64
  3
__ . __ . __
 72
    65
 73
     4
 40
7.5
 49
5.0
 74
     0
 49
-1.25
 74
     0
 49
0.0
 74
     0
 49
-1.25
 74
     0
  0
ENDTAB
  0
TABLE
  2
LAYER
  5
2
100
AcDbSymbolTable
 70
     7
  0
LAYER
  5
F
100
AcDbSymbolTableRecord
100
AcDbLayerTableRecord
  2
0
 70
     0
 62
     7
  6
CONTINUOUS
  0
LAYER
  5
6C
100
AcDbSymbolTableRecord
100
AcDbLayerTableRecord
  2
MSL5_300_3F-0
 70
    64
 62
     7
  6
CONTINUOUS
  0
LAYER
  5
6D
100
AcDbSymbolTableRecord
100
AcDbLayerTableRecord
  2
MSL5_300_3F-3
 70
    64
 62
     6
  6
GEN3
  0
LAYER
  5
6E
100
AcDbSymbolTableRecord
100
AcDbLayerTableRecord
  2
MSL5_300_3F-4
 70
    64
 62
     3
  6
CONTINUOUS
  0
LAYER
  5
6F
100
AcDbSymbolTableRecord
100
AcDbLayerTableRecord
  2
MSL5_300_3F-7
 70
    64
 62
     4
  6
GEN7A
  0
LAYER
  5
70
100
AcDbSymbolTableRecord
100
AcDbLayerTableRecord
  2
MSL5_300_3F-6
 70
    64
 62
     2
  6
CONTINUOUS
  0
LAYER
  5
71
100
AcDbSymbolTableRecord
100
AcDbLayerTableRecord
  2
INFO
 70
    64
 62
     4
  6
CONTINUOUS
  0
ENDTAB
  0
TABLE
  2
STYLE
  5
3
100
AcDbSymbolTable
 70
     1
  0
STYLE
  5
10
100
AcDbSymbolTableRecord
100
AcDbTextStyleTableRecord
  2
STANDARD
 70
    64
 40
0.0
 41
1.0
 50
0.0
 71
     0
 42
3.5
  3
geniso.shx
  4

  0
ENDTAB
  0
TABLE
  2
VIEW
  5
6
100
AcDbSymbolTable
 70
     0
  0
ENDTAB
  0
TABLE
  2
UCS
  5
7
100
AcDbSymbolTable
 70
     0
  0
ENDTAB
  0
TABLE
  2
APPID
  5
9
100
AcDbSymbolTable
 70
    26
  0
APPID
  5
11
100
AcDbSymbolTableRecord
100
AcDbRegAppTableRecord
  2
ACAD
 70
     0
  0
APPID
  5
29
100
AcDbSymbolTableRecord
100
AcDbRegAppTableRecord
  2
GENIUS_GENCFG_13
 70
     0
1001
GENIUS_GENCFG0_13
1000
GEN@INFO_POS@XLATE
1001
GENIUS_GENCFG1_13
1000
GEN@LAYER@DEFS
1001
GENIUS_GENCFG2_13
1000
GEN@LAYER@ENTSORT
1001
GENIUS_GENCFG3_13
1000
GEN@OSWIZ
1001
GENIUS_GENCFG4_13
1000
GEN
1001
GENIUS_GEVCFG0_13
1000
GEV
1001
GENIUS_GEFCFG0_13
1000
GEF
  0
APPID
  5
2A
100
AcDbSymbolTableRecord
100
AcDbRegAppTableRecord
  2
GENIUS_GENCFG0_13
 70
     0
1001
GENIUS_GENCFG_13
1071
862825278
1000
2A
1000
GEN@INFO_POS@XLATE
1070
     7
1000
GenCfgObject
1000
GenCfgShort
1000
GenCfgReal
1000
GenCfgBool
1000
GenCfgString
1000
GenCfgDim
1000
GenCfgAttrInf
1000
INFOPOINTS
1070
     0
1002
{
1000
GENINF13
1070
     0
1002
{
1000
2GENINF
1070
     4
1000
2
1002
{
1002
}
1000
3GENINF
1070
     4
1000
3
1002
{
1002
}
1000
4GENINF
1070
     4
1000
4
1002
{
1002
}
1000
5GENINF
1070
     4
1000
5
1002
{
1002
}
1000
6GENINF
1070
     4
1000
6
1002
{
1002
}
1000
7GENINF
1070
     4
1000
7
1002
{
1002
}
1000
8GENINF
1070
     4
1000
8
1002
{
1002
}
1000
9GENINF
1070
     4
1000
9
1002
{
1002
}
1000
10GENINF
1070
     4
1000
10
1002
{
1002
}
1000
11GENINF
1070
     4
1000
11
1002
{
1002
}
1000
12GENINF
1070
     4
1000
12
1002
{
1002
}
1000
13GENINF
1070
     4
1000
13
1002
{
1002
}
1000
14GENINF
1070
     4
1000
14
1002
{
1002
}
1000
15GENINF
1070
     4
1000
15
1002
{
1002
}
1000
16GENINF
1070
     4
1000
16
1002
{
1002
}
1000
17GENINF
1070
     4
1000
17
1002
{
1002
}
1000
18GENINF
1070
     4
1000
18
1002
{
1002
}
1000
19GENINF
1070
     4
1000
19
1002
{
1002
}
1000
20GENINF
1070
     4
1000
20
1002
{
1002
}
1000
21GENINF
1070
     4
1000
21
1002
{
1002
}
1000
22GENINF
1070
     4
1000
22
1002
{
1002
}
1000
23GENINF
1070
     4
1000
23
1002
{
1002
}
1000
24GENINF
1070
     4
1000
24
1002
{
1002
}
1000
0GENINF
1070
     4
1000
0
1002
{
1002
}
1002
}
1000
GENINFO
1070
     0
1002
{
1000
3GENINF
1070
     4
1000
3
1002
{
1002
}
1000
4GENINF
1070
     4
1000
4
1002
{
1002
}
1000
5GENINF
1070
     4
1000
5
1002
{
1002
}
1000
6GENINF
1070
     4
1000
6
1002
{
1002
}
1000
7GENINF
1070
     4
1000
7
1002
{
1002
}
1000
8GENINF
1070
     4
1000
8
1002
{
1002
}
1000
9GENINF
1070
     4
1000
9
1002
{
1002
}
1000
10GENINF
1070
     4
1000
10
1002
{
1002
}
1000
11GENINF
1070
     4
1000
11
1002
{
1002
}
1000
12GENINF
1070
     4
1000
12
1002
{
1002
}
1000
13GENINF
1070
     4
1000
13
1002
{
1002
}
1000
14GENINF
1070
     4
1000
14
1002
{
1002
}
1000
15GENINF
1070
     4
1000
15
1002
{
1002
}
1000
16GENINF
1070
     4
1000
16
1002
{
1002
}
1000
17GENINF
1070
     4
1000
17
1002
{
1002
}
1000
18GENINF
1070
     4
1000
18
1002
{
1002
}
1000
19GENINF
1070
     4
1000
19
1002
{
1002
}
1000
20GENINF
1070
     4
1000
20
1002
{
1002
}
1000
21GENINF
1070
     4
1000
21
1002
{
1002
}
1000
22GENINF
1070
     4
1000
22
1002
{
1002
}
1002
}
1000
DININFO
1070
     0
1002
{
1000
ST-NAME1
1070
     4
1000
5
1002
{
1002
}
1000
ST-NAME2
1070
     4
1000
6
1002
{
1002
}
1000
ST-NORM1
1070
     4
1000
7
1002
{
1002
}
1000
ST-NORM2
1070
     4
1000
8
1002
{
1002
}
1000
ST-MAT1
1070
     4
1000
9
1002
{
1002
}
1000
ST-MAT2
1070
     4
1000
10
1002
{
1002
}
1002
}
1002
}
1000
POS_NUMBERS
1070
     0
1002
{
1000
GENPOS13
1070
     0
1002
{
1000
1GENPOS
1070
     4
1000
1
1002
{
1002
}
1000
2GENPOS
1070
     4
1000
2
1002
{
1002
}
1000
3GENPOS
1070
     4
1000
3
1002
{
1002
}
1000
4GENPOS
1070
     4
1000
4
1002
{
1002
}
1000
5GENPOS
1070
     4
1000
5
1002
{
1002
}
1000
6GENPOS
1070
     4
1000
6
1002
{
1002
}
1000
7GENPOS
1070
     4
1000
7
1002
{
1002
}
1000
8GENPOS
1070
     4
1000
8
1002
{
1002
}
1000
9GENPOS
1070
     4
1000
9
1002
{
1002
}
1000
10GENPOS
1070
     4
1000
10
1002
{
1002
}
1000
11GENPOS
1070
     4
1000
11
1002
{
1002
}
1000
12GENPOS
1070
     4
1000
12
1002
{
1002
}
1000
13GENPOS
1070
     4
1000
13
1002
{
1002
}
1000
14GENPOS
1070
     4
1000
14
1002
{
1002
}
1000
15GENPOS
1070
     4
1000
15
1002
{
1002
}
1000
16GENPOS
1070
     4
1000
16
1002
{
1002
}
1000
17GENPOS
1070
     4
1000
17
1002
{
1002
}
1000
18GENPOS
1070
     4
1000
18
1002
{
1002
}
1000
19GENPOS
1070
     4
1000
19
1002
{
1002
}
1000
20GENPOS
1070
     4
1000
20
1002
{
1002
}
1000
21GENPOS
1070
     4
1000
21
1002
{
1002
}
1000
22GENPOS
1070
     4
1000
22
1002
{
1002
}
1000
23GENPOS
1070
     4
1000
23
1002
{
1002
}
1000
24GENPOS
1070
     4
1000
24
1002
{
1002
}
1000
0GENPOS
1070
     4
1000
0
1002
{
1002
}
1002
}
1000
GENPOS
1070
     0
1002
{
1000
1GENPOS
1070
     4
1000
1
1002
{
1002
}
1000
2GENPOS
1070
     4
1000
2
1002
{
1002
}
1000
3GENPOS
1070
     4
1000
3
1002
{
1002
}
1000
4GENPOS
1070
     4
1000
4
1002
{
1002
}
1000
5GENPOS
1070
     4
1000
5
1002
{
1002
}
1000
6GENPOS
1070
     4
1000
6
1002
{
1002
}
1000
7GENPOS
1070
     4
1000
7
1002
{
1002
}
1000
8GENPOS
1070
     4
1000
8
1002
{
1002
}
1000
9GENPOS
1070
     4
1000
9
1002
{
1002
}
1000
10GENPOS
1070
     4
1000
10
1002
{
1002
}
1000
11GENPOS
1070
     4
1000
11
1002
{
1002
}
1000
12GENPOS
1070
     4
1000
12
1002
{
1002
}
1000
13GENPOS
1070
     4
1000
13
1002
{
1002
}
1000
14GENPOS
1070
     4
1000
14
1002
{
1002
}
1000
15GENPOS
1070
     4
1000
15
1002
{
1002
}
1000
16GENPOS
1070
     4
1000
16
1002
{
1002
}
1000
17GENPOS
1070
     4
1000
17
1002
{
1002
}
1000
18GENPOS
1070
     4
1000
18
1002
{
1002
}
1000
19GENPOS
1070
     4
1000
19
1002
{
1002
}
1000
20GENPOS
1070
     4
1000
20
1002
{
1002
}
1000
21GENPOS
1070
     4
1000
21
1002
{
1002
}
1000
22GENPOS
1070
     4
1000
22
1002
{
1002
}
1000
23GENPOS
1070
     4
1000
23
1002
{
1002
}
1002
}
1000
DIN985
1070
     0
1002
{
1000
POSITION
1070
     4
1000
1
1002
{
1002
}
1000
MENGE
1070
     4
1000
2
1002
{
1002
}
1000
BLATT
1070
     4
1000
3
1002
{
1002
}
1000
BENENN
1070
     4
1000
5
1002
{
1002
}
1000
BENENN2
1070
     4
1000
6
1002
{
1002
}
1000
NORM
1070
     4
1000
7
1002
{
1002
}
1000
NORM2
1070
     4
1000
8
1002
{
1002
}
1000
WERKSTOFF
1070
     4
1000
9
1002
{
1002
}
1000
WERKSTOFF2
1070
     4
1000
10
1002
{
1002
}
1002
}
1000
DIN986
1070
     0
1002
{
1000
POSITION
1070
     4
1000
1
1002
{
1002
}
1000
MENGE
1070
     4
1000
2
1002
{
1002
}
1000
BLATT
1070
     4
1000
3
1002
{
1002
}
1000
BENENN
1070
     4
1000
5
1002
{
1002
}
1000
BENENN2
1070
     4
1000
6
1002
{
1002
}
1000
NORM
1070
     4
1000
7
1002
{
1002
}
1000
NORM2
1070
     4
1000
8
1002
{
1002
}
1000
WERKSTOFF
1070
     4
1000
9
1002
{
1002
}
1000
WERKSTOFF2
1070
     4
1000
10
1002
{
1002
}
1002
}
1000
DIN987
1070
     0
1002
{
1000
POSITION
1070
     4
1000
1
1002
{
1002
}
1000
MENGE
1070
     4
1000
2
1002
{
1002
}
1000
BLATT
1070
     4
1000
3
1002
{
1002
}
1000
BENENN
1070
     4
1000
5
1002
{
1002
}
1000
BENENN2
1070
     4
1000
6
1002
{
1002
}
1000
NORM
1070
     4
1000
7
1002
{
1002
}
1000
NORM2
1070
     4
1000
8
1002
{
1002
}
1000
WERKSTOFF
1070
     4
1000
9
1002
{
1002
}
1000
WERKSTOFF2
1070
     4
1000
10
1002
{
1002
}
1002
}
1002
}
  0
APPID
  5
2B
100
AcDbSymbolTableRecord
100
AcDbRegAppTableRecord
  2
GENIUS_GENCFG1_13
 70
     0
1001
GENIUS_GENCFG_13
1071
862825278
1000
2B
1000
GEN@LAYER@DEFS
1070
     9
1000
GenCfgObject
1000
GenCfgShort
1000
GenCfgReal
1000
GenCfgBool
1000
GenCfgString
1000
GenCfgDim
1000
GenCfgAttrInf
1000
GenCfgLaySection
1000
GenCfgLayer
1000
Basic
1070
     0
1002
{
1000
0
1070
     8
1000
0
1002
{
1000
Color
1070
     1
1070
     7
1002
{
1002
}
1000
LType
1070
     4
1000
CONTINUOUS
1002
{
1002
}
1000
Base
1070
     3
1070
     0
1002
{
1002
}
1002
}
1000
1
1070
     8
1000
1
1002
{
1000
Color
1070
     1
1070
    14
1002
{
1002
}
1000
LType
1070
     4
1000
CONTINUOUS
1002
{
1002
}
1000
Base
1070
     3
1070
     0
1002
{
1002
}
1002
}
1000
2
1070
     8
1000
2
1002
{
1000
Color
1070
     1
1070
     5
1002
{
1002
}
1000
LType
1070
     4
1000
CONTINUOUS
1002
{
1002
}
1000
Base
1070
     3
1070
     0
1002
{
1002
}
1002
}
1000
3
1070
     8
1000
3
1002
{
1000
Color
1070
     1
1070
     6
1002
{
1002
}
1000
LType
1070
     4
1000
GEN3
1002
{
1002
}
1000
Base
1070
     3
1070
     0
1002
{
1002
}
1002
}
1000
4
1070
     8
1000
4
1002
{
1000
Color
1070
     1
1070
     3
1002
{
1002
}
1000
LType
1070
     4
1000
CONTINUOUS
1002
{
1002
}
1000
Base
1070
     3
1070
     0
1002
{
1002
}
1002
}
1000
5
1070
     8
1000
5
1002
{
1000
Color
1070
     1
1070
     3
1002
{
1002
}
1000
LType
1070
     4
1000
CONTINUOUS
1002
{
1002
}
1000
Base
1070
     3
1070
     0
1002
{
1002
}
1002
}
1000
6
1070
     8
1000
6
1002
{
1000
Color
1070
     1
1070
     2
1002
{
1002
}
1000
LType
1070
     4
1000
CONTINUOUS
1002
{
1002
}
1000
Base
1070
     3
1070
     0
1002
{
1002
}
1002
}
1000
7
1070
     8
1000
7
1002
{
1000
Color
1070
     1
1070
     4
1002
{
1002
}
1000
LType
1070
     4
1000
GEN7
1002
{
1002
}
1000
Base
1070
     3
1070
     0
1002
{
1002
}
1002
}
1000
8
1070
     8
1000
8
1002
{
1000
Color
1070
     1
1070
     1
1002
{
1002
}
1000
LType
1070
     4
1000
CONTINUOUS
1002
{
1002
}
1000
Base
1070
     3
1070
     0
1002
{
1002
}
1002
}
1000
3A
1070
     8
1000
3A
1002
{
1000
Color
1070
     1
1070
     6
1002
{
1002
}
1000
LType
1070
     4
1000
GEN3A
1002
{
1002
}
1000
Base
1070
     3
1070
     0
1002
{
1002
}
1002
}
1000
7A
1070
     8
1000
7A
1002
{
1000
Color
1070
     1
1070
     4
1002
{
1002
}
1000
LType
1070
     4
1000
GEN7A
1002
{
1002
}
1000
Base
1070
     3
1070
     0
1002
{
1002
}
1002
}
1000
2A
1070
     8
1000
2A
1002
{
1000
Color
1070
     1
1070
     7
1002
{
1002
}
1000
LType
1070
     4
1000
GEN7
1002
{
1002
}
1000
Base
1070
     3
1070
     0
1002
{
1002
}
1002
}
1000
4A
1070
     8
1000
4A
1002
{
1000
Color
1070
     1
1070
     3
1002
{
1002
}
1000
LType
1070
     4
1000
GEN4A
1002
{
1002
}
1000
Base
1070
     3
1070
     0
1002
{
1002
}
1002
}
1000
9
1070
     8
1000
9
1002
{
1000
Color
1070
     1
1070
   253
1002
{
1002
}
1000
LType
1070
     4
1000
CONTINUOUS
1002
{
1002
}
1000
Base
1070
     3
1070
     0
1002
{
1002
}
1002
}
1002
}
1000
Standard
1070
     0
1002
{
1000
0N
1070
     8
1000
0N
1002
{
1000
Color
1070
     1
1070
     7
1002
{
1002
}
1000
LType
1070
     4
1000
CONTINUOUS
1002
{
1002
}
1000
Base
1070
     3
1070
     0
1002
{
1002
}
1002
}
1000
1N
1070
     8
1000
1N
1002
{
1000
Color
1070
     1
1070
    14
1002
{
1002
}
1000
LType
1070
     4
1000
CONTINUOUS
1002
{
1002
}
1000
Base
1070
     3
1070
     0
1002
{
1002
}
1002
}
1000
2N
1070
     8
1000
2N
1002
{
1000
Color
1070
     1
1070
     5
1002
{
1002
}
1000
LType
1070
     4
1000
CONTINUOUS
1002
{
1002
}
1000
Base
1070
     3
1070
     0
1002
{
1002
}
1002
}
1000
3N
1070
     8
1000
3N
1002
{
1000
Color
1070
     1
1070
     6
1002
{
1002
}
1000
LType
1070
     4
1000
GEN3
1002
{
1002
}
1000
Base
1070
     3
1070
     0
1002
{
1002
}
1002
}
1000
4N
1070
     8
1000
4N
1002
{
1000
Color
1070
     1
1070
     3
1002
{
1002
}
1000
LType
1070
     4
1000
CONTINUOUS
1002
{
1002
}
1000
Base
1070
     3
1070
     0
1002
{
1002
}
1002
}
1000
5N
1070
     8
1000
5N
1002
{
1000
Color
1070
     1
1070
     3
1002
{
1002
}
1000
LType
1070
     4
1000
CONTINUOUS
1002
{
1002
}
1000
Base
1070
     3
1070
     0
1002
{
1002
}
1002
}
1000
6N
1070
     8
1000
6N
1002
{
1000
Color
1070
     1
1070
     2
1002
{
1002
}
1000
LType
1070
     4
1000
CONTINUOUS
1002
{
1002
}
1000
Base
1070
     3
1070
     0
1002
{
1002
}
1002
}
1000
7N
1070
     8
1000
7N
1002
{
1000
Color
1070
     1
1070
     4
1002
{
1002
}
1000
LType
1070
     4
1000
GEN7
1002
{
1002
}
1000
Base
1070
     3
1070
     0
1002
{
1002
}
1002
}
1000
8N
1070
     8
1000
8N
1002
{
1000
Color
1070
     1
1070
     1
1002
{
1002
}
1000
LType
1070
     4
1000
CONTINUOUS
1002
{
1002
}
1000
Base
1070
     3
1070
     0
1002
{
1002
}
1002
}
1000
3AN
1070
     8
1000
3AN
1002
{
1000
Color
1070
     1
1070
     6
1002
{
1002
}
1000
LType
1070
     4
1000
GEN3A
1002
{
1002
}
1000
Base
1070
     3
1070
     0
1002
{
1002
}
1002
}
1000
7AN
1070
     8
1000
7AN
1002
{
1000
Color
1070
     1
1070
     4
1002
{
1002
}
1000
LType
1070
     4
1000
GEN7A
1002
{
1002
}
1000
Base
1070
     3
1070
     0
1002
{
1002
}
1002
}
1000
2AN
1070
     8
1000
2AN
1002
{
1000
Color
1070
     1
1070
     7
1002
{
1002
}
1000
LType
1070
     4
1000
GEN7
1002
{
1002
}
1000
Base
1070
     3
1070
     0
1002
{
1002
}
1002
}
1000
4AN
1070
     8
1000
4AN
1002
{
1000
Color
1070
     1
1070
     3
1002
{
1002
}
1000
LType
1070
     4
1000
GEN4A
1002
{
1002
}
1000
Base
1070
     3
1070
     0
1002
{
1002
}
1002
}
1000
9N
1070
     8
1000
9N
1002
{
1000
Color
1070
     1
1070
   253
1002
{
1002
}
1000
LType
1070
     4
1000
CONTINUOUS
1002
{
1002
}
1000
Base
1070
     3
1070
     0
1002
{
1002
}
1002
}
1002
}
1000
Extra
1070
     0
1002
{
1000
Klin
1070
     8
1000
KLIN
1002
{
1000
Color
1070
     1
1070
     1
1002
{
1002
}
1000
LType
1070
     4
1000
CONTINUOUS
1002
{
1002
}
1000
Base
1070
     3
1070
     1
1002
{
1002
}
1002
}
1000
Info
1070
     8
1000
INFO
1002
{
1000
Color
1070
     1
1070
     4
1002
{
1002
}
1000
LType
1070
     4
1000
CONTINUOUS
1002
{
1002
}
1000
Base
1070
     3
1070
     1
1002
{
1002
}
1002
}
1000
Rahm2
1070
     8
1000
RAHM2
1002
{
1000
Color
1070
     1
1070
     1
1002
{
1002
}
1000
LType
1070
     4
1000
CONTINUOUS
1002
{
1002
}
1000
Base
1070
     3
1070
     1
1002
{
1002
}
1002
}
1000
Rahm3
1070
     8
1000
RAHM3
1002
{
1000
Color
1070
     1
1070
     2
1002
{
1002
}
1000
LType
1070
     4
1000
CONTINUOUS
1002
{
1002
}
1000
Base
1070
     3
1070
     1
1002
{
1002
}
1002
}
1000
Rahm5
1070
     8
1000
RAHM5
1002
{
1000
Color
1070
     1
1070
     7
1002
{
1002
}
1000
LType
1070
     4
1000
CONTINUOUS
1002
{
1002
}
1000
Base
1070
     3
1070
     1
1002
{
1002
}
1002
}
1000
View
1070
     8
1000
VIEW
1002
{
1000
Color
1070
     1
1070
     1
1002
{
1002
}
1000
LType
1070
     4
1000
CONTINUOUS
1002
{
1002
}
1000
Base
1070
     3
1070
     1
1002
{
1002
}
1002
}
1000
Behind
1070
     8
1000
BEHIND
1002
{
1000
Color
1070
     1
1070
   253
1002
{
1002
}
1000
LType
1070
     4
1000
CONTINUOUS
1002
{
1002
}
1000
Base
1070
     3
1070
     1
1002
{
1002
}
1002
}
1002
}
  0
APPID
  5
2C
100
AcDbSymbolTableRecord
100
AcDbRegAppTableRecord
  2
GENIUS_GENCFG2_13
 70
     0
1001
GENIUS_GENCFG_13
1071
862825278
1000
2C
1000
GEN@LAYER@ENTSORT
1070
    10
1000
GenCfgObject
1000
GenCfgShort
1000
GenCfgReal
1000
GenCfgBool
1000
GenCfgString
1000
GenCfgDim
1000
GenCfgAttrInf
1000
GenCfgLaySection
1000
GenCfgLayer
1000
GenCfgEntSort
1000
ALTR
1070
     9
1000
4
1002
{
1000
Class
1070
     4
1000

1002
{
1002
}
1000
Color
1070
     1
1070
     7
1002
{
1002
}
1000
LType
1070
     4
1000
GEN3A
1002
{
1002
}
1002
}
1000
BELI
1070
     9
1000
4
1002
{
1000
Class
1070
     4
1000

1002
{
1002
}
1000
Color
1070
     1
1070
   256
1002
{
1002
}
1000
LType
1070
     4
1000
BYLAYER
1002
{
1002
}
1002
}
1000
BHNV
1070
     9
1000
9
1002
{
1000
Class
1070
     4
1000
INV
1002
{
1002
}
1000
Color
1070
     1
1070
   256
1002
{
1002
}
1000
LType
1070
     4
1000
BYLAYER
1002
{
1002
}
1002
}
1000
BHNVS
1070
     9
1000
BEHIND
1002
{
1000
Class
1070
     4
1000
INV
1002
{
1002
}
1000
Color
1070
     1
1070
   256
1002
{
1002
}
1000
LType
1070
     4
1000
BYLAYER
1002
{
1002
}
1002
}
1000
BLID
1070
     9
1000
4A
1002
{
1000
Class
1070
     4
1000

1002
{
1002
}
1000
Color
1070
     1
1070
   256
1002
{
1002
}
1000
LType
1070
     4
1000
BYLAYER
1002
{
1002
}
1002
}
1000
BOAP
1070
     9
1000
4A
1002
{
1000
Class
1070
     4
1000

1002
{
1002
}
1000
Color
1070
     1
1070
   256
1002
{
1002
}
1000
LType
1070
     4
1000
BYLAYER
1002
{
1002
}
1002
}
1000
BOR2
1070
     9
1000
RAHM2
1002
{
1000
Class
1070
     4
1000
SPZ,SYM
1002
{
1002
}
1000
Color
1070
     1
1070
   256
1002
{
1002
}
1000
LType
1070
     4
1000
BYLAYER
1002
{
1002
}
1002
}
1000
BOR3
1070
     9
1000
RAHM3
1002
{
1000
Class
1070
     4
1000
SPZ,SYM
1002
{
1002
}
1000
Color
1070
     1
1070
   256
1002
{
1002
}
1000
LType
1070
     4
1000
BYLAYER
1002
{
1002
}
1002
}
1000
BOR5
1070
     9
1000
RAHM5
1002
{
1000
Class
1070
     4
1000
SPZ,SYM
1002
{
1002
}
1000
Color
1070
     1
1070
   256
1002
{
1002
}
1000
LType
1070
     4
1000
BYLAYER
1002
{
1002
}
1002
}
1000
BOR7
1070
     9
1000
RAHM5
1002
{
1000
Class
1070
     4
1000
SPZ,SYM
1002
{
1002
}
1000
Color
1070
     1
1070
     7
1002
{
1002
}
1000
LType
1070
     4
1000
CONTINUOUS
1002
{
1002
}
1002
}
1000
BPAP
1070
     9
1000
4A
1002
{
1000
Class
1070
     4
1000

1002
{
1002
}
1000
Color
1070
     1
1070
   256
1002
{
1002
}
1000
LType
1070
     4
1000
BYLAYER
1002
{
1002
}
1002
}
1000
BPEX
1070
     9
1000
4A
1002
{
1000
Class
1070
     4
1000

1002
{
1002
}
1000
Color
1070
     1
1070
   256
1002
{
1002
}
1000
LType
1070
     4
1000
BYLAYER
1002
{
1002
}
1002
}
1000
BTDI
1070
     9
1000
5
1002
{
1000
Class
1070
     4
1000
DIM,SYM
1002
{
1002
}
1000
Color
1070
     1
1070
   256
1002
{
1002
}
1000
LType
1070
     4
1000
BYLAYER
1002
{
1002
}
1002
}
1000
CAL2
1070
     9
1000
4
1002
{
1000
Class
1070
     4
1000
SYM
1002
{
1002
}
1000
Color
1070
     1
1070
   256
1002
{
1002
}
1000
LType
1070
     4
1000
BYLAYER
1002
{
1002
}
1002
}
1000
CAL3
1070
     9
1000
4
1002
{
1000
Class
1070
     4
1000
SYM
1002
{
1002
}
1000
Color
1070
     1
1070
     2
1002
{
1002
}
1000
LType
1070
     4
1000
BYLAYER
1002
{
1002
}
1002
}
1000
CAL5
1070
     9
1000
4
1002
{
1000
Class
1070
     4
1000
SYM
1002
{
1002
}
1000
Color
1070
     1
1070
     7
1002
{
1002
}
1000
LType
1070
     4
1000
BYLAYER
1002
{
1002
}
1002
}
1000
CAL7
1070
     9
1000
4
1002
{
1000
Class
1070
     4
1000
SYM
1002
{
1002
}
1000
Color
1070
     1
1070
     5
1002
{
1002
}
1000
LType
1070
     4
1000
BYLAYER
1002
{
1002
}
1002
}
1000
CENN
1070
     9
1000
7A
1002
{
1000
Class
1070
     4
1000
CEN
1002
{
1002
}
1000
Color
1070
     1
1070
   256
1002
{
1002
}
1000
LType
1070
     4
1000
BYLAYER
1002
{
1002
}
1002
}
1000
CENW
1070
     9
1000
7
1002
{
1000
Class
1070
     4
1000
CEN
1002
{
1002
}
1000
Color
1070
     1
1070
   256
1002
{
1002
}
1000
LType
1070
     4
1000
BYLAYER
1002
{
1002
}
1002
}
1000
CLIN
1070
     9
1000
KLIN
1002
{
1000
Class
1070
     4
1000
SPZ
1002
{
1002
}
1000
Color
1070
     1
1070
   256
1002
{
1002
}
1000
LType
1070
     4
1000
BYLAYER
1002
{
1002
}
1002
}
1000
CON1
1070
     9
1000
0
1002
{
1000
Class
1070
     4
1000
CON,BGD
1002
{
1002
}
1000
Color
1070
     1
1070
   256
1002
{
1002
}
1000
LType
1070
     4
1000
BYLAYER
1002
{
1002
}
1002
}
1000
CON2
1070
     9
1000
1
1002
{
1000
Class
1070
     4
1000
CON,BGD
1002
{
1002
}
1000
Color
1070
     1
1070
   256
1002
{
1002
}
1000
LType
1070
     4
1000
BYLAYER
1002
{
1002
}
1002
}
1000
CON3
1070
     9
1000
2
1002
{
1000
Class
1070
     4
1000
CON,BGD
1002
{
1002
}
1000
Color
1070
     1
1070
   256
1002
{
1002
}
1000
LType
1070
     4
1000
BYLAYER
1002
{
1002
}
1002
}
1000
CON4
1070
     9
1000
2
1002
{
1000
Class
1070
     4
1000
CON,BGD
1002
{
1002
}
1000
Color
1070
     1
1070
   256
1002
{
1002
}
1000
LType
1070
     4
1000
BYLAYER
1002
{
1002
}
1002
}
1000
DERP
1070
     9
1000
4
1002
{
1000
Class
1070
     4
1000

1002
{
1002
}
1000
Color
1070
     1
1070
   256
1002
{
1002
}
1000
LType
1070
     4
1000
BYLAYER
1002
{
1002
}
1002
}
1000
DETA
1070
     9
1000
4
1002
{
1000
Class
1070
     4
1000

1002
{
1002
}
1000
Color
1070
     1
1070
   256
1002
{
1002
}
1000
LType
1070
     4
1000
BYLAYER
1002
{
1002
}
1002
}
1000
DIAG
1070
     9
1000
5
1002
{
1000
Class
1070
     4
1000
SYM
1002
{
1002
}
1000
Color
1070
     1
1070
   256
1002
{
1002
}
1000
LType
1070
     4
1000
BYLAYER
1002
{
1002
}
1002
}
1000
DILI
1070
     9
1000
5
1002
{
1000
Class
1070
     4
1000
DIM,SYM
1002
{
1002
}
1000
Color
1070
     1
1070
   256
1002
{
1002
}
1000
LType
1070
     4
1000
BYLAYER
1002
{
1002
}
1002
}
1000
DITX
1070
     9
1000
5
1002
{
1000
Class
1070
     4
1000
DIM,SYM
1002
{
1002
}
1000
Color
1070
     1
1070
     2
1002
{
1002
}
1000
LType
1070
     4
1000
CONTINUOUS
1002
{
1002
}
1002
}
1000
DITO2
1070
     9
1000
5
1002
{
1000
Class
1070
     4
1000
DIM,SYM
1002
{
1002
}
1000
Color
1070
     1
1070
     3
1002
{
1002
}
1000
LType
1070
     4
1000
BYLAYER
1002
{
1002
}
1002
}
1000
DITO3
1070
     9
1000
5
1002
{
1000
Class
1070
     4
1000
DIM,SYM
1002
{
1002
}
1000
Color
1070
     1
1070
     2
1002
{
1002
}
1000
LType
1070
     4
1000
BYLAYER
1002
{
1002
}
1002
}
1000
DIXL
1070
     9
1000
5
1002
{
1000
Class
1070
     4
1000
DIM,SYM
1002
{
1002
}
1000
Color
1070
     1
1070
   256
1002
{
1002
}
1000
LType
1070
     4
1000
BYLAYER
1002
{
1002
}
1002
}
1000
EXMP
1070
     9
1000
4A
1002
{
1000
Class
1070
     4
1000

1002
{
1002
}
1000
Color
1070
     1
1070
   256
1002
{
1002
}
1000
LType
1070
     4
1000
BYLAYER
1002
{
1002
}
1002
}
1000
FEMN
1070
     9
1000
8
1002
{
1000
Class
1070
     4
1000

1002
{
1002
}
1000
Color
1070
     1
1070
   256
1002
{
1002
}
1000
LType
1070
     4
1000
BYLAYER
1002
{
1002
}
1002
}
1000
FEMPN
1070
     9
1000
8
1002
{
1000
Class
1070
     4
1000
SYM
1002
{
1002
}
1000
Color
1070
     1
1070
     3
1002
{
1002
}
1000
LType
1070
     4
1000
BYLAYER
1002
{
1002
}
1002
}
1000
FEMSP
1070
     9
1000
4A
1002
{
1000
Class
1070
     4
1000

1002
{
1002
}
1000
Color
1070
     1
1070
   256
1002
{
1002
}
1000
LType
1070
     4
1000
CONTINUOUS
1002
{
1002
}
1002
}
1000
FEMST
1070
     9
1000
4A
1002
{
1000
Class
1070
     4
1000
SYM
1002
{
1002
}
1000
Color
1070
     1
1070
     3
1002
{
1002
}
1000
LType
1070
     4
1000
BYLAYER
1002
{
1002
}
1002
}
1000
FEMVN
1070
     9
1000
2
1002
{
1000
Class
1070
     4
1000
CON
1002
{
1002
}
1000
Color
1070
     1
1070
   256
1002
{
1002
}
1000
LType
1070
     4
1000
BYLAYER
1002
{
1002
}
1002
}
1000
FEMVT
1070
     9
1000
2
1002
{
1000
Class
1070
     4
1000
SYM
1002
{
1002
}
1000
Color
1070
     1
1070
     3
1002
{
1002
}
1000
LType
1070
     4
1000
BYLAYER
1002
{
1002
}
1002
}
1000
FLAT
1070
     9
1000
0
1002
{
1000
Class
1070
     4
1000

1002
{
1002
}
1000
Color
1070
     1
1070
   256
1002
{
1002
}
1000
LType
1070
     4
1000
BYLAYER
1002
{
1002
}
1002
}
1000
FRAR
1070
     9
1000
4A
1002
{
1000
Class
1070
     4
1000

1002
{
1002
}
1000
Color
1070
     1
1070
   256
1002
{
1002
}
1000
LType
1070
     4
1000
BYLAYER
1002
{
1002
}
1002
}
1000
GRLI
1070
     9
1000
5
1002
{
1000
Class
1070
     4
1000
SYM
1002
{
1002
}
1000
Color
1070
     1
1070
   256
1002
{
1002
}
1000
LType
1070
     4
1000
BYLAYER
1002
{
1002
}
1002
}
1000
GVLI
1070
     9
1000
4A
1002
{
1000
Class
1070
     4
1000

1002
{
1002
}
1000
Color
1070
     1
1070
   256
1002
{
1002
}
1000
LType
1070
     4
1000
BYLAYER
1002
{
1002
}
1002
}
1000
HATC
1070
     9
1000
8
1002
{
1000
Class
1070
     4
1000
HTC,BGD
1002
{
1002
}
1000
Color
1070
     1
1070
   256
1002
{
1002
}
1000
LType
1070
     4
1000
BYLAYER
1002
{
1002
}
1002
}
1000
HIDN
1070
     9
1000
3A
1002
{
1000
Class
1070
     4
1000
HID,BGD
1002
{
1002
}
1000
Color
1070
     1
1070
   256
1002
{
1002
}
1000
LType
1070
     4
1000
BYLAYER
1002
{
1002
}
1002
}
1000
HIDW
1070
     9
1000
3
1002
{
1000
Class
1070
     4
1000
HID,BGD
1002
{
1002
}
1000
Color
1070
     1
1070
   256
1002
{
1002
}
1000
LType
1070
     4
1000
BYLAYER
1002
{
1002
}
1002
}
1000
HLIN
1070
     9
1000
4
1002
{
1000
Class
1070
     4
1000
BGD
1002
{
1002
}
1000
Color
1070
     1
1070
   256
1002
{
1002
}
1000
LType
1070
     4
1000
BYLAYER
1002
{
1002
}
1002
}
1000
HOCN
1070
     9
1000
7A
1002
{
1000
Class
1070
     4
1000
CEN
1002
{
1002
}
1000
Color
1070
     1
1070
   256
1002
{
1002
}
1000
LType
1070
     4
1000
BYLAYER
1002
{
1002
}
1002
}
1000
HOCW
1070
     9
1000
7
1002
{
1000
Class
1070
     4
1000
CEN
1002
{
1002
}
1000
Color
1070
     1
1070
   256
1002
{
1002
}
1000
LType
1070
     4
1000
BYLAYER
1002
{
1002
}
1002
}
1000
INFO
1070
     9
1000
INFO
1002
{
1000
Class
1070
     4
1000
SPZ,SYM
1002
{
1002
}
1000
Color
1070
     1
1070
   256
1002
{
1002
}
1000
LType
1070
     4
1000
BYLAYER
1002
{
1002
}
1002
}
1000
LADI
1070
     9
1000
4
1002
{
1000
Class
1070
     4
1000
BGD
1002
{
1002
}
1000
Color
1070
     1
1070
   256
1002
{
1002
}
1000
LType
1070
     4
1000
BYLAYER
1002
{
1002
}
1002
}
1000
LEAD
1070
     9
1000
5
1002
{
1000
Class
1070
     4
1000
SYM
1002
{
1002
}
1000
Color
1070
     1
1070
   256
1002
{
1002
}
1000
LType
1070
     4
1000
BYLAYER
1002
{
1002
}
1002
}
1000
N_BHNV
1070
     9
1000
9N
1002
{
1000
Class
1070
     4
1000
INV
1002
{
1002
}
1000
Color
1070
     1
1070
   256
1002
{
1002
}
1000
LType
1070
     4
1000
BYLAYER
1002
{
1002
}
1002
}
1000
N_CON1
1070
     9
1000
0N
1002
{
1000
Class
1070
     4
1000
CON,BGD
1002
{
1002
}
1000
Color
1070
     1
1070
   256
1002
{
1002
}
1000
LType
1070
     4
1000
BYLAYER
1002
{
1002
}
1002
}
1000
N_CON2
1070
     9
1000
1N
1002
{
1000
Class
1070
     4
1000
CON,BGD
1002
{
1002
}
1000
Color
1070
     1
1070
   256
1002
{
1002
}
1000
LType
1070
     4
1000
BYLAYER
1002
{
1002
}
1002
}
1000
N_CON3
1070
     9
1000
2N
1002
{
1000
Class
1070
     4
1000
CON,BGD
1002
{
1002
}
1000
Color
1070
     1
1070
   256
1002
{
1002
}
1000
LType
1070
     4
1000
BYLAYER
1002
{
1002
}
1002
}
1000
N_CON4
1070
     9
1000
2N
1002
{
1000
Class
1070
     4
1000
CON,BGD
1002
{
1002
}
1000
Color
1070
     1
1070
   256
1002
{
1002
}
1000
LType
1070
     4
1000
BYLAYER
1002
{
1002
}
1002
}
1000
N_CENN
1070
     9
1000
7AN
1002
{
1000
Class
1070
     4
1000
CEN
1002
{
1002
}
1000
Color
1070
     1
1070
   256
1002
{
1002
}
1000
LType
1070
     4
1000
BYLAYER
1002
{
1002
}
1002
}
1000
N_CENW
1070
     9
1000
7N
1002
{
1000
Class
1070
     4
1000
CEN
1002
{
1002
}
1000
Color
1070
     1
1070
   256
1002
{
1002
}
1000
LType
1070
     4
1000
BYLAYER
1002
{
1002
}
1002
}
1000
N_DILI
1070
     9
1000
5N
1002
{
1000
Class
1070
     4
1000
DIM,SYM
1002
{
1002
}
1000
Color
1070
     1
1070
   256
1002
{
1002
}
1000
LType
1070
     4
1000
BYLAYER
1002
{
1002
}
1002
}
1000
N_DITX
1070
     9
1000
5N
1002
{
1000
Class
1070
     4
1000
DIM,SYM
1002
{
1002
}
1000
Color
1070
     1
1070
     2
1002
{
1002
}
1000
LType
1070
     4
1000
CONTINUOUS
1002
{
1002
}
1002
}
1000
N_DIXL
1070
     9
1000
5N
1002
{
1000
Class
1070
     4
1000
DIM,SYM
1002
{
1002
}
1000
Color
1070
     1
1070
   256
1002
{
1002
}
1000
LType
1070
     4
1000
BYLAYER
1002
{
1002
}
1002
}
1000
N_HATC
1070
     9
1000
8N
1002
{
1000
Class
1070
     4
1000
HTC,BGD
1002
{
1002
}
1000
Color
1070
     1
1070
   256
1002
{
1002
}
1000
LType
1070
     4
1000
BYLAYER
1002
{
1002
}
1002
}
1000
N_HIDN
1070
     9
1000
3AN
1002
{
1000
Class
1070
     4
1000
HID,BGD
1002
{
1002
}
1000
Color
1070
     1
1070
   256
1002
{
1002
}
1000
LType
1070
     4
1000
BYLAYER
1002
{
1002
}
1002
}
1000
N_HIDW
1070
     9
1000
3N
1002
{
1000
Class
1070
     4
1000
HID,BGD
1002
{
1002
}
1000
Color
1070
     1
1070
   256
1002
{
1002
}
1000
LType
1070
     4
1000
BYLAYER
1002
{
1002
}
1002
}
1000
N_PHAN
1070
     9
1000
4AN
1002
{
1000
Class
1070
     4
1000

1002
{
1002
}
1000
Color
1070
     1
1070
   256
1002
{
1002
}
1000
LType
1070
     4
1000
BYLAYER
1002
{
1002
}
1002
}
1000
N_POSL
1070
     9
1000
5N
1002
{
1000
Class
1070
     4
1000
SYM
1002
{
1002
}
1000
Color
1070
     1
1070
   256
1002
{
1002
}
1000
LType
1070
     4
1000
BYLAYER
1002
{
1002
}
1002
}
1000
N_TCON
1070
     9
1000
0N
1002
{
1000
Class
1070
     4
1000
CON,BGD
1002
{
1002
}
1000
Color
1070
     1
1070
   256
1002
{
1002
}
1000
LType
1070
     4
1000
BYLAYER
1002
{
1002
}
1002
}
1000
N_THLI
1070
     9
1000
4N
1002
{
1000
Class
1070
     4
1000
BGD
1002
{
1002
}
1000
Color
1070
     1
1070
   256
1002
{
1002
}
1000
LType
1070
     4
1000
BYLAYER
1002
{
1002
}
1002
}
1000
N_TLEN
1070
     9
1000
0N
1002
{
1000
Class
1070
     4
1000
CON,BGD
1002
{
1002
}
1000
Color
1070
     1
1070
   256
1002
{
1002
}
1000
LType
1070
     4
1000
BYLAYER
1002
{
1002
}
1002
}
1000
N_TXT3
1070
     9
1000
6N
1002
{
1000
Class
1070
     4
1000
SYM
1002
{
1002
}
1000
Color
1070
     1
1070
   256
1002
{
1002
}
1000
LType
1070
     4
1000
BYLAYER
1002
{
1002
}
1002
}
1000
N_VPLI
1070
     9
1000
2AN
1002
{
1000
Class
1070
     4
1000

1002
{
1002
}
1000
Color
1070
     1
1070
   256
1002
{
1002
}
1000
LType
1070
     4
1000
BYLAYER
1002
{
1002
}
1002
}
1000
PAL2
1070
     9
1000
RAHM2
1002
{
1000
Class
1070
     4
1000
SPZ,SYM
1002
{
1002
}
1000
Color
1070
     1
1070
   256
1002
{
1002
}
1000
LType
1070
     4
1000
BYLAYER
1002
{
1002
}
1002
}
1000
PAL3
1070
     9
1000
RAHM3
1002
{
1000
Class
1070
     4
1000
SPZ,SYM
1002
{
1002
}
1000
Color
1070
     1
1070
   256
1002
{
1002
}
1000
LType
1070
     4
1000
BYLAYER
1002
{
1002
}
1002
}
1000
PAL5
1070
     9
1000
RAHM5
1002
{
1000
Class
1070
     4
1000
SPZ,SYM
1002
{
1002
}
1000
Color
1070
     1
1070
   256
1002
{
1002
}
1000
LType
1070
     4
1000
BYLAYER
1002
{
1002
}
1002
}
1000
PAL7
1070
     9
1000
RAHM5
1002
{
1000
Class
1070
     4
1000
SPZ,SYM
1002
{
1002
}
1000
Color
1070
     1
1070
     7
1002
{
1002
}
1000
LType
1070
     4
1000
CONTINUOUS
1002
{
1002
}
1002
}
1000
PHAN
1070
     9
1000
4A
1002
{
1000
Class
1070
     4
1000

1002
{
1002
}
1000
Color
1070
     1
1070
   256
1002
{
1002
}
1000
LType
1070
     4
1000
BYLAYER
1002
{
1002
}
1002
}
1000
POSL
1070
     9
1000
5
1002
{
1000
Class
1070
     4
1000
SYM
1002
{
1002
}
1000
Color
1070
     1
1070
   256
1002
{
1002
}
1000
LType
1070
     4
1000
BYLAYER
1002
{
1002
}
1002
}
1000
POSN
1070
     9
1000
6
1002
{
1000
Class
1070
     4
1000
SYM
1002
{
1002
}
1000
Color
1070
     1
1070
     7
1002
{
1002
}
1000
LType
1070
     4
1000
BYLAYER
1002
{
1002
}
1002
}
1000
POSREF
1070
     9
1000
6
1002
{
1000
Class
1070
     4
1000
SYM
1002
{
1002
}
1000
Color
1070
     1
1070
     5
1002
{
1002
}
1000
LType
1070
     4
1000
BYLAYER
1002
{
1002
}
1002
}
1000
POSX
1070
     9
1000
5
1002
{
1000
Class
1070
     4
1000
SYM
1002
{
1002
}
1000
Color
1070
     1
1070
     2
1002
{
1002
}
1000
LType
1070
     4
1000
CONTINUOUS
1002
{
1002
}
1002
}
1000
PSEC
1070
     9
1000
4A
1002
{
1000
Class
1070
     4
1000

1002
{
1002
}
1000
Color
1070
     1
1070
   256
1002
{
1002
}
1000
LType
1070
     4
1000
BYLAYER
1002
{
1002
}
1002
}
1000
RCGN
1070
     9
1000
7A
1002
{
1000
Class
1070
     4
1000
CEN
1002
{
1002
}
1000
Color
1070
     1
1070
   256
1002
{
1002
}
1000
LType
1070
     4
1000
BYLAYER
1002
{
1002
}
1002
}
1000
RCGW
1070
     9
1000
7
1002
{
1000
Class
1070
     4
1000
CEN
1002
{
1002
}
1000
Color
1070
     1
1070
   256
1002
{
1002
}
1000
LType
1070
     4
1000
BYLAYER
1002
{
1002
}
1002
}
1000
RFDI
1070
     9
1000
4
1002
{
1000
Class
1070
     4
1000
BGD
1002
{
1002
}
1000
Color
1070
     1
1070
   256
1002
{
1002
}
1000
LType
1070
     4
1000
BYLAYER
1002
{
1002
}
1002
}
1000
RQTR
1070
     9
1000
4
1002
{
1000
Class
1070
     4
1000

1002
{
1002
}
1000
Color
1070
     1
1070
     7
1002
{
1002
}
1000
LType
1070
     4
1000
GEN7A
1002
{
1002
}
1002
}
1000
RSBO
1070
     9
1000
4
1002
{
1000
Class
1070
     4
1000
BGD
1002
{
1002
}
1000
Color
1070
     1
1070
   256
1002
{
1002
}
1000
LType
1070
     4
1000
BYLAYER
1002
{
1002
}
1002
}
1000
SBRK
1070
     9
1000
4
1002
{
1000
Class
1070
     4
1000
BGD
1002
{
1002
}
1000
Color
1070
     1
1070
   256
1002
{
1002
}
1000
LType
1070
     4
1000
BYLAYER
1002
{
1002
}
1002
}
1000
SCEN
1070
     9
1000
7
1002
{
1000
Class
1070
     4
1000

1002
{
1002
}
1000
Color
1070
     1
1070
   256
1002
{
1002
}
1000
LType
1070
     4
1000
CONTINUOUS
1002
{
1002
}
1002
}
1000
SECT
1070
     9
1000
4
1002
{
1000
Class
1070
     4
1000
BGD
1002
{
1002
}
1000
Color
1070
     1
1070
   256
1002
{
1002
}
1000
LType
1070
     4
1000
BYLAYER
1002
{
1002
}
1002
}
1000
SELN
1070
     9
1000
7A
1002
{
1000
Class
1070
     4
1000

1002
{
1002
}
1000
Color
1070
     1
1070
   256
1002
{
1002
}
1000
LType
1070
     4
1000
BYLAYER
1002
{
1002
}
1002
}
1000
SELW
1070
     9
1000
7
1002
{
1000
Class
1070
     4
1000

1002
{
1002
}
1000
Color
1070
     1
1070
   256
1002
{
1002
}
1000
LType
1070
     4
1000
BYLAYER
1002
{
1002
}
1002
}
1000
SSYS
1070
     9
1000
0
1002
{
1000
Class
1070
     4
1000

1002
{
1002
}
1000
Color
1070
     1
1070
   256
1002
{
1002
}
1000
LType
1070
     4
1000
BYLAYER
1002
{
1002
}
1002
}
1000
STLI
1070
     9
1000
4
1002
{
1000
Class
1070
     4
1000

1002
{
1002
}
1000
Color
1070
     1
1070
     7
1002
{
1002
}
1000
LType
1070
     4
1000
GEN3A
1002
{
1002
}
1002
}
1000
SYB1
1070
     9
1000
5
1002
{
1000
Class
1070
     4
1000
SYM
1002
{
1002
}
1000
Color
1070
     1
1070
   256
1002
{
1002
}
1000
LType
1070
     4
1000
BYLAYER
1002
{
1002
}
1002
}
1000
SYB2
1070
     9
1000
5
1002
{
1000
Class
1070
     4
1000
SYM
1002
{
1002
}
1000
Color
1070
     1
1070
   256
1002
{
1002
}
1000
LType
1070
     4
1000
BYLAYER
1002
{
1002
}
1002
}
1000
SYB3
1070
     9
1000
6
1002
{
1000
Class
1070
     4
1000
SYM
1002
{
1002
}
1000
Color
1070
     1
1070
   256
1002
{
1002
}
1000
LType
1070
     4
1000
CONTINUOUS
1002
{
1002
}
1002
}
1000
SYB5
1070
     9
1000
5
1002
{
1000
Class
1070
     4
1000
SYM
1002
{
1002
}
1000
Color
1070
     1
1070
     7
1002
{
1002
}
1000
LType
1070
     4
1000
BYLAYER
1002
{
1002
}
1002
}
1000
SYMN
1070
     9
1000
7A
1002
{
1000
Class
1070
     4
1000
CEN
1002
{
1002
}
1000
Color
1070
     1
1070
   256
1002
{
1002
}
1000
LType
1070
     4
1000
BYLAYER
1002
{
1002
}
1002
}
1000
SYMW
1070
     9
1000
7
1002
{
1000
Class
1070
     4
1000
CEN
1002
{
1002
}
1000
Color
1070
     1
1070
   256
1002
{
1002
}
1000
LType
1070
     4
1000
BYLAYER
1002
{
1002
}
1002
}
1000
TCON
1070
     9
1000
0
1002
{
1000
Class
1070
     4
1000
CON,BGD
1002
{
1002
}
1000
Color
1070
     1
1070
   256
1002
{
1002
}
1000
LType
1070
     4
1000
BYLAYER
1002
{
1002
}
1002
}
1000
THLI
1070
     9
1000
4
1002
{
1000
Class
1070
     4
1000
BGD
1002
{
1002
}
1000
Color
1070
     1
1070
   256
1002
{
1002
}
1000
LType
1070
     4
1000
BYLAYER
1002
{
1002
}
1002
}
1000
TIT2
1070
     9
1000
RAHM2
1002
{
1000
Class
1070
     4
1000
SPZ,SYM
1002
{
1002
}
1000
Color
1070
     1
1070
   256
1002
{
1002
}
1000
LType
1070
     4
1000
BYLAYER
1002
{
1002
}
1002
}
1000
TIT3
1070
     9
1000
RAHM3
1002
{
1000
Class
1070
     4
1000
SPZ,SYM
1002
{
1002
}
1000
Color
1070
     1
1070
   256
1002
{
1002
}
1000
LType
1070
     4
1000
BYLAYER
1002
{
1002
}
1002
}
1000
TIT5
1070
     9
1000
RAHM5
1002
{
1000
Class
1070
     4
1000
SPZ,SYM
1002
{
1002
}
1000
Color
1070
     1
1070
   256
1002
{
1002
}
1000
LType
1070
     4
1000
BYLAYER
1002
{
1002
}
1002
}
1000
TIT7
1070
     9
1000
RAHM5
1002
{
1000
Class
1070
     4
1000
SPZ,SYM
1002
{
1002
}
1000
Color
1070
     1
1070
     7
1002
{
1002
}
1000
LType
1070
     4
1000
CONTINUOUS
1002
{
1002
}
1002
}
1000
TLEN
1070
     9
1000
0
1002
{
1000
Class
1070
     4
1000
CON,BGD
1002
{
1002
}
1000
Color
1070
     1
1070
   256
1002
{
1002
}
1000
LType
1070
     4
1000
BYLAYER
1002
{
1002
}
1002
}
1000
TRKN
1070
     9
1000
7A
1002
{
1000
Class
1070
     4
1000

1002
{
1002
}
1000
Color
1070
     1
1070
   256
1002
{
1002
}
1000
LType
1070
     4
1000
BYLAYER
1002
{
1002
}
1002
}
1000
TRKW
1070
     9
1000
7
1002
{
1000
Class
1070
     4
1000

1002
{
1002
}
1000
Color
1070
     1
1070
   256
1002
{
1002
}
1000
LType
1070
     4
1000
BYLAYER
1002
{
1002
}
1002
}
1000
TRLI
1070
     9
1000
4
1002
{
1000
Class
1070
     4
1000
BGD
1002
{
1002
}
1000
Color
1070
     1
1070
   256
1002
{
1002
}
1000
LType
1070
     4
1000
BYLAYER
1002
{
1002
}
1002
}
1000
TXT1
1070
     9
1000
6
1002
{
1000
Class
1070
     4
1000
SYM
1002
{
1002
}
1000
Color
1070
     1
1070
     2
1002
{
1002
}
1000
LType
1070
     4
1000
BYLAYER
1002
{
1002
}
1002
}
1000
TXT2
1070
     9
1000
6
1002
{
1000
Class
1070
     4
1000
SYM
1002
{
1002
}
1000
Color
1070
     1
1070
     2
1002
{
1002
}
1000
LType
1070
     4
1000
BYLAYER
1002
{
1002
}
1002
}
1000
TXT3
1070
     9
1000
6
1002
{
1000
Class
1070
     4
1000
SYM
1002
{
1002
}
1000
Color
1070
     1
1070
   256
1002
{
1002
}
1000
LType
1070
     4
1000
BYLAYER
1002
{
1002
}
1002
}
1000
TXT5
1070
     9
1000
6
1002
{
1000
Class
1070
     4
1000
SYM
1002
{
1002
}
1000
Color
1070
     1
1070
     7
1002
{
1002
}
1000
LType
1070
     4
1000
BYLAYER
1002
{
1002
}
1002
}
1000
TXT7
1070
     9
1000
6
1002
{
1000
Class
1070
     4
1000
SYM
1002
{
1002
}
1000
Color
1070
     1
1070
     7
1002
{
1002
}
1000
LType
1070
     4
1000
BYLAYER
1002
{
1002
}
1002
}
1000
VIEW
1070
     9
1000
VIEW
1002
{
1000
Class
1070
     4
1000
SPZ
1002
{
1002
}
1000
Color
1070
     1
1070
   256
1002
{
1002
}
1000
LType
1070
     4
1000
BYLAYER
1002
{
1002
}
1002
}
1000
VPLI
1070
     9
1000
2A
1002
{
1000
Class
1070
     4
1000

1002
{
1002
}
1000
Color
1070
     1
1070
   256
1002
{
1002
}
1000
LType
1070
     4
1000
BYLAYER
1002
{
1002
}
1002
}
1000
ZIZA
1070
     9
1000
4
1002
{
1000
Class
1070
     4
1000
BGD
1002
{
1002
}
1000
Color
1070
     1
1070
   256
1002
{
1002
}
1000
LType
1070
     4
1000
GENZIGZAG
1002
{
1002
}
1002
}
  0
APPID
  5
2D
100
AcDbSymbolTableRecord
100
AcDbRegAppTableRecord
  2
GENIUS_GENCFG3_13
 70
     0
1001
GENIUS_GENCFG_13
1071
862825278
1000
2D
1000
GEN@OSWIZ
1070
    12
1000
GenCfgObject
1000
GenCfgShort
1000
GenCfgReal
1000
GenCfgBool
1000
GenCfgString
1000
GenCfgDim
1000
GenCfgAttrInf
1000
GenCfgLaySection
1000
GenCfgLayer
1000
GenCfgEntSort
1000
GenCfgLType
1000
GenCfgFilter
1000
AngleStep
1070
     0
1002
{
1000
M
1070
     2
1040
10.0
1002
{
1002
}
1000
I
1070
     2
1040
0.4
1002
{
1002
}
1002
}
1000
AngleIncr
1070
     2
1040
45.0
1002
{
1002
}
1000
Filter
1070
     0
1002
{
1000
HATCH
1070
    11
1002
{
1000
EntityType
1070
     4
1000
LINE
1002
{
1002
}
1000
Layer
1070
     4
1000
8,8N,*-8,*-8N
1002
{
1002
}
1000
Linetype
1070
     4
1000
*
1002
{
1002
}
1000
Color
1070
     4
1000
*
1002
{
1002
}
1002
}
1000
SYMBOLS
1070
    11
1002
{
1000
EntityType
1070
     4
1000
*
1002
{
1002
}
1000
Layer
1070
     4
1000
[5-6],[5-6]N,*-[5-6],*-[5-6]N
1002
{
1002
}
1000
Linetype
1070
     4
1000
*
1002
{
1002
}
1000
Color
1070
     4
1000
*
1002
{
1002
}
1002
}
1000
FEM
1070
    11
1002
{
1000
EntityType
1070
     4
1000
*
1002
{
1002
}
1000
Layer
1070
     4
1000
4A,4AN,*-4A,*-4AN
1002
{
1002
}
1000
Linetype
1070
     4
1000
*
1002
{
1002
}
1000
Color
1070
     4
1000
*
1002
{
1002
}
1002
}
1002
}
1000
IconSize
1070
     2
1040
1.0
1002
{
1002
}
1000
SnapColor
1070
     1
1070
     3
1002
{
1002
}
  0
APPID
  5
2E
100
AcDbSymbolTableRecord
100
AcDbRegAppTableRecord
  2
GENIUS_GENCFG4_13
 70
     0
1001
GENIUS_GENCFG_13
1071
893408633
1000
2E
1000
GEN
1070
     9
1000
GenCfgObject
1000
GenCfgShort
1000
GenCfgReal
1000
GenCfgBool
1000
GenCfgString
1000
GenCfgDim
1000
GenCfgAttrInf
1000
GenCfgLaySection
1000
GenCfgLType
1000
Balloon
1070
     0
1002
{
1000
GenIF
1070
     1
1070
     0
1002
{
1002
}
1000
GenPosInc
1070
     1
1070
    10
1002
{
1002
}
1000
GenPosBlk
1070
     1
1070
     8
1002
{
1002
}
1000
GenPosVar
1070
     1
1070
     2
1002
{
1002
}
1000
GenZiCir
1070
     2
1040
1.5
1002
{
1002
}
1000
MaxCharForCenteredText
1070
     1
1070
    30
1002
{
1002
}
1000
Snap
1070
     0
1002
{
1000
ActivationRadius
1070
     2
1040
1.0
1002
{
1002
}
1000
M
1070
     0
1002
{
1000
SnapStepX
1070
     2
1040
20.0
1002
{
1002
}
1000
SnapStepY
1070
     2
1040
10.0
1002
{
1002
}
1002
}
1000
I
1070
     0
1002
{
1000
SnapStepX
1070
     2
1040
1.0
1002
{
1002
}
1000
SnapStepY
1070
     2
1040
0.5
1002
{
1002
}
1002
}
1002
}
1002
}
1000
Centerline
1070
     0
1002
{
1000
ScaleNot
1070
     3
1070
     1
1002
{
1002
}
1000
M
1070
     0
1002
{
1000
GenCenAng
1070
     4
1000
45|90|135
1002
{
1002
}
1000
GenCenDia
1070
     2
1040
10.0
1002
{
1002
}
1000
GenCenDias
1070
     4
1000
10|20|30
1002
{
1002
}
1000
GenCenDist
1070
     2
1040
3.0
1002
{
1002
}
1000
GenCenLen
1070
     2
1040
10.0
1002
{
1002
}
1000
GenCenOff
1070
     2
1040
10.0
1002
{
1002
}
1002
}
1000
I
1070
     0
1002
{
1000
GenCenAng
1070
     4
1000
45|90|135
1002
{
1002
}
1000
GenCenDia
1070
     2
1040
0.5
1002
{
1002
}
1000
GenCenDias
1070
     4
1000
0.5|1.0|1.5
1002
{
1002
}
1000
GenCenDist
1070
     2
1040
0.125
1002
{
1002
}
1000
GenCenLen
1070
     2
1040
0.5
1002
{
1002
}
1000
GenCenOff
1070
     2
1040
0.5
1002
{
1002
}
1002
}
1002
}
1000
CLine
1070
     0
1002
{
1000
CAngArray
1070
     4
1000
30|45|60
1002
{
1002
}
1000
Typ
1070
     4
1000
XLINE
1002
{
1002
}
1000
M
1070
     0
1002
{
1000
CLinArray
1070
     4
1000
60
1002
{
1002
}
1002
}
1000
I
1070
     0
1002
{
1000
CLinArray
1070
     4
1000
0.125|0.25|0.5
1002
{
1002
}
1002
}
1002
}
1000
Constraints
1070
     0
1002
{
1000
Color
1070
     0
1002
{
1000
Active_Frame
1070
     1
1070
     2
1002
{
1002
}
1000
Inactive_Frame
1070
     1
1070
     8
1002
{
1002
}
1002
}
1000
Debug
1070
     0
1002
{
1002
}
1000
Editor
1070
     0
1002
{
1002
}
1000
Frame
1070
     0
1002
{
1002
}
1000
Sys
1070
     0
1002
{
1002
}
1002
}
1000
Detail
1070
     0
1002
{
1002
}
1000
Dimension
1070
     5
1002
{
1000
DIMALT
1070
     1
1070
     0
1002
{
1002
}
1000
DIMALTD
1070
     1
1070
     2
1002
{
1002
}
1000
DIMALTTD
1070
     1
1070
     4
1002
{
1002
}
1000
DIMALTTZ
1070
     1
1070
     0
1002
{
1002
}
1000
DIMALTU
1070
     1
1070
     2
1002
{
1002
}
1000
DIMALTZ
1070
     1
1070
     0
1002
{
1002
}
1000
DIMAPOST
1070
     4
1000

1002
{
1002
}
1000
DIMAUNIT
1070
     1
1070
     0
1002
{
1002
}
1000
DIMBLK
1070
     4
1000

1002
{
1002
}
1000
DIMBLK1
1070
     4
1000

1002
{
1002
}
1000
DIMBLK2
1070
     4
1000

1002
{
1002
}
1000
DIMDLE
1070
     2
1040
0.0
1002
{
1002
}
1000
DIMFIT
1070
     1
1070
     3
1002
{
1002
}
1000
DIMJUST
1070
     1
1070
     0
1002
{
1002
}
1000
DIMLFAC
1070
     2
1040
1.0
1002
{
1002
}
1000
DIMLIM
1070
     1
1070
     0
1002
{
1002
}
1000
DIMPOST
1070
     4
1000
<>
1002
{
1002
}
1000
DIMRND
1070
     2
1040
0.0
1002
{
1002
}
1000
DIMSAH
1070
     1
1070
     0
1002
{
1002
}
1000
DIMSCALE
1070
     2
1040
1.0
1002
{
1002
}
1000
DIMSD1
1070
     1
1070
     0
1002
{
1002
}
1000
DIMSD2
1070
     1
1070
     0
1002
{
1002
}
1000
DIMSE1
1070
     1
1070
     0
1002
{
1002
}
1000
DIMSE2
1070
     1
1070
     0
1002
{
1002
}
1000
DIMSOXD
1070
     1
1070
     0
1002
{
1002
}
1000
DIMTAD
1070
     1
1070
     0
1002
{
1002
}
1000
DIMTFAC
1070
     2
1040
0.71
1002
{
1002
}
1000
DIMTIH
1070
     1
1070
     0
1002
{
1002
}
1000
DIMTIX
1070
     1
1070
     0
1002
{
1002
}
1000
DIMTM
1070
     2
1040
0.1
1002
{
1002
}
1000
DIMTOFL
1070
     1
1070
     0
1002
{
1002
}
1000
DIMTOH
1070
     1
1070
     0
1002
{
1002
}
1000
DIMTOL
1070
     1
1070
     0
1002
{
1002
}
1000
DIMTOLJ
1070
     1
1070
     1
1002
{
1002
}
1000
DIMTP
1070
     2
1040
0.1
1002
{
1002
}
1000
DIMTSZ
1070
     2
1040
0.0
1002
{
1002
}
1000
DIMTVP
1070
     2
1040
0.0
1002
{
1002
}
1000
DIMTXSTY
1070
     4
1000
STANDARD
1002
{
1002
}
1000
DIMTZIN
1070
     1
1070
     0
1002
{
1002
}
1000
DIMUNIT
1070
     1
1070
     2
1002
{
1002
}
1000
DIMUPT
1070
     1
1070
     0
1002
{
1002
}
1000
M
1070
     0
1002
{
1000
DIMALTF
1070
     2
1040
0.03937
1002
{
1002
}
1000
DIMASZ
1070
     2
1040
2.5
1002
{
1002
}
1000
DIMCEN
1070
     2
1040
0.0
1002
{
1002
}
1000
DIMDEC
1070
     1
1070
     2
1002
{
1002
}
1000
DIMDLI
1070
     2
1040
7.0
1002
{
1002
}
1000
DIMEXE
1070
     2
1040
1.0
1002
{
1002
}
1000
DIMEXO
1070
     2
1040
1.0
1002
{
1002
}
1000
DIMGAP
1070
     2
1040
0.6
1002
{
1002
}
1000
DIMTDEC
1070
     1
1070
     3
1002
{
1002
}
1000
DIMTXT
1070
     2
1040
3.5
1002
{
1002
}
1000
DIMZIN
1070
     1
1070
     8
1002
{
1002
}
1002
}
1000
I
1070
     0
1002
{
1000
DIMALTF
1070
     2
1040
25.4
1002
{
1002
}
1000
DIMASZ
1070
     2
1040
0.1
1002
{
1002
}
1000
DIMCEN
1070
     2
1040
0.0
1002
{
1002
}
1000
DIMDEC
1070
     1
1070
     4
1002
{
1002
}
1000
DIMDLI
1070
     2
1040
0.5
1002
{
1002
}
1000
DIMEXE
1070
     2
1040
0.1
1002
{
1002
}
1000
DIMEXO
1070
     2
1040
0.05
1002
{
1002
}
1000
DIMGAP
1070
     2
1040
0.06
1002
{
1002
}
1000
DIMTDEC
1070
     1
1070
     4
1002
{
1002
}
1000
DIMTXT
1070
     2
1040
0.12
1002
{
1002
}
1000
DIMZIN
1070
     1
1070
     7
1002
{
1002
}
1002
}
1000
GEN-ISO
1070
     5
1002
{
1000
NAME
1070
     4
1000
GEN-ISO
1002
{
1002
}
1000
DIMTAD
1070
     1
1070
     1
1002
{
1002
}
1000
DIMTOLJ
1070
     1
1070
     0
1002
{
1002
}
1000
DIMTOFL
1070
     1
1070
     1
1002
{
1002
}
1000
M
1070
     0
1002
{
1002
}
1000
I
1070
     0
1002
{
1002
}
1002
}
1000
GEN-ISO-POS
1070
     5
1002
{
1000
NAME
1070
     4
1000
GEN-ISO-POS
1002
{
1002
}
1000
DIMTOLJ
1070
     1
1070
     0
1002
{
1002
}
1000
M
1070
     0
1002
{
1000
DIMGAP
1070
     2
1040
1.5
1002
{
1002
}
1000
DIMTXT
1070
     2
1040
5.0
1002
{
1002
}
1000
DIMASZ
1070
     2
1040
2.5
1002
{
1002
}
1002
}
1000
I
1070
     0
1002
{
1000
DIMASZ
1070
     2
1040
0.1
1002
{
1002
}
1000
DIMGAP
1070
     2
1040
0.06
1002
{
1002
}
1000
DIMTXT
1070
     2
1040
0.2
1002
{
1002
}
1002
}
1000
DIMSCALE
1070
     2
1040
1.0
1002
{
1002
}
1000
DIMPOST
1070
     4
1000
<>
1002
{
1002
}
1002
}
1000
GEN-ISO-CIR
1070
     5
1002
{
1000
NAME
1070
     4
1000
GEN-ISO$3
1002
{
1002
}
1000
DIMFIT
1070
     1
1070
     0
1002
{
1002
}
1000
DIMTAD
1070
     1
1070
     1
1002
{
1002
}
1000
DIMTIH
1070
     1
1070
     0
1002
{
1002
}
1000
DIMTIX
1070
     1
1070
     0
1002
{
1002
}
1000
DIMTOH
1070
     1
1070
     1
1002
{
1002
}
1000
DIMTOLJ
1070
     1
1070
     0
1002
{
1002
}
1000
DIMTOFL
1070
     1
1070
     0
1002
{
1002
}
1000
DIMUPT
1070
     1
1070
     1
1002
{
1002
}
1000
M
1070
     0
1002
{
1002
}
1000
I
1070
     0
1002
{
1002
}
1000
DIMPOST
1070
     4
1000
<>
1002
{
1002
}
1002
}
1000
GEN-ISO-RAD
1070
     5
1002
{
1000
NAME
1070
     4
1000
GEN-ISO$4
1002
{
1002
}
1000
DIMFIT
1070
     1
1070
     0
1002
{
1002
}
1000
DIMTAD
1070
     1
1070
     1
1002
{
1002
}
1000
DIMTIH
1070
     1
1070
     0
1002
{
1002
}
1000
DIMTIX
1070
     1
1070
     0
1002
{
1002
}
1000
DIMTOH
1070
     1
1070
     1
1002
{
1002
}
1000
DIMTOLJ
1070
     1
1070
     0
1002
{
1002
}
1000
DIMTOFL
1070
     1
1070
     0
1002
{
1002
}
1000
DIMUPT
1070
     1
1070
     1
1002
{
1002
}
1000
M
1070
     0
1002
{
1002
}
1000
I
1070
     0
1002
{
1002
}
1002
}
1000
GEN-ISO-ORD
1070
     5
1002
{
1000
NAME
1070
     4
1000
GEN-ISO$6
1002
{
1002
}
1000
DIMTOLJ
1070
     1
1070
     0
1002
{
1002
}
1000
M
1070
     0
1002
{
1002
}
1000
I
1070
     0
1002
{
1002
}
1002
}
1000
GEN-ISO-AXE-F
1070
     5
1002
{
1000
NAME
1070
     4
1000
GEN-ISO-AXE-F
1002
{
1002
}
1000
DIMSE1
1070
     1
1070
     1
1002
{
1002
}
1000
DIMSE2
1070
     1
1070
     1
1002
{
1002
}
1000
DIMTAD
1070
     1
1070
     1
1002
{
1002
}
1000
DIMTOLJ
1070
     1
1070
     0
1002
{
1002
}
1000
DIMTOFL
1070
     1
1070
     1
1002
{
1002
}
1000
M
1070
     0
1002
{
1002
}
1000
I
1070
     0
1002
{
1002
}
1002
}
1000
GEN-ISO-AXE-H
1070
     5
1002
{
1000
DIMBLK1
1070
     4
1000
GENAXEH
1002
{
1002
}
1000
DIMLFAC
1070
     2
1040
2.0
1002
{
1002
}
1000
DIMSAH
1070
     1
1070
     1
1002
{
1002
}
1000
DIMSE1
1070
     1
1070
     1
1002
{
1002
}
1000
DIMSE2
1070
     1
1070
     1
1002
{
1002
}
1000
DIMTAD
1070
     1
1070
     1
1002
{
1002
}
1000
DIMTOLJ
1070
     1
1070
     0
1002
{
1002
}
1000
DIMTOFL
1070
     1
1070
     1
1002
{
1002
}
1000
M
1070
     0
1002
{
1002
}
1000
I
1070
     0
1002
{
1002
}
1002
}
1000
GEN-ANSI
1070
     5
1002
{
1000
NAME
1070
     4
1000
GEN-ANSI
1002
{
1002
}
1000
DIMTIH
1070
     1
1070
     1
1002
{
1002
}
1000
DIMTOH
1070
     1
1070
     1
1002
{
1002
}
1000
DIMTAD
1070
     1
1070
     0
1002
{
1002
}
1000
DIMTOLJ
1070
     1
1070
     1
1002
{
1002
}
1000
M
1070
     0
1002
{
1002
}
1000
I
1070
     0
1002
{
1002
}
1002
}
1000
GEN-ANSI-POS
1070
     5
1002
{
1000
NAME
1070
     4
1000
GEN-ANSI-POS
1002
{
1002
}
1000
DIMTOLJ
1070
     1
1070
     1
1002
{
1002
}
1000
M
1070
     0
1002
{
1000
DIMASZ
1070
     2
1040
2.5
1002
{
1002
}
1000
DIMGAP
1070
     2
1040
1.5
1002
{
1002
}
1000
DIMTXT
1070
     2
1040
5.0
1002
{
1002
}
1002
}
1000
I
1070
     0
1002
{
1000
DIMASZ
1070
     2
1040
0.1
1002
{
1002
}
1000
DIMGAP
1070
     2
1040
0.06
1002
{
1002
}
1000
DIMTXT
1070
     2
1040
0.2
1002
{
1002
}
1002
}
1002
}
1000
GEN-ANSI-CIR
1070
     5
1002
{
1000
NAME
1070
     4
1000
GEN-ANSI$3
1002
{
1002
}
1000
DIMFIT
1070
     1
1070
     0
1002
{
1002
}
1000
DIMTAD
1070
     1
1070
     0
1002
{
1002
}
1000
DIMTIH
1070
     1
1070
     1
1002
{
1002
}
1000
DIMTIX
1070
     1
1070
     0
1002
{
1002
}
1000
DIMTOFL
1070
     1
1070
     0
1002
{
1002
}
1000
DIMTOH
1070
     1
1070
     1
1002
{
1002
}
1000
DIMTOLJ
1070
     1
1070
     1
1002
{
1002
}
1000
DIMUPT
1070
     1
1070
     1
1002
{
1002
}
1000
M
1070
     0
1002
{
1002
}
1000
I
1070
     0
1002
{
1002
}
1002
}
1000
GEN-ANSI-RAD
1070
     5
1002
{
1000
NAME
1070
     4
1000
GEN-ANSI$4
1002
{
1002
}
1000
DIMFIT
1070
     1
1070
     0
1002
{
1002
}
1000
DIMTAD
1070
     1
1070
     0
1002
{
1002
}
1000
DIMTIH
1070
     1
1070
     1
1002
{
1002
}
1000
DIMTIX
1070
     1
1070
     0
1002
{
1002
}
1000
DIMTOFL
1070
     1
1070
     0
1002
{
1002
}
1000
DIMTOH
1070
     1
1070
     1
1002
{
1002
}
1000
DIMTOLJ
1070
     1
1070
     1
1002
{
1002
}
1000
DIMUPT
1070
     1
1070
     1
1002
{
1002
}
1000
M
1070
     0
1002
{
1002
}
1000
I
1070
     0
1002
{
1002
}
1002
}
1000
GEN-ANSI-ORD
1070
     5
1002
{
1000
NAME
1070
     4
1000
GEN-ANSI$6
1002
{
1002
}
1000
DIMTAD
1070
     1
1070
     0
1002
{
1002
}
1000
DIMTIH
1070
     1
1070
     1
1002
{
1002
}
1000
DIMTOH
1070
     1
1070
     1
1002
{
1002
}
1000
DIMTOLJ
1070
     1
1070
     1
1002
{
1002
}
1000
M
1070
     0
1002
{
1002
}
1000
I
1070
     0
1002
{
1002
}
1002
}
1000
GEN-ANSI-AXE-F
1070
     5
1002
{
1000
NAME
1070
     4
1000
GEN-ANSI-AXE-F
1002
{
1002
}
1000
DIMBLK1
1070
     4
1000
GENAXEH
1002
{
1002
}
1000
DIMSAH
1070
     1
1070
     1
1002
{
1002
}
1000
DIMSE1
1070
     1
1070
     1
1002
{
1002
}
1000
DIMSE2
1070
     1
1070
     1
1002
{
1002
}
1000
DIMTAD
1070
     1
1070
     0
1002
{
1002
}
1000
DIMTIH
1070
     1
1070
     1
1002
{
1002
}
1000
DIMTOH
1070
     1
1070
     1
1002
{
1002
}
1000
DIMTOLJ
1070
     1
1070
     1
1002
{
1002
}
1000
M
1070
     0
1002
{
1002
}
1000
I
1070
     0
1002
{
1002
}
1002
}
1000
GEN-ANSI-AXE-H
1070
     5
1002
{
1000
NAME
1070
     4
1000
GEN-ANSI-AXE-H
1002
{
1002
}
1000
DIMBLK1
1070
     4
1000
GENAXEH
1002
{
1002
}
1000
DIMLFAC
1070
     2
1040
2.0
1002
{
1002
}
1000
DIMSAH
1070
     1
1070
     1
1002
{
1002
}
1000
DIMSE1
1070
     1
1070
     1
1002
{
1002
}
1000
DIMSE2
1070
     1
1070
     1
1002
{
1002
}
1000
DIMTAD
1070
     1
1070
     0
1002
{
1002
}
1000
DIMTOFL
1070
     1
1070
     1
1002
{
1002
}
1000
DIMTOLJ
1070
     1
1070
     1
1002
{
1002
}
1000
M
1070
     0
1002
{
1002
}
1000
I
1070
     0
1002
{
1002
}
1002
}
1000
DIMZIN
1070
     1
1070
     8
1002
{
1002
}
1002
}
1000
DimSet
1070
     0
1002
{
1000
ChainSum
1070
     3
1070
     0
1002
{
1002
}
1000
DimDclTyp0
1070
     4
1000
dim23
1002
{
1002
}
1000
HorBra
1070
     3
1070
     0
1002
{
1002
}
1000
StrDia
1070
     4
1000
%%c<>
1002
{
1002
}
1000
StrRad
1070
     4
1000
R<>
1002
{
1002
}
1000
TextMinus
1070
     4
1000
<>
1002
{
1002
}
1000
TextPlus
1070
     4
1000
<>
1002
{
1002
}
1000
M
1070
     0
1002
{
1000
DimdliFirst
1070
     2
1040
10.0
1002
{
1002
}
1000
PointMakeDist
1070
     2
1040
10.0
1002
{
1002
}
1002
}
1000
I
1070
     0
1002
{
1000
DimdliFirst
1070
     2
1040
0.5
1002
{
1002
}
1000
PointMakeDist
1070
     2
1040
0.5
1002
{
1002
}
1002
}
1002
}
1000
Drawing
1070
     0
1002
{
1000
ChamferDimMode
1070
     1
1070
     2
1002
{
1002
}
1000
Gen_Fiso
1070
    -3
1040
1.0
1002
{
1002
}
1000
GenDimStil
1070
     4
1000
ISO
1002
{
1002
}
1000
GenDwgUScale
1070
     2
1040
1.0
1002
{
1002
}
1000
GenInch
1070
     4
1000
M
1002
{
1002
}
1000
GenPlotScale
1070
     4
1000
1:1
1002
{
1002
}
1000
Revisi
1070
     4
1000
0
1002
{
1002
}
1000
Version
1070
    -5
1000
13.1/May  9 1996
1002
{
1002
}
1000
Platform
1070
    -5
1000
WINNT
1002
{
1002
}
1002
}
1000
DwgVar
1070
     0
1002
{
1000
M
1070
     0
1002
{
1002
}
1000
I
1070
     0
1002
{
1002
}
1002
}
1000
Hatch
1070
     0
1002
{
1000
GenHtcFlag
1070
     3
1070
     0
1002
{
1002
}
1002
}
1000
Info_Pos
1070
     0
1002
{
1000
DescrText
1070
     4
1000
5,6,7,8
1002
{
1002
}
1000
Attrib
1070
     0
1002
{
1000
0
1070
     6
1002
{
1000
Prompt
1070
     4
1000
(genmsg gendwg 103)
1002
{
1002
}
1000
Value
1070
     4
1000

1002
{
1002
}
1000
EditFlag
1070
     1
1070
     0
1002
{
1002
}
1002
}
1000
1
1070
     6
1002
{
1000
Prompt
1070
     4
1000
(genmsg gendwg 31)
1002
{
1002
}
1000
Value
1070
     4
1000
1
1002
{
1002
}
1000
EditFlag
1070
     1
1070
     1
1002
{
1002
}
1002
}
1000
2
1070
     6
1002
{
1000
Prompt
1070
     4
1000
(genmsg gendwg 32)
1002
{
1002
}
1000
Value
1070
     4
1000
1
1002
{
1002
}
1000
EditFlag
1070
     1
1070
     1
1002
{
1002
}
1002
}
1000
3
1070
     6
1002
{
1000
Prompt
1070
     4
1000
(genmsg gendwg 33)
1002
{
1002
}
1000
Value
1070
     4
1000

1002
{
1002
}
1000
EditFlag
1070
     1
1070
     1
1002
{
1002
}
1002
}
1000
4
1070
     6
1002
{
1000
Prompt
1070
     4
1000
(genmsg gendwg 34)
1002
{
1002
}
1000
Value
1070
     4
1000

1002
{
1002
}
1000
EditFlag
1070
     1
1070
     1
1002
{
1002
}
1002
}
1000
5
1070
     6
1002
{
1000
Prompt
1070
     4
1000
(genmsg gendwg 35)
1002
{
1002
}
1000
Value
1070
     4
1000

1002
{
1002
}
1000
EditFlag
1070
     1
1070
     1
1002
{
1002
}
1002
}
1000
6
1070
     6
1002
{
1000
Prompt
1070
     4
1000
(genmsg gendwg 36)
1002
{
1002
}
1000
Value
1070
     4
1000

1002
{
1002
}
1000
EditFlag
1070
     1
1070
     1
1002
{
1002
}
1002
}
1000
7
1070
     6
1002
{
1000
Prompt
1070
     4
1000
(genmsg gendwg 37)
1002
{
1002
}
1000
Value
1070
     4
1000

1002
{
1002
}
1000
EditFlag
1070
     1
1070
     1
1002
{
1002
}
1002
}
1000
8
1070
     6
1002
{
1000
Prompt
1070
     4
1000
(genmsg gendwg 38)
1002
{
1002
}
1000
Value
1070
     4
1000

1002
{
1002
}
1000
EditFlag
1070
     1
1070
     1
1002
{
1002
}
1002
}
1000
9
1070
     6
1002
{
1000
Prompt
1070
     4
1000
(genmsg gendwg 39)
1002
{
1002
}
1000
Value
1070
     4
1000

1002
{
1002
}
1000
EditFlag
1070
     1
1070
     1
1002
{
1002
}
1002
}
1000
10
1070
     6
1002
{
1000
Prompt
1070
     4
1000
(genmsg gendwg 40)
1002
{
1002
}
1000
Value
1070
     4
1000

1002
{
1002
}
1000
EditFlag
1070
     1
1070
     1
1002
{
1002
}
1002
}
1000
11
1070
     6
1002
{
1000
Prompt
1070
     4
1000
(genmsg gendwg 41)
1002
{
1002
}
1000
Value
1070
     4
1000

1002
{
1002
}
1000
EditFlag
1070
     1
1070
     1
1002
{
1002
}
1002
}
1000
12
1070
     6
1002
{
1000
Prompt
1070
     4
1000
(genmsg gendwg 42)
1002
{
1002
}
1000
Value
1070
     4
1000

1002
{
1002
}
1000
EditFlag
1070
     1
1070
     1
1002
{
1002
}
1002
}
1000
13
1070
     6
1002
{
1000
Prompt
1070
     4
1000
(genmsg gendwg 43)
1002
{
1002
}
1000
Value
1070
     4
1000

1002
{
1002
}
1000
EditFlag
1070
     1
1070
     1
1002
{
1002
}
1002
}
1000
14
1070
     6
1002
{
1000
Prompt
1070
     4
1000
(genmsg gendwg 44)
1002
{
1002
}
1000
Value
1070
     4
1000

1002
{
1002
}
1000
EditFlag
1070
     1
1070
     1
1002
{
1002
}
1002
}
1000
15
1070
     6
1002
{
1000
Prompt
1070
     4
1000
(genmsg gendwg 45)
1002
{
1002
}
1000
Value
1070
     4
1000

1002
{
1002
}
1000
EditFlag
1070
     1
1070
     1
1002
{
1002
}
1002
}
1000
16
1070
     6
1002
{
1000
Prompt
1070
     4
1000
(genmsg gendwg 46)
1002
{
1002
}
1000
Value
1070
     4
1000

1002
{
1002
}
1000
EditFlag
1070
     1
1070
     1
1002
{
1002
}
1002
}
1000
17
1070
     6
1002
{
1000
Prompt
1070
     4
1000
(genmsg gendwg 47)
1002
{
1002
}
1000
Value
1070
     4
1000

1002
{
1002
}
1000
EditFlag
1070
     1
1070
     1
1002
{
1002
}
1002
}
1000
18
1070
     6
1002
{
1000
Prompt
1070
     4
1000
(genmsg gendwg 48)
1002
{
1002
}
1000
Value
1070
     4
1000

1002
{
1002
}
1000
EditFlag
1070
     1
1070
     1
1002
{
1002
}
1002
}
1000
19
1070
     6
1002
{
1000
Prompt
1070
     4
1000
(genmsg gendwg 99)
1002
{
1002
}
1000
Value
1070
     4
1000

1002
{
1002
}
1000
EditFlag
1070
     1
1070
     1
1002
{
1002
}
1002
}
1000
20
1070
     6
1002
{
1000
Prompt
1070
     4
1000
(genmsg gendwg 100)
1002
{
1002
}
1000
Value
1070
     4
1000

1002
{
1002
}
1000
EditFlag
1070
     1
1070
     1
1002
{
1002
}
1002
}
1000
21
1070
     6
1002
{
1000
Prompt
1070
     4
1000
(genmsg gendwg 101)
1002
{
1002
}
1000
Value
1070
     4
1000

1002
{
1002
}
1000
EditFlag
1070
     1
1070
     1
1002
{
1002
}
1002
}
1000
22
1070
     6
1002
{
1000
Prompt
1070
     4
1000
(genmsg gendwg 102)
1002
{
1002
}
1000
Value
1070
     4
1000

1002
{
1002
}
1000
EditFlag
1070
     1
1070
     1
1002
{
1002
}
1002
}
1000
23
1070
     6
1002
{
1000
Prompt
1070
     4
1000
(genmsg gendwg 30)
1002
{
1002
}
1000
Value
1070
     4
1000

1002
{
1002
}
1000
EditFlag
1070
     1
1070
     1
1002
{
1002
}
1002
}
1000
24
1070
     6
1002
{
1000
Prompt
1070
     4
1000
(genmsg gendwg 104)
1002
{
1002
}
1000
Value
1070
     4
1000

1002
{
1002
}
1000
EditFlag
1070
     1
1070
     1
1002
{
1002
}
1002
}
1002
}
1000
Xlate
1070
     0
1002
{
1000
>
1002
}
1002
}
1000
Layer
1070
     7
1002
{
1000
Defs
1070
     0
1002
{
1000
>
1002
}
1000
EntSort
1070
     0
1002
{
1000
>
1002
}
1000
Match
1070
     0
1002
{
1002
}
1000
Settings
1070
     0
1002
{
1000
FocGrNC
1070
     3
1070
     0
1002
{
1002
}
1000
FocGrLo
1070
     3
1070
     0
1002
{
1002
}
1000
FocLoNC
1070
     3
1070
     0
1002
{
1002
}
1000
FocusCol
1070
     1
1070
   253
1002
{
1002
}
1000
GenStdLG
1070
     4
1000

1002
{
1002
}
1000
LayMatch
1070
     3
1070
     0
1002
{
1002
}
1000
LgOff
1070
     3
1070
     0
1002
{
1002
}
1000
CurLG
1070
    -5
1000

1002
{
1002
}
1002
}
1002
}
1000
LType
1070
     0
1002
{
1000
GEN3
1070
     8
1000
genius.lin
1002
{
1002
}
1000
GEN7
1070
     8
1000
genius.lin
1002
{
1002
}
1000
GEN4A
1070
     8
1000
genius.lin
1002
{
1002
}
1000
GEN3A
1070
     8
1000
genius.lin
1002
{
1002
}
1000
GEN7A
1070
     8
1000
genius.lin
1002
{
1002
}
1000
GENZIGZAG
1070
     8
1000
genius.lin
1002
{
1002
}
1002
}
1000
Objecter
1070
     0
1002
{
1000
CreateGroups
1070
     3
1070
     0
1002
{
1002
}
1000
LaySwitch
1070
     3
1070
     1
1002
{
1002
}
1000
LastObj
1070
    -5
1000
B8C
1002
{
1002
}
1002
}
1000
OSWiz
1070
     0
1002
{
1000
>
1002
}
1000
PaList
1070
     0
1002
{
1000
AutoUpdatePartList
1070
     3
1070
     0
1002
{
1002
}
1000
ReadInfoPoint
1070
     3
1070
     0
1002
{
1002
}
1000
ReadPosNr
1070
     3
1070
     1
1002
{
1002
}
1000
RevStr
1070
     4
1000
0
1002
{
1002
}
1002
}
1000
Paper
1070
     0
1002
{
1002
}
1000
PartDB
1070
     0
1002
{
1000
GenDbOwner
1070
     4
1000

1002
{
1002
}
1002
}
1000
System
1070
     0
1002
{
1000
Menu
1070
     4
1000
GEV
1002
{
1002
}
1002
}
1000
Title
1070
     0
1002
{
1000
MakeView
1070
     1
1070
     2
1002
{
1002
}
1002
}
  0
APPID
  5
2F
100
AcDbSymbolTableRecord
100
AcDbRegAppTableRecord
  2
GENIUS_GEVCFG0_13
 70
     0
1001
GENIUS_GENCFG_13
1071
862825278
1000
2F
1000
GEV
1070
     1
1000
GenCfgObject
1000
System
1070
     0
1002
{
1002
}
1000
VED
1070
     0
1002
{
1002
}
  0
APPID
  5
33
100
AcDbSymbolTableRecord
100
AcDbRegAppTableRecord
  2
GENIUS_GEFCFG0_13
 70
     0
1001
GENIUS_GENCFG_13
1071
877355996
1000
33
1000
GEF
1070
     5
1000
GenCfgObject
1000
GenCfgString
1000
GenCfgReal
1000
GenCfgShort
1000
GenCfgBool
1000
System
1070
     0
1002
{
1002
}
1000
Prese
1070
     0
1002
{
1000
Funk
1070
     1
1000

1002
{
1002
}
1000
FunkDef
1070
     1
1000

1002
{
1002
}
1000
GefIso
1070
     1
1000
DIN
1002
{
1002
}
1002
}
1000
FEM
1070
     0
1002
{
1000
LayGroup
1070
     1
1000
FEM
1002
{
1002
}
1000
IncrCoef
1070
     2
1040
0.0
1002
{
1002
}
1002
}
1000
Shaft
1070
     0
1002
{
1000
Interrupt
1070
     3
1070
     0
1002
{
1002
}
1002
}
1000
PartDb
1070
     0
1002
{
1000
PartCreate
1070
     0
1002
{
1002
}
1002
}
1000
Symbol
1070
     0
1002
{
1000
WeldStyle
1070
     1
1000
ISO
1002
{
1002
}
1000
WeldSize
1070
     2
1040
1.0
1002
{
1002
}
1000
WeldFlag
1070
     4
1070
     1
1002
{
1002
}
1000
WeldOffset
1070
     4
1070
     1
1002
{
1002
}
1000
TolCType
1070
     1
1000
ISO
1002
{
1002
}
1000
TolCSize
1070
     2
1040
1.0
1002
{
1002
}
1000
STextureSize
1070
     2
1040
1.0
1002
{
1002
}
1000
SurfaceType
1070
     1
1000

1002
{
1002
}
1000
M
1070
     0
1002
{
1000
WeldWidth
1070
     2
1040
3.0
1002
{
1002
}
1002
}
1000
I
1070
     0
1002
{
1000
WeldWidth
1070
     2
1040
0.125
1002
{
1002
}
1002
}
1000
weldwidth
1070
     2
1040
5.0
1002
{
1002
}
1002
}
  0
APPID
  5
3C
100
AcDbSymbolTableRecord
100
AcDbRegAppTableRecord
  2
GENIUS_GENOENT_13
 70
     0
  0
APPID
  5
72
100
AcDbSymbolTableRecord
100
AcDbRegAppTableRecord
  2
GENIUS_GENINF13_13
 70
     0
  0
APPID
  5
73
100
AcDbSymbolTableRecord
100
AcDbRegAppTableRecord
  2
GENIUS_GENODEF_13
 70
     0
1001
GENIUS_GENOBJ_13
1070
     1
  0
APPID
  5
74
100
AcDbSymbolTableRecord
100
AcDbRegAppTableRecord
  2
GENIUS_GENOBJ-N-INFOPT_13
 70
     0
  0
APPID
  5
75
100
AcDbSymbolTableRecord
100
AcDbRegAppTableRecord
  2
GENIUS_GENOBJ_13
 70
     0
1001
GENIUS_GENODEF_13
1070
     1
1001
GENIUS_GENOLIS_13
1070
     1
1001
GENIUS_GENOREF_13
1070
     1
1001
GENIUS_GENOBJ-N-RSSYM_13
1070
     1
1001
GENIUS_GENSYMENT_13
1070
     1
1001
GENIUS_GENOBJ-NBEHI-BHF_13
1070
     0
1001
GENIUS_GENOBJ-NBEHI-BHB_13
1070
     0
1001
GENIUS_GENBH_13
1070
     1
1001
GENIUS_GENOBJ-F-PART_13
1070
     0
1001
GENIUS_GEFSTDP_13
1070
     0
1001
GENIUS_GENOENT_13
1070
     1
1070
     2
  0
APPID
  5
76
100
AcDbSymbolTableRecord
100
AcDbRegAppTableRecord
  2
GENIUS_GENOLIS_13
 70
     0
1001
GENIUS_GENOBJ_13
1070
     1
  0
APPID
  5
77
100
AcDbSymbolTableRecord
100
AcDbRegAppTableRecord
  2
GENIUS_GENOREF_13
 70
     0
1001
GENIUS_GENOBJ_13
1070
     1
  0
APPID
  5
78
100
AcDbSymbolTableRecord
100
AcDbRegAppTableRecord
  2
GENIUS_GENOBJ-N-RSSYM_13
 70
     0
1001
GENIUS_GENOBJ_13
1070
     1
  0
APPID
  5
79
100
AcDbSymbolTableRecord
100
AcDbRegAppTableRecord
  2
GENIUS_GENSYMENT_13
 70
     0
1001
GENIUS_GENOBJ_13
1070
     1
  0
APPID
  5
7A
100
AcDbSymbolTableRecord
100
AcDbRegAppTableRecord
  2
GENIUS_GENSCSYM_13
 70
     0
  0
APPID
  5
7B
100
AcDbSymbolTableRecord
100
AcDbRegAppTableRecord
  2
GENIUS_GENOBJ-N-CEN_13
 70
     0
  0
APPID
  5
7C
100
AcDbSymbolTableRecord
100
AcDbRegAppTableRecord
  2
GENIUS_GENOBJ-N-FIL_13
 70
     0
  0
APPID
  5
7D
100
AcDbSymbolTableRecord
100
AcDbRegAppTableRecord
  2
GENIUS_GENBH_13
 70
     0
1001
GENIUS_GENOBJ_13
1070
     1
  0
APPID
  5
7E
100
AcDbSymbolTableRecord
100
AcDbRegAppTableRecord
  2
GENIUS_GENOBJ-NBEHI-BHF_13
 70
     0
1001
GENIUS_GENOBJ_13
1070
     0
  0
APPID
  5
7F
100
AcDbSymbolTableRecord
100
AcDbRegAppTableRecord
  2
GENIUS_GENOBJ-NBEHI-BHB_13
 70
     0
1001
GENIUS_GENOBJ_13
1070
     0
  0
APPID
  5
80
100
AcDbSymbolTableRecord
100
AcDbRegAppTableRecord
  2
GENIUS_GENOBJ-F-PART_13
 70
     0
1001
GENIUS_GENOBJ_13
1070
     0
  0
APPID
  5
81
100
AcDbSymbolTableRecord
100
AcDbRegAppTableRecord
  2
GENIUS_GEFSTDP_13
 70
     0
1001
GENIUS_GENOBJ_13
1070
     0
  0
ENDTAB
  0
TABLE
  2
DIMSTYLE
  5
A
100
AcDbSymbolTable
 70
     1
  0
DIMSTYLE
105
1D
100
AcDbSymbolTableRecord
100
AcDbDimStyleTableRecord
  2
STANDARD
 70
     0
  3

  4

  5

  6

  7

 40
1.0
 41
0.18
 42
0.0625
 43
0.38
 44
0.18
 45
0.0
 46
0.0
 47
0.0
 48
0.0
140
0.18
141
0.09
142
0.0
143
25.4
144
1.0
145
0.0
146
1.0
147
0.09
 71
     0
 72
     0
 73
     1
 74
     1
 75
     0
 76
     0
 77
     0
 78
     0
170
     0
171
     2
172
     0
173
     0
174
     0
175
     0
176
     0
177
     0
178
     0
270
     2
271
     4
272
     4
273
     2
274
     2
340
10
275
     0
280
     0
281
     0
282
     0
283
     1
284
     0
285
     0
286
     0
287
     3
288
     0
  0
ENDTAB
  0
TABLE
  2
BLOCK_RECORD
  5
1
100
AcDbSymbolTable
 70
     2
  0
BLOCK_RECORD
  5
1A
100
AcDbSymbolTableRecord
100
AcDbBlockTableRecord
  2
*MODEL_SPACE
  0
BLOCK_RECORD
  5
17
100
AcDbSymbolTableRecord
100
AcDbBlockTableRecord
  2
*PAPER_SPACE
  0
BLOCK_RECORD
  5
43
100
AcDbSymbolTableRecord
100
AcDbBlockTableRecord
  2
GENINF13
  0
ENDTAB
  0
ENDSEC
  0
SECTION
  2
BLOCKS
  0
BLOCK
  5
1B
100
AcDbEntity
  8
0
100
AcDbBlockBegin
  2
*MODEL_SPACE
 70
     0
 10
0.0
 20
0.0
 30
0.0
  3
*MODEL_SPACE
  1

  0
ENDBLK
  5
1C
100
AcDbEntity
  8
0
100
AcDbBlockEnd
  0
BLOCK
  5
18
100
AcDbEntity
 67
     1
  8
0
100
AcDbBlockBegin
  2
*PAPER_SPACE
 70
     0
 10
0.0
 20
0.0
 30
0.0
  3
*PAPER_SPACE
  1

  0
ENDBLK
  5
19
100
AcDbEntity
 67
     1
  8
0
100
AcDbBlockEnd
  0
BLOCK
  5
68
100
AcDbEntity
  8
0
100
AcDbBlockBegin
  2
GENINF13
 70
    66
 10
0.0
 20
0.0
 30
0.0
  3
GENINF13
  1
GENINF13
  0
CIRCLE
  5
44
100
AcDbEntity
  8
INFO
100
AcDbCircle
 10
-0.107946
 20
1.312244
 30
0.0
 40
0.339067
  0
CIRCLE
  5
45
100
AcDbEntity
  8
INFO
100
AcDbCircle
 10
0.0
 20
0.0
 30
0.0
 40
1.920194
  0
LINE
  5
46
100
AcDbEntity
  8
INFO
100
AcDbLine
 10
0.411344
 20
0.70683
 30
0.0
 11
-0.700006
 21
0.70683
 31
0.0
  0
LINE
  5
47
100
AcDbEntity
  8
INFO
100
AcDbLine
 10
0.829904
 20
-1.341535
 30
0.0
 11
0.829904
 21
-0.555367
 31
0.0
  0
LINE
  5
48
100
AcDbEntity
  8
INFO
100
AcDbLine
 10
0.829904
 20
-0.555367
 30
0.0
 11
0.411344
 21
-0.555367
 31
0.0
  0
LINE
  5
49
100
AcDbEntity
  8
INFO
100
AcDbLine
 10
0.411344
 20
-0.555367
 30
0.0
 11
0.411344
 21
0.70683
 31
0.0
  0
LINE
  5
4A
100
AcDbEntity
  8
INFO
100
AcDbLine
 10
-0.700006
 20
0.70683
 30
0.0
 11
-0.700006
 21
0.122613
 31
0.0
  0
LINE
  5
4B
100
AcDbEntity
  8
INFO
100
AcDbLine
 10
-0.700006
 20
0.122613
 30
0.0
 11
-0.375261
 21
0.122613
 31
0.0
  0
LINE
  5
4C
100
AcDbEntity
  8
INFO
100
AcDbLine
 10
-0.375261
 20
0.122613
 30
0.0
 11
-0.375261
 21
-0.555367
 31
0.0
  0
LINE
  5
4D
100
AcDbEntity
  8
INFO
100
AcDbLine
 10
-0.375261
 20
-0.555367
 30
0.0
 11
-0.801038
 21
-0.555367
 31
0.0
  0
LINE
  5
4E
100
AcDbEntity
  8
INFO
100
AcDbLine
 10
-0.801038
 20
-0.555367
 30
0.0
 11
-0.801038
 21
-1.341535
 31
0.0
  0
LINE
  5
4F
100
AcDbEntity
  8
INFO
100
AcDbLine
 10
-0.801038
 20
-1.341535
 30
0.0
 11
0.829904
 21
-1.341535
 31
0.0
  0
ATTDEF
  5
50
100
AcDbEntity
  8
INFO
100
AcDbText
 10
0.0
 20
0.0
 30
0.0
 40
1.0
  1
1
100
AcDbAttributeDefinition
  3
Menge
  2
2GENINF
 70
     1
  0
ATTDEF
  5
51
100
AcDbEntity
  8
INFO
100
AcDbText
 10
0.0
 20
-1.5
 30
0.0
 40
1.0
  1

100
AcDbAttributeDefinition
  3
Stücklisten-Name
  2
3GENINF
 70
     1
  0
ATTDEF
  5
52
100
AcDbEntity
  8
INFO
100
AcDbText
 10
0.0
 20
-3.0
 30
0.0
 40
1.0
  1

100
AcDbAttributeDefinition
  3
Stücklisten-Pfad
  2
4GENINF
 70
     1
  0
ATTDEF
  5
53
100
AcDbEntity
  8
INFO
100
AcDbText
 10
0.0
 20
-4.5
 30
0.0
 40
1.0
  1

100
AcDbAttributeDefinition
  3
Beschreibung 1
  2
5GENINF
 70
     1
  0
ATTDEF
  5
54
100
AcDbEntity
  8
INFO
100
AcDbText
 10
0.0
 20
-6.0
 30
0.0
 40
1.0
  1

100
AcDbAttributeDefinition
  3
Beschreibung 2
  2
6GENINF
 70
     1
  0
ATTDEF
  5
55
100
AcDbEntity
  8
INFO
100
AcDbText
 10
0.0
 20
-7.5
 30
0.0
 40
1.0
  1

100
AcDbAttributeDefinition
  3
Norm/Lieferant 1
  2
7GENINF
 70
     1
  0
ATTDEF
  5
56
100
AcDbEntity
  8
INFO
100
AcDbText
 10
0.0
 20
-9.0
 30
0.0
 40
1.0
  1

100
AcDbAttributeDefinition
  3
Norm/Lieferant 2
  2
8GENINF
 70
     1
  0
ATTDEF
  5
57
100
AcDbEntity
  8
INFO
100
AcDbText
 10
0.0
 20
-10.5
 30
0.0
 40
1.0
  1

100
AcDbAttributeDefinition
  3
Material 1
  2
9GENINF
 70
     1
  0
ATTDEF
  5
58
100
AcDbEntity
  8
INFO
100
AcDbText
 10
0.0
 20
-12.0
 30
0.0
 40
1.0
  1

100
AcDbAttributeDefinition
  3
Material 2
  2
10GENINF
 70
     1
  0
ATTDEF
  5
59
100
AcDbEntity
  8
INFO
100
AcDbText
 10
0.0
 20
-13.5
 30
0.0
 40
1.0
  1

100
AcDbAttributeDefinition
  3
Identnummer
  2
11GENINF
 70
     1
  0
ATTDEF
  5
5A
100
AcDbEntity
  8
INFO
100
AcDbText
 10
0.0
 20
-15.0
 30
0.0
 40
1.0
  1

100
AcDbAttributeDefinition
  3
Gewicht
  2
12GENINF
 70
     1
  0
ATTDEF
  5
5B
100
AcDbEntity
  8
INFO
100
AcDbText
 10
0.0
 20
-16.5
 30
0.0
 40
1.0
  1

100
AcDbAttributeDefinition
  3
Preis
  2
13GENINF
 70
     1
  0
ATTDEF
  5
5C
100
AcDbEntity
  8
INFO
100
AcDbText
 10
0.0
 20
-18.0
 30
0.0
 40
1.0
  1

100
AcDbAttributeDefinition
  3
Abmessungen
  2
14GENINF
 70
     1
  0
ATTDEF
  5
5D
100
AcDbEntity
  8
INFO
100
AcDbText
 10
0.0
 20
-19.5
 30
0.0
 40
1.0
  1

100
AcDbAttributeDefinition
  3
User 1
  2
15GENINF
 70
     1
  0
ATTDEF
  5
5E
100
AcDbEntity
  8
INFO
100
AcDbText
 10
0.0
 20
-21.0
 30
0.0
 40
1.0
  1

100
AcDbAttributeDefinition
  3
User 2
  2
16GENINF
 70
     1
  0
ATTDEF
  5
5F
100
AcDbEntity
  8
INFO
100
AcDbText
 10
0.0
 20
-22.5
 30
0.0
 40
1.0
  1

100
AcDbAttributeDefinition
  3
User 3
  2
17GENINF
 70
     1
  0
ATTDEF
  5
60
100
AcDbEntity
  8
INFO
100
AcDbText
 10
0.0
 20
-24.0
 30
0.0
 40
1.0
  1

100
AcDbAttributeDefinition
  3
User 4
  2
18GENINF
 70
     1
  0
ATTDEF
  5
61
100
AcDbEntity
  8
INFO
100
AcDbText
 10
0.0
 20
-25.5
 30
0.0
 40
1.0
  1

100
AcDbAttributeDefinition
  3
User 5
  2
19GENINF
 70
     1
  0
ATTDEF
  5
62
100
AcDbEntity
  8
INFO
100
AcDbText
 10
0.0
 20
-27.0
 30
0.0
 40
1.0
  1

100
AcDbAttributeDefinition
  3
User 6
  2
20GENINF
 70
     1
  0
ATTDEF
  5
63
100
AcDbEntity
  8
INFO
100
AcDbText
 10
0.0
 20
-28.5
 30
0.0
 40
1.0
  1

100
AcDbAttributeDefinition
  3
User 7
  2
21GENINF
 70
     1
  0
ATTDEF
  5
64
100
AcDbEntity
  8
INFO
100
AcDbText
 10
0.0
 20
-30.0
 30
0.0
 40
1.0
  1

100
AcDbAttributeDefinition
  3
User 8
  2
22GENINF
 70
     1
  0
ATTDEF
  5
65
100
AcDbEntity
  8
INFO
100
AcDbText
 10
0.0
 20
-31.5
 30
0.0
 40
1.0
  1

100
AcDbAttributeDefinition
  3
Filter
  2
23GENINF
 70
     1
  0
ATTDEF
  5
66
100
AcDbEntity
  8
INFO
100
AcDbText
 10
0.0
 20
-33.0
 30
0.0
 40
1.0
  1

100
AcDbAttributeDefinition
  3
Bemerkung
  2
24GENINF
 70
     1
  0
ATTDEF
  5
67
100
AcDbEntity
  8
INFO
100
AcDbText
 10
0.0
 20
-34.5
 30
0.0
 40
1.0
  1

100
AcDbAttributeDefinition
  3
Genius Normteile ID
  2
0GENINF
 70
     1
  0
ENDBLK
  5
69
100
AcDbEntity
  8
0
100
AcDbBlockEnd
  0
ENDSEC
  0
SECTION
  2
ENTITIES
  0
LINE
  5
60B
100
AcDbEntity
  8
MSL5_300_3F-0
100
AcDbLine
 10
241.797534
 20
-253.245947
 30
0.0
 11
579.782286
 21
-253.245947
 31
0.0
  0
LINE
  5
60C
100
AcDbEntity
  8
MSL5_300_3F-0
100
AcDbLine
 10
243.746965
 20
-252.245876
 30
0.0
 11
579.282286
 21
-252.245876
 31
0.0
  0
LINE
  5
60D
100
AcDbEntity
  8
MSL5_300_3F-0
100
AcDbLine
 10
541.282286
 20
38.0
 30
0.0
 11
237.932286
 21
38.0
 31
0.0
  0
LINE
  5
60E
100
AcDbEntity
  8
MSL5_300_3F-4
100
AcDbLine
 10
579.282286
 20
67.830823
 30
0.0
 11
196.282286
 21
67.830823
 31
0.0
  0
LINE
  5
60F
100
AcDbEntity
  8
MSL5_300_3F-0
100
AcDbLine
 10
579.282286
 20
120.0
 30
0.0
 11
196.282286
 21
120.0
 31
0.0
  0
LINE
  5
610
100
AcDbEntity
  8
MSL5_300_3F-4
100
AcDbLine
 10
196.282286
 20
-166.035172
 30
0.0
 11
579.282286
 21
-166.035172
 31
0.0
  0
LINE
  5
611
100
AcDbEntity
  8
MSL5_300_3F-4
100
AcDbLine
 10
196.282286
 20
-190.456579
 30
0.0
 11
579.282286
 21
-190.456579
 31
0.0
  0
LINE
  5
612
100
AcDbEntity
  8
MSL5_300_3F-0
100
AcDbLine
 10
196.282286
 20
-104.245876
 30
0.0
 11
531.817786
 21
-104.245876
 31
0.0
  0
LINE
  5
613
100
AcDbEntity
  8
MSL5_300_3F-7
100
AcDbLine
 10
254.123046
 20
257.761134
 30
0.0
 11
520.21241
 21
257.761134
 31
0.0
  0
LINE
  5
614
100
AcDbEntity
  8
MSL5_300_3F-0
100
AcDbLine
 10
195.782286
 20
182.761134
 30
0.0
 11
579.782286
 21
182.761134
 31
0.0
  0
LINE
  5
615
100
AcDbEntity
  8
MSL5_300_3F-0
100
AcDbLine
 10
579.782286
 20
332.761134
 30
0.0
 11
195.782286
 21
332.761134
 31
0.0
  0
LINE
  5
616
100
AcDbEntity
  8
MSL5_300_3F-7
100
AcDbLine
 10
254.123046
 20
0.0
 30
0.0
 11
520.21241
 21
0.0
 31
0.0
  0
LINE
  5
617
100
AcDbEntity
  8
MSL5_300_3F-7
100
AcDbLine
 10
254.123046
 20
-178.245876
 30
0.0
 11
520.21241
 21
-178.245876
 31
0.0
  0
LINE
  5
618
100
AcDbEntity
  8
MSL5_300_3F-0
100
AcDbLine
 10
579.782286
 20
-38.0
 30
0.0
 11
195.782286
 21
-38.0
 31
0.0
  0
LINE
  5
619
100
AcDbEntity
  8
MSL5_300_3F-0
100
AcDbLine
 10
195.782286
 20
-103.245947
 30
0.0
 11
533.767038
 21
-103.245947
 31
0.0
  0
LINE
  5
61A
100
AcDbEntity
  8
MSL5_300_3F-0
100
AcDbLine
 10
195.782286
 20
38.0
 30
0.0
 11
579.782286
 21
38.0
 31
0.0
  0
LINE
  5
61B
100
AcDbEntity
  8
MSL5_300_3F-7
100
AcDbLine
 10
357.782286
 20
-208.245876
 30
0.0
 11
350.693405
 21
-208.245876
 31
0.0
  0
LINE
  5
61C
100
AcDbEntity
  8
MSL5_300_3F-7
100
AcDbLine
 10
357.782286
 20
-148.245876
 30
0.0
 11
350.642537
 21
-148.245876
 31
0.0
  0
LINE
  5
61D
100
AcDbEntity
  8
MSL5_300_3F-7
100
AcDbLine
 10
357.782286
 20
-30.0
 30
0.0
 11
350.693405
 21
-30.0
 31
0.0
  0
LINE
  5
61E
100
AcDbEntity
  8
MSL5_300_3F-7
100
AcDbLine
 10
357.782286
 20
30.0
 30
0.0
 11
350.642537
 21
30.0
 31
0.0
  0
LINE
  5
61F
100
AcDbEntity
  8
MSL5_300_3F-7
100
AcDbLine
 10
357.782286
 20
227.761134
 30
0.0
 11
350.693405
 21
227.761134
 31
0.0
  0
LINE
  5
620
100
AcDbEntity
  8
MSL5_300_3F-7
100
AcDbLine
 10
357.782286
 20
287.761134
 30
0.0
 11
350.642537
 21
287.761134
 31
0.0
  0
LINE
  5
621
100
AcDbEntity
  8
MSL5_300_3F-0
100
AcDbLine
 10
196.282286
 20
120.0
 30
0.0
 11
196.282286
 21
38.0
 31
0.0
  0
ARC
  5
622
100
AcDbEntity
  8
MSL5_300_3F-0
100
AcDbCircle
 10
-12.210704
 20
118.0
 30
0.0
 40
2.0
100
AcDbArc
 50
90.0
 51
130.0
1001
GENIUS_GENODEF_13
1002
{
1000
HIER
1070
     0
1002
}
1002
{
1000
MANEDIT
1070
     0
1002
}
1002
{
1000
NOSEL
1070
     0
1002
}
1002
{
1000
BEHIND
1070
     0
1002
}
1002
{
1000
REACTOR
1002
}
1001
GENIUS_GENOBJ-N-FIL_13
1002
{
1000
OWNER
1000
GEN
1002
}
  0
ARC
  5
623
100
AcDbEntity
  8
MSL5_300_3F-0
100
AcDbCircle
 10
12.210704
 20
118.0
 30
0.0
 40
2.0
100
AcDbArc
 50
50.0
 51
90.0
1001
GENIUS_GENODEF_13
1002
{
1000
HIER
1070
     0
1002
}
1002
{
1000
MANEDIT
1070
     0
1002
}
1002
{
1000
NOSEL
1070
     0
1002
}
1002
{
1000
BEHIND
1070
     0
1002
}
1002
{
1000
REACTOR
1002
}
1001
GENIUS_GENOBJ-N-FIL_13
1002
{
1000
OWNER
1000
GEN
1002
}
  0
LINE
  5
624
100
AcDbEntity
  8
MSL5_300_3F-0
100
AcDbLine
 10
12.552112
 20
119.0
 30
0.0
 11
75.0
 21
66.6
 31
0.0
1001
GENIUS_GENOREF_13
1005
B8C
  0
LINE
  5
625
100
AcDbEntity
  8
MSL5_300_3F-0
100
AcDbLine
 10
13.496279
 20
119.532089
 30
0.0
 11
73.285575
 21
69.362912
 31
0.0
  0
LINE
  5
626
100
AcDbEntity
  8
MSL5_300_3F-7
100
AcDbLine
 10
52.0
 20
0.0
 30
0.0
 11
37.494432
 21
0.0
 31
0.0
  0
LINE
  5
627
100
AcDbEntity
  8
MSL5_300_3F-3
100
AcDbLine
 10
-75.0
 20
-38.0
 30
0.0
 11
75.0
 21
-38.0
 31
0.0
  0
LINE
  5
628
100
AcDbEntity
  8
MSL5_300_3F-0
100
AcDbLine
 10
-75.0
 20
-39.0
 30
0.0
 11
75.0
 21
-39.0
 31
0.0
1001
GENIUS_GENOREF_13
1005
B8C
  0
LINE
  5
629
100
AcDbEntity
  8
MSL5_300_3F-3
100
AcDbLine
 10
-75.0
 20
38.0
 30
0.0
 11
75.0
 21
38.0
 31
0.0
  0
LINE
  5
62A
100
AcDbEntity
  8
MSL5_300_3F-7
100
AcDbLine
 10
46.582057
 20
-30.0
 30
0.0
 11
78.0
 21
-30.0
 31
0.0
  0
LINE
  5
62B
100
AcDbEntity
  8
MSL5_300_3F-3
100
AcDbLine
 10
48.0
 20
-13.582057
 30
0.0
 11
43.812
 21
-16.0
 31
0.0
  0
LINE
  5
62C
100
AcDbEntity
  8
MSL5_300_3F-3
100
AcDbLine
 10
48.0
 20
-13.582057
 30
0.0
 11
43.812
 21
-16.0
 31
0.0
  0
LINE
  5
62D
100
AcDbEntity
  8
MSL5_300_3F-3
100
AcDbLine
 10
43.0
 20
-22.0
 30
0.0
 11
53.0
 21
-22.0
 31
0.0
  0
LINE
  5
62E
100
AcDbEntity
  8
MSL5_300_3F-3
100
AcDbLine
 10
43.0
 20
-22.0
 30
0.0
 11
53.0
 21
-22.0
 31
0.0
  0
LINE
  5
62F
100
AcDbEntity
  8
MSL5_300_3F-3
100
AcDbLine
 10
43.812
 20
-16.0
 30
0.0
 11
52.188
 21
-16.0
 31
0.0
  0
LINE
  5
630
100
AcDbEntity
  8
MSL5_300_3F-3
100
AcDbLine
 10
43.812
 20
-16.0
 30
0.0
 11
52.188
 21
-16.0
 31
0.0
  0
LINE
  5
631
100
AcDbEntity
  8
MSL5_300_3F-7
100
AcDbLine
 10
46.582057
 20
30.0
 30
0.0
 11
78.0
 21
30.0
 31
0.0
  0
LINE
  5
632
100
AcDbEntity
  8
MSL5_300_3F-7
100
AcDbLine
 10
46.582057
 20
30.0
 30
0.0
 11
78.0
 21
30.0
 31
0.0
  0
LINE
  5
633
100
AcDbEntity
  8
MSL5_300_3F-3
100
AcDbLine
 10
48.193686
 20
90.417507
 30
0.0
 11
41.76581
 21
82.757063
 31
0.0
  0
CIRCLE
  5
634
100
AcDbEntity
  8
MSL5_300_3F-0
100
AcDbCircle
 10
30.0
 20
0.0
 30
0.0
 40
5.0
  0
LINE
  5
635
100
AcDbEntity
  8
MSL5_300_3F-7
100
AcDbLine
 10
30.0
 20
0.0
 30
0.0
 11
30.0
 21
7.474898
 31
0.0
  0
LINE
  5
636
100
AcDbEntity
  8
MSL5_300_3F-7
100
AcDbLine
 10
0.0
 20
0.0
 30
0.0
 11
0.0
 21
21.868677
 31
0.0
  0
LINE
  5
637
100
AcDbEntity
  8
MSL5_300_3F-7
100
AcDbLine
 10
-30.0
 20
0.0
 30
0.0
 11
-30.0
 21
7.888213
 31
0.0
  0
LINE
  5
638
100
AcDbEntity
  8
MSL5_300_3F-7
100
AcDbLine
 10
-52.0
 20
0.0
 30
0.0
 11
-52.0
 21
14.571633
 31
0.0
  0
LINE
  5
639
100
AcDbEntity
  8
MSL5_300_3F-0
100
AcDbLine
 10
-75.0
 20
66.6
 30
0.0
 11
-75.0
 21
-39.0
 31
0.0
1001
GENIUS_GENOREF_13
1005
B8C
  0
CIRCLE
  5
63A
100
AcDbEntity
  8
MSL5_300_3F-0
100
AcDbCircle
 10
-30.0
 20
0.0
 30
0.0
 40
5.0
  0
ARC
  5
63B
100
AcDbEntity
  8
MSL5_300_3F-3
100
AcDbCircle
 10
-30.0
 20
-30.0
 30
0.0
 40
9.0
100
AcDbArc
 50
0.0
 51
179.999998
  0
CIRCLE
  5
63C
100
AcDbEntity
  8
MSL5_300_3F-0
100
AcDbCircle
 10
-30.0
 20
-30.0
 30
0.0
 40
5.5
  0
LINE
  5
63D
100
AcDbEntity
  8
MSL5_300_3F-7
100
AcDbLine
 10
-30.0
 20
-30.0
 30
0.0
 11
-18.173239
 21
-30.0
 31
0.0
  0
LINE
  5
63E
100
AcDbEntity
  8
MSL5_300_3F-7
100
AcDbLine
 10
-30.0
 20
0.0
 30
0.0
 11
-22.111787
 21
0.0
 31
0.0
  0
LINE
  5
63F
100
AcDbEntity
  8
MSL5_300_3F-3
100
AcDbLine
 10
-75.0
 20
-35.0
 30
0.0
 11
-58.0
 21
-35.0
 31
0.0
  0
LINE
  5
640
100
AcDbEntity
  8
MSL5_300_3F-3
100
AcDbLine
 10
-75.0
 20
-25.0
 30
0.0
 11
-58.0
 21
-25.0
 31
0.0
  0
LINE
  5
641
100
AcDbEntity
  8
MSL5_300_3F-7
100
AcDbLine
 10
-46.582057
 20
-30.0
 30
0.0
 11
-78.0
 21
-30.0
 31
0.0
  0
LINE
  5
642
100
AcDbEntity
  8
MSL5_300_3F-3
100
AcDbLine
 10
-75.0
 20
-34.188
 30
0.0
 11
-52.0
 21
-34.188
 31
0.0
  0
LINE
  5
643
100
AcDbEntity
  8
MSL5_300_3F-3
100
AcDbLine
 10
-75.0
 20
-25.812
 30
0.0
 11
-52.0
 21
-25.812
 31
0.0
  0
LINE
  5
644
100
AcDbEntity
  8
MSL5_300_3F-7
100
AcDbLine
 10
-52.0
 20
0.0
 30
0.0
 11
-66.571633
 21
0.0
 31
0.0
  0
LINE
  5
645
100
AcDbEntity
  8
MSL5_300_3F-3
100
AcDbLine
 10
-49.582057
 20
-30.0
 30
0.0
 11
-52.0
 21
-25.812
 31
0.0
  0
LINE
  5
646
100
AcDbEntity
  8
MSL5_300_3F-3
100
AcDbLine
 10
-52.188
 20
-39.0
 30
0.0
 11
-52.188
 21
-16.0
 31
0.0
  0
LINE
  5
647
100
AcDbEntity
  8
MSL5_300_3F-3
100
AcDbLine
 10
-52.188
 20
-39.0
 30
0.0
 11
-52.188
 21
-16.0
 31
0.0
  0
LINE
  5
648
100
AcDbEntity
  8
MSL5_300_3F-3
100
AcDbLine
 10
-43.812
 20
-39.0
 30
0.0
 11
-43.812
 21
-16.0
 31
0.0
  0
LINE
  5
649
100
AcDbEntity
  8
MSL5_300_3F-3
100
AcDbLine
 10
-53.0
 20
-39.0
 30
0.0
 11
-53.0
 21
-22.0
 31
0.0
  0
LINE
  5
64A
100
AcDbEntity
  8
MSL5_300_3F-3
100
AcDbLine
 10
-53.0
 20
-39.0
 30
0.0
 11
-53.0
 21
-22.0
 31
0.0
  0
LINE
  5
64B
100
AcDbEntity
  8
MSL5_300_3F-3
100
AcDbLine
 10
-43.0
 20
-39.0
 30
0.0
 11
-43.0
 21
-22.0
 31
0.0
  0
LINE
  5
64C
100
AcDbEntity
  8
MSL5_300_3F-3
100
AcDbLine
 10
-43.0
 20
-39.0
 30
0.0
 11
-43.0
 21
-22.0
 31
0.0
  0
LINE
  5
64D
100
AcDbEntity
  8
MSL5_300_3F-7
100
AcDbLine
 10
-48.0
 20
-10.582057
 30
0.0
 11
-48.0
 21
-42.0
 31
0.0
  0
LINE
  5
64E
100
AcDbEntity
  8
MSL5_300_3F-7
100
AcDbLine
 10
-48.0
 20
-10.582057
 30
0.0
 11
-48.0
 21
-41.0
 31
0.0
  0
LINE
  5
64F
100
AcDbEntity
  8
MSL5_300_3F-3
100
AcDbLine
 10
-58.0
 20
-35.0
 30
0.0
 11
-58.0
 21
-25.0
 31
0.0
  0
LINE
  5
650
100
AcDbEntity
  8
MSL5_300_3F-3
100
AcDbLine
 10
-52.0
 20
-34.188
 30
0.0
 11
-52.0
 21
-25.812
 31
0.0
  0
LINE
  5
651
100
AcDbEntity
  8
MSL5_300_3F-7
100
AcDbLine
 10
-30.0
 20
-30.0
 30
0.0
 11
-30.0
 21
-18.173239
 31
0.0
  0
LINE
  5
652
100
AcDbEntity
  8
MSL5_300_3F-3
100
AcDbLine
 10
-49.582057
 20
-30.0
 30
0.0
 11
-52.0
 21
-34.188
 31
0.0
  0
LINE
  5
653
100
AcDbEntity
  8
MSL5_300_3F-7
100
AcDbLine
 10
-30.0
 20
-30.0
 30
0.0
 11
-41.826761
 21
-30.0
 31
0.0
  0
LINE
  5
654
100
AcDbEntity
  8
MSL5_300_3F-3
100
AcDbLine
 10
-39.0
 20
-30.0
 30
0.0
 11
-39.0
 21
-39.0
 31
0.0
  0
LINE
  5
655
100
AcDbEntity
  8
MSL5_300_3F-7
100
AcDbLine
 10
-30.0
 20
-30.0
 30
0.0
 11
-30.0
 21
-41.0
 31
0.0
  0
LINE
  5
656
100
AcDbEntity
  8
MSL5_300_3F-3
100
AcDbLine
 10
-53.0
 20
-22.0
 30
0.0
 11
-43.0
 21
-22.0
 31
0.0
  0
LINE
  5
657
100
AcDbEntity
  8
MSL5_300_3F-3
100
AcDbLine
 10
-53.0
 20
-22.0
 30
0.0
 11
-43.0
 21
-22.0
 31
0.0
  0
LINE
  5
658
100
AcDbEntity
  8
MSL5_300_3F-3
100
AcDbLine
 10
-52.188
 20
-16.0
 30
0.0
 11
-43.812
 21
-16.0
 31
0.0
  0
LINE
  5
659
100
AcDbEntity
  8
MSL5_300_3F-3
100
AcDbLine
 10
-52.188
 20
-16.0
 30
0.0
 11
-43.812
 21
-16.0
 31
0.0
  0
LINE
  5
65A
100
AcDbEntity
  8
MSL5_300_3F-7
100
AcDbLine
 10
-52.0
 20
0.0
 30
0.0
 11
-37.428367
 21
0.0
 31
0.0
  0
LINE
  5
65B
100
AcDbEntity
  8
MSL5_300_3F-3
100
AcDbLine
 10
-48.0
 20
-13.582057
 30
0.0
 11
-43.812
 21
-16.0
 31
0.0
  0
LINE
  5
65C
100
AcDbEntity
  8
MSL5_300_3F-3
100
AcDbLine
 10
-48.0
 20
-13.582057
 30
0.0
 11
-43.812
 21
-16.0
 31
0.0
  0
LINE
  5
65D
100
AcDbEntity
  8
MSL5_300_3F-3
100
AcDbLine
 10
-48.0
 20
-13.582057
 30
0.0
 11
-52.188
 21
-16.0
 31
0.0
  0
LINE
  5
65E
100
AcDbEntity
  8
MSL5_300_3F-3
100
AcDbLine
 10
-48.0
 20
-13.582057
 30
0.0
 11
-52.188
 21
-16.0
 31
0.0
  0
LINE
  5
65F
100
AcDbEntity
  8
MSL5_300_3F-7
100
AcDbLine
 10
-52.0
 20
0.0
 30
0.0
 11
-52.0
 21
-14.571633
 31
0.0
  0
LINE
  5
660
100
AcDbEntity
  8
MSL5_300_3F-7
100
AcDbLine
 10
-30.0
 20
0.0
 30
0.0
 11
-37.888213
 21
0.0
 31
0.0
  0
LINE
  5
661
100
AcDbEntity
  8
MSL5_300_3F-7
100
AcDbLine
 10
-30.0
 20
0.0
 30
0.0
 11
-30.0
 21
-7.888213
 31
0.0
  0
LINE
  5
662
100
AcDbEntity
  8
MSL5_300_3F-7
100
AcDbLine
 10
0.0
 20
0.0
 30
0.0
 11
21.868677
 21
0.0
 31
0.0
  0
CIRCLE
  5
663
100
AcDbEntity
  8
MSL5_300_3F-0
100
AcDbCircle
 10
0.0
 20
-30.0
 30
0.0
 40
5.0
  0
LINE
  5
664
100
AcDbEntity
  8
MSL5_300_3F-7
100
AcDbLine
 10
0.0
 20
-30.0
 30
0.0
 11
0.0
 21
-22.135052
 31
0.0
  0
LINE
  5
665
100
AcDbEntity
  8
MSL5_300_3F-3
100
AcDbLine
 10
-21.0
 20
-39.0
 30
0.0
 11
-21.0
 21
-30.0
 31
0.0
  0
LINE
  5
666
100
AcDbEntity
  8
MSL5_300_3F-7
100
AcDbLine
 10
0.0
 20
-30.0
 30
0.0
 11
7.864948
 21
-30.0
 31
0.0
  0
LINE
  5
667
100
AcDbEntity
  8
MSL5_300_3F-7
100
AcDbLine
 10
0.0
 20
-30.0
 30
0.0
 11
-7.864948
 21
-30.0
 31
0.0
  0
LINE
  5
668
100
AcDbEntity
  8
MSL5_300_3F-7
100
AcDbLine
 10
0.0
 20
-30.0
 30
0.0
 11
0.0
 21
-37.864948
 31
0.0
  0
LINE
  5
669
100
AcDbEntity
  8
MSL5_300_3F-7
100
AcDbLine
 10
0.0
 20
0.0
 30
0.0
 11
-21.868677
 21
0.0
 31
0.0
  0
LINE
  5
66A
100
AcDbEntity
  8
MSL5_300_3F-7
100
AcDbLine
 10
0.0
 20
0.0
 30
0.0
 11
0.0
 21
-21.868677
 31
0.0
  0
LINE
  5
66B
100
AcDbEntity
  8
MSL5_300_3F-7
100
AcDbLine
 10
30.0
 20
-30.0
 30
0.0
 11
30.0
 21
-18.367745
 31
0.0
  0
ARC
  5
66C
100
AcDbEntity
  8
MSL5_300_3F-3
100
AcDbCircle
 10
30.0
 20
-30.0
 30
0.0
 40
9.0
100
AcDbArc
 50
0.0
 51
179.999998
  0
CIRCLE
  5
66D
100
AcDbEntity
  8
MSL5_300_3F-0
100
AcDbCircle
 10
30.0
 20
-30.0
 30
0.0
 40
5.5
  0
LINE
  5
66E
100
AcDbEntity
  8
MSL5_300_3F-3
100
AcDbLine
 10
43.812
 20
-39.0
 30
0.0
 11
43.812
 21
-16.0
 31
0.0
  0
LINE
  5
66F
100
AcDbEntity
  8
MSL5_300_3F-3
100
AcDbLine
 10
43.812
 20
-39.0
 30
0.0
 11
43.812
 21
-16.0
 31
0.0
  0
LINE
  5
670
100
AcDbEntity
  8
MSL5_300_3F-3
100
AcDbLine
 10
43.0
 20
-39.0
 30
0.0
 11
43.0
 21
-22.0
 31
0.0
  0
LINE
  5
671
100
AcDbEntity
  8
MSL5_300_3F-3
100
AcDbLine
 10
43.0
 20
-39.0
 30
0.0
 11
43.0
 21
-22.0
 31
0.0
  0
LINE
  5
672
100
AcDbEntity
  8
MSL5_300_3F-7
100
AcDbLine
 10
30.0
 20
-30.0
 30
0.0
 11
18.367745
 21
-30.0
 31
0.0
  0
LINE
  5
673
100
AcDbEntity
  8
MSL5_300_3F-3
100
AcDbLine
 10
21.0
 20
-39.0
 30
0.0
 11
21.0
 21
-30.0
 31
0.0
  0
LINE
  5
674
100
AcDbEntity
  8
MSL5_300_3F-7
100
AcDbLine
 10
30.0
 20
-30.0
 30
0.0
 11
41.632255
 21
-30.0
 31
0.0
  0
LINE
  5
675
100
AcDbEntity
  8
MSL5_300_3F-7
100
AcDbLine
 10
30.0
 20
-30.0
 30
0.0
 11
30.0
 21
-41.0
 31
0.0
  0
LINE
  5
676
100
AcDbEntity
  8
MSL5_300_3F-3
100
AcDbLine
 10
39.0
 20
-30.0
 30
0.0
 11
39.0
 21
-39.0
 31
0.0
  0
LINE
  5
677
100
AcDbEntity
  8
MSL5_300_3F-7
100
AcDbLine
 10
30.0
 20
0.0
 30
0.0
 11
22.525102
 21
0.0
 31
0.0
  0
LINE
  5
678
100
AcDbEntity
  8
MSL5_300_3F-7
100
AcDbLine
 10
30.0
 20
0.0
 30
0.0
 11
37.474898
 21
0.0
 31
0.0
  0
LINE
  5
679
100
AcDbEntity
  8
MSL5_300_3F-7
100
AcDbLine
 10
30.0
 20
0.0
 30
0.0
 11
30.0
 21
-7.474898
 31
0.0
  0
LINE
  5
67A
100
AcDbEntity
  8
MSL5_300_3F-0
100
AcDbLine
 10
-75.0
 20
66.6
 30
0.0
 11
-12.552112
 21
119.0
 31
0.0
1001
GENIUS_GENOREF_13
1005
B8C
  0
LINE
  5
67B
100
AcDbEntity
  8
MSL5_300_3F-0
100
AcDbLine
 10
-13.496279
 20
119.532089
 30
0.0
 11
-73.285575
 21
69.362912
 31
0.0
  0
CIRCLE
  5
67C
100
AcDbEntity
  8
MSL5_300_3F-0
100
AcDbCircle
 10
-30.0
 20
30.0
 30
0.0
 40
5.5
  0
CIRCLE
  5
67D
100
AcDbEntity
  8
MSL5_300_3F-3
100
AcDbCircle
 10
-30.0
 20
30.0
 30
0.0
 40
9.0
  0
LINE
  5
67E
100
AcDbEntity
  8
MSL5_300_3F-7
100
AcDbLine
 10
-30.0
 20
30.0
 30
0.0
 11
-18.392047
 21
30.0
 31
0.0
  0
LINE
  5
67F
100
AcDbEntity
  8
MSL5_300_3F-3
100
AcDbLine
 10
-74.0
 20
67.4391
 30
0.0
 11
-74.0
 21
38.0
 31
0.0
1001
GENIUS_GENBH_13
1002
{
1000
OE
1000
CON1
1002
}
1001
GENIUS_GENOREF_13
1005
B8B
  0
LINE
  5
680
100
AcDbEntity
  8
MSL5_300_3F-0
100
AcDbLine
 10
-78.999971
 20
59.998686
 30
0.0
 11
-78.999977
 21
67.998686
 31
0.0
  0
LINE
  5
681
100
AcDbEntity
  8
MSL5_300_3F-3
100
AcDbLine
 10
-75.0
 20
34.188
 30
0.0
 11
-52.0
 21
34.188
 31
0.0
  0
LINE
  5
682
100
AcDbEntity
  8
MSL5_300_3F-3
100
AcDbLine
 10
-75.0
 20
25.812
 30
0.0
 11
-52.0
 21
25.812
 31
0.0
  0
LINE
  5
683
100
AcDbEntity
  8
MSL5_300_3F-7
100
AcDbLine
 10
-46.582057
 20
30.0
 30
0.0
 11
-78.0
 21
30.0
 31
0.0
  0
LINE
  5
684
100
AcDbEntity
  8
MSL5_300_3F-3
100
AcDbLine
 10
-75.0
 20
35.0
 30
0.0
 11
-58.0
 21
35.0
 31
0.0
  0
LINE
  5
685
100
AcDbEntity
  8
MSL5_300_3F-3
100
AcDbLine
 10
-75.0
 20
25.0
 30
0.0
 11
-58.0
 21
25.0
 31
0.0
  0
ARC
  5
686
100
AcDbEntity
  8
MSL5_300_3F-0
100
AcDbCircle
 10
-77.499971
 20
45.998687
 30
0.0
 40
1.5
100
AcDbArc
 50
180.000041
 51
270.00004
  0
LINE
  5
687
100
AcDbEntity
  8
MSL5_300_3F-0
100
AcDbLine
 10
-75.0
 20
44.498689
 30
0.0
 11
-77.49997
 21
44.498687
 31
0.0
  0
LINE
  5
688
100
AcDbEntity
  8
MSL5_300_3F-7
100
AcDbLine
 10
-81.788719
 20
50.000024
 30
0.0
 11
-70.595992
 21
50.000032
 31
0.0
  0
LINE
  5
689
100
AcDbEntity
  8
MSL5_300_3F-0
100
AcDbLine
 10
-75.0
 20
58.498689
 30
0.0
 11
-77.49997
 21
58.498687
 31
0.0
  0
LINE
  5
68A
100
AcDbEntity
  8
MSL5_300_3F-0
100
AcDbLine
 10
-77.499978
 20
55.498687
 30
0.0
 11
-75.0
 21
55.498689
 31
0.0
  0
ARC
  5
68B
100
AcDbEntity
  8
MSL5_300_3F-0
100
AcDbCircle
 10
-77.499971
 20
59.998687
 30
0.0
 40
1.5
100
AcDbArc
 50
180.000041
 51
270.00004
  0
ARC
  5
68C
100
AcDbEntity
  8
MSL5_300_3F-0
100
AcDbCircle
 10
-77.499977
 20
53.998687
 30
0.0
 40
1.5
100
AcDbArc
 50
90.000038
 51
180.000041
  0
LINE
  5
68D
100
AcDbEntity
  8
MSL5_300_3F-0
100
AcDbLine
 10
-78.999971
 20
45.998686
 30
0.0
 11
-78.999977
 21
53.998686
 31
0.0
  0
LINE
  5
68E
100
AcDbEntity
  8
MSL5_300_3F-3
100
AcDbLine
 10
-49.582057
 20
30.0
 30
0.0
 11
-52.0
 21
34.188
 31
0.0
  0
LINE
  5
68F
100
AcDbEntity
  8
MSL5_300_3F-3
100
AcDbLine
 10
-58.0
 20
25.0
 30
0.0
 11
-58.0
 21
35.0
 31
0.0
  0
LINE
  5
690
100
AcDbEntity
  8
MSL5_300_3F-3
100
AcDbLine
 10
-52.0
 20
25.812
 30
0.0
 11
-52.0
 21
34.188
 31
0.0
  0
LINE
  5
691
100
AcDbEntity
  8
MSL5_300_3F-7
100
AcDbLine
 10
-30.0
 20
30.0
 30
0.0
 11
-30.0
 21
41.607953
 31
0.0
  0
LINE
  5
692
100
AcDbEntity
  8
MSL5_300_3F-3
100
AcDbLine
 10
-49.582057
 20
30.0
 30
0.0
 11
-52.0
 21
25.812
 31
0.0
  0
LINE
  5
693
100
AcDbEntity
  8
MSL5_300_3F-7
100
AcDbLine
 10
-30.0
 20
30.0
 30
0.0
 11
-41.607953
 21
30.0
 31
0.0
  0
LINE
  5
694
100
AcDbEntity
  8
MSL5_300_3F-7
100
AcDbLine
 10
-30.0
 20
30.0
 30
0.0
 11
-30.0
 21
18.392047
 31
0.0
  0
LINE
  5
695
100
AcDbEntity
  8
MSL5_300_3F-0
100
AcDbLine
 10
-66.416583
 20
77.737496
 30
0.0
 11
-65.131008
 21
76.205407
 31
0.0
  0
LINE
  5
696
100
AcDbEntity
  8
MSL5_300_3F-7
100
AcDbLine
 10
-73.301727
 20
77.386409
 30
0.0
 11
-68.331701
 21
71.463363
 31
0.0
  0
LINE
  5
697
100
AcDbEntity
  8
MSL5_300_3F-0
100
AcDbLine
 10
-74.843072
 20
70.666832
 30
0.0
 11
-66.416583
 21
77.737496
 31
0.0
  0
LINE
  5
698
100
AcDbEntity
  8
MSL5_300_3F-0
100
AcDbLine
 10
-72.365354
 20
76.270484
 30
0.0
 11
-72.161916
 21
72.916589
 31
0.0
  0
LINE
  5
699
100
AcDbEntity
  8
MSL5_300_3F-7
100
AcDbLine
 10
-81.788719
 20
64.000024
 30
0.0
 11
-70.595992
 21
64.000032
 31
0.0
  0
LINE
  5
69A
100
AcDbEntity
  8
MSL5_300_3F-0
100
AcDbLine
 10
-77.499978
 20
69.498687
 30
0.0
 11
-74.0
 21
69.49869
 31
0.0
  0
ARC
  5
69B
100
AcDbEntity
  8
MSL5_300_3F-0
100
AcDbCircle
 10
-77.499977
 20
67.998687
 30
0.0
 40
1.5
100
AcDbArc
 50
90.000038
 51
180.000041
  0
LINE
  5
69C
100
AcDbEntity
  8
MSL5_300_3F-0
100
AcDbLine
 10
-73.557497
 20
69.134743
 30
0.0
 11
-74.843072
 21
70.666832
 31
0.0
  0
LINE
  5
69D
100
AcDbEntity
  8
MSL5_300_3F-0
100
AcDbLine
 10
-74.0
 20
67.830823
 30
0.0
 11
-74.0
 21
67.4391
 31
0.0
1001
GENIUS_GENOREF_13
1005
B8B
  0
LINE
  5
69E
100
AcDbEntity
  8
MSL5_300_3F-0
100
AcDbLine
 10
-74.0
 20
69.49869
 30
0.0
 11
-74.0
 21
67.830823
 31
0.0
  0
ARC
  5
69F
100
AcDbEntity
  8
MSL5_300_3F-0
100
AcDbCircle
 10
-72.0
 20
67.830823
 30
0.0
 40
2.0
100
AcDbArc
 50
130.0
 51
180.0
1001
GENIUS_GENODEF_13
1002
{
1000
HIER
1070
     0
1002
}
1002
{
1000
MANEDIT
1070
     0
1002
}
1002
{
1000
NOSEL
1070
     0
1002
}
1002
{
1000
BEHIND
1070
     0
1002
}
1002
{
1000
REACTOR
1002
}
1001
GENIUS_GENOBJ-N-FIL_13
1002
{
1000
OWNER
1000
GEN
1002
}
  0
LINE
  5
6A0
100
AcDbEntity
  8
MSL5_300_3F-3
100
AcDbLine
 10
-72.838105
 20
68.432977
 30
0.0
 11
-73.470403
 21
69.186521
 31
0.0
  0
LINE
  5
6A1
100
AcDbEntity
  8
MSL5_300_3F-0
100
AcDbLine
 10
-69.097739
 20
75.487739
 30
0.0
 11
-72.365354
 21
76.270484
 31
0.0
  0
LINE
  5
6A2
100
AcDbEntity
  8
MSL5_300_3F-3
100
AcDbLine
 10
-48.193686
 20
90.417507
 30
0.0
 11
-41.76581
 21
82.757063
 31
0.0
  0
LINE
  5
6A3
100
AcDbEntity
  8
MSL5_300_3F-3
100
AcDbLine
 10
-47.537864
 20
90.967807
 30
0.0
 11
-41.109988
 21
83.307363
 31
0.0
  0
LINE
  5
6A4
100
AcDbEntity
  8
MSL5_300_3F-7
100
AcDbLine
 10
-45.082626
 20
96.944219
 30
0.0
 11
-34.798024
 21
84.687508
 31
0.0
  0
LINE
  5
6A5
100
AcDbEntity
  8
MSL5_300_3F-3
100
AcDbLine
 10
-64.564825
 20
75.375084
 30
0.0
 11
-65.207612
 21
76.141128
 31
0.0
  0
LINE
  5
6A6
100
AcDbEntity
  8
MSL5_300_3F-0
100
AcDbLine
 10
-50.937964
 20
86.809377
 30
0.0
 11
-51.580752
 21
87.575422
 31
0.0
  0
LINE
  5
6A7
100
AcDbEntity
  8
MSL5_300_3F-3
100
AcDbLine
 10
-38.114839
 20
98.874664
 30
0.0
 11
-31.686963
 21
91.214219
 31
0.0
  0
LINE
  5
6A8
100
AcDbEntity
  8
MSL5_300_3F-3
100
AcDbLine
 10
-38.770662
 20
98.324364
 30
0.0
 11
-32.342786
 21
90.663919
 31
0.0
  0
LINE
  5
6A9
100
AcDbEntity
  8
MSL5_300_3F-0
100
AcDbLine
 10
-34.084986
 20
100.950705
 30
0.0
 11
-34.727774
 21
101.716749
 31
0.0
  0
CIRCLE
  5
6AA
100
AcDbEntity
  8
MSL5_300_3F-0
100
AcDbCircle
 10
0.0
 20
30.0
 30
0.0
 40
5.0
  0
LINE
  5
6AB
100
AcDbEntity
  8
MSL5_300_3F-7
100
AcDbLine
 10
0.0
 20
30.0
 30
0.0
 11
0.0
 21
37.864948
 31
0.0
  0
LINE
  5
6AC
100
AcDbEntity
  8
MSL5_300_3F-7
100
AcDbLine
 10
0.0
 20
30.0
 30
0.0
 11
7.864948
 21
30.0
 31
0.0
  0
LINE
  5
6AD
100
AcDbEntity
  8
MSL5_300_3F-7
100
AcDbLine
 10
0.0
 20
30.0
 30
0.0
 11
-7.864948
 21
30.0
 31
0.0
  0
LINE
  5
6AE
100
AcDbEntity
  8
MSL5_300_3F-7
100
AcDbLine
 10
0.0
 20
30.0
 30
0.0
 11
0.0
 21
22.135052
 31
0.0
  0
LINE
  5
6AF
100
AcDbEntity
  8
MSL5_300_3F-7
100
AcDbLine
 10
30.0
 20
30.0
 30
0.0
 11
30.0
 21
41.607953
 31
0.0
  0
CIRCLE
  5
6B0
100
AcDbEntity
  8
MSL5_300_3F-3
100
AcDbCircle
 10
30.0
 20
30.0
 30
0.0
 40
9.0
  0
CIRCLE
  5
6B1
100
AcDbEntity
  8
MSL5_300_3F-0
100
AcDbCircle
 10
30.0
 20
30.0
 30
0.0
 40
5.5
  0
LINE
  5
6B2
100
AcDbEntity
  8
MSL5_300_3F-7
100
AcDbLine
 10
30.0
 20
30.0
 30
0.0
 11
18.392047
 21
30.0
 31
0.0
  0
LINE
  5
6B3
100
AcDbEntity
  8
MSL5_300_3F-7
100
AcDbLine
 10
30.0
 20
30.0
 30
0.0
 11
41.607953
 21
30.0
 31
0.0
  0
LINE
  5
6B4
100
AcDbEntity
  8
MSL5_300_3F-7
100
AcDbLine
 10
30.0
 20
30.0
 30
0.0
 11
30.0
 21
18.392047
 31
0.0
  0
MTEXT
  5
6B5
100
AcDbEntity
  8
MSL5_300_3F-6
100
AcDbMText
 10
-10.082601
 20
68.394298
 30
0.0
 40
3.5
 41
22.192126
 71
     1
 72
     1
  1
{MSL5-300-3F}
  0
LINE
  5
6B6
100
AcDbEntity
  8
MSL5_300_3F-7
100
AcDbLine
 10
0.0
 20
93.0
 30
0.0
 11
14.571633
 21
93.0
 31
0.0
  0
LINE
  5
6B7
100
AcDbEntity
  8
MSL5_300_3F-0
100
AcDbLine
 10
-12.552112
 20
119.0
 30
0.0
 11
12.552112
 21
119.0
 31
0.0
1001
GENIUS_GENOREF_13
1005
B8C
  0
LINE
  5
6B8
100
AcDbEntity
  8
MSL5_300_3F-7
100
AcDbLine
 10
0.0
 20
93.0
 30
0.0
 11
0.0
 21
78.428367
 31
0.0
  0
LINE
  5
6B9
100
AcDbEntity
  8
MSL5_300_3F-7
100
AcDbLine
 10
0.0
 20
93.0
 30
0.0
 11
-14.571633
 21
93.0
 31
0.0
  0
LINE
  5
6BA
100
AcDbEntity
  8
MSL5_300_3F-7
100
AcDbLine
 10
0.0
 20
93.0
 30
0.0
 11
0.0
 21
107.571633
 31
0.0
  0
LINE
  5
6BB
100
AcDbEntity
  8
MSL5_300_3F-7
100
AcDbLine
 10
45.082626
 20
96.944219
 30
0.0
 11
34.798024
 21
84.687508
 31
0.0
  0
LINE
  5
6BC
100
AcDbEntity
  8
MSL5_300_3F-3
100
AcDbLine
 10
47.537864
 20
90.967807
 30
0.0
 11
41.109988
 21
83.307363
 31
0.0
  0
LINE
  5
6BD
100
AcDbEntity
  8
MSL5_300_3F-3
100
AcDbLine
 10
38.770662
 20
98.324364
 30
0.0
 11
32.342786
 21
90.663919
 31
0.0
  0
LINE
  5
6BE
100
AcDbEntity
  8
MSL5_300_3F-3
100
AcDbLine
 10
38.114839
 20
98.874664
 30
0.0
 11
31.686963
 21
91.214219
 31
0.0
  0
LINE
  5
6BF
100
AcDbEntity
  8
MSL5_300_3F-3
100
AcDbLine
 10
34.084986
 20
100.950705
 30
0.0
 11
34.727774
 21
101.716749
 31
0.0
  0
LINE
  5
6C0
100
AcDbEntity
  8
MSL5_300_3F-0
100
AcDbLine
 10
147.782286
 20
-103.245947
 30
0.0
 11
147.782286
 21
-253.245947
 31
0.0
  0
LINE
  5
6C1
100
AcDbEntity
  8
MSL5_300_3F-0
100
AcDbLine
 10
172.782286
 20
-253.245947
 30
0.0
 11
172.782286
 21
-103.245947
 31
0.0
  0
LINE
  5
6C2
100
AcDbEntity
  8
MSL5_300_3F-0
100
AcDbLine
 10
187.782286
 20
-117.255566
 30
0.0
 11
187.782286
 21
-143.236329
 31
0.0
  0
LINE
  5
6C3
100
AcDbEntity
  8
MSL5_300_3F-0
100
AcDbLine
 10
195.782286
 20
-117.255566
 30
0.0
 11
195.782286
 21
-143.236329
 31
0.0
  0
LINE
  5
6C4
100
AcDbEntity
  8
MSL5_300_3F-0
100
AcDbLine
 10
195.782286
 20
-253.245947
 30
0.0
 11
195.782286
 21
-103.245947
 31
0.0
  0
LINE
  5
6C5
100
AcDbEntity
  8
MSL5_300_3F-7
100
AcDbLine
 10
155.782286
 20
-131.663819
 30
0.0
 11
155.782286
 21
-100.245876
 31
0.0
  0
LINE
  5
6C6
100
AcDbEntity
  8
MSL5_300_3F-3
100
AcDbLine
 10
151.594286
 20
-103.245876
 30
0.0
 11
151.594286
 21
-126.245876
 31
0.0
  0
LINE
  5
6C7
100
AcDbEntity
  8
MSL5_300_3F-3
100
AcDbLine
 10
150.782286
 20
-103.245876
 30
0.0
 11
150.782286
 21
-120.245876
 31
0.0
  0
LINE
  5
6C8
100
AcDbEntity
  8
MSL5_300_3F-3
100
AcDbLine
 10
159.970286
 20
-103.245876
 30
0.0
 11
159.970286
 21
-126.245876
 31
0.0
  0
LINE
  5
6C9
100
AcDbEntity
  8
MSL5_300_3F-3
100
AcDbLine
 10
160.782286
 20
-103.245876
 30
0.0
 11
160.782286
 21
-120.245876
 31
0.0
  0
ARC
  5
6CA
100
AcDbEntity
  8
MSL5_300_3F-0
100
AcDbCircle
 10
192.888536
 20
-117.255566
 30
0.0
 40
5.10625
100
AcDbArc
 50
122.004627
 51
237.995373
  0
ARC
  5
6CB
100
AcDbEntity
  8
MSL5_300_3F-0
100
AcDbCircle
 10
190.676036
 20
-117.255566
 30
0.0
 40
5.10625
100
AcDbArc
 50
302.004628
 51
57.995372
  0
LINE
  5
6CC
100
AcDbEntity
  8
MSL5_300_3F-0
100
AcDbLine
 10
196.282286
 20
-126.665124
 30
0.0
 11
196.282286
 21
-104.245876
 31
0.0
  0
MTEXT
  5
6CD
100
AcDbEntity
  8
MSL5_300_3F-6
100
AcDbMText
 10
199.331697
 20
-246.192418
 30
0.0
 40
3.5
 41
22.192126
 71
     1
 72
     1
  1
{MSL5-300-3F}
  0
LINE
  5
6CE
100
AcDbEntity
  8
MSL5_300_3F-7
100
AcDbLine
 10
169.216084
 20
-130.245947
 30
0.0
 11
200.717072
 21
-130.245947
 31
0.0
  0
LINE
  5
6CF
100
AcDbEntity
  8
MSL5_300_3F-7
100
AcDbLine
 10
144.782286
 20
-178.245947
 30
0.0
 11
204.972948
 21
-178.245947
 31
0.0
1001
GENIUS_GENOREF_13
1005
B8A
  0
LINE
  5
6D0
100
AcDbEntity
  8
MSL5_300_3F-7
100
AcDbLine
 10
204.787278
 20
-230.245947
 30
0.0
 11
164.612224
 21
-230.245947
 31
0.0
  0
LINE
  5
6D1
100
AcDbEntity
  8
MSL5_300_3F-7
100
AcDbLine
 10
204.787278
 20
-126.245947
 30
0.0
 11
164.612224
 21
-126.245947
 31
0.0
  0
LINE
  5
6D2
100
AcDbEntity
  8
MSL5_300_3F-0
100
AcDbLine
 10
195.782286
 20
-253.245947
 30
0.0
 11
237.767038
 21
-253.245947
 31
0.0
  0
LINE
  5
6D3
100
AcDbEntity
  8
MSL5_300_3F-0
100
AcDbLine
 10
196.282286
 20
-252.245876
 30
0.0
 11
235.817607
 21
-252.245876
 31
0.0
  0
LINE
  5
6D4
100
AcDbEntity
  8
MSL5_300_3F-7
100
AcDbLine
 10
200.203786
 20
-135.091684
 30
0.0
 11
219.360786
 21
-135.091684
 31
0.0
1001
GENIUS_GENODEF_13
1002
{
1000
HIER
1070
     0
1002
}
1002
{
1000
MANEDIT
1070
     0
1002
}
1002
{
1000
NOSEL
1070
     0
1002
}
1002
{
1000
BEHIND
1070
     0
1002
}
1002
{
1000
REACTOR
1002
}
1001
GENIUS_GENOBJ-N-CEN_13
1002
{
1000
OWNER
1000
GEN
1002
}
  0
LINE
  5
6D5
100
AcDbEntity
  8
MSL5_300_3F-0
100
AcDbLine
 10
196.282286
 20
-143.518102
 30
0.0
 11
219.982286
 21
-143.518102
 31
0.0
  0
LINE
  5
6D6
100
AcDbEntity
  8
MSL5_300_3F-0
100
AcDbLine
 10
219.982286
 20
-126.665124
 30
0.0
 11
196.282286
 21
-126.665124
 31
0.0
  0
ARC
  5
6D7
100
AcDbEntity
  8
MSL5_300_3F-0
100
AcDbCircle
 10
174.48923
 20
-235.875113
 30
0.0
 40
2.293056
100
AcDbArc
 50
305.085848
 51
54.914152
  0
ARC
  5
6D8
100
AcDbEntity
  8
MSL5_300_3F-0
100
AcDbCircle
 10
175.075342
 20
-235.875113
 30
0.0
 40
2.293056
100
AcDbArc
 50
125.085847
 51
234.914153
  0
LINE
  5
6D9
100
AcDbEntity
  8
MSL5_300_3F-3
100
AcDbLine
 10
150.782286
 20
-253.245876
 30
0.0
 11
150.782286
 21
-236.245876
 31
0.0
  0
LINE
  5
6DA
100
AcDbEntity
  8
MSL5_300_3F-7
100
AcDbLine
 10
155.782286
 20
-224.827933
 30
0.0
 11
155.782286
 21
-256.245876
 31
0.0
  0
LINE
  5
6DB
100
AcDbEntity
  8
MSL5_300_3F-3
100
AcDbLine
 10
151.594286
 20
-253.245876
 30
0.0
 11
151.594286
 21
-230.245876
 31
0.0
  0
LINE
  5
6DC
100
AcDbEntity
  8
MSL5_300_3F-3
100
AcDbLine
 10
160.782286
 20
-253.245876
 30
0.0
 11
160.782286
 21
-236.245876
 31
0.0
  0
LINE
  5
6DD
100
AcDbEntity
  8
MSL5_300_3F-3
100
AcDbLine
 10
159.970286
 20
-253.245876
 30
0.0
 11
159.970286
 21
-230.245876
 31
0.0
  0
LINE
  5
6DE
100
AcDbEntity
  8
MSL5_300_3F-0
100
AcDbLine
 10
196.282286
 20
-252.245876
 30
0.0
 11
196.282286
 21
-143.518102
 31
0.0
  0
LINE
  5
6DF
100
AcDbEntity
  8
MSL5_300_3F-0
100
AcDbLine
 10
188.782286
 20
-222.740394
 30
0.0
 11
188.782286
 21
-237.751501
 31
0.0
  0
LINE
  5
6E0
100
AcDbEntity
  8
MSL5_300_3F-0
100
AcDbLine
 10
192.782286
 20
-237.607163
 30
0.0
 11
192.782286
 21
-222.884732
 31
0.0
  0
ARC
  5
6E1
100
AcDbEntity
  8
MSL5_300_3F-0
100
AcDbCircle
 10
195.890967
 20
-237.607163
 30
0.0
 40
3.108681
100
AcDbArc
 50
127.878142
 51
232.121858
  0
ARC
  5
6E2
100
AcDbEntity
  8
MSL5_300_3F-0
100
AcDbCircle
 10
190.220121
 20
-235.875113
 30
0.0
 40
2.562165
100
AcDbArc
 50
312.916664
 51
47.083336
  0
LINE
  5
6E3
100
AcDbEntity
  8
MSL5_300_3F-0
100
AcDbLine
 10
147.782286
 20
-253.245947
 30
0.0
 11
172.782286
 21
-253.245947
 31
0.0
  0
LINE
  5
6E4
100
AcDbEntity
  8
MSL5_300_3F-0
100
AcDbLine
 10
195.782286
 20
-242.745947
 30
0.0
 11
172.782286
 21
-242.745947
 31
0.0
  0
LINE
  5
6E5
100
AcDbEntity
  8
MSL5_300_3F-0
100
AcDbLine
 10
173.757286
 20
-237.751501
 30
0.0
 11
175.807286
 21
-237.751501
 31
0.0
  0
LINE
  5
6E6
100
AcDbEntity
  8
MSL5_300_3F-0
100
AcDbLine
 10
188.782286
 20
-237.751501
 30
0.0
 11
191.964786
 21
-237.751501
 31
0.0
  0
LINE
  5
6E7
100
AcDbEntity
  8
MSL5_300_3F-0
100
AcDbLine
 10
193.963215
 20
-240.045947
 30
0.0
 11
195.782286
 21
-240.045947
 31
0.0
  0
LINE
  5
6E8
100
AcDbEntity
  8
MSL5_300_3F-3
100
AcDbLine
 10
176.782286
 20
-165.745947
 30
0.0
 11
176.782286
 21
-190.745947
 31
0.0
1001
GENIUS_GENBH_13
1002
{
1000
OE
1000
CON1
1002
}
1001
GENIUS_GENOREF_13
1005
B8A
  0
LINE
  5
6E9
100
AcDbEntity
  8
MSL5_300_3F-3
100
AcDbLine
 10
177.782286
 20
-165.745947
 30
0.0
 11
177.782286
 21
-190.745947
 31
0.0
1001
GENIUS_GENBH_13
1002
{
1000
OE
1000
CON1
1002
}
1001
GENIUS_GENOREF_13
1005
B8A
  0
LINE
  5
6EA
100
AcDbEntity
  8
MSL5_300_3F-3
100
AcDbLine
 10
165.782286
 20
-202.745876
 30
0.0
 11
147.782286
 21
-202.745876
 31
0.0
  0
LINE
  5
6EB
100
AcDbEntity
  8
MSL5_300_3F-3
100
AcDbLine
 10
165.782286
 20
-213.745876
 30
0.0
 11
147.782286
 21
-213.745876
 31
0.0
  0
LINE
  5
6EC
100
AcDbEntity
  8
MSL5_300_3F-7
100
AcDbLine
 10
174.782286
 20
-208.245876
 30
0.0
 11
145.782286
 21
-208.245876
 31
0.0
  0
LINE
  5
6ED
100
AcDbEntity
  8
MSL5_300_3F-0
100
AcDbLine
 10
147.782286
 20
-190.798058
 30
0.0
 11
172.782286
 21
-190.798058
 31
0.0
  0
LINE
  5
6EE
100
AcDbEntity
  8
MSL5_300_3F-7
100
AcDbLine
 10
156.782286
 20
-226.245876
 30
0.0
 11
172.782286
 21
-226.245876
 31
0.0
  0
ARC
  5
6EF
100
AcDbEntity
  8
MSL5_300_3F-3
100
AcDbCircle
 10
164.782286
 20
-226.245876
 30
0.0
 40
5.0
100
AcDbArc
 50
280.0
 51
210.0
  0
CIRCLE
  5
6F0
100
AcDbEntity
  8
MSL5_300_3F-3
100
AcDbCircle
 10
164.782286
 20
-226.245876
 30
0.0
 40
4.188
  0
LINE
  5
6F1
100
AcDbEntity
  8
MSL5_300_3F-3
100
AcDbLine
 10
160.782286
 20
-236.245876
 30
0.0
 11
150.782286
 21
-236.245876
 31
0.0
  0
LINE
  5
6F2
100
AcDbEntity
  8
MSL5_300_3F-3
100
AcDbLine
 10
159.970286
 20
-230.245876
 30
0.0
 11
151.594286
 21
-230.245876
 31
0.0
  0
LINE
  5
6F3
100
AcDbEntity
  8
MSL5_300_3F-3
100
AcDbLine
 10
155.782286
 20
-227.827933
 30
0.0
 11
151.594286
 21
-230.245876
 31
0.0
  0
LINE
  5
6F4
100
AcDbEntity
  8
MSL5_300_3F-3
100
AcDbLine
 10
155.782286
 20
-227.827933
 30
0.0
 11
159.970286
 21
-230.245876
 31
0.0
  0
LINE
  5
6F5
100
AcDbEntity
  8
MSL5_300_3F-3
100
AcDbLine
 10
165.782286
 20
-199.245876
 30
0.0
 11
165.782286
 21
-217.245876
 31
0.0
  0
LINE
  5
6F6
100
AcDbEntity
  8
MSL5_300_3F-0
100
AcDbLine
 10
176.782286
 20
-234.245947
 30
0.0
 11
188.782286
 21
-234.245947
 31
0.0
  0
LINE
  5
6F7
100
AcDbEntity
  8
MSL5_300_3F-0
100
AcDbLine
 10
188.782286
 20
-226.245947
 30
0.0
 11
176.782286
 21
-226.245947
 31
0.0
  0
LINE
  5
6F8
100
AcDbEntity
  8
MSL5_300_3F-0
100
AcDbLine
 10
195.782286
 20
-217.745947
 30
0.0
 11
172.782286
 21
-217.745947
 31
0.0
  0
LINE
  5
6F9
100
AcDbEntity
  8
MSL5_300_3F-7
100
AcDbLine
 10
164.782286
 20
-234.245947
 30
0.0
 11
164.782286
 21
-218.245947
 31
0.0
  0
ARC
  5
6FA
100
AcDbEntity
  8
MSL5_300_3F-0
100
AcDbCircle
 10
169.072564
 20
-230.245947
 30
0.0
 40
7.709722
100
AcDbArc
 50
330.872218
 51
29.127782
  0
LINE
  5
6FB
100
AcDbEntity
  8
MSL5_300_3F-0
100
AcDbLine
 10
176.782286
 20
-235.875113
 30
0.0
 11
176.782286
 21
-224.616782
 31
0.0
  0
ARC
  5
6FC
100
AcDbEntity
  8
MSL5_300_3F-0
100
AcDbCircle
 10
174.48923
 20
-224.616782
 30
0.0
 40
2.293056
100
AcDbArc
 50
305.085848
 51
54.914152
  0
ARC
  5
6FD
100
AcDbEntity
  8
MSL5_300_3F-0
100
AcDbCircle
 10
180.492008
 20
-230.245947
 30
0.0
 40
7.709722
100
AcDbArc
 50
150.872216
 51
209.127784
  0
LINE
  5
6FE
100
AcDbEntity
  8
MSL5_300_3F-0
100
AcDbLine
 10
172.782286
 20
-235.875113
 30
0.0
 11
172.782286
 21
-224.616782
 31
0.0
  0
ARC
  5
6FF
100
AcDbEntity
  8
MSL5_300_3F-0
100
AcDbCircle
 10
175.075342
 20
-224.616782
 30
0.0
 40
2.293056
100
AcDbArc
 50
125.085847
 51
234.914153
  0
LINE
  5
700
100
AcDbEntity
  8
MSL5_300_3F-0
100
AcDbLine
 10
173.757286
 20
-233.998724
 30
0.0
 11
175.807286
 21
-233.998724
 31
0.0
  0
LINE
  5
701
100
AcDbEntity
  8
MSL5_300_3F-0
100
AcDbLine
 10
173.757286
 20
-226.493171
 30
0.0
 11
175.807286
 21
-226.493171
 31
0.0
  0
LINE
  5
702
100
AcDbEntity
  8
MSL5_300_3F-0
100
AcDbLine
 10
173.757286
 20
-222.740394
 30
0.0
 11
175.807286
 21
-222.740394
 31
0.0
  0
LINE
  5
703
100
AcDbEntity
  8
MSL5_300_3F-3
100
AcDbLine
 10
165.782286
 20
-217.245876
 30
0.0
 11
172.782286
 21
-217.245876
 31
0.0
  0
ARC
  5
704
100
AcDbEntity
  8
MSL5_300_3F-0
100
AcDbCircle
 10
195.890967
 20
-222.884732
 30
0.0
 40
3.108681
100
AcDbArc
 50
127.878142
 51
232.121858
  0
LINE
  5
705
100
AcDbEntity
  8
MSL5_300_3F-0
100
AcDbLine
 10
191.964786
 20
-233.998724
 30
0.0
 11
188.782286
 21
-233.998724
 31
0.0
  0
LINE
  5
706
100
AcDbEntity
  8
MSL5_300_3F-0
100
AcDbLine
 10
191.964786
 20
-226.493171
 30
0.0
 11
188.782286
 21
-226.493171
 31
0.0
  0
LINE
  5
707
100
AcDbEntity
  8
MSL5_300_3F-0
100
AcDbLine
 10
191.964786
 20
-222.740394
 30
0.0
 11
188.782286
 21
-222.740394
 31
0.0
  0
ARC
  5
708
100
AcDbEntity
  8
MSL5_300_3F-0
100
AcDbCircle
 10
183.759876
 20
-230.245947
 30
0.0
 40
9.02241
100
AcDbArc
 50
335.421503
 51
24.578497
  0
ARC
  5
709
100
AcDbEntity
  8
MSL5_300_3F-0
100
AcDbCircle
 10
203.417008
 20
-230.245947
 30
0.0
 40
10.634722
100
AcDbArc
 50
152.518771
 51
207.481229
  0
LINE
  5
70A
100
AcDbEntity
  8
MSL5_300_3F-0
100
AcDbLine
 10
192.782286
 20
-224.616782
 30
0.0
 11
192.782286
 21
-235.875113
 31
0.0
  0
LINE
  5
70B
100
AcDbEntity
  8
MSL5_300_3F-0
100
AcDbLine
 10
193.982286
 20
-235.153425
 30
0.0
 11
195.782286
 21
-235.153425
 31
0.0
  0
ARC
  5
70C
100
AcDbEntity
  8
MSL5_300_3F-0
100
AcDbCircle
 10
190.220121
 20
-224.616782
 30
0.0
 40
2.562165
100
AcDbArc
 50
312.916664
 51
47.083336
  0
LINE
  5
70D
100
AcDbEntity
  8
MSL5_300_3F-0
100
AcDbLine
 10
193.982286
 20
-225.33847
 30
0.0
 11
195.782286
 21
-225.33847
 31
0.0
  0
LINE
  5
70E
100
AcDbEntity
  8
MSL5_300_3F-0
100
AcDbLine
 10
195.782286
 20
-220.445947
 30
0.0
 11
193.963215
 21
-220.445947
 31
0.0
  0
LINE
  5
70F
100
AcDbEntity
  8
MSL5_300_3F-0
100
AcDbLine
 10
177.782286
 20
-191.745947
 30
0.0
 11
195.782286
 21
-191.745947
 31
0.0
  0
LINE
  5
710
100
AcDbEntity
  8
MSL5_300_3F-0
100
AcDbLine
 10
172.782286
 20
-190.745947
 30
0.0
 11
195.782286
 21
-190.745947
 31
0.0
  0
LINE
  5
711
100
AcDbEntity
  8
MSL5_300_3F-3
100
AcDbLine
 10
172.782286
 20
-199.245876
 30
0.0
 11
165.782286
 21
-199.245876
 31
0.0
  0
LINE
  5
712
100
AcDbEntity
  8
MSL5_300_3F-0
100
AcDbLine
 10
176.782286
 20
-190.745947
 30
0.0
 11
177.782286
 21
-191.745947
 31
0.0
  0
LINE
  5
713
100
AcDbEntity
  8
MSL5_300_3F-0
100
AcDbLine
 10
177.782286
 20
-190.745947
 30
0.0
 11
177.782286
 21
-191.745947
 31
0.0
1001
GENIUS_GENOREF_13
1005
B8A
  0
LINE
  5
714
100
AcDbEntity
  8
MSL5_300_3F-3
100
AcDbLine
 10
172.782286
 20
-184.245947
 30
0.0
 11
176.782286
 21
-184.245947
 31
0.0
1001
GENIUS_GENBH_13
1002
{
1000
OE
1000
CON1
1002
}
1001
GENIUS_GENOREF_13
1005
B8A
  0
LINE
  5
715
100
AcDbEntity
  8
MSL5_300_3F-3
100
AcDbLine
 10
172.782286
 20
-153.245876
 30
0.0
 11
147.782286
 21
-153.245876
 31
0.0
  0
LINE
  5
716
100
AcDbEntity
  8
MSL5_300_3F-3
100
AcDbLine
 10
172.782286
 20
-143.245876
 30
0.0
 11
147.782286
 21
-143.245876
 31
0.0
  0
LINE
  5
717
100
AcDbEntity
  8
MSL5_300_3F-7
100
AcDbLine
 10
174.782286
 20
-148.245876
 30
0.0
 11
145.782286
 21
-148.245876
 31
0.0
  0
LINE
  5
718
100
AcDbEntity
  8
MSL5_300_3F-0
100
AcDbLine
 10
147.782286
 20
-165.693835
 30
0.0
 11
172.782286
 21
-165.693835
 31
0.0
  0
LINE
  5
719
100
AcDbEntity
  8
MSL5_300_3F-7
100
AcDbLine
 10
156.782286
 20
-130.245876
 30
0.0
 11
172.782286
 21
-130.245876
 31
0.0
  0
ARC
  5
71A
100
AcDbEntity
  8
MSL5_300_3F-3
100
AcDbCircle
 10
164.782286
 20
-130.245876
 30
0.0
 40
5.0
100
AcDbArc
 50
280.0
 51
210.0
  0
CIRCLE
  5
71B
100
AcDbEntity
  8
MSL5_300_3F-3
100
AcDbCircle
 10
164.782286
 20
-130.245876
 30
0.0
 40
4.188
  0
LINE
  5
71C
100
AcDbEntity
  8
MSL5_300_3F-3
100
AcDbLine
 10
159.970286
 20
-126.245876
 30
0.0
 11
151.594286
 21
-126.245876
 31
0.0
  0
LINE
  5
71D
100
AcDbEntity
  8
MSL5_300_3F-3
100
AcDbLine
 10
150.782286
 20
-120.245876
 30
0.0
 11
160.782286
 21
-120.245876
 31
0.0
  0
LINE
  5
71E
100
AcDbEntity
  8
MSL5_300_3F-3
100
AcDbLine
 10
155.782286
 20
-128.663819
 30
0.0
 11
151.594286
 21
-126.245876
 31
0.0
  0
LINE
  5
71F
100
AcDbEntity
  8
MSL5_300_3F-3
100
AcDbLine
 10
155.782286
 20
-128.663819
 30
0.0
 11
159.970286
 21
-126.245876
 31
0.0
  0
LINE
  5
720
100
AcDbEntity
  8
MSL5_300_3F-0
100
AcDbLine
 10
195.782286
 20
-164.745947
 30
0.0
 11
177.782286
 21
-164.745947
 31
0.0
  0
LINE
  5
721
100
AcDbEntity
  8
MSL5_300_3F-0
100
AcDbLine
 10
172.782286
 20
-165.745947
 30
0.0
 11
195.782286
 21
-165.745947
 31
0.0
  0
LINE
  5
722
100
AcDbEntity
  8
MSL5_300_3F-0
100
AcDbLine
 10
177.782286
 20
-164.745947
 30
0.0
 11
177.782286
 21
-165.745947
 31
0.0
1001
GENIUS_GENOREF_13
1005
B8A
  0
LINE
  5
723
100
AcDbEntity
  8
MSL5_300_3F-0
100
AcDbLine
 10
177.782286
 20
-164.745947
 30
0.0
 11
176.782286
 21
-165.745947
 31
0.0
  0
LINE
  5
724
100
AcDbEntity
  8
MSL5_300_3F-3
100
AcDbLine
 10
176.782286
 20
-172.245947
 30
0.0
 11
172.782286
 21
-172.245947
 31
0.0
1001
GENIUS_GENBH_13
1002
{
1000
OE
1000
CON1
1002
}
1001
GENIUS_GENOREF_13
1005
B8A
  0
LINE
  5
725
100
AcDbEntity
  8
MSL5_300_3F-0
100
AcDbLine
 10
173.782286
 20
-141.745947
 30
0.0
 11
186.282286
 21
-141.745947
 31
0.0
  0
LINE
  5
726
100
AcDbEntity
  8
MSL5_300_3F-0
100
AcDbLine
 10
186.282286
 20
-118.745947
 30
0.0
 11
173.782286
 21
-118.745947
 31
0.0
  0
LINE
  5
727
100
AcDbEntity
  8
MSL5_300_3F-7
100
AcDbLine
 10
164.782286
 20
-138.245876
 30
0.0
 11
164.782286
 21
-122.245876
 31
0.0
  0
LINE
  5
728
100
AcDbEntity
  8
MSL5_300_3F-0
100
AcDbLine
 10
172.782286
 20
-119.745947
 30
0.0
 11
172.782286
 21
-140.745947
 31
0.0
  0
LINE
  5
729
100
AcDbEntity
  8
MSL5_300_3F-0
100
AcDbLine
 10
173.782286
 20
-118.745947
 30
0.0
 11
173.782286
 21
-141.745947
 31
0.0
  0
LINE
  5
72A
100
AcDbEntity
  8
MSL5_300_3F-0
100
AcDbLine
 10
172.782286
 20
-140.745947
 30
0.0
 11
173.782286
 21
-141.745947
 31
0.0
  0
LINE
  5
72B
100
AcDbEntity
  8
MSL5_300_3F-0
100
AcDbLine
 10
173.782286
 20
-118.745947
 30
0.0
 11
172.782286
 21
-119.745947
 31
0.0
  0
LINE
  5
72C
100
AcDbEntity
  8
MSL5_300_3F-0
100
AcDbLine
 10
187.282286
 20
-118.745947
 30
0.0
 11
187.282286
 21
-141.745947
 31
0.0
  0
LINE
  5
72D
100
AcDbEntity
  8
MSL5_300_3F-0
100
AcDbLine
 10
186.282286
 20
-141.745947
 30
0.0
 11
186.282286
 21
-118.745947
 31
0.0
  0
ARC
  5
72E
100
AcDbEntity
  8
MSL5_300_3F-0
100
AcDbCircle
 10
178.957286
 20
-130.245947
 30
0.0
 40
16.825
100
AcDbArc
 50
329.020901
 51
30.979099
  0
ARC
  5
72F
100
AcDbEntity
  8
MSL5_300_3F-0
100
AcDbCircle
 10
204.607286
 20
-130.245947
 30
0.0
 40
16.825
100
AcDbArc
 50
149.0209
 51
210.9791
  0
LINE
  5
730
100
AcDbEntity
  8
MSL5_300_3F-0
100
AcDbLine
 10
193.382286
 20
-138.906201
 30
0.0
 11
190.182286
 21
-138.906201
 31
0.0
  0
LINE
  5
731
100
AcDbEntity
  8
MSL5_300_3F-0
100
AcDbLine
 10
193.382286
 20
-147.566456
 30
0.0
 11
190.182286
 21
-147.566456
 31
0.0
  0
LINE
  5
732
100
AcDbEntity
  8
MSL5_300_3F-0
100
AcDbLine
 10
187.282286
 20
-141.745947
 30
0.0
 11
187.782286
 21
-142.245947
 31
0.0
  0
LINE
  5
733
100
AcDbEntity
  8
MSL5_300_3F-0
100
AcDbLine
 10
187.282286
 20
-134.245947
 30
0.0
 11
186.282286
 21
-134.245947
 31
0.0
  0
ARC
  5
734
100
AcDbEntity
  8
MSL5_300_3F-0
100
AcDbCircle
 10
192.888536
 20
-143.236329
 30
0.0
 40
5.10625
100
AcDbArc
 50
122.004627
 51
237.995373
  0
ARC
  5
735
100
AcDbEntity
  8
MSL5_300_3F-0
100
AcDbCircle
 10
190.676036
 20
-143.236329
 30
0.0
 40
5.10625
100
AcDbArc
 50
302.004628
 51
57.995372
  0
LINE
  5
736
100
AcDbEntity
  8
MSL5_300_3F-0
100
AcDbLine
 10
193.382286
 20
-121.585693
 30
0.0
 11
190.182286
 21
-121.585693
 31
0.0
  0
LINE
  5
737
100
AcDbEntity
  8
MSL5_300_3F-0
100
AcDbLine
 10
187.782286
 20
-118.245947
 30
0.0
 11
187.282286
 21
-118.745947
 31
0.0
  0
LINE
  5
738
100
AcDbEntity
  8
MSL5_300_3F-0
100
AcDbLine
 10
187.282286
 20
-126.245947
 30
0.0
 11
186.282286
 21
-126.245947
 31
0.0
  0
ELLIPSE
  5
739
100
AcDbEntity
  8
MSL5_300_3F-0
100
AcDbEllipse
 10
239.782283
 20
-247.590199
 30
0.0
 11
5.499999999998895
 21
0.0000090659728525
 31
0.0
210
0.0
220
0.0
230
-1.0
 40
0.766044
 41
-3.141592653589791
 42
0.0000000000001632
  0
ELLIPSE
  5
73A
100
AcDbEntity
  8
MSL5_300_3F-0
100
AcDbEllipse
 10
239.782286
 20
-249.325716
 30
0.0
 11
5.500000000006366
 21
0.0
 31
0.0
210
0.0
220
0.0
230
1.0
 40
0.766044
 41
0.0
 42
6.2831853071796
  0
LINE
  5
73B
100
AcDbEntity
  8
MSL5_300_3F-7
100
AcDbLine
 10
231.282286
 20
-249.325728
 30
0.0
 11
248.282286
 21
-249.325714
 31
0.0
1001
GENIUS_GENODEF_13
1002
{
1000
HIER
1070
     0
1002
}
1002
{
1000
MANEDIT
1070
     0
1002
}
1002
{
1000
NOSEL
1070
     0
1002
}
1002
{
1000
BEHIND
1070
     0
1002
}
1002
{
1000
REACTOR
1002
}
1001
GENIUS_GENOBJ-N-CEN_13
1002
{
1000
OWNER
1000
GEN
1002
}
  0
LINE
  5
73C
100
AcDbEntity
  8
MSL5_300_3F-0
100
AcDbLine
 10
232.280946
 20
-257.74594
 30
0.0
 11
240.280946
 21
-257.745946
 31
0.0
  0
ELLIPSE
  5
73D
100
AcDbEntity
  8
MSL5_300_3F-0
100
AcDbEllipse
 10
239.782286
 20
-249.325716
 30
0.0
 11
2.000000000006366
 21
0.0
 31
0.0
210
0.0
220
0.0
230
1.0
 40
0.766044
 41
0.0
 42
6.2831853071796
  0
LINE
  5
73E
100
AcDbEntity
  8
MSL5_300_3F-0
100
AcDbLine
 10
237.782286
 20
-249.325734
 30
0.0
 11
239.782288
 21
-250.611301
 31
0.0
  0
LINE
  5
73F
100
AcDbEntity
  8
MSL5_300_3F-7
100
AcDbLine
 10
236.282284
 20
-260.534688
 30
0.0
 11
236.282292
 21
-249.341961
 31
0.0
  0
LINE
  5
740
100
AcDbEntity
  8
MSL5_300_3F-7
100
AcDbLine
 10
236.282286
 20
-255.245876
 30
0.0
 11
236.282286
 21
-248.245876
 31
0.0
1001
GENIUS_GENODEF_13
1002
{
1000
HIER
1070
     0
1002
}
1002
{
1000
MANEDIT
1070
     0
1002
}
1002
{
1000
NOSEL
1070
     0
1002
}
1002
{
1000
BEHIND
1070
     0
1002
}
1002
{
1000
REACTOR
1002
}
1001
GENIUS_GENOBJ-N-CEN_13
1002
{
1000
OWNER
1000
GEN
1002
}
  0
LINE
  5
741
100
AcDbEntity
  8
MSL5_300_3F-0
100
AcDbLine
 10
230.780949
 20
-253.245947
 30
0.0
 11
230.780947
 21
-256.245939
 31
0.0
  0
ARC
  5
742
100
AcDbEntity
  8
MSL5_300_3F-0
100
AcDbCircle
 10
232.280947
 20
-256.24594
 30
0.0
 40
1.5
100
AcDbArc
 50
179.99996
 51
269.999959
  0
LINE
  5
743
100
AcDbEntity
  8
MSL5_300_3F-0
100
AcDbLine
 10
234.282283
 20
-247.590199
 30
0.0
 11
234.282286
 21
-249.325744
 31
0.0
  0
LINE
  5
744
100
AcDbEntity
  8
MSL5_300_3F-7
100
AcDbLine
 10
239.782286
 20
-242.112472
 30
0.0
 11
239.782286
 21
-256.538961
 31
0.0
1001
GENIUS_GENODEF_13
1002
{
1000
HIER
1070
     0
1002
}
1002
{
1000
MANEDIT
1070
     0
1002
}
1002
{
1000
NOSEL
1070
     0
1002
}
1002
{
1000
BEHIND
1070
     0
1002
}
1002
{
1000
REACTOR
1002
}
1001
GENIUS_GENOBJ-N-CEN_13
1002
{
1000
OWNER
1000
GEN
1002
}
  0
ARC
  5
745
100
AcDbEntity
  8
MSL5_300_3F-0
100
AcDbCircle
 10
240.280947
 20
-256.245946
 30
0.0
 40
1.5
100
AcDbArc
 50
269.999959
 51
359.999962
  0
LINE
  5
746
100
AcDbEntity
  8
MSL5_300_3F-0
100
AcDbLine
 10
241.780947
 20
-256.245947
 30
0.0
 11
241.780949
 21
-253.245947
 31
0.0
  0
LINE
  5
747
100
AcDbEntity
  8
MSL5_300_3F-0
100
AcDbLine
 10
239.782288
 20
-250.611301
 30
0.0
 11
241.782286
 21
-249.325722
 31
0.0
  0
LINE
  5
748
100
AcDbEntity
  8
MSL5_300_3F-0
100
AcDbLine
 10
245.282283
 20
-247.59019
 30
0.0
 11
245.282286
 21
-249.325716
 31
0.0
  0
LINE
  5
749
100
AcDbEntity
  8
MSL5_300_3F-7
100
AcDbLine
 10
267.782286
 20
-208.245876
 30
0.0
 11
267.782286
 21
-201.343978
 31
0.0
  0
CIRCLE
  5
74A
100
AcDbEntity
  8
MSL5_300_3F-3
100
AcDbCircle
 10
267.782286
 20
-208.245876
 30
0.0
 40
4.25
  0
ARC
  5
74B
100
AcDbEntity
  8
MSL5_300_3F-3
100
AcDbCircle
 10
267.782286
 20
-208.245876
 30
0.0
 40
5.0
100
AcDbArc
 50
82.606248
 51
7.300134
  0
LINE
  5
74C
100
AcDbEntity
  8
MSL5_300_3F-7
100
AcDbLine
 10
267.782286
 20
-208.245876
 30
0.0
 11
260.880388
 21
-208.245876
 31
0.0
  0
LINE
  5
74D
100
AcDbEntity
  8
MSL5_300_3F-7
100
AcDbLine
 10
267.782286
 20
-208.245876
 30
0.0
 11
274.684184
 21
-208.245876
 31
0.0
  0
LINE
  5
74E
100
AcDbEntity
  8
MSL5_300_3F-7
100
AcDbLine
 10
267.782286
 20
-208.245876
 30
0.0
 11
267.782286
 21
-215.147774
 31
0.0
  0
ELLIPSE
  5
74F
100
AcDbEntity
  8
MSL5_300_3F-0
100
AcDbEllipse
 10
209.782286
 20
-135.091684
 30
0.0
 11
-5.722385000000002
 21
0.0
 31
0.0
210
0.0
220
0.0
230
1.0
 40
0.766044
 41
0.0
 42
6.2831853071796
  0
ELLIPSE
  5
750
100
AcDbEntity
  8
MSL5_300_3F-4
100
AcDbEllipse
 10
209.782286
 20
-135.091684
 30
0.0
 11
-6.578499999999991
 21
0.0
 31
0.0
210
0.0
220
0.0
230
1.0
 40
0.766044
 41
1.503876197756385
 42
6.396900936057642
  0
LINE
  5
751
100
AcDbEntity
  8
MSL5_300_3F-7
100
AcDbLine
 10
209.782286
 20
-127.052261
 30
0.0
 11
209.782286
 21
-143.131107
 31
0.0
1001
GENIUS_GENODEF_13
1002
{
1000
HIER
1070
     0
1002
}
1002
{
1000
MANEDIT
1070
     0
1002
}
1002
{
1000
NOSEL
1070
     0
1002
}
1002
{
1000
BEHIND
1070
     0
1002
}
1002
{
1000
REACTOR
1002
}
1001
GENIUS_GENOBJ-N-CEN_13
1002
{
1000
OWNER
1000
GEN
1002
}
  0
LINE
  5
752
100
AcDbEntity
  8
MSL5_300_3F-0
100
AcDbLine
 10
219.982286
 20
-143.518102
 30
0.0
 11
219.982286
 21
-126.665124
 31
0.0
  0
LINE
  5
753
100
AcDbEntity
  8
MSL5_300_3F-7
100
AcDbLine
 10
267.782286
 20
-148.245876
 30
0.0
 11
267.782286
 21
-141.428629
 31
0.0
  0
CIRCLE
  5
754
100
AcDbEntity
  8
MSL5_300_3F-3
100
AcDbCircle
 10
267.782286
 20
-148.245876
 30
0.0
 40
4.25
  0
ARC
  5
755
100
AcDbEntity
  8
MSL5_300_3F-3
100
AcDbCircle
 10
267.782286
 20
-148.245876
 30
0.0
 40
5.0
100
AcDbArc
 50
82.606248
 51
7.300134
  0
LINE
  5
756
100
AcDbEntity
  8
MSL5_300_3F-7
100
AcDbLine
 10
267.782286
 20
-148.245876
 30
0.0
 11
260.96504
 21
-148.245876
 31
0.0
  0
LINE
  5
757
100
AcDbEntity
  8
MSL5_300_3F-7
100
AcDbLine
 10
267.782286
 20
-148.245876
 30
0.0
 11
274.599532
 21
-148.245876
 31
0.0
  0
LINE
  5
758
100
AcDbEntity
  8
MSL5_300_3F-7
100
AcDbLine
 10
267.782286
 20
-148.245876
 30
0.0
 11
267.782286
 21
-155.063122
 31
0.0
  0
LINE
  5
759
100
AcDbEntity
  8
MSL5_300_3F-7
100
AcDbLine
 10
297.782286
 20
-156.969465
 30
0.0
 11
297.782286
 21
-201.156995
 31
0.0
  0
CIRCLE
  5
75A
100
AcDbEntity
  8
MSL5_300_3F-3
100
AcDbCircle
 10
297.782286
 20
-208.245876
 30
0.0
 40
5.0
  0
LINE
  5
75B
100
AcDbEntity
  8
MSL5_300_3F-7
100
AcDbLine
 10
297.782286
 20
-208.245876
 30
0.0
 11
297.782286
 21
-201.156995
 31
0.0
  0
LINE
  5
75C
100
AcDbEntity
  8
MSL5_300_3F-7
100
AcDbLine
 10
297.782286
 20
-208.245876
 30
0.0
 11
290.693405
 21
-208.245876
 31
0.0
  0
LINE
  5
75D
100
AcDbEntity
  8
MSL5_300_3F-7
100
AcDbLine
 10
297.782286
 20
-208.245876
 30
0.0
 11
297.782286
 21
-215.334757
 31
0.0
  0
LINE
  5
75E
100
AcDbEntity
  8
MSL5_300_3F-7
100
AcDbLine
 10
297.782286
 20
-208.245876
 30
0.0
 11
304.871167
 21
-208.245876
 31
0.0
  0
ARC
  5
75F
100
AcDbEntity
  8
MSL5_300_3F-3
100
AcDbCircle
 10
327.782286
 20
-208.245876
 30
0.0
 40
5.0
100
AcDbArc
 50
82.606248
 51
7.300134
  0
LINE
  5
760
100
AcDbEntity
  8
MSL5_300_3F-7
100
AcDbLine
 10
327.782286
 20
-208.245876
 30
0.0
 11
327.782286
 21
-201.515086
 31
0.0
  0
CIRCLE
  5
761
100
AcDbEntity
  8
MSL5_300_3F-3
100
AcDbCircle
 10
327.782286
 20
-208.245876
 30
0.0
 40
4.25
  0
LINE
  5
762
100
AcDbEntity
  8
MSL5_300_3F-7
100
AcDbLine
 10
327.782286
 20
-208.245876
 30
0.0
 11
334.513076
 21
-208.245876
 31
0.0
  0
LINE
  5
763
100
AcDbEntity
  8
MSL5_300_3F-7
100
AcDbLine
 10
327.782286
 20
-208.245876
 30
0.0
 11
321.051496
 21
-208.245876
 31
0.0
  0
LINE
  5
764
100
AcDbEntity
  8
MSL5_300_3F-7
100
AcDbLine
 10
327.782286
 20
-208.245876
 30
0.0
 11
327.782286
 21
-214.976666
 31
0.0
  0
CIRCLE
  5
765
100
AcDbEntity
  8
MSL5_300_3F-3
100
AcDbCircle
 10
297.782286
 20
-148.245876
 30
0.0
 40
5.0
  0
LINE
  5
766
100
AcDbEntity
  8
MSL5_300_3F-7
100
AcDbLine
 10
297.782286
 20
-148.245876
 30
0.0
 11
297.782286
 21
-141.106127
 31
0.0
  0
LINE
  5
767
100
AcDbEntity
  8
MSL5_300_3F-7
100
AcDbLine
 10
297.782286
 20
-148.245876
 30
0.0
 11
290.642537
 21
-148.245876
 31
0.0
  0
LINE
  5
768
100
AcDbEntity
  8
MSL5_300_3F-7
100
AcDbLine
 10
297.782286
 20
-148.245876
 30
0.0
 11
297.782286
 21
-155.385624
 31
0.0
  0
LINE
  5
769
100
AcDbEntity
  8
MSL5_300_3F-7
100
AcDbLine
 10
297.782286
 20
-148.245876
 30
0.0
 11
304.922035
 21
-148.245876
 31
0.0
  0
LINE
  5
76A
100
AcDbEntity
  8
MSL5_300_3F-7
100
AcDbLine
 10
327.782286
 20
-148.245876
 30
0.0
 11
327.782286
 21
-141.403162
 31
0.0
  0
ARC
  5
76B
100
AcDbEntity
  8
MSL5_300_3F-3
100
AcDbCircle
 10
327.782286
 20
-148.245876
 30
0.0
 40
5.0
100
AcDbArc
 50
82.606248
 51
7.300134
  0
CIRCLE
  5
76C
100
AcDbEntity
  8
MSL5_300_3F-3
100
AcDbCircle
 10
327.782286
 20
-148.245876
 30
0.0
 40
4.25
  0
LINE
  5
76D
100
AcDbEntity
  8
MSL5_300_3F-7
100
AcDbLine
 10
327.782286
 20
-148.245876
 30
0.0
 11
334.624999
 21
-148.245876
 31
0.0
  0
LINE
  5
76E
100
AcDbEntity
  8
MSL5_300_3F-7
100
AcDbLine
 10
327.782286
 20
-148.245876
 30
0.0
 11
320.939573
 21
-148.245876
 31
0.0
  0
LINE
  5
76F
100
AcDbEntity
  8
MSL5_300_3F-7
100
AcDbLine
 10
327.782286
 20
-148.245876
 30
0.0
 11
327.782286
 21
-155.088589
 31
0.0
  0
MTEXT
  5
770
100
AcDbEntity
  8
MSL5_300_3F-6
100
AcDbMText
 10
199.61058
 20
-31.114077
 30
0.0
 40
3.5
 41
22.192126
 71
     1
 72
     1
  1
{MSL5-300-3F}
  0
LINE
  5
771
100
AcDbEntity
  8
MSL5_300_3F-7
100
AcDbLine
 10
144.782286
 20
0.0
 30
0.0
 11
204.787278
 21
0.0
 31
0.0
  0
LINE
  5
772
100
AcDbEntity
  8
MSL5_300_3F-7
100
AcDbLine
 10
144.782286
 20
93.0
 30
0.0
 11
204.787278
 21
93.0
 31
0.0
  0
LINE
  5
773
100
AcDbEntity
  8
MSL5_300_3F-0
100
AcDbLine
 10
226.282286
 20
38.0
 30
0.0
 11
196.282286
 21
38.0
 31
0.0
  0
LINE
  5
774
100
AcDbEntity
  8
MSL5_300_3F-4
100
AcDbLine
 10
226.282286
 20
40.0
 30
0.0
 11
196.282286
 21
40.0
 31
0.0
  0
LINE
  5
775
100
AcDbEntity
  8
MSL5_300_3F-7
100
AcDbLine
 10
200.203786
 20
94.646085
 30
0.0
 11
219.360786
 21
94.646085
 31
0.0
1001
GENIUS_GENODEF_13
1002
{
1000
HIER
1070
     0
1002
}
1002
{
1000
MANEDIT
1070
     0
1002
}
1002
{
1000
NOSEL
1070
     0
1002
}
1002
{
1000
BEHIND
1070
     0
1002
}
1002
{
1000
REACTOR
1002
}
1001
GENIUS_GENOBJ-N-CEN_13
1002
{
1000
OWNER
1000
GEN
1002
}
  0
LINE
  5
776
100
AcDbEntity
  8
MSL5_300_3F-0
100
AcDbLine
 10
172.782286
 20
-39.0
 30
0.0
 11
172.782286
 21
119.0
 31
0.0
  0
LINE
  5
777
100
AcDbEntity
  8
MSL5_300_3F-0
100
AcDbLine
 10
147.782286
 20
-39.0
 30
0.0
 11
147.782286
 21
119.0
 31
0.0
  0
LINE
  5
778
100
AcDbEntity
  8
MSL5_300_3F-0
100
AcDbLine
 10
195.782286
 20
-38.0
 30
0.0
 11
195.782286
 21
119.0
 31
0.0
  0
LINE
  5
779
100
AcDbEntity
  8
MSL5_300_3F-7
100
AcDbLine
 10
52.0
 20
0.0
 30
0.0
 11
52.0
 21
14.505568
 31
0.0
  0
LINE
  5
77A
100
AcDbEntity
  8
MSL5_300_3F-0
100
AcDbLine
 10
75.0
 20
-39.0
 30
0.0
 11
75.0
 21
66.6
 31
0.0
1001
GENIUS_GENOREF_13
1005
B8C
  0
LINE
  5
77B
100
AcDbEntity
  8
MSL5_300_3F-7
100
AcDbLine
 10
48.0
 20
-10.582057
 30
0.0
 11
48.0
 21
-42.0
 31
0.0
  0
LINE
  5
77C
100
AcDbEntity
  8
MSL5_300_3F-7
100
AcDbLine
 10
48.0
 20
-10.582057
 30
0.0
 11
48.0
 21
-41.0
 31
0.0
  0
LINE
  5
77D
100
AcDbEntity
  8
MSL5_300_3F-3
100
AcDbLine
 10
52.188
 20
-39.0
 30
0.0
 11
52.188
 21
-16.0
 31
0.0
  0
LINE
  5
77E
100
AcDbEntity
  8
MSL5_300_3F-3
100
AcDbLine
 10
52.188
 20
-39.0
 30
0.0
 11
52.188
 21
-16.0
 31
0.0
  0
LINE
  5
77F
100
AcDbEntity
  8
MSL5_300_3F-3
100
AcDbLine
 10
53.0
 20
-39.0
 30
0.0
 11
53.0
 21
-22.0
 31
0.0
  0
LINE
  5
780
100
AcDbEntity
  8
MSL5_300_3F-3
100
AcDbLine
 10
53.0
 20
-39.0
 30
0.0
 11
53.0
 21
-22.0
 31
0.0
  0
LINE
  5
781
100
AcDbEntity
  8
MSL5_300_3F-3
100
AcDbLine
 10
52.0
 20
-34.188
 30
0.0
 11
52.0
 21
-25.812
 31
0.0
  0
LINE
  5
782
100
AcDbEntity
  8
MSL5_300_3F-3
100
AcDbLine
 10
58.0
 20
-35.0
 30
0.0
 11
58.0
 21
-25.0
 31
0.0
  0
LINE
  5
783
100
AcDbEntity
  8
MSL5_300_3F-3
100
AcDbLine
 10
49.582057
 20
-30.0
 30
0.0
 11
52.0
 21
-25.812
 31
0.0
  0
LINE
  5
784
100
AcDbEntity
  8
MSL5_300_3F-3
100
AcDbLine
 10
75.0
 20
-34.188
 30
0.0
 11
52.0
 21
-34.188
 31
0.0
  0
LINE
  5
785
100
AcDbEntity
  8
MSL5_300_3F-3
100
AcDbLine
 10
75.0
 20
-35.0
 30
0.0
 11
58.0
 21
-35.0
 31
0.0
  0
LINE
  5
786
100
AcDbEntity
  8
MSL5_300_3F-3
100
AcDbLine
 10
49.582057
 20
-30.0
 30
0.0
 11
52.0
 21
-34.188
 31
0.0
  0
LINE
  5
787
100
AcDbEntity
  8
MSL5_300_3F-3
100
AcDbLine
 10
75.0
 20
-25.812
 30
0.0
 11
52.0
 21
-25.812
 31
0.0
  0
LINE
  5
788
100
AcDbEntity
  8
MSL5_300_3F-3
100
AcDbLine
 10
75.0
 20
-25.0
 30
0.0
 11
58.0
 21
-25.0
 31
0.0
  0
LINE
  5
789
100
AcDbEntity
  8
MSL5_300_3F-3
100
AcDbLine
 10
48.0
 20
-13.582057
 30
0.0
 11
52.188
 21
-16.0
 31
0.0
  0
LINE
  5
78A
100
AcDbEntity
  8
MSL5_300_3F-3
100
AcDbLine
 10
48.0
 20
-13.582057
 30
0.0
 11
52.188
 21
-16.0
 31
0.0
  0
LINE
  5
78B
100
AcDbEntity
  8
MSL5_300_3F-7
100
AcDbLine
 10
52.0
 20
0.0
 30
0.0
 11
52.0
 21
-14.505568
 31
0.0
  0
LINE
  5
78C
100
AcDbEntity
  8
MSL5_300_3F-7
100
AcDbLine
 10
52.0
 20
0.0
 30
0.0
 11
66.505568
 21
0.0
 31
0.0
  0
LINE
  5
78D
100
AcDbEntity
  8
MSL5_300_3F-0
100
AcDbLine
 10
172.782286
 20
-103.245947
 30
0.0
 11
147.782286
 21
-103.245947
 31
0.0
  0
LINE
  5
78E
100
AcDbEntity
  8
MSL5_300_3F-0
100
AcDbLine
 10
189.179579
 20
-113.745947
 30
0.0
 11
172.782286
 21
-113.745947
 31
0.0
  0
LINE
  5
78F
100
AcDbEntity
  8
MSL5_300_3F-0
100
AcDbLine
 10
193.382286
 20
-112.925439
 30
0.0
 11
190.182286
 21
-112.925439
 31
0.0
  0
LINE
  5
790
100
AcDbEntity
  8
MSL5_300_3F-0
100
AcDbLine
 10
195.782286
 20
-113.745947
 30
0.0
 11
194.384993
 21
-113.745947
 31
0.0
  0
LINE
  5
791
100
AcDbEntity
  8
MSL5_300_3F-7
100
AcDbLine
 10
147.782286
 20
-30.0
 30
0.0
 11
163.782286
 21
-30.0
 31
0.0
  0
LINE
  5
792
100
AcDbEntity
  8
MSL5_300_3F-0
100
AcDbLine
 10
172.782286
 20
-39.0
 30
0.0
 11
147.782286
 21
-39.0
 31
0.0
  0
LINE
  5
793
100
AcDbEntity
  8
MSL5_300_3F-7
100
AcDbLine
 10
174.782286
 20
-30.0
 30
0.0
 11
145.782286
 21
-30.0
 31
0.0
  0
LINE
  5
794
100
AcDbEntity
  8
MSL5_300_3F-3
100
AcDbLine
 10
159.782286
 20
-22.0
 30
0.0
 11
169.782286
 21
-22.0
 31
0.0
  0
LINE
  5
795
100
AcDbEntity
  8
MSL5_300_3F-3
100
AcDbLine
 10
159.782286
 20
-22.0
 30
0.0
 11
169.782286
 21
-22.0
 31
0.0
  0
LINE
  5
796
100
AcDbEntity
  8
MSL5_300_3F-3
100
AcDbLine
 10
164.782286
 20
-13.582057
 30
0.0
 11
160.594286
 21
-16.0
 31
0.0
  0
LINE
  5
797
100
AcDbEntity
  8
MSL5_300_3F-3
100
AcDbLine
 10
164.782286
 20
-13.582057
 30
0.0
 11
160.594286
 21
-16.0
 31
0.0
  0
LINE
  5
798
100
AcDbEntity
  8
MSL5_300_3F-3
100
AcDbLine
 10
160.594286
 20
-16.0
 30
0.0
 11
168.970286
 21
-16.0
 31
0.0
  0
LINE
  5
799
100
AcDbEntity
  8
MSL5_300_3F-3
100
AcDbLine
 10
160.594286
 20
-16.0
 30
0.0
 11
168.970286
 21
-16.0
 31
0.0
  0
ARC
  5
79A
100
AcDbEntity
  8
MSL5_300_3F-4
100
AcDbCircle
 10
155.782286
 20
-30.0
 30
0.0
 40
5.0
100
AcDbArc
 50
280.0
 51
210.0
  0
CIRCLE
  5
79B
100
AcDbEntity
  8
MSL5_300_3F-0
100
AcDbCircle
 10
155.782286
 20
-30.0
 30
0.0
 40
4.188
  0
LINE
  5
79C
100
AcDbEntity
  8
MSL5_300_3F-7
100
AcDbLine
 10
155.782286
 20
-38.0
 30
0.0
 11
155.782286
 21
-22.0
 31
0.0
  0
LINE
  5
79D
100
AcDbEntity
  8
MSL5_300_3F-3
100
AcDbLine
 10
160.594286
 20
-39.0
 30
0.0
 11
160.594286
 21
-16.0
 31
0.0
  0
LINE
  5
79E
100
AcDbEntity
  8
MSL5_300_3F-3
100
AcDbLine
 10
160.594286
 20
-39.0
 30
0.0
 11
160.594286
 21
-16.0
 31
0.0
  0
LINE
  5
79F
100
AcDbEntity
  8
MSL5_300_3F-3
100
AcDbLine
 10
159.782286
 20
-39.0
 30
0.0
 11
159.782286
 21
-22.0
 31
0.0
  0
LINE
  5
7A0
100
AcDbEntity
  8
MSL5_300_3F-3
100
AcDbLine
 10
159.782286
 20
-39.0
 30
0.0
 11
159.782286
 21
-22.0
 31
0.0
  0
LINE
  5
7A1
100
AcDbEntity
  8
MSL5_300_3F-3
100
AcDbLine
 10
169.782286
 20
-39.0
 30
0.0
 11
169.782286
 21
-22.0
 31
0.0
  0
LINE
  5
7A2
100
AcDbEntity
  8
MSL5_300_3F-3
100
AcDbLine
 10
169.782286
 20
-39.0
 30
0.0
 11
169.782286
 21
-22.0
 31
0.0
  0
LINE
  5
7A3
100
AcDbEntity
  8
MSL5_300_3F-3
100
AcDbLine
 10
168.970286
 20
-39.0
 30
0.0
 11
168.970286
 21
-16.0
 31
0.0
  0
LINE
  5
7A4
100
AcDbEntity
  8
MSL5_300_3F-3
100
AcDbLine
 10
168.970286
 20
-39.0
 30
0.0
 11
168.970286
 21
-16.0
 31
0.0
  0
LINE
  5
7A5
100
AcDbEntity
  8
MSL5_300_3F-7
100
AcDbLine
 10
164.782286
 20
-10.582057
 30
0.0
 11
164.782286
 21
-42.0
 31
0.0
  0
LINE
  5
7A6
100
AcDbEntity
  8
MSL5_300_3F-7
100
AcDbLine
 10
164.782286
 20
-10.582057
 30
0.0
 11
164.782286
 21
-42.0
 31
0.0
  0
LINE
  5
7A7
100
AcDbEntity
  8
MSL5_300_3F-0
100
AcDbLine
 10
177.782286
 20
-13.5
 30
0.0
 11
195.782286
 21
-13.5
 31
0.0
  0
LINE
  5
7A8
100
AcDbEntity
  8
MSL5_300_3F-0
100
AcDbLine
 10
195.782286
 20
-12.5
 30
0.0
 11
172.782286
 21
-12.5
 31
0.0
  0
LINE
  5
7A9
100
AcDbEntity
  8
MSL5_300_3F-3
100
AcDbLine
 10
164.782286
 20
-13.582057
 30
0.0
 11
168.970286
 21
-16.0
 31
0.0
  0
LINE
  5
7AA
100
AcDbEntity
  8
MSL5_300_3F-3
100
AcDbLine
 10
164.782286
 20
-13.582057
 30
0.0
 11
168.970286
 21
-16.0
 31
0.0
  0
LINE
  5
7AB
100
AcDbEntity
  8
MSL5_300_3F-0
100
AcDbLine
 10
176.782286
 20
-12.5
 30
0.0
 11
177.782286
 21
-13.5
 31
0.0
  0
LINE
  5
7AC
100
AcDbEntity
  8
MSL5_300_3F-0
100
AcDbLine
 10
177.782286
 20
-12.5
 30
0.0
 11
177.782286
 21
-13.5
 31
0.0
  0
LINE
  5
7AD
100
AcDbEntity
  8
MSL5_300_3F-3
100
AcDbLine
 10
74.0
 20
67.4391
 30
0.0
 11
74.0
 21
38.0
 31
0.0
1001
GENIUS_GENBH_13
1002
{
1000
OE
1000
CON1
1002
}
1001
GENIUS_GENOREF_13
1005
B8B
  0
LINE
  5
7AE
100
AcDbEntity
  8
MSL5_300_3F-3
100
AcDbLine
 10
49.582057
 20
30.0
 30
0.0
 11
52.0
 21
34.188
 31
0.0
  0
LINE
  5
7AF
100
AcDbEntity
  8
MSL5_300_3F-3
100
AcDbLine
 10
49.582057
 20
30.0
 30
0.0
 11
52.0
 21
34.188
 31
0.0
  0
LINE
  5
7B0
100
AcDbEntity
  8
MSL5_300_3F-3
100
AcDbLine
 10
52.0
 20
25.812
 30
0.0
 11
52.0
 21
34.188
 31
0.0
  0
LINE
  5
7B1
100
AcDbEntity
  8
MSL5_300_3F-3
100
AcDbLine
 10
52.0
 20
25.812
 30
0.0
 11
52.0
 21
34.188
 31
0.0
  0
LINE
  5
7B2
100
AcDbEntity
  8
MSL5_300_3F-3
100
AcDbLine
 10
58.0
 20
25.0
 30
0.0
 11
58.0
 21
35.0
 31
0.0
  0
LINE
  5
7B3
100
AcDbEntity
  8
MSL5_300_3F-3
100
AcDbLine
 10
58.0
 20
25.0
 30
0.0
 11
58.0
 21
35.0
 31
0.0
  0
LINE
  5
7B4
100
AcDbEntity
  8
MSL5_300_3F-3
100
AcDbLine
 10
75.0
 20
25.0
 30
0.0
 11
58.0
 21
25.0
 31
0.0
  0
LINE
  5
7B5
100
AcDbEntity
  8
MSL5_300_3F-3
100
AcDbLine
 10
75.0
 20
25.0
 30
0.0
 11
58.0
 21
25.0
 31
0.0
  0
LINE
  5
7B6
100
AcDbEntity
  8
MSL5_300_3F-3
100
AcDbLine
 10
75.0
 20
25.812
 30
0.0
 11
52.0
 21
25.812
 31
0.0
  0
LINE
  5
7B7
100
AcDbEntity
  8
MSL5_300_3F-3
100
AcDbLine
 10
75.0
 20
25.812
 30
0.0
 11
52.0
 21
25.812
 31
0.0
  0
LINE
  5
7B8
100
AcDbEntity
  8
MSL5_300_3F-3
100
AcDbLine
 10
49.582057
 20
30.0
 30
0.0
 11
52.0
 21
25.812
 31
0.0
  0
LINE
  5
7B9
100
AcDbEntity
  8
MSL5_300_3F-3
100
AcDbLine
 10
49.582057
 20
30.0
 30
0.0
 11
52.0
 21
25.812
 31
0.0
  0
LINE
  5
7BA
100
AcDbEntity
  8
MSL5_300_3F-3
100
AcDbLine
 10
75.0
 20
35.0
 30
0.0
 11
58.0
 21
35.0
 31
0.0
  0
LINE
  5
7BB
100
AcDbEntity
  8
MSL5_300_3F-3
100
AcDbLine
 10
75.0
 20
34.188
 30
0.0
 11
52.0
 21
34.188
 31
0.0
  0
LINE
  5
7BC
100
AcDbEntity
  8
MSL5_300_3F-3
100
AcDbLine
 10
75.0
 20
34.188
 30
0.0
 11
52.0
 21
34.188
 31
0.0
  0
LINE
  5
7BD
100
AcDbEntity
  8
MSL5_300_3F-3
100
AcDbLine
 10
75.0
 20
35.0
 30
0.0
 11
58.0
 21
35.0
 31
0.0
  0
LINE
  5
7BE
100
AcDbEntity
  8
MSL5_300_3F-0
100
AcDbLine
 10
74.843072
 20
70.666832
 30
0.0
 11
66.416583
 21
77.737496
 31
0.0
  0
LINE
  5
7BF
100
AcDbEntity
  8
MSL5_300_3F-3
100
AcDbLine
 10
50.937964
 20
86.809377
 30
0.0
 11
51.580752
 21
87.575422
 31
0.0
  0
LINE
  5
7C0
100
AcDbEntity
  8
MSL5_300_3F-0
100
AcDbLine
 10
66.416583
 20
77.737496
 30
0.0
 11
65.131008
 21
76.205407
 31
0.0
  0
LINE
  5
7C1
100
AcDbEntity
  8
MSL5_300_3F-3
100
AcDbLine
 10
64.564825
 20
75.375084
 30
0.0
 11
65.207612
 21
76.141128
 31
0.0
  0
LINE
  5
7C2
100
AcDbEntity
  8
MSL5_300_3F-0
100
AcDbLine
 10
72.365354
 20
76.270484
 30
0.0
 11
72.161916
 21
72.916589
 31
0.0
  0
LINE
  5
7C3
100
AcDbEntity
  8
MSL5_300_3F-7
100
AcDbLine
 10
73.301727
 20
77.386409
 30
0.0
 11
68.331701
 21
71.463363
 31
0.0
  0
LINE
  5
7C4
100
AcDbEntity
  8
MSL5_300_3F-0
100
AcDbLine
 10
74.0
 20
67.830823
 30
0.0
 11
74.0
 21
67.4391
 31
0.0
1001
GENIUS_GENOREF_13
1005
B8B
  0
LINE
  5
7C5
100
AcDbEntity
  8
MSL5_300_3F-3
100
AcDbLine
 10
72.766044
 20
68.473611
 30
0.0
 11
73.532089
 21
69.116399
 31
0.0
  0
ARC
  5
7C6
100
AcDbEntity
  8
MSL5_300_3F-0
100
AcDbCircle
 10
72.0
 20
67.830823
 30
0.0
 40
2.0
100
AcDbArc
 50
360.0
 51
50.0
1001
GENIUS_GENODEF_13
1002
{
1000
HIER
1070
     0
1002
}
1002
{
1000
MANEDIT
1070
     0
1002
}
1002
{
1000
NOSEL
1070
     0
1002
}
1002
{
1000
BEHIND
1070
     0
1002
}
1002
{
1000
REACTOR
1002
}
1001
GENIUS_GENOBJ-N-FIL_13
1002
{
1000
OWNER
1000
GEN
1002
}
  0
LINE
  5
7C7
100
AcDbEntity
  8
MSL5_300_3F-0
100
AcDbLine
 10
73.557497
 20
69.134743
 30
0.0
 11
74.843072
 21
70.666832
 31
0.0
  0
LINE
  5
7C8
100
AcDbEntity
  8
MSL5_300_3F-0
100
AcDbLine
 10
69.097739
 20
75.487739
 30
0.0
 11
72.365354
 21
76.270484
 31
0.0
  0
LINE
  5
7C9
100
AcDbEntity
  8
MSL5_300_3F-0
100
AcDbLine
 10
173.782286
 20
63.5
 30
0.0
 11
173.782286
 21
40.5
 31
0.0
  0
LINE
  5
7CA
100
AcDbEntity
  8
MSL5_300_3F-0
100
AcDbLine
 10
172.782286
 20
62.5
 30
0.0
 11
172.782286
 21
41.5
 31
0.0
  0
LINE
  5
7CB
100
AcDbEntity
  8
MSL5_300_3F-0
100
AcDbLine
 10
187.282286
 20
63.5
 30
0.0
 11
187.282286
 21
40.5
 31
0.0
  0
LINE
  5
7CC
100
AcDbEntity
  8
MSL5_300_3F-0
100
AcDbLine
 10
186.282286
 20
40.5
 30
0.0
 11
186.282286
 21
63.5
 31
0.0
  0
LINE
  5
7CD
100
AcDbEntity
  8
MSL5_300_3F-0
100
AcDbLine
 10
187.782286
 20
64.990382
 30
0.0
 11
187.782286
 21
39.009619
 31
0.0
  0
ARC
  5
7CE
100
AcDbEntity
  8
MSL5_300_3F-0
100
AcDbCircle
 10
178.957286
 20
52.0
 30
0.0
 40
16.825
100
AcDbArc
 50
329.020901
 51
30.979099
  0
ARC
  5
7CF
100
AcDbEntity
  8
MSL5_300_3F-0
100
AcDbCircle
 10
204.607286
 20
52.0
 30
0.0
 40
16.825
100
AcDbArc
 50
149.0209
 51
210.9791
  0
LINE
  5
7D0
100
AcDbEntity
  8
MSL5_300_3F-7
100
AcDbLine
 10
147.782286
 20
30.0
 30
0.0
 11
163.782286
 21
30.0
 31
0.0
  0
LINE
  5
7D1
100
AcDbEntity
  8
MSL5_300_3F-7
100
AcDbLine
 10
174.782286
 20
30.0
 30
0.0
 11
145.782286
 21
30.0
 31
0.0
  0
ARC
  5
7D2
100
AcDbEntity
  8
MSL5_300_3F-4
100
AcDbCircle
 10
155.782286
 20
30.0
 30
0.0
 40
5.0
100
AcDbArc
 50
280.0
 51
210.0
  0
CIRCLE
  5
7D3
100
AcDbEntity
  8
MSL5_300_3F-0
100
AcDbCircle
 10
155.782286
 20
30.0
 30
0.0
 40
4.188
  0
LINE
  5
7D4
100
AcDbEntity
  8
MSL5_300_3F-7
100
AcDbLine
 10
155.782286
 20
22.0
 30
0.0
 11
155.782286
 21
38.0
 31
0.0
  0
LINE
  5
7D5
100
AcDbEntity
  8
MSL5_300_3F-0
100
AcDbLine
 10
172.782286
 20
12.5
 30
0.0
 11
195.782286
 21
12.5
 31
0.0
  0
LINE
  5
7D6
100
AcDbEntity
  8
MSL5_300_3F-0
100
AcDbLine
 10
195.782286
 20
13.5
 30
0.0
 11
177.782286
 21
13.5
 31
0.0
  0
LINE
  5
7D7
100
AcDbEntity
  8
MSL5_300_3F-0
100
AcDbLine
 10
177.782286
 20
13.5
 30
0.0
 11
177.782286
 21
12.5
 31
0.0
  0
LINE
  5
7D8
100
AcDbEntity
  8
MSL5_300_3F-0
100
AcDbLine
 10
177.782286
 20
13.5
 30
0.0
 11
176.782286
 21
12.5
 31
0.0
  0
LINE
  5
7D9
100
AcDbEntity
  8
MSL5_300_3F-7
100
AcDbLine
 10
169.538634
 20
52.0
 30
0.0
 11
199.457847
 21
52.0
 31
0.0
  0
LINE
  5
7DA
100
AcDbEntity
  8
MSL5_300_3F-0
100
AcDbLine
 10
173.782286
 20
40.5
 30
0.0
 11
186.282286
 21
40.5
 31
0.0
  0
LINE
  5
7DB
100
AcDbEntity
  8
MSL5_300_3F-0
100
AcDbLine
 10
172.782286
 20
41.5
 30
0.0
 11
173.782286
 21
40.5
 31
0.0
  0
LINE
  5
7DC
100
AcDbEntity
  8
MSL5_300_3F-0
100
AcDbLine
 10
193.382286
 20
43.339746
 30
0.0
 11
190.182286
 21
43.339746
 31
0.0
  0
LINE
  5
7DD
100
AcDbEntity
  8
MSL5_300_3F-0
100
AcDbLine
 10
193.382286
 20
34.679492
 30
0.0
 11
190.182286
 21
34.679492
 31
0.0
  0
LINE
  5
7DE
100
AcDbEntity
  8
MSL5_300_3F-0
100
AcDbLine
 10
187.282286
 20
40.5
 30
0.0
 11
187.782286
 21
40.0
 31
0.0
  0
ARC
  5
7DF
100
AcDbEntity
  8
MSL5_300_3F-0
100
AcDbCircle
 10
192.888536
 20
39.009619
 30
0.0
 40
5.10625
100
AcDbArc
 50
122.004627
 51
237.995373
  0
ARC
  5
7E0
100
AcDbEntity
  8
MSL5_300_3F-0
100
AcDbCircle
 10
190.676036
 20
39.009619
 30
0.0
 40
5.10625
100
AcDbArc
 50
302.004628
 51
57.995372
  0
LINE
  5
7E1
100
AcDbEntity
  8
MSL5_300_3F-0
100
AcDbLine
 10
187.282286
 20
48.0
 30
0.0
 11
186.282286
 21
48.0
 31
0.0
  0
LINE
  5
7E2
100
AcDbEntity
  8
MSL5_300_3F-0
100
AcDbLine
 10
187.282286
 20
56.0
 30
0.0
 11
186.282286
 21
56.0
 31
0.0
  0
LINE
  5
7E3
100
AcDbEntity
  8
MSL5_300_3F-0
100
AcDbLine
 10
147.782286
 20
66.6
 30
0.0
 11
172.782286
 21
66.6
 31
0.0
  0
LINE
  5
7E4
100
AcDbEntity
  8
MSL5_300_3F-0
100
AcDbLine
 10
147.782286
 20
119.0
 30
0.0
 11
172.782286
 21
119.0
 31
0.0
  0
LINE
  5
7E5
100
AcDbEntity
  8
MSL5_300_3F-0
100
AcDbLine
 10
195.782286
 20
80.5
 30
0.0
 11
172.782286
 21
80.5
 31
0.0
  0
LINE
  5
7E6
100
AcDbEntity
  8
MSL5_300_3F-0
100
AcDbLine
 10
186.282286
 20
63.5
 30
0.0
 11
173.782286
 21
63.5
 31
0.0
  0
LINE
  5
7E7
100
AcDbEntity
  8
MSL5_300_3F-0
100
AcDbLine
 10
173.782286
 20
63.5
 30
0.0
 11
172.782286
 21
62.5
 31
0.0
  0
LINE
  5
7E8
100
AcDbEntity
  8
MSL5_300_3F-0
100
AcDbLine
 10
193.382286
 20
60.660254
 30
0.0
 11
190.182286
 21
60.660254
 31
0.0
  0
LINE
  5
7E9
100
AcDbEntity
  8
MSL5_300_3F-0
100
AcDbLine
 10
193.382286
 20
69.320509
 30
0.0
 11
190.182286
 21
69.320509
 31
0.0
  0
LINE
  5
7EA
100
AcDbEntity
  8
MSL5_300_3F-0
100
AcDbLine
 10
187.782286
 20
64.0
 30
0.0
 11
187.282286
 21
63.5
 31
0.0
  0
ARC
  5
7EB
100
AcDbEntity
  8
MSL5_300_3F-0
100
AcDbCircle
 10
192.888536
 20
64.990382
 30
0.0
 40
5.10625
100
AcDbArc
 50
122.004627
 51
237.995373
  0
ARC
  5
7EC
100
AcDbEntity
  8
MSL5_300_3F-0
100
AcDbCircle
 10
190.676036
 20
64.990382
 30
0.0
 40
5.10625
100
AcDbArc
 50
302.004628
 51
57.995372
  0
LINE
  5
7ED
100
AcDbEntity
  8
MSL5_300_3F-0
100
AcDbLine
 10
172.782286
 20
105.5
 30
0.0
 11
195.782286
 21
105.5
 31
0.0
  0
LINE
  5
7EE
100
AcDbEntity
  8
MSL5_300_3F-0
100
AcDbLine
 10
195.782286
 20
119.0
 30
0.0
 11
196.282286
 21
119.0
 31
0.0
  0
LINE
  5
7EF
100
AcDbEntity
  8
MSL5_300_3F-7
100
AcDbLine
 10
297.782286
 20
21.276411
 30
0.0
 11
297.782286
 21
-22.911119
 31
0.0
  0
LINE
  5
7F0
100
AcDbEntity
  8
MSL5_300_3F-7
100
AcDbLine
 10
267.782286
 20
-30.0
 30
0.0
 11
267.782286
 21
-23.098102
 31
0.0
  0
CIRCLE
  5
7F1
100
AcDbEntity
  8
MSL5_300_3F-0
100
AcDbCircle
 10
267.782286
 20
-30.0
 30
0.0
 40
4.25
  0
ARC
  5
7F2
100
AcDbEntity
  8
MSL5_300_3F-4
100
AcDbCircle
 10
267.782286
 20
-30.0
 30
0.0
 40
5.0
100
AcDbArc
 50
82.606248
 51
7.300134
  0
LINE
  5
7F3
100
AcDbEntity
  8
MSL5_300_3F-7
100
AcDbLine
 10
267.782286
 20
-30.0
 30
0.0
 11
260.880388
 21
-30.0
 31
0.0
  0
LINE
  5
7F4
100
AcDbEntity
  8
MSL5_300_3F-7
100
AcDbLine
 10
267.782286
 20
-30.0
 30
0.0
 11
274.684184
 21
-30.0
 31
0.0
  0
LINE
  5
7F5
100
AcDbEntity
  8
MSL5_300_3F-7
100
AcDbLine
 10
267.782286
 20
-30.0
 30
0.0
 11
267.782286
 21
-36.901898
 31
0.0
  0
CIRCLE
  5
7F6
100
AcDbEntity
  8
MSL5_300_3F-0
100
AcDbCircle
 10
297.782286
 20
-30.0
 30
0.0
 40
5.0
  0
LINE
  5
7F7
100
AcDbEntity
  8
MSL5_300_3F-7
100
AcDbLine
 10
297.782286
 20
-30.0
 30
0.0
 11
297.782286
 21
-22.911119
 31
0.0
  0
LINE
  5
7F8
100
AcDbEntity
  8
MSL5_300_3F-7
100
AcDbLine
 10
297.782286
 20
-30.0
 30
0.0
 11
290.693405
 21
-30.0
 31
0.0
  0
LINE
  5
7F9
100
AcDbEntity
  8
MSL5_300_3F-7
100
AcDbLine
 10
297.782286
 20
-30.0
 30
0.0
 11
297.782286
 21
-37.088881
 31
0.0
  0
LINE
  5
7FA
100
AcDbEntity
  8
MSL5_300_3F-7
100
AcDbLine
 10
297.782286
 20
-30.0
 30
0.0
 11
304.871167
 21
-30.0
 31
0.0
  0
LINE
  5
7FB
100
AcDbEntity
  8
MSL5_300_3F-7
100
AcDbLine
 10
327.782286
 20
-30.0
 30
0.0
 11
327.782286
 21
-23.26921
 31
0.0
  0
ARC
  5
7FC
100
AcDbEntity
  8
MSL5_300_3F-4
100
AcDbCircle
 10
327.782286
 20
-30.0
 30
0.0
 40
5.0
100
AcDbArc
 50
82.606248
 51
7.300134
  0
CIRCLE
  5
7FD
100
AcDbEntity
  8
MSL5_300_3F-0
100
AcDbCircle
 10
327.782286
 20
-30.0
 30
0.0
 40
4.25
  0
LINE
  5
7FE
100
AcDbEntity
  8
MSL5_300_3F-7
100
AcDbLine
 10
327.782286
 20
-30.0
 30
0.0
 11
334.513076
 21
-30.0
 31
0.0
  0
LINE
  5
7FF
100
AcDbEntity
  8
MSL5_300_3F-7
100
AcDbLine
 10
327.782286
 20
-30.0
 30
0.0
 11
321.051496
 21
-30.0
 31
0.0
  0
LINE
  5
800
100
AcDbEntity
  8
MSL5_300_3F-7
100
AcDbLine
 10
327.782286
 20
-30.0
 30
0.0
 11
327.782286
 21
-36.73079
 31
0.0
  0
LINE
  5
801
100
AcDbEntity
  8
MSL5_300_3F-7
100
AcDbLine
 10
236.282286
 20
69.75
 30
0.0
 11
236.282286
 21
35.0
 31
0.0
1001
GENIUS_GENODEF_13
1002
{
1000
HIER
1070
     0
1002
}
1002
{
1000
MANEDIT
1070
     0
1002
}
1002
{
1000
NOSEL
1070
     0
1002
}
1002
{
1000
BEHIND
1070
     0
1002
}
1002
{
1000
REACTOR
1002
}
1001
GENIUS_GENOBJ-N-CEN_13
1002
{
1000
OWNER
1000
GEN
1002
}
  0
CIRCLE
  5
802
100
AcDbEntity
  8
MSL5_300_3F-0
100
AcDbCircle
 10
236.282286
 20
62.0
 30
0.0
 40
5.501337
  0
LINE
  5
803
100
AcDbEntity
  8
MSL5_300_3F-7
100
AcDbLine
 10
244.032286
 20
49.0
 30
0.0
 11
228.532286
 21
49.0
 31
0.0
1001
GENIUS_GENODEF_13
1002
{
1000
HIER
1070
     0
1002
}
1002
{
1000
MANEDIT
1070
     0
1002
}
1002
{
1000
NOSEL
1070
     0
1002
}
1002
{
1000
BEHIND
1070
     0
1002
}
1002
{
1000
REACTOR
1002
}
1001
GENIUS_GENOBJ-N-CEN_13
1002
{
1000
OWNER
1000
GEN
1002
}
  0
CIRCLE
  5
804
100
AcDbEntity
  8
MSL5_300_3F-0
100
AcDbCircle
 10
236.282286
 20
49.0
 30
0.0
 40
5.501337
  0
LINE
  5
805
100
AcDbEntity
  8
MSL5_300_3F-0
100
AcDbLine
 10
231.282286
 20
40.0
 30
0.0
 11
226.282286
 21
40.0
 31
0.0
  0
LINE
  5
806
100
AcDbEntity
  8
MSL5_300_3F-0
100
AcDbLine
 10
226.282286
 20
40.0
 30
0.0
 11
226.282286
 21
38.0
 31
0.0
  0
LINE
  5
807
100
AcDbEntity
  8
MSL5_300_3F-0
100
AcDbLine
 10
231.282286
 20
38.0
 30
0.0
 11
234.282286
 21
38.0
 31
0.0
  0
LINE
  5
808
100
AcDbEntity
  8
MSL5_300_3F-0
100
AcDbLine
 10
231.282286
 20
40.0
 30
0.0
 11
231.282286
 21
38.0
 31
0.0
  0
LINE
  5
809
100
AcDbEntity
  8
MSL5_300_3F-0
100
AcDbLine
 10
234.632286
 20
38.0
 30
0.0
 11
234.282286
 21
38.0
 31
0.0
  0
LINE
  5
80A
100
AcDbEntity
  8
MSL5_300_3F-0
100
AcDbLine
 10
237.932286
 20
43.751933
 30
0.0
 11
237.932286
 21
38.0
 31
0.0
  0
LINE
  5
80B
100
AcDbEntity
  8
MSL5_300_3F-0
100
AcDbLine
 10
234.632286
 20
43.751933
 30
0.0
 11
234.632286
 21
38.0
 31
0.0
  0
LINE
  5
80C
100
AcDbEntity
  8
MSL5_300_3F-0
100
AcDbLine
 10
237.932286
 20
56.751933
 30
0.0
 11
237.932286
 21
54.248067
 31
0.0
  0
LINE
  5
80D
100
AcDbEntity
  8
MSL5_300_3F-0
100
AcDbLine
 10
234.632286
 20
56.751933
 30
0.0
 11
234.632286
 21
54.248067
 31
0.0
  0
LINE
  5
80E
100
AcDbEntity
  8
MSL5_300_3F-7
100
AcDbLine
 10
267.782286
 20
30.0
 30
0.0
 11
267.782286
 21
36.817246
 31
0.0
  0
CIRCLE
  5
80F
100
AcDbEntity
  8
MSL5_300_3F-0
100
AcDbCircle
 10
267.782286
 20
30.0
 30
0.0
 40
4.25
  0
ARC
  5
810
100
AcDbEntity
  8
MSL5_300_3F-4
100
AcDbCircle
 10
267.782286
 20
30.0
 30
0.0
 40
5.0
100
AcDbArc
 50
82.606248
 51
7.300134
  0
LINE
  5
811
100
AcDbEntity
  8
MSL5_300_3F-7
100
AcDbLine
 10
267.782286
 20
30.0
 30
0.0
 11
260.96504
 21
30.0
 31
0.0
  0
LINE
  5
812
100
AcDbEntity
  8
MSL5_300_3F-7
100
AcDbLine
 10
267.782286
 20
30.0
 30
0.0
 11
274.599532
 21
30.0
 31
0.0
  0
LINE
  5
813
100
AcDbEntity
  8
MSL5_300_3F-7
100
AcDbLine
 10
267.782286
 20
30.0
 30
0.0
 11
267.782286
 21
23.182754
 31
0.0
  0
ELLIPSE
  5
814
100
AcDbEntity
  8
MSL5_300_3F-0
100
AcDbEllipse
 10
239.782286
 20
72.670075
 30
0.0
 11
5.5
 21
0.0
 31
0.0
210
0.0
220
0.0
230
1.0
 40
0.642788
 41
3.141592653589793
 42
6.283185307180119
  0
ELLIPSE
  5
815
100
AcDbEntity
  8
MSL5_300_3F-0
100
AcDbEllipse
 10
239.782286
 20
74.202164
 30
0.0
 11
5.5
 21
0.0
 31
0.0
210
0.0
220
0.0
230
1.0
 40
0.642788
 41
0.0
 42
6.2831853071796
  0
LINE
  5
816
100
AcDbEntity
  8
MSL5_300_3F-7
100
AcDbLine
 10
244.032286
 20
62.0
 30
0.0
 11
228.532286
 21
62.0
 31
0.0
1001
GENIUS_GENODEF_13
1002
{
1000
HIER
1070
     0
1002
}
1002
{
1000
MANEDIT
1070
     0
1002
}
1002
{
1000
NOSEL
1070
     0
1002
}
1002
{
1000
BEHIND
1070
     0
1002
}
1002
{
1000
REACTOR
1002
}
1001
GENIUS_GENOBJ-N-CEN_13
1002
{
1000
OWNER
1000
GEN
1002
}
  0
LINE
  5
817
100
AcDbEntity
  8
MSL5_300_3F-7
100
AcDbLine
 10
248.182286
 20
72.670075
 30
0.0
 11
231.382286
 21
72.670075
 31
0.0
1001
GENIUS_GENODEF_13
1002
{
1000
HIER
1070
     0
1002
}
1002
{
1000
MANEDIT
1070
     0
1002
}
1002
{
1000
NOSEL
1070
     0
1002
}
1002
{
1000
BEHIND
1070
     0
1002
}
1002
{
1000
REACTOR
1002
}
1001
GENIUS_GENOBJ-N-CEN_13
1002
{
1000
OWNER
1000
GEN
1002
}
  0
ELLIPSE
  5
818
100
AcDbEntity
  8
MSL5_300_3F-0
100
AcDbEllipse
 10
239.782286
 20
74.202164
 30
0.0
 11
-2.0
 21
0.0
 31
0.0
210
0.0
220
0.0
230
1.0
 40
0.642788
 41
-1.112236758281635
 42
4.253829411871905
  0
LINE
  5
819
100
AcDbEntity
  8
MSL5_300_3F-0
100
AcDbLine
 10
237.782286
 20
74.202164
 30
0.0
 11
239.782286
 21
76.270484
 31
0.0
  0
LINE
  5
81A
100
AcDbEntity
  8
MSL5_300_3F-7
100
AcDbLine
 10
209.782286
 20
101.874664
 30
0.0
 11
209.782286
 21
87.417507
 31
0.0
1001
GENIUS_GENODEF_13
1002
{
1000
HIER
1070
     0
1002
}
1002
{
1000
MANEDIT
1070
     0
1002
}
1002
{
1000
NOSEL
1070
     0
1002
}
1002
{
1000
BEHIND
1070
     0
1002
}
1002
{
1000
REACTOR
1002
}
1001
GENIUS_GENOBJ-N-CEN_13
1002
{
1000
OWNER
1000
GEN
1002
}
  0
LINE
  5
81B
100
AcDbEntity
  8
MSL5_300_3F-0
100
AcDbLine
 10
234.282286
 20
72.670075
 30
0.0
 11
234.282286
 21
74.202164
 31
0.0
  0
ELLIPSE
  5
81C
100
AcDbEntity
  8
MSL5_300_3F-3
100
AcDbEllipse
 10
209.782286
 20
94.646085
 30
0.0
 11
-6.578500000000019
 21
0.0
 31
0.0
210
0.0
220
0.0
230
1.0
 40
0.642788
 41
1.514618869528128
 42
6.418462237826983
  0
ELLIPSE
  5
81D
100
AcDbEntity
  8
MSL5_300_3F-3
100
AcDbEllipse
 10
209.782286
 20
94.646085
 30
0.0
 11
-5.722384999999974
 21
0.0
 31
0.0
210
0.0
220
0.0
230
1.0
 40
0.642788
 41
0.0
 42
6.2831853071796
  0
LINE
  5
81E
100
AcDbEntity
  8
MSL5_300_3F-0
100
AcDbLine
 10
239.782286
 20
76.270484
 30
0.0
 11
241.782286
 21
74.202164
 31
0.0
  0
LINE
  5
81F
100
AcDbEntity
  8
MSL5_300_3F-7
100
AcDbLine
 10
239.782286
 20
78.375084
 30
0.0
 11
239.782286
 21
64.797004
 31
0.0
1001
GENIUS_GENODEF_13
1002
{
1000
HIER
1070
     0
1002
}
1002
{
1000
MANEDIT
1070
     0
1002
}
1002
{
1000
NOSEL
1070
     0
1002
}
1002
{
1000
BEHIND
1070
     0
1002
}
1002
{
1000
REACTOR
1002
}
1001
GENIUS_GENOBJ-N-CEN_13
1002
{
1000
OWNER
1000
GEN
1002
}
  0
LINE
  5
820
100
AcDbEntity
  8
MSL5_300_3F-0
100
AcDbLine
 10
245.282286
 20
72.670075
 30
0.0
 11
245.282286
 21
74.202164
 31
0.0
  0
CIRCLE
  5
821
100
AcDbEntity
  8
MSL5_300_3F-0
100
AcDbCircle
 10
297.782286
 20
30.0
 30
0.0
 40
5.0
  0
LINE
  5
822
100
AcDbEntity
  8
MSL5_300_3F-7
100
AcDbLine
 10
297.782286
 20
30.0
 30
0.0
 11
297.782286
 21
37.139749
 31
0.0
  0
LINE
  5
823
100
AcDbEntity
  8
MSL5_300_3F-7
100
AcDbLine
 10
297.782286
 20
30.0
 30
0.0
 11
290.642537
 21
30.0
 31
0.0
  0
LINE
  5
824
100
AcDbEntity
  8
MSL5_300_3F-7
100
AcDbLine
 10
297.782286
 20
30.0
 30
0.0
 11
297.782286
 21
22.860251
 31
0.0
  0
LINE
  5
825
100
AcDbEntity
  8
MSL5_300_3F-7
100
AcDbLine
 10
297.782286
 20
30.0
 30
0.0
 11
304.922035
 21
30.0
 31
0.0
  0
LINE
  5
826
100
AcDbEntity
  8
MSL5_300_3F-7
100
AcDbLine
 10
327.782286
 20
30.0
 30
0.0
 11
327.782286
 21
36.842713
 31
0.0
  0
ARC
  5
827
100
AcDbEntity
  8
MSL5_300_3F-4
100
AcDbCircle
 10
327.782286
 20
30.0
 30
0.0
 40
5.0
100
AcDbArc
 50
82.606248
 51
7.300134
  0
CIRCLE
  5
828
100
AcDbEntity
  8
MSL5_300_3F-0
100
AcDbCircle
 10
327.782286
 20
30.0
 30
0.0
 40
4.25
  0
LINE
  5
829
100
AcDbEntity
  8
MSL5_300_3F-7
100
AcDbLine
 10
327.782286
 20
30.0
 30
0.0
 11
334.624999
 21
30.0
 31
0.0
  0
LINE
  5
82A
100
AcDbEntity
  8
MSL5_300_3F-7
100
AcDbLine
 10
327.782286
 20
30.0
 30
0.0
 11
320.939573
 21
30.0
 31
0.0
  0
LINE
  5
82B
100
AcDbEntity
  8
MSL5_300_3F-7
100
AcDbLine
 10
327.782286
 20
30.0
 30
0.0
 11
327.782286
 21
23.157287
 31
0.0
  0
LINE
  5
82C
100
AcDbEntity
  8
MSL5_300_3F-0
100
AcDbLine
 10
0.0
 20
120.0
 30
0.0
 11
12.210704
 21
120.0
 31
0.0
  0
LINE
  5
82D
100
AcDbEntity
  8
MSL5_300_3F-0
100
AcDbLine
 10
0.0
 20
120.0
 30
0.0
 11
-12.210704
 21
120.0
 31
0.0
  0
LINE
  5
82E
100
AcDbEntity
  8
MSL5_300_3F-7
100
AcDbLine
 10
144.782286
 20
257.761134
 30
0.0
 11
204.121648
 21
257.761134
 31
0.0
  0
LINE
  5
82F
100
AcDbEntity
  8
MSL5_300_3F-7
100
AcDbLine
 10
204.121648
 20
205.761134
 30
0.0
 11
164.612224
 21
205.761134
 31
0.0
  0
LINE
  5
830
100
AcDbEntity
  8
MSL5_300_3F-7
100
AcDbLine
 10
204.121648
 20
309.761134
 30
0.0
 11
164.612224
 21
309.761134
 31
0.0
  0
LINE
  5
831
100
AcDbEntity
  8
MSL5_300_3F-0
100
AcDbLine
 10
172.782286
 20
182.761134
 30
0.0
 11
172.782286
 21
332.761134
 31
0.0
  0
LINE
  5
832
100
AcDbEntity
  8
MSL5_300_3F-0
100
AcDbLine
 10
147.782286
 20
332.761134
 30
0.0
 11
147.782286
 21
182.761134
 31
0.0
  0
LINE
  5
833
100
AcDbEntity
  8
MSL5_300_3F-0
100
AcDbLine
 10
195.782286
 20
332.761134
 30
0.0
 11
195.782286
 21
182.761134
 31
0.0
  0
LINE
  5
834
100
AcDbEntity
  8
MSL5_300_3F-3
100
AcDbLine
 10
165.782286
 20
222.261134
 30
0.0
 11
147.782286
 21
222.261134
 31
0.0
  0
LINE
  5
835
100
AcDbEntity
  8
MSL5_300_3F-3
100
AcDbLine
 10
165.782286
 20
233.261134
 30
0.0
 11
147.782286
 21
233.261134
 31
0.0
  0
LINE
  5
836
100
AcDbEntity
  8
MSL5_300_3F-0
100
AcDbLine
 10
147.782286
 20
182.761134
 30
0.0
 11
172.782286
 21
182.761134
 31
0.0
  0
LINE
  5
837
100
AcDbEntity
  8
MSL5_300_3F-7
100
AcDbLine
 10
174.782286
 20
227.761134
 30
0.0
 11
145.782286
 21
227.761134
 31
0.0
  0
ARC
  5
838
100
AcDbEntity
  8
MSL5_300_3F-4
100
AcDbCircle
 10
164.782286
 20
209.761134
 30
0.0
 40
5.0
100
AcDbArc
 50
280.0
 51
210.0
  0
CIRCLE
  5
839
100
AcDbEntity
  8
MSL5_300_3F-0
100
AcDbCircle
 10
164.782286
 20
209.761134
 30
0.0
 40
4.188
  0
LINE
  5
83A
100
AcDbEntity
  8
MSL5_300_3F-7
100
AcDbLine
 10
156.782286
 20
209.761134
 30
0.0
 11
172.782286
 21
209.761134
 31
0.0
  0
LINE
  5
83B
100
AcDbEntity
  8
MSL5_300_3F-7
100
AcDbLine
 10
155.782286
 20
211.179077
 30
0.0
 11
155.782286
 21
179.761134
 31
0.0
  0
LINE
  5
83C
100
AcDbEntity
  8
MSL5_300_3F-3
100
AcDbLine
 10
150.782286
 20
182.761134
 30
0.0
 11
150.782286
 21
199.761134
 31
0.0
  0
LINE
  5
83D
100
AcDbEntity
  8
MSL5_300_3F-3
100
AcDbLine
 10
160.782286
 20
182.761134
 30
0.0
 11
160.782286
 21
199.761134
 31
0.0
  0
LINE
  5
83E
100
AcDbEntity
  8
MSL5_300_3F-3
100
AcDbLine
 10
151.594286
 20
182.761134
 30
0.0
 11
151.594286
 21
205.761134
 31
0.0
  0
LINE
  5
83F
100
AcDbEntity
  8
MSL5_300_3F-3
100
AcDbLine
 10
159.970286
 20
182.761134
 30
0.0
 11
159.970286
 21
205.761134
 31
0.0
  0
LINE
  5
840
100
AcDbEntity
  8
MSL5_300_3F-3
100
AcDbLine
 10
155.782286
 20
208.179077
 30
0.0
 11
151.594286
 21
205.761134
 31
0.0
  0
LINE
  5
841
100
AcDbEntity
  8
MSL5_300_3F-3
100
AcDbLine
 10
159.970286
 20
205.761134
 30
0.0
 11
151.594286
 21
205.761134
 31
0.0
  0
LINE
  5
842
100
AcDbEntity
  8
MSL5_300_3F-3
100
AcDbLine
 10
160.782286
 20
199.761134
 30
0.0
 11
150.782286
 21
199.761134
 31
0.0
  0
LINE
  5
843
100
AcDbEntity
  8
MSL5_300_3F-3
100
AcDbLine
 10
155.782286
 20
208.179077
 30
0.0
 11
159.970286
 21
205.761134
 31
0.0
  0
LINE
  5
844
100
AcDbEntity
  8
MSL5_300_3F-7
100
AcDbLine
 10
164.782286
 20
201.761134
 30
0.0
 11
164.782286
 21
217.761134
 31
0.0
  0
LINE
  5
845
100
AcDbEntity
  8
MSL5_300_3F-0
100
AcDbLine
 10
195.782286
 20
193.261134
 30
0.0
 11
172.782286
 21
193.261134
 31
0.0
  0
LINE
  5
846
100
AcDbEntity
  8
MSL5_300_3F-0
100
AcDbLine
 10
190.182286
 20
192.440626
 30
0.0
 11
193.382286
 21
192.440626
 31
0.0
  0
ARC
  5
847
100
AcDbEntity
  8
MSL5_300_3F-0
100
AcDbCircle
 10
192.888536
 20
196.770753
 30
0.0
 40
5.10625
100
AcDbArc
 50
223.418201
 51
237.995373
  0
ARC
  5
848
100
AcDbEntity
  8
MSL5_300_3F-0
100
AcDbCircle
 10
190.676036
 20
196.770753
 30
0.0
 40
5.10625
100
AcDbArc
 50
302.004628
 51
316.5818
  0
LINE
  5
849
100
AcDbEntity
  8
MSL5_300_3F-7
100
AcDbLine
 10
169.28848
 20
209.761134
 30
0.0
 11
199.60973
 21
209.761134
 31
0.0
  0
LINE
  5
84A
100
AcDbEntity
  8
MSL5_300_3F-0
100
AcDbLine
 10
172.782286
 20
218.261134
 30
0.0
 11
195.782286
 21
218.261134
 31
0.0
  0
LINE
  5
84B
100
AcDbEntity
  8
MSL5_300_3F-0
100
AcDbLine
 10
173.782286
 20
221.261134
 30
0.0
 11
186.282286
 21
221.261134
 31
0.0
  0
LINE
  5
84C
100
AcDbEntity
  8
MSL5_300_3F-3
100
AcDbLine
 10
165.782286
 20
236.761134
 30
0.0
 11
165.782286
 21
218.761134
 31
0.0
  0
LINE
  5
84D
100
AcDbEntity
  8
MSL5_300_3F-3
100
AcDbLine
 10
165.782286
 20
218.761134
 30
0.0
 11
172.782286
 21
218.761134
 31
0.0
  0
LINE
  5
84E
100
AcDbEntity
  8
MSL5_300_3F-0
100
AcDbLine
 10
172.782286
 20
220.261134
 30
0.0
 11
173.782286
 21
221.261134
 31
0.0
  0
LINE
  5
84F
100
AcDbEntity
  8
MSL5_300_3F-0
100
AcDbLine
 10
173.782286
 20
218.261134
 30
0.0
 11
173.782286
 21
221.261134
 31
0.0
  0
LINE
  5
850
100
AcDbEntity
  8
MSL5_300_3F-3
100
AcDbLine
 10
172.782286
 20
236.761134
 30
0.0
 11
165.782286
 21
236.761134
 31
0.0
  0
ARC
  5
851
100
AcDbEntity
  8
MSL5_300_3F-0
100
AcDbCircle
 10
192.888536
 20
222.751515
 30
0.0
 40
5.10625
100
AcDbArc
 50
122.004627
 51
237.995373
  0
ARC
  5
852
100
AcDbEntity
  8
MSL5_300_3F-0
100
AcDbCircle
 10
190.676036
 20
222.751515
 30
0.0
 40
5.10625
100
AcDbArc
 50
302.004628
 51
57.995372
  0
LINE
  5
853
100
AcDbEntity
  8
MSL5_300_3F-0
100
AcDbLine
 10
193.382286
 20
218.421388
 30
0.0
 11
190.182286
 21
218.421388
 31
0.0
  0
LINE
  5
854
100
AcDbEntity
  8
MSL5_300_3F-0
100
AcDbLine
 10
187.282286
 20
221.261134
 30
0.0
 11
187.782286
 21
221.761134
 31
0.0
  0
LINE
  5
855
100
AcDbEntity
  8
MSL5_300_3F-0
100
AcDbLine
 10
186.282286
 20
221.261134
 30
0.0
 11
186.282286
 21
218.261134
 31
0.0
  0
LINE
  5
856
100
AcDbEntity
  8
MSL5_300_3F-0
100
AcDbLine
 10
187.282286
 20
218.261134
 30
0.0
 11
187.282286
 21
221.261134
 31
0.0
  0
LINE
  5
857
100
AcDbEntity
  8
MSL5_300_3F-0
100
AcDbLine
 10
187.782286
 20
221.761134
 30
0.0
 11
187.782286
 21
218.261134
 31
0.0
  0
LINE
  5
858
100
AcDbEntity
  8
MSL5_300_3F-0
100
AcDbLine
 10
190.182286
 20
227.081642
 30
0.0
 11
193.382286
 21
227.081642
 31
0.0
  0
LINE
  5
859
100
AcDbEntity
  8
MSL5_300_3F-7
100
AcDbLine
 10
164.782286
 20
297.761134
 30
0.0
 11
164.782286
 21
313.761134
 31
0.0
  0
LINE
  5
85A
100
AcDbEntity
  8
MSL5_300_3F-7
100
AcDbLine
 10
174.782286
 20
287.761134
 30
0.0
 11
145.782286
 21
287.761134
 31
0.0
  0
LINE
  5
85B
100
AcDbEntity
  8
MSL5_300_3F-3
100
AcDbLine
 10
172.782286
 20
292.761134
 30
0.0
 11
147.782286
 21
292.761134
 31
0.0
  0
LINE
  5
85C
100
AcDbEntity
  8
MSL5_300_3F-3
100
AcDbLine
 10
172.782286
 20
282.761134
 30
0.0
 11
147.782286
 21
282.761134
 31
0.0
  0
LINE
  5
85D
100
AcDbEntity
  8
MSL5_300_3F-0
100
AcDbLine
 10
177.782286
 20
271.261134
 30
0.0
 11
177.782286
 21
244.261134
 31
0.0
  0
LINE
  5
85E
100
AcDbEntity
  8
MSL5_300_3F-0
100
AcDbLine
 10
176.782286
 20
270.261134
 30
0.0
 11
176.782286
 21
245.261134
 31
0.0
  0
LINE
  5
85F
100
AcDbEntity
  8
MSL5_300_3F-0
100
AcDbLine
 10
177.782286
 20
244.261134
 30
0.0
 11
195.782286
 21
244.261134
 31
0.0
  0
LINE
  5
860
100
AcDbEntity
  8
MSL5_300_3F-3
100
AcDbLine
 10
176.782286
 20
245.261134
 30
0.0
 11
195.782286
 21
245.261134
 31
0.0
  0
LINE
  5
861
100
AcDbEntity
  8
MSL5_300_3F-0
100
AcDbLine
 10
176.782286
 20
245.261134
 30
0.0
 11
177.782286
 21
244.261134
 31
0.0
  0
LINE
  5
862
100
AcDbEntity
  8
MSL5_300_3F-0
100
AcDbLine
 10
176.782286
 20
251.761134
 30
0.0
 11
172.782286
 21
251.761134
 31
0.0
  0
LINE
  5
863
100
AcDbEntity
  8
MSL5_300_3F-0
100
AcDbLine
 10
172.782286
 20
245.261134
 30
0.0
 11
176.782286
 21
245.261134
 31
0.0
  0
LINE
  5
864
100
AcDbEntity
  8
MSL5_300_3F-0
100
AcDbLine
 10
172.782286
 20
263.761134
 30
0.0
 11
176.782286
 21
263.761134
 31
0.0
  0
LINE
  5
865
100
AcDbEntity
  8
MSL5_300_3F-0
100
AcDbLine
 10
172.782286
 20
297.261134
 30
0.0
 11
195.782286
 21
297.261134
 31
0.0
  0
LINE
  5
866
100
AcDbEntity
  8
MSL5_300_3F-0
100
AcDbLine
 10
195.782286
 20
271.261134
 30
0.0
 11
177.782286
 21
271.261134
 31
0.0
  0
LINE
  5
867
100
AcDbEntity
  8
MSL5_300_3F-3
100
AcDbLine
 10
176.782286
 20
270.261134
 30
0.0
 11
195.782286
 21
270.261134
 31
0.0
  0
LINE
  5
868
100
AcDbEntity
  8
MSL5_300_3F-0
100
AcDbLine
 10
177.782286
 20
271.261134
 30
0.0
 11
176.782286
 21
270.261134
 31
0.0
  0
LINE
  5
869
100
AcDbEntity
  8
MSL5_300_3F-0
100
AcDbLine
 10
172.782286
 20
270.261134
 30
0.0
 11
176.782286
 21
270.261134
 31
0.0
  0
LINE
  5
86A
100
AcDbEntity
  8
MSL5_300_3F-0
100
AcDbLine
 10
172.782286
 20
332.761134
 30
0.0
 11
147.782286
 21
332.761134
 31
0.0
  0
LINE
  5
86B
100
AcDbEntity
  8
MSL5_300_3F-7
100
AcDbLine
 10
156.782286
 20
305.761134
 30
0.0
 11
172.782286
 21
305.761134
 31
0.0
  0
ARC
  5
86C
100
AcDbEntity
  8
MSL5_300_3F-4
100
AcDbCircle
 10
164.782286
 20
305.761134
 30
0.0
 40
5.0
100
AcDbArc
 50
280.0
 51
210.0
  0
CIRCLE
  5
86D
100
AcDbEntity
  8
MSL5_300_3F-0
100
AcDbCircle
 10
164.782286
 20
305.761134
 30
0.0
 40
4.188
  0
LINE
  5
86E
100
AcDbEntity
  8
MSL5_300_3F-3
100
AcDbLine
 10
151.594286
 20
332.761134
 30
0.0
 11
151.594286
 21
309.761134
 31
0.0
  0
LINE
  5
86F
100
AcDbEntity
  8
MSL5_300_3F-3
100
AcDbLine
 10
150.782286
 20
332.761134
 30
0.0
 11
150.782286
 21
315.761134
 31
0.0
  0
LINE
  5
870
100
AcDbEntity
  8
MSL5_300_3F-7
100
AcDbLine
 10
155.782286
 20
304.343192
 30
0.0
 11
155.782286
 21
335.761134
 31
0.0
  0
LINE
  5
871
100
AcDbEntity
  8
MSL5_300_3F-3
100
AcDbLine
 10
159.970286
 20
332.761134
 30
0.0
 11
159.970286
 21
309.761134
 31
0.0
  0
LINE
  5
872
100
AcDbEntity
  8
MSL5_300_3F-3
100
AcDbLine
 10
160.782286
 20
332.761134
 30
0.0
 11
160.782286
 21
315.761134
 31
0.0
  0
LINE
  5
873
100
AcDbEntity
  8
MSL5_300_3F-3
100
AcDbLine
 10
159.970286
 20
309.761134
 30
0.0
 11
151.594286
 21
309.761134
 31
0.0
  0
LINE
  5
874
100
AcDbEntity
  8
MSL5_300_3F-3
100
AcDbLine
 10
155.782286
 20
307.343192
 30
0.0
 11
151.594286
 21
309.761134
 31
0.0
  0
LINE
  5
875
100
AcDbEntity
  8
MSL5_300_3F-3
100
AcDbLine
 10
155.782286
 20
307.343192
 30
0.0
 11
159.970286
 21
309.761134
 31
0.0
  0
LINE
  5
876
100
AcDbEntity
  8
MSL5_300_3F-3
100
AcDbLine
 10
150.782286
 20
315.761134
 30
0.0
 11
160.782286
 21
315.761134
 31
0.0
  0
LINE
  5
877
100
AcDbEntity
  8
MSL5_300_3F-0
100
AcDbLine
 10
195.782286
 20
322.261134
 30
0.0
 11
172.782286
 21
322.261134
 31
0.0
  0
LINE
  5
878
100
AcDbEntity
  8
MSL5_300_3F-7
100
AcDbLine
 10
297.782286
 20
279.037546
 30
0.0
 11
297.782286
 21
234.850015
 31
0.0
  0
MTEXT
  5
879
100
AcDbEntity
  8
MSL5_300_3F-6
100
AcDbMText
 10
200.447235
 20
189.012817
 30
0.0
 40
3.5
 41
22.192126
 71
     1
 72
     1
  1
{MSL5-300-3F}
  0
INSERT
  5
87A
100
AcDbEntity
  8
MSL5_300_3F-0
100
AcDbBlockReference
 66
     1
  2
GENINF13
 10
230.817943
 20
217.599121
 30
0.0
1001
GENIUS_GENSCSYM_13
1002
{
1000
INSPT
1011
230.817943
1021
217.599121
1031
0.0
1002
}
1002
{
1000
SCALE
1042
1.0
1002
}
1002
{
1000
USEOLDBPT
1070
     0
1002
}
1001
GENIUS_GENOBJ-N-INFOPT_13
1002
{
1000
OWNER
1000
GEN
1002
}
1001
GENIUS_GENSYMENT_13
1002
{
1000
ENT
1005
87A
1002
}
1001
GENIUS_GENODEF_13
1002
{
1000
HIER
1070
     0
1002
}
1002
{
1000
MANEDIT
1070
     0
1002
}
1002
{
1000
NOSEL
1070
     0
1002
}
1002
{
1000
BEHIND
1070
     0
1002
}
1002
{
1000
REACTOR
1002
}
1001
GENIUS_GENOBJ-N-RSSYM_13
1002
{
1000
OWNER
1000
GEN
1002
}
1001
GENIUS_GENINF13_13
1070
     1
  0
ATTRIB
  5
87B
100
AcDbEntity
  8
INFO
100
AcDbText
 10
230.817943
 20
217.599121
 30
0.0
 40
1.0
  1
1
100
AcDbAttribute
  2
2GENINF
 70
     1
  0
ATTRIB
  5
87C
100
AcDbEntity
  8
INFO
100
AcDbText
 10
230.817943
 20
216.099121
 30
0.0
 40
1.0
  1
<***aktuell***>
100
AcDbAttribute
  2
3GENINF
 70
     1
  0
ATTRIB
  5
87D
100
AcDbEntity
  8
INFO
100
AcDbText
 10
230.817943
 20
214.599121
 30
0.0
 40
1.0
  1

100
AcDbAttribute
  2
4GENINF
 70
     1
  0
ATTRIB
  5
87E
100
AcDbEntity
  8
INFO
100
AcDbText
 10
230.817943
 20
213.099121
 30
0.0
 40
1.0
  1
MSL5-300-3F
100
AcDbAttribute
  2
5GENINF
 70
     1
  0
ATTRIB
  5
87F
100
AcDbEntity
  8
INFO
100
AcDbText
 10
230.817943
 20
211.599121
 30
0.0
 40
1.0
  1

100
AcDbAttribute
  2
6GENINF
 70
     1
  0
ATTRIB
  5
880
100
AcDbEntity
  8
INFO
100
AcDbText
 10
230.817943
 20
210.099121
 30
0.0
 40
1.0
  1
Fa. Mayer
100
AcDbAttribute
  2
7GENINF
 70
     1
  0
ATTRIB
  5
881
100
AcDbEntity
  8
INFO
100
AcDbText
 10
230.817943
 20
208.599121
 30
0.0
 40
1.0
  1

100
AcDbAttribute
  2
8GENINF
 70
     1
  0
ATTRIB
  5
882
100
AcDbEntity
  8
INFO
100
AcDbText
 10
230.817943
 20
207.099121
 30
0.0
 40
1.0
  1

100
AcDbAttribute
  2
9GENINF
 70
     1
  0
ATTRIB
  5
883
100
AcDbEntity
  8
INFO
100
AcDbText
 10
230.817943
 20
205.599121
 30
0.0
 40
1.0
  1

100
AcDbAttribute
  2
10GENINF
 70
     1
  0
ATTRIB
  5
884
100
AcDbEntity
  8
INFO
100
AcDbText
 10
230.817943
 20
204.099121
 30
0.0
 40
1.0
  1

100
AcDbAttribute
  2
11GENINF
 70
     1
  0
ATTRIB
  5
885
100
AcDbEntity
  8
INFO
100
AcDbText
 10
230.817943
 20
202.599121
 30
0.0
 40
1.0
  1

100
AcDbAttribute
  2
12GENINF
 70
     1
  0
ATTRIB
  5
886
100
AcDbEntity
  8
INFO
100
AcDbText
 10
230.817943
 20
201.099121
 30
0.0
 40
1.0
  1

100
AcDbAttribute
  2
13GENINF
 70
     1
  0
ATTRIB
  5
887
100
AcDbEntity
  8
INFO
100
AcDbText
 10
230.817943
 20
199.599121
 30
0.0
 40
1.0
  1

100
AcDbAttribute
  2
14GENINF
 70
     1
  0
ATTRIB
  5
888
100
AcDbEntity
  8
INFO
100
AcDbText
 10
230.817943
 20
198.099121
 30
0.0
 40
1.0
  1

100
AcDbAttribute
  2
15GENINF
 70
     1
  0
ATTRIB
  5
889
100
AcDbEntity
  8
INFO
100
AcDbText
 10
230.817943
 20
196.599121
 30
0.0
 40
1.0
  1

100
AcDbAttribute
  2
16GENINF
 70
     1
  0
ATTRIB
  5
88A
100
AcDbEntity
  8
INFO
100
AcDbText
 10
230.817943
 20
195.099121
 30
0.0
 40
1.0
  1

100
AcDbAttribute
  2
17GENINF
 70
     1
  0
ATTRIB
  5
88B
100
AcDbEntity
  8
INFO
100
AcDbText
 10
230.817943
 20
193.599121
 30
0.0
 40
1.0
  1

100
AcDbAttribute
  2
18GENINF
 70
     1
  0
ATTRIB
  5
88C
100
AcDbEntity
  8
INFO
100
AcDbText
 10
230.817943
 20
192.099121
 30
0.0
 40
1.0
  1

100
AcDbAttribute
  2
19GENINF
 70
     1
  0
ATTRIB
  5
88D
100
AcDbEntity
  8
INFO
100
AcDbText
 10
230.817943
 20
190.599121
 30
0.0
 40
1.0
  1

100
AcDbAttribute
  2
20GENINF
 70
     1
  0
ATTRIB
  5
88E
100
AcDbEntity
  8
INFO
100
AcDbText
 10
230.817943
 20
189.099121
 30
0.0
 40
1.0
  1

100
AcDbAttribute
  2
21GENINF
 70
     1
  0
ATTRIB
  5
88F
100
AcDbEntity
  8
INFO
100
AcDbText
 10
230.817943
 20
187.599121
 30
0.0
 40
1.0
  1

100
AcDbAttribute
  2
22GENINF
 70
     1
  0
ATTRIB
  5
890
100
AcDbEntity
  8
INFO
100
AcDbText
 10
230.817943
 20
186.099121
 30
0.0
 40
1.0
  1

100
AcDbAttribute
  2
23GENINF
 70
     1
  0
ATTRIB
  5
891
100
AcDbEntity
  8
INFO
100
AcDbText
 10
230.817943
 20
184.599121
 30
0.0
 40
1.0
  1

100
AcDbAttribute
  2
24GENINF
 70
     1
  0
ATTRIB
  5
892
100
AcDbEntity
  8
INFO
100
AcDbText
 10
230.817943
 20
183.099121
 30
0.0
 40
1.0
  1

100
AcDbAttribute
  2
0GENINF
 70
     1
  0
SEQEND
  5
893
100
AcDbEntity
  8
MSL5_300_3F-0
  0
LINE
  5
894
100
AcDbEntity
  8
MSL5_300_3F-7
100
AcDbLine
 10
267.782286
 20
209.894467
 30
0.0
 11
267.782286
 21
180.294467
 31
0.0
  0
LINE
  5
895
100
AcDbEntity
  8
MSL5_300_3F-3
100
AcDbLine
 10
271.782286
 20
182.761134
 30
0.0
 11
271.782286
 21
204.761134
 31
0.0
  0
LINE
  5
896
100
AcDbEntity
  8
MSL5_300_3F-3
100
AcDbLine
 10
272.782286
 20
182.761134
 30
0.0
 11
272.782286
 21
199.761134
 31
0.0
  0
LINE
  5
897
100
AcDbEntity
  8
MSL5_300_3F-3
100
AcDbLine
 10
263.782286
 20
182.761134
 30
0.0
 11
263.782286
 21
204.761134
 31
0.0
  0
LINE
  5
898
100
AcDbEntity
  8
MSL5_300_3F-3
100
AcDbLine
 10
262.782286
 20
199.761134
 30
0.0
 11
262.782286
 21
182.761134
 31
0.0
  0
LINE
  5
899
100
AcDbEntity
  8
MSL5_300_3F-7
100
AcDbLine
 10
267.782286
 20
180.294467
 30
0.0
 11
267.782286
 21
182.761134
 31
0.0
  0
LINE
  5
89A
100
AcDbEntity
  8
MSL5_300_3F-3
100
AcDbLine
 10
267.782286
 20
182.761134
 30
0.0
 11
267.782286
 21
182.761134
 31
0.0
  0
LINE
  5
89B
100
AcDbEntity
  8
MSL5_300_3F-3
100
AcDbLine
 10
267.782286
 20
182.761134
 30
0.0
 11
267.782286
 21
182.761134
 31
0.0
  0
LINE
  5
89C
100
AcDbEntity
  8
MSL5_300_3F-3
100
AcDbLine
 10
272.782286
 20
199.761134
 30
0.0
 11
262.782286
 21
199.761134
 31
0.0
  0
LINE
  5
89D
100
AcDbEntity
  8
MSL5_300_3F-3
100
AcDbLine
 10
263.782286
 20
204.761134
 30
0.0
 11
267.782286
 21
204.761134
 31
0.0
  0
LINE
  5
89E
100
AcDbEntity
  8
MSL5_300_3F-3
100
AcDbLine
 10
267.782286
 20
207.4278
 30
0.0
 11
263.782286
 21
204.761134
 31
0.0
  0
LINE
  5
89F
100
AcDbEntity
  8
MSL5_300_3F-3
100
AcDbLine
 10
267.782286
 20
207.4278
 30
0.0
 11
271.782286
 21
204.761134
 31
0.0
  0
LINE
  5
8A0
100
AcDbEntity
  8
MSL5_300_3F-3
100
AcDbLine
 10
271.782286
 20
204.761134
 30
0.0
 11
267.782286
 21
204.761134
 31
0.0
  0
LINE
  5
8A1
100
AcDbEntity
  8
MSL5_300_3F-7
100
AcDbLine
 10
267.782286
 20
227.761134
 30
0.0
 11
267.782286
 21
220.859237
 31
0.0
  0
CIRCLE
  5
8A2
100
AcDbEntity
  8
MSL5_300_3F-0
100
AcDbCircle
 10
267.782286
 20
227.761134
 30
0.0
 40
4.25
  0
ARC
  5
8A3
100
AcDbEntity
  8
MSL5_300_3F-4
100
AcDbCircle
 10
267.782286
 20
227.761134
 30
0.0
 40
5.0
100
AcDbArc
 50
82.606248
 51
7.300134
  0
LINE
  5
8A4
100
AcDbEntity
  8
MSL5_300_3F-7
100
AcDbLine
 10
267.782286
 20
227.761134
 30
0.0
 11
260.880388
 21
227.761134
 31
0.0
  0
LINE
  5
8A5
100
AcDbEntity
  8
MSL5_300_3F-7
100
AcDbLine
 10
267.782286
 20
227.761134
 30
0.0
 11
274.684184
 21
227.761134
 31
0.0
  0
LINE
  5
8A6
100
AcDbEntity
  8
MSL5_300_3F-7
100
AcDbLine
 10
267.782286
 20
227.761134
 30
0.0
 11
267.782286
 21
234.663032
 31
0.0
  0
LINE
  5
8A7
100
AcDbEntity
  8
MSL5_300_3F-3
100
AcDbLine
 10
297.782286
 20
201.094467
 30
0.0
 11
292.782286
 21
197.761134
 31
0.0
  0
LINE
  5
8A8
100
AcDbEntity
  8
MSL5_300_3F-3
100
AcDbLine
 10
292.782286
 20
197.761134
 30
0.0
 11
297.782286
 21
197.761134
 31
0.0
  0
LINE
  5
8A9
100
AcDbEntity
  8
MSL5_300_3F-3
100
AcDbLine
 10
292.782286
 20
182.761134
 30
0.0
 11
292.782286
 21
197.761134
 31
0.0
  0
LINE
  5
8AA
100
AcDbEntity
  8
MSL5_300_3F-3
100
AcDbLine
 10
302.782286
 20
182.761134
 30
0.0
 11
302.782286
 21
197.761134
 31
0.0
  0
LINE
  5
8AB
100
AcDbEntity
  8
MSL5_300_3F-7
100
AcDbLine
 10
297.782286
 20
203.561134
 30
0.0
 11
297.782286
 21
180.294467
 31
0.0
  0
LINE
  5
8AC
100
AcDbEntity
  8
MSL5_300_3F-7
100
AcDbLine
 10
297.782286
 20
180.294467
 30
0.0
 11
297.782286
 21
182.761134
 31
0.0
  0
LINE
  5
8AD
100
AcDbEntity
  8
MSL5_300_3F-3
100
AcDbLine
 10
297.782286
 20
182.761134
 30
0.0
 11
297.782286
 21
182.761134
 31
0.0
  0
LINE
  5
8AE
100
AcDbEntity
  8
MSL5_300_3F-3
100
AcDbLine
 10
297.782286
 20
182.761134
 30
0.0
 11
297.782286
 21
182.761134
 31
0.0
  0
LINE
  5
8AF
100
AcDbEntity
  8
MSL5_300_3F-3
100
AcDbLine
 10
302.782286
 20
197.761134
 30
0.0
 11
297.782286
 21
197.761134
 31
0.0
  0
LINE
  5
8B0
100
AcDbEntity
  8
MSL5_300_3F-3
100
AcDbLine
 10
297.782286
 20
201.094467
 30
0.0
 11
302.782286
 21
197.761134
 31
0.0
  0
LINE
  5
8B1
100
AcDbEntity
  8
MSL5_300_3F-7
100
AcDbLine
 10
297.782286
 20
227.761134
 30
0.0
 11
290.693405
 21
227.761134
 31
0.0
  0
CIRCLE
  5
8B2
100
AcDbEntity
  8
MSL5_300_3F-0
100
AcDbCircle
 10
297.782286
 20
227.761134
 30
0.0
 40
5.0
  0
LINE
  5
8B3
100
AcDbEntity
  8
MSL5_300_3F-7
100
AcDbLine
 10
297.782286
 20
227.761134
 30
0.0
 11
297.782286
 21
220.672254
 31
0.0
  0
LINE
  5
8B4
100
AcDbEntity
  8
MSL5_300_3F-7
100
AcDbLine
 10
297.782286
 20
227.761134
 30
0.0
 11
297.782286
 21
234.850015
 31
0.0
  0
LINE
  5
8B5
100
AcDbEntity
  8
MSL5_300_3F-7
100
AcDbLine
 10
297.782286
 20
227.761134
 30
0.0
 11
304.871167
 21
227.761134
 31
0.0
  0
LINE
  5
8B6
100
AcDbEntity
  8
MSL5_300_3F-7
100
AcDbLine
 10
327.782286
 20
209.894467
 30
0.0
 11
327.782286
 21
180.294467
 31
0.0
  0
LINE
  5
8B7
100
AcDbEntity
  8
MSL5_300_3F-3
100
AcDbLine
 10
322.782286
 20
199.761134
 30
0.0
 11
322.782286
 21
182.761134
 31
0.0
  0
LINE
  5
8B8
100
AcDbEntity
  8
MSL5_300_3F-3
100
AcDbLine
 10
331.782286
 20
182.761134
 30
0.0
 11
331.782286
 21
204.761134
 31
0.0
  0
LINE
  5
8B9
100
AcDbEntity
  8
MSL5_300_3F-3
100
AcDbLine
 10
332.782286
 20
182.761134
 30
0.0
 11
332.782286
 21
199.761134
 31
0.0
  0
LINE
  5
8BA
100
AcDbEntity
  8
MSL5_300_3F-3
100
AcDbLine
 10
323.782286
 20
182.761134
 30
0.0
 11
323.782286
 21
204.761134
 31
0.0
  0
LINE
  5
8BB
100
AcDbEntity
  8
MSL5_300_3F-7
100
AcDbLine
 10
327.782286
 20
180.294467
 30
0.0
 11
327.782286
 21
182.761134
 31
0.0
  0
LINE
  5
8BC
100
AcDbEntity
  8
MSL5_300_3F-3
100
AcDbLine
 10
327.782286
 20
182.761134
 30
0.0
 11
327.782286
 21
182.761134
 31
0.0
  0
LINE
  5
8BD
100
AcDbEntity
  8
MSL5_300_3F-3
100
AcDbLine
 10
327.782286
 20
182.761134
 30
0.0
 11
327.782286
 21
182.761134
 31
0.0
  0
LINE
  5
8BE
100
AcDbEntity
  8
MSL5_300_3F-3
100
AcDbLine
 10
323.782286
 20
204.761134
 30
0.0
 11
327.782286
 21
204.761134
 31
0.0
  0
LINE
  5
8BF
100
AcDbEntity
  8
MSL5_300_3F-3
100
AcDbLine
 10
327.782286
 20
207.4278
 30
0.0
 11
323.782286
 21
204.761134
 31
0.0
  0
LINE
  5
8C0
100
AcDbEntity
  8
MSL5_300_3F-3
100
AcDbLine
 10
332.782286
 20
199.761134
 30
0.0
 11
322.782286
 21
199.761134
 31
0.0
  0
LINE
  5
8C1
100
AcDbEntity
  8
MSL5_300_3F-3
100
AcDbLine
 10
331.782286
 20
204.761134
 30
0.0
 11
327.782286
 21
204.761134
 31
0.0
  0
LINE
  5
8C2
100
AcDbEntity
  8
MSL5_300_3F-3
100
AcDbLine
 10
327.782286
 20
207.4278
 30
0.0
 11
331.782286
 21
204.761134
 31
0.0
  0
LINE
  5
8C3
100
AcDbEntity
  8
MSL5_300_3F-7
100
AcDbLine
 10
327.782286
 20
227.761134
 30
0.0
 11
334.513076
 21
227.761134
 31
0.0
  0
LINE
  5
8C4
100
AcDbEntity
  8
MSL5_300_3F-7
100
AcDbLine
 10
327.782286
 20
227.761134
 30
0.0
 11
327.782286
 21
221.030344
 31
0.0
  0
CIRCLE
  5
8C5
100
AcDbEntity
  8
MSL5_300_3F-0
100
AcDbCircle
 10
327.782286
 20
227.761134
 30
0.0
 40
4.25
  0
ARC
  5
8C6
100
AcDbEntity
  8
MSL5_300_3F-4
100
AcDbCircle
 10
327.782286
 20
227.761134
 30
0.0
 40
5.0
100
AcDbArc
 50
82.606248
 51
7.300134
  0
LINE
  5
8C7
100
AcDbEntity
  8
MSL5_300_3F-7
100
AcDbLine
 10
327.782286
 20
227.761134
 30
0.0
 11
321.051496
 21
227.761134
 31
0.0
  0
LINE
  5
8C8
100
AcDbEntity
  8
MSL5_300_3F-7
100
AcDbLine
 10
327.782286
 20
227.761134
 30
0.0
 11
327.782286
 21
234.491924
 31
0.0
  0
LINE
  5
8C9
100
AcDbEntity
  8
MSL5_300_3F-7
100
AcDbLine
 10
267.782286
 20
287.761134
 30
0.0
 11
267.782286
 21
280.943888
 31
0.0
  0
ARC
  5
8CA
100
AcDbEntity
  8
MSL5_300_3F-4
100
AcDbCircle
 10
267.782286
 20
287.761134
 30
0.0
 40
5.0
100
AcDbArc
 50
82.606248
 51
7.300134
  0
CIRCLE
  5
8CB
100
AcDbEntity
  8
MSL5_300_3F-0
100
AcDbCircle
 10
267.782286
 20
287.761134
 30
0.0
 40
4.25
  0
LINE
  5
8CC
100
AcDbEntity
  8
MSL5_300_3F-7
100
AcDbLine
 10
267.782286
 20
287.761134
 30
0.0
 11
260.96504
 21
287.761134
 31
0.0
  0
LINE
  5
8CD
100
AcDbEntity
  8
MSL5_300_3F-7
100
AcDbLine
 10
267.782286
 20
287.761134
 30
0.0
 11
274.599532
 21
287.761134
 31
0.0
  0
LINE
  5
8CE
100
AcDbEntity
  8
MSL5_300_3F-7
100
AcDbLine
 10
267.782286
 20
287.761134
 30
0.0
 11
267.782286
 21
294.578381
 31
0.0
  0
LINE
  5
8CF
100
AcDbEntity
  8
MSL5_300_3F-0
100
AcDbLine
 10
232.280946
 20
337.261128
 30
0.0
 11
240.280946
 21
337.261133
 31
0.0
  0
ARC
  5
8D0
100
AcDbEntity
  8
MSL5_300_3F-0
100
AcDbCircle
 10
232.280947
 20
335.761128
 30
0.0
 40
1.5
100
AcDbArc
 50
90.000041
 51
180.00004
  0
LINE
  5
8D1
100
AcDbEntity
  8
MSL5_300_3F-0
100
AcDbLine
 10
230.780949
 20
332.761134
 30
0.0
 11
230.780947
 21
335.761127
 31
0.0
  0
LINE
  5
8D2
100
AcDbEntity
  8
MSL5_300_3F-7
100
AcDbLine
 10
236.282284
 20
340.049876
 30
0.0
 11
236.282292
 21
328.857149
 31
0.0
  0
LINE
  5
8D3
100
AcDbEntity
  8
MSL5_300_3F-3
100
AcDbLine
 10
271.782286
 20
332.761134
 30
0.0
 11
271.782286
 21
310.761134
 31
0.0
  0
LINE
  5
8D4
100
AcDbEntity
  8
MSL5_300_3F-3
100
AcDbLine
 10
272.782286
 20
332.761134
 30
0.0
 11
272.782286
 21
315.761134
 31
0.0
  0
LINE
  5
8D5
100
AcDbEntity
  8
MSL5_300_3F-3
100
AcDbLine
 10
263.782286
 20
332.761134
 30
0.0
 11
263.782286
 21
310.761134
 31
0.0
  0
LINE
  5
8D6
100
AcDbEntity
  8
MSL5_300_3F-3
100
AcDbLine
 10
262.782286
 20
315.761134
 30
0.0
 11
262.782286
 21
332.761134
 31
0.0
  0
LINE
  5
8D7
100
AcDbEntity
  8
MSL5_300_3F-7
100
AcDbLine
 10
267.782286
 20
305.627801
 30
0.0
 11
267.782286
 21
335.227801
 31
0.0
  0
LINE
  5
8D8
100
AcDbEntity
  8
MSL5_300_3F-3
100
AcDbLine
 10
263.782286
 20
310.761134
 30
0.0
 11
267.782286
 21
310.761134
 31
0.0
  0
LINE
  5
8D9
100
AcDbEntity
  8
MSL5_300_3F-3
100
AcDbLine
 10
267.782286
 20
308.094468
 30
0.0
 11
263.782286
 21
310.761134
 31
0.0
  0
LINE
  5
8DA
100
AcDbEntity
  8
MSL5_300_3F-3
100
AcDbLine
 10
271.782286
 20
310.761134
 30
0.0
 11
267.782286
 21
310.761134
 31
0.0
  0
LINE
  5
8DB
100
AcDbEntity
  8
MSL5_300_3F-3
100
AcDbLine
 10
267.782286
 20
308.094468
 30
0.0
 11
271.782286
 21
310.761134
 31
0.0
  0
LINE
  5
8DC
100
AcDbEntity
  8
MSL5_300_3F-3
100
AcDbLine
 10
272.782286
 20
315.761134
 30
0.0
 11
262.782286
 21
315.761134
 31
0.0
  0
ARC
  5
8DD
100
AcDbEntity
  8
MSL5_300_3F-0
100
AcDbCircle
 10
240.280947
 20
335.761133
 30
0.0
 40
1.5
100
AcDbArc
 50
0.000038
 51
90.000041
  0
LINE
  5
8DE
100
AcDbEntity
  8
MSL5_300_3F-0
100
AcDbLine
 10
241.780947
 20
335.761134
 30
0.0
 11
241.780949
 21
332.761134
 31
0.0
  0
LINE
  5
8DF
100
AcDbEntity
  8
MSL5_300_3F-3
100
AcDbLine
 10
267.782286
 20
332.761134
 30
0.0
 11
267.782286
 21
332.761134
 31
0.0
  0
LINE
  5
8E0
100
AcDbEntity
  8
MSL5_300_3F-3
100
AcDbLine
 10
267.782286
 20
332.761134
 30
0.0
 11
267.782286
 21
332.761134
 31
0.0
  0
LINE
  5
8E1
100
AcDbEntity
  8
MSL5_300_3F-7
100
AcDbLine
 10
267.782286
 20
335.227801
 30
0.0
 11
267.782286
 21
332.761134
 31
0.0
  0
LINE
  5
8E2
100
AcDbEntity
  8
MSL5_300_3F-7
100
AcDbLine
 10
297.782286
 20
287.761134
 30
0.0
 11
290.642537
 21
287.761134
 31
0.0
  0
CIRCLE
  5
8E3
100
AcDbEntity
  8
MSL5_300_3F-0
100
AcDbCircle
 10
297.782286
 20
287.761134
 30
0.0
 40
5.0
  0
LINE
  5
8E4
100
AcDbEntity
  8
MSL5_300_3F-7
100
AcDbLine
 10
297.782286
 20
287.761134
 30
0.0
 11
297.782286
 21
280.621386
 31
0.0
  0
LINE
  5
8E5
100
AcDbEntity
  8
MSL5_300_3F-7
100
AcDbLine
 10
297.782286
 20
287.761134
 30
0.0
 11
297.782286
 21
294.900883
 31
0.0
  0
LINE
  5
8E6
100
AcDbEntity
  8
MSL5_300_3F-7
100
AcDbLine
 10
297.782286
 20
287.761134
 30
0.0
 11
304.922035
 21
287.761134
 31
0.0
  0
LINE
  5
8E7
100
AcDbEntity
  8
MSL5_300_3F-7
100
AcDbLine
 10
327.782286
 20
287.761134
 30
0.0
 11
334.624999
 21
287.761134
 31
0.0
  0
LINE
  5
8E8
100
AcDbEntity
  8
MSL5_300_3F-7
100
AcDbLine
 10
327.782286
 20
287.761134
 30
0.0
 11
327.782286
 21
280.918421
 31
0.0
  0
ARC
  5
8E9
100
AcDbEntity
  8
MSL5_300_3F-4
100
AcDbCircle
 10
327.782286
 20
287.761134
 30
0.0
 40
5.0
100
AcDbArc
 50
82.606248
 51
7.300134
  0
LINE
  5
8EA
100
AcDbEntity
  8
MSL5_300_3F-7
100
AcDbLine
 10
327.782286
 20
287.761134
 30
0.0
 11
320.939573
 21
287.761134
 31
0.0
  0
CIRCLE
  5
8EB
100
AcDbEntity
  8
MSL5_300_3F-0
100
AcDbCircle
 10
327.782286
 20
287.761134
 30
0.0
 40
4.25
  0
LINE
  5
8EC
100
AcDbEntity
  8
MSL5_300_3F-7
100
AcDbLine
 10
327.782286
 20
287.761134
 30
0.0
 11
327.782286
 21
294.603848
 31
0.0
  0
LINE
  5
8ED
100
AcDbEntity
  8
MSL5_300_3F-3
100
AcDbLine
 10
292.782286
 20
332.761134
 30
0.0
 11
292.782286
 21
317.761134
 31
0.0
  0
LINE
  5
8EE
100
AcDbEntity
  8
MSL5_300_3F-3
100
AcDbLine
 10
302.782286
 20
332.761134
 30
0.0
 11
302.782286
 21
317.761134
 31
0.0
  0
LINE
  5
8EF
100
AcDbEntity
  8
MSL5_300_3F-7
100
AcDbLine
 10
297.782286
 20
311.961134
 30
0.0
 11
297.782286
 21
335.227801
 31
0.0
  0
LINE
  5
8F0
100
AcDbEntity
  8
MSL5_300_3F-3
100
AcDbLine
 10
297.782286
 20
314.427801
 30
0.0
 11
292.782286
 21
317.761134
 31
0.0
  0
LINE
  5
8F1
100
AcDbEntity
  8
MSL5_300_3F-3
100
AcDbLine
 10
292.782286
 20
317.761134
 30
0.0
 11
297.782286
 21
317.761134
 31
0.0
  0
LINE
  5
8F2
100
AcDbEntity
  8
MSL5_300_3F-3
100
AcDbLine
 10
297.782286
 20
314.427801
 30
0.0
 11
302.782286
 21
317.761134
 31
0.0
  0
LINE
  5
8F3
100
AcDbEntity
  8
MSL5_300_3F-3
100
AcDbLine
 10
302.782286
 20
317.761134
 30
0.0
 11
297.782286
 21
317.761134
 31
0.0
  0
LINE
  5
8F4
100
AcDbEntity
  8
MSL5_300_3F-3
100
AcDbLine
 10
297.782286
 20
332.761134
 30
0.0
 11
297.782286
 21
332.761134
 31
0.0
  0
LINE
  5
8F5
100
AcDbEntity
  8
MSL5_300_3F-3
100
AcDbLine
 10
297.782286
 20
332.761134
 30
0.0
 11
297.782286
 21
332.761134
 31
0.0
  0
LINE
  5
8F6
100
AcDbEntity
  8
MSL5_300_3F-7
100
AcDbLine
 10
297.782286
 20
335.227801
 30
0.0
 11
297.782286
 21
332.761134
 31
0.0
  0
LINE
  5
8F7
100
AcDbEntity
  8
MSL5_300_3F-3
100
AcDbLine
 10
322.782286
 20
315.761134
 30
0.0
 11
322.782286
 21
332.761134
 31
0.0
  0
LINE
  5
8F8
100
AcDbEntity
  8
MSL5_300_3F-3
100
AcDbLine
 10
331.782286
 20
332.761134
 30
0.0
 11
331.782286
 21
310.761134
 31
0.0
  0
LINE
  5
8F9
100
AcDbEntity
  8
MSL5_300_3F-3
100
AcDbLine
 10
332.782286
 20
332.761134
 30
0.0
 11
332.782286
 21
315.761134
 31
0.0
  0
LINE
  5
8FA
100
AcDbEntity
  8
MSL5_300_3F-3
100
AcDbLine
 10
323.782286
 20
332.761134
 30
0.0
 11
323.782286
 21
310.761134
 31
0.0
  0
LINE
  5
8FB
100
AcDbEntity
  8
MSL5_300_3F-7
100
AcDbLine
 10
327.782286
 20
305.627801
 30
0.0
 11
327.782286
 21
335.227801
 31
0.0
  0
LINE
  5
8FC
100
AcDbEntity
  8
MSL5_300_3F-3
100
AcDbLine
 10
323.782286
 20
310.761134
 30
0.0
 11
327.782286
 21
310.761134
 31
0.0
  0
LINE
  5
8FD
100
AcDbEntity
  8
MSL5_300_3F-3
100
AcDbLine
 10
327.782286
 20
308.094468
 30
0.0
 11
323.782286
 21
310.761134
 31
0.0
  0
LINE
  5
8FE
100
AcDbEntity
  8
MSL5_300_3F-3
100
AcDbLine
 10
331.782286
 20
310.761134
 30
0.0
 11
327.782286
 21
310.761134
 31
0.0
  0
LINE
  5
8FF
100
AcDbEntity
  8
MSL5_300_3F-3
100
AcDbLine
 10
327.782286
 20
308.094468
 30
0.0
 11
331.782286
 21
310.761134
 31
0.0
  0
LINE
  5
900
100
AcDbEntity
  8
MSL5_300_3F-3
100
AcDbLine
 10
332.782286
 20
315.761134
 30
0.0
 11
322.782286
 21
315.761134
 31
0.0
  0
LINE
  5
901
100
AcDbEntity
  8
MSL5_300_3F-3
100
AcDbLine
 10
327.782286
 20
332.761134
 30
0.0
 11
327.782286
 21
332.761134
 31
0.0
  0
LINE
  5
902
100
AcDbEntity
  8
MSL5_300_3F-3
100
AcDbLine
 10
327.782286
 20
332.761134
 30
0.0
 11
327.782286
 21
332.761134
 31
0.0
  0
LINE
  5
903
100
AcDbEntity
  8
MSL5_300_3F-7
100
AcDbLine
 10
327.782286
 20
335.227801
 30
0.0
 11
327.782286
 21
332.761134
 31
0.0
  0
LINE
  5
904
100
AcDbEntity
  8
MSL5_300_3F-0
100
AcDbLine
 10
579.282286
 20
101.716749
 30
0.0
 11
579.282286
 21
120.0
 31
0.0
  0
LINE
  5
905
100
AcDbEntity
  8
MSL5_300_3F-0
100
AcDbLine
 10
902.782286
 20
80.5
 30
0.0
 11
579.782286
 21
80.5
 31
0.0
  0
LINE
  5
906
100
AcDbEntity
  8
MSL5_300_3F-0
100
AcDbLine
 10
579.782286
 20
105.5
 30
0.0
 11
902.782286
 21
105.5
 31
0.0
  0
LINE
  5
907
100
AcDbEntity
  8
MSL5_300_3F-7
100
AcDbLine
 10
569.178292
 20
93.0
 30
0.0
 11
930.782286
 21
93.0
 31
0.0
  0
LINE
  5
908
100
AcDbEntity
  8
MSL5_300_3F-0
100
AcDbLine
 10
902.782286
 20
-12.5
 30
0.0
 11
579.782286
 21
-12.5
 31
0.0
  0
LINE
  5
909
100
AcDbEntity
  8
MSL5_300_3F-0
100
AcDbLine
 10
579.782286
 20
12.5
 30
0.0
 11
902.782286
 21
12.5
 31
0.0
  0
LINE
  5
90A
100
AcDbEntity
  8
MSL5_300_3F-0
100
AcDbLine
 10
902.782286
 20
-113.745947
 30
0.0
 11
579.782286
 21
-113.745947
 31
0.0
  0
LINE
  5
90B
100
AcDbEntity
  8
MSL5_300_3F-7
100
AcDbLine
 10
569.178292
 20
0.0
 30
0.0
 11
930.782286
 21
0.0
 31
0.0
  0
LINE
  5
90C
100
AcDbEntity
  8
MSL5_300_3F-0
100
AcDbLine
 10
902.782286
 20
-217.745947
 30
0.0
 11
626.582286
 21
-217.745947
 31
0.0
  0
LINE
  5
90D
100
AcDbEntity
  8
MSL5_300_3F-0
100
AcDbLine
 10
902.782286
 20
-138.745947
 30
0.0
 11
579.782286
 21
-138.745947
 31
0.0
  0
LINE
  5
90E
100
AcDbEntity
  8
MSL5_300_3F-0
100
AcDbLine
 10
902.782286
 20
-190.745947
 30
0.0
 11
579.782286
 21
-190.745947
 31
0.0
  0
LINE
  5
90F
100
AcDbEntity
  8
MSL5_300_3F-0
100
AcDbLine
 10
902.782286
 20
-165.745947
 30
0.0
 11
579.782286
 21
-165.745947
 31
0.0
  0
LINE
  5
910
100
AcDbEntity
  8
MSL5_300_3F-3
100
AcDbLine
 10
902.782286
 20
-172.245947
 30
0.0
 11
598.782286
 21
-172.245947
 31
0.0
1001
GENIUS_GENBH_13
1002
{
1000
OE
1000
CON1
1002
}
1001
GENIUS_GENOREF_13
1005
B89
  0
LINE
  5
911
100
AcDbEntity
  8
MSL5_300_3F-3
100
AcDbLine
 10
902.782286
 20
-184.245947
 30
0.0
 11
598.782286
 21
-184.245947
 31
0.0
1001
GENIUS_GENBH_13
1002
{
1000
OE
1000
CON1
1002
}
1001
GENIUS_GENOREF_13
1005
B89
  0
LINE
  5
912
100
AcDbEntity
  8
MSL5_300_3F-0
100
AcDbLine
 10
902.782286
 20
-242.745947
 30
0.0
 11
586.384993
 21
-242.745947
 31
0.0
  0
LINE
  5
913
100
AcDbEntity
  8
MSL5_300_3F-7
100
AcDbLine
 10
910.622252
 20
-230.245947
 30
0.0
 11
569.178292
 21
-230.245947
 31
0.0
  0
LINE
  5
914
100
AcDbEntity
  8
MSL5_300_3F-7
100
AcDbLine
 10
910.622252
 20
-126.245947
 30
0.0
 11
569.178292
 21
-126.245947
 31
0.0
  0
LINE
  5
915
100
AcDbEntity
  8
MSL5_300_3F-7
100
AcDbLine
 10
568.784436
 20
-178.245947
 30
0.0
 11
930.782286
 21
-178.245947
 31
0.0
1001
GENIUS_GENOREF_13
1005
B89
  0
ARC
  5
916
100
AcDbEntity
  8
MSL5_300_3F-0
100
AcDbCircle
 10
579.673605
 20
-118.884732
 30
0.0
 40
3.108681
100
AcDbArc
 50
307.878144
 51
52.121856
  0
LINE
  5
917
100
AcDbEntity
  8
MSL5_300_3F-0
100
AcDbLine
 10
579.282286
 20
-212.330862
 30
0.0
 11
579.282286
 21
-104.245876
 31
0.0
  0
LINE
  5
918
100
AcDbEntity
  8
MSL5_300_3F-0
100
AcDbLine
 10
579.782286
 20
-103.245947
 30
0.0
 11
579.782286
 21
-253.245947
 31
0.0
  0
LINE
  5
919
100
AcDbEntity
  8
MSL5_300_3F-7
100
AcDbLine
 10
507.782286
 20
-148.245876
 30
0.0
 11
500.939573
 21
-148.245876
 31
0.0
  0
CIRCLE
  5
91A
100
AcDbEntity
  8
MSL5_300_3F-3
100
AcDbCircle
 10
507.782286
 20
-148.245876
 30
0.0
 40
4.25
  0
ARC
  5
91B
100
AcDbEntity
  8
MSL5_300_3F-3
100
AcDbCircle
 10
507.782286
 20
-148.245876
 30
0.0
 40
5.0
100
AcDbArc
 50
82.606248
 51
7.300134
  0
LINE
  5
91C
100
AcDbEntity
  8
MSL5_300_3F-7
100
AcDbLine
 10
507.782286
 20
-208.245876
 30
0.0
 11
501.051496
 21
-208.245876
 31
0.0
  0
CIRCLE
  5
91D
100
AcDbEntity
  8
MSL5_300_3F-3
100
AcDbCircle
 10
507.782286
 20
-208.245876
 30
0.0
 40
4.25
  0
ARC
  5
91E
100
AcDbEntity
  8
MSL5_300_3F-3
100
AcDbCircle
 10
507.782286
 20
-208.245876
 30
0.0
 40
5.0
100
AcDbArc
 50
82.606248
 51
7.300134
  0
LINE
  5
91F
100
AcDbEntity
  8
MSL5_300_3F-7
100
AcDbLine
 10
357.782286
 20
-156.969465
 30
0.0
 11
357.782286
 21
-201.156995
 31
0.0
  0
LINE
  5
920
100
AcDbEntity
  8
MSL5_300_3F-7
100
AcDbLine
 10
417.782286
 20
-156.969465
 30
0.0
 11
417.782286
 21
-201.156995
 31
0.0
  0
CIRCLE
  5
921
100
AcDbEntity
  8
MSL5_300_3F-3
100
AcDbCircle
 10
387.782286
 20
-208.245876
 30
0.0
 40
4.25
  0
ARC
  5
922
100
AcDbEntity
  8
MSL5_300_3F-3
100
AcDbCircle
 10
387.782286
 20
-208.245876
 30
0.0
 40
5.0
100
AcDbArc
 50
82.606248
 51
7.300134
  0
LINE
  5
923
100
AcDbEntity
  8
MSL5_300_3F-7
100
AcDbLine
 10
387.782286
 20
-208.245876
 30
0.0
 11
394.513076
 21
-208.245876
 31
0.0
  0
CIRCLE
  5
924
100
AcDbEntity
  8
MSL5_300_3F-3
100
AcDbCircle
 10
357.782286
 20
-208.245876
 30
0.0
 40
5.0
  0
LINE
  5
925
100
AcDbEntity
  8
MSL5_300_3F-7
100
AcDbLine
 10
357.782286
 20
-208.245876
 30
0.0
 11
357.782286
 21
-201.156995
 31
0.0
  0
LINE
  5
926
100
AcDbEntity
  8
MSL5_300_3F-7
100
AcDbLine
 10
387.782286
 20
-208.245876
 30
0.0
 11
387.782286
 21
-201.515086
 31
0.0
  0
LINE
  5
927
100
AcDbEntity
  8
MSL5_300_3F-7
100
AcDbLine
 10
357.782286
 20
-208.245876
 30
0.0
 11
364.871167
 21
-208.245876
 31
0.0
  0
LINE
  5
928
100
AcDbEntity
  8
MSL5_300_3F-7
100
AcDbLine
 10
357.782286
 20
-208.245876
 30
0.0
 11
357.782286
 21
-215.334757
 31
0.0
  0
LINE
  5
929
100
AcDbEntity
  8
MSL5_300_3F-7
100
AcDbLine
 10
387.782286
 20
-208.245876
 30
0.0
 11
381.051496
 21
-208.245876
 31
0.0
  0
LINE
  5
92A
100
AcDbEntity
  8
MSL5_300_3F-7
100
AcDbLine
 10
387.782286
 20
-208.245876
 30
0.0
 11
387.782286
 21
-214.976666
 31
0.0
  0
LINE
  5
92B
100
AcDbEntity
  8
MSL5_300_3F-7
100
AcDbLine
 10
417.782286
 20
-208.245876
 30
0.0
 11
417.782286
 21
-201.156995
 31
0.0
  0
CIRCLE
  5
92C
100
AcDbEntity
  8
MSL5_300_3F-3
100
AcDbCircle
 10
417.782286
 20
-208.245876
 30
0.0
 40
5.0
  0
LINE
  5
92D
100
AcDbEntity
  8
MSL5_300_3F-7
100
AcDbLine
 10
417.782286
 20
-208.245876
 30
0.0
 11
424.871167
 21
-208.245876
 31
0.0
  0
LINE
  5
92E
100
AcDbEntity
  8
MSL5_300_3F-7
100
AcDbLine
 10
417.782286
 20
-208.245876
 30
0.0
 11
410.693405
 21
-208.245876
 31
0.0
  0
LINE
  5
92F
100
AcDbEntity
  8
MSL5_300_3F-7
100
AcDbLine
 10
417.782286
 20
-208.245876
 30
0.0
 11
417.782286
 21
-215.334757
 31
0.0
  0
CIRCLE
  5
930
100
AcDbEntity
  8
MSL5_300_3F-3
100
AcDbCircle
 10
387.782286
 20
-148.245876
 30
0.0
 40
4.25
  0
ARC
  5
931
100
AcDbEntity
  8
MSL5_300_3F-3
100
AcDbCircle
 10
387.782286
 20
-148.245876
 30
0.0
 40
5.0
100
AcDbArc
 50
82.606248
 51
7.300134
  0
LINE
  5
932
100
AcDbEntity
  8
MSL5_300_3F-7
100
AcDbLine
 10
387.782286
 20
-148.245876
 30
0.0
 11
394.624999
 21
-148.245876
 31
0.0
  0
CIRCLE
  5
933
100
AcDbEntity
  8
MSL5_300_3F-3
100
AcDbCircle
 10
357.782286
 20
-148.245876
 30
0.0
 40
5.0
  0
LINE
  5
934
100
AcDbEntity
  8
MSL5_300_3F-7
100
AcDbLine
 10
357.782286
 20
-148.245876
 30
0.0
 11
357.782286
 21
-141.106127
 31
0.0
  0
LINE
  5
935
100
AcDbEntity
  8
MSL5_300_3F-7
100
AcDbLine
 10
387.782286
 20
-148.245876
 30
0.0
 11
387.782286
 21
-141.403162
 31
0.0
  0
LINE
  5
936
100
AcDbEntity
  8
MSL5_300_3F-7
100
AcDbLine
 10
357.782286
 20
-148.245876
 30
0.0
 11
364.922035
 21
-148.245876
 31
0.0
  0
LINE
  5
937
100
AcDbEntity
  8
MSL5_300_3F-7
100
AcDbLine
 10
357.782286
 20
-148.245876
 30
0.0
 11
357.782286
 21
-155.385624
 31
0.0
  0
LINE
  5
938
100
AcDbEntity
  8
MSL5_300_3F-7
100
AcDbLine
 10
387.782286
 20
-148.245876
 30
0.0
 11
380.939573
 21
-148.245876
 31
0.0
  0
LINE
  5
939
100
AcDbEntity
  8
MSL5_300_3F-7
100
AcDbLine
 10
387.782286
 20
-148.245876
 30
0.0
 11
387.782286
 21
-155.088589
 31
0.0
  0
LINE
  5
93A
100
AcDbEntity
  8
MSL5_300_3F-7
100
AcDbLine
 10
417.782286
 20
-148.245876
 30
0.0
 11
417.782286
 21
-141.106127
 31
0.0
  0
CIRCLE
  5
93B
100
AcDbEntity
  8
MSL5_300_3F-3
100
AcDbCircle
 10
417.782286
 20
-148.245876
 30
0.0
 40
5.0
  0
LINE
  5
93C
100
AcDbEntity
  8
MSL5_300_3F-7
100
AcDbLine
 10
417.782286
 20
-148.245876
 30
0.0
 11
424.922035
 21
-148.245876
 31
0.0
  0
LINE
  5
93D
100
AcDbEntity
  8
MSL5_300_3F-7
100
AcDbLine
 10
417.782286
 20
-148.245876
 30
0.0
 11
410.642537
 21
-148.245876
 31
0.0
  0
LINE
  5
93E
100
AcDbEntity
  8
MSL5_300_3F-7
100
AcDbLine
 10
417.782286
 20
-148.245876
 30
0.0
 11
417.782286
 21
-155.385624
 31
0.0
  0
LINE
  5
93F
100
AcDbEntity
  8
MSL5_300_3F-7
100
AcDbLine
 10
477.782286
 20
-156.969465
 30
0.0
 11
477.782286
 21
-201.156995
 31
0.0
  0
ARC
  5
940
100
AcDbEntity
  8
MSL5_300_3F-3
100
AcDbCircle
 10
447.782286
 20
-208.245876
 30
0.0
 40
5.0
100
AcDbArc
 50
82.606248
 51
7.300134
  0
CIRCLE
  5
941
100
AcDbEntity
  8
MSL5_300_3F-3
100
AcDbCircle
 10
447.782286
 20
-208.245876
 30
0.0
 40
4.25
  0
LINE
  5
942
100
AcDbEntity
  8
MSL5_300_3F-7
100
AcDbLine
 10
447.782286
 20
-208.245876
 30
0.0
 11
447.782286
 21
-201.515086
 31
0.0
  0
LINE
  5
943
100
AcDbEntity
  8
MSL5_300_3F-7
100
AcDbLine
 10
447.782286
 20
-208.245876
 30
0.0
 11
454.513076
 21
-208.245876
 31
0.0
  0
LINE
  5
944
100
AcDbEntity
  8
MSL5_300_3F-7
100
AcDbLine
 10
447.782286
 20
-208.245876
 30
0.0
 11
441.051496
 21
-208.245876
 31
0.0
  0
LINE
  5
945
100
AcDbEntity
  8
MSL5_300_3F-7
100
AcDbLine
 10
447.782286
 20
-208.245876
 30
0.0
 11
447.782286
 21
-214.976666
 31
0.0
  0
CIRCLE
  5
946
100
AcDbEntity
  8
MSL5_300_3F-3
100
AcDbCircle
 10
477.782286
 20
-208.245876
 30
0.0
 40
5.0
  0
LINE
  5
947
100
AcDbEntity
  8
MSL5_300_3F-7
100
AcDbLine
 10
477.782286
 20
-208.245876
 30
0.0
 11
477.782286
 21
-201.156995
 31
0.0
  0
LINE
  5
948
100
AcDbEntity
  8
MSL5_300_3F-7
100
AcDbLine
 10
477.782286
 20
-208.245876
 30
0.0
 11
470.693405
 21
-208.245876
 31
0.0
  0
LINE
  5
949
100
AcDbEntity
  8
MSL5_300_3F-7
100
AcDbLine
 10
477.782286
 20
-208.245876
 30
0.0
 11
477.782286
 21
-215.334757
 31
0.0
  0
LINE
  5
94A
100
AcDbEntity
  8
MSL5_300_3F-7
100
AcDbLine
 10
477.782286
 20
-208.245876
 30
0.0
 11
484.871167
 21
-208.245876
 31
0.0
  0
ARC
  5
94B
100
AcDbEntity
  8
MSL5_300_3F-3
100
AcDbCircle
 10
447.782286
 20
-148.245876
 30
0.0
 40
5.0
100
AcDbArc
 50
82.606248
 51
7.300134
  0
CIRCLE
  5
94C
100
AcDbEntity
  8
MSL5_300_3F-3
100
AcDbCircle
 10
447.782286
 20
-148.245876
 30
0.0
 40
4.25
  0
LINE
  5
94D
100
AcDbEntity
  8
MSL5_300_3F-7
100
AcDbLine
 10
447.782286
 20
-148.245876
 30
0.0
 11
447.782286
 21
-141.403162
 31
0.0
  0
LINE
  5
94E
100
AcDbEntity
  8
MSL5_300_3F-7
100
AcDbLine
 10
447.782286
 20
-148.245876
 30
0.0
 11
454.624999
 21
-148.245876
 31
0.0
  0
LINE
  5
94F
100
AcDbEntity
  8
MSL5_300_3F-7
100
AcDbLine
 10
447.782286
 20
-148.245876
 30
0.0
 11
440.939573
 21
-148.245876
 31
0.0
  0
LINE
  5
950
100
AcDbEntity
  8
MSL5_300_3F-7
100
AcDbLine
 10
447.782286
 20
-148.245876
 30
0.0
 11
447.782286
 21
-155.088589
 31
0.0
  0
CIRCLE
  5
951
100
AcDbEntity
  8
MSL5_300_3F-3
100
AcDbCircle
 10
477.782286
 20
-148.245876
 30
0.0
 40
5.0
  0
LINE
  5
952
100
AcDbEntity
  8
MSL5_300_3F-7
100
AcDbLine
 10
477.782286
 20
-148.245876
 30
0.0
 11
477.782286
 21
-141.106127
 31
0.0
  0
LINE
  5
953
100
AcDbEntity
  8
MSL5_300_3F-7
100
AcDbLine
 10
477.782286
 20
-148.245876
 30
0.0
 11
470.642537
 21
-148.245876
 31
0.0
  0
LINE
  5
954
100
AcDbEntity
  8
MSL5_300_3F-7
100
AcDbLine
 10
477.782286
 20
-148.245876
 30
0.0
 11
477.782286
 21
-155.385624
 31
0.0
  0
LINE
  5
955
100
AcDbEntity
  8
MSL5_300_3F-7
100
AcDbLine
 10
477.782286
 20
-148.245876
 30
0.0
 11
484.922035
 21
-148.245876
 31
0.0
  0
LINE
  5
956
100
AcDbEntity
  8
MSL5_300_3F-0
100
AcDbLine
 10
613.082286
 20
-214.637876
 30
0.0
 11
613.082286
 21
-237.637876
 31
0.0
  0
LINE
  5
957
100
AcDbEntity
  8
MSL5_300_3F-0
100
AcDbLine
 10
625.582286
 20
-237.637876
 30
0.0
 11
626.582286
 21
-236.637876
 31
0.0
  0
LINE
  5
958
100
AcDbEntity
  8
MSL5_300_3F-0
100
AcDbLine
 10
625.582286
 20
-237.637876
 30
0.0
 11
625.582286
 21
-214.637876
 31
0.0
  0
LINE
  5
959
100
AcDbEntity
  8
MSL5_300_3F-0
100
AcDbLine
 10
588.282286
 20
-214.637876
 30
0.0
 11
588.282286
 21
-237.637876
 31
0.0
  0
LINE
  5
95A
100
AcDbEntity
  8
MSL5_300_3F-0
100
AcDbLine
 10
587.782286
 20
-213.255566
 30
0.0
 11
587.782286
 21
-239.236329
 31
0.0
  0
LINE
  5
95B
100
AcDbEntity
  8
MSL5_300_3F-0
100
AcDbLine
 10
579.782286
 20
-213.255566
 30
0.0
 11
579.782286
 21
-239.236329
 31
0.0
  0
LINE
  5
95C
100
AcDbEntity
  8
MSL5_300_3F-0
100
AcDbLine
 10
579.282286
 20
-252.245876
 30
0.0
 11
579.282286
 21
-229.18384
 31
0.0
  0
ARC
  5
95D
100
AcDbEntity
  8
MSL5_300_3F-0
100
AcDbCircle
 10
582.676036
 20
-239.236329
 30
0.0
 40
5.10625
100
AcDbArc
 50
302.004628
 51
57.995372
  0
ARC
  5
95E
100
AcDbEntity
  8
MSL5_300_3F-0
100
AcDbCircle
 10
584.888536
 20
-239.236329
 30
0.0
 40
5.10625
100
AcDbArc
 50
122.004627
 51
237.995373
  0
LINE
  5
95F
100
AcDbEntity
  8
MSL5_300_3F-0
100
AcDbLine
 10
613.082286
 20
-237.637876
 30
0.0
 11
625.582286
 21
-237.637876
 31
0.0
  0
LINE
  5
960
100
AcDbEntity
  8
MSL5_300_3F-0
100
AcDbLine
 10
588.282286
 20
-237.637876
 30
0.0
 11
587.68348
 21
-238.236682
 31
0.0
  0
LINE
  5
961
100
AcDbEntity
  8
MSL5_300_3F-0
100
AcDbLine
 10
582.182286
 20
-243.566456
 30
0.0
 11
585.382286
 21
-243.566456
 31
0.0
  0
LINE
  5
962
100
AcDbEntity
  8
MSL5_300_3F-0
100
AcDbLine
 10
581.582286
 20
-121.33847
 30
0.0
 11
579.782286
 21
-121.33847
 31
0.0
  0
LINE
  5
963
100
AcDbEntity
  8
MSL5_300_3F-0
100
AcDbLine
 10
581.582286
 20
-131.153425
 30
0.0
 11
579.782286
 21
-131.153425
 31
0.0
  0
LINE
  5
964
100
AcDbEntity
  8
MSL5_300_3F-0
100
AcDbLine
 10
579.782286
 20
-136.045947
 30
0.0
 11
581.601357
 21
-136.045947
 31
0.0
  0
LINE
  5
965
100
AcDbEntity
  8
MSL5_300_3F-0
100
AcDbLine
 10
579.782286
 20
-164.745947
 30
0.0
 11
597.782286
 21
-164.745947
 31
0.0
  0
LINE
  5
966
100
AcDbEntity
  8
MSL5_300_3F-0
100
AcDbLine
 10
597.782286
 20
-191.745947
 30
0.0
 11
579.782286
 21
-191.745947
 31
0.0
  0
ARC
  5
967
100
AcDbEntity
  8
MSL5_300_3F-0
100
AcDbCircle
 10
584.888536
 20
-213.255566
 30
0.0
 40
5.10625
100
AcDbArc
 50
122.004627
 51
237.995373
  0
ARC
  5
968
100
AcDbEntity
  8
MSL5_300_3F-0
100
AcDbCircle
 10
596.607286
 20
-226.245947
 30
0.0
 40
16.825
100
AcDbArc
 50
149.0209
 51
210.9791
  0
LINE
  5
969
100
AcDbEntity
  8
MSL5_300_3F-7
100
AcDbLine
 10
574.673008
 20
-226.245947
 30
0.0
 11
631.56765
 21
-226.245947
 31
0.0
  0
LINE
  5
96A
100
AcDbEntity
  8
MSL5_300_3F-7
100
AcDbLine
 10
507.782286
 20
-208.245876
 30
0.0
 11
507.782286
 21
-201.515086
 31
0.0
  0
LINE
  5
96B
100
AcDbEntity
  8
MSL5_300_3F-7
100
AcDbLine
 10
507.782286
 20
-208.245876
 30
0.0
 11
514.513076
 21
-208.245876
 31
0.0
  0
LINE
  5
96C
100
AcDbEntity
  8
MSL5_300_3F-7
100
AcDbLine
 10
507.782286
 20
-208.245876
 30
0.0
 11
507.782286
 21
-214.976666
 31
0.0
  0
ELLIPSE
  5
96D
100
AcDbEntity
  8
MSL5_300_3F-4
100
AcDbEllipse
 10
565.782286
 20
-221.40021
 30
0.0
 11
6.578499999999972
 21
0.0000000000000993
 31
0.0
210
0.0
220
0.0
230
1.0
 40
0.766044
 41
-1.637716455833419
 42
3.255308282467896
  0
ELLIPSE
  5
96E
100
AcDbEntity
  8
MSL5_300_3F-0
100
AcDbEllipse
 10
565.782286
 20
-221.40021
 30
0.0
 11
-5.722385000000002
 21
0.0
 31
0.0
210
0.0
220
0.0
230
1.0
 40
0.766044
 41
0.0000000000000389
 42
6.283185307179639
  0
LINE
  5
96F
100
AcDbEntity
  8
MSL5_300_3F-7
100
AcDbLine
 10
556.203786
 20
-221.40021
 30
0.0
 11
575.360786
 21
-221.40021
 31
0.0
1001
GENIUS_GENODEF_13
1002
{
1000
HIER
1070
     0
1002
}
1002
{
1000
MANEDIT
1070
     0
1002
}
1002
{
1000
NOSEL
1070
     0
1002
}
1002
{
1000
BEHIND
1070
     0
1002
}
1002
{
1000
REACTOR
1002
}
1001
GENIUS_GENOBJ-N-CEN_13
1002
{
1000
OWNER
1000
GEN
1002
}
  0
LINE
  5
970
100
AcDbEntity
  8
MSL5_300_3F-0
100
AcDbLine
 10
555.582286
 20
-212.330862
 30
0.0
 11
579.282286
 21
-212.330862
 31
0.0
  0
LINE
  5
971
100
AcDbEntity
  8
MSL5_300_3F-0
100
AcDbLine
 10
579.282286
 20
-229.18384
 30
0.0
 11
555.582286
 21
-229.18384
 31
0.0
  0
LINE
  5
972
100
AcDbEntity
  8
MSL5_300_3F-0
100
AcDbLine
 10
555.582286
 20
-229.18384
 30
0.0
 11
555.582286
 21
-212.330862
 31
0.0
  0
LINE
  5
973
100
AcDbEntity
  8
MSL5_300_3F-7
100
AcDbLine
 10
565.782286
 20
-213.360786
 30
0.0
 11
565.782286
 21
-229.439633
 31
0.0
1001
GENIUS_GENODEF_13
1002
{
1000
HIER
1070
     0
1002
}
1002
{
1000
MANEDIT
1070
     0
1002
}
1002
{
1000
NOSEL
1070
     0
1002
}
1002
{
1000
BEHIND
1070
     0
1002
}
1002
{
1000
REACTOR
1002
}
1001
GENIUS_GENOBJ-N-CEN_13
1002
{
1000
OWNER
1000
GEN
1002
}
  0
LINE
  5
974
100
AcDbEntity
  8
MSL5_300_3F-7
100
AcDbLine
 10
507.782286
 20
-148.245876
 30
0.0
 11
507.782286
 21
-141.403162
 31
0.0
  0
LINE
  5
975
100
AcDbEntity
  8
MSL5_300_3F-7
100
AcDbLine
 10
507.782286
 20
-148.245876
 30
0.0
 11
514.624999
 21
-148.245876
 31
0.0
  0
LINE
  5
976
100
AcDbEntity
  8
MSL5_300_3F-7
100
AcDbLine
 10
507.782286
 20
-148.245876
 30
0.0
 11
507.782286
 21
-155.088589
 31
0.0
  0
LINE
  5
977
100
AcDbEntity
  8
MSL5_300_3F-3
100
AcDbLine
 10
597.782286
 20
-165.745947
 30
0.0
 11
597.782286
 21
-190.745947
 31
0.0
1001
GENIUS_GENBH_13
1002
{
1000
OE
1000
CON1
1002
}
1001
GENIUS_GENOREF_13
1005
B89
  0
LINE
  5
978
100
AcDbEntity
  8
MSL5_300_3F-3
100
AcDbLine
 10
598.782286
 20
-165.745947
 30
0.0
 11
598.782286
 21
-190.745947
 31
0.0
1001
GENIUS_GENBH_13
1002
{
1000
OE
1000
CON1
1002
}
1001
GENIUS_GENOREF_13
1005
B89
  0
LINE
  5
979
100
AcDbEntity
  8
MSL5_300_3F-0
100
AcDbLine
 10
625.582286
 20
-214.637876
 30
0.0
 11
613.082286
 21
-214.637876
 31
0.0
  0
LINE
  5
97A
100
AcDbEntity
  8
MSL5_300_3F-0
100
AcDbLine
 10
588.282286
 20
-222.137876
 30
0.0
 11
613.082286
 21
-222.137876
 31
0.0
  0
LINE
  5
97B
100
AcDbEntity
  8
MSL5_300_3F-0
100
AcDbLine
 10
613.082286
 20
-217.745947
 30
0.0
 11
588.282286
 21
-217.745947
 31
0.0
  0
LINE
  5
97C
100
AcDbEntity
  8
MSL5_300_3F-0
100
AcDbLine
 10
588.282286
 20
-230.137876
 30
0.0
 11
613.082286
 21
-230.137876
 31
0.0
  0
ARC
  5
97D
100
AcDbEntity
  8
MSL5_300_3F-0
100
AcDbCircle
 10
570.957286
 20
-226.245947
 30
0.0
 40
16.825
100
AcDbArc
 50
329.020901
 51
30.979099
  0
LINE
  5
97E
100
AcDbEntity
  8
MSL5_300_3F-0
100
AcDbLine
 10
582.182286
 20
-234.906201
 30
0.0
 11
585.382286
 21
-234.906201
 31
0.0
  0
LINE
  5
97F
100
AcDbEntity
  8
MSL5_300_3F-0
100
AcDbLine
 10
587.716568
 20
-214.072158
 30
0.0
 11
588.282286
 21
-214.637876
 31
0.0
  0
ARC
  5
980
100
AcDbEntity
  8
MSL5_300_3F-0
100
AcDbCircle
 10
582.676036
 20
-213.255566
 30
0.0
 40
5.10625
100
AcDbArc
 50
302.004628
 51
57.995372
  0
LINE
  5
981
100
AcDbEntity
  8
MSL5_300_3F-0
100
AcDbLine
 10
582.182286
 20
-217.585693
 30
0.0
 11
585.382286
 21
-217.585693
 31
0.0
  0
LINE
  5
982
100
AcDbEntity
  8
MSL5_300_3F-0
100
AcDbLine
 10
582.182286
 20
-208.925439
 30
0.0
 11
585.382286
 21
-208.925439
 31
0.0
  0
LINE
  5
983
100
AcDbEntity
  8
MSL5_300_3F-0
100
AcDbLine
 10
597.782286
 20
-190.745947
 30
0.0
 11
597.782286
 21
-191.745947
 31
0.0
1001
GENIUS_GENOREF_13
1005
B89
  0
LINE
  5
984
100
AcDbEntity
  8
MSL5_300_3F-0
100
AcDbLine
 10
598.782286
 20
-190.745947
 30
0.0
 11
597.782286
 21
-191.745947
 31
0.0
  0
LINE
  5
985
100
AcDbEntity
  8
MSL5_300_3F-0
100
AcDbLine
 10
626.582286
 20
-236.637876
 30
0.0
 11
626.582286
 21
-215.637876
 31
0.0
  0
LINE
  5
986
100
AcDbEntity
  8
MSL5_300_3F-0
100
AcDbLine
 10
626.582286
 20
-215.637876
 30
0.0
 11
625.582286
 21
-214.637876
 31
0.0
  0
LINE
  5
987
100
AcDbEntity
  8
MSL5_300_3F-0
100
AcDbLine
 10
597.782286
 20
-164.745947
 30
0.0
 11
597.782286
 21
-165.745947
 31
0.0
1001
GENIUS_GENOREF_13
1005
B89
  0
LINE
  5
988
100
AcDbEntity
  8
MSL5_300_3F-0
100
AcDbLine
 10
597.782286
 20
-164.745947
 30
0.0
 11
598.782286
 21
-165.745947
 31
0.0
  0
LINE
  5
989
100
AcDbEntity
  8
MSL5_300_3F-0
100
AcDbLine
 10
582.782286
 20
-118.884732
 30
0.0
 11
582.782286
 21
-133.607163
 31
0.0
  0
ARC
  5
98A
100
AcDbEntity
  8
MSL5_300_3F-0
100
AcDbCircle
 10
579.673605
 20
-133.607163
 30
0.0
 40
3.108681
100
AcDbArc
 50
307.878144
 51
52.121856
  0
ARC
  5
98B
100
AcDbEntity
  8
MSL5_300_3F-0
100
AcDbCircle
 10
572.147564
 20
-126.245947
 30
0.0
 40
10.634722
100
AcDbArc
 50
332.518773
 51
27.481227
  0
LINE
  5
98C
100
AcDbEntity
  8
MSL5_300_3F-7
100
AcDbLine
 10
507.782286
 20
30.0
 30
0.0
 11
500.939573
 21
30.0
 31
0.0
  0
CIRCLE
  5
98D
100
AcDbEntity
  8
MSL5_300_3F-0
100
AcDbCircle
 10
507.782286
 20
30.0
 30
0.0
 40
4.25
  0
ARC
  5
98E
100
AcDbEntity
  8
MSL5_300_3F-4
100
AcDbCircle
 10
507.782286
 20
30.0
 30
0.0
 40
5.0
100
AcDbArc
 50
82.606248
 51
7.300134
  0
LINE
  5
98F
100
AcDbEntity
  8
MSL5_300_3F-7
100
AcDbLine
 10
507.782286
 20
-30.0
 30
0.0
 11
501.051496
 21
-30.0
 31
0.0
  0
CIRCLE
  5
990
100
AcDbEntity
  8
MSL5_300_3F-0
100
AcDbCircle
 10
507.782286
 20
-30.0
 30
0.0
 40
4.25
  0
ARC
  5
991
100
AcDbEntity
  8
MSL5_300_3F-4
100
AcDbCircle
 10
507.782286
 20
-30.0
 30
0.0
 40
5.0
100
AcDbArc
 50
82.606248
 51
7.300134
  0
LINE
  5
992
100
AcDbEntity
  8
MSL5_300_3F-7
100
AcDbLine
 10
477.782286
 20
21.276411
 30
0.0
 11
477.782286
 21
-22.911119
 31
0.0
  0
LINE
  5
993
100
AcDbEntity
  8
MSL5_300_3F-7
100
AcDbLine
 10
357.782286
 20
21.276411
 30
0.0
 11
357.782286
 21
-22.911119
 31
0.0
  0
LINE
  5
994
100
AcDbEntity
  8
MSL5_300_3F-7
100
AcDbLine
 10
417.782286
 20
21.276411
 30
0.0
 11
417.782286
 21
-22.911119
 31
0.0
  0
CIRCLE
  5
995
100
AcDbEntity
  8
MSL5_300_3F-0
100
AcDbCircle
 10
387.782286
 20
-30.0
 30
0.0
 40
4.25
  0
ARC
  5
996
100
AcDbEntity
  8
MSL5_300_3F-4
100
AcDbCircle
 10
387.782286
 20
-30.0
 30
0.0
 40
5.0
100
AcDbArc
 50
82.606248
 51
7.300134
  0
LINE
  5
997
100
AcDbEntity
  8
MSL5_300_3F-7
100
AcDbLine
 10
387.782286
 20
-30.0
 30
0.0
 11
394.513076
 21
-30.0
 31
0.0
  0
CIRCLE
  5
998
100
AcDbEntity
  8
MSL5_300_3F-0
100
AcDbCircle
 10
357.782286
 20
-30.0
 30
0.0
 40
5.0
  0
LINE
  5
999
100
AcDbEntity
  8
MSL5_300_3F-7
100
AcDbLine
 10
357.782286
 20
-30.0
 30
0.0
 11
357.782286
 21
-22.911119
 31
0.0
  0
LINE
  5
99A
100
AcDbEntity
  8
MSL5_300_3F-7
100
AcDbLine
 10
387.782286
 20
-30.0
 30
0.0
 11
387.782286
 21
-23.26921
 31
0.0
  0
LINE
  5
99B
100
AcDbEntity
  8
MSL5_300_3F-7
100
AcDbLine
 10
357.782286
 20
-30.0
 30
0.0
 11
364.871167
 21
-30.0
 31
0.0
  0
LINE
  5
99C
100
AcDbEntity
  8
MSL5_300_3F-7
100
AcDbLine
 10
357.782286
 20
-30.0
 30
0.0
 11
357.782286
 21
-37.088881
 31
0.0
  0
LINE
  5
99D
100
AcDbEntity
  8
MSL5_300_3F-7
100
AcDbLine
 10
387.782286
 20
-30.0
 30
0.0
 11
381.051496
 21
-30.0
 31
0.0
  0
LINE
  5
99E
100
AcDbEntity
  8
MSL5_300_3F-7
100
AcDbLine
 10
387.782286
 20
-30.0
 30
0.0
 11
387.782286
 21
-36.73079
 31
0.0
  0
LINE
  5
99F
100
AcDbEntity
  8
MSL5_300_3F-7
100
AcDbLine
 10
417.782286
 20
-30.0
 30
0.0
 11
417.782286
 21
-22.911119
 31
0.0
  0
CIRCLE
  5
9A0
100
AcDbEntity
  8
MSL5_300_3F-0
100
AcDbCircle
 10
417.782286
 20
-30.0
 30
0.0
 40
5.0
  0
LINE
  5
9A1
100
AcDbEntity
  8
MSL5_300_3F-7
100
AcDbLine
 10
417.782286
 20
-30.0
 30
0.0
 11
424.871167
 21
-30.0
 31
0.0
  0
LINE
  5
9A2
100
AcDbEntity
  8
MSL5_300_3F-7
100
AcDbLine
 10
417.782286
 20
-30.0
 30
0.0
 11
410.693405
 21
-30.0
 31
0.0
  0
LINE
  5
9A3
100
AcDbEntity
  8
MSL5_300_3F-7
100
AcDbLine
 10
417.782286
 20
-30.0
 30
0.0
 11
417.782286
 21
-37.088881
 31
0.0
  0
ARC
  5
9A4
100
AcDbEntity
  8
MSL5_300_3F-4
100
AcDbCircle
 10
447.782286
 20
-30.0
 30
0.0
 40
5.0
100
AcDbArc
 50
82.606248
 51
7.300134
  0
CIRCLE
  5
9A5
100
AcDbEntity
  8
MSL5_300_3F-0
100
AcDbCircle
 10
447.782286
 20
-30.0
 30
0.0
 40
4.25
  0
LINE
  5
9A6
100
AcDbEntity
  8
MSL5_300_3F-7
100
AcDbLine
 10
447.782286
 20
-30.0
 30
0.0
 11
447.782286
 21
-23.26921
 31
0.0
  0
LINE
  5
9A7
100
AcDbEntity
  8
MSL5_300_3F-7
100
AcDbLine
 10
447.782286
 20
-30.0
 30
0.0
 11
454.513076
 21
-30.0
 31
0.0
  0
LINE
  5
9A8
100
AcDbEntity
  8
MSL5_300_3F-7
100
AcDbLine
 10
447.782286
 20
-30.0
 30
0.0
 11
441.051496
 21
-30.0
 31
0.0
  0
LINE
  5
9A9
100
AcDbEntity
  8
MSL5_300_3F-7
100
AcDbLine
 10
447.782286
 20
-30.0
 30
0.0
 11
447.782286
 21
-36.73079
 31
0.0
  0
CIRCLE
  5
9AA
100
AcDbEntity
  8
MSL5_300_3F-0
100
AcDbCircle
 10
477.782286
 20
-30.0
 30
0.0
 40
5.0
  0
LINE
  5
9AB
100
AcDbEntity
  8
MSL5_300_3F-7
100
AcDbLine
 10
477.782286
 20
-30.0
 30
0.0
 11
477.782286
 21
-22.911119
 31
0.0
  0
LINE
  5
9AC
100
AcDbEntity
  8
MSL5_300_3F-7
100
AcDbLine
 10
477.782286
 20
-30.0
 30
0.0
 11
470.693405
 21
-30.0
 31
0.0
  0
LINE
  5
9AD
100
AcDbEntity
  8
MSL5_300_3F-7
100
AcDbLine
 10
477.782286
 20
-30.0
 30
0.0
 11
477.782286
 21
-37.088881
 31
0.0
  0
LINE
  5
9AE
100
AcDbEntity
  8
MSL5_300_3F-7
100
AcDbLine
 10
477.782286
 20
-30.0
 30
0.0
 11
484.871167
 21
-30.0
 31
0.0
  0
CIRCLE
  5
9AF
100
AcDbEntity
  8
MSL5_300_3F-0
100
AcDbCircle
 10
387.782286
 20
30.0
 30
0.0
 40
4.25
  0
ARC
  5
9B0
100
AcDbEntity
  8
MSL5_300_3F-4
100
AcDbCircle
 10
387.782286
 20
30.0
 30
0.0
 40
5.0
100
AcDbArc
 50
82.606248
 51
7.300134
  0
LINE
  5
9B1
100
AcDbEntity
  8
MSL5_300_3F-7
100
AcDbLine
 10
387.782286
 20
30.0
 30
0.0
 11
394.624999
 21
30.0
 31
0.0
  0
CIRCLE
  5
9B2
100
AcDbEntity
  8
MSL5_300_3F-0
100
AcDbCircle
 10
357.782286
 20
30.0
 30
0.0
 40
5.0
  0
LINE
  5
9B3
100
AcDbEntity
  8
MSL5_300_3F-7
100
AcDbLine
 10
357.782286
 20
30.0
 30
0.0
 11
357.782286
 21
37.139749
 31
0.0
  0
LINE
  5
9B4
100
AcDbEntity
  8
MSL5_300_3F-7
100
AcDbLine
 10
387.782286
 20
30.0
 30
0.0
 11
387.782286
 21
36.842713
 31
0.0
  0
LINE
  5
9B5
100
AcDbEntity
  8
MSL5_300_3F-7
100
AcDbLine
 10
357.782286
 20
30.0
 30
0.0
 11
364.922035
 21
30.0
 31
0.0
  0
LINE
  5
9B6
100
AcDbEntity
  8
MSL5_300_3F-7
100
AcDbLine
 10
357.782286
 20
30.0
 30
0.0
 11
357.782286
 21
22.860251
 31
0.0
  0
LINE
  5
9B7
100
AcDbEntity
  8
MSL5_300_3F-7
100
AcDbLine
 10
387.782286
 20
30.0
 30
0.0
 11
380.939573
 21
30.0
 31
0.0
  0
LINE
  5
9B8
100
AcDbEntity
  8
MSL5_300_3F-7
100
AcDbLine
 10
387.782286
 20
30.0
 30
0.0
 11
387.782286
 21
23.157287
 31
0.0
  0
LINE
  5
9B9
100
AcDbEntity
  8
MSL5_300_3F-7
100
AcDbLine
 10
417.782286
 20
30.0
 30
0.0
 11
417.782286
 21
37.139749
 31
0.0
  0
CIRCLE
  5
9BA
100
AcDbEntity
  8
MSL5_300_3F-0
100
AcDbCircle
 10
417.782286
 20
30.0
 30
0.0
 40
5.0
  0
LINE
  5
9BB
100
AcDbEntity
  8
MSL5_300_3F-7
100
AcDbLine
 10
417.782286
 20
30.0
 30
0.0
 11
424.922035
 21
30.0
 31
0.0
  0
LINE
  5
9BC
100
AcDbEntity
  8
MSL5_300_3F-7
100
AcDbLine
 10
417.782286
 20
30.0
 30
0.0
 11
410.642537
 21
30.0
 31
0.0
  0
LINE
  5
9BD
100
AcDbEntity
  8
MSL5_300_3F-7
100
AcDbLine
 10
417.782286
 20
30.0
 30
0.0
 11
417.782286
 21
22.860251
 31
0.0
  0
ARC
  5
9BE
100
AcDbEntity
  8
MSL5_300_3F-4
100
AcDbCircle
 10
447.782286
 20
30.0
 30
0.0
 40
5.0
100
AcDbArc
 50
82.606248
 51
7.300134
  0
CIRCLE
  5
9BF
100
AcDbEntity
  8
MSL5_300_3F-0
100
AcDbCircle
 10
447.782286
 20
30.0
 30
0.0
 40
4.25
  0
LINE
  5
9C0
100
AcDbEntity
  8
MSL5_300_3F-7
100
AcDbLine
 10
447.782286
 20
30.0
 30
0.0
 11
447.782286
 21
36.842713
 31
0.0
  0
LINE
  5
9C1
100
AcDbEntity
  8
MSL5_300_3F-7
100
AcDbLine
 10
447.782286
 20
30.0
 30
0.0
 11
454.624999
 21
30.0
 31
0.0
  0
LINE
  5
9C2
100
AcDbEntity
  8
MSL5_300_3F-7
100
AcDbLine
 10
447.782286
 20
30.0
 30
0.0
 11
440.939573
 21
30.0
 31
0.0
  0
LINE
  5
9C3
100
AcDbEntity
  8
MSL5_300_3F-7
100
AcDbLine
 10
447.782286
 20
30.0
 30
0.0
 11
447.782286
 21
23.157287
 31
0.0
  0
CIRCLE
  5
9C4
100
AcDbEntity
  8
MSL5_300_3F-0
100
AcDbCircle
 10
477.782286
 20
30.0
 30
0.0
 40
5.0
  0
LINE
  5
9C5
100
AcDbEntity
  8
MSL5_300_3F-7
100
AcDbLine
 10
477.782286
 20
30.0
 30
0.0
 11
477.782286
 21
37.139749
 31
0.0
  0
LINE
  5
9C6
100
AcDbEntity
  8
MSL5_300_3F-7
100
AcDbLine
 10
477.782286
 20
30.0
 30
0.0
 11
470.642537
 21
30.0
 31
0.0
  0
LINE
  5
9C7
100
AcDbEntity
  8
MSL5_300_3F-7
100
AcDbLine
 10
477.782286
 20
30.0
 30
0.0
 11
477.782286
 21
22.860251
 31
0.0
  0
LINE
  5
9C8
100
AcDbEntity
  8
MSL5_300_3F-7
100
AcDbLine
 10
477.782286
 20
30.0
 30
0.0
 11
484.922035
 21
30.0
 31
0.0
  0
LINE
  5
9C9
100
AcDbEntity
  8
MSL5_300_3F-0
100
AcDbLine
 10
579.782286
 20
119.0
 30
0.0
 11
579.782286
 21
-38.0
 31
0.0
  0
LINE
  5
9CA
100
AcDbEntity
  8
MSL5_300_3F-0
100
AcDbLine
 10
597.782286
 20
-13.5
 30
0.0
 11
579.782286
 21
-13.5
 31
0.0
  0
LINE
  5
9CB
100
AcDbEntity
  8
MSL5_300_3F-0
100
AcDbLine
 10
581.601357
 20
-116.445947
 30
0.0
 11
579.782286
 21
-116.445947
 31
0.0
  0
LINE
  5
9CC
100
AcDbEntity
  8
MSL5_300_3F-7
100
AcDbLine
 10
544.282286
 20
-107.166165
 30
0.0
 11
527.282286
 21
-107.166179
 31
0.0
1001
GENIUS_GENODEF_13
1002
{
1000
HIER
1070
     0
1002
}
1002
{
1000
MANEDIT
1070
     0
1002
}
1002
{
1000
NOSEL
1070
     0
1002
}
1002
{
1000
BEHIND
1070
     0
1002
}
1002
{
1000
REACTOR
1002
}
1001
GENIUS_GENOBJ-N-CEN_13
1002
{
1000
OWNER
1000
GEN
1002
}
  0
LINE
  5
9CD
100
AcDbEntity
  8
MSL5_300_3F-0
100
AcDbLine
 10
537.797534
 20
-103.245947
 30
0.0
 11
579.782286
 21
-103.245947
 31
0.0
  0
LINE
  5
9CE
100
AcDbEntity
  8
MSL5_300_3F-0
100
AcDbLine
 10
539.746786
 20
-104.245876
 30
0.0
 11
579.282286
 21
-104.245876
 31
0.0
  0
ELLIPSE
  5
9CF
100
AcDbEntity
  8
MSL5_300_3F-0
100
AcDbEllipse
 10
535.782286
 20
-107.166177
 30
0.0
 11
-5.500000000006366
 21
0.0
 31
0.0
210
0.0
220
0.0
230
1.0
 40
0.766044
 41
0.0000000000000405
 42
6.283185307179641
  0
LINE
  5
9D0
100
AcDbEntity
  8
MSL5_300_3F-7
100
AcDbLine
 10
535.782286
 20
-114.379421
 30
0.0
 11
535.782286
 21
-99.952933
 31
0.0
1001
GENIUS_GENODEF_13
1002
{
1000
HIER
1070
     0
1002
}
1002
{
1000
MANEDIT
1070
     0
1002
}
1002
{
1000
NOSEL
1070
     0
1002
}
1002
{
1000
BEHIND
1070
     0
1002
}
1002
{
1000
REACTOR
1002
}
1001
GENIUS_GENOBJ-N-CEN_13
1002
{
1000
OWNER
1000
GEN
1002
}
  0
ELLIPSE
  5
9D1
100
AcDbEntity
  8
MSL5_300_3F-0
100
AcDbEllipse
 10
535.782289
 20
-108.901695
 30
0.0
 11
-5.499999999998863
 21
-0.0000090659722912
 31
0.0
210
0.0
220
0.0
230
-1.0
 40
0.766044
 41
3.141592653589792
 42
6.28318530717964
  0
LINE
  5
9D2
100
AcDbEntity
  8
MSL5_300_3F-0
100
AcDbLine
 10
530.282289
 20
-108.901704
 30
0.0
 11
530.282286
 21
-107.166177
 31
0.0
  0
ELLIPSE
  5
9D3
100
AcDbEntity
  8
MSL5_300_3F-0
100
AcDbEllipse
 10
535.782286
 20
-107.166177
 30
0.0
 11
-2.000000000006366
 21
0.0
 31
0.0
210
0.0
220
0.0
230
1.0
 40
0.766044
 41
0.0000000000000557
 42
6.283185307179656
  0
LINE
  5
9D4
100
AcDbEntity
  8
MSL5_300_3F-0
100
AcDbLine
 10
541.282289
 20
-108.901695
 30
0.0
 11
541.282286
 21
-107.16615
 31
0.0
  0
LINE
  5
9D5
100
AcDbEntity
  8
MSL5_300_3F-0
100
AcDbLine
 10
535.782284
 20
-105.880593
 30
0.0
 11
533.782286
 21
-107.166171
 31
0.0
  0
LINE
  5
9D6
100
AcDbEntity
  8
MSL5_300_3F-0
100
AcDbLine
 10
537.782286
 20
-107.166159
 30
0.0
 11
535.782284
 21
-105.880593
 31
0.0
  0
LINE
  5
9D7
100
AcDbEntity
  8
MSL5_300_3F-7
100
AcDbLine
 10
507.782286
 20
-30.0
 30
0.0
 11
507.782286
 21
-23.26921
 31
0.0
  0
LINE
  5
9D8
100
AcDbEntity
  8
MSL5_300_3F-7
100
AcDbLine
 10
507.782286
 20
-30.0
 30
0.0
 11
514.513076
 21
-30.0
 31
0.0
  0
LINE
  5
9D9
100
AcDbEntity
  8
MSL5_300_3F-7
100
AcDbLine
 10
507.782286
 20
-30.0
 30
0.0
 11
507.782286
 21
-36.73079
 31
0.0
  0
LINE
  5
9DA
100
AcDbEntity
  8
MSL5_300_3F-0
100
AcDbLine
 10
597.782286
 20
-12.5
 30
0.0
 11
597.782286
 21
-13.5
 31
0.0
  0
LINE
  5
9DB
100
AcDbEntity
  8
MSL5_300_3F-0
100
AcDbLine
 10
598.782286
 20
-12.5
 30
0.0
 11
597.782286
 21
-13.5
 31
0.0
  0
LINE
  5
9DC
100
AcDbEntity
  8
MSL5_300_3F-0
100
AcDbLine
 10
579.782286
 20
61.8
 30
0.0
 11
581.601357
 21
61.8
 31
0.0
  0
LINE
  5
9DD
100
AcDbEntity
  8
MSL5_300_3F-0
100
AcDbLine
 10
581.582286
 20
56.907478
 30
0.0
 11
579.782286
 21
56.907478
 31
0.0
  0
LINE
  5
9DE
100
AcDbEntity
  8
MSL5_300_3F-0
100
AcDbLine
 10
581.582286
 20
47.092523
 30
0.0
 11
579.782286
 21
47.092523
 31
0.0
  0
LINE
  5
9DF
100
AcDbEntity
  8
MSL5_300_3F-0
100
AcDbLine
 10
581.601357
 20
42.2
 30
0.0
 11
579.782286
 21
42.2
 31
0.0
  0
LINE
  5
9E0
100
AcDbEntity
  8
MSL5_300_3F-7
100
AcDbLine
 10
573.094724
 20
52.0
 30
0.0
 11
587.216591
 21
52.0
 31
0.0
  0
LINE
  5
9E1
100
AcDbEntity
  8
MSL5_300_3F-0
100
AcDbLine
 10
579.782286
 20
13.5
 30
0.0
 11
597.782286
 21
13.5
 31
0.0
  0
LINE
  5
9E2
100
AcDbEntity
  8
MSL5_300_3F-0
100
AcDbLine
 10
579.282286
 20
38.0
 30
0.0
 11
579.282286
 21
87.575422
 31
0.0
  0
LINE
  5
9E3
100
AcDbEntity
  8
MSL5_300_3F-0
100
AcDbLine
 10
541.282286
 20
38.0
 30
0.0
 11
544.282286
 21
38.0
 31
0.0
  0
LINE
  5
9E4
100
AcDbEntity
  8
MSL5_300_3F-7
100
AcDbLine
 10
507.782286
 20
30.0
 30
0.0
 11
507.782286
 21
36.842713
 31
0.0
  0
LINE
  5
9E5
100
AcDbEntity
  8
MSL5_300_3F-7
100
AcDbLine
 10
507.782286
 20
30.0
 30
0.0
 11
514.624999
 21
30.0
 31
0.0
  0
LINE
  5
9E6
100
AcDbEntity
  8
MSL5_300_3F-7
100
AcDbLine
 10
507.782286
 20
30.0
 30
0.0
 11
507.782286
 21
23.157287
 31
0.0
  0
LINE
  5
9E7
100
AcDbEntity
  8
MSL5_300_3F-0
100
AcDbLine
 10
579.282286
 20
38.0
 30
0.0
 11
549.282286
 21
38.0
 31
0.0
  0
LINE
  5
9E8
100
AcDbEntity
  8
MSL5_300_3F-4
100
AcDbLine
 10
579.282286
 20
40.0
 30
0.0
 11
549.282286
 21
40.0
 31
0.0
  0
LINE
  5
9E9
100
AcDbEntity
  8
MSL5_300_3F-0
100
AcDbLine
 10
549.282286
 20
38.0
 30
0.0
 11
549.282286
 21
40.0
 31
0.0
  0
LINE
  5
9EA
100
AcDbEntity
  8
MSL5_300_3F-0
100
AcDbLine
 10
544.282286
 20
38.0
 30
0.0
 11
544.282286
 21
40.0
 31
0.0
  0
LINE
  5
9EB
100
AcDbEntity
  8
MSL5_300_3F-0
100
AcDbLine
 10
549.282286
 20
40.0
 30
0.0
 11
544.282286
 21
40.0
 31
0.0
  0
LINE
  5
9EC
100
AcDbEntity
  8
MSL5_300_3F-7
100
AcDbLine
 10
565.782286
 20
101.874664
 30
0.0
 11
565.782286
 21
87.417507
 31
0.0
1001
GENIUS_GENODEF_13
1002
{
1000
HIER
1070
     0
1002
}
1002
{
1000
MANEDIT
1070
     0
1002
}
1002
{
1000
NOSEL
1070
     0
1002
}
1002
{
1000
BEHIND
1070
     0
1002
}
1002
{
1000
REACTOR
1002
}
1001
GENIUS_GENOBJ-N-CEN_13
1002
{
1000
OWNER
1000
GEN
1002
}
  0
LINE
  5
9ED
100
AcDbEntity
  8
MSL5_300_3F-0
100
AcDbLine
 10
555.582286
 20
87.575422
 30
0.0
 11
555.582286
 21
101.716749
 31
0.0
  0
LINE
  5
9EE
100
AcDbEntity
  8
MSL5_300_3F-0
100
AcDbLine
 10
579.282286
 20
87.575422
 30
0.0
 11
555.582286
 21
87.575422
 31
0.0
  0
ELLIPSE
  5
9EF
100
AcDbEntity
  8
MSL5_300_3F-4
100
AcDbEllipse
 10
565.782286
 20
94.646085
 30
0.0
 11
-6.578500000000085
 21
0.0000000000000935
 31
0.0
210
0.0
220
0.0
230
1.0
 40
0.642788
 41
1.514618869528137
 42
6.418462237827032
  0
ELLIPSE
  5
9F0
100
AcDbEntity
  8
MSL5_300_3F-0
100
AcDbEllipse
 10
565.782286
 20
94.646085
 30
0.0
 11
-5.722384999999974
 21
0.0
 31
0.0
210
0.0
220
0.0
230
1.0
 40
0.642788
 41
0.0000000000000464
 42
6.283185307179646
  0
LINE
  5
9F1
100
AcDbEntity
  8
MSL5_300_3F-7
100
AcDbLine
 10
556.203786
 20
94.646085
 30
0.0
 11
575.360786
 21
94.646085
 31
0.0
1001
GENIUS_GENODEF_13
1002
{
1000
HIER
1070
     0
1002
}
1002
{
1000
MANEDIT
1070
     0
1002
}
1002
{
1000
NOSEL
1070
     0
1002
}
1002
{
1000
BEHIND
1070
     0
1002
}
1002
{
1000
REACTOR
1002
}
1001
GENIUS_GENOBJ-N-CEN_13
1002
{
1000
OWNER
1000
GEN
1002
}
  0
LINE
  5
9F2
100
AcDbEntity
  8
MSL5_300_3F-0
100
AcDbLine
 10
555.582286
 20
101.716749
 30
0.0
 11
579.282286
 21
101.716749
 31
0.0
  0
LINE
  5
9F3
100
AcDbEntity
  8
MSL5_300_3F-0
100
AcDbLine
 10
579.282286
 20
119.0
 30
0.0
 11
579.782286
 21
119.0
 31
0.0
  0
ARC
  5
9F4
100
AcDbEntity
  8
MSL5_300_3F-0
100
AcDbCircle
 10
579.673605
 20
59.361216
 30
0.0
 40
3.108681
100
AcDbArc
 50
307.878144
 51
52.121856
  0
LINE
  5
9F5
100
AcDbEntity
  8
MSL5_300_3F-0
100
AcDbLine
 10
597.782286
 20
13.5
 30
0.0
 11
598.782286
 21
12.5
 31
0.0
  0
LINE
  5
9F6
100
AcDbEntity
  8
MSL5_300_3F-0
100
AcDbLine
 10
597.782286
 20
13.5
 30
0.0
 11
597.782286
 21
12.5
 31
0.0
  0
LINE
  5
9F7
100
AcDbEntity
  8
MSL5_300_3F-0
100
AcDbLine
 10
582.782286
 20
44.638785
 30
0.0
 11
582.782286
 21
59.361216
 31
0.0
  0
ARC
  5
9F8
100
AcDbEntity
  8
MSL5_300_3F-0
100
AcDbCircle
 10
579.673605
 20
44.638785
 30
0.0
 40
3.108681
100
AcDbArc
 50
307.878144
 51
52.121856
  0
ARC
  5
9F9
100
AcDbEntity
  8
MSL5_300_3F-0
100
AcDbCircle
 10
572.147564
 20
52.0
 30
0.0
 40
10.634722
100
AcDbArc
 50
332.518773
 51
27.481227
  0
LINE
  5
9FA
100
AcDbEntity
  8
MSL5_300_3F-0
100
AcDbLine
 10
902.782286
 20
-253.245947
 30
0.0
 11
902.782286
 21
-103.245947
 31
0.0
  0
LINE
  5
9FB
100
AcDbEntity
  8
MSL5_300_3F-0
100
AcDbLine
 10
927.782286
 20
-103.245947
 30
0.0
 11
927.782286
 21
-253.245947
 31
0.0
  0
LINE
  5
9FC
100
AcDbEntity
  8
MSL5_300_3F-7
100
AcDbLine
 10
919.782286
 20
-131.663819
 30
0.0
 11
919.782286
 21
-100.245876
 31
0.0
  0
LINE
  5
9FD
100
AcDbEntity
  8
MSL5_300_3F-3
100
AcDbLine
 10
923.970286
 20
-103.245876
 30
0.0
 11
923.970286
 21
-126.245876
 31
0.0
  0
LINE
  5
9FE
100
AcDbEntity
  8
MSL5_300_3F-3
100
AcDbLine
 10
915.594286
 20
-103.245876
 30
0.0
 11
915.594286
 21
-126.245876
 31
0.0
  0
LINE
  5
9FF
100
AcDbEntity
  8
MSL5_300_3F-3
100
AcDbLine
 10
914.782286
 20
-103.245876
 30
0.0
 11
914.782286
 21
-120.245876
 31
0.0
  0
LINE
  5
A00
100
AcDbEntity
  8
MSL5_300_3F-3
100
AcDbLine
 10
924.782286
 20
-103.245876
 30
0.0
 11
924.782286
 21
-120.245876
 31
0.0
  0
LINE
  5
A01
100
AcDbEntity
  8
MSL5_300_3F-3
100
AcDbLine
 10
914.782286
 20
-253.245876
 30
0.0
 11
914.782286
 21
-236.245876
 31
0.0
  0
LINE
  5
A02
100
AcDbEntity
  8
MSL5_300_3F-3
100
AcDbLine
 10
924.782286
 20
-253.245876
 30
0.0
 11
924.782286
 21
-236.245876
 31
0.0
  0
LINE
  5
A03
100
AcDbEntity
  8
MSL5_300_3F-7
100
AcDbLine
 10
919.782286
 20
-224.827933
 30
0.0
 11
919.782286
 21
-256.245876
 31
0.0
  0
LINE
  5
A04
100
AcDbEntity
  8
MSL5_300_3F-3
100
AcDbLine
 10
915.594286
 20
-253.245876
 30
0.0
 11
915.594286
 21
-230.245876
 31
0.0
  0
LINE
  5
A05
100
AcDbEntity
  8
MSL5_300_3F-3
100
AcDbLine
 10
923.970286
 20
-253.245876
 30
0.0
 11
923.970286
 21
-230.245876
 31
0.0
  0
LINE
  5
A06
100
AcDbEntity
  8
MSL5_300_3F-0
100
AcDbLine
 10
927.782286
 20
-253.245947
 30
0.0
 11
902.782286
 21
-253.245947
 31
0.0
  0
LINE
  5
A07
100
AcDbEntity
  8
MSL5_300_3F-0
100
AcDbLine
 10
886.782286
 20
-118.740394
 30
0.0
 11
883.599786
 21
-118.740394
 31
0.0
  0
LINE
  5
A08
100
AcDbEntity
  8
MSL5_300_3F-0
100
AcDbLine
 10
883.599786
 20
-129.998724
 30
0.0
 11
886.782286
 21
-129.998724
 31
0.0
  0
LINE
  5
A09
100
AcDbEntity
  8
MSL5_300_3F-0
100
AcDbLine
 10
883.599786
 20
-122.493171
 30
0.0
 11
886.782286
 21
-122.493171
 31
0.0
  0
LINE
  5
A0A
100
AcDbEntity
  8
MSL5_300_3F-0
100
AcDbLine
 10
883.599786
 20
-133.751501
 30
0.0
 11
886.782286
 21
-133.751501
 31
0.0
  0
ARC
  5
A0B
100
AcDbEntity
  8
MSL5_300_3F-0
100
AcDbCircle
 10
885.344451
 20
-131.875113
 30
0.0
 40
2.562165
100
AcDbArc
 50
132.916662
 51
227.083338
  0
LINE
  5
A0C
100
AcDbEntity
  8
MSL5_300_3F-0
100
AcDbLine
 10
882.782286
 20
-131.875113
 30
0.0
 11
882.782286
 21
-120.616782
 31
0.0
  0
ARC
  5
A0D
100
AcDbEntity
  8
MSL5_300_3F-0
100
AcDbCircle
 10
891.804696
 20
-126.245947
 30
0.0
 40
9.02241
100
AcDbArc
 50
155.421502
 51
204.578498
  0
ARC
  5
A0E
100
AcDbEntity
  8
MSL5_300_3F-0
100
AcDbCircle
 10
885.344451
 20
-120.616782
 30
0.0
 40
2.562165
100
AcDbArc
 50
132.916662
 51
227.083338
  0
LINE
  5
A0F
100
AcDbEntity
  8
MSL5_300_3F-3
100
AcDbLine
 10
909.782286
 20
-202.745876
 30
0.0
 11
927.782286
 21
-202.745876
 31
0.0
  0
LINE
  5
A10
100
AcDbEntity
  8
MSL5_300_3F-0
100
AcDbLine
 10
927.782286
 20
-190.798058
 30
0.0
 11
902.782286
 21
-190.798058
 31
0.0
  0
LINE
  5
A11
100
AcDbEntity
  8
MSL5_300_3F-3
100
AcDbLine
 10
923.970286
 20
-230.245876
 30
0.0
 11
915.594286
 21
-230.245876
 31
0.0
  0
LINE
  5
A12
100
AcDbEntity
  8
MSL5_300_3F-3
100
AcDbLine
 10
914.782286
 20
-236.245876
 30
0.0
 11
924.782286
 21
-236.245876
 31
0.0
  0
LINE
  5
A13
100
AcDbEntity
  8
MSL5_300_3F-3
100
AcDbLine
 10
919.782286
 20
-227.827933
 30
0.0
 11
923.970286
 21
-230.245876
 31
0.0
  0
LINE
  5
A14
100
AcDbEntity
  8
MSL5_300_3F-3
100
AcDbLine
 10
909.782286
 20
-213.745876
 30
0.0
 11
927.782286
 21
-213.745876
 31
0.0
  0
LINE
  5
A15
100
AcDbEntity
  8
MSL5_300_3F-7
100
AcDbLine
 10
929.782286
 20
-208.245876
 30
0.0
 11
900.782286
 21
-208.245876
 31
0.0
  0
LINE
  5
A16
100
AcDbEntity
  8
MSL5_300_3F-3
100
AcDbLine
 10
909.782286
 20
-199.245876
 30
0.0
 11
909.782286
 21
-217.245876
 31
0.0
  0
LINE
  5
A17
100
AcDbEntity
  8
MSL5_300_3F-3
100
AcDbLine
 10
909.782286
 20
-217.245876
 30
0.0
 11
902.782286
 21
-217.245876
 31
0.0
  0
LINE
  5
A18
100
AcDbEntity
  8
MSL5_300_3F-7
100
AcDbLine
 10
902.782286
 20
-226.245876
 30
0.0
 11
918.782286
 21
-226.245876
 31
0.0
  0
LINE
  5
A19
100
AcDbEntity
  8
MSL5_300_3F-7
100
AcDbLine
 10
910.782286
 20
-234.245876
 30
0.0
 11
910.782286
 21
-218.245876
 31
0.0
  0
ARC
  5
A1A
100
AcDbEntity
  8
MSL5_300_3F-3
100
AcDbCircle
 10
910.782286
 20
-226.245876
 30
0.0
 40
5.0
100
AcDbArc
 50
280.0
 51
210.0
  0
CIRCLE
  5
A1B
100
AcDbEntity
  8
MSL5_300_3F-3
100
AcDbCircle
 10
910.782286
 20
-226.245876
 30
0.0
 40
4.188
  0
LINE
  5
A1C
100
AcDbEntity
  8
MSL5_300_3F-3
100
AcDbLine
 10
919.782286
 20
-227.827933
 30
0.0
 11
915.594286
 21
-230.245876
 31
0.0
  0
LINE
  5
A1D
100
AcDbEntity
  8
MSL5_300_3F-3
100
AcDbLine
 10
902.782286
 20
-199.245876
 30
0.0
 11
909.782286
 21
-199.245876
 31
0.0
  0
LINE
  5
A1E
100
AcDbEntity
  8
MSL5_300_3F-3
100
AcDbLine
 10
923.970286
 20
-126.245876
 30
0.0
 11
915.594286
 21
-126.245876
 31
0.0
  0
LINE
  5
A1F
100
AcDbEntity
  8
MSL5_300_3F-3
100
AcDbLine
 10
914.782286
 20
-120.245876
 30
0.0
 11
924.782286
 21
-120.245876
 31
0.0
  0
LINE
  5
A20
100
AcDbEntity
  8
MSL5_300_3F-3
100
AcDbLine
 10
919.782286
 20
-128.663819
 30
0.0
 11
923.970286
 21
-126.245876
 31
0.0
  0
LINE
  5
A21
100
AcDbEntity
  8
MSL5_300_3F-3
100
AcDbLine
 10
902.782286
 20
-143.245876
 30
0.0
 11
927.782286
 21
-143.245876
 31
0.0
  0
LINE
  5
A22
100
AcDbEntity
  8
MSL5_300_3F-3
100
AcDbLine
 10
902.782286
 20
-153.245876
 30
0.0
 11
927.782286
 21
-153.245876
 31
0.0
  0
LINE
  5
A23
100
AcDbEntity
  8
MSL5_300_3F-0
100
AcDbLine
 10
927.782286
 20
-165.693835
 30
0.0
 11
902.782286
 21
-165.693835
 31
0.0
  0
LINE
  5
A24
100
AcDbEntity
  8
MSL5_300_3F-7
100
AcDbLine
 10
929.782286
 20
-148.245876
 30
0.0
 11
900.782286
 21
-148.245876
 31
0.0
  0
LINE
  5
A25
100
AcDbEntity
  8
MSL5_300_3F-7
100
AcDbLine
 10
902.782286
 20
-130.245876
 30
0.0
 11
918.782286
 21
-130.245876
 31
0.0
  0
ARC
  5
A26
100
AcDbEntity
  8
MSL5_300_3F-0
100
AcDbCircle
 10
900.48923
 20
-131.875113
 30
0.0
 40
2.293056
100
AcDbArc
 50
305.085848
 51
54.914152
  0
ARC
  5
A27
100
AcDbEntity
  8
MSL5_300_3F-0
100
AcDbCircle
 10
901.075342
 20
-131.875113
 30
0.0
 40
2.293056
100
AcDbArc
 50
125.085847
 51
234.914153
  0
LINE
  5
A28
100
AcDbEntity
  8
MSL5_300_3F-0
100
AcDbLine
 10
886.782286
 20
-133.751501
 30
0.0
 11
886.782286
 21
-118.740394
 31
0.0
  0
LINE
  5
A29
100
AcDbEntity
  8
MSL5_300_3F-0
100
AcDbLine
 10
899.757286
 20
-133.751501
 30
0.0
 11
901.807286
 21
-133.751501
 31
0.0
  0
LINE
  5
A2A
100
AcDbEntity
  8
MSL5_300_3F-0
100
AcDbLine
 10
886.782286
 20
-130.245947
 30
0.0
 11
898.782286
 21
-130.245947
 31
0.0
  0
LINE
  5
A2B
100
AcDbEntity
  8
MSL5_300_3F-0
100
AcDbLine
 10
886.782286
 20
-122.245947
 30
0.0
 11
898.782286
 21
-122.245947
 31
0.0
  0
LINE
  5
A2C
100
AcDbEntity
  8
MSL5_300_3F-0
100
AcDbLine
 10
902.782286
 20
-120.616782
 30
0.0
 11
902.782286
 21
-131.875113
 31
0.0
  0
ARC
  5
A2D
100
AcDbEntity
  8
MSL5_300_3F-0
100
AcDbCircle
 10
895.072564
 20
-126.245947
 30
0.0
 40
7.709722
100
AcDbArc
 50
330.872218
 51
29.127782
  0
ARC
  5
A2E
100
AcDbEntity
  8
MSL5_300_3F-0
100
AcDbCircle
 10
900.48923
 20
-120.616782
 30
0.0
 40
2.293056
100
AcDbArc
 50
305.085848
 51
54.914152
  0
LINE
  5
A2F
100
AcDbEntity
  8
MSL5_300_3F-0
100
AcDbLine
 10
898.782286
 20
-120.616782
 30
0.0
 11
898.782286
 21
-131.875113
 31
0.0
  0
ARC
  5
A30
100
AcDbEntity
  8
MSL5_300_3F-0
100
AcDbCircle
 10
906.492008
 20
-126.245947
 30
0.0
 40
7.709722
100
AcDbArc
 50
150.872216
 51
209.127784
  0
ARC
  5
A31
100
AcDbEntity
  8
MSL5_300_3F-0
100
AcDbCircle
 10
901.075342
 20
-120.616782
 30
0.0
 40
2.293056
100
AcDbArc
 50
125.085847
 51
234.914153
  0
LINE
  5
A32
100
AcDbEntity
  8
MSL5_300_3F-0
100
AcDbLine
 10
899.757286
 20
-118.740394
 30
0.0
 11
901.807286
 21
-118.740394
 31
0.0
  0
LINE
  5
A33
100
AcDbEntity
  8
MSL5_300_3F-0
100
AcDbLine
 10
899.757286
 20
-129.998724
 30
0.0
 11
901.807286
 21
-129.998724
 31
0.0
  0
LINE
  5
A34
100
AcDbEntity
  8
MSL5_300_3F-0
100
AcDbLine
 10
899.757286
 20
-122.493171
 30
0.0
 11
901.807286
 21
-122.493171
 31
0.0
  0
LINE
  5
A35
100
AcDbEntity
  8
MSL5_300_3F-7
100
AcDbLine
 10
910.782286
 20
-138.245876
 30
0.0
 11
910.782286
 21
-122.245876
 31
0.0
  0
CIRCLE
  5
A36
100
AcDbEntity
  8
MSL5_300_3F-3
100
AcDbCircle
 10
910.782286
 20
-130.245876
 30
0.0
 40
4.188
  0
ARC
  5
A37
100
AcDbEntity
  8
MSL5_300_3F-3
100
AcDbCircle
 10
910.782286
 20
-130.245876
 30
0.0
 40
5.0
100
AcDbArc
 50
280.0
 51
210.0
  0
LINE
  5
A38
100
AcDbEntity
  8
MSL5_300_3F-3
100
AcDbLine
 10
919.782286
 20
-128.663819
 30
0.0
 11
915.594286
 21
-126.245876
 31
0.0
  0
LINE
  5
A39
100
AcDbEntity
  8
MSL5_300_3F-0
100
AcDbLine
 10
902.782286
 20
119.0
 30
0.0
 11
902.782286
 21
-39.0
 31
0.0
  0
LINE
  5
A3A
100
AcDbEntity
  8
MSL5_300_3F-0
100
AcDbLine
 10
927.782286
 20
119.0
 30
0.0
 11
927.782286
 21
-39.0
 31
0.0
  0
LINE
  5
A3B
100
AcDbEntity
  8
MSL5_300_3F-0
100
AcDbLine
 10
902.782286
 20
-103.245947
 30
0.0
 11
927.782286
 21
-103.245947
 31
0.0
  0
LINE
  5
A3C
100
AcDbEntity
  8
MSL5_300_3F-7
100
AcDbLine
 10
911.782286
 20
-30.0
 30
0.0
 11
927.782286
 21
-30.0
 31
0.0
  0
LINE
  5
A3D
100
AcDbEntity
  8
MSL5_300_3F-0
100
AcDbLine
 10
927.782286
 20
-39.0
 30
0.0
 11
902.782286
 21
-39.0
 31
0.0
  0
ARC
  5
A3E
100
AcDbEntity
  8
MSL5_300_3F-4
100
AcDbCircle
 10
919.782286
 20
-30.0
 30
0.0
 40
5.0
100
AcDbArc
 50
280.0
 51
210.0
  0
CIRCLE
  5
A3F
100
AcDbEntity
  8
MSL5_300_3F-0
100
AcDbCircle
 10
919.782286
 20
-30.0
 30
0.0
 40
4.188
  0
LINE
  5
A40
100
AcDbEntity
  8
MSL5_300_3F-7
100
AcDbLine
 10
929.782286
 20
-30.0
 30
0.0
 11
900.782286
 21
-30.0
 31
0.0
  0
LINE
  5
A41
100
AcDbEntity
  8
MSL5_300_3F-3
100
AcDbLine
 10
906.594286
 20
-39.0
 30
0.0
 11
906.594286
 21
-16.0
 31
0.0
  0
LINE
  5
A42
100
AcDbEntity
  8
MSL5_300_3F-3
100
AcDbLine
 10
906.594286
 20
-39.0
 30
0.0
 11
906.594286
 21
-16.0
 31
0.0
  0
LINE
  5
A43
100
AcDbEntity
  8
MSL5_300_3F-3
100
AcDbLine
 10
905.782286
 20
-39.0
 30
0.0
 11
905.782286
 21
-22.0
 31
0.0
  0
LINE
  5
A44
100
AcDbEntity
  8
MSL5_300_3F-3
100
AcDbLine
 10
905.782286
 20
-39.0
 30
0.0
 11
905.782286
 21
-22.0
 31
0.0
  0
LINE
  5
A45
100
AcDbEntity
  8
MSL5_300_3F-7
100
AcDbLine
 10
910.782286
 20
-10.582057
 30
0.0
 11
910.782286
 21
-42.0
 31
0.0
  0
LINE
  5
A46
100
AcDbEntity
  8
MSL5_300_3F-7
100
AcDbLine
 10
910.782286
 20
-10.582057
 30
0.0
 11
910.782286
 21
-42.0
 31
0.0
  0
LINE
  5
A47
100
AcDbEntity
  8
MSL5_300_3F-7
100
AcDbLine
 10
919.782286
 20
-38.0
 30
0.0
 11
919.782286
 21
-22.0
 31
0.0
  0
LINE
  5
A48
100
AcDbEntity
  8
MSL5_300_3F-3
100
AcDbLine
 10
914.970286
 20
-39.0
 30
0.0
 11
914.970286
 21
-16.0
 31
0.0
  0
LINE
  5
A49
100
AcDbEntity
  8
MSL5_300_3F-3
100
AcDbLine
 10
914.970286
 20
-39.0
 30
0.0
 11
914.970286
 21
-16.0
 31
0.0
  0
LINE
  5
A4A
100
AcDbEntity
  8
MSL5_300_3F-3
100
AcDbLine
 10
915.782286
 20
-39.0
 30
0.0
 11
915.782286
 21
-22.0
 31
0.0
  0
LINE
  5
A4B
100
AcDbEntity
  8
MSL5_300_3F-3
100
AcDbLine
 10
915.782286
 20
-39.0
 30
0.0
 11
915.782286
 21
-22.0
 31
0.0
  0
LINE
  5
A4C
100
AcDbEntity
  8
MSL5_300_3F-3
100
AcDbLine
 10
910.782286
 20
-13.582057
 30
0.0
 11
914.970286
 21
-16.0
 31
0.0
  0
LINE
  5
A4D
100
AcDbEntity
  8
MSL5_300_3F-3
100
AcDbLine
 10
910.782286
 20
-13.582057
 30
0.0
 11
914.970286
 21
-16.0
 31
0.0
  0
LINE
  5
A4E
100
AcDbEntity
  8
MSL5_300_3F-3
100
AcDbLine
 10
910.782286
 20
-13.582057
 30
0.0
 11
906.594286
 21
-16.0
 31
0.0
  0
LINE
  5
A4F
100
AcDbEntity
  8
MSL5_300_3F-3
100
AcDbLine
 10
910.782286
 20
-13.582057
 30
0.0
 11
906.594286
 21
-16.0
 31
0.0
  0
LINE
  5
A50
100
AcDbEntity
  8
MSL5_300_3F-3
100
AcDbLine
 10
905.782286
 20
-22.0
 30
0.0
 11
915.782286
 21
-22.0
 31
0.0
  0
LINE
  5
A51
100
AcDbEntity
  8
MSL5_300_3F-3
100
AcDbLine
 10
905.782286
 20
-22.0
 30
0.0
 11
915.782286
 21
-22.0
 31
0.0
  0
LINE
  5
A52
100
AcDbEntity
  8
MSL5_300_3F-3
100
AcDbLine
 10
906.594286
 20
-16.0
 30
0.0
 11
914.970286
 21
-16.0
 31
0.0
  0
LINE
  5
A53
100
AcDbEntity
  8
MSL5_300_3F-3
100
AcDbLine
 10
906.594286
 20
-16.0
 30
0.0
 11
914.970286
 21
-16.0
 31
0.0
  0
LINE
  5
A54
100
AcDbEntity
  8
MSL5_300_3F-0
100
AcDbLine
 10
883.599786
 20
59.505554
 30
0.0
 11
886.782286
 21
59.505554
 31
0.0
  0
LINE
  5
A55
100
AcDbEntity
  8
MSL5_300_3F-0
100
AcDbLine
 10
883.599786
 20
48.247224
 30
0.0
 11
886.782286
 21
48.247224
 31
0.0
  0
LINE
  5
A56
100
AcDbEntity
  8
MSL5_300_3F-0
100
AcDbLine
 10
883.599786
 20
55.752777
 30
0.0
 11
886.782286
 21
55.752777
 31
0.0
  0
LINE
  5
A57
100
AcDbEntity
  8
MSL5_300_3F-0
100
AcDbLine
 10
886.782286
 20
44.494447
 30
0.0
 11
883.599786
 21
44.494447
 31
0.0
  0
LINE
  5
A58
100
AcDbEntity
  8
MSL5_300_3F-7
100
AcDbLine
 10
880.383064
 20
52.0
 30
0.0
 11
928.901033
 21
52.0
 31
0.0
  0
ARC
  5
A59
100
AcDbEntity
  8
MSL5_300_3F-0
100
AcDbCircle
 10
885.344451
 20
46.370835
 30
0.0
 40
2.562165
100
AcDbArc
 50
132.916662
 51
227.083338
  0
ARC
  5
A5A
100
AcDbEntity
  8
MSL5_300_3F-0
100
AcDbCircle
 10
891.804696
 20
52.0
 30
0.0
 40
9.02241
100
AcDbArc
 50
155.421502
 51
204.578498
  0
LINE
  5
A5B
100
AcDbEntity
  8
MSL5_300_3F-0
100
AcDbLine
 10
882.782286
 20
57.629166
 30
0.0
 11
882.782286
 21
46.370835
 31
0.0
  0
ARC
  5
A5C
100
AcDbEntity
  8
MSL5_300_3F-0
100
AcDbCircle
 10
885.344451
 20
57.629166
 30
0.0
 40
2.562165
100
AcDbArc
 50
132.916662
 51
227.083338
  0
LINE
  5
A5D
100
AcDbEntity
  8
MSL5_300_3F-7
100
AcDbLine
 10
911.782286
 20
30.0
 30
0.0
 11
927.782286
 21
30.0
 31
0.0
  0
CIRCLE
  5
A5E
100
AcDbEntity
  8
MSL5_300_3F-0
100
AcDbCircle
 10
919.782286
 20
30.0
 30
0.0
 40
4.188
  0
ARC
  5
A5F
100
AcDbEntity
  8
MSL5_300_3F-4
100
AcDbCircle
 10
919.782286
 20
30.0
 30
0.0
 40
5.0
100
AcDbArc
 50
280.0
 51
210.0
  0
LINE
  5
A60
100
AcDbEntity
  8
MSL5_300_3F-7
100
AcDbLine
 10
929.782286
 20
30.0
 30
0.0
 11
900.782286
 21
30.0
 31
0.0
  0
LINE
  5
A61
100
AcDbEntity
  8
MSL5_300_3F-7
100
AcDbLine
 10
919.782286
 20
22.0
 30
0.0
 11
919.782286
 21
38.0
 31
0.0
  0
ARC
  5
A62
100
AcDbEntity
  8
MSL5_300_3F-0
100
AcDbCircle
 10
900.48923
 20
46.370835
 30
0.0
 40
2.293056
100
AcDbArc
 50
305.085848
 51
54.914152
  0
ARC
  5
A63
100
AcDbEntity
  8
MSL5_300_3F-0
100
AcDbCircle
 10
901.075342
 20
46.370835
 30
0.0
 40
2.293056
100
AcDbArc
 50
125.085847
 51
234.914153
  0
LINE
  5
A64
100
AcDbEntity
  8
MSL5_300_3F-0
100
AcDbLine
 10
886.782286
 20
59.505554
 30
0.0
 11
886.782286
 21
44.494447
 31
0.0
  0
LINE
  5
A65
100
AcDbEntity
  8
MSL5_300_3F-0
100
AcDbLine
 10
899.757286
 20
44.494447
 30
0.0
 11
901.807286
 21
44.494447
 31
0.0
  0
LINE
  5
A66
100
AcDbEntity
  8
MSL5_300_3F-0
100
AcDbLine
 10
898.782286
 20
48.0
 30
0.0
 11
886.782286
 21
48.0
 31
0.0
  0
LINE
  5
A67
100
AcDbEntity
  8
MSL5_300_3F-0
100
AcDbLine
 10
886.782286
 20
56.0
 30
0.0
 11
898.782286
 21
56.0
 31
0.0
  0
ARC
  5
A68
100
AcDbEntity
  8
MSL5_300_3F-0
100
AcDbCircle
 10
895.072564
 20
52.0
 30
0.0
 40
7.709722
100
AcDbArc
 50
330.872218
 51
29.127782
  0
ARC
  5
A69
100
AcDbEntity
  8
MSL5_300_3F-0
100
AcDbCircle
 10
900.48923
 20
57.629166
 30
0.0
 40
2.293056
100
AcDbArc
 50
305.085848
 51
54.914152
  0
LINE
  5
A6A
100
AcDbEntity
  8
MSL5_300_3F-0
100
AcDbLine
 10
898.782286
 20
46.370835
 30
0.0
 11
898.782286
 21
57.629166
 31
0.0
  0
ARC
  5
A6B
100
AcDbEntity
  8
MSL5_300_3F-0
100
AcDbCircle
 10
906.492008
 20
52.0
 30
0.0
 40
7.709722
100
AcDbArc
 50
150.872216
 51
209.127784
  0
ARC
  5
A6C
100
AcDbEntity
  8
MSL5_300_3F-0
100
AcDbCircle
 10
901.075342
 20
57.629166
 30
0.0
 40
2.293056
100
AcDbArc
 50
125.085847
 51
234.914153
  0
LINE
  5
A6D
100
AcDbEntity
  8
MSL5_300_3F-0
100
AcDbLine
 10
899.757286
 20
59.505554
 30
0.0
 11
901.807286
 21
59.505554
 31
0.0
  0
LINE
  5
A6E
100
AcDbEntity
  8
MSL5_300_3F-0
100
AcDbLine
 10
899.757286
 20
48.247224
 30
0.0
 11
901.807286
 21
48.247224
 31
0.0
  0
LINE
  5
A6F
100
AcDbEntity
  8
MSL5_300_3F-0
100
AcDbLine
 10
899.757286
 20
55.752777
 30
0.0
 11
901.807286
 21
55.752777
 31
0.0
  0
LINE
  5
A70
100
AcDbEntity
  8
MSL5_300_3F-0
100
AcDbLine
 10
902.782286
 20
119.0
 30
0.0
 11
927.782286
 21
119.0
 31
0.0
  0
LINE
  5
A71
100
AcDbEntity
  8
MSL5_300_3F-0
100
AcDbLine
 10
902.782286
 20
66.6
 30
0.0
 11
927.782286
 21
66.6
 31
0.0
  0
LINE
  5
A72
100
AcDbEntity
  8
MSL5_300_3F-0
100
AcDbLine
 10
902.782286
 20
270.261134
 30
0.0
 11
598.782286
 21
270.261134
 31
0.0
  0
LINE
  5
A73
100
AcDbEntity
  8
MSL5_300_3F-0
100
AcDbLine
 10
902.782286
 20
322.261134
 30
0.0
 11
579.782286
 21
322.261134
 31
0.0
  0
LINE
  5
A74
100
AcDbEntity
  8
MSL5_300_3F-0
100
AcDbLine
 10
579.782286
 20
297.261134
 30
0.0
 11
902.782286
 21
297.261134
 31
0.0
  0
LINE
  5
A75
100
AcDbEntity
  8
MSL5_300_3F-0
100
AcDbLine
 10
902.782286
 20
245.261134
 30
0.0
 11
598.782286
 21
245.261134
 31
0.0
  0
LINE
  5
A76
100
AcDbEntity
  8
MSL5_300_3F-0
100
AcDbLine
 10
902.782286
 20
251.761134
 30
0.0
 11
598.782286
 21
251.761134
 31
0.0
  0
LINE
  5
A77
100
AcDbEntity
  8
MSL5_300_3F-0
100
AcDbLine
 10
598.782286
 20
263.761134
 30
0.0
 11
902.782286
 21
263.761134
 31
0.0
  0
LINE
  5
A78
100
AcDbEntity
  8
MSL5_300_3F-0
100
AcDbLine
 10
902.782286
 20
193.261134
 30
0.0
 11
579.782286
 21
193.261134
 31
0.0
  0
LINE
  5
A79
100
AcDbEntity
  8
MSL5_300_3F-0
100
AcDbLine
 10
579.782286
 20
218.261134
 30
0.0
 11
902.782286
 21
218.261134
 31
0.0
  0
LINE
  5
A7A
100
AcDbEntity
  8
MSL5_300_3F-7
100
AcDbLine
 10
569.34422
 20
257.761134
 30
0.0
 11
930.782286
 21
257.761134
 31
0.0
  0
LINE
  5
A7B
100
AcDbEntity
  8
MSL5_300_3F-7
100
AcDbLine
 10
910.622252
 20
205.761134
 30
0.0
 11
569.34422
 21
205.761134
 31
0.0
  0
LINE
  5
A7C
100
AcDbEntity
  8
MSL5_300_3F-7
100
AcDbLine
 10
910.622252
 20
309.761134
 30
0.0
 11
569.34422
 21
309.761134
 31
0.0
  0
LINE
  5
A7D
100
AcDbEntity
  8
MSL5_300_3F-3
100
AcDbLine
 10
507.782286
 20
308.094468
 30
0.0
 11
503.782286
 21
310.761134
 31
0.0
  0
LINE
  5
A7E
100
AcDbEntity
  8
MSL5_300_3F-3
100
AcDbLine
 10
503.782286
 20
310.761134
 30
0.0
 11
507.782286
 21
310.761134
 31
0.0
  0
LINE
  5
A7F
100
AcDbEntity
  8
MSL5_300_3F-3
100
AcDbLine
 10
512.782286
 20
315.761134
 30
0.0
 11
502.782286
 21
315.761134
 31
0.0
  0
LINE
  5
A80
100
AcDbEntity
  8
MSL5_300_3F-7
100
AcDbLine
 10
507.782286
 20
287.761134
 30
0.0
 11
500.939573
 21
287.761134
 31
0.0
  0
ARC
  5
A81
100
AcDbEntity
  8
MSL5_300_3F-4
100
AcDbCircle
 10
507.782286
 20
287.761134
 30
0.0
 40
5.0
100
AcDbArc
 50
82.606248
 51
7.300134
  0
CIRCLE
  5
A82
100
AcDbEntity
  8
MSL5_300_3F-0
100
AcDbCircle
 10
507.782286
 20
287.761134
 30
0.0
 40
4.25
  0
LINE
  5
A83
100
AcDbEntity
  8
MSL5_300_3F-7
100
AcDbLine
 10
507.782286
 20
227.761134
 30
0.0
 11
501.051496
 21
227.761134
 31
0.0
  0
ARC
  5
A84
100
AcDbEntity
  8
MSL5_300_3F-4
100
AcDbCircle
 10
507.782286
 20
227.761134
 30
0.0
 40
5.0
100
AcDbArc
 50
82.606248
 51
7.300134
  0
CIRCLE
  5
A85
100
AcDbEntity
  8
MSL5_300_3F-0
100
AcDbCircle
 10
507.782286
 20
227.761134
 30
0.0
 40
4.25
  0
LINE
  5
A86
100
AcDbEntity
  8
MSL5_300_3F-3
100
AcDbLine
 10
507.782286
 20
207.4278
 30
0.0
 11
503.782286
 21
204.761134
 31
0.0
  0
LINE
  5
A87
100
AcDbEntity
  8
MSL5_300_3F-3
100
AcDbLine
 10
503.782286
 20
204.761134
 30
0.0
 11
507.782286
 21
204.761134
 31
0.0
  0
LINE
  5
A88
100
AcDbEntity
  8
MSL5_300_3F-3
100
AcDbLine
 10
512.782286
 20
199.761134
 30
0.0
 11
502.782286
 21
199.761134
 31
0.0
  0
LINE
  5
A89
100
AcDbEntity
  8
MSL5_300_3F-7
100
AcDbLine
 10
477.782286
 20
279.037546
 30
0.0
 11
477.782286
 21
234.850015
 31
0.0
  0
LINE
  5
A8A
100
AcDbEntity
  8
MSL5_300_3F-7
100
AcDbLine
 10
357.782286
 20
279.037546
 30
0.0
 11
357.782286
 21
234.850015
 31
0.0
  0
LINE
  5
A8B
100
AcDbEntity
  8
MSL5_300_3F-7
100
AcDbLine
 10
417.782286
 20
279.037546
 30
0.0
 11
417.782286
 21
234.850015
 31
0.0
  0
LINE
  5
A8C
100
AcDbEntity
  8
MSL5_300_3F-3
100
AcDbLine
 10
392.782286
 20
199.761134
 30
0.0
 11
382.782286
 21
199.761134
 31
0.0
  0
LINE
  5
A8D
100
AcDbEntity
  8
MSL5_300_3F-3
100
AcDbLine
 10
387.782286
 20
207.4278
 30
0.0
 11
391.782286
 21
204.761134
 31
0.0
  0
LINE
  5
A8E
100
AcDbEntity
  8
MSL5_300_3F-3
100
AcDbLine
 10
391.782286
 20
204.761134
 30
0.0
 11
387.782286
 21
204.761134
 31
0.0
  0
LINE
  5
A8F
100
AcDbEntity
  8
MSL5_300_3F-7
100
AcDbLine
 10
387.782286
 20
227.761134
 30
0.0
 11
394.513076
 21
227.761134
 31
0.0
  0
ARC
  5
A90
100
AcDbEntity
  8
MSL5_300_3F-4
100
AcDbCircle
 10
387.782286
 20
227.761134
 30
0.0
 40
5.0
100
AcDbArc
 50
82.606248
 51
7.300134
  0
CIRCLE
  5
A91
100
AcDbEntity
  8
MSL5_300_3F-0
100
AcDbCircle
 10
387.782286
 20
227.761134
 30
0.0
 40
4.25
  0
LINE
  5
A92
100
AcDbEntity
  8
MSL5_300_3F-7
100
AcDbLine
 10
387.782286
 20
209.894467
 30
0.0
 11
387.782286
 21
180.294467
 31
0.0
  0
LINE
  5
A93
100
AcDbEntity
  8
MSL5_300_3F-3
100
AcDbLine
 10
352.782286
 20
182.761134
 30
0.0
 11
352.782286
 21
197.761134
 31
0.0
  0
LINE
  5
A94
100
AcDbEntity
  8
MSL5_300_3F-7
100
AcDbLine
 10
357.782286
 20
203.561134
 30
0.0
 11
357.782286
 21
180.294467
 31
0.0
  0
LINE
  5
A95
100
AcDbEntity
  8
MSL5_300_3F-3
100
AcDbLine
 10
362.782286
 20
182.761134
 30
0.0
 11
362.782286
 21
197.761134
 31
0.0
  0
LINE
  5
A96
100
AcDbEntity
  8
MSL5_300_3F-3
100
AcDbLine
 10
357.782286
 20
182.761134
 30
0.0
 11
357.782286
 21
182.761134
 31
0.0
  0
LINE
  5
A97
100
AcDbEntity
  8
MSL5_300_3F-3
100
AcDbLine
 10
357.782286
 20
182.761134
 30
0.0
 11
357.782286
 21
182.761134
 31
0.0
  0
LINE
  5
A98
100
AcDbEntity
  8
MSL5_300_3F-7
100
AcDbLine
 10
357.782286
 20
180.294467
 30
0.0
 11
357.782286
 21
182.761134
 31
0.0
  0
LINE
  5
A99
100
AcDbEntity
  8
MSL5_300_3F-3
100
AcDbLine
 10
357.782286
 20
201.094467
 30
0.0
 11
362.782286
 21
197.761134
 31
0.0
  0
LINE
  5
A9A
100
AcDbEntity
  8
MSL5_300_3F-3
100
AcDbLine
 10
362.782286
 20
197.761134
 30
0.0
 11
357.782286
 21
197.761134
 31
0.0
  0
LINE
  5
A9B
100
AcDbEntity
  8
MSL5_300_3F-3
100
AcDbLine
 10
352.782286
 20
197.761134
 30
0.0
 11
357.782286
 21
197.761134
 31
0.0
  0
LINE
  5
A9C
100
AcDbEntity
  8
MSL5_300_3F-3
100
AcDbLine
 10
357.782286
 20
201.094467
 30
0.0
 11
352.782286
 21
197.761134
 31
0.0
  0
LINE
  5
A9D
100
AcDbEntity
  8
MSL5_300_3F-3
100
AcDbLine
 10
383.782286
 20
182.761134
 30
0.0
 11
383.782286
 21
204.761134
 31
0.0
  0
LINE
  5
A9E
100
AcDbEntity
  8
MSL5_300_3F-3
100
AcDbLine
 10
382.782286
 20
199.761134
 30
0.0
 11
382.782286
 21
182.761134
 31
0.0
  0
LINE
  5
A9F
100
AcDbEntity
  8
MSL5_300_3F-3
100
AcDbLine
 10
387.782286
 20
182.761134
 30
0.0
 11
387.782286
 21
182.761134
 31
0.0
  0
LINE
  5
AA0
100
AcDbEntity
  8
MSL5_300_3F-3
100
AcDbLine
 10
387.782286
 20
182.761134
 30
0.0
 11
387.782286
 21
182.761134
 31
0.0
  0
LINE
  5
AA1
100
AcDbEntity
  8
MSL5_300_3F-7
100
AcDbLine
 10
387.782286
 20
180.294467
 30
0.0
 11
387.782286
 21
182.761134
 31
0.0
  0
LINE
  5
AA2
100
AcDbEntity
  8
MSL5_300_3F-3
100
AcDbLine
 10
387.782286
 20
207.4278
 30
0.0
 11
383.782286
 21
204.761134
 31
0.0
  0
LINE
  5
AA3
100
AcDbEntity
  8
MSL5_300_3F-3
100
AcDbLine
 10
383.782286
 20
204.761134
 30
0.0
 11
387.782286
 21
204.761134
 31
0.0
  0
LINE
  5
AA4
100
AcDbEntity
  8
MSL5_300_3F-7
100
AcDbLine
 10
357.782286
 20
227.761134
 30
0.0
 11
357.782286
 21
220.672254
 31
0.0
  0
CIRCLE
  5
AA5
100
AcDbEntity
  8
MSL5_300_3F-0
100
AcDbCircle
 10
357.782286
 20
227.761134
 30
0.0
 40
5.0
  0
LINE
  5
AA6
100
AcDbEntity
  8
MSL5_300_3F-7
100
AcDbLine
 10
357.782286
 20
227.761134
 30
0.0
 11
364.871167
 21
227.761134
 31
0.0
  0
LINE
  5
AA7
100
AcDbEntity
  8
MSL5_300_3F-7
100
AcDbLine
 10
357.782286
 20
227.761134
 30
0.0
 11
357.782286
 21
234.850015
 31
0.0
  0
LINE
  5
AA8
100
AcDbEntity
  8
MSL5_300_3F-7
100
AcDbLine
 10
387.782286
 20
227.761134
 30
0.0
 11
387.782286
 21
221.030344
 31
0.0
  0
LINE
  5
AA9
100
AcDbEntity
  8
MSL5_300_3F-7
100
AcDbLine
 10
387.782286
 20
227.761134
 30
0.0
 11
381.051496
 21
227.761134
 31
0.0
  0
LINE
  5
AAA
100
AcDbEntity
  8
MSL5_300_3F-7
100
AcDbLine
 10
387.782286
 20
227.761134
 30
0.0
 11
387.782286
 21
234.491924
 31
0.0
  0
LINE
  5
AAB
100
AcDbEntity
  8
MSL5_300_3F-3
100
AcDbLine
 10
392.782286
 20
182.761134
 30
0.0
 11
392.782286
 21
199.761134
 31
0.0
  0
LINE
  5
AAC
100
AcDbEntity
  8
MSL5_300_3F-3
100
AcDbLine
 10
391.782286
 20
182.761134
 30
0.0
 11
391.782286
 21
204.761134
 31
0.0
  0
LINE
  5
AAD
100
AcDbEntity
  8
MSL5_300_3F-3
100
AcDbLine
 10
422.782286
 20
182.761134
 30
0.0
 11
422.782286
 21
197.761134
 31
0.0
  0
LINE
  5
AAE
100
AcDbEntity
  8
MSL5_300_3F-7
100
AcDbLine
 10
417.782286
 20
203.561134
 30
0.0
 11
417.782286
 21
180.294467
 31
0.0
  0
LINE
  5
AAF
100
AcDbEntity
  8
MSL5_300_3F-3
100
AcDbLine
 10
412.782286
 20
182.761134
 30
0.0
 11
412.782286
 21
197.761134
 31
0.0
  0
LINE
  5
AB0
100
AcDbEntity
  8
MSL5_300_3F-7
100
AcDbLine
 10
417.782286
 20
180.294467
 30
0.0
 11
417.782286
 21
182.761134
 31
0.0
  0
LINE
  5
AB1
100
AcDbEntity
  8
MSL5_300_3F-3
100
AcDbLine
 10
417.782286
 20
182.761134
 30
0.0
 11
417.782286
 21
182.761134
 31
0.0
  0
LINE
  5
AB2
100
AcDbEntity
  8
MSL5_300_3F-3
100
AcDbLine
 10
417.782286
 20
182.761134
 30
0.0
 11
417.782286
 21
182.761134
 31
0.0
  0
LINE
  5
AB3
100
AcDbEntity
  8
MSL5_300_3F-3
100
AcDbLine
 10
422.782286
 20
197.761134
 30
0.0
 11
417.782286
 21
197.761134
 31
0.0
  0
LINE
  5
AB4
100
AcDbEntity
  8
MSL5_300_3F-3
100
AcDbLine
 10
417.782286
 20
201.094467
 30
0.0
 11
422.782286
 21
197.761134
 31
0.0
  0
LINE
  5
AB5
100
AcDbEntity
  8
MSL5_300_3F-3
100
AcDbLine
 10
417.782286
 20
201.094467
 30
0.0
 11
412.782286
 21
197.761134
 31
0.0
  0
LINE
  5
AB6
100
AcDbEntity
  8
MSL5_300_3F-3
100
AcDbLine
 10
412.782286
 20
197.761134
 30
0.0
 11
417.782286
 21
197.761134
 31
0.0
  0
LINE
  5
AB7
100
AcDbEntity
  8
MSL5_300_3F-7
100
AcDbLine
 10
417.782286
 20
227.761134
 30
0.0
 11
417.782286
 21
220.672254
 31
0.0
  0
CIRCLE
  5
AB8
100
AcDbEntity
  8
MSL5_300_3F-0
100
AcDbCircle
 10
417.782286
 20
227.761134
 30
0.0
 40
5.0
  0
LINE
  5
AB9
100
AcDbEntity
  8
MSL5_300_3F-7
100
AcDbLine
 10
417.782286
 20
227.761134
 30
0.0
 11
424.871167
 21
227.761134
 31
0.0
  0
LINE
  5
ABA
100
AcDbEntity
  8
MSL5_300_3F-7
100
AcDbLine
 10
417.782286
 20
227.761134
 30
0.0
 11
410.693405
 21
227.761134
 31
0.0
  0
LINE
  5
ABB
100
AcDbEntity
  8
MSL5_300_3F-7
100
AcDbLine
 10
417.782286
 20
227.761134
 30
0.0
 11
417.782286
 21
234.850015
 31
0.0
  0
LINE
  5
ABC
100
AcDbEntity
  8
MSL5_300_3F-7
100
AcDbLine
 10
447.782286
 20
209.894467
 30
0.0
 11
447.782286
 21
180.294467
 31
0.0
  0
LINE
  5
ABD
100
AcDbEntity
  8
MSL5_300_3F-3
100
AcDbLine
 10
452.782286
 20
199.761134
 30
0.0
 11
442.782286
 21
199.761134
 31
0.0
  0
LINE
  5
ABE
100
AcDbEntity
  8
MSL5_300_3F-3
100
AcDbLine
 10
451.782286
 20
204.761134
 30
0.0
 11
447.782286
 21
204.761134
 31
0.0
  0
LINE
  5
ABF
100
AcDbEntity
  8
MSL5_300_3F-3
100
AcDbLine
 10
447.782286
 20
207.4278
 30
0.0
 11
451.782286
 21
204.761134
 31
0.0
  0
LINE
  5
AC0
100
AcDbEntity
  8
MSL5_300_3F-3
100
AcDbLine
 10
442.782286
 20
199.761134
 30
0.0
 11
442.782286
 21
182.761134
 31
0.0
  0
LINE
  5
AC1
100
AcDbEntity
  8
MSL5_300_3F-3
100
AcDbLine
 10
443.782286
 20
182.761134
 30
0.0
 11
443.782286
 21
204.761134
 31
0.0
  0
LINE
  5
AC2
100
AcDbEntity
  8
MSL5_300_3F-7
100
AcDbLine
 10
447.782286
 20
180.294467
 30
0.0
 11
447.782286
 21
182.761134
 31
0.0
  0
LINE
  5
AC3
100
AcDbEntity
  8
MSL5_300_3F-3
100
AcDbLine
 10
447.782286
 20
182.761134
 30
0.0
 11
447.782286
 21
182.761134
 31
0.0
  0
LINE
  5
AC4
100
AcDbEntity
  8
MSL5_300_3F-3
100
AcDbLine
 10
447.782286
 20
182.761134
 30
0.0
 11
447.782286
 21
182.761134
 31
0.0
  0
LINE
  5
AC5
100
AcDbEntity
  8
MSL5_300_3F-3
100
AcDbLine
 10
443.782286
 20
204.761134
 30
0.0
 11
447.782286
 21
204.761134
 31
0.0
  0
LINE
  5
AC6
100
AcDbEntity
  8
MSL5_300_3F-3
100
AcDbLine
 10
447.782286
 20
207.4278
 30
0.0
 11
443.782286
 21
204.761134
 31
0.0
  0
LINE
  5
AC7
100
AcDbEntity
  8
MSL5_300_3F-3
100
AcDbLine
 10
451.782286
 20
182.761134
 30
0.0
 11
451.782286
 21
204.761134
 31
0.0
  0
LINE
  5
AC8
100
AcDbEntity
  8
MSL5_300_3F-3
100
AcDbLine
 10
452.782286
 20
182.761134
 30
0.0
 11
452.782286
 21
199.761134
 31
0.0
  0
CIRCLE
  5
AC9
100
AcDbEntity
  8
MSL5_300_3F-0
100
AcDbCircle
 10
447.782286
 20
227.761134
 30
0.0
 40
4.25
  0
ARC
  5
ACA
100
AcDbEntity
  8
MSL5_300_3F-4
100
AcDbCircle
 10
447.782286
 20
227.761134
 30
0.0
 40
5.0
100
AcDbArc
 50
82.606248
 51
7.300134
  0
LINE
  5
ACB
100
AcDbEntity
  8
MSL5_300_3F-7
100
AcDbLine
 10
447.782286
 20
227.761134
 30
0.0
 11
454.513076
 21
227.761134
 31
0.0
  0
LINE
  5
ACC
100
AcDbEntity
  8
MSL5_300_3F-7
100
AcDbLine
 10
447.782286
 20
227.761134
 30
0.0
 11
447.782286
 21
221.030344
 31
0.0
  0
LINE
  5
ACD
100
AcDbEntity
  8
MSL5_300_3F-7
100
AcDbLine
 10
447.782286
 20
227.761134
 30
0.0
 11
441.051496
 21
227.761134
 31
0.0
  0
LINE
  5
ACE
100
AcDbEntity
  8
MSL5_300_3F-7
100
AcDbLine
 10
447.782286
 20
227.761134
 30
0.0
 11
447.782286
 21
234.491924
 31
0.0
  0
LINE
  5
ACF
100
AcDbEntity
  8
MSL5_300_3F-3
100
AcDbLine
 10
472.782286
 20
182.761134
 30
0.0
 11
472.782286
 21
197.761134
 31
0.0
  0
LINE
  5
AD0
100
AcDbEntity
  8
MSL5_300_3F-7
100
AcDbLine
 10
477.782286
 20
203.561134
 30
0.0
 11
477.782286
 21
180.294467
 31
0.0
  0
LINE
  5
AD1
100
AcDbEntity
  8
MSL5_300_3F-3
100
AcDbLine
 10
482.782286
 20
182.761134
 30
0.0
 11
482.782286
 21
197.761134
 31
0.0
  0
LINE
  5
AD2
100
AcDbEntity
  8
MSL5_300_3F-3
100
AcDbLine
 10
477.782286
 20
182.761134
 30
0.0
 11
477.782286
 21
182.761134
 31
0.0
  0
LINE
  5
AD3
100
AcDbEntity
  8
MSL5_300_3F-3
100
AcDbLine
 10
477.782286
 20
182.761134
 30
0.0
 11
477.782286
 21
182.761134
 31
0.0
  0
LINE
  5
AD4
100
AcDbEntity
  8
MSL5_300_3F-7
100
AcDbLine
 10
477.782286
 20
180.294467
 30
0.0
 11
477.782286
 21
182.761134
 31
0.0
  0
LINE
  5
AD5
100
AcDbEntity
  8
MSL5_300_3F-3
100
AcDbLine
 10
472.782286
 20
197.761134
 30
0.0
 11
477.782286
 21
197.761134
 31
0.0
  0
LINE
  5
AD6
100
AcDbEntity
  8
MSL5_300_3F-3
100
AcDbLine
 10
477.782286
 20
201.094467
 30
0.0
 11
472.782286
 21
197.761134
 31
0.0
  0
LINE
  5
AD7
100
AcDbEntity
  8
MSL5_300_3F-3
100
AcDbLine
 10
477.782286
 20
201.094467
 30
0.0
 11
482.782286
 21
197.761134
 31
0.0
  0
LINE
  5
AD8
100
AcDbEntity
  8
MSL5_300_3F-3
100
AcDbLine
 10
482.782286
 20
197.761134
 30
0.0
 11
477.782286
 21
197.761134
 31
0.0
  0
LINE
  5
AD9
100
AcDbEntity
  8
MSL5_300_3F-3
100
AcDbLine
 10
503.782286
 20
182.761134
 30
0.0
 11
503.782286
 21
204.761134
 31
0.0
  0
LINE
  5
ADA
100
AcDbEntity
  8
MSL5_300_3F-3
100
AcDbLine
 10
502.782286
 20
199.761134
 30
0.0
 11
502.782286
 21
182.761134
 31
0.0
  0
CIRCLE
  5
ADB
100
AcDbEntity
  8
MSL5_300_3F-0
100
AcDbCircle
 10
477.782286
 20
227.761134
 30
0.0
 40
5.0
  0
LINE
  5
ADC
100
AcDbEntity
  8
MSL5_300_3F-7
100
AcDbLine
 10
477.782286
 20
227.761134
 30
0.0
 11
477.782286
 21
220.672254
 31
0.0
  0
LINE
  5
ADD
100
AcDbEntity
  8
MSL5_300_3F-7
100
AcDbLine
 10
477.782286
 20
227.761134
 30
0.0
 11
470.693405
 21
227.761134
 31
0.0
  0
LINE
  5
ADE
100
AcDbEntity
  8
MSL5_300_3F-7
100
AcDbLine
 10
477.782286
 20
227.761134
 30
0.0
 11
477.782286
 21
234.850015
 31
0.0
  0
LINE
  5
ADF
100
AcDbEntity
  8
MSL5_300_3F-7
100
AcDbLine
 10
477.782286
 20
227.761134
 30
0.0
 11
484.871167
 21
227.761134
 31
0.0
  0
LINE
  5
AE0
100
AcDbEntity
  8
MSL5_300_3F-7
100
AcDbLine
 10
387.782286
 20
287.761134
 30
0.0
 11
394.624999
 21
287.761134
 31
0.0
  0
ARC
  5
AE1
100
AcDbEntity
  8
MSL5_300_3F-4
100
AcDbCircle
 10
387.782286
 20
287.761134
 30
0.0
 40
5.0
100
AcDbArc
 50
82.606248
 51
7.300134
  0
CIRCLE
  5
AE2
100
AcDbEntity
  8
MSL5_300_3F-0
100
AcDbCircle
 10
387.782286
 20
287.761134
 30
0.0
 40
4.25
  0
LINE
  5
AE3
100
AcDbEntity
  8
MSL5_300_3F-7
100
AcDbLine
 10
357.782286
 20
287.761134
 30
0.0
 11
357.782286
 21
280.621386
 31
0.0
  0
CIRCLE
  5
AE4
100
AcDbEntity
  8
MSL5_300_3F-0
100
AcDbCircle
 10
357.782286
 20
287.761134
 30
0.0
 40
5.0
  0
LINE
  5
AE5
100
AcDbEntity
  8
MSL5_300_3F-7
100
AcDbLine
 10
357.782286
 20
287.761134
 30
0.0
 11
364.922035
 21
287.761134
 31
0.0
  0
LINE
  5
AE6
100
AcDbEntity
  8
MSL5_300_3F-7
100
AcDbLine
 10
357.782286
 20
287.761134
 30
0.0
 11
357.782286
 21
294.900883
 31
0.0
  0
LINE
  5
AE7
100
AcDbEntity
  8
MSL5_300_3F-7
100
AcDbLine
 10
387.782286
 20
287.761134
 30
0.0
 11
387.782286
 21
280.918421
 31
0.0
  0
LINE
  5
AE8
100
AcDbEntity
  8
MSL5_300_3F-7
100
AcDbLine
 10
387.782286
 20
287.761134
 30
0.0
 11
380.939573
 21
287.761134
 31
0.0
  0
LINE
  5
AE9
100
AcDbEntity
  8
MSL5_300_3F-7
100
AcDbLine
 10
387.782286
 20
287.761134
 30
0.0
 11
387.782286
 21
294.603848
 31
0.0
  0
LINE
  5
AEA
100
AcDbEntity
  8
MSL5_300_3F-7
100
AcDbLine
 10
417.782286
 20
287.761134
 30
0.0
 11
417.782286
 21
280.621386
 31
0.0
  0
CIRCLE
  5
AEB
100
AcDbEntity
  8
MSL5_300_3F-0
100
AcDbCircle
 10
417.782286
 20
287.761134
 30
0.0
 40
5.0
  0
LINE
  5
AEC
100
AcDbEntity
  8
MSL5_300_3F-7
100
AcDbLine
 10
417.782286
 20
287.761134
 30
0.0
 11
424.922035
 21
287.761134
 31
0.0
  0
LINE
  5
AED
100
AcDbEntity
  8
MSL5_300_3F-7
100
AcDbLine
 10
417.782286
 20
287.761134
 30
0.0
 11
410.642537
 21
287.761134
 31
0.0
  0
LINE
  5
AEE
100
AcDbEntity
  8
MSL5_300_3F-7
100
AcDbLine
 10
417.782286
 20
287.761134
 30
0.0
 11
417.782286
 21
294.900883
 31
0.0
  0
LINE
  5
AEF
100
AcDbEntity
  8
MSL5_300_3F-3
100
AcDbLine
 10
387.782286
 20
308.094468
 30
0.0
 11
391.782286
 21
310.761134
 31
0.0
  0
LINE
  5
AF0
100
AcDbEntity
  8
MSL5_300_3F-3
100
AcDbLine
 10
391.782286
 20
310.761134
 30
0.0
 11
387.782286
 21
310.761134
 31
0.0
  0
LINE
  5
AF1
100
AcDbEntity
  8
MSL5_300_3F-3
100
AcDbLine
 10
392.782286
 20
315.761134
 30
0.0
 11
382.782286
 21
315.761134
 31
0.0
  0
LINE
  5
AF2
100
AcDbEntity
  8
MSL5_300_3F-3
100
AcDbLine
 10
352.782286
 20
332.761134
 30
0.0
 11
352.782286
 21
317.761134
 31
0.0
  0
LINE
  5
AF3
100
AcDbEntity
  8
MSL5_300_3F-7
100
AcDbLine
 10
357.782286
 20
311.961134
 30
0.0
 11
357.782286
 21
335.227801
 31
0.0
  0
LINE
  5
AF4
100
AcDbEntity
  8
MSL5_300_3F-3
100
AcDbLine
 10
362.782286
 20
332.761134
 30
0.0
 11
362.782286
 21
317.761134
 31
0.0
  0
LINE
  5
AF5
100
AcDbEntity
  8
MSL5_300_3F-7
100
AcDbLine
 10
387.782286
 20
305.627801
 30
0.0
 11
387.782286
 21
335.227801
 31
0.0
  0
LINE
  5
AF6
100
AcDbEntity
  8
MSL5_300_3F-3
100
AcDbLine
 10
383.782286
 20
332.761134
 30
0.0
 11
383.782286
 21
310.761134
 31
0.0
  0
LINE
  5
AF7
100
AcDbEntity
  8
MSL5_300_3F-3
100
AcDbLine
 10
382.782286
 20
315.761134
 30
0.0
 11
382.782286
 21
332.761134
 31
0.0
  0
LINE
  5
AF8
100
AcDbEntity
  8
MSL5_300_3F-3
100
AcDbLine
 10
362.782286
 20
317.761134
 30
0.0
 11
357.782286
 21
317.761134
 31
0.0
  0
LINE
  5
AF9
100
AcDbEntity
  8
MSL5_300_3F-3
100
AcDbLine
 10
357.782286
 20
314.427801
 30
0.0
 11
362.782286
 21
317.761134
 31
0.0
  0
LINE
  5
AFA
100
AcDbEntity
  8
MSL5_300_3F-3
100
AcDbLine
 10
352.782286
 20
317.761134
 30
0.0
 11
357.782286
 21
317.761134
 31
0.0
  0
LINE
  5
AFB
100
AcDbEntity
  8
MSL5_300_3F-3
100
AcDbLine
 10
357.782286
 20
314.427801
 30
0.0
 11
352.782286
 21
317.761134
 31
0.0
  0
LINE
  5
AFC
100
AcDbEntity
  8
MSL5_300_3F-3
100
AcDbLine
 10
387.782286
 20
308.094468
 30
0.0
 11
383.782286
 21
310.761134
 31
0.0
  0
LINE
  5
AFD
100
AcDbEntity
  8
MSL5_300_3F-3
100
AcDbLine
 10
383.782286
 20
310.761134
 30
0.0
 11
387.782286
 21
310.761134
 31
0.0
  0
LINE
  5
AFE
100
AcDbEntity
  8
MSL5_300_3F-7
100
AcDbLine
 10
357.782286
 20
335.227801
 30
0.0
 11
357.782286
 21
332.761134
 31
0.0
  0
LINE
  5
AFF
100
AcDbEntity
  8
MSL5_300_3F-3
100
AcDbLine
 10
357.782286
 20
332.761134
 30
0.0
 11
357.782286
 21
332.761134
 31
0.0
  0
LINE
  5
B00
100
AcDbEntity
  8
MSL5_300_3F-3
100
AcDbLine
 10
357.782286
 20
332.761134
 30
0.0
 11
357.782286
 21
332.761134
 31
0.0
  0
LINE
  5
B01
100
AcDbEntity
  8
MSL5_300_3F-7
100
AcDbLine
 10
387.782286
 20
335.227801
 30
0.0
 11
387.782286
 21
332.761134
 31
0.0
  0
LINE
  5
B02
100
AcDbEntity
  8
MSL5_300_3F-3
100
AcDbLine
 10
387.782286
 20
332.761134
 30
0.0
 11
387.782286
 21
332.761134
 31
0.0
  0
LINE
  5
B03
100
AcDbEntity
  8
MSL5_300_3F-3
100
AcDbLine
 10
387.782286
 20
332.761134
 30
0.0
 11
387.782286
 21
332.761134
 31
0.0
  0
LINE
  5
B04
100
AcDbEntity
  8
MSL5_300_3F-3
100
AcDbLine
 10
392.782286
 20
332.761134
 30
0.0
 11
392.782286
 21
315.761134
 31
0.0
  0
LINE
  5
B05
100
AcDbEntity
  8
MSL5_300_3F-3
100
AcDbLine
 10
391.782286
 20
332.761134
 30
0.0
 11
391.782286
 21
310.761134
 31
0.0
  0
LINE
  5
B06
100
AcDbEntity
  8
MSL5_300_3F-3
100
AcDbLine
 10
422.782286
 20
332.761134
 30
0.0
 11
422.782286
 21
317.761134
 31
0.0
  0
LINE
  5
B07
100
AcDbEntity
  8
MSL5_300_3F-7
100
AcDbLine
 10
417.782286
 20
311.961134
 30
0.0
 11
417.782286
 21
335.227801
 31
0.0
  0
LINE
  5
B08
100
AcDbEntity
  8
MSL5_300_3F-3
100
AcDbLine
 10
412.782286
 20
332.761134
 30
0.0
 11
412.782286
 21
317.761134
 31
0.0
  0
LINE
  5
B09
100
AcDbEntity
  8
MSL5_300_3F-3
100
AcDbLine
 10
417.782286
 20
314.427801
 30
0.0
 11
422.782286
 21
317.761134
 31
0.0
  0
LINE
  5
B0A
100
AcDbEntity
  8
MSL5_300_3F-3
100
AcDbLine
 10
422.782286
 20
317.761134
 30
0.0
 11
417.782286
 21
317.761134
 31
0.0
  0
LINE
  5
B0B
100
AcDbEntity
  8
MSL5_300_3F-3
100
AcDbLine
 10
417.782286
 20
314.427801
 30
0.0
 11
412.782286
 21
317.761134
 31
0.0
  0
LINE
  5
B0C
100
AcDbEntity
  8
MSL5_300_3F-3
100
AcDbLine
 10
412.782286
 20
317.761134
 30
0.0
 11
417.782286
 21
317.761134
 31
0.0
  0
LINE
  5
B0D
100
AcDbEntity
  8
MSL5_300_3F-3
100
AcDbLine
 10
417.782286
 20
332.761134
 30
0.0
 11
417.782286
 21
332.761134
 31
0.0
  0
LINE
  5
B0E
100
AcDbEntity
  8
MSL5_300_3F-3
100
AcDbLine
 10
417.782286
 20
332.761134
 30
0.0
 11
417.782286
 21
332.761134
 31
0.0
  0
LINE
  5
B0F
100
AcDbEntity
  8
MSL5_300_3F-7
100
AcDbLine
 10
417.782286
 20
335.227801
 30
0.0
 11
417.782286
 21
332.761134
 31
0.0
  0
CIRCLE
  5
B10
100
AcDbEntity
  8
MSL5_300_3F-0
100
AcDbCircle
 10
447.782286
 20
287.761134
 30
0.0
 40
4.25
  0
ARC
  5
B11
100
AcDbEntity
  8
MSL5_300_3F-4
100
AcDbCircle
 10
447.782286
 20
287.761134
 30
0.0
 40
5.0
100
AcDbArc
 50
82.606248
 51
7.300134
  0
LINE
  5
B12
100
AcDbEntity
  8
MSL5_300_3F-7
100
AcDbLine
 10
447.782286
 20
287.761134
 30
0.0
 11
454.624999
 21
287.761134
 31
0.0
  0
LINE
  5
B13
100
AcDbEntity
  8
MSL5_300_3F-7
100
AcDbLine
 10
447.782286
 20
287.761134
 30
0.0
 11
447.782286
 21
280.918421
 31
0.0
  0
LINE
  5
B14
100
AcDbEntity
  8
MSL5_300_3F-7
100
AcDbLine
 10
447.782286
 20
287.761134
 30
0.0
 11
440.939573
 21
287.761134
 31
0.0
  0
LINE
  5
B15
100
AcDbEntity
  8
MSL5_300_3F-7
100
AcDbLine
 10
447.782286
 20
287.761134
 30
0.0
 11
447.782286
 21
294.603848
 31
0.0
  0
CIRCLE
  5
B16
100
AcDbEntity
  8
MSL5_300_3F-0
100
AcDbCircle
 10
477.782286
 20
287.761134
 30
0.0
 40
5.0
  0
LINE
  5
B17
100
AcDbEntity
  8
MSL5_300_3F-7
100
AcDbLine
 10
477.782286
 20
287.761134
 30
0.0
 11
477.782286
 21
280.621386
 31
0.0
  0
LINE
  5
B18
100
AcDbEntity
  8
MSL5_300_3F-7
100
AcDbLine
 10
477.782286
 20
287.761134
 30
0.0
 11
470.642537
 21
287.761134
 31
0.0
  0
LINE
  5
B19
100
AcDbEntity
  8
MSL5_300_3F-7
100
AcDbLine
 10
477.782286
 20
287.761134
 30
0.0
 11
477.782286
 21
294.900883
 31
0.0
  0
LINE
  5
B1A
100
AcDbEntity
  8
MSL5_300_3F-7
100
AcDbLine
 10
477.782286
 20
287.761134
 30
0.0
 11
484.922035
 21
287.761134
 31
0.0
  0
LINE
  5
B1B
100
AcDbEntity
  8
MSL5_300_3F-3
100
AcDbLine
 10
442.782286
 20
315.761134
 30
0.0
 11
442.782286
 21
332.761134
 31
0.0
  0
LINE
  5
B1C
100
AcDbEntity
  8
MSL5_300_3F-3
100
AcDbLine
 10
451.782286
 20
332.761134
 30
0.0
 11
451.782286
 21
310.761134
 31
0.0
  0
LINE
  5
B1D
100
AcDbEntity
  8
MSL5_300_3F-3
100
AcDbLine
 10
452.782286
 20
332.761134
 30
0.0
 11
452.782286
 21
315.761134
 31
0.0
  0
LINE
  5
B1E
100
AcDbEntity
  8
MSL5_300_3F-3
100
AcDbLine
 10
443.782286
 20
332.761134
 30
0.0
 11
443.782286
 21
310.761134
 31
0.0
  0
LINE
  5
B1F
100
AcDbEntity
  8
MSL5_300_3F-7
100
AcDbLine
 10
447.782286
 20
305.627801
 30
0.0
 11
447.782286
 21
335.227801
 31
0.0
  0
LINE
  5
B20
100
AcDbEntity
  8
MSL5_300_3F-3
100
AcDbLine
 10
452.782286
 20
315.761134
 30
0.0
 11
442.782286
 21
315.761134
 31
0.0
  0
LINE
  5
B21
100
AcDbEntity
  8
MSL5_300_3F-3
100
AcDbLine
 10
451.782286
 20
310.761134
 30
0.0
 11
447.782286
 21
310.761134
 31
0.0
  0
LINE
  5
B22
100
AcDbEntity
  8
MSL5_300_3F-3
100
AcDbLine
 10
447.782286
 20
308.094468
 30
0.0
 11
451.782286
 21
310.761134
 31
0.0
  0
LINE
  5
B23
100
AcDbEntity
  8
MSL5_300_3F-3
100
AcDbLine
 10
443.782286
 20
310.761134
 30
0.0
 11
447.782286
 21
310.761134
 31
0.0
  0
LINE
  5
B24
100
AcDbEntity
  8
MSL5_300_3F-3
100
AcDbLine
 10
447.782286
 20
308.094468
 30
0.0
 11
443.782286
 21
310.761134
 31
0.0
  0
LINE
  5
B25
100
AcDbEntity
  8
MSL5_300_3F-3
100
AcDbLine
 10
447.782286
 20
332.761134
 30
0.0
 11
447.782286
 21
332.761134
 31
0.0
  0
LINE
  5
B26
100
AcDbEntity
  8
MSL5_300_3F-3
100
AcDbLine
 10
447.782286
 20
332.761134
 30
0.0
 11
447.782286
 21
332.761134
 31
0.0
  0
LINE
  5
B27
100
AcDbEntity
  8
MSL5_300_3F-7
100
AcDbLine
 10
447.782286
 20
335.227801
 30
0.0
 11
447.782286
 21
332.761134
 31
0.0
  0
LINE
  5
B28
100
AcDbEntity
  8
MSL5_300_3F-3
100
AcDbLine
 10
503.782286
 20
332.761134
 30
0.0
 11
503.782286
 21
310.761134
 31
0.0
  0
LINE
  5
B29
100
AcDbEntity
  8
MSL5_300_3F-3
100
AcDbLine
 10
502.782286
 20
315.761134
 30
0.0
 11
502.782286
 21
332.761134
 31
0.0
  0
LINE
  5
B2A
100
AcDbEntity
  8
MSL5_300_3F-3
100
AcDbLine
 10
472.782286
 20
332.761134
 30
0.0
 11
472.782286
 21
317.761134
 31
0.0
  0
LINE
  5
B2B
100
AcDbEntity
  8
MSL5_300_3F-7
100
AcDbLine
 10
477.782286
 20
311.961134
 30
0.0
 11
477.782286
 21
335.227801
 31
0.0
  0
LINE
  5
B2C
100
AcDbEntity
  8
MSL5_300_3F-3
100
AcDbLine
 10
482.782286
 20
332.761134
 30
0.0
 11
482.782286
 21
317.761134
 31
0.0
  0
LINE
  5
B2D
100
AcDbEntity
  8
MSL5_300_3F-3
100
AcDbLine
 10
472.782286
 20
317.761134
 30
0.0
 11
477.782286
 21
317.761134
 31
0.0
  0
LINE
  5
B2E
100
AcDbEntity
  8
MSL5_300_3F-3
100
AcDbLine
 10
477.782286
 20
314.427801
 30
0.0
 11
472.782286
 21
317.761134
 31
0.0
  0
LINE
  5
B2F
100
AcDbEntity
  8
MSL5_300_3F-3
100
AcDbLine
 10
482.782286
 20
317.761134
 30
0.0
 11
477.782286
 21
317.761134
 31
0.0
  0
LINE
  5
B30
100
AcDbEntity
  8
MSL5_300_3F-3
100
AcDbLine
 10
477.782286
 20
314.427801
 30
0.0
 11
482.782286
 21
317.761134
 31
0.0
  0
LINE
  5
B31
100
AcDbEntity
  8
MSL5_300_3F-7
100
AcDbLine
 10
477.782286
 20
335.227801
 30
0.0
 11
477.782286
 21
332.761134
 31
0.0
  0
LINE
  5
B32
100
AcDbEntity
  8
MSL5_300_3F-3
100
AcDbLine
 10
477.782286
 20
332.761134
 30
0.0
 11
477.782286
 21
332.761134
 31
0.0
  0
LINE
  5
B33
100
AcDbEntity
  8
MSL5_300_3F-3
100
AcDbLine
 10
477.782286
 20
332.761134
 30
0.0
 11
477.782286
 21
332.761134
 31
0.0
  0
LINE
  5
B34
100
AcDbEntity
  8
MSL5_300_3F-0
100
AcDbLine
 10
579.782286
 20
182.761134
 30
0.0
 11
579.782286
 21
332.761134
 31
0.0
  0
LINE
  5
B35
100
AcDbEntity
  8
MSL5_300_3F-7
100
AcDbLine
 10
507.782286
 20
209.894467
 30
0.0
 11
507.782286
 21
180.294467
 31
0.0
  0
LINE
  5
B36
100
AcDbEntity
  8
MSL5_300_3F-3
100
AcDbLine
 10
512.782286
 20
182.761134
 30
0.0
 11
512.782286
 21
199.761134
 31
0.0
  0
LINE
  5
B37
100
AcDbEntity
  8
MSL5_300_3F-3
100
AcDbLine
 10
511.782286
 20
182.761134
 30
0.0
 11
511.782286
 21
204.761134
 31
0.0
  0
LINE
  5
B38
100
AcDbEntity
  8
MSL5_300_3F-3
100
AcDbLine
 10
507.782286
 20
182.761134
 30
0.0
 11
507.782286
 21
182.761134
 31
0.0
  0
LINE
  5
B39
100
AcDbEntity
  8
MSL5_300_3F-3
100
AcDbLine
 10
507.782286
 20
182.761134
 30
0.0
 11
507.782286
 21
182.761134
 31
0.0
  0
LINE
  5
B3A
100
AcDbEntity
  8
MSL5_300_3F-7
100
AcDbLine
 10
507.782286
 20
180.294467
 30
0.0
 11
507.782286
 21
182.761134
 31
0.0
  0
LINE
  5
B3B
100
AcDbEntity
  8
MSL5_300_3F-3
100
AcDbLine
 10
507.782286
 20
207.4278
 30
0.0
 11
511.782286
 21
204.761134
 31
0.0
  0
LINE
  5
B3C
100
AcDbEntity
  8
MSL5_300_3F-3
100
AcDbLine
 10
511.782286
 20
204.761134
 30
0.0
 11
507.782286
 21
204.761134
 31
0.0
  0
LINE
  5
B3D
100
AcDbEntity
  8
MSL5_300_3F-7
100
AcDbLine
 10
507.782286
 20
227.761134
 30
0.0
 11
507.782286
 21
221.030344
 31
0.0
  0
LINE
  5
B3E
100
AcDbEntity
  8
MSL5_300_3F-7
100
AcDbLine
 10
507.782286
 20
227.761134
 30
0.0
 11
514.513076
 21
227.761134
 31
0.0
  0
LINE
  5
B3F
100
AcDbEntity
  8
MSL5_300_3F-7
100
AcDbLine
 10
507.782286
 20
227.761134
 30
0.0
 11
507.782286
 21
234.491924
 31
0.0
  0
ARC
  5
B40
100
AcDbEntity
  8
MSL5_300_3F-0
100
AcDbCircle
 10
584.800291
 20
292.770753
 30
0.0
 40
5.060035
100
AcDbArc
 50
121.157255
 51
238.842745
  0
LINE
  5
B41
100
AcDbEntity
  8
MSL5_300_3F-3
100
AcDbLine
 10
598.782286
 20
270.261134
 30
0.0
 11
579.782286
 21
270.261134
 31
0.0
  0
LINE
  5
B42
100
AcDbEntity
  8
MSL5_300_3F-0
100
AcDbLine
 10
579.782286
 20
271.261134
 30
0.0
 11
597.782286
 21
271.261134
 31
0.0
  0
LINE
  5
B43
100
AcDbEntity
  8
MSL5_300_3F-3
100
AcDbLine
 10
598.782286
 20
245.261134
 30
0.0
 11
579.782286
 21
245.261134
 31
0.0
  0
LINE
  5
B44
100
AcDbEntity
  8
MSL5_300_3F-0
100
AcDbLine
 10
597.782286
 20
244.261134
 30
0.0
 11
579.782286
 21
244.261134
 31
0.0
  0
LINE
  5
B45
100
AcDbEntity
  8
MSL5_300_3F-7
100
AcDbLine
 10
507.782286
 20
287.761134
 30
0.0
 11
507.782286
 21
280.918421
 31
0.0
  0
LINE
  5
B46
100
AcDbEntity
  8
MSL5_300_3F-7
100
AcDbLine
 10
507.782286
 20
287.761134
 30
0.0
 11
514.624999
 21
287.761134
 31
0.0
  0
LINE
  5
B47
100
AcDbEntity
  8
MSL5_300_3F-7
100
AcDbLine
 10
507.782286
 20
287.761134
 30
0.0
 11
507.782286
 21
294.603848
 31
0.0
  0
LINE
  5
B48
100
AcDbEntity
  8
MSL5_300_3F-7
100
AcDbLine
 10
507.782286
 20
305.627801
 30
0.0
 11
507.782286
 21
335.227801
 31
0.0
  0
LINE
  5
B49
100
AcDbEntity
  8
MSL5_300_3F-3
100
AcDbLine
 10
512.782286
 20
332.761134
 30
0.0
 11
512.782286
 21
315.761134
 31
0.0
  0
LINE
  5
B4A
100
AcDbEntity
  8
MSL5_300_3F-3
100
AcDbLine
 10
511.782286
 20
332.761134
 30
0.0
 11
511.782286
 21
310.761134
 31
0.0
  0
LINE
  5
B4B
100
AcDbEntity
  8
MSL5_300_3F-3
100
AcDbLine
 10
507.782286
 20
308.094468
 30
0.0
 11
511.782286
 21
310.761134
 31
0.0
  0
LINE
  5
B4C
100
AcDbEntity
  8
MSL5_300_3F-3
100
AcDbLine
 10
511.782286
 20
310.761134
 30
0.0
 11
507.782286
 21
310.761134
 31
0.0
  0
LINE
  5
B4D
100
AcDbEntity
  8
MSL5_300_3F-7
100
AcDbLine
 10
507.782286
 20
335.227801
 30
0.0
 11
507.782286
 21
332.761134
 31
0.0
  0
LINE
  5
B4E
100
AcDbEntity
  8
MSL5_300_3F-3
100
AcDbLine
 10
507.782286
 20
332.761134
 30
0.0
 11
507.782286
 21
332.761134
 31
0.0
  0
LINE
  5
B4F
100
AcDbEntity
  8
MSL5_300_3F-3
100
AcDbLine
 10
507.782286
 20
332.761134
 30
0.0
 11
507.782286
 21
332.761134
 31
0.0
  0
LINE
  5
B50
100
AcDbEntity
  8
MSL5_300_3F-0
100
AcDbLine
 10
625.582286
 20
294.153063
 30
0.0
 11
613.082286
 21
294.153063
 31
0.0
  0
LINE
  5
B51
100
AcDbEntity
  8
MSL5_300_3F-0
100
AcDbLine
 10
598.782286
 20
270.261134
 30
0.0
 11
598.782286
 21
245.261134
 31
0.0
  0
LINE
  5
B52
100
AcDbEntity
  8
MSL5_300_3F-0
100
AcDbLine
 10
597.782286
 20
271.261134
 30
0.0
 11
597.782286
 21
244.261134
 31
0.0
  0
LINE
  5
B53
100
AcDbEntity
  8
MSL5_300_3F-0
100
AcDbLine
 10
598.782286
 20
245.261134
 30
0.0
 11
597.782286
 21
244.261134
 31
0.0
  0
LINE
  5
B54
100
AcDbEntity
  8
MSL5_300_3F-0
100
AcDbLine
 10
597.782286
 20
271.261134
 30
0.0
 11
598.782286
 21
270.261134
 31
0.0
  0
LINE
  5
B55
100
AcDbEntity
  8
MSL5_300_3F-0
100
AcDbLine
 10
588.282286
 20
294.153063
 30
0.0
 11
587.716568
 21
293.587345
 31
0.0
  0
ARC
  5
B56
100
AcDbEntity
  8
MSL5_300_3F-0
100
AcDbCircle
 10
582.676036
 20
292.770753
 30
0.0
 40
5.10625
100
AcDbArc
 50
302.004628
 51
57.995372
  0
LINE
  5
B57
100
AcDbEntity
  8
MSL5_300_3F-0
100
AcDbLine
 10
587.782286
 20
292.770753
 30
0.0
 11
587.782286
 21
297.261134
 31
0.0
  0
LINE
  5
B58
100
AcDbEntity
  8
MSL5_300_3F-0
100
AcDbLine
 10
588.282286
 20
297.261134
 30
0.0
 11
588.282286
 21
294.153063
 31
0.0
  0
LINE
  5
B59
100
AcDbEntity
  8
MSL5_300_3F-0
100
AcDbLine
 10
582.182286
 20
297.10088
 30
0.0
 11
585.382286
 21
297.10088
 31
0.0
  0
LINE
  5
B5A
100
AcDbEntity
  8
MSL5_300_3F-0
100
AcDbLine
 10
585.382286
 20
288.440626
 30
0.0
 11
582.182286
 21
288.440626
 31
0.0
  0
LINE
  5
B5B
100
AcDbEntity
  8
MSL5_300_3F-0
100
AcDbLine
 10
613.082286
 20
294.153063
 30
0.0
 11
613.082286
 21
297.261134
 31
0.0
  0
LINE
  5
B5C
100
AcDbEntity
  8
MSL5_300_3F-0
100
AcDbLine
 10
626.582286
 20
295.153063
 30
0.0
 11
625.582286
 21
294.153063
 31
0.0
  0
LINE
  5
B5D
100
AcDbEntity
  8
MSL5_300_3F-0
100
AcDbLine
 10
626.582286
 20
297.261134
 30
0.0
 11
626.582286
 21
295.153063
 31
0.0
  0
LINE
  5
B5E
100
AcDbEntity
  8
MSL5_300_3F-0
100
AcDbLine
 10
625.582286
 20
297.261134
 30
0.0
 11
625.582286
 21
294.153063
 31
0.0
  0
ARC
  5
B5F
100
AcDbEntity
  8
MSL5_300_3F-0
100
AcDbCircle
 10
582.676036
 20
318.751515
 30
0.0
 40
5.10625
100
AcDbArc
 50
43.4182
 51
57.995372
  0
ARC
  5
B60
100
AcDbEntity
  8
MSL5_300_3F-0
100
AcDbCircle
 10
584.888536
 20
318.751515
 30
0.0
 40
5.10625
100
AcDbArc
 50
122.004627
 51
136.581799
  0
LINE
  5
B61
100
AcDbEntity
  8
MSL5_300_3F-0
100
AcDbLine
 10
582.182286
 20
323.081642
 30
0.0
 11
585.382286
 21
323.081642
 31
0.0
  0
LINE
  5
B62
100
AcDbEntity
  8
MSL5_300_3F-0
100
AcDbLine
 10
902.782286
 20
182.761134
 30
0.0
 11
902.782286
 21
332.761134
 31
0.0
  0
LINE
  5
B63
100
AcDbEntity
  8
MSL5_300_3F-0
100
AcDbLine
 10
927.782286
 20
332.761134
 30
0.0
 11
927.782286
 21
182.761134
 31
0.0
  0
LINE
  5
B64
100
AcDbEntity
  8
MSL5_300_3F-3
100
AcDbLine
 10
909.782286
 20
222.261134
 30
0.0
 11
927.782286
 21
222.261134
 31
0.0
  0
LINE
  5
B65
100
AcDbEntity
  8
MSL5_300_3F-3
100
AcDbLine
 10
909.782286
 20
233.261134
 30
0.0
 11
927.782286
 21
233.261134
 31
0.0
  0
LINE
  5
B66
100
AcDbEntity
  8
MSL5_300_3F-3
100
AcDbLine
 10
923.970286
 20
205.761134
 30
0.0
 11
915.594286
 21
205.761134
 31
0.0
  0
LINE
  5
B67
100
AcDbEntity
  8
MSL5_300_3F-3
100
AcDbLine
 10
914.782286
 20
199.761134
 30
0.0
 11
924.782286
 21
199.761134
 31
0.0
  0
LINE
  5
B68
100
AcDbEntity
  8
MSL5_300_3F-3
100
AcDbLine
 10
919.782286
 20
208.179077
 30
0.0
 11
923.970286
 21
205.761134
 31
0.0
  0
LINE
  5
B69
100
AcDbEntity
  8
MSL5_300_3F-0
100
AcDbLine
 10
927.782286
 20
182.761134
 30
0.0
 11
902.782286
 21
182.761134
 31
0.0
  0
LINE
  5
B6A
100
AcDbEntity
  8
MSL5_300_3F-7
100
AcDbLine
 10
929.782286
 20
227.761134
 30
0.0
 11
900.782286
 21
227.761134
 31
0.0
  0
CIRCLE
  5
B6B
100
AcDbEntity
  8
MSL5_300_3F-0
100
AcDbCircle
 10
910.782286
 20
209.761134
 30
0.0
 40
4.188
  0
ARC
  5
B6C
100
AcDbEntity
  8
MSL5_300_3F-4
100
AcDbCircle
 10
910.782286
 20
209.761134
 30
0.0
 40
5.0
100
AcDbArc
 50
280.0
 51
210.0
  0
LINE
  5
B6D
100
AcDbEntity
  8
MSL5_300_3F-7
100
AcDbLine
 10
910.782286
 20
201.761134
 30
0.0
 11
910.782286
 21
217.761134
 31
0.0
  0
LINE
  5
B6E
100
AcDbEntity
  8
MSL5_300_3F-7
100
AcDbLine
 10
919.782286
 20
211.179077
 30
0.0
 11
919.782286
 21
179.761134
 31
0.0
  0
LINE
  5
B6F
100
AcDbEntity
  8
MSL5_300_3F-3
100
AcDbLine
 10
914.782286
 20
182.761134
 30
0.0
 11
914.782286
 21
199.761134
 31
0.0
  0
LINE
  5
B70
100
AcDbEntity
  8
MSL5_300_3F-3
100
AcDbLine
 10
915.594286
 20
182.761134
 30
0.0
 11
915.594286
 21
205.761134
 31
0.0
  0
LINE
  5
B71
100
AcDbEntity
  8
MSL5_300_3F-3
100
AcDbLine
 10
919.782286
 20
208.179077
 30
0.0
 11
915.594286
 21
205.761134
 31
0.0
  0
LINE
  5
B72
100
AcDbEntity
  8
MSL5_300_3F-3
100
AcDbLine
 10
902.782286
 20
236.761134
 30
0.0
 11
909.782286
 21
236.761134
 31
0.0
  0
LINE
  5
B73
100
AcDbEntity
  8
MSL5_300_3F-3
100
AcDbLine
 10
909.782286
 20
218.761134
 30
0.0
 11
902.782286
 21
218.761134
 31
0.0
  0
LINE
  5
B74
100
AcDbEntity
  8
MSL5_300_3F-7
100
AcDbLine
 10
902.782286
 20
209.761134
 30
0.0
 11
918.782286
 21
209.761134
 31
0.0
  0
LINE
  5
B75
100
AcDbEntity
  8
MSL5_300_3F-3
100
AcDbLine
 10
909.782286
 20
236.761134
 30
0.0
 11
909.782286
 21
218.761134
 31
0.0
  0
LINE
  5
B76
100
AcDbEntity
  8
MSL5_300_3F-3
100
AcDbLine
 10
924.782286
 20
182.761134
 30
0.0
 11
924.782286
 21
199.761134
 31
0.0
  0
LINE
  5
B77
100
AcDbEntity
  8
MSL5_300_3F-3
100
AcDbLine
 10
923.970286
 20
182.761134
 30
0.0
 11
923.970286
 21
205.761134
 31
0.0
  0
LINE
  5
B78
100
AcDbEntity
  8
MSL5_300_3F-7
100
AcDbLine
 10
910.782286
 20
297.761134
 30
0.0
 11
910.782286
 21
313.761134
 31
0.0
  0
LINE
  5
B79
100
AcDbEntity
  8
MSL5_300_3F-3
100
AcDbLine
 10
902.782286
 20
282.761134
 30
0.0
 11
927.782286
 21
282.761134
 31
0.0
  0
LINE
  5
B7A
100
AcDbEntity
  8
MSL5_300_3F-3
100
AcDbLine
 10
902.782286
 20
292.761134
 30
0.0
 11
927.782286
 21
292.761134
 31
0.0
  0
LINE
  5
B7B
100
AcDbEntity
  8
MSL5_300_3F-7
100
AcDbLine
 10
929.782286
 20
287.761134
 30
0.0
 11
900.782286
 21
287.761134
 31
0.0
  0
LINE
  5
B7C
100
AcDbEntity
  8
MSL5_300_3F-0
100
AcDbLine
 10
902.782286
 20
332.761134
 30
0.0
 11
927.782286
 21
332.761134
 31
0.0
  0
LINE
  5
B7D
100
AcDbEntity
  8
MSL5_300_3F-3
100
AcDbLine
 10
914.782286
 20
315.761134
 30
0.0
 11
924.782286
 21
315.761134
 31
0.0
  0
LINE
  5
B7E
100
AcDbEntity
  8
MSL5_300_3F-3
100
AcDbLine
 10
923.970286
 20
309.761134
 30
0.0
 11
915.594286
 21
309.761134
 31
0.0
  0
LINE
  5
B7F
100
AcDbEntity
  8
MSL5_300_3F-3
100
AcDbLine
 10
919.782286
 20
307.343192
 30
0.0
 11
923.970286
 21
309.761134
 31
0.0
  0
LINE
  5
B80
100
AcDbEntity
  8
MSL5_300_3F-3
100
AcDbLine
 10
915.594286
 20
332.761134
 30
0.0
 11
915.594286
 21
309.761134
 31
0.0
  0
LINE
  5
B81
100
AcDbEntity
  8
MSL5_300_3F-3
100
AcDbLine
 10
914.782286
 20
332.761134
 30
0.0
 11
914.782286
 21
315.761134
 31
0.0
  0
LINE
  5
B82
100
AcDbEntity
  8
MSL5_300_3F-7
100
AcDbLine
 10
919.782286
 20
304.343192
 30
0.0
 11
919.782286
 21
335.761134
 31
0.0
  0
LINE
  5
B83
100
AcDbEntity
  8
MSL5_300_3F-7
100
AcDbLine
 10
902.782286
 20
305.761134
 30
0.0
 11
918.782286
 21
305.761134
 31
0.0
  0
ARC
  5
B84
100
AcDbEntity
  8
MSL5_300_3F-4
100
AcDbCircle
 10
910.782286
 20
305.761134
 30
0.0
 40
5.0
100
AcDbArc
 50
280.0
 51
210.0
  0
CIRCLE
  5
B85
100
AcDbEntity
  8
MSL5_300_3F-0
100
AcDbCircle
 10
910.782286
 20
305.761134
 30
0.0
 40
4.188
  0
LINE
  5
B86
100
AcDbEntity
  8
MSL5_300_3F-3
100
AcDbLine
 10
919.782286
 20
307.343192
 30
0.0
 11
915.594286
 21
309.761134
 31
0.0
  0
LINE
  5
B87
100
AcDbEntity
  8
MSL5_300_3F-3
100
AcDbLine
 10
923.970286
 20
332.761134
 30
0.0
 11
923.970286
 21
309.761134
 31
0.0
  0
LINE
  5
B88
100
AcDbEntity
  8
MSL5_300_3F-3
100
AcDbLine
 10
924.782286
 20
332.761134
 30
0.0
 11
924.782286
 21
315.761134
 31
0.0
  0
POINT
  5
B89
100
AcDbEntity
  8
0
 60
     1
100
AcDbPoint
 10
0.0
 20
48.566245
 30
0.0
1001
GENIUS_GENBH_13
1002
{
1000
FGO
1005
0
1002
}
1001
GENIUS_GENODEF_13
1002
{
1000
HIER
1070
     1
1002
}
1002
{
1000
MANEDIT
1070
     0
1002
}
1002
{
1000
NOSEL
1070
     1
1002
}
1002
{
1000
BEHIND
1070
     0
1002
}
1002
{
1000
REACTOR
1002
}
1001
GENIUS_GENOBJ-NBEHI-BHB_13
1002
{
1000
OWNER
1000
GENBEHI
1002
}
1001
GENIUS_GENOENT_13
1002
{
1000
MYREF
1005
B89
1002
}
1002
{
1000
GRP
1005
0
1002
}
1001
GENIUS_GENOLIS_13
1002
{
1000
ENT
1005
983
1005
977
1005
987
1005
978
1005
915
1005
911
1005
910
1002
}
  0
POINT
  5
B8A
100
AcDbEntity
  8
0
 60
     1
100
AcDbPoint
 10
0.0
 20
48.566245
 30
0.0
1001
GENIUS_GENBH_13
1002
{
1000
FGO
1005
0
1002
}
1001
GENIUS_GENODEF_13
1002
{
1000
HIER
1070
     1
1002
}
1002
{
1000
MANEDIT
1070
     0
1002
}
1002
{
1000
NOSEL
1070
     1
1002
}
1002
{
1000
BEHIND
1070
     0
1002
}
1002
{
1000
REACTOR
1002
}
1001
GENIUS_GENOBJ-NBEHI-BHB_13
1002
{
1000
OWNER
1000
GENBEHI
1002
}
1001
GENIUS_GENOENT_13
1002
{
1000
MYREF
1005
B8A
1002
}
1002
{
1000
GRP
1005
0
1002
}
1001
GENIUS_GENOLIS_13
1002
{
1000
ENT
1005
713
1005
6E9
1005
724
1005
714
1005
722
1005
6E8
1005
6CF
1002
}
  0
POINT
  5
B8B
100
AcDbEntity
  8
0
 60
     1
100
AcDbPoint
 10
0.0
 20
48.566245
 30
0.0
1001
GENIUS_GENBH_13
1002
{
1000
FGO
1005
B8C
1002
}
1001
GENIUS_GENODEF_13
1002
{
1000
HIER
1070
     1
1002
}
1002
{
1000
MANEDIT
1070
     0
1002
}
1002
{
1000
NOSEL
1070
     1
1002
}
1002
{
1000
BEHIND
1070
     0
1002
}
1002
{
1000
REACTOR
1002
}
1001
GENIUS_GENOBJ-NBEHI-BHB_13
1002
{
1000
OWNER
1000
GENBEHI
1002
}
1001
GENIUS_GENOENT_13
1002
{
1000
MYREF
1005
B8B
1002
}
1002
{
1000
GRP
1005
0
1002
}
1001
GENIUS_GENOLIS_13
1002
{
1000
ENT
1005
67F
1005
7AD
1005
69D
1005
7C4
1002
}
  0
POINT
  5
B8C
100
AcDbEntity
  8
0
 60
     1
100
AcDbPoint
 10
0.0
 20
48.566245
 30
0.0
1001
GENIUS_GENBH_13
1002
{
1000
BGO
1005
B8B
1002
}
1002
{
1000
FLAGS
1070
   164
1002
}
1002
{
1000
MODIFY
1002
{
1000
I
1000
H
1002
}
1002
}
1001
GENIUS_GENODEF_13
1002
{
1000
HIER
1070
     1
1002
}
1002
{
1000
MANEDIT
1070
     0
1002
}
1002
{
1000
NOSEL
1070
     1
1002
}
1002
{
1000
BEHIND
1070
     0
1002
}
1002
{
1000
REACTOR
1002
}
1001
GENIUS_GENOBJ-NBEHI-BHF_13
1002
{
1000
OWNER
1000
GENBEHI
1002
}
1001
GENIUS_GENOENT_13
1002
{
1000
MYREF
1005
B8C
1002
}
1002
{
1000
GRP
1005
0
1002
}
1001
GENIUS_GENOLIS_13
1002
{
1000
ENT
1005
624
1005
6B7
1005
67A
1005
628
1005
77A
1005
639
1002
}
  0
ENDSEC
  0
SECTION
  2
OBJECTS
  0
DICTIONARY
  5
C
100
AcDbDictionary
  3
ACAD_GROUP
350
D
  3
ACAD_MLINESTYLE
350
E
  0
DICTIONARY
  5
D
102
{ACAD_REACTORS
330
C
102
}
100
AcDbDictionary
  0
DICTIONARY
  5
E
102
{ACAD_REACTORS
330
C
102
}
100
AcDbDictionary
  3
STANDARD
350
13
  0
MLINESTYLE
  5
13
102
{ACAD_REACTORS
330
E
102
}
100
AcDbMlineStyle
  2
STANDARD
 70
     0
  3

 62
     0
 51
90.0
 52
90.0
 71
     2
 49
0.5
 62
   256
  6
BYLAYER
 49
-0.5
 62
   256
  6
BYLAYER
  0
ENDSEC
  0
EOF
