ISO-10303-21;
HEADER;
/****************************************************************
 * Generated by software with PDElib inside                    *
 * PDElib Version v51a, created Wed 07/06/2011                  *
 * ITI Transcendata (http://www.transcendata.com/)              *
 ****************************************************************/
FILE_DESCRIPTION((''),'2;1');
FILE_NAME('M:\\Module\\Internet-Daten\\MSL-F + MSF\\STEP\\MSF-10.stp','2012-10-05T14:03:08',('hartung_david'),(''),'Autodesk Inventor 2012','Autodesk Inventor 2012','');
FILE_SCHEMA(('AUTOMOTIVE_DESIGN { 1 0 10303 214 1 1 1 1 }'));
ENDSEC;
DATA;
#5=APPLICATION_CONTEXT('automotive design');
#6=APPLICATION_PROTOCOL_DEFINITION('International Standard','automotive_design',2001,#5);
#7=PRODUCT_CONTEXT('',#5,'mechanical');
#8=PRODUCT('MSF-10','MSF-10',$,(#7));
#9=PRODUCT_RELATED_PRODUCT_CATEGORY('part',$,(#8));
#10=PRODUCT_DEFINITION_FORMATION('',$,#8);
#11=PRODUCT_DEFINITION_CONTEXT('part definition',#5,'design');
#12=PRODUCT_DEFINITION('',$,#10,#11);
#18=(NAMED_UNIT(*)PLANE_ANGLE_UNIT()SI_UNIT($,.RADIAN.));
#19=DIMENSIONAL_EXPONENTS(0.0,0.0,0.0,0.0,0.0,0.0,0.0);
#20=PLANE_ANGLE_MEASURE_WITH_UNIT(PLANE_ANGLE_MEASURE(0.0174532925),#18);
#24=(CONVERSION_BASED_UNIT('DEGREE',#20)NAMED_UNIT(#19)PLANE_ANGLE_UNIT());
#28=(NAMED_UNIT(*)SI_UNIT($,.STERADIAN.)SOLID_ANGLE_UNIT());
#32=(LENGTH_UNIT()NAMED_UNIT(*)SI_UNIT(.MILLI.,.METRE.));
#34=UNCERTAINTY_MEASURE_WITH_UNIT(LENGTH_MEASURE(0.01),#32,'DISTANCE_ACCURACY_VALUE','');
#36=(GEOMETRIC_REPRESENTATION_CONTEXT(3)GLOBAL_UNCERTAINTY_ASSIGNED_CONTEXT((#34))GLOBAL_UNIT_ASSIGNED_CONTEXT((#24,#28,#32))REPRESENTATION_CONTEXT('None','None'));
#37=AXIS2_PLACEMENT_3D('',#38,#39,#40);
#38=CARTESIAN_POINT('',(0.0,0.0,0.0));
#39=DIRECTION('',(0.0,0.0,1.0));
#40=DIRECTION('',(1.0,0.0,0.0));
#41=SHAPE_REPRESENTATION('',(#37),#36);
#42=PRODUCT_DEFINITION_SHAPE('','',#12);
#43=SHAPE_DEFINITION_REPRESENTATION(#42,#41);
#49=(NAMED_UNIT(*)PLANE_ANGLE_UNIT()SI_UNIT($,.RADIAN.));
#50=DIMENSIONAL_EXPONENTS(0.0,0.0,0.0,0.0,0.0,0.0,0.0);
#51=PLANE_ANGLE_MEASURE_WITH_UNIT(PLANE_ANGLE_MEASURE(0.0174532925),#49);
#55=(CONVERSION_BASED_UNIT('DEGREE',#51)NAMED_UNIT(#50)PLANE_ANGLE_UNIT());
#59=(NAMED_UNIT(*)SI_UNIT($,.STERADIAN.)SOLID_ANGLE_UNIT());
#63=(LENGTH_UNIT()NAMED_UNIT(*)SI_UNIT(.MILLI.,.METRE.));
#65=UNCERTAINTY_MEASURE_WITH_UNIT(LENGTH_MEASURE(0.000001),#63,'DISTANCE_ACCURACY_VALUE','');
#67=(GEOMETRIC_REPRESENTATION_CONTEXT(3)GLOBAL_UNCERTAINTY_ASSIGNED_CONTEXT((#65))GLOBAL_UNIT_ASSIGNED_CONTEXT((#55,#59,#63))REPRESENTATION_CONTEXT('','3D'));
#68=CARTESIAN_POINT('',(0.0,60.385416666666707,0.0));
#69=DIRECTION('',(0.0,-1.0,0.0));
#70=DIRECTION('',(1.0,0.0,0.0));
#71=AXIS2_PLACEMENT_3D('',#68,#69,#70);
#72=CYLINDRICAL_SURFACE('',#71,10.0);
#73=CARTESIAN_POINT('',(-10.0,62.0,1.224606E-015));
#74=VERTEX_POINT('',#73);
#75=CARTESIAN_POINT('',(0.0,62.0,0.0));
#76=DIRECTION('',(0.0,1.0,0.0));
#77=DIRECTION('',(1.0,0.0,0.0));
#78=AXIS2_PLACEMENT_3D('',#75,#76,#77);
#79=CIRCLE('',#78,10.0);
#80=EDGE_CURVE('',#74,#74,#79,.T.);
#81=ORIENTED_EDGE('',*,*,#80,.F.);
#82=EDGE_LOOP('',(#81));
#83=FACE_OUTER_BOUND('',#82,.T.);
#84=CARTESIAN_POINT('',(-10.0,58.770833333333307,1.224606E-015));
#85=VERTEX_POINT('',#84);
#86=CARTESIAN_POINT('',(0.0,58.770833333333307,0.0));
#87=DIRECTION('',(0.0,1.0,0.0));
#88=DIRECTION('',(1.0,0.0,0.0));
#89=AXIS2_PLACEMENT_3D('',#86,#87,#88);
#90=CIRCLE('',#89,10.0);
#91=EDGE_CURVE('',#85,#85,#90,.T.);
#92=ORIENTED_EDGE('',*,*,#91,.T.);
#93=EDGE_LOOP('',(#92));
#94=FACE_BOUND('',#93,.T.);
#95=ADVANCED_FACE('',(#83,#94),#72,.T.);
#96=CARTESIAN_POINT('',(0.0,53.4427083333333,0.0));
#97=DIRECTION('',(0.0,-1.0,0.0));
#98=DIRECTION('',(1.0,0.0,0.0));
#99=AXIS2_PLACEMENT_3D('',#96,#97,#98);
#100=CYLINDRICAL_SURFACE('',#99,9.66666666666667);
#101=CARTESIAN_POINT('',(-9.66666666666667,58.770833333333307,1.183786E-015));
#102=VERTEX_POINT('',#101);
#103=CARTESIAN_POINT('',(0.0,58.770833333333307,0.0));
#104=DIRECTION('',(0.0,1.0,0.0));
#105=DIRECTION('',(1.0,0.0,0.0));
#106=AXIS2_PLACEMENT_3D('',#103,#104,#105);
#107=CIRCLE('',#106,9.66666666666667);
#108=EDGE_CURVE('',#102,#102,#107,.T.);
#109=ORIENTED_EDGE('',*,*,#108,.F.);
#110=EDGE_LOOP('',(#109));
#111=FACE_OUTER_BOUND('',#110,.T.);
#112=CARTESIAN_POINT('',(-9.66666666666667,48.114583333333307,1.183786E-015));
#113=VERTEX_POINT('',#112);
#114=CARTESIAN_POINT('',(0.0,48.114583333333307,0.0));
#115=DIRECTION('',(0.0,1.0,0.0));
#116=DIRECTION('',(1.0,0.0,0.0));
#117=AXIS2_PLACEMENT_3D('',#114,#115,#116);
#118=CIRCLE('',#117,9.66666666666667);
#119=EDGE_CURVE('',#113,#113,#118,.T.);
#120=ORIENTED_EDGE('',*,*,#119,.T.);
#121=EDGE_LOOP('',(#120));
#122=FACE_BOUND('',#121,.T.);
#123=ADVANCED_FACE('',(#111,#122),#100,.T.);
#124=CARTESIAN_POINT('',(0.0,50.875,0.0));
#125=DIRECTION('',(0.0,-1.0,0.0));
#126=DIRECTION('',(1.0,0.0,0.0));
#127=AXIS2_PLACEMENT_3D('',#124,#125,#126);
#128=CYLINDRICAL_SURFACE('',#127,2.067);
#129=CARTESIAN_POINT('',(-2.067,39.75,2.531261E-016));
#130=VERTEX_POINT('',#129);
#131=CARTESIAN_POINT('',(0.0,39.75,0.0));
#132=DIRECTION('',(0.0,1.0,0.0));
#133=DIRECTION('',(1.0,0.0,0.0));
#134=AXIS2_PLACEMENT_3D('',#131,#132,#133);
#135=CIRCLE('',#134,2.067);
#136=EDGE_CURVE('',#130,#130,#135,.T.);
#137=ORIENTED_EDGE('',*,*,#136,.F.);
#138=EDGE_LOOP('',(#137));
#139=FACE_OUTER_BOUND('',#138,.T.);
#140=CARTESIAN_POINT('',(-2.067,62.0,2.531261E-016));
#141=VERTEX_POINT('',#140);
#142=CARTESIAN_POINT('',(0.0,62.0,0.0));
#143=DIRECTION('',(0.0,-1.0,0.0));
#144=DIRECTION('',(1.0,0.0,0.0));
#145=AXIS2_PLACEMENT_3D('',#142,#143,#144);
#146=CIRCLE('',#145,2.067);
#147=EDGE_CURVE('',#141,#141,#146,.T.);
#148=ORIENTED_EDGE('',*,*,#147,.F.);
#149=EDGE_LOOP('',(#148));
#150=FACE_BOUND('',#149,.T.);
#151=ADVANCED_FACE('',(#139,#150),#128,.F.);
#152=CARTESIAN_POINT('',(0.0,39.153308496792498,0.0));
#153=DIRECTION('',(0.0,1.0,0.0));
#154=DIRECTION('',(1.0,0.0,0.0));
#155=AXIS2_PLACEMENT_3D('',#152,#153,#154);
#156=CONICAL_SURFACE('',#155,1.0335,59.999999999998991);
#157=ORIENTED_EDGE('',*,*,#136,.T.);
#158=EDGE_LOOP('',(#157));
#159=FACE_OUTER_BOUND('',#158,.T.);
#160=ADVANCED_FACE('',(#159),#156,.F.);
#161=CARTESIAN_POINT('',(0.0,24.057291666666707,0.0));
#162=DIRECTION('',(0.0,-1.0,0.0));
#163=DIRECTION('',(1.0,0.0,0.0));
#164=AXIS2_PLACEMENT_3D('',#161,#162,#163);
#165=CYLINDRICAL_SURFACE('',#164,10.0);
#166=CARTESIAN_POINT('',(-10.0,48.114583333333307,1.224606E-015));
#167=VERTEX_POINT('',#166);
#168=CARTESIAN_POINT('',(0.0,48.114583333333307,0.0));
#169=DIRECTION('',(0.0,1.0,0.0));
#170=DIRECTION('',(1.0,0.0,0.0));
#171=AXIS2_PLACEMENT_3D('',#168,#169,#170);
#172=CIRCLE('',#171,10.0);
#173=EDGE_CURVE('',#167,#167,#172,.T.);
#174=ORIENTED_EDGE('',*,*,#173,.F.);
#175=EDGE_LOOP('',(#174));
#176=FACE_OUTER_BOUND('',#175,.T.);
#177=CARTESIAN_POINT('',(6.429183E-016,12.25,10.0));
#178=VERTEX_POINT('',#177);
#179=CARTESIAN_POINT('',(-1.285837E-015,22.75,10.0));
#180=VERTEX_POINT('',#179);
#181=CARTESIAN_POINT('',(6.245005E-016,12.25,10.0));
#182=CARTESIAN_POINT('',(-0.673151522611445,12.25,10.0));
#183=CARTESIAN_POINT('',(-1.382476041338622,12.38724003798287,9.925860727804299));
#184=CARTESIAN_POINT('',(-2.672610310901797,12.927396020694406,9.658732060300171));
#185=CARTESIAN_POINT('',(-3.254272094651383,13.329650892192632,9.468529285631387));
#186=CARTESIAN_POINT('',(-4.171917751718444,14.247296549259691,9.101653998860664));
#187=CARTESIAN_POINT('',(-4.573034173259879,14.828450249703828,8.898444281211534));
#188=CARTESIAN_POINT('',(-5.112251607568762,16.116276720799227,8.599991058668733));
#189=CARTESIAN_POINT('',(-5.25,16.82454313619559,8.511022265274601));
#190=CARTESIAN_POINT('',(-5.25,18.17545686380441,8.511022265274601));
#191=CARTESIAN_POINT('',(-5.112251607568762,18.883723279200773,8.599991058668733));
#192=CARTESIAN_POINT('',(-4.573034173259879,20.171549750296172,8.898444281211534));
#193=CARTESIAN_POINT('',(-4.171917751718445,20.752703450740306,9.101653998860664));
#194=CARTESIAN_POINT('',(-3.254272094651384,21.670349107807368,9.468529285631387));
#195=CARTESIAN_POINT('',(-2.672610310901798,22.072603979305597,9.658732060300171));
#196=CARTESIAN_POINT('',(-1.382476041338624,22.61275996201713,9.925860727804299));
#197=CARTESIAN_POINT('',(-0.673151522611447,22.75,10.0));
#198=CARTESIAN_POINT('',(-1.526557E-015,22.75,10.0));
#199=B_SPLINE_CURVE_WITH_KNOTS('',3,(#181,#182,#183,#184,#185,#186,#187,#188,#189,#190,#191,#192,#193,#194,#195,#196,#197,#198),.UNSPECIFIED.,.F.,.U.,(4,2,2,2,2,2,2,2,4),(0.809165031849512,1.011110488632946,1.21305594541638,1.415693004557702,1.618330063699025,1.820967122840347,2.02360418198167,2.225549638765103,2.427495095548537),.UNSPECIFIED.);
#200=EDGE_CURVE('',#178,#180,#199,.T.);
#201=ORIENTED_EDGE('',*,*,#200,.T.);
#202=CARTESIAN_POINT('',(-1.526557E-015,22.75,10.0));
#203=CARTESIAN_POINT('',(0.673151522611444,22.75,10.0));
#204=CARTESIAN_POINT('',(1.38247604133862,22.61275996201713,9.925860727804301));
#205=CARTESIAN_POINT('',(2.672610310901795,22.072603979305597,9.658732060300171));
#206=CARTESIAN_POINT('',(3.254272094651382,21.670349107807372,9.468529285631389));
#207=CARTESIAN_POINT('',(4.171917751718444,20.752703450740306,9.101653998860666));
#208=CARTESIAN_POINT('',(4.573034173259879,20.171549750296172,8.898444281211534));
#209=CARTESIAN_POINT('',(5.112251607568762,18.883723279200773,8.599991058668733));
#210=CARTESIAN_POINT('',(5.25,18.17545686380441,8.511022265274601));
#211=CARTESIAN_POINT('',(5.25,17.5,8.511022265274601));
#212=CARTESIAN_POINT('',(5.25,16.82454313619559,8.511022265274601));
#213=CARTESIAN_POINT('',(5.112251607568762,16.116276720799227,8.599991058668733));
#214=CARTESIAN_POINT('',(4.573034173259879,14.828450249703831,8.898444281211534));
#215=CARTESIAN_POINT('',(4.171917751718444,14.247296549259696,9.101653998860664));
#216=CARTESIAN_POINT('',(3.254272094651384,13.329650892192635,9.468529285631387));
#217=CARTESIAN_POINT('',(2.6726103109018,12.927396020694406,9.658732060300167));
#218=CARTESIAN_POINT('',(1.382476041338625,12.38724003798287,9.925860727804297));
#219=CARTESIAN_POINT('',(0.673151522611447,12.25,10.0));
#220=CARTESIAN_POINT('',(6.938894E-017,12.25,10.0));
#221=B_SPLINE_CURVE_WITH_KNOTS('',3,(#202,#203,#204,#205,#206,#207,#208,#209,#210,#211,#212,#213,#214,#215,#216,#217,#218,#219,#220),.UNSPECIFIED.,.F.,.U.,(4,2,2,2,3,2,2,2,4),(2.427495095548537,2.62944055233197,2.831386009115404,3.034023068256727,3.236660127398049,3.439297186539371,3.641934245680694,3.843879702464128,4.045825159247562),.UNSPECIFIED.);
#222=EDGE_CURVE('',#180,#178,#221,.T.);
#223=ORIENTED_EDGE('',*,*,#222,.T.);
#224=EDGE_LOOP('',(#201,#223));
#225=FACE_BOUND('',#224,.T.);
#226=CARTESIAN_POINT('',(-10.0,0.0,1.224606E-015));
#227=VERTEX_POINT('',#226);
#228=CARTESIAN_POINT('',(0.0,0.0,0.0));
#229=DIRECTION('',(0.0,1.0,0.0));
#230=DIRECTION('',(1.0,0.0,0.0));
#231=AXIS2_PLACEMENT_3D('',#228,#229,#230);
#232=CIRCLE('',#231,10.0);
#233=EDGE_CURVE('',#227,#227,#232,.T.);
#234=ORIENTED_EDGE('',*,*,#233,.T.);
#235=EDGE_LOOP('',(#234));
#236=FACE_BOUND('',#235,.T.);
#237=CARTESIAN_POINT('',(-1.285837E-015,22.75,-10.0));
#238=VERTEX_POINT('',#237);
#239=CARTESIAN_POINT('',(6.429183E-016,12.25,-10.0));
#240=VERTEX_POINT('',#239);
#241=CARTESIAN_POINT('',(0.0,22.75,-10.0));
#242=CARTESIAN_POINT('',(-0.673151522611447,22.75,-10.0));
#243=CARTESIAN_POINT('',(-1.382476041338624,22.612759962017137,-9.925860727804297));
#244=CARTESIAN_POINT('',(-2.672610310901801,22.072603979305594,-9.658732060300167));
#245=CARTESIAN_POINT('',(-3.254272094651383,21.670349107807361,-9.468529285631387));
#246=CARTESIAN_POINT('',(-4.171917751718444,20.752703450740306,-9.101653998860664));
#247=CARTESIAN_POINT('',(-4.573034173259879,20.171549750296172,-8.898444281211534));
#248=CARTESIAN_POINT('',(-5.112251607568762,18.883723279200773,-8.599991058668733));
#249=CARTESIAN_POINT('',(-5.25,18.17545686380441,-8.511022265274601));
#250=CARTESIAN_POINT('',(-5.25,16.824543136195594,-8.511022265274601));
#251=CARTESIAN_POINT('',(-5.112251607568762,16.116276720799224,-8.599991058668735));
#252=CARTESIAN_POINT('',(-4.573034173259879,14.828450249703828,-8.898444281211535));
#253=CARTESIAN_POINT('',(-4.171917751718444,14.247296549259696,-9.101653998860664));
#254=CARTESIAN_POINT('',(-3.254272094651384,13.329650892192635,-9.468529285631387));
#255=CARTESIAN_POINT('',(-2.6726103109018,12.927396020694406,-9.658732060300167));
#256=CARTESIAN_POINT('',(-1.382476041338625,12.38724003798287,-9.925860727804297));
#257=CARTESIAN_POINT('',(-0.673151522611447,12.25,-10.0));
#258=CARTESIAN_POINT('',(-6.245005E-016,12.25,-10.0));
#259=B_SPLINE_CURVE_WITH_KNOTS('',3,(#241,#242,#243,#244,#245,#246,#247,#248,#249,#250,#251,#252,#253,#254,#255,#256,#257,#258),.UNSPECIFIED.,.F.,.U.,(4,2,2,2,2,2,2,2,4),(-2.427495095548537,-2.225549638765103,-2.02360418198167,-1.820967122840347,-1.618330063699025,-1.415693004557702,-1.21305594541638,-1.011110488632946,-0.809165031849512),.UNSPECIFIED.);
#260=EDGE_CURVE('',#238,#240,#259,.T.);
#261=ORIENTED_EDGE('',*,*,#260,.T.);
#262=CARTESIAN_POINT('',(-6.245005E-016,12.25,-10.0));
#263=CARTESIAN_POINT('',(0.673151522611445,12.25,-10.0));
#264=CARTESIAN_POINT('',(1.382476041338623,12.38724003798287,-9.925860727804299));
#265=CARTESIAN_POINT('',(2.672610310901797,12.927396020694406,-9.658732060300171));
#266=CARTESIAN_POINT('',(3.254272094651383,13.329650892192632,-9.468529285631387));
#267=CARTESIAN_POINT('',(4.171917751718444,14.247296549259691,-9.101653998860664));
#268=CARTESIAN_POINT('',(4.573034173259879,14.828450249703828,-8.898444281211534));
#269=CARTESIAN_POINT('',(5.112251607568762,16.116276720799227,-8.599991058668733));
#270=CARTESIAN_POINT('',(5.25,16.82454313619559,-8.511022265274601));
#271=CARTESIAN_POINT('',(5.25,17.5,-8.511022265274601));
#272=CARTESIAN_POINT('',(5.25,18.17545686380441,-8.511022265274601));
#273=CARTESIAN_POINT('',(5.112251607568763,18.883723279200776,-8.599991058668731));
#274=CARTESIAN_POINT('',(4.573034173259879,20.171549750296172,-8.898444281211534));
#275=CARTESIAN_POINT('',(4.171917751718443,20.752703450740306,-9.101653998860664));
#276=CARTESIAN_POINT('',(3.254272094651383,21.670349107807361,-9.468529285631387));
#277=CARTESIAN_POINT('',(2.672610310901801,22.072603979305594,-9.658732060300167));
#278=CARTESIAN_POINT('',(1.382476041338624,22.612759962017137,-9.925860727804297));
#279=CARTESIAN_POINT('',(0.673151522611447,22.75,-10.0));
#280=CARTESIAN_POINT('',(0.0,22.75,-10.0));
#281=B_SPLINE_CURVE_WITH_KNOTS('',3,(#262,#263,#264,#265,#266,#267,#268,#269,#270,#271,#272,#273,#274,#275,#276,#277,#278,#279,#280),.UNSPECIFIED.,.F.,.U.,(4,2,2,2,3,2,2,2,4),(-0.809165031849512,-0.607219575066078,-0.405274118282645,-0.202637059141322,0.0,0.202637059141323,0.405274118282645,0.607219575066078,0.809165031849512),.UNSPECIFIED.);
#282=EDGE_CURVE('',#240,#238,#281,.T.);
#283=ORIENTED_EDGE('',*,*,#282,.T.);
#284=EDGE_LOOP('',(#261,#283));
#285=FACE_BOUND('',#284,.T.);
#286=ADVANCED_FACE('',(#176,#225,#236,#285),#165,.T.);
#287=CARTESIAN_POINT('',(0.0,17.5,0.0));
#288=DIRECTION('',(0.0,0.0,-1.0));
#289=DIRECTION('',(0.0,1.0,0.0));
#290=AXIS2_PLACEMENT_3D('',#287,#288,#289);
#291=CYLINDRICAL_SURFACE('',#290,5.25);
#292=ORIENTED_EDGE('',*,*,#260,.F.);
#293=ORIENTED_EDGE('',*,*,#282,.F.);
#294=EDGE_LOOP('',(#292,#293));
#295=FACE_OUTER_BOUND('',#294,.T.);
#296=ORIENTED_EDGE('',*,*,#222,.F.);
#297=ORIENTED_EDGE('',*,*,#200,.F.);
#298=EDGE_LOOP('',(#296,#297));
#299=FACE_BOUND('',#298,.T.);
#300=ADVANCED_FACE('',(#295,#299),#291,.F.);
#301=CARTESIAN_POINT('',(5.0,0.0,-1.224606E-015));
#302=DIRECTION('',(0.0,-1.0,0.0));
#303=DIRECTION('',(0.0,0.0,-1.0));
#304=AXIS2_PLACEMENT_3D('',#301,#302,#303);
#305=PLANE('',#304);
#306=ORIENTED_EDGE('',*,*,#233,.F.);
#307=EDGE_LOOP('',(#306));
#308=FACE_OUTER_BOUND('',#307,.T.);
#309=ADVANCED_FACE('',(#308),#305,.T.);
#310=CARTESIAN_POINT('',(9.83333333333333,48.114583333333307,-2.408392E-015));
#311=DIRECTION('',(0.0,1.0,0.0));
#312=DIRECTION('',(0.0,0.0,1.0));
#313=AXIS2_PLACEMENT_3D('',#310,#311,#312);
#314=PLANE('',#313);
#315=ORIENTED_EDGE('',*,*,#173,.T.);
#316=EDGE_LOOP('',(#315));
#317=FACE_OUTER_BOUND('',#316,.T.);
#318=ORIENTED_EDGE('',*,*,#119,.F.);
#319=EDGE_LOOP('',(#318));
#320=FACE_BOUND('',#319,.T.);
#321=ADVANCED_FACE('',(#317,#320),#314,.T.);
#322=CARTESIAN_POINT('',(9.83333333333333,58.770833333333307,-2.408392E-015));
#323=DIRECTION('',(0.0,-1.0,0.0));
#324=DIRECTION('',(0.0,0.0,-1.0));
#325=AXIS2_PLACEMENT_3D('',#322,#323,#324);
#326=PLANE('',#325);
#327=ORIENTED_EDGE('',*,*,#91,.F.);
#328=EDGE_LOOP('',(#327));
#329=FACE_OUTER_BOUND('',#328,.T.);
#330=ORIENTED_EDGE('',*,*,#108,.T.);
#331=EDGE_LOOP('',(#330));
#332=FACE_BOUND('',#331,.T.);
#333=ADVANCED_FACE('',(#329,#332),#326,.T.);
#334=CARTESIAN_POINT('',(5.0,62.0,-1.224606E-015));
#335=DIRECTION('',(0.0,1.0,0.0));
#336=DIRECTION('',(0.0,0.0,1.0));
#337=AXIS2_PLACEMENT_3D('',#334,#335,#336);
#338=PLANE('',#337);
#339=ORIENTED_EDGE('',*,*,#80,.T.);
#340=EDGE_LOOP('',(#339));
#341=FACE_OUTER_BOUND('',#340,.T.);
#342=ORIENTED_EDGE('',*,*,#147,.T.);
#343=EDGE_LOOP('',(#342));
#344=FACE_BOUND('',#343,.T.);
#345=ADVANCED_FACE('',(#341,#344),#338,.T.);
#346=CLOSED_SHELL('',(#95,#123,#151,#160,#286,#300,#309,#321,#333,#345));
#347=MANIFOLD_SOLID_BREP('1',#346);
#348=COLOUR_RGB('RGB(237,119,81)',0.800000011920929,0.800000011920929,0.800000011920929);
#349=FILL_AREA_STYLE_COLOUR('RGB(237,119,81)',#348);
#350=FILL_AREA_STYLE('RGB(237,119,81)',(#349));
#351=SURFACE_STYLE_FILL_AREA(#350);
#352=SURFACE_SIDE_STYLE('RGB(237,119,81)',(#351));
#353=SURFACE_STYLE_USAGE(.BOTH.,#352);
#354=PRESENTATION_STYLE_ASSIGNMENT((#353));
#355=STYLED_ITEM('',(#354),#347);
#356=MECHANICAL_DESIGN_GEOMETRIC_PRESENTATION_REPRESENTATION('',(#355),#36);
#357=ADVANCED_BREP_SHAPE_REPRESENTATION('ABSR',(#347),#36);
#358=SHAPE_REPRESENTATION_RELATIONSHIP('SRR','None',#357,#41);
ENDSEC;
END-ISO-10303-21;
