  0
SECTION
  2
HEADER
  9
$ACADVER
  1
AC1015
  9
$ACADMAINTVER
 70
    20
  9
$DWGCODEPAGE
  3
ANSI_1252
  9
$INSBASE
 10
0.0
 20
0.0
 30
0.0
  9
$EXTMIN
 10
17.085391
 20
14.572995
 30
-0.00000001
  9
$EXTMAX
 10
534.081719
 20
414.164212
 30
0.00000001
  9
$LIMMIN
 10
0.0
 20
0.0
  9
$LIMMAX
 10
12.0
 20
9.0
  9
$ORTHOMODE
 70
     0
  9
$REGENMODE
 70
     1
  9
$FILLMODE
 70
     1
  9
$QTEXTMODE
 70
     0
  9
$MIRRTEXT
 70
     1
  9
$LTSCALE
 40
1.0
  9
$ATTMODE
 70
     1
  9
$TEXTSIZE
 40
3.5
  9
$TRACEWID
 40
0.05
  9
$TEXTSTYLE
  7
STANDARD
  9
$CLAYER
  8
MSD_2-0
  9
$CELTYPE
  6
BYLAYER
  9
$CECOLOR
 62
   256
  9
$CELTSCALE
 40
1.0
  9
$DISPSILH
 70
     0
  9
$DIMSCALE
 40
1.0
  9
$DIMASZ
 40
2.5
  9
$DIMEXO
 40
1.0
  9
$DIMDLI
 40
7.0
  9
$DIMRND
 40
0.0
  9
$DIMDLE
 40
0.0
  9
$DIMEXE
 40
1.0
  9
$DIMTP
 40
0.1
  9
$DIMTM
 40
0.1
  9
$DIMTXT
 40
3.5
  9
$DIMCEN
 40
0.0
  9
$DIMTSZ
 40
0.0
  9
$DIMTOL
 70
     0
  9
$DIMLIM
 70
     0
  9
$DIMTIH
 70
     0
  9
$DIMTOH
 70
     0
  9
$DIMSE1
 70
     0
  9
$DIMSE2
 70
     0
  9
$DIMTAD
 70
     1
  9
$DIMZIN
 70
     0
  9
$DIMBLK
  1

  9
$DIMASO
 70
     1
  9
$DIMSHO
 70
     1
  9
$DIMPOST
  1
<>
  9
$DIMAPOST
  1

  9
$DIMALT
 70
     0
  9
$DIMALTD
 70
     2
  9
$DIMALTF
 40
0.0393701
  9
$DIMLFAC
 40
1.0
  9
$DIMTOFL
 70
     1
  9
$DIMTVP
 40
0.0
  9
$DIMTIX
 70
     0
  9
$DIMSOXD
 70
     0
  9
$DIMSAH
 70
     0
  9
$DIMBLK1
  1

  9
$DIMBLK2
  1

  9
$DIMSTYLE
  2
GEN-ISO
  9
$DIMCLRD
 70
   256
  9
$DIMCLRE
 70
   256
  9
$DIMCLRT
 70
     2
  9
$DIMTFAC
 40
0.71
  9
$DIMGAP
 40
0.6
  9
$DIMJUST
 70
     0
  9
$DIMSD1
 70
     0
  9
$DIMSD2
 70
     0
  9
$DIMTOLJ
 70
     0
  9
$DIMTZIN
 70
     0
  9
$DIMALTZ
 70
     0
  9
$DIMALTTZ
 70
     0
  9
$DIMUPT
 70
     0
  9
$DIMDEC
 70
     2
  9
$DIMTDEC
 70
     3
  9
$DIMALTU
 70
     2
  9
$DIMALTTD
 70
     4
  9
$DIMTXSTY
  7
STANDARD
  9
$DIMAUNIT
 70
     0
  9
$DIMADEC
 70
     0
  9
$DIMALTRND
 40
0.0
  9
$DIMAZIN
 70
     0
  9
$DIMDSEP
 70
    46
  9
$DIMATFIT
 70
     3
  9
$DIMFRAC
 70
     0
  9
$DIMLDRBLK
  1

  9
$DIMLUNIT
 70
     2
  9
$DIMLWD
 70
    -2
  9
$DIMLWE
 70
    -2
  9
$DIMTMOVE
 70
     0
  9
$LUNITS
 70
     2
  9
$LUPREC
 70
     2
  9
$SKETCHINC
 40
0.1
  9
$FILLETRAD
 40
0.0
  9
$AUNITS
 70
     0
  9
$AUPREC
 70
     0
  9
$MENU
  1
acad
  9
$ELEVATION
 40
0.0
  9
$PELEVATION
 40
0.0
  9
$THICKNESS
 40
0.0
  9
$LIMCHECK
 70
     0
  9
$CHAMFERA
 40
0.0
  9
$CHAMFERB
 40
0.0
  9
$CHAMFERC
 40
0.0
  9
$CHAMFERD
 40
0.0
  9
$SKPOLY
 70
     0
  9
$TDCREATE
 40
2450848.367821945
  9
$TDUCREATE
 40
2450848.284488611
  9
$TDUPDATE
 40
2456219.423142326
  9
$TDUUPDATE
 40
2456219.339808993
  9
$TDINDWG
 40
0.0188803241
  9
$TDUSRTIMER
 40
0.0188803241
  9
$USRTIMER
 70
     1
  9
$ANGBASE
 50
0.0
  9
$ANGDIR
 70
     0
  9
$PDMODE
 70
     0
  9
$PDSIZE
 40
0.0
  9
$PLINEWID
 40
0.0
  9
$SPLFRAME
 70
     0
  9
$SPLINETYPE
 70
     6
  9
$SPLINESEGS
 70
     8
  9
$HANDSEED
  5
C90
  9
$SURFTAB1
 70
     6
  9
$SURFTAB2
 70
     6
  9
$SURFTYPE
 70
     6
  9
$SURFU
 70
     6
  9
$SURFV
 70
     6
  9
$UCSBASE
  2

  9
$UCSNAME
  2

  9
$UCSORG
 10
0.0
 20
0.0
 30
0.0
  9
$UCSXDIR
 10
1.0
 20
0.0
 30
0.0
  9
$UCSYDIR
 10
0.0
 20
1.0
 30
0.0
  9
$UCSORTHOREF
  2

  9
$UCSORTHOVIEW
 70
     0
  9
$UCSORGTOP
 10
0.0
 20
0.0
 30
0.0
  9
$UCSORGBOTTOM
 10
0.0
 20
0.0
 30
0.0
  9
$UCSORGLEFT
 10
0.0
 20
0.0
 30
0.0
  9
$UCSORGRIGHT
 10
0.0
 20
0.0
 30
0.0
  9
$UCSORGFRONT
 10
0.0
 20
0.0
 30
0.0
  9
$UCSORGBACK
 10
0.0
 20
0.0
 30
0.0
  9
$PUCSBASE
  2

  9
$PUCSNAME
  2

  9
$PUCSORG
 10
0.0
 20
0.0
 30
0.0
  9
$PUCSXDIR
 10
1.0
 20
0.0
 30
0.0
  9
$PUCSYDIR
 10
0.0
 20
1.0
 30
0.0
  9
$PUCSORTHOREF
  2

  9
$PUCSORTHOVIEW
 70
     0
  9
$PUCSORGTOP
 10
0.0
 20
0.0
 30
0.0
  9
$PUCSORGBOTTOM
 10
0.0
 20
0.0
 30
0.0
  9
$PUCSORGLEFT
 10
0.0
 20
0.0
 30
0.0
  9
$PUCSORGRIGHT
 10
0.0
 20
0.0
 30
0.0
  9
$PUCSORGFRONT
 10
0.0
 20
0.0
 30
0.0
  9
$PUCSORGBACK
 10
0.0
 20
0.0
 30
0.0
  9
$USERI1
 70
     0
  9
$USERI2
 70
     0
  9
$USERI3
 70
     0
  9
$USERI4
 70
     0
  9
$USERI5
 70
     0
  9
$USERR1
 40
0.0
  9
$USERR2
 40
0.0
  9
$USERR3
 40
0.0
  9
$USERR4
 40
0.0
  9
$USERR5
 40
0.0
  9
$WORLDVIEW
 70
     1
  9
$SHADEDGE
 70
     3
  9
$SHADEDIF
 70
    70
  9
$TILEMODE
 70
     1
  9
$MAXACTVP
 70
    16
  9
$PINSBASE
 10
0.0
 20
0.0
 30
0.0
  9
$PLIMCHECK
 70
     0
  9
$PEXTMIN
 10
1.000000000000000E+20
 20
1.000000000000000E+20
 30
1.000000000000000E+20
  9
$PEXTMAX
 10
-1.000000000000000E+20
 20
-1.000000000000000E+20
 30
-1.000000000000000E+20
  9
$PLIMMIN
 10
0.0
 20
0.0
  9
$PLIMMAX
 10
12.0
 20
9.0
  9
$UNITMODE
 70
     0
  9
$VISRETAIN
 70
     0
  9
$PLINEGEN
 70
     0
  9
$PSLTSCALE
 70
     1
  9
$TREEDEPTH
 70
  3020
  9
$CMLSTYLE
  2
STANDARD
  9
$CMLJUST
 70
     0
  9
$CMLSCALE
 40
1.0
  9
$PROXYGRAPHICS
 70
     1
  9
$MEASUREMENT
 70
     1
  9
$CELWEIGHT
370
    -1
  9
$ENDCAPS
280
     0
  9
$JOINSTYLE
280
     0
  9
$LWDISPLAY
290
     0
  9
$INSUNITS
 70
     4
  9
$HYPERLINKBASE
  1

  9
$STYLESHEET
  1

  9
$XEDIT
290
     1
  9
$CEPSNTYPE
380
     0
  9
$PSTYLEMODE
290
     1
  9
$FINGERPRINTGUID
  2
{A55BEBBE-F13D-4152-91EF-2BF5A2F0C945}
  9
$VERSIONGUID
  2
{039E7012-2152-4423-B7CA-5622C83E161B}
  9
$EXTNAMES
290
     1
  9
$PSVPSCALE
 40
0.0
  9
$OLESTARTUP
290
     0
  0
ENDSEC
  0
SECTION
  2
CLASSES
  0
CLASS
  1
ACDBDICTIONARYWDFLT
  2
AcDbDictionaryWithDefault
  3
ObjectDBX Classes
 90
        0
280
     0
281
     0
  0
CLASS
  1
MATERIAL
  2
AcDbMaterial
  3
ObjectDBX Classes
 90
     1153
280
     0
281
     0
  0
CLASS
  1
VISUALSTYLE
  2
AcDbVisualStyle
  3
ObjectDBX Classes
 90
     4095
280
     0
281
     0
  0
CLASS
  1
TABLESTYLE
  2
AcDbTableStyle
  3
ObjectDBX Classes
 90
     4095
280
     0
281
     0
  0
CLASS
  1
SCALE
  2
AcDbScale
  3
ObjectDBX Classes
 90
     1153
280
     0
281
     0
  0
CLASS
  1
MLEADERSTYLE
  2
AcDbMLeaderStyle
  3
ACDB_MLEADERSTYLE_CLASS
 90
     4095
280
     0
281
     0
  0
CLASS
  1
ACME_DOCUMENT
  2
AcMeDbDoc
  3
AcMeServices
 90
     1024
280
     0
281
     0
  0
CLASS
  1
AMGSETTINGSOBJ
  2
AmgSettingsObj
  3
"AcadM|Product Description: AutoCAD Mechanical|Company: Autodesk, Inc."
 90
     1024
280
     0
281
     0
  0
CLASS
  1
ACMESCOPE
  2
AcMeScope
  3
AcMeServices
 90
     1024
280
     0
281
     0
  0
CLASS
  1
ACMECOMMANDHISTORY
  2
AcMeCommandHistory
  3
AcMeServices
 90
     1024
280
     0
281
     0
  0
CLASS
  1
ACIMSYSVARMAN
  2
AcImSysVarManager
  3
AcMeServices
 90
     1024
280
     0
281
     0
  0
CLASS
  1
ACIMINTSYSVAR
  2
AcImIntSysVar
  3
AcMeServices
 90
     1024
280
     0
281
     0
  0
CLASS
  1
ACMEDRAWINGMAN
  2
AcMeDrawingMan
  3
AcMeServices
 90
     1024
280
     0
281
     0
  0
CLASS
  1
ACMEVIEW
  2
AcMeView
  3
AcMeServices
 90
     1024
280
     0
281
     0
  0
CLASS
  1
ACDBENTITYCACHE
  2
AcMeEntityCache
  3
AcMeServices
 90
     1024
280
     0
281
     0
  0
CLASS
  1
GSMANAGER
  2
AcMeGSManager
  3
AcMeServices
 90
     1024
280
     0
281
     0
  0
CLASS
  1
AMDTINTERNALREACTOR
  2
AmdtInternalReactor
  3
AcMeServices
 90
     1024
280
     0
281
     0
  0
CLASS
  1
ACMESTATEMGR
  2
AcMeStateMgr
  3
AcMeServices
 90
     1024
280
     0
281
     0
  0
CLASS
  1
ACGREFMASTER
  2
AcGrefMaster
  3
AcAttribServices
 90
     1024
280
     0
281
     0
  0
CLASS
  1
AM_DRAWING_MGR
  2
AcDmDwgMgr
  3
AcMechDwgViewMgmt
 90
     1024
280
     0
281
     0
  0
CLASS
  1
AM_DWG_DOCUMENT
  2
AcDmDwgDocument
  3
AcMechDwgViewMgmt
 90
     1024
280
     0
281
     0
  0
CLASS
  1
AM_DWG_SHEET
  2
AcDmSheet
  3
AcMechDwgViewMgmt
 90
     1024
280
     0
281
     0
  0
CLASS
  1
AM_VIEWDIMPARMAP
  2
AcDmViewDimParMap
  3
AcMechDwgViewMgmt
 90
     1024
280
     0
281
     0
  0
CLASS
  1
ACIMREALSYSVAR
  2
AcImRealSysVar
  3
AcMeServices
 90
     1024
280
     0
281
     0
  0
CLASS
  1
AM_DWGMGR_NAME
  2
AcDmDwgMgrName
  3
AcMechDwgViewMgmt
 90
     1024
280
     0
281
     0
  0
CLASS
  1
ACME_DATABASE
  2
AcMeDbDatabase
  3
AcMeServices
 90
     1024
280
     0
281
     0
  0
CLASS
  1
ACRFINSADJUSTERMGR
  2
AcRfInsAdjusterMgr
  3
AcMeServices
 90
     1024
280
     0
281
     0
  0
CLASS
  1
ACGREFACADMASTER
  2
AcGrefacadMaster
  3
AcGrefServices
 90
     1024
280
     0
281
     0
  0
CLASS
  1
AMDTMENUSTATEMGR
  2
AmdtMenuStateMgr
  3
McadcomServices
 90
     1024
280
     0
281
     0
  0
CLASS
  1
AMDTMCOMMENUSTATE
  2
AmdtMcomMenuState
  3
McadcomServices
 90
     1024
280
     0
281
     0
  0
CLASS
  1
AMIMASTER
  2
AmiMaster
  3
AmiServices
 90
     1024
280
     0
281
     0
  0
CLASS
  1
MAPIAMMOUDLE
  2
MApiAmModule
  3
MApiAmServices
 90
     1024
280
     0
281
     0
  0
CLASS
  1
ACIMSTRSYSVAR
  2
AcImStrSysVar
  3
AcMeServices
 90
     1024
280
     0
281
     0
  0
CLASS
  1
AMDTADMENUSTATE
  2
AmdtAdMenuState
  3
DesignerServices
 90
     1024
280
     0
281
     0
  0
CLASS
  1
ADAPPL
  2
AcAdAppl
  3
DesignerServices
 90
     1024
280
     0
281
     0
  0
CLASS
  1
DEPMGR
  2
AcAdDepMgr
  3
DesignerServices
 90
     1024
280
     0
281
     0
  0
CLASS
  1
PARAMMGR
  2
AcAdParamMgr
  3
DesignerServices
 90
     1024
280
     0
281
     0
  0
CLASS
  1
PARAMSCOPE
  2
AcAdParamScope
  3
DesignerServices
 90
     1024
280
     0
281
     0
  0
CLASS
  1
NAMEDAPPL
  2
AcAdNamedAppl
  3
DesignerServices
 90
     1024
280
     0
281
     0
  0
CLASS
  1
AMDTDMMENUSTATE
  2
AmdtDmMenuState
  3
AcMechDwgViewMgmt
 90
     1024
280
     0
281
     0
  0
CLASS
  1
AMDTAMMENUSTATE
  2
AmdtAmMenuState
  3
DesignerAssemblies
 90
     1024
280
     0
281
     0
  0
CLASS
  1
ACAMPROJECT
  2
AcAmProject
  3
DesignerAssemblies
 90
     1024
280
     0
281
     0
  0
CLASS
  1
ACAMGRCOMPDEF
  2
AcAmGrCompDef
  3
DesignerAssemblies
 90
     1024
280
     0
281
     0
  0
CLASS
  1
ACCMCONTEXT
  2
AcCmContext
  3
DesignerAssemblies
 90
     1024
280
     0
281
     0
  0
CLASS
  1
ACAMCOMPDEF
  2
AcAmCompDef
  3
DesignerAssemblies
 90
     1024
280
     0
281
     0
  0
CLASS
  1
ACAMCOMPDEFMGR
  2
AcAmCompDefMgr
  3
DesignerAssemblies
 90
     1024
280
     0
281
     0
  0
CLASS
  1
AMCONTEXTMGR
  2
AcAmContextMgr
  3
DesignerAssemblies
 90
     1024
280
     0
281
     0
  0
CLASS
  1
ACAMCONTEXTMODELER
  2
AcAmContextModeler
  3
DesignerAssemblies
 90
     1024
280
     0
281
     0
  0
CLASS
  1
ACMDATADICTIONARY
  2
AcmDataDictionary
  3
"AcmSymBB|Product Description: AutoCAD Mechanical|Company: Autodesk, Inc."
 90
     1024
280
     0
281
     0
  0
CLASS
  1
CATALOGSTATE
  2
AcAmCatalogState
  3
DesignerAssemblies
 90
     1024
280
     0
281
     0
  0
CLASS
  1
ACAMGRCOMPDEFSET
  2
AcAmGrCompDefSet
  3
DesignerAssemblies
 90
     1024
280
     0
281
     0
  0
CLASS
  1
AMDTBROWSERDBTAB
  2
AmdtBrowserDbTab
  3
McadcomServices
 90
     1024
280
     0
281
     0
  0
CLASS
  1
CBROWSERAPPOBJECT
  2
CBrowserAppObject
  3
McadcomServices
 90
     1024
280
     0
281
     0
  0
CLASS
  1
DM_PLACEHOLDER
  2
AcDmSelsetPlaceholder
  3
AcMechDwgViewMgmt
 90
     1024
280
     0
281
     0
  0
CLASS
  1
ACMSTANDARDANSI
  2
AcmStandardANSI
  3
"Amdt_StdImp|Product Description: AutoCAD Mechanical|Company: Autodesk, Inc."
 90
     1024
280
     0
281
     0
  0
CLASS
  1
ACMSURFSTANDARDANSI
  2
AcmSurfTextStdANSI
  3
"Amdt_StdImp|Product Description: AutoCAD Mechanical|Company: Autodesk, Inc."
 90
     1024
280
     0
281
     0
  0
CLASS
  1
ACMFCFSTANDARDANSI
  2
AcmFCFStdANSI
  3
"Amdt_StdImp|Product Description: AutoCAD Mechanical|Company: Autodesk, Inc."
 90
     1024
280
     0
281
     0
  0
CLASS
  1
ACMWELDSTANDARDANSI
  2
AcmWeldingStdANSI
  3
"Amdt_StdImp|Product Description: AutoCAD Mechanical|Company: Autodesk, Inc."
 90
     1024
280
     0
281
     0
  0
CLASS
  1
ACMIDSTANDARDANSI
  2
AcmIdStdANSI
  3
"Amdt_StdImp|Product Description: AutoCAD Mechanical|Company: Autodesk, Inc."
 90
     1024
280
     0
281
     0
  0
CLASS
  1
ACMDATUMSTANDARDANSI
  2
AcmDatumStdANSI
  3
"Amdt_StdImp|Product Description: AutoCAD Mechanical|Company: Autodesk, Inc."
 90
     1024
280
     0
281
     0
  0
CLASS
  1
ACMBOMSTANDARDANSI
  2
AcmBOMStdANSI
  3
"Amdt_StdImp|Product Description: AutoCAD Mechanical|Company: Autodesk, Inc."
 90
     1024
280
     0
281
     0
  0
CLASS
  1
ACMDETAILSTANDARDANSI
  2
AmdtDetailSymStdANSI
  3
"Amdt_StdImp|Product Description: AutoCAD Mechanical|Company: Autodesk, Inc."
 90
     1024
280
     0
281
     0
  0
CLASS
  1
ACMSECTIONSTANDARDANSI
  2
AmdtSectionSymStdANSI
  3
"Amdt_StdImp|Product Description: AutoCAD Mechanical|Company: Autodesk, Inc."
 90
     1024
280
     0
281
     0
  0
CLASS
  1
ACMCENTERLINESTANDARDANSI
  2
AmdtCenterLineStdANSI
  3
"Amdt_StdImp|Product Description: AutoCAD Mechanical|Company: Autodesk, Inc."
 90
     1024
280
     0
281
     0
  0
CLASS
  1
ACMTHREADLINESTANDARDANSI
  2
AmdtThreadLineStdANSI
  3
"Amdt_StdImp|Product Description: AutoCAD Mechanical|Company: Autodesk, Inc."
 90
     1024
280
     0
281
     0
  0
CLASS
  1
ACMNOTESTANDARDANSI
  2
AmdtNoteStdANSI
  3
"Amdt_StdImp|Product Description: AutoCAD Mechanical|Company: Autodesk, Inc."
 90
     1024
280
     0
281
     0
  0
CLASS
  1
ACMTAPERSTANDARDANSI
  2
AcmTaperStdANSI
  3
"Amdt_StdImp|Product Description: AutoCAD Mechanical|Company: Autodesk, Inc."
 90
     1024
280
     0
281
     0
  0
CLASS
  1
ACMANOOTATIONVIEWSTANDARDANSI
  2
AmdtAnViewStdANSI
  3
"Amdt_StdImp|Product Description: AutoCAD Mechanical|Company: Autodesk, Inc."
 90
     1024
280
     0
281
     0
  0
CLASS
  1
ACAMGLAYSTD
  2
AcAmgLayStd
  3
"AmgLay|Product Description: AutoCAD Mechanical|Company: Autodesk, Inc."
 90
     1024
280
     0
281
     0
  0
CLASS
  1
ACAMGDIMSTD
  2
AcAmgDimStd
  3
"AmgDim|Product Description: AutoCAD Mechanical|Company: Autodesk, Inc."
 90
     1024
280
     0
281
     0
  0
CLASS
  1
AMGOBJPROPCFG
  2
AmgObjPropCfg
  3
"AmgLay|Product Description: AutoCAD Mechanical|Company: Autodesk, Inc."
 90
     1025
280
     0
281
     0
  0
CLASS
  1
ACAMGHOLECHARTSTDANSI
  2
AcAmgHoleChartStdANSI
  3
AmgDim|Product Description: AutoCAD Mechanical|Company: Autodesk, Inc.
 90
     1024
280
     0
281
     0
  0
CLASS
  1
ACAMGTITLESTD
  2
AcAmgTitleStd
  3
"AmgTitle|Product Description: AutoCAD Mechanical|Company: Autodesk, Inc."
 90
     4095
280
     0
281
     0
  0
CLASS
  1
AMDTNOTETEMPLATEDB
  2
AmdtNoteTemplateDB
  3
AcmSymBB|Product Description: AutoCAD Mechanical|Company: Autodesk, Inc.
 90
     1024
280
     0
281
     0
  0
CLASS
  1
ACAMGFILTERDAT
  2
AcAmgFilterDat
  3
"AcadM|Product Description: AutoCAD Mechanical|Company: Autodesk, Inc."
 90
     1024
280
     0
281
     0
  0
CLASS
  1
DICTIONARYVAR
  2
AcDbDictionaryVar
  3
ObjectDBX Classes
 90
        0
280
     0
281
     0
  0
CLASS
  1
CELLSTYLEMAP
  2
AcDbCellStyleMap
  3
ObjectDBX Classes
 90
     1152
280
     0
281
     0
  0
CLASS
  1
ACDBPLACEHOLDER
  2
AcDbPlaceHolder
  3
ObjectDBX Classes
 90
        0
280
     0
281
     0
  0
CLASS
  1
LAYOUT
  2
AcDbLayout
  3
ObjectDBX Classes
 90
        0
280
     0
281
     0
  0
ENDSEC
  0
SECTION
  2
TABLES
  0
TABLE
  2
VPORT
  5
12
330
0
100
AcDbSymbolTable
 70
     1
  0
VPORT
  5
B71
330
12
100
AcDbSymbolTableRecord
100
AcDbViewportTableRecord
  2
*ACTIVE
 70
     0
 10
0.0
 20
0.0
 11
1.0
 21
1.0
 12
344.1108429928001
 22
225.8042943126185
 13
0.0
 23
0.0
 14
1.0
 24
1.0
 15
0.0
 25
0.0
 16
0.0
 26
0.0
 36
1.0
 17
0.0
 27
0.0
 37
0.0
 40
422.462598625237
 41
1.548186528497409
 42
50.0
 43
0.0
 44
0.0
 50
0.0
 51
0.0
 71
     0
 72
 10000
 73
     1
 74
     1
 75
     0
 76
     0
 77
     0
 78
     0
281
     0
 65
     1
110
0.0
120
0.0
130
0.0
111
1.0
121
0.0
131
0.0
112
0.0
122
1.0
132
0.0
 79
     0
146
0.0
  0
ENDTAB
  0
TABLE
  2
LTYPE
  5
E
330
0
100
AcDbSymbolTable
 70
    22
  0
LTYPE
  5
F
330
E
100
AcDbSymbolTableRecord
100
AcDbLinetypeTableRecord
  2
BYBLOCK
 70
     0
  3

 72
    65
 73
     0
 40
0.0
  0
LTYPE
  5
6
330
E
100
AcDbSymbolTableRecord
100
AcDbLinetypeTableRecord
  2
BYLAYER
 70
     0
  3

 72
    65
 73
     0
 40
0.0
  0
LTYPE
  5
5
330
E
100
AcDbSymbolTableRecord
100
AcDbLinetypeTableRecord
  2
CONTINUOUS
 70
     0
  3
Solid line
 72
    65
 73
     0
 40
0.0
  0
LTYPE
  5
36
330
E
100
AcDbSymbolTableRecord
100
AcDbLinetypeTableRecord
  2
GEN7
 70
     0
  3
____ . ____ . ____ . ____ . ____ . ____ . ____
 72
    65
 73
     4
 40
13.75
 49
10.0
 74
     0
 49
-1.25
 74
     0
 49
1.25
 74
     0
 49
-1.25
 74
     0
  0
LTYPE
  5
44
330
E
100
AcDbSymbolTableRecord
100
AcDbLinetypeTableRecord
  2
GEN3
 70
     0
  3
-- -- -- -- -- -- -- -- -- -- -- -- -- -- --
 72
    65
 73
     2
 40
6.25
 49
5.0
 74
     0
 49
-1.25
 74
     0
  0
LTYPE
  5
6E
330
E
100
AcDbSymbolTableRecord
100
AcDbLinetypeTableRecord
  2
GEN4A
 70
     0
  3
_____ . . _____ . . _____ . . ____ .. ____
 72
    65
 73
     6
 40
16.25
 49
10.0
 74
     0
 49
-1.25
 74
     0
 49
1.25
 74
     0
 49
-1.25
 74
     0
 49
1.25
 74
     0
 49
-1.25
 74
     0
  0
LTYPE
  5
9AA
330
E
100
AcDbSymbolTableRecord
100
AcDbLinetypeTableRecord
  2
GEN3A
 70
     0
  3
 - - - - -
 72
    65
 73
     2
 40
3.125
 49
2.5
 74
     0
 49
-0.625
 74
     0
  0
LTYPE
  5
9AC
330
E
100
AcDbSymbolTableRecord
100
AcDbLinetypeTableRecord
  2
GEN7A
 70
     0
  3
__ . __ . __
 72
    65
 73
     4
 40
6.875
 49
5.0
 74
     0
 49
-0.625
 74
     0
 49
0.625
 74
     0
 49
-0.625
 74
     0
  0
LTYPE
  5
C00
330
E
100
AcDbSymbolTableRecord
100
AcDbLinetypeTableRecord
  2
HIDDEN
 70
     0
  3
Verdeckt
 72
    65
 73
     2
 40
0.375
 49
0.25
 74
     0
 49
-0.125
 74
     0
  0
LTYPE
  5
C01
330
E
100
AcDbSymbolTableRecord
100
AcDbLinetypeTableRecord
  2
PHANTOM2
 70
     0
  3
Phantom (.5x) ___ _ _ ___ _ _ ___ _ _ ___ _ _
 72
    65
 73
     6
 40
1.25
 49
0.625
 74
     0
 49
-0.125
 74
     0
 49
0.125
 74
     0
 49
-0.125
 74
     0
 49
0.125
 74
     0
 49
-0.125
 74
     0
  0
LTYPE
  5
C02
330
E
100
AcDbSymbolTableRecord
100
AcDbLinetypeTableRecord
  2
CENTER
 70
     0
  3
Mitte ____ _ ____ _ ____ _ ____ _ ____ _ ____
 72
    65
 73
     4
 40
2.0
 49
1.25
 74
     0
 49
-0.25
 74
     0
 49
0.25
 74
     0
 49
-0.25
 74
     0
  0
LTYPE
  5
C47
330
E
100
AcDbSymbolTableRecord
100
AcDbLinetypeTableRecord
  2
AM_ISO02W050
 70
     0
  3
__ __ __ __ __ __ __ __ __ __ __ __ __ __ __
 72
    65
 73
     2
 40
7.5
 49
6.0
 74
     0
 49
-1.5
 74
     0
  0
LTYPE
  5
C48
330
E
100
AcDbSymbolTableRecord
100
AcDbLinetypeTableRecord
  2
AM_ISO08W050
 70
     0
  3
____ . ____ . ____ . ____ . ____ . ____ . ____
 72
    65
 73
     4
 40
18.0
 49
12.0
 74
     0
 49
-1.5
 74
     0
 49
3.0
 74
     0
 49
-1.5
 74
     0
  0
LTYPE
  5
C49
330
E
100
AcDbSymbolTableRecord
100
AcDbLinetypeTableRecord
  2
AM_ISO09W050
 70
     0
  3
_____ . . _____ . . _____ . . ____ .. ____
 72
    65
 73
     6
 40
22.5
 49
12.0
 74
     0
 49
-1.5
 74
     0
 49
3.0
 74
     0
 49
-1.5
 74
     0
 49
3.0
 74
     0
 49
-1.5
 74
     0
  0
LTYPE
  5
C4A
330
E
100
AcDbSymbolTableRecord
100
AcDbLinetypeTableRecord
  2
Amconstr
 70
     0
  3
_______________________
 72
    65
 73
     2
 40
9999.0
 49
9999.0
 74
     0
 49
0.0
 74
     0
  0
LTYPE
  5
C4B
330
E
100
AcDbSymbolTableRecord
100
AcDbLinetypeTableRecord
  2
AM_ISO08W050x2
 70
     0
  3
__ . __ . __ . __ . __ . __
 72
    65
 73
     4
 40
9.0
 49
6.0
 74
     0
 49
-0.75
 74
     0
 49
1.5
 74
     0
 49
-0.75
 74
     0
  0
LTYPE
  5
C4C
330
E
100
AcDbSymbolTableRecord
100
AcDbLinetypeTableRecord
  2
AM_ISO02W050x2
 70
     0
  3
 _ _ _ _ _ _ _ _ _ _ _ _
 72
    65
 73
     2
 40
3.75
 49
3.0
 74
     0
 49
-0.75
 74
     0
  0
LTYPE
  5
C4F
330
E
100
AcDbSymbolTableRecord
100
AcDbLinetypeTableRecord
  2
Amzigzag
 70
     0
  3
/\/-/\/-/\/-/\/-/\/-/\/
 72
    65
 73
     2
 40
11.0001
 49
0.0001
 74
     4
 75
   136
340
C4E
 46
0.04
 50
0.0
 44
0.0
 45
0.0
 49
-11.0
 74
     0
  0
LTYPE
  5
C50
330
E
100
AcDbSymbolTableRecord
100
AcDbLinetypeTableRecord
  2
CENTER2
 70
     0
  3
Center (.5x) ___ _ ___ _ ___ _ ___ _ ___ _ ___
 72
    65
 73
     4
 40
1.125
 49
0.75
 74
     0
 49
-0.125
 74
     0
 49
0.125
 74
     0
 49
-0.125
 74
     0
  0
LTYPE
  5
C51
330
E
100
AcDbSymbolTableRecord
100
AcDbLinetypeTableRecord
  2
HIDDEN2
 70
     0
  3
Hidden (.5x) _ _ _ _ _ _ _ _ _ _ _ _ _ _ _ _ _
 72
    65
 73
     2
 40
0.1875
 49
0.125
 74
     0
 49
-0.0625
 74
     0
  0
LTYPE
  5
C52
330
E
100
AcDbSymbolTableRecord
100
AcDbLinetypeTableRecord
  2
Amzigzag2
 70
     0
  3
/\/-/\/-/\/-/\/-/\/-/\/
 72
    65
 73
     2
 40
0.4401
 49
0.0001
 74
     4
 75
   136
340
C4E
 46
0.0016
 50
0.0
 44
0.0
 45
0.0
 49
-0.4400000000000001
 74
     0
  0
LTYPE
  5
C60
330
E
100
AcDbSymbolTableRecord
100
AcDbLinetypeTableRecord
  2
ACANSTGBM
 70
     0
  3
__ . . __ . .
 72
    65
 73
     6
 40
9.0
 49
4.0
 74
     0
 49
-1.0
 74
     0
 49
1.0
 74
     0
 49
-1.0
 74
     0
 49
1.0
 74
     0
 49
-1.0
 74
     0
  0
LTYPE
  5
C61
330
E
100
AcDbSymbolTableRecord
100
AcDbLinetypeTableRecord
  2
ACANSTGLM
 70
     0
  3
_ _ _ _ _
 72
    65
 73
     2
 40
3.0
 49
2.0
 74
     0
 49
-1.0
 74
     0
  0
LTYPE
  5
C6F
330
E
100
AcDbSymbolTableRecord
100
AcDbLinetypeTableRecord
  2
genzigzag
 70
     0
  3
/\/-/\/-/\/-/\/-/\/-/\/
 72
    65
 73
     2
 40
12.0001
 49
0.0001
 74
     4
 75
   135
340
C4E
 46
2.0
 50
0.0
 44
0.0
 45
0.0
 49
-12.0
 74
     0
  0
ENDTAB
  0
TABLE
  2
LAYER
  5
B
330
0
100
AcDbSymbolTable
 70
    17
  0
LAYER
  5
4
330
B
100
AcDbSymbolTableRecord
100
AcDbLayerTableRecord
  2
0
 70
     0
 62
     7
  6
CONTINUOUS
370
    -3
390
B74
  0
LAYER
  5
1B
330
B
100
AcDbSymbolTableRecord
100
AcDbLayerTableRecord
  2
MSD_2-0
 70
     0
 62
     7
  6
CONTINUOUS
370
    -3
390
B74
  0
LAYER
  5
30
330
B
100
AcDbSymbolTableRecord
100
AcDbLayerTableRecord
  2
MSD_2-4
 70
     0
 62
     3
  6
CONTINUOUS
370
    -3
390
B74
  0
LAYER
  5
43
330
B
100
AcDbSymbolTableRecord
100
AcDbLayerTableRecord
  2
MSD_2-3
 70
     0
 62
     6
  6
GEN3
370
    -3
390
B74
  0
LAYER
  5
35
330
B
100
AcDbSymbolTableRecord
100
AcDbLayerTableRecord
  2
MSD_2-7
 70
     0
 62
     4
  6
GEN7
370
    -3
390
B74
  0
LAYER
  5
14C
330
B
100
AcDbSymbolTableRecord
100
AcDbLayerTableRecord
  2
MSD_2-8
 70
     0
 62
     1
  6
CONTINUOUS
370
    -3
390
B74
  0
LAYER
  5
6D
330
B
100
AcDbSymbolTableRecord
100
AcDbLayerTableRecord
  2
MSD_2-4A
 70
     0
 62
     3
  6
GEN4A
370
    -3
390
B74
  0
LAYER
  5
996
330
B
100
AcDbSymbolTableRecord
100
AcDbLayerTableRecord
  2
GEV_FROZEN
 70
     1
 62
     7
  6
CONTINUOUS
370
    -3
390
B74
  0
LAYER
  5
997
330
B
100
AcDbSymbolTableRecord
100
AcDbLayerTableRecord
  2
-BHMU
 70
     0
 62
     7
  6
CONTINUOUS
370
    -3
390
B74
  0
LAYER
  5
998
330
B
100
AcDbSymbolTableRecord
100
AcDbLayerTableRecord
  2
BHMM
 70
     0
 62
     7
  6
CONTINUOUS
370
    -3
390
B74
  0
LAYER
  5
999
330
B
100
AcDbSymbolTableRecord
100
AcDbLayerTableRecord
  2
THLI
 70
     0
 62
     7
  6
CONTINUOUS
370
    -3
390
B74
  0
LAYER
  5
99A
330
B
100
AcDbSymbolTableRecord
100
AcDbLayerTableRecord
  2
CENN
 70
     0
 62
     7
  6
CONTINUOUS
370
    -3
390
B74
  0
LAYER
  5
9A9
330
B
100
AcDbSymbolTableRecord
100
AcDbLayerTableRecord
  2
MSD_2-3A
 70
     0
 62
     6
  6
GEN3A
370
    -3
390
B74
  0
LAYER
  5
9AB
330
B
100
AcDbSymbolTableRecord
100
AcDbLayerTableRecord
  2
MSD_2-7A
 70
     0
 62
     4
  6
GEN7A
370
    -3
390
B74
  0
LAYER
  5
B10
330
B
100
AcDbSymbolTableRecord
100
AcDbLayerTableRecord
  2
MSD_2-6
 70
     0
 62
     2
  6
CONTINUOUS
370
    -3
390
B74
  0
LAYER
  5
B18
330
B
100
AcDbSymbolTableRecord
100
AcDbLayerTableRecord
  2
INFO
 70
     0
 62
     4
  6
CONTINUOUS
370
    -3
390
B74
  0
LAYER
  5
B50
330
B
100
AcDbSymbolTableRecord
100
AcDbLayerTableRecord
  2
MSD_2-0N
 70
     0
 62
     7
  6
CONTINUOUS
370
    -3
390
B74
  0
ENDTAB
  0
TABLE
  2
STYLE
  5
C
330
0
100
AcDbSymbolTable
 70
     4
  0
STYLE
  5
D
330
C
100
AcDbSymbolTableRecord
100
AcDbTextStyleTableRecord
  2
STANDARD
 70
     0
 40
0.0
 41
1.0
 50
0.0
 71
     0
 42
3.5
  3
txt
  4

  0
STYLE
  5
C4E
330
C
100
AcDbSymbolTableRecord
100
AcDbTextStyleTableRecord
  2

 70
     1
 40
0.0
 41
1.0
 50
0.0
 71
     0
 42
3.5
  3
genltshp.shx
  4

  0
STYLE
  5
C5E
330
C
100
AcDbSymbolTableRecord
100
AcDbTextStyleTableRecord
  2
ACANSTS
 70
     0
 40
1.0
 41
1.0
 50
0.0
 71
     0
 42
3.5
  3
romans.shx
  4

  0
STYLE
  5
C5F
330
C
100
AcDbSymbolTableRecord
100
AcDbTextStyleTableRecord
  2
ACANSGDT
 70
     0
 40
0.0
 41
1.0
 50
0.0
 71
     0
 42
3.5
  3
amgdt.shx
  4

  0
ENDTAB
  0
TABLE
  2
VIEW
  5
10
330
0
100
AcDbSymbolTable
 70
     0
  0
ENDTAB
  0
TABLE
  2
UCS
  5
11
330
0
100
AcDbSymbolTable
 70
     0
  0
ENDTAB
  0
TABLE
  2
APPID
  5
14
330
0
100
AcDbSymbolTable
 70
    56
  0
APPID
  5
15
330
14
100
AcDbSymbolTableRecord
100
AcDbRegAppTableRecord
  2
ACAD
 70
     0
  0
APPID
  5
157
330
14
100
AcDbSymbolTableRecord
100
AcDbRegAppTableRecord
  2
GENIUS_GENOENT_13
 70
     0
  0
APPID
  5
155
330
14
100
AcDbSymbolTableRecord
100
AcDbRegAppTableRecord
  2
GENIUS_GENODEF_13
 70
     0
  0
APPID
  5
15B
330
14
100
AcDbSymbolTableRecord
100
AcDbRegAppTableRecord
  2
GENIUS_GENOBJ-N-HTC_13
 70
     0
  0
APPID
  5
15C
330
14
100
AcDbSymbolTableRecord
100
AcDbRegAppTableRecord
  2
GENIUS_GENHATCH_13
 70
     0
  0
APPID
  5
156
330
14
100
AcDbSymbolTableRecord
100
AcDbRegAppTableRecord
  2
GENIUS_GENOBJ_13
 70
     0
  0
APPID
  5
158
330
14
100
AcDbSymbolTableRecord
100
AcDbRegAppTableRecord
  2
GENIUS_GENOLIS_13
 70
     0
  0
APPID
  5
159
330
14
100
AcDbSymbolTableRecord
100
AcDbRegAppTableRecord
  2
GENIUS_GENOREF_13
 70
     0
  0
APPID
  5
15A
330
14
100
AcDbSymbolTableRecord
100
AcDbRegAppTableRecord
  2
GENIUS_GENOBJ-N-CRS_13
 70
     0
  0
APPID
  5
3D6
330
14
100
AcDbSymbolTableRecord
100
AcDbRegAppTableRecord
  2
GEV_VCCNULL_SWITCH_OFF
 70
     0
  0
APPID
  5
3D7
330
14
100
AcDbSymbolTableRecord
100
AcDbRegAppTableRecord
  2
GENIUS_GENDTOL_13
 70
     0
  0
APPID
  5
40A
330
14
100
AcDbSymbolTableRecord
100
AcDbRegAppTableRecord
  2
GENIUS_GENDREL_13
 70
     0
  0
APPID
  5
424
330
14
100
AcDbSymbolTableRecord
100
AcDbRegAppTableRecord
  2
GENIUS_GENCFG_13
 70
     0
1001
GENIUS_GENCFG0_13
1000
GEN@INFO_POS@XLATE
1001
GENIUS_GENCFG1_13
1000
GEN@LAYER@DEFS
1001
GENIUS_GENCFG2_13
1000
GEN@LAYER@ENTSORT
1001
GENIUS_GENCFG3_13
1000
GEN@OSWIZ
1001
GENIUS_GENCFG4_13
1000
GEN
1001
GENIUS_GEVCFG0_13
1000
GEV
1001
GENIUS_GEFCFG0_13
1000
GEF
  0
APPID
  5
425
330
14
100
AcDbSymbolTableRecord
100
AcDbRegAppTableRecord
  2
GENIUS_GENCFG0_13
 70
     0
1001
GENIUS_GENCFG_13
1071
886497173
1000
425
1000
GEN@INFO_POS@XLATE
1070
     7
1000
GenCfgObject
1000
GenCfgShort
1000
GenCfgReal
1000
GenCfgBool
1000
GenCfgString
1000
GenCfgDim
1000
GenCfgAttrInf
1000
INFOPOINTS
1070
     0
1002
{
1000
GENINF13
1070
     0
1002
{
1000
2GENINF
1070
     4
1000
2
1002
{
1002
}
1000
3GENINF
1070
     4
1000
3
1002
{
1002
}
1000
4GENINF
1070
     4
1000
4
1002
{
1002
}
1000
5GENINF
1070
     4
1000
5
1002
{
1002
}
1000
6GENINF
1070
     4
1000
6
1002
{
1002
}
1000
7GENINF
1070
     4
1000
7
1002
{
1002
}
1000
8GENINF
1070
     4
1000
8
1002
{
1002
}
1000
9GENINF
1070
     4
1000
9
1002
{
1002
}
1000
10GENINF
1070
     4
1000
10
1002
{
1002
}
1000
11GENINF
1070
     4
1000
11
1002
{
1002
}
1000
12GENINF
1070
     4
1000
12
1002
{
1002
}
1000
13GENINF
1070
     4
1000
13
1002
{
1002
}
1000
14GENINF
1070
     4
1000
14
1002
{
1002
}
1000
15GENINF
1070
     4
1000
15
1002
{
1002
}
1000
16GENINF
1070
     4
1000
16
1002
{
1002
}
1000
17GENINF
1070
     4
1000
17
1002
{
1002
}
1000
18GENINF
1070
     4
1000
18
1002
{
1002
}
1000
19GENINF
1070
     4
1000
19
1002
{
1002
}
1000
20GENINF
1070
     4
1000
20
1002
{
1002
}
1000
21GENINF
1070
     4
1000
21
1002
{
1002
}
1000
22GENINF
1070
     4
1000
22
1002
{
1002
}
1000
23GENINF
1070
     4
1000
23
1002
{
1002
}
1000
24GENINF
1070
     4
1000
24
1002
{
1002
}
1000
0GENINF
1070
     4
1000
0
1002
{
1002
}
1002
}
1000
GENINFO
1070
     0
1002
{
1000
3GENINF
1070
     4
1000
3
1002
{
1002
}
1000
4GENINF
1070
     4
1000
4
1002
{
1002
}
1000
5GENINF
1070
     4
1000
5
1002
{
1002
}
1000
6GENINF
1070
     4
1000
6
1002
{
1002
}
1000
7GENINF
1070
     4
1000
7
1002
{
1002
}
1000
8GENINF
1070
     4
1000
8
1002
{
1002
}
1000
9GENINF
1070
     4
1000
9
1002
{
1002
}
1000
10GENINF
1070
     4
1000
10
1002
{
1002
}
1000
11GENINF
1070
     4
1000
11
1002
{
1002
}
1000
12GENINF
1070
     4
1000
12
1002
{
1002
}
1000
13GENINF
1070
     4
1000
13
1002
{
1002
}
1000
14GENINF
1070
     4
1000
14
1002
{
1002
}
1000
15GENINF
1070
     4
1000
15
1002
{
1002
}
1000
16GENINF
1070
     4
1000
16
1002
{
1002
}
1000
17GENINF
1070
     4
1000
17
1002
{
1002
}
1000
18GENINF
1070
     4
1000
18
1002
{
1002
}
1000
19GENINF
1070
     4
1000
19
1002
{
1002
}
1000
20GENINF
1070
     4
1000
20
1002
{
1002
}
1000
21GENINF
1070
     4
1000
21
1002
{
1002
}
1000
22GENINF
1070
     4
1000
22
1002
{
1002
}
1002
}
1000
DININFO
1070
     0
1002
{
1000
ST-NAME1
1070
     4
1000
5
1002
{
1002
}
1000
ST-NAME2
1070
     4
1000
6
1002
{
1002
}
1000
ST-NORM1
1070
     4
1000
7
1002
{
1002
}
1000
ST-NORM2
1070
     4
1000
8
1002
{
1002
}
1000
ST-MAT1
1070
     4
1000
9
1002
{
1002
}
1000
ST-MAT2
1070
     4
1000
10
1002
{
1002
}
1002
}
1002
}
1000
POS_NUMBERS
1070
     0
1002
{
1000
GENPOS13
1070
     0
1002
{
1000
1GENPOS
1070
     4
1000
1
1002
{
1002
}
1000
2GENPOS
1070
     4
1000
2
1002
{
1002
}
1000
3GENPOS
1070
     4
1000
3
1002
{
1002
}
1000
4GENPOS
1070
     4
1000
4
1002
{
1002
}
1000
5GENPOS
1070
     4
1000
5
1002
{
1002
}
1000
6GENPOS
1070
     4
1000
6
1002
{
1002
}
1000
7GENPOS
1070
     4
1000
7
1002
{
1002
}
1000
8GENPOS
1070
     4
1000
8
1002
{
1002
}
1000
9GENPOS
1070
     4
1000
9
1002
{
1002
}
1000
10GENPOS
1070
     4
1000
10
1002
{
1002
}
1000
11GENPOS
1070
     4
1000
11
1002
{
1002
}
1000
12GENPOS
1070
     4
1000
12
1002
{
1002
}
1000
13GENPOS
1070
     4
1000
13
1002
{
1002
}
1000
14GENPOS
1070
     4
1000
14
1002
{
1002
}
1000
15GENPOS
1070
     4
1000
15
1002
{
1002
}
1000
16GENPOS
1070
     4
1000
16
1002
{
1002
}
1000
17GENPOS
1070
     4
1000
17
1002
{
1002
}
1000
18GENPOS
1070
     4
1000
18
1002
{
1002
}
1000
19GENPOS
1070
     4
1000
19
1002
{
1002
}
1000
20GENPOS
1070
     4
1000
20
1002
{
1002
}
1000
21GENPOS
1070
     4
1000
21
1002
{
1002
}
1000
22GENPOS
1070
     4
1000
22
1002
{
1002
}
1000
23GENPOS
1070
     4
1000
23
1002
{
1002
}
1000
24GENPOS
1070
     4
1000
24
1002
{
1002
}
1000
0GENPOS
1070
     4
1000
0
1002
{
1002
}
1002
}
1000
GENPOS
1070
     0
1002
{
1000
1GENPOS
1070
     4
1000
1
1002
{
1002
}
1000
2GENPOS
1070
     4
1000
2
1002
{
1002
}
1000
3GENPOS
1070
     4
1000
3
1002
{
1002
}
1000
4GENPOS
1070
     4
1000
4
1002
{
1002
}
1000
5GENPOS
1070
     4
1000
5
1002
{
1002
}
1000
6GENPOS
1070
     4
1000
6
1002
{
1002
}
1000
7GENPOS
1070
     4
1000
7
1002
{
1002
}
1000
8GENPOS
1070
     4
1000
8
1002
{
1002
}
1000
9GENPOS
1070
     4
1000
9
1002
{
1002
}
1000
10GENPOS
1070
     4
1000
10
1002
{
1002
}
1000
11GENPOS
1070
     4
1000
11
1002
{
1002
}
1000
12GENPOS
1070
     4
1000
12
1002
{
1002
}
1000
13GENPOS
1070
     4
1000
13
1002
{
1002
}
1000
14GENPOS
1070
     4
1000
14
1002
{
1002
}
1000
15GENPOS
1070
     4
1000
15
1002
{
1002
}
1000
16GENPOS
1070
     4
1000
16
1002
{
1002
}
1000
17GENPOS
1070
     4
1000
17
1002
{
1002
}
1000
18GENPOS
1070
     4
1000
18
1002
{
1002
}
1000
19GENPOS
1070
     4
1000
19
1002
{
1002
}
1000
20GENPOS
1070
     4
1000
20
1002
{
1002
}
1000
21GENPOS
1070
     4
1000
21
1002
{
1002
}
1000
22GENPOS
1070
     4
1000
22
1002
{
1002
}
1000
23GENPOS
1070
     4
1000
23
1002
{
1002
}
1002
}
1000
DIN985
1070
     0
1002
{
1000
POSITION
1070
     4
1000
1
1002
{
1002
}
1000
MENGE
1070
     4
1000
2
1002
{
1002
}
1000
BLATT
1070
     4
1000
3
1002
{
1002
}
1000
BENENN
1070
     4
1000
5
1002
{
1002
}
1000
BENENN2
1070
     4
1000
6
1002
{
1002
}
1000
NORM
1070
     4
1000
7
1002
{
1002
}
1000
NORM2
1070
     4
1000
8
1002
{
1002
}
1000
WERKSTOFF
1070
     4
1000
9
1002
{
1002
}
1000
WERKSTOFF2
1070
     4
1000
10
1002
{
1002
}
1002
}
1000
DIN986
1070
     0
1002
{
1000
POSITION
1070
     4
1000
1
1002
{
1002
}
1000
MENGE
1070
     4
1000
2
1002
{
1002
}
1000
BLATT
1070
     4
1000
3
1002
{
1002
}
1000
BENENN
1070
     4
1000
5
1002
{
1002
}
1000
BENENN2
1070
     4
1000
6
1002
{
1002
}
1000
NORM
1070
     4
1000
7
1002
{
1002
}
1000
NORM2
1070
     4
1000
8
1002
{
1002
}
1000
WERKSTOFF
1070
     4
1000
9
1002
{
1002
}
1000
WERKSTOFF2
1070
     4
1000
10
1002
{
1002
}
1002
}
1000
DIN987
1070
     0
1002
{
1000
POSITION
1070
     4
1000
1
1002
{
1002
}
1000
MENGE
1070
     4
1000
2
1002
{
1002
}
1000
BLATT
1070
     4
1000
3
1002
{
1002
}
1000
BENENN
1070
     4
1000
5
1002
{
1002
}
1000
BENENN2
1070
     4
1000
6
1002
{
1002
}
1000
NORM
1070
     4
1000
7
1002
{
1002
}
1000
NORM2
1070
     4
1000
8
1002
{
1002
}
1000
WERKSTOFF
1070
     4
1000
9
1002
{
1002
}
1000
WERKSTOFF2
1070
     4
1000
10
1002
{
1002
}
1002
}
1002
}
  0
APPID
  5
426
330
14
100
AcDbSymbolTableRecord
100
AcDbRegAppTableRecord
  2
GENIUS_GENCFG1_13
 70
     0
1001
GENIUS_GENCFG_13
1071
886497173
1000
426
1000
GEN@LAYER@DEFS
1070
     9
1000
GenCfgObject
1000
GenCfgShort
1000
GenCfgReal
1000
GenCfgBool
1000
GenCfgString
1000
GenCfgDim
1000
GenCfgAttrInf
1000
GenCfgLaySection
1000
GenCfgLayer
1000
Basic
1070
     0
1002
{
1000
0
1070
     8
1000
0
1002
{
1000
Color
1070
     1
1070
     7
1002
{
1002
}
1000
LType
1070
     4
1000
CONTINUOUS
1002
{
1002
}
1000
Base
1070
     3
1070
     0
1002
{
1002
}
1002
}
1000
1
1070
     8
1000
1
1002
{
1000
Color
1070
     1
1070
    14
1002
{
1002
}
1000
LType
1070
     4
1000
CONTINUOUS
1002
{
1002
}
1000
Base
1070
     3
1070
     0
1002
{
1002
}
1002
}
1000
2
1070
     8
1000
2
1002
{
1000
Color
1070
     1
1070
     5
1002
{
1002
}
1000
LType
1070
     4
1000
CONTINUOUS
1002
{
1002
}
1000
Base
1070
     3
1070
     0
1002
{
1002
}
1002
}
1000
3
1070
     8
1000
3
1002
{
1000
Color
1070
     1
1070
     6
1002
{
1002
}
1000
LType
1070
     4
1000
GEN3
1002
{
1002
}
1000
Base
1070
     3
1070
     0
1002
{
1002
}
1002
}
1000
4
1070
     8
1000
4
1002
{
1000
Color
1070
     1
1070
     3
1002
{
1002
}
1000
LType
1070
     4
1000
CONTINUOUS
1002
{
1002
}
1000
Base
1070
     3
1070
     0
1002
{
1002
}
1002
}
1000
5
1070
     8
1000
5
1002
{
1000
Color
1070
     1
1070
     3
1002
{
1002
}
1000
LType
1070
     4
1000
CONTINUOUS
1002
{
1002
}
1000
Base
1070
     3
1070
     0
1002
{
1002
}
1002
}
1000
6
1070
     8
1000
6
1002
{
1000
Color
1070
     1
1070
     2
1002
{
1002
}
1000
LType
1070
     4
1000
CONTINUOUS
1002
{
1002
}
1000
Base
1070
     3
1070
     0
1002
{
1002
}
1002
}
1000
7
1070
     8
1000
7
1002
{
1000
Color
1070
     1
1070
     4
1002
{
1002
}
1000
LType
1070
     4
1000
GEN7
1002
{
1002
}
1000
Base
1070
     3
1070
     0
1002
{
1002
}
1002
}
1000
8
1070
     8
1000
8
1002
{
1000
Color
1070
     1
1070
     1
1002
{
1002
}
1000
LType
1070
     4
1000
CONTINUOUS
1002
{
1002
}
1000
Base
1070
     3
1070
     0
1002
{
1002
}
1002
}
1000
3A
1070
     8
1000
3A
1002
{
1000
Color
1070
     1
1070
     6
1002
{
1002
}
1000
LType
1070
     4
1000
GEN3A
1002
{
1002
}
1000
Base
1070
     3
1070
     0
1002
{
1002
}
1002
}
1000
7A
1070
     8
1000
7A
1002
{
1000
Color
1070
     1
1070
     4
1002
{
1002
}
1000
LType
1070
     4
1000
GEN7A
1002
{
1002
}
1000
Base
1070
     3
1070
     0
1002
{
1002
}
1002
}
1000
2A
1070
     8
1000
2A
1002
{
1000
Color
1070
     1
1070
     7
1002
{
1002
}
1000
LType
1070
     4
1000
GEN7
1002
{
1002
}
1000
Base
1070
     3
1070
     0
1002
{
1002
}
1002
}
1000
4A
1070
     8
1000
4A
1002
{
1000
Color
1070
     1
1070
     3
1002
{
1002
}
1000
LType
1070
     4
1000
GEN4A
1002
{
1002
}
1000
Base
1070
     3
1070
     0
1002
{
1002
}
1002
}
1000
9
1070
     8
1000
9
1002
{
1000
Color
1070
     1
1070
   253
1002
{
1002
}
1000
LType
1070
     4
1000
CONTINUOUS
1002
{
1002
}
1000
Base
1070
     3
1070
     0
1002
{
1002
}
1002
}
1002
}
1000
Standard
1070
     0
1002
{
1000
0N
1070
     8
1000
0N
1002
{
1000
Color
1070
     1
1070
     7
1002
{
1002
}
1000
LType
1070
     4
1000
CONTINUOUS
1002
{
1002
}
1000
Base
1070
     3
1070
     0
1002
{
1002
}
1002
}
1000
1N
1070
     8
1000
1N
1002
{
1000
Color
1070
     1
1070
    14
1002
{
1002
}
1000
LType
1070
     4
1000
CONTINUOUS
1002
{
1002
}
1000
Base
1070
     3
1070
     0
1002
{
1002
}
1002
}
1000
2N
1070
     8
1000
2N
1002
{
1000
Color
1070
     1
1070
     5
1002
{
1002
}
1000
LType
1070
     4
1000
CONTINUOUS
1002
{
1002
}
1000
Base
1070
     3
1070
     0
1002
{
1002
}
1002
}
1000
3N
1070
     8
1000
3N
1002
{
1000
Color
1070
     1
1070
     6
1002
{
1002
}
1000
LType
1070
     4
1000
GEN3
1002
{
1002
}
1000
Base
1070
     3
1070
     0
1002
{
1002
}
1002
}
1000
4N
1070
     8
1000
4N
1002
{
1000
Color
1070
     1
1070
     3
1002
{
1002
}
1000
LType
1070
     4
1000
CONTINUOUS
1002
{
1002
}
1000
Base
1070
     3
1070
     0
1002
{
1002
}
1002
}
1000
5N
1070
     8
1000
5N
1002
{
1000
Color
1070
     1
1070
     3
1002
{
1002
}
1000
LType
1070
     4
1000
CONTINUOUS
1002
{
1002
}
1000
Base
1070
     3
1070
     0
1002
{
1002
}
1002
}
1000
6N
1070
     8
1000
6N
1002
{
1000
Color
1070
     1
1070
     2
1002
{
1002
}
1000
LType
1070
     4
1000
CONTINUOUS
1002
{
1002
}
1000
Base
1070
     3
1070
     0
1002
{
1002
}
1002
}
1000
7N
1070
     8
1000
7N
1002
{
1000
Color
1070
     1
1070
     4
1002
{
1002
}
1000
LType
1070
     4
1000
GEN7
1002
{
1002
}
1000
Base
1070
     3
1070
     0
1002
{
1002
}
1002
}
1000
8N
1070
     8
1000
8N
1002
{
1000
Color
1070
     1
1070
     1
1002
{
1002
}
1000
LType
1070
     4
1000
CONTINUOUS
1002
{
1002
}
1000
Base
1070
     3
1070
     0
1002
{
1002
}
1002
}
1000
3AN
1070
     8
1000
3AN
1002
{
1000
Color
1070
     1
1070
     6
1002
{
1002
}
1000
LType
1070
     4
1000
GEN3A
1002
{
1002
}
1000
Base
1070
     3
1070
     0
1002
{
1002
}
1002
}
1000
7AN
1070
     8
1000
7AN
1002
{
1000
Color
1070
     1
1070
     4
1002
{
1002
}
1000
LType
1070
     4
1000
GEN7A
1002
{
1002
}
1000
Base
1070
     3
1070
     0
1002
{
1002
}
1002
}
1000
2AN
1070
     8
1000
2AN
1002
{
1000
Color
1070
     1
1070
     7
1002
{
1002
}
1000
LType
1070
     4
1000
GEN7
1002
{
1002
}
1000
Base
1070
     3
1070
     0
1002
{
1002
}
1002
}
1000
4AN
1070
     8
1000
4AN
1002
{
1000
Color
1070
     1
1070
     3
1002
{
1002
}
1000
LType
1070
     4
1000
GEN4A
1002
{
1002
}
1000
Base
1070
     3
1070
     0
1002
{
1002
}
1002
}
1000
9N
1070
     8
1000
9N
1002
{
1000
Color
1070
     1
1070
   253
1002
{
1002
}
1000
LType
1070
     4
1000
CONTINUOUS
1002
{
1002
}
1000
Base
1070
     3
1070
     0
1002
{
1002
}
1002
}
1002
}
1000
Extra
1070
     0
1002
{
1000
Klin
1070
     8
1000
KLIN
1002
{
1000
Color
1070
     1
1070
     1
1002
{
1002
}
1000
LType
1070
     4
1000
CONTINUOUS
1002
{
1002
}
1000
Base
1070
     3
1070
     1
1002
{
1002
}
1002
}
1000
Info
1070
     8
1000
INFO
1002
{
1000
Color
1070
     1
1070
     4
1002
{
1002
}
1000
LType
1070
     4
1000
CONTINUOUS
1002
{
1002
}
1000
Base
1070
     3
1070
     1
1002
{
1002
}
1002
}
1000
Rahm2
1070
     8
1000
RAHM2
1002
{
1000
Color
1070
     1
1070
     1
1002
{
1002
}
1000
LType
1070
     4
1000
CONTINUOUS
1002
{
1002
}
1000
Base
1070
     3
1070
     1
1002
{
1002
}
1002
}
1000
Rahm3
1070
     8
1000
RAHM3
1002
{
1000
Color
1070
     1
1070
     2
1002
{
1002
}
1000
LType
1070
     4
1000
CONTINUOUS
1002
{
1002
}
1000
Base
1070
     3
1070
     1
1002
{
1002
}
1002
}
1000
Rahm5
1070
     8
1000
RAHM5
1002
{
1000
Color
1070
     1
1070
     7
1002
{
1002
}
1000
LType
1070
     4
1000
CONTINUOUS
1002
{
1002
}
1000
Base
1070
     3
1070
     1
1002
{
1002
}
1002
}
1000
View
1070
     8
1000
VIEW
1002
{
1000
Color
1070
     1
1070
     1
1002
{
1002
}
1000
LType
1070
     4
1000
CONTINUOUS
1002
{
1002
}
1000
Base
1070
     3
1070
     1
1002
{
1002
}
1002
}
1000
Behind
1070
     8
1000
BEHIND
1002
{
1000
Color
1070
     1
1070
   253
1002
{
1002
}
1000
LType
1070
     4
1000
CONTINUOUS
1002
{
1002
}
1000
Base
1070
     3
1070
     1
1002
{
1002
}
1002
}
1002
}
  0
APPID
  5
427
330
14
100
AcDbSymbolTableRecord
100
AcDbRegAppTableRecord
  2
GENIUS_GENCFG2_13
 70
     0
1001
GENIUS_GENCFG_13
1071
886497173
1000
427
1000
GEN@LAYER@ENTSORT
1070
    10
1000
GenCfgObject
1000
GenCfgShort
1000
GenCfgReal
1000
GenCfgBool
1000
GenCfgString
1000
GenCfgDim
1000
GenCfgAttrInf
1000
GenCfgLaySection
1000
GenCfgLayer
1000
GenCfgEntSort
1000
ALTR
1070
     9
1000
4
1002
{
1000
Class
1070
     4
1000

1002
{
1002
}
1000
Color
1070
     1
1070
     7
1002
{
1002
}
1000
LType
1070
     4
1000
GEN3A
1002
{
1002
}
1002
}
1000
BELI
1070
     9
1000
4
1002
{
1000
Class
1070
     4
1000

1002
{
1002
}
1000
Color
1070
     1
1070
   256
1002
{
1002
}
1000
LType
1070
     4
1000
BYLAYER
1002
{
1002
}
1002
}
1000
BHNV
1070
     9
1000
9
1002
{
1000
Class
1070
     4
1000
INV
1002
{
1002
}
1000
Color
1070
     1
1070
   256
1002
{
1002
}
1000
LType
1070
     4
1000
BYLAYER
1002
{
1002
}
1002
}
1000
BHNVS
1070
     9
1000
BEHIND
1002
{
1000
Class
1070
     4
1000
INV
1002
{
1002
}
1000
Color
1070
     1
1070
   256
1002
{
1002
}
1000
LType
1070
     4
1000
BYLAYER
1002
{
1002
}
1002
}
1000
BLID
1070
     9
1000
4A
1002
{
1000
Class
1070
     4
1000

1002
{
1002
}
1000
Color
1070
     1
1070
   256
1002
{
1002
}
1000
LType
1070
     4
1000
BYLAYER
1002
{
1002
}
1002
}
1000
BOAP
1070
     9
1000
4A
1002
{
1000
Class
1070
     4
1000

1002
{
1002
}
1000
Color
1070
     1
1070
   256
1002
{
1002
}
1000
LType
1070
     4
1000
BYLAYER
1002
{
1002
}
1002
}
1000
BOR2
1070
     9
1000
RAHM2
1002
{
1000
Class
1070
     4
1000
SPZ,SYM
1002
{
1002
}
1000
Color
1070
     1
1070
   256
1002
{
1002
}
1000
LType
1070
     4
1000
BYLAYER
1002
{
1002
}
1002
}
1000
BOR3
1070
     9
1000
RAHM3
1002
{
1000
Class
1070
     4
1000
SPZ,SYM
1002
{
1002
}
1000
Color
1070
     1
1070
   256
1002
{
1002
}
1000
LType
1070
     4
1000
BYLAYER
1002
{
1002
}
1002
}
1000
BOR5
1070
     9
1000
RAHM5
1002
{
1000
Class
1070
     4
1000
SPZ,SYM
1002
{
1002
}
1000
Color
1070
     1
1070
   256
1002
{
1002
}
1000
LType
1070
     4
1000
BYLAYER
1002
{
1002
}
1002
}
1000
BOR7
1070
     9
1000
RAHM5
1002
{
1000
Class
1070
     4
1000
SPZ,SYM
1002
{
1002
}
1000
Color
1070
     1
1070
     7
1002
{
1002
}
1000
LType
1070
     4
1000
CONTINUOUS
1002
{
1002
}
1002
}
1000
BPAP
1070
     9
1000
4A
1002
{
1000
Class
1070
     4
1000

1002
{
1002
}
1000
Color
1070
     1
1070
   256
1002
{
1002
}
1000
LType
1070
     4
1000
BYLAYER
1002
{
1002
}
1002
}
1000
BPEX
1070
     9
1000
4A
1002
{
1000
Class
1070
     4
1000

1002
{
1002
}
1000
Color
1070
     1
1070
   256
1002
{
1002
}
1000
LType
1070
     4
1000
BYLAYER
1002
{
1002
}
1002
}
1000
BTDI
1070
     9
1000
5
1002
{
1000
Class
1070
     4
1000
DIM,SYM
1002
{
1002
}
1000
Color
1070
     1
1070
   256
1002
{
1002
}
1000
LType
1070
     4
1000
BYLAYER
1002
{
1002
}
1002
}
1000
CAL2
1070
     9
1000
4
1002
{
1000
Class
1070
     4
1000
SYM
1002
{
1002
}
1000
Color
1070
     1
1070
   256
1002
{
1002
}
1000
LType
1070
     4
1000
BYLAYER
1002
{
1002
}
1002
}
1000
CAL3
1070
     9
1000
4
1002
{
1000
Class
1070
     4
1000
SYM
1002
{
1002
}
1000
Color
1070
     1
1070
     2
1002
{
1002
}
1000
LType
1070
     4
1000
BYLAYER
1002
{
1002
}
1002
}
1000
CAL5
1070
     9
1000
4
1002
{
1000
Class
1070
     4
1000
SYM
1002
{
1002
}
1000
Color
1070
     1
1070
     7
1002
{
1002
}
1000
LType
1070
     4
1000
BYLAYER
1002
{
1002
}
1002
}
1000
CAL7
1070
     9
1000
4
1002
{
1000
Class
1070
     4
1000
SYM
1002
{
1002
}
1000
Color
1070
     1
1070
     5
1002
{
1002
}
1000
LType
1070
     4
1000
BYLAYER
1002
{
1002
}
1002
}
1000
CENN
1070
     9
1000
7A
1002
{
1000
Class
1070
     4
1000
CEN
1002
{
1002
}
1000
Color
1070
     1
1070
   256
1002
{
1002
}
1000
LType
1070
     4
1000
BYLAYER
1002
{
1002
}
1002
}
1000
CENW
1070
     9
1000
7
1002
{
1000
Class
1070
     4
1000
CEN
1002
{
1002
}
1000
Color
1070
     1
1070
   256
1002
{
1002
}
1000
LType
1070
     4
1000
BYLAYER
1002
{
1002
}
1002
}
1000
CLIN
1070
     9
1000
KLIN
1002
{
1000
Class
1070
     4
1000
SPZ
1002
{
1002
}
1000
Color
1070
     1
1070
   256
1002
{
1002
}
1000
LType
1070
     4
1000
BYLAYER
1002
{
1002
}
1002
}
1000
CON1
1070
     9
1000
0
1002
{
1000
Class
1070
     4
1000
CON,BGD
1002
{
1002
}
1000
Color
1070
     1
1070
   256
1002
{
1002
}
1000
LType
1070
     4
1000
BYLAYER
1002
{
1002
}
1002
}
1000
CON2
1070
     9
1000
1
1002
{
1000
Class
1070
     4
1000
CON,BGD
1002
{
1002
}
1000
Color
1070
     1
1070
   256
1002
{
1002
}
1000
LType
1070
     4
1000
BYLAYER
1002
{
1002
}
1002
}
1000
CON3
1070
     9
1000
2
1002
{
1000
Class
1070
     4
1000
CON,BGD
1002
{
1002
}
1000
Color
1070
     1
1070
   256
1002
{
1002
}
1000
LType
1070
     4
1000
BYLAYER
1002
{
1002
}
1002
}
1000
CON4
1070
     9
1000
2
1002
{
1000
Class
1070
     4
1000
CON,BGD
1002
{
1002
}
1000
Color
1070
     1
1070
   256
1002
{
1002
}
1000
LType
1070
     4
1000
BYLAYER
1002
{
1002
}
1002
}
1000
DERP
1070
     9
1000
4
1002
{
1000
Class
1070
     4
1000

1002
{
1002
}
1000
Color
1070
     1
1070
   256
1002
{
1002
}
1000
LType
1070
     4
1000
BYLAYER
1002
{
1002
}
1002
}
1000
DETA
1070
     9
1000
4
1002
{
1000
Class
1070
     4
1000

1002
{
1002
}
1000
Color
1070
     1
1070
   256
1002
{
1002
}
1000
LType
1070
     4
1000
BYLAYER
1002
{
1002
}
1002
}
1000
DIAG
1070
     9
1000
5
1002
{
1000
Class
1070
     4
1000
SYM
1002
{
1002
}
1000
Color
1070
     1
1070
   256
1002
{
1002
}
1000
LType
1070
     4
1000
BYLAYER
1002
{
1002
}
1002
}
1000
DILI
1070
     9
1000
5
1002
{
1000
Class
1070
     4
1000
DIM,SYM
1002
{
1002
}
1000
Color
1070
     1
1070
   256
1002
{
1002
}
1000
LType
1070
     4
1000
BYLAYER
1002
{
1002
}
1002
}
1000
DITX
1070
     9
1000
5
1002
{
1000
Class
1070
     4
1000
DIM,SYM
1002
{
1002
}
1000
Color
1070
     1
1070
     2
1002
{
1002
}
1000
LType
1070
     4
1000
CONTINUOUS
1002
{
1002
}
1002
}
1000
DITO2
1070
     9
1000
5
1002
{
1000
Class
1070
     4
1000
DIM,SYM
1002
{
1002
}
1000
Color
1070
     1
1070
     3
1002
{
1002
}
1000
LType
1070
     4
1000
BYLAYER
1002
{
1002
}
1002
}
1000
DITO3
1070
     9
1000
5
1002
{
1000
Class
1070
     4
1000
DIM,SYM
1002
{
1002
}
1000
Color
1070
     1
1070
     2
1002
{
1002
}
1000
LType
1070
     4
1000
BYLAYER
1002
{
1002
}
1002
}
1000
DIXL
1070
     9
1000
5
1002
{
1000
Class
1070
     4
1000
DIM,SYM
1002
{
1002
}
1000
Color
1070
     1
1070
   256
1002
{
1002
}
1000
LType
1070
     4
1000
BYLAYER
1002
{
1002
}
1002
}
1000
EXMP
1070
     9
1000
4A
1002
{
1000
Class
1070
     4
1000

1002
{
1002
}
1000
Color
1070
     1
1070
   256
1002
{
1002
}
1000
LType
1070
     4
1000
BYLAYER
1002
{
1002
}
1002
}
1000
FEMN
1070
     9
1000
8
1002
{
1000
Class
1070
     4
1000

1002
{
1002
}
1000
Color
1070
     1
1070
   256
1002
{
1002
}
1000
LType
1070
     4
1000
BYLAYER
1002
{
1002
}
1002
}
1000
FEMPN
1070
     9
1000
8
1002
{
1000
Class
1070
     4
1000
SYM
1002
{
1002
}
1000
Color
1070
     1
1070
     3
1002
{
1002
}
1000
LType
1070
     4
1000
BYLAYER
1002
{
1002
}
1002
}
1000
FEMSP
1070
     9
1000
4A
1002
{
1000
Class
1070
     4
1000

1002
{
1002
}
1000
Color
1070
     1
1070
   256
1002
{
1002
}
1000
LType
1070
     4
1000
CONTINUOUS
1002
{
1002
}
1002
}
1000
FEMST
1070
     9
1000
4A
1002
{
1000
Class
1070
     4
1000
SYM
1002
{
1002
}
1000
Color
1070
     1
1070
     3
1002
{
1002
}
1000
LType
1070
     4
1000
BYLAYER
1002
{
1002
}
1002
}
1000
FEMVN
1070
     9
1000
2
1002
{
1000
Class
1070
     4
1000
CON
1002
{
1002
}
1000
Color
1070
     1
1070
   256
1002
{
1002
}
1000
LType
1070
     4
1000
BYLAYER
1002
{
1002
}
1002
}
1000
FEMVT
1070
     9
1000
2
1002
{
1000
Class
1070
     4
1000
SYM
1002
{
1002
}
1000
Color
1070
     1
1070
     3
1002
{
1002
}
1000
LType
1070
     4
1000
BYLAYER
1002
{
1002
}
1002
}
1000
FLAT
1070
     9
1000
0
1002
{
1000
Class
1070
     4
1000

1002
{
1002
}
1000
Color
1070
     1
1070
   256
1002
{
1002
}
1000
LType
1070
     4
1000
BYLAYER
1002
{
1002
}
1002
}
1000
FRAR
1070
     9
1000
4A
1002
{
1000
Class
1070
     4
1000

1002
{
1002
}
1000
Color
1070
     1
1070
   256
1002
{
1002
}
1000
LType
1070
     4
1000
BYLAYER
1002
{
1002
}
1002
}
1000
GRLI
1070
     9
1000
5
1002
{
1000
Class
1070
     4
1000
SYM
1002
{
1002
}
1000
Color
1070
     1
1070
   256
1002
{
1002
}
1000
LType
1070
     4
1000
BYLAYER
1002
{
1002
}
1002
}
1000
GVLI
1070
     9
1000
4A
1002
{
1000
Class
1070
     4
1000

1002
{
1002
}
1000
Color
1070
     1
1070
   256
1002
{
1002
}
1000
LType
1070
     4
1000
BYLAYER
1002
{
1002
}
1002
}
1000
HATC
1070
     9
1000
8
1002
{
1000
Class
1070
     4
1000
HTC,BGD
1002
{
1002
}
1000
Color
1070
     1
1070
   256
1002
{
1002
}
1000
LType
1070
     4
1000
BYLAYER
1002
{
1002
}
1002
}
1000
HIDN
1070
     9
1000
3A
1002
{
1000
Class
1070
     4
1000
HID,BGD
1002
{
1002
}
1000
Color
1070
     1
1070
   256
1002
{
1002
}
1000
LType
1070
     4
1000
BYLAYER
1002
{
1002
}
1002
}
1000
HIDW
1070
     9
1000
3
1002
{
1000
Class
1070
     4
1000
HID,BGD
1002
{
1002
}
1000
Color
1070
     1
1070
   256
1002
{
1002
}
1000
LType
1070
     4
1000
BYLAYER
1002
{
1002
}
1002
}
1000
HLIN
1070
     9
1000
4
1002
{
1000
Class
1070
     4
1000
BGD
1002
{
1002
}
1000
Color
1070
     1
1070
   256
1002
{
1002
}
1000
LType
1070
     4
1000
BYLAYER
1002
{
1002
}
1002
}
1000
HOCN
1070
     9
1000
7A
1002
{
1000
Class
1070
     4
1000
CEN
1002
{
1002
}
1000
Color
1070
     1
1070
   256
1002
{
1002
}
1000
LType
1070
     4
1000
BYLAYER
1002
{
1002
}
1002
}
1000
HOCW
1070
     9
1000
7
1002
{
1000
Class
1070
     4
1000
CEN
1002
{
1002
}
1000
Color
1070
     1
1070
   256
1002
{
1002
}
1000
LType
1070
     4
1000
BYLAYER
1002
{
1002
}
1002
}
1000
INFO
1070
     9
1000
INFO
1002
{
1000
Class
1070
     4
1000
SPZ,SYM
1002
{
1002
}
1000
Color
1070
     1
1070
   256
1002
{
1002
}
1000
LType
1070
     4
1000
BYLAYER
1002
{
1002
}
1002
}
1000
LADI
1070
     9
1000
4
1002
{
1000
Class
1070
     4
1000
BGD
1002
{
1002
}
1000
Color
1070
     1
1070
   256
1002
{
1002
}
1000
LType
1070
     4
1000
BYLAYER
1002
{
1002
}
1002
}
1000
LEAD
1070
     9
1000
5
1002
{
1000
Class
1070
     4
1000
SYM
1002
{
1002
}
1000
Color
1070
     1
1070
   256
1002
{
1002
}
1000
LType
1070
     4
1000
BYLAYER
1002
{
1002
}
1002
}
1000
N_BHNV
1070
     9
1000
9N
1002
{
1000
Class
1070
     4
1000
INV
1002
{
1002
}
1000
Color
1070
     1
1070
   256
1002
{
1002
}
1000
LType
1070
     4
1000
BYLAYER
1002
{
1002
}
1002
}
1000
N_CON1
1070
     9
1000
0N
1002
{
1000
Class
1070
     4
1000
CON,BGD
1002
{
1002
}
1000
Color
1070
     1
1070
   256
1002
{
1002
}
1000
LType
1070
     4
1000
BYLAYER
1002
{
1002
}
1002
}
1000
N_CON2
1070
     9
1000
1N
1002
{
1000
Class
1070
     4
1000
CON,BGD
1002
{
1002
}
1000
Color
1070
     1
1070
   256
1002
{
1002
}
1000
LType
1070
     4
1000
BYLAYER
1002
{
1002
}
1002
}
1000
N_CON3
1070
     9
1000
2N
1002
{
1000
Class
1070
     4
1000
CON,BGD
1002
{
1002
}
1000
Color
1070
     1
1070
   256
1002
{
1002
}
1000
LType
1070
     4
1000
BYLAYER
1002
{
1002
}
1002
}
1000
N_CON4
1070
     9
1000
2N
1002
{
1000
Class
1070
     4
1000
CON,BGD
1002
{
1002
}
1000
Color
1070
     1
1070
   256
1002
{
1002
}
1000
LType
1070
     4
1000
BYLAYER
1002
{
1002
}
1002
}
1000
N_CENN
1070
     9
1000
7AN
1002
{
1000
Class
1070
     4
1000
CEN
1002
{
1002
}
1000
Color
1070
     1
1070
   256
1002
{
1002
}
1000
LType
1070
     4
1000
BYLAYER
1002
{
1002
}
1002
}
1000
N_CENW
1070
     9
1000
7N
1002
{
1000
Class
1070
     4
1000
CEN
1002
{
1002
}
1000
Color
1070
     1
1070
   256
1002
{
1002
}
1000
LType
1070
     4
1000
BYLAYER
1002
{
1002
}
1002
}
1000
N_DILI
1070
     9
1000
5N
1002
{
1000
Class
1070
     4
1000
DIM,SYM
1002
{
1002
}
1000
Color
1070
     1
1070
   256
1002
{
1002
}
1000
LType
1070
     4
1000
BYLAYER
1002
{
1002
}
1002
}
1000
N_DITX
1070
     9
1000
5N
1002
{
1000
Class
1070
     4
1000
DIM,SYM
1002
{
1002
}
1000
Color
1070
     1
1070
     2
1002
{
1002
}
1000
LType
1070
     4
1000
CONTINUOUS
1002
{
1002
}
1002
}
1000
N_DIXL
1070
     9
1000
5N
1002
{
1000
Class
1070
     4
1000
DIM,SYM
1002
{
1002
}
1000
Color
1070
     1
1070
   256
1002
{
1002
}
1000
LType
1070
     4
1000
BYLAYER
1002
{
1002
}
1002
}
1000
N_HATC
1070
     9
1000
8N
1002
{
1000
Class
1070
     4
1000
HTC,BGD
1002
{
1002
}
1000
Color
1070
     1
1070
   256
1002
{
1002
}
1000
LType
1070
     4
1000
BYLAYER
1002
{
1002
}
1002
}
1000
N_HIDN
1070
     9
1000
3AN
1002
{
1000
Class
1070
     4
1000
HID,BGD
1002
{
1002
}
1000
Color
1070
     1
1070
   256
1002
{
1002
}
1000
LType
1070
     4
1000
BYLAYER
1002
{
1002
}
1002
}
1000
N_HIDW
1070
     9
1000
3N
1002
{
1000
Class
1070
     4
1000
HID,BGD
1002
{
1002
}
1000
Color
1070
     1
1070
   256
1002
{
1002
}
1000
LType
1070
     4
1000
BYLAYER
1002
{
1002
}
1002
}
1000
N_PHAN
1070
     9
1000
4AN
1002
{
1000
Class
1070
     4
1000

1002
{
1002
}
1000
Color
1070
     1
1070
   256
1002
{
1002
}
1000
LType
1070
     4
1000
BYLAYER
1002
{
1002
}
1002
}
1000
N_POSL
1070
     9
1000
5N
1002
{
1000
Class
1070
     4
1000
SYM
1002
{
1002
}
1000
Color
1070
     1
1070
   256
1002
{
1002
}
1000
LType
1070
     4
1000
BYLAYER
1002
{
1002
}
1002
}
1000
N_TCON
1070
     9
1000
0N
1002
{
1000
Class
1070
     4
1000
CON,BGD
1002
{
1002
}
1000
Color
1070
     1
1070
   256
1002
{
1002
}
1000
LType
1070
     4
1000
BYLAYER
1002
{
1002
}
1002
}
1000
N_THLI
1070
     9
1000
4N
1002
{
1000
Class
1070
     4
1000
BGD
1002
{
1002
}
1000
Color
1070
     1
1070
   256
1002
{
1002
}
1000
LType
1070
     4
1000
BYLAYER
1002
{
1002
}
1002
}
1000
N_TLEN
1070
     9
1000
0N
1002
{
1000
Class
1070
     4
1000
CON,BGD
1002
{
1002
}
1000
Color
1070
     1
1070
   256
1002
{
1002
}
1000
LType
1070
     4
1000
BYLAYER
1002
{
1002
}
1002
}
1000
N_TXT3
1070
     9
1000
6N
1002
{
1000
Class
1070
     4
1000
SYM
1002
{
1002
}
1000
Color
1070
     1
1070
   256
1002
{
1002
}
1000
LType
1070
     4
1000
BYLAYER
1002
{
1002
}
1002
}
1000
N_VPLI
1070
     9
1000
2AN
1002
{
1000
Class
1070
     4
1000

1002
{
1002
}
1000
Color
1070
     1
1070
   256
1002
{
1002
}
1000
LType
1070
     4
1000
BYLAYER
1002
{
1002
}
1002
}
1000
PAL2
1070
     9
1000
RAHM2
1002
{
1000
Class
1070
     4
1000
SPZ,SYM
1002
{
1002
}
1000
Color
1070
     1
1070
   256
1002
{
1002
}
1000
LType
1070
     4
1000
BYLAYER
1002
{
1002
}
1002
}
1000
PAL3
1070
     9
1000
RAHM3
1002
{
1000
Class
1070
     4
1000
SPZ,SYM
1002
{
1002
}
1000
Color
1070
     1
1070
   256
1002
{
1002
}
1000
LType
1070
     4
1000
BYLAYER
1002
{
1002
}
1002
}
1000
PAL5
1070
     9
1000
RAHM5
1002
{
1000
Class
1070
     4
1000
SPZ,SYM
1002
{
1002
}
1000
Color
1070
     1
1070
   256
1002
{
1002
}
1000
LType
1070
     4
1000
BYLAYER
1002
{
1002
}
1002
}
1000
PAL7
1070
     9
1000
RAHM5
1002
{
1000
Class
1070
     4
1000
SPZ,SYM
1002
{
1002
}
1000
Color
1070
     1
1070
     7
1002
{
1002
}
1000
LType
1070
     4
1000
CONTINUOUS
1002
{
1002
}
1002
}
1000
PHAN
1070
     9
1000
4A
1002
{
1000
Class
1070
     4
1000

1002
{
1002
}
1000
Color
1070
     1
1070
   256
1002
{
1002
}
1000
LType
1070
     4
1000
BYLAYER
1002
{
1002
}
1002
}
1000
POSL
1070
     9
1000
5
1002
{
1000
Class
1070
     4
1000
SYM
1002
{
1002
}
1000
Color
1070
     1
1070
   256
1002
{
1002
}
1000
LType
1070
     4
1000
BYLAYER
1002
{
1002
}
1002
}
1000
POSN
1070
     9
1000
6
1002
{
1000
Class
1070
     4
1000
SYM
1002
{
1002
}
1000
Color
1070
     1
1070
     7
1002
{
1002
}
1000
LType
1070
     4
1000
BYLAYER
1002
{
1002
}
1002
}
1000
POSREF
1070
     9
1000
6
1002
{
1000
Class
1070
     4
1000
SYM
1002
{
1002
}
1000
Color
1070
     1
1070
     5
1002
{
1002
}
1000
LType
1070
     4
1000
BYLAYER
1002
{
1002
}
1002
}
1000
POSX
1070
     9
1000
5
1002
{
1000
Class
1070
     4
1000
SYM
1002
{
1002
}
1000
Color
1070
     1
1070
     2
1002
{
1002
}
1000
LType
1070
     4
1000
CONTINUOUS
1002
{
1002
}
1002
}
1000
PSEC
1070
     9
1000
4A
1002
{
1000
Class
1070
     4
1000

1002
{
1002
}
1000
Color
1070
     1
1070
   256
1002
{
1002
}
1000
LType
1070
     4
1000
BYLAYER
1002
{
1002
}
1002
}
1000
RCGN
1070
     9
1000
7A
1002
{
1000
Class
1070
     4
1000
CEN
1002
{
1002
}
1000
Color
1070
     1
1070
   256
1002
{
1002
}
1000
LType
1070
     4
1000
BYLAYER
1002
{
1002
}
1002
}
1000
RCGW
1070
     9
1000
7
1002
{
1000
Class
1070
     4
1000
CEN
1002
{
1002
}
1000
Color
1070
     1
1070
   256
1002
{
1002
}
1000
LType
1070
     4
1000
BYLAYER
1002
{
1002
}
1002
}
1000
RFDI
1070
     9
1000
4
1002
{
1000
Class
1070
     4
1000
BGD
1002
{
1002
}
1000
Color
1070
     1
1070
   256
1002
{
1002
}
1000
LType
1070
     4
1000
BYLAYER
1002
{
1002
}
1002
}
1000
RQTR
1070
     9
1000
4
1002
{
1000
Class
1070
     4
1000

1002
{
1002
}
1000
Color
1070
     1
1070
     7
1002
{
1002
}
1000
LType
1070
     4
1000
GEN7A
1002
{
1002
}
1002
}
1000
RSBO
1070
     9
1000
4
1002
{
1000
Class
1070
     4
1000
BGD
1002
{
1002
}
1000
Color
1070
     1
1070
   256
1002
{
1002
}
1000
LType
1070
     4
1000
BYLAYER
1002
{
1002
}
1002
}
1000
SBRK
1070
     9
1000
4
1002
{
1000
Class
1070
     4
1000
BGD
1002
{
1002
}
1000
Color
1070
     1
1070
   256
1002
{
1002
}
1000
LType
1070
     4
1000
BYLAYER
1002
{
1002
}
1002
}
1000
SCEN
1070
     9
1000
7
1002
{
1000
Class
1070
     4
1000

1002
{
1002
}
1000
Color
1070
     1
1070
   256
1002
{
1002
}
1000
LType
1070
     4
1000
CONTINUOUS
1002
{
1002
}
1002
}
1000
SECT
1070
     9
1000
4
1002
{
1000
Class
1070
     4
1000
BGD
1002
{
1002
}
1000
Color
1070
     1
1070
   256
1002
{
1002
}
1000
LType
1070
     4
1000
BYLAYER
1002
{
1002
}
1002
}
1000
SELN
1070
     9
1000
7A
1002
{
1000
Class
1070
     4
1000

1002
{
1002
}
1000
Color
1070
     1
1070
   256
1002
{
1002
}
1000
LType
1070
     4
1000
BYLAYER
1002
{
1002
}
1002
}
1000
SELW
1070
     9
1000
7
1002
{
1000
Class
1070
     4
1000

1002
{
1002
}
1000
Color
1070
     1
1070
   256
1002
{
1002
}
1000
LType
1070
     4
1000
BYLAYER
1002
{
1002
}
1002
}
1000
SSYS
1070
     9
1000
0
1002
{
1000
Class
1070
     4
1000

1002
{
1002
}
1000
Color
1070
     1
1070
   256
1002
{
1002
}
1000
LType
1070
     4
1000
BYLAYER
1002
{
1002
}
1002
}
1000
STLI
1070
     9
1000
4
1002
{
1000
Class
1070
     4
1000

1002
{
1002
}
1000
Color
1070
     1
1070
     7
1002
{
1002
}
1000
LType
1070
     4
1000
GEN3A
1002
{
1002
}
1002
}
1000
SYB1
1070
     9
1000
5
1002
{
1000
Class
1070
     4
1000
SYM
1002
{
1002
}
1000
Color
1070
     1
1070
   256
1002
{
1002
}
1000
LType
1070
     4
1000
BYLAYER
1002
{
1002
}
1002
}
1000
SYB2
1070
     9
1000
5
1002
{
1000
Class
1070
     4
1000
SYM
1002
{
1002
}
1000
Color
1070
     1
1070
   256
1002
{
1002
}
1000
LType
1070
     4
1000
BYLAYER
1002
{
1002
}
1002
}
1000
SYB3
1070
     9
1000
6
1002
{
1000
Class
1070
     4
1000
SYM
1002
{
1002
}
1000
Color
1070
     1
1070
   256
1002
{
1002
}
1000
LType
1070
     4
1000
CONTINUOUS
1002
{
1002
}
1002
}
1000
SYB5
1070
     9
1000
5
1002
{
1000
Class
1070
     4
1000
SYM
1002
{
1002
}
1000
Color
1070
     1
1070
     7
1002
{
1002
}
1000
LType
1070
     4
1000
BYLAYER
1002
{
1002
}
1002
}
1000
SYMN
1070
     9
1000
7A
1002
{
1000
Class
1070
     4
1000
CEN
1002
{
1002
}
1000
Color
1070
     1
1070
   256
1002
{
1002
}
1000
LType
1070
     4
1000
BYLAYER
1002
{
1002
}
1002
}
1000
SYMW
1070
     9
1000
7
1002
{
1000
Class
1070
     4
1000
CEN
1002
{
1002
}
1000
Color
1070
     1
1070
   256
1002
{
1002
}
1000
LType
1070
     4
1000
BYLAYER
1002
{
1002
}
1002
}
1000
TCON
1070
     9
1000
0
1002
{
1000
Class
1070
     4
1000
CON,BGD
1002
{
1002
}
1000
Color
1070
     1
1070
   256
1002
{
1002
}
1000
LType
1070
     4
1000
BYLAYER
1002
{
1002
}
1002
}
1000
THLI
1070
     9
1000
4
1002
{
1000
Class
1070
     4
1000
BGD
1002
{
1002
}
1000
Color
1070
     1
1070
   256
1002
{
1002
}
1000
LType
1070
     4
1000
BYLAYER
1002
{
1002
}
1002
}
1000
TIT2
1070
     9
1000
RAHM2
1002
{
1000
Class
1070
     4
1000
SPZ,SYM
1002
{
1002
}
1000
Color
1070
     1
1070
   256
1002
{
1002
}
1000
LType
1070
     4
1000
BYLAYER
1002
{
1002
}
1002
}
1000
TIT3
1070
     9
1000
RAHM3
1002
{
1000
Class
1070
     4
1000
SPZ,SYM
1002
{
1002
}
1000
Color
1070
     1
1070
   256
1002
{
1002
}
1000
LType
1070
     4
1000
BYLAYER
1002
{
1002
}
1002
}
1000
TIT5
1070
     9
1000
RAHM5
1002
{
1000
Class
1070
     4
1000
SPZ,SYM
1002
{
1002
}
1000
Color
1070
     1
1070
   256
1002
{
1002
}
1000
LType
1070
     4
1000
BYLAYER
1002
{
1002
}
1002
}
1000
TIT7
1070
     9
1000
RAHM5
1002
{
1000
Class
1070
     4
1000
SPZ,SYM
1002
{
1002
}
1000
Color
1070
     1
1070
     7
1002
{
1002
}
1000
LType
1070
     4
1000
CONTINUOUS
1002
{
1002
}
1002
}
1000
TLEN
1070
     9
1000
0
1002
{
1000
Class
1070
     4
1000
CON,BGD
1002
{
1002
}
1000
Color
1070
     1
1070
   256
1002
{
1002
}
1000
LType
1070
     4
1000
BYLAYER
1002
{
1002
}
1002
}
1000
TRKN
1070
     9
1000
7A
1002
{
1000
Class
1070
     4
1000

1002
{
1002
}
1000
Color
1070
     1
1070
   256
1002
{
1002
}
1000
LType
1070
     4
1000
BYLAYER
1002
{
1002
}
1002
}
1000
TRKW
1070
     9
1000
7
1002
{
1000
Class
1070
     4
1000

1002
{
1002
}
1000
Color
1070
     1
1070
   256
1002
{
1002
}
1000
LType
1070
     4
1000
BYLAYER
1002
{
1002
}
1002
}
1000
TRLI
1070
     9
1000
4
1002
{
1000
Class
1070
     4
1000
BGD
1002
{
1002
}
1000
Color
1070
     1
1070
   256
1002
{
1002
}
1000
LType
1070
     4
1000
BYLAYER
1002
{
1002
}
1002
}
1000
TXT1
1070
     9
1000
6
1002
{
1000
Class
1070
     4
1000
SYM
1002
{
1002
}
1000
Color
1070
     1
1070
     2
1002
{
1002
}
1000
LType
1070
     4
1000
BYLAYER
1002
{
1002
}
1002
}
1000
TXT2
1070
     9
1000
6
1002
{
1000
Class
1070
     4
1000
SYM
1002
{
1002
}
1000
Color
1070
     1
1070
     2
1002
{
1002
}
1000
LType
1070
     4
1000
BYLAYER
1002
{
1002
}
1002
}
1000
TXT3
1070
     9
1000
6
1002
{
1000
Class
1070
     4
1000
SYM
1002
{
1002
}
1000
Color
1070
     1
1070
   256
1002
{
1002
}
1000
LType
1070
     4
1000
BYLAYER
1002
{
1002
}
1002
}
1000
TXT5
1070
     9
1000
6
1002
{
1000
Class
1070
     4
1000
SYM
1002
{
1002
}
1000
Color
1070
     1
1070
     7
1002
{
1002
}
1000
LType
1070
     4
1000
BYLAYER
1002
{
1002
}
1002
}
1000
TXT7
1070
     9
1000
6
1002
{
1000
Class
1070
     4
1000
SYM
1002
{
1002
}
1000
Color
1070
     1
1070
     7
1002
{
1002
}
1000
LType
1070
     4
1000
BYLAYER
1002
{
1002
}
1002
}
1000
VIEW
1070
     9
1000
VIEW
1002
{
1000
Class
1070
     4
1000
SPZ
1002
{
1002
}
1000
Color
1070
     1
1070
   256
1002
{
1002
}
1000
LType
1070
     4
1000
BYLAYER
1002
{
1002
}
1002
}
1000
VPLI
1070
     9
1000
2A
1002
{
1000
Class
1070
     4
1000

1002
{
1002
}
1000
Color
1070
     1
1070
   256
1002
{
1002
}
1000
LType
1070
     4
1000
BYLAYER
1002
{
1002
}
1002
}
1000
ZIZA
1070
     9
1000
4
1002
{
1000
Class
1070
     4
1000
BGD
1002
{
1002
}
1000
Color
1070
     1
1070
   256
1002
{
1002
}
1000
LType
1070
     4
1000
GENZIGZAG
1002
{
1002
}
1002
}
  0
APPID
  5
428
330
14
100
AcDbSymbolTableRecord
100
AcDbRegAppTableRecord
  2
GENIUS_GENCFG3_13
 70
     0
1001
GENIUS_GENCFG_13
1071
886497173
1000
428
1000
GEN@OSWIZ
1070
    12
1000
GenCfgObject
1000
GenCfgShort
1000
GenCfgReal
1000
GenCfgBool
1000
GenCfgString
1000
GenCfgDim
1000
GenCfgAttrInf
1000
GenCfgLaySection
1000
GenCfgLayer
1000
GenCfgEntSort
1000
GenCfgLType
1000
GenCfgFilter
1000
AngleStep
1070
     0
1002
{
1000
M
1070
     2
1040
10.0
1002
{
1002
}
1000
I
1070
     2
1040
0.4
1002
{
1002
}
1002
}
1000
AngleIncr
1070
     2
1040
45.0
1002
{
1002
}
1000
Filter
1070
     0
1002
{
1000
HATCH
1070
    11
1002
{
1000
EntityType
1070
     4
1000
LINE
1002
{
1002
}
1000
Layer
1070
     4
1000
8,8N,*-8,*-8N
1002
{
1002
}
1000
Linetype
1070
     4
1000
*
1002
{
1002
}
1000
Color
1070
     4
1000
*
1002
{
1002
}
1002
}
1000
SYMBOLS
1070
    11
1002
{
1000
EntityType
1070
     4
1000
*
1002
{
1002
}
1000
Layer
1070
     4
1000
[5-6],[5-6]N,*-[5-6],*-[5-6]N
1002
{
1002
}
1000
Linetype
1070
     4
1000
*
1002
{
1002
}
1000
Color
1070
     4
1000
*
1002
{
1002
}
1002
}
1000
FEM
1070
    11
1002
{
1000
EntityType
1070
     4
1000
*
1002
{
1002
}
1000
Layer
1070
     4
1000
4A,4AN,*-4A,*-4AN
1002
{
1002
}
1000
Linetype
1070
     4
1000
*
1002
{
1002
}
1000
Color
1070
     4
1000
*
1002
{
1002
}
1002
}
1002
}
1000
IconSize
1070
     2
1040
1.0
1002
{
1002
}
1000
SnapColor
1070
     1
1070
     3
1002
{
1002
}
  0
APPID
  5
429
330
14
100
AcDbSymbolTableRecord
100
AcDbRegAppTableRecord
  2
GENIUS_GENCFG4_13
 70
     0
1001
GENIUS_GENCFG_13
1071
886498687
1000
429
1000
GEN
1070
     9
1000
GenCfgObject
1000
GenCfgShort
1000
GenCfgReal
1000
GenCfgBool
1000
GenCfgString
1000
GenCfgDim
1000
GenCfgAttrInf
1000
GenCfgLaySection
1000
GenCfgLType
1000
Balloon
1070
     0
1002
{
1000
GenIF
1070
     1
1070
     0
1002
{
1002
}
1000
GenPosInc
1070
     1
1070
    10
1002
{
1002
}
1000
GenPosBlk
1070
     1
1070
     8
1002
{
1002
}
1000
GenPosVar
1070
     1
1070
     2
1002
{
1002
}
1000
GenZiCir
1070
     2
1040
1.5
1002
{
1002
}
1000
MaxCharForCenteredText
1070
     1
1070
    30
1002
{
1002
}
1000
Snap
1070
     0
1002
{
1000
ActivationRadius
1070
     2
1040
1.0
1002
{
1002
}
1000
M
1070
     0
1002
{
1000
SnapStepX
1070
     2
1040
20.0
1002
{
1002
}
1000
SnapStepY
1070
     2
1040
10.0
1002
{
1002
}
1002
}
1000
I
1070
     0
1002
{
1000
SnapStepX
1070
     2
1040
1.0
1002
{
1002
}
1000
SnapStepY
1070
     2
1040
0.5
1002
{
1002
}
1002
}
1002
}
1002
}
1000
Centerline
1070
     0
1002
{
1000
ScaleNot
1070
     3
1070
     1
1002
{
1002
}
1000
M
1070
     0
1002
{
1000
GenCenAng
1070
     4
1000
45|90|135
1002
{
1002
}
1000
GenCenDia
1070
     2
1040
17.0
1002
{
1002
}
1000
GenCenDias
1070
     4
1000
10|20|30
1002
{
1002
}
1000
GenCenDist
1070
     2
1040
3.0
1002
{
1002
}
1000
GenCenLen
1070
     2
1040
10.0
1002
{
1002
}
1000
GenCenOff
1070
     2
1040
10.0
1002
{
1002
}
1002
}
1000
I
1070
     0
1002
{
1000
GenCenAng
1070
     4
1000
45|90|135
1002
{
1002
}
1000
GenCenDia
1070
     2
1040
0.5
1002
{
1002
}
1000
GenCenDias
1070
     4
1000
0.5|1.0|1.5
1002
{
1002
}
1000
GenCenDist
1070
     2
1040
0.125
1002
{
1002
}
1000
GenCenLen
1070
     2
1040
0.5
1002
{
1002
}
1000
GenCenOff
1070
     2
1040
0.5
1002
{
1002
}
1002
}
1002
}
1000
CLine
1070
     0
1002
{
1000
CAngArray
1070
     4
1000
30|45|60
1002
{
1002
}
1000
Typ
1070
     4
1000
XLINE
1002
{
1002
}
1000
M
1070
     0
1002
{
1000
CLinArray
1070
     4
1000
60
1002
{
1002
}
1002
}
1000
I
1070
     0
1002
{
1000
CLinArray
1070
     4
1000
0.125|0.25|0.5
1002
{
1002
}
1002
}
1002
}
1000
Constraints
1070
     0
1002
{
1000
Color
1070
     0
1002
{
1000
Active_Frame
1070
     1
1070
     2
1002
{
1002
}
1000
Inactive_Frame
1070
     1
1070
     8
1002
{
1002
}
1002
}
1000
Debug
1070
     0
1002
{
1002
}
1000
Editor
1070
     0
1002
{
1002
}
1000
Frame
1070
     0
1002
{
1002
}
1000
Sys
1070
     0
1002
{
1002
}
1002
}
1000
Detail
1070
     0
1002
{
1002
}
1000
Dimension
1070
     5
1002
{
1000
DIMALT
1070
     1
1070
     0
1002
{
1002
}
1000
DIMALTD
1070
     1
1070
     2
1002
{
1002
}
1000
DIMALTTD
1070
     1
1070
     4
1002
{
1002
}
1000
DIMALTTZ
1070
     1
1070
     0
1002
{
1002
}
1000
DIMALTU
1070
     1
1070
     2
1002
{
1002
}
1000
DIMALTZ
1070
     1
1070
     0
1002
{
1002
}
1000
DIMAPOST
1070
     4
1000

1002
{
1002
}
1000
DIMAUNIT
1070
     1
1070
     0
1002
{
1002
}
1000
DIMBLK
1070
     4
1000

1002
{
1002
}
1000
DIMBLK1
1070
     4
1000

1002
{
1002
}
1000
DIMBLK2
1070
     4
1000

1002
{
1002
}
1000
DIMDLE
1070
     2
1040
0.0
1002
{
1002
}
1000
DIMFIT
1070
     1
1070
     3
1002
{
1002
}
1000
DIMJUST
1070
     1
1070
     0
1002
{
1002
}
1000
DIMLFAC
1070
     2
1040
1.0
1002
{
1002
}
1000
DIMLIM
1070
     1
1070
     0
1002
{
1002
}
1000
DIMPOST
1070
     4
1000
<>
1002
{
1002
}
1000
DIMRND
1070
     2
1040
0.0
1002
{
1002
}
1000
DIMSAH
1070
     1
1070
     0
1002
{
1002
}
1000
DIMSCALE
1070
     2
1040
1.0
1002
{
1002
}
1000
DIMSD1
1070
     1
1070
     0
1002
{
1002
}
1000
DIMSD2
1070
     1
1070
     0
1002
{
1002
}
1000
DIMSE1
1070
     1
1070
     0
1002
{
1002
}
1000
DIMSE2
1070
     1
1070
     0
1002
{
1002
}
1000
DIMSOXD
1070
     1
1070
     0
1002
{
1002
}
1000
DIMTAD
1070
     1
1070
     0
1002
{
1002
}
1000
DIMTFAC
1070
     2
1040
0.71
1002
{
1002
}
1000
DIMTIH
1070
     1
1070
     0
1002
{
1002
}
1000
DIMTIX
1070
     1
1070
     0
1002
{
1002
}
1000
DIMTM
1070
     2
1040
0.1
1002
{
1002
}
1000
DIMTOFL
1070
     1
1070
     0
1002
{
1002
}
1000
DIMTOH
1070
     1
1070
     0
1002
{
1002
}
1000
DIMTOL
1070
     1
1070
     0
1002
{
1002
}
1000
DIMTOLJ
1070
     1
1070
     1
1002
{
1002
}
1000
DIMTP
1070
     2
1040
0.1
1002
{
1002
}
1000
DIMTSZ
1070
     2
1040
0.0
1002
{
1002
}
1000
DIMTVP
1070
     2
1040
0.0
1002
{
1002
}
1000
DIMTXSTY
1070
     4
1000
STANDARD
1002
{
1002
}
1000
DIMTZIN
1070
     1
1070
     0
1002
{
1002
}
1000
DIMUNIT
1070
     1
1070
     2
1002
{
1002
}
1000
DIMUPT
1070
     1
1070
     0
1002
{
1002
}
1000
M
1070
     0
1002
{
1000
DIMALTF
1070
     2
1040
0.0393701
1002
{
1002
}
1000
DIMASZ
1070
     2
1040
2.5
1002
{
1002
}
1000
DIMCEN
1070
     2
1040
0.0
1002
{
1002
}
1000
DIMDEC
1070
     1
1070
     2
1002
{
1002
}
1000
DIMDLI
1070
     2
1040
7.0
1002
{
1002
}
1000
DIMEXE
1070
     2
1040
1.0
1002
{
1002
}
1000
DIMEXO
1070
     2
1040
1.0
1002
{
1002
}
1000
DIMGAP
1070
     2
1040
0.6
1002
{
1002
}
1000
DIMTDEC
1070
     1
1070
     3
1002
{
1002
}
1000
DIMTXT
1070
     2
1040
3.5
1002
{
1002
}
1000
DIMZIN
1070
     1
1070
     8
1002
{
1002
}
1002
}
1000
I
1070
     0
1002
{
1000
DIMALTF
1070
     2
1040
25.4
1002
{
1002
}
1000
DIMASZ
1070
     2
1040
0.1
1002
{
1002
}
1000
DIMCEN
1070
     2
1040
0.0
1002
{
1002
}
1000
DIMDEC
1070
     1
1070
     4
1002
{
1002
}
1000
DIMDLI
1070
     2
1040
0.5
1002
{
1002
}
1000
DIMEXE
1070
     2
1040
0.1
1002
{
1002
}
1000
DIMEXO
1070
     2
1040
0.05
1002
{
1002
}
1000
DIMGAP
1070
     2
1040
0.06
1002
{
1002
}
1000
DIMTDEC
1070
     1
1070
     4
1002
{
1002
}
1000
DIMTXT
1070
     2
1040
0.12
1002
{
1002
}
1000
DIMZIN
1070
     1
1070
     7
1002
{
1002
}
1002
}
1000
GEN-ISO
1070
     5
1002
{
1000
NAME
1070
     4
1000
GEN-ISO
1002
{
1002
}
1000
DIMTAD
1070
     1
1070
     1
1002
{
1002
}
1000
DIMTOLJ
1070
     1
1070
     0
1002
{
1002
}
1000
DIMTOFL
1070
     1
1070
     1
1002
{
1002
}
1000
M
1070
     0
1002
{
1002
}
1000
I
1070
     0
1002
{
1002
}
1002
}
1000
GEN-ISO-POS
1070
     5
1002
{
1000
NAME
1070
     4
1000
GEN-ISO-POS
1002
{
1002
}
1000
DIMTOLJ
1070
     1
1070
     0
1002
{
1002
}
1000
M
1070
     0
1002
{
1000
DIMASZ
1070
     2
1040
2.5
1002
{
1002
}
1000
DIMGAP
1070
     2
1040
1.5
1002
{
1002
}
1000
DIMTXT
1070
     2
1040
5.0
1002
{
1002
}
1002
}
1000
I
1070
     0
1002
{
1000
DIMASZ
1070
     2
1040
0.1
1002
{
1002
}
1000
DIMGAP
1070
     2
1040
0.06
1002
{
1002
}
1000
DIMTXT
1070
     2
1040
0.2
1002
{
1002
}
1002
}
1000
DIMSCALE
1070
     2
1040
1.0
1002
{
1002
}
1002
}
1000
GEN-ISO-CIR
1070
     5
1002
{
1000
NAME
1070
     4
1000
GEN-ISO$3
1002
{
1002
}
1000
DIMFIT
1070
     1
1070
     0
1002
{
1002
}
1000
DIMTAD
1070
     1
1070
     1
1002
{
1002
}
1000
DIMTIH
1070
     1
1070
     0
1002
{
1002
}
1000
DIMTIX
1070
     1
1070
     0
1002
{
1002
}
1000
DIMTOH
1070
     1
1070
     1
1002
{
1002
}
1000
DIMTOLJ
1070
     1
1070
     0
1002
{
1002
}
1000
DIMTOFL
1070
     1
1070
     0
1002
{
1002
}
1000
DIMUPT
1070
     1
1070
     1
1002
{
1002
}
1000
M
1070
     0
1002
{
1002
}
1000
I
1070
     0
1002
{
1002
}
1002
}
1000
GEN-ISO-RAD
1070
     5
1002
{
1000
NAME
1070
     4
1000
GEN-ISO$4
1002
{
1002
}
1000
DIMFIT
1070
     1
1070
     0
1002
{
1002
}
1000
DIMTAD
1070
     1
1070
     1
1002
{
1002
}
1000
DIMTIH
1070
     1
1070
     0
1002
{
1002
}
1000
DIMTIX
1070
     1
1070
     0
1002
{
1002
}
1000
DIMTOH
1070
     1
1070
     1
1002
{
1002
}
1000
DIMTOLJ
1070
     1
1070
     0
1002
{
1002
}
1000
DIMTOFL
1070
     1
1070
     0
1002
{
1002
}
1000
DIMUPT
1070
     1
1070
     1
1002
{
1002
}
1000
M
1070
     0
1002
{
1002
}
1000
I
1070
     0
1002
{
1002
}
1002
}
1000
GEN-ISO-ORD
1070
     5
1002
{
1000
NAME
1070
     4
1000
GEN-ISO$6
1002
{
1002
}
1000
DIMTOLJ
1070
     1
1070
     0
1002
{
1002
}
1000
M
1070
     0
1002
{
1002
}
1000
I
1070
     0
1002
{
1002
}
1002
}
1000
GEN-ISO-AXE-F
1070
     5
1002
{
1000
NAME
1070
     4
1000
GEN-ISO-AXE-F
1002
{
1002
}
1000
DIMSE1
1070
     1
1070
     1
1002
{
1002
}
1000
DIMSE2
1070
     1
1070
     1
1002
{
1002
}
1000
DIMTAD
1070
     1
1070
     1
1002
{
1002
}
1000
DIMTOLJ
1070
     1
1070
     0
1002
{
1002
}
1000
DIMTOFL
1070
     1
1070
     1
1002
{
1002
}
1000
M
1070
     0
1002
{
1002
}
1000
I
1070
     0
1002
{
1002
}
1002
}
1000
GEN-ISO-AXE-H
1070
     5
1002
{
1000
DIMBLK1
1070
     4
1000
GENAXEH
1002
{
1002
}
1000
DIMLFAC
1070
     2
1040
2.0
1002
{
1002
}
1000
DIMSAH
1070
     1
1070
     1
1002
{
1002
}
1000
DIMSE1
1070
     1
1070
     1
1002
{
1002
}
1000
DIMSE2
1070
     1
1070
     1
1002
{
1002
}
1000
DIMTAD
1070
     1
1070
     1
1002
{
1002
}
1000
DIMTOLJ
1070
     1
1070
     0
1002
{
1002
}
1000
DIMTOFL
1070
     1
1070
     1
1002
{
1002
}
1000
M
1070
     0
1002
{
1002
}
1000
I
1070
     0
1002
{
1002
}
1002
}
1000
GEN-ANSI
1070
     5
1002
{
1000
NAME
1070
     4
1000
GEN-ANSI
1002
{
1002
}
1000
DIMTIH
1070
     1
1070
     1
1002
{
1002
}
1000
DIMTOH
1070
     1
1070
     1
1002
{
1002
}
1000
DIMTAD
1070
     1
1070
     0
1002
{
1002
}
1000
DIMTOLJ
1070
     1
1070
     1
1002
{
1002
}
1000
M
1070
     0
1002
{
1002
}
1000
I
1070
     0
1002
{
1002
}
1002
}
1000
GEN-ANSI-POS
1070
     5
1002
{
1000
NAME
1070
     4
1000
GEN-ANSI-POS
1002
{
1002
}
1000
DIMTOLJ
1070
     1
1070
     1
1002
{
1002
}
1000
M
1070
     0
1002
{
1000
DIMASZ
1070
     2
1040
2.5
1002
{
1002
}
1000
DIMGAP
1070
     2
1040
1.5
1002
{
1002
}
1000
DIMTXT
1070
     2
1040
5.0
1002
{
1002
}
1002
}
1000
I
1070
     0
1002
{
1000
DIMASZ
1070
     2
1040
0.1
1002
{
1002
}
1000
DIMGAP
1070
     2
1040
0.06
1002
{
1002
}
1000
DIMTXT
1070
     2
1040
0.2
1002
{
1002
}
1002
}
1002
}
1000
GEN-ANSI-CIR
1070
     5
1002
{
1000
NAME
1070
     4
1000
GEN-ANSI$3
1002
{
1002
}
1000
DIMFIT
1070
     1
1070
     0
1002
{
1002
}
1000
DIMTAD
1070
     1
1070
     0
1002
{
1002
}
1000
DIMTIH
1070
     1
1070
     1
1002
{
1002
}
1000
DIMTIX
1070
     1
1070
     0
1002
{
1002
}
1000
DIMTOFL
1070
     1
1070
     0
1002
{
1002
}
1000
DIMTOH
1070
     1
1070
     1
1002
{
1002
}
1000
DIMTOLJ
1070
     1
1070
     1
1002
{
1002
}
1000
DIMUPT
1070
     1
1070
     1
1002
{
1002
}
1000
M
1070
     0
1002
{
1002
}
1000
I
1070
     0
1002
{
1002
}
1002
}
1000
GEN-ANSI-RAD
1070
     5
1002
{
1000
NAME
1070
     4
1000
GEN-ANSI$4
1002
{
1002
}
1000
DIMFIT
1070
     1
1070
     0
1002
{
1002
}
1000
DIMTAD
1070
     1
1070
     0
1002
{
1002
}
1000
DIMTIH
1070
     1
1070
     1
1002
{
1002
}
1000
DIMTIX
1070
     1
1070
     0
1002
{
1002
}
1000
DIMTOFL
1070
     1
1070
     0
1002
{
1002
}
1000
DIMTOH
1070
     1
1070
     1
1002
{
1002
}
1000
DIMTOLJ
1070
     1
1070
     1
1002
{
1002
}
1000
DIMUPT
1070
     1
1070
     1
1002
{
1002
}
1000
M
1070
     0
1002
{
1002
}
1000
I
1070
     0
1002
{
1002
}
1002
}
1000
GEN-ANSI-ORD
1070
     5
1002
{
1000
NAME
1070
     4
1000
GEN-ANSI$6
1002
{
1002
}
1000
DIMTAD
1070
     1
1070
     0
1002
{
1002
}
1000
DIMTIH
1070
     1
1070
     1
1002
{
1002
}
1000
DIMTOH
1070
     1
1070
     1
1002
{
1002
}
1000
DIMTOLJ
1070
     1
1070
     1
1002
{
1002
}
1000
M
1070
     0
1002
{
1002
}
1000
I
1070
     0
1002
{
1002
}
1002
}
1000
GEN-ANSI-AXE-F
1070
     5
1002
{
1000
NAME
1070
     4
1000
GEN-ANSI-AXE-F
1002
{
1002
}
1000
DIMBLK1
1070
     4
1000
GENAXEH
1002
{
1002
}
1000
DIMSAH
1070
     1
1070
     1
1002
{
1002
}
1000
DIMSE1
1070
     1
1070
     1
1002
{
1002
}
1000
DIMSE2
1070
     1
1070
     1
1002
{
1002
}
1000
DIMTAD
1070
     1
1070
     0
1002
{
1002
}
1000
DIMTIH
1070
     1
1070
     1
1002
{
1002
}
1000
DIMTOH
1070
     1
1070
     1
1002
{
1002
}
1000
DIMTOLJ
1070
     1
1070
     1
1002
{
1002
}
1000
M
1070
     0
1002
{
1002
}
1000
I
1070
     0
1002
{
1002
}
1002
}
1000
GEN-ANSI-AXE-H
1070
     5
1002
{
1000
NAME
1070
     4
1000
GEN-ANSI-AXE-H
1002
{
1002
}
1000
DIMBLK1
1070
     4
1000
GENAXEH
1002
{
1002
}
1000
DIMLFAC
1070
     2
1040
2.0
1002
{
1002
}
1000
DIMSAH
1070
     1
1070
     1
1002
{
1002
}
1000
DIMSE1
1070
     1
1070
     1
1002
{
1002
}
1000
DIMSE2
1070
     1
1070
     1
1002
{
1002
}
1000
DIMTAD
1070
     1
1070
     0
1002
{
1002
}
1000
DIMTOFL
1070
     1
1070
     1
1002
{
1002
}
1000
DIMTOLJ
1070
     1
1070
     1
1002
{
1002
}
1000
M
1070
     0
1002
{
1002
}
1000
I
1070
     0
1002
{
1002
}
1002
}
1000
DIMZIN
1070
     1
1070
     8
1002
{
1002
}
1002
}
1000
DimSet
1070
     0
1002
{
1000
ChainSum
1070
     3
1070
     0
1002
{
1002
}
1000
DimDclTyp0
1070
     4
1000
dim23
1002
{
1002
}
1000
HorBra
1070
     3
1070
     0
1002
{
1002
}
1000
StrDia
1070
     4
1000
%%c<>
1002
{
1002
}
1000
StrRad
1070
     4
1000
R<>
1002
{
1002
}
1000
TextMinus
1070
     4
1000
<>
1002
{
1002
}
1000
TextPlus
1070
     4
1000
<>
1002
{
1002
}
1000
M
1070
     0
1002
{
1000
DimdliFirst
1070
     2
1040
10.0
1002
{
1002
}
1000
PointMakeDist
1070
     2
1040
10.0
1002
{
1002
}
1002
}
1000
I
1070
     0
1002
{
1000
DimdliFirst
1070
     2
1040
0.5
1002
{
1002
}
1000
PointMakeDist
1070
     2
1040
0.5
1002
{
1002
}
1002
}
1002
}
1000
Drawing
1070
     0
1002
{
1000
ChamferDimMode
1070
     1
1070
     2
1002
{
1002
}
1000
Gen_Fiso
1070
    -3
1040
1.0
1002
{
1002
}
1000
GenDimStil
1070
     4
1000
ISO
1002
{
1002
}
1000
GenDwgUScale
1070
     2
1040
1.0
1002
{
1002
}
1000
GenInch
1070
     4
1000
M
1002
{
1002
}
1000
GenPlotScale
1070
     4
1000
1:1
1002
{
1002
}
1000
Revisi
1070
     4
1000
0
1002
{
1002
}
1000
Version
1070
    -5
1000
13.1/May  9 1996
1002
{
1002
}
1000
Platform
1070
    -5
1000
WINNT
1002
{
1002
}
1002
}
1000
DwgVar
1070
     0
1002
{
1000
M
1070
     0
1002
{
1002
}
1000
I
1070
     0
1002
{
1002
}
1002
}
1000
Hatch
1070
     0
1002
{
1000
GenHtcFlag
1070
     3
1070
     0
1002
{
1002
}
1002
}
1000
Info_Pos
1070
     0
1002
{
1000
DescrText
1070
     4
1000
5,6,7,8
1002
{
1002
}
1000
Attrib
1070
     0
1002
{
1000
0
1070
     6
1002
{
1000
Prompt
1070
     4
1000
(genmsg gendwg 103)
1002
{
1002
}
1000
Value
1070
     4
1000

1002
{
1002
}
1000
EditFlag
1070
     1
1070
     0
1002
{
1002
}
1002
}
1000
1
1070
     6
1002
{
1000
Prompt
1070
     4
1000
(genmsg gendwg 31)
1002
{
1002
}
1000
Value
1070
     4
1000
1
1002
{
1002
}
1000
EditFlag
1070
     1
1070
     1
1002
{
1002
}
1002
}
1000
2
1070
     6
1002
{
1000
Prompt
1070
     4
1000
(genmsg gendwg 32)
1002
{
1002
}
1000
Value
1070
     4
1000
1
1002
{
1002
}
1000
EditFlag
1070
     1
1070
     1
1002
{
1002
}
1002
}
1000
3
1070
     6
1002
{
1000
Prompt
1070
     4
1000
(genmsg gendwg 33)
1002
{
1002
}
1000
Value
1070
     4
1000

1002
{
1002
}
1000
EditFlag
1070
     1
1070
     1
1002
{
1002
}
1002
}
1000
4
1070
     6
1002
{
1000
Prompt
1070
     4
1000
(genmsg gendwg 34)
1002
{
1002
}
1000
Value
1070
     4
1000

1002
{
1002
}
1000
EditFlag
1070
     1
1070
     1
1002
{
1002
}
1002
}
1000
5
1070
     6
1002
{
1000
Prompt
1070
     4
1000
(genmsg gendwg 35)
1002
{
1002
}
1000
Value
1070
     4
1000

1002
{
1002
}
1000
EditFlag
1070
     1
1070
     1
1002
{
1002
}
1002
}
1000
6
1070
     6
1002
{
1000
Prompt
1070
     4
1000
(genmsg gendwg 36)
1002
{
1002
}
1000
Value
1070
     4
1000

1002
{
1002
}
1000
EditFlag
1070
     1
1070
     1
1002
{
1002
}
1002
}
1000
7
1070
     6
1002
{
1000
Prompt
1070
     4
1000
(genmsg gendwg 37)
1002
{
1002
}
1000
Value
1070
     4
1000

1002
{
1002
}
1000
EditFlag
1070
     1
1070
     1
1002
{
1002
}
1002
}
1000
8
1070
     6
1002
{
1000
Prompt
1070
     4
1000
(genmsg gendwg 38)
1002
{
1002
}
1000
Value
1070
     4
1000

1002
{
1002
}
1000
EditFlag
1070
     1
1070
     1
1002
{
1002
}
1002
}
1000
9
1070
     6
1002
{
1000
Prompt
1070
     4
1000
(genmsg gendwg 39)
1002
{
1002
}
1000
Value
1070
     4
1000

1002
{
1002
}
1000
EditFlag
1070
     1
1070
     1
1002
{
1002
}
1002
}
1000
10
1070
     6
1002
{
1000
Prompt
1070
     4
1000
(genmsg gendwg 40)
1002
{
1002
}
1000
Value
1070
     4
1000

1002
{
1002
}
1000
EditFlag
1070
     1
1070
     1
1002
{
1002
}
1002
}
1000
11
1070
     6
1002
{
1000
Prompt
1070
     4
1000
(genmsg gendwg 41)
1002
{
1002
}
1000
Value
1070
     4
1000

1002
{
1002
}
1000
EditFlag
1070
     1
1070
     1
1002
{
1002
}
1002
}
1000
12
1070
     6
1002
{
1000
Prompt
1070
     4
1000
(genmsg gendwg 42)
1002
{
1002
}
1000
Value
1070
     4
1000

1002
{
1002
}
1000
EditFlag
1070
     1
1070
     1
1002
{
1002
}
1002
}
1000
13
1070
     6
1002
{
1000
Prompt
1070
     4
1000
(genmsg gendwg 43)
1002
{
1002
}
1000
Value
1070
     4
1000

1002
{
1002
}
1000
EditFlag
1070
     1
1070
     1
1002
{
1002
}
1002
}
1000
14
1070
     6
1002
{
1000
Prompt
1070
     4
1000
(genmsg gendwg 44)
1002
{
1002
}
1000
Value
1070
     4
1000

1002
{
1002
}
1000
EditFlag
1070
     1
1070
     1
1002
{
1002
}
1002
}
1000
15
1070
     6
1002
{
1000
Prompt
1070
     4
1000
(genmsg gendwg 45)
1002
{
1002
}
1000
Value
1070
     4
1000

1002
{
1002
}
1000
EditFlag
1070
     1
1070
     1
1002
{
1002
}
1002
}
1000
16
1070
     6
1002
{
1000
Prompt
1070
     4
1000
(genmsg gendwg 46)
1002
{
1002
}
1000
Value
1070
     4
1000

1002
{
1002
}
1000
EditFlag
1070
     1
1070
     1
1002
{
1002
}
1002
}
1000
17
1070
     6
1002
{
1000
Prompt
1070
     4
1000
(genmsg gendwg 47)
1002
{
1002
}
1000
Value
1070
     4
1000

1002
{
1002
}
1000
EditFlag
1070
     1
1070
     1
1002
{
1002
}
1002
}
1000
18
1070
     6
1002
{
1000
Prompt
1070
     4
1000
(genmsg gendwg 48)
1002
{
1002
}
1000
Value
1070
     4
1000

1002
{
1002
}
1000
EditFlag
1070
     1
1070
     1
1002
{
1002
}
1002
}
1000
19
1070
     6
1002
{
1000
Prompt
1070
     4
1000
(genmsg gendwg 99)
1002
{
1002
}
1000
Value
1070
     4
1000

1002
{
1002
}
1000
EditFlag
1070
     1
1070
     1
1002
{
1002
}
1002
}
1000
20
1070
     6
1002
{
1000
Prompt
1070
     4
1000
(genmsg gendwg 100)
1002
{
1002
}
1000
Value
1070
     4
1000

1002
{
1002
}
1000
EditFlag
1070
     1
1070
     1
1002
{
1002
}
1002
}
1000
21
1070
     6
1002
{
1000
Prompt
1070
     4
1000
(genmsg gendwg 101)
1002
{
1002
}
1000
Value
1070
     4
1000

1002
{
1002
}
1000
EditFlag
1070
     1
1070
     1
1002
{
1002
}
1002
}
1000
22
1070
     6
1002
{
1000
Prompt
1070
     4
1000
(genmsg gendwg 102)
1002
{
1002
}
1000
Value
1070
     4
1000

1002
{
1002
}
1000
EditFlag
1070
     1
1070
     1
1002
{
1002
}
1002
}
1000
23
1070
     6
1002
{
1000
Prompt
1070
     4
1000
(genmsg gendwg 30)
1002
{
1002
}
1000
Value
1070
     4
1000

1002
{
1002
}
1000
EditFlag
1070
     1
1070
     1
1002
{
1002
}
1002
}
1000
24
1070
     6
1002
{
1000
Prompt
1070
     4
1000
(genmsg gendwg 104)
1002
{
1002
}
1000
Value
1070
     4
1000

1002
{
1002
}
1000
EditFlag
1070
     1
1070
     1
1002
{
1002
}
1002
}
1002
}
1000
Xlate
1070
     0
1002
{
1000
>
1002
}
1002
}
1000
Layer
1070
     7
1002
{
1000
Defs
1070
     0
1002
{
1000
>
1002
}
1000
EntSort
1070
     0
1002
{
1000
>
1002
}
1000
Match
1070
     0
1002
{
1002
}
1000
Settings
1070
     0
1002
{
1000
FocGrNC
1070
     3
1070
     0
1002
{
1002
}
1000
FocGrLo
1070
     3
1070
     0
1002
{
1002
}
1000
FocLoNC
1070
     3
1070
     0
1002
{
1002
}
1000
FocusCol
1070
     1
1070
   253
1002
{
1002
}
1000
GenStdLG
1070
     4
1000

1002
{
1002
}
1000
LayMatch
1070
     3
1070
     0
1002
{
1002
}
1000
LgOff
1070
     3
1070
     0
1002
{
1002
}
1000
CurLG
1070
    -5
1000
MSD_2
1002
{
1002
}
1002
}
1002
}
1000
LType
1070
     0
1002
{
1000
GEN3
1070
     8
1000
genius.lin
1002
{
1002
}
1000
GEN7
1070
     8
1000
genius.lin
1002
{
1002
}
1000
GEN4A
1070
     8
1000
genius.lin
1002
{
1002
}
1000
GEN3A
1070
     8
1000
genius.lin
1002
{
1002
}
1000
GEN7A
1070
     8
1000
genius.lin
1002
{
1002
}
1000
GENZIGZAG
1070
     8
1000
genius.lin
1002
{
1002
}
1002
}
1000
Objecter
1070
     0
1002
{
1000
CreateGroups
1070
     3
1070
     0
1002
{
1002
}
1000
LaySwitch
1070
     3
1070
     1
1002
{
1002
}
1000
LastObj
1070
    -5
1000
B0F
1002
{
1002
}
1002
}
1000
OSWiz
1070
     0
1002
{
1000
>
1002
}
1000
PaList
1070
     0
1002
{
1000
AutoUpdatePartList
1070
     3
1070
     0
1002
{
1002
}
1000
ReadInfoPoint
1070
     3
1070
     0
1002
{
1002
}
1000
ReadPosNr
1070
     3
1070
     1
1002
{
1002
}
1000
RevStr
1070
     4
1000
0
1002
{
1002
}
1000
rebuildpending
1070
    -4
1070
     1
1002
{
1002
}
1000
rebuildpendingtime
1070
    -5
1000
886498664
1002
{
1002
}
1002
}
1000
Paper
1070
     0
1002
{
1000
Layer
1070
    -5
1000
INFO,MSD_2-0N,MSD_2-6,MSD_2-3A,MSD_2-7A,MSD_2-7AN,KLIN,MSD_2-5
1002
{
1002
}
1002
}
1000
PartDB
1070
     0
1002
{
1000
GenDbOwner
1070
     4
1000

1002
{
1002
}
1002
}
1000
System
1070
     0
1002
{
1000
Menu
1070
     4
1000
GEV
1002
{
1002
}
1002
}
1000
Title
1070
     0
1002
{
1000
MakeView
1070
     1
1070
     2
1002
{
1002
}
1002
}
  0
APPID
  5
42A
330
14
100
AcDbSymbolTableRecord
100
AcDbRegAppTableRecord
  2
GENIUS_GEVCFG0_13
 70
     0
1001
GENIUS_GENCFG_13
1071
886497173
1000
42A
1000
GEV
1070
     1
1000
GenCfgObject
1000
System
1070
     0
1002
{
1002
}
1000
VED
1070
     0
1002
{
1002
}
  0
APPID
  5
994
330
14
100
AcDbSymbolTableRecord
100
AcDbRegAppTableRecord
  2
GEVID886498246
 70
     0
  0
APPID
  5
995
330
14
100
AcDbSymbolTableRecord
100
AcDbRegAppTableRecord
  2
GEVDC
 70
     0
  0
APPID
  5
9A5
330
14
100
AcDbSymbolTableRecord
100
AcDbRegAppTableRecord
  2
GEVPT
 70
     0
  0
APPID
  5
9A6
330
14
100
AcDbSymbolTableRecord
100
AcDbRegAppTableRecord
  2
GEVIT
 70
     0
  0
APPID
  5
9A7
330
14
100
AcDbSymbolTableRecord
100
AcDbRegAppTableRecord
  2
VCC
 70
     0
  0
APPID
  5
9A8
330
14
100
AcDbSymbolTableRecord
100
AcDbRegAppTableRecord
  2
GENBH
 70
     0
  0
APPID
  5
9B7
330
14
100
AcDbSymbolTableRecord
100
AcDbRegAppTableRecord
  2
GEVMK
 70
     0
  0
APPID
  5
9B9
330
14
100
AcDbSymbolTableRecord
100
AcDbRegAppTableRecord
  2
GENIUS_GENOBJ-F-PART_13
 70
     0
  0
APPID
  5
9BA
330
14
100
AcDbSymbolTableRecord
100
AcDbRegAppTableRecord
  2
GENIUS_GEFSTDP_13
 70
     0
  0
APPID
  5
9BC
330
14
100
AcDbSymbolTableRecord
100
AcDbRegAppTableRecord
  2
GENIUS_GEFPARTINS_13
 70
     0
  0
APPID
  5
9BD
330
14
100
AcDbSymbolTableRecord
100
AcDbRegAppTableRecord
  2
GENIUS_GEFCFG0_13
 70
     0
1001
GENIUS_GENCFG_13
1071
886498249
1000
9BD
1000
GEF
1070
     5
1000
GenCfgObject
1000
GenCfgString
1000
GenCfgReal
1000
GenCfgShort
1000
GenCfgBool
1000
System
1070
     0
1002
{
1002
}
1000
Prese
1070
     0
1002
{
1000
Funk
1070
     1
1000

1002
{
1002
}
1000
FunkDef
1070
     1
1000

1002
{
1002
}
1000
GefIso
1070
     1
1000
DIN
1002
{
1002
}
1002
}
1000
FEM
1070
     0
1002
{
1000
LayGroup
1070
     1
1000
FEM
1002
{
1002
}
1000
IncrCoef
1070
     2
1040
0.0
1002
{
1002
}
1002
}
1000
Shaft
1070
     0
1002
{
1000
Interrupt
1070
     3
1070
     0
1002
{
1002
}
1002
}
1000
PartDb
1070
     0
1002
{
1000
PartCreate
1070
     0
1002
{
1002
}
1002
}
1000
Symbol
1070
     0
1002
{
1000
WeldStyle
1070
     1
1000
ISO
1002
{
1002
}
1000
WeldSize
1070
     2
1040
1.0
1002
{
1002
}
1000
WeldFlag
1070
     4
1070
     1
1002
{
1002
}
1000
WeldOffset
1070
     4
1070
     1
1002
{
1002
}
1000
TolCType
1070
     1
1000
ISO
1002
{
1002
}
1000
TolCSize
1070
     2
1040
1.0
1002
{
1002
}
1000
STextureSize
1070
     2
1040
1.0
1002
{
1002
}
1000
SurfaceType
1070
     1
1000

1002
{
1002
}
1000
M
1070
     0
1002
{
1000
WeldWidth
1070
     2
1040
3.0
1002
{
1002
}
1002
}
1000
I
1070
     0
1002
{
1000
WeldWidth
1070
     2
1040
0.125
1002
{
1002
}
1002
}
1002
}
  0
APPID
  5
9C2
330
14
100
AcDbSymbolTableRecord
100
AcDbRegAppTableRecord
  2
GEVID886498247
 70
     0
  0
APPID
  5
9DE
330
14
100
AcDbSymbolTableRecord
100
AcDbRegAppTableRecord
  2
GEVID886498248
 70
     0
  0
APPID
  5
9DF
330
14
100
AcDbSymbolTableRecord
100
AcDbRegAppTableRecord
  2
GEVRADREF
 70
     0
  0
APPID
  5
9F0
330
14
100
AcDbSymbolTableRecord
100
AcDbRegAppTableRecord
  2
GENIUS_GENBH_13
 70
     0
  0
APPID
  5
9F1
330
14
100
AcDbSymbolTableRecord
100
AcDbRegAppTableRecord
  2
GENIUS_GENOBJ-NBEHI-BHF_13
 70
     0
  0
APPID
  5
9F3
330
14
100
AcDbSymbolTableRecord
100
AcDbRegAppTableRecord
  2
GENIUS_GENOBJ-NBEHI-BHB_13
 70
     0
  0
APPID
  5
9F7
330
14
100
AcDbSymbolTableRecord
100
AcDbRegAppTableRecord
  2
GEVID886498249
 70
     0
  0
APPID
  5
A0C
330
14
100
AcDbSymbolTableRecord
100
AcDbRegAppTableRecord
  2
GEVID886498250
 70
     0
  0
APPID
  5
A21
330
14
100
AcDbSymbolTableRecord
100
AcDbRegAppTableRecord
  2
GEVID886498251
 70
     0
  0
APPID
  5
B6C
330
14
100
AcDbSymbolTableRecord
100
AcDbRegAppTableRecord
  2
GENIUS_GENINF13_13
 70
     0
  0
APPID
  5
B6D
330
14
100
AcDbSymbolTableRecord
100
AcDbRegAppTableRecord
  2
GENIUS_GENOBJ-N-INFOPT_13
 70
     0
  0
APPID
  5
B6E
330
14
100
AcDbSymbolTableRecord
100
AcDbRegAppTableRecord
  2
GENIUS_GENOBJ-N-RSSYM_13
 70
     0
  0
APPID
  5
B6F
330
14
100
AcDbSymbolTableRecord
100
AcDbRegAppTableRecord
  2
GENIUS_GENSYMENT_13
 70
     0
  0
APPID
  5
B70
330
14
100
AcDbSymbolTableRecord
100
AcDbRegAppTableRecord
  2
GENIUS_GENSCSYM_13
 70
     0
  0
APPID
  5
BC6
330
14
100
AcDbSymbolTableRecord
100
AcDbRegAppTableRecord
  2
ACAD_MLEADERVER
 70
     0
  0
APPID
  5
BD3
330
14
100
AcDbSymbolTableRecord
100
AcDbRegAppTableRecord
  2
MCAD_NO_VIS
 70
     0
  0
APPID
  5
BD4
330
14
100
AcDbSymbolTableRecord
100
AcDbRegAppTableRecord
  2
ACAD_TEMP_GRAPHIC
 70
     0
  0
APPID
  5
C04
330
14
100
AcDbSymbolTableRecord
100
AcDbRegAppTableRecord
  2
AD_DRAW
 70
     0
  0
APPID
  5
C07
330
14
100
AcDbSymbolTableRecord
100
AcDbRegAppTableRecord
  2
ACATTRIBSERVICES
 70
     0
  0
APPID
  5
C28
330
14
100
AcDbSymbolTableRecord
100
AcDbRegAppTableRecord
  2
DESIGNERASSEMBLIES
 70
     0
  0
APPID
  5
C2E
330
14
100
AcDbSymbolTableRecord
100
AcDbRegAppTableRecord
  2
ACADM_DIM_EDIT
 70
     0
  0
APPID
  5
C2F
330
14
100
AcDbSymbolTableRecord
100
AcDbRegAppTableRecord
  2
AMDT_DM_ADJ
 70
     0
  0
APPID
  5
C8A
330
14
100
AcDbSymbolTableRecord
100
AcDbRegAppTableRecord
  2
ACAD_DSTYLE_DIMARC_LENGTH_SYMBOL
 70
     0
  0
APPID
  5
C8B
330
14
100
AcDbSymbolTableRecord
100
AcDbRegAppTableRecord
  2
ACAD_DSTYLE_DIM_LINETYPE
 70
     0
  0
APPID
  5
C8C
330
14
100
AcDbSymbolTableRecord
100
AcDbRegAppTableRecord
  2
ACAD_DSTYLE_DIM_EXT1_LINETYPE
 70
     0
  0
APPID
  5
C8D
330
14
100
AcDbSymbolTableRecord
100
AcDbRegAppTableRecord
  2
ACAD_DSTYLE_DIM_EXT2_LINETYPE
 70
     0
  0
ENDTAB
  0
TABLE
  2
DIMSTYLE
  5
16
330
0
100
AcDbSymbolTable
 70
    16
100
AcDbDimStyleTable
 71
     0
  0
DIMSTYLE
105
1D
330
16
100
AcDbSymbolTableRecord
100
AcDbDimStyleTableRecord
  2
STANDARD
 70
     0
340
D
  0
DIMSTYLE
105
3A7
330
16
100
AcDbSymbolTableRecord
100
AcDbDimStyleTableRecord
  2
GEN-ISO
 70
     0
  3
<>
 41
2.5
 42
1.0
 43
7.0
 44
1.0
 47
0.1
 48
0.1
 73
     0
 74
     0
 77
     1
 78
     8
140
3.5
141
0.0
143
0.0393701
146
0.71
147
0.6
172
     1
176
   256
177
   256
178
     2
271
     2
272
     3
274
     4
283
     0
340
D
  0
DIMSTYLE
105
B19
330
16
100
AcDbSymbolTableRecord
100
AcDbDimStyleTableRecord
  2
ISO-25
 70
     0
 41
2.5
 42
0.625
 43
3.75
 44
1.25
 74
     0
 77
     1
 78
     8
140
2.5
141
2.5
143
0.0394
145
1.0
147
0.625
172
     1
340
D
  0
DIMSTYLE
105
C45
102
{ACAD_REACTORS
330
C35
102
}
330
16
100
AcDbSymbolTableRecord
100
AcDbDimStyleTableRecord
  2
AM_ANSI
 70
     0
  4
"
 41
3.5
 42
1.0
 43
10.0
 44
1.0
 47
0.1
 48
0.1
 78
     8
 79
     2
140
3.5
141
0.0
143
0.0393701
146
0.71
147
1.5
176
   256
177
   256
178
     2
271
     2
272
     3
274
     4
284
     8
340
D
371
    -1
372
    -1
1001
ACAD_DSTYLE_DIMARC_LENGTH_SYMBOL
1070
   379
1070
     1
1001
ACAD_DSTYLE_DIM_LINETYPE
1070
   380
1005
F
1001
ACAD_DSTYLE_DIM_EXT1_LINETYPE
1070
   381
1005
F
1001
ACAD_DSTYLE_DIM_EXT2_LINETYPE
1070
   382
1005
F
  0
DIMSTYLE
105
C53
330
16
100
AcDbSymbolTableRecord
100
AcDbDimStyleTableRecord
  2
AM_ANSI$3
 70
     0
  4
"
 41
3.5
 42
1.0
 43
10.0
 44
1.0
 47
0.1
 48
0.1
 78
     8
 79
     2
140
3.5
141
0.0
143
0.0393701
146
0.71
147
1.5
176
   256
177
   256
178
     2
271
     2
272
     3
274
     4
284
     8
288
     1
289
     0
340
D
371
    -1
372
    -1
1001
ACAD_DSTYLE_DIMARC_LENGTH_SYMBOL
1070
   379
1070
     1
1001
ACAD_DSTYLE_DIM_LINETYPE
1070
   380
1005
F
1001
ACAD_DSTYLE_DIM_EXT1_LINETYPE
1070
   381
1005
F
1001
ACAD_DSTYLE_DIM_EXT2_LINETYPE
1070
   382
1005
F
  0
DIMSTYLE
105
C54
330
16
100
AcDbSymbolTableRecord
100
AcDbDimStyleTableRecord
  2
AM_ANSI$4
 70
     0
  4
"
 41
3.5
 42
1.0
 43
10.0
 44
1.0
 47
0.1
 48
0.1
 78
     8
 79
     2
140
3.5
141
0.0
143
0.0393701
146
0.71
147
1.5
176
   256
177
   256
178
     2
271
     2
272
     3
274
     4
284
     8
288
     1
289
     0
340
D
371
    -1
372
    -1
1001
ACAD_DSTYLE_DIMARC_LENGTH_SYMBOL
1070
   379
1070
     1
1001
ACAD_DSTYLE_DIM_LINETYPE
1070
   380
1005
F
1001
ACAD_DSTYLE_DIM_EXT1_LINETYPE
1070
   381
1005
F
1001
ACAD_DSTYLE_DIM_EXT2_LINETYPE
1070
   382
1005
F
  0
DIMSTYLE
105
C55
330
16
100
AcDbSymbolTableRecord
100
AcDbDimStyleTableRecord
  2
AM_ANSI$7
 70
     0
  4
"
 41
3.5
 42
1.0
 43
10.0
 44
1.0
 47
0.1
 48
0.1
 78
     8
 79
     2
140
3.5
141
0.0
143
0.0393701
146
0.71
147
1.5
176
   256
177
   256
178
     2
271
     2
272
     3
274
     4
284
     8
340
D
371
    -1
372
    -1
1001
ACAD_DSTYLE_DIMARC_LENGTH_SYMBOL
1070
   379
1070
     1
1001
ACAD_DSTYLE_DIM_LINETYPE
1070
   380
1005
F
1001
ACAD_DSTYLE_DIM_EXT1_LINETYPE
1070
   381
1005
F
1001
ACAD_DSTYLE_DIM_EXT2_LINETYPE
1070
   382
1005
F
  0
DIMSTYLE
105
C56
330
16
100
AcDbSymbolTableRecord
100
AcDbDimStyleTableRecord
  2
AM_ANSI$SF
 70
     0
  4
"
 41
3.5
 42
1.0
 43
10.0
 44
1.0
 47
0.1
 48
0.1
 75
     1
 76
     1
 78
     8
 79
     2
140
3.5
141
0.0
143
0.0393701
146
0.71
147
1.5
176
   256
177
   256
178
     2
271
     2
272
     3
274
     4
284
     8
340
D
371
    -1
372
    -1
1001
ACAD_DSTYLE_DIMARC_LENGTH_SYMBOL
1070
   379
1070
     1
1001
ACAD_DSTYLE_DIM_LINETYPE
1070
   380
1005
F
1001
ACAD_DSTYLE_DIM_EXT1_LINETYPE
1070
   381
1005
F
1001
ACAD_DSTYLE_DIM_EXT2_LINETYPE
1070
   382
1005
F
  0
DIMSTYLE
105
C5B
330
16
100
AcDbSymbolTableRecord
100
AcDbDimStyleTableRecord
  2
AM_ANSI$SH
 70
     0
  4
"
 41
3.5
 42
1.0
 43
10.0
 44
1.0
 47
0.1
 48
0.1
 75
     1
 76
     1
 78
     8
 79
     2
140
3.5
141
0.0
143
0.0393701
146
0.71
147
1.5
173
     1
176
   256
177
   256
178
     2
271
     2
272
     3
274
     4
284
     8
340
D
343
C57
371
    -1
372
    -1
1001
ACAD_DSTYLE_DIMARC_LENGTH_SYMBOL
1070
   379
1070
     1
1001
ACAD_DSTYLE_DIM_LINETYPE
1070
   380
1005
F
1001
ACAD_DSTYLE_DIM_EXT1_LINETYPE
1070
   381
1005
F
1001
ACAD_DSTYLE_DIM_EXT2_LINETYPE
1070
   382
1005
F
  0
DIMSTYLE
105
C68
330
16
100
AcDbSymbolTableRecord
100
AcDbDimStyleTableRecord
  2
GEN-ANSI
 70
     0
  3
<>
 41
2.5
 42
1.0
 43
7.0
 44
1.0
 47
0.1
 48
0.1
 78
     8
140
3.5
141
0.0
143
0.0393701
146
0.71
147
0.6
271
     2
272
     3
274
     4
340
D
  0
DIMSTYLE
105
C69
330
16
100
AcDbSymbolTableRecord
100
AcDbDimStyleTableRecord
  2
GEN-ANSI$3
 70
     0
  3
<>
 41
2.5
 42
1.0
 43
7.0
 44
1.0
 47
0.1
 48
0.1
 78
     8
140
3.5
141
0.0
143
0.0393701
146
0.71
147
0.6
271
     2
272
     3
274
     4
288
     1
289
     0
340
D
  0
DIMSTYLE
105
C6A
330
16
100
AcDbSymbolTableRecord
100
AcDbDimStyleTableRecord
  2
GEN-ANSI$4
 70
     0
  3
<>
 41
2.5
 42
1.0
 43
7.0
 44
1.0
 47
0.1
 48
0.1
 78
     8
140
3.5
141
0.0
143
0.0393701
146
0.71
147
0.6
271
     2
272
     3
274
     4
288
     1
289
     0
340
D
  0
DIMSTYLE
105
C6B
330
16
100
AcDbSymbolTableRecord
100
AcDbDimStyleTableRecord
  2
GEN-ANSI$6
 70
     0
  3
<>
 41
2.5
 42
1.0
 43
7.0
 44
1.0
 47
0.1
 48
0.1
 78
     8
140
3.5
141
0.0
143
0.0393701
146
0.71
147
0.6
271
     2
272
     3
274
     4
340
D
  0
DIMSTYLE
105
C6C
330
16
100
AcDbSymbolTableRecord
100
AcDbDimStyleTableRecord
  2
GEN-ANSI-POS
 70
     0
  3
<>
 41
2.5
 42
1.0
 43
7.0
 44
1.0
 47
0.1
 48
0.1
 73
     0
 74
     0
 78
     8
140
5.0
141
0.0
143
0.0393701
146
0.71
147
1.5
271
     2
272
     3
274
     4
340
D
  0
DIMSTYLE
105
C6D
330
16
100
AcDbSymbolTableRecord
100
AcDbDimStyleTableRecord
  2
GEN-ANSI-AXE-F
 70
     0
  3
<>
 41
2.5
 42
1.0
 43
7.0
 44
1.0
 47
0.1
 48
0.1
 75
     1
 76
     1
 78
     8
140
3.5
141
0.0
143
0.0393701
146
0.71
147
0.6
173
     1
271
     2
272
     3
274
     4
340
D
343
C57
  0
DIMSTYLE
105
C6E
330
16
100
AcDbSymbolTableRecord
100
AcDbDimStyleTableRecord
  2
GEN-ANSI-AXE-H
 70
     0
  3
<>
 41
2.5
 42
1.0
 43
7.0
 44
1.0
 47
0.1
 48
0.1
 73
     0
 74
     0
 75
     1
 76
     1
 78
     8
140
3.5
141
0.0
143
0.0393701
144
2.0
146
0.71
147
0.6
172
     1
173
     1
271
     2
272
     3
274
     4
340
D
343
C57
  0
ENDTAB
  0
TABLE
  2
BLOCK_RECORD
  5
1
330
0
100
AcDbSymbolTable
 70
    16
  0
BLOCK_RECORD
  5
2
330
1
100
AcDbSymbolTableRecord
100
AcDbBlockTableRecord
  2
*MODEL_SPACE
340
BC9
  0
BLOCK_RECORD
  5
8
330
1
100
AcDbSymbolTableRecord
100
AcDbBlockTableRecord
  2
*PAPER_SPACE
340
BCA
  0
BLOCK_RECORD
  5
4A3
330
1
100
AcDbSymbolTableRecord
100
AcDbBlockTableRecord
  2
*X0
340
0
102
{BLKREFS
331
4A5
102
}
  0
BLOCK_RECORD
  5
99B
330
1
100
AcDbSymbolTableRecord
100
AcDbBlockTableRecord
  2
*U1
340
0
102
{BLKREFS
331
9AF
102
}
  0
BLOCK_RECORD
  5
9AD
330
1
100
AcDbSymbolTableRecord
100
AcDbBlockTableRecord
  2
*U2
340
0
102
{BLKREFS
331
9B6
102
}
  0
BLOCK_RECORD
  5
9C3
330
1
100
AcDbSymbolTableRecord
100
AcDbBlockTableRecord
  2
*U3
340
0
102
{BLKREFS
331
9CF
102
}
  0
BLOCK_RECORD
  5
9CD
330
1
100
AcDbSymbolTableRecord
100
AcDbBlockTableRecord
  2
*U4
340
0
102
{BLKREFS
331
9D6
102
}
  0
BLOCK_RECORD
  5
9E0
330
1
100
AcDbSymbolTableRecord
100
AcDbBlockTableRecord
  2
*U5
340
0
102
{BLKREFS
331
9E9
102
}
  0
BLOCK_RECORD
  5
9E7
330
1
100
AcDbSymbolTableRecord
100
AcDbBlockTableRecord
  2
*U6
340
0
102
{BLKREFS
331
9EF
102
}
  0
BLOCK_RECORD
  5
9F8
330
1
100
AcDbSymbolTableRecord
100
AcDbBlockTableRecord
  2
*U7
340
0
102
{BLKREFS
331
A01
102
}
  0
BLOCK_RECORD
  5
9FF
330
1
100
AcDbSymbolTableRecord
100
AcDbBlockTableRecord
  2
*U8
340
0
102
{BLKREFS
331
A07
102
}
  0
BLOCK_RECORD
  5
A0D
330
1
100
AcDbSymbolTableRecord
100
AcDbBlockTableRecord
  2
*U9
340
0
102
{BLKREFS
331
A16
102
}
  0
BLOCK_RECORD
  5
A14
330
1
100
AcDbSymbolTableRecord
100
AcDbBlockTableRecord
  2
*U10
340
0
102
{BLKREFS
331
A1C
102
}
  0
BLOCK_RECORD
  5
A22
330
1
100
AcDbSymbolTableRecord
100
AcDbBlockTableRecord
  2
*U11
340
0
102
{BLKREFS
331
A2B
102
}
  0
BLOCK_RECORD
  5
A29
330
1
100
AcDbSymbolTableRecord
100
AcDbBlockTableRecord
  2
*U12
340
0
102
{BLKREFS
331
A31
102
}
  0
BLOCK_RECORD
  5
B1A
330
1
100
AcDbSymbolTableRecord
100
AcDbBlockTableRecord
  2
GENINF13
340
0
102
{BLKREFS
331
B52
102
}
  0
BLOCK_RECORD
  5
C57
330
1
100
AcDbSymbolTableRecord
100
AcDbBlockTableRecord
  2
GENAXEH
340
0
  0
ENDTAB
  0
ENDSEC
  0
SECTION
  2
BLOCKS
  0
BLOCK
  5
3
330
2
100
AcDbEntity
  8
0
100
AcDbBlockBegin
  2
*MODEL_SPACE
 70
     0
 10
0.0
 20
0.0
 30
0.0
  3
*MODEL_SPACE
  1

  0
ENDBLK
  5
7
330
2
100
AcDbEntity
  8
0
100
AcDbBlockEnd
  0
BLOCK
  5
9
330
8
100
AcDbEntity
 67
     1
  8
0
100
AcDbBlockBegin
  2
*PAPER_SPACE
 70
     0
 10
0.0
 20
0.0
 30
0.0
  3
*PAPER_SPACE
  1

  0
ENDBLK
  5
A
330
8
100
AcDbEntity
 67
     1
  8
0
100
AcDbBlockEnd
  0
BLOCK
  5
4A4
330
4A3
100
AcDbEntity
  8
0
100
AcDbBlockBegin
  2
*X0
 70
     1
 10
0.0
 20
0.0
 30
0.0
  3
*X0
  1
GEVFRAME
  0
LINE
  5
4A6
330
4A3
100
AcDbEntity
  8
0
 62
     0
100
AcDbLine
 10
299.419446425444
 20
165.069158
 30
0.0
 11
316.8659516737753
 21
182.5156632483313
 31
0.0
  0
LINE
  5
4A7
330
4A3
100
AcDbEntity
  8
0
 62
     0
100
AcDbLine
 10
295.8839125195113
 20
165.069158
 30
0.0
 11
308.2558295195113
 21
177.441075
 31
0.0
  0
LINE
  5
4A8
330
4A3
100
AcDbEntity
  8
0
 62
     0
100
AcDbLine
 10
292.3483786135786
 20
165.069158
 30
0.0
 11
305.022434125995
 21
177.7432135124164
 31
0.0
  0
LINE
  5
4A9
330
4A3
100
AcDbEntity
  8
0
 62
     0
100
AcDbLine
 10
290.049152
 20
166.3054652923541
 30
0.0
 11
301.7139287076458
 21
177.970242
 31
0.0
  0
LINE
  5
4AA
330
4A3
100
AcDbEntity
  8
0
 62
     0
100
AcDbLine
 10
287.7773108017131
 20
167.569158
 30
0.0
 11
298.1783948017131
 21
177.970242
 31
0.0
  0
LINE
  5
4AB
330
4A3
100
AcDbEntity
  8
0
 62
     0
100
AcDbLine
 10
281.7417768957803
 20
165.069158
 30
0.0
 11
284.049152
 21
167.3765331042196
 31
0.0
  0
LINE
  5
4AC
330
4A3
100
AcDbEntity
  8
0
 62
     0
100
AcDbLine
 10
284.2417768957803
 20
167.569158
 30
0.0
 11
293.2094550433488
 21
176.5368361475684
 31
0.0
  0
LINE
  5
4AD
330
4A3
100
AcDbEntity
  8
0
 62
     0
100
AcDbLine
 10
283.1781658697478
 20
170.0410808799002
 30
0.0
 11
289.5198269898476
 21
176.382742
 31
0.0
  0
LINE
  5
4AE
330
4A3
100
AcDbEntity
  8
0
 62
     0
100
AcDbLine
 10
302.9549803313768
 20
165.069158
 30
0.0
 11
325.228861312134
 21
187.3430389807572
 31
0.0
  0
LINE
  5
4AF
330
4A3
100
AcDbEntity
  8
0
 62
     0
100
AcDbLine
 10
306.4905142373095
 20
165.069158
 30
0.0
 11
328.9262804475586
 21
187.5049242102491
 31
0.0
  0
LINE
  5
4B0
330
4A3
100
AcDbEntity
  8
0
 62
     0
100
AcDbLine
 10
310.0260481432422
 20
165.069158
 30
0.0
 11
310.049152
 21
165.0922618567578
 31
0.0
  0
LINE
  5
4B1
330
4A3
100
AcDbEntity
  8
0
 62
     0
100
AcDbLine
 10
312.5260481432422
 20
167.569158
 30
0.0
 11
331.3795867057828
 21
186.4226965625405
 31
0.0
  0
LINE
  5
4B2
330
4A3
100
AcDbEntity
  8
0
 62
     0
100
AcDbLine
 10
316.049152
 20
167.556727950825
 30
0.0
 11
335.2473258220788
 21
186.7549017729039
 31
0.0
  0
LINE
  5
4B3
330
4A3
100
AcDbEntity
  8
0
 62
     0
100
AcDbLine
 10
317.0971159551077
 20
165.069158
 30
0.0
 11
333.049152
 21
181.0211940448923
 31
0.0
  0
LINE
  5
4B4
330
4A3
100
AcDbEntity
  8
0
 62
     0
100
AcDbLine
 10
336.543661646097
 20
184.5157036909893
 30
0.0
 11
337.7625283004856
 21
185.7345703453778
 31
0.0
  0
LINE
  5
4B5
330
4A3
100
AcDbEntity
  8
0
 62
     0
100
AcDbLine
 10
320.6326498610404
 20
165.069158
 30
0.0
 11
333.049152
 21
177.4856601389595
 31
0.0
  0
LINE
  5
4B6
330
4A3
100
AcDbEntity
  8
0
 62
     0
100
AcDbLine
 10
338.785100235368
 20
183.2216083743275
 30
0.0
 11
339.9382415129017
 21
184.3747496518612
 31
0.0
  0
LINE
  5
4B7
330
4A3
100
AcDbEntity
  8
0
 62
     0
100
AcDbLine
 10
324.1681837669731
 20
165.069158
 30
0.0
 11
333.049152
 21
173.9501262330268
 31
0.0
  0
LINE
  5
4B8
330
4A3
100
AcDbEntity
  8
0
 62
     0
100
AcDbLine
 10
339.049152
 20
179.9501262330268
 30
0.0
 11
342.0550746927774
 21
182.9560489258042
 31
0.0
  0
LINE
  5
4B9
330
4A3
100
AcDbEntity
  8
0
 62
     0
100
AcDbLine
 10
327.7037176729059
 20
165.069158
 30
0.0
 11
329.549152
 21
166.9145923270941
 31
0.0
  0
LINE
  5
4BA
330
4A3
100
AcDbEntity
  8
0
 62
     0
100
AcDbLine
 10
339.049152
 20
176.4145923270941
 30
0.0
 11
344.1276291149836
 21
181.4930694420777
 31
0.0
  0
LINE
  5
4BB
330
4A3
100
AcDbEntity
  8
0
 62
     0
100
AcDbLine
 10
329.7037176729059
 20
167.069158
 30
0.0
 11
333.049152
 21
170.4145923270941
 31
0.0
  0
LINE
  5
4BC
330
4A3
100
AcDbEntity
  8
0
 62
     0
100
AcDbLine
 10
339.049152
 20
172.8790584211613
 30
0.0
 11
345.9010870088793
 21
179.7309934300407
 31
0.0
  0
LINE
  5
4BD
330
4A3
100
AcDbEntity
  8
0
 62
     0
100
AcDbLine
 10
339.049152
 20
169.3435245152286
 30
0.0
 11
346.8378160104561
 21
177.1321885256847
 31
0.0
  0
LINE
  5
4BE
330
4A3
100
AcDbEntity
  8
0
 62
     0
100
AcDbLine
 10
340.3103193907042
 20
167.069158
 30
0.0
 11
346.428371
 21
173.1872096092959
 31
0.0
  0
LINE
  5
4BF
330
4A3
100
AcDbEntity
  8
0
 62
     0
100
AcDbLine
 10
342.549152
 20
165.7724567033631
 30
0.0
 11
346.7095949085043
 21
169.9328996118674
 31
0.0
  0
LINE
  5
4C0
330
4A3
100
AcDbEntity
  8
0
 62
     0
100
AcDbLine
 10
345.3813872025695
 20
165.069158
 30
0.0
 11
347.2014310806148
 21
166.8892018780452
 31
0.0
  0
ENDBLK
  5
4C1
330
4A3
100
AcDbEntity
  8
0
100
AcDbBlockEnd
  0
BLOCK
  5
99C
330
99B
100
AcDbEntity
  8
0
100
AcDbBlockBegin
  2
*U1
 70
     1
 10
0.0
 20
0.0
 30
0.0
  3
*U1
  1
*U
  0
LINE
  5
99D
330
99B
100
AcDbEntity
  8
-BHMU
100
AcDbLine
 10
7.5
 20
4.283224999999999
 30
0.0
 11
7.5
 21
-4.283224999999999
 31
0.0
  0
LINE
  5
99E
330
99B
100
AcDbEntity
  8
-BHMU
100
AcDbLine
 10
0.0
 20
4.283224999999999
 30
0.0
 11
0.0
 21
-4.283224999999999
 31
0.0
  0
LINE
  5
99F
330
99B
100
AcDbEntity
  8
BHMM
100
AcDbLine
 10
0.0
 20
-4.283224999999999
 30
0.0
 11
7.5
 21
-4.283224999999999
 31
0.0
  0
LINE
  5
9A0
330
99B
100
AcDbEntity
  8
THLI
100
AcDbLine
 10
0.0
 20
-4.863999999999999
 30
0.0
 11
7.499999999999998
 21
-4.863999999999999
 31
0.0
  0
LINE
  5
9A1
330
99B
100
AcDbEntity
  8
CENN
100
AcDbLine
 10
-3.0
 20
0.0
 30
0.0
 11
10.5
 21
0.0
 31
0.0
  0
LINE
  5
9A2
330
99B
100
AcDbEntity
  8
BHMM
100
AcDbLine
 10
0.0
 20
4.283224999999999
 30
0.0
 11
7.5
 21
4.283224999999999
 31
0.0
  0
LINE
  5
9A3
330
99B
100
AcDbEntity
  8
THLI
100
AcDbLine
 10
0.0
 20
4.863999999999999
 30
0.0
 11
7.499999999999998
 21
4.863999999999999
 31
0.0
  0
ENDBLK
  5
9A4
330
99B
100
AcDbEntity
  8
0
100
AcDbBlockEnd
  0
BLOCK
  5
9AE
330
9AD
100
AcDbEntity
  8
0
100
AcDbBlockBegin
  2
*U2
 70
     1
 10
0.0
 20
0.0
 30
0.0
  3
*U2
  1
*U
  0
INSERT
  5
9AF
330
9AD
100
AcDbEntity
  8
GEV_FROZEN
100
AcDbBlockReference
  2
*U1
 10
0.0
 20
0.0
 30
0.0
 41
0.1
 42
0.1
 43
0.1
1001
GENBH
1002
{
1000
-NOBRK
1002
}
  0
LINE
  5
9B0
330
9AD
100
AcDbEntity
  8
MSD_2-3A
100
AcDbLine
 10
0.0
 20
-4.283224999999999
 30
0.0
 11
7.5
 21
-4.283224999999999
 31
0.0
  0
LINE
  5
9B1
330
9AD
100
AcDbEntity
  8
MSD_2-3A
100
AcDbLine
 10
0.0
 20
-4.863999999999999
 30
0.0
 11
7.499999999999998
 21
-4.863999999999999
 31
0.0
  0
LINE
  5
9B2
330
9AD
100
AcDbEntity
  8
MSD_2-7A
100
AcDbLine
 10
-3.0
 20
0.0
 30
0.0
 11
10.5
 21
0.0
 31
0.0
  0
LINE
  5
9B3
330
9AD
100
AcDbEntity
  8
MSD_2-3A
100
AcDbLine
 10
0.0
 20
4.283224999999999
 30
0.0
 11
7.5
 21
4.283224999999999
 31
0.0
  0
LINE
  5
9B4
330
9AD
100
AcDbEntity
  8
MSD_2-3A
100
AcDbLine
 10
0.0
 20
4.863999999999999
 30
0.0
 11
7.499999999999998
 21
4.863999999999999
 31
0.0
  0
ENDBLK
  5
9B5
330
9AD
100
AcDbEntity
  8
0
100
AcDbBlockEnd
  0
BLOCK
  5
9C4
330
9C3
100
AcDbEntity
  8
0
100
AcDbBlockBegin
  2
*U3
 70
     1
 10
0.0
 20
0.0
 30
0.0
  3
*U3
  1
*U
  0
LINE
  5
9C5
330
9C3
100
AcDbEntity
  8
-BHMU
100
AcDbLine
 10
7.5
 20
4.283224999999999
 30
0.0
 11
7.5
 21
-4.283224999999999
 31
0.0
  0
LINE
  5
9C6
330
9C3
100
AcDbEntity
  8
-BHMU
100
AcDbLine
 10
0.0
 20
4.283224999999999
 30
0.0
 11
0.0
 21
-4.283224999999999
 31
0.0
  0
LINE
  5
9C7
330
9C3
100
AcDbEntity
  8
BHMM
100
AcDbLine
 10
0.0
 20
-4.283224999999999
 30
0.0
 11
7.5
 21
-4.283224999999999
 31
0.0
  0
LINE
  5
9C8
330
9C3
100
AcDbEntity
  8
THLI
100
AcDbLine
 10
0.0
 20
-4.863999999999999
 30
0.0
 11
7.499999999999998
 21
-4.863999999999999
 31
0.0
  0
LINE
  5
9C9
330
9C3
100
AcDbEntity
  8
CENN
100
AcDbLine
 10
-3.0
 20
0.0
 30
0.0
 11
10.5
 21
0.0
 31
0.0
  0
LINE
  5
9CA
330
9C3
100
AcDbEntity
  8
BHMM
100
AcDbLine
 10
0.0
 20
4.283224999999999
 30
0.0
 11
7.5
 21
4.283224999999999
 31
0.0
  0
LINE
  5
9CB
330
9C3
100
AcDbEntity
  8
THLI
100
AcDbLine
 10
0.0
 20
4.863999999999999
 30
0.0
 11
7.499999999999998
 21
4.863999999999999
 31
0.0
  0
ENDBLK
  5
9CC
330
9C3
100
AcDbEntity
  8
0
100
AcDbBlockEnd
  0
BLOCK
  5
9CE
330
9CD
100
AcDbEntity
  8
0
100
AcDbBlockBegin
  2
*U4
 70
     1
 10
0.0
 20
0.0
 30
0.0
  3
*U4
  1
*U
  0
INSERT
  5
9CF
330
9CD
100
AcDbEntity
  8
GEV_FROZEN
100
AcDbBlockReference
  2
*U3
 10
0.0
 20
0.0
 30
0.0
 41
0.1
 42
0.1
 43
0.1
1001
GENBH
1002
{
1000
-NOBRK
1002
}
  0
LINE
  5
9D0
330
9CD
100
AcDbEntity
  8
MSD_2-3A
100
AcDbLine
 10
0.0
 20
-4.283224999999999
 30
0.0
 11
7.5
 21
-4.283224999999999
 31
0.0
  0
LINE
  5
9D1
330
9CD
100
AcDbEntity
  8
MSD_2-3A
100
AcDbLine
 10
0.0
 20
-4.863999999999999
 30
0.0
 11
7.499999999999998
 21
-4.863999999999999
 31
0.0
  0
LINE
  5
9D2
330
9CD
100
AcDbEntity
  8
MSD_2-7A
100
AcDbLine
 10
-3.0
 20
0.0
 30
0.0
 11
10.5
 21
0.0
 31
0.0
  0
LINE
  5
9D3
330
9CD
100
AcDbEntity
  8
MSD_2-3A
100
AcDbLine
 10
0.0
 20
4.283224999999999
 30
0.0
 11
7.5
 21
4.283224999999999
 31
0.0
  0
LINE
  5
9D4
330
9CD
100
AcDbEntity
  8
MSD_2-3A
100
AcDbLine
 10
0.0
 20
4.863999999999999
 30
0.0
 11
7.499999999999998
 21
4.863999999999999
 31
0.0
  0
ENDBLK
  5
9D5
330
9CD
100
AcDbEntity
  8
0
100
AcDbBlockEnd
  0
BLOCK
  5
9E1
330
9E0
100
AcDbEntity
  8
0
100
AcDbBlockBegin
  2
*U5
 70
     1
 10
0.0
 20
0.0
 30
0.0
  3
*U5
  1
*U
  0
LINE
  5
9E2
330
9E0
100
AcDbEntity
  8
CENN
100
AcDbLine
 10
0.0
 20
-7.863999999999999
 30
0.0
 11
0.0
 21
7.863999999999999
 31
0.0
  0
CIRCLE
  5
9E3
330
9E0
100
AcDbEntity
  8
BHMM
100
AcDbCircle
 10
0.0
 20
0.0
 30
0.0
 40
4.283224999999999
  0
ARC
  5
9E4
330
9E0
100
AcDbEntity
  8
THLI
100
AcDbCircle
 10
0.0
 20
0.0
 30
0.0
 40
4.863999999999999
100
AcDbArc
 50
280.0
 51
210.0
  0
LINE
  5
9E5
330
9E0
100
AcDbEntity
  8
CENN
100
AcDbLine
 10
-7.863999999999999
 20
0.0
 30
0.0
 11
7.863999999999999
 21
0.0
 31
0.0
  0
ENDBLK
  5
9E6
330
9E0
100
AcDbEntity
  8
0
100
AcDbBlockEnd
  0
BLOCK
  5
9E8
330
9E7
100
AcDbEntity
  8
0
100
AcDbBlockBegin
  2
*U6
 70
     1
 10
0.0
 20
0.0
 30
0.0
  3
*U6
  1
*U
  0
INSERT
  5
9E9
330
9E7
100
AcDbEntity
  8
GEV_FROZEN
100
AcDbBlockReference
  2
*U5
 10
0.0
 20
0.0
 30
0.0
 41
0.1
 42
0.1
 43
0.1
1001
GENBH
1002
{
1000
-NOBRK
1002
}
  0
LINE
  5
9EA
330
9E7
100
AcDbEntity
  8
MSD_2-7A
100
AcDbLine
 10
0.0
 20
-7.863999999999999
 30
0.0
 11
0.0
 21
7.863999999999999
 31
0.0
  0
CIRCLE
  5
9EB
330
9E7
100
AcDbEntity
  8
MSD_2-0
100
AcDbCircle
 10
0.0
 20
0.0
 30
0.0
 40
4.283224999999999
  0
ARC
  5
9EC
330
9E7
100
AcDbEntity
  8
MSD_2-4
100
AcDbCircle
 10
0.0
 20
0.0
 30
0.0
 40
4.863999999999999
100
AcDbArc
 50
280.0
 51
210.0
  0
LINE
  5
9ED
330
9E7
100
AcDbEntity
  8
MSD_2-7A
100
AcDbLine
 10
-7.863999999999999
 20
0.0
 30
0.0
 11
7.863999999999999
 21
0.0
 31
0.0
  0
ENDBLK
  5
9EE
330
9E7
100
AcDbEntity
  8
0
100
AcDbBlockEnd
  0
BLOCK
  5
9F9
330
9F8
100
AcDbEntity
  8
0
100
AcDbBlockBegin
  2
*U7
 70
     1
 10
0.0
 20
0.0
 30
0.0
  3
*U7
  1
*U
  0
LINE
  5
9FA
330
9F8
100
AcDbEntity
  8
CENN
100
AcDbLine
 10
0.0
 20
-7.863999999999999
 30
0.0
 11
0.0
 21
7.863999999999999
 31
0.0
  0
CIRCLE
  5
9FB
330
9F8
100
AcDbEntity
  8
BHMM
100
AcDbCircle
 10
0.0
 20
0.0
 30
0.0
 40
4.283224999999999
  0
ARC
  5
9FC
330
9F8
100
AcDbEntity
  8
THLI
100
AcDbCircle
 10
0.0
 20
0.0
 30
0.0
 40
4.863999999999999
100
AcDbArc
 50
280.0
 51
210.0
  0
LINE
  5
9FD
330
9F8
100
AcDbEntity
  8
CENN
100
AcDbLine
 10
-7.863999999999999
 20
0.0
 30
0.0
 11
7.863999999999999
 21
0.0
 31
0.0
  0
ENDBLK
  5
9FE
330
9F8
100
AcDbEntity
  8
0
100
AcDbBlockEnd
  0
BLOCK
  5
A00
330
9FF
100
AcDbEntity
  8
0
100
AcDbBlockBegin
  2
*U8
 70
     1
 10
0.0
 20
0.0
 30
0.0
  3
*U8
  1
*U
  0
INSERT
  5
A01
330
9FF
100
AcDbEntity
  8
GEV_FROZEN
100
AcDbBlockReference
  2
*U7
 10
0.0
 20
0.0
 30
0.0
 41
0.1
 42
0.1
 43
0.1
1001
GENBH
1002
{
1000
-NOBRK
1002
}
  0
LINE
  5
A02
330
9FF
100
AcDbEntity
  8
MSD_2-7A
100
AcDbLine
 10
0.0
 20
-7.863999999999999
 30
0.0
 11
0.0
 21
7.863999999999999
 31
0.0
  0
CIRCLE
  5
A03
330
9FF
100
AcDbEntity
  8
MSD_2-0
100
AcDbCircle
 10
0.0
 20
0.0
 30
0.0
 40
4.283224999999999
  0
ARC
  5
A04
330
9FF
100
AcDbEntity
  8
MSD_2-4
100
AcDbCircle
 10
0.0
 20
0.0
 30
0.0
 40
4.863999999999999
100
AcDbArc
 50
280.0
 51
210.0
  0
LINE
  5
A05
330
9FF
100
AcDbEntity
  8
MSD_2-7A
100
AcDbLine
 10
-7.863999999999999
 20
0.0
 30
0.0
 11
7.863999999999999
 21
0.0
 31
0.0
  0
ENDBLK
  5
A06
330
9FF
100
AcDbEntity
  8
0
100
AcDbBlockEnd
  0
BLOCK
  5
A0E
330
A0D
100
AcDbEntity
  8
0
100
AcDbBlockBegin
  2
*U9
 70
     1
 10
0.0
 20
0.0
 30
0.0
  3
*U9
  1
*U
  0
LINE
  5
A0F
330
A0D
100
AcDbEntity
  8
CENN
100
AcDbLine
 10
0.0
 20
-7.863999999999999
 30
0.0
 11
0.0
 21
7.863999999999999
 31
0.0
  0
CIRCLE
  5
A10
330
A0D
100
AcDbEntity
  8
BHMM
100
AcDbCircle
 10
0.0
 20
0.0
 30
0.0
 40
4.283224999999999
  0
ARC
  5
A11
330
A0D
100
AcDbEntity
  8
THLI
100
AcDbCircle
 10
0.0
 20
0.0
 30
0.0
 40
4.863999999999999
100
AcDbArc
 50
280.0
 51
210.0
  0
LINE
  5
A12
330
A0D
100
AcDbEntity
  8
CENN
100
AcDbLine
 10
-7.863999999999999
 20
0.0
 30
0.0
 11
7.863999999999999
 21
0.0
 31
0.0
  0
ENDBLK
  5
A13
330
A0D
100
AcDbEntity
  8
0
100
AcDbBlockEnd
  0
BLOCK
  5
A15
330
A14
100
AcDbEntity
  8
0
100
AcDbBlockBegin
  2
*U10
 70
     1
 10
0.0
 20
0.0
 30
0.0
  3
*U10
  1
*U
  0
INSERT
  5
A16
330
A14
100
AcDbEntity
  8
GEV_FROZEN
100
AcDbBlockReference
  2
*U9
 10
0.0
 20
0.0
 30
0.0
 41
0.1
 42
0.1
 43
0.1
1001
GENBH
1002
{
1000
-NOBRK
1002
}
  0
LINE
  5
A17
330
A14
100
AcDbEntity
  8
MSD_2-7A
100
AcDbLine
 10
0.0
 20
-7.863999999999999
 30
0.0
 11
0.0
 21
7.863999999999999
 31
0.0
  0
CIRCLE
  5
A18
330
A14
100
AcDbEntity
  8
MSD_2-0
100
AcDbCircle
 10
0.0
 20
0.0
 30
0.0
 40
4.283224999999999
  0
ARC
  5
A19
330
A14
100
AcDbEntity
  8
MSD_2-4
100
AcDbCircle
 10
0.0
 20
0.0
 30
0.0
 40
4.863999999999999
100
AcDbArc
 50
280.0
 51
210.0
  0
LINE
  5
A1A
330
A14
100
AcDbEntity
  8
MSD_2-7A
100
AcDbLine
 10
-7.863999999999999
 20
0.0
 30
0.0
 11
7.863999999999999
 21
0.0
 31
0.0
  0
ENDBLK
  5
A1B
330
A14
100
AcDbEntity
  8
0
100
AcDbBlockEnd
  0
BLOCK
  5
A23
330
A22
100
AcDbEntity
  8
0
100
AcDbBlockBegin
  2
*U11
 70
     1
 10
0.0
 20
0.0
 30
0.0
  3
*U11
  1
*U
  0
LINE
  5
A24
330
A22
100
AcDbEntity
  8
CENN
100
AcDbLine
 10
0.0
 20
-7.863999999999999
 30
0.0
 11
0.0
 21
7.863999999999999
 31
0.0
  0
CIRCLE
  5
A25
330
A22
100
AcDbEntity
  8
BHMM
100
AcDbCircle
 10
0.0
 20
0.0
 30
0.0
 40
4.283224999999999
  0
ARC
  5
A26
330
A22
100
AcDbEntity
  8
THLI
100
AcDbCircle
 10
0.0
 20
0.0
 30
0.0
 40
4.863999999999999
100
AcDbArc
 50
280.0
 51
210.0
  0
LINE
  5
A27
330
A22
100
AcDbEntity
  8
CENN
100
AcDbLine
 10
-7.863999999999999
 20
0.0
 30
0.0
 11
7.863999999999999
 21
0.0
 31
0.0
  0
ENDBLK
  5
A28
330
A22
100
AcDbEntity
  8
0
100
AcDbBlockEnd
  0
BLOCK
  5
A2A
330
A29
100
AcDbEntity
  8
0
100
AcDbBlockBegin
  2
*U12
 70
     1
 10
0.0
 20
0.0
 30
0.0
  3
*U12
  1
*U
  0
INSERT
  5
A2B
330
A29
100
AcDbEntity
  8
GEV_FROZEN
100
AcDbBlockReference
  2
*U11
 10
0.0
 20
0.0
 30
0.0
 41
0.1
 42
0.1
 43
0.1
1001
GENBH
1002
{
1000
-NOBRK
1002
}
  0
LINE
  5
A2C
330
A29
100
AcDbEntity
  8
MSD_2-7A
100
AcDbLine
 10
0.0
 20
-7.863999999999999
 30
0.0
 11
0.0
 21
7.863999999999999
 31
0.0
  0
CIRCLE
  5
A2D
330
A29
100
AcDbEntity
  8
MSD_2-0
100
AcDbCircle
 10
0.0
 20
0.0
 30
0.0
 40
4.283224999999999
  0
ARC
  5
A2E
330
A29
100
AcDbEntity
  8
MSD_2-4
100
AcDbCircle
 10
0.0
 20
0.0
 30
0.0
 40
4.863999999999999
100
AcDbArc
 50
280.0
 51
210.0
  0
LINE
  5
A2F
330
A29
100
AcDbEntity
  8
MSD_2-7A
100
AcDbLine
 10
-7.863999999999999
 20
0.0
 30
0.0
 11
7.863999999999999
 21
0.0
 31
0.0
  0
ENDBLK
  5
A30
330
A29
100
AcDbEntity
  8
0
100
AcDbBlockEnd
  0
BLOCK
  5
B2A
330
B1A
100
AcDbEntity
  8
0
100
AcDbBlockBegin
  2
GENINF13
 70
     2
 10
0.0
 20
0.0
 30
0.0
  3
GENINF13
  1
GENINF13
  0
CIRCLE
  5
B2B
330
B1A
100
AcDbEntity
  8
INFO
100
AcDbCircle
 10
-0.1079460011883957
 20
1.312243585777231
 30
0.0
 40
0.3390668951753026
  0
CIRCLE
  5
B2C
330
B1A
100
AcDbEntity
  8
INFO
100
AcDbCircle
 10
0.0
 20
0.0
 30
0.0
 40
1.920194409963144
  0
LINE
  5
B2D
330
B1A
100
AcDbEntity
  8
INFO
100
AcDbLine
 10
0.4113437479737743
 20
0.7068303850037036
 30
0.0
 11
-0.7000060094186789
 21
0.7068303850037035
 31
0.0
  0
LINE
  5
B2E
330
B1A
100
AcDbEntity
  8
INFO
100
AcDbLine
 10
0.8299040409314978
 20
-1.341535205482386
 30
0.0
 11
0.8299040409314978
 21
-0.5553667224477728
 31
0.0
  0
LINE
  5
B2F
330
B1A
100
AcDbEntity
  8
INFO
100
AcDbLine
 10
0.8299040409314978
 20
-0.5553667224477728
 30
0.0
 11
0.4113437479737743
 21
-0.5553667224477728
 31
0.0
  0
LINE
  5
B30
330
B1A
100
AcDbEntity
  8
INFO
100
AcDbLine
 10
0.4113437479737743
 20
-0.5553667224477728
 30
0.0
 11
0.4113437479737743
 21
0.7068303850037036
 31
0.0
  0
LINE
  5
B31
330
B1A
100
AcDbEntity
  8
INFO
100
AcDbLine
 10
-0.7000060094186789
 20
0.7068303850037035
 30
0.0
 11
-0.7000060094186788
 21
0.1226134319150372
 31
0.0
  0
LINE
  5
B32
330
B1A
100
AcDbEntity
  8
INFO
100
AcDbLine
 10
-0.7000060094186788
 20
0.1226134319150372
 30
0.0
 11
-0.3752609491200999
 21
0.1226134319150372
 31
0.0
  0
LINE
  5
B33
330
B1A
100
AcDbEntity
  8
INFO
100
AcDbLine
 10
-0.3752609491200999
 20
0.1226134319150372
 30
0.0
 11
-0.3752609491200999
 21
-0.5553667224477728
 31
0.0
  0
LINE
  5
B34
330
B1A
100
AcDbEntity
  8
INFO
100
AcDbLine
 10
-0.3752609491200999
 20
-0.5553667224477728
 30
0.0
 11
-0.8010378055452676
 21
-0.5553667224477728
 31
0.0
  0
LINE
  5
B35
330
B1A
100
AcDbEntity
  8
INFO
100
AcDbLine
 10
-0.8010378055452676
 20
-0.5553667224477728
 30
0.0
 11
-0.8010378055452676
 21
-1.341535205482386
 31
0.0
  0
LINE
  5
B36
330
B1A
100
AcDbEntity
  8
INFO
100
AcDbLine
 10
-0.8010378055452676
 20
-1.341535205482386
 30
0.0
 11
0.8299040409314978
 21
-1.341535205482386
 31
0.0
  0
ATTDEF
  5
B37
330
B1A
100
AcDbEntity
  8
INFO
100
AcDbText
 10
0.0
 20
0.0
 30
0.0
 40
1.0
  1
1
100
AcDbAttributeDefinition
  3
Menge
  2
2GENINF
 70
     1
  0
ATTDEF
  5
B38
330
B1A
100
AcDbEntity
  8
INFO
100
AcDbText
 10
0.0
 20
-1.5
 30
0.0
 40
1.0
  1

100
AcDbAttributeDefinition
  3
Stücklisten-Name
  2
3GENINF
 70
     1
  0
ATTDEF
  5
B39
330
B1A
100
AcDbEntity
  8
INFO
100
AcDbText
 10
0.0
 20
-3.0
 30
0.0
 40
1.0
  1

100
AcDbAttributeDefinition
  3
Stücklisten-Pfad
  2
4GENINF
 70
     1
  0
ATTDEF
  5
B3A
330
B1A
100
AcDbEntity
  8
INFO
100
AcDbText
 10
0.0
 20
-4.5
 30
0.0
 40
1.0
  1

100
AcDbAttributeDefinition
  3
Beschreibung 1
  2
5GENINF
 70
     1
  0
ATTDEF
  5
B3B
330
B1A
100
AcDbEntity
  8
INFO
100
AcDbText
 10
0.0
 20
-6.0
 30
0.0
 40
1.0
  1

100
AcDbAttributeDefinition
  3
Beschreibung 2
  2
6GENINF
 70
     1
  0
ATTDEF
  5
B3C
330
B1A
100
AcDbEntity
  8
INFO
100
AcDbText
 10
0.0
 20
-7.5
 30
0.0
 40
1.0
  1

100
AcDbAttributeDefinition
  3
Norm/Lieferant 1
  2
7GENINF
 70
     1
  0
ATTDEF
  5
B3D
330
B1A
100
AcDbEntity
  8
INFO
100
AcDbText
 10
0.0
 20
-9.0
 30
0.0
 40
1.0
  1

100
AcDbAttributeDefinition
  3
Norm/Lieferant 2
  2
8GENINF
 70
     1
  0
ATTDEF
  5
B3E
330
B1A
100
AcDbEntity
  8
INFO
100
AcDbText
 10
0.0
 20
-10.5
 30
0.0
 40
1.0
  1

100
AcDbAttributeDefinition
  3
Material 1
  2
9GENINF
 70
     1
  0
ATTDEF
  5
B3F
330
B1A
100
AcDbEntity
  8
INFO
100
AcDbText
 10
0.0
 20
-12.0
 30
0.0
 40
1.0
  1

100
AcDbAttributeDefinition
  3
Material 2
  2
10GENINF
 70
     1
  0
ATTDEF
  5
B40
330
B1A
100
AcDbEntity
  8
INFO
100
AcDbText
 10
0.0
 20
-13.5
 30
0.0
 40
1.0
  1

100
AcDbAttributeDefinition
  3
Identnummer
  2
11GENINF
 70
     1
  0
ATTDEF
  5
B41
330
B1A
100
AcDbEntity
  8
INFO
100
AcDbText
 10
0.0
 20
-15.0
 30
0.0
 40
1.0
  1

100
AcDbAttributeDefinition
  3
Gewicht
  2
12GENINF
 70
     1
  0
ATTDEF
  5
B42
330
B1A
100
AcDbEntity
  8
INFO
100
AcDbText
 10
0.0
 20
-16.5
 30
0.0
 40
1.0
  1

100
AcDbAttributeDefinition
  3
Preis
  2
13GENINF
 70
     1
  0
ATTDEF
  5
B43
330
B1A
100
AcDbEntity
  8
INFO
100
AcDbText
 10
0.0
 20
-18.0
 30
0.0
 40
1.0
  1

100
AcDbAttributeDefinition
  3
Abmessungen
  2
14GENINF
 70
     1
  0
ATTDEF
  5
B44
330
B1A
100
AcDbEntity
  8
INFO
100
AcDbText
 10
0.0
 20
-19.5
 30
0.0
 40
1.0
  1

100
AcDbAttributeDefinition
  3
User 1
  2
15GENINF
 70
     1
  0
ATTDEF
  5
B45
330
B1A
100
AcDbEntity
  8
INFO
100
AcDbText
 10
0.0
 20
-21.0
 30
0.0
 40
1.0
  1

100
AcDbAttributeDefinition
  3
User 2
  2
16GENINF
 70
     1
  0
ATTDEF
  5
B46
330
B1A
100
AcDbEntity
  8
INFO
100
AcDbText
 10
0.0
 20
-22.5
 30
0.0
 40
1.0
  1

100
AcDbAttributeDefinition
  3
User 3
  2
17GENINF
 70
     1
  0
ATTDEF
  5
B47
330
B1A
100
AcDbEntity
  8
INFO
100
AcDbText
 10
0.0
 20
-24.0
 30
0.0
 40
1.0
  1

100
AcDbAttributeDefinition
  3
User 4
  2
18GENINF
 70
     1
  0
ATTDEF
  5
B48
330
B1A
100
AcDbEntity
  8
INFO
100
AcDbText
 10
0.0
 20
-25.5
 30
0.0
 40
1.0
  1

100
AcDbAttributeDefinition
  3
User 5
  2
19GENINF
 70
     1
  0
ATTDEF
  5
B49
330
B1A
100
AcDbEntity
  8
INFO
100
AcDbText
 10
0.0
 20
-27.0
 30
0.0
 40
1.0
  1

100
AcDbAttributeDefinition
  3
User 6
  2
20GENINF
 70
     1
  0
ATTDEF
  5
B4A
330
B1A
100
AcDbEntity
  8
INFO
100
AcDbText
 10
0.0
 20
-28.5
 30
0.0
 40
1.0
  1

100
AcDbAttributeDefinition
  3
User 7
  2
21GENINF
 70
     1
  0
ATTDEF
  5
B4B
330
B1A
100
AcDbEntity
  8
INFO
100
AcDbText
 10
0.0
 20
-30.0
 30
0.0
 40
1.0
  1

100
AcDbAttributeDefinition
  3
User 8
  2
22GENINF
 70
     1
  0
ATTDEF
  5
B4C
330
B1A
100
AcDbEntity
  8
INFO
100
AcDbText
 10
0.0
 20
-31.5
 30
0.0
 40
1.0
  1

100
AcDbAttributeDefinition
  3
Filter
  2
23GENINF
 70
     1
  0
ATTDEF
  5
B4D
330
B1A
100
AcDbEntity
  8
INFO
100
AcDbText
 10
0.0
 20
-33.0
 30
0.0
 40
1.0
  1

100
AcDbAttributeDefinition
  3
Bemerkung
  2
24GENINF
 70
     1
  0
ATTDEF
  5
B4E
330
B1A
100
AcDbEntity
  8
INFO
100
AcDbText
 10
0.0
 20
-34.5
 30
0.0
 40
1.0
  1

100
AcDbAttributeDefinition
  3
Genius Normteile ID
  2
0GENINF
 70
     1
  0
ENDBLK
  5
B4F
330
B1A
100
AcDbEntity
  8
0
100
AcDbBlockEnd
  0
BLOCK
  5
C59
330
C57
100
AcDbEntity
  8
0
100
AcDbBlockBegin
  2
GENAXEH
 70
     0
 10
0.0
 20
0.0
 30
0.0
  3
GENAXEH
  1

  0
LINE
  5
C58
330
C57
100
AcDbEntity
  8
0
100
AcDbLine
 10
-1.0
 20
0.0
 30
0.0
 11
1.0
 21
0.0
 31
0.0
  0
ENDBLK
  5
C5A
330
C57
100
AcDbEntity
  8
0
100
AcDbBlockEnd
  0
ENDSEC
  0
SECTION
  2
ENTITIES
  0
LINE
  5
1E
330
2
100
AcDbEntity
  8
MSD_2-0
100
AcDbLine
 10
266.541599
 20
249.569158
 30
0.0
 11
278.041599
 21
249.569158
 31
0.0
  0
LINE
  5
1F
330
2
100
AcDbEntity
  8
MSD_2-0
100
AcDbLine
 10
236.049152
 20
146.421292
 30
0.0
 11
364.049152
 21
146.421292
 31
0.0
  0
LINE
  5
20
330
2
100
AcDbEntity
  8
MSD_2-0
100
AcDbLine
 10
269.446748
 20
56.42445999999999
 30
0.0
 11
236.049152
 21
56.421292
 31
0.0
  0
LINE
  5
21
330
2
100
AcDbEntity
  8
MSD_2-0
100
AcDbLine
 10
364.049152
 20
372.316069
 30
0.0
 11
236.049152
 21
372.316069
 31
0.0
  0
LINE
  5
22
330
2
100
AcDbEntity
  8
MSD_2-0
100
AcDbLine
 10
236.049152
 20
282.316069
 30
0.0
 11
364.049152
 21
282.316069
 31
0.0
  0
LINE
  5
23
330
2
100
AcDbEntity
  8
MSD_2-0
100
AcDbLine
 10
364.049152
 20
165.069158
 30
0.0
 11
236.049152
 21
165.069158
 31
0.0
  0
LINE
  5
24
330
2
100
AcDbEntity
  8
MSD_2-0
100
AcDbLine
 10
236.049152
 20
227.069158
 30
0.0
 11
364.049152
 21
227.069158
 31
0.0
  0
LINE
  5
25
330
2
100
AcDbEntity
  8
MSD_2-0
100
AcDbLine
 10
298.945415
 20
56.594416
 30
0.0
 11
262.6504740000001
 21
60.45799200000001
 31
0.0
  0
LINE
  5
26
330
2
100
AcDbEntity
  8
MSD_2-0
100
AcDbLine
 10
265.190908
 20
84.32315899999998
 30
0.0
 11
283.586974
 21
82.364908
 31
0.0
  0
LINE
  5
27
330
2
100
AcDbEntity
  8
MSD_2-0
100
AcDbLine
 10
262.6504740000001
 20
247.069158
 30
0.0
 11
298.945415
 21
247.069158
 31
0.0
  0
CIRCLE
  5
28
330
2
100
AcDbEntity
  8
MSD_2-0
100
AcDbCircle
 10
264.049152
 20
363.316069
 30
0.0
 40
3.0
  0
CIRCLE
  5
29
330
2
100
AcDbEntity
  8
MSD_2-0
100
AcDbCircle
 10
264.049152
 20
363.316069
 30
0.0
 40
6.5
  0
CIRCLE
  5
2A
330
2
100
AcDbEntity
  8
MSD_2-0
100
AcDbCircle
 10
264.049152
 20
291.316069
 30
0.0
 40
3.0
  0
CIRCLE
  5
2B
330
2
100
AcDbEntity
  8
MSD_2-0
100
AcDbCircle
 10
264.049152
 20
291.316069
 30
0.0
 40
6.5
  0
CIRCLE
  5
2C
330
2
100
AcDbEntity
  8
MSD_2-0
100
AcDbCircle
 10
265.676569
 20
117.53885
 30
0.0
 40
3.0
  0
ARC
  5
2D
330
2
100
AcDbEntity
  8
MSD_2-0
100
AcDbCircle
 10
265.918747
 20
84.797013
 30
0.0
 40
3.0
100
AcDbArc
 50
343.39411
 51
250.948504
  0
CIRCLE
  5
2E
330
2
100
AcDbEntity
  8
MSD_2-0
100
AcDbCircle
 10
272.299152
 20
75.521292
 30
0.0
 40
6.25
  0
ARC
  5
2F
330
2
100
AcDbEntity
  8
MSD_2-4
100
AcDbCircle
 10
265.918747
 20
84.797013
 30
0.0
 40
4.0
100
AcDbArc
 50
346.0460987747425
 51
205.9698488962542
  0
ARC
  5
31
330
2
100
AcDbEntity
  8
MSD_2-4
100
AcDbCircle
 10
265.676556
 20
117.538856
 30
0.0
 40
4.0
100
AcDbArc
 50
247.8978228291118
 51
154.8776533215866
  0
ARC
  5
32
330
2
100
AcDbEntity
  8
MSD_2-4
100
AcDbCircle
 10
264.049152
 20
291.316069
 30
0.0
 40
4.0
100
AcDbArc
 50
270.0
 51
180.0
  0
ARC
  5
33
330
2
100
AcDbEntity
  8
MSD_2-4
100
AcDbCircle
 10
264.049152
 20
363.316069
 30
0.0
 40
4.0
100
AcDbArc
 50
270.0
 51
180.0
  0
LINE
  5
34
330
2
100
AcDbEntity
  8
MSD_2-7
100
AcDbLine
 10
266.687998
 20
131.621458
 30
0.0
 11
277.808307
 21
121.554744
 31
0.0
  0
LINE
  5
37
330
2
100
AcDbEntity
  8
MSD_2-7
100
AcDbLine
 10
265.223196
 20
75.521292
 30
0.0
 11
280.0602149999999
 21
75.521292
 31
0.0
  0
LINE
  5
38
330
2
100
AcDbEntity
  8
MSD_2-7
100
AcDbLine
 10
259.305775
 20
120.526178
 30
0.0
 11
272.886825
 21
114.157891
 31
0.0
  0
LINE
  5
39
330
2
100
AcDbEntity
  8
MSD_2-7
100
AcDbLine
 10
259.592869
 20
81.71579599999999
 30
0.0
 11
273.078238
 21
88.28426699999999
 31
0.0
  0
LINE
  5
3A
330
2
100
AcDbEntity
  8
MSD_2-7
100
AcDbLine
 10
255.496925
 20
107.755301
 30
0.0
 11
270.347592
 21
105.643973
 31
0.0
  0
LINE
  5
3B
330
2
100
AcDbEntity
  8
MSD_2-7
100
AcDbLine
 10
255.599301
 20
94.404836
 30
0.0
 11
270.415846
 21
96.743643
 31
0.0
  0
LINE
  5
3C
330
2
100
AcDbEntity
  8
MSD_2-7
100
AcDbLine
 10
234.049152
 20
101.421292
 30
0.0
 11
366.049152
 21
101.421292
 31
0.0
  0
ARC
  5
41
330
2
100
AcDbEntity
  8
MSD_2-7
100
AcDbCircle
 10
300.049152
 20
101.421292
 30
0.0
 40
37.9638
100
AcDbArc
 50
326.41887
 51
213.581132
  0
LINE
  5
42
330
2
100
AcDbEntity
  8
MSD_2-3
100
AcDbLine
 10
260.049152
 20
179.069158
 30
0.0
 11
268.049152
 21
179.069158
 31
0.0
  0
LINE
  5
45
330
2
100
AcDbEntity
  8
MSD_2-3
100
AcDbLine
 10
264.049152
 20
184.801209
 30
0.0
 11
267.049152
 21
183.069158
 31
0.0
  0
LINE
  5
46
330
2
100
AcDbEntity
  8
MSD_2-3
100
AcDbLine
 10
257.549152
 20
167.069158
 30
0.0
 11
270.549152
 21
167.069158
 31
0.0
  0
LINE
  5
47
330
2
100
AcDbEntity
  8
MSD_2-3
100
AcDbLine
 10
261.049152
 20
183.069158
 30
0.0
 11
267.049152
 21
183.069158
 31
0.0
  0
LINE
  5
48
330
2
100
AcDbEntity
  8
MSD_2-0
100
AcDbLine
 10
151.111857
 20
227.069158
 30
0.0
 11
151.111857
 21
165.069158
 31
0.0
  0
LINE
  5
49
330
2
100
AcDbEntity
  8
MSD_2-0
100
AcDbLine
 10
61.111857
 20
165.069158
 30
0.0
 11
61.111857
 21
227.069158
 31
0.0
  0
LINE
  5
4A
330
2
100
AcDbEntity
  8
MSD_2-0
100
AcDbLine
 10
231.049152
 20
182.369158
 30
0.0
 11
231.049152
 21
207.769158
 31
0.0
  0
LINE
  5
4B
330
2
100
AcDbEntity
  8
MSD_2-0
100
AcDbLine
 10
236.049152
 20
165.069158
 30
0.0
 11
236.049152
 21
227.069158
 31
0.0
  0
CIRCLE
  5
4C
330
2
100
AcDbEntity
  8
MSD_2-0
100
AcDbCircle
 10
127.111857
 20
195.069158
 30
0.0
 40
20.0
  0
CIRCLE
  5
4D
330
2
100
AcDbEntity
  8
MSD_2-0
100
AcDbCircle
 10
85.111857
 20
195.069158
 30
0.0
 40
20.0
  0
LINE
  5
4F
330
2
100
AcDbEntity
  8
MSD_2-7
100
AcDbLine
 10
127.111857
 20
218.335889
 30
0.0
 11
127.111857
 21
172.176274
 31
0.0
  0
LINE
  5
50
330
2
100
AcDbEntity
  8
MSD_2-7
100
AcDbLine
 10
106.111857
 20
276.069158
 30
0.0
 11
106.111857
 21
160.588881
 31
0.0
  0
LINE
  5
51
330
2
100
AcDbEntity
  8
MSD_2-7
100
AcDbLine
 10
85.111857
 20
218.335889
 30
0.0
 11
85.111857
 21
172.176274
 31
0.0
  0
LINE
  5
52
330
2
100
AcDbEntity
  8
MSD_2-0
100
AcDbLine
 10
151.111857
 20
165.069158
 30
0.0
 11
61.111857
 21
165.069158
 31
0.0
  0
CIRCLE
  5
53
330
2
100
AcDbEntity
  8
MSD_2-0
100
AcDbCircle
 10
101.111857
 20
195.069158
 30
0.0
 40
2.0
  0
LINE
  5
54
330
2
100
AcDbEntity
  8
MSD_2-7
100
AcDbLine
 10
59.11185699999999
 20
195.069158
 30
0.0
 11
153.111857
 21
195.069158
 31
0.0
  0
LINE
  5
55
330
2
100
AcDbEntity
  8
MSD_2-3
100
AcDbLine
 10
74.111857
 20
179.069158
 30
0.0
 11
74.111857
 21
167.069158
 31
0.0
  0
LINE
  5
56
330
2
100
AcDbEntity
  8
MSD_2-3
100
AcDbLine
 10
66.111857
 20
167.069158
 30
0.0
 11
66.111857
 21
179.069158
 31
0.0
  0
LINE
  5
57
330
2
100
AcDbEntity
  8
MSD_2-7
100
AcDbLine
 10
70.111857
 20
185.516158
 30
0.0
 11
70.111857
 21
163.069158
 31
0.0
  0
LINE
  5
58
330
2
100
AcDbEntity
  8
MSD_2-3
100
AcDbLine
 10
73.111857
 20
183.069158
 30
0.0
 11
73.111857
 21
167.069158
 31
0.0
  0
LINE
  5
59
330
2
100
AcDbEntity
  8
MSD_2-3
100
AcDbLine
 10
67.111857
 20
167.069158
 30
0.0
 11
67.111857
 21
183.069158
 31
0.0
  0
LINE
  5
5A
330
2
100
AcDbEntity
  8
MSD_2-3
100
AcDbLine
 10
63.611857
 20
167.069158
 30
0.0
 11
76.611857
 21
167.069158
 31
0.0
  0
LINE
  5
5B
330
2
100
AcDbEntity
  8
MSD_2-3
100
AcDbLine
 10
63.611857
 20
165.069158
 30
0.0
 11
63.611857
 21
167.069158
 31
0.0
  0
LINE
  5
5C
330
2
100
AcDbEntity
  8
MSD_2-3
100
AcDbLine
 10
76.611857
 20
167.069158
 30
0.0
 11
76.611857
 21
165.069158
 31
0.0
  0
LINE
  5
5D
330
2
100
AcDbEntity
  8
MSD_2-7
100
AcDbLine
 10
69.111857
 20
200.751274
 30
0.0
 11
69.111857
 21
189.516658
 31
0.0
  0
LINE
  5
5E
330
2
100
AcDbEntity
  8
MSD_2-3
100
AcDbLine
 10
67.111857
 20
183.069158
 30
0.0
 11
70.111857
 21
184.801209
 31
0.0
  0
LINE
  5
5F
330
2
100
AcDbEntity
  8
MSD_2-3
100
AcDbLine
 10
67.111857
 20
183.069158
 30
0.0
 11
73.111857
 21
183.069158
 31
0.0
  0
LINE
  5
60
330
2
100
AcDbEntity
  8
MSD_2-3
100
AcDbLine
 10
66.111857
 20
179.069158
 30
0.0
 11
74.111857
 21
179.069158
 31
0.0
  0
LINE
  5
61
330
2
100
AcDbEntity
  8
MSD_2-3
100
AcDbLine
 10
70.111857
 20
184.801209
 30
0.0
 11
73.111857
 21
183.069158
 31
0.0
  0
CIRCLE
  5
62
330
2
100
AcDbEntity
  8
MSD_2-0
100
AcDbCircle
 10
69.111857
 20
195.069158
 30
0.0
 40
2.0
  0
LINE
  5
63
330
2
100
AcDbEntity
  8
MSD_2-0
100
AcDbLine
 10
231.049152
 20
93.12129200000001
 30
0.0
 11
231.049152
 21
67.72129200000001
 31
0.0
  0
LINE
  5
64
330
2
100
AcDbEntity
  8
MSD_2-0
100
AcDbLine
 10
236.049152
 20
56.421292
 30
0.0
 11
236.049152
 21
146.421292
 31
0.0
  0
LINE
  5
65
330
2
100
AcDbEntity
  8
MSD_2-0
100
AcDbLine
 10
262.6504740000001
 20
60.45799200000001
 30
0.0
 11
265.190908
 21
84.32315899999998
 31
0.0
  0
LINE
  5
69
330
2
100
AcDbEntity
  8
MSD_2-0
100
AcDbLine
 10
231.049152
 20
67.72129200000001
 30
0.0
 11
236.049152
 21
67.72129200000001
 31
0.0
  0
LINE
  5
6C
330
2
100
AcDbEntity
  8
MSD_2-4A
100
AcDbLine
 10
231.049152
 20
202.069158
 30
0.0
 11
172.049152
 21
202.069158
 31
0.0
  0
LINE
  5
6F
330
2
100
AcDbEntity
  8
MSD_2-4A
100
AcDbLine
 10
171.049152
 20
201.069158
 30
0.0
 11
231.049152
 21
201.069158
 31
0.0
  0
LINE
  5
70
330
2
100
AcDbEntity
  8
MSD_2-4A
100
AcDbLine
 10
172.049152
 20
188.069158
 30
0.0
 11
231.049152
 21
188.069158
 31
0.0
  0
LINE
  5
71
330
2
100
AcDbEntity
  8
MSD_2-4A
100
AcDbLine
 10
171.049152
 20
189.069158
 30
0.0
 11
231.049152
 21
189.069158
 31
0.0
  0
LINE
  5
72
330
2
100
AcDbEntity
  8
MSD_2-7
100
AcDbLine
 10
169.219676
 20
195.069158
 30
0.0
 11
212.071992
 21
195.069158
 31
0.0
  0
CIRCLE
  5
73
330
2
100
AcDbEntity
  8
MSD_2-0
100
AcDbCircle
 10
143.111857
 20
195.069158
 30
0.0
 40
2.0
  0
LINE
  5
74
330
2
100
AcDbEntity
  8
MSD_2-3
100
AcDbLine
 10
139.111857
 20
183.069158
 30
0.0
 11
142.111857
 21
184.801209
 31
0.0
  0
LINE
  5
75
330
2
100
AcDbEntity
  8
MSD_2-3
100
AcDbLine
 10
139.111857
 20
183.069158
 30
0.0
 11
145.111857
 21
183.069158
 31
0.0
  0
LINE
  5
76
330
2
100
AcDbEntity
  8
MSD_2-3
100
AcDbLine
 10
138.111857
 20
179.069158
 30
0.0
 11
146.111857
 21
179.069158
 31
0.0
  0
LINE
  5
77
330
2
100
AcDbEntity
  8
MSD_2-3
100
AcDbLine
 10
135.611857
 20
167.069158
 30
0.0
 11
148.611857
 21
167.069158
 31
0.0
  0
LINE
  5
78
330
2
100
AcDbEntity
  8
MSD_2-3
100
AcDbLine
 10
138.111857
 20
167.069158
 30
0.0
 11
138.111857
 21
179.069158
 31
0.0
  0
LINE
  5
79
330
2
100
AcDbEntity
  8
MSD_2-3
100
AcDbLine
 10
139.111857
 20
167.069158
 30
0.0
 11
139.111857
 21
183.069158
 31
0.0
  0
LINE
  5
7A
330
2
100
AcDbEntity
  8
MSD_2-3
100
AcDbLine
 10
135.611857
 20
165.069158
 30
0.0
 11
135.611857
 21
167.069158
 31
0.0
  0
LINE
  5
7B
330
2
100
AcDbEntity
  8
MSD_2-7
100
AcDbLine
 10
111.111857
 20
200.751274
 30
0.0
 11
111.111857
 21
189.516658
 31
0.0
  0
LINE
  5
7C
330
2
100
AcDbEntity
  8
MSD_2-7
100
AcDbLine
 10
101.111857
 20
200.751274
 30
0.0
 11
101.111857
 21
189.516658
 31
0.0
  0
CIRCLE
  5
7D
330
2
100
AcDbEntity
  8
MSD_2-0
100
AcDbCircle
 10
111.111857
 20
195.069158
 30
0.0
 40
2.0
  0
LINE
  5
7E
330
2
100
AcDbEntity
  8
MSD_2-3
100
AcDbLine
 10
146.111857
 20
179.069158
 30
0.0
 11
146.111857
 21
167.069158
 31
0.0
  0
LINE
  5
7F
330
2
100
AcDbEntity
  8
MSD_2-7
100
AcDbLine
 10
142.111857
 20
185.516158
 30
0.0
 11
142.111857
 21
163.069158
 31
0.0
  0
LINE
  5
80
330
2
100
AcDbEntity
  8
MSD_2-3
100
AcDbLine
 10
145.111857
 20
183.069158
 30
0.0
 11
145.111857
 21
167.069158
 31
0.0
  0
LINE
  5
81
330
2
100
AcDbEntity
  8
MSD_2-3
100
AcDbLine
 10
148.611857
 20
167.069158
 30
0.0
 11
148.611857
 21
165.069158
 31
0.0
  0
LINE
  5
82
330
2
100
AcDbEntity
  8
MSD_2-7
100
AcDbLine
 10
161.992758
 20
195.069158
 30
0.0
 11
166.838426
 21
195.069158
 31
0.0
  0
LINE
  5
83
330
2
100
AcDbEntity
  8
MSD_2-7
100
AcDbLine
 10
143.111857
 20
200.751274
 30
0.0
 11
143.111857
 21
189.516658
 31
0.0
  0
LINE
  5
84
330
2
100
AcDbEntity
  8
MSD_2-3
100
AcDbLine
 10
142.111857
 20
184.801209
 30
0.0
 11
145.111857
 21
183.069158
 31
0.0
  0
LINE
  5
85
330
2
100
AcDbEntity
  8
MSD_2-4A
100
AcDbLine
 10
164.049152
 20
200.069158
 30
0.0
 11
164.049152
 21
190.069158
 31
0.0
  0
LINE
  5
86
330
2
100
AcDbEntity
  8
MSD_2-4A
100
AcDbLine
 10
171.049152
 20
189.069158
 30
0.0
 11
171.049152
 21
201.069158
 31
0.0
  0
LINE
  5
87
330
2
100
AcDbEntity
  8
MSD_2-4A
100
AcDbLine
 10
172.049152
 20
188.069158
 30
0.0
 11
172.049152
 21
202.069158
 31
0.0
  0
LINE
  5
88
330
2
100
AcDbEntity
  8
MSD_2-4A
100
AcDbLine
 10
165.049152
 20
189.069158
 30
0.0
 11
165.049152
 21
201.069158
 31
0.0
  0
LINE
  5
89
330
2
100
AcDbEntity
  8
MSD_2-4A
100
AcDbLine
 10
165.049152
 20
189.069158
 30
0.0
 11
171.049152
 21
189.069158
 31
0.0
  0
LINE
  5
8A
330
2
100
AcDbEntity
  8
MSD_2-4A
100
AcDbLine
 10
164.049152
 20
190.069158
 30
0.0
 11
165.049152
 21
189.069158
 31
0.0
  0
LINE
  5
8B
330
2
100
AcDbEntity
  8
MSD_2-4A
100
AcDbLine
 10
171.049152
 20
189.069158
 30
0.0
 11
172.049152
 21
188.069158
 31
0.0
  0
LINE
  5
8C
330
2
100
AcDbEntity
  8
MSD_2-4A
100
AcDbLine
 10
165.049152
 20
197.069158
 30
0.0
 11
171.049152
 21
197.069158
 31
0.0
  0
LINE
  5
8D
330
2
100
AcDbEntity
  8
MSD_2-4A
100
AcDbLine
 10
165.049152
 20
197.069158
 30
0.0
 11
171.049152
 21
193.069158
 31
0.0
  0
LINE
  5
8E
330
2
100
AcDbEntity
  8
MSD_2-4A
100
AcDbLine
 10
165.049152
 20
193.069158
 30
0.0
 11
171.049152
 21
197.069158
 31
0.0
  0
LINE
  5
8F
330
2
100
AcDbEntity
  8
MSD_2-4A
100
AcDbLine
 10
165.049152
 20
193.069158
 30
0.0
 11
171.049152
 21
193.069158
 31
0.0
  0
LINE
  5
90
330
2
100
AcDbEntity
  8
MSD_2-4A
100
AcDbLine
 10
171.049152
 20
201.069158
 30
0.0
 11
165.049152
 21
201.069158
 31
0.0
  0
LINE
  5
91
330
2
100
AcDbEntity
  8
MSD_2-4A
100
AcDbLine
 10
165.049152
 20
201.069158
 30
0.0
 11
164.049152
 21
200.069158
 31
0.0
  0
LINE
  5
92
330
2
100
AcDbEntity
  8
MSD_2-4A
100
AcDbLine
 10
172.049152
 20
202.069158
 30
0.0
 11
171.049152
 21
201.069158
 31
0.0
  0
LINE
  5
93
330
2
100
AcDbEntity
  8
MSD_2-0
100
AcDbLine
 10
231.049152
 20
135.121292
 30
0.0
 11
231.049152
 21
109.721292
 31
0.0
  0
ARC
  5
94
330
2
100
AcDbEntity
  8
MSD_2-4
100
AcDbCircle
 10
262.463285
 20
106.764889
 30
0.0
 40
4.0
100
AcDbArc
 50
264.9285510933219
 51
171.9084440092131
  0
LINE
  5
95
330
2
100
AcDbEntity
  8
MSD_2-0
100
AcDbLine
 10
236.049152
 20
93.12129200000001
 30
0.0
 11
231.049152
 21
93.12129200000001
 31
0.0
  0
LINE
  5
96
330
2
100
AcDbEntity
  8
MSD_2-0
100
AcDbLine
 10
231.049152
 20
80.42129200000001
 30
0.0
 11
236.049152
 21
80.42129200000001
 31
0.0
  0
LINE
  5
97
330
2
100
AcDbEntity
  8
MSD_2-7
100
AcDbLine
 10
229.049152
 20
80.42129200000001
 30
0.0
 11
242.81094
 21
80.42129200000001
 31
0.0
  0
LINE
  5
98
330
2
100
AcDbEntity
  8
MSD_2-0
100
AcDbLine
 10
231.049152
 20
109.721292
 30
0.0
 11
236.049152
 21
109.721292
 31
0.0
  0
CIRCLE
  5
99
330
2
100
AcDbEntity
  8
MSD_2-0
100
AcDbCircle
 10
262.549664
 20
95.501958
 30
0.0
 40
3.0
  0
ARC
  5
9A
330
2
100
AcDbEntity
  8
MSD_2-4
100
AcDbCircle
 10
262.555872
 20
95.502938
 30
0.0
 40
4.0
100
AcDbArc
 50
281.9003739384214
 51
188.9701844250971
  0
CIRCLE
  5
9B
330
2
100
AcDbEntity
  8
MSD_2-0
100
AcDbCircle
 10
262.463285
 20
106.764889
 30
0.0
 40
3.0
  0
LINE
  5
9C
330
2
100
AcDbEntity
  8
MSD_2-0
100
AcDbLine
 10
231.049152
 20
122.421292
 30
0.0
 11
236.049152
 21
122.421292
 31
0.0
  0
LINE
  5
9D
330
2
100
AcDbEntity
  8
MSD_2-7
100
AcDbLine
 10
229.049152
 20
122.421292
 30
0.0
 11
242.81094
 21
122.421292
 31
0.0
  0
LINE
  5
9E
330
2
100
AcDbEntity
  8
MSD_2-0
100
AcDbLine
 10
236.049152
 20
135.121292
 30
0.0
 11
231.049152
 21
135.121292
 31
0.0
  0
LINE
  5
9F
330
2
100
AcDbEntity
  8
MSD_2-7
100
AcDbLine
 10
224.560325
 20
195.069158
 30
0.0
 11
239.800325
 21
195.069158
 31
0.0
  0
LINE
  5
A2
330
2
100
AcDbEntity
  8
MSD_2-3
100
AcDbLine
 10
260.049152
 20
167.069158
 30
0.0
 11
260.049152
 21
179.069158
 31
0.0
  0
LINE
  5
A3
330
2
100
AcDbEntity
  8
MSD_2-7
100
AcDbLine
 10
264.049152
 20
185.516158
 30
0.0
 11
264.049152
 21
163.069158
 31
0.0
  0
LINE
  5
A5
330
2
100
AcDbEntity
  8
MSD_2-3
100
AcDbLine
 10
261.049152
 20
167.069158
 30
0.0
 11
261.049152
 21
183.069158
 31
0.0
  0
LINE
  5
A9
330
2
100
AcDbEntity
  8
MSD_2-3
100
AcDbLine
 10
257.549152
 20
165.069158
 30
0.0
 11
257.549152
 21
167.069158
 31
0.0
  0
LINE
  5
AA
330
2
100
AcDbEntity
  8
MSD_2-0
100
AcDbLine
 10
236.049152
 20
182.369158
 30
0.0
 11
231.049152
 21
182.369158
 31
0.0
  0
LINE
  5
AB
330
2
100
AcDbEntity
  8
MSD_2-0
100
AcDbLine
 10
231.049152
 20
195.069158
 30
0.0
 11
236.049152
 21
195.069158
 31
0.0
  0
LINE
  5
AC
330
2
100
AcDbEntity
  8
MSD_2-3
100
AcDbLine
 10
261.049152
 20
183.069158
 30
0.0
 11
264.049152
 21
184.801209
 31
0.0
  0
LINE
  5
AD
330
2
100
AcDbEntity
  8
MSD_2-0
100
AcDbLine
 10
84.111857
 20
227.069158
 30
0.0
 11
128.111857
 21
227.069158
 31
0.0
  0
LINE
  5
AE
330
2
100
AcDbEntity
  8
MSD_2-0
100
AcDbLine
 10
106.111857
 20
250.069158
 30
0.0
 11
85.111857
 21
250.069158
 31
0.0
  0
LINE
  5
AF
330
2
100
AcDbEntity
  8
MSD_2-0
100
AcDbLine
 10
99.61185700000001
 20
274.069158
 30
0.0
 11
112.611857
 21
274.069158
 31
0.0
  0
LINE
  5
B0
330
2
100
AcDbEntity
  8
MSD_2-0
100
AcDbLine
 10
61.111857
 20
227.069158
 30
0.0
 11
151.111857
 21
227.069158
 31
0.0
  0
LINE
  5
B1
330
2
100
AcDbEntity
  8
MSD_2-0
100
AcDbLine
 10
84.111857
 20
249.069158
 30
0.0
 11
103.111857
 21
249.069158
 31
0.0
  0
LINE
  5
B2
330
2
100
AcDbEntity
  8
MSD_2-0
100
AcDbLine
 10
98.611857
 20
273.069158
 30
0.0
 11
113.611857
 21
273.069158
 31
0.0
  0
LINE
  5
B3
330
2
100
AcDbEntity
  8
MSD_2-0
100
AcDbLine
 10
92.11185699999999
 20
243.069158
 30
0.0
 11
120.111857
 21
243.069158
 31
0.0
  0
LINE
  5
B4
330
2
100
AcDbEntity
  8
MSD_2-0
100
AcDbLine
 10
92.11185699999999
 20
231.569158
 30
0.0
 11
120.111857
 21
231.569158
 31
0.0
  0
LINE
  5
B5
330
2
100
AcDbEntity
  8
MSD_2-7
100
AcDbLine
 10
17.085391
 20
237.069158
 30
0.0
 11
101.563299
 21
237.069158
 31
0.0
  0
LINE
  5
B6
330
2
100
AcDbEntity
  8
MSD_2-0
100
AcDbLine
 10
98.611857
 20
250.069158
 30
0.0
 11
98.611857
 21
273.069158
 31
0.0
  0
LINE
  5
B7
330
2
100
AcDbEntity
  8
MSD_2-0
100
AcDbLine
 10
59.91185699999999
 20
246.884113
 30
0.0
 11
57.311857
 21
246.884113
 31
0.0
  0
LINE
  5
B8
330
2
100
AcDbEntity
  8
MSD_2-0
100
AcDbLine
 10
59.91185699999999
 20
241.976636
 30
0.0
 11
57.311857
 21
241.976636
 31
0.0
  0
LINE
  5
B9
330
2
100
AcDbEntity
  8
MSD_2-0
100
AcDbLine
 10
59.91185699999999
 20
232.161681
 30
0.0
 11
57.311857
 21
232.161681
 31
0.0
  0
LINE
  5
BA
330
2
100
AcDbEntity
  8
MSD_2-0
100
AcDbLine
 10
59.91185699999999
 20
227.254204
 30
0.0
 11
57.311857
 21
227.254204
 31
0.0
  0
LINE
  5
BB
330
2
100
AcDbEntity
  8
MSD_2-3
100
AcDbLine
 10
56.111857
 20
233.069158
 30
0.0
 11
84.013757
 21
233.069158
 31
0.0
  0
LINE
  5
BC
330
2
100
AcDbEntity
  8
MSD_2-3
100
AcDbLine
 10
56.111857
 20
241.069158
 30
0.0
 11
84.013757
 21
241.069158
 31
0.0
  0
LINE
  5
BD
330
2
100
AcDbEntity
  8
MSD_2-3
100
AcDbLine
 10
56.111857
 20
242.069158
 30
0.0
 11
84.013757
 21
242.069158
 31
0.0
  0
LINE
  5
BE
330
2
100
AcDbEntity
  8
MSD_2-3
100
AcDbLine
 10
56.111857
 20
232.069158
 30
0.0
 11
84.013757
 21
232.069158
 31
0.0
  0
LINE
  5
BF
330
2
100
AcDbEntity
  8
MSD_2-0
100
AcDbLine
 10
27.111854
 20
233.869158
 30
0.0
 11
27.111854
 21
240.269158
 31
0.0
  0
LINE
  5
C0
330
2
100
AcDbEntity
  8
MSD_2-0
100
AcDbLine
 10
25.111854
 20
240.269158
 30
0.0
 11
25.111854
 21
233.869158
 31
0.0
  0
LINE
  5
C1
330
2
100
AcDbEntity
  8
MSD_2-0
100
AcDbLine
 10
18.611854
 20
240.269158
 30
0.0
 11
18.611854
 21
233.869158
 31
0.0
  0
ARC
  5
C2
330
2
100
AcDbEntity
  8
MSD_2-0
100
AcDbCircle
 10
66.74657899999999
 20
237.069158
 30
0.0
 40
10.634722
100
AcDbArc
 50
152.518771
 51
207.481229
  0
LINE
  5
C3
330
2
100
AcDbEntity
  8
MSD_2-0
100
AcDbLine
 10
56.111857
 20
229.707942
 30
0.0
 11
56.111857
 21
244.430374
 31
0.0
  0
ARC
  5
C4
330
2
100
AcDbEntity
  8
MSD_2-0
100
AcDbCircle
 10
35.90213499999999
 20
237.069158
 30
0.0
 40
7.709722
100
AcDbArc
 50
330.872218
 51
29.127782
  0
LINE
  5
C5
330
2
100
AcDbEntity
  8
MSD_2-0
100
AcDbLine
 10
43.611857
 20
242.698323
 30
0.0
 11
43.611857
 21
231.439993
 31
0.0
  0
LINE
  5
C6
330
2
100
AcDbEntity
  8
MSD_2-0
100
AcDbLine
 10
21.111854
 20
240.269158
 30
0.0
 11
21.111854
 21
233.869158
 31
0.0
  0
LINE
  5
C7
330
2
100
AcDbEntity
  8
MSD_2-0
100
AcDbLine
 10
22.111854
 20
240.269158
 30
0.0
 11
22.111854
 21
233.869158
 31
0.0
  0
LINE
  5
C8
330
2
100
AcDbEntity
  8
MSD_2-0
100
AcDbLine
 10
27.111854
 20
240.269158
 30
0.0
 11
27.111854
 21
233.869158
 31
0.0
  0
LINE
  5
C9
330
2
100
AcDbEntity
  8
MSD_2-0
100
AcDbLine
 10
25.111854
 20
240.269158
 30
0.0
 11
25.111854
 21
233.869158
 31
0.0
  0
ARC
  5
CA
330
2
100
AcDbEntity
  8
MSD_2-0
100
AcDbCircle
 10
36.321576
 20
237.069158
 30
0.0
 40
7.709722
100
AcDbArc
 50
150.872216
 51
209.127784
  0
LINE
  5
CB
330
2
100
AcDbEntity
  8
MSD_2-0
100
AcDbLine
 10
28.611854
 20
242.698323
 30
0.0
 11
28.611854
 21
231.439993
 31
0.0
  0
LINE
  5
CC
330
2
100
AcDbEntity
  8
MSD_2-0
100
AcDbLine
 10
42.63685699999999
 20
229.563605
 30
0.0
 11
29.586854
 21
229.563605
 31
0.0
  0
LINE
  5
CD
330
2
100
AcDbEntity
  8
MSD_2-0
100
AcDbLine
 10
42.63685699999999
 20
233.316382
 30
0.0
 11
29.586854
 21
233.316382
 31
0.0
  0
LINE
  5
CE
330
2
100
AcDbEntity
  8
MSD_2-0
100
AcDbLine
 10
22.111854
 20
233.869158
 30
0.0
 11
28.611854
 21
233.869158
 31
0.0
  0
LINE
  5
CF
330
2
100
AcDbEntity
  8
MSD_2-0
100
AcDbLine
 10
21.111854
 20
233.569158
 30
0.0
 11
22.111854
 21
233.569158
 31
0.0
  0
LINE
  5
D0
330
2
100
AcDbEntity
  8
MSD_2-0
100
AcDbLine
 10
21.111854
 20
233.869158
 30
0.0
 11
21.111854
 21
233.569158
 31
0.0
  0
LINE
  5
D1
330
2
100
AcDbEntity
  8
MSD_2-0
100
AcDbLine
 10
18.611854
 20
233.869158
 30
0.0
 11
21.111854
 21
233.869158
 31
0.0
  0
LINE
  5
D2
330
2
100
AcDbEntity
  8
MSD_2-0
100
AcDbLine
 10
22.111854
 20
233.569158
 30
0.0
 11
22.111854
 21
233.869158
 31
0.0
  0
LINE
  5
D3
330
2
100
AcDbEntity
  8
MSD_2-0
100
AcDbLine
 10
25.111854
 20
233.869158
 30
0.0
 11
27.111854
 21
233.869158
 31
0.0
  0
ARC
  5
D4
330
2
100
AcDbEntity
  8
MSD_2-0
100
AcDbCircle
 10
30.90490900000001
 20
231.439993
 30
0.0
 40
2.293055999999999
100
AcDbArc
 50
125.085847
 51
234.914153
  0
LINE
  5
D5
330
2
100
AcDbEntity
  8
MSD_2-0
100
AcDbLine
 10
43.523854
 20
232.069158
 30
0.0
 11
56.111857
 21
232.069158
 31
0.0
  0
LINE
  5
D6
330
2
100
AcDbEntity
  8
MSD_2-4
100
AcDbLine
 10
43.611857
 20
233.069158
 30
0.0
 11
56.111857
 21
233.069158
 31
0.0
  0
ARC
  5
D7
330
2
100
AcDbEntity
  8
MSD_2-0
100
AcDbCircle
 10
41.318802
 20
231.439993
 30
0.0
 40
2.293055999999999
100
AcDbArc
 50
305.085848
 51
54.914152
  0
ARC
  5
D8
330
2
100
AcDbEntity
  8
MSD_2-0
100
AcDbCircle
 10
59.220538
 20
229.707942
 30
0.0
 40
3.108681
100
AcDbArc
 50
127.878142
 51
232.121858
  0
LINE
  5
D9
330
2
100
AcDbEntity
  8
MSD_2-0
100
AcDbLine
 10
42.63685699999999
 20
244.574712
 30
0.0
 11
29.586854
 21
244.574712
 31
0.0
  0
LINE
  5
DA
330
2
100
AcDbEntity
  8
MSD_2-0
100
AcDbLine
 10
42.63685699999999
 20
240.821935
 30
0.0
 11
29.586854
 21
240.821935
 31
0.0
  0
LINE
  5
DB
330
2
100
AcDbEntity
  8
MSD_2-0
100
AcDbLine
 10
28.611854
 20
240.269158
 30
0.0
 11
22.111854
 21
240.269158
 31
0.0
  0
LINE
  5
DC
330
2
100
AcDbEntity
  8
MSD_2-0
100
AcDbLine
 10
22.111854
 20
240.569158
 30
0.0
 11
21.111854
 21
240.569158
 31
0.0
  0
LINE
  5
DD
330
2
100
AcDbEntity
  8
MSD_2-0
100
AcDbLine
 10
21.111854
 20
240.269158
 30
0.0
 11
18.611854
 21
240.269158
 31
0.0
  0
LINE
  5
DE
330
2
100
AcDbEntity
  8
MSD_2-0
100
AcDbLine
 10
21.111854
 20
240.569158
 30
0.0
 11
21.111854
 21
240.269158
 31
0.0
  0
LINE
  5
DF
330
2
100
AcDbEntity
  8
MSD_2-0
100
AcDbLine
 10
22.111854
 20
240.269158
 30
0.0
 11
22.111854
 21
240.569158
 31
0.0
  0
LINE
  5
E0
330
2
100
AcDbEntity
  8
MSD_2-0
100
AcDbLine
 10
27.111854
 20
240.269158
 30
0.0
 11
25.111854
 21
240.269158
 31
0.0
  0
ARC
  5
E1
330
2
100
AcDbEntity
  8
MSD_2-0
100
AcDbCircle
 10
30.90490900000001
 20
242.698323
 30
0.0
 40
2.293055999999999
100
AcDbArc
 50
125.085847
 51
234.914153
  0
LINE
  5
E2
330
2
100
AcDbEntity
  8
MSD_2-0
100
AcDbLine
 10
56.111857
 20
242.069158
 30
0.0
 11
43.523854
 21
242.069158
 31
0.0
  0
LINE
  5
E3
330
2
100
AcDbEntity
  8
MSD_2-4
100
AcDbLine
 10
43.611857
 20
241.069158
 30
0.0
 11
56.111857
 21
241.069158
 31
0.0
  0
ARC
  5
E4
330
2
100
AcDbEntity
  8
MSD_2-0
100
AcDbCircle
 10
41.318802
 20
242.698323
 30
0.0
 40
2.293055999999999
100
AcDbArc
 50
305.085848
 51
54.914152
  0
ARC
  5
E5
330
2
100
AcDbEntity
  8
MSD_2-0
100
AcDbCircle
 10
59.220538
 20
244.430374
 30
0.0
 40
3.108681
100
AcDbArc
 50
127.878142
 51
232.121858
  0
LINE
  5
E6
330
2
100
AcDbEntity
  8
MSD_2-0
100
AcDbLine
 10
84.013757
 20
247.069158
 30
0.0
 11
84.013757
 21
227.069158
 31
0.0
  0
LINE
  5
E7
330
2
100
AcDbEntity
  8
MSD_2-0
100
AcDbLine
 10
61.111857
 20
227.069158
 30
0.0
 11
61.111857
 21
247.069158
 31
0.0
  0
LINE
  5
E8
330
2
100
AcDbEntity
  8
MSD_2-0
100
AcDbLine
 10
98.611857
 20
233.069158
 30
0.0
 11
98.611857
 21
241.069158
 31
0.0
  0
LINE
  5
E9
330
2
100
AcDbEntity
  8
MSD_2-0
100
AcDbLine
 10
97.611857
 20
241.069158
 30
0.0
 11
97.611857
 21
233.069158
 31
0.0
  0
LINE
  5
EA
330
2
100
AcDbEntity
  8
MSD_2-0
100
AcDbLine
 10
96.611857
 20
242.069158
 30
0.0
 11
96.611857
 21
232.069158
 31
0.0
  0
LINE
  5
EB
330
2
100
AcDbEntity
  8
MSD_2-0
100
AcDbLine
 10
65.148557
 20
247.069158
 30
0.0
 11
65.148557
 21
227.069158
 31
0.0
  0
ARC
  5
EC
330
2
100
AcDbEntity
  8
MSD_2-0
100
AcDbCircle
 10
50.477135
 20
237.069158
 30
0.0
 40
10.634722
100
AcDbArc
 50
332.518773
 51
27.481227
  0
LINE
  5
ED
330
2
100
AcDbEntity
  8
MSD_2-0
100
AcDbLine
 10
61.111857
 20
229.707942
 30
0.0
 11
61.111857
 21
244.430374
 31
0.0
  0
ARC
  5
EE
330
2
100
AcDbEntity
  8
MSD_2-0
100
AcDbCircle
 10
58.003177
 20
229.707942
 30
0.0
 40
3.108681
100
AcDbArc
 50
307.878144
 51
52.121856
  0
LINE
  5
EF
330
2
100
AcDbEntity
  8
MSD_2-0
100
AcDbLine
 10
84.013757
 20
232.069158
 30
0.0
 11
96.611857
 21
232.069158
 31
0.0
  0
LINE
  5
F0
330
2
100
AcDbEntity
  8
MSD_2-0
100
AcDbLine
 10
95.111857
 20
231.569158
 30
0.0
 11
84.111857
 21
231.569158
 31
0.0
  0
LINE
  5
F1
330
2
100
AcDbEntity
  8
MSD_2-0
100
AcDbLine
 10
84.111857
 20
231.569158
 30
0.0
 11
84.111857
 21
227.069158
 31
0.0
  0
LINE
  5
F2
330
2
100
AcDbEntity
  8
MSD_2-0
100
AcDbLine
 10
97.611857
 20
233.069158
 30
0.0
 11
98.611857
 21
233.069158
 31
0.0
  0
LINE
  5
F3
330
2
100
AcDbEntity
  8
MSD_2-0
100
AcDbLine
 10
96.611857
 20
232.069158
 30
0.0
 11
97.611857
 21
233.069158
 31
0.0
  0
LINE
  5
F4
330
2
100
AcDbEntity
  8
MSD_2-0
100
AcDbLine
 10
95.111857
 20
232.069158
 30
0.0
 11
95.111857
 21
231.569158
 31
0.0
  0
LINE
  5
F5
330
2
100
AcDbEntity
  8
MSD_2-0
100
AcDbLine
 10
61.111857
 20
247.069158
 30
0.0
 11
84.013757
 21
247.069158
 31
0.0
  0
ARC
  5
F6
330
2
100
AcDbEntity
  8
MSD_2-0
100
AcDbCircle
 10
58.003177
 20
244.430374
 30
0.0
 40
3.108681
100
AcDbArc
 50
307.878144
 51
52.121856
  0
LINE
  5
F7
330
2
100
AcDbEntity
  8
MSD_2-0
100
AcDbLine
 10
96.611857
 20
242.069158
 30
0.0
 11
84.013757
 21
242.069158
 31
0.0
  0
LINE
  5
F8
330
2
100
AcDbEntity
  8
MSD_2-0
100
AcDbLine
 10
84.111857
 20
243.069158
 30
0.0
 11
95.111857
 21
243.069158
 31
0.0
  0
LINE
  5
F9
330
2
100
AcDbEntity
  8
MSD_2-0
100
AcDbLine
 10
84.111857
 20
249.069158
 30
0.0
 11
84.111857
 21
243.069158
 31
0.0
  0
LINE
  5
FA
330
2
100
AcDbEntity
  8
MSD_2-0
100
AcDbLine
 10
85.111857
 20
250.069158
 30
0.0
 11
84.111857
 21
249.069158
 31
0.0
  0
LINE
  5
FB
330
2
100
AcDbEntity
  8
MSD_2-0
100
AcDbLine
 10
97.611857
 20
241.069158
 30
0.0
 11
96.611857
 21
242.069158
 31
0.0
  0
LINE
  5
FC
330
2
100
AcDbEntity
  8
MSD_2-0
100
AcDbLine
 10
98.611857
 20
241.069158
 30
0.0
 11
97.611857
 21
241.069158
 31
0.0
  0
LINE
  5
FD
330
2
100
AcDbEntity
  8
MSD_2-0
100
AcDbLine
 10
95.111857
 20
243.069158
 30
0.0
 11
95.111857
 21
242.069158
 31
0.0
  0
LINE
  5
FE
330
2
100
AcDbEntity
  8
MSD_2-0
100
AcDbLine
 10
98.611857
 20
273.069158
 30
0.0
 11
99.61185700000001
 21
274.069158
 31
0.0
  0
LINE
  5
FF
330
2
100
AcDbEntity
  8
MSD_2-0
100
AcDbLine
 10
231.049152
 20
335.616069
 30
0.0
 11
231.049152
 21
361.016069
 31
0.0
  0
LINE
  5
100
330
2
100
AcDbEntity
  8
MSD_2-0
100
AcDbLine
 10
236.049152
 20
372.316069
 30
0.0
 11
236.049152
 21
282.316069
 31
0.0
  0
LINE
  5
102
330
2
100
AcDbEntity
  8
MSD_2-0
100
AcDbLine
 10
113.611857
 20
273.069158
 30
0.0
 11
113.611857
 21
250.069158
 31
0.0
  0
LINE
  5
103
330
2
100
AcDbEntity
  8
MSD_2-3
100
AcDbLine
 10
108.361857
 20
259.069158
 30
0.0
 11
108.361857
 21
274.069158
 31
0.0
  0
LINE
  5
104
330
2
100
AcDbEntity
  8
MSD_2-3
100
AcDbLine
 10
103.861857
 20
274.069158
 30
0.0
 11
103.861857
 21
259.069158
 31
0.0
  0
LINE
  5
105
330
2
100
AcDbEntity
  8
MSD_2-3
100
AcDbLine
 10
109.111857
 20
262.069158
 30
0.0
 11
109.111857
 21
274.069158
 31
0.0
  0
LINE
  5
106
330
2
100
AcDbEntity
  8
MSD_2-3
100
AcDbLine
 10
103.111857
 20
274.069158
 30
0.0
 11
103.111857
 21
262.069158
 31
0.0
  0
LINE
  5
107
330
2
100
AcDbEntity
  8
MSD_2-0
100
AcDbLine
 10
117.111857
 20
234.569158
 30
0.0
 11
117.111857
 21
240.069158
 31
0.0
  0
LINE
  5
108
330
2
100
AcDbEntity
  8
MSD_2-0
100
AcDbLine
 10
128.111857
 20
231.569158
 30
0.0
 11
120.111857
 21
231.569158
 31
0.0
  0
ARC
  5
109
330
2
100
AcDbEntity
  8
MSD_2-0
100
AcDbCircle
 10
120.111857
 20
234.569158
 30
0.0
 40
3.0
100
AcDbArc
 50
179.999998
 51
270.000001
  0
LINE
  5
10A
330
2
100
AcDbEntity
  8
MSD_2-0
100
AcDbLine
 10
128.111857
 20
227.069158
 30
0.0
 11
128.111857
 21
231.569158
 31
0.0
  0
LINE
  5
10B
330
2
100
AcDbEntity
  8
MSD_2-0
100
AcDbLine
 10
127.111857
 20
250.069158
 30
0.0
 11
106.111857
 21
250.069158
 31
0.0
  0
LINE
  5
10C
330
2
100
AcDbEntity
  8
MSD_2-0
100
AcDbLine
 10
120.111857
 20
243.069158
 30
0.0
 11
128.111857
 21
243.069158
 31
0.0
  0
LINE
  5
10D
330
2
100
AcDbEntity
  8
MSD_2-0
100
AcDbLine
 10
109.111857
 20
249.069158
 30
0.0
 11
128.111857
 21
249.069158
 31
0.0
  0
LINE
  5
10E
330
2
100
AcDbEntity
  8
MSD_2-0
100
AcDbLine
 10
109.111857
 20
250.069158
 30
0.0
 11
109.111857
 21
243.069158
 31
0.0
  0
LINE
  5
10F
330
2
100
AcDbEntity
  8
MSD_2-0
100
AcDbLine
 10
103.111857
 20
250.069158
 30
0.0
 11
103.111857
 21
243.069158
 31
0.0
  0
ARC
  5
110
330
2
100
AcDbEntity
  8
MSD_2-0
100
AcDbCircle
 10
120.111857
 20
240.069158
 30
0.0
 40
3.0
100
AcDbArc
 50
89.999999
 51
179.999998
  0
LINE
  5
111
330
2
100
AcDbEntity
  8
MSD_2-3
100
AcDbLine
 10
103.111857
 20
262.069158
 30
0.0
 11
109.111857
 21
262.069158
 31
0.0
  0
LINE
  5
112
330
2
100
AcDbEntity
  8
MSD_2-3
100
AcDbLine
 10
103.861857
 20
259.069158
 30
0.0
 11
106.111857
 21
257.77012
 31
0.0
  0
LINE
  5
113
330
2
100
AcDbEntity
  8
MSD_2-3
100
AcDbLine
 10
103.861857
 20
259.069158
 30
0.0
 11
108.361857
 21
259.069158
 31
0.0
  0
LINE
  5
114
330
2
100
AcDbEntity
  8
MSD_2-3
100
AcDbLine
 10
106.111857
 20
257.77012
 30
0.0
 11
108.361857
 21
259.069158
 31
0.0
  0
LINE
  5
115
330
2
100
AcDbEntity
  8
MSD_2-0
100
AcDbLine
 10
128.111857
 20
243.069158
 30
0.0
 11
128.111857
 21
249.069158
 31
0.0
  0
LINE
  5
116
330
2
100
AcDbEntity
  8
MSD_2-0
100
AcDbLine
 10
128.111857
 20
249.069158
 30
0.0
 11
127.111857
 21
250.069158
 31
0.0
  0
LINE
  5
117
330
2
100
AcDbEntity
  8
MSD_2-0
100
AcDbLine
 10
112.611857
 20
274.069158
 30
0.0
 11
113.611857
 21
273.069158
 31
0.0
  0
LINE
  5
118
330
2
100
AcDbEntity
  8
MSD_2-0
100
AcDbLine
 10
262.6504740000001
 20
227.069158
 30
0.0
 11
262.6504740000001
 21
247.069158
 31
0.0
  0
LINE
  5
11C
330
2
100
AcDbEntity
  8
MSD_2-0
100
AcDbLine
 10
231.049152
 20
207.769158
 30
0.0
 11
236.049152
 21
207.769158
 31
0.0
  0
LINE
  5
11F
330
2
100
AcDbEntity
  8
MSD_2-0
100
AcDbLine
 10
266.041599
 20
247.069158
 30
0.0
 11
266.041599
 21
249.069158
 31
0.0
  0
ARC
  5
120
330
2
100
AcDbEntity
  8
MSD_2-0
100
AcDbCircle
 10
266.541599
 20
249.069158
 30
0.0
 40
0.5
100
AcDbArc
 50
89.999999
 51
179.999998
  0
LINE
  5
121
330
2
100
AcDbEntity
  8
MSD_2-0
100
AcDbLine
 10
231.049152
 20
293.616069
 30
0.0
 11
231.049152
 21
319.016069
 31
0.0
  0
LINE
  5
122
330
2
100
AcDbEntity
  8
MSD_2-0
100
AcDbLine
 10
236.049152
 20
293.616069
 30
0.0
 11
231.049152
 21
293.616069
 31
0.0
  0
LINE
  5
123
330
2
100
AcDbEntity
  8
MSD_2-0
100
AcDbLine
 10
231.049152
 20
319.016069
 30
0.0
 11
236.049152
 21
319.016069
 31
0.0
  0
LINE
  5
124
330
2
100
AcDbEntity
  8
MSD_2-0
100
AcDbLine
 10
231.049152
 20
306.316069
 30
0.0
 11
236.049152
 21
306.316069
 31
0.0
  0
LINE
  5
125
330
2
100
AcDbEntity
  8
MSD_2-7
100
AcDbLine
 10
229.049152
 20
306.316069
 30
0.0
 11
242.81094
 21
306.316069
 31
0.0
  0
LINE
  5
126
330
2
100
AcDbEntity
  8
MSD_2-0
100
AcDbLine
 10
236.049152
 20
335.616069
 30
0.0
 11
231.049152
 21
335.616069
 31
0.0
  0
LINE
  5
127
330
2
100
AcDbEntity
  8
MSD_2-0
100
AcDbLine
 10
231.049152
 20
348.316069
 30
0.0
 11
236.049152
 21
348.316069
 31
0.0
  0
LINE
  5
128
330
2
100
AcDbEntity
  8
MSD_2-7
100
AcDbLine
 10
229.049152
 20
348.316069
 30
0.0
 11
242.81094
 21
348.316069
 31
0.0
  0
LINE
  5
129
330
2
100
AcDbEntity
  8
MSD_2-0
100
AcDbLine
 10
231.049152
 20
361.016069
 30
0.0
 11
236.049152
 21
361.016069
 31
0.0
  0
LINE
  5
12A
330
2
100
AcDbEntity
  8
MSD_2-0
100
AcDbLine
 10
524.092978
 20
227.069158
 30
0.0
 11
524.092978
 21
165.069158
 31
0.0
  0
LINE
  5
12B
330
2
100
AcDbEntity
  8
MSD_2-0
100
AcDbLine
 10
434.092978
 20
165.069158
 30
0.0
 11
434.092978
 21
227.069158
 31
0.0
  0
LINE
  5
12C
330
2
100
AcDbEntity
  8
MSD_2-0
100
AcDbLine
 10
500.0929779999999
 20
207.769158
 30
0.0
 11
489.0944549999999
 21
201.419158
 31
0.0
  0
LINE
  5
12D
330
2
100
AcDbEntity
  8
MSD_2-0
100
AcDbLine
 10
511.091501
 20
201.419158
 30
0.0
 11
500.0929779999999
 21
207.769158
 31
0.0
  0
LINE
  5
12E
330
2
100
AcDbEntity
  8
MSD_2-0
100
AcDbLine
 10
458.0929779999999
 20
207.769158
 30
0.0
 11
447.0944549999999
 21
201.419158
 31
0.0
  0
LINE
  5
12F
330
2
100
AcDbEntity
  8
MSD_2-0
100
AcDbLine
 10
469.091501
 20
201.419158
 30
0.0
 11
458.0929779999999
 21
207.769158
 31
0.0
  0
LINE
  5
130
330
2
100
AcDbEntity
  8
MSD_2-0
100
AcDbLine
 10
364.049152
 20
227.069158
 30
0.0
 11
364.049152
 21
165.069158
 31
0.0
  0
CIRCLE
  5
131
330
2
100
AcDbEntity
  8
MSD_2-0
100
AcDbCircle
 10
458.0929779999999
 20
195.069158
 30
0.0
 40
20.0
  0
CIRCLE
  5
132
330
2
100
AcDbEntity
  8
MSD_2-0
100
AcDbCircle
 10
500.0929779999999
 20
195.069158
 30
0.0
 40
20.0
  0
LINE
  5
133
330
2
100
AcDbEntity
  8
MSD_2-7
100
AcDbLine
 10
500.0929779999999
 20
218.335889
 30
0.0
 11
500.0929779999999
 21
172.176274
 31
0.0
  0
LINE
  5
134
330
2
100
AcDbEntity
  8
MSD_2-7
100
AcDbLine
 10
458.0929779999999
 20
218.335889
 30
0.0
 11
458.0929779999999
 21
172.176274
 31
0.0
  0
LINE
  5
135
330
2
100
AcDbEntity
  8
MSD_2-7
100
AcDbLine
 10
479.0929779999999
 20
276.069158
 30
0.0
 11
479.0929779999999
 21
160.588881
 31
0.0
  0
LINE
  5
137
330
2
100
AcDbEntity
  8
MSD_2-7
100
AcDbLine
 10
300.049152
 20
276.069158
 30
0.0
 11
300.049152
 21
163.069158
 31
0.0
  0
LINE
  5
138
330
2
100
AcDbEntity
  8
MSD_2-7
100
AcDbLine
 10
432.092978
 20
195.069158
 30
0.0
 11
526.092978
 21
195.069158
 31
0.0
  0
LINE
  5
139
330
2
100
AcDbEntity
  8
MSD_2-0
100
AcDbLine
 10
272.299152
 20
78.42129200000001
 30
0.0
 11
269.787679
 21
76.971292
 31
0.0
  0
LINE
  5
13A
330
2
100
AcDbEntity
  8
MSD_2-0
100
AcDbLine
 10
274.810626
 20
76.971292
 30
0.0
 11
272.299152
 21
78.42129200000001
 31
0.0
  0
LINE
  5
13B
330
2
100
AcDbEntity
  8
MSD_2-0
100
AcDbLine
 10
316.51133
 20
82.364908
 30
0.0
 11
301.395105
 21
73.21342099999999
 31
0.0
  0
LINE
  5
13C
330
2
100
AcDbEntity
  8
MSD_2-0
100
AcDbLine
 10
337.447831
 20
60.45799200000001
 30
0.0
 11
334.907397
 21
84.32315899999998
 31
0.0
  0
LINE
  5
13D
330
2
100
AcDbEntity
  8
MSD_2-0
100
AcDbLine
 10
327.799152
 20
78.42129200000001
 30
0.0
 11
330.310626
 21
76.971292
 31
0.0
  0
LINE
  5
13E
330
2
100
AcDbEntity
  8
MSD_2-0
100
AcDbLine
 10
325.287679
 20
76.971292
 30
0.0
 11
327.799152
 21
78.42129200000001
 31
0.0
  0
LINE
  5
13F
330
2
100
AcDbEntity
  8
MSD_2-0
100
AcDbLine
 10
364.049152
 20
146.421292
 30
0.0
 11
364.049152
 21
56.421292
 31
0.0
  0
LINE
  5
140
330
2
100
AcDbEntity
  8
MSD_2-0
100
AcDbLine
 10
283.586974
 20
82.364908
 30
0.0
 11
298.7032
 21
73.21342099999999
 31
0.0
  0
CIRCLE
  5
141
330
2
100
AcDbEntity
  8
MSD_2-0
100
AcDbCircle
 10
327.799152
 20
75.521292
 30
0.0
 40
6.25
  0
LINE
  5
142
330
2
100
AcDbEntity
  8
MSD_2-7
100
AcDbLine
 10
327.799152
 20
82.781423
 30
0.0
 11
327.799152
 21
67.852817
 31
0.0
  0
LINE
  5
143
330
2
100
AcDbEntity
  8
MSD_2-3
100
AcDbLine
 10
317.0950676389048
 20
53.2632031860651
 30
0.0
 11
314.1494220249272
 21
80.93498947675268
 31
0.0
  0
LINE
  5
144
330
2
100
AcDbEntity
  8
MSD_2-3
100
AcDbLine
 10
325.0501235942163
 20
54.11001383875049
 30
0.0
 11
321.9804334989709
 21
82.94709099574376
 31
0.0
  0
LINE
  5
145
330
2
100
AcDbEntity
  8
MSD_2-3
100
AcDbLine
 10
316.100686
 20
53.157352
 30
0.0
 11
313.179847
 21
80.596098
 31
0.0
  0
LINE
  5
146
330
2
100
AcDbEntity
  8
MSD_2-3
100
AcDbLine
 10
326.0445049999999
 20
54.21586600000001
 30
0.0
 11
322.974815
 21
83.05294299999999
 31
0.0
  0
LINE
  5
147
330
2
100
AcDbEntity
  8
MSD_2-7
100
AcDbLine
 10
272.299152
 20
82.628778
 30
0.0
 11
272.299152
 21
67.120125
 31
0.0
  0
LINE
  5
148
330
2
100
AcDbEntity
  8
MSD_2-7
100
AcDbLine
 10
325.236217
 20
14.572995
 30
0.0
 11
316.502594
 21
96.61781300000001
 31
0.0
  0
LINE
  5
149
330
2
100
AcDbEntity
  8
MSD_2-7
100
AcDbLine
 10
283.491776
 20
95.64144199999999
 30
0.0
 11
278.397243
 21
47.782681
 31
0.0
  0
LINE
  5
14A
330
2
100
AcDbEntity
  8
MSD_2-7
100
AcDbLine
 10
300.049152
 20
148.421292
 30
0.0
 11
300.049152
 21
54.421292
 31
0.0
  0
LINE
  5
15D
330
2
100
AcDbEntity
  8
MSD_2-0
100
AcDbLine
 10
364.049152
 20
56.421292
 30
0.0
 11
330.651743
 21
56.422706
 31
0.0
  0
LINE
  5
15F
330
2
100
AcDbEntity
  8
MSD_2-0
100
AcDbLine
 10
311.0606259999999
 20
62.971292
 30
0.0
 11
308.549152
 21
61.521292
 31
0.0
  0
LINE
  5
160
330
2
100
AcDbEntity
  8
MSD_2-0
100
AcDbLine
 10
308.549152
 20
67.321292
 30
0.0
 11
311.0606259999999
 21
65.87129200000001
 31
0.0
  0
LINE
  5
161
330
2
100
AcDbEntity
  8
MSD_2-0
100
AcDbLine
 10
301.152889
 20
56.594416
 30
0.0
 11
337.447831
 21
60.45799200000001
 31
0.0
  0
CIRCLE
  5
162
330
2
100
AcDbEntity
  8
MSD_2-0
100
AcDbCircle
 10
308.549152
 20
64.421292
 30
0.0
 40
6.25
  0
LINE
  5
163
330
2
100
AcDbEntity
  8
MSD_2-0
100
AcDbLine
 10
310.91084
 20
56.423541
 30
0.0
 11
289.187562
 21
56.42445999999999
 31
0.0
  0
LINE
  5
164
330
2
100
AcDbEntity
  8
MSD_2-7
100
AcDbLine
 10
301.338821
 20
64.421292
 30
0.0
 11
316.023196
 21
64.421292
 31
0.0
  0
ARC
  5
165
330
2
100
AcDbEntity
  8
MSD_2-0
100
AcDbCircle
 10
286.545772
 20
54.788107
 30
0.0
 40
3.108681
100
AcDbArc
 50
31.801923
 51
136.045636
  0
CIRCLE
  5
166
330
2
100
AcDbEntity
  8
MSD_2-0
100
AcDbCircle
 10
291.549152
 20
64.421292
 30
0.0
 40
6.25
  0
ARC
  5
167
330
2
100
AcDbEntity
  8
MSD_2-0
100
AcDbCircle
 10
286.674629
 20
55.99863
 30
0.0
 40
3.108681
100
AcDbArc
 50
211.801924
 51
316.045637
  0
LINE
  5
168
330
2
100
AcDbEntity
  8
MSD_2-7
100
AcDbLine
 10
283.784735
 20
64.421292
 30
0.0
 11
298.743869
 21
64.421292
 31
0.0
  0
LINE
  5
169
330
2
100
AcDbEntity
  8
MSD_2-0
100
AcDbLine
 10
274.645088
 20
50.323308
 30
0.0
 11
282.600144
 21
49.47649699999999
 31
0.0
  0
LINE
  5
16A
330
2
100
AcDbEntity
  8
MSD_2-0
100
AcDbLine
 10
273.756558
 20
51.42354199999999
 30
0.0
 11
283.700377
 21
50.365028
 31
0.0
  0
ARC
  5
16B
330
2
100
AcDbEntity
  8
MSD_2-0
100
AcDbCircle
 10
278.429269
 20
48.083542
 30
0.0
 40
10.634722
100
AcDbArc
 50
56.44255199999999
 51
111.405006
  0
LINE
  5
16C
330
2
100
AcDbEntity
  8
MSD_2-0
100
AcDbLine
 10
286.87483
 20
57.879323
 30
0.0
 11
272.235109
 21
59.437713
 31
0.0
  0
ARC
  5
16D
330
2
100
AcDbEntity
  8
MSD_2-0
100
AcDbCircle
 10
280.15141
 20
64.261584
 30
0.0
 40
10.634722
100
AcDbArc
 50
236.442554
 51
291.405008
  0
LINE
  5
16E
330
2
100
AcDbEntity
  8
MSD_2-0
100
AcDbLine
 10
286.34557
 20
52.907414
 30
0.0
 11
271.70585
 21
54.465803
 31
0.0
  0
LINE
  5
16F
330
2
100
AcDbEntity
  8
MSD_2-0
100
AcDbLine
 10
274.053797
 20
54.21586600000001
 30
0.0
 11
273.756558
 21
51.42354199999999
 31
0.0
  0
LINE
  5
170
330
2
100
AcDbEntity
  8
MSD_2-4
100
AcDbLine
 10
275.048179
 20
54.11001500000001
 30
0.0
 11
274.645088
 21
50.323308
 31
0.0
  0
LINE
  5
171
330
2
100
AcDbEntity
  8
MSD_2-0
100
AcDbLine
 10
273.756558
 20
51.42354199999999
 30
0.0
 11
274.645088
 21
50.323308
 31
0.0
  0
ARC
  5
172
330
2
100
AcDbEntity
  8
MSD_2-0
100
AcDbCircle
 10
271.906051
 20
56.346497
 30
0.0
 40
3.108681
100
AcDbArc
 50
31.801923
 51
136.045636
  0
ARC
  5
173
330
2
100
AcDbEntity
  8
MSD_2-0
100
AcDbCircle
 10
272.034908
 20
57.557019
 30
0.0
 40
3.108681
100
AcDbArc
 50
211.801924
 51
316.045637
  0
LINE
  5
174
330
2
100
AcDbEntity
  8
MSD_2-0
100
AcDbLine
 10
269.668134
 20
58.504186
 30
0.0
 11
269.39292
 21
55.91879300000001
 31
0.0
  0
LINE
  5
175
330
2
100
AcDbEntity
  8
MSD_2-0
100
AcDbLine
 10
274.548041
 20
57.984723
 30
0.0
 11
274.272827
 21
55.39933000000001
 31
0.0
  0
LINE
  5
176
330
2
100
AcDbEntity
  8
MSD_2-0
100
AcDbLine
 10
282.600144
 20
49.47649699999999
 30
0.0
 11
283.700377
 21
50.365028
 31
0.0
  0
LINE
  5
177
330
2
100
AcDbEntity
  8
MSD_2-4
100
AcDbLine
 10
283.003234
 20
53.263204
 30
0.0
 11
282.600144
 21
49.47649699999999
 31
0.0
  0
LINE
  5
178
330
2
100
AcDbEntity
  8
MSD_2-0
100
AcDbLine
 10
283.700377
 20
50.365028
 30
0.0
 11
283.997616
 21
53.157352
 31
0.0
  0
LINE
  5
179
330
2
100
AcDbEntity
  8
MSD_2-0
100
AcDbLine
 10
284.3078549999999
 20
56.94579599999999
 30
0.0
 11
284.032639
 21
54.360404
 31
0.0
  0
LINE
  5
17A
330
2
100
AcDbEntity
  8
MSD_2-0
100
AcDbLine
 10
269.787679
 20
74.07129199999999
 30
0.0
 11
272.299152
 21
72.62129200000001
 31
0.0
  0
LINE
  5
17B
330
2
100
AcDbEntity
  8
MSD_2-0
100
AcDbLine
 10
269.787679
 20
76.971292
 30
0.0
 11
269.787679
 21
74.07129199999999
 31
0.0
  0
LINE
  5
17C
330
2
100
AcDbEntity
  8
MSD_2-0
100
AcDbLine
 10
274.810626
 20
74.07129199999999
 30
0.0
 11
274.810626
 21
76.971292
 31
0.0
  0
LINE
  5
17D
330
2
100
AcDbEntity
  8
MSD_2-0
100
AcDbLine
 10
272.299152
 20
72.62129200000001
 30
0.0
 11
274.810626
 21
74.07129199999999
 31
0.0
  0
LINE
  5
17E
330
2
100
AcDbEntity
  8
MSD_2-0
100
AcDbLine
 10
300.359003
 20
64.05228000000001
 30
0.0
 11
301.152889
 21
56.594416
 31
0.0
  0
LINE
  5
17F
330
2
100
AcDbEntity
  8
MSD_2-0
100
AcDbLine
 10
299.739301
 20
64.05228000000001
 30
0.0
 11
298.945415
 21
56.594416
 31
0.0
  0
LINE
  5
180
330
2
100
AcDbEntity
  8
MSD_2-7
100
AcDbLine
 10
308.549152
 20
71.577336
 30
0.0
 11
308.549152
 21
56.86243199999999
 31
0.0
  0
LINE
  5
181
330
2
100
AcDbEntity
  8
MSD_2-7
100
AcDbLine
 10
291.549152
 20
71.424692
 30
0.0
 11
291.549152
 21
56.86243199999999
 31
0.0
  0
LINE
  5
182
330
2
100
AcDbEntity
  8
MSD_2-0
100
AcDbLine
 10
289.187762
 20
56.42633299999999
 30
0.0
 11
288.912546
 21
53.84094000000001
 31
0.0
  0
LINE
  5
183
330
2
100
AcDbEntity
  8
MSD_2-0
100
AcDbLine
 10
291.549152
 20
61.521292
 30
0.0
 11
294.060626
 21
62.971292
 31
0.0
  0
LINE
  5
184
330
2
100
AcDbEntity
  8
MSD_2-0
100
AcDbLine
 10
294.060626
 20
65.87129200000001
 30
0.0
 11
291.549152
 21
67.321292
 31
0.0
  0
LINE
  5
185
330
2
100
AcDbEntity
  8
MSD_2-0
100
AcDbLine
 10
289.037679
 20
62.971292
 30
0.0
 11
291.549152
 21
61.521292
 31
0.0
  0
LINE
  5
186
330
2
100
AcDbEntity
  8
MSD_2-0
100
AcDbLine
 10
289.037679
 20
65.87129200000001
 30
0.0
 11
289.037679
 21
62.971292
 31
0.0
  0
LINE
  5
187
330
2
100
AcDbEntity
  8
MSD_2-0
100
AcDbLine
 10
291.549152
 20
67.321292
 30
0.0
 11
289.037679
 21
65.87129200000001
 31
0.0
  0
LINE
  5
188
330
2
100
AcDbEntity
  8
MSD_2-0
100
AcDbLine
 10
294.060626
 20
62.971292
 30
0.0
 11
294.060626
 21
65.87129200000001
 31
0.0
  0
LINE
  5
189
330
2
100
AcDbEntity
  8
MSD_2-0
100
AcDbLine
 10
301.395105
 20
73.21342099999999
 30
0.0
 11
300.359003
 21
64.05228000000001
 31
0.0
  0
LINE
  5
18A
330
2
100
AcDbEntity
  8
MSD_2-0
100
AcDbLine
 10
298.7032
 20
73.21342099999999
 30
0.0
 11
299.739301
 21
64.05228000000001
 31
0.0
  0
LINE
  5
18B
330
2
100
AcDbEntity
  8
MSD_2-0
100
AcDbLine
 10
306.037679
 20
62.971292
 30
0.0
 11
306.037679
 21
65.87129200000001
 31
0.0
  0
LINE
  5
18C
330
2
100
AcDbEntity
  8
MSD_2-0
100
AcDbLine
 10
308.549152
 20
61.521292
 30
0.0
 11
306.037679
 21
62.971292
 31
0.0
  0
LINE
  5
18D
330
2
100
AcDbEntity
  8
MSD_2-0
100
AcDbLine
 10
306.037679
 20
65.87129200000001
 30
0.0
 11
308.549152
 21
67.321292
 31
0.0
  0
LINE
  5
18E
330
2
100
AcDbEntity
  8
MSD_2-0
100
AcDbLine
 10
316.100686
 20
53.157352
 30
0.0
 11
317.465759
 21
40.33366799999999
 31
0.0
  0
LINE
  5
18F
330
2
100
AcDbEntity
  8
MSD_2-0
100
AcDbLine
 10
327.409579
 20
41.392182
 30
0.0
 11
326.0445049999999
 21
54.21586600000001
 31
0.0
  0
LINE
  5
190
330
2
100
AcDbEntity
  8
MSD_2-4
100
AcDbLine
 10
318.4508259999999
 20
40.52702899999999
 30
0.0
 11
317.0950676389048
 21
53.2632031860651
 31
0.0
  0
LINE
  5
191
330
2
100
AcDbEntity
  8
MSD_2-4
100
AcDbLine
 10
326.405882
 20
41.373839
 30
0.0
 11
325.0501235942163
 21
54.11001383875049
 31
0.0
  0
ARC
  5
192
330
2
100
AcDbEntity
  8
MSD_2-0
100
AcDbCircle
 10
329.370942
 20
28.910729
 30
0.0
 40
2.293055999999999
100
AcDbArc
 50
221.162069
 51
330.990372
  0
ARC
  5
193
330
2
100
AcDbEntity
  8
MSD_2-0
100
AcDbCircle
 10
328.268617
 20
39.266116
 30
0.0
 40
2.293055999999999
100
AcDbArc
 50
41.162067
 51
150.990371
  0
LINE
  5
194
330
2
100
AcDbEntity
  8
MSD_2-0
100
AcDbLine
 10
315.068172
 20
39.186438
 30
0.0
 11
316.449533
 21
26.20975
 31
0.0
  0
LINE
  5
195
330
2
100
AcDbEntity
  8
MSD_2-0
100
AcDbLine
 10
326.263252
 20
40.37814799999999
 30
0.0
 11
327.644613
 21
27.40146
 31
0.0
  0
LINE
  5
196
330
2
100
AcDbEntity
  8
MSD_2-0
100
AcDbLine
 10
318.799865
 20
39.583675
 30
0.0
 11
320.181226
 21
26.606987
 31
0.0
  0
ARC
  5
197
330
2
100
AcDbEntity
  8
MSD_2-0
100
AcDbCircle
 10
318.175861
 20
27.719019
 30
0.0
 40
2.293055999999999
100
AcDbArc
 50
221.162069
 51
330.990372
  0
LINE
  5
198
330
2
100
AcDbEntity
  8
MSD_2-0
100
AcDbLine
 10
318.418584
 20
25.438846
 30
0.0
 11
329.613665
 21
26.630556
 31
0.0
  0
LINE
  5
199
330
2
100
AcDbEntity
  8
MSD_2-0
100
AcDbLine
 10
327.886181
 20
19.909943
 30
0.0
 11
327.198147
 21
26.373426
 31
0.0
  0
LINE
  5
19A
330
2
100
AcDbEntity
  8
MSD_2-0
100
AcDbLine
 10
320.834102
 20
25.695977
 30
0.0
 11
321.522136
 21
19.232494
 31
0.0
  0
LINE
  5
19B
330
2
100
AcDbEntity
  8
MSD_2-0
100
AcDbLine
 10
321.892616
 20
15.752157
 30
0.0
 11
328.256661
 21
16.429606
 31
0.0
  0
LINE
  5
19C
330
2
100
AcDbEntity
  8
MSD_2-0
100
AcDbLine
 10
321.522136
 20
19.232494
 30
0.0
 11
327.886181
 21
19.909943
 31
0.0
  0
LINE
  5
19D
330
2
100
AcDbEntity
  8
MSD_2-0
100
AcDbLine
 10
321.627988
 20
18.238112
 30
0.0
 11
327.992032
 21
18.915561
 31
0.0
  0
LINE
  5
19E
330
2
100
AcDbEntity
  8
MSD_2-0
100
AcDbLine
 10
321.627988
 20
18.238112
 30
0.0
 11
321.892616
 21
15.752157
 31
0.0
  0
LINE
  5
19F
330
2
100
AcDbEntity
  8
MSD_2-0
100
AcDbLine
 10
321.329673
 20
18.206357
 30
0.0
 11
321.627988
 21
18.238112
 31
0.0
  0
LINE
  5
1A0
330
2
100
AcDbEntity
  8
MSD_2-0
100
AcDbLine
 10
321.2238220000001
 20
19.200739
 30
0.0
 11
321.329673
 21
18.206357
 31
0.0
  0
LINE
  5
1A1
330
2
100
AcDbEntity
  8
MSD_2-0
100
AcDbLine
 10
321.522136
 20
19.232494
 30
0.0
 11
321.2238220000001
 21
19.200739
 31
0.0
  0
LINE
  5
1A2
330
2
100
AcDbEntity
  8
MSD_2-0
100
AcDbLine
 10
328.184495
 20
19.941698
 30
0.0
 11
327.886181
 21
19.909943
 31
0.0
  0
LINE
  5
1A3
330
2
100
AcDbEntity
  8
MSD_2-0
100
AcDbLine
 10
328.290347
 20
18.947316
 30
0.0
 11
328.184495
 21
19.941698
 31
0.0
  0
LINE
  5
1A4
330
2
100
AcDbEntity
  8
MSD_2-0
100
AcDbLine
 10
327.992032
 20
18.915561
 30
0.0
 11
328.290347
 21
18.947316
 31
0.0
  0
LINE
  5
1A5
330
2
100
AcDbEntity
  8
MSD_2-0
100
AcDbLine
 10
328.256661
 20
16.429606
 30
0.0
 11
327.992032
 21
18.915561
 31
0.0
  0
LINE
  5
1A6
330
2
100
AcDbEntity
  8
MSD_2-0
100
AcDbLine
 10
327.356924
 20
24.881853
 30
0.0
 11
320.992879
 21
24.204404
 31
0.0
  0
LINE
  5
1A7
330
2
100
AcDbEntity
  8
MSD_2-0
100
AcDbLine
 10
321.204582
 20
22.21564
 30
0.0
 11
327.568627
 21
22.893089
 31
0.0
  0
LINE
  5
1A8
330
2
100
AcDbEntity
  8
MSD_2-0
100
AcDbLine
 10
327.356924
 20
24.881853
 30
0.0
 11
320.992879
 21
24.204404
 31
0.0
  0
LINE
  5
1A9
330
2
100
AcDbEntity
  8
MSD_2-0
100
AcDbLine
 10
321.204582
 20
22.21564
 30
0.0
 11
327.568627
 21
22.893089
 31
0.0
  0
LINE
  5
1AA
330
2
100
AcDbEntity
  8
MSD_2-0
100
AcDbLine
 10
320.992879
 20
24.204404
 30
0.0
 11
327.356924
 21
24.881853
 31
0.0
  0
LINE
  5
1AB
330
2
100
AcDbEntity
  8
MSD_2-0
100
AcDbLine
 10
321.204582
 20
22.21564
 30
0.0
 11
327.568627
 21
22.893089
 31
0.0
  0
ARC
  5
1AC
330
2
100
AcDbEntity
  8
MSD_2-0
100
AcDbCircle
 10
323.20004
 20
33.70111
 30
0.0
 40
7.709722
100
AcDbArc
 50
246.948439
 51
305.204003
  0
LINE
  5
1AD
330
2
100
AcDbEntity
  8
MSD_2-0
100
AcDbLine
 10
320.992879
 20
24.204404
 30
0.0
 11
321.204582
 21
22.21564
 31
0.0
  0
LINE
  5
1AE
330
2
100
AcDbEntity
  8
MSD_2-0
100
AcDbLine
 10
320.992879
 20
24.204404
 30
0.0
 11
321.204582
 21
22.21564
 31
0.0
  0
LINE
  5
1AF
330
2
100
AcDbEntity
  8
MSD_2-0
100
AcDbLine
 10
327.568627
 20
22.893089
 30
0.0
 11
327.356924
 21
24.881853
 31
0.0
  0
LINE
  5
1B0
330
2
100
AcDbEntity
  8
MSD_2-0
100
AcDbLine
 10
327.568627
 20
22.893089
 30
0.0
 11
327.356924
 21
24.881853
 31
0.0
  0
ARC
  5
1B1
330
2
100
AcDbEntity
  8
MSD_2-0
100
AcDbCircle
 10
323.244438
 20
33.284025
 30
0.0
 40
7.709722
100
AcDbArc
 50
66.94843699999999
 51
125.204001
  0
LINE
  5
1B2
330
2
100
AcDbEntity
  8
MSD_2-0
100
AcDbLine
 10
316.830813
 20
40.35457899999999
 30
0.0
 11
328.025894
 21
41.546289
 31
0.0
  0
ARC
  5
1B3
330
2
100
AcDbEntity
  8
MSD_2-0
100
AcDbCircle
 10
317.073537
 20
38.07440600000001
 30
0.0
 40
2.293055999999999
100
AcDbArc
 50
41.162067
 51
150.990371
  0
LINE
  5
1B4
330
2
100
AcDbEntity
  8
MSD_2-0
100
AcDbLine
 10
329.994946
 20
40.775385
 30
0.0
 11
331.376307
 21
27.798697
 31
0.0
  0
LINE
  5
1B5
330
2
100
AcDbEntity
  8
MSD_2-0
100
AcDbLine
 10
330.310626
 20
74.07129199999999
 30
0.0
 11
327.799152
 21
72.62129200000001
 31
0.0
  0
ARC
  5
1B6
330
2
100
AcDbEntity
  8
MSD_2-0
100
AcDbCircle
 10
328.192257
 20
56.346497
 30
0.0
 40
3.108681
100
AcDbArc
 50
43.954363
 51
148.198076
  0
ARC
  5
1B7
330
2
100
AcDbEntity
  8
MSD_2-0
100
AcDbCircle
 10
328.063398
 20
57.557019
 30
0.0
 40
3.108681
100
AcDbArc
 50
223.954364
 51
328.198077
  0
LINE
  5
1B8
330
2
100
AcDbEntity
  8
MSD_2-7
100
AcDbLine
 10
319.839302
 20
75.521292
 30
0.0
 11
334.98161
 21
75.521292
 31
0.0
  0
ARC
  5
1B9
330
2
100
AcDbEntity
  8
MSD_2-0
100
AcDbCircle
 10
321.669039
 20
48.083543
 30
0.0
 40
10.634722
100
AcDbArc
 50
68.59499200000001
 51
123.557446
  0
LINE
  5
1BA
330
2
100
AcDbEntity
  8
MSD_2-0
100
AcDbLine
 10
327.863199
 20
59.437713
 30
0.0
 11
313.223478
 21
57.87932399999999
 31
0.0
  0
ARC
  5
1BB
330
2
100
AcDbEntity
  8
MSD_2-0
100
AcDbCircle
 10
319.946896
 20
64.26158499999999
 30
0.0
 40
10.634722
100
AcDbArc
 50
248.594994
 51
303.557448
  0
LINE
  5
1BC
330
2
100
AcDbEntity
  8
MSD_2-0
100
AcDbLine
 10
328.392456
 20
54.465803
 30
0.0
 11
313.752735
 21
52.907414
 31
0.0
  0
ARC
  5
1BD
330
2
100
AcDbEntity
  8
MSD_2-0
100
AcDbCircle
 10
313.423677
 20
55.99863
 30
0.0
 40
3.108681
100
AcDbArc
 50
223.954364
 51
328.198077
  0
ARC
  5
1BE
330
2
100
AcDbEntity
  8
MSD_2-0
100
AcDbCircle
 10
313.552536
 20
54.78810799999999
 30
0.0
 40
3.108681
100
AcDbArc
 50
43.954363
 51
148.198076
  0
LINE
  5
1BF
330
2
100
AcDbEntity
  8
MSD_2-0
100
AcDbLine
 10
310.910546
 20
56.426334
 30
0.0
 11
311.18576
 21
53.840941
 31
0.0
  0
LINE
  5
1C0
330
2
100
AcDbEntity
  8
MSD_2-0
100
AcDbLine
 10
315.790453
 20
56.945797
 30
0.0
 11
316.065667
 21
54.360404
 31
0.0
  0
LINE
  5
1C1
330
2
100
AcDbEntity
  8
MSD_2-0
100
AcDbLine
 10
325.550267
 20
57.984723
 30
0.0
 11
325.825481
 21
55.39933000000001
 31
0.0
  0
LINE
  5
1C2
330
2
100
AcDbEntity
  8
MSD_2-0
100
AcDbLine
 10
311.0606259999999
 20
65.87129200000001
 30
0.0
 11
311.0606259999999
 21
62.971292
 31
0.0
  0
LINE
  5
1C3
330
2
100
AcDbEntity
  8
MSD_2-0
100
AcDbLine
 10
325.287679
 20
74.07129199999999
 30
0.0
 11
325.287679
 21
76.971292
 31
0.0
  0
LINE
  5
1C4
330
2
100
AcDbEntity
  8
MSD_2-0
100
AcDbLine
 10
327.799152
 20
72.62129200000001
 30
0.0
 11
325.287679
 21
74.07129199999999
 31
0.0
  0
LINE
  5
1C7
330
2
100
AcDbEntity
  8
MSD_2-0
100
AcDbLine
 10
330.430174
 20
58.504187
 30
0.0
 11
330.705388
 21
55.91879300000001
 31
0.0
  0
LINE
  5
1CE
330
2
100
AcDbEntity
  8
MSD_2-0
100
AcDbLine
 10
330.310626
 20
76.971292
 30
0.0
 11
330.310626
 21
74.07129199999999
 31
0.0
  0
LINE
  5
1FA
330
2
100
AcDbEntity
  8
MSD_2-7
100
AcDbLine
 10
310.772267
 20
145.125089
 30
0.0
 11
307.197901
 21
130.557182
 31
0.0
  0
LINE
  5
1FB
330
2
100
AcDbEntity
  8
MSD_2-7
100
AcDbLine
 10
289.326037
 20
145.125089
 30
0.0
 11
292.900404
 21
130.557182
 31
0.0
  0
CIRCLE
  5
1FC
330
2
100
AcDbEntity
  8
MSD_2-0
100
AcDbCircle
 10
309.095582
 20
138.2915
 30
0.0
 40
3.0
  0
ARC
  5
1FD
330
2
100
AcDbEntity
  8
MSD_2-0
100
AcDbCircle
 10
300.049152
 20
101.421292
 30
0.0
 40
22.0
100
AcDbArc
 50
7.837480000000001
 51
352.16252
  0
ARC
  5
1FE
330
2
100
AcDbEntity
  8
MSD_2-0
100
AcDbCircle
 10
300.049152
 20
101.421292
 30
0.0
 40
21.0
100
AcDbArc
 50
8.213210999999999
 51
351.786789
  0
ARC
  5
1FF
330
2
100
AcDbEntity
  8
MSD_2-4
100
AcDbCircle
 10
309.095582
 20
138.291489
 30
0.0
 40
4.0
100
AcDbArc
 50
256.2143040346221
 51
169.2339960832607
  0
LINE
  5
200
330
2
100
AcDbEntity
  8
MSD_2-0
100
AcDbLine
 10
276.384482
 20
96.398009
 30
0.0
 11
277.972252
 21
111.313739
 31
0.0
  0
LINE
  5
201
330
2
100
AcDbEntity
  8
MSD_2-7
100
AcDbLine
 10
286.168298
 20
112.730822
 30
0.0
 11
284.242237
 21
94.637142
 31
0.0
  0
LINE
  5
202
330
2
100
AcDbEntity
  8
MSD_2-3
100
AcDbLine
 10
280.277113
 20
111.068388
 30
0.0
 11
293.882364
 21
109.620117
 31
0.0
  0
CIRCLE
  5
203
330
2
100
AcDbEntity
  8
MSD_2-0
100
AcDbCircle
 10
285.133423
 20
103.009063
 30
0.0
 40
4.0
  0
LINE
  5
204
330
2
100
AcDbEntity
  8
MSD_2-7
100
AcDbLine
 10
273.906228
 20
104.204191
 30
0.0
 11
300.049152
 21
101.421292
 31
0.0
  0
LINE
  5
205
330
2
100
AcDbEntity
  8
MSD_2-3
100
AcDbLine
 10
292.294593
 20
94.704387
 30
0.0
 11
278.689342
 21
96.15265800000001
 31
0.0
  0
LINE
  5
206
330
2
100
AcDbEntity
  8
MSD_2-3
100
AcDbLine
 10
288.251983
 20
93.123421
 30
0.0
 11
287.231902
 21
83.54063000000001
 31
0.0
  0
LINE
  5
207
330
2
100
AcDbEntity
  8
MSD_2-3
100
AcDbLine
 10
278.308164
 20
94.18193499999999
 30
0.0
 11
288.251983
 21
93.123421
 31
0.0
  0
LINE
  5
208
330
2
100
AcDbEntity
  8
MSD_2-3
100
AcDbLine
 10
287.363453
 20
94.22365400000002
 30
0.0
 11
288.251983
 21
93.123421
 31
0.0
  0
LINE
  5
209
330
2
100
AcDbEntity
  8
MSD_2-0
100
AcDbLine
 10
277.123489
 20
83.05294299999999
 30
0.0
 11
278.308164
 21
94.18193499999999
 31
0.0
  0
LINE
  5
20A
330
2
100
AcDbEntity
  8
MSD_2-4
100
AcDbLine
 10
278.1178749524745
 20
82.94709055353704
 30
0.0
 11
279.3046329388058
 21
94.09565694767662
 31
0.0
  0
LINE
  5
20B
330
2
100
AcDbEntity
  8
MSD_2-3
100
AcDbLine
 10
287.363456
 20
94.22365400000002
 30
0.0
 11
286.3013188566455
 21
84.24581285493728
 31
0.0
  0
LINE
  5
20C
330
2
100
AcDbEntity
  8
MSD_2-0
100
AcDbLine
 10
287.231901
 20
83.54063100000001
 30
0.0
 11
286.893646
 21
80.36302199999999
 31
0.0
  0
LINE
  5
20D
330
2
100
AcDbEntity
  8
MSD_2-4
100
AcDbLine
 10
285.9488829950846
 20
80.93498895382408
 30
0.0
 11
286.3013188566447
 21
84.24581285493331
 31
0.0
  0
LINE
  5
20E
330
2
100
AcDbEntity
  8
MSD_2-0
100
AcDbLine
 10
278.689342
 20
96.15265800000001
 30
0.0
 11
276.384482
 21
96.398009
 31
0.0
  0
LINE
  5
20F
330
2
100
AcDbEntity
  8
MSD_2-3
100
AcDbLine
 10
279.408397
 20
95.07046499999999
 30
0.0
 11
287.363453
 21
94.22365400000002
 31
0.0
  0
LINE
  5
210
330
2
100
AcDbEntity
  8
MSD_2-0
100
AcDbLine
 10
278.308164
 20
94.18193499999999
 30
0.0
 11
279.07007
 21
94.79723599999999
 31
0.0
  0
LINE
  5
211
330
2
100
AcDbEntity
  8
MSD_2-3
100
AcDbLine
 10
279.3046329388063
 20
94.09565694768051
 30
0.0
 11
279.514252
 21
96.06484700000001
 31
0.0
  0
LINE
  5
212
330
2
100
AcDbEntity
  8
MSD_2-3
100
AcDbLine
 10
287.469308
 20
95.218036
 30
0.0
 11
287.363453
 21
94.22365400000002
 31
0.0
  0
CIRCLE
  5
213
330
2
100
AcDbEntity
  8
MSD_2-0
100
AcDbCircle
 10
300.049152
 20
101.421292
 30
0.0
 40
2.25
  0
CIRCLE
  5
214
330
2
100
AcDbEntity
  8
MSD_2-0
100
AcDbCircle
 10
300.049152
 20
101.421292
 30
0.0
 40
6.5
  0
CIRCLE
  5
215
330
2
100
AcDbEntity
  8
MSD_2-0
100
AcDbCircle
 10
300.049152
 20
101.421292
 30
0.0
 40
7.5
  0
ARC
  5
216
330
2
100
AcDbEntity
  8
MSD_2-4
100
AcDbCircle
 10
300.049152
 20
101.421292
 30
0.0
 40
3.0
100
AcDbArc
 50
270.0
 51
180.0
  0
LINE
  5
217
330
2
100
AcDbEntity
  8
MSD_2-3
100
AcDbLine
 10
292.623755
 20
97.79657900000001
 30
0.0
 11
292.294593
 21
94.704387
 31
0.0
  0
LINE
  5
218
330
2
100
AcDbEntity
  8
MSD_2-3
100
AcDbLine
 10
293.882364
 20
109.620117
 30
0.0
 11
293.543302
 21
106.434927
 31
0.0
  0
ARC
  5
219
330
2
100
AcDbEntity
  8
MSD_2-4
100
AcDbCircle
 10
291.002722
 20
138.291489
 30
0.0
 40
4.0
100
AcDbArc
 50
283.7857062006725
 51
196.805389422718
  0
CIRCLE
  5
21A
330
2
100
AcDbEntity
  8
MSD_2-0
100
AcDbCircle
 10
271.904449
 20
126.89924
 30
0.0
 40
3.0
  0
ARC
  5
21B
330
2
100
AcDbEntity
  8
MSD_2-4
100
AcDbCircle
 10
271.904441
 20
126.899248
 30
0.0
 40
4.0
100
AcDbArc
 50
230.8670878164312
 51
137.8468827275451
  0
LINE
  5
21C
330
2
100
AcDbEntity
  8
MSD_2-0
100
AcDbLine
 10
277.972252
 20
111.313739
 30
0.0
 11
280.277113
 21
111.068388
 31
0.0
  0
ARC
  5
21D
330
2
100
AcDbEntity
  8
MSD_2-4
100
AcDbCircle
 10
280.58308
 20
134.01457
 30
0.0
 40
4.0
100
AcDbArc
 50
300.8471431138816
 51
213.8671886568752
  0
LINE
  5
21E
330
2
100
AcDbEntity
  8
MSD_2-7
100
AcDbLine
 10
276.975199
 20
140.05554
 30
0.0
 11
284.666441
 21
127.177465
 31
0.0
  0
CIRCLE
  5
21F
330
2
100
AcDbEntity
  8
MSD_2-0
100
AcDbCircle
 10
280.58308
 20
134.014576
 30
0.0
 40
3.0
  0
CIRCLE
  5
220
330
2
100
AcDbEntity
  8
MSD_2-0
100
AcDbCircle
 10
291.002722
 20
138.2915
 30
0.0
 40
3.0
  0
ARC
  5
221
330
2
100
AcDbEntity
  8
MSD_2-4
100
AcDbCircle
 10
337.635019
 20
106.764889
 30
0.0
 40
4.0
100
AcDbArc
 50
275.0714489066782
 51
188.0915412732882
  0
LINE
  5
222
330
2
100
AcDbEntity
  8
MSD_2-0
100
AcDbLine
 10
334.907397
 20
84.32315899999998
 30
0.0
 11
316.51133
 21
82.364908
 31
0.0
  0
LINE
  5
223
330
2
100
AcDbEntity
  8
MSD_2-7
100
AcDbLine
 10
340.505436
 20
81.71579599999999
 30
0.0
 11
327.020066
 21
88.28426699999999
 31
0.0
  0
LINE
  5
224
330
2
100
AcDbEntity
  8
MSD_2-0
100
AcDbLine
 10
322.974815
 20
83.05294299999999
 30
0.0
 11
321.790141
 21
94.18193499999999
 31
0.0
  0
LINE
  5
225
330
2
100
AcDbEntity
  8
MSD_2-4
100
AcDbLine
 10
321.9804334989709
 20
82.94709099574376
 30
0.0
 11
320.7936741922131
 21
94.09566581401582
 31
0.0
  0
LINE
  5
226
330
2
100
AcDbEntity
  8
MSD_2-3
100
AcDbLine
 10
313.7969866653616
 20
84.24581407320326
 30
0.0
 11
312.629
 21
95.218036
 31
0.0
  0
LINE
  5
227
330
2
100
AcDbEntity
  8
MSD_2-3
100
AcDbLine
 10
312.734852
 20
94.22365400000002
 30
0.0
 11
311.846321
 21
93.123421
 31
0.0
  0
LINE
  5
228
330
2
100
AcDbEntity
  8
MSD_2-3
100
AcDbLine
 10
311.846321
 20
93.123421
 30
0.0
 11
312.866404
 21
83.54063100000001
 31
0.0
  0
LINE
  5
229
330
2
100
AcDbEntity
  8
MSD_2-4
100
AcDbLine
 10
313.7969866653616
 20
84.24581407320326
 30
0.0
 11
314.1494220249272
 21
80.93498947675264
 31
0.0
  0
LINE
  5
22A
330
2
100
AcDbEntity
  8
MSD_2-0
100
AcDbLine
 10
312.866404
 20
83.54063100000001
 30
0.0
 11
313.204658
 21
80.36302199999999
 31
0.0
  0
LINE
  5
22B
330
2
100
AcDbEntity
  8
MSD_2-0
100
AcDbLine
 10
313.110446
 20
104.421292
 30
0.0
 11
321.843647
 21
104.421292
 31
0.0
  0
LINE
  5
22C
330
2
100
AcDbEntity
  8
MSD_2-0
100
AcDbLine
 10
321.843647
 20
98.42129200000002
 30
0.0
 11
313.110446
 21
98.42129200000002
 31
0.0
  0
LINE
  5
22D
330
2
100
AcDbEntity
  8
MSD_2-3
100
AcDbLine
 10
320.584056
 20
96.06484700000001
 30
0.0
 11
312.629
 21
95.218036
 31
0.0
  0
LINE
  5
22E
330
2
100
AcDbEntity
  8
MSD_2-3
100
AcDbLine
 10
312.734852
 20
94.22365400000002
 30
0.0
 11
320.689907
 21
95.07046499999999
 31
0.0
  0
LINE
  5
22F
330
2
100
AcDbEntity
  8
MSD_2-0
100
AcDbLine
 10
311.049152
 20
104.421292
 30
0.0
 11
311.049152
 21
98.42129200000002
 31
0.0
  0
LINE
  5
230
330
2
100
AcDbEntity
  8
MSD_2-0
100
AcDbLine
 10
313.110446
 20
98.42129200000002
 30
0.0
 11
313.110446
 21
104.421292
 31
0.0
  0
LINE
  5
231
330
2
100
AcDbEntity
  8
MSD_2-0
100
AcDbLine
 10
311.049152
 20
98.42129200000002
 30
0.0
 11
313.110446
 21
98.42129200000002
 31
0.0
  0
LINE
  5
232
330
2
100
AcDbEntity
  8
MSD_2-3
100
AcDbLine
 10
312.629
 20
95.218036
 30
0.0
 11
312.734852
 21
94.22365400000002
 31
0.0
  0
LINE
  5
233
330
2
100
AcDbEntity
  8
MSD_2-0
100
AcDbLine
 10
313.049152
 20
104.421292
 30
0.0
 11
311.049152
 21
104.421292
 31
0.0
  0
LINE
  5
234
330
2
100
AcDbEntity
  8
MSD_2-0
100
AcDbLine
 10
321.790141
 20
94.18193499999999
 30
0.0
 11
321.028235
 21
94.797238
 31
0.0
  0
LINE
  5
235
330
2
100
AcDbEntity
  8
MSD_2-0
100
AcDbLine
 10
320.786396
 20
94.07508699999999
 30
0.0
 11
321.790141
 21
94.18193499999999
 31
0.0
  0
LINE
  5
236
330
2
100
AcDbEntity
  8
MSD_2-3
100
AcDbLine
 10
320.689907
 20
95.07046499999999
 30
0.0
 11
320.584056
 21
96.06484700000001
 31
0.0
  0
LINE
  5
237
330
2
100
AcDbEntity
  8
MSD_2-3
100
AcDbLine
 10
321.028235
 20
94.797238
 30
0.0
 11
320.689907
 21
95.07046499999999
 31
0.0
  0
LINE
  5
238
330
2
100
AcDbEntity
  8
MSD_2-3
100
AcDbLine
 10
320.7936741922131
 20
94.09566581401593
 30
0.0
 11
320.584056
 21
96.06484700000001
 31
0.0
  0
CIRCLE
  5
239
330
2
100
AcDbEntity
  8
MSD_2-0
100
AcDbCircle
 10
337.54864
 20
95.501958
 30
0.0
 40
3.0
  0
ARC
  5
23A
330
2
100
AcDbEntity
  8
MSD_2-4
100
AcDbCircle
 10
337.542432
 20
95.502938
 30
0.0
 40
4.0
100
AcDbArc
 50
258.0996260615787
 51
171.0298125845939
  0
ARC
  5
23B
330
2
100
AcDbEntity
  8
MSD_2-0
100
AcDbCircle
 10
334.179558
 20
84.797013
 30
0.0
 40
3.0
100
AcDbArc
 50
289.051498
 51
196.6058909999999
  0
ARC
  5
23C
330
2
100
AcDbEntity
  8
MSD_2-4
100
AcDbCircle
 10
334.179558
 20
84.797013
 30
0.0
 40
4.0
100
AcDbArc
 50
285.7709088163284
 51
154.0301595795857
  0
CIRCLE
  5
23D
330
2
100
AcDbEntity
  8
MSD_2-0
100
AcDbCircle
 10
337.635019
 20
106.764889
 30
0.0
 40
3.0
  0
LINE
  5
23E
330
2
100
AcDbEntity
  8
MSD_2-7
100
AcDbLine
 10
344.601379
 20
107.755301
 30
0.0
 11
331.172877
 21
105.846163
 31
0.0
  0
LINE
  5
23F
330
2
100
AcDbEntity
  8
MSD_2-7
100
AcDbLine
 10
344.499003
 20
94.404836
 30
0.0
 11
331.205751
 21
96.50319000000001
 31
0.0
  0
CIRCLE
  5
240
330
2
100
AcDbEntity
  8
MSD_2-0
100
AcDbCircle
 10
328.193855
 20
126.89924
 30
0.0
 40
3.0
  0
ARC
  5
241
330
2
100
AcDbEntity
  8
MSD_2-4
100
AcDbCircle
 10
328.193864
 20
126.899248
 30
0.0
 40
4.0
100
AcDbArc
 50
309.1329005958265
 51
222.1531276151297
  0
LINE
  5
242
330
2
100
AcDbEntity
  8
MSD_2-7
100
AcDbLine
 10
333.410307
 20
131.621458
 30
0.0
 11
322.289998
 21
121.554744
 31
0.0
  0
LINE
  5
243
330
2
100
AcDbEntity
  8
MSD_2-7
100
AcDbLine
 10
340.79253
 20
120.526178
 30
0.0
 11
327.21148
 21
114.157891
 31
0.0
  0
CIRCLE
  5
244
330
2
100
AcDbEntity
  8
MSD_2-0
100
AcDbCircle
 10
319.515225
 20
134.014576
 30
0.0
 40
3.0
  0
ARC
  5
245
330
2
100
AcDbEntity
  8
MSD_2-4
100
AcDbCircle
 10
319.515225
 20
134.01457
 30
0.0
 40
4.0
100
AcDbArc
 50
326.1328027333612
 51
239.1528536365406
  0
LINE
  5
246
330
2
100
AcDbEntity
  8
MSD_2-7
100
AcDbLine
 10
323.123105
 20
140.05554
 30
0.0
 11
315.431864
 21
127.177465
 31
0.0
  0
CIRCLE
  5
247
330
2
100
AcDbEntity
  8
MSD_2-0
100
AcDbCircle
 10
334.421735
 20
117.53885
 30
0.0
 40
3.0
  0
ARC
  5
248
330
2
100
AcDbEntity
  8
MSD_2-4
100
AcDbCircle
 10
334.4217490000001
 20
117.538856
 30
0.0
 40
4.0
100
AcDbArc
 50
292.1021636152435
 51
205.1223321139163
  0
LINE
  5
268
330
2
100
AcDbEntity
  8
MSD_2-0
100
AcDbLine
 10
320.922595
 20
165.069158
 30
0.0
 11
276.974902
 21
165.069158
 31
0.0
  0
LINE
  5
269
330
2
100
AcDbEntity
  8
MSD_2-4
100
AcDbLine
 10
309.783236
 20
177.441075
 30
0.0
 11
307.137402
 21
177.441075
 31
0.0
  0
LINE
  5
26A
330
2
100
AcDbEntity
  8
MSD_2-4
100
AcDbLine
 10
287.0573310000001
 20
176.382742
 30
0.0
 11
284.411498
 21
173.736908
 31
0.0
  0
LINE
  5
26B
330
2
100
AcDbEntity
  8
MSD_2-3
100
AcDbLine
 10
268.049152
 20
179.069158
 30
0.0
 11
268.049152
 21
167.069158
 31
0.0
  0
LINE
  5
26C
330
2
100
AcDbEntity
  8
MSD_2-3
100
AcDbLine
 10
267.049152
 20
183.069158
 30
0.0
 11
267.049152
 21
167.069158
 31
0.0
  0
LINE
  5
26D
330
2
100
AcDbEntity
  8
MSD_2-0
100
AcDbLine
 10
284.049152
 20
167.569158
 30
0.0
 11
290.049152
 21
167.569158
 31
0.0
  0
LINE
  5
26E
330
2
100
AcDbEntity
  8
MSD_2-3
100
AcDbLine
 10
270.549152
 20
167.069158
 30
0.0
 11
270.549152
 21
165.069158
 31
0.0
  0
LINE
  5
26F
330
2
100
AcDbEntity
  8
MSD_2-0
100
AcDbLine
 10
284.049152
 20
165.069158
 30
0.0
 11
284.049152
 21
167.569158
 31
0.0
  0
LINE
  5
270
330
2
100
AcDbEntity
  8
MSD_2-4
100
AcDbLine
 10
282.823998
 20
167.916075
 30
0.0
 11
281.203425
 21
165.069158
 31
0.0
  0
LINE
  5
271
330
2
100
AcDbEntity
  8
MSD_2-4
100
AcDbLine
 10
284.411498
 20
173.736908
 30
0.0
 11
283.353165
 21
171.091075
 31
0.0
  0
LINE
  5
272
330
2
100
AcDbEntity
  8
MSD_2-4
100
AcDbLine
 10
283.353165
 20
171.091075
 30
0.0
 11
282.823998
 21
167.916075
 31
0.0
  0
LINE
  5
273
330
2
100
AcDbEntity
  8
MSD_2-0
100
AcDbLine
 10
290.049152
 20
167.569158
 30
0.0
 11
290.049152
 21
165.069158
 31
0.0
  0
LINE
  5
274
330
2
100
AcDbEntity
  8
MSD_2-4
100
AcDbLine
 10
290.204069
 20
176.382742
 30
0.0
 11
287.0573310000001
 21
176.382742
 31
0.0
  0
LINE
  5
275
330
2
100
AcDbEntity
  8
MSD_2-4
100
AcDbLine
 10
299.729069
 20
177.970242
 30
0.0
 11
296.554069
 21
177.970242
 31
0.0
  0
LINE
  5
276
330
2
100
AcDbEntity
  8
MSD_2-4
100
AcDbLine
 10
296.554069
 20
177.970242
 30
0.0
 11
292.849902
 21
176.382742
 31
0.0
  0
LINE
  5
277
330
2
100
AcDbEntity
  8
MSD_2-4
100
AcDbLine
 10
292.849902
 20
176.382742
 30
0.0
 11
290.204069
 21
176.382742
 31
0.0
  0
LINE
  5
278
330
2
100
AcDbEntity
  8
MSD_2-4
100
AcDbLine
 10
307.137402
 20
177.441075
 30
0.0
 11
303.433236
 21
177.970242
 31
0.0
  0
LINE
  5
279
330
2
100
AcDbEntity
  8
MSD_2-4
100
AcDbLine
 10
303.433236
 20
177.970242
 30
0.0
 11
299.729069
 21
177.970242
 31
0.0
  0
LINE
  5
27A
330
2
100
AcDbEntity
  8
MSD_2-0
100
AcDbLine
 10
333.049152
 20
183.069158
 30
0.0
 11
333.049152
 21
167.069158
 31
0.0
  0
LINE
  5
27B
330
2
100
AcDbEntity
  8
MSD_2-0
100
AcDbLine
 10
339.049152
 20
167.069158
 30
0.0
 11
339.049152
 21
183.069158
 31
0.0
  0
LINE
  5
27C
330
2
100
AcDbEntity
  8
MSD_2-4
100
AcDbLine
 10
346.428371
 20
174.266075
 30
0.0
 11
346.957538
 21
177.970242
 31
0.0
  0
LINE
  5
27D
330
2
100
AcDbEntity
  8
MSD_2-4
100
AcDbLine
 10
340.049152
 20
167.069158
 30
0.0
 11
340.049152
 21
179.069158
 31
0.0
  0
LINE
  5
27E
330
2
100
AcDbEntity
  8
MSD_2-4
100
AcDbLine
 10
332.049152
 20
179.069158
 30
0.0
 11
332.049152
 21
167.069158
 31
0.0
  0
LINE
  5
27F
330
2
100
AcDbEntity
  8
MSD_2-7
100
AcDbLine
 10
336.049152
 20
185.516158
 30
0.0
 11
336.049152
 21
163.069158
 31
0.0
  0
LINE
  5
280
330
2
100
AcDbEntity
  8
MSD_2-0
100
AcDbLine
 10
342.549152
 20
167.069158
 30
0.0
 11
329.549152
 21
167.069158
 31
0.0
  0
LINE
  5
281
330
2
100
AcDbEntity
  8
MSD_2-0
100
AcDbLine
 10
316.049152
 20
167.569158
 30
0.0
 11
316.049152
 21
165.069158
 31
0.0
  0
LINE
  5
282
330
2
100
AcDbEntity
  8
MSD_2-0
100
AcDbLine
 10
310.049152
 20
165.069158
 30
0.0
 11
310.049152
 21
167.569158
 31
0.0
  0
LINE
  5
283
330
2
100
AcDbEntity
  8
MSD_2-0
100
AcDbLine
 10
310.049152
 20
167.569158
 30
0.0
 11
316.049152
 21
167.569158
 31
0.0
  0
LINE
  5
284
330
2
100
AcDbEntity
  8
MSD_2-0
100
AcDbLine
 10
329.549152
 20
167.069158
 30
0.0
 11
329.549152
 21
165.069158
 31
0.0
  0
LINE
  5
285
330
2
100
AcDbEntity
  8
MSD_2-0
100
AcDbLine
 10
342.549152
 20
165.069158
 30
0.0
 11
342.549152
 21
167.069158
 31
0.0
  0
LINE
  5
286
330
2
100
AcDbEntity
  8
MSD_2-4
100
AcDbLine
 10
347.486704
 20
165.069158
 30
0.0
 11
346.957538
 21
168.4452419999999
 31
0.0
  0
LINE
  5
287
330
2
100
AcDbEntity
  8
MSD_2-4
100
AcDbLine
 10
346.957538
 20
168.4452419999999
 30
0.0
 11
346.428371
 21
171.620242
 31
0.0
  0
LINE
  5
288
330
2
100
AcDbEntity
  8
MSD_2-4
100
AcDbLine
 10
346.428371
 20
171.620242
 30
0.0
 11
346.428371
 21
174.266075
 31
0.0
  0
LINE
  5
289
330
2
100
AcDbEntity
  8
MSD_2-4
100
AcDbLine
 10
330.949902
 20
186.361313
 30
0.0
 11
327.756759
 21
188.165857
 31
0.0
  0
LINE
  5
28A
330
2
100
AcDbEntity
  8
MSD_2-4
100
AcDbLine
 10
321.424902
 20
185.907742
 30
0.0
 11
318.779069
 21
183.791075
 31
0.0
  0
LINE
  5
28B
330
2
100
AcDbEntity
  8
MSD_2-4
100
AcDbLine
 10
318.779069
 20
183.791075
 30
0.0
 11
315.604069
 21
181.674408
 31
0.0
  0
LINE
  5
28C
330
2
100
AcDbEntity
  8
MSD_2-4
100
AcDbLine
 10
315.604069
 20
181.674408
 30
0.0
 11
312.958236
 21
180.086908
 31
0.0
  0
LINE
  5
28D
330
2
100
AcDbEntity
  8
MSD_2-4
100
AcDbLine
 10
312.958236
 20
180.086908
 30
0.0
 11
309.783236
 21
177.441075
 31
0.0
  0
LINE
  5
28E
330
2
100
AcDbEntity
  8
MSD_2-4
100
AcDbLine
 10
327.756759
 20
188.165857
 30
0.0
 11
324.070736
 21
186.966075
 31
0.0
  0
LINE
  5
28F
330
2
100
AcDbEntity
  8
MSD_2-4
100
AcDbLine
 10
324.070736
 20
186.966075
 30
0.0
 11
321.424902
 21
185.907742
 31
0.0
  0
LINE
  5
290
330
2
100
AcDbEntity
  8
MSD_2-4
100
AcDbLine
 10
340.872121
 20
183.791075
 30
0.0
 11
336.638788
 21
186.436908
 31
0.0
  0
LINE
  5
291
330
2
100
AcDbEntity
  8
MSD_2-0
100
AcDbLine
 10
339.049152
 20
183.069158
 30
0.0
 11
333.049152
 21
183.069158
 31
0.0
  0
LINE
  5
292
330
2
100
AcDbEntity
  8
MSD_2-0
100
AcDbLine
 10
336.049152
 20
184.801209
 30
0.0
 11
333.049152
 21
183.069158
 31
0.0
  0
LINE
  5
293
330
2
100
AcDbEntity
  8
MSD_2-4
100
AcDbLine
 10
340.049152
 20
179.069158
 30
0.0
 11
332.049152
 21
179.069158
 31
0.0
  0
LINE
  5
294
330
2
100
AcDbEntity
  8
MSD_2-0
100
AcDbLine
 10
339.049152
 20
183.069158
 30
0.0
 11
336.049152
 21
184.801209
 31
0.0
  0
LINE
  5
295
330
2
100
AcDbEntity
  8
MSD_2-4
100
AcDbLine
 10
336.638788
 20
186.436908
 30
0.0
 11
334.654069
 21
186.89048
 31
0.0
  0
LINE
  5
296
330
2
100
AcDbEntity
  8
MSD_2-4
100
AcDbLine
 10
334.654069
 20
186.89048
 30
0.0
 11
330.949902
 21
186.361313
 31
0.0
  0
LINE
  5
297
330
2
100
AcDbEntity
  8
MSD_2-4
100
AcDbLine
 10
345.370038
 20
180.616075
 30
0.0
 11
340.872121
 21
183.791075
 31
0.0
  0
LINE
  5
298
330
2
100
AcDbEntity
  8
MSD_2-4
100
AcDbLine
 10
346.957538
 20
177.970242
 30
0.0
 11
345.370038
 21
180.616075
 31
0.0
  0
LINE
  5
29D
330
2
100
AcDbEntity
  8
MSD_2-0
100
AcDbLine
 10
524.092978
 20
165.069158
 30
0.0
 11
434.092978
 21
165.069158
 31
0.0
  0
LINE
  5
29E
330
2
100
AcDbEntity
  8
MSD_2-3
100
AcDbLine
 10
515.092978
 20
184.801209
 30
0.0
 11
518.092978
 21
183.069158
 31
0.0
  0
LINE
  5
29F
330
2
100
AcDbEntity
  8
MSD_2-3
100
AcDbLine
 10
511.092978
 20
179.069158
 30
0.0
 11
519.092978
 21
179.069158
 31
0.0
  0
LINE
  5
2A0
330
2
100
AcDbEntity
  8
MSD_2-3
100
AcDbLine
 10
508.5929779999999
 20
167.069158
 30
0.0
 11
521.592978
 21
167.069158
 31
0.0
  0
LINE
  5
2A1
330
2
100
AcDbEntity
  8
MSD_2-3
100
AcDbLine
 10
512.0929779999999
 20
183.069158
 30
0.0
 11
518.092978
 21
183.069158
 31
0.0
  0
LINE
  5
2A2
330
2
100
AcDbEntity
  8
MSD_2-3
100
AcDbLine
 10
447.092978
 20
179.069158
 30
0.0
 11
447.092978
 21
167.069158
 31
0.0
  0
LINE
  5
2A3
330
2
100
AcDbEntity
  8
MSD_2-3
100
AcDbLine
 10
439.092978
 20
167.069158
 30
0.0
 11
439.092978
 21
179.069158
 31
0.0
  0
LINE
  5
2A4
330
2
100
AcDbEntity
  8
MSD_2-7
100
AcDbLine
 10
443.092978
 20
185.516158
 30
0.0
 11
443.092978
 21
163.069158
 31
0.0
  0
LINE
  5
2A5
330
2
100
AcDbEntity
  8
MSD_2-3
100
AcDbLine
 10
446.0929779999999
 20
183.069158
 30
0.0
 11
446.0929779999999
 21
167.069158
 31
0.0
  0
LINE
  5
2A6
330
2
100
AcDbEntity
  8
MSD_2-3
100
AcDbLine
 10
440.092978
 20
167.069158
 30
0.0
 11
440.092978
 21
183.069158
 31
0.0
  0
LINE
  5
2A7
330
2
100
AcDbEntity
  8
MSD_2-3
100
AcDbLine
 10
436.592978
 20
167.069158
 30
0.0
 11
449.5929779999999
 21
167.069158
 31
0.0
  0
LINE
  5
2A8
330
2
100
AcDbEntity
  8
MSD_2-3
100
AcDbLine
 10
436.592978
 20
165.069158
 30
0.0
 11
436.592978
 21
167.069158
 31
0.0
  0
LINE
  5
2A9
330
2
100
AcDbEntity
  8
MSD_2-3
100
AcDbLine
 10
449.5929779999999
 20
167.069158
 30
0.0
 11
449.5929779999999
 21
165.069158
 31
0.0
  0
LINE
  5
2AA
330
2
100
AcDbEntity
  8
MSD_2-0
100
AcDbLine
 10
447.0944549999999
 20
188.719158
 30
0.0
 11
458.0929779999999
 21
182.369158
 31
0.0
  0
CIRCLE
  5
2AB
330
2
100
AcDbEntity
  8
MSD_2-0
100
AcDbCircle
 10
458.0929779999999
 20
195.069158
 30
0.0
 40
7.0
  0
CIRCLE
  5
2AC
330
2
100
AcDbEntity
  8
MSD_2-0
100
AcDbCircle
 10
458.0929779999999
 20
195.069158
 30
0.0
 40
11.0
  0
ARC
  5
2AD
330
2
100
AcDbEntity
  8
MSD_2-4
100
AcDbCircle
 10
458.0929779999999
 20
195.069158
 30
0.0
 40
6.0
100
AcDbArc
 50
270.0
 51
180.0
  0
LINE
  5
2AE
330
2
100
AcDbEntity
  8
MSD_2-0
100
AcDbLine
 10
447.0944549999999
 20
201.419158
 30
0.0
 11
447.0944549999999
 21
188.719158
 31
0.0
  0
LINE
  5
2AF
330
2
100
AcDbEntity
  8
MSD_2-3
100
AcDbLine
 10
443.092978
 20
184.801209
 30
0.0
 11
446.0929779999999
 21
183.069158
 31
0.0
  0
LINE
  5
2B0
330
2
100
AcDbEntity
  8
MSD_2-3
100
AcDbLine
 10
440.092978
 20
183.069158
 30
0.0
 11
446.0929779999999
 21
183.069158
 31
0.0
  0
LINE
  5
2B1
330
2
100
AcDbEntity
  8
MSD_2-3
100
AcDbLine
 10
439.092978
 20
179.069158
 30
0.0
 11
447.092978
 21
179.069158
 31
0.0
  0
LINE
  5
2B2
330
2
100
AcDbEntity
  8
MSD_2-3
100
AcDbLine
 10
440.092978
 20
183.069158
 30
0.0
 11
443.092978
 21
184.801209
 31
0.0
  0
LINE
  5
2B3
330
2
100
AcDbEntity
  8
MSD_2-0
100
AcDbLine
 10
469.091501
 20
188.719158
 30
0.0
 11
469.091501
 21
201.419158
 31
0.0
  0
LINE
  5
2B4
330
2
100
AcDbEntity
  8
MSD_2-0
100
AcDbLine
 10
458.0929779999999
 20
182.369158
 30
0.0
 11
469.091501
 21
188.719158
 31
0.0
  0
LINE
  5
2B5
330
2
100
AcDbEntity
  8
MSD_2-7
100
AcDbLine
 10
515.092978
 20
185.516158
 30
0.0
 11
515.092978
 21
163.069158
 31
0.0
  0
LINE
  5
2B6
330
2
100
AcDbEntity
  8
MSD_2-3
100
AcDbLine
 10
511.092978
 20
167.069158
 30
0.0
 11
511.092978
 21
179.069158
 31
0.0
  0
LINE
  5
2B7
330
2
100
AcDbEntity
  8
MSD_2-3
100
AcDbLine
 10
512.0929779999999
 20
167.069158
 30
0.0
 11
512.0929779999999
 21
183.069158
 31
0.0
  0
LINE
  5
2B8
330
2
100
AcDbEntity
  8
MSD_2-3
100
AcDbLine
 10
508.5929779999999
 20
165.069158
 30
0.0
 11
508.5929779999999
 21
167.069158
 31
0.0
  0
LINE
  5
2B9
330
2
100
AcDbEntity
  8
MSD_2-0
100
AcDbLine
 10
489.0944549999999
 20
188.719158
 30
0.0
 11
500.0929779999999
 21
182.369158
 31
0.0
  0
CIRCLE
  5
2BA
330
2
100
AcDbEntity
  8
MSD_2-0
100
AcDbCircle
 10
500.0929779999999
 20
195.069158
 30
0.0
 40
7.0
  0
CIRCLE
  5
2BB
330
2
100
AcDbEntity
  8
MSD_2-0
100
AcDbCircle
 10
500.0929779999999
 20
195.069158
 30
0.0
 40
11.0
  0
ARC
  5
2BC
330
2
100
AcDbEntity
  8
MSD_2-4
100
AcDbCircle
 10
500.0929779999999
 20
195.069158
 30
0.0
 40
6.0
100
AcDbArc
 50
270.0
 51
180.0
  0
LINE
  5
2BD
330
2
100
AcDbEntity
  8
MSD_2-0
100
AcDbLine
 10
489.0944549999999
 20
201.419158
 30
0.0
 11
489.0944549999999
 21
188.719158
 31
0.0
  0
LINE
  5
2BE
330
2
100
AcDbEntity
  8
MSD_2-0
100
AcDbLine
 10
511.091501
 20
188.719158
 30
0.0
 11
511.091501
 21
201.419158
 31
0.0
  0
LINE
  5
2BF
330
2
100
AcDbEntity
  8
MSD_2-0
100
AcDbLine
 10
500.0929779999999
 20
182.369158
 30
0.0
 11
511.091501
 21
188.719158
 31
0.0
  0
LINE
  5
2C0
330
2
100
AcDbEntity
  8
MSD_2-3
100
AcDbLine
 10
512.0929779999999
 20
183.069158
 30
0.0
 11
515.092978
 21
184.801209
 31
0.0
  0
LINE
  5
2C1
330
2
100
AcDbEntity
  8
MSD_2-3
100
AcDbLine
 10
519.092978
 20
179.069158
 30
0.0
 11
519.092978
 21
167.069158
 31
0.0
  0
LINE
  5
2C2
330
2
100
AcDbEntity
  8
MSD_2-3
100
AcDbLine
 10
518.092978
 20
183.069158
 30
0.0
 11
518.092978
 21
167.069158
 31
0.0
  0
LINE
  5
2C3
330
2
100
AcDbEntity
  8
MSD_2-3
100
AcDbLine
 10
521.592978
 20
167.069158
 30
0.0
 11
521.592978
 21
165.069158
 31
0.0
  0
LINE
  5
2C4
330
2
100
AcDbEntity
  8
MSD_2-0
100
AcDbLine
 10
364.049152
 20
282.316069
 30
0.0
 11
364.049152
 21
372.316069
 31
0.0
  0
CIRCLE
  5
2C5
330
2
100
AcDbEntity
  8
MSD_2-0
100
AcDbCircle
 10
300.049152
 20
327.316069
 30
0.0
 40
16.0
  0
CIRCLE
  5
2C6
330
2
100
AcDbEntity
  8
MSD_2-0
100
AcDbCircle
 10
300.049152
 20
327.316069
 30
0.0
 40
10.0
  0
LINE
  5
2CB
330
2
100
AcDbEntity
  8
MSD_2-0
100
AcDbLine
 10
307.549152
 20
273.069158
 30
0.0
 11
307.549152
 21
250.069158
 31
0.0
  0
LINE
  5
2CC
330
2
100
AcDbEntity
  8
MSD_2-0
100
AcDbLine
 10
292.549152
 20
250.069158
 30
0.0
 11
292.549152
 21
273.069158
 31
0.0
  0
LINE
  5
2CD
330
2
100
AcDbEntity
  8
MSD_2-3
100
AcDbLine
 10
303.049152
 20
262.069158
 30
0.0
 11
303.049152
 21
274.069158
 31
0.0
  0
LINE
  5
2CE
330
2
100
AcDbEntity
  8
MSD_2-3
100
AcDbLine
 10
297.049152
 20
274.069158
 30
0.0
 11
297.049152
 21
262.069158
 31
0.0
  0
LINE
  5
2CF
330
2
100
AcDbEntity
  8
MSD_2-3
100
AcDbLine
 10
302.299152
 20
259.069158
 30
0.0
 11
302.299152
 21
274.069158
 31
0.0
  0
LINE
  5
2D0
330
2
100
AcDbEntity
  8
MSD_2-3
100
AcDbLine
 10
297.799152
 20
274.069158
 30
0.0
 11
297.799152
 21
259.069158
 31
0.0
  0
LINE
  5
2D1
330
2
100
AcDbEntity
  8
MSD_2-0
100
AcDbLine
 10
321.049152
 20
250.069158
 30
0.0
 11
279.049152
 21
250.069158
 31
0.0
  0
LINE
  5
2D2
330
2
100
AcDbEntity
  8
MSD_2-0
100
AcDbLine
 10
337.447831
 20
247.069158
 30
0.0
 11
301.152889
 21
247.069158
 31
0.0
  0
LINE
  5
2D3
330
2
100
AcDbEntity
  8
MSD_2-0
100
AcDbLine
 10
314.299152
 20
249.569158
 30
0.0
 11
302.799152
 21
249.569158
 31
0.0
  0
LINE
  5
2D5
330
2
100
AcDbEntity
  8
MSD_2-0
100
AcDbLine
 10
288.0420180000001
 20
232.169158
 30
0.0
 11
288.0420180000001
 21
241.969158
 31
0.0
  0
LINE
  5
2D6
330
2
100
AcDbEntity
  8
MSD_2-0
100
AcDbLine
 10
271.06792
 20
241.969158
 30
0.0
 11
271.06792
 21
232.169158
 31
0.0
  0
LINE
  5
2D7
330
2
100
AcDbEntity
  8
MSD_2-0
100
AcDbLine
 10
301.152889
 20
247.069158
 30
0.0
 11
301.152889
 21
227.069158
 31
0.0
  0
LINE
  5
2D8
330
2
100
AcDbEntity
  8
MSD_2-0
100
AcDbLine
 10
298.945415
 20
247.069158
 30
0.0
 11
298.945415
 21
227.069158
 31
0.0
  0
CIRCLE
  5
2D9
330
2
100
AcDbEntity
  8
MSD_2-0
100
AcDbCircle
 10
279.554969
 20
237.069158
 30
0.0
 40
4.0
  0
CIRCLE
  5
2DA
330
2
100
AcDbEntity
  8
MSD_2-0
100
AcDbCircle
 10
279.554969
 20
237.069158
 30
0.0
 40
8.5
  0
ARC
  5
2DB
330
2
100
AcDbEntity
  8
MSD_2-4
100
AcDbCircle
 10
279.554969
 20
237.069158
 30
0.0
 40
5.0
100
AcDbArc
 50
270.0
 51
180.0
  0
LINE
  5
2DD
330
2
100
AcDbEntity
  8
MSD_2-0
100
AcDbLine
 10
279.554969
 20
227.269158
 30
0.0
 11
288.0420180000001
 21
232.169158
 31
0.0
  0
LINE
  5
2DE
330
2
100
AcDbEntity
  8
MSD_2-0
100
AcDbLine
 10
271.06792
 20
232.169158
 30
0.0
 11
279.554969
 21
227.269158
 31
0.0
  0
LINE
  5
2DF
330
2
100
AcDbEntity
  8
MSD_2-0
100
AcDbLine
 10
288.0420180000001
 20
241.969158
 30
0.0
 11
279.554969
 21
246.869158
 31
0.0
  0
LINE
  5
2E0
330
2
100
AcDbEntity
  8
MSD_2-0
100
AcDbLine
 10
285.799152
 20
249.569158
 30
0.0
 11
297.299152
 21
249.569158
 31
0.0
  0
LINE
  5
2E1
330
2
100
AcDbEntity
  8
MSD_2-0
100
AcDbLine
 10
279.554969
 20
246.869158
 30
0.0
 11
271.06792
 21
241.969158
 31
0.0
  0
LINE
  5
2E2
330
2
100
AcDbEntity
  8
MSD_2-0
100
AcDbLine
 10
285.299152
 20
247.069158
 30
0.0
 11
285.299152
 21
249.069158
 31
0.0
  0
LINE
  5
2E3
330
2
100
AcDbEntity
  8
MSD_2-0
100
AcDbLine
 10
278.541599
 20
249.069158
 30
0.0
 11
278.541599
 21
247.069158
 31
0.0
  0
LINE
  5
2E4
330
2
100
AcDbEntity
  8
MSD_2-0
100
AcDbLine
 10
278.541599
 20
249.069158
 30
0.0
 11
285.299152
 21
249.069158
 31
0.0
  0
LINE
  5
2E5
330
2
100
AcDbEntity
  8
MSD_2-0
100
AcDbLine
 10
279.049152
 20
250.069158
 30
0.0
 11
278.398909
 21
249.418915
 31
0.0
  0
ARC
  5
2E6
330
2
100
AcDbEntity
  8
MSD_2-0
100
AcDbCircle
 10
278.041599
 20
249.069158
 30
0.0
 40
0.5
100
AcDbArc
 50
0.0
 51
89.999999
  0
ARC
  5
2E7
330
2
100
AcDbEntity
  8
MSD_2-0
100
AcDbCircle
 10
285.799152
 20
249.069158
 30
0.0
 40
0.5
100
AcDbArc
 50
89.999999
 51
179.999998
  0
LINE
  5
2E8
330
2
100
AcDbEntity
  8
MSD_2-0
100
AcDbLine
 10
297.799152
 20
249.069158
 30
0.0
 11
302.299152
 21
249.069158
 31
0.0
  0
LINE
  5
2E9
330
2
100
AcDbEntity
  8
MSD_2-0
100
AcDbLine
 10
297.799152
 20
249.069158
 30
0.0
 11
297.799152
 21
247.069158
 31
0.0
  0
ARC
  5
2EA
330
2
100
AcDbEntity
  8
MSD_2-0
100
AcDbCircle
 10
297.299152
 20
249.069158
 30
0.0
 40
0.5
100
AcDbArc
 50
0.0
 51
89.999999
  0
LINE
  5
2EB
330
2
100
AcDbEntity
  8
MSD_2-0
100
AcDbLine
 10
302.299152
 20
249.069158
 30
0.0
 11
302.299152
 21
247.069158
 31
0.0
  0
ARC
  5
2EC
330
2
100
AcDbEntity
  8
MSD_2-0
100
AcDbCircle
 10
302.799152
 20
249.069158
 30
0.0
 40
0.5
100
AcDbArc
 50
89.999999
 51
179.999998
  0
LINE
  5
2ED
330
2
100
AcDbEntity
  8
MSD_2-3
100
AcDbLine
 10
297.049152
 20
262.069158
 30
0.0
 11
303.049152
 21
262.069158
 31
0.0
  0
LINE
  5
2EE
330
2
100
AcDbEntity
  8
MSD_2-3
100
AcDbLine
 10
297.799152
 20
259.069158
 30
0.0
 11
300.049152
 21
257.77012
 31
0.0
  0
LINE
  5
2EF
330
2
100
AcDbEntity
  8
MSD_2-3
100
AcDbLine
 10
297.799152
 20
259.069158
 30
0.0
 11
302.299152
 21
259.069158
 31
0.0
  0
LINE
  5
2F0
330
2
100
AcDbEntity
  8
MSD_2-3
100
AcDbLine
 10
300.049152
 20
257.77012
 30
0.0
 11
302.299152
 21
259.069158
 31
0.0
  0
LINE
  5
2F1
330
2
100
AcDbEntity
  8
MSD_2-0
100
AcDbLine
 10
312.056286
 20
232.169158
 30
0.0
 11
312.056286
 21
241.969158
 31
0.0
  0
LINE
  5
2F2
330
2
100
AcDbEntity
  8
MSD_2-0
100
AcDbLine
 10
329.030384
 20
241.969158
 30
0.0
 11
329.030384
 21
232.169158
 31
0.0
  0
LINE
  5
2F3
330
2
100
AcDbEntity
  8
MSD_2-0
100
AcDbLine
 10
337.447831
 20
227.069158
 30
0.0
 11
337.447831
 21
247.069158
 31
0.0
  0
CIRCLE
  5
2F4
330
2
100
AcDbEntity
  8
MSD_2-0
100
AcDbCircle
 10
320.543335
 20
237.069158
 30
0.0
 40
4.0
  0
CIRCLE
  5
2F5
330
2
100
AcDbEntity
  8
MSD_2-0
100
AcDbCircle
 10
320.543335
 20
237.069158
 30
0.0
 40
8.5
  0
ARC
  5
2F6
330
2
100
AcDbEntity
  8
MSD_2-4
100
AcDbCircle
 10
320.543335
 20
237.069158
 30
0.0
 40
5.0
100
AcDbArc
 50
270.0
 51
180.0
  0
LINE
  5
2F8
330
2
100
AcDbEntity
  8
MSD_2-0
100
AcDbLine
 10
320.543335
 20
227.269158
 30
0.0
 11
312.056286
 21
232.169158
 31
0.0
  0
LINE
  5
2F9
330
2
100
AcDbEntity
  8
MSD_2-0
100
AcDbLine
 10
329.030384
 20
232.169158
 30
0.0
 11
320.543335
 21
227.269158
 31
0.0
  0
LINE
  5
2FA
330
2
100
AcDbEntity
  8
MSD_2-0
100
AcDbLine
 10
333.556705
 20
249.569158
 30
0.0
 11
322.056705
 21
249.569158
 31
0.0
  0
LINE
  5
2FB
330
2
100
AcDbEntity
  8
MSD_2-0
100
AcDbLine
 10
312.056286
 20
241.969158
 30
0.0
 11
320.543335
 21
246.869158
 31
0.0
  0
LINE
  5
2FC
330
2
100
AcDbEntity
  8
MSD_2-0
100
AcDbLine
 10
314.799152
 20
249.069158
 30
0.0
 11
321.556705
 21
249.069158
 31
0.0
  0
LINE
  5
2FD
330
2
100
AcDbEntity
  8
MSD_2-0
100
AcDbLine
 10
314.799152
 20
247.069158
 30
0.0
 11
314.799152
 21
249.069158
 31
0.0
  0
ARC
  5
2FE
330
2
100
AcDbEntity
  8
MSD_2-0
100
AcDbCircle
 10
314.299152
 20
249.069158
 30
0.0
 40
0.5
100
AcDbArc
 50
0.0
 51
89.999999
  0
LINE
  5
2FF
330
2
100
AcDbEntity
  8
MSD_2-0
100
AcDbLine
 10
321.556705
 20
249.069158
 30
0.0
 11
321.556705
 21
247.069158
 31
0.0
  0
LINE
  5
300
330
2
100
AcDbEntity
  8
MSD_2-0
100
AcDbLine
 10
320.543335
 20
246.869158
 30
0.0
 11
329.030384
 21
241.969158
 31
0.0
  0
LINE
  5
301
330
2
100
AcDbEntity
  8
MSD_2-0
100
AcDbLine
 10
321.699396
 20
249.418915
 30
0.0
 11
321.049152
 21
250.069158
 31
0.0
  0
ARC
  5
302
330
2
100
AcDbEntity
  8
MSD_2-0
100
AcDbCircle
 10
322.056705
 20
249.069158
 30
0.0
 40
0.5
100
AcDbArc
 50
89.999999
 51
179.999998
  0
LINE
  5
303
330
2
100
AcDbEntity
  8
MSD_2-0
100
AcDbLine
 10
334.056705
 20
247.069158
 30
0.0
 11
334.056705
 21
249.069158
 31
0.0
  0
ARC
  5
304
330
2
100
AcDbEntity
  8
MSD_2-0
100
AcDbCircle
 10
333.556705
 20
249.069158
 30
0.0
 40
0.5
100
AcDbArc
 50
0.0
 51
89.999999
  0
LINE
  5
305
330
2
100
AcDbEntity
  8
MSD_2-0
100
AcDbLine
 10
293.549152
 20
274.069158
 30
0.0
 11
306.549152
 21
274.069158
 31
0.0
  0
LINE
  5
306
330
2
100
AcDbEntity
  8
MSD_2-0
100
AcDbLine
 10
292.549152
 20
273.069158
 30
0.0
 11
307.549152
 21
273.069158
 31
0.0
  0
LINE
  5
307
330
2
100
AcDbEntity
  8
MSD_2-0
100
AcDbLine
 10
292.549152
 20
273.069158
 30
0.0
 11
293.549152
 21
274.069158
 31
0.0
  0
LINE
  5
308
330
2
100
AcDbEntity
  8
MSD_2-0
100
AcDbLine
 10
306.549152
 20
274.069158
 30
0.0
 11
307.549152
 21
273.069158
 31
0.0
  0
CIRCLE
  5
309
330
2
100
AcDbEntity
  8
MSD_2-0
100
AcDbCircle
 10
336.049152
 20
291.316069
 30
0.0
 40
6.5
  0
ARC
  5
30A
330
2
100
AcDbEntity
  8
MSD_2-4
100
AcDbCircle
 10
336.049152
 20
291.316069
 30
0.0
 40
4.0
100
AcDbArc
 50
270.0
 51
180.0
  0
CIRCLE
  5
30B
330
2
100
AcDbEntity
  8
MSD_2-0
100
AcDbCircle
 10
336.049152
 20
291.316069
 30
0.0
 40
3.0
  0
ARC
  5
30F
330
2
100
AcDbEntity
  8
MSD_2-0
100
AcDbCircle
 10
329.370942
 20
399.8264779999999
 30
0.0
 40
2.293055999999999
100
AcDbArc
 50
29.009628
 51
138.837931
  0
LINE
  5
310
330
2
100
AcDbEntity
  8
MSD_2-0
100
AcDbLine
 10
315.068172
 20
389.550769
 30
0.0
 11
316.449533
 21
402.5274569999999
 31
0.0
  0
LINE
  5
311
330
2
100
AcDbEntity
  8
MSD_2-0
100
AcDbLine
 10
326.263252
 20
388.359059
 30
0.0
 11
327.644613
 21
401.335747
 31
0.0
  0
LINE
  5
312
330
2
100
AcDbEntity
  8
MSD_2-0
100
AcDbLine
 10
318.799865
 20
389.153532
 30
0.0
 11
320.181226
 21
402.13022
 31
0.0
  0
LINE
  5
313
330
2
100
AcDbEntity
  8
MSD_2-7
100
AcDbLine
 10
325.236217
 20
414.164212
 30
0.0
 11
320.527274
 21
369.927774
 31
0.0
  0
ARC
  5
314
330
2
100
AcDbEntity
  8
MSD_2-0
100
AcDbCircle
 10
286.674629
 20
372.7387310000001
 30
0.0
 40
3.108681
100
AcDbArc
 50
43.954363
 51
148.198076
  0
LINE
  5
315
330
2
100
AcDbEntity
  8
MSD_2-0
100
AcDbLine
 10
274.413073
 20
380.593639
 30
0.0
 11
282.368129
 21
381.44045
 31
0.0
  0
LINE
  5
316
330
2
100
AcDbEntity
  8
MSD_2-0
100
AcDbLine
 10
273.524542
 20
379.493405
 30
0.0
 11
283.468362
 21
380.551919
 31
0.0
  0
ARC
  5
317
330
2
100
AcDbEntity
  8
MSD_2-0
100
AcDbCircle
 10
280.15141
 20
364.475777
 30
0.0
 40
10.634722
100
AcDbArc
 50
68.59499200000001
 51
123.557446
  0
LINE
  5
318
330
2
100
AcDbEntity
  8
MSD_2-0
100
AcDbLine
 10
286.34557
 20
375.829947
 30
0.0
 11
271.70585
 21
374.271558
 31
0.0
  0
LINE
  5
319
330
2
100
AcDbEntity
  8
MSD_2-0
100
AcDbLine
 10
274.053797
 20
374.521495
 30
0.0
 11
273.524542
 21
379.493405
 31
0.0
  0
LINE
  5
31A
330
2
100
AcDbEntity
  8
MSD_2-4
100
AcDbLine
 10
275.048179
 20
374.627346
 30
0.0
 11
274.413073
 21
380.593639
 31
0.0
  0
ARC
  5
31B
330
2
100
AcDbEntity
  8
MSD_2-0
100
AcDbCircle
 10
272.034908
 20
371.180342
 30
0.0
 40
3.108681
100
AcDbArc
 50
43.954363
 51
148.198076
  0
LINE
  5
31C
330
2
100
AcDbEntity
  8
MSD_2-0
100
AcDbLine
 10
269.446411
 20
372.316069
 30
0.0
 11
269.39292
 21
372.818568
 31
0.0
  0
LINE
  5
31D
330
2
100
AcDbEntity
  8
MSD_2-0
100
AcDbLine
 10
274.381614
 20
372.316069
 30
0.0
 11
274.272827
 21
373.338031
 31
0.0
  0
LINE
  5
31E
330
2
100
AcDbEntity
  8
MSD_2-0
100
AcDbLine
 10
273.524542
 20
379.493405
 30
0.0
 11
274.413073
 21
380.593639
 31
0.0
  0
LINE
  5
31F
330
2
100
AcDbEntity
  8
MSD_2-0
100
AcDbLine
 10
283.468362
 20
380.551919
 30
0.0
 11
283.997616
 21
375.580009
 31
0.0
  0
LINE
  5
320
330
2
100
AcDbEntity
  8
MSD_2-4
100
AcDbLine
 10
283.003234
 20
375.474157
 30
0.0
 11
282.368129
 21
381.44045
 31
0.0
  0
LINE
  5
321
330
2
100
AcDbEntity
  8
MSD_2-7
100
AcDbLine
 10
278.11964
 20
383.562328
 30
0.0
 11
279.571031
 21
369.927774
 31
0.0
  0
LINE
  5
322
330
2
100
AcDbEntity
  8
MSD_2-0
100
AcDbLine
 10
284.252021
 20
372.316069
 30
0.0
 11
284.032639
 21
374.376957
 31
0.0
  0
LINE
  5
323
330
2
100
AcDbEntity
  8
MSD_2-0
100
AcDbLine
 10
282.368129
 20
381.44045
 30
0.0
 11
283.468362
 21
380.551919
 31
0.0
  0
LINE
  5
324
330
2
100
AcDbEntity
  8
MSD_2-0
100
AcDbLine
 10
289.187762
 20
372.311028
 30
0.0
 11
288.912546
 21
374.896421
 31
0.0
  0
CIRCLE
  5
325
330
2
100
AcDbEntity
  8
MSD_2-0
100
AcDbCircle
 10
336.049152
 20
363.316069
 30
0.0
 40
6.5
  0
CIRCLE
  5
326
330
2
100
AcDbEntity
  8
MSD_2-0
100
AcDbCircle
 10
336.049152
 20
363.316069
 30
0.0
 40
3.0
  0
ARC
  5
327
330
2
100
AcDbEntity
  8
MSD_2-4
100
AcDbCircle
 10
336.049152
 20
363.316069
 30
0.0
 40
4.0
100
AcDbArc
 50
270.0
 51
180.0
  0
ARC
  5
328
330
2
100
AcDbEntity
  8
MSD_2-0
100
AcDbCircle
 10
328.063398
 20
371.180188
 30
0.0
 40
3.108681
100
AcDbArc
 50
31.801923
 51
136.045636
  0
ARC
  5
329
330
2
100
AcDbEntity
  8
MSD_2-0
100
AcDbCircle
 10
328.268617
 20
389.471091
 30
0.0
 40
2.293055999999999
100
AcDbArc
 50
209.009629
 51
318.837933
  0
LINE
  5
32A
330
2
100
AcDbEntity
  8
MSD_2-0
100
AcDbLine
 10
316.100686
 20
375.579855
 30
0.0
 11
317.465759
 21
388.403539
 31
0.0
  0
LINE
  5
32B
330
2
100
AcDbEntity
  8
MSD_2-0
100
AcDbLine
 10
327.409579
 20
387.345025
 30
0.0
 11
326.0445049999999
 21
374.521342
 31
0.0
  0
LINE
  5
32C
330
2
100
AcDbEntity
  8
MSD_2-4
100
AcDbLine
 10
318.4508259999999
 20
388.210179
 30
0.0
 11
317.0950673738862
 21
375.4740038421459
 31
0.0
  0
LINE
  5
32D
330
2
100
AcDbEntity
  8
MSD_2-4
100
AcDbLine
 10
326.405882
 20
387.3633680000001
 30
0.0
 11
325.0501229488474
 21
374.6271932299486
 31
0.0
  0
ARC
  5
32E
330
2
100
AcDbEntity
  8
MSD_2-0
100
AcDbCircle
 10
319.946896
 20
364.475623
 30
0.0
 40
10.634722
100
AcDbArc
 50
56.44255199999999
 51
111.405006
  0
LINE
  5
32F
330
2
100
AcDbEntity
  8
MSD_2-0
100
AcDbLine
 10
328.392456
 20
374.271404
 30
0.0
 11
313.752735
 21
375.829793
 31
0.0
  0
ARC
  5
330
330
2
100
AcDbEntity
  8
MSD_2-0
100
AcDbCircle
 10
313.423677
 20
372.738577
 30
0.0
 40
3.108681
100
AcDbArc
 50
31.801923
 51
136.045636
  0
LINE
  5
331
330
2
100
AcDbEntity
  8
MSD_2-0
100
AcDbLine
 10
310.910546
 20
372.310873
 30
0.0
 11
311.18576
 21
374.896267
 31
0.0
  0
LINE
  5
332
330
2
100
AcDbEntity
  8
MSD_2-0
100
AcDbLine
 10
315.846303
 20
372.316069
 30
0.0
 11
316.065667
 21
374.376803
 31
0.0
  0
LINE
  5
333
330
2
100
AcDbEntity
  8
MSD_2-0
100
AcDbLine
 10
325.71671
 20
372.316069
 30
0.0
 11
325.825481
 21
373.337877
 31
0.0
  0
ARC
  5
334
330
2
100
AcDbEntity
  8
MSD_2-0
100
AcDbCircle
 10
323.244438
 20
395.453182
 30
0.0
 40
7.709722
100
AcDbArc
 50
234.795999
 51
293.051563
  0
LINE
  5
335
330
2
100
AcDbEntity
  8
MSD_2-0
100
AcDbLine
 10
316.830813
 20
388.382628
 30
0.0
 11
328.025894
 21
387.190918
 31
0.0
  0
ARC
  5
336
330
2
100
AcDbEntity
  8
MSD_2-0
100
AcDbCircle
 10
317.073537
 20
390.662801
 30
0.0
 40
2.293055999999999
100
AcDbArc
 50
209.009629
 51
318.837933
  0
LINE
  5
337
330
2
100
AcDbEntity
  8
MSD_2-0
100
AcDbLine
 10
330.651913
 20
372.316069
 30
0.0
 11
330.705388
 21
372.818414
 31
0.0
  0
LINE
  5
338
330
2
100
AcDbEntity
  8
MSD_2-0
100
AcDbLine
 10
329.994946
 20
387.9618220000001
 30
0.0
 11
331.376307
 21
400.93851
 31
0.0
  0
ARC
  5
339
330
2
100
AcDbEntity
  8
MSD_2-0
100
AcDbCircle
 10
318.175861
 20
401.018188
 30
0.0
 40
2.293055999999999
100
AcDbArc
 50
29.009628
 51
138.837931
  0
LINE
  5
33A
330
2
100
AcDbEntity
  8
MSD_2-0
100
AcDbLine
 10
318.418584
 20
403.298361
 30
0.0
 11
329.613665
 21
402.1066509999999
 31
0.0
  0
LINE
  5
33B
330
2
100
AcDbEntity
  8
MSD_2-0
100
AcDbLine
 10
328.290347
 20
409.789891
 30
0.0
 11
328.184495
 21
408.7955089999999
 31
0.0
  0
LINE
  5
33C
330
2
100
AcDbEntity
  8
MSD_2-0
100
AcDbLine
 10
321.522136
 20
409.504713
 30
0.0
 11
327.886181
 21
408.827264
 31
0.0
  0
LINE
  5
33D
330
2
100
AcDbEntity
  8
MSD_2-0
100
AcDbLine
 10
320.834102
 20
403.04123
 30
0.0
 11
321.522136
 21
409.504713
 31
0.0
  0
LINE
  5
33E
330
2
100
AcDbEntity
  8
MSD_2-0
100
AcDbLine
 10
327.356924
 20
403.8553539999999
 30
0.0
 11
320.992879
 21
404.532803
 31
0.0
  0
LINE
  5
33F
330
2
100
AcDbEntity
  8
MSD_2-0
100
AcDbLine
 10
321.204582
 20
406.5215669999999
 30
0.0
 11
327.568627
 21
405.844118
 31
0.0
  0
LINE
  5
340
330
2
100
AcDbEntity
  8
MSD_2-0
100
AcDbLine
 10
327.356924
 20
403.8553539999999
 30
0.0
 11
320.992879
 21
404.532803
 31
0.0
  0
LINE
  5
341
330
2
100
AcDbEntity
  8
MSD_2-0
100
AcDbLine
 10
321.204582
 20
406.5215669999999
 30
0.0
 11
327.568627
 21
405.844118
 31
0.0
  0
LINE
  5
342
330
2
100
AcDbEntity
  8
MSD_2-0
100
AcDbLine
 10
320.992879
 20
404.532803
 30
0.0
 11
327.356924
 21
403.8553539999999
 31
0.0
  0
LINE
  5
343
330
2
100
AcDbEntity
  8
MSD_2-0
100
AcDbLine
 10
321.204582
 20
406.5215669999999
 30
0.0
 11
327.568627
 21
405.844118
 31
0.0
  0
ARC
  5
344
330
2
100
AcDbEntity
  8
MSD_2-0
100
AcDbCircle
 10
323.20004
 20
395.0360970000001
 30
0.0
 40
7.709722
100
AcDbArc
 50
54.795997
 51
113.051561
  0
LINE
  5
345
330
2
100
AcDbEntity
  8
MSD_2-0
100
AcDbLine
 10
320.992879
 20
404.532803
 30
0.0
 11
321.204582
 21
406.5215669999999
 31
0.0
  0
LINE
  5
346
330
2
100
AcDbEntity
  8
MSD_2-0
100
AcDbLine
 10
320.992879
 20
404.532803
 30
0.0
 11
321.204582
 21
406.5215669999999
 31
0.0
  0
LINE
  5
347
330
2
100
AcDbEntity
  8
MSD_2-0
100
AcDbLine
 10
328.184495
 20
408.7955089999999
 30
0.0
 11
327.886181
 21
408.827264
 31
0.0
  0
LINE
  5
348
330
2
100
AcDbEntity
  8
MSD_2-0
100
AcDbLine
 10
327.568627
 20
405.844118
 30
0.0
 11
327.356924
 21
403.8553539999999
 31
0.0
  0
LINE
  5
349
330
2
100
AcDbEntity
  8
MSD_2-0
100
AcDbLine
 10
327.568627
 20
405.844118
 30
0.0
 11
327.356924
 21
403.8553539999999
 31
0.0
  0
LINE
  5
34A
330
2
100
AcDbEntity
  8
MSD_2-0
100
AcDbLine
 10
327.886181
 20
408.827264
 30
0.0
 11
327.198147
 21
402.3637819999999
 31
0.0
  0
LINE
  5
34B
330
2
100
AcDbEntity
  8
MSD_2-0
100
AcDbLine
 10
321.892616
 20
412.9850499999999
 30
0.0
 11
328.256661
 21
412.307601
 31
0.0
  0
LINE
  5
34C
330
2
100
AcDbEntity
  8
MSD_2-0
100
AcDbLine
 10
321.627988
 20
410.499095
 30
0.0
 11
327.992032
 21
409.8216459999999
 31
0.0
  0
LINE
  5
34D
330
2
100
AcDbEntity
  8
MSD_2-0
100
AcDbLine
 10
321.627988
 20
410.499095
 30
0.0
 11
321.892616
 21
412.9850499999999
 31
0.0
  0
LINE
  5
34E
330
2
100
AcDbEntity
  8
MSD_2-0
100
AcDbLine
 10
321.329673
 20
410.5308499999999
 30
0.0
 11
321.627988
 21
410.499095
 31
0.0
  0
LINE
  5
34F
330
2
100
AcDbEntity
  8
MSD_2-0
100
AcDbLine
 10
321.2238220000001
 20
409.536468
 30
0.0
 11
321.329673
 21
410.5308499999999
 31
0.0
  0
LINE
  5
350
330
2
100
AcDbEntity
  8
MSD_2-0
100
AcDbLine
 10
321.522136
 20
409.504713
 30
0.0
 11
321.2238220000001
 21
409.536468
 31
0.0
  0
LINE
  5
351
330
2
100
AcDbEntity
  8
MSD_2-0
100
AcDbLine
 10
327.992032
 20
409.8216459999999
 30
0.0
 11
328.290347
 21
409.789891
 31
0.0
  0
LINE
  5
352
330
2
100
AcDbEntity
  8
MSD_2-0
100
AcDbLine
 10
328.256661
 20
412.307601
 30
0.0
 11
327.992032
 21
409.8216459999999
 31
0.0
  0
LINE
  5
353
330
2
100
AcDbEntity
  8
MSD_2-0
100
AcDbLine
 10
524.092978
 20
247.069158
 30
0.0
 11
501.191078
 21
247.069158
 31
0.0
  0
LINE
  5
354
330
2
100
AcDbEntity
  8
MSD_2-0
100
AcDbLine
 10
434.092978
 20
227.069158
 30
0.0
 11
524.092978
 21
227.069158
 31
0.0
  0
LINE
  5
355
330
2
100
AcDbEntity
  8
MSD_2-7
100
AcDbLine
 10
534.081719
 20
237.069158
 30
0.0
 11
483.641536
 21
237.069158
 31
0.0
  0
LINE
  5
356
330
2
100
AcDbEntity
  8
MSD_2-3
100
AcDbLine
 10
529.0929779999999
 20
233.069158
 30
0.0
 11
501.191078
 21
233.069158
 31
0.0
  0
LINE
  5
357
330
2
100
AcDbEntity
  8
MSD_2-3
100
AcDbLine
 10
529.0929779999999
 20
241.069158
 30
0.0
 11
501.191078
 21
241.069158
 31
0.0
  0
LINE
  5
358
330
2
100
AcDbEntity
  8
MSD_2-3
100
AcDbLine
 10
529.0929779999999
 20
242.069158
 30
0.0
 11
501.191078
 21
242.069158
 31
0.0
  0
LINE
  5
359
330
2
100
AcDbEntity
  8
MSD_2-3
100
AcDbLine
 10
529.0929779999999
 20
232.069158
 30
0.0
 11
501.191078
 21
232.069158
 31
0.0
  0
LINE
  5
35A
330
2
100
AcDbEntity
  8
MSD_2-0
100
AcDbLine
 10
486.592978
 20
273.069158
 30
0.0
 11
486.592978
 21
250.069158
 31
0.0
  0
LINE
  5
35B
330
2
100
AcDbEntity
  8
MSD_2-0
100
AcDbLine
 10
471.592978
 20
250.069158
 30
0.0
 11
471.592978
 21
273.069158
 31
0.0
  0
LINE
  5
35C
330
2
100
AcDbEntity
  8
MSD_2-3
100
AcDbLine
 10
481.3429779999999
 20
259.069158
 30
0.0
 11
481.3429779999999
 21
274.069158
 31
0.0
  0
LINE
  5
35D
330
2
100
AcDbEntity
  8
MSD_2-3
100
AcDbLine
 10
476.8429779999999
 20
274.069158
 30
0.0
 11
476.8429779999999
 21
259.069158
 31
0.0
  0
LINE
  5
35E
330
2
100
AcDbEntity
  8
MSD_2-3
100
AcDbLine
 10
482.092978
 20
262.069158
 30
0.0
 11
482.092978
 21
274.069158
 31
0.0
  0
LINE
  5
35F
330
2
100
AcDbEntity
  8
MSD_2-3
100
AcDbLine
 10
476.092978
 20
274.069158
 30
0.0
 11
476.092978
 21
262.069158
 31
0.0
  0
LINE
  5
360
330
2
100
AcDbEntity
  8
MSD_2-0
100
AcDbLine
 10
501.092978
 20
227.069158
 30
0.0
 11
457.092978
 21
227.069158
 31
0.0
  0
LINE
  5
361
330
2
100
AcDbEntity
  8
MSD_2-0
100
AcDbLine
 10
458.0929779999999
 20
250.069158
 30
0.0
 11
479.0929779999999
 21
250.069158
 31
0.0
  0
LINE
  5
362
330
2
100
AcDbEntity
  8
MSD_2-0
100
AcDbLine
 10
486.592978
 20
231.569158
 30
0.0
 11
471.592978
 21
231.569158
 31
0.0
  0
LINE
  5
363
330
2
100
AcDbEntity
  8
MSD_2-0
100
AcDbLine
 10
471.592978
 20
243.069158
 30
0.0
 11
486.592978
 21
243.069158
 31
0.0
  0
LINE
  5
364
330
2
100
AcDbEntity
  8
MSD_2-0
100
AcDbLine
 10
493.092978
 20
243.069158
 30
0.0
 11
465.092978
 21
243.069158
 31
0.0
  0
LINE
  5
365
330
2
100
AcDbEntity
  8
MSD_2-0
100
AcDbLine
 10
493.092978
 20
231.569158
 30
0.0
 11
465.092978
 21
231.569158
 31
0.0
  0
LINE
  5
366
330
2
100
AcDbEntity
  8
MSD_2-0
100
AcDbLine
 10
501.092978
 20
249.069158
 30
0.0
 11
457.092978
 21
249.069158
 31
0.0
  0
LINE
  5
367
330
2
100
AcDbEntity
  8
MSD_2-0
100
AcDbLine
 10
471.592978
 20
231.569158
 30
0.0
 11
471.592978
 21
243.069158
 31
0.0
  0
LINE
  5
368
330
2
100
AcDbEntity
  8
MSD_2-0
100
AcDbLine
 10
468.092978
 20
234.569158
 30
0.0
 11
468.092978
 21
240.069158
 31
0.0
  0
ARC
  5
369
330
2
100
AcDbEntity
  8
MSD_2-0
100
AcDbCircle
 10
465.092978
 20
234.569158
 30
0.0
 40
3.0
100
AcDbArc
 50
270.000001
 51
0.0
  0
LINE
  5
36A
330
2
100
AcDbEntity
  8
MSD_2-0
100
AcDbLine
 10
457.092978
 20
227.069158
 30
0.0
 11
457.092978
 21
231.569158
 31
0.0
  0
LINE
  5
36B
330
2
100
AcDbEntity
  8
MSD_2-0
100
AcDbLine
 10
457.092978
 20
231.569158
 30
0.0
 11
465.092978
 21
231.569158
 31
0.0
  0
ARC
  5
36C
330
2
100
AcDbEntity
  8
MSD_2-0
100
AcDbCircle
 10
465.092978
 20
240.069158
 30
0.0
 40
3.0
100
AcDbArc
 50
0.0
 51
89.999999
  0
LINE
  5
36D
330
2
100
AcDbEntity
  8
MSD_2-0
100
AcDbLine
 10
457.092978
 20
243.069158
 30
0.0
 11
457.092978
 21
249.069158
 31
0.0
  0
LINE
  5
36E
330
2
100
AcDbEntity
  8
MSD_2-0
100
AcDbLine
 10
465.092978
 20
243.069158
 30
0.0
 11
457.092978
 21
243.069158
 31
0.0
  0
LINE
  5
36F
330
2
100
AcDbEntity
  8
MSD_2-0
100
AcDbLine
 10
457.092978
 20
249.069158
 30
0.0
 11
458.0929779999999
 21
250.069158
 31
0.0
  0
LINE
  5
370
330
2
100
AcDbEntity
  8
MSD_2-0
100
AcDbLine
 10
486.592978
 20
233.069158
 30
0.0
 11
486.592978
 21
241.069158
 31
0.0
  0
LINE
  5
371
330
2
100
AcDbEntity
  8
MSD_2-0
100
AcDbLine
 10
486.592978
 20
243.069158
 30
0.0
 11
486.592978
 21
231.569158
 31
0.0
  0
LINE
  5
372
330
2
100
AcDbEntity
  8
MSD_2-0
100
AcDbLine
 10
501.191078
 20
247.069158
 30
0.0
 11
501.191078
 21
227.069158
 31
0.0
  0
LINE
  5
373
330
2
100
AcDbEntity
  8
MSD_2-0
100
AcDbLine
 10
487.5929779999999
 20
241.069158
 30
0.0
 11
487.5929779999999
 21
233.069158
 31
0.0
  0
LINE
  5
374
330
2
100
AcDbEntity
  8
MSD_2-0
100
AcDbLine
 10
488.592978
 20
242.069158
 30
0.0
 11
488.592978
 21
232.069158
 31
0.0
  0
LINE
  5
375
330
2
100
AcDbEntity
  8
MSD_2-0
100
AcDbLine
 10
501.191078
 20
232.069158
 30
0.0
 11
488.592978
 21
232.069158
 31
0.0
  0
LINE
  5
376
330
2
100
AcDbEntity
  8
MSD_2-0
100
AcDbLine
 10
490.092978
 20
231.569158
 30
0.0
 11
501.092978
 21
231.569158
 31
0.0
  0
LINE
  5
377
330
2
100
AcDbEntity
  8
MSD_2-0
100
AcDbLine
 10
490.092978
 20
232.069158
 30
0.0
 11
490.092978
 21
231.569158
 31
0.0
  0
LINE
  5
378
330
2
100
AcDbEntity
  8
MSD_2-0
100
AcDbLine
 10
487.5929779999999
 20
233.069158
 30
0.0
 11
486.592978
 21
233.069158
 31
0.0
  0
LINE
  5
379
330
2
100
AcDbEntity
  8
MSD_2-0
100
AcDbLine
 10
488.592978
 20
232.069158
 30
0.0
 11
487.5929779999999
 21
233.069158
 31
0.0
  0
LINE
  5
37A
330
2
100
AcDbEntity
  8
MSD_2-0
100
AcDbLine
 10
501.092978
 20
231.569158
 30
0.0
 11
501.092978
 21
227.069158
 31
0.0
  0
LINE
  5
37B
330
2
100
AcDbEntity
  8
MSD_2-0
100
AcDbLine
 10
488.592978
 20
242.069158
 30
0.0
 11
501.191078
 21
242.069158
 31
0.0
  0
LINE
  5
37C
330
2
100
AcDbEntity
  8
MSD_2-0
100
AcDbLine
 10
501.092978
 20
243.069158
 30
0.0
 11
490.092978
 21
243.069158
 31
0.0
  0
LINE
  5
37D
330
2
100
AcDbEntity
  8
MSD_2-0
100
AcDbLine
 10
479.0929779999999
 20
250.069158
 30
0.0
 11
500.0929779999999
 21
250.069158
 31
0.0
  0
LINE
  5
37E
330
2
100
AcDbEntity
  8
MSD_2-0
100
AcDbLine
 10
490.092978
 20
243.069158
 30
0.0
 11
490.092978
 21
242.069158
 31
0.0
  0
LINE
  5
37F
330
2
100
AcDbEntity
  8
MSD_2-0
100
AcDbLine
 10
487.5929779999999
 20
241.069158
 30
0.0
 11
488.592978
 21
242.069158
 31
0.0
  0
LINE
  5
380
330
2
100
AcDbEntity
  8
MSD_2-0
100
AcDbLine
 10
486.592978
 20
241.069158
 30
0.0
 11
487.5929779999999
 21
241.069158
 31
0.0
  0
LINE
  5
381
330
2
100
AcDbEntity
  8
MSD_2-3
100
AcDbLine
 10
479.0929779999999
 20
257.77012
 30
0.0
 11
481.3429779999999
 21
259.069158
 31
0.0
  0
LINE
  5
382
330
2
100
AcDbEntity
  8
MSD_2-3
100
AcDbLine
 10
476.8429779999999
 20
259.069158
 30
0.0
 11
481.3429779999999
 21
259.069158
 31
0.0
  0
LINE
  5
383
330
2
100
AcDbEntity
  8
MSD_2-3
100
AcDbLine
 10
476.092978
 20
262.069158
 30
0.0
 11
482.092978
 21
262.069158
 31
0.0
  0
LINE
  5
384
330
2
100
AcDbEntity
  8
MSD_2-3
100
AcDbLine
 10
476.8429779999999
 20
259.069158
 30
0.0
 11
479.0929779999999
 21
257.77012
 31
0.0
  0
LINE
  5
385
330
2
100
AcDbEntity
  8
MSD_2-0
100
AcDbLine
 10
501.092978
 20
249.069158
 30
0.0
 11
501.092978
 21
243.069158
 31
0.0
  0
LINE
  5
386
330
2
100
AcDbEntity
  8
MSD_2-0
100
AcDbLine
 10
500.0929779999999
 20
250.069158
 30
0.0
 11
501.092978
 21
249.069158
 31
0.0
  0
LINE
  5
387
330
2
100
AcDbEntity
  8
MSD_2-0
100
AcDbLine
 10
472.592978
 20
274.069158
 30
0.0
 11
485.592978
 21
274.069158
 31
0.0
  0
LINE
  5
388
330
2
100
AcDbEntity
  8
MSD_2-0
100
AcDbLine
 10
471.592978
 20
273.069158
 30
0.0
 11
486.592978
 21
273.069158
 31
0.0
  0
LINE
  5
389
330
2
100
AcDbEntity
  8
MSD_2-0
100
AcDbLine
 10
471.592978
 20
273.069158
 30
0.0
 11
472.592978
 21
274.069158
 31
0.0
  0
LINE
  5
38A
330
2
100
AcDbEntity
  8
MSD_2-0
100
AcDbLine
 10
485.592978
 20
274.069158
 30
0.0
 11
486.592978
 21
273.069158
 31
0.0
  0
LINE
  5
38B
330
2
100
AcDbEntity
  8
MSD_2-0
100
AcDbLine
 10
532.5929579999999
 20
241.069158
 30
0.0
 11
532.5929579999999
 21
233.069158
 31
0.0
  0
LINE
  5
38C
330
2
100
AcDbEntity
  8
MSD_2-0
100
AcDbLine
 10
524.092978
 20
227.069158
 30
0.0
 11
524.092978
 21
247.069158
 31
0.0
  0
LINE
  5
38D
330
2
100
AcDbEntity
  8
MSD_2-0
100
AcDbLine
 10
531.5929579999999
 20
242.069158
 30
0.0
 11
531.5929579999999
 21
232.069158
 31
0.0
  0
ARC
  5
38E
330
2
100
AcDbEntity
  8
MSD_2-0
100
AcDbCircle
 10
518.4582559999999
 20
237.069158
 30
0.0
 40
10.634722
100
AcDbArc
 50
332.518773
 51
27.481227
  0
LINE
  5
38F
330
2
100
AcDbEntity
  8
MSD_2-0
100
AcDbLine
 10
529.0929779999999
 20
229.707942
 30
0.0
 11
529.0929779999999
 21
244.430374
 31
0.0
  0
ARC
  5
390
330
2
100
AcDbEntity
  8
MSD_2-0
100
AcDbCircle
 10
534.7277
 20
237.069158
 30
0.0
 40
10.634722
100
AcDbArc
 50
152.518771
 51
207.481229
  0
LINE
  5
391
330
2
100
AcDbEntity
  8
MSD_2-0
100
AcDbLine
 10
524.092978
 20
229.707942
 30
0.0
 11
524.092978
 21
244.430374
 31
0.0
  0
LINE
  5
392
330
2
100
AcDbEntity
  8
MSD_2-0
100
AcDbLine
 10
520.056278
 20
247.069158
 30
0.0
 11
520.056278
 21
227.069158
 31
0.0
  0
LINE
  5
393
330
2
100
AcDbEntity
  8
MSD_2-0
100
AcDbLine
 10
525.292978
 20
232.161681
 30
0.0
 11
527.8929779999999
 21
232.161681
 31
0.0
  0
LINE
  5
394
330
2
100
AcDbEntity
  8
MSD_2-0
100
AcDbLine
 10
525.292978
 20
227.254204
 30
0.0
 11
527.8929779999999
 21
227.254204
 31
0.0
  0
ARC
  5
395
330
2
100
AcDbEntity
  8
MSD_2-0
100
AcDbCircle
 10
527.2016589999999
 20
229.707942
 30
0.0
 40
3.108681
100
AcDbArc
 50
127.878142
 51
232.121858
  0
ARC
  5
396
330
2
100
AcDbEntity
  8
MSD_2-0
100
AcDbCircle
 10
525.984297
 20
229.707942
 30
0.0
 40
3.108681
100
AcDbArc
 50
307.878144
 51
52.121856
  0
LINE
  5
397
330
2
100
AcDbEntity
  8
MSD_2-0
100
AcDbLine
 10
532.5929579999999
 20
233.069158
 30
0.0
 11
531.5929579999999
 21
232.069158
 31
0.0
  0
LINE
  5
398
330
2
100
AcDbEntity
  8
MSD_2-0
100
AcDbLine
 10
531.5929579999999
 20
232.069158
 30
0.0
 11
529.0929779999999
 21
232.069158
 31
0.0
  0
LINE
  5
399
330
2
100
AcDbEntity
  8
MSD_2-4
100
AcDbLine
 10
532.5929579999999
 20
233.069158
 30
0.0
 11
529.0929779999999
 21
233.069158
 31
0.0
  0
LINE
  5
39A
330
2
100
AcDbEntity
  8
MSD_2-0
100
AcDbLine
 10
525.292978
 20
246.884113
 30
0.0
 11
527.8929779999999
 21
246.884113
 31
0.0
  0
LINE
  5
39B
330
2
100
AcDbEntity
  8
MSD_2-0
100
AcDbLine
 10
525.292978
 20
241.976636
 30
0.0
 11
527.8929779999999
 21
241.976636
 31
0.0
  0
ARC
  5
39C
330
2
100
AcDbEntity
  8
MSD_2-0
100
AcDbCircle
 10
527.2016589999999
 20
244.430374
 30
0.0
 40
3.108681
100
AcDbArc
 50
127.878142
 51
232.121858
  0
LINE
  5
39D
330
2
100
AcDbEntity
  8
MSD_2-0
100
AcDbLine
 10
531.5929579999999
 20
242.069158
 30
0.0
 11
532.5929579999999
 21
241.069158
 31
0.0
  0
LINE
  5
39E
330
2
100
AcDbEntity
  8
MSD_2-0
100
AcDbLine
 10
529.0929779999999
 20
242.069158
 30
0.0
 11
531.5929579999999
 21
242.069158
 31
0.0
  0
ARC
  5
39F
330
2
100
AcDbEntity
  8
MSD_2-0
100
AcDbCircle
 10
525.984297
 20
244.430374
 30
0.0
 40
3.108681
100
AcDbArc
 50
307.878144
 51
52.121856
  0
LINE
  5
3A0
330
2
100
AcDbEntity
  8
MSD_2-4
100
AcDbLine
 10
532.5929579999999
 20
241.069158
 30
0.0
 11
529.0929779999999
 21
241.069158
 31
0.0
  0
INSERT
  5
4A5
330
2
100
AcDbEntity
  8
MSD_2-8
100
AcDbBlockReference
  2
*X0
 10
0.0
 20
0.0
 30
0.0
1001
GENIUS_GENODEF_13
1002
{
1000
HIER
1070
     0
1002
}
1002
{
1000
MANEDIT
1070
     0
1002
}
1002
{
1000
NOSEL
1070
     0
1002
}
1002
{
1000
BEHIND
1070
     0
1002
}
1002
{
1000
REACTOR
1002
}
1001
GENIUS_GENOBJ-N-HTC_13
1002
{
1000
OWNER
1000
GEN
1002
}
1001
GENIUS_GENHATCH_13
1002
{
1000
DATA
1040
45.0
1042
2.5
1000
_U
1070
     0
1011
322.2382163320097
1021
174.4101980037283
1031
0.0
1002
}
1002
{
1000
UCS
1010
0.0
1020
0.0
1030
0.0
1010
1.0
1020
0.0
1030
0.0
1010
0.0
1020
1.0
1030
0.0
1002
}
1001
ACAD
1000
HATCH
1002
{
1070
    19
1000
_U
1040
2.5
1040
0.7853981633974483
1070
     0
1002
}
  0
LINE
  5
7B3
330
2
100
AcDbEntity
  8
MSD_2-4
100
AcDbLine
 10
501.191078
 20
241.069158
 30
0.0
 11
487.5929779999999
 21
241.069158
 31
0.0
  0
LINE
  5
7B5
330
2
100
AcDbEntity
  8
MSD_2-4
100
AcDbLine
 10
501.191078
 20
233.069158
 30
0.0
 11
487.5929779999999
 21
233.069158
 31
0.0
  0
LINE
  5
7B9
330
2
100
AcDbEntity
  8
MSD_2-4
100
AcDbLine
 10
84.013757
 20
241.069158
 30
0.0
 11
97.611857
 21
241.069158
 31
0.0
  0
LINE
  5
7BB
330
2
100
AcDbEntity
  8
MSD_2-4
100
AcDbLine
 10
84.013757
 20
233.069158
 30
0.0
 11
97.611857
 21
233.069158
 31
0.0
  0
INSERT
  5
9B6
330
2
100
AcDbEntity
  8
MSD_2-0
100
AcDbBlockReference
  2
*U2
 10
245.049152
 20
56.42214571414661
 30
0.0
 50
90.0
1001
GENIUS_GEFPARTINS_13
1002
{
1011
245.049152
1021
56.42214571414661
1031
0.0
1013
0.0000000000000001
1023
1.0
1033
0.0
1002
}
1001
VCC
1002
{
1000
-ID2
1000
-IE2
1000
-IK2
1000
-V$PV_GENSYSTEM"GEF\VAL\IS\0405\IS1627_V.DXF"
1002
}
1001
GEVIT
1002
{
1000
-BEHI1.00000001
1000
-BVCCT0
1000
-T2
1000
-GRP0MSD_2-0
1000
-BAML2
1000
-BASK1
1000
-NT0
1000
-DOC
1005
99C
1000
-MYREF
1005
9B6
1002
}
1001
GEVPT
1002
{
1000
-V$PV_GENSYSTEM"GEF\VAL\IS\0405\IS1627_V.DXF"
1000
-FIXPLOTI=7.500000000000000E+00
1000
-GPGEVBHOP=2
1000
-GPGEF_PROCALC=1
1000
-GPGEF_FLIPY=1
1000
-GPGEF_FLIPX=1
1000
-GPGEF_SNK_ADD=0
1000
-GPGEVPROMPTX=Länge:
1000
-GPGEF_OANG=70
1000
-GPGEF_STANG=210
1000
-GPGEF_DRAG=1
1000
-GPGEF_CDIST=3
1000
-GPVCC_TABLE=C:\GENIUS\gef\val\is\0405\is1627.val
1000
-GPNM1=1/8
1000
-GPPRE=G
1002
}
1001
GEVID886498246
1002
{
1002
}
1001
GENIUS_GENOREF_13
1005
9BB
  0
POINT
  5
9BB
330
2
100
AcDbEntity
  8
0
 60
     1
100
AcDbPoint
 10
0.0
 20
0.0
 30
0.0
1001
GENIUS_GENODEF_13
1002
{
1000
HIER
1070
   200
1002
}
1002
{
1000
MANEDIT
1070
     0
1002
}
1002
{
1000
NOSEL
1070
     0
1002
}
1002
{
1000
BEHIND
1070
     0
1002
}
1002
{
1000
REACTOR
1002
}
1001
GENIUS_GENOBJ-F-PART_13
1002
{
1000
OWNER
1000
GEF
1002
}
1001
GENIUS_GEFSTDP_13
1002
{
1000
DSC
1000
DSC
1002
{
1000
~DESCR
1000
 
1000
~STDRT
1000
(gefmsg "gefcall" 409)
1000
~LOTI
1002
}
1002
}
1002
{
1000
SUG
1000
G
1000
1/8
1002
}
1002
{
1000
KEY
1000
THPF
1002
}
1002
{
1000
INS
1002
{
1040
245.049152
1040
56.42214571414661
1040
0.0
1002
}
1002
}
1002
{
1000
ANG
1040
1.570796326794896
1002
}
1002
{
1000
VCC
1002
{
1000
-LPLOTI=7.500000000000000E+00
1000
$PRE=G
1000
$NM1=1/8
1000
-GRPNAME0MSD_2-0
1000
-RBDESCR
1000
-RBSTDRT
1000
-RBLOTI
1000
-RBGD1
1000
-V$PV_GENSYSTEM"gef\val\is\0405\is1627_v.dxf"
1000
$VCC_TABLE=$PV_GENSYSTEM"gef\val\is\0405\is1627.val"
1000
$GEF_CDIST=3.000000000000000E+00
1000
$GEF_DRAG=1
1000
$GEF_STANG=2.100000000000000E+02
1000
$GEF_OANG=7.000000000000000E+01
1000
$GEVPROMPTX= Länge: 
1000
$GEF_SNK_ADD=0.000000000000000E+00
1000
$GEF_FLIPX=1
1000
$GEF_FLIPY=1
1000
-GRPNAME1?
1000
-BAML2
1000
$GEF_PROCALC=1
1000
$GEVBHOP=2
1002
}
1002
}
1002
{
1000
LST
1002
{
1002
{
1000
GROUP
1000
0405
1002
}
1002
{
1000
VIEW
1000
V
1002
}
1002
{
1000
SFILE
1000
$PV_GENSYSTEM"gef\val\is\0405\is1627_v.dxf"
1002
}
1002
{
1000
ST1
1000
$PV_GENSYSTEM"gef\val\is\0405\is1627.val"
1002
}
1002
{
1000
GENASSO
1000
 
1002
}
1002
}
1002
}
1002
{
1000
RET
1002
{
1002
{
1000
GD1
1000
8.56645
1002
}
1002
{
1000
LOTI
1000
7.500000000000000E+00
1002
}
1002
{
1000
STDRT
1000
ISO 228 - G 1/8
1002
}
1002
{
1000
DESCR
1000
Rohrgewinde
1002
}
1002
}
1002
}
1002
{
1000
SYSTEM
1040
1.0
1002
}
1002
{
1000
INFEL
1002
{
1002
}
1002
}
1001
GENIUS_GENOENT_13
1002
{
1000
MYREF
1005
9BB
1002
}
1002
{
1000
GRP
1005
0
1002
}
1001
GENIUS_GENOLIS_13
1002
{
1000
ENT
1005
9B6
1002
}
  0
INSERT
  5
9D6
330
2
100
AcDbEntity
  8
MSD_2-0
100
AcDbBlockReference
  2
*U4
 10
355.049152
 20
56.42167304752377
 30
0.0
 50
90.0
1001
GENIUS_GEFPARTINS_13
1002
{
1011
355.049152
1021
56.42167304752377
1031
0.0
1013
0.0000000000000001
1023
1.0
1033
0.0
1002
}
1001
VCC
1002
{
1000
-ID3
1000
-IE3
1000
-IK3
1000
-V$PV_GENSYSTEM"GEF\VAL\IS\0405\IS1627_V.DXF"
1002
}
1001
GEVIT
1002
{
1000
-BEHI2.00000001
1000
-BVCCT0
1000
-T2
1000
-GRP0MSD_2-0
1000
-BAML2
1000
-BASK1
1000
-NT0
1000
-DOC
1005
9C4
1000
-MYREF
1005
9D6
1002
}
1001
GEVPT
1002
{
1000
-V$PV_GENSYSTEM"GEF\VAL\IS\0405\IS1627_V.DXF"
1000
-FIXPLOTI=7.500000000000000E+00
1000
-GPGEVBHOP=2
1000
-GPGEF_PROCALC=1
1000
-GPGEF_FLIPY=1
1000
-GPGEF_FLIPX=1
1000
-GPGEF_SNK_ADD=0
1000
-GPGEVPROMPTX=Länge:
1000
-GPGEF_OANG=70
1000
-GPGEF_STANG=210
1000
-GPGEF_DRAG=1
1000
-GPGEF_CDIST=3
1000
-GPVCC_TABLE=C:\GENIUS\gef\val\is\0405\is1627.val
1000
-GPNM1=1/8
1000
-GPPRE=G
1002
}
1001
GEVID886498247
1002
{
1002
}
1001
GENIUS_GENOREF_13
1005
9D7
  0
POINT
  5
9D7
330
2
100
AcDbEntity
  8
0
 60
     1
100
AcDbPoint
 10
0.0
 20
0.0
 30
0.0
1001
GENIUS_GENODEF_13
1002
{
1000
HIER
1070
   200
1002
}
1002
{
1000
MANEDIT
1070
     0
1002
}
1002
{
1000
NOSEL
1070
     0
1002
}
1002
{
1000
BEHIND
1070
     0
1002
}
1002
{
1000
REACTOR
1002
}
1001
GENIUS_GENOBJ-F-PART_13
1002
{
1000
OWNER
1000
GEF
1002
}
1001
GENIUS_GEFSTDP_13
1002
{
1000
SUG
1000
G
1000
1/8
1002
}
1002
{
1000
DSC
1000
DSC
1002
{
1000
~DESCR
1000
 
1000
~STDRT
1000
(gefmsg "gefcall" 409)
1000
~LOTI
1002
}
1002
}
1002
{
1000
KEY
1000
THPF
1002
}
1002
{
1000
INS
1002
{
1040
355.049152
1040
56.42167304752377
1040
0.0
1002
}
1002
}
1002
{
1000
ANG
1040
1.570796326794896
1002
}
1002
{
1000
VCC
1002
{
1000
-LPLOTI=7.500000000000000E+00
1000
$PRE=G
1000
$NM1=1/8
1000
-GRPNAME0MSD_2-0
1000
-RBDESCR
1000
-RBSTDRT
1000
-RBLOTI
1000
-RBGD1
1000
-V$PV_GENSYSTEM"gef\val\is\0405\is1627_v.dxf"
1000
$VCC_TABLE=$PV_GENSYSTEM"gef\val\is\0405\is1627.val"
1000
$GEF_CDIST=3.000000000000000E+00
1000
$GEF_DRAG=1
1000
$GEF_STANG=2.100000000000000E+02
1000
$GEF_OANG=7.000000000000000E+01
1000
$GEVPROMPTX= Länge: 
1000
$GEF_SNK_ADD=0.000000000000000E+00
1000
$GEF_FLIPX=1
1000
$GEF_FLIPY=1
1000
-GRPNAME1?
1000
-BAML2
1000
$GEF_PROCALC=1
1000
$GEVBHOP=2
1002
}
1002
}
1002
{
1000
LST
1002
{
1002
{
1000
GROUP
1000
0405
1002
}
1002
{
1000
VIEW
1000
V
1002
}
1002
{
1000
SFILE
1000
$PV_GENSYSTEM"gef\val\is\0405\is1627_v.dxf"
1002
}
1002
{
1000
ST1
1000
$PV_GENSYSTEM"gef\val\is\0405\is1627.val"
1002
}
1002
{
1000
GENASSO
1000
 
1002
}
1002
}
1002
}
1002
{
1000
RET
1002
{
1002
{
1000
GD1
1000
8.56645
1002
}
1002
{
1000
LOTI
1000
7.500000000000000E+00
1002
}
1002
{
1000
STDRT
1000
ISO 228 - G 1/8
1002
}
1002
{
1000
DESCR
1000
Rohrgewinde
1002
}
1002
}
1002
}
1002
{
1000
SYSTEM
1040
1.0
1002
}
1002
{
1000
INFEL
1002
{
1002
}
1002
}
1001
GENIUS_GENOENT_13
1002
{
1000
MYREF
1005
9D7
1002
}
1002
{
1000
GRP
1005
0
1002
}
1001
GENIUS_GENOLIS_13
1002
{
1000
ENT
1005
9D6
1002
}
  0
INSERT
  5
9EF
330
2
100
AcDbEntity
  8
MSD_2-0
100
AcDbBlockReference
  2
*U6
 10
245.049152
 20
214.0691579999984
 30
0.0
1001
GENIUS_GEFPARTINS_13
1002
{
1011
245.049152
1021
214.0691579999984
1031
0.0
1013
1.0
1023
0.0
1033
0.0
1002
}
1001
VCC
1002
{
1000
-ID4
1000
-IE4
1000
-IK4
1000
-V$PV_GENSYSTEM"GEF\VAL\IS\0405\IS1627_D.DXF"
1002
}
1001
GEVIT
1002
{
1000
-BEHI3.00000001
1000
-BVCCT0
1000
-GRP0?
1000
-BAML2
1000
-BASK1
1000
-NT0
1000
-DOC
1005
9E1
1000
-MYREF
1005
9EF
1002
}
1001
GEVPT
1002
{
1000
-V$PV_GENSYSTEM"GEF\VAL\IS\0405\IS1627_D.DXF"
1000
-GPGEF_PROCALC=1
1000
-GPGEF_FLIPY=1
1000
-GPGEF_FLIPX=1
1000
-GPGEF_SNK_ADD=0
1000
-GPGEVPROMPTX=Länge:
1000
-GPGEF_OANG=70
1000
-GPGEF_STANG=210
1000
-GPGEF_DRAG=1
1000
-GPGEF_CDIST=3
1000
-GPVCC_TABLE=C:\GENIUS\gef\val\is\0405\is1627.val
1000
-GPNM1=1/8
1000
-GPPRE=G
1002
}
1001
GEVID886498248
1002
{
1002
}
1001
GENIUS_GENOREF_13
1005
9F2
1005
9F5
  0
POINT
  5
9F2
330
2
100
AcDbEntity
  8
0
 60
     1
100
AcDbPoint
 10
0.0
 20
0.0
 30
0.0
1001
GENIUS_GENBH_13
1002
{
1000
BGO
1005
9F4
1002
}
1002
{
1000
FGLEVEL
1040
3.000000009999999
1002
}
1002
{
1000
FLAGS
1070
    36
1002
}
1002
{
1000
OIUMAP
1000
OIU
1002
}
1002
{
1000
MODIFY
1070
     0
1002
}
1001
GENIUS_GENODEF_13
1002
{
1000
HIER
1070
     1
1002
}
1002
{
1000
MANEDIT
1070
     0
1002
}
1002
{
1000
NOSEL
1070
     1
1002
}
1002
{
1000
BEHIND
1070
     0
1002
}
1002
{
1000
REACTOR
1002
}
1001
GENIUS_GENOBJ-NBEHI-BHF_13
1002
{
1000
OWNER
1000
GENBEHI
1002
}
1001
GENIUS_GENOENT_13
1002
{
1000
MYREF
1005
9F2
1002
}
1002
{
1000
GRP
1005
0
1002
}
1001
GENIUS_GENOLIS_13
1002
{
1000
ENT
1005
9EF
1002
}
  0
POINT
  5
9F4
330
2
100
AcDbEntity
  8
0
 60
     1
100
AcDbPoint
 10
0.0
 20
0.0
 30
0.0
1001
GENIUS_GENBH_13
1002
{
1000
FGO
1005
9F2
1002
}
1001
GENIUS_GENODEF_13
1002
{
1000
HIER
1070
     1
1002
}
1002
{
1000
MANEDIT
1070
     0
1002
}
1002
{
1000
NOSEL
1070
     1
1002
}
1002
{
1000
BEHIND
1070
     0
1002
}
1002
{
1000
REACTOR
1002
}
1001
GENIUS_GENOBJ-NBEHI-BHB_13
1002
{
1000
OWNER
1000
GENBEHI
1002
}
1001
GENIUS_GENOENT_13
1002
{
1000
MYREF
1005
9F4
1002
}
1002
{
1000
GRP
1005
0
1002
}
1001
GENIUS_GENOLIS_13
1002
{
1000
ENT
1005
977
1005
9D9
1002
}
  0
POINT
  5
9F5
330
2
100
AcDbEntity
  8
0
 60
     1
100
AcDbPoint
 10
0.0
 20
0.0
 30
0.0
1001
GENIUS_GENODEF_13
1002
{
1000
HIER
1070
   200
1002
}
1002
{
1000
MANEDIT
1070
     0
1002
}
1002
{
1000
NOSEL
1070
     0
1002
}
1002
{
1000
BEHIND
1070
     0
1002
}
1002
{
1000
REACTOR
1002
}
1001
GENIUS_GENOBJ-F-PART_13
1002
{
1000
OWNER
1000
GEF
1002
}
1001
GENIUS_GEFSTDP_13
1002
{
1000
DSC
1000
DSC
1002
{
1000
~DESCR
1000
 
1000
~STDRT
1002
}
1002
}
1002
{
1000
SUG
1000
G
1000
1/8
1002
}
1002
{
1000
KEY
1000
THPT
1002
}
1002
{
1000
INS
1002
{
1040
245.049152
1040
214.0691579999984
1040
0.0
1002
}
1002
}
1002
{
1000
ANG
1040
0.0
1002
}
1002
{
1000
VCC
1002
{
1000
$PRE=G
1000
$NM1=1/8
1000
-RBDESCR
1000
-RBSTDRT
1000
-RBGD1
1000
-RBLOTI
1000
-V$PV_GENSYSTEM"gef\val\is\0405\is1627_d.dxf"
1000
$VCC_TABLE=$PV_GENSYSTEM"gef\val\is\0405\is1627.val"
1000
$GEF_CDIST=3.000000000000000E+00
1000
$GEF_DRAG=1
1000
$GEF_STANG=2.100000000000000E+02
1000
$GEF_OANG=7.000000000000000E+01
1000
$GEVPROMPTX= Länge: 
1000
$GEF_SNK_ADD=0.000000000000000E+00
1000
$GEF_FLIPX=1
1000
$GEF_FLIPY=1
1000
-GRPNAME0?
1000
-GRPNAME1?
1000
-BAML2
1000
$GEF_PROCALC=1
1002
}
1002
}
1002
{
1000
LST
1002
{
1002
{
1000
GROUP
1000
0405
1002
}
1002
{
1000
VIEW
1000
D
1002
}
1002
{
1000
SFILE
1000
$PV_GENSYSTEM"gef\val\is\0405\is1627_d.dxf"
1002
}
1002
{
1000
ST1
1000
$PV_GENSYSTEM"gef\val\is\0405\is1627.val"
1002
}
1002
{
1000
GENASSO
1000
 
1002
}
1002
}
1002
}
1002
{
1000
RET
1002
{
1002
{
1000
LOTI
1002
}
1002
{
1000
GD1
1000
8.56645
1002
}
1002
{
1000
STDRT
1000
ISO 228 - G 1/8
1002
}
1002
{
1000
DESCR
1000
Rohrgewinde
1002
}
1002
}
1002
}
1002
{
1000
SYSTEM
1040
1.0
1002
}
1002
{
1000
INFEL
1002
{
1002
}
1002
}
1001
GENIUS_GENOENT_13
1002
{
1000
MYREF
1005
9F5
1002
}
1002
{
1000
GRP
1005
0
1002
}
1001
GENIUS_GENOLIS_13
1002
{
1000
ENT
1005
9EF
1002
}
  0
INSERT
  5
A07
330
2
100
AcDbEntity
  8
MSD_2-0
100
AcDbBlockReference
  2
*U8
 10
245.049152
 20
172.5691579999984
 30
0.0
1001
GENIUS_GEFPARTINS_13
1002
{
1011
245.049152
1021
172.5691579999984
1031
0.0
1013
1.0
1023
0.0
1033
0.0
1002
}
1001
VCC
1002
{
1000
-ID5
1000
-IE5
1000
-IK5
1000
-V$PV_GENSYSTEM"GEF\VAL\IS\0405\IS1627_D.DXF"
1002
}
1001
GEVIT
1002
{
1000
-BEHI4.00000001
1000
-BVCCT0
1000
-GRP0?
1000
-BAML2
1000
-BASK1
1000
-NT0
1000
-DOC
1005
9F9
1000
-MYREF
1005
A07
1002
}
1001
GEVPT
1002
{
1000
-V$PV_GENSYSTEM"GEF\VAL\IS\0405\IS1627_D.DXF"
1000
-GPGEF_PROCALC=1
1000
-GPGEF_FLIPY=1
1000
-GPGEF_FLIPX=1
1000
-GPGEF_SNK_ADD=0
1000
-GPGEVPROMPTX=Länge:
1000
-GPGEF_OANG=70
1000
-GPGEF_STANG=210
1000
-GPGEF_DRAG=1
1000
-GPGEF_CDIST=3
1000
-GPVCC_TABLE=C:\GENIUS\gef\val\is\0405\is1627.val
1000
-GPNM1=1/8
1000
-GPPRE=G
1002
}
1001
GEVID886498249
1002
{
1002
}
1001
GENIUS_GENOREF_13
1005
A08
1005
A0A
  0
POINT
  5
A08
330
2
100
AcDbEntity
  8
0
 60
     1
100
AcDbPoint
 10
0.0
 20
0.0
 30
0.0
1001
GENIUS_GENBH_13
1002
{
1000
BGO
1005
A09
1002
}
1002
{
1000
FGLEVEL
1040
4.000000009999999
1002
}
1002
{
1000
FLAGS
1070
    36
1002
}
1002
{
1000
OIUMAP
1000
OIU
1002
}
1002
{
1000
MODIFY
1070
     0
1002
}
1001
GENIUS_GENODEF_13
1002
{
1000
HIER
1070
     1
1002
}
1002
{
1000
MANEDIT
1070
     0
1002
}
1002
{
1000
NOSEL
1070
     1
1002
}
1002
{
1000
BEHIND
1070
     0
1002
}
1002
{
1000
REACTOR
1002
}
1001
GENIUS_GENOBJ-NBEHI-BHF_13
1002
{
1000
OWNER
1000
GENBEHI
1002
}
1001
GENIUS_GENOENT_13
1002
{
1000
MYREF
1005
A08
1002
}
1002
{
1000
GRP
1005
0
1002
}
1001
GENIUS_GENOLIS_13
1002
{
1000
ENT
1005
A07
1002
}
  0
POINT
  5
A09
330
2
100
AcDbEntity
  8
0
 60
     1
100
AcDbPoint
 10
0.0
 20
0.0
 30
0.0
1001
GENIUS_GENBH_13
1002
{
1000
FGO
1005
A08
1002
}
1001
GENIUS_GENODEF_13
1002
{
1000
HIER
1070
     1
1002
}
1002
{
1000
MANEDIT
1070
     0
1002
}
1002
{
1000
NOSEL
1070
     1
1002
}
1002
{
1000
BEHIND
1070
     0
1002
}
1002
{
1000
REACTOR
1002
}
1001
GENIUS_GENOBJ-NBEHI-BHB_13
1002
{
1000
OWNER
1000
GENBEHI
1002
}
1001
GENIUS_GENOENT_13
1002
{
1000
MYREF
1005
A09
1002
}
1002
{
1000
GRP
1005
0
1002
}
1001
GENIUS_GENOLIS_13
1002
{
1000
ENT
1005
9DB
1005
977
1002
}
  0
POINT
  5
A0A
330
2
100
AcDbEntity
  8
0
 60
     1
100
AcDbPoint
 10
0.0
 20
0.0
 30
0.0
1001
GENIUS_GENODEF_13
1002
{
1000
HIER
1070
   200
1002
}
1002
{
1000
MANEDIT
1070
     0
1002
}
1002
{
1000
NOSEL
1070
     0
1002
}
1002
{
1000
BEHIND
1070
     0
1002
}
1002
{
1000
REACTOR
1002
}
1001
GENIUS_GENOBJ-F-PART_13
1002
{
1000
OWNER
1000
GEF
1002
}
1001
GENIUS_GEFSTDP_13
1002
{
1000
SUG
1000
G
1000
1/8
1002
}
1002
{
1000
DSC
1000
DSC
1002
{
1000
~DESCR
1000
 
1000
~STDRT
1002
}
1002
}
1002
{
1000
KEY
1000
THPT
1002
}
1002
{
1000
INS
1002
{
1040
245.049152
1040
172.5691579999984
1040
0.0
1002
}
1002
}
1002
{
1000
ANG
1040
0.0
1002
}
1002
{
1000
VCC
1002
{
1000
$PRE=G
1000
$NM1=1/8
1000
-RBDESCR
1000
-RBSTDRT
1000
-RBGD1
1000
-RBLOTI
1000
-V$PV_GENSYSTEM"gef\val\is\0405\is1627_d.dxf"
1000
$VCC_TABLE=$PV_GENSYSTEM"gef\val\is\0405\is1627.val"
1000
$GEF_CDIST=3.000000000000000E+00
1000
$GEF_DRAG=1
1000
$GEF_STANG=2.100000000000000E+02
1000
$GEF_OANG=7.000000000000000E+01
1000
$GEVPROMPTX= Länge: 
1000
$GEF_SNK_ADD=0.000000000000000E+00
1000
$GEF_FLIPX=1
1000
$GEF_FLIPY=1
1000
-GRPNAME0?
1000
-GRPNAME1?
1000
-BAML2
1000
$GEF_PROCALC=1
1002
}
1002
}
1002
{
1000
LST
1002
{
1002
{
1000
GROUP
1000
0405
1002
}
1002
{
1000
VIEW
1000
D
1002
}
1002
{
1000
SFILE
1000
$PV_GENSYSTEM"gef\val\is\0405\is1627_d.dxf"
1002
}
1002
{
1000
ST1
1000
$PV_GENSYSTEM"gef\val\is\0405\is1627.val"
1002
}
1002
{
1000
GENASSO
1000
 
1002
}
1002
}
1002
}
1002
{
1000
RET
1002
{
1002
{
1000
LOTI
1002
}
1002
{
1000
GD1
1000
8.56645
1002
}
1002
{
1000
STDRT
1000
ISO 228 - G 1/8
1002
}
1002
{
1000
DESCR
1000
Rohrgewinde
1002
}
1002
}
1002
}
1002
{
1000
SYSTEM
1040
1.0
1002
}
1002
{
1000
INFEL
1002
{
1002
}
1002
}
1001
GENIUS_GENOENT_13
1002
{
1000
MYREF
1005
A0A
1002
}
1002
{
1000
GRP
1005
0
1002
}
1001
GENIUS_GENOLIS_13
1002
{
1000
ENT
1005
A07
1002
}
  0
INSERT
  5
A1C
330
2
100
AcDbEntity
  8
MSD_2-0
100
AcDbBlockReference
  2
*U10
 10
355.049152
 20
172.5691579999911
 30
0.0
1001
GENIUS_GEFPARTINS_13
1002
{
1011
355.049152
1021
172.5691579999911
1031
0.0
1013
1.0
1023
0.0
1033
0.0
1002
}
1001
VCC
1002
{
1000
-ID6
1000
-IE6
1000
-IK6
1000
-V$PV_GENSYSTEM"GEF\VAL\IS\0405\IS1627_D.DXF"
1002
}
1001
GEVIT
1002
{
1000
-BEHI5.00000001
1000
-BVCCT0
1000
-GRP0?
1000
-BAML2
1000
-BASK1
1000
-NT0
1000
-DOC
1005
A0E
1000
-MYREF
1005
A1C
1002
}
1001
GEVPT
1002
{
1000
-V$PV_GENSYSTEM"GEF\VAL\IS\0405\IS1627_D.DXF"
1000
-GPGEF_PROCALC=1
1000
-GPGEF_FLIPY=1
1000
-GPGEF_FLIPX=1
1000
-GPGEF_SNK_ADD=0
1000
-GPGEVPROMPTX=Länge:
1000
-GPGEF_OANG=70
1000
-GPGEF_STANG=210
1000
-GPGEF_DRAG=1
1000
-GPGEF_CDIST=3
1000
-GPVCC_TABLE=C:\GENIUS\gef\val\is\0405\is1627.val
1000
-GPNM1=1/8
1000
-GPPRE=G
1002
}
1001
GEVID886498250
1002
{
1002
}
1001
GENIUS_GENOREF_13
1005
A1D
1005
A1F
  0
POINT
  5
A1D
330
2
100
AcDbEntity
  8
0
 60
     1
100
AcDbPoint
 10
0.0
 20
0.0
 30
0.0
1001
GENIUS_GENBH_13
1002
{
1000
BGO
1005
A1E
1002
}
1002
{
1000
FGLEVEL
1040
5.000000009999999
1002
}
1002
{
1000
FLAGS
1070
    36
1002
}
1002
{
1000
OIUMAP
1000
OIU
1002
}
1002
{
1000
MODIFY
1070
     0
1002
}
1001
GENIUS_GENODEF_13
1002
{
1000
HIER
1070
     1
1002
}
1002
{
1000
MANEDIT
1070
     0
1002
}
1002
{
1000
NOSEL
1070
     1
1002
}
1002
{
1000
BEHIND
1070
     0
1002
}
1002
{
1000
REACTOR
1002
}
1001
GENIUS_GENOBJ-NBEHI-BHF_13
1002
{
1000
OWNER
1000
GENBEHI
1002
}
1001
GENIUS_GENOENT_13
1002
{
1000
MYREF
1005
A1D
1002
}
1002
{
1000
GRP
1005
0
1002
}
1001
GENIUS_GENOLIS_13
1002
{
1000
ENT
1005
A1C
1002
}
  0
POINT
  5
A1E
330
2
100
AcDbEntity
  8
0
 60
     1
100
AcDbPoint
 10
0.0
 20
0.0
 30
0.0
1001
GENIUS_GENBH_13
1002
{
1000
FGO
1005
A1D
1002
}
1001
GENIUS_GENODEF_13
1002
{
1000
HIER
1070
     1
1002
}
1002
{
1000
MANEDIT
1070
     0
1002
}
1002
{
1000
NOSEL
1070
     1
1002
}
1002
{
1000
BEHIND
1070
     0
1002
}
1002
{
1000
REACTOR
1002
}
1001
GENIUS_GENOBJ-NBEHI-BHB_13
1002
{
1000
OWNER
1000
GENBEHI
1002
}
1001
GENIUS_GENOENT_13
1002
{
1000
MYREF
1005
A1E
1002
}
1002
{
1000
GRP
1005
0
1002
}
1001
GENIUS_GENOLIS_13
1002
{
1000
ENT
1005
979
1005
9DB
1002
}
  0
POINT
  5
A1F
330
2
100
AcDbEntity
  8
0
 60
     1
100
AcDbPoint
 10
0.0
 20
0.0
 30
0.0
1001
GENIUS_GENODEF_13
1002
{
1000
HIER
1070
   200
1002
}
1002
{
1000
MANEDIT
1070
     0
1002
}
1002
{
1000
NOSEL
1070
     0
1002
}
1002
{
1000
BEHIND
1070
     0
1002
}
1002
{
1000
REACTOR
1002
}
1001
GENIUS_GENOBJ-F-PART_13
1002
{
1000
OWNER
1000
GEF
1002
}
1001
GENIUS_GEFSTDP_13
1002
{
1000
SUG
1000
G
1000
1/8
1002
}
1002
{
1000
DSC
1000
DSC
1002
{
1000
~DESCR
1000
 
1000
~STDRT
1002
}
1002
}
1002
{
1000
KEY
1000
THPT
1002
}
1002
{
1000
INS
1002
{
1040
355.049152
1040
172.5691579999911
1040
0.0
1002
}
1002
}
1002
{
1000
ANG
1040
0.0
1002
}
1002
{
1000
VCC
1002
{
1000
$PRE=G
1000
$NM1=1/8
1000
-RBDESCR
1000
-RBSTDRT
1000
-RBGD1
1000
-RBLOTI
1000
-V$PV_GENSYSTEM"gef\val\is\0405\is1627_d.dxf"
1000
$VCC_TABLE=$PV_GENSYSTEM"gef\val\is\0405\is1627.val"
1000
$GEF_CDIST=3.000000000000000E+00
1000
$GEF_DRAG=1
1000
$GEF_STANG=2.100000000000000E+02
1000
$GEF_OANG=7.000000000000000E+01
1000
$GEVPROMPTX= Länge: 
1000
$GEF_SNK_ADD=0.000000000000000E+00
1000
$GEF_FLIPX=1
1000
$GEF_FLIPY=1
1000
-GRPNAME0?
1000
-GRPNAME1?
1000
-BAML2
1000
$GEF_PROCALC=1
1002
}
1002
}
1002
{
1000
LST
1002
{
1002
{
1000
GROUP
1000
0405
1002
}
1002
{
1000
VIEW
1000
D
1002
}
1002
{
1000
SFILE
1000
$PV_GENSYSTEM"gef\val\is\0405\is1627_d.dxf"
1002
}
1002
{
1000
ST1
1000
$PV_GENSYSTEM"gef\val\is\0405\is1627.val"
1002
}
1002
{
1000
GENASSO
1000
 
1002
}
1002
}
1002
}
1002
{
1000
RET
1002
{
1002
{
1000
LOTI
1002
}
1002
{
1000
GD1
1000
8.56645
1002
}
1002
{
1000
STDRT
1000
ISO 228 - G 1/8
1002
}
1002
{
1000
DESCR
1000
Rohrgewinde
1002
}
1002
}
1002
}
1002
{
1000
SYSTEM
1040
1.0
1002
}
1002
{
1000
INFEL
1002
{
1002
}
1002
}
1001
GENIUS_GENOENT_13
1002
{
1000
MYREF
1005
A1F
1002
}
1002
{
1000
GRP
1005
0
1002
}
1001
GENIUS_GENOLIS_13
1002
{
1000
ENT
1005
A1C
1002
}
  0
INSERT
  5
A31
330
2
100
AcDbEntity
  8
MSD_2-0
100
AcDbBlockReference
  2
*U12
 10
355.049152
 20
214.0691579999984
 30
0.0
1001
GENIUS_GEFPARTINS_13
1002
{
1011
355.049152
1021
214.0691579999984
1031
0.0
1013
1.0
1023
0.0
1033
0.0
1002
}
1001
VCC
1002
{
1000
-ID7
1000
-IE7
1000
-IK7
1000
-V$PV_GENSYSTEM"GEF\VAL\IS\0405\IS1627_D.DXF"
1002
}
1001
GEVIT
1002
{
1000
-BEHI6.00000001
1000
-BVCCT0
1000
-GRP0?
1000
-BAML2
1000
-BASK1
1000
-NT0
1000
-DOC
1005
A23
1000
-MYREF
1005
A31
1002
}
1001
GEVPT
1002
{
1000
-V$PV_GENSYSTEM"GEF\VAL\IS\0405\IS1627_D.DXF"
1000
-GPGEF_PROCALC=1
1000
-GPGEF_FLIPY=1
1000
-GPGEF_FLIPX=1
1000
-GPGEF_SNK_ADD=0
1000
-GPGEVPROMPTX=Länge:
1000
-GPGEF_OANG=70
1000
-GPGEF_STANG=210
1000
-GPGEF_DRAG=1
1000
-GPGEF_CDIST=3
1000
-GPVCC_TABLE=C:\GENIUS\gef\val\is\0405\is1627.val
1000
-GPNM1=1/8
1000
-GPPRE=G
1002
}
1001
GEVID886498251
1002
{
1002
}
1001
GENIUS_GENOREF_13
1005
A32
1005
A34
  0
POINT
  5
A32
330
2
100
AcDbEntity
  8
0
 60
     1
100
AcDbPoint
 10
0.0
 20
0.0
 30
0.0
1001
GENIUS_GENBH_13
1002
{
1000
BGO
1005
A33
1002
}
1002
{
1000
FGLEVEL
1040
6.000000009999999
1002
}
1002
{
1000
FLAGS
1070
    36
1002
}
1002
{
1000
OIUMAP
1000
OIU
1002
}
1002
{
1000
MODIFY
1070
     0
1002
}
1001
GENIUS_GENODEF_13
1002
{
1000
HIER
1070
     1
1002
}
1002
{
1000
MANEDIT
1070
     0
1002
}
1002
{
1000
NOSEL
1070
     1
1002
}
1002
{
1000
BEHIND
1070
     0
1002
}
1002
{
1000
REACTOR
1002
}
1001
GENIUS_GENOBJ-NBEHI-BHF_13
1002
{
1000
OWNER
1000
GENBEHI
1002
}
1001
GENIUS_GENOENT_13
1002
{
1000
MYREF
1005
A32
1002
}
1002
{
1000
GRP
1005
0
1002
}
1001
GENIUS_GENOLIS_13
1002
{
1000
ENT
1005
A31
1002
}
  0
POINT
  5
A33
330
2
100
AcDbEntity
  8
0
 60
     1
100
AcDbPoint
 10
0.0
 20
0.0
 30
0.0
1001
GENIUS_GENBH_13
1002
{
1000
FGO
1005
A32
1002
}
1001
GENIUS_GENODEF_13
1002
{
1000
HIER
1070
     1
1002
}
1002
{
1000
MANEDIT
1070
     0
1002
}
1002
{
1000
NOSEL
1070
     1
1002
}
1002
{
1000
BEHIND
1070
     0
1002
}
1002
{
1000
REACTOR
1002
}
1001
GENIUS_GENOBJ-NBEHI-BHB_13
1002
{
1000
OWNER
1000
GENBEHI
1002
}
1001
GENIUS_GENOENT_13
1002
{
1000
MYREF
1005
A33
1002
}
1002
{
1000
GRP
1005
0
1002
}
1001
GENIUS_GENOLIS_13
1002
{
1000
ENT
1005
9D9
1005
979
1002
}
  0
POINT
  5
A34
330
2
100
AcDbEntity
  8
0
 60
     1
100
AcDbPoint
 10
0.0
 20
0.0
 30
0.0
1001
GENIUS_GENODEF_13
1002
{
1000
HIER
1070
   200
1002
}
1002
{
1000
MANEDIT
1070
     0
1002
}
1002
{
1000
NOSEL
1070
     0
1002
}
1002
{
1000
BEHIND
1070
     0
1002
}
1002
{
1000
REACTOR
1002
}
1001
GENIUS_GENOBJ-F-PART_13
1002
{
1000
OWNER
1000
GEF
1002
}
1001
GENIUS_GEFSTDP_13
1002
{
1000
SUG
1000
G
1000
1/8
1002
}
1002
{
1000
DSC
1000
DSC
1002
{
1000
~DESCR
1000
 
1000
~STDRT
1002
}
1002
}
1002
{
1000
KEY
1000
THPT
1002
}
1002
{
1000
INS
1002
{
1040
355.049152
1040
214.0691579999984
1040
0.0
1002
}
1002
}
1002
{
1000
ANG
1040
0.0
1002
}
1002
{
1000
VCC
1002
{
1000
$PRE=G
1000
$NM1=1/8
1000
-RBDESCR
1000
-RBSTDRT
1000
-RBGD1
1000
-RBLOTI
1000
-V$PV_GENSYSTEM"gef\val\is\0405\is1627_d.dxf"
1000
$VCC_TABLE=$PV_GENSYSTEM"gef\val\is\0405\is1627.val"
1000
$GEF_CDIST=3.000000000000000E+00
1000
$GEF_DRAG=1
1000
$GEF_STANG=2.100000000000000E+02
1000
$GEF_OANG=7.000000000000000E+01
1000
$GEVPROMPTX= Länge: 
1000
$GEF_SNK_ADD=0.000000000000000E+00
1000
$GEF_FLIPX=1
1000
$GEF_FLIPY=1
1000
-GRPNAME0?
1000
-GRPNAME1?
1000
-BAML2
1000
$GEF_PROCALC=1
1002
}
1002
}
1002
{
1000
LST
1002
{
1002
{
1000
GROUP
1000
0405
1002
}
1002
{
1000
VIEW
1000
D
1002
}
1002
{
1000
SFILE
1000
$PV_GENSYSTEM"gef\val\is\0405\is1627_d.dxf"
1002
}
1002
{
1000
ST1
1000
$PV_GENSYSTEM"gef\val\is\0405\is1627.val"
1002
}
1002
{
1000
GENASSO
1000
 
1002
}
1002
}
1002
}
1002
{
1000
RET
1002
{
1002
{
1000
LOTI
1002
}
1002
{
1000
GD1
1000
8.56645
1002
}
1002
{
1000
STDRT
1000
ISO 228 - G 1/8
1002
}
1002
{
1000
DESCR
1000
Rohrgewinde
1002
}
1002
}
1002
}
1002
{
1000
SYSTEM
1040
1.0
1002
}
1002
{
1000
INFEL
1002
{
1002
}
1002
}
1001
GENIUS_GENOENT_13
1002
{
1000
MYREF
1005
A34
1002
}
1002
{
1000
GRP
1005
0
1002
}
1001
GENIUS_GENOLIS_13
1002
{
1000
ENT
1005
A31
1002
}
  0
LINE
  5
AE1
330
2
100
AcDbEntity
  8
MSD_2-7A
100
AcDbLine
 10
300.049152
 20
327.316069
 30
0.0
 11
319.049152
 21
327.316069
 31
0.0
1001
GENIUS_GENOREF_13
1005
AE5
  0
LINE
  5
AE2
330
2
100
AcDbEntity
  8
MSD_2-7A
100
AcDbLine
 10
300.049152
 20
327.316069
 30
0.0
 11
300.049152
 21
346.316069
 31
0.0
1001
GENIUS_GENOREF_13
1005
AE5
  0
LINE
  5
AE3
330
2
100
AcDbEntity
  8
MSD_2-7A
100
AcDbLine
 10
300.049152
 20
327.316069
 30
0.0
 11
281.049152
 21
327.316069
 31
0.0
1001
GENIUS_GENOREF_13
1005
AE5
  0
LINE
  5
AE4
330
2
100
AcDbEntity
  8
MSD_2-7A
100
AcDbLine
 10
300.049152
 20
327.316069
 30
0.0
 11
300.049152
 21
308.316069
 31
0.0
1001
GENIUS_GENOREF_13
1005
AE5
  0
POINT
  5
AE5
330
2
100
AcDbEntity
  8
0
 60
     1
100
AcDbPoint
 10
0.0
 20
0.0
 30
0.0
1001
GENIUS_GENODEF_13
1002
{
1000
HIER
1070
    10
1002
}
1002
{
1000
MANEDIT
1070
     0
1002
}
1002
{
1000
NOSEL
1070
     0
1002
}
1002
{
1000
BEHIND
1070
     0
1002
}
1002
{
1000
REACTOR
1002
}
1001
GENIUS_GENOBJ-N-CRS_13
1002
{
1000
OWNER
1000
GEN
1002
}
1001
GENIUS_GENOENT_13
1002
{
1000
MYREF
1005
AE5
1002
}
1002
{
1000
GRP
1005
0
1002
}
1001
GENIUS_GENOLIS_13
1002
{
1000
ENT
1005
AE4
1005
AE3
1005
AE2
1005
AE1
1002
}
  0
LINE
  5
AE8
330
2
100
AcDbEntity
  8
MSD_2-7A
100
AcDbLine
 10
336.049152
 20
363.316069
 30
0.0
 11
345.549152
 21
363.316069
 31
0.0
1001
GENIUS_GENOREF_13
1005
AEC
  0
LINE
  5
AE9
330
2
100
AcDbEntity
  8
MSD_2-7A
100
AcDbLine
 10
336.049152
 20
363.316069
 30
0.0
 11
336.049152
 21
372.816069
 31
0.0
1001
GENIUS_GENOREF_13
1005
AEC
  0
LINE
  5
AEA
330
2
100
AcDbEntity
  8
MSD_2-7A
100
AcDbLine
 10
336.049152
 20
363.316069
 30
0.0
 11
326.549152
 21
363.316069
 31
0.0
1001
GENIUS_GENOREF_13
1005
AEC
  0
LINE
  5
AEB
330
2
100
AcDbEntity
  8
MSD_2-7A
100
AcDbLine
 10
336.049152
 20
363.316069
 30
0.0
 11
336.049152
 21
353.816069
 31
0.0
1001
GENIUS_GENOREF_13
1005
AEC
  0
POINT
  5
AEC
330
2
100
AcDbEntity
  8
0
 60
     1
100
AcDbPoint
 10
0.0
 20
0.0
 30
0.0
1001
GENIUS_GENODEF_13
1002
{
1000
HIER
1070
    10
1002
}
1002
{
1000
MANEDIT
1070
     0
1002
}
1002
{
1000
NOSEL
1070
     0
1002
}
1002
{
1000
BEHIND
1070
     0
1002
}
1002
{
1000
REACTOR
1002
}
1001
GENIUS_GENOBJ-N-CRS_13
1002
{
1000
OWNER
1000
GEN
1002
}
1001
GENIUS_GENOENT_13
1002
{
1000
MYREF
1005
AEC
1002
}
1002
{
1000
GRP
1005
0
1002
}
1001
GENIUS_GENOLIS_13
1002
{
1000
ENT
1005
AEB
1005
AEA
1005
AE9
1005
AE8
1002
}
  0
LINE
  5
AEF
330
2
100
AcDbEntity
  8
MSD_2-7A
100
AcDbLine
 10
336.049152
 20
291.316069
 30
0.0
 11
345.549152
 21
291.316069
 31
0.0
1001
GENIUS_GENOREF_13
1005
AF3
  0
LINE
  5
AF0
330
2
100
AcDbEntity
  8
MSD_2-7A
100
AcDbLine
 10
336.049152
 20
291.316069
 30
0.0
 11
336.049152
 21
300.816069
 31
0.0
1001
GENIUS_GENOREF_13
1005
AF3
  0
LINE
  5
AF1
330
2
100
AcDbEntity
  8
MSD_2-7A
100
AcDbLine
 10
336.049152
 20
291.316069
 30
0.0
 11
326.549152
 21
291.316069
 31
0.0
1001
GENIUS_GENOREF_13
1005
AF3
  0
LINE
  5
AF2
330
2
100
AcDbEntity
  8
MSD_2-7A
100
AcDbLine
 10
336.049152
 20
291.316069
 30
0.0
 11
336.049152
 21
281.816069
 31
0.0
1001
GENIUS_GENOREF_13
1005
AF3
  0
POINT
  5
AF3
330
2
100
AcDbEntity
  8
0
 60
     1
100
AcDbPoint
 10
0.0
 20
0.0
 30
0.0
1001
GENIUS_GENODEF_13
1002
{
1000
HIER
1070
    10
1002
}
1002
{
1000
MANEDIT
1070
     0
1002
}
1002
{
1000
NOSEL
1070
     0
1002
}
1002
{
1000
BEHIND
1070
     0
1002
}
1002
{
1000
REACTOR
1002
}
1001
GENIUS_GENOBJ-N-CRS_13
1002
{
1000
OWNER
1000
GEN
1002
}
1001
GENIUS_GENOENT_13
1002
{
1000
MYREF
1005
AF3
1002
}
1002
{
1000
GRP
1005
0
1002
}
1001
GENIUS_GENOLIS_13
1002
{
1000
ENT
1005
AF2
1005
AF1
1005
AF0
1005
AEF
1002
}
  0
LINE
  5
AF6
330
2
100
AcDbEntity
  8
MSD_2-7A
100
AcDbLine
 10
264.049152
 20
291.316069
 30
0.0
 11
273.549152
 21
291.316069
 31
0.0
1001
GENIUS_GENOREF_13
1005
AFA
  0
LINE
  5
AF7
330
2
100
AcDbEntity
  8
MSD_2-7A
100
AcDbLine
 10
264.049152
 20
291.316069
 30
0.0
 11
264.049152
 21
300.816069
 31
0.0
1001
GENIUS_GENOREF_13
1005
AFA
  0
LINE
  5
AF8
330
2
100
AcDbEntity
  8
MSD_2-7A
100
AcDbLine
 10
264.049152
 20
291.316069
 30
0.0
 11
254.549152
 21
291.316069
 31
0.0
1001
GENIUS_GENOREF_13
1005
AFA
  0
LINE
  5
AF9
330
2
100
AcDbEntity
  8
MSD_2-7A
100
AcDbLine
 10
264.049152
 20
291.316069
 30
0.0
 11
264.049152
 21
281.816069
 31
0.0
1001
GENIUS_GENOREF_13
1005
AFA
  0
POINT
  5
AFA
330
2
100
AcDbEntity
  8
0
 60
     1
100
AcDbPoint
 10
0.0
 20
0.0
 30
0.0
1001
GENIUS_GENODEF_13
1002
{
1000
HIER
1070
    10
1002
}
1002
{
1000
MANEDIT
1070
     0
1002
}
1002
{
1000
NOSEL
1070
     0
1002
}
1002
{
1000
BEHIND
1070
     0
1002
}
1002
{
1000
REACTOR
1002
}
1001
GENIUS_GENOBJ-N-CRS_13
1002
{
1000
OWNER
1000
GEN
1002
}
1001
GENIUS_GENOENT_13
1002
{
1000
MYREF
1005
AFA
1002
}
1002
{
1000
GRP
1005
0
1002
}
1001
GENIUS_GENOLIS_13
1002
{
1000
ENT
1005
AF9
1005
AF8
1005
AF7
1005
AF6
1002
}
  0
LINE
  5
AFD
330
2
100
AcDbEntity
  8
MSD_2-7A
100
AcDbLine
 10
264.049152
 20
363.316069
 30
0.0
 11
273.549152
 21
363.316069
 31
0.0
1001
GENIUS_GENOREF_13
1005
B01
  0
LINE
  5
AFE
330
2
100
AcDbEntity
  8
MSD_2-7A
100
AcDbLine
 10
264.049152
 20
363.316069
 30
0.0
 11
264.049152
 21
372.816069
 31
0.0
1001
GENIUS_GENOREF_13
1005
B01
  0
LINE
  5
AFF
330
2
100
AcDbEntity
  8
MSD_2-7A
100
AcDbLine
 10
264.049152
 20
363.316069
 30
0.0
 11
254.549152
 21
363.316069
 31
0.0
1001
GENIUS_GENOREF_13
1005
B01
  0
LINE
  5
B00
330
2
100
AcDbEntity
  8
MSD_2-7A
100
AcDbLine
 10
264.049152
 20
363.316069
 30
0.0
 11
264.049152
 21
353.816069
 31
0.0
1001
GENIUS_GENOREF_13
1005
B01
  0
POINT
  5
B01
330
2
100
AcDbEntity
  8
0
 60
     1
100
AcDbPoint
 10
0.0
 20
0.0
 30
0.0
1001
GENIUS_GENODEF_13
1002
{
1000
HIER
1070
    10
1002
}
1002
{
1000
MANEDIT
1070
     0
1002
}
1002
{
1000
NOSEL
1070
     0
1002
}
1002
{
1000
BEHIND
1070
     0
1002
}
1002
{
1000
REACTOR
1002
}
1001
GENIUS_GENOBJ-N-CRS_13
1002
{
1000
OWNER
1000
GEN
1002
}
1001
GENIUS_GENOENT_13
1002
{
1000
MYREF
1005
B01
1002
}
1002
{
1000
GRP
1005
0
1002
}
1001
GENIUS_GENOLIS_13
1002
{
1000
ENT
1005
B00
1005
AFF
1005
AFE
1005
AFD
1002
}
  0
LINE
  5
B04
330
2
100
AcDbEntity
  8
MSD_2-7A
100
AcDbLine
 10
279.554969
 20
237.069158
 30
0.0
 11
291.054969
 21
237.069158
 31
0.0
1001
GENIUS_GENOREF_13
1005
B08
  0
LINE
  5
B05
330
2
100
AcDbEntity
  8
MSD_2-7A
100
AcDbLine
 10
279.554969
 20
237.069158
 30
0.0
 11
279.554969
 21
248.569158
 31
0.0
1001
GENIUS_GENOREF_13
1005
B08
  0
LINE
  5
B06
330
2
100
AcDbEntity
  8
MSD_2-7A
100
AcDbLine
 10
279.554969
 20
237.069158
 30
0.0
 11
268.054969
 21
237.069158
 31
0.0
1001
GENIUS_GENOREF_13
1005
B08
  0
LINE
  5
B07
330
2
100
AcDbEntity
  8
MSD_2-7A
100
AcDbLine
 10
279.554969
 20
237.069158
 30
0.0
 11
279.554969
 21
225.569158
 31
0.0
1001
GENIUS_GENOREF_13
1005
B08
  0
POINT
  5
B08
330
2
100
AcDbEntity
  8
0
 60
     1
100
AcDbPoint
 10
0.0
 20
0.0
 30
0.0
1001
GENIUS_GENODEF_13
1002
{
1000
HIER
1070
    10
1002
}
1002
{
1000
MANEDIT
1070
     0
1002
}
1002
{
1000
NOSEL
1070
     0
1002
}
1002
{
1000
BEHIND
1070
     0
1002
}
1002
{
1000
REACTOR
1002
}
1001
GENIUS_GENOBJ-N-CRS_13
1002
{
1000
OWNER
1000
GEN
1002
}
1001
GENIUS_GENOENT_13
1002
{
1000
MYREF
1005
B08
1002
}
1002
{
1000
GRP
1005
0
1002
}
1001
GENIUS_GENOLIS_13
1002
{
1000
ENT
1005
B07
1005
B06
1005
B05
1005
B04
1002
}
  0
LINE
  5
B0B
330
2
100
AcDbEntity
  8
MSD_2-7A
100
AcDbLine
 10
320.543335
 20
237.069158
 30
0.0
 11
332.043335
 21
237.069158
 31
0.0
1001
GENIUS_GENOREF_13
1005
B0F
  0
LINE
  5
B0C
330
2
100
AcDbEntity
  8
MSD_2-7A
100
AcDbLine
 10
320.543335
 20
237.069158
 30
0.0
 11
320.543335
 21
248.569158
 31
0.0
1001
GENIUS_GENOREF_13
1005
B0F
  0
LINE
  5
B0D
330
2
100
AcDbEntity
  8
MSD_2-7A
100
AcDbLine
 10
320.543335
 20
237.069158
 30
0.0
 11
309.043335
 21
237.069158
 31
0.0
1001
GENIUS_GENOREF_13
1005
B0F
  0
LINE
  5
B0E
330
2
100
AcDbEntity
  8
MSD_2-7A
100
AcDbLine
 10
320.543335
 20
237.069158
 30
0.0
 11
320.543335
 21
225.569158
 31
0.0
1001
GENIUS_GENOREF_13
1005
B0F
  0
POINT
  5
B0F
330
2
100
AcDbEntity
  8
0
 60
     1
100
AcDbPoint
 10
0.0
 20
0.0
 30
0.0
1001
GENIUS_GENODEF_13
1002
{
1000
HIER
1070
    10
1002
}
1002
{
1000
MANEDIT
1070
     0
1002
}
1002
{
1000
NOSEL
1070
     0
1002
}
1002
{
1000
BEHIND
1070
     0
1002
}
1002
{
1000
REACTOR
1002
}
1001
GENIUS_GENOBJ-N-CRS_13
1002
{
1000
OWNER
1000
GEN
1002
}
1001
GENIUS_GENOENT_13
1002
{
1000
MYREF
1005
B0F
1002
}
1002
{
1000
GRP
1005
0
1002
}
1001
GENIUS_GENOLIS_13
1002
{
1000
ENT
1005
B0E
1005
B0D
1005
B0C
1005
B0B
1002
}
  0
TEXT
  5
B11
330
2
100
AcDbEntity
  8
MSD_2-6
100
AcDbText
 10
279.872387918738
 20
290.0590165033269
 30
0.0
 40
3.5
  1
MSD 2
100
AcDbText
  0
TEXT
  5
B14
330
2
100
AcDbEntity
  8
MSD_2-6
100
AcDbText
 10
263.3814583674989
 20
212.4394019532047
 30
0.0
 40
3.5
  1
MSD 2
100
AcDbText
  0
TEXT
  5
B15
330
2
100
AcDbEntity
  8
MSD_2-6
100
AcDbText
 10
437.6733583895334
 20
220.5020548791304
 30
0.0
 40
3.5
  1
MSD 2
100
AcDbText
  0
TEXT
  5
B16
330
2
100
AcDbEntity
  8
MSD_2-6
100
AcDbText
 10
64.12524267457911
 20
220.7725853102282
 30
0.0
 40
3.5
  1
MSD 2
100
AcDbText
  0
TEXT
  5
B17
330
2
100
AcDbEntity
  8
MSD_2-6
100
AcDbText
 10
242.4960148886569
 20
138.64930527434
 30
0.0
 40
3.5
  1
MSD 2
100
AcDbText
  0
INSERT
  5
B52
330
2
100
AcDbEntity
  8
MSD_2-0N
100
AcDbBlockReference
 66
     1
  2
GENINF13
 10
302.2745786190021
 20
291.2867217206628
 30
0.0
1001
GENIUS_GENSCSYM_13
1002
{
1000
INSPT
1011
302.2745786190021
1021
291.2867217206628
1031
0.0
1002
}
1002
{
1000
SCALE
1042
1.0
1002
}
1002
{
1000
USEOLDBPT
1070
     0
1002
}
1001
GENIUS_GENOBJ-N-INFOPT_13
1002
{
1000
OWNER
1000
GEN
1002
}
1001
GENIUS_GENSYMENT_13
1002
{
1000
ENT
1005
B52
1002
}
1001
GENIUS_GENODEF_13
1002
{
1000
HIER
1070
     0
1002
}
1002
{
1000
MANEDIT
1070
     0
1002
}
1002
{
1000
NOSEL
1070
     0
1002
}
1002
{
1000
BEHIND
1070
     0
1002
}
1002
{
1000
REACTOR
1002
}
1001
GENIUS_GENOBJ-N-RSSYM_13
1002
{
1000
OWNER
1000
GEN
1002
}
1001
GENIUS_GENINF13_13
1070
     1
  0
ATTRIB
  5
B53
330
B52
100
AcDbEntity
  8
INFO
100
AcDbText
 10
302.2745786190021
 20
291.2867217206628
 30
0.0
 40
1.0
  1
1
100
AcDbAttribute
  2
2GENINF
 70
     1
  0
ATTRIB
  5
B54
330
B52
100
AcDbEntity
  8
INFO
100
AcDbText
 10
302.2745786190021
 20
289.7867217206627
 30
0.0
 40
1.0
  1

100
AcDbAttribute
  2
3GENINF
 70
     1
  0
ATTRIB
  5
B55
330
B52
100
AcDbEntity
  8
INFO
100
AcDbText
 10
302.2745786190021
 20
288.2867217206627
 30
0.0
 40
1.0
  1

100
AcDbAttribute
  2
4GENINF
 70
     1
  0
ATTRIB
  5
B56
330
B52
100
AcDbEntity
  8
INFO
100
AcDbText
 10
302.2745786190021
 20
286.7867217206627
 30
0.0
 40
1.0
  1
MSD 2
100
AcDbAttribute
  2
5GENINF
 70
     1
  0
ATTRIB
  5
B57
330
B52
100
AcDbEntity
  8
INFO
100
AcDbText
 10
302.2745786190021
 20
285.2867217206627
 30
0.0
 40
1.0
  1

100
AcDbAttribute
  2
6GENINF
 70
     1
  0
ATTRIB
  5
B58
330
B52
100
AcDbEntity
  8
INFO
100
AcDbText
 10
302.2745786190021
 20
283.7867217206627
 30
0.0
 40
1.0
  1
Fa. Mayer
100
AcDbAttribute
  2
7GENINF
 70
     1
  0
ATTRIB
  5
B59
330
B52
100
AcDbEntity
  8
INFO
100
AcDbText
 10
302.2745786190021
 20
282.2867217206627
 30
0.0
 40
1.0
  1

100
AcDbAttribute
  2
8GENINF
 70
     1
  0
ATTRIB
  5
B5A
330
B52
100
AcDbEntity
  8
INFO
100
AcDbText
 10
302.2745786190021
 20
280.7867217206627
 30
0.0
 40
1.0
  1

100
AcDbAttribute
  2
9GENINF
 70
     1
  0
ATTRIB
  5
B5B
330
B52
100
AcDbEntity
  8
INFO
100
AcDbText
 10
302.2745786190021
 20
279.2867217206628
 30
0.0
 40
1.0
  1

100
AcDbAttribute
  2
10GENINF
 70
     1
  0
ATTRIB
  5
B5C
330
B52
100
AcDbEntity
  8
INFO
100
AcDbText
 10
302.2745786190021
 20
277.7867217206627
 30
0.0
 40
1.0
  1

100
AcDbAttribute
  2
11GENINF
 70
     1
  0
ATTRIB
  5
B5D
330
B52
100
AcDbEntity
  8
INFO
100
AcDbText
 10
302.2745786190021
 20
276.2867217206627
 30
0.0
 40
1.0
  1

100
AcDbAttribute
  2
12GENINF
 70
     1
  0
ATTRIB
  5
B5E
330
B52
100
AcDbEntity
  8
INFO
100
AcDbText
 10
302.2745786190021
 20
274.7867217206628
 30
0.0
 40
1.0
  1

100
AcDbAttribute
  2
13GENINF
 70
     1
  0
ATTRIB
  5
B5F
330
B52
100
AcDbEntity
  8
INFO
100
AcDbText
 10
302.2745786190021
 20
273.2867217206627
 30
0.0
 40
1.0
  1

100
AcDbAttribute
  2
14GENINF
 70
     1
  0
ATTRIB
  5
B60
330
B52
100
AcDbEntity
  8
INFO
100
AcDbText
 10
302.2745786190021
 20
271.7867217206627
 30
0.0
 40
1.0
  1

100
AcDbAttribute
  2
15GENINF
 70
     1
  0
ATTRIB
  5
B61
330
B52
100
AcDbEntity
  8
INFO
100
AcDbText
 10
302.2745786190021
 20
270.2867217206627
 30
0.0
 40
1.0
  1

100
AcDbAttribute
  2
16GENINF
 70
     1
  0
ATTRIB
  5
B62
330
B52
100
AcDbEntity
  8
INFO
100
AcDbText
 10
302.2745786190021
 20
268.7867217206628
 30
0.0
 40
1.0
  1

100
AcDbAttribute
  2
17GENINF
 70
     1
  0
ATTRIB
  5
B63
330
B52
100
AcDbEntity
  8
INFO
100
AcDbText
 10
302.2745786190021
 20
267.2867217206627
 30
0.0
 40
1.0
  1

100
AcDbAttribute
  2
18GENINF
 70
     1
  0
ATTRIB
  5
B64
330
B52
100
AcDbEntity
  8
INFO
100
AcDbText
 10
302.2745786190021
 20
265.7867217206627
 30
0.0
 40
1.0
  1

100
AcDbAttribute
  2
19GENINF
 70
     1
  0
ATTRIB
  5
B65
330
B52
100
AcDbEntity
  8
INFO
100
AcDbText
 10
302.2745786190021
 20
264.2867217206628
 30
0.0
 40
1.0
  1

100
AcDbAttribute
  2
20GENINF
 70
     1
  0
ATTRIB
  5
B66
330
B52
100
AcDbEntity
  8
INFO
100
AcDbText
 10
302.2745786190021
 20
262.7867217206627
 30
0.0
 40
1.0
  1

100
AcDbAttribute
  2
21GENINF
 70
     1
  0
ATTRIB
  5
B67
330
B52
100
AcDbEntity
  8
INFO
100
AcDbText
 10
302.2745786190021
 20
261.2867217206627
 30
0.0
 40
1.0
  1

100
AcDbAttribute
  2
22GENINF
 70
     1
  0
ATTRIB
  5
B68
330
B52
100
AcDbEntity
  8
INFO
100
AcDbText
 10
302.2745786190021
 20
259.7867217206627
 30
0.0
 40
1.0
  1

100
AcDbAttribute
  2
23GENINF
 70
     1
  0
ATTRIB
  5
B69
330
B52
100
AcDbEntity
  8
INFO
100
AcDbText
 10
302.2745786190021
 20
258.2867217206628
 30
0.0
 40
1.0
  1

100
AcDbAttribute
  2
24GENINF
 70
     1
  0
ATTRIB
  5
B6A
330
B52
100
AcDbEntity
  8
INFO
100
AcDbText
 10
302.2745786190021
 20
256.7867217206627
 30
0.0
 40
1.0
  1

100
AcDbAttribute
  2
0GENINF
 70
     1
  0
SEQEND
  5
B6B
330
B52
100
AcDbEntity
  8
MSD_2-0N
  0
ENDSEC
  0
SECTION
  2
OBJECTS
  0
DICTIONARY
  5
1A
330
0
100
AcDbDictionary
281
     1
  3
ACAD_COLOR
350
B9F
  3
ACAD_GROUP
350
18
  3
ACAD_LAYOUT
350
BC7
  3
ACAD_MATERIAL
350
B75
  3
ACAD_MLEADERSTYLE
350
BC4
  3
ACAD_MLINESTYLE
350
19
  3
ACAD_PLOTSETTINGS
350
BC8
  3
ACAD_PLOTSTYLENAME
350
B73
  3
ACAD_SCALELIST
350
BA2
  3
ACAD_TABLESTYLE
350
BA0
  3
ACAD_VISUALSTYLE
350
B8E
  3
ACDB_RECOMPOSE_DATA
350
C80
  3
AcDbVariableDictionary
350
C77
  3
AcmDictionary
350
C29
  3
AcmSystemVariableManager
350
C8E
  3
AMG
350
BCE
  3
AMGSNAPSETTINGS
350
C70
  3
DWGPROPS
350
C81
  0
DICTIONARY
  5
B9F
102
{ACAD_REACTORS
330
1A
102
}
330
1A
100
AcDbDictionary
281
     1
  0
DICTIONARY
  5
18
102
{ACAD_REACTORS
330
1A
102
}
330
1A
100
AcDbDictionary
281
     1
  0
DICTIONARY
  5
BC7
102
{ACAD_REACTORS
330
1A
102
}
330
1A
100
AcDbDictionary
281
     1
  3
Layout1
350
BCA
  3
Model
350
BC9
  0
DICTIONARY
  5
B75
102
{ACAD_REACTORS
330
1A
102
}
330
1A
100
AcDbDictionary
281
     1
  3
ByBlock
350
B7E
  3
ByLayer
350
B76
  3
Global
350
B86
  0
DICTIONARY
  5
BC4
102
{ACAD_REACTORS
330
1A
102
}
330
1A
100
AcDbDictionary
281
     1
  3
Standard
350
BC5
  0
DICTIONARY
  5
19
102
{ACAD_REACTORS
330
1A
102
}
330
1A
100
AcDbDictionary
281
     1
  3
STANDARD
350
1C
  0
DICTIONARY
  5
BC8
102
{ACAD_REACTORS
330
1A
102
}
330
1A
100
AcDbDictionary
281
     1
  0
ACDBDICTIONARYWDFLT
  5
B73
102
{ACAD_REACTORS
330
1A
102
}
330
1A
100
AcDbDictionary
281
     1
  3
Normal
350
B74
100
AcDbDictionaryWithDefault
340
B74
  0
DICTIONARY
  5
BA2
102
{ACAD_REACTORS
330
1A
102
}
330
1A
100
AcDbDictionary
281
     1
  3
A0
350
BA3
  3
A1
350
BA4
  3
A2
350
BA5
  3
A3
350
BA6
  3
A4
350
BA7
  3
A5
350
BA8
  3
A6
350
BA9
  3
A7
350
BAA
  3
A8
350
BAB
  3
A9
350
BAC
  3
B0
350
BAD
  3
B1
350
BAE
  3
B2
350
BAF
  3
B3
350
BB0
  3
B4
350
BB1
  3
B5
350
BB2
  3
B6
350
BB3
  3
B7
350
BB4
  3
B8
350
BB5
  3
B9
350
BB6
  3
C0
350
BB7
  3
C1
350
BB8
  3
C2
350
BB9
  3
C3
350
BBA
  3
C4
350
BBB
  3
C5
350
BBC
  3
C6
350
BBD
  3
C7
350
BBE
  3
C8
350
BBF
  3
C9
350
BC0
  3
D0
350
BC1
  3
D1
350
BC2
  3
D2
350
BC3
  0
DICTIONARY
  5
BA0
102
{ACAD_REACTORS
330
1A
102
}
330
1A
100
AcDbDictionary
281
     1
  3
Standard
350
BA1
  0
DICTIONARY
  5
B8E
102
{ACAD_REACTORS
330
1A
102
}
330
1A
100
AcDbDictionary
281
     1
  3
2dWireframe
350
B94
  3
3D Hidden
350
B96
  3
3dWireframe
350
B95
  3
Basic
350
B93
  3
Brighten
350
B9A
  3
ColorChange
350
B9E
  3
Conceptual
350
B97
  3
Dim
350
B99
  3
Facepattern
350
B9D
  3
Flat
350
B8F
  3
FlatWithEdges
350
B90
  3
Gouraud
350
B91
  3
GouraudWithEdges
350
B92
  3
Linepattern
350
B9C
  3
Realistic
350
B98
  3
Thicken
350
B9B
  0
XRECORD
  5
C80
102
{ACAD_REACTORS
330
1A
102
}
330
1A
100
AcDbXrecord
280
     1
 90
        1
330
BA1
  0
DICTIONARY
  5
C77
102
{ACAD_REACTORS
330
1A
102
}
330
1A
100
AcDbDictionary
281
     1
  3
CANNOSCALE
350
C7A
  3
CMLEADERSTYLE
350
C79
  3
CTABLESTYLE
350
C78
  3
DIMASSOC
350
C7D
  3
INDEXCTL
350
C7C
  3
SORTENTS
350
C7B
  0
DICTIONARY
  5
C29
102
{ACAD_REACTORS
330
1A
102
}
330
1A
100
AcDbDictionary
281
     1
  3
AcmStdDictionary
350
C34
  0
DICTIONARY
  5
BCE
102
{ACAD_REACTORS
330
1A
102
}
330
1A
100
AcDbDictionary
281
     1
  0
DICTIONARY
  5
C70
102
{ACAD_REACTORS
330
1A
102
}
330
1A
100
AcDbDictionary
281
     1
  0
XRECORD
  5
C81
102
{ACAD_REACTORS
330
1A
102
}
330
1A
100
AcDbXrecord
280
     1
  1
DWGPROPS COOKIE
  2

  3

  4

  6

  7

  8
bauer_sven
  9

300
=
301
=
302
=
303
=
304
=
305
=
306
=
307
=
308
=
309
=
 40
0.0188802777777778
 41
2450848.367821945
 42
2456219.423142326
  1

 90
        0
  0
LAYOUT
  5
BCA
102
{ACAD_XDICTIONARY
360
C88
102
}
102
{ACAD_REACTORS
330
BC7
102
}
330
BC7
100
AcDbPlotSettings
  1

  2
iR 2570CN-010
  4

  6

 40
0.0
 41
0.0
 42
0.0
 43
0.0
 44
0.0
 45
0.0
 46
0.0
 47
0.0
 48
0.0
 49
0.0
140
0.0
141
0.0
142
1.0
143
1.0
 70
   688
 72
     0
 73
     0
 74
     5
  7

 75
    16
147
1.0
148
0.0
149
0.0
100
AcDbLayout
  1
Layout1
 70
     1
 71
     1
 10
0.0
 20
0.0
 11
12.0
 21
9.0
 12
0.0
 22
0.0
 32
0.0
 14
1.000000000000000E+20
 24
1.000000000000000E+20
 34
1.000000000000000E+20
 15
-1.000000000000000E+20
 25
-1.000000000000000E+20
 35
-1.000000000000000E+20
146
0.0
 13
0.0
 23
0.0
 33
0.0
 16
1.0
 26
0.0
 36
0.0
 17
0.0
 27
1.0
 37
0.0
 76
     0
330
8
  0
LAYOUT
  5
BC9
102
{ACAD_XDICTIONARY
360
C86
102
}
102
{ACAD_REACTORS
330
BC7
102
}
330
BC7
100
AcDbPlotSettings
  1

  2
iR 2570CN-010
  4

  6

 40
0.0
 41
0.0
 42
0.0
 43
0.0
 44
0.0
 45
0.0
 46
0.0
 47
0.0
 48
0.0
 49
0.0
140
0.0
141
0.0
142
1.0
143
1.0
 70
  1712
 72
     0
 73
     0
 74
     0
  7

 75
     0
147
1.0
148
0.0
149
0.0
100
AcDbLayout
  1
Model
 70
     1
 71
     0
 10
0.0
 20
0.0
 11
12.0
 21
9.0
 12
0.0
 22
0.0
 32
0.0
 14
0.0
 24
0.0
 34
0.0
 15
0.0
 25
0.0
 35
0.0
146
0.0
 13
0.0
 23
0.0
 33
0.0
 16
1.0
 26
0.0
 36
0.0
 17
0.0
 27
1.0
 37
0.0
 76
     0
330
2
331
B71
  0
MATERIAL
  5
B7E
102
{ACAD_XDICTIONARY
360
B7F
102
}
102
{ACAD_REACTORS
330
B75
102
}
330
B75
100
AcDbMaterial
  1
ByBlock
 72
     0
 43
0.0208333333333333
 43
0.0
 43
0.0
 43
0.0
 43
0.0
 43
0.0208333333333333
 43
0.0
 43
0.0
 43
0.0
 43
0.0
 43
1.0
 43
0.0
 43
0.0
 43
0.0
 43
0.0
 43
1.0
 77
     0
 47
0.0208333333333333
 47
0.0
 47
0.0
 47
0.0
 47
0.0
 47
0.0208333333333333
 47
0.0
 47
0.0
 47
0.0
 47
0.0
 47
1.0
 47
0.0
 47
0.0
 47
0.0
 47
0.0
 47
1.0
171
     0
 49
0.0208333333333333
 49
0.0
 49
0.0
 49
0.0
 49
0.0
 49
0.0208333333333333
 49
0.0
 49
0.0
 49
0.0
 49
0.0
 49
1.0
 49
0.0
 49
0.0
 49
0.0
 49
0.0
 49
1.0
175
     0
142
0.0208333333333333
142
0.0
142
0.0
142
0.0
142
0.0
142
0.0208333333333333
142
0.0
142
0.0
142
0.0
142
0.0
142
1.0
142
0.0
142
0.0
142
0.0
142
0.0
142
1.0
179
     0
144
0.0208333333333333
144
0.0
144
0.0
144
0.0
144
0.0
144
0.0208333333333333
144
0.0
144
0.0
144
0.0
144
0.0
144
1.0
144
0.0
144
0.0
144
0.0
144
0.0
144
1.0
147
0.0208333333333333
147
0.0
147
0.0
147
0.0
147
0.0
147
0.0208333333333333
147
0.0
147
0.0
147
0.0
147
0.0
147
1.0
147
0.0
147
0.0
147
0.0
147
0.0
147
1.0
  0
MATERIAL
  5
B76
102
{ACAD_XDICTIONARY
360
B77
102
}
102
{ACAD_REACTORS
330
B75
102
}
330
B75
100
AcDbMaterial
  1
ByLayer
 72
     0
 43
0.0208333333333333
 43
0.0
 43
0.0
 43
0.0
 43
0.0
 43
0.0208333333333333
 43
0.0
 43
0.0
 43
0.0
 43
0.0
 43
1.0
 43
0.0
 43
0.0
 43
0.0
 43
0.0
 43
1.0
 77
     0
 47
0.0208333333333333
 47
0.0
 47
0.0
 47
0.0
 47
0.0
 47
0.0208333333333333
 47
0.0
 47
0.0
 47
0.0
 47
0.0
 47
1.0
 47
0.0
 47
0.0
 47
0.0
 47
0.0
 47
1.0
171
     0
 49
0.0208333333333333
 49
0.0
 49
0.0
 49
0.0
 49
0.0
 49
0.0208333333333333
 49
0.0
 49
0.0
 49
0.0
 49
0.0
 49
1.0
 49
0.0
 49
0.0
 49
0.0
 49
0.0
 49
1.0
175
     0
142
0.0208333333333333
142
0.0
142
0.0
142
0.0
142
0.0
142
0.0208333333333333
142
0.0
142
0.0
142
0.0
142
0.0
142
1.0
142
0.0
142
0.0
142
0.0
142
0.0
142
1.0
179
     0
144
0.0208333333333333
144
0.0
144
0.0
144
0.0
144
0.0
144
0.0208333333333333
144
0.0
144
0.0
144
0.0
144
0.0
144
1.0
144
0.0
144
0.0
144
0.0
144
0.0
144
1.0
147
0.0208333333333333
147
0.0
147
0.0
147
0.0
147
0.0
147
0.0208333333333333
147
0.0
147
0.0
147
0.0
147
0.0
147
1.0
147
0.0
147
0.0
147
0.0
147
0.0
147
1.0
  0
MATERIAL
  5
B86
102
{ACAD_XDICTIONARY
360
B87
102
}
102
{ACAD_REACTORS
330
B75
102
}
330
B75
100
AcDbMaterial
  1
Global
 72
     0
 43
0.0208333333333333
 43
0.0
 43
0.0
 43
0.0
 43
0.0
 43
0.0208333333333333
 43
0.0
 43
0.0
 43
0.0
 43
0.0
 43
1.0
 43
0.0
 43
0.0
 43
0.0
 43
0.0
 43
1.0
 77
     0
 47
0.0208333333333333
 47
0.0
 47
0.0
 47
0.0
 47
0.0
 47
0.0208333333333333
 47
0.0
 47
0.0
 47
0.0
 47
0.0
 47
1.0
 47
0.0
 47
0.0
 47
0.0
 47
0.0
 47
1.0
171
     0
 49
0.0208333333333333
 49
0.0
 49
0.0
 49
0.0
 49
0.0
 49
0.0208333333333333
 49
0.0
 49
0.0
 49
0.0
 49
0.0
 49
1.0
 49
0.0
 49
0.0
 49
0.0
 49
0.0
 49
1.0
175
     0
142
0.0208333333333333
142
0.0
142
0.0
142
0.0
142
0.0
142
0.0208333333333333
142
0.0
142
0.0
142
0.0
142
0.0
142
1.0
142
0.0
142
0.0
142
0.0
142
0.0
142
1.0
179
     0
144
0.0208333333333333
144
0.0
144
0.0
144
0.0
144
0.0
144
0.0208333333333333
144
0.0
144
0.0
144
0.0
144
0.0
144
1.0
144
0.0
144
0.0
144
0.0
144
0.0
144
1.0
147
0.0208333333333333
147
0.0
147
0.0
147
0.0
147
0.0
147
0.0208333333333333
147
0.0
147
0.0
147
0.0
147
0.0
147
1.0
147
0.0
147
0.0
147
0.0
147
0.0
147
1.0
  0
MLEADERSTYLE
  5
BC5
102
{ACAD_REACTORS
330
BC4
102
}
330
BC4
100
AcDbMLeaderStyle
170
     2
171
     1
172
     0
 90
        2
 40
0.0
 41
0.0
173
     1
 91
-1056964608
340
F
 92
       -2
290
     1
 42
0.09
291
     1
 43
0.36
  3
Standard
 44
0.18
300

342
D
174
     1
178
     6
175
     1
176
     0
 93
-1056964608
 45
0.18
292
     0
297
     0
 46
0.18
 94
-1056964608
 47
1.0
 49
1.0
140
1.0
293
     1
141
0.0
294
     1
177
     0
142
1.0
295
     0
296
     0
143
0.125
1001
ACAD_MLEADERVER
1070
     2
  0
MLINESTYLE
  5
1C
102
{ACAD_REACTORS
330
19
102
}
330
19
100
AcDbMlineStyle
  2
STANDARD
 70
     0
  3

 62
     0
 51
90.0
 52
90.0
 71
     2
 49
0.5
 62
   256
  6
BYLAYER
 49
-0.5
 62
   256
  6
BYLAYER
  0
ACDBPLACEHOLDER
  5
B74
102
{ACAD_REACTORS
330
B73
102
}
330
B73
  0
SCALE
  5
BA3
102
{ACAD_REACTORS
330
BA2
102
}
330
BA2
100
AcDbScale
 70
     0
300
1:1
140
1.0
141
1.0
290
     1
  0
SCALE
  5
BA4
102
{ACAD_REACTORS
330
BA2
102
}
330
BA2
100
AcDbScale
 70
     0
300
1:2
140
1.0
141
2.0
290
     0
  0
SCALE
  5
BA5
102
{ACAD_REACTORS
330
BA2
102
}
330
BA2
100
AcDbScale
 70
     0
300
1:4
140
1.0
141
4.0
290
     0
  0
SCALE
  5
BA6
102
{ACAD_REACTORS
330
BA2
102
}
330
BA2
100
AcDbScale
 70
     0
300
1:5
140
1.0
141
5.0
290
     0
  0
SCALE
  5
BA7
102
{ACAD_REACTORS
330
BA2
102
}
330
BA2
100
AcDbScale
 70
     0
300
1:8
140
1.0
141
8.0
290
     0
  0
SCALE
  5
BA8
102
{ACAD_REACTORS
330
BA2
102
}
330
BA2
100
AcDbScale
 70
     0
300
1:10
140
1.0
141
10.0
290
     0
  0
SCALE
  5
BA9
102
{ACAD_REACTORS
330
BA2
102
}
330
BA2
100
AcDbScale
 70
     0
300
1:16
140
1.0
141
16.0
290
     0
  0
SCALE
  5
BAA
102
{ACAD_REACTORS
330
BA2
102
}
330
BA2
100
AcDbScale
 70
     0
300
1:20
140
1.0
141
20.0
290
     0
  0
SCALE
  5
BAB
102
{ACAD_REACTORS
330
BA2
102
}
330
BA2
100
AcDbScale
 70
     0
300
1:30
140
1.0
141
30.0
290
     0
  0
SCALE
  5
BAC
102
{ACAD_REACTORS
330
BA2
102
}
330
BA2
100
AcDbScale
 70
     0
300
1:40
140
1.0
141
40.0
290
     0
  0
SCALE
  5
BAD
102
{ACAD_REACTORS
330
BA2
102
}
330
BA2
100
AcDbScale
 70
     0
300
1:50
140
1.0
141
50.0
290
     0
  0
SCALE
  5
BAE
102
{ACAD_REACTORS
330
BA2
102
}
330
BA2
100
AcDbScale
 70
     0
300
1:100
140
1.0
141
100.0
290
     0
  0
SCALE
  5
BAF
102
{ACAD_REACTORS
330
BA2
102
}
330
BA2
100
AcDbScale
 70
     0
300
2:1
140
2.0
141
1.0
290
     0
  0
SCALE
  5
BB0
102
{ACAD_REACTORS
330
BA2
102
}
330
BA2
100
AcDbScale
 70
     0
300
4:1
140
4.0
141
1.0
290
     0
  0
SCALE
  5
BB1
102
{ACAD_REACTORS
330
BA2
102
}
330
BA2
100
AcDbScale
 70
     0
300
8:1
140
8.0
141
1.0
290
     0
  0
SCALE
  5
BB2
102
{ACAD_REACTORS
330
BA2
102
}
330
BA2
100
AcDbScale
 70
     0
300
10:1
140
10.0
141
1.0
290
     0
  0
SCALE
  5
BB3
102
{ACAD_REACTORS
330
BA2
102
}
330
BA2
100
AcDbScale
 70
     0
300
100:1
140
100.0
141
1.0
290
     0
  0
SCALE
  5
BB4
102
{ACAD_REACTORS
330
BA2
102
}
330
BA2
100
AcDbScale
 70
     0
300
1/128" = 1'-0"
140
0.0078125
141
12.0
290
     0
  0
SCALE
  5
BB5
102
{ACAD_REACTORS
330
BA2
102
}
330
BA2
100
AcDbScale
 70
     0
300
1/64" = 1'-0"
140
0.015625
141
12.0
290
     0
  0
SCALE
  5
BB6
102
{ACAD_REACTORS
330
BA2
102
}
330
BA2
100
AcDbScale
 70
     0
300
1/32" = 1'-0"
140
0.03125
141
12.0
290
     0
  0
SCALE
  5
BB7
102
{ACAD_REACTORS
330
BA2
102
}
330
BA2
100
AcDbScale
 70
     0
300
1/16" = 1'-0"
140
0.0625
141
12.0
290
     0
  0
SCALE
  5
BB8
102
{ACAD_REACTORS
330
BA2
102
}
330
BA2
100
AcDbScale
 70
     0
300
3/32" = 1'-0"
140
0.09375
141
12.0
290
     0
  0
SCALE
  5
BB9
102
{ACAD_REACTORS
330
BA2
102
}
330
BA2
100
AcDbScale
 70
     0
300
1/8" = 1'-0"
140
0.125
141
12.0
290
     0
  0
SCALE
  5
BBA
102
{ACAD_REACTORS
330
BA2
102
}
330
BA2
100
AcDbScale
 70
     0
300
3/16" = 1'-0"
140
0.1875
141
12.0
290
     0
  0
SCALE
  5
BBB
102
{ACAD_REACTORS
330
BA2
102
}
330
BA2
100
AcDbScale
 70
     0
300
1/4" = 1'-0"
140
0.25
141
12.0
290
     0
  0
SCALE
  5
BBC
102
{ACAD_REACTORS
330
BA2
102
}
330
BA2
100
AcDbScale
 70
     0
300
3/8" = 1'-0"
140
0.375
141
12.0
290
     0
  0
SCALE
  5
BBD
102
{ACAD_REACTORS
330
BA2
102
}
330
BA2
100
AcDbScale
 70
     0
300
1/2" = 1'-0"
140
0.5
141
12.0
290
     0
  0
SCALE
  5
BBE
102
{ACAD_REACTORS
330
BA2
102
}
330
BA2
100
AcDbScale
 70
     0
300
3/4" = 1'-0"
140
0.75
141
12.0
290
     0
  0
SCALE
  5
BBF
102
{ACAD_REACTORS
330
BA2
102
}
330
BA2
100
AcDbScale
 70
     0
300
1" = 1'-0"
140
1.0
141
12.0
290
     0
  0
SCALE
  5
BC0
102
{ACAD_REACTORS
330
BA2
102
}
330
BA2
100
AcDbScale
 70
     0
300
1-1/2" = 1'-0"
140
1.5
141
12.0
290
     0
  0
SCALE
  5
BC1
102
{ACAD_REACTORS
330
BA2
102
}
330
BA2
100
AcDbScale
 70
     0
300
3" = 1'-0"
140
3.0
141
12.0
290
     0
  0
SCALE
  5
BC2
102
{ACAD_REACTORS
330
BA2
102
}
330
BA2
100
AcDbScale
 70
     0
300
6" = 1'-0"
140
6.0
141
12.0
290
     0
  0
SCALE
  5
BC3
102
{ACAD_REACTORS
330
BA2
102
}
330
BA2
100
AcDbScale
 70
     0
300
1'-0" = 1'-0"
140
12.0
141
12.0
290
     0
  0
TABLESTYLE
  5
BA1
102
{ACAD_XDICTIONARY
360
C7E
102
}
102
{ACAD_REACTORS
330
BA0
102
}
330
BA0
100
AcDbTableStyle
  3
Standard
 70
     0
 71
     0
 40
0.06
 41
0.06
280
     0
281
     0
  7
STANDARD
140
0.18
170
     2
 62
     0
 63
     7
283
     0
274
    -2
284
     1
 64
     0
275
    -2
285
     1
 65
     0
276
    -2
286
     1
 66
     0
277
    -2
287
     1
 67
     0
278
    -2
288
     1
 68
     0
279
    -2
289
     1
 69
     0
  7
STANDARD
140
0.25
170
     5
 62
     0
 63
     7
283
     0
274
    -2
284
     1
 64
     0
275
    -2
285
     1
 65
     0
276
    -2
286
     1
 66
     0
277
    -2
287
     1
 67
     0
278
    -2
288
     1
 68
     0
279
    -2
289
     1
 69
     0
  7
STANDARD
140
0.18
170
     5
 62
     0
 63
     7
283
     0
274
    -2
284
     1
 64
     0
275
    -2
285
     1
 65
     0
276
    -2
286
     1
 66
     0
277
    -2
287
     1
 67
     0
278
    -2
288
     1
 68
     0
279
    -2
289
     1
 69
     0
  0
VISUALSTYLE
  5
B94
102
{ACAD_REACTORS
330
B8E
102
}
330
B8E
100
AcDbVisualStyle
  2
2dWireframe
 70
     4
 71
     0
 72
     2
 73
     0
 90
        0
 40
-0.6
 41
-30.0
 62
     5
 63
     7
 74
     1
 91
        4
 64
     7
 65
   257
 75
     1
175
     1
 42
1.0
 92
        0
 66
   257
 43
1.0
 76
     1
 77
     6
 78
     2
 67
     7
 79
     5
170
     0
171
     0
290
     0
174
     0
 93
        1
 44
0.0
173
     0
291
     0
 45
0.0
1001
ACAD
1000
AcDbSavedByObjectVersion
1070
     0
  0
VISUALSTYLE
  5
B96
102
{ACAD_REACTORS
330
B8E
102
}
330
B8E
100
AcDbVisualStyle
  2
3D Hidden
 70
     6
 71
     1
 72
     2
 73
     2
 90
        0
 40
-0.6
 41
-30.0
 62
     5
 63
     7
 74
     2
 91
        2
 64
     7
 65
   257
 75
     2
175
     1
 42
40.0
 92
        0
 66
   257
 43
1.0
 76
     1
 77
     6
 78
     2
 67
     7
 79
     3
170
     0
171
     0
290
     0
174
     0
 93
        1
 44
0.0
173
     0
291
     0
 45
0.0
1001
ACAD
1000
AcDbSavedByObjectVersion
1070
     0
  0
VISUALSTYLE
  5
B95
102
{ACAD_REACTORS
330
B8E
102
}
330
B8E
100
AcDbVisualStyle
  2
3dWireframe
 70
     5
 71
     0
 72
     2
 73
     0
 90
        0
 40
-0.6
 41
-30.0
 62
     5
 63
     7
 74
     1
 91
        4
 64
     7
 65
   257
 75
     1
175
     1
 42
1.0
 92
        0
 66
   257
 43
1.0
 76
     1
 77
     6
 78
     2
 67
     7
 79
     5
170
     0
171
     0
290
     0
174
     0
 93
        1
 44
0.0
173
     0
291
     0
 45
0.0
1001
ACAD
1000
AcDbSavedByObjectVersion
1070
     0
  0
VISUALSTYLE
  5
B93
102
{ACAD_REACTORS
330
B8E
102
}
330
B8E
100
AcDbVisualStyle
  2
Basic
 70
     7
 71
     1
 72
     0
 73
     1
 90
        0
 40
-0.6
 41
-30.0
 62
     5
 63
     7
 74
     0
 91
        4
 64
     7
 65
   257
 75
     1
175
     1
 42
1.0
 92
        8
 66
     7
 43
1.0
 76
     1
 77
     6
 78
     2
 67
     7
 79
     5
170
     0
171
     0
290
     0
174
     0
 93
        1
 44
0.0
173
     0
291
     1
 45
0.0
1001
ACAD
1000
AcDbSavedByObjectVersion
1070
     0
  0
VISUALSTYLE
  5
B9A
102
{ACAD_REACTORS
330
B8E
102
}
330
B8E
100
AcDbVisualStyle
  2
Brighten
 70
    12
 71
     2
 72
     2
 73
     0
 90
        0
 40
-0.6
 41
-30.0
 62
     5
 63
     7
 74
     1
 91
        4
 64
     7
 65
   257
 75
     1
175
     1
 42
1.0
 92
        8
 66
     7
 43
1.0
 76
     1
 77
     6
 78
     2
 67
     7
 79
     5
170
     0
171
     0
290
     0
174
     0
 93
        1
 44
50.0
173
     0
291
     1
 45
0.0
1001
ACAD
1000
AcDbSavedByObjectVersion
1070
     0
  0
VISUALSTYLE
  5
B9E
102
{ACAD_REACTORS
330
B8E
102
}
330
B8E
100
AcDbVisualStyle
  2
ColorChange
 70
    16
 71
     2
 72
     2
 73
     3
 90
        0
 40
-0.6
 41
-30.0
 62
     5
 63
     8
 74
     1
 91
        4
 64
     7
 65
   257
 75
     1
175
     1
 42
1.0
 92
        8
 66
     8
 43
1.0
 76
     1
 77
     6
 78
     2
 67
     7
 79
     5
170
     0
171
     0
290
     0
174
     0
 93
        1
 44
0.0
173
     0
291
     1
 45
0.0
1001
ACAD
1000
AcDbSavedByObjectVersion
1070
     0
  0
VISUALSTYLE
  5
B97
102
{ACAD_REACTORS
330
B8E
102
}
330
B8E
100
AcDbVisualStyle
  2
Conceptual
 70
     9
 71
     3
 72
     2
 73
     0
 90
        0
 40
-0.6
 41
-30.0
 62
     5
 63
     7
 74
     2
 91
        2
 64
     7
 65
   257
 75
     1
175
     1
 42
40.0
 92
        8
 66
     7
 43
1.0
 76
     1
 77
     6
 78
     2
 67
     7
 79
     3
170
     0
171
     0
290
     0
174
     0
 93
        1
 44
0.0
173
     0
291
     0
 45
0.0
1001
ACAD
1000
AcDbSavedByObjectVersion
1070
     0
  0
VISUALSTYLE
  5
B99
102
{ACAD_REACTORS
330
B8E
102
}
330
B8E
100
AcDbVisualStyle
  2
Dim
 70
    11
 71
     2
 72
     2
 73
     0
 90
        0
 40
-0.6
 41
-30.0
 62
     5
 63
     7
 74
     1
 91
        4
 64
     7
 65
   257
 75
     1
175
     1
 42
1.0
 92
        8
 66
     7
 43
1.0
 76
     1
 77
     6
 78
     2
 67
     7
 79
     5
170
     0
171
     0
290
     0
174
     0
 93
        1
 44
-50.0
173
     0
291
     1
 45
0.0
1001
ACAD
1000
AcDbSavedByObjectVersion
1070
     0
  0
VISUALSTYLE
  5
B9D
102
{ACAD_REACTORS
330
B8E
102
}
330
B8E
100
AcDbVisualStyle
  2
Facepattern
 70
    15
 71
     2
 72
     2
 73
     0
 90
        0
 40
-0.6
 41
-30.0
 62
     5
 63
     7
 74
     1
 91
        4
 64
     7
 65
   257
 75
     1
175
     1
 42
1.0
 92
        8
 66
     7
 43
1.0
 76
     1
 77
     6
 78
     2
 67
     7
 79
     5
170
     0
171
     0
290
     0
174
     0
 93
        1
 44
0.0
173
     0
291
     1
 45
0.0
1001
ACAD
1000
AcDbSavedByObjectVersion
1070
     0
  0
VISUALSTYLE
  5
B8F
102
{ACAD_REACTORS
330
B8E
102
}
330
B8E
100
AcDbVisualStyle
  2
Flat
 70
     0
 71
     2
 72
     1
 73
     1
 90
        2
 40
-0.6
 41
30.0
 62
     5
 63
     7
 74
     0
 91
        4
 64
     7
 65
   257
 75
     1
175
     1
 42
1.0
 92
        8
 66
     7
 43
1.0
 76
     1
 77
     6
 78
     2
 67
     7
 79
     5
170
     0
171
     0
290
     0
174
     0
 93
       13
 44
0.0
173
     0
291
     1
 45
0.0
1001
ACAD
1000
AcDbSavedByObjectVersion
1070
     0
  0
VISUALSTYLE
  5
B90
102
{ACAD_REACTORS
330
B8E
102
}
330
B8E
100
AcDbVisualStyle
  2
FlatWithEdges
 70
     1
 71
     2
 72
     1
 73
     1
 90
        2
 40
-0.6
 41
30.0
 62
     5
 63
     7
 74
     1
 91
        4
 64
     7
 65
   257
 75
     1
175
     1
 42
1.0
 92
        0
 66
   257
 43
1.0
 76
     1
 77
     6
 78
     2
 67
     7
 79
     5
170
     0
171
     0
290
     0
174
     0
 93
       13
 44
0.0
173
     0
291
     1
 45
0.0
1001
ACAD
1000
AcDbSavedByObjectVersion
1070
     0
  0
VISUALSTYLE
  5
B91
102
{ACAD_REACTORS
330
B8E
102
}
330
B8E
100
AcDbVisualStyle
  2
Gouraud
 70
     2
 71
     2
 72
     2
 73
     1
 90
        2
 40
-0.6
 41
30.0
 62
     5
 63
     7
 74
     0
 91
        4
 64
     7
 65
   257
 75
     1
175
     1
 42
1.0
 92
        0
 66
     7
 43
1.0
 76
     1
 77
     6
 78
     2
 67
     7
 79
     5
170
     0
171
     0
290
     0
174
     0
 93
       13
 44
0.0
173
     0
291
     1
 45
0.0
1001
ACAD
1000
AcDbSavedByObjectVersion
1070
     0
  0
VISUALSTYLE
  5
B92
102
{ACAD_REACTORS
330
B8E
102
}
330
B8E
100
AcDbVisualStyle
  2
GouraudWithEdges
 70
     3
 71
     2
 72
     2
 73
     1
 90
        2
 40
-0.6
 41
30.0
 62
     5
 63
     7
 74
     1
 91
        4
 64
     7
 65
   257
 75
     1
175
     1
 42
1.0
 92
        0
 66
   257
 43
1.0
 76
     1
 77
     6
 78
     2
 67
     7
 79
     5
170
     0
171
     0
290
     0
174
     0
 93
       13
 44
0.0
173
     0
291
     1
 45
0.0
1001
ACAD
1000
AcDbSavedByObjectVersion
1070
     0
  0
VISUALSTYLE
  5
B9C
102
{ACAD_REACTORS
330
B8E
102
}
330
B8E
100
AcDbVisualStyle
  2
Linepattern
 70
    14
 71
     2
 72
     2
 73
     0
 90
        0
 40
-0.6
 41
-30.0
 62
     5
 63
     7
 74
     1
 91
        4
 64
     7
 65
   257
 75
     7
175
     7
 42
1.0
 92
        8
 66
     7
 43
1.0
 76
     1
 77
     6
 78
     2
 67
     7
 79
     5
170
     0
171
     0
290
     0
174
     0
 93
        1
 44
0.0
173
     0
291
     1
 45
0.0
1001
ACAD
1000
AcDbSavedByObjectVersion
1070
     0
  0
VISUALSTYLE
  5
B98
102
{ACAD_REACTORS
330
B8E
102
}
330
B8E
100
AcDbVisualStyle
  2
Realistic
 70
     8
 71
     2
 72
     2
 73
     0
 90
        0
 40
-0.6
 41
-30.0
 62
     5
 63
     7
 74
     1
 91
        0
 64
     7
 65
   257
 75
     1
175
     1
 42
1.0
 92
        8
 66
     8
 43
1.0
 76
     1
 77
     6
 78
     2
 67
     7
 79
     5
170
     0
171
     0
290
     0
174
     0
 93
       13
 44
0.0
173
     0
291
     0
 45
0.0
1001
ACAD
1000
AcDbSavedByObjectVersion
1070
     0
  0
VISUALSTYLE
  5
B9B
102
{ACAD_REACTORS
330
B8E
102
}
330
B8E
100
AcDbVisualStyle
  2
Thicken
 70
    13
 71
     2
 72
     2
 73
     0
 90
        0
 40
-0.6
 41
-30.0
 62
     5
 63
     7
 74
     1
 91
        4
 64
     7
 65
   257
 75
     1
175
     1
 42
1.0
 92
       12
 66
     7
 43
1.0
 76
     1
 77
     6
 78
     2
 67
     7
 79
     5
170
     0
171
     0
290
     0
174
     0
 93
        1
 44
0.0
173
     0
291
     1
 45
0.0
1001
ACAD
1000
AcDbSavedByObjectVersion
1070
     0
  0
DICTIONARYVAR
  5
C7A
102
{ACAD_REACTORS
330
C77
102
}
330
C77
100
DictionaryVariables
280
     0
  1
1:1
  0
DICTIONARYVAR
  5
C79
102
{ACAD_REACTORS
330
C77
102
}
330
C77
100
DictionaryVariables
280
     0
  1
STANDARD
  0
DICTIONARYVAR
  5
C78
102
{ACAD_REACTORS
330
C77
102
}
330
C77
100
DictionaryVariables
280
     0
  1
STANDARD
  0
DICTIONARYVAR
  5
C7D
102
{ACAD_REACTORS
330
C77
102
}
330
C77
100
DictionaryVariables
280
     0
  1
1
  0
DICTIONARYVAR
  5
C7C
102
{ACAD_REACTORS
330
C77
102
}
330
C77
100
DictionaryVariables
280
     0
  1
0
  0
DICTIONARYVAR
  5
C7B
102
{ACAD_REACTORS
330
C77
102
}
330
C77
100
DictionaryVariables
280
     0
  1
127
  0
DICTIONARY
  5
C34
102
{ACAD_REACTORS
330
C29
102
}
330
C29
100
AcDbDictionary
281
     1
  0
DICTIONARY
  5
C88
330
BCA
100
AcDbDictionary
280
     1
281
     1
  3
ACAD_XREC_ROUNDTRIP
360
C89
  0
DICTIONARY
  5
C86
330
BC9
100
AcDbDictionary
280
     1
281
     1
  3
ACAD_XREC_ROUNDTRIP
360
C87
  0
DICTIONARY
  5
B7F
330
B7E
100
AcDbDictionary
280
     1
281
     1
  3
ACAD_XREC_ROUNDTRIP
360
C83
  3
BUMPTILE
360
B81
  3
DIFFUSETILE
360
B80
  3
OPACITYTILE
360
B84
  3
REFLECTIONTILE
360
B83
  3
REFRACTIONTILE
360
B85
  3
SPECULARTILE
360
B82
  0
DICTIONARY
  5
B77
330
B76
100
AcDbDictionary
280
     1
281
     1
  3
ACAD_XREC_ROUNDTRIP
360
C82
  3
BUMPTILE
360
B79
  3
DIFFUSETILE
360
B78
  3
OPACITYTILE
360
B7C
  3
REFLECTIONTILE
360
B7B
  3
REFRACTIONTILE
360
B7D
  3
SPECULARTILE
360
B7A
  0
DICTIONARY
  5
B87
330
B86
100
AcDbDictionary
280
     1
281
     1
  3
ACAD_XREC_ROUNDTRIP
360
C84
  3
BUMPTILE
360
B89
  3
DIFFUSETILE
360
B88
  3
OPACITYTILE
360
B8C
  3
REFLECTIONTILE
360
B8B
  3
REFRACTIONTILE
360
B8D
  3
SPECULARTILE
360
B8A
  0
DICTIONARY
  5
C7E
330
BA1
100
AcDbDictionary
280
     1
281
     1
  3
ACAD_ROUNDTRIP_2008_TABLESTYLE_CELLSTYLEMAP
360
C7F
  3
ACAD_XREC_ROUNDTRIP
360
C85
  0
XRECORD
  5
C89
102
{ACAD_REACTORS
330
C88
102
}
330
C88
100
AcDbXrecord
280
     1
102
SHADEPLOT
 70
     0
102
SHADEPLOTRESLEVEL
 70
     2
102
SHADEPLOTCUSTOMDPI
 70
   300
  0
XRECORD
  5
C87
102
{ACAD_REACTORS
330
C86
102
}
330
C86
100
AcDbXrecord
280
     1
102
SHADEPLOT
 70
     0
102
SHADEPLOTRESLEVEL
 70
     2
102
SHADEPLOTCUSTOMDPI
 70
   300
  0
XRECORD
  5
C83
102
{ACAD_REACTORS
330
B7F
102
}
330
B7F
100
AcDbXrecord
280
     1
102
MATERIAL
148
0.0
149
0.0
149
0.0
 93
        0
 94
      127
282
     0
 72
     0
 77
     0
171
     0
175
     0
179
     0
273
     0
  0
XRECORD
  5
B81
102
{ACAD_REACTORS
330
B7F
102
}
330
B7F
100
AcDbXrecord
280
     1
270
     1
271
     1
  0
XRECORD
  5
B80
102
{ACAD_REACTORS
330
B7F
102
}
330
B7F
100
AcDbXrecord
280
     1
270
     1
271
     1
  0
XRECORD
  5
B84
102
{ACAD_REACTORS
330
B7F
102
}
330
B7F
100
AcDbXrecord
280
     1
270
     1
271
     1
  0
XRECORD
  5
B83
102
{ACAD_REACTORS
330
B7F
102
}
330
B7F
100
AcDbXrecord
280
     1
270
     1
271
     1
  0
XRECORD
  5
B85
102
{ACAD_REACTORS
330
B7F
102
}
330
B7F
100
AcDbXrecord
280
     1
270
     1
271
     1
  0
XRECORD
  5
B82
102
{ACAD_REACTORS
330
B7F
102
}
330
B7F
100
AcDbXrecord
280
     1
270
     1
271
     1
  0
XRECORD
  5
C82
102
{ACAD_REACTORS
330
B77
102
}
330
B77
100
AcDbXrecord
280
     1
102
MATERIAL
148
0.0
149
0.0
149
0.0
 93
        0
 94
      127
282
     0
 72
     0
 77
     0
171
     0
175
     0
179
     0
273
     0
  0
XRECORD
  5
B79
102
{ACAD_REACTORS
330
B77
102
}
330
B77
100
AcDbXrecord
280
     1
270
     1
271
     1
  0
XRECORD
  5
B78
102
{ACAD_REACTORS
330
B77
102
}
330
B77
100
AcDbXrecord
280
     1
270
     1
271
     1
  0
XRECORD
  5
B7C
102
{ACAD_REACTORS
330
B77
102
}
330
B77
100
AcDbXrecord
280
     1
270
     1
271
     1
  0
XRECORD
  5
B7B
102
{ACAD_REACTORS
330
B77
102
}
330
B77
100
AcDbXrecord
280
     1
270
     1
271
     1
  0
XRECORD
  5
B7D
102
{ACAD_REACTORS
330
B77
102
}
330
B77
100
AcDbXrecord
280
     1
270
     1
271
     1
  0
XRECORD
  5
B7A
102
{ACAD_REACTORS
330
B77
102
}
330
B77
100
AcDbXrecord
280
     1
270
     1
271
     1
  0
XRECORD
  5
C84
102
{ACAD_REACTORS
330
B87
102
}
330
B87
100
AcDbXrecord
280
     1
102
MATERIAL
148
0.0
149
0.0
149
0.0
 93
        0
 94
      127
282
     0
 72
     0
 77
     0
171
     0
175
     0
179
     0
273
     0
  0
XRECORD
  5
B89
102
{ACAD_REACTORS
330
B87
102
}
330
B87
100
AcDbXrecord
280
     1
270
     1
271
     1
  0
XRECORD
  5
B88
102
{ACAD_REACTORS
330
B87
102
}
330
B87
100
AcDbXrecord
280
     1
270
     1
271
     1
  0
XRECORD
  5
B8C
102
{ACAD_REACTORS
330
B87
102
}
330
B87
100
AcDbXrecord
280
     1
270
     1
271
     1
  0
XRECORD
  5
B8B
102
{ACAD_REACTORS
330
B87
102
}
330
B87
100
AcDbXrecord
280
     1
270
     1
271
     1
  0
XRECORD
  5
B8D
102
{ACAD_REACTORS
330
B87
102
}
330
B87
100
AcDbXrecord
280
     1
270
     1
271
     1
  0
XRECORD
  5
B8A
102
{ACAD_REACTORS
330
B87
102
}
330
B87
100
AcDbXrecord
280
     1
270
     1
271
     1
  0
CELLSTYLEMAP
  5
C7F
102
{ACAD_REACTORS
330
C7E
102
}
330
C7E
100
AcDbCellStyleMap
 90
        3
300
CELLSTYLE
  1
TABLEFORMAT_BEGIN
 90
        5
170
     1
 91
        0
 92
    32768
 62
   257
 93
        1
300
CONTENTFORMAT
  1
CONTENTFORMAT_BEGIN
 90
        0
 91
        0
 92
      512
 93
        0
300

 40
0.0
140
1.0
 94
        5
 62
     0
340
D
144
0.25
309
CONTENTFORMAT_END
171
     0
 94
        0
309
TABLEFORMAT_END
  1
CELLSTYLE_BEGIN
 90
        1
 91
        1
300
_TITLE
309
CELLSTYLE_END
300
CELLSTYLE
  1
TABLEFORMAT_BEGIN
 90
        5
170
     1
 91
        0
 92
        0
 62
   257
 93
        1
300
CONTENTFORMAT
  1
CONTENTFORMAT_BEGIN
 90
        0
 91
        0
 92
      512
 93
        0
300

 40
0.0
140
1.0
 94
        5
 62
     0
340
D
144
0.18
309
CONTENTFORMAT_END
171
     0
 94
        0
309
TABLEFORMAT_END
  1
CELLSTYLE_BEGIN
 90
        2
 91
        1
300
_HEADER
309
CELLSTYLE_END
300
CELLSTYLE
  1
TABLEFORMAT_BEGIN
 90
        5
170
     1
 91
        0
 92
        0
 62
   257
 93
        1
300
CONTENTFORMAT
  1
CONTENTFORMAT_BEGIN
 90
        0
 91
        0
 92
      512
 93
        0
300

 40
0.0
140
1.0
 94
        2
 62
     0
340
D
144
0.18
309
CONTENTFORMAT_END
171
     0
 94
        0
309
TABLEFORMAT_END
  1
CELLSTYLE_BEGIN
 90
        3
 91
        2
300
_DATA
309
CELLSTYLE_END
  0
XRECORD
  5
C85
102
{ACAD_REACTORS
330
C7E
102
}
330
C7E
100
AcDbXrecord
280
     1
102
ACAD_ROUNDTRIP_PRE2007_TABLESTYLE
 90
      512
 91
        0
  1

 92
      512
 93
        0
  2

 94
      512
 95
        0
  3

  0
ENDSEC
  0
EOF
