  0
SECTION
  2
HEADER
  9
$ACADVER
  1
AC1015
  9
$ACADMAINTVER
 70
    20
  9
$DWGCODEPAGE
  3
ANSI_1252
  9
$INSBASE
 10
0.0
 20
0.0
 30
0.0
  9
$EXTMIN
 10
-119.411625
 20
-134.075925643108
 30
-0.00000001
  9
$EXTMAX
 10
33.20000000000073
 20
17.69215600000001
 30
0.00000001
  9
$LIMMIN
 10
0.0
 20
0.0
  9
$LIMMAX
 10
410.0
 20
287.0
  9
$ORTHOMODE
 70
     0
  9
$REGENMODE
 70
     1
  9
$FILLMODE
 70
     1
  9
$QTEXTMODE
 70
     0
  9
$MIRRTEXT
 70
     1
  9
$LTSCALE
 40
1.0
  9
$ATTMODE
 70
     1
  9
$TEXTSIZE
 40
3.5
  9
$TRACEWID
 40
0.05
  9
$TEXTSTYLE
  7
STANDARD
  9
$CLAYER
  8
0
  9
$CELTYPE
  6
BYLAYER
  9
$CECOLOR
 62
   256
  9
$CELTSCALE
 40
1.0
  9
$DISPSILH
 70
     0
  9
$DIMSCALE
 40
1.0
  9
$DIMASZ
 40
0.18
  9
$DIMEXO
 40
0.0625
  9
$DIMDLI
 40
0.38
  9
$DIMRND
 40
0.0
  9
$DIMDLE
 40
0.0
  9
$DIMEXE
 40
0.18
  9
$DIMTP
 40
0.0
  9
$DIMTM
 40
0.0
  9
$DIMTXT
 40
0.18
  9
$DIMCEN
 40
0.09
  9
$DIMTSZ
 40
0.0
  9
$DIMTOL
 70
     0
  9
$DIMLIM
 70
     0
  9
$DIMTIH
 70
     1
  9
$DIMTOH
 70
     1
  9
$DIMSE1
 70
     0
  9
$DIMSE2
 70
     0
  9
$DIMTAD
 70
     0
  9
$DIMZIN
 70
     0
  9
$DIMBLK
  1

  9
$DIMASO
 70
     1
  9
$DIMSHO
 70
     1
  9
$DIMPOST
  1

  9
$DIMAPOST
  1

  9
$DIMALT
 70
     0
  9
$DIMALTD
 70
     2
  9
$DIMALTF
 40
25.4
  9
$DIMLFAC
 40
1.0
  9
$DIMTOFL
 70
     0
  9
$DIMTVP
 40
0.0
  9
$DIMTIX
 70
     0
  9
$DIMSOXD
 70
     0
  9
$DIMSAH
 70
     0
  9
$DIMBLK1
  1

  9
$DIMBLK2
  1

  9
$DIMSTYLE
  2
STANDARD
  9
$DIMCLRD
 70
     0
  9
$DIMCLRE
 70
     0
  9
$DIMCLRT
 70
     0
  9
$DIMTFAC
 40
1.0
  9
$DIMGAP
 40
0.09
  9
$DIMJUST
 70
     0
  9
$DIMSD1
 70
     0
  9
$DIMSD2
 70
     0
  9
$DIMTOLJ
 70
     1
  9
$DIMTZIN
 70
     0
  9
$DIMALTZ
 70
     0
  9
$DIMALTTZ
 70
     0
  9
$DIMUPT
 70
     0
  9
$DIMDEC
 70
     4
  9
$DIMTDEC
 70
     4
  9
$DIMALTU
 70
     2
  9
$DIMALTTD
 70
     2
  9
$DIMTXSTY
  7
STANDARD
  9
$DIMAUNIT
 70
     0
  9
$DIMADEC
 70
     0
  9
$DIMALTRND
 40
0.0
  9
$DIMAZIN
 70
     0
  9
$DIMDSEP
 70
    46
  9
$DIMATFIT
 70
     3
  9
$DIMFRAC
 70
     0
  9
$DIMLDRBLK
  1

  9
$DIMLUNIT
 70
     2
  9
$DIMLWD
 70
    -2
  9
$DIMLWE
 70
    -2
  9
$DIMTMOVE
 70
     0
  9
$LUNITS
 70
     2
  9
$LUPREC
 70
     4
  9
$SKETCHINC
 40
0.1
  9
$FILLETRAD
 40
12.5
  9
$AUNITS
 70
     0
  9
$AUPREC
 70
     0
  9
$MENU
  1
acad
  9
$ELEVATION
 40
0.0
  9
$PELEVATION
 40
0.0
  9
$THICKNESS
 40
0.0
  9
$LIMCHECK
 70
     0
  9
$CHAMFERA
 40
12.5
  9
$CHAMFERB
 40
12.5
  9
$CHAMFERC
 40
0.0
  9
$CHAMFERD
 40
0.0
  9
$SKPOLY
 70
     0
  9
$TDCREATE
 40
2450844.484676042
  9
$TDUCREATE
 40
2450844.401342708
  9
$TDUPDATE
 40
2456226.383089109
  9
$TDUUPDATE
 40
2456226.299755776
  9
$TDINDWG
 40
0.0019244560
  9
$TDUSRTIMER
 40
0.0019244560
  9
$USRTIMER
 70
     1
  9
$ANGBASE
 50
0.0
  9
$ANGDIR
 70
     0
  9
$PDMODE
 70
     0
  9
$PDSIZE
 40
10.64612197370877
  9
$PLINEWID
 40
0.0
  9
$SPLFRAME
 70
     0
  9
$SPLINETYPE
 70
     6
  9
$SPLINESEGS
 70
     8
  9
$HANDSEED
  5
E03
  9
$SURFTAB1
 70
     6
  9
$SURFTAB2
 70
     6
  9
$SURFTYPE
 70
     6
  9
$SURFU
 70
     6
  9
$SURFV
 70
     6
  9
$UCSBASE
  2

  9
$UCSNAME
  2

  9
$UCSORG
 10
0.0
 20
0.0
 30
0.0
  9
$UCSXDIR
 10
1.0
 20
0.0
 30
0.0
  9
$UCSYDIR
 10
0.0
 20
1.0
 30
0.0
  9
$UCSORTHOREF
  2

  9
$UCSORTHOVIEW
 70
     0
  9
$UCSORGTOP
 10
0.0
 20
0.0
 30
0.0
  9
$UCSORGBOTTOM
 10
0.0
 20
0.0
 30
0.0
  9
$UCSORGLEFT
 10
0.0
 20
0.0
 30
0.0
  9
$UCSORGRIGHT
 10
0.0
 20
0.0
 30
0.0
  9
$UCSORGFRONT
 10
0.0
 20
0.0
 30
0.0
  9
$UCSORGBACK
 10
0.0
 20
0.0
 30
0.0
  9
$PUCSBASE
  2

  9
$PUCSNAME
  2

  9
$PUCSORG
 10
0.0
 20
0.0
 30
0.0
  9
$PUCSXDIR
 10
1.0
 20
0.0
 30
0.0
  9
$PUCSYDIR
 10
0.0
 20
1.0
 30
0.0
  9
$PUCSORTHOREF
  2

  9
$PUCSORTHOVIEW
 70
     0
  9
$PUCSORGTOP
 10
0.0
 20
0.0
 30
0.0
  9
$PUCSORGBOTTOM
 10
0.0
 20
0.0
 30
0.0
  9
$PUCSORGLEFT
 10
0.0
 20
0.0
 30
0.0
  9
$PUCSORGRIGHT
 10
0.0
 20
0.0
 30
0.0
  9
$PUCSORGFRONT
 10
0.0
 20
0.0
 30
0.0
  9
$PUCSORGBACK
 10
0.0
 20
0.0
 30
0.0
  9
$USERI1
 70
     0
  9
$USERI2
 70
     0
  9
$USERI3
 70
     0
  9
$USERI4
 70
     0
  9
$USERI5
 70
     0
  9
$USERR1
 40
0.0
  9
$USERR2
 40
0.0
  9
$USERR3
 40
0.0
  9
$USERR4
 40
0.0
  9
$USERR5
 40
0.0
  9
$WORLDVIEW
 70
     1
  9
$SHADEDGE
 70
     3
  9
$SHADEDIF
 70
    70
  9
$TILEMODE
 70
     1
  9
$MAXACTVP
 70
    16
  9
$PINSBASE
 10
0.0
 20
0.0
 30
0.0
  9
$PLIMCHECK
 70
     0
  9
$PEXTMIN
 10
1.000000000000000E+20
 20
1.000000000000000E+20
 30
1.000000000000000E+20
  9
$PEXTMAX
 10
-1.000000000000000E+20
 20
-1.000000000000000E+20
 30
-1.000000000000000E+20
  9
$PLIMMIN
 10
0.0
 20
0.0
  9
$PLIMMAX
 10
12.0
 20
9.0
  9
$UNITMODE
 70
     0
  9
$VISRETAIN
 70
     0
  9
$PLINEGEN
 70
     0
  9
$PSLTSCALE
 70
     1
  9
$TREEDEPTH
 70
  3020
  9
$CMLSTYLE
  2
STANDARD
  9
$CMLJUST
 70
     0
  9
$CMLSCALE
 40
1.0
  9
$PROXYGRAPHICS
 70
     1
  9
$MEASUREMENT
 70
     1
  9
$CELWEIGHT
370
    -1
  9
$ENDCAPS
280
     0
  9
$JOINSTYLE
280
     0
  9
$LWDISPLAY
290
     0
  9
$INSUNITS
 70
     4
  9
$HYPERLINKBASE
  1

  9
$STYLESHEET
  1

  9
$XEDIT
290
     1
  9
$CEPSNTYPE
380
     0
  9
$PSTYLEMODE
290
     1
  9
$FINGERPRINTGUID
  2
{9125B0AF-EDCC-4AA6-B3F4-727AD6175B73}
  9
$VERSIONGUID
  2
{3E40BED8-A3CD-427E-9D43-75171C08D1E5}
  9
$EXTNAMES
290
     1
  9
$PSVPSCALE
 40
0.0
  9
$OLESTARTUP
290
     0
  0
ENDSEC
  0
SECTION
  2
CLASSES
  0
CLASS
  1
ACDBDICTIONARYWDFLT
  2
AcDbDictionaryWithDefault
  3
ObjectDBX Classes
 90
        0
280
     0
281
     0
  0
CLASS
  1
MATERIAL
  2
AcDbMaterial
  3
ObjectDBX Classes
 90
     1153
280
     0
281
     0
  0
CLASS
  1
VISUALSTYLE
  2
AcDbVisualStyle
  3
ObjectDBX Classes
 90
     4095
280
     0
281
     0
  0
CLASS
  1
TABLESTYLE
  2
AcDbTableStyle
  3
ObjectDBX Classes
 90
     4095
280
     0
281
     0
  0
CLASS
  1
SCALE
  2
AcDbScale
  3
ObjectDBX Classes
 90
     1153
280
     0
281
     0
  0
CLASS
  1
MLEADERSTYLE
  2
AcDbMLeaderStyle
  3
ACDB_MLEADERSTYLE_CLASS
 90
     4095
280
     0
281
     0
  0
CLASS
  1
ACME_DOCUMENT
  2
AcMeDbDoc
  3
AcMeServices
 90
     1024
280
     0
281
     0
  0
CLASS
  1
AMGSETTINGSOBJ
  2
AmgSettingsObj
  3
"AcadM|Product Description: AutoCAD Mechanical|Company: Autodesk, Inc."
 90
     1024
280
     0
281
     0
  0
CLASS
  1
ACMESCOPE
  2
AcMeScope
  3
AcMeServices
 90
     1024
280
     0
281
     0
  0
CLASS
  1
ACMECOMMANDHISTORY
  2
AcMeCommandHistory
  3
AcMeServices
 90
     1024
280
     0
281
     0
  0
CLASS
  1
ACIMSYSVARMAN
  2
AcImSysVarManager
  3
AcMeServices
 90
     1024
280
     0
281
     0
  0
CLASS
  1
ACIMINTSYSVAR
  2
AcImIntSysVar
  3
AcMeServices
 90
     1024
280
     0
281
     0
  0
CLASS
  1
ACMEDRAWINGMAN
  2
AcMeDrawingMan
  3
AcMeServices
 90
     1024
280
     0
281
     0
  0
CLASS
  1
ACMEVIEW
  2
AcMeView
  3
AcMeServices
 90
     1024
280
     0
281
     0
  0
CLASS
  1
ACDBENTITYCACHE
  2
AcMeEntityCache
  3
AcMeServices
 90
     1024
280
     0
281
     0
  0
CLASS
  1
GSMANAGER
  2
AcMeGSManager
  3
AcMeServices
 90
     1024
280
     0
281
     0
  0
CLASS
  1
AMDTINTERNALREACTOR
  2
AmdtInternalReactor
  3
AcMeServices
 90
     1024
280
     0
281
     0
  0
CLASS
  1
ACMESTATEMGR
  2
AcMeStateMgr
  3
AcMeServices
 90
     1024
280
     0
281
     0
  0
CLASS
  1
ACGREFMASTER
  2
AcGrefMaster
  3
AcAttribServices
 90
     1024
280
     0
281
     0
  0
CLASS
  1
AM_DRAWING_MGR
  2
AcDmDwgMgr
  3
AcMechDwgViewMgmt
 90
     1024
280
     0
281
     0
  0
CLASS
  1
AM_DWG_DOCUMENT
  2
AcDmDwgDocument
  3
AcMechDwgViewMgmt
 90
     1024
280
     0
281
     0
  0
CLASS
  1
AM_DWG_SHEET
  2
AcDmSheet
  3
AcMechDwgViewMgmt
 90
     1024
280
     0
281
     0
  0
CLASS
  1
AM_VIEWDIMPARMAP
  2
AcDmViewDimParMap
  3
AcMechDwgViewMgmt
 90
     1024
280
     0
281
     0
  0
CLASS
  1
ACIMREALSYSVAR
  2
AcImRealSysVar
  3
AcMeServices
 90
     1024
280
     0
281
     0
  0
CLASS
  1
AM_DWGMGR_NAME
  2
AcDmDwgMgrName
  3
AcMechDwgViewMgmt
 90
     1024
280
     0
281
     0
  0
CLASS
  1
ACME_DATABASE
  2
AcMeDbDatabase
  3
AcMeServices
 90
     1024
280
     0
281
     0
  0
CLASS
  1
ACRFINSADJUSTERMGR
  2
AcRfInsAdjusterMgr
  3
AcMeServices
 90
     1024
280
     0
281
     0
  0
CLASS
  1
ACGREFACADMASTER
  2
AcGrefacadMaster
  3
AcGrefServices
 90
     1024
280
     0
281
     0
  0
CLASS
  1
AMDTMENUSTATEMGR
  2
AmdtMenuStateMgr
  3
McadcomServices
 90
     1024
280
     0
281
     0
  0
CLASS
  1
AMDTMCOMMENUSTATE
  2
AmdtMcomMenuState
  3
McadcomServices
 90
     1024
280
     0
281
     0
  0
CLASS
  1
AMIMASTER
  2
AmiMaster
  3
AmiServices
 90
     1024
280
     0
281
     0
  0
CLASS
  1
MAPIAMMOUDLE
  2
MApiAmModule
  3
MApiAmServices
 90
     1024
280
     0
281
     0
  0
CLASS
  1
ACIMSTRSYSVAR
  2
AcImStrSysVar
  3
AcMeServices
 90
     1024
280
     0
281
     0
  0
CLASS
  1
AMDTADMENUSTATE
  2
AmdtAdMenuState
  3
DesignerServices
 90
     1024
280
     0
281
     0
  0
CLASS
  1
ADAPPL
  2
AcAdAppl
  3
DesignerServices
 90
     1024
280
     0
281
     0
  0
CLASS
  1
DEPMGR
  2
AcAdDepMgr
  3
DesignerServices
 90
     1024
280
     0
281
     0
  0
CLASS
  1
PARAMMGR
  2
AcAdParamMgr
  3
DesignerServices
 90
     1024
280
     0
281
     0
  0
CLASS
  1
PARAMSCOPE
  2
AcAdParamScope
  3
DesignerServices
 90
     1024
280
     0
281
     0
  0
CLASS
  1
NAMEDAPPL
  2
AcAdNamedAppl
  3
DesignerServices
 90
     1024
280
     0
281
     0
  0
CLASS
  1
AMDTDMMENUSTATE
  2
AmdtDmMenuState
  3
AcMechDwgViewMgmt
 90
     1024
280
     0
281
     0
  0
CLASS
  1
AMDTAMMENUSTATE
  2
AmdtAmMenuState
  3
DesignerAssemblies
 90
     1024
280
     0
281
     0
  0
CLASS
  1
ACAMPROJECT
  2
AcAmProject
  3
DesignerAssemblies
 90
     1024
280
     0
281
     0
  0
CLASS
  1
ACAMGRCOMPDEF
  2
AcAmGrCompDef
  3
DesignerAssemblies
 90
     1024
280
     0
281
     0
  0
CLASS
  1
ACCMCONTEXT
  2
AcCmContext
  3
DesignerAssemblies
 90
     1024
280
     0
281
     0
  0
CLASS
  1
ACAMCOMPDEF
  2
AcAmCompDef
  3
DesignerAssemblies
 90
     1024
280
     0
281
     0
  0
CLASS
  1
ACAMCOMPDEFMGR
  2
AcAmCompDefMgr
  3
DesignerAssemblies
 90
     1024
280
     0
281
     0
  0
CLASS
  1
AMCONTEXTMGR
  2
AcAmContextMgr
  3
DesignerAssemblies
 90
     1024
280
     0
281
     0
  0
CLASS
  1
ACAMCONTEXTMODELER
  2
AcAmContextModeler
  3
DesignerAssemblies
 90
     1024
280
     0
281
     0
  0
CLASS
  1
ACMDATADICTIONARY
  2
AcmDataDictionary
  3
"AcmSymBB|Product Description: AutoCAD Mechanical|Company: Autodesk, Inc."
 90
     1024
280
     0
281
     0
  0
CLASS
  1
CATALOGSTATE
  2
AcAmCatalogState
  3
DesignerAssemblies
 90
     1024
280
     0
281
     0
  0
CLASS
  1
ACAMGRCOMPDEFSET
  2
AcAmGrCompDefSet
  3
DesignerAssemblies
 90
     1024
280
     0
281
     0
  0
CLASS
  1
AMDTBROWSERDBTAB
  2
AmdtBrowserDbTab
  3
McadcomServices
 90
     1024
280
     0
281
     0
  0
CLASS
  1
CBROWSERAPPOBJECT
  2
CBrowserAppObject
  3
McadcomServices
 90
     1024
280
     0
281
     0
  0
CLASS
  1
DM_PLACEHOLDER
  2
AcDmSelsetPlaceholder
  3
AcMechDwgViewMgmt
 90
     1024
280
     0
281
     0
  0
CLASS
  1
ACMSTANDARDANSI
  2
AcmStandardANSI
  3
"Amdt_StdImp|Product Description: AutoCAD Mechanical|Company: Autodesk, Inc."
 90
     1024
280
     0
281
     0
  0
CLASS
  1
ACMSURFSTANDARDANSI
  2
AcmSurfTextStdANSI
  3
"Amdt_StdImp|Product Description: AutoCAD Mechanical|Company: Autodesk, Inc."
 90
     1024
280
     0
281
     0
  0
CLASS
  1
ACMFCFSTANDARDANSI
  2
AcmFCFStdANSI
  3
"Amdt_StdImp|Product Description: AutoCAD Mechanical|Company: Autodesk, Inc."
 90
     1024
280
     0
281
     0
  0
CLASS
  1
ACMWELDSTANDARDANSI
  2
AcmWeldingStdANSI
  3
"Amdt_StdImp|Product Description: AutoCAD Mechanical|Company: Autodesk, Inc."
 90
     1024
280
     0
281
     0
  0
CLASS
  1
ACMIDSTANDARDANSI
  2
AcmIdStdANSI
  3
"Amdt_StdImp|Product Description: AutoCAD Mechanical|Company: Autodesk, Inc."
 90
     1024
280
     0
281
     0
  0
CLASS
  1
ACMDATUMSTANDARDANSI
  2
AcmDatumStdANSI
  3
"Amdt_StdImp|Product Description: AutoCAD Mechanical|Company: Autodesk, Inc."
 90
     1024
280
     0
281
     0
  0
CLASS
  1
ACMBOMSTANDARDANSI
  2
AcmBOMStdANSI
  3
"Amdt_StdImp|Product Description: AutoCAD Mechanical|Company: Autodesk, Inc."
 90
     1024
280
     0
281
     0
  0
CLASS
  1
ACMDETAILSTANDARDANSI
  2
AmdtDetailSymStdANSI
  3
"Amdt_StdImp|Product Description: AutoCAD Mechanical|Company: Autodesk, Inc."
 90
     1024
280
     0
281
     0
  0
CLASS
  1
ACMSECTIONSTANDARDANSI
  2
AmdtSectionSymStdANSI
  3
"Amdt_StdImp|Product Description: AutoCAD Mechanical|Company: Autodesk, Inc."
 90
     1024
280
     0
281
     0
  0
CLASS
  1
ACMCENTERLINESTANDARDANSI
  2
AmdtCenterLineStdANSI
  3
"Amdt_StdImp|Product Description: AutoCAD Mechanical|Company: Autodesk, Inc."
 90
     1024
280
     0
281
     0
  0
CLASS
  1
ACMTHREADLINESTANDARDANSI
  2
AmdtThreadLineStdANSI
  3
"Amdt_StdImp|Product Description: AutoCAD Mechanical|Company: Autodesk, Inc."
 90
     1024
280
     0
281
     0
  0
CLASS
  1
ACMNOTESTANDARDANSI
  2
AmdtNoteStdANSI
  3
"Amdt_StdImp|Product Description: AutoCAD Mechanical|Company: Autodesk, Inc."
 90
     1024
280
     0
281
     0
  0
CLASS
  1
ACMTAPERSTANDARDANSI
  2
AcmTaperStdANSI
  3
"Amdt_StdImp|Product Description: AutoCAD Mechanical|Company: Autodesk, Inc."
 90
     1024
280
     0
281
     0
  0
CLASS
  1
ACMANOOTATIONVIEWSTANDARDANSI
  2
AmdtAnViewStdANSI
  3
"Amdt_StdImp|Product Description: AutoCAD Mechanical|Company: Autodesk, Inc."
 90
     1024
280
     0
281
     0
  0
CLASS
  1
ACAMGLAYSTD
  2
AcAmgLayStd
  3
"AmgLay|Product Description: AutoCAD Mechanical|Company: Autodesk, Inc."
 90
     1024
280
     0
281
     0
  0
CLASS
  1
ACAMGDIMSTD
  2
AcAmgDimStd
  3
"AmgDim|Product Description: AutoCAD Mechanical|Company: Autodesk, Inc."
 90
     1024
280
     0
281
     0
  0
CLASS
  1
AMGOBJPROPCFG
  2
AmgObjPropCfg
  3
"AmgLay|Product Description: AutoCAD Mechanical|Company: Autodesk, Inc."
 90
     1025
280
     0
281
     0
  0
CLASS
  1
ACAMGHOLECHARTSTDANSI
  2
AcAmgHoleChartStdANSI
  3
AmgDim|Product Description: AutoCAD Mechanical|Company: Autodesk, Inc.
 90
     1024
280
     0
281
     0
  0
CLASS
  1
ACAMGTITLESTD
  2
AcAmgTitleStd
  3
"AmgTitle|Product Description: AutoCAD Mechanical|Company: Autodesk, Inc."
 90
     4095
280
     0
281
     0
  0
CLASS
  1
AMDTNOTETEMPLATEDB
  2
AmdtNoteTemplateDB
  3
AcmSymBB|Product Description: AutoCAD Mechanical|Company: Autodesk, Inc.
 90
     1024
280
     0
281
     0
  0
CLASS
  1
ACAMGFILTERDAT
  2
AcAmgFilterDat
  3
"AcadM|Product Description: AutoCAD Mechanical|Company: Autodesk, Inc."
 90
     1024
280
     0
281
     0
  0
CLASS
  1
DICTIONARYVAR
  2
AcDbDictionaryVar
  3
ObjectDBX Classes
 90
        0
280
     0
281
     0
  0
CLASS
  1
CELLSTYLEMAP
  2
AcDbCellStyleMap
  3
ObjectDBX Classes
 90
     1152
280
     0
281
     0
  0
CLASS
  1
ACDBPLACEHOLDER
  2
AcDbPlaceHolder
  3
ObjectDBX Classes
 90
        0
280
     0
281
     0
  0
CLASS
  1
LAYOUT
  2
AcDbLayout
  3
ObjectDBX Classes
 90
        0
280
     0
281
     0
  0
ENDSEC
  0
SECTION
  2
TABLES
  0
TABLE
  2
VPORT
  5
8
330
0
100
AcDbSymbolTable
 70
     1
  0
VPORT
  5
CE3
330
8
100
AcDbSymbolTableRecord
100
AcDbViewportTableRecord
  2
*ACTIVE
 70
     0
 10
0.0
 20
0.0
 11
1.0
 21
1.0
 12
4.795373016719594
 22
-52.76267121819663
 13
0.0
 23
0.0
 14
5.0
 24
5.0
 15
50.0
 25
50.0
 16
0.0
 26
0.0
 36
1.0
 17
0.0
 27
0.0
 37
0.0
 40
200.5685292605999
 41
1.548186528497409
 42
50.0
 43
0.0
 44
0.0
 50
0.0
 51
0.0
 71
     0
 72
   100
 73
     1
 74
     0
 75
     0
 76
     0
 77
     0
 78
     0
281
     0
 65
     1
110
0.0
120
0.0
130
0.0
111
1.0
121
0.0
131
0.0
112
0.0
122
1.0
132
0.0
 79
     0
146
0.0
  0
ENDTAB
  0
TABLE
  2
LTYPE
  5
5
330
0
100
AcDbSymbolTable
 70
    22
  0
LTYPE
  5
14
330
5
100
AcDbSymbolTableRecord
100
AcDbLinetypeTableRecord
  2
BYBLOCK
 70
     0
  3

 72
    65
 73
     0
 40
0.0
  0
LTYPE
  5
15
330
5
100
AcDbSymbolTableRecord
100
AcDbLinetypeTableRecord
  2
BYLAYER
 70
     0
  3

 72
    65
 73
     0
 40
0.0
  0
LTYPE
  5
16
330
5
100
AcDbSymbolTableRecord
100
AcDbLinetypeTableRecord
  2
CONTINUOUS
 70
     0
  3
Solid line
 72
    65
 73
     0
 40
0.0
  0
LTYPE
  5
107
330
5
100
AcDbSymbolTableRecord
100
AcDbLinetypeTableRecord
  2
GEN7
 70
     0
  3
____ . ____ . ____ . ____ . ____ . ____ . ____
 72
    65
 73
     4
 40
13.75
 49
10.0
 74
     0
 49
-1.25
 74
     0
 49
1.25
 74
     0
 49
-1.25
 74
     0
  0
LTYPE
  5
108
330
5
100
AcDbSymbolTableRecord
100
AcDbLinetypeTableRecord
  2
GEN3
 70
     0
  3
-- -- -- -- -- -- -- -- -- -- -- -- -- -- --
 72
    65
 73
     2
 40
6.25
 49
5.0
 74
     0
 49
-1.25
 74
     0
  0
LTYPE
  5
109
330
5
100
AcDbSymbolTableRecord
100
AcDbLinetypeTableRecord
  2
GEN4A
 70
     0
  3
_____ . . _____ . . _____ . . ____ .. ____
 72
    65
 73
     6
 40
16.25
 49
10.0
 74
     0
 49
-1.25
 74
     0
 49
1.25
 74
     0
 49
-1.25
 74
     0
 49
1.25
 74
     0
 49
-1.25
 74
     0
  0
LTYPE
  5
10A
330
5
100
AcDbSymbolTableRecord
100
AcDbLinetypeTableRecord
  2
GEN7A
 70
     0
  3
__ . __ . __
 72
    65
 73
     4
 40
6.875
 49
5.0
 74
     0
 49
-0.625
 74
     0
 49
0.625
 74
     0
 49
-0.625
 74
     0
  0
LTYPE
  5
10B
330
5
100
AcDbSymbolTableRecord
100
AcDbLinetypeTableRecord
  2
GEN3A
 70
     0
  3
 - - - - -
 72
    65
 73
     2
 40
3.125
 49
2.5
 74
     0
 49
-0.625
 74
     0
  0
LTYPE
  5
D72
330
5
100
AcDbSymbolTableRecord
100
AcDbLinetypeTableRecord
  2
HIDDEN
 70
     0
  3
Verdeckt
 72
    65
 73
     2
 40
0.375
 49
0.25
 74
     0
 49
-0.125
 74
     0
  0
LTYPE
  5
D73
330
5
100
AcDbSymbolTableRecord
100
AcDbLinetypeTableRecord
  2
PHANTOM2
 70
     0
  3
Phantom (.5x) ___ _ _ ___ _ _ ___ _ _ ___ _ _
 72
    65
 73
     6
 40
1.25
 49
0.625
 74
     0
 49
-0.125
 74
     0
 49
0.125
 74
     0
 49
-0.125
 74
     0
 49
0.125
 74
     0
 49
-0.125
 74
     0
  0
LTYPE
  5
D74
330
5
100
AcDbSymbolTableRecord
100
AcDbLinetypeTableRecord
  2
CENTER
 70
     0
  3
Mitte ____ _ ____ _ ____ _ ____ _ ____ _ ____
 72
    65
 73
     4
 40
2.0
 49
1.25
 74
     0
 49
-0.25
 74
     0
 49
0.25
 74
     0
 49
-0.25
 74
     0
  0
LTYPE
  5
DB9
330
5
100
AcDbSymbolTableRecord
100
AcDbLinetypeTableRecord
  2
AM_ISO02W050
 70
     0
  3
__ __ __ __ __ __ __ __ __ __ __ __ __ __ __
 72
    65
 73
     2
 40
7.5
 49
6.0
 74
     0
 49
-1.5
 74
     0
  0
LTYPE
  5
DBA
330
5
100
AcDbSymbolTableRecord
100
AcDbLinetypeTableRecord
  2
AM_ISO08W050
 70
     0
  3
____ . ____ . ____ . ____ . ____ . ____ . ____
 72
    65
 73
     4
 40
18.0
 49
12.0
 74
     0
 49
-1.5
 74
     0
 49
3.0
 74
     0
 49
-1.5
 74
     0
  0
LTYPE
  5
DBB
330
5
100
AcDbSymbolTableRecord
100
AcDbLinetypeTableRecord
  2
AM_ISO09W050
 70
     0
  3
_____ . . _____ . . _____ . . ____ .. ____
 72
    65
 73
     6
 40
22.5
 49
12.0
 74
     0
 49
-1.5
 74
     0
 49
3.0
 74
     0
 49
-1.5
 74
     0
 49
3.0
 74
     0
 49
-1.5
 74
     0
  0
LTYPE
  5
DBC
330
5
100
AcDbSymbolTableRecord
100
AcDbLinetypeTableRecord
  2
Amconstr
 70
     0
  3
_______________________
 72
    65
 73
     2
 40
9999.0
 49
9999.0
 74
     0
 49
0.0
 74
     0
  0
LTYPE
  5
DBD
330
5
100
AcDbSymbolTableRecord
100
AcDbLinetypeTableRecord
  2
AM_ISO08W050x2
 70
     0
  3
__ . __ . __ . __ . __ . __
 72
    65
 73
     4
 40
9.0
 49
6.0
 74
     0
 49
-0.75
 74
     0
 49
1.5
 74
     0
 49
-0.75
 74
     0
  0
LTYPE
  5
DBE
330
5
100
AcDbSymbolTableRecord
100
AcDbLinetypeTableRecord
  2
AM_ISO02W050x2
 70
     0
  3
 _ _ _ _ _ _ _ _ _ _ _ _
 72
    65
 73
     2
 40
3.75
 49
3.0
 74
     0
 49
-0.75
 74
     0
  0
LTYPE
  5
DC1
330
5
100
AcDbSymbolTableRecord
100
AcDbLinetypeTableRecord
  2
Amzigzag
 70
     0
  3
/\/-/\/-/\/-/\/-/\/-/\/
 72
    65
 73
     2
 40
11.0001
 49
0.0001
 74
     4
 75
   136
340
DC0
 46
0.04
 50
0.0
 44
0.0
 45
0.0
 49
-11.0
 74
     0
  0
LTYPE
  5
DC2
330
5
100
AcDbSymbolTableRecord
100
AcDbLinetypeTableRecord
  2
CENTER2
 70
     0
  3
Center (.5x) ___ _ ___ _ ___ _ ___ _ ___ _ ___
 72
    65
 73
     4
 40
1.125
 49
0.75
 74
     0
 49
-0.125
 74
     0
 49
0.125
 74
     0
 49
-0.125
 74
     0
  0
LTYPE
  5
DC3
330
5
100
AcDbSymbolTableRecord
100
AcDbLinetypeTableRecord
  2
HIDDEN2
 70
     0
  3
Hidden (.5x) _ _ _ _ _ _ _ _ _ _ _ _ _ _ _ _ _
 72
    65
 73
     2
 40
0.1875
 49
0.125
 74
     0
 49
-0.0625
 74
     0
  0
LTYPE
  5
DC4
330
5
100
AcDbSymbolTableRecord
100
AcDbLinetypeTableRecord
  2
Amzigzag2
 70
     0
  3
/\/-/\/-/\/-/\/-/\/-/\/
 72
    65
 73
     2
 40
0.4401
 49
0.0001
 74
     4
 75
   136
340
DC0
 46
0.0016
 50
0.0
 44
0.0
 45
0.0
 49
-0.4400000000000001
 74
     0
  0
LTYPE
  5
DD2
330
5
100
AcDbSymbolTableRecord
100
AcDbLinetypeTableRecord
  2
ACANSTGBM
 70
     0
  3
__ . . __ . .
 72
    65
 73
     6
 40
9.0
 49
4.0
 74
     0
 49
-1.0
 74
     0
 49
1.0
 74
     0
 49
-1.0
 74
     0
 49
1.0
 74
     0
 49
-1.0
 74
     0
  0
LTYPE
  5
DD3
330
5
100
AcDbSymbolTableRecord
100
AcDbLinetypeTableRecord
  2
ACANSTGLM
 70
     0
  3
_ _ _ _ _
 72
    65
 73
     2
 40
3.0
 49
2.0
 74
     0
 49
-1.0
 74
     0
  0
LTYPE
  5
DE1
330
5
100
AcDbSymbolTableRecord
100
AcDbLinetypeTableRecord
  2
genzigzag
 70
     0
  3
/\/-/\/-/\/-/\/-/\/-/\/
 72
    65
 73
     2
 40
12.0001
 49
0.0001
 74
     4
 75
   135
340
DC0
 46
2.0
 50
0.0
 44
0.0
 45
0.0
 49
-12.0
 74
     0
  0
ENDTAB
  0
TABLE
  2
LAYER
  5
2
330
0
100
AcDbSymbolTable
 70
    17
  0
LAYER
  5
F
330
2
100
AcDbSymbolTableRecord
100
AcDbLayerTableRecord
  2
0
 70
     0
 62
     7
  6
CONTINUOUS
370
    -3
390
CE6
  0
LAYER
  5
10C
330
2
100
AcDbSymbolTableRecord
100
AcDbLayerTableRecord
  2
MSR_I1_2-0
 70
     0
 62
     7
  6
CONTINUOUS
370
    -3
390
CE6
  0
LAYER
  5
10D
330
2
100
AcDbSymbolTableRecord
100
AcDbLayerTableRecord
  2
MSR_I1_2-4
 70
     0
 62
     3
  6
CONTINUOUS
370
    -3
390
CE6
  0
LAYER
  5
10E
330
2
100
AcDbSymbolTableRecord
100
AcDbLayerTableRecord
  2
MSR_I1_2-7
 70
     0
 62
     4
  6
GEN7
370
    -3
390
CE6
  0
LAYER
  5
10F
330
2
100
AcDbSymbolTableRecord
100
AcDbLayerTableRecord
  2
MSR_I1_2-3
 70
     0
 62
     6
  6
GEN3
370
    -3
390
CE6
  0
LAYER
  5
110
330
2
100
AcDbSymbolTableRecord
100
AcDbLayerTableRecord
  2
MSR_I1_2-6
 70
     0
 62
     2
  6
CONTINUOUS
370
    -3
390
CE6
  0
LAYER
  5
111
330
2
100
AcDbSymbolTableRecord
100
AcDbLayerTableRecord
  2
MSR_I1_2-8
 70
     0
 62
     1
  6
CONTINUOUS
370
    -3
390
CE6
  0
LAYER
  5
112
330
2
100
AcDbSymbolTableRecord
100
AcDbLayerTableRecord
  2
INFO
 70
     0
 62
     4
  6
CONTINUOUS
370
    -3
390
CE6
  0
LAYER
  5
113
330
2
100
AcDbSymbolTableRecord
100
AcDbLayerTableRecord
  2
MSR_I1_2-0N
 70
     0
 62
     7
  6
CONTINUOUS
370
    -3
390
CE6
  0
LAYER
  5
114
330
2
100
AcDbSymbolTableRecord
100
AcDbLayerTableRecord
  2
MSR_I1_2-4A
 70
     0
 62
     3
  6
GEN4A
370
    -3
390
CE6
  0
LAYER
  5
115
330
2
100
AcDbSymbolTableRecord
100
AcDbLayerTableRecord
  2
MSR_I1_2-7A
 70
     0
 62
     4
  6
GEN7A
370
    -3
390
CE6
  0
LAYER
  5
116
330
2
100
AcDbSymbolTableRecord
100
AcDbLayerTableRecord
  2
GEV_FROZEN
 70
     1
 62
     7
  6
CONTINUOUS
370
    -3
390
CE6
  0
LAYER
  5
117
330
2
100
AcDbSymbolTableRecord
100
AcDbLayerTableRecord
  2
-BHMU
 70
     0
 62
     7
  6
CONTINUOUS
370
    -3
390
CE6
  0
LAYER
  5
118
330
2
100
AcDbSymbolTableRecord
100
AcDbLayerTableRecord
  2
BHMM
 70
     0
 62
     7
  6
CONTINUOUS
370
    -3
390
CE6
  0
LAYER
  5
119
330
2
100
AcDbSymbolTableRecord
100
AcDbLayerTableRecord
  2
THLI
 70
     0
 62
     7
  6
CONTINUOUS
370
    -3
390
CE6
  0
LAYER
  5
11A
330
2
100
AcDbSymbolTableRecord
100
AcDbLayerTableRecord
  2
CENN
 70
     0
 62
     7
  6
CONTINUOUS
370
    -3
390
CE6
  0
LAYER
  5
11B
330
2
100
AcDbSymbolTableRecord
100
AcDbLayerTableRecord
  2
MSR_I1_2-3A
 70
     0
 62
     6
  6
GEN3A
370
    -3
390
CE6
  0
ENDTAB
  0
TABLE
  2
STYLE
  5
3
330
0
100
AcDbSymbolTable
 70
     4
  0
STYLE
  5
10
330
3
100
AcDbSymbolTableRecord
100
AcDbTextStyleTableRecord
  2
STANDARD
 70
     0
 40
0.0
 41
1.0
 50
0.0
 71
     0
 42
3.5
  3
ISOCP.SHX
  4

  0
STYLE
  5
DC0
330
3
100
AcDbSymbolTableRecord
100
AcDbTextStyleTableRecord
  2

 70
     1
 40
0.0
 41
1.0
 50
0.0
 71
     0
 42
3.5
  3
genltshp.shx
  4

  0
STYLE
  5
DD0
330
3
100
AcDbSymbolTableRecord
100
AcDbTextStyleTableRecord
  2
ACANSTS
 70
     0
 40
1.0
 41
1.0
 50
0.0
 71
     0
 42
3.5
  3
romans.shx
  4

  0
STYLE
  5
DD1
330
3
100
AcDbSymbolTableRecord
100
AcDbTextStyleTableRecord
  2
ACANSGDT
 70
     0
 40
0.0
 41
1.0
 50
0.0
 71
     0
 42
3.5
  3
amgdt.shx
  4

  0
ENDTAB
  0
TABLE
  2
VIEW
  5
6
330
0
100
AcDbSymbolTable
 70
     0
  0
ENDTAB
  0
TABLE
  2
UCS
  5
7
330
0
100
AcDbSymbolTable
 70
     0
  0
ENDTAB
  0
TABLE
  2
APPID
  5
9
330
0
100
AcDbSymbolTable
 70
    72
  0
APPID
  5
11
330
9
100
AcDbSymbolTableRecord
100
AcDbRegAppTableRecord
  2
ACAD
 70
     0
  0
APPID
  5
29
330
9
100
AcDbSymbolTableRecord
100
AcDbRegAppTableRecord
  2
GENIUS_GENCFG_13
 70
     0
1001
GENIUS_GENCFG0_13
1000
GEN@INFO_POS@XLATE
1001
GENIUS_GENCFG1_13
1000
GEN@LAYER@DEFS
1001
GENIUS_GENCFG2_13
1000
GEN@LAYER@ENTSORT
1001
GENIUS_GENCFG3_13
1000
GEN@OSWIZ
1001
GENIUS_GENCFG4_13
1000
GEN
1001
GENIUS_GEVCFG0_13
1000
GEV
1001
GENIUS_GEFCFG0_13
1000
GEF
  0
APPID
  5
2A
330
9
100
AcDbSymbolTableRecord
100
AcDbRegAppTableRecord
  2
GENIUS_GENCFG0_13
 70
     0
1001
GENIUS_GENCFG_13
1071
862825278
1000
2A
1000
GEN@INFO_POS@XLATE
1070
     7
1000
GenCfgObject
1000
GenCfgShort
1000
GenCfgReal
1000
GenCfgBool
1000
GenCfgString
1000
GenCfgDim
1000
GenCfgAttrInf
1000
INFOPOINTS
1070
     0
1002
{
1000
GENINF13
1070
     0
1002
{
1000
2GENINF
1070
     4
1000
2
1002
{
1002
}
1000
3GENINF
1070
     4
1000
3
1002
{
1002
}
1000
4GENINF
1070
     4
1000
4
1002
{
1002
}
1000
5GENINF
1070
     4
1000
5
1002
{
1002
}
1000
6GENINF
1070
     4
1000
6
1002
{
1002
}
1000
7GENINF
1070
     4
1000
7
1002
{
1002
}
1000
8GENINF
1070
     4
1000
8
1002
{
1002
}
1000
9GENINF
1070
     4
1000
9
1002
{
1002
}
1000
10GENINF
1070
     4
1000
10
1002
{
1002
}
1000
11GENINF
1070
     4
1000
11
1002
{
1002
}
1000
12GENINF
1070
     4
1000
12
1002
{
1002
}
1000
13GENINF
1070
     4
1000
13
1002
{
1002
}
1000
14GENINF
1070
     4
1000
14
1002
{
1002
}
1000
15GENINF
1070
     4
1000
15
1002
{
1002
}
1000
16GENINF
1070
     4
1000
16
1002
{
1002
}
1000
17GENINF
1070
     4
1000
17
1002
{
1002
}
1000
18GENINF
1070
     4
1000
18
1002
{
1002
}
1000
19GENINF
1070
     4
1000
19
1002
{
1002
}
1000
20GENINF
1070
     4
1000
20
1002
{
1002
}
1000
21GENINF
1070
     4
1000
21
1002
{
1002
}
1000
22GENINF
1070
     4
1000
22
1002
{
1002
}
1000
23GENINF
1070
     4
1000
23
1002
{
1002
}
1000
24GENINF
1070
     4
1000
24
1002
{
1002
}
1000
0GENINF
1070
     4
1000
0
1002
{
1002
}
1002
}
1000
GENINFO
1070
     0
1002
{
1000
3GENINF
1070
     4
1000
3
1002
{
1002
}
1000
4GENINF
1070
     4
1000
4
1002
{
1002
}
1000
5GENINF
1070
     4
1000
5
1002
{
1002
}
1000
6GENINF
1070
     4
1000
6
1002
{
1002
}
1000
7GENINF
1070
     4
1000
7
1002
{
1002
}
1000
8GENINF
1070
     4
1000
8
1002
{
1002
}
1000
9GENINF
1070
     4
1000
9
1002
{
1002
}
1000
10GENINF
1070
     4
1000
10
1002
{
1002
}
1000
11GENINF
1070
     4
1000
11
1002
{
1002
}
1000
12GENINF
1070
     4
1000
12
1002
{
1002
}
1000
13GENINF
1070
     4
1000
13
1002
{
1002
}
1000
14GENINF
1070
     4
1000
14
1002
{
1002
}
1000
15GENINF
1070
     4
1000
15
1002
{
1002
}
1000
16GENINF
1070
     4
1000
16
1002
{
1002
}
1000
17GENINF
1070
     4
1000
17
1002
{
1002
}
1000
18GENINF
1070
     4
1000
18
1002
{
1002
}
1000
19GENINF
1070
     4
1000
19
1002
{
1002
}
1000
20GENINF
1070
     4
1000
20
1002
{
1002
}
1000
21GENINF
1070
     4
1000
21
1002
{
1002
}
1000
22GENINF
1070
     4
1000
22
1002
{
1002
}
1002
}
1000
DININFO
1070
     0
1002
{
1000
ST-NAME1
1070
     4
1000
5
1002
{
1002
}
1000
ST-NAME2
1070
     4
1000
6
1002
{
1002
}
1000
ST-NORM1
1070
     4
1000
7
1002
{
1002
}
1000
ST-NORM2
1070
     4
1000
8
1002
{
1002
}
1000
ST-MAT1
1070
     4
1000
9
1002
{
1002
}
1000
ST-MAT2
1070
     4
1000
10
1002
{
1002
}
1002
}
1002
}
1000
POS_NUMBERS
1070
     0
1002
{
1000
GENPOS13
1070
     0
1002
{
1000
1GENPOS
1070
     4
1000
1
1002
{
1002
}
1000
2GENPOS
1070
     4
1000
2
1002
{
1002
}
1000
3GENPOS
1070
     4
1000
3
1002
{
1002
}
1000
4GENPOS
1070
     4
1000
4
1002
{
1002
}
1000
5GENPOS
1070
     4
1000
5
1002
{
1002
}
1000
6GENPOS
1070
     4
1000
6
1002
{
1002
}
1000
7GENPOS
1070
     4
1000
7
1002
{
1002
}
1000
8GENPOS
1070
     4
1000
8
1002
{
1002
}
1000
9GENPOS
1070
     4
1000
9
1002
{
1002
}
1000
10GENPOS
1070
     4
1000
10
1002
{
1002
}
1000
11GENPOS
1070
     4
1000
11
1002
{
1002
}
1000
12GENPOS
1070
     4
1000
12
1002
{
1002
}
1000
13GENPOS
1070
     4
1000
13
1002
{
1002
}
1000
14GENPOS
1070
     4
1000
14
1002
{
1002
}
1000
15GENPOS
1070
     4
1000
15
1002
{
1002
}
1000
16GENPOS
1070
     4
1000
16
1002
{
1002
}
1000
17GENPOS
1070
     4
1000
17
1002
{
1002
}
1000
18GENPOS
1070
     4
1000
18
1002
{
1002
}
1000
19GENPOS
1070
     4
1000
19
1002
{
1002
}
1000
20GENPOS
1070
     4
1000
20
1002
{
1002
}
1000
21GENPOS
1070
     4
1000
21
1002
{
1002
}
1000
22GENPOS
1070
     4
1000
22
1002
{
1002
}
1000
23GENPOS
1070
     4
1000
23
1002
{
1002
}
1000
24GENPOS
1070
     4
1000
24
1002
{
1002
}
1000
0GENPOS
1070
     4
1000
0
1002
{
1002
}
1002
}
1000
GENPOS
1070
     0
1002
{
1000
1GENPOS
1070
     4
1000
1
1002
{
1002
}
1000
2GENPOS
1070
     4
1000
2
1002
{
1002
}
1000
3GENPOS
1070
     4
1000
3
1002
{
1002
}
1000
4GENPOS
1070
     4
1000
4
1002
{
1002
}
1000
5GENPOS
1070
     4
1000
5
1002
{
1002
}
1000
6GENPOS
1070
     4
1000
6
1002
{
1002
}
1000
7GENPOS
1070
     4
1000
7
1002
{
1002
}
1000
8GENPOS
1070
     4
1000
8
1002
{
1002
}
1000
9GENPOS
1070
     4
1000
9
1002
{
1002
}
1000
10GENPOS
1070
     4
1000
10
1002
{
1002
}
1000
11GENPOS
1070
     4
1000
11
1002
{
1002
}
1000
12GENPOS
1070
     4
1000
12
1002
{
1002
}
1000
13GENPOS
1070
     4
1000
13
1002
{
1002
}
1000
14GENPOS
1070
     4
1000
14
1002
{
1002
}
1000
15GENPOS
1070
     4
1000
15
1002
{
1002
}
1000
16GENPOS
1070
     4
1000
16
1002
{
1002
}
1000
17GENPOS
1070
     4
1000
17
1002
{
1002
}
1000
18GENPOS
1070
     4
1000
18
1002
{
1002
}
1000
19GENPOS
1070
     4
1000
19
1002
{
1002
}
1000
20GENPOS
1070
     4
1000
20
1002
{
1002
}
1000
21GENPOS
1070
     4
1000
21
1002
{
1002
}
1000
22GENPOS
1070
     4
1000
22
1002
{
1002
}
1000
23GENPOS
1070
     4
1000
23
1002
{
1002
}
1002
}
1000
DIN985
1070
     0
1002
{
1000
POSITION
1070
     4
1000
1
1002
{
1002
}
1000
MENGE
1070
     4
1000
2
1002
{
1002
}
1000
BLATT
1070
     4
1000
3
1002
{
1002
}
1000
BENENN
1070
     4
1000
5
1002
{
1002
}
1000
BENENN2
1070
     4
1000
6
1002
{
1002
}
1000
NORM
1070
     4
1000
7
1002
{
1002
}
1000
NORM2
1070
     4
1000
8
1002
{
1002
}
1000
WERKSTOFF
1070
     4
1000
9
1002
{
1002
}
1000
WERKSTOFF2
1070
     4
1000
10
1002
{
1002
}
1002
}
1000
DIN986
1070
     0
1002
{
1000
POSITION
1070
     4
1000
1
1002
{
1002
}
1000
MENGE
1070
     4
1000
2
1002
{
1002
}
1000
BLATT
1070
     4
1000
3
1002
{
1002
}
1000
BENENN
1070
     4
1000
5
1002
{
1002
}
1000
BENENN2
1070
     4
1000
6
1002
{
1002
}
1000
NORM
1070
     4
1000
7
1002
{
1002
}
1000
NORM2
1070
     4
1000
8
1002
{
1002
}
1000
WERKSTOFF
1070
     4
1000
9
1002
{
1002
}
1000
WERKSTOFF2
1070
     4
1000
10
1002
{
1002
}
1002
}
1000
DIN987
1070
     0
1002
{
1000
POSITION
1070
     4
1000
1
1002
{
1002
}
1000
MENGE
1070
     4
1000
2
1002
{
1002
}
1000
BLATT
1070
     4
1000
3
1002
{
1002
}
1000
BENENN
1070
     4
1000
5
1002
{
1002
}
1000
BENENN2
1070
     4
1000
6
1002
{
1002
}
1000
NORM
1070
     4
1000
7
1002
{
1002
}
1000
NORM2
1070
     4
1000
8
1002
{
1002
}
1000
WERKSTOFF
1070
     4
1000
9
1002
{
1002
}
1000
WERKSTOFF2
1070
     4
1000
10
1002
{
1002
}
1002
}
1002
}
  0
APPID
  5
2B
330
9
100
AcDbSymbolTableRecord
100
AcDbRegAppTableRecord
  2
GENIUS_GENCFG1_13
 70
     0
1001
GENIUS_GENCFG_13
1071
862825278
1000
2B
1000
GEN@LAYER@DEFS
1070
     9
1000
GenCfgObject
1000
GenCfgShort
1000
GenCfgReal
1000
GenCfgBool
1000
GenCfgString
1000
GenCfgDim
1000
GenCfgAttrInf
1000
GenCfgLaySection
1000
GenCfgLayer
1000
Basic
1070
     0
1002
{
1000
0
1070
     8
1000
0
1002
{
1000
Color
1070
     1
1070
     7
1002
{
1002
}
1000
LType
1070
     4
1000
CONTINUOUS
1002
{
1002
}
1000
Base
1070
     3
1070
     0
1002
{
1002
}
1002
}
1000
1
1070
     8
1000
1
1002
{
1000
Color
1070
     1
1070
    14
1002
{
1002
}
1000
LType
1070
     4
1000
CONTINUOUS
1002
{
1002
}
1000
Base
1070
     3
1070
     0
1002
{
1002
}
1002
}
1000
2
1070
     8
1000
2
1002
{
1000
Color
1070
     1
1070
     5
1002
{
1002
}
1000
LType
1070
     4
1000
CONTINUOUS
1002
{
1002
}
1000
Base
1070
     3
1070
     0
1002
{
1002
}
1002
}
1000
3
1070
     8
1000
3
1002
{
1000
Color
1070
     1
1070
     6
1002
{
1002
}
1000
LType
1070
     4
1000
GEN3
1002
{
1002
}
1000
Base
1070
     3
1070
     0
1002
{
1002
}
1002
}
1000
4
1070
     8
1000
4
1002
{
1000
Color
1070
     1
1070
     3
1002
{
1002
}
1000
LType
1070
     4
1000
CONTINUOUS
1002
{
1002
}
1000
Base
1070
     3
1070
     0
1002
{
1002
}
1002
}
1000
5
1070
     8
1000
5
1002
{
1000
Color
1070
     1
1070
     3
1002
{
1002
}
1000
LType
1070
     4
1000
CONTINUOUS
1002
{
1002
}
1000
Base
1070
     3
1070
     0
1002
{
1002
}
1002
}
1000
6
1070
     8
1000
6
1002
{
1000
Color
1070
     1
1070
     2
1002
{
1002
}
1000
LType
1070
     4
1000
CONTINUOUS
1002
{
1002
}
1000
Base
1070
     3
1070
     0
1002
{
1002
}
1002
}
1000
7
1070
     8
1000
7
1002
{
1000
Color
1070
     1
1070
     4
1002
{
1002
}
1000
LType
1070
     4
1000
GEN7
1002
{
1002
}
1000
Base
1070
     3
1070
     0
1002
{
1002
}
1002
}
1000
8
1070
     8
1000
8
1002
{
1000
Color
1070
     1
1070
     1
1002
{
1002
}
1000
LType
1070
     4
1000
CONTINUOUS
1002
{
1002
}
1000
Base
1070
     3
1070
     0
1002
{
1002
}
1002
}
1000
3A
1070
     8
1000
3A
1002
{
1000
Color
1070
     1
1070
     6
1002
{
1002
}
1000
LType
1070
     4
1000
GEN3A
1002
{
1002
}
1000
Base
1070
     3
1070
     0
1002
{
1002
}
1002
}
1000
7A
1070
     8
1000
7A
1002
{
1000
Color
1070
     1
1070
     4
1002
{
1002
}
1000
LType
1070
     4
1000
GEN7A
1002
{
1002
}
1000
Base
1070
     3
1070
     0
1002
{
1002
}
1002
}
1000
2A
1070
     8
1000
2A
1002
{
1000
Color
1070
     1
1070
     7
1002
{
1002
}
1000
LType
1070
     4
1000
GEN7
1002
{
1002
}
1000
Base
1070
     3
1070
     0
1002
{
1002
}
1002
}
1000
4A
1070
     8
1000
4A
1002
{
1000
Color
1070
     1
1070
     3
1002
{
1002
}
1000
LType
1070
     4
1000
GEN4A
1002
{
1002
}
1000
Base
1070
     3
1070
     0
1002
{
1002
}
1002
}
1000
9
1070
     8
1000
9
1002
{
1000
Color
1070
     1
1070
   253
1002
{
1002
}
1000
LType
1070
     4
1000
CONTINUOUS
1002
{
1002
}
1000
Base
1070
     3
1070
     0
1002
{
1002
}
1002
}
1002
}
1000
Standard
1070
     0
1002
{
1000
0N
1070
     8
1000
0N
1002
{
1000
Color
1070
     1
1070
     7
1002
{
1002
}
1000
LType
1070
     4
1000
CONTINUOUS
1002
{
1002
}
1000
Base
1070
     3
1070
     0
1002
{
1002
}
1002
}
1000
1N
1070
     8
1000
1N
1002
{
1000
Color
1070
     1
1070
    14
1002
{
1002
}
1000
LType
1070
     4
1000
CONTINUOUS
1002
{
1002
}
1000
Base
1070
     3
1070
     0
1002
{
1002
}
1002
}
1000
2N
1070
     8
1000
2N
1002
{
1000
Color
1070
     1
1070
     5
1002
{
1002
}
1000
LType
1070
     4
1000
CONTINUOUS
1002
{
1002
}
1000
Base
1070
     3
1070
     0
1002
{
1002
}
1002
}
1000
3N
1070
     8
1000
3N
1002
{
1000
Color
1070
     1
1070
     6
1002
{
1002
}
1000
LType
1070
     4
1000
GEN3
1002
{
1002
}
1000
Base
1070
     3
1070
     0
1002
{
1002
}
1002
}
1000
4N
1070
     8
1000
4N
1002
{
1000
Color
1070
     1
1070
     3
1002
{
1002
}
1000
LType
1070
     4
1000
CONTINUOUS
1002
{
1002
}
1000
Base
1070
     3
1070
     0
1002
{
1002
}
1002
}
1000
5N
1070
     8
1000
5N
1002
{
1000
Color
1070
     1
1070
     3
1002
{
1002
}
1000
LType
1070
     4
1000
CONTINUOUS
1002
{
1002
}
1000
Base
1070
     3
1070
     0
1002
{
1002
}
1002
}
1000
6N
1070
     8
1000
6N
1002
{
1000
Color
1070
     1
1070
     2
1002
{
1002
}
1000
LType
1070
     4
1000
CONTINUOUS
1002
{
1002
}
1000
Base
1070
     3
1070
     0
1002
{
1002
}
1002
}
1000
7N
1070
     8
1000
7N
1002
{
1000
Color
1070
     1
1070
     4
1002
{
1002
}
1000
LType
1070
     4
1000
GEN7
1002
{
1002
}
1000
Base
1070
     3
1070
     0
1002
{
1002
}
1002
}
1000
8N
1070
     8
1000
8N
1002
{
1000
Color
1070
     1
1070
     1
1002
{
1002
}
1000
LType
1070
     4
1000
CONTINUOUS
1002
{
1002
}
1000
Base
1070
     3
1070
     0
1002
{
1002
}
1002
}
1000
3AN
1070
     8
1000
3AN
1002
{
1000
Color
1070
     1
1070
     6
1002
{
1002
}
1000
LType
1070
     4
1000
GEN3A
1002
{
1002
}
1000
Base
1070
     3
1070
     0
1002
{
1002
}
1002
}
1000
7AN
1070
     8
1000
7AN
1002
{
1000
Color
1070
     1
1070
     4
1002
{
1002
}
1000
LType
1070
     4
1000
GEN7A
1002
{
1002
}
1000
Base
1070
     3
1070
     0
1002
{
1002
}
1002
}
1000
2AN
1070
     8
1000
2AN
1002
{
1000
Color
1070
     1
1070
     7
1002
{
1002
}
1000
LType
1070
     4
1000
GEN7
1002
{
1002
}
1000
Base
1070
     3
1070
     0
1002
{
1002
}
1002
}
1000
4AN
1070
     8
1000
4AN
1002
{
1000
Color
1070
     1
1070
     3
1002
{
1002
}
1000
LType
1070
     4
1000
GEN4A
1002
{
1002
}
1000
Base
1070
     3
1070
     0
1002
{
1002
}
1002
}
1000
9N
1070
     8
1000
9N
1002
{
1000
Color
1070
     1
1070
   253
1002
{
1002
}
1000
LType
1070
     4
1000
CONTINUOUS
1002
{
1002
}
1000
Base
1070
     3
1070
     0
1002
{
1002
}
1002
}
1002
}
1000
Extra
1070
     0
1002
{
1000
Klin
1070
     8
1000
KLIN
1002
{
1000
Color
1070
     1
1070
     1
1002
{
1002
}
1000
LType
1070
     4
1000
CONTINUOUS
1002
{
1002
}
1000
Base
1070
     3
1070
     1
1002
{
1002
}
1002
}
1000
Info
1070
     8
1000
INFO
1002
{
1000
Color
1070
     1
1070
     4
1002
{
1002
}
1000
LType
1070
     4
1000
CONTINUOUS
1002
{
1002
}
1000
Base
1070
     3
1070
     1
1002
{
1002
}
1002
}
1000
Rahm2
1070
     8
1000
RAHM2
1002
{
1000
Color
1070
     1
1070
     1
1002
{
1002
}
1000
LType
1070
     4
1000
CONTINUOUS
1002
{
1002
}
1000
Base
1070
     3
1070
     1
1002
{
1002
}
1002
}
1000
Rahm3
1070
     8
1000
RAHM3
1002
{
1000
Color
1070
     1
1070
     2
1002
{
1002
}
1000
LType
1070
     4
1000
CONTINUOUS
1002
{
1002
}
1000
Base
1070
     3
1070
     1
1002
{
1002
}
1002
}
1000
Rahm5
1070
     8
1000
RAHM5
1002
{
1000
Color
1070
     1
1070
     7
1002
{
1002
}
1000
LType
1070
     4
1000
CONTINUOUS
1002
{
1002
}
1000
Base
1070
     3
1070
     1
1002
{
1002
}
1002
}
1000
View
1070
     8
1000
VIEW
1002
{
1000
Color
1070
     1
1070
     1
1002
{
1002
}
1000
LType
1070
     4
1000
CONTINUOUS
1002
{
1002
}
1000
Base
1070
     3
1070
     1
1002
{
1002
}
1002
}
1000
Behind
1070
     8
1000
BEHIND
1002
{
1000
Color
1070
     1
1070
   253
1002
{
1002
}
1000
LType
1070
     4
1000
CONTINUOUS
1002
{
1002
}
1000
Base
1070
     3
1070
     1
1002
{
1002
}
1002
}
1002
}
  0
APPID
  5
2C
330
9
100
AcDbSymbolTableRecord
100
AcDbRegAppTableRecord
  2
GENIUS_GENCFG2_13
 70
     0
1001
GENIUS_GENCFG_13
1071
862825278
1000
2C
1000
GEN@LAYER@ENTSORT
1070
    10
1000
GenCfgObject
1000
GenCfgShort
1000
GenCfgReal
1000
GenCfgBool
1000
GenCfgString
1000
GenCfgDim
1000
GenCfgAttrInf
1000
GenCfgLaySection
1000
GenCfgLayer
1000
GenCfgEntSort
1000
ALTR
1070
     9
1000
4
1002
{
1000
Class
1070
     4
1000

1002
{
1002
}
1000
Color
1070
     1
1070
     7
1002
{
1002
}
1000
LType
1070
     4
1000
GEN3A
1002
{
1002
}
1002
}
1000
BELI
1070
     9
1000
4
1002
{
1000
Class
1070
     4
1000

1002
{
1002
}
1000
Color
1070
     1
1070
   256
1002
{
1002
}
1000
LType
1070
     4
1000
BYLAYER
1002
{
1002
}
1002
}
1000
BHNV
1070
     9
1000
9
1002
{
1000
Class
1070
     4
1000
INV
1002
{
1002
}
1000
Color
1070
     1
1070
   256
1002
{
1002
}
1000
LType
1070
     4
1000
BYLAYER
1002
{
1002
}
1002
}
1000
BHNVS
1070
     9
1000
BEHIND
1002
{
1000
Class
1070
     4
1000
INV
1002
{
1002
}
1000
Color
1070
     1
1070
   256
1002
{
1002
}
1000
LType
1070
     4
1000
BYLAYER
1002
{
1002
}
1002
}
1000
BLID
1070
     9
1000
4A
1002
{
1000
Class
1070
     4
1000

1002
{
1002
}
1000
Color
1070
     1
1070
   256
1002
{
1002
}
1000
LType
1070
     4
1000
BYLAYER
1002
{
1002
}
1002
}
1000
BOAP
1070
     9
1000
4A
1002
{
1000
Class
1070
     4
1000

1002
{
1002
}
1000
Color
1070
     1
1070
   256
1002
{
1002
}
1000
LType
1070
     4
1000
BYLAYER
1002
{
1002
}
1002
}
1000
BOR2
1070
     9
1000
RAHM2
1002
{
1000
Class
1070
     4
1000
SPZ,SYM
1002
{
1002
}
1000
Color
1070
     1
1070
   256
1002
{
1002
}
1000
LType
1070
     4
1000
BYLAYER
1002
{
1002
}
1002
}
1000
BOR3
1070
     9
1000
RAHM3
1002
{
1000
Class
1070
     4
1000
SPZ,SYM
1002
{
1002
}
1000
Color
1070
     1
1070
   256
1002
{
1002
}
1000
LType
1070
     4
1000
BYLAYER
1002
{
1002
}
1002
}
1000
BOR5
1070
     9
1000
RAHM5
1002
{
1000
Class
1070
     4
1000
SPZ,SYM
1002
{
1002
}
1000
Color
1070
     1
1070
   256
1002
{
1002
}
1000
LType
1070
     4
1000
BYLAYER
1002
{
1002
}
1002
}
1000
BOR7
1070
     9
1000
RAHM5
1002
{
1000
Class
1070
     4
1000
SPZ,SYM
1002
{
1002
}
1000
Color
1070
     1
1070
     7
1002
{
1002
}
1000
LType
1070
     4
1000
CONTINUOUS
1002
{
1002
}
1002
}
1000
BPAP
1070
     9
1000
4A
1002
{
1000
Class
1070
     4
1000

1002
{
1002
}
1000
Color
1070
     1
1070
   256
1002
{
1002
}
1000
LType
1070
     4
1000
BYLAYER
1002
{
1002
}
1002
}
1000
BPEX
1070
     9
1000
4A
1002
{
1000
Class
1070
     4
1000

1002
{
1002
}
1000
Color
1070
     1
1070
   256
1002
{
1002
}
1000
LType
1070
     4
1000
BYLAYER
1002
{
1002
}
1002
}
1000
BTDI
1070
     9
1000
5
1002
{
1000
Class
1070
     4
1000
DIM,SYM
1002
{
1002
}
1000
Color
1070
     1
1070
   256
1002
{
1002
}
1000
LType
1070
     4
1000
BYLAYER
1002
{
1002
}
1002
}
1000
CAL2
1070
     9
1000
4
1002
{
1000
Class
1070
     4
1000
SYM
1002
{
1002
}
1000
Color
1070
     1
1070
   256
1002
{
1002
}
1000
LType
1070
     4
1000
BYLAYER
1002
{
1002
}
1002
}
1000
CAL3
1070
     9
1000
4
1002
{
1000
Class
1070
     4
1000
SYM
1002
{
1002
}
1000
Color
1070
     1
1070
     2
1002
{
1002
}
1000
LType
1070
     4
1000
BYLAYER
1002
{
1002
}
1002
}
1000
CAL5
1070
     9
1000
4
1002
{
1000
Class
1070
     4
1000
SYM
1002
{
1002
}
1000
Color
1070
     1
1070
     7
1002
{
1002
}
1000
LType
1070
     4
1000
BYLAYER
1002
{
1002
}
1002
}
1000
CAL7
1070
     9
1000
4
1002
{
1000
Class
1070
     4
1000
SYM
1002
{
1002
}
1000
Color
1070
     1
1070
     5
1002
{
1002
}
1000
LType
1070
     4
1000
BYLAYER
1002
{
1002
}
1002
}
1000
CENN
1070
     9
1000
7A
1002
{
1000
Class
1070
     4
1000
CEN
1002
{
1002
}
1000
Color
1070
     1
1070
   256
1002
{
1002
}
1000
LType
1070
     4
1000
BYLAYER
1002
{
1002
}
1002
}
1000
CENW
1070
     9
1000
7
1002
{
1000
Class
1070
     4
1000
CEN
1002
{
1002
}
1000
Color
1070
     1
1070
   256
1002
{
1002
}
1000
LType
1070
     4
1000
BYLAYER
1002
{
1002
}
1002
}
1000
CLIN
1070
     9
1000
KLIN
1002
{
1000
Class
1070
     4
1000
SPZ
1002
{
1002
}
1000
Color
1070
     1
1070
   256
1002
{
1002
}
1000
LType
1070
     4
1000
BYLAYER
1002
{
1002
}
1002
}
1000
CON1
1070
     9
1000
0
1002
{
1000
Class
1070
     4
1000
CON,BGD
1002
{
1002
}
1000
Color
1070
     1
1070
   256
1002
{
1002
}
1000
LType
1070
     4
1000
BYLAYER
1002
{
1002
}
1002
}
1000
CON2
1070
     9
1000
1
1002
{
1000
Class
1070
     4
1000
CON,BGD
1002
{
1002
}
1000
Color
1070
     1
1070
   256
1002
{
1002
}
1000
LType
1070
     4
1000
BYLAYER
1002
{
1002
}
1002
}
1000
CON3
1070
     9
1000
2
1002
{
1000
Class
1070
     4
1000
CON,BGD
1002
{
1002
}
1000
Color
1070
     1
1070
   256
1002
{
1002
}
1000
LType
1070
     4
1000
BYLAYER
1002
{
1002
}
1002
}
1000
CON4
1070
     9
1000
2
1002
{
1000
Class
1070
     4
1000
CON,BGD
1002
{
1002
}
1000
Color
1070
     1
1070
   256
1002
{
1002
}
1000
LType
1070
     4
1000
BYLAYER
1002
{
1002
}
1002
}
1000
DERP
1070
     9
1000
4
1002
{
1000
Class
1070
     4
1000

1002
{
1002
}
1000
Color
1070
     1
1070
   256
1002
{
1002
}
1000
LType
1070
     4
1000
BYLAYER
1002
{
1002
}
1002
}
1000
DETA
1070
     9
1000
4
1002
{
1000
Class
1070
     4
1000

1002
{
1002
}
1000
Color
1070
     1
1070
   256
1002
{
1002
}
1000
LType
1070
     4
1000
BYLAYER
1002
{
1002
}
1002
}
1000
DIAG
1070
     9
1000
5
1002
{
1000
Class
1070
     4
1000
SYM
1002
{
1002
}
1000
Color
1070
     1
1070
   256
1002
{
1002
}
1000
LType
1070
     4
1000
BYLAYER
1002
{
1002
}
1002
}
1000
DILI
1070
     9
1000
5
1002
{
1000
Class
1070
     4
1000
DIM,SYM
1002
{
1002
}
1000
Color
1070
     1
1070
   256
1002
{
1002
}
1000
LType
1070
     4
1000
BYLAYER
1002
{
1002
}
1002
}
1000
DITX
1070
     9
1000
5
1002
{
1000
Class
1070
     4
1000
DIM,SYM
1002
{
1002
}
1000
Color
1070
     1
1070
     2
1002
{
1002
}
1000
LType
1070
     4
1000
CONTINUOUS
1002
{
1002
}
1002
}
1000
DITO2
1070
     9
1000
5
1002
{
1000
Class
1070
     4
1000
DIM,SYM
1002
{
1002
}
1000
Color
1070
     1
1070
     3
1002
{
1002
}
1000
LType
1070
     4
1000
BYLAYER
1002
{
1002
}
1002
}
1000
DITO3
1070
     9
1000
5
1002
{
1000
Class
1070
     4
1000
DIM,SYM
1002
{
1002
}
1000
Color
1070
     1
1070
     2
1002
{
1002
}
1000
LType
1070
     4
1000
BYLAYER
1002
{
1002
}
1002
}
1000
DIXL
1070
     9
1000
5
1002
{
1000
Class
1070
     4
1000
DIM,SYM
1002
{
1002
}
1000
Color
1070
     1
1070
   256
1002
{
1002
}
1000
LType
1070
     4
1000
BYLAYER
1002
{
1002
}
1002
}
1000
EXMP
1070
     9
1000
4A
1002
{
1000
Class
1070
     4
1000

1002
{
1002
}
1000
Color
1070
     1
1070
   256
1002
{
1002
}
1000
LType
1070
     4
1000
BYLAYER
1002
{
1002
}
1002
}
1000
FEMN
1070
     9
1000
8
1002
{
1000
Class
1070
     4
1000

1002
{
1002
}
1000
Color
1070
     1
1070
   256
1002
{
1002
}
1000
LType
1070
     4
1000
BYLAYER
1002
{
1002
}
1002
}
1000
FEMPN
1070
     9
1000
8
1002
{
1000
Class
1070
     4
1000
SYM
1002
{
1002
}
1000
Color
1070
     1
1070
     3
1002
{
1002
}
1000
LType
1070
     4
1000
BYLAYER
1002
{
1002
}
1002
}
1000
FEMSP
1070
     9
1000
4A
1002
{
1000
Class
1070
     4
1000

1002
{
1002
}
1000
Color
1070
     1
1070
   256
1002
{
1002
}
1000
LType
1070
     4
1000
CONTINUOUS
1002
{
1002
}
1002
}
1000
FEMST
1070
     9
1000
4A
1002
{
1000
Class
1070
     4
1000
SYM
1002
{
1002
}
1000
Color
1070
     1
1070
     3
1002
{
1002
}
1000
LType
1070
     4
1000
BYLAYER
1002
{
1002
}
1002
}
1000
FEMVN
1070
     9
1000
2
1002
{
1000
Class
1070
     4
1000
CON
1002
{
1002
}
1000
Color
1070
     1
1070
   256
1002
{
1002
}
1000
LType
1070
     4
1000
BYLAYER
1002
{
1002
}
1002
}
1000
FEMVT
1070
     9
1000
2
1002
{
1000
Class
1070
     4
1000
SYM
1002
{
1002
}
1000
Color
1070
     1
1070
     3
1002
{
1002
}
1000
LType
1070
     4
1000
BYLAYER
1002
{
1002
}
1002
}
1000
FLAT
1070
     9
1000
0
1002
{
1000
Class
1070
     4
1000

1002
{
1002
}
1000
Color
1070
     1
1070
   256
1002
{
1002
}
1000
LType
1070
     4
1000
BYLAYER
1002
{
1002
}
1002
}
1000
FRAR
1070
     9
1000
4A
1002
{
1000
Class
1070
     4
1000

1002
{
1002
}
1000
Color
1070
     1
1070
   256
1002
{
1002
}
1000
LType
1070
     4
1000
BYLAYER
1002
{
1002
}
1002
}
1000
GRLI
1070
     9
1000
5
1002
{
1000
Class
1070
     4
1000
SYM
1002
{
1002
}
1000
Color
1070
     1
1070
   256
1002
{
1002
}
1000
LType
1070
     4
1000
BYLAYER
1002
{
1002
}
1002
}
1000
GVLI
1070
     9
1000
4A
1002
{
1000
Class
1070
     4
1000

1002
{
1002
}
1000
Color
1070
     1
1070
   256
1002
{
1002
}
1000
LType
1070
     4
1000
BYLAYER
1002
{
1002
}
1002
}
1000
HATC
1070
     9
1000
8
1002
{
1000
Class
1070
     4
1000
HTC,BGD
1002
{
1002
}
1000
Color
1070
     1
1070
   256
1002
{
1002
}
1000
LType
1070
     4
1000
BYLAYER
1002
{
1002
}
1002
}
1000
HIDN
1070
     9
1000
3A
1002
{
1000
Class
1070
     4
1000
HID,BGD
1002
{
1002
}
1000
Color
1070
     1
1070
   256
1002
{
1002
}
1000
LType
1070
     4
1000
BYLAYER
1002
{
1002
}
1002
}
1000
HIDW
1070
     9
1000
3
1002
{
1000
Class
1070
     4
1000
HID,BGD
1002
{
1002
}
1000
Color
1070
     1
1070
   256
1002
{
1002
}
1000
LType
1070
     4
1000
BYLAYER
1002
{
1002
}
1002
}
1000
HLIN
1070
     9
1000
4
1002
{
1000
Class
1070
     4
1000
BGD
1002
{
1002
}
1000
Color
1070
     1
1070
   256
1002
{
1002
}
1000
LType
1070
     4
1000
BYLAYER
1002
{
1002
}
1002
}
1000
HOCN
1070
     9
1000
7A
1002
{
1000
Class
1070
     4
1000
CEN
1002
{
1002
}
1000
Color
1070
     1
1070
   256
1002
{
1002
}
1000
LType
1070
     4
1000
BYLAYER
1002
{
1002
}
1002
}
1000
HOCW
1070
     9
1000
7
1002
{
1000
Class
1070
     4
1000
CEN
1002
{
1002
}
1000
Color
1070
     1
1070
   256
1002
{
1002
}
1000
LType
1070
     4
1000
BYLAYER
1002
{
1002
}
1002
}
1000
INFO
1070
     9
1000
INFO
1002
{
1000
Class
1070
     4
1000
SPZ,SYM
1002
{
1002
}
1000
Color
1070
     1
1070
   256
1002
{
1002
}
1000
LType
1070
     4
1000
BYLAYER
1002
{
1002
}
1002
}
1000
LADI
1070
     9
1000
4
1002
{
1000
Class
1070
     4
1000
BGD
1002
{
1002
}
1000
Color
1070
     1
1070
   256
1002
{
1002
}
1000
LType
1070
     4
1000
BYLAYER
1002
{
1002
}
1002
}
1000
LEAD
1070
     9
1000
5
1002
{
1000
Class
1070
     4
1000
SYM
1002
{
1002
}
1000
Color
1070
     1
1070
   256
1002
{
1002
}
1000
LType
1070
     4
1000
BYLAYER
1002
{
1002
}
1002
}
1000
N_BHNV
1070
     9
1000
9N
1002
{
1000
Class
1070
     4
1000
INV
1002
{
1002
}
1000
Color
1070
     1
1070
   256
1002
{
1002
}
1000
LType
1070
     4
1000
BYLAYER
1002
{
1002
}
1002
}
1000
N_CON1
1070
     9
1000
0N
1002
{
1000
Class
1070
     4
1000
CON,BGD
1002
{
1002
}
1000
Color
1070
     1
1070
   256
1002
{
1002
}
1000
LType
1070
     4
1000
BYLAYER
1002
{
1002
}
1002
}
1000
N_CON2
1070
     9
1000
1N
1002
{
1000
Class
1070
     4
1000
CON,BGD
1002
{
1002
}
1000
Color
1070
     1
1070
   256
1002
{
1002
}
1000
LType
1070
     4
1000
BYLAYER
1002
{
1002
}
1002
}
1000
N_CON3
1070
     9
1000
2N
1002
{
1000
Class
1070
     4
1000
CON,BGD
1002
{
1002
}
1000
Color
1070
     1
1070
   256
1002
{
1002
}
1000
LType
1070
     4
1000
BYLAYER
1002
{
1002
}
1002
}
1000
N_CON4
1070
     9
1000
2N
1002
{
1000
Class
1070
     4
1000
CON,BGD
1002
{
1002
}
1000
Color
1070
     1
1070
   256
1002
{
1002
}
1000
LType
1070
     4
1000
BYLAYER
1002
{
1002
}
1002
}
1000
N_CENN
1070
     9
1000
7AN
1002
{
1000
Class
1070
     4
1000
CEN
1002
{
1002
}
1000
Color
1070
     1
1070
   256
1002
{
1002
}
1000
LType
1070
     4
1000
BYLAYER
1002
{
1002
}
1002
}
1000
N_CENW
1070
     9
1000
7N
1002
{
1000
Class
1070
     4
1000
CEN
1002
{
1002
}
1000
Color
1070
     1
1070
   256
1002
{
1002
}
1000
LType
1070
     4
1000
BYLAYER
1002
{
1002
}
1002
}
1000
N_DILI
1070
     9
1000
5N
1002
{
1000
Class
1070
     4
1000
DIM,SYM
1002
{
1002
}
1000
Color
1070
     1
1070
   256
1002
{
1002
}
1000
LType
1070
     4
1000
BYLAYER
1002
{
1002
}
1002
}
1000
N_DITX
1070
     9
1000
5N
1002
{
1000
Class
1070
     4
1000
DIM,SYM
1002
{
1002
}
1000
Color
1070
     1
1070
     2
1002
{
1002
}
1000
LType
1070
     4
1000
CONTINUOUS
1002
{
1002
}
1002
}
1000
N_DIXL
1070
     9
1000
5N
1002
{
1000
Class
1070
     4
1000
DIM,SYM
1002
{
1002
}
1000
Color
1070
     1
1070
   256
1002
{
1002
}
1000
LType
1070
     4
1000
BYLAYER
1002
{
1002
}
1002
}
1000
N_HATC
1070
     9
1000
8N
1002
{
1000
Class
1070
     4
1000
HTC,BGD
1002
{
1002
}
1000
Color
1070
     1
1070
   256
1002
{
1002
}
1000
LType
1070
     4
1000
BYLAYER
1002
{
1002
}
1002
}
1000
N_HIDN
1070
     9
1000
3AN
1002
{
1000
Class
1070
     4
1000
HID,BGD
1002
{
1002
}
1000
Color
1070
     1
1070
   256
1002
{
1002
}
1000
LType
1070
     4
1000
BYLAYER
1002
{
1002
}
1002
}
1000
N_HIDW
1070
     9
1000
3N
1002
{
1000
Class
1070
     4
1000
HID,BGD
1002
{
1002
}
1000
Color
1070
     1
1070
   256
1002
{
1002
}
1000
LType
1070
     4
1000
BYLAYER
1002
{
1002
}
1002
}
1000
N_PHAN
1070
     9
1000
4AN
1002
{
1000
Class
1070
     4
1000

1002
{
1002
}
1000
Color
1070
     1
1070
   256
1002
{
1002
}
1000
LType
1070
     4
1000
BYLAYER
1002
{
1002
}
1002
}
1000
N_POSL
1070
     9
1000
5N
1002
{
1000
Class
1070
     4
1000
SYM
1002
{
1002
}
1000
Color
1070
     1
1070
   256
1002
{
1002
}
1000
LType
1070
     4
1000
BYLAYER
1002
{
1002
}
1002
}
1000
N_TCON
1070
     9
1000
0N
1002
{
1000
Class
1070
     4
1000
CON,BGD
1002
{
1002
}
1000
Color
1070
     1
1070
   256
1002
{
1002
}
1000
LType
1070
     4
1000
BYLAYER
1002
{
1002
}
1002
}
1000
N_THLI
1070
     9
1000
4N
1002
{
1000
Class
1070
     4
1000
BGD
1002
{
1002
}
1000
Color
1070
     1
1070
   256
1002
{
1002
}
1000
LType
1070
     4
1000
BYLAYER
1002
{
1002
}
1002
}
1000
N_TLEN
1070
     9
1000
0N
1002
{
1000
Class
1070
     4
1000
CON,BGD
1002
{
1002
}
1000
Color
1070
     1
1070
   256
1002
{
1002
}
1000
LType
1070
     4
1000
BYLAYER
1002
{
1002
}
1002
}
1000
N_TXT3
1070
     9
1000
6N
1002
{
1000
Class
1070
     4
1000
SYM
1002
{
1002
}
1000
Color
1070
     1
1070
   256
1002
{
1002
}
1000
LType
1070
     4
1000
BYLAYER
1002
{
1002
}
1002
}
1000
N_VPLI
1070
     9
1000
2AN
1002
{
1000
Class
1070
     4
1000

1002
{
1002
}
1000
Color
1070
     1
1070
   256
1002
{
1002
}
1000
LType
1070
     4
1000
BYLAYER
1002
{
1002
}
1002
}
1000
PAL2
1070
     9
1000
RAHM2
1002
{
1000
Class
1070
     4
1000
SPZ,SYM
1002
{
1002
}
1000
Color
1070
     1
1070
   256
1002
{
1002
}
1000
LType
1070
     4
1000
BYLAYER
1002
{
1002
}
1002
}
1000
PAL3
1070
     9
1000
RAHM3
1002
{
1000
Class
1070
     4
1000
SPZ,SYM
1002
{
1002
}
1000
Color
1070
     1
1070
   256
1002
{
1002
}
1000
LType
1070
     4
1000
BYLAYER
1002
{
1002
}
1002
}
1000
PAL5
1070
     9
1000
RAHM5
1002
{
1000
Class
1070
     4
1000
SPZ,SYM
1002
{
1002
}
1000
Color
1070
     1
1070
   256
1002
{
1002
}
1000
LType
1070
     4
1000
BYLAYER
1002
{
1002
}
1002
}
1000
PAL7
1070
     9
1000
RAHM5
1002
{
1000
Class
1070
     4
1000
SPZ,SYM
1002
{
1002
}
1000
Color
1070
     1
1070
     7
1002
{
1002
}
1000
LType
1070
     4
1000
CONTINUOUS
1002
{
1002
}
1002
}
1000
PHAN
1070
     9
1000
4A
1002
{
1000
Class
1070
     4
1000

1002
{
1002
}
1000
Color
1070
     1
1070
   256
1002
{
1002
}
1000
LType
1070
     4
1000
BYLAYER
1002
{
1002
}
1002
}
1000
POSL
1070
     9
1000
5
1002
{
1000
Class
1070
     4
1000
SYM
1002
{
1002
}
1000
Color
1070
     1
1070
   256
1002
{
1002
}
1000
LType
1070
     4
1000
BYLAYER
1002
{
1002
}
1002
}
1000
POSN
1070
     9
1000
6
1002
{
1000
Class
1070
     4
1000
SYM
1002
{
1002
}
1000
Color
1070
     1
1070
     7
1002
{
1002
}
1000
LType
1070
     4
1000
BYLAYER
1002
{
1002
}
1002
}
1000
POSREF
1070
     9
1000
6
1002
{
1000
Class
1070
     4
1000
SYM
1002
{
1002
}
1000
Color
1070
     1
1070
     5
1002
{
1002
}
1000
LType
1070
     4
1000
BYLAYER
1002
{
1002
}
1002
}
1000
POSX
1070
     9
1000
5
1002
{
1000
Class
1070
     4
1000
SYM
1002
{
1002
}
1000
Color
1070
     1
1070
     2
1002
{
1002
}
1000
LType
1070
     4
1000
CONTINUOUS
1002
{
1002
}
1002
}
1000
PSEC
1070
     9
1000
4A
1002
{
1000
Class
1070
     4
1000

1002
{
1002
}
1000
Color
1070
     1
1070
   256
1002
{
1002
}
1000
LType
1070
     4
1000
BYLAYER
1002
{
1002
}
1002
}
1000
RCGN
1070
     9
1000
7A
1002
{
1000
Class
1070
     4
1000
CEN
1002
{
1002
}
1000
Color
1070
     1
1070
   256
1002
{
1002
}
1000
LType
1070
     4
1000
BYLAYER
1002
{
1002
}
1002
}
1000
RCGW
1070
     9
1000
7
1002
{
1000
Class
1070
     4
1000
CEN
1002
{
1002
}
1000
Color
1070
     1
1070
   256
1002
{
1002
}
1000
LType
1070
     4
1000
BYLAYER
1002
{
1002
}
1002
}
1000
RFDI
1070
     9
1000
4
1002
{
1000
Class
1070
     4
1000
BGD
1002
{
1002
}
1000
Color
1070
     1
1070
   256
1002
{
1002
}
1000
LType
1070
     4
1000
BYLAYER
1002
{
1002
}
1002
}
1000
RQTR
1070
     9
1000
4
1002
{
1000
Class
1070
     4
1000

1002
{
1002
}
1000
Color
1070
     1
1070
     7
1002
{
1002
}
1000
LType
1070
     4
1000
GEN7A
1002
{
1002
}
1002
}
1000
RSBO
1070
     9
1000
4
1002
{
1000
Class
1070
     4
1000
BGD
1002
{
1002
}
1000
Color
1070
     1
1070
   256
1002
{
1002
}
1000
LType
1070
     4
1000
BYLAYER
1002
{
1002
}
1002
}
1000
SBRK
1070
     9
1000
4
1002
{
1000
Class
1070
     4
1000
BGD
1002
{
1002
}
1000
Color
1070
     1
1070
   256
1002
{
1002
}
1000
LType
1070
     4
1000
BYLAYER
1002
{
1002
}
1002
}
1000
SCEN
1070
     9
1000
7
1002
{
1000
Class
1070
     4
1000

1002
{
1002
}
1000
Color
1070
     1
1070
   256
1002
{
1002
}
1000
LType
1070
     4
1000
CONTINUOUS
1002
{
1002
}
1002
}
1000
SECT
1070
     9
1000
4
1002
{
1000
Class
1070
     4
1000
BGD
1002
{
1002
}
1000
Color
1070
     1
1070
   256
1002
{
1002
}
1000
LType
1070
     4
1000
BYLAYER
1002
{
1002
}
1002
}
1000
SELN
1070
     9
1000
7A
1002
{
1000
Class
1070
     4
1000

1002
{
1002
}
1000
Color
1070
     1
1070
   256
1002
{
1002
}
1000
LType
1070
     4
1000
BYLAYER
1002
{
1002
}
1002
}
1000
SELW
1070
     9
1000
7
1002
{
1000
Class
1070
     4
1000

1002
{
1002
}
1000
Color
1070
     1
1070
   256
1002
{
1002
}
1000
LType
1070
     4
1000
BYLAYER
1002
{
1002
}
1002
}
1000
SSYS
1070
     9
1000
0
1002
{
1000
Class
1070
     4
1000

1002
{
1002
}
1000
Color
1070
     1
1070
   256
1002
{
1002
}
1000
LType
1070
     4
1000
BYLAYER
1002
{
1002
}
1002
}
1000
STLI
1070
     9
1000
4
1002
{
1000
Class
1070
     4
1000

1002
{
1002
}
1000
Color
1070
     1
1070
     7
1002
{
1002
}
1000
LType
1070
     4
1000
GEN3A
1002
{
1002
}
1002
}
1000
SYB1
1070
     9
1000
5
1002
{
1000
Class
1070
     4
1000
SYM
1002
{
1002
}
1000
Color
1070
     1
1070
   256
1002
{
1002
}
1000
LType
1070
     4
1000
BYLAYER
1002
{
1002
}
1002
}
1000
SYB2
1070
     9
1000
5
1002
{
1000
Class
1070
     4
1000
SYM
1002
{
1002
}
1000
Color
1070
     1
1070
   256
1002
{
1002
}
1000
LType
1070
     4
1000
BYLAYER
1002
{
1002
}
1002
}
1000
SYB3
1070
     9
1000
6
1002
{
1000
Class
1070
     4
1000
SYM
1002
{
1002
}
1000
Color
1070
     1
1070
   256
1002
{
1002
}
1000
LType
1070
     4
1000
CONTINUOUS
1002
{
1002
}
1002
}
1000
SYB5
1070
     9
1000
5
1002
{
1000
Class
1070
     4
1000
SYM
1002
{
1002
}
1000
Color
1070
     1
1070
     7
1002
{
1002
}
1000
LType
1070
     4
1000
BYLAYER
1002
{
1002
}
1002
}
1000
SYMN
1070
     9
1000
7A
1002
{
1000
Class
1070
     4
1000
CEN
1002
{
1002
}
1000
Color
1070
     1
1070
   256
1002
{
1002
}
1000
LType
1070
     4
1000
BYLAYER
1002
{
1002
}
1002
}
1000
SYMW
1070
     9
1000
7
1002
{
1000
Class
1070
     4
1000
CEN
1002
{
1002
}
1000
Color
1070
     1
1070
   256
1002
{
1002
}
1000
LType
1070
     4
1000
BYLAYER
1002
{
1002
}
1002
}
1000
TCON
1070
     9
1000
0
1002
{
1000
Class
1070
     4
1000
CON,BGD
1002
{
1002
}
1000
Color
1070
     1
1070
   256
1002
{
1002
}
1000
LType
1070
     4
1000
BYLAYER
1002
{
1002
}
1002
}
1000
THLI
1070
     9
1000
4
1002
{
1000
Class
1070
     4
1000
BGD
1002
{
1002
}
1000
Color
1070
     1
1070
   256
1002
{
1002
}
1000
LType
1070
     4
1000
BYLAYER
1002
{
1002
}
1002
}
1000
TIT2
1070
     9
1000
RAHM2
1002
{
1000
Class
1070
     4
1000
SPZ,SYM
1002
{
1002
}
1000
Color
1070
     1
1070
   256
1002
{
1002
}
1000
LType
1070
     4
1000
BYLAYER
1002
{
1002
}
1002
}
1000
TIT3
1070
     9
1000
RAHM3
1002
{
1000
Class
1070
     4
1000
SPZ,SYM
1002
{
1002
}
1000
Color
1070
     1
1070
   256
1002
{
1002
}
1000
LType
1070
     4
1000
BYLAYER
1002
{
1002
}
1002
}
1000
TIT5
1070
     9
1000
RAHM5
1002
{
1000
Class
1070
     4
1000
SPZ,SYM
1002
{
1002
}
1000
Color
1070
     1
1070
   256
1002
{
1002
}
1000
LType
1070
     4
1000
BYLAYER
1002
{
1002
}
1002
}
1000
TIT7
1070
     9
1000
RAHM5
1002
{
1000
Class
1070
     4
1000
SPZ,SYM
1002
{
1002
}
1000
Color
1070
     1
1070
     7
1002
{
1002
}
1000
LType
1070
     4
1000
CONTINUOUS
1002
{
1002
}
1002
}
1000
TLEN
1070
     9
1000
0
1002
{
1000
Class
1070
     4
1000
CON,BGD
1002
{
1002
}
1000
Color
1070
     1
1070
   256
1002
{
1002
}
1000
LType
1070
     4
1000
BYLAYER
1002
{
1002
}
1002
}
1000
TRKN
1070
     9
1000
7A
1002
{
1000
Class
1070
     4
1000

1002
{
1002
}
1000
Color
1070
     1
1070
   256
1002
{
1002
}
1000
LType
1070
     4
1000
BYLAYER
1002
{
1002
}
1002
}
1000
TRKW
1070
     9
1000
7
1002
{
1000
Class
1070
     4
1000

1002
{
1002
}
1000
Color
1070
     1
1070
   256
1002
{
1002
}
1000
LType
1070
     4
1000
BYLAYER
1002
{
1002
}
1002
}
1000
TRLI
1070
     9
1000
4
1002
{
1000
Class
1070
     4
1000
BGD
1002
{
1002
}
1000
Color
1070
     1
1070
   256
1002
{
1002
}
1000
LType
1070
     4
1000
BYLAYER
1002
{
1002
}
1002
}
1000
TXT1
1070
     9
1000
6
1002
{
1000
Class
1070
     4
1000
SYM
1002
{
1002
}
1000
Color
1070
     1
1070
     2
1002
{
1002
}
1000
LType
1070
     4
1000
BYLAYER
1002
{
1002
}
1002
}
1000
TXT2
1070
     9
1000
6
1002
{
1000
Class
1070
     4
1000
SYM
1002
{
1002
}
1000
Color
1070
     1
1070
     2
1002
{
1002
}
1000
LType
1070
     4
1000
BYLAYER
1002
{
1002
}
1002
}
1000
TXT3
1070
     9
1000
6
1002
{
1000
Class
1070
     4
1000
SYM
1002
{
1002
}
1000
Color
1070
     1
1070
   256
1002
{
1002
}
1000
LType
1070
     4
1000
BYLAYER
1002
{
1002
}
1002
}
1000
TXT5
1070
     9
1000
6
1002
{
1000
Class
1070
     4
1000
SYM
1002
{
1002
}
1000
Color
1070
     1
1070
     7
1002
{
1002
}
1000
LType
1070
     4
1000
BYLAYER
1002
{
1002
}
1002
}
1000
TXT7
1070
     9
1000
6
1002
{
1000
Class
1070
     4
1000
SYM
1002
{
1002
}
1000
Color
1070
     1
1070
     7
1002
{
1002
}
1000
LType
1070
     4
1000
BYLAYER
1002
{
1002
}
1002
}
1000
VIEW
1070
     9
1000
VIEW
1002
{
1000
Class
1070
     4
1000
SPZ
1002
{
1002
}
1000
Color
1070
     1
1070
   256
1002
{
1002
}
1000
LType
1070
     4
1000
BYLAYER
1002
{
1002
}
1002
}
1000
VPLI
1070
     9
1000
2A
1002
{
1000
Class
1070
     4
1000

1002
{
1002
}
1000
Color
1070
     1
1070
   256
1002
{
1002
}
1000
LType
1070
     4
1000
BYLAYER
1002
{
1002
}
1002
}
1000
ZIZA
1070
     9
1000
4
1002
{
1000
Class
1070
     4
1000
BGD
1002
{
1002
}
1000
Color
1070
     1
1070
   256
1002
{
1002
}
1000
LType
1070
     4
1000
GENZIGZAG
1002
{
1002
}
1002
}
  0
APPID
  5
2D
330
9
100
AcDbSymbolTableRecord
100
AcDbRegAppTableRecord
  2
GENIUS_GENCFG3_13
 70
     0
1001
GENIUS_GENCFG_13
1071
862825278
1000
2D
1000
GEN@OSWIZ
1070
    12
1000
GenCfgObject
1000
GenCfgShort
1000
GenCfgReal
1000
GenCfgBool
1000
GenCfgString
1000
GenCfgDim
1000
GenCfgAttrInf
1000
GenCfgLaySection
1000
GenCfgLayer
1000
GenCfgEntSort
1000
GenCfgLType
1000
GenCfgFilter
1000
AngleStep
1070
     0
1002
{
1000
M
1070
     2
1040
10.0
1002
{
1002
}
1000
I
1070
     2
1040
0.4
1002
{
1002
}
1002
}
1000
AngleIncr
1070
     2
1040
45.0
1002
{
1002
}
1000
Filter
1070
     0
1002
{
1000
HATCH
1070
    11
1002
{
1000
EntityType
1070
     4
1000
LINE
1002
{
1002
}
1000
Layer
1070
     4
1000
8,8N,*-8,*-8N
1002
{
1002
}
1000
Linetype
1070
     4
1000
*
1002
{
1002
}
1000
Color
1070
     4
1000
*
1002
{
1002
}
1002
}
1000
SYMBOLS
1070
    11
1002
{
1000
EntityType
1070
     4
1000
*
1002
{
1002
}
1000
Layer
1070
     4
1000
[5-6],[5-6]N,*-[5-6],*-[5-6]N
1002
{
1002
}
1000
Linetype
1070
     4
1000
*
1002
{
1002
}
1000
Color
1070
     4
1000
*
1002
{
1002
}
1002
}
1000
FEM
1070
    11
1002
{
1000
EntityType
1070
     4
1000
*
1002
{
1002
}
1000
Layer
1070
     4
1000
4A,4AN,*-4A,*-4AN
1002
{
1002
}
1000
Linetype
1070
     4
1000
*
1002
{
1002
}
1000
Color
1070
     4
1000
*
1002
{
1002
}
1002
}
1002
}
1000
IconSize
1070
     2
1040
1.0
1002
{
1002
}
1000
SnapColor
1070
     1
1070
     3
1002
{
1002
}
  0
APPID
  5
2E
330
9
100
AcDbSymbolTableRecord
100
AcDbRegAppTableRecord
  2
GENIUS_GENCFG4_13
 70
     0
1001
GENIUS_GENCFG_13
1071
886156835
1000
2E
1000
GEN
1070
     9
1000
GenCfgObject
1000
GenCfgShort
1000
GenCfgReal
1000
GenCfgBool
1000
GenCfgString
1000
GenCfgDim
1000
GenCfgAttrInf
1000
GenCfgLaySection
1000
GenCfgLType
1000
Balloon
1070
     0
1002
{
1000
GenIF
1070
     1
1070
     0
1002
{
1002
}
1000
GenPosInc
1070
     1
1070
    10
1002
{
1002
}
1000
GenPosBlk
1070
     1
1070
     8
1002
{
1002
}
1000
GenPosVar
1070
     1
1070
     2
1002
{
1002
}
1000
GenZiCir
1070
     2
1040
1.5
1002
{
1002
}
1000
MaxCharForCenteredText
1070
     1
1070
    30
1002
{
1002
}
1000
Snap
1070
     0
1002
{
1000
ActivationRadius
1070
     2
1040
1.0
1002
{
1002
}
1000
M
1070
     0
1002
{
1000
SnapStepX
1070
     2
1040
20.0
1002
{
1002
}
1000
SnapStepY
1070
     2
1040
10.0
1002
{
1002
}
1002
}
1000
I
1070
     0
1002
{
1000
SnapStepX
1070
     2
1040
1.0
1002
{
1002
}
1000
SnapStepY
1070
     2
1040
0.5
1002
{
1002
}
1002
}
1002
}
1002
}
1000
Centerline
1070
     0
1002
{
1000
ScaleNot
1070
     3
1070
     1
1002
{
1002
}
1000
M
1070
     0
1002
{
1000
GenCenAng
1070
     4
1000
45|90|135
1002
{
1002
}
1000
GenCenDia
1070
     2
1040
10.0
1002
{
1002
}
1000
GenCenDias
1070
     4
1000
10|20|30
1002
{
1002
}
1000
GenCenDist
1070
     2
1040
3.0
1002
{
1002
}
1000
GenCenLen
1070
     2
1040
10.0
1002
{
1002
}
1000
GenCenOff
1070
     2
1040
10.0
1002
{
1002
}
1002
}
1000
I
1070
     0
1002
{
1000
GenCenAng
1070
     4
1000
45|90|135
1002
{
1002
}
1000
GenCenDia
1070
     2
1040
0.5
1002
{
1002
}
1000
GenCenDias
1070
     4
1000
0.5|1.0|1.5
1002
{
1002
}
1000
GenCenDist
1070
     2
1040
0.125
1002
{
1002
}
1000
GenCenLen
1070
     2
1040
0.5
1002
{
1002
}
1000
GenCenOff
1070
     2
1040
0.5
1002
{
1002
}
1002
}
1002
}
1000
CLine
1070
     0
1002
{
1000
CAngArray
1070
     4
1000
30|45|60
1002
{
1002
}
1000
Typ
1070
     4
1000
XLINE
1002
{
1002
}
1000
M
1070
     0
1002
{
1000
CLinArray
1070
     4
1000
60
1002
{
1002
}
1002
}
1000
I
1070
     0
1002
{
1000
CLinArray
1070
     4
1000
0.125|0.25|0.5
1002
{
1002
}
1002
}
1002
}
1000
Constraints
1070
     0
1002
{
1000
Color
1070
     0
1002
{
1000
Active_Frame
1070
     1
1070
     2
1002
{
1002
}
1000
Inactive_Frame
1070
     1
1070
     8
1002
{
1002
}
1002
}
1000
Debug
1070
     0
1002
{
1002
}
1000
Editor
1070
     0
1002
{
1002
}
1000
Frame
1070
     0
1002
{
1002
}
1000
Sys
1070
     0
1002
{
1002
}
1002
}
1000
Detail
1070
     0
1002
{
1002
}
1000
Dimension
1070
     5
1002
{
1000
DIMALT
1070
     1
1070
     0
1002
{
1002
}
1000
DIMALTD
1070
     1
1070
     2
1002
{
1002
}
1000
DIMALTTD
1070
     1
1070
     4
1002
{
1002
}
1000
DIMALTTZ
1070
     1
1070
     0
1002
{
1002
}
1000
DIMALTU
1070
     1
1070
     2
1002
{
1002
}
1000
DIMALTZ
1070
     1
1070
     0
1002
{
1002
}
1000
DIMAPOST
1070
     4
1000

1002
{
1002
}
1000
DIMAUNIT
1070
     1
1070
     0
1002
{
1002
}
1000
DIMBLK
1070
     4
1000

1002
{
1002
}
1000
DIMBLK1
1070
     4
1000

1002
{
1002
}
1000
DIMBLK2
1070
     4
1000

1002
{
1002
}
1000
DIMDLE
1070
     2
1040
0.0
1002
{
1002
}
1000
DIMFIT
1070
     1
1070
     3
1002
{
1002
}
1000
DIMJUST
1070
     1
1070
     0
1002
{
1002
}
1000
DIMLFAC
1070
     2
1040
1.0
1002
{
1002
}
1000
DIMLIM
1070
     1
1070
     0
1002
{
1002
}
1000
DIMPOST
1070
     4
1000
<>
1002
{
1002
}
1000
DIMRND
1070
     2
1040
0.0
1002
{
1002
}
1000
DIMSAH
1070
     1
1070
     0
1002
{
1002
}
1000
DIMSCALE
1070
     2
1040
1.0
1002
{
1002
}
1000
DIMSD1
1070
     1
1070
     0
1002
{
1002
}
1000
DIMSD2
1070
     1
1070
     0
1002
{
1002
}
1000
DIMSE1
1070
     1
1070
     0
1002
{
1002
}
1000
DIMSE2
1070
     1
1070
     0
1002
{
1002
}
1000
DIMSOXD
1070
     1
1070
     0
1002
{
1002
}
1000
DIMTAD
1070
     1
1070
     0
1002
{
1002
}
1000
DIMTFAC
1070
     2
1040
0.71
1002
{
1002
}
1000
DIMTIH
1070
     1
1070
     0
1002
{
1002
}
1000
DIMTIX
1070
     1
1070
     0
1002
{
1002
}
1000
DIMTM
1070
     2
1040
0.1
1002
{
1002
}
1000
DIMTOFL
1070
     1
1070
     0
1002
{
1002
}
1000
DIMTOH
1070
     1
1070
     0
1002
{
1002
}
1000
DIMTOL
1070
     1
1070
     0
1002
{
1002
}
1000
DIMTOLJ
1070
     1
1070
     1
1002
{
1002
}
1000
DIMTP
1070
     2
1040
0.1
1002
{
1002
}
1000
DIMTSZ
1070
     2
1040
0.0
1002
{
1002
}
1000
DIMTVP
1070
     2
1040
0.0
1002
{
1002
}
1000
DIMTXSTY
1070
     4
1000
STANDARD
1002
{
1002
}
1000
DIMTZIN
1070
     1
1070
     0
1002
{
1002
}
1000
DIMUNIT
1070
     1
1070
     2
1002
{
1002
}
1000
DIMUPT
1070
     1
1070
     0
1002
{
1002
}
1000
M
1070
     0
1002
{
1000
DIMALTF
1070
     2
1040
0.0393701
1002
{
1002
}
1000
DIMASZ
1070
     2
1040
2.5
1002
{
1002
}
1000
DIMCEN
1070
     2
1040
0.0
1002
{
1002
}
1000
DIMDEC
1070
     1
1070
     2
1002
{
1002
}
1000
DIMDLI
1070
     2
1040
7.0
1002
{
1002
}
1000
DIMEXE
1070
     2
1040
1.0
1002
{
1002
}
1000
DIMEXO
1070
     2
1040
1.0
1002
{
1002
}
1000
DIMGAP
1070
     2
1040
0.6
1002
{
1002
}
1000
DIMTDEC
1070
     1
1070
     3
1002
{
1002
}
1000
DIMTXT
1070
     2
1040
3.5
1002
{
1002
}
1000
DIMZIN
1070
     1
1070
     8
1002
{
1002
}
1002
}
1000
I
1070
     0
1002
{
1000
DIMALTF
1070
     2
1040
25.4
1002
{
1002
}
1000
DIMASZ
1070
     2
1040
0.1
1002
{
1002
}
1000
DIMCEN
1070
     2
1040
0.0
1002
{
1002
}
1000
DIMDEC
1070
     1
1070
     4
1002
{
1002
}
1000
DIMDLI
1070
     2
1040
0.5
1002
{
1002
}
1000
DIMEXE
1070
     2
1040
0.1
1002
{
1002
}
1000
DIMEXO
1070
     2
1040
0.05
1002
{
1002
}
1000
DIMGAP
1070
     2
1040
0.06
1002
{
1002
}
1000
DIMTDEC
1070
     1
1070
     4
1002
{
1002
}
1000
DIMTXT
1070
     2
1040
0.12
1002
{
1002
}
1000
DIMZIN
1070
     1
1070
     7
1002
{
1002
}
1002
}
1000
GEN-ISO
1070
     5
1002
{
1000
NAME
1070
     4
1000
GEN-ISO
1002
{
1002
}
1000
DIMTAD
1070
     1
1070
     1
1002
{
1002
}
1000
DIMTOLJ
1070
     1
1070
     0
1002
{
1002
}
1000
DIMTOFL
1070
     1
1070
     1
1002
{
1002
}
1000
M
1070
     0
1002
{
1002
}
1000
I
1070
     0
1002
{
1002
}
1002
}
1000
GEN-ISO-POS
1070
     5
1002
{
1000
NAME
1070
     4
1000
GEN-ISO-POS
1002
{
1002
}
1000
DIMTOLJ
1070
     1
1070
     0
1002
{
1002
}
1000
M
1070
     0
1002
{
1000
DIMASZ
1070
     2
1040
2.5
1002
{
1002
}
1000
DIMGAP
1070
     2
1040
1.5
1002
{
1002
}
1000
DIMTXT
1070
     2
1040
5.0
1002
{
1002
}
1002
}
1000
I
1070
     0
1002
{
1000
DIMASZ
1070
     2
1040
0.1
1002
{
1002
}
1000
DIMGAP
1070
     2
1040
0.06
1002
{
1002
}
1000
DIMTXT
1070
     2
1040
0.2
1002
{
1002
}
1002
}
1000
DIMSCALE
1070
     2
1040
1.0
1002
{
1002
}
1002
}
1000
GEN-ISO-CIR
1070
     5
1002
{
1000
NAME
1070
     4
1000
GEN-ISO$3
1002
{
1002
}
1000
DIMFIT
1070
     1
1070
     0
1002
{
1002
}
1000
DIMTAD
1070
     1
1070
     1
1002
{
1002
}
1000
DIMTIH
1070
     1
1070
     0
1002
{
1002
}
1000
DIMTIX
1070
     1
1070
     0
1002
{
1002
}
1000
DIMTOH
1070
     1
1070
     1
1002
{
1002
}
1000
DIMTOLJ
1070
     1
1070
     0
1002
{
1002
}
1000
DIMTOFL
1070
     1
1070
     0
1002
{
1002
}
1000
DIMUPT
1070
     1
1070
     1
1002
{
1002
}
1000
M
1070
     0
1002
{
1002
}
1000
I
1070
     0
1002
{
1002
}
1002
}
1000
GEN-ISO-RAD
1070
     5
1002
{
1000
NAME
1070
     4
1000
GEN-ISO$4
1002
{
1002
}
1000
DIMFIT
1070
     1
1070
     0
1002
{
1002
}
1000
DIMTAD
1070
     1
1070
     1
1002
{
1002
}
1000
DIMTIH
1070
     1
1070
     0
1002
{
1002
}
1000
DIMTIX
1070
     1
1070
     0
1002
{
1002
}
1000
DIMTOH
1070
     1
1070
     1
1002
{
1002
}
1000
DIMTOLJ
1070
     1
1070
     0
1002
{
1002
}
1000
DIMTOFL
1070
     1
1070
     0
1002
{
1002
}
1000
DIMUPT
1070
     1
1070
     1
1002
{
1002
}
1000
M
1070
     0
1002
{
1002
}
1000
I
1070
     0
1002
{
1002
}
1002
}
1000
GEN-ISO-ORD
1070
     5
1002
{
1000
NAME
1070
     4
1000
GEN-ISO$6
1002
{
1002
}
1000
DIMTOLJ
1070
     1
1070
     0
1002
{
1002
}
1000
M
1070
     0
1002
{
1002
}
1000
I
1070
     0
1002
{
1002
}
1002
}
1000
GEN-ISO-AXE-F
1070
     5
1002
{
1000
NAME
1070
     4
1000
GEN-ISO-AXE-F
1002
{
1002
}
1000
DIMSE1
1070
     1
1070
     1
1002
{
1002
}
1000
DIMSE2
1070
     1
1070
     1
1002
{
1002
}
1000
DIMTAD
1070
     1
1070
     1
1002
{
1002
}
1000
DIMTOLJ
1070
     1
1070
     0
1002
{
1002
}
1000
DIMTOFL
1070
     1
1070
     1
1002
{
1002
}
1000
M
1070
     0
1002
{
1002
}
1000
I
1070
     0
1002
{
1002
}
1002
}
1000
GEN-ISO-AXE-H
1070
     5
1002
{
1000
DIMBLK1
1070
     4
1000
GENAXEH
1002
{
1002
}
1000
DIMLFAC
1070
     2
1040
2.0
1002
{
1002
}
1000
DIMSAH
1070
     1
1070
     1
1002
{
1002
}
1000
DIMSE1
1070
     1
1070
     1
1002
{
1002
}
1000
DIMSE2
1070
     1
1070
     1
1002
{
1002
}
1000
DIMTAD
1070
     1
1070
     1
1002
{
1002
}
1000
DIMTOLJ
1070
     1
1070
     0
1002
{
1002
}
1000
DIMTOFL
1070
     1
1070
     1
1002
{
1002
}
1000
M
1070
     0
1002
{
1002
}
1000
I
1070
     0
1002
{
1002
}
1002
}
1000
GEN-ANSI
1070
     5
1002
{
1000
NAME
1070
     4
1000
GEN-ANSI
1002
{
1002
}
1000
DIMTIH
1070
     1
1070
     1
1002
{
1002
}
1000
DIMTOH
1070
     1
1070
     1
1002
{
1002
}
1000
DIMTAD
1070
     1
1070
     0
1002
{
1002
}
1000
DIMTOLJ
1070
     1
1070
     1
1002
{
1002
}
1000
M
1070
     0
1002
{
1002
}
1000
I
1070
     0
1002
{
1002
}
1002
}
1000
GEN-ANSI-POS
1070
     5
1002
{
1000
NAME
1070
     4
1000
GEN-ANSI-POS
1002
{
1002
}
1000
DIMTOLJ
1070
     1
1070
     1
1002
{
1002
}
1000
M
1070
     0
1002
{
1000
DIMASZ
1070
     2
1040
2.5
1002
{
1002
}
1000
DIMGAP
1070
     2
1040
1.5
1002
{
1002
}
1000
DIMTXT
1070
     2
1040
5.0
1002
{
1002
}
1002
}
1000
I
1070
     0
1002
{
1000
DIMASZ
1070
     2
1040
0.1
1002
{
1002
}
1000
DIMGAP
1070
     2
1040
0.06
1002
{
1002
}
1000
DIMTXT
1070
     2
1040
0.2
1002
{
1002
}
1002
}
1002
}
1000
GEN-ANSI-CIR
1070
     5
1002
{
1000
NAME
1070
     4
1000
GEN-ANSI$3
1002
{
1002
}
1000
DIMFIT
1070
     1
1070
     0
1002
{
1002
}
1000
DIMTAD
1070
     1
1070
     0
1002
{
1002
}
1000
DIMTIH
1070
     1
1070
     1
1002
{
1002
}
1000
DIMTIX
1070
     1
1070
     0
1002
{
1002
}
1000
DIMTOFL
1070
     1
1070
     0
1002
{
1002
}
1000
DIMTOH
1070
     1
1070
     1
1002
{
1002
}
1000
DIMTOLJ
1070
     1
1070
     1
1002
{
1002
}
1000
DIMUPT
1070
     1
1070
     1
1002
{
1002
}
1000
M
1070
     0
1002
{
1002
}
1000
I
1070
     0
1002
{
1002
}
1002
}
1000
GEN-ANSI-RAD
1070
     5
1002
{
1000
NAME
1070
     4
1000
GEN-ANSI$4
1002
{
1002
}
1000
DIMFIT
1070
     1
1070
     0
1002
{
1002
}
1000
DIMTAD
1070
     1
1070
     0
1002
{
1002
}
1000
DIMTIH
1070
     1
1070
     1
1002
{
1002
}
1000
DIMTIX
1070
     1
1070
     0
1002
{
1002
}
1000
DIMTOFL
1070
     1
1070
     0
1002
{
1002
}
1000
DIMTOH
1070
     1
1070
     1
1002
{
1002
}
1000
DIMTOLJ
1070
     1
1070
     1
1002
{
1002
}
1000
DIMUPT
1070
     1
1070
     1
1002
{
1002
}
1000
M
1070
     0
1002
{
1002
}
1000
I
1070
     0
1002
{
1002
}
1002
}
1000
GEN-ANSI-ORD
1070
     5
1002
{
1000
NAME
1070
     4
1000
GEN-ANSI$6
1002
{
1002
}
1000
DIMTAD
1070
     1
1070
     0
1002
{
1002
}
1000
DIMTIH
1070
     1
1070
     1
1002
{
1002
}
1000
DIMTOH
1070
     1
1070
     1
1002
{
1002
}
1000
DIMTOLJ
1070
     1
1070
     1
1002
{
1002
}
1000
M
1070
     0
1002
{
1002
}
1000
I
1070
     0
1002
{
1002
}
1002
}
1000
GEN-ANSI-AXE-F
1070
     5
1002
{
1000
NAME
1070
     4
1000
GEN-ANSI-AXE-F
1002
{
1002
}
1000
DIMBLK1
1070
     4
1000
GENAXEH
1002
{
1002
}
1000
DIMSAH
1070
     1
1070
     1
1002
{
1002
}
1000
DIMSE1
1070
     1
1070
     1
1002
{
1002
}
1000
DIMSE2
1070
     1
1070
     1
1002
{
1002
}
1000
DIMTAD
1070
     1
1070
     0
1002
{
1002
}
1000
DIMTIH
1070
     1
1070
     1
1002
{
1002
}
1000
DIMTOH
1070
     1
1070
     1
1002
{
1002
}
1000
DIMTOLJ
1070
     1
1070
     1
1002
{
1002
}
1000
M
1070
     0
1002
{
1002
}
1000
I
1070
     0
1002
{
1002
}
1002
}
1000
GEN-ANSI-AXE-H
1070
     5
1002
{
1000
NAME
1070
     4
1000
GEN-ANSI-AXE-H
1002
{
1002
}
1000
DIMBLK1
1070
     4
1000
GENAXEH
1002
{
1002
}
1000
DIMLFAC
1070
     2
1040
2.0
1002
{
1002
}
1000
DIMSAH
1070
     1
1070
     1
1002
{
1002
}
1000
DIMSE1
1070
     1
1070
     1
1002
{
1002
}
1000
DIMSE2
1070
     1
1070
     1
1002
{
1002
}
1000
DIMTAD
1070
     1
1070
     0
1002
{
1002
}
1000
DIMTOFL
1070
     1
1070
     1
1002
{
1002
}
1000
DIMTOLJ
1070
     1
1070
     1
1002
{
1002
}
1000
M
1070
     0
1002
{
1002
}
1000
I
1070
     0
1002
{
1002
}
1002
}
1000
DIMZIN
1070
     1
1070
     8
1002
{
1002
}
1002
}
1000
DimSet
1070
     0
1002
{
1000
ChainSum
1070
     3
1070
     0
1002
{
1002
}
1000
DimDclTyp0
1070
     4
1000
dim23
1002
{
1002
}
1000
HorBra
1070
     3
1070
     0
1002
{
1002
}
1000
StrDia
1070
     4
1000
%%c<>
1002
{
1002
}
1000
StrRad
1070
     4
1000
R<>
1002
{
1002
}
1000
TextMinus
1070
     4
1000
<>
1002
{
1002
}
1000
TextPlus
1070
     4
1000
<>
1002
{
1002
}
1000
M
1070
     0
1002
{
1000
DimdliFirst
1070
     2
1040
10.0
1002
{
1002
}
1000
PointMakeDist
1070
     2
1040
10.0
1002
{
1002
}
1002
}
1000
I
1070
     0
1002
{
1000
DimdliFirst
1070
     2
1040
0.5
1002
{
1002
}
1000
PointMakeDist
1070
     2
1040
0.5
1002
{
1002
}
1002
}
1002
}
1000
Drawing
1070
     0
1002
{
1000
ChamferDimMode
1070
     1
1070
     2
1002
{
1002
}
1000
Gen_Fiso
1070
    -3
1040
1.0
1002
{
1002
}
1000
GenDimStil
1070
     4
1000
ISO
1002
{
1002
}
1000
GenDwgUScale
1070
     2
1040
1.0
1002
{
1002
}
1000
GenInch
1070
     4
1000
M
1002
{
1002
}
1000
GenPlotScale
1070
     4
1000
1:1
1002
{
1002
}
1000
Revisi
1070
     4
1000
0
1002
{
1002
}
1000
Version
1070
    -5
1000
13.1/May  9 1996
1002
{
1002
}
1000
Platform
1070
    -5
1000
WINNT
1002
{
1002
}
1002
}
1000
DwgVar
1070
     0
1002
{
1000
M
1070
     0
1002
{
1002
}
1000
I
1070
     0
1002
{
1002
}
1002
}
1000
Hatch
1070
     0
1002
{
1000
GenHtcFlag
1070
     3
1070
     0
1002
{
1002
}
1002
}
1000
Info_Pos
1070
     0
1002
{
1000
DescrText
1070
     4
1000
5,6,7,8
1002
{
1002
}
1000
Attrib
1070
     0
1002
{
1000
0
1070
     6
1002
{
1000
Prompt
1070
     4
1000
(genmsg gendwg 103)
1002
{
1002
}
1000
Value
1070
     4
1000

1002
{
1002
}
1000
EditFlag
1070
     1
1070
     0
1002
{
1002
}
1002
}
1000
1
1070
     6
1002
{
1000
Prompt
1070
     4
1000
(genmsg gendwg 31)
1002
{
1002
}
1000
Value
1070
     4
1000
1
1002
{
1002
}
1000
EditFlag
1070
     1
1070
     1
1002
{
1002
}
1002
}
1000
2
1070
     6
1002
{
1000
Prompt
1070
     4
1000
(genmsg gendwg 32)
1002
{
1002
}
1000
Value
1070
     4
1000
1
1002
{
1002
}
1000
EditFlag
1070
     1
1070
     1
1002
{
1002
}
1002
}
1000
3
1070
     6
1002
{
1000
Prompt
1070
     4
1000
(genmsg gendwg 33)
1002
{
1002
}
1000
Value
1070
     4
1000

1002
{
1002
}
1000
EditFlag
1070
     1
1070
     1
1002
{
1002
}
1002
}
1000
4
1070
     6
1002
{
1000
Prompt
1070
     4
1000
(genmsg gendwg 34)
1002
{
1002
}
1000
Value
1070
     4
1000

1002
{
1002
}
1000
EditFlag
1070
     1
1070
     1
1002
{
1002
}
1002
}
1000
5
1070
     6
1002
{
1000
Prompt
1070
     4
1000
(genmsg gendwg 35)
1002
{
1002
}
1000
Value
1070
     4
1000

1002
{
1002
}
1000
EditFlag
1070
     1
1070
     1
1002
{
1002
}
1002
}
1000
6
1070
     6
1002
{
1000
Prompt
1070
     4
1000
(genmsg gendwg 36)
1002
{
1002
}
1000
Value
1070
     4
1000

1002
{
1002
}
1000
EditFlag
1070
     1
1070
     1
1002
{
1002
}
1002
}
1000
7
1070
     6
1002
{
1000
Prompt
1070
     4
1000
(genmsg gendwg 37)
1002
{
1002
}
1000
Value
1070
     4
1000

1002
{
1002
}
1000
EditFlag
1070
     1
1070
     1
1002
{
1002
}
1002
}
1000
8
1070
     6
1002
{
1000
Prompt
1070
     4
1000
(genmsg gendwg 38)
1002
{
1002
}
1000
Value
1070
     4
1000

1002
{
1002
}
1000
EditFlag
1070
     1
1070
     1
1002
{
1002
}
1002
}
1000
9
1070
     6
1002
{
1000
Prompt
1070
     4
1000
(genmsg gendwg 39)
1002
{
1002
}
1000
Value
1070
     4
1000

1002
{
1002
}
1000
EditFlag
1070
     1
1070
     1
1002
{
1002
}
1002
}
1000
10
1070
     6
1002
{
1000
Prompt
1070
     4
1000
(genmsg gendwg 40)
1002
{
1002
}
1000
Value
1070
     4
1000

1002
{
1002
}
1000
EditFlag
1070
     1
1070
     1
1002
{
1002
}
1002
}
1000
11
1070
     6
1002
{
1000
Prompt
1070
     4
1000
(genmsg gendwg 41)
1002
{
1002
}
1000
Value
1070
     4
1000

1002
{
1002
}
1000
EditFlag
1070
     1
1070
     1
1002
{
1002
}
1002
}
1000
12
1070
     6
1002
{
1000
Prompt
1070
     4
1000
(genmsg gendwg 42)
1002
{
1002
}
1000
Value
1070
     4
1000

1002
{
1002
}
1000
EditFlag
1070
     1
1070
     1
1002
{
1002
}
1002
}
1000
13
1070
     6
1002
{
1000
Prompt
1070
     4
1000
(genmsg gendwg 43)
1002
{
1002
}
1000
Value
1070
     4
1000

1002
{
1002
}
1000
EditFlag
1070
     1
1070
     1
1002
{
1002
}
1002
}
1000
14
1070
     6
1002
{
1000
Prompt
1070
     4
1000
(genmsg gendwg 44)
1002
{
1002
}
1000
Value
1070
     4
1000

1002
{
1002
}
1000
EditFlag
1070
     1
1070
     1
1002
{
1002
}
1002
}
1000
15
1070
     6
1002
{
1000
Prompt
1070
     4
1000
(genmsg gendwg 45)
1002
{
1002
}
1000
Value
1070
     4
1000

1002
{
1002
}
1000
EditFlag
1070
     1
1070
     1
1002
{
1002
}
1002
}
1000
16
1070
     6
1002
{
1000
Prompt
1070
     4
1000
(genmsg gendwg 46)
1002
{
1002
}
1000
Value
1070
     4
1000

1002
{
1002
}
1000
EditFlag
1070
     1
1070
     1
1002
{
1002
}
1002
}
1000
17
1070
     6
1002
{
1000
Prompt
1070
     4
1000
(genmsg gendwg 47)
1002
{
1002
}
1000
Value
1070
     4
1000

1002
{
1002
}
1000
EditFlag
1070
     1
1070
     1
1002
{
1002
}
1002
}
1000
18
1070
     6
1002
{
1000
Prompt
1070
     4
1000
(genmsg gendwg 48)
1002
{
1002
}
1000
Value
1070
     4
1000

1002
{
1002
}
1000
EditFlag
1070
     1
1070
     1
1002
{
1002
}
1002
}
1000
19
1070
     6
1002
{
1000
Prompt
1070
     4
1000
(genmsg gendwg 99)
1002
{
1002
}
1000
Value
1070
     4
1000

1002
{
1002
}
1000
EditFlag
1070
     1
1070
     1
1002
{
1002
}
1002
}
1000
20
1070
     6
1002
{
1000
Prompt
1070
     4
1000
(genmsg gendwg 100)
1002
{
1002
}
1000
Value
1070
     4
1000

1002
{
1002
}
1000
EditFlag
1070
     1
1070
     1
1002
{
1002
}
1002
}
1000
21
1070
     6
1002
{
1000
Prompt
1070
     4
1000
(genmsg gendwg 101)
1002
{
1002
}
1000
Value
1070
     4
1000

1002
{
1002
}
1000
EditFlag
1070
     1
1070
     1
1002
{
1002
}
1002
}
1000
22
1070
     6
1002
{
1000
Prompt
1070
     4
1000
(genmsg gendwg 102)
1002
{
1002
}
1000
Value
1070
     4
1000

1002
{
1002
}
1000
EditFlag
1070
     1
1070
     1
1002
{
1002
}
1002
}
1000
23
1070
     6
1002
{
1000
Prompt
1070
     4
1000
(genmsg gendwg 30)
1002
{
1002
}
1000
Value
1070
     4
1000

1002
{
1002
}
1000
EditFlag
1070
     1
1070
     1
1002
{
1002
}
1002
}
1000
24
1070
     6
1002
{
1000
Prompt
1070
     4
1000
(genmsg gendwg 104)
1002
{
1002
}
1000
Value
1070
     4
1000

1002
{
1002
}
1000
EditFlag
1070
     1
1070
     1
1002
{
1002
}
1002
}
1002
}
1000
Xlate
1070
     0
1002
{
1000
>
1002
}
1002
}
1000
Layer
1070
     7
1002
{
1000
Defs
1070
     0
1002
{
1000
>
1002
}
1000
EntSort
1070
     0
1002
{
1000
>
1002
}
1000
Match
1070
     0
1002
{
1002
}
1000
Settings
1070
     0
1002
{
1000
FocGrNC
1070
     3
1070
     0
1002
{
1002
}
1000
FocGrLo
1070
     3
1070
     0
1002
{
1002
}
1000
FocLoNC
1070
     3
1070
     0
1002
{
1002
}
1000
FocusCol
1070
     1
1070
   253
1002
{
1002
}
1000
GenStdLG
1070
     4
1000

1002
{
1002
}
1000
LayMatch
1070
     3
1070
     0
1002
{
1002
}
1000
LgOff
1070
     3
1070
     0
1002
{
1002
}
1000
CurLG
1070
    -5
1000

1002
{
1002
}
1002
}
1002
}
1000
LType
1070
     0
1002
{
1000
GEN3
1070
     8
1000
genius.lin
1002
{
1002
}
1000
GEN7
1070
     8
1000
genius.lin
1002
{
1002
}
1000
GEN4A
1070
     8
1000
genius.lin
1002
{
1002
}
1000
GEN3A
1070
     8
1000
genius.lin
1002
{
1002
}
1000
GEN7A
1070
     8
1000
genius.lin
1002
{
1002
}
1000
GENZIGZAG
1070
     8
1000
genius.lin
1002
{
1002
}
1002
}
1000
Objecter
1070
     0
1002
{
1000
CreateGroups
1070
     3
1070
     0
1002
{
1002
}
1000
LaySwitch
1070
     3
1070
     1
1002
{
1002
}
1000
LastObj
1070
    -5
1000
C4E
1002
{
1002
}
1002
}
1000
OSWiz
1070
     0
1002
{
1000
>
1002
}
1000
PaList
1070
     0
1002
{
1000
AutoUpdatePartList
1070
     3
1070
     0
1002
{
1002
}
1000
ReadInfoPoint
1070
     3
1070
     0
1002
{
1002
}
1000
ReadPosNr
1070
     3
1070
     1
1002
{
1002
}
1000
RevStr
1070
     4
1000
0
1002
{
1002
}
1002
}
1000
Paper
1070
     0
1002
{
1002
}
1000
PartDB
1070
     0
1002
{
1000
GenDbOwner
1070
     4
1000

1002
{
1002
}
1002
}
1000
System
1070
     0
1002
{
1000
Menu
1070
     4
1000
GEV
1002
{
1002
}
1002
}
1000
Title
1070
     0
1002
{
1000
MakeView
1070
     1
1070
     2
1002
{
1002
}
1002
}
  0
APPID
  5
2F
330
9
100
AcDbSymbolTableRecord
100
AcDbRegAppTableRecord
  2
GENIUS_GEVCFG0_13
 70
     0
1001
GENIUS_GENCFG_13
1071
862825278
1000
2F
1000
GEV
1070
     1
1000
GenCfgObject
1000
System
1070
     0
1002
{
1002
}
1000
VED
1070
     0
1002
{
1002
}
  0
APPID
  5
33
330
9
100
AcDbSymbolTableRecord
100
AcDbRegAppTableRecord
  2
GENIUS_GEFCFG0_13
 70
     0
1001
GENIUS_GENCFG_13
1071
886156699
1000
33
1000
GEF
1070
     5
1000
GenCfgObject
1000
GenCfgString
1000
GenCfgReal
1000
GenCfgShort
1000
GenCfgBool
1000
System
1070
     0
1002
{
1002
}
1000
Prese
1070
     0
1002
{
1000
Funk
1070
     1
1000

1002
{
1002
}
1000
FunkDef
1070
     1
1000

1002
{
1002
}
1000
GefIso
1070
     1
1000
DIN
1002
{
1002
}
1002
}
1000
FEM
1070
     0
1002
{
1000
LayGroup
1070
     1
1000
FEM
1002
{
1002
}
1000
IncrCoef
1070
     2
1040
0.0
1002
{
1002
}
1002
}
1000
Shaft
1070
     0
1002
{
1000
Interrupt
1070
     3
1070
     0
1002
{
1002
}
1002
}
1000
PartDb
1070
     0
1002
{
1000
PartCreate
1070
     0
1002
{
1002
}
1002
}
1000
Symbol
1070
     0
1002
{
1000
WeldStyle
1070
     1
1000
ISO
1002
{
1002
}
1000
WeldSize
1070
     2
1040
1.0
1002
{
1002
}
1000
WeldFlag
1070
     4
1070
     1
1002
{
1002
}
1000
WeldOffset
1070
     4
1070
     1
1002
{
1002
}
1000
TolCType
1070
     1
1000
ISO
1002
{
1002
}
1000
TolCSize
1070
     2
1040
1.0
1002
{
1002
}
1000
STextureSize
1070
     2
1040
1.0
1002
{
1002
}
1000
SurfaceType
1070
     1
1000

1002
{
1002
}
1000
M
1070
     0
1002
{
1000
WeldWidth
1070
     2
1040
3.0
1002
{
1002
}
1002
}
1000
I
1070
     0
1002
{
1000
WeldWidth
1070
     2
1040
0.125
1002
{
1002
}
1002
}
1000
weldwidth
1070
     2
1040
5.0
1002
{
1002
}
1002
}
  0
APPID
  5
3C
330
9
100
AcDbSymbolTableRecord
100
AcDbRegAppTableRecord
  2
GENIUS_GENOENT_13
 70
     0
  0
APPID
  5
11D
330
9
100
AcDbSymbolTableRecord
100
AcDbRegAppTableRecord
  2
GENIUS_GENODEF_13
 70
     0
  0
APPID
  5
11E
330
9
100
AcDbSymbolTableRecord
100
AcDbRegAppTableRecord
  2
GENIUS_GENOBJ-N-HTC_13
 70
     0
  0
APPID
  5
11F
330
9
100
AcDbSymbolTableRecord
100
AcDbRegAppTableRecord
  2
GENIUS_GENHATCH_13
 70
     0
  0
APPID
  5
120
330
9
100
AcDbSymbolTableRecord
100
AcDbRegAppTableRecord
  2
GENIUS_GENINF13_13
 70
     0
  0
APPID
  5
121
330
9
100
AcDbSymbolTableRecord
100
AcDbRegAppTableRecord
  2
GENIUS_GENOBJ-N-INFOPT_13
 70
     0
  0
APPID
  5
122
330
9
100
AcDbSymbolTableRecord
100
AcDbRegAppTableRecord
  2
GENIUS_GENOBJ_13
 70
     0
  0
APPID
  5
123
330
9
100
AcDbSymbolTableRecord
100
AcDbRegAppTableRecord
  2
GENIUS_GENOLIS_13
 70
     0
  0
APPID
  5
124
330
9
100
AcDbSymbolTableRecord
100
AcDbRegAppTableRecord
  2
GENIUS_GENOREF_13
 70
     0
  0
APPID
  5
125
330
9
100
AcDbSymbolTableRecord
100
AcDbRegAppTableRecord
  2
GENIUS_GENOBJ-N-RSSYM_13
 70
     0
  0
APPID
  5
126
330
9
100
AcDbSymbolTableRecord
100
AcDbRegAppTableRecord
  2
GENIUS_GENSYMENT_13
 70
     0
  0
APPID
  5
127
330
9
100
AcDbSymbolTableRecord
100
AcDbRegAppTableRecord
  2
GENIUS_GENSCSYM_13
 70
     0
  0
APPID
  5
128
330
9
100
AcDbSymbolTableRecord
100
AcDbRegAppTableRecord
  2
GENIUS_GENOBJ-N-CRS_13
 70
     0
  0
APPID
  5
129
330
9
100
AcDbSymbolTableRecord
100
AcDbRegAppTableRecord
  2
GEVID886155459
 70
     0
  0
APPID
  5
12A
330
9
100
AcDbSymbolTableRecord
100
AcDbRegAppTableRecord
  2
GEVPT
 70
     0
  0
APPID
  5
12B
330
9
100
AcDbSymbolTableRecord
100
AcDbRegAppTableRecord
  2
GEVIT
 70
     0
  0
APPID
  5
12C
330
9
100
AcDbSymbolTableRecord
100
AcDbRegAppTableRecord
  2
VCC
 70
     0
  0
APPID
  5
12D
330
9
100
AcDbSymbolTableRecord
100
AcDbRegAppTableRecord
  2
GENBH
 70
     0
  0
APPID
  5
12E
330
9
100
AcDbSymbolTableRecord
100
AcDbRegAppTableRecord
  2
GENIUS_GENOBJ-F-PART_13
 70
     0
  0
APPID
  5
12F
330
9
100
AcDbSymbolTableRecord
100
AcDbRegAppTableRecord
  2
GENIUS_GEFSTDP_13
 70
     0
  0
APPID
  5
130
330
9
100
AcDbSymbolTableRecord
100
AcDbRegAppTableRecord
  2
GENIUS_GEFPARTINS_13
 70
     0
  0
APPID
  5
131
330
9
100
AcDbSymbolTableRecord
100
AcDbRegAppTableRecord
  2
GEVID886155460
 70
     0
  0
APPID
  5
132
330
9
100
AcDbSymbolTableRecord
100
AcDbRegAppTableRecord
  2
GEVID886155461
 70
     0
  0
APPID
  5
133
330
9
100
AcDbSymbolTableRecord
100
AcDbRegAppTableRecord
  2
GEVID886155462
 70
     0
  0
APPID
  5
134
330
9
100
AcDbSymbolTableRecord
100
AcDbRegAppTableRecord
  2
GENIUS_GENBH_13
 70
     0
  0
APPID
  5
135
330
9
100
AcDbSymbolTableRecord
100
AcDbRegAppTableRecord
  2
GENIUS_GENOBJ-NBEHI-BHF_13
 70
     0
  0
APPID
  5
136
330
9
100
AcDbSymbolTableRecord
100
AcDbRegAppTableRecord
  2
GENIUS_GENOBJ-NBEHI-BHB_13
 70
     0
  0
APPID
  5
137
330
9
100
AcDbSymbolTableRecord
100
AcDbRegAppTableRecord
  2
GEVID886155463
 70
     0
  0
APPID
  5
138
330
9
100
AcDbSymbolTableRecord
100
AcDbRegAppTableRecord
  2
GEVID886155464
 70
     0
  0
APPID
  5
139
330
9
100
AcDbSymbolTableRecord
100
AcDbRegAppTableRecord
  2
GEVID886155466
 70
     0
  0
APPID
  5
13A
330
9
100
AcDbSymbolTableRecord
100
AcDbRegAppTableRecord
  2
GEVID886155467
 70
     0
  0
APPID
  5
62A
330
9
100
AcDbSymbolTableRecord
100
AcDbRegAppTableRecord
  2
GEVMK
 70
     0
  0
APPID
  5
63E
330
9
100
AcDbSymbolTableRecord
100
AcDbRegAppTableRecord
  2
GEVID886156710
 70
     0
  0
APPID
  5
652
330
9
100
AcDbSymbolTableRecord
100
AcDbRegAppTableRecord
  2
GEVID886156711
 70
     0
  0
APPID
  5
666
330
9
100
AcDbSymbolTableRecord
100
AcDbRegAppTableRecord
  2
GEVID886156712
 70
     0
  0
APPID
  5
676
330
9
100
AcDbSymbolTableRecord
100
AcDbRegAppTableRecord
  2
GEVID886156713
 70
     0
  0
APPID
  5
686
330
9
100
AcDbSymbolTableRecord
100
AcDbRegAppTableRecord
  2
GEVID886156714
 70
     0
  0
APPID
  5
696
330
9
100
AcDbSymbolTableRecord
100
AcDbRegAppTableRecord
  2
GEVID886156715
 70
     0
  0
APPID
  5
6AA
330
9
100
AcDbSymbolTableRecord
100
AcDbRegAppTableRecord
  2
GEVID886156716
 70
     0
  0
APPID
  5
6BE
330
9
100
AcDbSymbolTableRecord
100
AcDbRegAppTableRecord
  2
GEVID886156717
 70
     0
  0
APPID
  5
9D9
330
9
100
AcDbSymbolTableRecord
100
AcDbRegAppTableRecord
  2
GENIUS_GENOBJ-N-RSBK_13
 70
     0
  0
APPID
  5
9DA
330
9
100
AcDbSymbolTableRecord
100
AcDbRegAppTableRecord
  2
GENIUS_GENOBJ-N-LIB_13
 70
     0
  0
APPID
  5
9DB
330
9
100
AcDbSymbolTableRecord
100
AcDbRegAppTableRecord
  2
GENIUS_GENSCALE_13
 70
     0
  0
APPID
  5
C62
330
9
100
AcDbSymbolTableRecord
100
AcDbRegAppTableRecord
  2
GEVID886156781
 70
     0
  0
APPID
  5
C76
330
9
100
AcDbSymbolTableRecord
100
AcDbRegAppTableRecord
  2
GEVID886156782
 70
     0
  0
APPID
  5
C8A
330
9
100
AcDbSymbolTableRecord
100
AcDbRegAppTableRecord
  2
GEVID886156783
 70
     0
  0
APPID
  5
C9A
330
9
100
AcDbSymbolTableRecord
100
AcDbRegAppTableRecord
  2
GEVID886156784
 70
     0
  0
APPID
  5
CAA
330
9
100
AcDbSymbolTableRecord
100
AcDbRegAppTableRecord
  2
GEVID886156785
 70
     0
  0
APPID
  5
CBA
330
9
100
AcDbSymbolTableRecord
100
AcDbRegAppTableRecord
  2
GEVID886156786
 70
     0
  0
APPID
  5
CCE
330
9
100
AcDbSymbolTableRecord
100
AcDbRegAppTableRecord
  2
GEVID886156787
 70
     0
  0
APPID
  5
CE2
330
9
100
AcDbSymbolTableRecord
100
AcDbRegAppTableRecord
  2
GEVID886156788
 70
     0
  0
APPID
  5
D38
330
9
100
AcDbSymbolTableRecord
100
AcDbRegAppTableRecord
  2
ACAD_MLEADERVER
 70
     0
  0
APPID
  5
D45
330
9
100
AcDbSymbolTableRecord
100
AcDbRegAppTableRecord
  2
MCAD_NO_VIS
 70
     0
  0
APPID
  5
D46
330
9
100
AcDbSymbolTableRecord
100
AcDbRegAppTableRecord
  2
ACAD_TEMP_GRAPHIC
 70
     0
  0
APPID
  5
D76
330
9
100
AcDbSymbolTableRecord
100
AcDbRegAppTableRecord
  2
AD_DRAW
 70
     0
  0
APPID
  5
D79
330
9
100
AcDbSymbolTableRecord
100
AcDbRegAppTableRecord
  2
ACATTRIBSERVICES
 70
     0
  0
APPID
  5
D9A
330
9
100
AcDbSymbolTableRecord
100
AcDbRegAppTableRecord
  2
DESIGNERASSEMBLIES
 70
     0
  0
APPID
  5
DA0
330
9
100
AcDbSymbolTableRecord
100
AcDbRegAppTableRecord
  2
ACADM_DIM_EDIT
 70
     0
  0
APPID
  5
DA1
330
9
100
AcDbSymbolTableRecord
100
AcDbRegAppTableRecord
  2
AMDT_DM_ADJ
 70
     0
  0
APPID
  5
DFD
330
9
100
AcDbSymbolTableRecord
100
AcDbRegAppTableRecord
  2
ACAD_DSTYLE_DIMARC_LENGTH_SYMBOL
 70
     0
  0
APPID
  5
DFE
330
9
100
AcDbSymbolTableRecord
100
AcDbRegAppTableRecord
  2
ACAD_DSTYLE_DIM_LINETYPE
 70
     0
  0
APPID
  5
DFF
330
9
100
AcDbSymbolTableRecord
100
AcDbRegAppTableRecord
  2
ACAD_DSTYLE_DIM_EXT1_LINETYPE
 70
     0
  0
APPID
  5
E00
330
9
100
AcDbSymbolTableRecord
100
AcDbRegAppTableRecord
  2
ACAD_DSTYLE_DIM_EXT2_LINETYPE
 70
     0
  0
ENDTAB
  0
TABLE
  2
DIMSTYLE
  5
A
330
0
100
AcDbSymbolTable
 70
    14
100
AcDbDimStyleTable
 71
     0
  0
DIMSTYLE
105
1D
330
A
100
AcDbSymbolTableRecord
100
AcDbDimStyleTableRecord
  2
STANDARD
 70
     0
340
10
  0
DIMSTYLE
105
DB7
102
{ACAD_REACTORS
330
DA7
102
}
330
A
100
AcDbSymbolTableRecord
100
AcDbDimStyleTableRecord
  2
AM_ANSI
 70
     0
  4
"
 41
3.5
 42
1.0
 43
10.0
 44
1.0
 47
0.1
 48
0.1
 78
     8
 79
     2
140
3.5
141
0.0
143
0.0393701
146
0.71
147
1.5
176
   256
177
   256
178
     2
271
     2
272
     3
274
     4
284
     8
340
10
371
    -1
372
    -1
1001
ACAD_DSTYLE_DIMARC_LENGTH_SYMBOL
1070
   379
1070
     1
1001
ACAD_DSTYLE_DIM_LINETYPE
1070
   380
1005
14
1001
ACAD_DSTYLE_DIM_EXT1_LINETYPE
1070
   381
1005
14
1001
ACAD_DSTYLE_DIM_EXT2_LINETYPE
1070
   382
1005
14
  0
DIMSTYLE
105
DC5
330
A
100
AcDbSymbolTableRecord
100
AcDbDimStyleTableRecord
  2
AM_ANSI$3
 70
     0
  4
"
 41
3.5
 42
1.0
 43
10.0
 44
1.0
 47
0.1
 48
0.1
 78
     8
 79
     2
140
3.5
141
0.0
143
0.0393701
146
0.71
147
1.5
176
   256
177
   256
178
     2
271
     2
272
     3
274
     4
284
     8
288
     1
289
     0
340
10
371
    -1
372
    -1
1001
ACAD_DSTYLE_DIMARC_LENGTH_SYMBOL
1070
   379
1070
     1
1001
ACAD_DSTYLE_DIM_LINETYPE
1070
   380
1005
14
1001
ACAD_DSTYLE_DIM_EXT1_LINETYPE
1070
   381
1005
14
1001
ACAD_DSTYLE_DIM_EXT2_LINETYPE
1070
   382
1005
14
  0
DIMSTYLE
105
DC6
330
A
100
AcDbSymbolTableRecord
100
AcDbDimStyleTableRecord
  2
AM_ANSI$4
 70
     0
  4
"
 41
3.5
 42
1.0
 43
10.0
 44
1.0
 47
0.1
 48
0.1
 78
     8
 79
     2
140
3.5
141
0.0
143
0.0393701
146
0.71
147
1.5
176
   256
177
   256
178
     2
271
     2
272
     3
274
     4
284
     8
288
     1
289
     0
340
10
371
    -1
372
    -1
1001
ACAD_DSTYLE_DIMARC_LENGTH_SYMBOL
1070
   379
1070
     1
1001
ACAD_DSTYLE_DIM_LINETYPE
1070
   380
1005
14
1001
ACAD_DSTYLE_DIM_EXT1_LINETYPE
1070
   381
1005
14
1001
ACAD_DSTYLE_DIM_EXT2_LINETYPE
1070
   382
1005
14
  0
DIMSTYLE
105
DC7
330
A
100
AcDbSymbolTableRecord
100
AcDbDimStyleTableRecord
  2
AM_ANSI$7
 70
     0
  4
"
 41
3.5
 42
1.0
 43
10.0
 44
1.0
 47
0.1
 48
0.1
 78
     8
 79
     2
140
3.5
141
0.0
143
0.0393701
146
0.71
147
1.5
176
   256
177
   256
178
     2
271
     2
272
     3
274
     4
284
     8
340
10
371
    -1
372
    -1
1001
ACAD_DSTYLE_DIMARC_LENGTH_SYMBOL
1070
   379
1070
     1
1001
ACAD_DSTYLE_DIM_LINETYPE
1070
   380
1005
14
1001
ACAD_DSTYLE_DIM_EXT1_LINETYPE
1070
   381
1005
14
1001
ACAD_DSTYLE_DIM_EXT2_LINETYPE
1070
   382
1005
14
  0
DIMSTYLE
105
DC8
330
A
100
AcDbSymbolTableRecord
100
AcDbDimStyleTableRecord
  2
AM_ANSI$SF
 70
     0
  4
"
 41
3.5
 42
1.0
 43
10.0
 44
1.0
 47
0.1
 48
0.1
 75
     1
 76
     1
 78
     8
 79
     2
140
3.5
141
0.0
143
0.0393701
146
0.71
147
1.5
176
   256
177
   256
178
     2
271
     2
272
     3
274
     4
284
     8
340
10
371
    -1
372
    -1
1001
ACAD_DSTYLE_DIMARC_LENGTH_SYMBOL
1070
   379
1070
     1
1001
ACAD_DSTYLE_DIM_LINETYPE
1070
   380
1005
14
1001
ACAD_DSTYLE_DIM_EXT1_LINETYPE
1070
   381
1005
14
1001
ACAD_DSTYLE_DIM_EXT2_LINETYPE
1070
   382
1005
14
  0
DIMSTYLE
105
DCD
330
A
100
AcDbSymbolTableRecord
100
AcDbDimStyleTableRecord
  2
AM_ANSI$SH
 70
     0
  4
"
 41
3.5
 42
1.0
 43
10.0
 44
1.0
 47
0.1
 48
0.1
 75
     1
 76
     1
 78
     8
 79
     2
140
3.5
141
0.0
143
0.0393701
146
0.71
147
1.5
173
     1
176
   256
177
   256
178
     2
271
     2
272
     3
274
     4
284
     8
340
10
343
DC9
371
    -1
372
    -1
1001
ACAD_DSTYLE_DIMARC_LENGTH_SYMBOL
1070
   379
1070
     1
1001
ACAD_DSTYLE_DIM_LINETYPE
1070
   380
1005
14
1001
ACAD_DSTYLE_DIM_EXT1_LINETYPE
1070
   381
1005
14
1001
ACAD_DSTYLE_DIM_EXT2_LINETYPE
1070
   382
1005
14
  0
DIMSTYLE
105
DDA
330
A
100
AcDbSymbolTableRecord
100
AcDbDimStyleTableRecord
  2
GEN-ANSI
 70
     0
  3
<>
 41
2.5
 42
1.0
 43
7.0
 44
1.0
 47
0.1
 48
0.1
 78
     8
140
3.5
141
0.0
143
0.0393701
146
0.71
147
0.6
271
     2
272
     3
274
     4
340
10
  0
DIMSTYLE
105
DDB
330
A
100
AcDbSymbolTableRecord
100
AcDbDimStyleTableRecord
  2
GEN-ANSI$3
 70
     0
  3
<>
 41
2.5
 42
1.0
 43
7.0
 44
1.0
 47
0.1
 48
0.1
 78
     8
140
3.5
141
0.0
143
0.0393701
146
0.71
147
0.6
271
     2
272
     3
274
     4
288
     1
289
     0
340
10
  0
DIMSTYLE
105
DDC
330
A
100
AcDbSymbolTableRecord
100
AcDbDimStyleTableRecord
  2
GEN-ANSI$4
 70
     0
  3
<>
 41
2.5
 42
1.0
 43
7.0
 44
1.0
 47
0.1
 48
0.1
 78
     8
140
3.5
141
0.0
143
0.0393701
146
0.71
147
0.6
271
     2
272
     3
274
     4
288
     1
289
     0
340
10
  0
DIMSTYLE
105
DDD
330
A
100
AcDbSymbolTableRecord
100
AcDbDimStyleTableRecord
  2
GEN-ANSI$6
 70
     0
  3
<>
 41
2.5
 42
1.0
 43
7.0
 44
1.0
 47
0.1
 48
0.1
 78
     8
140
3.5
141
0.0
143
0.0393701
146
0.71
147
0.6
271
     2
272
     3
274
     4
340
10
  0
DIMSTYLE
105
DDE
330
A
100
AcDbSymbolTableRecord
100
AcDbDimStyleTableRecord
  2
GEN-ANSI-POS
 70
     0
  3
<>
 41
2.5
 42
1.0
 43
7.0
 44
1.0
 47
0.1
 48
0.1
 73
     0
 74
     0
 78
     8
140
5.0
141
0.0
143
0.0393701
146
0.71
147
1.5
271
     2
272
     3
274
     4
340
10
  0
DIMSTYLE
105
DDF
330
A
100
AcDbSymbolTableRecord
100
AcDbDimStyleTableRecord
  2
GEN-ANSI-AXE-F
 70
     0
  3
<>
 41
2.5
 42
1.0
 43
7.0
 44
1.0
 47
0.1
 48
0.1
 75
     1
 76
     1
 78
     8
140
3.5
141
0.0
143
0.0393701
146
0.71
147
0.6
173
     1
271
     2
272
     3
274
     4
340
10
343
DC9
  0
DIMSTYLE
105
DE0
330
A
100
AcDbSymbolTableRecord
100
AcDbDimStyleTableRecord
  2
GEN-ANSI-AXE-H
 70
     0
  3
<>
 41
2.5
 42
1.0
 43
7.0
 44
1.0
 47
0.1
 48
0.1
 73
     0
 74
     0
 75
     1
 76
     1
 78
     8
140
3.5
141
0.0
143
0.0393701
144
2.0
146
0.71
147
0.6
172
     1
173
     1
271
     2
272
     3
274
     4
340
10
343
DC9
  0
ENDTAB
  0
TABLE
  2
BLOCK_RECORD
  5
1
330
0
100
AcDbSymbolTable
 70
    21
  0
BLOCK_RECORD
  5
1A
330
1
100
AcDbSymbolTableRecord
100
AcDbBlockTableRecord
  2
*MODEL_SPACE
340
D3B
  0
BLOCK_RECORD
  5
17
330
1
100
AcDbSymbolTableRecord
100
AcDbBlockTableRecord
  2
*PAPER_SPACE
340
D3C
  0
BLOCK_RECORD
  5
40
330
1
100
AcDbSymbolTableRecord
100
AcDbBlockTableRecord
  2
GENINF13
340
0
102
{BLKREFS
331
BB8
102
}
  0
BLOCK_RECORD
  5
6C2
330
1
100
AcDbSymbolTableRecord
100
AcDbBlockTableRecord
  2
*X1
340
0
102
{BLKREFS
331
BE0
102
}
  0
BLOCK_RECORD
  5
6CD
330
1
100
AcDbSymbolTableRecord
100
AcDbBlockTableRecord
  2
*X2
340
0
102
{BLKREFS
331
C27
102
}
  0
BLOCK_RECORD
  5
C4F
330
1
100
AcDbSymbolTableRecord
100
AcDbBlockTableRecord
  2
*U3
340
0
102
{BLKREFS
331
C5B
102
}
  0
BLOCK_RECORD
  5
C59
330
1
100
AcDbSymbolTableRecord
100
AcDbBlockTableRecord
  2
*U4
340
0
102
{BLKREFS
331
B46
102
}
  0
BLOCK_RECORD
  5
C63
330
1
100
AcDbSymbolTableRecord
100
AcDbBlockTableRecord
  2
*U5
340
0
102
{BLKREFS
331
C6F
102
}
  0
BLOCK_RECORD
  5
C6D
330
1
100
AcDbSymbolTableRecord
100
AcDbBlockTableRecord
  2
*U6
340
0
102
{BLKREFS
331
A2A
102
}
  0
BLOCK_RECORD
  5
C77
330
1
100
AcDbSymbolTableRecord
100
AcDbBlockTableRecord
  2
*U7
340
0
102
{BLKREFS
331
C83
102
}
  0
BLOCK_RECORD
  5
C81
330
1
100
AcDbSymbolTableRecord
100
AcDbBlockTableRecord
  2
*U8
340
0
102
{BLKREFS
331
A29
102
}
  0
BLOCK_RECORD
  5
C8B
330
1
100
AcDbSymbolTableRecord
100
AcDbBlockTableRecord
  2
*U9
340
0
102
{BLKREFS
331
C94
102
}
  0
BLOCK_RECORD
  5
C92
330
1
100
AcDbSymbolTableRecord
100
AcDbBlockTableRecord
  2
*U10
340
0
102
{BLKREFS
331
9F6
102
}
  0
BLOCK_RECORD
  5
C9B
330
1
100
AcDbSymbolTableRecord
100
AcDbBlockTableRecord
  2
*U11
340
0
102
{BLKREFS
331
CA4
102
}
  0
BLOCK_RECORD
  5
CA2
330
1
100
AcDbSymbolTableRecord
100
AcDbBlockTableRecord
  2
*U12
340
0
102
{BLKREFS
331
9F4
102
}
  0
BLOCK_RECORD
  5
CAB
330
1
100
AcDbSymbolTableRecord
100
AcDbBlockTableRecord
  2
*U13
340
0
102
{BLKREFS
331
CB4
102
}
  0
BLOCK_RECORD
  5
CB2
330
1
100
AcDbSymbolTableRecord
100
AcDbBlockTableRecord
  2
*U14
340
0
102
{BLKREFS
331
9F5
102
}
  0
BLOCK_RECORD
  5
CBB
330
1
100
AcDbSymbolTableRecord
100
AcDbBlockTableRecord
  2
*U15
340
0
102
{BLKREFS
331
CC7
102
}
  0
BLOCK_RECORD
  5
CC5
330
1
100
AcDbSymbolTableRecord
100
AcDbBlockTableRecord
  2
*U16
340
0
102
{BLKREFS
331
B15
102
}
  0
BLOCK_RECORD
  5
CCF
330
1
100
AcDbSymbolTableRecord
100
AcDbBlockTableRecord
  2
*U17
340
0
102
{BLKREFS
331
CDB
102
}
  0
BLOCK_RECORD
  5
CD9
330
1
100
AcDbSymbolTableRecord
100
AcDbBlockTableRecord
  2
*U18
340
0
102
{BLKREFS
331
B14
102
}
  0
BLOCK_RECORD
  5
DC9
330
1
100
AcDbSymbolTableRecord
100
AcDbBlockTableRecord
  2
GENAXEH
340
0
  0
ENDTAB
  0
ENDSEC
  0
SECTION
  2
BLOCKS
  0
BLOCK
  5
1B
330
1A
100
AcDbEntity
  8
0
100
AcDbBlockBegin
  2
*MODEL_SPACE
 70
     0
 10
0.0
 20
0.0
 30
0.0
  3
*MODEL_SPACE
  1

  0
ENDBLK
  5
1C
330
1A
100
AcDbEntity
  8
0
100
AcDbBlockEnd
  0
BLOCK
  5
18
330
17
100
AcDbEntity
 67
     1
  8
0
100
AcDbBlockBegin
  2
*PAPER_SPACE
 70
     0
 10
0.0
 20
0.0
 30
0.0
  3
*PAPER_SPACE
  1

  0
ENDBLK
  5
19
330
17
100
AcDbEntity
 67
     1
  8
0
100
AcDbBlockEnd
  0
BLOCK
  5
65
330
40
100
AcDbEntity
  8
0
100
AcDbBlockBegin
  2
GENINF13
 70
     2
 10
0.0
 20
0.0
 30
0.0
  3
GENINF13
  1
GENINF13
  0
CIRCLE
  5
41
330
40
100
AcDbEntity
  8
INFO
100
AcDbCircle
 10
-0.1079460011883957
 20
1.312243585777231
 30
0.0
 40
0.3390668951753026
  0
CIRCLE
  5
42
330
40
100
AcDbEntity
  8
INFO
100
AcDbCircle
 10
0.0
 20
0.0
 30
0.0
 40
1.920194409963144
  0
LINE
  5
43
330
40
100
AcDbEntity
  8
INFO
100
AcDbLine
 10
0.4113437479737743
 20
0.7068303850037036
 30
0.0
 11
-0.7000060094186789
 21
0.7068303850037035
 31
0.0
  0
LINE
  5
44
330
40
100
AcDbEntity
  8
INFO
100
AcDbLine
 10
0.8299040409314978
 20
-1.341535205482386
 30
0.0
 11
0.8299040409314978
 21
-0.5553667224477728
 31
0.0
  0
LINE
  5
45
330
40
100
AcDbEntity
  8
INFO
100
AcDbLine
 10
0.8299040409314978
 20
-0.5553667224477728
 30
0.0
 11
0.4113437479737743
 21
-0.5553667224477728
 31
0.0
  0
LINE
  5
46
330
40
100
AcDbEntity
  8
INFO
100
AcDbLine
 10
0.4113437479737743
 20
-0.5553667224477728
 30
0.0
 11
0.4113437479737743
 21
0.7068303850037036
 31
0.0
  0
LINE
  5
47
330
40
100
AcDbEntity
  8
INFO
100
AcDbLine
 10
-0.7000060094186789
 20
0.7068303850037035
 30
0.0
 11
-0.7000060094186788
 21
0.1226134319150372
 31
0.0
  0
LINE
  5
48
330
40
100
AcDbEntity
  8
INFO
100
AcDbLine
 10
-0.7000060094186788
 20
0.1226134319150372
 30
0.0
 11
-0.3752609491200999
 21
0.1226134319150372
 31
0.0
  0
LINE
  5
49
330
40
100
AcDbEntity
  8
INFO
100
AcDbLine
 10
-0.3752609491200999
 20
0.1226134319150372
 30
0.0
 11
-0.3752609491200999
 21
-0.5553667224477728
 31
0.0
  0
LINE
  5
4A
330
40
100
AcDbEntity
  8
INFO
100
AcDbLine
 10
-0.3752609491200999
 20
-0.5553667224477728
 30
0.0
 11
-0.8010378055452676
 21
-0.5553667224477728
 31
0.0
  0
LINE
  5
4B
330
40
100
AcDbEntity
  8
INFO
100
AcDbLine
 10
-0.8010378055452676
 20
-0.5553667224477728
 30
0.0
 11
-0.8010378055452676
 21
-1.341535205482386
 31
0.0
  0
LINE
  5
4C
330
40
100
AcDbEntity
  8
INFO
100
AcDbLine
 10
-0.8010378055452676
 20
-1.341535205482386
 30
0.0
 11
0.8299040409314978
 21
-1.341535205482386
 31
0.0
  0
ATTDEF
  5
4D
330
40
100
AcDbEntity
  8
INFO
100
AcDbText
 10
0.0
 20
0.0
 30
0.0
 40
1.0
  1
1
100
AcDbAttributeDefinition
  3
Menge
  2
2GENINF
 70
     1
  0
ATTDEF
  5
4E
330
40
100
AcDbEntity
  8
INFO
100
AcDbText
 10
0.0
 20
-1.5
 30
0.0
 40
1.0
  1

100
AcDbAttributeDefinition
  3
Stücklisten-Name
  2
3GENINF
 70
     1
  0
ATTDEF
  5
4F
330
40
100
AcDbEntity
  8
INFO
100
AcDbText
 10
0.0
 20
-3.0
 30
0.0
 40
1.0
  1

100
AcDbAttributeDefinition
  3
Stücklisten-Pfad
  2
4GENINF
 70
     1
  0
ATTDEF
  5
50
330
40
100
AcDbEntity
  8
INFO
100
AcDbText
 10
0.0
 20
-4.5
 30
0.0
 40
1.0
  1

100
AcDbAttributeDefinition
  3
Beschreibung 1
  2
5GENINF
 70
     1
  0
ATTDEF
  5
51
330
40
100
AcDbEntity
  8
INFO
100
AcDbText
 10
0.0
 20
-6.0
 30
0.0
 40
1.0
  1

100
AcDbAttributeDefinition
  3
Beschreibung 2
  2
6GENINF
 70
     1
  0
ATTDEF
  5
52
330
40
100
AcDbEntity
  8
INFO
100
AcDbText
 10
0.0
 20
-7.5
 30
0.0
 40
1.0
  1

100
AcDbAttributeDefinition
  3
Norm/Lieferant 1
  2
7GENINF
 70
     1
  0
ATTDEF
  5
53
330
40
100
AcDbEntity
  8
INFO
100
AcDbText
 10
0.0
 20
-9.0
 30
0.0
 40
1.0
  1

100
AcDbAttributeDefinition
  3
Norm/Lieferant 2
  2
8GENINF
 70
     1
  0
ATTDEF
  5
54
330
40
100
AcDbEntity
  8
INFO
100
AcDbText
 10
0.0
 20
-10.5
 30
0.0
 40
1.0
  1

100
AcDbAttributeDefinition
  3
Material 1
  2
9GENINF
 70
     1
  0
ATTDEF
  5
55
330
40
100
AcDbEntity
  8
INFO
100
AcDbText
 10
0.0
 20
-12.0
 30
0.0
 40
1.0
  1

100
AcDbAttributeDefinition
  3
Material 2
  2
10GENINF
 70
     1
  0
ATTDEF
  5
56
330
40
100
AcDbEntity
  8
INFO
100
AcDbText
 10
0.0
 20
-13.5
 30
0.0
 40
1.0
  1

100
AcDbAttributeDefinition
  3
Identnummer
  2
11GENINF
 70
     1
  0
ATTDEF
  5
57
330
40
100
AcDbEntity
  8
INFO
100
AcDbText
 10
0.0
 20
-15.0
 30
0.0
 40
1.0
  1

100
AcDbAttributeDefinition
  3
Gewicht
  2
12GENINF
 70
     1
  0
ATTDEF
  5
58
330
40
100
AcDbEntity
  8
INFO
100
AcDbText
 10
0.0
 20
-16.5
 30
0.0
 40
1.0
  1

100
AcDbAttributeDefinition
  3
Preis
  2
13GENINF
 70
     1
  0
ATTDEF
  5
59
330
40
100
AcDbEntity
  8
INFO
100
AcDbText
 10
0.0
 20
-18.0
 30
0.0
 40
1.0
  1

100
AcDbAttributeDefinition
  3
Abmessungen
  2
14GENINF
 70
     1
  0
ATTDEF
  5
5A
330
40
100
AcDbEntity
  8
INFO
100
AcDbText
 10
0.0
 20
-19.5
 30
0.0
 40
1.0
  1

100
AcDbAttributeDefinition
  3
User 1
  2
15GENINF
 70
     1
  0
ATTDEF
  5
5B
330
40
100
AcDbEntity
  8
INFO
100
AcDbText
 10
0.0
 20
-21.0
 30
0.0
 40
1.0
  1

100
AcDbAttributeDefinition
  3
User 2
  2
16GENINF
 70
     1
  0
ATTDEF
  5
5C
330
40
100
AcDbEntity
  8
INFO
100
AcDbText
 10
0.0
 20
-22.5
 30
0.0
 40
1.0
  1

100
AcDbAttributeDefinition
  3
User 3
  2
17GENINF
 70
     1
  0
ATTDEF
  5
5D
330
40
100
AcDbEntity
  8
INFO
100
AcDbText
 10
0.0
 20
-24.0
 30
0.0
 40
1.0
  1

100
AcDbAttributeDefinition
  3
User 4
  2
18GENINF
 70
     1
  0
ATTDEF
  5
5E
330
40
100
AcDbEntity
  8
INFO
100
AcDbText
 10
0.0
 20
-25.5
 30
0.0
 40
1.0
  1

100
AcDbAttributeDefinition
  3
User 5
  2
19GENINF
 70
     1
  0
ATTDEF
  5
5F
330
40
100
AcDbEntity
  8
INFO
100
AcDbText
 10
0.0
 20
-27.0
 30
0.0
 40
1.0
  1

100
AcDbAttributeDefinition
  3
User 6
  2
20GENINF
 70
     1
  0
ATTDEF
  5
60
330
40
100
AcDbEntity
  8
INFO
100
AcDbText
 10
0.0
 20
-28.5
 30
0.0
 40
1.0
  1

100
AcDbAttributeDefinition
  3
User 7
  2
21GENINF
 70
     1
  0
ATTDEF
  5
61
330
40
100
AcDbEntity
  8
INFO
100
AcDbText
 10
0.0
 20
-30.0
 30
0.0
 40
1.0
  1

100
AcDbAttributeDefinition
  3
User 8
  2
22GENINF
 70
     1
  0
ATTDEF
  5
62
330
40
100
AcDbEntity
  8
INFO
100
AcDbText
 10
0.0
 20
-31.5
 30
0.0
 40
1.0
  1

100
AcDbAttributeDefinition
  3
Filter
  2
23GENINF
 70
     1
  0
ATTDEF
  5
63
330
40
100
AcDbEntity
  8
INFO
100
AcDbText
 10
0.0
 20
-33.0
 30
0.0
 40
1.0
  1

100
AcDbAttributeDefinition
  3
Bemerkung
  2
24GENINF
 70
     1
  0
ATTDEF
  5
64
330
40
100
AcDbEntity
  8
INFO
100
AcDbText
 10
0.0
 20
-34.5
 30
0.0
 40
1.0
  1

100
AcDbAttributeDefinition
  3
Genius Normteile ID
  2
0GENINF
 70
     1
  0
ENDBLK
  5
66
330
40
100
AcDbEntity
  8
0
100
AcDbBlockEnd
  0
BLOCK
  5
6CB
330
6C2
100
AcDbEntity
  8
0
100
AcDbBlockBegin
  2
*X1
 70
     1
 10
0.0
 20
0.0
 30
0.0
  3
*X1
  1
GEVFRAME
  0
LINE
  5
6C3
330
6C2
100
AcDbEntity
  8
0
 62
     0
100
AcDbLine
 10
4.639645796094964
 20
-32.48346021619877
 30
0.0
 11
8.166012333908435
 21
-28.95709367838531
 31
0.0
  0
LINE
  5
6C4
330
6C2
100
AcDbEntity
  8
0
 62
     0
100
AcDbLine
 10
4.51049808797666
 20
-30.84484097135071
 30
0.0
 11
7.499999999999972
 21
-27.8553390593274
 31
0.0
  0
LINE
  5
6C5
330
6C2
100
AcDbEntity
  8
0
 62
     0
100
AcDbLine
 10
4.580555394766424
 20
-29.00701671159458
 30
0.0
 11
6.230478427975685
 21
-27.35709367838532
 31
0.0
  0
LINE
  5
6C6
330
6C2
100
AcDbEntity
  8
0
 62
     0
100
AcDbLine
 10
4.423593700908061
 20
-27.39621145248658
 30
0.0
 11
4.46271147500932
 21
-27.35709367838532
 31
0.0
  0
LINE
  5
6C7
330
6C2
100
AcDbEntity
  8
0
 62
     0
100
AcDbLine
 10
4.776153308982602
 20
-34.1147196562775
 30
0.0
 11
7.499999999999972
 21
-31.39087296526014
 31
0.0
  0
LINE
  5
6C8
330
6C2
100
AcDbEntity
  8
0
 62
     0
100
AcDbLine
 10
7.5337792868748
 20
-31.35709367838531
 30
0.0
 11
8.899999999999948
 21
-29.99087296526016
 31
0.0
  0
LINE
  5
6C9
330
6C2
100
AcDbEntity
  8
0
 62
     0
100
AcDbLine
 10
5.301546239841165
 20
-35.35709367838531
 30
0.0
 11
7.499999999999972
 21
-33.15863991822651
 31
0.0
  0
LINE
  5
6CA
330
6C2
100
AcDbEntity
  8
0
 62
     0
100
AcDbLine
 10
7.069313192807534
 20
-35.35709367838531
 30
0.0
 11
7.499999999999972
 21
-34.92640687119287
 31
0.0
  0
ENDBLK
  5
6CC
330
6C2
100
AcDbEntity
  8
0
100
AcDbBlockEnd
  0
BLOCK
  5
6D4
330
6CD
100
AcDbEntity
  8
0
100
AcDbBlockBegin
  2
*X2
 70
     1
 10
0.0
 20
0.0
 30
0.0
  3
*X2
  1
GEVFRAME
  0
LINE
  5
6CE
330
6CD
100
AcDbEntity
  8
0
 62
     0
100
AcDbLine
 10
13.09999999999996
 20
-31.09417382415924
 30
0.0
 11
14.99999999999997
 21
-29.19417382415924
 31
0.0
  0
LINE
  5
6CF
330
6CD
100
AcDbEntity
  8
0
 62
     0
100
AcDbLine
 10
13.09999999999996
 20
-29.32640687119288
 30
0.0
 11
13.46931319280754
 21
-28.95709367838531
 31
0.0
  0
LINE
  5
6D0
330
6CD
100
AcDbEntity
  8
0
 62
     0
100
AcDbLine
 10
14.49999999999997
 20
-27.92640687119288
 30
0.0
 11
14.99999999999997
 21
-27.42640687119287
 31
0.0
  0
LINE
  5
6D1
330
6CD
100
AcDbEntity
  8
0
 62
     0
100
AcDbLine
 10
14.49999999999997
 20
-31.46194077712561
 30
0.0
 11
14.99999999999997
 21
-30.96194077712561
 31
0.0
  0
LINE
  5
6D2
330
6CD
100
AcDbEntity
  8
0
 62
     0
100
AcDbLine
 10
14.49999999999997
 20
-33.22970773009198
 30
0.0
 11
14.99999999999997
 21
-32.72970773009198
 31
0.0
  0
LINE
  5
6D3
330
6CD
100
AcDbEntity
  8
0
 62
     0
100
AcDbLine
 10
14.49999999999997
 20
-34.99747468305835
 30
0.0
 11
14.99999999999997
 21
-34.49747468305835
 31
0.0
  0
ENDBLK
  5
6D5
330
6CD
100
AcDbEntity
  8
0
100
AcDbBlockEnd
  0
BLOCK
  5
C50
330
C4F
100
AcDbEntity
  8
0
100
AcDbBlockBegin
  2
*U3
 70
     1
 10
0.0
 20
0.0
 30
0.0
  3
*U3
  1
*U
  0
LINE
  5
C51
330
C4F
100
AcDbEntity
  8
-BHMU
100
AcDbLine
 10
5.0
 20
2.067
 30
0.0
 11
5.0
 21
-2.067
 31
0.0
  0
LINE
  5
C52
330
C4F
100
AcDbEntity
  8
-BHMU
100
AcDbLine
 10
0.0
 20
2.067
 30
0.0
 11
0.0
 21
-2.067
 31
0.0
  0
LINE
  5
C53
330
C4F
100
AcDbEntity
  8
BHMM
100
AcDbLine
 10
0.0
 20
-2.067
 30
0.0
 11
5.0
 21
-2.067
 31
0.0
  0
LINE
  5
C54
330
C4F
100
AcDbEntity
  8
THLI
100
AcDbLine
 10
0.0
 20
-2.5
 30
0.0
 11
5.0
 21
-2.5
 31
0.0
  0
LINE
  5
C55
330
C4F
100
AcDbEntity
  8
CENN
100
AcDbLine
 10
-3.0
 20
0.0
 30
0.0
 11
8.0
 21
0.0
 31
0.0
  0
LINE
  5
C56
330
C4F
100
AcDbEntity
  8
BHMM
100
AcDbLine
 10
0.0
 20
2.067
 30
0.0
 11
5.0
 21
2.067
 31
0.0
  0
LINE
  5
C57
330
C4F
100
AcDbEntity
  8
THLI
100
AcDbLine
 10
0.0
 20
2.5
 30
0.0
 11
5.0
 21
2.5
 31
0.0
  0
ENDBLK
  5
C58
330
C4F
100
AcDbEntity
  8
0
100
AcDbBlockEnd
  0
BLOCK
  5
C5A
330
C59
100
AcDbEntity
  8
0
100
AcDbBlockBegin
  2
*U4
 70
     1
 10
0.0
 20
0.0
 30
0.0
  3
*U4
  1
*U
  0
INSERT
  5
C5B
330
C59
100
AcDbEntity
  8
GEV_FROZEN
100
AcDbBlockReference
  2
*U3
 10
0.0
 20
0.0
 30
0.0
 41
0.1
 42
0.1
 43
0.1
1001
GENBH
1002
{
1000
-NOBRK
1002
}
  0
LINE
  5
C5C
330
C59
100
AcDbEntity
  8
MSR_I1_2-3A
100
AcDbLine
 10
0.0
 20
-2.067
 30
0.0
 11
5.0
 21
-2.067
 31
0.0
  0
LINE
  5
C5D
330
C59
100
AcDbEntity
  8
MSR_I1_2-3A
100
AcDbLine
 10
0.0
 20
-2.5
 30
0.0
 11
5.0
 21
-2.5
 31
0.0
  0
LINE
  5
C5E
330
C59
100
AcDbEntity
  8
MSR_I1_2-7A
100
AcDbLine
 10
-3.0
 20
0.0
 30
0.0
 11
8.0
 21
0.0
 31
0.0
  0
LINE
  5
C5F
330
C59
100
AcDbEntity
  8
MSR_I1_2-3A
100
AcDbLine
 10
0.0
 20
2.067
 30
0.0
 11
5.0
 21
2.067
 31
0.0
  0
LINE
  5
C60
330
C59
100
AcDbEntity
  8
MSR_I1_2-3A
100
AcDbLine
 10
0.0
 20
2.5
 30
0.0
 11
5.0
 21
2.5
 31
0.0
  0
ENDBLK
  5
C61
330
C59
100
AcDbEntity
  8
0
100
AcDbBlockEnd
  0
BLOCK
  5
C64
330
C63
100
AcDbEntity
  8
0
100
AcDbBlockBegin
  2
*U5
 70
     1
 10
0.0
 20
0.0
 30
0.0
  3
*U5
  1
*U
  0
LINE
  5
C65
330
C63
100
AcDbEntity
  8
-BHMU
100
AcDbLine
 10
5.0
 20
2.067
 30
0.0
 11
5.0
 21
-2.067
 31
0.0
  0
LINE
  5
C66
330
C63
100
AcDbEntity
  8
-BHMU
100
AcDbLine
 10
0.0
 20
2.067
 30
0.0
 11
0.0
 21
-2.067
 31
0.0
  0
LINE
  5
C67
330
C63
100
AcDbEntity
  8
BHMM
100
AcDbLine
 10
0.0
 20
-2.067
 30
0.0
 11
5.0
 21
-2.067
 31
0.0
  0
LINE
  5
C68
330
C63
100
AcDbEntity
  8
THLI
100
AcDbLine
 10
0.0
 20
-2.5
 30
0.0
 11
5.0
 21
-2.5
 31
0.0
  0
LINE
  5
C69
330
C63
100
AcDbEntity
  8
CENN
100
AcDbLine
 10
-3.0
 20
0.0
 30
0.0
 11
8.0
 21
0.0
 31
0.0
  0
LINE
  5
C6A
330
C63
100
AcDbEntity
  8
BHMM
100
AcDbLine
 10
0.0
 20
2.067
 30
0.0
 11
5.0
 21
2.067
 31
0.0
  0
LINE
  5
C6B
330
C63
100
AcDbEntity
  8
THLI
100
AcDbLine
 10
0.0
 20
2.5
 30
0.0
 11
5.0
 21
2.5
 31
0.0
  0
ENDBLK
  5
C6C
330
C63
100
AcDbEntity
  8
0
100
AcDbBlockEnd
  0
BLOCK
  5
C6E
330
C6D
100
AcDbEntity
  8
0
100
AcDbBlockBegin
  2
*U6
 70
     1
 10
0.0
 20
0.0
 30
0.0
  3
*U6
  1
*U
  0
INSERT
  5
C6F
330
C6D
100
AcDbEntity
  8
GEV_FROZEN
100
AcDbBlockReference
  2
*U5
 10
0.0
 20
0.0
 30
0.0
 41
0.1
 42
0.1
 43
0.1
1001
GENBH
1002
{
1000
-NOBRK
1002
}
  0
LINE
  5
C70
330
C6D
100
AcDbEntity
  8
MSR_I1_2-3A
100
AcDbLine
 10
0.0
 20
-2.067
 30
0.0
 11
5.0
 21
-2.067
 31
0.0
  0
LINE
  5
C71
330
C6D
100
AcDbEntity
  8
MSR_I1_2-3A
100
AcDbLine
 10
0.0
 20
-2.5
 30
0.0
 11
5.0
 21
-2.5
 31
0.0
  0
LINE
  5
C72
330
C6D
100
AcDbEntity
  8
MSR_I1_2-7A
100
AcDbLine
 10
-3.0
 20
0.0
 30
0.0
 11
8.0
 21
0.0
 31
0.0
  0
LINE
  5
C73
330
C6D
100
AcDbEntity
  8
MSR_I1_2-3A
100
AcDbLine
 10
0.0
 20
2.067
 30
0.0
 11
5.0
 21
2.067
 31
0.0
  0
LINE
  5
C74
330
C6D
100
AcDbEntity
  8
MSR_I1_2-3A
100
AcDbLine
 10
0.0
 20
2.5
 30
0.0
 11
5.0
 21
2.5
 31
0.0
  0
ENDBLK
  5
C75
330
C6D
100
AcDbEntity
  8
0
100
AcDbBlockEnd
  0
BLOCK
  5
C78
330
C77
100
AcDbEntity
  8
0
100
AcDbBlockBegin
  2
*U7
 70
     1
 10
0.0
 20
0.0
 30
0.0
  3
*U7
  1
*U
  0
LINE
  5
C79
330
C77
100
AcDbEntity
  8
-BHMU
100
AcDbLine
 10
5.0
 20
2.067
 30
0.0
 11
5.0
 21
-2.067
 31
0.0
  0
LINE
  5
C7A
330
C77
100
AcDbEntity
  8
-BHMU
100
AcDbLine
 10
0.0
 20
2.067
 30
0.0
 11
0.0
 21
-2.067
 31
0.0
  0
LINE
  5
C7B
330
C77
100
AcDbEntity
  8
BHMM
100
AcDbLine
 10
0.0
 20
-2.067
 30
0.0
 11
5.0
 21
-2.067
 31
0.0
  0
LINE
  5
C7C
330
C77
100
AcDbEntity
  8
THLI
100
AcDbLine
 10
0.0
 20
-2.5
 30
0.0
 11
5.0
 21
-2.5
 31
0.0
  0
LINE
  5
C7D
330
C77
100
AcDbEntity
  8
CENN
100
AcDbLine
 10
-3.0
 20
0.0
 30
0.0
 11
8.0
 21
0.0
 31
0.0
  0
LINE
  5
C7E
330
C77
100
AcDbEntity
  8
BHMM
100
AcDbLine
 10
0.0
 20
2.067
 30
0.0
 11
5.0
 21
2.067
 31
0.0
  0
LINE
  5
C7F
330
C77
100
AcDbEntity
  8
THLI
100
AcDbLine
 10
0.0
 20
2.5
 30
0.0
 11
5.0
 21
2.5
 31
0.0
  0
ENDBLK
  5
C80
330
C77
100
AcDbEntity
  8
0
100
AcDbBlockEnd
  0
BLOCK
  5
C82
330
C81
100
AcDbEntity
  8
0
100
AcDbBlockBegin
  2
*U8
 70
     1
 10
0.0
 20
0.0
 30
0.0
  3
*U8
  1
*U
  0
INSERT
  5
C83
330
C81
100
AcDbEntity
  8
GEV_FROZEN
100
AcDbBlockReference
  2
*U7
 10
0.0
 20
0.0
 30
0.0
 41
0.1
 42
0.1
 43
0.1
1001
GENBH
1002
{
1000
-NOBRK
1002
}
  0
LINE
  5
C84
330
C81
100
AcDbEntity
  8
MSR_I1_2-3A
100
AcDbLine
 10
0.0
 20
-2.067
 30
0.0
 11
5.0
 21
-2.067
 31
0.0
  0
LINE
  5
C85
330
C81
100
AcDbEntity
  8
MSR_I1_2-3A
100
AcDbLine
 10
0.0
 20
-2.5
 30
0.0
 11
5.0
 21
-2.5
 31
0.0
  0
LINE
  5
C86
330
C81
100
AcDbEntity
  8
MSR_I1_2-7A
100
AcDbLine
 10
-3.0
 20
0.0
 30
0.0
 11
8.0
 21
0.0
 31
0.0
  0
LINE
  5
C87
330
C81
100
AcDbEntity
  8
MSR_I1_2-3A
100
AcDbLine
 10
0.0
 20
2.067
 30
0.0
 11
5.0
 21
2.067
 31
0.0
  0
LINE
  5
C88
330
C81
100
AcDbEntity
  8
MSR_I1_2-3A
100
AcDbLine
 10
0.0
 20
2.5
 30
0.0
 11
5.0
 21
2.5
 31
0.0
  0
ENDBLK
  5
C89
330
C81
100
AcDbEntity
  8
0
100
AcDbBlockEnd
  0
BLOCK
  5
C8C
330
C8B
100
AcDbEntity
  8
0
100
AcDbBlockBegin
  2
*U9
 70
     1
 10
0.0
 20
0.0
 30
0.0
  3
*U9
  1
*U
  0
LINE
  5
C8D
330
C8B
100
AcDbEntity
  8
CENN
100
AcDbLine
 10
0.0
 20
-5.5
 30
0.0
 11
0.0
 21
5.5
 31
0.0
  0
CIRCLE
  5
C8E
330
C8B
100
AcDbEntity
  8
BHMM
100
AcDbCircle
 10
0.0
 20
0.0
 30
0.0
 40
2.067
  0
ARC
  5
C8F
330
C8B
100
AcDbEntity
  8
THLI
100
AcDbCircle
 10
0.0
 20
0.0
 30
0.0
 40
2.5
100
AcDbArc
 50
280.0
 51
210.0
  0
LINE
  5
C90
330
C8B
100
AcDbEntity
  8
CENN
100
AcDbLine
 10
-5.5
 20
0.0
 30
0.0
 11
5.5
 21
0.0
 31
0.0
  0
ENDBLK
  5
C91
330
C8B
100
AcDbEntity
  8
0
100
AcDbBlockEnd
  0
BLOCK
  5
C93
330
C92
100
AcDbEntity
  8
0
100
AcDbBlockBegin
  2
*U10
 70
     1
 10
0.0
 20
0.0
 30
0.0
  3
*U10
  1
*U
  0
INSERT
  5
C94
330
C92
100
AcDbEntity
  8
GEV_FROZEN
100
AcDbBlockReference
  2
*U9
 10
0.0
 20
0.0
 30
0.0
 41
0.1
 42
0.1
 43
0.1
1001
GENBH
1002
{
1000
-NOBRK
1002
}
  0
LINE
  5
C95
330
C92
100
AcDbEntity
  8
MSR_I1_2-7A
100
AcDbLine
 10
0.0
 20
-5.5
 30
0.0
 11
0.0
 21
5.5
 31
0.0
  0
CIRCLE
  5
C96
330
C92
100
AcDbEntity
  8
MSR_I1_2-0
100
AcDbCircle
 10
0.0
 20
0.0
 30
0.0
 40
2.067
  0
ARC
  5
C97
330
C92
100
AcDbEntity
  8
MSR_I1_2-4
100
AcDbCircle
 10
0.0
 20
0.0
 30
0.0
 40
2.5
100
AcDbArc
 50
280.0
 51
210.0
  0
LINE
  5
C98
330
C92
100
AcDbEntity
  8
MSR_I1_2-7A
100
AcDbLine
 10
-5.5
 20
0.0
 30
0.0
 11
5.5
 21
0.0
 31
0.0
  0
ENDBLK
  5
C99
330
C92
100
AcDbEntity
  8
0
100
AcDbBlockEnd
  0
BLOCK
  5
C9C
330
C9B
100
AcDbEntity
  8
0
100
AcDbBlockBegin
  2
*U11
 70
     1
 10
0.0
 20
0.0
 30
0.0
  3
*U11
  1
*U
  0
LINE
  5
C9D
330
C9B
100
AcDbEntity
  8
CENN
100
AcDbLine
 10
0.0
 20
-5.5
 30
0.0
 11
0.0
 21
5.5
 31
0.0
  0
CIRCLE
  5
C9E
330
C9B
100
AcDbEntity
  8
BHMM
100
AcDbCircle
 10
0.0
 20
0.0
 30
0.0
 40
2.067
  0
ARC
  5
C9F
330
C9B
100
AcDbEntity
  8
THLI
100
AcDbCircle
 10
0.0
 20
0.0
 30
0.0
 40
2.5
100
AcDbArc
 50
280.0
 51
210.0
  0
LINE
  5
CA0
330
C9B
100
AcDbEntity
  8
CENN
100
AcDbLine
 10
-5.5
 20
0.0
 30
0.0
 11
5.5
 21
0.0
 31
0.0
  0
ENDBLK
  5
CA1
330
C9B
100
AcDbEntity
  8
0
100
AcDbBlockEnd
  0
BLOCK
  5
CA3
330
CA2
100
AcDbEntity
  8
0
100
AcDbBlockBegin
  2
*U12
 70
     1
 10
0.0
 20
0.0
 30
0.0
  3
*U12
  1
*U
  0
INSERT
  5
CA4
330
CA2
100
AcDbEntity
  8
GEV_FROZEN
100
AcDbBlockReference
  2
*U11
 10
0.0
 20
0.0
 30
0.0
 41
0.1
 42
0.1
 43
0.1
1001
GENBH
1002
{
1000
-NOBRK
1002
}
  0
LINE
  5
CA5
330
CA2
100
AcDbEntity
  8
MSR_I1_2-7A
100
AcDbLine
 10
0.0
 20
-5.5
 30
0.0
 11
0.0
 21
5.5
 31
0.0
  0
CIRCLE
  5
CA6
330
CA2
100
AcDbEntity
  8
MSR_I1_2-0
100
AcDbCircle
 10
0.0
 20
0.0
 30
0.0
 40
2.067
  0
ARC
  5
CA7
330
CA2
100
AcDbEntity
  8
MSR_I1_2-4
100
AcDbCircle
 10
0.0
 20
0.0
 30
0.0
 40
2.5
100
AcDbArc
 50
280.0
 51
210.0
  0
LINE
  5
CA8
330
CA2
100
AcDbEntity
  8
MSR_I1_2-7A
100
AcDbLine
 10
-5.5
 20
0.0
 30
0.0
 11
5.5
 21
0.0
 31
0.0
  0
ENDBLK
  5
CA9
330
CA2
100
AcDbEntity
  8
0
100
AcDbBlockEnd
  0
BLOCK
  5
CAC
330
CAB
100
AcDbEntity
  8
0
100
AcDbBlockBegin
  2
*U13
 70
     1
 10
0.0
 20
0.0
 30
0.0
  3
*U13
  1
*U
  0
LINE
  5
CAD
330
CAB
100
AcDbEntity
  8
CENN
100
AcDbLine
 10
0.0
 20
-5.5
 30
0.0
 11
0.0
 21
5.5
 31
0.0
  0
CIRCLE
  5
CAE
330
CAB
100
AcDbEntity
  8
BHMM
100
AcDbCircle
 10
0.0
 20
0.0
 30
0.0
 40
2.067
  0
ARC
  5
CAF
330
CAB
100
AcDbEntity
  8
THLI
100
AcDbCircle
 10
0.0
 20
0.0
 30
0.0
 40
2.5
100
AcDbArc
 50
280.0
 51
210.0
  0
LINE
  5
CB0
330
CAB
100
AcDbEntity
  8
CENN
100
AcDbLine
 10
-5.5
 20
0.0
 30
0.0
 11
5.5
 21
0.0
 31
0.0
  0
ENDBLK
  5
CB1
330
CAB
100
AcDbEntity
  8
0
100
AcDbBlockEnd
  0
BLOCK
  5
CB3
330
CB2
100
AcDbEntity
  8
0
100
AcDbBlockBegin
  2
*U14
 70
     1
 10
0.0
 20
0.0
 30
0.0
  3
*U14
  1
*U
  0
INSERT
  5
CB4
330
CB2
100
AcDbEntity
  8
GEV_FROZEN
100
AcDbBlockReference
  2
*U13
 10
0.0
 20
0.0
 30
0.0
 41
0.1
 42
0.1
 43
0.1
1001
GENBH
1002
{
1000
-NOBRK
1002
}
  0
LINE
  5
CB5
330
CB2
100
AcDbEntity
  8
MSR_I1_2-7A
100
AcDbLine
 10
0.0
 20
-5.5
 30
0.0
 11
0.0
 21
5.5
 31
0.0
  0
CIRCLE
  5
CB6
330
CB2
100
AcDbEntity
  8
MSR_I1_2-0
100
AcDbCircle
 10
0.0
 20
0.0
 30
0.0
 40
2.067
  0
ARC
  5
CB7
330
CB2
100
AcDbEntity
  8
MSR_I1_2-4
100
AcDbCircle
 10
0.0
 20
0.0
 30
0.0
 40
2.5
100
AcDbArc
 50
280.0
 51
210.0
  0
LINE
  5
CB8
330
CB2
100
AcDbEntity
  8
MSR_I1_2-7A
100
AcDbLine
 10
-5.5
 20
0.0
 30
0.0
 11
5.5
 21
0.0
 31
0.0
  0
ENDBLK
  5
CB9
330
CB2
100
AcDbEntity
  8
0
100
AcDbBlockEnd
  0
BLOCK
  5
CBC
330
CBB
100
AcDbEntity
  8
0
100
AcDbBlockBegin
  2
*U15
 70
     1
 10
0.0
 20
0.0
 30
0.0
  3
*U15
  1
*U
  0
LINE
  5
CBD
330
CBB
100
AcDbEntity
  8
-BHMU
100
AcDbLine
 10
5.0
 20
2.067
 30
0.0
 11
5.0
 21
-2.067
 31
0.0
  0
LINE
  5
CBE
330
CBB
100
AcDbEntity
  8
-BHMU
100
AcDbLine
 10
0.0
 20
2.067
 30
0.0
 11
0.0
 21
-2.067
 31
0.0
  0
LINE
  5
CBF
330
CBB
100
AcDbEntity
  8
BHMM
100
AcDbLine
 10
0.0
 20
-2.067
 30
0.0
 11
5.0
 21
-2.067
 31
0.0
  0
LINE
  5
CC0
330
CBB
100
AcDbEntity
  8
THLI
100
AcDbLine
 10
0.0
 20
-2.5
 30
0.0
 11
5.0
 21
-2.5
 31
0.0
  0
LINE
  5
CC1
330
CBB
100
AcDbEntity
  8
CENN
100
AcDbLine
 10
-3.0
 20
0.0
 30
0.0
 11
8.0
 21
0.0
 31
0.0
  0
LINE
  5
CC2
330
CBB
100
AcDbEntity
  8
BHMM
100
AcDbLine
 10
0.0
 20
2.067
 30
0.0
 11
5.0
 21
2.067
 31
0.0
  0
LINE
  5
CC3
330
CBB
100
AcDbEntity
  8
THLI
100
AcDbLine
 10
0.0
 20
2.5
 30
0.0
 11
5.0
 21
2.5
 31
0.0
  0
ENDBLK
  5
CC4
330
CBB
100
AcDbEntity
  8
0
100
AcDbBlockEnd
  0
BLOCK
  5
CC6
330
CC5
100
AcDbEntity
  8
0
100
AcDbBlockBegin
  2
*U16
 70
     1
 10
0.0
 20
0.0
 30
0.0
  3
*U16
  1
*U
  0
INSERT
  5
CC7
330
CC5
100
AcDbEntity
  8
GEV_FROZEN
100
AcDbBlockReference
  2
*U15
 10
0.0
 20
0.0
 30
0.0
 41
0.1
 42
0.1
 43
0.1
1001
GENBH
1002
{
1000
-NOBRK
1002
}
  0
LINE
  5
CC8
330
CC5
100
AcDbEntity
  8
MSR_I1_2-3A
100
AcDbLine
 10
0.0
 20
-2.067
 30
0.0
 11
5.0
 21
-2.067
 31
0.0
  0
LINE
  5
CC9
330
CC5
100
AcDbEntity
  8
MSR_I1_2-3A
100
AcDbLine
 10
0.0
 20
-2.5
 30
0.0
 11
5.0
 21
-2.5
 31
0.0
  0
LINE
  5
CCA
330
CC5
100
AcDbEntity
  8
MSR_I1_2-7A
100
AcDbLine
 10
-3.0
 20
0.0
 30
0.0
 11
8.0
 21
0.0
 31
0.0
  0
LINE
  5
CCB
330
CC5
100
AcDbEntity
  8
MSR_I1_2-3A
100
AcDbLine
 10
0.0
 20
2.067
 30
0.0
 11
5.0
 21
2.067
 31
0.0
  0
LINE
  5
CCC
330
CC5
100
AcDbEntity
  8
MSR_I1_2-3A
100
AcDbLine
 10
0.0
 20
2.5
 30
0.0
 11
5.0
 21
2.5
 31
0.0
  0
ENDBLK
  5
CCD
330
CC5
100
AcDbEntity
  8
0
100
AcDbBlockEnd
  0
BLOCK
  5
CD0
330
CCF
100
AcDbEntity
  8
0
100
AcDbBlockBegin
  2
*U17
 70
     1
 10
0.0
 20
0.0
 30
0.0
  3
*U17
  1
*U
  0
LINE
  5
CD1
330
CCF
100
AcDbEntity
  8
-BHMU
100
AcDbLine
 10
5.0
 20
2.067
 30
0.0
 11
5.0
 21
-2.067
 31
0.0
  0
LINE
  5
CD2
330
CCF
100
AcDbEntity
  8
-BHMU
100
AcDbLine
 10
0.0
 20
2.067
 30
0.0
 11
0.0
 21
-2.067
 31
0.0
  0
LINE
  5
CD3
330
CCF
100
AcDbEntity
  8
BHMM
100
AcDbLine
 10
0.0
 20
-2.067
 30
0.0
 11
5.0
 21
-2.067
 31
0.0
  0
LINE
  5
CD4
330
CCF
100
AcDbEntity
  8
THLI
100
AcDbLine
 10
0.0
 20
-2.5
 30
0.0
 11
5.0
 21
-2.5
 31
0.0
  0
LINE
  5
CD5
330
CCF
100
AcDbEntity
  8
CENN
100
AcDbLine
 10
-3.0
 20
0.0
 30
0.0
 11
8.0
 21
0.0
 31
0.0
  0
LINE
  5
CD6
330
CCF
100
AcDbEntity
  8
BHMM
100
AcDbLine
 10
0.0
 20
2.067
 30
0.0
 11
5.0
 21
2.067
 31
0.0
  0
LINE
  5
CD7
330
CCF
100
AcDbEntity
  8
THLI
100
AcDbLine
 10
0.0
 20
2.5
 30
0.0
 11
5.0
 21
2.5
 31
0.0
  0
ENDBLK
  5
CD8
330
CCF
100
AcDbEntity
  8
0
100
AcDbBlockEnd
  0
BLOCK
  5
CDA
330
CD9
100
AcDbEntity
  8
0
100
AcDbBlockBegin
  2
*U18
 70
     1
 10
0.0
 20
0.0
 30
0.0
  3
*U18
  1
*U
  0
INSERT
  5
CDB
330
CD9
100
AcDbEntity
  8
GEV_FROZEN
100
AcDbBlockReference
  2
*U17
 10
0.0
 20
0.0
 30
0.0
 41
0.1
 42
0.1
 43
0.1
1001
GENBH
1002
{
1000
-NOBRK
1002
}
  0
LINE
  5
CDC
330
CD9
100
AcDbEntity
  8
MSR_I1_2-3A
100
AcDbLine
 10
0.0
 20
-2.067
 30
0.0
 11
5.0
 21
-2.067
 31
0.0
  0
LINE
  5
CDD
330
CD9
100
AcDbEntity
  8
MSR_I1_2-3A
100
AcDbLine
 10
0.0
 20
-2.5
 30
0.0
 11
5.0
 21
-2.5
 31
0.0
  0
LINE
  5
CDE
330
CD9
100
AcDbEntity
  8
MSR_I1_2-7A
100
AcDbLine
 10
-3.0
 20
0.0
 30
0.0
 11
8.0
 21
0.0
 31
0.0
  0
LINE
  5
CDF
330
CD9
100
AcDbEntity
  8
MSR_I1_2-3A
100
AcDbLine
 10
0.0
 20
2.067
 30
0.0
 11
5.0
 21
2.067
 31
0.0
  0
LINE
  5
CE0
330
CD9
100
AcDbEntity
  8
MSR_I1_2-3A
100
AcDbLine
 10
0.0
 20
2.5
 30
0.0
 11
5.0
 21
2.5
 31
0.0
  0
ENDBLK
  5
CE1
330
CD9
100
AcDbEntity
  8
0
100
AcDbBlockEnd
  0
BLOCK
  5
DCB
330
DC9
100
AcDbEntity
  8
0
100
AcDbBlockBegin
  2
GENAXEH
 70
     0
 10
0.0
 20
0.0
 30
0.0
  3
GENAXEH
  1

  0
LINE
  5
DCA
330
DC9
100
AcDbEntity
  8
0
100
AcDbLine
 10
-1.0
 20
0.0
 30
0.0
 11
1.0
 21
0.0
 31
0.0
  0
ENDBLK
  5
DCC
330
DC9
100
AcDbEntity
  8
0
100
AcDbBlockEnd
  0
ENDSEC
  0
SECTION
  2
ENTITIES
  0
POLYLINE
  5
9DD
330
1A
100
AcDbEntity
  8
MSR_I1_2-4A
100
AcDb2dPolyline
 66
     1
 10
0.0
 20
0.0
 30
0.0
  0
VERTEX
  5
9DE
330
9DD
100
AcDbEntity
  8
MSR_I1_2-4A
100
AcDbVertex
100
AcDb2dVertex
 10
-39.80000000000006
 20
-54.85709367838532
 30
0.0
  0
VERTEX
  5
9DF
330
9DD
100
AcDbEntity
  8
MSR_I1_2-4A
100
AcDbVertex
100
AcDb2dVertex
 10
-60.80000000000005
 20
-54.85709367838532
 30
0.0
  0
VERTEX
  5
9E0
330
9DD
100
AcDbEntity
  8
MSR_I1_2-4A
100
AcDbVertex
100
AcDb2dVertex
 10
-60.80000000000005
 20
-64.85709367838532
 30
0.0
  0
VERTEX
  5
9E1
330
9DD
100
AcDbEntity
  8
MSR_I1_2-4A
100
AcDbVertex
100
AcDb2dVertex
 10
-39.80000000000006
 20
-64.85709367838532
 30
0.0
  0
SEQEND
  5
9E2
330
9DD
100
AcDbEntity
  8
MSR_I1_2-4A
  0
POLYLINE
  5
9E3
330
1A
100
AcDbEntity
  8
MSR_I1_2-4A
100
AcDb2dPolyline
 66
     1
 10
0.0
 20
0.0
 30
0.0
  0
VERTEX
  5
9E4
330
9E3
100
AcDbEntity
  8
MSR_I1_2-4A
100
AcDbVertex
100
AcDb2dVertex
 10
-39.80000000000006
 20
-55.85709367838532
 30
0.0
  0
VERTEX
  5
9E5
330
9E3
100
AcDbEntity
  8
MSR_I1_2-4A
100
AcDbVertex
100
AcDb2dVertex
 10
-65.80000000000005
 20
-55.85709367838532
 30
0.0
  0
VERTEX
  5
9E6
330
9E3
100
AcDbEntity
  8
MSR_I1_2-4A
100
AcDbVertex
100
AcDb2dVertex
 10
-65.80000000000005
 20
-63.85709367838533
 30
0.0
  0
VERTEX
  5
9E7
330
9E3
100
AcDbEntity
  8
MSR_I1_2-4A
100
AcDbVertex
100
AcDb2dVertex
 10
-39.80000000000006
 20
-63.85709367838533
 30
0.0
  0
SEQEND
  5
9E8
330
9E3
100
AcDbEntity
  8
MSR_I1_2-4A
  0
LINE
  5
9E9
330
1A
100
AcDbEntity
  8
MSR_I1_2-7
100
AcDbLine
 10
-67.03080700000005
 20
-59.85709367838532
 30
0.0
 11
-39.80000000000006
 21
-59.85709367838532
 31
0.0
  0
POLYLINE
  5
9EA
330
1A
100
AcDbEntity
  8
MSR_I1_2-0
100
AcDb2dPolyline
 66
     1
 10
0.0
 20
0.0
 30
0.0
 70
     1
  0
VERTEX
  5
9EB
330
9EA
100
AcDbEntity
  8
MSR_I1_2-0
100
AcDbVertex
100
AcDb2dVertex
 10
-117.911625
 20
-48.15709367838532
 30
0.0
  0
VERTEX
  5
9EC
330
9EA
100
AcDbEntity
  8
MSR_I1_2-0
100
AcDbVertex
100
AcDb2dVertex
 10
-87.91162500000005
 20
-48.15709367838532
 30
0.0
  0
VERTEX
  5
9ED
330
9EA
100
AcDbEntity
  8
MSR_I1_2-0
100
AcDbVertex
100
AcDb2dVertex
 10
-87.91162500000005
 20
-88.3570936783853
 30
0.0
  0
VERTEX
  5
9EE
330
9EA
100
AcDbEntity
  8
MSR_I1_2-0
100
AcDbVertex
100
AcDb2dVertex
 10
-117.911625
 20
-88.3570936783853
 30
0.0
  0
VERTEX
  5
9EF
330
9EA
100
AcDbEntity
  8
MSR_I1_2-0
100
AcDbVertex
100
AcDb2dVertex
 10
-117.911625
 20
-48.15709367838532
 30
0.0
  0
SEQEND
  5
9F0
330
9EA
100
AcDbEntity
  8
MSR_I1_2-0
  0
LINE
  5
9F1
330
1A
100
AcDbEntity
  8
MSR_I1_2-7
100
AcDbLine
 10
-102.911625
 20
-25.21323667838533
 30
0.0
 11
-102.911625
 21
-90.33198667838531
 31
0.0
1001
GENIUS_GENOREF_13
1005
C4E
  0
LINE
  5
9F2
330
1A
100
AcDbEntity
  8
MSR_I1_2-0
100
AcDbLine
 10
-117.911625
 20
-73.35709367838531
 30
0.0
 11
-87.91162500000005
 21
-73.35709367838531
 31
0.0
  0
TEXT
  5
9F3
330
1A
100
AcDbEntity
  8
MSR_I1_2-6
100
AcDbText
 10
-116.0877163714264
 20
-86.52419381178335
 30
0.0
 40
2.0
  1
MSR I-1/2
100
AcDbText
  0
INSERT
  5
9F4
330
1A
100
AcDbEntity
  8
MSR_I1_2-0
100
AcDbBlockReference
  2
*U12
 10
-113.911625
 20
-67.85709367838354
 30
0.0
1001
GENIUS_GEFPARTINS_13
1002
{
1011
-113.911625
1021
-67.85709367838354
1031
0.0
1013
1.0
1023
0.0
1033
0.0
1002
}
1001
VCC
1002
{
1000
-ID13
1000
-IE41
1000
-IK13
1000
-V$PV_GENSYSTEM"GEF\VAL\DI\0401\DI1616_D.DXF"
1002
}
1001
GEVIT
1002
{
1000
-BEHI6.00000001
1000
-BVCCT0
1000
-GRP0?
1000
-BAML2
1000
-BASK1
1000
-NT0
1000
-DOC
1005
C9C
1000
-MYREF
1005
9F4
1002
}
1001
GEVPT
1002
{
1000
-V$PV_GENSYSTEM"GEF\VAL\DI\0401\DI1616_D.DXF"
1000
-GPGEF_PROCALC=1
1000
-GPGEF_FLIPY=1
1000
-GPGEF_FLIPX=1
1000
-GPGEF_SNK_ADD=0
1000
-GPGEVPROMPTX=Länge:
1000
-GPGEF_OANG=70
1000
-GPGEF_STANG=210
1000
-GPGEF_DRAG=1
1000
-GPGEF_CDIST=3
1000
-GPVCC_TABLE=C:\GENIUS\gef\val\di\0401\di1616.val
1000
-GPNND=5
1000
-GPPRE=M
1002
}
1001
GENIUS_GENOREF_13
1005
C4D
1005
C4C
1001
GEVMK
1002
{
1000
-CO
1000
-MYREF
1005
9F4
1002
}
1001
GEVID886156785
1002
{
1002
}
  0
INSERT
  5
9F5
330
1A
100
AcDbEntity
  8
MSR_I1_2-0
100
AcDbBlockReference
  2
*U14
 10
-91.91162500000006
 20
-69.35709367838353
 30
0.0
1001
GENIUS_GEFPARTINS_13
1002
{
1011
-91.91162500000006
1021
-69.35709367838353
1031
0.0
1013
1.0
1023
0.0
1033
0.0
1002
}
1001
VCC
1002
{
1000
-ID14
1000
-IE42
1000
-IK14
1000
-V$PV_GENSYSTEM"GEF\VAL\DI\0401\DI1616_D.DXF"
1002
}
1001
GEVIT
1002
{
1000
-BEHI7.00000001
1000
-BVCCT0
1000
-GRP0?
1000
-BAML2
1000
-BASK1
1000
-NT0
1000
-DOC
1005
CAC
1000
-MYREF
1005
9F5
1002
}
1001
GEVPT
1002
{
1000
-V$PV_GENSYSTEM"GEF\VAL\DI\0401\DI1616_D.DXF"
1000
-GPGEF_PROCALC=1
1000
-GPGEF_FLIPY=1
1000
-GPGEF_FLIPX=1
1000
-GPGEF_SNK_ADD=0
1000
-GPGEVPROMPTX=Länge:
1000
-GPGEF_OANG=70
1000
-GPGEF_STANG=210
1000
-GPGEF_DRAG=1
1000
-GPGEF_CDIST=3
1000
-GPVCC_TABLE=C:\GENIUS\gef\val\di\0401\di1616.val
1000
-GPNND=5
1000
-GPPRE=M
1002
}
1001
GENIUS_GENOREF_13
1005
C4B
1005
C4A
1001
GEVMK
1002
{
1000
-CO
1000
-MYREF
1005
9F5
1002
}
1001
GEVID886156786
1002
{
1002
}
  0
INSERT
  5
9F6
330
1A
100
AcDbEntity
  8
MSR_I1_2-0
100
AcDbBlockReference
  2
*U10
 10
-102.9116250000006
 20
-31.35709367838531
 30
0.0
1001
GENIUS_GEFPARTINS_13
1002
{
1011
-102.9116250000006
1021
-31.35709367838531
1031
0.0
1013
1.0
1023
0.0
1033
0.0
1002
}
1001
VCC
1002
{
1000
-ID12
1000
-IE40
1000
-IK12
1000
-V$PV_GENSYSTEM"GEF\VAL\DI\0401\DI1616_D.DXF"
1002
}
1001
GEVIT
1002
{
1000
-BEHI5.00000001
1000
-BVCCT0
1000
-GRP0?
1000
-BAML2
1000
-BASK1
1000
-NT0
1000
-DOC
1005
C8C
1000
-MYREF
1005
9F6
1002
}
1001
GEVPT
1002
{
1000
-V$PV_GENSYSTEM"GEF\VAL\DI\0401\DI1616_D.DXF"
1000
-GPGEF_PROCALC=1
1000
-GPGEF_FLIPY=1
1000
-GPGEF_FLIPX=1
1000
-GPGEF_SNK_ADD=0
1000
-GPGEVPROMPTX=Länge:
1000
-GPGEF_OANG=70
1000
-GPGEF_STANG=210
1000
-GPGEF_DRAG=1
1000
-GPGEF_CDIST=3
1000
-GPVCC_TABLE=C:\GENIUS\gef\val\di\0401\di1616.val
1000
-GPNND=5
1000
-GPPRE=M
1002
}
1001
GENIUS_GENOREF_13
1005
C49
1005
C48
1001
GEVMK
1002
{
1000
-CO
1000
-MYREF
1005
9F6
1002
}
1001
GEVID886156784
1002
{
1002
}
  0
POLYLINE
  5
9F7
330
1A
100
AcDbEntity
  8
MSR_I1_2-0
100
AcDb2dPolyline
 66
     1
 10
0.0
 20
0.0
 30
0.0
 70
     1
  0
VERTEX
  5
9F8
330
9F7
100
AcDbEntity
  8
MSR_I1_2-0
100
AcDbVertex
100
AcDb2dVertex
 10
-117.911625
 20
-44.35709367838533
 30
0.0
  0
VERTEX
  5
9F9
330
9F7
100
AcDbEntity
  8
MSR_I1_2-0
100
AcDbVertex
100
AcDb2dVertex
 10
-87.91162500000005
 20
-44.35709367838533
 30
0.0
  0
VERTEX
  5
9FA
330
9F7
100
AcDbEntity
  8
MSR_I1_2-0
100
AcDbVertex
100
AcDb2dVertex
 10
-87.91162500000005
 20
-46.85709367838533
 30
0.0
  0
VERTEX
  5
9FB
330
9F7
100
AcDbEntity
  8
MSR_I1_2-0
100
AcDbVertex
100
AcDb2dVertex
 10
-117.911625
 20
-46.85709367838533
 30
0.0
  0
VERTEX
  5
9FC
330
9F7
100
AcDbEntity
  8
MSR_I1_2-0
100
AcDbVertex
100
AcDb2dVertex
 10
-117.911625
 20
-44.35709367838533
 30
0.0
  0
SEQEND
  5
9FD
330
9F7
100
AcDbEntity
  8
MSR_I1_2-0
  0
POLYLINE
  5
9FE
330
1A
100
AcDbEntity
  8
MSR_I1_2-0
100
AcDb2dPolyline
 66
     1
 10
0.0
 20
0.0
 30
0.0
 70
     1
  0
VERTEX
  5
9FF
330
9FE
100
AcDbEntity
  8
MSR_I1_2-0
100
AcDbVertex
100
AcDb2dVertex
 10
-117.911625
 20
-35.35709367838533
 30
0.0
  0
VERTEX
  5
A00
330
9FE
100
AcDbEntity
  8
MSR_I1_2-0
100
AcDbVertex
100
AcDb2dVertex
 10
-87.91162500000005
 20
-35.35709367838533
 30
0.0
  0
VERTEX
  5
A01
330
9FE
100
AcDbEntity
  8
MSR_I1_2-0
100
AcDbVertex
100
AcDb2dVertex
 10
-87.91162500000005
 20
-27.35709367838533
 30
0.0
  0
VERTEX
  5
A02
330
9FE
100
AcDbEntity
  8
MSR_I1_2-0
100
AcDbVertex
100
AcDb2dVertex
 10
-117.911625
 20
-27.35709367838533
 30
0.0
  0
VERTEX
  5
A03
330
9FE
100
AcDbEntity
  8
MSR_I1_2-0
100
AcDbVertex
100
AcDb2dVertex
 10
-117.911625
 20
-35.35709367838533
 30
0.0
  0
SEQEND
  5
A04
330
9FE
100
AcDbEntity
  8
MSR_I1_2-0
  0
LINE
  5
A05
330
1A
100
AcDbEntity
  8
MSR_I1_2-0
100
AcDbLine
 10
-111.911625
 20
-35.35709367838533
 30
0.0
 11
-111.911625
 21
-44.35709367838533
 31
0.0
  0
LINE
  5
A06
330
1A
100
AcDbEntity
  8
MSR_I1_2-0
100
AcDbLine
 10
-117.911625
 20
-44.35709367838533
 30
0.0
 11
-117.911625
 21
-35.35709367838533
 31
0.0
  0
LINE
  5
A07
330
1A
100
AcDbEntity
  8
MSR_I1_2-7
100
AcDbLine
 10
-107.911625
 20
-34.31748967838533
 30
0.0
 11
-107.911625
 21
-45.41915667838532
 31
0.0
  0
LINE
  5
A08
330
1A
100
AcDbEntity
  8
MSR_I1_2-0
100
AcDbLine
 10
-117.911625
 20
-48.15709367838532
 30
0.0
 11
-117.911625
 21
-46.85709367838533
 31
0.0
  0
LINE
  5
A09
330
1A
100
AcDbEntity
  8
MSR_I1_2-7
100
AcDbLine
 10
-113.911625
 20
-25.25859367838533
 30
0.0
 11
-113.911625
 21
-36.97912967838531
 31
0.0
  0
LINE
  5
A0A
330
1A
100
AcDbEntity
  8
MSR_I1_2-0
100
AcDbLine
 10
-103.911625
 20
-35.35709367838533
 30
0.0
 11
-103.911625
 21
-44.35709367838533
 31
0.0
  0
LINE
  5
A0B
330
1A
100
AcDbEntity
  8
MSR_I1_2-0
100
AcDbLine
 10
-101.911625
 20
-35.35709367838533
 30
0.0
 11
-101.911625
 21
-44.35709367838533
 31
0.0
  0
LINE
  5
A0C
330
1A
100
AcDbEntity
  8
MSR_I1_2-7
100
AcDbLine
 10
-97.91162500000005
 20
-34.26457367838532
 30
0.0
 11
-97.91162500000005
 21
-45.63082367838529
 31
0.0
  0
LINE
  5
A0D
330
1A
100
AcDbEntity
  8
MSR_I1_2-0
100
AcDbLine
 10
-93.91162500000005
 20
-35.35709367838533
 30
0.0
 11
-93.91162500000005
 21
-44.35709367838533
 31
0.0
  0
LINE
  5
A0E
330
1A
100
AcDbEntity
  8
MSR_I1_2-0
100
AcDbLine
 10
-87.91162500000005
 20
-35.35709367838533
 30
0.0
 11
-87.91162500000005
 21
-44.35709367838533
 31
0.0
  0
LINE
  5
A0F
330
1A
100
AcDbEntity
  8
MSR_I1_2-0
100
AcDbLine
 10
-87.91162500000005
 20
-46.85709367838533
 30
0.0
 11
-87.91162500000005
 21
-48.15709367838532
 31
0.0
  0
LINE
  5
A10
330
1A
100
AcDbEntity
  8
MSR_I1_2-7
100
AcDbLine
 10
-91.91162500000006
 20
-25.93895067838531
 30
0.0
 11
-91.91162500000006
 21
-36.8657366783853
 31
0.0
  0
POLYLINE
  5
A11
330
1A
100
AcDbEntity
  8
MSR_I1_2-0
100
AcDb2dPolyline
 66
     1
 10
0.0
 20
0.0
 30
0.0
  0
VERTEX
  5
A12
330
A11
100
AcDbEntity
  8
MSR_I1_2-0
100
AcDbVertex
100
AcDb2dVertex
 10
-16.30000000000004
 20
-48.15709367838533
 30
0.0
  0
VERTEX
  5
A13
330
A11
100
AcDbEntity
  8
MSR_I1_2-0
100
AcDbVertex
100
AcDb2dVertex
 10
30.19999999999996
 20
-48.15709367838533
 30
0.0
  0
VERTEX
  5
A14
330
A11
100
AcDbEntity
  8
MSR_I1_2-0
100
AcDbVertex
100
AcDb2dVertex
 10
30.19999999999996
 20
-73.35709367838531
 30
0.0
  0
VERTEX
  5
A15
330
A11
100
AcDbEntity
  8
MSR_I1_2-0
100
AcDbVertex
100
AcDb2dVertex
 10
-28.30000000000005
 20
-73.35709367838531
 30
0.0
  0
SEQEND
  5
A16
330
A11
100
AcDbEntity
  8
MSR_I1_2-0
  0
POLYLINE
  5
A17
330
1A
100
AcDbEntity
  8
MSR_I1_2-0
100
AcDb2dPolyline
 66
     1
 10
0.0
 20
0.0
 30
0.0
 70
     1
  0
VERTEX
  5
A18
330
A17
100
AcDbEntity
  8
MSR_I1_2-0
100
AcDbVertex
100
AcDb2dVertex
 10
-28.30000000000005
 20
-55.4607766783853
 30
0.0
  0
VERTEX
  5
A19
330
A17
100
AcDbEntity
  8
MSR_I1_2-0
100
AcDbVertex
100
AcDb2dVertex
 10
-28.30000000000005
 20
-73.35709367838531
 30
0.0
  0
VERTEX
  5
A1A
330
A17
100
AcDbEntity
  8
MSR_I1_2-0
100
AcDbVertex
100
AcDb2dVertex
 10
-35.80000000000005
 20
-73.35709367838531
 30
0.0
  0
VERTEX
  5
A1B
330
A17
100
AcDbEntity
  8
MSR_I1_2-0
100
AcDbVertex
100
AcDb2dVertex
 10
-35.80000000000005
 20
-47.85709367838532
 30
0.0
  0
VERTEX
  5
A1C
330
A17
100
AcDbEntity
  8
MSR_I1_2-0
100
AcDbVertex
100
AcDb2dVertex
 10
-28.30000000000005
 20
-47.85709367838532
 30
0.0
  0
VERTEX
  5
A1D
330
A17
100
AcDbEntity
  8
MSR_I1_2-0
100
AcDbVertex
100
AcDb2dVertex
 10
-28.30000000000005
 20
-55.4607766783853
 30
0.0
  0
VERTEX
  5
A1E
330
A17
100
AcDbEntity
  8
MSR_I1_2-0
100
AcDbVertex
100
AcDb2dVertex
 10
-28.30000000000005
 20
-55.4607766783853
 30
0.0
  0
SEQEND
  5
A1F
330
A17
100
AcDbEntity
  8
MSR_I1_2-0
  0
LINE
  5
A20
330
1A
100
AcDbEntity
  8
MSR_I1_2-4
100
AcDbLine
 10
-39.80000000000006
 20
-59.85709367838532
 30
0.0
 11
-35.80000000000005
 21
-53.35709367838532
 31
0.0
  0
LINE
  5
A21
330
1A
100
AcDbEntity
  8
MSR_I1_2-4
100
AcDbLine
 10
-39.80000000000006
 20
-53.35709367838532
 30
0.0
 11
-35.80000000000005
 21
-59.85709367838532
 31
0.0
  0
POLYLINE
  5
A22
330
1A
100
AcDbEntity
  8
MSR_I1_2-0
100
AcDb2dPolyline
 66
     1
 10
0.0
 20
0.0
 30
0.0
  0
VERTEX
  5
A23
330
A22
100
AcDbEntity
  8
MSR_I1_2-0
100
AcDbVertex
100
AcDb2dVertex
 10
-35.80000000000005
 20
-53.35709367838532
 30
0.0
  0
VERTEX
  5
A24
330
A22
100
AcDbEntity
  8
MSR_I1_2-0
100
AcDbVertex
100
AcDb2dVertex
 10
-39.80000000000006
 20
-53.35709367838532
 30
0.0
  0
VERTEX
  5
A25
330
A22
100
AcDbEntity
  8
MSR_I1_2-0
100
AcDbVertex
100
AcDb2dVertex
 10
-39.80000000000006
 20
-66.35709367838533
 30
0.0
  0
VERTEX
  5
A26
330
A22
100
AcDbEntity
  8
MSR_I1_2-0
100
AcDbVertex
100
AcDb2dVertex
 10
-35.80000000000005
 20
-66.35709367838533
 30
0.0
  0
SEQEND
  5
A27
330
A22
100
AcDbEntity
  8
MSR_I1_2-0
  0
LINE
  5
A28
330
1A
100
AcDbEntity
  8
MSR_I1_2-7
100
AcDbLine
 10
-0.0000000000000284
 20
-27.26755667838532
 30
0.0
 11
-0.0000000000000284
 21
-91.86613567838533
 31
0.0
  0
INSERT
  5
A29
330
1A
100
AcDbEntity
  8
MSR_I1_2-0
100
AcDbBlockReference
  2
*U8
 10
14.99999999999997
 20
-118.810846643108
 30
0.0
 50
180.0
1001
GENIUS_GEFPARTINS_13
1002
{
1011
14.99999999999997
1021
-118.810846643108
1031
0.0
1013
-1.0
1023
0.0000000000000001
1033
0.0
1002
}
1001
VCC
1002
{
1000
-ID11
1000
-IE39
1000
-IK11
1000
-V$PV_GENSYSTEM"GEF\VAL\DI\0401\DI1616_V.DXF"
1002
}
1001
GEVIT
1002
{
1000
-BEHI4.00000001
1000
-BVCCT0
1000
-T2
1000
-GRP0MSR_I1_2-0
1000
-BAML2
1000
-BASK1
1000
-NT0
1000
-DOC
1005
C78
1000
-MYREF
1005
A29
1002
}
1001
GEVPT
1002
{
1000
-V$PV_GENSYSTEM"GEF\VAL\DI\0401\DI1616_V.DXF"
1000
-FIXPLOTI=5.000000000000000E+00
1000
-GPGEVBHOP=2
1000
-GPGEF_PROCALC=1
1000
-GPGEF_FLIPY=1
1000
-GPGEF_FLIPX=1
1000
-GPGEF_SNK_ADD=0
1000
-GPGEVPROMPTX=Länge:
1000
-GPGEF_OANG=70
1000
-GPGEF_STANG=210
1000
-GPGEF_DRAG=1
1000
-GPGEF_CDIST=3
1000
-GPVCC_TABLE=C:\GENIUS\gef\val\di\0401\di1616.val
1000
-GPNND=5
1000
-GPPRE=M
1002
}
1001
GENIUS_GENOREF_13
1005
C47
1001
GEVMK
1002
{
1000
-CO
1000
-MYREF
1005
A29
1002
}
1001
GEVID886156783
1002
{
1002
}
  0
INSERT
  5
A2A
330
1A
100
AcDbEntity
  8
MSR_I1_2-0
100
AcDbBlockReference
  2
*U6
 10
-15.0
 20
-118.810846643108
 30
0.0
1001
GENIUS_GEFPARTINS_13
1002
{
1011
-15.0
1021
-118.810846643108
1031
0.0
1013
1.0
1023
0.0
1033
0.0
1002
}
1001
VCC
1002
{
1000
-ID10
1000
-IE38
1000
-IK10
1000
-V$PV_GENSYSTEM"GEF\VAL\DI\0401\DI1616_V.DXF"
1002
}
1001
GEVIT
1002
{
1000
-BEHI3.00000001
1000
-BVCCT0
1000
-T2
1000
-GRP0MSR_I1_2-0
1000
-BAML2
1000
-BASK1
1000
-NT0
1000
-DOC
1005
C64
1000
-MYREF
1005
A2A
1002
}
1001
GEVPT
1002
{
1000
-V$PV_GENSYSTEM"GEF\VAL\DI\0401\DI1616_V.DXF"
1000
-FIXPLOTI=5.000000000000000E+00
1000
-GPGEVBHOP=2
1000
-GPGEF_PROCALC=1
1000
-GPGEF_FLIPY=1
1000
-GPGEF_FLIPX=1
1000
-GPGEF_SNK_ADD=0
1000
-GPGEVPROMPTX=Länge:
1000
-GPGEF_OANG=70
1000
-GPGEF_STANG=210
1000
-GPGEF_DRAG=1
1000
-GPGEF_CDIST=3
1000
-GPVCC_TABLE=C:\GENIUS\gef\val\di\0401\di1616.val
1000
-GPNND=5
1000
-GPPRE=M
1002
}
1001
GENIUS_GENOREF_13
1005
C46
1001
GEVMK
1002
{
1000
-CO
1000
-MYREF
1005
A2A
1002
}
1001
GEVID886156782
1002
{
1002
}
  0
POLYLINE
  5
A2B
330
1A
100
AcDbEntity
  8
MSR_I1_2-0
100
AcDb2dPolyline
 66
     1
 10
0.0
 20
0.0
 30
0.0
  0
VERTEX
  5
A2C
330
A2B
100
AcDbEntity
  8
MSR_I1_2-0
100
AcDbVertex
100
AcDb2dVertex
 10
-15.00000000000003
 20
-103.810846643108
 30
0.0
  0
VERTEX
  5
A2D
330
A2B
100
AcDbEntity
  8
MSR_I1_2-0
100
AcDbVertex
100
AcDb2dVertex
 10
-35.80000000000005
 20
-103.810846643108
 30
0.0
  0
VERTEX
  5
A2E
330
A2B
100
AcDbEntity
  8
MSR_I1_2-0
100
AcDbVertex
100
AcDb2dVertex
 10
-35.80000000000005
 20
-133.810846643108
 30
0.0
  0
VERTEX
  5
A2F
330
A2B
100
AcDbEntity
  8
MSR_I1_2-0
100
AcDbVertex
100
AcDb2dVertex
 10
-15.00000000000003
 20
-133.810846643108
 30
0.0
  0
SEQEND
  5
A30
330
A2B
100
AcDbEntity
  8
MSR_I1_2-0
  0
LINE
  5
A31
330
1A
100
AcDbEntity
  8
MSR_I1_2-0
100
AcDbLine
 10
-21.30000000000004
 20
-103.810846643108
 30
0.0
 11
-21.30000000000004
 21
-133.810846643108
 31
0.0
  0
LINE
  5
A32
330
1A
100
AcDbEntity
  8
MSR_I1_2-0
100
AcDbLine
 10
-28.30000000000005
 20
-103.810846643108
 30
0.0
 11
-28.30000000000005
 21
-133.810846643108
 31
0.0
  0
LINE
  5
A33
330
1A
100
AcDbEntity
  8
MSR_I1_2-0
100
AcDbLine
 10
-29.30000000000005
 20
-103.810846643108
 30
0.0
 11
-29.30000000000005
 21
-133.810846643108
 31
0.0
  0
LINE
  5
A34
330
1A
100
AcDbEntity
  8
MSR_I1_2-0
100
AcDbLine
 10
-34.30000000000005
 20
-103.810846643108
 30
0.0
 11
-34.30000000000005
 21
-133.810846643108
 31
0.0
  0
LINE
  5
A35
330
1A
100
AcDbEntity
  8
MSR_I1_2-4
100
AcDbLine
 10
-39.80000000000006
 20
-120.310846643108
 30
0.0
 11
-37.95384600000007
 21
-123.310846643108
 31
0.0
  0
POLYLINE
  5
A36
330
1A
100
AcDbEntity
  8
MSR_I1_2-0
100
AcDb2dPolyline
 66
     1
 10
0.0
 20
0.0
 30
0.0
  0
VERTEX
  5
A37
330
A36
100
AcDbEntity
  8
MSR_I1_2-0
100
AcDbVertex
100
AcDb2dVertex
 10
-35.80000000000005
 20
-120.310846643108
 30
0.0
  0
VERTEX
  5
A38
330
A36
100
AcDbEntity
  8
MSR_I1_2-0
100
AcDbVertex
100
AcDb2dVertex
 10
-39.80000000000006
 20
-120.310846643108
 30
0.0
  0
VERTEX
  5
A39
330
A36
100
AcDbEntity
  8
MSR_I1_2-0
100
AcDbVertex
100
AcDb2dVertex
 10
-39.80000000000006
 20
-123.310846643108
 30
0.0
  0
SEQEND
  5
A3A
330
A36
100
AcDbEntity
  8
MSR_I1_2-0
  0
LINE
  5
A3B
330
1A
100
AcDbEntity
  8
MSR_I1_2-4
100
AcDbLine
 10
-35.80000000000005
 20
-120.310846643108
 30
0.0
 11
-37.64615400000006
 21
-123.310846643108
 31
0.0
  0
POLYLINE
  5
A3C
330
1A
100
AcDbEntity
  8
MSR_I1_2-0
100
AcDb2dPolyline
 66
     1
 10
0.0
 20
0.0
 30
0.0
 70
     1
  0
VERTEX
  5
A3D
330
A3C
100
AcDbEntity
  8
MSR_I1_2-0
100
AcDbVertex
100
AcDb2dVertex
 10
-15.00000000000003
 20
-103.810846643108
 30
0.0
  0
VERTEX
  5
A3E
330
A3C
100
AcDbEntity
  8
MSR_I1_2-0
100
AcDbVertex
100
AcDb2dVertex
 10
14.99999999999997
 20
-103.810846643108
 30
0.0
  0
VERTEX
  5
A3F
330
A3C
100
AcDbEntity
  8
MSR_I1_2-0
100
AcDbVertex
100
AcDb2dVertex
 10
14.99999999999997
 20
-133.810846643108
 30
0.0
  0
VERTEX
  5
A40
330
A3C
100
AcDbEntity
  8
MSR_I1_2-0
100
AcDbVertex
100
AcDb2dVertex
 10
-15.00000000000003
 20
-133.810846643108
 30
0.0
  0
VERTEX
  5
A41
330
A3C
100
AcDbEntity
  8
MSR_I1_2-0
100
AcDbVertex
100
AcDb2dVertex
 10
-15.00000000000003
 20
-103.810846643108
 30
0.0
  0
SEQEND
  5
A42
330
A3C
100
AcDbEntity
  8
MSR_I1_2-0
  0
POLYLINE
  5
A43
330
1A
100
AcDbEntity
  8
MSR_I1_2-0
100
AcDb2dPolyline
 66
     1
 10
0.0
 20
0.0
 30
0.0
  0
VERTEX
  5
A44
330
A43
100
AcDbEntity
  8
MSR_I1_2-0
100
AcDbVertex
100
AcDb2dVertex
 10
14.99999999999997
 20
-103.810846643108
 30
0.0
  0
VERTEX
  5
A45
330
A43
100
AcDbEntity
  8
MSR_I1_2-0
100
AcDbVertex
100
AcDb2dVertex
 10
30.19999999999996
 20
-103.810846643108
 30
0.0
  0
VERTEX
  5
A46
330
A43
100
AcDbEntity
  8
MSR_I1_2-0
100
AcDbVertex
100
AcDb2dVertex
 10
30.19999999999996
 20
-133.810846643108
 30
0.0
  0
VERTEX
  5
A47
330
A43
100
AcDbEntity
  8
MSR_I1_2-0
100
AcDbVertex
100
AcDb2dVertex
 10
14.99999999999997
 20
-133.810846643108
 30
0.0
  0
SEQEND
  5
A48
330
A43
100
AcDbEntity
  8
MSR_I1_2-0
  0
LINE
  5
A49
330
1A
100
AcDbEntity
  8
MSR_I1_2-7A
100
AcDbLine
 10
-0.0000000000000284
 20
-118.810846643108
 30
0.0
 11
-0.0000000000000284
 21
-126.310846643108
 31
0.0
1001
GENIUS_GENOREF_13
1005
C45
  0
LINE
  5
A4A
330
1A
100
AcDbEntity
  8
MSR_I1_2-7
100
AcDbLine
 10
8.499999999999971
 20
-126.8562826431081
 30
0.0
 11
8.499999999999971
 21
-120.779133643108
 31
0.0
  0
LINE
  5
A4B
330
1A
100
AcDbEntity
  8
MSR_I1_2-7
100
AcDbLine
 10
-52.92175500000005
 20
-127.810846643108
 30
0.0
 11
-13.73191100000005
 21
-127.810846643108
 31
0.0
  0
LINE
  5
A4C
330
1A
100
AcDbEntity
  8
MSR_I1_2-7
100
AcDbLine
 10
-15.33537100000006
 20
-129.810846643108
 30
0.0
 11
-6.703340000000054
 21
-129.810846643108
 31
0.0
  0
POLYLINE
  5
A4D
330
1A
100
AcDbEntity
  8
MSR_I1_2-0
100
AcDb2dPolyline
 66
     1
 10
0.0
 20
0.0
 30
0.0
 70
     1
  0
VERTEX
  5
A4E
330
A4D
100
AcDbEntity
  8
MSR_I1_2-0
100
AcDbVertex
100
AcDb2dVertex
 10
-42.30000000000005
 20
-131.810846643108
 30
0.0
  0
VERTEX
  5
A4F
330
A4D
100
AcDbEntity
  8
MSR_I1_2-0
100
AcDbVertex
100
AcDb2dVertex
 10
-49.80000000000005
 20
-131.810846643108
 30
0.0
  0
VERTEX
  5
A50
330
A4D
100
AcDbEntity
  8
MSR_I1_2-0
100
AcDbVertex
100
AcDb2dVertex
 10
-49.80000000000005
 20
-123.810846643108
 30
0.0
  0
VERTEX
  5
A51
330
A4D
100
AcDbEntity
  8
MSR_I1_2-0
100
AcDbVertex
100
AcDb2dVertex
 10
-42.30000000000005
 20
-123.810846643108
 30
0.0
  0
VERTEX
  5
A52
330
A4D
100
AcDbEntity
  8
MSR_I1_2-0
100
AcDbVertex
100
AcDb2dVertex
 10
-42.30000000000005
 20
-123.310846643108
 30
0.0
  0
VERTEX
  5
A53
330
A4D
100
AcDbEntity
  8
MSR_I1_2-0
100
AcDbVertex
100
AcDb2dVertex
 10
-35.80000000000005
 20
-123.310846643108
 30
0.0
  0
VERTEX
  5
A54
330
A4D
100
AcDbEntity
  8
MSR_I1_2-0
100
AcDbVertex
100
AcDb2dVertex
 10
-35.80000000000005
 20
-132.310846643108
 30
0.0
  0
VERTEX
  5
A55
330
A4D
100
AcDbEntity
  8
MSR_I1_2-0
100
AcDbVertex
100
AcDb2dVertex
 10
-42.30000000000005
 20
-132.310846643108
 30
0.0
  0
VERTEX
  5
A56
330
A4D
100
AcDbEntity
  8
MSR_I1_2-0
100
AcDbVertex
100
AcDb2dVertex
 10
-42.30000000000005
 20
-131.810846643108
 30
0.0
  0
SEQEND
  5
A57
330
A4D
100
AcDbEntity
  8
MSR_I1_2-0
  0
POLYLINE
  5
A58
330
1A
100
AcDbEntity
  8
MSR_I1_2-0
100
AcDb2dPolyline
 66
     1
 10
0.0
 20
0.0
 30
0.0
  0
VERTEX
  5
A59
330
A58
100
AcDbEntity
  8
MSR_I1_2-0
100
AcDbVertex
100
AcDb2dVertex
 10
-39.80000000000006
 20
-132.310846643108
 30
0.0
  0
VERTEX
  5
A5A
330
A58
100
AcDbEntity
  8
MSR_I1_2-0
100
AcDbVertex
100
AcDb2dVertex
 10
-39.80000000000006
 20
-133.310846643108
 30
0.0
  0
VERTEX
  5
A5B
330
A58
100
AcDbEntity
  8
MSR_I1_2-0
100
AcDbVertex
100
AcDb2dVertex
 10
-35.80000000000005
 20
-133.310846643108
 30
0.0
  0
SEQEND
  5
A5C
330
A58
100
AcDbEntity
  8
MSR_I1_2-0
  0
LINE
  5
A5D
330
1A
100
AcDbEntity
  8
MSR_I1_2-4
100
AcDbLine
 10
-49.80000000000005
 20
-127.810846643108
 30
0.0
 11
-42.30000000000005
 21
-131.810846643108
 31
0.0
  0
LINE
  5
A5E
330
1A
100
AcDbEntity
  8
MSR_I1_2-4
100
AcDbLine
 10
-42.30000000000005
 20
-127.810846643108
 30
0.0
 11
-49.80000000000005
 21
-131.810846643108
 31
0.0
  0
LINE
  5
A5F
330
1A
100
AcDbEntity
  8
MSR_I1_2-0
100
AcDbLine
 10
-49.80000000000005
 20
-127.810846643108
 30
0.0
 11
-42.30000000000005
 21
-127.810846643108
 31
0.0
  0
LINE
  5
A60
330
1A
100
AcDbEntity
  8
MSR_I1_2-4
100
AcDbLine
 10
-49.80000000000005
 20
-123.810846643108
 30
0.0
 11
-42.30000000000005
 21
-127.810846643108
 31
0.0
  0
LINE
  5
A61
330
1A
100
AcDbEntity
  8
MSR_I1_2-4
100
AcDbLine
 10
-49.80000000000005
 20
-127.810846643108
 30
0.0
 11
-42.30000000000005
 21
-123.810846643108
 31
0.0
  0
LINE
  5
A62
330
1A
100
AcDbEntity
  8
MSR_I1_2-0
100
AcDbLine
 10
-42.30000000000005
 20
-131.810846643108
 30
0.0
 11
-42.30000000000005
 21
-123.810846643108
 31
0.0
  0
LINE
  5
A63
330
1A
100
AcDbEntity
  8
MSR_I1_2-4
100
AcDbLine
 10
-39.18461600000006
 20
-132.310846643108
 30
0.0
 11
-39.80000000000006
 21
-133.310846643108
 31
0.0
  0
LINE
  5
A64
330
1A
100
AcDbEntity
  8
MSR_I1_2-3
100
AcDbLine
 10
-28.30000000000005
 20
-130.810846643108
 30
0.0
 11
-21.19898000000006
 21
-130.810846643108
 31
0.0
  0
LINE
  5
A65
330
1A
100
AcDbEntity
  8
MSR_I1_2-3
100
AcDbLine
 10
-28.30000000000005
 20
-130.310846643108
 30
0.0
 11
-21.27493700000005
 21
-130.310846643108
 31
0.0
  0
LINE
  5
A66
330
1A
100
AcDbEntity
  8
MSR_I1_2-3
100
AcDbLine
 10
-28.30000000000005
 20
-124.810846643108
 30
0.0
 11
-21.30000000000004
 21
-124.810846643108
 31
0.0
  0
LINE
  5
A67
330
1A
100
AcDbEntity
  8
MSR_I1_2-3
100
AcDbLine
 10
-28.30000000000005
 20
-125.310846643108
 30
0.0
 11
-21.30000000000004
 21
-125.310846643108
 31
0.0
  0
LINE
  5
A68
330
1A
100
AcDbEntity
  8
MSR_I1_2-3
100
AcDbLine
 10
-34.30000000000005
 20
-130.810846643108
 30
0.0
 11
-29.30000000000005
 21
-130.810846643108
 31
0.0
  0
LINE
  5
A69
330
1A
100
AcDbEntity
  8
MSR_I1_2-3
100
AcDbLine
 10
-34.30000000000005
 20
-130.310846643108
 30
0.0
 11
-29.30000000000005
 21
-130.310846643108
 31
0.0
  0
LINE
  5
A6A
330
1A
100
AcDbEntity
  8
MSR_I1_2-4
100
AcDbLine
 10
-35.80000000000005
 20
-130.810846643108
 30
0.0
 11
-34.30000000000005
 21
-130.810846643108
 31
0.0
  0
LINE
  5
A6B
330
1A
100
AcDbEntity
  8
MSR_I1_2-0
100
AcDbLine
 10
-35.80000000000005
 20
-130.310846643108
 30
0.0
 11
-34.30000000000005
 21
-130.310846643108
 31
0.0
  0
LINE
  5
A6C
330
1A
100
AcDbEntity
  8
MSR_I1_2-4
100
AcDbLine
 10
-36.41538500000006
 20
-132.310846643108
 30
0.0
 11
-35.80000000000005
 21
-133.310846643108
 31
0.0
  0
LINE
  5
A6D
330
1A
100
AcDbEntity
  8
MSR_I1_2-4
100
AcDbLine
 10
-29.30000000000005
 20
-130.810846643108
 30
0.0
 11
-28.30000000000005
 21
-130.810846643108
 31
0.0
  0
LINE
  5
A6E
330
1A
100
AcDbEntity
  8
MSR_I1_2-0
100
AcDbLine
 10
-29.30000000000005
 20
-130.310846643108
 30
0.0
 11
-28.30000000000005
 21
-130.310846643108
 31
0.0
  0
LINE
  5
A6F
330
1A
100
AcDbEntity
  8
MSR_I1_2-3
100
AcDbLine
 10
-34.30000000000005
 20
-124.810846643108
 30
0.0
 11
-29.30000000000005
 21
-124.810846643108
 31
0.0
  0
LINE
  5
A70
330
1A
100
AcDbEntity
  8
MSR_I1_2-3
100
AcDbLine
 10
-34.30000000000005
 20
-125.310846643108
 30
0.0
 11
-29.30000000000005
 21
-125.310846643108
 31
0.0
  0
LINE
  5
A71
330
1A
100
AcDbEntity
  8
MSR_I1_2-4
100
AcDbLine
 10
-35.80000000000005
 20
-124.810846643108
 30
0.0
 11
-34.30000000000005
 21
-124.810846643108
 31
0.0
  0
LINE
  5
A72
330
1A
100
AcDbEntity
  8
MSR_I1_2-0
100
AcDbLine
 10
-35.80000000000005
 20
-125.310846643108
 30
0.0
 11
-34.30000000000005
 21
-125.310846643108
 31
0.0
  0
LINE
  5
A73
330
1A
100
AcDbEntity
  8
MSR_I1_2-0
100
AcDbLine
 10
-29.30000000000005
 20
-125.310846643108
 30
0.0
 11
-28.30000000000005
 21
-125.310846643108
 31
0.0
  0
LINE
  5
A74
330
1A
100
AcDbEntity
  8
MSR_I1_2-4
100
AcDbLine
 10
-29.30000000000005
 20
-124.810846643108
 30
0.0
 11
-28.30000000000005
 21
-124.810846643108
 31
0.0
  0
LINE
  5
A75
330
1A
100
AcDbEntity
  8
MSR_I1_2-0
100
AcDbLine
 10
-21.30000000000004
 20
-130.310846643108
 30
0.0
 11
-15.00000000000003
 21
-130.310846643108
 31
0.0
  0
LINE
  5
A76
330
1A
100
AcDbEntity
  8
MSR_I1_2-4
100
AcDbLine
 10
-21.30000000000004
 20
-130.810846643108
 30
0.0
 11
-15.00000000000003
 21
-130.810846643108
 31
0.0
  0
LINE
  5
A77
330
1A
100
AcDbEntity
  8
MSR_I1_2-4
100
AcDbLine
 10
-21.30000000000004
 20
-124.810846643108
 30
0.0
 11
-15.00000000000003
 21
-124.810846643108
 31
0.0
  0
LINE
  5
A78
330
1A
100
AcDbEntity
  8
MSR_I1_2-0
100
AcDbLine
 10
-21.27493700000005
 20
-125.310846643108
 30
0.0
 11
-15.00000000000003
 21
-125.310846643108
 31
0.0
  0
CIRCLE
  5
A79
330
1A
100
AcDbEntity
  8
MSR_I1_2-0
100
AcDbCircle
 10
10.99999999999997
 20
-129.810846643108
 30
0.0
 40
3.5
  0
LINE
  5
A7A
330
1A
100
AcDbEntity
  8
MSR_I1_2-7
100
AcDbLine
 10
6.664628999999933
 20
-129.810846643108
 30
0.0
 11
15.29665999999994
 21
-129.810846643108
 31
0.0
  0
LINE
  5
A7B
330
1A
100
AcDbEntity
  8
MSR_I1_2-7
100
AcDbLine
 10
5.544638999999961
 20
-123.810846643108
 30
0.0
 11
11.64659199999994
 21
-123.810846643108
 31
0.0
  0
CIRCLE
  5
A7C
330
1A
100
AcDbEntity
  8
MSR_I1_2-0
100
AcDbCircle
 10
8.499999999999971
 20
-123.810846643108
 30
0.0
 40
2.6
  0
LINE
  5
A7D
330
1A
100
AcDbEntity
  8
MSR_I1_2-7
100
AcDbLine
 10
-6.733682000000044
 20
-129.310846643108
 30
0.0
 11
0.6085059999999487
 21
-129.310846643108
 31
0.0
  0
CIRCLE
  5
A7E
330
1A
100
AcDbEntity
  8
MSR_I1_2-0
100
AcDbCircle
 10
-3.000000000000028
 20
-129.310846643108
 30
0.0
 40
3.1
  0
ARC
  5
A7F
330
1A
100
AcDbEntity
  8
MSR_I1_2-4
100
AcDbCircle
 10
-11.00000000000003
 20
-129.810846643108
 30
0.0
 40
2.5
100
AcDbArc
 50
89.999999
 51
0.0
  0
CIRCLE
  5
A80
330
1A
100
AcDbEntity
  8
MSR_I1_2-0
100
AcDbCircle
 10
-11.00000000000003
 20
-129.810846643108
 30
0.0
 40
3.5
  0
CIRCLE
  5
A81
330
1A
100
AcDbEntity
  8
MSR_I1_2-0
100
AcDbCircle
 10
-11.00000000000003
 20
-129.810846643108
 30
0.0
 40
2.1
  0
LINE
  5
A82
330
1A
100
AcDbEntity
  8
MSR_I1_2-7
100
AcDbLine
 10
-11.00000000000003
 20
-125.2057696431081
 30
0.0
 11
-11.00000000000003
 21
-134.075925643108
 31
0.0
  0
LINE
  5
A83
330
1A
100
AcDbEntity
  8
MSR_I1_2-7
100
AcDbLine
 10
-3.000000000000028
 20
-133.206282643108
 30
0.0
 11
-3.000000000000028
 21
-125.516828643108
 31
0.0
  0
CIRCLE
  5
A84
330
1A
100
AcDbEntity
  8
MSR_I1_2-0
100
AcDbCircle
 10
3.499999999999971
 20
-128.310846643108
 30
0.0
 40
2.6
  0
LINE
  5
A85
330
1A
100
AcDbEntity
  8
MSR_I1_2-7
100
AcDbLine
 10
3.499999999999971
 20
-131.445149643108
 30
0.0
 11
3.499999999999971
 21
-125.219172643108
 31
0.0
  0
LINE
  5
A86
330
1A
100
AcDbEntity
  8
MSR_I1_2-7
100
AcDbLine
 10
0.4844819999999573
 20
-128.310846643108
 30
0.0
 11
6.536825999999962
 21
-128.310846643108
 31
0.0
  0
TEXT
  5
A87
330
1A
100
AcDbEntity
  8
MSR_I1_2-6
100
AcDbText
 10
16.82390862857355
 20
-131.9779467765061
 30
0.0
 40
2.0
  1
MSR I-1/2
100
AcDbText
  0
CIRCLE
  5
A88
330
1A
100
AcDbEntity
  8
MSR_I1_2-0
100
AcDbCircle
 10
10.99999999999997
 20
-129.810846643108
 30
0.0
 40
2.1
  0
ARC
  5
A89
330
1A
100
AcDbEntity
  8
MSR_I1_2-4
100
AcDbCircle
 10
10.99999999999997
 20
-129.810846643108
 30
0.0
 40
2.5
100
AcDbArc
 50
89.999999
 51
0.0
  0
LINE
  5
A8A
330
1A
100
AcDbEntity
  8
MSR_I1_2-7
100
AcDbLine
 10
10.99999999999997
 20
-125.2057696431081
 30
0.0
 11
10.99999999999997
 21
-134.075925643108
 31
0.0
  0
POLYLINE
  5
A8B
330
1A
100
AcDbEntity
  8
MSR_I1_2-0
100
AcDb2dPolyline
 66
     1
 10
0.0
 20
0.0
 30
0.0
  0
VERTEX
  5
A8C
330
A8B
100
AcDbEntity
  8
MSR_I1_2-0
100
AcDbVertex
100
AcDb2dVertex
 10
30.19999999999996
 20
-73.35709367838531
 30
0.0
  0
VERTEX
  5
A8D
330
A8B
100
AcDbEntity
  8
MSR_I1_2-0
100
AcDbVertex
100
AcDb2dVertex
 10
30.19999999999996
 20
-88.3570936783853
 30
0.0
  0
VERTEX
  5
A8E
330
A8B
100
AcDbEntity
  8
MSR_I1_2-0
100
AcDbVertex
100
AcDb2dVertex
 10
-35.80000000000005
 20
-88.3570936783853
 30
0.0
  0
VERTEX
  5
A8F
330
A8B
100
AcDbEntity
  8
MSR_I1_2-0
100
AcDbVertex
100
AcDb2dVertex
 10
-35.80000000000005
 20
-73.35709367838531
 30
0.0
  0
SEQEND
  5
A90
330
A8B
100
AcDbEntity
  8
MSR_I1_2-0
  0
LINE
  5
A91
330
1A
100
AcDbEntity
  8
MSR_I1_2-7
100
AcDbLine
 10
-52.92175500000005
 20
-109.810846643108
 30
0.0
 11
-13.73191100000005
 21
-109.810846643108
 31
0.0
  0
LINE
  5
A92
330
1A
100
AcDbEntity
  8
MSR_I1_2-7
100
AcDbLine
 10
-15.33537100000006
 20
-107.810846643108
 30
0.0
 11
-6.703340000000054
 21
-107.810846643108
 31
0.0
  0
POLYLINE
  5
A93
330
1A
100
AcDbEntity
  8
MSR_I1_2-6
100
AcDb2dPolyline
 66
     1
 10
0.0
 20
0.0
 30
0.0
  0
VERTEX
  5
A94
330
A93
100
AcDbEntity
  8
MSR_I1_2-6
100
AcDbVertex
100
AcDb2dVertex
 10
-15.65659400000004
 20
-64.68991167838531
 30
0.0
  0
VERTEX
  5
A95
330
A93
100
AcDbEntity
  8
MSR_I1_2-6
100
AcDbVertex
100
AcDb2dVertex
 10
-15.65659400000004
 20
-62.30895967838532
 30
0.0
  0
VERTEX
  5
A96
330
A93
100
AcDbEntity
  8
MSR_I1_2-6
100
AcDbVertex
100
AcDb2dVertex
 10
-14.88278400000004
 20
-62.30895967838532
 30
0.0
  0
VERTEX
  5
A97
330
A93
100
AcDbEntity
  8
MSR_I1_2-6
100
AcDbVertex
100
AcDb2dVertex
 10
-14.64468900000006
 20
-62.36848367838532
 30
0.0
  0
VERTEX
  5
A98
330
A93
100
AcDbEntity
  8
MSR_I1_2-6
100
AcDbVertex
100
AcDb2dVertex
 10
-14.52564100000006
 20
-62.48753067838531
 30
0.0
  0
VERTEX
  5
A99
330
A93
100
AcDbEntity
  8
MSR_I1_2-6
100
AcDbVertex
100
AcDb2dVertex
 10
-14.40659400000004
 20
-62.72562567838531
 30
0.0
  0
VERTEX
  5
A9A
330
A93
100
AcDbEntity
  8
MSR_I1_2-6
100
AcDbVertex
100
AcDb2dVertex
 10
-14.40659400000004
 20
-63.08276867838532
 30
0.0
  0
VERTEX
  5
A9B
330
A93
100
AcDbEntity
  8
MSR_I1_2-6
100
AcDbVertex
100
AcDb2dVertex
 10
-14.52564100000006
 20
-63.32086467838532
 30
0.0
  0
VERTEX
  5
A9C
330
A93
100
AcDbEntity
  8
MSR_I1_2-6
100
AcDbVertex
100
AcDb2dVertex
 10
-14.64468900000006
 20
-63.43991167838531
 30
0.0
  0
VERTEX
  5
A9D
330
A93
100
AcDbEntity
  8
MSR_I1_2-6
100
AcDbVertex
100
AcDb2dVertex
 10
-14.88278400000004
 20
-63.49943567838531
 30
0.0
  0
SEQEND
  5
A9E
330
A93
100
AcDbEntity
  8
MSR_I1_2-6
  0
POLYLINE
  5
A9F
330
1A
100
AcDbEntity
  8
MSR_I1_2-6
100
AcDb2dPolyline
 66
     1
 10
0.0
 20
0.0
 30
0.0
  0
VERTEX
  5
AA0
330
A9F
100
AcDbEntity
  8
MSR_I1_2-6
100
AcDbVertex
100
AcDb2dVertex
 10
-15.65659400000004
 20
-63.49943567838531
 30
0.0
  0
VERTEX
  5
AA1
330
A9F
100
AcDbEntity
  8
MSR_I1_2-6
100
AcDbVertex
100
AcDb2dVertex
 10
-14.88278400000004
 20
-63.49943567838531
 30
0.0
  0
VERTEX
  5
AA2
330
A9F
100
AcDbEntity
  8
MSR_I1_2-6
100
AcDbVertex
100
AcDb2dVertex
 10
-14.64468900000006
 20
-63.55895967838532
 30
0.0
  0
VERTEX
  5
AA3
330
A9F
100
AcDbEntity
  8
MSR_I1_2-6
100
AcDbVertex
100
AcDb2dVertex
 10
-14.52564100000006
 20
-63.67800667838531
 30
0.0
  0
VERTEX
  5
AA4
330
A9F
100
AcDbEntity
  8
MSR_I1_2-6
100
AcDbVertex
100
AcDb2dVertex
 10
-14.40659400000004
 20
-63.91610267838531
 30
0.0
  0
VERTEX
  5
AA5
330
A9F
100
AcDbEntity
  8
MSR_I1_2-6
100
AcDbVertex
100
AcDb2dVertex
 10
-14.40659400000004
 20
-64.27324467838532
 30
0.0
  0
VERTEX
  5
AA6
330
A9F
100
AcDbEntity
  8
MSR_I1_2-6
100
AcDbVertex
100
AcDb2dVertex
 10
-14.52564100000006
 20
-64.51134067838532
 30
0.0
  0
VERTEX
  5
AA7
330
A9F
100
AcDbEntity
  8
MSR_I1_2-6
100
AcDbVertex
100
AcDb2dVertex
 10
-14.64468900000006
 20
-64.63038767838532
 30
0.0
  0
VERTEX
  5
AA8
330
A9F
100
AcDbEntity
  8
MSR_I1_2-6
100
AcDbVertex
100
AcDb2dVertex
 10
-14.88278400000004
 20
-64.68991167838531
 30
0.0
  0
VERTEX
  5
AA9
330
A9F
100
AcDbEntity
  8
MSR_I1_2-6
100
AcDbVertex
100
AcDb2dVertex
 10
-15.65659400000004
 20
-64.68991167838531
 30
0.0
  0
SEQEND
  5
AAA
330
A9F
100
AcDbEntity
  8
MSR_I1_2-6
  0
LINE
  5
AAB
330
1A
100
AcDbEntity
  8
MSR_I1_2-7
100
AcDbLine
 10
-16.00000000000003
 20
-70.6010516783853
 30
0.0
 11
-16.00000000000003
 21
-91.0501656783853
 31
0.0
  0
POLYLINE
  5
AAC
330
1A
100
AcDbEntity
  8
MSR_I1_2-0
100
AcDb2dPolyline
 66
     1
 10
0.0
 20
0.0
 30
0.0
 70
     1
  0
VERTEX
  5
AAD
330
AAC
100
AcDbEntity
  8
MSR_I1_2-0
100
AcDbVertex
100
AcDb2dVertex
 10
-42.30000000000005
 20
-113.810846643108
 30
0.0
  0
VERTEX
  5
AAE
330
AAC
100
AcDbEntity
  8
MSR_I1_2-0
100
AcDbVertex
100
AcDb2dVertex
 10
-49.80000000000005
 20
-113.810846643108
 30
0.0
  0
VERTEX
  5
AAF
330
AAC
100
AcDbEntity
  8
MSR_I1_2-0
100
AcDbVertex
100
AcDb2dVertex
 10
-49.80000000000005
 20
-105.810846643108
 30
0.0
  0
VERTEX
  5
AB0
330
AAC
100
AcDbEntity
  8
MSR_I1_2-0
100
AcDbVertex
100
AcDb2dVertex
 10
-42.30000000000005
 20
-105.810846643108
 30
0.0
  0
VERTEX
  5
AB1
330
AAC
100
AcDbEntity
  8
MSR_I1_2-0
100
AcDbVertex
100
AcDb2dVertex
 10
-42.30000000000005
 20
-105.310846643108
 30
0.0
  0
VERTEX
  5
AB2
330
AAC
100
AcDbEntity
  8
MSR_I1_2-0
100
AcDbVertex
100
AcDb2dVertex
 10
-35.80000000000005
 20
-105.310846643108
 30
0.0
  0
VERTEX
  5
AB3
330
AAC
100
AcDbEntity
  8
MSR_I1_2-0
100
AcDbVertex
100
AcDb2dVertex
 10
-35.80000000000005
 20
-114.310846643108
 30
0.0
  0
VERTEX
  5
AB4
330
AAC
100
AcDbEntity
  8
MSR_I1_2-0
100
AcDbVertex
100
AcDb2dVertex
 10
-42.30000000000005
 20
-114.310846643108
 30
0.0
  0
VERTEX
  5
AB5
330
AAC
100
AcDbEntity
  8
MSR_I1_2-0
100
AcDbVertex
100
AcDb2dVertex
 10
-42.30000000000005
 20
-113.810846643108
 30
0.0
  0
SEQEND
  5
AB6
330
AAC
100
AcDbEntity
  8
MSR_I1_2-0
  0
POLYLINE
  5
AB7
330
1A
100
AcDbEntity
  8
MSR_I1_2-0
100
AcDb2dPolyline
 66
     1
 10
0.0
 20
0.0
 30
0.0
  0
VERTEX
  5
AB8
330
AB7
100
AcDbEntity
  8
MSR_I1_2-0
100
AcDbVertex
100
AcDb2dVertex
 10
-35.80000000000005
 20
-104.310846643108
 30
0.0
  0
VERTEX
  5
AB9
330
AB7
100
AcDbEntity
  8
MSR_I1_2-0
100
AcDbVertex
100
AcDb2dVertex
 10
-39.80000000000006
 20
-104.310846643108
 30
0.0
  0
VERTEX
  5
ABA
330
AB7
100
AcDbEntity
  8
MSR_I1_2-0
100
AcDbVertex
100
AcDb2dVertex
 10
-39.80000000000006
 20
-105.310846643108
 30
0.0
  0
SEQEND
  5
ABB
330
AB7
100
AcDbEntity
  8
MSR_I1_2-0
  0
POLYLINE
  5
ABC
330
1A
100
AcDbEntity
  8
MSR_I1_2-0
100
AcDb2dPolyline
 66
     1
 10
0.0
 20
0.0
 30
0.0
  0
VERTEX
  5
ABD
330
ABC
100
AcDbEntity
  8
MSR_I1_2-0
100
AcDbVertex
100
AcDb2dVertex
 10
-39.80000000000006
 20
-114.310846643108
 30
0.0
  0
VERTEX
  5
ABE
330
ABC
100
AcDbEntity
  8
MSR_I1_2-0
100
AcDbVertex
100
AcDb2dVertex
 10
-39.80000000000006
 20
-117.310846643108
 30
0.0
  0
VERTEX
  5
ABF
330
ABC
100
AcDbEntity
  8
MSR_I1_2-0
100
AcDbVertex
100
AcDb2dVertex
 10
-35.80000000000005
 20
-117.310846643108
 30
0.0
  0
SEQEND
  5
AC0
330
ABC
100
AcDbEntity
  8
MSR_I1_2-0
  0
LINE
  5
AC1
330
1A
100
AcDbEntity
  8
MSR_I1_2-4
100
AcDbLine
 10
-37.64615400000006
 20
-114.310846643108
 30
0.0
 11
-35.80000000000005
 21
-117.310846643108
 31
0.0
  0
LINE
  5
AC2
330
1A
100
AcDbEntity
  8
MSR_I1_2-4
100
AcDbLine
 10
-39.80000000000006
 20
-104.310846643108
 30
0.0
 11
-39.18461600000006
 21
-105.310846643108
 31
0.0
  0
LINE
  5
AC3
330
1A
100
AcDbEntity
  8
MSR_I1_2-4
100
AcDbLine
 10
-42.30000000000005
 20
-109.810846643108
 30
0.0
 11
-49.80000000000005
 21
-113.810846643108
 31
0.0
  0
LINE
  5
AC4
330
1A
100
AcDbEntity
  8
MSR_I1_2-4
100
AcDbLine
 10
-49.80000000000005
 20
-109.810846643108
 30
0.0
 11
-42.30000000000005
 21
-113.810846643108
 31
0.0
  0
LINE
  5
AC5
330
1A
100
AcDbEntity
  8
MSR_I1_2-0
100
AcDbLine
 10
-49.80000000000005
 20
-109.810846643108
 30
0.0
 11
-42.30000000000005
 21
-109.810846643108
 31
0.0
  0
LINE
  5
AC6
330
1A
100
AcDbEntity
  8
MSR_I1_2-4
100
AcDbLine
 10
-49.80000000000005
 20
-109.810846643108
 30
0.0
 11
-42.30000000000005
 21
-105.810846643108
 31
0.0
  0
LINE
  5
AC7
330
1A
100
AcDbEntity
  8
MSR_I1_2-4
100
AcDbLine
 10
-49.80000000000005
 20
-105.810846643108
 30
0.0
 11
-42.30000000000005
 21
-109.810846643108
 31
0.0
  0
LINE
  5
AC8
330
1A
100
AcDbEntity
  8
MSR_I1_2-0
100
AcDbLine
 10
-42.30000000000005
 20
-113.810846643108
 30
0.0
 11
-42.30000000000005
 21
-105.810846643108
 31
0.0
  0
LINE
  5
AC9
330
1A
100
AcDbEntity
  8
MSR_I1_2-4
100
AcDbLine
 10
-37.95384600000007
 20
-114.310846643108
 30
0.0
 11
-39.80000000000006
 21
-117.310846643108
 31
0.0
  0
LINE
  5
ACA
330
1A
100
AcDbEntity
  8
MSR_I1_2-4
100
AcDbLine
 10
-36.41538500000006
 20
-105.310846643108
 30
0.0
 11
-35.80000000000005
 21
-104.310846643108
 31
0.0
  0
LINE
  5
ACB
330
1A
100
AcDbEntity
  8
MSR_I1_2-3
100
AcDbLine
 10
-28.30000000000005
 20
-112.810846643108
 30
0.0
 11
-21.19898000000006
 21
-112.810846643108
 31
0.0
  0
LINE
  5
ACC
330
1A
100
AcDbEntity
  8
MSR_I1_2-3
100
AcDbLine
 10
-28.30000000000005
 20
-112.310846643108
 30
0.0
 11
-21.27493700000005
 21
-112.310846643108
 31
0.0
  0
LINE
  5
ACD
330
1A
100
AcDbEntity
  8
MSR_I1_2-3
100
AcDbLine
 10
-28.30000000000005
 20
-106.810846643108
 30
0.0
 11
-21.30000000000004
 21
-106.810846643108
 31
0.0
  0
LINE
  5
ACE
330
1A
100
AcDbEntity
  8
MSR_I1_2-3
100
AcDbLine
 10
-28.30000000000005
 20
-107.310846643108
 30
0.0
 11
-21.30000000000004
 21
-107.310846643108
 31
0.0
  0
LINE
  5
ACF
330
1A
100
AcDbEntity
  8
MSR_I1_2-3
100
AcDbLine
 10
-34.30000000000005
 20
-112.810846643108
 30
0.0
 11
-29.30000000000005
 21
-112.810846643108
 31
0.0
  0
LINE
  5
AD0
330
1A
100
AcDbEntity
  8
MSR_I1_2-4
100
AcDbLine
 10
-35.80000000000005
 20
-112.810846643108
 30
0.0
 11
-34.30000000000005
 21
-112.810846643108
 31
0.0
  0
LINE
  5
AD1
330
1A
100
AcDbEntity
  8
MSR_I1_2-4
100
AcDbLine
 10
-29.30000000000005
 20
-112.810846643108
 30
0.0
 11
-28.30000000000005
 21
-112.810846643108
 31
0.0
  0
LINE
  5
AD2
330
1A
100
AcDbEntity
  8
MSR_I1_2-3
100
AcDbLine
 10
-34.30000000000005
 20
-106.810846643108
 30
0.0
 11
-29.30000000000005
 21
-106.810846643108
 31
0.0
  0
LINE
  5
AD3
330
1A
100
AcDbEntity
  8
MSR_I1_2-3
100
AcDbLine
 10
-34.30000000000005
 20
-107.310846643108
 30
0.0
 11
-29.30000000000005
 21
-107.310846643108
 31
0.0
  0
LINE
  5
AD4
330
1A
100
AcDbEntity
  8
MSR_I1_2-3
100
AcDbLine
 10
-34.30000000000005
 20
-112.310846643108
 30
0.0
 11
-29.30000000000005
 21
-112.310846643108
 31
0.0
  0
LINE
  5
AD5
330
1A
100
AcDbEntity
  8
MSR_I1_2-0
100
AcDbLine
 10
-35.80000000000005
 20
-112.310846643108
 30
0.0
 11
-34.30000000000005
 21
-112.310846643108
 31
0.0
  0
LINE
  5
AD6
330
1A
100
AcDbEntity
  8
MSR_I1_2-4
100
AcDbLine
 10
-35.80000000000005
 20
-106.810846643108
 30
0.0
 11
-34.30000000000005
 21
-106.810846643108
 31
0.0
  0
LINE
  5
AD7
330
1A
100
AcDbEntity
  8
MSR_I1_2-0
100
AcDbLine
 10
-35.80000000000005
 20
-107.310846643108
 30
0.0
 11
-34.30000000000005
 21
-107.310846643108
 31
0.0
  0
LINE
  5
AD8
330
1A
100
AcDbEntity
  8
MSR_I1_2-0
100
AcDbLine
 10
-29.30000000000005
 20
-112.310846643108
 30
0.0
 11
-28.30000000000005
 21
-112.310846643108
 31
0.0
  0
LINE
  5
AD9
330
1A
100
AcDbEntity
  8
MSR_I1_2-4
100
AcDbLine
 10
-29.30000000000005
 20
-106.810846643108
 30
0.0
 11
-28.30000000000005
 21
-106.810846643108
 31
0.0
  0
LINE
  5
ADA
330
1A
100
AcDbEntity
  8
MSR_I1_2-0
100
AcDbLine
 10
-29.30000000000005
 20
-107.310846643108
 30
0.0
 11
-28.30000000000005
 21
-107.310846643108
 31
0.0
  0
LINE
  5
ADB
330
1A
100
AcDbEntity
  8
MSR_I1_2-4
100
AcDbLine
 10
-21.30000000000004
 20
-112.810846643108
 30
0.0
 11
-15.00000000000003
 21
-112.810846643108
 31
0.0
  0
LINE
  5
ADC
330
1A
100
AcDbEntity
  8
MSR_I1_2-0
100
AcDbLine
 10
-21.30000000000004
 20
-107.310846643108
 30
0.0
 11
-15.00000000000003
 21
-107.310846643108
 31
0.0
  0
LINE
  5
ADD
330
1A
100
AcDbEntity
  8
MSR_I1_2-4
100
AcDbLine
 10
-21.30000000000004
 20
-106.810846643108
 30
0.0
 11
-15.00000000000003
 21
-106.810846643108
 31
0.0
  0
LINE
  5
ADE
330
1A
100
AcDbEntity
  8
MSR_I1_2-0
100
AcDbLine
 10
-21.27493700000005
 20
-112.310846643108
 30
0.0
 11
-15.00000000000003
 21
-112.310846643108
 31
0.0
  0
LINE
  5
ADF
330
1A
100
AcDbEntity
  8
MSR_I1_2-4
100
AcDbLine
 10
-35.80000000000005
 20
-59.85709367838532
 30
0.0
 11
-39.80000000000006
 21
-66.35709367838533
 31
0.0
  0
LINE
  5
AE0
330
1A
100
AcDbEntity
  8
MSR_I1_2-4
100
AcDbLine
 10
-39.80000000000006
 20
-59.85709367838532
 30
0.0
 11
-35.80000000000005
 21
-66.35709367838533
 31
0.0
  0
LINE
  5
AE1
330
1A
100
AcDbEntity
  8
MSR_I1_2-0
100
AcDbLine
 10
-39.80000000000006
 20
-59.85709367838532
 30
0.0
 11
-35.80000000000005
 21
-59.85709367838532
 31
0.0
  0
TEXT
  5
AE2
330
1A
100
AcDbEntity
  8
MSR_I1_2-6
100
AcDbText
 10
-33.97609137142647
 20
-86.52419381178335
 30
0.0
 40
2.0
  1
MSR I-1/2
100
AcDbText
  0
ARC
  5
AE3
330
1A
100
AcDbEntity
  8
MSR_I1_2-4
100
AcDbCircle
 10
-19.50000000000003
 20
-63.37264867838531
 30
0.0
 40
2.5
100
AcDbArc
 50
89.999999
 51
0.0
  0
CIRCLE
  5
AE4
330
1A
100
AcDbEntity
  8
MSR_I1_2-0
100
AcDbCircle
 10
-19.50000000000003
 20
-63.37264867838531
 30
0.0
 40
2.1
  0
LINE
  5
AE5
330
1A
100
AcDbEntity
  8
MSR_I1_2-7
100
AcDbLine
 10
-19.50000000000003
 20
-59.54530267838531
 30
0.0
 11
-19.50000000000003
 21
-66.76842767838531
 31
0.0
  0
LINE
  5
AE6
330
1A
100
AcDbEntity
  8
MSR_I1_2-7
100
AcDbLine
 10
-22.95438300000004
 20
-63.37264867838531
 30
0.0
 11
-17.00000000000003
 21
-63.37264867838531
 31
0.0
  0
LINE
  5
AE7
330
1A
100
AcDbEntity
  8
MSR_I1_2-3
100
AcDbLine
 10
-12.00000000000003
 20
-73.35709367838531
 30
0.0
 11
-12.00000000000003
 21
-88.3570936783853
 31
0.0
  0
LINE
  5
AE8
330
1A
100
AcDbEntity
  8
MSR_I1_2-3
100
AcDbLine
 10
-11.65000000000003
 20
-73.35709367838531
 30
0.0
 11
-11.65000000000003
 21
-88.3570936783853
 31
0.0
  0
LINE
  5
AE9
330
1A
100
AcDbEntity
  8
MSR_I1_2-3
100
AcDbLine
 10
-8.000000000000028
 20
-73.35709367838531
 30
0.0
 11
-8.000000000000028
 21
-88.3570936783853
 31
0.0
  0
LINE
  5
AEA
330
1A
100
AcDbEntity
  8
MSR_I1_2-3
100
AcDbLine
 10
-8.350000000000051
 20
-73.35709367838531
 30
0.0
 11
-8.350000000000051
 21
-88.3570936783853
 31
0.0
  0
LINE
  5
AEB
330
1A
100
AcDbEntity
  8
MSR_I1_2-7
100
AcDbLine
 10
-10.00000000000003
 20
-71.78320067838531
 30
0.0
 11
-10.00000000000003
 21
-91.0501656783853
 31
0.0
  0
LINE
  5
AEC
330
1A
100
AcDbEntity
  8
MSR_I1_2-3
100
AcDbLine
 10
1.999999999999971
 20
-73.35709367838531
 30
0.0
 11
1.999999999999971
 21
-88.3570936783853
 31
0.0
  0
LINE
  5
AED
330
1A
100
AcDbEntity
  8
MSR_I1_2-3
100
AcDbLine
 10
-2.000000000000028
 20
-73.35709367838531
 30
0.0
 11
-2.000000000000028
 21
-88.3570936783853
 31
0.0
  0
LINE
  5
AEE
330
1A
100
AcDbEntity
  8
MSR_I1_2-3
100
AcDbLine
 10
7.999999999999971
 20
-73.35709367838531
 30
0.0
 11
7.999999999999971
 21
-88.3570936783853
 31
0.0
  0
LINE
  5
AEF
330
1A
100
AcDbEntity
  8
MSR_I1_2-3
100
AcDbLine
 10
8.349999999999965
 20
-73.35709367838531
 30
0.0
 11
8.349999999999965
 21
-88.3570936783853
 31
0.0
  0
LINE
  5
AF0
330
1A
100
AcDbEntity
  8
MSR_I1_2-7
100
AcDbLine
 10
9.999999999999971
 20
-71.78320067838531
 30
0.0
 11
9.999999999999971
 21
-91.0501656783853
 31
0.0
  0
LINE
  5
AF1
330
1A
100
AcDbEntity
  8
MSR_I1_2-7
100
AcDbLine
 10
15.99999999999997
 20
-70.6010516783853
 30
0.0
 11
15.99999999999997
 21
-91.0501656783853
 31
0.0
  0
LINE
  5
AF2
330
1A
100
AcDbEntity
  8
MSR_I1_2-3
100
AcDbLine
 10
11.64999999999995
 20
-73.35709367838531
 30
0.0
 11
11.64999999999995
 21
-88.3570936783853
 31
0.0
  0
LINE
  5
AF3
330
1A
100
AcDbEntity
  8
MSR_I1_2-3
100
AcDbLine
 10
11.99999999999997
 20
-73.35709367838531
 30
0.0
 11
11.99999999999997
 21
-88.3570936783853
 31
0.0
  0
CIRCLE
  5
AF4
330
1A
100
AcDbEntity
  8
MSR_I1_2-0
100
AcDbCircle
 10
10.99999999999997
 20
-107.810846643108
 30
0.0
 40
3.5
  0
LINE
  5
AF5
330
1A
100
AcDbEntity
  8
MSR_I1_2-7
100
AcDbLine
 10
6.664628999999933
 20
-107.810846643108
 30
0.0
 11
15.29665999999994
 21
-107.810846643108
 31
0.0
  0
CIRCLE
  5
AF6
330
1A
100
AcDbEntity
  8
MSR_I1_2-0
100
AcDbCircle
 10
8.499999999999971
 20
-113.810846643108
 30
0.0
 40
2.6
  0
LINE
  5
AF7
330
1A
100
AcDbEntity
  8
MSR_I1_2-7
100
AcDbLine
 10
5.544638999999961
 20
-113.810846643108
 30
0.0
 11
11.64659199999994
 21
-113.810846643108
 31
0.0
  0
LINE
  5
AF8
330
1A
100
AcDbEntity
  8
MSR_I1_2-7
100
AcDbLine
 10
-3.000000000000028
 20
-104.415410643108
 30
0.0
 11
-3.000000000000028
 21
-112.104863643108
 31
0.0
  0
LINE
  5
AF9
330
1A
100
AcDbEntity
  8
MSR_I1_2-7
100
AcDbLine
 10
-11.00000000000003
 20
-103.2057696431081
 30
0.0
 11
-11.00000000000003
 21
-112.075925643108
 31
0.0
  0
CIRCLE
  5
AFA
330
1A
100
AcDbEntity
  8
MSR_I1_2-0
100
AcDbCircle
 10
-11.00000000000003
 20
-107.810846643108
 30
0.0
 40
3.5
  0
LINE
  5
AFB
330
1A
100
AcDbEntity
  8
MSR_I1_2-7
100
AcDbLine
 10
-6.733682000000044
 20
-108.310846643108
 30
0.0
 11
0.6085059999999487
 21
-108.310846643108
 31
0.0
  0
LINE
  5
AFC
330
1A
100
AcDbEntity
  8
MSR_I1_2-7A
100
AcDbLine
 10
-0.0000000000000284
 20
-118.810846643108
 30
0.0
 11
-7.500000000000028
 21
-118.810846643108
 31
0.0
1001
GENIUS_GENOREF_13
1005
C45
  0
CIRCLE
  5
AFD
330
1A
100
AcDbEntity
  8
MSR_I1_2-0
100
AcDbCircle
 10
-3.000000000000028
 20
-108.310846643108
 30
0.0
 40
3.1
  0
ARC
  5
AFE
330
1A
100
AcDbEntity
  8
MSR_I1_2-4
100
AcDbCircle
 10
-11.00000000000003
 20
-107.810846643108
 30
0.0
 40
2.5
100
AcDbArc
 50
89.999999
 51
0.0
  0
CIRCLE
  5
AFF
330
1A
100
AcDbEntity
  8
MSR_I1_2-0
100
AcDbCircle
 10
-11.00000000000003
 20
-107.810846643108
 30
0.0
 40
2.1
  0
LINE
  5
B00
330
1A
100
AcDbEntity
  8
MSR_I1_2-7A
100
AcDbLine
 10
-0.0000000000000284
 20
-118.810846643108
 30
0.0
 11
-0.0000000000000284
 21
-111.310846643108
 31
0.0
1001
GENIUS_GENOREF_13
1005
C45
  0
LINE
  5
B01
330
1A
100
AcDbEntity
  8
MSR_I1_2-7A
100
AcDbLine
 10
-0.0000000000000284
 20
-118.810846643108
 30
0.0
 11
7.499999999999971
 21
-118.810846643108
 31
0.0
1001
GENIUS_GENOREF_13
1005
C45
  0
LINE
  5
B02
330
1A
100
AcDbEntity
  8
MSR_I1_2-7
100
AcDbLine
 10
0.4844819999999573
 20
-109.310846643108
 30
0.0
 11
6.536825999999962
 21
-109.310846643108
 31
0.0
  0
CIRCLE
  5
B03
330
1A
100
AcDbEntity
  8
MSR_I1_2-0
100
AcDbCircle
 10
3.499999999999971
 20
-109.310846643108
 30
0.0
 40
2.6
  0
LINE
  5
B04
330
1A
100
AcDbEntity
  8
MSR_I1_2-7
100
AcDbLine
 10
3.499999999999971
 20
-106.176543643108
 30
0.0
 11
3.499999999999971
 21
-112.402520643108
 31
0.0
  0
LINE
  5
B05
330
1A
100
AcDbEntity
  8
MSR_I1_2-7
100
AcDbLine
 10
10.99999999999997
 20
-103.2057696431081
 30
0.0
 11
10.99999999999997
 21
-112.075925643108
 31
0.0
  0
LINE
  5
B06
330
1A
100
AcDbEntity
  8
MSR_I1_2-7
100
AcDbLine
 10
8.499999999999971
 20
-110.765410643108
 30
0.0
 11
8.499999999999971
 21
-116.842559643108
 31
0.0
  0
ARC
  5
B07
330
1A
100
AcDbEntity
  8
MSR_I1_2-4
100
AcDbCircle
 10
10.99999999999997
 20
-107.810846643108
 30
0.0
 40
2.5
100
AcDbArc
 50
89.999999
 51
0.0
  0
CIRCLE
  5
B08
330
1A
100
AcDbEntity
  8
MSR_I1_2-0
100
AcDbCircle
 10
10.99999999999997
 20
-107.810846643108
 30
0.0
 40
2.1
  0
LINE
  5
B09
330
1A
100
AcDbEntity
  8
MSR_I1_2-7
100
AcDbLine
 10
-7.300000000000039
 20
-62.74530267838532
 30
0.0
 11
-7.300000000000039
 21
-69.96842767838531
 31
0.0
  0
POLYLINE
  5
B0A
330
1A
100
AcDbEntity
  8
MSR_I1_2-6
100
AcDb2dPolyline
 66
     1
 10
0.0
 20
0.0
 30
0.0
  0
VERTEX
  5
B0B
330
B0A
100
AcDbEntity
  8
MSR_I1_2-6
100
AcDbVertex
100
AcDb2dVertex
 10
-5.419838000000055
 20
-64.49248667838531
 30
0.0
  0
VERTEX
  5
B0C
330
B0A
100
AcDbEntity
  8
MSR_I1_2-6
100
AcDbVertex
100
AcDb2dVertex
 10
-4.76507600000005
 20
-62.11153467838531
 30
0.0
  0
VERTEX
  5
B0D
330
B0A
100
AcDbEntity
  8
MSR_I1_2-6
100
AcDbVertex
100
AcDb2dVertex
 10
-4.646028000000029
 20
-62.11153467838531
 30
0.0
  0
VERTEX
  5
B0E
330
B0A
100
AcDbEntity
  8
MSR_I1_2-6
100
AcDbVertex
100
AcDb2dVertex
 10
-3.991266000000052
 20
-64.49248667838531
 30
0.0
  0
SEQEND
  5
B0F
330
B0A
100
AcDbEntity
  8
MSR_I1_2-6
  0
LINE
  5
B10
330
1A
100
AcDbEntity
  8
MSR_I1_2-7
100
AcDbLine
 10
-10.95438300000003
 20
-66.57264867838531
 30
0.0
 11
-3.96938300000005
 21
-66.57264867838531
 31
0.0
  0
ARC
  5
B11
330
1A
100
AcDbEntity
  8
MSR_I1_2-4
100
AcDbCircle
 10
-7.500000000000028
 20
-66.57264867838531
 30
0.0
 40
2.5
100
AcDbArc
 50
89.999999
 51
0.0
  0
CIRCLE
  5
B12
330
1A
100
AcDbEntity
  8
MSR_I1_2-0
100
AcDbCircle
 10
-7.500000000000028
 20
-66.57264867838531
 30
0.0
 40
2.1
  0
LINE
  5
B13
330
1A
100
AcDbEntity
  8
MSR_I1_2-6
100
AcDbLine
 10
-5.181743000000039
 20
-63.65915367838531
 30
0.0
 11
-4.229362000000037
 21
-63.65915367838531
 31
0.0
  0
INSERT
  5
B14
330
1A
100
AcDbEntity
  8
MSR_I1_2-0
100
AcDbBlockReference
  2
*U18
 10
30.20000000000073
 20
11.0
 30
0.0
 50
180.0
1001
GENIUS_GEFPARTINS_13
1002
{
1011
30.20000000000073
1021
11.0
1031
0.0
1013
-1.0
1023
0.0000000000000001
1033
0.0
1002
}
1001
VCC
1002
{
1000
-ID16
1000
-IE45
1000
-IK16
1000
-V$PV_GENSYSTEM"GEF\VAL\DI\0401\DI1616_V.DXF"
1002
}
1001
GEVIT
1002
{
1000
-BEHI10.00000001
1000
-BVCCT0
1000
-T2
1000
-GRP0MSR_I1_2-0
1000
-BAML2
1000
-BASK1
1000
-NT0
1000
-DOC
1005
CD0
1000
-MYREF
1005
B14
1002
}
1001
GEVPT
1002
{
1000
-V$PV_GENSYSTEM"GEF\VAL\DI\0401\DI1616_V.DXF"
1000
-FIXPLOTI=5.000000000000000E+00
1000
-GPGEVBHOP=2
1000
-GPGEF_PROCALC=1
1000
-GPGEF_FLIPY=1
1000
-GPGEF_FLIPX=1
1000
-GPGEF_SNK_ADD=0
1000
-GPGEVPROMPTX=Länge:
1000
-GPGEF_OANG=70
1000
-GPGEF_STANG=210
1000
-GPGEF_DRAG=1
1000
-GPGEF_CDIST=3
1000
-GPVCC_TABLE=C:\GENIUS\gef\val\di\0401\di1616.val
1000
-GPNND=5
1000
-GPPRE=M
1002
}
1001
GENIUS_GENOREF_13
1005
C44
1001
GEVMK
1002
{
1000
-CO
1000
-MYREF
1005
B14
1002
}
1001
GEVID886156788
1002
{
1002
}
  0
INSERT
  5
B15
330
1A
100
AcDbEntity
  8
MSR_I1_2-0
100
AcDbBlockReference
  2
*U16
 10
30.19999999999999
 20
-11.0
 30
0.0
 50
180.0
1001
GENIUS_GEFPARTINS_13
1002
{
1011
30.19999999999999
1021
-11.0
1031
0.0
1013
-1.0
1023
0.0000000000000001
1033
0.0
1002
}
1001
VCC
1002
{
1000
-ID15
1000
-IE44
1000
-IK15
1000
-V$PV_GENSYSTEM"GEF\VAL\DI\0401\DI1616_V.DXF"
1002
}
1001
GEVIT
1002
{
1000
-BEHI9.00000001
1000
-BVCCT0
1000
-T2
1000
-GRP0MSR_I1_2-0
1000
-BAML2
1000
-BASK1
1000
-NT0
1000
-DOC
1005
CBC
1000
-MYREF
1005
B15
1002
}
1001
GEVPT
1002
{
1000
-V$PV_GENSYSTEM"GEF\VAL\DI\0401\DI1616_V.DXF"
1000
-FIXPLOTI=5.000000000000000E+00
1000
-GPGEVBHOP=2
1000
-GPGEF_PROCALC=1
1000
-GPGEF_FLIPY=1
1000
-GPGEF_FLIPX=1
1000
-GPGEF_SNK_ADD=0
1000
-GPGEVPROMPTX=Länge:
1000
-GPGEF_OANG=70
1000
-GPGEF_STANG=210
1000
-GPGEF_DRAG=1
1000
-GPGEF_CDIST=3
1000
-GPVCC_TABLE=C:\GENIUS\gef\val\di\0401\di1616.val
1000
-GPNND=5
1000
-GPPRE=M
1002
}
1001
GENIUS_GENOREF_13
1005
C43
1001
GEVMK
1002
{
1000
-CO
1000
-MYREF
1005
B15
1002
}
1001
GEVID886156787
1002
{
1002
}
  0
LINE
  5
B16
330
1A
100
AcDbEntity
  8
MSR_I1_2-7
100
AcDbLine
 10
-43.29753600000003
 20
0.0
 30
0.0
 11
31.68408199999996
 21
0.0
 31
0.0
  0
POLYLINE
  5
B17
330
1A
100
AcDbEntity
  8
MSR_I1_2-0
100
AcDb2dPolyline
 66
     1
 10
0.0
 20
0.0
 30
0.0
 70
     1
  0
VERTEX
  5
B18
330
B17
100
AcDbEntity
  8
MSR_I1_2-0
100
AcDbVertex
100
AcDb2dVertex
 10
-35.80000000000003
 20
15.0
 30
0.0
  0
VERTEX
  5
B19
330
B17
100
AcDbEntity
  8
MSR_I1_2-0
100
AcDbVertex
100
AcDb2dVertex
 10
30.19999999999999
 20
15.0
 30
0.0
  0
VERTEX
  5
B1A
330
B17
100
AcDbEntity
  8
MSR_I1_2-0
100
AcDbVertex
100
AcDb2dVertex
 10
30.19999999999999
 20
-15.0
 30
0.0
  0
VERTEX
  5
B1B
330
B17
100
AcDbEntity
  8
MSR_I1_2-0
100
AcDbVertex
100
AcDb2dVertex
 10
-35.80000000000003
 20
-15.0
 30
0.0
  0
VERTEX
  5
B1C
330
B17
100
AcDbEntity
  8
MSR_I1_2-0
100
AcDbVertex
100
AcDb2dVertex
 10
-35.80000000000003
 20
15.0
 30
0.0
  0
SEQEND
  5
B1D
330
B17
100
AcDbEntity
  8
MSR_I1_2-0
  0
LINE
  5
B1E
330
1A
100
AcDbEntity
  8
MSR_I1_2-4
100
AcDbLine
 10
-49.80000000000003
 20
13.0
 30
0.0
 11
-42.30000000000003
 21
9.0
 31
0.0
  0
LINE
  5
B1F
330
1A
100
AcDbEntity
  8
MSR_I1_2-4
100
AcDbLine
 10
-49.80000000000003
 20
9.0
 30
0.0
 11
-42.30000000000003
 21
13.0
 31
0.0
  0
POLYLINE
  5
B20
330
1A
100
AcDbEntity
  8
MSR_I1_2-0
100
AcDb2dPolyline
 66
     1
 10
0.0
 20
0.0
 30
0.0
 70
     1
  0
VERTEX
  5
B21
330
B20
100
AcDbEntity
  8
MSR_I1_2-0
100
AcDbVertex
100
AcDb2dVertex
 10
-42.30000000000003
 20
5.0
 30
0.0
  0
VERTEX
  5
B22
330
B20
100
AcDbEntity
  8
MSR_I1_2-0
100
AcDbVertex
100
AcDb2dVertex
 10
-49.80000000000003
 20
5.0
 30
0.0
  0
VERTEX
  5
B23
330
B20
100
AcDbEntity
  8
MSR_I1_2-0
100
AcDbVertex
100
AcDb2dVertex
 10
-49.80000000000003
 20
13.0
 30
0.0
  0
VERTEX
  5
B24
330
B20
100
AcDbEntity
  8
MSR_I1_2-0
100
AcDbVertex
100
AcDb2dVertex
 10
-42.30000000000003
 20
13.0
 30
0.0
  0
VERTEX
  5
B25
330
B20
100
AcDbEntity
  8
MSR_I1_2-0
100
AcDbVertex
100
AcDb2dVertex
 10
-42.30000000000003
 20
13.5
 30
0.0
  0
VERTEX
  5
B26
330
B20
100
AcDbEntity
  8
MSR_I1_2-0
100
AcDbVertex
100
AcDb2dVertex
 10
-39.80000000000003
 20
13.5
 30
0.0
  0
VERTEX
  5
B27
330
B20
100
AcDbEntity
  8
MSR_I1_2-0
100
AcDbVertex
100
AcDb2dVertex
 10
-39.80000000000003
 20
4.5
 30
0.0
  0
VERTEX
  5
B28
330
B20
100
AcDbEntity
  8
MSR_I1_2-0
100
AcDbVertex
100
AcDb2dVertex
 10
-42.30000000000003
 20
4.5
 30
0.0
  0
VERTEX
  5
B29
330
B20
100
AcDbEntity
  8
MSR_I1_2-0
100
AcDbVertex
100
AcDb2dVertex
 10
-42.30000000000003
 20
5.0
 30
0.0
  0
SEQEND
  5
B2A
330
B20
100
AcDbEntity
  8
MSR_I1_2-0
  0
POLYLINE
  5
B2B
330
1A
100
AcDbEntity
  8
MSR_I1_2-0
100
AcDb2dPolyline
 66
     1
 10
0.0
 20
0.0
 30
0.0
  0
VERTEX
  5
B2C
330
B2B
100
AcDbEntity
  8
MSR_I1_2-0
100
AcDbVertex
100
AcDb2dVertex
 10
-35.80000000000003
 20
14.5
 30
0.0
  0
VERTEX
  5
B2D
330
B2B
100
AcDbEntity
  8
MSR_I1_2-0
100
AcDbVertex
100
AcDb2dVertex
 10
-39.80000000000003
 20
14.5
 30
0.0
  0
VERTEX
  5
B2E
330
B2B
100
AcDbEntity
  8
MSR_I1_2-0
100
AcDbVertex
100
AcDb2dVertex
 10
-39.80000000000003
 20
1.5
 30
0.0
  0
VERTEX
  5
B2F
330
B2B
100
AcDbEntity
  8
MSR_I1_2-0
100
AcDbVertex
100
AcDb2dVertex
 10
-35.80000000000003
 20
1.5
 30
0.0
  0
SEQEND
  5
B30
330
B2B
100
AcDbEntity
  8
MSR_I1_2-0
  0
LINE
  5
B31
330
1A
100
AcDbEntity
  8
MSR_I1_2-0
100
AcDbLine
 10
-42.30000000000003
 20
5.0
 30
0.0
 11
-42.30000000000003
 21
13.0
 31
0.0
  0
LINE
  5
B32
330
1A
100
AcDbEntity
  8
MSR_I1_2-4
100
AcDbLine
 10
-39.80000000000003
 20
14.5
 30
0.0
 11
-35.80000000000003
 21
8.0
 31
0.0
  0
LINE
  5
B33
330
1A
100
AcDbEntity
  8
MSR_I1_2-4
100
AcDbLine
 10
-39.80000000000003
 20
8.0
 30
0.0
 11
-35.80000000000003
 21
14.5
 31
0.0
  0
LINE
  5
B34
330
1A
100
AcDbEntity
  8
MSR_I1_2-3
100
AcDbLine
 10
-22.0
 20
10.24172999999999
 30
0.0
 11
-22.0
 21
15.0
 31
0.0
  0
LINE
  5
B35
330
1A
100
AcDbEntity
  8
MSR_I1_2-3
100
AcDbLine
 10
-21.60000000000002
 20
10.24172999999999
 30
0.0
 11
-21.60000000000002
 21
15.0
 31
0.0
  0
LINE
  5
B36
330
1A
100
AcDbEntity
  8
MSR_I1_2-7
100
AcDbLine
 10
-19.5
 20
8.744429000000025
 30
0.0
 11
-19.5
 21
17.69215600000001
 31
0.0
  0
LINE
  5
B37
330
1A
100
AcDbEntity
  8
MSR_I1_2-7
100
AcDbLine
 10
-10.0
 20
12.97905200000002
 30
0.0
 11
-10.0
 21
6.728271000000006
 31
0.0
  0
CIRCLE
  5
B38
330
1A
100
AcDbEntity
  8
MSR_I1_2-0
100
AcDbCircle
 10
-10.0
 20
10.0
 30
0.0
 40
1.649999999999999
  0
ARC
  5
B39
330
1A
100
AcDbEntity
  8
MSR_I1_2-4
100
AcDbCircle
 10
-10.0
 20
10.0
 30
0.0
 40
2.0
100
AcDbArc
 50
89.999999
 51
0.0
  0
LINE
  5
B3A
330
1A
100
AcDbEntity
  8
MSR_I1_2-3
100
AcDbLine
 10
-17.0
 20
10.24172999999999
 30
0.0
 11
-17.0
 21
15.0
 31
0.0
  0
LINE
  5
B3B
330
1A
100
AcDbEntity
  8
MSR_I1_2-3
100
AcDbLine
 10
-17.4
 20
10.24172999999999
 30
0.0
 11
-17.4
 21
15.0
 31
0.0
  0
LINE
  5
B3C
330
1A
100
AcDbEntity
  8
MSR_I1_2-7
100
AcDbLine
 10
-6.5
 20
8.744429000000025
 30
0.0
 11
-6.5
 21
17.69215600000001
 31
0.0
  0
LINE
  5
B3D
330
1A
100
AcDbEntity
  8
MSR_I1_2-3
100
AcDbLine
 10
-9.0
 20
10.24172999999999
 30
0.0
 11
-9.0
 21
15.0
 31
0.0
  0
LINE
  5
B3E
330
1A
100
AcDbEntity
  8
MSR_I1_2-3
100
AcDbLine
 10
-8.600000000000022
 20
10.24172999999999
 30
0.0
 11
-8.600000000000022
 21
15.0
 31
0.0
  0
LINE
  5
B3F
330
1A
100
AcDbEntity
  8
MSR_I1_2-3
100
AcDbLine
 10
-4.0
 20
10.24172999999999
 30
0.0
 11
-4.0
 21
15.0
 31
0.0
  0
LINE
  5
B40
330
1A
100
AcDbEntity
  8
MSR_I1_2-3
100
AcDbLine
 10
-4.400000000000005
 20
10.24172999999999
 30
0.0
 11
-4.400000000000005
 21
15.0
 31
0.0
  0
LINE
  5
B41
330
1A
100
AcDbEntity
  8
MSR_I1_2-7
100
AcDbLine
 10
0.0
 20
16.42726300000001
 30
0.0
 11
0.0
 21
-13.491006
 31
0.0
  0
ARC
  5
B42
330
1A
100
AcDbEntity
  8
MSR_I1_2-4
100
AcDbCircle
 10
10.0
 20
10.0
 30
0.0
 40
2.0
100
AcDbArc
 50
89.999999
 51
0.0
  0
CIRCLE
  5
B43
330
1A
100
AcDbEntity
  8
MSR_I1_2-0
100
AcDbCircle
 10
10.0
 20
10.0
 30
0.0
 40
1.649999999999999
  0
LINE
  5
B44
330
1A
100
AcDbEntity
  8
MSR_I1_2-7
100
AcDbLine
 10
10.0
 20
12.97905200000002
 30
0.0
 11
10.0
 21
6.728271000000006
 31
0.0
  0
CIRCLE
  5
B45
330
1A
100
AcDbEntity
  8
MSR_I1_2-0
100
AcDbCircle
 10
0.0
 20
10.0
 30
0.0
 40
2.0
  0
INSERT
  5
B46
330
1A
100
AcDbEntity
  8
MSR_I1_2-0
100
AcDbBlockReference
  2
*U4
 10
-15.00000000000003
 20
-31.35709367838531
 30
0.0
1001
GENIUS_GEFPARTINS_13
1002
{
1011
-15.00000000000003
1021
-31.35709367838531
1031
0.0
1013
1.0
1023
0.0
1033
0.0
1002
}
1001
VCC
1002
{
1000
-ID9
1000
-IE37
1000
-IK9
1000
-V$PV_GENSYSTEM"GEF\VAL\DI\0401\DI1616_V.DXF"
1002
}
1001
GEVIT
1002
{
1000
-BEHI2.00000001
1000
-BVCCT0
1000
-T2
1000
-GRP0MSR_I1_2-0
1000
-BAML2
1000
-BASK1
1000
-NT0
1000
-DOC
1005
C50
1000
-MYREF
1005
B46
1002
}
1001
GEVPT
1002
{
1000
-V$PV_GENSYSTEM"GEF\VAL\DI\0401\DI1616_V.DXF"
1000
-FIXPLOTI=5.000000000000000E+00
1000
-GPGEVBHOP=2
1000
-GPGEF_PROCALC=1
1000
-GPGEF_FLIPY=1
1000
-GPGEF_FLIPX=1
1000
-GPGEF_SNK_ADD=0
1000
-GPGEVPROMPTX=Länge:
1000
-GPGEF_OANG=70
1000
-GPGEF_STANG=210
1000
-GPGEF_DRAG=1
1000
-GPGEF_CDIST=3
1000
-GPVCC_TABLE=C:\GENIUS\gef\val\di\0401\di1616.val
1000
-GPNND=5
1000
-GPPRE=M
1002
}
1001
GENIUS_GENOREF_13
1005
C42
1001
GEVMK
1002
{
1000
-CO
1000
-MYREF
1005
B46
1002
}
1001
GEVID886156781
1002
{
1002
}
  0
LINE
  5
B47
330
1A
100
AcDbEntity
  8
MSR_I1_2-0
100
AcDbLine
 10
-21.30000000000004
 20
-38.35709367838532
 30
0.0
 11
-1.800000000000039
 21
-38.35709367838532
 31
0.0
  0
LINE
  5
B48
330
1A
100
AcDbEntity
  8
MSR_I1_2-0
100
AcDbLine
 10
-21.27493700000005
 20
-43.35709367838532
 30
0.0
 11
-1.800000000000039
 21
-43.35709367838532
 31
0.0
  0
LINE
  5
B49
330
1A
100
AcDbEntity
  8
MSR_I1_2-7
100
AcDbLine
 10
-52.04134600000006
 20
-40.85709367838532
 30
0.0
 11
1.567306999999942
 21
-40.85709367838532
 31
0.0
  0
POLYLINE
  5
B4A
330
1A
100
AcDbEntity
  8
MSR_I1_2-0
100
AcDb2dPolyline
 66
     1
 10
0.0
 20
0.0
 30
0.0
 70
     1
  0
VERTEX
  5
B4B
330
B4A
100
AcDbEntity
  8
MSR_I1_2-0
100
AcDbVertex
100
AcDb2dVertex
 10
-15.00000000000003
 20
-35.35709367838531
 30
0.0
  0
VERTEX
  5
B4C
330
B4A
100
AcDbEntity
  8
MSR_I1_2-0
100
AcDbVertex
100
AcDb2dVertex
 10
14.99999999999997
 20
-35.35709367838531
 30
0.0
  0
VERTEX
  5
B4D
330
B4A
100
AcDbEntity
  8
MSR_I1_2-0
100
AcDbVertex
100
AcDb2dVertex
 10
14.99999999999997
 20
-27.35709367838531
 30
0.0
  0
VERTEX
  5
B4E
330
B4A
100
AcDbEntity
  8
MSR_I1_2-0
100
AcDbVertex
100
AcDb2dVertex
 10
-15.00000000000003
 20
-27.35709367838531
 30
0.0
  0
VERTEX
  5
B4F
330
B4A
100
AcDbEntity
  8
MSR_I1_2-0
100
AcDbVertex
100
AcDb2dVertex
 10
-15.00000000000003
 20
-35.35709367838531
 30
0.0
  0
SEQEND
  5
B50
330
B4A
100
AcDbEntity
  8
MSR_I1_2-0
  0
POLYLINE
  5
B51
330
1A
100
AcDbEntity
  8
MSR_I1_2-0
100
AcDb2dPolyline
 66
     1
 10
0.0
 20
0.0
 30
0.0
 70
     1
  0
VERTEX
  5
B52
330
B51
100
AcDbEntity
  8
MSR_I1_2-0
100
AcDbVertex
100
AcDb2dVertex
 10
-15.00000000000003
 20
-44.35709367838533
 30
0.0
  0
VERTEX
  5
B53
330
B51
100
AcDbEntity
  8
MSR_I1_2-0
100
AcDbVertex
100
AcDb2dVertex
 10
14.99999999999997
 20
-44.35709367838533
 30
0.0
  0
VERTEX
  5
B54
330
B51
100
AcDbEntity
  8
MSR_I1_2-0
100
AcDbVertex
100
AcDb2dVertex
 10
14.99999999999997
 20
-46.85709367838533
 30
0.0
  0
VERTEX
  5
B55
330
B51
100
AcDbEntity
  8
MSR_I1_2-0
100
AcDbVertex
100
AcDb2dVertex
 10
-15.00000000000003
 20
-46.85709367838533
 30
0.0
  0
VERTEX
  5
B56
330
B51
100
AcDbEntity
  8
MSR_I1_2-0
100
AcDbVertex
100
AcDb2dVertex
 10
-15.00000000000003
 20
-44.35709367838533
 30
0.0
  0
SEQEND
  5
B57
330
B51
100
AcDbEntity
  8
MSR_I1_2-0
  0
CIRCLE
  5
B58
330
1A
100
AcDbEntity
  8
MSR_I1_2-0
100
AcDbCircle
 10
-16.0
 20
0.0
 30
0.0
 40
3.5
  0
CIRCLE
  5
B59
330
1A
100
AcDbEntity
  8
MSR_I1_2-0
100
AcDbCircle
 10
-16.0
 20
0.0
 30
0.0
 40
4.0
  0
POLYLINE
  5
B5A
330
1A
100
AcDbEntity
  8
MSR_I1_2-0
100
AcDb2dPolyline
 66
     1
 10
0.0
 20
0.0
 30
0.0
 70
     1
  0
VERTEX
  5
B5B
330
B5A
100
AcDbEntity
  8
MSR_I1_2-0
100
AcDbVertex
100
AcDb2dVertex
 10
-16.866026
 20
1.5
 30
0.0
  0
VERTEX
  5
B5C
330
B5A
100
AcDbEntity
  8
MSR_I1_2-0
100
AcDbVertex
100
AcDb2dVertex
 10
-15.13397500000002
 20
1.5
 30
0.0
  0
VERTEX
  5
B5D
330
B5A
100
AcDbEntity
  8
MSR_I1_2-0
100
AcDbVertex
100
AcDb2dVertex
 10
-14.26794900000001
 20
0.0
 30
0.0
  0
VERTEX
  5
B5E
330
B5A
100
AcDbEntity
  8
MSR_I1_2-0
100
AcDbVertex
100
AcDb2dVertex
 10
-15.13397500000002
 20
-1.5
 30
0.0
  0
VERTEX
  5
B5F
330
B5A
100
AcDbEntity
  8
MSR_I1_2-0
100
AcDbVertex
100
AcDb2dVertex
 10
-16.866026
 20
-1.5
 30
0.0
  0
VERTEX
  5
B60
330
B5A
100
AcDbEntity
  8
MSR_I1_2-0
100
AcDbVertex
100
AcDb2dVertex
 10
-17.73205100000001
 20
0.0
 30
0.0
  0
VERTEX
  5
B61
330
B5A
100
AcDbEntity
  8
MSR_I1_2-0
100
AcDbVertex
100
AcDb2dVertex
 10
-16.866026
 20
1.5
 30
0.0
  0
VERTEX
  5
B62
330
B5A
100
AcDbEntity
  8
MSR_I1_2-0
100
AcDbVertex
100
AcDb2dVertex
 10
-16.866026
 20
1.5
 30
0.0
  0
SEQEND
  5
B63
330
B5A
100
AcDbEntity
  8
MSR_I1_2-0
  0
POLYLINE
  5
B64
330
1A
100
AcDbEntity
  8
MSR_I1_2-0
100
AcDb2dPolyline
 66
     1
 10
0.0
 20
0.0
 30
0.0
 70
     1
  0
VERTEX
  5
B65
330
B64
100
AcDbEntity
  8
MSR_I1_2-0
100
AcDbVertex
100
AcDb2dVertex
 10
-42.30000000000005
 20
-44.85709367838532
 30
0.0
  0
VERTEX
  5
B66
330
B64
100
AcDbEntity
  8
MSR_I1_2-0
100
AcDbVertex
100
AcDb2dVertex
 10
-49.80000000000005
 20
-44.85709367838532
 30
0.0
  0
VERTEX
  5
B67
330
B64
100
AcDbEntity
  8
MSR_I1_2-0
100
AcDbVertex
100
AcDb2dVertex
 10
-49.80000000000005
 20
-36.85709367838533
 30
0.0
  0
VERTEX
  5
B68
330
B64
100
AcDbEntity
  8
MSR_I1_2-0
100
AcDbVertex
100
AcDb2dVertex
 10
-42.30000000000005
 20
-36.85709367838533
 30
0.0
  0
VERTEX
  5
B69
330
B64
100
AcDbEntity
  8
MSR_I1_2-0
100
AcDbVertex
100
AcDb2dVertex
 10
-42.30000000000005
 20
-36.35709367838533
 30
0.0
  0
VERTEX
  5
B6A
330
B64
100
AcDbEntity
  8
MSR_I1_2-0
100
AcDbVertex
100
AcDb2dVertex
 10
-35.80000000000005
 20
-36.35709367838533
 30
0.0
  0
VERTEX
  5
B6B
330
B64
100
AcDbEntity
  8
MSR_I1_2-0
100
AcDbVertex
100
AcDb2dVertex
 10
-35.80000000000005
 20
-45.35709367838532
 30
0.0
  0
VERTEX
  5
B6C
330
B64
100
AcDbEntity
  8
MSR_I1_2-0
100
AcDbVertex
100
AcDb2dVertex
 10
-42.30000000000005
 20
-45.35709367838532
 30
0.0
  0
VERTEX
  5
B6D
330
B64
100
AcDbEntity
  8
MSR_I1_2-0
100
AcDbVertex
100
AcDb2dVertex
 10
-42.30000000000005
 20
-44.85709367838532
 30
0.0
  0
SEQEND
  5
B6E
330
B64
100
AcDbEntity
  8
MSR_I1_2-0
  0
LINE
  5
B6F
330
1A
100
AcDbEntity
  8
MSR_I1_2-4
100
AcDbLine
 10
-49.80000000000005
 20
-40.85709367838532
 30
0.0
 11
-42.30000000000005
 21
-36.85709367838533
 31
0.0
  0
LINE
  5
B70
330
1A
100
AcDbEntity
  8
MSR_I1_2-4
100
AcDbLine
 10
-49.80000000000005
 20
-36.85709367838533
 30
0.0
 11
-42.30000000000005
 21
-40.85709367838532
 31
0.0
  0
LINE
  5
B71
330
1A
100
AcDbEntity
  8
MSR_I1_2-0
100
AcDbLine
 10
-42.30000000000005
 20
-44.85709367838532
 30
0.0
 11
-42.30000000000005
 21
-36.85709367838533
 31
0.0
  0
LINE
  5
B72
330
1A
100
AcDbEntity
  8
MSR_I1_2-4
100
AcDbLine
 10
-42.30000000000005
 20
-40.85709367838532
 30
0.0
 11
-49.80000000000005
 21
-44.85709367838532
 31
0.0
  0
LINE
  5
B73
330
1A
100
AcDbEntity
  8
MSR_I1_2-4
100
AcDbLine
 10
-49.80000000000005
 20
-40.85709367838532
 30
0.0
 11
-42.30000000000005
 21
-44.85709367838532
 31
0.0
  0
POLYLINE
  5
B74
330
1A
100
AcDbEntity
  8
MSR_I1_2-0
100
AcDb2dPolyline
 66
     1
 10
0.0
 20
0.0
 30
0.0
 70
     1
  0
VERTEX
  5
B75
330
B74
100
AcDbEntity
  8
MSR_I1_2-0
100
AcDbVertex
100
AcDb2dVertex
 10
-34.30000000000005
 20
-36.85709367838533
 30
0.0
  0
VERTEX
  5
B76
330
B74
100
AcDbEntity
  8
MSR_I1_2-0
100
AcDbVertex
100
AcDb2dVertex
 10
-29.30000000000005
 20
-36.85709367838533
 30
0.0
  0
VERTEX
  5
B77
330
B74
100
AcDbEntity
  8
MSR_I1_2-0
100
AcDbVertex
100
AcDb2dVertex
 10
-29.30000000000005
 20
-46.85709367838533
 30
0.0
  0
VERTEX
  5
B78
330
B74
100
AcDbEntity
  8
MSR_I1_2-0
100
AcDbVertex
100
AcDb2dVertex
 10
-34.30000000000005
 20
-46.85709367838533
 30
0.0
  0
VERTEX
  5
B79
330
B74
100
AcDbEntity
  8
MSR_I1_2-0
100
AcDbVertex
100
AcDb2dVertex
 10
-34.30000000000005
 20
-36.85709367838533
 30
0.0
  0
SEQEND
  5
B7A
330
B74
100
AcDbEntity
  8
MSR_I1_2-0
  0
POLYLINE
  5
B7B
330
1A
100
AcDbEntity
  8
MSR_I1_2-0
100
AcDb2dPolyline
 66
     1
 10
0.0
 20
0.0
 30
0.0
  0
VERTEX
  5
B7C
330
B7B
100
AcDbEntity
  8
MSR_I1_2-0
100
AcDbVertex
100
AcDb2dVertex
 10
-28.30000000000005
 20
-47.85709367838532
 30
0.0
  0
VERTEX
  5
B7D
330
B7B
100
AcDbEntity
  8
MSR_I1_2-0
100
AcDbVertex
100
AcDb2dVertex
 10
-28.30000000000005
 20
-36.85709367838533
 30
0.0
  0
VERTEX
  5
B7E
330
B7B
100
AcDbEntity
  8
MSR_I1_2-0
100
AcDbVertex
100
AcDb2dVertex
 10
-21.30000000000004
 20
-36.85709367838533
 30
0.0
  0
VERTEX
  5
B7F
330
B7B
100
AcDbEntity
  8
MSR_I1_2-0
100
AcDbVertex
100
AcDb2dVertex
 10
-21.30000000000004
 20
-43.15709367838533
 30
0.0
  0
SEQEND
  5
B80
330
B7B
100
AcDbEntity
  8
MSR_I1_2-0
  0
LINE
  5
B81
330
1A
100
AcDbEntity
  8
MSR_I1_2-3
100
AcDbLine
 10
-28.30000000000005
 20
-43.85709367838532
 30
0.0
 11
-21.19898000000006
 21
-43.85709367838532
 31
0.0
  0
LINE
  5
B82
330
1A
100
AcDbEntity
  8
MSR_I1_2-3
100
AcDbLine
 10
-28.30000000000005
 20
-43.35709367838532
 30
0.0
 11
-21.27493700000005
 21
-43.35709367838532
 31
0.0
  0
LINE
  5
B83
330
1A
100
AcDbEntity
  8
MSR_I1_2-3
100
AcDbLine
 10
-34.30000000000005
 20
-43.35709367838532
 30
0.0
 11
-29.30000000000005
 21
-43.35709367838532
 31
0.0
  0
LINE
  5
B84
330
1A
100
AcDbEntity
  8
MSR_I1_2-3
100
AcDbLine
 10
-34.30000000000005
 20
-43.85709367838532
 30
0.0
 11
-29.30000000000005
 21
-43.85709367838532
 31
0.0
  0
LINE
  5
B85
330
1A
100
AcDbEntity
  8
MSR_I1_2-0
100
AcDbLine
 10
-35.80000000000005
 20
-43.35709367838532
 30
0.0
 11
-34.30000000000005
 21
-43.35709367838532
 31
0.0
  0
LINE
  5
B86
330
1A
100
AcDbEntity
  8
MSR_I1_2-4
100
AcDbLine
 10
-35.80000000000005
 20
-43.85709367838532
 30
0.0
 11
-34.30000000000005
 21
-43.85709367838532
 31
0.0
  0
LINE
  5
B87
330
1A
100
AcDbEntity
  8
MSR_I1_2-0
100
AcDbLine
 10
-29.30000000000005
 20
-43.35709367838532
 30
0.0
 11
-28.30000000000005
 21
-43.35709367838532
 31
0.0
  0
LINE
  5
B88
330
1A
100
AcDbEntity
  8
MSR_I1_2-4
100
AcDbLine
 10
-29.30000000000005
 20
-43.85709367838532
 30
0.0
 11
-28.30000000000005
 21
-43.85709367838532
 31
0.0
  0
ARC
  5
B89
330
1A
100
AcDbEntity
  8
MSR_I1_2-0
100
AcDbCircle
 10
-16.30000000000004
 20
-43.15709367838533
 30
0.0
 40
5.0
100
AcDbArc
 50
179.999998
 51
270.000001
  0
LINE
  5
B8A
330
1A
100
AcDbEntity
  8
MSR_I1_2-3
100
AcDbLine
 10
-28.30000000000005
 20
-38.35709367838532
 30
0.0
 11
-21.30000000000004
 21
-38.35709367838532
 31
0.0
  0
LINE
  5
B8B
330
1A
100
AcDbEntity
  8
MSR_I1_2-3
100
AcDbLine
 10
-28.30000000000005
 20
-37.85709367838533
 30
0.0
 11
-21.30000000000004
 21
-37.85709367838533
 31
0.0
  0
LINE
  5
B8C
330
1A
100
AcDbEntity
  8
MSR_I1_2-3
100
AcDbLine
 10
-34.30000000000005
 20
-37.85709367838533
 30
0.0
 11
-29.30000000000005
 21
-37.85709367838533
 31
0.0
  0
LINE
  5
B8D
330
1A
100
AcDbEntity
  8
MSR_I1_2-3
100
AcDbLine
 10
-34.30000000000005
 20
-38.35709367838532
 30
0.0
 11
-29.30000000000005
 21
-38.35709367838532
 31
0.0
  0
LINE
  5
B8E
330
1A
100
AcDbEntity
  8
MSR_I1_2-4
100
AcDbLine
 10
-35.80000000000005
 20
-37.85709367838533
 30
0.0
 11
-34.30000000000005
 21
-37.85709367838533
 31
0.0
  0
LINE
  5
B8F
330
1A
100
AcDbEntity
  8
MSR_I1_2-0
100
AcDbLine
 10
-35.80000000000005
 20
-38.35709367838532
 30
0.0
 11
-34.30000000000005
 21
-38.35709367838532
 31
0.0
  0
LINE
  5
B90
330
1A
100
AcDbEntity
  8
MSR_I1_2-4
100
AcDbLine
 10
-29.30000000000005
 20
-37.85709367838533
 30
0.0
 11
-28.30000000000005
 21
-37.85709367838533
 31
0.0
  0
LINE
  5
B91
330
1A
100
AcDbEntity
  8
MSR_I1_2-0
100
AcDbLine
 10
-29.30000000000005
 20
-38.35709367838532
 30
0.0
 11
-28.30000000000005
 21
-38.35709367838532
 31
0.0
  0
POLYLINE
  5
B92
330
1A
100
AcDbEntity
  8
MSR_I1_2-0
100
AcDb2dPolyline
 66
     1
 10
0.0
 20
0.0
 30
0.0
  0
VERTEX
  5
B93
330
B92
100
AcDbEntity
  8
MSR_I1_2-0
100
AcDbVertex
100
AcDb2dVertex
 10
-35.80000000000003
 20
-1.5
 30
0.0
  0
VERTEX
  5
B94
330
B92
100
AcDbEntity
  8
MSR_I1_2-0
100
AcDbVertex
100
AcDb2dVertex
 10
-39.80000000000003
 20
-1.5
 30
0.0
  0
VERTEX
  5
B95
330
B92
100
AcDbEntity
  8
MSR_I1_2-0
100
AcDbVertex
100
AcDb2dVertex
 10
-39.80000000000003
 20
-14.5
 30
0.0
  0
VERTEX
  5
B96
330
B92
100
AcDbEntity
  8
MSR_I1_2-0
100
AcDbVertex
100
AcDb2dVertex
 10
-35.80000000000003
 20
-14.5
 30
0.0
  0
SEQEND
  5
B97
330
B92
100
AcDbEntity
  8
MSR_I1_2-0
  0
LINE
  5
B98
330
1A
100
AcDbEntity
  8
MSR_I1_2-4
100
AcDbLine
 10
-39.80000000000003
 20
-8.0
 30
0.0
 11
-35.80000000000003
 21
-1.5
 31
0.0
  0
LINE
  5
B99
330
1A
100
AcDbEntity
  8
MSR_I1_2-4
100
AcDbLine
 10
-39.80000000000003
 20
-1.5
 30
0.0
 11
-35.80000000000003
 21
-8.0
 31
0.0
  0
LINE
  5
B9A
330
1A
100
AcDbEntity
  8
MSR_I1_2-4
100
AcDbLine
 10
-35.80000000000003
 20
-8.0
 30
0.0
 11
-39.80000000000003
 21
-14.5
 31
0.0
  0
LINE
  5
B9B
330
1A
100
AcDbEntity
  8
MSR_I1_2-4
100
AcDbLine
 10
-39.80000000000003
 20
-8.0
 30
0.0
 11
-35.80000000000003
 21
-14.5
 31
0.0
  0
LINE
  5
B9C
330
1A
100
AcDbEntity
  8
MSR_I1_2-0
100
AcDbLine
 10
-39.80000000000003
 20
-8.0
 30
0.0
 11
-35.80000000000003
 21
-8.0
 31
0.0
  0
LINE
  5
B9D
330
1A
100
AcDbEntity
  8
MSR_I1_2-4
100
AcDbLine
 10
-39.80000000000003
 20
8.0
 30
0.0
 11
-35.80000000000003
 21
1.5
 31
0.0
  0
LINE
  5
B9E
330
1A
100
AcDbEntity
  8
MSR_I1_2-4
100
AcDbLine
 10
-35.80000000000003
 20
8.0
 30
0.0
 11
-39.80000000000003
 21
1.5
 31
0.0
  0
LINE
  5
B9F
330
1A
100
AcDbEntity
  8
MSR_I1_2-0
100
AcDbLine
 10
-39.80000000000003
 20
8.0
 30
0.0
 11
-35.80000000000003
 21
8.0
 31
0.0
  0
POLYLINE
  5
BA0
330
1A
100
AcDbEntity
  8
MSR_I1_2-0
100
AcDb2dPolyline
 66
     1
 10
0.0
 20
0.0
 30
0.0
 70
     1
  0
VERTEX
  5
BA1
330
BA0
100
AcDbEntity
  8
MSR_I1_2-0
100
AcDbVertex
100
AcDb2dVertex
 10
-42.30000000000003
 20
-13.0
 30
0.0
  0
VERTEX
  5
BA2
330
BA0
100
AcDbEntity
  8
MSR_I1_2-0
100
AcDbVertex
100
AcDb2dVertex
 10
-49.80000000000003
 20
-13.0
 30
0.0
  0
VERTEX
  5
BA3
330
BA0
100
AcDbEntity
  8
MSR_I1_2-0
100
AcDbVertex
100
AcDb2dVertex
 10
-49.80000000000003
 20
-5.0
 30
0.0
  0
VERTEX
  5
BA4
330
BA0
100
AcDbEntity
  8
MSR_I1_2-0
100
AcDbVertex
100
AcDb2dVertex
 10
-42.30000000000003
 20
-5.0
 30
0.0
  0
VERTEX
  5
BA5
330
BA0
100
AcDbEntity
  8
MSR_I1_2-0
100
AcDbVertex
100
AcDb2dVertex
 10
-42.30000000000003
 20
-4.5
 30
0.0
  0
VERTEX
  5
BA6
330
BA0
100
AcDbEntity
  8
MSR_I1_2-0
100
AcDbVertex
100
AcDb2dVertex
 10
-39.80000000000003
 20
-4.5
 30
0.0
  0
VERTEX
  5
BA7
330
BA0
100
AcDbEntity
  8
MSR_I1_2-0
100
AcDbVertex
100
AcDb2dVertex
 10
-39.80000000000003
 20
-13.5
 30
0.0
  0
VERTEX
  5
BA8
330
BA0
100
AcDbEntity
  8
MSR_I1_2-0
100
AcDbVertex
100
AcDb2dVertex
 10
-42.30000000000003
 20
-13.5
 30
0.0
  0
VERTEX
  5
BA9
330
BA0
100
AcDbEntity
  8
MSR_I1_2-0
100
AcDbVertex
100
AcDb2dVertex
 10
-42.30000000000003
 20
-13.0
 30
0.0
  0
SEQEND
  5
BAA
330
BA0
100
AcDbEntity
  8
MSR_I1_2-0
  0
LINE
  5
BAB
330
1A
100
AcDbEntity
  8
MSR_I1_2-0
100
AcDbLine
 10
-42.30000000000003
 20
-13.0
 30
0.0
 11
-42.30000000000003
 21
-5.0
 31
0.0
  0
LINE
  5
BAC
330
1A
100
AcDbEntity
  8
MSR_I1_2-4
100
AcDbLine
 10
-49.80000000000003
 20
-9.0
 30
0.0
 11
-42.30000000000003
 21
-5.0
 31
0.0
  0
LINE
  5
BAD
330
1A
100
AcDbEntity
  8
MSR_I1_2-4
100
AcDbLine
 10
-49.80000000000003
 20
-5.0
 30
0.0
 11
-42.30000000000003
 21
-9.0
 31
0.0
  0
LINE
  5
BAE
330
1A
100
AcDbEntity
  8
MSR_I1_2-4
100
AcDbLine
 10
-42.30000000000003
 20
-9.0
 30
0.0
 11
-49.80000000000003
 21
-13.0
 31
0.0
  0
LINE
  5
BAF
330
1A
100
AcDbEntity
  8
MSR_I1_2-4
100
AcDbLine
 10
-49.80000000000003
 20
-9.0
 30
0.0
 11
-42.30000000000003
 21
-13.0
 31
0.0
  0
LINE
  5
BB0
330
1A
100
AcDbEntity
  8
MSR_I1_2-0
100
AcDbLine
 10
-49.80000000000003
 20
-9.0
 30
0.0
 11
-42.30000000000003
 21
-9.0
 31
0.0
  0
LINE
  5
BB1
330
1A
100
AcDbEntity
  8
MSR_I1_2-7
100
AcDbLine
 10
-49.80000000000003
 20
-9.0
 30
0.0
 11
-53.16271500000003
 21
-9.0
 31
0.0
  0
LINE
  5
BB2
330
1A
100
AcDbEntity
  8
MSR_I1_2-7
100
AcDbLine
 10
-43.88511700000004
 20
-8.0
 30
0.0
 11
-39.80000000000003
 21
-8.0
 31
0.0
  0
LINE
  5
BB3
330
1A
100
AcDbEntity
  8
MSR_I1_2-4
100
AcDbLine
 10
-49.80000000000003
 20
9.0
 30
0.0
 11
-42.30000000000003
 21
5.0
 31
0.0
  0
LINE
  5
BB4
330
1A
100
AcDbEntity
  8
MSR_I1_2-4
100
AcDbLine
 10
-42.30000000000003
 20
9.0
 30
0.0
 11
-49.80000000000003
 21
5.0
 31
0.0
  0
LINE
  5
BB5
330
1A
100
AcDbEntity
  8
MSR_I1_2-0
100
AcDbLine
 10
-49.80000000000003
 20
9.0
 30
0.0
 11
-42.30000000000003
 21
9.0
 31
0.0
  0
LINE
  5
BB6
330
1A
100
AcDbEntity
  8
MSR_I1_2-7
100
AcDbLine
 10
-49.80000000000003
 20
9.0
 30
0.0
 11
-53.16271500000003
 21
9.0
 31
0.0
  0
LINE
  5
BB7
330
1A
100
AcDbEntity
  8
MSR_I1_2-7
100
AcDbLine
 10
-43.88511700000004
 20
8.0
 30
0.0
 11
-39.80000000000003
 21
8.0
 31
0.0
  0
INSERT
  5
BB8
330
1A
100
AcDbEntity
  8
MSR_I1_2-0N
100
AcDbBlockReference
 66
     1
  2
GENINF13
 10
-28.34620999202963
 20
-4.949882590720278
 30
0.0
1001
GENIUS_GENSCSYM_13
1002
{
1000
INSPT
1011
-28.34620999202963
1021
-4.949882590720278
1031
0.0
1002
}
1002
{
1000
SCALE
1042
1.0
1002
}
1002
{
1000
USEOLDBPT
1070
     0
1002
}
1001
GENIUS_GENOBJ-N-INFOPT_13
1002
{
1000
OWNER
1000
GEN
1002
}
1001
GENIUS_GENSYMENT_13
1002
{
1000
ENT
1005
BB8
1002
}
1001
GENIUS_GENODEF_13
1002
{
1000
HIER
1070
     0
1002
}
1002
{
1000
MANEDIT
1070
     0
1002
}
1002
{
1000
NOSEL
1070
     0
1002
}
1002
{
1000
BEHIND
1070
     0
1002
}
1002
{
1000
REACTOR
1002
}
1001
GENIUS_GENOBJ-N-RSSYM_13
1002
{
1000
OWNER
1000
GEN
1002
}
1001
GENIUS_GENINF13_13
1070
     1
  0
ATTRIB
  5
BB9
330
BB8
100
AcDbEntity
  8
INFO
100
AcDbText
 10
-28.34620999202963
 20
-4.949882590720278
 30
0.0
 40
1.0
  1
1
100
AcDbAttribute
  2
2GENINF
 70
     1
  0
ATTRIB
  5
BBA
330
BB8
100
AcDbEntity
  8
INFO
100
AcDbText
 10
-28.34620999202963
 20
-6.449882590720278
 30
0.0
 40
1.0
  1

100
AcDbAttribute
  2
3GENINF
 70
     1
  0
ATTRIB
  5
BBB
330
BB8
100
AcDbEntity
  8
INFO
100
AcDbText
 10
-28.34620999202963
 20
-7.949882590720278
 30
0.0
 40
1.0
  1

100
AcDbAttribute
  2
4GENINF
 70
     1
  0
ATTRIB
  5
BBC
330
BB8
100
AcDbEntity
  8
INFO
100
AcDbText
 10
-28.34620999202963
 20
-9.449882590720278
 30
0.0
 40
1.0
  1
MSR I-1/2
100
AcDbAttribute
  2
5GENINF
 70
     1
  0
ATTRIB
  5
BBD
330
BB8
100
AcDbEntity
  8
INFO
100
AcDbText
 10
-28.34620999202963
 20
-10.94988259072028
 30
0.0
 40
1.0
  1

100
AcDbAttribute
  2
6GENINF
 70
     1
  0
ATTRIB
  5
BBE
330
BB8
100
AcDbEntity
  8
INFO
100
AcDbText
 10
-28.34620999202963
 20
-12.44988259072028
 30
0.0
 40
1.0
  1
Fa. Mayer
100
AcDbAttribute
  2
7GENINF
 70
     1
  0
ATTRIB
  5
BBF
330
BB8
100
AcDbEntity
  8
INFO
100
AcDbText
 10
-28.34620999202963
 20
-13.94988259072028
 30
0.0
 40
1.0
  1

100
AcDbAttribute
  2
8GENINF
 70
     1
  0
ATTRIB
  5
BC0
330
BB8
100
AcDbEntity
  8
INFO
100
AcDbText
 10
-28.34620999202963
 20
-15.44988259072028
 30
0.0
 40
1.0
  1

100
AcDbAttribute
  2
9GENINF
 70
     1
  0
ATTRIB
  5
BC1
330
BB8
100
AcDbEntity
  8
INFO
100
AcDbText
 10
-28.34620999202963
 20
-16.94988259072028
 30
0.0
 40
1.0
  1

100
AcDbAttribute
  2
10GENINF
 70
     1
  0
ATTRIB
  5
BC2
330
BB8
100
AcDbEntity
  8
INFO
100
AcDbText
 10
-28.34620999202963
 20
-18.44988259072028
 30
0.0
 40
1.0
  1

100
AcDbAttribute
  2
11GENINF
 70
     1
  0
ATTRIB
  5
BC3
330
BB8
100
AcDbEntity
  8
INFO
100
AcDbText
 10
-28.34620999202963
 20
-19.94988259072028
 30
0.0
 40
1.0
  1

100
AcDbAttribute
  2
12GENINF
 70
     1
  0
ATTRIB
  5
BC4
330
BB8
100
AcDbEntity
  8
INFO
100
AcDbText
 10
-28.34620999202963
 20
-21.44988259072028
 30
0.0
 40
1.0
  1

100
AcDbAttribute
  2
13GENINF
 70
     1
  0
ATTRIB
  5
BC5
330
BB8
100
AcDbEntity
  8
INFO
100
AcDbText
 10
-28.34620999202963
 20
-22.94988259072028
 30
0.0
 40
1.0
  1

100
AcDbAttribute
  2
14GENINF
 70
     1
  0
ATTRIB
  5
BC6
330
BB8
100
AcDbEntity
  8
INFO
100
AcDbText
 10
-28.34620999202963
 20
-24.44988259072028
 30
0.0
 40
1.0
  1

100
AcDbAttribute
  2
15GENINF
 70
     1
  0
ATTRIB
  5
BC7
330
BB8
100
AcDbEntity
  8
INFO
100
AcDbText
 10
-28.34620999202963
 20
-25.94988259072028
 30
0.0
 40
1.0
  1

100
AcDbAttribute
  2
16GENINF
 70
     1
  0
ATTRIB
  5
BC8
330
BB8
100
AcDbEntity
  8
INFO
100
AcDbText
 10
-28.34620999202963
 20
-27.44988259072028
 30
0.0
 40
1.0
  1

100
AcDbAttribute
  2
17GENINF
 70
     1
  0
ATTRIB
  5
BC9
330
BB8
100
AcDbEntity
  8
INFO
100
AcDbText
 10
-28.34620999202963
 20
-28.94988259072028
 30
0.0
 40
1.0
  1

100
AcDbAttribute
  2
18GENINF
 70
     1
  0
ATTRIB
  5
BCA
330
BB8
100
AcDbEntity
  8
INFO
100
AcDbText
 10
-28.34620999202963
 20
-30.44988259072028
 30
0.0
 40
1.0
  1

100
AcDbAttribute
  2
19GENINF
 70
     1
  0
ATTRIB
  5
BCB
330
BB8
100
AcDbEntity
  8
INFO
100
AcDbText
 10
-28.34620999202963
 20
-31.94988259072028
 30
0.0
 40
1.0
  1

100
AcDbAttribute
  2
20GENINF
 70
     1
  0
ATTRIB
  5
BCC
330
BB8
100
AcDbEntity
  8
INFO
100
AcDbText
 10
-28.34620999202963
 20
-33.44988259072028
 30
0.0
 40
1.0
  1

100
AcDbAttribute
  2
21GENINF
 70
     1
  0
ATTRIB
  5
BCD
330
BB8
100
AcDbEntity
  8
INFO
100
AcDbText
 10
-28.34620999202963
 20
-34.94988259072028
 30
0.0
 40
1.0
  1

100
AcDbAttribute
  2
22GENINF
 70
     1
  0
ATTRIB
  5
BCE
330
BB8
100
AcDbEntity
  8
INFO
100
AcDbText
 10
-28.34620999202963
 20
-36.44988259072028
 30
0.0
 40
1.0
  1

100
AcDbAttribute
  2
23GENINF
 70
     1
  0
ATTRIB
  5
BCF
330
BB8
100
AcDbEntity
  8
INFO
100
AcDbText
 10
-28.34620999202963
 20
-37.94988259072028
 30
0.0
 40
1.0
  1

100
AcDbAttribute
  2
24GENINF
 70
     1
  0
ATTRIB
  5
BD0
330
BB8
100
AcDbEntity
  8
INFO
100
AcDbText
 10
-28.34620999202963
 20
-39.44988259072028
 30
0.0
 40
1.0
  1

100
AcDbAttribute
  2
0GENINF
 70
     1
  0
SEQEND
  5
BD1
330
BB8
100
AcDbEntity
  8
MSR_I1_2-0N
  0
TEXT
  5
BD2
330
1A
100
AcDbEntity
  8
MSR_I1_2-6
100
AcDbText
 10
-33.97609137142644
 20
-13.16710013339803
 30
0.0
 40
2.0
  1
MSR I-1/2
100
AcDbText
  0
LINE
  5
BD3
330
1A
100
AcDbEntity
  8
MSR_I1_2-7
100
AcDbLine
 10
-16.0
 20
5.670573000000018
 30
0.0
 11
-16.0
 21
-5.441927000000021
 31
0.0
  0
POLYLINE
  5
BD4
330
1A
100
AcDbEntity
  8
MSR_I1_2-0
100
AcDb2dPolyline
 66
     1
 10
0.0
 20
0.0
 30
0.0
  0
VERTEX
  5
BD5
330
BD4
100
AcDbEntity
  8
MSR_I1_2-0
100
AcDbVertex
100
AcDb2dVertex
 10
14.49999999999997
 20
-27.35709367838531
 30
0.0
  0
VERTEX
  5
BD6
330
BD4
100
AcDbEntity
  8
MSR_I1_2-0
100
AcDbVertex
100
AcDb2dVertex
 10
14.49999999999997
 20
-28.95709367838531
 30
0.0
  0
VERTEX
  5
BD7
330
BD4
100
AcDbEntity
  8
MSR_I1_2-0
100
AcDbVertex
100
AcDb2dVertex
 10
7.499999999999971
 20
-28.95709367838531
 30
0.0
  0
VERTEX
  5
BD8
330
BD4
100
AcDbEntity
  8
MSR_I1_2-0
100
AcDbVertex
100
AcDb2dVertex
 10
7.499999999999971
 20
-27.35709367838531
 30
0.0
  0
SEQEND
  5
BD9
330
BD4
100
AcDbEntity
  8
MSR_I1_2-0
  0
POLYLINE
  5
BDA
330
1A
100
AcDbEntity
  8
MSR_I1_2-0
100
AcDb2dPolyline
 66
     1
 10
0.0
 20
0.0
 30
0.0
  0
VERTEX
  5
BDB
330
BDA
100
AcDbEntity
  8
MSR_I1_2-0
100
AcDbVertex
100
AcDb2dVertex
 10
7.499999999999971
 20
-35.35709367838531
 30
0.0
  0
VERTEX
  5
BDC
330
BDA
100
AcDbEntity
  8
MSR_I1_2-0
100
AcDbVertex
100
AcDb2dVertex
 10
7.499999999999971
 20
-31.35709367838531
 30
0.0
  0
VERTEX
  5
BDD
330
BDA
100
AcDbEntity
  8
MSR_I1_2-0
100
AcDbVertex
100
AcDb2dVertex
 10
14.49999999999997
 20
-31.35709367838531
 30
0.0
  0
VERTEX
  5
BDE
330
BDA
100
AcDbEntity
  8
MSR_I1_2-0
100
AcDbVertex
100
AcDb2dVertex
 10
14.49999999999997
 20
-35.35709367838531
 30
0.0
  0
SEQEND
  5
BDF
330
BDA
100
AcDbEntity
  8
MSR_I1_2-0
  0
INSERT
  5
BE0
330
1A
100
AcDbEntity
  8
MSR_I1_2-8
100
AcDbBlockReference
  2
*X1
 10
0.0
 20
0.0
 30
0.0
1001
GENIUS_GENODEF_13
1002
{
1000
HIER
1070
     0
1002
}
1002
{
1000
MANEDIT
1070
     0
1002
}
1002
{
1000
NOSEL
1070
     0
1002
}
1002
{
1000
BEHIND
1070
     0
1002
}
1002
{
1000
REACTOR
1002
}
1001
GENIUS_GENOBJ-N-HTC_13
1002
{
1000
OWNER
1000
GEN
1002
}
1001
GENIUS_GENHATCH_13
1002
{
1000
DATA
1040
45.0
1042
1.25
1000
_U
1070
     0
1011
6.367389120371512
1021
-31.48782863191639
1031
0.0
1002
}
1002
{
1000
UCS
1010
0.0
1020
0.0
1030
0.0
1010
1.0
1020
0.0
1030
0.0
1010
0.0
1020
1.0
1030
0.0
1002
}
1001
ACAD
1000
HATCH
1002
{
1070
    19
1000
_U
1040
1.25
1040
0.7853981633974483
1070
     0
1002
}
  0
LINE
  5
BE1
330
1A
100
AcDbEntity
  8
MSR_I1_2-0
100
AcDbLine
 10
-1.800000000000039
 20
-38.35709367838532
 30
0.0
 11
-1.800000000000039
 21
-43.35709367838532
 31
0.0
  0
LINE
  5
BE2
330
1A
100
AcDbEntity
  8
MSR_I1_2-0
100
AcDbLine
 10
4.499999999999971
 20
-35.35709367838531
 30
0.0
 11
4.499999999999971
 21
-44.35709367838533
 31
0.0
  0
LINE
  5
BE3
330
1A
100
AcDbEntity
  8
MSR_I1_2-0
100
AcDbLine
 10
-5.000000000000028
 20
-43.35709367838532
 30
0.0
 11
-5.000000000000028
 21
-44.35709367838533
 31
0.0
  0
LINE
  5
BE4
330
1A
100
AcDbEntity
  8
MSR_I1_2-7
100
AcDbLine
 10
-11.00000000000003
 20
-26.1966626783853
 30
0.0
 11
-11.00000000000003
 21
-37.5889546783853
 31
0.0
  0
LINE
  5
BE5
330
1A
100
AcDbEntity
  8
MSR_I1_2-0
100
AcDbLine
 10
-5.000000000000028
 20
-35.35709367838531
 30
0.0
 11
-5.000000000000056
 21
-35.35709367838531
 31
0.0
  0
LINE
  5
BE6
330
1A
100
AcDbEntity
  8
MSR_I1_2-0
100
AcDbLine
 10
-5.000000000000028
 20
-38.35709367838532
 30
0.0
 11
-5.000000000000056
 21
-35.35709367838531
 31
0.0
  0
POLYLINE
  5
BE7
330
1A
100
AcDbEntity
  8
MSR_I1_2-0
100
AcDb2dPolyline
 66
     1
 10
0.0
 20
0.0
 30
0.0
 70
     4
 75
     6
  0
VERTEX
  5
BE8
330
BE7
100
AcDbEntity
  8
MSR_I1_2-0
100
AcDbVertex
100
AcDb2dVertex
 10
4.87432608792298
 20
-35.35709367838531
 30
0.0
 70
    16
  0
VERTEX
  5
BE9
330
BE7
100
AcDbEntity
  8
MSR_I1_2-0
100
AcDbVertex
100
AcDb2dVertex
 10
4.87432608792298
 20
-35.35709367838531
 30
0.0
 70
     8
  0
VERTEX
  5
BEA
330
BE7
100
AcDbEntity
  8
MSR_I1_2-0
100
AcDbVertex
100
AcDb2dVertex
 10
4.776316693022731
 20
-34.11670358652458
 30
0.0
 70
     8
  0
VERTEX
  5
BEB
330
BE7
100
AcDbEntity
  8
MSR_I1_2-0
100
AcDbVertex
100
AcDb2dVertex
 10
4.695920074695485
 20
-33.14046819207595
 30
0.0
 70
     8
  0
VERTEX
  5
BEC
330
BE7
100
AcDbEntity
  8
MSR_I1_2-0
100
AcDbVertex
100
AcDb2dVertex
 10
4.631821846348779
 20
-32.39211480024778
 30
0.0
 70
     8
  0
VERTEX
  5
BED
330
BE7
100
AcDbEntity
  8
MSR_I1_2-0
100
AcDbVertex
100
AcDb2dVertex
 10
4.582707621390148
 20
-31.83537071624846
 30
0.0
 70
     8
  0
VERTEX
  5
BEE
330
BE7
100
AcDbEntity
  8
MSR_I1_2-0
100
AcDbVertex
100
AcDb2dVertex
 10
4.547263013227125
 20
-31.43396324528634
 30
0.0
 70
     8
  0
VERTEX
  5
BEF
330
BE7
100
AcDbEntity
  8
MSR_I1_2-0
100
AcDbVertex
100
AcDb2dVertex
 10
4.524173635267247
 20
-31.15161969256982
 30
0.0
 70
     8
  0
VERTEX
  5
BF0
330
BE7
100
AcDbEntity
  8
MSR_I1_2-0
100
AcDbVertex
100
AcDb2dVertex
 10
4.512125100918045
 20
-30.95206736330724
 30
0.0
 70
     8
  0
VERTEX
  5
BF1
330
BE7
100
AcDbEntity
  8
MSR_I1_2-0
100
AcDbVertex
100
AcDb2dVertex
 10
4.509803023587058
 20
-30.79903356270702
 30
0.0
 70
     8
  0
VERTEX
  5
BF2
330
BE7
100
AcDbEntity
  8
MSR_I1_2-0
100
AcDbVertex
100
AcDb2dVertex
 10
4.515821820810045
 20
-30.66211042952198
 30
0.0
 70
     8
  0
VERTEX
  5
BF3
330
BE7
100
AcDbEntity
  8
MSR_I1_2-0
100
AcDbVertex
100
AcDb2dVertex
 10
4.528511126635673
 20
-30.53434943668302
 30
0.0
 70
     8
  0
VERTEX
  5
BF4
330
BE7
100
AcDbEntity
  8
MSR_I1_2-0
100
AcDbVertex
100
AcDb2dVertex
 10
4.546129379240837
 20
-30.41466689066551
 30
0.0
 70
     8
  0
VERTEX
  5
BF5
330
BE7
100
AcDbEntity
  8
MSR_I1_2-0
100
AcDbVertex
100
AcDb2dVertex
 10
4.566935016802431
 20
-30.30197909794483
 30
0.0
 70
     8
  0
VERTEX
  5
BF6
330
BE7
100
AcDbEntity
  8
MSR_I1_2-0
100
AcDbVertex
100
AcDb2dVertex
 10
4.589186477497347
 20
-30.19520236499636
 30
0.0
 70
     8
  0
VERTEX
  5
BF7
330
BE7
100
AcDbEntity
  8
MSR_I1_2-0
100
AcDbVertex
100
AcDb2dVertex
 10
4.611142199502481
 20
-30.09325299829546
 30
0.0
 70
     8
  0
VERTEX
  5
BF8
330
BE7
100
AcDbEntity
  8
MSR_I1_2-0
100
AcDbVertex
100
AcDb2dVertex
 10
4.631060620994725
 20
-29.99504730431753
 30
0.0
 70
     8
  0
VERTEX
  5
BF9
330
BE7
100
AcDbEntity
  8
MSR_I1_2-0
100
AcDbVertex
100
AcDb2dVertex
 10
4.647200180150974
 20
-29.89950158953794
 30
0.0
 70
     8
  0
VERTEX
  5
BFA
330
BE7
100
AcDbEntity
  8
MSR_I1_2-0
100
AcDbVertex
100
AcDb2dVertex
 10
4.658202678067714
 20
-29.80576750800118
 30
0.0
 70
     8
  0
VERTEX
  5
BFB
330
BE7
100
AcDbEntity
  8
MSR_I1_2-0
100
AcDbVertex
100
AcDb2dVertex
 10
4.664243367519792
 20
-29.71393810402812
 30
0.0
 70
     8
  0
VERTEX
  5
BFC
330
BE7
100
AcDbEntity
  8
MSR_I1_2-0
100
AcDbVertex
100
AcDb2dVertex
 10
4.665880864201651
 20
-29.62434176950879
 30
0.0
 70
     8
  0
VERTEX
  5
BFD
330
BE7
100
AcDbEntity
  8
MSR_I1_2-0
100
AcDbVertex
100
AcDb2dVertex
 10
4.66367378380773
 20
-29.53730689633319
 30
0.0
 70
     8
  0
VERTEX
  5
BFE
330
BE7
100
AcDbEntity
  8
MSR_I1_2-0
100
AcDbVertex
100
AcDb2dVertex
 10
4.658180742032472
 20
-29.45316187639133
 30
0.0
 70
     8
  0
VERTEX
  5
BFF
330
BE7
100
AcDbEntity
  8
MSR_I1_2-0
100
AcDbVertex
100
AcDb2dVertex
 10
4.649960354570317
 20
-29.3722351015732
 30
0.0
 70
     8
  0
VERTEX
  5
C00
330
BE7
100
AcDbEntity
  8
MSR_I1_2-0
100
AcDbVertex
100
AcDb2dVertex
 10
4.639571237115705
 20
-29.29485496376882
 30
0.0
 70
     8
  0
VERTEX
  5
C01
330
BE7
100
AcDbEntity
  8
MSR_I1_2-0
100
AcDbVertex
100
AcDb2dVertex
 10
4.627572005363077
 20
-29.22134985486819
 30
0.0
 70
     8
  0
VERTEX
  5
C02
330
BE7
100
AcDbEntity
  8
MSR_I1_2-0
100
AcDbVertex
100
AcDb2dVertex
 10
4.614428171868076
 20
-29.15190039021908
 30
0.0
 70
     8
  0
VERTEX
  5
C03
330
BE7
100
AcDbEntity
  8
MSR_I1_2-0
100
AcDbVertex
100
AcDb2dVertex
 10
4.600232836631148
 20
-29.08609607900029
 30
0.0
 70
     8
  0
VERTEX
  5
C04
330
BE7
100
AcDbEntity
  8
MSR_I1_2-0
100
AcDbVertex
100
AcDb2dVertex
 10
4.584985996513941
 20
-29.0233786538484
 30
0.0
 70
     8
  0
VERTEX
  5
C05
330
BE7
100
AcDbEntity
  8
MSR_I1_2-0
100
AcDbVertex
100
AcDb2dVertex
 10
4.568687648378102
 20
-28.96318984739997
 30
0.0
 70
     8
  0
VERTEX
  5
C06
330
BE7
100
AcDbEntity
  8
MSR_I1_2-0
100
AcDbVertex
100
AcDb2dVertex
 10
4.551337789085279
 20
-28.90497139229157
 30
0.0
 70
     8
  0
VERTEX
  5
C07
330
BE7
100
AcDbEntity
  8
MSR_I1_2-0
100
AcDbVertex
100
AcDb2dVertex
 10
4.53293641549712
 20
-28.84816502115978
 30
0.0
 70
     8
  0
VERTEX
  5
C08
330
BE7
100
AcDbEntity
  8
MSR_I1_2-0
100
AcDbVertex
100
AcDb2dVertex
 10
4.513483524475273
 20
-28.79221246664115
 30
0.0
 70
     8
  0
VERTEX
  5
C09
330
BE7
100
AcDbEntity
  8
MSR_I1_2-0
100
AcDbVertex
100
AcDb2dVertex
 10
4.492979112881386
 20
-28.73655546137226
 30
0.0
 70
     8
  0
VERTEX
  5
C0A
330
BE7
100
AcDbEntity
  8
MSR_I1_2-0
100
AcDbVertex
100
AcDb2dVertex
 10
4.471510804291442
 20
-28.68060289894448
 30
0.0
 70
     8
  0
VERTEX
  5
C0B
330
BE7
100
AcDbEntity
  8
MSR_I1_2-0
100
AcDbVertex
100
AcDb2dVertex
 10
4.449516729138774
 20
-28.62363231676839
 30
0.0
 70
     8
  0
VERTEX
  5
C0C
330
BE7
100
AcDbEntity
  8
MSR_I1_2-0
100
AcDbVertex
100
AcDb2dVertex
 10
4.427522644571047
 20
-28.56488841320937
 30
0.0
 70
     8
  0
VERTEX
  5
C0D
330
BE7
100
AcDbEntity
  8
MSR_I1_2-0
100
AcDbVertex
100
AcDb2dVertex
 10
4.406054307735932
 20
-28.50361588663281
 30
0.0
 70
     8
  0
VERTEX
  5
C0E
330
BE7
100
AcDbEntity
  8
MSR_I1_2-0
100
AcDbVertex
100
AcDb2dVertex
 10
4.385637475781096
 20
-28.43905943540408
 30
0.0
 70
     8
  0
VERTEX
  5
C0F
330
BE7
100
AcDbEntity
  8
MSR_I1_2-0
100
AcDbVertex
100
AcDb2dVertex
 10
4.366797905854205
 20
-28.37046375788857
 30
0.0
 70
     8
  0
VERTEX
  5
C10
330
BE7
100
AcDbEntity
  8
MSR_I1_2-0
100
AcDbVertex
100
AcDb2dVertex
 10
4.350061355102929
 20
-28.29707355245166
 30
0.0
 70
     8
  0
VERTEX
  5
C11
330
BE7
100
AcDbEntity
  8
MSR_I1_2-0
100
AcDbVertex
100
AcDb2dVertex
 10
4.335953580674934
 20
-28.21813351745872
 30
0.0
 70
     8
  0
VERTEX
  5
C12
330
BE7
100
AcDbEntity
  8
MSR_I1_2-0
100
AcDbVertex
100
AcDb2dVertex
 10
4.325109871868545
 20
-28.1330073170975
 30
0.0
 70
     8
  0
VERTEX
  5
C13
330
BE7
100
AcDbEntity
  8
MSR_I1_2-0
100
AcDbVertex
100
AcDb2dVertex
 10
4.318603646584711
 20
-28.04153447884511
 30
0.0
 70
     8
  0
VERTEX
  5
C14
330
BE7
100
AcDbEntity
  8
MSR_I1_2-0
100
AcDbVertex
100
AcDb2dVertex
 10
4.317617854875036
 20
-27.94367349600098
 30
0.0
 70
     8
  0
VERTEX
  5
C15
330
BE7
100
AcDbEntity
  8
MSR_I1_2-0
100
AcDbVertex
100
AcDb2dVertex
 10
4.323335446791127
 20
-27.83938286186457
 30
0.0
 70
     8
  0
VERTEX
  5
C16
330
BE7
100
AcDbEntity
  8
MSR_I1_2-0
100
AcDbVertex
100
AcDb2dVertex
 10
4.336939372384589
 20
-27.72862106973535
 30
0.0
 70
     8
  0
VERTEX
  5
C17
330
BE7
100
AcDbEntity
  8
MSR_I1_2-0
100
AcDbVertex
100
AcDb2dVertex
 10
4.359612581707027
 20
-27.61134661291276
 30
0.0
 70
     8
  0
VERTEX
  5
C18
330
BE7
100
AcDbEntity
  8
MSR_I1_2-0
100
AcDbVertex
100
AcDb2dVertex
 10
4.392538024810046
 20
-27.48751798469627
 30
0.0
 70
     8
  0
VERTEX
  5
C19
330
BE7
100
AcDbEntity
  8
MSR_I1_2-0
100
AcDbVertex
100
AcDb2dVertex
 10
4.436898651745252
 20
-27.35709367838532
 30
0.0
 70
     8
  0
VERTEX
  5
C1A
330
BE7
100
AcDbEntity
  8
MSR_I1_2-0
100
AcDbVertex
100
AcDb2dVertex
 10
4.588315655787226
 20
-31.66493810817023
 30
0.0
 70
    16
  0
VERTEX
  5
C1B
330
BE7
100
AcDbEntity
  8
MSR_I1_2-0
100
AcDbVertex
100
AcDb2dVertex
 10
4.420074272379082
 20
-30.68974466808622
 30
0.0
 70
    16
  0
VERTEX
  5
C1C
330
BE7
100
AcDbEntity
  8
MSR_I1_2-0
100
AcDbVertex
100
AcDb2dVertex
 10
4.706084704514722
 20
-29.88268787568499
 30
0.0
 70
    16
  0
VERTEX
  5
C1D
330
BE7
100
AcDbEntity
  8
MSR_I1_2-0
100
AcDbVertex
100
AcDb2dVertex
 10
4.638787990467875
 20
-29.17651336640147
 30
0.0
 70
    16
  0
VERTEX
  5
C1E
330
BE7
100
AcDbEntity
  8
MSR_I1_2-0
100
AcDbVertex
100
AcDb2dVertex
 10
4.504195365792242
 20
-28.73935778791831
 30
0.0
 70
    16
  0
VERTEX
  5
C1F
330
BE7
100
AcDbEntity
  8
MSR_I1_2-0
100
AcDbVertex
100
AcDb2dVertex
 10
4.302305223651472
 20
-28.28538825015885
 30
0.0
 70
    16
  0
VERTEX
  5
C20
330
BE7
100
AcDbEntity
  8
MSR_I1_2-0
100
AcDbVertex
100
AcDb2dVertex
 10
4.302305223651472
 20
-27.71372296085206
 30
0.0
 70
    16
  0
VERTEX
  5
C21
330
BE7
100
AcDbEntity
  8
MSR_I1_2-0
100
AcDbVertex
100
AcDb2dVertex
 10
4.436898651745252
 20
-27.35709367838531
 30
0.0
 70
    16
  0
SEQEND
  5
C22
330
BE7
100
AcDbEntity
  8
MSR_I1_2-0
  0
LINE
  5
C23
330
1A
100
AcDbEntity
  8
MSR_I1_2-0
100
AcDbLine
 10
12.49999999999997
 20
-35.35709367838531
 30
0.0
 11
12.49999999999997
 21
-44.35709367838533
 31
0.0
  0
LINE
  5
C24
330
1A
100
AcDbEntity
  8
MSR_I1_2-0
100
AcDbLine
 10
8.899999999999948
 20
-28.95709367838531
 30
0.0
 11
8.899999999999948
 21
-31.35709367838531
 31
0.0
  0
LINE
  5
C25
330
1A
100
AcDbEntity
  8
MSR_I1_2-7
100
AcDbLine
 10
10.99999999999997
 20
-26.1966626783853
 30
0.0
 11
10.99999999999997
 21
-37.5889546783853
 31
0.0
  0
LINE
  5
C26
330
1A
100
AcDbEntity
  8
MSR_I1_2-0
100
AcDbLine
 10
13.09999999999996
 20
-28.95709367838531
 30
0.0
 11
13.09999999999996
 21
-31.35709367838531
 31
0.0
  0
INSERT
  5
C27
330
1A
100
AcDbEntity
  8
MSR_I1_2-8
100
AcDbBlockReference
  2
*X2
 10
0.0
 20
0.0
 30
0.0
1001
GENIUS_GENODEF_13
1002
{
1000
HIER
1070
     0
1002
}
1002
{
1000
MANEDIT
1070
     0
1002
}
1002
{
1000
NOSEL
1070
     0
1002
}
1002
{
1000
BEHIND
1070
     0
1002
}
1002
{
1000
REACTOR
1002
}
1001
GENIUS_GENOBJ-N-HTC_13
1002
{
1000
OWNER
1000
GEN
1002
}
1001
GENIUS_GENHATCH_13
1002
{
1000
DATA
1040
45.0
1042
1.25
1000
_U
1070
     0
1011
14.33091389737228
1021
-30.59671390339645
1031
0.0
1002
}
1002
{
1000
UCS
1010
0.0
1020
0.0
1030
0.0
1010
1.0
1020
0.0
1030
0.0
1010
0.0
1020
1.0
1030
0.0
1002
}
1001
ACAD
1000
HATCH
1002
{
1070
    19
1000
_U
1040
1.25
1040
0.7853981633974483
1070
     0
1002
}
  0
LINE
  5
C28
330
1A
100
AcDbEntity
  8
MSR_I1_2-7
100
AcDbLine
 10
7.162329999999968
 20
-10.0
 30
0.0
 11
13.06584499999999
 21
-10.0
 31
0.0
  0
LINE
  5
C29
330
1A
100
AcDbEntity
  8
MSR_I1_2-7
100
AcDbLine
 10
7.162329999999968
 20
10.0
 30
0.0
 11
13.06584499999999
 21
10.0
 31
0.0
  0
LINE
  5
C2A
330
1A
100
AcDbEntity
  8
MSR_I1_2-7
100
AcDbLine
 10
-3.696643000000022
 20
-10.0
 30
0.0
 11
3.56049999999999
 21
-10.0
 31
0.0
  0
LINE
  5
C2B
330
1A
100
AcDbEntity
  8
MSR_I1_2-7
100
AcDbLine
 10
-12.83767000000003
 20
-10.0
 30
0.0
 11
-6.934155000000004
 21
-10.0
 31
0.0
  0
CIRCLE
  5
C2C
330
1A
100
AcDbEntity
  8
MSR_I1_2-0
100
AcDbCircle
 10
-10.0
 20
-10.0
 30
0.0
 40
1.649999999999999
  0
ARC
  5
C2D
330
1A
100
AcDbEntity
  8
MSR_I1_2-4
100
AcDbCircle
 10
-10.0
 20
-10.0
 30
0.0
 40
2.0
100
AcDbArc
 50
89.999999
 51
0.0
  0
LINE
  5
C2E
330
1A
100
AcDbEntity
  8
MSR_I1_2-7
100
AcDbLine
 10
-10.0
 20
-7.020948000000004
 30
0.0
 11
-10.0
 21
-13.27172900000002
 31
0.0
  0
CIRCLE
  5
C2F
330
1A
100
AcDbEntity
  8
MSR_I1_2-0
100
AcDbCircle
 10
0.0
 20
-10.0
 30
0.0
 40
2.0
  0
LINE
  5
C30
330
1A
100
AcDbEntity
  8
MSR_I1_2-7
100
AcDbLine
 10
-3.696643000000022
 20
10.0
 30
0.0
 11
3.673892999999992
 21
10.0
 31
0.0
  0
LINE
  5
C31
330
1A
100
AcDbEntity
  8
MSR_I1_2-7
100
AcDbLine
 10
-12.83767000000003
 20
10.0
 30
0.0
 11
-6.934155000000004
 21
10.0
 31
0.0
  0
CIRCLE
  5
C32
330
1A
100
AcDbEntity
  8
MSR_I1_2-0
100
AcDbCircle
 10
10.0
 20
-10.0
 30
0.0
 40
1.649999999999999
  0
ARC
  5
C33
330
1A
100
AcDbEntity
  8
MSR_I1_2-4
100
AcDbCircle
 10
10.0
 20
-10.0
 30
0.0
 40
2.0
100
AcDbArc
 50
89.999999
 51
0.0
  0
LINE
  5
C34
330
1A
100
AcDbEntity
  8
MSR_I1_2-7
100
AcDbLine
 10
10.0
 20
-7.020948000000004
 30
0.0
 11
10.0
 21
-13.27172900000002
 31
0.0
  0
CIRCLE
  5
C35
330
1A
100
AcDbEntity
  8
MSR_I1_2-0
100
AcDbCircle
 10
16.0
 20
0.0
 30
0.0
 40
4.0
  0
CIRCLE
  5
C36
330
1A
100
AcDbEntity
  8
MSR_I1_2-0
100
AcDbCircle
 10
16.0
 20
0.0
 30
0.0
 40
3.5
  0
LINE
  5
C37
330
1A
100
AcDbEntity
  8
MSR_I1_2-7
100
AcDbLine
 10
16.0
 20
5.670573000000018
 30
0.0
 11
16.0
 21
-5.441927000000021
 31
0.0
  0
POLYLINE
  5
C38
330
1A
100
AcDbEntity
  8
MSR_I1_2-0
100
AcDb2dPolyline
 66
     1
 10
0.0
 20
0.0
 30
0.0
 70
     1
  0
VERTEX
  5
C39
330
C38
100
AcDbEntity
  8
MSR_I1_2-0
100
AcDbVertex
100
AcDb2dVertex
 10
16.86602499999998
 20
1.5
 30
0.0
  0
VERTEX
  5
C3A
330
C38
100
AcDbEntity
  8
MSR_I1_2-0
100
AcDbVertex
100
AcDb2dVertex
 10
15.13397399999999
 20
1.5
 30
0.0
  0
VERTEX
  5
C3B
330
C38
100
AcDbEntity
  8
MSR_I1_2-0
100
AcDbVertex
100
AcDb2dVertex
 10
14.26794899999999
 20
0.0
 30
0.0
  0
VERTEX
  5
C3C
330
C38
100
AcDbEntity
  8
MSR_I1_2-0
100
AcDbVertex
100
AcDb2dVertex
 10
15.13397399999999
 20
-1.5
 30
0.0
  0
VERTEX
  5
C3D
330
C38
100
AcDbEntity
  8
MSR_I1_2-0
100
AcDbVertex
100
AcDb2dVertex
 10
16.86602499999998
 20
-1.5
 30
0.0
  0
VERTEX
  5
C3E
330
C38
100
AcDbEntity
  8
MSR_I1_2-0
100
AcDbVertex
100
AcDb2dVertex
 10
17.73205099999998
 20
0.0
 30
0.0
  0
VERTEX
  5
C3F
330
C38
100
AcDbEntity
  8
MSR_I1_2-0
100
AcDbVertex
100
AcDb2dVertex
 10
16.86602499999998
 20
1.5
 30
0.0
  0
VERTEX
  5
C40
330
C38
100
AcDbEntity
  8
MSR_I1_2-0
100
AcDbVertex
100
AcDb2dVertex
 10
16.86602499999998
 20
1.5
 30
0.0
  0
SEQEND
  5
C41
330
C38
100
AcDbEntity
  8
MSR_I1_2-0
  0
POINT
  5
C42
330
1A
100
AcDbEntity
  8
0
 60
     1
100
AcDbPoint
 10
0.0
 20
0.0
 30
0.0
1001
GENIUS_GENODEF_13
1002
{
1000
HIER
1070
   200
1002
}
1002
{
1000
MANEDIT
1070
     0
1002
}
1002
{
1000
NOSEL
1070
     0
1002
}
1002
{
1000
BEHIND
1070
     0
1002
}
1002
{
1000
REACTOR
1002
}
1001
GENIUS_GENOBJ-F-PART_13
1002
{
1000
OWNER
1000
GEF
1002
}
1001
GENIUS_GEFSTDP_13
1002
{
1000
DSC
1000
DSC
1002
{
1000
~DESCR
1000
 
1000
~STDRT
1000
(gefmsg "gefcall" 409)
1000
~LOTI
1002
}
1002
}
1002
{
1000
SUG
1000
M
1040
5.0
1002
}
1002
{
1000
KEY
1000
THRF
1002
}
1002
{
1000
INS
1002
{
1040
-15.00000000000003
1040
-31.35709367838531
1040
0.0
1002
}
1002
}
1002
{
1000
ANG
1040
0.0
1002
}
1002
{
1000
VCC
1002
{
1000
-LPLOTI=5.000000000000000E+00
1000
$PRE=M
1000
$NND=5.000000000000000E+00
1000
-GRPNAME0MSR_I1_2-0
1000
-RBDESCR
1000
-RBSTDRT
1000
-RBLOTI
1000
-RBGD1
1000
-V$PV_GENSYSTEM"gef\val\di\0401\di1616_v.dxf"
1000
$VCC_TABLE=$PV_GENSYSTEM"gef\val\di\0401\di1616.val"
1000
$GEF_CDIST=3.000000000000000E+00
1000
$GEF_DRAG=1
1000
$GEF_STANG=2.100000000000000E+02
1000
$GEF_OANG=7.000000000000000E+01
1000
$GEVPROMPTX= Länge: 
1000
$GEF_SNK_ADD=0.000000000000000E+00
1000
$GEF_FLIPX=1
1000
$GEF_FLIPY=1
1000
-GRPNAME1?
1000
-BAML2
1000
$GEF_PROCALC=1
1000
$GEVBHOP=2
1002
}
1002
}
1002
{
1000
LST
1002
{
1002
{
1000
GROUP
1000
0401
1002
}
1002
{
1000
VIEW
1000
V
1002
}
1002
{
1000
SFILE
1000
$PV_GENSYSTEM"gef\val\di\0401\di1616_v.dxf"
1002
}
1002
{
1000
ST1
1000
$PV_GENSYSTEM"gef\val\di\0401\di1616.val"
1002
}
1002
{
1000
GENASSO
1000
 
1002
}
1002
}
1002
}
1002
{
1000
RET
1002
{
1002
{
1000
GD1
1000
4.134
1002
}
1002
{
1000
LOTI
1000
5.000000000000000E+00
1002
}
1002
{
1000
STDRT
1000
DIN 13 - M5
1002
}
1002
{
1000
DESCR
1000
Metrisches ISO-Gewinde
1002
}
1002
}
1002
}
1002
{
1000
SYSTEM
1040
1.0
1002
}
1002
{
1000
INFEL
1002
{
1002
}
1002
}
1001
GENIUS_GENOENT_13
1002
{
1000
MYREF
1005
C42
1002
}
1002
{
1000
GRP
1005
0
1002
}
1001
GENIUS_GENOLIS_13
1002
{
1000
ENT
1005
B46
1002
}
  0
POINT
  5
C43
330
1A
100
AcDbEntity
  8
0
 60
     1
100
AcDbPoint
 10
0.0
 20
0.0
 30
0.0
1001
GENIUS_GENODEF_13
1002
{
1000
HIER
1070
   200
1002
}
1002
{
1000
MANEDIT
1070
     0
1002
}
1002
{
1000
NOSEL
1070
     0
1002
}
1002
{
1000
BEHIND
1070
     0
1002
}
1002
{
1000
REACTOR
1002
}
1001
GENIUS_GENOBJ-F-PART_13
1002
{
1000
OWNER
1000
GEF
1002
}
1001
GENIUS_GEFSTDP_13
1002
{
1000
DSC
1000
DSC
1002
{
1000
~DESCR
1000
 
1000
~STDRT
1000
(gefmsg "gefcall" 409)
1000
~LOTI
1002
}
1002
}
1002
{
1000
SUG
1000
M
1040
5.0
1002
}
1002
{
1000
KEY
1000
THRF
1002
}
1002
{
1000
INS
1002
{
1040
30.19999999999999
1040
-11.0
1040
0.0
1002
}
1002
}
1002
{
1000
ANG
1040
3.141592653589793
1002
}
1002
{
1000
VCC
1002
{
1000
-LPLOTI=5.000000000000000E+00
1000
$PRE=M
1000
$NND=5.000000000000000E+00
1000
-GRPNAME0MSR_I1_2-0
1000
-RBDESCR
1000
-RBSTDRT
1000
-RBLOTI
1000
-RBGD1
1000
-V$PV_GENSYSTEM"gef\val\di\0401\di1616_v.dxf"
1000
$VCC_TABLE=$PV_GENSYSTEM"gef\val\di\0401\di1616.val"
1000
$GEF_CDIST=3.000000000000000E+00
1000
$GEF_DRAG=1
1000
$GEF_STANG=2.100000000000000E+02
1000
$GEF_OANG=7.000000000000000E+01
1000
$GEVPROMPTX= Länge: 
1000
$GEF_SNK_ADD=0.000000000000000E+00
1000
$GEF_FLIPX=1
1000
$GEF_FLIPY=1
1000
-GRPNAME1?
1000
-BAML2
1000
$GEF_PROCALC=1
1000
$GEVBHOP=2
1002
}
1002
}
1002
{
1000
LST
1002
{
1002
{
1000
GROUP
1000
0401
1002
}
1002
{
1000
VIEW
1000
V
1002
}
1002
{
1000
SFILE
1000
$PV_GENSYSTEM"gef\val\di\0401\di1616_v.dxf"
1002
}
1002
{
1000
ST1
1000
$PV_GENSYSTEM"gef\val\di\0401\di1616.val"
1002
}
1002
{
1000
GENASSO
1000
 
1002
}
1002
}
1002
}
1002
{
1000
RET
1002
{
1002
{
1000
GD1
1000
4.134
1002
}
1002
{
1000
LOTI
1000
5.000000000000000E+00
1002
}
1002
{
1000
STDRT
1000
DIN 13 - M5
1002
}
1002
{
1000
DESCR
1000
Metrisches ISO-Gewinde
1002
}
1002
}
1002
}
1002
{
1000
SYSTEM
1040
1.0
1002
}
1002
{
1000
INFEL
1002
{
1002
}
1002
}
1001
GENIUS_GENOENT_13
1002
{
1000
MYREF
1005
C43
1002
}
1002
{
1000
GRP
1005
0
1002
}
1001
GENIUS_GENOLIS_13
1002
{
1000
ENT
1005
B15
1002
}
  0
POINT
  5
C44
330
1A
100
AcDbEntity
  8
0
 60
     1
100
AcDbPoint
 10
0.0
 20
0.0
 30
0.0
1001
GENIUS_GENODEF_13
1002
{
1000
HIER
1070
   200
1002
}
1002
{
1000
MANEDIT
1070
     0
1002
}
1002
{
1000
NOSEL
1070
     0
1002
}
1002
{
1000
BEHIND
1070
     0
1002
}
1002
{
1000
REACTOR
1002
}
1001
GENIUS_GENOBJ-F-PART_13
1002
{
1000
OWNER
1000
GEF
1002
}
1001
GENIUS_GEFSTDP_13
1002
{
1000
SUG
1000
M
1040
5.0
1002
}
1002
{
1000
DSC
1000
DSC
1002
{
1000
~DESCR
1000
 
1000
~STDRT
1000
(gefmsg "gefcall" 409)
1000
~LOTI
1002
}
1002
}
1002
{
1000
KEY
1000
THRF
1002
}
1002
{
1000
INS
1002
{
1040
30.20000000000073
1040
11.0
1040
0.0
1002
}
1002
}
1002
{
1000
ANG
1040
3.141592653589793
1002
}
1002
{
1000
VCC
1002
{
1000
-LPLOTI=5.000000000000000E+00
1000
$PRE=M
1000
$NND=5.000000000000000E+00
1000
-GRPNAME0MSR_I1_2-0
1000
-RBDESCR
1000
-RBSTDRT
1000
-RBLOTI
1000
-RBGD1
1000
-V$PV_GENSYSTEM"gef\val\di\0401\di1616_v.dxf"
1000
$VCC_TABLE=$PV_GENSYSTEM"gef\val\di\0401\di1616.val"
1000
$GEF_CDIST=3.000000000000000E+00
1000
$GEF_DRAG=1
1000
$GEF_STANG=2.100000000000000E+02
1000
$GEF_OANG=7.000000000000000E+01
1000
$GEVPROMPTX= Länge: 
1000
$GEF_SNK_ADD=0.000000000000000E+00
1000
$GEF_FLIPX=1
1000
$GEF_FLIPY=1
1000
-GRPNAME1?
1000
-BAML2
1000
$GEF_PROCALC=1
1000
$GEVBHOP=2
1002
}
1002
}
1002
{
1000
LST
1002
{
1002
{
1000
GROUP
1000
0401
1002
}
1002
{
1000
VIEW
1000
V
1002
}
1002
{
1000
SFILE
1000
$PV_GENSYSTEM"gef\val\di\0401\di1616_v.dxf"
1002
}
1002
{
1000
ST1
1000
$PV_GENSYSTEM"gef\val\di\0401\di1616.val"
1002
}
1002
{
1000
GENASSO
1000
 
1002
}
1002
}
1002
}
1002
{
1000
RET
1002
{
1002
{
1000
GD1
1000
4.134
1002
}
1002
{
1000
LOTI
1000
5.000000000000000E+00
1002
}
1002
{
1000
STDRT
1000
DIN 13 - M5
1002
}
1002
{
1000
DESCR
1000
Metrisches ISO-Gewinde
1002
}
1002
}
1002
}
1002
{
1000
SYSTEM
1040
1.0
1002
}
1002
{
1000
INFEL
1002
{
1002
}
1002
}
1001
GENIUS_GENOENT_13
1002
{
1000
MYREF
1005
C44
1002
}
1002
{
1000
GRP
1005
0
1002
}
1001
GENIUS_GENOLIS_13
1002
{
1000
ENT
1005
B14
1002
}
  0
POINT
  5
C45
330
1A
100
AcDbEntity
  8
0
 60
     1
100
AcDbPoint
 10
-153.254334
 20
-176.7011076783853
 30
0.0
1001
GENIUS_GENODEF_13
1002
{
1000
HIER
1070
    10
1002
}
1002
{
1000
MANEDIT
1070
     0
1002
}
1002
{
1000
NOSEL
1070
     0
1002
}
1002
{
1000
BEHIND
1070
     0
1002
}
1002
{
1000
REACTOR
1002
}
1001
GENIUS_GENOBJ-N-CRS_13
1002
{
1000
OWNER
1000
GEN
1002
}
1001
GENIUS_GENOENT_13
1002
{
1000
MYREF
1005
C45
1002
}
1002
{
1000
GRP
1005
0
1002
}
1001
GENIUS_GENOLIS_13
1002
{
1000
ENT
1005
A49
1005
AFC
1005
B00
1005
B01
1002
}
  0
POINT
  5
C46
330
1A
100
AcDbEntity
  8
0
 60
     1
100
AcDbPoint
 10
0.0
 20
0.0
 30
0.0
1001
GENIUS_GENODEF_13
1002
{
1000
HIER
1070
   200
1002
}
1002
{
1000
MANEDIT
1070
     0
1002
}
1002
{
1000
NOSEL
1070
     0
1002
}
1002
{
1000
BEHIND
1070
     0
1002
}
1002
{
1000
REACTOR
1002
}
1001
GENIUS_GENOBJ-F-PART_13
1002
{
1000
OWNER
1000
GEF
1002
}
1001
GENIUS_GEFSTDP_13
1002
{
1000
SUG
1000
M
1040
5.0
1002
}
1002
{
1000
DSC
1000
DSC
1002
{
1000
~DESCR
1000
 
1000
~STDRT
1000
(gefmsg "gefcall" 409)
1000
~LOTI
1002
}
1002
}
1002
{
1000
KEY
1000
THRF
1002
}
1002
{
1000
INS
1002
{
1040
-15.0
1040
-118.810846643108
1040
0.0
1002
}
1002
}
1002
{
1000
ANG
1040
0.0
1002
}
1002
{
1000
VCC
1002
{
1000
-LPLOTI=5.000000000000000E+00
1000
$PRE=M
1000
$NND=5.000000000000000E+00
1000
-GRPNAME0MSR_I1_2-0
1000
-RBDESCR
1000
-RBSTDRT
1000
-RBLOTI
1000
-RBGD1
1000
-V$PV_GENSYSTEM"gef\val\di\0401\di1616_v.dxf"
1000
$VCC_TABLE=$PV_GENSYSTEM"gef\val\di\0401\di1616.val"
1000
$GEF_CDIST=3.000000000000000E+00
1000
$GEF_DRAG=1
1000
$GEF_STANG=2.100000000000000E+02
1000
$GEF_OANG=7.000000000000000E+01
1000
$GEVPROMPTX= Länge: 
1000
$GEF_SNK_ADD=0.000000000000000E+00
1000
$GEF_FLIPX=1
1000
$GEF_FLIPY=1
1000
-GRPNAME1?
1000
-BAML2
1000
$GEF_PROCALC=1
1000
$GEVBHOP=2
1002
}
1002
}
1002
{
1000
LST
1002
{
1002
{
1000
GROUP
1000
0401
1002
}
1002
{
1000
VIEW
1000
V
1002
}
1002
{
1000
SFILE
1000
$PV_GENSYSTEM"gef\val\di\0401\di1616_v.dxf"
1002
}
1002
{
1000
ST1
1000
$PV_GENSYSTEM"gef\val\di\0401\di1616.val"
1002
}
1002
{
1000
GENASSO
1000
 
1002
}
1002
}
1002
}
1002
{
1000
RET
1002
{
1002
{
1000
GD1
1000
4.134
1002
}
1002
{
1000
LOTI
1000
5.000000000000000E+00
1002
}
1002
{
1000
STDRT
1000
DIN 13 - M5
1002
}
1002
{
1000
DESCR
1000
Metrisches ISO-Gewinde
1002
}
1002
}
1002
}
1002
{
1000
SYSTEM
1040
1.0
1002
}
1002
{
1000
INFEL
1002
{
1002
}
1002
}
1001
GENIUS_GENOENT_13
1002
{
1000
MYREF
1005
C46
1002
}
1002
{
1000
GRP
1005
0
1002
}
1001
GENIUS_GENOLIS_13
1002
{
1000
ENT
1005
A2A
1002
}
  0
POINT
  5
C47
330
1A
100
AcDbEntity
  8
0
 60
     1
100
AcDbPoint
 10
0.0
 20
0.0
 30
0.0
1001
GENIUS_GENODEF_13
1002
{
1000
HIER
1070
   200
1002
}
1002
{
1000
MANEDIT
1070
     0
1002
}
1002
{
1000
NOSEL
1070
     0
1002
}
1002
{
1000
BEHIND
1070
     0
1002
}
1002
{
1000
REACTOR
1002
}
1001
GENIUS_GENOBJ-F-PART_13
1002
{
1000
OWNER
1000
GEF
1002
}
1001
GENIUS_GEFSTDP_13
1002
{
1000
SUG
1000
M
1040
5.0
1002
}
1002
{
1000
DSC
1000
DSC
1002
{
1000
~DESCR
1000
 
1000
~STDRT
1000
(gefmsg "gefcall" 409)
1000
~LOTI
1002
}
1002
}
1002
{
1000
KEY
1000
THRF
1002
}
1002
{
1000
INS
1002
{
1040
14.99999999999997
1040
-118.810846643108
1040
0.0
1002
}
1002
}
1002
{
1000
ANG
1040
3.141592653589793
1002
}
1002
{
1000
VCC
1002
{
1000
-LPLOTI=5.000000000000000E+00
1000
$PRE=M
1000
$NND=5.000000000000000E+00
1000
-GRPNAME0MSR_I1_2-0
1000
-RBDESCR
1000
-RBSTDRT
1000
-RBLOTI
1000
-RBGD1
1000
-V$PV_GENSYSTEM"gef\val\di\0401\di1616_v.dxf"
1000
$VCC_TABLE=$PV_GENSYSTEM"gef\val\di\0401\di1616.val"
1000
$GEF_CDIST=3.000000000000000E+00
1000
$GEF_DRAG=1
1000
$GEF_STANG=2.100000000000000E+02
1000
$GEF_OANG=7.000000000000000E+01
1000
$GEVPROMPTX= Länge: 
1000
$GEF_SNK_ADD=0.000000000000000E+00
1000
$GEF_FLIPX=1
1000
$GEF_FLIPY=1
1000
-GRPNAME1?
1000
-BAML2
1000
$GEF_PROCALC=1
1000
$GEVBHOP=2
1002
}
1002
}
1002
{
1000
LST
1002
{
1002
{
1000
GROUP
1000
0401
1002
}
1002
{
1000
VIEW
1000
V
1002
}
1002
{
1000
SFILE
1000
$PV_GENSYSTEM"gef\val\di\0401\di1616_v.dxf"
1002
}
1002
{
1000
ST1
1000
$PV_GENSYSTEM"gef\val\di\0401\di1616.val"
1002
}
1002
{
1000
GENASSO
1000
 
1002
}
1002
}
1002
}
1002
{
1000
RET
1002
{
1002
{
1000
GD1
1000
4.134
1002
}
1002
{
1000
LOTI
1000
5.000000000000000E+00
1002
}
1002
{
1000
STDRT
1000
DIN 13 - M5
1002
}
1002
{
1000
DESCR
1000
Metrisches ISO-Gewinde
1002
}
1002
}
1002
}
1002
{
1000
SYSTEM
1040
1.0
1002
}
1002
{
1000
INFEL
1002
{
1002
}
1002
}
1001
GENIUS_GENOENT_13
1002
{
1000
MYREF
1005
C47
1002
}
1002
{
1000
GRP
1005
0
1002
}
1001
GENIUS_GENOLIS_13
1002
{
1000
ENT
1005
A29
1002
}
  0
POINT
  5
C48
330
1A
100
AcDbEntity
  8
0
 60
     1
100
AcDbPoint
 10
0.0
 20
0.0
 30
0.0
1001
GENIUS_GENODEF_13
1002
{
1000
HIER
1070
   200
1002
}
1002
{
1000
MANEDIT
1070
     0
1002
}
1002
{
1000
NOSEL
1070
     0
1002
}
1002
{
1000
BEHIND
1070
     0
1002
}
1002
{
1000
REACTOR
1002
}
1001
GENIUS_GENOBJ-F-PART_13
1002
{
1000
OWNER
1000
GEF
1002
}
1001
GENIUS_GEFSTDP_13
1002
{
1000
DSC
1000
DSC
1002
{
1000
~DESCR
1000
 
1000
~STDRT
1002
}
1002
}
1002
{
1000
SUG
1000
M
1040
5.0
1002
}
1002
{
1000
KEY
1000
THRT
1002
}
1002
{
1000
INS
1002
{
1040
-102.9116250000006
1040
-31.35709367838531
1040
0.0
1002
}
1002
}
1002
{
1000
ANG
1040
0.0
1002
}
1002
{
1000
VCC
1002
{
1000
$PRE=M
1000
$NND=5.000000000000000E+00
1000
-RBDESCR
1000
-RBSTDRT
1000
-RBGD1
1000
-RBLOTI
1000
-V$PV_GENSYSTEM"gef\val\di\0401\di1616_d.dxf"
1000
$VCC_TABLE=$PV_GENSYSTEM"gef\val\di\0401\di1616.val"
1000
$GEF_CDIST=3.000000000000000E+00
1000
$GEF_DRAG=1
1000
$GEF_STANG=2.100000000000000E+02
1000
$GEF_OANG=7.000000000000000E+01
1000
$GEVPROMPTX= Länge: 
1000
$GEF_SNK_ADD=0.000000000000000E+00
1000
$GEF_FLIPX=1
1000
$GEF_FLIPY=1
1000
-GRPNAME0?
1000
-GRPNAME1?
1000
-BAML2
1000
$GEF_PROCALC=1
1002
}
1002
}
1002
{
1000
LST
1002
{
1002
{
1000
GROUP
1000
0401
1002
}
1002
{
1000
VIEW
1000
D
1002
}
1002
{
1000
SFILE
1000
$PV_GENSYSTEM"gef\val\di\0401\di1616_d.dxf"
1002
}
1002
{
1000
ST1
1000
$PV_GENSYSTEM"gef\val\di\0401\di1616.val"
1002
}
1002
{
1000
GENASSO
1000
 
1002
}
1002
}
1002
}
1002
{
1000
RET
1002
{
1002
{
1000
LOTI
1002
}
1002
{
1000
GD1
1000
4.134
1002
}
1002
{
1000
STDRT
1000
DIN 13 - M5
1002
}
1002
{
1000
DESCR
1000
Metrisches ISO-Gewinde
1002
}
1002
}
1002
}
1002
{
1000
SYSTEM
1040
1.0
1002
}
1002
{
1000
INFEL
1002
{
1002
}
1002
}
1001
GENIUS_GENOENT_13
1002
{
1000
MYREF
1005
C48
1002
}
1002
{
1000
GRP
1005
0
1002
}
1001
GENIUS_GENOLIS_13
1002
{
1000
ENT
1005
9F6
1002
}
  0
POINT
  5
C49
330
1A
100
AcDbEntity
  8
0
 60
     1
100
AcDbPoint
 10
0.0
 20
0.0
 30
0.0
1001
GENIUS_GENBH_13
1002
{
1000
BGO
1005
C4E
1002
}
1002
{
1000
FGLEVEL
1040
5.000000009999999
1002
}
1002
{
1000
FLAGS
1070
    36
1002
}
1002
{
1000
OIUMAP
1000
OIU
1002
}
1002
{
1000
MODIFY
1070
     0
1002
}
1001
GENIUS_GENODEF_13
1002
{
1000
HIER
1070
     1
1002
}
1002
{
1000
MANEDIT
1070
     0
1002
}
1002
{
1000
NOSEL
1070
     1
1002
}
1002
{
1000
BEHIND
1070
     0
1002
}
1002
{
1000
REACTOR
1002
}
1001
GENIUS_GENOBJ-NBEHI-BHF_13
1002
{
1000
OWNER
1000
GENBEHI
1002
}
1001
GENIUS_GENOENT_13
1002
{
1000
MYREF
1005
C49
1002
}
1002
{
1000
GRP
1005
0
1002
}
1001
GENIUS_GENOLIS_13
1002
{
1000
ENT
1005
9F6
1002
}
  0
POINT
  5
C4A
330
1A
100
AcDbEntity
  8
0
 60
     1
100
AcDbPoint
 10
0.0
 20
0.0
 30
0.0
1001
GENIUS_GENODEF_13
1002
{
1000
HIER
1070
   200
1002
}
1002
{
1000
MANEDIT
1070
     0
1002
}
1002
{
1000
NOSEL
1070
     0
1002
}
1002
{
1000
BEHIND
1070
     0
1002
}
1002
{
1000
REACTOR
1002
}
1001
GENIUS_GENOBJ-F-PART_13
1002
{
1000
OWNER
1000
GEF
1002
}
1001
GENIUS_GEFSTDP_13
1002
{
1000
SUG
1000
M
1040
5.0
1002
}
1002
{
1000
DSC
1000
DSC
1002
{
1000
~DESCR
1000
 
1000
~STDRT
1002
}
1002
}
1002
{
1000
KEY
1000
THRT
1002
}
1002
{
1000
INS
1002
{
1040
-91.91162500000006
1040
-69.35709367838353
1040
0.0
1002
}
1002
}
1002
{
1000
ANG
1040
0.0
1002
}
1002
{
1000
VCC
1002
{
1000
$PRE=M
1000
$NND=5.000000000000000E+00
1000
-RBDESCR
1000
-RBSTDRT
1000
-RBGD1
1000
-RBLOTI
1000
-V$PV_GENSYSTEM"gef\val\di\0401\di1616_d.dxf"
1000
$VCC_TABLE=$PV_GENSYSTEM"gef\val\di\0401\di1616.val"
1000
$GEF_CDIST=3.000000000000000E+00
1000
$GEF_DRAG=1
1000
$GEF_STANG=2.100000000000000E+02
1000
$GEF_OANG=7.000000000000000E+01
1000
$GEVPROMPTX= Länge: 
1000
$GEF_SNK_ADD=0.000000000000000E+00
1000
$GEF_FLIPX=1
1000
$GEF_FLIPY=1
1000
-GRPNAME0?
1000
-GRPNAME1?
1000
-BAML2
1000
$GEF_PROCALC=1
1002
}
1002
}
1002
{
1000
LST
1002
{
1002
{
1000
GROUP
1000
0401
1002
}
1002
{
1000
VIEW
1000
D
1002
}
1002
{
1000
SFILE
1000
$PV_GENSYSTEM"gef\val\di\0401\di1616_d.dxf"
1002
}
1002
{
1000
ST1
1000
$PV_GENSYSTEM"gef\val\di\0401\di1616.val"
1002
}
1002
{
1000
GENASSO
1000
 
1002
}
1002
}
1002
}
1002
{
1000
RET
1002
{
1002
{
1000
LOTI
1002
}
1002
{
1000
GD1
1000
4.134
1002
}
1002
{
1000
STDRT
1000
DIN 13 - M5
1002
}
1002
{
1000
DESCR
1000
Metrisches ISO-Gewinde
1002
}
1002
}
1002
}
1002
{
1000
SYSTEM
1040
1.0
1002
}
1002
{
1000
INFEL
1002
{
1002
}
1002
}
1001
GENIUS_GENOENT_13
1002
{
1000
MYREF
1005
C4A
1002
}
1002
{
1000
GRP
1005
0
1002
}
1001
GENIUS_GENOLIS_13
1002
{
1000
ENT
1005
9F5
1002
}
  0
POINT
  5
C4B
330
1A
100
AcDbEntity
  8
0
 60
     1
100
AcDbPoint
 10
0.0
 20
0.0
 30
0.0
1001
GENIUS_GENBH_13
1002
{
1000
BGO
1005
0
1002
}
1002
{
1000
FGLEVEL
1040
7.000000009999999
1002
}
1002
{
1000
FLAGS
1070
    36
1002
}
1002
{
1000
OIUMAP
1000
OIU
1002
}
1002
{
1000
MODIFY
1070
     0
1002
}
1001
GENIUS_GENODEF_13
1002
{
1000
HIER
1070
     1
1002
}
1002
{
1000
MANEDIT
1070
     0
1002
}
1002
{
1000
NOSEL
1070
     1
1002
}
1002
{
1000
BEHIND
1070
     0
1002
}
1002
{
1000
REACTOR
1002
}
1001
GENIUS_GENOBJ-NBEHI-BHF_13
1002
{
1000
OWNER
1000
GENBEHI
1002
}
1001
GENIUS_GENOENT_13
1002
{
1000
MYREF
1005
C4B
1002
}
1002
{
1000
GRP
1005
0
1002
}
1001
GENIUS_GENOLIS_13
1002
{
1000
ENT
1005
9F5
1002
}
  0
POINT
  5
C4C
330
1A
100
AcDbEntity
  8
0
 60
     1
100
AcDbPoint
 10
0.0
 20
0.0
 30
0.0
1001
GENIUS_GENODEF_13
1002
{
1000
HIER
1070
   200
1002
}
1002
{
1000
MANEDIT
1070
     0
1002
}
1002
{
1000
NOSEL
1070
     0
1002
}
1002
{
1000
BEHIND
1070
     0
1002
}
1002
{
1000
REACTOR
1002
}
1001
GENIUS_GENOBJ-F-PART_13
1002
{
1000
OWNER
1000
GEF
1002
}
1001
GENIUS_GEFSTDP_13
1002
{
1000
SUG
1000
M
1040
5.0
1002
}
1002
{
1000
DSC
1000
DSC
1002
{
1000
~DESCR
1000
 
1000
~STDRT
1002
}
1002
}
1002
{
1000
KEY
1000
THRT
1002
}
1002
{
1000
INS
1002
{
1040
-113.911625
1040
-67.85709367838354
1040
0.0
1002
}
1002
}
1002
{
1000
ANG
1040
0.0
1002
}
1002
{
1000
VCC
1002
{
1000
$PRE=M
1000
$NND=5.000000000000000E+00
1000
-RBDESCR
1000
-RBSTDRT
1000
-RBGD1
1000
-RBLOTI
1000
-V$PV_GENSYSTEM"gef\val\di\0401\di1616_d.dxf"
1000
$VCC_TABLE=$PV_GENSYSTEM"gef\val\di\0401\di1616.val"
1000
$GEF_CDIST=3.000000000000000E+00
1000
$GEF_DRAG=1
1000
$GEF_STANG=2.100000000000000E+02
1000
$GEF_OANG=7.000000000000000E+01
1000
$GEVPROMPTX= Länge: 
1000
$GEF_SNK_ADD=0.000000000000000E+00
1000
$GEF_FLIPX=1
1000
$GEF_FLIPY=1
1000
-GRPNAME0?
1000
-GRPNAME1?
1000
-BAML2
1000
$GEF_PROCALC=1
1002
}
1002
}
1002
{
1000
LST
1002
{
1002
{
1000
GROUP
1000
0401
1002
}
1002
{
1000
VIEW
1000
D
1002
}
1002
{
1000
SFILE
1000
$PV_GENSYSTEM"gef\val\di\0401\di1616_d.dxf"
1002
}
1002
{
1000
ST1
1000
$PV_GENSYSTEM"gef\val\di\0401\di1616.val"
1002
}
1002
{
1000
GENASSO
1000
 
1002
}
1002
}
1002
}
1002
{
1000
RET
1002
{
1002
{
1000
LOTI
1002
}
1002
{
1000
GD1
1000
4.134
1002
}
1002
{
1000
STDRT
1000
DIN 13 - M5
1002
}
1002
{
1000
DESCR
1000
Metrisches ISO-Gewinde
1002
}
1002
}
1002
}
1002
{
1000
SYSTEM
1040
1.0
1002
}
1002
{
1000
INFEL
1002
{
1002
}
1002
}
1001
GENIUS_GENOENT_13
1002
{
1000
MYREF
1005
C4C
1002
}
1002
{
1000
GRP
1005
0
1002
}
1001
GENIUS_GENOLIS_13
1002
{
1000
ENT
1005
9F4
1002
}
  0
POINT
  5
C4D
330
1A
100
AcDbEntity
  8
0
 60
     1
100
AcDbPoint
 10
0.0
 20
0.0
 30
0.0
1001
GENIUS_GENBH_13
1002
{
1000
BGO
1005
0
1002
}
1002
{
1000
FGLEVEL
1040
6.000000009999999
1002
}
1002
{
1000
FLAGS
1070
    36
1002
}
1002
{
1000
OIUMAP
1000
OIU
1002
}
1002
{
1000
MODIFY
1070
     0
1002
}
1001
GENIUS_GENODEF_13
1002
{
1000
HIER
1070
     1
1002
}
1002
{
1000
MANEDIT
1070
     0
1002
}
1002
{
1000
NOSEL
1070
     1
1002
}
1002
{
1000
BEHIND
1070
     0
1002
}
1002
{
1000
REACTOR
1002
}
1001
GENIUS_GENOBJ-NBEHI-BHF_13
1002
{
1000
OWNER
1000
GENBEHI
1002
}
1001
GENIUS_GENOENT_13
1002
{
1000
MYREF
1005
C4D
1002
}
1002
{
1000
GRP
1005
0
1002
}
1001
GENIUS_GENOLIS_13
1002
{
1000
ENT
1005
9F4
1002
}
  0
POINT
  5
C4E
330
1A
100
AcDbEntity
  8
0
 60
     1
100
AcDbPoint
 10
0.0
 20
0.0
 30
0.0
1001
GENIUS_GENBH_13
1002
{
1000
FGO
1005
C49
1002
}
1001
GENIUS_GENODEF_13
1002
{
1000
HIER
1070
     1
1002
}
1002
{
1000
MANEDIT
1070
     0
1002
}
1002
{
1000
NOSEL
1070
     1
1002
}
1002
{
1000
BEHIND
1070
     0
1002
}
1002
{
1000
REACTOR
1002
}
1001
GENIUS_GENOBJ-NBEHI-BHB_13
1002
{
1000
OWNER
1000
GENBEHI
1002
}
1001
GENIUS_GENOENT_13
1002
{
1000
MYREF
1005
C4E
1002
}
1002
{
1000
GRP
1005
0
1002
}
1001
GENIUS_GENOLIS_13
1002
{
1000
ENT
1005
9F1
1005
0
1002
}
  0
ENDSEC
  0
SECTION
  2
OBJECTS
  0
DICTIONARY
  5
C
330
0
100
AcDbDictionary
281
     1
  3
ACAD_COLOR
350
D11
  3
ACAD_GROUP
350
D
  3
ACAD_LAYOUT
350
D39
  3
ACAD_MATERIAL
350
CE7
  3
ACAD_MLEADERSTYLE
350
D36
  3
ACAD_MLINESTYLE
350
E
  3
ACAD_PLOTSETTINGS
350
D3A
  3
ACAD_PLOTSTYLENAME
350
CE5
  3
ACAD_SCALELIST
350
D14
  3
ACAD_TABLESTYLE
350
D12
  3
ACAD_VISUALSTYLE
350
D00
  3
ACDB_RECOMPOSE_DATA
350
DF3
  3
AcDbVariableDictionary
350
DEA
  3
AcmDictionary
350
D9B
  3
AcmSystemVariableManager
350
E01
  3
AMG
350
D40
  3
AMGSNAPSETTINGS
350
DE3
  3
DWGPROPS
350
DF4
  0
DICTIONARY
  5
D11
102
{ACAD_REACTORS
330
C
102
}
330
C
100
AcDbDictionary
281
     1
  0
DICTIONARY
  5
D
102
{ACAD_REACTORS
330
C
102
}
330
C
100
AcDbDictionary
281
     1
  0
DICTIONARY
  5
D39
102
{ACAD_REACTORS
330
C
102
}
330
C
100
AcDbDictionary
281
     1
  3
Layout1
350
D3C
  3
Model
350
D3B
  0
DICTIONARY
  5
CE7
102
{ACAD_REACTORS
330
C
102
}
330
C
100
AcDbDictionary
281
     1
  3
ByBlock
350
CF0
  3
ByLayer
350
CE8
  3
Global
350
CF8
  0
DICTIONARY
  5
D36
102
{ACAD_REACTORS
330
C
102
}
330
C
100
AcDbDictionary
281
     1
  3
Standard
350
D37
  0
DICTIONARY
  5
E
102
{ACAD_REACTORS
330
C
102
}
330
C
100
AcDbDictionary
281
     1
  3
STANDARD
350
13
  0
DICTIONARY
  5
D3A
102
{ACAD_REACTORS
330
C
102
}
330
C
100
AcDbDictionary
281
     1
  0
ACDBDICTIONARYWDFLT
  5
CE5
102
{ACAD_REACTORS
330
C
102
}
330
C
100
AcDbDictionary
281
     1
  3
Normal
350
CE6
100
AcDbDictionaryWithDefault
340
CE6
  0
DICTIONARY
  5
D14
102
{ACAD_REACTORS
330
C
102
}
330
C
100
AcDbDictionary
281
     1
  3
A0
350
D15
  3
A1
350
D16
  3
A2
350
D17
  3
A3
350
D18
  3
A4
350
D19
  3
A5
350
D1A
  3
A6
350
D1B
  3
A7
350
D1C
  3
A8
350
D1D
  3
A9
350
D1E
  3
B0
350
D1F
  3
B1
350
D20
  3
B2
350
D21
  3
B3
350
D22
  3
B4
350
D23
  3
B5
350
D24
  3
B6
350
D25
  3
B7
350
D26
  3
B8
350
D27
  3
B9
350
D28
  3
C0
350
D29
  3
C1
350
D2A
  3
C2
350
D2B
  3
C3
350
D2C
  3
C4
350
D2D
  3
C5
350
D2E
  3
C6
350
D2F
  3
C7
350
D30
  3
C8
350
D31
  3
C9
350
D32
  3
D0
350
D33
  3
D1
350
D34
  3
D2
350
D35
  0
DICTIONARY
  5
D12
102
{ACAD_REACTORS
330
C
102
}
330
C
100
AcDbDictionary
281
     1
  3
Standard
350
D13
  0
DICTIONARY
  5
D00
102
{ACAD_REACTORS
330
C
102
}
330
C
100
AcDbDictionary
281
     1
  3
2dWireframe
350
D06
  3
3D Hidden
350
D08
  3
3dWireframe
350
D07
  3
Basic
350
D05
  3
Brighten
350
D0C
  3
ColorChange
350
D10
  3
Conceptual
350
D09
  3
Dim
350
D0B
  3
Facepattern
350
D0F
  3
Flat
350
D01
  3
FlatWithEdges
350
D02
  3
Gouraud
350
D03
  3
GouraudWithEdges
350
D04
  3
Linepattern
350
D0E
  3
Realistic
350
D0A
  3
Thicken
350
D0D
  0
XRECORD
  5
DF3
102
{ACAD_REACTORS
330
C
102
}
330
C
100
AcDbXrecord
280
     1
 90
        1
330
D13
  0
DICTIONARY
  5
DEA
102
{ACAD_REACTORS
330
C
102
}
330
C
100
AcDbDictionary
281
     1
  3
CANNOSCALE
350
DED
  3
CMLEADERSTYLE
350
DEC
  3
CTABLESTYLE
350
DEB
  3
DIMASSOC
350
DF0
  3
INDEXCTL
350
DEF
  3
SORTENTS
350
DEE
  0
DICTIONARY
  5
D9B
102
{ACAD_REACTORS
330
C
102
}
330
C
100
AcDbDictionary
281
     1
  3
AcmStdDictionary
350
DA6
  0
DICTIONARY
  5
D40
102
{ACAD_REACTORS
330
C
102
}
330
C
100
AcDbDictionary
281
     1
  0
DICTIONARY
  5
DE3
102
{ACAD_REACTORS
330
C
102
}
330
C
100
AcDbDictionary
281
     1
  0
XRECORD
  5
DF4
102
{ACAD_REACTORS
330
C
102
}
330
C
100
AcDbXrecord
280
     1
  1
DWGPROPS COOKIE
  2

  3

  4

  6

  7

  8
bauer_sven
  9

300
=
301
=
302
=
303
=
304
=
305
=
306
=
307
=
308
=
309
=
 40
0.0019244212962963
 41
2450844.484676042
 42
2456226.383089109
  1

 90
        0
  0
LAYOUT
  5
D3C
102
{ACAD_XDICTIONARY
360
DFB
102
}
102
{ACAD_REACTORS
330
D39
102
}
330
D39
100
AcDbPlotSettings
  1

  2
iR 2570CN-010
  4

  6

 40
0.0
 41
0.0
 42
0.0
 43
0.0
 44
0.0
 45
0.0
 46
0.0
 47
0.0
 48
0.0
 49
0.0
140
0.0
141
0.0
142
1.0
143
1.0
 70
   688
 72
     0
 73
     0
 74
     5
  7

 75
    16
147
1.0
148
0.0
149
0.0
100
AcDbLayout
  1
Layout1
 70
     1
 71
     1
 10
0.0
 20
0.0
 11
12.0
 21
9.0
 12
0.0
 22
0.0
 32
0.0
 14
1.000000000000000E+20
 24
1.000000000000000E+20
 34
1.000000000000000E+20
 15
-1.000000000000000E+20
 25
-1.000000000000000E+20
 35
-1.000000000000000E+20
146
0.0
 13
0.0
 23
0.0
 33
0.0
 16
1.0
 26
0.0
 36
0.0
 17
0.0
 27
1.0
 37
0.0
 76
     0
330
17
  0
LAYOUT
  5
D3B
102
{ACAD_XDICTIONARY
360
DF9
102
}
102
{ACAD_REACTORS
330
D39
102
}
330
D39
100
AcDbPlotSettings
  1

  2
iR 2570CN-010
  4

  6

 40
0.0
 41
0.0
 42
0.0
 43
0.0
 44
0.0
 45
0.0
 46
0.0
 47
0.0
 48
0.0
 49
0.0
140
0.0
141
0.0
142
1.0
143
1.0
 70
  1712
 72
     0
 73
     0
 74
     0
  7

 75
     0
147
1.0
148
0.0
149
0.0
100
AcDbLayout
  1
Model
 70
     1
 71
     0
 10
0.0
 20
0.0
 11
12.0
 21
9.0
 12
0.0
 22
0.0
 32
0.0
 14
0.0
 24
0.0
 34
0.0
 15
0.0
 25
0.0
 35
0.0
146
0.0
 13
0.0
 23
0.0
 33
0.0
 16
1.0
 26
0.0
 36
0.0
 17
0.0
 27
1.0
 37
0.0
 76
     0
330
1A
331
CE3
  0
MATERIAL
  5
CF0
102
{ACAD_XDICTIONARY
360
CF1
102
}
102
{ACAD_REACTORS
330
CE7
102
}
330
CE7
100
AcDbMaterial
  1
ByBlock
 72
     0
 43
0.0208333333333333
 43
0.0
 43
0.0
 43
0.0
 43
0.0
 43
0.0208333333333333
 43
0.0
 43
0.0
 43
0.0
 43
0.0
 43
1.0
 43
0.0
 43
0.0
 43
0.0
 43
0.0
 43
1.0
 77
     0
 47
0.0208333333333333
 47
0.0
 47
0.0
 47
0.0
 47
0.0
 47
0.0208333333333333
 47
0.0
 47
0.0
 47
0.0
 47
0.0
 47
1.0
 47
0.0
 47
0.0
 47
0.0
 47
0.0
 47
1.0
171
     0
 49
0.0208333333333333
 49
0.0
 49
0.0
 49
0.0
 49
0.0
 49
0.0208333333333333
 49
0.0
 49
0.0
 49
0.0
 49
0.0
 49
1.0
 49
0.0
 49
0.0
 49
0.0
 49
0.0
 49
1.0
175
     0
142
0.0208333333333333
142
0.0
142
0.0
142
0.0
142
0.0
142
0.0208333333333333
142
0.0
142
0.0
142
0.0
142
0.0
142
1.0
142
0.0
142
0.0
142
0.0
142
0.0
142
1.0
179
     0
144
0.0208333333333333
144
0.0
144
0.0
144
0.0
144
0.0
144
0.0208333333333333
144
0.0
144
0.0
144
0.0
144
0.0
144
1.0
144
0.0
144
0.0
144
0.0
144
0.0
144
1.0
147
0.0208333333333333
147
0.0
147
0.0
147
0.0
147
0.0
147
0.0208333333333333
147
0.0
147
0.0
147
0.0
147
0.0
147
1.0
147
0.0
147
0.0
147
0.0
147
0.0
147
1.0
  0
MATERIAL
  5
CE8
102
{ACAD_XDICTIONARY
360
CE9
102
}
102
{ACAD_REACTORS
330
CE7
102
}
330
CE7
100
AcDbMaterial
  1
ByLayer
 72
     0
 43
0.0208333333333333
 43
0.0
 43
0.0
 43
0.0
 43
0.0
 43
0.0208333333333333
 43
0.0
 43
0.0
 43
0.0
 43
0.0
 43
1.0
 43
0.0
 43
0.0
 43
0.0
 43
0.0
 43
1.0
 77
     0
 47
0.0208333333333333
 47
0.0
 47
0.0
 47
0.0
 47
0.0
 47
0.0208333333333333
 47
0.0
 47
0.0
 47
0.0
 47
0.0
 47
1.0
 47
0.0
 47
0.0
 47
0.0
 47
0.0
 47
1.0
171
     0
 49
0.0208333333333333
 49
0.0
 49
0.0
 49
0.0
 49
0.0
 49
0.0208333333333333
 49
0.0
 49
0.0
 49
0.0
 49
0.0
 49
1.0
 49
0.0
 49
0.0
 49
0.0
 49
0.0
 49
1.0
175
     0
142
0.0208333333333333
142
0.0
142
0.0
142
0.0
142
0.0
142
0.0208333333333333
142
0.0
142
0.0
142
0.0
142
0.0
142
1.0
142
0.0
142
0.0
142
0.0
142
0.0
142
1.0
179
     0
144
0.0208333333333333
144
0.0
144
0.0
144
0.0
144
0.0
144
0.0208333333333333
144
0.0
144
0.0
144
0.0
144
0.0
144
1.0
144
0.0
144
0.0
144
0.0
144
0.0
144
1.0
147
0.0208333333333333
147
0.0
147
0.0
147
0.0
147
0.0
147
0.0208333333333333
147
0.0
147
0.0
147
0.0
147
0.0
147
1.0
147
0.0
147
0.0
147
0.0
147
0.0
147
1.0
  0
MATERIAL
  5
CF8
102
{ACAD_XDICTIONARY
360
CF9
102
}
102
{ACAD_REACTORS
330
CE7
102
}
330
CE7
100
AcDbMaterial
  1
Global
 72
     0
 43
0.0208333333333333
 43
0.0
 43
0.0
 43
0.0
 43
0.0
 43
0.0208333333333333
 43
0.0
 43
0.0
 43
0.0
 43
0.0
 43
1.0
 43
0.0
 43
0.0
 43
0.0
 43
0.0
 43
1.0
 77
     0
 47
0.0208333333333333
 47
0.0
 47
0.0
 47
0.0
 47
0.0
 47
0.0208333333333333
 47
0.0
 47
0.0
 47
0.0
 47
0.0
 47
1.0
 47
0.0
 47
0.0
 47
0.0
 47
0.0
 47
1.0
171
     0
 49
0.0208333333333333
 49
0.0
 49
0.0
 49
0.0
 49
0.0
 49
0.0208333333333333
 49
0.0
 49
0.0
 49
0.0
 49
0.0
 49
1.0
 49
0.0
 49
0.0
 49
0.0
 49
0.0
 49
1.0
175
     0
142
0.0208333333333333
142
0.0
142
0.0
142
0.0
142
0.0
142
0.0208333333333333
142
0.0
142
0.0
142
0.0
142
0.0
142
1.0
142
0.0
142
0.0
142
0.0
142
0.0
142
1.0
179
     0
144
0.0208333333333333
144
0.0
144
0.0
144
0.0
144
0.0
144
0.0208333333333333
144
0.0
144
0.0
144
0.0
144
0.0
144
1.0
144
0.0
144
0.0
144
0.0
144
0.0
144
1.0
147
0.0208333333333333
147
0.0
147
0.0
147
0.0
147
0.0
147
0.0208333333333333
147
0.0
147
0.0
147
0.0
147
0.0
147
1.0
147
0.0
147
0.0
147
0.0
147
0.0
147
1.0
  0
MLEADERSTYLE
  5
D37
102
{ACAD_REACTORS
330
D36
102
}
330
D36
100
AcDbMLeaderStyle
170
     2
171
     1
172
     0
 90
        2
 40
0.0
 41
0.0
173
     1
 91
-1056964608
340
14
 92
       -2
290
     1
 42
0.09
291
     1
 43
0.36
  3
Standard
 44
0.18
300

342
10
174
     1
178
     6
175
     1
176
     0
 93
-1056964608
 45
0.18
292
     0
297
     0
 46
0.18
 94
-1056964608
 47
1.0
 49
1.0
140
1.0
293
     1
141
0.0
294
     1
177
     0
142
1.0
295
     0
296
     0
143
0.125
1001
ACAD_MLEADERVER
1070
     2
  0
MLINESTYLE
  5
13
102
{ACAD_REACTORS
330
E
102
}
330
E
100
AcDbMlineStyle
  2
STANDARD
 70
     0
  3

 62
     0
 51
90.0
 52
90.0
 71
     2
 49
0.5
 62
   256
  6
BYLAYER
 49
-0.5
 62
   256
  6
BYLAYER
  0
ACDBPLACEHOLDER
  5
CE6
102
{ACAD_REACTORS
330
CE5
102
}
330
CE5
  0
SCALE
  5
D15
102
{ACAD_REACTORS
330
D14
102
}
330
D14
100
AcDbScale
 70
     0
300
1:1
140
1.0
141
1.0
290
     1
  0
SCALE
  5
D16
102
{ACAD_REACTORS
330
D14
102
}
330
D14
100
AcDbScale
 70
     0
300
1:2
140
1.0
141
2.0
290
     0
  0
SCALE
  5
D17
102
{ACAD_REACTORS
330
D14
102
}
330
D14
100
AcDbScale
 70
     0
300
1:4
140
1.0
141
4.0
290
     0
  0
SCALE
  5
D18
102
{ACAD_REACTORS
330
D14
102
}
330
D14
100
AcDbScale
 70
     0
300
1:5
140
1.0
141
5.0
290
     0
  0
SCALE
  5
D19
102
{ACAD_REACTORS
330
D14
102
}
330
D14
100
AcDbScale
 70
     0
300
1:8
140
1.0
141
8.0
290
     0
  0
SCALE
  5
D1A
102
{ACAD_REACTORS
330
D14
102
}
330
D14
100
AcDbScale
 70
     0
300
1:10
140
1.0
141
10.0
290
     0
  0
SCALE
  5
D1B
102
{ACAD_REACTORS
330
D14
102
}
330
D14
100
AcDbScale
 70
     0
300
1:16
140
1.0
141
16.0
290
     0
  0
SCALE
  5
D1C
102
{ACAD_REACTORS
330
D14
102
}
330
D14
100
AcDbScale
 70
     0
300
1:20
140
1.0
141
20.0
290
     0
  0
SCALE
  5
D1D
102
{ACAD_REACTORS
330
D14
102
}
330
D14
100
AcDbScale
 70
     0
300
1:30
140
1.0
141
30.0
290
     0
  0
SCALE
  5
D1E
102
{ACAD_REACTORS
330
D14
102
}
330
D14
100
AcDbScale
 70
     0
300
1:40
140
1.0
141
40.0
290
     0
  0
SCALE
  5
D1F
102
{ACAD_REACTORS
330
D14
102
}
330
D14
100
AcDbScale
 70
     0
300
1:50
140
1.0
141
50.0
290
     0
  0
SCALE
  5
D20
102
{ACAD_REACTORS
330
D14
102
}
330
D14
100
AcDbScale
 70
     0
300
1:100
140
1.0
141
100.0
290
     0
  0
SCALE
  5
D21
102
{ACAD_REACTORS
330
D14
102
}
330
D14
100
AcDbScale
 70
     0
300
2:1
140
2.0
141
1.0
290
     0
  0
SCALE
  5
D22
102
{ACAD_REACTORS
330
D14
102
}
330
D14
100
AcDbScale
 70
     0
300
4:1
140
4.0
141
1.0
290
     0
  0
SCALE
  5
D23
102
{ACAD_REACTORS
330
D14
102
}
330
D14
100
AcDbScale
 70
     0
300
8:1
140
8.0
141
1.0
290
     0
  0
SCALE
  5
D24
102
{ACAD_REACTORS
330
D14
102
}
330
D14
100
AcDbScale
 70
     0
300
10:1
140
10.0
141
1.0
290
     0
  0
SCALE
  5
D25
102
{ACAD_REACTORS
330
D14
102
}
330
D14
100
AcDbScale
 70
     0
300
100:1
140
100.0
141
1.0
290
     0
  0
SCALE
  5
D26
102
{ACAD_REACTORS
330
D14
102
}
330
D14
100
AcDbScale
 70
     0
300
1/128" = 1'-0"
140
0.0078125
141
12.0
290
     0
  0
SCALE
  5
D27
102
{ACAD_REACTORS
330
D14
102
}
330
D14
100
AcDbScale
 70
     0
300
1/64" = 1'-0"
140
0.015625
141
12.0
290
     0
  0
SCALE
  5
D28
102
{ACAD_REACTORS
330
D14
102
}
330
D14
100
AcDbScale
 70
     0
300
1/32" = 1'-0"
140
0.03125
141
12.0
290
     0
  0
SCALE
  5
D29
102
{ACAD_REACTORS
330
D14
102
}
330
D14
100
AcDbScale
 70
     0
300
1/16" = 1'-0"
140
0.0625
141
12.0
290
     0
  0
SCALE
  5
D2A
102
{ACAD_REACTORS
330
D14
102
}
330
D14
100
AcDbScale
 70
     0
300
3/32" = 1'-0"
140
0.09375
141
12.0
290
     0
  0
SCALE
  5
D2B
102
{ACAD_REACTORS
330
D14
102
}
330
D14
100
AcDbScale
 70
     0
300
1/8" = 1'-0"
140
0.125
141
12.0
290
     0
  0
SCALE
  5
D2C
102
{ACAD_REACTORS
330
D14
102
}
330
D14
100
AcDbScale
 70
     0
300
3/16" = 1'-0"
140
0.1875
141
12.0
290
     0
  0
SCALE
  5
D2D
102
{ACAD_REACTORS
330
D14
102
}
330
D14
100
AcDbScale
 70
     0
300
1/4" = 1'-0"
140
0.25
141
12.0
290
     0
  0
SCALE
  5
D2E
102
{ACAD_REACTORS
330
D14
102
}
330
D14
100
AcDbScale
 70
     0
300
3/8" = 1'-0"
140
0.375
141
12.0
290
     0
  0
SCALE
  5
D2F
102
{ACAD_REACTORS
330
D14
102
}
330
D14
100
AcDbScale
 70
     0
300
1/2" = 1'-0"
140
0.5
141
12.0
290
     0
  0
SCALE
  5
D30
102
{ACAD_REACTORS
330
D14
102
}
330
D14
100
AcDbScale
 70
     0
300
3/4" = 1'-0"
140
0.75
141
12.0
290
     0
  0
SCALE
  5
D31
102
{ACAD_REACTORS
330
D14
102
}
330
D14
100
AcDbScale
 70
     0
300
1" = 1'-0"
140
1.0
141
12.0
290
     0
  0
SCALE
  5
D32
102
{ACAD_REACTORS
330
D14
102
}
330
D14
100
AcDbScale
 70
     0
300
1-1/2" = 1'-0"
140
1.5
141
12.0
290
     0
  0
SCALE
  5
D33
102
{ACAD_REACTORS
330
D14
102
}
330
D14
100
AcDbScale
 70
     0
300
3" = 1'-0"
140
3.0
141
12.0
290
     0
  0
SCALE
  5
D34
102
{ACAD_REACTORS
330
D14
102
}
330
D14
100
AcDbScale
 70
     0
300
6" = 1'-0"
140
6.0
141
12.0
290
     0
  0
SCALE
  5
D35
102
{ACAD_REACTORS
330
D14
102
}
330
D14
100
AcDbScale
 70
     0
300
1'-0" = 1'-0"
140
12.0
141
12.0
290
     0
  0
TABLESTYLE
  5
D13
102
{ACAD_XDICTIONARY
360
DF1
102
}
102
{ACAD_REACTORS
330
D12
102
}
330
D12
100
AcDbTableStyle
  3
Standard
 70
     0
 71
     0
 40
0.06
 41
0.06
280
     0
281
     0
  7
STANDARD
140
0.18
170
     2
 62
     0
 63
     7
283
     0
274
    -2
284
     1
 64
     0
275
    -2
285
     1
 65
     0
276
    -2
286
     1
 66
     0
277
    -2
287
     1
 67
     0
278
    -2
288
     1
 68
     0
279
    -2
289
     1
 69
     0
  7
STANDARD
140
0.25
170
     5
 62
     0
 63
     7
283
     0
274
    -2
284
     1
 64
     0
275
    -2
285
     1
 65
     0
276
    -2
286
     1
 66
     0
277
    -2
287
     1
 67
     0
278
    -2
288
     1
 68
     0
279
    -2
289
     1
 69
     0
  7
STANDARD
140
0.18
170
     5
 62
     0
 63
     7
283
     0
274
    -2
284
     1
 64
     0
275
    -2
285
     1
 65
     0
276
    -2
286
     1
 66
     0
277
    -2
287
     1
 67
     0
278
    -2
288
     1
 68
     0
279
    -2
289
     1
 69
     0
  0
VISUALSTYLE
  5
D06
102
{ACAD_REACTORS
330
D00
102
}
330
D00
100
AcDbVisualStyle
  2
2dWireframe
 70
     4
 71
     0
 72
     2
 73
     0
 90
        0
 40
-0.6
 41
-30.0
 62
     5
 63
     7
 74
     1
 91
        4
 64
     7
 65
   257
 75
     1
175
     1
 42
1.0
 92
        0
 66
   257
 43
1.0
 76
     1
 77
     6
 78
     2
 67
     7
 79
     5
170
     0
171
     0
290
     0
174
     0
 93
        1
 44
0.0
173
     0
291
     0
 45
0.0
1001
ACAD
1000
AcDbSavedByObjectVersion
1070
     0
  0
VISUALSTYLE
  5
D08
102
{ACAD_REACTORS
330
D00
102
}
330
D00
100
AcDbVisualStyle
  2
3D Hidden
 70
     6
 71
     1
 72
     2
 73
     2
 90
        0
 40
-0.6
 41
-30.0
 62
     5
 63
     7
 74
     2
 91
        2
 64
     7
 65
   257
 75
     2
175
     1
 42
40.0
 92
        0
 66
   257
 43
1.0
 76
     1
 77
     6
 78
     2
 67
     7
 79
     3
170
     0
171
     0
290
     0
174
     0
 93
        1
 44
0.0
173
     0
291
     0
 45
0.0
1001
ACAD
1000
AcDbSavedByObjectVersion
1070
     0
  0
VISUALSTYLE
  5
D07
102
{ACAD_REACTORS
330
D00
102
}
330
D00
100
AcDbVisualStyle
  2
3dWireframe
 70
     5
 71
     0
 72
     2
 73
     0
 90
        0
 40
-0.6
 41
-30.0
 62
     5
 63
     7
 74
     1
 91
        4
 64
     7
 65
   257
 75
     1
175
     1
 42
1.0
 92
        0
 66
   257
 43
1.0
 76
     1
 77
     6
 78
     2
 67
     7
 79
     5
170
     0
171
     0
290
     0
174
     0
 93
        1
 44
0.0
173
     0
291
     0
 45
0.0
1001
ACAD
1000
AcDbSavedByObjectVersion
1070
     0
  0
VISUALSTYLE
  5
D05
102
{ACAD_REACTORS
330
D00
102
}
330
D00
100
AcDbVisualStyle
  2
Basic
 70
     7
 71
     1
 72
     0
 73
     1
 90
        0
 40
-0.6
 41
-30.0
 62
     5
 63
     7
 74
     0
 91
        4
 64
     7
 65
   257
 75
     1
175
     1
 42
1.0
 92
        8
 66
     7
 43
1.0
 76
     1
 77
     6
 78
     2
 67
     7
 79
     5
170
     0
171
     0
290
     0
174
     0
 93
        1
 44
0.0
173
     0
291
     1
 45
0.0
1001
ACAD
1000
AcDbSavedByObjectVersion
1070
     0
  0
VISUALSTYLE
  5
D0C
102
{ACAD_REACTORS
330
D00
102
}
330
D00
100
AcDbVisualStyle
  2
Brighten
 70
    12
 71
     2
 72
     2
 73
     0
 90
        0
 40
-0.6
 41
-30.0
 62
     5
 63
     7
 74
     1
 91
        4
 64
     7
 65
   257
 75
     1
175
     1
 42
1.0
 92
        8
 66
     7
 43
1.0
 76
     1
 77
     6
 78
     2
 67
     7
 79
     5
170
     0
171
     0
290
     0
174
     0
 93
        1
 44
50.0
173
     0
291
     1
 45
0.0
1001
ACAD
1000
AcDbSavedByObjectVersion
1070
     0
  0
VISUALSTYLE
  5
D10
102
{ACAD_REACTORS
330
D00
102
}
330
D00
100
AcDbVisualStyle
  2
ColorChange
 70
    16
 71
     2
 72
     2
 73
     3
 90
        0
 40
-0.6
 41
-30.0
 62
     5
 63
     8
 74
     1
 91
        4
 64
     7
 65
   257
 75
     1
175
     1
 42
1.0
 92
        8
 66
     8
 43
1.0
 76
     1
 77
     6
 78
     2
 67
     7
 79
     5
170
     0
171
     0
290
     0
174
     0
 93
        1
 44
0.0
173
     0
291
     1
 45
0.0
1001
ACAD
1000
AcDbSavedByObjectVersion
1070
     0
  0
VISUALSTYLE
  5
D09
102
{ACAD_REACTORS
330
D00
102
}
330
D00
100
AcDbVisualStyle
  2
Conceptual
 70
     9
 71
     3
 72
     2
 73
     0
 90
        0
 40
-0.6
 41
-30.0
 62
     5
 63
     7
 74
     2
 91
        2
 64
     7
 65
   257
 75
     1
175
     1
 42
40.0
 92
        8
 66
     7
 43
1.0
 76
     1
 77
     6
 78
     2
 67
     7
 79
     3
170
     0
171
     0
290
     0
174
     0
 93
        1
 44
0.0
173
     0
291
     0
 45
0.0
1001
ACAD
1000
AcDbSavedByObjectVersion
1070
     0
  0
VISUALSTYLE
  5
D0B
102
{ACAD_REACTORS
330
D00
102
}
330
D00
100
AcDbVisualStyle
  2
Dim
 70
    11
 71
     2
 72
     2
 73
     0
 90
        0
 40
-0.6
 41
-30.0
 62
     5
 63
     7
 74
     1
 91
        4
 64
     7
 65
   257
 75
     1
175
     1
 42
1.0
 92
        8
 66
     7
 43
1.0
 76
     1
 77
     6
 78
     2
 67
     7
 79
     5
170
     0
171
     0
290
     0
174
     0
 93
        1
 44
-50.0
173
     0
291
     1
 45
0.0
1001
ACAD
1000
AcDbSavedByObjectVersion
1070
     0
  0
VISUALSTYLE
  5
D0F
102
{ACAD_REACTORS
330
D00
102
}
330
D00
100
AcDbVisualStyle
  2
Facepattern
 70
    15
 71
     2
 72
     2
 73
     0
 90
        0
 40
-0.6
 41
-30.0
 62
     5
 63
     7
 74
     1
 91
        4
 64
     7
 65
   257
 75
     1
175
     1
 42
1.0
 92
        8
 66
     7
 43
1.0
 76
     1
 77
     6
 78
     2
 67
     7
 79
     5
170
     0
171
     0
290
     0
174
     0
 93
        1
 44
0.0
173
     0
291
     1
 45
0.0
1001
ACAD
1000
AcDbSavedByObjectVersion
1070
     0
  0
VISUALSTYLE
  5
D01
102
{ACAD_REACTORS
330
D00
102
}
330
D00
100
AcDbVisualStyle
  2
Flat
 70
     0
 71
     2
 72
     1
 73
     1
 90
        2
 40
-0.6
 41
30.0
 62
     5
 63
     7
 74
     0
 91
        4
 64
     7
 65
   257
 75
     1
175
     1
 42
1.0
 92
        8
 66
     7
 43
1.0
 76
     1
 77
     6
 78
     2
 67
     7
 79
     5
170
     0
171
     0
290
     0
174
     0
 93
       13
 44
0.0
173
     0
291
     1
 45
0.0
1001
ACAD
1000
AcDbSavedByObjectVersion
1070
     0
  0
VISUALSTYLE
  5
D02
102
{ACAD_REACTORS
330
D00
102
}
330
D00
100
AcDbVisualStyle
  2
FlatWithEdges
 70
     1
 71
     2
 72
     1
 73
     1
 90
        2
 40
-0.6
 41
30.0
 62
     5
 63
     7
 74
     1
 91
        4
 64
     7
 65
   257
 75
     1
175
     1
 42
1.0
 92
        0
 66
   257
 43
1.0
 76
     1
 77
     6
 78
     2
 67
     7
 79
     5
170
     0
171
     0
290
     0
174
     0
 93
       13
 44
0.0
173
     0
291
     1
 45
0.0
1001
ACAD
1000
AcDbSavedByObjectVersion
1070
     0
  0
VISUALSTYLE
  5
D03
102
{ACAD_REACTORS
330
D00
102
}
330
D00
100
AcDbVisualStyle
  2
Gouraud
 70
     2
 71
     2
 72
     2
 73
     1
 90
        2
 40
-0.6
 41
30.0
 62
     5
 63
     7
 74
     0
 91
        4
 64
     7
 65
   257
 75
     1
175
     1
 42
1.0
 92
        0
 66
     7
 43
1.0
 76
     1
 77
     6
 78
     2
 67
     7
 79
     5
170
     0
171
     0
290
     0
174
     0
 93
       13
 44
0.0
173
     0
291
     1
 45
0.0
1001
ACAD
1000
AcDbSavedByObjectVersion
1070
     0
  0
VISUALSTYLE
  5
D04
102
{ACAD_REACTORS
330
D00
102
}
330
D00
100
AcDbVisualStyle
  2
GouraudWithEdges
 70
     3
 71
     2
 72
     2
 73
     1
 90
        2
 40
-0.6
 41
30.0
 62
     5
 63
     7
 74
     1
 91
        4
 64
     7
 65
   257
 75
     1
175
     1
 42
1.0
 92
        0
 66
   257
 43
1.0
 76
     1
 77
     6
 78
     2
 67
     7
 79
     5
170
     0
171
     0
290
     0
174
     0
 93
       13
 44
0.0
173
     0
291
     1
 45
0.0
1001
ACAD
1000
AcDbSavedByObjectVersion
1070
     0
  0
VISUALSTYLE
  5
D0E
102
{ACAD_REACTORS
330
D00
102
}
330
D00
100
AcDbVisualStyle
  2
Linepattern
 70
    14
 71
     2
 72
     2
 73
     0
 90
        0
 40
-0.6
 41
-30.0
 62
     5
 63
     7
 74
     1
 91
        4
 64
     7
 65
   257
 75
     7
175
     7
 42
1.0
 92
        8
 66
     7
 43
1.0
 76
     1
 77
     6
 78
     2
 67
     7
 79
     5
170
     0
171
     0
290
     0
174
     0
 93
        1
 44
0.0
173
     0
291
     1
 45
0.0
1001
ACAD
1000
AcDbSavedByObjectVersion
1070
     0
  0
VISUALSTYLE
  5
D0A
102
{ACAD_REACTORS
330
D00
102
}
330
D00
100
AcDbVisualStyle
  2
Realistic
 70
     8
 71
     2
 72
     2
 73
     0
 90
        0
 40
-0.6
 41
-30.0
 62
     5
 63
     7
 74
     1
 91
        0
 64
     7
 65
   257
 75
     1
175
     1
 42
1.0
 92
        8
 66
     8
 43
1.0
 76
     1
 77
     6
 78
     2
 67
     7
 79
     5
170
     0
171
     0
290
     0
174
     0
 93
       13
 44
0.0
173
     0
291
     0
 45
0.0
1001
ACAD
1000
AcDbSavedByObjectVersion
1070
     0
  0
VISUALSTYLE
  5
D0D
102
{ACAD_REACTORS
330
D00
102
}
330
D00
100
AcDbVisualStyle
  2
Thicken
 70
    13
 71
     2
 72
     2
 73
     0
 90
        0
 40
-0.6
 41
-30.0
 62
     5
 63
     7
 74
     1
 91
        4
 64
     7
 65
   257
 75
     1
175
     1
 42
1.0
 92
       12
 66
     7
 43
1.0
 76
     1
 77
     6
 78
     2
 67
     7
 79
     5
170
     0
171
     0
290
     0
174
     0
 93
        1
 44
0.0
173
     0
291
     1
 45
0.0
1001
ACAD
1000
AcDbSavedByObjectVersion
1070
     0
  0
DICTIONARYVAR
  5
DED
102
{ACAD_REACTORS
330
DEA
102
}
330
DEA
100
DictionaryVariables
280
     0
  1
1:1
  0
DICTIONARYVAR
  5
DEC
102
{ACAD_REACTORS
330
DEA
102
}
330
DEA
100
DictionaryVariables
280
     0
  1
STANDARD
  0
DICTIONARYVAR
  5
DEB
102
{ACAD_REACTORS
330
DEA
102
}
330
DEA
100
DictionaryVariables
280
     0
  1
STANDARD
  0
DICTIONARYVAR
  5
DF0
102
{ACAD_REACTORS
330
DEA
102
}
330
DEA
100
DictionaryVariables
280
     0
  1
1
  0
DICTIONARYVAR
  5
DEF
102
{ACAD_REACTORS
330
DEA
102
}
330
DEA
100
DictionaryVariables
280
     0
  1
0
  0
DICTIONARYVAR
  5
DEE
102
{ACAD_REACTORS
330
DEA
102
}
330
DEA
100
DictionaryVariables
280
     0
  1
127
  0
DICTIONARY
  5
DA6
102
{ACAD_REACTORS
330
D9B
102
}
330
D9B
100
AcDbDictionary
281
     1
  0
DICTIONARY
  5
DFB
330
D3C
100
AcDbDictionary
280
     1
281
     1
  3
ACAD_XREC_ROUNDTRIP
360
DFC
  0
DICTIONARY
  5
DF9
330
D3B
100
AcDbDictionary
280
     1
281
     1
  3
ACAD_XREC_ROUNDTRIP
360
DFA
  0
DICTIONARY
  5
CF1
330
CF0
100
AcDbDictionary
280
     1
281
     1
  3
ACAD_XREC_ROUNDTRIP
360
DF6
  3
BUMPTILE
360
CF3
  3
DIFFUSETILE
360
CF2
  3
OPACITYTILE
360
CF6
  3
REFLECTIONTILE
360
CF5
  3
REFRACTIONTILE
360
CF7
  3
SPECULARTILE
360
CF4
  0
DICTIONARY
  5
CE9
330
CE8
100
AcDbDictionary
280
     1
281
     1
  3
ACAD_XREC_ROUNDTRIP
360
DF5
  3
BUMPTILE
360
CEB
  3
DIFFUSETILE
360
CEA
  3
OPACITYTILE
360
CEE
  3
REFLECTIONTILE
360
CED
  3
REFRACTIONTILE
360
CEF
  3
SPECULARTILE
360
CEC
  0
DICTIONARY
  5
CF9
330
CF8
100
AcDbDictionary
280
     1
281
     1
  3
ACAD_XREC_ROUNDTRIP
360
DF7
  3
BUMPTILE
360
CFB
  3
DIFFUSETILE
360
CFA
  3
OPACITYTILE
360
CFE
  3
REFLECTIONTILE
360
CFD
  3
REFRACTIONTILE
360
CFF
  3
SPECULARTILE
360
CFC
  0
DICTIONARY
  5
DF1
330
D13
100
AcDbDictionary
280
     1
281
     1
  3
ACAD_ROUNDTRIP_2008_TABLESTYLE_CELLSTYLEMAP
360
DF2
  3
ACAD_XREC_ROUNDTRIP
360
DF8
  0
XRECORD
  5
DFC
102
{ACAD_REACTORS
330
DFB
102
}
330
DFB
100
AcDbXrecord
280
     1
102
SHADEPLOT
 70
     0
102
SHADEPLOTRESLEVEL
 70
     2
102
SHADEPLOTCUSTOMDPI
 70
   300
  0
XRECORD
  5
DFA
102
{ACAD_REACTORS
330
DF9
102
}
330
DF9
100
AcDbXrecord
280
     1
102
SHADEPLOT
 70
     0
102
SHADEPLOTRESLEVEL
 70
     2
102
SHADEPLOTCUSTOMDPI
 70
   300
  0
XRECORD
  5
DF6
102
{ACAD_REACTORS
330
CF1
102
}
330
CF1
100
AcDbXrecord
280
     1
102
MATERIAL
148
0.0
149
0.0
149
0.0
 93
        0
 94
      127
282
     0
 72
     0
 77
     0
171
     0
175
     0
179
     0
273
     0
  0
XRECORD
  5
CF3
102
{ACAD_REACTORS
330
CF1
102
}
330
CF1
100
AcDbXrecord
280
     1
270
     1
271
     1
  0
XRECORD
  5
CF2
102
{ACAD_REACTORS
330
CF1
102
}
330
CF1
100
AcDbXrecord
280
     1
270
     1
271
     1
  0
XRECORD
  5
CF6
102
{ACAD_REACTORS
330
CF1
102
}
330
CF1
100
AcDbXrecord
280
     1
270
     1
271
     1
  0
XRECORD
  5
CF5
102
{ACAD_REACTORS
330
CF1
102
}
330
CF1
100
AcDbXrecord
280
     1
270
     1
271
     1
  0
XRECORD
  5
CF7
102
{ACAD_REACTORS
330
CF1
102
}
330
CF1
100
AcDbXrecord
280
     1
270
     1
271
     1
  0
XRECORD
  5
CF4
102
{ACAD_REACTORS
330
CF1
102
}
330
CF1
100
AcDbXrecord
280
     1
270
     1
271
     1
  0
XRECORD
  5
DF5
102
{ACAD_REACTORS
330
CE9
102
}
330
CE9
100
AcDbXrecord
280
     1
102
MATERIAL
148
0.0
149
0.0
149
0.0
 93
        0
 94
      127
282
     0
 72
     0
 77
     0
171
     0
175
     0
179
     0
273
     0
  0
XRECORD
  5
CEB
102
{ACAD_REACTORS
330
CE9
102
}
330
CE9
100
AcDbXrecord
280
     1
270
     1
271
     1
  0
XRECORD
  5
CEA
102
{ACAD_REACTORS
330
CE9
102
}
330
CE9
100
AcDbXrecord
280
     1
270
     1
271
     1
  0
XRECORD
  5
CEE
102
{ACAD_REACTORS
330
CE9
102
}
330
CE9
100
AcDbXrecord
280
     1
270
     1
271
     1
  0
XRECORD
  5
CED
102
{ACAD_REACTORS
330
CE9
102
}
330
CE9
100
AcDbXrecord
280
     1
270
     1
271
     1
  0
XRECORD
  5
CEF
102
{ACAD_REACTORS
330
CE9
102
}
330
CE9
100
AcDbXrecord
280
     1
270
     1
271
     1
  0
XRECORD
  5
CEC
102
{ACAD_REACTORS
330
CE9
102
}
330
CE9
100
AcDbXrecord
280
     1
270
     1
271
     1
  0
XRECORD
  5
DF7
102
{ACAD_REACTORS
330
CF9
102
}
330
CF9
100
AcDbXrecord
280
     1
102
MATERIAL
148
0.0
149
0.0
149
0.0
 93
        0
 94
      127
282
     0
 72
     0
 77
     0
171
     0
175
     0
179
     0
273
     0
  0
XRECORD
  5
CFB
102
{ACAD_REACTORS
330
CF9
102
}
330
CF9
100
AcDbXrecord
280
     1
270
     1
271
     1
  0
XRECORD
  5
CFA
102
{ACAD_REACTORS
330
CF9
102
}
330
CF9
100
AcDbXrecord
280
     1
270
     1
271
     1
  0
XRECORD
  5
CFE
102
{ACAD_REACTORS
330
CF9
102
}
330
CF9
100
AcDbXrecord
280
     1
270
     1
271
     1
  0
XRECORD
  5
CFD
102
{ACAD_REACTORS
330
CF9
102
}
330
CF9
100
AcDbXrecord
280
     1
270
     1
271
     1
  0
XRECORD
  5
CFF
102
{ACAD_REACTORS
330
CF9
102
}
330
CF9
100
AcDbXrecord
280
     1
270
     1
271
     1
  0
XRECORD
  5
CFC
102
{ACAD_REACTORS
330
CF9
102
}
330
CF9
100
AcDbXrecord
280
     1
270
     1
271
     1
  0
CELLSTYLEMAP
  5
DF2
102
{ACAD_REACTORS
330
DF1
102
}
330
DF1
100
AcDbCellStyleMap
 90
        3
300
CELLSTYLE
  1
TABLEFORMAT_BEGIN
 90
        5
170
     1
 91
        0
 92
    32768
 62
   257
 93
        1
300
CONTENTFORMAT
  1
CONTENTFORMAT_BEGIN
 90
        0
 91
        0
 92
      512
 93
        0
300

 40
0.0
140
1.0
 94
        5
 62
     0
340
10
144
0.25
309
CONTENTFORMAT_END
171
     0
 94
        0
309
TABLEFORMAT_END
  1
CELLSTYLE_BEGIN
 90
        1
 91
        1
300
_TITLE
309
CELLSTYLE_END
300
CELLSTYLE
  1
TABLEFORMAT_BEGIN
 90
        5
170
     1
 91
        0
 92
        0
 62
   257
 93
        1
300
CONTENTFORMAT
  1
CONTENTFORMAT_BEGIN
 90
        0
 91
        0
 92
      512
 93
        0
300

 40
0.0
140
1.0
 94
        5
 62
     0
340
10
144
0.18
309
CONTENTFORMAT_END
171
     0
 94
        0
309
TABLEFORMAT_END
  1
CELLSTYLE_BEGIN
 90
        2
 91
        1
300
_HEADER
309
CELLSTYLE_END
300
CELLSTYLE
  1
TABLEFORMAT_BEGIN
 90
        5
170
     1
 91
        0
 92
        0
 62
   257
 93
        1
300
CONTENTFORMAT
  1
CONTENTFORMAT_BEGIN
 90
        0
 91
        0
 92
      512
 93
        0
300

 40
0.0
140
1.0
 94
        2
 62
     0
340
10
144
0.18
309
CONTENTFORMAT_END
171
     0
 94
        0
309
TABLEFORMAT_END
  1
CELLSTYLE_BEGIN
 90
        3
 91
        2
300
_DATA
309
CELLSTYLE_END
  0
XRECORD
  5
DF8
102
{ACAD_REACTORS
330
DF1
102
}
330
DF1
100
AcDbXrecord
280
     1
102
ACAD_ROUNDTRIP_PRE2007_TABLESTYLE
 90
      512
 91
        0
  1

 92
      512
 93
        0
  2

 94
      512
 95
        0
  3

  0
ENDSEC
  0
EOF
