  0
SECTION
  2
HEADER
  9
$ACADVER
  1
AC1012
  9
$DWGCODEPAGE
  3
ansi_1252
  9
$INSBASE
 10
0.0
 20
0.0
 30
0.0
  9
$EXTMIN
 10
-57.288763
 20
-203.500031
 30
0.0
  9
$EXTMAX
 10
596.015759
 20
247.012108
 30
0.0
  9
$LIMMIN
 10
0.0
 20
0.0
  9
$LIMMAX
 10
410.0
 20
287.0
  9
$ORTHOMODE
 70
     0
  9
$REGENMODE
 70
     1
  9
$FILLMODE
 70
     1
  9
$QTEXTMODE
 70
     0
  9
$MIRRTEXT
 70
     1
  9
$DRAGMODE
 70
     2
  9
$LTSCALE
 40
1.0
  9
$OSMODE
 70
    33
  9
$ATTMODE
 70
     1
  9
$TEXTSIZE
 40
3.5
  9
$TRACEWID
 40
0.05
  9
$TEXTSTYLE
  7
STANDARD
  9
$CLAYER
  8
0
  9
$CELTYPE
  6
BYLAYER
  9
$CECOLOR
 62
   256
  9
$CELTSCALE
 40
1.0
  9
$DELOBJ
 70
     1
  9
$DISPSILH
 70
     0
  9
$DIMSCALE
 40
1.0
  9
$DIMASZ
 40
0.18
  9
$DIMEXO
 40
0.0625
  9
$DIMDLI
 40
0.38
  9
$DIMRND
 40
0.0
  9
$DIMDLE
 40
0.0
  9
$DIMEXE
 40
0.18
  9
$DIMTP
 40
0.0
  9
$DIMTM
 40
0.0
  9
$DIMTXT
 40
0.18
  9
$DIMCEN
 40
0.09
  9
$DIMTSZ
 40
0.0
  9
$DIMTOL
 70
     0
  9
$DIMLIM
 70
     0
  9
$DIMTIH
 70
     1
  9
$DIMTOH
 70
     1
  9
$DIMSE1
 70
     0
  9
$DIMSE2
 70
     0
  9
$DIMTAD
 70
     0
  9
$DIMZIN
 70
     0
  9
$DIMBLK
  1

  9
$DIMASO
 70
     1
  9
$DIMSHO
 70
     1
  9
$DIMPOST
  1

  9
$DIMAPOST
  1

  9
$DIMALT
 70
     0
  9
$DIMALTD
 70
     2
  9
$DIMALTF
 40
25.4
  9
$DIMLFAC
 40
1.0
  9
$DIMTOFL
 70
     0
  9
$DIMTVP
 40
0.0
  9
$DIMTIX
 70
     0
  9
$DIMSOXD
 70
     0
  9
$DIMSAH
 70
     0
  9
$DIMBLK1
  1

  9
$DIMBLK2
  1

  9
$DIMSTYLE
  2
STANDARD
  9
$DIMCLRD
 70
     0
  9
$DIMCLRE
 70
     0
  9
$DIMCLRT
 70
     0
  9
$DIMTFAC
 40
1.0
  9
$DIMGAP
 40
0.09
  9
$DIMJUST
 70
     0
  9
$DIMSD1
 70
     0
  9
$DIMSD2
 70
     0
  9
$DIMTOLJ
 70
     1
  9
$DIMTZIN
 70
     0
  9
$DIMALTZ
 70
     0
  9
$DIMALTTZ
 70
     0
  9
$DIMFIT
 70
     3
  9
$DIMUPT
 70
     0
  9
$DIMUNIT
 70
     2
  9
$DIMDEC
 70
     4
  9
$DIMTDEC
 70
     4
  9
$DIMALTU
 70
     2
  9
$DIMALTTD
 70
     2
  9
$DIMTXSTY
  7
STANDARD
  9
$DIMAUNIT
 70
     0
  9
$LUNITS
 70
     2
  9
$LUPREC
 70
     4
  9
$SKETCHINC
 40
0.1
  9
$FILLETRAD
 40
12.5
  9
$AUNITS
 70
     0
  9
$AUPREC
 70
     0
  9
$MENU
  1
acad
  9
$ELEVATION
 40
0.0
  9
$PELEVATION
 40
0.0
  9
$THICKNESS
 40
0.0
  9
$LIMCHECK
 70
     0
  9
$BLIPMODE
 70
     0
  9
$CHAMFERA
 40
12.5
  9
$CHAMFERB
 40
12.5
  9
$CHAMFERC
 40
0.0
  9
$CHAMFERD
 40
0.0
  9
$SKPOLY
 70
     0
  9
$TDCREATE
 40
2450927.592448796
  9
$TDUPDATE
 40
2450927.600015463
  9
$TDINDWG
 40
0.0075666667
  9
$TDUSRTIMER
 40
0.0075666667
  9
$USRTIMER
 70
     1
  9
$ANGBASE
 50
0.0
  9
$ANGDIR
 70
     0
  9
$PDMODE
 70
     0
  9
$PDSIZE
 40
31.59428
  9
$PLINEWID
 40
0.0
  9
$COORDS
 70
     1
  9
$SPLFRAME
 70
     0
  9
$SPLINETYPE
 70
     6
  9
$SPLINESEGS
 70
     8
  9
$ATTDIA
 70
     1
  9
$ATTREQ
 70
     1
  9
$HANDLING
 70
     1
  9
$HANDSEED
  5
1246
  9
$SURFTAB1
 70
     6
  9
$SURFTAB2
 70
     6
  9
$SURFTYPE
 70
     6
  9
$SURFU
 70
     6
  9
$SURFV
 70
     6
  9
$UCSNAME
  2

  9
$UCSORG
 10
0.0
 20
0.0
 30
0.0
  9
$UCSXDIR
 10
1.0
 20
0.0
 30
0.0
  9
$UCSYDIR
 10
0.0
 20
1.0
 30
0.0
  9
$PUCSNAME
  2

  9
$PUCSORG
 10
0.0
 20
0.0
 30
0.0
  9
$PUCSXDIR
 10
1.0
 20
0.0
 30
0.0
  9
$PUCSYDIR
 10
0.0
 20
1.0
 30
0.0
  9
$USERI1
 70
     0
  9
$USERI2
 70
     0
  9
$USERI3
 70
     0
  9
$USERI4
 70
     0
  9
$USERI5
 70
     0
  9
$USERR1
 40
0.0
  9
$USERR2
 40
0.0
  9
$USERR3
 40
0.0
  9
$USERR4
 40
0.0
  9
$USERR5
 40
0.0
  9
$WORLDVIEW
 70
     1
  9
$SHADEDGE
 70
     3
  9
$SHADEDIF
 70
    70
  9
$TILEMODE
 70
     1
  9
$MAXACTVP
 70
    16
  9
$PINSBASE
 10
0.0
 20
0.0
 30
0.0
  9
$PLIMCHECK
 70
     0
  9
$PEXTMIN
 10
1.000000E+20
 20
1.000000E+20
 30
1.000000E+20
  9
$PEXTMAX
 10
-1.000000E+20
 20
-1.000000E+20
 30
-1.000000E+20
  9
$PLIMMIN
 10
0.0
 20
0.0
  9
$PLIMMAX
 10
12.0
 20
9.0
  9
$UNITMODE
 70
     0
  9
$VISRETAIN
 70
     0
  9
$PLINEGEN
 70
     0
  9
$PSLTSCALE
 70
     1
  9
$TREEDEPTH
 70
  3020
  9
$PICKSTYLE
 70
     1
  9
$CMLSTYLE
  2
STANDARD
  9
$CMLJUST
 70
     0
  9
$CMLSCALE
 40
1.0
  9
$SAVEIMAGES
 70
     0
  0
ENDSEC
  0
SECTION
  2
CLASSES
  0
ENDSEC
  0
SECTION
  2
TABLES
  0
TABLE
  2
VPORT
  5
8
100
AcDbSymbolTable
 70
     3
  0
VPORT
  5
1245
100
AcDbSymbolTableRecord
100
AcDbViewportTableRecord
  2
*ACTIVE
 70
     0
 10
0.0
 20
0.0
 11
1.0
 21
1.0
 12
311.410371
 22
21.756039
 13
0.0
 23
0.0
 14
5.0
 24
5.0
 15
50.0
 25
50.0
 16
0.0
 26
0.0
 36
1.0
 17
0.0
 27
0.0
 37
0.0
 40
563.140174
 41
1.6368
 42
50.0
 43
0.0
 44
0.0
 50
0.0
 51
0.0
 71
     0
 72
   100
 73
     1
 74
     0
 75
     0
 76
     0
 77
     0
 78
     0
  0
ENDTAB
  0
TABLE
  2
LTYPE
  5
5
100
AcDbSymbolTable
 70
     3
  0
LTYPE
  5
14
100
AcDbSymbolTableRecord
100
AcDbLinetypeTableRecord
  2
BYBLOCK
 70
     0
  3

 72
    65
 73
     0
 40
0.0
  0
LTYPE
  5
15
100
AcDbSymbolTableRecord
100
AcDbLinetypeTableRecord
  2
BYLAYER
 70
     0
  3

 72
    65
 73
     0
 40
0.0
  0
LTYPE
  5
16
100
AcDbSymbolTableRecord
100
AcDbLinetypeTableRecord
  2
CONTINUOUS
 70
     0
  3
Solid line
 72
    65
 73
     0
 40
0.0
  0
LTYPE
  5
6A
100
AcDbSymbolTableRecord
100
AcDbLinetypeTableRecord
  2
GEN3
 70
    64
  3
-- -- -- -- -- -- -- -- -- -- -- -- -- -- --
 72
    65
 73
     2
 40
6.25
 49
5.0
 74
     0
 49
-1.25
 74
     0
  0
LTYPE
  5
6B
100
AcDbSymbolTableRecord
100
AcDbLinetypeTableRecord
  2
GEN7A
 70
    64
  3
__ . __ . __
 72
    65
 73
     4
 40
7.5
 49
5.0
 74
     0
 49
-1.25
 74
     0
 49
0.0
 74
     0
 49
-1.25
 74
     0
  0
ENDTAB
  0
TABLE
  2
LAYER
  5
2
100
AcDbSymbolTable
 70
     7
  0
LAYER
  5
F
100
AcDbSymbolTableRecord
100
AcDbLayerTableRecord
  2
0
 70
     0
 62
     7
  6
CONTINUOUS
  0
LAYER
  5
6C
100
AcDbSymbolTableRecord
100
AcDbLayerTableRecord
  2
MSL3_160_3F-0
 70
    64
 62
     7
  6
CONTINUOUS
  0
LAYER
  5
6D
100
AcDbSymbolTableRecord
100
AcDbLayerTableRecord
  2
MSL3_160_3F-3
 70
    64
 62
     6
  6
GEN3
  0
LAYER
  5
6E
100
AcDbSymbolTableRecord
100
AcDbLayerTableRecord
  2
MSL3_160_3F-4
 70
    64
 62
     3
  6
CONTINUOUS
  0
LAYER
  5
6F
100
AcDbSymbolTableRecord
100
AcDbLayerTableRecord
  2
MSL3_160_3F-7
 70
    64
 62
     4
  6
GEN7A
  0
LAYER
  5
70
100
AcDbSymbolTableRecord
100
AcDbLayerTableRecord
  2
MSL3_160_3F-6
 70
    64
 62
     2
  6
CONTINUOUS
  0
LAYER
  5
71
100
AcDbSymbolTableRecord
100
AcDbLayerTableRecord
  2
INFO
 70
    64
 62
     4
  6
CONTINUOUS
  0
ENDTAB
  0
TABLE
  2
STYLE
  5
3
100
AcDbSymbolTable
 70
     1
  0
STYLE
  5
10
100
AcDbSymbolTableRecord
100
AcDbTextStyleTableRecord
  2
STANDARD
 70
    64
 40
0.0
 41
1.0
 50
0.0
 71
     0
 42
3.5
  3
geniso.shx
  4

  0
ENDTAB
  0
TABLE
  2
VIEW
  5
6
100
AcDbSymbolTable
 70
     0
  0
ENDTAB
  0
TABLE
  2
UCS
  5
7
100
AcDbSymbolTable
 70
     0
  0
ENDTAB
  0
TABLE
  2
APPID
  5
9
100
AcDbSymbolTable
 70
    30
  0
APPID
  5
11
100
AcDbSymbolTableRecord
100
AcDbRegAppTableRecord
  2
ACAD
 70
     0
  0
APPID
  5
29
100
AcDbSymbolTableRecord
100
AcDbRegAppTableRecord
  2
GENIUS_GENCFG_13
 70
     0
1001
GENIUS_GENCFG0_13
1000
GEN@INFO_POS@XLATE
1001
GENIUS_GENCFG1_13
1000
GEN@LAYER@DEFS
1001
GENIUS_GENCFG2_13
1000
GEN@LAYER@ENTSORT
1001
GENIUS_GENCFG3_13
1000
GEN@OSWIZ
1001
GENIUS_GENCFG4_13
1000
GEN
1001
GENIUS_GEVCFG0_13
1000
GEV
1001
GENIUS_GEFCFG0_13
1000
GEF
  0
APPID
  5
2A
100
AcDbSymbolTableRecord
100
AcDbRegAppTableRecord
  2
GENIUS_GENCFG0_13
 70
     0
1001
GENIUS_GENCFG_13
1071
862825278
1000
2A
1000
GEN@INFO_POS@XLATE
1070
     7
1000
GenCfgObject
1000
GenCfgShort
1000
GenCfgReal
1000
GenCfgBool
1000
GenCfgString
1000
GenCfgDim
1000
GenCfgAttrInf
1000
INFOPOINTS
1070
     0
1002
{
1000
GENINF13
1070
     0
1002
{
1000
2GENINF
1070
     4
1000
2
1002
{
1002
}
1000
3GENINF
1070
     4
1000
3
1002
{
1002
}
1000
4GENINF
1070
     4
1000
4
1002
{
1002
}
1000
5GENINF
1070
     4
1000
5
1002
{
1002
}
1000
6GENINF
1070
     4
1000
6
1002
{
1002
}
1000
7GENINF
1070
     4
1000
7
1002
{
1002
}
1000
8GENINF
1070
     4
1000
8
1002
{
1002
}
1000
9GENINF
1070
     4
1000
9
1002
{
1002
}
1000
10GENINF
1070
     4
1000
10
1002
{
1002
}
1000
11GENINF
1070
     4
1000
11
1002
{
1002
}
1000
12GENINF
1070
     4
1000
12
1002
{
1002
}
1000
13GENINF
1070
     4
1000
13
1002
{
1002
}
1000
14GENINF
1070
     4
1000
14
1002
{
1002
}
1000
15GENINF
1070
     4
1000
15
1002
{
1002
}
1000
16GENINF
1070
     4
1000
16
1002
{
1002
}
1000
17GENINF
1070
     4
1000
17
1002
{
1002
}
1000
18GENINF
1070
     4
1000
18
1002
{
1002
}
1000
19GENINF
1070
     4
1000
19
1002
{
1002
}
1000
20GENINF
1070
     4
1000
20
1002
{
1002
}
1000
21GENINF
1070
     4
1000
21
1002
{
1002
}
1000
22GENINF
1070
     4
1000
22
1002
{
1002
}
1000
23GENINF
1070
     4
1000
23
1002
{
1002
}
1000
24GENINF
1070
     4
1000
24
1002
{
1002
}
1000
0GENINF
1070
     4
1000
0
1002
{
1002
}
1002
}
1000
GENINFO
1070
     0
1002
{
1000
3GENINF
1070
     4
1000
3
1002
{
1002
}
1000
4GENINF
1070
     4
1000
4
1002
{
1002
}
1000
5GENINF
1070
     4
1000
5
1002
{
1002
}
1000
6GENINF
1070
     4
1000
6
1002
{
1002
}
1000
7GENINF
1070
     4
1000
7
1002
{
1002
}
1000
8GENINF
1070
     4
1000
8
1002
{
1002
}
1000
9GENINF
1070
     4
1000
9
1002
{
1002
}
1000
10GENINF
1070
     4
1000
10
1002
{
1002
}
1000
11GENINF
1070
     4
1000
11
1002
{
1002
}
1000
12GENINF
1070
     4
1000
12
1002
{
1002
}
1000
13GENINF
1070
     4
1000
13
1002
{
1002
}
1000
14GENINF
1070
     4
1000
14
1002
{
1002
}
1000
15GENINF
1070
     4
1000
15
1002
{
1002
}
1000
16GENINF
1070
     4
1000
16
1002
{
1002
}
1000
17GENINF
1070
     4
1000
17
1002
{
1002
}
1000
18GENINF
1070
     4
1000
18
1002
{
1002
}
1000
19GENINF
1070
     4
1000
19
1002
{
1002
}
1000
20GENINF
1070
     4
1000
20
1002
{
1002
}
1000
21GENINF
1070
     4
1000
21
1002
{
1002
}
1000
22GENINF
1070
     4
1000
22
1002
{
1002
}
1002
}
1000
DININFO
1070
     0
1002
{
1000
ST-NAME1
1070
     4
1000
5
1002
{
1002
}
1000
ST-NAME2
1070
     4
1000
6
1002
{
1002
}
1000
ST-NORM1
1070
     4
1000
7
1002
{
1002
}
1000
ST-NORM2
1070
     4
1000
8
1002
{
1002
}
1000
ST-MAT1
1070
     4
1000
9
1002
{
1002
}
1000
ST-MAT2
1070
     4
1000
10
1002
{
1002
}
1002
}
1002
}
1000
POS_NUMBERS
1070
     0
1002
{
1000
GENPOS13
1070
     0
1002
{
1000
1GENPOS
1070
     4
1000
1
1002
{
1002
}
1000
2GENPOS
1070
     4
1000
2
1002
{
1002
}
1000
3GENPOS
1070
     4
1000
3
1002
{
1002
}
1000
4GENPOS
1070
     4
1000
4
1002
{
1002
}
1000
5GENPOS
1070
     4
1000
5
1002
{
1002
}
1000
6GENPOS
1070
     4
1000
6
1002
{
1002
}
1000
7GENPOS
1070
     4
1000
7
1002
{
1002
}
1000
8GENPOS
1070
     4
1000
8
1002
{
1002
}
1000
9GENPOS
1070
     4
1000
9
1002
{
1002
}
1000
10GENPOS
1070
     4
1000
10
1002
{
1002
}
1000
11GENPOS
1070
     4
1000
11
1002
{
1002
}
1000
12GENPOS
1070
     4
1000
12
1002
{
1002
}
1000
13GENPOS
1070
     4
1000
13
1002
{
1002
}
1000
14GENPOS
1070
     4
1000
14
1002
{
1002
}
1000
15GENPOS
1070
     4
1000
15
1002
{
1002
}
1000
16GENPOS
1070
     4
1000
16
1002
{
1002
}
1000
17GENPOS
1070
     4
1000
17
1002
{
1002
}
1000
18GENPOS
1070
     4
1000
18
1002
{
1002
}
1000
19GENPOS
1070
     4
1000
19
1002
{
1002
}
1000
20GENPOS
1070
     4
1000
20
1002
{
1002
}
1000
21GENPOS
1070
     4
1000
21
1002
{
1002
}
1000
22GENPOS
1070
     4
1000
22
1002
{
1002
}
1000
23GENPOS
1070
     4
1000
23
1002
{
1002
}
1000
24GENPOS
1070
     4
1000
24
1002
{
1002
}
1000
0GENPOS
1070
     4
1000
0
1002
{
1002
}
1002
}
1000
GENPOS
1070
     0
1002
{
1000
1GENPOS
1070
     4
1000
1
1002
{
1002
}
1000
2GENPOS
1070
     4
1000
2
1002
{
1002
}
1000
3GENPOS
1070
     4
1000
3
1002
{
1002
}
1000
4GENPOS
1070
     4
1000
4
1002
{
1002
}
1000
5GENPOS
1070
     4
1000
5
1002
{
1002
}
1000
6GENPOS
1070
     4
1000
6
1002
{
1002
}
1000
7GENPOS
1070
     4
1000
7
1002
{
1002
}
1000
8GENPOS
1070
     4
1000
8
1002
{
1002
}
1000
9GENPOS
1070
     4
1000
9
1002
{
1002
}
1000
10GENPOS
1070
     4
1000
10
1002
{
1002
}
1000
11GENPOS
1070
     4
1000
11
1002
{
1002
}
1000
12GENPOS
1070
     4
1000
12
1002
{
1002
}
1000
13GENPOS
1070
     4
1000
13
1002
{
1002
}
1000
14GENPOS
1070
     4
1000
14
1002
{
1002
}
1000
15GENPOS
1070
     4
1000
15
1002
{
1002
}
1000
16GENPOS
1070
     4
1000
16
1002
{
1002
}
1000
17GENPOS
1070
     4
1000
17
1002
{
1002
}
1000
18GENPOS
1070
     4
1000
18
1002
{
1002
}
1000
19GENPOS
1070
     4
1000
19
1002
{
1002
}
1000
20GENPOS
1070
     4
1000
20
1002
{
1002
}
1000
21GENPOS
1070
     4
1000
21
1002
{
1002
}
1000
22GENPOS
1070
     4
1000
22
1002
{
1002
}
1000
23GENPOS
1070
     4
1000
23
1002
{
1002
}
1002
}
1000
DIN985
1070
     0
1002
{
1000
POSITION
1070
     4
1000
1
1002
{
1002
}
1000
MENGE
1070
     4
1000
2
1002
{
1002
}
1000
BLATT
1070
     4
1000
3
1002
{
1002
}
1000
BENENN
1070
     4
1000
5
1002
{
1002
}
1000
BENENN2
1070
     4
1000
6
1002
{
1002
}
1000
NORM
1070
     4
1000
7
1002
{
1002
}
1000
NORM2
1070
     4
1000
8
1002
{
1002
}
1000
WERKSTOFF
1070
     4
1000
9
1002
{
1002
}
1000
WERKSTOFF2
1070
     4
1000
10
1002
{
1002
}
1002
}
1000
DIN986
1070
     0
1002
{
1000
POSITION
1070
     4
1000
1
1002
{
1002
}
1000
MENGE
1070
     4
1000
2
1002
{
1002
}
1000
BLATT
1070
     4
1000
3
1002
{
1002
}
1000
BENENN
1070
     4
1000
5
1002
{
1002
}
1000
BENENN2
1070
     4
1000
6
1002
{
1002
}
1000
NORM
1070
     4
1000
7
1002
{
1002
}
1000
NORM2
1070
     4
1000
8
1002
{
1002
}
1000
WERKSTOFF
1070
     4
1000
9
1002
{
1002
}
1000
WERKSTOFF2
1070
     4
1000
10
1002
{
1002
}
1002
}
1000
DIN987
1070
     0
1002
{
1000
POSITION
1070
     4
1000
1
1002
{
1002
}
1000
MENGE
1070
     4
1000
2
1002
{
1002
}
1000
BLATT
1070
     4
1000
3
1002
{
1002
}
1000
BENENN
1070
     4
1000
5
1002
{
1002
}
1000
BENENN2
1070
     4
1000
6
1002
{
1002
}
1000
NORM
1070
     4
1000
7
1002
{
1002
}
1000
NORM2
1070
     4
1000
8
1002
{
1002
}
1000
WERKSTOFF
1070
     4
1000
9
1002
{
1002
}
1000
WERKSTOFF2
1070
     4
1000
10
1002
{
1002
}
1002
}
1002
}
  0
APPID
  5
2B
100
AcDbSymbolTableRecord
100
AcDbRegAppTableRecord
  2
GENIUS_GENCFG1_13
 70
     0
1001
GENIUS_GENCFG_13
1071
862825278
1000
2B
1000
GEN@LAYER@DEFS
1070
     9
1000
GenCfgObject
1000
GenCfgShort
1000
GenCfgReal
1000
GenCfgBool
1000
GenCfgString
1000
GenCfgDim
1000
GenCfgAttrInf
1000
GenCfgLaySection
1000
GenCfgLayer
1000
Basic
1070
     0
1002
{
1000
0
1070
     8
1000
0
1002
{
1000
Color
1070
     1
1070
     7
1002
{
1002
}
1000
LType
1070
     4
1000
CONTINUOUS
1002
{
1002
}
1000
Base
1070
     3
1070
     0
1002
{
1002
}
1002
}
1000
1
1070
     8
1000
1
1002
{
1000
Color
1070
     1
1070
    14
1002
{
1002
}
1000
LType
1070
     4
1000
CONTINUOUS
1002
{
1002
}
1000
Base
1070
     3
1070
     0
1002
{
1002
}
1002
}
1000
2
1070
     8
1000
2
1002
{
1000
Color
1070
     1
1070
     5
1002
{
1002
}
1000
LType
1070
     4
1000
CONTINUOUS
1002
{
1002
}
1000
Base
1070
     3
1070
     0
1002
{
1002
}
1002
}
1000
3
1070
     8
1000
3
1002
{
1000
Color
1070
     1
1070
     6
1002
{
1002
}
1000
LType
1070
     4
1000
GEN3
1002
{
1002
}
1000
Base
1070
     3
1070
     0
1002
{
1002
}
1002
}
1000
4
1070
     8
1000
4
1002
{
1000
Color
1070
     1
1070
     3
1002
{
1002
}
1000
LType
1070
     4
1000
CONTINUOUS
1002
{
1002
}
1000
Base
1070
     3
1070
     0
1002
{
1002
}
1002
}
1000
5
1070
     8
1000
5
1002
{
1000
Color
1070
     1
1070
     3
1002
{
1002
}
1000
LType
1070
     4
1000
CONTINUOUS
1002
{
1002
}
1000
Base
1070
     3
1070
     0
1002
{
1002
}
1002
}
1000
6
1070
     8
1000
6
1002
{
1000
Color
1070
     1
1070
     2
1002
{
1002
}
1000
LType
1070
     4
1000
CONTINUOUS
1002
{
1002
}
1000
Base
1070
     3
1070
     0
1002
{
1002
}
1002
}
1000
7
1070
     8
1000
7
1002
{
1000
Color
1070
     1
1070
     4
1002
{
1002
}
1000
LType
1070
     4
1000
GEN7
1002
{
1002
}
1000
Base
1070
     3
1070
     0
1002
{
1002
}
1002
}
1000
8
1070
     8
1000
8
1002
{
1000
Color
1070
     1
1070
     1
1002
{
1002
}
1000
LType
1070
     4
1000
CONTINUOUS
1002
{
1002
}
1000
Base
1070
     3
1070
     0
1002
{
1002
}
1002
}
1000
3A
1070
     8
1000
3A
1002
{
1000
Color
1070
     1
1070
     6
1002
{
1002
}
1000
LType
1070
     4
1000
GEN3A
1002
{
1002
}
1000
Base
1070
     3
1070
     0
1002
{
1002
}
1002
}
1000
7A
1070
     8
1000
7A
1002
{
1000
Color
1070
     1
1070
     4
1002
{
1002
}
1000
LType
1070
     4
1000
GEN7A
1002
{
1002
}
1000
Base
1070
     3
1070
     0
1002
{
1002
}
1002
}
1000
2A
1070
     8
1000
2A
1002
{
1000
Color
1070
     1
1070
     7
1002
{
1002
}
1000
LType
1070
     4
1000
GEN7
1002
{
1002
}
1000
Base
1070
     3
1070
     0
1002
{
1002
}
1002
}
1000
4A
1070
     8
1000
4A
1002
{
1000
Color
1070
     1
1070
     3
1002
{
1002
}
1000
LType
1070
     4
1000
GEN4A
1002
{
1002
}
1000
Base
1070
     3
1070
     0
1002
{
1002
}
1002
}
1000
9
1070
     8
1000
9
1002
{
1000
Color
1070
     1
1070
   253
1002
{
1002
}
1000
LType
1070
     4
1000
CONTINUOUS
1002
{
1002
}
1000
Base
1070
     3
1070
     0
1002
{
1002
}
1002
}
1002
}
1000
Standard
1070
     0
1002
{
1000
0N
1070
     8
1000
0N
1002
{
1000
Color
1070
     1
1070
     7
1002
{
1002
}
1000
LType
1070
     4
1000
CONTINUOUS
1002
{
1002
}
1000
Base
1070
     3
1070
     0
1002
{
1002
}
1002
}
1000
1N
1070
     8
1000
1N
1002
{
1000
Color
1070
     1
1070
    14
1002
{
1002
}
1000
LType
1070
     4
1000
CONTINUOUS
1002
{
1002
}
1000
Base
1070
     3
1070
     0
1002
{
1002
}
1002
}
1000
2N
1070
     8
1000
2N
1002
{
1000
Color
1070
     1
1070
     5
1002
{
1002
}
1000
LType
1070
     4
1000
CONTINUOUS
1002
{
1002
}
1000
Base
1070
     3
1070
     0
1002
{
1002
}
1002
}
1000
3N
1070
     8
1000
3N
1002
{
1000
Color
1070
     1
1070
     6
1002
{
1002
}
1000
LType
1070
     4
1000
GEN3
1002
{
1002
}
1000
Base
1070
     3
1070
     0
1002
{
1002
}
1002
}
1000
4N
1070
     8
1000
4N
1002
{
1000
Color
1070
     1
1070
     3
1002
{
1002
}
1000
LType
1070
     4
1000
CONTINUOUS
1002
{
1002
}
1000
Base
1070
     3
1070
     0
1002
{
1002
}
1002
}
1000
5N
1070
     8
1000
5N
1002
{
1000
Color
1070
     1
1070
     3
1002
{
1002
}
1000
LType
1070
     4
1000
CONTINUOUS
1002
{
1002
}
1000
Base
1070
     3
1070
     0
1002
{
1002
}
1002
}
1000
6N
1070
     8
1000
6N
1002
{
1000
Color
1070
     1
1070
     2
1002
{
1002
}
1000
LType
1070
     4
1000
CONTINUOUS
1002
{
1002
}
1000
Base
1070
     3
1070
     0
1002
{
1002
}
1002
}
1000
7N
1070
     8
1000
7N
1002
{
1000
Color
1070
     1
1070
     4
1002
{
1002
}
1000
LType
1070
     4
1000
GEN7
1002
{
1002
}
1000
Base
1070
     3
1070
     0
1002
{
1002
}
1002
}
1000
8N
1070
     8
1000
8N
1002
{
1000
Color
1070
     1
1070
     1
1002
{
1002
}
1000
LType
1070
     4
1000
CONTINUOUS
1002
{
1002
}
1000
Base
1070
     3
1070
     0
1002
{
1002
}
1002
}
1000
3AN
1070
     8
1000
3AN
1002
{
1000
Color
1070
     1
1070
     6
1002
{
1002
}
1000
LType
1070
     4
1000
GEN3A
1002
{
1002
}
1000
Base
1070
     3
1070
     0
1002
{
1002
}
1002
}
1000
7AN
1070
     8
1000
7AN
1002
{
1000
Color
1070
     1
1070
     4
1002
{
1002
}
1000
LType
1070
     4
1000
GEN7A
1002
{
1002
}
1000
Base
1070
     3
1070
     0
1002
{
1002
}
1002
}
1000
2AN
1070
     8
1000
2AN
1002
{
1000
Color
1070
     1
1070
     7
1002
{
1002
}
1000
LType
1070
     4
1000
GEN7
1002
{
1002
}
1000
Base
1070
     3
1070
     0
1002
{
1002
}
1002
}
1000
4AN
1070
     8
1000
4AN
1002
{
1000
Color
1070
     1
1070
     3
1002
{
1002
}
1000
LType
1070
     4
1000
GEN4A
1002
{
1002
}
1000
Base
1070
     3
1070
     0
1002
{
1002
}
1002
}
1000
9N
1070
     8
1000
9N
1002
{
1000
Color
1070
     1
1070
   253
1002
{
1002
}
1000
LType
1070
     4
1000
CONTINUOUS
1002
{
1002
}
1000
Base
1070
     3
1070
     0
1002
{
1002
}
1002
}
1002
}
1000
Extra
1070
     0
1002
{
1000
Klin
1070
     8
1000
KLIN
1002
{
1000
Color
1070
     1
1070
     1
1002
{
1002
}
1000
LType
1070
     4
1000
CONTINUOUS
1002
{
1002
}
1000
Base
1070
     3
1070
     1
1002
{
1002
}
1002
}
1000
Info
1070
     8
1000
INFO
1002
{
1000
Color
1070
     1
1070
     4
1002
{
1002
}
1000
LType
1070
     4
1000
CONTINUOUS
1002
{
1002
}
1000
Base
1070
     3
1070
     1
1002
{
1002
}
1002
}
1000
Rahm2
1070
     8
1000
RAHM2
1002
{
1000
Color
1070
     1
1070
     1
1002
{
1002
}
1000
LType
1070
     4
1000
CONTINUOUS
1002
{
1002
}
1000
Base
1070
     3
1070
     1
1002
{
1002
}
1002
}
1000
Rahm3
1070
     8
1000
RAHM3
1002
{
1000
Color
1070
     1
1070
     2
1002
{
1002
}
1000
LType
1070
     4
1000
CONTINUOUS
1002
{
1002
}
1000
Base
1070
     3
1070
     1
1002
{
1002
}
1002
}
1000
Rahm5
1070
     8
1000
RAHM5
1002
{
1000
Color
1070
     1
1070
     7
1002
{
1002
}
1000
LType
1070
     4
1000
CONTINUOUS
1002
{
1002
}
1000
Base
1070
     3
1070
     1
1002
{
1002
}
1002
}
1000
View
1070
     8
1000
VIEW
1002
{
1000
Color
1070
     1
1070
     1
1002
{
1002
}
1000
LType
1070
     4
1000
CONTINUOUS
1002
{
1002
}
1000
Base
1070
     3
1070
     1
1002
{
1002
}
1002
}
1000
Behind
1070
     8
1000
BEHIND
1002
{
1000
Color
1070
     1
1070
   253
1002
{
1002
}
1000
LType
1070
     4
1000
CONTINUOUS
1002
{
1002
}
1000
Base
1070
     3
1070
     1
1002
{
1002
}
1002
}
1002
}
  0
APPID
  5
2C
100
AcDbSymbolTableRecord
100
AcDbRegAppTableRecord
  2
GENIUS_GENCFG2_13
 70
     0
1001
GENIUS_GENCFG_13
1071
862825278
1000
2C
1000
GEN@LAYER@ENTSORT
1070
    10
1000
GenCfgObject
1000
GenCfgShort
1000
GenCfgReal
1000
GenCfgBool
1000
GenCfgString
1000
GenCfgDim
1000
GenCfgAttrInf
1000
GenCfgLaySection
1000
GenCfgLayer
1000
GenCfgEntSort
1000
ALTR
1070
     9
1000
4
1002
{
1000
Class
1070
     4
1000

1002
{
1002
}
1000
Color
1070
     1
1070
     7
1002
{
1002
}
1000
LType
1070
     4
1000
GEN3A
1002
{
1002
}
1002
}
1000
BELI
1070
     9
1000
4
1002
{
1000
Class
1070
     4
1000

1002
{
1002
}
1000
Color
1070
     1
1070
   256
1002
{
1002
}
1000
LType
1070
     4
1000
BYLAYER
1002
{
1002
}
1002
}
1000
BHNV
1070
     9
1000
9
1002
{
1000
Class
1070
     4
1000
INV
1002
{
1002
}
1000
Color
1070
     1
1070
   256
1002
{
1002
}
1000
LType
1070
     4
1000
BYLAYER
1002
{
1002
}
1002
}
1000
BHNVS
1070
     9
1000
BEHIND
1002
{
1000
Class
1070
     4
1000
INV
1002
{
1002
}
1000
Color
1070
     1
1070
   256
1002
{
1002
}
1000
LType
1070
     4
1000
BYLAYER
1002
{
1002
}
1002
}
1000
BLID
1070
     9
1000
4A
1002
{
1000
Class
1070
     4
1000

1002
{
1002
}
1000
Color
1070
     1
1070
   256
1002
{
1002
}
1000
LType
1070
     4
1000
BYLAYER
1002
{
1002
}
1002
}
1000
BOAP
1070
     9
1000
4A
1002
{
1000
Class
1070
     4
1000

1002
{
1002
}
1000
Color
1070
     1
1070
   256
1002
{
1002
}
1000
LType
1070
     4
1000
BYLAYER
1002
{
1002
}
1002
}
1000
BOR2
1070
     9
1000
RAHM2
1002
{
1000
Class
1070
     4
1000
SPZ,SYM
1002
{
1002
}
1000
Color
1070
     1
1070
   256
1002
{
1002
}
1000
LType
1070
     4
1000
BYLAYER
1002
{
1002
}
1002
}
1000
BOR3
1070
     9
1000
RAHM3
1002
{
1000
Class
1070
     4
1000
SPZ,SYM
1002
{
1002
}
1000
Color
1070
     1
1070
   256
1002
{
1002
}
1000
LType
1070
     4
1000
BYLAYER
1002
{
1002
}
1002
}
1000
BOR5
1070
     9
1000
RAHM5
1002
{
1000
Class
1070
     4
1000
SPZ,SYM
1002
{
1002
}
1000
Color
1070
     1
1070
   256
1002
{
1002
}
1000
LType
1070
     4
1000
BYLAYER
1002
{
1002
}
1002
}
1000
BOR7
1070
     9
1000
RAHM5
1002
{
1000
Class
1070
     4
1000
SPZ,SYM
1002
{
1002
}
1000
Color
1070
     1
1070
     7
1002
{
1002
}
1000
LType
1070
     4
1000
CONTINUOUS
1002
{
1002
}
1002
}
1000
BPAP
1070
     9
1000
4A
1002
{
1000
Class
1070
     4
1000

1002
{
1002
}
1000
Color
1070
     1
1070
   256
1002
{
1002
}
1000
LType
1070
     4
1000
BYLAYER
1002
{
1002
}
1002
}
1000
BPEX
1070
     9
1000
4A
1002
{
1000
Class
1070
     4
1000

1002
{
1002
}
1000
Color
1070
     1
1070
   256
1002
{
1002
}
1000
LType
1070
     4
1000
BYLAYER
1002
{
1002
}
1002
}
1000
BTDI
1070
     9
1000
5
1002
{
1000
Class
1070
     4
1000
DIM,SYM
1002
{
1002
}
1000
Color
1070
     1
1070
   256
1002
{
1002
}
1000
LType
1070
     4
1000
BYLAYER
1002
{
1002
}
1002
}
1000
CAL2
1070
     9
1000
4
1002
{
1000
Class
1070
     4
1000
SYM
1002
{
1002
}
1000
Color
1070
     1
1070
   256
1002
{
1002
}
1000
LType
1070
     4
1000
BYLAYER
1002
{
1002
}
1002
}
1000
CAL3
1070
     9
1000
4
1002
{
1000
Class
1070
     4
1000
SYM
1002
{
1002
}
1000
Color
1070
     1
1070
     2
1002
{
1002
}
1000
LType
1070
     4
1000
BYLAYER
1002
{
1002
}
1002
}
1000
CAL5
1070
     9
1000
4
1002
{
1000
Class
1070
     4
1000
SYM
1002
{
1002
}
1000
Color
1070
     1
1070
     7
1002
{
1002
}
1000
LType
1070
     4
1000
BYLAYER
1002
{
1002
}
1002
}
1000
CAL7
1070
     9
1000
4
1002
{
1000
Class
1070
     4
1000
SYM
1002
{
1002
}
1000
Color
1070
     1
1070
     5
1002
{
1002
}
1000
LType
1070
     4
1000
BYLAYER
1002
{
1002
}
1002
}
1000
CENN
1070
     9
1000
7A
1002
{
1000
Class
1070
     4
1000
CEN
1002
{
1002
}
1000
Color
1070
     1
1070
   256
1002
{
1002
}
1000
LType
1070
     4
1000
BYLAYER
1002
{
1002
}
1002
}
1000
CENW
1070
     9
1000
7
1002
{
1000
Class
1070
     4
1000
CEN
1002
{
1002
}
1000
Color
1070
     1
1070
   256
1002
{
1002
}
1000
LType
1070
     4
1000
BYLAYER
1002
{
1002
}
1002
}
1000
CLIN
1070
     9
1000
KLIN
1002
{
1000
Class
1070
     4
1000
SPZ
1002
{
1002
}
1000
Color
1070
     1
1070
   256
1002
{
1002
}
1000
LType
1070
     4
1000
BYLAYER
1002
{
1002
}
1002
}
1000
CON1
1070
     9
1000
0
1002
{
1000
Class
1070
     4
1000
CON,BGD
1002
{
1002
}
1000
Color
1070
     1
1070
   256
1002
{
1002
}
1000
LType
1070
     4
1000
BYLAYER
1002
{
1002
}
1002
}
1000
CON2
1070
     9
1000
1
1002
{
1000
Class
1070
     4
1000
CON,BGD
1002
{
1002
}
1000
Color
1070
     1
1070
   256
1002
{
1002
}
1000
LType
1070
     4
1000
BYLAYER
1002
{
1002
}
1002
}
1000
CON3
1070
     9
1000
2
1002
{
1000
Class
1070
     4
1000
CON,BGD
1002
{
1002
}
1000
Color
1070
     1
1070
   256
1002
{
1002
}
1000
LType
1070
     4
1000
BYLAYER
1002
{
1002
}
1002
}
1000
CON4
1070
     9
1000
2
1002
{
1000
Class
1070
     4
1000
CON,BGD
1002
{
1002
}
1000
Color
1070
     1
1070
   256
1002
{
1002
}
1000
LType
1070
     4
1000
BYLAYER
1002
{
1002
}
1002
}
1000
DERP
1070
     9
1000
4
1002
{
1000
Class
1070
     4
1000

1002
{
1002
}
1000
Color
1070
     1
1070
   256
1002
{
1002
}
1000
LType
1070
     4
1000
BYLAYER
1002
{
1002
}
1002
}
1000
DETA
1070
     9
1000
4
1002
{
1000
Class
1070
     4
1000

1002
{
1002
}
1000
Color
1070
     1
1070
   256
1002
{
1002
}
1000
LType
1070
     4
1000
BYLAYER
1002
{
1002
}
1002
}
1000
DIAG
1070
     9
1000
5
1002
{
1000
Class
1070
     4
1000
SYM
1002
{
1002
}
1000
Color
1070
     1
1070
   256
1002
{
1002
}
1000
LType
1070
     4
1000
BYLAYER
1002
{
1002
}
1002
}
1000
DILI
1070
     9
1000
5
1002
{
1000
Class
1070
     4
1000
DIM,SYM
1002
{
1002
}
1000
Color
1070
     1
1070
   256
1002
{
1002
}
1000
LType
1070
     4
1000
BYLAYER
1002
{
1002
}
1002
}
1000
DITX
1070
     9
1000
5
1002
{
1000
Class
1070
     4
1000
DIM,SYM
1002
{
1002
}
1000
Color
1070
     1
1070
     2
1002
{
1002
}
1000
LType
1070
     4
1000
CONTINUOUS
1002
{
1002
}
1002
}
1000
DITO2
1070
     9
1000
5
1002
{
1000
Class
1070
     4
1000
DIM,SYM
1002
{
1002
}
1000
Color
1070
     1
1070
     3
1002
{
1002
}
1000
LType
1070
     4
1000
BYLAYER
1002
{
1002
}
1002
}
1000
DITO3
1070
     9
1000
5
1002
{
1000
Class
1070
     4
1000
DIM,SYM
1002
{
1002
}
1000
Color
1070
     1
1070
     2
1002
{
1002
}
1000
LType
1070
     4
1000
BYLAYER
1002
{
1002
}
1002
}
1000
DIXL
1070
     9
1000
5
1002
{
1000
Class
1070
     4
1000
DIM,SYM
1002
{
1002
}
1000
Color
1070
     1
1070
   256
1002
{
1002
}
1000
LType
1070
     4
1000
BYLAYER
1002
{
1002
}
1002
}
1000
EXMP
1070
     9
1000
4A
1002
{
1000
Class
1070
     4
1000

1002
{
1002
}
1000
Color
1070
     1
1070
   256
1002
{
1002
}
1000
LType
1070
     4
1000
BYLAYER
1002
{
1002
}
1002
}
1000
FEMN
1070
     9
1000
8
1002
{
1000
Class
1070
     4
1000

1002
{
1002
}
1000
Color
1070
     1
1070
   256
1002
{
1002
}
1000
LType
1070
     4
1000
BYLAYER
1002
{
1002
}
1002
}
1000
FEMPN
1070
     9
1000
8
1002
{
1000
Class
1070
     4
1000
SYM
1002
{
1002
}
1000
Color
1070
     1
1070
     3
1002
{
1002
}
1000
LType
1070
     4
1000
BYLAYER
1002
{
1002
}
1002
}
1000
FEMSP
1070
     9
1000
4A
1002
{
1000
Class
1070
     4
1000

1002
{
1002
}
1000
Color
1070
     1
1070
   256
1002
{
1002
}
1000
LType
1070
     4
1000
CONTINUOUS
1002
{
1002
}
1002
}
1000
FEMST
1070
     9
1000
4A
1002
{
1000
Class
1070
     4
1000
SYM
1002
{
1002
}
1000
Color
1070
     1
1070
     3
1002
{
1002
}
1000
LType
1070
     4
1000
BYLAYER
1002
{
1002
}
1002
}
1000
FEMVN
1070
     9
1000
2
1002
{
1000
Class
1070
     4
1000
CON
1002
{
1002
}
1000
Color
1070
     1
1070
   256
1002
{
1002
}
1000
LType
1070
     4
1000
BYLAYER
1002
{
1002
}
1002
}
1000
FEMVT
1070
     9
1000
2
1002
{
1000
Class
1070
     4
1000
SYM
1002
{
1002
}
1000
Color
1070
     1
1070
     3
1002
{
1002
}
1000
LType
1070
     4
1000
BYLAYER
1002
{
1002
}
1002
}
1000
FLAT
1070
     9
1000
0
1002
{
1000
Class
1070
     4
1000

1002
{
1002
}
1000
Color
1070
     1
1070
   256
1002
{
1002
}
1000
LType
1070
     4
1000
BYLAYER
1002
{
1002
}
1002
}
1000
FRAR
1070
     9
1000
4A
1002
{
1000
Class
1070
     4
1000

1002
{
1002
}
1000
Color
1070
     1
1070
   256
1002
{
1002
}
1000
LType
1070
     4
1000
BYLAYER
1002
{
1002
}
1002
}
1000
GRLI
1070
     9
1000
5
1002
{
1000
Class
1070
     4
1000
SYM
1002
{
1002
}
1000
Color
1070
     1
1070
   256
1002
{
1002
}
1000
LType
1070
     4
1000
BYLAYER
1002
{
1002
}
1002
}
1000
GVLI
1070
     9
1000
4A
1002
{
1000
Class
1070
     4
1000

1002
{
1002
}
1000
Color
1070
     1
1070
   256
1002
{
1002
}
1000
LType
1070
     4
1000
BYLAYER
1002
{
1002
}
1002
}
1000
HATC
1070
     9
1000
8
1002
{
1000
Class
1070
     4
1000
HTC,BGD
1002
{
1002
}
1000
Color
1070
     1
1070
   256
1002
{
1002
}
1000
LType
1070
     4
1000
BYLAYER
1002
{
1002
}
1002
}
1000
HIDN
1070
     9
1000
3A
1002
{
1000
Class
1070
     4
1000
HID,BGD
1002
{
1002
}
1000
Color
1070
     1
1070
   256
1002
{
1002
}
1000
LType
1070
     4
1000
BYLAYER
1002
{
1002
}
1002
}
1000
HIDW
1070
     9
1000
3
1002
{
1000
Class
1070
     4
1000
HID,BGD
1002
{
1002
}
1000
Color
1070
     1
1070
   256
1002
{
1002
}
1000
LType
1070
     4
1000
BYLAYER
1002
{
1002
}
1002
}
1000
HLIN
1070
     9
1000
4
1002
{
1000
Class
1070
     4
1000
BGD
1002
{
1002
}
1000
Color
1070
     1
1070
   256
1002
{
1002
}
1000
LType
1070
     4
1000
BYLAYER
1002
{
1002
}
1002
}
1000
HOCN
1070
     9
1000
7A
1002
{
1000
Class
1070
     4
1000
CEN
1002
{
1002
}
1000
Color
1070
     1
1070
   256
1002
{
1002
}
1000
LType
1070
     4
1000
BYLAYER
1002
{
1002
}
1002
}
1000
HOCW
1070
     9
1000
7
1002
{
1000
Class
1070
     4
1000
CEN
1002
{
1002
}
1000
Color
1070
     1
1070
   256
1002
{
1002
}
1000
LType
1070
     4
1000
BYLAYER
1002
{
1002
}
1002
}
1000
INFO
1070
     9
1000
INFO
1002
{
1000
Class
1070
     4
1000
SPZ,SYM
1002
{
1002
}
1000
Color
1070
     1
1070
   256
1002
{
1002
}
1000
LType
1070
     4
1000
BYLAYER
1002
{
1002
}
1002
}
1000
LADI
1070
     9
1000
4
1002
{
1000
Class
1070
     4
1000
BGD
1002
{
1002
}
1000
Color
1070
     1
1070
   256
1002
{
1002
}
1000
LType
1070
     4
1000
BYLAYER
1002
{
1002
}
1002
}
1000
LEAD
1070
     9
1000
5
1002
{
1000
Class
1070
     4
1000
SYM
1002
{
1002
}
1000
Color
1070
     1
1070
   256
1002
{
1002
}
1000
LType
1070
     4
1000
BYLAYER
1002
{
1002
}
1002
}
1000
N_BHNV
1070
     9
1000
9N
1002
{
1000
Class
1070
     4
1000
INV
1002
{
1002
}
1000
Color
1070
     1
1070
   256
1002
{
1002
}
1000
LType
1070
     4
1000
BYLAYER
1002
{
1002
}
1002
}
1000
N_CON1
1070
     9
1000
0N
1002
{
1000
Class
1070
     4
1000
CON,BGD
1002
{
1002
}
1000
Color
1070
     1
1070
   256
1002
{
1002
}
1000
LType
1070
     4
1000
BYLAYER
1002
{
1002
}
1002
}
1000
N_CON2
1070
     9
1000
1N
1002
{
1000
Class
1070
     4
1000
CON,BGD
1002
{
1002
}
1000
Color
1070
     1
1070
   256
1002
{
1002
}
1000
LType
1070
     4
1000
BYLAYER
1002
{
1002
}
1002
}
1000
N_CON3
1070
     9
1000
2N
1002
{
1000
Class
1070
     4
1000
CON,BGD
1002
{
1002
}
1000
Color
1070
     1
1070
   256
1002
{
1002
}
1000
LType
1070
     4
1000
BYLAYER
1002
{
1002
}
1002
}
1000
N_CON4
1070
     9
1000
2N
1002
{
1000
Class
1070
     4
1000
CON,BGD
1002
{
1002
}
1000
Color
1070
     1
1070
   256
1002
{
1002
}
1000
LType
1070
     4
1000
BYLAYER
1002
{
1002
}
1002
}
1000
N_CENN
1070
     9
1000
7AN
1002
{
1000
Class
1070
     4
1000
CEN
1002
{
1002
}
1000
Color
1070
     1
1070
   256
1002
{
1002
}
1000
LType
1070
     4
1000
BYLAYER
1002
{
1002
}
1002
}
1000
N_CENW
1070
     9
1000
7N
1002
{
1000
Class
1070
     4
1000
CEN
1002
{
1002
}
1000
Color
1070
     1
1070
   256
1002
{
1002
}
1000
LType
1070
     4
1000
BYLAYER
1002
{
1002
}
1002
}
1000
N_DILI
1070
     9
1000
5N
1002
{
1000
Class
1070
     4
1000
DIM,SYM
1002
{
1002
}
1000
Color
1070
     1
1070
   256
1002
{
1002
}
1000
LType
1070
     4
1000
BYLAYER
1002
{
1002
}
1002
}
1000
N_DITX
1070
     9
1000
5N
1002
{
1000
Class
1070
     4
1000
DIM,SYM
1002
{
1002
}
1000
Color
1070
     1
1070
     2
1002
{
1002
}
1000
LType
1070
     4
1000
CONTINUOUS
1002
{
1002
}
1002
}
1000
N_DIXL
1070
     9
1000
5N
1002
{
1000
Class
1070
     4
1000
DIM,SYM
1002
{
1002
}
1000
Color
1070
     1
1070
   256
1002
{
1002
}
1000
LType
1070
     4
1000
BYLAYER
1002
{
1002
}
1002
}
1000
N_HATC
1070
     9
1000
8N
1002
{
1000
Class
1070
     4
1000
HTC,BGD
1002
{
1002
}
1000
Color
1070
     1
1070
   256
1002
{
1002
}
1000
LType
1070
     4
1000
BYLAYER
1002
{
1002
}
1002
}
1000
N_HIDN
1070
     9
1000
3AN
1002
{
1000
Class
1070
     4
1000
HID,BGD
1002
{
1002
}
1000
Color
1070
     1
1070
   256
1002
{
1002
}
1000
LType
1070
     4
1000
BYLAYER
1002
{
1002
}
1002
}
1000
N_HIDW
1070
     9
1000
3N
1002
{
1000
Class
1070
     4
1000
HID,BGD
1002
{
1002
}
1000
Color
1070
     1
1070
   256
1002
{
1002
}
1000
LType
1070
     4
1000
BYLAYER
1002
{
1002
}
1002
}
1000
N_PHAN
1070
     9
1000
4AN
1002
{
1000
Class
1070
     4
1000

1002
{
1002
}
1000
Color
1070
     1
1070
   256
1002
{
1002
}
1000
LType
1070
     4
1000
BYLAYER
1002
{
1002
}
1002
}
1000
N_POSL
1070
     9
1000
5N
1002
{
1000
Class
1070
     4
1000
SYM
1002
{
1002
}
1000
Color
1070
     1
1070
   256
1002
{
1002
}
1000
LType
1070
     4
1000
BYLAYER
1002
{
1002
}
1002
}
1000
N_TCON
1070
     9
1000
0N
1002
{
1000
Class
1070
     4
1000
CON,BGD
1002
{
1002
}
1000
Color
1070
     1
1070
   256
1002
{
1002
}
1000
LType
1070
     4
1000
BYLAYER
1002
{
1002
}
1002
}
1000
N_THLI
1070
     9
1000
4N
1002
{
1000
Class
1070
     4
1000
BGD
1002
{
1002
}
1000
Color
1070
     1
1070
   256
1002
{
1002
}
1000
LType
1070
     4
1000
BYLAYER
1002
{
1002
}
1002
}
1000
N_TLEN
1070
     9
1000
0N
1002
{
1000
Class
1070
     4
1000
CON,BGD
1002
{
1002
}
1000
Color
1070
     1
1070
   256
1002
{
1002
}
1000
LType
1070
     4
1000
BYLAYER
1002
{
1002
}
1002
}
1000
N_TXT3
1070
     9
1000
6N
1002
{
1000
Class
1070
     4
1000
SYM
1002
{
1002
}
1000
Color
1070
     1
1070
   256
1002
{
1002
}
1000
LType
1070
     4
1000
BYLAYER
1002
{
1002
}
1002
}
1000
N_VPLI
1070
     9
1000
2AN
1002
{
1000
Class
1070
     4
1000

1002
{
1002
}
1000
Color
1070
     1
1070
   256
1002
{
1002
}
1000
LType
1070
     4
1000
BYLAYER
1002
{
1002
}
1002
}
1000
PAL2
1070
     9
1000
RAHM2
1002
{
1000
Class
1070
     4
1000
SPZ,SYM
1002
{
1002
}
1000
Color
1070
     1
1070
   256
1002
{
1002
}
1000
LType
1070
     4
1000
BYLAYER
1002
{
1002
}
1002
}
1000
PAL3
1070
     9
1000
RAHM3
1002
{
1000
Class
1070
     4
1000
SPZ,SYM
1002
{
1002
}
1000
Color
1070
     1
1070
   256
1002
{
1002
}
1000
LType
1070
     4
1000
BYLAYER
1002
{
1002
}
1002
}
1000
PAL5
1070
     9
1000
RAHM5
1002
{
1000
Class
1070
     4
1000
SPZ,SYM
1002
{
1002
}
1000
Color
1070
     1
1070
   256
1002
{
1002
}
1000
LType
1070
     4
1000
BYLAYER
1002
{
1002
}
1002
}
1000
PAL7
1070
     9
1000
RAHM5
1002
{
1000
Class
1070
     4
1000
SPZ,SYM
1002
{
1002
}
1000
Color
1070
     1
1070
     7
1002
{
1002
}
1000
LType
1070
     4
1000
CONTINUOUS
1002
{
1002
}
1002
}
1000
PHAN
1070
     9
1000
4A
1002
{
1000
Class
1070
     4
1000

1002
{
1002
}
1000
Color
1070
     1
1070
   256
1002
{
1002
}
1000
LType
1070
     4
1000
BYLAYER
1002
{
1002
}
1002
}
1000
POSL
1070
     9
1000
5
1002
{
1000
Class
1070
     4
1000
SYM
1002
{
1002
}
1000
Color
1070
     1
1070
   256
1002
{
1002
}
1000
LType
1070
     4
1000
BYLAYER
1002
{
1002
}
1002
}
1000
POSN
1070
     9
1000
6
1002
{
1000
Class
1070
     4
1000
SYM
1002
{
1002
}
1000
Color
1070
     1
1070
     7
1002
{
1002
}
1000
LType
1070
     4
1000
BYLAYER
1002
{
1002
}
1002
}
1000
POSREF
1070
     9
1000
6
1002
{
1000
Class
1070
     4
1000
SYM
1002
{
1002
}
1000
Color
1070
     1
1070
     5
1002
{
1002
}
1000
LType
1070
     4
1000
BYLAYER
1002
{
1002
}
1002
}
1000
POSX
1070
     9
1000
5
1002
{
1000
Class
1070
     4
1000
SYM
1002
{
1002
}
1000
Color
1070
     1
1070
     2
1002
{
1002
}
1000
LType
1070
     4
1000
CONTINUOUS
1002
{
1002
}
1002
}
1000
PSEC
1070
     9
1000
4A
1002
{
1000
Class
1070
     4
1000

1002
{
1002
}
1000
Color
1070
     1
1070
   256
1002
{
1002
}
1000
LType
1070
     4
1000
BYLAYER
1002
{
1002
}
1002
}
1000
RCGN
1070
     9
1000
7A
1002
{
1000
Class
1070
     4
1000
CEN
1002
{
1002
}
1000
Color
1070
     1
1070
   256
1002
{
1002
}
1000
LType
1070
     4
1000
BYLAYER
1002
{
1002
}
1002
}
1000
RCGW
1070
     9
1000
7
1002
{
1000
Class
1070
     4
1000
CEN
1002
{
1002
}
1000
Color
1070
     1
1070
   256
1002
{
1002
}
1000
LType
1070
     4
1000
BYLAYER
1002
{
1002
}
1002
}
1000
RFDI
1070
     9
1000
4
1002
{
1000
Class
1070
     4
1000
BGD
1002
{
1002
}
1000
Color
1070
     1
1070
   256
1002
{
1002
}
1000
LType
1070
     4
1000
BYLAYER
1002
{
1002
}
1002
}
1000
RQTR
1070
     9
1000
4
1002
{
1000
Class
1070
     4
1000

1002
{
1002
}
1000
Color
1070
     1
1070
     7
1002
{
1002
}
1000
LType
1070
     4
1000
GEN7A
1002
{
1002
}
1002
}
1000
RSBO
1070
     9
1000
4
1002
{
1000
Class
1070
     4
1000
BGD
1002
{
1002
}
1000
Color
1070
     1
1070
   256
1002
{
1002
}
1000
LType
1070
     4
1000
BYLAYER
1002
{
1002
}
1002
}
1000
SBRK
1070
     9
1000
4
1002
{
1000
Class
1070
     4
1000
BGD
1002
{
1002
}
1000
Color
1070
     1
1070
   256
1002
{
1002
}
1000
LType
1070
     4
1000
BYLAYER
1002
{
1002
}
1002
}
1000
SCEN
1070
     9
1000
7
1002
{
1000
Class
1070
     4
1000

1002
{
1002
}
1000
Color
1070
     1
1070
   256
1002
{
1002
}
1000
LType
1070
     4
1000
CONTINUOUS
1002
{
1002
}
1002
}
1000
SECT
1070
     9
1000
4
1002
{
1000
Class
1070
     4
1000
BGD
1002
{
1002
}
1000
Color
1070
     1
1070
   256
1002
{
1002
}
1000
LType
1070
     4
1000
BYLAYER
1002
{
1002
}
1002
}
1000
SELN
1070
     9
1000
7A
1002
{
1000
Class
1070
     4
1000

1002
{
1002
}
1000
Color
1070
     1
1070
   256
1002
{
1002
}
1000
LType
1070
     4
1000
BYLAYER
1002
{
1002
}
1002
}
1000
SELW
1070
     9
1000
7
1002
{
1000
Class
1070
     4
1000

1002
{
1002
}
1000
Color
1070
     1
1070
   256
1002
{
1002
}
1000
LType
1070
     4
1000
BYLAYER
1002
{
1002
}
1002
}
1000
SSYS
1070
     9
1000
0
1002
{
1000
Class
1070
     4
1000

1002
{
1002
}
1000
Color
1070
     1
1070
   256
1002
{
1002
}
1000
LType
1070
     4
1000
BYLAYER
1002
{
1002
}
1002
}
1000
STLI
1070
     9
1000
4
1002
{
1000
Class
1070
     4
1000

1002
{
1002
}
1000
Color
1070
     1
1070
     7
1002
{
1002
}
1000
LType
1070
     4
1000
GEN3A
1002
{
1002
}
1002
}
1000
SYB1
1070
     9
1000
5
1002
{
1000
Class
1070
     4
1000
SYM
1002
{
1002
}
1000
Color
1070
     1
1070
   256
1002
{
1002
}
1000
LType
1070
     4
1000
BYLAYER
1002
{
1002
}
1002
}
1000
SYB2
1070
     9
1000
5
1002
{
1000
Class
1070
     4
1000
SYM
1002
{
1002
}
1000
Color
1070
     1
1070
   256
1002
{
1002
}
1000
LType
1070
     4
1000
BYLAYER
1002
{
1002
}
1002
}
1000
SYB3
1070
     9
1000
6
1002
{
1000
Class
1070
     4
1000
SYM
1002
{
1002
}
1000
Color
1070
     1
1070
   256
1002
{
1002
}
1000
LType
1070
     4
1000
CONTINUOUS
1002
{
1002
}
1002
}
1000
SYB5
1070
     9
1000
5
1002
{
1000
Class
1070
     4
1000
SYM
1002
{
1002
}
1000
Color
1070
     1
1070
     7
1002
{
1002
}
1000
LType
1070
     4
1000
BYLAYER
1002
{
1002
}
1002
}
1000
SYMN
1070
     9
1000
7A
1002
{
1000
Class
1070
     4
1000
CEN
1002
{
1002
}
1000
Color
1070
     1
1070
   256
1002
{
1002
}
1000
LType
1070
     4
1000
BYLAYER
1002
{
1002
}
1002
}
1000
SYMW
1070
     9
1000
7
1002
{
1000
Class
1070
     4
1000
CEN
1002
{
1002
}
1000
Color
1070
     1
1070
   256
1002
{
1002
}
1000
LType
1070
     4
1000
BYLAYER
1002
{
1002
}
1002
}
1000
TCON
1070
     9
1000
0
1002
{
1000
Class
1070
     4
1000
CON,BGD
1002
{
1002
}
1000
Color
1070
     1
1070
   256
1002
{
1002
}
1000
LType
1070
     4
1000
BYLAYER
1002
{
1002
}
1002
}
1000
THLI
1070
     9
1000
4
1002
{
1000
Class
1070
     4
1000
BGD
1002
{
1002
}
1000
Color
1070
     1
1070
   256
1002
{
1002
}
1000
LType
1070
     4
1000
BYLAYER
1002
{
1002
}
1002
}
1000
TIT2
1070
     9
1000
RAHM2
1002
{
1000
Class
1070
     4
1000
SPZ,SYM
1002
{
1002
}
1000
Color
1070
     1
1070
   256
1002
{
1002
}
1000
LType
1070
     4
1000
BYLAYER
1002
{
1002
}
1002
}
1000
TIT3
1070
     9
1000
RAHM3
1002
{
1000
Class
1070
     4
1000
SPZ,SYM
1002
{
1002
}
1000
Color
1070
     1
1070
   256
1002
{
1002
}
1000
LType
1070
     4
1000
BYLAYER
1002
{
1002
}
1002
}
1000
TIT5
1070
     9
1000
RAHM5
1002
{
1000
Class
1070
     4
1000
SPZ,SYM
1002
{
1002
}
1000
Color
1070
     1
1070
   256
1002
{
1002
}
1000
LType
1070
     4
1000
BYLAYER
1002
{
1002
}
1002
}
1000
TIT7
1070
     9
1000
RAHM5
1002
{
1000
Class
1070
     4
1000
SPZ,SYM
1002
{
1002
}
1000
Color
1070
     1
1070
     7
1002
{
1002
}
1000
LType
1070
     4
1000
CONTINUOUS
1002
{
1002
}
1002
}
1000
TLEN
1070
     9
1000
0
1002
{
1000
Class
1070
     4
1000
CON,BGD
1002
{
1002
}
1000
Color
1070
     1
1070
   256
1002
{
1002
}
1000
LType
1070
     4
1000
BYLAYER
1002
{
1002
}
1002
}
1000
TRKN
1070
     9
1000
7A
1002
{
1000
Class
1070
     4
1000

1002
{
1002
}
1000
Color
1070
     1
1070
   256
1002
{
1002
}
1000
LType
1070
     4
1000
BYLAYER
1002
{
1002
}
1002
}
1000
TRKW
1070
     9
1000
7
1002
{
1000
Class
1070
     4
1000

1002
{
1002
}
1000
Color
1070
     1
1070
   256
1002
{
1002
}
1000
LType
1070
     4
1000
BYLAYER
1002
{
1002
}
1002
}
1000
TRLI
1070
     9
1000
4
1002
{
1000
Class
1070
     4
1000
BGD
1002
{
1002
}
1000
Color
1070
     1
1070
   256
1002
{
1002
}
1000
LType
1070
     4
1000
BYLAYER
1002
{
1002
}
1002
}
1000
TXT1
1070
     9
1000
6
1002
{
1000
Class
1070
     4
1000
SYM
1002
{
1002
}
1000
Color
1070
     1
1070
     2
1002
{
1002
}
1000
LType
1070
     4
1000
BYLAYER
1002
{
1002
}
1002
}
1000
TXT2
1070
     9
1000
6
1002
{
1000
Class
1070
     4
1000
SYM
1002
{
1002
}
1000
Color
1070
     1
1070
     2
1002
{
1002
}
1000
LType
1070
     4
1000
BYLAYER
1002
{
1002
}
1002
}
1000
TXT3
1070
     9
1000
6
1002
{
1000
Class
1070
     4
1000
SYM
1002
{
1002
}
1000
Color
1070
     1
1070
   256
1002
{
1002
}
1000
LType
1070
     4
1000
BYLAYER
1002
{
1002
}
1002
}
1000
TXT5
1070
     9
1000
6
1002
{
1000
Class
1070
     4
1000
SYM
1002
{
1002
}
1000
Color
1070
     1
1070
     7
1002
{
1002
}
1000
LType
1070
     4
1000
BYLAYER
1002
{
1002
}
1002
}
1000
TXT7
1070
     9
1000
6
1002
{
1000
Class
1070
     4
1000
SYM
1002
{
1002
}
1000
Color
1070
     1
1070
     7
1002
{
1002
}
1000
LType
1070
     4
1000
BYLAYER
1002
{
1002
}
1002
}
1000
VIEW
1070
     9
1000
VIEW
1002
{
1000
Class
1070
     4
1000
SPZ
1002
{
1002
}
1000
Color
1070
     1
1070
   256
1002
{
1002
}
1000
LType
1070
     4
1000
BYLAYER
1002
{
1002
}
1002
}
1000
VPLI
1070
     9
1000
2A
1002
{
1000
Class
1070
     4
1000

1002
{
1002
}
1000
Color
1070
     1
1070
   256
1002
{
1002
}
1000
LType
1070
     4
1000
BYLAYER
1002
{
1002
}
1002
}
1000
ZIZA
1070
     9
1000
4
1002
{
1000
Class
1070
     4
1000
BGD
1002
{
1002
}
1000
Color
1070
     1
1070
   256
1002
{
1002
}
1000
LType
1070
     4
1000
GENZIGZAG
1002
{
1002
}
1002
}
  0
APPID
  5
2D
100
AcDbSymbolTableRecord
100
AcDbRegAppTableRecord
  2
GENIUS_GENCFG3_13
 70
     0
1001
GENIUS_GENCFG_13
1071
862825278
1000
2D
1000
GEN@OSWIZ
1070
    12
1000
GenCfgObject
1000
GenCfgShort
1000
GenCfgReal
1000
GenCfgBool
1000
GenCfgString
1000
GenCfgDim
1000
GenCfgAttrInf
1000
GenCfgLaySection
1000
GenCfgLayer
1000
GenCfgEntSort
1000
GenCfgLType
1000
GenCfgFilter
1000
AngleStep
1070
     0
1002
{
1000
M
1070
     2
1040
10.0
1002
{
1002
}
1000
I
1070
     2
1040
0.4
1002
{
1002
}
1002
}
1000
AngleIncr
1070
     2
1040
45.0
1002
{
1002
}
1000
Filter
1070
     0
1002
{
1000
HATCH
1070
    11
1002
{
1000
EntityType
1070
     4
1000
LINE
1002
{
1002
}
1000
Layer
1070
     4
1000
8,8N,*-8,*-8N
1002
{
1002
}
1000
Linetype
1070
     4
1000
*
1002
{
1002
}
1000
Color
1070
     4
1000
*
1002
{
1002
}
1002
}
1000
SYMBOLS
1070
    11
1002
{
1000
EntityType
1070
     4
1000
*
1002
{
1002
}
1000
Layer
1070
     4
1000
[5-6],[5-6]N,*-[5-6],*-[5-6]N
1002
{
1002
}
1000
Linetype
1070
     4
1000
*
1002
{
1002
}
1000
Color
1070
     4
1000
*
1002
{
1002
}
1002
}
1000
FEM
1070
    11
1002
{
1000
EntityType
1070
     4
1000
*
1002
{
1002
}
1000
Layer
1070
     4
1000
4A,4AN,*-4A,*-4AN
1002
{
1002
}
1000
Linetype
1070
     4
1000
*
1002
{
1002
}
1000
Color
1070
     4
1000
*
1002
{
1002
}
1002
}
1002
}
1000
IconSize
1070
     2
1040
1.0
1002
{
1002
}
1000
SnapColor
1070
     1
1070
     3
1002
{
1002
}
  0
APPID
  5
2E
100
AcDbSymbolTableRecord
100
AcDbRegAppTableRecord
  2
GENIUS_GENCFG4_13
 70
     0
1001
GENIUS_GENCFG_13
1071
893334241
1000
2E
1000
GEN
1070
     9
1000
GenCfgObject
1000
GenCfgShort
1000
GenCfgReal
1000
GenCfgBool
1000
GenCfgString
1000
GenCfgDim
1000
GenCfgAttrInf
1000
GenCfgLaySection
1000
GenCfgLType
1000
Balloon
1070
     0
1002
{
1000
GenIF
1070
     1
1070
     0
1002
{
1002
}
1000
GenPosInc
1070
     1
1070
    10
1002
{
1002
}
1000
GenPosBlk
1070
     1
1070
     8
1002
{
1002
}
1000
GenPosVar
1070
     1
1070
     2
1002
{
1002
}
1000
GenZiCir
1070
     2
1040
1.5
1002
{
1002
}
1000
MaxCharForCenteredText
1070
     1
1070
    30
1002
{
1002
}
1000
Snap
1070
     0
1002
{
1000
ActivationRadius
1070
     2
1040
1.0
1002
{
1002
}
1000
M
1070
     0
1002
{
1000
SnapStepX
1070
     2
1040
20.0
1002
{
1002
}
1000
SnapStepY
1070
     2
1040
10.0
1002
{
1002
}
1002
}
1000
I
1070
     0
1002
{
1000
SnapStepX
1070
     2
1040
1.0
1002
{
1002
}
1000
SnapStepY
1070
     2
1040
0.5
1002
{
1002
}
1002
}
1002
}
1002
}
1000
Centerline
1070
     0
1002
{
1000
ScaleNot
1070
     3
1070
     1
1002
{
1002
}
1000
M
1070
     0
1002
{
1000
GenCenAng
1070
     4
1000
45|90|135
1002
{
1002
}
1000
GenCenDia
1070
     2
1040
10.0
1002
{
1002
}
1000
GenCenDias
1070
     4
1000
10|20|30
1002
{
1002
}
1000
GenCenDist
1070
     2
1040
3.0
1002
{
1002
}
1000
GenCenLen
1070
     2
1040
10.0
1002
{
1002
}
1000
GenCenOff
1070
     2
1040
10.0
1002
{
1002
}
1002
}
1000
I
1070
     0
1002
{
1000
GenCenAng
1070
     4
1000
45|90|135
1002
{
1002
}
1000
GenCenDia
1070
     2
1040
0.5
1002
{
1002
}
1000
GenCenDias
1070
     4
1000
0.5|1.0|1.5
1002
{
1002
}
1000
GenCenDist
1070
     2
1040
0.125
1002
{
1002
}
1000
GenCenLen
1070
     2
1040
0.5
1002
{
1002
}
1000
GenCenOff
1070
     2
1040
0.5
1002
{
1002
}
1002
}
1002
}
1000
CLine
1070
     0
1002
{
1000
CAngArray
1070
     4
1000
30|45|60
1002
{
1002
}
1000
Typ
1070
     4
1000
XLINE
1002
{
1002
}
1000
M
1070
     0
1002
{
1000
CLinArray
1070
     4
1000
60
1002
{
1002
}
1002
}
1000
I
1070
     0
1002
{
1000
CLinArray
1070
     4
1000
0.125|0.25|0.5
1002
{
1002
}
1002
}
1002
}
1000
Constraints
1070
     0
1002
{
1000
Color
1070
     0
1002
{
1000
Active_Frame
1070
     1
1070
     2
1002
{
1002
}
1000
Inactive_Frame
1070
     1
1070
     8
1002
{
1002
}
1002
}
1000
Debug
1070
     0
1002
{
1002
}
1000
Editor
1070
     0
1002
{
1002
}
1000
Frame
1070
     0
1002
{
1002
}
1000
Sys
1070
     0
1002
{
1002
}
1002
}
1000
Detail
1070
     0
1002
{
1002
}
1000
Dimension
1070
     5
1002
{
1000
DIMALT
1070
     1
1070
     0
1002
{
1002
}
1000
DIMALTD
1070
     1
1070
     2
1002
{
1002
}
1000
DIMALTTD
1070
     1
1070
     4
1002
{
1002
}
1000
DIMALTTZ
1070
     1
1070
     0
1002
{
1002
}
1000
DIMALTU
1070
     1
1070
     2
1002
{
1002
}
1000
DIMALTZ
1070
     1
1070
     0
1002
{
1002
}
1000
DIMAPOST
1070
     4
1000

1002
{
1002
}
1000
DIMAUNIT
1070
     1
1070
     0
1002
{
1002
}
1000
DIMBLK
1070
     4
1000

1002
{
1002
}
1000
DIMBLK1
1070
     4
1000

1002
{
1002
}
1000
DIMBLK2
1070
     4
1000

1002
{
1002
}
1000
DIMDLE
1070
     2
1040
0.0
1002
{
1002
}
1000
DIMFIT
1070
     1
1070
     3
1002
{
1002
}
1000
DIMJUST
1070
     1
1070
     0
1002
{
1002
}
1000
DIMLFAC
1070
     2
1040
1.0
1002
{
1002
}
1000
DIMLIM
1070
     1
1070
     0
1002
{
1002
}
1000
DIMPOST
1070
     4
1000
<>
1002
{
1002
}
1000
DIMRND
1070
     2
1040
0.0
1002
{
1002
}
1000
DIMSAH
1070
     1
1070
     0
1002
{
1002
}
1000
DIMSCALE
1070
     2
1040
1.0
1002
{
1002
}
1000
DIMSD1
1070
     1
1070
     0
1002
{
1002
}
1000
DIMSD2
1070
     1
1070
     0
1002
{
1002
}
1000
DIMSE1
1070
     1
1070
     0
1002
{
1002
}
1000
DIMSE2
1070
     1
1070
     0
1002
{
1002
}
1000
DIMSOXD
1070
     1
1070
     0
1002
{
1002
}
1000
DIMTAD
1070
     1
1070
     0
1002
{
1002
}
1000
DIMTFAC
1070
     2
1040
0.71
1002
{
1002
}
1000
DIMTIH
1070
     1
1070
     0
1002
{
1002
}
1000
DIMTIX
1070
     1
1070
     0
1002
{
1002
}
1000
DIMTM
1070
     2
1040
0.1
1002
{
1002
}
1000
DIMTOFL
1070
     1
1070
     0
1002
{
1002
}
1000
DIMTOH
1070
     1
1070
     0
1002
{
1002
}
1000
DIMTOL
1070
     1
1070
     0
1002
{
1002
}
1000
DIMTOLJ
1070
     1
1070
     1
1002
{
1002
}
1000
DIMTP
1070
     2
1040
0.1
1002
{
1002
}
1000
DIMTSZ
1070
     2
1040
0.0
1002
{
1002
}
1000
DIMTVP
1070
     2
1040
0.0
1002
{
1002
}
1000
DIMTXSTY
1070
     4
1000
STANDARD
1002
{
1002
}
1000
DIMTZIN
1070
     1
1070
     0
1002
{
1002
}
1000
DIMUNIT
1070
     1
1070
     2
1002
{
1002
}
1000
DIMUPT
1070
     1
1070
     0
1002
{
1002
}
1000
M
1070
     0
1002
{
1000
DIMALTF
1070
     2
1040
0.03937
1002
{
1002
}
1000
DIMASZ
1070
     2
1040
2.5
1002
{
1002
}
1000
DIMCEN
1070
     2
1040
0.0
1002
{
1002
}
1000
DIMDEC
1070
     1
1070
     2
1002
{
1002
}
1000
DIMDLI
1070
     2
1040
7.0
1002
{
1002
}
1000
DIMEXE
1070
     2
1040
1.0
1002
{
1002
}
1000
DIMEXO
1070
     2
1040
1.0
1002
{
1002
}
1000
DIMGAP
1070
     2
1040
0.6
1002
{
1002
}
1000
DIMTDEC
1070
     1
1070
     3
1002
{
1002
}
1000
DIMTXT
1070
     2
1040
3.5
1002
{
1002
}
1000
DIMZIN
1070
     1
1070
     8
1002
{
1002
}
1002
}
1000
I
1070
     0
1002
{
1000
DIMALTF
1070
     2
1040
25.4
1002
{
1002
}
1000
DIMASZ
1070
     2
1040
0.1
1002
{
1002
}
1000
DIMCEN
1070
     2
1040
0.0
1002
{
1002
}
1000
DIMDEC
1070
     1
1070
     4
1002
{
1002
}
1000
DIMDLI
1070
     2
1040
0.5
1002
{
1002
}
1000
DIMEXE
1070
     2
1040
0.1
1002
{
1002
}
1000
DIMEXO
1070
     2
1040
0.05
1002
{
1002
}
1000
DIMGAP
1070
     2
1040
0.06
1002
{
1002
}
1000
DIMTDEC
1070
     1
1070
     4
1002
{
1002
}
1000
DIMTXT
1070
     2
1040
0.12
1002
{
1002
}
1000
DIMZIN
1070
     1
1070
     7
1002
{
1002
}
1002
}
1000
GEN-ISO
1070
     5
1002
{
1000
NAME
1070
     4
1000
GEN-ISO
1002
{
1002
}
1000
DIMTAD
1070
     1
1070
     1
1002
{
1002
}
1000
DIMTOLJ
1070
     1
1070
     0
1002
{
1002
}
1000
DIMTOFL
1070
     1
1070
     1
1002
{
1002
}
1000
M
1070
     0
1002
{
1002
}
1000
I
1070
     0
1002
{
1002
}
1002
}
1000
GEN-ISO-POS
1070
     5
1002
{
1000
NAME
1070
     4
1000
GEN-ISO-POS
1002
{
1002
}
1000
DIMTOLJ
1070
     1
1070
     0
1002
{
1002
}
1000
M
1070
     0
1002
{
1000
DIMGAP
1070
     2
1040
1.5
1002
{
1002
}
1000
DIMTXT
1070
     2
1040
5.0
1002
{
1002
}
1000
DIMASZ
1070
     2
1040
2.5
1002
{
1002
}
1002
}
1000
I
1070
     0
1002
{
1000
DIMASZ
1070
     2
1040
0.1
1002
{
1002
}
1000
DIMGAP
1070
     2
1040
0.06
1002
{
1002
}
1000
DIMTXT
1070
     2
1040
0.2
1002
{
1002
}
1002
}
1000
DIMSCALE
1070
     2
1040
1.0
1002
{
1002
}
1000
DIMPOST
1070
     4
1000
<>
1002
{
1002
}
1002
}
1000
GEN-ISO-CIR
1070
     5
1002
{
1000
NAME
1070
     4
1000
GEN-ISO$3
1002
{
1002
}
1000
DIMFIT
1070
     1
1070
     0
1002
{
1002
}
1000
DIMTAD
1070
     1
1070
     1
1002
{
1002
}
1000
DIMTIH
1070
     1
1070
     0
1002
{
1002
}
1000
DIMTIX
1070
     1
1070
     0
1002
{
1002
}
1000
DIMTOH
1070
     1
1070
     1
1002
{
1002
}
1000
DIMTOLJ
1070
     1
1070
     0
1002
{
1002
}
1000
DIMTOFL
1070
     1
1070
     0
1002
{
1002
}
1000
DIMUPT
1070
     1
1070
     1
1002
{
1002
}
1000
M
1070
     0
1002
{
1002
}
1000
I
1070
     0
1002
{
1002
}
1000
DIMPOST
1070
     4
1000
<>
1002
{
1002
}
1002
}
1000
GEN-ISO-RAD
1070
     5
1002
{
1000
NAME
1070
     4
1000
GEN-ISO$4
1002
{
1002
}
1000
DIMFIT
1070
     1
1070
     0
1002
{
1002
}
1000
DIMTAD
1070
     1
1070
     1
1002
{
1002
}
1000
DIMTIH
1070
     1
1070
     0
1002
{
1002
}
1000
DIMTIX
1070
     1
1070
     0
1002
{
1002
}
1000
DIMTOH
1070
     1
1070
     1
1002
{
1002
}
1000
DIMTOLJ
1070
     1
1070
     0
1002
{
1002
}
1000
DIMTOFL
1070
     1
1070
     0
1002
{
1002
}
1000
DIMUPT
1070
     1
1070
     1
1002
{
1002
}
1000
M
1070
     0
1002
{
1002
}
1000
I
1070
     0
1002
{
1002
}
1002
}
1000
GEN-ISO-ORD
1070
     5
1002
{
1000
NAME
1070
     4
1000
GEN-ISO$6
1002
{
1002
}
1000
DIMTOLJ
1070
     1
1070
     0
1002
{
1002
}
1000
M
1070
     0
1002
{
1002
}
1000
I
1070
     0
1002
{
1002
}
1002
}
1000
GEN-ISO-AXE-F
1070
     5
1002
{
1000
NAME
1070
     4
1000
GEN-ISO-AXE-F
1002
{
1002
}
1000
DIMSE1
1070
     1
1070
     1
1002
{
1002
}
1000
DIMSE2
1070
     1
1070
     1
1002
{
1002
}
1000
DIMTAD
1070
     1
1070
     1
1002
{
1002
}
1000
DIMTOLJ
1070
     1
1070
     0
1002
{
1002
}
1000
DIMTOFL
1070
     1
1070
     1
1002
{
1002
}
1000
M
1070
     0
1002
{
1002
}
1000
I
1070
     0
1002
{
1002
}
1002
}
1000
GEN-ISO-AXE-H
1070
     5
1002
{
1000
DIMBLK1
1070
     4
1000
GENAXEH
1002
{
1002
}
1000
DIMLFAC
1070
     2
1040
2.0
1002
{
1002
}
1000
DIMSAH
1070
     1
1070
     1
1002
{
1002
}
1000
DIMSE1
1070
     1
1070
     1
1002
{
1002
}
1000
DIMSE2
1070
     1
1070
     1
1002
{
1002
}
1000
DIMTAD
1070
     1
1070
     1
1002
{
1002
}
1000
DIMTOLJ
1070
     1
1070
     0
1002
{
1002
}
1000
DIMTOFL
1070
     1
1070
     1
1002
{
1002
}
1000
M
1070
     0
1002
{
1002
}
1000
I
1070
     0
1002
{
1002
}
1002
}
1000
GEN-ANSI
1070
     5
1002
{
1000
NAME
1070
     4
1000
GEN-ANSI
1002
{
1002
}
1000
DIMTIH
1070
     1
1070
     1
1002
{
1002
}
1000
DIMTOH
1070
     1
1070
     1
1002
{
1002
}
1000
DIMTAD
1070
     1
1070
     0
1002
{
1002
}
1000
DIMTOLJ
1070
     1
1070
     1
1002
{
1002
}
1000
M
1070
     0
1002
{
1002
}
1000
I
1070
     0
1002
{
1002
}
1002
}
1000
GEN-ANSI-POS
1070
     5
1002
{
1000
NAME
1070
     4
1000
GEN-ANSI-POS
1002
{
1002
}
1000
DIMTOLJ
1070
     1
1070
     1
1002
{
1002
}
1000
M
1070
     0
1002
{
1000
DIMASZ
1070
     2
1040
2.5
1002
{
1002
}
1000
DIMGAP
1070
     2
1040
1.5
1002
{
1002
}
1000
DIMTXT
1070
     2
1040
5.0
1002
{
1002
}
1002
}
1000
I
1070
     0
1002
{
1000
DIMASZ
1070
     2
1040
0.1
1002
{
1002
}
1000
DIMGAP
1070
     2
1040
0.06
1002
{
1002
}
1000
DIMTXT
1070
     2
1040
0.2
1002
{
1002
}
1002
}
1002
}
1000
GEN-ANSI-CIR
1070
     5
1002
{
1000
NAME
1070
     4
1000
GEN-ANSI$3
1002
{
1002
}
1000
DIMFIT
1070
     1
1070
     0
1002
{
1002
}
1000
DIMTAD
1070
     1
1070
     0
1002
{
1002
}
1000
DIMTIH
1070
     1
1070
     1
1002
{
1002
}
1000
DIMTIX
1070
     1
1070
     0
1002
{
1002
}
1000
DIMTOFL
1070
     1
1070
     0
1002
{
1002
}
1000
DIMTOH
1070
     1
1070
     1
1002
{
1002
}
1000
DIMTOLJ
1070
     1
1070
     1
1002
{
1002
}
1000
DIMUPT
1070
     1
1070
     1
1002
{
1002
}
1000
M
1070
     0
1002
{
1002
}
1000
I
1070
     0
1002
{
1002
}
1002
}
1000
GEN-ANSI-RAD
1070
     5
1002
{
1000
NAME
1070
     4
1000
GEN-ANSI$4
1002
{
1002
}
1000
DIMFIT
1070
     1
1070
     0
1002
{
1002
}
1000
DIMTAD
1070
     1
1070
     0
1002
{
1002
}
1000
DIMTIH
1070
     1
1070
     1
1002
{
1002
}
1000
DIMTIX
1070
     1
1070
     0
1002
{
1002
}
1000
DIMTOFL
1070
     1
1070
     0
1002
{
1002
}
1000
DIMTOH
1070
     1
1070
     1
1002
{
1002
}
1000
DIMTOLJ
1070
     1
1070
     1
1002
{
1002
}
1000
DIMUPT
1070
     1
1070
     1
1002
{
1002
}
1000
M
1070
     0
1002
{
1002
}
1000
I
1070
     0
1002
{
1002
}
1002
}
1000
GEN-ANSI-ORD
1070
     5
1002
{
1000
NAME
1070
     4
1000
GEN-ANSI$6
1002
{
1002
}
1000
DIMTAD
1070
     1
1070
     0
1002
{
1002
}
1000
DIMTIH
1070
     1
1070
     1
1002
{
1002
}
1000
DIMTOH
1070
     1
1070
     1
1002
{
1002
}
1000
DIMTOLJ
1070
     1
1070
     1
1002
{
1002
}
1000
M
1070
     0
1002
{
1002
}
1000
I
1070
     0
1002
{
1002
}
1002
}
1000
GEN-ANSI-AXE-F
1070
     5
1002
{
1000
NAME
1070
     4
1000
GEN-ANSI-AXE-F
1002
{
1002
}
1000
DIMBLK1
1070
     4
1000
GENAXEH
1002
{
1002
}
1000
DIMSAH
1070
     1
1070
     1
1002
{
1002
}
1000
DIMSE1
1070
     1
1070
     1
1002
{
1002
}
1000
DIMSE2
1070
     1
1070
     1
1002
{
1002
}
1000
DIMTAD
1070
     1
1070
     0
1002
{
1002
}
1000
DIMTIH
1070
     1
1070
     1
1002
{
1002
}
1000
DIMTOH
1070
     1
1070
     1
1002
{
1002
}
1000
DIMTOLJ
1070
     1
1070
     1
1002
{
1002
}
1000
M
1070
     0
1002
{
1002
}
1000
I
1070
     0
1002
{
1002
}
1002
}
1000
GEN-ANSI-AXE-H
1070
     5
1002
{
1000
NAME
1070
     4
1000
GEN-ANSI-AXE-H
1002
{
1002
}
1000
DIMBLK1
1070
     4
1000
GENAXEH
1002
{
1002
}
1000
DIMLFAC
1070
     2
1040
2.0
1002
{
1002
}
1000
DIMSAH
1070
     1
1070
     1
1002
{
1002
}
1000
DIMSE1
1070
     1
1070
     1
1002
{
1002
}
1000
DIMSE2
1070
     1
1070
     1
1002
{
1002
}
1000
DIMTAD
1070
     1
1070
     0
1002
{
1002
}
1000
DIMTOFL
1070
     1
1070
     1
1002
{
1002
}
1000
DIMTOLJ
1070
     1
1070
     1
1002
{
1002
}
1000
M
1070
     0
1002
{
1002
}
1000
I
1070
     0
1002
{
1002
}
1002
}
1000
DIMZIN
1070
     1
1070
     8
1002
{
1002
}
1002
}
1000
DimSet
1070
     0
1002
{
1000
ChainSum
1070
     3
1070
     0
1002
{
1002
}
1000
DimDclTyp0
1070
     4
1000
dim23
1002
{
1002
}
1000
HorBra
1070
     3
1070
     0
1002
{
1002
}
1000
StrDia
1070
     4
1000
%%c<>
1002
{
1002
}
1000
StrRad
1070
     4
1000
R<>
1002
{
1002
}
1000
TextMinus
1070
     4
1000
<>
1002
{
1002
}
1000
TextPlus
1070
     4
1000
<>
1002
{
1002
}
1000
M
1070
     0
1002
{
1000
DimdliFirst
1070
     2
1040
10.0
1002
{
1002
}
1000
PointMakeDist
1070
     2
1040
10.0
1002
{
1002
}
1002
}
1000
I
1070
     0
1002
{
1000
DimdliFirst
1070
     2
1040
0.5
1002
{
1002
}
1000
PointMakeDist
1070
     2
1040
0.5
1002
{
1002
}
1002
}
1002
}
1000
Drawing
1070
     0
1002
{
1000
ChamferDimMode
1070
     1
1070
     2
1002
{
1002
}
1000
Gen_Fiso
1070
    -3
1040
1.0
1002
{
1002
}
1000
GenDimStil
1070
     4
1000
ISO
1002
{
1002
}
1000
GenDwgUScale
1070
     2
1040
1.0
1002
{
1002
}
1000
GenInch
1070
     4
1000
M
1002
{
1002
}
1000
GenPlotScale
1070
     4
1000
1:1
1002
{
1002
}
1000
Revisi
1070
     4
1000
0
1002
{
1002
}
1000
Version
1070
    -5
1000
13.1/May  9 1996
1002
{
1002
}
1000
Platform
1070
    -5
1000
WINNT
1002
{
1002
}
1002
}
1000
DwgVar
1070
     0
1002
{
1000
M
1070
     0
1002
{
1002
}
1000
I
1070
     0
1002
{
1002
}
1002
}
1000
Hatch
1070
     0
1002
{
1000
GenHtcFlag
1070
     3
1070
     0
1002
{
1002
}
1002
}
1000
Info_Pos
1070
     0
1002
{
1000
DescrText
1070
     4
1000
5,6,7,8
1002
{
1002
}
1000
Attrib
1070
     0
1002
{
1000
0
1070
     6
1002
{
1000
Prompt
1070
     4
1000
(genmsg gendwg 103)
1002
{
1002
}
1000
Value
1070
     4
1000

1002
{
1002
}
1000
EditFlag
1070
     1
1070
     0
1002
{
1002
}
1002
}
1000
1
1070
     6
1002
{
1000
Prompt
1070
     4
1000
(genmsg gendwg 31)
1002
{
1002
}
1000
Value
1070
     4
1000
1
1002
{
1002
}
1000
EditFlag
1070
     1
1070
     1
1002
{
1002
}
1002
}
1000
2
1070
     6
1002
{
1000
Prompt
1070
     4
1000
(genmsg gendwg 32)
1002
{
1002
}
1000
Value
1070
     4
1000
1
1002
{
1002
}
1000
EditFlag
1070
     1
1070
     1
1002
{
1002
}
1002
}
1000
3
1070
     6
1002
{
1000
Prompt
1070
     4
1000
(genmsg gendwg 33)
1002
{
1002
}
1000
Value
1070
     4
1000

1002
{
1002
}
1000
EditFlag
1070
     1
1070
     1
1002
{
1002
}
1002
}
1000
4
1070
     6
1002
{
1000
Prompt
1070
     4
1000
(genmsg gendwg 34)
1002
{
1002
}
1000
Value
1070
     4
1000

1002
{
1002
}
1000
EditFlag
1070
     1
1070
     1
1002
{
1002
}
1002
}
1000
5
1070
     6
1002
{
1000
Prompt
1070
     4
1000
(genmsg gendwg 35)
1002
{
1002
}
1000
Value
1070
     4
1000

1002
{
1002
}
1000
EditFlag
1070
     1
1070
     1
1002
{
1002
}
1002
}
1000
6
1070
     6
1002
{
1000
Prompt
1070
     4
1000
(genmsg gendwg 36)
1002
{
1002
}
1000
Value
1070
     4
1000

1002
{
1002
}
1000
EditFlag
1070
     1
1070
     1
1002
{
1002
}
1002
}
1000
7
1070
     6
1002
{
1000
Prompt
1070
     4
1000
(genmsg gendwg 37)
1002
{
1002
}
1000
Value
1070
     4
1000

1002
{
1002
}
1000
EditFlag
1070
     1
1070
     1
1002
{
1002
}
1002
}
1000
8
1070
     6
1002
{
1000
Prompt
1070
     4
1000
(genmsg gendwg 38)
1002
{
1002
}
1000
Value
1070
     4
1000

1002
{
1002
}
1000
EditFlag
1070
     1
1070
     1
1002
{
1002
}
1002
}
1000
9
1070
     6
1002
{
1000
Prompt
1070
     4
1000
(genmsg gendwg 39)
1002
{
1002
}
1000
Value
1070
     4
1000

1002
{
1002
}
1000
EditFlag
1070
     1
1070
     1
1002
{
1002
}
1002
}
1000
10
1070
     6
1002
{
1000
Prompt
1070
     4
1000
(genmsg gendwg 40)
1002
{
1002
}
1000
Value
1070
     4
1000

1002
{
1002
}
1000
EditFlag
1070
     1
1070
     1
1002
{
1002
}
1002
}
1000
11
1070
     6
1002
{
1000
Prompt
1070
     4
1000
(genmsg gendwg 41)
1002
{
1002
}
1000
Value
1070
     4
1000

1002
{
1002
}
1000
EditFlag
1070
     1
1070
     1
1002
{
1002
}
1002
}
1000
12
1070
     6
1002
{
1000
Prompt
1070
     4
1000
(genmsg gendwg 42)
1002
{
1002
}
1000
Value
1070
     4
1000

1002
{
1002
}
1000
EditFlag
1070
     1
1070
     1
1002
{
1002
}
1002
}
1000
13
1070
     6
1002
{
1000
Prompt
1070
     4
1000
(genmsg gendwg 43)
1002
{
1002
}
1000
Value
1070
     4
1000

1002
{
1002
}
1000
EditFlag
1070
     1
1070
     1
1002
{
1002
}
1002
}
1000
14
1070
     6
1002
{
1000
Prompt
1070
     4
1000
(genmsg gendwg 44)
1002
{
1002
}
1000
Value
1070
     4
1000

1002
{
1002
}
1000
EditFlag
1070
     1
1070
     1
1002
{
1002
}
1002
}
1000
15
1070
     6
1002
{
1000
Prompt
1070
     4
1000
(genmsg gendwg 45)
1002
{
1002
}
1000
Value
1070
     4
1000

1002
{
1002
}
1000
EditFlag
1070
     1
1070
     1
1002
{
1002
}
1002
}
1000
16
1070
     6
1002
{
1000
Prompt
1070
     4
1000
(genmsg gendwg 46)
1002
{
1002
}
1000
Value
1070
     4
1000

1002
{
1002
}
1000
EditFlag
1070
     1
1070
     1
1002
{
1002
}
1002
}
1000
17
1070
     6
1002
{
1000
Prompt
1070
     4
1000
(genmsg gendwg 47)
1002
{
1002
}
1000
Value
1070
     4
1000

1002
{
1002
}
1000
EditFlag
1070
     1
1070
     1
1002
{
1002
}
1002
}
1000
18
1070
     6
1002
{
1000
Prompt
1070
     4
1000
(genmsg gendwg 48)
1002
{
1002
}
1000
Value
1070
     4
1000

1002
{
1002
}
1000
EditFlag
1070
     1
1070
     1
1002
{
1002
}
1002
}
1000
19
1070
     6
1002
{
1000
Prompt
1070
     4
1000
(genmsg gendwg 99)
1002
{
1002
}
1000
Value
1070
     4
1000

1002
{
1002
}
1000
EditFlag
1070
     1
1070
     1
1002
{
1002
}
1002
}
1000
20
1070
     6
1002
{
1000
Prompt
1070
     4
1000
(genmsg gendwg 100)
1002
{
1002
}
1000
Value
1070
     4
1000

1002
{
1002
}
1000
EditFlag
1070
     1
1070
     1
1002
{
1002
}
1002
}
1000
21
1070
     6
1002
{
1000
Prompt
1070
     4
1000
(genmsg gendwg 101)
1002
{
1002
}
1000
Value
1070
     4
1000

1002
{
1002
}
1000
EditFlag
1070
     1
1070
     1
1002
{
1002
}
1002
}
1000
22
1070
     6
1002
{
1000
Prompt
1070
     4
1000
(genmsg gendwg 102)
1002
{
1002
}
1000
Value
1070
     4
1000

1002
{
1002
}
1000
EditFlag
1070
     1
1070
     1
1002
{
1002
}
1002
}
1000
23
1070
     6
1002
{
1000
Prompt
1070
     4
1000
(genmsg gendwg 30)
1002
{
1002
}
1000
Value
1070
     4
1000

1002
{
1002
}
1000
EditFlag
1070
     1
1070
     1
1002
{
1002
}
1002
}
1000
24
1070
     6
1002
{
1000
Prompt
1070
     4
1000
(genmsg gendwg 104)
1002
{
1002
}
1000
Value
1070
     4
1000

1002
{
1002
}
1000
EditFlag
1070
     1
1070
     1
1002
{
1002
}
1002
}
1002
}
1000
Xlate
1070
     0
1002
{
1000
>
1002
}
1002
}
1000
Layer
1070
     7
1002
{
1000
Defs
1070
     0
1002
{
1000
>
1002
}
1000
EntSort
1070
     0
1002
{
1000
>
1002
}
1000
Match
1070
     0
1002
{
1002
}
1000
Settings
1070
     0
1002
{
1000
FocGrNC
1070
     3
1070
     0
1002
{
1002
}
1000
FocGrLo
1070
     3
1070
     0
1002
{
1002
}
1000
FocLoNC
1070
     3
1070
     0
1002
{
1002
}
1000
FocusCol
1070
     1
1070
   253
1002
{
1002
}
1000
GenStdLG
1070
     4
1000

1002
{
1002
}
1000
LayMatch
1070
     3
1070
     0
1002
{
1002
}
1000
LgOff
1070
     3
1070
     0
1002
{
1002
}
1000
CurLG
1070
    -5
1000

1002
{
1002
}
1002
}
1002
}
1000
LType
1070
     0
1002
{
1000
GEN3
1070
     8
1000
genius.lin
1002
{
1002
}
1000
GEN7
1070
     8
1000
genius.lin
1002
{
1002
}
1000
GEN4A
1070
     8
1000
genius.lin
1002
{
1002
}
1000
GEN3A
1070
     8
1000
genius.lin
1002
{
1002
}
1000
GEN7A
1070
     8
1000
genius.lin
1002
{
1002
}
1000
GENZIGZAG
1070
     8
1000
genius.lin
1002
{
1002
}
1002
}
1000
Objecter
1070
     0
1002
{
1000
CreateGroups
1070
     3
1070
     0
1002
{
1002
}
1000
LaySwitch
1070
     3
1070
     1
1002
{
1002
}
1000
LastObj
1070
    -5
1000
1242
1002
{
1002
}
1002
}
1000
OSWiz
1070
     0
1002
{
1000
>
1002
}
1000
PaList
1070
     0
1002
{
1000
AutoUpdatePartList
1070
     3
1070
     0
1002
{
1002
}
1000
ReadInfoPoint
1070
     3
1070
     0
1002
{
1002
}
1000
ReadPosNr
1070
     3
1070
     1
1002
{
1002
}
1000
RevStr
1070
     4
1000
0
1002
{
1002
}
1000
rebuildpending
1070
    -4
1070
     1
1002
{
1002
}
1000
rebuildpendingtime
1070
    -5
1000
893333639
1002
{
1002
}
1002
}
1000
Paper
1070
     0
1002
{
1002
}
1000
PartDB
1070
     0
1002
{
1000
GenDbOwner
1070
     4
1000

1002
{
1002
}
1002
}
1000
System
1070
     0
1002
{
1000
Menu
1070
     4
1000
GEV
1002
{
1002
}
1002
}
1000
Title
1070
     0
1002
{
1000
MakeView
1070
     1
1070
     2
1002
{
1002
}
1002
}
  0
APPID
  5
2F
100
AcDbSymbolTableRecord
100
AcDbRegAppTableRecord
  2
GENIUS_GEVCFG0_13
 70
     0
1001
GENIUS_GENCFG_13
1071
862825278
1000
2F
1000
GEV
1070
     1
1000
GenCfgObject
1000
System
1070
     0
1002
{
1002
}
1000
VED
1070
     0
1002
{
1002
}
  0
APPID
  5
33
100
AcDbSymbolTableRecord
100
AcDbRegAppTableRecord
  2
GENIUS_GEFCFG0_13
 70
     0
1001
GENIUS_GENCFG_13
1071
893333608
1000
33
1000
GEF
1070
     5
1000
GenCfgObject
1000
GenCfgString
1000
GenCfgReal
1000
GenCfgShort
1000
GenCfgBool
1000
System
1070
     0
1002
{
1002
}
1000
Prese
1070
     0
1002
{
1000
Funk
1070
     1
1000

1002
{
1002
}
1000
FunkDef
1070
     1
1000

1002
{
1002
}
1000
GefIso
1070
     1
1000
DIN
1002
{
1002
}
1002
}
1000
FEM
1070
     0
1002
{
1000
LayGroup
1070
     1
1000
FEM
1002
{
1002
}
1000
IncrCoef
1070
     2
1040
0.0
1002
{
1002
}
1002
}
1000
Shaft
1070
     0
1002
{
1000
Interrupt
1070
     3
1070
     0
1002
{
1002
}
1002
}
1000
PartDb
1070
     0
1002
{
1000
PartCreate
1070
     0
1002
{
1002
}
1002
}
1000
Symbol
1070
     0
1002
{
1000
WeldStyle
1070
     1
1000
ISO
1002
{
1002
}
1000
WeldSize
1070
     2
1040
1.0
1002
{
1002
}
1000
WeldFlag
1070
     4
1070
     1
1002
{
1002
}
1000
WeldOffset
1070
     4
1070
     1
1002
{
1002
}
1000
TolCType
1070
     1
1000
ISO
1002
{
1002
}
1000
TolCSize
1070
     2
1040
1.0
1002
{
1002
}
1000
STextureSize
1070
     2
1040
1.0
1002
{
1002
}
1000
SurfaceType
1070
     1
1000

1002
{
1002
}
1000
M
1070
     0
1002
{
1000
WeldWidth
1070
     2
1040
3.0
1002
{
1002
}
1002
}
1000
I
1070
     0
1002
{
1000
WeldWidth
1070
     2
1040
0.125
1002
{
1002
}
1002
}
1002
}
  0
APPID
  5
3C
100
AcDbSymbolTableRecord
100
AcDbRegAppTableRecord
  2
GENIUS_GENOENT_13
 70
     0
  0
APPID
  5
72
100
AcDbSymbolTableRecord
100
AcDbRegAppTableRecord
  2
GENIUS_GENINF13_13
 70
     0
  0
APPID
  5
73
100
AcDbSymbolTableRecord
100
AcDbRegAppTableRecord
  2
GENIUS_GENODEF_13
 70
     0
1001
GENIUS_GENOBJ_13
1070
     1
  0
APPID
  5
74
100
AcDbSymbolTableRecord
100
AcDbRegAppTableRecord
  2
GENIUS_GENOBJ-N-INFOPT_13
 70
     0
  0
APPID
  5
75
100
AcDbSymbolTableRecord
100
AcDbRegAppTableRecord
  2
GENIUS_GENOBJ_13
 70
     0
1001
GENIUS_GENODEF_13
1070
     1
1001
GENIUS_GENOENT_13
1070
     1
1001
GENIUS_GENOLIS_13
1070
     1
1001
GENIUS_GENOREF_13
1070
     1
1001
GENIUS_GENOBJ-N-RSSYM_13
1070
     1
1001
GENIUS_GENSYMENT_13
1070
     1
1001
GENIUS_GENOBJ-N-CRS_13
1070
     0
1001
GENIUS_GENOBJ-NBEHI-BHF_13
1070
     0
1001
GENIUS_GENOBJ-NBEHI-BHB_13
1070
     0
1001
GENIUS_GENBH_13
1070
     1
1001
GENIUS_GENOBJ-F-PART_13
1070
     0
1001
GENIUS_GEFSTDP_13
1070
     0
  0
APPID
  5
76
100
AcDbSymbolTableRecord
100
AcDbRegAppTableRecord
  2
GENIUS_GENOLIS_13
 70
     0
1001
GENIUS_GENOBJ_13
1070
     1
  0
APPID
  5
77
100
AcDbSymbolTableRecord
100
AcDbRegAppTableRecord
  2
GENIUS_GENOREF_13
 70
     0
1001
GENIUS_GENOBJ_13
1070
     1
  0
APPID
  5
78
100
AcDbSymbolTableRecord
100
AcDbRegAppTableRecord
  2
GENIUS_GENOBJ-N-RSSYM_13
 70
     0
1001
GENIUS_GENOBJ_13
1070
     1
  0
APPID
  5
79
100
AcDbSymbolTableRecord
100
AcDbRegAppTableRecord
  2
GENIUS_GENSYMENT_13
 70
     0
1001
GENIUS_GENOBJ_13
1070
     1
  0
APPID
  5
7A
100
AcDbSymbolTableRecord
100
AcDbRegAppTableRecord
  2
GENIUS_GENSCSYM_13
 70
     0
  0
APPID
  5
7B
100
AcDbSymbolTableRecord
100
AcDbRegAppTableRecord
  2
GENIUS_GENOBJ-N-CRS_13
 70
     0
1001
GENIUS_GENOBJ_13
1070
     0
  0
APPID
  5
7C
100
AcDbSymbolTableRecord
100
AcDbRegAppTableRecord
  2
GENIUS_GENBH_13
 70
     0
1001
GENIUS_GENOBJ_13
1070
     1
  0
APPID
  5
7D
100
AcDbSymbolTableRecord
100
AcDbRegAppTableRecord
  2
GENIUS_GENOBJ-NBEHI-BHF_13
 70
     0
1001
GENIUS_GENOBJ_13
1070
     0
  0
APPID
  5
7E
100
AcDbSymbolTableRecord
100
AcDbRegAppTableRecord
  2
GENIUS_GENOBJ-NBEHI-BHB_13
 70
     0
1001
GENIUS_GENOBJ_13
1070
     0
  0
APPID
  5
7F
100
AcDbSymbolTableRecord
100
AcDbRegAppTableRecord
  2
GENIUS_GENOBJ-F-PART_13
 70
     0
1001
GENIUS_GENOBJ_13
1070
     0
  0
APPID
  5
80
100
AcDbSymbolTableRecord
100
AcDbRegAppTableRecord
  2
GENIUS_GEFSTDP_13
 70
     0
1001
GENIUS_GENOBJ_13
1070
     0
  0
APPID
  5
81
100
AcDbSymbolTableRecord
100
AcDbRegAppTableRecord
  2
GENIUS_GENOBJ-N-CEN_13
 70
     0
  0
APPID
  5
82
100
AcDbSymbolTableRecord
100
AcDbRegAppTableRecord
  2
GENIUS_GENOBJ-N-FIL_13
 70
     0
  0
APPID
  5
DC0
100
AcDbSymbolTableRecord
100
AcDbRegAppTableRecord
  2
GENIUS_GENOBJ-N-RSBK_13
 70
     0
  0
APPID
  5
DC1
100
AcDbSymbolTableRecord
100
AcDbRegAppTableRecord
  2
GENIUS_GENOBJ-N-LIB_13
 70
     0
  0
APPID
  5
DC2
100
AcDbSymbolTableRecord
100
AcDbRegAppTableRecord
  2
GENIUS_GENSCALE_13
 70
     0
  0
ENDTAB
  0
TABLE
  2
DIMSTYLE
  5
A
100
AcDbSymbolTable
 70
     1
  0
DIMSTYLE
105
1D
100
AcDbSymbolTableRecord
100
AcDbDimStyleTableRecord
  2
STANDARD
 70
     0
  3

  4

  5

  6

  7

 40
1.0
 41
0.18
 42
0.0625
 43
0.38
 44
0.18
 45
0.0
 46
0.0
 47
0.0
 48
0.0
140
0.18
141
0.09
142
0.0
143
25.4
144
1.0
145
0.0
146
1.0
147
0.09
 71
     0
 72
     0
 73
     1
 74
     1
 75
     0
 76
     0
 77
     0
 78
     0
170
     0
171
     2
172
     0
173
     0
174
     0
175
     0
176
     0
177
     0
178
     0
270
     2
271
     4
272
     4
273
     2
274
     2
340
10
275
     0
280
     0
281
     0
282
     0
283
     1
284
     0
285
     0
286
     0
287
     3
288
     0
  0
ENDTAB
  0
TABLE
  2
BLOCK_RECORD
  5
1
100
AcDbSymbolTable
 70
     3
  0
BLOCK_RECORD
  5
1A
100
AcDbSymbolTableRecord
100
AcDbBlockTableRecord
  2
*MODEL_SPACE
  0
BLOCK_RECORD
  5
17
100
AcDbSymbolTableRecord
100
AcDbBlockTableRecord
  2
*PAPER_SPACE
  0
BLOCK_RECORD
  5
43
100
AcDbSymbolTableRecord
100
AcDbBlockTableRecord
  2
GENINF13
  0
ENDTAB
  0
ENDSEC
  0
SECTION
  2
BLOCKS
  0
BLOCK
  5
1B
100
AcDbEntity
  8
0
100
AcDbBlockBegin
  2
*MODEL_SPACE
 70
     0
 10
0.0
 20
0.0
 30
0.0
  3
*MODEL_SPACE
  1

  0
ENDBLK
  5
1C
100
AcDbEntity
  8
0
100
AcDbBlockEnd
  0
BLOCK
  5
18
100
AcDbEntity
 67
     1
  8
0
100
AcDbBlockBegin
  2
*PAPER_SPACE
 70
     0
 10
0.0
 20
0.0
 30
0.0
  3
*PAPER_SPACE
  1

  0
ENDBLK
  5
19
100
AcDbEntity
 67
     1
  8
0
100
AcDbBlockEnd
  0
BLOCK
  5
68
100
AcDbEntity
  8
0
100
AcDbBlockBegin
  2
GENINF13
 70
    66
 10
0.0
 20
0.0
 30
0.0
  3
GENINF13
  1
GENINF13
  0
CIRCLE
  5
44
100
AcDbEntity
  8
INFO
100
AcDbCircle
 10
-0.107946
 20
1.312244
 30
0.0
 40
0.339067
  0
CIRCLE
  5
45
100
AcDbEntity
  8
INFO
100
AcDbCircle
 10
0.0
 20
0.0
 30
0.0
 40
1.920194
  0
LINE
  5
46
100
AcDbEntity
  8
INFO
100
AcDbLine
 10
0.411344
 20
0.70683
 30
0.0
 11
-0.700006
 21
0.70683
 31
0.0
  0
LINE
  5
47
100
AcDbEntity
  8
INFO
100
AcDbLine
 10
0.829904
 20
-1.341535
 30
0.0
 11
0.829904
 21
-0.555367
 31
0.0
  0
LINE
  5
48
100
AcDbEntity
  8
INFO
100
AcDbLine
 10
0.829904
 20
-0.555367
 30
0.0
 11
0.411344
 21
-0.555367
 31
0.0
  0
LINE
  5
49
100
AcDbEntity
  8
INFO
100
AcDbLine
 10
0.411344
 20
-0.555367
 30
0.0
 11
0.411344
 21
0.70683
 31
0.0
  0
LINE
  5
4A
100
AcDbEntity
  8
INFO
100
AcDbLine
 10
-0.700006
 20
0.70683
 30
0.0
 11
-0.700006
 21
0.122613
 31
0.0
  0
LINE
  5
4B
100
AcDbEntity
  8
INFO
100
AcDbLine
 10
-0.700006
 20
0.122613
 30
0.0
 11
-0.375261
 21
0.122613
 31
0.0
  0
LINE
  5
4C
100
AcDbEntity
  8
INFO
100
AcDbLine
 10
-0.375261
 20
0.122613
 30
0.0
 11
-0.375261
 21
-0.555367
 31
0.0
  0
LINE
  5
4D
100
AcDbEntity
  8
INFO
100
AcDbLine
 10
-0.375261
 20
-0.555367
 30
0.0
 11
-0.801038
 21
-0.555367
 31
0.0
  0
LINE
  5
4E
100
AcDbEntity
  8
INFO
100
AcDbLine
 10
-0.801038
 20
-0.555367
 30
0.0
 11
-0.801038
 21
-1.341535
 31
0.0
  0
LINE
  5
4F
100
AcDbEntity
  8
INFO
100
AcDbLine
 10
-0.801038
 20
-1.341535
 30
0.0
 11
0.829904
 21
-1.341535
 31
0.0
  0
ATTDEF
  5
50
100
AcDbEntity
  8
INFO
100
AcDbText
 10
0.0
 20
0.0
 30
0.0
 40
1.0
  1
1
100
AcDbAttributeDefinition
  3
Menge
  2
2GENINF
 70
     1
  0
ATTDEF
  5
51
100
AcDbEntity
  8
INFO
100
AcDbText
 10
0.0
 20
-1.5
 30
0.0
 40
1.0
  1

100
AcDbAttributeDefinition
  3
Stücklisten-Name
  2
3GENINF
 70
     1
  0
ATTDEF
  5
52
100
AcDbEntity
  8
INFO
100
AcDbText
 10
0.0
 20
-3.0
 30
0.0
 40
1.0
  1

100
AcDbAttributeDefinition
  3
Stücklisten-Pfad
  2
4GENINF
 70
     1
  0
ATTDEF
  5
53
100
AcDbEntity
  8
INFO
100
AcDbText
 10
0.0
 20
-4.5
 30
0.0
 40
1.0
  1

100
AcDbAttributeDefinition
  3
Beschreibung 1
  2
5GENINF
 70
     1
  0
ATTDEF
  5
54
100
AcDbEntity
  8
INFO
100
AcDbText
 10
0.0
 20
-6.0
 30
0.0
 40
1.0
  1

100
AcDbAttributeDefinition
  3
Beschreibung 2
  2
6GENINF
 70
     1
  0
ATTDEF
  5
55
100
AcDbEntity
  8
INFO
100
AcDbText
 10
0.0
 20
-7.5
 30
0.0
 40
1.0
  1

100
AcDbAttributeDefinition
  3
Norm/Lieferant 1
  2
7GENINF
 70
     1
  0
ATTDEF
  5
56
100
AcDbEntity
  8
INFO
100
AcDbText
 10
0.0
 20
-9.0
 30
0.0
 40
1.0
  1

100
AcDbAttributeDefinition
  3
Norm/Lieferant 2
  2
8GENINF
 70
     1
  0
ATTDEF
  5
57
100
AcDbEntity
  8
INFO
100
AcDbText
 10
0.0
 20
-10.5
 30
0.0
 40
1.0
  1

100
AcDbAttributeDefinition
  3
Material 1
  2
9GENINF
 70
     1
  0
ATTDEF
  5
58
100
AcDbEntity
  8
INFO
100
AcDbText
 10
0.0
 20
-12.0
 30
0.0
 40
1.0
  1

100
AcDbAttributeDefinition
  3
Material 2
  2
10GENINF
 70
     1
  0
ATTDEF
  5
59
100
AcDbEntity
  8
INFO
100
AcDbText
 10
0.0
 20
-13.5
 30
0.0
 40
1.0
  1

100
AcDbAttributeDefinition
  3
Identnummer
  2
11GENINF
 70
     1
  0
ATTDEF
  5
5A
100
AcDbEntity
  8
INFO
100
AcDbText
 10
0.0
 20
-15.0
 30
0.0
 40
1.0
  1

100
AcDbAttributeDefinition
  3
Gewicht
  2
12GENINF
 70
     1
  0
ATTDEF
  5
5B
100
AcDbEntity
  8
INFO
100
AcDbText
 10
0.0
 20
-16.5
 30
0.0
 40
1.0
  1

100
AcDbAttributeDefinition
  3
Preis
  2
13GENINF
 70
     1
  0
ATTDEF
  5
5C
100
AcDbEntity
  8
INFO
100
AcDbText
 10
0.0
 20
-18.0
 30
0.0
 40
1.0
  1

100
AcDbAttributeDefinition
  3
Abmessungen
  2
14GENINF
 70
     1
  0
ATTDEF
  5
5D
100
AcDbEntity
  8
INFO
100
AcDbText
 10
0.0
 20
-19.5
 30
0.0
 40
1.0
  1

100
AcDbAttributeDefinition
  3
User 1
  2
15GENINF
 70
     1
  0
ATTDEF
  5
5E
100
AcDbEntity
  8
INFO
100
AcDbText
 10
0.0
 20
-21.0
 30
0.0
 40
1.0
  1

100
AcDbAttributeDefinition
  3
User 2
  2
16GENINF
 70
     1
  0
ATTDEF
  5
5F
100
AcDbEntity
  8
INFO
100
AcDbText
 10
0.0
 20
-22.5
 30
0.0
 40
1.0
  1

100
AcDbAttributeDefinition
  3
User 3
  2
17GENINF
 70
     1
  0
ATTDEF
  5
60
100
AcDbEntity
  8
INFO
100
AcDbText
 10
0.0
 20
-24.0
 30
0.0
 40
1.0
  1

100
AcDbAttributeDefinition
  3
User 4
  2
18GENINF
 70
     1
  0
ATTDEF
  5
61
100
AcDbEntity
  8
INFO
100
AcDbText
 10
0.0
 20
-25.5
 30
0.0
 40
1.0
  1

100
AcDbAttributeDefinition
  3
User 5
  2
19GENINF
 70
     1
  0
ATTDEF
  5
62
100
AcDbEntity
  8
INFO
100
AcDbText
 10
0.0
 20
-27.0
 30
0.0
 40
1.0
  1

100
AcDbAttributeDefinition
  3
User 6
  2
20GENINF
 70
     1
  0
ATTDEF
  5
63
100
AcDbEntity
  8
INFO
100
AcDbText
 10
0.0
 20
-28.5
 30
0.0
 40
1.0
  1

100
AcDbAttributeDefinition
  3
User 7
  2
21GENINF
 70
     1
  0
ATTDEF
  5
64
100
AcDbEntity
  8
INFO
100
AcDbText
 10
0.0
 20
-30.0
 30
0.0
 40
1.0
  1

100
AcDbAttributeDefinition
  3
User 8
  2
22GENINF
 70
     1
  0
ATTDEF
  5
65
100
AcDbEntity
  8
INFO
100
AcDbText
 10
0.0
 20
-31.5
 30
0.0
 40
1.0
  1

100
AcDbAttributeDefinition
  3
Filter
  2
23GENINF
 70
     1
  0
ATTDEF
  5
66
100
AcDbEntity
  8
INFO
100
AcDbText
 10
0.0
 20
-33.0
 30
0.0
 40
1.0
  1

100
AcDbAttributeDefinition
  3
Bemerkung
  2
24GENINF
 70
     1
  0
ATTDEF
  5
67
100
AcDbEntity
  8
INFO
100
AcDbText
 10
0.0
 20
-34.5
 30
0.0
 40
1.0
  1

100
AcDbAttributeDefinition
  3
Genius Normteile ID
  2
0GENINF
 70
     1
  0
ENDBLK
  5
69
100
AcDbEntity
  8
0
100
AcDbBlockEnd
  0
ENDSEC
  0
SECTION
  2
ENTITIES
  0
LINE
  5
DC3
100
AcDbEntity
  8
MSL3_160_3F-7
100
AcDbLine
 10
343.015759
 20
209.723367
 30
0.0
 11
337.015759
 21
209.723367
 31
0.0
  0
ARC
  5
DC4
100
AcDbEntity
  8
MSL3_160_3F-4
100
AcDbCircle
 10
343.015759
 20
209.723367
 30
0.0
 40
3.0
100
AcDbArc
 50
353.599193
 51
276.865645
  0
CIRCLE
  5
DC5
100
AcDbEntity
  8
MSL3_160_3F-0
100
AcDbCircle
 10
343.015759
 20
209.723367
 30
0.0
 40
2.5
  0
LINE
  5
DC6
100
AcDbEntity
  8
MSL3_160_3F-7
100
AcDbLine
 10
343.015759
 20
169.723367
 30
0.0
 11
337.015759
 21
169.723367
 31
0.0
  0
ARC
  5
DC7
100
AcDbEntity
  8
MSL3_160_3F-4
100
AcDbCircle
 10
343.015759
 20
169.723367
 30
0.0
 40
3.0
100
AcDbArc
 50
353.599193
 51
276.865645
  0
CIRCLE
  5
DC8
100
AcDbEntity
  8
MSL3_160_3F-0
100
AcDbCircle
 10
343.015759
 20
169.723367
 30
0.0
 40
2.5
  0
LINE
  5
DC9
100
AcDbEntity
  8
MSL3_160_3F-7
100
AcDbLine
 10
343.015759
 20
20.0
 30
0.0
 11
337.015759
 21
20.0
 31
0.0
  0
CIRCLE
  5
DCA
100
AcDbEntity
  8
MSL3_160_3F-0
100
AcDbCircle
 10
343.015759
 20
20.0
 30
0.0
 40
2.5
  0
ARC
  5
DCB
100
AcDbEntity
  8
MSL3_160_3F-4
100
AcDbCircle
 10
343.015759
 20
20.0
 30
0.0
 40
3.0
100
AcDbArc
 50
83.134355
 51
6.400807
  0
LINE
  5
DCC
100
AcDbEntity
  8
MSL3_160_3F-7
100
AcDbLine
 10
343.015759
 20
-20.0
 30
0.0
 11
337.015759
 21
-20.0
 31
0.0
  0
CIRCLE
  5
DCD
100
AcDbEntity
  8
MSL3_160_3F-0
100
AcDbCircle
 10
343.015759
 20
-20.0
 30
0.0
 40
2.5
  0
ARC
  5
DCE
100
AcDbEntity
  8
MSL3_160_3F-4
100
AcDbCircle
 10
343.015759
 20
-20.0
 30
0.0
 40
3.0
100
AcDbArc
 50
83.134355
 51
6.400807
  0
LINE
  5
DCF
100
AcDbEntity
  8
MSL3_160_3F-7
100
AcDbLine
 10
343.015759
 20
-126.21129
 30
0.0
 11
337.015759
 21
-126.21129
 31
0.0
  0
ARC
  5
DD0
100
AcDbEntity
  8
MSL3_160_3F-3
100
AcDbCircle
 10
343.015759
 20
-126.21129
 30
0.0
 40
3.0
100
AcDbArc
 50
353.599193
 51
276.865645
  0
CIRCLE
  5
DD1
100
AcDbEntity
  8
MSL3_160_3F-3
100
AcDbCircle
 10
343.015759
 20
-126.21129
 30
0.0
 40
2.5
  0
LINE
  5
DD2
100
AcDbEntity
  8
MSL3_160_3F-7
100
AcDbLine
 10
343.015759
 20
-166.21129
 30
0.0
 11
337.015759
 21
-166.21129
 31
0.0
  0
ARC
  5
DD3
100
AcDbEntity
  8
MSL3_160_3F-3
100
AcDbCircle
 10
343.015759
 20
-166.21129
 30
0.0
 40
3.0
100
AcDbArc
 50
353.599193
 51
276.865645
  0
CIRCLE
  5
DD4
100
AcDbEntity
  8
MSL3_160_3F-3
100
AcDbCircle
 10
343.015759
 20
-166.21129
 30
0.0
 40
2.5
  0
LINE
  5
DD5
100
AcDbEntity
  8
MSL3_160_3F-0
100
AcDbLine
 10
173.515759
 20
-97.21129
 30
0.0
 11
346.911241
 21
-97.21129
 31
0.0
  0
LINE
  5
DD6
100
AcDbEntity
  8
MSL3_160_3F-7
100
AcDbLine
 10
357.515759
 20
-101.103885
 30
0.0
 11
340.515759
 21
-101.103899
 31
0.0
1001
GENIUS_GENODEF_13
1002
{
1000
HIER
1070
     0
1002
}
1002
{
1000
MANEDIT
1070
     0
1002
}
1002
{
1000
NOSEL
1070
     0
1002
}
1002
{
1000
BEHIND
1070
     0
1002
}
1002
{
1000
REACTOR
1002
}
1001
GENIUS_GENOBJ-N-CEN_13
1002
{
1000
OWNER
1000
GEN
1002
}
  0
LINE
  5
DD7
100
AcDbEntity
  8
MSL3_160_3F-7
100
AcDbLine
 10
210.992415
 20
189.723367
 30
0.0
 11
353.523285
 21
189.723367
 31
0.0
  0
LINE
  5
DD8
100
AcDbEntity
  8
MSL3_160_3F-0
100
AcDbLine
 10
357.515759
 20
25.0
 30
0.0
 11
231.665759
 21
25.0
 31
0.0
  0
LINE
  5
DD9
100
AcDbEntity
  8
MSL3_160_3F-7
100
AcDbLine
 10
210.992415
 20
-146.21129
 30
0.0
 11
353.523285
 21
-146.21129
 31
0.0
  0
LINE
  5
DDA
100
AcDbEntity
  8
MSL3_160_3F-0
100
AcDbLine
 10
393.015759
 20
139.723367
 30
0.0
 11
173.015759
 21
139.723367
 31
0.0
  0
LINE
  5
DDB
100
AcDbEntity
  8
MSL3_160_3F-0
100
AcDbLine
 10
173.015759
 20
239.723367
 30
0.0
 11
393.015759
 21
239.723367
 31
0.0
  0
LINE
  5
DDC
100
AcDbEntity
  8
MSL3_160_3F-0
100
AcDbLine
 10
173.015759
 20
-25.0
 30
0.0
 11
393.015759
 21
-25.0
 31
0.0
  0
LINE
  5
DDD
100
AcDbEntity
  8
MSL3_160_3F-0
100
AcDbLine
 10
393.015759
 20
25.0
 30
0.0
 11
173.015759
 21
25.0
 31
0.0
  0
LINE
  5
DDE
100
AcDbEntity
  8
MSL3_160_3F-4
100
AcDbLine
 10
392.515759
 20
45.406945
 30
0.0
 11
173.515759
 21
45.406945
 31
0.0
  0
LINE
  5
DDF
100
AcDbEntity
  8
MSL3_160_3F-0
100
AcDbLine
 10
392.515759
 20
81.0
 30
0.0
 11
173.515759
 21
81.0
 31
0.0
  0
LINE
  5
DE0
100
AcDbEntity
  8
MSL3_160_3F-0
100
AcDbLine
 10
219.120277
 20
-195.21129
 30
0.0
 11
392.515759
 21
-195.21129
 31
0.0
  0
LINE
  5
DE1
100
AcDbEntity
  8
MSL3_160_3F-0
100
AcDbLine
 10
393.015759
 20
-196.21129
 30
0.0
 11
173.015759
 21
-196.21129
 31
0.0
  0
LINE
  5
DE2
100
AcDbEntity
  8
MSL3_160_3F-0
100
AcDbLine
 10
173.015759
 20
-96.21129
 30
0.0
 11
393.015759
 21
-96.21129
 31
0.0
  0
LINE
  5
DE3
100
AcDbEntity
  8
MSL3_160_3F-4
100
AcDbLine
 10
173.515759
 20
-153.176645
 30
0.0
 11
392.515759
 21
-153.176645
 31
0.0
  0
LINE
  5
DE4
100
AcDbEntity
  8
MSL3_160_3F-4
100
AcDbLine
 10
173.515759
 20
-139.245934
 30
0.0
 11
392.515759
 21
-139.245934
 31
0.0
  0
LINE
  5
DE5
100
AcDbEntity
  8
MSL3_160_3F-7
100
AcDbLine
 10
130.015759
 20
0.0
 30
0.0
 11
596.015759
 21
0.0
 31
0.0
  0
ARC
  5
DE7
100
AcDbEntity
  8
MSL3_160_3F-0
100
AcDbCircle
 10
47.0
 20
45.406945
 30
0.0
 40
2.0
100
AcDbArc
 50
0.0
 51
50.0
1001
GENIUS_GENODEF_13
1002
{
1000
HIER
1070
     0
1002
}
1002
{
1000
MANEDIT
1070
     0
1002
}
1002
{
1000
NOSEL
1070
     0
1002
}
1002
{
1000
BEHIND
1070
     0
1002
}
1002
{
1000
REACTOR
1002
}
1001
GENIUS_GENOBJ-N-FIL_13
1002
{
1000
OWNER
1000
GEN
1002
}
  0
LINE
  5
DE8
100
AcDbEntity
  8
MSL3_160_3F-0
100
AcDbLine
 10
48.035062
 20
47.149239
 30
0.0
 11
49.320638
 21
48.681328
 31
0.0
  0
LINE
  5
DE9
100
AcDbEntity
  8
MSL3_160_3F-3
100
AcDbLine
 10
50.0
 20
17.0
 30
0.0
 11
38.0
 21
17.0
 31
0.0
  0
LINE
  5
DEA
100
AcDbEntity
  8
MSL3_160_3F-3
100
AcDbLine
 10
50.0
 20
23.0
 30
0.0
 11
38.0
 21
23.0
 31
0.0
  0
LINE
  5
DEB
100
AcDbEntity
  8
MSL3_160_3F-0
100
AcDbLine
 10
49.320638
 20
48.681328
 30
0.0
 11
40.894149
 21
55.751992
 31
0.0
  0
LINE
  5
DEC
100
AcDbEntity
  8
MSL3_160_3F-3
100
AcDbLine
 10
50.0
 20
-17.0
 30
0.0
 11
38.0
 21
-17.0
 31
0.0
  0
LINE
  5
DED
100
AcDbEntity
  8
MSL3_160_3F-3
100
AcDbLine
 10
50.0
 20
-23.0
 30
0.0
 11
38.0
 21
-23.0
 31
0.0
  0
LINE
  5
DEE
100
AcDbEntity
  8
MSL3_160_3F-0
100
AcDbLine
 10
50.0
 20
-26.0
 30
0.0
 11
-50.0
 21
-26.0
 31
0.0
  0
LINE
  5
DEF
100
AcDbEntity
  8
MSL3_160_3F-3
100
AcDbLine
 10
-50.0
 20
-25.0
 30
0.0
 11
50.0
 21
-25.0
 31
0.0
  0
LINE
  5
DF0
100
AcDbEntity
  8
MSL3_160_3F-3
100
AcDbLine
 10
50.0
 20
-22.459
 30
0.0
 11
34.0
 21
-22.459
 31
0.0
  0
LINE
  5
DF1
100
AcDbEntity
  8
MSL3_160_3F-3
100
AcDbLine
 10
50.0
 20
-17.541
 30
0.0
 11
34.0
 21
-17.541
 31
0.0
  0
LINE
  5
DF2
100
AcDbEntity
  8
MSL3_160_3F-3
100
AcDbLine
 10
-50.0
 20
25.0
 30
0.0
 11
50.0
 21
25.0
 31
0.0
  0
LINE
  5
DF3
100
AcDbEntity
  8
MSL3_160_3F-0
100
AcDbLine
 10
7.335221
 20
80.0
 30
0.0
 11
50.0
 21
44.2
 31
0.0
  0
LINE
  5
DF4
100
AcDbEntity
  8
MSL3_160_3F-3
100
AcDbLine
 10
50.0
 20
17.541
 30
0.0
 11
34.0
 21
17.541
 31
0.0
  0
LINE
  5
DF5
100
AcDbEntity
  8
MSL3_160_3F-3
100
AcDbLine
 10
50.0
 20
22.459
 30
0.0
 11
34.0
 21
22.459
 31
0.0
  0
LINE
  5
DF6
100
AcDbEntity
  8
MSL3_160_3F-7
100
AcDbLine
 10
29.580296
 20
-20.0
 30
0.0
 11
53.0
 21
-20.0
 31
0.0
  0
LINE
  5
DF7
100
AcDbEntity
  8
MSL3_160_3F-7
100
AcDbLine
 10
29.580296
 20
20.0
 30
0.0
 11
53.0
 21
20.0
 31
0.0
  0
LINE
  5
DF8
100
AcDbEntity
  8
MSL3_160_3F-7
100
AcDbLine
 10
20.0
 20
6.0
 30
0.0
 11
20.0
 21
-6.0
 31
0.0
  0
LINE
  5
DF9
100
AcDbEntity
  8
MSL3_160_3F-7
100
AcDbLine
 10
-20.0
 20
6.0
 30
0.0
 11
-20.0
 21
-6.0
 31
0.0
  0
LINE
  5
DFA
100
AcDbEntity
  8
MSL3_160_3F-0
100
AcDbLine
 10
-50.0
 20
-26.0
 30
0.0
 11
-50.0
 21
44.2
 31
0.0
  0
LINE
  5
DFB
100
AcDbEntity
  8
MSL3_160_3F-7
100
AcDbLine
 10
-35.0
 20
0.0
 30
0.0
 11
-35.0
 21
8.580296
 31
0.0
  0
LINE
  5
DFC
100
AcDbEntity
  8
MSL3_160_3F-7
100
AcDbLine
 10
0.0
 20
0.0
 30
0.0
 11
0.0
 21
8.0
 31
0.0
  0
LINE
  5
DFD
100
AcDbEntity
  8
MSL3_160_3F-7
100
AcDbLine
 10
35.0
 20
0.0
 30
0.0
 11
35.0
 21
8.580296
 31
0.0
  0
LINE
  5
DFE
100
AcDbEntity
  8
MSL3_160_3F-7
100
AcDbLine
 10
-26.0
 20
0.0
 30
0.0
 11
-14.0
 21
0.0
 31
0.0
  0
LINE
  5
DFF
100
AcDbEntity
  8
MSL3_160_3F-7
100
AcDbLine
 10
-28.5
 20
-20.0
 30
0.0
 11
-11.5
 21
-20.0
 31
0.0
  0
CIRCLE
  5
E00
100
AcDbEntity
  8
MSL3_160_3F-3
100
AcDbCircle
 10
-20.0
 20
-20.0
 30
0.0
 40
5.5
  0
LINE
  5
E01
100
AcDbEntity
  8
MSL3_160_3F-3
100
AcDbLine
 10
-38.0
 20
-23.0
 30
0.0
 11
-38.0
 21
-17.0
 31
0.0
  0
LINE
  5
E02
100
AcDbEntity
  8
MSL3_160_3F-3
100
AcDbLine
 10
-34.0
 20
-22.459
 30
0.0
 11
-34.0
 21
-17.541
 31
0.0
  0
LINE
  5
E03
100
AcDbEntity
  8
MSL3_160_3F-3
100
AcDbLine
 10
-32.580296
 20
-20.0
 30
0.0
 11
-34.0
 21
-17.541
 31
0.0
  0
LINE
  5
E04
100
AcDbEntity
  8
MSL3_160_3F-3
100
AcDbLine
 10
-37.459
 20
-26.0
 30
0.0
 11
-37.459
 21
-10.0
 31
0.0
  0
LINE
  5
E05
100
AcDbEntity
  8
MSL3_160_3F-3
100
AcDbLine
 10
-38.0
 20
-26.0
 30
0.0
 11
-38.0
 21
-14.0
 31
0.0
  0
LINE
  5
E06
100
AcDbEntity
  8
MSL3_160_3F-3
100
AcDbLine
 10
-32.541
 20
-26.0
 30
0.0
 11
-32.541
 21
-10.0
 31
0.0
  0
LINE
  5
E07
100
AcDbEntity
  8
MSL3_160_3F-3
100
AcDbLine
 10
-32.0
 20
-26.0
 30
0.0
 11
-32.0
 21
-14.0
 31
0.0
  0
LINE
  5
E08
100
AcDbEntity
  8
MSL3_160_3F-7
100
AcDbLine
 10
-35.0
 20
-5.580296
 30
0.0
 11
-35.0
 21
-29.0
 31
0.0
  0
LINE
  5
E09
100
AcDbEntity
  8
MSL3_160_3F-3
100
AcDbLine
 10
-50.0
 20
-22.459
 30
0.0
 11
-34.0
 21
-22.459
 31
0.0
  0
LINE
  5
E0A
100
AcDbEntity
  8
MSL3_160_3F-3
100
AcDbLine
 10
-50.0
 20
-23.0
 30
0.0
 11
-38.0
 21
-23.0
 31
0.0
  0
LINE
  5
E0B
100
AcDbEntity
  8
MSL3_160_3F-7
100
AcDbLine
 10
-29.580296
 20
-20.0
 30
0.0
 11
-53.0
 21
-20.0
 31
0.0
  0
LINE
  5
E0C
100
AcDbEntity
  8
MSL3_160_3F-3
100
AcDbLine
 10
-32.580296
 20
-20.0
 30
0.0
 11
-34.0
 21
-22.459
 31
0.0
  0
LINE
  5
E0D
100
AcDbEntity
  8
MSL3_160_3F-7
100
AcDbLine
 10
-35.0
 20
0.0
 30
0.0
 11
-43.580296
 21
0.0
 31
0.0
  0
LINE
  5
E0E
100
AcDbEntity
  8
MSL3_160_3F-3
100
AcDbLine
 10
-50.0
 20
-17.541
 30
0.0
 11
-34.0
 21
-17.541
 31
0.0
  0
LINE
  5
E0F
100
AcDbEntity
  8
MSL3_160_3F-3
100
AcDbLine
 10
-50.0
 20
-17.0
 30
0.0
 11
-38.0
 21
-17.0
 31
0.0
  0
LINE
  5
E10
100
AcDbEntity
  8
MSL3_160_3F-7
100
AcDbLine
 10
-35.0
 20
0.0
 30
0.0
 11
-35.0
 21
-8.580296
 31
0.0
  0
LINE
  5
E11
100
AcDbEntity
  8
MSL3_160_3F-3
100
AcDbLine
 10
-32.0
 20
-14.0
 30
0.0
 11
-38.0
 21
-14.0
 31
0.0
  0
LINE
  5
E12
100
AcDbEntity
  8
MSL3_160_3F-3
100
AcDbLine
 10
-32.541
 20
-10.0
 30
0.0
 11
-37.459
 21
-10.0
 31
0.0
  0
LINE
  5
E13
100
AcDbEntity
  8
MSL3_160_3F-3
100
AcDbLine
 10
-35.0
 20
-8.580296
 30
0.0
 11
-32.541
 21
-10.0
 31
0.0
  0
LINE
  5
E14
100
AcDbEntity
  8
MSL3_160_3F-3
100
AcDbLine
 10
-35.0
 20
-8.580296
 30
0.0
 11
-37.459
 21
-10.0
 31
0.0
  0
LINE
  5
E15
100
AcDbEntity
  8
MSL3_160_3F-7
100
AcDbLine
 10
-35.0
 20
0.0
 30
0.0
 11
-26.419704
 21
0.0
 31
0.0
  0
LINE
  5
E16
100
AcDbEntity
  8
MSL3_160_3F-7
100
AcDbLine
 10
11.5
 20
-20.0
 30
0.0
 11
28.5
 21
-20.0
 31
0.0
  0
CIRCLE
  5
E17
100
AcDbEntity
  8
MSL3_160_3F-0
100
AcDbCircle
 10
0.0
 20
-20.0
 30
0.0
 40
3.0
  0
CIRCLE
  5
E18
100
AcDbEntity
  8
MSL3_160_3F-0
100
AcDbCircle
 10
-20.0
 20
-20.0
 30
0.0
 40
3.3
  0
LINE
  5
E19
100
AcDbEntity
  8
MSL3_160_3F-7
100
AcDbLine
 10
-20.0
 20
-28.5
 30
0.0
 11
-20.0
 21
-11.5
 31
0.0
  0
LINE
  5
E1A
100
AcDbEntity
  8
MSL3_160_3F-7
100
AcDbLine
 10
0.0
 20
-14.0
 30
0.0
 11
0.0
 21
-26.0
 31
0.0
  0
LINE
  5
E1B
100
AcDbEntity
  8
MSL3_160_3F-7
100
AcDbLine
 10
-6.0
 20
-20.0
 30
0.0
 11
6.0
 21
-20.0
 31
0.0
  0
LINE
  5
E1C
100
AcDbEntity
  8
MSL3_160_3F-7
100
AcDbLine
 10
0.0
 20
0.0
 30
0.0
 11
-8.0
 21
0.0
 31
0.0
  0
CIRCLE
  5
E1D
100
AcDbEntity
  8
MSL3_160_3F-0
100
AcDbCircle
 10
-20.0
 20
0.0
 30
0.0
 40
3.0
  0
LINE
  5
E1E
100
AcDbEntity
  8
MSL3_160_3F-7
100
AcDbLine
 10
0.0
 20
0.0
 30
0.0
 11
0.0
 21
-8.0
 31
0.0
  0
LINE
  5
E1F
100
AcDbEntity
  8
MSL3_160_3F-7
100
AcDbLine
 10
0.0
 20
0.0
 30
0.0
 11
8.0
 21
0.0
 31
0.0
  0
LINE
  5
E20
100
AcDbEntity
  8
MSL3_160_3F-3
100
AcDbLine
 10
38.0
 20
-17.0
 30
0.0
 11
38.0
 21
-23.0
 31
0.0
  0
LINE
  5
E21
100
AcDbEntity
  8
MSL3_160_3F-3
100
AcDbLine
 10
32.580296
 20
-20.0
 30
0.0
 11
34.0
 21
-17.541
 31
0.0
  0
LINE
  5
E22
100
AcDbEntity
  8
MSL3_160_3F-3
100
AcDbLine
 10
34.0
 20
-17.541
 30
0.0
 11
34.0
 21
-22.459
 31
0.0
  0
LINE
  5
E23
100
AcDbEntity
  8
MSL3_160_3F-3
100
AcDbLine
 10
37.459
 20
-26.0
 30
0.0
 11
37.459
 21
-10.0
 31
0.0
  0
LINE
  5
E24
100
AcDbEntity
  8
MSL3_160_3F-3
100
AcDbLine
 10
38.0
 20
-26.0
 30
0.0
 11
38.0
 21
-14.0
 31
0.0
  0
CIRCLE
  5
E25
100
AcDbEntity
  8
MSL3_160_3F-3
100
AcDbCircle
 10
20.0
 20
-20.0
 30
0.0
 40
5.5
  0
LINE
  5
E26
100
AcDbEntity
  8
MSL3_160_3F-3
100
AcDbLine
 10
32.541
 20
-26.0
 30
0.0
 11
32.541
 21
-10.0
 31
0.0
  0
LINE
  5
E27
100
AcDbEntity
  8
MSL3_160_3F-3
100
AcDbLine
 10
32.0
 20
-26.0
 30
0.0
 11
32.0
 21
-14.0
 31
0.0
  0
CIRCLE
  5
E28
100
AcDbEntity
  8
MSL3_160_3F-0
100
AcDbCircle
 10
20.0
 20
-20.0
 30
0.0
 40
3.3
  0
LINE
  5
E29
100
AcDbEntity
  8
MSL3_160_3F-7
100
AcDbLine
 10
35.0
 20
-5.580296
 30
0.0
 11
35.0
 21
-29.0
 31
0.0
  0
LINE
  5
E2A
100
AcDbEntity
  8
MSL3_160_3F-7
100
AcDbLine
 10
20.0
 20
-28.5
 30
0.0
 11
20.0
 21
-11.5
 31
0.0
  0
LINE
  5
E2B
100
AcDbEntity
  8
MSL3_160_3F-3
100
AcDbLine
 10
32.580296
 20
-20.0
 30
0.0
 11
34.0
 21
-22.459
 31
0.0
  0
LINE
  5
E2C
100
AcDbEntity
  8
MSL3_160_3F-7
100
AcDbLine
 10
35.0
 20
0.0
 30
0.0
 11
26.419704
 21
0.0
 31
0.0
  0
CIRCLE
  5
E2D
100
AcDbEntity
  8
MSL3_160_3F-0
100
AcDbCircle
 10
20.0
 20
0.0
 30
0.0
 40
3.0
  0
LINE
  5
E2E
100
AcDbEntity
  8
MSL3_160_3F-7
100
AcDbLine
 10
14.0
 20
0.0
 30
0.0
 11
26.0
 21
0.0
 31
0.0
  0
LINE
  5
E2F
100
AcDbEntity
  8
MSL3_160_3F-7
100
AcDbLine
 10
35.0
 20
0.0
 30
0.0
 11
35.0
 21
-8.580296
 31
0.0
  0
LINE
  5
E30
100
AcDbEntity
  8
MSL3_160_3F-3
100
AcDbLine
 10
35.0
 20
-8.580296
 30
0.0
 11
32.541
 21
-10.0
 31
0.0
  0
LINE
  5
E31
100
AcDbEntity
  8
MSL3_160_3F-3
100
AcDbLine
 10
38.0
 20
-14.0
 30
0.0
 11
32.0
 21
-14.0
 31
0.0
  0
LINE
  5
E32
100
AcDbEntity
  8
MSL3_160_3F-3
100
AcDbLine
 10
37.459
 20
-10.0
 30
0.0
 11
32.541
 21
-10.0
 31
0.0
  0
LINE
  5
E33
100
AcDbEntity
  8
MSL3_160_3F-3
100
AcDbLine
 10
35.0
 20
-8.580296
 30
0.0
 11
37.459
 21
-10.0
 31
0.0
  0
LINE
  5
E34
100
AcDbEntity
  8
MSL3_160_3F-7
100
AcDbLine
 10
35.0
 20
0.0
 30
0.0
 11
43.580296
 21
0.0
 31
0.0
  0
LINE
  5
E35
100
AcDbEntity
  8
MSL3_160_3F-3
100
AcDbLine
 10
-25.263547
 20
66.25681
 30
0.0
 11
-17.550095
 21
57.064276
 31
0.0
  0
LINE
  5
E36
100
AcDbEntity
  8
MSL3_160_3F-3
100
AcDbLine
 10
-24.818647
 20
66.630125
 30
0.0
 11
-17.105196
 21
57.437591
 31
0.0
  0
CIRCLE
  5
E37
100
AcDbEntity
  8
MSL3_160_3F-3
100
AcDbCircle
 10
-20.0
 20
20.0
 30
0.0
 40
5.5
  0
LINE
  5
E38
100
AcDbEntity
  8
MSL3_160_3F-7
100
AcDbLine
 10
-28.5
 20
20.0
 30
0.0
 11
-11.5
 21
20.0
 31
0.0
  0
LINE
  5
E39
100
AcDbEntity
  8
MSL3_160_3F-7
100
AcDbLine
 10
-30.47305
 20
65.801739
 30
0.0
 11
-16.967606
 21
49.706578
 31
0.0
  0
LINE
  5
E3A
100
AcDbEntity
  8
MSL3_160_3F-0
100
AcDbLine
 10
-50.0
 20
44.2
 30
0.0
 11
-7.335221
 21
80.0
 31
0.0
  0
LINE
  5
E3B
100
AcDbEntity
  8
MSL3_160_3F-0
100
AcDbLine
 10
-48.285575
 20
46.939034
 30
0.0
 11
-8.250931
 21
80.532089
 31
0.0
  0
LINE
  5
E3C
100
AcDbEntity
  8
MSL3_160_3F-3
100
AcDbLine
 10
-32.270727
 20
60.377087
 30
0.0
 11
-24.557276
 21
51.184553
 31
0.0
  0
LINE
  5
E3D
100
AcDbEntity
  8
MSL3_160_3F-3
100
AcDbLine
 10
-31.825828
 20
60.750402
 30
0.0
 11
-24.112377
 21
51.557868
 31
0.0
  0
LINE
  5
E3E
100
AcDbEntity
  8
MSL3_160_3F-7
100
AcDbLine
 10
-31.5
 20
36.0
 30
0.0
 11
-24.5
 21
36.0
 31
0.0
  0
LINE
  5
E3F
100
AcDbEntity
  8
MSL3_160_3F-0
100
AcDbLine
 10
-46.84292
 20
54.28498
 30
0.0
 11
-46.639482
 21
50.931085
 31
0.0
  0
LINE
  5
E40
100
AcDbEntity
  8
MSL3_160_3F-0
100
AcDbLine
 10
-49.320638
 20
48.681328
 30
0.0
 11
-40.894149
 21
55.751992
 31
0.0
  0
LINE
  5
E41
100
AcDbEntity
  8
MSL3_160_3F-7
100
AcDbLine
 10
-47.779292
 20
55.400905
 30
0.0
 11
-42.809267
 21
49.477859
 31
0.0
  0
LINE
  5
E42
100
AcDbEntity
  8
MSL3_160_3F-3
100
AcDbLine
 10
-49.0
 20
25.0
 30
0.0
 11
-49.0
 21
45.0391
 31
0.0
  0
LINE
  5
E43
100
AcDbEntity
  8
MSL3_160_3F-0
100
AcDbLine
 10
-54.499998
 20
35.999997
 30
0.0
 11
-54.499993
 21
27.999997
 31
0.0
  0
LINE
  5
E44
100
AcDbEntity
  8
MSL3_160_3F-3
100
AcDbLine
 10
-50.0
 20
17.541
 30
0.0
 11
-34.0
 21
17.541
 31
0.0
  0
LINE
  5
E45
100
AcDbEntity
  8
MSL3_160_3F-3
100
AcDbLine
 10
-50.0
 20
22.459
 30
0.0
 11
-34.0
 21
22.459
 31
0.0
  0
LINE
  5
E46
100
AcDbEntity
  8
MSL3_160_3F-3
100
AcDbLine
 10
-50.0
 20
17.0
 30
0.0
 11
-38.0
 21
17.0
 31
0.0
  0
LINE
  5
E47
100
AcDbEntity
  8
MSL3_160_3F-3
100
AcDbLine
 10
-50.0
 20
23.0
 30
0.0
 11
-38.0
 21
23.0
 31
0.0
  0
LINE
  5
E48
100
AcDbEntity
  8
MSL3_160_3F-7
100
AcDbLine
 10
-29.580296
 20
20.0
 30
0.0
 11
-53.0
 21
20.0
 31
0.0
  0
LINE
  5
E49
100
AcDbEntity
  8
MSL3_160_3F-0
100
AcDbLine
 10
-52.999992
 20
26.499998
 30
0.0
 11
-50.0
 21
26.5
 31
0.0
  0
ARC
  5
E4A
100
AcDbEntity
  8
MSL3_160_3F-0
100
AcDbCircle
 10
-52.999993
 20
27.999998
 30
0.0
 40
1.5
100
AcDbArc
 50
180.000039
 51
270.000042
  0
LINE
  5
E4B
100
AcDbEntity
  8
MSL3_160_3F-3
100
AcDbLine
 10
-32.580296
 20
20.0
 30
0.0
 11
-34.0
 21
22.459
 31
0.0
  0
LINE
  5
E4C
100
AcDbEntity
  8
MSL3_160_3F-3
100
AcDbLine
 10
-32.580296
 20
20.0
 30
0.0
 11
-34.0
 21
17.541
 31
0.0
  0
LINE
  5
E4D
100
AcDbEntity
  8
MSL3_160_3F-3
100
AcDbLine
 10
-38.0
 20
17.0
 30
0.0
 11
-38.0
 21
23.0
 31
0.0
  0
LINE
  5
E4E
100
AcDbEntity
  8
MSL3_160_3F-3
100
AcDbLine
 10
-34.0
 20
17.541
 30
0.0
 11
-34.0
 21
22.459
 31
0.0
  0
LINE
  5
E4F
100
AcDbEntity
  8
MSL3_160_3F-0
100
AcDbLine
 10
-54.500021
 20
42.999997
 30
0.0
 11
-54.499998
 21
35.999997
 31
0.0
  0
LINE
  5
E50
100
AcDbEntity
  8
MSL3_160_3F-0
100
AcDbLine
 10
-50.000015
 20
37.5
 30
0.0
 11
-52.999999
 21
37.499998
 31
0.0
  0
LINE
  5
E51
100
AcDbEntity
  8
MSL3_160_3F-7
100
AcDbLine
 10
-57.28874
 20
31.998655
 30
0.0
 11
-46.096013
 21
31.998663
 31
0.0
  0
LINE
  5
E52
100
AcDbEntity
  8
MSL3_160_3F-7
100
AcDbLine
 10
-57.288763
 20
38.998655
 30
0.0
 11
-46.096036
 21
38.998663
 31
0.0
  0
LINE
  5
E53
100
AcDbEntity
  8
MSL3_160_3F-0
100
AcDbLine
 10
-54.499998
 20
35.999997
 30
0.0
 11
-54.499998
 21
35.999997
 31
0.0
  0
ARC
  5
E54
100
AcDbEntity
  8
MSL3_160_3F-0
100
AcDbCircle
 10
-52.999998
 20
35.999998
 30
0.0
 40
1.5
100
AcDbArc
 50
90.00004
 51
180.000039
  0
LINE
  5
E55
100
AcDbEntity
  8
MSL3_160_3F-0
100
AcDbLine
 10
-49.642474
 20
44.5
 30
0.0
 11
-53.000022
 21
44.499998
 31
0.0
  0
ARC
  5
E56
100
AcDbEntity
  8
MSL3_160_3F-0
100
AcDbCircle
 10
-53.000021
 20
42.999998
 30
0.0
 40
1.5
100
AcDbArc
 50
90.00004
 51
180.000039
  0
LINE
  5
E57
100
AcDbEntity
  8
MSL3_160_3F-7
100
AcDbLine
 10
-47.9
 20
45.957163
 30
0.0
 11
-47.64279
 21
46.172987
 31
0.0
  0
LINE
  5
E58
100
AcDbEntity
  8
MSL3_160_3F-3
100
AcDbLine
 10
-47.31567
 20
46.447473
 30
0.0
 11
-47.958458
 21
47.213518
 31
0.0
  0
LINE
  5
E59
100
AcDbEntity
  8
MSL3_160_3F-0
100
AcDbLine
 10
-49.0
 20
45.0391
 30
0.0
 11
-49.0
 21
45.406945
 31
0.0
  0
ARC
  5
E5A
100
AcDbEntity
  8
MSL3_160_3F-0
100
AcDbCircle
 10
-47.0
 20
45.406945
 30
0.0
 40
2.0
100
AcDbArc
 50
130.0
 51
180.0
1001
GENIUS_GENODEF_13
1002
{
1000
HIER
1070
     0
1002
}
1002
{
1000
MANEDIT
1070
     0
1002
}
1002
{
1000
NOSEL
1070
     0
1002
}
1002
{
1000
BEHIND
1070
     0
1002
}
1002
{
1000
REACTOR
1002
}
1001
GENIUS_GENOBJ-N-FIL_13
1002
{
1000
OWNER
1000
GEN
1002
}
  0
LINE
  5
E5B
100
AcDbEntity
  8
MSL3_160_3F-0
100
AcDbLine
 10
-48.035062
 20
47.149239
 30
0.0
 11
-49.320638
 21
48.681328
 31
0.0
  0
LINE
  5
E5C
100
AcDbEntity
  8
MSL3_160_3F-7
100
AcDbLine
 10
-31.5
 20
36.0
 30
0.0
 11
-31.5
 21
43.0
 31
0.0
  0
LINE
  5
E5D
100
AcDbEntity
  8
MSL3_160_3F-7
100
AcDbLine
 10
-31.5
 20
36.0
 30
0.0
 11
-38.5
 21
36.0
 31
0.0
  0
LINE
  5
E5E
100
AcDbEntity
  8
MSL3_160_3F-7
100
AcDbLine
 10
-31.5
 20
36.0
 30
0.0
 11
-31.5
 21
29.0
 31
0.0
  0
LINE
  5
E5F
100
AcDbEntity
  8
MSL3_160_3F-0
100
AcDbLine
 10
-43.575304
 20
53.502235
 30
0.0
 11
-46.84292
 21
54.28498
 31
0.0
  0
LINE
  5
E60
100
AcDbEntity
  8
MSL3_160_3F-0
100
AcDbLine
 10
-36.328389
 20
55.666897
 30
0.0
 11
-36.971176
 21
56.432942
 31
0.0
  0
LINE
  5
E61
100
AcDbEntity
  8
MSL3_160_3F-3
100
AcDbLine
 10
-39.04239
 20
53.389579
 30
0.0
 11
-39.685178
 21
54.155624
 31
0.0
  0
LINE
  5
E62
100
AcDbEntity
  8
MSL3_160_3F-0
100
AcDbLine
 10
-40.894149
 20
55.751992
 30
0.0
 11
-39.608574
 21
54.219903
 31
0.0
  0
LINE
  5
E63
100
AcDbEntity
  8
MSL3_160_3F-0
100
AcDbLine
 10
46.84292
 20
54.28498
 30
0.0
 11
46.639482
 21
50.931085
 31
0.0
  0
LINE
  5
E64
100
AcDbEntity
  8
MSL3_160_3F-7
100
AcDbLine
 10
47.779292
 20
55.400905
 30
0.0
 11
42.809267
 21
49.477859
 31
0.0
  0
LINE
  5
E65
100
AcDbEntity
  8
MSL3_160_3F-3
100
AcDbLine
 10
32.270727
 20
60.377087
 30
0.0
 11
24.557276
 21
51.184553
 31
0.0
  0
LINE
  5
E66
100
AcDbEntity
  8
MSL3_160_3F-3
100
AcDbLine
 10
31.825828
 20
60.750402
 30
0.0
 11
24.112377
 21
51.557868
 31
0.0
  0
LINE
  5
E67
100
AcDbEntity
  8
MSL3_160_3F-7
100
AcDbLine
 10
30.47305
 20
65.801739
 30
0.0
 11
16.967606
 21
49.706578
 31
0.0
  0
LINE
  5
E68
100
AcDbEntity
  8
MSL3_160_3F-0
100
AcDbLine
 10
48.285575
 20
46.939034
 30
0.0
 11
8.250931
 21
80.532089
 31
0.0
  0
LINE
  5
E69
100
AcDbEntity
  8
MSL3_160_3F-7
100
AcDbLine
 10
11.5
 20
20.0
 30
0.0
 11
28.5
 21
20.0
 31
0.0
  0
CIRCLE
  5
E6A
100
AcDbEntity
  8
MSL3_160_3F-0
100
AcDbCircle
 10
-20.0
 20
20.0
 30
0.0
 40
3.3
  0
LINE
  5
E6B
100
AcDbEntity
  8
MSL3_160_3F-7
100
AcDbLine
 10
-20.0
 20
11.5
 30
0.0
 11
-20.0
 21
28.5
 31
0.0
  0
LINE
  5
E6C
100
AcDbEntity
  8
MSL3_160_3F-7
100
AcDbLine
 10
0.0
 20
26.0
 30
0.0
 11
0.0
 21
14.0
 31
0.0
  0
LINE
  5
E6D
100
AcDbEntity
  8
MSL3_160_3F-7
100
AcDbLine
 10
-6.0
 20
20.0
 30
0.0
 11
6.0
 21
20.0
 31
0.0
  0
CIRCLE
  5
E6E
100
AcDbEntity
  8
MSL3_160_3F-0
100
AcDbCircle
 10
0.0
 20
20.0
 30
0.0
 40
3.0
  0
LINE
  5
E6F
100
AcDbEntity
  8
MSL3_160_3F-7
100
AcDbLine
 10
20.0
 20
11.5
 30
0.0
 11
20.0
 21
28.5
 31
0.0
  0
CIRCLE
  5
E70
100
AcDbEntity
  8
MSL3_160_3F-3
100
AcDbCircle
 10
20.0
 20
20.0
 30
0.0
 40
5.5
  0
CIRCLE
  5
E71
100
AcDbEntity
  8
MSL3_160_3F-0
100
AcDbCircle
 10
20.0
 20
20.0
 30
0.0
 40
3.3
  0
LINE
  5
E72
100
AcDbEntity
  8
MSL3_160_3F-3
100
AcDbLine
 10
32.580296
 20
20.0
 30
0.0
 11
34.0
 21
22.459
 31
0.0
  0
LINE
  5
E73
100
AcDbEntity
  8
MSL3_160_3F-3
100
AcDbLine
 10
38.0
 20
17.0
 30
0.0
 11
38.0
 21
23.0
 31
0.0
  0
LINE
  5
E74
100
AcDbEntity
  8
MSL3_160_3F-3
100
AcDbLine
 10
34.0
 20
17.541
 30
0.0
 11
34.0
 21
22.459
 31
0.0
  0
LINE
  5
E75
100
AcDbEntity
  8
MSL3_160_3F-3
100
AcDbLine
 10
32.580296
 20
20.0
 30
0.0
 11
34.0
 21
17.541
 31
0.0
  0
LINE
  5
E76
100
AcDbEntity
  8
MSL3_160_3F-7
100
AcDbLine
 10
31.5
 20
36.0
 30
0.0
 11
24.5
 21
36.0
 31
0.0
  0
LINE
  5
E77
100
AcDbEntity
  8
MSL3_160_3F-7
100
AcDbLine
 10
31.5
 20
36.0
 30
0.0
 11
31.5
 21
43.0
 31
0.0
  0
LINE
  5
E78
100
AcDbEntity
  8
MSL3_160_3F-7
100
AcDbLine
 10
31.5
 20
36.0
 30
0.0
 11
38.5
 21
36.0
 31
0.0
  0
LINE
  5
E79
100
AcDbEntity
  8
MSL3_160_3F-7
100
AcDbLine
 10
31.5
 20
36.0
 30
0.0
 11
31.5
 21
29.0
 31
0.0
  0
LINE
  5
E7A
100
AcDbEntity
  8
MSL3_160_3F-3
100
AcDbLine
 10
47.31567
 20
46.447473
 30
0.0
 11
47.958458
 21
47.213518
 31
0.0
  0
LINE
  5
E7B
100
AcDbEntity
  8
MSL3_160_3F-7
100
AcDbLine
 10
0.0
 20
62.0
 30
0.0
 11
-8.580296
 21
62.0
 31
0.0
  0
LINE
  5
E7C
100
AcDbEntity
  8
MSL3_160_3F-0
100
AcDbLine
 10
-19.475411
 20
69.808225
 30
0.0
 11
-20.118198
 21
70.574269
 31
0.0
  0
LINE
  5
E7D
100
AcDbEntity
  8
MSL3_160_3F-7
100
AcDbLine
 10
0.0
 20
62.0
 30
0.0
 11
0.0
 21
70.580296
 31
0.0
  0
LINE
  5
E7E
100
AcDbEntity
  8
MSL3_160_3F-7
100
AcDbLine
 10
0.0
 20
62.0
 30
0.0
 11
8.580296
 21
62.0
 31
0.0
  0
LINE
  5
E7F
100
AcDbEntity
  8
MSL3_160_3F-7
100
AcDbLine
 10
0.0
 20
62.0
 30
0.0
 11
0.0
 21
53.419704
 31
0.0
  0
LINE
  5
E80
100
AcDbEntity
  8
MSL3_160_3F-0
100
AcDbLine
 10
-6.965356
 20
80.0
 30
0.0
 11
0.0
 21
80.0
 31
0.0
  0
LINE
  5
E81
100
AcDbEntity
  8
MSL3_160_3F-0
100
AcDbLine
 10
-6.965356
 20
81.0
 30
0.0
 11
0.0
 21
81.0
 31
0.0
  0
LINE
  5
E82
100
AcDbEntity
  8
MSL3_160_3F-0
100
AcDbLine
 10
-7.335221
 20
80.0
 30
0.0
 11
7.335221
 21
80.0
 31
0.0
  0
ARC
  5
E83
100
AcDbEntity
  8
MSL3_160_3F-0
100
AcDbCircle
 10
-6.965356
 20
79.0
 30
0.0
 40
2.0
100
AcDbArc
 50
90.0
 51
130.0
1001
GENIUS_GENODEF_13
1002
{
1000
HIER
1070
     0
1002
}
1002
{
1000
MANEDIT
1070
     0
1002
}
1002
{
1000
NOSEL
1070
     0
1002
}
1002
{
1000
BEHIND
1070
     0
1002
}
1002
{
1000
REACTOR
1002
}
1001
GENIUS_GENOBJ-N-FIL_13
1002
{
1000
OWNER
1000
GEN
1002
}
  0
LINE
  5
E84
100
AcDbEntity
  8
MSL3_160_3F-0
100
AcDbLine
 10
6.965356
 20
80.0
 30
0.0
 11
0.0
 21
80.0
 31
0.0
  0
LINE
  5
E85
100
AcDbEntity
  8
MSL3_160_3F-0
100
AcDbLine
 10
6.965356
 20
81.0
 30
0.0
 11
0.0
 21
81.0
 31
0.0
  0
ARC
  5
E86
100
AcDbEntity
  8
MSL3_160_3F-0
100
AcDbCircle
 10
6.965356
 20
79.0
 30
0.0
 40
2.0
100
AcDbArc
 50
50.0
 51
90.0
1001
GENIUS_GENODEF_13
1002
{
1000
HIER
1070
     0
1002
}
1002
{
1000
MANEDIT
1070
     0
1002
}
1002
{
1000
NOSEL
1070
     0
1002
}
1002
{
1000
BEHIND
1070
     0
1002
}
1002
{
1000
REACTOR
1002
}
1001
GENIUS_GENOBJ-N-FIL_13
1002
{
1000
OWNER
1000
GEN
1002
}
  0
LINE
  5
E87
100
AcDbEntity
  8
MSL3_160_3F-3
100
AcDbLine
 10
24.818647
 20
66.630125
 30
0.0
 11
17.105196
 21
57.437591
 31
0.0
  0
LINE
  5
E88
100
AcDbEntity
  8
MSL3_160_3F-3
100
AcDbLine
 10
25.263547
 20
66.25681
 30
0.0
 11
17.550095
 21
57.064276
 31
0.0
  0
LINE
  5
E89
100
AcDbEntity
  8
MSL3_160_3F-3
100
AcDbLine
 10
19.475411
 20
69.808225
 30
0.0
 11
20.118198
 21
70.574269
 31
0.0
  0
LINE
  5
E8A
100
AcDbEntity
  8
MSL3_160_3F-3
100
AcDbLine
 10
39.04239
 20
53.389579
 30
0.0
 11
39.685178
 21
54.155624
 31
0.0
  0
LINE
  5
E8B
100
AcDbEntity
  8
MSL3_160_3F-3
100
AcDbLine
 10
36.328389
 20
55.666897
 30
0.0
 11
36.971176
 21
56.432942
 31
0.0
  0
LINE
  5
E8C
100
AcDbEntity
  8
MSL3_160_3F-0
100
AcDbLine
 10
43.575304
 20
53.502235
 30
0.0
 11
46.84292
 21
54.28498
 31
0.0
  0
LINE
  5
E8D
100
AcDbEntity
  8
MSL3_160_3F-0
100
AcDbLine
 10
40.894149
 20
55.751992
 30
0.0
 11
39.608574
 21
54.219903
 31
0.0
  0
TEXT
  5
E8E
100
AcDbEntity
  8
MSL3_160_3F-6
100
AcDbText
 10
174.748145
 20
-151.220928
 30
0.0
 40
3.5
  1
MSL3-160-3F
100
AcDbText
  0
LINE
  5
E8F
100
AcDbEntity
  8
MSL3_160_3F-0
100
AcDbLine
 10
173.515759
 20
-195.21129
 30
0.0
 11
214.911241
 21
-195.21129
 31
0.0
  0
LINE
  5
E90
100
AcDbEntity
  8
MSL3_160_3F-0
100
AcDbLine
 10
133.015759
 20
-96.21129
 30
0.0
 11
133.015759
 21
-196.21129
 31
0.0
  0
LINE
  5
E91
100
AcDbEntity
  8
MSL3_160_3F-0
100
AcDbLine
 10
153.015759
 20
-196.21129
 30
0.0
 11
153.015759
 21
-96.21129
 31
0.0
  0
LINE
  5
E92
100
AcDbEntity
  8
MSL3_160_3F-0
100
AcDbLine
 10
173.015759
 20
-196.21129
 30
0.0
 11
173.015759
 21
-96.21129
 31
0.0
  0
LINE
  5
E93
100
AcDbEntity
  8
MSL3_160_3F-0
100
AcDbLine
 10
173.515759
 20
-195.21129
 30
0.0
 11
173.515759
 21
-126.093091
 31
0.0
  0
LINE
  5
E94
100
AcDbEntity
  8
MSL3_160_3F-0
100
AcDbLine
 10
166.015759
 20
-170.205737
 30
0.0
 11
166.015759
 21
-185.216844
 31
0.0
  0
LINE
  5
E95
100
AcDbEntity
  8
MSL3_160_3F-0
100
AcDbLine
 10
170.015759
 20
-170.350074
 30
0.0
 11
170.015759
 21
-185.072506
 31
0.0
  0
LINE
  5
E96
100
AcDbEntity
  8
MSL3_160_3F-0
100
AcDbLine
 10
173.015759
 20
-167.91129
 30
0.0
 11
173.015759
 21
-187.51129
 31
0.0
  0
LINE
  5
E97
100
AcDbEntity
  8
MSL3_160_3F-3
100
AcDbLine
 10
136.557259
 20
-196.21129
 30
0.0
 11
136.557259
 21
-180.21129
 31
0.0
  0
LINE
  5
E98
100
AcDbEntity
  8
MSL3_160_3F-3
100
AcDbLine
 10
141.474259
 20
-196.21129
 30
0.0
 11
141.474259
 21
-180.21129
 31
0.0
  0
ARC
  5
E99
100
AcDbEntity
  8
MSL3_160_3F-0
100
AcDbCircle
 10
155.308814
 20
-183.340455
 30
0.0
 40
2.293056
100
AcDbArc
 50
125.085847
 51
234.914153
  0
ARC
  5
E9A
100
AcDbEntity
  8
MSL3_160_3F-0
100
AcDbCircle
 10
157.222703
 20
-183.340455
 30
0.0
 40
2.293056
100
AcDbArc
 50
305.085848
 51
54.914152
  0
ARC
  5
E9B
100
AcDbEntity
  8
MSL3_160_3F-0
100
AcDbCircle
 10
173.124439
 20
-185.072506
 30
0.0
 40
3.108681
100
AcDbArc
 50
127.878142
 51
232.121858
  0
ARC
  5
E9C
100
AcDbEntity
  8
MSL3_160_3F-0
100
AcDbCircle
 10
167.453594
 20
-183.340455
 30
0.0
 40
2.562165
100
AcDbArc
 50
312.916664
 51
47.083336
  0
LINE
  5
E9D
100
AcDbEntity
  8
MSL3_160_3F-3
100
AcDbLine
 10
136.015759
 20
-196.21129
 30
0.0
 11
136.015759
 21
-184.21129
 31
0.0
  0
LINE
  5
E9E
100
AcDbEntity
  8
MSL3_160_3F-3
100
AcDbLine
 10
142.015759
 20
-196.21129
 30
0.0
 11
142.015759
 21
-184.21129
 31
0.0
  0
LINE
  5
E9F
100
AcDbEntity
  8
MSL3_160_3F-7
100
AcDbLine
 10
139.015759
 20
-175.791874
 30
0.0
 11
139.015759
 21
-199.21129
 31
0.0
  0
LINE
  5
EA0
100
AcDbEntity
  8
MSL3_160_3F-7
100
AcDbLine
 10
147.015759
 20
-176.292471
 30
0.0
 11
147.015759
 21
-186.322585
 31
0.0
  0
LINE
  5
EA1
100
AcDbEntity
  8
MSL3_160_3F-0
100
AcDbLine
 10
158.540759
 20
-185.216844
 30
0.0
 11
153.990759
 21
-185.216844
 31
0.0
  0
LINE
  5
EA2
100
AcDbEntity
  8
MSL3_160_3F-0
100
AcDbLine
 10
153.015759
 20
-189.21129
 30
0.0
 11
173.015759
 21
-189.21129
 31
0.0
  0
LINE
  5
EA3
100
AcDbEntity
  8
MSL3_160_3F-0
100
AcDbLine
 10
133.015759
 20
-196.21129
 30
0.0
 11
153.015759
 21
-196.21129
 31
0.0
  0
LINE
  5
EA4
100
AcDbEntity
  8
MSL3_160_3F-0
100
AcDbLine
 10
166.015759
 20
-185.216844
 30
0.0
 11
169.198259
 21
-185.216844
 31
0.0
  0
LINE
  5
EA5
100
AcDbEntity
  8
MSL3_160_3F-0
100
AcDbLine
 10
173.015759
 20
-187.51129
 30
0.0
 11
171.196687
 21
-187.51129
 31
0.0
  0
LINE
  5
EA6
100
AcDbEntity
  8
MSL3_160_3F-0
100
AcDbLine
 10
155.015759
 20
-134.71129
 30
0.0
 11
155.015759
 21
-138.21129
 31
0.0
1001
GENIUS_GENOREF_13
1005
1242
  0
LINE
  5
EA7
100
AcDbEntity
  8
MSL3_160_3F-0
100
AcDbLine
 10
154.015759
 20
-138.21129
 30
0.0
 11
154.015759
 21
-135.71129
 31
0.0
1001
GENIUS_GENOREF_13
1005
1242
  0
LINE
  5
EA8
100
AcDbEntity
  8
MSL3_160_3F-0
100
AcDbLine
 10
173.015759
 20
-157.71129
 30
0.0
 11
155.015759
 21
-157.71129
 31
0.0
  0
LINE
  5
EA9
100
AcDbEntity
  8
MSL3_160_3F-0
100
AcDbLine
 10
153.015759
 20
-154.21129
 30
0.0
 11
173.015759
 21
-154.21129
 31
0.0
  0
LINE
  5
EAA
100
AcDbEntity
  8
MSL3_160_3F-0
100
AcDbLine
 10
153.015759
 20
-138.21129
 30
0.0
 11
173.015759
 21
-138.21129
 31
0.0
  0
LINE
  5
EAB
100
AcDbEntity
  8
MSL3_160_3F-0
100
AcDbLine
 10
158.540759
 20
-170.205737
 30
0.0
 11
153.990759
 21
-170.205737
 31
0.0
  0
LINE
  5
EAC
100
AcDbEntity
  8
MSL3_160_3F-0
100
AcDbLine
 10
158.540759
 20
-181.464067
 30
0.0
 11
153.990759
 21
-181.464067
 31
0.0
  0
LINE
  5
EAD
100
AcDbEntity
  8
MSL3_160_3F-0
100
AcDbLine
 10
158.540759
 20
-173.958513
 30
0.0
 11
153.990759
 21
-173.958513
 31
0.0
  0
LINE
  5
EAE
100
AcDbEntity
  8
MSL3_160_3F-7
100
AcDbLine
 10
130.015759
 20
-181.21129
 30
0.0
 11
180.239527
 21
-181.21129
 31
0.0
  0
LINE
  5
EAF
100
AcDbEntity
  8
MSL3_160_3F-7
100
AcDbLine
 10
146.921809
 20
-177.71129
 30
0.0
 11
179.526616
 21
-177.71129
 31
0.0
  0
LINE
  5
EB0
100
AcDbEntity
  8
MSL3_160_3F-7
100
AcDbLine
 10
130.015759
 20
-146.21129
 30
0.0
 11
180.239527
 21
-146.21129
 31
0.0
1001
GENIUS_GENOREF_13
1005
1242
  0
LINE
  5
EB1
100
AcDbEntity
  8
MSL3_160_3F-3
100
AcDbLine
 10
142.015759
 20
-184.21129
 30
0.0
 11
136.015759
 21
-184.21129
 31
0.0
  0
LINE
  5
EB2
100
AcDbEntity
  8
MSL3_160_3F-3
100
AcDbLine
 10
141.474259
 20
-180.21129
 30
0.0
 11
136.557259
 21
-180.21129
 31
0.0
  0
LINE
  5
EB3
100
AcDbEntity
  8
MSL3_160_3F-3
100
AcDbLine
 10
139.015759
 20
-178.791874
 30
0.0
 11
141.474259
 21
-180.21129
 31
0.0
  0
LINE
  5
EB4
100
AcDbEntity
  8
MSL3_160_3F-3
100
AcDbLine
 10
133.015759
 20
-169.21129
 30
0.0
 11
153.015759
 21
-169.21129
 31
0.0
  0
LINE
  5
EB5
100
AcDbEntity
  8
MSL3_160_3F-3
100
AcDbLine
 10
133.015759
 20
-163.21129
 30
0.0
 11
153.015759
 21
-163.21129
 31
0.0
  0
LINE
  5
EB6
100
AcDbEntity
  8
MSL3_160_3F-7
100
AcDbLine
 10
130.015759
 20
-166.21129
 30
0.0
 11
156.015759
 21
-166.21129
 31
0.0
  0
LINE
  5
EB7
100
AcDbEntity
  8
MSL3_160_3F-3
100
AcDbLine
 10
139.015759
 20
-178.791874
 30
0.0
 11
136.557259
 21
-180.21129
 31
0.0
  0
ARC
  5
EB8
100
AcDbEntity
  8
MSL3_160_3F-0
100
AcDbCircle
 10
155.308814
 20
-172.082125
 30
0.0
 40
2.293056
100
AcDbArc
 50
125.085847
 51
234.914153
  0
LINE
  5
EB9
100
AcDbEntity
  8
MSL3_160_3F-0
100
AcDbLine
 10
153.015759
 20
-183.340455
 30
0.0
 11
153.015759
 21
-172.082125
 31
0.0
  0
ARC
  5
EBA
100
AcDbEntity
  8
MSL3_160_3F-3
100
AcDbCircle
 10
147.015759
 20
-181.21129
 30
0.0
 40
3.0
100
AcDbArc
 50
251.265343
 51
200.571702
  0
CIRCLE
  5
EBB
100
AcDbEntity
  8
MSL3_160_3F-3
100
AcDbCircle
 10
147.015759
 20
-181.21129
 30
0.0
 40
2.5
  0
ARC
  5
EBC
100
AcDbEntity
  8
MSL3_160_3F-0
100
AcDbCircle
 10
160.725481
 20
-177.71129
 30
0.0
 40
7.709722
100
AcDbArc
 50
150.872216
 51
209.127784
  0
LINE
  5
EBD
100
AcDbEntity
  8
MSL3_160_3F-0
100
AcDbLine
 10
133.015759
 20
-138.876068
 30
0.0
 11
153.015759
 21
-138.876068
 31
0.0
  0
LINE
  5
EBE
100
AcDbEntity
  8
MSL3_160_3F-0
100
AcDbLine
 10
133.015759
 20
-153.546511
 30
0.0
 11
153.015759
 21
-153.546511
 31
0.0
  0
LINE
  5
EBF
100
AcDbEntity
  8
MSL3_160_3F-3
100
AcDbLine
 10
155.015759
 20
-138.21129
 30
0.0
 11
155.015759
 21
-154.21129
 31
0.0
1001
GENIUS_GENBH_13
1002
{
1000
OE
1000
CON1
1002
}
1001
GENIUS_GENOREF_13
1005
1242
  0
LINE
  5
EC0
100
AcDbEntity
  8
MSL3_160_3F-3
100
AcDbLine
 10
154.015759
 20
-154.21129
 30
0.0
 11
154.015759
 21
-138.21129
 31
0.0
1001
GENIUS_GENBH_13
1002
{
1000
OE
1000
CON1
1002
}
1001
GENIUS_GENOREF_13
1005
1242
  0
LINE
  5
EC1
100
AcDbEntity
  8
MSL3_160_3F-0
100
AcDbLine
 10
155.015759
 20
-157.71129
 30
0.0
 11
154.015759
 21
-156.71129
 31
0.0
  0
LINE
  5
EC2
100
AcDbEntity
  8
MSL3_160_3F-0
100
AcDbLine
 10
154.015759
 20
-156.71129
 30
0.0
 11
154.015759
 21
-154.21129
 31
0.0
1001
GENIUS_GENOREF_13
1005
1242
  0
LINE
  5
EC3
100
AcDbEntity
  8
MSL3_160_3F-3
100
AcDbLine
 10
154.015759
 20
-150.21129
 30
0.0
 11
153.015759
 21
-150.21129
 31
0.0
1001
GENIUS_GENBH_13
1002
{
1000
OE
1000
CON1
1002
}
1001
GENIUS_GENOREF_13
1005
1242
  0
LINE
  5
EC4
100
AcDbEntity
  8
MSL3_160_3F-0
100
AcDbLine
 10
155.015759
 20
-154.21129
 30
0.0
 11
155.015759
 21
-157.71129
 31
0.0
1001
GENIUS_GENOREF_13
1005
1242
  0
LINE
  5
EC5
100
AcDbEntity
  8
MSL3_160_3F-3
100
AcDbLine
 10
153.015759
 20
-142.21129
 30
0.0
 11
154.015759
 21
-142.21129
 31
0.0
1001
GENIUS_GENBH_13
1002
{
1000
OE
1000
CON1
1002
}
1001
GENIUS_GENOREF_13
1005
1242
  0
ARC
  5
EC6
100
AcDbEntity
  8
MSL3_160_3F-0
100
AcDbCircle
 10
173.124439
 20
-170.350074
 30
0.0
 40
3.108681
100
AcDbArc
 50
127.878142
 51
232.121858
  0
ARC
  5
EC7
100
AcDbEntity
  8
MSL3_160_3F-0
100
AcDbCircle
 10
167.453594
 20
-172.082125
 30
0.0
 40
2.562165
100
AcDbArc
 50
312.916664
 51
47.083336
  0
LINE
  5
EC8
100
AcDbEntity
  8
MSL3_160_3F-0
100
AcDbLine
 10
170.015759
 20
-172.082125
 30
0.0
 11
170.015759
 21
-183.340455
 31
0.0
  0
ARC
  5
EC9
100
AcDbEntity
  8
MSL3_160_3F-0
100
AcDbCircle
 10
157.222703
 20
-172.082125
 30
0.0
 40
2.293056
100
AcDbArc
 50
305.085848
 51
54.914152
  0
LINE
  5
ECA
100
AcDbEntity
  8
MSL3_160_3F-0
100
AcDbLine
 10
159.515759
 20
-183.340455
 30
0.0
 11
159.515759
 21
-172.082125
 31
0.0
  0
LINE
  5
ECB
100
AcDbEntity
  8
MSL3_160_3F-0
100
AcDbLine
 10
169.198259
 20
-181.464067
 30
0.0
 11
166.015759
 21
-181.464067
 31
0.0
  0
LINE
  5
ECC
100
AcDbEntity
  8
MSL3_160_3F-0
100
AcDbLine
 10
169.198259
 20
-173.958513
 30
0.0
 11
166.015759
 21
-173.958513
 31
0.0
  0
ARC
  5
ECD
100
AcDbEntity
  8
MSL3_160_3F-0
100
AcDbCircle
 10
151.806036
 20
-177.71129
 30
0.0
 40
7.709722
100
AcDbArc
 50
330.872218
 51
29.127782
  0
LINE
  5
ECE
100
AcDbEntity
  8
MSL3_160_3F-0
100
AcDbLine
 10
159.515759
 20
-181.71129
 30
0.0
 11
166.015759
 21
-181.71129
 31
0.0
  0
LINE
  5
ECF
100
AcDbEntity
  8
MSL3_160_3F-0
100
AcDbLine
 10
159.515759
 20
-173.71129
 30
0.0
 11
166.015759
 21
-173.71129
 31
0.0
  0
LINE
  5
ED0
100
AcDbEntity
  8
MSL3_160_3F-0
100
AcDbLine
 10
159.515759
 20
-173.21129
 30
0.0
 11
166.015759
 21
-173.21129
 31
0.0
  0
ARC
  5
ED1
100
AcDbEntity
  8
MSL3_160_3F-0
100
AcDbCircle
 10
180.650481
 20
-177.71129
 30
0.0
 40
10.634722
100
AcDbArc
 50
152.518771
 51
207.481229
  0
LINE
  5
ED2
100
AcDbEntity
  8
MSL3_160_3F-0
100
AcDbLine
 10
171.215759
 20
-182.618767
 30
0.0
 11
173.015759
 21
-182.618767
 31
0.0
  0
LINE
  5
ED3
100
AcDbEntity
  8
MSL3_160_3F-0
100
AcDbLine
 10
171.215759
 20
-172.803813
 30
0.0
 11
173.015759
 21
-172.803813
 31
0.0
  0
ARC
  5
ED4
100
AcDbEntity
  8
MSL3_160_3F-0
100
AcDbCircle
 10
160.993349
 20
-177.71129
 30
0.0
 40
9.02241
100
AcDbArc
 50
335.421503
 51
24.578497
  0
LINE
  5
ED5
100
AcDbEntity
  8
MSL3_160_3F-0
100
AcDbLine
 10
169.198259
 20
-170.205737
 30
0.0
 11
166.015759
 21
-170.205737
 31
0.0
  0
LINE
  5
ED6
100
AcDbEntity
  8
MSL3_160_3F-0
100
AcDbLine
 10
171.196687
 20
-167.91129
 30
0.0
 11
173.015759
 21
-167.91129
 31
0.0
  0
LINE
  5
ED7
100
AcDbEntity
  8
MSL3_160_3F-7
100
AcDbLine
 10
175.015759
 20
-146.21129
 30
0.0
 11
190.015759
 21
-146.21129
 31
0.0
  0
LINE
  5
ED8
100
AcDbEntity
  8
MSL3_160_3F-0
100
AcDbLine
 10
168.170107
 20
-103.21129
 30
0.0
 11
153.015759
 21
-103.21129
 31
0.0
  0
LINE
  5
ED9
100
AcDbEntity
  8
MSL3_160_3F-0
100
AcDbLine
 10
154.015759
 20
-106.21129
 30
0.0
 11
164.015759
 21
-106.21129
 31
0.0
  0
LINE
  5
EDA
100
AcDbEntity
  8
MSL3_160_3F-0
100
AcDbLine
 10
155.015759
 20
-134.71129
 30
0.0
 11
173.015759
 21
-134.71129
 31
0.0
  0
LINE
  5
EDB
100
AcDbEntity
  8
MSL3_160_3F-0
100
AcDbLine
 10
164.015759
 20
-123.21129
 30
0.0
 11
154.015759
 21
-123.21129
 31
0.0
  0
LINE
  5
EDC
100
AcDbEntity
  8
MSL3_160_3F-7
100
AcDbLine
 10
130.015759
 20
-111.21129
 30
0.0
 11
180.239527
 21
-111.21129
 31
0.0
  0
LINE
  5
EDD
100
AcDbEntity
  8
MSL3_160_3F-7
100
AcDbLine
 10
180.800805
 20
-114.71129
 30
0.0
 11
151.052239
 21
-114.71129
 31
0.0
  0
ARC
  5
EDE
100
AcDbEntity
  8
MSL3_160_3F-3
100
AcDbCircle
 10
147.015759
 20
-111.21129
 30
0.0
 40
3.0
100
AcDbArc
 50
251.265343
 51
200.571702
  0
CIRCLE
  5
EDF
100
AcDbEntity
  8
MSL3_160_3F-3
100
AcDbCircle
 10
147.015759
 20
-111.21129
 30
0.0
 40
2.5
  0
LINE
  5
EE0
100
AcDbEntity
  8
MSL3_160_3F-0
100
AcDbLine
 10
153.015759
 20
-122.21129
 30
0.0
 11
153.015759
 21
-107.21129
 31
0.0
  0
LINE
  5
EE1
100
AcDbEntity
  8
MSL3_160_3F-0
100
AcDbLine
 10
154.015759
 20
-123.21129
 30
0.0
 11
154.015759
 21
-106.21129
 31
0.0
  0
LINE
  5
EE2
100
AcDbEntity
  8
MSL3_160_3F-7
100
AcDbLine
 10
147.015759
 20
-106.292471
 30
0.0
 11
147.015759
 21
-116.322585
 31
0.0
  0
LINE
  5
EE3
100
AcDbEntity
  8
MSL3_160_3F-3
100
AcDbLine
 10
139.015759
 20
-113.630705
 30
0.0
 11
136.557259
 21
-112.21129
 31
0.0
  0
LINE
  5
EE4
100
AcDbEntity
  8
MSL3_160_3F-7
100
AcDbLine
 10
139.015759
 20
-116.630705
 30
0.0
 11
139.015759
 21
-93.21129
 31
0.0
  0
LINE
  5
EE5
100
AcDbEntity
  8
MSL3_160_3F-3
100
AcDbLine
 10
139.015759
 20
-113.630705
 30
0.0
 11
141.474259
 21
-112.21129
 31
0.0
  0
LINE
  5
EE6
100
AcDbEntity
  8
MSL3_160_3F-3
100
AcDbLine
 10
133.015759
 20
-129.51129
 30
0.0
 11
148.015759
 21
-129.51129
 31
0.0
  0
LINE
  5
EE7
100
AcDbEntity
  8
MSL3_160_3F-3
100
AcDbLine
 10
148.015759
 20
-122.91129
 30
0.0
 11
133.015759
 21
-122.91129
 31
0.0
  0
LINE
  5
EE8
100
AcDbEntity
  8
MSL3_160_3F-7
100
AcDbLine
 10
130.015759
 20
-126.21129
 30
0.0
 11
156.015759
 21
-126.21129
 31
0.0
  0
LINE
  5
EE9
100
AcDbEntity
  8
MSL3_160_3F-3
100
AcDbLine
 10
148.015759
 20
-129.51129
 30
0.0
 11
148.015759
 21
-122.91129
 31
0.0
  0
LINE
  5
EEA
100
AcDbEntity
  8
MSL3_160_3F-3
100
AcDbLine
 10
148.015759
 20
-131.71129
 30
0.0
 11
153.015759
 21
-131.71129
 31
0.0
  0
LINE
  5
EEB
100
AcDbEntity
  8
MSL3_160_3F-3
100
AcDbLine
 10
148.015759
 20
-129.51129
 30
0.0
 11
148.015759
 21
-131.71129
 31
0.0
  0
LINE
  5
EEC
100
AcDbEntity
  8
MSL3_160_3F-0
100
AcDbLine
 10
154.015759
 20
-135.71129
 30
0.0
 11
155.015759
 21
-134.71129
 31
0.0
  0
LINE
  5
EED
100
AcDbEntity
  8
MSL3_160_3F-3
100
AcDbLine
 10
153.015759
 20
-120.71129
 30
0.0
 11
148.015759
 21
-120.71129
 31
0.0
  0
LINE
  5
EEE
100
AcDbEntity
  8
MSL3_160_3F-3
100
AcDbLine
 10
148.015759
 20
-120.71129
 30
0.0
 11
148.015759
 21
-122.91129
 31
0.0
  0
LINE
  5
EEF
100
AcDbEntity
  8
MSL3_160_3F-0
100
AcDbLine
 10
154.015759
 20
-123.21129
 30
0.0
 11
153.015759
 21
-122.21129
 31
0.0
  0
LINE
  5
EF0
100
AcDbEntity
  8
MSL3_160_3F-3
100
AcDbLine
 10
136.557259
 20
-112.21129
 30
0.0
 11
141.474259
 21
-112.21129
 31
0.0
  0
LINE
  5
EF1
100
AcDbEntity
  8
MSL3_160_3F-3
100
AcDbLine
 10
136.015759
 20
-108.21129
 30
0.0
 11
142.015759
 21
-108.21129
 31
0.0
  0
LINE
  5
EF2
100
AcDbEntity
  8
MSL3_160_3F-0
100
AcDbLine
 10
153.015759
 20
-96.21129
 30
0.0
 11
133.015759
 21
-96.21129
 31
0.0
  0
LINE
  5
EF3
100
AcDbEntity
  8
MSL3_160_3F-3
100
AcDbLine
 10
136.557259
 20
-96.21129
 30
0.0
 11
136.557259
 21
-112.21129
 31
0.0
  0
LINE
  5
EF4
100
AcDbEntity
  8
MSL3_160_3F-3
100
AcDbLine
 10
136.015759
 20
-96.21129
 30
0.0
 11
136.015759
 21
-108.21129
 31
0.0
  0
LINE
  5
EF5
100
AcDbEntity
  8
MSL3_160_3F-3
100
AcDbLine
 10
141.474259
 20
-96.21129
 30
0.0
 11
141.474259
 21
-112.21129
 31
0.0
  0
LINE
  5
EF6
100
AcDbEntity
  8
MSL3_160_3F-3
100
AcDbLine
 10
142.015759
 20
-96.21129
 30
0.0
 11
142.015759
 21
-108.21129
 31
0.0
  0
LINE
  5
EF7
100
AcDbEntity
  8
MSL3_160_3F-0
100
AcDbLine
 10
153.015759
 20
-107.21129
 30
0.0
 11
154.015759
 21
-106.21129
 31
0.0
  0
LINE
  5
EF8
100
AcDbEntity
  8
MSL3_160_3F-0
100
AcDbLine
 10
192.215759
 20
-126.093091
 30
0.0
 11
192.215759
 21
-109.882901
 31
0.0
  0
LINE
  5
EF9
100
AcDbEntity
  8
MSL3_160_3F-7
100
AcDbLine
 10
182.515759
 20
-110.940562
 30
0.0
 11
182.515759
 21
-124.493644
 31
0.0
1001
GENIUS_GENODEF_13
1002
{
1000
HIER
1070
     0
1002
}
1002
{
1000
MANEDIT
1070
     0
1002
}
1002
{
1000
NOSEL
1070
     0
1002
}
1002
{
1000
BEHIND
1070
     0
1002
}
1002
{
1000
REACTOR
1002
}
1001
GENIUS_GENOBJ-N-CEN_13
1002
{
1000
OWNER
1000
GEN
1002
}
  0
LINE
  5
EFA
100
AcDbEntity
  8
MSL3_160_3F-0
100
AcDbLine
 10
164.015759
 20
-106.21129
 30
0.0
 11
164.015759
 21
-123.21129
 31
0.0
  0
LINE
  5
EFB
100
AcDbEntity
  8
MSL3_160_3F-0
100
AcDbLine
 10
168.015759
 20
-125.103595
 30
0.0
 11
168.015759
 21
-104.318985
 31
0.0
  0
LINE
  5
EFC
100
AcDbEntity
  8
MSL3_160_3F-0
100
AcDbLine
 10
165.015759
 20
-123.71129
 30
0.0
 11
165.015759
 21
-105.71129
 31
0.0
  0
LINE
  5
EFD
100
AcDbEntity
  8
MSL3_160_3F-0
100
AcDbLine
 10
166.015759
 20
-124.71129
 30
0.0
 11
166.015759
 21
-104.71129
 31
0.0
  0
ARC
  5
EFE
100
AcDbEntity
  8
MSL3_160_3F-0
100
AcDbCircle
 10
181.298452
 20
-114.71129
 30
0.0
 40
13.282692
100
AcDbArc
 50
148.560611
 51
211.439389
  0
ARC
  5
EFF
100
AcDbEntity
  8
MSL3_160_3F-0
100
AcDbCircle
 10
159.733067
 20
-114.71129
 30
0.0
 40
13.282692
100
AcDbArc
 50
328.560609
 51
31.439391
  0
LINE
  5
F00
100
AcDbEntity
  8
MSL3_160_3F-0
100
AcDbLine
 10
173.015759
 20
-125.103595
 30
0.0
 11
173.015759
 21
-104.318985
 31
0.0
  0
LINE
  5
F01
100
AcDbEntity
  8
MSL3_160_3F-7
100
AcDbLine
 10
174.651759
 20
-117.666602
 30
0.0
 11
190.379759
 21
-117.666602
 31
0.0
1001
GENIUS_GENODEF_13
1002
{
1000
HIER
1070
     0
1002
}
1002
{
1000
MANEDIT
1070
     0
1002
}
1002
{
1000
NOSEL
1070
     0
1002
}
1002
{
1000
BEHIND
1070
     0
1002
}
1002
{
1000
REACTOR
1002
}
1001
GENIUS_GENOBJ-N-CEN_13
1002
{
1000
OWNER
1000
GEN
1002
}
  0
LINE
  5
F02
100
AcDbEntity
  8
MSL3_160_3F-0
100
AcDbLine
 10
173.515759
 20
-126.093091
 30
0.0
 11
192.215759
 21
-126.093091
 31
0.0
  0
ARC
  5
F03
100
AcDbEntity
  8
MSL3_160_3F-0
100
AcDbCircle
 10
172.067682
 20
-125.103595
 30
0.0
 40
4.051923
100
AcDbArc
 50
121.248243
 51
238.751757
  0
ARC
  5
F04
100
AcDbEntity
  8
MSL3_160_3F-0
100
AcDbCircle
 10
168.963836
 20
-125.103595
 30
0.0
 40
4.051923
100
AcDbArc
 50
301.248241
 51
58.751759
  0
LINE
  5
F05
100
AcDbEntity
  8
MSL3_160_3F-0
100
AcDbLine
 10
171.065759
 20
-128.567696
 30
0.0
 11
169.965759
 21
-128.567696
 31
0.0
  0
LINE
  5
F06
100
AcDbEntity
  8
MSL3_160_3F-0
100
AcDbLine
 10
168.015759
 20
-124.71129
 30
0.0
 11
166.015759
 21
-124.71129
 31
0.0
  0
LINE
  5
F07
100
AcDbEntity
  8
MSL3_160_3F-0
100
AcDbLine
 10
165.015759
 20
-117.86129
 30
0.0
 11
164.015759
 21
-117.86129
 31
0.0
  0
LINE
  5
F08
100
AcDbEntity
  8
MSL3_160_3F-0
100
AcDbLine
 10
164.015759
 20
-119.21129
 30
0.0
 11
165.015759
 21
-119.21129
 31
0.0
  0
LINE
  5
F09
100
AcDbEntity
  8
MSL3_160_3F-0
100
AcDbLine
 10
166.015759
 20
-124.71129
 30
0.0
 11
165.015759
 21
-123.71129
 31
0.0
  0
LINE
  5
F0A
100
AcDbEntity
  8
MSL3_160_3F-0
100
AcDbLine
 10
171.065759
 20
-121.639493
 30
0.0
 11
169.965759
 21
-121.639493
 31
0.0
  0
ELLIPSE
  5
F0B
100
AcDbEntity
  8
MSL3_160_3F-0
100
AcDbEllipse
 10
182.515759
 20
-117.666602
 30
0.0
 11
4.283225000000015
 21
0.0
 31
0.0
210
0.0
220
0.0
230
1.0
 40
0.766044
 41
0.0
 42
6.2831853071796
  0
ELLIPSE
  5
F0C
100
AcDbEntity
  8
MSL3_160_3F-4
100
AcDbEllipse
 10
182.515759
 20
-117.666602
 30
0.0
 11
4.863999999999975
 21
0.0
 31
0.0
210
0.0
220
0.0
230
1.0
 40
0.766044
 41
-1.637716455833842
 42
3.255308282467333
  0
LINE
  5
F0D
100
AcDbEntity
  8
MSL3_160_3F-0
100
AcDbLine
 10
173.515759
 20
-109.240113
 30
0.0
 11
192.215759
 21
-109.240113
 31
0.0
  0
ARC
  5
F0E
100
AcDbEntity
  8
MSL3_160_3F-0
100
AcDbCircle
 10
172.067682
 20
-104.318985
 30
0.0
 40
4.051923
100
AcDbArc
 50
121.248243
 51
238.751757
  0
ARC
  5
F0F
100
AcDbEntity
  8
MSL3_160_3F-0
100
AcDbCircle
 10
168.963836
 20
-104.318985
 30
0.0
 40
4.051923
100
AcDbArc
 50
301.248241
 51
58.751759
  0
LINE
  5
F10
100
AcDbEntity
  8
MSL3_160_3F-0
100
AcDbLine
 10
173.515759
 20
-109.240113
 30
0.0
 11
173.515759
 21
-97.21129
 31
0.0
  0
LINE
  5
F11
100
AcDbEntity
  8
MSL3_160_3F-0
100
AcDbLine
 10
166.015759
 20
-104.71129
 30
0.0
 11
168.015759
 21
-104.71129
 31
0.0
  0
LINE
  5
F12
100
AcDbEntity
  8
MSL3_160_3F-0
100
AcDbLine
 10
165.015759
 20
-111.56129
 30
0.0
 11
164.015759
 21
-111.56129
 31
0.0
  0
LINE
  5
F13
100
AcDbEntity
  8
MSL3_160_3F-0
100
AcDbLine
 10
165.015759
 20
-105.71129
 30
0.0
 11
166.015759
 21
-104.71129
 31
0.0
  0
LINE
  5
F14
100
AcDbEntity
  8
MSL3_160_3F-0
100
AcDbLine
 10
171.065759
 20
-107.783087
 30
0.0
 11
169.965759
 21
-107.783087
 31
0.0
  0
LINE
  5
F15
100
AcDbEntity
  8
MSL3_160_3F-0
100
AcDbLine
 10
171.065759
 20
-100.854883
 30
0.0
 11
169.965759
 21
-100.854883
 31
0.0
  0
LINE
  5
F16
100
AcDbEntity
  8
MSL3_160_3F-0
100
AcDbLine
 10
192.215759
 20
-109.240113
 30
0.0
 11
192.215759
 21
-109.882901
 31
0.0
  0
LINE
  5
F17
100
AcDbEntity
  8
MSL3_160_3F-7
100
AcDbLine
 10
323.015759
 20
-199.21129
 30
0.0
 11
323.015759
 21
-181.479239
 31
0.0
  0
LINE
  5
F18
100
AcDbEntity
  8
MSL3_160_3F-7
100
AcDbLine
 10
223.015759
 20
-175.791874
 30
0.0
 11
223.015759
 21
-199.21129
 31
0.0
  0
LINE
  5
F19
100
AcDbEntity
  8
MSL3_160_3F-7
100
AcDbLine
 10
263.015759
 20
-175.791874
 30
0.0
 11
263.015759
 21
-199.21129
 31
0.0
  0
LINE
  5
F1A
100
AcDbEntity
  8
MSL3_160_3F-7
100
AcDbLine
 10
243.015759
 20
-199.21129
 30
0.0
 11
243.015759
 21
-181.479239
 31
0.0
  0
LINE
  5
F1B
100
AcDbEntity
  8
MSL3_160_3F-7
100
AcDbLine
 10
217.015759
 20
-184.105438
 30
0.0
 11
217.015759
 21
-198.531927
 31
0.0
1001
GENIUS_GENODEF_13
1002
{
1000
HIER
1070
     0
1002
}
1002
{
1000
MANEDIT
1070
     0
1002
}
1002
{
1000
NOSEL
1070
     0
1002
}
1002
{
1000
BEHIND
1070
     0
1002
}
1002
{
1000
REACTOR
1002
}
1001
GENIUS_GENOBJ-N-CEN_13
1002
{
1000
OWNER
1000
GEN
1002
}
  0
LINE
  5
F1C
100
AcDbEntity
  8
MSL3_160_3F-7
100
AcDbLine
 10
283.015759
 20
-199.21129
 30
0.0
 11
283.015759
 21
-181.479239
 31
0.0
  0
LINE
  5
F1D
100
AcDbEntity
  8
MSL3_160_3F-7
100
AcDbLine
 10
303.015759
 20
-175.791874
 30
0.0
 11
303.015759
 21
-199.21129
 31
0.0
  0
LINE
  5
F1E
100
AcDbEntity
  8
MSL3_160_3F-0
100
AcDbLine
 10
234.017102
 20
-200.711283
 30
0.0
 11
226.017102
 21
-200.711288
 31
0.0
  0
ELLIPSE
  5
F1F
100
AcDbEntity
  8
MSL3_160_3F-0
100
AcDbEllipse
 10
217.015759
 20
-191.318683
 30
0.0
 11
5.500000000006366
 21
0.0
 31
0.0
210
0.0
220
0.0
230
1.0
 40
0.766044
 41
0.0
 42
6.2831853071796
  0
ELLIPSE
  5
F20
100
AcDbEntity
  8
MSL3_160_3F-0
100
AcDbEllipse
 10
217.015756
 20
-189.583165
 30
0.0
 11
5.499999999998895
 21
0.0000090659728525
 31
0.0
210
0.0
220
0.0
230
-1.0
 40
0.766044
 41
3.141592653589787
 42
6.283185307179871
  0
LINE
  5
F21
100
AcDbEntity
  8
MSL3_160_3F-7
100
AcDbLine
 10
208.515759
 20
-191.318694
 30
0.0
 11
225.515759
 21
-191.31868
 31
0.0
1001
GENIUS_GENODEF_13
1002
{
1000
HIER
1070
     0
1002
}
1002
{
1000
MANEDIT
1070
     0
1002
}
1002
{
1000
NOSEL
1070
     0
1002
}
1002
{
1000
BEHIND
1070
     0
1002
}
1002
{
1000
REACTOR
1002
}
1001
GENIUS_GENOBJ-N-CEN_13
1002
{
1000
OWNER
1000
GEN
1002
}
  0
LINE
  5
F22
100
AcDbEntity
  8
MSL3_160_3F-0
100
AcDbLine
 10
211.515756
 20
-189.583165
 30
0.0
 11
211.515759
 21
-191.31871
 31
0.0
  0
LINE
  5
F23
100
AcDbEntity
  8
MSL3_160_3F-7
100
AcDbLine
 10
230.015764
 20
-203.500031
 30
0.0
 11
230.015756
 21
-192.307304
 31
0.0
  0
LINE
  5
F24
100
AcDbEntity
  8
MSL3_160_3F-0
100
AcDbLine
 10
225.017099
 20
-196.21129
 30
0.0
 11
225.017101
 21
-199.211273
 31
0.0
  0
LINE
  5
F25
100
AcDbEntity
  8
MSL3_160_3F-0
100
AcDbLine
 10
214.017101
 20
-199.211281
 30
0.0
 11
214.017099
 21
-196.21129
 31
0.0
  0
LINE
  5
F26
100
AcDbEntity
  8
MSL3_160_3F-7
100
AcDbLine
 10
219.515764
 20
-203.500022
 30
0.0
 11
219.515756
 21
-192.307295
 31
0.0
  0
LINE
  5
F27
100
AcDbEntity
  8
MSL3_160_3F-0
100
AcDbLine
 10
223.517102
 20
-200.711275
 30
0.0
 11
215.517102
 21
-200.71128
 31
0.0
  0
ARC
  5
F28
100
AcDbEntity
  8
MSL3_160_3F-0
100
AcDbCircle
 10
215.517101
 20
-199.21128
 30
0.0
 40
1.5
100
AcDbArc
 50
180.000038
 51
270.000041
  0
LINE
  5
F29
100
AcDbEntity
  8
MSL3_160_3F-0
100
AcDbLine
 10
223.517102
 20
-200.711275
 30
0.0
 11
223.517102
 21
-200.711275
 31
0.0
  0
ARC
  5
F2A
100
AcDbEntity
  8
MSL3_160_3F-0
100
AcDbCircle
 10
223.517101
 20
-199.211275
 30
0.0
 40
1.5
100
AcDbArc
 50
270.000041
 51
0.00004
  0
ARC
  5
F2B
100
AcDbEntity
  8
MSL3_160_3F-0
100
AcDbCircle
 10
226.017101
 20
-199.211288
 30
0.0
 40
1.5
100
AcDbArc
 50
213.556991
 51
270.000041
  0
LINE
  5
F2C
100
AcDbEntity
  8
MSL3_160_3F-0
100
AcDbLine
 10
222.515756
 20
-189.583156
 30
0.0
 11
222.515759
 21
-191.318683
 31
0.0
  0
LINE
  5
F2D
100
AcDbEntity
  8
MSL3_160_3F-0
100
AcDbLine
 10
217.015761
 20
-192.604267
 30
0.0
 11
219.015759
 21
-191.318688
 31
0.0
  0
LINE
  5
F2E
100
AcDbEntity
  8
MSL3_160_3F-0
100
AcDbLine
 10
215.015759
 20
-191.318701
 30
0.0
 11
217.015761
 21
-192.604267
 31
0.0
  0
ELLIPSE
  5
F2F
100
AcDbEntity
  8
MSL3_160_3F-0
100
AcDbEllipse
 10
217.015759
 20
-191.318683
 30
0.0
 11
2.000000000006366
 21
0.0
 31
0.0
210
0.0
220
0.0
230
1.0
 40
0.766044
 41
0.0
 42
6.2831853071796
  0
LINE
  5
F30
100
AcDbEntity
  8
MSL3_160_3F-0
100
AcDbLine
 10
235.517099
 20
-196.21129
 30
0.0
 11
235.517101
 21
-199.211282
 31
0.0
  0
ARC
  5
F31
100
AcDbEntity
  8
MSL3_160_3F-0
100
AcDbCircle
 10
234.017101
 20
-199.211283
 30
0.0
 40
1.5
100
AcDbArc
 50
270.000041
 51
0.00004
  0
LINE
  5
F32
100
AcDbEntity
  8
MSL3_160_3F-7
100
AcDbLine
 10
263.015759
 20
-126.21129
 30
0.0
 11
269.015759
 21
-126.21129
 31
0.0
  0
LINE
  5
F33
100
AcDbEntity
  8
MSL3_160_3F-7
100
AcDbLine
 10
263.015759
 20
-166.21129
 30
0.0
 11
269.015759
 21
-166.21129
 31
0.0
  0
LINE
  5
F34
100
AcDbEntity
  8
MSL3_160_3F-7
100
AcDbLine
 10
243.015759
 20
-132.21129
 30
0.0
 11
243.015759
 21
-160.21129
 31
0.0
  0
LINE
  5
F35
100
AcDbEntity
  8
MSL3_160_3F-7
100
AcDbLine
 10
223.015759
 20
-166.21129
 30
0.0
 11
223.015759
 21
-160.21129
 31
0.0
  0
LINE
  5
F36
100
AcDbEntity
  8
MSL3_160_3F-7
100
AcDbLine
 10
223.015759
 20
-166.21129
 30
0.0
 11
217.015759
 21
-166.21129
 31
0.0
  0
ARC
  5
F37
100
AcDbEntity
  8
MSL3_160_3F-3
100
AcDbCircle
 10
223.015759
 20
-166.21129
 30
0.0
 40
3.0
100
AcDbArc
 50
353.599193
 51
276.865645
  0
CIRCLE
  5
F38
100
AcDbEntity
  8
MSL3_160_3F-3
100
AcDbCircle
 10
223.015759
 20
-166.21129
 30
0.0
 40
2.5
  0
LINE
  5
F39
100
AcDbEntity
  8
MSL3_160_3F-7
100
AcDbLine
 10
223.015759
 20
-166.21129
 30
0.0
 11
223.015759
 21
-172.21129
 31
0.0
  0
LINE
  5
F3A
100
AcDbEntity
  8
MSL3_160_3F-7
100
AcDbLine
 10
223.015759
 20
-166.21129
 30
0.0
 11
229.015759
 21
-166.21129
 31
0.0
  0
LINE
  5
F3B
100
AcDbEntity
  8
MSL3_160_3F-7
100
AcDbLine
 10
263.015759
 20
-166.21129
 30
0.0
 11
263.015759
 21
-160.21129
 31
0.0
  0
LINE
  5
F3C
100
AcDbEntity
  8
MSL3_160_3F-7
100
AcDbLine
 10
243.015759
 20
-166.21129
 30
0.0
 11
243.015759
 21
-160.21129
 31
0.0
  0
CIRCLE
  5
F3D
100
AcDbEntity
  8
MSL3_160_3F-3
100
AcDbCircle
 10
243.015759
 20
-166.21129
 30
0.0
 40
3.0
  0
LINE
  5
F3E
100
AcDbEntity
  8
MSL3_160_3F-7
100
AcDbLine
 10
243.015759
 20
-166.21129
 30
0.0
 11
237.015759
 21
-166.21129
 31
0.0
  0
LINE
  5
F3F
100
AcDbEntity
  8
MSL3_160_3F-7
100
AcDbLine
 10
243.015759
 20
-166.21129
 30
0.0
 11
243.015759
 21
-172.21129
 31
0.0
  0
LINE
  5
F40
100
AcDbEntity
  8
MSL3_160_3F-7
100
AcDbLine
 10
243.015759
 20
-166.21129
 30
0.0
 11
249.015759
 21
-166.21129
 31
0.0
  0
LINE
  5
F41
100
AcDbEntity
  8
MSL3_160_3F-7
100
AcDbLine
 10
263.015759
 20
-166.21129
 30
0.0
 11
257.015759
 21
-166.21129
 31
0.0
  0
LINE
  5
F42
100
AcDbEntity
  8
MSL3_160_3F-7
100
AcDbLine
 10
263.015759
 20
-166.21129
 30
0.0
 11
263.015759
 21
-172.21129
 31
0.0
  0
ARC
  5
F43
100
AcDbEntity
  8
MSL3_160_3F-3
100
AcDbCircle
 10
263.015759
 20
-166.21129
 30
0.0
 40
3.0
100
AcDbArc
 50
353.599193
 51
276.865645
  0
CIRCLE
  5
F44
100
AcDbEntity
  8
MSL3_160_3F-3
100
AcDbCircle
 10
263.015759
 20
-166.21129
 30
0.0
 40
2.5
  0
LINE
  5
F45
100
AcDbEntity
  8
MSL3_160_3F-7
100
AcDbLine
 10
223.015759
 20
-116.630705
 30
0.0
 11
223.015759
 21
-93.21129
 31
0.0
  0
LINE
  5
F46
100
AcDbEntity
  8
MSL3_160_3F-7
100
AcDbLine
 10
223.015759
 20
-126.21129
 30
0.0
 11
223.015759
 21
-120.21129
 31
0.0
  0
CIRCLE
  5
F47
100
AcDbEntity
  8
MSL3_160_3F-3
100
AcDbCircle
 10
223.015759
 20
-126.21129
 30
0.0
 40
2.5
  0
ARC
  5
F48
100
AcDbEntity
  8
MSL3_160_3F-3
100
AcDbCircle
 10
223.015759
 20
-126.21129
 30
0.0
 40
3.0
100
AcDbArc
 50
353.599193
 51
276.865645
  0
LINE
  5
F49
100
AcDbEntity
  8
MSL3_160_3F-7
100
AcDbLine
 10
223.015759
 20
-126.21129
 30
0.0
 11
217.015759
 21
-126.21129
 31
0.0
  0
LINE
  5
F4A
100
AcDbEntity
  8
MSL3_160_3F-7
100
AcDbLine
 10
223.015759
 20
-126.21129
 30
0.0
 11
223.015759
 21
-132.21129
 31
0.0
  0
LINE
  5
F4B
100
AcDbEntity
  8
MSL3_160_3F-7
100
AcDbLine
 10
223.015759
 20
-126.21129
 30
0.0
 11
229.015759
 21
-126.21129
 31
0.0
  0
LINE
  5
F4C
100
AcDbEntity
  8
MSL3_160_3F-7
100
AcDbLine
 10
263.015759
 20
-116.630705
 30
0.0
 11
263.015759
 21
-93.21129
 31
0.0
  0
LINE
  5
F4D
100
AcDbEntity
  8
MSL3_160_3F-7
100
AcDbLine
 10
243.015759
 20
-126.21129
 30
0.0
 11
243.015759
 21
-120.21129
 31
0.0
  0
CIRCLE
  5
F4E
100
AcDbEntity
  8
MSL3_160_3F-3
100
AcDbCircle
 10
243.015759
 20
-126.21129
 30
0.0
 40
3.0
  0
LINE
  5
F4F
100
AcDbEntity
  8
MSL3_160_3F-7
100
AcDbLine
 10
243.015759
 20
-126.21129
 30
0.0
 11
237.015759
 21
-126.21129
 31
0.0
  0
LINE
  5
F50
100
AcDbEntity
  8
MSL3_160_3F-7
100
AcDbLine
 10
243.015759
 20
-126.21129
 30
0.0
 11
243.015759
 21
-132.21129
 31
0.0
  0
LINE
  5
F51
100
AcDbEntity
  8
MSL3_160_3F-7
100
AcDbLine
 10
243.015759
 20
-126.21129
 30
0.0
 11
249.015759
 21
-126.21129
 31
0.0
  0
LINE
  5
F52
100
AcDbEntity
  8
MSL3_160_3F-7
100
AcDbLine
 10
263.015759
 20
-126.21129
 30
0.0
 11
263.015759
 21
-120.21129
 31
0.0
  0
ARC
  5
F53
100
AcDbEntity
  8
MSL3_160_3F-3
100
AcDbCircle
 10
263.015759
 20
-126.21129
 30
0.0
 40
3.0
100
AcDbArc
 50
353.599193
 51
276.865645
  0
CIRCLE
  5
F54
100
AcDbEntity
  8
MSL3_160_3F-3
100
AcDbCircle
 10
263.015759
 20
-126.21129
 30
0.0
 40
2.5
  0
LINE
  5
F55
100
AcDbEntity
  8
MSL3_160_3F-7
100
AcDbLine
 10
263.015759
 20
-126.21129
 30
0.0
 11
257.015759
 21
-126.21129
 31
0.0
  0
LINE
  5
F56
100
AcDbEntity
  8
MSL3_160_3F-7
100
AcDbLine
 10
263.015759
 20
-126.21129
 30
0.0
 11
263.015759
 21
-132.21129
 31
0.0
  0
LINE
  5
F57
100
AcDbEntity
  8
MSL3_160_3F-7
100
AcDbLine
 10
243.015759
 20
-93.21129
 30
0.0
 11
243.015759
 21
-110.94334
 31
0.0
  0
LINE
  5
F58
100
AcDbEntity
  8
MSL3_160_3F-7
100
AcDbLine
 10
323.015759
 20
-132.21129
 30
0.0
 11
323.015759
 21
-160.21129
 31
0.0
  0
LINE
  5
F59
100
AcDbEntity
  8
MSL3_160_3F-7
100
AcDbLine
 10
283.015759
 20
-132.21129
 30
0.0
 11
283.015759
 21
-160.21129
 31
0.0
  0
LINE
  5
F5A
100
AcDbEntity
  8
MSL3_160_3F-7
100
AcDbLine
 10
303.015759
 20
-166.21129
 30
0.0
 11
309.015759
 21
-166.21129
 31
0.0
  0
CIRCLE
  5
F5B
100
AcDbEntity
  8
MSL3_160_3F-3
100
AcDbCircle
 10
303.015759
 20
-166.21129
 30
0.0
 40
2.5
  0
ARC
  5
F5C
100
AcDbEntity
  8
MSL3_160_3F-3
100
AcDbCircle
 10
303.015759
 20
-166.21129
 30
0.0
 40
3.0
100
AcDbArc
 50
353.599193
 51
276.865645
  0
LINE
  5
F5D
100
AcDbEntity
  8
MSL3_160_3F-7
100
AcDbLine
 10
283.015759
 20
-166.21129
 30
0.0
 11
283.015759
 21
-160.21129
 31
0.0
  0
LINE
  5
F5E
100
AcDbEntity
  8
MSL3_160_3F-7
100
AcDbLine
 10
303.015759
 20
-166.21129
 30
0.0
 11
303.015759
 21
-160.21129
 31
0.0
  0
LINE
  5
F5F
100
AcDbEntity
  8
MSL3_160_3F-7
100
AcDbLine
 10
283.015759
 20
-166.21129
 30
0.0
 11
289.015759
 21
-166.21129
 31
0.0
  0
LINE
  5
F60
100
AcDbEntity
  8
MSL3_160_3F-7
100
AcDbLine
 10
283.015759
 20
-166.21129
 30
0.0
 11
277.015759
 21
-166.21129
 31
0.0
  0
LINE
  5
F61
100
AcDbEntity
  8
MSL3_160_3F-7
100
AcDbLine
 10
283.015759
 20
-166.21129
 30
0.0
 11
283.015759
 21
-172.21129
 31
0.0
  0
CIRCLE
  5
F62
100
AcDbEntity
  8
MSL3_160_3F-3
100
AcDbCircle
 10
283.015759
 20
-166.21129
 30
0.0
 40
3.0
  0
LINE
  5
F63
100
AcDbEntity
  8
MSL3_160_3F-7
100
AcDbLine
 10
303.015759
 20
-166.21129
 30
0.0
 11
303.015759
 21
-172.21129
 31
0.0
  0
LINE
  5
F64
100
AcDbEntity
  8
MSL3_160_3F-7
100
AcDbLine
 10
303.015759
 20
-166.21129
 30
0.0
 11
297.015759
 21
-166.21129
 31
0.0
  0
LINE
  5
F65
100
AcDbEntity
  8
MSL3_160_3F-7
100
AcDbLine
 10
323.015759
 20
-166.21129
 30
0.0
 11
323.015759
 21
-160.21129
 31
0.0
  0
CIRCLE
  5
F66
100
AcDbEntity
  8
MSL3_160_3F-3
100
AcDbCircle
 10
323.015759
 20
-166.21129
 30
0.0
 40
3.0
  0
LINE
  5
F67
100
AcDbEntity
  8
MSL3_160_3F-7
100
AcDbLine
 10
323.015759
 20
-166.21129
 30
0.0
 11
329.015759
 21
-166.21129
 31
0.0
  0
LINE
  5
F68
100
AcDbEntity
  8
MSL3_160_3F-7
100
AcDbLine
 10
323.015759
 20
-166.21129
 30
0.0
 11
323.015759
 21
-172.21129
 31
0.0
  0
LINE
  5
F69
100
AcDbEntity
  8
MSL3_160_3F-7
100
AcDbLine
 10
323.015759
 20
-166.21129
 30
0.0
 11
317.015759
 21
-166.21129
 31
0.0
  0
LINE
  5
F6A
100
AcDbEntity
  8
MSL3_160_3F-7
100
AcDbLine
 10
303.015759
 20
-126.21129
 30
0.0
 11
309.015759
 21
-126.21129
 31
0.0
  0
CIRCLE
  5
F6B
100
AcDbEntity
  8
MSL3_160_3F-3
100
AcDbCircle
 10
303.015759
 20
-126.21129
 30
0.0
 40
2.5
  0
ARC
  5
F6C
100
AcDbEntity
  8
MSL3_160_3F-3
100
AcDbCircle
 10
303.015759
 20
-126.21129
 30
0.0
 40
3.0
100
AcDbArc
 50
353.599193
 51
276.865645
  0
LINE
  5
F6D
100
AcDbEntity
  8
MSL3_160_3F-7
100
AcDbLine
 10
303.015759
 20
-116.630705
 30
0.0
 11
303.015759
 21
-93.21129
 31
0.0
  0
LINE
  5
F6E
100
AcDbEntity
  8
MSL3_160_3F-7
100
AcDbLine
 10
283.015759
 20
-126.21129
 30
0.0
 11
289.015759
 21
-126.21129
 31
0.0
  0
CIRCLE
  5
F6F
100
AcDbEntity
  8
MSL3_160_3F-3
100
AcDbCircle
 10
283.015759
 20
-126.21129
 30
0.0
 40
3.0
  0
LINE
  5
F70
100
AcDbEntity
  8
MSL3_160_3F-7
100
AcDbLine
 10
283.015759
 20
-126.21129
 30
0.0
 11
283.015759
 21
-120.21129
 31
0.0
  0
LINE
  5
F71
100
AcDbEntity
  8
MSL3_160_3F-7
100
AcDbLine
 10
283.015759
 20
-126.21129
 30
0.0
 11
277.015759
 21
-126.21129
 31
0.0
  0
LINE
  5
F72
100
AcDbEntity
  8
MSL3_160_3F-7
100
AcDbLine
 10
283.015759
 20
-126.21129
 30
0.0
 11
283.015759
 21
-132.21129
 31
0.0
  0
LINE
  5
F73
100
AcDbEntity
  8
MSL3_160_3F-7
100
AcDbLine
 10
303.015759
 20
-126.21129
 30
0.0
 11
303.015759
 21
-120.21129
 31
0.0
  0
LINE
  5
F74
100
AcDbEntity
  8
MSL3_160_3F-7
100
AcDbLine
 10
303.015759
 20
-126.21129
 30
0.0
 11
303.015759
 21
-132.21129
 31
0.0
  0
LINE
  5
F75
100
AcDbEntity
  8
MSL3_160_3F-7
100
AcDbLine
 10
303.015759
 20
-126.21129
 30
0.0
 11
297.015759
 21
-126.21129
 31
0.0
  0
LINE
  5
F76
100
AcDbEntity
  8
MSL3_160_3F-7
100
AcDbLine
 10
283.015759
 20
-93.21129
 30
0.0
 11
283.015759
 21
-110.94334
 31
0.0
  0
CIRCLE
  5
F77
100
AcDbEntity
  8
MSL3_160_3F-3
100
AcDbCircle
 10
323.015759
 20
-126.21129
 30
0.0
 40
3.0
  0
LINE
  5
F78
100
AcDbEntity
  8
MSL3_160_3F-7
100
AcDbLine
 10
323.015759
 20
-126.21129
 30
0.0
 11
329.015759
 21
-126.21129
 31
0.0
  0
LINE
  5
F79
100
AcDbEntity
  8
MSL3_160_3F-7
100
AcDbLine
 10
323.015759
 20
-126.21129
 30
0.0
 11
323.015759
 21
-120.21129
 31
0.0
  0
LINE
  5
F7A
100
AcDbEntity
  8
MSL3_160_3F-7
100
AcDbLine
 10
323.015759
 20
-126.21129
 30
0.0
 11
323.015759
 21
-132.21129
 31
0.0
  0
LINE
  5
F7B
100
AcDbEntity
  8
MSL3_160_3F-7
100
AcDbLine
 10
323.015759
 20
-126.21129
 30
0.0
 11
317.015759
 21
-126.21129
 31
0.0
  0
LINE
  5
F7C
100
AcDbEntity
  8
MSL3_160_3F-7
100
AcDbLine
 10
323.015759
 20
-93.21129
 30
0.0
 11
323.015759
 21
-110.94334
 31
0.0
  0
TEXT
  5
F7D
100
AcDbEntity
  8
MSL3_160_3F-6
100
AcDbText
 10
174.748145
 20
-23.305639
 30
0.0
 40
3.5
  1
MSL3-160-3F
100
AcDbText
  0
LINE
  5
F7E
100
AcDbEntity
  8
MSL3_160_3F-0
100
AcDbLine
 10
203.515759
 20
25.0
 30
0.0
 11
173.515759
 21
25.0
 31
0.0
  0
LINE
  5
F7F
100
AcDbEntity
  8
MSL3_160_3F-4
100
AcDbLine
 10
203.515759
 20
27.0
 30
0.0
 11
173.515759
 21
27.0
 31
0.0
  0
LINE
  5
F80
100
AcDbEntity
  8
MSL3_160_3F-0
100
AcDbLine
 10
50.0
 20
44.2
 30
0.0
 11
50.0
 21
-26.0
 31
0.0
  0
LINE
  5
F81
100
AcDbEntity
  8
MSL3_160_3F-0
100
AcDbLine
 10
133.015759
 20
-26.0
 30
0.0
 11
133.015759
 21
80.0
 31
0.0
  0
LINE
  5
F82
100
AcDbEntity
  8
MSL3_160_3F-0
100
AcDbLine
 10
153.015759
 20
80.0
 30
0.0
 11
153.015759
 21
3.999286
 31
0.0
  0
LINE
  5
F83
100
AcDbEntity
  8
MSL3_160_3F-0
100
AcDbLine
 10
173.015759
 20
25.0
 30
0.0
 11
173.015759
 21
-25.0
 31
0.0
  0
LINE
  5
F84
100
AcDbEntity
  8
MSL3_160_3F-0
100
AcDbLine
 10
153.015759
 20
-8.000909
 30
0.0
 11
173.015759
 21
-8.000909
 31
0.0
  0
LINE
  5
F85
100
AcDbEntity
  8
MSL3_160_3F-0
100
AcDbLine
 10
155.015759
 20
-11.500714
 30
0.0
 11
173.015759
 21
-11.500714
 31
0.0
  0
CIRCLE
  5
F86
100
AcDbEntity
  8
MSL3_160_3F-0
100
AcDbCircle
 10
139.015759
 20
-20.0
 30
0.0
 40
2.5
  0
ARC
  5
F87
100
AcDbEntity
  8
MSL3_160_3F-4
100
AcDbCircle
 10
139.015759
 20
-20.0
 30
0.0
 40
3.0
100
AcDbArc
 50
251.265343
 51
200.571702
  0
LINE
  5
F88
100
AcDbEntity
  8
MSL3_160_3F-3
100
AcDbLine
 10
144.557259
 20
-26.0
 30
0.0
 11
144.557259
 21
-10.0
 31
0.0
  0
LINE
  5
F89
100
AcDbEntity
  8
MSL3_160_3F-3
100
AcDbLine
 10
149.474259
 20
-26.0
 30
0.0
 11
149.474259
 21
-10.0
 31
0.0
  0
LINE
  5
F8A
100
AcDbEntity
  8
MSL3_160_3F-3
100
AcDbLine
 10
144.015759
 20
-26.0
 30
0.0
 11
144.015759
 21
-14.0
 31
0.0
  0
LINE
  5
F8B
100
AcDbEntity
  8
MSL3_160_3F-3
100
AcDbLine
 10
150.015759
 20
-26.0
 30
0.0
 11
150.015759
 21
-14.0
 31
0.0
  0
LINE
  5
F8C
100
AcDbEntity
  8
MSL3_160_3F-0
100
AcDbLine
 10
153.015759
 20
-4.000714
 30
0.0
 11
153.015759
 21
-26.0
 31
0.0
  0
LINE
  5
F8D
100
AcDbEntity
  8
MSL3_160_3F-7
100
AcDbLine
 10
147.015759
 20
-5.580584
 30
0.0
 11
147.015759
 21
-29.0
 31
0.0
  0
LINE
  5
F8E
100
AcDbEntity
  8
MSL3_160_3F-7
100
AcDbLine
 10
139.015759
 20
-20.0
 30
0.0
 11
139.015759
 21
-14.0
 31
0.0
  0
LINE
  5
F8F
100
AcDbEntity
  8
MSL3_160_3F-0
100
AcDbLine
 10
153.015759
 20
-26.0
 30
0.0
 11
133.015759
 21
-26.0
 31
0.0
  0
LINE
  5
F90
100
AcDbEntity
  8
MSL3_160_3F-7
100
AcDbLine
 10
139.015759
 20
-20.0
 30
0.0
 11
145.015759
 21
-20.0
 31
0.0
  0
LINE
  5
F91
100
AcDbEntity
  8
MSL3_160_3F-7
100
AcDbLine
 10
139.015759
 20
-20.0
 30
0.0
 11
139.015759
 21
-26.0
 31
0.0
  0
LINE
  5
F92
100
AcDbEntity
  8
MSL3_160_3F-7
100
AcDbLine
 10
139.015759
 20
-20.0
 30
0.0
 11
133.015759
 21
-20.0
 31
0.0
  0
LINE
  5
F93
100
AcDbEntity
  8
MSL3_160_3F-3
100
AcDbLine
 10
150.015759
 20
-14.0
 30
0.0
 11
144.015759
 21
-14.0
 31
0.0
  0
LINE
  5
F94
100
AcDbEntity
  8
MSL3_160_3F-3
100
AcDbLine
 10
149.474259
 20
-10.0
 30
0.0
 11
144.557259
 21
-10.0
 31
0.0
  0
LINE
  5
F95
100
AcDbEntity
  8
MSL3_160_3F-3
100
AcDbLine
 10
147.015759
 20
-8.580584
 30
0.0
 11
149.474259
 21
-10.0
 31
0.0
  0
LINE
  5
F96
100
AcDbEntity
  8
MSL3_160_3F-3
100
AcDbLine
 10
147.015759
 20
-8.580584
 30
0.0
 11
144.557259
 21
-10.0
 31
0.0
  0
LINE
  5
F97
100
AcDbEntity
  8
MSL3_160_3F-0
100
AcDbLine
 10
154.015759
 20
-10.500714
 30
0.0
 11
155.015759
 21
-11.500714
 31
0.0
  0
LINE
  5
F98
100
AcDbEntity
  8
MSL3_160_3F-0
100
AcDbLine
 10
154.015759
 20
-8.000909
 30
0.0
 11
154.015759
 21
-10.500714
 31
0.0
  0
LINE
  5
F99
100
AcDbEntity
  8
MSL3_160_3F-0
100
AcDbLine
 10
155.015759
 20
-11.500714
 30
0.0
 11
155.015759
 21
-8.000909
 31
0.0
  0
LINE
  5
F9A
100
AcDbEntity
  8
MSL3_160_3F-0
100
AcDbLine
 10
153.015759
 20
3.999286
 30
0.0
 11
153.015759
 21
-4.000714
 31
0.0
  0
LINE
  5
F9B
100
AcDbEntity
  8
MSL3_160_3F-3
100
AcDbLine
 10
49.0
 20
25.0
 30
0.0
 11
49.0
 21
45.0391
 31
0.0
  0
LINE
  5
F9C
100
AcDbEntity
  8
MSL3_160_3F-0
100
AcDbLine
 10
49.0
 20
45.0391
 30
0.0
 11
49.0
 21
45.406945
 31
0.0
  0
LINE
  5
F9D
100
AcDbEntity
  8
MSL3_160_3F-0
100
AcDbLine
 10
173.515759
 20
81.0
 30
0.0
 11
173.515759
 21
25.0
 31
0.0
  0
LINE
  5
F9E
100
AcDbEntity
  8
MSL3_160_3F-0
100
AcDbLine
 10
173.015759
 20
80.0
 30
0.0
 11
173.015759
 21
25.0
 31
0.0
  0
LINE
  5
F9F
100
AcDbEntity
  8
MSL3_160_3F-0
100
AcDbLine
 10
158.540759
 20
43.505553
 30
0.0
 11
153.990759
 21
43.505553
 31
0.0
  0
LINE
  5
FA0
100
AcDbEntity
  8
MSL3_160_3F-0
100
AcDbLine
 10
158.540759
 20
32.247223
 30
0.0
 11
153.990759
 21
32.247223
 31
0.0
  0
LINE
  5
FA1
100
AcDbEntity
  8
MSL3_160_3F-0
100
AcDbLine
 10
158.540759
 20
39.752777
 30
0.0
 11
153.990759
 21
39.752777
 31
0.0
  0
LINE
  5
FA2
100
AcDbEntity
  8
MSL3_160_3F-0
100
AcDbLine
 10
158.540759
 20
28.494446
 30
0.0
 11
153.990759
 21
28.494446
 31
0.0
  0
LINE
  5
FA3
100
AcDbEntity
  8
MSL3_160_3F-0
100
AcDbLine
 10
153.015759
 20
7.999091
 30
0.0
 11
173.015759
 21
7.999091
 31
0.0
  0
LINE
  5
FA4
100
AcDbEntity
  8
MSL3_160_3F-0
100
AcDbLine
 10
173.015759
 20
11.499286
 30
0.0
 11
155.015759
 21
11.499286
 31
0.0
  0
LINE
  5
FA5
100
AcDbEntity
  8
MSL3_160_3F-7
100
AcDbLine
 10
146.921809
 20
36.0
 30
0.0
 11
179.526616
 21
36.0
 31
0.0
  0
ARC
  5
FA6
100
AcDbEntity
  8
MSL3_160_3F-0
100
AcDbCircle
 10
155.308814
 20
30.370835
 30
0.0
 40
2.293056
100
AcDbArc
 50
125.085847
 51
234.914153
  0
ARC
  5
FA7
100
AcDbEntity
  8
MSL3_160_3F-4
100
AcDbCircle
 10
139.015759
 20
20.0
 30
0.0
 40
3.0
100
AcDbArc
 50
251.265343
 51
200.571702
  0
CIRCLE
  5
FA8
100
AcDbEntity
  8
MSL3_160_3F-0
100
AcDbCircle
 10
139.015759
 20
20.0
 30
0.0
 40
2.5
  0
LINE
  5
FA9
100
AcDbEntity
  8
MSL3_160_3F-7
100
AcDbLine
 10
139.015759
 20
20.0
 30
0.0
 11
145.015759
 21
20.0
 31
0.0
  0
LINE
  5
FAA
100
AcDbEntity
  8
MSL3_160_3F-7
100
AcDbLine
 10
139.015759
 20
20.0
 30
0.0
 11
139.015759
 21
14.0
 31
0.0
  0
LINE
  5
FAB
100
AcDbEntity
  8
MSL3_160_3F-7
100
AcDbLine
 10
139.015759
 20
20.0
 30
0.0
 11
139.015759
 21
26.0
 31
0.0
  0
LINE
  5
FAC
100
AcDbEntity
  8
MSL3_160_3F-7
100
AcDbLine
 10
139.015759
 20
20.0
 30
0.0
 11
133.015759
 21
20.0
 31
0.0
  0
LINE
  5
FAD
100
AcDbEntity
  8
MSL3_160_3F-0
100
AcDbLine
 10
154.015759
 20
10.499286
 30
0.0
 11
154.015759
 21
7.999091
 31
0.0
  0
LINE
  5
FAE
100
AcDbEntity
  8
MSL3_160_3F-0
100
AcDbLine
 10
155.015759
 20
7.999091
 30
0.0
 11
155.015759
 21
11.499286
 31
0.0
  0
LINE
  5
FAF
100
AcDbEntity
  8
MSL3_160_3F-0
100
AcDbLine
 10
155.015759
 20
11.499286
 30
0.0
 11
154.015759
 21
10.499286
 31
0.0
  0
LINE
  5
FB0
100
AcDbEntity
  8
MSL3_160_3F-0
100
AcDbLine
 10
133.015759
 20
44.2
 30
0.0
 11
153.015759
 21
44.2
 31
0.0
  0
ARC
  5
FB1
100
AcDbEntity
  8
MSL3_160_3F-0
100
AcDbCircle
 10
155.308814
 20
41.629165
 30
0.0
 40
2.293056
100
AcDbArc
 50
125.085847
 51
234.914153
  0
LINE
  5
FB2
100
AcDbEntity
  8
MSL3_160_3F-0
100
AcDbLine
 10
153.015759
 20
30.370835
 30
0.0
 11
153.015759
 21
41.629165
 31
0.0
  0
ARC
  5
FB3
100
AcDbEntity
  8
MSL3_160_3F-0
100
AcDbCircle
 10
160.725481
 20
36.0
 30
0.0
 40
7.709722
100
AcDbArc
 50
150.872216
 51
209.127784
  0
ARC
  5
FB4
100
AcDbEntity
  8
MSL3_160_3F-0
100
AcDbCircle
 10
173.124439
 20
28.638784
 30
0.0
 40
3.108681
100
AcDbArc
 50
127.878142
 51
232.121858
  0
LINE
  5
FB5
100
AcDbEntity
  8
MSL3_160_3F-0
100
AcDbLine
 10
166.015759
 20
43.505553
 30
0.0
 11
166.015759
 21
28.494446
 31
0.0
  0
ARC
  5
FB6
100
AcDbEntity
  8
MSL3_160_3F-0
100
AcDbCircle
 10
157.222703
 20
30.370835
 30
0.0
 40
2.293056
100
AcDbArc
 50
305.085848
 51
54.914152
  0
ARC
  5
FB7
100
AcDbEntity
  8
MSL3_160_3F-0
100
AcDbCircle
 10
167.453594
 20
30.370835
 30
0.0
 40
2.562165
100
AcDbArc
 50
312.916664
 51
47.083336
  0
LINE
  5
FB8
100
AcDbEntity
  8
MSL3_160_3F-0
100
AcDbLine
 10
166.015759
 20
28.494446
 30
0.0
 11
169.198259
 21
28.494446
 31
0.0
  0
LINE
  5
FB9
100
AcDbEntity
  8
MSL3_160_3F-0
100
AcDbLine
 10
173.015759
 20
26.2
 30
0.0
 11
171.196687
 21
26.2
 31
0.0
  0
ARC
  5
FBA
100
AcDbEntity
  8
MSL3_160_3F-0
100
AcDbCircle
 10
180.650481
 20
36.0
 30
0.0
 40
10.634722
100
AcDbArc
 50
152.518771
 51
207.481229
  0
ARC
  5
FBB
100
AcDbEntity
  8
MSL3_160_3F-0
100
AcDbCircle
 10
167.453594
 20
41.629165
 30
0.0
 40
2.562165
100
AcDbArc
 50
312.916664
 51
47.083336
  0
ARC
  5
FBC
100
AcDbEntity
  8
MSL3_160_3F-0
100
AcDbCircle
 10
157.222703
 20
41.629165
 30
0.0
 40
2.293056
100
AcDbArc
 50
305.085848
 51
54.914152
  0
LINE
  5
FBD
100
AcDbEntity
  8
MSL3_160_3F-0
100
AcDbLine
 10
170.015759
 20
43.361216
 30
0.0
 11
170.015759
 21
28.638784
 31
0.0
  0
LINE
  5
FBE
100
AcDbEntity
  8
MSL3_160_3F-0
100
AcDbLine
 10
159.515759
 20
30.370835
 30
0.0
 11
159.515759
 21
41.629165
 31
0.0
  0
LINE
  5
FBF
100
AcDbEntity
  8
MSL3_160_3F-0
100
AcDbLine
 10
170.015759
 20
41.629165
 30
0.0
 11
170.015759
 21
30.370835
 31
0.0
  0
LINE
  5
FC0
100
AcDbEntity
  8
MSL3_160_3F-0
100
AcDbLine
 10
169.198259
 20
32.247223
 30
0.0
 11
166.015759
 21
32.247223
 31
0.0
  0
LINE
  5
FC1
100
AcDbEntity
  8
MSL3_160_3F-0
100
AcDbLine
 10
169.198259
 20
39.752777
 30
0.0
 11
166.015759
 21
39.752777
 31
0.0
  0
ARC
  5
FC2
100
AcDbEntity
  8
MSL3_160_3F-0
100
AcDbCircle
 10
151.806036
 20
36.0
 30
0.0
 40
7.709722
100
AcDbArc
 50
330.872218
 51
29.127782
  0
LINE
  5
FC3
100
AcDbEntity
  8
MSL3_160_3F-0
100
AcDbLine
 10
159.515759
 20
32.0
 30
0.0
 11
166.015759
 21
32.0
 31
0.0
  0
LINE
  5
FC4
100
AcDbEntity
  8
MSL3_160_3F-0
100
AcDbLine
 10
159.515759
 20
40.0
 30
0.0
 11
166.015759
 21
40.0
 31
0.0
  0
LINE
  5
FC5
100
AcDbEntity
  8
MSL3_160_3F-0
100
AcDbLine
 10
171.215759
 20
31.092523
 30
0.0
 11
173.015759
 21
31.092523
 31
0.0
  0
ARC
  5
FC6
100
AcDbEntity
  8
MSL3_160_3F-0
100
AcDbCircle
 10
160.993349
 20
36.0
 30
0.0
 40
9.02241
100
AcDbArc
 50
335.421503
 51
24.578497
  0
LINE
  5
FC7
100
AcDbEntity
  8
MSL3_160_3F-0
100
AcDbLine
 10
169.198259
 20
43.505553
 30
0.0
 11
166.015759
 21
43.505553
 31
0.0
  0
LINE
  5
FC8
100
AcDbEntity
  8
MSL3_160_3F-0
100
AcDbLine
 10
171.196687
 20
45.8
 30
0.0
 11
173.015759
 21
45.8
 31
0.0
  0
LINE
  5
FC9
100
AcDbEntity
  8
MSL3_160_3F-0
100
AcDbLine
 10
171.215759
 20
40.907477
 30
0.0
 11
173.015759
 21
40.907477
 31
0.0
  0
ARC
  5
FCA
100
AcDbEntity
  8
MSL3_160_3F-0
100
AcDbCircle
 10
173.124439
 20
43.361216
 30
0.0
 40
3.108681
100
AcDbArc
 50
127.878142
 51
232.121858
  0
LINE
  5
FCB
100
AcDbEntity
  8
MSL3_160_3F-0
100
AcDbLine
 10
153.015759
 20
70.0
 30
0.0
 11
173.015759
 21
70.0
 31
0.0
  0
LINE
  5
FCC
100
AcDbEntity
  8
MSL3_160_3F-7
100
AcDbLine
 10
150.015759
 20
62.0
 30
0.0
 11
176.015759
 21
62.0
 31
0.0
1001
GENIUS_GENODEF_13
1002
{
1000
HIER
1070
     0
1002
}
1002
{
1000
MANEDIT
1070
     0
1002
}
1002
{
1000
NOSEL
1070
     0
1002
}
1002
{
1000
BEHIND
1070
     0
1002
}
1002
{
1000
REACTOR
1002
}
1001
GENIUS_GENOBJ-N-CEN_13
1002
{
1000
OWNER
1000
GEN
1002
}
  0
LINE
  5
FCD
100
AcDbEntity
  8
MSL3_160_3F-0
100
AcDbLine
 10
153.015759
 20
54.0
 30
0.0
 11
173.015759
 21
54.0
 31
0.0
  0
LINE
  5
FCE
100
AcDbEntity
  8
MSL3_160_3F-0
100
AcDbLine
 10
133.015759
 20
80.0
 30
0.0
 11
153.015759
 21
80.0
 31
0.0
  0
LINE
  5
FCF
100
AcDbEntity
  8
MSL3_160_3F-7
100
AcDbLine
 10
174.651759
 20
63.503606
 30
0.0
 11
190.379759
 21
63.503606
 31
0.0
1001
GENIUS_GENODEF_13
1002
{
1000
HIER
1070
     0
1002
}
1002
{
1000
MANEDIT
1070
     0
1002
}
1002
{
1000
NOSEL
1070
     0
1002
}
1002
{
1000
BEHIND
1070
     0
1002
}
1002
{
1000
REACTOR
1002
}
1001
GENIUS_GENOBJ-N-CEN_13
1002
{
1000
OWNER
1000
GEN
1002
}
  0
LINE
  5
FD0
100
AcDbEntity
  8
MSL3_160_3F-3
100
AcDbLine
 10
173.515759
 20
56.432942
 30
0.0
 11
192.215759
 21
56.432942
 31
0.0
  0
LINE
  5
FD1
100
AcDbEntity
  8
MSL3_160_3F-3
100
AcDbLine
 10
173.515759
 20
70.574269
 30
0.0
 11
192.215759
 21
70.574269
 31
0.0
  0
ELLIPSE
  5
FD2
100
AcDbEntity
  8
MSL3_160_3F-3
100
AcDbEllipse
 10
182.515759
 20
63.503606
 30
0.0
 11
4.283225000000015
 21
0.0
 31
0.0
210
0.0
220
0.0
230
1.0
 40
0.642788
 41
0.0
 42
6.2831853071796
  0
ELLIPSE
  5
FD3
100
AcDbEntity
  8
MSL3_160_3F-3
100
AcDbEllipse
 10
182.515759
 20
63.503606
 30
0.0
 11
4.863999999999919
 21
0.0
 31
0.0
210
0.0
220
0.0
230
1.0
 40
0.642788
 41
-1.626973784062189
 42
3.276869584235957
  0
LINE
  5
FD4
100
AcDbEntity
  8
MSL3_160_3F-3
100
AcDbLine
 10
192.215759
 20
70.574269
 30
0.0
 11
192.215759
 21
56.432942
 31
0.0
  0
LINE
  5
FD5
100
AcDbEntity
  8
MSL3_160_3F-7
100
AcDbLine
 10
182.515759
 20
57.377087
 30
0.0
 11
182.515759
 21
69.630125
 31
0.0
1001
GENIUS_GENODEF_13
1002
{
1000
HIER
1070
     0
1002
}
1002
{
1000
MANEDIT
1070
     0
1002
}
1002
{
1000
NOSEL
1070
     0
1002
}
1002
{
1000
BEHIND
1070
     0
1002
}
1002
{
1000
REACTOR
1002
}
1001
GENIUS_GENOBJ-N-CEN_13
1002
{
1000
OWNER
1000
GEN
1002
}
  0
LINE
  5
FD6
100
AcDbEntity
  8
MSL3_160_3F-0
100
AcDbLine
 10
173.015759
 20
80.0
 30
0.0
 11
173.515759
 21
80.0
 31
0.0
  0
LINE
  5
FD7
100
AcDbEntity
  8
MSL3_160_3F-7
100
AcDbLine
 10
323.015759
 20
14.0
 30
0.0
 11
323.015759
 21
-14.0
 31
0.0
  0
LINE
  5
FD8
100
AcDbEntity
  8
MSL3_160_3F-7
100
AcDbLine
 10
243.015759
 20
14.0
 30
0.0
 11
243.015759
 21
-14.0
 31
0.0
  0
LINE
  5
FD9
100
AcDbEntity
  8
MSL3_160_3F-7
100
AcDbLine
 10
283.015759
 20
14.0
 30
0.0
 11
283.015759
 21
-14.0
 31
0.0
  0
LINE
  5
FDA
100
AcDbEntity
  8
MSL3_160_3F-7
100
AcDbLine
 10
263.015759
 20
-20.0
 30
0.0
 11
269.015759
 21
-20.0
 31
0.0
  0
ARC
  5
FDB
100
AcDbEntity
  8
MSL3_160_3F-4
100
AcDbCircle
 10
223.015759
 20
-20.0
 30
0.0
 40
3.0
100
AcDbArc
 50
83.134355
 51
6.400807
  0
CIRCLE
  5
FDC
100
AcDbEntity
  8
MSL3_160_3F-0
100
AcDbCircle
 10
223.015759
 20
-20.0
 30
0.0
 40
2.5
  0
LINE
  5
FDD
100
AcDbEntity
  8
MSL3_160_3F-7
100
AcDbLine
 10
223.015759
 20
-20.0
 30
0.0
 11
223.015759
 21
-14.0
 31
0.0
  0
LINE
  5
FDE
100
AcDbEntity
  8
MSL3_160_3F-7
100
AcDbLine
 10
223.015759
 20
-20.0
 30
0.0
 11
217.015759
 21
-20.0
 31
0.0
  0
LINE
  5
FDF
100
AcDbEntity
  8
MSL3_160_3F-7
100
AcDbLine
 10
223.015759
 20
-20.0
 30
0.0
 11
223.015759
 21
-26.0
 31
0.0
  0
LINE
  5
FE0
100
AcDbEntity
  8
MSL3_160_3F-7
100
AcDbLine
 10
223.015759
 20
-20.0
 30
0.0
 11
229.015759
 21
-20.0
 31
0.0
  0
ARC
  5
FE1
100
AcDbEntity
  8
MSL3_160_3F-4
100
AcDbCircle
 10
263.015759
 20
-20.0
 30
0.0
 40
3.0
100
AcDbArc
 50
83.134355
 51
6.400807
  0
CIRCLE
  5
FE2
100
AcDbEntity
  8
MSL3_160_3F-0
100
AcDbCircle
 10
263.015759
 20
-20.0
 30
0.0
 40
2.5
  0
CIRCLE
  5
FE3
100
AcDbEntity
  8
MSL3_160_3F-0
100
AcDbCircle
 10
243.015759
 20
-20.0
 30
0.0
 40
3.0
  0
LINE
  5
FE4
100
AcDbEntity
  8
MSL3_160_3F-7
100
AcDbLine
 10
263.015759
 20
-20.0
 30
0.0
 11
263.015759
 21
-14.0
 31
0.0
  0
LINE
  5
FE5
100
AcDbEntity
  8
MSL3_160_3F-7
100
AcDbLine
 10
243.015759
 20
-20.0
 30
0.0
 11
243.015759
 21
-14.0
 31
0.0
  0
LINE
  5
FE6
100
AcDbEntity
  8
MSL3_160_3F-7
100
AcDbLine
 10
243.015759
 20
-20.0
 30
0.0
 11
237.015759
 21
-20.0
 31
0.0
  0
LINE
  5
FE7
100
AcDbEntity
  8
MSL3_160_3F-7
100
AcDbLine
 10
243.015759
 20
-20.0
 30
0.0
 11
243.015759
 21
-26.0
 31
0.0
  0
LINE
  5
FE8
100
AcDbEntity
  8
MSL3_160_3F-7
100
AcDbLine
 10
243.015759
 20
-20.0
 30
0.0
 11
249.015759
 21
-20.0
 31
0.0
  0
LINE
  5
FE9
100
AcDbEntity
  8
MSL3_160_3F-7
100
AcDbLine
 10
263.015759
 20
-20.0
 30
0.0
 11
257.015759
 21
-20.0
 31
0.0
  0
LINE
  5
FEA
100
AcDbEntity
  8
MSL3_160_3F-7
100
AcDbLine
 10
263.015759
 20
-20.0
 30
0.0
 11
263.015759
 21
-26.0
 31
0.0
  0
LINE
  5
FEB
100
AcDbEntity
  8
MSL3_160_3F-7
100
AcDbLine
 10
303.015759
 20
-20.0
 30
0.0
 11
309.015759
 21
-20.0
 31
0.0
  0
ARC
  5
FEC
100
AcDbEntity
  8
MSL3_160_3F-4
100
AcDbCircle
 10
303.015759
 20
-20.0
 30
0.0
 40
3.0
100
AcDbArc
 50
83.134355
 51
6.400807
  0
CIRCLE
  5
FED
100
AcDbEntity
  8
MSL3_160_3F-0
100
AcDbCircle
 10
303.015759
 20
-20.0
 30
0.0
 40
2.5
  0
CIRCLE
  5
FEE
100
AcDbEntity
  8
MSL3_160_3F-0
100
AcDbCircle
 10
283.015759
 20
-20.0
 30
0.0
 40
3.0
  0
LINE
  5
FEF
100
AcDbEntity
  8
MSL3_160_3F-7
100
AcDbLine
 10
283.015759
 20
-20.0
 30
0.0
 11
283.015759
 21
-14.0
 31
0.0
  0
LINE
  5
FF0
100
AcDbEntity
  8
MSL3_160_3F-7
100
AcDbLine
 10
303.015759
 20
-20.0
 30
0.0
 11
303.015759
 21
-14.0
 31
0.0
  0
LINE
  5
FF1
100
AcDbEntity
  8
MSL3_160_3F-7
100
AcDbLine
 10
283.015759
 20
-20.0
 30
0.0
 11
289.015759
 21
-20.0
 31
0.0
  0
LINE
  5
FF2
100
AcDbEntity
  8
MSL3_160_3F-7
100
AcDbLine
 10
283.015759
 20
-20.0
 30
0.0
 11
277.015759
 21
-20.0
 31
0.0
  0
LINE
  5
FF3
100
AcDbEntity
  8
MSL3_160_3F-7
100
AcDbLine
 10
283.015759
 20
-20.0
 30
0.0
 11
283.015759
 21
-26.0
 31
0.0
  0
LINE
  5
FF4
100
AcDbEntity
  8
MSL3_160_3F-7
100
AcDbLine
 10
303.015759
 20
-20.0
 30
0.0
 11
303.015759
 21
-26.0
 31
0.0
  0
LINE
  5
FF5
100
AcDbEntity
  8
MSL3_160_3F-7
100
AcDbLine
 10
303.015759
 20
-20.0
 30
0.0
 11
297.015759
 21
-20.0
 31
0.0
  0
CIRCLE
  5
FF6
100
AcDbEntity
  8
MSL3_160_3F-0
100
AcDbCircle
 10
323.015759
 20
-20.0
 30
0.0
 40
3.0
  0
LINE
  5
FF7
100
AcDbEntity
  8
MSL3_160_3F-7
100
AcDbLine
 10
323.015759
 20
-20.0
 30
0.0
 11
323.015759
 21
-14.0
 31
0.0
  0
LINE
  5
FF8
100
AcDbEntity
  8
MSL3_160_3F-7
100
AcDbLine
 10
323.015759
 20
-20.0
 30
0.0
 11
329.015759
 21
-20.0
 31
0.0
  0
LINE
  5
FF9
100
AcDbEntity
  8
MSL3_160_3F-7
100
AcDbLine
 10
323.015759
 20
-20.0
 30
0.0
 11
323.015759
 21
-26.0
 31
0.0
  0
LINE
  5
FFA
100
AcDbEntity
  8
MSL3_160_3F-7
100
AcDbLine
 10
323.015759
 20
-20.0
 30
0.0
 11
317.015759
 21
-20.0
 31
0.0
  0
LINE
  5
FFB
100
AcDbEntity
  8
MSL3_160_3F-7
100
AcDbLine
 10
263.015759
 20
20.0
 30
0.0
 11
269.015759
 21
20.0
 31
0.0
  0
LINE
  5
FFC
100
AcDbEntity
  8
MSL3_160_3F-0
100
AcDbLine
 10
217.015759
 20
54.28498
 30
0.0
 11
219.015759
 21
52.21666
 31
0.0
  0
LINE
  5
FFD
100
AcDbEntity
  8
MSL3_160_3F-0
100
AcDbLine
 10
215.015759
 20
52.21666
 30
0.0
 11
217.015759
 21
54.28498
 31
0.0
  0
ELLIPSE
  5
FFE
100
AcDbEntity
  8
MSL3_160_3F-0
100
AcDbEllipse
 10
217.015759
 20
52.21666
 30
0.0
 11
-2.0
 21
0.0
 31
0.0
210
0.0
220
0.0
230
1.0
 40
0.642788
 41
-1.112236758281637
 42
4.253829411871761
  0
ELLIPSE
  5
FFF
100
AcDbEntity
  8
MSL3_160_3F-0
100
AcDbEllipse
 10
217.015759
 20
52.21666
 30
0.0
 11
5.5
 21
0.0
 31
0.0
210
0.0
220
0.0
230
1.0
 40
0.642788
 41
0.0
 42
6.2831853071796
  0
LINE
  5
1000
100
AcDbEntity
  8
MSL3_160_3F-7
100
AcDbLine
 10
217.015759
 20
56.389579
 30
0.0
 11
217.015759
 21
42.8115
 31
0.0
1001
GENIUS_GENODEF_13
1002
{
1000
HIER
1070
     0
1002
}
1002
{
1000
MANEDIT
1070
     0
1002
}
1002
{
1000
NOSEL
1070
     0
1002
}
1002
{
1000
BEHIND
1070
     0
1002
}
1002
{
1000
REACTOR
1002
}
1001
GENIUS_GENOBJ-N-CEN_13
1002
{
1000
OWNER
1000
GEN
1002
}
  0
LINE
  5
1001
100
AcDbEntity
  8
MSL3_160_3F-7
100
AcDbLine
 10
237.765759
 20
32.0
 30
0.0
 11
222.265759
 21
32.0
 31
0.0
1001
GENIUS_GENODEF_13
1002
{
1000
HIER
1070
     0
1002
}
1002
{
1000
MANEDIT
1070
     0
1002
}
1002
{
1000
NOSEL
1070
     0
1002
}
1002
{
1000
BEHIND
1070
     0
1002
}
1002
{
1000
REACTOR
1002
}
1001
GENIUS_GENOBJ-N-CEN_13
1002
{
1000
OWNER
1000
GEN
1002
}
  0
CIRCLE
  5
1002
100
AcDbEntity
  8
MSL3_160_3F-0
100
AcDbCircle
 10
230.015759
 20
32.0
 30
0.0
 40
5.5
  0
LINE
  5
1003
100
AcDbEntity
  8
MSL3_160_3F-0
100
AcDbLine
 10
217.865759
 20
33.753334
 30
0.0
 11
217.865759
 21
25.0
 31
0.0
  0
LINE
  5
1004
100
AcDbEntity
  8
MSL3_160_3F-0
100
AcDbLine
 10
221.165759
 20
25.0
 30
0.0
 11
221.165759
 21
33.753334
 31
0.0
  0
LINE
  5
1005
100
AcDbEntity
  8
MSL3_160_3F-7
100
AcDbLine
 10
219.515759
 20
46.75
 30
0.0
 11
219.515759
 21
22.0
 31
0.0
1001
GENIUS_GENODEF_13
1002
{
1000
HIER
1070
     0
1002
}
1002
{
1000
MANEDIT
1070
     0
1002
}
1002
{
1000
NOSEL
1070
     0
1002
}
1002
{
1000
BEHIND
1070
     0
1002
}
1002
{
1000
REACTOR
1002
}
1001
GENIUS_GENOBJ-N-CEN_13
1002
{
1000
OWNER
1000
GEN
1002
}
  0
LINE
  5
1006
100
AcDbEntity
  8
MSL3_160_3F-7
100
AcDbLine
 10
230.015759
 20
39.75
 30
0.0
 11
230.015759
 21
22.0
 31
0.0
1001
GENIUS_GENODEF_13
1002
{
1000
HIER
1070
     0
1002
}
1002
{
1000
MANEDIT
1070
     0
1002
}
1002
{
1000
NOSEL
1070
     0
1002
}
1002
{
1000
BEHIND
1070
     0
1002
}
1002
{
1000
REACTOR
1002
}
1001
GENIUS_GENOBJ-N-CEN_13
1002
{
1000
OWNER
1000
GEN
1002
}
  0
LINE
  5
1007
100
AcDbEntity
  8
MSL3_160_3F-0
100
AcDbLine
 10
217.865759
 20
25.0
 30
0.0
 11
208.515759
 21
25.0
 31
0.0
  0
LINE
  5
1008
100
AcDbEntity
  8
MSL3_160_3F-0
100
AcDbLine
 10
208.515759
 20
27.0
 30
0.0
 11
203.515759
 21
27.0
 31
0.0
  0
LINE
  5
1009
100
AcDbEntity
  8
MSL3_160_3F-0
100
AcDbLine
 10
203.515759
 20
27.0
 30
0.0
 11
203.515759
 21
25.0
 31
0.0
  0
LINE
  5
100A
100
AcDbEntity
  8
MSL3_160_3F-0
100
AcDbLine
 10
208.515759
 20
25.0
 30
0.0
 11
208.515759
 21
27.0
 31
0.0
  0
LINE
  5
100B
100
AcDbEntity
  8
MSL3_160_3F-7
100
AcDbLine
 10
223.015759
 20
20.0
 30
0.0
 11
223.015759
 21
14.0
 31
0.0
  0
LINE
  5
100C
100
AcDbEntity
  8
MSL3_160_3F-7
100
AcDbLine
 10
223.015759
 20
20.0
 30
0.0
 11
217.015759
 21
20.0
 31
0.0
  0
LINE
  5
100D
100
AcDbEntity
  8
MSL3_160_3F-0
100
AcDbLine
 10
228.365759
 20
25.0
 30
0.0
 11
221.165759
 21
25.0
 31
0.0
  0
CIRCLE
  5
100E
100
AcDbEntity
  8
MSL3_160_3F-0
100
AcDbCircle
 10
223.015759
 20
20.0
 30
0.0
 40
2.5
  0
ARC
  5
100F
100
AcDbEntity
  8
MSL3_160_3F-4
100
AcDbCircle
 10
223.015759
 20
20.0
 30
0.0
 40
3.0
100
AcDbArc
 50
83.134355
 51
6.400807
  0
LINE
  5
1010
100
AcDbEntity
  8
MSL3_160_3F-0
100
AcDbLine
 10
231.665759
 20
25.0
 30
0.0
 11
231.665759
 21
26.753334
 31
0.0
  0
LINE
  5
1011
100
AcDbEntity
  8
MSL3_160_3F-0
100
AcDbLine
 10
228.365759
 20
25.0
 30
0.0
 11
228.365759
 21
26.753334
 31
0.0
  0
LINE
  5
1012
100
AcDbEntity
  8
MSL3_160_3F-7
100
AcDbLine
 10
223.015759
 20
20.0
 30
0.0
 11
223.015759
 21
26.0
 31
0.0
  0
LINE
  5
1013
100
AcDbEntity
  8
MSL3_160_3F-7
100
AcDbLine
 10
223.015759
 20
20.0
 30
0.0
 11
229.015759
 21
20.0
 31
0.0
  0
ELLIPSE
  5
1014
100
AcDbEntity
  8
MSL3_160_3F-0
100
AcDbEllipse
 10
217.015759
 20
50.684571
 30
0.0
 11
5.5
 21
0.0
 31
0.0
210
0.0
220
0.0
230
1.0
 40
0.642788
 41
3.141592653589793
 42
6.283185307179913
  0
LINE
  5
1015
100
AcDbEntity
  8
MSL3_160_3F-7
100
AcDbLine
 10
225.415759
 20
50.684571
 30
0.0
 11
208.615759
 21
50.684571
 31
0.0
1001
GENIUS_GENODEF_13
1002
{
1000
HIER
1070
     0
1002
}
1002
{
1000
MANEDIT
1070
     0
1002
}
1002
{
1000
NOSEL
1070
     0
1002
}
1002
{
1000
BEHIND
1070
     0
1002
}
1002
{
1000
REACTOR
1002
}
1001
GENIUS_GENOBJ-N-CEN_13
1002
{
1000
OWNER
1000
GEN
1002
}
  0
LINE
  5
1016
100
AcDbEntity
  8
MSL3_160_3F-7
100
AcDbLine
 10
227.265759
 20
39.0
 30
0.0
 11
211.765759
 21
39.0
 31
0.0
1001
GENIUS_GENODEF_13
1002
{
1000
HIER
1070
     0
1002
}
1002
{
1000
MANEDIT
1070
     0
1002
}
1002
{
1000
NOSEL
1070
     0
1002
}
1002
{
1000
BEHIND
1070
     0
1002
}
1002
{
1000
REACTOR
1002
}
1001
GENIUS_GENOBJ-N-CEN_13
1002
{
1000
OWNER
1000
GEN
1002
}
  0
LINE
  5
1017
100
AcDbEntity
  8
MSL3_160_3F-0
100
AcDbLine
 10
211.515759
 20
50.684571
 30
0.0
 11
211.515759
 21
52.21666
 31
0.0
  0
CIRCLE
  5
1018
100
AcDbEntity
  8
MSL3_160_3F-0
100
AcDbCircle
 10
219.515759
 20
39.0
 30
0.0
 40
5.5
  0
LINE
  5
1019
100
AcDbEntity
  8
MSL3_160_3F-0
100
AcDbLine
 10
222.515759
 20
50.684571
 30
0.0
 11
222.515759
 21
52.21666
 31
0.0
  0
LINE
  5
101A
100
AcDbEntity
  8
MSL3_160_3F-7
100
AcDbLine
 10
243.015759
 20
20.0
 30
0.0
 11
243.015759
 21
14.0
 31
0.0
  0
LINE
  5
101B
100
AcDbEntity
  8
MSL3_160_3F-7
100
AcDbLine
 10
243.015759
 20
20.0
 30
0.0
 11
237.015759
 21
20.0
 31
0.0
  0
CIRCLE
  5
101C
100
AcDbEntity
  8
MSL3_160_3F-0
100
AcDbCircle
 10
243.015759
 20
20.0
 30
0.0
 40
3.0
  0
LINE
  5
101D
100
AcDbEntity
  8
MSL3_160_3F-7
100
AcDbLine
 10
243.015759
 20
20.0
 30
0.0
 11
243.015759
 21
26.0
 31
0.0
  0
LINE
  5
101E
100
AcDbEntity
  8
MSL3_160_3F-7
100
AcDbLine
 10
243.015759
 20
20.0
 30
0.0
 11
249.015759
 21
20.0
 31
0.0
  0
LINE
  5
101F
100
AcDbEntity
  8
MSL3_160_3F-7
100
AcDbLine
 10
263.015759
 20
20.0
 30
0.0
 11
263.015759
 21
14.0
 31
0.0
  0
LINE
  5
1020
100
AcDbEntity
  8
MSL3_160_3F-7
100
AcDbLine
 10
263.015759
 20
20.0
 30
0.0
 11
257.015759
 21
20.0
 31
0.0
  0
LINE
  5
1021
100
AcDbEntity
  8
MSL3_160_3F-7
100
AcDbLine
 10
263.015759
 20
20.0
 30
0.0
 11
263.015759
 21
26.0
 31
0.0
  0
CIRCLE
  5
1022
100
AcDbEntity
  8
MSL3_160_3F-0
100
AcDbCircle
 10
263.015759
 20
20.0
 30
0.0
 40
2.5
  0
ARC
  5
1023
100
AcDbEntity
  8
MSL3_160_3F-4
100
AcDbCircle
 10
263.015759
 20
20.0
 30
0.0
 40
3.0
100
AcDbArc
 50
83.134355
 51
6.400807
  0
LINE
  5
1024
100
AcDbEntity
  8
MSL3_160_3F-7
100
AcDbLine
 10
303.015759
 20
20.0
 30
0.0
 11
309.015759
 21
20.0
 31
0.0
  0
ARC
  5
1025
100
AcDbEntity
  8
MSL3_160_3F-4
100
AcDbCircle
 10
303.015759
 20
20.0
 30
0.0
 40
3.0
100
AcDbArc
 50
83.134355
 51
6.400807
  0
CIRCLE
  5
1026
100
AcDbEntity
  8
MSL3_160_3F-0
100
AcDbCircle
 10
303.015759
 20
20.0
 30
0.0
 40
2.5
  0
LINE
  5
1027
100
AcDbEntity
  8
MSL3_160_3F-7
100
AcDbLine
 10
283.015759
 20
20.0
 30
0.0
 11
289.015759
 21
20.0
 31
0.0
  0
LINE
  5
1028
100
AcDbEntity
  8
MSL3_160_3F-7
100
AcDbLine
 10
283.015759
 20
20.0
 30
0.0
 11
283.015759
 21
14.0
 31
0.0
  0
LINE
  5
1029
100
AcDbEntity
  8
MSL3_160_3F-7
100
AcDbLine
 10
283.015759
 20
20.0
 30
0.0
 11
277.015759
 21
20.0
 31
0.0
  0
LINE
  5
102A
100
AcDbEntity
  8
MSL3_160_3F-7
100
AcDbLine
 10
283.015759
 20
20.0
 30
0.0
 11
283.015759
 21
26.0
 31
0.0
  0
CIRCLE
  5
102B
100
AcDbEntity
  8
MSL3_160_3F-0
100
AcDbCircle
 10
283.015759
 20
20.0
 30
0.0
 40
3.0
  0
LINE
  5
102C
100
AcDbEntity
  8
MSL3_160_3F-7
100
AcDbLine
 10
303.015759
 20
20.0
 30
0.0
 11
303.015759
 21
14.0
 31
0.0
  0
LINE
  5
102D
100
AcDbEntity
  8
MSL3_160_3F-7
100
AcDbLine
 10
303.015759
 20
20.0
 30
0.0
 11
303.015759
 21
26.0
 31
0.0
  0
LINE
  5
102E
100
AcDbEntity
  8
MSL3_160_3F-7
100
AcDbLine
 10
303.015759
 20
20.0
 30
0.0
 11
297.015759
 21
20.0
 31
0.0
  0
CIRCLE
  5
102F
100
AcDbEntity
  8
MSL3_160_3F-0
100
AcDbCircle
 10
323.015759
 20
20.0
 30
0.0
 40
3.0
  0
LINE
  5
1030
100
AcDbEntity
  8
MSL3_160_3F-7
100
AcDbLine
 10
323.015759
 20
20.0
 30
0.0
 11
329.015759
 21
20.0
 31
0.0
  0
LINE
  5
1031
100
AcDbEntity
  8
MSL3_160_3F-7
100
AcDbLine
 10
323.015759
 20
20.0
 30
0.0
 11
323.015759
 21
14.0
 31
0.0
  0
LINE
  5
1032
100
AcDbEntity
  8
MSL3_160_3F-7
100
AcDbLine
 10
323.015759
 20
20.0
 30
0.0
 11
323.015759
 21
26.0
 31
0.0
  0
LINE
  5
1033
100
AcDbEntity
  8
MSL3_160_3F-7
100
AcDbLine
 10
323.015759
 20
20.0
 30
0.0
 11
317.015759
 21
20.0
 31
0.0
  0
TEXT
  5
1034
100
AcDbEntity
  8
MSL3_160_3F-6
100
AcDbText
 10
174.748145
 20
141.417728
 30
0.0
 40
3.5
  1
MSL3-160-3F
100
AcDbText
  0
LINE
  5
1035
100
AcDbEntity
  8
MSL3_160_3F-0
100
AcDbLine
 10
133.015759
 20
239.723367
 30
0.0
 11
133.015759
 21
139.723367
 31
0.0
  0
LINE
  5
1036
100
AcDbEntity
  8
MSL3_160_3F-0
100
AcDbLine
 10
153.015759
 20
139.723367
 30
0.0
 11
153.015759
 21
239.723367
 31
0.0
  0
LINE
  5
1037
100
AcDbEntity
  8
MSL3_160_3F-0
100
AcDbLine
 10
173.015759
 20
139.723367
 30
0.0
 11
173.015759
 21
239.723367
 31
0.0
  0
LINE
  5
1038
100
AcDbEntity
  8
MSL3_160_3F-0
100
AcDbLine
 10
155.015759
 20
201.223367
 30
0.0
 11
155.015759
 21
178.223367
 31
0.0
  0
LINE
  5
1039
100
AcDbEntity
  8
MSL3_160_3F-0
100
AcDbLine
 10
154.015759
 20
179.223367
 30
0.0
 11
154.015759
 21
200.223367
 31
0.0
  0
LINE
  5
103A
100
AcDbEntity
  8
MSL3_160_3F-3
100
AcDbLine
 10
136.557259
 20
139.723367
 30
0.0
 11
136.557259
 21
155.723367
 31
0.0
  0
LINE
  5
103B
100
AcDbEntity
  8
MSL3_160_3F-3
100
AcDbLine
 10
141.474259
 20
139.723367
 30
0.0
 11
141.474259
 21
155.723367
 31
0.0
  0
LINE
  5
103C
100
AcDbEntity
  8
MSL3_160_3F-3
100
AcDbLine
 10
136.015759
 20
139.723367
 30
0.0
 11
136.015759
 21
151.723367
 31
0.0
  0
LINE
  5
103D
100
AcDbEntity
  8
MSL3_160_3F-3
100
AcDbLine
 10
142.015759
 20
139.723367
 30
0.0
 11
142.015759
 21
151.723367
 31
0.0
  0
LINE
  5
103E
100
AcDbEntity
  8
MSL3_160_3F-7
100
AcDbLine
 10
139.015759
 20
160.142783
 30
0.0
 11
139.015759
 21
136.723367
 31
0.0
  0
LINE
  5
103F
100
AcDbEntity
  8
MSL3_160_3F-0
100
AcDbLine
 10
153.015759
 20
146.723367
 30
0.0
 11
173.015759
 21
146.723367
 31
0.0
  0
LINE
  5
1040
100
AcDbEntity
  8
MSL3_160_3F-0
100
AcDbLine
 10
133.015759
 20
139.723367
 30
0.0
 11
153.015759
 21
139.723367
 31
0.0
  0
LINE
  5
1041
100
AcDbEntity
  8
MSL3_160_3F-0
100
AcDbLine
 10
173.015759
 20
178.223367
 30
0.0
 11
155.015759
 21
178.223367
 31
0.0
  0
LINE
  5
1042
100
AcDbEntity
  8
MSL3_160_3F-3
100
AcDbLine
 10
154.015759
 20
181.723367
 30
0.0
 11
173.015759
 21
181.723367
 31
0.0
1001
GENIUS_GENBH_13
1002
{
1000
OE
1000
CON1
1002
}
1001
GENIUS_GENOREF_13
1005
1241
  0
LINE
  5
1043
100
AcDbEntity
  8
MSL3_160_3F-0
100
AcDbLine
 10
153.015759
 20
162.723367
 30
0.0
 11
173.015759
 21
162.723367
 31
0.0
  0
LINE
  5
1044
100
AcDbEntity
  8
MSL3_160_3F-7
100
AcDbLine
 10
130.015759
 20
154.723367
 30
0.0
 11
180.239527
 21
154.723367
 31
0.0
  0
LINE
  5
1045
100
AcDbEntity
  8
MSL3_160_3F-7
100
AcDbLine
 10
130.015759
 20
189.723367
 30
0.0
 11
180.239527
 21
189.723367
 31
0.0
  0
LINE
  5
1046
100
AcDbEntity
  8
MSL3_160_3F-3
100
AcDbLine
 10
142.015759
 20
151.723367
 30
0.0
 11
136.015759
 21
151.723367
 31
0.0
  0
LINE
  5
1047
100
AcDbEntity
  8
MSL3_160_3F-3
100
AcDbLine
 10
141.474259
 20
155.723367
 30
0.0
 11
136.557259
 21
155.723367
 31
0.0
  0
LINE
  5
1048
100
AcDbEntity
  8
MSL3_160_3F-3
100
AcDbLine
 10
139.015759
 20
157.142783
 30
0.0
 11
141.474259
 21
155.723367
 31
0.0
  0
LINE
  5
1049
100
AcDbEntity
  8
MSL3_160_3F-3
100
AcDbLine
 10
133.015759
 20
166.723367
 30
0.0
 11
153.015759
 21
166.723367
 31
0.0
  0
LINE
  5
104A
100
AcDbEntity
  8
MSL3_160_3F-7
100
AcDbLine
 10
130.015759
 20
169.723367
 30
0.0
 11
156.015759
 21
169.723367
 31
0.0
  0
LINE
  5
104B
100
AcDbEntity
  8
MSL3_160_3F-3
100
AcDbLine
 10
139.015759
 20
157.142783
 30
0.0
 11
136.557259
 21
155.723367
 31
0.0
  0
LINE
  5
104C
100
AcDbEntity
  8
MSL3_160_3F-7
100
AcDbLine
 10
147.015759
 20
159.642186
 30
0.0
 11
147.015759
 21
149.612072
 31
0.0
  0
ARC
  5
104D
100
AcDbEntity
  8
MSL3_160_3F-4
100
AcDbCircle
 10
147.015759
 20
154.723367
 30
0.0
 40
3.0
100
AcDbArc
 50
251.265343
 51
200.571702
  0
CIRCLE
  5
104E
100
AcDbEntity
  8
MSL3_160_3F-0
100
AcDbCircle
 10
147.015759
 20
154.723367
 30
0.0
 40
2.5
  0
LINE
  5
104F
100
AcDbEntity
  8
MSL3_160_3F-3
100
AcDbLine
 10
133.015759
 20
172.723367
 30
0.0
 11
153.015759
 21
172.723367
 31
0.0
  0
LINE
  5
1050
100
AcDbEntity
  8
MSL3_160_3F-0
100
AcDbLine
 10
155.015759
 20
178.223367
 30
0.0
 11
154.015759
 21
179.223367
 31
0.0
  0
LINE
  5
1051
100
AcDbEntity
  8
MSL3_160_3F-0
100
AcDbLine
 10
153.015759
 20
181.723367
 30
0.0
 11
154.015759
 21
181.723367
 31
0.0
1001
GENIUS_GENOREF_13
1005
1241
  0
LINE
  5
1052
100
AcDbEntity
  8
MSL3_160_3F-0
100
AcDbLine
 10
153.015759
 20
193.723367
 30
0.0
 11
154.015759
 21
193.723367
 31
0.0
  0
LINE
  5
1053
100
AcDbEntity
  8
MSL3_160_3F-0
100
AcDbLine
 10
154.015759
 20
185.723367
 30
0.0
 11
153.015759
 21
185.723367
 31
0.0
  0
INSERT
  5
1054
100
AcDbEntity
  8
MSL3_160_3F-0
100
AcDbBlockReference
 66
     1
  2
GENINF13
 10
191.926697
 20
164.145488
 30
0.0
1001
GENIUS_GENSCSYM_13
1002
{
1000
INSPT
1011
191.926697
1021
164.145488
1031
0.0
1002
}
1002
{
1000
SCALE
1042
1.0
1002
}
1002
{
1000
USEOLDBPT
1070
     0
1002
}
1001
GENIUS_GENOBJ-N-INFOPT_13
1002
{
1000
OWNER
1000
GEN
1002
}
1001
GENIUS_GENSYMENT_13
1002
{
1000
ENT
1005
1054
1002
}
1001
GENIUS_GENODEF_13
1002
{
1000
HIER
1070
     0
1002
}
1002
{
1000
MANEDIT
1070
     0
1002
}
1002
{
1000
NOSEL
1070
     0
1002
}
1002
{
1000
BEHIND
1070
     0
1002
}
1002
{
1000
REACTOR
1002
}
1001
GENIUS_GENOBJ-N-RSSYM_13
1002
{
1000
OWNER
1000
GEN
1002
}
1001
GENIUS_GENINF13_13
1070
     1
  0
ATTRIB
  5
1055
100
AcDbEntity
  8
INFO
100
AcDbText
 10
191.926697
 20
164.145488
 30
0.0
 40
1.0
  1
1
100
AcDbAttribute
  2
2GENINF
 70
     1
  0
ATTRIB
  5
1056
100
AcDbEntity
  8
INFO
100
AcDbText
 10
191.926697
 20
162.645488
 30
0.0
 40
1.0
  1
<***aktuell***>
100
AcDbAttribute
  2
3GENINF
 70
     1
  0
ATTRIB
  5
1057
100
AcDbEntity
  8
INFO
100
AcDbText
 10
191.926697
 20
161.145488
 30
0.0
 40
1.0
  1

100
AcDbAttribute
  2
4GENINF
 70
     1
  0
ATTRIB
  5
1058
100
AcDbEntity
  8
INFO
100
AcDbText
 10
191.926697
 20
159.645488
 30
0.0
 40
1.0
  1
MSL3-160-3F
100
AcDbAttribute
  2
5GENINF
 70
     1
  0
ATTRIB
  5
1059
100
AcDbEntity
  8
INFO
100
AcDbText
 10
191.926697
 20
158.145488
 30
0.0
 40
1.0
  1

100
AcDbAttribute
  2
6GENINF
 70
     1
  0
ATTRIB
  5
105A
100
AcDbEntity
  8
INFO
100
AcDbText
 10
191.926697
 20
156.645488
 30
0.0
 40
1.0
  1
Fa. Mayer
100
AcDbAttribute
  2
7GENINF
 70
     1
  0
ATTRIB
  5
105B
100
AcDbEntity
  8
INFO
100
AcDbText
 10
191.926697
 20
155.145488
 30
0.0
 40
1.0
  1

100
AcDbAttribute
  2
8GENINF
 70
     1
  0
ATTRIB
  5
105C
100
AcDbEntity
  8
INFO
100
AcDbText
 10
191.926697
 20
153.645488
 30
0.0
 40
1.0
  1

100
AcDbAttribute
  2
9GENINF
 70
     1
  0
ATTRIB
  5
105D
100
AcDbEntity
  8
INFO
100
AcDbText
 10
191.926697
 20
152.145488
 30
0.0
 40
1.0
  1

100
AcDbAttribute
  2
10GENINF
 70
     1
  0
ATTRIB
  5
105E
100
AcDbEntity
  8
INFO
100
AcDbText
 10
191.926697
 20
150.645488
 30
0.0
 40
1.0
  1

100
AcDbAttribute
  2
11GENINF
 70
     1
  0
ATTRIB
  5
105F
100
AcDbEntity
  8
INFO
100
AcDbText
 10
191.926697
 20
149.145488
 30
0.0
 40
1.0
  1

100
AcDbAttribute
  2
12GENINF
 70
     1
  0
ATTRIB
  5
1060
100
AcDbEntity
  8
INFO
100
AcDbText
 10
191.926697
 20
147.645488
 30
0.0
 40
1.0
  1

100
AcDbAttribute
  2
13GENINF
 70
     1
  0
ATTRIB
  5
1061
100
AcDbEntity
  8
INFO
100
AcDbText
 10
191.926697
 20
146.145488
 30
0.0
 40
1.0
  1

100
AcDbAttribute
  2
14GENINF
 70
     1
  0
ATTRIB
  5
1062
100
AcDbEntity
  8
INFO
100
AcDbText
 10
191.926697
 20
144.645488
 30
0.0
 40
1.0
  1

100
AcDbAttribute
  2
15GENINF
 70
     1
  0
ATTRIB
  5
1063
100
AcDbEntity
  8
INFO
100
AcDbText
 10
191.926697
 20
143.145488
 30
0.0
 40
1.0
  1

100
AcDbAttribute
  2
16GENINF
 70
     1
  0
ATTRIB
  5
1064
100
AcDbEntity
  8
INFO
100
AcDbText
 10
191.926697
 20
141.645488
 30
0.0
 40
1.0
  1

100
AcDbAttribute
  2
17GENINF
 70
     1
  0
ATTRIB
  5
1065
100
AcDbEntity
  8
INFO
100
AcDbText
 10
191.926697
 20
140.145488
 30
0.0
 40
1.0
  1

100
AcDbAttribute
  2
18GENINF
 70
     1
  0
ATTRIB
  5
1066
100
AcDbEntity
  8
INFO
100
AcDbText
 10
191.926697
 20
138.645488
 30
0.0
 40
1.0
  1

100
AcDbAttribute
  2
19GENINF
 70
     1
  0
ATTRIB
  5
1067
100
AcDbEntity
  8
INFO
100
AcDbText
 10
191.926697
 20
137.145488
 30
0.0
 40
1.0
  1

100
AcDbAttribute
  2
20GENINF
 70
     1
  0
ATTRIB
  5
1068
100
AcDbEntity
  8
INFO
100
AcDbText
 10
191.926697
 20
135.645488
 30
0.0
 40
1.0
  1

100
AcDbAttribute
  2
21GENINF
 70
     1
  0
ATTRIB
  5
1069
100
AcDbEntity
  8
INFO
100
AcDbText
 10
191.926697
 20
134.145488
 30
0.0
 40
1.0
  1

100
AcDbAttribute
  2
22GENINF
 70
     1
  0
ATTRIB
  5
106A
100
AcDbEntity
  8
INFO
100
AcDbText
 10
191.926697
 20
132.645488
 30
0.0
 40
1.0
  1

100
AcDbAttribute
  2
23GENINF
 70
     1
  0
ATTRIB
  5
106B
100
AcDbEntity
  8
INFO
100
AcDbText
 10
191.926697
 20
131.145488
 30
0.0
 40
1.0
  1

100
AcDbAttribute
  2
24GENINF
 70
     1
  0
ATTRIB
  5
106C
100
AcDbEntity
  8
INFO
100
AcDbText
 10
191.926697
 20
129.645488
 30
0.0
 40
1.0
  1

100
AcDbAttribute
  2
0GENINF
 70
     1
  0
SEQEND
  5
106D
100
AcDbEntity
  8
MSL3_160_3F-0
  0
LINE
  5
106E
100
AcDbEntity
  8
MSL3_160_3F-7
100
AcDbLine
 10
139.015759
 20
219.303951
 30
0.0
 11
139.015759
 21
242.723367
 31
0.0
  0
LINE
  5
106F
100
AcDbEntity
  8
MSL3_160_3F-0
100
AcDbLine
 10
173.015759
 20
232.723367
 30
0.0
 11
153.015759
 21
232.723367
 31
0.0
  0
LINE
  5
1070
100
AcDbEntity
  8
MSL3_160_3F-0
100
AcDbLine
 10
155.015759
 20
201.223367
 30
0.0
 11
173.015759
 21
201.223367
 31
0.0
  0
LINE
  5
1071
100
AcDbEntity
  8
MSL3_160_3F-0
100
AcDbLine
 10
153.015759
 20
216.723367
 30
0.0
 11
173.015759
 21
216.723367
 31
0.0
  0
LINE
  5
1072
100
AcDbEntity
  8
MSL3_160_3F-7
100
AcDbLine
 10
130.015759
 20
224.723367
 30
0.0
 11
180.239527
 21
224.723367
 31
0.0
  0
LINE
  5
1073
100
AcDbEntity
  8
MSL3_160_3F-3
100
AcDbLine
 10
154.015759
 20
197.723367
 30
0.0
 11
173.015759
 21
197.723367
 31
0.0
1001
GENIUS_GENBH_13
1002
{
1000
OE
1000
CON1
1002
}
1001
GENIUS_GENOREF_13
1005
1241
  0
LINE
  5
1074
100
AcDbEntity
  8
MSL3_160_3F-3
100
AcDbLine
 10
133.015759
 20
206.423367
 30
0.0
 11
148.015759
 21
206.423367
 31
0.0
  0
LINE
  5
1075
100
AcDbEntity
  8
MSL3_160_3F-3
100
AcDbLine
 10
148.015759
 20
213.023367
 30
0.0
 11
133.015759
 21
213.023367
 31
0.0
  0
LINE
  5
1076
100
AcDbEntity
  8
MSL3_160_3F-7
100
AcDbLine
 10
130.015759
 20
209.723367
 30
0.0
 11
156.015759
 21
209.723367
 31
0.0
  0
LINE
  5
1077
100
AcDbEntity
  8
MSL3_160_3F-3
100
AcDbLine
 10
148.015759
 20
206.423367
 30
0.0
 11
148.015759
 21
204.223367
 31
0.0
  0
LINE
  5
1078
100
AcDbEntity
  8
MSL3_160_3F-3
100
AcDbLine
 10
148.015759
 20
204.223367
 30
0.0
 11
153.015759
 21
204.223367
 31
0.0
  0
LINE
  5
1079
100
AcDbEntity
  8
MSL3_160_3F-0
100
AcDbLine
 10
154.015759
 20
200.223367
 30
0.0
 11
155.015759
 21
201.223367
 31
0.0
  0
LINE
  5
107A
100
AcDbEntity
  8
MSL3_160_3F-0
100
AcDbLine
 10
153.015759
 20
197.723367
 30
0.0
 11
154.015759
 21
197.723367
 31
0.0
1001
GENIUS_GENOREF_13
1005
1241
  0
LINE
  5
107B
100
AcDbEntity
  8
MSL3_160_3F-3
100
AcDbLine
 10
153.015759
 20
215.223367
 30
0.0
 11
148.015759
 21
215.223367
 31
0.0
  0
LINE
  5
107C
100
AcDbEntity
  8
MSL3_160_3F-3
100
AcDbLine
 10
148.015759
 20
215.223367
 30
0.0
 11
148.015759
 21
213.023367
 31
0.0
  0
LINE
  5
107D
100
AcDbEntity
  8
MSL3_160_3F-3
100
AcDbLine
 10
148.015759
 20
206.423367
 30
0.0
 11
148.015759
 21
213.023367
 31
0.0
  0
LINE
  5
107E
100
AcDbEntity
  8
MSL3_160_3F-3
100
AcDbLine
 10
136.557259
 20
223.723367
 30
0.0
 11
141.474259
 21
223.723367
 31
0.0
  0
LINE
  5
107F
100
AcDbEntity
  8
MSL3_160_3F-3
100
AcDbLine
 10
136.015759
 20
227.723367
 30
0.0
 11
142.015759
 21
227.723367
 31
0.0
  0
LINE
  5
1080
100
AcDbEntity
  8
MSL3_160_3F-0
100
AcDbLine
 10
153.015759
 20
239.723367
 30
0.0
 11
133.015759
 21
239.723367
 31
0.0
  0
LINE
  5
1081
100
AcDbEntity
  8
MSL3_160_3F-3
100
AcDbLine
 10
139.015759
 20
222.303951
 30
0.0
 11
141.474259
 21
223.723367
 31
0.0
  0
LINE
  5
1082
100
AcDbEntity
  8
MSL3_160_3F-3
100
AcDbLine
 10
136.557259
 20
239.723367
 30
0.0
 11
136.557259
 21
223.723367
 31
0.0
  0
LINE
  5
1083
100
AcDbEntity
  8
MSL3_160_3F-3
100
AcDbLine
 10
136.015759
 20
239.723367
 30
0.0
 11
136.015759
 21
227.723367
 31
0.0
  0
LINE
  5
1084
100
AcDbEntity
  8
MSL3_160_3F-3
100
AcDbLine
 10
139.015759
 20
222.303951
 30
0.0
 11
136.557259
 21
223.723367
 31
0.0
  0
LINE
  5
1085
100
AcDbEntity
  8
MSL3_160_3F-3
100
AcDbLine
 10
141.474259
 20
239.723367
 30
0.0
 11
141.474259
 21
223.723367
 31
0.0
  0
LINE
  5
1086
100
AcDbEntity
  8
MSL3_160_3F-3
100
AcDbLine
 10
142.015759
 20
239.723367
 30
0.0
 11
142.015759
 21
227.723367
 31
0.0
  0
ARC
  5
1087
100
AcDbEntity
  8
MSL3_160_3F-4
100
AcDbCircle
 10
147.015759
 20
224.723367
 30
0.0
 40
3.0
100
AcDbArc
 50
251.265343
 51
200.571702
  0
CIRCLE
  5
1088
100
AcDbEntity
  8
MSL3_160_3F-0
100
AcDbCircle
 10
147.015759
 20
224.723367
 30
0.0
 40
2.5
  0
LINE
  5
1089
100
AcDbEntity
  8
MSL3_160_3F-7
100
AcDbLine
 10
147.015759
 20
229.642186
 30
0.0
 11
147.015759
 21
219.612072
 31
0.0
  0
LINE
  5
108A
100
AcDbEntity
  8
MSL3_160_3F-7
100
AcDbLine
 10
323.015759
 20
203.723367
 30
0.0
 11
323.015759
 21
175.723367
 31
0.0
  0
LINE
  5
108B
100
AcDbEntity
  8
MSL3_160_3F-7
100
AcDbLine
 10
243.015759
 20
203.723367
 30
0.0
 11
243.015759
 21
175.723367
 31
0.0
  0
LINE
  5
108C
100
AcDbEntity
  8
MSL3_160_3F-7
100
AcDbLine
 10
283.015759
 20
203.723367
 30
0.0
 11
283.015759
 21
175.723367
 31
0.0
  0
LINE
  5
108D
100
AcDbEntity
  8
MSL3_160_3F-7
100
AcDbLine
 10
263.015759
 20
169.723367
 30
0.0
 11
269.015759
 21
169.723367
 31
0.0
  0
LINE
  5
108E
100
AcDbEntity
  8
MSL3_160_3F-7
100
AcDbLine
 10
263.015759
 20
160.142783
 30
0.0
 11
263.015759
 21
136.723367
 31
0.0
  0
LINE
  5
108F
100
AcDbEntity
  8
MSL3_160_3F-7
100
AcDbLine
 10
243.015759
 20
136.723367
 30
0.0
 11
243.015759
 21
154.455418
 31
0.0
  0
LINE
  5
1090
100
AcDbEntity
  8
MSL3_160_3F-7
100
AcDbLine
 10
223.015759
 20
160.142783
 30
0.0
 11
223.015759
 21
136.723367
 31
0.0
  0
CIRCLE
  5
1091
100
AcDbEntity
  8
MSL3_160_3F-0
100
AcDbCircle
 10
223.015759
 20
169.723367
 30
0.0
 40
2.5
  0
ARC
  5
1092
100
AcDbEntity
  8
MSL3_160_3F-4
100
AcDbCircle
 10
223.015759
 20
169.723367
 30
0.0
 40
3.0
100
AcDbArc
 50
353.599193
 51
276.865645
  0
LINE
  5
1093
100
AcDbEntity
  8
MSL3_160_3F-7
100
AcDbLine
 10
223.015759
 20
169.723367
 30
0.0
 11
223.015759
 21
175.723367
 31
0.0
  0
LINE
  5
1094
100
AcDbEntity
  8
MSL3_160_3F-7
100
AcDbLine
 10
223.015759
 20
169.723367
 30
0.0
 11
217.015759
 21
169.723367
 31
0.0
  0
LINE
  5
1095
100
AcDbEntity
  8
MSL3_160_3F-7
100
AcDbLine
 10
223.015759
 20
169.723367
 30
0.0
 11
223.015759
 21
163.723367
 31
0.0
  0
LINE
  5
1096
100
AcDbEntity
  8
MSL3_160_3F-7
100
AcDbLine
 10
223.015759
 20
169.723367
 30
0.0
 11
229.015759
 21
169.723367
 31
0.0
  0
ARC
  5
1097
100
AcDbEntity
  8
MSL3_160_3F-4
100
AcDbCircle
 10
263.015759
 20
169.723367
 30
0.0
 40
3.0
100
AcDbArc
 50
353.599193
 51
276.865645
  0
CIRCLE
  5
1098
100
AcDbEntity
  8
MSL3_160_3F-0
100
AcDbCircle
 10
263.015759
 20
169.723367
 30
0.0
 40
2.5
  0
CIRCLE
  5
1099
100
AcDbEntity
  8
MSL3_160_3F-0
100
AcDbCircle
 10
243.015759
 20
169.723367
 30
0.0
 40
3.0
  0
LINE
  5
109A
100
AcDbEntity
  8
MSL3_160_3F-7
100
AcDbLine
 10
263.015759
 20
169.723367
 30
0.0
 11
263.015759
 21
175.723367
 31
0.0
  0
LINE
  5
109B
100
AcDbEntity
  8
MSL3_160_3F-7
100
AcDbLine
 10
243.015759
 20
169.723367
 30
0.0
 11
243.015759
 21
175.723367
 31
0.0
  0
LINE
  5
109C
100
AcDbEntity
  8
MSL3_160_3F-7
100
AcDbLine
 10
243.015759
 20
169.723367
 30
0.0
 11
237.015759
 21
169.723367
 31
0.0
  0
LINE
  5
109D
100
AcDbEntity
  8
MSL3_160_3F-7
100
AcDbLine
 10
243.015759
 20
169.723367
 30
0.0
 11
243.015759
 21
163.723367
 31
0.0
  0
LINE
  5
109E
100
AcDbEntity
  8
MSL3_160_3F-7
100
AcDbLine
 10
243.015759
 20
169.723367
 30
0.0
 11
249.015759
 21
169.723367
 31
0.0
  0
LINE
  5
109F
100
AcDbEntity
  8
MSL3_160_3F-7
100
AcDbLine
 10
263.015759
 20
169.723367
 30
0.0
 11
257.015759
 21
169.723367
 31
0.0
  0
LINE
  5
10A0
100
AcDbEntity
  8
MSL3_160_3F-7
100
AcDbLine
 10
263.015759
 20
169.723367
 30
0.0
 11
263.015759
 21
163.723367
 31
0.0
  0
LINE
  5
10A1
100
AcDbEntity
  8
MSL3_160_3F-7
100
AcDbLine
 10
323.015759
 20
136.723367
 30
0.0
 11
323.015759
 21
154.455418
 31
0.0
  0
LINE
  5
10A2
100
AcDbEntity
  8
MSL3_160_3F-7
100
AcDbLine
 10
283.015759
 20
136.723367
 30
0.0
 11
283.015759
 21
154.455418
 31
0.0
  0
LINE
  5
10A3
100
AcDbEntity
  8
MSL3_160_3F-7
100
AcDbLine
 10
303.015759
 20
160.142783
 30
0.0
 11
303.015759
 21
136.723367
 31
0.0
  0
LINE
  5
10A4
100
AcDbEntity
  8
MSL3_160_3F-7
100
AcDbLine
 10
303.015759
 20
169.723367
 30
0.0
 11
309.015759
 21
169.723367
 31
0.0
  0
CIRCLE
  5
10A5
100
AcDbEntity
  8
MSL3_160_3F-0
100
AcDbCircle
 10
303.015759
 20
169.723367
 30
0.0
 40
2.5
  0
ARC
  5
10A6
100
AcDbEntity
  8
MSL3_160_3F-4
100
AcDbCircle
 10
303.015759
 20
169.723367
 30
0.0
 40
3.0
100
AcDbArc
 50
353.599193
 51
276.865645
  0
CIRCLE
  5
10A7
100
AcDbEntity
  8
MSL3_160_3F-0
100
AcDbCircle
 10
283.015759
 20
169.723367
 30
0.0
 40
3.0
  0
LINE
  5
10A8
100
AcDbEntity
  8
MSL3_160_3F-7
100
AcDbLine
 10
283.015759
 20
169.723367
 30
0.0
 11
283.015759
 21
175.723367
 31
0.0
  0
LINE
  5
10A9
100
AcDbEntity
  8
MSL3_160_3F-7
100
AcDbLine
 10
303.015759
 20
169.723367
 30
0.0
 11
303.015759
 21
175.723367
 31
0.0
  0
LINE
  5
10AA
100
AcDbEntity
  8
MSL3_160_3F-7
100
AcDbLine
 10
283.015759
 20
169.723367
 30
0.0
 11
289.015759
 21
169.723367
 31
0.0
  0
LINE
  5
10AB
100
AcDbEntity
  8
MSL3_160_3F-7
100
AcDbLine
 10
283.015759
 20
169.723367
 30
0.0
 11
277.015759
 21
169.723367
 31
0.0
  0
LINE
  5
10AC
100
AcDbEntity
  8
MSL3_160_3F-7
100
AcDbLine
 10
283.015759
 20
169.723367
 30
0.0
 11
283.015759
 21
163.723367
 31
0.0
  0
LINE
  5
10AD
100
AcDbEntity
  8
MSL3_160_3F-7
100
AcDbLine
 10
303.015759
 20
169.723367
 30
0.0
 11
303.015759
 21
163.723367
 31
0.0
  0
LINE
  5
10AE
100
AcDbEntity
  8
MSL3_160_3F-7
100
AcDbLine
 10
303.015759
 20
169.723367
 30
0.0
 11
297.015759
 21
169.723367
 31
0.0
  0
CIRCLE
  5
10AF
100
AcDbEntity
  8
MSL3_160_3F-0
100
AcDbCircle
 10
323.015759
 20
169.723367
 30
0.0
 40
3.0
  0
LINE
  5
10B0
100
AcDbEntity
  8
MSL3_160_3F-7
100
AcDbLine
 10
323.015759
 20
169.723367
 30
0.0
 11
323.015759
 21
175.723367
 31
0.0
  0
LINE
  5
10B1
100
AcDbEntity
  8
MSL3_160_3F-7
100
AcDbLine
 10
323.015759
 20
169.723367
 30
0.0
 11
329.015759
 21
169.723367
 31
0.0
  0
LINE
  5
10B2
100
AcDbEntity
  8
MSL3_160_3F-7
100
AcDbLine
 10
323.015759
 20
169.723367
 30
0.0
 11
323.015759
 21
163.723367
 31
0.0
  0
LINE
  5
10B3
100
AcDbEntity
  8
MSL3_160_3F-7
100
AcDbLine
 10
323.015759
 20
169.723367
 30
0.0
 11
317.015759
 21
169.723367
 31
0.0
  0
LINE
  5
10B4
100
AcDbEntity
  8
MSL3_160_3F-7
100
AcDbLine
 10
263.015759
 20
209.723367
 30
0.0
 11
269.015759
 21
209.723367
 31
0.0
  0
LINE
  5
10B5
100
AcDbEntity
  8
MSL3_160_3F-0
100
AcDbLine
 10
235.514417
 20
242.723359
 30
0.0
 11
235.514419
 21
239.723367
 31
0.0
  0
LINE
  5
10B6
100
AcDbEntity
  8
MSL3_160_3F-7
100
AcDbLine
 10
243.015759
 20
242.723367
 30
0.0
 11
243.015759
 21
224.991316
 31
0.0
  0
LINE
  5
10B7
100
AcDbEntity
  8
MSL3_160_3F-7
100
AcDbLine
 10
263.015759
 20
219.303951
 30
0.0
 11
263.015759
 21
242.723367
 31
0.0
  0
LINE
  5
10B8
100
AcDbEntity
  8
MSL3_160_3F-0
100
AcDbLine
 10
224.514419
 20
239.723367
 30
0.0
 11
224.514417
 21
242.723351
 31
0.0
  0
LINE
  5
10B9
100
AcDbEntity
  8
MSL3_160_3F-0
100
AcDbLine
 10
214.014419
 20
239.723367
 30
0.0
 11
214.014417
 21
242.723359
 31
0.0
  0
LINE
  5
10BA
100
AcDbEntity
  8
MSL3_160_3F-7
100
AcDbLine
 10
223.015759
 20
219.303951
 30
0.0
 11
223.015759
 21
242.723367
 31
0.0
  0
LINE
  5
10BB
100
AcDbEntity
  8
MSL3_160_3F-7
100
AcDbLine
 10
230.015754
 20
247.0121
 30
0.0
 11
230.015762
 21
235.819373
 31
0.0
  0
LINE
  5
10BC
100
AcDbEntity
  8
MSL3_160_3F-7
100
AcDbLine
 10
219.515754
 20
247.012108
 30
0.0
 11
219.515762
 21
235.819381
 31
0.0
  0
LINE
  5
10BD
100
AcDbEntity
  8
MSL3_160_3F-7
100
AcDbLine
 10
223.015759
 20
209.723367
 30
0.0
 11
223.015759
 21
203.723367
 31
0.0
  0
LINE
  5
10BE
100
AcDbEntity
  8
MSL3_160_3F-7
100
AcDbLine
 10
223.015759
 20
209.723367
 30
0.0
 11
217.015759
 21
209.723367
 31
0.0
  0
CIRCLE
  5
10BF
100
AcDbEntity
  8
MSL3_160_3F-0
100
AcDbCircle
 10
223.015759
 20
209.723367
 30
0.0
 40
2.5
  0
ARC
  5
10C0
100
AcDbEntity
  8
MSL3_160_3F-4
100
AcDbCircle
 10
223.015759
 20
209.723367
 30
0.0
 40
3.0
100
AcDbArc
 50
353.599193
 51
276.865645
  0
LINE
  5
10C1
100
AcDbEntity
  8
MSL3_160_3F-7
100
AcDbLine
 10
223.015759
 20
209.723367
 30
0.0
 11
229.015759
 21
209.723367
 31
0.0
  0
LINE
  5
10C2
100
AcDbEntity
  8
MSL3_160_3F-7
100
AcDbLine
 10
223.015759
 20
209.723367
 30
0.0
 11
223.015759
 21
215.723367
 31
0.0
  0
LINE
  5
10C3
100
AcDbEntity
  8
MSL3_160_3F-7
100
AcDbLine
 10
243.015759
 20
209.723367
 30
0.0
 11
243.015759
 21
203.723367
 31
0.0
  0
LINE
  5
10C4
100
AcDbEntity
  8
MSL3_160_3F-7
100
AcDbLine
 10
243.015759
 20
209.723367
 30
0.0
 11
237.015759
 21
209.723367
 31
0.0
  0
CIRCLE
  5
10C5
100
AcDbEntity
  8
MSL3_160_3F-0
100
AcDbCircle
 10
243.015759
 20
209.723367
 30
0.0
 40
3.0
  0
LINE
  5
10C6
100
AcDbEntity
  8
MSL3_160_3F-7
100
AcDbLine
 10
243.015759
 20
209.723367
 30
0.0
 11
249.015759
 21
209.723367
 31
0.0
  0
LINE
  5
10C7
100
AcDbEntity
  8
MSL3_160_3F-7
100
AcDbLine
 10
243.015759
 20
209.723367
 30
0.0
 11
243.015759
 21
215.723367
 31
0.0
  0
LINE
  5
10C8
100
AcDbEntity
  8
MSL3_160_3F-7
100
AcDbLine
 10
263.015759
 20
209.723367
 30
0.0
 11
263.015759
 21
203.723367
 31
0.0
  0
LINE
  5
10C9
100
AcDbEntity
  8
MSL3_160_3F-7
100
AcDbLine
 10
263.015759
 20
209.723367
 30
0.0
 11
257.015759
 21
209.723367
 31
0.0
  0
ARC
  5
10CA
100
AcDbEntity
  8
MSL3_160_3F-4
100
AcDbCircle
 10
263.015759
 20
209.723367
 30
0.0
 40
3.0
100
AcDbArc
 50
353.599193
 51
276.865645
  0
CIRCLE
  5
10CB
100
AcDbEntity
  8
MSL3_160_3F-0
100
AcDbCircle
 10
263.015759
 20
209.723367
 30
0.0
 40
2.5
  0
LINE
  5
10CC
100
AcDbEntity
  8
MSL3_160_3F-7
100
AcDbLine
 10
263.015759
 20
209.723367
 30
0.0
 11
263.015759
 21
215.723367
 31
0.0
  0
LINE
  5
10CD
100
AcDbEntity
  8
MSL3_160_3F-0
100
AcDbLine
 10
226.014416
 20
244.223352
 30
0.0
 11
234.014416
 21
244.223358
 31
0.0
  0
LINE
  5
10CE
100
AcDbEntity
  8
MSL3_160_3F-0
100
AcDbLine
 10
215.514416
 20
244.22336
 30
0.0
 11
223.514416
 21
244.223366
 31
0.0
  0
ARC
  5
10CF
100
AcDbEntity
  8
MSL3_160_3F-0
100
AcDbCircle
 10
215.514417
 20
242.72336
 30
0.0
 40
1.5
100
AcDbArc
 50
90.000041
 51
180.00004
  0
LINE
  5
10D0
100
AcDbEntity
  8
MSL3_160_3F-0
100
AcDbLine
 10
226.014416
 20
244.223352
 30
0.0
 11
226.014416
 21
244.223352
 31
0.0
  0
ARC
  5
10D1
100
AcDbEntity
  8
MSL3_160_3F-0
100
AcDbCircle
 10
223.514417
 20
242.723366
 30
0.0
 40
1.5
100
AcDbArc
 50
33.556991
 51
90.000041
  0
ARC
  5
10D2
100
AcDbEntity
  8
MSL3_160_3F-0
100
AcDbCircle
 10
226.014417
 20
242.723352
 30
0.0
 40
1.5
100
AcDbArc
 50
90.000041
 51
180.00004
  0
ARC
  5
10D3
100
AcDbEntity
  8
MSL3_160_3F-0
100
AcDbCircle
 10
234.014417
 20
242.723358
 30
0.0
 40
1.5
100
AcDbArc
 50
0.000038
 51
90.000041
  0
LINE
  5
10D4
100
AcDbEntity
  8
MSL3_160_3F-7
100
AcDbLine
 10
323.015759
 20
242.723367
 30
0.0
 11
323.015759
 21
224.991316
 31
0.0
  0
LINE
  5
10D5
100
AcDbEntity
  8
MSL3_160_3F-7
100
AcDbLine
 10
283.015759
 20
242.723367
 30
0.0
 11
283.015759
 21
224.991316
 31
0.0
  0
LINE
  5
10D6
100
AcDbEntity
  8
MSL3_160_3F-7
100
AcDbLine
 10
303.015759
 20
219.303951
 30
0.0
 11
303.015759
 21
242.723367
 31
0.0
  0
LINE
  5
10D7
100
AcDbEntity
  8
MSL3_160_3F-7
100
AcDbLine
 10
303.015759
 20
209.723367
 30
0.0
 11
309.015759
 21
209.723367
 31
0.0
  0
CIRCLE
  5
10D8
100
AcDbEntity
  8
MSL3_160_3F-0
100
AcDbCircle
 10
303.015759
 20
209.723367
 30
0.0
 40
2.5
  0
ARC
  5
10D9
100
AcDbEntity
  8
MSL3_160_3F-4
100
AcDbCircle
 10
303.015759
 20
209.723367
 30
0.0
 40
3.0
100
AcDbArc
 50
353.599193
 51
276.865645
  0
LINE
  5
10DA
100
AcDbEntity
  8
MSL3_160_3F-7
100
AcDbLine
 10
283.015759
 20
209.723367
 30
0.0
 11
289.015759
 21
209.723367
 31
0.0
  0
LINE
  5
10DB
100
AcDbEntity
  8
MSL3_160_3F-7
100
AcDbLine
 10
283.015759
 20
209.723367
 30
0.0
 11
283.015759
 21
203.723367
 31
0.0
  0
LINE
  5
10DC
100
AcDbEntity
  8
MSL3_160_3F-7
100
AcDbLine
 10
283.015759
 20
209.723367
 30
0.0
 11
277.015759
 21
209.723367
 31
0.0
  0
LINE
  5
10DD
100
AcDbEntity
  8
MSL3_160_3F-7
100
AcDbLine
 10
283.015759
 20
209.723367
 30
0.0
 11
283.015759
 21
215.723367
 31
0.0
  0
CIRCLE
  5
10DE
100
AcDbEntity
  8
MSL3_160_3F-0
100
AcDbCircle
 10
283.015759
 20
209.723367
 30
0.0
 40
3.0
  0
LINE
  5
10DF
100
AcDbEntity
  8
MSL3_160_3F-7
100
AcDbLine
 10
303.015759
 20
209.723367
 30
0.0
 11
303.015759
 21
203.723367
 31
0.0
  0
LINE
  5
10E0
100
AcDbEntity
  8
MSL3_160_3F-7
100
AcDbLine
 10
303.015759
 20
209.723367
 30
0.0
 11
297.015759
 21
209.723367
 31
0.0
  0
LINE
  5
10E1
100
AcDbEntity
  8
MSL3_160_3F-7
100
AcDbLine
 10
303.015759
 20
209.723367
 30
0.0
 11
303.015759
 21
215.723367
 31
0.0
  0
CIRCLE
  5
10E2
100
AcDbEntity
  8
MSL3_160_3F-0
100
AcDbCircle
 10
323.015759
 20
209.723367
 30
0.0
 40
3.0
  0
LINE
  5
10E3
100
AcDbEntity
  8
MSL3_160_3F-7
100
AcDbLine
 10
323.015759
 20
209.723367
 30
0.0
 11
329.015759
 21
209.723367
 31
0.0
  0
LINE
  5
10E4
100
AcDbEntity
  8
MSL3_160_3F-7
100
AcDbLine
 10
323.015759
 20
209.723367
 30
0.0
 11
323.015759
 21
203.723367
 31
0.0
  0
LINE
  5
10E5
100
AcDbEntity
  8
MSL3_160_3F-7
100
AcDbLine
 10
323.015759
 20
209.723367
 30
0.0
 11
317.015759
 21
209.723367
 31
0.0
  0
LINE
  5
10E6
100
AcDbEntity
  8
MSL3_160_3F-7
100
AcDbLine
 10
323.015759
 20
209.723367
 30
0.0
 11
323.015759
 21
215.723367
 31
0.0
  0
LINE
  5
10E7
100
AcDbEntity
  8
MSL3_160_3F-0
100
AcDbLine
 10
393.015759
 20
-138.21129
 30
0.0
 11
573.015759
 21
-138.21129
 31
0.0
  0
LINE
  5
10E8
100
AcDbEntity
  8
MSL3_160_3F-0
100
AcDbLine
 10
393.015759
 20
-154.21129
 30
0.0
 11
573.015759
 21
-154.21129
 31
0.0
  0
LINE
  5
10E9
100
AcDbEntity
  8
MSL3_160_3F-0
100
AcDbLine
 10
573.015759
 20
-103.21129
 30
0.0
 11
393.015759
 21
-103.21129
 31
0.0
  0
LINE
  5
10EA
100
AcDbEntity
  8
MSL3_160_3F-3
100
AcDbLine
 10
573.015759
 20
-150.21129
 30
0.0
 11
412.015759
 21
-150.21129
 31
0.0
1001
GENIUS_GENBH_13
1002
{
1000
OE
1000
CON1
1002
}
1001
GENIUS_GENOREF_13
1005
1240
  0
LINE
  5
10EB
100
AcDbEntity
  8
MSL3_160_3F-3
100
AcDbLine
 10
412.015759
 20
-142.21129
 30
0.0
 11
573.015759
 21
-142.21129
 31
0.0
1001
GENIUS_GENBH_13
1002
{
1000
OE
1000
CON1
1002
}
1001
GENIUS_GENOREF_13
1005
1240
  0
LINE
  5
10EC
100
AcDbEntity
  8
MSL3_160_3F-0
100
AcDbLine
 10
428.015759
 20
-173.21129
 30
0.0
 11
573.015759
 21
-173.21129
 31
0.0
  0
LINE
  5
10ED
100
AcDbEntity
  8
MSL3_160_3F-0
100
AcDbLine
 10
428.015759
 20
-173.21129
 30
0.0
 11
573.015759
 21
-173.21129
 31
0.0
  0
LINE
  5
10EE
100
AcDbEntity
  8
MSL3_160_3F-0
100
AcDbLine
 10
397.861411
 20
-189.21129
 30
0.0
 11
573.015759
 21
-189.21129
 31
0.0
  0
LINE
  5
10EF
100
AcDbEntity
  8
MSL3_160_3F-7
100
AcDbLine
 10
388.376556
 20
-181.21129
 30
0.0
 11
596.015759
 21
-181.21129
 31
0.0
  0
LINE
  5
10F0
100
AcDbEntity
  8
MSL3_160_3F-7
100
AcDbLine
 10
388.376556
 20
-111.21129
 30
0.0
 11
596.015759
 21
-111.21129
 31
0.0
  0
LINE
  5
10F1
100
AcDbEntity
  8
MSL3_160_3F-7
100
AcDbLine
 10
388.376556
 20
-146.21129
 30
0.0
 11
596.015759
 21
-146.21129
 31
0.0
1001
GENIUS_GENOREF_13
1005
1240
  0
LINE
  5
10F2
100
AcDbEntity
  8
MSL3_160_3F-0
100
AcDbLine
 10
393.015759
 20
-119.21129
 30
0.0
 11
556.015759
 21
-119.21129
 31
0.0
  0
LINE
  5
10F3
100
AcDbEntity
  8
MSL3_160_3F-7
100
AcDbLine
 10
343.015759
 20
-175.791874
 30
0.0
 11
343.015759
 21
-199.21129
 31
0.0
  0
LINE
  5
10F4
100
AcDbEntity
  8
MSL3_160_3F-0
100
AcDbLine
 10
400.015759
 20
-167.71129
 30
0.0
 11
400.015759
 21
-187.71129
 31
0.0
  0
LINE
  5
10F5
100
AcDbEntity
  8
MSL3_160_3F-0
100
AcDbLine
 10
398.015759
 20
-167.318985
 30
0.0
 11
398.015759
 21
-188.103595
 31
0.0
  0
LINE
  5
10F6
100
AcDbEntity
  8
MSL3_160_3F-0
100
AcDbLine
 10
401.015759
 20
-168.71129
 30
0.0
 11
401.015759
 21
-186.71129
 31
0.0
  0
LINE
  5
10F7
100
AcDbEntity
  8
MSL3_160_3F-0
100
AcDbLine
 10
417.015759
 20
-186.21129
 30
0.0
 11
417.015759
 21
-169.21129
 31
0.0
  0
LINE
  5
10F8
100
AcDbEntity
  8
MSL3_160_3F-0
100
AcDbLine
 10
428.015759
 20
-170.21129
 30
0.0
 11
428.015759
 21
-185.21129
 31
0.0
  0
LINE
  5
10F9
100
AcDbEntity
  8
MSL3_160_3F-0
100
AcDbLine
 10
427.015759
 20
-169.21129
 30
0.0
 11
427.015759
 21
-186.21129
 31
0.0
  0
LINE
  5
10FA
100
AcDbEntity
  8
MSL3_160_3F-0
100
AcDbLine
 10
393.015759
 20
-96.21129
 30
0.0
 11
393.015759
 21
-196.21129
 31
0.0
  0
ARC
  5
10FB
100
AcDbEntity
  8
MSL3_160_3F-0
100
AcDbCircle
 10
406.298451
 20
-177.71129
 30
0.0
 40
13.282692
100
AcDbArc
 50
148.560609
 51
211.439391
  0
LINE
  5
10FC
100
AcDbEntity
  8
MSL3_160_3F-0
100
AcDbLine
 10
392.515759
 20
-195.21129
 30
0.0
 11
392.515759
 21
-183.182466
 31
0.0
  0
ARC
  5
10FD
100
AcDbEntity
  8
MSL3_160_3F-0
100
AcDbCircle
 10
384.733066
 20
-177.71129
 30
0.0
 40
13.282692
100
AcDbArc
 50
328.560611
 51
31.439389
  0
ARC
  5
10FE
100
AcDbEntity
  8
MSL3_160_3F-0
100
AcDbCircle
 10
393.963836
 20
-188.103595
 30
0.0
 40
4.051923
100
AcDbArc
 50
301.248243
 51
58.751757
  0
ARC
  5
10FF
100
AcDbEntity
  8
MSL3_160_3F-0
100
AcDbCircle
 10
397.067682
 20
-188.103595
 30
0.0
 40
4.051923
100
AcDbArc
 50
121.248241
 51
238.751759
  0
LINE
  5
1100
100
AcDbEntity
  8
MSL3_160_3F-0
100
AcDbLine
 10
394.965759
 20
-191.567697
 30
0.0
 11
396.065759
 21
-191.567697
 31
0.0
  0
LINE
  5
1101
100
AcDbEntity
  8
MSL3_160_3F-0
100
AcDbLine
 10
394.965759
 20
-184.639493
 30
0.0
 11
396.065759
 21
-184.639493
 31
0.0
  0
LINE
  5
1102
100
AcDbEntity
  8
MSL3_160_3F-0
100
AcDbLine
 10
401.015759
 20
-186.71129
 30
0.0
 11
400.015759
 21
-187.71129
 31
0.0
  0
LINE
  5
1103
100
AcDbEntity
  8
MSL3_160_3F-0
100
AcDbLine
 10
400.015759
 20
-187.71129
 30
0.0
 11
398.015759
 21
-187.71129
 31
0.0
  0
LINE
  5
1104
100
AcDbEntity
  8
MSL3_160_3F-0
100
AcDbLine
 10
427.015759
 20
-186.21129
 30
0.0
 11
417.015759
 21
-186.21129
 31
0.0
  0
LINE
  5
1105
100
AcDbEntity
  8
MSL3_160_3F-0
100
AcDbLine
 10
428.015759
 20
-185.21129
 30
0.0
 11
427.015759
 21
-186.21129
 31
0.0
  0
LINE
  5
1106
100
AcDbEntity
  8
MSL3_160_3F-0
100
AcDbLine
 10
401.015759
 20
-180.86129
 30
0.0
 11
417.015759
 21
-180.86129
 31
0.0
  0
LINE
  5
1107
100
AcDbEntity
  8
MSL3_160_3F-0
100
AcDbLine
 10
401.015759
 20
-174.56129
 30
0.0
 11
417.015759
 21
-174.56129
 31
0.0
  0
LINE
  5
1108
100
AcDbEntity
  8
MSL3_160_3F-0
100
AcDbLine
 10
401.015759
 20
-173.21129
 30
0.0
 11
417.015759
 21
-173.21129
 31
0.0
  0
LINE
  5
1109
100
AcDbEntity
  8
MSL3_160_3F-0
100
AcDbLine
 10
401.015759
 20
-173.21129
 30
0.0
 11
417.015759
 21
-173.21129
 31
0.0
  0
LINE
  5
110A
100
AcDbEntity
  8
MSL3_160_3F-7
100
AcDbLine
 10
385.230713
 20
-177.71129
 30
0.0
 11
429.324094
 21
-177.71129
 31
0.0
  0
LINE
  5
110B
100
AcDbEntity
  8
MSL3_160_3F-0
100
AcDbLine
 10
412.015759
 20
-135.71129
 30
0.0
 11
412.015759
 21
-138.21129
 31
0.0
1001
GENIUS_GENOREF_13
1005
1240
  0
LINE
  5
110C
100
AcDbEntity
  8
MSL3_160_3F-0
100
AcDbLine
 10
411.015759
 20
-138.21129
 30
0.0
 11
411.015759
 21
-134.71129
 31
0.0
1001
GENIUS_GENOREF_13
1005
1240
  0
LINE
  5
110D
100
AcDbEntity
  8
MSL3_160_3F-0
100
AcDbLine
 10
392.515759
 20
-166.329488
 30
0.0
 11
392.515759
 21
-97.21129
 31
0.0
  0
LINE
  5
110E
100
AcDbEntity
  8
MSL3_160_3F-7
100
AcDbLine
 10
376.015759
 20
-146.21129
 30
0.0
 11
391.015759
 21
-146.21129
 31
0.0
  0
LINE
  5
110F
100
AcDbEntity
  8
MSL3_160_3F-0
100
AcDbLine
 10
392.515759
 20
-183.182466
 30
0.0
 11
373.815759
 21
-183.182466
 31
0.0
  0
LINE
  5
1110
100
AcDbEntity
  8
MSL3_160_3F-0
100
AcDbLine
 10
373.815759
 20
-166.329488
 30
0.0
 11
392.515759
 21
-166.329488
 31
0.0
  0
LINE
  5
1111
100
AcDbEntity
  8
MSL3_160_3F-7
100
AcDbLine
 10
375.651759
 20
-174.755977
 30
0.0
 11
391.379759
 21
-174.755977
 31
0.0
1001
GENIUS_GENODEF_13
1002
{
1000
HIER
1070
     0
1002
}
1002
{
1000
MANEDIT
1070
     0
1002
}
1002
{
1000
NOSEL
1070
     0
1002
}
1002
{
1000
BEHIND
1070
     0
1002
}
1002
{
1000
REACTOR
1002
}
1001
GENIUS_GENOBJ-N-CEN_13
1002
{
1000
OWNER
1000
GEN
1002
}
  0
LINE
  5
1112
100
AcDbEntity
  8
MSL3_160_3F-7
100
AcDbLine
 10
343.015759
 20
-166.21129
 30
0.0
 11
343.015759
 21
-160.21129
 31
0.0
  0
LINE
  5
1113
100
AcDbEntity
  8
MSL3_160_3F-7
100
AcDbLine
 10
343.015759
 20
-166.21129
 30
0.0
 11
343.015759
 21
-172.21129
 31
0.0
  0
LINE
  5
1114
100
AcDbEntity
  8
MSL3_160_3F-7
100
AcDbLine
 10
343.015759
 20
-166.21129
 30
0.0
 11
349.015759
 21
-166.21129
 31
0.0
  0
LINE
  5
1115
100
AcDbEntity
  8
MSL3_160_3F-0
100
AcDbLine
 10
373.815759
 20
-182.539678
 30
0.0
 11
373.815759
 21
-166.329488
 31
0.0
  0
LINE
  5
1116
100
AcDbEntity
  8
MSL3_160_3F-0
100
AcDbLine
 10
373.815759
 20
-183.182466
 30
0.0
 11
373.815759
 21
-182.539678
 31
0.0
  0
ARC
  5
1117
100
AcDbEntity
  8
MSL3_160_3F-0
100
AcDbCircle
 10
393.963836
 20
-167.318985
 30
0.0
 40
4.051923
100
AcDbArc
 50
301.248243
 51
58.751757
  0
ELLIPSE
  5
1118
100
AcDbEntity
  8
MSL3_160_3F-0
100
AcDbEllipse
 10
383.515759
 20
-174.755977
 30
0.0
 11
4.283225000000015
 21
0.0
 31
0.0
210
0.0
220
0.0
230
1.0
 40
0.766044
 41
0.000000000000052
 42
6.283185307179652
  0
ELLIPSE
  5
1119
100
AcDbEntity
  8
MSL3_160_3F-4
100
AcDbEllipse
 10
383.515759
 20
-174.755977
 30
0.0
 11
4.864000000000011
 21
0.000000000000013
 31
0.0
210
0.0
220
0.0
230
1.0
 40
0.766044
 41
-1.637716455833797
 42
3.255308282467353
  0
LINE
  5
111A
100
AcDbEntity
  8
MSL3_160_3F-7
100
AcDbLine
 10
383.515759
 20
-168.029937
 30
0.0
 11
383.515759
 21
-181.583018
 31
0.0
1001
GENIUS_GENODEF_13
1002
{
1000
HIER
1070
     0
1002
}
1002
{
1000
MANEDIT
1070
     0
1002
}
1002
{
1000
NOSEL
1070
     0
1002
}
1002
{
1000
BEHIND
1070
     0
1002
}
1002
{
1000
REACTOR
1002
}
1001
GENIUS_GENOBJ-N-CEN_13
1002
{
1000
OWNER
1000
GEN
1002
}
  0
ARC
  5
111B
100
AcDbEntity
  8
MSL3_160_3F-0
100
AcDbCircle
 10
397.067682
 20
-167.318985
 30
0.0
 40
4.051923
100
AcDbArc
 50
121.248241
 51
238.751759
  0
LINE
  5
111C
100
AcDbEntity
  8
MSL3_160_3F-0
100
AcDbLine
 10
394.965759
 20
-170.783087
 30
0.0
 11
396.065759
 21
-170.783087
 31
0.0
  0
LINE
  5
111D
100
AcDbEntity
  8
MSL3_160_3F-0
100
AcDbLine
 10
394.965759
 20
-163.854884
 30
0.0
 11
396.065759
 21
-163.854884
 31
0.0
  0
LINE
  5
111E
100
AcDbEntity
  8
MSL3_160_3F-0
100
AcDbLine
 10
400.015759
 20
-167.71129
 30
0.0
 11
401.015759
 21
-168.71129
 31
0.0
  0
LINE
  5
111F
100
AcDbEntity
  8
MSL3_160_3F-0
100
AcDbLine
 10
398.015759
 20
-167.71129
 30
0.0
 11
400.015759
 21
-167.71129
 31
0.0
  0
LINE
  5
1120
100
AcDbEntity
  8
MSL3_160_3F-0
100
AcDbLine
 10
411.015759
 20
-157.71129
 30
0.0
 11
393.015759
 21
-157.71129
 31
0.0
  0
LINE
  5
1121
100
AcDbEntity
  8
MSL3_160_3F-3
100
AcDbLine
 10
412.015759
 20
-138.21129
 30
0.0
 11
412.015759
 21
-154.21129
 31
0.0
1001
GENIUS_GENBH_13
1002
{
1000
OE
1000
CON1
1002
}
1001
GENIUS_GENOREF_13
1005
1240
  0
LINE
  5
1122
100
AcDbEntity
  8
MSL3_160_3F-3
100
AcDbLine
 10
411.015759
 20
-154.21129
 30
0.0
 11
411.015759
 21
-138.21129
 31
0.0
1001
GENIUS_GENBH_13
1002
{
1000
OE
1000
CON1
1002
}
1001
GENIUS_GENOREF_13
1005
1240
  0
LINE
  5
1123
100
AcDbEntity
  8
MSL3_160_3F-0
100
AcDbLine
 10
412.015759
 20
-156.71129
 30
0.0
 11
411.015759
 21
-157.71129
 31
0.0
  0
LINE
  5
1124
100
AcDbEntity
  8
MSL3_160_3F-0
100
AcDbLine
 10
411.015759
 20
-157.71129
 30
0.0
 11
411.015759
 21
-154.21129
 31
0.0
1001
GENIUS_GENOREF_13
1005
1240
  0
LINE
  5
1125
100
AcDbEntity
  8
MSL3_160_3F-0
100
AcDbLine
 10
412.015759
 20
-154.21129
 30
0.0
 11
412.015759
 21
-156.71129
 31
0.0
1001
GENIUS_GENOREF_13
1005
1240
  0
LINE
  5
1126
100
AcDbEntity
  8
MSL3_160_3F-0
100
AcDbLine
 10
351.120277
 20
-97.21129
 30
0.0
 11
392.515759
 21
-97.21129
 31
0.0
  0
LINE
  5
1127
100
AcDbEntity
  8
MSL3_160_3F-7
100
AcDbLine
 10
343.015759
 20
-116.630705
 30
0.0
 11
343.015759
 21
-93.21129
 31
0.0
  0
LINE
  5
1128
100
AcDbEntity
  8
MSL3_160_3F-7
100
AcDbLine
 10
343.015759
 20
-126.21129
 30
0.0
 11
343.015759
 21
-120.21129
 31
0.0
  0
LINE
  5
1129
100
AcDbEntity
  8
MSL3_160_3F-7
100
AcDbLine
 10
343.015759
 20
-126.21129
 30
0.0
 11
343.015759
 21
-132.21129
 31
0.0
  0
LINE
  5
112A
100
AcDbEntity
  8
MSL3_160_3F-7
100
AcDbLine
 10
343.015759
 20
-126.21129
 30
0.0
 11
349.015759
 21
-126.21129
 31
0.0
  0
LINE
  5
112B
100
AcDbEntity
  8
MSL3_160_3F-0
100
AcDbLine
 10
354.515762
 20
-102.839414
 30
0.0
 11
354.515759
 21
-101.103869
 31
0.0
  0
LINE
  5
112C
100
AcDbEntity
  8
MSL3_160_3F-0
100
AcDbLine
 10
343.515762
 20
-102.839423
 30
0.0
 11
343.515759
 21
-101.103896
 31
0.0
  0
ELLIPSE
  5
112D
100
AcDbEntity
  8
MSL3_160_3F-0
100
AcDbEllipse
 10
349.015759
 20
-101.103896
 30
0.0
 11
-2.000000000006366
 21
0.0
 31
0.0
210
0.0
220
0.0
230
1.0
 40
0.766044
 41
0.0000000000000557
 42
6.283185307179656
  0
ELLIPSE
  5
112E
100
AcDbEntity
  8
MSL3_160_3F-0
100
AcDbEllipse
 10
349.015759
 20
-101.103896
 30
0.0
 11
-5.500000000006366
 21
0.0
 31
0.0
210
0.0
220
0.0
230
1.0
 40
0.766044
 41
0.0000000000000405
 42
6.283185307179641
  0
LINE
  5
112F
100
AcDbEntity
  8
MSL3_160_3F-7
100
AcDbLine
 10
349.015759
 20
-108.317141
 30
0.0
 11
349.015759
 21
-93.890652
 31
0.0
1001
GENIUS_GENODEF_13
1002
{
1000
HIER
1070
     0
1002
}
1002
{
1000
MANEDIT
1070
     0
1002
}
1002
{
1000
NOSEL
1070
     0
1002
}
1002
{
1000
BEHIND
1070
     0
1002
}
1002
{
1000
REACTOR
1002
}
1001
GENIUS_GENOBJ-N-CEN_13
1002
{
1000
OWNER
1000
GEN
1002
}
  0
ELLIPSE
  5
1130
100
AcDbEntity
  8
MSL3_160_3F-0
100
AcDbEllipse
 10
349.015762
 20
-102.839414
 30
0.0
 11
-5.49999999999892
 21
-0.0000090657591037
 31
0.0
210
0.0
220
0.0
230
-1.0
 40
0.766044
 41
3.141592653539159
 42
6.283185307129007
  0
LINE
  5
1131
100
AcDbEntity
  8
MSL3_160_3F-0
100
AcDbLine
 10
351.015759
 20
-101.103878
 30
0.0
 11
349.015757
 21
-99.818312
 31
0.0
  0
LINE
  5
1132
100
AcDbEntity
  8
MSL3_160_3F-0
100
AcDbLine
 10
349.015757
 20
-99.818312
 30
0.0
 11
347.015759
 21
-101.103891
 31
0.0
  0
LINE
  5
1133
100
AcDbEntity
  8
MSL3_160_3F-0
100
AcDbLine
 10
393.015759
 20
-124.51129
 30
0.0
 11
393.015759
 21
-104.91129
 31
0.0
  0
LINE
  5
1134
100
AcDbEntity
  8
MSL3_160_3F-0
100
AcDbLine
 10
396.015759
 20
-122.072506
 30
0.0
 11
396.015759
 21
-107.350074
 31
0.0
  0
ARC
  5
1135
100
AcDbEntity
  8
MSL3_160_3F-0
100
AcDbCircle
 10
385.381037
 20
-114.71129
 30
0.0
 40
10.634722
100
AcDbArc
 50
332.518771
 51
27.481229
  0
LINE
  5
1136
100
AcDbEntity
  8
MSL3_160_3F-0
100
AcDbLine
 10
396.015759
 20
-120.340455
 30
0.0
 11
396.015759
 21
-109.082125
 31
0.0
  0
LINE
  5
1137
100
AcDbEntity
  8
MSL3_160_3F-7
100
AcDbLine
 10
398.514049
 20
-114.71129
 30
0.0
 11
386.504902
 21
-114.71129
 31
0.0
  0
LINE
  5
1138
100
AcDbEntity
  8
MSL3_160_3F-0
100
AcDbLine
 10
393.015759
 20
-134.71129
 30
0.0
 11
411.015759
 21
-134.71129
 31
0.0
  0
LINE
  5
1139
100
AcDbEntity
  8
MSL3_160_3F-0
100
AcDbLine
 10
394.834831
 20
-124.51129
 30
0.0
 11
393.015759
 21
-124.51129
 31
0.0
  0
LINE
  5
113A
100
AcDbEntity
  8
MSL3_160_3F-0
100
AcDbLine
 10
394.815759
 20
-119.618767
 30
0.0
 11
393.015759
 21
-119.618767
 31
0.0
  0
ARC
  5
113B
100
AcDbEntity
  8
MSL3_160_3F-0
100
AcDbCircle
 10
392.907079
 20
-122.072506
 30
0.0
 40
3.108681
100
AcDbArc
 50
307.878142
 51
52.121858
  0
LINE
  5
113C
100
AcDbEntity
  8
MSL3_160_3F-0
100
AcDbLine
 10
411.015759
 20
-134.71129
 30
0.0
 11
412.015759
 21
-135.71129
 31
0.0
  0
LINE
  5
113D
100
AcDbEntity
  8
MSL3_160_3F-0
100
AcDbLine
 10
394.815759
 20
-109.803813
 30
0.0
 11
393.015759
 21
-109.803813
 31
0.0
  0
LINE
  5
113E
100
AcDbEntity
  8
MSL3_160_3F-0
100
AcDbLine
 10
393.015759
 20
-104.91129
 30
0.0
 11
394.834831
 21
-104.91129
 31
0.0
  0
ARC
  5
113F
100
AcDbEntity
  8
MSL3_160_3F-0
100
AcDbCircle
 10
392.907079
 20
-107.350074
 30
0.0
 40
3.108681
100
AcDbArc
 50
307.878142
 51
52.121858
  0
LINE
  5
1140
100
AcDbEntity
  8
MSL3_160_3F-0
100
AcDbLine
 10
417.015759
 20
-169.21129
 30
0.0
 11
427.015759
 21
-169.21129
 31
0.0
  0
LINE
  5
1141
100
AcDbEntity
  8
MSL3_160_3F-0
100
AcDbLine
 10
427.015759
 20
-169.21129
 30
0.0
 11
428.015759
 21
-170.21129
 31
0.0
  0
LINE
  5
1142
100
AcDbEntity
  8
MSL3_160_3F-7
100
AcDbLine
 10
587.015759
 20
-175.791874
 30
0.0
 11
587.015759
 21
-199.21129
 31
0.0
  0
LINE
  5
1143
100
AcDbEntity
  8
MSL3_160_3F-7
100
AcDbLine
 10
579.015759
 20
-176.292471
 30
0.0
 11
579.015759
 21
-186.322585
 31
0.0
  0
LINE
  5
1144
100
AcDbEntity
  8
MSL3_160_3F-3
100
AcDbLine
 10
590.015759
 20
-196.21129
 30
0.0
 11
590.015759
 21
-184.21129
 31
0.0
  0
LINE
  5
1145
100
AcDbEntity
  8
MSL3_160_3F-3
100
AcDbLine
 10
584.015759
 20
-196.21129
 30
0.0
 11
584.015759
 21
-184.21129
 31
0.0
  0
LINE
  5
1146
100
AcDbEntity
  8
MSL3_160_3F-3
100
AcDbLine
 10
589.474259
 20
-196.21129
 30
0.0
 11
589.474259
 21
-180.21129
 31
0.0
  0
LINE
  5
1147
100
AcDbEntity
  8
MSL3_160_3F-3
100
AcDbLine
 10
584.557259
 20
-196.21129
 30
0.0
 11
584.557259
 21
-180.21129
 31
0.0
  0
LINE
  5
1148
100
AcDbEntity
  8
MSL3_160_3F-0
100
AcDbLine
 10
593.015759
 20
-196.21129
 30
0.0
 11
593.015759
 21
-96.21129
 31
0.0
  0
LINE
  5
1149
100
AcDbEntity
  8
MSL3_160_3F-0
100
AcDbLine
 10
573.015759
 20
-96.21129
 30
0.0
 11
573.015759
 21
-196.21129
 31
0.0
  0
LINE
  5
114A
100
AcDbEntity
  8
MSL3_160_3F-0
100
AcDbLine
 10
573.015759
 20
-196.21129
 30
0.0
 11
593.015759
 21
-196.21129
 31
0.0
  0
LINE
  5
114B
100
AcDbEntity
  8
MSL3_160_3F-0
100
AcDbLine
 10
566.515759
 20
-110.71129
 30
0.0
 11
560.015759
 21
-110.71129
 31
0.0
  0
LINE
  5
114C
100
AcDbEntity
  8
MSL3_160_3F-0
100
AcDbLine
 10
560.015759
 20
-118.71129
 30
0.0
 11
566.515759
 21
-118.71129
 31
0.0
  0
LINE
  5
114D
100
AcDbEntity
  8
MSL3_160_3F-0
100
AcDbLine
 10
560.015759
 20
-119.21129
 30
0.0
 11
566.515759
 21
-119.21129
 31
0.0
  0
LINE
  5
114E
100
AcDbEntity
  8
MSL3_160_3F-7
100
AcDbLine
 10
554.184884
 20
-114.71129
 30
0.0
 11
579.503603
 21
-114.71129
 31
0.0
  0
ARC
  5
114F
100
AcDbEntity
  8
MSL3_160_3F-0
100
AcDbCircle
 10
565.038168
 20
-114.71129
 30
0.0
 40
9.02241
100
AcDbArc
 50
155.421502
 51
204.578498
  0
LINE
  5
1150
100
AcDbEntity
  8
MSL3_160_3F-0
100
AcDbLine
 10
556.015759
 20
-120.340455
 30
0.0
 11
556.015759
 21
-109.082125
 31
0.0
  0
LINE
  5
1151
100
AcDbEntity
  8
MSL3_160_3F-0
100
AcDbLine
 10
560.015759
 20
-122.216844
 30
0.0
 11
560.015759
 21
-107.205737
 31
0.0
  0
ARC
  5
1152
100
AcDbEntity
  8
MSL3_160_3F-0
100
AcDbCircle
 10
558.577924
 20
-120.340455
 30
0.0
 40
2.562165
100
AcDbArc
 50
132.916662
 51
227.083338
  0
LINE
  5
1153
100
AcDbEntity
  8
MSL3_160_3F-0
100
AcDbLine
 10
556.833259
 20
-118.464067
 30
0.0
 11
560.015759
 21
-118.464067
 31
0.0
  0
LINE
  5
1154
100
AcDbEntity
  8
MSL3_160_3F-0
100
AcDbLine
 10
556.833259
 20
-122.216844
 30
0.0
 11
560.015759
 21
-122.216844
 31
0.0
  0
ARC
  5
1155
100
AcDbEntity
  8
MSL3_160_3F-0
100
AcDbCircle
 10
558.577924
 20
-109.082125
 30
0.0
 40
2.562165
100
AcDbArc
 50
132.916662
 51
227.083338
  0
LINE
  5
1156
100
AcDbEntity
  8
MSL3_160_3F-0
100
AcDbLine
 10
560.015759
 20
-107.205737
 30
0.0
 11
556.833259
 21
-107.205737
 31
0.0
  0
LINE
  5
1157
100
AcDbEntity
  8
MSL3_160_3F-0
100
AcDbLine
 10
556.833259
 20
-110.958513
 30
0.0
 11
560.015759
 21
-110.958513
 31
0.0
  0
LINE
  5
1158
100
AcDbEntity
  8
MSL3_160_3F-3
100
AcDbLine
 10
578.015759
 20
-162.91129
 30
0.0
 11
578.015759
 21
-160.71129
 31
0.0
  0
CIRCLE
  5
1159
100
AcDbEntity
  8
MSL3_160_3F-3
100
AcDbCircle
 10
579.015759
 20
-181.21129
 30
0.0
 40
2.5
  0
ARC
  5
115A
100
AcDbEntity
  8
MSL3_160_3F-3
100
AcDbCircle
 10
579.015759
 20
-181.21129
 30
0.0
 40
3.0
100
AcDbArc
 50
339.4283
 51
288.734659
  0
LINE
  5
115B
100
AcDbEntity
  8
MSL3_160_3F-7
100
AcDbLine
 10
596.015759
 20
-166.21129
 30
0.0
 11
570.015759
 21
-166.21129
 31
0.0
  0
LINE
  5
115C
100
AcDbEntity
  8
MSL3_160_3F-3
100
AcDbLine
 10
593.015759
 20
-162.91129
 30
0.0
 11
578.015759
 21
-162.91129
 31
0.0
  0
LINE
  5
115D
100
AcDbEntity
  8
MSL3_160_3F-3
100
AcDbLine
 10
578.015759
 20
-169.51129
 30
0.0
 11
593.015759
 21
-169.51129
 31
0.0
  0
LINE
  5
115E
100
AcDbEntity
  8
MSL3_160_3F-3
100
AcDbLine
 10
578.015759
 20
-171.71129
 30
0.0
 11
578.015759
 21
-169.51129
 31
0.0
  0
LINE
  5
115F
100
AcDbEntity
  8
MSL3_160_3F-3
100
AcDbLine
 10
578.015759
 20
-162.91129
 30
0.0
 11
578.015759
 21
-169.51129
 31
0.0
  0
LINE
  5
1160
100
AcDbEntity
  8
MSL3_160_3F-3
100
AcDbLine
 10
573.015759
 20
-171.71129
 30
0.0
 11
578.015759
 21
-171.71129
 31
0.0
  0
LINE
  5
1161
100
AcDbEntity
  8
MSL3_160_3F-3
100
AcDbLine
 10
587.015759
 20
-178.791874
 30
0.0
 11
589.474259
 21
-180.21129
 31
0.0
  0
LINE
  5
1162
100
AcDbEntity
  8
MSL3_160_3F-3
100
AcDbLine
 10
584.557259
 20
-180.21129
 30
0.0
 11
589.474259
 21
-180.21129
 31
0.0
  0
LINE
  5
1163
100
AcDbEntity
  8
MSL3_160_3F-3
100
AcDbLine
 10
584.015759
 20
-184.21129
 30
0.0
 11
590.015759
 21
-184.21129
 31
0.0
  0
LINE
  5
1164
100
AcDbEntity
  8
MSL3_160_3F-3
100
AcDbLine
 10
587.015759
 20
-178.791874
 30
0.0
 11
584.557259
 21
-180.21129
 31
0.0
  0
LINE
  5
1165
100
AcDbEntity
  8
MSL3_160_3F-0
100
AcDbLine
 10
573.015759
 20
-153.546511
 30
0.0
 11
593.015759
 21
-153.546511
 31
0.0
  0
LINE
  5
1166
100
AcDbEntity
  8
MSL3_160_3F-0
100
AcDbLine
 10
573.015759
 20
-138.876068
 30
0.0
 11
593.015759
 21
-138.876068
 31
0.0
  0
LINE
  5
1167
100
AcDbEntity
  8
MSL3_160_3F-0
100
AcDbLine
 10
573.015759
 20
-142.21129
 30
0.0
 11
573.015759
 21
-150.21129
 31
0.0
  0
LINE
  5
1168
100
AcDbEntity
  8
MSL3_160_3F-3
100
AcDbLine
 10
578.015759
 20
-160.71129
 30
0.0
 11
573.015759
 21
-160.71129
 31
0.0
  0
LINE
  5
1169
100
AcDbEntity
  8
MSL3_160_3F-7
100
AcDbLine
 10
587.015759
 20
-116.630705
 30
0.0
 11
587.015759
 21
-93.21129
 31
0.0
  0
LINE
  5
116A
100
AcDbEntity
  8
MSL3_160_3F-3
100
AcDbLine
 10
587.015759
 20
-113.630705
 30
0.0
 11
589.474259
 21
-112.21129
 31
0.0
  0
LINE
  5
116B
100
AcDbEntity
  8
MSL3_160_3F-3
100
AcDbLine
 10
587.015759
 20
-113.630705
 30
0.0
 11
584.557259
 21
-112.21129
 31
0.0
  0
LINE
  5
116C
100
AcDbEntity
  8
MSL3_160_3F-7
100
AcDbLine
 10
579.015759
 20
-106.292471
 30
0.0
 11
579.015759
 21
-116.322585
 31
0.0
  0
LINE
  5
116D
100
AcDbEntity
  8
MSL3_160_3F-0
100
AcDbLine
 10
573.015759
 20
-118.71129
 30
0.0
 11
573.015759
 21
-110.71129
 31
0.0
  0
LINE
  5
116E
100
AcDbEntity
  8
MSL3_160_3F-0
100
AcDbLine
 10
573.015759
 20
-109.082125
 30
0.0
 11
573.015759
 21
-120.340455
 31
0.0
  0
CIRCLE
  5
116F
100
AcDbEntity
  8
MSL3_160_3F-3
100
AcDbCircle
 10
579.015759
 20
-111.21129
 30
0.0
 40
2.5
  0
ARC
  5
1170
100
AcDbEntity
  8
MSL3_160_3F-3
100
AcDbCircle
 10
579.015759
 20
-111.21129
 30
0.0
 40
3.0
100
AcDbArc
 50
339.4283
 51
288.734659
  0
ARC
  5
1171
100
AcDbEntity
  8
MSL3_160_3F-0
100
AcDbCircle
 10
565.306036
 20
-114.71129
 30
0.0
 40
7.709722
100
AcDbArc
 50
330.872218
 51
29.127782
  0
ARC
  5
1172
100
AcDbEntity
  8
MSL3_160_3F-0
100
AcDbCircle
 10
574.225481
 20
-114.71129
 30
0.0
 40
7.709722
100
AcDbArc
 50
150.872216
 51
209.127784
  0
LINE
  5
1173
100
AcDbEntity
  8
MSL3_160_3F-0
100
AcDbLine
 10
566.515759
 20
-109.082125
 30
0.0
 11
566.515759
 21
-120.340455
 31
0.0
  0
LINE
  5
1174
100
AcDbEntity
  8
MSL3_160_3F-7
100
AcDbLine
 10
596.015759
 20
-126.21129
 30
0.0
 11
570.015759
 21
-126.21129
 31
0.0
  0
LINE
  5
1175
100
AcDbEntity
  8
MSL3_160_3F-3
100
AcDbLine
 10
593.015759
 20
-123.21129
 30
0.0
 11
573.015759
 21
-123.21129
 31
0.0
  0
LINE
  5
1176
100
AcDbEntity
  8
MSL3_160_3F-3
100
AcDbLine
 10
593.015759
 20
-129.21129
 30
0.0
 11
573.015759
 21
-129.21129
 31
0.0
  0
LINE
  5
1177
100
AcDbEntity
  8
MSL3_160_3F-0
100
AcDbLine
 10
567.490759
 20
-118.464067
 30
0.0
 11
572.040759
 21
-118.464067
 31
0.0
  0
LINE
  5
1178
100
AcDbEntity
  8
MSL3_160_3F-0
100
AcDbLine
 10
567.490759
 20
-122.216844
 30
0.0
 11
572.040759
 21
-122.216844
 31
0.0
  0
ARC
  5
1179
100
AcDbEntity
  8
MSL3_160_3F-0
100
AcDbCircle
 10
568.808814
 20
-120.340455
 30
0.0
 40
2.293056
100
AcDbArc
 50
125.085847
 51
234.914153
  0
ARC
  5
117A
100
AcDbEntity
  8
MSL3_160_3F-0
100
AcDbCircle
 10
570.722703
 20
-120.340455
 30
0.0
 40
2.293056
100
AcDbArc
 50
305.085848
 51
54.914152
  0
LINE
  5
117B
100
AcDbEntity
  8
MSL3_160_3F-0
100
AcDbLine
 10
593.015759
 20
-96.21129
 30
0.0
 11
573.015759
 21
-96.21129
 31
0.0
  0
LINE
  5
117C
100
AcDbEntity
  8
MSL3_160_3F-0
100
AcDbLine
 10
567.490759
 20
-107.205737
 30
0.0
 11
572.040759
 21
-107.205737
 31
0.0
  0
LINE
  5
117D
100
AcDbEntity
  8
MSL3_160_3F-0
100
AcDbLine
 10
567.490759
 20
-110.958513
 30
0.0
 11
572.040759
 21
-110.958513
 31
0.0
  0
ARC
  5
117E
100
AcDbEntity
  8
MSL3_160_3F-0
100
AcDbCircle
 10
568.808814
 20
-109.082125
 30
0.0
 40
2.293056
100
AcDbArc
 50
125.085847
 51
234.914153
  0
ARC
  5
117F
100
AcDbEntity
  8
MSL3_160_3F-0
100
AcDbCircle
 10
570.722703
 20
-109.082125
 30
0.0
 40
2.293056
100
AcDbArc
 50
305.085848
 51
54.914152
  0
LINE
  5
1180
100
AcDbEntity
  8
MSL3_160_3F-3
100
AcDbLine
 10
590.015759
 20
-96.21129
 30
0.0
 11
590.015759
 21
-108.21129
 31
0.0
  0
LINE
  5
1181
100
AcDbEntity
  8
MSL3_160_3F-3
100
AcDbLine
 10
589.474259
 20
-96.21129
 30
0.0
 11
589.474259
 21
-112.21129
 31
0.0
  0
LINE
  5
1182
100
AcDbEntity
  8
MSL3_160_3F-3
100
AcDbLine
 10
584.015759
 20
-96.21129
 30
0.0
 11
584.015759
 21
-108.21129
 31
0.0
  0
LINE
  5
1183
100
AcDbEntity
  8
MSL3_160_3F-3
100
AcDbLine
 10
584.557259
 20
-96.21129
 30
0.0
 11
584.557259
 21
-112.21129
 31
0.0
  0
LINE
  5
1184
100
AcDbEntity
  8
MSL3_160_3F-3
100
AcDbLine
 10
589.474259
 20
-112.21129
 30
0.0
 11
584.557259
 21
-112.21129
 31
0.0
  0
LINE
  5
1185
100
AcDbEntity
  8
MSL3_160_3F-3
100
AcDbLine
 10
590.015759
 20
-108.21129
 30
0.0
 11
584.015759
 21
-108.21129
 31
0.0
  0
LINE
  5
1186
100
AcDbEntity
  8
MSL3_160_3F-0
100
AcDbLine
 10
393.015759
 20
7.999091
 30
0.0
 11
573.015759
 21
7.999091
 31
0.0
  0
LINE
  5
1187
100
AcDbEntity
  8
MSL3_160_3F-0
100
AcDbLine
 10
393.015759
 20
70.0
 30
0.0
 11
573.015759
 21
70.0
 31
0.0
  0
LINE
  5
1188
100
AcDbEntity
  8
MSL3_160_3F-0
100
AcDbLine
 10
393.015759
 20
54.0
 30
0.0
 11
573.015759
 21
54.0
 31
0.0
  0
LINE
  5
1189
100
AcDbEntity
  8
MSL3_160_3F-0
100
AcDbLine
 10
393.015759
 20
-8.000909
 30
0.0
 11
573.015759
 21
-8.000909
 31
0.0
  0
LINE
  5
118A
100
AcDbEntity
  8
MSL3_160_3F-7
100
AcDbLine
 10
390.015759
 20
62.0
 30
0.0
 11
576.015759
 21
62.0
 31
0.0
1001
GENIUS_GENODEF_13
1002
{
1000
HIER
1070
     0
1002
}
1002
{
1000
MANEDIT
1070
     0
1002
}
1002
{
1000
NOSEL
1070
     0
1002
}
1002
{
1000
BEHIND
1070
     0
1002
}
1002
{
1000
REACTOR
1002
}
1001
GENIUS_GENOBJ-N-CEN_13
1002
{
1000
OWNER
1000
GEN
1002
}
  0
LINE
  5
118B
100
AcDbEntity
  8
MSL3_160_3F-0
100
AcDbLine
 10
393.015759
 20
-25.0
 30
0.0
 11
393.015759
 21
25.0
 31
0.0
  0
LINE
  5
118C
100
AcDbEntity
  8
MSL3_160_3F-7
100
AcDbLine
 10
343.015759
 20
-20.0
 30
0.0
 11
343.015759
 21
-14.0
 31
0.0
  0
LINE
  5
118D
100
AcDbEntity
  8
MSL3_160_3F-7
100
AcDbLine
 10
343.015759
 20
-20.0
 30
0.0
 11
343.015759
 21
-26.0
 31
0.0
  0
LINE
  5
118E
100
AcDbEntity
  8
MSL3_160_3F-7
100
AcDbLine
 10
343.015759
 20
-20.0
 30
0.0
 11
349.015759
 21
-20.0
 31
0.0
  0
LINE
  5
118F
100
AcDbEntity
  8
MSL3_160_3F-0
100
AcDbLine
 10
393.015759
 20
-11.500023
 30
0.0
 11
411.015759
 21
-11.500023
 31
0.0
  0
LINE
  5
1190
100
AcDbEntity
  8
MSL3_160_3F-0
100
AcDbLine
 10
411.015759
 20
-11.500023
 30
0.0
 11
412.015759
 21
-10.500023
 31
0.0
  0
LINE
  5
1191
100
AcDbEntity
  8
MSL3_160_3F-0
100
AcDbLine
 10
411.015759
 20
-8.000909
 30
0.0
 11
411.015759
 21
-11.500023
 31
0.0
  0
LINE
  5
1192
100
AcDbEntity
  8
MSL3_160_3F-0
100
AcDbLine
 10
412.015759
 20
-10.500023
 30
0.0
 11
412.015759
 21
-8.000909
 31
0.0
  0
LINE
  5
1193
100
AcDbEntity
  8
MSL3_160_3F-0
100
AcDbLine
 10
401.015759
 20
32.85
 30
0.0
 11
417.015759
 21
32.85
 31
0.0
  0
LINE
  5
1194
100
AcDbEntity
  8
MSL3_160_3F-0
100
AcDbLine
 10
401.015759
 20
39.15
 30
0.0
 11
417.015759
 21
39.15
 31
0.0
  0
LINE
  5
1195
100
AcDbEntity
  8
MSL3_160_3F-7
100
AcDbLine
 10
385.230713
 20
36.0
 30
0.0
 11
429.324094
 21
36.0
 31
0.0
  0
LINE
  5
1196
100
AcDbEntity
  8
MSL3_160_3F-0
100
AcDbLine
 10
393.015759
 20
80.0
 30
0.0
 11
393.015759
 21
25.0
 31
0.0
  0
LINE
  5
1197
100
AcDbEntity
  8
MSL3_160_3F-0
100
AcDbLine
 10
392.515759
 20
56.432942
 30
0.0
 11
392.515759
 21
25.0
 31
0.0
  0
LINE
  5
1198
100
AcDbEntity
  8
MSL3_160_3F-0
100
AcDbLine
 10
392.515759
 20
25.0
 30
0.0
 11
362.515759
 21
25.0
 31
0.0
  0
LINE
  5
1199
100
AcDbEntity
  8
MSL3_160_3F-4
100
AcDbLine
 10
392.515759
 20
27.0
 30
0.0
 11
362.515759
 21
27.0
 31
0.0
  0
LINE
  5
119A
100
AcDbEntity
  8
MSL3_160_3F-0
100
AcDbLine
 10
362.515759
 20
27.0
 30
0.0
 11
357.515759
 21
27.0
 31
0.0
  0
LINE
  5
119B
100
AcDbEntity
  8
MSL3_160_3F-7
100
AcDbLine
 10
343.015759
 20
20.0
 30
0.0
 11
343.015759
 21
14.0
 31
0.0
  0
LINE
  5
119C
100
AcDbEntity
  8
MSL3_160_3F-7
100
AcDbLine
 10
343.015759
 20
20.0
 30
0.0
 11
343.015759
 21
26.0
 31
0.0
  0
LINE
  5
119D
100
AcDbEntity
  8
MSL3_160_3F-7
100
AcDbLine
 10
343.015759
 20
20.0
 30
0.0
 11
349.015759
 21
20.0
 31
0.0
  0
LINE
  5
119E
100
AcDbEntity
  8
MSL3_160_3F-0
100
AcDbLine
 10
357.515759
 20
27.0
 30
0.0
 11
357.515759
 21
25.0
 31
0.0
  0
LINE
  5
119F
100
AcDbEntity
  8
MSL3_160_3F-0
100
AcDbLine
 10
362.515759
 20
25.0
 30
0.0
 11
362.515759
 21
27.0
 31
0.0
  0
ARC
  5
11A0
100
AcDbEntity
  8
MSL3_160_3F-0
100
AcDbCircle
 10
397.067682
 20
25.607695
 30
0.0
 40
4.051923
100
AcDbArc
 50
121.248241
 51
238.751759
  0
ARC
  5
11A1
100
AcDbEntity
  8
MSL3_160_3F-0
100
AcDbCircle
 10
393.963836
 20
25.607695
 30
0.0
 40
4.051923
100
AcDbArc
 50
301.248243
 51
58.751757
  0
LINE
  5
11A2
100
AcDbEntity
  8
MSL3_160_3F-0
100
AcDbLine
 10
398.015759
 20
46.392305
 30
0.0
 11
398.015759
 21
25.607695
 31
0.0
  0
LINE
  5
11A3
100
AcDbEntity
  8
MSL3_160_3F-0
100
AcDbLine
 10
400.015759
 20
46.0
 30
0.0
 11
400.015759
 21
26.0
 31
0.0
  0
LINE
  5
11A4
100
AcDbEntity
  8
MSL3_160_3F-0
100
AcDbLine
 10
401.015759
 20
45.0
 30
0.0
 11
401.015759
 21
27.0
 31
0.0
  0
LINE
  5
11A5
100
AcDbEntity
  8
MSL3_160_3F-0
100
AcDbLine
 10
411.015759
 20
11.499977
 30
0.0
 11
393.015759
 21
11.499977
 31
0.0
  0
LINE
  5
11A6
100
AcDbEntity
  8
MSL3_160_3F-0
100
AcDbLine
 10
394.965759
 20
22.143593
 30
0.0
 11
396.065759
 21
22.143593
 31
0.0
  0
LINE
  5
11A7
100
AcDbEntity
  8
MSL3_160_3F-0
100
AcDbLine
 10
412.015759
 20
10.499977
 30
0.0
 11
411.015759
 21
11.499977
 31
0.0
  0
LINE
  5
11A8
100
AcDbEntity
  8
MSL3_160_3F-0
100
AcDbLine
 10
411.015759
 20
11.499977
 30
0.0
 11
411.015759
 21
7.999091
 31
0.0
  0
LINE
  5
11A9
100
AcDbEntity
  8
MSL3_160_3F-0
100
AcDbLine
 10
412.015759
 20
7.999091
 30
0.0
 11
412.015759
 21
10.499977
 31
0.0
  0
LINE
  5
11AA
100
AcDbEntity
  8
MSL3_160_3F-0
100
AcDbLine
 10
401.015759
 20
27.0
 30
0.0
 11
400.015759
 21
26.0
 31
0.0
  0
LINE
  5
11AB
100
AcDbEntity
  8
MSL3_160_3F-0
100
AcDbLine
 10
400.015759
 20
26.0
 30
0.0
 11
398.015759
 21
26.0
 31
0.0
  0
ARC
  5
11AC
100
AcDbEntity
  8
MSL3_160_3F-0
100
AcDbCircle
 10
393.963836
 20
46.392305
 30
0.0
 40
4.051923
100
AcDbArc
 50
301.248243
 51
58.751757
  0
ARC
  5
11AD
100
AcDbEntity
  8
MSL3_160_3F-0
100
AcDbCircle
 10
384.733066
 20
36.0
 30
0.0
 40
13.282692
100
AcDbArc
 50
328.560611
 51
31.439389
  0
ARC
  5
11AE
100
AcDbEntity
  8
MSL3_160_3F-0
100
AcDbCircle
 10
406.298451
 20
36.0
 30
0.0
 40
13.282692
100
AcDbArc
 50
148.560609
 51
211.439391
  0
LINE
  5
11AF
100
AcDbEntity
  8
MSL3_160_3F-0
100
AcDbLine
 10
394.965759
 20
29.071797
 30
0.0
 11
396.065759
 21
29.071797
 31
0.0
  0
ARC
  5
11B0
100
AcDbEntity
  8
MSL3_160_3F-0
100
AcDbCircle
 10
397.067682
 20
46.392305
 30
0.0
 40
4.051923
100
AcDbArc
 50
121.248241
 51
238.751759
  0
LINE
  5
11B1
100
AcDbEntity
  8
MSL3_160_3F-0
100
AcDbLine
 10
394.965759
 20
42.928203
 30
0.0
 11
396.065759
 21
42.928203
 31
0.0
  0
LINE
  5
11B2
100
AcDbEntity
  8
MSL3_160_3F-0
100
AcDbLine
 10
394.965759
 20
49.856406
 30
0.0
 11
396.065759
 21
49.856406
 31
0.0
  0
LINE
  5
11B3
100
AcDbEntity
  8
MSL3_160_3F-0
100
AcDbLine
 10
400.015759
 20
46.0
 30
0.0
 11
401.015759
 21
45.0
 31
0.0
  0
LINE
  5
11B4
100
AcDbEntity
  8
MSL3_160_3F-0
100
AcDbLine
 10
398.015759
 20
46.0
 30
0.0
 11
400.015759
 21
46.0
 31
0.0
  0
LINE
  5
11B5
100
AcDbEntity
  8
MSL3_160_3F-0
100
AcDbLine
 10
392.515759
 20
56.432942
 30
0.0
 11
373.815759
 21
56.432942
 31
0.0
  0
LINE
  5
11B6
100
AcDbEntity
  8
MSL3_160_3F-0
100
AcDbLine
 10
392.515759
 20
70.574269
 30
0.0
 11
373.815759
 21
70.574269
 31
0.0
  0
LINE
  5
11B7
100
AcDbEntity
  8
MSL3_160_3F-7
100
AcDbLine
 10
375.651759
 20
63.503606
 30
0.0
 11
391.379759
 21
63.503606
 31
0.0
1001
GENIUS_GENODEF_13
1002
{
1000
HIER
1070
     0
1002
}
1002
{
1000
MANEDIT
1070
     0
1002
}
1002
{
1000
NOSEL
1070
     0
1002
}
1002
{
1000
BEHIND
1070
     0
1002
}
1002
{
1000
REACTOR
1002
}
1001
GENIUS_GENOBJ-N-CEN_13
1002
{
1000
OWNER
1000
GEN
1002
}
  0
LINE
  5
11B8
100
AcDbEntity
  8
MSL3_160_3F-0
100
AcDbLine
 10
373.815759
 20
70.574269
 30
0.0
 11
373.815759
 21
57.198986
 31
0.0
  0
LINE
  5
11B9
100
AcDbEntity
  8
MSL3_160_3F-0
100
AcDbLine
 10
373.815759
 20
56.432942
 30
0.0
 11
373.815759
 21
57.198986
 31
0.0
  0
LINE
  5
11BA
100
AcDbEntity
  8
MSL3_160_3F-0
100
AcDbLine
 10
392.515759
 20
81.0
 30
0.0
 11
392.515759
 21
70.574269
 31
0.0
  0
ELLIPSE
  5
11BB
100
AcDbEntity
  8
MSL3_160_3F-0
100
AcDbEllipse
 10
383.515759
 20
63.503606
 30
0.0
 11
4.283225000000015
 21
0.0
 31
0.0
210
0.0
220
0.0
230
1.0
 40
0.642788
 41
0.0000000000000413
 42
6.283185307179641
  0
ELLIPSE
  5
11BC
100
AcDbEntity
  8
MSL3_160_3F-4
100
AcDbEllipse
 10
383.515759
 20
63.503606
 30
0.0
 11
-4.863999999999918
 21
0.0000000000000302
 31
0.0
210
0.0
220
0.0
230
1.0
 40
0.642788
 41
1.514618869527608
 42
6.41846223782577
  0
LINE
  5
11BD
100
AcDbEntity
  8
MSL3_160_3F-7
100
AcDbLine
 10
383.515759
 20
57.377087
 30
0.0
 11
383.515759
 21
69.630125
 31
0.0
1001
GENIUS_GENODEF_13
1002
{
1000
HIER
1070
     0
1002
}
1002
{
1000
MANEDIT
1070
     0
1002
}
1002
{
1000
NOSEL
1070
     0
1002
}
1002
{
1000
BEHIND
1070
     0
1002
}
1002
{
1000
REACTOR
1002
}
1001
GENIUS_GENOBJ-N-CEN_13
1002
{
1000
OWNER
1000
GEN
1002
}
  0
LINE
  5
11BE
100
AcDbEntity
  8
MSL3_160_3F-0
100
AcDbLine
 10
393.015759
 20
80.0
 30
0.0
 11
392.515759
 21
80.0
 31
0.0
  0
LINE
  5
11BF
100
AcDbEntity
  8
MSL3_160_3F-0
100
AcDbLine
 10
427.015759
 20
44.5
 30
0.0
 11
427.015759
 21
27.5
 31
0.0
  0
LINE
  5
11C0
100
AcDbEntity
  8
MSL3_160_3F-0
100
AcDbLine
 10
428.015759
 20
43.5
 30
0.0
 11
428.015759
 21
28.5
 31
0.0
  0
LINE
  5
11C1
100
AcDbEntity
  8
MSL3_160_3F-0
100
AcDbLine
 10
417.015759
 20
27.5
 30
0.0
 11
417.015759
 21
44.5
 31
0.0
  0
LINE
  5
11C2
100
AcDbEntity
  8
MSL3_160_3F-0
100
AcDbLine
 10
427.015759
 20
27.5
 30
0.0
 11
417.015759
 21
27.5
 31
0.0
  0
LINE
  5
11C3
100
AcDbEntity
  8
MSL3_160_3F-0
100
AcDbLine
 10
428.015759
 20
28.5
 30
0.0
 11
427.015759
 21
27.5
 31
0.0
  0
LINE
  5
11C4
100
AcDbEntity
  8
MSL3_160_3F-0
100
AcDbLine
 10
417.015759
 20
44.5
 30
0.0
 11
427.015759
 21
44.5
 31
0.0
  0
LINE
  5
11C5
100
AcDbEntity
  8
MSL3_160_3F-0
100
AcDbLine
 10
427.015759
 20
44.5
 30
0.0
 11
428.015759
 21
43.5
 31
0.0
  0
LINE
  5
11C6
100
AcDbEntity
  8
MSL3_160_3F-0
100
AcDbLine
 10
593.015759
 20
-26.0
 30
0.0
 11
593.015759
 21
80.0
 31
0.0
  0
LINE
  5
11C7
100
AcDbEntity
  8
MSL3_160_3F-0
100
AcDbLine
 10
573.015759
 20
80.0
 30
0.0
 11
573.015759
 21
-26.0
 31
0.0
  0
CIRCLE
  5
11C8
100
AcDbEntity
  8
MSL3_160_3F-0
100
AcDbCircle
 10
587.015759
 20
-20.0
 30
0.0
 40
2.5
  0
ARC
  5
11C9
100
AcDbEntity
  8
MSL3_160_3F-4
100
AcDbCircle
 10
587.015759
 20
-20.0
 30
0.0
 40
3.0
100
AcDbArc
 50
339.4283
 51
288.734659
  0
LINE
  5
11CA
100
AcDbEntity
  8
MSL3_160_3F-7
100
AcDbLine
 10
587.015759
 20
-20.0
 30
0.0
 11
587.015759
 21
-14.0
 31
0.0
  0
LINE
  5
11CB
100
AcDbEntity
  8
MSL3_160_3F-3
100
AcDbLine
 10
582.015759
 20
-26.0
 30
0.0
 11
582.015759
 21
-14.0
 31
0.0
  0
LINE
  5
11CC
100
AcDbEntity
  8
MSL3_160_3F-3
100
AcDbLine
 10
581.474259
 20
-26.0
 30
0.0
 11
581.474259
 21
-10.0
 31
0.0
  0
LINE
  5
11CD
100
AcDbEntity
  8
MSL3_160_3F-7
100
AcDbLine
 10
579.015759
 20
-5.580584
 30
0.0
 11
579.015759
 21
-29.0
 31
0.0
  0
LINE
  5
11CE
100
AcDbEntity
  8
MSL3_160_3F-3
100
AcDbLine
 10
576.015759
 20
-26.0
 30
0.0
 11
576.015759
 21
-14.0
 31
0.0
  0
LINE
  5
11CF
100
AcDbEntity
  8
MSL3_160_3F-3
100
AcDbLine
 10
576.557259
 20
-26.0
 30
0.0
 11
576.557259
 21
-10.0
 31
0.0
  0
LINE
  5
11D0
100
AcDbEntity
  8
MSL3_160_3F-0
100
AcDbLine
 10
573.015759
 20
-26.0
 30
0.0
 11
593.015759
 21
-26.0
 31
0.0
  0
LINE
  5
11D1
100
AcDbEntity
  8
MSL3_160_3F-7
100
AcDbLine
 10
587.015759
 20
-20.0
 30
0.0
 11
593.015759
 21
-20.0
 31
0.0
  0
LINE
  5
11D2
100
AcDbEntity
  8
MSL3_160_3F-7
100
AcDbLine
 10
587.015759
 20
-20.0
 30
0.0
 11
587.015759
 21
-26.0
 31
0.0
  0
LINE
  5
11D3
100
AcDbEntity
  8
MSL3_160_3F-7
100
AcDbLine
 10
587.015759
 20
-20.0
 30
0.0
 11
581.015759
 21
-20.0
 31
0.0
  0
LINE
  5
11D4
100
AcDbEntity
  8
MSL3_160_3F-3
100
AcDbLine
 10
579.015759
 20
-8.580584
 30
0.0
 11
581.474259
 21
-10.0
 31
0.0
  0
LINE
  5
11D5
100
AcDbEntity
  8
MSL3_160_3F-3
100
AcDbLine
 10
576.557259
 20
-10.0
 30
0.0
 11
581.474259
 21
-10.0
 31
0.0
  0
LINE
  5
11D6
100
AcDbEntity
  8
MSL3_160_3F-3
100
AcDbLine
 10
576.015759
 20
-14.0
 30
0.0
 11
582.015759
 21
-14.0
 31
0.0
  0
LINE
  5
11D7
100
AcDbEntity
  8
MSL3_160_3F-3
100
AcDbLine
 10
579.015759
 20
-8.580584
 30
0.0
 11
576.557259
 21
-10.0
 31
0.0
  0
LINE
  5
11D8
100
AcDbEntity
  8
MSL3_160_3F-0
100
AcDbLine
 10
566.515759
 20
40.0
 30
0.0
 11
560.015759
 21
40.0
 31
0.0
  0
LINE
  5
11D9
100
AcDbEntity
  8
MSL3_160_3F-0
100
AcDbLine
 10
560.015759
 20
32.0
 30
0.0
 11
566.515759
 21
32.0
 31
0.0
  0
LINE
  5
11DA
100
AcDbEntity
  8
MSL3_160_3F-7
100
AcDbLine
 10
554.184884
 20
36.0
 30
0.0
 11
579.503603
 21
36.0
 31
0.0
  0
ARC
  5
11DB
100
AcDbEntity
  8
MSL3_160_3F-0
100
AcDbCircle
 10
558.577924
 20
30.370835
 30
0.0
 40
2.562165
100
AcDbArc
 50
132.916662
 51
227.083338
  0
LINE
  5
11DC
100
AcDbEntity
  8
MSL3_160_3F-0
100
AcDbLine
 10
560.015759
 20
28.494446
 30
0.0
 11
560.015759
 21
43.505553
 31
0.0
  0
LINE
  5
11DD
100
AcDbEntity
  8
MSL3_160_3F-0
100
AcDbLine
 10
556.833259
 20
28.494446
 30
0.0
 11
560.015759
 21
28.494446
 31
0.0
  0
ARC
  5
11DE
100
AcDbEntity
  8
MSL3_160_3F-0
100
AcDbCircle
 10
558.577924
 20
41.629165
 30
0.0
 40
2.562165
100
AcDbArc
 50
132.916662
 51
227.083338
  0
LINE
  5
11DF
100
AcDbEntity
  8
MSL3_160_3F-0
100
AcDbLine
 10
556.015759
 20
30.370835
 30
0.0
 11
556.015759
 21
41.629165
 31
0.0
  0
ARC
  5
11E0
100
AcDbEntity
  8
MSL3_160_3F-0
100
AcDbCircle
 10
565.038168
 20
36.0
 30
0.0
 40
9.02241
100
AcDbArc
 50
155.421502
 51
204.578498
  0
LINE
  5
11E1
100
AcDbEntity
  8
MSL3_160_3F-0
100
AcDbLine
 10
556.833259
 20
39.752777
 30
0.0
 11
560.015759
 21
39.752777
 31
0.0
  0
LINE
  5
11E2
100
AcDbEntity
  8
MSL3_160_3F-0
100
AcDbLine
 10
556.833259
 20
32.247223
 30
0.0
 11
560.015759
 21
32.247223
 31
0.0
  0
LINE
  5
11E3
100
AcDbEntity
  8
MSL3_160_3F-0
100
AcDbLine
 10
560.015759
 20
43.505553
 30
0.0
 11
556.833259
 21
43.505553
 31
0.0
  0
ARC
  5
11E4
100
AcDbEntity
  8
MSL3_160_3F-0
100
AcDbCircle
 10
570.722703
 20
30.370835
 30
0.0
 40
2.293056
100
AcDbArc
 50
305.085848
 51
54.914152
  0
ARC
  5
11E5
100
AcDbEntity
  8
MSL3_160_3F-0
100
AcDbCircle
 10
568.808814
 20
30.370835
 30
0.0
 40
2.293056
100
AcDbArc
 50
125.085847
 51
234.914153
  0
LINE
  5
11E6
100
AcDbEntity
  8
MSL3_160_3F-0
100
AcDbLine
 10
567.490759
 20
28.494446
 30
0.0
 11
572.040759
 21
28.494446
 31
0.0
  0
LINE
  5
11E7
100
AcDbEntity
  8
MSL3_160_3F-7
100
AcDbLine
 10
587.015759
 20
20.0
 30
0.0
 11
587.015759
 21
14.0
 31
0.0
  0
LINE
  5
11E8
100
AcDbEntity
  8
MSL3_160_3F-7
100
AcDbLine
 10
587.015759
 20
20.0
 30
0.0
 11
593.015759
 21
20.0
 31
0.0
  0
CIRCLE
  5
11E9
100
AcDbEntity
  8
MSL3_160_3F-0
100
AcDbCircle
 10
587.015759
 20
20.0
 30
0.0
 40
2.5
  0
ARC
  5
11EA
100
AcDbEntity
  8
MSL3_160_3F-4
100
AcDbCircle
 10
587.015759
 20
20.0
 30
0.0
 40
3.0
100
AcDbArc
 50
339.4283
 51
288.734659
  0
LINE
  5
11EB
100
AcDbEntity
  8
MSL3_160_3F-7
100
AcDbLine
 10
587.015759
 20
20.0
 30
0.0
 11
587.015759
 21
26.0
 31
0.0
  0
LINE
  5
11EC
100
AcDbEntity
  8
MSL3_160_3F-7
100
AcDbLine
 10
587.015759
 20
20.0
 30
0.0
 11
581.015759
 21
20.0
 31
0.0
  0
LINE
  5
11ED
100
AcDbEntity
  8
MSL3_160_3F-0
100
AcDbLine
 10
573.015759
 20
44.2
 30
0.0
 11
593.015759
 21
44.2
 31
0.0
  0
ARC
  5
11EE
100
AcDbEntity
  8
MSL3_160_3F-0
100
AcDbCircle
 10
570.722703
 20
41.629165
 30
0.0
 40
2.293056
100
AcDbArc
 50
305.085848
 51
54.914152
  0
ARC
  5
11EF
100
AcDbEntity
  8
MSL3_160_3F-0
100
AcDbCircle
 10
568.808814
 20
41.629165
 30
0.0
 40
2.293056
100
AcDbArc
 50
125.085847
 51
234.914153
  0
LINE
  5
11F0
100
AcDbEntity
  8
MSL3_160_3F-0
100
AcDbLine
 10
573.015759
 20
41.629165
 30
0.0
 11
573.015759
 21
30.370835
 31
0.0
  0
LINE
  5
11F1
100
AcDbEntity
  8
MSL3_160_3F-0
100
AcDbLine
 10
566.515759
 20
41.629165
 30
0.0
 11
566.515759
 21
30.370835
 31
0.0
  0
LINE
  5
11F2
100
AcDbEntity
  8
MSL3_160_3F-0
100
AcDbLine
 10
567.490759
 20
39.752777
 30
0.0
 11
572.040759
 21
39.752777
 31
0.0
  0
LINE
  5
11F3
100
AcDbEntity
  8
MSL3_160_3F-0
100
AcDbLine
 10
567.490759
 20
32.247223
 30
0.0
 11
572.040759
 21
32.247223
 31
0.0
  0
ARC
  5
11F4
100
AcDbEntity
  8
MSL3_160_3F-0
100
AcDbCircle
 10
574.225481
 20
36.0
 30
0.0
 40
7.709722
100
AcDbArc
 50
150.872216
 51
209.127784
  0
LINE
  5
11F5
100
AcDbEntity
  8
MSL3_160_3F-0
100
AcDbLine
 10
573.015759
 20
32.0
 30
0.0
 11
573.015759
 21
40.0
 31
0.0
  0
ARC
  5
11F6
100
AcDbEntity
  8
MSL3_160_3F-0
100
AcDbCircle
 10
565.306036
 20
36.0
 30
0.0
 40
7.709722
100
AcDbArc
 50
330.872218
 51
29.127782
  0
LINE
  5
11F7
100
AcDbEntity
  8
MSL3_160_3F-0
100
AcDbLine
 10
567.490759
 20
43.505553
 30
0.0
 11
572.040759
 21
43.505553
 31
0.0
  0
LINE
  5
11F8
100
AcDbEntity
  8
MSL3_160_3F-0
100
AcDbLine
 10
593.015759
 20
80.0
 30
0.0
 11
573.015759
 21
80.0
 31
0.0
  0
LINE
  5
11F9
100
AcDbEntity
  8
MSL3_160_3F-0
100
AcDbLine
 10
393.015759
 20
216.723367
 30
0.0
 11
573.015759
 21
216.723367
 31
0.0
  0
LINE
  5
11FA
100
AcDbEntity
  8
MSL3_160_3F-0
100
AcDbLine
 10
573.015759
 20
232.723367
 30
0.0
 11
393.015759
 21
232.723367
 31
0.0
  0
LINE
  5
11FB
100
AcDbEntity
  8
MSL3_160_3F-0
100
AcDbLine
 10
412.015759
 20
197.723367
 30
0.0
 11
573.015759
 21
197.723367
 31
0.0
1001
GENIUS_GENOREF_13
1005
123F
  0
LINE
  5
11FC
100
AcDbEntity
  8
MSL3_160_3F-0
100
AcDbLine
 10
393.015759
 20
146.723367
 30
0.0
 11
573.015759
 21
146.723367
 31
0.0
  0
LINE
  5
11FD
100
AcDbEntity
  8
MSL3_160_3F-0
100
AcDbLine
 10
393.015759
 20
162.723367
 30
0.0
 11
573.015759
 21
162.723367
 31
0.0
  0
LINE
  5
11FE
100
AcDbEntity
  8
MSL3_160_3F-0
100
AcDbLine
 10
393.015759
 20
162.723367
 30
0.0
 11
573.015759
 21
162.723367
 31
0.0
  0
LINE
  5
11FF
100
AcDbEntity
  8
MSL3_160_3F-0
100
AcDbLine
 10
573.015759
 20
185.723367
 30
0.0
 11
412.015759
 21
185.723367
 31
0.0
  0
LINE
  5
1200
100
AcDbEntity
  8
MSL3_160_3F-0
100
AcDbLine
 10
412.015759
 20
193.723367
 30
0.0
 11
573.015759
 21
193.723367
 31
0.0
  0
LINE
  5
1201
100
AcDbEntity
  8
MSL3_160_3F-0
100
AcDbLine
 10
412.015759
 20
181.723367
 30
0.0
 11
573.015759
 21
181.723367
 31
0.0
1001
GENIUS_GENOREF_13
1005
123F
  0
LINE
  5
1202
100
AcDbEntity
  8
MSL3_160_3F-7
100
AcDbLine
 10
388.376556
 20
154.723367
 30
0.0
 11
596.015759
 21
154.723367
 31
0.0
  0
LINE
  5
1203
100
AcDbEntity
  8
MSL3_160_3F-7
100
AcDbLine
 10
388.376556
 20
189.723367
 30
0.0
 11
596.015759
 21
189.723367
 31
0.0
  0
LINE
  5
1204
100
AcDbEntity
  8
MSL3_160_3F-7
100
AcDbLine
 10
388.376556
 20
224.723367
 30
0.0
 11
596.015759
 21
224.723367
 31
0.0
  0
LINE
  5
1205
100
AcDbEntity
  8
MSL3_160_3F-0
100
AcDbLine
 10
411.015759
 20
178.223367
 30
0.0
 11
411.015759
 21
201.223367
 31
0.0
  0
LINE
  5
1206
100
AcDbEntity
  8
MSL3_160_3F-0
100
AcDbLine
 10
412.015759
 20
200.223367
 30
0.0
 11
412.015759
 21
179.223367
 31
0.0
  0
LINE
  5
1207
100
AcDbEntity
  8
MSL3_160_3F-0
100
AcDbLine
 10
393.015759
 20
239.723367
 30
0.0
 11
393.015759
 21
139.723367
 31
0.0
  0
LINE
  5
1208
100
AcDbEntity
  8
MSL3_160_3F-7
100
AcDbLine
 10
343.015759
 20
160.142783
 30
0.0
 11
343.015759
 21
136.723367
 31
0.0
  0
LINE
  5
1209
100
AcDbEntity
  8
MSL3_160_3F-7
100
AcDbLine
 10
343.015759
 20
169.723367
 30
0.0
 11
343.015759
 21
175.723367
 31
0.0
  0
LINE
  5
120A
100
AcDbEntity
  8
MSL3_160_3F-7
100
AcDbLine
 10
343.015759
 20
169.723367
 30
0.0
 11
343.015759
 21
163.723367
 31
0.0
  0
LINE
  5
120B
100
AcDbEntity
  8
MSL3_160_3F-7
100
AcDbLine
 10
343.015759
 20
169.723367
 30
0.0
 11
349.015759
 21
169.723367
 31
0.0
  0
LINE
  5
120C
100
AcDbEntity
  8
MSL3_160_3F-0
100
AcDbLine
 10
411.015759
 20
178.223367
 30
0.0
 11
393.015759
 21
178.223367
 31
0.0
  0
LINE
  5
120D
100
AcDbEntity
  8
MSL3_160_3F-3
100
AcDbLine
 10
393.015759
 20
181.723367
 30
0.0
 11
412.015759
 21
181.723367
 31
0.0
1001
GENIUS_GENBH_13
1002
{
1000
OE
1000
CON1
1002
}
1001
GENIUS_GENOREF_13
1005
123F
  0
LINE
  5
120E
100
AcDbEntity
  8
MSL3_160_3F-0
100
AcDbLine
 10
412.015759
 20
179.223367
 30
0.0
 11
411.015759
 21
178.223367
 31
0.0
  0
LINE
  5
120F
100
AcDbEntity
  8
MSL3_160_3F-7
100
AcDbLine
 10
343.015759
 20
219.303951
 30
0.0
 11
343.015759
 21
242.723367
 31
0.0
  0
LINE
  5
1210
100
AcDbEntity
  8
MSL3_160_3F-7
100
AcDbLine
 10
343.015759
 20
209.723367
 30
0.0
 11
343.015759
 21
203.723367
 31
0.0
  0
LINE
  5
1211
100
AcDbEntity
  8
MSL3_160_3F-7
100
AcDbLine
 10
343.015759
 20
209.723367
 30
0.0
 11
349.015759
 21
209.723367
 31
0.0
  0
LINE
  5
1212
100
AcDbEntity
  8
MSL3_160_3F-7
100
AcDbLine
 10
343.015759
 20
209.723367
 30
0.0
 11
343.015759
 21
215.723367
 31
0.0
  0
LINE
  5
1213
100
AcDbEntity
  8
MSL3_160_3F-0
100
AcDbLine
 10
393.015759
 20
201.223367
 30
0.0
 11
411.015759
 21
201.223367
 31
0.0
  0
LINE
  5
1214
100
AcDbEntity
  8
MSL3_160_3F-3
100
AcDbLine
 10
393.015759
 20
197.723367
 30
0.0
 11
412.015759
 21
197.723367
 31
0.0
1001
GENIUS_GENBH_13
1002
{
1000
OE
1000
CON1
1002
}
1001
GENIUS_GENOREF_13
1005
123F
  0
LINE
  5
1215
100
AcDbEntity
  8
MSL3_160_3F-0
100
AcDbLine
 10
411.015759
 20
201.223367
 30
0.0
 11
412.015759
 21
200.223367
 31
0.0
  0
LINE
  5
1216
100
AcDbEntity
  8
MSL3_160_3F-0
100
AcDbLine
 10
593.015759
 20
139.723367
 30
0.0
 11
593.015759
 21
239.723367
 31
0.0
  0
LINE
  5
1217
100
AcDbEntity
  8
MSL3_160_3F-0
100
AcDbLine
 10
573.015759
 20
239.723367
 30
0.0
 11
573.015759
 21
139.723367
 31
0.0
  0
LINE
  5
1218
100
AcDbEntity
  8
MSL3_160_3F-7
100
AcDbLine
 10
587.015759
 20
160.142783
 30
0.0
 11
587.015759
 21
136.723367
 31
0.0
  0
LINE
  5
1219
100
AcDbEntity
  8
MSL3_160_3F-3
100
AcDbLine
 10
590.015759
 20
139.723367
 30
0.0
 11
590.015759
 21
151.723367
 31
0.0
  0
LINE
  5
121A
100
AcDbEntity
  8
MSL3_160_3F-3
100
AcDbLine
 10
589.474259
 20
139.723367
 30
0.0
 11
589.474259
 21
155.723367
 31
0.0
  0
LINE
  5
121B
100
AcDbEntity
  8
MSL3_160_3F-3
100
AcDbLine
 10
584.015759
 20
139.723367
 30
0.0
 11
584.015759
 21
151.723367
 31
0.0
  0
LINE
  5
121C
100
AcDbEntity
  8
MSL3_160_3F-3
100
AcDbLine
 10
584.557259
 20
139.723367
 30
0.0
 11
584.557259
 21
155.723367
 31
0.0
  0
LINE
  5
121D
100
AcDbEntity
  8
MSL3_160_3F-0
100
AcDbLine
 10
573.015759
 20
139.723367
 30
0.0
 11
593.015759
 21
139.723367
 31
0.0
  0
LINE
  5
121E
100
AcDbEntity
  8
MSL3_160_3F-3
100
AcDbLine
 10
578.015759
 20
173.023367
 30
0.0
 11
578.015759
 21
166.423367
 31
0.0
  0
ARC
  5
121F
100
AcDbEntity
  8
MSL3_160_3F-4
100
AcDbCircle
 10
579.015759
 20
154.723367
 30
0.0
 40
3.0
100
AcDbArc
 50
339.4283
 51
288.734659
  0
CIRCLE
  5
1220
100
AcDbEntity
  8
MSL3_160_3F-0
100
AcDbCircle
 10
579.015759
 20
154.723367
 30
0.0
 40
2.5
  0
LINE
  5
1221
100
AcDbEntity
  8
MSL3_160_3F-7
100
AcDbLine
 10
596.015759
 20
169.723367
 30
0.0
 11
570.015759
 21
169.723367
 31
0.0
  0
LINE
  5
1222
100
AcDbEntity
  8
MSL3_160_3F-3
100
AcDbLine
 10
578.015759
 20
166.423367
 30
0.0
 11
593.015759
 21
166.423367
 31
0.0
  0
LINE
  5
1223
100
AcDbEntity
  8
MSL3_160_3F-7
100
AcDbLine
 10
593.854593
 20
169.723367
 30
0.0
 11
572.118055
 21
169.723367
 31
0.0
  0
LINE
  5
1224
100
AcDbEntity
  8
MSL3_160_3F-7
100
AcDbLine
 10
579.015759
 20
159.642186
 30
0.0
 11
579.015759
 21
149.612072
 31
0.0
  0
LINE
  5
1225
100
AcDbEntity
  8
MSL3_160_3F-3
100
AcDbLine
 10
578.015759
 20
164.223367
 30
0.0
 11
578.015759
 21
166.423367
 31
0.0
  0
LINE
  5
1226
100
AcDbEntity
  8
MSL3_160_3F-3
100
AcDbLine
 10
573.015759
 20
164.223367
 30
0.0
 11
578.015759
 21
164.223367
 31
0.0
  0
LINE
  5
1227
100
AcDbEntity
  8
MSL3_160_3F-3
100
AcDbLine
 10
587.015759
 20
157.142783
 30
0.0
 11
589.474259
 21
155.723367
 31
0.0
  0
LINE
  5
1228
100
AcDbEntity
  8
MSL3_160_3F-3
100
AcDbLine
 10
584.557259
 20
155.723367
 30
0.0
 11
589.474259
 21
155.723367
 31
0.0
  0
LINE
  5
1229
100
AcDbEntity
  8
MSL3_160_3F-3
100
AcDbLine
 10
584.015759
 20
151.723367
 30
0.0
 11
590.015759
 21
151.723367
 31
0.0
  0
LINE
  5
122A
100
AcDbEntity
  8
MSL3_160_3F-3
100
AcDbLine
 10
587.015759
 20
157.142783
 30
0.0
 11
584.557259
 21
155.723367
 31
0.0
  0
LINE
  5
122B
100
AcDbEntity
  8
MSL3_160_3F-3
100
AcDbLine
 10
593.015759
 20
173.023367
 30
0.0
 11
578.015759
 21
173.023367
 31
0.0
  0
LINE
  5
122C
100
AcDbEntity
  8
MSL3_160_3F-3
100
AcDbLine
 10
578.015759
 20
175.223367
 30
0.0
 11
573.015759
 21
175.223367
 31
0.0
  0
LINE
  5
122D
100
AcDbEntity
  8
MSL3_160_3F-3
100
AcDbLine
 10
578.015759
 20
173.023367
 30
0.0
 11
578.015759
 21
175.223367
 31
0.0
  0
LINE
  5
122E
100
AcDbEntity
  8
MSL3_160_3F-0
100
AcDbLine
 10
573.015759
 20
193.723367
 30
0.0
 11
573.015759
 21
185.723367
 31
0.0
  0
LINE
  5
122F
100
AcDbEntity
  8
MSL3_160_3F-7
100
AcDbLine
 10
587.015759
 20
219.303951
 30
0.0
 11
587.015759
 21
242.723367
 31
0.0
  0
LINE
  5
1230
100
AcDbEntity
  8
MSL3_160_3F-7
100
AcDbLine
 10
596.015759
 20
209.723367
 30
0.0
 11
570.015759
 21
209.723367
 31
0.0
  0
LINE
  5
1231
100
AcDbEntity
  8
MSL3_160_3F-3
100
AcDbLine
 10
593.015759
 20
206.723367
 30
0.0
 11
573.015759
 21
206.723367
 31
0.0
  0
LINE
  5
1232
100
AcDbEntity
  8
MSL3_160_3F-3
100
AcDbLine
 10
593.015759
 20
212.723367
 30
0.0
 11
573.015759
 21
212.723367
 31
0.0
  0
LINE
  5
1233
100
AcDbEntity
  8
MSL3_160_3F-0
100
AcDbLine
 10
593.015759
 20
239.723367
 30
0.0
 11
573.015759
 21
239.723367
 31
0.0
  0
ARC
  5
1234
100
AcDbEntity
  8
MSL3_160_3F-4
100
AcDbCircle
 10
579.015759
 20
224.723367
 30
0.0
 40
3.0
100
AcDbArc
 50
339.4283
 51
288.734659
  0
CIRCLE
  5
1235
100
AcDbEntity
  8
MSL3_160_3F-0
100
AcDbCircle
 10
579.015759
 20
224.723367
 30
0.0
 40
2.5
  0
LINE
  5
1236
100
AcDbEntity
  8
MSL3_160_3F-7
100
AcDbLine
 10
579.015759
 20
229.642186
 30
0.0
 11
579.015759
 21
219.612072
 31
0.0
  0
LINE
  5
1237
100
AcDbEntity
  8
MSL3_160_3F-3
100
AcDbLine
 10
590.015759
 20
239.723367
 30
0.0
 11
590.015759
 21
227.723367
 31
0.0
  0
LINE
  5
1238
100
AcDbEntity
  8
MSL3_160_3F-3
100
AcDbLine
 10
589.474259
 20
239.723367
 30
0.0
 11
589.474259
 21
223.723367
 31
0.0
  0
LINE
  5
1239
100
AcDbEntity
  8
MSL3_160_3F-3
100
AcDbLine
 10
584.015759
 20
239.723367
 30
0.0
 11
584.015759
 21
227.723367
 31
0.0
  0
LINE
  5
123A
100
AcDbEntity
  8
MSL3_160_3F-3
100
AcDbLine
 10
584.557259
 20
239.723367
 30
0.0
 11
584.557259
 21
223.723367
 31
0.0
  0
LINE
  5
123B
100
AcDbEntity
  8
MSL3_160_3F-3
100
AcDbLine
 10
589.474259
 20
223.723367
 30
0.0
 11
584.557259
 21
223.723367
 31
0.0
  0
LINE
  5
123C
100
AcDbEntity
  8
MSL3_160_3F-3
100
AcDbLine
 10
590.015759
 20
227.723367
 30
0.0
 11
584.015759
 21
227.723367
 31
0.0
  0
LINE
  5
123D
100
AcDbEntity
  8
MSL3_160_3F-3
100
AcDbLine
 10
587.015759
 20
222.303951
 30
0.0
 11
589.474259
 21
223.723367
 31
0.0
  0
LINE
  5
123E
100
AcDbEntity
  8
MSL3_160_3F-3
100
AcDbLine
 10
587.015759
 20
222.303951
 30
0.0
 11
584.557259
 21
223.723367
 31
0.0
  0
POINT
  5
123F
100
AcDbEntity
  8
0
 60
     1
100
AcDbPoint
 10
0.0
 20
-0.001062
 30
0.0
1001
GENIUS_GENBH_13
1002
{
1000
FGO
1005
0
1002
}
1001
GENIUS_GENODEF_13
1002
{
1000
HIER
1070
     1
1002
}
1002
{
1000
MANEDIT
1070
     0
1002
}
1002
{
1000
NOSEL
1070
     1
1002
}
1002
{
1000
BEHIND
1070
     0
1002
}
1002
{
1000
REACTOR
1002
}
1001
GENIUS_GENOBJ-NBEHI-BHB_13
1002
{
1000
OWNER
1000
GENBEHI
1002
}
1001
GENIUS_GENOENT_13
1002
{
1000
MYREF
1005
123F
1002
}
1002
{
1000
GRP
1005
0
1002
}
1001
GENIUS_GENOLIS_13
1002
{
1000
ENT
1005
1201
1005
11FB
1005
120D
1005
1214
1002
}
  0
POINT
  5
1240
100
AcDbEntity
  8
0
 60
     1
100
AcDbPoint
 10
0.0
 20
-0.001062
 30
0.0
1001
GENIUS_GENBH_13
1002
{
1000
FGO
1005
0
1002
}
1001
GENIUS_GENODEF_13
1002
{
1000
HIER
1070
     1
1002
}
1002
{
1000
MANEDIT
1070
     0
1002
}
1002
{
1000
NOSEL
1070
     1
1002
}
1002
{
1000
BEHIND
1070
     0
1002
}
1002
{
1000
REACTOR
1002
}
1001
GENIUS_GENOBJ-NBEHI-BHB_13
1002
{
1000
OWNER
1000
GENBEHI
1002
}
1001
GENIUS_GENOENT_13
1002
{
1000
MYREF
1005
1240
1002
}
1002
{
1000
GRP
1005
0
1002
}
1001
GENIUS_GENOLIS_13
1002
{
1000
ENT
1005
110C
1005
1122
1005
1125
1005
1121
1005
10EA
1005
10EB
1005
1124
1005
110B
1005
10F1
1002
}
  0
POINT
  5
1241
100
AcDbEntity
  8
0
 60
     1
100
AcDbPoint
 10
0.0
 20
-0.001062
 30
0.0
1001
GENIUS_GENBH_13
1002
{
1000
FGO
1005
0
1002
}
1001
GENIUS_GENODEF_13
1002
{
1000
HIER
1070
     1
1002
}
1002
{
1000
MANEDIT
1070
     0
1002
}
1002
{
1000
NOSEL
1070
     1
1002
}
1002
{
1000
BEHIND
1070
     0
1002
}
1002
{
1000
REACTOR
1002
}
1001
GENIUS_GENOBJ-NBEHI-BHB_13
1002
{
1000
OWNER
1000
GENBEHI
1002
}
1001
GENIUS_GENOENT_13
1002
{
1000
MYREF
1005
1241
1002
}
1002
{
1000
GRP
1005
0
1002
}
1001
GENIUS_GENOLIS_13
1002
{
1000
ENT
1005
1042
1005
1073
1005
1051
1005
107A
1002
}
  0
POINT
  5
1242
100
AcDbEntity
  8
0
 60
     1
100
AcDbPoint
 10
0.0
 20
-0.001062
 30
0.0
1001
GENIUS_GENBH_13
1002
{
1000
FGO
1005
0
1002
}
1001
GENIUS_GENODEF_13
1002
{
1000
HIER
1070
     1
1002
}
1002
{
1000
MANEDIT
1070
     0
1002
}
1002
{
1000
NOSEL
1070
     1
1002
}
1002
{
1000
BEHIND
1070
     0
1002
}
1002
{
1000
REACTOR
1002
}
1001
GENIUS_GENOBJ-NBEHI-BHB_13
1002
{
1000
OWNER
1000
GENBEHI
1002
}
1001
GENIUS_GENOENT_13
1002
{
1000
MYREF
1005
1242
1002
}
1002
{
1000
GRP
1005
0
1002
}
1001
GENIUS_GENOLIS_13
1002
{
1000
ENT
1005
EA7
1005
EC0
1005
EC4
1005
EBF
1005
EC5
1005
EC3
1005
EB0
1005
EC2
1005
EA6
1002
}
  0
ENDSEC
  0
SECTION
  2
OBJECTS
  0
DICTIONARY
  5
C
100
AcDbDictionary
  3
ACAD_GROUP
350
D
  3
ACAD_MLINESTYLE
350
E
  0
DICTIONARY
  5
D
102
{ACAD_REACTORS
330
C
102
}
100
AcDbDictionary
  0
DICTIONARY
  5
E
102
{ACAD_REACTORS
330
C
102
}
100
AcDbDictionary
  3
STANDARD
350
13
  0
MLINESTYLE
  5
13
102
{ACAD_REACTORS
330
E
102
}
100
AcDbMlineStyle
  2
STANDARD
 70
     0
  3

 62
     0
 51
90.0
 52
90.0
 71
     2
 49
0.5
 62
   256
  6
BYLAYER
 49
-0.5
 62
   256
  6
BYLAYER
  0
ENDSEC
  0
EOF
