  0
SECTION
  2
HEADER
  9
$ACADVER
  1
AC1012
  9
$DWGCODEPAGE
  3
ansi_1252
  9
$INSBASE
 10
0.0
 20
0.0
 30
0.0
  9
$EXTMIN
 10
-45.424827
 20
-180.21389
 30
0.0
  9
$EXTMAX
 10
521.834746
 20
195.992834
 30
0.0
  9
$LIMMIN
 10
0.0
 20
0.0
  9
$LIMMAX
 10
410.0
 20
287.0
  9
$ORTHOMODE
 70
     0
  9
$REGENMODE
 70
     1
  9
$FILLMODE
 70
     1
  9
$QTEXTMODE
 70
     0
  9
$MIRRTEXT
 70
     1
  9
$DRAGMODE
 70
     2
  9
$LTSCALE
 40
1.0
  9
$OSMODE
 70
    33
  9
$ATTMODE
 70
     1
  9
$TEXTSIZE
 40
3.5
  9
$TRACEWID
 40
0.05
  9
$TEXTSTYLE
  7
STANDARD
  9
$CLAYER
  8
0
  9
$CELTYPE
  6
BYLAYER
  9
$CECOLOR
 62
   256
  9
$CELTSCALE
 40
1.0
  9
$DELOBJ
 70
     1
  9
$DISPSILH
 70
     0
  9
$DIMSCALE
 40
1.0
  9
$DIMASZ
 40
0.18
  9
$DIMEXO
 40
0.0625
  9
$DIMDLI
 40
0.38
  9
$DIMRND
 40
0.0
  9
$DIMDLE
 40
0.0
  9
$DIMEXE
 40
0.18
  9
$DIMTP
 40
0.0
  9
$DIMTM
 40
0.0
  9
$DIMTXT
 40
0.18
  9
$DIMCEN
 40
0.09
  9
$DIMTSZ
 40
0.0
  9
$DIMTOL
 70
     0
  9
$DIMLIM
 70
     0
  9
$DIMTIH
 70
     1
  9
$DIMTOH
 70
     1
  9
$DIMSE1
 70
     0
  9
$DIMSE2
 70
     0
  9
$DIMTAD
 70
     0
  9
$DIMZIN
 70
     0
  9
$DIMBLK
  1

  9
$DIMASO
 70
     1
  9
$DIMSHO
 70
     1
  9
$DIMPOST
  1

  9
$DIMAPOST
  1

  9
$DIMALT
 70
     0
  9
$DIMALTD
 70
     2
  9
$DIMALTF
 40
25.4
  9
$DIMLFAC
 40
1.0
  9
$DIMTOFL
 70
     0
  9
$DIMTVP
 40
0.0
  9
$DIMTIX
 70
     0
  9
$DIMSOXD
 70
     0
  9
$DIMSAH
 70
     0
  9
$DIMBLK1
  1

  9
$DIMBLK2
  1

  9
$DIMSTYLE
  2
STANDARD
  9
$DIMCLRD
 70
     0
  9
$DIMCLRE
 70
     0
  9
$DIMCLRT
 70
     0
  9
$DIMTFAC
 40
1.0
  9
$DIMGAP
 40
0.09
  9
$DIMJUST
 70
     0
  9
$DIMSD1
 70
     0
  9
$DIMSD2
 70
     0
  9
$DIMTOLJ
 70
     1
  9
$DIMTZIN
 70
     0
  9
$DIMALTZ
 70
     0
  9
$DIMALTTZ
 70
     0
  9
$DIMFIT
 70
     3
  9
$DIMUPT
 70
     0
  9
$DIMUNIT
 70
     2
  9
$DIMDEC
 70
     4
  9
$DIMTDEC
 70
     4
  9
$DIMALTU
 70
     2
  9
$DIMALTTD
 70
     2
  9
$DIMTXSTY
  7
STANDARD
  9
$DIMAUNIT
 70
     0
  9
$LUNITS
 70
     2
  9
$LUPREC
 70
     4
  9
$SKETCHINC
 40
0.1
  9
$FILLETRAD
 40
12.5
  9
$AUNITS
 70
     0
  9
$AUPREC
 70
     0
  9
$MENU
  1
acad
  9
$ELEVATION
 40
0.0
  9
$PELEVATION
 40
0.0
  9
$THICKNESS
 40
0.0
  9
$LIMCHECK
 70
     0
  9
$BLIPMODE
 70
     0
  9
$CHAMFERA
 40
12.5
  9
$CHAMFERB
 40
12.5
  9
$CHAMFERC
 40
0.0
  9
$CHAMFERD
 40
0.0
  9
$SKPOLY
 70
     0
  9
$TDCREATE
 40
2450924.600092557
  9
$TDUPDATE
 40
2450924.609033426
  9
$TDINDWG
 40
0.0089408681
  9
$TDUSRTIMER
 40
0.0089408681
  9
$USRTIMER
 70
     1
  9
$ANGBASE
 50
0.0
  9
$ANGDIR
 70
     0
  9
$PDMODE
 70
     0
  9
$PDSIZE
 40
24.902195
  9
$PLINEWID
 40
0.0
  9
$COORDS
 70
     1
  9
$SPLFRAME
 70
     0
  9
$SPLINETYPE
 70
     6
  9
$SPLINESEGS
 70
     8
  9
$ATTDIA
 70
     1
  9
$ATTREQ
 70
     1
  9
$HANDLING
 70
     1
  9
$HANDSEED
  5
1213
  9
$SURFTAB1
 70
     6
  9
$SURFTAB2
 70
     6
  9
$SURFTYPE
 70
     6
  9
$SURFU
 70
     6
  9
$SURFV
 70
     6
  9
$UCSNAME
  2

  9
$UCSORG
 10
0.0
 20
0.0
 30
0.0
  9
$UCSXDIR
 10
1.0
 20
0.0
 30
0.0
  9
$UCSYDIR
 10
0.0
 20
1.0
 30
0.0
  9
$PUCSNAME
  2

  9
$PUCSORG
 10
0.0
 20
0.0
 30
0.0
  9
$PUCSXDIR
 10
1.0
 20
0.0
 30
0.0
  9
$PUCSYDIR
 10
0.0
 20
1.0
 30
0.0
  9
$USERI1
 70
     0
  9
$USERI2
 70
     0
  9
$USERI3
 70
     0
  9
$USERI4
 70
     0
  9
$USERI5
 70
     0
  9
$USERR1
 40
0.0
  9
$USERR2
 40
0.0
  9
$USERR3
 40
0.0
  9
$USERR4
 40
0.0
  9
$USERR5
 40
0.0
  9
$WORLDVIEW
 70
     1
  9
$SHADEDGE
 70
     3
  9
$SHADEDIF
 70
    70
  9
$TILEMODE
 70
     1
  9
$MAXACTVP
 70
    16
  9
$PINSBASE
 10
0.0
 20
0.0
 30
0.0
  9
$PLIMCHECK
 70
     0
  9
$PEXTMIN
 10
1.000000E+20
 20
1.000000E+20
 30
1.000000E+20
  9
$PEXTMAX
 10
-1.000000E+20
 20
-1.000000E+20
 30
-1.000000E+20
  9
$PLIMMIN
 10
0.0
 20
0.0
  9
$PLIMMAX
 10
12.0
 20
9.0
  9
$UNITMODE
 70
     0
  9
$VISRETAIN
 70
     0
  9
$PLINEGEN
 70
     0
  9
$PSLTSCALE
 70
     1
  9
$TREEDEPTH
 70
  3020
  9
$PICKSTYLE
 70
     1
  9
$CMLSTYLE
  2
STANDARD
  9
$CMLJUST
 70
     0
  9
$CMLSCALE
 40
1.0
  9
$SAVEIMAGES
 70
     0
  0
ENDSEC
  0
SECTION
  2
CLASSES
  0
ENDSEC
  0
SECTION
  2
TABLES
  0
TABLE
  2
VPORT
  5
8
100
AcDbSymbolTable
 70
     3
  0
VPORT
  5
1212
100
AcDbSymbolTableRecord
100
AcDbViewportTableRecord
  2
*ACTIVE
 70
     0
 10
0.0
 20
0.0
 11
1.0
 21
1.0
 12
262.462755
 22
7.889472
 13
0.0
 23
0.0
 14
5.0
 24
5.0
 15
50.0
 25
50.0
 16
0.0
 26
0.0
 36
1.0
 17
0.0
 27
0.0
 37
0.0
 40
470.258404
 41
1.6368
 42
50.0
 43
0.0
 44
0.0
 50
0.0
 51
0.0
 71
     0
 72
   100
 73
     1
 74
     0
 75
     0
 76
     0
 77
     0
 78
     0
  0
ENDTAB
  0
TABLE
  2
LTYPE
  5
5
100
AcDbSymbolTable
 70
     3
  0
LTYPE
  5
14
100
AcDbSymbolTableRecord
100
AcDbLinetypeTableRecord
  2
BYBLOCK
 70
     0
  3

 72
    65
 73
     0
 40
0.0
  0
LTYPE
  5
15
100
AcDbSymbolTableRecord
100
AcDbLinetypeTableRecord
  2
BYLAYER
 70
     0
  3

 72
    65
 73
     0
 40
0.0
  0
LTYPE
  5
16
100
AcDbSymbolTableRecord
100
AcDbLinetypeTableRecord
  2
CONTINUOUS
 70
     0
  3
Solid line
 72
    65
 73
     0
 40
0.0
  0
LTYPE
  5
6A
100
AcDbSymbolTableRecord
100
AcDbLinetypeTableRecord
  2
GEN3
 70
    64
  3
-- -- -- -- -- -- -- -- -- -- -- -- -- -- --
 72
    65
 73
     2
 40
6.25
 49
5.0
 74
     0
 49
-1.25
 74
     0
  0
LTYPE
  5
6B
100
AcDbSymbolTableRecord
100
AcDbLinetypeTableRecord
  2
GEN7A
 70
    64
  3
__ . __ . __
 72
    65
 73
     4
 40
7.5
 49
5.0
 74
     0
 49
-1.25
 74
     0
 49
0.0
 74
     0
 49
-1.25
 74
     0
  0
ENDTAB
  0
TABLE
  2
LAYER
  5
2
100
AcDbSymbolTable
 70
     7
  0
LAYER
  5
F
100
AcDbSymbolTableRecord
100
AcDbLayerTableRecord
  2
0
 70
     0
 62
     7
  6
CONTINUOUS
  0
LAYER
  5
6C
100
AcDbSymbolTableRecord
100
AcDbLayerTableRecord
  2
MSL2_120_3F-0
 70
    64
 62
     7
  6
CONTINUOUS
  0
LAYER
  5
6D
100
AcDbSymbolTableRecord
100
AcDbLayerTableRecord
  2
MSL2_120_3F-7
 70
    64
 62
     4
  6
GEN7A
  0
LAYER
  5
6E
100
AcDbSymbolTableRecord
100
AcDbLayerTableRecord
  2
MSL2_120_3F-4
 70
    64
 62
     3
  6
CONTINUOUS
  0
LAYER
  5
6F
100
AcDbSymbolTableRecord
100
AcDbLayerTableRecord
  2
MSL2_120_3F-3
 70
    64
 62
     6
  6
GEN3
  0
LAYER
  5
70
100
AcDbSymbolTableRecord
100
AcDbLayerTableRecord
  2
MSL2_120_3F-6
 70
    64
 62
     2
  6
CONTINUOUS
  0
LAYER
  5
71
100
AcDbSymbolTableRecord
100
AcDbLayerTableRecord
  2
INFO
 70
    64
 62
     4
  6
CONTINUOUS
  0
ENDTAB
  0
TABLE
  2
STYLE
  5
3
100
AcDbSymbolTable
 70
     1
  0
STYLE
  5
10
100
AcDbSymbolTableRecord
100
AcDbTextStyleTableRecord
  2
STANDARD
 70
    64
 40
0.0
 41
1.0
 50
0.0
 71
     0
 42
3.5
  3
geniso.shx
  4

  0
ENDTAB
  0
TABLE
  2
VIEW
  5
6
100
AcDbSymbolTable
 70
     0
  0
ENDTAB
  0
TABLE
  2
UCS
  5
7
100
AcDbSymbolTable
 70
     0
  0
ENDTAB
  0
TABLE
  2
APPID
  5
9
100
AcDbSymbolTable
 70
    30
  0
APPID
  5
11
100
AcDbSymbolTableRecord
100
AcDbRegAppTableRecord
  2
ACAD
 70
     0
  0
APPID
  5
29
100
AcDbSymbolTableRecord
100
AcDbRegAppTableRecord
  2
GENIUS_GENCFG_13
 70
     0
1001
GENIUS_GENCFG0_13
1000
GEN@INFO_POS@XLATE
1001
GENIUS_GENCFG1_13
1000
GEN@LAYER@DEFS
1001
GENIUS_GENCFG2_13
1000
GEN@LAYER@ENTSORT
1001
GENIUS_GENCFG3_13
1000
GEN@OSWIZ
1001
GENIUS_GENCFG4_13
1000
GEN
1001
GENIUS_GEVCFG0_13
1000
GEV
1001
GENIUS_GEFCFG0_13
1000
GEF
  0
APPID
  5
2A
100
AcDbSymbolTableRecord
100
AcDbRegAppTableRecord
  2
GENIUS_GENCFG0_13
 70
     0
1001
GENIUS_GENCFG_13
1071
862825278
1000
2A
1000
GEN@INFO_POS@XLATE
1070
     7
1000
GenCfgObject
1000
GenCfgShort
1000
GenCfgReal
1000
GenCfgBool
1000
GenCfgString
1000
GenCfgDim
1000
GenCfgAttrInf
1000
INFOPOINTS
1070
     0
1002
{
1000
GENINF13
1070
     0
1002
{
1000
2GENINF
1070
     4
1000
2
1002
{
1002
}
1000
3GENINF
1070
     4
1000
3
1002
{
1002
}
1000
4GENINF
1070
     4
1000
4
1002
{
1002
}
1000
5GENINF
1070
     4
1000
5
1002
{
1002
}
1000
6GENINF
1070
     4
1000
6
1002
{
1002
}
1000
7GENINF
1070
     4
1000
7
1002
{
1002
}
1000
8GENINF
1070
     4
1000
8
1002
{
1002
}
1000
9GENINF
1070
     4
1000
9
1002
{
1002
}
1000
10GENINF
1070
     4
1000
10
1002
{
1002
}
1000
11GENINF
1070
     4
1000
11
1002
{
1002
}
1000
12GENINF
1070
     4
1000
12
1002
{
1002
}
1000
13GENINF
1070
     4
1000
13
1002
{
1002
}
1000
14GENINF
1070
     4
1000
14
1002
{
1002
}
1000
15GENINF
1070
     4
1000
15
1002
{
1002
}
1000
16GENINF
1070
     4
1000
16
1002
{
1002
}
1000
17GENINF
1070
     4
1000
17
1002
{
1002
}
1000
18GENINF
1070
     4
1000
18
1002
{
1002
}
1000
19GENINF
1070
     4
1000
19
1002
{
1002
}
1000
20GENINF
1070
     4
1000
20
1002
{
1002
}
1000
21GENINF
1070
     4
1000
21
1002
{
1002
}
1000
22GENINF
1070
     4
1000
22
1002
{
1002
}
1000
23GENINF
1070
     4
1000
23
1002
{
1002
}
1000
24GENINF
1070
     4
1000
24
1002
{
1002
}
1000
0GENINF
1070
     4
1000
0
1002
{
1002
}
1002
}
1000
GENINFO
1070
     0
1002
{
1000
3GENINF
1070
     4
1000
3
1002
{
1002
}
1000
4GENINF
1070
     4
1000
4
1002
{
1002
}
1000
5GENINF
1070
     4
1000
5
1002
{
1002
}
1000
6GENINF
1070
     4
1000
6
1002
{
1002
}
1000
7GENINF
1070
     4
1000
7
1002
{
1002
}
1000
8GENINF
1070
     4
1000
8
1002
{
1002
}
1000
9GENINF
1070
     4
1000
9
1002
{
1002
}
1000
10GENINF
1070
     4
1000
10
1002
{
1002
}
1000
11GENINF
1070
     4
1000
11
1002
{
1002
}
1000
12GENINF
1070
     4
1000
12
1002
{
1002
}
1000
13GENINF
1070
     4
1000
13
1002
{
1002
}
1000
14GENINF
1070
     4
1000
14
1002
{
1002
}
1000
15GENINF
1070
     4
1000
15
1002
{
1002
}
1000
16GENINF
1070
     4
1000
16
1002
{
1002
}
1000
17GENINF
1070
     4
1000
17
1002
{
1002
}
1000
18GENINF
1070
     4
1000
18
1002
{
1002
}
1000
19GENINF
1070
     4
1000
19
1002
{
1002
}
1000
20GENINF
1070
     4
1000
20
1002
{
1002
}
1000
21GENINF
1070
     4
1000
21
1002
{
1002
}
1000
22GENINF
1070
     4
1000
22
1002
{
1002
}
1002
}
1000
DININFO
1070
     0
1002
{
1000
ST-NAME1
1070
     4
1000
5
1002
{
1002
}
1000
ST-NAME2
1070
     4
1000
6
1002
{
1002
}
1000
ST-NORM1
1070
     4
1000
7
1002
{
1002
}
1000
ST-NORM2
1070
     4
1000
8
1002
{
1002
}
1000
ST-MAT1
1070
     4
1000
9
1002
{
1002
}
1000
ST-MAT2
1070
     4
1000
10
1002
{
1002
}
1002
}
1002
}
1000
POS_NUMBERS
1070
     0
1002
{
1000
GENPOS13
1070
     0
1002
{
1000
1GENPOS
1070
     4
1000
1
1002
{
1002
}
1000
2GENPOS
1070
     4
1000
2
1002
{
1002
}
1000
3GENPOS
1070
     4
1000
3
1002
{
1002
}
1000
4GENPOS
1070
     4
1000
4
1002
{
1002
}
1000
5GENPOS
1070
     4
1000
5
1002
{
1002
}
1000
6GENPOS
1070
     4
1000
6
1002
{
1002
}
1000
7GENPOS
1070
     4
1000
7
1002
{
1002
}
1000
8GENPOS
1070
     4
1000
8
1002
{
1002
}
1000
9GENPOS
1070
     4
1000
9
1002
{
1002
}
1000
10GENPOS
1070
     4
1000
10
1002
{
1002
}
1000
11GENPOS
1070
     4
1000
11
1002
{
1002
}
1000
12GENPOS
1070
     4
1000
12
1002
{
1002
}
1000
13GENPOS
1070
     4
1000
13
1002
{
1002
}
1000
14GENPOS
1070
     4
1000
14
1002
{
1002
}
1000
15GENPOS
1070
     4
1000
15
1002
{
1002
}
1000
16GENPOS
1070
     4
1000
16
1002
{
1002
}
1000
17GENPOS
1070
     4
1000
17
1002
{
1002
}
1000
18GENPOS
1070
     4
1000
18
1002
{
1002
}
1000
19GENPOS
1070
     4
1000
19
1002
{
1002
}
1000
20GENPOS
1070
     4
1000
20
1002
{
1002
}
1000
21GENPOS
1070
     4
1000
21
1002
{
1002
}
1000
22GENPOS
1070
     4
1000
22
1002
{
1002
}
1000
23GENPOS
1070
     4
1000
23
1002
{
1002
}
1000
24GENPOS
1070
     4
1000
24
1002
{
1002
}
1000
0GENPOS
1070
     4
1000
0
1002
{
1002
}
1002
}
1000
GENPOS
1070
     0
1002
{
1000
1GENPOS
1070
     4
1000
1
1002
{
1002
}
1000
2GENPOS
1070
     4
1000
2
1002
{
1002
}
1000
3GENPOS
1070
     4
1000
3
1002
{
1002
}
1000
4GENPOS
1070
     4
1000
4
1002
{
1002
}
1000
5GENPOS
1070
     4
1000
5
1002
{
1002
}
1000
6GENPOS
1070
     4
1000
6
1002
{
1002
}
1000
7GENPOS
1070
     4
1000
7
1002
{
1002
}
1000
8GENPOS
1070
     4
1000
8
1002
{
1002
}
1000
9GENPOS
1070
     4
1000
9
1002
{
1002
}
1000
10GENPOS
1070
     4
1000
10
1002
{
1002
}
1000
11GENPOS
1070
     4
1000
11
1002
{
1002
}
1000
12GENPOS
1070
     4
1000
12
1002
{
1002
}
1000
13GENPOS
1070
     4
1000
13
1002
{
1002
}
1000
14GENPOS
1070
     4
1000
14
1002
{
1002
}
1000
15GENPOS
1070
     4
1000
15
1002
{
1002
}
1000
16GENPOS
1070
     4
1000
16
1002
{
1002
}
1000
17GENPOS
1070
     4
1000
17
1002
{
1002
}
1000
18GENPOS
1070
     4
1000
18
1002
{
1002
}
1000
19GENPOS
1070
     4
1000
19
1002
{
1002
}
1000
20GENPOS
1070
     4
1000
20
1002
{
1002
}
1000
21GENPOS
1070
     4
1000
21
1002
{
1002
}
1000
22GENPOS
1070
     4
1000
22
1002
{
1002
}
1000
23GENPOS
1070
     4
1000
23
1002
{
1002
}
1002
}
1000
DIN985
1070
     0
1002
{
1000
POSITION
1070
     4
1000
1
1002
{
1002
}
1000
MENGE
1070
     4
1000
2
1002
{
1002
}
1000
BLATT
1070
     4
1000
3
1002
{
1002
}
1000
BENENN
1070
     4
1000
5
1002
{
1002
}
1000
BENENN2
1070
     4
1000
6
1002
{
1002
}
1000
NORM
1070
     4
1000
7
1002
{
1002
}
1000
NORM2
1070
     4
1000
8
1002
{
1002
}
1000
WERKSTOFF
1070
     4
1000
9
1002
{
1002
}
1000
WERKSTOFF2
1070
     4
1000
10
1002
{
1002
}
1002
}
1000
DIN986
1070
     0
1002
{
1000
POSITION
1070
     4
1000
1
1002
{
1002
}
1000
MENGE
1070
     4
1000
2
1002
{
1002
}
1000
BLATT
1070
     4
1000
3
1002
{
1002
}
1000
BENENN
1070
     4
1000
5
1002
{
1002
}
1000
BENENN2
1070
     4
1000
6
1002
{
1002
}
1000
NORM
1070
     4
1000
7
1002
{
1002
}
1000
NORM2
1070
     4
1000
8
1002
{
1002
}
1000
WERKSTOFF
1070
     4
1000
9
1002
{
1002
}
1000
WERKSTOFF2
1070
     4
1000
10
1002
{
1002
}
1002
}
1000
DIN987
1070
     0
1002
{
1000
POSITION
1070
     4
1000
1
1002
{
1002
}
1000
MENGE
1070
     4
1000
2
1002
{
1002
}
1000
BLATT
1070
     4
1000
3
1002
{
1002
}
1000
BENENN
1070
     4
1000
5
1002
{
1002
}
1000
BENENN2
1070
     4
1000
6
1002
{
1002
}
1000
NORM
1070
     4
1000
7
1002
{
1002
}
1000
NORM2
1070
     4
1000
8
1002
{
1002
}
1000
WERKSTOFF
1070
     4
1000
9
1002
{
1002
}
1000
WERKSTOFF2
1070
     4
1000
10
1002
{
1002
}
1002
}
1002
}
  0
APPID
  5
2B
100
AcDbSymbolTableRecord
100
AcDbRegAppTableRecord
  2
GENIUS_GENCFG1_13
 70
     0
1001
GENIUS_GENCFG_13
1071
862825278
1000
2B
1000
GEN@LAYER@DEFS
1070
     9
1000
GenCfgObject
1000
GenCfgShort
1000
GenCfgReal
1000
GenCfgBool
1000
GenCfgString
1000
GenCfgDim
1000
GenCfgAttrInf
1000
GenCfgLaySection
1000
GenCfgLayer
1000
Basic
1070
     0
1002
{
1000
0
1070
     8
1000
0
1002
{
1000
Color
1070
     1
1070
     7
1002
{
1002
}
1000
LType
1070
     4
1000
CONTINUOUS
1002
{
1002
}
1000
Base
1070
     3
1070
     0
1002
{
1002
}
1002
}
1000
1
1070
     8
1000
1
1002
{
1000
Color
1070
     1
1070
    14
1002
{
1002
}
1000
LType
1070
     4
1000
CONTINUOUS
1002
{
1002
}
1000
Base
1070
     3
1070
     0
1002
{
1002
}
1002
}
1000
2
1070
     8
1000
2
1002
{
1000
Color
1070
     1
1070
     5
1002
{
1002
}
1000
LType
1070
     4
1000
CONTINUOUS
1002
{
1002
}
1000
Base
1070
     3
1070
     0
1002
{
1002
}
1002
}
1000
3
1070
     8
1000
3
1002
{
1000
Color
1070
     1
1070
     6
1002
{
1002
}
1000
LType
1070
     4
1000
GEN3
1002
{
1002
}
1000
Base
1070
     3
1070
     0
1002
{
1002
}
1002
}
1000
4
1070
     8
1000
4
1002
{
1000
Color
1070
     1
1070
     3
1002
{
1002
}
1000
LType
1070
     4
1000
CONTINUOUS
1002
{
1002
}
1000
Base
1070
     3
1070
     0
1002
{
1002
}
1002
}
1000
5
1070
     8
1000
5
1002
{
1000
Color
1070
     1
1070
     3
1002
{
1002
}
1000
LType
1070
     4
1000
CONTINUOUS
1002
{
1002
}
1000
Base
1070
     3
1070
     0
1002
{
1002
}
1002
}
1000
6
1070
     8
1000
6
1002
{
1000
Color
1070
     1
1070
     2
1002
{
1002
}
1000
LType
1070
     4
1000
CONTINUOUS
1002
{
1002
}
1000
Base
1070
     3
1070
     0
1002
{
1002
}
1002
}
1000
7
1070
     8
1000
7
1002
{
1000
Color
1070
     1
1070
     4
1002
{
1002
}
1000
LType
1070
     4
1000
GEN7
1002
{
1002
}
1000
Base
1070
     3
1070
     0
1002
{
1002
}
1002
}
1000
8
1070
     8
1000
8
1002
{
1000
Color
1070
     1
1070
     1
1002
{
1002
}
1000
LType
1070
     4
1000
CONTINUOUS
1002
{
1002
}
1000
Base
1070
     3
1070
     0
1002
{
1002
}
1002
}
1000
3A
1070
     8
1000
3A
1002
{
1000
Color
1070
     1
1070
     6
1002
{
1002
}
1000
LType
1070
     4
1000
GEN3A
1002
{
1002
}
1000
Base
1070
     3
1070
     0
1002
{
1002
}
1002
}
1000
7A
1070
     8
1000
7A
1002
{
1000
Color
1070
     1
1070
     4
1002
{
1002
}
1000
LType
1070
     4
1000
GEN7A
1002
{
1002
}
1000
Base
1070
     3
1070
     0
1002
{
1002
}
1002
}
1000
2A
1070
     8
1000
2A
1002
{
1000
Color
1070
     1
1070
     7
1002
{
1002
}
1000
LType
1070
     4
1000
GEN7
1002
{
1002
}
1000
Base
1070
     3
1070
     0
1002
{
1002
}
1002
}
1000
4A
1070
     8
1000
4A
1002
{
1000
Color
1070
     1
1070
     3
1002
{
1002
}
1000
LType
1070
     4
1000
GEN4A
1002
{
1002
}
1000
Base
1070
     3
1070
     0
1002
{
1002
}
1002
}
1000
9
1070
     8
1000
9
1002
{
1000
Color
1070
     1
1070
   253
1002
{
1002
}
1000
LType
1070
     4
1000
CONTINUOUS
1002
{
1002
}
1000
Base
1070
     3
1070
     0
1002
{
1002
}
1002
}
1002
}
1000
Standard
1070
     0
1002
{
1000
0N
1070
     8
1000
0N
1002
{
1000
Color
1070
     1
1070
     7
1002
{
1002
}
1000
LType
1070
     4
1000
CONTINUOUS
1002
{
1002
}
1000
Base
1070
     3
1070
     0
1002
{
1002
}
1002
}
1000
1N
1070
     8
1000
1N
1002
{
1000
Color
1070
     1
1070
    14
1002
{
1002
}
1000
LType
1070
     4
1000
CONTINUOUS
1002
{
1002
}
1000
Base
1070
     3
1070
     0
1002
{
1002
}
1002
}
1000
2N
1070
     8
1000
2N
1002
{
1000
Color
1070
     1
1070
     5
1002
{
1002
}
1000
LType
1070
     4
1000
CONTINUOUS
1002
{
1002
}
1000
Base
1070
     3
1070
     0
1002
{
1002
}
1002
}
1000
3N
1070
     8
1000
3N
1002
{
1000
Color
1070
     1
1070
     6
1002
{
1002
}
1000
LType
1070
     4
1000
GEN3
1002
{
1002
}
1000
Base
1070
     3
1070
     0
1002
{
1002
}
1002
}
1000
4N
1070
     8
1000
4N
1002
{
1000
Color
1070
     1
1070
     3
1002
{
1002
}
1000
LType
1070
     4
1000
CONTINUOUS
1002
{
1002
}
1000
Base
1070
     3
1070
     0
1002
{
1002
}
1002
}
1000
5N
1070
     8
1000
5N
1002
{
1000
Color
1070
     1
1070
     3
1002
{
1002
}
1000
LType
1070
     4
1000
CONTINUOUS
1002
{
1002
}
1000
Base
1070
     3
1070
     0
1002
{
1002
}
1002
}
1000
6N
1070
     8
1000
6N
1002
{
1000
Color
1070
     1
1070
     2
1002
{
1002
}
1000
LType
1070
     4
1000
CONTINUOUS
1002
{
1002
}
1000
Base
1070
     3
1070
     0
1002
{
1002
}
1002
}
1000
7N
1070
     8
1000
7N
1002
{
1000
Color
1070
     1
1070
     4
1002
{
1002
}
1000
LType
1070
     4
1000
GEN7
1002
{
1002
}
1000
Base
1070
     3
1070
     0
1002
{
1002
}
1002
}
1000
8N
1070
     8
1000
8N
1002
{
1000
Color
1070
     1
1070
     1
1002
{
1002
}
1000
LType
1070
     4
1000
CONTINUOUS
1002
{
1002
}
1000
Base
1070
     3
1070
     0
1002
{
1002
}
1002
}
1000
3AN
1070
     8
1000
3AN
1002
{
1000
Color
1070
     1
1070
     6
1002
{
1002
}
1000
LType
1070
     4
1000
GEN3A
1002
{
1002
}
1000
Base
1070
     3
1070
     0
1002
{
1002
}
1002
}
1000
7AN
1070
     8
1000
7AN
1002
{
1000
Color
1070
     1
1070
     4
1002
{
1002
}
1000
LType
1070
     4
1000
GEN7A
1002
{
1002
}
1000
Base
1070
     3
1070
     0
1002
{
1002
}
1002
}
1000
2AN
1070
     8
1000
2AN
1002
{
1000
Color
1070
     1
1070
     7
1002
{
1002
}
1000
LType
1070
     4
1000
GEN7
1002
{
1002
}
1000
Base
1070
     3
1070
     0
1002
{
1002
}
1002
}
1000
4AN
1070
     8
1000
4AN
1002
{
1000
Color
1070
     1
1070
     3
1002
{
1002
}
1000
LType
1070
     4
1000
GEN4A
1002
{
1002
}
1000
Base
1070
     3
1070
     0
1002
{
1002
}
1002
}
1000
9N
1070
     8
1000
9N
1002
{
1000
Color
1070
     1
1070
   253
1002
{
1002
}
1000
LType
1070
     4
1000
CONTINUOUS
1002
{
1002
}
1000
Base
1070
     3
1070
     0
1002
{
1002
}
1002
}
1002
}
1000
Extra
1070
     0
1002
{
1000
Klin
1070
     8
1000
KLIN
1002
{
1000
Color
1070
     1
1070
     1
1002
{
1002
}
1000
LType
1070
     4
1000
CONTINUOUS
1002
{
1002
}
1000
Base
1070
     3
1070
     1
1002
{
1002
}
1002
}
1000
Info
1070
     8
1000
INFO
1002
{
1000
Color
1070
     1
1070
     4
1002
{
1002
}
1000
LType
1070
     4
1000
CONTINUOUS
1002
{
1002
}
1000
Base
1070
     3
1070
     1
1002
{
1002
}
1002
}
1000
Rahm2
1070
     8
1000
RAHM2
1002
{
1000
Color
1070
     1
1070
     1
1002
{
1002
}
1000
LType
1070
     4
1000
CONTINUOUS
1002
{
1002
}
1000
Base
1070
     3
1070
     1
1002
{
1002
}
1002
}
1000
Rahm3
1070
     8
1000
RAHM3
1002
{
1000
Color
1070
     1
1070
     2
1002
{
1002
}
1000
LType
1070
     4
1000
CONTINUOUS
1002
{
1002
}
1000
Base
1070
     3
1070
     1
1002
{
1002
}
1002
}
1000
Rahm5
1070
     8
1000
RAHM5
1002
{
1000
Color
1070
     1
1070
     7
1002
{
1002
}
1000
LType
1070
     4
1000
CONTINUOUS
1002
{
1002
}
1000
Base
1070
     3
1070
     1
1002
{
1002
}
1002
}
1000
View
1070
     8
1000
VIEW
1002
{
1000
Color
1070
     1
1070
     1
1002
{
1002
}
1000
LType
1070
     4
1000
CONTINUOUS
1002
{
1002
}
1000
Base
1070
     3
1070
     1
1002
{
1002
}
1002
}
1000
Behind
1070
     8
1000
BEHIND
1002
{
1000
Color
1070
     1
1070
   253
1002
{
1002
}
1000
LType
1070
     4
1000
CONTINUOUS
1002
{
1002
}
1000
Base
1070
     3
1070
     1
1002
{
1002
}
1002
}
1002
}
  0
APPID
  5
2C
100
AcDbSymbolTableRecord
100
AcDbRegAppTableRecord
  2
GENIUS_GENCFG2_13
 70
     0
1001
GENIUS_GENCFG_13
1071
862825278
1000
2C
1000
GEN@LAYER@ENTSORT
1070
    10
1000
GenCfgObject
1000
GenCfgShort
1000
GenCfgReal
1000
GenCfgBool
1000
GenCfgString
1000
GenCfgDim
1000
GenCfgAttrInf
1000
GenCfgLaySection
1000
GenCfgLayer
1000
GenCfgEntSort
1000
ALTR
1070
     9
1000
4
1002
{
1000
Class
1070
     4
1000

1002
{
1002
}
1000
Color
1070
     1
1070
     7
1002
{
1002
}
1000
LType
1070
     4
1000
GEN3A
1002
{
1002
}
1002
}
1000
BELI
1070
     9
1000
4
1002
{
1000
Class
1070
     4
1000

1002
{
1002
}
1000
Color
1070
     1
1070
   256
1002
{
1002
}
1000
LType
1070
     4
1000
BYLAYER
1002
{
1002
}
1002
}
1000
BHNV
1070
     9
1000
9
1002
{
1000
Class
1070
     4
1000
INV
1002
{
1002
}
1000
Color
1070
     1
1070
   256
1002
{
1002
}
1000
LType
1070
     4
1000
BYLAYER
1002
{
1002
}
1002
}
1000
BHNVS
1070
     9
1000
BEHIND
1002
{
1000
Class
1070
     4
1000
INV
1002
{
1002
}
1000
Color
1070
     1
1070
   256
1002
{
1002
}
1000
LType
1070
     4
1000
BYLAYER
1002
{
1002
}
1002
}
1000
BLID
1070
     9
1000
4A
1002
{
1000
Class
1070
     4
1000

1002
{
1002
}
1000
Color
1070
     1
1070
   256
1002
{
1002
}
1000
LType
1070
     4
1000
BYLAYER
1002
{
1002
}
1002
}
1000
BOAP
1070
     9
1000
4A
1002
{
1000
Class
1070
     4
1000

1002
{
1002
}
1000
Color
1070
     1
1070
   256
1002
{
1002
}
1000
LType
1070
     4
1000
BYLAYER
1002
{
1002
}
1002
}
1000
BOR2
1070
     9
1000
RAHM2
1002
{
1000
Class
1070
     4
1000
SPZ,SYM
1002
{
1002
}
1000
Color
1070
     1
1070
   256
1002
{
1002
}
1000
LType
1070
     4
1000
BYLAYER
1002
{
1002
}
1002
}
1000
BOR3
1070
     9
1000
RAHM3
1002
{
1000
Class
1070
     4
1000
SPZ,SYM
1002
{
1002
}
1000
Color
1070
     1
1070
   256
1002
{
1002
}
1000
LType
1070
     4
1000
BYLAYER
1002
{
1002
}
1002
}
1000
BOR5
1070
     9
1000
RAHM5
1002
{
1000
Class
1070
     4
1000
SPZ,SYM
1002
{
1002
}
1000
Color
1070
     1
1070
   256
1002
{
1002
}
1000
LType
1070
     4
1000
BYLAYER
1002
{
1002
}
1002
}
1000
BOR7
1070
     9
1000
RAHM5
1002
{
1000
Class
1070
     4
1000
SPZ,SYM
1002
{
1002
}
1000
Color
1070
     1
1070
     7
1002
{
1002
}
1000
LType
1070
     4
1000
CONTINUOUS
1002
{
1002
}
1002
}
1000
BPAP
1070
     9
1000
4A
1002
{
1000
Class
1070
     4
1000

1002
{
1002
}
1000
Color
1070
     1
1070
   256
1002
{
1002
}
1000
LType
1070
     4
1000
BYLAYER
1002
{
1002
}
1002
}
1000
BPEX
1070
     9
1000
4A
1002
{
1000
Class
1070
     4
1000

1002
{
1002
}
1000
Color
1070
     1
1070
   256
1002
{
1002
}
1000
LType
1070
     4
1000
BYLAYER
1002
{
1002
}
1002
}
1000
BTDI
1070
     9
1000
5
1002
{
1000
Class
1070
     4
1000
DIM,SYM
1002
{
1002
}
1000
Color
1070
     1
1070
   256
1002
{
1002
}
1000
LType
1070
     4
1000
BYLAYER
1002
{
1002
}
1002
}
1000
CAL2
1070
     9
1000
4
1002
{
1000
Class
1070
     4
1000
SYM
1002
{
1002
}
1000
Color
1070
     1
1070
   256
1002
{
1002
}
1000
LType
1070
     4
1000
BYLAYER
1002
{
1002
}
1002
}
1000
CAL3
1070
     9
1000
4
1002
{
1000
Class
1070
     4
1000
SYM
1002
{
1002
}
1000
Color
1070
     1
1070
     2
1002
{
1002
}
1000
LType
1070
     4
1000
BYLAYER
1002
{
1002
}
1002
}
1000
CAL5
1070
     9
1000
4
1002
{
1000
Class
1070
     4
1000
SYM
1002
{
1002
}
1000
Color
1070
     1
1070
     7
1002
{
1002
}
1000
LType
1070
     4
1000
BYLAYER
1002
{
1002
}
1002
}
1000
CAL7
1070
     9
1000
4
1002
{
1000
Class
1070
     4
1000
SYM
1002
{
1002
}
1000
Color
1070
     1
1070
     5
1002
{
1002
}
1000
LType
1070
     4
1000
BYLAYER
1002
{
1002
}
1002
}
1000
CENN
1070
     9
1000
7A
1002
{
1000
Class
1070
     4
1000
CEN
1002
{
1002
}
1000
Color
1070
     1
1070
   256
1002
{
1002
}
1000
LType
1070
     4
1000
BYLAYER
1002
{
1002
}
1002
}
1000
CENW
1070
     9
1000
7
1002
{
1000
Class
1070
     4
1000
CEN
1002
{
1002
}
1000
Color
1070
     1
1070
   256
1002
{
1002
}
1000
LType
1070
     4
1000
BYLAYER
1002
{
1002
}
1002
}
1000
CLIN
1070
     9
1000
KLIN
1002
{
1000
Class
1070
     4
1000
SPZ
1002
{
1002
}
1000
Color
1070
     1
1070
   256
1002
{
1002
}
1000
LType
1070
     4
1000
BYLAYER
1002
{
1002
}
1002
}
1000
CON1
1070
     9
1000
0
1002
{
1000
Class
1070
     4
1000
CON,BGD
1002
{
1002
}
1000
Color
1070
     1
1070
   256
1002
{
1002
}
1000
LType
1070
     4
1000
BYLAYER
1002
{
1002
}
1002
}
1000
CON2
1070
     9
1000
1
1002
{
1000
Class
1070
     4
1000
CON,BGD
1002
{
1002
}
1000
Color
1070
     1
1070
   256
1002
{
1002
}
1000
LType
1070
     4
1000
BYLAYER
1002
{
1002
}
1002
}
1000
CON3
1070
     9
1000
2
1002
{
1000
Class
1070
     4
1000
CON,BGD
1002
{
1002
}
1000
Color
1070
     1
1070
   256
1002
{
1002
}
1000
LType
1070
     4
1000
BYLAYER
1002
{
1002
}
1002
}
1000
CON4
1070
     9
1000
2
1002
{
1000
Class
1070
     4
1000
CON,BGD
1002
{
1002
}
1000
Color
1070
     1
1070
   256
1002
{
1002
}
1000
LType
1070
     4
1000
BYLAYER
1002
{
1002
}
1002
}
1000
DERP
1070
     9
1000
4
1002
{
1000
Class
1070
     4
1000

1002
{
1002
}
1000
Color
1070
     1
1070
   256
1002
{
1002
}
1000
LType
1070
     4
1000
BYLAYER
1002
{
1002
}
1002
}
1000
DETA
1070
     9
1000
4
1002
{
1000
Class
1070
     4
1000

1002
{
1002
}
1000
Color
1070
     1
1070
   256
1002
{
1002
}
1000
LType
1070
     4
1000
BYLAYER
1002
{
1002
}
1002
}
1000
DIAG
1070
     9
1000
5
1002
{
1000
Class
1070
     4
1000
SYM
1002
{
1002
}
1000
Color
1070
     1
1070
   256
1002
{
1002
}
1000
LType
1070
     4
1000
BYLAYER
1002
{
1002
}
1002
}
1000
DILI
1070
     9
1000
5
1002
{
1000
Class
1070
     4
1000
DIM,SYM
1002
{
1002
}
1000
Color
1070
     1
1070
   256
1002
{
1002
}
1000
LType
1070
     4
1000
BYLAYER
1002
{
1002
}
1002
}
1000
DITX
1070
     9
1000
5
1002
{
1000
Class
1070
     4
1000
DIM,SYM
1002
{
1002
}
1000
Color
1070
     1
1070
     2
1002
{
1002
}
1000
LType
1070
     4
1000
CONTINUOUS
1002
{
1002
}
1002
}
1000
DITO2
1070
     9
1000
5
1002
{
1000
Class
1070
     4
1000
DIM,SYM
1002
{
1002
}
1000
Color
1070
     1
1070
     3
1002
{
1002
}
1000
LType
1070
     4
1000
BYLAYER
1002
{
1002
}
1002
}
1000
DITO3
1070
     9
1000
5
1002
{
1000
Class
1070
     4
1000
DIM,SYM
1002
{
1002
}
1000
Color
1070
     1
1070
     2
1002
{
1002
}
1000
LType
1070
     4
1000
BYLAYER
1002
{
1002
}
1002
}
1000
DIXL
1070
     9
1000
5
1002
{
1000
Class
1070
     4
1000
DIM,SYM
1002
{
1002
}
1000
Color
1070
     1
1070
   256
1002
{
1002
}
1000
LType
1070
     4
1000
BYLAYER
1002
{
1002
}
1002
}
1000
EXMP
1070
     9
1000
4A
1002
{
1000
Class
1070
     4
1000

1002
{
1002
}
1000
Color
1070
     1
1070
   256
1002
{
1002
}
1000
LType
1070
     4
1000
BYLAYER
1002
{
1002
}
1002
}
1000
FEMN
1070
     9
1000
8
1002
{
1000
Class
1070
     4
1000

1002
{
1002
}
1000
Color
1070
     1
1070
   256
1002
{
1002
}
1000
LType
1070
     4
1000
BYLAYER
1002
{
1002
}
1002
}
1000
FEMPN
1070
     9
1000
8
1002
{
1000
Class
1070
     4
1000
SYM
1002
{
1002
}
1000
Color
1070
     1
1070
     3
1002
{
1002
}
1000
LType
1070
     4
1000
BYLAYER
1002
{
1002
}
1002
}
1000
FEMSP
1070
     9
1000
4A
1002
{
1000
Class
1070
     4
1000

1002
{
1002
}
1000
Color
1070
     1
1070
   256
1002
{
1002
}
1000
LType
1070
     4
1000
CONTINUOUS
1002
{
1002
}
1002
}
1000
FEMST
1070
     9
1000
4A
1002
{
1000
Class
1070
     4
1000
SYM
1002
{
1002
}
1000
Color
1070
     1
1070
     3
1002
{
1002
}
1000
LType
1070
     4
1000
BYLAYER
1002
{
1002
}
1002
}
1000
FEMVN
1070
     9
1000
2
1002
{
1000
Class
1070
     4
1000
CON
1002
{
1002
}
1000
Color
1070
     1
1070
   256
1002
{
1002
}
1000
LType
1070
     4
1000
BYLAYER
1002
{
1002
}
1002
}
1000
FEMVT
1070
     9
1000
2
1002
{
1000
Class
1070
     4
1000
SYM
1002
{
1002
}
1000
Color
1070
     1
1070
     3
1002
{
1002
}
1000
LType
1070
     4
1000
BYLAYER
1002
{
1002
}
1002
}
1000
FLAT
1070
     9
1000
0
1002
{
1000
Class
1070
     4
1000

1002
{
1002
}
1000
Color
1070
     1
1070
   256
1002
{
1002
}
1000
LType
1070
     4
1000
BYLAYER
1002
{
1002
}
1002
}
1000
FRAR
1070
     9
1000
4A
1002
{
1000
Class
1070
     4
1000

1002
{
1002
}
1000
Color
1070
     1
1070
   256
1002
{
1002
}
1000
LType
1070
     4
1000
BYLAYER
1002
{
1002
}
1002
}
1000
GRLI
1070
     9
1000
5
1002
{
1000
Class
1070
     4
1000
SYM
1002
{
1002
}
1000
Color
1070
     1
1070
   256
1002
{
1002
}
1000
LType
1070
     4
1000
BYLAYER
1002
{
1002
}
1002
}
1000
GVLI
1070
     9
1000
4A
1002
{
1000
Class
1070
     4
1000

1002
{
1002
}
1000
Color
1070
     1
1070
   256
1002
{
1002
}
1000
LType
1070
     4
1000
BYLAYER
1002
{
1002
}
1002
}
1000
HATC
1070
     9
1000
8
1002
{
1000
Class
1070
     4
1000
HTC,BGD
1002
{
1002
}
1000
Color
1070
     1
1070
   256
1002
{
1002
}
1000
LType
1070
     4
1000
BYLAYER
1002
{
1002
}
1002
}
1000
HIDN
1070
     9
1000
3A
1002
{
1000
Class
1070
     4
1000
HID,BGD
1002
{
1002
}
1000
Color
1070
     1
1070
   256
1002
{
1002
}
1000
LType
1070
     4
1000
BYLAYER
1002
{
1002
}
1002
}
1000
HIDW
1070
     9
1000
3
1002
{
1000
Class
1070
     4
1000
HID,BGD
1002
{
1002
}
1000
Color
1070
     1
1070
   256
1002
{
1002
}
1000
LType
1070
     4
1000
BYLAYER
1002
{
1002
}
1002
}
1000
HLIN
1070
     9
1000
4
1002
{
1000
Class
1070
     4
1000
BGD
1002
{
1002
}
1000
Color
1070
     1
1070
   256
1002
{
1002
}
1000
LType
1070
     4
1000
BYLAYER
1002
{
1002
}
1002
}
1000
HOCN
1070
     9
1000
7A
1002
{
1000
Class
1070
     4
1000
CEN
1002
{
1002
}
1000
Color
1070
     1
1070
   256
1002
{
1002
}
1000
LType
1070
     4
1000
BYLAYER
1002
{
1002
}
1002
}
1000
HOCW
1070
     9
1000
7
1002
{
1000
Class
1070
     4
1000
CEN
1002
{
1002
}
1000
Color
1070
     1
1070
   256
1002
{
1002
}
1000
LType
1070
     4
1000
BYLAYER
1002
{
1002
}
1002
}
1000
INFO
1070
     9
1000
INFO
1002
{
1000
Class
1070
     4
1000
SPZ,SYM
1002
{
1002
}
1000
Color
1070
     1
1070
   256
1002
{
1002
}
1000
LType
1070
     4
1000
BYLAYER
1002
{
1002
}
1002
}
1000
LADI
1070
     9
1000
4
1002
{
1000
Class
1070
     4
1000
BGD
1002
{
1002
}
1000
Color
1070
     1
1070
   256
1002
{
1002
}
1000
LType
1070
     4
1000
BYLAYER
1002
{
1002
}
1002
}
1000
LEAD
1070
     9
1000
5
1002
{
1000
Class
1070
     4
1000
SYM
1002
{
1002
}
1000
Color
1070
     1
1070
   256
1002
{
1002
}
1000
LType
1070
     4
1000
BYLAYER
1002
{
1002
}
1002
}
1000
N_BHNV
1070
     9
1000
9N
1002
{
1000
Class
1070
     4
1000
INV
1002
{
1002
}
1000
Color
1070
     1
1070
   256
1002
{
1002
}
1000
LType
1070
     4
1000
BYLAYER
1002
{
1002
}
1002
}
1000
N_CON1
1070
     9
1000
0N
1002
{
1000
Class
1070
     4
1000
CON,BGD
1002
{
1002
}
1000
Color
1070
     1
1070
   256
1002
{
1002
}
1000
LType
1070
     4
1000
BYLAYER
1002
{
1002
}
1002
}
1000
N_CON2
1070
     9
1000
1N
1002
{
1000
Class
1070
     4
1000
CON,BGD
1002
{
1002
}
1000
Color
1070
     1
1070
   256
1002
{
1002
}
1000
LType
1070
     4
1000
BYLAYER
1002
{
1002
}
1002
}
1000
N_CON3
1070
     9
1000
2N
1002
{
1000
Class
1070
     4
1000
CON,BGD
1002
{
1002
}
1000
Color
1070
     1
1070
   256
1002
{
1002
}
1000
LType
1070
     4
1000
BYLAYER
1002
{
1002
}
1002
}
1000
N_CON4
1070
     9
1000
2N
1002
{
1000
Class
1070
     4
1000
CON,BGD
1002
{
1002
}
1000
Color
1070
     1
1070
   256
1002
{
1002
}
1000
LType
1070
     4
1000
BYLAYER
1002
{
1002
}
1002
}
1000
N_CENN
1070
     9
1000
7AN
1002
{
1000
Class
1070
     4
1000
CEN
1002
{
1002
}
1000
Color
1070
     1
1070
   256
1002
{
1002
}
1000
LType
1070
     4
1000
BYLAYER
1002
{
1002
}
1002
}
1000
N_CENW
1070
     9
1000
7N
1002
{
1000
Class
1070
     4
1000
CEN
1002
{
1002
}
1000
Color
1070
     1
1070
   256
1002
{
1002
}
1000
LType
1070
     4
1000
BYLAYER
1002
{
1002
}
1002
}
1000
N_DILI
1070
     9
1000
5N
1002
{
1000
Class
1070
     4
1000
DIM,SYM
1002
{
1002
}
1000
Color
1070
     1
1070
   256
1002
{
1002
}
1000
LType
1070
     4
1000
BYLAYER
1002
{
1002
}
1002
}
1000
N_DITX
1070
     9
1000
5N
1002
{
1000
Class
1070
     4
1000
DIM,SYM
1002
{
1002
}
1000
Color
1070
     1
1070
     2
1002
{
1002
}
1000
LType
1070
     4
1000
CONTINUOUS
1002
{
1002
}
1002
}
1000
N_DIXL
1070
     9
1000
5N
1002
{
1000
Class
1070
     4
1000
DIM,SYM
1002
{
1002
}
1000
Color
1070
     1
1070
   256
1002
{
1002
}
1000
LType
1070
     4
1000
BYLAYER
1002
{
1002
}
1002
}
1000
N_HATC
1070
     9
1000
8N
1002
{
1000
Class
1070
     4
1000
HTC,BGD
1002
{
1002
}
1000
Color
1070
     1
1070
   256
1002
{
1002
}
1000
LType
1070
     4
1000
BYLAYER
1002
{
1002
}
1002
}
1000
N_HIDN
1070
     9
1000
3AN
1002
{
1000
Class
1070
     4
1000
HID,BGD
1002
{
1002
}
1000
Color
1070
     1
1070
   256
1002
{
1002
}
1000
LType
1070
     4
1000
BYLAYER
1002
{
1002
}
1002
}
1000
N_HIDW
1070
     9
1000
3N
1002
{
1000
Class
1070
     4
1000
HID,BGD
1002
{
1002
}
1000
Color
1070
     1
1070
   256
1002
{
1002
}
1000
LType
1070
     4
1000
BYLAYER
1002
{
1002
}
1002
}
1000
N_PHAN
1070
     9
1000
4AN
1002
{
1000
Class
1070
     4
1000

1002
{
1002
}
1000
Color
1070
     1
1070
   256
1002
{
1002
}
1000
LType
1070
     4
1000
BYLAYER
1002
{
1002
}
1002
}
1000
N_POSL
1070
     9
1000
5N
1002
{
1000
Class
1070
     4
1000
SYM
1002
{
1002
}
1000
Color
1070
     1
1070
   256
1002
{
1002
}
1000
LType
1070
     4
1000
BYLAYER
1002
{
1002
}
1002
}
1000
N_TCON
1070
     9
1000
0N
1002
{
1000
Class
1070
     4
1000
CON,BGD
1002
{
1002
}
1000
Color
1070
     1
1070
   256
1002
{
1002
}
1000
LType
1070
     4
1000
BYLAYER
1002
{
1002
}
1002
}
1000
N_THLI
1070
     9
1000
4N
1002
{
1000
Class
1070
     4
1000
BGD
1002
{
1002
}
1000
Color
1070
     1
1070
   256
1002
{
1002
}
1000
LType
1070
     4
1000
BYLAYER
1002
{
1002
}
1002
}
1000
N_TLEN
1070
     9
1000
0N
1002
{
1000
Class
1070
     4
1000
CON,BGD
1002
{
1002
}
1000
Color
1070
     1
1070
   256
1002
{
1002
}
1000
LType
1070
     4
1000
BYLAYER
1002
{
1002
}
1002
}
1000
N_TXT3
1070
     9
1000
6N
1002
{
1000
Class
1070
     4
1000
SYM
1002
{
1002
}
1000
Color
1070
     1
1070
   256
1002
{
1002
}
1000
LType
1070
     4
1000
BYLAYER
1002
{
1002
}
1002
}
1000
N_VPLI
1070
     9
1000
2AN
1002
{
1000
Class
1070
     4
1000

1002
{
1002
}
1000
Color
1070
     1
1070
   256
1002
{
1002
}
1000
LType
1070
     4
1000
BYLAYER
1002
{
1002
}
1002
}
1000
PAL2
1070
     9
1000
RAHM2
1002
{
1000
Class
1070
     4
1000
SPZ,SYM
1002
{
1002
}
1000
Color
1070
     1
1070
   256
1002
{
1002
}
1000
LType
1070
     4
1000
BYLAYER
1002
{
1002
}
1002
}
1000
PAL3
1070
     9
1000
RAHM3
1002
{
1000
Class
1070
     4
1000
SPZ,SYM
1002
{
1002
}
1000
Color
1070
     1
1070
   256
1002
{
1002
}
1000
LType
1070
     4
1000
BYLAYER
1002
{
1002
}
1002
}
1000
PAL5
1070
     9
1000
RAHM5
1002
{
1000
Class
1070
     4
1000
SPZ,SYM
1002
{
1002
}
1000
Color
1070
     1
1070
   256
1002
{
1002
}
1000
LType
1070
     4
1000
BYLAYER
1002
{
1002
}
1002
}
1000
PAL7
1070
     9
1000
RAHM5
1002
{
1000
Class
1070
     4
1000
SPZ,SYM
1002
{
1002
}
1000
Color
1070
     1
1070
     7
1002
{
1002
}
1000
LType
1070
     4
1000
CONTINUOUS
1002
{
1002
}
1002
}
1000
PHAN
1070
     9
1000
4A
1002
{
1000
Class
1070
     4
1000

1002
{
1002
}
1000
Color
1070
     1
1070
   256
1002
{
1002
}
1000
LType
1070
     4
1000
BYLAYER
1002
{
1002
}
1002
}
1000
POSL
1070
     9
1000
5
1002
{
1000
Class
1070
     4
1000
SYM
1002
{
1002
}
1000
Color
1070
     1
1070
   256
1002
{
1002
}
1000
LType
1070
     4
1000
BYLAYER
1002
{
1002
}
1002
}
1000
POSN
1070
     9
1000
6
1002
{
1000
Class
1070
     4
1000
SYM
1002
{
1002
}
1000
Color
1070
     1
1070
     7
1002
{
1002
}
1000
LType
1070
     4
1000
BYLAYER
1002
{
1002
}
1002
}
1000
POSREF
1070
     9
1000
6
1002
{
1000
Class
1070
     4
1000
SYM
1002
{
1002
}
1000
Color
1070
     1
1070
     5
1002
{
1002
}
1000
LType
1070
     4
1000
BYLAYER
1002
{
1002
}
1002
}
1000
POSX
1070
     9
1000
5
1002
{
1000
Class
1070
     4
1000
SYM
1002
{
1002
}
1000
Color
1070
     1
1070
     2
1002
{
1002
}
1000
LType
1070
     4
1000
CONTINUOUS
1002
{
1002
}
1002
}
1000
PSEC
1070
     9
1000
4A
1002
{
1000
Class
1070
     4
1000

1002
{
1002
}
1000
Color
1070
     1
1070
   256
1002
{
1002
}
1000
LType
1070
     4
1000
BYLAYER
1002
{
1002
}
1002
}
1000
RCGN
1070
     9
1000
7A
1002
{
1000
Class
1070
     4
1000
CEN
1002
{
1002
}
1000
Color
1070
     1
1070
   256
1002
{
1002
}
1000
LType
1070
     4
1000
BYLAYER
1002
{
1002
}
1002
}
1000
RCGW
1070
     9
1000
7
1002
{
1000
Class
1070
     4
1000
CEN
1002
{
1002
}
1000
Color
1070
     1
1070
   256
1002
{
1002
}
1000
LType
1070
     4
1000
BYLAYER
1002
{
1002
}
1002
}
1000
RFDI
1070
     9
1000
4
1002
{
1000
Class
1070
     4
1000
BGD
1002
{
1002
}
1000
Color
1070
     1
1070
   256
1002
{
1002
}
1000
LType
1070
     4
1000
BYLAYER
1002
{
1002
}
1002
}
1000
RQTR
1070
     9
1000
4
1002
{
1000
Class
1070
     4
1000

1002
{
1002
}
1000
Color
1070
     1
1070
     7
1002
{
1002
}
1000
LType
1070
     4
1000
GEN7A
1002
{
1002
}
1002
}
1000
RSBO
1070
     9
1000
4
1002
{
1000
Class
1070
     4
1000
BGD
1002
{
1002
}
1000
Color
1070
     1
1070
   256
1002
{
1002
}
1000
LType
1070
     4
1000
BYLAYER
1002
{
1002
}
1002
}
1000
SBRK
1070
     9
1000
4
1002
{
1000
Class
1070
     4
1000
BGD
1002
{
1002
}
1000
Color
1070
     1
1070
   256
1002
{
1002
}
1000
LType
1070
     4
1000
BYLAYER
1002
{
1002
}
1002
}
1000
SCEN
1070
     9
1000
7
1002
{
1000
Class
1070
     4
1000

1002
{
1002
}
1000
Color
1070
     1
1070
   256
1002
{
1002
}
1000
LType
1070
     4
1000
CONTINUOUS
1002
{
1002
}
1002
}
1000
SECT
1070
     9
1000
4
1002
{
1000
Class
1070
     4
1000
BGD
1002
{
1002
}
1000
Color
1070
     1
1070
   256
1002
{
1002
}
1000
LType
1070
     4
1000
BYLAYER
1002
{
1002
}
1002
}
1000
SELN
1070
     9
1000
7A
1002
{
1000
Class
1070
     4
1000

1002
{
1002
}
1000
Color
1070
     1
1070
   256
1002
{
1002
}
1000
LType
1070
     4
1000
BYLAYER
1002
{
1002
}
1002
}
1000
SELW
1070
     9
1000
7
1002
{
1000
Class
1070
     4
1000

1002
{
1002
}
1000
Color
1070
     1
1070
   256
1002
{
1002
}
1000
LType
1070
     4
1000
BYLAYER
1002
{
1002
}
1002
}
1000
SSYS
1070
     9
1000
0
1002
{
1000
Class
1070
     4
1000

1002
{
1002
}
1000
Color
1070
     1
1070
   256
1002
{
1002
}
1000
LType
1070
     4
1000
BYLAYER
1002
{
1002
}
1002
}
1000
STLI
1070
     9
1000
4
1002
{
1000
Class
1070
     4
1000

1002
{
1002
}
1000
Color
1070
     1
1070
     7
1002
{
1002
}
1000
LType
1070
     4
1000
GEN3A
1002
{
1002
}
1002
}
1000
SYB1
1070
     9
1000
5
1002
{
1000
Class
1070
     4
1000
SYM
1002
{
1002
}
1000
Color
1070
     1
1070
   256
1002
{
1002
}
1000
LType
1070
     4
1000
BYLAYER
1002
{
1002
}
1002
}
1000
SYB2
1070
     9
1000
5
1002
{
1000
Class
1070
     4
1000
SYM
1002
{
1002
}
1000
Color
1070
     1
1070
   256
1002
{
1002
}
1000
LType
1070
     4
1000
BYLAYER
1002
{
1002
}
1002
}
1000
SYB3
1070
     9
1000
6
1002
{
1000
Class
1070
     4
1000
SYM
1002
{
1002
}
1000
Color
1070
     1
1070
   256
1002
{
1002
}
1000
LType
1070
     4
1000
CONTINUOUS
1002
{
1002
}
1002
}
1000
SYB5
1070
     9
1000
5
1002
{
1000
Class
1070
     4
1000
SYM
1002
{
1002
}
1000
Color
1070
     1
1070
     7
1002
{
1002
}
1000
LType
1070
     4
1000
BYLAYER
1002
{
1002
}
1002
}
1000
SYMN
1070
     9
1000
7A
1002
{
1000
Class
1070
     4
1000
CEN
1002
{
1002
}
1000
Color
1070
     1
1070
   256
1002
{
1002
}
1000
LType
1070
     4
1000
BYLAYER
1002
{
1002
}
1002
}
1000
SYMW
1070
     9
1000
7
1002
{
1000
Class
1070
     4
1000
CEN
1002
{
1002
}
1000
Color
1070
     1
1070
   256
1002
{
1002
}
1000
LType
1070
     4
1000
BYLAYER
1002
{
1002
}
1002
}
1000
TCON
1070
     9
1000
0
1002
{
1000
Class
1070
     4
1000
CON,BGD
1002
{
1002
}
1000
Color
1070
     1
1070
   256
1002
{
1002
}
1000
LType
1070
     4
1000
BYLAYER
1002
{
1002
}
1002
}
1000
THLI
1070
     9
1000
4
1002
{
1000
Class
1070
     4
1000
BGD
1002
{
1002
}
1000
Color
1070
     1
1070
   256
1002
{
1002
}
1000
LType
1070
     4
1000
BYLAYER
1002
{
1002
}
1002
}
1000
TIT2
1070
     9
1000
RAHM2
1002
{
1000
Class
1070
     4
1000
SPZ,SYM
1002
{
1002
}
1000
Color
1070
     1
1070
   256
1002
{
1002
}
1000
LType
1070
     4
1000
BYLAYER
1002
{
1002
}
1002
}
1000
TIT3
1070
     9
1000
RAHM3
1002
{
1000
Class
1070
     4
1000
SPZ,SYM
1002
{
1002
}
1000
Color
1070
     1
1070
   256
1002
{
1002
}
1000
LType
1070
     4
1000
BYLAYER
1002
{
1002
}
1002
}
1000
TIT5
1070
     9
1000
RAHM5
1002
{
1000
Class
1070
     4
1000
SPZ,SYM
1002
{
1002
}
1000
Color
1070
     1
1070
   256
1002
{
1002
}
1000
LType
1070
     4
1000
BYLAYER
1002
{
1002
}
1002
}
1000
TIT7
1070
     9
1000
RAHM5
1002
{
1000
Class
1070
     4
1000
SPZ,SYM
1002
{
1002
}
1000
Color
1070
     1
1070
     7
1002
{
1002
}
1000
LType
1070
     4
1000
CONTINUOUS
1002
{
1002
}
1002
}
1000
TLEN
1070
     9
1000
0
1002
{
1000
Class
1070
     4
1000
CON,BGD
1002
{
1002
}
1000
Color
1070
     1
1070
   256
1002
{
1002
}
1000
LType
1070
     4
1000
BYLAYER
1002
{
1002
}
1002
}
1000
TRKN
1070
     9
1000
7A
1002
{
1000
Class
1070
     4
1000

1002
{
1002
}
1000
Color
1070
     1
1070
   256
1002
{
1002
}
1000
LType
1070
     4
1000
BYLAYER
1002
{
1002
}
1002
}
1000
TRKW
1070
     9
1000
7
1002
{
1000
Class
1070
     4
1000

1002
{
1002
}
1000
Color
1070
     1
1070
   256
1002
{
1002
}
1000
LType
1070
     4
1000
BYLAYER
1002
{
1002
}
1002
}
1000
TRLI
1070
     9
1000
4
1002
{
1000
Class
1070
     4
1000
BGD
1002
{
1002
}
1000
Color
1070
     1
1070
   256
1002
{
1002
}
1000
LType
1070
     4
1000
BYLAYER
1002
{
1002
}
1002
}
1000
TXT1
1070
     9
1000
6
1002
{
1000
Class
1070
     4
1000
SYM
1002
{
1002
}
1000
Color
1070
     1
1070
     2
1002
{
1002
}
1000
LType
1070
     4
1000
BYLAYER
1002
{
1002
}
1002
}
1000
TXT2
1070
     9
1000
6
1002
{
1000
Class
1070
     4
1000
SYM
1002
{
1002
}
1000
Color
1070
     1
1070
     2
1002
{
1002
}
1000
LType
1070
     4
1000
BYLAYER
1002
{
1002
}
1002
}
1000
TXT3
1070
     9
1000
6
1002
{
1000
Class
1070
     4
1000
SYM
1002
{
1002
}
1000
Color
1070
     1
1070
   256
1002
{
1002
}
1000
LType
1070
     4
1000
BYLAYER
1002
{
1002
}
1002
}
1000
TXT5
1070
     9
1000
6
1002
{
1000
Class
1070
     4
1000
SYM
1002
{
1002
}
1000
Color
1070
     1
1070
     7
1002
{
1002
}
1000
LType
1070
     4
1000
BYLAYER
1002
{
1002
}
1002
}
1000
TXT7
1070
     9
1000
6
1002
{
1000
Class
1070
     4
1000
SYM
1002
{
1002
}
1000
Color
1070
     1
1070
     7
1002
{
1002
}
1000
LType
1070
     4
1000
BYLAYER
1002
{
1002
}
1002
}
1000
VIEW
1070
     9
1000
VIEW
1002
{
1000
Class
1070
     4
1000
SPZ
1002
{
1002
}
1000
Color
1070
     1
1070
   256
1002
{
1002
}
1000
LType
1070
     4
1000
BYLAYER
1002
{
1002
}
1002
}
1000
VPLI
1070
     9
1000
2A
1002
{
1000
Class
1070
     4
1000

1002
{
1002
}
1000
Color
1070
     1
1070
   256
1002
{
1002
}
1000
LType
1070
     4
1000
BYLAYER
1002
{
1002
}
1002
}
1000
ZIZA
1070
     9
1000
4
1002
{
1000
Class
1070
     4
1000
BGD
1002
{
1002
}
1000
Color
1070
     1
1070
   256
1002
{
1002
}
1000
LType
1070
     4
1000
GENZIGZAG
1002
{
1002
}
1002
}
  0
APPID
  5
2D
100
AcDbSymbolTableRecord
100
AcDbRegAppTableRecord
  2
GENIUS_GENCFG3_13
 70
     0
1001
GENIUS_GENCFG_13
1071
862825278
1000
2D
1000
GEN@OSWIZ
1070
    12
1000
GenCfgObject
1000
GenCfgShort
1000
GenCfgReal
1000
GenCfgBool
1000
GenCfgString
1000
GenCfgDim
1000
GenCfgAttrInf
1000
GenCfgLaySection
1000
GenCfgLayer
1000
GenCfgEntSort
1000
GenCfgLType
1000
GenCfgFilter
1000
AngleStep
1070
     0
1002
{
1000
M
1070
     2
1040
10.0
1002
{
1002
}
1000
I
1070
     2
1040
0.4
1002
{
1002
}
1002
}
1000
AngleIncr
1070
     2
1040
45.0
1002
{
1002
}
1000
Filter
1070
     0
1002
{
1000
HATCH
1070
    11
1002
{
1000
EntityType
1070
     4
1000
LINE
1002
{
1002
}
1000
Layer
1070
     4
1000
8,8N,*-8,*-8N
1002
{
1002
}
1000
Linetype
1070
     4
1000
*
1002
{
1002
}
1000
Color
1070
     4
1000
*
1002
{
1002
}
1002
}
1000
SYMBOLS
1070
    11
1002
{
1000
EntityType
1070
     4
1000
*
1002
{
1002
}
1000
Layer
1070
     4
1000
[5-6],[5-6]N,*-[5-6],*-[5-6]N
1002
{
1002
}
1000
Linetype
1070
     4
1000
*
1002
{
1002
}
1000
Color
1070
     4
1000
*
1002
{
1002
}
1002
}
1000
FEM
1070
    11
1002
{
1000
EntityType
1070
     4
1000
*
1002
{
1002
}
1000
Layer
1070
     4
1000
4A,4AN,*-4A,*-4AN
1002
{
1002
}
1000
Linetype
1070
     4
1000
*
1002
{
1002
}
1000
Color
1070
     4
1000
*
1002
{
1002
}
1002
}
1002
}
1000
IconSize
1070
     2
1040
1.0
1002
{
1002
}
1000
SnapColor
1070
     1
1070
     3
1002
{
1002
}
  0
APPID
  5
2E
100
AcDbSymbolTableRecord
100
AcDbRegAppTableRecord
  2
GENIUS_GENCFG4_13
 70
     0
1001
GENIUS_GENCFG_13
1071
893075820
1000
2E
1000
GEN
1070
     9
1000
GenCfgObject
1000
GenCfgShort
1000
GenCfgReal
1000
GenCfgBool
1000
GenCfgString
1000
GenCfgDim
1000
GenCfgAttrInf
1000
GenCfgLaySection
1000
GenCfgLType
1000
Balloon
1070
     0
1002
{
1000
GenIF
1070
     1
1070
     0
1002
{
1002
}
1000
GenPosInc
1070
     1
1070
    10
1002
{
1002
}
1000
GenPosBlk
1070
     1
1070
     8
1002
{
1002
}
1000
GenPosVar
1070
     1
1070
     2
1002
{
1002
}
1000
GenZiCir
1070
     2
1040
1.5
1002
{
1002
}
1000
MaxCharForCenteredText
1070
     1
1070
    30
1002
{
1002
}
1000
Snap
1070
     0
1002
{
1000
ActivationRadius
1070
     2
1040
1.0
1002
{
1002
}
1000
M
1070
     0
1002
{
1000
SnapStepX
1070
     2
1040
20.0
1002
{
1002
}
1000
SnapStepY
1070
     2
1040
10.0
1002
{
1002
}
1002
}
1000
I
1070
     0
1002
{
1000
SnapStepX
1070
     2
1040
1.0
1002
{
1002
}
1000
SnapStepY
1070
     2
1040
0.5
1002
{
1002
}
1002
}
1002
}
1002
}
1000
Centerline
1070
     0
1002
{
1000
ScaleNot
1070
     3
1070
     1
1002
{
1002
}
1000
M
1070
     0
1002
{
1000
GenCenAng
1070
     4
1000
45|90|135
1002
{
1002
}
1000
GenCenDia
1070
     2
1040
10.0
1002
{
1002
}
1000
GenCenDias
1070
     4
1000
10|20|30
1002
{
1002
}
1000
GenCenDist
1070
     2
1040
3.0
1002
{
1002
}
1000
GenCenLen
1070
     2
1040
10.0
1002
{
1002
}
1000
GenCenOff
1070
     2
1040
10.0
1002
{
1002
}
1002
}
1000
I
1070
     0
1002
{
1000
GenCenAng
1070
     4
1000
45|90|135
1002
{
1002
}
1000
GenCenDia
1070
     2
1040
0.5
1002
{
1002
}
1000
GenCenDias
1070
     4
1000
0.5|1.0|1.5
1002
{
1002
}
1000
GenCenDist
1070
     2
1040
0.125
1002
{
1002
}
1000
GenCenLen
1070
     2
1040
0.5
1002
{
1002
}
1000
GenCenOff
1070
     2
1040
0.5
1002
{
1002
}
1002
}
1002
}
1000
CLine
1070
     0
1002
{
1000
CAngArray
1070
     4
1000
30|45|60
1002
{
1002
}
1000
Typ
1070
     4
1000
XLINE
1002
{
1002
}
1000
M
1070
     0
1002
{
1000
CLinArray
1070
     4
1000
60
1002
{
1002
}
1002
}
1000
I
1070
     0
1002
{
1000
CLinArray
1070
     4
1000
0.125|0.25|0.5
1002
{
1002
}
1002
}
1002
}
1000
Constraints
1070
     0
1002
{
1000
Color
1070
     0
1002
{
1000
Active_Frame
1070
     1
1070
     2
1002
{
1002
}
1000
Inactive_Frame
1070
     1
1070
     8
1002
{
1002
}
1002
}
1000
Debug
1070
     0
1002
{
1002
}
1000
Editor
1070
     0
1002
{
1002
}
1000
Frame
1070
     0
1002
{
1002
}
1000
Sys
1070
     0
1002
{
1002
}
1002
}
1000
Detail
1070
     0
1002
{
1002
}
1000
Dimension
1070
     5
1002
{
1000
DIMALT
1070
     1
1070
     0
1002
{
1002
}
1000
DIMALTD
1070
     1
1070
     2
1002
{
1002
}
1000
DIMALTTD
1070
     1
1070
     4
1002
{
1002
}
1000
DIMALTTZ
1070
     1
1070
     0
1002
{
1002
}
1000
DIMALTU
1070
     1
1070
     2
1002
{
1002
}
1000
DIMALTZ
1070
     1
1070
     0
1002
{
1002
}
1000
DIMAPOST
1070
     4
1000

1002
{
1002
}
1000
DIMAUNIT
1070
     1
1070
     0
1002
{
1002
}
1000
DIMBLK
1070
     4
1000

1002
{
1002
}
1000
DIMBLK1
1070
     4
1000

1002
{
1002
}
1000
DIMBLK2
1070
     4
1000

1002
{
1002
}
1000
DIMDLE
1070
     2
1040
0.0
1002
{
1002
}
1000
DIMFIT
1070
     1
1070
     3
1002
{
1002
}
1000
DIMJUST
1070
     1
1070
     0
1002
{
1002
}
1000
DIMLFAC
1070
     2
1040
1.0
1002
{
1002
}
1000
DIMLIM
1070
     1
1070
     0
1002
{
1002
}
1000
DIMPOST
1070
     4
1000
<>
1002
{
1002
}
1000
DIMRND
1070
     2
1040
0.0
1002
{
1002
}
1000
DIMSAH
1070
     1
1070
     0
1002
{
1002
}
1000
DIMSCALE
1070
     2
1040
1.0
1002
{
1002
}
1000
DIMSD1
1070
     1
1070
     0
1002
{
1002
}
1000
DIMSD2
1070
     1
1070
     0
1002
{
1002
}
1000
DIMSE1
1070
     1
1070
     0
1002
{
1002
}
1000
DIMSE2
1070
     1
1070
     0
1002
{
1002
}
1000
DIMSOXD
1070
     1
1070
     0
1002
{
1002
}
1000
DIMTAD
1070
     1
1070
     0
1002
{
1002
}
1000
DIMTFAC
1070
     2
1040
0.71
1002
{
1002
}
1000
DIMTIH
1070
     1
1070
     0
1002
{
1002
}
1000
DIMTIX
1070
     1
1070
     0
1002
{
1002
}
1000
DIMTM
1070
     2
1040
0.1
1002
{
1002
}
1000
DIMTOFL
1070
     1
1070
     0
1002
{
1002
}
1000
DIMTOH
1070
     1
1070
     0
1002
{
1002
}
1000
DIMTOL
1070
     1
1070
     0
1002
{
1002
}
1000
DIMTOLJ
1070
     1
1070
     1
1002
{
1002
}
1000
DIMTP
1070
     2
1040
0.1
1002
{
1002
}
1000
DIMTSZ
1070
     2
1040
0.0
1002
{
1002
}
1000
DIMTVP
1070
     2
1040
0.0
1002
{
1002
}
1000
DIMTXSTY
1070
     4
1000
STANDARD
1002
{
1002
}
1000
DIMTZIN
1070
     1
1070
     0
1002
{
1002
}
1000
DIMUNIT
1070
     1
1070
     2
1002
{
1002
}
1000
DIMUPT
1070
     1
1070
     0
1002
{
1002
}
1000
M
1070
     0
1002
{
1000
DIMALTF
1070
     2
1040
0.03937
1002
{
1002
}
1000
DIMASZ
1070
     2
1040
2.5
1002
{
1002
}
1000
DIMCEN
1070
     2
1040
0.0
1002
{
1002
}
1000
DIMDEC
1070
     1
1070
     2
1002
{
1002
}
1000
DIMDLI
1070
     2
1040
7.0
1002
{
1002
}
1000
DIMEXE
1070
     2
1040
1.0
1002
{
1002
}
1000
DIMEXO
1070
     2
1040
1.0
1002
{
1002
}
1000
DIMGAP
1070
     2
1040
0.6
1002
{
1002
}
1000
DIMTDEC
1070
     1
1070
     3
1002
{
1002
}
1000
DIMTXT
1070
     2
1040
3.5
1002
{
1002
}
1000
DIMZIN
1070
     1
1070
     8
1002
{
1002
}
1002
}
1000
I
1070
     0
1002
{
1000
DIMALTF
1070
     2
1040
25.4
1002
{
1002
}
1000
DIMASZ
1070
     2
1040
0.1
1002
{
1002
}
1000
DIMCEN
1070
     2
1040
0.0
1002
{
1002
}
1000
DIMDEC
1070
     1
1070
     4
1002
{
1002
}
1000
DIMDLI
1070
     2
1040
0.5
1002
{
1002
}
1000
DIMEXE
1070
     2
1040
0.1
1002
{
1002
}
1000
DIMEXO
1070
     2
1040
0.05
1002
{
1002
}
1000
DIMGAP
1070
     2
1040
0.06
1002
{
1002
}
1000
DIMTDEC
1070
     1
1070
     4
1002
{
1002
}
1000
DIMTXT
1070
     2
1040
0.12
1002
{
1002
}
1000
DIMZIN
1070
     1
1070
     7
1002
{
1002
}
1002
}
1000
GEN-ISO
1070
     5
1002
{
1000
NAME
1070
     4
1000
GEN-ISO
1002
{
1002
}
1000
DIMTAD
1070
     1
1070
     1
1002
{
1002
}
1000
DIMTOLJ
1070
     1
1070
     0
1002
{
1002
}
1000
DIMTOFL
1070
     1
1070
     1
1002
{
1002
}
1000
M
1070
     0
1002
{
1002
}
1000
I
1070
     0
1002
{
1002
}
1002
}
1000
GEN-ISO-POS
1070
     5
1002
{
1000
NAME
1070
     4
1000
GEN-ISO-POS
1002
{
1002
}
1000
DIMTOLJ
1070
     1
1070
     0
1002
{
1002
}
1000
M
1070
     0
1002
{
1000
DIMGAP
1070
     2
1040
1.5
1002
{
1002
}
1000
DIMTXT
1070
     2
1040
5.0
1002
{
1002
}
1000
DIMASZ
1070
     2
1040
2.5
1002
{
1002
}
1002
}
1000
I
1070
     0
1002
{
1000
DIMASZ
1070
     2
1040
0.1
1002
{
1002
}
1000
DIMGAP
1070
     2
1040
0.06
1002
{
1002
}
1000
DIMTXT
1070
     2
1040
0.2
1002
{
1002
}
1002
}
1000
DIMSCALE
1070
     2
1040
1.0
1002
{
1002
}
1000
DIMPOST
1070
     4
1000
<>
1002
{
1002
}
1002
}
1000
GEN-ISO-CIR
1070
     5
1002
{
1000
NAME
1070
     4
1000
GEN-ISO$3
1002
{
1002
}
1000
DIMFIT
1070
     1
1070
     0
1002
{
1002
}
1000
DIMTAD
1070
     1
1070
     1
1002
{
1002
}
1000
DIMTIH
1070
     1
1070
     0
1002
{
1002
}
1000
DIMTIX
1070
     1
1070
     0
1002
{
1002
}
1000
DIMTOH
1070
     1
1070
     1
1002
{
1002
}
1000
DIMTOLJ
1070
     1
1070
     0
1002
{
1002
}
1000
DIMTOFL
1070
     1
1070
     0
1002
{
1002
}
1000
DIMUPT
1070
     1
1070
     1
1002
{
1002
}
1000
M
1070
     0
1002
{
1002
}
1000
I
1070
     0
1002
{
1002
}
1000
DIMPOST
1070
     4
1000
<>
1002
{
1002
}
1002
}
1000
GEN-ISO-RAD
1070
     5
1002
{
1000
NAME
1070
     4
1000
GEN-ISO$4
1002
{
1002
}
1000
DIMFIT
1070
     1
1070
     0
1002
{
1002
}
1000
DIMTAD
1070
     1
1070
     1
1002
{
1002
}
1000
DIMTIH
1070
     1
1070
     0
1002
{
1002
}
1000
DIMTIX
1070
     1
1070
     0
1002
{
1002
}
1000
DIMTOH
1070
     1
1070
     1
1002
{
1002
}
1000
DIMTOLJ
1070
     1
1070
     0
1002
{
1002
}
1000
DIMTOFL
1070
     1
1070
     0
1002
{
1002
}
1000
DIMUPT
1070
     1
1070
     1
1002
{
1002
}
1000
M
1070
     0
1002
{
1002
}
1000
I
1070
     0
1002
{
1002
}
1002
}
1000
GEN-ISO-ORD
1070
     5
1002
{
1000
NAME
1070
     4
1000
GEN-ISO$6
1002
{
1002
}
1000
DIMTOLJ
1070
     1
1070
     0
1002
{
1002
}
1000
M
1070
     0
1002
{
1002
}
1000
I
1070
     0
1002
{
1002
}
1002
}
1000
GEN-ISO-AXE-F
1070
     5
1002
{
1000
NAME
1070
     4
1000
GEN-ISO-AXE-F
1002
{
1002
}
1000
DIMSE1
1070
     1
1070
     1
1002
{
1002
}
1000
DIMSE2
1070
     1
1070
     1
1002
{
1002
}
1000
DIMTAD
1070
     1
1070
     1
1002
{
1002
}
1000
DIMTOLJ
1070
     1
1070
     0
1002
{
1002
}
1000
DIMTOFL
1070
     1
1070
     1
1002
{
1002
}
1000
M
1070
     0
1002
{
1002
}
1000
I
1070
     0
1002
{
1002
}
1002
}
1000
GEN-ISO-AXE-H
1070
     5
1002
{
1000
DIMBLK1
1070
     4
1000
GENAXEH
1002
{
1002
}
1000
DIMLFAC
1070
     2
1040
2.0
1002
{
1002
}
1000
DIMSAH
1070
     1
1070
     1
1002
{
1002
}
1000
DIMSE1
1070
     1
1070
     1
1002
{
1002
}
1000
DIMSE2
1070
     1
1070
     1
1002
{
1002
}
1000
DIMTAD
1070
     1
1070
     1
1002
{
1002
}
1000
DIMTOLJ
1070
     1
1070
     0
1002
{
1002
}
1000
DIMTOFL
1070
     1
1070
     1
1002
{
1002
}
1000
M
1070
     0
1002
{
1002
}
1000
I
1070
     0
1002
{
1002
}
1002
}
1000
GEN-ANSI
1070
     5
1002
{
1000
NAME
1070
     4
1000
GEN-ANSI
1002
{
1002
}
1000
DIMTIH
1070
     1
1070
     1
1002
{
1002
}
1000
DIMTOH
1070
     1
1070
     1
1002
{
1002
}
1000
DIMTAD
1070
     1
1070
     0
1002
{
1002
}
1000
DIMTOLJ
1070
     1
1070
     1
1002
{
1002
}
1000
M
1070
     0
1002
{
1002
}
1000
I
1070
     0
1002
{
1002
}
1002
}
1000
GEN-ANSI-POS
1070
     5
1002
{
1000
NAME
1070
     4
1000
GEN-ANSI-POS
1002
{
1002
}
1000
DIMTOLJ
1070
     1
1070
     1
1002
{
1002
}
1000
M
1070
     0
1002
{
1000
DIMASZ
1070
     2
1040
2.5
1002
{
1002
}
1000
DIMGAP
1070
     2
1040
1.5
1002
{
1002
}
1000
DIMTXT
1070
     2
1040
5.0
1002
{
1002
}
1002
}
1000
I
1070
     0
1002
{
1000
DIMASZ
1070
     2
1040
0.1
1002
{
1002
}
1000
DIMGAP
1070
     2
1040
0.06
1002
{
1002
}
1000
DIMTXT
1070
     2
1040
0.2
1002
{
1002
}
1002
}
1002
}
1000
GEN-ANSI-CIR
1070
     5
1002
{
1000
NAME
1070
     4
1000
GEN-ANSI$3
1002
{
1002
}
1000
DIMFIT
1070
     1
1070
     0
1002
{
1002
}
1000
DIMTAD
1070
     1
1070
     0
1002
{
1002
}
1000
DIMTIH
1070
     1
1070
     1
1002
{
1002
}
1000
DIMTIX
1070
     1
1070
     0
1002
{
1002
}
1000
DIMTOFL
1070
     1
1070
     0
1002
{
1002
}
1000
DIMTOH
1070
     1
1070
     1
1002
{
1002
}
1000
DIMTOLJ
1070
     1
1070
     1
1002
{
1002
}
1000
DIMUPT
1070
     1
1070
     1
1002
{
1002
}
1000
M
1070
     0
1002
{
1002
}
1000
I
1070
     0
1002
{
1002
}
1002
}
1000
GEN-ANSI-RAD
1070
     5
1002
{
1000
NAME
1070
     4
1000
GEN-ANSI$4
1002
{
1002
}
1000
DIMFIT
1070
     1
1070
     0
1002
{
1002
}
1000
DIMTAD
1070
     1
1070
     0
1002
{
1002
}
1000
DIMTIH
1070
     1
1070
     1
1002
{
1002
}
1000
DIMTIX
1070
     1
1070
     0
1002
{
1002
}
1000
DIMTOFL
1070
     1
1070
     0
1002
{
1002
}
1000
DIMTOH
1070
     1
1070
     1
1002
{
1002
}
1000
DIMTOLJ
1070
     1
1070
     1
1002
{
1002
}
1000
DIMUPT
1070
     1
1070
     1
1002
{
1002
}
1000
M
1070
     0
1002
{
1002
}
1000
I
1070
     0
1002
{
1002
}
1002
}
1000
GEN-ANSI-ORD
1070
     5
1002
{
1000
NAME
1070
     4
1000
GEN-ANSI$6
1002
{
1002
}
1000
DIMTAD
1070
     1
1070
     0
1002
{
1002
}
1000
DIMTIH
1070
     1
1070
     1
1002
{
1002
}
1000
DIMTOH
1070
     1
1070
     1
1002
{
1002
}
1000
DIMTOLJ
1070
     1
1070
     1
1002
{
1002
}
1000
M
1070
     0
1002
{
1002
}
1000
I
1070
     0
1002
{
1002
}
1002
}
1000
GEN-ANSI-AXE-F
1070
     5
1002
{
1000
NAME
1070
     4
1000
GEN-ANSI-AXE-F
1002
{
1002
}
1000
DIMBLK1
1070
     4
1000
GENAXEH
1002
{
1002
}
1000
DIMSAH
1070
     1
1070
     1
1002
{
1002
}
1000
DIMSE1
1070
     1
1070
     1
1002
{
1002
}
1000
DIMSE2
1070
     1
1070
     1
1002
{
1002
}
1000
DIMTAD
1070
     1
1070
     0
1002
{
1002
}
1000
DIMTIH
1070
     1
1070
     1
1002
{
1002
}
1000
DIMTOH
1070
     1
1070
     1
1002
{
1002
}
1000
DIMTOLJ
1070
     1
1070
     1
1002
{
1002
}
1000
M
1070
     0
1002
{
1002
}
1000
I
1070
     0
1002
{
1002
}
1002
}
1000
GEN-ANSI-AXE-H
1070
     5
1002
{
1000
NAME
1070
     4
1000
GEN-ANSI-AXE-H
1002
{
1002
}
1000
DIMBLK1
1070
     4
1000
GENAXEH
1002
{
1002
}
1000
DIMLFAC
1070
     2
1040
2.0
1002
{
1002
}
1000
DIMSAH
1070
     1
1070
     1
1002
{
1002
}
1000
DIMSE1
1070
     1
1070
     1
1002
{
1002
}
1000
DIMSE2
1070
     1
1070
     1
1002
{
1002
}
1000
DIMTAD
1070
     1
1070
     0
1002
{
1002
}
1000
DIMTOFL
1070
     1
1070
     1
1002
{
1002
}
1000
DIMTOLJ
1070
     1
1070
     1
1002
{
1002
}
1000
M
1070
     0
1002
{
1002
}
1000
I
1070
     0
1002
{
1002
}
1002
}
1000
DIMZIN
1070
     1
1070
     8
1002
{
1002
}
1002
}
1000
DimSet
1070
     0
1002
{
1000
ChainSum
1070
     3
1070
     0
1002
{
1002
}
1000
DimDclTyp0
1070
     4
1000
dim23
1002
{
1002
}
1000
HorBra
1070
     3
1070
     0
1002
{
1002
}
1000
StrDia
1070
     4
1000
%%c<>
1002
{
1002
}
1000
StrRad
1070
     4
1000
R<>
1002
{
1002
}
1000
TextMinus
1070
     4
1000
<>
1002
{
1002
}
1000
TextPlus
1070
     4
1000
<>
1002
{
1002
}
1000
M
1070
     0
1002
{
1000
DimdliFirst
1070
     2
1040
10.0
1002
{
1002
}
1000
PointMakeDist
1070
     2
1040
10.0
1002
{
1002
}
1002
}
1000
I
1070
     0
1002
{
1000
DimdliFirst
1070
     2
1040
0.5
1002
{
1002
}
1000
PointMakeDist
1070
     2
1040
0.5
1002
{
1002
}
1002
}
1002
}
1000
Drawing
1070
     0
1002
{
1000
ChamferDimMode
1070
     1
1070
     2
1002
{
1002
}
1000
Gen_Fiso
1070
    -3
1040
1.0
1002
{
1002
}
1000
GenDimStil
1070
     4
1000
ISO
1002
{
1002
}
1000
GenDwgUScale
1070
     2
1040
1.0
1002
{
1002
}
1000
GenInch
1070
     4
1000
M
1002
{
1002
}
1000
GenPlotScale
1070
     4
1000
1:1
1002
{
1002
}
1000
Revisi
1070
     4
1000
0
1002
{
1002
}
1000
Version
1070
    -5
1000
13.1/May  9 1996
1002
{
1002
}
1000
Platform
1070
    -5
1000
WINNT
1002
{
1002
}
1002
}
1000
DwgVar
1070
     0
1002
{
1000
M
1070
     0
1002
{
1002
}
1000
I
1070
     0
1002
{
1002
}
1002
}
1000
Hatch
1070
     0
1002
{
1000
GenHtcFlag
1070
     3
1070
     0
1002
{
1002
}
1002
}
1000
Info_Pos
1070
     0
1002
{
1000
DescrText
1070
     4
1000
5,6,7,8
1002
{
1002
}
1000
Attrib
1070
     0
1002
{
1000
0
1070
     6
1002
{
1000
Prompt
1070
     4
1000
(genmsg gendwg 103)
1002
{
1002
}
1000
Value
1070
     4
1000

1002
{
1002
}
1000
EditFlag
1070
     1
1070
     0
1002
{
1002
}
1002
}
1000
1
1070
     6
1002
{
1000
Prompt
1070
     4
1000
(genmsg gendwg 31)
1002
{
1002
}
1000
Value
1070
     4
1000
1
1002
{
1002
}
1000
EditFlag
1070
     1
1070
     1
1002
{
1002
}
1002
}
1000
2
1070
     6
1002
{
1000
Prompt
1070
     4
1000
(genmsg gendwg 32)
1002
{
1002
}
1000
Value
1070
     4
1000
1
1002
{
1002
}
1000
EditFlag
1070
     1
1070
     1
1002
{
1002
}
1002
}
1000
3
1070
     6
1002
{
1000
Prompt
1070
     4
1000
(genmsg gendwg 33)
1002
{
1002
}
1000
Value
1070
     4
1000

1002
{
1002
}
1000
EditFlag
1070
     1
1070
     1
1002
{
1002
}
1002
}
1000
4
1070
     6
1002
{
1000
Prompt
1070
     4
1000
(genmsg gendwg 34)
1002
{
1002
}
1000
Value
1070
     4
1000

1002
{
1002
}
1000
EditFlag
1070
     1
1070
     1
1002
{
1002
}
1002
}
1000
5
1070
     6
1002
{
1000
Prompt
1070
     4
1000
(genmsg gendwg 35)
1002
{
1002
}
1000
Value
1070
     4
1000

1002
{
1002
}
1000
EditFlag
1070
     1
1070
     1
1002
{
1002
}
1002
}
1000
6
1070
     6
1002
{
1000
Prompt
1070
     4
1000
(genmsg gendwg 36)
1002
{
1002
}
1000
Value
1070
     4
1000

1002
{
1002
}
1000
EditFlag
1070
     1
1070
     1
1002
{
1002
}
1002
}
1000
7
1070
     6
1002
{
1000
Prompt
1070
     4
1000
(genmsg gendwg 37)
1002
{
1002
}
1000
Value
1070
     4
1000

1002
{
1002
}
1000
EditFlag
1070
     1
1070
     1
1002
{
1002
}
1002
}
1000
8
1070
     6
1002
{
1000
Prompt
1070
     4
1000
(genmsg gendwg 38)
1002
{
1002
}
1000
Value
1070
     4
1000

1002
{
1002
}
1000
EditFlag
1070
     1
1070
     1
1002
{
1002
}
1002
}
1000
9
1070
     6
1002
{
1000
Prompt
1070
     4
1000
(genmsg gendwg 39)
1002
{
1002
}
1000
Value
1070
     4
1000

1002
{
1002
}
1000
EditFlag
1070
     1
1070
     1
1002
{
1002
}
1002
}
1000
10
1070
     6
1002
{
1000
Prompt
1070
     4
1000
(genmsg gendwg 40)
1002
{
1002
}
1000
Value
1070
     4
1000

1002
{
1002
}
1000
EditFlag
1070
     1
1070
     1
1002
{
1002
}
1002
}
1000
11
1070
     6
1002
{
1000
Prompt
1070
     4
1000
(genmsg gendwg 41)
1002
{
1002
}
1000
Value
1070
     4
1000

1002
{
1002
}
1000
EditFlag
1070
     1
1070
     1
1002
{
1002
}
1002
}
1000
12
1070
     6
1002
{
1000
Prompt
1070
     4
1000
(genmsg gendwg 42)
1002
{
1002
}
1000
Value
1070
     4
1000

1002
{
1002
}
1000
EditFlag
1070
     1
1070
     1
1002
{
1002
}
1002
}
1000
13
1070
     6
1002
{
1000
Prompt
1070
     4
1000
(genmsg gendwg 43)
1002
{
1002
}
1000
Value
1070
     4
1000

1002
{
1002
}
1000
EditFlag
1070
     1
1070
     1
1002
{
1002
}
1002
}
1000
14
1070
     6
1002
{
1000
Prompt
1070
     4
1000
(genmsg gendwg 44)
1002
{
1002
}
1000
Value
1070
     4
1000

1002
{
1002
}
1000
EditFlag
1070
     1
1070
     1
1002
{
1002
}
1002
}
1000
15
1070
     6
1002
{
1000
Prompt
1070
     4
1000
(genmsg gendwg 45)
1002
{
1002
}
1000
Value
1070
     4
1000

1002
{
1002
}
1000
EditFlag
1070
     1
1070
     1
1002
{
1002
}
1002
}
1000
16
1070
     6
1002
{
1000
Prompt
1070
     4
1000
(genmsg gendwg 46)
1002
{
1002
}
1000
Value
1070
     4
1000

1002
{
1002
}
1000
EditFlag
1070
     1
1070
     1
1002
{
1002
}
1002
}
1000
17
1070
     6
1002
{
1000
Prompt
1070
     4
1000
(genmsg gendwg 47)
1002
{
1002
}
1000
Value
1070
     4
1000

1002
{
1002
}
1000
EditFlag
1070
     1
1070
     1
1002
{
1002
}
1002
}
1000
18
1070
     6
1002
{
1000
Prompt
1070
     4
1000
(genmsg gendwg 48)
1002
{
1002
}
1000
Value
1070
     4
1000

1002
{
1002
}
1000
EditFlag
1070
     1
1070
     1
1002
{
1002
}
1002
}
1000
19
1070
     6
1002
{
1000
Prompt
1070
     4
1000
(genmsg gendwg 99)
1002
{
1002
}
1000
Value
1070
     4
1000

1002
{
1002
}
1000
EditFlag
1070
     1
1070
     1
1002
{
1002
}
1002
}
1000
20
1070
     6
1002
{
1000
Prompt
1070
     4
1000
(genmsg gendwg 100)
1002
{
1002
}
1000
Value
1070
     4
1000

1002
{
1002
}
1000
EditFlag
1070
     1
1070
     1
1002
{
1002
}
1002
}
1000
21
1070
     6
1002
{
1000
Prompt
1070
     4
1000
(genmsg gendwg 101)
1002
{
1002
}
1000
Value
1070
     4
1000

1002
{
1002
}
1000
EditFlag
1070
     1
1070
     1
1002
{
1002
}
1002
}
1000
22
1070
     6
1002
{
1000
Prompt
1070
     4
1000
(genmsg gendwg 102)
1002
{
1002
}
1000
Value
1070
     4
1000

1002
{
1002
}
1000
EditFlag
1070
     1
1070
     1
1002
{
1002
}
1002
}
1000
23
1070
     6
1002
{
1000
Prompt
1070
     4
1000
(genmsg gendwg 30)
1002
{
1002
}
1000
Value
1070
     4
1000

1002
{
1002
}
1000
EditFlag
1070
     1
1070
     1
1002
{
1002
}
1002
}
1000
24
1070
     6
1002
{
1000
Prompt
1070
     4
1000
(genmsg gendwg 104)
1002
{
1002
}
1000
Value
1070
     4
1000

1002
{
1002
}
1000
EditFlag
1070
     1
1070
     1
1002
{
1002
}
1002
}
1002
}
1000
Xlate
1070
     0
1002
{
1000
>
1002
}
1002
}
1000
Layer
1070
     7
1002
{
1000
Defs
1070
     0
1002
{
1000
>
1002
}
1000
EntSort
1070
     0
1002
{
1000
>
1002
}
1000
Match
1070
     0
1002
{
1002
}
1000
Settings
1070
     0
1002
{
1000
FocGrNC
1070
     3
1070
     0
1002
{
1002
}
1000
FocGrLo
1070
     3
1070
     0
1002
{
1002
}
1000
FocLoNC
1070
     3
1070
     0
1002
{
1002
}
1000
FocusCol
1070
     1
1070
   253
1002
{
1002
}
1000
GenStdLG
1070
     4
1000

1002
{
1002
}
1000
LayMatch
1070
     3
1070
     0
1002
{
1002
}
1000
LgOff
1070
     3
1070
     0
1002
{
1002
}
1000
CurLG
1070
    -5
1000

1002
{
1002
}
1002
}
1002
}
1000
LType
1070
     0
1002
{
1000
GEN3
1070
     8
1000
genius.lin
1002
{
1002
}
1000
GEN7
1070
     8
1000
genius.lin
1002
{
1002
}
1000
GEN4A
1070
     8
1000
genius.lin
1002
{
1002
}
1000
GEN3A
1070
     8
1000
genius.lin
1002
{
1002
}
1000
GEN7A
1070
     8
1000
genius.lin
1002
{
1002
}
1000
GENZIGZAG
1070
     8
1000
genius.lin
1002
{
1002
}
1002
}
1000
Objecter
1070
     0
1002
{
1000
CreateGroups
1070
     3
1070
     0
1002
{
1002
}
1000
LaySwitch
1070
     3
1070
     1
1002
{
1002
}
1000
LastObj
1070
    -5
1000
120F
1002
{
1002
}
1002
}
1000
OSWiz
1070
     0
1002
{
1000
>
1002
}
1000
PaList
1070
     0
1002
{
1000
AutoUpdatePartList
1070
     3
1070
     0
1002
{
1002
}
1000
ReadInfoPoint
1070
     3
1070
     0
1002
{
1002
}
1000
ReadPosNr
1070
     3
1070
     1
1002
{
1002
}
1000
RevStr
1070
     4
1000
0
1002
{
1002
}
1000
rebuildpending
1070
    -4
1070
     1
1002
{
1002
}
1000
rebuildpendingtime
1070
    -5
1000
893075132
1002
{
1002
}
1002
}
1000
Paper
1070
     0
1002
{
1002
}
1000
PartDB
1070
     0
1002
{
1000
GenDbOwner
1070
     4
1000

1002
{
1002
}
1002
}
1000
System
1070
     0
1002
{
1000
Menu
1070
     4
1000
GEV
1002
{
1002
}
1002
}
1000
Title
1070
     0
1002
{
1000
MakeView
1070
     1
1070
     2
1002
{
1002
}
1002
}
  0
APPID
  5
2F
100
AcDbSymbolTableRecord
100
AcDbRegAppTableRecord
  2
GENIUS_GEVCFG0_13
 70
     0
1001
GENIUS_GENCFG_13
1071
862825278
1000
2F
1000
GEV
1070
     1
1000
GenCfgObject
1000
System
1070
     0
1002
{
1002
}
1000
VED
1070
     0
1002
{
1002
}
  0
APPID
  5
33
100
AcDbSymbolTableRecord
100
AcDbRegAppTableRecord
  2
GENIUS_GEFCFG0_13
 70
     0
1001
GENIUS_GENCFG_13
1071
893075085
1000
33
1000
GEF
1070
     5
1000
GenCfgObject
1000
GenCfgString
1000
GenCfgReal
1000
GenCfgShort
1000
GenCfgBool
1000
System
1070
     0
1002
{
1002
}
1000
Prese
1070
     0
1002
{
1000
Funk
1070
     1
1000

1002
{
1002
}
1000
FunkDef
1070
     1
1000

1002
{
1002
}
1000
GefIso
1070
     1
1000
DIN
1002
{
1002
}
1002
}
1000
FEM
1070
     0
1002
{
1000
LayGroup
1070
     1
1000
FEM
1002
{
1002
}
1000
IncrCoef
1070
     2
1040
0.0
1002
{
1002
}
1002
}
1000
Shaft
1070
     0
1002
{
1000
Interrupt
1070
     3
1070
     0
1002
{
1002
}
1002
}
1000
PartDb
1070
     0
1002
{
1000
PartCreate
1070
     0
1002
{
1002
}
1002
}
1000
Symbol
1070
     0
1002
{
1000
WeldStyle
1070
     1
1000
ISO
1002
{
1002
}
1000
WeldSize
1070
     2
1040
1.0
1002
{
1002
}
1000
WeldFlag
1070
     4
1070
     1
1002
{
1002
}
1000
WeldOffset
1070
     4
1070
     1
1002
{
1002
}
1000
TolCType
1070
     1
1000
ISO
1002
{
1002
}
1000
TolCSize
1070
     2
1040
1.0
1002
{
1002
}
1000
STextureSize
1070
     2
1040
1.0
1002
{
1002
}
1000
SurfaceType
1070
     1
1000

1002
{
1002
}
1000
M
1070
     0
1002
{
1000
WeldWidth
1070
     2
1040
3.0
1002
{
1002
}
1002
}
1000
I
1070
     0
1002
{
1000
WeldWidth
1070
     2
1040
0.125
1002
{
1002
}
1002
}
1002
}
  0
APPID
  5
3C
100
AcDbSymbolTableRecord
100
AcDbRegAppTableRecord
  2
GENIUS_GENOENT_13
 70
     0
  0
APPID
  5
72
100
AcDbSymbolTableRecord
100
AcDbRegAppTableRecord
  2
GENIUS_GENBH_13
 70
     0
1001
GENIUS_GENOBJ_13
1070
     1
  0
APPID
  5
73
100
AcDbSymbolTableRecord
100
AcDbRegAppTableRecord
  2
GENIUS_GENOBJ_13
 70
     0
1001
GENIUS_GENODEF_13
1070
     0
1001
GENIUS_GENOLIS_13
1070
     0
1001
GENIUS_GENOREF_13
1070
     0
1001
GENIUS_GENOBJ-NBEHI-BHF_13
1070
     0
1001
GENIUS_GENOBJ-NBEHI-BHB_13
1070
     0
1001
GENIUS_GENBH_13
1070
     1
1001
GENIUS_GENOBJ-F-PART_13
1070
     0
1001
GENIUS_GEFSTDP_13
1070
     0
1001
GENIUS_GENOBJ-N-CRS_13
1070
     0
1001
GENIUS_GENOBJ-N-RSSYM_13
1070
     1
1001
GENIUS_GENSYMENT_13
1070
     1
1001
GENIUS_GENOENT_13
1070
     0
1070
     2
  0
APPID
  5
74
100
AcDbSymbolTableRecord
100
AcDbRegAppTableRecord
  2
GENIUS_GENODEF_13
 70
     0
1001
GENIUS_GENOBJ_13
1070
     0
  0
APPID
  5
75
100
AcDbSymbolTableRecord
100
AcDbRegAppTableRecord
  2
GENIUS_GENOLIS_13
 70
     0
1001
GENIUS_GENOBJ_13
1070
     0
  0
APPID
  5
76
100
AcDbSymbolTableRecord
100
AcDbRegAppTableRecord
  2
GENIUS_GENOREF_13
 70
     0
1001
GENIUS_GENOBJ_13
1070
     0
  0
APPID
  5
77
100
AcDbSymbolTableRecord
100
AcDbRegAppTableRecord
  2
GENIUS_GENOBJ-NBEHI-BHF_13
 70
     0
1001
GENIUS_GENOBJ_13
1070
     0
  0
APPID
  5
78
100
AcDbSymbolTableRecord
100
AcDbRegAppTableRecord
  2
GENIUS_GENOBJ-NBEHI-BHB_13
 70
     0
1001
GENIUS_GENOBJ_13
1070
     0
  0
APPID
  5
79
100
AcDbSymbolTableRecord
100
AcDbRegAppTableRecord
  2
GENIUS_GENOBJ-F-PART_13
 70
     0
1001
GENIUS_GENOBJ_13
1070
     0
  0
APPID
  5
7A
100
AcDbSymbolTableRecord
100
AcDbRegAppTableRecord
  2
GENIUS_GEFSTDP_13
 70
     0
1001
GENIUS_GENOBJ_13
1070
     0
  0
APPID
  5
7B
100
AcDbSymbolTableRecord
100
AcDbRegAppTableRecord
  2
GENIUS_GENOBJ-N-CRS_13
 70
     0
1001
GENIUS_GENOBJ_13
1070
     0
  0
APPID
  5
7C
100
AcDbSymbolTableRecord
100
AcDbRegAppTableRecord
  2
GENIUS_GENINF13_13
 70
     0
  0
APPID
  5
7D
100
AcDbSymbolTableRecord
100
AcDbRegAppTableRecord
  2
GENIUS_GENOBJ-N-INFOPT_13
 70
     0
  0
APPID
  5
7E
100
AcDbSymbolTableRecord
100
AcDbRegAppTableRecord
  2
GENIUS_GENOBJ-N-RSSYM_13
 70
     0
1001
GENIUS_GENOBJ_13
1070
     1
  0
APPID
  5
7F
100
AcDbSymbolTableRecord
100
AcDbRegAppTableRecord
  2
GENIUS_GENSYMENT_13
 70
     0
1001
GENIUS_GENOBJ_13
1070
     1
  0
APPID
  5
80
100
AcDbSymbolTableRecord
100
AcDbRegAppTableRecord
  2
GENIUS_GENSCSYM_13
 70
     0
  0
APPID
  5
81
100
AcDbSymbolTableRecord
100
AcDbRegAppTableRecord
  2
GENIUS_GENOBJ-N-CEN_13
 70
     0
  0
APPID
  5
82
100
AcDbSymbolTableRecord
100
AcDbRegAppTableRecord
  2
GENIUS_GENOBJ-N-FIL_13
 70
     0
  0
APPID
  5
DAD
100
AcDbSymbolTableRecord
100
AcDbRegAppTableRecord
  2
GENIUS_GENOBJ-N-RSBK_13
 70
     0
  0
APPID
  5
DAE
100
AcDbSymbolTableRecord
100
AcDbRegAppTableRecord
  2
GENIUS_GENOBJ-N-LIB_13
 70
     0
  0
APPID
  5
DAF
100
AcDbSymbolTableRecord
100
AcDbRegAppTableRecord
  2
GENIUS_GENSCALE_13
 70
     0
  0
ENDTAB
  0
TABLE
  2
DIMSTYLE
  5
A
100
AcDbSymbolTable
 70
     1
  0
DIMSTYLE
105
1D
100
AcDbSymbolTableRecord
100
AcDbDimStyleTableRecord
  2
STANDARD
 70
     0
  3

  4

  5

  6

  7

 40
1.0
 41
0.18
 42
0.0625
 43
0.38
 44
0.18
 45
0.0
 46
0.0
 47
0.0
 48
0.0
140
0.18
141
0.09
142
0.0
143
25.4
144
1.0
145
0.0
146
1.0
147
0.09
 71
     0
 72
     0
 73
     1
 74
     1
 75
     0
 76
     0
 77
     0
 78
     0
170
     0
171
     2
172
     0
173
     0
174
     0
175
     0
176
     0
177
     0
178
     0
270
     2
271
     4
272
     4
273
     2
274
     2
340
10
275
     0
280
     0
281
     0
282
     0
283
     1
284
     0
285
     0
286
     0
287
     3
288
     0
  0
ENDTAB
  0
TABLE
  2
BLOCK_RECORD
  5
1
100
AcDbSymbolTable
 70
     3
  0
BLOCK_RECORD
  5
1A
100
AcDbSymbolTableRecord
100
AcDbBlockTableRecord
  2
*MODEL_SPACE
  0
BLOCK_RECORD
  5
17
100
AcDbSymbolTableRecord
100
AcDbBlockTableRecord
  2
*PAPER_SPACE
  0
BLOCK_RECORD
  5
43
100
AcDbSymbolTableRecord
100
AcDbBlockTableRecord
  2
GENINF13
  0
ENDTAB
  0
ENDSEC
  0
SECTION
  2
BLOCKS
  0
BLOCK
  5
1B
100
AcDbEntity
  8
0
100
AcDbBlockBegin
  2
*MODEL_SPACE
 70
     0
 10
0.0
 20
0.0
 30
0.0
  3
*MODEL_SPACE
  1

  0
ENDBLK
  5
1C
100
AcDbEntity
  8
0
100
AcDbBlockEnd
  0
BLOCK
  5
18
100
AcDbEntity
 67
     1
  8
0
100
AcDbBlockBegin
  2
*PAPER_SPACE
 70
     0
 10
0.0
 20
0.0
 30
0.0
  3
*PAPER_SPACE
  1

  0
ENDBLK
  5
19
100
AcDbEntity
 67
     1
  8
0
100
AcDbBlockEnd
  0
BLOCK
  5
68
100
AcDbEntity
  8
0
100
AcDbBlockBegin
  2
GENINF13
 70
    66
 10
0.0
 20
0.0
 30
0.0
  3
GENINF13
  1
GENINF13
  0
CIRCLE
  5
44
100
AcDbEntity
  8
INFO
100
AcDbCircle
 10
-0.107946
 20
1.312244
 30
0.0
 40
0.339067
  0
CIRCLE
  5
45
100
AcDbEntity
  8
INFO
100
AcDbCircle
 10
0.0
 20
0.0
 30
0.0
 40
1.920194
  0
LINE
  5
46
100
AcDbEntity
  8
INFO
100
AcDbLine
 10
0.411344
 20
0.70683
 30
0.0
 11
-0.700006
 21
0.70683
 31
0.0
  0
LINE
  5
47
100
AcDbEntity
  8
INFO
100
AcDbLine
 10
0.829904
 20
-1.341535
 30
0.0
 11
0.829904
 21
-0.555367
 31
0.0
  0
LINE
  5
48
100
AcDbEntity
  8
INFO
100
AcDbLine
 10
0.829904
 20
-0.555367
 30
0.0
 11
0.411344
 21
-0.555367
 31
0.0
  0
LINE
  5
49
100
AcDbEntity
  8
INFO
100
AcDbLine
 10
0.411344
 20
-0.555367
 30
0.0
 11
0.411344
 21
0.70683
 31
0.0
  0
LINE
  5
4A
100
AcDbEntity
  8
INFO
100
AcDbLine
 10
-0.700006
 20
0.70683
 30
0.0
 11
-0.700006
 21
0.122613
 31
0.0
  0
LINE
  5
4B
100
AcDbEntity
  8
INFO
100
AcDbLine
 10
-0.700006
 20
0.122613
 30
0.0
 11
-0.375261
 21
0.122613
 31
0.0
  0
LINE
  5
4C
100
AcDbEntity
  8
INFO
100
AcDbLine
 10
-0.375261
 20
0.122613
 30
0.0
 11
-0.375261
 21
-0.555367
 31
0.0
  0
LINE
  5
4D
100
AcDbEntity
  8
INFO
100
AcDbLine
 10
-0.375261
 20
-0.555367
 30
0.0
 11
-0.801038
 21
-0.555367
 31
0.0
  0
LINE
  5
4E
100
AcDbEntity
  8
INFO
100
AcDbLine
 10
-0.801038
 20
-0.555367
 30
0.0
 11
-0.801038
 21
-1.341535
 31
0.0
  0
LINE
  5
4F
100
AcDbEntity
  8
INFO
100
AcDbLine
 10
-0.801038
 20
-1.341535
 30
0.0
 11
0.829904
 21
-1.341535
 31
0.0
  0
ATTDEF
  5
50
100
AcDbEntity
  8
INFO
100
AcDbText
 10
0.0
 20
0.0
 30
0.0
 40
1.0
  1
1
100
AcDbAttributeDefinition
  3
Menge
  2
2GENINF
 70
     1
  0
ATTDEF
  5
51
100
AcDbEntity
  8
INFO
100
AcDbText
 10
0.0
 20
-1.5
 30
0.0
 40
1.0
  1

100
AcDbAttributeDefinition
  3
Stücklisten-Name
  2
3GENINF
 70
     1
  0
ATTDEF
  5
52
100
AcDbEntity
  8
INFO
100
AcDbText
 10
0.0
 20
-3.0
 30
0.0
 40
1.0
  1

100
AcDbAttributeDefinition
  3
Stücklisten-Pfad
  2
4GENINF
 70
     1
  0
ATTDEF
  5
53
100
AcDbEntity
  8
INFO
100
AcDbText
 10
0.0
 20
-4.5
 30
0.0
 40
1.0
  1

100
AcDbAttributeDefinition
  3
Beschreibung 1
  2
5GENINF
 70
     1
  0
ATTDEF
  5
54
100
AcDbEntity
  8
INFO
100
AcDbText
 10
0.0
 20
-6.0
 30
0.0
 40
1.0
  1

100
AcDbAttributeDefinition
  3
Beschreibung 2
  2
6GENINF
 70
     1
  0
ATTDEF
  5
55
100
AcDbEntity
  8
INFO
100
AcDbText
 10
0.0
 20
-7.5
 30
0.0
 40
1.0
  1

100
AcDbAttributeDefinition
  3
Norm/Lieferant 1
  2
7GENINF
 70
     1
  0
ATTDEF
  5
56
100
AcDbEntity
  8
INFO
100
AcDbText
 10
0.0
 20
-9.0
 30
0.0
 40
1.0
  1

100
AcDbAttributeDefinition
  3
Norm/Lieferant 2
  2
8GENINF
 70
     1
  0
ATTDEF
  5
57
100
AcDbEntity
  8
INFO
100
AcDbText
 10
0.0
 20
-10.5
 30
0.0
 40
1.0
  1

100
AcDbAttributeDefinition
  3
Material 1
  2
9GENINF
 70
     1
  0
ATTDEF
  5
58
100
AcDbEntity
  8
INFO
100
AcDbText
 10
0.0
 20
-12.0
 30
0.0
 40
1.0
  1

100
AcDbAttributeDefinition
  3
Material 2
  2
10GENINF
 70
     1
  0
ATTDEF
  5
59
100
AcDbEntity
  8
INFO
100
AcDbText
 10
0.0
 20
-13.5
 30
0.0
 40
1.0
  1

100
AcDbAttributeDefinition
  3
Identnummer
  2
11GENINF
 70
     1
  0
ATTDEF
  5
5A
100
AcDbEntity
  8
INFO
100
AcDbText
 10
0.0
 20
-15.0
 30
0.0
 40
1.0
  1

100
AcDbAttributeDefinition
  3
Gewicht
  2
12GENINF
 70
     1
  0
ATTDEF
  5
5B
100
AcDbEntity
  8
INFO
100
AcDbText
 10
0.0
 20
-16.5
 30
0.0
 40
1.0
  1

100
AcDbAttributeDefinition
  3
Preis
  2
13GENINF
 70
     1
  0
ATTDEF
  5
5C
100
AcDbEntity
  8
INFO
100
AcDbText
 10
0.0
 20
-18.0
 30
0.0
 40
1.0
  1

100
AcDbAttributeDefinition
  3
Abmessungen
  2
14GENINF
 70
     1
  0
ATTDEF
  5
5D
100
AcDbEntity
  8
INFO
100
AcDbText
 10
0.0
 20
-19.5
 30
0.0
 40
1.0
  1

100
AcDbAttributeDefinition
  3
User 1
  2
15GENINF
 70
     1
  0
ATTDEF
  5
5E
100
AcDbEntity
  8
INFO
100
AcDbText
 10
0.0
 20
-21.0
 30
0.0
 40
1.0
  1

100
AcDbAttributeDefinition
  3
User 2
  2
16GENINF
 70
     1
  0
ATTDEF
  5
5F
100
AcDbEntity
  8
INFO
100
AcDbText
 10
0.0
 20
-22.5
 30
0.0
 40
1.0
  1

100
AcDbAttributeDefinition
  3
User 3
  2
17GENINF
 70
     1
  0
ATTDEF
  5
60
100
AcDbEntity
  8
INFO
100
AcDbText
 10
0.0
 20
-24.0
 30
0.0
 40
1.0
  1

100
AcDbAttributeDefinition
  3
User 4
  2
18GENINF
 70
     1
  0
ATTDEF
  5
61
100
AcDbEntity
  8
INFO
100
AcDbText
 10
0.0
 20
-25.5
 30
0.0
 40
1.0
  1

100
AcDbAttributeDefinition
  3
User 5
  2
19GENINF
 70
     1
  0
ATTDEF
  5
62
100
AcDbEntity
  8
INFO
100
AcDbText
 10
0.0
 20
-27.0
 30
0.0
 40
1.0
  1

100
AcDbAttributeDefinition
  3
User 6
  2
20GENINF
 70
     1
  0
ATTDEF
  5
63
100
AcDbEntity
  8
INFO
100
AcDbText
 10
0.0
 20
-28.5
 30
0.0
 40
1.0
  1

100
AcDbAttributeDefinition
  3
User 7
  2
21GENINF
 70
     1
  0
ATTDEF
  5
64
100
AcDbEntity
  8
INFO
100
AcDbText
 10
0.0
 20
-30.0
 30
0.0
 40
1.0
  1

100
AcDbAttributeDefinition
  3
User 8
  2
22GENINF
 70
     1
  0
ATTDEF
  5
65
100
AcDbEntity
  8
INFO
100
AcDbText
 10
0.0
 20
-31.5
 30
0.0
 40
1.0
  1

100
AcDbAttributeDefinition
  3
Filter
  2
23GENINF
 70
     1
  0
ATTDEF
  5
66
100
AcDbEntity
  8
INFO
100
AcDbText
 10
0.0
 20
-33.0
 30
0.0
 40
1.0
  1

100
AcDbAttributeDefinition
  3
Bemerkung
  2
24GENINF
 70
     1
  0
ATTDEF
  5
67
100
AcDbEntity
  8
INFO
100
AcDbText
 10
0.0
 20
-34.5
 30
0.0
 40
1.0
  1

100
AcDbAttributeDefinition
  3
Genius Normteile ID
  2
0GENINF
 70
     1
  0
ENDBLK
  5
69
100
AcDbEntity
  8
0
100
AcDbBlockEnd
  0
ENDSEC
  0
SECTION
  2
ENTITIES
  0
LINE
  5
DB0
100
AcDbEntity
  8
MSL2_120_3F-7
100
AcDbLine
 10
251.930842
 20
165.0
 30
0.0
 11
259.430842
 21
165.0
 31
0.0
  0
LINE
  5
DB1
100
AcDbEntity
  8
MSL2_120_3F-7
100
AcDbLine
 10
251.930842
 20
135.0
 30
0.0
 11
259.430842
 21
135.0
 31
0.0
  0
LINE
  5
DB2
100
AcDbEntity
  8
MSL2_120_3F-7
100
AcDbLine
 10
251.930842
 20
15.0
 30
0.0
 11
259.430842
 21
15.0
 31
0.0
  0
LINE
  5
DB3
100
AcDbEntity
  8
MSL2_120_3F-7
100
AcDbLine
 10
251.930842
 20
-15.0
 30
0.0
 11
259.430842
 21
-15.0
 31
0.0
  0
LINE
  5
DB4
100
AcDbEntity
  8
MSL2_120_3F-7
100
AcDbLine
 10
251.930842
 20
-119.221056
 30
0.0
 11
259.430842
 21
-119.221056
 31
0.0
  0
LINE
  5
DB5
100
AcDbEntity
  8
MSL2_120_3F-7
100
AcDbLine
 10
251.930842
 20
-149.221056
 30
0.0
 11
259.430842
 21
-149.221056
 31
0.0
  0
LINE
  5
DB6
100
AcDbEntity
  8
MSL2_120_3F-7
100
AcDbLine
 10
322.592842
 20
150.0
 30
0.0
 11
218.071593
 21
150.0
 31
0.0
  0
LINE
  5
DB7
100
AcDbEntity
  8
MSL2_120_3F-7
100
AcDbLine
 10
322.592842
 20
0.0
 30
0.0
 11
218.071593
 21
0.0
 31
0.0
  0
LINE
  5
DB8
100
AcDbEntity
  8
MSL2_120_3F-4
100
AcDbLine
 10
360.180842
 20
37.229016
 30
0.0
 11
211.440869
 21
37.229016
 31
0.0
  0
LINE
  5
DB9
100
AcDbEntity
  8
MSL2_120_3F-0
100
AcDbLine
 10
360.180842
 20
-173.221056
 30
0.0
 11
214.347691
 21
-173.221056
 31
0.0
  0
LINE
  5
DBA
100
AcDbEntity
  8
MSL2_120_3F-0
100
AcDbLine
 10
360.680842
 20
-174.221056
 30
0.0
 11
213.660859
 21
-174.221056
 31
0.0
  0
POLYLINE
  5
DBB
100
AcDbEntity
  8
MSL2_120_3F-0
100
AcDb2dPolyline
 66
     1
 10
0.0
 20
0.0
 30
0.0
 70
     1
  0
VERTEX
  5
DBC
100
AcDbEntity
  8
MSL2_120_3F-0
  6
CONTINUOUS
100
AcDbVertex
100
AcDb2dVertex
 10
360.680842
 20
110.0
 30
0.0
  0
VERTEX
  5
DBD
100
AcDbEntity
  8
MSL2_120_3F-0
  6
CONTINUOUS
100
AcDbVertex
100
AcDb2dVertex
 10
360.680842
 20
190.0
 30
0.0
  0
VERTEX
  5
DBE
100
AcDbEntity
  8
MSL2_120_3F-0
  6
CONTINUOUS
100
AcDbVertex
100
AcDb2dVertex
 10
180.680842
 20
190.0
 30
0.0
  0
VERTEX
  5
DBF
100
AcDbEntity
  8
MSL2_120_3F-0
  6
CONTINUOUS
100
AcDbVertex
100
AcDb2dVertex
 10
180.680842
 20
110.0
 30
0.0
  0
SEQEND
  5
DC0
100
AcDbEntity
  8
MSL2_120_3F-0
  0
LINE
  5
DC1
100
AcDbEntity
  8
MSL2_120_3F-0
100
AcDbLine
 10
181.180842
 20
65.0
 30
0.0
 11
360.180842
 21
65.0
 31
0.0
  0
LINE
  5
DC2
100
AcDbEntity
  8
MSL2_120_3F-0
100
AcDbLine
 10
180.680842
 20
-20.0
 30
0.0
 11
360.680842
 21
-20.0
 31
0.0
  0
LINE
  5
DC3
100
AcDbEntity
  8
MSL2_120_3F-0
100
AcDbLine
 10
360.680842
 20
20.0
 30
0.0
 11
180.680842
 21
20.0
 31
0.0
  0
LINE
  5
DC4
100
AcDbEntity
  8
MSL2_120_3F-0
100
AcDbLine
 10
327.013992
 20
-95.221056
 30
0.0
 11
181.180842
 21
-95.221056
 31
0.0
  0
LINE
  5
DC5
100
AcDbEntity
  8
MSL2_120_3F-0
100
AcDbLine
 10
180.680842
 20
-94.221056
 30
0.0
 11
327.700824
 21
-94.221056
 31
0.0
  0
LINE
  5
DC6
100
AcDbEntity
  8
MSL2_120_3F-4
100
AcDbLine
 10
360.180842
 20
-140.508393
 30
0.0
 11
181.180842
 21
-140.508393
 31
0.0
  0
LINE
  5
DC7
100
AcDbEntity
  8
MSL2_120_3F-4
100
AcDbLine
 10
360.180842
 20
-127.933719
 30
0.0
 11
181.180842
 21
-127.933719
 31
0.0
  0
LINE
  5
DC8
100
AcDbEntity
  8
MSL2_120_3F-7
100
AcDbLine
 10
521.029727
 20
-134.221056
 30
0.0
 11
140.456342
 21
-134.221056
 31
0.0
1001
GENIUS_GENOREF_13
1005
120F
1005
120E
  0
LINE
  5
DCA
100
AcDbEntity
  8
MSL2_120_3F-0
100
AcDbLine
 10
180.680842
 20
64.0
 30
0.0
 11
180.680842
 21
-20.0
 31
0.0
  0
LINE
  5
DCB
100
AcDbEntity
  8
MSL2_120_3F-0
100
AcDbLine
 10
159.680842
 20
-21.0
 30
0.0
 11
159.680842
 21
64.0
 31
0.0
  0
LINE
  5
DCC
100
AcDbEntity
  8
MSL2_120_3F-0
100
AcDbLine
 10
143.680842
 20
64.0
 30
0.0
 11
143.680842
 21
-21.0
 31
0.0
  0
LINE
  5
DCD
100
AcDbEntity
  8
MSL2_120_3F-0
100
AcDbLine
 10
-6.930124
 20
63.766044
 30
0.0
 11
-37.642788
 21
37.99506
 31
0.0
  0
LINE
  5
DCE
100
AcDbEntity
  8
MSL2_120_3F-0
100
AcDbLine
 10
-38.285575
 20
38.761105
 30
0.0
 11
-7.572912
 21
64.532089
 31
0.0
  0
LINE
  5
DCF
100
AcDbEntity
  8
MSL2_120_3F-0
100
AcDbLine
 10
-41.0
 20
34.9
 30
0.0
 11
-6.31997
 21
64.0
 31
0.0
  0
LINE
  5
DD0
100
AcDbEntity
  8
MSL2_120_3F-0
100
AcDbLine
 10
6.930124
 20
63.766044
 30
0.0
 11
37.642788
 21
37.99506
 31
0.0
  0
LINE
  5
DD1
100
AcDbEntity
  8
MSL2_120_3F-0
100
AcDbLine
 10
38.285575
 20
38.761105
 30
0.0
 11
7.572912
 21
64.532089
 31
0.0
  0
LINE
  5
DD2
100
AcDbEntity
  8
MSL2_120_3F-0
100
AcDbLine
 10
41.0
 20
34.9
 30
0.0
 11
6.31997
 21
64.0
 31
0.0
  0
LINE
  5
DD3
100
AcDbEntity
  8
MSL2_120_3F-0
100
AcDbLine
 10
181.180842
 20
65.0
 30
0.0
 11
181.180842
 21
20.0
 31
0.0
  0
LINE
  5
DD4
100
AcDbEntity
  8
MSL2_120_3F-7
100
AcDbLine
 10
0.0
 20
66.0
 30
0.0
 11
0.0
 21
-23.0
 31
0.0
  0
LINE
  5
DD5
100
AcDbEntity
  8
MSL2_120_3F-3
100
AcDbLine
 10
27.033397
 20
48.202803
 30
0.0
 11
19.319946
 21
39.010269
 31
0.0
  0
LINE
  5
DD6
100
AcDbEntity
  8
MSL2_120_3F-3
100
AcDbLine
 10
26.588498
 20
48.576118
 30
0.0
 11
18.875047
 21
39.383584
 31
0.0
  0
LINE
  5
DD7
100
AcDbEntity
  8
MSL2_120_3F-3
100
AcDbLine
 10
27.067
 20
-9.8
 30
0.0
 11
22.933
 21
-9.8
 31
0.0
  0
LINE
  5
DD8
100
AcDbEntity
  8
MSL2_120_3F-3
100
AcDbLine
 10
27.067
 20
-9.8
 30
0.0
 11
22.933
 21
-9.8
 31
0.0
  0
LINE
  5
DD9
100
AcDbEntity
  8
MSL2_120_3F-3
100
AcDbLine
 10
25.0
 20
-8.606617
 30
0.0
 11
22.933
 21
-9.8
 31
0.0
  0
LINE
  5
DDA
100
AcDbEntity
  8
MSL2_120_3F-3
100
AcDbLine
 10
25.0
 20
-8.606617
 30
0.0
 11
22.933
 21
-9.8
 31
0.0
  0
LINE
  5
DDB
100
AcDbEntity
  8
MSL2_120_3F-3
100
AcDbLine
 10
27.5
 20
-13.0
 30
0.0
 11
22.5
 21
-13.0
 31
0.0
  0
LINE
  5
DDC
100
AcDbEntity
  8
MSL2_120_3F-3
100
AcDbLine
 10
27.5
 20
-13.0
 30
0.0
 11
22.5
 21
-13.0
 31
0.0
  0
LINE
  5
DDD
100
AcDbEntity
  8
MSL2_120_3F-3
100
AcDbLine
 10
40.0
 20
20.0
 30
0.0
 11
-40.0
 21
20.0
 31
0.0
  0
LINE
  5
DDE
100
AcDbEntity
  8
MSL2_120_3F-7
100
AcDbLine
 10
-42.0
 20
0.0
 30
0.0
 11
42.0
 21
0.0
 31
0.0
  0
LINE
  5
DDF
100
AcDbEntity
  8
MSL2_120_3F-0
100
AcDbLine
 10
41.0
 20
-21.0
 30
0.0
 11
-41.0
 21
-21.0
 31
0.0
  0
LINE
  5
DE0
100
AcDbEntity
  8
MSL2_120_3F-3
100
AcDbLine
 10
-40.0
 20
-20.0
 30
0.0
 11
40.0
 21
-20.0
 31
0.0
  0
LINE
  5
DE1
100
AcDbEntity
  8
MSL2_120_3F-7
100
AcDbLine
 10
25.23572
 20
53.627455
 30
0.0
 11
11.730276
 21
37.532294
 31
0.0
  0
LINE
  5
DE2
100
AcDbEntity
  8
MSL2_120_3F-3
100
AcDbLine
 10
22.5
 20
-21.0
 30
0.0
 11
22.5
 21
-13.0
 31
0.0
  0
LINE
  5
DE3
100
AcDbEntity
  8
MSL2_120_3F-3
100
AcDbLine
 10
22.5
 20
-21.0
 30
0.0
 11
22.5
 21
-13.0
 31
0.0
  0
CIRCLE
  5
DE4
100
AcDbEntity
  8
MSL2_120_3F-0
100
AcDbCircle
 10
15.0
 20
-15.0
 30
0.0
 40
2.75
  0
CIRCLE
  5
DE5
100
AcDbEntity
  8
MSL2_120_3F-0
100
AcDbCircle
 10
0.0
 20
-15.0
 30
0.0
 40
2.5
  0
CIRCLE
  5
DE6
100
AcDbEntity
  8
MSL2_120_3F-0
100
AcDbCircle
 10
-15.0
 20
-15.0
 30
0.0
 40
2.75
  0
LINE
  5
DE7
100
AcDbEntity
  8
MSL2_120_3F-3
100
AcDbLine
 10
-22.5
 20
-21.0
 30
0.0
 11
-22.5
 21
-13.0
 31
0.0
  0
LINE
  5
DE8
100
AcDbEntity
  8
MSL2_120_3F-3
100
AcDbLine
 10
-22.5
 20
-21.0
 30
0.0
 11
-22.5
 21
-13.0
 31
0.0
  0
LINE
  5
DE9
100
AcDbEntity
  8
MSL2_120_3F-3
100
AcDbLine
 10
-28.606617
 20
-15.0
 30
0.0
 11
-29.8
 21
-12.933
 31
0.0
  0
LINE
  5
DEA
100
AcDbEntity
  8
MSL2_120_3F-3
100
AcDbLine
 10
-29.8
 20
-12.933
 30
0.0
 11
-29.8
 21
-17.067
 31
0.0
  0
LINE
  5
DEB
100
AcDbEntity
  8
MSL2_120_3F-3
100
AcDbLine
 10
-27.5
 20
-21.0
 30
0.0
 11
-27.5
 21
-13.0
 31
0.0
  0
LINE
  5
DEC
100
AcDbEntity
  8
MSL2_120_3F-3
100
AcDbLine
 10
-27.5
 20
-21.0
 30
0.0
 11
-27.5
 21
-13.0
 31
0.0
  0
LINE
  5
DED
100
AcDbEntity
  8
MSL2_120_3F-3
100
AcDbLine
 10
-33.0
 20
-12.5
 30
0.0
 11
-33.0
 21
-17.5
 31
0.0
  0
LINE
  5
DEE
100
AcDbEntity
  8
MSL2_120_3F-3
100
AcDbLine
 10
22.933
 20
-21.0
 30
0.0
 11
22.933
 21
-9.8
 31
0.0
  0
LINE
  5
DEF
100
AcDbEntity
  8
MSL2_120_3F-3
100
AcDbLine
 10
22.933
 20
-21.0
 30
0.0
 11
22.933
 21
-9.8
 31
0.0
  0
LINE
  5
DF0
100
AcDbEntity
  8
MSL2_120_3F-7
100
AcDbLine
 10
15.0
 20
23.867497
 30
0.0
 11
15.0
 21
-23.0
 31
0.0
  0
LINE
  5
DF1
100
AcDbEntity
  8
MSL2_120_3F-3
100
AcDbLine
 10
-22.933
 20
-21.0
 30
0.0
 11
-22.933
 21
-9.8
 31
0.0
  0
LINE
  5
DF2
100
AcDbEntity
  8
MSL2_120_3F-3
100
AcDbLine
 10
-22.933
 20
-21.0
 30
0.0
 11
-22.933
 21
-9.8
 31
0.0
  0
LINE
  5
DF3
100
AcDbEntity
  8
MSL2_120_3F-3
100
AcDbLine
 10
-27.067
 20
-21.0
 30
0.0
 11
-27.067
 21
-9.8
 31
0.0
  0
LINE
  5
DF4
100
AcDbEntity
  8
MSL2_120_3F-3
100
AcDbLine
 10
-27.067
 20
-21.0
 30
0.0
 11
-27.067
 21
-9.8
 31
0.0
  0
LINE
  5
DF5
100
AcDbEntity
  8
MSL2_120_3F-7
100
AcDbLine
 10
-25.0
 20
-5.606617
 30
0.0
 11
-25.0
 21
-23.0
 31
0.0
  0
LINE
  5
DF6
100
AcDbEntity
  8
MSL2_120_3F-7
100
AcDbLine
 10
-25.0
 20
-5.606617
 30
0.0
 11
-25.0
 21
-24.0
 31
0.0
  0
CIRCLE
  5
DF7
100
AcDbEntity
  8
MSL2_120_3F-3
100
AcDbCircle
 10
-15.0
 20
-15.0
 30
0.0
 40
5.0
  0
LINE
  5
DF8
100
AcDbEntity
  8
MSL2_120_3F-7
100
AcDbLine
 10
-15.0
 20
23.867497
 30
0.0
 11
-15.0
 21
-23.0
 31
0.0
  0
LINE
  5
DF9
100
AcDbEntity
  8
MSL2_120_3F-0
100
AcDbLine
 10
-41.0
 20
-21.0
 30
0.0
 11
-41.0
 21
34.9
 31
0.0
  0
LINE
  5
DFA
100
AcDbEntity
  8
MSL2_120_3F-3
100
AcDbLine
 10
-40.0
 20
20.0
 30
0.0
 11
-40.0
 21
-20.0
 31
0.0
  0
CIRCLE
  5
DFB
100
AcDbEntity
  8
MSL2_120_3F-3
100
AcDbCircle
 10
15.0
 20
-15.0
 30
0.0
 40
5.0
  0
LINE
  5
DFC
100
AcDbEntity
  8
MSL2_120_3F-3
100
AcDbLine
 10
-41.0
 20
-17.067
 30
0.0
 11
-29.8
 21
-17.067
 31
0.0
  0
LINE
  5
DFD
100
AcDbEntity
  8
MSL2_120_3F-7
100
AcDbLine
 10
-25.606617
 20
-15.0
 30
0.0
 11
-44.0
 21
-15.0
 31
0.0
  0
LINE
  5
DFE
100
AcDbEntity
  8
MSL2_120_3F-3
100
AcDbLine
 10
-41.0
 20
-17.5
 30
0.0
 11
-33.0
 21
-17.5
 31
0.0
  0
LINE
  5
DFF
100
AcDbEntity
  8
MSL2_120_3F-7
100
AcDbLine
 10
23.783771
 20
-15.0
 30
0.0
 11
-23.841229
 21
-15.0
 31
0.0
  0
LINE
  5
E00
100
AcDbEntity
  8
MSL2_120_3F-3
100
AcDbLine
 10
-28.606617
 20
-15.0
 30
0.0
 11
-29.8
 21
-17.067
 31
0.0
  0
LINE
  5
E01
100
AcDbEntity
  8
MSL2_120_3F-3
100
AcDbLine
 10
-41.0
 20
17.067
 30
0.0
 11
-29.8
 21
17.067
 31
0.0
  0
LINE
  5
E02
100
AcDbEntity
  8
MSL2_120_3F-3
100
AcDbLine
 10
-41.0
 20
12.933
 30
0.0
 11
-29.8
 21
12.933
 31
0.0
  0
LINE
  5
E03
100
AcDbEntity
  8
MSL2_120_3F-7
100
AcDbLine
 10
-25.606617
 20
15.0
 30
0.0
 11
-44.0
 21
15.0
 31
0.0
  0
LINE
  5
E04
100
AcDbEntity
  8
MSL2_120_3F-3
100
AcDbLine
 10
-41.0
 20
12.5
 30
0.0
 11
-33.0
 21
12.5
 31
0.0
  0
LINE
  5
E05
100
AcDbEntity
  8
MSL2_120_3F-3
100
AcDbLine
 10
-41.0
 20
17.5
 30
0.0
 11
-33.0
 21
17.5
 31
0.0
  0
LINE
  5
E06
100
AcDbEntity
  8
MSL2_120_3F-0
100
AcDbLine
 10
-41.769161
 20
38.448843
 30
0.0
 11
-33.342673
 21
45.519507
 31
0.0
  0
LINE
  5
E07
100
AcDbEntity
  8
MSL2_120_3F-3
100
AcDbLine
 10
-41.0
 20
-12.933
 30
0.0
 11
-29.8
 21
-12.933
 31
0.0
  0
LINE
  5
E08
100
AcDbEntity
  8
MSL2_120_3F-3
100
AcDbLine
 10
-41.0
 20
-12.5
 30
0.0
 11
-33.0
 21
-12.5
 31
0.0
  0
LINE
  5
E09
100
AcDbEntity
  8
MSL2_120_3F-3
100
AcDbLine
 10
-39.0
 20
36.578199
 30
0.0
 11
-39.0
 21
20.0
 31
0.0
  0
LINE
  5
E0A
100
AcDbEntity
  8
MSL2_120_3F-0
100
AcDbLine
 10
-44.0
 20
22.0
 30
0.0
 11
-44.0
 21
30.0
 31
0.0
  0
LINE
  5
E0B
100
AcDbEntity
  8
MSL2_120_3F-0
100
AcDbLine
 10
-41.0
 20
20.5
 30
0.0
 11
-42.5
 21
20.5
 31
0.0
  0
ARC
  5
E0C
100
AcDbEntity
  8
MSL2_120_3F-0
100
AcDbCircle
 10
-42.5
 20
22.0
 30
0.0
 40
1.5
100
AcDbArc
 50
179.999998
 51
270.000001
  0
LINE
  5
E0D
100
AcDbEntity
  8
MSL2_120_3F-0
100
AcDbLine
 10
-36.023828
 20
43.26975
 30
0.0
 11
-39.291443
 21
44.052495
 31
0.0
  0
LINE
  5
E0E
100
AcDbEntity
  8
MSL2_120_3F-0
100
AcDbLine
 10
-39.291443
 20
44.052495
 30
0.0
 11
-39.088006
 21
40.6986
 31
0.0
  0
LINE
  5
E0F
100
AcDbEntity
  8
MSL2_120_3F-7
100
AcDbLine
 10
-40.227816
 20
45.168421
 30
0.0
 11
-35.25779
 21
39.245375
 31
0.0
  0
LINE
  5
E10
100
AcDbEntity
  8
MSL2_120_3F-0
100
AcDbLine
 10
-44.0
 20
35.0
 30
0.0
 11
-44.0
 21
30.0
 31
0.0
  0
LINE
  5
E11
100
AcDbEntity
  8
MSL2_120_3F-0
100
AcDbLine
 10
-42.5
 20
31.5
 30
0.0
 11
-41.0
 21
31.5
 31
0.0
  0
LINE
  5
E12
100
AcDbEntity
  8
MSL2_120_3F-7
100
AcDbLine
 10
-38.13834
 20
31.0
 30
0.0
 11
-45.336731
 21
31.0
 31
0.0
  0
LINE
  5
E13
100
AcDbEntity
  8
MSL2_120_3F-7
100
AcDbLine
 10
-38.200636
 20
26.0
 30
0.0
 11
-45.424827
 21
26.0
 31
0.0
  0
ARC
  5
E14
100
AcDbEntity
  8
MSL2_120_3F-0
100
AcDbCircle
 10
-42.5
 20
30.0
 30
0.0
 40
1.5
100
AcDbArc
 50
89.999999
 51
179.999998
  0
LINE
  5
E15
100
AcDbEntity
  8
MSL2_120_3F-0
100
AcDbLine
 10
-40.483586
 20
36.916754
 30
0.0
 11
-41.769161
 21
38.448843
 31
0.0
  0
LINE
  5
E16
100
AcDbEntity
  8
MSL2_120_3F-0
100
AcDbLine
 10
-42.5
 20
36.5
 30
0.0
 11
-39.093194
 21
36.5
 31
0.0
  0
ARC
  5
E17
100
AcDbEntity
  8
MSL2_120_3F-0
100
AcDbCircle
 10
-42.5
 20
35.0
 30
0.0
 40
1.5
100
AcDbArc
 50
89.999999
 51
179.999998
  0
LINE
  5
E18
100
AcDbEntity
  8
MSL2_120_3F-0
100
AcDbLine
 10
-39.0
 20
36.578199
 30
0.0
 11
-39.0
 21
37.229016
 31
0.0
  0
ARC
  5
E19
100
AcDbEntity
  8
MSL2_120_3F-0
100
AcDbCircle
 10
-37.0
 20
37.229016
 30
0.0
 40
2.0
100
AcDbArc
 50
130.0
 51
180.0
1001
GENIUS_GENODEF_13
1002
{
1000
HIER
1070
     0
1002
}
1002
{
1000
MANEDIT
1070
     0
1002
}
1002
{
1000
NOSEL
1070
     0
1002
}
1002
{
1000
BEHIND
1070
     0
1002
}
1002
{
1000
REACTOR
1002
}
1001
GENIUS_GENOBJ-N-FIL_13
1002
{
1000
OWNER
1000
GEN
1002
}
  0
ARC
  5
E1A
100
AcDbEntity
  8
MSL2_120_3F-0
100
AcDbCircle
 10
-37.0
 20
37.229016
 30
0.0
 40
1.0
100
AcDbArc
 50
130.0
 51
168.092024
1001
GENIUS_GENODEF_13
1002
{
1000
HIER
1070
     0
1002
}
1002
{
1000
MANEDIT
1070
     0
1002
}
1002
{
1000
NOSEL
1070
     0
1002
}
1002
{
1000
BEHIND
1070
     0
1002
}
1002
{
1000
REACTOR
1002
}
1001
GENIUS_GENOBJ-N-FIL_13
1002
{
1000
OWNER
1000
GEN
1002
}
  0
LINE
  5
E1B
100
AcDbEntity
  8
MSL2_120_3F-0
100
AcDbLine
 10
-40.483586
 20
36.916754
 30
0.0
 11
-38.285575
 21
38.761105
 31
0.0
  0
LINE
  5
E1C
100
AcDbEntity
  8
MSL2_120_3F-7
100
AcDbLine
 10
-23.841229
 20
15.0
 30
0.0
 11
23.783771
 21
15.0
 31
0.0
  0
LINE
  5
E1D
100
AcDbEntity
  8
MSL2_120_3F-7
100
AcDbLine
 10
-27.5
 20
10.175309
 30
0.0
 11
-27.5
 21
-9.668441
 31
0.0
  0
LINE
  5
E1E
100
AcDbEntity
  8
MSL2_120_3F-3
100
AcDbLine
 10
-25.0
 20
-8.606617
 30
0.0
 11
-27.067
 21
-9.8
 31
0.0
  0
LINE
  5
E1F
100
AcDbEntity
  8
MSL2_120_3F-3
100
AcDbLine
 10
-25.0
 20
-8.606617
 30
0.0
 11
-27.067
 21
-9.8
 31
0.0
  0
LINE
  5
E20
100
AcDbEntity
  8
MSL2_120_3F-3
100
AcDbLine
 10
-27.067
 20
-9.8
 30
0.0
 11
-22.933
 21
-9.8
 31
0.0
  0
LINE
  5
E21
100
AcDbEntity
  8
MSL2_120_3F-3
100
AcDbLine
 10
-27.067
 20
-9.8
 30
0.0
 11
-22.933
 21
-9.8
 31
0.0
  0
LINE
  5
E22
100
AcDbEntity
  8
MSL2_120_3F-3
100
AcDbLine
 10
-27.5
 20
-13.0
 30
0.0
 11
-22.5
 21
-13.0
 31
0.0
  0
LINE
  5
E23
100
AcDbEntity
  8
MSL2_120_3F-3
100
AcDbLine
 10
-27.5
 20
-13.0
 30
0.0
 11
-22.5
 21
-13.0
 31
0.0
  0
LINE
  5
E24
100
AcDbEntity
  8
MSL2_120_3F-3
100
AcDbLine
 10
-25.0
 20
-8.606617
 30
0.0
 11
-22.933
 21
-9.8
 31
0.0
  0
LINE
  5
E25
100
AcDbEntity
  8
MSL2_120_3F-3
100
AcDbLine
 10
-25.0
 20
-8.606617
 30
0.0
 11
-22.933
 21
-9.8
 31
0.0
  0
CIRCLE
  5
E26
100
AcDbEntity
  8
MSL2_120_3F-0
100
AcDbCircle
 10
-15.0
 20
0.0
 30
0.0
 40
2.5
  0
CIRCLE
  5
E27
100
AcDbEntity
  8
MSL2_120_3F-3
100
AcDbCircle
 10
-15.0
 20
15.0
 30
0.0
 40
5.0
  0
LINE
  5
E28
100
AcDbEntity
  8
MSL2_120_3F-3
100
AcDbLine
 10
-33.0
 20
17.5
 30
0.0
 11
-33.0
 21
12.5
 31
0.0
  0
LINE
  5
E29
100
AcDbEntity
  8
MSL2_120_3F-3
100
AcDbLine
 10
-29.8
 20
17.067
 30
0.0
 11
-29.8
 21
12.933
 31
0.0
  0
LINE
  5
E2A
100
AcDbEntity
  8
MSL2_120_3F-3
100
AcDbLine
 10
-28.606617
 20
15.0
 30
0.0
 11
-29.8
 21
17.067
 31
0.0
  0
LINE
  5
E2B
100
AcDbEntity
  8
MSL2_120_3F-3
100
AcDbLine
 10
-28.606617
 20
15.0
 30
0.0
 11
-29.8
 21
12.933
 31
0.0
  0
CIRCLE
  5
E2C
100
AcDbEntity
  8
MSL2_120_3F-0
100
AcDbCircle
 10
-15.0
 20
15.0
 30
0.0
 40
2.75
  0
CIRCLE
  5
E2D
100
AcDbEntity
  8
MSL2_120_3F-0
100
AcDbCircle
 10
15.0
 20
0.0
 30
0.0
 40
2.5
  0
CIRCLE
  5
E2E
100
AcDbEntity
  8
MSL2_120_3F-0
100
AcDbCircle
 10
0.0
 20
15.0
 30
0.0
 40
2.5
  0
CIRCLE
  5
E2F
100
AcDbEntity
  8
MSL2_120_3F-3
100
AcDbCircle
 10
15.0
 20
15.0
 30
0.0
 40
5.0
  0
CIRCLE
  5
E30
100
AcDbEntity
  8
MSL2_120_3F-0
100
AcDbCircle
 10
15.0
 20
15.0
 30
0.0
 40
2.75
  0
LINE
  5
E31
100
AcDbEntity
  8
MSL2_120_3F-7
100
AcDbLine
 10
-8.5
 20
50.0
 30
0.0
 11
8.5
 21
50.0
 31
0.0
  0
MTEXT
  5
E32
100
AcDbEntity
  8
MSL2_120_3F-6
100
AcDbMText
 10
-30.248415
 20
31.93689
 30
0.0
 40
3.5
 41
21.059228
 71
     1
 72
     1
  1
{MSL2-120-3F}
  0
LINE
  5
E33
100
AcDbEntity
  8
MSL2_120_3F-3
100
AcDbLine
 10
-31.167663
 20
43.428335
 30
0.0
 11
-31.810451
 21
44.194379
 31
0.0
  0
LINE
  5
E34
100
AcDbEntity
  8
MSL2_120_3F-3
100
AcDbLine
 10
-31.490914
 20
43.157095
 30
0.0
 11
-32.133702
 21
43.923139
 31
0.0
  0
LINE
  5
E35
100
AcDbEntity
  8
MSL2_120_3F-3
100
AcDbLine
 10
-27.033397
 20
48.202803
 30
0.0
 11
-19.319946
 21
39.010269
 31
0.0
  0
LINE
  5
E36
100
AcDbEntity
  8
MSL2_120_3F-3
100
AcDbLine
 10
-26.588498
 20
48.576118
 30
0.0
 11
-18.875047
 21
39.383584
 31
0.0
  0
LINE
  5
E37
100
AcDbEntity
  8
MSL2_120_3F-7
100
AcDbLine
 10
-25.23572
 20
53.627455
 30
0.0
 11
-11.730276
 21
37.532294
 31
0.0
  0
LINE
  5
E38
100
AcDbEntity
  8
MSL2_120_3F-3
100
AcDbLine
 10
-20.026217
 20
54.082526
 30
0.0
 11
-12.312765
 21
44.889992
 31
0.0
  0
LINE
  5
E39
100
AcDbEntity
  8
MSL2_120_3F-0
100
AcDbLine
 10
-33.342673
 20
45.519507
 30
0.0
 11
-32.057097
 21
43.987418
 31
0.0
  0
LINE
  5
E3A
100
AcDbEntity
  8
MSL2_120_3F-3
100
AcDbLine
 10
-19.581317
 20
54.455841
 30
0.0
 11
-11.867866
 21
45.263307
 31
0.0
  0
LINE
  5
E3B
100
AcDbEntity
  8
MSL2_120_3F-3
100
AcDbLine
 10
-14.314685
 20
57.569662
 30
0.0
 11
-14.957473
 21
58.335707
 31
0.0
  0
LINE
  5
E3C
100
AcDbEntity
  8
MSL2_120_3F-3
100
AcDbLine
 10
20.026217
 20
54.082526
 30
0.0
 11
12.312765
 21
44.889992
 31
0.0
  0
LINE
  5
E3D
100
AcDbEntity
  8
MSL2_120_3F-3
100
AcDbLine
 10
19.581317
 20
54.455841
 30
0.0
 11
11.867866
 21
45.263307
 31
0.0
  0
LINE
  5
E3E
100
AcDbEntity
  8
MSL2_120_3F-0
100
AcDbLine
 10
14.314685
 20
57.569662
 30
0.0
 11
14.957473
 21
58.335707
 31
0.0
  0
LINE
  5
E3F
100
AcDbEntity
  8
MSL2_120_3F-7
100
AcDbLine
 10
140.331957
 20
-119.221056
 30
0.0
 11
163.451175
 21
-119.221056
 31
0.0
  0
LINE
  5
E40
100
AcDbEntity
  8
MSL2_120_3F-7
100
AcDbLine
 10
140.331957
 20
-149.221056
 30
0.0
 11
163.451175
 21
-149.221056
 31
0.0
  0
LINE
  5
E41
100
AcDbEntity
  8
MSL2_120_3F-7
100
AcDbLine
 10
184.34181
 20
-106.721056
 30
0.0
 11
140.456342
 21
-106.721056
 31
0.0
  0
LINE
  5
E42
100
AcDbEntity
  8
MSL2_120_3F-7
100
AcDbLine
 10
184.34181
 20
-161.721056
 30
0.0
 11
140.456342
 21
-161.721056
 31
0.0
  0
LINE
  5
E43
100
AcDbEntity
  8
MSL2_120_3F-7
100
AcDbLine
 10
209.180842
 20
-164.563729
 30
0.0
 11
209.180842
 21
-178.990217
 31
0.0
1001
GENIUS_GENODEF_13
1002
{
1000
HIER
1070
     0
1002
}
1002
{
1000
MANEDIT
1070
     0
1002
}
1002
{
1000
NOSEL
1070
     0
1002
}
1002
{
1000
BEHIND
1070
     0
1002
}
1002
{
1000
REACTOR
1002
}
1001
GENIUS_GENOBJ-N-CEN_13
1002
{
1000
OWNER
1000
GEN
1002
}
  0
LINE
  5
E44
100
AcDbEntity
  8
MSL2_120_3F-0
100
AcDbLine
 10
181.180842
 20
-119.906371
 30
0.0
 11
181.180842
 21
-173.221056
 31
0.0
  0
LINE
  5
E45
100
AcDbEntity
  8
MSL2_120_3F-0
100
AcDbLine
 10
143.680842
 20
-175.221056
 30
0.0
 11
143.680842
 21
-93.221056
 31
0.0
  0
LINE
  5
E46
100
AcDbEntity
  8
MSL2_120_3F-0
100
AcDbLine
 10
159.680842
 20
-93.221056
 30
0.0
 11
159.680842
 21
-175.221056
 31
0.0
  0
LINE
  5
E47
100
AcDbEntity
  8
MSL2_120_3F-0
100
AcDbLine
 10
180.680842
 20
-174.221056
 30
0.0
 11
180.680842
 21
-94.221056
 31
0.0
  0
LINE
  5
E48
100
AcDbEntity
  8
MSL2_120_3F-7
100
AcDbLine
 10
148.680842
 20
-159.827673
 30
0.0
 11
148.680842
 21
-178.221056
 31
0.0
  0
LINE
  5
E49
100
AcDbEntity
  8
MSL2_120_3F-7
100
AcDbLine
 10
148.680842
 20
-159.827673
 30
0.0
 11
148.680842
 21
-178.221056
 31
0.0
  0
LINE
  5
E4A
100
AcDbEntity
  8
MSL2_120_3F-3
100
AcDbLine
 10
150.747842
 20
-175.221056
 30
0.0
 11
150.747842
 21
-164.021056
 31
0.0
  0
LINE
  5
E4B
100
AcDbEntity
  8
MSL2_120_3F-3
100
AcDbLine
 10
150.747842
 20
-175.221056
 30
0.0
 11
150.747842
 21
-164.021056
 31
0.0
  0
LINE
  5
E4C
100
AcDbEntity
  8
MSL2_120_3F-3
100
AcDbLine
 10
146.613842
 20
-175.221056
 30
0.0
 11
146.613842
 21
-164.021056
 31
0.0
  0
LINE
  5
E4D
100
AcDbEntity
  8
MSL2_120_3F-3
100
AcDbLine
 10
146.613842
 20
-175.221056
 30
0.0
 11
146.613842
 21
-164.021056
 31
0.0
  0
LINE
  5
E4E
100
AcDbEntity
  8
MSL2_120_3F-0
100
AcDbLine
 10
163.680842
 20
-156.091891
 30
0.0
 11
163.680842
 21
-167.350221
 31
0.0
  0
ARC
  5
E4F
100
AcDbEntity
  8
MSL2_120_3F-0
100
AcDbCircle
 10
167.390564
 20
-161.721056
 30
0.0
 40
7.709722
100
AcDbArc
 50
150.872218
 51
209.127782
  0
ARC
  5
E50
100
AcDbEntity
  8
MSL2_120_3F-0
100
AcDbCircle
 10
155.971119
 20
-161.721056
 30
0.0
 40
7.709722
100
AcDbArc
 50
330.872216
 51
29.127784
  0
LINE
  5
E51
100
AcDbEntity
  8
MSL2_120_3F-0
100
AcDbLine
 10
173.730842
 20
-154.215503
 30
0.0
 11
173.730842
 21
-169.226609
 31
0.0
  0
LINE
  5
E52
100
AcDbEntity
  8
MSL2_120_3F-0
100
AcDbLine
 10
177.680842
 20
-169.082272
 30
0.0
 11
177.680842
 21
-154.35984
 31
0.0
  0
LINE
  5
E53
100
AcDbEntity
  8
MSL2_120_3F-0
100
AcDbLine
 10
177.680842
 20
-156.091891
 30
0.0
 11
177.680842
 21
-167.350221
 31
0.0
  0
ARC
  5
E54
100
AcDbEntity
  8
MSL2_120_3F-0
100
AcDbCircle
 10
188.315564
 20
-161.721056
 30
0.0
 40
10.634722
100
AcDbArc
 50
152.518773
 51
207.481227
  0
LINE
  5
E55
100
AcDbEntity
  8
MSL2_120_3F-0
100
AcDbLine
 10
173.730842
 20
-157.721056
 30
0.0
 11
173.730842
 21
-165.721056
 31
0.0
  0
ARC
  5
E56
100
AcDbEntity
  8
MSL2_120_3F-0
100
AcDbCircle
 10
168.658432
 20
-161.721056
 30
0.0
 40
9.02241
100
AcDbArc
 50
335.421502
 51
24.578498
  0
LINE
  5
E57
100
AcDbEntity
  8
MSL2_120_3F-0
100
AcDbLine
 10
204.013992
 20
-173.221056
 30
0.0
 11
181.180842
 21
-173.221056
 31
0.0
  0
LINE
  5
E58
100
AcDbEntity
  8
MSL2_120_3F-0
100
AcDbLine
 10
204.700824
 20
-174.221056
 30
0.0
 11
180.680842
 21
-174.221056
 31
0.0
  0
LINE
  5
E59
100
AcDbEntity
  8
MSL2_120_3F-0
100
AcDbLine
 10
163.680842
 20
-165.721056
 30
0.0
 11
173.730842
 21
-165.721056
 31
0.0
  0
LINE
  5
E5A
100
AcDbEntity
  8
MSL2_120_3F-0
100
AcDbLine
 10
173.730842
 20
-167.721056
 30
0.0
 11
163.650657
 21
-167.721056
 31
0.0
  0
LINE
  5
E5B
100
AcDbEntity
  8
MSL2_120_3F-0
100
AcDbLine
 10
159.680842
 20
-175.221056
 30
0.0
 11
143.680842
 21
-175.221056
 31
0.0
  0
LINE
  5
E5C
100
AcDbEntity
  8
MSL2_120_3F-3
100
AcDbLine
 10
146.180842
 20
-175.221056
 30
0.0
 11
146.180842
 21
-167.221056
 31
0.0
  0
LINE
  5
E5D
100
AcDbEntity
  8
MSL2_120_3F-3
100
AcDbLine
 10
146.180842
 20
-175.221056
 30
0.0
 11
146.180842
 21
-167.221056
 31
0.0
  0
LINE
  5
E5E
100
AcDbEntity
  8
MSL2_120_3F-3
100
AcDbLine
 10
151.180842
 20
-175.221056
 30
0.0
 11
151.180842
 21
-167.221056
 31
0.0
  0
LINE
  5
E5F
100
AcDbEntity
  8
MSL2_120_3F-3
100
AcDbLine
 10
151.180842
 20
-175.221056
 30
0.0
 11
151.180842
 21
-167.221056
 31
0.0
  0
LINE
  5
E60
100
AcDbEntity
  8
MSL2_120_3F-3
100
AcDbLine
 10
151.180842
 20
-167.221056
 30
0.0
 11
146.180842
 21
-167.221056
 31
0.0
  0
LINE
  5
E61
100
AcDbEntity
  8
MSL2_120_3F-3
100
AcDbLine
 10
151.180842
 20
-167.221056
 30
0.0
 11
146.180842
 21
-167.221056
 31
0.0
  0
ARC
  5
E62
100
AcDbEntity
  8
MSL2_120_3F-0
100
AcDbCircle
 10
161.387786
 20
-167.350221
 30
0.0
 40
2.293056
100
AcDbArc
 50
305.085847
 51
54.914153
  0
LINE
  5
E63
100
AcDbEntity
  8
MSL2_120_3F-0
100
AcDbLine
 10
160.655842
 20
-165.473833
 30
0.0
 11
162.705842
 21
-165.473833
 31
0.0
  0
LINE
  5
E64
100
AcDbEntity
  8
MSL2_120_3F-0
100
AcDbLine
 10
160.655842
 20
-169.226609
 30
0.0
 11
162.705842
 21
-169.226609
 31
0.0
  0
ARC
  5
E65
100
AcDbEntity
  8
MSL2_120_3F-0
100
AcDbCircle
 10
161.973897
 20
-167.350221
 30
0.0
 40
2.293056
100
AcDbArc
 50
125.085848
 51
234.914152
  0
ARC
  5
E66
100
AcDbEntity
  8
MSL2_120_3F-0
100
AcDbCircle
 10
180.789522
 20
-169.082272
 30
0.0
 40
3.108681
100
AcDbArc
 50
127.878144
 51
232.121856
  0
LINE
  5
E67
100
AcDbEntity
  8
MSL2_120_3F-0
100
AcDbLine
 10
176.863342
 20
-165.473833
 30
0.0
 11
173.730842
 21
-165.473833
 31
0.0
  0
LINE
  5
E68
100
AcDbEntity
  8
MSL2_120_3F-0
100
AcDbLine
 10
173.730842
 20
-169.226609
 30
0.0
 11
176.863342
 21
-169.226609
 31
0.0
  0
ARC
  5
E69
100
AcDbEntity
  8
MSL2_120_3F-0
100
AcDbCircle
 10
175.118677
 20
-167.350221
 30
0.0
 40
2.562165
100
AcDbArc
 50
312.916662
 51
47.083338
  0
LINE
  5
E6A
100
AcDbEntity
  8
MSL2_120_3F-0
100
AcDbLine
 10
178.880842
 20
-171.536011
 30
0.0
 11
180.680842
 21
-171.536011
 31
0.0
  0
LINE
  5
E6B
100
AcDbEntity
  8
MSL2_120_3F-0
100
AcDbLine
 10
178.880842
 20
-166.628533
 30
0.0
 11
180.680842
 21
-166.628533
 31
0.0
  0
ARC
  5
E6C
100
AcDbEntity
  8
MSL2_120_3F-0
100
AcDbCircle
 10
230.180842
 20
-176.721056
 30
0.0
 40
1.5
100
AcDbArc
 50
180.0
 51
269.999999
  0
ELLIPSE
  5
E6D
100
AcDbEntity
  8
MSL2_120_3F-0
100
AcDbEllipse
 10
209.180839
 20
-170.041455
 30
0.0
 11
5.499999999998895
 21
0.0000090659728525
 31
0.0
210
0.0
220
0.0
230
-1.0
 40
0.766044
 41
3.141592653589787
 42
6.283185307179817
  0
ELLIPSE
  5
E6E
100
AcDbEntity
  8
MSL2_120_3F-0
100
AcDbEllipse
 10
209.180842
 20
-171.776973
 30
0.0
 11
5.500000000006366
 21
0.0
 31
0.0
210
0.0
220
0.0
230
1.0
 40
0.766044
 41
0.0
 42
6.2831853071796
  0
LINE
  5
E6F
100
AcDbEntity
  8
MSL2_120_3F-7
100
AcDbLine
 10
200.680842
 20
-171.776984
 30
0.0
 11
217.680842
 21
-171.77697
 31
0.0
1001
GENIUS_GENODEF_13
1002
{
1000
HIER
1070
     0
1002
}
1002
{
1000
MANEDIT
1070
     0
1002
}
1002
{
1000
NOSEL
1070
     0
1002
}
1002
{
1000
BEHIND
1070
     0
1002
}
1002
{
1000
REACTOR
1002
}
1001
GENIUS_GENOBJ-N-CEN_13
1002
{
1000
OWNER
1000
GEN
1002
}
  0
ELLIPSE
  5
E70
100
AcDbEntity
  8
MSL2_120_3F-0
100
AcDbEllipse
 10
209.180842
 20
-171.776973
 30
0.0
 11
2.000000000006366
 21
0.0
 31
0.0
210
0.0
220
0.0
230
1.0
 40
0.766044
 41
0.0
 42
6.2831853071796
  0
LINE
  5
E71
100
AcDbEntity
  8
MSL2_120_3F-0
100
AcDbLine
 10
207.180842
 20
-171.776991
 30
0.0
 11
209.180844
 21
-173.062557
 31
0.0
  0
LINE
  5
E72
100
AcDbEntity
  8
MSL2_120_3F-0
100
AcDbLine
 10
203.680839
 20
-170.041455
 30
0.0
 11
203.680842
 21
-171.777
 31
0.0
  0
LINE
  5
E73
100
AcDbEntity
  8
MSL2_120_3F-0
100
AcDbLine
 10
209.180844
 20
-173.062557
 30
0.0
 11
211.180842
 21
-171.776979
 31
0.0
  0
LINE
  5
E74
100
AcDbEntity
  8
MSL2_120_3F-7
100
AcDbLine
 10
221.180842
 20
-171.522672
 30
0.0
 11
221.180842
 21
-180.21389
 31
0.0
  0
LINE
  5
E75
100
AcDbEntity
  8
MSL2_120_3F-0
100
AcDbLine
 10
228.680842
 20
-176.721056
 30
0.0
 11
228.680842
 21
-174.221056
 31
0.0
  0
LINE
  5
E76
100
AcDbEntity
  8
MSL2_120_3F-0
100
AcDbLine
 10
226.680842
 20
-174.221056
 30
0.0
 11
226.680842
 21
-176.721056
 31
0.0
  0
LINE
  5
E77
100
AcDbEntity
  8
MSL2_120_3F-0
100
AcDbLine
 10
215.680842
 20
-176.721056
 30
0.0
 11
215.680842
 21
-174.221056
 31
0.0
  0
LINE
  5
E78
100
AcDbEntity
  8
MSL2_120_3F-0
100
AcDbLine
 10
225.180842
 20
-178.221056
 30
0.0
 11
217.180842
 21
-178.221056
 31
0.0
  0
ARC
  5
E79
100
AcDbEntity
  8
MSL2_120_3F-0
100
AcDbCircle
 10
217.180842
 20
-176.721056
 30
0.0
 40
1.5
100
AcDbArc
 50
180.0
 51
269.999999
  0
ARC
  5
E7A
100
AcDbEntity
  8
MSL2_120_3F-0
100
AcDbCircle
 10
225.180842
 20
-176.721056
 30
0.0
 40
1.5
100
AcDbArc
 50
269.999999
 51
0.000002
  0
LINE
  5
E7B
100
AcDbEntity
  8
MSL2_120_3F-0
100
AcDbLine
 10
214.680839
 20
-170.041446
 30
0.0
 11
214.680842
 21
-171.776973
 31
0.0
  0
LINE
  5
E7C
100
AcDbEntity
  8
MSL2_120_3F-7
100
AcDbLine
 10
234.180842
 20
-171.522672
 30
0.0
 11
234.180842
 21
-180.21389
 31
0.0
  0
LINE
  5
E7D
100
AcDbEntity
  8
MSL2_120_3F-0
100
AcDbLine
 10
239.680842
 20
-174.221056
 30
0.0
 11
239.680842
 21
-176.721056
 31
0.0
  0
LINE
  5
E7E
100
AcDbEntity
  8
MSL2_120_3F-0
100
AcDbLine
 10
238.180842
 20
-178.221056
 30
0.0
 11
230.180842
 21
-178.221056
 31
0.0
  0
ARC
  5
E7F
100
AcDbEntity
  8
MSL2_120_3F-0
100
AcDbCircle
 10
238.180842
 20
-176.721056
 30
0.0
 40
1.5
100
AcDbArc
 50
269.999999
 51
0.000002
  0
LINE
  5
E80
100
AcDbEntity
  8
MSL2_120_3F-0
100
AcDbLine
 10
181.180842
 20
-103.053393
 30
0.0
 11
200.880842
 21
-103.053393
 31
0.0
  0
LINE
  5
E81
100
AcDbEntity
  8
MSL2_120_3F-0
100
AcDbLine
 10
200.880842
 20
-119.906371
 30
0.0
 11
181.180842
 21
-119.906371
 31
0.0
  0
MTEXT
  5
E82
100
AcDbEntity
  8
MSL2_120_3F-6
100
AcDbMText
 10
182.520053
 20
-141.713945
 30
0.0
 40
3.5
 41
27.367041
 71
     1
 72
     1
  1
{MSL2-120-3F}
  0
LINE
  5
E83
100
AcDbEntity
  8
MSL2_120_3F-0
100
AcDbLine
 10
166.680842
 20
-128.221056
 30
0.0
 11
166.680842
 21
-125.221056
 31
0.0
1001
GENIUS_GENOREF_13
1005
120F
  0
LINE
  5
E84
100
AcDbEntity
  8
MSL2_120_3F-0
100
AcDbLine
 10
165.680842
 20
-128.221056
 30
0.0
 11
165.680842
 21
-126.221056
 31
0.0
1001
GENIUS_GENOREF_13
1005
120F
  0
LINE
  5
E85
100
AcDbEntity
  8
MSL2_120_3F-0
100
AcDbLine
 10
163.650657
 20
-155.721056
 30
0.0
 11
173.730842
 21
-155.721056
 31
0.0
  0
LINE
  5
E86
100
AcDbEntity
  8
MSL2_120_3F-0
100
AcDbLine
 10
173.730842
 20
-157.721056
 30
0.0
 11
163.680842
 21
-157.721056
 31
0.0
  0
LINE
  5
E87
100
AcDbEntity
  8
MSL2_120_3F-0
100
AcDbLine
 10
159.680842
 20
-140.221056
 30
0.0
 11
180.680842
 21
-140.221056
 31
0.0
  0
LINE
  5
E88
100
AcDbEntity
  8
MSL2_120_3F-0
100
AcDbLine
 10
180.680842
 20
-128.221056
 30
0.0
 11
159.680842
 21
-128.221056
 31
0.0
  0
LINE
  5
E89
100
AcDbEntity
  8
MSL2_120_3F-0
100
AcDbLine
 10
180.680842
 20
-143.221056
 30
0.0
 11
166.680842
 21
-143.221056
 31
0.0
  0
CIRCLE
  5
E8A
100
AcDbEntity
  8
MSL2_120_3F-3
100
AcDbCircle
 10
154.680842
 20
-159.221056
 30
0.0
 40
2.067
  0
ARC
  5
E8B
100
AcDbEntity
  8
MSL2_120_3F-3
100
AcDbCircle
 10
154.680842
 20
-159.221056
 30
0.0
 40
2.5
100
AcDbArc
 50
255.068583
 51
187.594643
  0
LINE
  5
E8C
100
AcDbEntity
  8
MSL2_120_3F-7
100
AcDbLine
 10
150.930842
 20
-159.221056
 30
0.0
 11
158.430842
 21
-159.221056
 31
0.0
  0
LINE
  5
E8D
100
AcDbEntity
  8
MSL2_120_3F-7
100
AcDbLine
 10
154.680842
 20
-155.471056
 30
0.0
 11
154.680842
 21
-162.971056
 31
0.0
  0
LINE
  5
E8E
100
AcDbEntity
  8
MSL2_120_3F-3
100
AcDbLine
 10
150.747842
 20
-164.021056
 30
0.0
 11
146.613842
 21
-164.021056
 31
0.0
  0
LINE
  5
E8F
100
AcDbEntity
  8
MSL2_120_3F-3
100
AcDbLine
 10
150.747842
 20
-164.021056
 30
0.0
 11
146.613842
 21
-164.021056
 31
0.0
  0
LINE
  5
E90
100
AcDbEntity
  8
MSL2_120_3F-3
100
AcDbLine
 10
148.680842
 20
-162.827673
 30
0.0
 11
150.747842
 21
-164.021056
 31
0.0
  0
LINE
  5
E91
100
AcDbEntity
  8
MSL2_120_3F-3
100
AcDbLine
 10
148.680842
 20
-162.827673
 30
0.0
 11
150.747842
 21
-164.021056
 31
0.0
  0
LINE
  5
E92
100
AcDbEntity
  8
MSL2_120_3F-3
100
AcDbLine
 10
148.680842
 20
-162.827673
 30
0.0
 11
146.613842
 21
-164.021056
 31
0.0
  0
LINE
  5
E93
100
AcDbEntity
  8
MSL2_120_3F-3
100
AcDbLine
 10
148.680842
 20
-162.827673
 30
0.0
 11
146.613842
 21
-164.021056
 31
0.0
  0
ARC
  5
E94
100
AcDbEntity
  8
MSL2_120_3F-0
100
AcDbCircle
 10
161.387786
 20
-156.091891
 30
0.0
 40
2.293056
100
AcDbArc
 50
305.085847
 51
54.914153
  0
ARC
  5
E95
100
AcDbEntity
  8
MSL2_120_3F-0
100
AcDbCircle
 10
161.973897
 20
-156.091891
 30
0.0
 40
2.293056
100
AcDbArc
 50
125.085848
 51
234.914152
  0
LINE
  5
E96
100
AcDbEntity
  8
MSL2_120_3F-0
100
AcDbLine
 10
160.655842
 20
-157.968279
 30
0.0
 11
162.705842
 21
-157.968279
 31
0.0
  0
LINE
  5
E97
100
AcDbEntity
  8
MSL2_120_3F-0
100
AcDbLine
 10
160.655842
 20
-154.215503
 30
0.0
 11
162.705842
 21
-154.215503
 31
0.0
  0
LINE
  5
E98
100
AcDbEntity
  8
MSL2_120_3F-0
100
AcDbLine
 10
143.680842
 20
-140.541026
 30
0.0
 11
159.680842
 21
-140.541026
 31
0.0
  0
LINE
  5
E99
100
AcDbEntity
  8
MSL2_120_3F-0
100
AcDbLine
 10
143.680842
 20
-127.901086
 30
0.0
 11
159.680842
 21
-127.901086
 31
0.0
  0
LINE
  5
E9A
100
AcDbEntity
  8
MSL2_120_3F-3
100
AcDbLine
 10
166.680842
 20
-140.221056
 30
0.0
 11
166.680842
 21
-128.221056
 31
0.0
1001
GENIUS_GENBH_13
1002
{
1000
OE
1000
CON1
1002
}
1001
GENIUS_GENOREF_13
1005
120F
  0
LINE
  5
E9B
100
AcDbEntity
  8
MSL2_120_3F-3
100
AcDbLine
 10
165.680842
 20
-140.221056
 30
0.0
 11
165.680842
 21
-128.221056
 31
0.0
1001
GENIUS_GENBH_13
1002
{
1000
OE
1000
CON1
1002
}
1001
GENIUS_GENOREF_13
1005
120F
  0
LINE
  5
E9C
100
AcDbEntity
  8
MSL2_120_3F-3
100
AcDbLine
 10
165.680842
 20
-137.221056
 30
0.0
 11
159.680842
 21
-137.221056
 31
0.0
1001
GENIUS_GENBH_13
1002
{
1000
OE
1000
CON1
1002
}
1001
GENIUS_GENOREF_13
1005
120F
  0
LINE
  5
E9D
100
AcDbEntity
  8
MSL2_120_3F-0
100
AcDbLine
 10
166.680842
 20
-143.221056
 30
0.0
 11
166.680842
 21
-140.221056
 31
0.0
1001
GENIUS_GENOREF_13
1005
120F
  0
LINE
  5
E9E
100
AcDbEntity
  8
MSL2_120_3F-0
100
AcDbLine
 10
165.680842
 20
-142.221056
 30
0.0
 11
165.680842
 21
-140.221056
 31
0.0
1001
GENIUS_GENOREF_13
1005
120F
  0
LINE
  5
E9F
100
AcDbEntity
  8
MSL2_120_3F-0
100
AcDbLine
 10
166.680842
 20
-143.221056
 30
0.0
 11
165.680842
 21
-142.221056
 31
0.0
  0
LINE
  5
EA0
100
AcDbEntity
  8
MSL2_120_3F-3
100
AcDbLine
 10
159.680842
 20
-131.221056
 30
0.0
 11
165.680842
 21
-131.221056
 31
0.0
1001
GENIUS_GENBH_13
1002
{
1000
OE
1000
CON1
1002
}
1001
GENIUS_GENOREF_13
1005
120F
  0
ARC
  5
EA1
100
AcDbEntity
  8
MSL2_120_3F-0
100
AcDbCircle
 10
175.118677
 20
-156.091891
 30
0.0
 40
2.562165
100
AcDbArc
 50
312.916662
 51
47.083338
  0
ARC
  5
EA2
100
AcDbEntity
  8
MSL2_120_3F-0
100
AcDbCircle
 10
180.789522
 20
-154.35984
 30
0.0
 40
3.108681
100
AcDbArc
 50
127.878144
 51
232.121856
  0
LINE
  5
EA3
100
AcDbEntity
  8
MSL2_120_3F-0
100
AcDbLine
 10
176.863342
 20
-157.968279
 30
0.0
 11
173.730842
 21
-157.968279
 31
0.0
  0
LINE
  5
EA4
100
AcDbEntity
  8
MSL2_120_3F-0
100
AcDbLine
 10
178.880842
 20
-156.813579
 30
0.0
 11
180.680842
 21
-156.813579
 31
0.0
  0
LINE
  5
EA5
100
AcDbEntity
  8
MSL2_120_3F-0
100
AcDbLine
 10
176.863342
 20
-154.215503
 30
0.0
 11
173.730842
 21
-154.215503
 31
0.0
  0
LINE
  5
EA6
100
AcDbEntity
  8
MSL2_120_3F-0
100
AcDbLine
 10
178.880842
 20
-151.906101
 30
0.0
 11
180.680842
 21
-151.906101
 31
0.0
  0
LINE
  5
EA7
100
AcDbEntity
  8
MSL2_120_3F-0
100
AcDbLine
 10
171.680842
 20
-104.671056
 30
0.0
 11
170.680842
 21
-104.671056
 31
0.0
  0
LINE
  5
EA8
100
AcDbEntity
  8
MSL2_120_3F-0
100
AcDbLine
 10
171.680842
 20
-108.771056
 30
0.0
 11
170.680842
 21
-108.771056
 31
0.0
  0
LINE
  5
EA9
100
AcDbEntity
  8
MSL2_120_3F-0
100
AcDbLine
 10
166.680842
 20
-125.221056
 30
0.0
 11
180.680842
 21
-125.221056
 31
0.0
  0
CIRCLE
  5
EAA
100
AcDbEntity
  8
MSL2_120_3F-3
100
AcDbCircle
 10
154.680842
 20
-109.221056
 30
0.0
 40
2.067
  0
ARC
  5
EAB
100
AcDbEntity
  8
MSL2_120_3F-3
100
AcDbCircle
 10
154.680842
 20
-109.221056
 30
0.0
 40
2.5
100
AcDbArc
 50
255.068583
 51
187.594643
  0
LINE
  5
EAC
100
AcDbEntity
  8
MSL2_120_3F-7
100
AcDbLine
 10
154.680842
 20
-105.471056
 30
0.0
 11
154.680842
 21
-112.971056
 31
0.0
  0
LINE
  5
EAD
100
AcDbEntity
  8
MSL2_120_3F-0
100
AcDbLine
 10
160.680842
 20
-112.721056
 30
0.0
 11
160.680842
 21
-100.721056
 31
0.0
  0
LINE
  5
EAE
100
AcDbEntity
  8
MSL2_120_3F-0
100
AcDbLine
 10
170.680842
 20
-100.721056
 30
0.0
 11
170.680842
 21
-112.721056
 31
0.0
  0
LINE
  5
EAF
100
AcDbEntity
  8
MSL2_120_3F-7
100
AcDbLine
 10
148.680842
 20
-108.614439
 30
0.0
 11
148.680842
 21
-90.221056
 31
0.0
  0
LINE
  5
EB0
100
AcDbEntity
  8
MSL2_120_3F-7
100
AcDbLine
 10
148.680842
 20
-108.614439
 30
0.0
 11
148.680842
 21
-90.221056
 31
0.0
  0
LINE
  5
EB1
100
AcDbEntity
  8
MSL2_120_3F-7
100
AcDbLine
 10
150.930842
 20
-109.221056
 30
0.0
 11
158.430842
 21
-109.221056
 31
0.0
  0
LINE
  5
EB2
100
AcDbEntity
  8
MSL2_120_3F-0
100
AcDbLine
 10
165.680842
 20
-126.221056
 30
0.0
 11
166.680842
 21
-125.221056
 31
0.0
  0
LINE
  5
EB3
100
AcDbEntity
  8
MSL2_120_3F-0
100
AcDbLine
 10
170.680842
 20
-112.721056
 30
0.0
 11
160.680842
 21
-112.721056
 31
0.0
  0
LINE
  5
EB4
100
AcDbEntity
  8
MSL2_120_3F-0
100
AcDbLine
 10
160.680842
 20
-112.721056
 30
0.0
 11
159.680842
 21
-111.721056
 31
0.0
  0
LINE
  5
EB5
100
AcDbEntity
  8
MSL2_120_3F-0
100
AcDbLine
 10
143.680842
 20
-93.221056
 30
0.0
 11
159.680842
 21
-93.221056
 31
0.0
  0
LINE
  5
EB6
100
AcDbEntity
  8
MSL2_120_3F-3
100
AcDbLine
 10
150.747842
 20
-93.221056
 30
0.0
 11
150.747842
 21
-104.421056
 31
0.0
  0
LINE
  5
EB7
100
AcDbEntity
  8
MSL2_120_3F-3
100
AcDbLine
 10
150.747842
 20
-93.221056
 30
0.0
 11
150.747842
 21
-104.421056
 31
0.0
  0
LINE
  5
EB8
100
AcDbEntity
  8
MSL2_120_3F-3
100
AcDbLine
 10
146.180842
 20
-93.221056
 30
0.0
 11
146.180842
 21
-101.221056
 31
0.0
  0
LINE
  5
EB9
100
AcDbEntity
  8
MSL2_120_3F-3
100
AcDbLine
 10
146.180842
 20
-93.221056
 30
0.0
 11
146.180842
 21
-101.221056
 31
0.0
  0
LINE
  5
EBA
100
AcDbEntity
  8
MSL2_120_3F-3
100
AcDbLine
 10
146.613842
 20
-93.221056
 30
0.0
 11
146.613842
 21
-104.421056
 31
0.0
  0
LINE
  5
EBB
100
AcDbEntity
  8
MSL2_120_3F-3
100
AcDbLine
 10
146.613842
 20
-93.221056
 30
0.0
 11
146.613842
 21
-104.421056
 31
0.0
  0
LINE
  5
EBC
100
AcDbEntity
  8
MSL2_120_3F-3
100
AcDbLine
 10
151.180842
 20
-93.221056
 30
0.0
 11
151.180842
 21
-101.221056
 31
0.0
  0
LINE
  5
EBD
100
AcDbEntity
  8
MSL2_120_3F-3
100
AcDbLine
 10
151.180842
 20
-93.221056
 30
0.0
 11
151.180842
 21
-101.221056
 31
0.0
  0
LINE
  5
EBE
100
AcDbEntity
  8
MSL2_120_3F-3
100
AcDbLine
 10
151.180842
 20
-101.221056
 30
0.0
 11
146.180842
 21
-101.221056
 31
0.0
  0
LINE
  5
EBF
100
AcDbEntity
  8
MSL2_120_3F-3
100
AcDbLine
 10
151.180842
 20
-101.221056
 30
0.0
 11
146.180842
 21
-101.221056
 31
0.0
  0
LINE
  5
EC0
100
AcDbEntity
  8
MSL2_120_3F-3
100
AcDbLine
 10
150.747842
 20
-104.421056
 30
0.0
 11
146.613842
 21
-104.421056
 31
0.0
  0
LINE
  5
EC1
100
AcDbEntity
  8
MSL2_120_3F-3
100
AcDbLine
 10
150.747842
 20
-104.421056
 30
0.0
 11
146.613842
 21
-104.421056
 31
0.0
  0
LINE
  5
EC2
100
AcDbEntity
  8
MSL2_120_3F-3
100
AcDbLine
 10
148.680842
 20
-105.614439
 30
0.0
 11
150.747842
 21
-104.421056
 31
0.0
  0
LINE
  5
EC3
100
AcDbEntity
  8
MSL2_120_3F-3
100
AcDbLine
 10
148.680842
 20
-105.614439
 30
0.0
 11
150.747842
 21
-104.421056
 31
0.0
  0
LINE
  5
EC4
100
AcDbEntity
  8
MSL2_120_3F-3
100
AcDbLine
 10
148.680842
 20
-105.614439
 30
0.0
 11
146.613842
 21
-104.421056
 31
0.0
  0
LINE
  5
EC5
100
AcDbEntity
  8
MSL2_120_3F-3
100
AcDbLine
 10
148.680842
 20
-105.614439
 30
0.0
 11
146.613842
 21
-104.421056
 31
0.0
  0
LINE
  5
EC6
100
AcDbEntity
  8
MSL2_120_3F-0
100
AcDbLine
 10
160.680842
 20
-100.721056
 30
0.0
 11
170.680842
 21
-100.721056
 31
0.0
  0
LINE
  5
EC7
100
AcDbEntity
  8
MSL2_120_3F-0
100
AcDbLine
 10
159.680842
 20
-101.721056
 30
0.0
 11
160.680842
 21
-100.721056
 31
0.0
  0
ELLIPSE
  5
EC8
100
AcDbEntity
  8
MSL2_120_3F-0
100
AcDbEllipse
 10
190.580842
 20
-110.913699
 30
0.0
 11
4.283225000000015
 21
0.0
 31
0.0
210
0.0
220
0.0
230
1.0
 40
0.766044
 41
0.0
 42
6.2831853071796
  0
ELLIPSE
  5
EC9
100
AcDbEntity
  8
MSL2_120_3F-4
100
AcDbEllipse
 10
190.580842
 20
-110.913699
 30
0.0
 11
4.863999999999975
 21
0.0
 31
0.0
210
0.0
220
0.0
230
1.0
 40
0.766044
 41
-1.637716455833807
 42
3.255308282467276
  0
LINE
  5
ECA
100
AcDbEntity
  8
MSL2_120_3F-7
100
AcDbLine
 10
190.580842
 20
-104.187659
 30
0.0
 11
190.580842
 21
-117.74074
 31
0.0
1001
GENIUS_GENODEF_13
1002
{
1000
HIER
1070
     0
1002
}
1002
{
1000
MANEDIT
1070
     0
1002
}
1002
{
1000
NOSEL
1070
     0
1002
}
1002
{
1000
BEHIND
1070
     0
1002
}
1002
{
1000
REACTOR
1002
}
1001
GENIUS_GENOBJ-N-CEN_13
1002
{
1000
OWNER
1000
GEN
1002
}
  0
LINE
  5
ECB
100
AcDbEntity
  8
MSL2_120_3F-0
100
AcDbLine
 10
172.680842
 20
-113.721056
 30
0.0
 11
172.680842
 21
-99.721056
 31
0.0
  0
LINE
  5
ECC
100
AcDbEntity
  8
MSL2_120_3F-0
100
AcDbLine
 10
171.680842
 20
-112.721056
 30
0.0
 11
171.680842
 21
-100.721056
 31
0.0
  0
LINE
  5
ECD
100
AcDbEntity
  8
MSL2_120_3F-7
100
AcDbLine
 10
182.716842
 20
-110.913699
 30
0.0
 11
198.444842
 21
-110.913699
 31
0.0
1001
GENIUS_GENODEF_13
1002
{
1000
HIER
1070
     0
1002
}
1002
{
1000
MANEDIT
1070
     0
1002
}
1002
{
1000
NOSEL
1070
     0
1002
}
1002
{
1000
BEHIND
1070
     0
1002
}
1002
{
1000
REACTOR
1002
}
1001
GENIUS_GENOBJ-N-CEN_13
1002
{
1000
OWNER
1000
GEN
1002
}
  0
LINE
  5
ECE
100
AcDbEntity
  8
MSL2_120_3F-0
100
AcDbLine
 10
180.680842
 20
-113.721056
 30
0.0
 11
172.680842
 21
-113.721056
 31
0.0
  0
LINE
  5
ECF
100
AcDbEntity
  8
MSL2_120_3F-0
100
AcDbLine
 10
172.680842
 20
-113.721056
 30
0.0
 11
171.680842
 21
-112.721056
 31
0.0
  0
LINE
  5
ED0
100
AcDbEntity
  8
MSL2_120_3F-0
100
AcDbLine
 10
181.180842
 20
-95.221056
 30
0.0
 11
181.180842
 21
-103.053393
 31
0.0
  0
LINE
  5
ED1
100
AcDbEntity
  8
MSL2_120_3F-0
100
AcDbLine
 10
172.680842
 20
-99.721056
 30
0.0
 11
180.680842
 21
-99.721056
 31
0.0
  0
LINE
  5
ED2
100
AcDbEntity
  8
MSL2_120_3F-0
100
AcDbLine
 10
171.680842
 20
-100.721056
 30
0.0
 11
172.680842
 21
-99.721056
 31
0.0
  0
LINE
  5
ED3
100
AcDbEntity
  8
MSL2_120_3F-7
100
AcDbLine
 10
240.680842
 20
-122.76929
 30
0.0
 11
240.680842
 21
-145.585862
 31
0.0
  0
LINE
  5
ED4
100
AcDbEntity
  8
MSL2_120_3F-7
100
AcDbLine
 10
221.930842
 20
-149.221056
 30
0.0
 11
229.430842
 21
-149.221056
 31
0.0
  0
LINE
  5
ED5
100
AcDbEntity
  8
MSL2_120_3F-7
100
AcDbLine
 10
225.680842
 20
-152.971056
 30
0.0
 11
225.680842
 21
-145.471056
 31
0.0
  0
ARC
  5
ED6
100
AcDbEntity
  8
MSL2_120_3F-3
100
AcDbCircle
 10
225.680842
 20
-149.221056
 30
0.0
 40
2.5
100
AcDbArc
 50
172.405357
 51
104.931417
  0
CIRCLE
  5
ED7
100
AcDbEntity
  8
MSL2_120_3F-3
100
AcDbCircle
 10
225.680842
 20
-149.221056
 30
0.0
 40
2.067
  0
LINE
  5
ED8
100
AcDbEntity
  8
MSL2_120_3F-7
100
AcDbLine
 10
240.680842
 20
-149.221056
 30
0.0
 11
240.680842
 21
-145.613862
 31
0.0
  0
LINE
  5
ED9
100
AcDbEntity
  8
MSL2_120_3F-7
100
AcDbLine
 10
255.680842
 20
-152.971056
 30
0.0
 11
255.680842
 21
-145.471056
 31
0.0
  0
LINE
  5
EDA
100
AcDbEntity
  8
MSL2_120_3F-7
100
AcDbLine
 10
240.680842
 20
-149.221056
 30
0.0
 11
244.288036
 21
-149.221056
 31
0.0
  0
LINE
  5
EDB
100
AcDbEntity
  8
MSL2_120_3F-7
100
AcDbLine
 10
240.680842
 20
-149.221056
 30
0.0
 11
240.680842
 21
-152.82825
 31
0.0
  0
CIRCLE
  5
EDC
100
AcDbEntity
  8
MSL2_120_3F-3
100
AcDbCircle
 10
240.680842
 20
-149.221056
 30
0.0
 40
2.5
  0
LINE
  5
EDD
100
AcDbEntity
  8
MSL2_120_3F-7
100
AcDbLine
 10
240.680842
 20
-149.221056
 30
0.0
 11
237.073648
 21
-149.221056
 31
0.0
  0
CIRCLE
  5
EDE
100
AcDbEntity
  8
MSL2_120_3F-3
100
AcDbCircle
 10
255.680842
 20
-149.221056
 30
0.0
 40
2.067
  0
ARC
  5
EDF
100
AcDbEntity
  8
MSL2_120_3F-3
100
AcDbCircle
 10
255.680842
 20
-149.221056
 30
0.0
 40
2.5
100
AcDbArc
 50
172.405357
 51
104.931417
  0
LINE
  5
EE0
100
AcDbEntity
  8
MSL2_120_3F-7
100
AcDbLine
 10
221.930842
 20
-119.221056
 30
0.0
 11
229.430842
 21
-119.221056
 31
0.0
  0
LINE
  5
EE1
100
AcDbEntity
  8
MSL2_120_3F-0
100
AcDbLine
 10
200.880842
 20
-103.053393
 30
0.0
 11
200.880842
 21
-119.906371
 31
0.0
  0
CIRCLE
  5
EE2
100
AcDbEntity
  8
MSL2_120_3F-3
100
AcDbCircle
 10
225.680842
 20
-119.221056
 30
0.0
 40
2.067
  0
ARC
  5
EE3
100
AcDbEntity
  8
MSL2_120_3F-3
100
AcDbCircle
 10
225.680842
 20
-119.221056
 30
0.0
 40
2.5
100
AcDbArc
 50
172.405357
 51
104.931417
  0
LINE
  5
EE4
100
AcDbEntity
  8
MSL2_120_3F-7
100
AcDbLine
 10
225.680842
 20
-122.971056
 30
0.0
 11
225.680842
 21
-115.471056
 31
0.0
  0
LINE
  5
EE5
100
AcDbEntity
  8
MSL2_120_3F-7
100
AcDbLine
 10
240.680842
 20
-119.221056
 30
0.0
 11
244.154336
 21
-119.221056
 31
0.0
  0
LINE
  5
EE6
100
AcDbEntity
  8
MSL2_120_3F-7
100
AcDbLine
 10
240.680842
 20
-119.221056
 30
0.0
 11
240.680842
 21
-115.747562
 31
0.0
  0
CIRCLE
  5
EE7
100
AcDbEntity
  8
MSL2_120_3F-3
100
AcDbCircle
 10
240.680842
 20
-119.255273
 30
0.0
 40
2.5
  0
LINE
  5
EE8
100
AcDbEntity
  8
MSL2_120_3F-7
100
AcDbLine
 10
240.680842
 20
-119.221056
 30
0.0
 11
240.680842
 21
-122.69455
 31
0.0
  0
LINE
  5
EE9
100
AcDbEntity
  8
MSL2_120_3F-7
100
AcDbLine
 10
240.680842
 20
-119.221056
 30
0.0
 11
237.207347
 21
-119.221056
 31
0.0
  0
CIRCLE
  5
EEA
100
AcDbEntity
  8
MSL2_120_3F-3
100
AcDbCircle
 10
255.680842
 20
-119.221056
 30
0.0
 40
2.067
  0
LINE
  5
EEB
100
AcDbEntity
  8
MSL2_120_3F-7
100
AcDbLine
 10
255.680842
 20
-122.971056
 30
0.0
 11
255.680842
 21
-115.471056
 31
0.0
  0
ARC
  5
EEC
100
AcDbEntity
  8
MSL2_120_3F-3
100
AcDbCircle
 10
255.680842
 20
-119.221056
 30
0.0
 40
2.5
100
AcDbArc
 50
172.405357
 51
104.931417
  0
LINE
  5
EED
100
AcDbEntity
  8
MSL2_120_3F-7
100
AcDbLine
 10
140.680842
 20
15.0
 30
0.0
 11
162.268808
 21
15.0
 31
0.0
  0
LINE
  5
EEE
100
AcDbEntity
  8
MSL2_120_3F-7
100
AcDbLine
 10
186.244409
 20
50.0
 30
0.0
 11
140.456342
 21
50.0
 31
0.0
  0
LINE
  5
EEF
100
AcDbEntity
  8
MSL2_120_3F-7
100
AcDbLine
 10
186.244409
 20
0.0
 30
0.0
 11
140.456342
 21
0.0
 31
0.0
  0
LINE
  5
EF0
100
AcDbEntity
  8
MSL2_120_3F-7
100
AcDbLine
 10
140.680842
 20
-15.0
 30
0.0
 11
162.268808
 21
-15.0
 31
0.0
  0
LINE
  5
EF1
100
AcDbEntity
  8
MSL2_120_3F-3
100
AcDbLine
 10
33.0
 20
-12.5
 30
0.0
 11
33.0
 21
-17.5
 31
0.0
  0
LINE
  5
EF2
100
AcDbEntity
  8
MSL2_120_3F-3
100
AcDbLine
 10
33.0
 20
-12.5
 30
0.0
 11
33.0
 21
-17.5
 31
0.0
  0
LINE
  5
EF3
100
AcDbEntity
  8
MSL2_120_3F-3
100
AcDbLine
 10
29.8
 20
-12.933
 30
0.0
 11
29.8
 21
-17.067
 31
0.0
  0
LINE
  5
EF4
100
AcDbEntity
  8
MSL2_120_3F-3
100
AcDbLine
 10
29.8
 20
-12.933
 30
0.0
 11
29.8
 21
-17.067
 31
0.0
  0
LINE
  5
EF5
100
AcDbEntity
  8
MSL2_120_3F-3
100
AcDbLine
 10
27.5
 20
-21.0
 30
0.0
 11
27.5
 21
-13.0
 31
0.0
  0
LINE
  5
EF6
100
AcDbEntity
  8
MSL2_120_3F-3
100
AcDbLine
 10
27.5
 20
-21.0
 30
0.0
 11
27.5
 21
-13.0
 31
0.0
  0
LINE
  5
EF7
100
AcDbEntity
  8
MSL2_120_3F-3
100
AcDbLine
 10
28.606617
 20
-15.0
 30
0.0
 11
29.8
 21
-12.933
 31
0.0
  0
LINE
  5
EF8
100
AcDbEntity
  8
MSL2_120_3F-3
100
AcDbLine
 10
28.606617
 20
-15.0
 30
0.0
 11
29.8
 21
-12.933
 31
0.0
  0
LINE
  5
EF9
100
AcDbEntity
  8
MSL2_120_3F-3
100
AcDbLine
 10
27.067
 20
-21.0
 30
0.0
 11
27.067
 21
-9.8
 31
0.0
  0
LINE
  5
EFA
100
AcDbEntity
  8
MSL2_120_3F-3
100
AcDbLine
 10
27.067
 20
-21.0
 30
0.0
 11
27.067
 21
-9.8
 31
0.0
  0
LINE
  5
EFB
100
AcDbEntity
  8
MSL2_120_3F-7
100
AcDbLine
 10
25.0
 20
-5.606617
 30
0.0
 11
25.0
 21
-23.0
 31
0.0
  0
LINE
  5
EFC
100
AcDbEntity
  8
MSL2_120_3F-7
100
AcDbLine
 10
25.0
 20
-5.606617
 30
0.0
 11
25.0
 21
-24.0
 31
0.0
  0
LINE
  5
EFD
100
AcDbEntity
  8
MSL2_120_3F-0
100
AcDbLine
 10
41.0
 20
34.9
 30
0.0
 11
41.0
 21
-21.0
 31
0.0
  0
LINE
  5
EFE
100
AcDbEntity
  8
MSL2_120_3F-3
100
AcDbLine
 10
40.0
 20
-20.0
 30
0.0
 11
40.0
 21
20.0
 31
0.0
  0
LINE
  5
EFF
100
AcDbEntity
  8
MSL2_120_3F-3
100
AcDbLine
 10
41.0
 20
-17.067
 30
0.0
 11
29.8
 21
-17.067
 31
0.0
  0
LINE
  5
F00
100
AcDbEntity
  8
MSL2_120_3F-3
100
AcDbLine
 10
41.0
 20
-17.067
 30
0.0
 11
29.8
 21
-17.067
 31
0.0
  0
LINE
  5
F01
100
AcDbEntity
  8
MSL2_120_3F-3
100
AcDbLine
 10
41.0
 20
-17.5
 30
0.0
 11
33.0
 21
-17.5
 31
0.0
  0
LINE
  5
F02
100
AcDbEntity
  8
MSL2_120_3F-3
100
AcDbLine
 10
41.0
 20
-17.5
 30
0.0
 11
33.0
 21
-17.5
 31
0.0
  0
LINE
  5
F03
100
AcDbEntity
  8
MSL2_120_3F-7
100
AcDbLine
 10
25.606617
 20
-15.0
 30
0.0
 11
44.0
 21
-15.0
 31
0.0
  0
LINE
  5
F04
100
AcDbEntity
  8
MSL2_120_3F-7
100
AcDbLine
 10
25.606617
 20
-15.0
 30
0.0
 11
44.0
 21
-15.0
 31
0.0
  0
LINE
  5
F05
100
AcDbEntity
  8
MSL2_120_3F-3
100
AcDbLine
 10
28.606617
 20
-15.0
 30
0.0
 11
29.8
 21
-17.067
 31
0.0
  0
LINE
  5
F06
100
AcDbEntity
  8
MSL2_120_3F-3
100
AcDbLine
 10
28.606617
 20
-15.0
 30
0.0
 11
29.8
 21
-17.067
 31
0.0
  0
LINE
  5
F07
100
AcDbEntity
  8
MSL2_120_3F-3
100
AcDbLine
 10
39.0
 20
36.578199
 30
0.0
 11
39.0
 21
20.0
 31
0.0
  0
LINE
  5
F08
100
AcDbEntity
  8
MSL2_120_3F-7
100
AcDbLine
 10
27.5
 20
10.175309
 30
0.0
 11
27.5
 21
-9.668441
 31
0.0
  0
LINE
  5
F09
100
AcDbEntity
  8
MSL2_120_3F-3
100
AcDbLine
 10
41.0
 20
-12.933
 30
0.0
 11
29.8
 21
-12.933
 31
0.0
  0
LINE
  5
F0A
100
AcDbEntity
  8
MSL2_120_3F-3
100
AcDbLine
 10
41.0
 20
-12.933
 30
0.0
 11
29.8
 21
-12.933
 31
0.0
  0
LINE
  5
F0B
100
AcDbEntity
  8
MSL2_120_3F-3
100
AcDbLine
 10
41.0
 20
-12.5
 30
0.0
 11
33.0
 21
-12.5
 31
0.0
  0
LINE
  5
F0C
100
AcDbEntity
  8
MSL2_120_3F-3
100
AcDbLine
 10
41.0
 20
-12.5
 30
0.0
 11
33.0
 21
-12.5
 31
0.0
  0
LINE
  5
F0D
100
AcDbEntity
  8
MSL2_120_3F-3
100
AcDbLine
 10
25.0
 20
-8.606617
 30
0.0
 11
27.067
 21
-9.8
 31
0.0
  0
LINE
  5
F0E
100
AcDbEntity
  8
MSL2_120_3F-3
100
AcDbLine
 10
25.0
 20
-8.606617
 30
0.0
 11
27.067
 21
-9.8
 31
0.0
  0
LINE
  5
F0F
100
AcDbEntity
  8
MSL2_120_3F-3
100
AcDbLine
 10
41.0
 20
17.067
 30
0.0
 11
29.8
 21
17.067
 31
0.0
  0
LINE
  5
F10
100
AcDbEntity
  8
MSL2_120_3F-3
100
AcDbLine
 10
41.0
 20
17.5
 30
0.0
 11
33.0
 21
17.5
 31
0.0
  0
LINE
  5
F11
100
AcDbEntity
  8
MSL2_120_3F-3
100
AcDbLine
 10
41.0
 20
12.933
 30
0.0
 11
29.8
 21
12.933
 31
0.0
  0
LINE
  5
F12
100
AcDbEntity
  8
MSL2_120_3F-3
100
AcDbLine
 10
41.0
 20
12.5
 30
0.0
 11
33.0
 21
12.5
 31
0.0
  0
LINE
  5
F13
100
AcDbEntity
  8
MSL2_120_3F-7
100
AcDbLine
 10
25.606617
 20
15.0
 30
0.0
 11
44.0
 21
15.0
 31
0.0
  0
LINE
  5
F14
100
AcDbEntity
  8
MSL2_120_3F-3
100
AcDbLine
 10
29.8
 20
17.067
 30
0.0
 11
29.8
 21
12.933
 31
0.0
  0
LINE
  5
F15
100
AcDbEntity
  8
MSL2_120_3F-3
100
AcDbLine
 10
33.0
 20
17.5
 30
0.0
 11
33.0
 21
12.5
 31
0.0
  0
LINE
  5
F16
100
AcDbEntity
  8
MSL2_120_3F-3
100
AcDbLine
 10
28.606617
 20
15.0
 30
0.0
 11
29.8
 21
17.067
 31
0.0
  0
LINE
  5
F17
100
AcDbEntity
  8
MSL2_120_3F-3
100
AcDbLine
 10
28.606617
 20
15.0
 30
0.0
 11
29.8
 21
12.933
 31
0.0
  0
LINE
  5
F18
100
AcDbEntity
  8
MSL2_120_3F-0
100
AcDbLine
 10
39.291443
 20
44.052495
 30
0.0
 11
39.088006
 21
40.6986
 31
0.0
  0
LINE
  5
F19
100
AcDbEntity
  8
MSL2_120_3F-3
100
AcDbLine
 10
31.490914
 20
43.157095
 30
0.0
 11
32.133702
 21
43.923139
 31
0.0
  0
LINE
  5
F1A
100
AcDbEntity
  8
MSL2_120_3F-0
100
AcDbLine
 10
31.167663
 20
43.428335
 30
0.0
 11
31.810451
 21
44.194379
 31
0.0
  0
LINE
  5
F1B
100
AcDbEntity
  8
MSL2_120_3F-0
100
AcDbLine
 10
36.023828
 20
43.26975
 30
0.0
 11
39.291443
 21
44.052495
 31
0.0
  0
LINE
  5
F1C
100
AcDbEntity
  8
MSL2_120_3F-0
100
AcDbLine
 10
41.769161
 20
38.448843
 30
0.0
 11
33.342673
 21
45.519507
 31
0.0
  0
LINE
  5
F1D
100
AcDbEntity
  8
MSL2_120_3F-7
100
AcDbLine
 10
40.227816
 20
45.168421
 30
0.0
 11
35.25779
 21
39.245375
 31
0.0
  0
ARC
  5
F1E
100
AcDbEntity
  8
MSL2_120_3F-0
100
AcDbCircle
 10
37.0
 20
37.229016
 30
0.0
 40
2.0
100
AcDbArc
 50
360.0
 51
50.0
1001
GENIUS_GENODEF_13
1002
{
1000
HIER
1070
     0
1002
}
1002
{
1000
MANEDIT
1070
     0
1002
}
1002
{
1000
NOSEL
1070
     0
1002
}
1002
{
1000
BEHIND
1070
     0
1002
}
1002
{
1000
REACTOR
1002
}
1001
GENIUS_GENOBJ-N-FIL_13
1002
{
1000
OWNER
1000
GEN
1002
}
  0
LINE
  5
F1F
100
AcDbEntity
  8
MSL2_120_3F-0
100
AcDbLine
 10
40.483586
 20
36.916754
 30
0.0
 11
38.285575
 21
38.761105
 31
0.0
  0
ARC
  5
F20
100
AcDbEntity
  8
MSL2_120_3F-0
100
AcDbCircle
 10
37.0
 20
37.229016
 30
0.0
 40
1.0
100
AcDbArc
 50
11.907976
 51
50.0
1001
GENIUS_GENODEF_13
1002
{
1000
HIER
1070
     0
1002
}
1002
{
1000
MANEDIT
1070
     0
1002
}
1002
{
1000
NOSEL
1070
     0
1002
}
1002
{
1000
BEHIND
1070
     0
1002
}
1002
{
1000
REACTOR
1002
}
1001
GENIUS_GENOBJ-N-FIL_13
1002
{
1000
OWNER
1000
GEN
1002
}
  0
LINE
  5
F21
100
AcDbEntity
  8
MSL2_120_3F-0
100
AcDbLine
 10
40.483586
 20
36.916754
 30
0.0
 11
41.769161
 21
38.448843
 31
0.0
  0
LINE
  5
F22
100
AcDbEntity
  8
MSL2_120_3F-0
100
AcDbLine
 10
39.0
 20
36.578199
 30
0.0
 11
39.0
 21
37.229016
 31
0.0
  0
LINE
  5
F23
100
AcDbEntity
  8
MSL2_120_3F-0
100
AcDbLine
 10
33.342673
 20
45.519507
 30
0.0
 11
32.057097
 21
43.987418
 31
0.0
  0
ARC
  5
F24
100
AcDbEntity
  8
MSL2_120_3F-4
100
AcDbCircle
 10
255.680842
 20
-15.0
 30
0.0
 40
2.5
100
AcDbArc
 50
172.405357
 51
104.931417
  0
CIRCLE
  5
F25
100
AcDbEntity
  8
MSL2_120_3F-0
100
AcDbCircle
 10
255.680842
 20
-15.0
 30
0.0
 40
2.067
  0
CIRCLE
  5
F26
100
AcDbEntity
  8
MSL2_120_3F-0
100
AcDbCircle
 10
240.680842
 20
-15.0
 30
0.0
 40
2.5
  0
ARC
  5
F27
100
AcDbEntity
  8
MSL2_120_3F-4
100
AcDbCircle
 10
225.680842
 20
-15.0
 30
0.0
 40
2.5
100
AcDbArc
 50
172.405357
 51
104.931417
  0
CIRCLE
  5
F28
100
AcDbEntity
  8
MSL2_120_3F-0
100
AcDbCircle
 10
225.680842
 20
-15.0
 30
0.0
 40
2.067
  0
LINE
  5
F29
100
AcDbEntity
  8
MSL2_120_3F-3
100
AcDbLine
 10
157.180842
 20
-21.0
 30
0.0
 11
157.180842
 21
-13.0
 31
0.0
  0
LINE
  5
F2A
100
AcDbEntity
  8
MSL2_120_3F-3
100
AcDbLine
 10
157.180842
 20
-21.0
 30
0.0
 11
157.180842
 21
-13.0
 31
0.0
  0
LINE
  5
F2B
100
AcDbEntity
  8
MSL2_120_3F-3
100
AcDbLine
 10
152.180842
 20
-21.0
 30
0.0
 11
152.180842
 21
-13.0
 31
0.0
  0
LINE
  5
F2C
100
AcDbEntity
  8
MSL2_120_3F-3
100
AcDbLine
 10
152.180842
 20
-21.0
 30
0.0
 11
152.180842
 21
-13.0
 31
0.0
  0
ARC
  5
F2D
100
AcDbEntity
  8
MSL2_120_3F-4
100
AcDbCircle
 10
148.680842
 20
-15.0
 30
0.0
 40
2.5
100
AcDbArc
 50
172.405357
 51
104.931417
  0
CIRCLE
  5
F2E
100
AcDbEntity
  8
MSL2_120_3F-0
100
AcDbCircle
 10
148.680842
 20
-15.0
 30
0.0
 40
2.067
  0
LINE
  5
F2F
100
AcDbEntity
  8
MSL2_120_3F-7
100
AcDbLine
 10
255.680842
 20
-18.75
 30
0.0
 11
255.680842
 21
-11.25
 31
0.0
  0
LINE
  5
F30
100
AcDbEntity
  8
MSL2_120_3F-7
100
AcDbLine
 10
240.680842
 20
-15.0
 30
0.0
 11
240.680842
 21
-11.392806
 31
0.0
  0
LINE
  5
F31
100
AcDbEntity
  8
MSL2_120_3F-3
100
AcDbLine
 10
156.747842
 20
-21.0
 30
0.0
 11
156.747842
 21
-9.8
 31
0.0
  0
LINE
  5
F32
100
AcDbEntity
  8
MSL2_120_3F-3
100
AcDbLine
 10
156.747842
 20
-21.0
 30
0.0
 11
156.747842
 21
-9.8
 31
0.0
  0
LINE
  5
F33
100
AcDbEntity
  8
MSL2_120_3F-7
100
AcDbLine
 10
154.680842
 20
-5.606617
 30
0.0
 11
154.680842
 21
-24.0
 31
0.0
  0
LINE
  5
F34
100
AcDbEntity
  8
MSL2_120_3F-7
100
AcDbLine
 10
154.680842
 20
-5.606617
 30
0.0
 11
154.680842
 21
-24.0
 31
0.0
  0
LINE
  5
F35
100
AcDbEntity
  8
MSL2_120_3F-3
100
AcDbLine
 10
152.613842
 20
-21.0
 30
0.0
 11
152.613842
 21
-9.8
 31
0.0
  0
LINE
  5
F36
100
AcDbEntity
  8
MSL2_120_3F-3
100
AcDbLine
 10
152.613842
 20
-21.0
 30
0.0
 11
152.613842
 21
-9.8
 31
0.0
  0
LINE
  5
F37
100
AcDbEntity
  8
MSL2_120_3F-7
100
AcDbLine
 10
148.680842
 20
-18.75
 30
0.0
 11
148.680842
 21
-11.25
 31
0.0
  0
LINE
  5
F38
100
AcDbEntity
  8
MSL2_120_3F-7
100
AcDbLine
 10
225.680842
 20
-18.75
 30
0.0
 11
225.680842
 21
-11.25
 31
0.0
  0
MTEXT
  5
F39
100
AcDbEntity
  8
MSL2_120_3F-6
100
AcDbMText
 10
181.553809
 20
-15.489504
 30
0.0
 40
3.5
 41
21.059228
 71
     1
 72
     1
  1
{MSL2-120-3F}
  0
LINE
  5
F3A
100
AcDbEntity
  8
MSL2_120_3F-0
100
AcDbLine
 10
143.680842
 20
-21.0
 30
0.0
 11
159.680842
 21
-21.0
 31
0.0
  0
LINE
  5
F3B
100
AcDbEntity
  8
MSL2_120_3F-7
100
AcDbLine
 10
144.930842
 20
-15.0
 30
0.0
 11
152.430842
 21
-15.0
 31
0.0
  0
LINE
  5
F3C
100
AcDbEntity
  8
MSL2_120_3F-7
100
AcDbLine
 10
221.930842
 20
-15.0
 30
0.0
 11
229.430842
 21
-15.0
 31
0.0
  0
LINE
  5
F3D
100
AcDbEntity
  8
MSL2_120_3F-7
100
AcDbLine
 10
240.680842
 20
-15.0
 30
0.0
 11
244.288036
 21
-15.0
 31
0.0
  0
LINE
  5
F3E
100
AcDbEntity
  8
MSL2_120_3F-7
100
AcDbLine
 10
240.680842
 20
-15.0
 30
0.0
 11
240.680842
 21
-18.607194
 31
0.0
  0
LINE
  5
F3F
100
AcDbEntity
  8
MSL2_120_3F-7
100
AcDbLine
 10
240.680842
 20
-15.0
 30
0.0
 11
237.073648
 21
-15.0
 31
0.0
  0
LINE
  5
F40
100
AcDbEntity
  8
MSL2_120_3F-3
100
AcDbLine
 10
181.180842
 20
58.335707
 30
0.0
 11
200.880842
 21
58.335707
 31
0.0
  0
LINE
  5
F41
100
AcDbEntity
  8
MSL2_120_3F-3
100
AcDbLine
 10
200.880842
 20
44.194379
 30
0.0
 11
181.180842
 21
44.194379
 31
0.0
  0
LINE
  5
F42
100
AcDbEntity
  8
MSL2_120_3F-4
100
AcDbLine
 10
206.920815
 20
37.229016
 30
0.0
 11
181.180842
 21
37.229016
 31
0.0
  0
LINE
  5
F43
100
AcDbEntity
  8
MSL2_120_3F-4
100
AcDbLine
 10
181.180842
 20
22.0
 30
0.0
 11
204.180842
 21
22.0
 31
0.0
  0
LINE
  5
F44
100
AcDbEntity
  8
MSL2_120_3F-0
100
AcDbLine
 10
181.180842
 20
20.0
 30
0.0
 11
204.180842
 21
20.0
 31
0.0
  0
ARC
  5
F45
100
AcDbEntity
  8
MSL2_120_3F-0
100
AcDbCircle
 10
175.118677
 20
24.370834
 30
0.0
 40
2.562165
100
AcDbArc
 50
312.916662
 51
47.083338
  0
ARC
  5
F46
100
AcDbEntity
  8
MSL2_120_3F-0
100
AcDbCircle
 10
180.789522
 20
22.638784
 30
0.0
 40
3.108681
100
AcDbArc
 50
127.878144
 51
232.121856
  0
ARC
  5
F47
100
AcDbEntity
  8
MSL2_120_3F-0
100
AcDbCircle
 10
180.789522
 20
22.638784
 30
0.0
 40
3.108681
100
AcDbArc
 50
127.878144
 51
232.121856
  0
ARC
  5
F48
100
AcDbEntity
  8
MSL2_120_3F-0
100
AcDbCircle
 10
161.973897
 20
24.370834
 30
0.0
 40
2.293056
100
AcDbArc
 50
125.085848
 51
234.914152
  0
ARC
  5
F49
100
AcDbEntity
  8
MSL2_120_3F-0
100
AcDbCircle
 10
161.387786
 20
24.370834
 30
0.0
 40
2.293056
100
AcDbArc
 50
305.085847
 51
54.914153
  0
LINE
  5
F4A
100
AcDbEntity
  8
MSL2_120_3F-0
100
AcDbLine
 10
163.680842
 20
24.370834
 30
0.0
 11
163.680842
 21
35.629165
 31
0.0
  0
LINE
  5
F4B
100
AcDbEntity
  8
MSL2_120_3F-0
100
AcDbLine
 10
159.680842
 20
24.370834
 30
0.0
 11
159.680842
 21
35.629165
 31
0.0
  0
LINE
  5
F4C
100
AcDbEntity
  8
MSL2_120_3F-0
100
AcDbLine
 10
177.680842
 20
37.361215
 30
0.0
 11
177.680842
 21
22.638784
 31
0.0
  0
LINE
  5
F4D
100
AcDbEntity
  8
MSL2_120_3F-0
100
AcDbLine
 10
177.680842
 20
37.361215
 30
0.0
 11
177.680842
 21
22.638784
 31
0.0
  0
LINE
  5
F4E
100
AcDbEntity
  8
MSL2_120_3F-0
100
AcDbLine
 10
173.730842
 20
22.494446
 30
0.0
 11
173.730842
 21
37.505553
 31
0.0
  0
LINE
  5
F4F
100
AcDbEntity
  8
MSL2_120_3F-0
100
AcDbLine
 10
177.680842
 20
24.370834
 30
0.0
 11
177.680842
 21
35.629165
 31
0.0
  0
LINE
  5
F50
100
AcDbEntity
  8
MSL2_120_3F-0
100
AcDbLine
 10
159.680842
 20
-6.0
 30
0.0
 11
180.680842
 21
-6.0
 31
0.0
  0
LINE
  5
F51
100
AcDbEntity
  8
MSL2_120_3F-0
100
AcDbLine
 10
180.680842
 20
6.0
 30
0.0
 11
159.680842
 21
6.0
 31
0.0
  0
LINE
  5
F52
100
AcDbEntity
  8
MSL2_120_3F-0
100
AcDbLine
 10
180.680842
 20
-9.0
 30
0.0
 11
166.680842
 21
-9.0
 31
0.0
  0
LINE
  5
F53
100
AcDbEntity
  8
MSL2_120_3F-0
100
AcDbLine
 10
166.680842
 20
9.0
 30
0.0
 11
180.680842
 21
9.0
 31
0.0
  0
LINE
  5
F54
100
AcDbEntity
  8
MSL2_120_3F-3
100
AcDbLine
 10
154.680842
 20
-8.606617
 30
0.0
 11
156.747842
 21
-9.8
 31
0.0
  0
LINE
  5
F55
100
AcDbEntity
  8
MSL2_120_3F-3
100
AcDbLine
 10
154.680842
 20
-8.606617
 30
0.0
 11
156.747842
 21
-9.8
 31
0.0
  0
LINE
  5
F56
100
AcDbEntity
  8
MSL2_120_3F-3
100
AcDbLine
 10
156.747842
 20
-9.8
 30
0.0
 11
152.613842
 21
-9.8
 31
0.0
  0
LINE
  5
F57
100
AcDbEntity
  8
MSL2_120_3F-3
100
AcDbLine
 10
156.747842
 20
-9.8
 30
0.0
 11
152.613842
 21
-9.8
 31
0.0
  0
LINE
  5
F58
100
AcDbEntity
  8
MSL2_120_3F-3
100
AcDbLine
 10
157.180842
 20
-13.0
 30
0.0
 11
152.180842
 21
-13.0
 31
0.0
  0
LINE
  5
F59
100
AcDbEntity
  8
MSL2_120_3F-3
100
AcDbLine
 10
157.180842
 20
-13.0
 30
0.0
 11
152.180842
 21
-13.0
 31
0.0
  0
LINE
  5
F5A
100
AcDbEntity
  8
MSL2_120_3F-3
100
AcDbLine
 10
154.680842
 20
-8.606617
 30
0.0
 11
152.613842
 21
-9.8
 31
0.0
  0
LINE
  5
F5B
100
AcDbEntity
  8
MSL2_120_3F-3
100
AcDbLine
 10
154.680842
 20
-8.606617
 30
0.0
 11
152.613842
 21
-9.8
 31
0.0
  0
LINE
  5
F5C
100
AcDbEntity
  8
MSL2_120_3F-0
100
AcDbLine
 10
166.680842
 20
-6.0
 30
0.0
 11
166.680842
 21
-9.0
 31
0.0
  0
LINE
  5
F5D
100
AcDbEntity
  8
MSL2_120_3F-0
100
AcDbLine
 10
165.680842
 20
-8.0
 30
0.0
 11
165.680842
 21
-6.0
 31
0.0
  0
LINE
  5
F5E
100
AcDbEntity
  8
MSL2_120_3F-0
100
AcDbLine
 10
166.680842
 20
-9.0
 30
0.0
 11
165.680842
 21
-8.0
 31
0.0
  0
ARC
  5
F5F
100
AcDbEntity
  8
MSL2_120_3F-4
100
AcDbCircle
 10
148.680842
 20
15.0
 30
0.0
 40
2.5
100
AcDbArc
 50
172.405357
 51
104.931417
  0
CIRCLE
  5
F60
100
AcDbEntity
  8
MSL2_120_3F-0
100
AcDbCircle
 10
148.680842
 20
15.0
 30
0.0
 40
2.067
  0
LINE
  5
F61
100
AcDbEntity
  8
MSL2_120_3F-7
100
AcDbLine
 10
148.680842
 20
11.25
 30
0.0
 11
148.680842
 21
18.75
 31
0.0
  0
LINE
  5
F62
100
AcDbEntity
  8
MSL2_120_3F-7
100
AcDbLine
 10
144.930842
 20
15.0
 30
0.0
 11
152.430842
 21
15.0
 31
0.0
  0
LINE
  5
F63
100
AcDbEntity
  8
MSL2_120_3F-0
100
AcDbLine
 10
165.680842
 20
8.0
 30
0.0
 11
166.680842
 21
9.0
 31
0.0
  0
LINE
  5
F64
100
AcDbEntity
  8
MSL2_120_3F-0
100
AcDbLine
 10
165.680842
 20
6.0
 30
0.0
 11
165.680842
 21
8.0
 31
0.0
  0
LINE
  5
F65
100
AcDbEntity
  8
MSL2_120_3F-0
100
AcDbLine
 10
166.680842
 20
9.0
 30
0.0
 11
166.680842
 21
6.0
 31
0.0
  0
LINE
  5
F66
100
AcDbEntity
  8
MSL2_120_3F-0
100
AcDbLine
 10
160.655842
 20
22.494446
 30
0.0
 11
162.705842
 21
22.494446
 31
0.0
  0
LINE
  5
F67
100
AcDbEntity
  8
MSL2_120_3F-0
100
AcDbLine
 10
176.863342
 20
22.494446
 30
0.0
 11
173.730842
 21
22.494446
 31
0.0
  0
LINE
  5
F68
100
AcDbEntity
  8
MSL2_120_3F-0
100
AcDbLine
 10
178.880842
 20
20.185045
 30
0.0
 11
180.680842
 21
20.185045
 31
0.0
  0
LINE
  5
F69
100
AcDbEntity
  8
MSL2_120_3F-0
100
AcDbLine
 10
163.680842
 20
34.0
 30
0.0
 11
173.730842
 21
34.0
 31
0.0
  0
LINE
  5
F6A
100
AcDbEntity
  8
MSL2_120_3F-7
100
AcDbLine
 10
154.582795
 20
30.0
 30
0.0
 11
184.351892
 21
30.0
 31
0.0
  0
LINE
  5
F6B
100
AcDbEntity
  8
MSL2_120_3F-0
100
AcDbLine
 10
159.680842
 20
44.0
 30
0.0
 11
180.680842
 21
44.0
 31
0.0
  0
LINE
  5
F6C
100
AcDbEntity
  8
MSL2_120_3F-0
100
AcDbLine
 10
180.680842
 20
56.0
 30
0.0
 11
159.680842
 21
56.0
 31
0.0
  0
LINE
  5
F6D
100
AcDbEntity
  8
MSL2_120_3F-0
100
AcDbLine
 10
173.730842
 20
26.0
 30
0.0
 11
163.680842
 21
26.0
 31
0.0
  0
LINE
  5
F6E
100
AcDbEntity
  8
MSL2_120_3F-0
100
AcDbLine
 10
143.680842
 20
34.9
 30
0.0
 11
159.680842
 21
34.9
 31
0.0
  0
ARC
  5
F6F
100
AcDbEntity
  8
MSL2_120_3F-0
100
AcDbCircle
 10
161.973897
 20
35.629165
 30
0.0
 40
2.293056
100
AcDbArc
 50
125.085848
 51
234.914152
  0
ARC
  5
F70
100
AcDbEntity
  8
MSL2_120_3F-0
100
AcDbCircle
 10
161.387786
 20
35.629165
 30
0.0
 40
2.293056
100
AcDbArc
 50
305.085847
 51
54.914153
  0
ARC
  5
F71
100
AcDbEntity
  8
MSL2_120_3F-0
100
AcDbCircle
 10
155.971119
 20
30.0
 30
0.0
 40
7.709722
100
AcDbArc
 50
330.872216
 51
29.127784
  0
LINE
  5
F72
100
AcDbEntity
  8
MSL2_120_3F-0
100
AcDbLine
 10
160.655842
 20
33.752776
 30
0.0
 11
162.705842
 21
33.752776
 31
0.0
  0
LINE
  5
F73
100
AcDbEntity
  8
MSL2_120_3F-0
100
AcDbLine
 10
160.655842
 20
26.247223
 30
0.0
 11
162.705842
 21
26.247223
 31
0.0
  0
ARC
  5
F74
100
AcDbEntity
  8
MSL2_120_3F-0
100
AcDbCircle
 10
167.390564
 20
30.0
 30
0.0
 40
7.709722
100
AcDbArc
 50
150.872218
 51
209.127782
  0
LINE
  5
F75
100
AcDbEntity
  8
MSL2_120_3F-0
100
AcDbLine
 10
160.655842
 20
37.505553
 30
0.0
 11
162.705842
 21
37.505553
 31
0.0
  0
ARC
  5
F76
100
AcDbEntity
  8
MSL2_120_3F-0
100
AcDbCircle
 10
175.118677
 20
35.629165
 30
0.0
 40
2.562165
100
AcDbArc
 50
312.916662
 51
47.083338
  0
LINE
  5
F77
100
AcDbEntity
  8
MSL2_120_3F-0
100
AcDbLine
 10
173.730842
 20
26.0
 30
0.0
 11
173.730842
 21
34.0
 31
0.0
  0
ARC
  5
F78
100
AcDbEntity
  8
MSL2_120_3F-0
100
AcDbCircle
 10
188.315564
 20
30.0
 30
0.0
 40
10.634722
100
AcDbArc
 50
152.518773
 51
207.481227
  0
ARC
  5
F79
100
AcDbEntity
  8
MSL2_120_3F-0
100
AcDbCircle
 10
188.315564
 20
30.0
 30
0.0
 40
10.634722
100
AcDbArc
 50
152.518773
 51
207.481227
  0
LINE
  5
F7A
100
AcDbEntity
  8
MSL2_120_3F-0
100
AcDbLine
 10
176.863342
 20
33.752776
 30
0.0
 11
173.730842
 21
33.752776
 31
0.0
  0
LINE
  5
F7B
100
AcDbEntity
  8
MSL2_120_3F-0
100
AcDbLine
 10
176.863342
 20
26.247223
 30
0.0
 11
173.730842
 21
26.247223
 31
0.0
  0
ARC
  5
F7C
100
AcDbEntity
  8
MSL2_120_3F-0
100
AcDbCircle
 10
168.658432
 20
30.0
 30
0.0
 40
9.02241
100
AcDbArc
 50
335.421502
 51
24.578498
  0
LINE
  5
F7D
100
AcDbEntity
  8
MSL2_120_3F-0
100
AcDbLine
 10
178.880842
 20
25.092522
 30
0.0
 11
180.680842
 21
25.092522
 31
0.0
  0
LINE
  5
F7E
100
AcDbEntity
  8
MSL2_120_3F-0
100
AcDbLine
 10
178.880842
 20
25.092522
 30
0.0
 11
180.680842
 21
25.092522
 31
0.0
  0
ARC
  5
F7F
100
AcDbEntity
  8
MSL2_120_3F-0
100
AcDbCircle
 10
180.789522
 20
37.361215
 30
0.0
 40
3.108681
100
AcDbArc
 50
127.878144
 51
232.121856
  0
ARC
  5
F80
100
AcDbEntity
  8
MSL2_120_3F-0
100
AcDbCircle
 10
180.789522
 20
37.361215
 30
0.0
 40
3.108681
100
AcDbArc
 50
127.878144
 51
232.121856
  0
LINE
  5
F81
100
AcDbEntity
  8
MSL2_120_3F-0
100
AcDbLine
 10
173.730842
 20
37.505553
 30
0.0
 11
176.863342
 21
37.505553
 31
0.0
  0
LINE
  5
F82
100
AcDbEntity
  8
MSL2_120_3F-0
100
AcDbLine
 10
178.880842
 20
39.814954
 30
0.0
 11
180.680842
 21
39.814954
 31
0.0
  0
LINE
  5
F83
100
AcDbEntity
  8
MSL2_120_3F-0
100
AcDbLine
 10
178.880842
 20
39.814954
 30
0.0
 11
180.680842
 21
39.814954
 31
0.0
  0
LINE
  5
F84
100
AcDbEntity
  8
MSL2_120_3F-0
100
AcDbLine
 10
178.880842
 20
34.907477
 30
0.0
 11
180.680842
 21
34.907477
 31
0.0
  0
LINE
  5
F85
100
AcDbEntity
  8
MSL2_120_3F-0
100
AcDbLine
 10
178.880842
 20
34.907477
 30
0.0
 11
180.680842
 21
34.907477
 31
0.0
  0
LINE
  5
F86
100
AcDbEntity
  8
MSL2_120_3F-7
100
AcDbLine
 10
182.716842
 20
51.329322
 30
0.0
 11
198.444842
 21
51.329322
 31
0.0
1001
GENIUS_GENODEF_13
1002
{
1000
HIER
1070
     0
1002
}
1002
{
1000
MANEDIT
1070
     0
1002
}
1002
{
1000
NOSEL
1070
     0
1002
}
1002
{
1000
BEHIND
1070
     0
1002
}
1002
{
1000
REACTOR
1002
}
1001
GENIUS_GENOBJ-N-CEN_13
1002
{
1000
OWNER
1000
GEN
1002
}
  0
ELLIPSE
  5
F87
100
AcDbEntity
  8
MSL2_120_3F-3
100
AcDbEllipse
 10
190.580842
 20
51.329322
 30
0.0
 11
4.283225000000015
 21
0.0
 31
0.0
210
0.0
220
0.0
230
1.0
 40
0.642788
 41
0.0
 42
6.2831853071796
  0
ELLIPSE
  5
F88
100
AcDbEntity
  8
MSL2_120_3F-3
100
AcDbEllipse
 10
190.580842
 20
51.329322
 30
0.0
 11
4.863999999999919
 21
0.0
 31
0.0
210
0.0
220
0.0
230
1.0
 40
0.642788
 41
-1.626973784062189
 42
3.276869584235891
  0
LINE
  5
F89
100
AcDbEntity
  8
MSL2_120_3F-7
100
AcDbLine
 10
190.580842
 20
45.202803
 30
0.0
 11
190.580842
 21
57.455841
 31
0.0
1001
GENIUS_GENODEF_13
1002
{
1000
HIER
1070
     0
1002
}
1002
{
1000
MANEDIT
1070
     0
1002
}
1002
{
1000
NOSEL
1070
     0
1002
}
1002
{
1000
BEHIND
1070
     0
1002
}
1002
{
1000
REACTOR
1002
}
1001
GENIUS_GENOBJ-N-CEN_13
1002
{
1000
OWNER
1000
GEN
1002
}
  0
LINE
  5
F8A
100
AcDbEntity
  8
MSL2_120_3F-0
100
AcDbLine
 10
222.830842
 20
20.0
 30
0.0
 11
222.830842
 21
25.753334
 31
0.0
  0
LINE
  5
F8B
100
AcDbEntity
  8
MSL2_120_3F-0
100
AcDbLine
 10
219.530842
 20
20.0
 30
0.0
 11
219.530842
 21
25.753334
 31
0.0
  0
LINE
  5
F8C
100
AcDbEntity
  8
MSL2_120_3F-7
100
AcDbLine
 10
234.180842
 20
33.75
 30
0.0
 11
234.180842
 21
17.0
 31
0.0
1001
GENIUS_GENODEF_13
1002
{
1000
HIER
1070
     0
1002
}
1002
{
1000
MANEDIT
1070
     0
1002
}
1002
{
1000
NOSEL
1070
     0
1002
}
1002
{
1000
BEHIND
1070
     0
1002
}
1002
{
1000
REACTOR
1002
}
1001
GENIUS_GENOBJ-N-CEN_13
1002
{
1000
OWNER
1000
GEN
1002
}
  0
LINE
  5
F8D
100
AcDbEntity
  8
MSL2_120_3F-7
100
AcDbLine
 10
221.180842
 20
38.75
 30
0.0
 11
221.180842
 21
17.0
 31
0.0
1001
GENIUS_GENODEF_13
1002
{
1000
HIER
1070
     0
1002
}
1002
{
1000
MANEDIT
1070
     0
1002
}
1002
{
1000
NOSEL
1070
     0
1002
}
1002
{
1000
BEHIND
1070
     0
1002
}
1002
{
1000
REACTOR
1002
}
1001
GENIUS_GENOBJ-N-CEN_13
1002
{
1000
OWNER
1000
GEN
1002
}
  0
CIRCLE
  5
F8E
100
AcDbEntity
  8
MSL2_120_3F-0
100
AcDbCircle
 10
234.180842
 20
26.0
 30
0.0
 40
5.5
  0
LINE
  5
F8F
100
AcDbEntity
  8
MSL2_120_3F-7
100
AcDbLine
 10
221.930842
 20
15.0
 30
0.0
 11
229.430842
 21
15.0
 31
0.0
  0
LINE
  5
F90
100
AcDbEntity
  8
MSL2_120_3F-0
100
AcDbLine
 10
209.180842
 20
20.0
 30
0.0
 11
245.530842
 21
20.0
 31
0.0
  0
LINE
  5
F91
100
AcDbEntity
  8
MSL2_120_3F-0
100
AcDbLine
 10
204.180842
 20
22.0
 30
0.0
 11
209.180842
 21
22.0
 31
0.0
  0
LINE
  5
F92
100
AcDbEntity
  8
MSL2_120_3F-0
100
AcDbLine
 10
204.180842
 20
20.0
 30
0.0
 11
204.180842
 21
22.0
 31
0.0
  0
LINE
  5
F93
100
AcDbEntity
  8
MSL2_120_3F-0
100
AcDbLine
 10
209.180842
 20
22.0
 30
0.0
 11
209.180842
 21
20.0
 31
0.0
  0
ARC
  5
F94
100
AcDbEntity
  8
MSL2_120_3F-4
100
AcDbCircle
 10
225.680842
 20
15.0
 30
0.0
 40
2.5
100
AcDbArc
 50
172.405357
 51
104.931417
  0
CIRCLE
  5
F95
100
AcDbEntity
  8
MSL2_120_3F-0
100
AcDbCircle
 10
225.680842
 20
15.0
 30
0.0
 40
2.067
  0
LINE
  5
F96
100
AcDbEntity
  8
MSL2_120_3F-7
100
AcDbLine
 10
225.680842
 20
11.25
 30
0.0
 11
225.680842
 21
18.75
 31
0.0
  0
LINE
  5
F97
100
AcDbEntity
  8
MSL2_120_3F-7
100
AcDbLine
 10
240.680842
 20
11.451766
 30
0.0
 11
240.680842
 21
-11.364806
 31
0.0
  0
LINE
  5
F98
100
AcDbEntity
  8
MSL2_120_3F-7
100
AcDbLine
 10
240.680842
 20
15.0
 30
0.0
 11
244.154336
 21
15.0
 31
0.0
  0
CIRCLE
  5
F99
100
AcDbEntity
  8
MSL2_120_3F-0
100
AcDbCircle
 10
240.680842
 20
14.965783
 30
0.0
 40
2.5
  0
LINE
  5
F9A
100
AcDbEntity
  8
MSL2_120_3F-7
100
AcDbLine
 10
240.680842
 20
15.0
 30
0.0
 11
240.680842
 21
18.473494
 31
0.0
  0
LINE
  5
F9B
100
AcDbEntity
  8
MSL2_120_3F-7
100
AcDbLine
 10
240.680842
 20
15.0
 30
0.0
 11
240.680842
 21
11.526506
 31
0.0
  0
LINE
  5
F9C
100
AcDbEntity
  8
MSL2_120_3F-7
100
AcDbLine
 10
240.680842
 20
15.0
 30
0.0
 11
237.207347
 21
15.0
 31
0.0
  0
LINE
  5
F9D
100
AcDbEntity
  8
MSL2_120_3F-0
100
AcDbLine
 10
235.830842
 20
20.0
 30
0.0
 11
235.830842
 21
20.753334
 31
0.0
  0
LINE
  5
F9E
100
AcDbEntity
  8
MSL2_120_3F-0
100
AcDbLine
 10
232.530842
 20
20.0
 30
0.0
 11
232.530842
 21
20.753334
 31
0.0
  0
LINE
  5
F9F
100
AcDbEntity
  8
MSL2_120_3F-7
100
AcDbLine
 10
255.680842
 20
11.25
 30
0.0
 11
255.680842
 21
18.75
 31
0.0
  0
ARC
  5
FA0
100
AcDbEntity
  8
MSL2_120_3F-4
100
AcDbCircle
 10
255.680842
 20
15.0
 30
0.0
 40
2.5
100
AcDbArc
 50
172.405357
 51
104.931417
  0
CIRCLE
  5
FA1
100
AcDbEntity
  8
MSL2_120_3F-0
100
AcDbCircle
 10
255.680842
 20
15.0
 30
0.0
 40
2.067
  0
LINE
  5
FA2
100
AcDbEntity
  8
MSL2_120_3F-0
100
AcDbLine
 10
248.830842
 20
20.0
 30
0.0
 11
258.530842
 21
20.0
 31
0.0
  0
LINE
  5
FA3
100
AcDbEntity
  8
MSL2_120_3F-7
100
AcDbLine
 10
241.930842
 20
26.0
 30
0.0
 11
226.430842
 21
26.0
 31
0.0
1001
GENIUS_GENODEF_13
1002
{
1000
HIER
1070
     0
1002
}
1002
{
1000
MANEDIT
1070
     0
1002
}
1002
{
1000
NOSEL
1070
     0
1002
}
1002
{
1000
BEHIND
1070
     0
1002
}
1002
{
1000
REACTOR
1002
}
1001
GENIUS_GENOBJ-N-CEN_13
1002
{
1000
OWNER
1000
GEN
1002
}
  0
LINE
  5
FA4
100
AcDbEntity
  8
MSL2_120_3F-0
100
AcDbLine
 10
209.180842
 20
44.052495
 30
0.0
 11
211.180842
 21
41.984175
 31
0.0
  0
LINE
  5
FA5
100
AcDbEntity
  8
MSL2_120_3F-0
100
AcDbLine
 10
207.180842
 20
41.984175
 30
0.0
 11
209.180842
 21
44.052495
 31
0.0
  0
ELLIPSE
  5
FA6
100
AcDbEntity
  8
MSL2_120_3F-0
100
AcDbEllipse
 10
209.180842
 20
41.984175
 30
0.0
 11
5.5
 21
0.0
 31
0.0
210
0.0
220
0.0
230
1.0
 40
0.642788
 41
0.0
 42
6.2831853071796
  0
LINE
  5
FA7
100
AcDbEntity
  8
MSL2_120_3F-7
100
AcDbLine
 10
209.180842
 20
46.157095
 30
0.0
 11
209.180842
 21
32.579016
 31
0.0
1001
GENIUS_GENODEF_13
1002
{
1000
HIER
1070
     0
1002
}
1002
{
1000
MANEDIT
1070
     0
1002
}
1002
{
1000
NOSEL
1070
     0
1002
}
1002
{
1000
BEHIND
1070
     0
1002
}
1002
{
1000
REACTOR
1002
}
1001
GENIUS_GENOBJ-N-CEN_13
1002
{
1000
OWNER
1000
GEN
1002
}
  0
LINE
  5
FA8
100
AcDbEntity
  8
MSL2_120_3F-7
100
AcDbLine
 10
228.930842
 20
31.0
 30
0.0
 11
213.430842
 21
31.0
 31
0.0
1001
GENIUS_GENODEF_13
1002
{
1000
HIER
1070
     0
1002
}
1002
{
1000
MANEDIT
1070
     0
1002
}
1002
{
1000
NOSEL
1070
     0
1002
}
1002
{
1000
BEHIND
1070
     0
1002
}
1002
{
1000
REACTOR
1002
}
1001
GENIUS_GENOBJ-N-CEN_13
1002
{
1000
OWNER
1000
GEN
1002
}
  0
ELLIPSE
  5
FA9
100
AcDbEntity
  8
MSL2_120_3F-0
100
AcDbEllipse
 10
209.180842
 20
40.452086
 30
0.0
 11
5.5
 21
0.0
 31
0.0
210
0.0
220
0.0
230
1.0
 40
0.642788
 41
3.141592653589793
 42
6.283185307179853
  0
LINE
  5
FAA
100
AcDbEntity
  8
MSL2_120_3F-7
100
AcDbLine
 10
217.580842
 20
39.686042
 30
0.0
 11
200.780842
 21
39.686042
 31
0.0
1001
GENIUS_GENODEF_13
1002
{
1000
HIER
1070
     0
1002
}
1002
{
1000
MANEDIT
1070
     0
1002
}
1002
{
1000
NOSEL
1070
     0
1002
}
1002
{
1000
BEHIND
1070
     0
1002
}
1002
{
1000
REACTOR
1002
}
1001
GENIUS_GENOBJ-N-CEN_13
1002
{
1000
OWNER
1000
GEN
1002
}
  0
ELLIPSE
  5
FAB
100
AcDbEntity
  8
MSL2_120_3F-0
100
AcDbEllipse
 10
209.180842
 20
41.984175
 30
0.0
 11
-2.0
 21
0.0
 31
0.0
210
0.0
220
0.0
230
1.0
 40
0.642788
 41
-1.112236758281637
 42
4.253829411871665
  0
LINE
  5
FAC
100
AcDbEntity
  8
MSL2_120_3F-0
100
AcDbLine
 10
203.680842
 20
40.452086
 30
0.0
 11
203.680842
 21
41.984175
 31
0.0
  0
CIRCLE
  5
FAD
100
AcDbEntity
  8
MSL2_120_3F-0
100
AcDbCircle
 10
221.180842
 20
31.0
 30
0.0
 40
5.5
  0
LINE
  5
FAE
100
AcDbEntity
  8
MSL2_120_3F-0
100
AcDbLine
 10
214.680842
 20
40.452086
 30
0.0
 11
214.680842
 21
41.984175
 31
0.0
  0
LINE
  5
FAF
100
AcDbEntity
  8
MSL2_120_3F-3
100
AcDbLine
 10
200.880842
 20
58.335707
 30
0.0
 11
200.880842
 21
44.194379
 31
0.0
  0
LINE
  5
FB0
100
AcDbEntity
  8
MSL2_120_3F-0
100
AcDbLine
 10
-6.287337
 20
65.0
 30
0.0
 11
0.0
 21
65.0
 31
0.0
  0
LINE
  5
FB1
100
AcDbEntity
  8
MSL2_120_3F-0
100
AcDbLine
 10
0.0
 20
64.0
 30
0.0
 11
-6.31997
 21
64.0
 31
0.0
  0
ARC
  5
FB2
100
AcDbEntity
  8
MSL2_120_3F-0
100
AcDbCircle
 10
-6.287337
 20
63.0
 30
0.0
 40
1.0
100
AcDbArc
 50
91.907976
 51
130.0
1001
GENIUS_GENODEF_13
1002
{
1000
HIER
1070
     0
1002
}
1002
{
1000
MANEDIT
1070
     0
1002
}
1002
{
1000
NOSEL
1070
     0
1002
}
1002
{
1000
BEHIND
1070
     0
1002
}
1002
{
1000
REACTOR
1002
}
1001
GENIUS_GENOBJ-N-FIL_13
1002
{
1000
OWNER
1000
GEN
1002
}
  0
ARC
  5
FB3
100
AcDbEntity
  8
MSL2_120_3F-0
100
AcDbCircle
 10
-6.287337
 20
63.0
 30
0.0
 40
2.0
100
AcDbArc
 50
90.0
 51
130.0
1001
GENIUS_GENODEF_13
1002
{
1000
HIER
1070
     0
1002
}
1002
{
1000
MANEDIT
1070
     0
1002
}
1002
{
1000
NOSEL
1070
     0
1002
}
1002
{
1000
BEHIND
1070
     0
1002
}
1002
{
1000
REACTOR
1002
}
1001
GENIUS_GENOBJ-N-FIL_13
1002
{
1000
OWNER
1000
GEN
1002
}
  0
LINE
  5
FB4
100
AcDbEntity
  8
MSL2_120_3F-0
100
AcDbLine
 10
6.287337
 20
65.0
 30
0.0
 11
0.0
 21
65.0
 31
0.0
  0
LINE
  5
FB5
100
AcDbEntity
  8
MSL2_120_3F-0
100
AcDbLine
 10
0.0
 20
64.0
 30
0.0
 11
6.31997
 21
64.0
 31
0.0
  0
ARC
  5
FB6
100
AcDbEntity
  8
MSL2_120_3F-0
100
AcDbCircle
 10
6.287337
 20
63.0
 30
0.0
 40
1.0
100
AcDbArc
 50
50.0
 51
88.092024
1001
GENIUS_GENODEF_13
1002
{
1000
HIER
1070
     0
1002
}
1002
{
1000
MANEDIT
1070
     0
1002
}
1002
{
1000
NOSEL
1070
     0
1002
}
1002
{
1000
BEHIND
1070
     0
1002
}
1002
{
1000
REACTOR
1002
}
1001
GENIUS_GENOBJ-N-FIL_13
1002
{
1000
OWNER
1000
GEN
1002
}
  0
ARC
  5
FB7
100
AcDbEntity
  8
MSL2_120_3F-0
100
AcDbCircle
 10
6.287337
 20
63.0
 30
0.0
 40
2.0
100
AcDbArc
 50
50.0
 51
90.0
1001
GENIUS_GENODEF_13
1002
{
1000
HIER
1070
     0
1002
}
1002
{
1000
MANEDIT
1070
     0
1002
}
1002
{
1000
NOSEL
1070
     0
1002
}
1002
{
1000
BEHIND
1070
     0
1002
}
1002
{
1000
REACTOR
1002
}
1001
GENIUS_GENOBJ-N-FIL_13
1002
{
1000
OWNER
1000
GEN
1002
}
  0
LINE
  5
FB8
100
AcDbEntity
  8
MSL2_120_3F-7
100
AcDbLine
 10
140.331957
 20
165.0
 30
0.0
 11
163.451175
 21
165.0
 31
0.0
  0
LINE
  5
FB9
100
AcDbEntity
  8
MSL2_120_3F-7
100
AcDbLine
 10
186.244409
 20
177.5
 30
0.0
 11
140.456342
 21
177.5
 31
0.0
  0
LINE
  5
FBA
100
AcDbEntity
  8
MSL2_120_3F-7
100
AcDbLine
 10
186.244409
 20
150.0
 30
0.0
 11
140.331957
 21
150.0
 31
0.0
  0
LINE
  5
FBB
100
AcDbEntity
  8
MSL2_120_3F-7
100
AcDbLine
 10
140.331957
 20
135.0
 30
0.0
 11
163.451175
 21
135.0
 31
0.0
  0
LINE
  5
FBC
100
AcDbEntity
  8
MSL2_120_3F-7
100
AcDbLine
 10
186.244409
 20
122.5
 30
0.0
 11
140.456342
 21
122.5
 31
0.0
  0
LINE
  5
FBD
100
AcDbEntity
  8
MSL2_120_3F-7
100
AcDbLine
 10
255.680842
 20
131.25
 30
0.0
 11
255.680842
 21
138.75
 31
0.0
  0
LINE
  5
FBE
100
AcDbEntity
  8
MSL2_120_3F-7
100
AcDbLine
 10
240.680842
 20
135.0
 30
0.0
 11
240.680842
 21
138.607194
 31
0.0
  0
LINE
  5
FBF
100
AcDbEntity
  8
MSL2_120_3F-7
100
AcDbLine
 10
225.680842
 20
131.25
 30
0.0
 11
225.680842
 21
138.75
 31
0.0
  0
INSERT
  5
FC0
100
AcDbEntity
  8
MSL2_120_3F-0
100
AcDbBlockReference
 66
     1
  2
GENINF13
 10
200.111753
 20
139.425286
 30
0.0
1001
GENIUS_GENSCSYM_13
1002
{
1000
INSPT
1011
200.111753
1021
139.425286
1031
0.0
1002
}
1002
{
1000
SCALE
1042
1.0
1002
}
1002
{
1000
USEOLDBPT
1070
     0
1002
}
1001
GENIUS_GENOBJ-N-INFOPT_13
1002
{
1000
OWNER
1000
GEN
1002
}
1001
GENIUS_GENSYMENT_13
1002
{
1000
ENT
1005
FC0
1002
}
1001
GENIUS_GENODEF_13
1002
{
1000
HIER
1070
     0
1002
}
1002
{
1000
MANEDIT
1070
     0
1002
}
1002
{
1000
NOSEL
1070
     0
1002
}
1002
{
1000
BEHIND
1070
     0
1002
}
1002
{
1000
REACTOR
1002
}
1001
GENIUS_GENOBJ-N-RSSYM_13
1002
{
1000
OWNER
1000
GEN
1002
}
1001
GENIUS_GENINF13_13
1070
     1
  0
ATTRIB
  5
FC1
100
AcDbEntity
  8
INFO
100
AcDbText
 10
200.111753
 20
139.425286
 30
0.0
 40
1.0
  1
1
100
AcDbAttribute
  2
2GENINF
 70
     1
  0
ATTRIB
  5
FC2
100
AcDbEntity
  8
INFO
100
AcDbText
 10
200.111753
 20
137.925286
 30
0.0
 40
1.0
  1
<***aktuell***>
100
AcDbAttribute
  2
3GENINF
 70
     1
  0
ATTRIB
  5
FC3
100
AcDbEntity
  8
INFO
100
AcDbText
 10
200.111753
 20
136.425286
 30
0.0
 40
1.0
  1

100
AcDbAttribute
  2
4GENINF
 70
     1
  0
ATTRIB
  5
FC4
100
AcDbEntity
  8
INFO
100
AcDbText
 10
200.111753
 20
134.925286
 30
0.0
 40
1.0
  1
MSL2-120-3F
100
AcDbAttribute
  2
5GENINF
 70
     1
  0
ATTRIB
  5
FC5
100
AcDbEntity
  8
INFO
100
AcDbText
 10
200.111753
 20
133.425286
 30
0.0
 40
1.0
  1

100
AcDbAttribute
  2
6GENINF
 70
     1
  0
ATTRIB
  5
FC6
100
AcDbEntity
  8
INFO
100
AcDbText
 10
200.111753
 20
131.925286
 30
0.0
 40
1.0
  1
Fa. Mayer
100
AcDbAttribute
  2
7GENINF
 70
     1
  0
ATTRIB
  5
FC7
100
AcDbEntity
  8
INFO
100
AcDbText
 10
200.111753
 20
130.425286
 30
0.0
 40
1.0
  1

100
AcDbAttribute
  2
8GENINF
 70
     1
  0
ATTRIB
  5
FC8
100
AcDbEntity
  8
INFO
100
AcDbText
 10
200.111753
 20
128.925286
 30
0.0
 40
1.0
  1

100
AcDbAttribute
  2
9GENINF
 70
     1
  0
ATTRIB
  5
FC9
100
AcDbEntity
  8
INFO
100
AcDbText
 10
200.111753
 20
127.425286
 30
0.0
 40
1.0
  1

100
AcDbAttribute
  2
10GENINF
 70
     1
  0
ATTRIB
  5
FCA
100
AcDbEntity
  8
INFO
100
AcDbText
 10
200.111753
 20
125.925286
 30
0.0
 40
1.0
  1

100
AcDbAttribute
  2
11GENINF
 70
     1
  0
ATTRIB
  5
FCB
100
AcDbEntity
  8
INFO
100
AcDbText
 10
200.111753
 20
124.425286
 30
0.0
 40
1.0
  1

100
AcDbAttribute
  2
12GENINF
 70
     1
  0
ATTRIB
  5
FCC
100
AcDbEntity
  8
INFO
100
AcDbText
 10
200.111753
 20
122.925286
 30
0.0
 40
1.0
  1

100
AcDbAttribute
  2
13GENINF
 70
     1
  0
ATTRIB
  5
FCD
100
AcDbEntity
  8
INFO
100
AcDbText
 10
200.111753
 20
121.425286
 30
0.0
 40
1.0
  1

100
AcDbAttribute
  2
14GENINF
 70
     1
  0
ATTRIB
  5
FCE
100
AcDbEntity
  8
INFO
100
AcDbText
 10
200.111753
 20
119.925286
 30
0.0
 40
1.0
  1

100
AcDbAttribute
  2
15GENINF
 70
     1
  0
ATTRIB
  5
FCF
100
AcDbEntity
  8
INFO
100
AcDbText
 10
200.111753
 20
118.425286
 30
0.0
 40
1.0
  1

100
AcDbAttribute
  2
16GENINF
 70
     1
  0
ATTRIB
  5
FD0
100
AcDbEntity
  8
INFO
100
AcDbText
 10
200.111753
 20
116.925286
 30
0.0
 40
1.0
  1

100
AcDbAttribute
  2
17GENINF
 70
     1
  0
ATTRIB
  5
FD1
100
AcDbEntity
  8
INFO
100
AcDbText
 10
200.111753
 20
115.425286
 30
0.0
 40
1.0
  1

100
AcDbAttribute
  2
18GENINF
 70
     1
  0
ATTRIB
  5
FD2
100
AcDbEntity
  8
INFO
100
AcDbText
 10
200.111753
 20
113.925286
 30
0.0
 40
1.0
  1

100
AcDbAttribute
  2
19GENINF
 70
     1
  0
ATTRIB
  5
FD3
100
AcDbEntity
  8
INFO
100
AcDbText
 10
200.111753
 20
112.425286
 30
0.0
 40
1.0
  1

100
AcDbAttribute
  2
20GENINF
 70
     1
  0
ATTRIB
  5
FD4
100
AcDbEntity
  8
INFO
100
AcDbText
 10
200.111753
 20
110.925286
 30
0.0
 40
1.0
  1

100
AcDbAttribute
  2
21GENINF
 70
     1
  0
ATTRIB
  5
FD5
100
AcDbEntity
  8
INFO
100
AcDbText
 10
200.111753
 20
109.425286
 30
0.0
 40
1.0
  1

100
AcDbAttribute
  2
22GENINF
 70
     1
  0
ATTRIB
  5
FD6
100
AcDbEntity
  8
INFO
100
AcDbText
 10
200.111753
 20
107.925286
 30
0.0
 40
1.0
  1

100
AcDbAttribute
  2
23GENINF
 70
     1
  0
ATTRIB
  5
FD7
100
AcDbEntity
  8
INFO
100
AcDbText
 10
200.111753
 20
106.425286
 30
0.0
 40
1.0
  1

100
AcDbAttribute
  2
24GENINF
 70
     1
  0
ATTRIB
  5
FD8
100
AcDbEntity
  8
INFO
100
AcDbText
 10
200.111753
 20
104.925286
 30
0.0
 40
1.0
  1

100
AcDbAttribute
  2
0GENINF
 70
     1
  0
SEQEND
  5
FD9
100
AcDbEntity
  8
MSL2_120_3F-0
  0
LINE
  5
FDA
100
AcDbEntity
  8
MSL2_120_3F-0
100
AcDbLine
 10
159.680842
 20
109.0
 30
0.0
 11
159.680842
 21
191.0
 31
0.0
  0
LINE
  5
FDB
100
AcDbEntity
  8
MSL2_120_3F-0
100
AcDbLine
 10
143.680842
 20
191.0
 30
0.0
 11
143.680842
 21
109.0
 31
0.0
  0
MTEXT
  5
FDC
100
AcDbEntity
  8
MSL2_120_3F-6
100
AcDbMText
 10
181.8138
 20
114.949958
 30
0.0
 40
3.5
 41
21.059228
 71
     1
 72
     1
  1
{MSL2-120-3F}
  0
LINE
  5
FDD
100
AcDbEntity
  8
MSL2_120_3F-0
100
AcDbLine
 10
159.680842
 20
64.0
 30
0.0
 11
143.680842
 21
64.0
 31
0.0
  0
LINE
  5
FDE
100
AcDbEntity
  8
MSL2_120_3F-0
100
AcDbLine
 10
180.680842
 20
64.0
 30
0.0
 11
181.180842
 21
64.0
 31
0.0
  0
LINE
  5
FDF
100
AcDbEntity
  8
MSL2_120_3F-0
100
AcDbLine
 10
159.680842
 20
116.5
 30
0.0
 11
180.680842
 21
116.5
 31
0.0
  0
LINE
  5
FE0
100
AcDbEntity
  8
MSL2_120_3F-0
100
AcDbLine
 10
180.680842
 20
128.5
 30
0.0
 11
159.680842
 21
128.5
 31
0.0
  0
LINE
  5
FE1
100
AcDbEntity
  8
MSL2_120_3F-3
100
AcDbLine
 10
150.747842
 20
109.0
 30
0.0
 11
150.747842
 21
120.2
 31
0.0
  0
LINE
  5
FE2
100
AcDbEntity
  8
MSL2_120_3F-3
100
AcDbLine
 10
150.747842
 20
109.0
 30
0.0
 11
150.747842
 21
120.2
 31
0.0
  0
LINE
  5
FE3
100
AcDbEntity
  8
MSL2_120_3F-3
100
AcDbLine
 10
146.613842
 20
109.0
 30
0.0
 11
146.613842
 21
120.2
 31
0.0
  0
LINE
  5
FE4
100
AcDbEntity
  8
MSL2_120_3F-3
100
AcDbLine
 10
146.613842
 20
109.0
 30
0.0
 11
146.613842
 21
120.2
 31
0.0
  0
LINE
  5
FE5
100
AcDbEntity
  8
MSL2_120_3F-7
100
AcDbLine
 10
148.680842
 20
124.393383
 30
0.0
 11
148.680842
 21
106.0
 31
0.0
  0
LINE
  5
FE6
100
AcDbEntity
  8
MSL2_120_3F-7
100
AcDbLine
 10
148.680842
 20
124.393383
 30
0.0
 11
148.680842
 21
106.0
 31
0.0
  0
LINE
  5
FE7
100
AcDbEntity
  8
MSL2_120_3F-0
100
AcDbLine
 10
143.680842
 20
109.0
 30
0.0
 11
159.680842
 21
109.0
 31
0.0
  0
LINE
  5
FE8
100
AcDbEntity
  8
MSL2_120_3F-3
100
AcDbLine
 10
146.180842
 20
109.0
 30
0.0
 11
146.180842
 21
117.0
 31
0.0
  0
LINE
  5
FE9
100
AcDbEntity
  8
MSL2_120_3F-3
100
AcDbLine
 10
146.180842
 20
109.0
 30
0.0
 11
146.180842
 21
117.0
 31
0.0
  0
LINE
  5
FEA
100
AcDbEntity
  8
MSL2_120_3F-3
100
AcDbLine
 10
151.180842
 20
109.0
 30
0.0
 11
151.180842
 21
117.0
 31
0.0
  0
LINE
  5
FEB
100
AcDbEntity
  8
MSL2_120_3F-3
100
AcDbLine
 10
151.180842
 20
109.0
 30
0.0
 11
151.180842
 21
117.0
 31
0.0
  0
LINE
  5
FEC
100
AcDbEntity
  8
MSL2_120_3F-3
100
AcDbLine
 10
151.180842
 20
117.0
 30
0.0
 11
146.180842
 21
117.0
 31
0.0
  0
LINE
  5
FED
100
AcDbEntity
  8
MSL2_120_3F-3
100
AcDbLine
 10
151.180842
 20
117.0
 30
0.0
 11
146.180842
 21
117.0
 31
0.0
  0
CIRCLE
  5
FEE
100
AcDbEntity
  8
MSL2_120_3F-0
100
AcDbCircle
 10
154.680842
 20
125.0
 30
0.0
 40
2.067
  0
ARC
  5
FEF
100
AcDbEntity
  8
MSL2_120_3F-4
100
AcDbCircle
 10
154.680842
 20
125.0
 30
0.0
 40
2.5
100
AcDbArc
 50
172.405357
 51
104.931417
  0
LINE
  5
FF0
100
AcDbEntity
  8
MSL2_120_3F-7
100
AcDbLine
 10
150.930842
 20
125.0
 30
0.0
 11
158.430842
 21
125.0
 31
0.0
  0
LINE
  5
FF1
100
AcDbEntity
  8
MSL2_120_3F-3
100
AcDbLine
 10
148.680842
 20
121.393383
 30
0.0
 11
150.747842
 21
120.2
 31
0.0
  0
LINE
  5
FF2
100
AcDbEntity
  8
MSL2_120_3F-3
100
AcDbLine
 10
148.680842
 20
121.393383
 30
0.0
 11
150.747842
 21
120.2
 31
0.0
  0
LINE
  5
FF3
100
AcDbEntity
  8
MSL2_120_3F-3
100
AcDbLine
 10
150.747842
 20
120.2
 30
0.0
 11
146.613842
 21
120.2
 31
0.0
  0
LINE
  5
FF4
100
AcDbEntity
  8
MSL2_120_3F-3
100
AcDbLine
 10
150.747842
 20
120.2
 30
0.0
 11
146.613842
 21
120.2
 31
0.0
  0
LINE
  5
FF5
100
AcDbEntity
  8
MSL2_120_3F-3
100
AcDbLine
 10
148.680842
 20
121.393383
 30
0.0
 11
146.613842
 21
120.2
 31
0.0
  0
LINE
  5
FF6
100
AcDbEntity
  8
MSL2_120_3F-3
100
AcDbLine
 10
148.680842
 20
121.393383
 30
0.0
 11
146.613842
 21
120.2
 31
0.0
  0
LINE
  5
FF7
100
AcDbEntity
  8
MSL2_120_3F-7
100
AcDbLine
 10
154.680842
 20
121.25
 30
0.0
 11
154.680842
 21
128.75
 31
0.0
  0
LINE
  5
FF8
100
AcDbEntity
  8
MSL2_120_3F-7
100
AcDbLine
 10
221.930842
 20
135.0
 30
0.0
 11
229.430842
 21
135.0
 31
0.0
  0
LINE
  5
FF9
100
AcDbEntity
  8
MSL2_120_3F-7
100
AcDbLine
 10
225.680842
 20
122.480714
 30
0.0
 11
225.680842
 21
105.934345
 31
0.0
  0
ARC
  5
FFA
100
AcDbEntity
  8
MSL2_120_3F-4
100
AcDbCircle
 10
225.680842
 20
135.0
 30
0.0
 40
2.5
100
AcDbArc
 50
172.405357
 51
104.931417
  0
CIRCLE
  5
FFB
100
AcDbEntity
  8
MSL2_120_3F-0
100
AcDbCircle
 10
225.680842
 20
135.0
 30
0.0
 40
2.067
  0
LINE
  5
FFC
100
AcDbEntity
  8
MSL2_120_3F-7
100
AcDbLine
 10
240.680842
 20
122.480714
 30
0.0
 11
240.680842
 21
105.934345
 31
0.0
  0
LINE
  5
FFD
100
AcDbEntity
  8
MSL2_120_3F-7
100
AcDbLine
 10
255.680842
 20
122.480714
 30
0.0
 11
255.680842
 21
105.934345
 31
0.0
  0
LINE
  5
FFE
100
AcDbEntity
  8
MSL2_120_3F-7
100
AcDbLine
 10
240.680842
 20
135.0
 30
0.0
 11
244.288036
 21
135.0
 31
0.0
  0
CIRCLE
  5
FFF
100
AcDbEntity
  8
MSL2_120_3F-0
100
AcDbCircle
 10
240.680842
 20
135.0
 30
0.0
 40
2.5
  0
LINE
  5
1000
100
AcDbEntity
  8
MSL2_120_3F-7
100
AcDbLine
 10
240.680842
 20
135.0
 30
0.0
 11
237.073648
 21
135.0
 31
0.0
  0
LINE
  5
1001
100
AcDbEntity
  8
MSL2_120_3F-7
100
AcDbLine
 10
240.680842
 20
135.0
 30
0.0
 11
240.680842
 21
131.392806
 31
0.0
  0
ARC
  5
1002
100
AcDbEntity
  8
MSL2_120_3F-4
100
AcDbCircle
 10
255.680842
 20
135.0
 30
0.0
 40
2.5
100
AcDbArc
 50
172.405357
 51
104.931417
  0
CIRCLE
  5
1003
100
AcDbEntity
  8
MSL2_120_3F-0
100
AcDbCircle
 10
255.680842
 20
135.0
 30
0.0
 40
2.067
  0
LINE
  5
1004
100
AcDbEntity
  8
MSL2_120_3F-7
100
AcDbLine
 10
154.680842
 20
171.25
 30
0.0
 11
154.680842
 21
178.75
 31
0.0
  0
ARC
  5
1005
100
AcDbEntity
  8
MSL2_120_3F-4
100
AcDbCircle
 10
154.680842
 20
175.0
 30
0.0
 40
2.5
100
AcDbArc
 50
172.405357
 51
104.931417
  0
CIRCLE
  5
1006
100
AcDbEntity
  8
MSL2_120_3F-0
100
AcDbCircle
 10
154.680842
 20
175.0
 30
0.0
 40
2.067
  0
LINE
  5
1007
100
AcDbEntity
  8
MSL2_120_3F-7
100
AcDbLine
 10
148.680842
 20
175.606617
 30
0.0
 11
148.680842
 21
194.0
 31
0.0
  0
LINE
  5
1008
100
AcDbEntity
  8
MSL2_120_3F-7
100
AcDbLine
 10
148.680842
 20
175.606617
 30
0.0
 11
148.680842
 21
194.0
 31
0.0
  0
LINE
  5
1009
100
AcDbEntity
  8
MSL2_120_3F-0
100
AcDbLine
 10
159.680842
 20
171.5
 30
0.0
 11
180.680842
 21
171.5
 31
0.0
  0
LINE
  5
100A
100
AcDbEntity
  8
MSL2_120_3F-0
100
AcDbLine
 10
166.680842
 20
159.0
 30
0.0
 11
180.680842
 21
159.0
 31
0.0
  0
LINE
  5
100B
100
AcDbEntity
  8
MSL2_120_3F-0
100
AcDbLine
 10
180.680842
 20
141.0
 30
0.0
 11
166.680842
 21
141.0
 31
0.0
  0
LINE
  5
100C
100
AcDbEntity
  8
MSL2_120_3F-0
100
AcDbLine
 10
165.680842
 20
142.0
 30
0.0
 11
165.680842
 21
158.0
 31
0.0
  0
LINE
  5
100D
100
AcDbEntity
  8
MSL2_120_3F-0
100
AcDbLine
 10
166.680842
 20
141.0
 30
0.0
 11
166.680842
 21
159.0
 31
0.0
  0
LINE
  5
100E
100
AcDbEntity
  8
MSL2_120_3F-0
100
AcDbLine
 10
159.680842
 20
144.0
 30
0.0
 11
165.680842
 21
144.0
 31
0.0
  0
LINE
  5
100F
100
AcDbEntity
  8
MSL2_120_3F-0
100
AcDbLine
 10
159.680842
 20
147.0
 30
0.0
 11
165.680842
 21
147.0
 31
0.0
  0
LINE
  5
1010
100
AcDbEntity
  8
MSL2_120_3F-0
100
AcDbLine
 10
166.680842
 20
141.0
 30
0.0
 11
165.680842
 21
142.0
 31
0.0
  0
LINE
  5
1011
100
AcDbEntity
  8
MSL2_120_3F-0
100
AcDbLine
 10
165.680842
 20
153.0
 30
0.0
 11
159.680842
 21
153.0
 31
0.0
  0
LINE
  5
1012
100
AcDbEntity
  8
MSL2_120_3F-0
100
AcDbLine
 10
165.680842
 20
156.0
 30
0.0
 11
159.680842
 21
156.0
 31
0.0
  0
LINE
  5
1013
100
AcDbEntity
  8
MSL2_120_3F-7
100
AcDbLine
 10
150.930842
 20
175.0
 30
0.0
 11
158.430842
 21
175.0
 31
0.0
  0
LINE
  5
1014
100
AcDbEntity
  8
MSL2_120_3F-0
100
AcDbLine
 10
165.680842
 20
158.0
 30
0.0
 11
166.680842
 21
159.0
 31
0.0
  0
LINE
  5
1015
100
AcDbEntity
  8
MSL2_120_3F-0
100
AcDbLine
 10
180.680842
 20
183.5
 30
0.0
 11
159.680842
 21
183.5
 31
0.0
  0
LINE
  5
1016
100
AcDbEntity
  8
MSL2_120_3F-0
100
AcDbLine
 10
159.680842
 20
191.0
 30
0.0
 11
143.680842
 21
191.0
 31
0.0
  0
LINE
  5
1017
100
AcDbEntity
  8
MSL2_120_3F-3
100
AcDbLine
 10
146.180842
 20
191.0
 30
0.0
 11
146.180842
 21
183.0
 31
0.0
  0
LINE
  5
1018
100
AcDbEntity
  8
MSL2_120_3F-3
100
AcDbLine
 10
146.180842
 20
191.0
 30
0.0
 11
146.180842
 21
183.0
 31
0.0
  0
LINE
  5
1019
100
AcDbEntity
  8
MSL2_120_3F-3
100
AcDbLine
 10
151.180842
 20
191.0
 30
0.0
 11
151.180842
 21
183.0
 31
0.0
  0
LINE
  5
101A
100
AcDbEntity
  8
MSL2_120_3F-3
100
AcDbLine
 10
151.180842
 20
191.0
 30
0.0
 11
151.180842
 21
183.0
 31
0.0
  0
LINE
  5
101B
100
AcDbEntity
  8
MSL2_120_3F-3
100
AcDbLine
 10
150.747842
 20
191.0
 30
0.0
 11
150.747842
 21
179.8
 31
0.0
  0
LINE
  5
101C
100
AcDbEntity
  8
MSL2_120_3F-3
100
AcDbLine
 10
150.747842
 20
191.0
 30
0.0
 11
150.747842
 21
179.8
 31
0.0
  0
LINE
  5
101D
100
AcDbEntity
  8
MSL2_120_3F-3
100
AcDbLine
 10
146.613842
 20
191.0
 30
0.0
 11
146.613842
 21
179.8
 31
0.0
  0
LINE
  5
101E
100
AcDbEntity
  8
MSL2_120_3F-3
100
AcDbLine
 10
146.613842
 20
191.0
 30
0.0
 11
146.613842
 21
179.8
 31
0.0
  0
LINE
  5
101F
100
AcDbEntity
  8
MSL2_120_3F-3
100
AcDbLine
 10
151.180842
 20
183.0
 30
0.0
 11
146.180842
 21
183.0
 31
0.0
  0
LINE
  5
1020
100
AcDbEntity
  8
MSL2_120_3F-3
100
AcDbLine
 10
151.180842
 20
183.0
 30
0.0
 11
146.180842
 21
183.0
 31
0.0
  0
LINE
  5
1021
100
AcDbEntity
  8
MSL2_120_3F-3
100
AcDbLine
 10
150.747842
 20
179.8
 30
0.0
 11
146.613842
 21
179.8
 31
0.0
  0
LINE
  5
1022
100
AcDbEntity
  8
MSL2_120_3F-3
100
AcDbLine
 10
150.747842
 20
179.8
 30
0.0
 11
146.613842
 21
179.8
 31
0.0
  0
LINE
  5
1023
100
AcDbEntity
  8
MSL2_120_3F-3
100
AcDbLine
 10
148.680842
 20
178.606617
 30
0.0
 11
150.747842
 21
179.8
 31
0.0
  0
LINE
  5
1024
100
AcDbEntity
  8
MSL2_120_3F-3
100
AcDbLine
 10
148.680842
 20
178.606617
 30
0.0
 11
150.747842
 21
179.8
 31
0.0
  0
LINE
  5
1025
100
AcDbEntity
  8
MSL2_120_3F-3
100
AcDbLine
 10
148.680842
 20
178.606617
 30
0.0
 11
146.613842
 21
179.8
 31
0.0
  0
LINE
  5
1026
100
AcDbEntity
  8
MSL2_120_3F-3
100
AcDbLine
 10
148.680842
 20
178.606617
 30
0.0
 11
146.613842
 21
179.8
 31
0.0
  0
LINE
  5
1027
100
AcDbEntity
  8
MSL2_120_3F-7
100
AcDbLine
 10
221.930842
 20
165.0
 30
0.0
 11
229.430842
 21
165.0
 31
0.0
  0
LINE
  5
1028
100
AcDbEntity
  8
MSL2_120_3F-7
100
AcDbLine
 10
225.680842
 20
161.25
 30
0.0
 11
225.680842
 21
168.75
 31
0.0
  0
ARC
  5
1029
100
AcDbEntity
  8
MSL2_120_3F-4
100
AcDbCircle
 10
225.680842
 20
165.0
 30
0.0
 40
2.5
100
AcDbArc
 50
172.405357
 51
104.931417
  0
CIRCLE
  5
102A
100
AcDbEntity
  8
MSL2_120_3F-0
100
AcDbCircle
 10
225.680842
 20
165.0
 30
0.0
 40
2.067
  0
LINE
  5
102B
100
AcDbEntity
  8
MSL2_120_3F-7
100
AcDbLine
 10
240.680842
 20
161.451766
 30
0.0
 11
240.680842
 21
138.635194
 31
0.0
  0
LINE
  5
102C
100
AcDbEntity
  8
MSL2_120_3F-7
100
AcDbLine
 10
240.680842
 20
165.0
 30
0.0
 11
244.154336
 21
165.0
 31
0.0
  0
LINE
  5
102D
100
AcDbEntity
  8
MSL2_120_3F-7
100
AcDbLine
 10
240.680842
 20
165.0
 30
0.0
 11
240.680842
 21
168.473494
 31
0.0
  0
CIRCLE
  5
102E
100
AcDbEntity
  8
MSL2_120_3F-0
100
AcDbCircle
 10
240.680842
 20
164.965783
 30
0.0
 40
2.5
  0
LINE
  5
102F
100
AcDbEntity
  8
MSL2_120_3F-7
100
AcDbLine
 10
240.680842
 20
165.0
 30
0.0
 11
240.680842
 21
161.526506
 31
0.0
  0
LINE
  5
1030
100
AcDbEntity
  8
MSL2_120_3F-7
100
AcDbLine
 10
240.680842
 20
165.0
 30
0.0
 11
237.207347
 21
165.0
 31
0.0
  0
LINE
  5
1031
100
AcDbEntity
  8
MSL2_120_3F-7
100
AcDbLine
 10
255.680842
 20
161.25
 30
0.0
 11
255.680842
 21
168.75
 31
0.0
  0
CIRCLE
  5
1032
100
AcDbEntity
  8
MSL2_120_3F-0
100
AcDbCircle
 10
255.680842
 20
165.0
 30
0.0
 40
2.067
  0
ARC
  5
1033
100
AcDbEntity
  8
MSL2_120_3F-4
100
AcDbCircle
 10
255.680842
 20
165.0
 30
0.0
 40
2.5
100
AcDbArc
 50
172.405357
 51
104.931417
  0
ARC
  5
1034
100
AcDbEntity
  8
MSL2_120_3F-0
100
AcDbCircle
 10
230.180842
 20
192.5
 30
0.0
 40
1.5
100
AcDbArc
 50
90.000001
 51
180.0
  0
LINE
  5
1035
100
AcDbEntity
  8
MSL2_120_3F-7
100
AcDbLine
 10
221.180842
 20
187.301616
 30
0.0
 11
221.180842
 21
195.992834
 31
0.0
  0
LINE
  5
1036
100
AcDbEntity
  8
MSL2_120_3F-7
100
AcDbLine
 10
225.680842
 20
193.717185
 30
0.0
 11
225.680842
 21
177.519161
 31
0.0
  0
LINE
  5
1037
100
AcDbEntity
  8
MSL2_120_3F-0
100
AcDbLine
 10
225.180842
 20
194.0
 30
0.0
 11
217.180842
 21
194.0
 31
0.0
  0
ARC
  5
1038
100
AcDbEntity
  8
MSL2_120_3F-0
100
AcDbCircle
 10
217.180842
 20
192.5
 30
0.0
 40
1.5
100
AcDbArc
 50
90.000001
 51
180.0
  0
LINE
  5
1039
100
AcDbEntity
  8
MSL2_120_3F-0
100
AcDbLine
 10
215.680842
 20
192.5
 30
0.0
 11
215.680842
 21
190.0
 31
0.0
  0
LINE
  5
103A
100
AcDbEntity
  8
MSL2_120_3F-0
100
AcDbLine
 10
228.680842
 20
192.5
 30
0.0
 11
228.680842
 21
190.0
 31
0.0
  0
LINE
  5
103B
100
AcDbEntity
  8
MSL2_120_3F-0
100
AcDbLine
 10
226.680842
 20
190.0
 30
0.0
 11
226.680842
 21
192.5
 31
0.0
  0
ARC
  5
103C
100
AcDbEntity
  8
MSL2_120_3F-0
100
AcDbCircle
 10
225.180842
 20
192.5
 30
0.0
 40
1.5
100
AcDbArc
 50
359.999998
 51
90.000001
  0
LINE
  5
103D
100
AcDbEntity
  8
MSL2_120_3F-7
100
AcDbLine
 10
234.180842
 20
187.301616
 30
0.0
 11
234.180842
 21
195.992834
 31
0.0
  0
LINE
  5
103E
100
AcDbEntity
  8
MSL2_120_3F-7
100
AcDbLine
 10
240.680842
 20
193.717185
 30
0.0
 11
240.680842
 21
177.519161
 31
0.0
  0
LINE
  5
103F
100
AcDbEntity
  8
MSL2_120_3F-0
100
AcDbLine
 10
238.180842
 20
194.0
 30
0.0
 11
230.180842
 21
194.0
 31
0.0
  0
ARC
  5
1040
100
AcDbEntity
  8
MSL2_120_3F-0
100
AcDbCircle
 10
238.180842
 20
192.5
 30
0.0
 40
1.5
100
AcDbArc
 50
359.999998
 51
90.000001
  0
LINE
  5
1041
100
AcDbEntity
  8
MSL2_120_3F-0
100
AcDbLine
 10
239.680842
 20
190.0
 30
0.0
 11
239.680842
 21
192.5
 31
0.0
  0
LINE
  5
1042
100
AcDbEntity
  8
MSL2_120_3F-7
100
AcDbLine
 10
255.680842
 20
193.717185
 30
0.0
 11
255.680842
 21
177.519161
 31
0.0
  0
LINE
  5
1043
100
AcDbEntity
  8
MSL2_120_3F-0
100
AcDbLine
 10
517.680842
 20
-21.0
 30
0.0
 11
517.680842
 21
64.0
 31
0.0
  0
LINE
  5
1044
100
AcDbEntity
  8
MSL2_120_3F-0
100
AcDbLine
 10
501.680842
 20
64.0
 30
0.0
 11
501.680842
 21
-21.0
 31
0.0
  0
LINE
  5
1045
100
AcDbEntity
  8
MSL2_120_3F-0
100
AcDbLine
 10
360.680842
 20
-20.0
 30
0.0
 11
360.680842
 21
64.0
 31
0.0
  0
LINE
  5
1046
100
AcDbEntity
  8
MSL2_120_3F-0
100
AcDbLine
 10
360.180842
 20
65.0
 30
0.0
 11
360.180842
 21
58.335707
 31
0.0
  0
LINE
  5
1047
100
AcDbEntity
  8
MSL2_120_3F-0
100
AcDbLine
 10
497.680842
 20
34.0
 30
0.0
 11
487.680842
 21
34.0
 31
0.0
  0
LINE
  5
1048
100
AcDbEntity
  8
MSL2_120_3F-0
100
AcDbLine
 10
487.680842
 20
26.0
 30
0.0
 11
497.680842
 21
26.0
 31
0.0
  0
LINE
  5
1049
100
AcDbEntity
  8
MSL2_120_3F-0
100
AcDbLine
 10
487.680842
 20
-100.721056
 30
0.0
 11
497.711026
 21
-100.721056
 31
0.0
  0
LINE
  5
104A
100
AcDbEntity
  8
MSL2_120_3F-0
100
AcDbLine
 10
487.680842
 20
-102.721056
 30
0.0
 11
497.680842
 21
-102.721056
 31
0.0
  0
LINE
  5
104B
100
AcDbEntity
  8
MSL2_120_3F-0
100
AcDbLine
 10
497.680842
 20
-110.721056
 30
0.0
 11
487.680842
 21
-110.721056
 31
0.0
  0
LINE
  5
104C
100
AcDbEntity
  8
MSL2_120_3F-0
100
AcDbLine
 10
497.711026
 20
-112.721056
 30
0.0
 11
487.680842
 21
-112.721056
 31
0.0
  0
LINE
  5
104D
100
AcDbEntity
  8
MSL2_120_3F-7
100
AcDbLine
 10
521.029727
 20
50.0
 30
0.0
 11
355.956959
 21
50.0
 31
0.0
  0
LINE
  5
104E
100
AcDbEntity
  8
MSL2_120_3F-7
100
AcDbLine
 10
356.221026
 20
30.0
 30
0.0
 11
517.503342
 21
30.0
 31
0.0
  0
LINE
  5
104F
100
AcDbEntity
  8
MSL2_120_3F-7
100
AcDbLine
 10
521.029727
 20
0.0
 30
0.0
 11
355.956959
 21
0.0
 31
0.0
  0
LINE
  5
1050
100
AcDbEntity
  8
MSL2_120_3F-7
100
AcDbLine
 10
521.029727
 20
-106.721056
 30
0.0
 11
356.656661
 21
-106.721056
 31
0.0
  0
LINE
  5
1051
100
AcDbEntity
  8
MSL2_120_3F-7
100
AcDbLine
 10
521.029727
 20
-161.721056
 30
0.0
 11
356.656661
 21
-161.721056
 31
0.0
  0
LINE
  5
1052
100
AcDbEntity
  8
MSL2_120_3F-0
100
AcDbLine
 10
501.680842
 20
-128.221056
 30
0.0
 11
360.680842
 21
-128.221056
 31
0.0
  0
LINE
  5
1053
100
AcDbEntity
  8
MSL2_120_3F-0
100
AcDbLine
 10
360.680842
 20
-140.221056
 30
0.0
 11
501.680842
 21
-140.221056
 31
0.0
  0
POLYLINE
  5
1054
100
AcDbEntity
  8
MSL2_120_3F-0
100
AcDb2dPolyline
 66
     1
 10
0.0
 20
0.0
 30
0.0
  0
VERTEX
  5
1055
100
AcDbEntity
  8
MSL2_120_3F-0
  6
CONTINUOUS
100
AcDbVertex
100
AcDb2dVertex
 10
501.680842
 20
-167.721056
 30
0.0
  0
VERTEX
  5
1056
100
AcDbEntity
  8
MSL2_120_3F-0
  6
CONTINUOUS
100
AcDbVertex
100
AcDb2dVertex
 10
390.780842
 20
-167.721056
 30
0.0
  0
VERTEX
  5
1057
100
AcDbEntity
  8
MSL2_120_3F-0
  6
CONTINUOUS
100
AcDbVertex
100
AcDb2dVertex
 10
369.680842
 20
-167.721056
 30
0.0
  0
SEQEND
  5
1058
100
AcDbEntity
  8
MSL2_120_3F-0
  0
POLYLINE
  5
1059
100
AcDbEntity
  8
MSL2_120_3F-0
100
AcDb2dPolyline
 66
     1
 10
0.0
 20
0.0
 30
0.0
  0
VERTEX
  5
105A
100
AcDbEntity
  8
MSL2_120_3F-0
  6
CONTINUOUS
100
AcDbVertex
100
AcDb2dVertex
 10
390.780842
 20
-155.721056
 30
0.0
  0
VERTEX
  5
105B
100
AcDbEntity
  8
MSL2_120_3F-0
  6
CONTINUOUS
100
AcDbVertex
100
AcDb2dVertex
 10
369.680842
 20
-155.721056
 30
0.0
  0
VERTEX
  5
105C
100
AcDbEntity
  8
MSL2_120_3F-0
  6
CONTINUOUS
100
AcDbVertex
100
AcDb2dVertex
 10
501.680842
 20
-155.721056
 30
0.0
  0
SEQEND
  5
105D
100
AcDbEntity
  8
MSL2_120_3F-0
  0
LINE
  5
105E
100
AcDbEntity
  8
MSL2_120_3F-3
100
AcDbLine
 10
375.680842
 20
-131.221056
 30
0.0
 11
501.680842
 21
-131.221056
 31
0.0
1001
GENIUS_GENBH_13
1002
{
1000
OE
1000
CON1
1002
}
1001
GENIUS_GENOREF_13
1005
120E
  0
LINE
  5
105F
100
AcDbEntity
  8
MSL2_120_3F-3
100
AcDbLine
 10
501.680842
 20
-137.221056
 30
0.0
 11
375.680842
 21
-137.221056
 31
0.0
1001
GENIUS_GENBH_13
1002
{
1000
OE
1000
CON1
1002
}
1001
GENIUS_GENOREF_13
1005
120E
  0
LINE
  5
1060
100
AcDbEntity
  8
MSL2_120_3F-0
100
AcDbLine
 10
501.680842
 20
56.0
 30
0.0
 11
360.680842
 21
56.0
 31
0.0
  0
LINE
  5
1061
100
AcDbEntity
  8
MSL2_120_3F-0
100
AcDbLine
 10
360.680842
 20
44.0
 30
0.0
 11
501.680842
 21
44.0
 31
0.0
  0
LINE
  5
1062
100
AcDbEntity
  8
MSL2_120_3F-0
100
AcDbLine
 10
501.680842
 20
6.0
 30
0.0
 11
360.680842
 21
6.0
 31
0.0
  0
LINE
  5
1063
100
AcDbEntity
  8
MSL2_120_3F-0
100
AcDbLine
 10
360.680842
 20
-6.0
 30
0.0
 11
501.680842
 21
-6.0
 31
0.0
  0
LINE
  5
1064
100
AcDbEntity
  8
MSL2_120_3F-0
100
AcDbLine
 10
369.680842
 20
-163.771056
 30
0.0
 11
380.780842
 21
-163.771056
 31
0.0
  0
LINE
  5
1065
100
AcDbEntity
  8
MSL2_120_3F-0
100
AcDbLine
 10
369.680842
 20
-159.671056
 30
0.0
 11
380.780842
 21
-159.671056
 31
0.0
  0
LINE
  5
1066
100
AcDbEntity
  8
MSL2_120_3F-0
100
AcDbLine
 10
363.680842
 20
-100.721056
 30
0.0
 11
483.70782
 21
-100.721056
 31
0.0
  0
LINE
  5
1067
100
AcDbEntity
  8
MSL2_120_3F-0
100
AcDbLine
 10
483.70782
 20
-112.721056
 30
0.0
 11
363.680842
 21
-112.721056
 31
0.0
  0
LINE
  5
1068
100
AcDbEntity
  8
MSL2_120_3F-0
100
AcDbLine
 10
368.680842
 20
-154.721056
 30
0.0
 11
368.680842
 21
-168.721056
 31
0.0
  0
LINE
  5
1069
100
AcDbEntity
  8
MSL2_120_3F-0
100
AcDbLine
 10
369.680842
 20
-155.721056
 30
0.0
 11
369.680842
 21
-167.721056
 31
0.0
  0
LINE
  5
106A
100
AcDbEntity
  8
MSL2_120_3F-0
100
AcDbLine
 10
360.680842
 20
-94.221056
 30
0.0
 11
360.680842
 21
-174.221056
 31
0.0
  0
LINE
  5
106B
100
AcDbEntity
  8
MSL2_120_3F-0
100
AcDbLine
 10
340.480842
 20
-149.178529
 30
0.0
 11
340.480842
 21
-166.031507
 31
0.0
  0
LINE
  5
106C
100
AcDbEntity
  8
MSL2_120_3F-0
100
AcDbLine
 10
340.480842
 20
-166.031507
 30
0.0
 11
360.180842
 21
-166.031507
 31
0.0
  0
LINE
  5
106D
100
AcDbEntity
  8
MSL2_120_3F-0
100
AcDbLine
 10
368.680842
 20
-168.721056
 30
0.0
 11
360.680842
 21
-168.721056
 31
0.0
  0
LINE
  5
106E
100
AcDbEntity
  8
MSL2_120_3F-0
100
AcDbLine
 10
360.180842
 20
-166.031507
 30
0.0
 11
360.180842
 21
-173.221056
 31
0.0
  0
LINE
  5
106F
100
AcDbEntity
  8
MSL2_120_3F-0
100
AcDbLine
 10
369.680842
 20
-167.721056
 30
0.0
 11
368.680842
 21
-168.721056
 31
0.0
  0
CIRCLE
  5
1070
100
AcDbEntity
  8
MSL2_120_3F-3
100
AcDbCircle
 10
315.680842
 20
-119.221056
 30
0.0
 40
2.067
  0
ARC
  5
1071
100
AcDbEntity
  8
MSL2_120_3F-3
100
AcDbCircle
 10
315.680842
 20
-119.221056
 30
0.0
 40
2.5
100
AcDbArc
 50
172.405357
 51
104.931417
  0
LINE
  5
1072
100
AcDbEntity
  8
MSL2_120_3F-7
100
AcDbLine
 10
311.930842
 20
-119.221056
 30
0.0
 11
319.430842
 21
-119.221056
 31
0.0
  0
CIRCLE
  5
1073
100
AcDbEntity
  8
MSL2_120_3F-3
100
AcDbCircle
 10
315.680842
 20
-149.221056
 30
0.0
 40
2.067
  0
ARC
  5
1074
100
AcDbEntity
  8
MSL2_120_3F-3
100
AcDbCircle
 10
315.680842
 20
-149.221056
 30
0.0
 40
2.5
100
AcDbArc
 50
172.405357
 51
104.931417
  0
LINE
  5
1075
100
AcDbEntity
  8
MSL2_120_3F-7
100
AcDbLine
 10
311.930842
 20
-149.221056
 30
0.0
 11
319.430842
 21
-149.221056
 31
0.0
  0
LINE
  5
1076
100
AcDbEntity
  8
MSL2_120_3F-7
100
AcDbLine
 10
300.680842
 20
-122.76929
 30
0.0
 11
300.680842
 21
-145.585862
 31
0.0
  0
LINE
  5
1077
100
AcDbEntity
  8
MSL2_120_3F-7
100
AcDbLine
 10
270.680842
 20
-122.76929
 30
0.0
 11
270.680842
 21
-145.585862
 31
0.0
  0
ARC
  5
1078
100
AcDbEntity
  8
MSL2_120_3F-3
100
AcDbCircle
 10
285.680842
 20
-149.221056
 30
0.0
 40
2.5
100
AcDbArc
 50
172.405357
 51
104.931417
  0
LINE
  5
1079
100
AcDbEntity
  8
MSL2_120_3F-7
100
AcDbLine
 10
281.930842
 20
-149.221056
 30
0.0
 11
289.430842
 21
-149.221056
 31
0.0
  0
LINE
  5
107A
100
AcDbEntity
  8
MSL2_120_3F-7
100
AcDbLine
 10
270.680842
 20
-149.221056
 30
0.0
 11
270.680842
 21
-145.613862
 31
0.0
  0
LINE
  5
107B
100
AcDbEntity
  8
MSL2_120_3F-7
100
AcDbLine
 10
285.680842
 20
-152.971056
 30
0.0
 11
285.680842
 21
-145.471056
 31
0.0
  0
LINE
  5
107C
100
AcDbEntity
  8
MSL2_120_3F-7
100
AcDbLine
 10
270.680842
 20
-149.221056
 30
0.0
 11
274.288036
 21
-149.221056
 31
0.0
  0
CIRCLE
  5
107D
100
AcDbEntity
  8
MSL2_120_3F-3
100
AcDbCircle
 10
270.680842
 20
-149.221056
 30
0.0
 40
2.5
  0
LINE
  5
107E
100
AcDbEntity
  8
MSL2_120_3F-7
100
AcDbLine
 10
270.680842
 20
-149.221056
 30
0.0
 11
270.680842
 21
-152.82825
 31
0.0
  0
LINE
  5
107F
100
AcDbEntity
  8
MSL2_120_3F-7
100
AcDbLine
 10
270.680842
 20
-149.221056
 30
0.0
 11
267.073648
 21
-149.221056
 31
0.0
  0
CIRCLE
  5
1080
100
AcDbEntity
  8
MSL2_120_3F-3
100
AcDbCircle
 10
285.680842
 20
-149.221056
 30
0.0
 40
2.067
  0
LINE
  5
1081
100
AcDbEntity
  8
MSL2_120_3F-7
100
AcDbLine
 10
315.680842
 20
-152.971056
 30
0.0
 11
315.680842
 21
-145.471056
 31
0.0
  0
LINE
  5
1082
100
AcDbEntity
  8
MSL2_120_3F-7
100
AcDbLine
 10
300.680842
 20
-149.221056
 30
0.0
 11
300.680842
 21
-145.613862
 31
0.0
  0
CIRCLE
  5
1083
100
AcDbEntity
  8
MSL2_120_3F-3
100
AcDbCircle
 10
300.680842
 20
-149.221056
 30
0.0
 40
2.5
  0
LINE
  5
1084
100
AcDbEntity
  8
MSL2_120_3F-7
100
AcDbLine
 10
300.680842
 20
-149.221056
 30
0.0
 11
304.288036
 21
-149.221056
 31
0.0
  0
LINE
  5
1085
100
AcDbEntity
  8
MSL2_120_3F-7
100
AcDbLine
 10
300.680842
 20
-149.221056
 30
0.0
 11
300.680842
 21
-152.82825
 31
0.0
  0
LINE
  5
1086
100
AcDbEntity
  8
MSL2_120_3F-7
100
AcDbLine
 10
300.680842
 20
-149.221056
 30
0.0
 11
297.073648
 21
-149.221056
 31
0.0
  0
ARC
  5
1087
100
AcDbEntity
  8
MSL2_120_3F-3
100
AcDbCircle
 10
285.680842
 20
-119.221056
 30
0.0
 40
2.5
100
AcDbArc
 50
172.405357
 51
104.931417
  0
LINE
  5
1088
100
AcDbEntity
  8
MSL2_120_3F-7
100
AcDbLine
 10
281.930842
 20
-119.221056
 30
0.0
 11
289.430842
 21
-119.221056
 31
0.0
  0
LINE
  5
1089
100
AcDbEntity
  8
MSL2_120_3F-7
100
AcDbLine
 10
270.680842
 20
-119.221056
 30
0.0
 11
274.154336
 21
-119.221056
 31
0.0
  0
CIRCLE
  5
108A
100
AcDbEntity
  8
MSL2_120_3F-3
100
AcDbCircle
 10
270.680842
 20
-119.255273
 30
0.0
 40
2.5
  0
LINE
  5
108B
100
AcDbEntity
  8
MSL2_120_3F-7
100
AcDbLine
 10
270.680842
 20
-119.221056
 30
0.0
 11
270.680842
 21
-115.747562
 31
0.0
  0
LINE
  5
108C
100
AcDbEntity
  8
MSL2_120_3F-7
100
AcDbLine
 10
270.680842
 20
-119.221056
 30
0.0
 11
270.680842
 21
-122.69455
 31
0.0
  0
LINE
  5
108D
100
AcDbEntity
  8
MSL2_120_3F-7
100
AcDbLine
 10
270.680842
 20
-119.221056
 30
0.0
 11
267.207347
 21
-119.221056
 31
0.0
  0
CIRCLE
  5
108E
100
AcDbEntity
  8
MSL2_120_3F-3
100
AcDbCircle
 10
285.680842
 20
-119.221056
 30
0.0
 40
2.067
  0
LINE
  5
108F
100
AcDbEntity
  8
MSL2_120_3F-7
100
AcDbLine
 10
285.680842
 20
-122.971056
 30
0.0
 11
285.680842
 21
-115.471056
 31
0.0
  0
LINE
  5
1090
100
AcDbEntity
  8
MSL2_120_3F-7
100
AcDbLine
 10
300.680842
 20
-119.221056
 30
0.0
 11
304.154336
 21
-119.221056
 31
0.0
  0
CIRCLE
  5
1091
100
AcDbEntity
  8
MSL2_120_3F-3
100
AcDbCircle
 10
300.680842
 20
-119.255273
 30
0.0
 40
2.5
  0
LINE
  5
1092
100
AcDbEntity
  8
MSL2_120_3F-7
100
AcDbLine
 10
300.680842
 20
-119.221056
 30
0.0
 11
300.680842
 21
-115.747562
 31
0.0
  0
LINE
  5
1093
100
AcDbEntity
  8
MSL2_120_3F-7
100
AcDbLine
 10
300.680842
 20
-119.221056
 30
0.0
 11
300.680842
 21
-122.69455
 31
0.0
  0
LINE
  5
1094
100
AcDbEntity
  8
MSL2_120_3F-7
100
AcDbLine
 10
300.680842
 20
-119.221056
 30
0.0
 11
297.207347
 21
-119.221056
 31
0.0
  0
LINE
  5
1095
100
AcDbEntity
  8
MSL2_120_3F-7
100
AcDbLine
 10
315.680842
 20
-122.971056
 30
0.0
 11
315.680842
 21
-115.471056
 31
0.0
  0
LINE
  5
1096
100
AcDbEntity
  8
MSL2_120_3F-0
100
AcDbLine
 10
375.680842
 20
-128.221056
 30
0.0
 11
375.680842
 21
-126.221056
 31
0.0
1001
GENIUS_GENOREF_13
1005
120E
  0
LINE
  5
1097
100
AcDbEntity
  8
MSL2_120_3F-0
100
AcDbLine
 10
374.680842
 20
-128.221056
 30
0.0
 11
374.680842
 21
-125.221056
 31
0.0
1001
GENIUS_GENOREF_13
1005
120E
  0
LINE
  5
1098
100
AcDbEntity
  8
MSL2_120_3F-0
100
AcDbLine
 10
360.180842
 20
-95.221056
 30
0.0
 11
360.180842
 21
-149.178529
 31
0.0
  0
ELLIPSE
  5
1099
100
AcDbEntity
  8
MSL2_120_3F-4
100
AcDbEllipse
 10
350.780842
 20
-157.528413
 30
0.0
 11
-4.86399999999996
 21
0.0000000000000734
 31
0.0
210
0.0
220
0.0
230
1.0
 40
0.766044
 41
1.503876197755996
 42
6.396900936057069
  0
LINE
  5
109A
100
AcDbEntity
  8
MSL2_120_3F-7
100
AcDbLine
 10
342.916842
 20
-157.528413
 30
0.0
 11
358.644842
 21
-157.528413
 31
0.0
1001
GENIUS_GENODEF_13
1002
{
1000
HIER
1070
     0
1002
}
1002
{
1000
MANEDIT
1070
     0
1002
}
1002
{
1000
NOSEL
1070
     0
1002
}
1002
{
1000
BEHIND
1070
     0
1002
}
1002
{
1000
REACTOR
1002
}
1001
GENIUS_GENOBJ-N-CEN_13
1002
{
1000
OWNER
1000
GEN
1002
}
  0
LINE
  5
109B
100
AcDbEntity
  8
MSL2_120_3F-0
100
AcDbLine
 10
360.180842
 20
-149.178529
 30
0.0
 11
340.480842
 21
-149.178529
 31
0.0
  0
LINE
  5
109C
100
AcDbEntity
  8
MSL2_120_3F-0
100
AcDbLine
 10
360.680842
 20
-154.721056
 30
0.0
 11
368.680842
 21
-154.721056
 31
0.0
  0
ELLIPSE
  5
109D
100
AcDbEntity
  8
MSL2_120_3F-0
100
AcDbEllipse
 10
350.780842
 20
-157.528413
 30
0.0
 11
4.283225000000015
 21
0.0
 31
0.0
210
0.0
220
0.0
230
1.0
 40
0.766044
 41
0.0000000000000346
 42
6.283185307179635
  0
LINE
  5
109E
100
AcDbEntity
  8
MSL2_120_3F-7
100
AcDbLine
 10
350.780842
 20
-150.802373
 30
0.0
 11
350.780842
 21
-164.355455
 31
0.0
1001
GENIUS_GENODEF_13
1002
{
1000
HIER
1070
     0
1002
}
1002
{
1000
MANEDIT
1070
     0
1002
}
1002
{
1000
NOSEL
1070
     0
1002
}
1002
{
1000
BEHIND
1070
     0
1002
}
1002
{
1000
REACTOR
1002
}
1001
GENIUS_GENOBJ-N-CEN_13
1002
{
1000
OWNER
1000
GEN
1002
}
  0
LINE
  5
109F
100
AcDbEntity
  8
MSL2_120_3F-0
100
AcDbLine
 10
368.680842
 20
-154.721056
 30
0.0
 11
369.680842
 21
-155.721056
 31
0.0
  0
LINE
  5
10A0
100
AcDbEntity
  8
MSL2_120_3F-0
100
AcDbLine
 10
360.680842
 20
-143.221056
 30
0.0
 11
374.680842
 21
-143.221056
 31
0.0
  0
LINE
  5
10A1
100
AcDbEntity
  8
MSL2_120_3F-3
100
AcDbLine
 10
375.680842
 20
-140.221056
 30
0.0
 11
375.680842
 21
-128.221056
 31
0.0
1001
GENIUS_GENBH_13
1002
{
1000
OE
1000
CON1
1002
}
1001
GENIUS_GENOREF_13
1005
120E
  0
LINE
  5
10A2
100
AcDbEntity
  8
MSL2_120_3F-3
100
AcDbLine
 10
374.680842
 20
-140.221056
 30
0.0
 11
374.680842
 21
-128.221056
 31
0.0
1001
GENIUS_GENBH_13
1002
{
1000
OE
1000
CON1
1002
}
1001
GENIUS_GENOREF_13
1005
120E
  0
LINE
  5
10A3
100
AcDbEntity
  8
MSL2_120_3F-0
100
AcDbLine
 10
375.680842
 20
-142.221056
 30
0.0
 11
375.680842
 21
-140.221056
 31
0.0
1001
GENIUS_GENOREF_13
1005
120E
  0
LINE
  5
10A4
100
AcDbEntity
  8
MSL2_120_3F-0
100
AcDbLine
 10
374.680842
 20
-143.221056
 30
0.0
 11
374.680842
 21
-140.221056
 31
0.0
1001
GENIUS_GENOREF_13
1005
120E
  0
LINE
  5
10A5
100
AcDbEntity
  8
MSL2_120_3F-0
100
AcDbLine
 10
374.680842
 20
-143.221056
 30
0.0
 11
375.680842
 21
-142.221056
 31
0.0
  0
LINE
  5
10A6
100
AcDbEntity
  8
MSL2_120_3F-0
100
AcDbLine
 10
336.660859
 20
-94.221056
 30
0.0
 11
360.680842
 21
-94.221056
 31
0.0
  0
LINE
  5
10A7
100
AcDbEntity
  8
MSL2_120_3F-0
100
AcDbLine
 10
360.180842
 20
-95.221056
 30
0.0
 11
337.347691
 21
-95.221056
 31
0.0
  0
LINE
  5
10A8
100
AcDbEntity
  8
MSL2_120_3F-0
100
AcDbLine
 10
332.18084
 20
-95.379555
 30
0.0
 11
330.180842
 21
-96.665133
 31
0.0
  0
ELLIPSE
  5
10A9
100
AcDbEntity
  8
MSL2_120_3F-0
100
AcDbEllipse
 10
332.180842
 20
-96.665139
 30
0.0
 11
-2.000000000006366
 21
0.0
 31
0.0
210
0.0
220
0.0
230
1.0
 40
0.766044
 41
0.0000000000000371
 42
6.283185307179637
  0
ELLIPSE
  5
10AA
100
AcDbEntity
  8
MSL2_120_3F-0
100
AcDbEllipse
 10
332.180845
 20
-98.400657
 30
0.0
 11
-5.499999999998919
 21
-0.0000090659724396
 31
0.0
210
0.0
220
0.0
230
-1.0
 40
0.766044
 41
-3.141592653589778
 42
0.0000000000000146
  0
ELLIPSE
  5
10AB
100
AcDbEntity
  8
MSL2_120_3F-0
100
AcDbEllipse
 10
332.180842
 20
-96.665139
 30
0.0
 11
-5.500000000006366
 21
0.0
 31
0.0
210
0.0
220
0.0
230
1.0
 40
0.766044
 41
0.000000000000027
 42
6.283185307179627
  0
LINE
  5
10AC
100
AcDbEntity
  8
MSL2_120_3F-7
100
AcDbLine
 10
340.680842
 20
-96.665128
 30
0.0
 11
323.680842
 21
-96.665142
 31
0.0
1001
GENIUS_GENODEF_13
1002
{
1000
HIER
1070
     0
1002
}
1002
{
1000
MANEDIT
1070
     0
1002
}
1002
{
1000
NOSEL
1070
     0
1002
}
1002
{
1000
BEHIND
1070
     0
1002
}
1002
{
1000
REACTOR
1002
}
1001
GENIUS_GENOBJ-N-CEN_13
1002
{
1000
OWNER
1000
GEN
1002
}
  0
LINE
  5
10AD
100
AcDbEntity
  8
MSL2_120_3F-0
100
AcDbLine
 10
326.680845
 20
-98.400666
 30
0.0
 11
326.680842
 21
-96.665139
 31
0.0
  0
LINE
  5
10AE
100
AcDbEntity
  8
MSL2_120_3F-7
100
AcDbLine
 10
332.180842
 20
-103.878383
 30
0.0
 11
332.180842
 21
-89.451895
 31
0.0
1001
GENIUS_GENODEF_13
1002
{
1000
HIER
1070
     0
1002
}
1002
{
1000
MANEDIT
1070
     0
1002
}
1002
{
1000
NOSEL
1070
     0
1002
}
1002
{
1000
BEHIND
1070
     0
1002
}
1002
{
1000
REACTOR
1002
}
1001
GENIUS_GENOBJ-N-CEN_13
1002
{
1000
OWNER
1000
GEN
1002
}
  0
LINE
  5
10AF
100
AcDbEntity
  8
MSL2_120_3F-0
100
AcDbLine
 10
334.180842
 20
-96.665121
 30
0.0
 11
332.18084
 21
-95.379555
 31
0.0
  0
LINE
  5
10B0
100
AcDbEntity
  8
MSL2_120_3F-0
100
AcDbLine
 10
337.680845
 20
-98.400657
 30
0.0
 11
337.680842
 21
-96.665112
 31
0.0
  0
LINE
  5
10B1
100
AcDbEntity
  8
MSL2_120_3F-0
100
AcDbLine
 10
363.680842
 20
-99.35984
 30
0.0
 11
363.680842
 21
-114.082272
 31
0.0
  0
ARC
  5
10B2
100
AcDbEntity
  8
MSL2_120_3F-0
100
AcDbCircle
 10
353.046119
 20
-106.721056
 30
0.0
 40
10.634722
100
AcDbArc
 50
332.518771
 51
27.481229
  0
LINE
  5
10B3
100
AcDbEntity
  8
MSL2_120_3F-0
100
AcDbLine
 10
362.480842
 20
-111.628533
 30
0.0
 11
360.680842
 21
-111.628533
 31
0.0
  0
LINE
  5
10B4
100
AcDbEntity
  8
MSL2_120_3F-0
100
AcDbLine
 10
362.480842
 20
-116.536011
 30
0.0
 11
360.680842
 21
-116.536011
 31
0.0
  0
LINE
  5
10B5
100
AcDbEntity
  8
MSL2_120_3F-0
100
AcDbLine
 10
374.680842
 20
-125.221056
 30
0.0
 11
360.680842
 21
-125.221056
 31
0.0
  0
LINE
  5
10B6
100
AcDbEntity
  8
MSL2_120_3F-0
100
AcDbLine
 10
375.680842
 20
-126.221056
 30
0.0
 11
374.680842
 21
-125.221056
 31
0.0
  0
ARC
  5
10B7
100
AcDbEntity
  8
MSL2_120_3F-0
100
AcDbCircle
 10
360.572161
 20
-114.082272
 30
0.0
 40
3.108681
100
AcDbArc
 50
307.878142
 51
52.121858
  0
LINE
  5
10B8
100
AcDbEntity
  8
MSL2_120_3F-0
100
AcDbLine
 10
362.480842
 20
-96.906101
 30
0.0
 11
360.680842
 21
-96.906101
 31
0.0
  0
LINE
  5
10B9
100
AcDbEntity
  8
MSL2_120_3F-0
100
AcDbLine
 10
362.480842
 20
-101.813579
 30
0.0
 11
360.680842
 21
-101.813579
 31
0.0
  0
ARC
  5
10BA
100
AcDbEntity
  8
MSL2_120_3F-0
100
AcDbCircle
 10
360.572161
 20
-99.35984
 30
0.0
 40
3.108681
100
AcDbArc
 50
307.878142
 51
52.121858
  0
LINE
  5
10BB
100
AcDbEntity
  8
MSL2_120_3F-0
100
AcDbLine
 10
390.780842
 20
-155.721056
 30
0.0
 11
390.780842
 21
-167.721056
 31
0.0
  0
LINE
  5
10BC
100
AcDbEntity
  8
MSL2_120_3F-0
100
AcDbLine
 10
391.780842
 20
-156.721056
 30
0.0
 11
391.780842
 21
-166.721056
 31
0.0
  0
LINE
  5
10BD
100
AcDbEntity
  8
MSL2_120_3F-0
100
AcDbLine
 10
380.780842
 20
-167.721056
 30
0.0
 11
380.780842
 21
-155.721056
 31
0.0
  0
LINE
  5
10BE
100
AcDbEntity
  8
MSL2_120_3F-0
100
AcDbLine
 10
390.780842
 20
-167.721056
 30
0.0
 11
380.780842
 21
-167.721056
 31
0.0
  0
LINE
  5
10BF
100
AcDbEntity
  8
MSL2_120_3F-0
100
AcDbLine
 10
391.780842
 20
-166.721056
 30
0.0
 11
390.780842
 21
-167.721056
 31
0.0
  0
LINE
  5
10C0
100
AcDbEntity
  8
MSL2_120_3F-0
100
AcDbLine
 10
380.780842
 20
-155.721056
 30
0.0
 11
390.780842
 21
-155.721056
 31
0.0
  0
LINE
  5
10C1
100
AcDbEntity
  8
MSL2_120_3F-0
100
AcDbLine
 10
390.780842
 20
-155.721056
 30
0.0
 11
391.780842
 21
-156.721056
 31
0.0
  0
LINE
  5
10C2
100
AcDbEntity
  8
MSL2_120_3F-0
100
AcDbLine
 10
487.680842
 20
-99.215503
 30
0.0
 11
487.680842
 21
-114.226609
 31
0.0
  0
LINE
  5
10C3
100
AcDbEntity
  8
MSL2_120_3F-0
100
AcDbLine
 10
487.680842
 20
-102.721056
 30
0.0
 11
487.680842
 21
-110.721056
 31
0.0
  0
ARC
  5
10C4
100
AcDbEntity
  8
MSL2_120_3F-0
100
AcDbCircle
 10
492.703251
 20
-106.721056
 30
0.0
 40
9.02241
100
AcDbArc
 50
155.421503
 51
204.578497
  0
LINE
  5
10C5
100
AcDbEntity
  8
MSL2_120_3F-0
100
AcDbLine
 10
483.680842
 20
-101.091891
 30
0.0
 11
483.680842
 21
-112.350221
 31
0.0
  0
LINE
  5
10C6
100
AcDbEntity
  8
MSL2_120_3F-0
100
AcDbLine
 10
487.680842
 20
-114.226609
 30
0.0
 11
484.498342
 21
-114.226609
 31
0.0
  0
LINE
  5
10C7
100
AcDbEntity
  8
MSL2_120_3F-0
100
AcDbLine
 10
484.498342
 20
-110.473833
 30
0.0
 11
487.680842
 21
-110.473833
 31
0.0
  0
ARC
  5
10C8
100
AcDbEntity
  8
MSL2_120_3F-0
100
AcDbCircle
 10
486.243006
 20
-112.350221
 30
0.0
 40
2.562165
100
AcDbArc
 50
132.916664
 51
227.083336
  0
LINE
  5
10C9
100
AcDbEntity
  8
MSL2_120_3F-0
100
AcDbLine
 10
484.498342
 20
-99.215503
 30
0.0
 11
487.680842
 21
-99.215503
 31
0.0
  0
LINE
  5
10CA
100
AcDbEntity
  8
MSL2_120_3F-0
100
AcDbLine
 10
484.498342
 20
-102.968279
 30
0.0
 11
487.680842
 21
-102.968279
 31
0.0
  0
ARC
  5
10CB
100
AcDbEntity
  8
MSL2_120_3F-0
100
AcDbCircle
 10
486.243006
 20
-101.091891
 30
0.0
 40
2.562165
100
AcDbArc
 50
132.916664
 51
227.083336
  0
LINE
  5
10CC
100
AcDbEntity
  8
MSL2_120_3F-0
100
AcDbLine
 10
369.680842
 20
27.95
 30
0.0
 11
380.780842
 21
27.95
 31
0.0
  0
LINE
  5
10CD
100
AcDbEntity
  8
MSL2_120_3F-0
100
AcDbLine
 10
369.680842
 20
32.05
 30
0.0
 11
380.780842
 21
32.05
 31
0.0
  0
CIRCLE
  5
10CE
100
AcDbEntity
  8
MSL2_120_3F-0
100
AcDbCircle
 10
300.680842
 20
-15.0
 30
0.0
 40
2.5
  0
CIRCLE
  5
10CF
100
AcDbEntity
  8
MSL2_120_3F-0
100
AcDbCircle
 10
285.680842
 20
-15.0
 30
0.0
 40
2.067
  0
CIRCLE
  5
10D0
100
AcDbEntity
  8
MSL2_120_3F-0
100
AcDbCircle
 10
270.680842
 20
-15.0
 30
0.0
 40
2.5
  0
ARC
  5
10D1
100
AcDbEntity
  8
MSL2_120_3F-4
100
AcDbCircle
 10
285.680842
 20
-15.0
 30
0.0
 40
2.5
100
AcDbArc
 50
172.405357
 51
104.931417
  0
CIRCLE
  5
10D2
100
AcDbEntity
  8
MSL2_120_3F-0
100
AcDbCircle
 10
315.680842
 20
-15.0
 30
0.0
 40
2.067
  0
ARC
  5
10D3
100
AcDbEntity
  8
MSL2_120_3F-4
100
AcDbCircle
 10
315.680842
 20
-15.0
 30
0.0
 40
2.5
100
AcDbArc
 50
172.405357
 51
104.931417
  0
LINE
  5
10D4
100
AcDbEntity
  8
MSL2_120_3F-7
100
AcDbLine
 10
315.680842
 20
-18.75
 30
0.0
 11
315.680842
 21
-11.25
 31
0.0
  0
LINE
  5
10D5
100
AcDbEntity
  8
MSL2_120_3F-7
100
AcDbLine
 10
300.680842
 20
-15.0
 30
0.0
 11
300.680842
 21
-11.392806
 31
0.0
  0
LINE
  5
10D6
100
AcDbEntity
  8
MSL2_120_3F-7
100
AcDbLine
 10
270.680842
 20
-15.0
 30
0.0
 11
270.680842
 21
-11.392806
 31
0.0
  0
LINE
  5
10D7
100
AcDbEntity
  8
MSL2_120_3F-7
100
AcDbLine
 10
285.680842
 20
-18.75
 30
0.0
 11
285.680842
 21
-11.25
 31
0.0
  0
LINE
  5
10D8
100
AcDbEntity
  8
MSL2_120_3F-7
100
AcDbLine
 10
311.930842
 20
-15.0
 30
0.0
 11
319.430842
 21
-15.0
 31
0.0
  0
LINE
  5
10D9
100
AcDbEntity
  8
MSL2_120_3F-7
100
AcDbLine
 10
281.930842
 20
-15.0
 30
0.0
 11
289.430842
 21
-15.0
 31
0.0
  0
LINE
  5
10DA
100
AcDbEntity
  8
MSL2_120_3F-7
100
AcDbLine
 10
270.680842
 20
-15.0
 30
0.0
 11
274.288036
 21
-15.0
 31
0.0
  0
LINE
  5
10DB
100
AcDbEntity
  8
MSL2_120_3F-7
100
AcDbLine
 10
270.680842
 20
-15.0
 30
0.0
 11
270.680842
 21
-18.607194
 31
0.0
  0
LINE
  5
10DC
100
AcDbEntity
  8
MSL2_120_3F-7
100
AcDbLine
 10
270.680842
 20
-15.0
 30
0.0
 11
267.073648
 21
-15.0
 31
0.0
  0
LINE
  5
10DD
100
AcDbEntity
  8
MSL2_120_3F-7
100
AcDbLine
 10
300.680842
 20
-15.0
 30
0.0
 11
304.288036
 21
-15.0
 31
0.0
  0
LINE
  5
10DE
100
AcDbEntity
  8
MSL2_120_3F-7
100
AcDbLine
 10
300.680842
 20
-15.0
 30
0.0
 11
300.680842
 21
-18.607194
 31
0.0
  0
LINE
  5
10DF
100
AcDbEntity
  8
MSL2_120_3F-7
100
AcDbLine
 10
300.680842
 20
-15.0
 30
0.0
 11
297.073648
 21
-15.0
 31
0.0
  0
ARC
  5
10E0
100
AcDbEntity
  8
MSL2_120_3F-4
100
AcDbCircle
 10
315.680842
 20
15.0
 30
0.0
 40
2.5
100
AcDbArc
 50
172.405357
 51
104.931417
  0
CIRCLE
  5
10E1
100
AcDbEntity
  8
MSL2_120_3F-0
100
AcDbCircle
 10
315.680842
 20
15.0
 30
0.0
 40
2.067
  0
LINE
  5
10E2
100
AcDbEntity
  8
MSL2_120_3F-0
100
AcDbLine
 10
308.830842
 20
20.0
 30
0.0
 11
318.530842
 21
20.0
 31
0.0
  0
LINE
  5
10E3
100
AcDbEntity
  8
MSL2_120_3F-7
100
AcDbLine
 10
311.930842
 20
15.0
 30
0.0
 11
319.430842
 21
15.0
 31
0.0
  0
LINE
  5
10E4
100
AcDbEntity
  8
MSL2_120_3F-0
100
AcDbLine
 10
261.830842
 20
20.0
 30
0.0
 11
332.180842
 21
20.0
 31
0.0
  0
ARC
  5
10E5
100
AcDbEntity
  8
MSL2_120_3F-4
100
AcDbCircle
 10
285.680842
 20
15.0
 30
0.0
 40
2.5
100
AcDbArc
 50
172.405357
 51
104.931417
  0
LINE
  5
10E6
100
AcDbEntity
  8
MSL2_120_3F-7
100
AcDbLine
 10
281.930842
 20
15.0
 30
0.0
 11
289.430842
 21
15.0
 31
0.0
  0
LINE
  5
10E7
100
AcDbEntity
  8
MSL2_120_3F-0
100
AcDbLine
 10
278.830842
 20
20.0
 30
0.0
 11
288.530842
 21
20.0
 31
0.0
  0
LINE
  5
10E8
100
AcDbEntity
  8
MSL2_120_3F-7
100
AcDbLine
 10
270.680842
 20
11.451766
 30
0.0
 11
270.680842
 21
-11.364806
 31
0.0
  0
LINE
  5
10E9
100
AcDbEntity
  8
MSL2_120_3F-7
100
AcDbLine
 10
270.680842
 20
15.0
 30
0.0
 11
274.154336
 21
15.0
 31
0.0
  0
LINE
  5
10EA
100
AcDbEntity
  8
MSL2_120_3F-7
100
AcDbLine
 10
270.680842
 20
15.0
 30
0.0
 11
270.680842
 21
18.473494
 31
0.0
  0
CIRCLE
  5
10EB
100
AcDbEntity
  8
MSL2_120_3F-0
100
AcDbCircle
 10
270.680842
 20
14.965783
 30
0.0
 40
2.5
  0
LINE
  5
10EC
100
AcDbEntity
  8
MSL2_120_3F-7
100
AcDbLine
 10
270.680842
 20
15.0
 30
0.0
 11
270.680842
 21
11.526506
 31
0.0
  0
LINE
  5
10ED
100
AcDbEntity
  8
MSL2_120_3F-7
100
AcDbLine
 10
270.680842
 20
15.0
 30
0.0
 11
267.207347
 21
15.0
 31
0.0
  0
CIRCLE
  5
10EE
100
AcDbEntity
  8
MSL2_120_3F-0
100
AcDbCircle
 10
285.680842
 20
15.0
 30
0.0
 40
2.067
  0
LINE
  5
10EF
100
AcDbEntity
  8
MSL2_120_3F-7
100
AcDbLine
 10
285.680842
 20
11.25
 30
0.0
 11
285.680842
 21
18.75
 31
0.0
  0
LINE
  5
10F0
100
AcDbEntity
  8
MSL2_120_3F-7
100
AcDbLine
 10
300.680842
 20
11.451766
 30
0.0
 11
300.680842
 21
-11.364806
 31
0.0
  0
LINE
  5
10F1
100
AcDbEntity
  8
MSL2_120_3F-7
100
AcDbLine
 10
300.680842
 20
15.0
 30
0.0
 11
304.154336
 21
15.0
 31
0.0
  0
CIRCLE
  5
10F2
100
AcDbEntity
  8
MSL2_120_3F-0
100
AcDbCircle
 10
300.680842
 20
14.965783
 30
0.0
 40
2.5
  0
LINE
  5
10F3
100
AcDbEntity
  8
MSL2_120_3F-7
100
AcDbLine
 10
300.680842
 20
15.0
 30
0.0
 11
300.680842
 21
18.473494
 31
0.0
  0
LINE
  5
10F4
100
AcDbEntity
  8
MSL2_120_3F-7
100
AcDbLine
 10
300.680842
 20
15.0
 30
0.0
 11
300.680842
 21
11.526506
 31
0.0
  0
LINE
  5
10F5
100
AcDbEntity
  8
MSL2_120_3F-7
100
AcDbLine
 10
300.680842
 20
15.0
 30
0.0
 11
297.207347
 21
15.0
 31
0.0
  0
LINE
  5
10F6
100
AcDbEntity
  8
MSL2_120_3F-7
100
AcDbLine
 10
315.680842
 20
11.25
 30
0.0
 11
315.680842
 21
18.75
 31
0.0
  0
ARC
  5
10F7
100
AcDbEntity
  8
MSL2_120_3F-0
100
AcDbCircle
 10
360.572161
 20
22.638784
 30
0.0
 40
3.108681
100
AcDbArc
 50
307.878142
 51
52.121858
  0
LINE
  5
10F8
100
AcDbEntity
  8
MSL2_120_3F-0
100
AcDbLine
 10
368.680842
 20
37.0
 30
0.0
 11
368.680842
 21
23.0
 31
0.0
  0
LINE
  5
10F9
100
AcDbEntity
  8
MSL2_120_3F-0
100
AcDbLine
 10
369.680842
 20
24.0
 30
0.0
 11
369.680842
 21
36.0
 31
0.0
  0
LINE
  5
10FA
100
AcDbEntity
  8
MSL2_120_3F-0
100
AcDbLine
 10
363.680842
 20
22.638784
 30
0.0
 11
363.680842
 21
37.361216
 31
0.0
  0
LINE
  5
10FB
100
AcDbEntity
  8
MSL2_120_3F-0
100
AcDbLine
 10
360.180842
 20
44.194379
 30
0.0
 11
360.180842
 21
20.0
 31
0.0
  0
LINE
  5
10FC
100
AcDbEntity
  8
MSL2_120_3F-0
100
AcDbLine
 10
360.180842
 20
20.0
 30
0.0
 11
337.180842
 21
20.0
 31
0.0
  0
LINE
  5
10FD
100
AcDbEntity
  8
MSL2_120_3F-4
100
AcDbLine
 10
360.180842
 20
22.0
 30
0.0
 11
337.180842
 21
22.0
 31
0.0
  0
LINE
  5
10FE
100
AcDbEntity
  8
MSL2_120_3F-0
100
AcDbLine
 10
337.180842
 20
20.0
 30
0.0
 11
337.180842
 21
22.0
 31
0.0
  0
LINE
  5
10FF
100
AcDbEntity
  8
MSL2_120_3F-0
100
AcDbLine
 10
332.180842
 20
22.0
 30
0.0
 11
332.180842
 21
20.0
 31
0.0
  0
LINE
  5
1100
100
AcDbEntity
  8
MSL2_120_3F-0
100
AcDbLine
 10
337.180842
 20
22.0
 30
0.0
 11
332.180842
 21
22.0
 31
0.0
  0
POLYLINE
  5
1101
100
AcDbEntity
  8
MSL2_120_3F-0
100
AcDb2dPolyline
 66
     1
 10
0.0
 20
0.0
 30
0.0
  0
VERTEX
  5
1102
100
AcDbEntity
  8
MSL2_120_3F-0
  6
CONTINUOUS
100
AcDbVertex
100
AcDb2dVertex
 10
360.680842
 20
-9.0
 30
0.0
  0
VERTEX
  5
1103
100
AcDbEntity
  8
MSL2_120_3F-0
  6
CONTINUOUS
100
AcDbVertex
100
AcDb2dVertex
 10
374.680842
 20
-9.0
 30
0.0
  0
VERTEX
  5
1104
100
AcDbEntity
  8
MSL2_120_3F-0
  6
CONTINUOUS
100
AcDbVertex
100
AcDb2dVertex
 10
375.680842
 20
-8.0
 30
0.0
  0
VERTEX
  5
1105
100
AcDbEntity
  8
MSL2_120_3F-0
  6
CONTINUOUS
100
AcDbVertex
100
AcDb2dVertex
 10
375.680842
 20
-6.0
 30
0.0
  0
SEQEND
  5
1106
100
AcDbEntity
  8
MSL2_120_3F-0
  6
CONTINUOUS
  0
LINE
  5
1107
100
AcDbEntity
  8
MSL2_120_3F-0
100
AcDbLine
 10
374.680842
 20
-6.0
 30
0.0
 11
374.680842
 21
-9.0
 31
0.0
  0
LINE
  5
1108
100
AcDbEntity
  8
MSL2_120_3F-0
100
AcDbLine
 10
362.480842
 20
20.185045
 30
0.0
 11
360.680842
 21
20.185045
 31
0.0
  0
POLYLINE
  5
1109
100
AcDbEntity
  8
MSL2_120_3F-0
100
AcDb2dPolyline
 66
     1
 10
0.0
 20
0.0
 30
0.0
  0
VERTEX
  5
110A
100
AcDbEntity
  8
MSL2_120_3F-0
  6
CONTINUOUS
100
AcDbVertex
100
AcDb2dVertex
 10
375.680842
 20
6.0
 30
0.0
  0
VERTEX
  5
110B
100
AcDbEntity
  8
MSL2_120_3F-0
  6
CONTINUOUS
100
AcDbVertex
100
AcDb2dVertex
 10
375.680842
 20
8.0
 30
0.0
  0
VERTEX
  5
110C
100
AcDbEntity
  8
MSL2_120_3F-0
  6
CONTINUOUS
100
AcDbVertex
100
AcDb2dVertex
 10
374.680842
 20
9.0
 30
0.0
  0
VERTEX
  5
110D
100
AcDbEntity
  8
MSL2_120_3F-0
  6
CONTINUOUS
100
AcDbVertex
100
AcDb2dVertex
 10
360.680842
 20
9.0
 30
0.0
  0
SEQEND
  5
110E
100
AcDbEntity
  8
MSL2_120_3F-0
  0
LINE
  5
110F
100
AcDbEntity
  8
MSL2_120_3F-0
100
AcDbLine
 10
374.680842
 20
9.0
 30
0.0
 11
374.680842
 21
6.0
 31
0.0
  0
LINE
  5
1110
100
AcDbEntity
  8
MSL2_120_3F-0
100
AcDbLine
 10
363.680842
 20
23.0
 30
0.0
 11
368.680842
 21
23.0
 31
0.0
  0
LINE
  5
1111
100
AcDbEntity
  8
MSL2_120_3F-0
100
AcDbLine
 10
368.680842
 20
23.0
 30
0.0
 11
369.680842
 21
24.0
 31
0.0
  0
ELLIPSE
  5
1112
100
AcDbEntity
  8
MSL2_120_3F-4
100
AcDbEllipse
 10
350.780842
 20
51.329322
 30
0.0
 11
-4.863999999999923
 21
0.0000000000000108
 31
0.0
210
0.0
220
0.0
230
1.0
 40
0.642788
 41
1.514618869527605
 42
6.418462237825682
  0
LINE
  5
1113
100
AcDbEntity
  8
MSL2_120_3F-7
100
AcDbLine
 10
342.916842
 20
51.329322
 30
0.0
 11
358.644842
 21
51.329322
 31
0.0
1001
GENIUS_GENODEF_13
1002
{
1000
HIER
1070
     0
1002
}
1002
{
1000
MANEDIT
1070
     0
1002
}
1002
{
1000
NOSEL
1070
     0
1002
}
1002
{
1000
BEHIND
1070
     0
1002
}
1002
{
1000
REACTOR
1002
}
1001
GENIUS_GENOBJ-N-CEN_13
1002
{
1000
OWNER
1000
GEN
1002
}
  0
LINE
  5
1114
100
AcDbEntity
  8
MSL2_120_3F-0
100
AcDbLine
 10
360.180842
 20
58.335707
 30
0.0
 11
340.480842
 21
58.335707
 31
0.0
  0
LINE
  5
1115
100
AcDbEntity
  8
MSL2_120_3F-0
100
AcDbLine
 10
340.480842
 20
44.194379
 30
0.0
 11
360.180842
 21
44.194379
 31
0.0
  0
LINE
  5
1116
100
AcDbEntity
  8
MSL2_120_3F-0
100
AcDbLine
 10
340.480842
 20
58.335707
 30
0.0
 11
340.480842
 21
44.194379
 31
0.0
  0
LINE
  5
1117
100
AcDbEntity
  8
MSL2_120_3F-0
100
AcDbLine
 10
362.480842
 20
39.814955
 30
0.0
 11
360.680842
 21
39.814955
 31
0.0
  0
LINE
  5
1118
100
AcDbEntity
  8
MSL2_120_3F-0
100
AcDbLine
 10
362.480842
 20
34.907477
 30
0.0
 11
360.680842
 21
34.907477
 31
0.0
  0
LINE
  5
1119
100
AcDbEntity
  8
MSL2_120_3F-0
100
AcDbLine
 10
362.480842
 20
25.092523
 30
0.0
 11
360.680842
 21
25.092523
 31
0.0
  0
ARC
  5
111A
100
AcDbEntity
  8
MSL2_120_3F-0
100
AcDbCircle
 10
353.046119
 20
30.0
 30
0.0
 40
10.634722
100
AcDbArc
 50
332.518771
 51
27.481229
  0
LINE
  5
111B
100
AcDbEntity
  8
MSL2_120_3F-0
100
AcDbLine
 10
368.680842
 20
37.0
 30
0.0
 11
363.680842
 21
37.0
 31
0.0
  0
ARC
  5
111C
100
AcDbEntity
  8
MSL2_120_3F-0
100
AcDbCircle
 10
360.572161
 20
37.361216
 30
0.0
 40
3.108681
100
AcDbArc
 50
307.878142
 51
52.121858
  0
LINE
  5
111D
100
AcDbEntity
  8
MSL2_120_3F-0
100
AcDbLine
 10
369.680842
 20
36.0
 30
0.0
 11
368.680842
 21
37.0
 31
0.0
  0
ELLIPSE
  5
111E
100
AcDbEntity
  8
MSL2_120_3F-0
100
AcDbEllipse
 10
350.780842
 20
51.329322
 30
0.0
 11
4.283225000000015
 21
0.0
 31
0.0
210
0.0
220
0.0
230
1.0
 40
0.642788
 41
0.0000000000000284
 42
6.283185307179628
  0
LINE
  5
111F
100
AcDbEntity
  8
MSL2_120_3F-7
100
AcDbLine
 10
350.780842
 20
45.202803
 30
0.0
 11
350.780842
 21
57.455841
 31
0.0
1001
GENIUS_GENODEF_13
1002
{
1000
HIER
1070
     0
1002
}
1002
{
1000
MANEDIT
1070
     0
1002
}
1002
{
1000
NOSEL
1070
     0
1002
}
1002
{
1000
BEHIND
1070
     0
1002
}
1002
{
1000
REACTOR
1002
}
1001
GENIUS_GENOBJ-N-CEN_13
1002
{
1000
OWNER
1000
GEN
1002
}
  0
LINE
  5
1120
100
AcDbEntity
  8
MSL2_120_3F-0
100
AcDbLine
 10
390.780842
 20
24.0
 30
0.0
 11
391.780842
 21
25.0
 31
0.0
  0
LINE
  5
1121
100
AcDbEntity
  8
MSL2_120_3F-0
100
AcDbLine
 10
390.780842
 20
24.0
 30
0.0
 11
390.780842
 21
36.0
 31
0.0
  0
LINE
  5
1122
100
AcDbEntity
  8
MSL2_120_3F-0
100
AcDbLine
 10
380.780842
 20
36.0
 30
0.0
 11
380.780842
 21
24.0
 31
0.0
  0
LINE
  5
1123
100
AcDbEntity
  8
MSL2_120_3F-0
100
AcDbLine
 10
380.780842
 20
24.0
 30
0.0
 11
390.780842
 21
24.0
 31
0.0
  0
LINE
  5
1124
100
AcDbEntity
  8
MSL2_120_3F-0
100
AcDbLine
 10
390.780842
 20
36.0
 30
0.0
 11
380.780842
 21
36.0
 31
0.0
  0
LINE
  5
1125
100
AcDbEntity
  8
MSL2_120_3F-0
100
AcDbLine
 10
391.780842
 20
25.0
 30
0.0
 11
391.780842
 21
35.0
 31
0.0
  0
LINE
  5
1126
100
AcDbEntity
  8
MSL2_120_3F-0
100
AcDbLine
 10
391.780842
 20
35.0
 30
0.0
 11
390.780842
 21
36.0
 31
0.0
  0
ARC
  5
1127
100
AcDbEntity
  8
MSL2_120_3F-0
100
AcDbCircle
 10
486.243006
 20
24.370834
 30
0.0
 40
2.562165
100
AcDbArc
 50
132.916664
 51
227.083336
  0
LINE
  5
1128
100
AcDbEntity
  8
MSL2_120_3F-0
100
AcDbLine
 10
487.680842
 20
22.494446
 30
0.0
 11
487.680842
 21
37.505553
 31
0.0
  0
LINE
  5
1129
100
AcDbEntity
  8
MSL2_120_3F-0
100
AcDbLine
 10
483.680842
 20
24.370834
 30
0.0
 11
483.680842
 21
35.629165
 31
0.0
  0
LINE
  5
112A
100
AcDbEntity
  8
MSL2_120_3F-0
100
AcDbLine
 10
484.498342
 20
22.494446
 30
0.0
 11
487.680842
 21
22.494446
 31
0.0
  0
ARC
  5
112B
100
AcDbEntity
  8
MSL2_120_3F-0
100
AcDbCircle
 10
486.243006
 20
35.629165
 30
0.0
 40
2.562165
100
AcDbArc
 50
132.916664
 51
227.083336
  0
LINE
  5
112C
100
AcDbEntity
  8
MSL2_120_3F-0
100
AcDbLine
 10
487.680842
 20
26.0
 30
0.0
 11
487.680842
 21
34.0
 31
0.0
  0
LINE
  5
112D
100
AcDbEntity
  8
MSL2_120_3F-0
100
AcDbLine
 10
484.498342
 20
33.752776
 30
0.0
 11
487.680842
 21
33.752776
 31
0.0
  0
LINE
  5
112E
100
AcDbEntity
  8
MSL2_120_3F-0
100
AcDbLine
 10
484.498342
 20
26.247223
 30
0.0
 11
487.680842
 21
26.247223
 31
0.0
  0
ARC
  5
112F
100
AcDbEntity
  8
MSL2_120_3F-0
100
AcDbCircle
 10
492.703251
 20
30.0
 30
0.0
 40
9.02241
100
AcDbArc
 50
155.421503
 51
204.578497
  0
LINE
  5
1130
100
AcDbEntity
  8
MSL2_120_3F-0
100
AcDbLine
 10
487.680842
 20
37.505553
 30
0.0
 11
484.498342
 21
37.505553
 31
0.0
  0
LINE
  5
1131
100
AcDbEntity
  8
MSL2_120_3F-3
100
AcDbLine
 10
514.747842
 20
-175.221056
 30
0.0
 11
514.747842
 21
-164.021056
 31
0.0
  0
LINE
  5
1132
100
AcDbEntity
  8
MSL2_120_3F-3
100
AcDbLine
 10
514.747842
 20
-175.221056
 30
0.0
 11
514.747842
 21
-164.021056
 31
0.0
  0
LINE
  5
1133
100
AcDbEntity
  8
MSL2_120_3F-7
100
AcDbLine
 10
512.680842
 20
-159.827673
 30
0.0
 11
512.680842
 21
-178.221056
 31
0.0
  0
LINE
  5
1134
100
AcDbEntity
  8
MSL2_120_3F-7
100
AcDbLine
 10
512.680842
 20
-159.827673
 30
0.0
 11
512.680842
 21
-178.221056
 31
0.0
  0
LINE
  5
1135
100
AcDbEntity
  8
MSL2_120_3F-0
100
AcDbLine
 10
517.680842
 20
-93.221056
 30
0.0
 11
517.680842
 21
-175.221056
 31
0.0
  0
LINE
  5
1136
100
AcDbEntity
  8
MSL2_120_3F-3
100
AcDbLine
 10
510.613842
 20
-175.221056
 30
0.0
 11
510.613842
 21
-164.021056
 31
0.0
  0
LINE
  5
1137
100
AcDbEntity
  8
MSL2_120_3F-3
100
AcDbLine
 10
510.613842
 20
-175.221056
 30
0.0
 11
510.613842
 21
-164.021056
 31
0.0
  0
LINE
  5
1138
100
AcDbEntity
  8
MSL2_120_3F-0
100
AcDbLine
 10
501.680842
 20
-175.221056
 30
0.0
 11
501.680842
 21
-93.221056
 31
0.0
  0
LINE
  5
1139
100
AcDbEntity
  8
MSL2_120_3F-0
100
AcDbLine
 10
517.680842
 20
-175.221056
 30
0.0
 11
501.680842
 21
-175.221056
 31
0.0
  0
LINE
  5
113A
100
AcDbEntity
  8
MSL2_120_3F-3
100
AcDbLine
 10
515.180842
 20
-175.221056
 30
0.0
 11
515.180842
 21
-167.221056
 31
0.0
  0
LINE
  5
113B
100
AcDbEntity
  8
MSL2_120_3F-3
100
AcDbLine
 10
515.180842
 20
-175.221056
 30
0.0
 11
515.180842
 21
-167.221056
 31
0.0
  0
LINE
  5
113C
100
AcDbEntity
  8
MSL2_120_3F-3
100
AcDbLine
 10
510.180842
 20
-175.221056
 30
0.0
 11
510.180842
 21
-167.221056
 31
0.0
  0
LINE
  5
113D
100
AcDbEntity
  8
MSL2_120_3F-3
100
AcDbLine
 10
510.180842
 20
-175.221056
 30
0.0
 11
510.180842
 21
-167.221056
 31
0.0
  0
LINE
  5
113E
100
AcDbEntity
  8
MSL2_120_3F-3
100
AcDbLine
 10
510.180842
 20
-167.221056
 30
0.0
 11
515.180842
 21
-167.221056
 31
0.0
  0
LINE
  5
113F
100
AcDbEntity
  8
MSL2_120_3F-3
100
AcDbLine
 10
510.180842
 20
-167.221056
 30
0.0
 11
515.180842
 21
-167.221056
 31
0.0
  0
CIRCLE
  5
1140
100
AcDbEntity
  8
MSL2_120_3F-3
100
AcDbCircle
 10
506.680842
 20
-159.221056
 30
0.0
 40
2.067
  0
LINE
  5
1141
100
AcDbEntity
  8
MSL2_120_3F-7
100
AcDbLine
 10
502.930842
 20
-159.221056
 30
0.0
 11
510.430842
 21
-159.221056
 31
0.0
  0
ARC
  5
1142
100
AcDbEntity
  8
MSL2_120_3F-3
100
AcDbCircle
 10
506.680842
 20
-159.221056
 30
0.0
 40
2.5
100
AcDbArc
 50
255.068583
 51
187.594643
  0
LINE
  5
1143
100
AcDbEntity
  8
MSL2_120_3F-7
100
AcDbLine
 10
521.029727
 20
-149.221056
 30
0.0
 11
497.910508
 21
-149.221056
 31
0.0
  0
LINE
  5
1144
100
AcDbEntity
  8
MSL2_120_3F-7
100
AcDbLine
 10
506.680842
 20
-155.471056
 30
0.0
 11
506.680842
 21
-162.971056
 31
0.0
  0
LINE
  5
1145
100
AcDbEntity
  8
MSL2_120_3F-7
100
AcDbLine
 10
506.680842
 20
-159.221056
 30
0.0
 11
506.680842
 21
-164.685081
 31
0.0
1001
GENIUS_GENOREF_13
1005
0
  0
LINE
  5
1146
100
AcDbEntity
  8
MSL2_120_3F-3
100
AcDbLine
 10
512.680842
 20
-162.827673
 30
0.0
 11
510.613842
 21
-164.021056
 31
0.0
  0
LINE
  5
1147
100
AcDbEntity
  8
MSL2_120_3F-3
100
AcDbLine
 10
512.680842
 20
-162.827673
 30
0.0
 11
510.613842
 21
-164.021056
 31
0.0
  0
LINE
  5
1148
100
AcDbEntity
  8
MSL2_120_3F-3
100
AcDbLine
 10
512.680842
 20
-162.827673
 30
0.0
 11
514.747842
 21
-164.021056
 31
0.0
  0
LINE
  5
1149
100
AcDbEntity
  8
MSL2_120_3F-3
100
AcDbLine
 10
512.680842
 20
-162.827673
 30
0.0
 11
514.747842
 21
-164.021056
 31
0.0
  0
LINE
  5
114A
100
AcDbEntity
  8
MSL2_120_3F-3
100
AcDbLine
 10
510.613842
 20
-164.021056
 30
0.0
 11
514.747842
 21
-164.021056
 31
0.0
  0
LINE
  5
114B
100
AcDbEntity
  8
MSL2_120_3F-3
100
AcDbLine
 10
510.613842
 20
-164.021056
 30
0.0
 11
514.747842
 21
-164.021056
 31
0.0
  0
LINE
  5
114C
100
AcDbEntity
  8
MSL2_120_3F-0
100
AcDbLine
 10
501.680842
 20
-127.901086
 30
0.0
 11
517.680842
 21
-127.901086
 31
0.0
  0
LINE
  5
114D
100
AcDbEntity
  8
MSL2_120_3F-0
100
AcDbLine
 10
501.680842
 20
-140.541026
 30
0.0
 11
517.680842
 21
-140.541026
 31
0.0
  0
LINE
  5
114E
100
AcDbEntity
  8
MSL2_120_3F-7
100
AcDbLine
 10
512.680842
 20
-108.614439
 30
0.0
 11
512.680842
 21
-90.221056
 31
0.0
  0
LINE
  5
114F
100
AcDbEntity
  8
MSL2_120_3F-7
100
AcDbLine
 10
512.680842
 20
-108.614439
 30
0.0
 11
512.680842
 21
-90.221056
 31
0.0
  0
LINE
  5
1150
100
AcDbEntity
  8
MSL2_120_3F-7
100
AcDbLine
 10
506.680842
 20
-105.471056
 30
0.0
 11
506.680842
 21
-112.971056
 31
0.0
  0
ARC
  5
1151
100
AcDbEntity
  8
MSL2_120_3F-0
100
AcDbCircle
 10
493.971119
 20
-106.721056
 30
0.0
 40
7.709722
100
AcDbArc
 50
330.872216
 51
29.127784
  0
ARC
  5
1152
100
AcDbEntity
  8
MSL2_120_3F-0
100
AcDbCircle
 10
505.390564
 20
-106.721056
 30
0.0
 40
7.709722
100
AcDbArc
 50
150.872218
 51
209.127782
  0
LINE
  5
1153
100
AcDbEntity
  8
MSL2_120_3F-0
100
AcDbLine
 10
497.680842
 20
-101.091891
 30
0.0
 11
497.680842
 21
-112.350221
 31
0.0
  0
ARC
  5
1154
100
AcDbEntity
  8
MSL2_120_3F-3
100
AcDbCircle
 10
506.680842
 20
-109.221056
 30
0.0
 40
2.5
100
AcDbArc
 50
255.068583
 51
187.594643
  0
CIRCLE
  5
1155
100
AcDbEntity
  8
MSL2_120_3F-3
100
AcDbCircle
 10
506.680842
 20
-109.221056
 30
0.0
 40
2.067
  0
LINE
  5
1156
100
AcDbEntity
  8
MSL2_120_3F-7
100
AcDbLine
 10
502.930842
 20
-109.221056
 30
0.0
 11
510.430842
 21
-109.221056
 31
0.0
  0
LINE
  5
1157
100
AcDbEntity
  8
MSL2_120_3F-7
100
AcDbLine
 10
521.029727
 20
-119.221056
 30
0.0
 11
497.910508
 21
-119.221056
 31
0.0
  0
LINE
  5
1158
100
AcDbEntity
  8
MSL2_120_3F-0
100
AcDbLine
 10
500.705842
 20
-114.226609
 30
0.0
 11
498.655842
 21
-114.226609
 31
0.0
  0
LINE
  5
1159
100
AcDbEntity
  8
MSL2_120_3F-0
100
AcDbLine
 10
500.705842
 20
-110.473833
 30
0.0
 11
498.655842
 21
-110.473833
 31
0.0
  0
ARC
  5
115A
100
AcDbEntity
  8
MSL2_120_3F-0
100
AcDbCircle
 10
499.973897
 20
-112.350221
 30
0.0
 40
2.293056
100
AcDbArc
 50
125.085848
 51
234.914152
  0
ARC
  5
115B
100
AcDbEntity
  8
MSL2_120_3F-0
100
AcDbCircle
 10
499.387786
 20
-112.350221
 30
0.0
 40
2.293056
100
AcDbArc
 50
305.085847
 51
54.914153
  0
LINE
  5
115C
100
AcDbEntity
  8
MSL2_120_3F-0
100
AcDbLine
 10
501.680842
 20
-93.221056
 30
0.0
 11
517.680842
 21
-93.221056
 31
0.0
  0
LINE
  5
115D
100
AcDbEntity
  8
MSL2_120_3F-0
100
AcDbLine
 10
500.705842
 20
-99.215503
 30
0.0
 11
498.655842
 21
-99.215503
 31
0.0
  0
LINE
  5
115E
100
AcDbEntity
  8
MSL2_120_3F-0
100
AcDbLine
 10
500.705842
 20
-102.968279
 30
0.0
 11
498.655842
 21
-102.968279
 31
0.0
  0
ARC
  5
115F
100
AcDbEntity
  8
MSL2_120_3F-0
100
AcDbCircle
 10
499.973897
 20
-101.091891
 30
0.0
 40
2.293056
100
AcDbArc
 50
125.085848
 51
234.914152
  0
ARC
  5
1160
100
AcDbEntity
  8
MSL2_120_3F-0
100
AcDbCircle
 10
499.387786
 20
-101.091891
 30
0.0
 40
2.293056
100
AcDbArc
 50
305.085847
 51
54.914153
  0
LINE
  5
1161
100
AcDbEntity
  8
MSL2_120_3F-3
100
AcDbLine
 10
514.747842
 20
-93.221056
 30
0.0
 11
514.747842
 21
-104.421056
 31
0.0
  0
LINE
  5
1162
100
AcDbEntity
  8
MSL2_120_3F-3
100
AcDbLine
 10
514.747842
 20
-93.221056
 30
0.0
 11
514.747842
 21
-104.421056
 31
0.0
  0
LINE
  5
1163
100
AcDbEntity
  8
MSL2_120_3F-3
100
AcDbLine
 10
515.180842
 20
-93.221056
 30
0.0
 11
515.180842
 21
-101.221056
 31
0.0
  0
LINE
  5
1164
100
AcDbEntity
  8
MSL2_120_3F-3
100
AcDbLine
 10
515.180842
 20
-93.221056
 30
0.0
 11
515.180842
 21
-101.221056
 31
0.0
  0
LINE
  5
1165
100
AcDbEntity
  8
MSL2_120_3F-3
100
AcDbLine
 10
510.613842
 20
-93.221056
 30
0.0
 11
510.613842
 21
-104.421056
 31
0.0
  0
LINE
  5
1166
100
AcDbEntity
  8
MSL2_120_3F-3
100
AcDbLine
 10
510.613842
 20
-93.221056
 30
0.0
 11
510.613842
 21
-104.421056
 31
0.0
  0
LINE
  5
1167
100
AcDbEntity
  8
MSL2_120_3F-3
100
AcDbLine
 10
510.180842
 20
-93.221056
 30
0.0
 11
510.180842
 21
-101.221056
 31
0.0
  0
LINE
  5
1168
100
AcDbEntity
  8
MSL2_120_3F-3
100
AcDbLine
 10
510.180842
 20
-93.221056
 30
0.0
 11
510.180842
 21
-101.221056
 31
0.0
  0
LINE
  5
1169
100
AcDbEntity
  8
MSL2_120_3F-3
100
AcDbLine
 10
510.180842
 20
-101.221056
 30
0.0
 11
515.180842
 21
-101.221056
 31
0.0
  0
LINE
  5
116A
100
AcDbEntity
  8
MSL2_120_3F-3
100
AcDbLine
 10
510.180842
 20
-101.221056
 30
0.0
 11
515.180842
 21
-101.221056
 31
0.0
  0
LINE
  5
116B
100
AcDbEntity
  8
MSL2_120_3F-3
100
AcDbLine
 10
512.680842
 20
-105.614439
 30
0.0
 11
510.613842
 21
-104.421056
 31
0.0
  0
LINE
  5
116C
100
AcDbEntity
  8
MSL2_120_3F-3
100
AcDbLine
 10
512.680842
 20
-105.614439
 30
0.0
 11
510.613842
 21
-104.421056
 31
0.0
  0
LINE
  5
116D
100
AcDbEntity
  8
MSL2_120_3F-3
100
AcDbLine
 10
512.680842
 20
-105.614439
 30
0.0
 11
514.747842
 21
-104.421056
 31
0.0
  0
LINE
  5
116E
100
AcDbEntity
  8
MSL2_120_3F-3
100
AcDbLine
 10
512.680842
 20
-105.614439
 30
0.0
 11
514.747842
 21
-104.421056
 31
0.0
  0
LINE
  5
116F
100
AcDbEntity
  8
MSL2_120_3F-3
100
AcDbLine
 10
510.613842
 20
-104.421056
 30
0.0
 11
514.747842
 21
-104.421056
 31
0.0
  0
LINE
  5
1170
100
AcDbEntity
  8
MSL2_120_3F-3
100
AcDbLine
 10
510.613842
 20
-104.421056
 30
0.0
 11
514.747842
 21
-104.421056
 31
0.0
  0
LINE
  5
1171
100
AcDbEntity
  8
MSL2_120_3F-3
100
AcDbLine
 10
509.180842
 20
-21.0
 30
0.0
 11
509.180842
 21
-13.0
 31
0.0
  0
LINE
  5
1172
100
AcDbEntity
  8
MSL2_120_3F-3
100
AcDbLine
 10
509.180842
 20
-21.0
 30
0.0
 11
509.180842
 21
-13.0
 31
0.0
  0
CIRCLE
  5
1173
100
AcDbEntity
  8
MSL2_120_3F-0
100
AcDbCircle
 10
512.680842
 20
-15.0
 30
0.0
 40
2.067
  0
ARC
  5
1174
100
AcDbEntity
  8
MSL2_120_3F-4
100
AcDbCircle
 10
512.680842
 20
-15.0
 30
0.0
 40
2.5
100
AcDbArc
 50
172.405357
 51
104.931417
  0
LINE
  5
1175
100
AcDbEntity
  8
MSL2_120_3F-3
100
AcDbLine
 10
504.180842
 20
-21.0
 30
0.0
 11
504.180842
 21
-13.0
 31
0.0
  0
LINE
  5
1176
100
AcDbEntity
  8
MSL2_120_3F-3
100
AcDbLine
 10
504.180842
 20
-21.0
 30
0.0
 11
504.180842
 21
-13.0
 31
0.0
  0
LINE
  5
1177
100
AcDbEntity
  8
MSL2_120_3F-7
100
AcDbLine
 10
512.680842
 20
-18.75
 30
0.0
 11
512.680842
 21
-11.25
 31
0.0
  0
LINE
  5
1178
100
AcDbEntity
  8
MSL2_120_3F-3
100
AcDbLine
 10
508.747842
 20
-21.0
 30
0.0
 11
508.747842
 21
-9.8
 31
0.0
  0
LINE
  5
1179
100
AcDbEntity
  8
MSL2_120_3F-3
100
AcDbLine
 10
508.747842
 20
-21.0
 30
0.0
 11
508.747842
 21
-9.8
 31
0.0
  0
LINE
  5
117A
100
AcDbEntity
  8
MSL2_120_3F-7
100
AcDbLine
 10
506.680842
 20
-5.606617
 30
0.0
 11
506.680842
 21
-24.0
 31
0.0
  0
LINE
  5
117B
100
AcDbEntity
  8
MSL2_120_3F-7
100
AcDbLine
 10
506.680842
 20
-5.606617
 30
0.0
 11
506.680842
 21
-24.0
 31
0.0
  0
LINE
  5
117C
100
AcDbEntity
  8
MSL2_120_3F-3
100
AcDbLine
 10
504.613842
 20
-21.0
 30
0.0
 11
504.613842
 21
-9.8
 31
0.0
  0
LINE
  5
117D
100
AcDbEntity
  8
MSL2_120_3F-3
100
AcDbLine
 10
504.613842
 20
-21.0
 30
0.0
 11
504.613842
 21
-9.8
 31
0.0
  0
LINE
  5
117E
100
AcDbEntity
  8
MSL2_120_3F-7
100
AcDbLine
 10
498.815996
 20
-15.0
 30
0.0
 11
521.834746
 21
-15.0
 31
0.0
  0
LINE
  5
117F
100
AcDbEntity
  8
MSL2_120_3F-0
100
AcDbLine
 10
517.680842
 20
-21.0
 30
0.0
 11
501.680842
 21
-21.0
 31
0.0
  0
LINE
  5
1180
100
AcDbEntity
  8
MSL2_120_3F-7
100
AcDbLine
 10
508.930842
 20
-15.0
 30
0.0
 11
516.430842
 21
-15.0
 31
0.0
  0
ARC
  5
1181
100
AcDbEntity
  8
MSL2_120_3F-0
100
AcDbCircle
 10
499.387786
 20
24.370834
 30
0.0
 40
2.293056
100
AcDbArc
 50
305.085847
 51
54.914153
  0
ARC
  5
1182
100
AcDbEntity
  8
MSL2_120_3F-0
100
AcDbCircle
 10
499.973897
 20
24.370834
 30
0.0
 40
2.293056
100
AcDbArc
 50
125.085848
 51
234.914152
  0
LINE
  5
1183
100
AcDbEntity
  8
MSL2_120_3F-0
100
AcDbLine
 10
497.680842
 20
24.370834
 30
0.0
 11
497.680842
 21
35.629165
 31
0.0
  0
LINE
  5
1184
100
AcDbEntity
  8
MSL2_120_3F-0
100
AcDbLine
 10
501.680842
 20
24.370834
 30
0.0
 11
501.680842
 21
35.629165
 31
0.0
  0
LINE
  5
1185
100
AcDbEntity
  8
MSL2_120_3F-3
100
AcDbLine
 10
506.680842
 20
-8.606617
 30
0.0
 11
508.747842
 21
-9.8
 31
0.0
  0
LINE
  5
1186
100
AcDbEntity
  8
MSL2_120_3F-3
100
AcDbLine
 10
506.680842
 20
-8.606617
 30
0.0
 11
508.747842
 21
-9.8
 31
0.0
  0
LINE
  5
1187
100
AcDbEntity
  8
MSL2_120_3F-3
100
AcDbLine
 10
508.747842
 20
-9.8
 30
0.0
 11
504.613842
 21
-9.8
 31
0.0
  0
LINE
  5
1188
100
AcDbEntity
  8
MSL2_120_3F-3
100
AcDbLine
 10
508.747842
 20
-9.8
 30
0.0
 11
504.613842
 21
-9.8
 31
0.0
  0
LINE
  5
1189
100
AcDbEntity
  8
MSL2_120_3F-3
100
AcDbLine
 10
509.180842
 20
-13.0
 30
0.0
 11
504.180842
 21
-13.0
 31
0.0
  0
LINE
  5
118A
100
AcDbEntity
  8
MSL2_120_3F-3
100
AcDbLine
 10
509.180842
 20
-13.0
 30
0.0
 11
504.180842
 21
-13.0
 31
0.0
  0
LINE
  5
118B
100
AcDbEntity
  8
MSL2_120_3F-3
100
AcDbLine
 10
506.680842
 20
-8.606617
 30
0.0
 11
504.613842
 21
-9.8
 31
0.0
  0
LINE
  5
118C
100
AcDbEntity
  8
MSL2_120_3F-3
100
AcDbLine
 10
506.680842
 20
-8.606617
 30
0.0
 11
504.613842
 21
-9.8
 31
0.0
  0
LINE
  5
118D
100
AcDbEntity
  8
MSL2_120_3F-7
100
AcDbLine
 10
498.815996
 20
15.0
 30
0.0
 11
521.834746
 21
15.0
 31
0.0
  0
LINE
  5
118E
100
AcDbEntity
  8
MSL2_120_3F-0
100
AcDbLine
 10
500.705842
 20
22.494446
 30
0.0
 11
498.655842
 21
22.494446
 31
0.0
  0
LINE
  5
118F
100
AcDbEntity
  8
MSL2_120_3F-7
100
AcDbLine
 10
512.680842
 20
11.25
 30
0.0
 11
512.680842
 21
18.75
 31
0.0
  0
CIRCLE
  5
1190
100
AcDbEntity
  8
MSL2_120_3F-0
100
AcDbCircle
 10
512.680842
 20
15.0
 30
0.0
 40
2.067
  0
ARC
  5
1191
100
AcDbEntity
  8
MSL2_120_3F-4
100
AcDbCircle
 10
512.680842
 20
15.0
 30
0.0
 40
2.5
100
AcDbArc
 50
172.405357
 51
104.931417
  0
LINE
  5
1192
100
AcDbEntity
  8
MSL2_120_3F-7
100
AcDbLine
 10
508.930842
 20
15.0
 30
0.0
 11
516.430842
 21
15.0
 31
0.0
  0
LINE
  5
1193
100
AcDbEntity
  8
MSL2_120_3F-0
100
AcDbLine
 10
501.680842
 20
34.9
 30
0.0
 11
517.680842
 21
34.9
 31
0.0
  0
ARC
  5
1194
100
AcDbEntity
  8
MSL2_120_3F-0
100
AcDbCircle
 10
499.387786
 20
35.629165
 30
0.0
 40
2.293056
100
AcDbArc
 50
305.085847
 51
54.914153
  0
ARC
  5
1195
100
AcDbEntity
  8
MSL2_120_3F-0
100
AcDbCircle
 10
499.973897
 20
35.629165
 30
0.0
 40
2.293056
100
AcDbArc
 50
125.085848
 51
234.914152
  0
LINE
  5
1196
100
AcDbEntity
  8
MSL2_120_3F-0
100
AcDbLine
 10
500.705842
 20
33.752776
 30
0.0
 11
498.655842
 21
33.752776
 31
0.0
  0
LINE
  5
1197
100
AcDbEntity
  8
MSL2_120_3F-0
100
AcDbLine
 10
500.705842
 20
26.247223
 30
0.0
 11
498.655842
 21
26.247223
 31
0.0
  0
ARC
  5
1198
100
AcDbEntity
  8
MSL2_120_3F-0
100
AcDbCircle
 10
505.390564
 20
30.0
 30
0.0
 40
7.709722
100
AcDbArc
 50
150.872218
 51
209.127782
  0
ARC
  5
1199
100
AcDbEntity
  8
MSL2_120_3F-0
100
AcDbCircle
 10
493.971119
 20
30.0
 30
0.0
 40
7.709722
100
AcDbArc
 50
330.872216
 51
29.127784
  0
LINE
  5
119A
100
AcDbEntity
  8
MSL2_120_3F-0
100
AcDbLine
 10
500.705842
 20
37.505553
 30
0.0
 11
498.655842
 21
37.505553
 31
0.0
  0
LINE
  5
119B
100
AcDbEntity
  8
MSL2_120_3F-7
100
AcDbLine
 10
521.029727
 20
177.5
 30
0.0
 11
355.956959
 21
177.5
 31
0.0
  0
LINE
  5
119C
100
AcDbEntity
  8
MSL2_120_3F-7
100
AcDbLine
 10
521.029727
 20
150.0
 30
0.0
 11
355.956959
 21
150.0
 31
0.0
  0
LINE
  5
119D
100
AcDbEntity
  8
MSL2_120_3F-7
100
AcDbLine
 10
521.029727
 20
122.5
 30
0.0
 11
355.956959
 21
122.5
 31
0.0
  0
LINE
  5
119E
100
AcDbEntity
  8
MSL2_120_3F-0
100
AcDbLine
 10
501.680842
 20
183.5
 30
0.0
 11
360.680842
 21
183.5
 31
0.0
  0
LINE
  5
119F
100
AcDbEntity
  8
MSL2_120_3F-0
100
AcDbLine
 10
360.680842
 20
171.5
 30
0.0
 11
501.680842
 21
171.5
 31
0.0
  0
LINE
  5
11A0
100
AcDbEntity
  8
MSL2_120_3F-0
100
AcDbLine
 10
501.680842
 20
128.5
 30
0.0
 11
360.680842
 21
128.5
 31
0.0
  0
LINE
  5
11A1
100
AcDbEntity
  8
MSL2_120_3F-0
100
AcDbLine
 10
360.680842
 20
116.5
 30
0.0
 11
501.680842
 21
116.5
 31
0.0
  0
LINE
  5
11A2
100
AcDbEntity
  8
MSL2_120_3F-0
100
AcDbLine
 10
501.680842
 20
156.0
 30
0.0
 11
375.680842
 21
156.0
 31
0.0
  0
LINE
  5
11A3
100
AcDbEntity
  8
MSL2_120_3F-0
100
AcDbLine
 10
501.680842
 20
153.0
 30
0.0
 11
375.680842
 21
153.0
 31
0.0
  0
LINE
  5
11A4
100
AcDbEntity
  8
MSL2_120_3F-0
100
AcDbLine
 10
375.680842
 20
147.0
 30
0.0
 11
501.680842
 21
147.0
 31
0.0
  0
LINE
  5
11A5
100
AcDbEntity
  8
MSL2_120_3F-0
100
AcDbLine
 10
375.680842
 20
144.0
 30
0.0
 11
501.680842
 21
144.0
 31
0.0
  0
LINE
  5
11A6
100
AcDbEntity
  8
MSL2_120_3F-7
100
AcDbLine
 10
315.680842
 20
131.25
 30
0.0
 11
315.680842
 21
138.75
 31
0.0
  0
LINE
  5
11A7
100
AcDbEntity
  8
MSL2_120_3F-7
100
AcDbLine
 10
300.680842
 20
135.0
 30
0.0
 11
300.680842
 21
138.607194
 31
0.0
  0
LINE
  5
11A8
100
AcDbEntity
  8
MSL2_120_3F-7
100
AcDbLine
 10
285.680842
 20
131.25
 30
0.0
 11
285.680842
 21
138.75
 31
0.0
  0
LINE
  5
11A9
100
AcDbEntity
  8
MSL2_120_3F-7
100
AcDbLine
 10
270.680842
 20
135.0
 30
0.0
 11
270.680842
 21
138.607194
 31
0.0
  0
ARC
  5
11AA
100
AcDbEntity
  8
MSL2_120_3F-4
100
AcDbCircle
 10
315.680842
 20
135.0
 30
0.0
 40
2.5
100
AcDbArc
 50
172.405357
 51
104.931417
  0
CIRCLE
  5
11AB
100
AcDbEntity
  8
MSL2_120_3F-0
100
AcDbCircle
 10
315.680842
 20
135.0
 30
0.0
 40
2.067
  0
LINE
  5
11AC
100
AcDbEntity
  8
MSL2_120_3F-7
100
AcDbLine
 10
311.930842
 20
135.0
 30
0.0
 11
319.430842
 21
135.0
 31
0.0
  0
ARC
  5
11AD
100
AcDbEntity
  8
MSL2_120_3F-4
100
AcDbCircle
 10
285.680842
 20
135.0
 30
0.0
 40
2.5
100
AcDbArc
 50
172.405357
 51
104.931417
  0
LINE
  5
11AE
100
AcDbEntity
  8
MSL2_120_3F-7
100
AcDbLine
 10
281.930842
 20
135.0
 30
0.0
 11
289.430842
 21
135.0
 31
0.0
  0
LINE
  5
11AF
100
AcDbEntity
  8
MSL2_120_3F-7
100
AcDbLine
 10
270.680842
 20
122.480714
 30
0.0
 11
270.680842
 21
105.934345
 31
0.0
  0
LINE
  5
11B0
100
AcDbEntity
  8
MSL2_120_3F-7
100
AcDbLine
 10
285.680842
 20
122.480714
 30
0.0
 11
285.680842
 21
105.934345
 31
0.0
  0
LINE
  5
11B1
100
AcDbEntity
  8
MSL2_120_3F-7
100
AcDbLine
 10
270.680842
 20
135.0
 30
0.0
 11
274.288036
 21
135.0
 31
0.0
  0
CIRCLE
  5
11B2
100
AcDbEntity
  8
MSL2_120_3F-0
100
AcDbCircle
 10
270.680842
 20
135.0
 30
0.0
 40
2.5
  0
LINE
  5
11B3
100
AcDbEntity
  8
MSL2_120_3F-7
100
AcDbLine
 10
270.680842
 20
135.0
 30
0.0
 11
267.073648
 21
135.0
 31
0.0
  0
LINE
  5
11B4
100
AcDbEntity
  8
MSL2_120_3F-7
100
AcDbLine
 10
270.680842
 20
135.0
 30
0.0
 11
270.680842
 21
131.392806
 31
0.0
  0
CIRCLE
  5
11B5
100
AcDbEntity
  8
MSL2_120_3F-0
100
AcDbCircle
 10
285.680842
 20
135.0
 30
0.0
 40
2.067
  0
LINE
  5
11B6
100
AcDbEntity
  8
MSL2_120_3F-7
100
AcDbLine
 10
315.680842
 20
122.480714
 30
0.0
 11
315.680842
 21
105.934345
 31
0.0
  0
LINE
  5
11B7
100
AcDbEntity
  8
MSL2_120_3F-7
100
AcDbLine
 10
300.680842
 20
122.480714
 30
0.0
 11
300.680842
 21
105.934345
 31
0.0
  0
CIRCLE
  5
11B8
100
AcDbEntity
  8
MSL2_120_3F-0
100
AcDbCircle
 10
300.680842
 20
135.0
 30
0.0
 40
2.5
  0
LINE
  5
11B9
100
AcDbEntity
  8
MSL2_120_3F-7
100
AcDbLine
 10
300.680842
 20
135.0
 30
0.0
 11
304.288036
 21
135.0
 31
0.0
  0
LINE
  5
11BA
100
AcDbEntity
  8
MSL2_120_3F-7
100
AcDbLine
 10
300.680842
 20
135.0
 30
0.0
 11
297.073648
 21
135.0
 31
0.0
  0
LINE
  5
11BB
100
AcDbEntity
  8
MSL2_120_3F-7
100
AcDbLine
 10
300.680842
 20
135.0
 30
0.0
 11
300.680842
 21
131.392806
 31
0.0
  0
LINE
  5
11BC
100
AcDbEntity
  8
MSL2_120_3F-0
100
AcDbLine
 10
360.680842
 20
64.0
 30
0.0
 11
360.180842
 21
64.0
 31
0.0
  0
CIRCLE
  5
11BD
100
AcDbEntity
  8
MSL2_120_3F-0
100
AcDbCircle
 10
315.680842
 20
165.0
 30
0.0
 40
2.067
  0
ARC
  5
11BE
100
AcDbEntity
  8
MSL2_120_3F-4
100
AcDbCircle
 10
315.680842
 20
165.0
 30
0.0
 40
2.5
100
AcDbArc
 50
172.405357
 51
104.931417
  0
LINE
  5
11BF
100
AcDbEntity
  8
MSL2_120_3F-7
100
AcDbLine
 10
311.930842
 20
165.0
 30
0.0
 11
319.430842
 21
165.0
 31
0.0
  0
ARC
  5
11C0
100
AcDbEntity
  8
MSL2_120_3F-4
100
AcDbCircle
 10
285.680842
 20
165.0
 30
0.0
 40
2.5
100
AcDbArc
 50
172.405357
 51
104.931417
  0
LINE
  5
11C1
100
AcDbEntity
  8
MSL2_120_3F-7
100
AcDbLine
 10
281.930842
 20
165.0
 30
0.0
 11
289.430842
 21
165.0
 31
0.0
  0
LINE
  5
11C2
100
AcDbEntity
  8
MSL2_120_3F-7
100
AcDbLine
 10
270.680842
 20
161.451766
 30
0.0
 11
270.680842
 21
138.635194
 31
0.0
  0
LINE
  5
11C3
100
AcDbEntity
  8
MSL2_120_3F-7
100
AcDbLine
 10
270.680842
 20
165.0
 30
0.0
 11
274.154336
 21
165.0
 31
0.0
  0
CIRCLE
  5
11C4
100
AcDbEntity
  8
MSL2_120_3F-0
100
AcDbCircle
 10
270.680842
 20
164.965783
 30
0.0
 40
2.5
  0
LINE
  5
11C5
100
AcDbEntity
  8
MSL2_120_3F-7
100
AcDbLine
 10
270.680842
 20
165.0
 30
0.0
 11
270.680842
 21
168.473494
 31
0.0
  0
LINE
  5
11C6
100
AcDbEntity
  8
MSL2_120_3F-7
100
AcDbLine
 10
270.680842
 20
165.0
 30
0.0
 11
270.680842
 21
161.526506
 31
0.0
  0
LINE
  5
11C7
100
AcDbEntity
  8
MSL2_120_3F-7
100
AcDbLine
 10
270.680842
 20
165.0
 30
0.0
 11
267.207347
 21
165.0
 31
0.0
  0
CIRCLE
  5
11C8
100
AcDbEntity
  8
MSL2_120_3F-0
100
AcDbCircle
 10
285.680842
 20
165.0
 30
0.0
 40
2.067
  0
LINE
  5
11C9
100
AcDbEntity
  8
MSL2_120_3F-7
100
AcDbLine
 10
285.680842
 20
161.25
 30
0.0
 11
285.680842
 21
168.75
 31
0.0
  0
LINE
  5
11CA
100
AcDbEntity
  8
MSL2_120_3F-7
100
AcDbLine
 10
300.680842
 20
161.451766
 30
0.0
 11
300.680842
 21
138.635194
 31
0.0
  0
CIRCLE
  5
11CB
100
AcDbEntity
  8
MSL2_120_3F-0
100
AcDbCircle
 10
300.680842
 20
164.965783
 30
0.0
 40
2.5
  0
LINE
  5
11CC
100
AcDbEntity
  8
MSL2_120_3F-7
100
AcDbLine
 10
300.680842
 20
165.0
 30
0.0
 11
304.154336
 21
165.0
 31
0.0
  0
LINE
  5
11CD
100
AcDbEntity
  8
MSL2_120_3F-7
100
AcDbLine
 10
300.680842
 20
165.0
 30
0.0
 11
300.680842
 21
168.473494
 31
0.0
  0
LINE
  5
11CE
100
AcDbEntity
  8
MSL2_120_3F-7
100
AcDbLine
 10
300.680842
 20
165.0
 30
0.0
 11
300.680842
 21
161.526506
 31
0.0
  0
LINE
  5
11CF
100
AcDbEntity
  8
MSL2_120_3F-7
100
AcDbLine
 10
300.680842
 20
165.0
 30
0.0
 11
297.207347
 21
165.0
 31
0.0
  0
LINE
  5
11D0
100
AcDbEntity
  8
MSL2_120_3F-7
100
AcDbLine
 10
315.680842
 20
161.25
 30
0.0
 11
315.680842
 21
168.75
 31
0.0
  0
LINE
  5
11D1
100
AcDbEntity
  8
MSL2_120_3F-7
100
AcDbLine
 10
270.680842
 20
193.717185
 30
0.0
 11
270.680842
 21
177.519161
 31
0.0
  0
LINE
  5
11D2
100
AcDbEntity
  8
MSL2_120_3F-7
100
AcDbLine
 10
285.680842
 20
193.717185
 30
0.0
 11
285.680842
 21
177.519161
 31
0.0
  0
LINE
  5
11D3
100
AcDbEntity
  8
MSL2_120_3F-7
100
AcDbLine
 10
300.680842
 20
193.717185
 30
0.0
 11
300.680842
 21
177.519161
 31
0.0
  0
LINE
  5
11D4
100
AcDbEntity
  8
MSL2_120_3F-7
100
AcDbLine
 10
315.680842
 20
193.717185
 30
0.0
 11
315.680842
 21
177.519161
 31
0.0
  0
LINE
  5
11D5
100
AcDbEntity
  8
MSL2_120_3F-0
100
AcDbLine
 10
375.680842
 20
142.0
 30
0.0
 11
375.680842
 21
158.0
 31
0.0
  0
LINE
  5
11D6
100
AcDbEntity
  8
MSL2_120_3F-0
100
AcDbLine
 10
374.680842
 20
141.0
 30
0.0
 11
374.680842
 21
159.0
 31
0.0
  0
LINE
  5
11D7
100
AcDbEntity
  8
MSL2_120_3F-0
100
AcDbLine
 10
360.680842
 20
141.0
 30
0.0
 11
374.680842
 21
141.0
 31
0.0
  0
LINE
  5
11D8
100
AcDbEntity
  8
MSL2_120_3F-0
100
AcDbLine
 10
374.680842
 20
141.0
 30
0.0
 11
375.680842
 21
142.0
 31
0.0
  0
LINE
  5
11D9
100
AcDbEntity
  8
MSL2_120_3F-0
100
AcDbLine
 10
374.680842
 20
159.0
 30
0.0
 11
360.680842
 21
159.0
 31
0.0
  0
LINE
  5
11DA
100
AcDbEntity
  8
MSL2_120_3F-0
100
AcDbLine
 10
375.680842
 20
158.0
 30
0.0
 11
374.680842
 21
159.0
 31
0.0
  0
LINE
  5
11DB
100
AcDbEntity
  8
MSL2_120_3F-0
100
AcDbLine
 10
517.680842
 20
109.0
 30
0.0
 11
517.680842
 21
191.0
 31
0.0
  0
LINE
  5
11DC
100
AcDbEntity
  8
MSL2_120_3F-0
100
AcDbLine
 10
501.680842
 20
191.0
 30
0.0
 11
501.680842
 21
109.0
 31
0.0
  0
LINE
  5
11DD
100
AcDbEntity
  8
MSL2_120_3F-0
100
AcDbLine
 10
517.680842
 20
64.0
 30
0.0
 11
501.680842
 21
64.0
 31
0.0
  0
LINE
  5
11DE
100
AcDbEntity
  8
MSL2_120_3F-3
100
AcDbLine
 10
514.747842
 20
109.0
 30
0.0
 11
514.747842
 21
120.2
 31
0.0
  0
LINE
  5
11DF
100
AcDbEntity
  8
MSL2_120_3F-3
100
AcDbLine
 10
514.747842
 20
109.0
 30
0.0
 11
514.747842
 21
120.2
 31
0.0
  0
LINE
  5
11E0
100
AcDbEntity
  8
MSL2_120_3F-3
100
AcDbLine
 10
510.613842
 20
109.0
 30
0.0
 11
510.613842
 21
120.2
 31
0.0
  0
LINE
  5
11E1
100
AcDbEntity
  8
MSL2_120_3F-3
100
AcDbLine
 10
510.613842
 20
109.0
 30
0.0
 11
510.613842
 21
120.2
 31
0.0
  0
LINE
  5
11E2
100
AcDbEntity
  8
MSL2_120_3F-7
100
AcDbLine
 10
512.680842
 20
124.393383
 30
0.0
 11
512.680842
 21
106.0
 31
0.0
  0
LINE
  5
11E3
100
AcDbEntity
  8
MSL2_120_3F-7
100
AcDbLine
 10
512.680842
 20
124.393383
 30
0.0
 11
512.680842
 21
106.0
 31
0.0
  0
LINE
  5
11E4
100
AcDbEntity
  8
MSL2_120_3F-0
100
AcDbLine
 10
501.680842
 20
109.0
 30
0.0
 11
517.680842
 21
109.0
 31
0.0
  0
LINE
  5
11E5
100
AcDbEntity
  8
MSL2_120_3F-3
100
AcDbLine
 10
515.180842
 20
109.0
 30
0.0
 11
515.180842
 21
117.0
 31
0.0
  0
LINE
  5
11E6
100
AcDbEntity
  8
MSL2_120_3F-3
100
AcDbLine
 10
515.180842
 20
109.0
 30
0.0
 11
515.180842
 21
117.0
 31
0.0
  0
LINE
  5
11E7
100
AcDbEntity
  8
MSL2_120_3F-3
100
AcDbLine
 10
510.180842
 20
109.0
 30
0.0
 11
510.180842
 21
117.0
 31
0.0
  0
LINE
  5
11E8
100
AcDbEntity
  8
MSL2_120_3F-3
100
AcDbLine
 10
510.180842
 20
109.0
 30
0.0
 11
510.180842
 21
117.0
 31
0.0
  0
LINE
  5
11E9
100
AcDbEntity
  8
MSL2_120_3F-3
100
AcDbLine
 10
510.180842
 20
117.0
 30
0.0
 11
515.180842
 21
117.0
 31
0.0
  0
LINE
  5
11EA
100
AcDbEntity
  8
MSL2_120_3F-3
100
AcDbLine
 10
510.180842
 20
117.0
 30
0.0
 11
515.180842
 21
117.0
 31
0.0
  0
CIRCLE
  5
11EB
100
AcDbEntity
  8
MSL2_120_3F-0
100
AcDbCircle
 10
506.680842
 20
125.0
 30
0.0
 40
2.067
  0
LINE
  5
11EC
100
AcDbEntity
  8
MSL2_120_3F-7
100
AcDbLine
 10
502.930842
 20
125.0
 30
0.0
 11
510.430842
 21
125.0
 31
0.0
  0
ARC
  5
11ED
100
AcDbEntity
  8
MSL2_120_3F-4
100
AcDbCircle
 10
506.680842
 20
125.0
 30
0.0
 40
2.5
100
AcDbArc
 50
172.405357
 51
104.931417
  0
LINE
  5
11EE
100
AcDbEntity
  8
MSL2_120_3F-7
100
AcDbLine
 10
521.029727
 20
135.0
 30
0.0
 11
497.910508
 21
135.0
 31
0.0
  0
LINE
  5
11EF
100
AcDbEntity
  8
MSL2_120_3F-7
100
AcDbLine
 10
506.680842
 20
121.25
 30
0.0
 11
506.680842
 21
128.75
 31
0.0
  0
LINE
  5
11F0
100
AcDbEntity
  8
MSL2_120_3F-3
100
AcDbLine
 10
512.680842
 20
121.393383
 30
0.0
 11
510.613842
 21
120.2
 31
0.0
  0
LINE
  5
11F1
100
AcDbEntity
  8
MSL2_120_3F-3
100
AcDbLine
 10
512.680842
 20
121.393383
 30
0.0
 11
510.613842
 21
120.2
 31
0.0
  0
LINE
  5
11F2
100
AcDbEntity
  8
MSL2_120_3F-3
100
AcDbLine
 10
512.680842
 20
121.393383
 30
0.0
 11
514.747842
 21
120.2
 31
0.0
  0
LINE
  5
11F3
100
AcDbEntity
  8
MSL2_120_3F-3
100
AcDbLine
 10
512.680842
 20
121.393383
 30
0.0
 11
514.747842
 21
120.2
 31
0.0
  0
LINE
  5
11F4
100
AcDbEntity
  8
MSL2_120_3F-3
100
AcDbLine
 10
510.613842
 20
120.2
 30
0.0
 11
514.747842
 21
120.2
 31
0.0
  0
LINE
  5
11F5
100
AcDbEntity
  8
MSL2_120_3F-3
100
AcDbLine
 10
510.613842
 20
120.2
 30
0.0
 11
514.747842
 21
120.2
 31
0.0
  0
LINE
  5
11F6
100
AcDbEntity
  8
MSL2_120_3F-7
100
AcDbLine
 10
506.680842
 20
171.25
 30
0.0
 11
506.680842
 21
178.75
 31
0.0
  0
CIRCLE
  5
11F7
100
AcDbEntity
  8
MSL2_120_3F-0
100
AcDbCircle
 10
506.680842
 20
175.0
 30
0.0
 40
2.067
  0
ARC
  5
11F8
100
AcDbEntity
  8
MSL2_120_3F-4
100
AcDbCircle
 10
506.680842
 20
175.0
 30
0.0
 40
2.5
100
AcDbArc
 50
172.405357
 51
104.931417
  0
LINE
  5
11F9
100
AcDbEntity
  8
MSL2_120_3F-7
100
AcDbLine
 10
512.680842
 20
175.606617
 30
0.0
 11
512.680842
 21
194.0
 31
0.0
  0
LINE
  5
11FA
100
AcDbEntity
  8
MSL2_120_3F-7
100
AcDbLine
 10
512.680842
 20
175.606617
 30
0.0
 11
512.680842
 21
194.0
 31
0.0
  0
LINE
  5
11FB
100
AcDbEntity
  8
MSL2_120_3F-7
100
AcDbLine
 10
502.930842
 20
175.0
 30
0.0
 11
510.430842
 21
175.0
 31
0.0
  0
LINE
  5
11FC
100
AcDbEntity
  8
MSL2_120_3F-7
100
AcDbLine
 10
521.029727
 20
165.0
 30
0.0
 11
497.910508
 21
165.0
 31
0.0
  0
LINE
  5
11FD
100
AcDbEntity
  8
MSL2_120_3F-0
100
AcDbLine
 10
517.680842
 20
191.0
 30
0.0
 11
501.680842
 21
191.0
 31
0.0
  0
LINE
  5
11FE
100
AcDbEntity
  8
MSL2_120_3F-3
100
AcDbLine
 10
515.180842
 20
191.0
 30
0.0
 11
515.180842
 21
183.0
 31
0.0
  0
LINE
  5
11FF
100
AcDbEntity
  8
MSL2_120_3F-3
100
AcDbLine
 10
515.180842
 20
191.0
 30
0.0
 11
515.180842
 21
183.0
 31
0.0
  0
LINE
  5
1200
100
AcDbEntity
  8
MSL2_120_3F-3
100
AcDbLine
 10
510.180842
 20
191.0
 30
0.0
 11
510.180842
 21
183.0
 31
0.0
  0
LINE
  5
1201
100
AcDbEntity
  8
MSL2_120_3F-3
100
AcDbLine
 10
510.180842
 20
191.0
 30
0.0
 11
510.180842
 21
183.0
 31
0.0
  0
LINE
  5
1202
100
AcDbEntity
  8
MSL2_120_3F-3
100
AcDbLine
 10
514.747842
 20
191.0
 30
0.0
 11
514.747842
 21
179.8
 31
0.0
  0
LINE
  5
1203
100
AcDbEntity
  8
MSL2_120_3F-3
100
AcDbLine
 10
514.747842
 20
191.0
 30
0.0
 11
514.747842
 21
179.8
 31
0.0
  0
LINE
  5
1204
100
AcDbEntity
  8
MSL2_120_3F-3
100
AcDbLine
 10
510.613842
 20
191.0
 30
0.0
 11
510.613842
 21
179.8
 31
0.0
  0
LINE
  5
1205
100
AcDbEntity
  8
MSL2_120_3F-3
100
AcDbLine
 10
510.613842
 20
191.0
 30
0.0
 11
510.613842
 21
179.8
 31
0.0
  0
LINE
  5
1206
100
AcDbEntity
  8
MSL2_120_3F-3
100
AcDbLine
 10
510.180842
 20
183.0
 30
0.0
 11
515.180842
 21
183.0
 31
0.0
  0
LINE
  5
1207
100
AcDbEntity
  8
MSL2_120_3F-3
100
AcDbLine
 10
510.180842
 20
183.0
 30
0.0
 11
515.180842
 21
183.0
 31
0.0
  0
LINE
  5
1208
100
AcDbEntity
  8
MSL2_120_3F-3
100
AcDbLine
 10
512.680842
 20
178.606617
 30
0.0
 11
510.613842
 21
179.8
 31
0.0
  0
LINE
  5
1209
100
AcDbEntity
  8
MSL2_120_3F-3
100
AcDbLine
 10
512.680842
 20
178.606617
 30
0.0
 11
510.613842
 21
179.8
 31
0.0
  0
LINE
  5
120A
100
AcDbEntity
  8
MSL2_120_3F-3
100
AcDbLine
 10
512.680842
 20
178.606617
 30
0.0
 11
514.747842
 21
179.8
 31
0.0
  0
LINE
  5
120B
100
AcDbEntity
  8
MSL2_120_3F-3
100
AcDbLine
 10
512.680842
 20
178.606617
 30
0.0
 11
514.747842
 21
179.8
 31
0.0
  0
LINE
  5
120C
100
AcDbEntity
  8
MSL2_120_3F-3
100
AcDbLine
 10
510.613842
 20
179.8
 30
0.0
 11
514.747842
 21
179.8
 31
0.0
  0
LINE
  5
120D
100
AcDbEntity
  8
MSL2_120_3F-3
100
AcDbLine
 10
510.613842
 20
179.8
 30
0.0
 11
514.747842
 21
179.8
 31
0.0
  0
POINT
  5
120E
100
AcDbEntity
  8
0
 60
     1
100
AcDbPoint
 10
-165.838689
 20
-119.888977
 30
0.0
1001
GENIUS_GENBH_13
1002
{
1000
FGO
1005
0
1002
}
1001
GENIUS_GENODEF_13
1002
{
1000
HIER
1070
     1
1002
}
1002
{
1000
MANEDIT
1070
     0
1002
}
1002
{
1000
NOSEL
1070
     1
1002
}
1002
{
1000
BEHIND
1070
     0
1002
}
1002
{
1000
REACTOR
1002
}
1001
GENIUS_GENOBJ-NBEHI-BHB_13
1002
{
1000
OWNER
1000
GENBEHI
1002
}
1001
GENIUS_GENOENT_13
1002
{
1000
MYREF
1005
120E
1002
}
1002
{
1000
GRP
1005
0
1002
}
1001
GENIUS_GENOLIS_13
1002
{
1000
ENT
1005
1097
1005
10A2
1005
1096
1005
10A1
1005
105F
1005
105E
1005
DC8
1005
10A4
1005
10A3
1002
}
  0
POINT
  5
120F
100
AcDbEntity
  8
0
 60
     1
100
AcDbPoint
 10
-165.838689
 20
-119.888977
 30
0.0
1001
GENIUS_GENBH_13
1002
{
1000
FGO
1005
0
1002
}
1001
GENIUS_GENODEF_13
1002
{
1000
HIER
1070
     1
1002
}
1002
{
1000
MANEDIT
1070
     0
1002
}
1002
{
1000
NOSEL
1070
     1
1002
}
1002
{
1000
BEHIND
1070
     0
1002
}
1002
{
1000
REACTOR
1002
}
1001
GENIUS_GENOBJ-NBEHI-BHB_13
1002
{
1000
OWNER
1000
GENBEHI
1002
}
1001
GENIUS_GENOENT_13
1002
{
1000
MYREF
1005
120F
1002
}
1002
{
1000
GRP
1005
0
1002
}
1001
GENIUS_GENOLIS_13
1002
{
1000
ENT
1005
E83
1005
E9A
1005
E84
1005
E9B
1005
E9C
1005
EA0
1005
DC8
1005
E9D
1005
E9E
1002
}
  0
ENDSEC
  0
SECTION
  2
OBJECTS
  0
DICTIONARY
  5
C
100
AcDbDictionary
  3
ACAD_GROUP
350
D
  3
ACAD_MLINESTYLE
350
E
  0
DICTIONARY
  5
D
102
{ACAD_REACTORS
330
C
102
}
100
AcDbDictionary
  0
DICTIONARY
  5
E
102
{ACAD_REACTORS
330
C
102
}
100
AcDbDictionary
  3
STANDARD
350
13
  0
MLINESTYLE
  5
13
102
{ACAD_REACTORS
330
E
102
}
100
AcDbMlineStyle
  2
STANDARD
 70
     0
  3

 62
     0
 51
90.0
 52
90.0
 71
     2
 49
0.5
 62
   256
  6
BYLAYER
 49
-0.5
 62
   256
  6
BYLAYER
  0
ENDSEC
  0
EOF
