  0
SECTION
  2
HEADER
  9
$ACADVER
  1
AC1015
  9
$ACADMAINTVER
 70
    20
  9
$DWGCODEPAGE
  3
ANSI_1252
  9
$INSBASE
 10
0.0
 20
0.0
 30
0.0
  9
$EXTMIN
 10
-160.983516
 20
-320.2155773275707
 30
-0.00000001
  9
$EXTMAX
 10
268.4689440000008
 20
77.50000000000006
 30
0.00000001
  9
$LIMMIN
 10
0.0
 20
0.0
  9
$LIMMAX
 10
410.0
 20
287.0
  9
$ORTHOMODE
 70
     0
  9
$REGENMODE
 70
     1
  9
$FILLMODE
 70
     1
  9
$QTEXTMODE
 70
     0
  9
$MIRRTEXT
 70
     1
  9
$LTSCALE
 40
1.0
  9
$ATTMODE
 70
     1
  9
$TEXTSIZE
 40
3.5
  9
$TRACEWID
 40
0.05
  9
$TEXTSTYLE
  7
STANDARD
  9
$CLAYER
  8
0
  9
$CELTYPE
  6
BYLAYER
  9
$CECOLOR
 62
   256
  9
$CELTSCALE
 40
1.0
  9
$DISPSILH
 70
     0
  9
$DIMSCALE
 40
1.0
  9
$DIMASZ
 40
0.18
  9
$DIMEXO
 40
0.0625
  9
$DIMDLI
 40
0.38
  9
$DIMRND
 40
0.0
  9
$DIMDLE
 40
0.0
  9
$DIMEXE
 40
0.18
  9
$DIMTP
 40
0.0
  9
$DIMTM
 40
0.0
  9
$DIMTXT
 40
0.18
  9
$DIMCEN
 40
0.09
  9
$DIMTSZ
 40
0.0
  9
$DIMTOL
 70
     0
  9
$DIMLIM
 70
     0
  9
$DIMTIH
 70
     1
  9
$DIMTOH
 70
     1
  9
$DIMSE1
 70
     0
  9
$DIMSE2
 70
     0
  9
$DIMTAD
 70
     0
  9
$DIMZIN
 70
     0
  9
$DIMBLK
  1

  9
$DIMASO
 70
     1
  9
$DIMSHO
 70
     1
  9
$DIMPOST
  1

  9
$DIMAPOST
  1

  9
$DIMALT
 70
     0
  9
$DIMALTD
 70
     2
  9
$DIMALTF
 40
25.4
  9
$DIMLFAC
 40
1.0
  9
$DIMTOFL
 70
     0
  9
$DIMTVP
 40
0.0
  9
$DIMTIX
 70
     0
  9
$DIMSOXD
 70
     0
  9
$DIMSAH
 70
     0
  9
$DIMBLK1
  1

  9
$DIMBLK2
  1

  9
$DIMSTYLE
  2
STANDARD
  9
$DIMCLRD
 70
     0
  9
$DIMCLRE
 70
     0
  9
$DIMCLRT
 70
     0
  9
$DIMTFAC
 40
1.0
  9
$DIMGAP
 40
0.09
  9
$DIMJUST
 70
     0
  9
$DIMSD1
 70
     0
  9
$DIMSD2
 70
     0
  9
$DIMTOLJ
 70
     1
  9
$DIMTZIN
 70
     0
  9
$DIMALTZ
 70
     0
  9
$DIMALTTZ
 70
     0
  9
$DIMUPT
 70
     0
  9
$DIMDEC
 70
     4
  9
$DIMTDEC
 70
     4
  9
$DIMALTU
 70
     2
  9
$DIMALTTD
 70
     2
  9
$DIMTXSTY
  7
STANDARD
  9
$DIMAUNIT
 70
     0
  9
$DIMADEC
 70
     0
  9
$DIMALTRND
 40
0.0
  9
$DIMAZIN
 70
     0
  9
$DIMDSEP
 70
    46
  9
$DIMATFIT
 70
     3
  9
$DIMFRAC
 70
     0
  9
$DIMLDRBLK
  1

  9
$DIMLUNIT
 70
     2
  9
$DIMLWD
 70
    -2
  9
$DIMLWE
 70
    -2
  9
$DIMTMOVE
 70
     0
  9
$LUNITS
 70
     2
  9
$LUPREC
 70
     4
  9
$SKETCHINC
 40
0.1
  9
$FILLETRAD
 40
12.5
  9
$AUNITS
 70
     0
  9
$AUPREC
 70
     0
  9
$MENU
  1
acad
  9
$ELEVATION
 40
0.0
  9
$PELEVATION
 40
0.0
  9
$THICKNESS
 40
0.0
  9
$LIMCHECK
 70
     0
  9
$CHAMFERA
 40
12.5
  9
$CHAMFERB
 40
12.5
  9
$CHAMFERC
 40
0.0
  9
$CHAMFERD
 40
0.0
  9
$SKPOLY
 70
     0
  9
$TDCREATE
 40
2450904.475361400
  9
$TDUCREATE
 40
2450904.392028068
  9
$TDUPDATE
 40
2456226.383644375
  9
$TDUUPDATE
 40
2456226.300311042
  9
$TDINDWG
 40
0.0084158449
  9
$TDUSRTIMER
 40
0.0084158449
  9
$USRTIMER
 70
     1
  9
$ANGBASE
 50
0.0
  9
$ANGDIR
 70
     0
  9
$PDMODE
 70
     0
  9
$PDSIZE
 40
25.79511272137922
  9
$PLINEWID
 40
0.0
  9
$SPLFRAME
 70
     0
  9
$SPLINETYPE
 70
     6
  9
$SPLINESEGS
 70
     8
  9
$HANDSEED
  5
622
  9
$SURFTAB1
 70
     6
  9
$SURFTAB2
 70
     6
  9
$SURFTYPE
 70
     6
  9
$SURFU
 70
     6
  9
$SURFV
 70
     6
  9
$UCSBASE
  2

  9
$UCSNAME
  2

  9
$UCSORG
 10
0.0
 20
0.0
 30
0.0
  9
$UCSXDIR
 10
1.0
 20
0.0
 30
0.0
  9
$UCSYDIR
 10
0.0
 20
1.0
 30
0.0
  9
$UCSORTHOREF
  2

  9
$UCSORTHOVIEW
 70
     0
  9
$UCSORGTOP
 10
0.0
 20
0.0
 30
0.0
  9
$UCSORGBOTTOM
 10
0.0
 20
0.0
 30
0.0
  9
$UCSORGLEFT
 10
0.0
 20
0.0
 30
0.0
  9
$UCSORGRIGHT
 10
0.0
 20
0.0
 30
0.0
  9
$UCSORGFRONT
 10
0.0
 20
0.0
 30
0.0
  9
$UCSORGBACK
 10
0.0
 20
0.0
 30
0.0
  9
$PUCSBASE
  2

  9
$PUCSNAME
  2

  9
$PUCSORG
 10
0.0
 20
0.0
 30
0.0
  9
$PUCSXDIR
 10
1.0
 20
0.0
 30
0.0
  9
$PUCSYDIR
 10
0.0
 20
1.0
 30
0.0
  9
$PUCSORTHOREF
  2

  9
$PUCSORTHOVIEW
 70
     0
  9
$PUCSORGTOP
 10
0.0
 20
0.0
 30
0.0
  9
$PUCSORGBOTTOM
 10
0.0
 20
0.0
 30
0.0
  9
$PUCSORGLEFT
 10
0.0
 20
0.0
 30
0.0
  9
$PUCSORGRIGHT
 10
0.0
 20
0.0
 30
0.0
  9
$PUCSORGFRONT
 10
0.0
 20
0.0
 30
0.0
  9
$PUCSORGBACK
 10
0.0
 20
0.0
 30
0.0
  9
$USERI1
 70
     0
  9
$USERI2
 70
     0
  9
$USERI3
 70
     0
  9
$USERI4
 70
     0
  9
$USERI5
 70
     0
  9
$USERR1
 40
0.0
  9
$USERR2
 40
0.0
  9
$USERR3
 40
0.0
  9
$USERR4
 40
0.0
  9
$USERR5
 40
0.0
  9
$WORLDVIEW
 70
     1
  9
$SHADEDGE
 70
     3
  9
$SHADEDIF
 70
    70
  9
$TILEMODE
 70
     1
  9
$MAXACTVP
 70
    16
  9
$PINSBASE
 10
0.0
 20
0.0
 30
0.0
  9
$PLIMCHECK
 70
     0
  9
$PEXTMIN
 10
1.000000000000000E+20
 20
1.000000000000000E+20
 30
1.000000000000000E+20
  9
$PEXTMAX
 10
-1.000000000000000E+20
 20
-1.000000000000000E+20
 30
-1.000000000000000E+20
  9
$PLIMMIN
 10
0.0
 20
0.0
  9
$PLIMMAX
 10
12.0
 20
9.0
  9
$UNITMODE
 70
     0
  9
$VISRETAIN
 70
     0
  9
$PLINEGEN
 70
     0
  9
$PSLTSCALE
 70
     1
  9
$TREEDEPTH
 70
  3020
  9
$CMLSTYLE
  2
STANDARD
  9
$CMLJUST
 70
     0
  9
$CMLSCALE
 40
1.0
  9
$PROXYGRAPHICS
 70
     1
  9
$MEASUREMENT
 70
     0
  9
$CELWEIGHT
370
    -1
  9
$ENDCAPS
280
     0
  9
$JOINSTYLE
280
     0
  9
$LWDISPLAY
290
     0
  9
$INSUNITS
 70
     0
  9
$HYPERLINKBASE
  1

  9
$STYLESHEET
  1

  9
$XEDIT
290
     1
  9
$CEPSNTYPE
380
     0
  9
$PSTYLEMODE
290
     1
  9
$FINGERPRINTGUID
  2
{16A86FD5-7AA2-4678-B28B-53890D356D55}
  9
$VERSIONGUID
  2
{6C17FE65-C71F-40BA-B3F8-90D53D2CF25E}
  9
$EXTNAMES
290
     1
  9
$PSVPSCALE
 40
0.0
  9
$OLESTARTUP
290
     0
  0
ENDSEC
  0
SECTION
  2
CLASSES
  0
CLASS
  1
ACDBDICTIONARYWDFLT
  2
AcDbDictionaryWithDefault
  3
ObjectDBX Classes
 90
        0
280
     0
281
     0
  0
CLASS
  1
MATERIAL
  2
AcDbMaterial
  3
ObjectDBX Classes
 90
     1153
280
     0
281
     0
  0
CLASS
  1
VISUALSTYLE
  2
AcDbVisualStyle
  3
ObjectDBX Classes
 90
     4095
280
     0
281
     0
  0
CLASS
  1
TABLESTYLE
  2
AcDbTableStyle
  3
ObjectDBX Classes
 90
     4095
280
     0
281
     0
  0
CLASS
  1
SCALE
  2
AcDbScale
  3
ObjectDBX Classes
 90
     1153
280
     0
281
     0
  0
CLASS
  1
MLEADERSTYLE
  2
AcDbMLeaderStyle
  3
ACDB_MLEADERSTYLE_CLASS
 90
     4095
280
     0
281
     0
  0
CLASS
  1
ACME_DOCUMENT
  2
AcMeDbDoc
  3
AcMeServices
 90
     1024
280
     0
281
     0
  0
CLASS
  1
AMGSETTINGSOBJ
  2
AmgSettingsObj
  3
"AcadM|Product Description: AutoCAD Mechanical|Company: Autodesk, Inc."
 90
     1024
280
     0
281
     0
  0
CLASS
  1
ACMESCOPE
  2
AcMeScope
  3
AcMeServices
 90
     1024
280
     0
281
     0
  0
CLASS
  1
ACMECOMMANDHISTORY
  2
AcMeCommandHistory
  3
AcMeServices
 90
     1024
280
     0
281
     0
  0
CLASS
  1
ACIMSYSVARMAN
  2
AcImSysVarManager
  3
AcMeServices
 90
     1024
280
     0
281
     0
  0
CLASS
  1
ACIMINTSYSVAR
  2
AcImIntSysVar
  3
AcMeServices
 90
     1024
280
     0
281
     0
  0
CLASS
  1
ACMEDRAWINGMAN
  2
AcMeDrawingMan
  3
AcMeServices
 90
     1024
280
     0
281
     0
  0
CLASS
  1
ACMEVIEW
  2
AcMeView
  3
AcMeServices
 90
     1024
280
     0
281
     0
  0
CLASS
  1
ACDBENTITYCACHE
  2
AcMeEntityCache
  3
AcMeServices
 90
     1024
280
     0
281
     0
  0
CLASS
  1
GSMANAGER
  2
AcMeGSManager
  3
AcMeServices
 90
     1024
280
     0
281
     0
  0
CLASS
  1
AMDTINTERNALREACTOR
  2
AmdtInternalReactor
  3
AcMeServices
 90
     1024
280
     0
281
     0
  0
CLASS
  1
ACMESTATEMGR
  2
AcMeStateMgr
  3
AcMeServices
 90
     1024
280
     0
281
     0
  0
CLASS
  1
ACGREFMASTER
  2
AcGrefMaster
  3
AcAttribServices
 90
     1024
280
     0
281
     0
  0
CLASS
  1
AM_DRAWING_MGR
  2
AcDmDwgMgr
  3
AcMechDwgViewMgmt
 90
     1024
280
     0
281
     0
  0
CLASS
  1
AM_DWG_DOCUMENT
  2
AcDmDwgDocument
  3
AcMechDwgViewMgmt
 90
     1024
280
     0
281
     0
  0
CLASS
  1
AM_DWG_SHEET
  2
AcDmSheet
  3
AcMechDwgViewMgmt
 90
     1024
280
     0
281
     0
  0
CLASS
  1
AM_VIEWDIMPARMAP
  2
AcDmViewDimParMap
  3
AcMechDwgViewMgmt
 90
     1024
280
     0
281
     0
  0
CLASS
  1
ACIMREALSYSVAR
  2
AcImRealSysVar
  3
AcMeServices
 90
     1024
280
     0
281
     0
  0
CLASS
  1
AM_DWGMGR_NAME
  2
AcDmDwgMgrName
  3
AcMechDwgViewMgmt
 90
     1024
280
     0
281
     0
  0
CLASS
  1
ACME_DATABASE
  2
AcMeDbDatabase
  3
AcMeServices
 90
     1024
280
     0
281
     0
  0
CLASS
  1
ACRFINSADJUSTERMGR
  2
AcRfInsAdjusterMgr
  3
AcMeServices
 90
     1024
280
     0
281
     0
  0
CLASS
  1
ACGREFACADMASTER
  2
AcGrefacadMaster
  3
AcGrefServices
 90
     1024
280
     0
281
     0
  0
CLASS
  1
AMDTMENUSTATEMGR
  2
AmdtMenuStateMgr
  3
McadcomServices
 90
     1024
280
     0
281
     0
  0
CLASS
  1
AMDTMCOMMENUSTATE
  2
AmdtMcomMenuState
  3
McadcomServices
 90
     1024
280
     0
281
     0
  0
CLASS
  1
AMIMASTER
  2
AmiMaster
  3
AmiServices
 90
     1024
280
     0
281
     0
  0
CLASS
  1
MAPIAMMOUDLE
  2
MApiAmModule
  3
MApiAmServices
 90
     1024
280
     0
281
     0
  0
CLASS
  1
ACIMSTRSYSVAR
  2
AcImStrSysVar
  3
AcMeServices
 90
     1024
280
     0
281
     0
  0
CLASS
  1
AMDTADMENUSTATE
  2
AmdtAdMenuState
  3
DesignerServices
 90
     1024
280
     0
281
     0
  0
CLASS
  1
ADAPPL
  2
AcAdAppl
  3
DesignerServices
 90
     1024
280
     0
281
     0
  0
CLASS
  1
DEPMGR
  2
AcAdDepMgr
  3
DesignerServices
 90
     1024
280
     0
281
     0
  0
CLASS
  1
PARAMMGR
  2
AcAdParamMgr
  3
DesignerServices
 90
     1024
280
     0
281
     0
  0
CLASS
  1
PARAMSCOPE
  2
AcAdParamScope
  3
DesignerServices
 90
     1024
280
     0
281
     0
  0
CLASS
  1
NAMEDAPPL
  2
AcAdNamedAppl
  3
DesignerServices
 90
     1024
280
     0
281
     0
  0
CLASS
  1
AMDTDMMENUSTATE
  2
AmdtDmMenuState
  3
AcMechDwgViewMgmt
 90
     1024
280
     0
281
     0
  0
CLASS
  1
AMDTAMMENUSTATE
  2
AmdtAmMenuState
  3
DesignerAssemblies
 90
     1024
280
     0
281
     0
  0
CLASS
  1
ACAMPROJECT
  2
AcAmProject
  3
DesignerAssemblies
 90
     1024
280
     0
281
     0
  0
CLASS
  1
ACAMGRCOMPDEF
  2
AcAmGrCompDef
  3
DesignerAssemblies
 90
     1024
280
     0
281
     0
  0
CLASS
  1
ACCMCONTEXT
  2
AcCmContext
  3
DesignerAssemblies
 90
     1024
280
     0
281
     0
  0
CLASS
  1
ACAMCOMPDEF
  2
AcAmCompDef
  3
DesignerAssemblies
 90
     1024
280
     0
281
     0
  0
CLASS
  1
ACAMCOMPDEFMGR
  2
AcAmCompDefMgr
  3
DesignerAssemblies
 90
     1024
280
     0
281
     0
  0
CLASS
  1
AMCONTEXTMGR
  2
AcAmContextMgr
  3
DesignerAssemblies
 90
     1024
280
     0
281
     0
  0
CLASS
  1
ACAMCONTEXTMODELER
  2
AcAmContextModeler
  3
DesignerAssemblies
 90
     1024
280
     0
281
     0
  0
CLASS
  1
ACMDATADICTIONARY
  2
AcmDataDictionary
  3
"AcmSymBB|Product Description: AutoCAD Mechanical|Company: Autodesk, Inc."
 90
     1024
280
     0
281
     0
  0
CLASS
  1
CATALOGSTATE
  2
AcAmCatalogState
  3
DesignerAssemblies
 90
     1024
280
     0
281
     0
  0
CLASS
  1
ACAMGRCOMPDEFSET
  2
AcAmGrCompDefSet
  3
DesignerAssemblies
 90
     1024
280
     0
281
     0
  0
CLASS
  1
AMDTBROWSERDBTAB
  2
AmdtBrowserDbTab
  3
McadcomServices
 90
     1024
280
     0
281
     0
  0
CLASS
  1
CBROWSERAPPOBJECT
  2
CBrowserAppObject
  3
McadcomServices
 90
     1024
280
     0
281
     0
  0
CLASS
  1
DM_PLACEHOLDER
  2
AcDmSelsetPlaceholder
  3
AcMechDwgViewMgmt
 90
     1024
280
     0
281
     0
  0
CLASS
  1
ACMSTANDARDANSI
  2
AcmStandardANSI
  3
"Amdt_StdImp|Product Description: AutoCAD Mechanical|Company: Autodesk, Inc."
 90
     1024
280
     0
281
     0
  0
CLASS
  1
ACMSURFSTANDARDANSI
  2
AcmSurfTextStdANSI
  3
"Amdt_StdImp|Product Description: AutoCAD Mechanical|Company: Autodesk, Inc."
 90
     1024
280
     0
281
     0
  0
CLASS
  1
ACMFCFSTANDARDANSI
  2
AcmFCFStdANSI
  3
"Amdt_StdImp|Product Description: AutoCAD Mechanical|Company: Autodesk, Inc."
 90
     1024
280
     0
281
     0
  0
CLASS
  1
ACMWELDSTANDARDANSI
  2
AcmWeldingStdANSI
  3
"Amdt_StdImp|Product Description: AutoCAD Mechanical|Company: Autodesk, Inc."
 90
     1024
280
     0
281
     0
  0
CLASS
  1
ACMIDSTANDARDANSI
  2
AcmIdStdANSI
  3
"Amdt_StdImp|Product Description: AutoCAD Mechanical|Company: Autodesk, Inc."
 90
     1024
280
     0
281
     0
  0
CLASS
  1
ACMDATUMSTANDARDANSI
  2
AcmDatumStdANSI
  3
"Amdt_StdImp|Product Description: AutoCAD Mechanical|Company: Autodesk, Inc."
 90
     1024
280
     0
281
     0
  0
CLASS
  1
ACMBOMSTANDARDANSI
  2
AcmBOMStdANSI
  3
"Amdt_StdImp|Product Description: AutoCAD Mechanical|Company: Autodesk, Inc."
 90
     1024
280
     0
281
     0
  0
CLASS
  1
ACMDETAILSTANDARDANSI
  2
AmdtDetailSymStdANSI
  3
"Amdt_StdImp|Product Description: AutoCAD Mechanical|Company: Autodesk, Inc."
 90
     1024
280
     0
281
     0
  0
CLASS
  1
ACMSECTIONSTANDARDANSI
  2
AmdtSectionSymStdANSI
  3
"Amdt_StdImp|Product Description: AutoCAD Mechanical|Company: Autodesk, Inc."
 90
     1024
280
     0
281
     0
  0
CLASS
  1
ACMCENTERLINESTANDARDANSI
  2
AmdtCenterLineStdANSI
  3
"Amdt_StdImp|Product Description: AutoCAD Mechanical|Company: Autodesk, Inc."
 90
     1024
280
     0
281
     0
  0
CLASS
  1
ACMTHREADLINESTANDARDANSI
  2
AmdtThreadLineStdANSI
  3
"Amdt_StdImp|Product Description: AutoCAD Mechanical|Company: Autodesk, Inc."
 90
     1024
280
     0
281
     0
  0
CLASS
  1
ACMNOTESTANDARDANSI
  2
AmdtNoteStdANSI
  3
"Amdt_StdImp|Product Description: AutoCAD Mechanical|Company: Autodesk, Inc."
 90
     1024
280
     0
281
     0
  0
CLASS
  1
ACMTAPERSTANDARDANSI
  2
AcmTaperStdANSI
  3
"Amdt_StdImp|Product Description: AutoCAD Mechanical|Company: Autodesk, Inc."
 90
     1024
280
     0
281
     0
  0
CLASS
  1
ACMANOOTATIONVIEWSTANDARDANSI
  2
AmdtAnViewStdANSI
  3
"Amdt_StdImp|Product Description: AutoCAD Mechanical|Company: Autodesk, Inc."
 90
     1024
280
     0
281
     0
  0
CLASS
  1
ACAMGLAYSTD
  2
AcAmgLayStd
  3
"AmgLay|Product Description: AutoCAD Mechanical|Company: Autodesk, Inc."
 90
     1024
280
     0
281
     0
  0
CLASS
  1
ACAMGDIMSTD
  2
AcAmgDimStd
  3
"AmgDim|Product Description: AutoCAD Mechanical|Company: Autodesk, Inc."
 90
     1024
280
     0
281
     0
  0
CLASS
  1
AMGOBJPROPCFG
  2
AmgObjPropCfg
  3
"AmgLay|Product Description: AutoCAD Mechanical|Company: Autodesk, Inc."
 90
     1025
280
     0
281
     0
  0
CLASS
  1
ACAMGHOLECHARTSTDANSI
  2
AcAmgHoleChartStdANSI
  3
AmgDim|Product Description: AutoCAD Mechanical|Company: Autodesk, Inc.
 90
     1024
280
     0
281
     0
  0
CLASS
  1
ACAMGTITLESTD
  2
AcAmgTitleStd
  3
"AmgTitle|Product Description: AutoCAD Mechanical|Company: Autodesk, Inc."
 90
     4095
280
     0
281
     0
  0
CLASS
  1
AMDTNOTETEMPLATEDB
  2
AmdtNoteTemplateDB
  3
AcmSymBB|Product Description: AutoCAD Mechanical|Company: Autodesk, Inc.
 90
     1024
280
     0
281
     0
  0
CLASS
  1
ACAMGFILTERDAT
  2
AcAmgFilterDat
  3
"AcadM|Product Description: AutoCAD Mechanical|Company: Autodesk, Inc."
 90
     1024
280
     0
281
     0
  0
CLASS
  1
DICTIONARYVAR
  2
AcDbDictionaryVar
  3
ObjectDBX Classes
 90
        0
280
     0
281
     0
  0
CLASS
  1
CELLSTYLEMAP
  2
AcDbCellStyleMap
  3
ObjectDBX Classes
 90
     1152
280
     0
281
     0
  0
CLASS
  1
ACDBPLACEHOLDER
  2
AcDbPlaceHolder
  3
ObjectDBX Classes
 90
        0
280
     0
281
     0
  0
CLASS
  1
LAYOUT
  2
AcDbLayout
  3
ObjectDBX Classes
 90
        0
280
     0
281
     0
  0
ENDSEC
  0
SECTION
  2
TABLES
  0
TABLE
  2
VPORT
  5
12
330
0
100
AcDbSymbolTable
 70
     1
  0
VPORT
  5
13
330
12
100
AcDbSymbolTableRecord
100
AcDbViewportTableRecord
  2
*ACTIVE
 70
     0
 10
0.0
 20
0.0
 11
1.0
 21
1.0
 12
164.5069124848839
 22
-107.1302725792659
 13
0.0
 23
0.0
 14
5.0
 24
5.0
 15
50.0
 25
50.0
 16
0.0
 26
0.0
 36
1.0
 17
0.0
 27
0.0
 37
0.0
 40
525.5995038285022
 41
1.548186528497409
 42
50.0
 43
0.0
 44
0.0
 50
0.0
 51
0.0
 71
     0
 72
   100
 73
     1
 74
     0
 75
     0
 76
     0
 77
     0
 78
     0
281
     0
 65
     1
110
0.0
120
0.0
130
0.0
111
1.0
121
0.0
131
0.0
112
0.0
122
1.0
132
0.0
 79
     0
146
0.0
  0
ENDTAB
  0
TABLE
  2
LTYPE
  5
E
330
0
100
AcDbSymbolTable
 70
    21
  0
LTYPE
  5
F
330
E
100
AcDbSymbolTableRecord
100
AcDbLinetypeTableRecord
  2
BYBLOCK
 70
     0
  3

 72
    65
 73
     0
 40
0.0
  0
LTYPE
  5
6
330
E
100
AcDbSymbolTableRecord
100
AcDbLinetypeTableRecord
  2
BYLAYER
 70
     0
  3

 72
    65
 73
     0
 40
0.0
  0
LTYPE
  5
5
330
E
100
AcDbSymbolTableRecord
100
AcDbLinetypeTableRecord
  2
CONTINUOUS
 70
     0
  3
Solid line
 72
    65
 73
     0
 40
0.0
  0
LTYPE
  5
23
330
E
100
AcDbSymbolTableRecord
100
AcDbLinetypeTableRecord
  2
GEN7
 70
     0
  3
____ . ____ . ____ . ____ . ____ . ____ . ____
 72
    65
 73
     4
 40
13.75
 49
10.0
 74
     0
 49
-1.25
 74
     0
 49
1.25
 74
     0
 49
-1.25
 74
     0
  0
LTYPE
  5
286
330
E
100
AcDbSymbolTableRecord
100
AcDbLinetypeTableRecord
  2
GEN3
 70
     0
  3
-- -- -- -- -- -- -- -- -- -- -- -- -- -- --
 72
    65
 73
     2
 40
6.25
 49
5.0
 74
     0
 49
-1.25
 74
     0
  0
LTYPE
  5
8D
330
E
100
AcDbSymbolTableRecord
100
AcDbLinetypeTableRecord
  2
GEN4A
 70
     0
  3
_____ . . _____ . . _____ . . ____ .. ____
 72
    65
 73
     6
 40
16.25
 49
10.0
 74
     0
 49
-1.25
 74
     0
 49
1.25
 74
     0
 49
-1.25
 74
     0
 49
1.25
 74
     0
 49
-1.25
 74
     0
  0
LTYPE
  5
E9
330
E
100
AcDbSymbolTableRecord
100
AcDbLinetypeTableRecord
  2
GEN7A
 70
     0
  3
__ . __ . __
 72
    65
 73
     4
 40
6.875
 49
5.0
 74
     0
 49
-0.625
 74
     0
 49
0.625
 74
     0
 49
-0.625
 74
     0
  0
LTYPE
  5
E5
330
E
100
AcDbSymbolTableRecord
100
AcDbLinetypeTableRecord
  2
GEN3A
 70
     0
  3
 - - - - -
 72
    65
 73
     2
 40
3.125
 49
2.5
 74
     0
 49
-0.625
 74
     0
  0
LTYPE
  5
599
330
E
100
AcDbSymbolTableRecord
100
AcDbLinetypeTableRecord
  2
HIDDEN
 70
     0
  3
Verdeckt
 72
    65
 73
     2
 40
0.375
 49
0.25
 74
     0
 49
-0.125
 74
     0
  0
LTYPE
  5
59A
330
E
100
AcDbSymbolTableRecord
100
AcDbLinetypeTableRecord
  2
PHANTOM2
 70
     0
  3
Phantom (.5x) ___ _ _ ___ _ _ ___ _ _ ___ _ _
 72
    65
 73
     6
 40
1.25
 49
0.625
 74
     0
 49
-0.125
 74
     0
 49
0.125
 74
     0
 49
-0.125
 74
     0
 49
0.125
 74
     0
 49
-0.125
 74
     0
  0
LTYPE
  5
59B
330
E
100
AcDbSymbolTableRecord
100
AcDbLinetypeTableRecord
  2
CENTER
 70
     0
  3
Mitte ____ _ ____ _ ____ _ ____ _ ____ _ ____
 72
    65
 73
     4
 40
2.0
 49
1.25
 74
     0
 49
-0.25
 74
     0
 49
0.25
 74
     0
 49
-0.25
 74
     0
  0
LTYPE
  5
5E0
330
E
100
AcDbSymbolTableRecord
100
AcDbLinetypeTableRecord
  2
AM_ISO02W050
 70
     0
  3
__ __ __ __ __ __ __ __ __ __ __ __ __ __ __
 72
    65
 73
     2
 40
7.5
 49
6.0
 74
     0
 49
-1.5
 74
     0
  0
LTYPE
  5
5E1
330
E
100
AcDbSymbolTableRecord
100
AcDbLinetypeTableRecord
  2
AM_ISO08W050
 70
     0
  3
____ . ____ . ____ . ____ . ____ . ____ . ____
 72
    65
 73
     4
 40
18.0
 49
12.0
 74
     0
 49
-1.5
 74
     0
 49
3.0
 74
     0
 49
-1.5
 74
     0
  0
LTYPE
  5
5E2
330
E
100
AcDbSymbolTableRecord
100
AcDbLinetypeTableRecord
  2
AM_ISO09W050
 70
     0
  3
_____ . . _____ . . _____ . . ____ .. ____
 72
    65
 73
     6
 40
22.5
 49
12.0
 74
     0
 49
-1.5
 74
     0
 49
3.0
 74
     0
 49
-1.5
 74
     0
 49
3.0
 74
     0
 49
-1.5
 74
     0
  0
LTYPE
  5
5E3
330
E
100
AcDbSymbolTableRecord
100
AcDbLinetypeTableRecord
  2
Amconstr
 70
     0
  3
_______________________
 72
    65
 73
     2
 40
9999.0
 49
9999.0
 74
     0
 49
0.0
 74
     0
  0
LTYPE
  5
5E4
330
E
100
AcDbSymbolTableRecord
100
AcDbLinetypeTableRecord
  2
AM_ISO08W050x2
 70
     0
  3
__ . __ . __ . __ . __ . __
 72
    65
 73
     4
 40
9.0
 49
6.0
 74
     0
 49
-0.75
 74
     0
 49
1.5
 74
     0
 49
-0.75
 74
     0
  0
LTYPE
  5
5E5
330
E
100
AcDbSymbolTableRecord
100
AcDbLinetypeTableRecord
  2
AM_ISO02W050x2
 70
     0
  3
 _ _ _ _ _ _ _ _ _ _ _ _
 72
    65
 73
     2
 40
3.75
 49
3.0
 74
     0
 49
-0.75
 74
     0
  0
LTYPE
  5
5E8
330
E
100
AcDbSymbolTableRecord
100
AcDbLinetypeTableRecord
  2
Amzigzag
 70
     0
  3
/\/-/\/-/\/-/\/-/\/-/\/
 72
    65
 73
     2
 40
11.0001
 49
0.0001
 74
     4
 75
   136
340
5E7
 46
0.04
 50
0.0
 44
0.0
 45
0.0
 49
-11.0
 74
     0
  0
LTYPE
  5
5E9
330
E
100
AcDbSymbolTableRecord
100
AcDbLinetypeTableRecord
  2
CENTER2
 70
     0
  3
Center (.5x) ___ _ ___ _ ___ _ ___ _ ___ _ ___
 72
    65
 73
     4
 40
1.125
 49
0.75
 74
     0
 49
-0.125
 74
     0
 49
0.125
 74
     0
 49
-0.125
 74
     0
  0
LTYPE
  5
5EA
330
E
100
AcDbSymbolTableRecord
100
AcDbLinetypeTableRecord
  2
HIDDEN2
 70
     0
  3
Hidden (.5x) _ _ _ _ _ _ _ _ _ _ _ _ _ _ _ _ _
 72
    65
 73
     2
 40
0.1875
 49
0.125
 74
     0
 49
-0.0625
 74
     0
  0
LTYPE
  5
5EB
330
E
100
AcDbSymbolTableRecord
100
AcDbLinetypeTableRecord
  2
Amzigzag2
 70
     0
  3
/\/-/\/-/\/-/\/-/\/-/\/
 72
    65
 73
     2
 40
0.4401
 49
0.0001
 74
     4
 75
   136
340
5E7
 46
0.0016
 50
0.0
 44
0.0
 45
0.0
 49
-0.4400000000000001
 74
     0
  0
LTYPE
  5
5F9
330
E
100
AcDbSymbolTableRecord
100
AcDbLinetypeTableRecord
  2
ACANSTGB
 70
     0
  3
__ . . __ . .
 72
    65
 73
     6
 40
0.35433070866
 49
0.15748031496
 74
     0
 49
-0.03937007874
 74
     0
 49
0.03937007874
 74
     0
 49
-0.03937007874
 74
     0
 49
0.03937007874
 74
     0
 49
-0.03937007874
 74
     0
  0
LTYPE
  5
5FA
330
E
100
AcDbSymbolTableRecord
100
AcDbLinetypeTableRecord
  2
ACANSTGL
 70
     0
  3
_ _ _ _ _
 72
    65
 73
     2
 40
0.11811023622
 49
0.07874015748
 74
     0
 49
-0.03937007874
 74
     0
  0
ENDTAB
  0
TABLE
  2
LAYER
  5
B
330
0
100
AcDbSymbolTable
 70
    18
  0
LAYER
  5
4
330
B
100
AcDbSymbolTableRecord
100
AcDbLayerTableRecord
  2
0
 70
     0
 62
     7
  6
CONTINUOUS
370
    -3
390
50D
  0
LAYER
  5
1E
330
B
100
AcDbSymbolTableRecord
100
AcDbLayerTableRecord
  2
MSR_I4_4-0
 70
     0
 62
     7
  6
CONTINUOUS
370
    -3
390
50D
  0
LAYER
  5
35
330
B
100
AcDbSymbolTableRecord
100
AcDbLayerTableRecord
  2
MSR_I4_4-2
 70
     0
 62
     5
  6
CONTINUOUS
370
    -3
390
50D
  0
LAYER
  5
22
330
B
100
AcDbSymbolTableRecord
100
AcDbLayerTableRecord
  2
MSR_I4_4-7
 70
     0
 62
     4
  6
GEN7
370
    -3
390
50D
  0
LAYER
  5
285
330
B
100
AcDbSymbolTableRecord
100
AcDbLayerTableRecord
  2
MSR_I4_4-3
 70
     0
 62
     6
  6
GEN3
370
    -3
390
50D
  0
LAYER
  5
30
330
B
100
AcDbSymbolTableRecord
100
AcDbLayerTableRecord
  2
MSR_I4_4-4
 70
     0
 62
     3
  6
CONTINUOUS
370
    -3
390
50D
  0
LAYER
  5
401
330
B
100
AcDbSymbolTableRecord
100
AcDbLayerTableRecord
  2
MSR_I4_4-8
 70
     0
 62
     1
  6
CONTINUOUS
370
    -3
390
50D
  0
LAYER
  5
8C
330
B
100
AcDbSymbolTableRecord
100
AcDbLayerTableRecord
  2
MSR_I4_4-4A
 70
     0
 62
     3
  6
GEN4A
370
    -3
390
50D
  0
LAYER
  5
D3
330
B
100
AcDbSymbolTableRecord
100
AcDbLayerTableRecord
  2
GEV_FROZEN
 70
     1
 62
     7
  6
CONTINUOUS
370
    -3
390
50D
  0
LAYER
  5
DD
330
B
100
AcDbSymbolTableRecord
100
AcDbLayerTableRecord
  2
CENN
 70
     0
 62
     7
  6
CONTINUOUS
370
    -3
390
50D
  0
LAYER
  5
D9
330
B
100
AcDbSymbolTableRecord
100
AcDbLayerTableRecord
  2
BHMM
 70
     0
 62
     7
  6
CONTINUOUS
370
    -3
390
50D
  0
LAYER
  5
DB
330
B
100
AcDbSymbolTableRecord
100
AcDbLayerTableRecord
  2
THLI
 70
     0
 62
     7
  6
CONTINUOUS
370
    -3
390
50D
  0
LAYER
  5
E8
330
B
100
AcDbSymbolTableRecord
100
AcDbLayerTableRecord
  2
MSR_I4_4-7A
 70
     0
 62
     4
  6
GEN7A
370
    -3
390
50D
  0
LAYER
  5
2C
330
B
100
AcDbSymbolTableRecord
100
AcDbLayerTableRecord
  2
MSR_I4_4-6
 70
     0
 62
     2
  6
CONTINUOUS
370
    -3
390
50D
  0
LAYER
  5
299
330
B
100
AcDbSymbolTableRecord
100
AcDbLayerTableRecord
  2
INFO
 70
     0
 62
     4
  6
CONTINUOUS
370
    -3
390
50D
  0
LAYER
  5
2B1
330
B
100
AcDbSymbolTableRecord
100
AcDbLayerTableRecord
  2
MSR_I4_4-0N
 70
     0
 62
     7
  6
CONTINUOUS
370
    -3
390
50D
  0
LAYER
  5
D6
330
B
100
AcDbSymbolTableRecord
100
AcDbLayerTableRecord
  2
-BHMU
 70
     0
 62
     7
  6
CONTINUOUS
370
    -3
390
50D
  0
LAYER
  5
E4
330
B
100
AcDbSymbolTableRecord
100
AcDbLayerTableRecord
  2
MSR_I4_4-3A
 70
     0
 62
     6
  6
GEN3A
370
    -3
390
50D
  0
ENDTAB
  0
TABLE
  2
STYLE
  5
C
330
0
100
AcDbSymbolTable
 70
     4
  0
STYLE
  5
D
330
C
100
AcDbSymbolTableRecord
100
AcDbTextStyleTableRecord
  2
STANDARD
 70
     0
 40
0.0
 41
1.0
 50
0.0
 71
     0
 42
3.5
  3
ISOCP.SHX
  4

  0
STYLE
  5
5E7
330
C
100
AcDbSymbolTableRecord
100
AcDbTextStyleTableRecord
  2

 70
     1
 40
0.0
 41
1.0
 50
0.0
 71
     0
 42
3.5
  3
genltshp.shx
  4

  0
STYLE
  5
5F7
330
C
100
AcDbSymbolTableRecord
100
AcDbTextStyleTableRecord
  2
ACANSTS
 70
     0
 40
1.0
 41
1.0
 50
0.0
 71
     0
 42
3.5
  3
romans.shx
  4

  0
STYLE
  5
5F8
330
C
100
AcDbSymbolTableRecord
100
AcDbTextStyleTableRecord
  2
ACANSGDT
 70
     0
 40
0.0
 41
1.0
 50
0.0
 71
     0
 42
3.5
  3
amgdt.shx
  4

  0
ENDTAB
  0
TABLE
  2
VIEW
  5
10
330
0
100
AcDbSymbolTable
 70
     0
  0
ENDTAB
  0
TABLE
  2
UCS
  5
11
330
0
100
AcDbSymbolTable
 70
     0
  0
ENDTAB
  0
TABLE
  2
APPID
  5
14
330
0
100
AcDbSymbolTable
 70
    67
  0
APPID
  5
15
330
14
100
AcDbSymbolTableRecord
100
AcDbRegAppTableRecord
  2
ACAD
 70
     0
  0
APPID
  5
A9
330
14
100
AcDbSymbolTableRecord
100
AcDbRegAppTableRecord
  2
GENIUS_GENOENT_13
 70
     0
  0
APPID
  5
A7
330
14
100
AcDbSymbolTableRecord
100
AcDbRegAppTableRecord
  2
GENIUS_GENODEF_13
 70
     0
  0
APPID
  5
40D
330
14
100
AcDbSymbolTableRecord
100
AcDbRegAppTableRecord
  2
GENIUS_GENOBJ-N-HTC_13
 70
     0
  0
APPID
  5
40E
330
14
100
AcDbSymbolTableRecord
100
AcDbRegAppTableRecord
  2
GENIUS_GENHATCH_13
 70
     0
  0
APPID
  5
F1
330
14
100
AcDbSymbolTableRecord
100
AcDbRegAppTableRecord
  2
GEVPT
 70
     0
  0
APPID
  5
F0
330
14
100
AcDbSymbolTableRecord
100
AcDbRegAppTableRecord
  2
GEVIT
 70
     0
  0
APPID
  5
EF
330
14
100
AcDbSymbolTableRecord
100
AcDbRegAppTableRecord
  2
VCC
 70
     0
  0
APPID
  5
E2
330
14
100
AcDbSymbolTableRecord
100
AcDbRegAppTableRecord
  2
GENBH
 70
     0
  0
APPID
  5
F2
330
14
100
AcDbSymbolTableRecord
100
AcDbRegAppTableRecord
  2
GEVMK
 70
     0
  0
APPID
  5
AE
330
14
100
AcDbSymbolTableRecord
100
AcDbRegAppTableRecord
  2
GENIUS_GENBH_13
 70
     0
  0
APPID
  5
A8
330
14
100
AcDbSymbolTableRecord
100
AcDbRegAppTableRecord
  2
GENIUS_GENOBJ_13
 70
     0
  0
APPID
  5
AA
330
14
100
AcDbSymbolTableRecord
100
AcDbRegAppTableRecord
  2
GENIUS_GENOLIS_13
 70
     0
  0
APPID
  5
AB
330
14
100
AcDbSymbolTableRecord
100
AcDbRegAppTableRecord
  2
GENIUS_GENOREF_13
 70
     0
  0
APPID
  5
AC
330
14
100
AcDbSymbolTableRecord
100
AcDbRegAppTableRecord
  2
GENIUS_GENOBJ-NBEHI-BHF_13
 70
     0
  0
APPID
  5
AD
330
14
100
AcDbSymbolTableRecord
100
AcDbRegAppTableRecord
  2
GENIUS_GENOBJ-NBEHI-BHB_13
 70
     0
  0
APPID
  5
AF
330
14
100
AcDbSymbolTableRecord
100
AcDbRegAppTableRecord
  2
GENIUS_GENOBJ-F-PART_13
 70
     0
  0
APPID
  5
B0
330
14
100
AcDbSymbolTableRecord
100
AcDbRegAppTableRecord
  2
GENIUS_GEFSTDP_13
 70
     0
  0
APPID
  5
EE
330
14
100
AcDbSymbolTableRecord
100
AcDbRegAppTableRecord
  2
GENIUS_GEFPARTINS_13
 70
     0
  0
APPID
  5
2DC
330
14
100
AcDbSymbolTableRecord
100
AcDbRegAppTableRecord
  2
GENIUS_GENINF13_13
 70
     0
  0
APPID
  5
2DB
330
14
100
AcDbSymbolTableRecord
100
AcDbRegAppTableRecord
  2
GENIUS_GENOBJ-N-INFOPT_13
 70
     0
  0
APPID
  5
B1
330
14
100
AcDbSymbolTableRecord
100
AcDbRegAppTableRecord
  2
GENIUS_GENOBJ-N-RSSYM_13
 70
     0
  0
APPID
  5
B2
330
14
100
AcDbSymbolTableRecord
100
AcDbRegAppTableRecord
  2
GENIUS_GENSYMENT_13
 70
     0
  0
APPID
  5
2DA
330
14
100
AcDbSymbolTableRecord
100
AcDbRegAppTableRecord
  2
GENIUS_GENSCSYM_13
 70
     0
  0
APPID
  5
B3
330
14
100
AcDbSymbolTableRecord
100
AcDbRegAppTableRecord
  2
GENIUS_GENOBJ-N-CRS_13
 70
     0
  0
APPID
  5
B4
330
14
100
AcDbSymbolTableRecord
100
AcDbRegAppTableRecord
  2
GENIUS_GENOBJ-N-FIL_13
 70
     0
  0
APPID
  5
186
330
14
100
AcDbSymbolTableRecord
100
AcDbRegAppTableRecord
  2
GEVID891340550
 70
     0
  0
APPID
  5
147
330
14
100
AcDbSymbolTableRecord
100
AcDbRegAppTableRecord
  2
GEVID891340551
 70
     0
  0
APPID
  5
1C4
330
14
100
AcDbSymbolTableRecord
100
AcDbRegAppTableRecord
  2
GEVID891340552
 70
     0
  0
APPID
  5
1D9
330
14
100
AcDbSymbolTableRecord
100
AcDbRegAppTableRecord
  2
GEVID891340553
 70
     0
  0
APPID
  5
25C
330
14
100
AcDbSymbolTableRecord
100
AcDbRegAppTableRecord
  2
GEVID891340554
 70
     0
  0
APPID
  5
2F1
330
14
100
AcDbSymbolTableRecord
100
AcDbRegAppTableRecord
  2
GEVID891340555
 70
     0
  0
APPID
  5
314
330
14
100
AcDbSymbolTableRecord
100
AcDbRegAppTableRecord
  2
GEVID891340556
 70
     0
  0
APPID
  5
302
330
14
100
AcDbSymbolTableRecord
100
AcDbRegAppTableRecord
  2
GEVID891340557
 70
     0
  0
APPID
  5
F3
330
14
100
AcDbSymbolTableRecord
100
AcDbRegAppTableRecord
  2
GEVID891340558
 70
     0
  0
APPID
  5
108
330
14
100
AcDbSymbolTableRecord
100
AcDbRegAppTableRecord
  2
GEVID891340559
 70
     0
  0
APPID
  5
15D
330
14
100
AcDbSymbolTableRecord
100
AcDbRegAppTableRecord
  2
GEVID891340560
 70
     0
  0
APPID
  5
172
330
14
100
AcDbSymbolTableRecord
100
AcDbRegAppTableRecord
  2
GEVID891340561
 70
     0
  0
APPID
  5
479
330
14
100
AcDbSymbolTableRecord
100
AcDbRegAppTableRecord
  2
GEVID891340562
 70
     0
  0
APPID
  5
490
330
14
100
AcDbSymbolTableRecord
100
AcDbRegAppTableRecord
  2
GEVID891340563
 70
     0
  0
APPID
  5
208
330
14
100
AcDbSymbolTableRecord
100
AcDbRegAppTableRecord
  2
GEVID891340564
 70
     0
  0
APPID
  5
27C
330
14
100
AcDbSymbolTableRecord
100
AcDbRegAppTableRecord
  2
GEVID891340565
 70
     0
  0
APPID
  5
33F
330
14
100
AcDbSymbolTableRecord
100
AcDbRegAppTableRecord
  2
GEVID891340566
 70
     0
  0
APPID
  5
236
330
14
100
AcDbSymbolTableRecord
100
AcDbRegAppTableRecord
  2
GEVID891340567
 70
     0
  0
APPID
  5
247
330
14
100
AcDbSymbolTableRecord
100
AcDbRegAppTableRecord
  2
GEVID891340568
 70
     0
  0
APPID
  5
224
330
14
100
AcDbSymbolTableRecord
100
AcDbRegAppTableRecord
  2
GEVID891340569
 70
     0
  0
APPID
  5
4AE
330
14
100
AcDbSymbolTableRecord
100
AcDbRegAppTableRecord
  2
GEVID891340570
 70
     0
  0
APPID
  5
3C7
330
14
100
AcDbSymbolTableRecord
100
AcDbRegAppTableRecord
  2
GEVID891340571
 70
     0
  0
APPID
  5
398
330
14
100
AcDbSymbolTableRecord
100
AcDbRegAppTableRecord
  2
GEVID891340572
 70
     0
  0
APPID
  5
3AD
330
14
100
AcDbSymbolTableRecord
100
AcDbRegAppTableRecord
  2
GEVID891340573
 70
     0
  0
APPID
  5
372
330
14
100
AcDbSymbolTableRecord
100
AcDbRegAppTableRecord
  2
GEVID891340574
 70
     0
  0
APPID
  5
1F1
330
14
100
AcDbSymbolTableRecord
100
AcDbRegAppTableRecord
  2
GEVID891340575
 70
     0
  0
APPID
  5
1B1
330
14
100
AcDbSymbolTableRecord
100
AcDbRegAppTableRecord
  2
GEVID891340576
 70
     0
  0
APPID
  5
19C
330
14
100
AcDbSymbolTableRecord
100
AcDbRegAppTableRecord
  2
GEVID891340577
 70
     0
  0
APPID
  5
132
330
14
100
AcDbSymbolTableRecord
100
AcDbRegAppTableRecord
  2
GEVID891340578
 70
     0
  0
APPID
  5
55F
330
14
100
AcDbSymbolTableRecord
100
AcDbRegAppTableRecord
  2
ACAD_MLEADERVER
 70
     0
  0
APPID
  5
56C
330
14
100
AcDbSymbolTableRecord
100
AcDbRegAppTableRecord
  2
MCAD_NO_VIS
 70
     0
  0
APPID
  5
56D
330
14
100
AcDbSymbolTableRecord
100
AcDbRegAppTableRecord
  2
ACAD_TEMP_GRAPHIC
 70
     0
  0
APPID
  5
59D
330
14
100
AcDbSymbolTableRecord
100
AcDbRegAppTableRecord
  2
AD_DRAW
 70
     0
  0
APPID
  5
5A0
330
14
100
AcDbSymbolTableRecord
100
AcDbRegAppTableRecord
  2
ACATTRIBSERVICES
 70
     0
  0
APPID
  5
5C1
330
14
100
AcDbSymbolTableRecord
100
AcDbRegAppTableRecord
  2
DESIGNERASSEMBLIES
 70
     0
  0
APPID
  5
5C7
330
14
100
AcDbSymbolTableRecord
100
AcDbRegAppTableRecord
  2
ACADM_DIM_EDIT
 70
     0
  0
APPID
  5
5C8
330
14
100
AcDbSymbolTableRecord
100
AcDbRegAppTableRecord
  2
AMDT_DM_ADJ
 70
     0
  0
APPID
  5
61C
330
14
100
AcDbSymbolTableRecord
100
AcDbRegAppTableRecord
  2
ACAD_DSTYLE_DIMARC_LENGTH_SYMBOL
 70
     0
  0
APPID
  5
61D
330
14
100
AcDbSymbolTableRecord
100
AcDbRegAppTableRecord
  2
ACAD_DSTYLE_DIM_LINETYPE
 70
     0
  0
APPID
  5
61E
330
14
100
AcDbSymbolTableRecord
100
AcDbRegAppTableRecord
  2
ACAD_DSTYLE_DIM_EXT1_LINETYPE
 70
     0
  0
APPID
  5
61F
330
14
100
AcDbSymbolTableRecord
100
AcDbRegAppTableRecord
  2
ACAD_DSTYLE_DIM_EXT2_LINETYPE
 70
     0
  0
ENDTAB
  0
TABLE
  2
DIMSTYLE
  5
16
330
0
100
AcDbSymbolTable
 70
     7
100
AcDbDimStyleTable
 71
     0
  0
DIMSTYLE
105
1C
330
16
100
AcDbSymbolTableRecord
100
AcDbDimStyleTableRecord
  2
STANDARD
 70
     0
340
D
  0
DIMSTYLE
105
5DE
102
{ACAD_REACTORS
330
5CE
102
}
330
16
100
AcDbSymbolTableRecord
100
AcDbDimStyleTableRecord
  2
AM_ANSI
 70
     0
  4
mm
 41
0.12
 42
0.05
 43
0.5
 44
0.1
 47
0.1
 48
0.1
 78
     7
 79
     2
140
0.12
141
0.0
146
0.71
147
0.06
176
   256
177
   256
178
     2
274
     4
284
     7
340
D
371
    -1
372
    -1
1001
ACAD_DSTYLE_DIMARC_LENGTH_SYMBOL
1070
   379
1070
     1
1001
ACAD_DSTYLE_DIM_LINETYPE
1070
   380
1005
F
1001
ACAD_DSTYLE_DIM_EXT1_LINETYPE
1070
   381
1005
F
1001
ACAD_DSTYLE_DIM_EXT2_LINETYPE
1070
   382
1005
F
  0
DIMSTYLE
105
5EC
330
16
100
AcDbSymbolTableRecord
100
AcDbDimStyleTableRecord
  2
AM_ANSI$3
 70
     0
  4
mm
 41
0.12
 42
0.05
 43
0.5
 44
0.1
 47
0.1
 48
0.1
 78
     7
 79
     2
140
0.12
141
0.0
146
0.71
147
0.06
176
   256
177
   256
178
     2
274
     4
284
     7
288
     1
289
     0
340
D
371
    -1
372
    -1
1001
ACAD_DSTYLE_DIMARC_LENGTH_SYMBOL
1070
   379
1070
     1
1001
ACAD_DSTYLE_DIM_LINETYPE
1070
   380
1005
F
1001
ACAD_DSTYLE_DIM_EXT1_LINETYPE
1070
   381
1005
F
1001
ACAD_DSTYLE_DIM_EXT2_LINETYPE
1070
   382
1005
F
  0
DIMSTYLE
105
5ED
330
16
100
AcDbSymbolTableRecord
100
AcDbDimStyleTableRecord
  2
AM_ANSI$4
 70
     0
  4
mm
 41
0.12
 42
0.05
 43
0.5
 44
0.1
 47
0.1
 48
0.1
 78
     7
 79
     2
140
0.12
141
0.0
146
0.71
147
0.06
176
   256
177
   256
178
     2
274
     4
284
     7
288
     1
289
     0
340
D
371
    -1
372
    -1
1001
ACAD_DSTYLE_DIMARC_LENGTH_SYMBOL
1070
   379
1070
     1
1001
ACAD_DSTYLE_DIM_LINETYPE
1070
   380
1005
F
1001
ACAD_DSTYLE_DIM_EXT1_LINETYPE
1070
   381
1005
F
1001
ACAD_DSTYLE_DIM_EXT2_LINETYPE
1070
   382
1005
F
  0
DIMSTYLE
105
5EE
330
16
100
AcDbSymbolTableRecord
100
AcDbDimStyleTableRecord
  2
AM_ANSI$7
 70
     0
  4
mm
 41
0.12
 42
0.05
 43
0.5
 44
0.1
 47
0.1
 48
0.1
 78
     7
 79
     2
140
0.12
141
0.0
146
0.71
147
0.06
176
   256
177
   256
178
     2
274
     4
284
     7
340
D
371
    -1
372
    -1
1001
ACAD_DSTYLE_DIMARC_LENGTH_SYMBOL
1070
   379
1070
     1
1001
ACAD_DSTYLE_DIM_LINETYPE
1070
   380
1005
F
1001
ACAD_DSTYLE_DIM_EXT1_LINETYPE
1070
   381
1005
F
1001
ACAD_DSTYLE_DIM_EXT2_LINETYPE
1070
   382
1005
F
  0
DIMSTYLE
105
5EF
330
16
100
AcDbSymbolTableRecord
100
AcDbDimStyleTableRecord
  2
AM_ANSI$SF
 70
     0
  4
mm
 41
0.12
 42
0.05
 43
0.5
 44
0.1
 47
0.1
 48
0.1
 75
     1
 76
     1
 78
     7
 79
     2
140
0.12
141
0.0
146
0.71
147
0.06
176
   256
177
   256
178
     2
274
     4
284
     7
340
D
371
    -1
372
    -1
1001
ACAD_DSTYLE_DIMARC_LENGTH_SYMBOL
1070
   379
1070
     1
1001
ACAD_DSTYLE_DIM_LINETYPE
1070
   380
1005
F
1001
ACAD_DSTYLE_DIM_EXT1_LINETYPE
1070
   381
1005
F
1001
ACAD_DSTYLE_DIM_EXT2_LINETYPE
1070
   382
1005
F
  0
DIMSTYLE
105
5F4
330
16
100
AcDbSymbolTableRecord
100
AcDbDimStyleTableRecord
  2
AM_ANSI$SH
 70
     0
  4
mm
 41
0.12
 42
0.05
 43
0.5
 44
0.1
 47
0.1
 48
0.1
 75
     1
 76
     1
 78
     7
 79
     2
140
0.12
141
0.0
146
0.71
147
0.06
173
     1
176
   256
177
   256
178
     2
274
     4
284
     7
340
D
343
5F0
371
    -1
372
    -1
1001
ACAD_DSTYLE_DIMARC_LENGTH_SYMBOL
1070
   379
1070
     1
1001
ACAD_DSTYLE_DIM_LINETYPE
1070
   380
1005
F
1001
ACAD_DSTYLE_DIM_EXT1_LINETYPE
1070
   381
1005
F
1001
ACAD_DSTYLE_DIM_EXT2_LINETYPE
1070
   382
1005
F
  0
ENDTAB
  0
TABLE
  2
BLOCK_RECORD
  5
1
330
0
100
AcDbSymbolTable
 70
    63
  0
BLOCK_RECORD
  5
2
330
1
100
AcDbSymbolTableRecord
100
AcDbBlockTableRecord
  2
*MODEL_SPACE
340
562
  0
BLOCK_RECORD
  5
8
330
1
100
AcDbSymbolTableRecord
100
AcDbBlockTableRecord
  2
*PAPER_SPACE
340
563
  0
BLOCK_RECORD
  5
2B2
330
1
100
AcDbSymbolTableRecord
100
AcDbBlockTableRecord
  2
GENINF13
340
0
102
{BLKREFS
331
297
102
}
  0
BLOCK_RECORD
  5
402
330
1
100
AcDbSymbolTableRecord
100
AcDbBlockTableRecord
  2
*X1
340
0
102
{BLKREFS
331
400
102
}
  0
BLOCK_RECORD
  5
423
330
1
100
AcDbSymbolTableRecord
100
AcDbBlockTableRecord
  2
*X2
340
0
102
{BLKREFS
331
422
102
}
  0
BLOCK_RECORD
  5
179
330
1
100
AcDbSymbolTableRecord
100
AcDbBlockTableRecord
  2
*U3
340
0
102
{BLKREFS
331
178
102
}
  0
BLOCK_RECORD
  5
177
330
1
100
AcDbSymbolTableRecord
100
AcDbBlockTableRecord
  2
*U4
340
0
102
{BLKREFS
331
176
102
}
  0
BLOCK_RECORD
  5
13A
330
1
100
AcDbSymbolTableRecord
100
AcDbBlockTableRecord
  2
*U5
340
0
102
{BLKREFS
331
139
102
}
  0
BLOCK_RECORD
  5
138
330
1
100
AcDbSymbolTableRecord
100
AcDbBlockTableRecord
  2
*U6
340
0
102
{BLKREFS
331
137
102
}
  0
BLOCK_RECORD
  5
1B7
330
1
100
AcDbSymbolTableRecord
100
AcDbBlockTableRecord
  2
*U7
340
0
102
{BLKREFS
331
1B6
102
}
  0
BLOCK_RECORD
  5
1B5
330
1
100
AcDbSymbolTableRecord
100
AcDbBlockTableRecord
  2
*U8
340
0
102
{BLKREFS
331
1B4
102
}
  0
BLOCK_RECORD
  5
1CC
330
1
100
AcDbSymbolTableRecord
100
AcDbBlockTableRecord
  2
*U9
340
0
102
{BLKREFS
331
1CB
102
}
  0
BLOCK_RECORD
  5
1CA
330
1
100
AcDbSymbolTableRecord
100
AcDbBlockTableRecord
  2
*U10
340
0
102
{BLKREFS
331
1C9
102
}
  0
BLOCK_RECORD
  5
24F
330
1
100
AcDbSymbolTableRecord
100
AcDbBlockTableRecord
  2
*U11
340
0
102
{BLKREFS
331
24E
102
}
  0
BLOCK_RECORD
  5
24D
330
1
100
AcDbSymbolTableRecord
100
AcDbBlockTableRecord
  2
*U12
340
0
102
{BLKREFS
331
24C
102
}
  0
BLOCK_RECORD
  5
2E4
330
1
100
AcDbSymbolTableRecord
100
AcDbBlockTableRecord
  2
*U13
340
0
102
{BLKREFS
331
2E3
102
}
  0
BLOCK_RECORD
  5
2E2
330
1
100
AcDbSymbolTableRecord
100
AcDbBlockTableRecord
  2
*U14
340
0
102
{BLKREFS
331
2E1
102
}
  0
BLOCK_RECORD
  5
307
330
1
100
AcDbSymbolTableRecord
100
AcDbBlockTableRecord
  2
*U15
340
0
102
{BLKREFS
331
306
102
}
  0
BLOCK_RECORD
  5
305
330
1
100
AcDbSymbolTableRecord
100
AcDbBlockTableRecord
  2
*U16
340
0
102
{BLKREFS
331
304
102
}
  0
BLOCK_RECORD
  5
2F5
330
1
100
AcDbSymbolTableRecord
100
AcDbBlockTableRecord
  2
*U17
340
0
102
{BLKREFS
331
2F4
102
}
  0
BLOCK_RECORD
  5
2F3
330
1
100
AcDbSymbolTableRecord
100
AcDbBlockTableRecord
  2
*U18
340
0
102
{BLKREFS
331
2F2
102
}
  0
BLOCK_RECORD
  5
D4
330
1
100
AcDbSymbolTableRecord
100
AcDbBlockTableRecord
  2
*U19
340
0
102
{BLKREFS
331
D2
102
}
  0
BLOCK_RECORD
  5
D1
330
1
100
AcDbSymbolTableRecord
100
AcDbBlockTableRecord
  2
*U20
340
0
102
{BLKREFS
331
D0
102
}
  0
BLOCK_RECORD
  5
F7
330
1
100
AcDbSymbolTableRecord
100
AcDbBlockTableRecord
  2
*U21
340
0
102
{BLKREFS
331
F6
102
}
  0
BLOCK_RECORD
  5
F5
330
1
100
AcDbSymbolTableRecord
100
AcDbBlockTableRecord
  2
*U22
340
0
102
{BLKREFS
331
F4
102
}
  0
BLOCK_RECORD
  5
14C
330
1
100
AcDbSymbolTableRecord
100
AcDbBlockTableRecord
  2
*U23
340
0
102
{BLKREFS
331
14B
102
}
  0
BLOCK_RECORD
  5
14A
330
1
100
AcDbSymbolTableRecord
100
AcDbBlockTableRecord
  2
*U24
340
0
102
{BLKREFS
331
149
102
}
  0
BLOCK_RECORD
  5
161
330
1
100
AcDbSymbolTableRecord
100
AcDbBlockTableRecord
  2
*U25
340
0
102
{BLKREFS
331
160
102
}
  0
BLOCK_RECORD
  5
15F
330
1
100
AcDbSymbolTableRecord
100
AcDbBlockTableRecord
  2
*U26
340
0
102
{BLKREFS
331
15E
102
}
  0
BLOCK_RECORD
  5
46C
330
1
100
AcDbSymbolTableRecord
100
AcDbBlockTableRecord
  2
*U27
340
0
102
{BLKREFS
331
46B
102
}
  0
BLOCK_RECORD
  5
46A
330
1
100
AcDbSymbolTableRecord
100
AcDbBlockTableRecord
  2
*U28
340
0
102
{BLKREFS
331
469
102
}
  0
BLOCK_RECORD
  5
483
330
1
100
AcDbSymbolTableRecord
100
AcDbBlockTableRecord
  2
*U29
340
0
102
{BLKREFS
331
482
102
}
  0
BLOCK_RECORD
  5
481
330
1
100
AcDbSymbolTableRecord
100
AcDbBlockTableRecord
  2
*U30
340
0
102
{BLKREFS
331
480
102
}
  0
BLOCK_RECORD
  5
1F7
330
1
100
AcDbSymbolTableRecord
100
AcDbBlockTableRecord
  2
*U31
340
0
102
{BLKREFS
331
1F6
102
}
  0
BLOCK_RECORD
  5
1F5
330
1
100
AcDbSymbolTableRecord
100
AcDbBlockTableRecord
  2
*U32
340
0
102
{BLKREFS
331
1F4
102
}
  0
BLOCK_RECORD
  5
26B
330
1
100
AcDbSymbolTableRecord
100
AcDbBlockTableRecord
  2
*U33
340
0
102
{BLKREFS
331
26A
102
}
  0
BLOCK_RECORD
  5
269
330
1
100
AcDbSymbolTableRecord
100
AcDbBlockTableRecord
  2
*U34
340
0
102
{BLKREFS
331
268
102
}
  0
BLOCK_RECORD
  5
332
330
1
100
AcDbSymbolTableRecord
100
AcDbBlockTableRecord
  2
*U35
340
0
102
{BLKREFS
331
331
102
}
  0
BLOCK_RECORD
  5
330
330
1
100
AcDbSymbolTableRecord
100
AcDbBlockTableRecord
  2
*U36
340
0
102
{BLKREFS
331
32F
102
}
  0
BLOCK_RECORD
  5
229
330
1
100
AcDbSymbolTableRecord
100
AcDbBlockTableRecord
  2
*U37
340
0
102
{BLKREFS
331
228
102
}
  0
BLOCK_RECORD
  5
227
330
1
100
AcDbSymbolTableRecord
100
AcDbBlockTableRecord
  2
*U38
340
0
102
{BLKREFS
331
226
102
}
  0
BLOCK_RECORD
  5
23A
330
1
100
AcDbSymbolTableRecord
100
AcDbBlockTableRecord
  2
*U39
340
0
102
{BLKREFS
331
239
102
}
  0
BLOCK_RECORD
  5
238
330
1
100
AcDbSymbolTableRecord
100
AcDbBlockTableRecord
  2
*U40
340
0
102
{BLKREFS
331
237
102
}
  0
BLOCK_RECORD
  5
217
330
1
100
AcDbSymbolTableRecord
100
AcDbBlockTableRecord
  2
*U41
340
0
102
{BLKREFS
331
216
102
}
  0
BLOCK_RECORD
  5
215
330
1
100
AcDbSymbolTableRecord
100
AcDbBlockTableRecord
  2
*U42
340
0
102
{BLKREFS
331
214
102
}
  0
BLOCK_RECORD
  5
49D
330
1
100
AcDbSymbolTableRecord
100
AcDbBlockTableRecord
  2
*U43
340
0
102
{BLKREFS
331
49C
102
}
  0
BLOCK_RECORD
  5
49B
330
1
100
AcDbSymbolTableRecord
100
AcDbBlockTableRecord
  2
*U44
340
0
102
{BLKREFS
331
49A
102
}
  0
BLOCK_RECORD
  5
3B6
330
1
100
AcDbSymbolTableRecord
100
AcDbBlockTableRecord
  2
*U45
340
0
102
{BLKREFS
331
3B5
102
}
  0
BLOCK_RECORD
  5
3B4
330
1
100
AcDbSymbolTableRecord
100
AcDbBlockTableRecord
  2
*U46
340
0
102
{BLKREFS
331
3B3
102
}
  0
BLOCK_RECORD
  5
387
330
1
100
AcDbSymbolTableRecord
100
AcDbBlockTableRecord
  2
*U47
340
0
102
{BLKREFS
331
386
102
}
  0
BLOCK_RECORD
  5
385
330
1
100
AcDbSymbolTableRecord
100
AcDbBlockTableRecord
  2
*U48
340
0
102
{BLKREFS
331
384
102
}
  0
BLOCK_RECORD
  5
39C
330
1
100
AcDbSymbolTableRecord
100
AcDbBlockTableRecord
  2
*U49
340
0
102
{BLKREFS
331
39B
102
}
  0
BLOCK_RECORD
  5
39A
330
1
100
AcDbSymbolTableRecord
100
AcDbBlockTableRecord
  2
*U50
340
0
102
{BLKREFS
331
399
102
}
  0
BLOCK_RECORD
  5
361
330
1
100
AcDbSymbolTableRecord
100
AcDbBlockTableRecord
  2
*U51
340
0
102
{BLKREFS
331
360
102
}
  0
BLOCK_RECORD
  5
35F
330
1
100
AcDbSymbolTableRecord
100
AcDbBlockTableRecord
  2
*U52
340
0
102
{BLKREFS
331
35E
102
}
  0
BLOCK_RECORD
  5
1E0
330
1
100
AcDbSymbolTableRecord
100
AcDbBlockTableRecord
  2
*U53
340
0
102
{BLKREFS
331
1DF
102
}
  0
BLOCK_RECORD
  5
1DE
330
1
100
AcDbSymbolTableRecord
100
AcDbBlockTableRecord
  2
*U54
340
0
102
{BLKREFS
331
1DD
102
}
  0
BLOCK_RECORD
  5
1A0
330
1
100
AcDbSymbolTableRecord
100
AcDbBlockTableRecord
  2
*U55
340
0
102
{BLKREFS
331
19F
102
}
  0
BLOCK_RECORD
  5
19E
330
1
100
AcDbSymbolTableRecord
100
AcDbBlockTableRecord
  2
*U56
340
0
102
{BLKREFS
331
19D
102
}
  0
BLOCK_RECORD
  5
18B
330
1
100
AcDbSymbolTableRecord
100
AcDbBlockTableRecord
  2
*U57
340
0
102
{BLKREFS
331
18A
102
}
  0
BLOCK_RECORD
  5
189
330
1
100
AcDbSymbolTableRecord
100
AcDbBlockTableRecord
  2
*U58
340
0
102
{BLKREFS
331
188
102
}
  0
BLOCK_RECORD
  5
121
330
1
100
AcDbSymbolTableRecord
100
AcDbBlockTableRecord
  2
*U59
340
0
102
{BLKREFS
331
120
102
}
  0
BLOCK_RECORD
  5
11F
330
1
100
AcDbSymbolTableRecord
100
AcDbBlockTableRecord
  2
*U60
340
0
102
{BLKREFS
331
11E
102
}
  0
BLOCK_RECORD
  5
5F0
330
1
100
AcDbSymbolTableRecord
100
AcDbBlockTableRecord
  2
GENAXEH
340
0
  0
ENDTAB
  0
ENDSEC
  0
SECTION
  2
BLOCKS
  0
BLOCK
  5
3
330
2
100
AcDbEntity
  8
0
100
AcDbBlockBegin
  2
*MODEL_SPACE
 70
     0
 10
0.0
 20
0.0
 30
0.0
  3
*MODEL_SPACE
  1

  0
ENDBLK
  5
7
330
2
100
AcDbEntity
  8
0
100
AcDbBlockEnd
  0
BLOCK
  5
9
330
8
100
AcDbEntity
 67
     1
  8
0
100
AcDbBlockBegin
  2
*PAPER_SPACE
 70
     0
 10
0.0
 20
0.0
 30
0.0
  3
*PAPER_SPACE
  1

  0
ENDBLK
  5
A
330
8
100
AcDbEntity
 67
     1
  8
0
100
AcDbBlockEnd
  0
BLOCK
  5
2D7
330
2B2
100
AcDbEntity
  8
0
100
AcDbBlockBegin
  2
GENINF13
 70
     2
 10
0.0
 20
0.0
 30
0.0
  3
GENINF13
  1
GENINF13
  0
CIRCLE
  5
2B3
330
2B2
100
AcDbEntity
  8
INFO
100
AcDbCircle
 10
-0.1079460011883957
 20
1.312243585777231
 30
0.0
 40
0.3390668951753026
  0
CIRCLE
  5
2B4
330
2B2
100
AcDbEntity
  8
INFO
100
AcDbCircle
 10
0.0
 20
0.0
 30
0.0
 40
1.920194409963144
  0
LINE
  5
2B5
330
2B2
100
AcDbEntity
  8
INFO
100
AcDbLine
 10
0.4113437479737743
 20
0.7068303850037036
 30
0.0
 11
-0.7000060094186789
 21
0.7068303850037035
 31
0.0
  0
LINE
  5
2B6
330
2B2
100
AcDbEntity
  8
INFO
100
AcDbLine
 10
0.8299040409314978
 20
-1.341535205482386
 30
0.0
 11
0.8299040409314978
 21
-0.5553667224477728
 31
0.0
  0
LINE
  5
2B7
330
2B2
100
AcDbEntity
  8
INFO
100
AcDbLine
 10
0.8299040409314978
 20
-0.5553667224477728
 30
0.0
 11
0.4113437479737743
 21
-0.5553667224477728
 31
0.0
  0
LINE
  5
2B8
330
2B2
100
AcDbEntity
  8
INFO
100
AcDbLine
 10
0.4113437479737743
 20
-0.5553667224477728
 30
0.0
 11
0.4113437479737743
 21
0.7068303850037036
 31
0.0
  0
LINE
  5
2B9
330
2B2
100
AcDbEntity
  8
INFO
100
AcDbLine
 10
-0.7000060094186789
 20
0.7068303850037035
 30
0.0
 11
-0.7000060094186788
 21
0.1226134319150372
 31
0.0
  0
LINE
  5
2BA
330
2B2
100
AcDbEntity
  8
INFO
100
AcDbLine
 10
-0.7000060094186788
 20
0.1226134319150372
 30
0.0
 11
-0.3752609491200999
 21
0.1226134319150372
 31
0.0
  0
LINE
  5
2BB
330
2B2
100
AcDbEntity
  8
INFO
100
AcDbLine
 10
-0.3752609491200999
 20
0.1226134319150372
 30
0.0
 11
-0.3752609491200999
 21
-0.5553667224477728
 31
0.0
  0
LINE
  5
2BC
330
2B2
100
AcDbEntity
  8
INFO
100
AcDbLine
 10
-0.3752609491200999
 20
-0.5553667224477728
 30
0.0
 11
-0.8010378055452676
 21
-0.5553667224477728
 31
0.0
  0
LINE
  5
2BD
330
2B2
100
AcDbEntity
  8
INFO
100
AcDbLine
 10
-0.8010378055452676
 20
-0.5553667224477728
 30
0.0
 11
-0.8010378055452676
 21
-1.341535205482386
 31
0.0
  0
LINE
  5
2BE
330
2B2
100
AcDbEntity
  8
INFO
100
AcDbLine
 10
-0.8010378055452676
 20
-1.341535205482386
 30
0.0
 11
0.8299040409314978
 21
-1.341535205482386
 31
0.0
  0
ATTDEF
  5
2BF
330
2B2
100
AcDbEntity
  8
INFO
100
AcDbText
 10
0.0
 20
0.0
 30
0.0
 40
1.0
  1
1
100
AcDbAttributeDefinition
  3
Menge
  2
2GENINF
 70
     1
  0
ATTDEF
  5
2C0
330
2B2
100
AcDbEntity
  8
INFO
100
AcDbText
 10
0.0
 20
-1.5
 30
0.0
 40
1.0
  1

100
AcDbAttributeDefinition
  3
Stücklisten-Name
  2
3GENINF
 70
     1
  0
ATTDEF
  5
2C1
330
2B2
100
AcDbEntity
  8
INFO
100
AcDbText
 10
0.0
 20
-3.0
 30
0.0
 40
1.0
  1

100
AcDbAttributeDefinition
  3
Stücklisten-Pfad
  2
4GENINF
 70
     1
  0
ATTDEF
  5
2C2
330
2B2
100
AcDbEntity
  8
INFO
100
AcDbText
 10
0.0
 20
-4.5
 30
0.0
 40
1.0
  1

100
AcDbAttributeDefinition
  3
Beschreibung 1
  2
5GENINF
 70
     1
  0
ATTDEF
  5
2C3
330
2B2
100
AcDbEntity
  8
INFO
100
AcDbText
 10
0.0
 20
-6.0
 30
0.0
 40
1.0
  1

100
AcDbAttributeDefinition
  3
Beschreibung 2
  2
6GENINF
 70
     1
  0
ATTDEF
  5
2C4
330
2B2
100
AcDbEntity
  8
INFO
100
AcDbText
 10
0.0
 20
-7.5
 30
0.0
 40
1.0
  1

100
AcDbAttributeDefinition
  3
Norm/Lieferant 1
  2
7GENINF
 70
     1
  0
ATTDEF
  5
2C5
330
2B2
100
AcDbEntity
  8
INFO
100
AcDbText
 10
0.0
 20
-9.0
 30
0.0
 40
1.0
  1

100
AcDbAttributeDefinition
  3
Norm/Lieferant 2
  2
8GENINF
 70
     1
  0
ATTDEF
  5
2C6
330
2B2
100
AcDbEntity
  8
INFO
100
AcDbText
 10
0.0
 20
-10.5
 30
0.0
 40
1.0
  1

100
AcDbAttributeDefinition
  3
Material 1
  2
9GENINF
 70
     1
  0
ATTDEF
  5
2C7
330
2B2
100
AcDbEntity
  8
INFO
100
AcDbText
 10
0.0
 20
-12.0
 30
0.0
 40
1.0
  1

100
AcDbAttributeDefinition
  3
Material 2
  2
10GENINF
 70
     1
  0
ATTDEF
  5
2C8
330
2B2
100
AcDbEntity
  8
INFO
100
AcDbText
 10
0.0
 20
-13.5
 30
0.0
 40
1.0
  1

100
AcDbAttributeDefinition
  3
Identnummer
  2
11GENINF
 70
     1
  0
ATTDEF
  5
2C9
330
2B2
100
AcDbEntity
  8
INFO
100
AcDbText
 10
0.0
 20
-15.0
 30
0.0
 40
1.0
  1

100
AcDbAttributeDefinition
  3
Gewicht
  2
12GENINF
 70
     1
  0
ATTDEF
  5
2CA
330
2B2
100
AcDbEntity
  8
INFO
100
AcDbText
 10
0.0
 20
-16.5
 30
0.0
 40
1.0
  1

100
AcDbAttributeDefinition
  3
Preis
  2
13GENINF
 70
     1
  0
ATTDEF
  5
2CB
330
2B2
100
AcDbEntity
  8
INFO
100
AcDbText
 10
0.0
 20
-18.0
 30
0.0
 40
1.0
  1

100
AcDbAttributeDefinition
  3
Abmessungen
  2
14GENINF
 70
     1
  0
ATTDEF
  5
2CC
330
2B2
100
AcDbEntity
  8
INFO
100
AcDbText
 10
0.0
 20
-19.5
 30
0.0
 40
1.0
  1

100
AcDbAttributeDefinition
  3
User 1
  2
15GENINF
 70
     1
  0
ATTDEF
  5
2CD
330
2B2
100
AcDbEntity
  8
INFO
100
AcDbText
 10
0.0
 20
-21.0
 30
0.0
 40
1.0
  1

100
AcDbAttributeDefinition
  3
User 2
  2
16GENINF
 70
     1
  0
ATTDEF
  5
2CE
330
2B2
100
AcDbEntity
  8
INFO
100
AcDbText
 10
0.0
 20
-22.5
 30
0.0
 40
1.0
  1

100
AcDbAttributeDefinition
  3
User 3
  2
17GENINF
 70
     1
  0
ATTDEF
  5
2CF
330
2B2
100
AcDbEntity
  8
INFO
100
AcDbText
 10
0.0
 20
-24.0
 30
0.0
 40
1.0
  1

100
AcDbAttributeDefinition
  3
User 4
  2
18GENINF
 70
     1
  0
ATTDEF
  5
2D0
330
2B2
100
AcDbEntity
  8
INFO
100
AcDbText
 10
0.0
 20
-25.5
 30
0.0
 40
1.0
  1

100
AcDbAttributeDefinition
  3
User 5
  2
19GENINF
 70
     1
  0
ATTDEF
  5
2D1
330
2B2
100
AcDbEntity
  8
INFO
100
AcDbText
 10
0.0
 20
-27.0
 30
0.0
 40
1.0
  1

100
AcDbAttributeDefinition
  3
User 6
  2
20GENINF
 70
     1
  0
ATTDEF
  5
2D2
330
2B2
100
AcDbEntity
  8
INFO
100
AcDbText
 10
0.0
 20
-28.5
 30
0.0
 40
1.0
  1

100
AcDbAttributeDefinition
  3
User 7
  2
21GENINF
 70
     1
  0
ATTDEF
  5
2D3
330
2B2
100
AcDbEntity
  8
INFO
100
AcDbText
 10
0.0
 20
-30.0
 30
0.0
 40
1.0
  1

100
AcDbAttributeDefinition
  3
User 8
  2
22GENINF
 70
     1
  0
ATTDEF
  5
2D4
330
2B2
100
AcDbEntity
  8
INFO
100
AcDbText
 10
0.0
 20
-31.5
 30
0.0
 40
1.0
  1

100
AcDbAttributeDefinition
  3
Filter
  2
23GENINF
 70
     1
  0
ATTDEF
  5
2D5
330
2B2
100
AcDbEntity
  8
INFO
100
AcDbText
 10
0.0
 20
-33.0
 30
0.0
 40
1.0
  1

100
AcDbAttributeDefinition
  3
Bemerkung
  2
24GENINF
 70
     1
  0
ATTDEF
  5
2D6
330
2B2
100
AcDbEntity
  8
INFO
100
AcDbText
 10
0.0
 20
-34.5
 30
0.0
 40
1.0
  1

100
AcDbAttributeDefinition
  3
Genius Normteile ID
  2
0GENINF
 70
     1
  0
ENDBLK
  5
2D8
330
2B2
100
AcDbEntity
  8
0
100
AcDbBlockEnd
  0
BLOCK
  5
40B
330
402
100
AcDbEntity
  8
0
100
AcDbBlockBegin
  2
*X1
 70
     1
 10
0.0
 20
0.0
 30
0.0
  3
*X1
  1
GEVFRAME
  0
LINE
  5
403
330
402
100
AcDbEntity
  8
0
  6
Continuous
 62
     0
100
AcDbLine
 10
379.5283080000008
 20
368.9217062822026
 30
0.0
 11
389.5283080000008
 21
378.9217062822026
 31
0.0
  0
LINE
  5
404
330
402
100
AcDbEntity
  8
0
  6
Continuous
 62
     0
100
AcDbLine
 10
379.5283080000008
 20
372.4572401881354
 30
0.0
 11
389.2179758118544
 21
382.1469079999888
 31
0.0
  0
LINE
  5
405
330
402
100
AcDbEntity
  8
0
  6
Continuous
 62
     0
100
AcDbLine
 10
379.5283080000008
 20
375.9927740940681
 30
0.0
 11
387.7824419059218
 21
384.2469079999891
 31
0.0
  0
LINE
  5
406
330
402
100
AcDbEntity
  8
0
  6
Continuous
 62
     0
100
AcDbLine
 10
379.5283080000008
 20
379.5283080000008
 30
0.0
 11
384.2469079999891
 21
384.2469079999891
 31
0.0
  0
LINE
  5
407
330
402
100
AcDbEntity
  8
0
  6
Continuous
 62
     0
100
AcDbLine
 10
379.5283080000008
 20
383.0638419059336
 30
0.0
 11
380.7113740940564
 21
384.2469079999891
 31
0.0
  0
LINE
  5
408
330
402
100
AcDbEntity
  8
0
  6
Continuous
 62
     0
100
AcDbLine
 10
379.5283080000008
 20
365.3861723762699
 30
0.0
 11
389.5283080000008
 21
375.38617237627
 31
0.0
  0
LINE
  5
409
330
402
100
AcDbEntity
  8
0
  6
Continuous
 62
     0
100
AcDbLine
 10
380.9245775296528
 20
363.2469079999891
 30
0.0
 11
389.5283080000008
 21
371.8506384703372
 31
0.0
  0
LINE
  5
40A
330
402
100
AcDbEntity
  8
0
  6
Continuous
 62
     0
100
AcDbLine
 10
384.4601114355855
 20
363.2469079999891
 30
0.0
 11
387.778308
 21
366.5651045644034
 31
0.0
  0
ENDBLK
  5
40C
330
402
100
AcDbEntity
  8
0
100
AcDbBlockEnd
  0
BLOCK
  5
42A
330
423
100
AcDbEntity
  8
0
100
AcDbBlockBegin
  2
*X2
 70
     1
 10
0.0
 20
0.0
 30
0.0
  3
*X2
  1
*U
  0
LINE
  5
424
330
423
100
AcDbEntity
  8
0
 62
     0
100
AcDbLine
 10
396.5283080000009
 20
414.2059775296645
 30
0.0
 11
399.7563483765551
 21
417.4340179062188
 31
0.0
  0
LINE
  5
425
330
423
100
AcDbEntity
  8
0
 62
     0
100
AcDbLine
 10
396.5283080000009
 20
417.7415114355972
 30
0.0
 11
401.097931262483
 21
422.3111346980795
 31
0.0
  0
LINE
  5
426
330
423
100
AcDbEntity
  8
0
 62
     0
100
AcDbLine
 10
396.5283080000009
 20
421.27704534153
 30
0.0
 11
401.9158342164069
 21
426.6645715579361
 31
0.0
  0
LINE
  5
427
330
423
100
AcDbEntity
  8
0
 62
     0
100
AcDbLine
 10
396.5283080000009
 20
424.8125792474628
 30
0.0
 11
401.4027404715681
 21
429.6870117190301
 31
0.0
  0
LINE
  5
428
330
423
100
AcDbEntity
  8
0
 62
     0
100
AcDbLine
 10
398.2783080000018
 20
412.4204436237326
 30
0.0
 11
400.1313909507119
 21
414.2735265744428
 31
0.0
  0
LINE
  5
429
330
423
100
AcDbEntity
  8
0
 62
     0
100
AcDbLine
 10
398.2783080000018
 20
408.8849097177999
 30
0.0
 11
401.0041985729936
 21
411.6108002907918
 31
0.0
  0
ENDBLK
  5
42B
330
423
100
AcDbEntity
  8
0
100
AcDbBlockEnd
  0
BLOCK
  5
17E
330
179
100
AcDbEntity
  8
0
100
AcDbBlockBegin
  2
*U3
 70
     1
 10
0.0
 20
0.0
 30
0.0
  3
*U3
  1
*U
  0
LINE
  5
17A
330
179
100
AcDbEntity
  8
CENN
100
AcDbLine
 10
0.0
 20
-7.0
 30
0.0
 11
0.0
 21
7.0
 31
0.0
  0
CIRCLE
  5
17B
330
179
100
AcDbEntity
  8
BHMM
100
AcDbCircle
 10
0.0
 20
0.0
 30
0.0
 40
3.3235
  0
ARC
  5
17C
330
179
100
AcDbEntity
  8
THLI
100
AcDbCircle
 10
0.0
 20
0.0
 30
0.0
 40
4.0
100
AcDbArc
 50
280.0
 51
210.0
  0
LINE
  5
17D
330
179
100
AcDbEntity
  8
CENN
100
AcDbLine
 10
-7.0
 20
0.0
 30
0.0
 11
7.0
 21
0.0
 31
0.0
  0
ENDBLK
  5
17F
330
179
100
AcDbEntity
  8
0
100
AcDbBlockEnd
  0
BLOCK
  5
184
330
177
100
AcDbEntity
  8
0
100
AcDbBlockBegin
  2
*U4
 70
     1
 10
0.0
 20
0.0
 30
0.0
  3
*U4
  1
*U
  0
INSERT
  5
178
330
177
100
AcDbEntity
  8
GEV_FROZEN
100
AcDbBlockReference
  2
*U3
 10
0.0
 20
0.0
 30
0.0
 41
0.1
 42
0.1
 43
0.1
1001
GENBH
1002
{
1000
-NOBRK
1002
}
  0
LINE
  5
180
330
177
100
AcDbEntity
  8
MSR_I4_4-7A
100
AcDbLine
 10
0.0
 20
-7.0
 30
0.0
 11
0.0
 21
7.0
 31
0.0
  0
CIRCLE
  5
181
330
177
100
AcDbEntity
  8
MSR_I4_4-2
100
AcDbCircle
 10
0.0
 20
0.0
 30
0.0
 40
3.3235
  0
ARC
  5
182
330
177
100
AcDbEntity
  8
MSR_I4_4-4
100
AcDbCircle
 10
0.0
 20
0.0
 30
0.0
 40
4.0
100
AcDbArc
 50
280.0
 51
210.0
  0
LINE
  5
183
330
177
100
AcDbEntity
  8
MSR_I4_4-7A
100
AcDbLine
 10
-7.0
 20
0.0
 30
0.0
 11
7.0
 21
0.0
 31
0.0
  0
ENDBLK
  5
185
330
177
100
AcDbEntity
  8
0
100
AcDbBlockEnd
  0
BLOCK
  5
13F
330
13A
100
AcDbEntity
  8
0
100
AcDbBlockBegin
  2
*U5
 70
     1
 10
0.0
 20
0.0
 30
0.0
  3
*U5
  1
*U
  0
LINE
  5
13B
330
13A
100
AcDbEntity
  8
CENN
100
AcDbLine
 10
0.0
 20
-7.0
 30
0.0
 11
0.0
 21
7.0
 31
0.0
  0
CIRCLE
  5
13C
330
13A
100
AcDbEntity
  8
BHMM
100
AcDbCircle
 10
0.0
 20
0.0
 30
0.0
 40
3.3235
  0
ARC
  5
13D
330
13A
100
AcDbEntity
  8
THLI
100
AcDbCircle
 10
0.0
 20
0.0
 30
0.0
 40
4.0
100
AcDbArc
 50
280.0
 51
210.0
  0
LINE
  5
13E
330
13A
100
AcDbEntity
  8
CENN
100
AcDbLine
 10
-7.0
 20
0.0
 30
0.0
 11
7.0
 21
0.0
 31
0.0
  0
ENDBLK
  5
140
330
13A
100
AcDbEntity
  8
0
100
AcDbBlockEnd
  0
BLOCK
  5
145
330
138
100
AcDbEntity
  8
0
100
AcDbBlockBegin
  2
*U6
 70
     1
 10
0.0
 20
0.0
 30
0.0
  3
*U6
  1
*U
  0
INSERT
  5
139
330
138
100
AcDbEntity
  8
GEV_FROZEN
100
AcDbBlockReference
  2
*U5
 10
0.0
 20
0.0
 30
0.0
 41
0.1
 42
0.1
 43
0.1
1001
GENBH
1002
{
1000
-NOBRK
1002
}
  0
LINE
  5
141
330
138
100
AcDbEntity
  8
MSR_I4_4-7A
100
AcDbLine
 10
0.0
 20
-7.0
 30
0.0
 11
0.0
 21
7.0
 31
0.0
  0
CIRCLE
  5
142
330
138
100
AcDbEntity
  8
MSR_I4_4-2
100
AcDbCircle
 10
0.0
 20
0.0
 30
0.0
 40
3.3235
  0
ARC
  5
143
330
138
100
AcDbEntity
  8
MSR_I4_4-4
100
AcDbCircle
 10
0.0
 20
0.0
 30
0.0
 40
4.0
100
AcDbArc
 50
280.0
 51
210.0
  0
LINE
  5
144
330
138
100
AcDbEntity
  8
MSR_I4_4-7A
100
AcDbLine
 10
-7.0
 20
0.0
 30
0.0
 11
7.0
 21
0.0
 31
0.0
  0
ENDBLK
  5
146
330
138
100
AcDbEntity
  8
0
100
AcDbBlockEnd
  0
BLOCK
  5
1BC
330
1B7
100
AcDbEntity
  8
0
100
AcDbBlockBegin
  2
*U7
 70
     1
 10
0.0
 20
0.0
 30
0.0
  3
*U7
  1
*U
  0
LINE
  5
1B8
330
1B7
100
AcDbEntity
  8
CENN
100
AcDbLine
 10
0.0
 20
-7.0
 30
0.0
 11
0.0
 21
7.0
 31
0.0
  0
CIRCLE
  5
1B9
330
1B7
100
AcDbEntity
  8
BHMM
100
AcDbCircle
 10
0.0
 20
0.0
 30
0.0
 40
3.3235
  0
ARC
  5
1BA
330
1B7
100
AcDbEntity
  8
THLI
100
AcDbCircle
 10
0.0
 20
0.0
 30
0.0
 40
4.0
100
AcDbArc
 50
280.0
 51
210.0
  0
LINE
  5
1BB
330
1B7
100
AcDbEntity
  8
CENN
100
AcDbLine
 10
-7.0
 20
0.0
 30
0.0
 11
7.0
 21
0.0
 31
0.0
  0
ENDBLK
  5
1BD
330
1B7
100
AcDbEntity
  8
0
100
AcDbBlockEnd
  0
BLOCK
  5
1C2
330
1B5
100
AcDbEntity
  8
0
100
AcDbBlockBegin
  2
*U8
 70
     1
 10
0.0
 20
0.0
 30
0.0
  3
*U8
  1
*U
  0
INSERT
  5
1B6
330
1B5
100
AcDbEntity
  8
GEV_FROZEN
100
AcDbBlockReference
  2
*U7
 10
0.0
 20
0.0
 30
0.0
 41
0.1
 42
0.1
 43
0.1
1001
GENBH
1002
{
1000
-NOBRK
1002
}
  0
LINE
  5
1BE
330
1B5
100
AcDbEntity
  8
MSR_I4_4-7A
100
AcDbLine
 10
0.0
 20
-7.0
 30
0.0
 11
0.0
 21
7.0
 31
0.0
  0
CIRCLE
  5
1BF
330
1B5
100
AcDbEntity
  8
MSR_I4_4-2
100
AcDbCircle
 10
0.0
 20
0.0
 30
0.0
 40
3.3235
  0
ARC
  5
1C0
330
1B5
100
AcDbEntity
  8
MSR_I4_4-4
100
AcDbCircle
 10
0.0
 20
0.0
 30
0.0
 40
4.0
100
AcDbArc
 50
280.0
 51
210.0
  0
LINE
  5
1C1
330
1B5
100
AcDbEntity
  8
MSR_I4_4-7A
100
AcDbLine
 10
-7.0
 20
0.0
 30
0.0
 11
7.0
 21
0.0
 31
0.0
  0
ENDBLK
  5
1C3
330
1B5
100
AcDbEntity
  8
0
100
AcDbBlockEnd
  0
BLOCK
  5
1D1
330
1CC
100
AcDbEntity
  8
0
100
AcDbBlockBegin
  2
*U9
 70
     1
 10
0.0
 20
0.0
 30
0.0
  3
*U9
  1
*U
  0
LINE
  5
1CD
330
1CC
100
AcDbEntity
  8
CENN
100
AcDbLine
 10
0.0
 20
-7.0
 30
0.0
 11
0.0
 21
7.0
 31
0.0
  0
CIRCLE
  5
1CE
330
1CC
100
AcDbEntity
  8
BHMM
100
AcDbCircle
 10
0.0
 20
0.0
 30
0.0
 40
3.3235
  0
ARC
  5
1CF
330
1CC
100
AcDbEntity
  8
THLI
100
AcDbCircle
 10
0.0
 20
0.0
 30
0.0
 40
4.0
100
AcDbArc
 50
280.0
 51
210.0
  0
LINE
  5
1D0
330
1CC
100
AcDbEntity
  8
CENN
100
AcDbLine
 10
-7.0
 20
0.0
 30
0.0
 11
7.0
 21
0.0
 31
0.0
  0
ENDBLK
  5
1D2
330
1CC
100
AcDbEntity
  8
0
100
AcDbBlockEnd
  0
BLOCK
  5
1D7
330
1CA
100
AcDbEntity
  8
0
100
AcDbBlockBegin
  2
*U10
 70
     1
 10
0.0
 20
0.0
 30
0.0
  3
*U10
  1
*U
  0
INSERT
  5
1CB
330
1CA
100
AcDbEntity
  8
GEV_FROZEN
100
AcDbBlockReference
  2
*U9
 10
0.0
 20
0.0
 30
0.0
 41
0.1
 42
0.1
 43
0.1
1001
GENBH
1002
{
1000
-NOBRK
1002
}
  0
LINE
  5
1D3
330
1CA
100
AcDbEntity
  8
MSR_I4_4-7A
100
AcDbLine
 10
0.0
 20
-7.0
 30
0.0
 11
0.0
 21
7.0
 31
0.0
  0
CIRCLE
  5
1D4
330
1CA
100
AcDbEntity
  8
MSR_I4_4-2
100
AcDbCircle
 10
0.0
 20
0.0
 30
0.0
 40
3.3235
  0
ARC
  5
1D5
330
1CA
100
AcDbEntity
  8
MSR_I4_4-4
100
AcDbCircle
 10
0.0
 20
0.0
 30
0.0
 40
4.0
100
AcDbArc
 50
280.0
 51
210.0
  0
LINE
  5
1D6
330
1CA
100
AcDbEntity
  8
MSR_I4_4-7A
100
AcDbLine
 10
-7.0
 20
0.0
 30
0.0
 11
7.0
 21
0.0
 31
0.0
  0
ENDBLK
  5
1D8
330
1CA
100
AcDbEntity
  8
0
100
AcDbBlockEnd
  0
BLOCK
  5
254
330
24F
100
AcDbEntity
  8
0
100
AcDbBlockBegin
  2
*U11
 70
     1
 10
0.0
 20
0.0
 30
0.0
  3
*U11
  1
*U
  0
LINE
  5
250
330
24F
100
AcDbEntity
  8
CENN
100
AcDbLine
 10
0.0
 20
-7.5
 30
0.0
 11
0.0
 21
7.5
 31
0.0
  0
CIRCLE
  5
251
330
24F
100
AcDbEntity
  8
BHMM
100
AcDbCircle
 10
0.0
 20
0.0
 30
0.0
 40
4.094
  0
ARC
  5
252
330
24F
100
AcDbEntity
  8
THLI
100
AcDbCircle
 10
0.0
 20
0.0
 30
0.0
 40
4.5
100
AcDbArc
 50
280.0
 51
210.0
  0
LINE
  5
253
330
24F
100
AcDbEntity
  8
CENN
100
AcDbLine
 10
-7.5
 20
0.0
 30
0.0
 11
7.5
 21
0.0
 31
0.0
  0
ENDBLK
  5
255
330
24F
100
AcDbEntity
  8
0
100
AcDbBlockEnd
  0
BLOCK
  5
25A
330
24D
100
AcDbEntity
  8
0
100
AcDbBlockBegin
  2
*U12
 70
     1
 10
0.0
 20
0.0
 30
0.0
  3
*U12
  1
*U
  0
INSERT
  5
24E
330
24D
100
AcDbEntity
  8
GEV_FROZEN
100
AcDbBlockReference
  2
*U11
 10
0.0
 20
0.0
 30
0.0
 41
0.1
 42
0.1
 43
0.1
1001
GENBH
1002
{
1000
-NOBRK
1002
}
  0
LINE
  5
256
330
24D
100
AcDbEntity
  8
MSR_I4_4-7A
100
AcDbLine
 10
0.0
 20
-7.5
 30
0.0
 11
0.0
 21
7.5
 31
0.0
  0
CIRCLE
  5
257
330
24D
100
AcDbEntity
  8
MSR_I4_4-2
100
AcDbCircle
 10
0.0
 20
0.0
 30
0.0
 40
4.094
  0
ARC
  5
258
330
24D
100
AcDbEntity
  8
MSR_I4_4-4
100
AcDbCircle
 10
0.0
 20
0.0
 30
0.0
 40
4.5
100
AcDbArc
 50
280.0
 51
210.0
  0
LINE
  5
259
330
24D
100
AcDbEntity
  8
MSR_I4_4-7A
100
AcDbLine
 10
-7.5
 20
0.0
 30
0.0
 11
7.5
 21
0.0
 31
0.0
  0
ENDBLK
  5
25B
330
24D
100
AcDbEntity
  8
0
100
AcDbBlockEnd
  0
BLOCK
  5
2E9
330
2E4
100
AcDbEntity
  8
0
100
AcDbBlockBegin
  2
*U13
 70
     1
 10
0.0
 20
0.0
 30
0.0
  3
*U13
  1
*U
  0
LINE
  5
2E5
330
2E4
100
AcDbEntity
  8
CENN
100
AcDbLine
 10
0.0
 20
-7.5
 30
0.0
 11
0.0
 21
7.5
 31
0.0
  0
CIRCLE
  5
2E6
330
2E4
100
AcDbEntity
  8
BHMM
100
AcDbCircle
 10
0.0
 20
0.0
 30
0.0
 40
4.094
  0
ARC
  5
2E7
330
2E4
100
AcDbEntity
  8
THLI
100
AcDbCircle
 10
0.0
 20
0.0
 30
0.0
 40
4.5
100
AcDbArc
 50
280.0
 51
210.0
  0
LINE
  5
2E8
330
2E4
100
AcDbEntity
  8
CENN
100
AcDbLine
 10
-7.5
 20
0.0
 30
0.0
 11
7.5
 21
0.0
 31
0.0
  0
ENDBLK
  5
2EA
330
2E4
100
AcDbEntity
  8
0
100
AcDbBlockEnd
  0
BLOCK
  5
2EF
330
2E2
100
AcDbEntity
  8
0
100
AcDbBlockBegin
  2
*U14
 70
     1
 10
0.0
 20
0.0
 30
0.0
  3
*U14
  1
*U
  0
INSERT
  5
2E3
330
2E2
100
AcDbEntity
  8
GEV_FROZEN
100
AcDbBlockReference
  2
*U13
 10
0.0
 20
0.0
 30
0.0
 41
0.1
 42
0.1
 43
0.1
1001
GENBH
1002
{
1000
-NOBRK
1002
}
  0
LINE
  5
2EB
330
2E2
100
AcDbEntity
  8
MSR_I4_4-7A
100
AcDbLine
 10
0.0
 20
-7.5
 30
0.0
 11
0.0
 21
7.5
 31
0.0
  0
CIRCLE
  5
2EC
330
2E2
100
AcDbEntity
  8
MSR_I4_4-2
100
AcDbCircle
 10
0.0
 20
0.0
 30
0.0
 40
4.094
  0
ARC
  5
2ED
330
2E2
100
AcDbEntity
  8
MSR_I4_4-4
100
AcDbCircle
 10
0.0
 20
0.0
 30
0.0
 40
4.5
100
AcDbArc
 50
280.0
 51
210.0
  0
LINE
  5
2EE
330
2E2
100
AcDbEntity
  8
MSR_I4_4-7A
100
AcDbLine
 10
-7.5
 20
0.0
 30
0.0
 11
7.5
 21
0.0
 31
0.0
  0
ENDBLK
  5
2F0
330
2E2
100
AcDbEntity
  8
0
100
AcDbBlockEnd
  0
BLOCK
  5
30C
330
307
100
AcDbEntity
  8
0
100
AcDbBlockBegin
  2
*U15
 70
     1
 10
0.0
 20
0.0
 30
0.0
  3
*U15
  1
*U
  0
LINE
  5
308
330
307
100
AcDbEntity
  8
CENN
100
AcDbLine
 10
0.0
 20
-7.5
 30
0.0
 11
0.0
 21
7.5
 31
0.0
  0
CIRCLE
  5
309
330
307
100
AcDbEntity
  8
BHMM
100
AcDbCircle
 10
0.0
 20
0.0
 30
0.0
 40
4.094
  0
ARC
  5
30A
330
307
100
AcDbEntity
  8
THLI
100
AcDbCircle
 10
0.0
 20
0.0
 30
0.0
 40
4.5
100
AcDbArc
 50
280.0
 51
210.0
  0
LINE
  5
30B
330
307
100
AcDbEntity
  8
CENN
100
AcDbLine
 10
-7.5
 20
0.0
 30
0.0
 11
7.5
 21
0.0
 31
0.0
  0
ENDBLK
  5
30D
330
307
100
AcDbEntity
  8
0
100
AcDbBlockEnd
  0
BLOCK
  5
312
330
305
100
AcDbEntity
  8
0
100
AcDbBlockBegin
  2
*U16
 70
     1
 10
0.0
 20
0.0
 30
0.0
  3
*U16
  1
*U
  0
INSERT
  5
306
330
305
100
AcDbEntity
  8
GEV_FROZEN
100
AcDbBlockReference
  2
*U15
 10
0.0
 20
0.0
 30
0.0
 41
0.1
 42
0.1
 43
0.1
1001
GENBH
1002
{
1000
-NOBRK
1002
}
  0
LINE
  5
30E
330
305
100
AcDbEntity
  8
MSR_I4_4-7A
100
AcDbLine
 10
0.0
 20
-7.5
 30
0.0
 11
0.0
 21
7.5
 31
0.0
  0
CIRCLE
  5
30F
330
305
100
AcDbEntity
  8
MSR_I4_4-2
100
AcDbCircle
 10
0.0
 20
0.0
 30
0.0
 40
4.094
  0
ARC
  5
310
330
305
100
AcDbEntity
  8
MSR_I4_4-4
100
AcDbCircle
 10
0.0
 20
0.0
 30
0.0
 40
4.5
100
AcDbArc
 50
280.0
 51
210.0
  0
LINE
  5
311
330
305
100
AcDbEntity
  8
MSR_I4_4-7A
100
AcDbLine
 10
-7.5
 20
0.0
 30
0.0
 11
7.5
 21
0.0
 31
0.0
  0
ENDBLK
  5
313
330
305
100
AcDbEntity
  8
0
100
AcDbBlockEnd
  0
BLOCK
  5
2FA
330
2F5
100
AcDbEntity
  8
0
100
AcDbBlockBegin
  2
*U17
 70
     1
 10
0.0
 20
0.0
 30
0.0
  3
*U17
  1
*U
  0
LINE
  5
2F6
330
2F5
100
AcDbEntity
  8
CENN
100
AcDbLine
 10
0.0
 20
-7.5
 30
0.0
 11
0.0
 21
7.5
 31
0.0
  0
CIRCLE
  5
2F7
330
2F5
100
AcDbEntity
  8
BHMM
100
AcDbCircle
 10
0.0
 20
0.0
 30
0.0
 40
4.094
  0
ARC
  5
2F8
330
2F5
100
AcDbEntity
  8
THLI
100
AcDbCircle
 10
0.0
 20
0.0
 30
0.0
 40
4.5
100
AcDbArc
 50
280.0
 51
210.0
  0
LINE
  5
2F9
330
2F5
100
AcDbEntity
  8
CENN
100
AcDbLine
 10
-7.5
 20
0.0
 30
0.0
 11
7.5
 21
0.0
 31
0.0
  0
ENDBLK
  5
2FB
330
2F5
100
AcDbEntity
  8
0
100
AcDbBlockEnd
  0
BLOCK
  5
300
330
2F3
100
AcDbEntity
  8
0
100
AcDbBlockBegin
  2
*U18
 70
     1
 10
0.0
 20
0.0
 30
0.0
  3
*U18
  1
*U
  0
INSERT
  5
2F4
330
2F3
100
AcDbEntity
  8
GEV_FROZEN
100
AcDbBlockReference
  2
*U17
 10
0.0
 20
0.0
 30
0.0
 41
0.1
 42
0.1
 43
0.1
1001
GENBH
1002
{
1000
-NOBRK
1002
}
  0
LINE
  5
2FC
330
2F3
100
AcDbEntity
  8
MSR_I4_4-7A
100
AcDbLine
 10
0.0
 20
-7.5
 30
0.0
 11
0.0
 21
7.5
 31
0.0
  0
CIRCLE
  5
2FD
330
2F3
100
AcDbEntity
  8
MSR_I4_4-2
100
AcDbCircle
 10
0.0
 20
0.0
 30
0.0
 40
4.094
  0
ARC
  5
2FE
330
2F3
100
AcDbEntity
  8
MSR_I4_4-4
100
AcDbCircle
 10
0.0
 20
0.0
 30
0.0
 40
4.5
100
AcDbArc
 50
280.0
 51
210.0
  0
LINE
  5
2FF
330
2F3
100
AcDbEntity
  8
MSR_I4_4-7A
100
AcDbLine
 10
-7.5
 20
0.0
 30
0.0
 11
7.5
 21
0.0
 31
0.0
  0
ENDBLK
  5
301
330
2F3
100
AcDbEntity
  8
0
100
AcDbBlockEnd
  0
BLOCK
  5
E0
330
D4
100
AcDbEntity
  8
0
100
AcDbBlockBegin
  2
*U19
 70
     1
 10
0.0
 20
0.0
 30
0.0
  3
*U19
  1
*U
  0
LINE
  5
D5
330
D4
100
AcDbEntity
  8
-BHMU
100
AcDbLine
 10
5.0
 20
2.067
 30
0.0
 11
5.0
 21
-2.067
 31
0.0
  0
LINE
  5
D7
330
D4
100
AcDbEntity
  8
-BHMU
100
AcDbLine
 10
0.0
 20
2.067
 30
0.0
 11
0.0
 21
-2.067
 31
0.0
  0
LINE
  5
D8
330
D4
100
AcDbEntity
  8
BHMM
100
AcDbLine
 10
0.0
 20
-2.067
 30
0.0
 11
5.0
 21
-2.067
 31
0.0
  0
LINE
  5
DA
330
D4
100
AcDbEntity
  8
THLI
100
AcDbLine
 10
0.0
 20
-2.5
 30
0.0
 11
5.0
 21
-2.5
 31
0.0
  0
LINE
  5
DC
330
D4
100
AcDbEntity
  8
CENN
100
AcDbLine
 10
-3.0
 20
0.0
 30
0.0
 11
8.0
 21
0.0
 31
0.0
  0
LINE
  5
DE
330
D4
100
AcDbEntity
  8
BHMM
100
AcDbLine
 10
0.0
 20
2.067
 30
0.0
 11
5.0
 21
2.067
 31
0.0
  0
LINE
  5
DF
330
D4
100
AcDbEntity
  8
THLI
100
AcDbLine
 10
0.0
 20
2.5
 30
0.0
 11
5.0
 21
2.5
 31
0.0
  0
ENDBLK
  5
E1
330
D4
100
AcDbEntity
  8
0
100
AcDbBlockEnd
  0
BLOCK
  5
EC
330
D1
100
AcDbEntity
  8
0
100
AcDbBlockBegin
  2
*U20
 70
     1
 10
0.0
 20
0.0
 30
0.0
  3
*U20
  1
*U
  0
INSERT
  5
D2
330
D1
100
AcDbEntity
  8
GEV_FROZEN
100
AcDbBlockReference
  2
*U19
 10
0.0
 20
0.0
 30
0.0
 41
0.1
 42
0.1
 43
0.1
1001
GENBH
1002
{
1000
-NOBRK
1002
}
  0
LINE
  5
E3
330
D1
100
AcDbEntity
  8
MSR_I4_4-3A
100
AcDbLine
 10
0.0
 20
-2.067
 30
0.0
 11
5.0
 21
-2.067
 31
0.0
  0
LINE
  5
E6
330
D1
100
AcDbEntity
  8
MSR_I4_4-3A
100
AcDbLine
 10
0.0
 20
-2.5
 30
0.0
 11
5.0
 21
-2.5
 31
0.0
  0
LINE
  5
E7
330
D1
100
AcDbEntity
  8
MSR_I4_4-7A
100
AcDbLine
 10
-3.0
 20
0.0
 30
0.0
 11
8.0
 21
0.0
 31
0.0
  0
LINE
  5
EA
330
D1
100
AcDbEntity
  8
MSR_I4_4-3A
100
AcDbLine
 10
0.0
 20
2.067
 30
0.0
 11
5.0
 21
2.067
 31
0.0
  0
LINE
  5
EB
330
D1
100
AcDbEntity
  8
MSR_I4_4-3A
100
AcDbLine
 10
0.0
 20
2.5
 30
0.0
 11
5.0
 21
2.5
 31
0.0
  0
ENDBLK
  5
ED
330
D1
100
AcDbEntity
  8
0
100
AcDbBlockEnd
  0
BLOCK
  5
FF
330
F7
100
AcDbEntity
  8
0
100
AcDbBlockBegin
  2
*U21
 70
     1
 10
0.0
 20
0.0
 30
0.0
  3
*U21
  1
*U
  0
LINE
  5
F8
330
F7
100
AcDbEntity
  8
-BHMU
100
AcDbLine
 10
5.0
 20
2.067
 30
0.0
 11
5.0
 21
-2.067
 31
0.0
  0
LINE
  5
F9
330
F7
100
AcDbEntity
  8
-BHMU
100
AcDbLine
 10
0.0
 20
2.067
 30
0.0
 11
0.0
 21
-2.067
 31
0.0
  0
LINE
  5
FA
330
F7
100
AcDbEntity
  8
BHMM
100
AcDbLine
 10
0.0
 20
-2.067
 30
0.0
 11
5.0
 21
-2.067
 31
0.0
  0
LINE
  5
FB
330
F7
100
AcDbEntity
  8
THLI
100
AcDbLine
 10
0.0
 20
-2.5
 30
0.0
 11
5.0
 21
-2.5
 31
0.0
  0
LINE
  5
FC
330
F7
100
AcDbEntity
  8
CENN
100
AcDbLine
 10
-3.0
 20
0.0
 30
0.0
 11
8.0
 21
0.0
 31
0.0
  0
LINE
  5
FD
330
F7
100
AcDbEntity
  8
BHMM
100
AcDbLine
 10
0.0
 20
2.067
 30
0.0
 11
5.0
 21
2.067
 31
0.0
  0
LINE
  5
FE
330
F7
100
AcDbEntity
  8
THLI
100
AcDbLine
 10
0.0
 20
2.5
 30
0.0
 11
5.0
 21
2.5
 31
0.0
  0
ENDBLK
  5
100
330
F7
100
AcDbEntity
  8
0
100
AcDbBlockEnd
  0
BLOCK
  5
106
330
F5
100
AcDbEntity
  8
0
100
AcDbBlockBegin
  2
*U22
 70
     1
 10
0.0
 20
0.0
 30
0.0
  3
*U22
  1
*U
  0
INSERT
  5
F6
330
F5
100
AcDbEntity
  8
GEV_FROZEN
100
AcDbBlockReference
  2
*U21
 10
0.0
 20
0.0
 30
0.0
 41
0.1
 42
0.1
 43
0.1
1001
GENBH
1002
{
1000
-NOBRK
1002
}
  0
LINE
  5
101
330
F5
100
AcDbEntity
  8
MSR_I4_4-3A
100
AcDbLine
 10
0.0
 20
-2.067
 30
0.0
 11
5.0
 21
-2.067
 31
0.0
  0
LINE
  5
102
330
F5
100
AcDbEntity
  8
MSR_I4_4-3A
100
AcDbLine
 10
0.0
 20
-2.5
 30
0.0
 11
5.0
 21
-2.5
 31
0.0
  0
LINE
  5
103
330
F5
100
AcDbEntity
  8
MSR_I4_4-7A
100
AcDbLine
 10
-3.0
 20
0.0
 30
0.0
 11
8.0
 21
0.0
 31
0.0
  0
LINE
  5
104
330
F5
100
AcDbEntity
  8
MSR_I4_4-3A
100
AcDbLine
 10
0.0
 20
2.067
 30
0.0
 11
5.0
 21
2.067
 31
0.0
  0
LINE
  5
105
330
F5
100
AcDbEntity
  8
MSR_I4_4-3A
100
AcDbLine
 10
0.0
 20
2.5
 30
0.0
 11
5.0
 21
2.5
 31
0.0
  0
ENDBLK
  5
107
330
F5
100
AcDbEntity
  8
0
100
AcDbBlockEnd
  0
BLOCK
  5
154
330
14C
100
AcDbEntity
  8
0
100
AcDbBlockBegin
  2
*U23
 70
     1
 10
0.0
 20
0.0
 30
0.0
  3
*U23
  1
*U
  0
LINE
  5
14D
330
14C
100
AcDbEntity
  8
-BHMU
100
AcDbLine
 10
5.0
 20
2.067
 30
0.0
 11
5.0
 21
-2.067
 31
0.0
  0
LINE
  5
14E
330
14C
100
AcDbEntity
  8
-BHMU
100
AcDbLine
 10
0.0
 20
2.067
 30
0.0
 11
0.0
 21
-2.067
 31
0.0
  0
LINE
  5
14F
330
14C
100
AcDbEntity
  8
BHMM
100
AcDbLine
 10
0.0
 20
-2.067
 30
0.0
 11
5.0
 21
-2.067
 31
0.0
  0
LINE
  5
150
330
14C
100
AcDbEntity
  8
THLI
100
AcDbLine
 10
0.0
 20
-2.5
 30
0.0
 11
5.0
 21
-2.5
 31
0.0
  0
LINE
  5
151
330
14C
100
AcDbEntity
  8
CENN
100
AcDbLine
 10
-3.0
 20
0.0
 30
0.0
 11
8.0
 21
0.0
 31
0.0
  0
LINE
  5
152
330
14C
100
AcDbEntity
  8
BHMM
100
AcDbLine
 10
0.0
 20
2.067
 30
0.0
 11
5.0
 21
2.067
 31
0.0
  0
LINE
  5
153
330
14C
100
AcDbEntity
  8
THLI
100
AcDbLine
 10
0.0
 20
2.5
 30
0.0
 11
5.0
 21
2.5
 31
0.0
  0
ENDBLK
  5
155
330
14C
100
AcDbEntity
  8
0
100
AcDbBlockEnd
  0
BLOCK
  5
15B
330
14A
100
AcDbEntity
  8
0
100
AcDbBlockBegin
  2
*U24
 70
     1
 10
0.0
 20
0.0
 30
0.0
  3
*U24
  1
*U
  0
INSERT
  5
14B
330
14A
100
AcDbEntity
  8
GEV_FROZEN
100
AcDbBlockReference
  2
*U23
 10
0.0
 20
0.0
 30
0.0
 41
0.1
 42
0.1
 43
0.1
1001
GENBH
1002
{
1000
-NOBRK
1002
}
  0
LINE
  5
156
330
14A
100
AcDbEntity
  8
MSR_I4_4-3A
100
AcDbLine
 10
0.0
 20
-2.067
 30
0.0
 11
5.0
 21
-2.067
 31
0.0
  0
LINE
  5
157
330
14A
100
AcDbEntity
  8
MSR_I4_4-3A
100
AcDbLine
 10
0.0
 20
-2.5
 30
0.0
 11
5.0
 21
-2.5
 31
0.0
  0
LINE
  5
158
330
14A
100
AcDbEntity
  8
MSR_I4_4-7A
100
AcDbLine
 10
-3.0
 20
0.0
 30
0.0
 11
8.0
 21
0.0
 31
0.0
  0
LINE
  5
159
330
14A
100
AcDbEntity
  8
MSR_I4_4-3A
100
AcDbLine
 10
0.0
 20
2.067
 30
0.0
 11
5.0
 21
2.067
 31
0.0
  0
LINE
  5
15A
330
14A
100
AcDbEntity
  8
MSR_I4_4-3A
100
AcDbLine
 10
0.0
 20
2.5
 30
0.0
 11
5.0
 21
2.5
 31
0.0
  0
ENDBLK
  5
15C
330
14A
100
AcDbEntity
  8
0
100
AcDbBlockEnd
  0
BLOCK
  5
169
330
161
100
AcDbEntity
  8
0
100
AcDbBlockBegin
  2
*U25
 70
     1
 10
0.0
 20
0.0
 30
0.0
  3
*U25
  1
*U
  0
LINE
  5
162
330
161
100
AcDbEntity
  8
-BHMU
100
AcDbLine
 10
5.0
 20
2.067
 30
0.0
 11
5.0
 21
-2.067
 31
0.0
  0
LINE
  5
163
330
161
100
AcDbEntity
  8
-BHMU
100
AcDbLine
 10
0.0
 20
2.067
 30
0.0
 11
0.0
 21
-2.067
 31
0.0
  0
LINE
  5
164
330
161
100
AcDbEntity
  8
BHMM
100
AcDbLine
 10
0.0
 20
-2.067
 30
0.0
 11
5.0
 21
-2.067
 31
0.0
  0
LINE
  5
165
330
161
100
AcDbEntity
  8
THLI
100
AcDbLine
 10
0.0
 20
-2.5
 30
0.0
 11
5.0
 21
-2.5
 31
0.0
  0
LINE
  5
166
330
161
100
AcDbEntity
  8
CENN
100
AcDbLine
 10
-3.0
 20
0.0
 30
0.0
 11
8.0
 21
0.0
 31
0.0
  0
LINE
  5
167
330
161
100
AcDbEntity
  8
BHMM
100
AcDbLine
 10
0.0
 20
2.067
 30
0.0
 11
5.0
 21
2.067
 31
0.0
  0
LINE
  5
168
330
161
100
AcDbEntity
  8
THLI
100
AcDbLine
 10
0.0
 20
2.5
 30
0.0
 11
5.0
 21
2.5
 31
0.0
  0
ENDBLK
  5
16A
330
161
100
AcDbEntity
  8
0
100
AcDbBlockEnd
  0
BLOCK
  5
170
330
15F
100
AcDbEntity
  8
0
100
AcDbBlockBegin
  2
*U26
 70
     1
 10
0.0
 20
0.0
 30
0.0
  3
*U26
  1
*U
  0
INSERT
  5
160
330
15F
100
AcDbEntity
  8
GEV_FROZEN
100
AcDbBlockReference
  2
*U25
 10
0.0
 20
0.0
 30
0.0
 41
0.1
 42
0.1
 43
0.1
1001
GENBH
1002
{
1000
-NOBRK
1002
}
  0
LINE
  5
16B
330
15F
100
AcDbEntity
  8
MSR_I4_4-3A
100
AcDbLine
 10
0.0
 20
-2.067
 30
0.0
 11
5.0
 21
-2.067
 31
0.0
  0
LINE
  5
16C
330
15F
100
AcDbEntity
  8
MSR_I4_4-3A
100
AcDbLine
 10
0.0
 20
-2.5
 30
0.0
 11
5.0
 21
-2.5
 31
0.0
  0
LINE
  5
16D
330
15F
100
AcDbEntity
  8
MSR_I4_4-7A
100
AcDbLine
 10
-3.0
 20
0.0
 30
0.0
 11
8.0
 21
0.0
 31
0.0
  0
LINE
  5
16E
330
15F
100
AcDbEntity
  8
MSR_I4_4-3A
100
AcDbLine
 10
0.0
 20
2.067
 30
0.0
 11
5.0
 21
2.067
 31
0.0
  0
LINE
  5
16F
330
15F
100
AcDbEntity
  8
MSR_I4_4-3A
100
AcDbLine
 10
0.0
 20
2.5
 30
0.0
 11
5.0
 21
2.5
 31
0.0
  0
ENDBLK
  5
171
330
15F
100
AcDbEntity
  8
0
100
AcDbBlockEnd
  0
BLOCK
  5
471
330
46C
100
AcDbEntity
  8
0
100
AcDbBlockBegin
  2
*U27
 70
     1
 10
0.0
 20
0.0
 30
0.0
  3
*U27
  1
*U
  0
LINE
  5
46D
330
46C
100
AcDbEntity
  8
CENN
100
AcDbLine
 10
0.0
 20
-5.5
 30
0.0
 11
0.0
 21
5.5
 31
0.0
  0
CIRCLE
  5
46E
330
46C
100
AcDbEntity
  8
BHMM
100
AcDbCircle
 10
0.0
 20
0.0
 30
0.0
 40
2.067
  0
ARC
  5
46F
330
46C
100
AcDbEntity
  8
THLI
100
AcDbCircle
 10
0.0
 20
0.0
 30
0.0
 40
2.5
100
AcDbArc
 50
280.0
 51
210.0
  0
LINE
  5
470
330
46C
100
AcDbEntity
  8
CENN
100
AcDbLine
 10
-5.5
 20
0.0
 30
0.0
 11
5.5
 21
0.0
 31
0.0
  0
ENDBLK
  5
472
330
46C
100
AcDbEntity
  8
0
100
AcDbBlockEnd
  0
BLOCK
  5
477
330
46A
100
AcDbEntity
  8
0
100
AcDbBlockBegin
  2
*U28
 70
     1
 10
0.0
 20
0.0
 30
0.0
  3
*U28
  1
*U
  0
INSERT
  5
46B
330
46A
100
AcDbEntity
  8
GEV_FROZEN
100
AcDbBlockReference
  2
*U27
 10
0.0
 20
0.0
 30
0.0
 41
0.1
 42
0.1
 43
0.1
1001
GENBH
1002
{
1000
-NOBRK
1002
}
  0
LINE
  5
473
330
46A
100
AcDbEntity
  8
MSR_I4_4-7A
100
AcDbLine
 10
0.0
 20
-5.5
 30
0.0
 11
0.0
 21
5.5
 31
0.0
  0
CIRCLE
  5
474
330
46A
100
AcDbEntity
  8
MSR_I4_4-2
100
AcDbCircle
 10
0.0
 20
0.0
 30
0.0
 40
2.067
  0
ARC
  5
475
330
46A
100
AcDbEntity
  8
MSR_I4_4-4
100
AcDbCircle
 10
0.0
 20
0.0
 30
0.0
 40
2.5
100
AcDbArc
 50
280.0
 51
210.0
  0
LINE
  5
476
330
46A
100
AcDbEntity
  8
MSR_I4_4-7A
100
AcDbLine
 10
-5.5
 20
0.0
 30
0.0
 11
5.5
 21
0.0
 31
0.0
  0
ENDBLK
  5
478
330
46A
100
AcDbEntity
  8
0
100
AcDbBlockEnd
  0
BLOCK
  5
488
330
483
100
AcDbEntity
  8
0
100
AcDbBlockBegin
  2
*U29
 70
     1
 10
0.0
 20
0.0
 30
0.0
  3
*U29
  1
*U
  0
LINE
  5
484
330
483
100
AcDbEntity
  8
CENN
100
AcDbLine
 10
0.0
 20
-5.5
 30
0.0
 11
0.0
 21
5.5
 31
0.0
  0
CIRCLE
  5
485
330
483
100
AcDbEntity
  8
BHMM
100
AcDbCircle
 10
0.0
 20
0.0
 30
0.0
 40
2.067
  0
ARC
  5
486
330
483
100
AcDbEntity
  8
THLI
100
AcDbCircle
 10
0.0
 20
0.0
 30
0.0
 40
2.5
100
AcDbArc
 50
280.0
 51
210.0
  0
LINE
  5
487
330
483
100
AcDbEntity
  8
CENN
100
AcDbLine
 10
-5.5
 20
0.0
 30
0.0
 11
5.5
 21
0.0
 31
0.0
  0
ENDBLK
  5
489
330
483
100
AcDbEntity
  8
0
100
AcDbBlockEnd
  0
BLOCK
  5
48E
330
481
100
AcDbEntity
  8
0
100
AcDbBlockBegin
  2
*U30
 70
     1
 10
0.0
 20
0.0
 30
0.0
  3
*U30
  1
*U
  0
INSERT
  5
482
330
481
100
AcDbEntity
  8
GEV_FROZEN
100
AcDbBlockReference
  2
*U29
 10
0.0
 20
0.0
 30
0.0
 41
0.1
 42
0.1
 43
0.1
1001
GENBH
1002
{
1000
-NOBRK
1002
}
  0
LINE
  5
48A
330
481
100
AcDbEntity
  8
MSR_I4_4-7A
100
AcDbLine
 10
0.0
 20
-5.5
 30
0.0
 11
0.0
 21
5.5
 31
0.0
  0
CIRCLE
  5
48B
330
481
100
AcDbEntity
  8
MSR_I4_4-2
100
AcDbCircle
 10
0.0
 20
0.0
 30
0.0
 40
2.067
  0
ARC
  5
48C
330
481
100
AcDbEntity
  8
MSR_I4_4-4
100
AcDbCircle
 10
0.0
 20
0.0
 30
0.0
 40
2.5
100
AcDbArc
 50
280.0
 51
210.0
  0
LINE
  5
48D
330
481
100
AcDbEntity
  8
MSR_I4_4-7A
100
AcDbLine
 10
-5.5
 20
0.0
 30
0.0
 11
5.5
 21
0.0
 31
0.0
  0
ENDBLK
  5
48F
330
481
100
AcDbEntity
  8
0
100
AcDbBlockEnd
  0
BLOCK
  5
1FF
330
1F7
100
AcDbEntity
  8
0
100
AcDbBlockBegin
  2
*U31
 70
     1
 10
0.0
 20
0.0
 30
0.0
  3
*U31
  1
*U
  0
LINE
  5
1F8
330
1F7
100
AcDbEntity
  8
-BHMU
100
AcDbLine
 10
5.0
 20
2.067
 30
0.0
 11
5.0
 21
-2.067
 31
0.0
  0
LINE
  5
1F9
330
1F7
100
AcDbEntity
  8
-BHMU
100
AcDbLine
 10
0.0
 20
2.067
 30
0.0
 11
0.0
 21
-2.067
 31
0.0
  0
LINE
  5
1FA
330
1F7
100
AcDbEntity
  8
BHMM
100
AcDbLine
 10
0.0
 20
-2.067
 30
0.0
 11
5.0
 21
-2.067
 31
0.0
  0
LINE
  5
1FB
330
1F7
100
AcDbEntity
  8
THLI
100
AcDbLine
 10
0.0
 20
-2.5
 30
0.0
 11
5.0
 21
-2.5
 31
0.0
  0
LINE
  5
1FC
330
1F7
100
AcDbEntity
  8
CENN
100
AcDbLine
 10
-3.0
 20
0.0
 30
0.0
 11
8.0
 21
0.0
 31
0.0
  0
LINE
  5
1FD
330
1F7
100
AcDbEntity
  8
BHMM
100
AcDbLine
 10
0.0
 20
2.067
 30
0.0
 11
5.0
 21
2.067
 31
0.0
  0
LINE
  5
1FE
330
1F7
100
AcDbEntity
  8
THLI
100
AcDbLine
 10
0.0
 20
2.5
 30
0.0
 11
5.0
 21
2.5
 31
0.0
  0
ENDBLK
  5
200
330
1F7
100
AcDbEntity
  8
0
100
AcDbBlockEnd
  0
BLOCK
  5
206
330
1F5
100
AcDbEntity
  8
0
100
AcDbBlockBegin
  2
*U32
 70
     1
 10
0.0
 20
0.0
 30
0.0
  3
*U32
  1
*U
  0
INSERT
  5
1F6
330
1F5
100
AcDbEntity
  8
GEV_FROZEN
100
AcDbBlockReference
  2
*U31
 10
0.0
 20
0.0
 30
0.0
 41
0.1
 42
0.1
 43
0.1
1001
GENBH
1002
{
1000
-NOBRK
1002
}
  0
LINE
  5
201
330
1F5
100
AcDbEntity
  8
MSR_I4_4-3A
100
AcDbLine
 10
0.0
 20
-2.067
 30
0.0
 11
5.0
 21
-2.067
 31
0.0
  0
LINE
  5
202
330
1F5
100
AcDbEntity
  8
MSR_I4_4-3A
100
AcDbLine
 10
0.0
 20
-2.5
 30
0.0
 11
5.0
 21
-2.5
 31
0.0
  0
LINE
  5
203
330
1F5
100
AcDbEntity
  8
MSR_I4_4-7A
100
AcDbLine
 10
-3.0
 20
0.0
 30
0.0
 11
8.0
 21
0.0
 31
0.0
  0
LINE
  5
204
330
1F5
100
AcDbEntity
  8
MSR_I4_4-3A
100
AcDbLine
 10
0.0
 20
2.067
 30
0.0
 11
5.0
 21
2.067
 31
0.0
  0
LINE
  5
205
330
1F5
100
AcDbEntity
  8
MSR_I4_4-3A
100
AcDbLine
 10
0.0
 20
2.5
 30
0.0
 11
5.0
 21
2.5
 31
0.0
  0
ENDBLK
  5
207
330
1F5
100
AcDbEntity
  8
0
100
AcDbBlockEnd
  0
BLOCK
  5
273
330
26B
100
AcDbEntity
  8
0
100
AcDbBlockBegin
  2
*U33
 70
     1
 10
0.0
 20
0.0
 30
0.0
  3
*U33
  1
*U
  0
LINE
  5
26C
330
26B
100
AcDbEntity
  8
-BHMU
100
AcDbLine
 10
5.0
 20
2.067
 30
0.0
 11
5.0
 21
-2.067
 31
0.0
  0
LINE
  5
26D
330
26B
100
AcDbEntity
  8
-BHMU
100
AcDbLine
 10
0.0
 20
2.067
 30
0.0
 11
0.0
 21
-2.067
 31
0.0
  0
LINE
  5
26E
330
26B
100
AcDbEntity
  8
BHMM
100
AcDbLine
 10
0.0
 20
-2.067
 30
0.0
 11
5.0
 21
-2.067
 31
0.0
  0
LINE
  5
26F
330
26B
100
AcDbEntity
  8
THLI
100
AcDbLine
 10
0.0
 20
-2.5
 30
0.0
 11
5.0
 21
-2.5
 31
0.0
  0
LINE
  5
270
330
26B
100
AcDbEntity
  8
CENN
100
AcDbLine
 10
-3.0
 20
0.0
 30
0.0
 11
8.0
 21
0.0
 31
0.0
  0
LINE
  5
271
330
26B
100
AcDbEntity
  8
BHMM
100
AcDbLine
 10
0.0
 20
2.067
 30
0.0
 11
5.0
 21
2.067
 31
0.0
  0
LINE
  5
272
330
26B
100
AcDbEntity
  8
THLI
100
AcDbLine
 10
0.0
 20
2.5
 30
0.0
 11
5.0
 21
2.5
 31
0.0
  0
ENDBLK
  5
274
330
26B
100
AcDbEntity
  8
0
100
AcDbBlockEnd
  0
BLOCK
  5
27A
330
269
100
AcDbEntity
  8
0
100
AcDbBlockBegin
  2
*U34
 70
     1
 10
0.0
 20
0.0
 30
0.0
  3
*U34
  1
*U
  0
INSERT
  5
26A
330
269
100
AcDbEntity
  8
GEV_FROZEN
100
AcDbBlockReference
  2
*U33
 10
0.0
 20
0.0
 30
0.0
 41
0.1
 42
0.1
 43
0.1
1001
GENBH
1002
{
1000
-NOBRK
1002
}
  0
LINE
  5
275
330
269
100
AcDbEntity
  8
MSR_I4_4-3A
100
AcDbLine
 10
0.0
 20
-2.067
 30
0.0
 11
5.0
 21
-2.067
 31
0.0
  0
LINE
  5
276
330
269
100
AcDbEntity
  8
MSR_I4_4-3A
100
AcDbLine
 10
0.0
 20
-2.5
 30
0.0
 11
5.0
 21
-2.5
 31
0.0
  0
LINE
  5
277
330
269
100
AcDbEntity
  8
MSR_I4_4-7A
100
AcDbLine
 10
-3.0
 20
0.0
 30
0.0
 11
8.0
 21
0.0
 31
0.0
  0
LINE
  5
278
330
269
100
AcDbEntity
  8
MSR_I4_4-3A
100
AcDbLine
 10
0.0
 20
2.067
 30
0.0
 11
5.0
 21
2.067
 31
0.0
  0
LINE
  5
279
330
269
100
AcDbEntity
  8
MSR_I4_4-3A
100
AcDbLine
 10
0.0
 20
2.5
 30
0.0
 11
5.0
 21
2.5
 31
0.0
  0
ENDBLK
  5
27B
330
269
100
AcDbEntity
  8
0
100
AcDbBlockEnd
  0
BLOCK
  5
337
330
332
100
AcDbEntity
  8
0
100
AcDbBlockBegin
  2
*U35
 70
     1
 10
0.0
 20
0.0
 30
0.0
  3
*U35
  1
*U
  0
LINE
  5
333
330
332
100
AcDbEntity
  8
CENN
100
AcDbLine
 10
0.0
 20
-5.5
 30
0.0
 11
0.0
 21
5.5
 31
0.0
  0
CIRCLE
  5
334
330
332
100
AcDbEntity
  8
BHMM
100
AcDbCircle
 10
0.0
 20
0.0
 30
0.0
 40
2.067
  0
ARC
  5
335
330
332
100
AcDbEntity
  8
THLI
100
AcDbCircle
 10
0.0
 20
0.0
 30
0.0
 40
2.5
100
AcDbArc
 50
280.0
 51
210.0
  0
LINE
  5
336
330
332
100
AcDbEntity
  8
CENN
100
AcDbLine
 10
-5.5
 20
0.0
 30
0.0
 11
5.5
 21
0.0
 31
0.0
  0
ENDBLK
  5
338
330
332
100
AcDbEntity
  8
0
100
AcDbBlockEnd
  0
BLOCK
  5
33D
330
330
100
AcDbEntity
  8
0
100
AcDbBlockBegin
  2
*U36
 70
     1
 10
0.0
 20
0.0
 30
0.0
  3
*U36
  1
*U
  0
INSERT
  5
331
330
330
100
AcDbEntity
  8
GEV_FROZEN
100
AcDbBlockReference
  2
*U35
 10
0.0
 20
0.0
 30
0.0
 41
0.1
 42
0.1
 43
0.1
1001
GENBH
1002
{
1000
-NOBRK
1002
}
  0
LINE
  5
339
330
330
100
AcDbEntity
  8
MSR_I4_4-7A
100
AcDbLine
 10
0.0
 20
-5.5
 30
0.0
 11
0.0
 21
5.5
 31
0.0
  0
CIRCLE
  5
33A
330
330
100
AcDbEntity
  8
MSR_I4_4-0
100
AcDbCircle
 10
0.0
 20
0.0
 30
0.0
 40
2.067
  0
ARC
  5
33B
330
330
100
AcDbEntity
  8
MSR_I4_4-4
100
AcDbCircle
 10
0.0
 20
0.0
 30
0.0
 40
2.5
100
AcDbArc
 50
280.0
 51
210.0
  0
LINE
  5
33C
330
330
100
AcDbEntity
  8
MSR_I4_4-7A
100
AcDbLine
 10
-5.5
 20
0.0
 30
0.0
 11
5.5
 21
0.0
 31
0.0
  0
ENDBLK
  5
33E
330
330
100
AcDbEntity
  8
0
100
AcDbBlockEnd
  0
BLOCK
  5
22E
330
229
100
AcDbEntity
  8
0
100
AcDbBlockBegin
  2
*U37
 70
     1
 10
0.0
 20
0.0
 30
0.0
  3
*U37
  1
*U
  0
LINE
  5
22A
330
229
100
AcDbEntity
  8
CENN
100
AcDbLine
 10
0.0
 20
-5.5
 30
0.0
 11
0.0
 21
5.5
 31
0.0
  0
CIRCLE
  5
22B
330
229
100
AcDbEntity
  8
BHMM
100
AcDbCircle
 10
0.0
 20
0.0
 30
0.0
 40
2.067
  0
ARC
  5
22C
330
229
100
AcDbEntity
  8
THLI
100
AcDbCircle
 10
0.0
 20
0.0
 30
0.0
 40
2.5
100
AcDbArc
 50
280.0
 51
210.0
  0
LINE
  5
22D
330
229
100
AcDbEntity
  8
CENN
100
AcDbLine
 10
-5.5
 20
0.0
 30
0.0
 11
5.5
 21
0.0
 31
0.0
  0
ENDBLK
  5
22F
330
229
100
AcDbEntity
  8
0
100
AcDbBlockEnd
  0
BLOCK
  5
234
330
227
100
AcDbEntity
  8
0
100
AcDbBlockBegin
  2
*U38
 70
     1
 10
0.0
 20
0.0
 30
0.0
  3
*U38
  1
*U
  0
INSERT
  5
228
330
227
100
AcDbEntity
  8
GEV_FROZEN
100
AcDbBlockReference
  2
*U37
 10
0.0
 20
0.0
 30
0.0
 41
0.1
 42
0.1
 43
0.1
1001
GENBH
1002
{
1000
-NOBRK
1002
}
  0
LINE
  5
230
330
227
100
AcDbEntity
  8
MSR_I4_4-7A
100
AcDbLine
 10
0.0
 20
-5.5
 30
0.0
 11
0.0
 21
5.5
 31
0.0
  0
CIRCLE
  5
231
330
227
100
AcDbEntity
  8
MSR_I4_4-0
100
AcDbCircle
 10
0.0
 20
0.0
 30
0.0
 40
2.067
  0
ARC
  5
232
330
227
100
AcDbEntity
  8
MSR_I4_4-4
100
AcDbCircle
 10
0.0
 20
0.0
 30
0.0
 40
2.5
100
AcDbArc
 50
280.0
 51
210.0
  0
LINE
  5
233
330
227
100
AcDbEntity
  8
MSR_I4_4-7A
100
AcDbLine
 10
-5.5
 20
0.0
 30
0.0
 11
5.5
 21
0.0
 31
0.0
  0
ENDBLK
  5
235
330
227
100
AcDbEntity
  8
0
100
AcDbBlockEnd
  0
BLOCK
  5
23F
330
23A
100
AcDbEntity
  8
0
100
AcDbBlockBegin
  2
*U39
 70
     1
 10
0.0
 20
0.0
 30
0.0
  3
*U39
  1
*U
  0
LINE
  5
23B
330
23A
100
AcDbEntity
  8
CENN
100
AcDbLine
 10
0.0
 20
-5.5
 30
0.0
 11
0.0
 21
5.5
 31
0.0
  0
CIRCLE
  5
23C
330
23A
100
AcDbEntity
  8
BHMM
100
AcDbCircle
 10
0.0
 20
0.0
 30
0.0
 40
2.067
  0
ARC
  5
23D
330
23A
100
AcDbEntity
  8
THLI
100
AcDbCircle
 10
0.0
 20
0.0
 30
0.0
 40
2.5
100
AcDbArc
 50
280.0
 51
210.0
  0
LINE
  5
23E
330
23A
100
AcDbEntity
  8
CENN
100
AcDbLine
 10
-5.5
 20
0.0
 30
0.0
 11
5.5
 21
0.0
 31
0.0
  0
ENDBLK
  5
240
330
23A
100
AcDbEntity
  8
0
100
AcDbBlockEnd
  0
BLOCK
  5
245
330
238
100
AcDbEntity
  8
0
100
AcDbBlockBegin
  2
*U40
 70
     1
 10
0.0
 20
0.0
 30
0.0
  3
*U40
  1
*U
  0
INSERT
  5
239
330
238
100
AcDbEntity
  8
GEV_FROZEN
100
AcDbBlockReference
  2
*U39
 10
0.0
 20
0.0
 30
0.0
 41
0.1
 42
0.1
 43
0.1
1001
GENBH
1002
{
1000
-NOBRK
1002
}
  0
LINE
  5
241
330
238
100
AcDbEntity
  8
MSR_I4_4-7A
100
AcDbLine
 10
0.0
 20
-5.5
 30
0.0
 11
0.0
 21
5.5
 31
0.0
  0
CIRCLE
  5
242
330
238
100
AcDbEntity
  8
MSR_I4_4-0
100
AcDbCircle
 10
0.0
 20
0.0
 30
0.0
 40
2.067
  0
ARC
  5
243
330
238
100
AcDbEntity
  8
MSR_I4_4-4
100
AcDbCircle
 10
0.0
 20
0.0
 30
0.0
 40
2.5
100
AcDbArc
 50
280.0
 51
210.0
  0
LINE
  5
244
330
238
100
AcDbEntity
  8
MSR_I4_4-7A
100
AcDbLine
 10
-5.5
 20
0.0
 30
0.0
 11
5.5
 21
0.0
 31
0.0
  0
ENDBLK
  5
246
330
238
100
AcDbEntity
  8
0
100
AcDbBlockEnd
  0
BLOCK
  5
21C
330
217
100
AcDbEntity
  8
0
100
AcDbBlockBegin
  2
*U41
 70
     1
 10
0.0
 20
0.0
 30
0.0
  3
*U41
  1
*U
  0
LINE
  5
218
330
217
100
AcDbEntity
  8
CENN
100
AcDbLine
 10
0.0
 20
-5.5
 30
0.0
 11
0.0
 21
5.5
 31
0.0
  0
CIRCLE
  5
219
330
217
100
AcDbEntity
  8
BHMM
100
AcDbCircle
 10
0.0
 20
0.0
 30
0.0
 40
2.067
  0
ARC
  5
21A
330
217
100
AcDbEntity
  8
THLI
100
AcDbCircle
 10
0.0
 20
0.0
 30
0.0
 40
2.5
100
AcDbArc
 50
280.0
 51
210.0
  0
LINE
  5
21B
330
217
100
AcDbEntity
  8
CENN
100
AcDbLine
 10
-5.5
 20
0.0
 30
0.0
 11
5.5
 21
0.0
 31
0.0
  0
ENDBLK
  5
21D
330
217
100
AcDbEntity
  8
0
100
AcDbBlockEnd
  0
BLOCK
  5
222
330
215
100
AcDbEntity
  8
0
100
AcDbBlockBegin
  2
*U42
 70
     1
 10
0.0
 20
0.0
 30
0.0
  3
*U42
  1
*U
  0
INSERT
  5
216
330
215
100
AcDbEntity
  8
GEV_FROZEN
100
AcDbBlockReference
  2
*U41
 10
0.0
 20
0.0
 30
0.0
 41
0.1
 42
0.1
 43
0.1
1001
GENBH
1002
{
1000
-NOBRK
1002
}
  0
LINE
  5
21E
330
215
100
AcDbEntity
  8
MSR_I4_4-7A
100
AcDbLine
 10
0.0
 20
-5.5
 30
0.0
 11
0.0
 21
5.5
 31
0.0
  0
CIRCLE
  5
21F
330
215
100
AcDbEntity
  8
MSR_I4_4-0
100
AcDbCircle
 10
0.0
 20
0.0
 30
0.0
 40
2.067
  0
ARC
  5
220
330
215
100
AcDbEntity
  8
MSR_I4_4-4
100
AcDbCircle
 10
0.0
 20
0.0
 30
0.0
 40
2.5
100
AcDbArc
 50
280.0
 51
210.0
  0
LINE
  5
221
330
215
100
AcDbEntity
  8
MSR_I4_4-7A
100
AcDbLine
 10
-5.5
 20
0.0
 30
0.0
 11
5.5
 21
0.0
 31
0.0
  0
ENDBLK
  5
223
330
215
100
AcDbEntity
  8
0
100
AcDbBlockEnd
  0
BLOCK
  5
4A5
330
49D
100
AcDbEntity
  8
0
100
AcDbBlockBegin
  2
*U43
 70
     1
 10
0.0
 20
0.0
 30
0.0
  3
*U43
  1
*U
  0
LINE
  5
49E
330
49D
100
AcDbEntity
  8
-BHMU
100
AcDbLine
 10
5.0
 20
2.067
 30
0.0
 11
5.0
 21
-2.067
 31
0.0
  0
LINE
  5
49F
330
49D
100
AcDbEntity
  8
-BHMU
100
AcDbLine
 10
0.0
 20
2.067
 30
0.0
 11
0.0
 21
-2.067
 31
0.0
  0
LINE
  5
4A0
330
49D
100
AcDbEntity
  8
BHMM
100
AcDbLine
 10
0.0
 20
-2.067
 30
0.0
 11
5.0
 21
-2.067
 31
0.0
  0
LINE
  5
4A1
330
49D
100
AcDbEntity
  8
THLI
100
AcDbLine
 10
0.0
 20
-2.5
 30
0.0
 11
5.0
 21
-2.5
 31
0.0
  0
LINE
  5
4A2
330
49D
100
AcDbEntity
  8
CENN
100
AcDbLine
 10
-3.0
 20
0.0
 30
0.0
 11
8.0
 21
0.0
 31
0.0
  0
LINE
  5
4A3
330
49D
100
AcDbEntity
  8
BHMM
100
AcDbLine
 10
0.0
 20
2.067
 30
0.0
 11
5.0
 21
2.067
 31
0.0
  0
LINE
  5
4A4
330
49D
100
AcDbEntity
  8
THLI
100
AcDbLine
 10
0.0
 20
2.5
 30
0.0
 11
5.0
 21
2.5
 31
0.0
  0
ENDBLK
  5
4A6
330
49D
100
AcDbEntity
  8
0
100
AcDbBlockEnd
  0
BLOCK
  5
4AC
330
49B
100
AcDbEntity
  8
0
100
AcDbBlockBegin
  2
*U44
 70
     1
 10
0.0
 20
0.0
 30
0.0
  3
*U44
  1
*U
  0
INSERT
  5
49C
330
49B
100
AcDbEntity
  8
GEV_FROZEN
100
AcDbBlockReference
  2
*U43
 10
0.0
 20
0.0
 30
0.0
 41
0.1
 42
0.1
 43
0.1
1001
GENBH
1002
{
1000
-NOBRK
1002
}
  0
LINE
  5
4A7
330
49B
100
AcDbEntity
  8
MSR_I4_4-3A
100
AcDbLine
 10
0.0
 20
-2.067
 30
0.0
 11
5.0
 21
-2.067
 31
0.0
  0
LINE
  5
4A8
330
49B
100
AcDbEntity
  8
MSR_I4_4-3A
100
AcDbLine
 10
0.0
 20
-2.5
 30
0.0
 11
5.0
 21
-2.5
 31
0.0
  0
LINE
  5
4A9
330
49B
100
AcDbEntity
  8
MSR_I4_4-7A
100
AcDbLine
 10
-3.0
 20
0.0
 30
0.0
 11
8.0
 21
0.0
 31
0.0
  0
LINE
  5
4AA
330
49B
100
AcDbEntity
  8
MSR_I4_4-3A
100
AcDbLine
 10
0.0
 20
2.067
 30
0.0
 11
5.0
 21
2.067
 31
0.0
  0
LINE
  5
4AB
330
49B
100
AcDbEntity
  8
MSR_I4_4-3A
100
AcDbLine
 10
0.0
 20
2.5
 30
0.0
 11
5.0
 21
2.5
 31
0.0
  0
ENDBLK
  5
4AD
330
49B
100
AcDbEntity
  8
0
100
AcDbBlockEnd
  0
BLOCK
  5
3BE
330
3B6
100
AcDbEntity
  8
0
100
AcDbBlockBegin
  2
*U45
 70
     1
 10
0.0
 20
0.0
 30
0.0
  3
*U45
  1
*U
  0
LINE
  5
3B7
330
3B6
100
AcDbEntity
  8
-BHMU
100
AcDbLine
 10
5.0
 20
2.067
 30
0.0
 11
5.0
 21
-2.067
 31
0.0
  0
LINE
  5
3B8
330
3B6
100
AcDbEntity
  8
-BHMU
100
AcDbLine
 10
0.0
 20
2.067
 30
0.0
 11
0.0
 21
-2.067
 31
0.0
  0
LINE
  5
3B9
330
3B6
100
AcDbEntity
  8
BHMM
100
AcDbLine
 10
0.0
 20
-2.067
 30
0.0
 11
5.0
 21
-2.067
 31
0.0
  0
LINE
  5
3BA
330
3B6
100
AcDbEntity
  8
THLI
100
AcDbLine
 10
0.0
 20
-2.5
 30
0.0
 11
5.0
 21
-2.5
 31
0.0
  0
LINE
  5
3BB
330
3B6
100
AcDbEntity
  8
CENN
100
AcDbLine
 10
-3.0
 20
0.0
 30
0.0
 11
8.0
 21
0.0
 31
0.0
  0
LINE
  5
3BC
330
3B6
100
AcDbEntity
  8
BHMM
100
AcDbLine
 10
0.0
 20
2.067
 30
0.0
 11
5.0
 21
2.067
 31
0.0
  0
LINE
  5
3BD
330
3B6
100
AcDbEntity
  8
THLI
100
AcDbLine
 10
0.0
 20
2.5
 30
0.0
 11
5.0
 21
2.5
 31
0.0
  0
ENDBLK
  5
3BF
330
3B6
100
AcDbEntity
  8
0
100
AcDbBlockEnd
  0
BLOCK
  5
3C5
330
3B4
100
AcDbEntity
  8
0
100
AcDbBlockBegin
  2
*U46
 70
     1
 10
0.0
 20
0.0
 30
0.0
  3
*U46
  1
*U
  0
INSERT
  5
3B5
330
3B4
100
AcDbEntity
  8
GEV_FROZEN
100
AcDbBlockReference
  2
*U45
 10
0.0
 20
0.0
 30
0.0
 41
0.1
 42
0.1
 43
0.1
1001
GENBH
1002
{
1000
-NOBRK
1002
}
  0
LINE
  5
3C0
330
3B4
100
AcDbEntity
  8
MSR_I4_4-3A
100
AcDbLine
 10
0.0
 20
-2.067
 30
0.0
 11
5.0
 21
-2.067
 31
0.0
  0
LINE
  5
3C1
330
3B4
100
AcDbEntity
  8
MSR_I4_4-3A
100
AcDbLine
 10
0.0
 20
-2.5
 30
0.0
 11
5.0
 21
-2.5
 31
0.0
  0
LINE
  5
3C2
330
3B4
100
AcDbEntity
  8
MSR_I4_4-7A
100
AcDbLine
 10
-3.0
 20
0.0
 30
0.0
 11
8.0
 21
0.0
 31
0.0
  0
LINE
  5
3C3
330
3B4
100
AcDbEntity
  8
MSR_I4_4-3A
100
AcDbLine
 10
0.0
 20
2.067
 30
0.0
 11
5.0
 21
2.067
 31
0.0
  0
LINE
  5
3C4
330
3B4
100
AcDbEntity
  8
MSR_I4_4-3A
100
AcDbLine
 10
0.0
 20
2.5
 30
0.0
 11
5.0
 21
2.5
 31
0.0
  0
ENDBLK
  5
3C6
330
3B4
100
AcDbEntity
  8
0
100
AcDbBlockEnd
  0
BLOCK
  5
38F
330
387
100
AcDbEntity
  8
0
100
AcDbBlockBegin
  2
*U47
 70
     1
 10
0.0
 20
0.0
 30
0.0
  3
*U47
  1
*U
  0
LINE
  5
388
330
387
100
AcDbEntity
  8
-BHMU
100
AcDbLine
 10
5.0
 20
2.067
 30
0.0
 11
5.0
 21
-2.067
 31
0.0
  0
LINE
  5
389
330
387
100
AcDbEntity
  8
-BHMU
100
AcDbLine
 10
0.0
 20
2.067
 30
0.0
 11
0.0
 21
-2.067
 31
0.0
  0
LINE
  5
38A
330
387
100
AcDbEntity
  8
BHMM
100
AcDbLine
 10
0.0
 20
-2.067
 30
0.0
 11
5.0
 21
-2.067
 31
0.0
  0
LINE
  5
38B
330
387
100
AcDbEntity
  8
THLI
100
AcDbLine
 10
0.0
 20
-2.5
 30
0.0
 11
5.0
 21
-2.5
 31
0.0
  0
LINE
  5
38C
330
387
100
AcDbEntity
  8
CENN
100
AcDbLine
 10
-3.0
 20
0.0
 30
0.0
 11
8.0
 21
0.0
 31
0.0
  0
LINE
  5
38D
330
387
100
AcDbEntity
  8
BHMM
100
AcDbLine
 10
0.0
 20
2.067
 30
0.0
 11
5.0
 21
2.067
 31
0.0
  0
LINE
  5
38E
330
387
100
AcDbEntity
  8
THLI
100
AcDbLine
 10
0.0
 20
2.5
 30
0.0
 11
5.0
 21
2.5
 31
0.0
  0
ENDBLK
  5
390
330
387
100
AcDbEntity
  8
0
100
AcDbBlockEnd
  0
BLOCK
  5
396
330
385
100
AcDbEntity
  8
0
100
AcDbBlockBegin
  2
*U48
 70
     1
 10
0.0
 20
0.0
 30
0.0
  3
*U48
  1
*U
  0
INSERT
  5
386
330
385
100
AcDbEntity
  8
GEV_FROZEN
100
AcDbBlockReference
  2
*U47
 10
0.0
 20
0.0
 30
0.0
 41
0.1
 42
0.1
 43
0.1
1001
GENBH
1002
{
1000
-NOBRK
1002
}
  0
LINE
  5
391
330
385
100
AcDbEntity
  8
MSR_I4_4-3A
100
AcDbLine
 10
0.0
 20
-2.067
 30
0.0
 11
5.0
 21
-2.067
 31
0.0
  0
LINE
  5
392
330
385
100
AcDbEntity
  8
MSR_I4_4-3A
100
AcDbLine
 10
0.0
 20
-2.5
 30
0.0
 11
5.0
 21
-2.5
 31
0.0
  0
LINE
  5
393
330
385
100
AcDbEntity
  8
MSR_I4_4-7A
100
AcDbLine
 10
-3.0
 20
0.0
 30
0.0
 11
8.0
 21
0.0
 31
0.0
  0
LINE
  5
394
330
385
100
AcDbEntity
  8
MSR_I4_4-3A
100
AcDbLine
 10
0.0
 20
2.067
 30
0.0
 11
5.0
 21
2.067
 31
0.0
  0
LINE
  5
395
330
385
100
AcDbEntity
  8
MSR_I4_4-3A
100
AcDbLine
 10
0.0
 20
2.5
 30
0.0
 11
5.0
 21
2.5
 31
0.0
  0
ENDBLK
  5
397
330
385
100
AcDbEntity
  8
0
100
AcDbBlockEnd
  0
BLOCK
  5
3A4
330
39C
100
AcDbEntity
  8
0
100
AcDbBlockBegin
  2
*U49
 70
     1
 10
0.0
 20
0.0
 30
0.0
  3
*U49
  1
*U
  0
LINE
  5
39D
330
39C
100
AcDbEntity
  8
-BHMU
100
AcDbLine
 10
5.0
 20
2.067
 30
0.0
 11
5.0
 21
-2.067
 31
0.0
  0
LINE
  5
39E
330
39C
100
AcDbEntity
  8
-BHMU
100
AcDbLine
 10
0.0
 20
2.067
 30
0.0
 11
0.0
 21
-2.067
 31
0.0
  0
LINE
  5
39F
330
39C
100
AcDbEntity
  8
BHMM
100
AcDbLine
 10
0.0
 20
-2.067
 30
0.0
 11
5.0
 21
-2.067
 31
0.0
  0
LINE
  5
3A0
330
39C
100
AcDbEntity
  8
THLI
100
AcDbLine
 10
0.0
 20
-2.5
 30
0.0
 11
5.0
 21
-2.5
 31
0.0
  0
LINE
  5
3A1
330
39C
100
AcDbEntity
  8
CENN
100
AcDbLine
 10
-3.0
 20
0.0
 30
0.0
 11
8.0
 21
0.0
 31
0.0
  0
LINE
  5
3A2
330
39C
100
AcDbEntity
  8
BHMM
100
AcDbLine
 10
0.0
 20
2.067
 30
0.0
 11
5.0
 21
2.067
 31
0.0
  0
LINE
  5
3A3
330
39C
100
AcDbEntity
  8
THLI
100
AcDbLine
 10
0.0
 20
2.5
 30
0.0
 11
5.0
 21
2.5
 31
0.0
  0
ENDBLK
  5
3A5
330
39C
100
AcDbEntity
  8
0
100
AcDbBlockEnd
  0
BLOCK
  5
3AB
330
39A
100
AcDbEntity
  8
0
100
AcDbBlockBegin
  2
*U50
 70
     1
 10
0.0
 20
0.0
 30
0.0
  3
*U50
  1
*U
  0
INSERT
  5
39B
330
39A
100
AcDbEntity
  8
GEV_FROZEN
100
AcDbBlockReference
  2
*U49
 10
0.0
 20
0.0
 30
0.0
 41
0.1
 42
0.1
 43
0.1
1001
GENBH
1002
{
1000
-NOBRK
1002
}
  0
LINE
  5
3A6
330
39A
100
AcDbEntity
  8
MSR_I4_4-3A
100
AcDbLine
 10
0.0
 20
-2.067
 30
0.0
 11
5.0
 21
-2.067
 31
0.0
  0
LINE
  5
3A7
330
39A
100
AcDbEntity
  8
MSR_I4_4-3A
100
AcDbLine
 10
0.0
 20
-2.5
 30
0.0
 11
5.0
 21
-2.5
 31
0.0
  0
LINE
  5
3A8
330
39A
100
AcDbEntity
  8
MSR_I4_4-7A
100
AcDbLine
 10
-3.0
 20
0.0
 30
0.0
 11
8.0
 21
0.0
 31
0.0
  0
LINE
  5
3A9
330
39A
100
AcDbEntity
  8
MSR_I4_4-3A
100
AcDbLine
 10
0.0
 20
2.067
 30
0.0
 11
5.0
 21
2.067
 31
0.0
  0
LINE
  5
3AA
330
39A
100
AcDbEntity
  8
MSR_I4_4-3A
100
AcDbLine
 10
0.0
 20
2.5
 30
0.0
 11
5.0
 21
2.5
 31
0.0
  0
ENDBLK
  5
3AC
330
39A
100
AcDbEntity
  8
0
100
AcDbBlockEnd
  0
BLOCK
  5
369
330
361
100
AcDbEntity
  8
0
100
AcDbBlockBegin
  2
*U51
 70
     1
 10
0.0
 20
0.0
 30
0.0
  3
*U51
  1
*U
  0
LINE
  5
362
330
361
100
AcDbEntity
  8
-BHMU
100
AcDbLine
 10
5.0
 20
2.067
 30
0.0
 11
5.0
 21
-2.067
 31
0.0
  0
LINE
  5
363
330
361
100
AcDbEntity
  8
-BHMU
100
AcDbLine
 10
0.0
 20
2.067
 30
0.0
 11
0.0
 21
-2.067
 31
0.0
  0
LINE
  5
364
330
361
100
AcDbEntity
  8
BHMM
100
AcDbLine
 10
0.0
 20
-2.067
 30
0.0
 11
5.0
 21
-2.067
 31
0.0
  0
LINE
  5
365
330
361
100
AcDbEntity
  8
THLI
100
AcDbLine
 10
0.0
 20
-2.5
 30
0.0
 11
5.0
 21
-2.5
 31
0.0
  0
LINE
  5
366
330
361
100
AcDbEntity
  8
CENN
100
AcDbLine
 10
-3.0
 20
0.0
 30
0.0
 11
8.0
 21
0.0
 31
0.0
  0
LINE
  5
367
330
361
100
AcDbEntity
  8
BHMM
100
AcDbLine
 10
0.0
 20
2.067
 30
0.0
 11
5.0
 21
2.067
 31
0.0
  0
LINE
  5
368
330
361
100
AcDbEntity
  8
THLI
100
AcDbLine
 10
0.0
 20
2.5
 30
0.0
 11
5.0
 21
2.5
 31
0.0
  0
ENDBLK
  5
36A
330
361
100
AcDbEntity
  8
0
100
AcDbBlockEnd
  0
BLOCK
  5
370
330
35F
100
AcDbEntity
  8
0
100
AcDbBlockBegin
  2
*U52
 70
     1
 10
0.0
 20
0.0
 30
0.0
  3
*U52
  1
*U
  0
INSERT
  5
360
330
35F
100
AcDbEntity
  8
GEV_FROZEN
100
AcDbBlockReference
  2
*U51
 10
0.0
 20
0.0
 30
0.0
 41
0.1
 42
0.1
 43
0.1
1001
GENBH
1002
{
1000
-NOBRK
1002
}
  0
LINE
  5
36B
330
35F
100
AcDbEntity
  8
MSR_I4_4-3A
100
AcDbLine
 10
0.0
 20
-2.067
 30
0.0
 11
5.0
 21
-2.067
 31
0.0
  0
LINE
  5
36C
330
35F
100
AcDbEntity
  8
MSR_I4_4-3A
100
AcDbLine
 10
0.0
 20
-2.5
 30
0.0
 11
5.0
 21
-2.5
 31
0.0
  0
LINE
  5
36D
330
35F
100
AcDbEntity
  8
MSR_I4_4-7A
100
AcDbLine
 10
-3.0
 20
0.0
 30
0.0
 11
8.0
 21
0.0
 31
0.0
  0
LINE
  5
36E
330
35F
100
AcDbEntity
  8
MSR_I4_4-3A
100
AcDbLine
 10
0.0
 20
2.067
 30
0.0
 11
5.0
 21
2.067
 31
0.0
  0
LINE
  5
36F
330
35F
100
AcDbEntity
  8
MSR_I4_4-3A
100
AcDbLine
 10
0.0
 20
2.5
 30
0.0
 11
5.0
 21
2.5
 31
0.0
  0
ENDBLK
  5
371
330
35F
100
AcDbEntity
  8
0
100
AcDbBlockEnd
  0
BLOCK
  5
1E8
330
1E0
100
AcDbEntity
  8
0
100
AcDbBlockBegin
  2
*U53
 70
     1
 10
0.0
 20
0.0
 30
0.0
  3
*U53
  1
*U
  0
LINE
  5
1E1
330
1E0
100
AcDbEntity
  8
-BHMU
100
AcDbLine
 10
5.0
 20
2.067
 30
0.0
 11
5.0
 21
-2.067
 31
0.0
  0
LINE
  5
1E2
330
1E0
100
AcDbEntity
  8
-BHMU
100
AcDbLine
 10
0.0
 20
2.067
 30
0.0
 11
0.0
 21
-2.067
 31
0.0
  0
LINE
  5
1E3
330
1E0
100
AcDbEntity
  8
BHMM
100
AcDbLine
 10
0.0
 20
-2.067
 30
0.0
 11
5.0
 21
-2.067
 31
0.0
  0
LINE
  5
1E4
330
1E0
100
AcDbEntity
  8
THLI
100
AcDbLine
 10
0.0
 20
-2.5
 30
0.0
 11
5.0
 21
-2.5
 31
0.0
  0
LINE
  5
1E5
330
1E0
100
AcDbEntity
  8
CENN
100
AcDbLine
 10
-3.0
 20
0.0
 30
0.0
 11
8.0
 21
0.0
 31
0.0
  0
LINE
  5
1E6
330
1E0
100
AcDbEntity
  8
BHMM
100
AcDbLine
 10
0.0
 20
2.067
 30
0.0
 11
5.0
 21
2.067
 31
0.0
  0
LINE
  5
1E7
330
1E0
100
AcDbEntity
  8
THLI
100
AcDbLine
 10
0.0
 20
2.5
 30
0.0
 11
5.0
 21
2.5
 31
0.0
  0
ENDBLK
  5
1E9
330
1E0
100
AcDbEntity
  8
0
100
AcDbBlockEnd
  0
BLOCK
  5
1EF
330
1DE
100
AcDbEntity
  8
0
100
AcDbBlockBegin
  2
*U54
 70
     1
 10
0.0
 20
0.0
 30
0.0
  3
*U54
  1
*U
  0
INSERT
  5
1DF
330
1DE
100
AcDbEntity
  8
GEV_FROZEN
100
AcDbBlockReference
  2
*U53
 10
0.0
 20
0.0
 30
0.0
 41
0.1
 42
0.1
 43
0.1
1001
GENBH
1002
{
1000
-NOBRK
1002
}
  0
LINE
  5
1EA
330
1DE
100
AcDbEntity
  8
MSR_I4_4-3A
100
AcDbLine
 10
0.0
 20
-2.067
 30
0.0
 11
5.0
 21
-2.067
 31
0.0
  0
LINE
  5
1EB
330
1DE
100
AcDbEntity
  8
MSR_I4_4-3A
100
AcDbLine
 10
0.0
 20
-2.5
 30
0.0
 11
5.0
 21
-2.5
 31
0.0
  0
LINE
  5
1EC
330
1DE
100
AcDbEntity
  8
MSR_I4_4-7A
100
AcDbLine
 10
-3.0
 20
0.0
 30
0.0
 11
8.0
 21
0.0
 31
0.0
  0
LINE
  5
1ED
330
1DE
100
AcDbEntity
  8
MSR_I4_4-3A
100
AcDbLine
 10
0.0
 20
2.067
 30
0.0
 11
5.0
 21
2.067
 31
0.0
  0
LINE
  5
1EE
330
1DE
100
AcDbEntity
  8
MSR_I4_4-3A
100
AcDbLine
 10
0.0
 20
2.5
 30
0.0
 11
5.0
 21
2.5
 31
0.0
  0
ENDBLK
  5
1F0
330
1DE
100
AcDbEntity
  8
0
100
AcDbBlockEnd
  0
BLOCK
  5
1A8
330
1A0
100
AcDbEntity
  8
0
100
AcDbBlockBegin
  2
*U55
 70
     1
 10
0.0
 20
0.0
 30
0.0
  3
*U55
  1
*U
  0
LINE
  5
1A1
330
1A0
100
AcDbEntity
  8
-BHMU
100
AcDbLine
 10
5.0
 20
2.067
 30
0.0
 11
5.0
 21
-2.067
 31
0.0
  0
LINE
  5
1A2
330
1A0
100
AcDbEntity
  8
-BHMU
100
AcDbLine
 10
0.0
 20
2.067
 30
0.0
 11
0.0
 21
-2.067
 31
0.0
  0
LINE
  5
1A3
330
1A0
100
AcDbEntity
  8
BHMM
100
AcDbLine
 10
0.0
 20
-2.067
 30
0.0
 11
5.0
 21
-2.067
 31
0.0
  0
LINE
  5
1A4
330
1A0
100
AcDbEntity
  8
THLI
100
AcDbLine
 10
0.0
 20
-2.5
 30
0.0
 11
5.0
 21
-2.5
 31
0.0
  0
LINE
  5
1A5
330
1A0
100
AcDbEntity
  8
CENN
100
AcDbLine
 10
-3.0
 20
0.0
 30
0.0
 11
8.0
 21
0.0
 31
0.0
  0
LINE
  5
1A6
330
1A0
100
AcDbEntity
  8
BHMM
100
AcDbLine
 10
0.0
 20
2.067
 30
0.0
 11
5.0
 21
2.067
 31
0.0
  0
LINE
  5
1A7
330
1A0
100
AcDbEntity
  8
THLI
100
AcDbLine
 10
0.0
 20
2.5
 30
0.0
 11
5.0
 21
2.5
 31
0.0
  0
ENDBLK
  5
1A9
330
1A0
100
AcDbEntity
  8
0
100
AcDbBlockEnd
  0
BLOCK
  5
1AF
330
19E
100
AcDbEntity
  8
0
100
AcDbBlockBegin
  2
*U56
 70
     1
 10
0.0
 20
0.0
 30
0.0
  3
*U56
  1
*U
  0
INSERT
  5
19F
330
19E
100
AcDbEntity
  8
GEV_FROZEN
100
AcDbBlockReference
  2
*U55
 10
0.0
 20
0.0
 30
0.0
 41
0.1
 42
0.1
 43
0.1
1001
GENBH
1002
{
1000
-NOBRK
1002
}
  0
LINE
  5
1AA
330
19E
100
AcDbEntity
  8
MSR_I4_4-3A
100
AcDbLine
 10
0.0
 20
-2.067
 30
0.0
 11
5.0
 21
-2.067
 31
0.0
  0
LINE
  5
1AB
330
19E
100
AcDbEntity
  8
MSR_I4_4-3A
100
AcDbLine
 10
0.0
 20
-2.5
 30
0.0
 11
5.0
 21
-2.5
 31
0.0
  0
LINE
  5
1AC
330
19E
100
AcDbEntity
  8
MSR_I4_4-7A
100
AcDbLine
 10
-3.0
 20
0.0
 30
0.0
 11
8.0
 21
0.0
 31
0.0
  0
LINE
  5
1AD
330
19E
100
AcDbEntity
  8
MSR_I4_4-3A
100
AcDbLine
 10
0.0
 20
2.067
 30
0.0
 11
5.0
 21
2.067
 31
0.0
  0
LINE
  5
1AE
330
19E
100
AcDbEntity
  8
MSR_I4_4-3A
100
AcDbLine
 10
0.0
 20
2.5
 30
0.0
 11
5.0
 21
2.5
 31
0.0
  0
ENDBLK
  5
1B0
330
19E
100
AcDbEntity
  8
0
100
AcDbBlockEnd
  0
BLOCK
  5
193
330
18B
100
AcDbEntity
  8
0
100
AcDbBlockBegin
  2
*U57
 70
     1
 10
0.0
 20
0.0
 30
0.0
  3
*U57
  1
*U
  0
LINE
  5
18C
330
18B
100
AcDbEntity
  8
-BHMU
100
AcDbLine
 10
5.0
 20
2.067
 30
0.0
 11
5.0
 21
-2.067
 31
0.0
  0
LINE
  5
18D
330
18B
100
AcDbEntity
  8
-BHMU
100
AcDbLine
 10
0.0
 20
2.067
 30
0.0
 11
0.0
 21
-2.067
 31
0.0
  0
LINE
  5
18E
330
18B
100
AcDbEntity
  8
BHMM
100
AcDbLine
 10
0.0
 20
-2.067
 30
0.0
 11
5.0
 21
-2.067
 31
0.0
  0
LINE
  5
18F
330
18B
100
AcDbEntity
  8
THLI
100
AcDbLine
 10
0.0
 20
-2.5
 30
0.0
 11
5.0
 21
-2.5
 31
0.0
  0
LINE
  5
190
330
18B
100
AcDbEntity
  8
CENN
100
AcDbLine
 10
-3.0
 20
0.0
 30
0.0
 11
8.0
 21
0.0
 31
0.0
  0
LINE
  5
191
330
18B
100
AcDbEntity
  8
BHMM
100
AcDbLine
 10
0.0
 20
2.067
 30
0.0
 11
5.0
 21
2.067
 31
0.0
  0
LINE
  5
192
330
18B
100
AcDbEntity
  8
THLI
100
AcDbLine
 10
0.0
 20
2.5
 30
0.0
 11
5.0
 21
2.5
 31
0.0
  0
ENDBLK
  5
194
330
18B
100
AcDbEntity
  8
0
100
AcDbBlockEnd
  0
BLOCK
  5
19A
330
189
100
AcDbEntity
  8
0
100
AcDbBlockBegin
  2
*U58
 70
     1
 10
0.0
 20
0.0
 30
0.0
  3
*U58
  1
*U
  0
INSERT
  5
18A
330
189
100
AcDbEntity
  8
GEV_FROZEN
100
AcDbBlockReference
  2
*U57
 10
0.0
 20
0.0
 30
0.0
 41
0.1
 42
0.1
 43
0.1
1001
GENBH
1002
{
1000
-NOBRK
1002
}
  0
LINE
  5
195
330
189
100
AcDbEntity
  8
MSR_I4_4-3A
100
AcDbLine
 10
0.0
 20
-2.067
 30
0.0
 11
5.0
 21
-2.067
 31
0.0
  0
LINE
  5
196
330
189
100
AcDbEntity
  8
MSR_I4_4-3A
100
AcDbLine
 10
0.0
 20
-2.5
 30
0.0
 11
5.0
 21
-2.5
 31
0.0
  0
LINE
  5
197
330
189
100
AcDbEntity
  8
MSR_I4_4-7A
100
AcDbLine
 10
-3.0
 20
0.0
 30
0.0
 11
8.0
 21
0.0
 31
0.0
  0
LINE
  5
198
330
189
100
AcDbEntity
  8
MSR_I4_4-3A
100
AcDbLine
 10
0.0
 20
2.067
 30
0.0
 11
5.0
 21
2.067
 31
0.0
  0
LINE
  5
199
330
189
100
AcDbEntity
  8
MSR_I4_4-3A
100
AcDbLine
 10
0.0
 20
2.5
 30
0.0
 11
5.0
 21
2.5
 31
0.0
  0
ENDBLK
  5
19B
330
189
100
AcDbEntity
  8
0
100
AcDbBlockEnd
  0
BLOCK
  5
129
330
121
100
AcDbEntity
  8
0
100
AcDbBlockBegin
  2
*U59
 70
     1
 10
0.0
 20
0.0
 30
0.0
  3
*U59
  1
*U
  0
LINE
  5
122
330
121
100
AcDbEntity
  8
-BHMU
100
AcDbLine
 10
5.0
 20
2.067
 30
0.0
 11
5.0
 21
-2.067
 31
0.0
  0
LINE
  5
123
330
121
100
AcDbEntity
  8
-BHMU
100
AcDbLine
 10
0.0
 20
2.067
 30
0.0
 11
0.0
 21
-2.067
 31
0.0
  0
LINE
  5
124
330
121
100
AcDbEntity
  8
BHMM
100
AcDbLine
 10
0.0
 20
-2.067
 30
0.0
 11
5.0
 21
-2.067
 31
0.0
  0
LINE
  5
125
330
121
100
AcDbEntity
  8
THLI
100
AcDbLine
 10
0.0
 20
-2.5
 30
0.0
 11
5.0
 21
-2.5
 31
0.0
  0
LINE
  5
126
330
121
100
AcDbEntity
  8
CENN
100
AcDbLine
 10
-3.0
 20
0.0
 30
0.0
 11
8.0
 21
0.0
 31
0.0
  0
LINE
  5
127
330
121
100
AcDbEntity
  8
BHMM
100
AcDbLine
 10
0.0
 20
2.067
 30
0.0
 11
5.0
 21
2.067
 31
0.0
  0
LINE
  5
128
330
121
100
AcDbEntity
  8
THLI
100
AcDbLine
 10
0.0
 20
2.5
 30
0.0
 11
5.0
 21
2.5
 31
0.0
  0
ENDBLK
  5
12A
330
121
100
AcDbEntity
  8
0
100
AcDbBlockEnd
  0
BLOCK
  5
130
330
11F
100
AcDbEntity
  8
0
100
AcDbBlockBegin
  2
*U60
 70
     1
 10
0.0
 20
0.0
 30
0.0
  3
*U60
  1
*U
  0
INSERT
  5
120
330
11F
100
AcDbEntity
  8
GEV_FROZEN
100
AcDbBlockReference
  2
*U59
 10
0.0
 20
0.0
 30
0.0
 41
0.1
 42
0.1
 43
0.1
1001
GENBH
1002
{
1000
-NOBRK
1002
}
  0
LINE
  5
12B
330
11F
100
AcDbEntity
  8
MSR_I4_4-3A
100
AcDbLine
 10
0.0
 20
-2.067
 30
0.0
 11
5.0
 21
-2.067
 31
0.0
  0
LINE
  5
12C
330
11F
100
AcDbEntity
  8
MSR_I4_4-3A
100
AcDbLine
 10
0.0
 20
-2.5
 30
0.0
 11
5.0
 21
-2.5
 31
0.0
  0
LINE
  5
12D
330
11F
100
AcDbEntity
  8
MSR_I4_4-7A
100
AcDbLine
 10
-3.0
 20
0.0
 30
0.0
 11
8.0
 21
0.0
 31
0.0
  0
LINE
  5
12E
330
11F
100
AcDbEntity
  8
MSR_I4_4-3A
100
AcDbLine
 10
0.0
 20
2.067
 30
0.0
 11
5.0
 21
2.067
 31
0.0
  0
LINE
  5
12F
330
11F
100
AcDbEntity
  8
MSR_I4_4-3A
100
AcDbLine
 10
0.0
 20
2.5
 30
0.0
 11
5.0
 21
2.5
 31
0.0
  0
ENDBLK
  5
131
330
11F
100
AcDbEntity
  8
0
100
AcDbBlockEnd
  0
BLOCK
  5
5F2
330
5F0
100
AcDbEntity
  8
0
100
AcDbBlockBegin
  2
GENAXEH
 70
     0
 10
0.0
 20
0.0
 30
0.0
  3
GENAXEH
  1

  0
LINE
  5
5F1
330
5F0
100
AcDbEntity
  8
0
100
AcDbLine
 10
-1.0
 20
0.0
 30
0.0
 11
1.0
 21
0.0
 31
0.0
  0
ENDBLK
  5
5F3
330
5F0
100
AcDbEntity
  8
0
100
AcDbBlockEnd
  0
ENDSEC
  0
SECTION
  2
ENTITIES
  0
ARC
  5
1D
330
2
100
AcDbEntity
  8
MSR_I4_4-0
100
AcDbCircle
 10
0.0000000000000018
 20
-20.00000000000003
 30
0.0
 40
3.0
100
AcDbArc
 50
0.0000009999999785
 51
90.0
  0
LINE
  5
1F
330
2
100
AcDbEntity
  8
MSR_I4_4-0
100
AcDbLine
 10
72.0
 20
37.50000000000006
 30
0.0
 11
72.0
 21
-37.5
 31
0.0
  0
LINE
  5
20
330
2
100
AcDbEntity
  8
MSR_I4_4-0
100
AcDbLine
 10
66.5
 20
37.50000000000006
 30
0.0
 11
66.5
 21
-37.5
 31
0.0
  0
LINE
  5
21
330
2
100
AcDbEntity
  8
MSR_I4_4-7
100
AcDbLine
 10
20.0
 20
-16.37141399999996
 30
0.0
 11
20.0
 21
-24.40287799999999
 31
0.0
  0
LINE
  5
24
330
2
100
AcDbEntity
  8
MSR_I4_4-7
100
AcDbLine
 10
-20.00000000000003
 20
-16.37141399999996
 30
0.0
 11
-20.00000000000003
 21
-24.40287799999999
 31
0.0
  0
ARC
  5
25
330
2
100
AcDbEntity
  8
MSR_I4_4-0
100
AcDbCircle
 10
-77.39070800000002
 20
-15.127294
 30
0.0
 40
3.610541999999999
100
AcDbArc
 50
137.435338
 51
223.061742
  0
ARC
  5
26
330
2
100
AcDbEntity
  8
MSR_I4_4-0
100
AcDbCircle
 10
-79.60929000000001
 20
-15.127294
 30
0.0
 40
3.610541999999999
100
AcDbArc
 50
316.938254
 51
42.56466599999999
  0
LINE
  5
27
330
2
100
AcDbEntity
  8
MSR_I4_4-0
100
AcDbLine
 10
-81.00000000000003
 20
-29.77762999999999
 30
0.0
 11
-81.00000000000003
 21
-15.22237000000001
 31
0.0
  0
LINE
  5
28
330
2
100
AcDbEntity
  8
MSR_I4_4-0
100
AcDbLine
 10
-76.00000000000003
 20
-37.5
 30
0.0
 11
-76.00000000000003
 21
37.50000000000006
 31
0.0
  0
LINE
  5
29
330
2
100
AcDbEntity
  8
MSR_I4_4-0
100
AcDbLine
 10
-66.50000000000003
 20
37.50000000000006
 30
0.0
 11
-66.50000000000003
 21
-37.5
 31
0.0
  0
LINE
  5
2A
330
2
100
AcDbEntity
  8
MSR_I4_4-7
100
AcDbLine
 10
0.0000000000000018
 20
-23.62858400000002
 30
0.0
 11
0.0000000000000018
 21
-15.59712000000001
 31
0.0
  0
TEXT
  5
2B
330
2
100
AcDbEntity
  8
MSR_I4_4-6
100
AcDbText
 10
-60.36461198799162
 20
-31.91189386351721
 30
0.0
 40
3.5
  1
MSR I-4/4
100
AcDbText
  0
LINE
  5
2D
330
2
100
AcDbEntity
  8
MSR_I4_4-0
100
AcDbLine
 10
-51.50000000000005
 20
-81.02523828095895
 30
0.0
 11
-55.50000000000006
 21
-81.02523828095895
 31
0.0
  0
LINE
  5
2E
330
2
100
AcDbEntity
  8
MSR_I4_4-0
100
AcDbLine
 10
-51.50000000000005
 20
-83.02523828095894
 30
0.0
 11
-57.50000000000006
 21
-83.02523828095894
 31
0.0
  0
LINE
  5
2F
330
2
100
AcDbEntity
  8
MSR_I4_4-4
100
AcDbLine
 10
-51.50000000000005
 20
-83.52523828095895
 30
0.0
 11
-57.50000000000006
 21
-83.52523828095895
 31
0.0
  0
LINE
  5
31
330
2
100
AcDbEntity
  8
MSR_I4_4-0
100
AcDbLine
 10
-55.50000000000006
 20
-96.02523828095895
 30
0.0
 11
-51.50000000000005
 21
-96.02523828095895
 31
0.0
  0
LINE
  5
32
330
2
100
AcDbEntity
  8
MSR_I4_4-0
100
AcDbLine
 10
-51.50000000000005
 20
-93.02523828095894
 30
0.0
 11
-57.50000000000006
 21
-93.02523828095894
 31
0.0
  0
LINE
  5
33
330
2
100
AcDbEntity
  8
MSR_I4_4-4
100
AcDbLine
 10
-51.50000000000005
 20
-92.52523828095894
 30
0.0
 11
-57.50000000000006
 21
-92.52523828095894
 31
0.0
  0
LINE
  5
34
330
2
100
AcDbEntity
  8
MSR_I4_4-2
100
AcDbLine
 10
-42.00000000000665
 20
-70.02523828095895
 30
0.0
 11
-76.50000000000665
 21
-67.27523828095894
 31
0.0
  0
LINE
  5
36
330
2
100
AcDbEntity
  8
MSR_I4_4-2
100
AcDbLine
 10
-42.00000000000665
 20
-74.02523828095894
 30
0.0
 11
-76.50000000000665
 21
-71.27523828095895
 31
0.0
  0
LINE
  5
37
330
2
100
AcDbEntity
  8
MSR_I4_4-2
100
AcDbLine
 10
-37.50000000000006
 20
-64.52523828095895
 30
0.0
 11
-76.64042447990073
 21
-67.28017413024935
 31
0.0
  0
LINE
  5
38
330
2
100
AcDbEntity
  8
MSR_I4_4-0
100
AcDbLine
 10
-48.00000000000006
 20
-102.5252382809589
 30
0.0
 11
-66.50000000000005
 21
-102.5252382809589
 31
0.0
  0
TEXT
  5
39
330
2
100
AcDbEntity
  8
MSR_I4_4-6
100
AcDbText
 10
-60.36461198799824
 20
-146.9371321444761
 30
0.0
 40
3.5
  1
MSR I-4/4
100
AcDbText
  0
LINE
  5
3A
330
2
100
AcDbEntity
  8
MSR_I4_4-0
100
AcDbLine
 10
-76.02072200000003
 20
-205.2155773275708
 30
0.0
 11
-37.52072200000004
 21
-205.2155773275708
 31
0.0
  0
LINE
  5
3B
330
2
100
AcDbEntity
  8
MSR_I4_4-0
100
AcDbLine
 10
66.5
 20
-37.5
 30
0.0
 11
-76.00000000000003
 21
-37.5
 31
0.0
  0
LINE
  5
3C
330
2
100
AcDbEntity
  8
MSR_I4_4-7
100
AcDbLine
 10
-57.50000000000006
 20
-88.02523828095894
 30
0.0
 11
-2.5
 21
-88.02523828095894
 31
0.0
  0
LINE
  5
3D
330
2
100
AcDbEntity
  8
MSR_I4_4-0
100
AcDbLine
 10
-66.50000000000665
 20
-152.5252382809589
 30
0.0
 11
66.49999999999335
 21
-152.5252382809589
 31
0.0
  0
LINE
  5
3E
330
2
100
AcDbEntity
  8
MSR_I4_4-0
100
AcDbLine
 10
-76.00000000000665
 20
-164.5252382809589
 30
0.0
 11
66.49999999999335
 21
-164.5252382809589
 31
0.0
  0
LINE
  5
3F
330
2
100
AcDbEntity
  8
MSR_I4_4-0
100
AcDbLine
 10
-53.52072200000003
 20
-239.7155773275708
 30
0.0
 11
-56.52072200000003
 21
-239.7155773275708
 31
0.0
  0
LINE
  5
40
330
2
100
AcDbEntity
  8
MSR_I4_4-4
100
AcDbLine
 10
-53.52072200000003
 20
-240.2155773275707
 30
0.0
 11
-56.52072200000003
 21
-240.2155773275707
 31
0.0
  0
LINE
  5
41
330
2
100
AcDbEntity
  8
MSR_I4_4-0
100
AcDbLine
 10
-53.52072200000003
 20
-245.7155773275708
 30
0.0
 11
-56.52072200000003
 21
-245.7155773275708
 31
0.0
  0
LINE
  5
42
330
2
100
AcDbEntity
  8
MSR_I4_4-4
100
AcDbLine
 10
-53.52072200000003
 20
-245.2155773275707
 30
0.0
 11
-56.52072200000003
 21
-245.2155773275707
 31
0.0
  0
LINE
  5
43
330
2
100
AcDbEntity
  8
MSR_I4_4-0
100
AcDbLine
 10
-55.52072200000004
 20
-207.7155773275708
 30
0.0
 11
-49.52072200000003
 21
-207.7155773275708
 31
0.0
  0
LINE
  5
44
330
2
100
AcDbEntity
  8
MSR_I4_4-4
100
AcDbLine
 10
-55.52072200000004
 20
-208.2155773275708
 30
0.0
 11
-49.52072200000003
 21
-208.2155773275708
 31
0.0
  0
LINE
  5
45
330
2
100
AcDbEntity
  8
MSR_I4_4-0
100
AcDbLine
 10
-55.52072200000004
 20
-217.7155773275708
 30
0.0
 11
-49.52072200000003
 21
-217.7155773275708
 31
0.0
  0
LINE
  5
46
330
2
100
AcDbEntity
  8
MSR_I4_4-4
100
AcDbLine
 10
-55.52072200000004
 20
-217.2155773275708
 30
0.0
 11
-49.52072200000003
 21
-217.2155773275708
 31
0.0
  0
LINE
  5
47
330
2
100
AcDbEntity
  8
MSR_I4_4-7
100
AcDbLine
 10
-64.46749600000003
 20
-242.7155773275707
 30
0.0
 11
-49.92925400000001
 21
-242.7155773275707
 31
0.0
  0
LINE
  5
48
330
2
100
AcDbEntity
  8
MSR_I4_4-7
100
AcDbLine
 10
-69.38874600000002
 20
-212.7155773275708
 30
0.0
 11
-46.52874600000001
 21
-212.7155773275708
 31
0.0
  0
LINE
  5
49
330
2
100
AcDbEntity
  8
MSR_I4_4-0
100
AcDbLine
 10
-55.52072200000004
 20
-267.7155753275707
 30
0.0
 11
-49.52072200000003
 21
-267.7155753275707
 31
0.0
  0
LINE
  5
4A
330
2
100
AcDbEntity
  8
MSR_I4_4-4
100
AcDbLine
 10
-55.52072200000004
 20
-268.2155753275707
 30
0.0
 11
-49.52072200000003
 21
-268.2155753275707
 31
0.0
  0
LINE
  5
4B
330
2
100
AcDbEntity
  8
MSR_I4_4-0
100
AcDbLine
 10
-55.52072200000004
 20
-277.7155753275707
 30
0.0
 11
-49.52072200000003
 21
-277.7155753275707
 31
0.0
  0
LINE
  5
4C
330
2
100
AcDbEntity
  8
MSR_I4_4-4
100
AcDbLine
 10
-55.52072200000004
 20
-277.2155753275707
 30
0.0
 11
-49.52072200000003
 21
-277.2155753275707
 31
0.0
  0
LINE
  5
4D
330
2
100
AcDbEntity
  8
MSR_I4_4-7
100
AcDbLine
 10
-69.38874600000002
 20
-272.7155753275707
 30
0.0
 11
-46.52874600000001
 21
-272.7155753275707
 31
0.0
  0
LINE
  5
4E
330
2
100
AcDbEntity
  8
MSR_I4_4-0
100
AcDbLine
 10
-37.52072200000004
 20
-280.2155773275707
 30
0.0
 11
-67.50863600000002
 21
-280.2155773275707
 31
0.0
  0
ELLIPSE
  5
4F
330
2
100
AcDbEntity
  8
MSR_I4_4-2
100
AcDbEllipse
 10
-42.00000000000665
 20
-285.2155773275701
 30
0.0
 11
32.5
 21
0.0
 31
0.0
210
0.0
220
0.0
230
1.0
 40
0.8307692307692107
 41
1.570796326794896
 42
4.71238898038486
  0
ELLIPSE
  5
50
330
2
100
AcDbEntity
  8
MSR_I4_4-2
100
AcDbEllipse
 10
-42.00000000000665
 20
-285.2155773275701
 30
0.0
 11
36.5
 21
0.0
 31
0.0
210
0.0
220
0.0
230
1.0
 40
0.8493150684931325
 41
1.570796326794896
 42
4.71238898038486
  0
ARC
  5
51
330
2
100
AcDbEntity
  8
MSR_I4_4-0
100
AcDbCircle
 10
-58.726628
 20
-207.0902213275708
 30
0.0
 40
3.20805
100
AcDbArc
 50
324.271069
 51
35.757539
  0
ARC
  5
52
330
2
100
AcDbEntity
  8
MSR_I4_4-0
100
AcDbCircle
 10
-64.31481200000002
 20
-207.0902213275708
 30
0.0
 40
3.208051999999999
100
AcDbArc
 50
144.242468
 51
215.728892
  0
LINE
  5
53
330
2
100
AcDbEntity
  8
MSR_I4_4-0
100
AcDbLine
 10
-76.02072200000003
 20
-273.9853171548726
 30
0.0
 11
-76.02072200000003
 21
-205.2155773275708
 31
0.0
  0
LINE
  5
54
330
2
100
AcDbEntity
  8
MSR_I4_4-0
100
AcDbLine
 10
-66.52072200000003
 20
-220.2155773275708
 30
0.0
 11
-66.52072200000003
 21
-262.2528841906018
 31
0.0
  0
LINE
  5
55
330
2
100
AcDbEntity
  8
MSR_I4_4-7
100
AcDbLine
 10
-85.26374600000002
 20
-265.2155773275707
 30
0.0
 11
-72.40499600000004
 21
-265.2155773275707
 31
0.0
  0
ARC
  5
56
330
2
100
AcDbEntity
  8
MSR_I4_4-0
100
AcDbCircle
 10
-79.63001200000002
 20
-272.5882813275707
 30
0.0
 40
3.610541999999999
100
AcDbArc
 50
317.43533
 51
43.06174099999999
  0
ARC
  5
57
330
2
100
AcDbEntity
  8
MSR_I4_4-0
100
AcDbCircle
 10
-88.90308599999997
 20
-265.2155773275707
 30
0.0
 40
12.882364
100
AcDbArc
 50
337.607749
 51
22.392254
  0
ARC
  5
58
330
2
100
AcDbEntity
  8
MSR_I4_4-0
100
AcDbCircle
 10
-79.63001200000002
 20
-257.8428713275707
 30
0.0
 40
3.610541999999999
100
AcDbArc
 50
316.938254
 51
42.56466599999999
  0
LINE
  5
59
330
2
100
AcDbEntity
  8
MSR_I4_4-0
100
AcDbLine
 10
-81.02072200000003
 20
-272.4932073275708
 30
0.0
 11
-81.02072200000003
 21
-257.9379453275708
 31
0.0
  0
ARC
  5
5A
330
2
100
AcDbEntity
  8
MSR_I4_4-0
100
AcDbCircle
 10
-68.13835799999998
 20
-265.2155773275707
 30
0.0
 40
12.882364
100
AcDbArc
 50
157.607743
 51
202.392254
  0
ARC
  5
5B
330
2
100
AcDbEntity
  8
MSR_I4_4-0
100
AcDbCircle
 10
-77.41143
 20
-272.5882813275707
 30
0.0
 40
3.610541999999999
100
AcDbArc
 50
136.93826
 51
222.564665
  0
LINE
  5
5C
330
2
100
AcDbEntity
  8
MSR_I4_4-0
100
AcDbLine
 10
-80.07064600000001
 20
-275.0305313275708
 30
0.0
 11
-76.97079600000001
 21
-275.0305313275708
 31
0.0
  0
LINE
  5
5D
330
2
100
AcDbEntity
  8
MSR_I4_4-0
100
AcDbLine
 10
-80.04936000000004
 20
-270.1230533275708
 30
0.0
 11
-76.99208400000003
 21
-270.1230533275708
 31
0.0
  0
LINE
  5
5E
330
2
100
AcDbEntity
  8
MSR_I4_4-0
100
AcDbLine
 10
-76.97079600000001
 20
-255.4006213275707
 30
0.0
 11
-80.07064800000007
 21
-255.4006213275707
 31
0.0
  0
LINE
  5
5F
330
2
100
AcDbEntity
  8
MSR_I4_4-0
100
AcDbLine
 10
-80.04936000000004
 20
-260.3080993275707
 30
0.0
 11
-76.99208400000003
 21
-260.3080993275707
 31
0.0
  0
ARC
  5
60
330
2
100
AcDbEntity
  8
MSR_I4_4-0
100
AcDbCircle
 10
-77.41143
 20
-257.8428713275707
 30
0.0
 40
3.610541999999999
100
AcDbArc
 50
137.435338
 51
223.061742
  0
ARC
  5
61
330
2
100
AcDbEntity
  8
MSR_I4_4-0
100
AcDbCircle
 10
-58.726628
 20
-278.3409293275707
 30
0.0
 40
3.20805
100
AcDbArc
 50
324.242434
 51
35.72893
  0
LINE
  5
62
330
2
100
AcDbEntity
  8
MSR_I4_4-0
100
AcDbLine
 10
-55.52072200000004
 20
-266.9729853275708
 30
0.0
 11
-55.52072200000004
 21
-278.4581653275708
 31
0.0
  0
ARC
  5
63
330
2
100
AcDbEntity
  8
MSR_I4_4-0
100
AcDbCircle
 10
-64.31481400000001
 20
-278.3409313275707
 30
0.0
 40
3.20805
100
AcDbArc
 50
144.271067
 51
215.75754
  0
LINE
  5
64
330
2
100
AcDbEntity
  8
MSR_I4_4-0
100
AcDbLine
 10
-67.52072200000004
 20
-268.4978508116383
 30
0.0
 11
-67.52072200000004
 21
-278.4581653275708
 31
0.0
  0
LINE
  5
65
330
2
100
AcDbEntity
  8
MSR_I4_4-0
100
AcDbLine
 10
-66.91813800000005
 20
-280.2155753275707
 30
0.0
 11
-56.12330600000001
 21
-280.2155753275707
 31
0.0
  0
LINE
  5
66
330
2
100
AcDbEntity
  8
MSR_I4_4-0
100
AcDbLine
 10
-67.50863600000002
 20
-280.2155773275707
 30
0.0
 11
-73.9378683515773
 21
-280.2155773275707
 31
0.0
  0
LINE
  5
67
330
2
100
AcDbEntity
  8
MSR_I4_4-0
100
AcDbLine
 10
-67.50863600000002
 20
-280.2155773275707
 30
0.0
 11
-67.50863600000002
 21
-280.2155773275707
 31
0.0
  0
LINE
  5
68
330
2
100
AcDbEntity
  8
MSR_I4_4-0
100
AcDbLine
 10
-66.91907200000002
 20
-276.4675853275708
 30
0.0
 11
-56.12236999999999
 21
-276.4675853275708
 31
0.0
  0
LINE
  5
69
330
2
100
AcDbEntity
  8
MSR_I4_4-0
100
AcDbLine
 10
-66.91907200000002
 20
-268.9635653275708
 30
0.0
 11
-56.12236999999999
 21
-268.9635653275708
 31
0.0
  0
ARC
  5
6A
330
2
100
AcDbEntity
  8
MSR_I4_4-0
100
AcDbCircle
 10
-64.31481200000002
 20
-267.0902213275707
 30
0.0
 40
3.208051999999999
100
AcDbArc
 50
201.5209949454155
 51
215.728892
  0
ARC
  5
6B
330
2
100
AcDbEntity
  8
MSR_I4_4-0
100
AcDbCircle
 10
-55.52071800000004
 20
-272.7155753275707
 30
0.0
 40
12.000004
100
AcDbArc
 50
161.779946
 51
198.220059
  0
ARC
  5
6C
330
2
100
AcDbEntity
  8
MSR_I4_4-0
100
AcDbCircle
 10
-58.726628
 20
-267.0902213275707
 30
0.0
 40
3.20805
100
AcDbArc
 50
324.271069
 51
35.757539
  0
ARC
  5
6D
330
2
100
AcDbEntity
  8
MSR_I4_4-0
100
AcDbCircle
 10
-67.36684400000001
 20
-272.7155753275707
 30
0.0
 40
11.853936
100
AcDbArc
 50
341.547393
 51
18.45261
  0
LINE
  5
6E
330
2
100
AcDbEntity
  8
MSR_I4_4-0
100
AcDbLine
 10
-63.83320767721258
 20
-265.2155773275707
 30
0.0
 11
-56.12330600000001
 21
-265.2155773275707
 31
0.0
  0
LINE
  5
6F
330
2
100
AcDbEntity
  8
MSR_I4_4-7
100
AcDbLine
 10
-85.26374600000002
 20
-220.2155773275708
 30
0.0
 11
-72.40499600000004
 21
-220.2155773275708
 31
0.0
  0
ARC
  5
70
330
2
100
AcDbEntity
  8
MSR_I4_4-0
100
AcDbCircle
 10
-88.90308599999997
 20
-220.2155753275708
 30
0.0
 40
12.882364
100
AcDbArc
 50
337.607746
 51
22.392251
  0
ARC
  5
71
330
2
100
AcDbEntity
  8
MSR_I4_4-0
100
AcDbCircle
 10
-79.63001200000002
 20
-212.8428713275708
 30
0.0
 40
3.610541999999999
100
AcDbArc
 50
316.938259
 51
42.56466999999999
  0
ARC
  5
72
330
2
100
AcDbEntity
  8
MSR_I4_4-0
100
AcDbCircle
 10
-79.63001200000002
 20
-227.5882813275708
 30
0.0
 40
3.610541999999999
100
AcDbArc
 50
317.435334
 51
43.061746
  0
LINE
  5
73
330
2
100
AcDbEntity
  8
MSR_I4_4-0
100
AcDbLine
 10
-81.02072200000003
 20
-212.9379453275707
 30
0.0
 11
-81.02072200000003
 21
-227.4932073275707
 31
0.0
  0
ARC
  5
74
330
2
100
AcDbEntity
  8
MSR_I4_4-0
100
AcDbCircle
 10
-68.13835799999998
 20
-220.2155753275708
 30
0.0
 40
12.882364
100
AcDbArc
 50
157.607746
 51
202.392257
  0
LINE
  5
75
330
2
100
AcDbEntity
  8
MSR_I4_4-0
100
AcDbLine
 10
-80.04936000000004
 20
-225.1230533275708
 30
0.0
 11
-76.99208400000003
 21
-225.1230533275708
 31
0.0
  0
LINE
  5
76
330
2
100
AcDbEntity
  8
MSR_I4_4-0
100
AcDbLine
 10
-76.97079600000001
 20
-230.0305313275708
 30
0.0
 11
-80.07064800000007
 21
-230.0305313275708
 31
0.0
  0
ARC
  5
77
330
2
100
AcDbEntity
  8
MSR_I4_4-0
100
AcDbCircle
 10
-77.41143
 20
-227.5882813275708
 30
0.0
 40
3.610541999999999
100
AcDbArc
 50
136.938258
 51
222.564662
  0
ARC
  5
78
330
2
100
AcDbEntity
  8
MSR_I4_4-0
100
AcDbCircle
 10
-77.41143
 20
-212.8428713275708
 30
0.0
 40
3.610541999999999
100
AcDbArc
 50
137.435335
 51
223.0617399999999
  0
LINE
  5
79
330
2
100
AcDbEntity
  8
MSR_I4_4-0
100
AcDbLine
 10
-80.07064600000001
 20
-210.4006213275707
 30
0.0
 11
-76.97079600000001
 21
-210.4006213275707
 31
0.0
  0
LINE
  5
7A
330
2
100
AcDbEntity
  8
MSR_I4_4-0
100
AcDbLine
 10
-80.04936000000004
 20
-215.3080993275708
 30
0.0
 11
-76.99208400000003
 21
-215.3080993275708
 31
0.0
  0
LINE
  5
7B
330
2
100
AcDbEntity
  8
MSR_I4_4-0
100
AcDbLine
 10
-62.52072200000004
 20
-242.7155773275707
 30
0.0
 11
-62.52072200000004
 21
-238.2155773275707
 31
0.0
  0
LINE
  5
7C
330
2
100
AcDbEntity
  8
MSR_I4_4-0
100
AcDbLine
 10
-56.52072200000003
 20
-237.2155773275707
 30
0.0
 11
-56.52072200000003
 21
-248.2155773275708
 31
0.0
  0
LINE
  5
7D
330
2
100
AcDbEntity
  8
MSR_I4_4-0
100
AcDbLine
 10
-56.52072200000003
 20
-248.2155773275708
 30
0.0
 11
-61.52072200000003
 21
-248.2155773275708
 31
0.0
  0
LINE
  5
7E
330
2
100
AcDbEntity
  8
MSR_I4_4-0
100
AcDbLine
 10
-62.52072200000004
 20
-247.2155773275707
 30
0.0
 11
-62.52072200000004
 21
-242.7155773275707
 31
0.0
  0
ARC
  5
7F
330
2
100
AcDbEntity
  8
MSR_I4_4-0
100
AcDbCircle
 10
-61.52072200000003
 20
-247.2155773275707
 30
0.0
 40
1.0
100
AcDbArc
 50
180.0000029999999
 51
270.000003
  0
LINE
  5
80
330
2
100
AcDbEntity
  8
MSR_I4_4-0
100
AcDbLine
 10
-61.52072200000003
 20
-237.2155773275707
 30
0.0
 11
-56.52072200000003
 21
-237.2155773275707
 31
0.0
  0
ARC
  5
81
330
2
100
AcDbEntity
  8
MSR_I4_4-0
100
AcDbCircle
 10
-61.52072200000003
 20
-238.2155773275707
 30
0.0
 40
1.0
100
AcDbArc
 50
90.0
 51
180.0000029999999
  0
LINE
  5
82
330
2
100
AcDbEntity
  8
MSR_I4_4-0
100
AcDbLine
 10
-66.91907200000002
 20
-208.9635673275707
 30
0.0
 11
-56.12236999999999
 21
-208.9635673275707
 31
0.0
  0
LINE
  5
83
330
2
100
AcDbEntity
  8
MSR_I4_4-0
100
AcDbLine
 10
-66.91907200000002
 20
-216.4675873275708
 30
0.0
 11
-56.12236999999999
 21
-216.4675873275708
 31
0.0
  0
LINE
  5
84
330
2
100
AcDbEntity
  8
MSR_I4_4-0
100
AcDbLine
 10
-66.91813800000005
 20
-220.2155773275708
 30
0.0
 11
-56.12330600000001
 21
-220.2155753275708
 31
0.0
  0
ARC
  5
85
330
2
100
AcDbEntity
  8
MSR_I4_4-0
100
AcDbCircle
 10
-64.31481400000001
 20
-218.3409313275708
 30
0.0
 40
3.20805
100
AcDbArc
 50
144.271067
 51
215.75754
  0
LINE
  5
86
330
2
100
AcDbEntity
  8
MSR_I4_4-0
100
AcDbLine
 10
-67.52072200000004
 20
-207.2074333275708
 30
0.0
 11
-67.52072200000004
 21
-218.4581673275707
 31
0.0
  0
ARC
  5
87
330
2
100
AcDbEntity
  8
MSR_I4_4-0
100
AcDbCircle
 10
-55.52071800000004
 20
-212.7155753275708
 30
0.0
 40
12.000004
100
AcDbArc
 50
161.779946
 51
198.220059
  0
ARC
  5
88
330
2
100
AcDbEntity
  8
MSR_I4_4-0
100
AcDbCircle
 10
-58.726628
 20
-218.3409293275708
 30
0.0
 40
3.20805
100
AcDbArc
 50
324.242434
 51
35.72893
  0
LINE
  5
89
330
2
100
AcDbEntity
  8
MSR_I4_4-0
100
AcDbLine
 10
-55.52072200000004
 20
-206.9729873275707
 30
0.0
 11
-55.52072200000004
 21
-218.4581673275707
 31
0.0
  0
ARC
  5
8A
330
2
100
AcDbEntity
  8
MSR_I4_4-0
100
AcDbCircle
 10
-67.36684400000001
 20
-212.7155773275708
 30
0.0
 40
11.853936
100
AcDbArc
 50
341.547393
 51
18.45261
  0
LINE
  5
8B
330
2
100
AcDbEntity
  8
MSR_I4_4-4A
100
AcDbLine
 10
-149.0
 20
-129.5252382809589
 30
0.0
 11
-81.00000000000006
 21
-129.525238280959
 31
0.0
  0
LINE
  5
8E
330
2
100
AcDbEntity
  8
MSR_I4_4-4A
100
AcDbLine
 10
-81.00000000000006
 20
-115.525238280959
 30
0.0
 11
-149.0
 21
-115.5252382809589
 31
0.0
  0
LINE
  5
8F
330
2
100
AcDbEntity
  8
MSR_I4_4-4A
100
AcDbLine
 10
-149.0
 20
-116.2752382809589
 30
0.0
 11
-81.00000000000006
 21
-116.2752382809589
 31
0.0
  0
LINE
  5
90
330
2
100
AcDbEntity
  8
MSR_I4_4-4A
100
AcDbLine
 10
-149.0
 20
-128.7752382809589
 30
0.0
 11
-81.00000000000006
 21
-128.7752382809589
 31
0.0
  0
LINE
  5
91
330
2
100
AcDbEntity
  8
MSR_I4_4-7
100
AcDbLine
 10
-74.61855400000001
 20
-122.5252382809589
 30
0.0
 11
-160.983516
 21
-122.5252382809589
 31
0.0
  0
LINE
  5
92
330
2
100
AcDbEntity
  8
MSR_I4_4-4A
100
AcDbLine
 10
-149.0
 20
-116.7752382809589
 30
0.0
 11
-156.0
 21
-116.7752382809589
 31
0.0
  0
LINE
  5
93
330
2
100
AcDbEntity
  8
MSR_I4_4-4A
100
AcDbLine
 10
-156.0
 20
-128.2752382809589
 30
0.0
 11
-149.0
 21
-128.2752382809589
 31
0.0
  0
LINE
  5
94
330
2
100
AcDbEntity
  8
MSR_I4_4-4A
100
AcDbLine
 10
-156.0
 20
-116.7752382809589
 30
0.0
 11
-156.0
 21
-128.2752382809589
 31
0.0
  0
LINE
  5
95
330
2
100
AcDbEntity
  8
MSR_I4_4-4A
100
AcDbLine
 10
-149.0
 20
-116.7752382809589
 30
0.0
 11
-149.0
 21
-128.2752382809589
 31
0.0
  0
LINE
  5
96
330
2
100
AcDbEntity
  8
MSR_I4_4-4A
100
AcDbLine
 10
-149.0
 20
-128.2752382809589
 30
0.0
 11
-149.0
 21
-129.5252382809589
 31
0.0
  0
LINE
  5
97
330
2
100
AcDbEntity
  8
MSR_I4_4-4A
100
AcDbLine
 10
-149.0
 20
-115.5252382809589
 30
0.0
 11
-149.0
 21
-116.7752382809589
 31
0.0
  0
LINE
  5
98
330
2
100
AcDbEntity
  8
MSR_I4_4-0
100
AcDbLine
 10
-76.00000000000005
 20
-102.5252382809589
 30
0.0
 11
-76.00000000000005
 21
-152.5252382809589
 31
0.0
  0
LINE
  5
99
330
2
100
AcDbEntity
  8
MSR_I4_4-0
100
AcDbLine
 10
-66.50000000000005
 20
-102.5252382809589
 30
0.0
 11
-66.50000000000005
 21
-152.5252382809589
 31
0.0
  0
LINE
  5
9A
330
2
100
AcDbEntity
  8
MSR_I4_4-0
100
AcDbLine
 10
-76.00000000000665
 20
-152.5252382809589
 30
0.0
 11
-76.00000000000665
 21
-164.5252382809589
 31
0.0
  0
ARC
  5
9B
330
2
100
AcDbEntity
  8
MSR_I4_4-0
100
AcDbCircle
 10
-88.015512
 20
-118.2752382809589
 30
0.0
 40
12.015512
100
AcDbArc
 50
339.285635
 51
20.714368
  0
LINE
  5
9C
330
2
100
AcDbEntity
  8
MSR_I4_4-0
100
AcDbLine
 10
-76.00000000000005
 20
-114.0252382809589
 30
0.0
 11
-81.00000000000006
 21
-114.0252382809589
 31
0.0
  0
LINE
  5
9D
330
2
100
AcDbEntity
  8
MSR_I4_4-0
100
AcDbLine
 10
-81.00000000000006
 20
-131.0252382809589
 30
0.0
 11
-76.00000000000005
 21
-131.0252382809589
 31
0.0
  0
ARC
  5
9E
330
2
100
AcDbEntity
  8
MSR_I4_4-0
100
AcDbCircle
 10
-88.01551999999999
 20
-126.7752362809589
 30
0.0
 40
12.01552
100
AcDbArc
 50
339.285646
 51
20.714354
  0
LINE
  5
9F
330
2
100
AcDbEntity
  8
MSR_I4_4-0
100
AcDbLine
 10
-81.00000000000006
 20
-114.0252382809589
 30
0.0
 11
-81.00000000000006
 21
-131.0252382809589
 31
0.0
  0
ARC
  5
A0
330
2
100
AcDbEntity
  8
MSR_I4_4-0
100
AcDbCircle
 10
-68.984486
 20
-126.7752382809589
 30
0.0
 40
12.015512
100
AcDbArc
 50
159.285631
 51
200.714371
  0
ARC
  5
A1
330
2
100
AcDbEntity
  8
MSR_I4_4-0
100
AcDbCircle
 10
-68.984486
 20
-118.2752382809589
 30
0.0
 40
12.015512
100
AcDbArc
 50
159.285632
 51
200.714369
  0
LINE
  5
A2
330
2
100
AcDbEntity
  8
MSR_I4_4-0
100
AcDbLine
 10
-80.22326000000004
 20
-122.5252382809589
 30
0.0
 11
-76.77673800000002
 21
-122.5252382809589
 31
0.0
  0
LINE
  5
A3
330
2
100
AcDbEntity
  8
MSR_I4_4-0
100
AcDbLine
 10
-76.00000000000665
 20
-152.5252382809589
 30
0.0
 11
-66.50000000000665
 21
-152.5252382809589
 31
0.0
  0
LINE
  5
A4
330
2
100
AcDbEntity
  8
MSR_I4_4-2
100
AcDbLine
 10
-78.50000000000665
 20
-69.27523828095167
 30
0.0
 11
-78.50000000000665
 21
-69.27523828095894
 31
0.0
  0
LINE
  5
A5
330
2
100
AcDbEntity
  8
MSR_I4_4-2
100
AcDbLine
 10
-78.50000000000665
 20
-69.27523828096622
 30
0.0
 11
-78.50000000000665
 21
-69.27523828095894
 31
0.0
  0
ARC
  5
A6
330
2
100
AcDbEntity
  8
MSR_I4_4-2
100
AcDbCircle
 10
-76.50000000000665
 20
-69.27523828095894
 30
0.0
 40
2.0
100
AcDbArc
 50
90.0
 51
179.9999999997915
1001
GENIUS_GENODEF_13
1002
{
1000
HIER
1070
     0
1002
}
1002
{
1000
MANEDIT
1070
     0
1002
}
1002
{
1000
NOSEL
1070
     0
1002
}
1002
{
1000
BEHIND
1070
     0
1002
}
1002
{
1000
REACTOR
1002
}
1001
GENIUS_GENOBJ-N-FIL_13
1002
{
1000
OWNER
1000
GEN
1002
}
  0
ARC
  5
B5
330
2
100
AcDbEntity
  8
MSR_I4_4-2
100
AcDbCircle
 10
-76.50000000000665
 20
-69.27523828095894
 30
0.0
 40
2.0
100
AcDbArc
 50
180.0000000002084
 51
270.0
1001
GENIUS_GENODEF_13
1002
{
1000
HIER
1070
     0
1002
}
1002
{
1000
MANEDIT
1070
     0
1002
}
1002
{
1000
NOSEL
1070
     0
1002
}
1002
{
1000
BEHIND
1070
     0
1002
}
1002
{
1000
REACTOR
1002
}
1001
GENIUS_GENOBJ-N-FIL_13
1002
{
1000
OWNER
1000
GEN
1002
}
  0
LINE
  5
B6
330
2
100
AcDbEntity
  8
MSR_I4_4-0
100
AcDbLine
 10
-57.50000000000006
 20
-95.52925828095903
 30
0.0
 11
-57.50000000000006
 21
-80.52121828095897
 31
0.0
  0
ARC
  5
B7
330
2
100
AcDbEntity
  8
MSR_I4_4-0
100
AcDbCircle
 10
-69.50000000000006
 20
-84.27322828095901
 30
0.0
 40
12.0
100
AcDbArc
 50
341.779943
 51
18.22006
  0
LINE
  5
B8
330
2
100
AcDbEntity
  8
MSR_I4_4-0
100
AcDbLine
 10
-69.50000000000006
 20
-80.52121828095897
 30
0.0
 11
-69.50000000000006
 21
-95.52925828095903
 31
0.0
  0
ARC
  5
B9
330
2
100
AcDbEntity
  8
MSR_I4_4-0
100
AcDbCircle
 10
-57.50000000000006
 20
-84.27322828095901
 30
0.0
 40
12.0
100
AcDbArc
 50
161.7799399999999
 51
198.220062
  0
LINE
  5
BA
330
2
100
AcDbEntity
  8
MSR_I4_4-0
100
AcDbLine
 10
-69.50000000000006
 20
-95.52925828095903
 30
0.0
 11
-57.50000000000006
 21
-95.52925828095903
 31
0.0
  0
LINE
  5
BB
330
2
100
AcDbEntity
  8
MSR_I4_4-0
100
AcDbLine
 10
-68.89834999999999
 20
-88.02523828095894
 30
0.0
 11
-58.10164800000001
 21
-88.02523828095894
 31
0.0
  0
LINE
  5
BC
330
2
100
AcDbEntity
  8
MSR_I4_4-0
100
AcDbLine
 10
-66.50000000000005
 20
-102.5252382809589
 30
0.0
 11
-76.00000000000005
 21
-102.5252382809589
 31
0.0
  0
ARC
  5
BD
330
2
100
AcDbEntity
  8
MSR_I4_4-0
100
AcDbCircle
 10
-57.50000000000006
 20
-91.77724828095898
 30
0.0
 40
12.0
100
AcDbArc
 50
161.779938
 51
198.220063
  0
LINE
  5
BE
330
2
100
AcDbEntity
  8
MSR_I4_4-0
100
AcDbLine
 10
-55.50000000000006
 20
-93.02523828095894
 30
0.0
 11
-55.50000000000006
 21
-96.02523828095895
 31
0.0
  0
ARC
  5
BF
330
2
100
AcDbEntity
  8
MSR_I4_4-0
100
AcDbCircle
 10
-69.50001000000003
 20
-91.777246280959
 30
0.0
 40
12.000012
100
AcDbArc
 50
341.779954
 51
18.220042
  0
LINE
  5
C0
330
2
100
AcDbEntity
  8
MSR_I4_4-0
100
AcDbLine
 10
-57.50000000000006
 20
-80.52121828095897
 30
0.0
 11
-69.50000000000006
 21
-80.52121828095897
 31
0.0
  0
LINE
  5
C1
330
2
100
AcDbEntity
  8
MSR_I4_4-0
100
AcDbLine
 10
-55.50000000000006
 20
-81.02523828095895
 30
0.0
 11
-55.50000000000006
 21
-83.02523828095894
 31
0.0
  0
ARC
  5
C2
330
2
100
AcDbEntity
  8
MSR_I4_4-0
100
AcDbCircle
 10
-79.60929000000001
 20
-29.872704
 30
0.0
 40
3.610541999999999
100
AcDbArc
 50
317.43533
 51
43.06174099999999
  0
LINE
  5
C3
330
2
100
AcDbEntity
  8
MSR_I4_4-7
100
AcDbLine
 10
-85.24302400000001
 20
-22.5
 30
0.0
 11
-72.38427400000003
 21
-22.5
 31
0.0
  0
ARC
  5
C4
330
2
100
AcDbEntity
  8
MSR_I4_4-0
100
AcDbCircle
 10
-88.88236400000002
 20
-22.5
 30
0.0
 40
12.882364
100
AcDbArc
 50
337.607749
 51
22.392254
  0
ARC
  5
C5
330
2
100
AcDbEntity
  8
MSR_I4_4-0
100
AcDbCircle
 10
-77.39070800000002
 20
-29.872704
 30
0.0
 40
3.610541999999999
100
AcDbArc
 50
136.93826
 51
222.564665
  0
LINE
  5
C6
330
2
100
AcDbEntity
  8
MSR_I4_4-0
100
AcDbLine
 10
-80.04992400000004
 20
-32.314954
 30
0.0
 11
-76.95007400000003
 21
-32.314954
 31
0.0
  0
LINE
  5
C7
330
2
100
AcDbEntity
  8
MSR_I4_4-0
100
AcDbLine
 10
-80.02863800000003
 20
-17.59252199999997
 30
0.0
 11
-76.97136200000002
 21
-17.59252199999997
 31
0.0
  0
LINE
  5
C8
330
2
100
AcDbEntity
  8
MSR_I4_4-0
100
AcDbLine
 10
-80.02863800000003
 20
-27.40747599999997
 30
0.0
 11
-76.97136200000002
 21
-27.40747599999997
 31
0.0
  0
ARC
  5
C9
330
2
100
AcDbEntity
  8
MSR_I4_4-0
100
AcDbCircle
 10
-68.117636
 20
-22.5
 30
0.0
 40
12.882364
100
AcDbArc
 50
157.607743
 51
202.392254
  0
LINE
  5
CA
330
2
100
AcDbEntity
  8
MSR_I4_4-0
100
AcDbLine
 10
71.97927799999996
 20
-205.2155773275708
 30
0.0
 11
71.97927799999996
 21
-280.2155773275707
 31
0.0
  0
LINE
  5
CB
330
2
100
AcDbEntity
  8
MSR_I4_4-0
100
AcDbLine
 10
66.47927799999997
 20
-205.2155773275708
 30
0.0
 11
66.47927799999997
 21
-280.2155773275707
 31
0.0
  0
LINE
  5
CC
330
2
100
AcDbEntity
  8
MSR_I4_4-2
100
AcDbLine
 10
37.47927799999997
 20
-205.2155773275708
 30
0.0
 11
37.47927799999997
 21
-280.2155773275707
 31
0.0
  0
LINE
  5
CD
330
2
100
AcDbEntity
  8
MSR_I4_4-0
100
AcDbLine
 10
-49.52072200000003
 20
-220.7155773275708
 30
0.0
 11
-49.52072200000003
 21
-205.2155773275708
 31
0.0
  0
LINE
  5
CE
330
2
100
AcDbEntity
  8
MSR_I4_4-0
100
AcDbLine
 10
-43.52072200000003
 20
-205.2155773275708
 30
0.0
 11
-43.52072200000003
 21
-254.242494796351
 31
0.0
  0
LINE
  5
CF
330
2
100
AcDbEntity
  8
MSR_I4_4-2
100
AcDbLine
 10
-37.52072200000004
 20
-280.2155773275707
 30
0.0
 11
-37.52072200000004
 21
-205.2155773275708
 31
0.0
  0
INSERT
  5
D0
330
2
100
AcDbEntity
  8
MSR_I4_4-2
100
AcDbBlockReference
  2
*U20
 10
37.47927799999951
 20
-225.7155773275708
 30
0.0
 50
180.0
1001
GENIUS_GEFPARTINS_13
1002
{
1011
37.47927799999951
1021
-225.7155773275708
1031
0.0
1013
-1.0
1023
0.0000000000000001
1033
0.0
1002
}
1001
VCC
1002
{
1000
-ID38
1000
-IE9
1000
-IK38
1000
-V$PV_GENSYSTEM"GEF\VAL\DI\0401\DI1616_V.DXF"
1002
}
1001
GEVIT
1002
{
1000
-BEHI9.00000001
1000
-BVCCT0
1000
-T2
1000
-GRP0MSR_4-2
1000
-BAML2
1000
-BASK1
1000
-NT0
1000
-DOC
1005
E0
1000
-MYREF
1005
D0
1002
}
1001
GEVPT
1002
{
1000
-V$PV_GENSYSTEM"GEF\VAL\DI\0401\DI1616_V.DXF"
1000
-FIXPLOTI=5.000000000000000E+00
1000
-GPGEVBHOP=2
1000
-GPGEF_PROCALC=1
1000
-GPGEF_FLIPY=1
1000
-GPGEF_FLIPX=1
1000
-GPGEF_SNK_ADD=0
1000
-GPGEVPROMPTX=Länge:
1000
-GPGEF_OANG=70
1000
-GPGEF_STANG=210
1000
-GPGEF_DRAG=1
1000
-GPGEF_CDIST=3
1000
-GPVCC_TABLE=C:\GENIUS\gef\val\di\0401\di1616.val
1000
-GPNND=5
1000
-GPPRE=M
1002
}
1001
GENIUS_GENOREF_13
1005
50A
1001
GEVMK
1002
{
1000
-CO
1000
-MYREF
1005
D0
1002
}
1001
GEVID891340558
1002
{
1002
}
  0
INSERT
  5
F4
330
2
100
AcDbEntity
  8
MSR_I4_4-2
100
AcDbBlockReference
  2
*U22
 10
37.47927799999951
 20
-259.7155773275707
 30
0.0
 50
180.0
1001
GENIUS_GEFPARTINS_13
1002
{
1011
37.47927799999951
1021
-259.7155773275707
1031
0.0
1013
-1.0
1023
0.0000000000000001
1033
0.0
1002
}
1001
VCC
1002
{
1000
-ID39
1000
-IE10
1000
-IK39
1000
-V$PV_GENSYSTEM"GEF\VAL\DI\0401\DI1616_V.DXF"
1002
}
1001
GEVIT
1002
{
1000
-BEHI10.00000001
1000
-BVCCT0
1000
-T2
1000
-GRP0MSR_4-2
1000
-BAML2
1000
-BASK1
1000
-NT0
1000
-DOC
1005
FF
1000
-MYREF
1005
F4
1002
}
1001
GEVPT
1002
{
1000
-V$PV_GENSYSTEM"GEF\VAL\DI\0401\DI1616_V.DXF"
1000
-FIXPLOTI=5.000000000000000E+00
1000
-GPGEVBHOP=2
1000
-GPGEF_PROCALC=1
1000
-GPGEF_FLIPY=1
1000
-GPGEF_FLIPX=1
1000
-GPGEF_SNK_ADD=0
1000
-GPGEVPROMPTX=Länge:
1000
-GPGEF_OANG=70
1000
-GPGEF_STANG=210
1000
-GPGEF_DRAG=1
1000
-GPGEF_CDIST=3
1000
-GPVCC_TABLE=C:\GENIUS\gef\val\di\0401\di1616.val
1000
-GPNND=5
1000
-GPPRE=M
1002
}
1001
GENIUS_GENOREF_13
1005
509
1001
GEVMK
1002
{
1000
-CO
1000
-MYREF
1005
F4
1002
}
1001
GEVID891340559
1002
{
1002
}
  0
LINE
  5
109
330
2
100
AcDbEntity
  8
MSR_I4_4-2
100
AcDbLine
 10
-37.52072200000004
 20
-280.2155773275707
 30
0.0
 11
37.47927799999997
 21
-280.2155773275707
 31
0.0
  0
LINE
  5
10A
330
2
100
AcDbEntity
  8
MSR_I4_4-2
100
AcDbLine
 10
-37.52072200000004
 20
-298.2155773275707
 30
0.0
 11
37.47927799999997
 21
-298.2155773275707
 31
0.0
  0
LINE
  5
10B
330
2
100
AcDbEntity
  8
MSR_I4_4-2
100
AcDbLine
 10
-19.50000000000261
 20
-304.2155773275707
 30
0.0
 11
-19.49999999999505
 21
-299.2155773275707
 31
0.0
  0
LINE
  5
10C
330
2
100
AcDbEntity
  8
MSR_I4_4-2
100
AcDbLine
 10
-33.50000000000262
 20
-299.215577327578
 30
0.0
 11
-33.50000000000233
 21
-304.2155773275707
 31
0.0
  0
LINE
  5
10D
330
2
100
AcDbEntity
  8
MSR_I4_4-2
100
AcDbLine
 10
-19.50000000000261
 20
-304.2155773275707
 30
0.0
 11
-33.50000000000233
 21
-304.2155773275707
 31
0.0
  0
LINE
  5
10E
330
2
100
AcDbEntity
  8
MSR_I4_4-2
100
AcDbLine
 10
-20.50000000000961
 20
-320.2155773275707
 30
0.0
 11
-32.50000000000233
 21
-320.2155773275707
 31
0.0
  0
LINE
  5
10F
330
2
100
AcDbEntity
  8
MSR_I4_4-2
100
AcDbLine
 10
-32.50000000000233
 20
-320.2155773275707
 30
0.0
 11
-32.50000000000227
 21
-304.2155773275707
 31
0.0
  0
LINE
  5
110
330
2
100
AcDbEntity
  8
MSR_I4_4-2
100
AcDbLine
 10
-42.00000000000665
 20
-319.7155773275694
 30
0.0
 11
-42.00000000000665
 21
-308.7155773275694
 31
0.0
  0
LINE
  5
111
330
2
100
AcDbEntity
  8
MSR_I4_4-2
100
AcDbLine
 10
-32.50000000000233
 20
-319.7155773275702
 30
0.0
 11
-42.00000000000665
 21
-319.7155773275694
 31
0.0
  0
LINE
  5
112
330
2
100
AcDbEntity
  8
MSR_I4_4-2
100
AcDbLine
 10
-42.00000000000665
 20
-308.7155773275694
 30
0.0
 11
-32.5000000000023
 21
-308.7155773275695
 31
0.0
  0
LINE
  5
113
330
2
100
AcDbEntity
  8
MSR_I4_4-2
100
AcDbLine
 10
-20.50000000000233
 20
-304.2155773275707
 30
0.0
 11
-20.50000000000961
 21
-320.2155773275707
 31
0.0
  0
LINE
  5
114
330
2
100
AcDbEntity
  8
MSR_I4_4-7
100
AcDbLine
 10
12.08202399999999
 20
-242.7155773275707
 30
0.0
 11
-12.68297599999999
 21
-242.7155773275707
 31
0.0
  0
LINE
  5
115
330
2
100
AcDbEntity
  8
MSR_I4_4-0
100
AcDbLine
 10
-53.52072200000003
 20
-255.8002887885388
 30
0.0
 11
-53.52072200000003
 21
-220.7155773275708
 31
0.0
  0
LINE
  5
116
330
2
100
AcDbEntity
  8
MSR_I4_4-2
100
AcDbLine
 10
-33.50000000000262
 20
-299.215577327578
 30
0.0
 11
-19.49999999999505
 21
-299.2155773275707
 31
0.0
  0
LINE
  5
117
330
2
100
AcDbEntity
  8
MSR_I4_4-0
100
AcDbLine
 10
-43.52072200000003
 20
-258.2451509562055
 30
0.0
 11
-43.52072200000003
 21
-280.2155773275707
 31
0.0
  0
LINE
  5
118
330
2
100
AcDbEntity
  8
MSR_I4_4-0
100
AcDbLine
 10
-49.52072200000003
 20
-280.2155773275707
 30
0.0
 11
-49.52072200000003
 21
-264.7155773275707
 31
0.0
  0
LINE
  5
119
330
2
100
AcDbEntity
  8
MSR_I4_4-2
100
AcDbLine
 10
-37.52072200000004
 20
-280.2155773275707
 30
0.0
 11
-37.52072200000004
 21
-298.2155773275707
 31
0.0
  0
LINE
  5
11A
330
2
100
AcDbEntity
  8
MSR_I4_4-0
100
AcDbLine
 10
-53.52072200000003
 20
-264.7155773275707
 30
0.0
 11
-53.52072200000003
 21
-259.9688986438108
 31
0.0
  0
LINE
  5
11B
330
2
100
AcDbEntity
  8
MSR_I4_4-0
100
AcDbLine
 10
-49.52072200000003
 20
-264.7155773275707
 30
0.0
 11
-53.52072200000003
 21
-264.7155773275707
 31
0.0
  0
LINE
  5
11C
330
2
100
AcDbEntity
  8
MSR_I4_4-2
100
AcDbLine
 10
-42.00000000001392
 20
-254.2155773275707
 30
0.0
 11
-37.52072200000049
 21
-254.2155773275707
 31
0.0
  0
LINE
  5
11D
330
2
100
AcDbEntity
  8
MSR_I4_4-2
100
AcDbLine
 10
-42.00000000000665
 20
-258.2155773275694
 30
0.0
 11
-37.52072200000004
 21
-258.2155773275695
 31
0.0
  0
INSERT
  5
11E
330
2
100
AcDbEntity
  8
MSR_I4_4-2
100
AcDbBlockReference
  2
*U60
 10
-16.00000000000665
 20
-280.2155773275707
 30
0.0
 50
90.0
1001
GENIUS_GEFPARTINS_13
1002
{
1011
-16.00000000000665
1021
-280.2155773275707
1031
0.0
1013
0.0000000000000001
1023
1.0
1033
0.0
1002
}
1001
VCC
1002
{
1000
-ID58
1000
-IE30
1000
-IK58
1000
-V$PV_GENSYSTEM"GEF\VAL\DI\0401\DI1616_V.DXF"
1002
}
1001
GEVIT
1002
{
1000
-BEHI29.00000001
1000
-BVCCT0
1000
-T2
1000
-GRP0MSR_4-2
1000
-BAML2
1000
-BASK1
1000
-NT0
1000
-DOC
1005
129
1000
-MYREF
1005
11E
1002
}
1001
GEVPT
1002
{
1000
-V$PV_GENSYSTEM"GEF\VAL\DI\0401\DI1616_V.DXF"
1000
-FIXPLOTI=5.000000000000000E+00
1000
-GPGEVBHOP=2
1000
-GPGEF_PROCALC=1
1000
-GPGEF_FLIPY=1
1000
-GPGEF_FLIPX=1
1000
-GPGEF_SNK_ADD=0
1000
-GPGEVPROMPTX=Länge:
1000
-GPGEF_OANG=70
1000
-GPGEF_STANG=210
1000
-GPGEF_DRAG=1
1000
-GPGEF_CDIST=3
1000
-GPVCC_TABLE=C:\GENIUS\gef\val\di\0401\di1616.val
1000
-GPNND=5
1000
-GPPRE=M
1002
}
1001
GENIUS_GENOREF_13
1005
508
1001
GEVMK
1002
{
1000
-CO
1000
-MYREF
1005
11E
1002
}
1001
GEVID891340578
1002
{
1002
}
  0
LINE
  5
133
330
2
100
AcDbEntity
  8
MSR_I4_4-2
100
AcDbLine
 10
-31.00000000000262
 20
-298.2155773275707
 30
0.0
 11
-31.00000000000148
 21
-299.2155773275751
 31
0.0
  0
LINE
  5
134
330
2
100
AcDbEntity
  8
MSR_I4_4-2
100
AcDbLine
 10
-22.00000000000262
 20
-298.2155773275707
 30
0.0
 11
-22.00000000000262
 21
-299.2155773275707
 31
0.0
  0
CIRCLE
  5
135
330
2
100
AcDbEntity
  8
MSR_I4_4-2
100
AcDbCircle
 10
-24.02072200000004
 20
-266.7155773275707
 30
0.0
 40
5.0
  0
LINE
  5
136
330
2
100
AcDbEntity
  8
MSR_I4_4-7
100
AcDbLine
 10
-30.608496
 20
-266.7155773275707
 30
0.0
 11
-17.551308
 21
-266.7155773275707
 31
0.0
1001
GENIUS_GENOREF_13
1005
507
  0
INSERT
  5
137
330
2
100
AcDbEntity
  8
MSR_I4_4-2
100
AcDbBlockReference
  2
*U6
 10
-24.02072200000004
 20
-266.7155773275707
 30
0.0
1001
GENIUS_GEFPARTINS_13
1002
{
1011
-24.02072200000004
1021
-266.7155773275707
1031
0.0
1013
1.0
1023
0.0
1033
0.0
1002
}
1001
VCC
1002
{
1000
-ID31
1000
-IE2
1000
-IK31
1000
-V$PV_GENSYSTEM"GEF\VAL\DI\0401\DI1616_D.DXF"
1002
}
1001
GEVIT
1002
{
1000
-BEHI2.00000001
1000
-BVCCT0
1000
-GRP0?
1000
-BAML2
1000
-BASK1
1000
-NT0
1000
-DOC
1005
13F
1000
-MYREF
1005
137
1002
}
1001
GEVPT
1002
{
1000
-V$PV_GENSYSTEM"GEF\VAL\DI\0401\DI1616_D.DXF"
1000
-GPGEF_PROCALC=1
1000
-GPGEF_FLIPY=1
1000
-GPGEF_FLIPX=1
1000
-GPGEF_SNK_ADD=0
1000
-GPGEVPROMPTX=Länge:
1000
-GPGEF_OANG=70
1000
-GPGEF_STANG=210
1000
-GPGEF_DRAG=1
1000
-GPGEF_CDIST=3
1000
-GPVCC_TABLE=C:\GENIUS\gef\val\di\0401\di1616.val
1000
-GPNND=8
1000
-GPPRE=M
1002
}
1001
GENIUS_GENOREF_13
1005
506
1005
505
1001
GEVMK
1002
{
1000
-CO
1000
-MYREF
1005
137
1002
}
1001
GEVID891340551
1002
{
1002
}
  0
LINE
  5
148
330
2
100
AcDbEntity
  8
MSR_I4_4-7
100
AcDbLine
 10
-24.02072200000004
 20
-260.1596213275708
 30
0.0
 11
-24.02072200000004
 21
-272.8993093275708
 31
0.0
1001
GENIUS_GENOREF_13
1005
507
  0
INSERT
  5
149
330
2
100
AcDbEntity
  8
MSR_I4_4-2
100
AcDbBlockReference
  2
*U24
 10
-37.52072200000004
 20
-242.7155773275707
 30
0.0
1001
GENIUS_GEFPARTINS_13
1002
{
1011
-37.52072200000004
1021
-242.7155773275707
1031
0.0
1013
1.0
1023
0.0
1033
0.0
1002
}
1001
VCC
1002
{
1000
-ID40
1000
-IE11
1000
-IK40
1000
-V$PV_GENSYSTEM"GEF\VAL\DI\0401\DI1616_V.DXF"
1002
}
1001
GEVIT
1002
{
1000
-BEHI11.00000001
1000
-BVCCT0
1000
-T2
1000
-GRP0MSR_4-2
1000
-BAML2
1000
-BASK1
1000
-NT0
1000
-DOC
1005
154
1000
-MYREF
1005
149
1002
}
1001
GEVPT
1002
{
1000
-V$PV_GENSYSTEM"GEF\VAL\DI\0401\DI1616_V.DXF"
1000
-FIXPLOTI=5.000000000000000E+00
1000
-GPGEVBHOP=2
1000
-GPGEF_PROCALC=1
1000
-GPGEF_FLIPY=1
1000
-GPGEF_FLIPX=1
1000
-GPGEF_SNK_ADD=0
1000
-GPGEVPROMPTX=Länge:
1000
-GPGEF_OANG=70
1000
-GPGEF_STANG=210
1000
-GPGEF_DRAG=1
1000
-GPGEF_CDIST=3
1000
-GPVCC_TABLE=C:\GENIUS\gef\val\di\0401\di1616.val
1000
-GPNND=5
1000
-GPPRE=M
1002
}
1001
GENIUS_GENOREF_13
1005
504
1001
GEVMK
1002
{
1000
-CO
1000
-MYREF
1005
149
1002
}
1001
GEVID891340560
1002
{
1002
}
  0
INSERT
  5
15E
330
2
100
AcDbEntity
  8
MSR_I4_4-2
100
AcDbBlockReference
  2
*U26
 10
-37.52072200000004
 20
-229.2155773275708
 30
0.0
1001
GENIUS_GEFPARTINS_13
1002
{
1011
-37.52072200000004
1021
-229.2155773275708
1031
0.0
1013
1.0
1023
0.0
1033
0.0
1002
}
1001
VCC
1002
{
1000
-ID41
1000
-IE12
1000
-IK41
1000
-V$PV_GENSYSTEM"GEF\VAL\DI\0401\DI1616_V.DXF"
1002
}
1001
GEVIT
1002
{
1000
-BEHI12.00000001
1000
-BVCCT0
1000
-T2
1000
-GRP0MSR_4-2
1000
-BAML2
1000
-BASK1
1000
-NT0
1000
-DOC
1005
169
1000
-MYREF
1005
15E
1002
}
1001
GEVPT
1002
{
1000
-V$PV_GENSYSTEM"GEF\VAL\DI\0401\DI1616_V.DXF"
1000
-FIXPLOTI=5.000000000000000E+00
1000
-GPGEVBHOP=2
1000
-GPGEF_PROCALC=1
1000
-GPGEF_FLIPY=1
1000
-GPGEF_FLIPX=1
1000
-GPGEF_SNK_ADD=0
1000
-GPGEVPROMPTX=Länge:
1000
-GPGEF_OANG=70
1000
-GPGEF_STANG=210
1000
-GPGEF_DRAG=1
1000
-GPGEF_CDIST=3
1000
-GPVCC_TABLE=C:\GENIUS\gef\val\di\0401\di1616.val
1000
-GPNND=5
1000
-GPPRE=M
1002
}
1001
GENIUS_GENOREF_13
1005
503
1001
GEVMK
1002
{
1000
-CO
1000
-MYREF
1005
15E
1002
}
1001
GEVID891340561
1002
{
1002
}
  0
LINE
  5
173
330
2
100
AcDbEntity
  8
MSR_I4_4-0
100
AcDbLine
 10
-53.52072200000003
 20
-220.7155773275708
 30
0.0
 11
-49.52072200000003
 21
-220.7155773275708
 31
0.0
  0
LINE
  5
174
330
2
100
AcDbEntity
  8
MSR_I4_4-7
100
AcDbLine
 10
-30.608496
 20
-218.7155773275708
 30
0.0
 11
-17.551308
 21
-218.7155773275708
 31
0.0
1001
GENIUS_GENOREF_13
1005
502
  0
CIRCLE
  5
175
330
2
100
AcDbEntity
  8
MSR_I4_4-2
100
AcDbCircle
 10
-24.02072200000004
 20
-218.7155773275708
 30
0.0
 40
5.0
  0
INSERT
  5
176
330
2
100
AcDbEntity
  8
MSR_I4_4-2
100
AcDbBlockReference
  2
*U4
 10
-24.02072200000004
 20
-218.7155773275708
 30
0.0
1001
GENIUS_GEFPARTINS_13
1002
{
1011
-24.02072200000004
1021
-218.7155773275708
1031
0.0
1013
1.0
1023
0.0
1033
0.0
1002
}
1001
VCC
1002
{
1000
-ID30
1000
-IE1
1000
-IK30
1000
-V$PV_GENSYSTEM"GEF\VAL\DI\0401\DI1616_D.DXF"
1002
}
1001
GEVIT
1002
{
1000
-BEHI1.00000001
1000
-BVCCT0
1000
-GRP0?
1000
-BAML2
1000
-BASK1
1000
-NT0
1000
-DOC
1005
17E
1000
-MYREF
1005
176
1002
}
1001
GEVPT
1002
{
1000
-V$PV_GENSYSTEM"GEF\VAL\DI\0401\DI1616_D.DXF"
1000
-GPGEF_PROCALC=1
1000
-GPGEF_FLIPY=1
1000
-GPGEF_FLIPX=1
1000
-GPGEF_SNK_ADD=0
1000
-GPGEVPROMPTX=Länge:
1000
-GPGEF_OANG=70
1000
-GPGEF_STANG=210
1000
-GPGEF_DRAG=1
1000
-GPGEF_CDIST=3
1000
-GPVCC_TABLE=C:\GENIUS\gef\val\di\0401\di1616.val
1000
-GPNND=8
1000
-GPPRE=M
1002
}
1001
GENIUS_GENOREF_13
1005
501
1005
500
1001
GEVMK
1002
{
1000
-CO
1000
-MYREF
1005
176
1002
}
1001
GEVID891340550
1002
{
1002
}
  0
LINE
  5
187
330
2
100
AcDbEntity
  8
MSR_I4_4-7
100
AcDbLine
 10
-24.02072200000004
 20
-212.1596213275708
 30
0.0
 11
-24.02072200000004
 21
-224.8993093275707
 31
0.0
1001
GENIUS_GENOREF_13
1005
502
  0
INSERT
  5
188
330
2
100
AcDbEntity
  8
MSR_I4_4-2
100
AcDbBlockReference
  2
*U58
 10
-0.0207220000000348
 20
-280.2155773275707
 30
0.0
 50
90.0
1001
GENIUS_GEFPARTINS_13
1002
{
1011
-0.0207220000000348
1021
-280.2155773275707
1031
0.0
1013
0.0000000000000001
1023
1.0
1033
0.0
1002
}
1001
VCC
1002
{
1000
-ID57
1000
-IE29
1000
-IK57
1000
-V$PV_GENSYSTEM"GEF\VAL\DI\0401\DI1616_V.DXF"
1002
}
1001
GEVIT
1002
{
1000
-BEHI28.00000001
1000
-BVCCT0
1000
-T2
1000
-GRP0MSR_4-2
1000
-BAML2
1000
-BASK1
1000
-NT0
1000
-DOC
1005
193
1000
-MYREF
1005
188
1002
}
1001
GEVPT
1002
{
1000
-V$PV_GENSYSTEM"GEF\VAL\DI\0401\DI1616_V.DXF"
1000
-FIXPLOTI=5.000000000000000E+00
1000
-GPGEVBHOP=2
1000
-GPGEF_PROCALC=1
1000
-GPGEF_FLIPY=1
1000
-GPGEF_FLIPX=1
1000
-GPGEF_SNK_ADD=0
1000
-GPGEVPROMPTX=Länge:
1000
-GPGEF_OANG=70
1000
-GPGEF_STANG=210
1000
-GPGEF_DRAG=1
1000
-GPGEF_CDIST=3
1000
-GPVCC_TABLE=C:\GENIUS\gef\val\di\0401\di1616.val
1000
-GPNND=5
1000
-GPPRE=M
1002
}
1001
GENIUS_GENOREF_13
1005
4FF
1001
GEVMK
1002
{
1000
-CO
1000
-MYREF
1005
188
1002
}
1001
GEVID891340577
1002
{
1002
}
  0
INSERT
  5
19D
330
2
100
AcDbEntity
  8
MSR_I4_4-2
100
AcDbBlockReference
  2
*U56
 10
15.99999999999335
 20
-280.2155773275707
 30
0.0
 50
90.0
1001
GENIUS_GEFPARTINS_13
1002
{
1011
15.99999999999335
1021
-280.2155773275707
1031
0.0
1013
0.0000000000000001
1023
1.0
1033
0.0
1002
}
1001
VCC
1002
{
1000
-ID56
1000
-IE28
1000
-IK56
1000
-V$PV_GENSYSTEM"GEF\VAL\DI\0401\DI1616_V.DXF"
1002
}
1001
GEVIT
1002
{
1000
-BEHI27.00000001
1000
-BVCCT0
1000
-T2
1000
-GRP0MSR_4-2
1000
-BAML2
1000
-BASK1
1000
-NT0
1000
-DOC
1005
1A8
1000
-MYREF
1005
19D
1002
}
1001
GEVPT
1002
{
1000
-V$PV_GENSYSTEM"GEF\VAL\DI\0401\DI1616_V.DXF"
1000
-FIXPLOTI=5.000000000000000E+00
1000
-GPGEVBHOP=2
1000
-GPGEF_PROCALC=1
1000
-GPGEF_FLIPY=1
1000
-GPGEF_FLIPX=1
1000
-GPGEF_SNK_ADD=0
1000
-GPGEVPROMPTX=Länge:
1000
-GPGEF_OANG=70
1000
-GPGEF_STANG=210
1000
-GPGEF_DRAG=1
1000
-GPGEF_CDIST=3
1000
-GPVCC_TABLE=C:\GENIUS\gef\val\di\0401\di1616.val
1000
-GPNND=5
1000
-GPPRE=M
1002
}
1001
GENIUS_GENOREF_13
1005
4FE
1001
GEVMK
1002
{
1000
-CO
1000
-MYREF
1005
19D
1002
}
1001
GEVID891340576
1002
{
1002
}
  0
CIRCLE
  5
1B2
330
2
100
AcDbEntity
  8
MSR_I4_4-2
100
AcDbCircle
 10
23.97927799999997
 20
-266.7155773275707
 30
0.0
 40
5.0
  0
LINE
  5
1B3
330
2
100
AcDbEntity
  8
MSR_I4_4-7
100
AcDbLine
 10
17.39150399999999
 20
-266.7155773275707
 30
0.0
 11
30.44869199999999
 21
-266.7155773275707
 31
0.0
1001
GENIUS_GENOREF_13
1005
4FD
  0
INSERT
  5
1B4
330
2
100
AcDbEntity
  8
MSR_I4_4-2
100
AcDbBlockReference
  2
*U8
 10
23.97927799999997
 20
-266.7155773275707
 30
0.0
1001
GENIUS_GEFPARTINS_13
1002
{
1011
23.97927799999997
1021
-266.7155773275707
1031
0.0
1013
1.0
1023
0.0
1033
0.0
1002
}
1001
VCC
1002
{
1000
-ID32
1000
-IE3
1000
-IK32
1000
-V$PV_GENSYSTEM"GEF\VAL\DI\0401\DI1616_D.DXF"
1002
}
1001
GEVIT
1002
{
1000
-BEHI3.00000001
1000
-BVCCT0
1000
-GRP0?
1000
-BAML2
1000
-BASK1
1000
-NT0
1000
-DOC
1005
1BC
1000
-MYREF
1005
1B4
1002
}
1001
GEVPT
1002
{
1000
-V$PV_GENSYSTEM"GEF\VAL\DI\0401\DI1616_D.DXF"
1000
-GPGEF_PROCALC=1
1000
-GPGEF_FLIPY=1
1000
-GPGEF_FLIPX=1
1000
-GPGEF_SNK_ADD=0
1000
-GPGEVPROMPTX=Länge:
1000
-GPGEF_OANG=70
1000
-GPGEF_STANG=210
1000
-GPGEF_DRAG=1
1000
-GPGEF_CDIST=3
1000
-GPVCC_TABLE=C:\GENIUS\gef\val\di\0401\di1616.val
1000
-GPNND=8
1000
-GPPRE=M
1002
}
1001
GENIUS_GENOREF_13
1005
4FC
1005
4FB
1001
GEVMK
1002
{
1000
-CO
1000
-MYREF
1005
1B4
1002
}
1001
GEVID891340552
1002
{
1002
}
  0
LINE
  5
1C5
330
2
100
AcDbEntity
  8
MSR_I4_4-7
100
AcDbLine
 10
23.97927799999997
 20
-260.1596213275708
 30
0.0
 11
23.97927799999997
 21
-272.8993093275708
 31
0.0
1001
GENIUS_GENOREF_13
1005
4FD
  0
LINE
  5
1C6
330
2
100
AcDbEntity
  8
MSR_I4_4-7
100
AcDbLine
 10
-0.0207220000000348
 20
-230.1601073275707
 30
0.0
 11
-0.0207220000000348
 21
-253.1517353275707
 31
0.0
  0
CIRCLE
  5
1C7
330
2
100
AcDbEntity
  8
MSR_I4_4-2
100
AcDbCircle
 10
23.97927799999997
 20
-218.7155773275708
 30
0.0
 40
5.0
  0
LINE
  5
1C8
330
2
100
AcDbEntity
  8
MSR_I4_4-7
100
AcDbLine
 10
17.39150399999999
 20
-218.7155773275708
 30
0.0
 11
30.44869199999999
 21
-218.7155773275708
 31
0.0
1001
GENIUS_GENOREF_13
1005
4FA
  0
INSERT
  5
1C9
330
2
100
AcDbEntity
  8
MSR_I4_4-2
100
AcDbBlockReference
  2
*U10
 10
23.97927799999997
 20
-218.7155773275708
 30
0.0
1001
GENIUS_GEFPARTINS_13
1002
{
1011
23.97927799999997
1021
-218.7155773275708
1031
0.0
1013
1.0
1023
0.0
1033
0.0
1002
}
1001
VCC
1002
{
1000
-ID33
1000
-IE4
1000
-IK33
1000
-V$PV_GENSYSTEM"GEF\VAL\DI\0401\DI1616_D.DXF"
1002
}
1001
GEVIT
1002
{
1000
-BEHI4.00000001
1000
-BVCCT0
1000
-GRP0?
1000
-BAML2
1000
-BASK1
1000
-NT0
1000
-DOC
1005
1D1
1000
-MYREF
1005
1C9
1002
}
1001
GEVPT
1002
{
1000
-V$PV_GENSYSTEM"GEF\VAL\DI\0401\DI1616_D.DXF"
1000
-GPGEF_PROCALC=1
1000
-GPGEF_FLIPY=1
1000
-GPGEF_FLIPX=1
1000
-GPGEF_SNK_ADD=0
1000
-GPGEVPROMPTX=Länge:
1000
-GPGEF_OANG=70
1000
-GPGEF_STANG=210
1000
-GPGEF_DRAG=1
1000
-GPGEF_CDIST=3
1000
-GPVCC_TABLE=C:\GENIUS\gef\val\di\0401\di1616.val
1000
-GPNND=8
1000
-GPPRE=M
1002
}
1001
GENIUS_GENOREF_13
1005
4F9
1005
4F8
1001
GEVMK
1002
{
1000
-CO
1000
-MYREF
1005
1C9
1002
}
1001
GEVID891340553
1002
{
1002
}
  0
LINE
  5
1DA
330
2
100
AcDbEntity
  8
MSR_I4_4-7
100
AcDbLine
 10
23.97927799999997
 20
-212.1596213275708
 30
0.0
 11
23.97927799999997
 21
-224.8993093275707
 31
0.0
1001
GENIUS_GENOREF_13
1005
4FA
  0
LINE
  5
1DB
330
2
100
AcDbEntity
  8
MSR_I4_4-0
100
AcDbLine
 10
66.47927799999997
 20
-280.2155773275707
 30
0.0
 11
37.47927799999991
 21
-280.2155773275707
 31
0.0
  0
TEXT
  5
1DC
330
2
100
AcDbEntity
  8
MSR_I4_4-6
100
AcDbText
 10
43.61466601200828
 20
-268.0758789838993
 30
0.0
 40
3.5
  1
MSR I-4/4
100
AcDbText
  0
INSERT
  5
1DD
330
2
100
AcDbEntity
  8
MSR_I4_4-0
100
AcDbBlockReference
  2
*U54
 10
48.49999999999335
 20
-280.2155773275707
 30
0.0
 50
90.0
1001
GENIUS_GEFPARTINS_13
1002
{
1011
48.49999999999335
1021
-280.2155773275707
1031
0.0
1013
0.0000000000000001
1023
1.0
1033
0.0
1002
}
1001
VCC
1002
{
1000
-ID55
1000
-IE27
1000
-IK55
1000
-V$PV_GENSYSTEM"GEF\VAL\DI\0401\DI1616_V.DXF"
1002
}
1001
GEVIT
1002
{
1000
-BEHI26.00000001
1000
-BVCCT0
1000
-T2
1000
-GRP0MSR_4-0
1000
-BAML2
1000
-BASK1
1000
-NT0
1000
-DOC
1005
1E8
1000
-MYREF
1005
1DD
1002
}
1001
GEVPT
1002
{
1000
-V$PV_GENSYSTEM"GEF\VAL\DI\0401\DI1616_V.DXF"
1000
-FIXPLOTI=5.000000000000000E+00
1000
-GPGEVBHOP=2
1000
-GPGEF_PROCALC=1
1000
-GPGEF_FLIPY=1
1000
-GPGEF_FLIPX=1
1000
-GPGEF_SNK_ADD=0
1000
-GPGEVPROMPTX=Länge:
1000
-GPGEF_OANG=70
1000
-GPGEF_STANG=210
1000
-GPGEF_DRAG=1
1000
-GPGEF_CDIST=3
1000
-GPVCC_TABLE=C:\GENIUS\gef\val\di\0401\di1616.val
1000
-GPNND=5
1000
-GPPRE=M
1002
}
1001
GENIUS_GENOREF_13
1005
4F7
1001
GEVMK
1002
{
1000
-CO
1000
-MYREF
1005
1DD
1002
}
1001
GEVID891340575
1002
{
1002
}
  0
LINE
  5
1F2
330
2
100
AcDbEntity
  8
MSR_I4_4-2
100
AcDbLine
 10
37.47927799999997
 20
-298.2155773275707
 30
0.0
 11
37.47927799999991
 21
-280.2155773275707
 31
0.0
  0
LINE
  5
1F3
330
2
100
AcDbEntity
  8
MSR_I4_4-0
100
AcDbLine
 10
71.97927799999996
 20
-280.2155773275707
 30
0.0
 11
66.47927799999997
 21
-280.2155773275707
 31
0.0
  0
INSERT
  5
1F4
330
2
100
AcDbEntity
  8
MSR_I4_4-2
100
AcDbBlockReference
  2
*U32
 10
37.5
 20
-74.52523828096985
 30
0.0
 50
180.0
1001
GENIUS_GEFPARTINS_13
1002
{
1011
37.5
1021
-74.52523828096985
1031
0.0
1013
-1.0
1023
0.0000000000000001
1033
0.0
1002
}
1001
VCC
1002
{
1000
-ID44
1000
-IE16
1000
-IK44
1000
-V$PV_GENSYSTEM"GEF\VAL\DI\0401\DI1616_V.DXF"
1002
}
1001
GEVIT
1002
{
1000
-BEHI16.00000001
1000
-BVCCT0
1000
-T2
1000
-GRP0MSR_4-2
1000
-BAML2
1000
-BASK1
1000
-NT0
1000
-DOC
1005
1FF
1000
-MYREF
1005
1F4
1002
}
1001
GEVPT
1002
{
1000
-V$PV_GENSYSTEM"GEF\VAL\DI\0401\DI1616_V.DXF"
1000
-FIXPLOTI=5.000000000000000E+00
1000
-GPGEVBHOP=2
1000
-GPGEF_PROCALC=1
1000
-GPGEF_FLIPY=1
1000
-GPGEF_FLIPX=1
1000
-GPGEF_SNK_ADD=0
1000
-GPGEVPROMPTX=Länge:
1000
-GPGEF_OANG=70
1000
-GPGEF_STANG=210
1000
-GPGEF_DRAG=1
1000
-GPGEF_CDIST=3
1000
-GPVCC_TABLE=C:\GENIUS\gef\val\di\0401\di1616.val
1000
-GPNND=5
1000
-GPPRE=M
1002
}
1001
GENIUS_GENOREF_13
1005
4F6
1001
GEVMK
1002
{
1000
-CO
1000
-MYREF
1005
1F4
1002
}
1001
GEVID891340564
1002
{
1002
}
  0
LINE
  5
209
330
2
100
AcDbEntity
  8
MSR_I4_4-2
100
AcDbLine
 10
37.5
 20
-59.52523828095895
 30
0.0
 11
-37.50000000000006
 21
-59.52523828095895
 31
0.0
  0
LINE
  5
20A
330
2
100
AcDbEntity
  8
MSR_I4_4-2
100
AcDbLine
 10
37.0
 20
-81.52523828095894
 30
0.0
 11
-28.50000000000006
 21
-81.52523828095894
 31
0.0
  0
LINE
  5
20B
330
2
100
AcDbEntity
  8
MSR_I4_4-2
100
AcDbLine
 10
37.0
 20
-102.0252382809589
 30
0.0
 11
-27.50000000000006
 21
-102.0252382809589
 31
0.0
  0
LINE
  5
20C
330
2
100
AcDbEntity
  8
MSR_I4_4-2
100
AcDbLine
 10
-28.50000000000006
 20
-93.52523828095895
 30
0.0
 11
37.0
 21
-93.52523828095895
 31
0.0
  0
LINE
  5
20D
330
2
100
AcDbEntity
  8
MSR_I4_4-2
100
AcDbLine
 10
-37.50000000000006
 20
-80.52523828095894
 30
0.0
 11
37.5
 21
-80.52523828095894
 31
0.0
  0
LINE
  5
20E
330
2
100
AcDbEntity
  8
MSR_I4_4-0
100
AcDbLine
 10
66.5
 20
-102.5252382809589
 30
0.0
 11
-26.00000000000006
 21
-102.5252382809589
 31
0.0
  0
LINE
  5
20F
330
2
100
AcDbEntity
  8
MSR_I4_4-2
100
AcDbLine
 10
-37.50000000000006
 20
-61.02523828095894
 30
0.0
 11
37.5
 21
-61.02523828095894
 31
0.0
  0
LINE
  5
210
330
2
100
AcDbEntity
  8
MSR_I4_4-2
100
AcDbLine
 10
-37.49999999999938
 20
-79.02523828095894
 30
0.0
 11
37.5
 21
-79.02523828095894
 31
0.0
  0
LINE
  5
211
330
2
100
AcDbEntity
  8
MSR_I4_4-2
100
AcDbLine
 10
-37.52072200000004
 20
-205.2155773275708
 30
0.0
 11
37.47927799999997
 21
-205.2155773275708
 31
0.0
  0
LINE
  5
212
330
2
100
AcDbEntity
  8
MSR_I4_4-7
100
AcDbLine
 10
0.0
 20
-81.52523828095894
 30
0.0
 11
0.0
 21
-166.368520280959
 31
0.0
1001
GENIUS_GENOREF_13
1005
4F5
  0
LINE
  5
213
330
2
100
AcDbEntity
  8
MSR_I4_4-7
100
AcDbLine
 10
-20.00000000000665
 20
-149.1895982809589
 30
0.0
 11
-20.00000000000665
 21
-166.430512280959
 31
0.0
  0
INSERT
  5
214
330
2
100
AcDbEntity
  8
MSR_I4_4-0
100
AcDbBlockReference
  2
*U42
 10
-16.00000000000665
 20
-157.5252382809662
 30
0.0
1001
GENIUS_GEFPARTINS_13
1002
{
1011
-16.00000000000665
1021
-157.5252382809662
1031
0.0
1013
1.0
1023
0.0
1033
0.0
1002
}
1001
VCC
1002
{
1000
-ID49
1000
-IE21
1000
-IK49
1000
-V$PV_GENSYSTEM"GEF\VAL\DI\0401\DI1616_D.DXF"
1002
}
1001
GEVIT
1002
{
1000
-BEHI20.00000001
1000
-BVCCT0
1000
-GRP0?
1000
-BAML2
1000
-BASK1
1000
-NT0
1000
-DOC
1005
21C
1000
-MYREF
1005
214
1002
}
1001
GEVPT
1002
{
1000
-V$PV_GENSYSTEM"GEF\VAL\DI\0401\DI1616_D.DXF"
1000
-GPGEF_PROCALC=1
1000
-GPGEF_FLIPY=1
1000
-GPGEF_FLIPX=1
1000
-GPGEF_SNK_ADD=0
1000
-GPGEVPROMPTX=Länge:
1000
-GPGEF_OANG=70
1000
-GPGEF_STANG=210
1000
-GPGEF_DRAG=1
1000
-GPGEF_CDIST=3
1000
-GPVCC_TABLE=C:\GENIUS\gef\val\di\0401\di1616.val
1000
-GPNND=5
1000
-GPPRE=M
1002
}
1001
GENIUS_GENOREF_13
1005
4F4
1005
4F3
1001
GEVMK
1002
{
1000
-CO
1000
-MYREF
1005
214
1002
}
1001
GEVID891340569
1002
{
1002
}
  0
LINE
  5
225
330
2
100
AcDbEntity
  8
MSR_I4_4-7
100
AcDbLine
 10
19.99999999999335
 20
-148.395848280959
 30
0.0
 11
19.99999999999335
 21
-166.430512280959
 31
0.0
  0
INSERT
  5
226
330
2
100
AcDbEntity
  8
MSR_I4_4-0
100
AcDbBlockReference
  2
*U38
 10
15.99999999999335
 20
-157.5252382809662
 30
0.0
1001
GENIUS_GEFPARTINS_13
1002
{
1011
15.99999999999335
1021
-157.5252382809662
1031
0.0
1013
1.0
1023
0.0
1033
0.0
1002
}
1001
VCC
1002
{
1000
-ID47
1000
-IE19
1000
-IK47
1000
-V$PV_GENSYSTEM"GEF\VAL\DI\0401\DI1616_D.DXF"
1002
}
1001
GEVIT
1002
{
1000
-BEHI18.00000001
1000
-BVCCT0
1000
-GRP0?
1000
-BAML2
1000
-BASK1
1000
-NT0
1000
-DOC
1005
22E
1000
-MYREF
1005
226
1002
}
1001
GEVPT
1002
{
1000
-V$PV_GENSYSTEM"GEF\VAL\DI\0401\DI1616_D.DXF"
1000
-GPGEF_PROCALC=1
1000
-GPGEF_FLIPY=1
1000
-GPGEF_FLIPX=1
1000
-GPGEF_SNK_ADD=0
1000
-GPGEVPROMPTX=Länge:
1000
-GPGEF_OANG=70
1000
-GPGEF_STANG=210
1000
-GPGEF_DRAG=1
1000
-GPGEF_CDIST=3
1000
-GPVCC_TABLE=C:\GENIUS\gef\val\di\0401\di1616.val
1000
-GPNND=5
1000
-GPPRE=M
1002
}
1001
GENIUS_GENOREF_13
1005
4F2
1005
4F1
1001
GEVMK
1002
{
1000
-CO
1000
-MYREF
1005
226
1002
}
1001
GEVID891340567
1002
{
1002
}
  0
INSERT
  5
237
330
2
100
AcDbEntity
  8
MSR_I4_4-0
100
AcDbBlockReference
  2
*U40
 10
-0.0000000000066507
 20
-157.5252382809589
 30
0.0
1001
GENIUS_GEFPARTINS_13
1002
{
1011
-0.0000000000066507
1021
-157.5252382809589
1031
0.0
1013
1.0
1023
0.0
1033
0.0
1002
}
1001
VCC
1002
{
1000
-ID48
1000
-IE20
1000
-IK48
1000
-V$PV_GENSYSTEM"GEF\VAL\DI\0401\DI1616_D.DXF"
1002
}
1001
GEVIT
1002
{
1000
-BEHI19.00000001
1000
-BVCCT0
1000
-GRP0?
1000
-BAML2
1000
-BASK1
1000
-NT0
1000
-DOC
1005
23F
1000
-MYREF
1005
237
1002
}
1001
GEVPT
1002
{
1000
-V$PV_GENSYSTEM"GEF\VAL\DI\0401\DI1616_D.DXF"
1000
-GPGEF_PROCALC=1
1000
-GPGEF_FLIPY=1
1000
-GPGEF_FLIPX=1
1000
-GPGEF_SNK_ADD=0
1000
-GPGEVPROMPTX=Länge:
1000
-GPGEF_OANG=70
1000
-GPGEF_STANG=210
1000
-GPGEF_DRAG=1
1000
-GPGEF_CDIST=3
1000
-GPVCC_TABLE=C:\GENIUS\gef\val\di\0401\di1616.val
1000
-GPNND=5
1000
-GPPRE=M
1002
}
1001
GENIUS_GENOREF_13
1005
4F0
1005
4EF
1001
GEVMK
1002
{
1000
-CO
1000
-MYREF
1005
237
1002
}
1001
GEVID891340568
1002
{
1002
}
  0
ARC
  5
248
330
2
100
AcDbEntity
  8
MSR_I4_4-4
100
AcDbCircle
 10
30.0
 20
-137.0252382809589
 30
0.0
 40
2.5
100
AcDbArc
 50
177.542157
 51
94.61093400000001
  0
LINE
  5
249
330
2
100
AcDbEntity
  8
MSR_I4_4-7
100
AcDbLine
 10
30.0
 20
-134.5252382809589
 30
0.0
 11
30.0
 21
-139.5252382809589
 31
0.0
  0
CIRCLE
  5
24A
330
2
100
AcDbEntity
  8
MSR_I4_4-0
100
AcDbCircle
 10
30.0
 20
-137.0252382809589
 30
0.0
 40
2.0
  0
LINE
  5
24B
330
2
100
AcDbEntity
  8
MSR_I4_4-7
100
AcDbLine
 10
27.5
 20
-137.0252382809589
 30
0.0
 11
32.5
 21
-137.0252382809589
 31
0.0
  0
INSERT
  5
24C
330
2
100
AcDbEntity
  8
MSR_I4_4-2
100
AcDbBlockReference
  2
*U12
 10
-13.49999999999937
 20
-72.02523828095895
 30
0.0
1001
GENIUS_GEFPARTINS_13
1002
{
1011
-13.49999999999937
1021
-72.02523828095895
1031
0.0
1013
1.0
1023
0.0
1033
0.0
1002
}
1001
VCC
1002
{
1000
-ID34
1000
-IE5
1000
-IK34
1000
-V$PV_GENSYSTEM"GEF\VAL\IS\0403\IS1617_D.DXF"
1002
}
1001
GEVIT
1002
{
1000
-BEHI5.00000001
1000
-BVCCT0
1000
-GRP0?
1000
-BAML2
1000
-BASK1
1000
-NT0
1000
-DOC
1005
254
1000
-MYREF
1005
24C
1002
}
1001
GEVPT
1002
{
1000
-V$PV_GENSYSTEM"GEF\VAL\IS\0403\IS1617_D.DXF"
1000
-GPGEF_PROCALC=1
1000
-GPGEF_FLIPY=1
1000
-GPGEF_FLIPX=1
1000
-GPGEF_SNK_ADD=0
1000
-GPGEVPROMPTX=Länge:
1000
-GPGEF_OANG=70
1000
-GPGEF_STANG=210
1000
-GPGEF_DRAG=1
1000
-GPGEF_CDIST=3
1000
-GPVCC_TABLE=C:\GENIUS\gef\val\is\0403\is1617.val
1000
-GPPOST=0
1000
-GPTPU=0.75
1000
-GPNND=9
1000
-GPPRE=M
1002
}
1001
GENIUS_GENOREF_13
1005
4EE
1005
4ED
1001
GEVMK
1002
{
1000
-CO
1000
-MYREF
1005
24C
1002
}
1001
GEVID891340554
1002
{
1002
}
  0
LINE
  5
25D
330
2
100
AcDbEntity
  8
MSR_I4_4-0
100
AcDbLine
 10
-2.5
 20
-93.02523828095894
 30
0.0
 11
-28.50000000000006
 21
-93.02523828095894
 31
0.0
  0
LINE
  5
25E
330
2
100
AcDbEntity
  8
MSR_I4_4-0
100
AcDbLine
 10
-28.50000000000006
 20
-83.02523828095894
 30
0.0
 11
-2.5
 21
-83.02523828095894
 31
0.0
  0
LINE
  5
25F
330
2
100
AcDbEntity
  8
MSR_I4_4-4
100
AcDbLine
 10
-28.50000000000006
 20
-92.52523828095894
 30
0.0
 11
-2.5
 21
-92.52523828095894
 31
0.0
  0
LINE
  5
260
330
2
100
AcDbEntity
  8
MSR_I4_4-4
100
AcDbLine
 10
-28.50000000000006
 20
-83.52523828095895
 30
0.0
 11
-2.5
 21
-83.52523828095895
 31
0.0
  0
LINE
  5
261
330
2
100
AcDbEntity
  8
MSR_I4_4-7
100
AcDbLine
 10
-24.00000000000006
 20
-57.445472280959
 30
0.0
 11
-24.00000000000006
 21
-80.52523828095894
 31
0.0
  0
LINE
  5
262
330
2
100
AcDbEntity
  8
MSR_I4_4-7A
100
AcDbLine
 10
-26.50000000000006
 20
-72.02523828095895
 30
0.0
 11
-26.50000000000006
 21
-63.02523828095826
 31
0.0
1001
GENIUS_GENOREF_13
1005
4EC
  0
LINE
  5
263
330
2
100
AcDbEntity
  8
MSR_I4_4-2
100
AcDbLine
 10
-37.50000000000006
 20
-59.52523828095895
 30
0.0
 11
-37.50000000000009
 21
-66.52523828096366
 31
0.0
  0
LINE
  5
264
330
2
100
AcDbEntity
  8
MSR_I4_4-7A
100
AcDbLine
 10
-26.50000000000006
 20
-72.02523828095895
 30
0.0
 11
-35.50000000000074
 21
-72.02523828095895
 31
0.0
1001
GENIUS_GENOREF_13
1005
4EC
  0
LINE
  5
265
330
2
100
AcDbEntity
  8
MSR_I4_4-0
100
AcDbLine
 10
-28.50000000000006
 20
-81.02523828095895
 30
0.0
 11
-45.50000000000006
 21
-81.02523828095895
 31
0.0
  0
LINE
  5
266
330
2
100
AcDbEntity
  8
MSR_I4_4-2
100
AcDbLine
 10
-28.89791576165527
 20
-77.52523828095895
 30
0.0
 11
-42.00000000000665
 21
-77.52523828095167
 31
0.0
  0
LINE
  5
267
330
2
100
AcDbEntity
  8
MSR_I4_4-2
100
AcDbLine
 10
-28.89791576165533
 20
-66.52523828095894
 30
0.0
 11
-42.00000000000665
 21
-66.52523828096622
 31
0.0
  0
INSERT
  5
268
330
2
100
AcDbEntity
  8
MSR_I4_4-2
100
AcDbBlockReference
  2
*U34
 10
-37.5
 20
-74.52523828096985
 30
0.0
 41
-1.0
 50
180.0
1001
GENIUS_GEFPARTINS_13
1002
{
1011
-37.5
1021
-74.52523828096985
1031
0.0
1013
1.0
1023
0.0000000000000001
1033
0.0
1002
}
1001
GEVPT
1002
{
1000
-V$PV_GENSYSTEM"GEF\VAL\DI\0401\DI1616_V.DXF"
1000
-FIXPLOTI=5.000000000000000E+00
1000
-GPGEVBHOP=2
1000
-GPGEF_PROCALC=1
1000
-GPGEF_FLIPY=1
1000
-GPGEF_FLIPX=1
1000
-GPGEF_SNK_ADD=0
1000
-GPGEVPROMPTX=Länge:
1000
-GPGEF_OANG=70
1000
-GPGEF_STANG=210
1000
-GPGEF_DRAG=1
1000
-GPGEF_CDIST=3
1000
-GPVCC_TABLE=C:\GENIUS\gef\val\di\0401\di1616.val
1000
-GPNND=5
1000
-GPPRE=M
1002
}
1001
GENIUS_GENOREF_13
1005
4EB
1001
VCC
1002
{
1000
-ID45
1000
-IE16
1000
-IK45
1000
-V$PV_GENSYSTEM"GEF\VAL\DI\0401\DI1616_V.DXF"
1002
}
1001
GEVIT
1002
{
1000
-BEHI16.00000001
1000
-BVCCT0
1000
-T2
1000
-GRP0MSR_4-2
1000
-BAML2
1000
-BASK1
1000
-NT0
1000
-DOC
1005
273
1000
-MYREF
1005
268
1002
}
1001
GEVMK
1002
{
1000
-CO
1000
-MYREF
1005
268
1002
}
1001
GEVID891340565
1002
{
1002
}
  0
CIRCLE
  5
27D
330
2
100
AcDbEntity
  8
MSR_I4_4-2
100
AcDbCircle
 10
-26.49999999999938
 20
-72.02523828095895
 30
0.0
 40
6.0
  0
LINE
  5
27E
330
2
100
AcDbEntity
  8
MSR_I4_4-0
100
AcDbLine
 10
-45.50000000000006
 20
-81.02523828095895
 30
0.0
 11
-45.50000000000006
 21
-100.0252382809589
 31
0.0
  0
LINE
  5
27F
330
2
100
AcDbEntity
  8
MSR_I4_4-0
100
AcDbLine
 10
-51.50000000000005
 20
-81.02523828095895
 30
0.0
 11
-51.50000000000005
 21
-96.02523828095895
 31
0.0
  0
ARC
  5
280
330
2
100
AcDbEntity
  8
MSR_I4_4-0
100
AcDbCircle
 10
-48.00000000000006
 20
-100.0252382809589
 30
0.0
 40
2.5
100
AcDbArc
 50
270.000001
 51
0.0
  0
LINE
  5
281
330
2
100
AcDbEntity
  8
MSR_I4_4-0
100
AcDbLine
 10
-51.50000000000005
 20
-96.02523828095895
 30
0.0
 11
-45.50000000000006
 21
-96.02523828095895
 31
0.0
  0
LINE
  5
282
330
2
100
AcDbEntity
  8
MSR_I4_4-2
100
AcDbLine
 10
-49.81743948153374
 20
-69.40210904692418
 30
0.0
 11
-42.00000000000665
 21
-68.85187116464487
 31
0.0
  0
LINE
  5
283
330
2
100
AcDbEntity
  8
MSR_I4_4-0
100
AcDbLine
 10
-45.50000000000006
 20
-81.02523828095895
 30
0.0
 11
-51.50000000000005
 21
-81.02523828095895
 31
0.0
  0
LINE
  5
284
330
2
100
AcDbEntity
  8
MSR_I4_4-3
100
AcDbLine
 10
-37.50000000000009
 20
-77.52523828095417
 30
0.0
 11
-37.50000000000009
 21
-66.52523828096366
 31
0.0
  0
LINE
  5
287
330
2
100
AcDbEntity
  8
MSR_I4_4-2
100
AcDbLine
 10
-42.00000000000665
 20
-77.52523828095167
 30
0.0
 11
-42.00000000000665
 21
-72.02523828095895
 31
0.0
  0
LINE
  5
288
330
2
100
AcDbEntity
  8
MSR_I4_4-2
100
AcDbLine
 10
-37.50000000000009
 20
-77.52523828095417
 30
0.0
 11
-37.50000000000006
 21
-80.52523828095894
 31
0.0
  0
LINE
  5
289
330
2
100
AcDbEntity
  8
MSR_I4_4-2
100
AcDbLine
 10
-37.00000000000006
 20
-81.02523828095895
 30
0.0
 11
-37.00000000000006
 21
-80.52523828095894
 31
0.0
  0
LINE
  5
28A
330
2
100
AcDbEntity
  8
MSR_I4_4-2
100
AcDbLine
 10
-42.00000000000665
 20
-66.52523828096622
 30
0.0
 11
-42.00000000000665
 21
-72.02523828095895
 31
0.0
  0
LINE
  5
28B
330
2
100
AcDbEntity
  8
MSR_I4_4-0
100
AcDbLine
 10
-28.50000000000006
 20
-100.0252382809589
 30
0.0
 11
-28.50000000000006
 21
-81.02523828095895
 31
0.0
  0
ARC
  5
28C
330
2
100
AcDbEntity
  8
MSR_I4_4-0
100
AcDbCircle
 10
-26.00000000000006
 20
-100.0252382809589
 30
0.0
 40
2.5
100
AcDbArc
 50
179.999998
 51
270.000003
  0
ARC
  5
28D
330
2
100
AcDbEntity
  8
MSR_I4_4-2
100
AcDbCircle
 10
-24.50000000000006
 20
-93.02523828095894
 30
0.0
 40
0.5
100
AcDbArc
 50
270.000001
 51
0.0
  0
LINE
  5
28E
330
2
100
AcDbEntity
  8
MSR_I4_4-2
100
AcDbLine
 10
-19.03463600000003
 20
-93.52523828095895
 30
0.0
 11
-19.03463600000003
 21
-102.0252382809589
 31
0.0
  0
LINE
  5
28F
330
2
100
AcDbEntity
  8
MSR_I4_4-7A
100
AcDbLine
 10
-26.50000000000006
 20
-72.02523828095895
 30
0.0
 11
-17.49999999999937
 21
-72.02523828095895
 31
0.0
1001
GENIUS_GENOREF_13
1005
4EC
  0
LINE
  5
290
330
2
100
AcDbEntity
  8
MSR_I4_4-7A
100
AcDbLine
 10
-26.50000000000006
 20
-72.02523828095895
 30
0.0
 11
-26.50000000000006
 21
-81.02523828095963
 31
0.0
1001
GENIUS_GENOREF_13
1005
4EC
  0
ARC
  5
291
330
2
100
AcDbEntity
  8
MSR_I4_4-2
100
AcDbCircle
 10
-24.50000000000006
 20
-82.02523828095895
 30
0.0
 40
0.5
100
AcDbArc
 50
0.0
 51
90.0
  0
LINE
  5
292
330
2
100
AcDbEntity
  8
MSR_I4_4-2
100
AcDbLine
 10
-24.00000000000006
 20
-82.02523828095895
 30
0.0
 11
-24.00000000000006
 21
-83.02523828095894
 31
0.0
  0
CIRCLE
  5
293
330
2
100
AcDbEntity
  8
MSR_I4_4-2
100
AcDbCircle
 10
-13.50000000000006
 20
-72.02523828095895
 30
0.0
 40
3.0
  0
CIRCLE
  5
294
330
2
100
AcDbEntity
  8
MSR_I4_4-2
100
AcDbCircle
 10
-13.50000000000006
 20
-73.52523828095894
 30
0.0
 40
0.5
  0
CIRCLE
  5
295
330
2
100
AcDbEntity
  8
MSR_I4_4-2
100
AcDbCircle
 10
-13.50000000000006
 20
-70.52523828095894
 30
0.0
 40
0.5
  0
CIRCLE
  5
296
330
2
100
AcDbEntity
  8
MSR_I4_4-2
100
AcDbCircle
 10
-11.99999999999937
 20
-72.02523828095895
 30
0.0
 40
0.5
  0
INSERT
  5
297
330
2
100
AcDbEntity
  8
MSR_I4_4-0N
100
AcDbBlockReference
 66
     1
  2
GENINF13
 10
-33.21976672778675
 20
-30.47912467294878
 30
0.0
1001
GENIUS_GENSCSYM_13
1002
{
1000
INSPT
1011
-33.21976672778675
1021
-30.47912467294878
1031
0.0
1002
}
1002
{
1000
SCALE
1042
1.0
1002
}
1002
{
1000
USEOLDBPT
1070
     0
1002
}
1001
GENIUS_GENOBJ-N-INFOPT_13
1002
{
1000
OWNER
1000
GEN
1002
}
1001
GENIUS_GENSYMENT_13
1002
{
1000
ENT
1005
297
1002
}
1001
GENIUS_GENODEF_13
1002
{
1000
HIER
1070
     0
1002
}
1002
{
1000
MANEDIT
1070
     0
1002
}
1002
{
1000
NOSEL
1070
     0
1002
}
1002
{
1000
BEHIND
1070
     0
1002
}
1002
{
1000
REACTOR
1002
}
1001
GENIUS_GENOBJ-N-RSSYM_13
1002
{
1000
OWNER
1000
GEN
1002
}
1001
GENIUS_GENINF13_13
1070
     1
  0
ATTRIB
  5
298
330
297
100
AcDbEntity
  8
INFO
100
AcDbText
 10
-33.21976672778675
 20
-30.47912467294878
 30
0.0
 40
1.0
  1
1
100
AcDbAttribute
  2
2GENINF
 70
     1
  0
ATTRIB
  5
29A
330
297
100
AcDbEntity
  8
INFO
100
AcDbText
 10
-33.21976672778675
 20
-31.97912467294879
 30
0.0
 40
1.0
  1
<***aktuell***>
100
AcDbAttribute
  2
3GENINF
 70
     1
  0
ATTRIB
  5
29B
330
297
100
AcDbEntity
  8
INFO
100
AcDbText
 10
-33.21976672778675
 20
-33.47912467294879
 30
0.0
 40
1.0
  1

100
AcDbAttribute
  2
4GENINF
 70
     1
  0
ATTRIB
  5
29C
330
297
100
AcDbEntity
  8
INFO
100
AcDbText
 10
-33.21976672778675
 20
-34.97912467294879
 30
0.0
 40
1.0
  1
MSR I-4/4
100
AcDbAttribute
  2
5GENINF
 70
     1
  0
ATTRIB
  5
29D
330
297
100
AcDbEntity
  8
INFO
100
AcDbText
 10
-33.21976672778675
 20
-36.47912467294879
 30
0.0
 40
1.0
  1

100
AcDbAttribute
  2
6GENINF
 70
     1
  0
ATTRIB
  5
29E
330
297
100
AcDbEntity
  8
INFO
100
AcDbText
 10
-33.21976672778675
 20
-37.97912467294878
 30
0.0
 40
1.0
  1
Fa. Mayer
100
AcDbAttribute
  2
7GENINF
 70
     1
  0
ATTRIB
  5
29F
330
297
100
AcDbEntity
  8
INFO
100
AcDbText
 10
-33.21976672778675
 20
-39.47912467294879
 30
0.0
 40
1.0
  1

100
AcDbAttribute
  2
8GENINF
 70
     1
  0
ATTRIB
  5
2A0
330
297
100
AcDbEntity
  8
INFO
100
AcDbText
 10
-33.21976672778675
 20
-40.97912467294878
 30
0.0
 40
1.0
  1

100
AcDbAttribute
  2
9GENINF
 70
     1
  0
ATTRIB
  5
2A1
330
297
100
AcDbEntity
  8
INFO
100
AcDbText
 10
-33.21976672778675
 20
-42.47912467294878
 30
0.0
 40
1.0
  1

100
AcDbAttribute
  2
10GENINF
 70
     1
  0
ATTRIB
  5
2A2
330
297
100
AcDbEntity
  8
INFO
100
AcDbText
 10
-33.21976672778675
 20
-43.97912467294879
 30
0.0
 40
1.0
  1

100
AcDbAttribute
  2
11GENINF
 70
     1
  0
ATTRIB
  5
2A3
330
297
100
AcDbEntity
  8
INFO
100
AcDbText
 10
-33.21976672778675
 20
-45.47912467294878
 30
0.0
 40
1.0
  1

100
AcDbAttribute
  2
12GENINF
 70
     1
  0
ATTRIB
  5
2A4
330
297
100
AcDbEntity
  8
INFO
100
AcDbText
 10
-33.21976672778675
 20
-46.97912467294878
 30
0.0
 40
1.0
  1

100
AcDbAttribute
  2
13GENINF
 70
     1
  0
ATTRIB
  5
2A5
330
297
100
AcDbEntity
  8
INFO
100
AcDbText
 10
-33.21976672778675
 20
-48.47912467294879
 30
0.0
 40
1.0
  1

100
AcDbAttribute
  2
14GENINF
 70
     1
  0
ATTRIB
  5
2A6
330
297
100
AcDbEntity
  8
INFO
100
AcDbText
 10
-33.21976672778675
 20
-49.97912467294878
 30
0.0
 40
1.0
  1

100
AcDbAttribute
  2
15GENINF
 70
     1
  0
ATTRIB
  5
2A7
330
297
100
AcDbEntity
  8
INFO
100
AcDbText
 10
-33.21976672778675
 20
-51.47912467294879
 30
0.0
 40
1.0
  1

100
AcDbAttribute
  2
16GENINF
 70
     1
  0
ATTRIB
  5
2A8
330
297
100
AcDbEntity
  8
INFO
100
AcDbText
 10
-33.21976672778675
 20
-52.97912467294878
 30
0.0
 40
1.0
  1

100
AcDbAttribute
  2
17GENINF
 70
     1
  0
ATTRIB
  5
2A9
330
297
100
AcDbEntity
  8
INFO
100
AcDbText
 10
-33.21976672778675
 20
-54.47912467294878
 30
0.0
 40
1.0
  1

100
AcDbAttribute
  2
18GENINF
 70
     1
  0
ATTRIB
  5
2AA
330
297
100
AcDbEntity
  8
INFO
100
AcDbText
 10
-33.21976672778675
 20
-55.97912467294879
 30
0.0
 40
1.0
  1

100
AcDbAttribute
  2
19GENINF
 70
     1
  0
ATTRIB
  5
2AB
330
297
100
AcDbEntity
  8
INFO
100
AcDbText
 10
-33.21976672778675
 20
-57.47912467294878
 30
0.0
 40
1.0
  1

100
AcDbAttribute
  2
20GENINF
 70
     1
  0
ATTRIB
  5
2AC
330
297
100
AcDbEntity
  8
INFO
100
AcDbText
 10
-33.21976672778675
 20
-58.97912467294879
 30
0.0
 40
1.0
  1

100
AcDbAttribute
  2
21GENINF
 70
     1
  0
ATTRIB
  5
2AD
330
297
100
AcDbEntity
  8
INFO
100
AcDbText
 10
-33.21976672778675
 20
-60.47912467294878
 30
0.0
 40
1.0
  1

100
AcDbAttribute
  2
22GENINF
 70
     1
  0
ATTRIB
  5
2AE
330
297
100
AcDbEntity
  8
INFO
100
AcDbText
 10
-33.21976672778675
 20
-61.97912467294878
 30
0.0
 40
1.0
  1

100
AcDbAttribute
  2
23GENINF
 70
     1
  0
ATTRIB
  5
2AF
330
297
100
AcDbEntity
  8
INFO
100
AcDbText
 10
-33.21976672778675
 20
-63.47912467294879
 30
0.0
 40
1.0
  1

100
AcDbAttribute
  2
24GENINF
 70
     1
  0
ATTRIB
  5
2B0
330
297
100
AcDbEntity
  8
INFO
100
AcDbText
 10
-33.21976672778675
 20
-64.97912467294878
 30
0.0
 40
1.0
  1

100
AcDbAttribute
  2
0GENINF
 70
     1
  0
SEQEND
  5
2D9
330
297
100
AcDbEntity
  8
MSR_I4_4-0N
  0
LINE
  5
2DD
330
2
100
AcDbEntity
  8
MSR_I4_4-7
100
AcDbLine
 10
-24.59040000000002
 20
-20.0
 30
0.0
 11
-16.37141400000001
 21
-20.0
 31
0.0
  0
ARC
  5
2DE
330
2
100
AcDbEntity
  8
MSR_I4_4-4
100
AcDbCircle
 10
-20.00000000000003
 20
-20.0
 30
0.0
 40
3.000000000000056
100
AcDbArc
 50
90.0
 51
0.0
  0
CIRCLE
  5
2DF
330
2
100
AcDbEntity
  8
MSR_I4_4-0
100
AcDbCircle
 10
-20.00000000000003
 20
-20.0
 30
0.0
 40
2.5
  0
LINE
  5
2E0
330
2
100
AcDbEntity
  8
MSR_I4_4-7
100
AcDbLine
 10
24.0
 20
-57.445472280959
 30
0.0
 11
24.0
 21
-80.52523828095894
 31
0.0
1001
GENIUS_GENOREF_13
1005
4EA
  0
INSERT
  5
2E1
330
2
100
AcDbEntity
  8
MSR_I4_4-2
100
AcDbBlockReference
  2
*U14
 10
-1.499999999999374
 20
-68.02523828095894
 30
0.0
1001
GENIUS_GEFPARTINS_13
1002
{
1011
-1.499999999999374
1021
-68.02523828095894
1031
0.0
1013
1.0
1023
0.0
1033
0.0
1002
}
1001
VCC
1002
{
1000
-ID35
1000
-IE6
1000
-IK35
1000
-V$PV_GENSYSTEM"GEF\VAL\IS\0403\IS1617_D.DXF"
1002
}
1001
GEVIT
1002
{
1000
-BEHI6.00000001
1000
-BVCCT0
1000
-GRP0?
1000
-BAML2
1000
-BASK1
1000
-NT0
1000
-DOC
1005
2E9
1000
-MYREF
1005
2E1
1002
}
1001
GEVPT
1002
{
1000
-V$PV_GENSYSTEM"GEF\VAL\IS\0403\IS1617_D.DXF"
1000
-GPGEF_PROCALC=1
1000
-GPGEF_FLIPY=1
1000
-GPGEF_FLIPX=1
1000
-GPGEF_SNK_ADD=0
1000
-GPGEVPROMPTX=Länge:
1000
-GPGEF_OANG=70
1000
-GPGEF_STANG=210
1000
-GPGEF_DRAG=1
1000
-GPGEF_CDIST=3
1000
-GPVCC_TABLE=C:\GENIUS\gef\val\is\0403\is1617.val
1000
-GPPOST=0
1000
-GPTPU=0.75
1000
-GPNND=9
1000
-GPPRE=M
1002
}
1001
GENIUS_GENOREF_13
1005
4E9
1005
4E8
1001
GEVMK
1002
{
1000
-CO
1000
-MYREF
1005
2E1
1002
}
1001
GEVID891340555
1002
{
1002
}
  0
INSERT
  5
2F2
330
2
100
AcDbEntity
  8
MSR_I4_4-2
100
AcDbBlockReference
  2
*U18
 10
22.50000000000063
 20
-68.02523828095894
 30
0.0
1001
GENIUS_GEFPARTINS_13
1002
{
1011
22.50000000000063
1021
-68.02523828095894
1031
0.0
1013
1.0
1023
0.0
1033
0.0
1002
}
1001
VCC
1002
{
1000
-ID37
1000
-IE8
1000
-IK37
1000
-V$PV_GENSYSTEM"GEF\VAL\IS\0403\IS1617_D.DXF"
1002
}
1001
GEVIT
1002
{
1000
-BEHI8.00000001
1000
-BVCCT0
1000
-GRP0?
1000
-BAML2
1000
-BASK1
1000
-NT0
1000
-DOC
1005
2FA
1000
-MYREF
1005
2F2
1002
}
1001
GEVPT
1002
{
1000
-V$PV_GENSYSTEM"GEF\VAL\IS\0403\IS1617_D.DXF"
1000
-GPGEF_PROCALC=1
1000
-GPGEF_FLIPY=1
1000
-GPGEF_FLIPX=1
1000
-GPGEF_SNK_ADD=0
1000
-GPGEVPROMPTX=Länge:
1000
-GPGEF_OANG=70
1000
-GPGEF_STANG=210
1000
-GPGEF_DRAG=1
1000
-GPGEF_CDIST=3
1000
-GPVCC_TABLE=C:\GENIUS\gef\val\is\0403\is1617.val
1000
-GPPOST=0
1000
-GPTPU=0.75
1000
-GPNND=9
1000
-GPPRE=M
1002
}
1001
GENIUS_GENOREF_13
1005
4E7
1005
4E6
1001
GEVMK
1002
{
1000
-CO
1000
-MYREF
1005
2F2
1002
}
1001
GEVID891340557
1002
{
1002
}
  0
CIRCLE
  5
303
330
2
100
AcDbEntity
  8
MSR_I4_4-2
100
AcDbCircle
 10
10.49999999999994
 20
-72.02523828096622
 30
0.0
 40
3.0
  0
INSERT
  5
304
330
2
100
AcDbEntity
  8
MSR_I4_4-2
100
AcDbBlockReference
  2
*U16
 10
10.49999999999994
 20
-72.02523828096622
 30
0.0
1001
GENIUS_GEFPARTINS_13
1002
{
1011
10.49999999999994
1021
-72.02523828096622
1031
0.0
1013
1.0
1023
0.0
1033
0.0
1002
}
1001
VCC
1002
{
1000
-ID36
1000
-IE7
1000
-IK36
1000
-V$PV_GENSYSTEM"GEF\VAL\IS\0403\IS1617_D.DXF"
1002
}
1001
GEVIT
1002
{
1000
-BEHI7.00000001
1000
-BVCCT0
1000
-GRP0?
1000
-BAML2
1000
-BASK1
1000
-NT0
1000
-DOC
1005
30C
1000
-MYREF
1005
304
1002
}
1001
GEVPT
1002
{
1000
-V$PV_GENSYSTEM"GEF\VAL\IS\0403\IS1617_D.DXF"
1000
-GPGEF_PROCALC=1
1000
-GPGEF_FLIPY=1
1000
-GPGEF_FLIPX=1
1000
-GPGEF_SNK_ADD=0
1000
-GPGEVPROMPTX=Länge:
1000
-GPGEF_OANG=70
1000
-GPGEF_STANG=210
1000
-GPGEF_DRAG=1
1000
-GPGEF_CDIST=3
1000
-GPVCC_TABLE=C:\GENIUS\gef\val\is\0403\is1617.val
1000
-GPPOST=0
1000
-GPTPU=0.75
1000
-GPNND=9
1000
-GPPRE=M
1002
}
1001
GENIUS_GENOREF_13
1005
4E5
1005
4E4
1001
GEVMK
1002
{
1000
-CO
1000
-MYREF
1005
304
1002
}
1001
GEVID891340556
1002
{
1002
}
  0
LINE
  5
315
330
2
100
AcDbEntity
  8
MSR_I4_4-0
100
AcDbLine
 10
-2.5
 20
-83.02523828095894
 30
0.0
 11
-2.5
 21
-93.02523828095894
 31
0.0
  0
CIRCLE
  5
316
330
2
100
AcDbEntity
  8
MSR_I4_4-2
100
AcDbCircle
 10
-1.500000000000056
 20
-68.02523828095894
 30
0.0
 40
3.0
  0
CIRCLE
  5
317
330
2
100
AcDbEntity
  8
MSR_I4_4-2
100
AcDbCircle
 10
-1.500000000000056
 20
-66.52523828095894
 30
0.0
 40
0.5
  0
CIRCLE
  5
318
330
2
100
AcDbEntity
  8
MSR_I4_4-2
100
AcDbCircle
 10
-1.500000000000056
 20
-69.52523828095895
 30
0.0
 40
0.5
  0
CIRCLE
  5
319
330
2
100
AcDbEntity
  8
MSR_I4_4-2
100
AcDbCircle
 10
0.0000000000006253
 20
-68.02523828095894
 30
0.0
 40
0.5
  0
CIRCLE
  5
31A
330
2
100
AcDbEntity
  8
MSR_I4_4-2
100
AcDbCircle
 10
10.49999999999994
 20
-73.52523828096622
 30
0.0
 40
0.5
  0
CIRCLE
  5
31B
330
2
100
AcDbEntity
  8
MSR_I4_4-2
100
AcDbCircle
 10
12.00000000000062
 20
-72.02523828096622
 30
0.0
 40
0.5
  0
CIRCLE
  5
31C
330
2
100
AcDbEntity
  8
MSR_I4_4-2
100
AcDbCircle
 10
10.49999999999994
 20
-70.52523828096622
 30
0.0
 40
0.5
  0
LINE
  5
31D
330
2
100
AcDbEntity
  8
MSR_I4_4-2
100
AcDbLine
 10
24.0
 20
-82.02523828095895
 30
0.0
 11
24.0
 21
-93.02523828095894
 31
0.0
  0
ARC
  5
31E
330
2
100
AcDbEntity
  8
MSR_I4_4-2
100
AcDbCircle
 10
24.5
 20
-93.02523828095894
 30
0.0
 40
0.5
100
AcDbArc
 50
180.0000029999999
 51
270.000001
  0
LINE
  5
31F
330
2
100
AcDbEntity
  8
MSR_I4_4-2
100
AcDbLine
 10
19.03463799999997
 20
-93.52523828095895
 30
0.0
 11
19.03463799999997
 21
-102.0252382809589
 31
0.0
  0
LINE
  5
320
330
2
100
AcDbEntity
  8
MSR_I4_4-2
100
AcDbLine
 10
28.92656
 20
-93.52523828095895
 30
0.0
 11
28.92656
 21
-102.0252382809589
 31
0.0
  0
CIRCLE
  5
321
330
2
100
AcDbEntity
  8
MSR_I4_4-2
100
AcDbCircle
 10
24.00000000000131
 20
-68.02523828095894
 30
0.0
 40
0.5
  0
CIRCLE
  5
322
330
2
100
AcDbEntity
  8
MSR_I4_4-2
100
AcDbCircle
 10
22.50000000000063
 20
-68.02523828095894
 30
0.0
 40
3.0
  0
ARC
  5
323
330
2
100
AcDbEntity
  8
MSR_I4_4-2
100
AcDbCircle
 10
24.5
 20
-82.02523828095895
 30
0.0
 40
0.5
100
AcDbArc
 50
89.999999
 51
180.0000029999999
  0
CIRCLE
  5
324
330
2
100
AcDbEntity
  8
MSR_I4_4-2
100
AcDbCircle
 10
22.50000000000063
 20
-66.52523828095894
 30
0.0
 40
0.5
  0
CIRCLE
  5
325
330
2
100
AcDbEntity
  8
MSR_I4_4-2
100
AcDbCircle
 10
22.50000000000063
 20
-69.52523828095895
 30
0.0
 40
0.5
  0
CIRCLE
  5
326
330
2
100
AcDbEntity
  8
MSR_I4_4-0
100
AcDbCircle
 10
0.0000000000000018
 20
-20.00000000000003
 30
0.0
 40
3.0
  0
LINE
  5
327
330
2
100
AcDbEntity
  8
MSR_I4_4-7
100
AcDbLine
 10
4.590400000000046
 20
-20.00000000000003
 30
0.0
 11
-3.628583999999987
 21
-20.00000000000003
 31
0.0
  0
ARC
  5
328
330
2
100
AcDbEntity
  8
MSR_I4_4-0
100
AcDbCircle
 10
0.0000000000000018
 20
-20.00000000000003
 30
0.0
 40
3.0
100
AcDbArc
 50
179.999999
 51
270.000002
  0
CIRCLE
  5
329
330
2
100
AcDbEntity
  8
MSR_I4_4-0
100
AcDbCircle
 10
20.0
 20
-20.0
 30
0.0
 40
2.5
  0
ARC
  5
32A
330
2
100
AcDbEntity
  8
MSR_I4_4-4
100
AcDbCircle
 10
20.0
 20
-20.0
 30
0.0
 40
3.000000000000056
100
AcDbArc
 50
90.0
 51
0.0
  0
LINE
  5
32B
330
2
100
AcDbEntity
  8
MSR_I4_4-7
100
AcDbLine
 10
15.40959999999998
 20
-20.0
 30
0.0
 11
23.62858599999999
 21
-20.0
 31
0.0
  0
LINE
  5
32C
330
2
100
AcDbEntity
  8
MSR_I4_4-0
100
AcDbLine
 10
66.50000000000005
 20
-152.5252382809589
 30
0.0
 11
66.5
 21
-102.5252382809589
 31
0.0
  0
LINE
  5
32D
330
2
100
AcDbEntity
  8
MSR_I4_4-0
100
AcDbLine
 10
72.0
 20
-102.5252382809589
 30
0.0
 11
72.00000000000006
 21
-152.5252382809589
 31
0.0
  0
LINE
  5
32E
330
2
100
AcDbEntity
  8
MSR_I4_4-0
100
AcDbLine
 10
66.49999999999335
 20
-164.5252382809589
 30
0.0
 11
66.49999999999335
 21
-152.5252382809589
 31
0.0
  0
INSERT
  5
32F
330
2
100
AcDbEntity
  8
MSR_I4_4-0
100
AcDbBlockReference
  2
*U36
 10
48.49999999999335
 20
-157.5252382809589
 30
0.0
1001
GENIUS_GEFPARTINS_13
1002
{
1011
48.49999999999335
1021
-157.5252382809589
1031
0.0
1013
1.0
1023
0.0
1033
0.0
1002
}
1001
VCC
1002
{
1000
-ID46
1000
-IE18
1000
-IK46
1000
-V$PV_GENSYSTEM"GEF\VAL\DI\0401\DI1616_D.DXF"
1002
}
1001
GEVIT
1002
{
1000
-BEHI17.00000001
1000
-BVCCT0
1000
-GRP0?
1000
-BAML2
1000
-BASK1
1000
-NT0
1000
-DOC
1005
337
1000
-MYREF
1005
32F
1002
}
1001
GEVPT
1002
{
1000
-V$PV_GENSYSTEM"GEF\VAL\DI\0401\DI1616_D.DXF"
1000
-GPGEF_PROCALC=1
1000
-GPGEF_FLIPY=1
1000
-GPGEF_FLIPX=1
1000
-GPGEF_SNK_ADD=0
1000
-GPGEVPROMPTX=Länge:
1000
-GPGEF_OANG=70
1000
-GPGEF_STANG=210
1000
-GPGEF_DRAG=1
1000
-GPGEF_CDIST=3
1000
-GPVCC_TABLE=C:\GENIUS\gef\val\di\0401\di1616.val
1000
-GPNND=5
1000
-GPPRE=M
1002
}
1001
GENIUS_GENOREF_13
1005
4E3
1005
4E2
1001
GEVMK
1002
{
1000
-CO
1000
-MYREF
1005
32F
1002
}
1001
GEVID891340566
1002
{
1002
}
  0
LINE
  5
340
330
2
100
AcDbEntity
  8
MSR_I4_4-0
100
AcDbLine
 10
37.47927799999997
 20
-205.2155773275708
 30
0.0
 11
66.47927799999997
 21
-205.2155773275708
 31
0.0
  0
LINE
  5
341
330
2
100
AcDbEntity
  8
MSR_I4_4-0
100
AcDbLine
 10
66.47927799999997
 20
-205.2155773275708
 30
0.0
 11
71.97927799999996
 21
-205.2155773275708
 31
0.0
  0
ARC
  5
342
330
2
100
AcDbEntity
  8
MSR_I4_4-4
100
AcDbCircle
 10
50.0
 20
-141.0252382809589
 30
0.0
 40
2.5
100
AcDbArc
 50
177.542157
 51
94.61093400000001
  0
LINE
  5
343
330
2
100
AcDbEntity
  8
MSR_I4_4-7
100
AcDbLine
 10
47.5
 20
-141.0252382809589
 30
0.0
 11
52.5
 21
-141.0252382809589
 31
0.0
  0
LINE
  5
344
330
2
100
AcDbEntity
  8
MSR_I4_4-7
100
AcDbLine
 10
50.0
 20
-138.5252382809589
 30
0.0
 11
50.0
 21
-143.5252382809589
 31
0.0
  0
CIRCLE
  5
345
330
2
100
AcDbEntity
  8
MSR_I4_4-0
100
AcDbCircle
 10
50.0
 20
-141.0252382809589
 30
0.0
 40
2.0
  0
LINE
  5
346
330
2
100
AcDbEntity
  8
MSR_I4_4-0
100
AcDbLine
 10
71.99999999999334
 20
-152.5252382809589
 30
0.0
 11
66.49999999999335
 21
-152.5252382809589
 31
0.0
  0
LINE
  5
347
330
2
100
AcDbEntity
  8
MSR_I4_4-2
100
AcDbLine
 10
37.5
 20
-80.52523828095894
 30
0.0
 11
37.5
 21
-59.52523828095895
 31
0.0
  0
LINE
  5
348
330
2
100
AcDbEntity
  8
MSR_I4_4-2
100
AcDbLine
 10
37.0
 20
-93.52523828095895
 30
0.0
 11
37.0
 21
-102.0252382809589
 31
0.0
  0
LINE
  5
349
330
2
100
AcDbEntity
  8
MSR_I4_4-2
100
AcDbLine
 10
37.0
 20
-80.52523828095894
 30
0.0
 11
37.0
 21
-81.52523828095894
 31
0.0
  0
LINE
  5
34A
330
2
100
AcDbEntity
  8
MSR_I4_4-0
100
AcDbLine
 10
66.5
 20
-102.5252382809589
 30
0.0
 11
72.0
 21
-102.5252382809589
 31
0.0
  0
LINE
  5
34B
330
2
100
AcDbEntity
  8
MSR_I4_4-0
100
AcDbLine
 10
72.0
 20
-37.5
 30
0.0
 11
66.5
 21
-37.5
 31
0.0
  0
ELLIPSE
  5
34C
330
2
100
AcDbEntity
  8
MSR_I4_4-2
100
AcDbEllipse
 10
-42.00000000000665
 20
42.49999999999937
 30
0.0
 11
32.5
 21
0.0
 31
0.0
210
0.0
220
0.0
230
-1.0
 40
0.8307692307692107
 41
2.955332350013258
 42
4.712388980384888
  0
ELLIPSE
  5
34D
330
2
100
AcDbEntity
  8
MSR_I4_4-2
100
AcDbEllipse
 10
-42.00000000000665
 20
42.49999999999937
 30
0.0
 11
36.5
 21
0.0
 31
0.0
210
0.0
220
0.0
230
-1.0
 40
0.8493150684931325
 41
2.769330275035736
 42
4.712388980384888
  0
LINE
  5
34E
330
2
100
AcDbEntity
  8
MSR_I4_4-0
100
AcDbLine
 10
-76.00000000000003
 20
37.50000000000006
 30
0.0
 11
66.5
 21
37.50000000000006
 31
0.0
  0
ARC
  5
34F
330
2
100
AcDbEntity
  8
MSR_I4_4-0
100
AcDbCircle
 10
-77.39070800000002
 20
29.87270599999994
 30
0.0
 40
3.610541999999999
100
AcDbArc
 50
137.435335
 51
223.0617399999999
  0
ARC
  5
350
330
2
100
AcDbEntity
  8
MSR_I4_4-0
100
AcDbCircle
 10
-79.60929000000001
 20
29.87270599999994
 30
0.0
 40
3.610541999999999
100
AcDbArc
 50
316.938259
 51
42.56466999999999
  0
ARC
  5
351
330
2
100
AcDbEntity
  8
MSR_I4_4-0
100
AcDbCircle
 10
-79.60929000000001
 20
15.127296
 30
0.0
 40
3.610541999999999
100
AcDbArc
 50
317.435334
 51
43.061746
  0
LINE
  5
352
330
2
100
AcDbEntity
  8
MSR_I4_4-7
100
AcDbLine
 10
-85.24302400000001
 20
22.5
 30
0.0
 11
-72.38427400000003
 21
22.5
 31
0.0
  0
ARC
  5
353
330
2
100
AcDbEntity
  8
MSR_I4_4-0
100
AcDbCircle
 10
-88.88236400000002
 20
22.500002
 30
0.0
 40
12.882364
100
AcDbArc
 50
337.607746
 51
22.392251
  0
LINE
  5
354
330
2
100
AcDbEntity
  8
MSR_I4_4-0
100
AcDbLine
 10
-76.95007400000003
 20
-12.685044
 30
0.0
 11
-80.04992600000003
 21
-12.685044
 31
0.0
  0
LINE
  5
355
330
2
100
AcDbEntity
  8
MSR_I4_4-0
100
AcDbLine
 10
-81.00000000000003
 20
29.77762999999999
 30
0.0
 11
-81.00000000000003
 21
15.22237000000001
 31
0.0
  0
ARC
  5
356
330
2
100
AcDbEntity
  8
MSR_I4_4-0
100
AcDbCircle
 10
-68.117636
 20
22.5
 30
0.0
 40
12.882364
100
AcDbArc
 50
157.607746
 51
202.392257
  0
ARC
  5
357
330
2
100
AcDbEntity
  8
MSR_I4_4-0
100
AcDbCircle
 10
-77.39070800000002
 20
15.127296
 30
0.0
 40
3.610541999999999
100
AcDbArc
 50
136.938258
 51
222.564662
  0
LINE
  5
358
330
2
100
AcDbEntity
  8
MSR_I4_4-0
100
AcDbLine
 10
-76.95007400000003
 20
12.685046
 30
0.0
 11
-80.04992600000003
 21
12.685046
 31
0.0
  0
LINE
  5
359
330
2
100
AcDbEntity
  8
MSR_I4_4-0
100
AcDbLine
 10
-80.02863800000003
 20
17.59252400000002
 30
0.0
 11
-76.97136200000002
 21
17.59252400000002
 31
0.0
  0
LINE
  5
35A
330
2
100
AcDbEntity
  8
MSR_I4_4-0
100
AcDbLine
 10
-80.02863800000003
 20
27.40747800000003
 30
0.0
 11
-76.97136200000002
 21
27.40747800000003
 31
0.0
  0
LINE
  5
35B
330
2
100
AcDbEntity
  8
MSR_I4_4-0
100
AcDbLine
 10
-80.04992400000004
 20
32.314956
 30
0.0
 11
-76.95007400000003
 21
32.314956
 31
0.0
  0
LINE
  5
35C
330
2
100
AcDbEntity
  8
MSR_I4_4-2
100
AcDbLine
 10
-37.52072200000004
 20
55.50000000000006
 30
0.0
 11
37.47927799999997
 21
55.49999999999994
 31
0.0
  0
LINE
  5
35D
330
2
100
AcDbEntity
  8
MSR_I4_4-7
100
AcDbLine
 10
12.10274599999999
 20
0.0
 30
0.0
 11
-12.66225400000002
 21
0.0
 31
0.0
  0
INSERT
  5
35E
330
2
100
AcDbEntity
  8
MSR_I4_4-0
100
AcDbBlockReference
  2
*U52
 10
-16.00000000000665
 20
37.49999999999687
 30
0.0
 50
270.0
1001
GENIUS_GEFPARTINS_13
1002
{
1011
-16.00000000000665
1021
37.49999999999687
1031
0.0
1013
-0.0000000000000002
1023
-1.0
1033
0.0
1002
}
1001
VCC
1002
{
1000
-ID54
1000
-IE26
1000
-IK54
1000
-V$PV_GENSYSTEM"GEF\VAL\DI\0401\DI1616_V.DXF"
1002
}
1001
GEVIT
1002
{
1000
-BEHI25.00000001
1000
-BVCCT0
1000
-T2
1000
-GRP0MSR_4-0
1000
-BAML2
1000
-BASK1
1000
-NT0
1000
-DOC
1005
369
1000
-MYREF
1005
35E
1002
}
1001
GEVPT
1002
{
1000
-V$PV_GENSYSTEM"GEF\VAL\DI\0401\DI1616_V.DXF"
1000
-FIXPLOTI=5.000000000000000E+00
1000
-GPGEVBHOP=2
1000
-GPGEF_PROCALC=1
1000
-GPGEF_FLIPY=1
1000
-GPGEF_FLIPX=1
1000
-GPGEF_SNK_ADD=0
1000
-GPGEVPROMPTX=Länge:
1000
-GPGEF_OANG=70
1000
-GPGEF_STANG=210
1000
-GPGEF_DRAG=1
1000
-GPGEF_CDIST=3
1000
-GPVCC_TABLE=C:\GENIUS\gef\val\di\0401\di1616.val
1000
-GPNND=5
1000
-GPPRE=M
1002
}
1001
GENIUS_GENOREF_13
1005
4E1
1001
GEVMK
1002
{
1000
-CO
1000
-MYREF
1005
35E
1002
}
1001
GEVID891340574
1002
{
1002
}
  0
LINE
  5
373
330
2
100
AcDbEntity
  8
MSR_I4_4-7
100
AcDbLine
 10
-24.59040000000002
 20
20.0
 30
0.0
 11
-16.37141400000001
 21
20.0
 31
0.0
  0
ARC
  5
374
330
2
100
AcDbEntity
  8
MSR_I4_4-4
100
AcDbCircle
 10
-20.00000000000003
 20
20.0
 30
0.0
 40
3.000000000000056
100
AcDbArc
 50
90.0
 51
0.0
  0
CIRCLE
  5
375
330
2
100
AcDbEntity
  8
MSR_I4_4-0
100
AcDbCircle
 10
-20.00000000000003
 20
20.0
 30
0.0
 40
2.5
  0
LINE
  5
376
330
2
100
AcDbEntity
  8
MSR_I4_4-7
100
AcDbLine
 10
-20.00000000000003
 20
23.6285860000001
 30
0.0
 11
-20.00000000000003
 21
15.59712200000001
 31
0.0
  0
LINE
  5
377
330
2
100
AcDbEntity
  8
MSR_I4_4-2
100
AcDbLine
 10
-20.50000000000961
 20
77.50000000000006
 30
0.0
 11
-32.50000000000233
 21
77.50000000000006
 31
0.0
  0
LINE
  5
378
330
2
100
AcDbEntity
  8
MSR_I4_4-2
100
AcDbLine
 10
-33.50000000000262
 20
56.50000000000733
 30
0.0
 11
-19.49999999999505
 21
56.50000000000005
 31
0.0
  0
LINE
  5
379
330
2
100
AcDbEntity
  8
MSR_I4_4-2
100
AcDbLine
 10
-19.50000000000261
 20
61.50000000000005
 30
0.0
 11
-33.50000000000233
 21
61.50000000000005
 31
0.0
  0
LINE
  5
37A
330
2
100
AcDbEntity
  8
MSR_I4_4-2
100
AcDbLine
 10
-37.52072200000004
 20
37.50000000000006
 30
0.0
 11
-37.52072200000004
 21
55.50000000000006
 31
0.0
  0
LINE
  5
37B
330
2
100
AcDbEntity
  8
MSR_I4_4-2
100
AcDbLine
 10
-32.50000000000233
 20
77.50000000000006
 30
0.0
 11
-32.50000000000227
 21
61.50000000000005
 31
0.0
  0
LINE
  5
37C
330
2
100
AcDbEntity
  8
MSR_I4_4-2
100
AcDbLine
 10
-42.00000000000665
 20
76.99999999999869
 30
0.0
 11
-42.00000000000665
 21
65.99999999999869
 31
0.0
  0
LINE
  5
37D
330
2
100
AcDbEntity
  8
MSR_I4_4-2
100
AcDbLine
 10
-42.00000000000665
 20
65.99999999999869
 30
0.0
 11
-32.5000000000023
 21
65.99999999999869
 31
0.0
  0
LINE
  5
37E
330
2
100
AcDbEntity
  8
MSR_I4_4-2
100
AcDbLine
 10
-33.50000000000262
 20
56.50000000000733
 30
0.0
 11
-33.50000000000233
 21
61.50000000000005
 31
0.0
  0
LINE
  5
37F
330
2
100
AcDbEntity
  8
MSR_I4_4-2
100
AcDbLine
 10
-32.50000000000233
 20
76.99999999999949
 30
0.0
 11
-42.00000000000665
 21
76.99999999999869
 31
0.0
  0
LINE
  5
380
330
2
100
AcDbEntity
  8
MSR_I4_4-2
100
AcDbLine
 10
-20.50000000000233
 20
61.50000000000005
 30
0.0
 11
-20.50000000000961
 21
77.50000000000006
 31
0.0
  0
LINE
  5
381
330
2
100
AcDbEntity
  8
MSR_I4_4-2
100
AcDbLine
 10
-31.00000000000262
 20
55.50000000000006
 30
0.0
 11
-31.00000000000148
 21
56.50000000000438
 31
0.0
  0
LINE
  5
382
330
2
100
AcDbEntity
  8
MSR_I4_4-2
100
AcDbLine
 10
-22.00000000000262
 20
55.50000000000006
 30
0.0
 11
-22.00000000000262
 21
56.50000000000005
 31
0.0
  0
LINE
  5
383
330
2
100
AcDbEntity
  8
MSR_I4_4-2
100
AcDbLine
 10
-19.50000000000261
 20
61.50000000000005
 30
0.0
 11
-19.49999999999505
 21
56.50000000000005
 31
0.0
  0
INSERT
  5
384
330
2
100
AcDbEntity
  8
MSR_I4_4-0
100
AcDbBlockReference
  2
*U48
 10
15.99999999999335
 20
37.50000000000415
 30
0.0
 50
270.0
1001
GENIUS_GEFPARTINS_13
1002
{
1011
15.99999999999335
1021
37.50000000000415
1031
0.0
1013
-0.0000000000000002
1023
-1.0
1033
0.0
1002
}
1001
VCC
1002
{
1000
-ID52
1000
-IE24
1000
-IK52
1000
-V$PV_GENSYSTEM"GEF\VAL\DI\0401\DI1616_V.DXF"
1002
}
1001
GEVIT
1002
{
1000
-BEHI23.00000001
1000
-BVCCT0
1000
-T2
1000
-GRP0MSR_4-0
1000
-BAML2
1000
-BASK1
1000
-NT0
1000
-DOC
1005
38F
1000
-MYREF
1005
384
1002
}
1001
GEVPT
1002
{
1000
-V$PV_GENSYSTEM"GEF\VAL\DI\0401\DI1616_V.DXF"
1000
-FIXPLOTI=5.000000000000000E+00
1000
-GPGEVBHOP=2
1000
-GPGEF_PROCALC=1
1000
-GPGEF_FLIPY=1
1000
-GPGEF_FLIPX=1
1000
-GPGEF_SNK_ADD=0
1000
-GPGEVPROMPTX=Länge:
1000
-GPGEF_OANG=70
1000
-GPGEF_STANG=210
1000
-GPGEF_DRAG=1
1000
-GPGEF_CDIST=3
1000
-GPVCC_TABLE=C:\GENIUS\gef\val\di\0401\di1616.val
1000
-GPNND=5
1000
-GPPRE=M
1002
}
1001
GENIUS_GENOREF_13
1005
4E0
1001
GEVMK
1002
{
1000
-CO
1000
-MYREF
1005
384
1002
}
1001
GEVID891340572
1002
{
1002
}
  0
INSERT
  5
399
330
2
100
AcDbEntity
  8
MSR_I4_4-0
100
AcDbBlockReference
  2
*U50
 10
-0.0000000000066507
 20
37.50000000000415
 30
0.0
 50
270.0
1001
GENIUS_GEFPARTINS_13
1002
{
1011
-0.0000000000066507
1021
37.50000000000415
1031
0.0
1013
-0.0000000000000002
1023
-1.0
1033
0.0
1002
}
1001
VCC
1002
{
1000
-ID53
1000
-IE25
1000
-IK53
1000
-V$PV_GENSYSTEM"GEF\VAL\DI\0401\DI1616_V.DXF"
1002
}
1001
GEVIT
1002
{
1000
-BEHI24.00000001
1000
-BVCCT0
1000
-T2
1000
-GRP0MSR_4-0
1000
-BAML2
1000
-BASK1
1000
-NT0
1000
-DOC
1005
3A4
1000
-MYREF
1005
399
1002
}
1001
GEVPT
1002
{
1000
-V$PV_GENSYSTEM"GEF\VAL\DI\0401\DI1616_V.DXF"
1000
-FIXPLOTI=5.000000000000000E+00
1000
-GPGEVBHOP=2
1000
-GPGEF_PROCALC=1
1000
-GPGEF_FLIPY=1
1000
-GPGEF_FLIPX=1
1000
-GPGEF_SNK_ADD=0
1000
-GPGEVPROMPTX=Länge:
1000
-GPGEF_OANG=70
1000
-GPGEF_STANG=210
1000
-GPGEF_DRAG=1
1000
-GPGEF_CDIST=3
1000
-GPVCC_TABLE=C:\GENIUS\gef\val\di\0401\di1616.val
1000
-GPNND=5
1000
-GPPRE=M
1002
}
1001
GENIUS_GENOREF_13
1005
4DF
1001
GEVMK
1002
{
1000
-CO
1000
-MYREF
1005
399
1002
}
1001
GEVID891340573
1002
{
1002
}
  0
LINE
  5
3AE
330
2
100
AcDbEntity
  8
MSR_I4_4-7
100
AcDbLine
 10
0.0
 20
12.55547000000001
 30
0.0
 11
0.0
 21
-10.43615999999997
 31
0.0
  0
LINE
  5
3AF
330
2
100
AcDbEntity
  8
MSR_I4_4-7
100
AcDbLine
 10
20.0
 20
23.6285860000001
 30
0.0
 11
20.0
 21
15.59712200000001
 31
0.0
  0
CIRCLE
  5
3B0
330
2
100
AcDbEntity
  8
MSR_I4_4-0
100
AcDbCircle
 10
20.0
 20
20.0
 30
0.0
 40
2.5
  0
ARC
  5
3B1
330
2
100
AcDbEntity
  8
MSR_I4_4-4
100
AcDbCircle
 10
20.0
 20
20.0
 30
0.0
 40
3.000000000000056
100
AcDbArc
 50
90.0
 51
0.0
  0
LINE
  5
3B2
330
2
100
AcDbEntity
  8
MSR_I4_4-7
100
AcDbLine
 10
15.40959999999998
 20
20.0
 30
0.0
 11
23.62858599999999
 21
20.0
 31
0.0
  0
INSERT
  5
3B3
330
2
100
AcDbEntity
  8
MSR_I4_4-0
100
AcDbBlockReference
  2
*U46
 10
48.49999999999335
 20
37.50000000000006
 30
0.0
 50
270.0
1001
GENIUS_GEFPARTINS_13
1002
{
1011
48.49999999999335
1021
37.50000000000006
1031
0.0
1013
-0.0000000000000002
1023
-1.0
1033
0.0
1002
}
1001
VCC
1002
{
1000
-ID51
1000
-IE23
1000
-IK51
1000
-V$PV_GENSYSTEM"GEF\VAL\DI\0401\DI1616_V.DXF"
1002
}
1001
GEVIT
1002
{
1000
-BEHI22.00000001
1000
-BVCCT0
1000
-T2
1000
-GRP0MSR_4-0
1000
-BAML2
1000
-BASK1
1000
-NT0
1000
-DOC
1005
3BE
1000
-MYREF
1005
3B3
1002
}
1001
GEVPT
1002
{
1000
-V$PV_GENSYSTEM"GEF\VAL\DI\0401\DI1616_V.DXF"
1000
-FIXPLOTI=5.000000000000000E+00
1000
-GPGEVBHOP=2
1000
-GPGEF_PROCALC=1
1000
-GPGEF_FLIPY=1
1000
-GPGEF_FLIPX=1
1000
-GPGEF_SNK_ADD=0
1000
-GPGEVPROMPTX=Länge:
1000
-GPGEF_OANG=70
1000
-GPGEF_STANG=210
1000
-GPGEF_DRAG=1
1000
-GPGEF_CDIST=3
1000
-GPVCC_TABLE=C:\GENIUS\gef\val\di\0401\di1616.val
1000
-GPNND=5
1000
-GPPRE=M
1002
}
1001
GENIUS_GENOREF_13
1005
4DE
1001
GEVMK
1002
{
1000
-CO
1000
-MYREF
1005
3B3
1002
}
1001
GEVID891340571
1002
{
1002
}
  0
LINE
  5
3C8
330
2
100
AcDbEntity
  8
MSR_I4_4-2
100
AcDbLine
 10
37.47927799999997
 20
55.49999999999994
 30
0.0
 11
37.47927799999991
 21
37.50000000000006
 31
0.0
  0
LINE
  5
3C9
330
2
100
AcDbEntity
  8
MSR_I4_4-0
100
AcDbLine
 10
66.5
 20
37.50000000000006
 30
0.0
 11
72.0
 21
37.50000000000006
 31
0.0
  0
LINE
  5
3CA
330
2
100
AcDbEntity
  8
MSR_I4_4-0
100
AcDbLine
 10
213.4633900000009
 20
-88.02523828096985
 30
0.0
 11
217.2161660000008
 21
-94.52523828096985
 31
0.0
  0
LINE
  5
3CB
330
2
100
AcDbEntity
  8
MSR_I4_4-7
100
AcDbLine
 10
228.4744960000008
 20
-88.02523828096985
 30
0.0
 11
213.4633900000009
 21
-88.02523828096985
 31
0.0
  0
LINE
  5
3CC
330
2
100
AcDbEntity
  8
MSR_I4_4-0
100
AcDbLine
 10
217.2161660000008
 20
-81.52523828096986
 30
0.0
 11
213.4633900000009
 21
-88.02523828096985
 31
0.0
  0
LINE
  5
3CD
330
2
100
AcDbEntity
  8
MSR_I4_4-2
100
AcDbLine
 10
204.6577547390486
 20
-64.53417060135547
 30
0.0
 11
262.6577521651786
 21
-70.03417035726528
 31
0.0
  0
LINE
  5
3CE
330
2
100
AcDbEntity
  8
MSR_I4_4-2
100
AcDbLine
 10
262.2801358348231
 20
-74.01630620465169
 30
0.0
 11
204.280135834824
 21
-68.51630620465897
 31
0.0
  0
LINE
  5
3CF
330
2
100
AcDbEntity
  8
MSR_I4_4-0
100
AcDbLine
 10
210.7368920000008
 20
-119.5252382809698
 30
0.0
 11
214.2009940000008
 21
-119.5252382809698
 31
0.0
  0
LINE
  5
3D0
330
2
100
AcDbEntity
  8
MSR_I4_4-0
100
AcDbLine
 10
214.2009940000008
 20
-125.5252382809698
 30
0.0
 11
210.7368920000008
 21
-125.5252382809698
 31
0.0
  0
CIRCLE
  5
3D1
330
2
100
AcDbEntity
  8
MSR_I4_4-0
100
AcDbCircle
 10
212.4689440000008
 20
-122.5252382809698
 30
0.0
 40
7.0
  0
LINE
  5
3D2
330
2
100
AcDbEntity
  8
MSR_I4_4-0
100
AcDbLine
 10
217.3764200000008
 20
-131.0252382809698
 30
0.0
 11
207.5614660000008
 21
-131.0252382809698
 31
0.0
  0
LINE
  5
3D3
330
2
100
AcDbEntity
  8
MSR_I4_4-7
100
AcDbLine
 10
199.9689440000008
 20
-122.5252382809698
 30
0.0
 11
224.9689440000008
 21
-122.5252382809698
 31
0.0
  0
LINE
  5
3D4
330
2
100
AcDbEntity
  8
MSR_I4_4-0
100
AcDbLine
 10
207.5614660000008
 20
-114.0252382809698
 30
0.0
 11
217.3764200000008
 21
-114.0252382809698
 31
0.0
  0
LINE
  5
3D5
330
2
100
AcDbEntity
  8
MSR_I4_4-0
100
AcDbLine
 10
213.4689440000008
 20
-102.5252382809698
 30
0.0
 11
228.4689440000008
 21
-114.5252382809698
 31
0.0
  0
LINE
  5
3D6
330
2
100
AcDbEntity
  8
MSR_I4_4-2
100
AcDbLine
 10
228.4689440000008
 20
-80.52523828096985
 30
0.0
 11
153.4689440000008
 21
-80.52523828096985
 31
0.0
  0
LINE
  5
3D7
330
2
100
AcDbEntity
  8
MSR_I4_4-0
100
AcDbLine
 10
153.4689440000008
 20
-81.02523828096986
 30
0.0
 11
228.4689440000008
 21
-81.02523828096986
 31
0.0
  0
LINE
  5
3D8
330
2
100
AcDbEntity
  8
MSR_I4_4-0
100
AcDbLine
 10
228.4689440000008
 20
-96.02523828096986
 30
0.0
 11
153.4689440000008
 21
-96.02523828096986
 31
0.0
  0
LINE
  5
3D9
330
2
100
AcDbEntity
  8
MSR_I4_4-0
100
AcDbLine
 10
228.4689440000008
 20
-102.5252382809698
 30
0.0
 11
153.4689440000008
 21
-102.5252382809698
 31
0.0
  0
LINE
  5
3DA
330
2
100
AcDbEntity
  8
MSR_I4_4-2
100
AcDbLine
 10
153.4689440000008
 20
-59.52523828096985
 30
0.0
 11
228.4689440000008
 21
-59.52523828096985
 31
0.0
  0
LINE
  5
3DB
330
2
100
AcDbEntity
  8
MSR_I4_4-0
100
AcDbLine
 10
228.4689440000008
 20
-152.5252382809589
 30
0.0
 11
153.4689440000008
 21
-152.5252382809589
 31
0.0
  0
LINE
  5
3DC
330
2
100
AcDbEntity
  8
MSR_I4_4-0
100
AcDbLine
 10
153.4689440000008
 20
-164.5252382809698
 30
0.0
 11
228.4689440000008
 21
-164.5252382809698
 31
0.0
  0
LINE
  5
3DD
330
2
100
AcDbEntity
  8
MSR_I4_4-7
100
AcDbLine
 10
212.4689440000008
 20
-110.0252382809698
 30
0.0
 11
212.4689440000008
 21
-135.0252382809698
 31
0.0
  0
LINE
  5
3DE
330
2
100
AcDbEntity
  8
MSR_I4_4-7
100
AcDbLine
 10
169.4689440000008
 20
-110.0252382809698
 30
0.0
 11
169.4689440000008
 21
-135.0252382809698
 31
0.0
  0
LINE
  5
3DF
330
2
100
AcDbEntity
  8
MSR_I4_4-0
100
AcDbLine
 10
153.4689440000008
 20
-114.5252382809698
 30
0.0
 11
168.4689440000008
 21
-102.5252382809698
 31
0.0
  0
LINE
  5
3E0
330
2
100
AcDbEntity
  8
MSR_I4_4-0
100
AcDbLine
 10
153.4689440000008
 20
-152.4632462809699
 30
0.0
 11
153.4689440000008
 21
-102.5252382809698
 31
0.0
  0
LINE
  5
3E1
330
2
100
AcDbEntity
  8
MSR_I4_4-0
100
AcDbLine
 10
167.7368920000008
 20
-119.5252382809698
 30
0.0
 11
171.2009940000008
 21
-119.5252382809698
 31
0.0
  0
LINE
  5
3E2
330
2
100
AcDbEntity
  8
MSR_I4_4-0
100
AcDbLine
 10
164.5614660000008
 20
-114.0252382809698
 30
0.0
 11
174.3764200000008
 21
-114.0252382809698
 31
0.0
  0
LINE
  5
3E3
330
2
100
AcDbEntity
  8
MSR_I4_4-0
100
AcDbLine
 10
174.3764200000008
 20
-131.0252382809698
 30
0.0
 11
164.5614660000008
 21
-131.0252382809698
 31
0.0
  0
LINE
  5
3E4
330
2
100
AcDbEntity
  8
MSR_I4_4-0
100
AcDbLine
 10
171.2009940000008
 20
-125.5252382809698
 30
0.0
 11
167.7368920000008
 21
-125.5252382809698
 31
0.0
  0
CIRCLE
  5
3E5
330
2
100
AcDbEntity
  8
MSR_I4_4-0
100
AcDbCircle
 10
169.4689440000008
 20
-122.5252382809698
 30
0.0
 40
6.5
  0
LINE
  5
3E6
330
2
100
AcDbEntity
  8
MSR_I4_4-7
100
AcDbLine
 10
156.9689440000008
 20
-122.5252382809698
 30
0.0
 11
181.9689440000008
 21
-122.5252382809698
 31
0.0
  0
TEXT
  5
3E7
330
2
100
AcDbEntity
  8
MSR_I4_4-6
100
AcDbText
 10
159.6043320120092
 20
-146.8751401444871
 30
0.0
 40
3.5
  1
MSR I-4/4
100
AcDbText
  0
LINE
  5
3E8
330
2
100
AcDbEntity
  8
MSR_I4_4-0
100
AcDbLine
 10
153.4689440000008
 20
-152.4632462809699
 30
0.0
 11
153.4689440000008
 21
-164.5252382809698
 31
0.0
  0
LINE
  5
3E9
330
2
100
AcDbEntity
  8
MSR_I4_4-0
100
AcDbLine
 10
167.7368920000008
 20
-125.5252382809698
 30
0.0
 11
166.0048420000008
 21
-122.5252382809698
 31
0.0
  0
LINE
  5
3EA
330
2
100
AcDbEntity
  8
MSR_I4_4-0
100
AcDbLine
 10
164.5614660000008
 20
-131.0252382809698
 30
0.0
 11
159.6539880000008
 21
-122.5252382809698
 31
0.0
  0
LINE
  5
3EB
330
2
100
AcDbEntity
  8
MSR_I4_4-0
100
AcDbLine
 10
159.6539880000008
 20
-122.5252382809698
 30
0.0
 11
164.5614660000008
 21
-114.0252382809698
 31
0.0
  0
LINE
  5
3EC
330
2
100
AcDbEntity
  8
MSR_I4_4-0
100
AcDbLine
 10
166.0048420000008
 20
-122.5252382809698
 30
0.0
 11
167.7368920000008
 21
-119.5252382809698
 31
0.0
  0
LINE
  5
3ED
330
2
100
AcDbEntity
  8
MSR_I4_4-7
100
AcDbLine
 10
210.9689440000008
 20
-148.3338562809699
 30
0.0
 11
210.9689440000008
 21
-166.5252382809589
 31
0.0
  0
LINE
  5
3EE
330
2
100
AcDbEntity
  8
MSR_I4_4-7
100
AcDbLine
 10
170.9689440000008
 20
-149.1276062809699
 30
0.0
 11
170.9689440000008
 21
-166.5252382809589
 31
0.0
  0
CIRCLE
  5
3EF
330
2
100
AcDbEntity
  8
MSR_I4_4-0
100
AcDbCircle
 10
190.9689440000008
 20
-142.5252382809698
 30
0.0
 40
6.0
  0
LINE
  5
3F0
330
2
100
AcDbEntity
  8
MSR_I4_4-7
100
AcDbLine
 10
183.0822620000008
 20
-142.5252382809698
 30
0.0
 11
198.7304760000008
 21
-142.5252382809698
 31
0.0
  0
LINE
  5
3F1
330
2
100
AcDbEntity
  8
MSR_I4_4-7
100
AcDbLine
 10
190.9689440000008
 20
-134.7206742809698
 30
0.0
 11
190.9689440000008
 21
-150.4255842809699
 31
0.0
  0
LINE
  5
3F2
330
2
100
AcDbEntity
  8
MSR_I4_4-0
100
AcDbLine
 10
179.2838980000009
 20
-122.5252382809698
 30
0.0
 11
174.3764200000008
 21
-131.0252382809698
 31
0.0
  0
LINE
  5
3F3
330
2
100
AcDbEntity
  8
MSR_I4_4-0
100
AcDbLine
 10
172.9330460000008
 20
-122.5252382809698
 30
0.0
 11
171.2009940000008
 21
-125.5252382809698
 31
0.0
  0
LINE
  5
3F4
330
2
100
AcDbEntity
  8
MSR_I4_4-0
100
AcDbLine
 10
174.3764200000008
 20
-114.0252382809698
 30
0.0
 11
179.2838980000009
 21
-122.5252382809698
 31
0.0
  0
LINE
  5
3F5
330
2
100
AcDbEntity
  8
MSR_I4_4-0
100
AcDbLine
 10
171.2009940000008
 20
-119.5252382809698
 30
0.0
 11
172.9330460000008
 21
-122.5252382809698
 31
0.0
  0
LINE
  5
3F6
330
2
100
AcDbEntity
  8
MSR_I4_4-0
100
AcDbLine
 10
210.7368920000008
 20
-125.5252382809698
 30
0.0
 11
209.0048420000008
 21
-122.5252382809698
 31
0.0
  0
LINE
  5
3F7
330
2
100
AcDbEntity
  8
MSR_I4_4-0
100
AcDbLine
 10
207.5614660000008
 20
-131.0252382809698
 30
0.0
 11
202.6539880000008
 21
-122.5252382809698
 31
0.0
  0
LINE
  5
3F8
330
2
100
AcDbEntity
  8
MSR_I4_4-0
100
AcDbLine
 10
202.6539880000008
 20
-122.5252382809698
 30
0.0
 11
207.5614660000008
 21
-114.0252382809698
 31
0.0
  0
LINE
  5
3F9
330
2
100
AcDbEntity
  8
MSR_I4_4-0
100
AcDbLine
 10
209.0048420000008
 20
-122.5252382809698
 30
0.0
 11
210.7368920000008
 21
-119.5252382809698
 31
0.0
  0
LINE
  5
3FA
330
2
100
AcDbEntity
  8
MSR_I4_4-2
100
AcDbLine
 10
163.4689440000008
 20
-61.62523828096988
 30
0.0
 11
170.4689440000008
 21
-61.62523828096988
 31
0.0
  0
LINE
  5
3FB
330
2
100
AcDbEntity
  8
MSR_I4_4-2
100
AcDbLine
 10
166.9689440000008
 20
-75.02523828096986
 30
0.0
 11
172.2189440000017
 21
-75.02523828097259
 31
0.0
  0
LINE
  5
3FC
330
2
100
AcDbEntity
  8
MSR_I4_4-7
100
AcDbLine
 10
166.9689440000008
 20
-57.50746428096983
 30
0.0
 11
166.9689440000008
 21
-80.5872302809699
 31
0.0
  0
LINE
  5
3FD
330
2
100
AcDbEntity
  8
MSR_I4_4-2
100
AcDbLine
 10
163.4689440000008
 20
-61.62523828096988
 30
0.0
 11
163.4689440000008
 21
-75.02523828096986
 31
0.0
  0
LINE
  5
3FE
330
2
100
AcDbEntity
  8
MSR_I4_4-4
100
AcDbLine
 10
162.9689440000008
 20
-61.62523828096988
 30
0.0
 11
162.9689440000008
 21
-75.02523828096986
 31
0.0
  0
LINE
  5
3FF
330
2
100
AcDbEntity
  8
MSR_I4_4-2
100
AcDbLine
 10
153.4689440000008
 20
-80.52523828096985
 30
0.0
 11
153.4689440000008
 21
-59.52523828096985
 31
0.0
  0
INSERT
  5
400
330
2
100
AcDbEntity
  8
MSR_I4_4-8
100
AcDbBlockReference
  2
*X1
 10
-226.059364
 20
-443.7721462809589
 30
0.0
1001
GENIUS_GENODEF_13
1002
{
1000
HIER
1070
     0
1002
}
1002
{
1000
MANEDIT
1070
     0
1002
}
1002
{
1000
NOSEL
1070
     0
1002
}
1002
{
1000
BEHIND
1070
     0
1002
}
1002
{
1000
REACTOR
1002
}
1001
GENIUS_GENOBJ-N-HTC_13
1002
{
1000
OWNER
1000
GEN
1002
}
1001
GENIUS_GENHATCH_13
1002
{
1000
DATA
1040
45.0
1042
2.5
1000
_U
1070
     0
1011
158.0160529731299
1021
-70.31069136080663
1031
0.0
1002
}
1002
{
1000
UCS
1010
0.0
1020
0.0
1030
0.0
1010
1.0
1020
0.0
1030
0.0
1010
0.0
1020
1.0
1030
0.0
1002
}
1001
ACAD
1000
HATCH
1002
{
1070
    19
1000
_U
1040
2.5
1040
0.7853981633974483
1070
     0
1002
}
  0
LINE
  5
40F
330
2
100
AcDbEntity
  8
MSR_I4_4-0
100
AcDbLine
 10
168.9689440000008
 20
-81.02523828096986
 30
0.0
 11
168.9689440000008
 21
-96.02523828096986
 31
0.0
  0
LINE
  5
410
330
2
100
AcDbEntity
  8
MSR_I4_4-0
100
AcDbLine
 10
164.7217200000008
 20
-81.52523828096986
 30
0.0
 11
168.4744960000008
 21
-88.02523828096985
 31
0.0
  0
LINE
  5
411
330
2
100
AcDbEntity
  8
MSR_I4_4-7
100
AcDbLine
 10
160.9689440000008
 20
-80.52523828096985
 30
0.0
 11
160.9689440000008
 21
-94.52523828096985
 31
0.0
  0
LINE
  5
412
330
2
100
AcDbEntity
  8
MSR_I4_4-0
100
AcDbLine
 10
153.4689440000008
 20
-96.02523828096986
 30
0.0
 11
153.4689440000008
 21
-81.02523828096986
 31
0.0
  0
LINE
  5
413
330
2
100
AcDbEntity
  8
MSR_I4_4-0
100
AcDbLine
 10
153.4633900000008
 20
-88.02523828096985
 30
0.0
 11
157.2161660000008
 21
-81.52523828096986
 31
0.0
  0
CIRCLE
  5
414
330
2
100
AcDbEntity
  8
MSR_I4_4-0
100
AcDbCircle
 10
160.9689440000008
 20
-88.02523828096985
 30
0.0
 40
5.0
  0
LINE
  5
415
330
2
100
AcDbEntity
  8
MSR_I4_4-0
100
AcDbLine
 10
164.7217200000008
 20
-94.52523828096985
 30
0.0
 11
157.2161660000008
 21
-94.52523828096985
 31
0.0
  0
LINE
  5
416
330
2
100
AcDbEntity
  8
MSR_I4_4-7
100
AcDbLine
 10
153.4633900000008
 20
-88.02523828096985
 30
0.0
 11
168.4744960000008
 21
-88.02523828096985
 31
0.0
  0
LINE
  5
417
330
2
100
AcDbEntity
  8
MSR_I4_4-0
100
AcDbLine
 10
153.4689440000008
 20
-102.5252382809698
 30
0.0
 11
153.4689440000008
 21
-96.02523828096986
 31
0.0
  0
LINE
  5
418
330
2
100
AcDbEntity
  8
MSR_I4_4-0
100
AcDbLine
 10
157.2161660000008
 20
-94.52523828096985
 30
0.0
 11
153.4633900000008
 21
-88.02523828096985
 31
0.0
  0
LINE
  5
419
330
2
100
AcDbEntity
  8
MSR_I4_4-0
100
AcDbLine
 10
168.4744960000008
 20
-88.02523828096985
 30
0.0
 11
164.7217200000008
 21
-94.52523828096985
 31
0.0
  0
LINE
  5
41A
330
2
100
AcDbEntity
  8
MSR_I4_4-0
100
AcDbLine
 10
157.2161660000008
 20
-81.52523828096986
 30
0.0
 11
164.7217200000008
 21
-81.52523828096986
 31
0.0
  0
LINE
  5
41B
330
2
100
AcDbEntity
  8
MSR_I4_4-2
100
AcDbLine
 10
161.7189439999999
 20
-75.02523828097259
 30
0.0
 11
161.7189439999999
 21
-80.52523828096985
 31
0.0
  0
LINE
  5
41C
330
2
100
AcDbEntity
  8
MSR_I4_4-2
100
AcDbLine
 10
166.9689440000008
 20
-75.02523828096986
 30
0.0
 11
161.7189439999999
 21
-75.02523828097259
 31
0.0
  0
LINE
  5
41D
330
2
100
AcDbEntity
  8
MSR_I4_4-2
100
AcDbLine
 10
161.9689439999999
 20
-61.62523828097113
 30
0.0
 11
161.9689439999999
 21
-59.52523828096985
 31
0.0
  0
LINE
  5
41E
330
2
100
AcDbEntity
  8
MSR_I4_4-2
100
AcDbLine
 10
163.4689440000008
 20
-61.62523828096988
 30
0.0
 11
161.9689439999999
 21
-61.62523828097113
 31
0.0
  0
ARC
  5
41F
330
2
100
AcDbEntity
  8
MSR_I4_4-2
100
AcDbCircle
 10
204.4689440000008
 20
-66.5252382809735
 30
0.0
 40
5.5
100
AcDbArc
 50
15.90666414963674
 51
333.2592916227457
  0
LINE
  5
420
330
2
100
AcDbEntity
  8
MSR_I4_4-4
100
AcDbLine
 10
170.9689440000008
 20
-61.62523828096988
 30
0.0
 11
170.9689440000008
 21
-75.02523828096986
 31
0.0
  0
LINE
  5
421
330
2
100
AcDbEntity
  8
MSR_I4_4-2
100
AcDbLine
 10
170.4689440000008
 20
-61.62523828096988
 30
0.0
 11
170.4689440000008
 21
-75.02523828096986
 31
0.0
  0
INSERT
  5
422
330
2
100
AcDbEntity
  8
MSR_I4_4-8
100
AcDbBlockReference
  2
*X2
 10
-226.059364
 20
-489.21225
 30
0.0
1001
GENIUS_GENODEF_13
1002
{
1000
HIER
1070
     0
1002
}
1002
{
1000
MANEDIT
1070
     0
1002
}
1002
{
1000
NOSEL
1070
     0
1002
}
1002
{
1000
BEHIND
1070
     0
1002
}
1002
{
1000
REACTOR
1002
}
1001
GENIUS_GENOBJ-N-HTC_13
1002
{
1000
OWNER
1000
GEN
1002
}
1001
GENIUS_GENHATCH_13
1002
{
1000
DATA
1040
45.0
1042
2.5
1000
_U
1070
     0
1011
172.6805549893653
1021
-66.01155516279544
1031
0.0
1002
}
1002
{
1000
UCS
1010
0.0
1020
0.0
1030
0.0
1010
1.0
1020
0.0
1030
0.0
1010
0.0
1020
1.0
1030
0.0
1002
}
1001
ACAD
1000
HATCH
1002
{
1070
    19
1000
_U
1040
2.5
1040
0.7853981633974483
1070
     0
1002
}
  0
POLYLINE
  5
42C
330
2
100
AcDbEntity
  8
MSR_I4_4-4
100
AcDb2dPolyline
 66
     1
 10
0.0
 20
0.0
 30
0.0
 70
     4
 75
     6
  0
VERTEX
  5
42D
330
42C
100
AcDbEntity
  8
MSR_I4_4-4
100
AcDbVertex
100
AcDb2dVertex
 10
174.8845807010759
 20
-80.52523828096985
 30
0.0
 70
    16
  0
VERTEX
  5
42E
330
42C
100
AcDbEntity
  8
MSR_I4_4-4
100
AcDbVertex
100
AcDb2dVertex
 10
174.8845807010759
 20
-80.52523828096985
 30
0.0
 70
     8
  0
VERTEX
  5
42F
330
42C
100
AcDbEntity
  8
MSR_I4_4-4
100
AcDbVertex
100
AcDb2dVertex
 10
174.9504732155104
 20
-79.42732341642238
 30
0.0
 70
     8
  0
VERTEX
  5
430
330
42C
100
AcDbEntity
  8
MSR_I4_4-4
100
AcDbVertex
100
AcDb2dVertex
 10
174.9767169303972
 20
-78.55937917244495
 30
0.0
 70
     8
  0
VERTEX
  5
431
330
42C
100
AcDbEntity
  8
MSR_I4_4-4
100
AcDbVertex
100
AcDb2dVertex
 10
174.9671634348039
 20
-77.8829890381827
 30
0.0
 70
     8
  0
VERTEX
  5
432
330
42C
100
AcDbEntity
  8
MSR_I4_4-4
100
AcDbVertex
100
AcDb2dVertex
 10
174.9256643177981
 20
-77.35973650278072
 30
0.0
 70
     8
  0
VERTEX
  5
433
330
42C
100
AcDbEntity
  8
MSR_I4_4-4
100
AcDbVertex
100
AcDb2dVertex
 10
174.8560711684476
 20
-76.95120505538415
 30
0.0
 70
     8
  0
VERTEX
  5
434
330
42C
100
AcDbEntity
  8
MSR_I4_4-4
100
AcDbVertex
100
AcDb2dVertex
 10
174.7622355758201
 20
-76.61897818513796
 30
0.0
 70
     8
  0
VERTEX
  5
435
330
42C
100
AcDbEntity
  8
MSR_I4_4-4
100
AcDbVertex
100
AcDb2dVertex
 10
174.6480091289834
 20
-76.32463938118736
 30
0.0
 70
     8
  0
VERTEX
  5
436
330
42C
100
AcDbEntity
  8
MSR_I4_4-4
100
AcDbVertex
100
AcDb2dVertex
 10
174.5172434170051
 20
-76.02977213267735
 30
0.0
 70
     8
  0
VERTEX
  5
437
330
42C
100
AcDbEntity
  8
MSR_I4_4-4
100
AcDbVertex
100
AcDb2dVertex
 10
174.3743186847363
 20
-75.70336272046024
 30
0.0
 70
     8
  0
VERTEX
  5
438
330
42C
100
AcDbEntity
  8
MSR_I4_4-4
100
AcDbVertex
100
AcDb2dVertex
 10
174.2257298001617
 20
-75.34400859221699
 30
0.0
 70
     8
  0
VERTEX
  5
439
330
42C
100
AcDbEntity
  8
MSR_I4_4-4
100
AcDbVertex
100
AcDb2dVertex
 10
174.0785002870494
 20
-74.95770998733582
 30
0.0
 70
     8
  0
VERTEX
  5
43A
330
42C
100
AcDbEntity
  8
MSR_I4_4-4
100
AcDbVertex
100
AcDb2dVertex
 10
173.9396536691675
 20
-74.55046714520489
 30
0.0
 70
     8
  0
VERTEX
  5
43B
330
42C
100
AcDbEntity
  8
MSR_I4_4-4
100
AcDbVertex
100
AcDb2dVertex
 10
173.8162134702842
 20
-74.12828030521234
 30
0.0
 70
     8
  0
VERTEX
  5
43C
330
42C
100
AcDbEntity
  8
MSR_I4_4-4
100
AcDbVertex
100
AcDb2dVertex
 10
173.7152032141673
 20
-73.69714970674635
 30
0.0
 70
     8
  0
VERTEX
  5
43D
330
42C
100
AcDbEntity
  8
MSR_I4_4-4
100
AcDbVertex
100
AcDb2dVertex
 10
173.6436464245853
 20
-73.26307558919523
 30
0.0
 70
     8
  0
VERTEX
  5
43E
330
42C
100
AcDbEntity
  8
MSR_I4_4-4
100
AcDbVertex
100
AcDb2dVertex
 10
173.608566625306
 20
-72.83205819194694
 30
0.0
 70
     8
  0
VERTEX
  5
43F
330
42C
100
AcDbEntity
  8
MSR_I4_4-4
100
AcDbVertex
100
AcDb2dVertex
 10
173.6147594484237
 20
-72.40883355276821
 30
0.0
 70
     8
  0
VERTEX
  5
440
330
42C
100
AcDbEntity
  8
MSR_I4_4-4
100
AcDbVertex
100
AcDb2dVertex
 10
173.6581089593367
 20
-71.99308090293948
 30
0.0
 70
     8
  0
VERTEX
  5
441
330
42C
100
AcDbEntity
  8
MSR_I4_4-4
100
AcDbVertex
100
AcDb2dVertex
 10
173.7322713317696
 20
-71.5832152721195
 30
0.0
 70
     8
  0
VERTEX
  5
442
330
42C
100
AcDbEntity
  8
MSR_I4_4-4
100
AcDbVertex
100
AcDb2dVertex
 10
173.830902739447
 20
-71.1776516899672
 30
0.0
 70
     8
  0
VERTEX
  5
443
330
42C
100
AcDbEntity
  8
MSR_I4_4-4
100
AcDbVertex
100
AcDb2dVertex
 10
173.9476593560932
 20
-70.77480518614141
 30
0.0
 70
     8
  0
VERTEX
  5
444
330
42C
100
AcDbEntity
  8
MSR_I4_4-4
100
AcDbVertex
100
AcDb2dVertex
 10
174.0761973554329
 20
-70.37309079030092
 30
0.0
 70
     8
  0
VERTEX
  5
445
330
42C
100
AcDbEntity
  8
MSR_I4_4-4
100
AcDbVertex
100
AcDb2dVertex
 10
174.2101729111904
 20
-69.97092353210468
 30
0.0
 70
     8
  0
VERTEX
  5
446
330
42C
100
AcDbEntity
  8
MSR_I4_4-4
100
AcDbVertex
100
AcDb2dVertex
 10
174.3432421970904
 20
-69.56671844121138
 30
0.0
 70
     8
  0
VERTEX
  5
447
330
42C
100
AcDbEntity
  8
MSR_I4_4-4
100
AcDbVertex
100
AcDb2dVertex
 10
174.4700809304825
 20
-69.15953208352163
 30
0.0
 70
     8
  0
VERTEX
  5
448
330
42C
100
AcDbEntity
  8
MSR_I4_4-4
100
AcDbVertex
100
AcDb2dVertex
 10
174.5894430032175
 20
-68.75098716990215
 30
0.0
 70
     8
  0
VERTEX
  5
449
330
42C
100
AcDbEntity
  8
MSR_I4_4-4
100
AcDbVertex
100
AcDb2dVertex
 10
174.7011018507713
 20
-68.34334794746133
 30
0.0
 70
     8
  0
VERTEX
  5
44A
330
42C
100
AcDbEntity
  8
MSR_I4_4-4
100
AcDbVertex
100
AcDb2dVertex
 10
174.80483090862
 20
-67.9388786633076
 30
0.0
 70
     8
  0
VERTEX
  5
44B
330
42C
100
AcDbEntity
  8
MSR_I4_4-4
100
AcDbVertex
100
AcDb2dVertex
 10
174.9004036122393
 20
-67.53984356454947
 30
0.0
 70
     8
  0
VERTEX
  5
44C
330
42C
100
AcDbEntity
  8
MSR_I4_4-4
100
AcDbVertex
100
AcDb2dVertex
 10
174.9875933971054
 20
-67.14850689829518
 30
0.0
 70
     8
  0
VERTEX
  5
44D
330
42C
100
AcDbEntity
  8
MSR_I4_4-4
100
AcDbVertex
100
AcDb2dVertex
 10
175.0661736986941
 20
-66.76713291165322
 30
0.0
 70
     8
  0
VERTEX
  5
44E
330
42C
100
AcDbEntity
  8
MSR_I4_4-4
100
AcDbVertex
100
AcDb2dVertex
 10
175.1359179524815
 20
-66.39798585173195
 30
0.0
 70
     8
  0
VERTEX
  5
44F
330
42C
100
AcDbEntity
  8
MSR_I4_4-4
100
AcDbVertex
100
AcDb2dVertex
 10
175.1970904853791
 20
-66.04236766127747
 30
0.0
 70
     8
  0
VERTEX
  5
450
330
42C
100
AcDbEntity
  8
MSR_I4_4-4
100
AcDbVertex
100
AcDb2dVertex
 10
175.2519191900409
 20
-65.69773106558614
 30
0.0
 70
     8
  0
VERTEX
  5
451
330
42C
100
AcDbEntity
  8
MSR_I4_4-4
100
AcDbVertex
100
AcDb2dVertex
 10
175.3031228505567
 20
-65.36056648559213
 30
0.0
 70
     8
  0
VERTEX
  5
452
330
42C
100
AcDbEntity
  8
MSR_I4_4-4
100
AcDbVertex
100
AcDb2dVertex
 10
175.353420251016
 20
-65.02736434222942
 30
0.0
 70
     8
  0
VERTEX
  5
453
330
42C
100
AcDbEntity
  8
MSR_I4_4-4
100
AcDbVertex
100
AcDb2dVertex
 10
175.4055301755086
 20
-64.69461505643216
 30
0.0
 70
     8
  0
VERTEX
  5
454
330
42C
100
AcDbEntity
  8
MSR_I4_4-4
100
AcDbVertex
100
AcDb2dVertex
 10
175.4621714081242
 20
-64.35880904913432
 30
0.0
 70
     8
  0
VERTEX
  5
455
330
42C
100
AcDbEntity
  8
MSR_I4_4-4
100
AcDbVertex
100
AcDb2dVertex
 10
175.5260627329523
 20
-64.01643674127001
 30
0.0
 70
     8
  0
VERTEX
  5
456
330
42C
100
AcDbEntity
  8
MSR_I4_4-4
100
AcDbVertex
100
AcDb2dVertex
 10
175.5999229340828
 20
-63.66398855377326
 30
0.0
 70
     8
  0
VERTEX
  5
457
330
42C
100
AcDbEntity
  8
MSR_I4_4-4
100
AcDbVertex
100
AcDb2dVertex
 10
175.6850736431331
 20
-63.29690943176149
 30
0.0
 70
     8
  0
VERTEX
  5
458
330
42C
100
AcDbEntity
  8
MSR_I4_4-4
100
AcDbVertex
100
AcDb2dVertex
 10
175.7772478818321
 20
-62.90646241708526
 30
0.0
 70
     8
  0
VERTEX
  5
459
330
42C
100
AcDbEntity
  8
MSR_I4_4-4
100
AcDbVertex
100
AcDb2dVertex
 10
175.8707815194368
 20
-62.48286507577836
 30
0.0
 70
     8
  0
VERTEX
  5
45A
330
42C
100
AcDbEntity
  8
MSR_I4_4-4
100
AcDbVertex
100
AcDb2dVertex
 10
175.9600104252042
 20
-62.01633497387479
 30
0.0
 70
     8
  0
VERTEX
  5
45B
330
42C
100
AcDbEntity
  8
MSR_I4_4-4
100
AcDbVertex
100
AcDb2dVertex
 10
176.0392704683908
 20
-61.49708967740821
 30
0.0
 70
     8
  0
VERTEX
  5
45C
330
42C
100
AcDbEntity
  8
MSR_I4_4-4
100
AcDbVertex
100
AcDb2dVertex
 10
176.1028975182538
 20
-60.91534675241269
 30
0.0
 70
     8
  0
VERTEX
  5
45D
330
42C
100
AcDbEntity
  8
MSR_I4_4-4
100
AcDbVertex
100
AcDb2dVertex
 10
176.1452274440499
 20
-60.26132376492199
 30
0.0
 70
     8
  0
VERTEX
  5
45E
330
42C
100
AcDbEntity
  8
MSR_I4_4-4
100
AcDbVertex
100
AcDb2dVertex
 10
176.1605961150359
 20
-59.52523828096992
 30
0.0
 70
     8
  0
VERTEX
  5
45F
330
42C
100
AcDbEntity
  8
MSR_I4_4-4
100
AcDbVertex
100
AcDb2dVertex
 10
175.1165827736919
 20
-77.25668980510085
 30
0.0
 70
    16
  0
VERTEX
  5
460
330
42C
100
AcDbEntity
  8
MSR_I4_4-4
100
AcDbVertex
100
AcDb2dVertex
 10
174.6525786284598
 20
-76.44518499042982
 30
0.0
 70
    16
  0
VERTEX
  5
461
330
42C
100
AcDbEntity
  8
MSR_I4_4-4
100
AcDbVertex
100
AcDb2dVertex
 10
173.1445611418832
 20
-72.73545062190845
 30
0.0
 70
    16
  0
VERTEX
  5
462
330
42C
100
AcDbEntity
  8
MSR_I4_4-4
100
AcDbVertex
100
AcDb2dVertex
 10
174.4205765558433
 20
-69.60536167361801
 30
0.0
 70
    16
  0
VERTEX
  5
463
330
42C
100
AcDbEntity
  8
MSR_I4_4-4
100
AcDbVertex
100
AcDb2dVertex
 10
175.2325858172859
 20
-66.2434133308879
 30
0.0
 70
    16
  0
VERTEX
  5
464
330
42C
100
AcDbEntity
  8
MSR_I4_4-4
100
AcDbVertex
100
AcDb2dVertex
 10
175.464587889902
 20
-63.80890011322225
 30
0.0
 70
    16
  0
VERTEX
  5
465
330
42C
100
AcDbEntity
  8
MSR_I4_4-4
100
AcDbVertex
100
AcDb2dVertex
 10
176.1605961150359
 20
-61.60624506364928
 30
0.0
 70
    16
  0
VERTEX
  5
466
330
42C
100
AcDbEntity
  8
MSR_I4_4-4
100
AcDbVertex
100
AcDb2dVertex
 10
176.1605961150359
 20
-59.52523828096992
 30
0.0
 70
    16
  0
SEQEND
  5
467
330
42C
100
AcDbEntity
  8
MSR_I4_4-4
  0
LINE
  5
468
330
2
100
AcDbEntity
  8
MSR_I4_4-0
100
AcDbLine
 10
190.9689440000008
 20
-85.21241028096989
 30
0.0
 11
193.4049220000008
 21
-86.61882428096982
 31
0.0
  0
INSERT
  5
469
330
2
100
AcDbEntity
  8
MSR_I4_4-2
100
AcDbBlockReference
  2
*U28
 10
190.9689440000008
 20
-74.5252382809735
 30
0.0
1001
GENIUS_GEFPARTINS_13
1002
{
1011
190.9689440000008
1021
-74.5252382809735
1031
0.0
1013
1.0
1023
0.0
1033
0.0
1002
}
1001
VCC
1002
{
1000
-ID42
1000
-IE13
1000
-IK42
1000
-V$PV_GENSYSTEM"GEF\VAL\DI\0401\DI1616_D.DXF"
1002
}
1001
GEVIT
1002
{
1000
-BEHI13.00000001
1000
-BVCCT0
1000
-GRP0?
1000
-BAML2
1000
-BASK1
1000
-NT0
1000
-DOC
1005
471
1000
-MYREF
1005
469
1002
}
1001
GEVPT
1002
{
1000
-V$PV_GENSYSTEM"GEF\VAL\DI\0401\DI1616_D.DXF"
1000
-GPGEF_PROCALC=1
1000
-GPGEF_FLIPY=1
1000
-GPGEF_FLIPX=1
1000
-GPGEF_SNK_ADD=0
1000
-GPGEVPROMPTX=Länge:
1000
-GPGEF_OANG=70
1000
-GPGEF_STANG=210
1000
-GPGEF_DRAG=1
1000
-GPGEF_CDIST=3
1000
-GPVCC_TABLE=C:\GENIUS\gef\val\di\0401\di1616.val
1000
-GPNND=5
1000
-GPPRE=M
1002
}
1001
GENIUS_GENOREF_13
1005
4DD
1005
4DC
1001
GEVMK
1002
{
1000
-CO
1000
-MYREF
1005
469
1002
}
1001
GEVID891340562
1002
{
1002
}
  0
LINE
  5
47A
330
2
100
AcDbEntity
  8
MSR_I4_4-0
100
AcDbLine
 10
193.4049220000008
 20
-89.4316502809699
 30
0.0
 11
190.9689440000008
 21
-90.83806428096982
 31
0.0
  0
LINE
  5
47B
330
2
100
AcDbEntity
  8
MSR_I4_4-7
100
AcDbLine
 10
183.3254420000008
 20
-88.02523828096985
 30
0.0
 11
198.3365500000008
 21
-88.02523828096985
 31
0.0
  0
CIRCLE
  5
47C
330
2
100
AcDbEntity
  8
MSR_I4_4-0
100
AcDbCircle
 10
190.9689440000008
 20
-88.02523828096985
 30
0.0
 40
5.5
  0
LINE
  5
47D
330
2
100
AcDbEntity
  8
MSR_I4_4-7
100
AcDbLine
 10
190.9689440000008
 20
-81.02523828096986
 30
0.0
 11
190.9689440000008
 21
-94.6929962809699
 31
0.0
  0
LINE
  5
47E
330
2
100
AcDbEntity
  8
MSR_I4_4-0
100
AcDbLine
 10
188.5329640000008
 20
-89.4316502809699
 30
0.0
 11
188.5329640000008
 21
-86.61882428096982
 31
0.0
  0
LINE
  5
47F
330
2
100
AcDbEntity
  8
MSR_I4_4-0
100
AcDbLine
 10
190.9689440000008
 20
-90.83806428096982
 30
0.0
 11
188.5329640000008
 21
-89.4316502809699
 31
0.0
  0
INSERT
  5
480
330
2
100
AcDbEntity
  8
MSR_I4_4-2
100
AcDbBlockReference
  2
*U30
 10
177.4689440000008
 20
-74.52523828096622
 30
0.0
1001
GENIUS_GEFPARTINS_13
1002
{
1011
177.4689440000008
1021
-74.52523828096622
1031
0.0
1013
1.0
1023
0.0
1033
0.0
1002
}
1001
VCC
1002
{
1000
-ID43
1000
-IE14
1000
-IK43
1000
-V$PV_GENSYSTEM"GEF\VAL\DI\0401\DI1616_D.DXF"
1002
}
1001
GEVIT
1002
{
1000
-BEHI14.00000001
1000
-BVCCT0
1000
-GRP0?
1000
-BAML2
1000
-BASK1
1000
-NT0
1000
-DOC
1005
488
1000
-MYREF
1005
480
1002
}
1001
GEVPT
1002
{
1000
-V$PV_GENSYSTEM"GEF\VAL\DI\0401\DI1616_D.DXF"
1000
-GPGEF_PROCALC=1
1000
-GPGEF_FLIPY=1
1000
-GPGEF_FLIPX=1
1000
-GPGEF_SNK_ADD=0
1000
-GPGEVPROMPTX=Länge:
1000
-GPGEF_OANG=70
1000
-GPGEF_STANG=210
1000
-GPGEF_DRAG=1
1000
-GPGEF_CDIST=3
1000
-GPVCC_TABLE=C:\GENIUS\gef\val\di\0401\di1616.val
1000
-GPNND=5
1000
-GPPRE=M
1002
}
1001
GENIUS_GENOREF_13
1005
4DB
1005
4DA
1001
GEVMK
1002
{
1000
-CO
1000
-MYREF
1005
480
1002
}
1001
GEVID891340563
1002
{
1002
}
  0
LINE
  5
491
330
2
100
AcDbEntity
  8
MSR_I4_4-2
100
AcDbLine
 10
172.2189440000017
 20
-75.02523828097259
 30
0.0
 11
172.2189440000017
 21
-80.52523828096985
 31
0.0
  0
LINE
  5
492
330
2
100
AcDbEntity
  8
MSR_I4_4-0
100
AcDbLine
 10
188.5329640000008
 20
-86.61882428096982
 30
0.0
 11
190.9689440000008
 21
-85.21241028096989
 31
0.0
  0
LINE
  5
493
330
2
100
AcDbEntity
  8
MSR_I4_4-0
100
AcDbLine
 10
212.9689440000008
 20
-81.02523828096986
 30
0.0
 11
212.9689440000008
 21
-96.02523828096986
 31
0.0
  0
LINE
  5
494
330
2
100
AcDbEntity
  8
MSR_I4_4-0
100
AcDbLine
 10
193.4049220000008
 20
-86.61882428096982
 30
0.0
 11
193.4049220000008
 21
-89.4316502809699
 31
0.0
  0
ARC
  5
495
330
2
100
AcDbEntity
  8
MSR_I4_4-2
100
AcDbCircle
 10
204.4689439999966
 20
-66.525238280969
 30
0.0
 40
1.999999999995751
100
AcDbArc
 50
84.58290381927763
 51
264.5829778862833
  0
LINE
  5
496
330
2
100
AcDbEntity
  8
MSR_I4_4-2
100
AcDbLine
 10
170.4689440000008
 20
-61.62523828096988
 30
0.0
 11
171.9689440000016
 21
-61.62523828097113
 31
0.0
  0
LINE
  5
497
330
2
100
AcDbEntity
  8
MSR_I4_4-2
100
AcDbLine
 10
171.9689440000016
 20
-61.62523828097113
 30
0.0
 11
171.9689440000016
 21
-59.52523828096985
 31
0.0
  0
LINE
  5
498
330
2
100
AcDbEntity
  8
MSR_I4_4-0
100
AcDbLine
 10
228.4689440000008
 20
-102.5252382809698
 30
0.0
 11
228.4689440000008
 21
-152.4632462809699
 31
0.0
  0
LINE
  5
499
330
2
100
AcDbEntity
  8
MSR_I4_4-0
100
AcDbLine
 10
228.4689440000008
 20
-164.5252382809698
 30
0.0
 11
228.4689440000008
 21
-152.4632462809699
 31
0.0
  0
INSERT
  5
49A
330
2
100
AcDbEntity
  8
MSR_I4_4-0
100
AcDbBlockReference
  2
*U44
 10
228.4689440000008
 20
-157.5252382809589
 30
0.0
 50
180.0
1001
GENIUS_GEFPARTINS_13
1002
{
1011
228.4689440000008
1021
-157.5252382809589
1031
0.0
1013
-1.0
1023
0.0000000000000001
1033
0.0
1002
}
1001
VCC
1002
{
1000
-ID50
1000
-IE22
1000
-IK50
1000
-V$PV_GENSYSTEM"GEF\VAL\DI\0401\DI1616_V.DXF"
1002
}
1001
GEVIT
1002
{
1000
-BEHI21.00000001
1000
-BVCCT0
1000
-T2
1000
-GRP0MSR_4-0
1000
-BAML2
1000
-BASK1
1000
-NT0
1000
-DOC
1005
4A5
1000
-MYREF
1005
49A
1002
}
1001
GEVPT
1002
{
1000
-V$PV_GENSYSTEM"GEF\VAL\DI\0401\DI1616_V.DXF"
1000
-FIXPLOTI=5.000000000000000E+00
1000
-GPGEVBHOP=2
1000
-GPGEF_PROCALC=1
1000
-GPGEF_FLIPY=1
1000
-GPGEF_FLIPX=1
1000
-GPGEF_SNK_ADD=0
1000
-GPGEVPROMPTX=Länge:
1000
-GPGEF_OANG=70
1000
-GPGEF_STANG=210
1000
-GPGEF_DRAG=1
1000
-GPGEF_CDIST=3
1000
-GPVCC_TABLE=C:\GENIUS\gef\val\di\0401\di1616.val
1000
-GPNND=5
1000
-GPPRE=M
1002
}
1001
GENIUS_GENOREF_13
1005
4D9
1001
GEVMK
1002
{
1000
-CO
1000
-MYREF
1005
49A
1002
}
1001
GEVID891340570
1002
{
1002
}
  0
LINE
  5
4AF
330
2
100
AcDbEntity
  8
MSR_I4_4-7
100
AcDbLine
 10
229.8450019999936
 20
-141.0252382809589
 30
0.0
 11
221.0859639999936
 21
-141.0252382809589
 31
0.0
  0
LINE
  5
4B0
330
2
100
AcDbEntity
  8
MSR_I4_4-3
100
AcDbLine
 10
228.4745039999935
 20
-139.551326280959
 30
0.0
 11
222.4751859999936
 21
-139.551326280959
 31
0.0
  0
LINE
  5
4B1
330
2
100
AcDbEntity
  8
MSR_I4_4-3
100
AcDbLine
 10
228.4745039999935
 20
-143.1513262809589
 30
0.0
 11
222.4751859999936
 21
-143.1513262809589
 31
0.0
  0
LINE
  5
4B2
330
2
100
AcDbEntity
  8
MSR_I4_4-3
100
AcDbLine
 10
228.4745039999935
 20
-143.551326280959
 30
0.0
 11
222.4751859999936
 21
-143.551326280959
 31
0.0
  0
LINE
  5
4B3
330
2
100
AcDbEntity
  8
MSR_I4_4-7
100
AcDbLine
 10
229.8450019999936
 20
-137.0252382809589
 30
0.0
 11
221.0859639999936
 21
-137.0252382809589
 31
0.0
  0
LINE
  5
4B4
330
2
100
AcDbEntity
  8
MSR_I4_4-3
100
AcDbLine
 10
228.4745039999935
 20
-138.951326280959
 30
0.0
 11
222.4751859999936
 21
-138.951326280959
 31
0.0
  0
LINE
  5
4B5
330
2
100
AcDbEntity
  8
MSR_I4_4-3
100
AcDbLine
 10
228.4745039999935
 20
-138.551326280959
 30
0.0
 11
222.4751859999936
 21
-138.551326280959
 31
0.0
  0
LINE
  5
4B6
330
2
100
AcDbEntity
  8
MSR_I4_4-3
100
AcDbLine
 10
228.4745039999935
 20
-139.1513262809589
 30
0.0
 11
222.4751859999936
 21
-139.1513262809589
 31
0.0
  0
LINE
  5
4B7
330
2
100
AcDbEntity
  8
MSR_I4_4-3
100
AcDbLine
 10
228.4745039999935
 20
-134.951326280959
 30
0.0
 11
222.4751859999936
 21
-134.951326280959
 31
0.0
  0
LINE
  5
4B8
330
2
100
AcDbEntity
  8
MSR_I4_4-3
100
AcDbLine
 10
228.4745039999935
 20
-134.551326280959
 30
0.0
 11
222.4751859999936
 21
-134.551326280959
 31
0.0
  0
LINE
  5
4B9
330
2
100
AcDbEntity
  8
MSR_I4_4-0
100
AcDbLine
 10
215.9330460000008
 20
-122.5252382809698
 30
0.0
 11
214.2009940000008
 21
-125.5252382809698
 31
0.0
  0
LINE
  5
4BA
330
2
100
AcDbEntity
  8
MSR_I4_4-0
100
AcDbLine
 10
222.2838980000009
 20
-122.5252382809698
 30
0.0
 11
217.3764200000008
 21
-131.0252382809698
 31
0.0
  0
LINE
  5
4BB
330
2
100
AcDbEntity
  8
MSR_I4_4-0
100
AcDbLine
 10
217.3764200000008
 20
-114.0252382809698
 30
0.0
 11
222.2838980000009
 21
-122.5252382809698
 31
0.0
  0
LINE
  5
4BC
330
2
100
AcDbEntity
  8
MSR_I4_4-0
100
AcDbLine
 10
214.2009940000008
 20
-119.5252382809698
 30
0.0
 11
215.9330460000008
 21
-122.5252382809698
 31
0.0
  0
LINE
  5
4BD
330
2
100
AcDbEntity
  8
MSR_I4_4-2
100
AcDbLine
 10
252.4689440000008
 20
-66.02523828095894
 30
0.0
 11
268.4689440000008
 21
-66.02523828096622
 31
0.0
  0
LINE
  5
4BE
330
2
100
AcDbEntity
  8
MSR_I4_4-2
100
AcDbLine
 10
268.4689440000008
 20
-78.02523828095894
 30
0.0
 11
252.4689440000008
 21
-78.02523828095889
 31
0.0
  0
ARC
  5
4BF
330
2
100
AcDbEntity
  8
MSR_I4_4-2
100
AcDbCircle
 10
262.4689440000008
 20
-72.02523828095895
 30
0.0
 40
5.5
100
AcDbArc
 50
195.9066641496379
 51
153.2592916226625
  0
LINE
  5
4C0
330
2
100
AcDbEntity
  8
MSR_I4_4-2
100
AcDbLine
 10
246.4689440000008
 20
-68.49902475539955
 30
0.0
 11
246.4689440000008
 21
-61.02523828095894
 31
0.0
  0
LINE
  5
4C1
330
2
100
AcDbEntity
  8
MSR_I4_4-2
100
AcDbLine
 10
228.4689440000008
 20
-59.52523828096985
 30
0.0
 11
228.4689440000008
 21
-66.79212820368047
 31
0.0
  0
LINE
  5
4C2
330
2
100
AcDbEntity
  8
MSR_I4_4-7
100
AcDbLine
 10
214.9689440000008
 20
-57.50746428096983
 30
0.0
 11
214.9689440000008
 21
-80.5872302809699
 31
0.0
  0
LINE
  5
4C3
330
2
100
AcDbEntity
  8
MSR_I4_4-2
100
AcDbLine
 10
228.4689440000008
 20
-79.02523828095894
 30
0.0
 11
246.4689440000008
 21
-79.02523828095894
 31
0.0
  0
LINE
  5
4C4
330
2
100
AcDbEntity
  8
MSR_I4_4-0
100
AcDbLine
 10
228.4689440000008
 20
-81.02523828096986
 30
0.0
 11
228.4689440000008
 21
-96.02523828096986
 31
0.0
  0
LINE
  5
4C5
330
2
100
AcDbEntity
  8
MSR_I4_4-7
100
AcDbLine
 10
220.9689440000008
 20
-80.52523828096985
 30
0.0
 11
220.9689440000008
 21
-94.52523828096985
 31
0.0
  0
LINE
  5
4C6
330
2
100
AcDbEntity
  8
MSR_I4_4-0
100
AcDbLine
 10
228.4744960000008
 20
-88.02523828096985
 30
0.0
 11
224.7217200000008
 21
-81.52523828096986
 31
0.0
  0
CIRCLE
  5
4C7
330
2
100
AcDbEntity
  8
MSR_I4_4-0
100
AcDbCircle
 10
220.9689440000008
 20
-88.02523828096985
 30
0.0
 40
4.5
  0
LINE
  5
4C8
330
2
100
AcDbEntity
  8
MSR_I4_4-0
100
AcDbLine
 10
224.7217200000008
 20
-94.52523828096985
 30
0.0
 11
228.4744960000008
 21
-88.02523828096985
 31
0.0
  0
LINE
  5
4C9
330
2
100
AcDbEntity
  8
MSR_I4_4-0
100
AcDbLine
 10
217.2161660000008
 20
-94.52523828096985
 30
0.0
 11
224.7217200000008
 21
-94.52523828096985
 31
0.0
  0
LINE
  5
4CA
330
2
100
AcDbEntity
  8
MSR_I4_4-0
100
AcDbLine
 10
228.4689440000008
 20
-96.02523828096986
 30
0.0
 11
228.4689440000008
 21
-102.5252382809698
 31
0.0
  0
LINE
  5
4CB
330
2
100
AcDbEntity
  8
MSR_I4_4-0
100
AcDbLine
 10
224.7217200000008
 20
-81.52523828096986
 30
0.0
 11
217.2161660000008
 21
-81.52523828096986
 31
0.0
  0
LINE
  5
4CC
330
2
100
AcDbEntity
  8
MSR_I4_4-2
100
AcDbLine
 10
228.4689440000008
 20
-70.81007249618142
 30
0.0
 11
228.4689440000008
 21
-80.52523828096985
 31
0.0
  0
LINE
  5
4CD
330
2
100
AcDbEntity
  8
MSR_I4_4-2
100
AcDbLine
 10
246.4689440000008
 20
-67.52523828095923
 30
0.0
 11
247.4689440000008
 21
-67.52523828095923
 31
0.0
  0
LINE
  5
4CE
330
2
100
AcDbEntity
  8
MSR_I4_4-2
100
AcDbLine
 10
246.4689440000008
 20
-76.52523828095922
 30
0.0
 11
247.4689440000052
 21
-76.52523828095809
 31
0.0
  0
LINE
  5
4CF
330
2
100
AcDbEntity
  8
MSR_I4_4-2
100
AcDbLine
 10
246.4689440000008
 20
-79.02523828095894
 30
0.0
 11
246.4689440000008
 21
-72.51696904790327
 31
0.0
  0
LINE
  5
4D0
330
2
100
AcDbEntity
  8
MSR_I4_4-2
100
AcDbLine
 10
252.4689440000008
 20
-79.02523828095894
 30
0.0
 11
252.4689440000008
 21
-73.08593456514393
 31
0.0
  0
LINE
  5
4D1
330
2
100
AcDbEntity
  8
MSR_I4_4-2
100
AcDbLine
 10
247.4689440000008
 20
-72.61179663411002
 30
0.0
 11
247.4689440000081
 21
-79.02523828095922
 31
0.0
  0
LINE
  5
4D2
330
2
100
AcDbEntity
  8
MSR_I4_4-2
100
AcDbLine
 10
247.4689440000081
 20
-79.02523828095922
 30
0.0
 11
252.4689440000008
 21
-79.02523828095894
 31
0.0
  0
LINE
  5
4D3
330
2
100
AcDbEntity
  8
MSR_I4_4-2
100
AcDbLine
 10
252.4689440000008
 20
-69.06799027263923
 30
0.0
 11
252.4689440000008
 21
-65.02523828095923
 31
0.0
  0
LINE
  5
4D4
330
2
100
AcDbEntity
  8
MSR_I4_4-2
100
AcDbLine
 10
247.4689440000008
 20
-65.02523828095167
 30
0.0
 11
247.4689440000008
 21
-68.59385234160612
 31
0.0
  0
LINE
  5
4D5
330
2
100
AcDbEntity
  8
MSR_I4_4-2
100
AcDbLine
 10
252.4689440000008
 20
-65.02523828095923
 30
0.0
 11
247.4689440000008
 21
-65.02523828095167
 31
0.0
  0
LINE
  5
4D6
330
2
100
AcDbEntity
  8
MSR_I4_4-2
100
AcDbLine
 10
246.4689440000008
 20
-61.02523828095894
 30
0.0
 11
228.4689440000008
 21
-61.02523828095894
 31
0.0
  0
LINE
  5
4D7
330
2
100
AcDbEntity
  8
MSR_I4_4-2
100
AcDbLine
 10
268.4689440000008
 20
-66.02523828096622
 30
0.0
 11
268.4689440000008
 21
-78.02523828095894
 31
0.0
  0
ARC
  5
4D8
330
2
100
AcDbEntity
  8
MSR_I4_4-2
100
AcDbCircle
 10
262.4689440000087
 20
-72.02523828095923
 30
0.0
 40
1.999999999999439
100
AcDbArc
 50
264.5829778859189
 51
84.58297788637043
  0
POINT
  5
4D9
330
2
100
AcDbEntity
  8
0
 60
     1
100
AcDbPoint
 10
-226.059364
 20
-489.21225
 30
0.0
1001
GENIUS_GENODEF_13
1002
{
1000
HIER
1070
   200
1002
}
1002
{
1000
MANEDIT
1070
     0
1002
}
1002
{
1000
NOSEL
1070
     0
1002
}
1002
{
1000
BEHIND
1070
     0
1002
}
1002
{
1000
REACTOR
1002
}
1001
GENIUS_GENOBJ-F-PART_13
1002
{
1000
OWNER
1000
GEF
1002
}
1001
GENIUS_GEFSTDP_13
1002
{
1000
DSC
1000
DSC
1002
{
1000
~DESCR
1000
 
1000
~STDRT
1000
(gefmsg "gefcall" 409)
1000
~LOTI
1002
}
1002
}
1002
{
1000
SUG
1000
M
1040
5.0
1002
}
1002
{
1000
KEY
1000
THRF
1002
}
1002
{
1000
INS
1002
{
1040
454.5283080000008
1040
331.687011719041
1040
0.0
1002
}
1002
}
1002
{
1000
ANG
1040
3.141592653589793
1002
}
1002
{
1000
VCC
1002
{
1000
-LPLOTI=5.000000000000000E+00
1000
$PRE=M
1000
$NND=5.000000000000000E+00
1000
-GRPNAME0MSR_4-0
1000
-RBDESCR
1000
-RBSTDRT
1000
-RBLOTI
1000
-RBGD1
1000
-V$PV_GENSYSTEM"gef\val\di\0401\di1616_v.dxf"
1000
$VCC_TABLE=$PV_GENSYSTEM"gef\val\di\0401\di1616.val"
1000
$GEF_CDIST=3.000000000000000E+00
1000
$GEF_DRAG=1
1000
$GEF_STANG=2.100000000000000E+02
1000
$GEF_OANG=7.000000000000000E+01
1000
$GEVPROMPTX= Länge: 
1000
$GEF_SNK_ADD=0.000000000000000E+00
1000
$GEF_FLIPX=1
1000
$GEF_FLIPY=1
1000
-GRPNAME1?
1000
-BAML2
1000
$GEF_PROCALC=1
1000
$GEVBHOP=2
1002
}
1002
}
1002
{
1000
LST
1002
{
1002
{
1000
GROUP
1000
0401
1002
}
1002
{
1000
VIEW
1000
V
1002
}
1002
{
1000
SFILE
1000
$PV_GENSYSTEM"gef\val\di\0401\di1616_v.dxf"
1002
}
1002
{
1000
ST1
1000
$PV_GENSYSTEM"gef\val\di\0401\di1616.val"
1002
}
1002
{
1000
GENASSO
1000
 
1002
}
1002
}
1002
}
1002
{
1000
RET
1002
{
1002
{
1000
GD1
1000
4.134
1002
}
1002
{
1000
LOTI
1000
5.000000000000000E+00
1002
}
1002
{
1000
STDRT
1000
DIN 13 - M5
1002
}
1002
{
1000
DESCR
1000
Metrisches ISO-Gewinde
1002
}
1002
}
1002
}
1002
{
1000
SYSTEM
1040
1.0
1002
}
1002
{
1000
INFEL
1002
{
1002
}
1002
}
1001
GENIUS_GENOENT_13
1002
{
1000
MYREF
1005
4D9
1002
}
1002
{
1000
GRP
1005
0
1002
}
1001
GENIUS_GENOLIS_13
1002
{
1000
ENT
1005
49A
1002
}
  0
POINT
  5
4DA
330
2
100
AcDbEntity
  8
0
 60
     1
100
AcDbPoint
 10
-226.059364
 20
-489.21225
 30
0.0
1001
GENIUS_GENODEF_13
1002
{
1000
HIER
1070
   200
1002
}
1002
{
1000
MANEDIT
1070
     0
1002
}
1002
{
1000
NOSEL
1070
     0
1002
}
1002
{
1000
BEHIND
1070
     0
1002
}
1002
{
1000
REACTOR
1002
}
1001
GENIUS_GENOBJ-F-PART_13
1002
{
1000
OWNER
1000
GEF
1002
}
1001
GENIUS_GEFSTDP_13
1002
{
1000
SUG
1000
M
1040
5.0
1002
}
1002
{
1000
DSC
1000
DSC
1002
{
1000
~DESCR
1000
 
1000
~STDRT
1002
}
1002
}
1002
{
1000
KEY
1000
THRT
1002
}
1002
{
1000
INS
1002
{
1040
403.5283080000008
1040
414.6870117190337
1040
0.0
1002
}
1002
}
1002
{
1000
ANG
1040
0.0
1002
}
1002
{
1000
VCC
1002
{
1000
$PRE=M
1000
$NND=5.000000000000000E+00
1000
-RBDESCR
1000
-RBSTDRT
1000
-RBGD1
1000
-RBLOTI
1000
-V$PV_GENSYSTEM"gef\val\di\0401\di1616_d.dxf"
1000
$VCC_TABLE=$PV_GENSYSTEM"gef\val\di\0401\di1616.val"
1000
$GEF_CDIST=3.000000000000000E+00
1000
$GEF_DRAG=1
1000
$GEF_STANG=2.100000000000000E+02
1000
$GEF_OANG=7.000000000000000E+01
1000
$GEVPROMPTX= Länge: 
1000
$GEF_SNK_ADD=0.000000000000000E+00
1000
$GEF_FLIPX=1
1000
$GEF_FLIPY=1
1000
-GRPNAME0?
1000
-GRPNAME1?
1000
-BAML2
1000
$GEF_PROCALC=1
1002
}
1002
}
1002
{
1000
LST
1002
{
1002
{
1000
GROUP
1000
0401
1002
}
1002
{
1000
VIEW
1000
D
1002
}
1002
{
1000
SFILE
1000
$PV_GENSYSTEM"gef\val\di\0401\di1616_d.dxf"
1002
}
1002
{
1000
ST1
1000
$PV_GENSYSTEM"gef\val\di\0401\di1616.val"
1002
}
1002
{
1000
GENASSO
1000
 
1002
}
1002
}
1002
}
1002
{
1000
RET
1002
{
1002
{
1000
LOTI
1002
}
1002
{
1000
GD1
1000
4.134
1002
}
1002
{
1000
STDRT
1000
DIN 13 - M5
1002
}
1002
{
1000
DESCR
1000
Metrisches ISO-Gewinde
1002
}
1002
}
1002
}
1002
{
1000
SYSTEM
1040
1.0
1002
}
1002
{
1000
INFEL
1002
{
1002
}
1002
}
1001
GENIUS_GENOENT_13
1002
{
1000
MYREF
1005
4DA
1002
}
1002
{
1000
GRP
1005
0
1002
}
1001
GENIUS_GENOLIS_13
1002
{
1000
ENT
1005
480
1002
}
  0
POINT
  5
4DB
330
2
100
AcDbEntity
  8
0
 60
     1
100
AcDbPoint
 10
-226.059364
 20
-489.21225
 30
0.0
1001
GENIUS_GENBH_13
1002
{
1000
BGO
1005
0
1002
}
1002
{
1000
FGLEVEL
1040
14.00000001
1002
}
1002
{
1000
FLAGS
1070
    36
1002
}
1002
{
1000
OIUMAP
1000
OIU
1002
}
1002
{
1000
MODIFY
1070
     0
1002
}
1001
GENIUS_GENODEF_13
1002
{
1000
HIER
1070
     1
1002
}
1002
{
1000
MANEDIT
1070
     0
1002
}
1002
{
1000
NOSEL
1070
     1
1002
}
1002
{
1000
BEHIND
1070
     0
1002
}
1002
{
1000
REACTOR
1002
}
1001
GENIUS_GENOBJ-NBEHI-BHF_13
1002
{
1000
OWNER
1000
GENBEHI
1002
}
1001
GENIUS_GENOENT_13
1002
{
1000
MYREF
1005
4DB
1002
}
1002
{
1000
GRP
1005
0
1002
}
1001
GENIUS_GENOLIS_13
1002
{
1000
ENT
1005
480
1002
}
  0
POINT
  5
4DC
330
2
100
AcDbEntity
  8
0
 60
     1
100
AcDbPoint
 10
-226.059364
 20
-489.21225
 30
0.0
1001
GENIUS_GENODEF_13
1002
{
1000
HIER
1070
   200
1002
}
1002
{
1000
MANEDIT
1070
     0
1002
}
1002
{
1000
NOSEL
1070
     0
1002
}
1002
{
1000
BEHIND
1070
     0
1002
}
1002
{
1000
REACTOR
1002
}
1001
GENIUS_GENOBJ-F-PART_13
1002
{
1000
OWNER
1000
GEF
1002
}
1001
GENIUS_GEFSTDP_13
1002
{
1000
DSC
1000
DSC
1002
{
1000
~DESCR
1000
 
1000
~STDRT
1002
}
1002
}
1002
{
1000
SUG
1000
M
1040
5.0
1002
}
1002
{
1000
KEY
1000
THRT
1002
}
1002
{
1000
INS
1002
{
1040
417.0283080000008
1040
414.6870117190265
1040
0.0
1002
}
1002
}
1002
{
1000
ANG
1040
0.0
1002
}
1002
{
1000
VCC
1002
{
1000
$PRE=M
1000
$NND=5.000000000000000E+00
1000
-RBDESCR
1000
-RBSTDRT
1000
-RBGD1
1000
-RBLOTI
1000
-V$PV_GENSYSTEM"gef\val\di\0401\di1616_d.dxf"
1000
$VCC_TABLE=$PV_GENSYSTEM"gef\val\di\0401\di1616.val"
1000
$GEF_CDIST=3.000000000000000E+00
1000
$GEF_DRAG=1
1000
$GEF_STANG=2.100000000000000E+02
1000
$GEF_OANG=7.000000000000000E+01
1000
$GEVPROMPTX= Länge: 
1000
$GEF_SNK_ADD=0.000000000000000E+00
1000
$GEF_FLIPX=1
1000
$GEF_FLIPY=1
1000
-GRPNAME0?
1000
-GRPNAME1?
1000
-BAML2
1000
$GEF_PROCALC=1
1002
}
1002
}
1002
{
1000
LST
1002
{
1002
{
1000
GROUP
1000
0401
1002
}
1002
{
1000
VIEW
1000
D
1002
}
1002
{
1000
SFILE
1000
$PV_GENSYSTEM"gef\val\di\0401\di1616_d.dxf"
1002
}
1002
{
1000
ST1
1000
$PV_GENSYSTEM"gef\val\di\0401\di1616.val"
1002
}
1002
{
1000
GENASSO
1000
 
1002
}
1002
}
1002
}
1002
{
1000
RET
1002
{
1002
{
1000
LOTI
1002
}
1002
{
1000
GD1
1000
4.134
1002
}
1002
{
1000
STDRT
1000
DIN 13 - M5
1002
}
1002
{
1000
DESCR
1000
Metrisches ISO-Gewinde
1002
}
1002
}
1002
}
1002
{
1000
SYSTEM
1040
1.0
1002
}
1002
{
1000
INFEL
1002
{
1002
}
1002
}
1001
GENIUS_GENOENT_13
1002
{
1000
MYREF
1005
4DC
1002
}
1002
{
1000
GRP
1005
0
1002
}
1001
GENIUS_GENOLIS_13
1002
{
1000
ENT
1005
469
1002
}
  0
POINT
  5
4DD
330
2
100
AcDbEntity
  8
0
 60
     1
100
AcDbPoint
 10
-226.059364
 20
-489.21225
 30
0.0
1001
GENIUS_GENBH_13
1002
{
1000
BGO
1005
0
1002
}
1002
{
1000
FGLEVEL
1040
13.00000001
1002
}
1002
{
1000
FLAGS
1070
    36
1002
}
1002
{
1000
OIUMAP
1000
OIU
1002
}
1002
{
1000
MODIFY
1070
     0
1002
}
1001
GENIUS_GENODEF_13
1002
{
1000
HIER
1070
     1
1002
}
1002
{
1000
MANEDIT
1070
     0
1002
}
1002
{
1000
NOSEL
1070
     1
1002
}
1002
{
1000
BEHIND
1070
     0
1002
}
1002
{
1000
REACTOR
1002
}
1001
GENIUS_GENOBJ-NBEHI-BHF_13
1002
{
1000
OWNER
1000
GENBEHI
1002
}
1001
GENIUS_GENOENT_13
1002
{
1000
MYREF
1005
4DD
1002
}
1002
{
1000
GRP
1005
0
1002
}
1001
GENIUS_GENOLIS_13
1002
{
1000
ENT
1005
469
1002
}
  0
POINT
  5
4DE
330
2
100
AcDbEntity
  8
0
 60
     1
100
AcDbPoint
 10
-226.059364
 20
-489.21225
 30
0.0
1001
GENIUS_GENODEF_13
1002
{
1000
HIER
1070
   200
1002
}
1002
{
1000
MANEDIT
1070
     0
1002
}
1002
{
1000
NOSEL
1070
     0
1002
}
1002
{
1000
BEHIND
1070
     0
1002
}
1002
{
1000
REACTOR
1002
}
1001
GENIUS_GENOBJ-F-PART_13
1002
{
1000
OWNER
1000
GEF
1002
}
1001
GENIUS_GEFSTDP_13
1002
{
1000
SUG
1000
M
1040
5.0
1002
}
1002
{
1000
DSC
1000
DSC
1002
{
1000
~DESCR
1000
 
1000
~STDRT
1000
(gefmsg "gefcall" 409)
1000
~LOTI
1002
}
1002
}
1002
{
1000
KEY
1000
THRF
1002
}
1002
{
1000
INS
1002
{
1040
274.5593639999934
1040
526.71225
1040
0.0
1002
}
1002
}
1002
{
1000
ANG
1040
4.712388980384689
1002
}
1002
{
1000
VCC
1002
{
1000
-LPLOTI=5.000000000000000E+00
1000
$PRE=M
1000
$NND=5.000000000000000E+00
1000
-GRPNAME0MSR_4-0
1000
-RBDESCR
1000
-RBSTDRT
1000
-RBLOTI
1000
-RBGD1
1000
-V$PV_GENSYSTEM"gef\val\di\0401\di1616_v.dxf"
1000
$VCC_TABLE=$PV_GENSYSTEM"gef\val\di\0401\di1616.val"
1000
$GEF_CDIST=3.000000000000000E+00
1000
$GEF_DRAG=1
1000
$GEF_STANG=2.100000000000000E+02
1000
$GEF_OANG=7.000000000000000E+01
1000
$GEVPROMPTX= Länge: 
1000
$GEF_SNK_ADD=0.000000000000000E+00
1000
$GEF_FLIPX=1
1000
$GEF_FLIPY=1
1000
-GRPNAME1?
1000
-BAML2
1000
$GEF_PROCALC=1
1000
$GEVBHOP=2
1002
}
1002
}
1002
{
1000
LST
1002
{
1002
{
1000
GROUP
1000
0401
1002
}
1002
{
1000
VIEW
1000
V
1002
}
1002
{
1000
SFILE
1000
$PV_GENSYSTEM"gef\val\di\0401\di1616_v.dxf"
1002
}
1002
{
1000
ST1
1000
$PV_GENSYSTEM"gef\val\di\0401\di1616.val"
1002
}
1002
{
1000
GENASSO
1000
 
1002
}
1002
}
1002
}
1002
{
1000
RET
1002
{
1002
{
1000
GD1
1000
4.134
1002
}
1002
{
1000
LOTI
1000
5.000000000000000E+00
1002
}
1002
{
1000
STDRT
1000
DIN 13 - M5
1002
}
1002
{
1000
DESCR
1000
Metrisches ISO-Gewinde
1002
}
1002
}
1002
}
1002
{
1000
SYSTEM
1040
1.0
1002
}
1002
{
1000
INFEL
1002
{
1002
}
1002
}
1001
GENIUS_GENOENT_13
1002
{
1000
MYREF
1005
4DE
1002
}
1002
{
1000
GRP
1005
0
1002
}
1001
GENIUS_GENOLIS_13
1002
{
1000
ENT
1005
3B3
1002
}
  0
POINT
  5
4DF
330
2
100
AcDbEntity
  8
0
 60
     1
100
AcDbPoint
 10
-226.059364
 20
-489.21225
 30
0.0
1001
GENIUS_GENODEF_13
1002
{
1000
HIER
1070
   200
1002
}
1002
{
1000
MANEDIT
1070
     0
1002
}
1002
{
1000
NOSEL
1070
     0
1002
}
1002
{
1000
BEHIND
1070
     0
1002
}
1002
{
1000
REACTOR
1002
}
1001
GENIUS_GENOBJ-F-PART_13
1002
{
1000
OWNER
1000
GEF
1002
}
1001
GENIUS_GEFSTDP_13
1002
{
1000
SUG
1000
M
1040
5.0
1002
}
1002
{
1000
DSC
1000
DSC
1002
{
1000
~DESCR
1000
 
1000
~STDRT
1000
(gefmsg "gefcall" 409)
1000
~LOTI
1002
}
1002
}
1002
{
1000
KEY
1000
THRF
1002
}
1002
{
1000
INS
1002
{
1040
226.0593639999934
1040
526.7122500000041
1040
0.0
1002
}
1002
}
1002
{
1000
ANG
1040
4.712388980384689
1002
}
1002
{
1000
VCC
1002
{
1000
-LPLOTI=5.000000000000000E+00
1000
$PRE=M
1000
$NND=5.000000000000000E+00
1000
-GRPNAME0MSR_4-0
1000
-RBDESCR
1000
-RBSTDRT
1000
-RBLOTI
1000
-RBGD1
1000
-V$PV_GENSYSTEM"gef\val\di\0401\di1616_v.dxf"
1000
$VCC_TABLE=$PV_GENSYSTEM"gef\val\di\0401\di1616.val"
1000
$GEF_CDIST=3.000000000000000E+00
1000
$GEF_DRAG=1
1000
$GEF_STANG=2.100000000000000E+02
1000
$GEF_OANG=7.000000000000000E+01
1000
$GEVPROMPTX= Länge: 
1000
$GEF_SNK_ADD=0.000000000000000E+00
1000
$GEF_FLIPX=1
1000
$GEF_FLIPY=1
1000
-GRPNAME1?
1000
-BAML2
1000
$GEF_PROCALC=1
1000
$GEVBHOP=2
1002
}
1002
}
1002
{
1000
LST
1002
{
1002
{
1000
GROUP
1000
0401
1002
}
1002
{
1000
VIEW
1000
V
1002
}
1002
{
1000
SFILE
1000
$PV_GENSYSTEM"gef\val\di\0401\di1616_v.dxf"
1002
}
1002
{
1000
ST1
1000
$PV_GENSYSTEM"gef\val\di\0401\di1616.val"
1002
}
1002
{
1000
GENASSO
1000
 
1002
}
1002
}
1002
}
1002
{
1000
RET
1002
{
1002
{
1000
GD1
1000
4.134
1002
}
1002
{
1000
LOTI
1000
5.000000000000000E+00
1002
}
1002
{
1000
STDRT
1000
DIN 13 - M5
1002
}
1002
{
1000
DESCR
1000
Metrisches ISO-Gewinde
1002
}
1002
}
1002
}
1002
{
1000
SYSTEM
1040
1.0
1002
}
1002
{
1000
INFEL
1002
{
1002
}
1002
}
1001
GENIUS_GENOENT_13
1002
{
1000
MYREF
1005
4DF
1002
}
1002
{
1000
GRP
1005
0
1002
}
1001
GENIUS_GENOLIS_13
1002
{
1000
ENT
1005
399
1002
}
  0
POINT
  5
4E0
330
2
100
AcDbEntity
  8
0
 60
     1
100
AcDbPoint
 10
-226.059364
 20
-489.21225
 30
0.0
1001
GENIUS_GENODEF_13
1002
{
1000
HIER
1070
   200
1002
}
1002
{
1000
MANEDIT
1070
     0
1002
}
1002
{
1000
NOSEL
1070
     0
1002
}
1002
{
1000
BEHIND
1070
     0
1002
}
1002
{
1000
REACTOR
1002
}
1001
GENIUS_GENOBJ-F-PART_13
1002
{
1000
OWNER
1000
GEF
1002
}
1001
GENIUS_GEFSTDP_13
1002
{
1000
SUG
1000
M
1040
5.0
1002
}
1002
{
1000
DSC
1000
DSC
1002
{
1000
~DESCR
1000
 
1000
~STDRT
1000
(gefmsg "gefcall" 409)
1000
~LOTI
1002
}
1002
}
1002
{
1000
KEY
1000
THRF
1002
}
1002
{
1000
INS
1002
{
1040
242.0593639999934
1040
526.7122500000041
1040
0.0
1002
}
1002
}
1002
{
1000
ANG
1040
4.712388980384689
1002
}
1002
{
1000
VCC
1002
{
1000
-LPLOTI=5.000000000000000E+00
1000
$PRE=M
1000
$NND=5.000000000000000E+00
1000
-GRPNAME0MSR_4-0
1000
-RBDESCR
1000
-RBSTDRT
1000
-RBLOTI
1000
-RBGD1
1000
-V$PV_GENSYSTEM"gef\val\di\0401\di1616_v.dxf"
1000
$VCC_TABLE=$PV_GENSYSTEM"gef\val\di\0401\di1616.val"
1000
$GEF_CDIST=3.000000000000000E+00
1000
$GEF_DRAG=1
1000
$GEF_STANG=2.100000000000000E+02
1000
$GEF_OANG=7.000000000000000E+01
1000
$GEVPROMPTX= Länge: 
1000
$GEF_SNK_ADD=0.000000000000000E+00
1000
$GEF_FLIPX=1
1000
$GEF_FLIPY=1
1000
-GRPNAME1?
1000
-BAML2
1000
$GEF_PROCALC=1
1000
$GEVBHOP=2
1002
}
1002
}
1002
{
1000
LST
1002
{
1002
{
1000
GROUP
1000
0401
1002
}
1002
{
1000
VIEW
1000
V
1002
}
1002
{
1000
SFILE
1000
$PV_GENSYSTEM"gef\val\di\0401\di1616_v.dxf"
1002
}
1002
{
1000
ST1
1000
$PV_GENSYSTEM"gef\val\di\0401\di1616.val"
1002
}
1002
{
1000
GENASSO
1000
 
1002
}
1002
}
1002
}
1002
{
1000
RET
1002
{
1002
{
1000
GD1
1000
4.134
1002
}
1002
{
1000
LOTI
1000
5.000000000000000E+00
1002
}
1002
{
1000
STDRT
1000
DIN 13 - M5
1002
}
1002
{
1000
DESCR
1000
Metrisches ISO-Gewinde
1002
}
1002
}
1002
}
1002
{
1000
SYSTEM
1040
1.0
1002
}
1002
{
1000
INFEL
1002
{
1002
}
1002
}
1001
GENIUS_GENOENT_13
1002
{
1000
MYREF
1005
4E0
1002
}
1002
{
1000
GRP
1005
0
1002
}
1001
GENIUS_GENOLIS_13
1002
{
1000
ENT
1005
384
1002
}
  0
POINT
  5
4E1
330
2
100
AcDbEntity
  8
0
 60
     1
100
AcDbPoint
 10
-226.059364
 20
-489.21225
 30
0.0
1001
GENIUS_GENODEF_13
1002
{
1000
HIER
1070
   200
1002
}
1002
{
1000
MANEDIT
1070
     0
1002
}
1002
{
1000
NOSEL
1070
     0
1002
}
1002
{
1000
BEHIND
1070
     0
1002
}
1002
{
1000
REACTOR
1002
}
1001
GENIUS_GENOBJ-F-PART_13
1002
{
1000
OWNER
1000
GEF
1002
}
1001
GENIUS_GEFSTDP_13
1002
{
1000
SUG
1000
M
1040
5.0
1002
}
1002
{
1000
DSC
1000
DSC
1002
{
1000
~DESCR
1000
 
1000
~STDRT
1000
(gefmsg "gefcall" 409)
1000
~LOTI
1002
}
1002
}
1002
{
1000
KEY
1000
THRF
1002
}
1002
{
1000
INS
1002
{
1040
210.0593639999934
1040
526.7122499999969
1040
0.0
1002
}
1002
}
1002
{
1000
ANG
1040
4.712388980384689
1002
}
1002
{
1000
VCC
1002
{
1000
-LPLOTI=5.000000000000000E+00
1000
$PRE=M
1000
$NND=5.000000000000000E+00
1000
-GRPNAME0MSR_4-0
1000
-RBDESCR
1000
-RBSTDRT
1000
-RBLOTI
1000
-RBGD1
1000
-V$PV_GENSYSTEM"gef\val\di\0401\di1616_v.dxf"
1000
$VCC_TABLE=$PV_GENSYSTEM"gef\val\di\0401\di1616.val"
1000
$GEF_CDIST=3.000000000000000E+00
1000
$GEF_DRAG=1
1000
$GEF_STANG=2.100000000000000E+02
1000
$GEF_OANG=7.000000000000000E+01
1000
$GEVPROMPTX= Länge: 
1000
$GEF_SNK_ADD=0.000000000000000E+00
1000
$GEF_FLIPX=1
1000
$GEF_FLIPY=1
1000
-GRPNAME1?
1000
-BAML2
1000
$GEF_PROCALC=1
1000
$GEVBHOP=2
1002
}
1002
}
1002
{
1000
LST
1002
{
1002
{
1000
GROUP
1000
0401
1002
}
1002
{
1000
VIEW
1000
V
1002
}
1002
{
1000
SFILE
1000
$PV_GENSYSTEM"gef\val\di\0401\di1616_v.dxf"
1002
}
1002
{
1000
ST1
1000
$PV_GENSYSTEM"gef\val\di\0401\di1616.val"
1002
}
1002
{
1000
GENASSO
1000
 
1002
}
1002
}
1002
}
1002
{
1000
RET
1002
{
1002
{
1000
GD1
1000
4.134
1002
}
1002
{
1000
LOTI
1000
5.000000000000000E+00
1002
}
1002
{
1000
STDRT
1000
DIN 13 - M5
1002
}
1002
{
1000
DESCR
1000
Metrisches ISO-Gewinde
1002
}
1002
}
1002
}
1002
{
1000
SYSTEM
1040
1.0
1002
}
1002
{
1000
INFEL
1002
{
1002
}
1002
}
1001
GENIUS_GENOENT_13
1002
{
1000
MYREF
1005
4E1
1002
}
1002
{
1000
GRP
1005
0
1002
}
1001
GENIUS_GENOLIS_13
1002
{
1000
ENT
1005
35E
1002
}
  0
POINT
  5
4E2
330
2
100
AcDbEntity
  8
0
 60
     1
100
AcDbPoint
 10
-226.059364
 20
-489.21225
 30
0.0
1001
GENIUS_GENODEF_13
1002
{
1000
HIER
1070
   200
1002
}
1002
{
1000
MANEDIT
1070
     0
1002
}
1002
{
1000
NOSEL
1070
     0
1002
}
1002
{
1000
BEHIND
1070
     0
1002
}
1002
{
1000
REACTOR
1002
}
1001
GENIUS_GENOBJ-F-PART_13
1002
{
1000
OWNER
1000
GEF
1002
}
1001
GENIUS_GEFSTDP_13
1002
{
1000
DSC
1000
DSC
1002
{
1000
~DESCR
1000
 
1000
~STDRT
1002
}
1002
}
1002
{
1000
SUG
1000
M
1040
5.0
1002
}
1002
{
1000
KEY
1000
THRT
1002
}
1002
{
1000
INS
1002
{
1040
274.5593639999934
1040
331.687011719041
1040
0.0
1002
}
1002
}
1002
{
1000
ANG
1040
0.0
1002
}
1002
{
1000
VCC
1002
{
1000
$PRE=M
1000
$NND=5.000000000000000E+00
1000
-RBDESCR
1000
-RBSTDRT
1000
-RBGD1
1000
-RBLOTI
1000
-V$PV_GENSYSTEM"gef\val\di\0401\di1616_d.dxf"
1000
$VCC_TABLE=$PV_GENSYSTEM"gef\val\di\0401\di1616.val"
1000
$GEF_CDIST=3.000000000000000E+00
1000
$GEF_DRAG=1
1000
$GEF_STANG=2.100000000000000E+02
1000
$GEF_OANG=7.000000000000000E+01
1000
$GEVPROMPTX= Länge: 
1000
$GEF_SNK_ADD=0.000000000000000E+00
1000
$GEF_FLIPX=1
1000
$GEF_FLIPY=1
1000
-GRPNAME0?
1000
-GRPNAME1?
1000
-BAML2
1000
$GEF_PROCALC=1
1002
}
1002
}
1002
{
1000
LST
1002
{
1002
{
1000
GROUP
1000
0401
1002
}
1002
{
1000
VIEW
1000
D
1002
}
1002
{
1000
SFILE
1000
$PV_GENSYSTEM"gef\val\di\0401\di1616_d.dxf"
1002
}
1002
{
1000
ST1
1000
$PV_GENSYSTEM"gef\val\di\0401\di1616.val"
1002
}
1002
{
1000
GENASSO
1000
 
1002
}
1002
}
1002
}
1002
{
1000
RET
1002
{
1002
{
1000
LOTI
1002
}
1002
{
1000
GD1
1000
4.134
1002
}
1002
{
1000
STDRT
1000
DIN 13 - M5
1002
}
1002
{
1000
DESCR
1000
Metrisches ISO-Gewinde
1002
}
1002
}
1002
}
1002
{
1000
SYSTEM
1040
1.0
1002
}
1002
{
1000
INFEL
1002
{
1002
}
1002
}
1001
GENIUS_GENOENT_13
1002
{
1000
MYREF
1005
4E2
1002
}
1002
{
1000
GRP
1005
0
1002
}
1001
GENIUS_GENOLIS_13
1002
{
1000
ENT
1005
32F
1002
}
  0
POINT
  5
4E3
330
2
100
AcDbEntity
  8
0
 60
     1
100
AcDbPoint
 10
-226.059364
 20
-489.21225
 30
0.0
1001
GENIUS_GENBH_13
1002
{
1000
BGO
1005
0
1002
}
1002
{
1000
FGLEVEL
1040
17.00000001
1002
}
1002
{
1000
FLAGS
1070
    36
1002
}
1002
{
1000
OIUMAP
1000
OIU
1002
}
1002
{
1000
MODIFY
1070
     0
1002
}
1001
GENIUS_GENODEF_13
1002
{
1000
HIER
1070
     1
1002
}
1002
{
1000
MANEDIT
1070
     0
1002
}
1002
{
1000
NOSEL
1070
     1
1002
}
1002
{
1000
BEHIND
1070
     0
1002
}
1002
{
1000
REACTOR
1002
}
1001
GENIUS_GENOBJ-NBEHI-BHF_13
1002
{
1000
OWNER
1000
GENBEHI
1002
}
1001
GENIUS_GENOENT_13
1002
{
1000
MYREF
1005
4E3
1002
}
1002
{
1000
GRP
1005
0
1002
}
1001
GENIUS_GENOLIS_13
1002
{
1000
ENT
1005
32F
1002
}
  0
POINT
  5
4E4
330
2
100
AcDbEntity
  8
0
 60
     1
100
AcDbPoint
 10
-226.059364
 20
-489.21225
 30
0.0
1001
GENIUS_GENODEF_13
1002
{
1000
HIER
1070
   200
1002
}
1002
{
1000
MANEDIT
1070
     0
1002
}
1002
{
1000
NOSEL
1070
     0
1002
}
1002
{
1000
BEHIND
1070
     0
1002
}
1002
{
1000
REACTOR
1002
}
1001
GENIUS_GENOBJ-F-PART_13
1002
{
1000
OWNER
1000
GEF
1002
}
1001
GENIUS_GEFSTDP_13
1002
{
1000
SUG
1000
M
1040
9.0
1000
x
1040
0.75
1000

1002
}
1002
{
1000
DSC
1000
DSC
1002
{
1000
~DESCR
1000
 
1000
~STDRT
1002
}
1002
}
1002
{
1000
KEY
1000
THFT
1002
}
1002
{
1000
INS
1002
{
1040
236.559364
1040
417.1870117190337
1040
0.0
1002
}
1002
}
1002
{
1000
ANG
1040
0.0
1002
}
1002
{
1000
VCC
1002
{
1000
$PRE=M
1000
$NND=9.000000000000000E+00
1000
$TPU=7.500000000000000E-01
1000
$POST=
1000
-RBDESCR
1000
-RBSTDRT
1000
-RBGD1
1000
-V$PV_GENSYSTEM"gef\val\is\0403\is1617_d.dxf"
1000
$VCC_TABLE=$PV_GENSYSTEM"gef\val\is\0403\is1617.val"
1000
$GEF_CDIST=3.000000000000000E+00
1000
$GEF_DRAG=1
1000
$GEF_STANG=2.100000000000000E+02
1000
$GEF_OANG=7.000000000000000E+01
1000
$GEVPROMPTX= Länge: 
1000
$GEF_SNK_ADD=0.000000000000000E+00
1000
$GEF_FLIPX=1
1000
$GEF_FLIPY=1
1000
-GRPNAME0?
1000
-GRPNAME1?
1000
-BAML2
1000
$GEF_PROCALC=1
1002
}
1002
}
1002
{
1000
LST
1002
{
1002
{
1000
GROUP
1000
0403
1002
}
1002
{
1000
VIEW
1000
D
1002
}
1002
{
1000
SFILE
1000
$PV_GENSYSTEM"gef\val\is\0403\is1617_d.dxf"
1002
}
1002
{
1000
ST1
1000
$PV_GENSYSTEM"gef\val\is\0403\is1617.val"
1002
}
1002
{
1000
GENASSO
1000
 
1002
}
1002
}
1002
}
1002
{
1000
RET
1002
{
1002
{
1000
GD1
1000
8.188
1002
}
1002
{
1000
STDRT
1000
ISO 261 - M9 X 0.75
1002
}
1002
{
1000
DESCR
1000
Metrisches ISO-Gewinde
1002
}
1002
}
1002
}
1002
{
1000
SYSTEM
1040
1.0
1002
}
1002
{
1000
INFEL
1002
{
1002
}
1002
}
1001
GENIUS_GENOENT_13
1002
{
1000
MYREF
1005
4E4
1002
}
1002
{
1000
GRP
1005
0
1002
}
1001
GENIUS_GENOLIS_13
1002
{
1000
ENT
1005
304
1002
}
  0
POINT
  5
4E5
330
2
100
AcDbEntity
  8
0
 60
     1
100
AcDbPoint
 10
-226.059364
 20
-489.21225
 30
0.0
1001
GENIUS_GENBH_13
1002
{
1000
BGO
1005
0
1002
}
1002
{
1000
FGLEVEL
1040
7.000000009999999
1002
}
1002
{
1000
FLAGS
1070
    36
1002
}
1002
{
1000
OIUMAP
1000
OIU
1002
}
1002
{
1000
MODIFY
1070
     0
1002
}
1001
GENIUS_GENODEF_13
1002
{
1000
HIER
1070
     1
1002
}
1002
{
1000
MANEDIT
1070
     0
1002
}
1002
{
1000
NOSEL
1070
     1
1002
}
1002
{
1000
BEHIND
1070
     0
1002
}
1002
{
1000
REACTOR
1002
}
1001
GENIUS_GENOBJ-NBEHI-BHF_13
1002
{
1000
OWNER
1000
GENBEHI
1002
}
1001
GENIUS_GENOENT_13
1002
{
1000
MYREF
1005
4E5
1002
}
1002
{
1000
GRP
1005
0
1002
}
1001
GENIUS_GENOLIS_13
1002
{
1000
ENT
1005
304
1002
}
  0
POINT
  5
4E6
330
2
100
AcDbEntity
  8
0
 60
     1
100
AcDbPoint
 10
-226.059364
 20
-489.21225
 30
0.0
1001
GENIUS_GENODEF_13
1002
{
1000
HIER
1070
   200
1002
}
1002
{
1000
MANEDIT
1070
     0
1002
}
1002
{
1000
NOSEL
1070
     0
1002
}
1002
{
1000
BEHIND
1070
     0
1002
}
1002
{
1000
REACTOR
1002
}
1001
GENIUS_GENOBJ-F-PART_13
1002
{
1000
OWNER
1000
GEF
1002
}
1001
GENIUS_GEFSTDP_13
1002
{
1000
SUG
1000
M
1040
9.0
1000
x
1040
0.75
1000

1002
}
1002
{
1000
DSC
1000
DSC
1002
{
1000
~DESCR
1000
 
1000
~STDRT
1002
}
1002
}
1002
{
1000
KEY
1000
THFT
1002
}
1002
{
1000
INS
1002
{
1040
248.5593640000006
1040
421.187011719041
1040
0.0
1002
}
1002
}
1002
{
1000
ANG
1040
0.0
1002
}
1002
{
1000
VCC
1002
{
1000
$PRE=M
1000
$NND=9.000000000000000E+00
1000
$TPU=7.500000000000000E-01
1000
$POST=
1000
-RBDESCR
1000
-RBSTDRT
1000
-RBGD1
1000
-V$PV_GENSYSTEM"gef\val\is\0403\is1617_d.dxf"
1000
$VCC_TABLE=$PV_GENSYSTEM"gef\val\is\0403\is1617.val"
1000
$GEF_CDIST=3.000000000000000E+00
1000
$GEF_DRAG=1
1000
$GEF_STANG=2.100000000000000E+02
1000
$GEF_OANG=7.000000000000000E+01
1000
$GEVPROMPTX= Länge: 
1000
$GEF_SNK_ADD=0.000000000000000E+00
1000
$GEF_FLIPX=1
1000
$GEF_FLIPY=1
1000
-GRPNAME0?
1000
-GRPNAME1?
1000
-BAML2
1000
$GEF_PROCALC=1
1002
}
1002
}
1002
{
1000
LST
1002
{
1002
{
1000
GROUP
1000
0403
1002
}
1002
{
1000
VIEW
1000
D
1002
}
1002
{
1000
SFILE
1000
$PV_GENSYSTEM"gef\val\is\0403\is1617_d.dxf"
1002
}
1002
{
1000
ST1
1000
$PV_GENSYSTEM"gef\val\is\0403\is1617.val"
1002
}
1002
{
1000
GENASSO
1000
 
1002
}
1002
}
1002
}
1002
{
1000
RET
1002
{
1002
{
1000
GD1
1000
8.188
1002
}
1002
{
1000
STDRT
1000
ISO 261 - M9 X 0.75
1002
}
1002
{
1000
DESCR
1000
Metrisches ISO-Gewinde
1002
}
1002
}
1002
}
1002
{
1000
SYSTEM
1040
1.0
1002
}
1002
{
1000
INFEL
1002
{
1002
}
1002
}
1001
GENIUS_GENOENT_13
1002
{
1000
MYREF
1005
4E6
1002
}
1002
{
1000
GRP
1005
0
1002
}
1001
GENIUS_GENOLIS_13
1002
{
1000
ENT
1005
2F2
1002
}
  0
POINT
  5
4E7
330
2
100
AcDbEntity
  8
0
 60
     1
100
AcDbPoint
 10
-226.059364
 20
-489.21225
 30
0.0
1001
GENIUS_GENBH_13
1002
{
1000
BGO
1005
4EA
1002
}
1002
{
1000
FGLEVEL
1040
8.00000001
1002
}
1002
{
1000
FLAGS
1070
    36
1002
}
1002
{
1000
OIUMAP
1000
OIU
1002
}
1002
{
1000
MODIFY
1070
     0
1002
}
1001
GENIUS_GENODEF_13
1002
{
1000
HIER
1070
     1
1002
}
1002
{
1000
MANEDIT
1070
     0
1002
}
1002
{
1000
NOSEL
1070
     1
1002
}
1002
{
1000
BEHIND
1070
     0
1002
}
1002
{
1000
REACTOR
1002
}
1001
GENIUS_GENOBJ-NBEHI-BHF_13
1002
{
1000
OWNER
1000
GENBEHI
1002
}
1001
GENIUS_GENOENT_13
1002
{
1000
MYREF
1005
4E7
1002
}
1002
{
1000
GRP
1005
0
1002
}
1001
GENIUS_GENOLIS_13
1002
{
1000
ENT
1005
2F2
1002
}
  0
POINT
  5
4E8
330
2
100
AcDbEntity
  8
0
 60
     1
100
AcDbPoint
 10
-226.059364
 20
-489.21225
 30
0.0
1001
GENIUS_GENODEF_13
1002
{
1000
HIER
1070
   200
1002
}
1002
{
1000
MANEDIT
1070
     0
1002
}
1002
{
1000
NOSEL
1070
     0
1002
}
1002
{
1000
BEHIND
1070
     0
1002
}
1002
{
1000
REACTOR
1002
}
1001
GENIUS_GENOBJ-F-PART_13
1002
{
1000
OWNER
1000
GEF
1002
}
1001
GENIUS_GEFSTDP_13
1002
{
1000
SUG
1000
M
1040
9.0
1000
x
1040
0.75
1000

1002
}
1002
{
1000
DSC
1000
DSC
1002
{
1000
~DESCR
1000
 
1000
~STDRT
1002
}
1002
}
1002
{
1000
KEY
1000
THFT
1002
}
1002
{
1000
INS
1002
{
1040
224.5593640000006
1040
421.187011719041
1040
0.0
1002
}
1002
}
1002
{
1000
ANG
1040
0.0
1002
}
1002
{
1000
VCC
1002
{
1000
$PRE=M
1000
$NND=9.000000000000000E+00
1000
$TPU=7.500000000000000E-01
1000
$POST=
1000
-RBDESCR
1000
-RBSTDRT
1000
-RBGD1
1000
-V$PV_GENSYSTEM"gef\val\is\0403\is1617_d.dxf"
1000
$VCC_TABLE=$PV_GENSYSTEM"gef\val\is\0403\is1617.val"
1000
$GEF_CDIST=3.000000000000000E+00
1000
$GEF_DRAG=1
1000
$GEF_STANG=2.100000000000000E+02
1000
$GEF_OANG=7.000000000000000E+01
1000
$GEVPROMPTX= Länge: 
1000
$GEF_SNK_ADD=0.000000000000000E+00
1000
$GEF_FLIPX=1
1000
$GEF_FLIPY=1
1000
-GRPNAME0?
1000
-GRPNAME1?
1000
-BAML2
1000
$GEF_PROCALC=1
1002
}
1002
}
1002
{
1000
LST
1002
{
1002
{
1000
GROUP
1000
0403
1002
}
1002
{
1000
VIEW
1000
D
1002
}
1002
{
1000
SFILE
1000
$PV_GENSYSTEM"gef\val\is\0403\is1617_d.dxf"
1002
}
1002
{
1000
ST1
1000
$PV_GENSYSTEM"gef\val\is\0403\is1617.val"
1002
}
1002
{
1000
GENASSO
1000
 
1002
}
1002
}
1002
}
1002
{
1000
RET
1002
{
1002
{
1000
GD1
1000
8.188
1002
}
1002
{
1000
STDRT
1000
ISO 261 - M9 X 0.75
1002
}
1002
{
1000
DESCR
1000
Metrisches ISO-Gewinde
1002
}
1002
}
1002
}
1002
{
1000
SYSTEM
1040
1.0
1002
}
1002
{
1000
INFEL
1002
{
1002
}
1002
}
1001
GENIUS_GENOENT_13
1002
{
1000
MYREF
1005
4E8
1002
}
1002
{
1000
GRP
1005
0
1002
}
1001
GENIUS_GENOLIS_13
1002
{
1000
ENT
1005
2E1
1002
}
  0
POINT
  5
4E9
330
2
100
AcDbEntity
  8
0
 60
     1
100
AcDbPoint
 10
-226.059364
 20
-489.21225
 30
0.0
1001
GENIUS_GENBH_13
1002
{
1000
BGO
1005
0
1002
}
1002
{
1000
FGLEVEL
1040
6.000000009999999
1002
}
1002
{
1000
FLAGS
1070
    36
1002
}
1002
{
1000
OIUMAP
1000
OIU
1002
}
1002
{
1000
MODIFY
1070
     0
1002
}
1001
GENIUS_GENODEF_13
1002
{
1000
HIER
1070
     1
1002
}
1002
{
1000
MANEDIT
1070
     0
1002
}
1002
{
1000
NOSEL
1070
     1
1002
}
1002
{
1000
BEHIND
1070
     0
1002
}
1002
{
1000
REACTOR
1002
}
1001
GENIUS_GENOBJ-NBEHI-BHF_13
1002
{
1000
OWNER
1000
GENBEHI
1002
}
1001
GENIUS_GENOENT_13
1002
{
1000
MYREF
1005
4E9
1002
}
1002
{
1000
GRP
1005
0
1002
}
1001
GENIUS_GENOLIS_13
1002
{
1000
ENT
1005
2E1
1002
}
  0
POINT
  5
4EA
330
2
100
AcDbEntity
  8
0
 60
     1
100
AcDbPoint
 10
-226.059364
 20
-489.21225
 30
0.0
1001
GENIUS_GENBH_13
1002
{
1000
FGO
1005
4E7
1002
}
1001
GENIUS_GENODEF_13
1002
{
1000
HIER
1070
     1
1002
}
1002
{
1000
MANEDIT
1070
     0
1002
}
1002
{
1000
NOSEL
1070
     1
1002
}
1002
{
1000
BEHIND
1070
     0
1002
}
1002
{
1000
REACTOR
1002
}
1001
GENIUS_GENOBJ-NBEHI-BHB_13
1002
{
1000
OWNER
1000
GENBEHI
1002
}
1001
GENIUS_GENOENT_13
1002
{
1000
MYREF
1005
4EA
1002
}
1002
{
1000
GRP
1005
0
1002
}
1001
GENIUS_GENOLIS_13
1002
{
1000
ENT
1005
2E0
1005
0
1005
0
1005
0
1002
}
  0
POINT
  5
4EB
330
2
100
AcDbEntity
  8
0
 60
     1
100
AcDbPoint
 10
-226.059364
 20
-489.21225
 30
0.0
1001
GENIUS_GENODEF_13
1002
{
1000
HIER
1070
   200
1002
}
1002
{
1000
MANEDIT
1070
     0
1002
}
1002
{
1000
NOSEL
1070
     0
1002
}
1002
{
1000
BEHIND
1070
     0
1002
}
1002
{
1000
REACTOR
1002
}
1001
GENIUS_GENOBJ-F-PART_13
1002
{
1000
OWNER
1000
GEF
1002
}
1001
GENIUS_GEFSTDP_13
1002
{
1000
SUG
1000
M
1040
5.0
1002
}
1002
{
1000
DSC
1000
DSC
1002
{
1000
~DESCR
1000
 
1000
~STDRT
1000
(gefmsg "gefcall" 409)
1000
~LOTI
1002
}
1002
}
1002
{
1000
KEY
1000
THRF
1002
}
1002
{
1000
INS
1002
{
1040
263.559364
1040
414.6870117190301
1040
0.0
1002
}
1002
}
1002
{
1000
ANG
1040
3.141592653589793
1002
}
1002
{
1000
VCC
1002
{
1000
-LPLOTI=5.000000000000000E+00
1000
$PRE=M
1000
$NND=5.000000000000000E+00
1000
-GRPNAME0MSR_4-2
1000
-RBDESCR
1000
-RBSTDRT
1000
-RBLOTI
1000
-RBGD1
1000
-V$PV_GENSYSTEM"gef\val\di\0401\di1616_v.dxf"
1000
$VCC_TABLE=$PV_GENSYSTEM"gef\val\di\0401\di1616.val"
1000
$GEF_CDIST=3.000000000000000E+00
1000
$GEF_DRAG=1
1000
$GEF_STANG=2.100000000000000E+02
1000
$GEF_OANG=7.000000000000000E+01
1000
$GEVPROMPTX= Länge: 
1000
$GEF_SNK_ADD=0.000000000000000E+00
1000
$GEF_FLIPX=1
1000
$GEF_FLIPY=1
1000
-GRPNAME1?
1000
-BAML2
1000
$GEF_PROCALC=1
1000
$GEVBHOP=2
1002
}
1002
}
1002
{
1000
LST
1002
{
1002
{
1000
GROUP
1000
0401
1002
}
1002
{
1000
VIEW
1000
V
1002
}
1002
{
1000
SFILE
1000
$PV_GENSYSTEM"gef\val\di\0401\di1616_v.dxf"
1002
}
1002
{
1000
ST1
1000
$PV_GENSYSTEM"gef\val\di\0401\di1616.val"
1002
}
1002
{
1000
GENASSO
1000
 
1002
}
1002
}
1002
}
1002
{
1000
RET
1002
{
1002
{
1000
GD1
1000
4.134
1002
}
1002
{
1000
LOTI
1000
5.000000000000000E+00
1002
}
1002
{
1000
STDRT
1000
DIN 13 - M5
1002
}
1002
{
1000
DESCR
1000
Metrisches ISO-Gewinde
1002
}
1002
}
1002
}
1002
{
1000
SYSTEM
1040
1.0
1002
}
1002
{
1000
INFEL
1002
{
1002
}
1002
}
1001
GENIUS_GENOENT_13
1002
{
1000
MYREF
1005
4EB
1002
}
1002
{
1000
GRP
1005
0
1002
}
1001
GENIUS_GENOLIS_13
1002
{
1000
ENT
1005
268
1002
}
  0
POINT
  5
4EC
330
2
100
AcDbEntity
  8
0
 60
     1
100
AcDbPoint
 10
-226.059364
 20
-489.21225
 30
0.0
1001
GENIUS_GENODEF_13
1002
{
1000
HIER
1070
    10
1002
}
1002
{
1000
MANEDIT
1070
     0
1002
}
1002
{
1000
NOSEL
1070
     0
1002
}
1002
{
1000
BEHIND
1070
     0
1002
}
1002
{
1000
REACTOR
1002
}
1001
GENIUS_GENOBJ-N-CRS_13
1002
{
1000
OWNER
1000
GEN
1002
}
1001
GENIUS_GENOENT_13
1002
{
1000
MYREF
1005
4EC
1002
}
1002
{
1000
GRP
1005
0
1002
}
1001
GENIUS_GENOLIS_13
1002
{
1000
ENT
1005
290
1005
264
1005
262
1005
28F
1002
}
  0
POINT
  5
4ED
330
2
100
AcDbEntity
  8
0
 60
     1
100
AcDbPoint
 10
-226.059364
 20
-489.21225
 30
0.0
1001
GENIUS_GENODEF_13
1002
{
1000
HIER
1070
   200
1002
}
1002
{
1000
MANEDIT
1070
     0
1002
}
1002
{
1000
NOSEL
1070
     0
1002
}
1002
{
1000
BEHIND
1070
     0
1002
}
1002
{
1000
REACTOR
1002
}
1001
GENIUS_GENOBJ-F-PART_13
1002
{
1000
OWNER
1000
GEF
1002
}
1001
GENIUS_GEFSTDP_13
1002
{
1000
DSC
1000
DSC
1002
{
1000
~DESCR
1000
 
1000
~STDRT
1002
}
1002
}
1002
{
1000
SUG
1000
M
1040
9.0
1000
x
1040
0.75
1000

1002
}
1002
{
1000
KEY
1000
THFT
1002
}
1002
{
1000
INS
1002
{
1040
212.5593640000007
1040
417.187011719041
1040
0.0
1002
}
1002
}
1002
{
1000
ANG
1040
0.0
1002
}
1002
{
1000
VCC
1002
{
1000
$PRE=M
1000
$NND=9.000000000000000E+00
1000
$TPU=7.500000000000000E-01
1000
$POST=
1000
-RBDESCR
1000
-RBSTDRT
1000
-RBGD1
1000
-V$PV_GENSYSTEM"gef\val\is\0403\is1617_d.dxf"
1000
$VCC_TABLE=$PV_GENSYSTEM"gef\val\is\0403\is1617.val"
1000
$GEF_CDIST=3.000000000000000E+00
1000
$GEF_DRAG=1
1000
$GEF_STANG=2.100000000000000E+02
1000
$GEF_OANG=7.000000000000000E+01
1000
$GEVPROMPTX= Länge: 
1000
$GEF_SNK_ADD=0.000000000000000E+00
1000
$GEF_FLIPX=1
1000
$GEF_FLIPY=1
1000
-GRPNAME0?
1000
-GRPNAME1?
1000
-BAML2
1000
$GEF_PROCALC=1
1002
}
1002
}
1002
{
1000
LST
1002
{
1002
{
1000
GROUP
1000
0403
1002
}
1002
{
1000
VIEW
1000
D
1002
}
1002
{
1000
SFILE
1000
$PV_GENSYSTEM"gef\val\is\0403\is1617_d.dxf"
1002
}
1002
{
1000
ST1
1000
$PV_GENSYSTEM"gef\val\is\0403\is1617.val"
1002
}
1002
{
1000
GENASSO
1000
 
1002
}
1002
}
1002
}
1002
{
1000
RET
1002
{
1002
{
1000
GD1
1000
8.188
1002
}
1002
{
1000
STDRT
1000
ISO 261 - M9 X 0.75
1002
}
1002
{
1000
DESCR
1000
Metrisches ISO-Gewinde
1002
}
1002
}
1002
}
1002
{
1000
SYSTEM
1040
1.0
1002
}
1002
{
1000
INFEL
1002
{
1002
}
1002
}
1001
GENIUS_GENOENT_13
1002
{
1000
MYREF
1005
4ED
1002
}
1002
{
1000
GRP
1005
0
1002
}
1001
GENIUS_GENOLIS_13
1002
{
1000
ENT
1005
24C
1002
}
  0
POINT
  5
4EE
330
2
100
AcDbEntity
  8
0
 60
     1
100
AcDbPoint
 10
-226.059364
 20
-489.21225
 30
0.0
1001
GENIUS_GENBH_13
1002
{
1000
BGO
1005
0
1002
}
1002
{
1000
FGLEVEL
1040
5.000000009999999
1002
}
1002
{
1000
FLAGS
1070
    36
1002
}
1002
{
1000
OIUMAP
1000
OIU
1002
}
1002
{
1000
MODIFY
1070
     0
1002
}
1001
GENIUS_GENODEF_13
1002
{
1000
HIER
1070
     1
1002
}
1002
{
1000
MANEDIT
1070
     0
1002
}
1002
{
1000
NOSEL
1070
     1
1002
}
1002
{
1000
BEHIND
1070
     0
1002
}
1002
{
1000
REACTOR
1002
}
1001
GENIUS_GENOBJ-NBEHI-BHF_13
1002
{
1000
OWNER
1000
GENBEHI
1002
}
1001
GENIUS_GENOENT_13
1002
{
1000
MYREF
1005
4EE
1002
}
1002
{
1000
GRP
1005
0
1002
}
1001
GENIUS_GENOLIS_13
1002
{
1000
ENT
1005
24C
1002
}
  0
POINT
  5
4EF
330
2
100
AcDbEntity
  8
0
 60
     1
100
AcDbPoint
 10
-226.059364
 20
-489.21225
 30
0.0
1001
GENIUS_GENODEF_13
1002
{
1000
HIER
1070
   200
1002
}
1002
{
1000
MANEDIT
1070
     0
1002
}
1002
{
1000
NOSEL
1070
     0
1002
}
1002
{
1000
BEHIND
1070
     0
1002
}
1002
{
1000
REACTOR
1002
}
1001
GENIUS_GENOBJ-F-PART_13
1002
{
1000
OWNER
1000
GEF
1002
}
1001
GENIUS_GEFSTDP_13
1002
{
1000
SUG
1000
M
1040
5.0
1002
}
1002
{
1000
DSC
1000
DSC
1002
{
1000
~DESCR
1000
 
1000
~STDRT
1002
}
1002
}
1002
{
1000
KEY
1000
THRT
1002
}
1002
{
1000
INS
1002
{
1040
226.0593639999934
1040
331.687011719041
1040
0.0
1002
}
1002
}
1002
{
1000
ANG
1040
0.0
1002
}
1002
{
1000
VCC
1002
{
1000
$PRE=M
1000
$NND=5.000000000000000E+00
1000
-RBDESCR
1000
-RBSTDRT
1000
-RBGD1
1000
-RBLOTI
1000
-V$PV_GENSYSTEM"gef\val\di\0401\di1616_d.dxf"
1000
$VCC_TABLE=$PV_GENSYSTEM"gef\val\di\0401\di1616.val"
1000
$GEF_CDIST=3.000000000000000E+00
1000
$GEF_DRAG=1
1000
$GEF_STANG=2.100000000000000E+02
1000
$GEF_OANG=7.000000000000000E+01
1000
$GEVPROMPTX= Länge: 
1000
$GEF_SNK_ADD=0.000000000000000E+00
1000
$GEF_FLIPX=1
1000
$GEF_FLIPY=1
1000
-GRPNAME0?
1000
-GRPNAME1?
1000
-BAML2
1000
$GEF_PROCALC=1
1002
}
1002
}
1002
{
1000
LST
1002
{
1002
{
1000
GROUP
1000
0401
1002
}
1002
{
1000
VIEW
1000
D
1002
}
1002
{
1000
SFILE
1000
$PV_GENSYSTEM"gef\val\di\0401\di1616_d.dxf"
1002
}
1002
{
1000
ST1
1000
$PV_GENSYSTEM"gef\val\di\0401\di1616.val"
1002
}
1002
{
1000
GENASSO
1000
 
1002
}
1002
}
1002
}
1002
{
1000
RET
1002
{
1002
{
1000
LOTI
1002
}
1002
{
1000
GD1
1000
4.134
1002
}
1002
{
1000
STDRT
1000
DIN 13 - M5
1002
}
1002
{
1000
DESCR
1000
Metrisches ISO-Gewinde
1002
}
1002
}
1002
}
1002
{
1000
SYSTEM
1040
1.0
1002
}
1002
{
1000
INFEL
1002
{
1002
}
1002
}
1001
GENIUS_GENOENT_13
1002
{
1000
MYREF
1005
4EF
1002
}
1002
{
1000
GRP
1005
0
1002
}
1001
GENIUS_GENOLIS_13
1002
{
1000
ENT
1005
237
1002
}
  0
POINT
  5
4F0
330
2
100
AcDbEntity
  8
0
 60
     1
100
AcDbPoint
 10
-226.059364
 20
-489.21225
 30
0.0
1001
GENIUS_GENBH_13
1002
{
1000
BGO
1005
4F5
1002
}
1002
{
1000
FGLEVEL
1040
19.00000001
1002
}
1002
{
1000
FLAGS
1070
    36
1002
}
1002
{
1000
OIUMAP
1000
OIU
1002
}
1002
{
1000
MODIFY
1070
     0
1002
}
1001
GENIUS_GENODEF_13
1002
{
1000
HIER
1070
     1
1002
}
1002
{
1000
MANEDIT
1070
     0
1002
}
1002
{
1000
NOSEL
1070
     1
1002
}
1002
{
1000
BEHIND
1070
     0
1002
}
1002
{
1000
REACTOR
1002
}
1001
GENIUS_GENOBJ-NBEHI-BHF_13
1002
{
1000
OWNER
1000
GENBEHI
1002
}
1001
GENIUS_GENOENT_13
1002
{
1000
MYREF
1005
4F0
1002
}
1002
{
1000
GRP
1005
0
1002
}
1001
GENIUS_GENOLIS_13
1002
{
1000
ENT
1005
237
1002
}
  0
POINT
  5
4F1
330
2
100
AcDbEntity
  8
0
 60
     1
100
AcDbPoint
 10
-226.059364
 20
-489.21225
 30
0.0
1001
GENIUS_GENODEF_13
1002
{
1000
HIER
1070
   200
1002
}
1002
{
1000
MANEDIT
1070
     0
1002
}
1002
{
1000
NOSEL
1070
     0
1002
}
1002
{
1000
BEHIND
1070
     0
1002
}
1002
{
1000
REACTOR
1002
}
1001
GENIUS_GENOBJ-F-PART_13
1002
{
1000
OWNER
1000
GEF
1002
}
1001
GENIUS_GEFSTDP_13
1002
{
1000
SUG
1000
M
1040
5.0
1002
}
1002
{
1000
DSC
1000
DSC
1002
{
1000
~DESCR
1000
 
1000
~STDRT
1002
}
1002
}
1002
{
1000
KEY
1000
THRT
1002
}
1002
{
1000
INS
1002
{
1040
242.0593639999934
1040
331.6870117190338
1040
0.0
1002
}
1002
}
1002
{
1000
ANG
1040
0.0
1002
}
1002
{
1000
VCC
1002
{
1000
$PRE=M
1000
$NND=5.000000000000000E+00
1000
-RBDESCR
1000
-RBSTDRT
1000
-RBGD1
1000
-RBLOTI
1000
-V$PV_GENSYSTEM"gef\val\di\0401\di1616_d.dxf"
1000
$VCC_TABLE=$PV_GENSYSTEM"gef\val\di\0401\di1616.val"
1000
$GEF_CDIST=3.000000000000000E+00
1000
$GEF_DRAG=1
1000
$GEF_STANG=2.100000000000000E+02
1000
$GEF_OANG=7.000000000000000E+01
1000
$GEVPROMPTX= Länge: 
1000
$GEF_SNK_ADD=0.000000000000000E+00
1000
$GEF_FLIPX=1
1000
$GEF_FLIPY=1
1000
-GRPNAME0?
1000
-GRPNAME1?
1000
-BAML2
1000
$GEF_PROCALC=1
1002
}
1002
}
1002
{
1000
LST
1002
{
1002
{
1000
GROUP
1000
0401
1002
}
1002
{
1000
VIEW
1000
D
1002
}
1002
{
1000
SFILE
1000
$PV_GENSYSTEM"gef\val\di\0401\di1616_d.dxf"
1002
}
1002
{
1000
ST1
1000
$PV_GENSYSTEM"gef\val\di\0401\di1616.val"
1002
}
1002
{
1000
GENASSO
1000
 
1002
}
1002
}
1002
}
1002
{
1000
RET
1002
{
1002
{
1000
LOTI
1002
}
1002
{
1000
GD1
1000
4.134
1002
}
1002
{
1000
STDRT
1000
DIN 13 - M5
1002
}
1002
{
1000
DESCR
1000
Metrisches ISO-Gewinde
1002
}
1002
}
1002
}
1002
{
1000
SYSTEM
1040
1.0
1002
}
1002
{
1000
INFEL
1002
{
1002
}
1002
}
1001
GENIUS_GENOENT_13
1002
{
1000
MYREF
1005
4F1
1002
}
1002
{
1000
GRP
1005
0
1002
}
1001
GENIUS_GENOLIS_13
1002
{
1000
ENT
1005
226
1002
}
  0
POINT
  5
4F2
330
2
100
AcDbEntity
  8
0
 60
     1
100
AcDbPoint
 10
-226.059364
 20
-489.21225
 30
0.0
1001
GENIUS_GENBH_13
1002
{
1000
BGO
1005
0
1002
}
1002
{
1000
FGLEVEL
1040
18.00000001
1002
}
1002
{
1000
FLAGS
1070
    36
1002
}
1002
{
1000
OIUMAP
1000
OIU
1002
}
1002
{
1000
MODIFY
1070
     0
1002
}
1001
GENIUS_GENODEF_13
1002
{
1000
HIER
1070
     1
1002
}
1002
{
1000
MANEDIT
1070
     0
1002
}
1002
{
1000
NOSEL
1070
     1
1002
}
1002
{
1000
BEHIND
1070
     0
1002
}
1002
{
1000
REACTOR
1002
}
1001
GENIUS_GENOBJ-NBEHI-BHF_13
1002
{
1000
OWNER
1000
GENBEHI
1002
}
1001
GENIUS_GENOENT_13
1002
{
1000
MYREF
1005
4F2
1002
}
1002
{
1000
GRP
1005
0
1002
}
1001
GENIUS_GENOLIS_13
1002
{
1000
ENT
1005
226
1002
}
  0
POINT
  5
4F3
330
2
100
AcDbEntity
  8
0
 60
     1
100
AcDbPoint
 10
-226.059364
 20
-489.21225
 30
0.0
1001
GENIUS_GENODEF_13
1002
{
1000
HIER
1070
   200
1002
}
1002
{
1000
MANEDIT
1070
     0
1002
}
1002
{
1000
NOSEL
1070
     0
1002
}
1002
{
1000
BEHIND
1070
     0
1002
}
1002
{
1000
REACTOR
1002
}
1001
GENIUS_GENOBJ-F-PART_13
1002
{
1000
OWNER
1000
GEF
1002
}
1001
GENIUS_GEFSTDP_13
1002
{
1000
SUG
1000
M
1040
5.0
1002
}
1002
{
1000
DSC
1000
DSC
1002
{
1000
~DESCR
1000
 
1000
~STDRT
1002
}
1002
}
1002
{
1000
KEY
1000
THRT
1002
}
1002
{
1000
INS
1002
{
1040
210.0593639999934
1040
331.6870117190338
1040
0.0
1002
}
1002
}
1002
{
1000
ANG
1040
0.0
1002
}
1002
{
1000
VCC
1002
{
1000
$PRE=M
1000
$NND=5.000000000000000E+00
1000
-RBDESCR
1000
-RBSTDRT
1000
-RBGD1
1000
-RBLOTI
1000
-V$PV_GENSYSTEM"gef\val\di\0401\di1616_d.dxf"
1000
$VCC_TABLE=$PV_GENSYSTEM"gef\val\di\0401\di1616.val"
1000
$GEF_CDIST=3.000000000000000E+00
1000
$GEF_DRAG=1
1000
$GEF_STANG=2.100000000000000E+02
1000
$GEF_OANG=7.000000000000000E+01
1000
$GEVPROMPTX= Länge: 
1000
$GEF_SNK_ADD=0.000000000000000E+00
1000
$GEF_FLIPX=1
1000
$GEF_FLIPY=1
1000
-GRPNAME0?
1000
-GRPNAME1?
1000
-BAML2
1000
$GEF_PROCALC=1
1002
}
1002
}
1002
{
1000
LST
1002
{
1002
{
1000
GROUP
1000
0401
1002
}
1002
{
1000
VIEW
1000
D
1002
}
1002
{
1000
SFILE
1000
$PV_GENSYSTEM"gef\val\di\0401\di1616_d.dxf"
1002
}
1002
{
1000
ST1
1000
$PV_GENSYSTEM"gef\val\di\0401\di1616.val"
1002
}
1002
{
1000
GENASSO
1000
 
1002
}
1002
}
1002
}
1002
{
1000
RET
1002
{
1002
{
1000
LOTI
1002
}
1002
{
1000
GD1
1000
4.134
1002
}
1002
{
1000
STDRT
1000
DIN 13 - M5
1002
}
1002
{
1000
DESCR
1000
Metrisches ISO-Gewinde
1002
}
1002
}
1002
}
1002
{
1000
SYSTEM
1040
1.0
1002
}
1002
{
1000
INFEL
1002
{
1002
}
1002
}
1001
GENIUS_GENOENT_13
1002
{
1000
MYREF
1005
4F3
1002
}
1002
{
1000
GRP
1005
0
1002
}
1001
GENIUS_GENOLIS_13
1002
{
1000
ENT
1005
214
1002
}
  0
POINT
  5
4F4
330
2
100
AcDbEntity
  8
0
 60
     1
100
AcDbPoint
 10
-226.059364
 20
-489.21225
 30
0.0
1001
GENIUS_GENBH_13
1002
{
1000
BGO
1005
0
1002
}
1002
{
1000
FGLEVEL
1040
20.00000001
1002
}
1002
{
1000
FLAGS
1070
    36
1002
}
1002
{
1000
OIUMAP
1000
OIU
1002
}
1002
{
1000
MODIFY
1070
     0
1002
}
1001
GENIUS_GENODEF_13
1002
{
1000
HIER
1070
     1
1002
}
1002
{
1000
MANEDIT
1070
     0
1002
}
1002
{
1000
NOSEL
1070
     1
1002
}
1002
{
1000
BEHIND
1070
     0
1002
}
1002
{
1000
REACTOR
1002
}
1001
GENIUS_GENOBJ-NBEHI-BHF_13
1002
{
1000
OWNER
1000
GENBEHI
1002
}
1001
GENIUS_GENOENT_13
1002
{
1000
MYREF
1005
4F4
1002
}
1002
{
1000
GRP
1005
0
1002
}
1001
GENIUS_GENOLIS_13
1002
{
1000
ENT
1005
214
1002
}
  0
POINT
  5
4F5
330
2
100
AcDbEntity
  8
0
 60
     1
100
AcDbPoint
 10
-226.059364
 20
-489.21225
 30
0.0
1001
GENIUS_GENBH_13
1002
{
1000
FGO
1005
4F0
1002
}
1001
GENIUS_GENODEF_13
1002
{
1000
HIER
1070
     1
1002
}
1002
{
1000
MANEDIT
1070
     0
1002
}
1002
{
1000
NOSEL
1070
     1
1002
}
1002
{
1000
BEHIND
1070
     0
1002
}
1002
{
1000
REACTOR
1002
}
1001
GENIUS_GENOBJ-NBEHI-BHB_13
1002
{
1000
OWNER
1000
GENBEHI
1002
}
1001
GENIUS_GENOENT_13
1002
{
1000
MYREF
1005
4F5
1002
}
1002
{
1000
GRP
1005
0
1002
}
1001
GENIUS_GENOLIS_13
1002
{
1000
ENT
1005
212
1005
0
1005
0
1002
}
  0
POINT
  5
4F6
330
2
100
AcDbEntity
  8
0
 60
     1
100
AcDbPoint
 10
-226.059364
 20
-489.21225
 30
0.0
1001
GENIUS_GENODEF_13
1002
{
1000
HIER
1070
   200
1002
}
1002
{
1000
MANEDIT
1070
     0
1002
}
1002
{
1000
NOSEL
1070
     0
1002
}
1002
{
1000
BEHIND
1070
     0
1002
}
1002
{
1000
REACTOR
1002
}
1001
GENIUS_GENOBJ-F-PART_13
1002
{
1000
OWNER
1000
GEF
1002
}
1001
GENIUS_GEFSTDP_13
1002
{
1000
SUG
1000
M
1040
5.0
1002
}
1002
{
1000
DSC
1000
DSC
1002
{
1000
~DESCR
1000
 
1000
~STDRT
1000
(gefmsg "gefcall" 409)
1000
~LOTI
1002
}
1002
}
1002
{
1000
KEY
1000
THRF
1002
}
1002
{
1000
INS
1002
{
1040
263.559364
1040
414.6870117190301
1040
0.0
1002
}
1002
}
1002
{
1000
ANG
1040
3.141592653589793
1002
}
1002
{
1000
VCC
1002
{
1000
-LPLOTI=5.000000000000000E+00
1000
$PRE=M
1000
$NND=5.000000000000000E+00
1000
-GRPNAME0MSR_4-2
1000
-RBDESCR
1000
-RBSTDRT
1000
-RBLOTI
1000
-RBGD1
1000
-V$PV_GENSYSTEM"gef\val\di\0401\di1616_v.dxf"
1000
$VCC_TABLE=$PV_GENSYSTEM"gef\val\di\0401\di1616.val"
1000
$GEF_CDIST=3.000000000000000E+00
1000
$GEF_DRAG=1
1000
$GEF_STANG=2.100000000000000E+02
1000
$GEF_OANG=7.000000000000000E+01
1000
$GEVPROMPTX= Länge: 
1000
$GEF_SNK_ADD=0.000000000000000E+00
1000
$GEF_FLIPX=1
1000
$GEF_FLIPY=1
1000
-GRPNAME1?
1000
-BAML2
1000
$GEF_PROCALC=1
1000
$GEVBHOP=2
1002
}
1002
}
1002
{
1000
LST
1002
{
1002
{
1000
GROUP
1000
0401
1002
}
1002
{
1000
VIEW
1000
V
1002
}
1002
{
1000
SFILE
1000
$PV_GENSYSTEM"gef\val\di\0401\di1616_v.dxf"
1002
}
1002
{
1000
ST1
1000
$PV_GENSYSTEM"gef\val\di\0401\di1616.val"
1002
}
1002
{
1000
GENASSO
1000
 
1002
}
1002
}
1002
}
1002
{
1000
RET
1002
{
1002
{
1000
GD1
1000
4.134
1002
}
1002
{
1000
LOTI
1000
5.000000000000000E+00
1002
}
1002
{
1000
STDRT
1000
DIN 13 - M5
1002
}
1002
{
1000
DESCR
1000
Metrisches ISO-Gewinde
1002
}
1002
}
1002
}
1002
{
1000
SYSTEM
1040
1.0
1002
}
1002
{
1000
INFEL
1002
{
1002
}
1002
}
1001
GENIUS_GENOENT_13
1002
{
1000
MYREF
1005
4F6
1002
}
1002
{
1000
GRP
1005
0
1002
}
1001
GENIUS_GENOLIS_13
1002
{
1000
ENT
1005
1F4
1002
}
  0
POINT
  5
4F7
330
2
100
AcDbEntity
  8
0
 60
     1
100
AcDbPoint
 10
-226.059364
 20
-489.21225
 30
0.0
1001
GENIUS_GENODEF_13
1002
{
1000
HIER
1070
   200
1002
}
1002
{
1000
MANEDIT
1070
     0
1002
}
1002
{
1000
NOSEL
1070
     0
1002
}
1002
{
1000
BEHIND
1070
     0
1002
}
1002
{
1000
REACTOR
1002
}
1001
GENIUS_GENOBJ-F-PART_13
1002
{
1000
OWNER
1000
GEF
1002
}
1001
GENIUS_GEFSTDP_13
1002
{
1000
SUG
1000
M
1040
5.0
1002
}
1002
{
1000
DSC
1000
DSC
1002
{
1000
~DESCR
1000
 
1000
~STDRT
1000
(gefmsg "gefcall" 409)
1000
~LOTI
1002
}
1002
}
1002
{
1000
KEY
1000
THRF
1002
}
1002
{
1000
INS
1002
{
1040
274.5593639999934
1040
208.9966726724293
1040
0.0
1002
}
1002
}
1002
{
1000
ANG
1040
1.570796326794896
1002
}
1002
{
1000
VCC
1002
{
1000
-LPLOTI=5.000000000000000E+00
1000
$PRE=M
1000
$NND=5.000000000000000E+00
1000
-GRPNAME0MSR_4-0
1000
-RBDESCR
1000
-RBSTDRT
1000
-RBLOTI
1000
-RBGD1
1000
-V$PV_GENSYSTEM"gef\val\di\0401\di1616_v.dxf"
1000
$VCC_TABLE=$PV_GENSYSTEM"gef\val\di\0401\di1616.val"
1000
$GEF_CDIST=3.000000000000000E+00
1000
$GEF_DRAG=1
1000
$GEF_STANG=2.100000000000000E+02
1000
$GEF_OANG=7.000000000000000E+01
1000
$GEVPROMPTX= Länge: 
1000
$GEF_SNK_ADD=0.000000000000000E+00
1000
$GEF_FLIPX=1
1000
$GEF_FLIPY=1
1000
-GRPNAME1?
1000
-BAML2
1000
$GEF_PROCALC=1
1000
$GEVBHOP=2
1002
}
1002
}
1002
{
1000
LST
1002
{
1002
{
1000
GROUP
1000
0401
1002
}
1002
{
1000
VIEW
1000
V
1002
}
1002
{
1000
SFILE
1000
$PV_GENSYSTEM"gef\val\di\0401\di1616_v.dxf"
1002
}
1002
{
1000
ST1
1000
$PV_GENSYSTEM"gef\val\di\0401\di1616.val"
1002
}
1002
{
1000
GENASSO
1000
 
1002
}
1002
}
1002
}
1002
{
1000
RET
1002
{
1002
{
1000
GD1
1000
4.134
1002
}
1002
{
1000
LOTI
1000
5.000000000000000E+00
1002
}
1002
{
1000
STDRT
1000
DIN 13 - M5
1002
}
1002
{
1000
DESCR
1000
Metrisches ISO-Gewinde
1002
}
1002
}
1002
}
1002
{
1000
SYSTEM
1040
1.0
1002
}
1002
{
1000
INFEL
1002
{
1002
}
1002
}
1001
GENIUS_GENOENT_13
1002
{
1000
MYREF
1005
4F7
1002
}
1002
{
1000
GRP
1005
0
1002
}
1001
GENIUS_GENOLIS_13
1002
{
1000
ENT
1005
1DD
1002
}
  0
POINT
  5
4F8
330
2
100
AcDbEntity
  8
0
 60
     1
100
AcDbPoint
 10
-226.059364
 20
-489.21225
 30
0.0
1001
GENIUS_GENODEF_13
1002
{
1000
HIER
1070
   200
1002
}
1002
{
1000
MANEDIT
1070
     0
1002
}
1002
{
1000
NOSEL
1070
     0
1002
}
1002
{
1000
BEHIND
1070
     0
1002
}
1002
{
1000
REACTOR
1002
}
1001
GENIUS_GENOBJ-F-PART_13
1002
{
1000
OWNER
1000
GEF
1002
}
1001
GENIUS_GEFSTDP_13
1002
{
1000
SUG
1000
M
1040
8.0
1002
}
1002
{
1000
DSC
1000
DSC
1002
{
1000
~DESCR
1000
 
1000
~STDRT
1002
}
1002
}
1002
{
1000
KEY
1000
THRT
1002
}
1002
{
1000
INS
1002
{
1040
250.038642
1040
170.528444
1040
0.0
1002
}
1002
}
1002
{
1000
ANG
1040
0.0
1002
}
1002
{
1000
VCC
1002
{
1000
$PRE=M
1000
$NND=8.000000000000000E+00
1000
-RBDESCR
1000
-RBSTDRT
1000
-RBGD1
1000
-RBLOTI
1000
-V$PV_GENSYSTEM"gef\val\di\0401\di1616_d.dxf"
1000
$VCC_TABLE=$PV_GENSYSTEM"gef\val\di\0401\di1616.val"
1000
$GEF_CDIST=3.000000000000000E+00
1000
$GEF_DRAG=1
1000
$GEF_STANG=2.100000000000000E+02
1000
$GEF_OANG=7.000000000000000E+01
1000
$GEVPROMPTX= Länge: 
1000
$GEF_SNK_ADD=0.000000000000000E+00
1000
$GEF_FLIPX=1
1000
$GEF_FLIPY=1
1000
-GRPNAME0?
1000
-GRPNAME1?
1000
-BAML2
1000
$GEF_PROCALC=1
1002
}
1002
}
1002
{
1000
LST
1002
{
1002
{
1000
GROUP
1000
0401
1002
}
1002
{
1000
VIEW
1000
D
1002
}
1002
{
1000
SFILE
1000
$PV_GENSYSTEM"gef\val\di\0401\di1616_d.dxf"
1002
}
1002
{
1000
ST1
1000
$PV_GENSYSTEM"gef\val\di\0401\di1616.val"
1002
}
1002
{
1000
GENASSO
1000
 
1002
}
1002
}
1002
}
1002
{
1000
RET
1002
{
1002
{
1000
LOTI
1002
}
1002
{
1000
GD1
1000
6.647
1002
}
1002
{
1000
STDRT
1000
DIN 13 - M8
1002
}
1002
{
1000
DESCR
1000
Metrisches ISO-Gewinde
1002
}
1002
}
1002
}
1002
{
1000
SYSTEM
1040
1.0
1002
}
1002
{
1000
INFEL
1002
{
1002
}
1002
}
1001
GENIUS_GENOENT_13
1002
{
1000
MYREF
1005
4F8
1002
}
1002
{
1000
GRP
1005
0
1002
}
1001
GENIUS_GENOLIS_13
1002
{
1000
ENT
1005
1C9
1002
}
  0
POINT
  5
4F9
330
2
100
AcDbEntity
  8
0
 60
     1
100
AcDbPoint
 10
-226.059364
 20
-489.21225
 30
0.0
1001
GENIUS_GENBH_13
1002
{
1000
BGO
1005
4FA
1002
}
1002
{
1000
FGLEVEL
1040
4.000000009999999
1002
}
1002
{
1000
FLAGS
1070
    36
1002
}
1002
{
1000
OIUMAP
1000
OIU
1002
}
1002
{
1000
MODIFY
1070
     0
1002
}
1001
GENIUS_GENODEF_13
1002
{
1000
HIER
1070
     1
1002
}
1002
{
1000
MANEDIT
1070
     0
1002
}
1002
{
1000
NOSEL
1070
     1
1002
}
1002
{
1000
BEHIND
1070
     0
1002
}
1002
{
1000
REACTOR
1002
}
1001
GENIUS_GENOBJ-NBEHI-BHF_13
1002
{
1000
OWNER
1000
GENBEHI
1002
}
1001
GENIUS_GENOENT_13
1002
{
1000
MYREF
1005
4F9
1002
}
1002
{
1000
GRP
1005
0
1002
}
1001
GENIUS_GENOLIS_13
1002
{
1000
ENT
1005
1C9
1002
}
  0
POINT
  5
4FA
330
2
100
AcDbEntity
  8
0
 60
     1
100
AcDbPoint
 10
-226.059364
 20
-489.21225
 30
0.0
1001
GENIUS_GENBH_13
1002
{
1000
FGO
1005
4F9
1002
}
1001
GENIUS_GENODEF_13
1002
{
1000
HIER
1070
     1
1002
}
1002
{
1000
MANEDIT
1070
     0
1002
}
1002
{
1000
NOSEL
1070
     1
1002
}
1002
{
1000
BEHIND
1070
     0
1002
}
1002
{
1000
REACTOR
1002
}
1001
GENIUS_GENOBJ-NBEHI-BHB_13
1002
{
1000
OWNER
1000
GENBEHI
1002
}
1001
GENIUS_GENOENT_13
1002
{
1000
MYREF
1005
4FA
1002
}
1002
{
1000
GRP
1005
0
1002
}
1001
GENIUS_GENOLIS_13
1002
{
1000
ENT
1005
1DA
1005
1C8
1002
}
  0
POINT
  5
4FB
330
2
100
AcDbEntity
  8
0
 60
     1
100
AcDbPoint
 10
-226.059364
 20
-489.21225
 30
0.0
1001
GENIUS_GENODEF_13
1002
{
1000
HIER
1070
   200
1002
}
1002
{
1000
MANEDIT
1070
     0
1002
}
1002
{
1000
NOSEL
1070
     0
1002
}
1002
{
1000
BEHIND
1070
     0
1002
}
1002
{
1000
REACTOR
1002
}
1001
GENIUS_GENOBJ-F-PART_13
1002
{
1000
OWNER
1000
GEF
1002
}
1001
GENIUS_GEFSTDP_13
1002
{
1000
SUG
1000
M
1040
8.0
1002
}
1002
{
1000
DSC
1000
DSC
1002
{
1000
~DESCR
1000
 
1000
~STDRT
1002
}
1002
}
1002
{
1000
KEY
1000
THRT
1002
}
1002
{
1000
INS
1002
{
1040
250.038642
1040
122.528444
1040
0.0
1002
}
1002
}
1002
{
1000
ANG
1040
0.0
1002
}
1002
{
1000
VCC
1002
{
1000
$PRE=M
1000
$NND=8.000000000000000E+00
1000
-RBDESCR
1000
-RBSTDRT
1000
-RBGD1
1000
-RBLOTI
1000
-V$PV_GENSYSTEM"gef\val\di\0401\di1616_d.dxf"
1000
$VCC_TABLE=$PV_GENSYSTEM"gef\val\di\0401\di1616.val"
1000
$GEF_CDIST=3.000000000000000E+00
1000
$GEF_DRAG=1
1000
$GEF_STANG=2.100000000000000E+02
1000
$GEF_OANG=7.000000000000000E+01
1000
$GEVPROMPTX= Länge: 
1000
$GEF_SNK_ADD=0.000000000000000E+00
1000
$GEF_FLIPX=1
1000
$GEF_FLIPY=1
1000
-GRPNAME0?
1000
-GRPNAME1?
1000
-BAML2
1000
$GEF_PROCALC=1
1002
}
1002
}
1002
{
1000
LST
1002
{
1002
{
1000
GROUP
1000
0401
1002
}
1002
{
1000
VIEW
1000
D
1002
}
1002
{
1000
SFILE
1000
$PV_GENSYSTEM"gef\val\di\0401\di1616_d.dxf"
1002
}
1002
{
1000
ST1
1000
$PV_GENSYSTEM"gef\val\di\0401\di1616.val"
1002
}
1002
{
1000
GENASSO
1000
 
1002
}
1002
}
1002
}
1002
{
1000
RET
1002
{
1002
{
1000
LOTI
1002
}
1002
{
1000
GD1
1000
6.647
1002
}
1002
{
1000
STDRT
1000
DIN 13 - M8
1002
}
1002
{
1000
DESCR
1000
Metrisches ISO-Gewinde
1002
}
1002
}
1002
}
1002
{
1000
SYSTEM
1040
1.0
1002
}
1002
{
1000
INFEL
1002
{
1002
}
1002
}
1001
GENIUS_GENOENT_13
1002
{
1000
MYREF
1005
4FB
1002
}
1002
{
1000
GRP
1005
0
1002
}
1001
GENIUS_GENOLIS_13
1002
{
1000
ENT
1005
1B4
1002
}
  0
POINT
  5
4FC
330
2
100
AcDbEntity
  8
0
 60
     1
100
AcDbPoint
 10
-226.059364
 20
-489.21225
 30
0.0
1001
GENIUS_GENBH_13
1002
{
1000
BGO
1005
4FD
1002
}
1002
{
1000
FGLEVEL
1040
3.000000009999999
1002
}
1002
{
1000
FLAGS
1070
    36
1002
}
1002
{
1000
OIUMAP
1000
OIU
1002
}
1002
{
1000
MODIFY
1070
     0
1002
}
1001
GENIUS_GENODEF_13
1002
{
1000
HIER
1070
     1
1002
}
1002
{
1000
MANEDIT
1070
     0
1002
}
1002
{
1000
NOSEL
1070
     1
1002
}
1002
{
1000
BEHIND
1070
     0
1002
}
1002
{
1000
REACTOR
1002
}
1001
GENIUS_GENOBJ-NBEHI-BHF_13
1002
{
1000
OWNER
1000
GENBEHI
1002
}
1001
GENIUS_GENOENT_13
1002
{
1000
MYREF
1005
4FC
1002
}
1002
{
1000
GRP
1005
0
1002
}
1001
GENIUS_GENOLIS_13
1002
{
1000
ENT
1005
1B4
1002
}
  0
POINT
  5
4FD
330
2
100
AcDbEntity
  8
0
 60
     1
100
AcDbPoint
 10
-226.059364
 20
-489.21225
 30
0.0
1001
GENIUS_GENBH_13
1002
{
1000
FGO
1005
4FC
1002
}
1001
GENIUS_GENODEF_13
1002
{
1000
HIER
1070
     1
1002
}
1002
{
1000
MANEDIT
1070
     0
1002
}
1002
{
1000
NOSEL
1070
     1
1002
}
1002
{
1000
BEHIND
1070
     0
1002
}
1002
{
1000
REACTOR
1002
}
1001
GENIUS_GENOBJ-NBEHI-BHB_13
1002
{
1000
OWNER
1000
GENBEHI
1002
}
1001
GENIUS_GENOENT_13
1002
{
1000
MYREF
1005
4FD
1002
}
1002
{
1000
GRP
1005
0
1002
}
1001
GENIUS_GENOLIS_13
1002
{
1000
ENT
1005
1B3
1005
1C5
1002
}
  0
POINT
  5
4FE
330
2
100
AcDbEntity
  8
0
 60
     1
100
AcDbPoint
 10
-226.059364
 20
-489.21225
 30
0.0
1001
GENIUS_GENODEF_13
1002
{
1000
HIER
1070
   200
1002
}
1002
{
1000
MANEDIT
1070
     0
1002
}
1002
{
1000
NOSEL
1070
     0
1002
}
1002
{
1000
BEHIND
1070
     0
1002
}
1002
{
1000
REACTOR
1002
}
1001
GENIUS_GENOBJ-F-PART_13
1002
{
1000
OWNER
1000
GEF
1002
}
1001
GENIUS_GEFSTDP_13
1002
{
1000
SUG
1000
M
1040
5.0
1002
}
1002
{
1000
DSC
1000
DSC
1002
{
1000
~DESCR
1000
 
1000
~STDRT
1000
(gefmsg "gefcall" 409)
1000
~LOTI
1002
}
1002
}
1002
{
1000
KEY
1000
THRF
1002
}
1002
{
1000
INS
1002
{
1040
242.0593639999934
1040
208.9966726724293
1040
0.0
1002
}
1002
}
1002
{
1000
ANG
1040
1.570796326794896
1002
}
1002
{
1000
VCC
1002
{
1000
-LPLOTI=5.000000000000000E+00
1000
$PRE=M
1000
$NND=5.000000000000000E+00
1000
-GRPNAME0MSR_4-2
1000
-RBDESCR
1000
-RBSTDRT
1000
-RBLOTI
1000
-RBGD1
1000
-V$PV_GENSYSTEM"gef\val\di\0401\di1616_v.dxf"
1000
$VCC_TABLE=$PV_GENSYSTEM"gef\val\di\0401\di1616.val"
1000
$GEF_CDIST=3.000000000000000E+00
1000
$GEF_DRAG=1
1000
$GEF_STANG=2.100000000000000E+02
1000
$GEF_OANG=7.000000000000000E+01
1000
$GEVPROMPTX= Länge: 
1000
$GEF_SNK_ADD=0.000000000000000E+00
1000
$GEF_FLIPX=1
1000
$GEF_FLIPY=1
1000
-GRPNAME1?
1000
-BAML2
1000
$GEF_PROCALC=1
1000
$GEVBHOP=2
1002
}
1002
}
1002
{
1000
LST
1002
{
1002
{
1000
GROUP
1000
0401
1002
}
1002
{
1000
VIEW
1000
V
1002
}
1002
{
1000
SFILE
1000
$PV_GENSYSTEM"gef\val\di\0401\di1616_v.dxf"
1002
}
1002
{
1000
ST1
1000
$PV_GENSYSTEM"gef\val\di\0401\di1616.val"
1002
}
1002
{
1000
GENASSO
1000
 
1002
}
1002
}
1002
}
1002
{
1000
RET
1002
{
1002
{
1000
GD1
1000
4.134
1002
}
1002
{
1000
LOTI
1000
5.000000000000000E+00
1002
}
1002
{
1000
STDRT
1000
DIN 13 - M5
1002
}
1002
{
1000
DESCR
1000
Metrisches ISO-Gewinde
1002
}
1002
}
1002
}
1002
{
1000
SYSTEM
1040
1.0
1002
}
1002
{
1000
INFEL
1002
{
1002
}
1002
}
1001
GENIUS_GENOENT_13
1002
{
1000
MYREF
1005
4FE
1002
}
1002
{
1000
GRP
1005
0
1002
}
1001
GENIUS_GENOLIS_13
1002
{
1000
ENT
1005
19D
1002
}
  0
POINT
  5
4FF
330
2
100
AcDbEntity
  8
0
 60
     1
100
AcDbPoint
 10
-226.059364
 20
-489.21225
 30
0.0
1001
GENIUS_GENODEF_13
1002
{
1000
HIER
1070
   200
1002
}
1002
{
1000
MANEDIT
1070
     0
1002
}
1002
{
1000
NOSEL
1070
     0
1002
}
1002
{
1000
BEHIND
1070
     0
1002
}
1002
{
1000
REACTOR
1002
}
1001
GENIUS_GENOBJ-F-PART_13
1002
{
1000
OWNER
1000
GEF
1002
}
1001
GENIUS_GEFSTDP_13
1002
{
1000
SUG
1000
M
1040
5.0
1002
}
1002
{
1000
DSC
1000
DSC
1002
{
1000
~DESCR
1000
 
1000
~STDRT
1000
(gefmsg "gefcall" 409)
1000
~LOTI
1002
}
1002
}
1002
{
1000
KEY
1000
THRF
1002
}
1002
{
1000
INS
1002
{
1040
226.038642
1040
208.9966726724293
1040
0.0
1002
}
1002
}
1002
{
1000
ANG
1040
1.570796326794896
1002
}
1002
{
1000
VCC
1002
{
1000
-LPLOTI=5.000000000000000E+00
1000
$PRE=M
1000
$NND=5.000000000000000E+00
1000
-GRPNAME0MSR_4-2
1000
-RBDESCR
1000
-RBSTDRT
1000
-RBLOTI
1000
-RBGD1
1000
-V$PV_GENSYSTEM"gef\val\di\0401\di1616_v.dxf"
1000
$VCC_TABLE=$PV_GENSYSTEM"gef\val\di\0401\di1616.val"
1000
$GEF_CDIST=3.000000000000000E+00
1000
$GEF_DRAG=1
1000
$GEF_STANG=2.100000000000000E+02
1000
$GEF_OANG=7.000000000000000E+01
1000
$GEVPROMPTX= Länge: 
1000
$GEF_SNK_ADD=0.000000000000000E+00
1000
$GEF_FLIPX=1
1000
$GEF_FLIPY=1
1000
-GRPNAME1?
1000
-BAML2
1000
$GEF_PROCALC=1
1000
$GEVBHOP=2
1002
}
1002
}
1002
{
1000
LST
1002
{
1002
{
1000
GROUP
1000
0401
1002
}
1002
{
1000
VIEW
1000
V
1002
}
1002
{
1000
SFILE
1000
$PV_GENSYSTEM"gef\val\di\0401\di1616_v.dxf"
1002
}
1002
{
1000
ST1
1000
$PV_GENSYSTEM"gef\val\di\0401\di1616.val"
1002
}
1002
{
1000
GENASSO
1000
 
1002
}
1002
}
1002
}
1002
{
1000
RET
1002
{
1002
{
1000
GD1
1000
4.134
1002
}
1002
{
1000
LOTI
1000
5.000000000000000E+00
1002
}
1002
{
1000
STDRT
1000
DIN 13 - M5
1002
}
1002
{
1000
DESCR
1000
Metrisches ISO-Gewinde
1002
}
1002
}
1002
}
1002
{
1000
SYSTEM
1040
1.0
1002
}
1002
{
1000
INFEL
1002
{
1002
}
1002
}
1001
GENIUS_GENOENT_13
1002
{
1000
MYREF
1005
4FF
1002
}
1002
{
1000
GRP
1005
0
1002
}
1001
GENIUS_GENOLIS_13
1002
{
1000
ENT
1005
188
1002
}
  0
POINT
  5
500
330
2
100
AcDbEntity
  8
0
 60
     1
100
AcDbPoint
 10
-226.059364
 20
-489.21225
 30
0.0
1001
GENIUS_GENODEF_13
1002
{
1000
HIER
1070
   200
1002
}
1002
{
1000
MANEDIT
1070
     0
1002
}
1002
{
1000
NOSEL
1070
     0
1002
}
1002
{
1000
BEHIND
1070
     0
1002
}
1002
{
1000
REACTOR
1002
}
1001
GENIUS_GENOBJ-F-PART_13
1002
{
1000
OWNER
1000
GEF
1002
}
1001
GENIUS_GEFSTDP_13
1002
{
1000
DSC
1000
DSC
1002
{
1000
~DESCR
1000
 
1000
~STDRT
1002
}
1002
}
1002
{
1000
SUG
1000
M
1040
8.0
1002
}
1002
{
1000
KEY
1000
THRT
1002
}
1002
{
1000
INS
1002
{
1040
202.038642
1040
170.528444
1040
0.0
1002
}
1002
}
1002
{
1000
ANG
1040
0.0
1002
}
1002
{
1000
VCC
1002
{
1000
$PRE=M
1000
$NND=8.000000000000000E+00
1000
-RBDESCR
1000
-RBSTDRT
1000
-RBGD1
1000
-RBLOTI
1000
-V$PV_GENSYSTEM"gef\val\di\0401\di1616_d.dxf"
1000
$VCC_TABLE=$PV_GENSYSTEM"gef\val\di\0401\di1616.val"
1000
$GEF_CDIST=3.000000000000000E+00
1000
$GEF_DRAG=1
1000
$GEF_STANG=2.100000000000000E+02
1000
$GEF_OANG=7.000000000000000E+01
1000
$GEVPROMPTX= Länge: 
1000
$GEF_SNK_ADD=0.000000000000000E+00
1000
$GEF_FLIPX=1
1000
$GEF_FLIPY=1
1000
-GRPNAME0?
1000
-GRPNAME1?
1000
-BAML2
1000
$GEF_PROCALC=1
1002
}
1002
}
1002
{
1000
LST
1002
{
1002
{
1000
GROUP
1000
0401
1002
}
1002
{
1000
VIEW
1000
D
1002
}
1002
{
1000
SFILE
1000
$PV_GENSYSTEM"gef\val\di\0401\di1616_d.dxf"
1002
}
1002
{
1000
ST1
1000
$PV_GENSYSTEM"gef\val\di\0401\di1616.val"
1002
}
1002
{
1000
GENASSO
1000
 
1002
}
1002
}
1002
}
1002
{
1000
RET
1002
{
1002
{
1000
LOTI
1002
}
1002
{
1000
GD1
1000
6.647
1002
}
1002
{
1000
STDRT
1000
DIN 13 - M8
1002
}
1002
{
1000
DESCR
1000
Metrisches ISO-Gewinde
1002
}
1002
}
1002
}
1002
{
1000
SYSTEM
1040
1.0
1002
}
1002
{
1000
INFEL
1002
{
1002
}
1002
}
1001
GENIUS_GENOENT_13
1002
{
1000
MYREF
1005
500
1002
}
1002
{
1000
GRP
1005
0
1002
}
1001
GENIUS_GENOLIS_13
1002
{
1000
ENT
1005
176
1002
}
  0
POINT
  5
501
330
2
100
AcDbEntity
  8
0
 60
     1
100
AcDbPoint
 10
-226.059364
 20
-489.21225
 30
0.0
1001
GENIUS_GENBH_13
1002
{
1000
BGO
1005
502
1002
}
1002
{
1000
FGLEVEL
1040
1.000000009999999
1002
}
1002
{
1000
FLAGS
1070
    36
1002
}
1002
{
1000
OIUMAP
1000
OIU
1002
}
1002
{
1000
MODIFY
1070
     0
1002
}
1001
GENIUS_GENODEF_13
1002
{
1000
HIER
1070
     1
1002
}
1002
{
1000
MANEDIT
1070
     0
1002
}
1002
{
1000
NOSEL
1070
     1
1002
}
1002
{
1000
BEHIND
1070
     0
1002
}
1002
{
1000
REACTOR
1002
}
1001
GENIUS_GENOBJ-NBEHI-BHF_13
1002
{
1000
OWNER
1000
GENBEHI
1002
}
1001
GENIUS_GENOENT_13
1002
{
1000
MYREF
1005
501
1002
}
1002
{
1000
GRP
1005
0
1002
}
1001
GENIUS_GENOLIS_13
1002
{
1000
ENT
1005
176
1002
}
  0
POINT
  5
502
330
2
100
AcDbEntity
  8
0
 60
     1
100
AcDbPoint
 10
-226.059364
 20
-489.21225
 30
0.0
1001
GENIUS_GENBH_13
1002
{
1000
FGO
1005
501
1002
}
1001
GENIUS_GENODEF_13
1002
{
1000
HIER
1070
     1
1002
}
1002
{
1000
MANEDIT
1070
     0
1002
}
1002
{
1000
NOSEL
1070
     1
1002
}
1002
{
1000
BEHIND
1070
     0
1002
}
1002
{
1000
REACTOR
1002
}
1001
GENIUS_GENOBJ-NBEHI-BHB_13
1002
{
1000
OWNER
1000
GENBEHI
1002
}
1001
GENIUS_GENOENT_13
1002
{
1000
MYREF
1005
502
1002
}
1002
{
1000
GRP
1005
0
1002
}
1001
GENIUS_GENOLIS_13
1002
{
1000
ENT
1005
187
1005
174
1002
}
  0
POINT
  5
503
330
2
100
AcDbEntity
  8
0
 60
     1
100
AcDbPoint
 10
-226.059364
 20
-489.21225
 30
0.0
1001
GENIUS_GENODEF_13
1002
{
1000
HIER
1070
   200
1002
}
1002
{
1000
MANEDIT
1070
     0
1002
}
1002
{
1000
NOSEL
1070
     0
1002
}
1002
{
1000
BEHIND
1070
     0
1002
}
1002
{
1000
REACTOR
1002
}
1001
GENIUS_GENOBJ-F-PART_13
1002
{
1000
OWNER
1000
GEF
1002
}
1001
GENIUS_GEFSTDP_13
1002
{
1000
SUG
1000
M
1040
5.0
1002
}
1002
{
1000
DSC
1000
DSC
1002
{
1000
~DESCR
1000
 
1000
~STDRT
1000
(gefmsg "gefcall" 409)
1000
~LOTI
1002
}
1002
}
1002
{
1000
KEY
1000
THRF
1002
}
1002
{
1000
INS
1002
{
1040
188.538642
1040
259.9966726724292
1040
0.0
1002
}
1002
}
1002
{
1000
ANG
1040
0.0
1002
}
1002
{
1000
VCC
1002
{
1000
-LPLOTI=5.000000000000000E+00
1000
$PRE=M
1000
$NND=5.000000000000000E+00
1000
-GRPNAME0MSR_4-2
1000
-RBDESCR
1000
-RBSTDRT
1000
-RBLOTI
1000
-RBGD1
1000
-V$PV_GENSYSTEM"gef\val\di\0401\di1616_v.dxf"
1000
$VCC_TABLE=$PV_GENSYSTEM"gef\val\di\0401\di1616.val"
1000
$GEF_CDIST=3.000000000000000E+00
1000
$GEF_DRAG=1
1000
$GEF_STANG=2.100000000000000E+02
1000
$GEF_OANG=7.000000000000000E+01
1000
$GEVPROMPTX= Länge: 
1000
$GEF_SNK_ADD=0.000000000000000E+00
1000
$GEF_FLIPX=1
1000
$GEF_FLIPY=1
1000
-GRPNAME1?
1000
-BAML2
1000
$GEF_PROCALC=1
1000
$GEVBHOP=2
1002
}
1002
}
1002
{
1000
LST
1002
{
1002
{
1000
GROUP
1000
0401
1002
}
1002
{
1000
VIEW
1000
V
1002
}
1002
{
1000
SFILE
1000
$PV_GENSYSTEM"gef\val\di\0401\di1616_v.dxf"
1002
}
1002
{
1000
ST1
1000
$PV_GENSYSTEM"gef\val\di\0401\di1616.val"
1002
}
1002
{
1000
GENASSO
1000
 
1002
}
1002
}
1002
}
1002
{
1000
RET
1002
{
1002
{
1000
GD1
1000
4.134
1002
}
1002
{
1000
LOTI
1000
5.000000000000000E+00
1002
}
1002
{
1000
STDRT
1000
DIN 13 - M5
1002
}
1002
{
1000
DESCR
1000
Metrisches ISO-Gewinde
1002
}
1002
}
1002
}
1002
{
1000
SYSTEM
1040
1.0
1002
}
1002
{
1000
INFEL
1002
{
1002
}
1002
}
1001
GENIUS_GENOENT_13
1002
{
1000
MYREF
1005
503
1002
}
1002
{
1000
GRP
1005
0
1002
}
1001
GENIUS_GENOLIS_13
1002
{
1000
ENT
1005
15E
1002
}
  0
POINT
  5
504
330
2
100
AcDbEntity
  8
0
 60
     1
100
AcDbPoint
 10
-226.059364
 20
-489.21225
 30
0.0
1001
GENIUS_GENODEF_13
1002
{
1000
HIER
1070
   200
1002
}
1002
{
1000
MANEDIT
1070
     0
1002
}
1002
{
1000
NOSEL
1070
     0
1002
}
1002
{
1000
BEHIND
1070
     0
1002
}
1002
{
1000
REACTOR
1002
}
1001
GENIUS_GENOBJ-F-PART_13
1002
{
1000
OWNER
1000
GEF
1002
}
1001
GENIUS_GEFSTDP_13
1002
{
1000
SUG
1000
M
1040
5.0
1002
}
1002
{
1000
DSC
1000
DSC
1002
{
1000
~DESCR
1000
 
1000
~STDRT
1000
(gefmsg "gefcall" 409)
1000
~LOTI
1002
}
1002
}
1002
{
1000
KEY
1000
THRF
1002
}
1002
{
1000
INS
1002
{
1040
188.538642
1040
246.4966726724292
1040
0.0
1002
}
1002
}
1002
{
1000
ANG
1040
0.0
1002
}
1002
{
1000
VCC
1002
{
1000
-LPLOTI=5.000000000000000E+00
1000
$PRE=M
1000
$NND=5.000000000000000E+00
1000
-GRPNAME0MSR_4-2
1000
-RBDESCR
1000
-RBSTDRT
1000
-RBLOTI
1000
-RBGD1
1000
-V$PV_GENSYSTEM"gef\val\di\0401\di1616_v.dxf"
1000
$VCC_TABLE=$PV_GENSYSTEM"gef\val\di\0401\di1616.val"
1000
$GEF_CDIST=3.000000000000000E+00
1000
$GEF_DRAG=1
1000
$GEF_STANG=2.100000000000000E+02
1000
$GEF_OANG=7.000000000000000E+01
1000
$GEVPROMPTX= Länge: 
1000
$GEF_SNK_ADD=0.000000000000000E+00
1000
$GEF_FLIPX=1
1000
$GEF_FLIPY=1
1000
-GRPNAME1?
1000
-BAML2
1000
$GEF_PROCALC=1
1000
$GEVBHOP=2
1002
}
1002
}
1002
{
1000
LST
1002
{
1002
{
1000
GROUP
1000
0401
1002
}
1002
{
1000
VIEW
1000
V
1002
}
1002
{
1000
SFILE
1000
$PV_GENSYSTEM"gef\val\di\0401\di1616_v.dxf"
1002
}
1002
{
1000
ST1
1000
$PV_GENSYSTEM"gef\val\di\0401\di1616.val"
1002
}
1002
{
1000
GENASSO
1000
 
1002
}
1002
}
1002
}
1002
{
1000
RET
1002
{
1002
{
1000
GD1
1000
4.134
1002
}
1002
{
1000
LOTI
1000
5.000000000000000E+00
1002
}
1002
{
1000
STDRT
1000
DIN 13 - M5
1002
}
1002
{
1000
DESCR
1000
Metrisches ISO-Gewinde
1002
}
1002
}
1002
}
1002
{
1000
SYSTEM
1040
1.0
1002
}
1002
{
1000
INFEL
1002
{
1002
}
1002
}
1001
GENIUS_GENOENT_13
1002
{
1000
MYREF
1005
504
1002
}
1002
{
1000
GRP
1005
0
1002
}
1001
GENIUS_GENOLIS_13
1002
{
1000
ENT
1005
149
1002
}
  0
POINT
  5
505
330
2
100
AcDbEntity
  8
0
 60
     1
100
AcDbPoint
 10
-226.059364
 20
-489.21225
 30
0.0
1001
GENIUS_GENODEF_13
1002
{
1000
HIER
1070
   200
1002
}
1002
{
1000
MANEDIT
1070
     0
1002
}
1002
{
1000
NOSEL
1070
     0
1002
}
1002
{
1000
BEHIND
1070
     0
1002
}
1002
{
1000
REACTOR
1002
}
1001
GENIUS_GENOBJ-F-PART_13
1002
{
1000
OWNER
1000
GEF
1002
}
1001
GENIUS_GEFSTDP_13
1002
{
1000
SUG
1000
M
1040
8.0
1002
}
1002
{
1000
DSC
1000
DSC
1002
{
1000
~DESCR
1000
 
1000
~STDRT
1002
}
1002
}
1002
{
1000
KEY
1000
THRT
1002
}
1002
{
1000
INS
1002
{
1040
202.038642
1040
122.528444
1040
0.0
1002
}
1002
}
1002
{
1000
ANG
1040
0.0
1002
}
1002
{
1000
VCC
1002
{
1000
$PRE=M
1000
$NND=8.000000000000000E+00
1000
-RBDESCR
1000
-RBSTDRT
1000
-RBGD1
1000
-RBLOTI
1000
-V$PV_GENSYSTEM"gef\val\di\0401\di1616_d.dxf"
1000
$VCC_TABLE=$PV_GENSYSTEM"gef\val\di\0401\di1616.val"
1000
$GEF_CDIST=3.000000000000000E+00
1000
$GEF_DRAG=1
1000
$GEF_STANG=2.100000000000000E+02
1000
$GEF_OANG=7.000000000000000E+01
1000
$GEVPROMPTX= Länge: 
1000
$GEF_SNK_ADD=0.000000000000000E+00
1000
$GEF_FLIPX=1
1000
$GEF_FLIPY=1
1000
-GRPNAME0?
1000
-GRPNAME1?
1000
-BAML2
1000
$GEF_PROCALC=1
1002
}
1002
}
1002
{
1000
LST
1002
{
1002
{
1000
GROUP
1000
0401
1002
}
1002
{
1000
VIEW
1000
D
1002
}
1002
{
1000
SFILE
1000
$PV_GENSYSTEM"gef\val\di\0401\di1616_d.dxf"
1002
}
1002
{
1000
ST1
1000
$PV_GENSYSTEM"gef\val\di\0401\di1616.val"
1002
}
1002
{
1000
GENASSO
1000
 
1002
}
1002
}
1002
}
1002
{
1000
RET
1002
{
1002
{
1000
LOTI
1002
}
1002
{
1000
GD1
1000
6.647
1002
}
1002
{
1000
STDRT
1000
DIN 13 - M8
1002
}
1002
{
1000
DESCR
1000
Metrisches ISO-Gewinde
1002
}
1002
}
1002
}
1002
{
1000
SYSTEM
1040
1.0
1002
}
1002
{
1000
INFEL
1002
{
1002
}
1002
}
1001
GENIUS_GENOENT_13
1002
{
1000
MYREF
1005
505
1002
}
1002
{
1000
GRP
1005
0
1002
}
1001
GENIUS_GENOLIS_13
1002
{
1000
ENT
1005
137
1002
}
  0
POINT
  5
506
330
2
100
AcDbEntity
  8
0
 60
     1
100
AcDbPoint
 10
-226.059364
 20
-489.21225
 30
0.0
1001
GENIUS_GENBH_13
1002
{
1000
BGO
1005
507
1002
}
1002
{
1000
FGLEVEL
1040
2.000000009999999
1002
}
1002
{
1000
FLAGS
1070
    36
1002
}
1002
{
1000
OIUMAP
1000
OIU
1002
}
1002
{
1000
MODIFY
1070
     0
1002
}
1001
GENIUS_GENODEF_13
1002
{
1000
HIER
1070
     1
1002
}
1002
{
1000
MANEDIT
1070
     0
1002
}
1002
{
1000
NOSEL
1070
     1
1002
}
1002
{
1000
BEHIND
1070
     0
1002
}
1002
{
1000
REACTOR
1002
}
1001
GENIUS_GENOBJ-NBEHI-BHF_13
1002
{
1000
OWNER
1000
GENBEHI
1002
}
1001
GENIUS_GENOENT_13
1002
{
1000
MYREF
1005
506
1002
}
1002
{
1000
GRP
1005
0
1002
}
1001
GENIUS_GENOLIS_13
1002
{
1000
ENT
1005
137
1002
}
  0
POINT
  5
507
330
2
100
AcDbEntity
  8
0
 60
     1
100
AcDbPoint
 10
-226.059364
 20
-489.21225
 30
0.0
1001
GENIUS_GENBH_13
1002
{
1000
FGO
1005
506
1002
}
1001
GENIUS_GENODEF_13
1002
{
1000
HIER
1070
     1
1002
}
1002
{
1000
MANEDIT
1070
     0
1002
}
1002
{
1000
NOSEL
1070
     1
1002
}
1002
{
1000
BEHIND
1070
     0
1002
}
1002
{
1000
REACTOR
1002
}
1001
GENIUS_GENOBJ-NBEHI-BHB_13
1002
{
1000
OWNER
1000
GENBEHI
1002
}
1001
GENIUS_GENOENT_13
1002
{
1000
MYREF
1005
507
1002
}
1002
{
1000
GRP
1005
0
1002
}
1001
GENIUS_GENOLIS_13
1002
{
1000
ENT
1005
136
1005
148
1002
}
  0
POINT
  5
508
330
2
100
AcDbEntity
  8
0
 60
     1
100
AcDbPoint
 10
-226.059364
 20
-489.21225
 30
0.0
1001
GENIUS_GENODEF_13
1002
{
1000
HIER
1070
   200
1002
}
1002
{
1000
MANEDIT
1070
     0
1002
}
1002
{
1000
NOSEL
1070
     0
1002
}
1002
{
1000
BEHIND
1070
     0
1002
}
1002
{
1000
REACTOR
1002
}
1001
GENIUS_GENOBJ-F-PART_13
1002
{
1000
OWNER
1000
GEF
1002
}
1001
GENIUS_GEFSTDP_13
1002
{
1000
SUG
1000
M
1040
5.0
1002
}
1002
{
1000
DSC
1000
DSC
1002
{
1000
~DESCR
1000
 
1000
~STDRT
1000
(gefmsg "gefcall" 409)
1000
~LOTI
1002
}
1002
}
1002
{
1000
KEY
1000
THRF
1002
}
1002
{
1000
INS
1002
{
1040
210.0593639999934
1040
208.9966726724293
1040
0.0
1002
}
1002
}
1002
{
1000
ANG
1040
1.570796326794896
1002
}
1002
{
1000
VCC
1002
{
1000
-LPLOTI=5.000000000000000E+00
1000
$PRE=M
1000
$NND=5.000000000000000E+00
1000
-GRPNAME0MSR_4-2
1000
-RBDESCR
1000
-RBSTDRT
1000
-RBLOTI
1000
-RBGD1
1000
-V$PV_GENSYSTEM"gef\val\di\0401\di1616_v.dxf"
1000
$VCC_TABLE=$PV_GENSYSTEM"gef\val\di\0401\di1616.val"
1000
$GEF_CDIST=3.000000000000000E+00
1000
$GEF_DRAG=1
1000
$GEF_STANG=2.100000000000000E+02
1000
$GEF_OANG=7.000000000000000E+01
1000
$GEVPROMPTX= Länge: 
1000
$GEF_SNK_ADD=0.000000000000000E+00
1000
$GEF_FLIPX=1
1000
$GEF_FLIPY=1
1000
-GRPNAME1?
1000
-BAML2
1000
$GEF_PROCALC=1
1000
$GEVBHOP=2
1002
}
1002
}
1002
{
1000
LST
1002
{
1002
{
1000
GROUP
1000
0401
1002
}
1002
{
1000
VIEW
1000
V
1002
}
1002
{
1000
SFILE
1000
$PV_GENSYSTEM"gef\val\di\0401\di1616_v.dxf"
1002
}
1002
{
1000
ST1
1000
$PV_GENSYSTEM"gef\val\di\0401\di1616.val"
1002
}
1002
{
1000
GENASSO
1000
 
1002
}
1002
}
1002
}
1002
{
1000
RET
1002
{
1002
{
1000
GD1
1000
4.134
1002
}
1002
{
1000
LOTI
1000
5.000000000000000E+00
1002
}
1002
{
1000
STDRT
1000
DIN 13 - M5
1002
}
1002
{
1000
DESCR
1000
Metrisches ISO-Gewinde
1002
}
1002
}
1002
}
1002
{
1000
SYSTEM
1040
1.0
1002
}
1002
{
1000
INFEL
1002
{
1002
}
1002
}
1001
GENIUS_GENOENT_13
1002
{
1000
MYREF
1005
508
1002
}
1002
{
1000
GRP
1005
0
1002
}
1001
GENIUS_GENOLIS_13
1002
{
1000
ENT
1005
11E
1002
}
  0
POINT
  5
509
330
2
100
AcDbEntity
  8
0
 60
     1
100
AcDbPoint
 10
-226.059364
 20
-489.21225
 30
0.0
1001
GENIUS_GENODEF_13
1002
{
1000
HIER
1070
   200
1002
}
1002
{
1000
MANEDIT
1070
     0
1002
}
1002
{
1000
NOSEL
1070
     0
1002
}
1002
{
1000
BEHIND
1070
     0
1002
}
1002
{
1000
REACTOR
1002
}
1001
GENIUS_GENOBJ-F-PART_13
1002
{
1000
OWNER
1000
GEF
1002
}
1001
GENIUS_GEFSTDP_13
1002
{
1000
SUG
1000
M
1040
5.0
1002
}
1002
{
1000
DSC
1000
DSC
1002
{
1000
~DESCR
1000
 
1000
~STDRT
1000
(gefmsg "gefcall" 409)
1000
~LOTI
1002
}
1002
}
1002
{
1000
KEY
1000
THRF
1002
}
1002
{
1000
INS
1002
{
1040
263.5386419999995
1040
229.4966726724292
1040
0.0
1002
}
1002
}
1002
{
1000
ANG
1040
3.141592653589793
1002
}
1002
{
1000
VCC
1002
{
1000
-LPLOTI=5.000000000000000E+00
1000
$PRE=M
1000
$NND=5.000000000000000E+00
1000
-GRPNAME0MSR_4-2
1000
-RBDESCR
1000
-RBSTDRT
1000
-RBLOTI
1000
-RBGD1
1000
-V$PV_GENSYSTEM"gef\val\di\0401\di1616_v.dxf"
1000
$VCC_TABLE=$PV_GENSYSTEM"gef\val\di\0401\di1616.val"
1000
$GEF_CDIST=3.000000000000000E+00
1000
$GEF_DRAG=1
1000
$GEF_STANG=2.100000000000000E+02
1000
$GEF_OANG=7.000000000000000E+01
1000
$GEVPROMPTX= Länge: 
1000
$GEF_SNK_ADD=0.000000000000000E+00
1000
$GEF_FLIPX=1
1000
$GEF_FLIPY=1
1000
-GRPNAME1?
1000
-BAML2
1000
$GEF_PROCALC=1
1000
$GEVBHOP=2
1002
}
1002
}
1002
{
1000
LST
1002
{
1002
{
1000
GROUP
1000
0401
1002
}
1002
{
1000
VIEW
1000
V
1002
}
1002
{
1000
SFILE
1000
$PV_GENSYSTEM"gef\val\di\0401\di1616_v.dxf"
1002
}
1002
{
1000
ST1
1000
$PV_GENSYSTEM"gef\val\di\0401\di1616.val"
1002
}
1002
{
1000
GENASSO
1000
 
1002
}
1002
}
1002
}
1002
{
1000
RET
1002
{
1002
{
1000
GD1
1000
4.134
1002
}
1002
{
1000
LOTI
1000
5.000000000000000E+00
1002
}
1002
{
1000
STDRT
1000
DIN 13 - M5
1002
}
1002
{
1000
DESCR
1000
Metrisches ISO-Gewinde
1002
}
1002
}
1002
}
1002
{
1000
SYSTEM
1040
1.0
1002
}
1002
{
1000
INFEL
1002
{
1002
}
1002
}
1001
GENIUS_GENOENT_13
1002
{
1000
MYREF
1005
509
1002
}
1002
{
1000
GRP
1005
0
1002
}
1001
GENIUS_GENOLIS_13
1002
{
1000
ENT
1005
F4
1002
}
  0
POINT
  5
50A
330
2
100
AcDbEntity
  8
0
 60
     1
100
AcDbPoint
 10
-226.059364
 20
-489.21225
 30
0.0
1001
GENIUS_GENODEF_13
1002
{
1000
HIER
1070
   200
1002
}
1002
{
1000
MANEDIT
1070
     0
1002
}
1002
{
1000
NOSEL
1070
     0
1002
}
1002
{
1000
BEHIND
1070
     0
1002
}
1002
{
1000
REACTOR
1002
}
1001
GENIUS_GENOBJ-F-PART_13
1002
{
1000
OWNER
1000
GEF
1002
}
1001
GENIUS_GEFSTDP_13
1002
{
1000
DSC
1000
DSC
1002
{
1000
~DESCR
1000
 
1000
~STDRT
1000
(gefmsg "gefcall" 409)
1000
~LOTI
1002
}
1002
}
1002
{
1000
SUG
1000
M
1040
5.0
1002
}
1002
{
1000
KEY
1000
THRF
1002
}
1002
{
1000
INS
1002
{
1040
263.5386419999995
1040
263.4966726724292
1040
0.0
1002
}
1002
}
1002
{
1000
ANG
1040
3.141592653589793
1002
}
1002
{
1000
VCC
1002
{
1000
-LPLOTI=5.000000000000000E+00
1000
$PRE=M
1000
$NND=5.000000000000000E+00
1000
-GRPNAME0MSR_4-2
1000
-RBDESCR
1000
-RBSTDRT
1000
-RBLOTI
1000
-RBGD1
1000
-V$PV_GENSYSTEM"gef\val\di\0401\di1616_v.dxf"
1000
$VCC_TABLE=$PV_GENSYSTEM"gef\val\di\0401\di1616.val"
1000
$GEF_CDIST=3.000000000000000E+00
1000
$GEF_DRAG=1
1000
$GEF_STANG=2.100000000000000E+02
1000
$GEF_OANG=7.000000000000000E+01
1000
$GEVPROMPTX= Länge: 
1000
$GEF_SNK_ADD=0.000000000000000E+00
1000
$GEF_FLIPX=1
1000
$GEF_FLIPY=1
1000
-GRPNAME1?
1000
-BAML2
1000
$GEF_PROCALC=1
1000
$GEVBHOP=2
1002
}
1002
}
1002
{
1000
LST
1002
{
1002
{
1000
GROUP
1000
0401
1002
}
1002
{
1000
VIEW
1000
V
1002
}
1002
{
1000
SFILE
1000
$PV_GENSYSTEM"gef\val\di\0401\di1616_v.dxf"
1002
}
1002
{
1000
ST1
1000
$PV_GENSYSTEM"gef\val\di\0401\di1616.val"
1002
}
1002
{
1000
GENASSO
1000
 
1002
}
1002
}
1002
}
1002
{
1000
RET
1002
{
1002
{
1000
GD1
1000
4.134
1002
}
1002
{
1000
LOTI
1000
5.000000000000000E+00
1002
}
1002
{
1000
STDRT
1000
DIN 13 - M5
1002
}
1002
{
1000
DESCR
1000
Metrisches ISO-Gewinde
1002
}
1002
}
1002
}
1002
{
1000
SYSTEM
1040
1.0
1002
}
1002
{
1000
INFEL
1002
{
1002
}
1002
}
1001
GENIUS_GENOENT_13
1002
{
1000
MYREF
1005
50A
1002
}
1002
{
1000
GRP
1005
0
1002
}
1001
GENIUS_GENOLIS_13
1002
{
1000
ENT
1005
D0
1002
}
  0
ENDSEC
  0
SECTION
  2
OBJECTS
  0
DICTIONARY
  5
1A
330
0
100
AcDbDictionary
281
     1
  3
ACAD_COLOR
350
538
  3
ACAD_GROUP
350
18
  3
ACAD_LAYOUT
350
560
  3
ACAD_MATERIAL
350
50E
  3
ACAD_MLEADERSTYLE
350
55D
  3
ACAD_MLINESTYLE
350
19
  3
ACAD_PLOTSETTINGS
350
561
  3
ACAD_PLOTSTYLENAME
350
50C
  3
ACAD_SCALELIST
350
53B
  3
ACAD_TABLESTYLE
350
539
  3
ACAD_VISUALSTYLE
350
527
  3
ACDB_RECOMPOSE_DATA
350
612
  3
AcDbVariableDictionary
350
609
  3
AcmDictionary
350
5C2
  3
AcmSystemVariableManager
350
620
  3
AMG
350
567
  3
AMGSNAPSETTINGS
350
602
  3
DWGPROPS
350
613
  0
DICTIONARY
  5
538
102
{ACAD_REACTORS
330
1A
102
}
330
1A
100
AcDbDictionary
281
     1
  0
DICTIONARY
  5
18
102
{ACAD_REACTORS
330
1A
102
}
330
1A
100
AcDbDictionary
281
     1
  0
DICTIONARY
  5
560
102
{ACAD_REACTORS
330
1A
102
}
330
1A
100
AcDbDictionary
281
     1
  3
Layout1
350
563
  3
Model
350
562
  0
DICTIONARY
  5
50E
102
{ACAD_REACTORS
330
1A
102
}
330
1A
100
AcDbDictionary
281
     1
  3
ByBlock
350
517
  3
ByLayer
350
50F
  3
Global
350
51F
  0
DICTIONARY
  5
55D
102
{ACAD_REACTORS
330
1A
102
}
330
1A
100
AcDbDictionary
281
     1
  3
Standard
350
55E
  0
DICTIONARY
  5
19
102
{ACAD_REACTORS
330
1A
102
}
330
1A
100
AcDbDictionary
281
     1
  3
STANDARD
350
1B
  0
DICTIONARY
  5
561
102
{ACAD_REACTORS
330
1A
102
}
330
1A
100
AcDbDictionary
281
     1
  0
ACDBDICTIONARYWDFLT
  5
50C
102
{ACAD_REACTORS
330
1A
102
}
330
1A
100
AcDbDictionary
281
     1
  3
Normal
350
50D
100
AcDbDictionaryWithDefault
340
50D
  0
DICTIONARY
  5
53B
102
{ACAD_REACTORS
330
1A
102
}
330
1A
100
AcDbDictionary
281
     1
  3
A0
350
53C
  3
A1
350
53D
  3
A2
350
53E
  3
A3
350
53F
  3
A4
350
540
  3
A5
350
541
  3
A6
350
542
  3
A7
350
543
  3
A8
350
544
  3
A9
350
545
  3
B0
350
546
  3
B1
350
547
  3
B2
350
548
  3
B3
350
549
  3
B4
350
54A
  3
B5
350
54B
  3
B6
350
54C
  3
B7
350
54D
  3
B8
350
54E
  3
B9
350
54F
  3
C0
350
550
  3
C1
350
551
  3
C2
350
552
  3
C3
350
553
  3
C4
350
554
  3
C5
350
555
  3
C6
350
556
  3
C7
350
557
  3
C8
350
558
  3
C9
350
559
  3
D0
350
55A
  3
D1
350
55B
  3
D2
350
55C
  0
DICTIONARY
  5
539
102
{ACAD_REACTORS
330
1A
102
}
330
1A
100
AcDbDictionary
281
     1
  3
Standard
350
53A
  0
DICTIONARY
  5
527
102
{ACAD_REACTORS
330
1A
102
}
330
1A
100
AcDbDictionary
281
     1
  3
2dWireframe
350
52D
  3
3D Hidden
350
52F
  3
3dWireframe
350
52E
  3
Basic
350
52C
  3
Brighten
350
533
  3
ColorChange
350
537
  3
Conceptual
350
530
  3
Dim
350
532
  3
Facepattern
350
536
  3
Flat
350
528
  3
FlatWithEdges
350
529
  3
Gouraud
350
52A
  3
GouraudWithEdges
350
52B
  3
Linepattern
350
535
  3
Realistic
350
531
  3
Thicken
350
534
  0
XRECORD
  5
612
102
{ACAD_REACTORS
330
1A
102
}
330
1A
100
AcDbXrecord
280
     1
 90
        1
330
53A
  0
DICTIONARY
  5
609
102
{ACAD_REACTORS
330
1A
102
}
330
1A
100
AcDbDictionary
281
     1
  3
CANNOSCALE
350
60C
  3
CMLEADERSTYLE
350
60B
  3
CTABLESTYLE
350
60A
  3
DIMASSOC
350
60F
  3
INDEXCTL
350
60E
  3
SORTENTS
350
60D
  0
DICTIONARY
  5
5C2
102
{ACAD_REACTORS
330
1A
102
}
330
1A
100
AcDbDictionary
281
     1
  3
AcmStdDictionary
350
5CD
  0
DICTIONARY
  5
567
102
{ACAD_REACTORS
330
1A
102
}
330
1A
100
AcDbDictionary
281
     1
  0
DICTIONARY
  5
602
102
{ACAD_REACTORS
330
1A
102
}
330
1A
100
AcDbDictionary
281
     1
  0
XRECORD
  5
613
102
{ACAD_REACTORS
330
1A
102
}
330
1A
100
AcDbXrecord
280
     1
  1
DWGPROPS COOKIE
  2

  3

  4

  6

  7

  8
bauer_sven
  9

300
=
301
=
302
=
303
=
304
=
305
=
306
=
307
=
308
=
309
=
 40
0.0084157986111111
 41
2450904.4753614
 42
2456226.383644375
  1

 90
        0
  0
LAYOUT
  5
563
102
{ACAD_XDICTIONARY
360
61A
102
}
102
{ACAD_REACTORS
330
560
102
}
330
560
100
AcDbPlotSettings
  1

  2
iR 2570CN-010
  4

  6

 40
0.0
 41
0.0
 42
0.0
 43
0.0
 44
0.0
 45
0.0
 46
0.0
 47
0.0
 48
0.0
 49
0.0
140
0.0
141
0.0
142
1.0
143
1.0
 70
   688
 72
     0
 73
     0
 74
     5
  7

 75
    16
147
1.0
148
0.0
149
0.0
100
AcDbLayout
  1
Layout1
 70
     1
 71
     1
 10
0.0
 20
0.0
 11
12.0
 21
9.0
 12
0.0
 22
0.0
 32
0.0
 14
1.000000000000000E+20
 24
1.000000000000000E+20
 34
1.000000000000000E+20
 15
-1.000000000000000E+20
 25
-1.000000000000000E+20
 35
-1.000000000000000E+20
146
0.0
 13
0.0
 23
0.0
 33
0.0
 16
1.0
 26
0.0
 36
0.0
 17
0.0
 27
1.0
 37
0.0
 76
     0
330
8
  0
LAYOUT
  5
562
102
{ACAD_XDICTIONARY
360
618
102
}
102
{ACAD_REACTORS
330
560
102
}
330
560
100
AcDbPlotSettings
  1

  2
iR 2570CN-010
  4

  6

 40
0.0
 41
0.0
 42
0.0
 43
0.0
 44
0.0
 45
0.0
 46
0.0
 47
0.0
 48
0.0
 49
0.0
140
0.0
141
0.0
142
1.0
143
1.0
 70
  1712
 72
     0
 73
     0
 74
     0
  7

 75
     0
147
1.0
148
0.0
149
0.0
100
AcDbLayout
  1
Model
 70
     1
 71
     0
 10
0.0
 20
0.0
 11
12.0
 21
9.0
 12
0.0
 22
0.0
 32
0.0
 14
0.0
 24
0.0
 34
0.0
 15
0.0
 25
0.0
 35
0.0
146
0.0
 13
0.0
 23
0.0
 33
0.0
 16
1.0
 26
0.0
 36
0.0
 17
0.0
 27
1.0
 37
0.0
 76
     0
330
2
331
13
  0
MATERIAL
  5
517
102
{ACAD_XDICTIONARY
360
518
102
}
102
{ACAD_REACTORS
330
50E
102
}
330
50E
100
AcDbMaterial
  1
ByBlock
 72
     0
 43
0.0208333333333333
 43
0.0
 43
0.0
 43
0.0
 43
0.0
 43
0.0208333333333333
 43
0.0
 43
0.0
 43
0.0
 43
0.0
 43
1.0
 43
0.0
 43
0.0
 43
0.0
 43
0.0
 43
1.0
 77
     0
 47
0.0208333333333333
 47
0.0
 47
0.0
 47
0.0
 47
0.0
 47
0.0208333333333333
 47
0.0
 47
0.0
 47
0.0
 47
0.0
 47
1.0
 47
0.0
 47
0.0
 47
0.0
 47
0.0
 47
1.0
171
     0
 49
0.0208333333333333
 49
0.0
 49
0.0
 49
0.0
 49
0.0
 49
0.0208333333333333
 49
0.0
 49
0.0
 49
0.0
 49
0.0
 49
1.0
 49
0.0
 49
0.0
 49
0.0
 49
0.0
 49
1.0
175
     0
142
0.0208333333333333
142
0.0
142
0.0
142
0.0
142
0.0
142
0.0208333333333333
142
0.0
142
0.0
142
0.0
142
0.0
142
1.0
142
0.0
142
0.0
142
0.0
142
0.0
142
1.0
179
     0
144
0.0208333333333333
144
0.0
144
0.0
144
0.0
144
0.0
144
0.0208333333333333
144
0.0
144
0.0
144
0.0
144
0.0
144
1.0
144
0.0
144
0.0
144
0.0
144
0.0
144
1.0
147
0.0208333333333333
147
0.0
147
0.0
147
0.0
147
0.0
147
0.0208333333333333
147
0.0
147
0.0
147
0.0
147
0.0
147
1.0
147
0.0
147
0.0
147
0.0
147
0.0
147
1.0
  0
MATERIAL
  5
50F
102
{ACAD_XDICTIONARY
360
510
102
}
102
{ACAD_REACTORS
330
50E
102
}
330
50E
100
AcDbMaterial
  1
ByLayer
 72
     0
 43
0.0208333333333333
 43
0.0
 43
0.0
 43
0.0
 43
0.0
 43
0.0208333333333333
 43
0.0
 43
0.0
 43
0.0
 43
0.0
 43
1.0
 43
0.0
 43
0.0
 43
0.0
 43
0.0
 43
1.0
 77
     0
 47
0.0208333333333333
 47
0.0
 47
0.0
 47
0.0
 47
0.0
 47
0.0208333333333333
 47
0.0
 47
0.0
 47
0.0
 47
0.0
 47
1.0
 47
0.0
 47
0.0
 47
0.0
 47
0.0
 47
1.0
171
     0
 49
0.0208333333333333
 49
0.0
 49
0.0
 49
0.0
 49
0.0
 49
0.0208333333333333
 49
0.0
 49
0.0
 49
0.0
 49
0.0
 49
1.0
 49
0.0
 49
0.0
 49
0.0
 49
0.0
 49
1.0
175
     0
142
0.0208333333333333
142
0.0
142
0.0
142
0.0
142
0.0
142
0.0208333333333333
142
0.0
142
0.0
142
0.0
142
0.0
142
1.0
142
0.0
142
0.0
142
0.0
142
0.0
142
1.0
179
     0
144
0.0208333333333333
144
0.0
144
0.0
144
0.0
144
0.0
144
0.0208333333333333
144
0.0
144
0.0
144
0.0
144
0.0
144
1.0
144
0.0
144
0.0
144
0.0
144
0.0
144
1.0
147
0.0208333333333333
147
0.0
147
0.0
147
0.0
147
0.0
147
0.0208333333333333
147
0.0
147
0.0
147
0.0
147
0.0
147
1.0
147
0.0
147
0.0
147
0.0
147
0.0
147
1.0
  0
MATERIAL
  5
51F
102
{ACAD_XDICTIONARY
360
520
102
}
102
{ACAD_REACTORS
330
50E
102
}
330
50E
100
AcDbMaterial
  1
Global
 72
     0
 43
0.0208333333333333
 43
0.0
 43
0.0
 43
0.0
 43
0.0
 43
0.0208333333333333
 43
0.0
 43
0.0
 43
0.0
 43
0.0
 43
1.0
 43
0.0
 43
0.0
 43
0.0
 43
0.0
 43
1.0
 77
     0
 47
0.0208333333333333
 47
0.0
 47
0.0
 47
0.0
 47
0.0
 47
0.0208333333333333
 47
0.0
 47
0.0
 47
0.0
 47
0.0
 47
1.0
 47
0.0
 47
0.0
 47
0.0
 47
0.0
 47
1.0
171
     0
 49
0.0208333333333333
 49
0.0
 49
0.0
 49
0.0
 49
0.0
 49
0.0208333333333333
 49
0.0
 49
0.0
 49
0.0
 49
0.0
 49
1.0
 49
0.0
 49
0.0
 49
0.0
 49
0.0
 49
1.0
175
     0
142
0.0208333333333333
142
0.0
142
0.0
142
0.0
142
0.0
142
0.0208333333333333
142
0.0
142
0.0
142
0.0
142
0.0
142
1.0
142
0.0
142
0.0
142
0.0
142
0.0
142
1.0
179
     0
144
0.0208333333333333
144
0.0
144
0.0
144
0.0
144
0.0
144
0.0208333333333333
144
0.0
144
0.0
144
0.0
144
0.0
144
1.0
144
0.0
144
0.0
144
0.0
144
0.0
144
1.0
147
0.0208333333333333
147
0.0
147
0.0
147
0.0
147
0.0
147
0.0208333333333333
147
0.0
147
0.0
147
0.0
147
0.0
147
1.0
147
0.0
147
0.0
147
0.0
147
0.0
147
1.0
  0
MLEADERSTYLE
  5
55E
102
{ACAD_REACTORS
330
55D
102
}
330
55D
100
AcDbMLeaderStyle
170
     2
171
     1
172
     0
 90
        2
 40
0.0
 41
0.0
173
     1
 91
-1056964608
340
F
 92
       -2
290
     1
 42
0.09
291
     1
 43
0.36
  3
Standard
 44
0.18
300

342
D
174
     1
178
     6
175
     1
176
     0
 93
-1056964608
 45
0.18
292
     0
297
     0
 46
0.18
 94
-1056964608
 47
1.0
 49
1.0
140
1.0
293
     1
141
0.0
294
     1
177
     0
142
1.0
295
     0
296
     0
143
0.125
1001
ACAD_MLEADERVER
1070
     2
  0
MLINESTYLE
  5
1B
102
{ACAD_REACTORS
330
19
102
}
330
19
100
AcDbMlineStyle
  2
STANDARD
 70
     0
  3

 62
     0
 51
90.0
 52
90.0
 71
     2
 49
0.5
 62
   256
  6
BYLAYER
 49
-0.5
 62
   256
  6
BYLAYER
  0
ACDBPLACEHOLDER
  5
50D
102
{ACAD_REACTORS
330
50C
102
}
330
50C
  0
SCALE
  5
53C
102
{ACAD_REACTORS
330
53B
102
}
330
53B
100
AcDbScale
 70
     0
300
1:1
140
1.0
141
1.0
290
     1
  0
SCALE
  5
53D
102
{ACAD_REACTORS
330
53B
102
}
330
53B
100
AcDbScale
 70
     0
300
1:2
140
1.0
141
2.0
290
     0
  0
SCALE
  5
53E
102
{ACAD_REACTORS
330
53B
102
}
330
53B
100
AcDbScale
 70
     0
300
1:4
140
1.0
141
4.0
290
     0
  0
SCALE
  5
53F
102
{ACAD_REACTORS
330
53B
102
}
330
53B
100
AcDbScale
 70
     0
300
1:5
140
1.0
141
5.0
290
     0
  0
SCALE
  5
540
102
{ACAD_REACTORS
330
53B
102
}
330
53B
100
AcDbScale
 70
     0
300
1:8
140
1.0
141
8.0
290
     0
  0
SCALE
  5
541
102
{ACAD_REACTORS
330
53B
102
}
330
53B
100
AcDbScale
 70
     0
300
1:10
140
1.0
141
10.0
290
     0
  0
SCALE
  5
542
102
{ACAD_REACTORS
330
53B
102
}
330
53B
100
AcDbScale
 70
     0
300
1:16
140
1.0
141
16.0
290
     0
  0
SCALE
  5
543
102
{ACAD_REACTORS
330
53B
102
}
330
53B
100
AcDbScale
 70
     0
300
1:20
140
1.0
141
20.0
290
     0
  0
SCALE
  5
544
102
{ACAD_REACTORS
330
53B
102
}
330
53B
100
AcDbScale
 70
     0
300
1:30
140
1.0
141
30.0
290
     0
  0
SCALE
  5
545
102
{ACAD_REACTORS
330
53B
102
}
330
53B
100
AcDbScale
 70
     0
300
1:40
140
1.0
141
40.0
290
     0
  0
SCALE
  5
546
102
{ACAD_REACTORS
330
53B
102
}
330
53B
100
AcDbScale
 70
     0
300
1:50
140
1.0
141
50.0
290
     0
  0
SCALE
  5
547
102
{ACAD_REACTORS
330
53B
102
}
330
53B
100
AcDbScale
 70
     0
300
1:100
140
1.0
141
100.0
290
     0
  0
SCALE
  5
548
102
{ACAD_REACTORS
330
53B
102
}
330
53B
100
AcDbScale
 70
     0
300
2:1
140
2.0
141
1.0
290
     0
  0
SCALE
  5
549
102
{ACAD_REACTORS
330
53B
102
}
330
53B
100
AcDbScale
 70
     0
300
4:1
140
4.0
141
1.0
290
     0
  0
SCALE
  5
54A
102
{ACAD_REACTORS
330
53B
102
}
330
53B
100
AcDbScale
 70
     0
300
8:1
140
8.0
141
1.0
290
     0
  0
SCALE
  5
54B
102
{ACAD_REACTORS
330
53B
102
}
330
53B
100
AcDbScale
 70
     0
300
10:1
140
10.0
141
1.0
290
     0
  0
SCALE
  5
54C
102
{ACAD_REACTORS
330
53B
102
}
330
53B
100
AcDbScale
 70
     0
300
100:1
140
100.0
141
1.0
290
     0
  0
SCALE
  5
54D
102
{ACAD_REACTORS
330
53B
102
}
330
53B
100
AcDbScale
 70
     0
300
1/128" = 1'-0"
140
0.0078125
141
12.0
290
     0
  0
SCALE
  5
54E
102
{ACAD_REACTORS
330
53B
102
}
330
53B
100
AcDbScale
 70
     0
300
1/64" = 1'-0"
140
0.015625
141
12.0
290
     0
  0
SCALE
  5
54F
102
{ACAD_REACTORS
330
53B
102
}
330
53B
100
AcDbScale
 70
     0
300
1/32" = 1'-0"
140
0.03125
141
12.0
290
     0
  0
SCALE
  5
550
102
{ACAD_REACTORS
330
53B
102
}
330
53B
100
AcDbScale
 70
     0
300
1/16" = 1'-0"
140
0.0625
141
12.0
290
     0
  0
SCALE
  5
551
102
{ACAD_REACTORS
330
53B
102
}
330
53B
100
AcDbScale
 70
     0
300
3/32" = 1'-0"
140
0.09375
141
12.0
290
     0
  0
SCALE
  5
552
102
{ACAD_REACTORS
330
53B
102
}
330
53B
100
AcDbScale
 70
     0
300
1/8" = 1'-0"
140
0.125
141
12.0
290
     0
  0
SCALE
  5
553
102
{ACAD_REACTORS
330
53B
102
}
330
53B
100
AcDbScale
 70
     0
300
3/16" = 1'-0"
140
0.1875
141
12.0
290
     0
  0
SCALE
  5
554
102
{ACAD_REACTORS
330
53B
102
}
330
53B
100
AcDbScale
 70
     0
300
1/4" = 1'-0"
140
0.25
141
12.0
290
     0
  0
SCALE
  5
555
102
{ACAD_REACTORS
330
53B
102
}
330
53B
100
AcDbScale
 70
     0
300
3/8" = 1'-0"
140
0.375
141
12.0
290
     0
  0
SCALE
  5
556
102
{ACAD_REACTORS
330
53B
102
}
330
53B
100
AcDbScale
 70
     0
300
1/2" = 1'-0"
140
0.5
141
12.0
290
     0
  0
SCALE
  5
557
102
{ACAD_REACTORS
330
53B
102
}
330
53B
100
AcDbScale
 70
     0
300
3/4" = 1'-0"
140
0.75
141
12.0
290
     0
  0
SCALE
  5
558
102
{ACAD_REACTORS
330
53B
102
}
330
53B
100
AcDbScale
 70
     0
300
1" = 1'-0"
140
1.0
141
12.0
290
     0
  0
SCALE
  5
559
102
{ACAD_REACTORS
330
53B
102
}
330
53B
100
AcDbScale
 70
     0
300
1-1/2" = 1'-0"
140
1.5
141
12.0
290
     0
  0
SCALE
  5
55A
102
{ACAD_REACTORS
330
53B
102
}
330
53B
100
AcDbScale
 70
     0
300
3" = 1'-0"
140
3.0
141
12.0
290
     0
  0
SCALE
  5
55B
102
{ACAD_REACTORS
330
53B
102
}
330
53B
100
AcDbScale
 70
     0
300
6" = 1'-0"
140
6.0
141
12.0
290
     0
  0
SCALE
  5
55C
102
{ACAD_REACTORS
330
53B
102
}
330
53B
100
AcDbScale
 70
     0
300
1'-0" = 1'-0"
140
12.0
141
12.0
290
     0
  0
TABLESTYLE
  5
53A
102
{ACAD_XDICTIONARY
360
610
102
}
102
{ACAD_REACTORS
330
539
102
}
330
539
100
AcDbTableStyle
  3
Standard
 70
     0
 71
     0
 40
0.06
 41
0.06
280
     0
281
     0
  7
STANDARD
140
0.18
170
     2
 62
     0
 63
     7
283
     0
274
    -2
284
     1
 64
     0
275
    -2
285
     1
 65
     0
276
    -2
286
     1
 66
     0
277
    -2
287
     1
 67
     0
278
    -2
288
     1
 68
     0
279
    -2
289
     1
 69
     0
  7
STANDARD
140
0.25
170
     5
 62
     0
 63
     7
283
     0
274
    -2
284
     1
 64
     0
275
    -2
285
     1
 65
     0
276
    -2
286
     1
 66
     0
277
    -2
287
     1
 67
     0
278
    -2
288
     1
 68
     0
279
    -2
289
     1
 69
     0
  7
STANDARD
140
0.18
170
     5
 62
     0
 63
     7
283
     0
274
    -2
284
     1
 64
     0
275
    -2
285
     1
 65
     0
276
    -2
286
     1
 66
     0
277
    -2
287
     1
 67
     0
278
    -2
288
     1
 68
     0
279
    -2
289
     1
 69
     0
  0
VISUALSTYLE
  5
52D
102
{ACAD_REACTORS
330
527
102
}
330
527
100
AcDbVisualStyle
  2
2dWireframe
 70
     4
 71
     0
 72
     2
 73
     0
 90
        0
 40
-0.6
 41
-30.0
 62
     5
 63
     7
 74
     1
 91
        4
 64
     7
 65
   257
 75
     1
175
     1
 42
1.0
 92
        0
 66
   257
 43
1.0
 76
     1
 77
     6
 78
     2
 67
     7
 79
     5
170
     0
171
     0
290
     0
174
     0
 93
        1
 44
0.0
173
     0
291
     0
 45
0.0
1001
ACAD
1000
AcDbSavedByObjectVersion
1070
     0
  0
VISUALSTYLE
  5
52F
102
{ACAD_REACTORS
330
527
102
}
330
527
100
AcDbVisualStyle
  2
3D Hidden
 70
     6
 71
     1
 72
     2
 73
     2
 90
        0
 40
-0.6
 41
-30.0
 62
     5
 63
     7
 74
     2
 91
        2
 64
     7
 65
   257
 75
     2
175
     1
 42
40.0
 92
        0
 66
   257
 43
1.0
 76
     1
 77
     6
 78
     2
 67
     7
 79
     3
170
     0
171
     0
290
     0
174
     0
 93
        1
 44
0.0
173
     0
291
     0
 45
0.0
1001
ACAD
1000
AcDbSavedByObjectVersion
1070
     0
  0
VISUALSTYLE
  5
52E
102
{ACAD_REACTORS
330
527
102
}
330
527
100
AcDbVisualStyle
  2
3dWireframe
 70
     5
 71
     0
 72
     2
 73
     0
 90
        0
 40
-0.6
 41
-30.0
 62
     5
 63
     7
 74
     1
 91
        4
 64
     7
 65
   257
 75
     1
175
     1
 42
1.0
 92
        0
 66
   257
 43
1.0
 76
     1
 77
     6
 78
     2
 67
     7
 79
     5
170
     0
171
     0
290
     0
174
     0
 93
        1
 44
0.0
173
     0
291
     0
 45
0.0
1001
ACAD
1000
AcDbSavedByObjectVersion
1070
     0
  0
VISUALSTYLE
  5
52C
102
{ACAD_REACTORS
330
527
102
}
330
527
100
AcDbVisualStyle
  2
Basic
 70
     7
 71
     1
 72
     0
 73
     1
 90
        0
 40
-0.6
 41
-30.0
 62
     5
 63
     7
 74
     0
 91
        4
 64
     7
 65
   257
 75
     1
175
     1
 42
1.0
 92
        8
 66
     7
 43
1.0
 76
     1
 77
     6
 78
     2
 67
     7
 79
     5
170
     0
171
     0
290
     0
174
     0
 93
        1
 44
0.0
173
     0
291
     1
 45
0.0
1001
ACAD
1000
AcDbSavedByObjectVersion
1070
     0
  0
VISUALSTYLE
  5
533
102
{ACAD_REACTORS
330
527
102
}
330
527
100
AcDbVisualStyle
  2
Brighten
 70
    12
 71
     2
 72
     2
 73
     0
 90
        0
 40
-0.6
 41
-30.0
 62
     5
 63
     7
 74
     1
 91
        4
 64
     7
 65
   257
 75
     1
175
     1
 42
1.0
 92
        8
 66
     7
 43
1.0
 76
     1
 77
     6
 78
     2
 67
     7
 79
     5
170
     0
171
     0
290
     0
174
     0
 93
        1
 44
50.0
173
     0
291
     1
 45
0.0
1001
ACAD
1000
AcDbSavedByObjectVersion
1070
     0
  0
VISUALSTYLE
  5
537
102
{ACAD_REACTORS
330
527
102
}
330
527
100
AcDbVisualStyle
  2
ColorChange
 70
    16
 71
     2
 72
     2
 73
     3
 90
        0
 40
-0.6
 41
-30.0
 62
     5
 63
     8
 74
     1
 91
        4
 64
     7
 65
   257
 75
     1
175
     1
 42
1.0
 92
        8
 66
     8
 43
1.0
 76
     1
 77
     6
 78
     2
 67
     7
 79
     5
170
     0
171
     0
290
     0
174
     0
 93
        1
 44
0.0
173
     0
291
     1
 45
0.0
1001
ACAD
1000
AcDbSavedByObjectVersion
1070
     0
  0
VISUALSTYLE
  5
530
102
{ACAD_REACTORS
330
527
102
}
330
527
100
AcDbVisualStyle
  2
Conceptual
 70
     9
 71
     3
 72
     2
 73
     0
 90
        0
 40
-0.6
 41
-30.0
 62
     5
 63
     7
 74
     2
 91
        2
 64
     7
 65
   257
 75
     1
175
     1
 42
40.0
 92
        8
 66
     7
 43
1.0
 76
     1
 77
     6
 78
     2
 67
     7
 79
     3
170
     0
171
     0
290
     0
174
     0
 93
        1
 44
0.0
173
     0
291
     0
 45
0.0
1001
ACAD
1000
AcDbSavedByObjectVersion
1070
     0
  0
VISUALSTYLE
  5
532
102
{ACAD_REACTORS
330
527
102
}
330
527
100
AcDbVisualStyle
  2
Dim
 70
    11
 71
     2
 72
     2
 73
     0
 90
        0
 40
-0.6
 41
-30.0
 62
     5
 63
     7
 74
     1
 91
        4
 64
     7
 65
   257
 75
     1
175
     1
 42
1.0
 92
        8
 66
     7
 43
1.0
 76
     1
 77
     6
 78
     2
 67
     7
 79
     5
170
     0
171
     0
290
     0
174
     0
 93
        1
 44
-50.0
173
     0
291
     1
 45
0.0
1001
ACAD
1000
AcDbSavedByObjectVersion
1070
     0
  0
VISUALSTYLE
  5
536
102
{ACAD_REACTORS
330
527
102
}
330
527
100
AcDbVisualStyle
  2
Facepattern
 70
    15
 71
     2
 72
     2
 73
     0
 90
        0
 40
-0.6
 41
-30.0
 62
     5
 63
     7
 74
     1
 91
        4
 64
     7
 65
   257
 75
     1
175
     1
 42
1.0
 92
        8
 66
     7
 43
1.0
 76
     1
 77
     6
 78
     2
 67
     7
 79
     5
170
     0
171
     0
290
     0
174
     0
 93
        1
 44
0.0
173
     0
291
     1
 45
0.0
1001
ACAD
1000
AcDbSavedByObjectVersion
1070
     0
  0
VISUALSTYLE
  5
528
102
{ACAD_REACTORS
330
527
102
}
330
527
100
AcDbVisualStyle
  2
Flat
 70
     0
 71
     2
 72
     1
 73
     1
 90
        2
 40
-0.6
 41
30.0
 62
     5
 63
     7
 74
     0
 91
        4
 64
     7
 65
   257
 75
     1
175
     1
 42
1.0
 92
        8
 66
     7
 43
1.0
 76
     1
 77
     6
 78
     2
 67
     7
 79
     5
170
     0
171
     0
290
     0
174
     0
 93
       13
 44
0.0
173
     0
291
     1
 45
0.0
1001
ACAD
1000
AcDbSavedByObjectVersion
1070
     0
  0
VISUALSTYLE
  5
529
102
{ACAD_REACTORS
330
527
102
}
330
527
100
AcDbVisualStyle
  2
FlatWithEdges
 70
     1
 71
     2
 72
     1
 73
     1
 90
        2
 40
-0.6
 41
30.0
 62
     5
 63
     7
 74
     1
 91
        4
 64
     7
 65
   257
 75
     1
175
     1
 42
1.0
 92
        0
 66
   257
 43
1.0
 76
     1
 77
     6
 78
     2
 67
     7
 79
     5
170
     0
171
     0
290
     0
174
     0
 93
       13
 44
0.0
173
     0
291
     1
 45
0.0
1001
ACAD
1000
AcDbSavedByObjectVersion
1070
     0
  0
VISUALSTYLE
  5
52A
102
{ACAD_REACTORS
330
527
102
}
330
527
100
AcDbVisualStyle
  2
Gouraud
 70
     2
 71
     2
 72
     2
 73
     1
 90
        2
 40
-0.6
 41
30.0
 62
     5
 63
     7
 74
     0
 91
        4
 64
     7
 65
   257
 75
     1
175
     1
 42
1.0
 92
        0
 66
     7
 43
1.0
 76
     1
 77
     6
 78
     2
 67
     7
 79
     5
170
     0
171
     0
290
     0
174
     0
 93
       13
 44
0.0
173
     0
291
     1
 45
0.0
1001
ACAD
1000
AcDbSavedByObjectVersion
1070
     0
  0
VISUALSTYLE
  5
52B
102
{ACAD_REACTORS
330
527
102
}
330
527
100
AcDbVisualStyle
  2
GouraudWithEdges
 70
     3
 71
     2
 72
     2
 73
     1
 90
        2
 40
-0.6
 41
30.0
 62
     5
 63
     7
 74
     1
 91
        4
 64
     7
 65
   257
 75
     1
175
     1
 42
1.0
 92
        0
 66
   257
 43
1.0
 76
     1
 77
     6
 78
     2
 67
     7
 79
     5
170
     0
171
     0
290
     0
174
     0
 93
       13
 44
0.0
173
     0
291
     1
 45
0.0
1001
ACAD
1000
AcDbSavedByObjectVersion
1070
     0
  0
VISUALSTYLE
  5
535
102
{ACAD_REACTORS
330
527
102
}
330
527
100
AcDbVisualStyle
  2
Linepattern
 70
    14
 71
     2
 72
     2
 73
     0
 90
        0
 40
-0.6
 41
-30.0
 62
     5
 63
     7
 74
     1
 91
        4
 64
     7
 65
   257
 75
     7
175
     7
 42
1.0
 92
        8
 66
     7
 43
1.0
 76
     1
 77
     6
 78
     2
 67
     7
 79
     5
170
     0
171
     0
290
     0
174
     0
 93
        1
 44
0.0
173
     0
291
     1
 45
0.0
1001
ACAD
1000
AcDbSavedByObjectVersion
1070
     0
  0
VISUALSTYLE
  5
531
102
{ACAD_REACTORS
330
527
102
}
330
527
100
AcDbVisualStyle
  2
Realistic
 70
     8
 71
     2
 72
     2
 73
     0
 90
        0
 40
-0.6
 41
-30.0
 62
     5
 63
     7
 74
     1
 91
        0
 64
     7
 65
   257
 75
     1
175
     1
 42
1.0
 92
        8
 66
     8
 43
1.0
 76
     1
 77
     6
 78
     2
 67
     7
 79
     5
170
     0
171
     0
290
     0
174
     0
 93
       13
 44
0.0
173
     0
291
     0
 45
0.0
1001
ACAD
1000
AcDbSavedByObjectVersion
1070
     0
  0
VISUALSTYLE
  5
534
102
{ACAD_REACTORS
330
527
102
}
330
527
100
AcDbVisualStyle
  2
Thicken
 70
    13
 71
     2
 72
     2
 73
     0
 90
        0
 40
-0.6
 41
-30.0
 62
     5
 63
     7
 74
     1
 91
        4
 64
     7
 65
   257
 75
     1
175
     1
 42
1.0
 92
       12
 66
     7
 43
1.0
 76
     1
 77
     6
 78
     2
 67
     7
 79
     5
170
     0
171
     0
290
     0
174
     0
 93
        1
 44
0.0
173
     0
291
     1
 45
0.0
1001
ACAD
1000
AcDbSavedByObjectVersion
1070
     0
  0
DICTIONARYVAR
  5
60C
102
{ACAD_REACTORS
330
609
102
}
330
609
100
DictionaryVariables
280
     0
  1
1:1
  0
DICTIONARYVAR
  5
60B
102
{ACAD_REACTORS
330
609
102
}
330
609
100
DictionaryVariables
280
     0
  1
STANDARD
  0
DICTIONARYVAR
  5
60A
102
{ACAD_REACTORS
330
609
102
}
330
609
100
DictionaryVariables
280
     0
  1
STANDARD
  0
DICTIONARYVAR
  5
60F
102
{ACAD_REACTORS
330
609
102
}
330
609
100
DictionaryVariables
280
     0
  1
1
  0
DICTIONARYVAR
  5
60E
102
{ACAD_REACTORS
330
609
102
}
330
609
100
DictionaryVariables
280
     0
  1
0
  0
DICTIONARYVAR
  5
60D
102
{ACAD_REACTORS
330
609
102
}
330
609
100
DictionaryVariables
280
     0
  1
127
  0
DICTIONARY
  5
5CD
102
{ACAD_REACTORS
330
5C2
102
}
330
5C2
100
AcDbDictionary
281
     1
  0
DICTIONARY
  5
61A
330
563
100
AcDbDictionary
280
     1
281
     1
  3
ACAD_XREC_ROUNDTRIP
360
61B
  0
DICTIONARY
  5
618
330
562
100
AcDbDictionary
280
     1
281
     1
  3
ACAD_XREC_ROUNDTRIP
360
619
  0
DICTIONARY
  5
518
330
517
100
AcDbDictionary
280
     1
281
     1
  3
ACAD_XREC_ROUNDTRIP
360
615
  3
BUMPTILE
360
51A
  3
DIFFUSETILE
360
519
  3
OPACITYTILE
360
51D
  3
REFLECTIONTILE
360
51C
  3
REFRACTIONTILE
360
51E
  3
SPECULARTILE
360
51B
  0
DICTIONARY
  5
510
330
50F
100
AcDbDictionary
280
     1
281
     1
  3
ACAD_XREC_ROUNDTRIP
360
614
  3
BUMPTILE
360
512
  3
DIFFUSETILE
360
511
  3
OPACITYTILE
360
515
  3
REFLECTIONTILE
360
514
  3
REFRACTIONTILE
360
516
  3
SPECULARTILE
360
513
  0
DICTIONARY
  5
520
330
51F
100
AcDbDictionary
280
     1
281
     1
  3
ACAD_XREC_ROUNDTRIP
360
616
  3
BUMPTILE
360
522
  3
DIFFUSETILE
360
521
  3
OPACITYTILE
360
525
  3
REFLECTIONTILE
360
524
  3
REFRACTIONTILE
360
526
  3
SPECULARTILE
360
523
  0
DICTIONARY
  5
610
330
53A
100
AcDbDictionary
280
     1
281
     1
  3
ACAD_ROUNDTRIP_2008_TABLESTYLE_CELLSTYLEMAP
360
611
  3
ACAD_XREC_ROUNDTRIP
360
617
  0
XRECORD
  5
61B
102
{ACAD_REACTORS
330
61A
102
}
330
61A
100
AcDbXrecord
280
     1
102
SHADEPLOT
 70
     0
102
SHADEPLOTRESLEVEL
 70
     2
102
SHADEPLOTCUSTOMDPI
 70
   300
  0
XRECORD
  5
619
102
{ACAD_REACTORS
330
618
102
}
330
618
100
AcDbXrecord
280
     1
102
SHADEPLOT
 70
     0
102
SHADEPLOTRESLEVEL
 70
     2
102
SHADEPLOTCUSTOMDPI
 70
   300
  0
XRECORD
  5
615
102
{ACAD_REACTORS
330
518
102
}
330
518
100
AcDbXrecord
280
     1
102
MATERIAL
148
0.0
149
0.0
149
0.0
 93
        0
 94
      127
282
     0
 72
     0
 77
     0
171
     0
175
     0
179
     0
273
     0
  0
XRECORD
  5
51A
102
{ACAD_REACTORS
330
518
102
}
330
518
100
AcDbXrecord
280
     1
270
     1
271
     1
  0
XRECORD
  5
519
102
{ACAD_REACTORS
330
518
102
}
330
518
100
AcDbXrecord
280
     1
270
     1
271
     1
  0
XRECORD
  5
51D
102
{ACAD_REACTORS
330
518
102
}
330
518
100
AcDbXrecord
280
     1
270
     1
271
     1
  0
XRECORD
  5
51C
102
{ACAD_REACTORS
330
518
102
}
330
518
100
AcDbXrecord
280
     1
270
     1
271
     1
  0
XRECORD
  5
51E
102
{ACAD_REACTORS
330
518
102
}
330
518
100
AcDbXrecord
280
     1
270
     1
271
     1
  0
XRECORD
  5
51B
102
{ACAD_REACTORS
330
518
102
}
330
518
100
AcDbXrecord
280
     1
270
     1
271
     1
  0
XRECORD
  5
614
102
{ACAD_REACTORS
330
510
102
}
330
510
100
AcDbXrecord
280
     1
102
MATERIAL
148
0.0
149
0.0
149
0.0
 93
        0
 94
      127
282
     0
 72
     0
 77
     0
171
     0
175
     0
179
     0
273
     0
  0
XRECORD
  5
512
102
{ACAD_REACTORS
330
510
102
}
330
510
100
AcDbXrecord
280
     1
270
     1
271
     1
  0
XRECORD
  5
511
102
{ACAD_REACTORS
330
510
102
}
330
510
100
AcDbXrecord
280
     1
270
     1
271
     1
  0
XRECORD
  5
515
102
{ACAD_REACTORS
330
510
102
}
330
510
100
AcDbXrecord
280
     1
270
     1
271
     1
  0
XRECORD
  5
514
102
{ACAD_REACTORS
330
510
102
}
330
510
100
AcDbXrecord
280
     1
270
     1
271
     1
  0
XRECORD
  5
516
102
{ACAD_REACTORS
330
510
102
}
330
510
100
AcDbXrecord
280
     1
270
     1
271
     1
  0
XRECORD
  5
513
102
{ACAD_REACTORS
330
510
102
}
330
510
100
AcDbXrecord
280
     1
270
     1
271
     1
  0
XRECORD
  5
616
102
{ACAD_REACTORS
330
520
102
}
330
520
100
AcDbXrecord
280
     1
102
MATERIAL
148
0.0
149
0.0
149
0.0
 93
        0
 94
      127
282
     0
 72
     0
 77
     0
171
     0
175
     0
179
     0
273
     0
  0
XRECORD
  5
522
102
{ACAD_REACTORS
330
520
102
}
330
520
100
AcDbXrecord
280
     1
270
     1
271
     1
  0
XRECORD
  5
521
102
{ACAD_REACTORS
330
520
102
}
330
520
100
AcDbXrecord
280
     1
270
     1
271
     1
  0
XRECORD
  5
525
102
{ACAD_REACTORS
330
520
102
}
330
520
100
AcDbXrecord
280
     1
270
     1
271
     1
  0
XRECORD
  5
524
102
{ACAD_REACTORS
330
520
102
}
330
520
100
AcDbXrecord
280
     1
270
     1
271
     1
  0
XRECORD
  5
526
102
{ACAD_REACTORS
330
520
102
}
330
520
100
AcDbXrecord
280
     1
270
     1
271
     1
  0
XRECORD
  5
523
102
{ACAD_REACTORS
330
520
102
}
330
520
100
AcDbXrecord
280
     1
270
     1
271
     1
  0
CELLSTYLEMAP
  5
611
102
{ACAD_REACTORS
330
610
102
}
330
610
100
AcDbCellStyleMap
 90
        3
300
CELLSTYLE
  1
TABLEFORMAT_BEGIN
 90
        5
170
     1
 91
        0
 92
    32768
 62
   257
 93
        1
300
CONTENTFORMAT
  1
CONTENTFORMAT_BEGIN
 90
        0
 91
        0
 92
      512
 93
        0
300

 40
0.0
140
1.0
 94
        5
 62
     0
340
D
144
0.25
309
CONTENTFORMAT_END
171
     0
 94
        0
309
TABLEFORMAT_END
  1
CELLSTYLE_BEGIN
 90
        1
 91
        1
300
_TITLE
309
CELLSTYLE_END
300
CELLSTYLE
  1
TABLEFORMAT_BEGIN
 90
        5
170
     1
 91
        0
 92
        0
 62
   257
 93
        1
300
CONTENTFORMAT
  1
CONTENTFORMAT_BEGIN
 90
        0
 91
        0
 92
      512
 93
        0
300

 40
0.0
140
1.0
 94
        5
 62
     0
340
D
144
0.18
309
CONTENTFORMAT_END
171
     0
 94
        0
309
TABLEFORMAT_END
  1
CELLSTYLE_BEGIN
 90
        2
 91
        1
300
_HEADER
309
CELLSTYLE_END
300
CELLSTYLE
  1
TABLEFORMAT_BEGIN
 90
        5
170
     1
 91
        0
 92
        0
 62
   257
 93
        1
300
CONTENTFORMAT
  1
CONTENTFORMAT_BEGIN
 90
        0
 91
        0
 92
      512
 93
        0
300

 40
0.0
140
1.0
 94
        2
 62
     0
340
D
144
0.18
309
CONTENTFORMAT_END
171
     0
 94
        0
309
TABLEFORMAT_END
  1
CELLSTYLE_BEGIN
 90
        3
 91
        2
300
_DATA
309
CELLSTYLE_END
  0
XRECORD
  5
617
102
{ACAD_REACTORS
330
610
102
}
330
610
100
AcDbXrecord
280
     1
102
ACAD_ROUNDTRIP_PRE2007_TABLESTYLE
 90
      512
 91
        0
  1

 92
      512
 93
        0
  2

 94
      512
 95
        0
  3

  0
ENDSEC
  0
EOF
