  0
SECTION
  2
HEADER
  9
$ACADVER
  1
AC1012
  9
$DWGCODEPAGE
  3
ansi_1252
  9
$INSBASE
 10
-670.067769
 20
-826.831135
 30
0.0
  9
$EXTMIN
 10
-669.928032
 20
-822.976048
 30
0.0
  9
$EXTMAX
 10
-175.976793
 20
-372.463909
 30
0.0
  9
$LIMMIN
 10
0.0
 20
0.0
  9
$LIMMAX
 10
420.0
 20
297.0
  9
$ORTHOMODE
 70
     0
  9
$REGENMODE
 70
     1
  9
$FILLMODE
 70
     1
  9
$QTEXTMODE
 70
     0
  9
$MIRRTEXT
 70
     1
  9
$DRAGMODE
 70
     2
  9
$LTSCALE
 40
1.0
  9
$OSMODE
 70
    33
  9
$ATTMODE
 70
     1
  9
$TEXTSIZE
 40
3.5
  9
$TRACEWID
 40
1.0
  9
$TEXTSTYLE
  7
STANDARD
  9
$CLAYER
  8
MSL-3-80-0
  9
$CELTYPE
  6
BYLAYER
  9
$CECOLOR
 62
   256
  9
$CELTSCALE
 40
1.0
  9
$DELOBJ
 70
     1
  9
$DISPSILH
 70
     0
  9
$DIMSCALE
 40
1.0
  9
$DIMASZ
 40
2.5
  9
$DIMEXO
 40
1.0
  9
$DIMDLI
 40
10.0
  9
$DIMRND
 40
0.0
  9
$DIMDLE
 40
0.0
  9
$DIMEXE
 40
2.0
  9
$DIMTP
 40
0.1
  9
$DIMTM
 40
0.1
  9
$DIMTXT
 40
3.5
  9
$DIMCEN
 40
-2.0
  9
$DIMTSZ
 40
0.0
  9
$DIMTOL
 70
     0
  9
$DIMLIM
 70
     0
  9
$DIMTIH
 70
     0
  9
$DIMTOH
 70
     0
  9
$DIMSE1
 70
     0
  9
$DIMSE2
 70
     0
  9
$DIMTAD
 70
     1
  9
$DIMZIN
 70
     8
  9
$DIMBLK
  1

  9
$DIMASO
 70
     1
  9
$DIMSHO
 70
     1
  9
$DIMPOST
  1

  9
$DIMAPOST
  1

  9
$DIMALT
 70
     0
  9
$DIMALTD
 70
     2
  9
$DIMALTF
 40
25.4
  9
$DIMLFAC
 40
1.0
  9
$DIMTOFL
 70
     1
  9
$DIMTVP
 40
0.0
  9
$DIMTIX
 70
     0
  9
$DIMSOXD
 70
     0
  9
$DIMSAH
 70
     0
  9
$DIMBLK1
  1

  9
$DIMBLK2
  1

  9
$DIMSTYLE
  2
GEN-ISO
  9
$DIMCLRD
 70
     0
  9
$DIMCLRE
 70
     0
  9
$DIMCLRT
 70
     2
  9
$DIMTFAC
 40
1.0
  9
$DIMGAP
 40
1.5
  9
$DIMJUST
 70
     0
  9
$DIMSD1
 70
     0
  9
$DIMSD2
 70
     0
  9
$DIMTOLJ
 70
     0
  9
$DIMTZIN
 70
     8
  9
$DIMALTZ
 70
     8
  9
$DIMALTTZ
 70
     8
  9
$DIMFIT
 70
     3
  9
$DIMUPT
 70
     0
  9
$DIMUNIT
 70
     2
  9
$DIMDEC
 70
     2
  9
$DIMTDEC
 70
     5
  9
$DIMALTU
 70
     2
  9
$DIMALTTD
 70
     2
  9
$DIMTXSTY
  7
STANDARD
  9
$DIMAUNIT
 70
     0
  9
$LUNITS
 70
     2
  9
$LUPREC
 70
     4
  9
$SKETCHINC
 40
1.0
  9
$FILLETRAD
 40
0.0
  9
$AUNITS
 70
     0
  9
$AUPREC
 70
     0
  9
$MENU
  1
acad
  9
$ELEVATION
 40
0.0
  9
$PELEVATION
 40
0.0
  9
$THICKNESS
 40
0.0
  9
$LIMCHECK
 70
     0
  9
$BLIPMODE
 70
     0
  9
$CHAMFERA
 40
10.0
  9
$CHAMFERB
 40
10.0
  9
$CHAMFERC
 40
0.0
  9
$CHAMFERD
 40
0.0
  9
$SKPOLY
 70
     0
  9
$TDCREATE
 40
2450623.706998495
  9
$TDUPDATE
 40
2450634.363075231
  9
$TDINDWG
 40
0.0548663194
  9
$TDUSRTIMER
 40
0.0548663194
  9
$USRTIMER
 70
     1
  9
$ANGBASE
 50
0.0
  9
$ANGDIR
 70
     0
  9
$PDMODE
 70
     0
  9
$PDSIZE
 40
0.0
  9
$PLINEWID
 40
0.0
  9
$COORDS
 70
     2
  9
$SPLFRAME
 70
     0
  9
$SPLINETYPE
 70
     6
  9
$SPLINESEGS
 70
     8
  9
$ATTDIA
 70
     1
  9
$ATTREQ
 70
     1
  9
$HANDLING
 70
     1
  9
$HANDSEED
  5
380
  9
$SURFTAB1
 70
     6
  9
$SURFTAB2
 70
     6
  9
$SURFTYPE
 70
     6
  9
$SURFU
 70
     6
  9
$SURFV
 70
     6
  9
$UCSNAME
  2

  9
$UCSORG
 10
0.0
 20
0.0
 30
0.0
  9
$UCSXDIR
 10
1.0
 20
0.0
 30
0.0
  9
$UCSYDIR
 10
0.0
 20
1.0
 30
0.0
  9
$PUCSNAME
  2

  9
$PUCSORG
 10
0.0
 20
0.0
 30
0.0
  9
$PUCSXDIR
 10
1.0
 20
0.0
 30
0.0
  9
$PUCSYDIR
 10
0.0
 20
1.0
 30
0.0
  9
$USERI1
 70
     0
  9
$USERI2
 70
     0
  9
$USERI3
 70
     0
  9
$USERI4
 70
     0
  9
$USERI5
 70
     0
  9
$USERR1
 40
0.0
  9
$USERR2
 40
0.0
  9
$USERR3
 40
0.0
  9
$USERR4
 40
0.0
  9
$USERR5
 40
0.0
  9
$WORLDVIEW
 70
     1
  9
$SHADEDGE
 70
     3
  9
$SHADEDIF
 70
    70
  9
$TILEMODE
 70
     1
  9
$MAXACTVP
 70
    16
  9
$PINSBASE
 10
0.0
 20
0.0
 30
0.0
  9
$PLIMCHECK
 70
     0
  9
$PEXTMIN
 10
1.000000E+20
 20
1.000000E+20
 30
1.000000E+20
  9
$PEXTMAX
 10
-1.000000E+20
 20
-1.000000E+20
 30
-1.000000E+20
  9
$PLIMMIN
 10
0.0
 20
0.0
  9
$PLIMMAX
 10
420.0
 20
297.0
  9
$UNITMODE
 70
     0
  9
$VISRETAIN
 70
     0
  9
$PLINEGEN
 70
     0
  9
$PSLTSCALE
 70
     1
  9
$TREEDEPTH
 70
  3020
  9
$PICKSTYLE
 70
     1
  9
$CMLSTYLE
  2
STANDARD
  9
$CMLJUST
 70
     0
  9
$CMLSCALE
 40
1.0
  9
$SAVEIMAGES
 70
     0
  0
ENDSEC
  0
SECTION
  2
CLASSES
  0
ENDSEC
  0
SECTION
  2
TABLES
  0
TABLE
  2
VPORT
  5
12
100
AcDbSymbolTable
 70
     2
  0
VPORT
  5
37F
100
AcDbSymbolTableRecord
100
AcDbViewportTableRecord
  2
*ACTIVE
 70
     0
 10
0.0
 20
0.0
 11
1.0
 21
1.0
 12
-259.341593
 22
-590.137216
 13
0.0
 23
0.0
 14
1.0
 24
1.0
 15
10.0
 25
10.0
 16
0.0
 26
0.0
 36
1.0
 17
0.0
 27
0.0
 37
0.0
 40
518.758565
 41
1.671569
 42
50.0
 43
0.0
 44
0.0
 50
0.0
 51
0.0
 71
     0
 72
   100
 73
     1
 74
     0
 75
     0
 76
     0
 77
     0
 78
     0
  0
ENDTAB
  0
TABLE
  2
LTYPE
  5
E
100
AcDbSymbolTable
 70
     3
  0
LTYPE
  5
F
100
AcDbSymbolTableRecord
100
AcDbLinetypeTableRecord
  2
BYBLOCK
 70
     0
  3

 72
    65
 73
     0
 40
0.0
  0
LTYPE
  5
6
100
AcDbSymbolTableRecord
100
AcDbLinetypeTableRecord
  2
BYLAYER
 70
     0
  3

 72
    65
 73
     0
 40
0.0
  0
LTYPE
  5
5
100
AcDbSymbolTableRecord
100
AcDbLinetypeTableRecord
  2
CONTINUOUS
 70
    64
  3
Solid line
 72
    65
 73
     0
 40
0.0
  0
LTYPE
  5
28
100
AcDbSymbolTableRecord
100
AcDbLinetypeTableRecord
  2
GEN3
 70
    64
  3
-- -- -- -- -- -- -- -- -- -- -- -- -- -- --
 72
    65
 73
     2
 40
6.25
 49
5.0
 74
     0
 49
-1.25
 74
     0
  0
LTYPE
  5
20
100
AcDbSymbolTableRecord
100
AcDbLinetypeTableRecord
  2
GEN7A
 70
    64
  3
__ . __ . __
 72
    65
 73
     4
 40
7.5
 49
5.0
 74
     0
 49
-1.25
 74
     0
 49
0.0
 74
     0
 49
-1.25
 74
     0
  0
ENDTAB
  0
TABLE
  2
LAYER
  5
B
100
AcDbSymbolTable
 70
     6
  0
LAYER
  5
4
100
AcDbSymbolTableRecord
100
AcDbLayerTableRecord
  2
0
 70
    64
 62
     7
  6
CONTINUOUS
  0
LAYER
  5
1B
100
AcDbSymbolTableRecord
100
AcDbLayerTableRecord
  2
MSL-3-80-0
 70
    64
 62
     7
  6
CONTINUOUS
  0
LAYER
  5
27
100
AcDbSymbolTableRecord
100
AcDbLayerTableRecord
  2
MSL-3-80-3
 70
    64
 62
     6
  6
GEN3
  0
LAYER
  5
2F
100
AcDbSymbolTableRecord
100
AcDbLayerTableRecord
  2
MSL-3-80-4
 70
    64
 62
     3
  6
CONTINUOUS
  0
LAYER
  5
1F
100
AcDbSymbolTableRecord
100
AcDbLayerTableRecord
  2
MSL-3-80-7
 70
    64
 62
     4
  6
GEN7A
  0
LAYER
  5
37E
100
AcDbSymbolTableRecord
100
AcDbLayerTableRecord
  2
MSL-3-80-6
 70
    64
 62
     2
  6
CONTINUOUS
  0
ENDTAB
  0
TABLE
  2
STYLE
  5
C
100
AcDbSymbolTable
 70
     1
  0
STYLE
  5
D
100
AcDbSymbolTableRecord
100
AcDbTextStyleTableRecord
  2
STANDARD
 70
    64
 40
0.0
 41
1.0
 50
0.0
 71
     0
 42
3.5
  3
ISOCP.SHX
  4

  0
ENDTAB
  0
TABLE
  2
VIEW
  5
10
100
AcDbSymbolTable
 70
     0
  0
ENDTAB
  0
TABLE
  2
UCS
  5
11
100
AcDbSymbolTable
 70
     0
  0
ENDTAB
  0
TABLE
  2
APPID
  5
14
100
AcDbSymbolTable
 70
     8
  0
APPID
  5
15
100
AcDbSymbolTableRecord
100
AcDbRegAppTableRecord
  2
ACAD
 70
    64
  0
APPID
  5
376
100
AcDbSymbolTableRecord
100
AcDbRegAppTableRecord
  2
GENIUS_GENCFG_13
 70
     0
1001
GENIUS_GENCFG0_13
1000
GEN@INFO_POS@XLATE
1001
GENIUS_GENCFG1_13
1000
GEN@LAYER@DEFS
1001
GENIUS_GENCFG2_13
1000
GEN@LAYER@ENTSORT
1001
GENIUS_GENCFG3_13
1000
GEN@OSWIZ
1001
GENIUS_GENCFG4_13
1000
GEN
1001
GENIUS_GEVCFG0_13
1000
GEV
  0
APPID
  5
377
100
AcDbSymbolTableRecord
100
AcDbRegAppTableRecord
  2
GENIUS_GENCFG0_13
 70
     0
1001
GENIUS_GENCFG_13
1071
881154008
1000
377
1000
GEN@INFO_POS@XLATE
1070
     7
1000
GenCfgObject
1000
GenCfgShort
1000
GenCfgReal
1000
GenCfgBool
1000
GenCfgString
1000
GenCfgDim
1000
GenCfgAttrInf
1000
INFOPOINTS
1070
     0
1002
{
1000
GENINF13
1070
     0
1002
{
1000
2GENINF
1070
     4
1000
2
1002
{
1002
}
1000
3GENINF
1070
     4
1000
3
1002
{
1002
}
1000
4GENINF
1070
     4
1000
4
1002
{
1002
}
1000
5GENINF
1070
     4
1000
5
1002
{
1002
}
1000
6GENINF
1070
     4
1000
6
1002
{
1002
}
1000
7GENINF
1070
     4
1000
7
1002
{
1002
}
1000
8GENINF
1070
     4
1000
8
1002
{
1002
}
1000
9GENINF
1070
     4
1000
9
1002
{
1002
}
1000
10GENINF
1070
     4
1000
10
1002
{
1002
}
1000
11GENINF
1070
     4
1000
11
1002
{
1002
}
1000
12GENINF
1070
     4
1000
12
1002
{
1002
}
1000
13GENINF
1070
     4
1000
13
1002
{
1002
}
1000
14GENINF
1070
     4
1000
14
1002
{
1002
}
1000
15GENINF
1070
     4
1000
15
1002
{
1002
}
1000
16GENINF
1070
     4
1000
16
1002
{
1002
}
1000
17GENINF
1070
     4
1000
17
1002
{
1002
}
1000
18GENINF
1070
     4
1000
18
1002
{
1002
}
1000
19GENINF
1070
     4
1000
19
1002
{
1002
}
1000
20GENINF
1070
     4
1000
20
1002
{
1002
}
1000
21GENINF
1070
     4
1000
21
1002
{
1002
}
1000
22GENINF
1070
     4
1000
22
1002
{
1002
}
1000
23GENINF
1070
     4
1000
23
1002
{
1002
}
1000
24GENINF
1070
     4
1000
24
1002
{
1002
}
1000
0GENINF
1070
     4
1000
0
1002
{
1002
}
1002
}
1000
GENINFO
1070
     0
1002
{
1000
3GENINF
1070
     4
1000
3
1002
{
1002
}
1000
4GENINF
1070
     4
1000
4
1002
{
1002
}
1000
5GENINF
1070
     4
1000
5
1002
{
1002
}
1000
6GENINF
1070
     4
1000
6
1002
{
1002
}
1000
7GENINF
1070
     4
1000
7
1002
{
1002
}
1000
8GENINF
1070
     4
1000
8
1002
{
1002
}
1000
9GENINF
1070
     4
1000
9
1002
{
1002
}
1000
10GENINF
1070
     4
1000
10
1002
{
1002
}
1000
11GENINF
1070
     4
1000
11
1002
{
1002
}
1000
12GENINF
1070
     4
1000
12
1002
{
1002
}
1000
13GENINF
1070
     4
1000
13
1002
{
1002
}
1000
14GENINF
1070
     4
1000
14
1002
{
1002
}
1000
15GENINF
1070
     4
1000
15
1002
{
1002
}
1000
16GENINF
1070
     4
1000
16
1002
{
1002
}
1000
17GENINF
1070
     4
1000
17
1002
{
1002
}
1000
18GENINF
1070
     4
1000
18
1002
{
1002
}
1000
19GENINF
1070
     4
1000
19
1002
{
1002
}
1000
20GENINF
1070
     4
1000
20
1002
{
1002
}
1000
21GENINF
1070
     4
1000
21
1002
{
1002
}
1000
22GENINF
1070
     4
1000
22
1002
{
1002
}
1002
}
1000
DININFO
1070
     0
1002
{
1000
ST-NAME1
1070
     4
1000
5
1002
{
1002
}
1000
ST-NAME2
1070
     4
1000
6
1002
{
1002
}
1000
ST-NORM1
1070
     4
1000
7
1002
{
1002
}
1000
ST-NORM2
1070
     4
1000
8
1002
{
1002
}
1000
ST-MAT1
1070
     4
1000
9
1002
{
1002
}
1000
ST-MAT2
1070
     4
1000
10
1002
{
1002
}
1002
}
1002
}
1000
POS_NUMBERS
1070
     0
1002
{
1000
GENPOS13
1070
     0
1002
{
1000
1GENPOS
1070
     4
1000
1
1002
{
1002
}
1000
2GENPOS
1070
     4
1000
2
1002
{
1002
}
1000
3GENPOS
1070
     4
1000
3
1002
{
1002
}
1000
4GENPOS
1070
     4
1000
4
1002
{
1002
}
1000
5GENPOS
1070
     4
1000
5
1002
{
1002
}
1000
6GENPOS
1070
     4
1000
6
1002
{
1002
}
1000
7GENPOS
1070
     4
1000
7
1002
{
1002
}
1000
8GENPOS
1070
     4
1000
8
1002
{
1002
}
1000
9GENPOS
1070
     4
1000
9
1002
{
1002
}
1000
10GENPOS
1070
     4
1000
10
1002
{
1002
}
1000
11GENPOS
1070
     4
1000
11
1002
{
1002
}
1000
12GENPOS
1070
     4
1000
12
1002
{
1002
}
1000
13GENPOS
1070
     4
1000
13
1002
{
1002
}
1000
14GENPOS
1070
     4
1000
14
1002
{
1002
}
1000
15GENPOS
1070
     4
1000
15
1002
{
1002
}
1000
16GENPOS
1070
     4
1000
16
1002
{
1002
}
1000
17GENPOS
1070
     4
1000
17
1002
{
1002
}
1000
18GENPOS
1070
     4
1000
18
1002
{
1002
}
1000
19GENPOS
1070
     4
1000
19
1002
{
1002
}
1000
20GENPOS
1070
     4
1000
20
1002
{
1002
}
1000
21GENPOS
1070
     4
1000
21
1002
{
1002
}
1000
22GENPOS
1070
     4
1000
22
1002
{
1002
}
1000
23GENPOS
1070
     4
1000
23
1002
{
1002
}
1000
24GENPOS
1070
     4
1000
24
1002
{
1002
}
1000
0GENPOS
1070
     4
1000
0
1002
{
1002
}
1002
}
1000
GENPOS
1070
     0
1002
{
1000
1GENPOS
1070
     4
1000
1
1002
{
1002
}
1000
2GENPOS
1070
     4
1000
2
1002
{
1002
}
1000
3GENPOS
1070
     4
1000
3
1002
{
1002
}
1000
4GENPOS
1070
     4
1000
4
1002
{
1002
}
1000
5GENPOS
1070
     4
1000
5
1002
{
1002
}
1000
6GENPOS
1070
     4
1000
6
1002
{
1002
}
1000
7GENPOS
1070
     4
1000
7
1002
{
1002
}
1000
8GENPOS
1070
     4
1000
8
1002
{
1002
}
1000
9GENPOS
1070
     4
1000
9
1002
{
1002
}
1000
10GENPOS
1070
     4
1000
10
1002
{
1002
}
1000
11GENPOS
1070
     4
1000
11
1002
{
1002
}
1000
12GENPOS
1070
     4
1000
12
1002
{
1002
}
1000
13GENPOS
1070
     4
1000
13
1002
{
1002
}
1000
14GENPOS
1070
     4
1000
14
1002
{
1002
}
1000
15GENPOS
1070
     4
1000
15
1002
{
1002
}
1000
16GENPOS
1070
     4
1000
16
1002
{
1002
}
1000
17GENPOS
1070
     4
1000
17
1002
{
1002
}
1000
18GENPOS
1070
     4
1000
18
1002
{
1002
}
1000
19GENPOS
1070
     4
1000
19
1002
{
1002
}
1000
20GENPOS
1070
     4
1000
20
1002
{
1002
}
1000
21GENPOS
1070
     4
1000
21
1002
{
1002
}
1000
22GENPOS
1070
     4
1000
22
1002
{
1002
}
1000
23GENPOS
1070
     4
1000
23
1002
{
1002
}
1002
}
1000
DIN985
1070
     0
1002
{
1000
POSITION
1070
     4
1000
1
1002
{
1002
}
1000
MENGE
1070
     4
1000
2
1002
{
1002
}
1000
BLATT
1070
     4
1000
3
1002
{
1002
}
1000
BENENN
1070
     4
1000
5
1002
{
1002
}
1000
BENENN2
1070
     4
1000
6
1002
{
1002
}
1000
NORM
1070
     4
1000
7
1002
{
1002
}
1000
NORM2
1070
     4
1000
8
1002
{
1002
}
1000
WERKSTOFF
1070
     4
1000
9
1002
{
1002
}
1000
WERKSTOFF2
1070
     4
1000
10
1002
{
1002
}
1002
}
1000
DIN986
1070
     0
1002
{
1000
POSITION
1070
     4
1000
1
1002
{
1002
}
1000
MENGE
1070
     4
1000
2
1002
{
1002
}
1000
BLATT
1070
     4
1000
3
1002
{
1002
}
1000
BENENN
1070
     4
1000
5
1002
{
1002
}
1000
BENENN2
1070
     4
1000
6
1002
{
1002
}
1000
NORM
1070
     4
1000
7
1002
{
1002
}
1000
NORM2
1070
     4
1000
8
1002
{
1002
}
1000
WERKSTOFF
1070
     4
1000
9
1002
{
1002
}
1000
WERKSTOFF2
1070
     4
1000
10
1002
{
1002
}
1002
}
1000
DIN987
1070
     0
1002
{
1000
POSITION
1070
     4
1000
1
1002
{
1002
}
1000
MENGE
1070
     4
1000
2
1002
{
1002
}
1000
BLATT
1070
     4
1000
3
1002
{
1002
}
1000
BENENN
1070
     4
1000
5
1002
{
1002
}
1000
BENENN2
1070
     4
1000
6
1002
{
1002
}
1000
NORM
1070
     4
1000
7
1002
{
1002
}
1000
NORM2
1070
     4
1000
8
1002
{
1002
}
1000
WERKSTOFF
1070
     4
1000
9
1002
{
1002
}
1000
WERKSTOFF2
1070
     4
1000
10
1002
{
1002
}
1002
}
1002
}
  0
APPID
  5
378
100
AcDbSymbolTableRecord
100
AcDbRegAppTableRecord
  2
GENIUS_GENCFG1_13
 70
     0
1001
GENIUS_GENCFG_13
1071
881154008
1000
378
1000
GEN@LAYER@DEFS
1070
     9
1000
GenCfgObject
1000
GenCfgShort
1000
GenCfgReal
1000
GenCfgBool
1000
GenCfgString
1000
GenCfgDim
1000
GenCfgAttrInf
1000
GenCfgLaySection
1000
GenCfgLayer
1000
Basic
1070
     0
1002
{
1000
0
1070
     8
1000
0
1002
{
1000
Color
1070
     1
1070
     7
1002
{
1002
}
1000
LType
1070
     4
1000
CONTINUOUS
1002
{
1002
}
1000
Base
1070
     3
1070
     0
1002
{
1002
}
1002
}
1000
1
1070
     8
1000
1
1002
{
1000
Color
1070
     1
1070
    14
1002
{
1002
}
1000
LType
1070
     4
1000
CONTINUOUS
1002
{
1002
}
1000
Base
1070
     3
1070
     0
1002
{
1002
}
1002
}
1000
2
1070
     8
1000
2
1002
{
1000
Color
1070
     1
1070
     5
1002
{
1002
}
1000
LType
1070
     4
1000
CONTINUOUS
1002
{
1002
}
1000
Base
1070
     3
1070
     0
1002
{
1002
}
1002
}
1000
3
1070
     8
1000
3
1002
{
1000
Color
1070
     1
1070
     6
1002
{
1002
}
1000
LType
1070
     4
1000
GEN3
1002
{
1002
}
1000
Base
1070
     3
1070
     0
1002
{
1002
}
1002
}
1000
4
1070
     8
1000
4
1002
{
1000
Color
1070
     1
1070
     3
1002
{
1002
}
1000
LType
1070
     4
1000
CONTINUOUS
1002
{
1002
}
1000
Base
1070
     3
1070
     0
1002
{
1002
}
1002
}
1000
5
1070
     8
1000
5
1002
{
1000
Color
1070
     1
1070
     3
1002
{
1002
}
1000
LType
1070
     4
1000
CONTINUOUS
1002
{
1002
}
1000
Base
1070
     3
1070
     0
1002
{
1002
}
1002
}
1000
6
1070
     8
1000
6
1002
{
1000
Color
1070
     1
1070
     2
1002
{
1002
}
1000
LType
1070
     4
1000
CONTINUOUS
1002
{
1002
}
1000
Base
1070
     3
1070
     0
1002
{
1002
}
1002
}
1000
7
1070
     8
1000
7
1002
{
1000
Color
1070
     1
1070
     4
1002
{
1002
}
1000
LType
1070
     4
1000
GEN7
1002
{
1002
}
1000
Base
1070
     3
1070
     0
1002
{
1002
}
1002
}
1000
8
1070
     8
1000
8
1002
{
1000
Color
1070
     1
1070
     1
1002
{
1002
}
1000
LType
1070
     4
1000
CONTINUOUS
1002
{
1002
}
1000
Base
1070
     3
1070
     0
1002
{
1002
}
1002
}
1000
3A
1070
     8
1000
3A
1002
{
1000
Color
1070
     1
1070
     6
1002
{
1002
}
1000
LType
1070
     4
1000
GEN3A
1002
{
1002
}
1000
Base
1070
     3
1070
     0
1002
{
1002
}
1002
}
1000
7A
1070
     8
1000
7A
1002
{
1000
Color
1070
     1
1070
     4
1002
{
1002
}
1000
LType
1070
     4
1000
GEN7A
1002
{
1002
}
1000
Base
1070
     3
1070
     0
1002
{
1002
}
1002
}
1000
2A
1070
     8
1000
2A
1002
{
1000
Color
1070
     1
1070
     7
1002
{
1002
}
1000
LType
1070
     4
1000
GEN7
1002
{
1002
}
1000
Base
1070
     3
1070
     0
1002
{
1002
}
1002
}
1000
4A
1070
     8
1000
4A
1002
{
1000
Color
1070
     1
1070
     3
1002
{
1002
}
1000
LType
1070
     4
1000
GEN4A
1002
{
1002
}
1000
Base
1070
     3
1070
     0
1002
{
1002
}
1002
}
1000
9
1070
     8
1000
9
1002
{
1000
Color
1070
     1
1070
   253
1002
{
1002
}
1000
LType
1070
     4
1000
CONTINUOUS
1002
{
1002
}
1000
Base
1070
     3
1070
     0
1002
{
1002
}
1002
}
1002
}
1000
Standard
1070
     0
1002
{
1000
0N
1070
     8
1000
0N
1002
{
1000
Color
1070
     1
1070
     7
1002
{
1002
}
1000
LType
1070
     4
1000
CONTINUOUS
1002
{
1002
}
1000
Base
1070
     3
1070
     0
1002
{
1002
}
1002
}
1000
1N
1070
     8
1000
1N
1002
{
1000
Color
1070
     1
1070
    14
1002
{
1002
}
1000
LType
1070
     4
1000
CONTINUOUS
1002
{
1002
}
1000
Base
1070
     3
1070
     0
1002
{
1002
}
1002
}
1000
2N
1070
     8
1000
2N
1002
{
1000
Color
1070
     1
1070
     5
1002
{
1002
}
1000
LType
1070
     4
1000
CONTINUOUS
1002
{
1002
}
1000
Base
1070
     3
1070
     0
1002
{
1002
}
1002
}
1000
3N
1070
     8
1000
3N
1002
{
1000
Color
1070
     1
1070
     6
1002
{
1002
}
1000
LType
1070
     4
1000
GEN3
1002
{
1002
}
1000
Base
1070
     3
1070
     0
1002
{
1002
}
1002
}
1000
4N
1070
     8
1000
4N
1002
{
1000
Color
1070
     1
1070
     3
1002
{
1002
}
1000
LType
1070
     4
1000
CONTINUOUS
1002
{
1002
}
1000
Base
1070
     3
1070
     0
1002
{
1002
}
1002
}
1000
5N
1070
     8
1000
5N
1002
{
1000
Color
1070
     1
1070
     3
1002
{
1002
}
1000
LType
1070
     4
1000
CONTINUOUS
1002
{
1002
}
1000
Base
1070
     3
1070
     0
1002
{
1002
}
1002
}
1000
6N
1070
     8
1000
6N
1002
{
1000
Color
1070
     1
1070
     2
1002
{
1002
}
1000
LType
1070
     4
1000
CONTINUOUS
1002
{
1002
}
1000
Base
1070
     3
1070
     0
1002
{
1002
}
1002
}
1000
7N
1070
     8
1000
7N
1002
{
1000
Color
1070
     1
1070
     4
1002
{
1002
}
1000
LType
1070
     4
1000
GEN7
1002
{
1002
}
1000
Base
1070
     3
1070
     0
1002
{
1002
}
1002
}
1000
8N
1070
     8
1000
8N
1002
{
1000
Color
1070
     1
1070
     1
1002
{
1002
}
1000
LType
1070
     4
1000
CONTINUOUS
1002
{
1002
}
1000
Base
1070
     3
1070
     0
1002
{
1002
}
1002
}
1000
3AN
1070
     8
1000
3AN
1002
{
1000
Color
1070
     1
1070
     6
1002
{
1002
}
1000
LType
1070
     4
1000
GEN3A
1002
{
1002
}
1000
Base
1070
     3
1070
     0
1002
{
1002
}
1002
}
1000
7AN
1070
     8
1000
7AN
1002
{
1000
Color
1070
     1
1070
     4
1002
{
1002
}
1000
LType
1070
     4
1000
GEN7A
1002
{
1002
}
1000
Base
1070
     3
1070
     0
1002
{
1002
}
1002
}
1000
2AN
1070
     8
1000
2AN
1002
{
1000
Color
1070
     1
1070
     7
1002
{
1002
}
1000
LType
1070
     4
1000
GEN7
1002
{
1002
}
1000
Base
1070
     3
1070
     0
1002
{
1002
}
1002
}
1000
4AN
1070
     8
1000
4AN
1002
{
1000
Color
1070
     1
1070
     3
1002
{
1002
}
1000
LType
1070
     4
1000
GEN4A
1002
{
1002
}
1000
Base
1070
     3
1070
     0
1002
{
1002
}
1002
}
1000
9N
1070
     8
1000
9N
1002
{
1000
Color
1070
     1
1070
   253
1002
{
1002
}
1000
LType
1070
     4
1000
CONTINUOUS
1002
{
1002
}
1000
Base
1070
     3
1070
     0
1002
{
1002
}
1002
}
1002
}
1000
Extra
1070
     0
1002
{
1000
Klin
1070
     8
1000
KLIN
1002
{
1000
Color
1070
     1
1070
     1
1002
{
1002
}
1000
LType
1070
     4
1000
CONTINUOUS
1002
{
1002
}
1000
Base
1070
     3
1070
     1
1002
{
1002
}
1002
}
1000
Info
1070
     8
1000
INFO
1002
{
1000
Color
1070
     1
1070
     4
1002
{
1002
}
1000
LType
1070
     4
1000
CONTINUOUS
1002
{
1002
}
1000
Base
1070
     3
1070
     1
1002
{
1002
}
1002
}
1000
Rahm2
1070
     8
1000
RAHM2
1002
{
1000
Color
1070
     1
1070
     1
1002
{
1002
}
1000
LType
1070
     4
1000
CONTINUOUS
1002
{
1002
}
1000
Base
1070
     3
1070
     1
1002
{
1002
}
1002
}
1000
Rahm3
1070
     8
1000
RAHM3
1002
{
1000
Color
1070
     1
1070
     2
1002
{
1002
}
1000
LType
1070
     4
1000
CONTINUOUS
1002
{
1002
}
1000
Base
1070
     3
1070
     1
1002
{
1002
}
1002
}
1000
Rahm5
1070
     8
1000
RAHM5
1002
{
1000
Color
1070
     1
1070
     7
1002
{
1002
}
1000
LType
1070
     4
1000
CONTINUOUS
1002
{
1002
}
1000
Base
1070
     3
1070
     1
1002
{
1002
}
1002
}
1000
View
1070
     8
1000
VIEW
1002
{
1000
Color
1070
     1
1070
     1
1002
{
1002
}
1000
LType
1070
     4
1000
CONTINUOUS
1002
{
1002
}
1000
Base
1070
     3
1070
     1
1002
{
1002
}
1002
}
1000
Behind
1070
     8
1000
BEHIND
1002
{
1000
Color
1070
     1
1070
   253
1002
{
1002
}
1000
LType
1070
     4
1000
CONTINUOUS
1002
{
1002
}
1000
Base
1070
     3
1070
     1
1002
{
1002
}
1002
}
1002
}
  0
APPID
  5
379
100
AcDbSymbolTableRecord
100
AcDbRegAppTableRecord
  2
GENIUS_GENCFG2_13
 70
     0
1001
GENIUS_GENCFG_13
1071
881154008
1000
379
1000
GEN@LAYER@ENTSORT
1070
    10
1000
GenCfgObject
1000
GenCfgShort
1000
GenCfgReal
1000
GenCfgBool
1000
GenCfgString
1000
GenCfgDim
1000
GenCfgAttrInf
1000
GenCfgLaySection
1000
GenCfgLayer
1000
GenCfgEntSort
1000
ALTR
1070
     9
1000
4
1002
{
1000
Class
1070
     4
1000

1002
{
1002
}
1000
Color
1070
     1
1070
     7
1002
{
1002
}
1000
LType
1070
     4
1000
GEN3A
1002
{
1002
}
1002
}
1000
BELI
1070
     9
1000
4
1002
{
1000
Class
1070
     4
1000

1002
{
1002
}
1000
Color
1070
     1
1070
   256
1002
{
1002
}
1000
LType
1070
     4
1000
BYLAYER
1002
{
1002
}
1002
}
1000
BHNV
1070
     9
1000
9
1002
{
1000
Class
1070
     4
1000
INV
1002
{
1002
}
1000
Color
1070
     1
1070
   256
1002
{
1002
}
1000
LType
1070
     4
1000
BYLAYER
1002
{
1002
}
1002
}
1000
BHNVS
1070
     9
1000
BEHIND
1002
{
1000
Class
1070
     4
1000
INV
1002
{
1002
}
1000
Color
1070
     1
1070
   256
1002
{
1002
}
1000
LType
1070
     4
1000
BYLAYER
1002
{
1002
}
1002
}
1000
BLID
1070
     9
1000
4A
1002
{
1000
Class
1070
     4
1000

1002
{
1002
}
1000
Color
1070
     1
1070
   256
1002
{
1002
}
1000
LType
1070
     4
1000
BYLAYER
1002
{
1002
}
1002
}
1000
BOAP
1070
     9
1000
4A
1002
{
1000
Class
1070
     4
1000

1002
{
1002
}
1000
Color
1070
     1
1070
   256
1002
{
1002
}
1000
LType
1070
     4
1000
BYLAYER
1002
{
1002
}
1002
}
1000
BOR2
1070
     9
1000
RAHM2
1002
{
1000
Class
1070
     4
1000
SPZ,SYM
1002
{
1002
}
1000
Color
1070
     1
1070
   256
1002
{
1002
}
1000
LType
1070
     4
1000
BYLAYER
1002
{
1002
}
1002
}
1000
BOR3
1070
     9
1000
RAHM3
1002
{
1000
Class
1070
     4
1000
SPZ,SYM
1002
{
1002
}
1000
Color
1070
     1
1070
   256
1002
{
1002
}
1000
LType
1070
     4
1000
BYLAYER
1002
{
1002
}
1002
}
1000
BOR5
1070
     9
1000
RAHM5
1002
{
1000
Class
1070
     4
1000
SPZ,SYM
1002
{
1002
}
1000
Color
1070
     1
1070
   256
1002
{
1002
}
1000
LType
1070
     4
1000
BYLAYER
1002
{
1002
}
1002
}
1000
BOR7
1070
     9
1000
RAHM5
1002
{
1000
Class
1070
     4
1000
SPZ,SYM
1002
{
1002
}
1000
Color
1070
     1
1070
     7
1002
{
1002
}
1000
LType
1070
     4
1000
CONTINUOUS
1002
{
1002
}
1002
}
1000
BPAP
1070
     9
1000
4A
1002
{
1000
Class
1070
     4
1000

1002
{
1002
}
1000
Color
1070
     1
1070
   256
1002
{
1002
}
1000
LType
1070
     4
1000
BYLAYER
1002
{
1002
}
1002
}
1000
BPEX
1070
     9
1000
4A
1002
{
1000
Class
1070
     4
1000

1002
{
1002
}
1000
Color
1070
     1
1070
   256
1002
{
1002
}
1000
LType
1070
     4
1000
BYLAYER
1002
{
1002
}
1002
}
1000
BTDI
1070
     9
1000
5
1002
{
1000
Class
1070
     4
1000
DIM,SYM
1002
{
1002
}
1000
Color
1070
     1
1070
   256
1002
{
1002
}
1000
LType
1070
     4
1000
BYLAYER
1002
{
1002
}
1002
}
1000
CAL2
1070
     9
1000
4
1002
{
1000
Class
1070
     4
1000
SYM
1002
{
1002
}
1000
Color
1070
     1
1070
   256
1002
{
1002
}
1000
LType
1070
     4
1000
BYLAYER
1002
{
1002
}
1002
}
1000
CAL3
1070
     9
1000
4
1002
{
1000
Class
1070
     4
1000
SYM
1002
{
1002
}
1000
Color
1070
     1
1070
     2
1002
{
1002
}
1000
LType
1070
     4
1000
BYLAYER
1002
{
1002
}
1002
}
1000
CAL5
1070
     9
1000
4
1002
{
1000
Class
1070
     4
1000
SYM
1002
{
1002
}
1000
Color
1070
     1
1070
     7
1002
{
1002
}
1000
LType
1070
     4
1000
BYLAYER
1002
{
1002
}
1002
}
1000
CAL7
1070
     9
1000
4
1002
{
1000
Class
1070
     4
1000
SYM
1002
{
1002
}
1000
Color
1070
     1
1070
     5
1002
{
1002
}
1000
LType
1070
     4
1000
BYLAYER
1002
{
1002
}
1002
}
1000
CENN
1070
     9
1000
7A
1002
{
1000
Class
1070
     4
1000
CEN
1002
{
1002
}
1000
Color
1070
     1
1070
   256
1002
{
1002
}
1000
LType
1070
     4
1000
BYLAYER
1002
{
1002
}
1002
}
1000
CENW
1070
     9
1000
7
1002
{
1000
Class
1070
     4
1000
CEN
1002
{
1002
}
1000
Color
1070
     1
1070
   256
1002
{
1002
}
1000
LType
1070
     4
1000
BYLAYER
1002
{
1002
}
1002
}
1000
CLIN
1070
     9
1000
KLIN
1002
{
1000
Class
1070
     4
1000
SPZ
1002
{
1002
}
1000
Color
1070
     1
1070
   256
1002
{
1002
}
1000
LType
1070
     4
1000
BYLAYER
1002
{
1002
}
1002
}
1000
CON1
1070
     9
1000
0
1002
{
1000
Class
1070
     4
1000
CON,BGD
1002
{
1002
}
1000
Color
1070
     1
1070
   256
1002
{
1002
}
1000
LType
1070
     4
1000
BYLAYER
1002
{
1002
}
1002
}
1000
CON2
1070
     9
1000
1
1002
{
1000
Class
1070
     4
1000
CON,BGD
1002
{
1002
}
1000
Color
1070
     1
1070
   256
1002
{
1002
}
1000
LType
1070
     4
1000
BYLAYER
1002
{
1002
}
1002
}
1000
CON3
1070
     9
1000
2
1002
{
1000
Class
1070
     4
1000
CON,BGD
1002
{
1002
}
1000
Color
1070
     1
1070
   256
1002
{
1002
}
1000
LType
1070
     4
1000
BYLAYER
1002
{
1002
}
1002
}
1000
CON4
1070
     9
1000
2
1002
{
1000
Class
1070
     4
1000
CON,BGD
1002
{
1002
}
1000
Color
1070
     1
1070
   256
1002
{
1002
}
1000
LType
1070
     4
1000
BYLAYER
1002
{
1002
}
1002
}
1000
DERP
1070
     9
1000
4
1002
{
1000
Class
1070
     4
1000

1002
{
1002
}
1000
Color
1070
     1
1070
   256
1002
{
1002
}
1000
LType
1070
     4
1000
BYLAYER
1002
{
1002
}
1002
}
1000
DETA
1070
     9
1000
4
1002
{
1000
Class
1070
     4
1000

1002
{
1002
}
1000
Color
1070
     1
1070
   256
1002
{
1002
}
1000
LType
1070
     4
1000
BYLAYER
1002
{
1002
}
1002
}
1000
DIAG
1070
     9
1000
5
1002
{
1000
Class
1070
     4
1000
SYM
1002
{
1002
}
1000
Color
1070
     1
1070
   256
1002
{
1002
}
1000
LType
1070
     4
1000
BYLAYER
1002
{
1002
}
1002
}
1000
DILI
1070
     9
1000
5
1002
{
1000
Class
1070
     4
1000
DIM,SYM
1002
{
1002
}
1000
Color
1070
     1
1070
   256
1002
{
1002
}
1000
LType
1070
     4
1000
BYLAYER
1002
{
1002
}
1002
}
1000
DITX
1070
     9
1000
5
1002
{
1000
Class
1070
     4
1000
DIM,SYM
1002
{
1002
}
1000
Color
1070
     1
1070
     2
1002
{
1002
}
1000
LType
1070
     4
1000
CONTINUOUS
1002
{
1002
}
1002
}
1000
DITO2
1070
     9
1000
5
1002
{
1000
Class
1070
     4
1000
DIM,SYM
1002
{
1002
}
1000
Color
1070
     1
1070
     3
1002
{
1002
}
1000
LType
1070
     4
1000
BYLAYER
1002
{
1002
}
1002
}
1000
DITO3
1070
     9
1000
5
1002
{
1000
Class
1070
     4
1000
DIM,SYM
1002
{
1002
}
1000
Color
1070
     1
1070
     2
1002
{
1002
}
1000
LType
1070
     4
1000
BYLAYER
1002
{
1002
}
1002
}
1000
DIXL
1070
     9
1000
5
1002
{
1000
Class
1070
     4
1000
DIM,SYM
1002
{
1002
}
1000
Color
1070
     1
1070
   256
1002
{
1002
}
1000
LType
1070
     4
1000
BYLAYER
1002
{
1002
}
1002
}
1000
EXMP
1070
     9
1000
4A
1002
{
1000
Class
1070
     4
1000

1002
{
1002
}
1000
Color
1070
     1
1070
   256
1002
{
1002
}
1000
LType
1070
     4
1000
BYLAYER
1002
{
1002
}
1002
}
1000
FEMN
1070
     9
1000
8
1002
{
1000
Class
1070
     4
1000

1002
{
1002
}
1000
Color
1070
     1
1070
   256
1002
{
1002
}
1000
LType
1070
     4
1000
BYLAYER
1002
{
1002
}
1002
}
1000
FEMPN
1070
     9
1000
8
1002
{
1000
Class
1070
     4
1000
SYM
1002
{
1002
}
1000
Color
1070
     1
1070
     3
1002
{
1002
}
1000
LType
1070
     4
1000
BYLAYER
1002
{
1002
}
1002
}
1000
FEMSP
1070
     9
1000
4A
1002
{
1000
Class
1070
     4
1000

1002
{
1002
}
1000
Color
1070
     1
1070
   256
1002
{
1002
}
1000
LType
1070
     4
1000
CONTINUOUS
1002
{
1002
}
1002
}
1000
FEMST
1070
     9
1000
4A
1002
{
1000
Class
1070
     4
1000
SYM
1002
{
1002
}
1000
Color
1070
     1
1070
     3
1002
{
1002
}
1000
LType
1070
     4
1000
BYLAYER
1002
{
1002
}
1002
}
1000
FEMVN
1070
     9
1000
2
1002
{
1000
Class
1070
     4
1000
CON
1002
{
1002
}
1000
Color
1070
     1
1070
   256
1002
{
1002
}
1000
LType
1070
     4
1000
BYLAYER
1002
{
1002
}
1002
}
1000
FEMVT
1070
     9
1000
2
1002
{
1000
Class
1070
     4
1000
SYM
1002
{
1002
}
1000
Color
1070
     1
1070
     3
1002
{
1002
}
1000
LType
1070
     4
1000
BYLAYER
1002
{
1002
}
1002
}
1000
FLAT
1070
     9
1000
0
1002
{
1000
Class
1070
     4
1000

1002
{
1002
}
1000
Color
1070
     1
1070
   256
1002
{
1002
}
1000
LType
1070
     4
1000
BYLAYER
1002
{
1002
}
1002
}
1000
FRAR
1070
     9
1000
4A
1002
{
1000
Class
1070
     4
1000

1002
{
1002
}
1000
Color
1070
     1
1070
   256
1002
{
1002
}
1000
LType
1070
     4
1000
BYLAYER
1002
{
1002
}
1002
}
1000
GRLI
1070
     9
1000
5
1002
{
1000
Class
1070
     4
1000
SYM
1002
{
1002
}
1000
Color
1070
     1
1070
   256
1002
{
1002
}
1000
LType
1070
     4
1000
BYLAYER
1002
{
1002
}
1002
}
1000
GVLI
1070
     9
1000
4A
1002
{
1000
Class
1070
     4
1000

1002
{
1002
}
1000
Color
1070
     1
1070
   256
1002
{
1002
}
1000
LType
1070
     4
1000
BYLAYER
1002
{
1002
}
1002
}
1000
HATC
1070
     9
1000
8
1002
{
1000
Class
1070
     4
1000
HTC,BGD
1002
{
1002
}
1000
Color
1070
     1
1070
   256
1002
{
1002
}
1000
LType
1070
     4
1000
BYLAYER
1002
{
1002
}
1002
}
1000
HIDN
1070
     9
1000
3A
1002
{
1000
Class
1070
     4
1000
HID,BGD
1002
{
1002
}
1000
Color
1070
     1
1070
   256
1002
{
1002
}
1000
LType
1070
     4
1000
BYLAYER
1002
{
1002
}
1002
}
1000
HIDW
1070
     9
1000
3
1002
{
1000
Class
1070
     4
1000
HID,BGD
1002
{
1002
}
1000
Color
1070
     1
1070
   256
1002
{
1002
}
1000
LType
1070
     4
1000
BYLAYER
1002
{
1002
}
1002
}
1000
HLIN
1070
     9
1000
4
1002
{
1000
Class
1070
     4
1000
BGD
1002
{
1002
}
1000
Color
1070
     1
1070
   256
1002
{
1002
}
1000
LType
1070
     4
1000
BYLAYER
1002
{
1002
}
1002
}
1000
HOCN
1070
     9
1000
7A
1002
{
1000
Class
1070
     4
1000
CEN
1002
{
1002
}
1000
Color
1070
     1
1070
   256
1002
{
1002
}
1000
LType
1070
     4
1000
BYLAYER
1002
{
1002
}
1002
}
1000
HOCW
1070
     9
1000
7
1002
{
1000
Class
1070
     4
1000
CEN
1002
{
1002
}
1000
Color
1070
     1
1070
   256
1002
{
1002
}
1000
LType
1070
     4
1000
BYLAYER
1002
{
1002
}
1002
}
1000
INFO
1070
     9
1000
INFO
1002
{
1000
Class
1070
     4
1000
SPZ,SYM
1002
{
1002
}
1000
Color
1070
     1
1070
   256
1002
{
1002
}
1000
LType
1070
     4
1000
BYLAYER
1002
{
1002
}
1002
}
1000
LADI
1070
     9
1000
4
1002
{
1000
Class
1070
     4
1000
BGD
1002
{
1002
}
1000
Color
1070
     1
1070
   256
1002
{
1002
}
1000
LType
1070
     4
1000
BYLAYER
1002
{
1002
}
1002
}
1000
LEAD
1070
     9
1000
5
1002
{
1000
Class
1070
     4
1000
SYM
1002
{
1002
}
1000
Color
1070
     1
1070
   256
1002
{
1002
}
1000
LType
1070
     4
1000
BYLAYER
1002
{
1002
}
1002
}
1000
N_BHNV
1070
     9
1000
9N
1002
{
1000
Class
1070
     4
1000
INV
1002
{
1002
}
1000
Color
1070
     1
1070
   256
1002
{
1002
}
1000
LType
1070
     4
1000
BYLAYER
1002
{
1002
}
1002
}
1000
N_CON1
1070
     9
1000
0N
1002
{
1000
Class
1070
     4
1000
CON,BGD
1002
{
1002
}
1000
Color
1070
     1
1070
   256
1002
{
1002
}
1000
LType
1070
     4
1000
BYLAYER
1002
{
1002
}
1002
}
1000
N_CON2
1070
     9
1000
1N
1002
{
1000
Class
1070
     4
1000
CON,BGD
1002
{
1002
}
1000
Color
1070
     1
1070
   256
1002
{
1002
}
1000
LType
1070
     4
1000
BYLAYER
1002
{
1002
}
1002
}
1000
N_CON3
1070
     9
1000
2N
1002
{
1000
Class
1070
     4
1000
CON,BGD
1002
{
1002
}
1000
Color
1070
     1
1070
   256
1002
{
1002
}
1000
LType
1070
     4
1000
BYLAYER
1002
{
1002
}
1002
}
1000
N_CON4
1070
     9
1000
2N
1002
{
1000
Class
1070
     4
1000
CON,BGD
1002
{
1002
}
1000
Color
1070
     1
1070
   256
1002
{
1002
}
1000
LType
1070
     4
1000
BYLAYER
1002
{
1002
}
1002
}
1000
N_CENN
1070
     9
1000
7AN
1002
{
1000
Class
1070
     4
1000
CEN
1002
{
1002
}
1000
Color
1070
     1
1070
   256
1002
{
1002
}
1000
LType
1070
     4
1000
BYLAYER
1002
{
1002
}
1002
}
1000
N_CENW
1070
     9
1000
7N
1002
{
1000
Class
1070
     4
1000
CEN
1002
{
1002
}
1000
Color
1070
     1
1070
   256
1002
{
1002
}
1000
LType
1070
     4
1000
BYLAYER
1002
{
1002
}
1002
}
1000
N_DILI
1070
     9
1000
5N
1002
{
1000
Class
1070
     4
1000
DIM,SYM
1002
{
1002
}
1000
Color
1070
     1
1070
   256
1002
{
1002
}
1000
LType
1070
     4
1000
BYLAYER
1002
{
1002
}
1002
}
1000
N_DITX
1070
     9
1000
5N
1002
{
1000
Class
1070
     4
1000
DIM,SYM
1002
{
1002
}
1000
Color
1070
     1
1070
     2
1002
{
1002
}
1000
LType
1070
     4
1000
CONTINUOUS
1002
{
1002
}
1002
}
1000
N_DIXL
1070
     9
1000
5N
1002
{
1000
Class
1070
     4
1000
DIM,SYM
1002
{
1002
}
1000
Color
1070
     1
1070
   256
1002
{
1002
}
1000
LType
1070
     4
1000
BYLAYER
1002
{
1002
}
1002
}
1000
N_HATC
1070
     9
1000
8N
1002
{
1000
Class
1070
     4
1000
HTC,BGD
1002
{
1002
}
1000
Color
1070
     1
1070
   256
1002
{
1002
}
1000
LType
1070
     4
1000
BYLAYER
1002
{
1002
}
1002
}
1000
N_HIDN
1070
     9
1000
3AN
1002
{
1000
Class
1070
     4
1000
HID,BGD
1002
{
1002
}
1000
Color
1070
     1
1070
   256
1002
{
1002
}
1000
LType
1070
     4
1000
BYLAYER
1002
{
1002
}
1002
}
1000
N_HIDW
1070
     9
1000
3N
1002
{
1000
Class
1070
     4
1000
HID,BGD
1002
{
1002
}
1000
Color
1070
     1
1070
   256
1002
{
1002
}
1000
LType
1070
     4
1000
BYLAYER
1002
{
1002
}
1002
}
1000
N_PHAN
1070
     9
1000
4AN
1002
{
1000
Class
1070
     4
1000

1002
{
1002
}
1000
Color
1070
     1
1070
   256
1002
{
1002
}
1000
LType
1070
     4
1000
BYLAYER
1002
{
1002
}
1002
}
1000
N_POSL
1070
     9
1000
5N
1002
{
1000
Class
1070
     4
1000
SYM
1002
{
1002
}
1000
Color
1070
     1
1070
   256
1002
{
1002
}
1000
LType
1070
     4
1000
BYLAYER
1002
{
1002
}
1002
}
1000
N_TCON
1070
     9
1000
0N
1002
{
1000
Class
1070
     4
1000
CON,BGD
1002
{
1002
}
1000
Color
1070
     1
1070
   256
1002
{
1002
}
1000
LType
1070
     4
1000
BYLAYER
1002
{
1002
}
1002
}
1000
N_THLI
1070
     9
1000
4N
1002
{
1000
Class
1070
     4
1000
BGD
1002
{
1002
}
1000
Color
1070
     1
1070
   256
1002
{
1002
}
1000
LType
1070
     4
1000
BYLAYER
1002
{
1002
}
1002
}
1000
N_TLEN
1070
     9
1000
0N
1002
{
1000
Class
1070
     4
1000
CON,BGD
1002
{
1002
}
1000
Color
1070
     1
1070
   256
1002
{
1002
}
1000
LType
1070
     4
1000
BYLAYER
1002
{
1002
}
1002
}
1000
N_TXT3
1070
     9
1000
6N
1002
{
1000
Class
1070
     4
1000
SYM
1002
{
1002
}
1000
Color
1070
     1
1070
   256
1002
{
1002
}
1000
LType
1070
     4
1000
BYLAYER
1002
{
1002
}
1002
}
1000
N_VPLI
1070
     9
1000
2AN
1002
{
1000
Class
1070
     4
1000

1002
{
1002
}
1000
Color
1070
     1
1070
   256
1002
{
1002
}
1000
LType
1070
     4
1000
BYLAYER
1002
{
1002
}
1002
}
1000
PAL2
1070
     9
1000
RAHM2
1002
{
1000
Class
1070
     4
1000
SPZ,SYM
1002
{
1002
}
1000
Color
1070
     1
1070
   256
1002
{
1002
}
1000
LType
1070
     4
1000
BYLAYER
1002
{
1002
}
1002
}
1000
PAL3
1070
     9
1000
RAHM3
1002
{
1000
Class
1070
     4
1000
SPZ,SYM
1002
{
1002
}
1000
Color
1070
     1
1070
   256
1002
{
1002
}
1000
LType
1070
     4
1000
BYLAYER
1002
{
1002
}
1002
}
1000
PAL5
1070
     9
1000
RAHM5
1002
{
1000
Class
1070
     4
1000
SPZ,SYM
1002
{
1002
}
1000
Color
1070
     1
1070
   256
1002
{
1002
}
1000
LType
1070
     4
1000
BYLAYER
1002
{
1002
}
1002
}
1000
PAL7
1070
     9
1000
RAHM5
1002
{
1000
Class
1070
     4
1000
SPZ,SYM
1002
{
1002
}
1000
Color
1070
     1
1070
     7
1002
{
1002
}
1000
LType
1070
     4
1000
CONTINUOUS
1002
{
1002
}
1002
}
1000
PHAN
1070
     9
1000
4A
1002
{
1000
Class
1070
     4
1000

1002
{
1002
}
1000
Color
1070
     1
1070
   256
1002
{
1002
}
1000
LType
1070
     4
1000
BYLAYER
1002
{
1002
}
1002
}
1000
POSL
1070
     9
1000
5
1002
{
1000
Class
1070
     4
1000
SYM
1002
{
1002
}
1000
Color
1070
     1
1070
   256
1002
{
1002
}
1000
LType
1070
     4
1000
BYLAYER
1002
{
1002
}
1002
}
1000
POSN
1070
     9
1000
6
1002
{
1000
Class
1070
     4
1000
SYM
1002
{
1002
}
1000
Color
1070
     1
1070
     7
1002
{
1002
}
1000
LType
1070
     4
1000
BYLAYER
1002
{
1002
}
1002
}
1000
POSREF
1070
     9
1000
6
1002
{
1000
Class
1070
     4
1000
SYM
1002
{
1002
}
1000
Color
1070
     1
1070
     5
1002
{
1002
}
1000
LType
1070
     4
1000
BYLAYER
1002
{
1002
}
1002
}
1000
POSX
1070
     9
1000
5
1002
{
1000
Class
1070
     4
1000
SYM
1002
{
1002
}
1000
Color
1070
     1
1070
     2
1002
{
1002
}
1000
LType
1070
     4
1000
CONTINUOUS
1002
{
1002
}
1002
}
1000
PSEC
1070
     9
1000
4A
1002
{
1000
Class
1070
     4
1000

1002
{
1002
}
1000
Color
1070
     1
1070
   256
1002
{
1002
}
1000
LType
1070
     4
1000
BYLAYER
1002
{
1002
}
1002
}
1000
RCGN
1070
     9
1000
7A
1002
{
1000
Class
1070
     4
1000
CEN
1002
{
1002
}
1000
Color
1070
     1
1070
   256
1002
{
1002
}
1000
LType
1070
     4
1000
BYLAYER
1002
{
1002
}
1002
}
1000
RCGW
1070
     9
1000
7
1002
{
1000
Class
1070
     4
1000
CEN
1002
{
1002
}
1000
Color
1070
     1
1070
   256
1002
{
1002
}
1000
LType
1070
     4
1000
BYLAYER
1002
{
1002
}
1002
}
1000
RFDI
1070
     9
1000
4
1002
{
1000
Class
1070
     4
1000
BGD
1002
{
1002
}
1000
Color
1070
     1
1070
   256
1002
{
1002
}
1000
LType
1070
     4
1000
BYLAYER
1002
{
1002
}
1002
}
1000
RQTR
1070
     9
1000
4
1002
{
1000
Class
1070
     4
1000

1002
{
1002
}
1000
Color
1070
     1
1070
     7
1002
{
1002
}
1000
LType
1070
     4
1000
GEN7A
1002
{
1002
}
1002
}
1000
RSBO
1070
     9
1000
4
1002
{
1000
Class
1070
     4
1000
BGD
1002
{
1002
}
1000
Color
1070
     1
1070
   256
1002
{
1002
}
1000
LType
1070
     4
1000
BYLAYER
1002
{
1002
}
1002
}
1000
SBRK
1070
     9
1000
4
1002
{
1000
Class
1070
     4
1000
BGD
1002
{
1002
}
1000
Color
1070
     1
1070
   256
1002
{
1002
}
1000
LType
1070
     4
1000
BYLAYER
1002
{
1002
}
1002
}
1000
SCEN
1070
     9
1000
7
1002
{
1000
Class
1070
     4
1000

1002
{
1002
}
1000
Color
1070
     1
1070
   256
1002
{
1002
}
1000
LType
1070
     4
1000
CONTINUOUS
1002
{
1002
}
1002
}
1000
SECT
1070
     9
1000
4
1002
{
1000
Class
1070
     4
1000
BGD
1002
{
1002
}
1000
Color
1070
     1
1070
   256
1002
{
1002
}
1000
LType
1070
     4
1000
BYLAYER
1002
{
1002
}
1002
}
1000
SELN
1070
     9
1000
7A
1002
{
1000
Class
1070
     4
1000

1002
{
1002
}
1000
Color
1070
     1
1070
   256
1002
{
1002
}
1000
LType
1070
     4
1000
BYLAYER
1002
{
1002
}
1002
}
1000
SELW
1070
     9
1000
7
1002
{
1000
Class
1070
     4
1000

1002
{
1002
}
1000
Color
1070
     1
1070
   256
1002
{
1002
}
1000
LType
1070
     4
1000
BYLAYER
1002
{
1002
}
1002
}
1000
SSYS
1070
     9
1000
0
1002
{
1000
Class
1070
     4
1000

1002
{
1002
}
1000
Color
1070
     1
1070
   256
1002
{
1002
}
1000
LType
1070
     4
1000
BYLAYER
1002
{
1002
}
1002
}
1000
STLI
1070
     9
1000
4
1002
{
1000
Class
1070
     4
1000

1002
{
1002
}
1000
Color
1070
     1
1070
     7
1002
{
1002
}
1000
LType
1070
     4
1000
GEN3A
1002
{
1002
}
1002
}
1000
SYB1
1070
     9
1000
5
1002
{
1000
Class
1070
     4
1000
SYM
1002
{
1002
}
1000
Color
1070
     1
1070
   256
1002
{
1002
}
1000
LType
1070
     4
1000
BYLAYER
1002
{
1002
}
1002
}
1000
SYB2
1070
     9
1000
5
1002
{
1000
Class
1070
     4
1000
SYM
1002
{
1002
}
1000
Color
1070
     1
1070
   256
1002
{
1002
}
1000
LType
1070
     4
1000
BYLAYER
1002
{
1002
}
1002
}
1000
SYB3
1070
     9
1000
6
1002
{
1000
Class
1070
     4
1000
SYM
1002
{
1002
}
1000
Color
1070
     1
1070
   256
1002
{
1002
}
1000
LType
1070
     4
1000
CONTINUOUS
1002
{
1002
}
1002
}
1000
SYB5
1070
     9
1000
5
1002
{
1000
Class
1070
     4
1000
SYM
1002
{
1002
}
1000
Color
1070
     1
1070
     7
1002
{
1002
}
1000
LType
1070
     4
1000
BYLAYER
1002
{
1002
}
1002
}
1000
SYMN
1070
     9
1000
7A
1002
{
1000
Class
1070
     4
1000
CEN
1002
{
1002
}
1000
Color
1070
     1
1070
   256
1002
{
1002
}
1000
LType
1070
     4
1000
BYLAYER
1002
{
1002
}
1002
}
1000
SYMW
1070
     9
1000
7
1002
{
1000
Class
1070
     4
1000
CEN
1002
{
1002
}
1000
Color
1070
     1
1070
   256
1002
{
1002
}
1000
LType
1070
     4
1000
BYLAYER
1002
{
1002
}
1002
}
1000
TCON
1070
     9
1000
0
1002
{
1000
Class
1070
     4
1000
CON,BGD
1002
{
1002
}
1000
Color
1070
     1
1070
   256
1002
{
1002
}
1000
LType
1070
     4
1000
BYLAYER
1002
{
1002
}
1002
}
1000
THLI
1070
     9
1000
4
1002
{
1000
Class
1070
     4
1000
BGD
1002
{
1002
}
1000
Color
1070
     1
1070
   256
1002
{
1002
}
1000
LType
1070
     4
1000
BYLAYER
1002
{
1002
}
1002
}
1000
TIT2
1070
     9
1000
RAHM2
1002
{
1000
Class
1070
     4
1000
SPZ,SYM
1002
{
1002
}
1000
Color
1070
     1
1070
   256
1002
{
1002
}
1000
LType
1070
     4
1000
BYLAYER
1002
{
1002
}
1002
}
1000
TIT3
1070
     9
1000
RAHM3
1002
{
1000
Class
1070
     4
1000
SPZ,SYM
1002
{
1002
}
1000
Color
1070
     1
1070
   256
1002
{
1002
}
1000
LType
1070
     4
1000
BYLAYER
1002
{
1002
}
1002
}
1000
TIT5
1070
     9
1000
RAHM5
1002
{
1000
Class
1070
     4
1000
SPZ,SYM
1002
{
1002
}
1000
Color
1070
     1
1070
   256
1002
{
1002
}
1000
LType
1070
     4
1000
BYLAYER
1002
{
1002
}
1002
}
1000
TIT7
1070
     9
1000
RAHM5
1002
{
1000
Class
1070
     4
1000
SPZ,SYM
1002
{
1002
}
1000
Color
1070
     1
1070
     7
1002
{
1002
}
1000
LType
1070
     4
1000
CONTINUOUS
1002
{
1002
}
1002
}
1000
TLEN
1070
     9
1000
0
1002
{
1000
Class
1070
     4
1000
CON,BGD
1002
{
1002
}
1000
Color
1070
     1
1070
   256
1002
{
1002
}
1000
LType
1070
     4
1000
BYLAYER
1002
{
1002
}
1002
}
1000
TRKN
1070
     9
1000
7A
1002
{
1000
Class
1070
     4
1000

1002
{
1002
}
1000
Color
1070
     1
1070
   256
1002
{
1002
}
1000
LType
1070
     4
1000
BYLAYER
1002
{
1002
}
1002
}
1000
TRKW
1070
     9
1000
7
1002
{
1000
Class
1070
     4
1000

1002
{
1002
}
1000
Color
1070
     1
1070
   256
1002
{
1002
}
1000
LType
1070
     4
1000
BYLAYER
1002
{
1002
}
1002
}
1000
TRLI
1070
     9
1000
4
1002
{
1000
Class
1070
     4
1000
BGD
1002
{
1002
}
1000
Color
1070
     1
1070
   256
1002
{
1002
}
1000
LType
1070
     4
1000
BYLAYER
1002
{
1002
}
1002
}
1000
TXT1
1070
     9
1000
6
1002
{
1000
Class
1070
     4
1000
SYM
1002
{
1002
}
1000
Color
1070
     1
1070
     2
1002
{
1002
}
1000
LType
1070
     4
1000
BYLAYER
1002
{
1002
}
1002
}
1000
TXT2
1070
     9
1000
6
1002
{
1000
Class
1070
     4
1000
SYM
1002
{
1002
}
1000
Color
1070
     1
1070
     2
1002
{
1002
}
1000
LType
1070
     4
1000
BYLAYER
1002
{
1002
}
1002
}
1000
TXT3
1070
     9
1000
6
1002
{
1000
Class
1070
     4
1000
SYM
1002
{
1002
}
1000
Color
1070
     1
1070
   256
1002
{
1002
}
1000
LType
1070
     4
1000
BYLAYER
1002
{
1002
}
1002
}
1000
TXT5
1070
     9
1000
6
1002
{
1000
Class
1070
     4
1000
SYM
1002
{
1002
}
1000
Color
1070
     1
1070
     7
1002
{
1002
}
1000
LType
1070
     4
1000
BYLAYER
1002
{
1002
}
1002
}
1000
TXT7
1070
     9
1000
6
1002
{
1000
Class
1070
     4
1000
SYM
1002
{
1002
}
1000
Color
1070
     1
1070
     7
1002
{
1002
}
1000
LType
1070
     4
1000
BYLAYER
1002
{
1002
}
1002
}
1000
VIEW
1070
     9
1000
VIEW
1002
{
1000
Class
1070
     4
1000
SPZ
1002
{
1002
}
1000
Color
1070
     1
1070
   256
1002
{
1002
}
1000
LType
1070
     4
1000
BYLAYER
1002
{
1002
}
1002
}
1000
VPLI
1070
     9
1000
2A
1002
{
1000
Class
1070
     4
1000

1002
{
1002
}
1000
Color
1070
     1
1070
   256
1002
{
1002
}
1000
LType
1070
     4
1000
BYLAYER
1002
{
1002
}
1002
}
1000
ZIZA
1070
     9
1000
4
1002
{
1000
Class
1070
     4
1000
BGD
1002
{
1002
}
1000
Color
1070
     1
1070
   256
1002
{
1002
}
1000
LType
1070
     4
1000
GENZIGZAG
1002
{
1002
}
1002
}
  0
APPID
  5
37A
100
AcDbSymbolTableRecord
100
AcDbRegAppTableRecord
  2
GENIUS_GENCFG3_13
 70
     0
1001
GENIUS_GENCFG_13
1071
881154008
1000
37A
1000
GEN@OSWIZ
1070
    12
1000
GenCfgObject
1000
GenCfgShort
1000
GenCfgReal
1000
GenCfgBool
1000
GenCfgString
1000
GenCfgDim
1000
GenCfgAttrInf
1000
GenCfgLaySection
1000
GenCfgLayer
1000
GenCfgEntSort
1000
GenCfgLType
1000
GenCfgFilter
1000
AngleStep
1070
     0
1002
{
1000
M
1070
     2
1040
10.0
1002
{
1002
}
1000
I
1070
     2
1040
0.4
1002
{
1002
}
1002
}
1000
AngleIncr
1070
     2
1040
45.0
1002
{
1002
}
1000
Filter
1070
     0
1002
{
1000
HATCH
1070
    11
1002
{
1000
EntityType
1070
     4
1000
LINE
1002
{
1002
}
1000
Layer
1070
     4
1000
8,8N,*-8,*-8N
1002
{
1002
}
1000
Linetype
1070
     4
1000
*
1002
{
1002
}
1000
Color
1070
     4
1000
*
1002
{
1002
}
1002
}
1000
SYMBOLS
1070
    11
1002
{
1000
EntityType
1070
     4
1000
*
1002
{
1002
}
1000
Layer
1070
     4
1000
[5-6],[5-6]N,*-[5-6],*-[5-6]N
1002
{
1002
}
1000
Linetype
1070
     4
1000
*
1002
{
1002
}
1000
Color
1070
     4
1000
*
1002
{
1002
}
1002
}
1000
FEM
1070
    11
1002
{
1000
EntityType
1070
     4
1000
*
1002
{
1002
}
1000
Layer
1070
     4
1000
4A,4AN,*-4A,*-4AN
1002
{
1002
}
1000
Linetype
1070
     4
1000
*
1002
{
1002
}
1000
Color
1070
     4
1000
*
1002
{
1002
}
1002
}
1002
}
1000
IconSize
1070
     2
1040
1.0
1002
{
1002
}
1000
SnapColor
1070
     1
1070
     3
1002
{
1002
}
  0
APPID
  5
37B
100
AcDbSymbolTableRecord
100
AcDbRegAppTableRecord
  2
GENIUS_GENCFG4_13
 70
     0
1001
GENIUS_GENCFG_13
1071
881154023
1000
37B
1000
GEN
1070
     9
1000
GenCfgObject
1000
GenCfgShort
1000
GenCfgReal
1000
GenCfgBool
1000
GenCfgString
1000
GenCfgDim
1000
GenCfgAttrInf
1000
GenCfgLaySection
1000
GenCfgLType
1000
Balloon
1070
     0
1002
{
1000
GenIF
1070
     1
1070
     0
1002
{
1002
}
1000
GenPosInc
1070
     1
1070
    10
1002
{
1002
}
1000
GenPosBlk
1070
     1
1070
     8
1002
{
1002
}
1000
GenPosVar
1070
     1
1070
     2
1002
{
1002
}
1000
GenZiCir
1070
     2
1040
1.5
1002
{
1002
}
1000
MaxCharForCenteredText
1070
     1
1070
    30
1002
{
1002
}
1000
Snap
1070
     0
1002
{
1000
ActivationRadius
1070
     2
1040
1.0
1002
{
1002
}
1000
M
1070
     0
1002
{
1000
SnapStepX
1070
     2
1040
20.0
1002
{
1002
}
1000
SnapStepY
1070
     2
1040
10.0
1002
{
1002
}
1002
}
1000
I
1070
     0
1002
{
1000
SnapStepX
1070
     2
1040
1.0
1002
{
1002
}
1000
SnapStepY
1070
     2
1040
0.5
1002
{
1002
}
1002
}
1002
}
1002
}
1000
Centerline
1070
     0
1002
{
1000
ScaleNot
1070
     3
1070
     1
1002
{
1002
}
1000
M
1070
     0
1002
{
1000
GenCenAng
1070
     4
1000
45|90|135
1002
{
1002
}
1000
GenCenDia
1070
     2
1040
10.0
1002
{
1002
}
1000
GenCenDias
1070
     4
1000
10|20|30
1002
{
1002
}
1000
GenCenDist
1070
     2
1040
3.0
1002
{
1002
}
1000
GenCenLen
1070
     2
1040
10.0
1002
{
1002
}
1000
GenCenOff
1070
     2
1040
10.0
1002
{
1002
}
1002
}
1000
I
1070
     0
1002
{
1000
GenCenAng
1070
     4
1000
45|90|135
1002
{
1002
}
1000
GenCenDia
1070
     2
1040
0.5
1002
{
1002
}
1000
GenCenDias
1070
     4
1000
0.5|1.0|1.5
1002
{
1002
}
1000
GenCenDist
1070
     2
1040
0.125
1002
{
1002
}
1000
GenCenLen
1070
     2
1040
0.5
1002
{
1002
}
1000
GenCenOff
1070
     2
1040
0.5
1002
{
1002
}
1002
}
1002
}
1000
CLine
1070
     0
1002
{
1000
CAngArray
1070
     4
1000
30|45|60
1002
{
1002
}
1000
Typ
1070
     4
1000
XLINE
1002
{
1002
}
1000
M
1070
     0
1002
{
1000
CLinArray
1070
     4
1000
60
1002
{
1002
}
1002
}
1000
I
1070
     0
1002
{
1000
CLinArray
1070
     4
1000
0.125|0.25|0.5
1002
{
1002
}
1002
}
1002
}
1000
Constraints
1070
     0
1002
{
1000
Color
1070
     0
1002
{
1000
Active_Frame
1070
     1
1070
     2
1002
{
1002
}
1000
Inactive_Frame
1070
     1
1070
     8
1002
{
1002
}
1002
}
1000
Debug
1070
     0
1002
{
1002
}
1000
Editor
1070
     0
1002
{
1002
}
1000
Frame
1070
     0
1002
{
1002
}
1000
Sys
1070
     0
1002
{
1002
}
1002
}
1000
Detail
1070
     0
1002
{
1002
}
1000
Dimension
1070
     5
1002
{
1000
DIMALT
1070
     1
1070
     0
1002
{
1002
}
1000
DIMALTD
1070
     1
1070
     2
1002
{
1002
}
1000
DIMALTTD
1070
     1
1070
     4
1002
{
1002
}
1000
DIMALTTZ
1070
     1
1070
     0
1002
{
1002
}
1000
DIMALTU
1070
     1
1070
     2
1002
{
1002
}
1000
DIMALTZ
1070
     1
1070
     0
1002
{
1002
}
1000
DIMAPOST
1070
     4
1000

1002
{
1002
}
1000
DIMAUNIT
1070
     1
1070
     0
1002
{
1002
}
1000
DIMBLK
1070
     4
1000

1002
{
1002
}
1000
DIMBLK1
1070
     4
1000

1002
{
1002
}
1000
DIMBLK2
1070
     4
1000

1002
{
1002
}
1000
DIMDLE
1070
     2
1040
0.0
1002
{
1002
}
1000
DIMFIT
1070
     1
1070
     3
1002
{
1002
}
1000
DIMJUST
1070
     1
1070
     0
1002
{
1002
}
1000
DIMLFAC
1070
     2
1040
1.0
1002
{
1002
}
1000
DIMLIM
1070
     1
1070
     0
1002
{
1002
}
1000
DIMPOST
1070
     4
1000
<>
1002
{
1002
}
1000
DIMRND
1070
     2
1040
0.0
1002
{
1002
}
1000
DIMSAH
1070
     1
1070
     0
1002
{
1002
}
1000
DIMSCALE
1070
     2
1040
1.0
1002
{
1002
}
1000
DIMSD1
1070
     1
1070
     0
1002
{
1002
}
1000
DIMSD2
1070
     1
1070
     0
1002
{
1002
}
1000
DIMSE1
1070
     1
1070
     0
1002
{
1002
}
1000
DIMSE2
1070
     1
1070
     0
1002
{
1002
}
1000
DIMSOXD
1070
     1
1070
     0
1002
{
1002
}
1000
DIMTAD
1070
     1
1070
     0
1002
{
1002
}
1000
DIMTFAC
1070
     2
1040
0.71
1002
{
1002
}
1000
DIMTIH
1070
     1
1070
     0
1002
{
1002
}
1000
DIMTIX
1070
     1
1070
     0
1002
{
1002
}
1000
DIMTM
1070
     2
1040
0.1
1002
{
1002
}
1000
DIMTOFL
1070
     1
1070
     0
1002
{
1002
}
1000
DIMTOH
1070
     1
1070
     0
1002
{
1002
}
1000
DIMTOL
1070
     1
1070
     0
1002
{
1002
}
1000
DIMTOLJ
1070
     1
1070
     1
1002
{
1002
}
1000
DIMTP
1070
     2
1040
0.1
1002
{
1002
}
1000
DIMTSZ
1070
     2
1040
0.0
1002
{
1002
}
1000
DIMTVP
1070
     2
1040
0.0
1002
{
1002
}
1000
DIMTXSTY
1070
     4
1000
STANDARD
1002
{
1002
}
1000
DIMTZIN
1070
     1
1070
     0
1002
{
1002
}
1000
DIMUNIT
1070
     1
1070
     2
1002
{
1002
}
1000
DIMUPT
1070
     1
1070
     0
1002
{
1002
}
1000
M
1070
     0
1002
{
1000
DIMALTF
1070
     2
1040
0.03937
1002
{
1002
}
1000
DIMASZ
1070
     2
1040
2.5
1002
{
1002
}
1000
DIMCEN
1070
     2
1040
0.0
1002
{
1002
}
1000
DIMDEC
1070
     1
1070
     2
1002
{
1002
}
1000
DIMDLI
1070
     2
1040
7.0
1002
{
1002
}
1000
DIMEXE
1070
     2
1040
1.0
1002
{
1002
}
1000
DIMEXO
1070
     2
1040
1.0
1002
{
1002
}
1000
DIMGAP
1070
     2
1040
0.6
1002
{
1002
}
1000
DIMTDEC
1070
     1
1070
     3
1002
{
1002
}
1000
DIMTXT
1070
     2
1040
3.5
1002
{
1002
}
1000
DIMZIN
1070
     1
1070
     8
1002
{
1002
}
1002
}
1000
I
1070
     0
1002
{
1000
DIMALTF
1070
     2
1040
25.4
1002
{
1002
}
1000
DIMASZ
1070
     2
1040
0.1
1002
{
1002
}
1000
DIMCEN
1070
     2
1040
0.0
1002
{
1002
}
1000
DIMDEC
1070
     1
1070
     4
1002
{
1002
}
1000
DIMDLI
1070
     2
1040
0.5
1002
{
1002
}
1000
DIMEXE
1070
     2
1040
0.1
1002
{
1002
}
1000
DIMEXO
1070
     2
1040
0.05
1002
{
1002
}
1000
DIMGAP
1070
     2
1040
0.06
1002
{
1002
}
1000
DIMTDEC
1070
     1
1070
     4
1002
{
1002
}
1000
DIMTXT
1070
     2
1040
0.12
1002
{
1002
}
1000
DIMZIN
1070
     1
1070
     7
1002
{
1002
}
1002
}
1000
GEN-ISO
1070
     5
1002
{
1000
NAME
1070
     4
1000
GEN-ISO
1002
{
1002
}
1000
DIMTAD
1070
     1
1070
     1
1002
{
1002
}
1000
DIMTOLJ
1070
     1
1070
     0
1002
{
1002
}
1000
DIMTOFL
1070
     1
1070
     1
1002
{
1002
}
1000
M
1070
     0
1002
{
1002
}
1000
I
1070
     0
1002
{
1002
}
1002
}
1000
GEN-ISO-POS
1070
     5
1002
{
1000
NAME
1070
     4
1000
GEN-ISO-POS
1002
{
1002
}
1000
DIMTOLJ
1070
     1
1070
     0
1002
{
1002
}
1000
M
1070
     0
1002
{
1000
DIMASZ
1070
     2
1040
2.5
1002
{
1002
}
1000
DIMGAP
1070
     2
1040
1.5
1002
{
1002
}
1000
DIMTXT
1070
     2
1040
5.0
1002
{
1002
}
1002
}
1000
I
1070
     0
1002
{
1000
DIMASZ
1070
     2
1040
0.1
1002
{
1002
}
1000
DIMGAP
1070
     2
1040
0.06
1002
{
1002
}
1000
DIMTXT
1070
     2
1040
0.2
1002
{
1002
}
1002
}
1000
DIMSCALE
1070
     2
1040
1.0
1002
{
1002
}
1002
}
1000
GEN-ISO-CIR
1070
     5
1002
{
1000
NAME
1070
     4
1000
GEN-ISO$3
1002
{
1002
}
1000
DIMFIT
1070
     1
1070
     0
1002
{
1002
}
1000
DIMTAD
1070
     1
1070
     1
1002
{
1002
}
1000
DIMTIH
1070
     1
1070
     0
1002
{
1002
}
1000
DIMTIX
1070
     1
1070
     0
1002
{
1002
}
1000
DIMTOH
1070
     1
1070
     1
1002
{
1002
}
1000
DIMTOLJ
1070
     1
1070
     0
1002
{
1002
}
1000
DIMTOFL
1070
     1
1070
     0
1002
{
1002
}
1000
DIMUPT
1070
     1
1070
     1
1002
{
1002
}
1000
M
1070
     0
1002
{
1002
}
1000
I
1070
     0
1002
{
1002
}
1002
}
1000
GEN-ISO-RAD
1070
     5
1002
{
1000
NAME
1070
     4
1000
GEN-ISO$4
1002
{
1002
}
1000
DIMFIT
1070
     1
1070
     0
1002
{
1002
}
1000
DIMTAD
1070
     1
1070
     1
1002
{
1002
}
1000
DIMTIH
1070
     1
1070
     0
1002
{
1002
}
1000
DIMTIX
1070
     1
1070
     0
1002
{
1002
}
1000
DIMTOH
1070
     1
1070
     1
1002
{
1002
}
1000
DIMTOLJ
1070
     1
1070
     0
1002
{
1002
}
1000
DIMTOFL
1070
     1
1070
     0
1002
{
1002
}
1000
DIMUPT
1070
     1
1070
     1
1002
{
1002
}
1000
M
1070
     0
1002
{
1002
}
1000
I
1070
     0
1002
{
1002
}
1002
}
1000
GEN-ISO-ORD
1070
     5
1002
{
1000
NAME
1070
     4
1000
GEN-ISO$6
1002
{
1002
}
1000
DIMTOLJ
1070
     1
1070
     0
1002
{
1002
}
1000
M
1070
     0
1002
{
1002
}
1000
I
1070
     0
1002
{
1002
}
1002
}
1000
GEN-ISO-AXE-F
1070
     5
1002
{
1000
NAME
1070
     4
1000
GEN-ISO-AXE-F
1002
{
1002
}
1000
DIMSE1
1070
     1
1070
     1
1002
{
1002
}
1000
DIMSE2
1070
     1
1070
     1
1002
{
1002
}
1000
DIMTAD
1070
     1
1070
     1
1002
{
1002
}
1000
DIMTOLJ
1070
     1
1070
     0
1002
{
1002
}
1000
DIMTOFL
1070
     1
1070
     1
1002
{
1002
}
1000
M
1070
     0
1002
{
1002
}
1000
I
1070
     0
1002
{
1002
}
1002
}
1000
GEN-ISO-AXE-H
1070
     5
1002
{
1000
DIMBLK1
1070
     4
1000
GENAXEH
1002
{
1002
}
1000
DIMLFAC
1070
     2
1040
2.0
1002
{
1002
}
1000
DIMSAH
1070
     1
1070
     1
1002
{
1002
}
1000
DIMSE1
1070
     1
1070
     1
1002
{
1002
}
1000
DIMSE2
1070
     1
1070
     1
1002
{
1002
}
1000
DIMTAD
1070
     1
1070
     1
1002
{
1002
}
1000
DIMTOLJ
1070
     1
1070
     0
1002
{
1002
}
1000
DIMTOFL
1070
     1
1070
     1
1002
{
1002
}
1000
M
1070
     0
1002
{
1002
}
1000
I
1070
     0
1002
{
1002
}
1002
}
1000
GEN-ANSI
1070
     5
1002
{
1000
NAME
1070
     4
1000
GEN-ANSI
1002
{
1002
}
1000
DIMTIH
1070
     1
1070
     1
1002
{
1002
}
1000
DIMTOH
1070
     1
1070
     1
1002
{
1002
}
1000
DIMTAD
1070
     1
1070
     0
1002
{
1002
}
1000
DIMTOLJ
1070
     1
1070
     1
1002
{
1002
}
1000
M
1070
     0
1002
{
1002
}
1000
I
1070
     0
1002
{
1002
}
1002
}
1000
GEN-ANSI-POS
1070
     5
1002
{
1000
NAME
1070
     4
1000
GEN-ANSI-POS
1002
{
1002
}
1000
DIMTOLJ
1070
     1
1070
     1
1002
{
1002
}
1000
M
1070
     0
1002
{
1000
DIMASZ
1070
     2
1040
2.5
1002
{
1002
}
1000
DIMGAP
1070
     2
1040
1.5
1002
{
1002
}
1000
DIMTXT
1070
     2
1040
5.0
1002
{
1002
}
1002
}
1000
I
1070
     0
1002
{
1000
DIMASZ
1070
     2
1040
0.1
1002
{
1002
}
1000
DIMGAP
1070
     2
1040
0.06
1002
{
1002
}
1000
DIMTXT
1070
     2
1040
0.2
1002
{
1002
}
1002
}
1002
}
1000
GEN-ANSI-CIR
1070
     5
1002
{
1000
NAME
1070
     4
1000
GEN-ANSI$3
1002
{
1002
}
1000
DIMFIT
1070
     1
1070
     0
1002
{
1002
}
1000
DIMTAD
1070
     1
1070
     0
1002
{
1002
}
1000
DIMTIH
1070
     1
1070
     1
1002
{
1002
}
1000
DIMTIX
1070
     1
1070
     0
1002
{
1002
}
1000
DIMTOFL
1070
     1
1070
     0
1002
{
1002
}
1000
DIMTOH
1070
     1
1070
     1
1002
{
1002
}
1000
DIMTOLJ
1070
     1
1070
     1
1002
{
1002
}
1000
DIMUPT
1070
     1
1070
     1
1002
{
1002
}
1000
M
1070
     0
1002
{
1002
}
1000
I
1070
     0
1002
{
1002
}
1002
}
1000
GEN-ANSI-RAD
1070
     5
1002
{
1000
NAME
1070
     4
1000
GEN-ANSI$4
1002
{
1002
}
1000
DIMFIT
1070
     1
1070
     0
1002
{
1002
}
1000
DIMTAD
1070
     1
1070
     0
1002
{
1002
}
1000
DIMTIH
1070
     1
1070
     1
1002
{
1002
}
1000
DIMTIX
1070
     1
1070
     0
1002
{
1002
}
1000
DIMTOFL
1070
     1
1070
     0
1002
{
1002
}
1000
DIMTOH
1070
     1
1070
     1
1002
{
1002
}
1000
DIMTOLJ
1070
     1
1070
     1
1002
{
1002
}
1000
DIMUPT
1070
     1
1070
     1
1002
{
1002
}
1000
M
1070
     0
1002
{
1002
}
1000
I
1070
     0
1002
{
1002
}
1002
}
1000
GEN-ANSI-ORD
1070
     5
1002
{
1000
NAME
1070
     4
1000
GEN-ANSI$6
1002
{
1002
}
1000
DIMTAD
1070
     1
1070
     0
1002
{
1002
}
1000
DIMTIH
1070
     1
1070
     1
1002
{
1002
}
1000
DIMTOH
1070
     1
1070
     1
1002
{
1002
}
1000
DIMTOLJ
1070
     1
1070
     1
1002
{
1002
}
1000
M
1070
     0
1002
{
1002
}
1000
I
1070
     0
1002
{
1002
}
1002
}
1000
GEN-ANSI-AXE-F
1070
     5
1002
{
1000
NAME
1070
     4
1000
GEN-ANSI-AXE-F
1002
{
1002
}
1000
DIMBLK1
1070
     4
1000
GENAXEH
1002
{
1002
}
1000
DIMSAH
1070
     1
1070
     1
1002
{
1002
}
1000
DIMSE1
1070
     1
1070
     1
1002
{
1002
}
1000
DIMSE2
1070
     1
1070
     1
1002
{
1002
}
1000
DIMTAD
1070
     1
1070
     0
1002
{
1002
}
1000
DIMTIH
1070
     1
1070
     1
1002
{
1002
}
1000
DIMTOH
1070
     1
1070
     1
1002
{
1002
}
1000
DIMTOLJ
1070
     1
1070
     1
1002
{
1002
}
1000
M
1070
     0
1002
{
1002
}
1000
I
1070
     0
1002
{
1002
}
1002
}
1000
GEN-ANSI-AXE-H
1070
     5
1002
{
1000
NAME
1070
     4
1000
GEN-ANSI-AXE-H
1002
{
1002
}
1000
DIMBLK1
1070
     4
1000
GENAXEH
1002
{
1002
}
1000
DIMLFAC
1070
     2
1040
2.0
1002
{
1002
}
1000
DIMSAH
1070
     1
1070
     1
1002
{
1002
}
1000
DIMSE1
1070
     1
1070
     1
1002
{
1002
}
1000
DIMSE2
1070
     1
1070
     1
1002
{
1002
}
1000
DIMTAD
1070
     1
1070
     0
1002
{
1002
}
1000
DIMTOFL
1070
     1
1070
     1
1002
{
1002
}
1000
DIMTOLJ
1070
     1
1070
     1
1002
{
1002
}
1000
M
1070
     0
1002
{
1002
}
1000
I
1070
     0
1002
{
1002
}
1002
}
1000
DIMZIN
1070
     1
1070
     8
1002
{
1002
}
1002
}
1000
DimSet
1070
     0
1002
{
1000
ChainSum
1070
     3
1070
     0
1002
{
1002
}
1000
DimDclTyp0
1070
     4
1000
dim23
1002
{
1002
}
1000
HorBra
1070
     3
1070
     0
1002
{
1002
}
1000
StrDia
1070
     4
1000
%%c<>
1002
{
1002
}
1000
StrRad
1070
     4
1000
R<>
1002
{
1002
}
1000
TextMinus
1070
     4
1000
<>
1002
{
1002
}
1000
TextPlus
1070
     4
1000
<>
1002
{
1002
}
1000
M
1070
     0
1002
{
1000
DimdliFirst
1070
     2
1040
10.0
1002
{
1002
}
1000
PointMakeDist
1070
     2
1040
10.0
1002
{
1002
}
1002
}
1000
I
1070
     0
1002
{
1000
DimdliFirst
1070
     2
1040
0.5
1002
{
1002
}
1000
PointMakeDist
1070
     2
1040
0.5
1002
{
1002
}
1002
}
1002
}
1000
Drawing
1070
     0
1002
{
1000
ChamferDimMode
1070
     1
1070
     2
1002
{
1002
}
1000
Gen_Fiso
1070
    -3
1040
1.0
1002
{
1002
}
1000
GenDimStil
1070
     4
1000
ISO
1002
{
1002
}
1000
GenDwgUScale
1070
     2
1040
1.0
1002
{
1002
}
1000
GenInch
1070
     4
1000
M
1002
{
1002
}
1000
GenPlotScale
1070
     4
1000
1:1
1002
{
1002
}
1000
Revisi
1070
     4
1000
0
1002
{
1002
}
1002
}
1000
DwgVar
1070
     0
1002
{
1000
M
1070
     0
1002
{
1002
}
1000
I
1070
     0
1002
{
1002
}
1002
}
1000
Hatch
1070
     0
1002
{
1000
GenHtcFlag
1070
     3
1070
     0
1002
{
1002
}
1002
}
1000
Info_Pos
1070
     0
1002
{
1000
DescrText
1070
     4
1000
5,6,7,8
1002
{
1002
}
1000
Attrib
1070
     0
1002
{
1000
0
1070
     6
1002
{
1000
Prompt
1070
     4
1000
(genmsg gendwg 103)
1002
{
1002
}
1000
Value
1070
     4
1000

1002
{
1002
}
1000
EditFlag
1070
     1
1070
     0
1002
{
1002
}
1002
}
1000
1
1070
     6
1002
{
1000
Prompt
1070
     4
1000
(genmsg gendwg 31)
1002
{
1002
}
1000
Value
1070
     4
1000
1
1002
{
1002
}
1000
EditFlag
1070
     1
1070
     1
1002
{
1002
}
1002
}
1000
2
1070
     6
1002
{
1000
Prompt
1070
     4
1000
(genmsg gendwg 32)
1002
{
1002
}
1000
Value
1070
     4
1000
1
1002
{
1002
}
1000
EditFlag
1070
     1
1070
     1
1002
{
1002
}
1002
}
1000
3
1070
     6
1002
{
1000
Prompt
1070
     4
1000
(genmsg gendwg 33)
1002
{
1002
}
1000
Value
1070
     4
1000

1002
{
1002
}
1000
EditFlag
1070
     1
1070
     1
1002
{
1002
}
1002
}
1000
4
1070
     6
1002
{
1000
Prompt
1070
     4
1000
(genmsg gendwg 34)
1002
{
1002
}
1000
Value
1070
     4
1000

1002
{
1002
}
1000
EditFlag
1070
     1
1070
     1
1002
{
1002
}
1002
}
1000
5
1070
     6
1002
{
1000
Prompt
1070
     4
1000
(genmsg gendwg 35)
1002
{
1002
}
1000
Value
1070
     4
1000

1002
{
1002
}
1000
EditFlag
1070
     1
1070
     1
1002
{
1002
}
1002
}
1000
6
1070
     6
1002
{
1000
Prompt
1070
     4
1000
(genmsg gendwg 36)
1002
{
1002
}
1000
Value
1070
     4
1000

1002
{
1002
}
1000
EditFlag
1070
     1
1070
     1
1002
{
1002
}
1002
}
1000
7
1070
     6
1002
{
1000
Prompt
1070
     4
1000
(genmsg gendwg 37)
1002
{
1002
}
1000
Value
1070
     4
1000

1002
{
1002
}
1000
EditFlag
1070
     1
1070
     1
1002
{
1002
}
1002
}
1000
8
1070
     6
1002
{
1000
Prompt
1070
     4
1000
(genmsg gendwg 38)
1002
{
1002
}
1000
Value
1070
     4
1000

1002
{
1002
}
1000
EditFlag
1070
     1
1070
     1
1002
{
1002
}
1002
}
1000
9
1070
     6
1002
{
1000
Prompt
1070
     4
1000
(genmsg gendwg 39)
1002
{
1002
}
1000
Value
1070
     4
1000

1002
{
1002
}
1000
EditFlag
1070
     1
1070
     1
1002
{
1002
}
1002
}
1000
10
1070
     6
1002
{
1000
Prompt
1070
     4
1000
(genmsg gendwg 40)
1002
{
1002
}
1000
Value
1070
     4
1000

1002
{
1002
}
1000
EditFlag
1070
     1
1070
     1
1002
{
1002
}
1002
}
1000
11
1070
     6
1002
{
1000
Prompt
1070
     4
1000
(genmsg gendwg 41)
1002
{
1002
}
1000
Value
1070
     4
1000

1002
{
1002
}
1000
EditFlag
1070
     1
1070
     1
1002
{
1002
}
1002
}
1000
12
1070
     6
1002
{
1000
Prompt
1070
     4
1000
(genmsg gendwg 42)
1002
{
1002
}
1000
Value
1070
     4
1000

1002
{
1002
}
1000
EditFlag
1070
     1
1070
     1
1002
{
1002
}
1002
}
1000
13
1070
     6
1002
{
1000
Prompt
1070
     4
1000
(genmsg gendwg 43)
1002
{
1002
}
1000
Value
1070
     4
1000

1002
{
1002
}
1000
EditFlag
1070
     1
1070
     1
1002
{
1002
}
1002
}
1000
14
1070
     6
1002
{
1000
Prompt
1070
     4
1000
(genmsg gendwg 44)
1002
{
1002
}
1000
Value
1070
     4
1000

1002
{
1002
}
1000
EditFlag
1070
     1
1070
     1
1002
{
1002
}
1002
}
1000
15
1070
     6
1002
{
1000
Prompt
1070
     4
1000
(genmsg gendwg 45)
1002
{
1002
}
1000
Value
1070
     4
1000

1002
{
1002
}
1000
EditFlag
1070
     1
1070
     1
1002
{
1002
}
1002
}
1000
16
1070
     6
1002
{
1000
Prompt
1070
     4
1000
(genmsg gendwg 46)
1002
{
1002
}
1000
Value
1070
     4
1000

1002
{
1002
}
1000
EditFlag
1070
     1
1070
     1
1002
{
1002
}
1002
}
1000
17
1070
     6
1002
{
1000
Prompt
1070
     4
1000
(genmsg gendwg 47)
1002
{
1002
}
1000
Value
1070
     4
1000

1002
{
1002
}
1000
EditFlag
1070
     1
1070
     1
1002
{
1002
}
1002
}
1000
18
1070
     6
1002
{
1000
Prompt
1070
     4
1000
(genmsg gendwg 48)
1002
{
1002
}
1000
Value
1070
     4
1000

1002
{
1002
}
1000
EditFlag
1070
     1
1070
     1
1002
{
1002
}
1002
}
1000
19
1070
     6
1002
{
1000
Prompt
1070
     4
1000
(genmsg gendwg 99)
1002
{
1002
}
1000
Value
1070
     4
1000

1002
{
1002
}
1000
EditFlag
1070
     1
1070
     1
1002
{
1002
}
1002
}
1000
20
1070
     6
1002
{
1000
Prompt
1070
     4
1000
(genmsg gendwg 100)
1002
{
1002
}
1000
Value
1070
     4
1000

1002
{
1002
}
1000
EditFlag
1070
     1
1070
     1
1002
{
1002
}
1002
}
1000
21
1070
     6
1002
{
1000
Prompt
1070
     4
1000
(genmsg gendwg 101)
1002
{
1002
}
1000
Value
1070
     4
1000

1002
{
1002
}
1000
EditFlag
1070
     1
1070
     1
1002
{
1002
}
1002
}
1000
22
1070
     6
1002
{
1000
Prompt
1070
     4
1000
(genmsg gendwg 102)
1002
{
1002
}
1000
Value
1070
     4
1000

1002
{
1002
}
1000
EditFlag
1070
     1
1070
     1
1002
{
1002
}
1002
}
1000
23
1070
     6
1002
{
1000
Prompt
1070
     4
1000
(genmsg gendwg 30)
1002
{
1002
}
1000
Value
1070
     4
1000

1002
{
1002
}
1000
EditFlag
1070
     1
1070
     1
1002
{
1002
}
1002
}
1000
24
1070
     6
1002
{
1000
Prompt
1070
     4
1000
(genmsg gendwg 104)
1002
{
1002
}
1000
Value
1070
     4
1000

1002
{
1002
}
1000
EditFlag
1070
     1
1070
     1
1002
{
1002
}
1002
}
1002
}
1000
Xlate
1070
     0
1002
{
1000
>
1002
}
1002
}
1000
Layer
1070
     7
1002
{
1000
Defs
1070
     0
1002
{
1000
>
1002
}
1000
EntSort
1070
     0
1002
{
1000
>
1002
}
1000
Match
1070
     0
1002
{
1002
}
1000
Settings
1070
     0
1002
{
1000
FocGrNC
1070
     3
1070
     0
1002
{
1002
}
1000
FocGrLo
1070
     3
1070
     0
1002
{
1002
}
1000
FocLoNC
1070
     3
1070
     0
1002
{
1002
}
1000
FocusCol
1070
     1
1070
   253
1002
{
1002
}
1000
GenStdLG
1070
     4
1000

1002
{
1002
}
1000
LayMatch
1070
     3
1070
     0
1002
{
1002
}
1000
LgOff
1070
     3
1070
     0
1002
{
1002
}
1000
CurLG
1070
    -5
1000
MSL-3-80
1002
{
1002
}
1002
}
1002
}
1000
LType
1070
     0
1002
{
1000
GEN3
1070
     8
1000
genius.lin
1002
{
1002
}
1000
GEN7
1070
     8
1000
genius.lin
1002
{
1002
}
1000
GEN4A
1070
     8
1000
genius.lin
1002
{
1002
}
1000
GEN3A
1070
     8
1000
genius.lin
1002
{
1002
}
1000
GEN7A
1070
     8
1000
genius.lin
1002
{
1002
}
1000
GENZIGZAG
1070
     8
1000
genius.lin
1002
{
1002
}
1002
}
1000
Objecter
1070
     0
1002
{
1000
CreateGroups
1070
     3
1070
     0
1002
{
1002
}
1000
LaySwitch
1070
     3
1070
     1
1002
{
1002
}
1000
LastObj
1070
    -5
1000
0
1002
{
1002
}
1002
}
1000
OSWiz
1070
     0
1002
{
1000
>
1002
}
1000
PaList
1070
     0
1002
{
1000
AutoUpdatePartList
1070
     3
1070
     0
1002
{
1002
}
1000
ReadInfoPoint
1070
     3
1070
     0
1002
{
1002
}
1000
ReadPosNr
1070
     3
1070
     1
1002
{
1002
}
1000
RevStr
1070
     4
1000
0
1002
{
1002
}
1002
}
1000
Paper
1070
     0
1002
{
1000
Layer
1070
    -5
1000
MSL-3-80-6
1002
{
1002
}
1002
}
1000
PartDB
1070
     0
1002
{
1000
GenDbOwner
1070
     4
1000

1002
{
1002
}
1002
}
1000
System
1070
     0
1002
{
1000
Menu
1070
     4
1000
GEV
1002
{
1002
}
1002
}
1000
Title
1070
     0
1002
{
1000
MakeView
1070
     1
1070
     2
1002
{
1002
}
1002
}
  0
APPID
  5
37C
100
AcDbSymbolTableRecord
100
AcDbRegAppTableRecord
  2
GENIUS_GEVCFG0_13
 70
     0
1001
GENIUS_GENCFG_13
1071
881154008
1000
37C
1000
GEV
1070
     1
1000
GenCfgObject
1000
System
1070
     0
1002
{
1002
}
1000
VED
1070
     0
1002
{
1002
}
  0
ENDTAB
  0
TABLE
  2
DIMSTYLE
  5
16
100
AcDbSymbolTable
 70
     1
  0
DIMSTYLE
105
1D
100
AcDbSymbolTableRecord
100
AcDbDimStyleTableRecord
  2
GEN-ISO
 70
     0
  3

  4

  5

  6

  7

 40
1.0
 41
2.5
 42
1.0
 43
10.0
 44
2.0
 45
0.0
 46
0.0
 47
0.1
 48
0.1
140
3.5
141
-2.0
142
0.0
143
25.4
144
1.0
145
0.0
146
1.0
147
1.5
 71
     0
 72
     0
 73
     0
 74
     0
 75
     0
 76
     0
 77
     1
 78
     8
170
     0
171
     2
172
     1
173
     0
174
     0
175
     0
176
     0
177
     0
178
     2
270
     2
271
     2
272
     5
273
     2
274
     2
340
D
275
     0
280
     0
281
     0
282
     0
283
     0
284
     8
285
     8
286
     8
287
     3
288
     0
  0
ENDTAB
  0
TABLE
  2
BLOCK_RECORD
  5
1
100
AcDbSymbolTable
 70
     0
  0
BLOCK_RECORD
  5
2
100
AcDbSymbolTableRecord
100
AcDbBlockTableRecord
  2
*MODEL_SPACE
  0
BLOCK_RECORD
  5
8
100
AcDbSymbolTableRecord
100
AcDbBlockTableRecord
  2
*PAPER_SPACE
  0
ENDTAB
  0
ENDSEC
  0
SECTION
  2
BLOCKS
  0
BLOCK
  5
3
100
AcDbEntity
  8
0
100
AcDbBlockBegin
  2
*MODEL_SPACE
 70
     0
 10
0.0
 20
0.0
 30
0.0
  3
*MODEL_SPACE
  1

  0
ENDBLK
  5
7
100
AcDbEntity
  8
0
100
AcDbBlockEnd
  0
BLOCK
  5
9
100
AcDbEntity
 67
     1
  8
0
100
AcDbBlockBegin
  2
*PAPER_SPACE
 70
     0
 10
0.0
 20
0.0
 30
0.0
  3
*PAPER_SPACE
  1

  0
ENDBLK
  5
A
100
AcDbEntity
 67
     1
  8
0
100
AcDbBlockEnd
  0
ENDSEC
  0
SECTION
  2
ENTITIES
  0
LINE
  5
1E
100
AcDbEntity
  8
MSL-3-80-7
100
AcDbLine
 10
-483.623472
 20
-464.75265
 30
0.0
 11
-433.399704
 21
-464.75265
 31
0.0
  0
LINE
  5
21
100
AcDbEntity
  8
MSL-3-80-7
100
AcDbLine
 10
-483.623472
 20
-429.75265
 30
0.0
 11
-433.399704
 21
-429.75265
 31
0.0
  0
LINE
  5
22
100
AcDbEntity
  8
MSL-3-80-7
100
AcDbLine
 10
-483.623472
 20
-394.75265
 30
0.0
 11
-433.399704
 21
-394.75265
 31
0.0
  0
LINE
  5
23
100
AcDbEntity
  8
MSL-3-80-7
100
AcDbLine
 10
-485.623472
 20
-619.476926
 30
0.0
 11
-433.399704
 21
-619.4767
 31
0.0
  0
LINE
  5
24
100
AcDbEntity
  8
MSL-3-80-7
100
AcDbLine
 10
-466.717422
 20
-583.476017
 30
0.0
 11
-434.112615
 21
-583.476017
 31
0.0
  0
LINE
  5
25
100
AcDbEntity
  8
MSL-3-80-0
100
AcDbLine
 10
-460.623472
 20
-645.476017
 30
0.0
 11
-480.623472
 21
-645.476017
 31
0.0
  0
LINE
  5
26
100
AcDbEntity
  8
MSL-3-80-3
100
AcDbLine
 10
-466.623472
 20
-628.056602
 30
0.0
 11
-464.164972
 21
-629.476017
 31
0.0
  0
LINE
  5
29
100
AcDbEntity
  8
MSL-3-80-3
100
AcDbLine
 10
-464.164972
 20
-629.476017
 30
0.0
 11
-469.081972
 21
-629.476017
 31
0.0
  0
LINE
  5
2A
100
AcDbEntity
  8
MSL-3-80-3
100
AcDbLine
 10
-463.623472
 20
-633.476017
 30
0.0
 11
-469.623472
 21
-633.476017
 31
0.0
  0
LINE
  5
2B
100
AcDbEntity
  8
MSL-3-80-0
100
AcDbLine
 10
-480.623472
 20
-575.476017
 30
0.0
 11
-460.623472
 21
-575.476017
 31
0.0
  0
LINE
  5
2C
100
AcDbEntity
  8
MSL-3-80-0
100
AcDbLine
 10
-480.623472
 20
-479.75265
 30
0.0
 11
-460.623472
 21
-479.75265
 31
0.0
  0
CIRCLE
  5
2D
100
AcDbEntity
  8
MSL-3-80-0
100
AcDbCircle
 10
-466.623472
 20
-464.75265
 30
0.0
 40
2.5
  0
ARC
  5
2E
100
AcDbEntity
  8
MSL-3-80-4
100
AcDbCircle
 10
-466.623472
 20
-464.75265
 30
0.0
 40
3.0
100
AcDbArc
 50
251.265343
 51
200.571702
  0
LINE
  5
30
100
AcDbEntity
  8
MSL-3-80-3
100
AcDbLine
 10
-480.623472
 20
-452.75265
 30
0.0
 11
-460.623472
 21
-452.75265
 31
0.0
  0
LINE
  5
31
100
AcDbEntity
  8
MSL-3-80-3
100
AcDbLine
 10
-480.623472
 20
-446.75265
 30
0.0
 11
-460.623472
 21
-446.75265
 31
0.0
  0
LINE
  5
32
100
AcDbEntity
  8
MSL-3-80-7
100
AcDbLine
 10
-483.623472
 20
-449.75265
 30
0.0
 11
-457.623472
 21
-449.75265
 31
0.0
  0
LINE
  5
33
100
AcDbEntity
  8
MSL-3-80-7
100
AcDbLine
 10
-483.623472
 20
-409.75265
 30
0.0
 11
-457.623472
 21
-409.75265
 31
0.0
  0
LINE
  5
34
100
AcDbEntity
  8
MSL-3-80-3
100
AcDbLine
 10
-465.623472
 20
-415.25265
 30
0.0
 11
-460.623472
 21
-415.25265
 31
0.0
  0
LINE
  5
35
100
AcDbEntity
  8
MSL-3-80-3
100
AcDbLine
 10
-460.623472
 20
-404.25265
 30
0.0
 11
-465.623472
 21
-404.25265
 31
0.0
  0
LINE
  5
36
100
AcDbEntity
  8
MSL-3-80-0
100
AcDbLine
 10
-460.623472
 20
-379.75265
 30
0.0
 11
-480.623472
 21
-379.75265
 31
0.0
  0
ARC
  5
37
100
AcDbEntity
  8
MSL-3-80-4
100
AcDbCircle
 10
-466.623472
 20
-394.75265
 30
0.0
 40
3.0
100
AcDbArc
 50
251.265343
 51
200.571702
  0
CIRCLE
  5
38
100
AcDbEntity
  8
MSL-3-80-0
100
AcDbCircle
 10
-466.623472
 20
-394.75265
 30
0.0
 40
2.5
  0
LINE
  5
39
100
AcDbEntity
  8
MSL-3-80-0
100
AcDbLine
 10
-460.623472
 20
-715.687307
 30
0.0
 11
-480.623472
 21
-715.687307
 31
0.0
  0
LINE
  5
3A
100
AcDbEntity
  8
MSL-3-80-3
100
AcDbLine
 10
-460.623472
 20
-740.187307
 30
0.0
 11
-465.623472
 21
-740.187307
 31
0.0
  0
LINE
  5
3B
100
AcDbEntity
  8
MSL-3-80-3
100
AcDbLine
 10
-465.623472
 20
-751.187307
 30
0.0
 11
-460.623472
 21
-751.187307
 31
0.0
  0
LINE
  5
3C
100
AcDbEntity
  8
MSL-3-80-7
100
AcDbLine
 10
-483.623472
 20
-745.687307
 30
0.0
 11
-457.623472
 21
-745.687307
 31
0.0
  0
LINE
  5
3D
100
AcDbEntity
  8
MSL-3-80-7
100
AcDbLine
 10
-483.623472
 20
-785.687307
 30
0.0
 11
-457.623472
 21
-785.687307
 31
0.0
  0
LINE
  5
3E
100
AcDbEntity
  8
MSL-3-80-3
100
AcDbLine
 10
-480.623472
 20
-782.687307
 30
0.0
 11
-460.623472
 21
-782.687307
 31
0.0
  0
LINE
  5
3F
100
AcDbEntity
  8
MSL-3-80-3
100
AcDbLine
 10
-480.623472
 20
-788.687307
 30
0.0
 11
-460.623472
 21
-788.687307
 31
0.0
  0
LINE
  5
40
100
AcDbEntity
  8
MSL-3-80-0
100
AcDbLine
 10
-480.623472
 20
-815.687307
 30
0.0
 11
-460.623472
 21
-815.687307
 31
0.0
  0
LINE
  5
41
100
AcDbEntity
  8
MSL-3-80-7
100
AcDbLine
 10
-483.623472
 20
-730.687307
 30
0.0
 11
-433.399704
 21
-730.687307
 31
0.0
  0
LINE
  5
42
100
AcDbEntity
  8
MSL-3-80-7
100
AcDbLine
 10
-483.623472
 20
-765.687307
 30
0.0
 11
-433.399704
 21
-765.687307
 31
0.0
  0
LINE
  5
43
100
AcDbEntity
  8
MSL-3-80-7
100
AcDbLine
 10
-483.623472
 20
-800.687307
 30
0.0
 11
-433.399704
 21
-800.687307
 31
0.0
  0
ARC
  5
44
100
AcDbEntity
  8
MSL-3-80-3
100
AcDbCircle
 10
-466.623472
 20
-730.687307
 30
0.0
 40
3.0
100
AcDbArc
 50
251.265343
 51
200.571702
  0
ARC
  5
45
100
AcDbEntity
  8
MSL-3-80-3
100
AcDbCircle
 10
-466.623472
 20
-800.687307
 30
0.0
 40
3.0
100
AcDbArc
 50
251.265343
 51
200.571702
  0
CIRCLE
  5
46
100
AcDbEntity
  8
MSL-3-80-3
100
AcDbCircle
 10
-466.623472
 20
-800.687307
 30
0.0
 40
2.5
  0
CIRCLE
  5
47
100
AcDbEntity
  8
MSL-3-80-3
100
AcDbCircle
 10
-466.623472
 20
-730.687307
 30
0.0
 40
2.5
  0
LINE
  5
48
100
AcDbEntity
  8
MSL-3-80-7
100
AcDbLine
 10
-466.717422
 20
-797.187307
 30
0.0
 11
-434.112615
 21
-797.187307
 31
0.0
  0
LINE
  5
49
100
AcDbEntity
  8
MSL-3-80-0
100
AcDbLine
 10
-663.639314
 20
-575.477209
 30
0.0
 11
-663.639223
 21
-645.477209
 31
0.0
  0
LINE
  5
4A
100
AcDbEntity
  8
MSL-3-80-7
100
AcDbLine
 10
-648.639257
 20
-619.47719
 30
0.0
 11
-648.639257
 21
-610.711547
 31
0.0
  0
LINE
  5
4B
100
AcDbEntity
  8
MSL-3-80-7
100
AcDbLine
 10
-613.639231
 20
-619.477079
 30
0.0
 11
-613.639231
 21
-610.223028
 31
0.0
  0
LINE
  5
4C
100
AcDbEntity
  8
MSL-3-80-0
100
AcDbLine
 10
-480.623472
 20
-645.476017
 30
0.0
 11
-480.623472
 21
-575.476017
 31
0.0
  0
LINE
  5
4D
100
AcDbEntity
  8
MSL-3-80-0
100
AcDbLine
 10
-563.639223
 20
-645.47708
 30
0.0
 11
-563.639314
 21
-575.47708
 31
0.0
  0
LINE
  5
4E
100
AcDbEntity
  8
MSL-3-80-7
100
AcDbLine
 10
-578.639257
 20
-619.477099
 30
0.0
 11
-578.639257
 21
-610.711456
 31
0.0
  0
LINE
  5
4F
100
AcDbEntity
  8
MSL-3-80-0
100
AcDbLine
 10
-663.639223
 20
-645.477209
 30
0.0
 11
-563.639223
 21
-645.47708
 31
0.0
  0
CIRCLE
  5
50
100
AcDbEntity
  8
MSL-3-80-0
100
AcDbCircle
 10
-633.639231
 20
-639.47717
 30
0.0
 40
3.3
  0
CIRCLE
  5
51
100
AcDbEntity
  8
MSL-3-80-3
100
AcDbCircle
 10
-633.639231
 20
-639.47717
 30
0.0
 40
5.5
  0
LINE
  5
52
100
AcDbEntity
  8
MSL-3-80-7
100
AcDbLine
 10
-633.639231
 20
-639.47717
 30
0.0
 11
-642.139231
 21
-639.47717
 31
0.0
  0
CIRCLE
  5
53
100
AcDbEntity
  8
MSL-3-80-0
100
AcDbCircle
 10
-633.639265
 20
-619.477079
 30
0.0
 40
3.0
  0
LINE
  5
54
100
AcDbEntity
  8
MSL-3-80-7
100
AcDbLine
 10
-633.639265
 20
-619.477079
 30
0.0
 11
-639.639265
 21
-619.477079
 31
0.0
  0
LINE
  5
55
100
AcDbEntity
  8
MSL-3-80-3
100
AcDbLine
 10
-663.639334
 20
-637.018528
 30
0.0
 11
-647.639334
 21
-637.018528
 31
0.0
  0
LINE
  5
56
100
AcDbEntity
  8
MSL-3-80-3
100
AcDbLine
 10
-663.639334
 20
-641.935528
 30
0.0
 11
-647.639334
 21
-641.935528
 31
0.0
  0
LINE
  5
57
100
AcDbEntity
  8
MSL-3-80-7
100
AcDbLine
 10
-643.219919
 20
-639.477028
 30
0.0
 11
-666.639334
 21
-639.477028
 31
0.0
  0
LINE
  5
58
100
AcDbEntity
  8
MSL-3-80-3
100
AcDbLine
 10
-663.639334
 20
-642.477028
 30
0.0
 11
-651.639334
 21
-642.477028
 31
0.0
  0
LINE
  5
59
100
AcDbEntity
  8
MSL-3-80-3
100
AcDbLine
 10
-663.639334
 20
-636.477028
 30
0.0
 11
-651.639334
 21
-636.477028
 31
0.0
  0
LINE
  5
5A
100
AcDbEntity
  8
MSL-3-80-7
100
AcDbLine
 10
-648.639257
 20
-619.47719
 30
0.0
 11
-657.4049
 21
-619.47719
 31
0.0
  0
LINE
  5
5B
100
AcDbEntity
  8
MSL-3-80-7
100
AcDbLine
 10
-648.639308
 20
-625.057684
 30
0.0
 11
-648.639308
 21
-648.477099
 31
0.0
  0
LINE
  5
5C
100
AcDbEntity
  8
MSL-3-80-3
100
AcDbLine
 10
-651.639308
 20
-645.477099
 30
0.0
 11
-651.639308
 21
-633.477099
 31
0.0
  0
LINE
  5
5D
100
AcDbEntity
  8
MSL-3-80-3
100
AcDbLine
 10
-651.097808
 20
-645.477099
 30
0.0
 11
-651.097808
 21
-629.477099
 31
0.0
  0
LINE
  5
5E
100
AcDbEntity
  8
MSL-3-80-3
100
AcDbLine
 10
-645.639308
 20
-645.477099
 30
0.0
 11
-645.639308
 21
-633.477099
 31
0.0
  0
LINE
  5
5F
100
AcDbEntity
  8
MSL-3-80-3
100
AcDbLine
 10
-646.180808
 20
-645.477099
 30
0.0
 11
-646.180808
 21
-629.477099
 31
0.0
  0
LINE
  5
60
100
AcDbEntity
  8
MSL-3-80-3
100
AcDbLine
 10
-646.219919
 20
-639.477028
 30
0.0
 11
-647.639334
 21
-641.935528
 31
0.0
  0
LINE
  5
61
100
AcDbEntity
  8
MSL-3-80-3
100
AcDbLine
 10
-646.219919
 20
-639.477028
 30
0.0
 11
-647.639334
 21
-637.018528
 31
0.0
  0
LINE
  5
62
100
AcDbEntity
  8
MSL-3-80-3
100
AcDbLine
 10
-651.639334
 20
-636.477028
 30
0.0
 11
-651.639334
 21
-642.477028
 31
0.0
  0
LINE
  5
63
100
AcDbEntity
  8
MSL-3-80-3
100
AcDbLine
 10
-647.639334
 20
-637.018528
 30
0.0
 11
-647.639334
 21
-641.935528
 31
0.0
  0
LINE
  5
64
100
AcDbEntity
  8
MSL-3-80-3
100
AcDbLine
 10
-651.097808
 20
-629.477099
 30
0.0
 11
-646.180808
 21
-629.477099
 31
0.0
  0
LINE
  5
65
100
AcDbEntity
  8
MSL-3-80-3
100
AcDbLine
 10
-651.639308
 20
-633.477099
 30
0.0
 11
-645.639308
 21
-633.477099
 31
0.0
  0
LINE
  5
66
100
AcDbEntity
  8
MSL-3-80-3
100
AcDbLine
 10
-648.639308
 20
-628.057684
 30
0.0
 11
-646.180808
 21
-629.477099
 31
0.0
  0
LINE
  5
67
100
AcDbEntity
  8
MSL-3-80-7
100
AcDbLine
 10
-648.639257
 20
-619.47719
 30
0.0
 11
-639.873614
 21
-619.47719
 31
0.0
  0
LINE
  5
68
100
AcDbEntity
  8
MSL-3-80-7
100
AcDbLine
 10
-648.639257
 20
-619.47719
 30
0.0
 11
-648.639257
 21
-628.242833
 31
0.0
  0
LINE
  5
69
100
AcDbEntity
  8
MSL-3-80-3
100
AcDbLine
 10
-648.639308
 20
-628.057684
 30
0.0
 11
-651.097808
 21
-629.477099
 31
0.0
  0
LINE
  5
6A
100
AcDbEntity
  8
MSL-3-80-0
100
AcDbLine
 10
-480.623472
 20
-715.687307
 30
0.0
 11
-480.623472
 21
-815.687307
 31
0.0
  0
LINE
  5
6B
100
AcDbEntity
  8
MSL-3-80-7
100
AcDbLine
 10
-474.623472
 20
-795.267891
 30
0.0
 11
-474.623472
 21
-818.687307
 31
0.0
  0
LINE
  5
6C
100
AcDbEntity
  8
MSL-3-80-3
100
AcDbLine
 10
-472.164972
 20
-815.687307
 30
0.0
 11
-472.164972
 21
-799.687307
 31
0.0
  0
LINE
  5
6D
100
AcDbEntity
  8
MSL-3-80-3
100
AcDbLine
 10
-477.081972
 20
-815.687307
 30
0.0
 11
-477.081972
 21
-799.687307
 31
0.0
  0
LINE
  5
6E
100
AcDbEntity
  8
MSL-3-80-3
100
AcDbLine
 10
-471.623472
 20
-815.687307
 30
0.0
 11
-471.623472
 21
-803.687307
 31
0.0
  0
LINE
  5
6F
100
AcDbEntity
  8
MSL-3-80-3
100
AcDbLine
 10
-477.623472
 20
-815.687307
 30
0.0
 11
-477.623472
 21
-803.687307
 31
0.0
  0
LINE
  5
70
100
AcDbEntity
  8
MSL-3-80-3
100
AcDbLine
 10
-471.623472
 20
-803.687307
 30
0.0
 11
-477.623472
 21
-803.687307
 31
0.0
  0
LINE
  5
71
100
AcDbEntity
  8
MSL-3-80-3
100
AcDbLine
 10
-472.164972
 20
-799.687307
 30
0.0
 11
-477.081972
 21
-799.687307
 31
0.0
  0
LINE
  5
72
100
AcDbEntity
  8
MSL-3-80-3
100
AcDbLine
 10
-474.623472
 20
-798.267891
 30
0.0
 11
-477.081972
 21
-799.687307
 31
0.0
  0
LINE
  5
73
100
AcDbEntity
  8
MSL-3-80-3
100
AcDbLine
 10
-474.623472
 20
-798.267891
 30
0.0
 11
-472.164972
 21
-799.687307
 31
0.0
  0
LINE
  5
74
100
AcDbEntity
  8
MSL-3-80-7
100
AcDbLine
 10
-466.623472
 20
-795.768488
 30
0.0
 11
-466.623472
 21
-805.798602
 31
0.0
  0
CIRCLE
  5
75
100
AcDbEntity
  8
MSL-3-80-0
100
AcDbCircle
 10
-593.639265
 20
-619.477028
 30
0.0
 40
3.0
  0
CIRCLE
  5
76
100
AcDbEntity
  8
MSL-3-80-3
100
AcDbCircle
 10
-593.639239
 20
-639.477028
 30
0.0
 40
5.5
  0
CIRCLE
  5
77
100
AcDbEntity
  8
MSL-3-80-0
100
AcDbCircle
 10
-593.639231
 20
-639.477119
 30
0.0
 40
3.3
  0
LINE
  5
78
100
AcDbEntity
  8
MSL-3-80-7
100
AcDbLine
 10
-593.639239
 20
-639.477028
 30
0.0
 11
-585.139239
 21
-639.477028
 31
0.0
  0
LINE
  5
79
100
AcDbEntity
  8
MSL-3-80-7
100
AcDbLine
 10
-593.639265
 20
-619.477028
 30
0.0
 11
-587.639265
 21
-619.477028
 31
0.0
  0
LINE
  5
7A
100
AcDbEntity
  8
MSL-3-80-7
100
AcDbLine
 10
-613.639231
 20
-639.477145
 30
0.0
 11
-619.639231
 21
-639.477145
 31
0.0
  0
CIRCLE
  5
7B
100
AcDbEntity
  8
MSL-3-80-0
100
AcDbCircle
 10
-613.639231
 20
-639.477145
 30
0.0
 40
3.0
  0
LINE
  5
7C
100
AcDbEntity
  8
MSL-3-80-7
100
AcDbLine
 10
-613.639231
 20
-619.477079
 30
0.0
 11
-622.893282
 21
-619.477079
 31
0.0
  0
LINE
  5
7D
100
AcDbEntity
  8
MSL-3-80-7
100
AcDbLine
 10
-633.639231
 20
-639.47717
 30
0.0
 11
-633.639231
 21
-630.97717
 31
0.0
  0
LINE
  5
7E
100
AcDbEntity
  8
MSL-3-80-7
100
AcDbLine
 10
-633.639231
 20
-639.47717
 30
0.0
 11
-625.139231
 21
-639.47717
 31
0.0
  0
LINE
  5
7F
100
AcDbEntity
  8
MSL-3-80-7
100
AcDbLine
 10
-633.639231
 20
-639.47717
 30
0.0
 11
-633.639231
 21
-647.97717
 31
0.0
  0
LINE
  5
80
100
AcDbEntity
  8
MSL-3-80-7
100
AcDbLine
 10
-633.639265
 20
-619.477079
 30
0.0
 11
-627.639265
 21
-619.477079
 31
0.0
  0
LINE
  5
81
100
AcDbEntity
  8
MSL-3-80-7
100
AcDbLine
 10
-633.639265
 20
-619.477079
 30
0.0
 11
-633.639265
 21
-613.477079
 31
0.0
  0
LINE
  5
82
100
AcDbEntity
  8
MSL-3-80-7
100
AcDbLine
 10
-633.639265
 20
-619.477079
 30
0.0
 11
-633.639265
 21
-625.477079
 31
0.0
  0
LINE
  5
83
100
AcDbEntity
  8
MSL-3-80-7
100
AcDbLine
 10
-613.639231
 20
-639.477145
 30
0.0
 11
-613.639231
 21
-633.477145
 31
0.0
  0
LINE
  5
84
100
AcDbEntity
  8
MSL-3-80-7
100
AcDbLine
 10
-593.639239
 20
-639.477028
 30
0.0
 11
-593.639239
 21
-630.977028
 31
0.0
  0
LINE
  5
85
100
AcDbEntity
  8
MSL-3-80-7
100
AcDbLine
 10
-613.639231
 20
-639.477145
 30
0.0
 11
-613.639231
 21
-645.477145
 31
0.0
  0
LINE
  5
86
100
AcDbEntity
  8
MSL-3-80-7
100
AcDbLine
 10
-613.639231
 20
-639.477145
 30
0.0
 11
-607.639231
 21
-639.477145
 31
0.0
  0
LINE
  5
87
100
AcDbEntity
  8
MSL-3-80-7
100
AcDbLine
 10
-593.639239
 20
-639.477028
 30
0.0
 11
-602.139239
 21
-639.477028
 31
0.0
  0
LINE
  5
88
100
AcDbEntity
  8
MSL-3-80-7
100
AcDbLine
 10
-593.639239
 20
-639.477028
 30
0.0
 11
-593.639239
 21
-647.977028
 31
0.0
  0
LINE
  5
89
100
AcDbEntity
  8
MSL-3-80-7
100
AcDbLine
 10
-613.639231
 20
-619.477079
 30
0.0
 11
-613.639231
 21
-628.731131
 31
0.0
  0
LINE
  5
8A
100
AcDbEntity
  8
MSL-3-80-7
100
AcDbLine
 10
-613.639231
 20
-619.477079
 30
0.0
 11
-604.385179
 21
-619.477079
 31
0.0
  0
LINE
  5
8B
100
AcDbEntity
  8
MSL-3-80-7
100
AcDbLine
 10
-593.639265
 20
-619.477028
 30
0.0
 11
-599.639265
 21
-619.477028
 31
0.0
  0
LINE
  5
8C
100
AcDbEntity
  8
MSL-3-80-7
100
AcDbLine
 10
-593.639265
 20
-619.477028
 30
0.0
 11
-593.639265
 21
-613.477028
 31
0.0
  0
LINE
  5
8D
100
AcDbEntity
  8
MSL-3-80-7
100
AcDbLine
 10
-593.639265
 20
-619.477028
 30
0.0
 11
-593.639265
 21
-625.477028
 31
0.0
  0
LINE
  5
8E
100
AcDbEntity
  8
MSL-3-80-7
100
AcDbLine
 10
-584.058647
 20
-639.477028
 30
0.0
 11
-560.639231
 21
-639.477028
 31
0.0
  0
LINE
  5
8F
100
AcDbEntity
  8
MSL-3-80-3
100
AcDbLine
 10
-563.639231
 20
-637.018528
 30
0.0
 11
-579.639231
 21
-637.018528
 31
0.0
  0
LINE
  5
90
100
AcDbEntity
  8
MSL-3-80-3
100
AcDbLine
 10
-563.639231
 20
-641.935528
 30
0.0
 11
-579.639231
 21
-641.935528
 31
0.0
  0
LINE
  5
91
100
AcDbEntity
  8
MSL-3-80-3
100
AcDbLine
 10
-563.639231
 20
-642.477028
 30
0.0
 11
-575.639231
 21
-642.477028
 31
0.0
  0
LINE
  5
92
100
AcDbEntity
  8
MSL-3-80-3
100
AcDbLine
 10
-563.639231
 20
-636.477028
 30
0.0
 11
-575.639231
 21
-636.477028
 31
0.0
  0
LINE
  5
93
100
AcDbEntity
  8
MSL-3-80-7
100
AcDbLine
 10
-578.639257
 20
-619.477099
 30
0.0
 11
-569.873614
 21
-619.477099
 31
0.0
  0
LINE
  5
94
100
AcDbEntity
  8
MSL-3-80-7
100
AcDbLine
 10
-578.639257
 20
-625.057684
 30
0.0
 11
-578.639257
 21
-648.477099
 31
0.0
  0
LINE
  5
95
100
AcDbEntity
  8
MSL-3-80-3
100
AcDbLine
 10
-581.097757
 20
-645.477099
 30
0.0
 11
-581.097757
 21
-629.477099
 31
0.0
  0
LINE
  5
96
100
AcDbEntity
  8
MSL-3-80-3
100
AcDbLine
 10
-581.639257
 20
-645.477099
 30
0.0
 11
-581.639257
 21
-633.477099
 31
0.0
  0
LINE
  5
97
100
AcDbEntity
  8
MSL-3-80-3
100
AcDbLine
 10
-576.180757
 20
-645.477099
 30
0.0
 11
-576.180757
 21
-629.477099
 31
0.0
  0
LINE
  5
98
100
AcDbEntity
  8
MSL-3-80-3
100
AcDbLine
 10
-575.639257
 20
-645.477099
 30
0.0
 11
-575.639257
 21
-633.477099
 31
0.0
  0
LINE
  5
99
100
AcDbEntity
  8
MSL-3-80-3
100
AcDbLine
 10
-581.058647
 20
-639.477028
 30
0.0
 11
-579.639231
 21
-641.935528
 31
0.0
  0
LINE
  5
9A
100
AcDbEntity
  8
MSL-3-80-3
100
AcDbLine
 10
-579.639231
 20
-637.018528
 30
0.0
 11
-579.639231
 21
-641.935528
 31
0.0
  0
LINE
  5
9B
100
AcDbEntity
  8
MSL-3-80-3
100
AcDbLine
 10
-581.058647
 20
-639.477028
 30
0.0
 11
-579.639231
 21
-637.018528
 31
0.0
  0
LINE
  5
9C
100
AcDbEntity
  8
MSL-3-80-3
100
AcDbLine
 10
-575.639231
 20
-636.477028
 30
0.0
 11
-575.639231
 21
-642.477028
 31
0.0
  0
LINE
  5
9D
100
AcDbEntity
  8
MSL-3-80-7
100
AcDbLine
 10
-578.639257
 20
-619.477099
 30
0.0
 11
-587.4049
 21
-619.477099
 31
0.0
  0
LINE
  5
9E
100
AcDbEntity
  8
MSL-3-80-7
100
AcDbLine
 10
-578.639257
 20
-619.477099
 30
0.0
 11
-578.639257
 21
-628.242743
 31
0.0
  0
LINE
  5
9F
100
AcDbEntity
  8
MSL-3-80-3
100
AcDbLine
 10
-576.180757
 20
-629.477099
 30
0.0
 11
-581.097757
 21
-629.477099
 31
0.0
  0
LINE
  5
A0
100
AcDbEntity
  8
MSL-3-80-3
100
AcDbLine
 10
-578.639257
 20
-628.057684
 30
0.0
 11
-576.180757
 21
-629.477099
 31
0.0
  0
LINE
  5
A1
100
AcDbEntity
  8
MSL-3-80-3
100
AcDbLine
 10
-575.639257
 20
-633.477099
 30
0.0
 11
-581.639257
 21
-633.477099
 31
0.0
  0
LINE
  5
A2
100
AcDbEntity
  8
MSL-3-80-3
100
AcDbLine
 10
-578.639257
 20
-628.057684
 30
0.0
 11
-581.097757
 21
-629.477099
 31
0.0
  0
LINE
  5
A3
100
AcDbEntity
  8
MSL-3-80-3
100
AcDbLine
 10
-465.623472
 20
-748.987307
 30
0.0
 11
-465.623472
 21
-742.387307
 31
0.0
  0
LINE
  5
A4
100
AcDbEntity
  8
MSL-3-80-3
100
AcDbLine
 10
-480.623472
 20
-748.987307
 30
0.0
 11
-465.623472
 21
-748.987307
 31
0.0
  0
LINE
  5
A5
100
AcDbEntity
  8
MSL-3-80-3
100
AcDbLine
 10
-465.623472
 20
-748.987307
 30
0.0
 11
-465.623472
 21
-751.187307
 31
0.0
  0
LINE
  5
A6
100
AcDbEntity
  8
MSL-3-80-7
100
AcDbLine
 10
-474.623472
 20
-736.106722
 30
0.0
 11
-474.623472
 21
-712.687307
 31
0.0
  0
LINE
  5
A7
100
AcDbEntity
  8
MSL-3-80-3
100
AcDbLine
 10
-477.623472
 20
-715.687307
 30
0.0
 11
-477.623472
 21
-727.687307
 31
0.0
  0
LINE
  5
A8
100
AcDbEntity
  8
MSL-3-80-3
100
AcDbLine
 10
-477.081972
 20
-715.687307
 30
0.0
 11
-477.081972
 21
-731.687307
 31
0.0
  0
LINE
  5
A9
100
AcDbEntity
  8
MSL-3-80-3
100
AcDbLine
 10
-471.623472
 20
-715.687307
 30
0.0
 11
-471.623472
 21
-727.687307
 31
0.0
  0
LINE
  5
AA
100
AcDbEntity
  8
MSL-3-80-3
100
AcDbLine
 10
-472.164972
 20
-715.687307
 30
0.0
 11
-472.164972
 21
-731.687307
 31
0.0
  0
LINE
  5
AB
100
AcDbEntity
  8
MSL-3-80-3
100
AcDbLine
 10
-465.623472
 20
-742.387307
 30
0.0
 11
-480.623472
 21
-742.387307
 31
0.0
  0
LINE
  5
AC
100
AcDbEntity
  8
MSL-3-80-3
100
AcDbLine
 10
-477.623472
 20
-727.687307
 30
0.0
 11
-471.623472
 21
-727.687307
 31
0.0
  0
LINE
  5
AD
100
AcDbEntity
  8
MSL-3-80-3
100
AcDbLine
 10
-477.081972
 20
-731.687307
 30
0.0
 11
-472.164972
 21
-731.687307
 31
0.0
  0
LINE
  5
AE
100
AcDbEntity
  8
MSL-3-80-3
100
AcDbLine
 10
-474.623472
 20
-733.106722
 30
0.0
 11
-477.081972
 21
-731.687307
 31
0.0
  0
LINE
  5
AF
100
AcDbEntity
  8
MSL-3-80-7
100
AcDbLine
 10
-466.623472
 20
-725.768488
 30
0.0
 11
-466.623472
 21
-735.798602
 31
0.0
  0
LINE
  5
B0
100
AcDbEntity
  8
MSL-3-80-3
100
AcDbLine
 10
-465.623472
 20
-740.187307
 30
0.0
 11
-465.623472
 21
-742.387307
 31
0.0
  0
LINE
  5
B1
100
AcDbEntity
  8
MSL-3-80-3
100
AcDbLine
 10
-474.623472
 20
-733.106722
 30
0.0
 11
-472.164972
 21
-731.687307
 31
0.0
  0
LINE
  5
B2
100
AcDbEntity
  8
MSL-3-80-7
100
AcDbLine
 10
-466.623472
 20
-625.056602
 30
0.0
 11
-466.623472
 21
-648.476017
 31
0.0
  0
LINE
  5
B3
100
AcDbEntity
  8
MSL-3-80-7
100
AcDbLine
 10
-474.623472
 20
-639.476017
 30
0.0
 11
-474.623472
 21
-633.476017
 31
0.0
  0
LINE
  5
B4
100
AcDbEntity
  8
MSL-3-80-3
100
AcDbLine
 10
-469.623472
 20
-645.476017
 30
0.0
 11
-469.623472
 21
-633.476017
 31
0.0
  0
LINE
  5
B5
100
AcDbEntity
  8
MSL-3-80-3
100
AcDbLine
 10
-469.081972
 20
-645.476017
 30
0.0
 11
-469.081972
 21
-629.476017
 31
0.0
  0
ARC
  5
B6
100
AcDbEntity
  8
MSL-3-80-4
100
AcDbCircle
 10
-474.623472
 20
-639.476017
 30
0.0
 40
3.0
100
AcDbArc
 50
251.265343
 51
200.571702
  0
CIRCLE
  5
B7
100
AcDbEntity
  8
MSL-3-80-0
100
AcDbCircle
 10
-474.623472
 20
-639.476017
 30
0.0
 40
2.5
  0
LINE
  5
B8
100
AcDbEntity
  8
MSL-3-80-7
100
AcDbLine
 10
-474.623472
 20
-639.476017
 30
0.0
 11
-480.623472
 21
-639.476017
 31
0.0
  0
LINE
  5
B9
100
AcDbEntity
  8
MSL-3-80-7
100
AcDbLine
 10
-474.623472
 20
-639.476017
 30
0.0
 11
-468.623472
 21
-639.476017
 31
0.0
  0
LINE
  5
BA
100
AcDbEntity
  8
MSL-3-80-7
100
AcDbLine
 10
-474.623472
 20
-639.476017
 30
0.0
 11
-474.623472
 21
-645.476017
 31
0.0
  0
LINE
  5
BB
100
AcDbEntity
  8
MSL-3-80-3
100
AcDbLine
 10
-466.623472
 20
-628.056602
 30
0.0
 11
-469.081972
 21
-629.476017
 31
0.0
  0
LINE
  5
BC
100
AcDbEntity
  8
MSL-3-80-0
100
AcDbLine
 10
-563.639314
 20
-575.47708
 30
0.0
 11
-663.639314
 21
-575.477209
 31
0.0
  0
LINE
  5
BD
100
AcDbEntity
  8
MSL-3-80-0
100
AcDbLine
 10
-566.639323
 20
-568.477084
 30
0.0
 11
-660.639323
 21
-568.477205
 31
0.0
  0
CIRCLE
  5
BE
100
AcDbEntity
  8
MSL-3-80-0
100
AcDbCircle
 10
-633.639283
 20
-599.47717
 30
0.0
 40
3.3
  0
CIRCLE
  5
BF
100
AcDbEntity
  8
MSL-3-80-3
100
AcDbCircle
 10
-633.639283
 20
-599.47717
 30
0.0
 40
5.5
  0
LINE
  5
C0
100
AcDbEntity
  8
MSL-3-80-7
100
AcDbLine
 10
-633.639283
 20
-599.47717
 30
0.0
 11
-642.139283
 21
-599.47717
 31
0.0
  0
ARC
  5
C1
100
AcDbEntity
  8
MSL-3-80-0
100
AcDbCircle
 10
-660.63932
 20
-570.477205
 30
0.0
 40
2.0
100
AcDbArc
 50
90.000076
 51
180.000075
  0
LINE
  5
C2
100
AcDbEntity
  8
MSL-3-80-3
100
AcDbLine
 10
-663.639283
 20
-601.935528
 30
0.0
 11
-647.639283
 21
-601.935528
 31
0.0
  0
LINE
  5
C3
100
AcDbEntity
  8
MSL-3-80-7
100
AcDbLine
 10
-643.219867
 20
-599.477028
 30
0.0
 11
-666.639283
 21
-599.477028
 31
0.0
  0
LINE
  5
C4
100
AcDbEntity
  8
MSL-3-80-3
100
AcDbLine
 10
-663.639283
 20
-602.477028
 30
0.0
 11
-651.639283
 21
-602.477028
 31
0.0
  0
LINE
  5
C5
100
AcDbEntity
  8
MSL-3-80-3
100
AcDbLine
 10
-663.639283
 20
-597.018528
 30
0.0
 11
-647.639283
 21
-597.018528
 31
0.0
  0
LINE
  5
C6
100
AcDbEntity
  8
MSL-3-80-3
100
AcDbLine
 10
-663.639283
 20
-596.477028
 30
0.0
 11
-651.639283
 21
-596.477028
 31
0.0
  0
LINE
  5
C7
100
AcDbEntity
  8
MSL-3-80-0
100
AcDbLine
 10
-667.139276
 20
-591.478522
 30
0.0
 11
-667.139282
 21
-583.478522
 31
0.0
  0
ARC
  5
C8
100
AcDbEntity
  8
MSL-3-80-0
100
AcDbCircle
 10
-665.639276
 20
-591.478521
 30
0.0
 40
1.5
100
AcDbArc
 50
180.000041
 51
270.00004
  0
LINE
  5
C9
100
AcDbEntity
  8
MSL-3-80-0
100
AcDbLine
 10
-663.639275
 20
-592.978519
 30
0.0
 11
-665.639275
 21
-592.978521
 31
0.0
  0
LINE
  5
CA
100
AcDbEntity
  8
MSL-3-80-0
100
AcDbLine
 10
-667.139276
 20
-591.478522
 30
0.0
 11
-667.139276
 21
-591.478522
 31
0.0
  0
LINE
  5
CB
100
AcDbEntity
  8
MSL-3-80-7
100
AcDbLine
 10
-669.928032
 20
-575.477184
 30
0.0
 11
-658.735305
 21
-575.477176
 31
0.0
  0
LINE
  5
CC
100
AcDbEntity
  8
MSL-3-80-7
100
AcDbLine
 10
-669.928024
 20
-587.477184
 30
0.0
 11
-658.735297
 21
-587.477176
 31
0.0
  0
LINE
  5
CD
100
AcDbEntity
  8
MSL-3-80-0
100
AcDbLine
 10
-662.63932
 20
-570.477208
 30
0.0
 11
-662.639314
 21
-575.477208
 31
0.0
  0
ARC
  5
CE
100
AcDbEntity
  8
MSL-3-80-0
100
AcDbCircle
 10
-665.63929
 20
-571.478521
 30
0.0
 40
1.5
100
AcDbArc
 50
90.000038
 51
180.000041
  0
ARC
  5
CF
100
AcDbEntity
  8
MSL-3-80-0
100
AcDbCircle
 10
-665.639282
 20
-583.478521
 30
0.0
 40
1.5
100
AcDbArc
 50
90.000038
 51
180.000041
  0
ARC
  5
D0
100
AcDbEntity
  8
MSL-3-80-0
100
AcDbCircle
 10
-665.639285
 20
-579.478521
 30
0.0
 40
1.5
100
AcDbArc
 50
180.000041
 51
270.00004
  0
LINE
  5
D1
100
AcDbEntity
  8
MSL-3-80-0
100
AcDbLine
 10
-665.639291
 20
-569.978521
 30
0.0
 11
-662.639291
 21
-569.978519
 31
0.0
  0
LINE
  5
D2
100
AcDbEntity
  8
MSL-3-80-0
100
AcDbLine
 10
-665.639283
 20
-581.978521
 30
0.0
 11
-663.639283
 21
-581.978519
 31
0.0
  0
LINE
  5
D3
100
AcDbEntity
  8
MSL-3-80-0
100
AcDbLine
 10
-663.639284
 20
-580.978519
 30
0.0
 11
-665.639284
 21
-580.978521
 31
0.0
  0
LINE
  5
D4
100
AcDbEntity
  8
MSL-3-80-0
100
AcDbLine
 10
-667.139285
 20
-579.478522
 30
0.0
 11
-667.13929
 21
-571.478522
 31
0.0
  0
LINE
  5
D5
100
AcDbEntity
  8
MSL-3-80-3
100
AcDbLine
 10
-646.219867
 20
-599.477028
 30
0.0
 11
-647.639283
 21
-597.018528
 31
0.0
  0
LINE
  5
D6
100
AcDbEntity
  8
MSL-3-80-3
100
AcDbLine
 10
-646.219867
 20
-599.477028
 30
0.0
 11
-647.639283
 21
-601.935528
 31
0.0
  0
LINE
  5
D7
100
AcDbEntity
  8
MSL-3-80-3
100
AcDbLine
 10
-651.639283
 20
-596.477028
 30
0.0
 11
-651.639283
 21
-602.477028
 31
0.0
  0
LINE
  5
D8
100
AcDbEntity
  8
MSL-3-80-3
100
AcDbLine
 10
-647.639283
 20
-597.018528
 30
0.0
 11
-647.639283
 21
-601.935528
 31
0.0
  0
LINE
  5
D9
100
AcDbEntity
  8
MSL-3-80-0
100
AcDbLine
 10
-480.623472
 20
-379.75265
 30
0.0
 11
-480.623472
 21
-479.75265
 31
0.0
  0
CIRCLE
  5
DA
100
AcDbEntity
  8
MSL-3-80-0
100
AcDbCircle
 10
-593.639283
 20
-599.477119
 30
0.0
 40
3.3
  0
CIRCLE
  5
DB
100
AcDbEntity
  8
MSL-3-80-3
100
AcDbCircle
 10
-593.639291
 20
-599.477028
 30
0.0
 40
5.5
  0
LINE
  5
DC
100
AcDbEntity
  8
MSL-3-80-7
100
AcDbLine
 10
-593.639291
 20
-599.477028
 30
0.0
 11
-585.139291
 21
-599.477028
 31
0.0
  0
CIRCLE
  5
DD
100
AcDbEntity
  8
MSL-3-80-0
100
AcDbCircle
 10
-613.639283
 20
-599.477145
 30
0.0
 40
3.0
  0
LINE
  5
DE
100
AcDbEntity
  8
MSL-3-80-7
100
AcDbLine
 10
-613.639283
 20
-599.477145
 30
0.0
 11
-619.639283
 21
-599.477145
 31
0.0
  0
MTEXT
  5
DF
100
AcDbEntity
  8
MSL-3-80-6
100
AcDbMText
 10
-623.008798
 20
-570.679554
 30
0.0
 40
3.5
 41
26.851963
 71
     1
 72
     1
  1
{MSL-3-80}
  0
LINE
  5
E0
100
AcDbEntity
  8
MSL-3-80-7
100
AcDbLine
 10
-633.639283
 20
-599.47717
 30
0.0
 11
-633.639283
 21
-590.97717
 31
0.0
  0
LINE
  5
E1
100
AcDbEntity
  8
MSL-3-80-7
100
AcDbLine
 10
-633.639283
 20
-599.47717
 30
0.0
 11
-625.139283
 21
-599.47717
 31
0.0
  0
LINE
  5
E2
100
AcDbEntity
  8
MSL-3-80-7
100
AcDbLine
 10
-633.639283
 20
-599.47717
 30
0.0
 11
-633.639283
 21
-607.97717
 31
0.0
  0
LINE
  5
E3
100
AcDbEntity
  8
MSL-3-80-7
100
AcDbLine
 10
-593.639291
 20
-599.477028
 30
0.0
 11
-593.639291
 21
-590.977028
 31
0.0
  0
LINE
  5
E4
100
AcDbEntity
  8
MSL-3-80-7
100
AcDbLine
 10
-613.639283
 20
-599.477145
 30
0.0
 11
-613.639283
 21
-593.477145
 31
0.0
  0
LINE
  5
E5
100
AcDbEntity
  8
MSL-3-80-7
100
AcDbLine
 10
-613.639283
 20
-599.477145
 30
0.0
 11
-607.639283
 21
-599.477145
 31
0.0
  0
LINE
  5
E6
100
AcDbEntity
  8
MSL-3-80-7
100
AcDbLine
 10
-613.639283
 20
-599.477145
 30
0.0
 11
-613.639283
 21
-605.477145
 31
0.0
  0
LINE
  5
E7
100
AcDbEntity
  8
MSL-3-80-7
100
AcDbLine
 10
-593.639291
 20
-599.477028
 30
0.0
 11
-602.139291
 21
-599.477028
 31
0.0
  0
LINE
  5
E8
100
AcDbEntity
  8
MSL-3-80-7
100
AcDbLine
 10
-593.639291
 20
-599.477028
 30
0.0
 11
-593.639291
 21
-607.977028
 31
0.0
  0
ARC
  5
E9
100
AcDbEntity
  8
MSL-3-80-0
100
AcDbCircle
 10
-566.63932
 20
-570.477084
 30
0.0
 40
2.0
100
AcDbArc
 50
0.000073
 51
90.000076
  0
LINE
  5
EA
100
AcDbEntity
  8
MSL-3-80-7
100
AcDbLine
 10
-584.058698
 20
-599.477028
 30
0.0
 11
-560.639283
 21
-599.477028
 31
0.0
  0
LINE
  5
EB
100
AcDbEntity
  8
MSL-3-80-3
100
AcDbLine
 10
-563.639283
 20
-601.935528
 30
0.0
 11
-579.639283
 21
-601.935528
 31
0.0
  0
LINE
  5
EC
100
AcDbEntity
  8
MSL-3-80-3
100
AcDbLine
 10
-563.639283
 20
-602.477028
 30
0.0
 11
-575.639283
 21
-602.477028
 31
0.0
  0
LINE
  5
ED
100
AcDbEntity
  8
MSL-3-80-3
100
AcDbLine
 10
-563.639283
 20
-597.018528
 30
0.0
 11
-579.639283
 21
-597.018528
 31
0.0
  0
LINE
  5
EE
100
AcDbEntity
  8
MSL-3-80-3
100
AcDbLine
 10
-563.639283
 20
-596.477028
 30
0.0
 11
-575.639283
 21
-596.477028
 31
0.0
  0
LINE
  5
EF
100
AcDbEntity
  8
MSL-3-80-3
100
AcDbLine
 10
-575.639283
 20
-596.477028
 30
0.0
 11
-575.639283
 21
-602.477028
 31
0.0
  0
LINE
  5
F0
100
AcDbEntity
  8
MSL-3-80-3
100
AcDbLine
 10
-581.058698
 20
-599.477028
 30
0.0
 11
-579.639283
 21
-597.018528
 31
0.0
  0
LINE
  5
F1
100
AcDbEntity
  8
MSL-3-80-3
100
AcDbLine
 10
-579.639283
 20
-597.018528
 30
0.0
 11
-579.639283
 21
-601.935528
 31
0.0
  0
LINE
  5
F2
100
AcDbEntity
  8
MSL-3-80-3
100
AcDbLine
 10
-581.058698
 20
-599.477028
 30
0.0
 11
-579.639283
 21
-601.935528
 31
0.0
  0
LINE
  5
F3
100
AcDbEntity
  8
MSL-3-80-0
100
AcDbLine
 10
-564.639291
 20
-570.47711
 30
0.0
 11
-564.639287
 21
-575.47711
 31
0.0
  0
ARC
  5
F4
100
AcDbEntity
  8
MSL-3-80-4
100
AcDbCircle
 10
-474.623472
 20
-599.477422
 30
0.0
 40
3.0
100
AcDbArc
 50
251.265343
 51
200.571702
  0
CIRCLE
  5
F5
100
AcDbEntity
  8
MSL-3-80-0
100
AcDbCircle
 10
-474.623472
 20
-599.477422
 30
0.0
 40
2.5
  0
LINE
  5
F6
100
AcDbEntity
  8
MSL-3-80-7
100
AcDbLine
 10
-474.623472
 20
-599.477422
 30
0.0
 11
-480.623472
 21
-599.477422
 31
0.0
  0
LINE
  5
F7
100
AcDbEntity
  8
MSL-3-80-7
100
AcDbLine
 10
-474.623472
 20
-599.477422
 30
0.0
 11
-474.623472
 21
-593.477422
 31
0.0
  0
LINE
  5
F8
100
AcDbEntity
  8
MSL-3-80-7
100
AcDbLine
 10
-474.623472
 20
-599.477422
 30
0.0
 11
-468.623472
 21
-599.477422
 31
0.0
  0
LINE
  5
F9
100
AcDbEntity
  8
MSL-3-80-7
100
AcDbLine
 10
-474.623472
 20
-599.477422
 30
0.0
 11
-474.623472
 21
-605.477422
 31
0.0
  0
LINE
  5
FA
100
AcDbEntity
  8
MSL-3-80-7
100
AcDbLine
 10
-474.623472
 20
-459.333235
 30
0.0
 11
-474.623472
 21
-482.75265
 31
0.0
  0
LINE
  5
FB
100
AcDbEntity
  8
MSL-3-80-7
100
AcDbLine
 10
-466.623472
 20
-459.833831
 30
0.0
 11
-466.623472
 21
-469.863945
 31
0.0
  0
LINE
  5
FC
100
AcDbEntity
  8
MSL-3-80-3
100
AcDbLine
 10
-474.623472
 20
-462.333235
 30
0.0
 11
-477.081972
 21
-463.75265
 31
0.0
  0
LINE
  5
FD
100
AcDbEntity
  8
MSL-3-80-3
100
AcDbLine
 10
-472.164972
 20
-463.75265
 30
0.0
 11
-477.081972
 21
-463.75265
 31
0.0
  0
LINE
  5
FE
100
AcDbEntity
  8
MSL-3-80-3
100
AcDbLine
 10
-471.623472
 20
-467.75265
 30
0.0
 11
-477.623472
 21
-467.75265
 31
0.0
  0
LINE
  5
FF
100
AcDbEntity
  8
MSL-3-80-3
100
AcDbLine
 10
-477.623472
 20
-479.75265
 30
0.0
 11
-477.623472
 21
-467.75265
 31
0.0
  0
LINE
  5
100
100
AcDbEntity
  8
MSL-3-80-3
100
AcDbLine
 10
-477.081972
 20
-479.75265
 30
0.0
 11
-477.081972
 21
-463.75265
 31
0.0
  0
LINE
  5
101
100
AcDbEntity
  8
MSL-3-80-3
100
AcDbLine
 10
-471.623472
 20
-479.75265
 30
0.0
 11
-471.623472
 21
-467.75265
 31
0.0
  0
LINE
  5
102
100
AcDbEntity
  8
MSL-3-80-3
100
AcDbLine
 10
-472.164972
 20
-479.75265
 30
0.0
 11
-472.164972
 21
-463.75265
 31
0.0
  0
LINE
  5
103
100
AcDbEntity
  8
MSL-3-80-3
100
AcDbLine
 10
-474.623472
 20
-462.333235
 30
0.0
 11
-472.164972
 21
-463.75265
 31
0.0
  0
LINE
  5
104
100
AcDbEntity
  8
MSL-3-80-7
100
AcDbLine
 10
-466.623472
 20
-389.833831
 30
0.0
 11
-466.623472
 21
-399.863945
 31
0.0
  0
LINE
  5
105
100
AcDbEntity
  8
MSL-3-80-7
100
AcDbLine
 10
-474.623472
 20
-400.172066
 30
0.0
 11
-474.623472
 21
-376.75265
 31
0.0
  0
LINE
  5
106
100
AcDbEntity
  8
MSL-3-80-3
100
AcDbLine
 10
-472.164972
 20
-379.75265
 30
0.0
 11
-472.164972
 21
-395.75265
 31
0.0
  0
LINE
  5
107
100
AcDbEntity
  8
MSL-3-80-3
100
AcDbLine
 10
-477.081972
 20
-379.75265
 30
0.0
 11
-477.081972
 21
-395.75265
 31
0.0
  0
LINE
  5
108
100
AcDbEntity
  8
MSL-3-80-3
100
AcDbLine
 10
-465.623472
 20
-406.45265
 30
0.0
 11
-480.623472
 21
-406.45265
 31
0.0
  0
LINE
  5
109
100
AcDbEntity
  8
MSL-3-80-3
100
AcDbLine
 10
-480.623472
 20
-413.05265
 30
0.0
 11
-465.623472
 21
-413.05265
 31
0.0
  0
LINE
  5
10A
100
AcDbEntity
  8
MSL-3-80-3
100
AcDbLine
 10
-474.623472
 20
-397.172066
 30
0.0
 11
-477.081972
 21
-395.75265
 31
0.0
  0
LINE
  5
10B
100
AcDbEntity
  8
MSL-3-80-3
100
AcDbLine
 10
-477.081972
 20
-395.75265
 30
0.0
 11
-472.164972
 21
-395.75265
 31
0.0
  0
LINE
  5
10C
100
AcDbEntity
  8
MSL-3-80-3
100
AcDbLine
 10
-465.623472
 20
-413.05265
 30
0.0
 11
-465.623472
 21
-406.45265
 31
0.0
  0
LINE
  5
10D
100
AcDbEntity
  8
MSL-3-80-3
100
AcDbLine
 10
-465.623472
 20
-413.05265
 30
0.0
 11
-465.623472
 21
-415.25265
 31
0.0
  0
LINE
  5
10E
100
AcDbEntity
  8
MSL-3-80-3
100
AcDbLine
 10
-465.623472
 20
-404.25265
 30
0.0
 11
-465.623472
 21
-406.45265
 31
0.0
  0
LINE
  5
10F
100
AcDbEntity
  8
MSL-3-80-3
100
AcDbLine
 10
-474.623472
 20
-397.172066
 30
0.0
 11
-472.164972
 21
-395.75265
 31
0.0
  0
LINE
  5
110
100
AcDbEntity
  8
MSL-3-80-3
100
AcDbLine
 10
-477.623472
 20
-391.75265
 30
0.0
 11
-471.623472
 21
-391.75265
 31
0.0
  0
LINE
  5
111
100
AcDbEntity
  8
MSL-3-80-3
100
AcDbLine
 10
-477.623472
 20
-379.75265
 30
0.0
 11
-477.623472
 21
-391.75265
 31
0.0
  0
LINE
  5
112
100
AcDbEntity
  8
MSL-3-80-3
100
AcDbLine
 10
-471.623472
 20
-379.75265
 30
0.0
 11
-471.623472
 21
-391.75265
 31
0.0
  0
LINE
  5
113
100
AcDbEntity
  8
MSL-3-80-0
100
AcDbLine
 10
-460.623472
 20
-575.476017
 30
0.0
 11
-460.623472
 21
-615.476731
 31
0.0
  0
LINE
  5
114
100
AcDbEntity
  8
MSL-3-80-0
100
AcDbLine
 10
-440.623472
 20
-568.476017
 30
0.0
 11
-440.623472
 21
-644.476017
 31
0.0
  0
LINE
  5
115
100
AcDbEntity
  8
MSL-3-80-0
100
AcDbLine
 10
-300.623472
 20
-644.476017
 30
0.0
 11
-300.623472
 21
-568.476017
 31
0.0
  0
LINE
  5
116
100
AcDbEntity
  8
MSL-3-80-0
100
AcDbLine
 10
-180.623472
 20
-645.476017
 30
0.0
 11
-180.623472
 21
-575.476017
 31
0.0
  0
LINE
  5
117
100
AcDbEntity
  8
MSL-3-80-0
100
AcDbLine
 10
-200.623472
 20
-575.476017
 30
0.0
 11
-200.623472
 21
-645.476017
 31
0.0
  0
LINE
  5
118
100
AcDbEntity
  8
MSL-3-80-7
100
AcDbLine
 10
-370.623472
 20
-605.476427
 30
0.0
 11
-370.623472
 21
-633.476427
 31
0.0
  0
LINE
  5
119
100
AcDbEntity
  8
MSL-3-80-0
100
AcDbLine
 10
-300.623472
 20
-627.476926
 30
0.0
 11
-200.623472
 21
-627.476926
 31
0.0
  0
LINE
  5
11A
100
AcDbEntity
  8
MSL-3-80-0
100
AcDbLine
 10
-300.623472
 20
-630.97604
 30
0.0
 11
-282.623472
 21
-630.97604
 31
0.0
  0
LINE
  5
11B
100
AcDbEntity
  8
MSL-3-80-0
100
AcDbLine
 10
-295.77782
 20
-808.687307
 30
0.0
 11
-200.623472
 21
-808.687307
 31
0.0
  0
LINE
  5
11C
100
AcDbEntity
  8
MSL-3-80-0
100
AcDbLine
 10
-200.623472
 20
-722.687307
 30
0.0
 11
-300.623472
 21
-722.687307
 31
0.0
  0
LINE
  5
11D
100
AcDbEntity
  8
MSL-3-80-0
100
AcDbLine
 10
-300.623472
 20
-754.187307
 30
0.0
 11
-282.623472
 21
-754.187307
 31
0.0
  0
LINE
  5
11E
100
AcDbEntity
  8
MSL-3-80-0
100
AcDbLine
 10
-282.623472
 20
-777.187307
 30
0.0
 11
-300.623472
 21
-777.187307
 31
0.0
  0
LINE
  5
11F
100
AcDbEntity
  8
MSL-3-80-0
100
AcDbLine
 10
-300.623472
 20
-738.687307
 30
0.0
 11
-217.623472
 21
-738.687307
 31
0.0
  0
LINE
  5
120
100
AcDbEntity
  8
MSL-3-80-7
100
AcDbLine
 10
-305.262675
 20
-619.476143
 30
0.0
 11
-276.363704
 21
-619.476017
 31
0.0
  0
LINE
  5
121
100
AcDbEntity
  8
MSL-3-80-7
100
AcDbLine
 10
-305.262675
 20
-730.687307
 30
0.0
 11
-217.623472
 21
-730.687307
 31
0.0
  0
LINE
  5
122
100
AcDbEntity
  8
MSL-3-80-7
100
AcDbLine
 10
-305.262675
 20
-800.687307
 30
0.0
 11
-196.017456
 21
-800.687307
 31
0.0
  0
LINE
  5
123
100
AcDbEntity
  8
MSL-3-80-7
100
AcDbLine
 10
-305.262675
 20
-765.687307
 30
0.0
 11
-175.976793
 21
-765.687307
 31
0.0
  0
LINE
  5
124
100
AcDbEntity
  8
MSL-3-80-0
100
AcDbLine
 10
-295.623472
 20
-787.187307
 30
0.0
 11
-293.623472
 21
-787.187307
 31
0.0
  0
LINE
  5
125
100
AcDbEntity
  8
MSL-3-80-0
100
AcDbLine
 10
-293.623472
 20
-807.187307
 30
0.0
 11
-295.623472
 21
-807.187307
 31
0.0
  0
LINE
  5
126
100
AcDbEntity
  8
MSL-3-80-7
100
AcDbLine
 10
-308.408518
 20
-797.187307
 30
0.0
 11
-264.315137
 21
-797.187307
 31
0.0
  0
LINE
  5
127
100
AcDbEntity
  8
MSL-3-80-7
100
AcDbLine
 10
-295.125182
 20
-734.187307
 30
0.0
 11
-307.134329
 21
-734.187307
 31
0.0
  0
LINE
  5
128
100
AcDbEntity
  8
MSL-3-80-0
100
AcDbLine
 10
-300.623472
 20
-715.687307
 30
0.0
 11
-300.623472
 21
-815.687307
 31
0.0
  0
LINE
  5
129
100
AcDbEntity
  8
MSL-3-80-0
100
AcDbLine
 10
-440.623472
 20
-815.687307
 30
0.0
 11
-440.623472
 21
-715.687307
 31
0.0
  0
LINE
  5
12A
100
AcDbEntity
  8
MSL-3-80-0
100
AcDbLine
 10
-460.623472
 20
-815.687307
 30
0.0
 11
-460.623472
 21
-715.687307
 31
0.0
  0
ARC
  5
12B
100
AcDbEntity
  8
MSL-3-80-3
100
AcDbCircle
 10
-390.623472
 20
-785.687307
 30
0.0
 40
3.0
100
AcDbArc
 50
353.599193
 51
276.865645
  0
LINE
  5
12C
100
AcDbEntity
  8
MSL-3-80-7
100
AcDbLine
 10
-390.623472
 20
-785.687307
 30
0.0
 11
-390.623472
 21
-791.687307
 31
0.0
  0
CIRCLE
  5
12D
100
AcDbEntity
  8
MSL-3-80-3
100
AcDbCircle
 10
-390.623472
 20
-785.687307
 30
0.0
 40
2.5
  0
CIRCLE
  5
12E
100
AcDbEntity
  8
MSL-3-80-3
100
AcDbCircle
 10
-370.623472
 20
-785.687307
 30
0.0
 40
3.0
  0
LINE
  5
12F
100
AcDbEntity
  8
MSL-3-80-7
100
AcDbLine
 10
-370.623472
 20
-785.687307
 30
0.0
 11
-370.623472
 21
-791.687307
 31
0.0
  0
ARC
  5
130
100
AcDbEntity
  8
MSL-3-80-3
100
AcDbCircle
 10
-350.623472
 20
-785.687307
 30
0.0
 40
3.0
100
AcDbArc
 50
353.599193
 51
276.865645
  0
LINE
  5
131
100
AcDbEntity
  8
MSL-3-80-7
100
AcDbLine
 10
-350.623472
 20
-785.687307
 30
0.0
 11
-350.623472
 21
-791.687307
 31
0.0
  0
CIRCLE
  5
132
100
AcDbEntity
  8
MSL-3-80-3
100
AcDbCircle
 10
-350.623472
 20
-785.687307
 30
0.0
 40
2.5
  0
LINE
  5
133
100
AcDbEntity
  8
MSL-3-80-0
100
AcDbLine
 10
-440.623472
 20
-787.387307
 30
0.0
 11
-440.623472
 21
-806.987307
 31
0.0
  0
ARC
  5
134
100
AcDbEntity
  8
MSL-3-80-0
100
AcDbCircle
 10
-440.514792
 20
-789.826091
 30
0.0
 40
3.108681
100
AcDbArc
 50
127.878142
 51
232.121858
  0
LINE
  5
135
100
AcDbEntity
  8
MSL-3-80-0
100
AcDbLine
 10
-295.623472
 20
-786.795002
 30
0.0
 11
-295.623472
 21
-807.579612
 31
0.0
  0
ARC
  5
136
100
AcDbEntity
  8
MSL-3-80-0
100
AcDbCircle
 10
-296.571549
 20
-786.795002
 30
0.0
 40
4.051923
100
AcDbArc
 50
121.248241
 51
238.751759
  0
ARC
  5
137
100
AcDbEntity
  8
MSL-3-80-0
100
AcDbCircle
 10
-299.675395
 20
-786.795002
 30
0.0
 40
4.051923
100
AcDbArc
 50
301.248243
 51
58.751757
  0
LINE
  5
138
100
AcDbEntity
  8
MSL-3-80-0
100
AcDbLine
 10
-300.623472
 20
-815.687307
 30
0.0
 11
-440.623472
 21
-815.687307
 31
0.0
  0
ARC
  5
139
100
AcDbEntity
  8
MSL-3-80-0
100
AcDbCircle
 10
-380.62213
 20
-818.6873
 30
0.0
 40
1.5
100
AcDbArc
 50
270.000041
 51
0.00004
  0
MTEXT
  5
13A
100
AcDbEntity
  8
MSL-3-80-6
100
AcDbMText
 10
-438.891086
 20
-810.492946
 30
0.0
 40
3.5
 41
26.851963
 71
     1
 72
     1
  1
{MSL-3-80}
  0
LINE
  5
13B
100
AcDbEntity
  8
MSL-3-80-0
100
AcDbLine
 10
-460.623472
 20
-808.687307
 30
0.0
 11
-440.623472
 21
-808.687307
 31
0.0
  0
ARC
  5
13C
100
AcDbEntity
  8
MSL-3-80-0
100
AcDbCircle
 10
-446.185637
 20
-791.558142
 30
0.0
 40
2.562165
100
AcDbArc
 50
312.916664
 51
47.083336
  0
ARC
  5
13D
100
AcDbEntity
  8
MSL-3-80-0
100
AcDbCircle
 10
-446.185637
 20
-802.816472
 30
0.0
 40
2.562165
100
AcDbArc
 50
312.916664
 51
47.083336
  0
ARC
  5
13E
100
AcDbEntity
  8
MSL-3-80-0
100
AcDbCircle
 10
-452.645882
 20
-797.187307
 30
0.0
 40
9.02241
100
AcDbArc
 50
335.421503
 51
24.578497
  0
ARC
  5
13F
100
AcDbEntity
  8
MSL-3-80-0
100
AcDbCircle
 10
-456.416528
 20
-791.558142
 30
0.0
 40
2.293056
100
AcDbArc
 50
305.085848
 51
54.914152
  0
ARC
  5
140
100
AcDbEntity
  8
MSL-3-80-0
100
AcDbCircle
 10
-456.416528
 20
-802.816472
 30
0.0
 40
2.293056
100
AcDbArc
 50
305.085848
 51
54.914152
  0
ARC
  5
141
100
AcDbEntity
  8
MSL-3-80-0
100
AcDbCircle
 10
-461.833195
 20
-797.187307
 30
0.0
 40
7.709722
100
AcDbArc
 50
330.872218
 51
29.127782
  0
LINE
  5
142
100
AcDbEntity
  8
MSL-3-80-0
100
AcDbLine
 10
-455.098472
 20
-789.681754
 30
0.0
 11
-459.648472
 21
-789.681754
 31
0.0
  0
LINE
  5
143
100
AcDbEntity
  8
MSL-3-80-0
100
AcDbLine
 10
-455.098472
 20
-793.43453
 30
0.0
 11
-459.648472
 21
-793.43453
 31
0.0
  0
ARC
  5
144
100
AcDbEntity
  8
MSL-3-80-0
100
AcDbCircle
 10
-458.330417
 20
-791.558142
 30
0.0
 40
2.293056
100
AcDbArc
 50
125.085847
 51
234.914153
  0
LINE
  5
145
100
AcDbEntity
  8
MSL-3-80-0
100
AcDbLine
 10
-455.098472
 20
-804.692861
 30
0.0
 11
-459.648472
 21
-804.692861
 31
0.0
  0
LINE
  5
146
100
AcDbEntity
  8
MSL-3-80-0
100
AcDbLine
 10
-455.098472
 20
-800.940084
 30
0.0
 11
-459.648472
 21
-800.940084
 31
0.0
  0
ARC
  5
147
100
AcDbEntity
  8
MSL-3-80-0
100
AcDbCircle
 10
-458.330417
 20
-802.816472
 30
0.0
 40
2.293056
100
AcDbArc
 50
125.085847
 51
234.914153
  0
LINE
  5
148
100
AcDbEntity
  8
MSL-3-80-0
100
AcDbLine
 10
-460.623472
 20
-802.816472
 30
0.0
 11
-460.623472
 21
-791.558142
 31
0.0
  0
ARC
  5
149
100
AcDbEntity
  8
MSL-3-80-0
100
AcDbCircle
 10
-452.91375
 20
-797.187307
 30
0.0
 40
7.709722
100
AcDbArc
 50
150.872216
 51
209.127784
  0
LINE
  5
14A
100
AcDbEntity
  8
MSL-3-80-0
100
AcDbLine
 10
-454.123472
 20
-792.687307
 30
0.0
 11
-447.623472
 21
-792.687307
 31
0.0
  0
LINE
  5
14B
100
AcDbEntity
  8
MSL-3-80-0
100
AcDbLine
 10
-444.440972
 20
-789.681754
 30
0.0
 11
-447.623472
 21
-789.681754
 31
0.0
  0
LINE
  5
14C
100
AcDbEntity
  8
MSL-3-80-0
100
AcDbLine
 10
-444.440972
 20
-793.43453
 30
0.0
 11
-447.623472
 21
-793.43453
 31
0.0
  0
LINE
  5
14D
100
AcDbEntity
  8
MSL-3-80-0
100
AcDbLine
 10
-447.623472
 20
-804.692861
 30
0.0
 11
-444.440972
 21
-804.692861
 31
0.0
  0
LINE
  5
14E
100
AcDbEntity
  8
MSL-3-80-0
100
AcDbLine
 10
-444.440972
 20
-800.940084
 30
0.0
 11
-447.623472
 21
-800.940084
 31
0.0
  0
LINE
  5
14F
100
AcDbEntity
  8
MSL-3-80-0
100
AcDbLine
 10
-447.623472
 20
-789.681754
 30
0.0
 11
-447.623472
 21
-804.692861
 31
0.0
  0
LINE
  5
150
100
AcDbEntity
  8
MSL-3-80-0
100
AcDbLine
 10
-454.123472
 20
-802.816472
 30
0.0
 11
-454.123472
 21
-791.558142
 31
0.0
  0
LINE
  5
151
100
AcDbEntity
  8
MSL-3-80-0
100
AcDbLine
 10
-454.123472
 20
-793.187307
 30
0.0
 11
-447.623472
 21
-793.187307
 31
0.0
  0
LINE
  5
152
100
AcDbEntity
  8
MSL-3-80-0
100
AcDbLine
 10
-454.123472
 20
-801.187307
 30
0.0
 11
-447.623472
 21
-801.187307
 31
0.0
  0
ARC
  5
153
100
AcDbEntity
  8
MSL-3-80-0
100
AcDbCircle
 10
-440.514792
 20
-804.548523
 30
0.0
 40
3.108681
100
AcDbArc
 50
127.878142
 51
232.121858
  0
LINE
  5
154
100
AcDbEntity
  8
MSL-3-80-0
100
AcDbLine
 10
-440.623472
 20
-806.987307
 30
0.0
 11
-442.442544
 21
-806.987307
 31
0.0
  0
LINE
  5
155
100
AcDbEntity
  8
MSL-3-80-0
100
AcDbLine
 10
-442.423472
 20
-792.27983
 30
0.0
 11
-440.623472
 21
-792.27983
 31
0.0
  0
LINE
  5
156
100
AcDbEntity
  8
MSL-3-80-0
100
AcDbLine
 10
-442.423472
 20
-802.094784
 30
0.0
 11
-440.623472
 21
-802.094784
 31
0.0
  0
LINE
  5
157
100
AcDbEntity
  8
MSL-3-80-0
100
AcDbLine
 10
-443.623472
 20
-789.826091
 30
0.0
 11
-443.623472
 21
-804.548523
 31
0.0
  0
ARC
  5
158
100
AcDbEntity
  8
MSL-3-80-0
100
AcDbCircle
 10
-432.98875
 20
-797.187307
 30
0.0
 40
10.634722
100
AcDbArc
 50
152.518771
 51
207.481229
  0
LINE
  5
159
100
AcDbEntity
  8
MSL-3-80-0
100
AcDbLine
 10
-443.623472
 20
-791.558142
 30
0.0
 11
-443.623472
 21
-802.816472
 31
0.0
  0
CIRCLE
  5
15A
100
AcDbEntity
  8
MSL-3-80-0
100
AcDbCircle
 10
-396.623472
 20
-797.187307
 30
0.0
 40
5.5
  0
LINE
  5
15B
100
AcDbEntity
  8
MSL-3-80-7
100
AcDbLine
 10
-396.623472
 20
-797.187307
 30
0.0
 11
-403.457719
 21
-797.187307
 31
0.0
  0
LINE
  5
15C
100
AcDbEntity
  8
MSL-3-80-7
100
AcDbLine
 10
-390.623472
 20
-795.267891
 30
0.0
 11
-390.623472
 21
-818.687307
 31
0.0
  0
ARC
  5
15D
100
AcDbEntity
  8
MSL-3-80-0
100
AcDbCircle
 10
-391.12213
 20
-818.687292
 30
0.0
 40
1.5
100
AcDbArc
 50
270.000041
 51
0.00004
  0
LINE
  5
15E
100
AcDbEntity
  8
MSL-3-80-0
100
AcDbLine
 10
-391.122129
 20
-820.187292
 30
0.0
 11
-399.122129
 21
-820.187297
 31
0.0
  0
LINE
  5
15F
100
AcDbEntity
  8
MSL-3-80-0
100
AcDbLine
 10
-391.122129
 20
-820.187292
 30
0.0
 11
-391.122129
 21
-820.187292
 31
0.0
  0
LINE
  5
160
100
AcDbEntity
  8
MSL-3-80-7
100
AcDbLine
 10
-395.123467
 20
-822.97604
 30
0.0
 11
-395.123475
 21
-811.783313
 31
0.0
  0
LINE
  5
161
100
AcDbEntity
  8
MSL-3-80-0
100
AcDbLine
 10
-400.62213
 20
-818.687299
 30
0.0
 11
-400.622132
 21
-815.687307
 31
0.0
  0
ARC
  5
162
100
AcDbEntity
  8
MSL-3-80-0
100
AcDbCircle
 10
-399.12213
 20
-818.687297
 30
0.0
 40
1.5
100
AcDbArc
 50
180.000038
 51
270.000041
  0
LINE
  5
163
100
AcDbEntity
  8
MSL-3-80-0
100
AcDbLine
 10
-389.622132
 20
-815.687307
 30
0.0
 11
-389.62213
 21
-818.687291
 31
0.0
  0
LINE
  5
164
100
AcDbEntity
  8
MSL-3-80-7
100
AcDbLine
 10
-384.623467
 20
-822.976048
 30
0.0
 11
-384.623475
 21
-811.783321
 31
0.0
  0
LINE
  5
165
100
AcDbEntity
  8
MSL-3-80-0
100
AcDbLine
 10
-380.622129
 20
-820.1873
 30
0.0
 11
-388.622129
 21
-820.187306
 31
0.0
  0
ARC
  5
166
100
AcDbEntity
  8
MSL-3-80-0
100
AcDbCircle
 10
-388.62213
 20
-818.687306
 30
0.0
 40
1.5
100
AcDbArc
 50
213.556991
 51
270.000041
  0
LINE
  5
167
100
AcDbEntity
  8
MSL-3-80-7
100
AcDbLine
 10
-396.623472
 20
-797.187307
 30
0.0
 11
-389.789224
 21
-797.187307
 31
0.0
  0
LINE
  5
168
100
AcDbEntity
  8
MSL-3-80-7
100
AcDbLine
 10
-396.623472
 20
-797.187307
 30
0.0
 11
-396.623472
 21
-790.353059
 31
0.0
  0
LINE
  5
169
100
AcDbEntity
  8
MSL-3-80-7
100
AcDbLine
 10
-396.623472
 20
-797.187307
 30
0.0
 11
-396.623472
 21
-804.021554
 31
0.0
  0
LINE
  5
16A
100
AcDbEntity
  8
MSL-3-80-7
100
AcDbLine
 10
-370.623472
 20
-818.687307
 30
0.0
 11
-370.623472
 21
-800.955256
 31
0.0
  0
LINE
  5
16B
100
AcDbEntity
  8
MSL-3-80-0
100
AcDbLine
 10
-379.122132
 20
-815.687307
 30
0.0
 11
-379.12213
 21
-818.687299
 31
0.0
  0
LINE
  5
16C
100
AcDbEntity
  8
MSL-3-80-7
100
AcDbLine
 10
-350.623472
 20
-795.267891
 30
0.0
 11
-350.623472
 21
-818.687307
 31
0.0
  0
ARC
  5
16D
100
AcDbEntity
  8
MSL-3-80-0
100
AcDbCircle
 10
-296.571549
 20
-807.579612
 30
0.0
 40
4.051923
100
AcDbArc
 50
121.248241
 51
238.751759
  0
ARC
  5
16E
100
AcDbEntity
  8
MSL-3-80-0
100
AcDbCircle
 10
-299.675395
 20
-807.579612
 30
0.0
 40
4.051923
100
AcDbArc
 50
301.248243
 51
58.751757
  0
LINE
  5
16F
100
AcDbEntity
  8
MSL-3-80-0
100
AcDbLine
 10
-298.673472
 20
-811.043714
 30
0.0
 11
-297.573472
 21
-811.043714
 31
0.0
  0
LINE
  5
170
100
AcDbEntity
  8
MSL-3-80-0
100
AcDbLine
 10
-298.673472
 20
-790.259104
 30
0.0
 11
-297.573472
 21
-790.259104
 31
0.0
  0
LINE
  5
171
100
AcDbEntity
  8
MSL-3-80-0
100
AcDbLine
 10
-298.673472
 20
-804.11551
 30
0.0
 11
-297.573472
 21
-804.11551
 31
0.0
  0
ARC
  5
172
100
AcDbEntity
  8
MSL-3-80-0
100
AcDbCircle
 10
-308.906165
 20
-797.187307
 30
0.0
 40
13.282692
100
AcDbArc
 50
328.560611
 51
31.439389
  0
ARC
  5
173
100
AcDbEntity
  8
MSL-3-80-0
100
AcDbCircle
 10
-287.34078
 20
-797.187307
 30
0.0
 40
13.282692
100
AcDbArc
 50
148.560609
 51
211.439391
  0
LINE
  5
174
100
AcDbEntity
  8
MSL-3-80-0
100
AcDbLine
 10
-440.623472
 20
-644.476017
 30
0.0
 11
-300.623472
 21
-644.476017
 31
0.0
  0
LINE
  5
175
100
AcDbEntity
  8
MSL-3-80-0
100
AcDbLine
 10
-440.623472
 20
-715.687307
 30
0.0
 11
-300.623472
 21
-715.687307
 31
0.0
  0
LINE
  5
176
100
AcDbEntity
  8
MSL-3-80-7
100
AcDbLine
 10
-402.646816
 20
-619.476566
 30
0.0
 11
-340.115946
 21
-619.476294
 31
0.0
  0
LINE
  5
177
100
AcDbEntity
  8
MSL-3-80-7
100
AcDbLine
 10
-402.646816
 20
-765.687307
 30
0.0
 11
-340.115946
 21
-765.687307
 31
0.0
  0
LINE
  5
178
100
AcDbEntity
  8
MSL-3-80-0
100
AcDbLine
 10
-412.623472
 20
-779.187307
 30
0.0
 11
-440.623472
 21
-779.187307
 31
0.0
  0
LINE
  5
179
100
AcDbEntity
  8
MSL-3-80-0
100
AcDbLine
 10
-440.623472
 20
-752.187307
 30
0.0
 11
-412.623472
 21
-752.187307
 31
0.0
  0
ARC
  5
17A
100
AcDbEntity
  8
MSL-3-80-0
100
AcDbCircle
 10
-441.571549
 20
-744.579612
 30
0.0
 40
4.051923
100
AcDbArc
 50
121.248243
 51
238.751757
  0
ARC
  5
17B
100
AcDbEntity
  8
MSL-3-80-0
100
AcDbCircle
 10
-444.675395
 20
-744.579612
 30
0.0
 40
4.051923
100
AcDbArc
 50
301.248241
 51
58.751759
  0
LINE
  5
17C
100
AcDbEntity
  8
MSL-3-80-0
100
AcDbLine
 10
-440.623472
 20
-744.579612
 30
0.0
 11
-440.623472
 21
-723.795002
 31
0.0
  0
LINE
  5
17D
100
AcDbEntity
  8
MSL-3-80-0
100
AcDbLine
 10
-445.623472
 20
-744.579612
 30
0.0
 11
-445.623472
 21
-723.795002
 31
0.0
  0
LINE
  5
17E
100
AcDbEntity
  8
MSL-3-80-0
100
AcDbLine
 10
-440.623472
 20
-777.187307
 30
0.0
 11
-458.623472
 21
-777.187307
 31
0.0
  0
LINE
  5
17F
100
AcDbEntity
  8
MSL-3-80-0
100
AcDbLine
 10
-458.623472
 20
-754.187307
 30
0.0
 11
-440.623472
 21
-754.187307
 31
0.0
  0
LINE
  5
180
100
AcDbEntity
  8
MSL-3-80-0
100
AcDbLine
 10
-458.623472
 20
-754.187307
 30
0.0
 11
-458.623472
 21
-777.187307
 31
0.0
  0
LINE
  5
181
100
AcDbEntity
  8
MSL-3-80-0
100
AcDbLine
 10
-459.623472
 20
-776.187307
 30
0.0
 11
-459.623472
 21
-755.187307
 31
0.0
  0
LINE
  5
182
100
AcDbEntity
  8
MSL-3-80-0
100
AcDbLine
 10
-458.623472
 20
-777.187307
 30
0.0
 11
-459.623472
 21
-776.187307
 31
0.0
  0
LINE
  5
183
100
AcDbEntity
  8
MSL-3-80-0
100
AcDbLine
 10
-459.623472
 20
-769.687307
 30
0.0
 11
-460.623472
 21
-769.687307
 31
0.0
  0
LINE
  5
184
100
AcDbEntity
  8
MSL-3-80-0
100
AcDbLine
 10
-460.623472
 20
-761.687307
 30
0.0
 11
-459.623472
 21
-761.687307
 31
0.0
  0
LINE
  5
185
100
AcDbEntity
  8
MSL-3-80-0
100
AcDbLine
 10
-459.623472
 20
-755.187307
 30
0.0
 11
-458.623472
 21
-754.187307
 31
0.0
  0
LINE
  5
186
100
AcDbEntity
  8
MSL-3-80-7
100
AcDbLine
 10
-431.123472
 20
-773.187307
 30
0.0
 11
-431.123472
 21
-758.187307
 31
0.0
  0
CIRCLE
  5
187
100
AcDbEntity
  8
MSL-3-80-0
100
AcDbCircle
 10
-431.123472
 20
-765.687307
 30
0.0
 40
4.188
  0
ARC
  5
188
100
AcDbEntity
  8
MSL-3-80-4
100
AcDbCircle
 10
-431.123472
 20
-765.687307
 30
0.0
 40
5.0
100
AcDbArc
 50
172.405357
 51
104.931417
  0
LINE
  5
189
100
AcDbEntity
  8
MSL-3-80-0
100
AcDbLine
 10
-442.442544
 20
-787.387307
 30
0.0
 11
-440.623472
 21
-787.387307
 31
0.0
  0
LINE
  5
18A
100
AcDbEntity
  8
MSL-3-80-7
100
AcDbLine
 10
-438.623472
 20
-765.687307
 30
0.0
 11
-423.623472
 21
-765.687307
 31
0.0
  0
LINE
  5
18B
100
AcDbEntity
  8
MSL-3-80-0
100
AcDbLine
 10
-442.573472
 20
-748.043713
 30
0.0
 11
-443.673472
 21
-748.043713
 31
0.0
  0
LINE
  5
18C
100
AcDbEntity
  8
MSL-3-80-7
100
AcDbLine
 10
-432.838426
 20
-734.187307
 30
0.0
 11
-462.586992
 21
-734.187307
 31
0.0
  0
ARC
  5
18D
100
AcDbEntity
  8
MSL-3-80-0
100
AcDbCircle
 10
-441.571549
 20
-723.795002
 30
0.0
 40
4.051923
100
AcDbArc
 50
121.248243
 51
238.751757
  0
ARC
  5
18E
100
AcDbEntity
  8
MSL-3-80-0
100
AcDbCircle
 10
-432.340779
 20
-734.187307
 30
0.0
 40
13.282692
100
AcDbArc
 50
148.560611
 51
211.439389
  0
LINE
  5
18F
100
AcDbEntity
  8
MSL-3-80-0
100
AcDbLine
 10
-445.469124
 20
-722.687307
 30
0.0
 11
-460.623472
 21
-722.687307
 31
0.0
  0
LINE
  5
190
100
AcDbEntity
  8
MSL-3-80-0
100
AcDbLine
 10
-449.623472
 20
-742.687307
 30
0.0
 11
-459.623472
 21
-742.687307
 31
0.0
  0
LINE
  5
191
100
AcDbEntity
  8
MSL-3-80-0
100
AcDbLine
 10
-459.623472
 20
-725.687307
 30
0.0
 11
-449.623472
 21
-725.687307
 31
0.0
  0
LINE
  5
192
100
AcDbEntity
  8
MSL-3-80-0
100
AcDbLine
 10
-460.623472
 20
-741.687307
 30
0.0
 11
-460.623472
 21
-726.687307
 31
0.0
  0
LINE
  5
193
100
AcDbEntity
  8
MSL-3-80-0
100
AcDbLine
 10
-459.623472
 20
-742.687307
 30
0.0
 11
-460.623472
 21
-741.687307
 31
0.0
  0
LINE
  5
194
100
AcDbEntity
  8
MSL-3-80-0
100
AcDbLine
 10
-459.623472
 20
-742.687307
 30
0.0
 11
-459.623472
 21
-725.687307
 31
0.0
  0
LINE
  5
195
100
AcDbEntity
  8
MSL-3-80-0
100
AcDbLine
 10
-460.623472
 20
-726.687307
 30
0.0
 11
-459.623472
 21
-725.687307
 31
0.0
  0
LINE
  5
196
100
AcDbEntity
  8
MSL-3-80-0
100
AcDbLine
 10
-449.623472
 20
-738.687307
 30
0.0
 11
-448.623472
 21
-738.687307
 31
0.0
  0
LINE
  5
197
100
AcDbEntity
  8
MSL-3-80-0
100
AcDbLine
 10
-447.623472
 20
-724.187307
 30
0.0
 11
-445.623472
 21
-724.187307
 31
0.0
  0
LINE
  5
198
100
AcDbEntity
  8
MSL-3-80-0
100
AcDbLine
 10
-445.623472
 20
-744.187307
 30
0.0
 11
-447.623472
 21
-744.187307
 31
0.0
  0
LINE
  5
199
100
AcDbEntity
  8
MSL-3-80-0
100
AcDbLine
 10
-447.623472
 20
-744.187307
 30
0.0
 11
-448.623472
 21
-743.187307
 31
0.0
  0
LINE
  5
19A
100
AcDbEntity
  8
MSL-3-80-0
100
AcDbLine
 10
-447.623472
 20
-744.187307
 30
0.0
 11
-447.623472
 21
-724.187307
 31
0.0
  0
LINE
  5
19B
100
AcDbEntity
  8
MSL-3-80-0
100
AcDbLine
 10
-448.623472
 20
-737.337307
 30
0.0
 11
-449.623472
 21
-737.337307
 31
0.0
  0
LINE
  5
19C
100
AcDbEntity
  8
MSL-3-80-0
100
AcDbLine
 10
-448.623472
 20
-731.037307
 30
0.0
 11
-449.623472
 21
-731.037307
 31
0.0
  0
LINE
  5
19D
100
AcDbEntity
  8
MSL-3-80-0
100
AcDbLine
 10
-448.623472
 20
-725.187307
 30
0.0
 11
-447.623472
 21
-724.187307
 31
0.0
  0
LINE
  5
19E
100
AcDbEntity
  8
MSL-3-80-0
100
AcDbLine
 10
-448.623472
 20
-743.187307
 30
0.0
 11
-448.623472
 21
-725.187307
 31
0.0
  0
LINE
  5
19F
100
AcDbEntity
  8
MSL-3-80-0
100
AcDbLine
 10
-449.623472
 20
-725.687307
 30
0.0
 11
-449.623472
 21
-742.687307
 31
0.0
  0
ARC
  5
1A0
100
AcDbEntity
  8
MSL-3-80-0
100
AcDbCircle
 10
-444.675395
 20
-723.795002
 30
0.0
 40
4.051923
100
AcDbArc
 50
301.248241
 51
58.751759
  0
ARC
  5
1A1
100
AcDbEntity
  8
MSL-3-80-0
100
AcDbCircle
 10
-453.906164
 20
-734.187307
 30
0.0
 40
13.282692
100
AcDbArc
 50
328.560609
 51
31.439391
  0
LINE
  5
1A2
100
AcDbEntity
  8
MSL-3-80-0
100
AcDbLine
 10
-442.573472
 20
-727.259104
 30
0.0
 11
-443.673472
 21
-727.259104
 31
0.0
  0
LINE
  5
1A3
100
AcDbEntity
  8
MSL-3-80-0
100
AcDbLine
 10
-442.573472
 20
-741.11551
 30
0.0
 11
-443.673472
 21
-741.11551
 31
0.0
  0
LINE
  5
1A4
100
AcDbEntity
  8
MSL-3-80-0
100
AcDbLine
 10
-442.573472
 20
-720.3309
 30
0.0
 11
-443.673472
 21
-720.3309
 31
0.0
  0
ARC
  5
1A5
100
AcDbEntity
  8
MSL-3-80-3
100
AcDbCircle
 10
-390.623472
 20
-745.687307
 30
0.0
 40
3.0
100
AcDbArc
 50
353.599193
 51
276.865645
  0
CIRCLE
  5
1A6
100
AcDbEntity
  8
MSL-3-80-3
100
AcDbCircle
 10
-390.623472
 20
-745.687307
 30
0.0
 40
2.5
  0
LINE
  5
1A7
100
AcDbEntity
  8
MSL-3-80-7
100
AcDbLine
 10
-390.623472
 20
-745.687307
 30
0.0
 11
-390.623472
 21
-739.687307
 31
0.0
  0
LINE
  5
1A8
100
AcDbEntity
  8
MSL-3-80-0
100
AcDbLine
 10
-412.623472
 20
-752.187307
 30
0.0
 11
-412.623472
 21
-779.187307
 31
0.0
  0
LINE
  5
1A9
100
AcDbEntity
  8
MSL-3-80-7
100
AcDbLine
 10
-390.623472
 20
-785.687307
 30
0.0
 11
-396.623472
 21
-785.687307
 31
0.0
  0
LINE
  5
1AA
100
AcDbEntity
  8
MSL-3-80-7
100
AcDbLine
 10
-390.623472
 20
-785.687307
 30
0.0
 11
-384.623472
 21
-785.687307
 31
0.0
  0
LINE
  5
1AB
100
AcDbEntity
  8
MSL-3-80-7
100
AcDbLine
 10
-390.623472
 20
-785.687307
 30
0.0
 11
-390.623472
 21
-779.687307
 31
0.0
  0
LINE
  5
1AC
100
AcDbEntity
  8
MSL-3-80-7
100
AcDbLine
 10
-390.623472
 20
-745.687307
 30
0.0
 11
-396.623472
 21
-745.687307
 31
0.0
  0
LINE
  5
1AD
100
AcDbEntity
  8
MSL-3-80-7
100
AcDbLine
 10
-390.623472
 20
-745.687307
 30
0.0
 11
-384.623472
 21
-745.687307
 31
0.0
  0
LINE
  5
1AE
100
AcDbEntity
  8
MSL-3-80-7
100
AcDbLine
 10
-390.623472
 20
-745.687307
 30
0.0
 11
-390.623472
 21
-751.687307
 31
0.0
  0
LINE
  5
1AF
100
AcDbEntity
  8
MSL-3-80-7
100
AcDbLine
 10
-390.623472
 20
-736.106722
 30
0.0
 11
-390.623472
 21
-712.687307
 31
0.0
  0
MTEXT
  5
1B0
100
AcDbEntity
  8
MSL-3-80-6
100
AcDbMText
 10
-438.891086
 20
-639.281656
 30
0.0
 40
3.5
 41
26.851963
 71
     1
 72
     1
  1
{MSL-3-80}
  0
LINE
  5
1B1
100
AcDbEntity
  8
MSL-3-80-0
100
AcDbLine
 10
-458.623472
 20
-630.976731
 30
0.0
 11
-440.623472
 21
-630.976731
 31
0.0
  0
LINE
  5
1B2
100
AcDbEntity
  8
MSL-3-80-0
100
AcDbLine
 10
-460.623472
 20
-627.476926
 30
0.0
 11
-440.623472
 21
-627.476926
 31
0.0
  0
LINE
  5
1B3
100
AcDbEntity
  8
MSL-3-80-0
100
AcDbLine
 10
-460.623472
 20
-623.476731
 30
0.0
 11
-460.623472
 21
-645.476017
 31
0.0
  0
LINE
  5
1B4
100
AcDbEntity
  8
MSL-3-80-3
100
AcDbLine
 10
-463.623472
 20
-645.476017
 30
0.0
 11
-463.623472
 21
-633.476017
 31
0.0
  0
LINE
  5
1B5
100
AcDbEntity
  8
MSL-3-80-3
100
AcDbLine
 10
-464.164972
 20
-645.476017
 30
0.0
 11
-464.164972
 21
-629.476017
 31
0.0
  0
LINE
  5
1B6
100
AcDbEntity
  8
MSL-3-80-0
100
AcDbLine
 10
-458.623472
 20
-630.976731
 30
0.0
 11
-458.623472
 21
-627.476926
 31
0.0
  0
LINE
  5
1B7
100
AcDbEntity
  8
MSL-3-80-0
100
AcDbLine
 10
-459.623472
 20
-629.976731
 30
0.0
 11
-458.623472
 21
-630.976731
 31
0.0
  0
LINE
  5
1B8
100
AcDbEntity
  8
MSL-3-80-0
100
AcDbLine
 10
-460.623472
 20
-615.476731
 30
0.0
 11
-460.623472
 21
-623.476731
 31
0.0
  0
LINE
  5
1B9
100
AcDbEntity
  8
MSL-3-80-0
100
AcDbLine
 10
-459.623472
 20
-627.476926
 30
0.0
 11
-459.623472
 21
-629.976731
 31
0.0
  0
LINE
  5
1BA
100
AcDbEntity
  8
MSL-3-80-7
100
AcDbLine
 10
-390.623472
 20
-639.476427
 30
0.0
 11
-390.623472
 21
-633.476427
 31
0.0
  0
ARC
  5
1BB
100
AcDbEntity
  8
MSL-3-80-4
100
AcDbCircle
 10
-390.623472
 20
-639.476427
 30
0.0
 40
3.0
100
AcDbArc
 50
83.134355
 51
6.400807
  0
CIRCLE
  5
1BC
100
AcDbEntity
  8
MSL-3-80-0
100
AcDbCircle
 10
-390.623472
 20
-639.476427
 30
0.0
 40
2.5
  0
LINE
  5
1BD
100
AcDbEntity
  8
MSL-3-80-7
100
AcDbLine
 10
-390.623472
 20
-639.476427
 30
0.0
 11
-396.623472
 21
-639.476427
 31
0.0
  0
LINE
  5
1BE
100
AcDbEntity
  8
MSL-3-80-7
100
AcDbLine
 10
-390.623472
 20
-639.476427
 30
0.0
 11
-390.623472
 21
-645.476427
 31
0.0
  0
LINE
  5
1BF
100
AcDbEntity
  8
MSL-3-80-7
100
AcDbLine
 10
-390.623472
 20
-639.476427
 30
0.0
 11
-384.623472
 21
-639.476427
 31
0.0
  0
LINE
  5
1C0
100
AcDbEntity
  8
MSL-3-80-7
100
AcDbLine
 10
-370.623472
 20
-745.687307
 30
0.0
 11
-370.623472
 21
-739.687307
 31
0.0
  0
CIRCLE
  5
1C1
100
AcDbEntity
  8
MSL-3-80-3
100
AcDbCircle
 10
-370.623472
 20
-745.687307
 30
0.0
 40
3.0
  0
ARC
  5
1C2
100
AcDbEntity
  8
MSL-3-80-3
100
AcDbCircle
 10
-350.623472
 20
-745.687307
 30
0.0
 40
3.0
100
AcDbArc
 50
353.599193
 51
276.865645
  0
CIRCLE
  5
1C3
100
AcDbEntity
  8
MSL-3-80-3
100
AcDbCircle
 10
-350.623472
 20
-745.687307
 30
0.0
 40
2.5
  0
LINE
  5
1C4
100
AcDbEntity
  8
MSL-3-80-7
100
AcDbLine
 10
-350.623472
 20
-745.687307
 30
0.0
 11
-350.623472
 21
-739.687307
 31
0.0
  0
LINE
  5
1C5
100
AcDbEntity
  8
MSL-3-80-7
100
AcDbLine
 10
-370.623472
 20
-751.687307
 30
0.0
 11
-370.623472
 21
-779.687307
 31
0.0
  0
LINE
  5
1C6
100
AcDbEntity
  8
MSL-3-80-7
100
AcDbLine
 10
-370.623472
 20
-785.687307
 30
0.0
 11
-364.623472
 21
-785.687307
 31
0.0
  0
LINE
  5
1C7
100
AcDbEntity
  8
MSL-3-80-7
100
AcDbLine
 10
-370.623472
 20
-785.687307
 30
0.0
 11
-370.623472
 21
-779.687307
 31
0.0
  0
LINE
  5
1C8
100
AcDbEntity
  8
MSL-3-80-7
100
AcDbLine
 10
-370.623472
 20
-785.687307
 30
0.0
 11
-376.623472
 21
-785.687307
 31
0.0
  0
LINE
  5
1C9
100
AcDbEntity
  8
MSL-3-80-7
100
AcDbLine
 10
-370.623472
 20
-745.687307
 30
0.0
 11
-364.623472
 21
-745.687307
 31
0.0
  0
LINE
  5
1CA
100
AcDbEntity
  8
MSL-3-80-7
100
AcDbLine
 10
-370.623472
 20
-745.687307
 30
0.0
 11
-376.623472
 21
-745.687307
 31
0.0
  0
LINE
  5
1CB
100
AcDbEntity
  8
MSL-3-80-7
100
AcDbLine
 10
-370.623472
 20
-745.687307
 30
0.0
 11
-370.623472
 21
-751.687307
 31
0.0
  0
LINE
  5
1CC
100
AcDbEntity
  8
MSL-3-80-7
100
AcDbLine
 10
-350.623472
 20
-785.687307
 30
0.0
 11
-344.623472
 21
-785.687307
 31
0.0
  0
LINE
  5
1CD
100
AcDbEntity
  8
MSL-3-80-7
100
AcDbLine
 10
-350.623472
 20
-785.687307
 30
0.0
 11
-350.623472
 21
-779.687307
 31
0.0
  0
LINE
  5
1CE
100
AcDbEntity
  8
MSL-3-80-7
100
AcDbLine
 10
-350.623472
 20
-785.687307
 30
0.0
 11
-356.623472
 21
-785.687307
 31
0.0
  0
LINE
  5
1CF
100
AcDbEntity
  8
MSL-3-80-7
100
AcDbLine
 10
-350.623472
 20
-745.687307
 30
0.0
 11
-344.623472
 21
-745.687307
 31
0.0
  0
LINE
  5
1D0
100
AcDbEntity
  8
MSL-3-80-7
100
AcDbLine
 10
-350.623472
 20
-745.687307
 30
0.0
 11
-356.623472
 21
-745.687307
 31
0.0
  0
LINE
  5
1D1
100
AcDbEntity
  8
MSL-3-80-7
100
AcDbLine
 10
-350.623472
 20
-745.687307
 30
0.0
 11
-350.623472
 21
-751.687307
 31
0.0
  0
LINE
  5
1D2
100
AcDbEntity
  8
MSL-3-80-7
100
AcDbLine
 10
-370.623472
 20
-712.687307
 30
0.0
 11
-370.623472
 21
-730.419358
 31
0.0
  0
LINE
  5
1D3
100
AcDbEntity
  8
MSL-3-80-7
100
AcDbLine
 10
-350.623472
 20
-736.106722
 30
0.0
 11
-350.623472
 21
-712.687307
 31
0.0
  0
CIRCLE
  5
1D4
100
AcDbEntity
  8
MSL-3-80-0
100
AcDbCircle
 10
-344.623472
 20
-734.187307
 30
0.0
 40
5.5
  0
LINE
  5
1D5
100
AcDbEntity
  8
MSL-3-80-7
100
AcDbLine
 10
-344.623472
 20
-734.187307
 30
0.0
 11
-351.357377
 21
-734.187307
 31
0.0
  0
LINE
  5
1D6
100
AcDbEntity
  8
MSL-3-80-7
100
AcDbLine
 10
-344.623472
 20
-734.187307
 30
0.0
 11
-337.889566
 21
-734.187307
 31
0.0
  0
LINE
  5
1D7
100
AcDbEntity
  8
MSL-3-80-7
100
AcDbLine
 10
-344.623472
 20
-734.187307
 30
0.0
 11
-344.623472
 21
-727.453401
 31
0.0
  0
LINE
  5
1D8
100
AcDbEntity
  8
MSL-3-80-7
100
AcDbLine
 10
-344.623472
 20
-734.187307
 30
0.0
 11
-344.623472
 21
-740.921213
 31
0.0
  0
LINE
  5
1D9
100
AcDbEntity
  8
MSL-3-80-7
100
AcDbLine
 10
-317.623472
 20
-765.687307
 30
0.0
 11
-302.623472
 21
-765.687307
 31
0.0
  0
LINE
  5
1DA
100
AcDbEntity
  8
MSL-3-80-0
100
AcDbLine
 10
-328.623472
 20
-779.187307
 30
0.0
 11
-300.623472
 21
-779.187307
 31
0.0
  0
LINE
  5
1DB
100
AcDbEntity
  8
MSL-3-80-0
100
AcDbLine
 10
-300.623472
 20
-752.187307
 30
0.0
 11
-328.623472
 21
-752.187307
 31
0.0
  0
LINE
  5
1DC
100
AcDbEntity
  8
MSL-3-80-0
100
AcDbLine
 10
-328.623472
 20
-752.187307
 30
0.0
 11
-328.623472
 21
-779.187307
 31
0.0
  0
LINE
  5
1DD
100
AcDbEntity
  8
MSL-3-80-7
100
AcDbLine
 10
-310.123472
 20
-773.187307
 30
0.0
 11
-310.123472
 21
-758.187307
 31
0.0
  0
CIRCLE
  5
1DE
100
AcDbEntity
  8
MSL-3-80-0
100
AcDbCircle
 10
-310.123472
 20
-765.687307
 30
0.0
 40
4.188
  0
ARC
  5
1DF
100
AcDbEntity
  8
MSL-3-80-4
100
AcDbCircle
 10
-310.123472
 20
-765.687307
 30
0.0
 40
5.0
100
AcDbArc
 50
172.405357
 51
104.931417
  0
LINE
  5
1E0
100
AcDbEntity
  8
MSL-3-80-0
100
AcDbLine
 10
-298.673472
 20
-783.330901
 30
0.0
 11
-297.573472
 21
-783.330901
 31
0.0
  0
ARC
  5
1E1
100
AcDbEntity
  8
MSL-3-80-0
100
AcDbCircle
 10
-300.732152
 20
-741.548523
 30
0.0
 40
3.108681
100
AcDbArc
 50
307.878142
 51
52.121858
  0
LINE
  5
1E2
100
AcDbEntity
  8
MSL-3-80-0
100
AcDbLine
 10
-300.623472
 20
-743.987307
 30
0.0
 11
-300.623472
 21
-724.387307
 31
0.0
  0
LINE
  5
1E3
100
AcDbEntity
  8
MSL-3-80-0
100
AcDbLine
 10
-297.623472
 20
-739.816472
 30
0.0
 11
-297.623472
 21
-728.558142
 31
0.0
  0
ARC
  5
1E4
100
AcDbEntity
  8
MSL-3-80-0
100
AcDbCircle
 10
-308.258194
 20
-734.187307
 30
0.0
 40
10.634722
100
AcDbArc
 50
332.518771
 51
27.481229
  0
LINE
  5
1E5
100
AcDbEntity
  8
MSL-3-80-0
100
AcDbLine
 10
-297.623472
 20
-741.548523
 30
0.0
 11
-297.623472
 21
-726.826091
 31
0.0
  0
LINE
  5
1E6
100
AcDbEntity
  8
MSL-3-80-0
100
AcDbLine
 10
-298.823472
 20
-729.27983
 30
0.0
 11
-300.623472
 21
-729.27983
 31
0.0
  0
LINE
  5
1E7
100
AcDbEntity
  8
MSL-3-80-0
100
AcDbLine
 10
-298.823472
 20
-739.094784
 30
0.0
 11
-300.623472
 21
-739.094784
 31
0.0
  0
LINE
  5
1E8
100
AcDbEntity
  8
MSL-3-80-0
100
AcDbLine
 10
-300.623472
 20
-724.387307
 30
0.0
 11
-298.8044
 21
-724.387307
 31
0.0
  0
ARC
  5
1E9
100
AcDbEntity
  8
MSL-3-80-0
100
AcDbCircle
 10
-300.732152
 20
-726.826091
 30
0.0
 40
3.108681
100
AcDbArc
 50
307.878142
 51
52.121858
  0
LINE
  5
1EA
100
AcDbEntity
  8
MSL-3-80-0
100
AcDbLine
 10
-298.8044
 20
-743.987307
 30
0.0
 11
-300.623472
 21
-743.987307
 31
0.0
  0
LINE
  5
1EB
100
AcDbEntity
  8
MSL-3-80-7
100
AcDbLine
 10
-370.623472
 20
-639.476427
 30
0.0
 11
-370.623472
 21
-633.476427
 31
0.0
  0
CIRCLE
  5
1EC
100
AcDbEntity
  8
MSL-3-80-0
100
AcDbCircle
 10
-370.623472
 20
-639.476427
 30
0.0
 40
3.0
  0
LINE
  5
1ED
100
AcDbEntity
  8
MSL-3-80-7
100
AcDbLine
 10
-370.623472
 20
-639.476427
 30
0.0
 11
-364.623472
 21
-639.476427
 31
0.0
  0
LINE
  5
1EE
100
AcDbEntity
  8
MSL-3-80-7
100
AcDbLine
 10
-370.623472
 20
-639.476427
 30
0.0
 11
-370.623472
 21
-645.476427
 31
0.0
  0
LINE
  5
1EF
100
AcDbEntity
  8
MSL-3-80-7
100
AcDbLine
 10
-370.623472
 20
-639.476427
 30
0.0
 11
-376.623472
 21
-639.476427
 31
0.0
  0
LINE
  5
1F0
100
AcDbEntity
  8
MSL-3-80-7
100
AcDbLine
 10
-350.623472
 20
-639.476427
 30
0.0
 11
-350.623472
 21
-633.476427
 31
0.0
  0
LINE
  5
1F1
100
AcDbEntity
  8
MSL-3-80-7
100
AcDbLine
 10
-350.623472
 20
-639.476427
 30
0.0
 11
-344.623472
 21
-639.476427
 31
0.0
  0
ARC
  5
1F2
100
AcDbEntity
  8
MSL-3-80-4
100
AcDbCircle
 10
-350.623472
 20
-639.476427
 30
0.0
 40
3.0
100
AcDbArc
 50
83.134355
 51
6.400807
  0
CIRCLE
  5
1F3
100
AcDbEntity
  8
MSL-3-80-0
100
AcDbCircle
 10
-350.623472
 20
-639.476427
 30
0.0
 40
2.5
  0
LINE
  5
1F4
100
AcDbEntity
  8
MSL-3-80-7
100
AcDbLine
 10
-350.623472
 20
-639.476427
 30
0.0
 11
-350.623472
 21
-645.476427
 31
0.0
  0
LINE
  5
1F5
100
AcDbEntity
  8
MSL-3-80-7
100
AcDbLine
 10
-350.623472
 20
-639.476427
 30
0.0
 11
-356.623472
 21
-639.476427
 31
0.0
  0
LINE
  5
1F6
100
AcDbEntity
  8
MSL-3-80-0
100
AcDbLine
 10
-200.623472
 20
-715.687307
 30
0.0
 11
-200.623472
 21
-815.687307
 31
0.0
  0
LINE
  5
1F7
100
AcDbEntity
  8
MSL-3-80-0
100
AcDbLine
 10
-180.623472
 20
-815.687307
 30
0.0
 11
-180.623472
 21
-715.687307
 31
0.0
  0
LINE
  5
1F8
100
AcDbEntity
  8
MSL-3-80-3
100
AcDbLine
 10
-195.623472
 20
-782.387307
 30
0.0
 11
-195.623472
 21
-788.987307
 31
0.0
  0
LINE
  5
1F9
100
AcDbEntity
  8
MSL-3-80-0
100
AcDbLine
 10
-293.623472
 20
-787.187307
 30
0.0
 11
-293.623472
 21
-807.187307
 31
0.0
  0
LINE
  5
1FA
100
AcDbEntity
  8
MSL-3-80-0
100
AcDbLine
 10
-293.623472
 20
-787.187307
 30
0.0
 11
-292.623472
 21
-788.187307
 31
0.0
  0
LINE
  5
1FB
100
AcDbEntity
  8
MSL-3-80-0
100
AcDbLine
 10
-265.623472
 20
-792.687307
 30
0.0
 11
-200.623472
 21
-792.687307
 31
0.0
  0
LINE
  5
1FC
100
AcDbEntity
  8
MSL-3-80-0
100
AcDbLine
 10
-265.623472
 20
-792.687307
 30
0.0
 11
-240.623472
 21
-792.687307
 31
0.0
  0
LINE
  5
1FD
100
AcDbEntity
  8
MSL-3-80-0
100
AcDbLine
 10
-266.623472
 20
-805.687307
 30
0.0
 11
-276.623472
 21
-805.687307
 31
0.0
  0
LINE
  5
1FE
100
AcDbEntity
  8
MSL-3-80-0
100
AcDbLine
 10
-276.623472
 20
-788.687307
 30
0.0
 11
-266.623472
 21
-788.687307
 31
0.0
  0
LINE
  5
1FF
100
AcDbEntity
  8
MSL-3-80-0
100
AcDbLine
 10
-292.623472
 20
-792.687307
 30
0.0
 11
-276.623472
 21
-792.687307
 31
0.0
  0
LINE
  5
200
100
AcDbEntity
  8
MSL-3-80-0
100
AcDbLine
 10
-292.623472
 20
-792.687307
 30
0.0
 11
-276.623472
 21
-792.687307
 31
0.0
  0
LINE
  5
201
100
AcDbEntity
  8
MSL-3-80-0
100
AcDbLine
 10
-292.623472
 20
-800.337307
 30
0.0
 11
-276.623472
 21
-800.337307
 31
0.0
  0
LINE
  5
202
100
AcDbEntity
  8
MSL-3-80-0
100
AcDbLine
 10
-292.623472
 20
-794.037307
 30
0.0
 11
-276.623472
 21
-794.037307
 31
0.0
  0
LINE
  5
203
100
AcDbEntity
  8
MSL-3-80-0
100
AcDbLine
 10
-292.623472
 20
-788.187307
 30
0.0
 11
-292.623472
 21
-806.187307
 31
0.0
  0
LINE
  5
204
100
AcDbEntity
  8
MSL-3-80-0
100
AcDbLine
 10
-292.623472
 20
-806.187307
 30
0.0
 11
-293.623472
 21
-807.187307
 31
0.0
  0
LINE
  5
205
100
AcDbEntity
  8
MSL-3-80-0
100
AcDbLine
 10
-276.623472
 20
-805.687307
 30
0.0
 11
-276.623472
 21
-788.687307
 31
0.0
  0
LINE
  5
206
100
AcDbEntity
  8
MSL-3-80-0
100
AcDbLine
 10
-265.623472
 20
-804.687307
 30
0.0
 11
-266.623472
 21
-805.687307
 31
0.0
  0
LINE
  5
207
100
AcDbEntity
  8
MSL-3-80-0
100
AcDbLine
 10
-266.623472
 20
-788.687307
 30
0.0
 11
-266.623472
 21
-805.687307
 31
0.0
  0
LINE
  5
208
100
AcDbEntity
  8
MSL-3-80-0
100
AcDbLine
 10
-266.623472
 20
-788.687307
 30
0.0
 11
-265.623472
 21
-789.687307
 31
0.0
  0
LINE
  5
209
100
AcDbEntity
  8
MSL-3-80-0
100
AcDbLine
 10
-265.623472
 20
-789.687307
 30
0.0
 11
-265.623472
 21
-804.687307
 31
0.0
  0
LINE
  5
20A
100
AcDbEntity
  8
MSL-3-80-3
100
AcDbLine
 10
-189.623472
 20
-803.687307
 30
0.0
 11
-183.623472
 21
-803.687307
 31
0.0
  0
LINE
  5
20B
100
AcDbEntity
  8
MSL-3-80-3
100
AcDbLine
 10
-186.623472
 20
-798.267891
 30
0.0
 11
-189.081972
 21
-799.687307
 31
0.0
  0
LINE
  5
20C
100
AcDbEntity
  8
MSL-3-80-3
100
AcDbLine
 10
-189.081972
 20
-799.687307
 30
0.0
 11
-184.164972
 21
-799.687307
 31
0.0
  0
LINE
  5
20D
100
AcDbEntity
  8
MSL-3-80-0
100
AcDbLine
 10
-200.623472
 20
-815.687307
 30
0.0
 11
-180.623472
 21
-815.687307
 31
0.0
  0
LINE
  5
20E
100
AcDbEntity
  8
MSL-3-80-3
100
AcDbLine
 10
-195.623472
 20
-788.987307
 30
0.0
 11
-180.623472
 21
-788.987307
 31
0.0
  0
LINE
  5
20F
100
AcDbEntity
  8
MSL-3-80-3
100
AcDbLine
 10
-189.623472
 20
-815.687307
 30
0.0
 11
-189.623472
 21
-803.687307
 31
0.0
  0
LINE
  5
210
100
AcDbEntity
  8
MSL-3-80-3
100
AcDbLine
 10
-189.081972
 20
-815.687307
 30
0.0
 11
-189.081972
 21
-799.687307
 31
0.0
  0
LINE
  5
211
100
AcDbEntity
  8
MSL-3-80-3
100
AcDbLine
 10
-200.623472
 20
-791.187307
 30
0.0
 11
-195.623472
 21
-791.187307
 31
0.0
  0
LINE
  5
212
100
AcDbEntity
  8
MSL-3-80-3
100
AcDbLine
 10
-195.623472
 20
-791.187307
 30
0.0
 11
-195.623472
 21
-788.987307
 31
0.0
  0
ARC
  5
213
100
AcDbEntity
  8
MSL-3-80-3
100
AcDbCircle
 10
-194.623472
 20
-800.687307
 30
0.0
 40
3.0
100
AcDbArc
 50
339.4283
 51
288.734659
  0
CIRCLE
  5
214
100
AcDbEntity
  8
MSL-3-80-3
100
AcDbCircle
 10
-194.623472
 20
-800.687307
 30
0.0
 40
2.5
  0
LINE
  5
215
100
AcDbEntity
  8
MSL-3-80-7
100
AcDbLine
 10
-194.623472
 20
-795.768488
 30
0.0
 11
-194.623472
 21
-805.798602
 31
0.0
  0
LINE
  5
216
100
AcDbEntity
  8
MSL-3-80-3
100
AcDbLine
 10
-183.623472
 20
-815.687307
 30
0.0
 11
-183.623472
 21
-803.687307
 31
0.0
  0
LINE
  5
217
100
AcDbEntity
  8
MSL-3-80-3
100
AcDbLine
 10
-184.164972
 20
-815.687307
 30
0.0
 11
-184.164972
 21
-799.687307
 31
0.0
  0
LINE
  5
218
100
AcDbEntity
  8
MSL-3-80-7
100
AcDbLine
 10
-186.623472
 20
-795.267891
 30
0.0
 11
-186.623472
 21
-818.687307
 31
0.0
  0
LINE
  5
219
100
AcDbEntity
  8
MSL-3-80-3
100
AcDbLine
 10
-186.623472
 20
-798.267891
 30
0.0
 11
-184.164972
 21
-799.687307
 31
0.0
  0
LINE
  5
21A
100
AcDbEntity
  8
MSL-3-80-7
100
AcDbLine
 10
-276.363704
 20
-619.476017
 30
0.0
 11
-175.976793
 21
-619.477168
 31
0.0
  0
LINE
  5
21B
100
AcDbEntity
  8
MSL-3-80-0
100
AcDbLine
 10
-281.623472
 20
-761.687307
 30
0.0
 11
-200.623472
 21
-761.687307
 31
0.0
  0
LINE
  5
21C
100
AcDbEntity
  8
MSL-3-80-0
100
AcDbLine
 10
-200.623472
 20
-769.687307
 30
0.0
 11
-281.623472
 21
-769.687307
 31
0.0
  0
LINE
  5
21D
100
AcDbEntity
  8
MSL-3-80-0
100
AcDbLine
 10
-207.123472
 20
-730.187307
 30
0.0
 11
-213.623472
 21
-730.187307
 31
0.0
  0
LINE
  5
21E
100
AcDbEntity
  8
MSL-3-80-0
100
AcDbLine
 10
-213.623472
 20
-738.187307
 30
0.0
 11
-207.123472
 21
-738.187307
 31
0.0
  0
LINE
  5
21F
100
AcDbEntity
  8
MSL-3-80-7
100
AcDbLine
 10
-219.454347
 20
-734.187307
 30
0.0
 11
-194.135628
 21
-734.187307
 31
0.0
  0
LINE
  5
220
100
AcDbEntity
  8
MSL-3-80-0
100
AcDbLine
 10
-213.623472
 20
-738.687307
 30
0.0
 11
-207.123472
 21
-738.687307
 31
0.0
  0
LINE
  5
221
100
AcDbEntity
  8
MSL-3-80-0
100
AcDbLine
 10
-282.623472
 20
-777.187307
 30
0.0
 11
-282.623472
 21
-754.187307
 31
0.0
  0
LINE
  5
222
100
AcDbEntity
  8
MSL-3-80-0
100
AcDbLine
 10
-281.623472
 20
-755.187307
 30
0.0
 11
-281.623472
 21
-776.187307
 31
0.0
  0
LINE
  5
223
100
AcDbEntity
  8
MSL-3-80-0
100
AcDbLine
 10
-281.623472
 20
-776.187307
 30
0.0
 11
-282.623472
 21
-777.187307
 31
0.0
  0
LINE
  5
224
100
AcDbEntity
  8
MSL-3-80-0
100
AcDbLine
 10
-282.623472
 20
-754.187307
 30
0.0
 11
-281.623472
 21
-755.187307
 31
0.0
  0
LINE
  5
225
100
AcDbEntity
  8
MSL-3-80-0
100
AcDbLine
 10
-213.623472
 20
-741.692861
 30
0.0
 11
-213.623472
 21
-726.681754
 31
0.0
  0
ARC
  5
226
100
AcDbEntity
  8
MSL-3-80-0
100
AcDbCircle
 10
-215.061307
 20
-728.558142
 30
0.0
 40
2.562165
100
AcDbArc
 50
132.916662
 51
227.083338
  0
ARC
  5
227
100
AcDbEntity
  8
MSL-3-80-0
100
AcDbCircle
 10
-215.061307
 20
-739.816472
 30
0.0
 40
2.562165
100
AcDbArc
 50
132.916662
 51
227.083338
  0
ARC
  5
228
100
AcDbEntity
  8
MSL-3-80-0
100
AcDbCircle
 10
-208.601063
 20
-734.187307
 30
0.0
 40
9.02241
100
AcDbArc
 50
155.421502
 51
204.578498
  0
LINE
  5
229
100
AcDbEntity
  8
MSL-3-80-0
100
AcDbLine
 10
-217.623472
 20
-739.816472
 30
0.0
 11
-217.623472
 21
-728.558142
 31
0.0
  0
LINE
  5
22A
100
AcDbEntity
  8
MSL-3-80-0
100
AcDbLine
 10
-216.805972
 20
-730.43453
 30
0.0
 11
-213.623472
 21
-730.43453
 31
0.0
  0
LINE
  5
22B
100
AcDbEntity
  8
MSL-3-80-0
100
AcDbLine
 10
-213.623472
 20
-726.681754
 30
0.0
 11
-216.805972
 21
-726.681754
 31
0.0
  0
LINE
  5
22C
100
AcDbEntity
  8
MSL-3-80-0
100
AcDbLine
 10
-216.805972
 20
-737.940084
 30
0.0
 11
-213.623472
 21
-737.940084
 31
0.0
  0
LINE
  5
22D
100
AcDbEntity
  8
MSL-3-80-0
100
AcDbLine
 10
-216.805972
 20
-741.692861
 30
0.0
 11
-213.623472
 21
-741.692861
 31
0.0
  0
LINE
  5
22E
100
AcDbEntity
  8
MSL-3-80-0
100
AcDbLine
 10
-281.623472
 20
-629.97604
 30
0.0
 11
-281.623472
 21
-627.476926
 31
0.0
  0
LINE
  5
22F
100
AcDbEntity
  8
MSL-3-80-0
100
AcDbLine
 10
-282.623472
 20
-630.97604
 30
0.0
 11
-281.623472
 21
-629.97604
 31
0.0
  0
LINE
  5
230
100
AcDbEntity
  8
MSL-3-80-0
100
AcDbLine
 10
-282.623472
 20
-627.476926
 30
0.0
 11
-282.623472
 21
-630.97604
 31
0.0
  0
LINE
  5
231
100
AcDbEntity
  8
MSL-3-80-3
100
AcDbLine
 10
-180.623472
 20
-782.387307
 30
0.0
 11
-195.623472
 21
-782.387307
 31
0.0
  0
LINE
  5
232
100
AcDbEntity
  8
MSL-3-80-7
100
AcDbLine
 10
-179.784638
 20
-785.687307
 30
0.0
 11
-201.521176
 21
-785.687307
 31
0.0
  0
LINE
  5
233
100
AcDbEntity
  8
MSL-3-80-7
100
AcDbLine
 10
-177.623472
 20
-785.687307
 30
0.0
 11
-203.623472
 21
-785.687307
 31
0.0
  0
LINE
  5
234
100
AcDbEntity
  8
MSL-3-80-3
100
AcDbLine
 10
-180.623472
 20
-748.687307
 30
0.0
 11
-200.623472
 21
-748.687307
 31
0.0
  0
LINE
  5
235
100
AcDbEntity
  8
MSL-3-80-7
100
AcDbLine
 10
-177.623472
 20
-745.687307
 30
0.0
 11
-203.623472
 21
-745.687307
 31
0.0
  0
LINE
  5
236
100
AcDbEntity
  8
MSL-3-80-0
100
AcDbLine
 10
-200.623472
 20
-761.687307
 30
0.0
 11
-200.623472
 21
-769.687307
 31
0.0
  0
LINE
  5
237
100
AcDbEntity
  8
MSL-3-80-3
100
AcDbLine
 10
-195.623472
 20
-780.187307
 30
0.0
 11
-200.623472
 21
-780.187307
 31
0.0
  0
LINE
  5
238
100
AcDbEntity
  8
MSL-3-80-3
100
AcDbLine
 10
-195.623472
 20
-782.387307
 30
0.0
 11
-195.623472
 21
-780.187307
 31
0.0
  0
LINE
  5
239
100
AcDbEntity
  8
MSL-3-80-3
100
AcDbLine
 10
-183.623472
 20
-727.687307
 30
0.0
 11
-189.623472
 21
-727.687307
 31
0.0
  0
LINE
  5
23A
100
AcDbEntity
  8
MSL-3-80-3
100
AcDbLine
 10
-186.623472
 20
-733.106722
 30
0.0
 11
-189.081972
 21
-731.687307
 31
0.0
  0
LINE
  5
23B
100
AcDbEntity
  8
MSL-3-80-3
100
AcDbLine
 10
-184.164972
 20
-731.687307
 30
0.0
 11
-189.081972
 21
-731.687307
 31
0.0
  0
LINE
  5
23C
100
AcDbEntity
  8
MSL-3-80-3
100
AcDbLine
 10
-180.623472
 20
-742.687307
 30
0.0
 11
-200.623472
 21
-742.687307
 31
0.0
  0
LINE
  5
23D
100
AcDbEntity
  8
MSL-3-80-0
100
AcDbLine
 10
-180.623472
 20
-715.687307
 30
0.0
 11
-200.623472
 21
-715.687307
 31
0.0
  0
LINE
  5
23E
100
AcDbEntity
  8
MSL-3-80-3
100
AcDbLine
 10
-189.623472
 20
-715.687307
 30
0.0
 11
-189.623472
 21
-727.687307
 31
0.0
  0
LINE
  5
23F
100
AcDbEntity
  8
MSL-3-80-3
100
AcDbLine
 10
-189.081972
 20
-715.687307
 30
0.0
 11
-189.081972
 21
-731.687307
 31
0.0
  0
ARC
  5
240
100
AcDbEntity
  8
MSL-3-80-0
100
AcDbCircle
 10
-202.916528
 20
-728.558142
 30
0.0
 40
2.293056
100
AcDbArc
 50
305.085848
 51
54.914152
  0
ARC
  5
241
100
AcDbEntity
  8
MSL-3-80-0
100
AcDbCircle
 10
-202.916528
 20
-739.816472
 30
0.0
 40
2.293056
100
AcDbArc
 50
305.085848
 51
54.914152
  0
LINE
  5
242
100
AcDbEntity
  8
MSL-3-80-0
100
AcDbLine
 10
-200.623472
 20
-738.187307
 30
0.0
 11
-200.623472
 21
-730.187307
 31
0.0
  0
ARC
  5
243
100
AcDbEntity
  8
MSL-3-80-0
100
AcDbCircle
 10
-208.333195
 20
-734.187307
 30
0.0
 40
7.709722
100
AcDbArc
 50
330.872218
 51
29.127782
  0
LINE
  5
244
100
AcDbEntity
  8
MSL-3-80-0
100
AcDbLine
 10
-200.623472
 20
-728.558142
 30
0.0
 11
-200.623472
 21
-739.816472
 31
0.0
  0
ARC
  5
245
100
AcDbEntity
  8
MSL-3-80-0
100
AcDbCircle
 10
-204.830417
 20
-728.558142
 30
0.0
 40
2.293056
100
AcDbArc
 50
125.085847
 51
234.914153
  0
ARC
  5
246
100
AcDbEntity
  8
MSL-3-80-0
100
AcDbCircle
 10
-204.830417
 20
-739.816472
 30
0.0
 40
2.293056
100
AcDbArc
 50
125.085847
 51
234.914153
  0
ARC
  5
247
100
AcDbEntity
  8
MSL-3-80-0
100
AcDbCircle
 10
-199.41375
 20
-734.187307
 30
0.0
 40
7.709722
100
AcDbArc
 50
150.872216
 51
209.127784
  0
LINE
  5
248
100
AcDbEntity
  8
MSL-3-80-0
100
AcDbLine
 10
-207.123472
 20
-728.558142
 30
0.0
 11
-207.123472
 21
-739.816472
 31
0.0
  0
LINE
  5
249
100
AcDbEntity
  8
MSL-3-80-0
100
AcDbLine
 10
-206.148472
 20
-730.43453
 30
0.0
 11
-201.598472
 21
-730.43453
 31
0.0
  0
LINE
  5
24A
100
AcDbEntity
  8
MSL-3-80-0
100
AcDbLine
 10
-206.148472
 20
-726.681754
 30
0.0
 11
-201.598472
 21
-726.681754
 31
0.0
  0
LINE
  5
24B
100
AcDbEntity
  8
MSL-3-80-0
100
AcDbLine
 10
-206.148472
 20
-737.940084
 30
0.0
 11
-201.598472
 21
-737.940084
 31
0.0
  0
LINE
  5
24C
100
AcDbEntity
  8
MSL-3-80-0
100
AcDbLine
 10
-206.148472
 20
-741.692861
 30
0.0
 11
-201.598472
 21
-741.692861
 31
0.0
  0
ARC
  5
24D
100
AcDbEntity
  8
MSL-3-80-3
100
AcDbCircle
 10
-194.623472
 20
-730.687307
 30
0.0
 40
3.0
100
AcDbArc
 50
339.4283
 51
288.734659
  0
LINE
  5
24E
100
AcDbEntity
  8
MSL-3-80-7
100
AcDbLine
 10
-194.623472
 20
-725.768488
 30
0.0
 11
-194.623472
 21
-735.798602
 31
0.0
  0
CIRCLE
  5
24F
100
AcDbEntity
  8
MSL-3-80-3
100
AcDbCircle
 10
-194.623472
 20
-730.687307
 30
0.0
 40
2.5
  0
LINE
  5
250
100
AcDbEntity
  8
MSL-3-80-7
100
AcDbLine
 10
-186.623472
 20
-736.106722
 30
0.0
 11
-186.623472
 21
-712.687307
 31
0.0
  0
LINE
  5
251
100
AcDbEntity
  8
MSL-3-80-3
100
AcDbLine
 10
-184.164972
 20
-715.687307
 30
0.0
 11
-184.164972
 21
-731.687307
 31
0.0
  0
LINE
  5
252
100
AcDbEntity
  8
MSL-3-80-3
100
AcDbLine
 10
-183.623472
 20
-715.687307
 30
0.0
 11
-183.623472
 21
-727.687307
 31
0.0
  0
LINE
  5
253
100
AcDbEntity
  8
MSL-3-80-3
100
AcDbLine
 10
-186.623472
 20
-733.106722
 30
0.0
 11
-184.164972
 21
-731.687307
 31
0.0
  0
CIRCLE
  5
254
100
AcDbEntity
  8
MSL-3-80-0
100
AcDbCircle
 10
-186.623472
 20
-639.476017
 30
0.0
 40
2.5
  0
ARC
  5
255
100
AcDbEntity
  8
MSL-3-80-4
100
AcDbCircle
 10
-186.623472
 20
-639.476017
 30
0.0
 40
3.0
100
AcDbArc
 50
339.4283
 51
288.734659
  0
LINE
  5
256
100
AcDbEntity
  8
MSL-3-80-0
100
AcDbLine
 10
-200.623472
 20
-645.476017
 30
0.0
 11
-180.623472
 21
-645.476017
 31
0.0
  0
LINE
  5
257
100
AcDbEntity
  8
MSL-3-80-7
100
AcDbLine
 10
-186.623472
 20
-639.476017
 30
0.0
 11
-192.623472
 21
-639.476017
 31
0.0
  0
LINE
  5
258
100
AcDbEntity
  8
MSL-3-80-7
100
AcDbLine
 10
-194.623472
 20
-625.056602
 30
0.0
 11
-194.623472
 21
-648.476017
 31
0.0
  0
LINE
  5
259
100
AcDbEntity
  8
MSL-3-80-3
100
AcDbLine
 10
-197.623472
 20
-645.476017
 30
0.0
 11
-197.623472
 21
-633.476017
 31
0.0
  0
LINE
  5
25A
100
AcDbEntity
  8
MSL-3-80-3
100
AcDbLine
 10
-197.081972
 20
-645.476017
 30
0.0
 11
-197.081972
 21
-629.476017
 31
0.0
  0
LINE
  5
25B
100
AcDbEntity
  8
MSL-3-80-3
100
AcDbLine
 10
-191.623472
 20
-645.476017
 30
0.0
 11
-191.623472
 21
-633.476017
 31
0.0
  0
LINE
  5
25C
100
AcDbEntity
  8
MSL-3-80-3
100
AcDbLine
 10
-192.164972
 20
-645.476017
 30
0.0
 11
-192.164972
 21
-629.476017
 31
0.0
  0
LINE
  5
25D
100
AcDbEntity
  8
MSL-3-80-3
100
AcDbLine
 10
-197.623472
 20
-633.476017
 30
0.0
 11
-191.623472
 21
-633.476017
 31
0.0
  0
LINE
  5
25E
100
AcDbEntity
  8
MSL-3-80-3
100
AcDbLine
 10
-197.081972
 20
-629.476017
 30
0.0
 11
-192.164972
 21
-629.476017
 31
0.0
  0
LINE
  5
25F
100
AcDbEntity
  8
MSL-3-80-3
100
AcDbLine
 10
-194.623472
 20
-628.056602
 30
0.0
 11
-192.164972
 21
-629.476017
 31
0.0
  0
LINE
  5
260
100
AcDbEntity
  8
MSL-3-80-3
100
AcDbLine
 10
-194.623472
 20
-628.056602
 30
0.0
 11
-197.081972
 21
-629.476017
 31
0.0
  0
LINE
  5
261
100
AcDbEntity
  8
MSL-3-80-7
100
AcDbLine
 10
-186.623472
 20
-639.476017
 30
0.0
 11
-186.623472
 21
-633.476017
 31
0.0
  0
LINE
  5
262
100
AcDbEntity
  8
MSL-3-80-7
100
AcDbLine
 10
-186.623472
 20
-639.476017
 30
0.0
 11
-186.623472
 21
-645.476017
 31
0.0
  0
LINE
  5
263
100
AcDbEntity
  8
MSL-3-80-7
100
AcDbLine
 10
-186.623472
 20
-639.476017
 30
0.0
 11
-180.623472
 21
-639.476017
 31
0.0
  0
LINE
  5
264
100
AcDbEntity
  8
MSL-3-80-7
100
AcDbLine
 10
-308.408518
 20
-583.476017
 30
0.0
 11
-264.315137
 21
-583.476017
 31
0.0
  0
LINE
  5
265
100
AcDbEntity
  8
MSL-3-80-0
100
AcDbLine
 10
-300.623472
 20
-611.476926
 30
0.0
 11
-200.623472
 21
-611.476926
 31
0.0
  0
LINE
  5
266
100
AcDbEntity
  8
MSL-3-80-0
100
AcDbLine
 10
-282.623472
 20
-607.97604
 30
0.0
 11
-300.623472
 21
-607.97604
 31
0.0
  0
LINE
  5
267
100
AcDbEntity
  8
MSL-3-80-0
100
AcDbLine
 10
-293.623472
 20
-593.476017
 30
0.0
 11
-295.623472
 21
-593.476017
 31
0.0
  0
LINE
  5
268
100
AcDbEntity
  8
MSL-3-80-0
100
AcDbLine
 10
-295.623472
 20
-573.476017
 30
0.0
 11
-293.623472
 21
-573.476017
 31
0.0
  0
LINE
  5
269
100
AcDbEntity
  8
MSL-3-80-0
100
AcDbLine
 10
-300.623472
 20
-456.75265
 30
0.0
 11
-200.623472
 21
-456.75265
 31
0.0
  0
LINE
  5
26A
100
AcDbEntity
  8
MSL-3-80-0
100
AcDbLine
 10
-300.623472
 20
-456.75265
 30
0.0
 11
-240.623472
 21
-456.75265
 31
0.0
  0
LINE
  5
26B
100
AcDbEntity
  8
MSL-3-80-0
100
AcDbLine
 10
-300.623472
 20
-472.75265
 30
0.0
 11
-200.623472
 21
-472.75265
 31
0.0
  0
LINE
  5
26C
100
AcDbEntity
  8
MSL-3-80-0
100
AcDbLine
 10
-300.623472
 20
-402.75265
 30
0.0
 11
-200.623472
 21
-402.75265
 31
0.0
  0
LINE
  5
26D
100
AcDbEntity
  8
MSL-3-80-0
100
AcDbLine
 10
-282.623472
 20
-441.25265
 30
0.0
 11
-300.623472
 21
-441.25265
 31
0.0
  0
LINE
  5
26E
100
AcDbEntity
  8
MSL-3-80-0
100
AcDbLine
 10
-300.623472
 20
-418.25265
 30
0.0
 11
-282.623472
 21
-418.25265
 31
0.0
  0
LINE
  5
26F
100
AcDbEntity
  8
MSL-3-80-0
100
AcDbLine
 10
-200.623472
 20
-386.75265
 30
0.0
 11
-300.623472
 21
-386.75265
 31
0.0
  0
LINE
  5
270
100
AcDbEntity
  8
MSL-3-80-7
100
AcDbLine
 10
-305.262675
 20
-394.75265
 30
0.0
 11
-196.017456
 21
-394.75265
 31
0.0
  0
LINE
  5
271
100
AcDbEntity
  8
MSL-3-80-7
100
AcDbLine
 10
-305.262675
 20
-464.75265
 30
0.0
 11
-196.017456
 21
-464.75265
 31
0.0
  0
LINE
  5
272
100
AcDbEntity
  8
MSL-3-80-7
100
AcDbLine
 10
-305.262675
 20
-429.75265
 30
0.0
 11
-175.976793
 21
-429.75265
 31
0.0
  0
LINE
  5
273
100
AcDbEntity
  8
MSL-3-80-0
100
AcDbLine
 10
-460.623472
 20
-479.75265
 30
0.0
 11
-460.623472
 21
-379.75265
 31
0.0
  0
LINE
  5
274
100
AcDbEntity
  8
MSL-3-80-0
100
AcDbLine
 10
-459.623472
 20
-440.25265
 30
0.0
 11
-459.623472
 21
-419.25265
 31
0.0
  0
LINE
  5
275
100
AcDbEntity
  8
MSL-3-80-0
100
AcDbLine
 10
-458.623472
 20
-418.25265
 30
0.0
 11
-458.623472
 21
-441.25265
 31
0.0
  0
LINE
  5
276
100
AcDbEntity
  8
MSL-3-80-0
100
AcDbLine
 10
-440.623472
 20
-479.75265
 30
0.0
 11
-440.623472
 21
-379.75265
 31
0.0
  0
LINE
  5
277
100
AcDbEntity
  8
MSL-3-80-0
100
AcDbLine
 10
-300.623472
 20
-379.75265
 30
0.0
 11
-300.623472
 21
-479.75265
 31
0.0
  0
LINE
  5
278
100
AcDbEntity
  8
MSL-3-80-7
100
AcDbLine
 10
-370.623472
 20
-415.75265
 30
0.0
 11
-370.623472
 21
-443.75265
 31
0.0
  0
LINE
  5
279
100
AcDbEntity
  8
MSL-3-80-0
100
AcDbLine
 10
-440.623472
 20
-568.476017
 30
0.0
 11
-300.623472
 21
-568.476017
 31
0.0
  0
LINE
  5
27A
100
AcDbEntity
  8
MSL-3-80-0
100
AcDbLine
 10
-300.623472
 20
-479.75265
 30
0.0
 11
-440.623472
 21
-479.75265
 31
0.0
  0
LINE
  5
27B
100
AcDbEntity
  8
MSL-3-80-0
100
AcDbLine
 10
-300.623472
 20
-594.476017
 30
0.0
 11
-440.623472
 21
-594.476017
 31
0.0
  0
CIRCLE
  5
27C
100
AcDbEntity
  8
MSL-3-80-0
100
AcDbCircle
 10
-384.623472
 20
-587.477205
 30
0.0
 40
5.5
  0
LINE
  5
27D
100
AcDbEntity
  8
MSL-3-80-7
100
AcDbLine
 10
-384.623472
 20
-587.477205
 30
0.0
 11
-377.422452
 21
-587.477205
 31
0.0
  0
LINE
  5
27E
100
AcDbEntity
  8
MSL-3-80-0
100
AcDbLine
 10
-440.623472
 20
-607.976731
 30
0.0
 11
-458.623472
 21
-607.976731
 31
0.0
  0
LINE
  5
27F
100
AcDbEntity
  8
MSL-3-80-0
100
AcDbLine
 10
-460.623472
 20
-611.476926
 30
0.0
 11
-440.623472
 21
-611.476926
 31
0.0
  0
ARC
  5
280
100
AcDbEntity
  8
MSL-3-80-0
100
AcDbCircle
 10
-452.645882
 20
-583.476017
 30
0.0
 40
9.02241
100
AcDbArc
 50
335.421503
 51
24.578497
  0
ARC
  5
281
100
AcDbEntity
  8
MSL-3-80-0
100
AcDbCircle
 10
-446.185637
 20
-589.105182
 30
0.0
 40
2.562165
100
AcDbArc
 50
312.916664
 51
47.083336
  0
ARC
  5
282
100
AcDbEntity
  8
MSL-3-80-0
100
AcDbCircle
 10
-446.185637
 20
-577.846852
 30
0.0
 40
2.562165
100
AcDbArc
 50
312.916664
 51
47.083336
  0
LINE
  5
283
100
AcDbEntity
  8
MSL-3-80-0
100
AcDbLine
 10
-459.623472
 20
-608.976731
 30
0.0
 11
-459.623472
 21
-611.476926
 31
0.0
  0
LINE
  5
284
100
AcDbEntity
  8
MSL-3-80-0
100
AcDbLine
 10
-458.623472
 20
-607.976731
 30
0.0
 11
-459.623472
 21
-608.976731
 31
0.0
  0
LINE
  5
285
100
AcDbEntity
  8
MSL-3-80-0
100
AcDbLine
 10
-458.623472
 20
-611.476926
 30
0.0
 11
-458.623472
 21
-607.976731
 31
0.0
  0
ARC
  5
286
100
AcDbEntity
  8
MSL-3-80-0
100
AcDbCircle
 10
-461.833195
 20
-583.476017
 30
0.0
 40
7.709722
100
AcDbArc
 50
330.872218
 51
29.127782
  0
ARC
  5
287
100
AcDbEntity
  8
MSL-3-80-0
100
AcDbCircle
 10
-456.416528
 20
-589.105182
 30
0.0
 40
2.293056
100
AcDbArc
 50
305.085848
 51
54.914152
  0
ARC
  5
288
100
AcDbEntity
  8
MSL-3-80-0
100
AcDbCircle
 10
-456.416528
 20
-577.846852
 30
0.0
 40
2.293056
100
AcDbArc
 50
305.085848
 51
54.914152
  0
ARC
  5
289
100
AcDbEntity
  8
MSL-3-80-0
100
AcDbCircle
 10
-452.91375
 20
-583.476017
 30
0.0
 40
7.709722
100
AcDbArc
 50
150.872216
 51
209.127784
  0
LINE
  5
28A
100
AcDbEntity
  8
MSL-3-80-0
100
AcDbLine
 10
-460.623472
 20
-589.105182
 30
0.0
 11
-460.623472
 21
-577.846852
 31
0.0
  0
ARC
  5
28B
100
AcDbEntity
  8
MSL-3-80-0
100
AcDbCircle
 10
-458.330417
 20
-589.105182
 30
0.0
 40
2.293056
100
AcDbArc
 50
125.085847
 51
234.914153
  0
LINE
  5
28C
100
AcDbEntity
  8
MSL-3-80-0
100
AcDbLine
 10
-455.098472
 20
-587.228794
 30
0.0
 11
-459.648472
 21
-587.228794
 31
0.0
  0
LINE
  5
28D
100
AcDbEntity
  8
MSL-3-80-0
100
AcDbLine
 10
-455.098472
 20
-590.981571
 30
0.0
 11
-459.648472
 21
-590.981571
 31
0.0
  0
ARC
  5
28E
100
AcDbEntity
  8
MSL-3-80-0
100
AcDbCircle
 10
-458.330417
 20
-577.846852
 30
0.0
 40
2.293056
100
AcDbArc
 50
125.085847
 51
234.914153
  0
LINE
  5
28F
100
AcDbEntity
  8
MSL-3-80-0
100
AcDbLine
 10
-455.098472
 20
-579.72324
 30
0.0
 11
-459.648472
 21
-579.72324
 31
0.0
  0
LINE
  5
290
100
AcDbEntity
  8
MSL-3-80-0
100
AcDbLine
 10
-455.098472
 20
-575.970464
 30
0.0
 11
-459.648472
 21
-575.970464
 31
0.0
  0
LINE
  5
291
100
AcDbEntity
  8
MSL-3-80-0
100
AcDbLine
 10
-454.123472
 20
-587.476017
 30
0.0
 11
-447.623472
 21
-587.476017
 31
0.0
  0
LINE
  5
292
100
AcDbEntity
  8
MSL-3-80-0
100
AcDbLine
 10
-454.123472
 20
-579.476017
 30
0.0
 11
-447.623472
 21
-579.476017
 31
0.0
  0
LINE
  5
293
100
AcDbEntity
  8
MSL-3-80-0
100
AcDbLine
 10
-454.123472
 20
-589.105182
 30
0.0
 11
-454.123472
 21
-577.846852
 31
0.0
  0
LINE
  5
294
100
AcDbEntity
  8
MSL-3-80-0
100
AcDbLine
 10
-447.623472
 20
-575.970464
 30
0.0
 11
-447.623472
 21
-590.981571
 31
0.0
  0
LINE
  5
295
100
AcDbEntity
  8
MSL-3-80-0
100
AcDbLine
 10
-444.440972
 20
-587.228794
 30
0.0
 11
-447.623472
 21
-587.228794
 31
0.0
  0
LINE
  5
296
100
AcDbEntity
  8
MSL-3-80-0
100
AcDbLine
 10
-447.623472
 20
-590.981571
 30
0.0
 11
-444.440972
 21
-590.981571
 31
0.0
  0
LINE
  5
297
100
AcDbEntity
  8
MSL-3-80-0
100
AcDbLine
 10
-444.440972
 20
-579.72324
 30
0.0
 11
-447.623472
 21
-579.72324
 31
0.0
  0
LINE
  5
298
100
AcDbEntity
  8
MSL-3-80-0
100
AcDbLine
 10
-444.440972
 20
-575.970464
 30
0.0
 11
-447.623472
 21
-575.970464
 31
0.0
  0
ARC
  5
299
100
AcDbEntity
  8
MSL-3-80-0
100
AcDbCircle
 10
-440.514792
 20
-590.837233
 30
0.0
 40
3.108681
100
AcDbArc
 50
127.878142
 51
232.121858
  0
LINE
  5
29A
100
AcDbEntity
  8
MSL-3-80-0
100
AcDbLine
 10
-440.623472
 20
-593.276017
 30
0.0
 11
-442.442544
 21
-593.276017
 31
0.0
  0
LINE
  5
29B
100
AcDbEntity
  8
MSL-3-80-0
100
AcDbLine
 10
-443.623472
 20
-577.846852
 30
0.0
 11
-443.623472
 21
-589.105182
 31
0.0
  0
ARC
  5
29C
100
AcDbEntity
  8
MSL-3-80-0
100
AcDbCircle
 10
-432.98875
 20
-583.476017
 30
0.0
 40
10.634722
100
AcDbArc
 50
152.518771
 51
207.481229
  0
LINE
  5
29D
100
AcDbEntity
  8
MSL-3-80-0
100
AcDbLine
 10
-443.623472
 20
-576.114801
 30
0.0
 11
-443.623472
 21
-590.837233
 31
0.0
  0
LINE
  5
29E
100
AcDbEntity
  8
MSL-3-80-0
100
AcDbLine
 10
-442.423472
 20
-588.383494
 30
0.0
 11
-440.623472
 21
-588.383494
 31
0.0
  0
ARC
  5
29F
100
AcDbEntity
  8
MSL-3-80-0
100
AcDbCircle
 10
-440.514792
 20
-576.114801
 30
0.0
 40
3.108681
100
AcDbArc
 50
127.878142
 51
232.121858
  0
LINE
  5
2A0
100
AcDbEntity
  8
MSL-3-80-0
100
AcDbLine
 10
-442.423472
 20
-578.56854
 30
0.0
 11
-440.623472
 21
-578.56854
 31
0.0
  0
LINE
  5
2A1
100
AcDbEntity
  8
MSL-3-80-0
100
AcDbLine
 10
-442.442544
 20
-573.676017
 30
0.0
 11
-440.623472
 21
-573.676017
 31
0.0
  0
LINE
  5
2A2
100
AcDbEntity
  8
MSL-3-80-7
100
AcDbLine
 10
-396.623472
 20
-561.992884
 30
0.0
 11
-396.623472
 21
-571.760186
 31
0.0
  0
LINE
  5
2A3
100
AcDbEntity
  8
MSL-3-80-7
100
AcDbLine
 10
-395.123472
 20
-575.477205
 30
0.0
 11
-395.123472
 21
-568.554651
 31
0.0
  0
LINE
  5
2A4
100
AcDbEntity
  8
MSL-3-80-7
100
AcDbLine
 10
-395.123472
 20
-575.477205
 30
0.0
 11
-402.046026
 21
-575.477205
 31
0.0
  0
LINE
  5
2A5
100
AcDbEntity
  8
MSL-3-80-7
100
AcDbLine
 10
-384.623472
 20
-587.477205
 30
0.0
 11
-384.623472
 21
-594.678225
 31
0.0
  0
ARC
  5
2A6
100
AcDbEntity
  8
MSL-3-80-4
100
AcDbCircle
 10
-390.623472
 20
-599.476427
 30
0.0
 40
3.0
100
AcDbArc
 50
83.134355
 51
6.400807
  0
CIRCLE
  5
2A7
100
AcDbEntity
  8
MSL-3-80-0
100
AcDbCircle
 10
-390.623472
 20
-599.476427
 30
0.0
 40
2.5
  0
LINE
  5
2A8
100
AcDbEntity
  8
MSL-3-80-7
100
AcDbLine
 10
-390.623472
 20
-599.476427
 30
0.0
 11
-396.623472
 21
-599.476427
 31
0.0
  0
LINE
  5
2A9
100
AcDbEntity
  8
MSL-3-80-7
100
AcDbLine
 10
-390.623472
 20
-599.476427
 30
0.0
 11
-390.623472
 21
-593.476427
 31
0.0
  0
LINE
  5
2AA
100
AcDbEntity
  8
MSL-3-80-7
100
AcDbLine
 10
-390.623472
 20
-599.476427
 30
0.0
 11
-384.623472
 21
-599.476427
 31
0.0
  0
LINE
  5
2AB
100
AcDbEntity
  8
MSL-3-80-7
100
AcDbLine
 10
-390.623472
 20
-599.476427
 30
0.0
 11
-390.623472
 21
-605.476427
 31
0.0
  0
CIRCLE
  5
2AC
100
AcDbEntity
  8
MSL-3-80-0
100
AcDbCircle
 10
-395.123472
 20
-575.477205
 30
0.0
 40
5.5
  0
LINE
  5
2AD
100
AcDbEntity
  8
MSL-3-80-7
100
AcDbLine
 10
-395.123472
 20
-575.477205
 30
0.0
 11
-388.200917
 21
-575.477205
 31
0.0
  0
LINE
  5
2AE
100
AcDbEntity
  8
MSL-3-80-7
100
AcDbLine
 10
-384.623472
 20
-587.477205
 30
0.0
 11
-391.824492
 21
-587.477205
 31
0.0
  0
LINE
  5
2AF
100
AcDbEntity
  8
MSL-3-80-7
100
AcDbLine
 10
-395.123472
 20
-575.477205
 30
0.0
 11
-395.123472
 21
-582.39976
 31
0.0
  0
LINE
  5
2B0
100
AcDbEntity
  8
MSL-3-80-7
100
AcDbLine
 10
-384.623472
 20
-587.477205
 30
0.0
 11
-384.623472
 21
-580.276186
 31
0.0
  0
LINE
  5
2B1
100
AcDbEntity
  8
MSL-3-80-0
100
AcDbLine
 10
-402.423472
 20
-566.476017
 30
0.0
 11
-390.823472
 21
-566.476017
 31
0.0
  0
LINE
  5
2B2
100
AcDbEntity
  8
MSL-3-80-0
100
AcDbLine
 10
-402.423472
 20
-568.476017
 30
0.0
 11
-402.423472
 21
-566.476017
 31
0.0
  0
LINE
  5
2B3
100
AcDbEntity
  8
MSL-3-80-0
100
AcDbLine
 10
-390.823472
 20
-566.476017
 30
0.0
 11
-390.823472
 21
-568.476017
 31
0.0
  0
MTEXT
  5
2B4
100
AcDbEntity
  8
MSL-3-80-6
100
AcDbMText
 10
-438.891086
 20
-474.558289
 30
0.0
 40
3.5
 41
26.851963
 71
     1
 72
     1
  1
{MSL-3-80}
  0
LINE
  5
2B5
100
AcDbEntity
  8
MSL-3-80-0
100
AcDbLine
 10
-440.623472
 20
-441.25265
 30
0.0
 11
-458.623472
 21
-441.25265
 31
0.0
  0
LINE
  5
2B6
100
AcDbEntity
  8
MSL-3-80-0
100
AcDbLine
 10
-460.623472
 20
-456.75265
 30
0.0
 11
-440.623472
 21
-456.75265
 31
0.0
  0
LINE
  5
2B7
100
AcDbEntity
  8
MSL-3-80-0
100
AcDbLine
 10
-460.623472
 20
-472.75265
 30
0.0
 11
-440.623472
 21
-472.75265
 31
0.0
  0
LINE
  5
2B8
100
AcDbEntity
  8
MSL-3-80-0
100
AcDbLine
 10
-458.623472
 20
-441.25265
 30
0.0
 11
-459.623472
 21
-440.25265
 31
0.0
  0
LINE
  5
2B9
100
AcDbEntity
  8
MSL-3-80-7
100
AcDbLine
 10
-390.623472
 20
-459.333235
 30
0.0
 11
-390.623472
 21
-482.75265
 31
0.0
  0
ARC
  5
2BA
100
AcDbEntity
  8
MSL-3-80-4
100
AcDbCircle
 10
-390.623472
 20
-449.75265
 30
0.0
 40
3.0
100
AcDbArc
 50
353.599193
 51
276.865645
  0
CIRCLE
  5
2BB
100
AcDbEntity
  8
MSL-3-80-0
100
AcDbCircle
 10
-390.623472
 20
-449.75265
 30
0.0
 40
2.5
  0
LINE
  5
2BC
100
AcDbEntity
  8
MSL-3-80-7
100
AcDbLine
 10
-390.623472
 20
-449.75265
 30
0.0
 11
-396.623472
 21
-449.75265
 31
0.0
  0
LINE
  5
2BD
100
AcDbEntity
  8
MSL-3-80-7
100
AcDbLine
 10
-390.623472
 20
-449.75265
 30
0.0
 11
-390.623472
 21
-455.75265
 31
0.0
  0
LINE
  5
2BE
100
AcDbEntity
  8
MSL-3-80-7
100
AcDbLine
 10
-390.623472
 20
-449.75265
 30
0.0
 11
-384.623472
 21
-449.75265
 31
0.0
  0
LINE
  5
2BF
100
AcDbEntity
  8
MSL-3-80-7
100
AcDbLine
 10
-390.623472
 20
-449.75265
 30
0.0
 11
-390.623472
 21
-443.75265
 31
0.0
  0
LINE
  5
2C0
100
AcDbEntity
  8
MSL-3-80-7
100
AcDbLine
 10
-344.623472
 20
-561.992884
 30
0.0
 11
-344.623472
 21
-571.760186
 31
0.0
  0
CIRCLE
  5
2C1
100
AcDbEntity
  8
MSL-3-80-0
100
AcDbCircle
 10
-370.623472
 20
-599.476427
 30
0.0
 40
3.0
  0
LINE
  5
2C2
100
AcDbEntity
  8
MSL-3-80-7
100
AcDbLine
 10
-370.623472
 20
-599.476427
 30
0.0
 11
-364.623472
 21
-599.476427
 31
0.0
  0
LINE
  5
2C3
100
AcDbEntity
  8
MSL-3-80-7
100
AcDbLine
 10
-370.623472
 20
-599.476427
 30
0.0
 11
-370.623472
 21
-593.476427
 31
0.0
  0
LINE
  5
2C4
100
AcDbEntity
  8
MSL-3-80-7
100
AcDbLine
 10
-370.623472
 20
-599.476427
 30
0.0
 11
-376.623472
 21
-599.476427
 31
0.0
  0
LINE
  5
2C5
100
AcDbEntity
  8
MSL-3-80-7
100
AcDbLine
 10
-370.623472
 20
-599.476427
 30
0.0
 11
-370.623472
 21
-605.476427
 31
0.0
  0
LINE
  5
2C6
100
AcDbEntity
  8
MSL-3-80-7
100
AcDbLine
 10
-350.623472
 20
-599.476427
 30
0.0
 11
-344.623472
 21
-599.476427
 31
0.0
  0
ARC
  5
2C7
100
AcDbEntity
  8
MSL-3-80-4
100
AcDbCircle
 10
-350.623472
 20
-599.476427
 30
0.0
 40
3.0
100
AcDbArc
 50
83.134355
 51
6.400807
  0
CIRCLE
  5
2C8
100
AcDbEntity
  8
MSL-3-80-0
100
AcDbCircle
 10
-350.623472
 20
-599.476427
 30
0.0
 40
2.5
  0
LINE
  5
2C9
100
AcDbEntity
  8
MSL-3-80-7
100
AcDbLine
 10
-350.623472
 20
-599.476427
 30
0.0
 11
-350.623472
 21
-593.476427
 31
0.0
  0
LINE
  5
2CA
100
AcDbEntity
  8
MSL-3-80-7
100
AcDbLine
 10
-350.623472
 20
-599.476427
 30
0.0
 11
-356.623472
 21
-599.476427
 31
0.0
  0
LINE
  5
2CB
100
AcDbEntity
  8
MSL-3-80-7
100
AcDbLine
 10
-350.623472
 20
-599.476427
 30
0.0
 11
-350.623472
 21
-605.476427
 31
0.0
  0
LINE
  5
2CC
100
AcDbEntity
  8
MSL-3-80-0
100
AcDbLine
 10
-350.423472
 20
-566.476017
 30
0.0
 11
-338.823472
 21
-566.476017
 31
0.0
  0
LINE
  5
2CD
100
AcDbEntity
  8
MSL-3-80-0
100
AcDbLine
 10
-350.423472
 20
-568.476017
 30
0.0
 11
-350.423472
 21
-566.476017
 31
0.0
  0
LINE
  5
2CE
100
AcDbEntity
  8
MSL-3-80-0
100
AcDbLine
 10
-338.823472
 20
-566.476017
 30
0.0
 11
-338.823472
 21
-568.476017
 31
0.0
  0
LINE
  5
2CF
100
AcDbEntity
  8
MSL-3-80-0
100
AcDbLine
 10
-295.623472
 20
-573.083712
 30
0.0
 11
-295.623472
 21
-593.868322
 31
0.0
  0
ARC
  5
2D0
100
AcDbEntity
  8
MSL-3-80-0
100
AcDbCircle
 10
-299.675395
 20
-593.868322
 30
0.0
 40
4.051923
100
AcDbArc
 50
301.248243
 51
58.751757
  0
ARC
  5
2D1
100
AcDbEntity
  8
MSL-3-80-0
100
AcDbCircle
 10
-296.571549
 20
-593.868322
 30
0.0
 40
4.051923
100
AcDbArc
 50
121.248241
 51
238.751759
  0
LINE
  5
2D2
100
AcDbEntity
  8
MSL-3-80-0
100
AcDbLine
 10
-298.673472
 20
-597.332424
 30
0.0
 11
-297.573472
 21
-597.332424
 31
0.0
  0
ARC
  5
2D3
100
AcDbEntity
  8
MSL-3-80-0
100
AcDbCircle
 10
-287.34078
 20
-583.476017
 30
0.0
 40
13.282692
100
AcDbArc
 50
148.560609
 51
211.439391
  0
ARC
  5
2D4
100
AcDbEntity
  8
MSL-3-80-0
100
AcDbCircle
 10
-308.906165
 20
-583.476017
 30
0.0
 40
13.282692
100
AcDbArc
 50
328.560611
 51
31.439389
  0
LINE
  5
2D5
100
AcDbEntity
  8
MSL-3-80-0
100
AcDbLine
 10
-298.673472
 20
-590.40422
 30
0.0
 11
-297.573472
 21
-590.40422
 31
0.0
  0
ARC
  5
2D6
100
AcDbEntity
  8
MSL-3-80-0
100
AcDbCircle
 10
-299.675395
 20
-573.083712
 30
0.0
 40
4.051923
100
AcDbArc
 50
301.248243
 51
58.751757
  0
ARC
  5
2D7
100
AcDbEntity
  8
MSL-3-80-0
100
AcDbCircle
 10
-296.571549
 20
-573.083712
 30
0.0
 40
4.051923
100
AcDbArc
 50
121.248241
 51
238.751759
  0
LINE
  5
2D8
100
AcDbEntity
  8
MSL-3-80-0
100
AcDbLine
 10
-298.673472
 20
-569.619611
 30
0.0
 11
-297.573472
 21
-569.619611
 31
0.0
  0
LINE
  5
2D9
100
AcDbEntity
  8
MSL-3-80-0
100
AcDbLine
 10
-298.673472
 20
-576.547814
 30
0.0
 11
-297.573472
 21
-576.547814
 31
0.0
  0
LINE
  5
2DA
100
AcDbEntity
  8
MSL-3-80-7
100
AcDbLine
 10
-370.623472
 20
-482.75265
 30
0.0
 11
-370.623472
 21
-465.0206
 31
0.0
  0
LINE
  5
2DB
100
AcDbEntity
  8
MSL-3-80-7
100
AcDbLine
 10
-350.623472
 20
-459.333235
 30
0.0
 11
-350.623472
 21
-482.75265
 31
0.0
  0
CIRCLE
  5
2DC
100
AcDbEntity
  8
MSL-3-80-0
100
AcDbCircle
 10
-370.623472
 20
-449.75265
 30
0.0
 40
3.0
  0
LINE
  5
2DD
100
AcDbEntity
  8
MSL-3-80-7
100
AcDbLine
 10
-370.623472
 20
-449.75265
 30
0.0
 11
-364.623472
 21
-449.75265
 31
0.0
  0
LINE
  5
2DE
100
AcDbEntity
  8
MSL-3-80-7
100
AcDbLine
 10
-370.623472
 20
-449.75265
 30
0.0
 11
-370.623472
 21
-455.75265
 31
0.0
  0
LINE
  5
2DF
100
AcDbEntity
  8
MSL-3-80-7
100
AcDbLine
 10
-370.623472
 20
-449.75265
 30
0.0
 11
-376.623472
 21
-449.75265
 31
0.0
  0
LINE
  5
2E0
100
AcDbEntity
  8
MSL-3-80-7
100
AcDbLine
 10
-370.623472
 20
-449.75265
 30
0.0
 11
-370.623472
 21
-443.75265
 31
0.0
  0
LINE
  5
2E1
100
AcDbEntity
  8
MSL-3-80-7
100
AcDbLine
 10
-350.623472
 20
-449.75265
 30
0.0
 11
-344.623472
 21
-449.75265
 31
0.0
  0
ARC
  5
2E2
100
AcDbEntity
  8
MSL-3-80-4
100
AcDbCircle
 10
-350.623472
 20
-449.75265
 30
0.0
 40
3.0
100
AcDbArc
 50
353.599193
 51
276.865645
  0
CIRCLE
  5
2E3
100
AcDbEntity
  8
MSL-3-80-0
100
AcDbCircle
 10
-350.623472
 20
-449.75265
 30
0.0
 40
2.5
  0
LINE
  5
2E4
100
AcDbEntity
  8
MSL-3-80-7
100
AcDbLine
 10
-350.623472
 20
-449.75265
 30
0.0
 11
-350.623472
 21
-455.75265
 31
0.0
  0
LINE
  5
2E5
100
AcDbEntity
  8
MSL-3-80-7
100
AcDbLine
 10
-350.623472
 20
-449.75265
 30
0.0
 11
-356.623472
 21
-449.75265
 31
0.0
  0
LINE
  5
2E6
100
AcDbEntity
  8
MSL-3-80-7
100
AcDbLine
 10
-350.623472
 20
-449.75265
 30
0.0
 11
-350.623472
 21
-443.75265
 31
0.0
  0
LINE
  5
2E7
100
AcDbEntity
  8
MSL-3-80-0
100
AcDbLine
 10
-440.623472
 20
-379.75265
 30
0.0
 11
-300.623472
 21
-379.75265
 31
0.0
  0
LINE
  5
2E8
100
AcDbEntity
  8
MSL-3-80-7
100
AcDbLine
 10
-402.646816
 20
-429.75265
 30
0.0
 11
-340.115946
 21
-429.75265
 31
0.0
  0
ARC
  5
2E9
100
AcDbEntity
  8
MSL-3-80-0
100
AcDbCircle
 10
-380.624814
 20
-376.75266
 30
0.0
 40
1.5
100
AcDbArc
 50
0.000038
 51
90.000041
  0
LINE
  5
2EA
100
AcDbEntity
  8
MSL-3-80-0
100
AcDbLine
 10
-460.623472
 20
-402.75265
 30
0.0
 11
-440.623472
 21
-402.75265
 31
0.0
  0
LINE
  5
2EB
100
AcDbEntity
  8
MSL-3-80-0
100
AcDbLine
 10
-458.623472
 20
-418.25265
 30
0.0
 11
-440.623472
 21
-418.25265
 31
0.0
  0
LINE
  5
2EC
100
AcDbEntity
  8
MSL-3-80-0
100
AcDbLine
 10
-459.623472
 20
-433.75265
 30
0.0
 11
-460.623472
 21
-433.75265
 31
0.0
  0
LINE
  5
2ED
100
AcDbEntity
  8
MSL-3-80-0
100
AcDbLine
 10
-459.623472
 20
-419.25265
 30
0.0
 11
-458.623472
 21
-418.25265
 31
0.0
  0
LINE
  5
2EE
100
AcDbEntity
  8
MSL-3-80-0
100
AcDbLine
 10
-460.623472
 20
-425.75265
 30
0.0
 11
-459.623472
 21
-425.75265
 31
0.0
  0
LINE
  5
2EF
100
AcDbEntity
  8
MSL-3-80-0
100
AcDbLine
 10
-440.623472
 20
-386.75265
 30
0.0
 11
-460.623472
 21
-386.75265
 31
0.0
  0
LINE
  5
2F0
100
AcDbEntity
  8
MSL-3-80-7
100
AcDbLine
 10
-390.623472
 20
-400.172066
 30
0.0
 11
-390.623472
 21
-376.75265
 31
0.0
  0
CIRCLE
  5
2F1
100
AcDbEntity
  8
MSL-3-80-0
100
AcDbCircle
 10
-390.623472
 20
-409.75265
 30
0.0
 40
2.5
  0
ARC
  5
2F2
100
AcDbEntity
  8
MSL-3-80-4
100
AcDbCircle
 10
-390.623472
 20
-409.75265
 30
0.0
 40
3.0
100
AcDbArc
 50
353.599193
 51
276.865645
  0
LINE
  5
2F3
100
AcDbEntity
  8
MSL-3-80-7
100
AcDbLine
 10
-390.623472
 20
-409.75265
 30
0.0
 11
-396.623472
 21
-409.75265
 31
0.0
  0
LINE
  5
2F4
100
AcDbEntity
  8
MSL-3-80-7
100
AcDbLine
 10
-390.623472
 20
-409.75265
 30
0.0
 11
-390.623472
 21
-415.75265
 31
0.0
  0
LINE
  5
2F5
100
AcDbEntity
  8
MSL-3-80-7
100
AcDbLine
 10
-390.623472
 20
-409.75265
 30
0.0
 11
-384.623472
 21
-409.75265
 31
0.0
  0
LINE
  5
2F6
100
AcDbEntity
  8
MSL-3-80-7
100
AcDbLine
 10
-390.623472
 20
-409.75265
 30
0.0
 11
-390.623472
 21
-403.75265
 31
0.0
  0
ARC
  5
2F7
100
AcDbEntity
  8
MSL-3-80-0
100
AcDbCircle
 10
-391.124814
 20
-376.752651
 30
0.0
 40
1.5
100
AcDbArc
 50
33.556991
 51
90.000041
  0
ARC
  5
2F8
100
AcDbEntity
  8
MSL-3-80-0
100
AcDbCircle
 10
-399.124814
 20
-376.752657
 30
0.0
 40
1.5
100
AcDbArc
 50
90.000041
 51
180.00004
  0
LINE
  5
2F9
100
AcDbEntity
  8
MSL-3-80-7
100
AcDbLine
 10
-395.123477
 20
-372.463909
 30
0.0
 11
-395.123469
 21
-383.656636
 31
0.0
  0
LINE
  5
2FA
100
AcDbEntity
  8
MSL-3-80-0
100
AcDbLine
 10
-399.124815
 20
-375.252657
 30
0.0
 11
-391.124815
 21
-375.252651
 31
0.0
  0
LINE
  5
2FB
100
AcDbEntity
  8
MSL-3-80-0
100
AcDbLine
 10
-400.624812
 20
-379.75265
 30
0.0
 11
-400.624814
 21
-376.752658
 31
0.0
  0
ARC
  5
2FC
100
AcDbEntity
  8
MSL-3-80-0
100
AcDbCircle
 10
-388.624814
 20
-376.752665
 30
0.0
 40
1.5
100
AcDbArc
 50
90.000041
 51
180.00004
  0
LINE
  5
2FD
100
AcDbEntity
  8
MSL-3-80-7
100
AcDbLine
 10
-384.623477
 20
-372.463918
 30
0.0
 11
-384.623469
 21
-383.656645
 31
0.0
  0
LINE
  5
2FE
100
AcDbEntity
  8
MSL-3-80-0
100
AcDbLine
 10
-388.624815
 20
-375.252665
 30
0.0
 11
-388.624815
 21
-375.252665
 31
0.0
  0
LINE
  5
2FF
100
AcDbEntity
  8
MSL-3-80-0
100
AcDbLine
 10
-388.624815
 20
-375.252665
 30
0.0
 11
-380.624815
 21
-375.25266
 31
0.0
  0
LINE
  5
300
100
AcDbEntity
  8
MSL-3-80-0
100
AcDbLine
 10
-390.124812
 20
-379.75265
 30
0.0
 11
-390.124814
 21
-376.752666
 31
0.0
  0
LINE
  5
301
100
AcDbEntity
  8
MSL-3-80-7
100
AcDbLine
 10
-350.623472
 20
-400.172066
 30
0.0
 11
-350.623472
 21
-376.75265
 31
0.0
  0
LINE
  5
302
100
AcDbEntity
  8
MSL-3-80-7
100
AcDbLine
 10
-370.623472
 20
-376.75265
 30
0.0
 11
-370.623472
 21
-394.484701
 31
0.0
  0
CIRCLE
  5
303
100
AcDbEntity
  8
MSL-3-80-0
100
AcDbCircle
 10
-370.623472
 20
-409.75265
 30
0.0
 40
3.0
  0
LINE
  5
304
100
AcDbEntity
  8
MSL-3-80-7
100
AcDbLine
 10
-370.623472
 20
-409.75265
 30
0.0
 11
-364.623472
 21
-409.75265
 31
0.0
  0
LINE
  5
305
100
AcDbEntity
  8
MSL-3-80-7
100
AcDbLine
 10
-370.623472
 20
-409.75265
 30
0.0
 11
-370.623472
 21
-415.75265
 31
0.0
  0
LINE
  5
306
100
AcDbEntity
  8
MSL-3-80-7
100
AcDbLine
 10
-370.623472
 20
-409.75265
 30
0.0
 11
-376.623472
 21
-409.75265
 31
0.0
  0
LINE
  5
307
100
AcDbEntity
  8
MSL-3-80-7
100
AcDbLine
 10
-370.623472
 20
-409.75265
 30
0.0
 11
-370.623472
 21
-403.75265
 31
0.0
  0
LINE
  5
308
100
AcDbEntity
  8
MSL-3-80-7
100
AcDbLine
 10
-350.623472
 20
-409.75265
 30
0.0
 11
-344.623472
 21
-409.75265
 31
0.0
  0
CIRCLE
  5
309
100
AcDbEntity
  8
MSL-3-80-0
100
AcDbCircle
 10
-350.623472
 20
-409.75265
 30
0.0
 40
2.5
  0
ARC
  5
30A
100
AcDbEntity
  8
MSL-3-80-4
100
AcDbCircle
 10
-350.623472
 20
-409.75265
 30
0.0
 40
3.0
100
AcDbArc
 50
353.599193
 51
276.865645
  0
LINE
  5
30B
100
AcDbEntity
  8
MSL-3-80-7
100
AcDbLine
 10
-350.623472
 20
-409.75265
 30
0.0
 11
-350.623472
 21
-415.75265
 31
0.0
  0
LINE
  5
30C
100
AcDbEntity
  8
MSL-3-80-7
100
AcDbLine
 10
-350.623472
 20
-409.75265
 30
0.0
 11
-356.623472
 21
-409.75265
 31
0.0
  0
LINE
  5
30D
100
AcDbEntity
  8
MSL-3-80-7
100
AcDbLine
 10
-350.623472
 20
-409.75265
 30
0.0
 11
-350.623472
 21
-403.75265
 31
0.0
  0
LINE
  5
30E
100
AcDbEntity
  8
MSL-3-80-0
100
AcDbLine
 10
-379.124814
 20
-376.752659
 30
0.0
 11
-379.124812
 21
-379.75265
 31
0.0
  0
LINE
  5
30F
100
AcDbEntity
  8
MSL-3-80-0
100
AcDbLine
 10
-180.623472
 20
-479.75265
 30
0.0
 11
-180.623472
 21
-379.75265
 31
0.0
  0
LINE
  5
310
100
AcDbEntity
  8
MSL-3-80-0
100
AcDbLine
 10
-200.623472
 20
-379.75265
 30
0.0
 11
-200.623472
 21
-479.75265
 31
0.0
  0
LINE
  5
311
100
AcDbEntity
  8
MSL-3-80-0
100
AcDbLine
 10
-281.623472
 20
-419.25265
 30
0.0
 11
-281.623472
 21
-440.25265
 31
0.0
  0
LINE
  5
312
100
AcDbEntity
  8
MSL-3-80-0
100
AcDbLine
 10
-282.623472
 20
-441.25265
 30
0.0
 11
-282.623472
 21
-418.25265
 31
0.0
  0
LINE
  5
313
100
AcDbEntity
  8
MSL-3-80-7
100
AcDbLine
 10
-219.454347
 20
-583.476017
 30
0.0
 11
-194.135628
 21
-583.476017
 31
0.0
  0
LINE
  5
314
100
AcDbEntity
  8
MSL-3-80-0
100
AcDbLine
 10
-213.623472
 20
-587.476017
 30
0.0
 11
-207.123472
 21
-587.476017
 31
0.0
  0
LINE
  5
315
100
AcDbEntity
  8
MSL-3-80-0
100
AcDbLine
 10
-207.123472
 20
-579.476017
 30
0.0
 11
-213.623472
 21
-579.476017
 31
0.0
  0
LINE
  5
316
100
AcDbEntity
  8
MSL-3-80-0
100
AcDbLine
 10
-276.623472
 20
-574.976017
 30
0.0
 11
-266.623472
 21
-574.976017
 31
0.0
  0
LINE
  5
317
100
AcDbEntity
  8
MSL-3-80-0
100
AcDbLine
 10
-266.623472
 20
-591.976017
 30
0.0
 11
-276.623472
 21
-591.976017
 31
0.0
  0
LINE
  5
318
100
AcDbEntity
  8
MSL-3-80-0
100
AcDbLine
 10
-293.623472
 20
-573.476017
 30
0.0
 11
-293.623472
 21
-593.476017
 31
0.0
  0
LINE
  5
319
100
AcDbEntity
  8
MSL-3-80-0
100
AcDbLine
 10
-292.623472
 20
-574.476017
 30
0.0
 11
-292.623472
 21
-592.476017
 31
0.0
  0
LINE
  5
31A
100
AcDbEntity
  8
MSL-3-80-0
100
AcDbLine
 10
-276.623472
 20
-591.976017
 30
0.0
 11
-276.623472
 21
-574.976017
 31
0.0
  0
LINE
  5
31B
100
AcDbEntity
  8
MSL-3-80-0
100
AcDbLine
 10
-292.623472
 20
-592.476017
 30
0.0
 11
-293.623472
 21
-593.476017
 31
0.0
  0
LINE
  5
31C
100
AcDbEntity
  8
MSL-3-80-0
100
AcDbLine
 10
-282.623472
 20
-607.97604
 30
0.0
 11
-282.623472
 21
-611.476926
 31
0.0
  0
LINE
  5
31D
100
AcDbEntity
  8
MSL-3-80-0
100
AcDbLine
 10
-281.623472
 20
-608.97604
 30
0.0
 11
-282.623472
 21
-607.97604
 31
0.0
  0
LINE
  5
31E
100
AcDbEntity
  8
MSL-3-80-0
100
AcDbLine
 10
-281.623472
 20
-611.476926
 30
0.0
 11
-281.623472
 21
-608.97604
 31
0.0
  0
LINE
  5
31F
100
AcDbEntity
  8
MSL-3-80-0
100
AcDbLine
 10
-292.623472
 20
-580.326017
 30
0.0
 11
-276.623472
 21
-580.326017
 31
0.0
  0
LINE
  5
320
100
AcDbEntity
  8
MSL-3-80-0
100
AcDbLine
 10
-292.623472
 20
-586.626017
 30
0.0
 11
-276.623472
 21
-586.626017
 31
0.0
  0
LINE
  5
321
100
AcDbEntity
  8
MSL-3-80-0
100
AcDbLine
 10
-293.623472
 20
-573.476017
 30
0.0
 11
-292.623472
 21
-574.476017
 31
0.0
  0
LINE
  5
322
100
AcDbEntity
  8
MSL-3-80-0
100
AcDbLine
 10
-266.623472
 20
-574.976017
 30
0.0
 11
-266.623472
 21
-591.976017
 31
0.0
  0
LINE
  5
323
100
AcDbEntity
  8
MSL-3-80-0
100
AcDbLine
 10
-265.623472
 20
-590.976017
 30
0.0
 11
-266.623472
 21
-591.976017
 31
0.0
  0
LINE
  5
324
100
AcDbEntity
  8
MSL-3-80-0
100
AcDbLine
 10
-265.623472
 20
-575.976017
 30
0.0
 11
-265.623472
 21
-590.976017
 31
0.0
  0
LINE
  5
325
100
AcDbEntity
  8
MSL-3-80-0
100
AcDbLine
 10
-266.623472
 20
-574.976017
 30
0.0
 11
-265.623472
 21
-575.976017
 31
0.0
  0
LINE
  5
326
100
AcDbEntity
  8
MSL-3-80-0
100
AcDbLine
 10
-216.805972
 20
-590.981571
 30
0.0
 11
-213.623472
 21
-590.981571
 31
0.0
  0
LINE
  5
327
100
AcDbEntity
  8
MSL-3-80-0
100
AcDbLine
 10
-216.805972
 20
-587.228794
 30
0.0
 11
-213.623472
 21
-587.228794
 31
0.0
  0
LINE
  5
328
100
AcDbEntity
  8
MSL-3-80-0
100
AcDbLine
 10
-213.623472
 20
-575.970464
 30
0.0
 11
-216.805972
 21
-575.970464
 31
0.0
  0
LINE
  5
329
100
AcDbEntity
  8
MSL-3-80-0
100
AcDbLine
 10
-216.805972
 20
-579.72324
 30
0.0
 11
-213.623472
 21
-579.72324
 31
0.0
  0
LINE
  5
32A
100
AcDbEntity
  8
MSL-3-80-0
100
AcDbLine
 10
-217.623472
 20
-589.105182
 30
0.0
 11
-217.623472
 21
-577.846852
 31
0.0
  0
ARC
  5
32B
100
AcDbEntity
  8
MSL-3-80-0
100
AcDbCircle
 10
-208.601063
 20
-583.476017
 30
0.0
 40
9.02241
100
AcDbArc
 50
155.421502
 51
204.578498
  0
ARC
  5
32C
100
AcDbEntity
  8
MSL-3-80-0
100
AcDbCircle
 10
-215.061307
 20
-589.105182
 30
0.0
 40
2.562165
100
AcDbArc
 50
132.916662
 51
227.083338
  0
ARC
  5
32D
100
AcDbEntity
  8
MSL-3-80-0
100
AcDbCircle
 10
-215.061307
 20
-577.846852
 30
0.0
 40
2.562165
100
AcDbArc
 50
132.916662
 51
227.083338
  0
LINE
  5
32E
100
AcDbEntity
  8
MSL-3-80-0
100
AcDbLine
 10
-213.623472
 20
-590.981571
 30
0.0
 11
-213.623472
 21
-575.970464
 31
0.0
  0
LINE
  5
32F
100
AcDbEntity
  8
MSL-3-80-0
100
AcDbLine
 10
-281.623472
 20
-440.25265
 30
0.0
 11
-282.623472
 21
-441.25265
 31
0.0
  0
CIRCLE
  5
330
100
AcDbEntity
  8
MSL-3-80-0
100
AcDbCircle
 10
-186.623472
 20
-599.477422
 30
0.0
 40
2.5
  0
ARC
  5
331
100
AcDbEntity
  8
MSL-3-80-4
100
AcDbCircle
 10
-186.623472
 20
-599.477422
 30
0.0
 40
3.0
100
AcDbArc
 50
339.4283
 51
288.734659
  0
LINE
  5
332
100
AcDbEntity
  8
MSL-3-80-0
100
AcDbLine
 10
-180.623472
 20
-575.476017
 30
0.0
 11
-200.623472
 21
-575.476017
 31
0.0
  0
LINE
  5
333
100
AcDbEntity
  8
MSL-3-80-7
100
AcDbLine
 10
-186.623472
 20
-599.477422
 30
0.0
 11
-192.623472
 21
-599.477422
 31
0.0
  0
LINE
  5
334
100
AcDbEntity
  8
MSL-3-80-0
100
AcDbLine
 10
-200.623472
 20
-577.846852
 30
0.0
 11
-200.623472
 21
-589.105182
 31
0.0
  0
ARC
  5
335
100
AcDbEntity
  8
MSL-3-80-0
100
AcDbCircle
 10
-208.333195
 20
-583.476017
 30
0.0
 40
7.709722
100
AcDbArc
 50
330.872218
 51
29.127782
  0
LINE
  5
336
100
AcDbEntity
  8
MSL-3-80-0
100
AcDbLine
 10
-200.623472
 20
-587.476017
 30
0.0
 11
-200.623472
 21
-579.476017
 31
0.0
  0
ARC
  5
337
100
AcDbEntity
  8
MSL-3-80-0
100
AcDbCircle
 10
-202.916528
 20
-589.105182
 30
0.0
 40
2.293056
100
AcDbArc
 50
305.085848
 51
54.914152
  0
ARC
  5
338
100
AcDbEntity
  8
MSL-3-80-0
100
AcDbCircle
 10
-202.916528
 20
-577.846852
 30
0.0
 40
2.293056
100
AcDbArc
 50
305.085848
 51
54.914152
  0
LINE
  5
339
100
AcDbEntity
  8
MSL-3-80-0
100
AcDbLine
 10
-207.123472
 20
-577.846852
 30
0.0
 11
-207.123472
 21
-589.105182
 31
0.0
  0
ARC
  5
33A
100
AcDbEntity
  8
MSL-3-80-0
100
AcDbCircle
 10
-199.41375
 20
-583.476017
 30
0.0
 40
7.709722
100
AcDbArc
 50
150.872216
 51
209.127784
  0
ARC
  5
33B
100
AcDbEntity
  8
MSL-3-80-0
100
AcDbCircle
 10
-204.830417
 20
-589.105182
 30
0.0
 40
2.293056
100
AcDbArc
 50
125.085847
 51
234.914153
  0
ARC
  5
33C
100
AcDbEntity
  8
MSL-3-80-0
100
AcDbCircle
 10
-204.830417
 20
-577.846852
 30
0.0
 40
2.293056
100
AcDbArc
 50
125.085847
 51
234.914153
  0
LINE
  5
33D
100
AcDbEntity
  8
MSL-3-80-0
100
AcDbLine
 10
-206.148472
 20
-590.981571
 30
0.0
 11
-201.598472
 21
-590.981571
 31
0.0
  0
LINE
  5
33E
100
AcDbEntity
  8
MSL-3-80-0
100
AcDbLine
 10
-206.148472
 20
-587.228794
 30
0.0
 11
-201.598472
 21
-587.228794
 31
0.0
  0
LINE
  5
33F
100
AcDbEntity
  8
MSL-3-80-0
100
AcDbLine
 10
-206.148472
 20
-575.970464
 30
0.0
 11
-201.598472
 21
-575.970464
 31
0.0
  0
LINE
  5
340
100
AcDbEntity
  8
MSL-3-80-0
100
AcDbLine
 10
-206.148472
 20
-579.72324
 30
0.0
 11
-201.598472
 21
-579.72324
 31
0.0
  0
LINE
  5
341
100
AcDbEntity
  8
MSL-3-80-7
100
AcDbLine
 10
-186.623472
 20
-599.477422
 30
0.0
 11
-186.623472
 21
-593.477422
 31
0.0
  0
LINE
  5
342
100
AcDbEntity
  8
MSL-3-80-7
100
AcDbLine
 10
-186.623472
 20
-599.477422
 30
0.0
 11
-186.623472
 21
-605.477422
 31
0.0
  0
LINE
  5
343
100
AcDbEntity
  8
MSL-3-80-7
100
AcDbLine
 10
-186.623472
 20
-599.477422
 30
0.0
 11
-180.623472
 21
-599.477422
 31
0.0
  0
LINE
  5
344
100
AcDbEntity
  8
MSL-3-80-7
100
AcDbLine
 10
-186.623472
 20
-459.333235
 30
0.0
 11
-186.623472
 21
-482.75265
 31
0.0
  0
LINE
  5
345
100
AcDbEntity
  8
MSL-3-80-3
100
AcDbLine
 10
-189.623472
 20
-467.75265
 30
0.0
 11
-183.623472
 21
-467.75265
 31
0.0
  0
LINE
  5
346
100
AcDbEntity
  8
MSL-3-80-3
100
AcDbLine
 10
-189.081972
 20
-463.75265
 30
0.0
 11
-184.164972
 21
-463.75265
 31
0.0
  0
LINE
  5
347
100
AcDbEntity
  8
MSL-3-80-3
100
AcDbLine
 10
-186.623472
 20
-462.333235
 30
0.0
 11
-189.081972
 21
-463.75265
 31
0.0
  0
LINE
  5
348
100
AcDbEntity
  8
MSL-3-80-7
100
AcDbLine
 10
-177.623472
 20
-449.75265
 30
0.0
 11
-203.623472
 21
-449.75265
 31
0.0
  0
LINE
  5
349
100
AcDbEntity
  8
MSL-3-80-0
100
AcDbLine
 10
-200.623472
 20
-479.75265
 30
0.0
 11
-180.623472
 21
-479.75265
 31
0.0
  0
LINE
  5
34A
100
AcDbEntity
  8
MSL-3-80-7
100
AcDbLine
 10
-179.784638
 20
-449.75265
 30
0.0
 11
-201.521176
 21
-449.75265
 31
0.0
  0
LINE
  5
34B
100
AcDbEntity
  8
MSL-3-80-3
100
AcDbLine
 10
-180.623472
 20
-446.45265
 30
0.0
 11
-195.623472
 21
-446.45265
 31
0.0
  0
LINE
  5
34C
100
AcDbEntity
  8
MSL-3-80-3
100
AcDbLine
 10
-195.623472
 20
-453.05265
 30
0.0
 11
-180.623472
 21
-453.05265
 31
0.0
  0
LINE
  5
34D
100
AcDbEntity
  8
MSL-3-80-7
100
AcDbLine
 10
-194.623472
 20
-459.833831
 30
0.0
 11
-194.623472
 21
-469.863945
 31
0.0
  0
LINE
  5
34E
100
AcDbEntity
  8
MSL-3-80-3
100
AcDbLine
 10
-189.081972
 20
-479.75265
 30
0.0
 11
-189.081972
 21
-463.75265
 31
0.0
  0
LINE
  5
34F
100
AcDbEntity
  8
MSL-3-80-3
100
AcDbLine
 10
-189.623472
 20
-479.75265
 30
0.0
 11
-189.623472
 21
-467.75265
 31
0.0
  0
CIRCLE
  5
350
100
AcDbEntity
  8
MSL-3-80-0
100
AcDbCircle
 10
-194.623472
 20
-464.75265
 30
0.0
 40
2.5
  0
ARC
  5
351
100
AcDbEntity
  8
MSL-3-80-4
100
AcDbCircle
 10
-194.623472
 20
-464.75265
 30
0.0
 40
3.0
100
AcDbArc
 50
339.4283
 51
288.734659
  0
LINE
  5
352
100
AcDbEntity
  8
MSL-3-80-3
100
AcDbLine
 10
-200.623472
 20
-455.25265
 30
0.0
 11
-195.623472
 21
-455.25265
 31
0.0
  0
LINE
  5
353
100
AcDbEntity
  8
MSL-3-80-3
100
AcDbLine
 10
-195.623472
 20
-444.25265
 30
0.0
 11
-200.623472
 21
-444.25265
 31
0.0
  0
LINE
  5
354
100
AcDbEntity
  8
MSL-3-80-3
100
AcDbLine
 10
-195.623472
 20
-455.25265
 30
0.0
 11
-195.623472
 21
-453.05265
 31
0.0
  0
LINE
  5
355
100
AcDbEntity
  8
MSL-3-80-3
100
AcDbLine
 10
-195.623472
 20
-446.45265
 30
0.0
 11
-195.623472
 21
-444.25265
 31
0.0
  0
LINE
  5
356
100
AcDbEntity
  8
MSL-3-80-3
100
AcDbLine
 10
-195.623472
 20
-446.45265
 30
0.0
 11
-195.623472
 21
-453.05265
 31
0.0
  0
LINE
  5
357
100
AcDbEntity
  8
MSL-3-80-3
100
AcDbLine
 10
-184.164972
 20
-479.75265
 30
0.0
 11
-184.164972
 21
-463.75265
 31
0.0
  0
LINE
  5
358
100
AcDbEntity
  8
MSL-3-80-3
100
AcDbLine
 10
-183.623472
 20
-479.75265
 30
0.0
 11
-183.623472
 21
-467.75265
 31
0.0
  0
LINE
  5
359
100
AcDbEntity
  8
MSL-3-80-3
100
AcDbLine
 10
-186.623472
 20
-462.333235
 30
0.0
 11
-184.164972
 21
-463.75265
 31
0.0
  0
LINE
  5
35A
100
AcDbEntity
  8
MSL-3-80-0
100
AcDbLine
 10
-200.623472
 20
-433.75265
 30
0.0
 11
-281.623472
 21
-433.75265
 31
0.0
  0
LINE
  5
35B
100
AcDbEntity
  8
MSL-3-80-0
100
AcDbLine
 10
-281.623472
 20
-425.75265
 30
0.0
 11
-200.623472
 21
-425.75265
 31
0.0
  0
LINE
  5
35C
100
AcDbEntity
  8
MSL-3-80-0
100
AcDbLine
 10
-282.623472
 20
-418.25265
 30
0.0
 11
-281.623472
 21
-419.25265
 31
0.0
  0
LINE
  5
35D
100
AcDbEntity
  8
MSL-3-80-7
100
AcDbLine
 10
-186.623472
 20
-400.172066
 30
0.0
 11
-186.623472
 21
-376.75265
 31
0.0
  0
LINE
  5
35E
100
AcDbEntity
  8
MSL-3-80-7
100
AcDbLine
 10
-194.623472
 20
-389.833831
 30
0.0
 11
-194.623472
 21
-399.863945
 31
0.0
  0
LINE
  5
35F
100
AcDbEntity
  8
MSL-3-80-3
100
AcDbLine
 10
-189.081972
 20
-379.75265
 30
0.0
 11
-189.081972
 21
-395.75265
 31
0.0
  0
LINE
  5
360
100
AcDbEntity
  8
MSL-3-80-3
100
AcDbLine
 10
-184.164972
 20
-379.75265
 30
0.0
 11
-184.164972
 21
-395.75265
 31
0.0
  0
ARC
  5
361
100
AcDbEntity
  8
MSL-3-80-4
100
AcDbCircle
 10
-194.623472
 20
-394.75265
 30
0.0
 40
3.0
100
AcDbArc
 50
339.4283
 51
288.734659
  0
CIRCLE
  5
362
100
AcDbEntity
  8
MSL-3-80-0
100
AcDbCircle
 10
-194.623472
 20
-394.75265
 30
0.0
 40
2.5
  0
LINE
  5
363
100
AcDbEntity
  8
MSL-3-80-3
100
AcDbLine
 10
-184.164972
 20
-395.75265
 30
0.0
 11
-189.081972
 21
-395.75265
 31
0.0
  0
LINE
  5
364
100
AcDbEntity
  8
MSL-3-80-3
100
AcDbLine
 10
-186.623472
 20
-397.172066
 30
0.0
 11
-189.081972
 21
-395.75265
 31
0.0
  0
LINE
  5
365
100
AcDbEntity
  8
MSL-3-80-7
100
AcDbLine
 10
-177.623472
 20
-409.75265
 30
0.0
 11
-203.623472
 21
-409.75265
 31
0.0
  0
LINE
  5
366
100
AcDbEntity
  8
MSL-3-80-3
100
AcDbLine
 10
-180.623472
 20
-412.75265
 30
0.0
 11
-200.623472
 21
-412.75265
 31
0.0
  0
LINE
  5
367
100
AcDbEntity
  8
MSL-3-80-3
100
AcDbLine
 10
-180.623472
 20
-406.75265
 30
0.0
 11
-200.623472
 21
-406.75265
 31
0.0
  0
LINE
  5
368
100
AcDbEntity
  8
MSL-3-80-0
100
AcDbLine
 10
-200.623472
 20
-425.75265
 30
0.0
 11
-200.623472
 21
-433.75265
 31
0.0
  0
LINE
  5
369
100
AcDbEntity
  8
MSL-3-80-3
100
AcDbLine
 10
-186.623472
 20
-397.172066
 30
0.0
 11
-184.164972
 21
-395.75265
 31
0.0
  0
LINE
  5
36A
100
AcDbEntity
  8
MSL-3-80-3
100
AcDbLine
 10
-183.623472
 20
-391.75265
 30
0.0
 11
-189.623472
 21
-391.75265
 31
0.0
  0
LINE
  5
36B
100
AcDbEntity
  8
MSL-3-80-0
100
AcDbLine
 10
-180.623472
 20
-379.75265
 30
0.0
 11
-200.623472
 21
-379.75265
 31
0.0
  0
LINE
  5
36C
100
AcDbEntity
  8
MSL-3-80-3
100
AcDbLine
 10
-189.623472
 20
-379.75265
 30
0.0
 11
-189.623472
 21
-391.75265
 31
0.0
  0
LINE
  5
36D
100
AcDbEntity
  8
MSL-3-80-3
100
AcDbLine
 10
-183.623472
 20
-379.75265
 30
0.0
 11
-183.623472
 21
-391.75265
 31
0.0
  0
CIRCLE
  5
370
100
AcDbEntity
  8
MSL-3-80-0
100
AcDbCircle
 10
-648.639257
 20
-619.47719
 30
0.0
 40
8.0
  0
CIRCLE
  5
371
100
AcDbEntity
  8
MSL-3-80-0
100
AcDbCircle
 10
-578.639257
 20
-619.477099
 30
0.0
 40
8.0
  0
ENDSEC
  0
SECTION
  2
OBJECTS
  0
DICTIONARY
  5
1A
100
AcDbDictionary
  3
ACAD_GROUP
350
18
  3
ACAD_MLINESTYLE
350
19
  0
DICTIONARY
  5
18
102
{ACAD_REACTORS
330
1A
102
}
100
AcDbDictionary
  0
DICTIONARY
  5
19
102
{ACAD_REACTORS
330
1A
102
}
100
AcDbDictionary
  3
STANDARD
350
1C
  0
MLINESTYLE
  5
1C
102
{ACAD_REACTORS
330
19
102
}
100
AcDbMlineStyle
  2
STANDARD
 70
     0
  3

 62
     0
 51
90.0
 52
90.0
 71
     2
 49
0.5
 62
   256
  6
BYLAYER
 49
-0.5
 62
   256
  6
BYLAYER
  0
ENDSEC
  0
EOF
